0
SECTION
2
HEADER
9
$ACADVER
1
AC1012
9
$EXTMIN
10
0.380000
20
0.380000
30
0.0
9
$EXTMAX
10
13.000000
20
13.780000
30
0.0
9
$LIMMIN
10
9.652000
20
9.652000
9
$LIMMAX
10
330.200000
20
350.012000
9
$DIMSCALE
40
1.000000
9
$PDMODE
70
2
9
$PDSIZE
40
0.0
  9
$HANDSEED
  5
3a1
0
ENDSEC
0
SECTION
2
CLASSES
0
ENDSEC
0
SECTION
2
TABLES
0
TABLE
2
LTYPE
5
1e
100
AcDbSymbolTable
70
12
0
LTYPE
5
1f
100
AcDbSymbolTableRecord
100
AcDbLinetypeTableRecord
2
BYBLOCK
70
0
3

72
65
73
0
40
0.0
0
LTYPE
5
20
100
AcDbSymbolTableRecord
100
AcDbLinetypeTableRecord
2
BYLAYER
70
0
3

72
65
73
0
40
0.0
0
LTYPE
5
21
100
AcDbSymbolTableRecord
100
AcDbLinetypeTableRecord
2
CONTINUOUS
70
64
3
Solid line
72
65
73
0
40
0.0
0
LTYPE
5
22
100
AcDbSymbolTableRecord
100
AcDbLinetypeTableRecord
2
DASHED
70
64
3
__ __ __ __ __ __ __ __ __ __ __ __ __ __ __
72
65
73
2
40
0.75
49
0.5
74
0
49
-0.25
74
0
0
LTYPE
5
23
100
AcDbSymbolTableRecord
100
AcDbLinetypeTableRecord
2
DOT
70
64
3
...............................................
72
65
73
2
40
0.25
49
0.0
74
0
49
-0.25
74
0
0
LTYPE
5
24
100
AcDbSymbolTableRecord
100
AcDbLinetypeTableRecord
2
DASHDOT
70
64
3
__ . __ . __ . __ . __ . __ . __ . __ . __ . --
72
65
73
4
40
1.0
49
0.5
74
0
49
-0.25
74
0
49
0.0
74
0
49
-0.25
74
0
0
LTYPE
5
25
100
AcDbSymbolTableRecord
100
AcDbLinetypeTableRecord
2
CENTER
70
64
3
____ _ ____ _ ____ _ ____ _ ____ _ ____ _ ____
72
65
73
4
40
2.0
49
1.25
74
0
49
-0.25
74
0
49
0.25
74
0
49
-0.25
74
0
0
LTYPE
5
26
100
AcDbSymbolTableRecord
100
AcDbLinetypeTableRecord
2
PHANTOM
70
64
3
_____ _ _ _____ _ _ _____ _ _ _____ _ _ ____
72
65
73
6
40
2.5
49
1.25
74
0
49
-0.25
74
0
49
0.25
74
0
49
-0.25
74
0
49
0.25
74
0
49
-0.25
74
0
0
LTYPE
5
27
100
AcDbSymbolTableRecord
100
AcDbLinetypeTableRecord
2
HIDDEN
70
64
3
_ _ _ _ _ _ _ _ _ _ _ _ _ _ _ _ _ _ _ _ _ _ _
72
65
73
2
40
0.375
49
0.25
74
0
49
-0.125
74
0
0
LTYPE
5
28
100
AcDbSymbolTableRecord
100
AcDbLinetypeTableRecord
2
BORDER
70
64
3
__ __ . __ __ . __ __ . __ __ . __ __ . __ __
72
65
73
6
40
1.75
49
0.5
74
0
49
-0.25
74
0
49
0.5
74
0
49
-0.25
74
0
49
0.0
74
0
49
-0.25
74
0
0
LTYPE
5
29
100
AcDbSymbolTableRecord
100
AcDbLinetypeTableRecord
2
DIVIDE
70
64
3
__ . . __ . . __ . . __ . . __ . . __ . . __
72
65
73
6
40
1.25
49
0.5
74
0
49
-0.25
74
0
49
0.0
74
0
49
-0.25
74
0
49
0.0
74
0
49
-0.25
74
0
0
LTYPE
5
2a
100
AcDbSymbolTableRecord
100
AcDbLinetypeTableRecord
2
DOT2
70
64
3
...............................................
72
65
73
2
40
0.125
49
0.0
74
0
49
-0.125
74
0
0
ENDTAB
0
TABLE
2
STYLE
5
2b
100
AcDbSymbolTable
70
1
0
STYLE
5
2c
100
AcDbSymbolTableRecord
100
AcDbTextStyleTableRecord
2
STANDARD
70
64
40
0.0
41
1.0
50
0.0
71
0
42
5.0
3
txt
4
bigfont
0
ENDTAB
0
TABLE
2
LAYER
5
2d
100
AcDbSymbolTable
70
5
0
LAYER
5
2e
100
AcDbSymbolTableRecord
100
AcDbLayerTableRecord
2
0
70
0
62
7
6
CONTINUOUS
0
LAYER
5
2f
100
AcDbSymbolTableRecord
100
AcDbLayerTableRecord
2
1
70
0
62
7
6
CONTINUOUS
0
LAYER
5
30
100
AcDbSymbolTableRecord
100
AcDbLayerTableRecord
2
6
70
0
62
7
6
CONTINUOUS
0
LAYER
5
31
100
AcDbSymbolTableRecord
100
AcDbLayerTableRecord
2
3
70
0
62
7
6
CONTINUOUS
0
LAYER
5
32
100
AcDbSymbolTableRecord
100
AcDbLayerTableRecord
2
2
70
0
62
7
6
CONTINUOUS
0
ENDTAB
0
TABLE
2
APPID
5
33
100
AcDbSymbolTable
70
1
0
APPID
5
34
100
AcDbSymbolTableRecord
100
AcDbRegAppTableRecord
2
ACAD
70
64
0
ENDTAB
0
TABLE
2
DIMSTYLE
5
35
100
AcDbSymbolTable
70
0
0
ENDTAB
0
TABLE
2
UCS
5
36
100
AcDbSymbolTable
70
0
0
ENDTAB
0
TABLE
2
VIEW
5
37
100
AcDbSymbolTable
70
0
0
ENDTAB
0
TABLE
2
VPORT
5
38
100
AcDbSymbolTable
70
0
0
ENDTAB
0
TABLE
2
BLOCK_RECORD
5
39
100
AcDbSymbolTable
70
0
0
BLOCK_RECORD
5
3a
100
AcDbSymbolTableRecord
100
AcDbBlockTableRecord
2
*MODEL_SPACE
0
BLOCK_RECORD
5
3b
100
AcDbSymbolTableRecord
100
AcDbBlockTableRecord
2
*PAPER_SPACE
0
BLOCK_RECORD
5
3c
100
AcDbSymbolTableRecord
100
AcDbBlockTableRecord
2
OPEN
0
BLOCK_RECORD
5
3d
100
AcDbSymbolTableRecord
100
AcDbBlockTableRecord
2
HALF
0
BLOCK_RECORD
5
3e
100
AcDbSymbolTableRecord
100
AcDbBlockTableRecord
2
CLOSEDBLANK
0
BLOCK_RECORD
5
3f
100
AcDbSymbolTableRecord
100
AcDbBlockTableRecord
2
HALFCLOSE_R
0
BLOCK_RECORD
5
40
100
AcDbSymbolTableRecord
100
AcDbBlockTableRecord
2
DOT
0
BLOCK_RECORD
5
41
100
AcDbSymbolTableRecord
100
AcDbBlockTableRecord
2
HALFOPEN_R
0
BLOCK_RECORD
5
42
100
AcDbSymbolTableRecord
100
AcDbBlockTableRecord
2
CLOSEDF
0
BLOCK_RECORD
5
43
100
AcDbSymbolTableRecord
100
AcDbBlockTableRecord
2
HALF_R
0
ENDTAB
0
ENDSEC
0
SECTION
2
BLOCKS
0
BLOCK
5
44
100
AcDbEntity
8
0
100
AcDbBlockBegin
2
*MODEL_SPACE
70
0
10
0.0
20
0.0
30
0.0
3
*MODEL_SPACE
1

0
ENDBLK
5
45
100
AcDbEntity
8
0
100
AcDbBlockEnd
0
BLOCK
5
46
100
AcDbEntity
67
1
8
0
100
AcDbBlockBegin
2
*PAPER_SPACE
70
0
10
0.0
20
0.0
30
0.0
3
*PAPER_SPACE
1

0
ENDBLK
5
47
100
AcDbEntity
67
1
8
0
100
AcDbBlockEnd
0
BLOCK
5
48
100
AcDbEntity
8
0
100
AcDbBlockBegin
2
OPEN
70
0
10
0.0
20
0.0
30
0.0
3
OPEN
1

0
LINE
5
49
100
AcDbEntity
8
0
6
BYBLOCK
62
0
100
AcDbLine
10
0.000000
20
0.000000
11
-1.000000
21
0.000000
0
LINE
5
4a
100
AcDbEntity
8
0
6
BYBLOCK
62
0
100
AcDbLine
10
-1.000000
20
-0.166667
11
0.000000
21
0.000000
0
LINE
5
4b
100
AcDbEntity
8
0
6
BYBLOCK
62
0
100
AcDbLine
10
-1.000000
20
0.166667
11
0.000000
21
0.000000
0
ENDBLK
5
4c
100
AcDbEntity
8
0
100
AcDbBlockEnd
0
BLOCK
5
4d
100
AcDbEntity
8
0
100
AcDbBlockBegin
2
HALF
70
0
10
0.0
20
0.0
30
0.0
3
HALF
1

0
SOLID
5
4e
100
AcDbEntity
8
0
6
BYBLOCK
62
0
100
AcDbTrace
10
-1.000000
20
0.166667
11
-1.000000
21
-0.166667
12
0.000000
22
0.000000
13
0.000000
23
0.000000
0
ENDBLK
5
4f
100
AcDbEntity
8
0
100
AcDbBlockEnd
0
BLOCK
5
50
100
AcDbEntity
8
0
100
AcDbBlockBegin
2
CLOSEDBLANK
70
0
10
0.0
20
0.0
30
0.0
3
CLOSEDBLANK
1

0
LINE
5
51
100
AcDbEntity
8
0
6
BYBLOCK
62
0
100
AcDbLine
10
-1.000000
20
0.166667
11
-1.000000
21
-0.166667
0
LINE
5
52
100
AcDbEntity
8
0
6
BYBLOCK
62
0
100
AcDbLine
10
0.000000
20
0.000000
11
-1.000000
21
-0.166667
0
LINE
5
53
100
AcDbEntity
8
0
6
BYBLOCK
62
0
100
AcDbLine
10
-1.000000
20
0.166667
11
0.000000
21
0.000000
0
ENDBLK
5
54
100
AcDbEntity
8
0
100
AcDbBlockEnd
0
BLOCK
5
55
100
AcDbEntity
8
0
100
AcDbBlockBegin
2
HALFCLOSE_R
70
0
10
0.0
20
0.0
30
0.0
3
HALFCLOSE_R
1

0
LINE
5
56
100
AcDbEntity
8
0
6
BYBLOCK
62
0
100
AcDbLine
10
-1.000000
20
-0.166667
11
-1.000000
21
0.000000
0
LINE
5
57
100
AcDbEntity
8
0
6
BYBLOCK
62
0
100
AcDbLine
10
-1.000000
20
-0.166667
11
0.000000
21
0.000000
0
LINE
5
58
100
AcDbEntity
8
0
6
BYBLOCK
62
0
100
AcDbLine
10
0.000000
20
0.000000
11
-1.000000
21
0.000000
0
ENDBLK
5
59
100
AcDbEntity
8
0
100
AcDbBlockEnd
0
BLOCK
5
5a
100
AcDbEntity
8
0
100
AcDbBlockBegin
2
DOT
70
0
10
0.0
20
0.0
30
0.0
3
DOT
1

0
LINE
5
5b
100
AcDbEntity
8
0
6
BYBLOCK
62
0
100
AcDbLine
10
0.000000
20
0.000000
11
-1.000000
21
0.000000
0
POLYLINE
5
5c
100
AcDbEntity
8
0
6
BYBLOCK
62
0
100
AcDb2dPolyline
66
1
10
0.0
20
0.0
30
0.0
70
1
40
0.166667
41
0.166667
0
VERTEX
5
5d
100
AcDbEntity
8
0
100
AcDbVertex
100
AcDb2dVertex
62
10
10
-0.083333
20
0.000000
42
1.000000
0
VERTEX
5
5e
100
AcDbEntity
8
0
100
AcDbVertex
100
AcDb2dVertex
62
10
10
0.083333
20
0.000000
42
1.000000
0
SEQEND
5
5f
100
AcDbEntity
8
0
0
ENDBLK
5
60
100
AcDbEntity
8
0
100
AcDbBlockEnd
0
BLOCK
5
61
100
AcDbEntity
8
0
100
AcDbBlockBegin
2
HALFOPEN_R
70
0
10
0.0
20
0.0
30
0.0
3
HALFOPEN_R
1

0
LINE
5
62
100
AcDbEntity
8
0
6
BYBLOCK
62
0
100
AcDbLine
10
-1.000000
20
-0.166667
11
0.000000
21
0.000000
0
LINE
5
63
100
AcDbEntity
8
0
6
BYBLOCK
62
0
100
AcDbLine
10
0.000000
20
0.000000
11
-1.000000
21
0.000000
0
ENDBLK
5
64
100
AcDbEntity
8
0
100
AcDbBlockEnd
0
BLOCK
5
65
100
AcDbEntity
8
0
100
AcDbBlockBegin
2
CLOSEDF
70
0
10
0.0
20
0.0
30
0.0
3
CLOSEDF
1

0
SOLID
5
66
100
AcDbEntity
8
0
6
BYBLOCK
62
0
100
AcDbTrace
10
-1.000000
20
0.166667
11
-1.000000
21
-0.166667
12
0.000000
22
0.000000
13
0.000000
23
0.000000
0
ENDBLK
5
67
100
AcDbEntity
8
0
100
AcDbBlockEnd
0
BLOCK
5
68
100
AcDbEntity
8
0
100
AcDbBlockBegin
2
HALF_R
70
0
10
0.0
20
0.0
30
0.0
3
HALF_R
1

0
SOLID
5
69
100
AcDbEntity
8
0
6
BYBLOCK
62
0
100
AcDbTrace
10
-1.000000
20
-0.166667
11
-1.000000
21
0.000000
12
0.000000
22
0.000000
13
0.000000
23
0.000000
0
ENDBLK
5
6a
100
AcDbEntity
8
0
100
AcDbBlockEnd
0
ENDSEC
0
SECTION
2
ENTITIES
0
LINE
5
6b
100
AcDbEntity
8
1
100
AcDbLine
6
CONTINUOUS
62
5
10
213.250000
20
324.312500
11
213.500000
21
323.062500
0
LINE
5
6c
100
AcDbEntity
8
1
100
AcDbLine
6
CONTINUOUS
62
5
10
214.750000
20
324.625000
11
215.000000
21
323.375000
0
POLYLINE
5
6d
100
AcDbEntity
8
1
6
CONTINUOUS
62
5
100
AcDb2dPolyline
66
1
10
0.0
20
0.0
30
0.0
70
0
0
VERTEX
5
6e
100
AcDbEntity
8
1
100
AcDbVertex
100
AcDb2dVertex
62
5
10
216.750000
20
324.625000
0
VERTEX
5
6f
100
AcDbEntity
8
1
100
AcDbVertex
100
AcDb2dVertex
62
5
10
216.500000
20
323.062500
0
VERTEX
5
70
100
AcDbEntity
8
1
100
AcDbVertex
100
AcDb2dVertex
62
5
10
215.250000
20
321.187500
0
VERTEX
5
71
100
AcDbEntity
8
1
100
AcDbVertex
100
AcDb2dVertex
62
5
10
214.250000
20
320.250000
0
SEQEND
5
72
100
AcDbEntity
8
1
0
POLYLINE
5
73
100
AcDbEntity
8
1
6
CONTINUOUS
62
5
100
AcDb2dPolyline
66
1
10
0.0
20
0.0
30
0.0
70
0
0
VERTEX
5
74
100
AcDbEntity
8
1
100
AcDbVertex
100
AcDb2dVertex
62
5
10
220.750000
20
324.000000
0
VERTEX
5
75
100
AcDbEntity
8
1
100
AcDbVertex
100
AcDb2dVertex
62
5
10
221.750000
20
325.250000
0
VERTEX
5
76
100
AcDbEntity
8
1
100
AcDbVertex
100
AcDb2dVertex
62
5
10
222.250000
20
326.187500
0
VERTEX
5
77
100
AcDbEntity
8
1
100
AcDbVertex
100
AcDb2dVertex
62
5
10
224.750000
20
326.187500
0
VERTEX
5
78
100
AcDbEntity
8
1
100
AcDbVertex
100
AcDb2dVertex
62
5
10
224.750000
20
325.875000
0
VERTEX
5
79
100
AcDbEntity
8
1
100
AcDbVertex
100
AcDb2dVertex
62
5
10
224.000000
20
324.000000
0
VERTEX
5
7a
100
AcDbEntity
8
1
100
AcDbVertex
100
AcDb2dVertex
62
5
10
222.750000
20
322.125000
0
VERTEX
5
7b
100
AcDbEntity
8
1
100
AcDbVertex
100
AcDb2dVertex
62
5
10
221.250000
20
320.562500
0
SEQEND
5
7c
100
AcDbEntity
8
1
0
POLYLINE
5
7d
100
AcDbEntity
8
1
6
CONTINUOUS
62
5
100
AcDb2dPolyline
66
1
10
0.0
20
0.0
30
0.0
70
0
0
VERTEX
5
7e
100
AcDbEntity
8
1
100
AcDbVertex
100
AcDb2dVertex
62
5
10
230.250000
20
328.375000
0
VERTEX
5
7f
100
AcDbEntity
8
1
100
AcDbVertex
100
AcDb2dVertex
62
5
10
229.500000
20
327.125000
0
VERTEX
5
80
100
AcDbEntity
8
1
100
AcDbVertex
100
AcDb2dVertex
62
5
10
228.750000
20
326.187500
0
VERTEX
5
81
100
AcDbEntity
8
1
100
AcDbVertex
100
AcDb2dVertex
62
5
10
227.750000
20
325.250000
0
SEQEND
5
82
100
AcDbEntity
8
1
0
POLYLINE
5
83
100
AcDbEntity
8
1
6
CONTINUOUS
62
5
100
AcDb2dPolyline
66
1
10
0.0
20
0.0
30
0.0
70
0
0
VERTEX
5
84
100
AcDbEntity
8
1
100
AcDbVertex
100
AcDb2dVertex
62
5
10
230.000000
20
327.750000
0
VERTEX
5
85
100
AcDbEntity
8
1
100
AcDbVertex
100
AcDb2dVertex
62
5
10
232.250000
20
327.750000
0
VERTEX
5
86
100
AcDbEntity
8
1
100
AcDbVertex
100
AcDb2dVertex
62
5
10
231.000000
20
325.875000
0
SEQEND
5
87
100
AcDbEntity
8
1
0
POLYLINE
5
88
100
AcDbEntity
8
1
6
CONTINUOUS
62
5
100
AcDb2dPolyline
66
1
10
0.0
20
0.0
30
0.0
70
0
0
VERTEX
5
89
100
AcDbEntity
8
1
100
AcDbVertex
100
AcDb2dVertex
62
5
10
228.750000
20
325.875000
0
VERTEX
5
8a
100
AcDbEntity
8
1
100
AcDbVertex
100
AcDb2dVertex
62
5
10
233.250000
20
325.875000
0
VERTEX
5
8b
100
AcDbEntity
8
1
100
AcDbVertex
100
AcDb2dVertex
62
5
10
233.250000
20
323.062500
0
VERTEX
5
8c
100
AcDbEntity
8
1
100
AcDbVertex
100
AcDb2dVertex
62
5
10
228.750000
20
323.062500
0
SEQEND
5
8d
100
AcDbEntity
8
1
0
LINE
5
8e
100
AcDbEntity
8
1
100
AcDbLine
6
CONTINUOUS
62
5
10
231.000000
20
325.875000
11
231.000000
21
323.062500
0
POLYLINE
5
8f
100
AcDbEntity
8
1
6
CONTINUOUS
62
5
100
AcDb2dPolyline
66
1
10
0.0
20
0.0
30
0.0
70
0
0
VERTEX
5
90
100
AcDbEntity
8
1
100
AcDbVertex
100
AcDb2dVertex
62
5
10
228.750000
20
325.875000
0
VERTEX
5
91
100
AcDbEntity
8
1
100
AcDbVertex
100
AcDb2dVertex
62
5
10
228.750000
20
320.562500
0
VERTEX
5
92
100
AcDbEntity
8
1
100
AcDbVertex
100
AcDb2dVertex
62
5
10
229.250000
20
319.937500
0
VERTEX
5
93
100
AcDbEntity
8
1
100
AcDbVertex
100
AcDb2dVertex
62
5
10
234.250000
20
319.937500
0
VERTEX
5
94
100
AcDbEntity
8
1
100
AcDbVertex
100
AcDb2dVertex
62
5
10
234.250000
20
321.187500
0
SEQEND
5
95
100
AcDbEntity
8
1
0
POLYLINE
5
96
100
AcDbEntity
8
1
6
CONTINUOUS
62
5
100
AcDb2dPolyline
66
1
10
0.0
20
0.0
30
0.0
70
0
0
VERTEX
5
97
100
AcDbEntity
8
1
100
AcDbVertex
100
AcDb2dVertex
62
5
10
196.250000
20
325.875000
0
VERTEX
5
98
100
AcDbEntity
8
1
100
AcDbVertex
100
AcDb2dVertex
62
5
10
200.000000
20
325.875000
0
VERTEX
5
99
100
AcDbEntity
8
1
100
AcDbVertex
100
AcDb2dVertex
62
5
10
200.000000
20
324.937500
0
VERTEX
5
9a
100
AcDbEntity
8
1
100
AcDbVertex
100
AcDb2dVertex
62
5
10
199.750000
20
323.687500
0
VERTEX
5
9b
100
AcDbEntity
8
1
100
AcDbVertex
100
AcDb2dVertex
62
5
10
199.250000
20
322.750000
0
VERTEX
5
9c
100
AcDbEntity
8
1
100
AcDbVertex
100
AcDb2dVertex
62
5
10
198.750000
20
321.812500
0
VERTEX
5
9d
100
AcDbEntity
8
1
100
AcDbVertex
100
AcDb2dVertex
62
5
10
197.250000
20
320.562500
0
SEQEND
5
9e
100
AcDbEntity
8
1
0
LINE
5
9f
100
AcDbEntity
8
1
100
AcDbLine
6
CONTINUOUS
62
5
10
200.500000
20
327.125000
11
201.250000
21
326.187500
0
LINE
5
a0
100
AcDbEntity
8
1
100
AcDbLine
6
CONTINUOUS
62
5
10
201.500000
20
327.750000
11
202.000000
21
326.812500
0
POLYLINE
5
a1
100
AcDbEntity
8
1
6
CONTINUOUS
62
5
100
AcDb2dPolyline
66
1
10
0.0
20
0.0
30
0.0
70
0
0
VERTEX
5
a2
100
AcDbEntity
8
1
100
AcDbVertex
100
AcDb2dVertex
62
5
10
204.500000
20
324.625000
0
VERTEX
5
a3
100
AcDbEntity
8
1
100
AcDbVertex
100
AcDb2dVertex
62
5
10
209.250000
20
324.625000
0
VERTEX
5
a4
100
AcDbEntity
8
1
100
AcDbVertex
100
AcDb2dVertex
62
5
10
209.250000
20
324.312500
0
VERTEX
5
a5
100
AcDbEntity
8
1
100
AcDbVertex
100
AcDb2dVertex
62
5
10
208.000000
20
322.125000
0
VERTEX
5
a6
100
AcDbEntity
8
1
100
AcDbVertex
100
AcDb2dVertex
62
5
10
207.000000
20
321.187500
0
VERTEX
5
a7
100
AcDbEntity
8
1
100
AcDbVertex
100
AcDb2dVertex
62
5
10
206.000000
20
320.562500
0
SEQEND
5
a8
100
AcDbEntity
8
1
0
LINE
5
a9
100
AcDbEntity
8
1
100
AcDbLine
6
CONTINUOUS
62
5
10
205.250000
20
326.812500
11
208.750000
21
326.812500
0
LINE
5
aa
100
AcDbEntity
8
1
100
AcDbLine
6
CONTINUOUS
62
5
10
172.750000
20
326.187500
11
173.750000
21
324.625000
0
POLYLINE
5
ab
100
AcDbEntity
8
1
6
CONTINUOUS
62
5
100
AcDb2dPolyline
66
1
10
0.0
20
0.0
30
0.0
70
0
0
VERTEX
5
ac
100
AcDbEntity
8
1
100
AcDbVertex
100
AcDb2dVertex
62
5
10
177.000000
20
326.500000
0
VERTEX
5
ad
100
AcDbEntity
8
1
100
AcDbVertex
100
AcDb2dVertex
62
5
10
176.750000
20
324.625000
0
VERTEX
5
ae
100
AcDbEntity
8
1
100
AcDbVertex
100
AcDb2dVertex
62
5
10
175.000000
20
321.812500
0
VERTEX
5
af
100
AcDbEntity
8
1
100
AcDbVertex
100
AcDb2dVertex
62
5
10
173.750000
20
320.875000
0
SEQEND
5
b0
100
AcDbEntity
8
1
0
POLYLINE
5
b1
100
AcDbEntity
8
1
6
CONTINUOUS
62
5
100
AcDb2dPolyline
66
1
10
0.0
20
0.0
30
0.0
70
0
0
VERTEX
5
b2
100
AcDbEntity
8
1
100
AcDbVertex
100
AcDb2dVertex
62
5
10
180.500000
20
325.875000
0
VERTEX
5
b3
100
AcDbEntity
8
1
100
AcDbVertex
100
AcDb2dVertex
62
5
10
184.750000
20
325.875000
0
VERTEX
5
b4
100
AcDbEntity
8
1
100
AcDbVertex
100
AcDb2dVertex
62
5
10
184.750000
20
325.250000
0
VERTEX
5
b5
100
AcDbEntity
8
1
100
AcDbVertex
100
AcDb2dVertex
62
5
10
184.250000
20
323.375000
0
VERTEX
5
b6
100
AcDbEntity
8
1
100
AcDbVertex
100
AcDb2dVertex
62
5
10
183.250000
20
321.812500
0
VERTEX
5
b7
100
AcDbEntity
8
1
100
AcDbVertex
100
AcDb2dVertex
62
5
10
182.000000
20
320.875000
0
VERTEX
5
b8
100
AcDbEntity
8
1
100
AcDbVertex
100
AcDb2dVertex
62
5
10
181.250000
20
320.562500
0
SEQEND
5
b9
100
AcDbEntity
8
1
0
POLYLINE
5
ba
100
AcDbEntity
8
1
6
CONTINUOUS
62
5
100
AcDb2dPolyline
66
1
10
0.0
20
0.0
30
0.0
70
0
0
VERTEX
5
bb
100
AcDbEntity
8
1
100
AcDbVertex
100
AcDb2dVertex
62
5
10
190.250000
20
324.937500
0
VERTEX
5
bc
100
AcDbEntity
8
1
100
AcDbVertex
100
AcDb2dVertex
62
5
10
190.500000
20
324.937500
0
VERTEX
5
bd
100
AcDbEntity
8
1
100
AcDbVertex
100
AcDb2dVertex
62
5
10
192.250000
20
323.687500
0
SEQEND
5
be
100
AcDbEntity
8
1
0
LINE
5
bf
100
AcDbEntity
8
1
100
AcDbLine
6
CONTINUOUS
62
5
10
190.250000
20
327.750000
11
190.250000
21
320.250000
0
LINE
5
c0
100
AcDbEntity
8
6
100
AcDbLine
6
DOT2
62
5
10
171.875000
20
239.525000
11
171.250000
21
238.900000
0
POLYLINE
5
c1
100
AcDbEntity
8
6
6
DOT2
62
5
100
AcDb2dPolyline
66
1
10
0.0
20
0.0
30
0.0
70
0
0
VERTEX
5
c2
100
AcDbEntity
8
6
100
AcDbVertex
100
AcDb2dVertex
62
5
10
171.250000
20
239.525000
0
VERTEX
5
c3
100
AcDbEntity
8
6
100
AcDbVertex
100
AcDb2dVertex
62
5
10
171.875000
20
238.900000
0
VERTEX
5
c4
100
AcDbEntity
8
6
100
AcDbVertex
100
AcDb2dVertex
62
5
10
171.250000
20
238.900000
0
VERTEX
5
c5
100
AcDbEntity
8
6
100
AcDbVertex
100
AcDb2dVertex
62
5
10
171.250000
20
239.525000
0
VERTEX
5
c6
100
AcDbEntity
8
6
100
AcDbVertex
100
AcDb2dVertex
62
5
10
171.875000
20
239.525000
0
VERTEX
5
c7
100
AcDbEntity
8
6
100
AcDbVertex
100
AcDb2dVertex
62
5
10
171.875000
20
238.900000
0
SEQEND
5
c8
100
AcDbEntity
8
6
0
POLYLINE
5
c9
100
AcDbEntity
8
6
6
DOT2
62
5
100
AcDb2dPolyline
66
1
10
0.0
20
0.0
30
0.0
70
0
0
VERTEX
5
ca
100
AcDbEntity
8
6
100
AcDbVertex
100
AcDb2dVertex
62
5
10
176.250000
20
244.212500
0
VERTEX
5
cb
100
AcDbEntity
8
6
100
AcDbVertex
100
AcDb2dVertex
62
5
10
176.562500
20
245.775000
0
VERTEX
5
cc
100
AcDbEntity
8
6
100
AcDbVertex
100
AcDb2dVertex
62
5
10
177.500000
20
246.400000
0
VERTEX
5
cd
100
AcDbEntity
8
6
100
AcDbVertex
100
AcDb2dVertex
62
5
10
178.437500
20
246.400000
0
VERTEX
5
ce
100
AcDbEntity
8
6
100
AcDbVertex
100
AcDb2dVertex
62
5
10
179.062500
20
246.087500
0
VERTEX
5
cf
100
AcDbEntity
8
6
100
AcDbVertex
100
AcDb2dVertex
62
5
10
179.375000
20
245.150000
0
VERTEX
5
d0
100
AcDbEntity
8
6
100
AcDbVertex
100
AcDb2dVertex
62
5
10
179.375000
20
244.212500
0
VERTEX
5
d1
100
AcDbEntity
8
6
100
AcDbVertex
100
AcDb2dVertex
62
5
10
179.062500
20
243.275000
0
VERTEX
5
d2
100
AcDbEntity
8
6
100
AcDbVertex
100
AcDb2dVertex
62
5
10
176.250000
20
238.900000
0
VERTEX
5
d3
100
AcDbEntity
8
6
100
AcDbVertex
100
AcDb2dVertex
62
5
10
179.375000
20
238.900000
0
VERTEX
5
d4
100
AcDbEntity
8
6
100
AcDbVertex
100
AcDb2dVertex
62
5
10
179.375000
20
239.837500
0
SEQEND
5
d5
100
AcDbEntity
8
6
0
LINE
5
d6
100
AcDbEntity
8
6
100
AcDbLine
6
DOT2
62
5
10
214.725000
20
191.725000
11
215.350000
21
191.100000
0
POLYLINE
5
d7
100
AcDbEntity
8
6
6
DOT2
62
5
100
AcDb2dPolyline
66
1
10
0.0
20
0.0
30
0.0
70
0
0
VERTEX
5
d8
100
AcDbEntity
8
6
100
AcDbVertex
100
AcDb2dVertex
62
5
10
214.725000
20
191.100000
0
VERTEX
5
d9
100
AcDbEntity
8
6
100
AcDbVertex
100
AcDb2dVertex
62
5
10
215.350000
20
191.725000
0
VERTEX
5
da
100
AcDbEntity
8
6
100
AcDbVertex
100
AcDb2dVertex
62
5
10
215.350000
20
191.100000
0
VERTEX
5
db
100
AcDbEntity
8
6
100
AcDbVertex
100
AcDb2dVertex
62
5
10
214.725000
20
191.100000
0
VERTEX
5
dc
100
AcDbEntity
8
6
100
AcDbVertex
100
AcDb2dVertex
62
5
10
214.725000
20
191.725000
0
VERTEX
5
dd
100
AcDbEntity
8
6
100
AcDbVertex
100
AcDb2dVertex
62
5
10
215.350000
20
191.725000
0
SEQEND
5
de
100
AcDbEntity
8
6
0
POLYLINE
5
df
100
AcDbEntity
8
6
6
DOT2
62
5
100
AcDb2dPolyline
66
1
10
0.0
20
0.0
30
0.0
70
0
0
VERTEX
5
e0
100
AcDbEntity
8
6
100
AcDbVertex
100
AcDb2dVertex
62
5
10
207.850000
20
183.600000
0
VERTEX
5
e1
100
AcDbEntity
8
6
100
AcDbVertex
100
AcDb2dVertex
62
5
10
213.475000
20
180.787500
0
VERTEX
5
e2
100
AcDbEntity
8
6
100
AcDbVertex
100
AcDb2dVertex
62
5
10
213.475000
20
184.537500
0
SEQEND
5
e3
100
AcDbEntity
8
6
0
LINE
5
e4
100
AcDbEntity
8
6
100
AcDbLine
6
DOT2
62
5
10
207.850000
20
183.600000
11
215.350000
21
183.600000
0
LINE
5
e5
100
AcDbEntity
8
6
100
AcDbLine
6
DOT2
62
5
10
215.350000
20
182.975000
11
215.350000
21
184.225000
0
LINE
5
e6
100
AcDbEntity
8
6
100
AcDbLine
6
DOT2
62
5
10
207.850000
20
186.100000
11
207.850000
21
188.912500
0
POLYLINE
5
e7
100
AcDbEntity
8
6
6
DOT2
62
5
100
AcDb2dPolyline
66
1
10
0.0
20
0.0
30
0.0
70
0
0
VERTEX
5
e8
100
AcDbEntity
8
6
100
AcDbVertex
100
AcDb2dVertex
62
5
10
207.850000
20
186.100000
0
VERTEX
5
e9
100
AcDbEntity
8
6
100
AcDbVertex
100
AcDb2dVertex
62
5
10
211.600000
20
186.100000
0
VERTEX
5
ea
100
AcDbEntity
8
6
100
AcDbVertex
100
AcDb2dVertex
62
5
10
210.975000
20
186.725000
0
VERTEX
5
eb
100
AcDbEntity
8
6
100
AcDbVertex
100
AcDb2dVertex
62
5
10
210.662500
20
187.350000
0
VERTEX
5
ec
100
AcDbEntity
8
6
100
AcDbVertex
100
AcDb2dVertex
62
5
10
210.662500
20
188.287500
0
VERTEX
5
ed
100
AcDbEntity
8
6
100
AcDbVertex
100
AcDb2dVertex
62
5
10
210.975000
20
188.912500
0
VERTEX
5
ee
100
AcDbEntity
8
6
100
AcDbVertex
100
AcDb2dVertex
62
5
10
211.912500
20
189.225000
0
VERTEX
5
ef
100
AcDbEntity
8
6
100
AcDbVertex
100
AcDb2dVertex
62
5
10
213.787500
20
189.225000
0
VERTEX
5
f0
100
AcDbEntity
8
6
100
AcDbVertex
100
AcDb2dVertex
62
5
10
214.725000
20
188.600000
0
VERTEX
5
f1
100
AcDbEntity
8
6
100
AcDbVertex
100
AcDb2dVertex
62
5
10
215.350000
20
187.662500
0
VERTEX
5
f2
100
AcDbEntity
8
6
100
AcDbVertex
100
AcDb2dVertex
62
5
10
215.350000
20
186.100000
0
SEQEND
5
f3
100
AcDbEntity
8
6
0
POLYLINE
5
f4
100
AcDbEntity
8
6
6
DOT2
62
5
100
AcDb2dPolyline
66
1
10
0.0
20
0.0
30
0.0
70
0
0
VERTEX
5
f5
100
AcDbEntity
8
6
100
AcDbVertex
100
AcDb2dVertex
62
5
10
207.850000
20
198.600000
0
VERTEX
5
f6
100
AcDbEntity
8
6
100
AcDbVertex
100
AcDb2dVertex
62
5
10
207.850000
20
197.662500
0
VERTEX
5
f7
100
AcDbEntity
8
6
100
AcDbVertex
100
AcDb2dVertex
62
5
10
208.162500
20
196.725000
0
VERTEX
5
f8
100
AcDbEntity
8
6
100
AcDbVertex
100
AcDb2dVertex
62
5
10
209.412500
20
196.100000
0
VERTEX
5
f9
100
AcDbEntity
8
6
100
AcDbVertex
100
AcDb2dVertex
62
5
10
213.787500
20
196.100000
0
VERTEX
5
fa
100
AcDbEntity
8
6
100
AcDbVertex
100
AcDb2dVertex
62
5
10
214.725000
20
196.412500
0
VERTEX
5
fb
100
AcDbEntity
8
6
100
AcDbVertex
100
AcDb2dVertex
62
5
10
215.037500
20
196.725000
0
VERTEX
5
fc
100
AcDbEntity
8
6
100
AcDbVertex
100
AcDb2dVertex
62
5
10
215.350000
20
197.350000
0
VERTEX
5
fd
100
AcDbEntity
8
6
100
AcDbVertex
100
AcDb2dVertex
62
5
10
215.350000
20
197.975000
0
VERTEX
5
fe
100
AcDbEntity
8
6
100
AcDbVertex
100
AcDb2dVertex
62
5
10
215.037500
20
198.600000
0
VERTEX
5
ff
100
AcDbEntity
8
6
100
AcDbVertex
100
AcDb2dVertex
62
5
10
214.725000
20
198.912500
0
VERTEX
5
100
100
AcDbEntity
8
6
100
AcDbVertex
100
AcDb2dVertex
62
5
10
213.787500
20
199.225000
0
VERTEX
5
101
100
AcDbEntity
8
6
100
AcDbVertex
100
AcDb2dVertex
62
5
10
211.912500
20
199.225000
0
VERTEX
5
102
100
AcDbEntity
8
6
100
AcDbVertex
100
AcDb2dVertex
62
5
10
211.287500
20
198.912500
0
VERTEX
5
103
100
AcDbEntity
8
6
100
AcDbVertex
100
AcDb2dVertex
62
5
10
210.975000
20
198.287500
0
VERTEX
5
104
100
AcDbEntity
8
6
100
AcDbVertex
100
AcDb2dVertex
62
5
10
210.975000
20
197.037500
0
VERTEX
5
105
100
AcDbEntity
8
6
100
AcDbVertex
100
AcDb2dVertex
62
5
10
211.287500
20
196.100000
0
SEQEND
5
106
100
AcDbEntity
8
6
0
POLYLINE
5
107
100
AcDbEntity
8
1
6
CONTINUOUS
62
5
100
AcDb2dPolyline
66
1
10
0.0
20
0.0
30
0.0
70
0
0
VERTEX
5
108
100
AcDbEntity
8
1
100
AcDbVertex
100
AcDb2dVertex
62
5
10
135.500000
20
347.000000
0
VERTEX
5
109
100
AcDbEntity
8
1
100
AcDbVertex
100
AcDb2dVertex
62
5
10
133.000000
20
347.000000
0
VERTEX
5
10a
100
AcDbEntity
8
1
100
AcDbVertex
100
AcDb2dVertex
62
5
10
133.000000
20
341.000000
0
VERTEX
5
10b
100
AcDbEntity
8
1
100
AcDbVertex
100
AcDb2dVertex
62
5
10
135.750000
20
341.000000
0
SEQEND
5
10c
100
AcDbEntity
8
1
0
LINE
5
10d
100
AcDbEntity
8
1
100
AcDbLine
6
CONTINUOUS
62
5
10
133.000000
20
344.000000
11
135.250000
21
344.000000
0
POLYLINE
5
10e
100
AcDbEntity
8
1
6
CONTINUOUS
62
5
100
AcDb2dPolyline
66
1
10
0.0
20
0.0
30
0.0
70
0
0
VERTEX
5
10f
100
AcDbEntity
8
1
100
AcDbVertex
100
AcDb2dVertex
62
5
10
136.750000
20
347.250000
0
VERTEX
5
110
100
AcDbEntity
8
1
100
AcDbVertex
100
AcDb2dVertex
62
5
10
138.000000
20
347.250000
0
VERTEX
5
111
100
AcDbEntity
8
1
100
AcDbVertex
100
AcDb2dVertex
62
5
10
138.000000
20
340.750000
0
VERTEX
5
112
100
AcDbEntity
8
1
100
AcDbVertex
100
AcDb2dVertex
62
5
10
136.750000
20
340.750000
0
SEQEND
5
113
100
AcDbEntity
8
1
0
LINE
5
114
100
AcDbEntity
8
1
100
AcDbLine
6
CONTINUOUS
62
5
10
155.750000
20
327.125000
11
161.750000
21
327.125000
0
LINE
5
115
100
AcDbEntity
8
1
100
AcDbLine
6
CONTINUOUS
62
5
10
158.750000
20
327.125000
11
158.750000
21
319.625000
0
LINE
5
116
100
AcDbEntity
8
1
100
AcDbLine
6
CONTINUOUS
62
5
10
155.250000
20
319.625000
11
162.250000
21
319.625000
0
POLYLINE
5
117
100
AcDbEntity
8
1
6
CONTINUOUS
62
5
100
AcDb2dPolyline
66
1
10
0.0
20
0.0
30
0.0
70
0
0
VERTEX
5
118
100
AcDbEntity
8
1
100
AcDbVertex
100
AcDb2dVertex
62
5
10
133.000000
20
325.875000
0
VERTEX
5
119
100
AcDbEntity
8
1
100
AcDbVertex
100
AcDb2dVertex
62
5
10
136.250000
20
325.875000
0
VERTEX
5
11a
100
AcDbEntity
8
1
100
AcDbVertex
100
AcDb2dVertex
62
5
10
136.250000
20
325.562500
0
VERTEX
5
11b
100
AcDbEntity
8
1
100
AcDbVertex
100
AcDb2dVertex
62
5
10
135.750000
20
324.312500
0
VERTEX
5
11c
100
AcDbEntity
8
1
100
AcDbVertex
100
AcDb2dVertex
62
5
10
135.250000
20
323.375000
0
VERTEX
5
11d
100
AcDbEntity
8
1
100
AcDbVertex
100
AcDb2dVertex
62
5
10
134.250000
20
322.125000
0
VERTEX
5
11e
100
AcDbEntity
8
1
100
AcDbVertex
100
AcDb2dVertex
62
5
10
132.500000
20
320.562500
0
SEQEND
5
11f
100
AcDbEntity
8
1
0
LINE
5
120
100
AcDbEntity
8
1
100
AcDbLine
6
CONTINUOUS
62
5
10
135.250000
20
323.375000
11
137.250000
21
320.562500
0
POLYLINE
5
121
100
AcDbEntity
8
1
6
CONTINUOUS
62
5
100
AcDb2dPolyline
66
1
10
0.0
20
0.0
30
0.0
70
0
0
VERTEX
5
122
100
AcDbEntity
8
1
100
AcDbVertex
100
AcDb2dVertex
62
5
10
142.250000
20
324.937500
0
VERTEX
5
123
100
AcDbEntity
8
1
100
AcDbVertex
100
AcDb2dVertex
62
5
10
142.500000
20
324.937500
0
VERTEX
5
124
100
AcDbEntity
8
1
100
AcDbVertex
100
AcDb2dVertex
62
5
10
144.250000
20
323.687500
0
SEQEND
5
125
100
AcDbEntity
8
1
0
LINE
5
126
100
AcDbEntity
8
1
100
AcDbLine
6
CONTINUOUS
62
5
10
142.250000
20
327.750000
11
142.250000
21
320.250000
0
POLYLINE
5
127
100
AcDbEntity
8
1
6
CONTINUOUS
62
5
100
AcDb2dPolyline
66
1
10
0.0
20
0.0
30
0.0
70
0
0
VERTEX
5
128
100
AcDbEntity
8
1
100
AcDbVertex
100
AcDb2dVertex
62
5
10
147.500000
20
326.500000
0
VERTEX
5
129
100
AcDbEntity
8
1
100
AcDbVertex
100
AcDb2dVertex
62
5
10
151.000000
20
326.500000
0
VERTEX
5
12a
100
AcDbEntity
8
1
100
AcDbVertex
100
AcDb2dVertex
62
5
10
151.000000
20
323.687500
0
VERTEX
5
12b
100
AcDbEntity
8
1
100
AcDbVertex
100
AcDb2dVertex
62
5
10
150.750000
20
321.812500
0
VERTEX
5
12c
100
AcDbEntity
8
1
100
AcDbVertex
100
AcDb2dVertex
62
5
10
150.250000
20
319.625000
0
VERTEX
5
12d
100
AcDbEntity
8
1
100
AcDbVertex
100
AcDb2dVertex
62
5
10
149.500000
20
319.625000
0
SEQEND
5
12e
100
AcDbEntity
8
1
0
POLYLINE
5
12f
100
AcDbEntity
8
1
6
CONTINUOUS
62
5
100
AcDb2dPolyline
66
1
10
0.0
20
0.0
30
0.0
70
0
0
VERTEX
5
130
100
AcDbEntity
8
1
100
AcDbVertex
100
AcDb2dVertex
62
5
10
149.250000
20
328.375000
0
VERTEX
5
131
100
AcDbEntity
8
1
100
AcDbVertex
100
AcDb2dVertex
62
5
10
149.250000
20
326.500000
0
VERTEX
5
132
100
AcDbEntity
8
1
100
AcDbVertex
100
AcDb2dVertex
62
5
10
149.000000
20
323.375000
0
VERTEX
5
133
100
AcDbEntity
8
1
100
AcDbVertex
100
AcDb2dVertex
62
5
10
148.500000
20
321.812500
0
VERTEX
5
134
100
AcDbEntity
8
1
100
AcDbVertex
100
AcDb2dVertex
62
5
10
147.250000
20
319.625000
0
SEQEND
5
135
100
AcDbEntity
8
1
0
POLYLINE
5
136
100
AcDbEntity
8
1
6
CONTINUOUS
62
5
100
AcDb2dPolyline
66
1
10
0.0
20
0.0
30
0.0
70
1
0
VERTEX
5
137
100
AcDbEntity
8
1
100
AcDbVertex
100
AcDb2dVertex
62
5
10
152.000000
20
326.500000
0
VERTEX
5
138
100
AcDbEntity
8
1
100
AcDbVertex
100
AcDb2dVertex
62
5
10
154.250000
20
326.500000
0
VERTEX
5
139
100
AcDbEntity
8
1
100
AcDbVertex
100
AcDb2dVertex
62
5
10
154.250000
20
319.625000
0
VERTEX
5
13a
100
AcDbEntity
8
1
100
AcDbVertex
100
AcDb2dVertex
62
5
10
152.000000
20
319.625000
0
VERTEX
5
13b
100
AcDbEntity
8
1
100
AcDbVertex
100
AcDb2dVertex
62
5
10
152.000000
20
326.500000
0
SEQEND
5
13c
100
AcDbEntity
8
1
0
POLYLINE
5
13d
100
AcDbEntity
8
1
6
CONTINUOUS
62
5
100
AcDb2dPolyline
66
1
10
0.0
20
0.0
30
0.0
70
0
0
VERTEX
5
13e
100
AcDbEntity
8
1
100
AcDbVertex
100
AcDb2dVertex
62
5
10
115.500000
20
347.250000
0
VERTEX
5
13f
100
AcDbEntity
8
1
100
AcDbVertex
100
AcDb2dVertex
62
5
10
114.250000
20
347.250000
0
VERTEX
5
140
100
AcDbEntity
8
1
100
AcDbVertex
100
AcDb2dVertex
62
5
10
114.250000
20
340.750000
0
VERTEX
5
141
100
AcDbEntity
8
1
100
AcDbVertex
100
AcDb2dVertex
62
5
10
115.500000
20
340.750000
0
SEQEND
5
142
100
AcDbEntity
8
1
0
POLYLINE
5
143
100
AcDbEntity
8
1
6
CONTINUOUS
62
5
100
AcDb2dPolyline
66
1
10
0.0
20
0.0
30
0.0
70
0
0
VERTEX
5
144
100
AcDbEntity
8
1
100
AcDbVertex
100
AcDb2dVertex
62
5
10
119.500000
20
345.750000
0
VERTEX
5
145
100
AcDbEntity
8
1
100
AcDbVertex
100
AcDb2dVertex
62
5
10
119.000000
20
346.750000
0
VERTEX
5
146
100
AcDbEntity
8
1
100
AcDbVertex
100
AcDb2dVertex
62
5
10
118.250000
20
347.000000
0
VERTEX
5
147
100
AcDbEntity
8
1
100
AcDbVertex
100
AcDb2dVertex
62
5
10
117.750000
20
347.000000
0
VERTEX
5
148
100
AcDbEntity
8
1
100
AcDbVertex
100
AcDb2dVertex
62
5
10
117.250000
20
346.750000
0
VERTEX
5
149
100
AcDbEntity
8
1
100
AcDbVertex
100
AcDb2dVertex
62
5
10
116.750000
20
346.000000
0
VERTEX
5
14a
100
AcDbEntity
8
1
100
AcDbVertex
100
AcDb2dVertex
62
5
10
116.750000
20
345.250000
0
VERTEX
5
14b
100
AcDbEntity
8
1
100
AcDbVertex
100
AcDb2dVertex
62
5
10
117.250000
20
344.500000
0
VERTEX
5
14c
100
AcDbEntity
8
1
100
AcDbVertex
100
AcDb2dVertex
62
5
10
119.000000
20
343.500000
0
VERTEX
5
14d
100
AcDbEntity
8
1
100
AcDbVertex
100
AcDb2dVertex
62
5
10
119.500000
20
342.750000
0
VERTEX
5
14e
100
AcDbEntity
8
1
100
AcDbVertex
100
AcDb2dVertex
62
5
10
119.500000
20
342.000000
0
VERTEX
5
14f
100
AcDbEntity
8
1
100
AcDbVertex
100
AcDb2dVertex
62
5
10
119.000000
20
341.250000
0
VERTEX
5
150
100
AcDbEntity
8
1
100
AcDbVertex
100
AcDb2dVertex
62
5
10
118.250000
20
341.000000
0
VERTEX
5
151
100
AcDbEntity
8
1
100
AcDbVertex
100
AcDb2dVertex
62
5
10
117.750000
20
341.000000
0
VERTEX
5
152
100
AcDbEntity
8
1
100
AcDbVertex
100
AcDb2dVertex
62
5
10
117.000000
20
341.500000
0
VERTEX
5
153
100
AcDbEntity
8
1
100
AcDbVertex
100
AcDb2dVertex
62
5
10
116.750000
20
342.500000
0
SEQEND
5
154
100
AcDbEntity
8
1
0
POLYLINE
5
155
100
AcDbEntity
8
1
6
CONTINUOUS
62
5
100
AcDb2dPolyline
66
1
10
0.0
20
0.0
30
0.0
70
0
0
VERTEX
5
156
100
AcDbEntity
8
1
100
AcDbVertex
100
AcDb2dVertex
62
5
10
121.000000
20
347.000000
0
VERTEX
5
157
100
AcDbEntity
8
1
100
AcDbVertex
100
AcDb2dVertex
62
5
10
121.000000
20
342.250000
0
VERTEX
5
158
100
AcDbEntity
8
1
100
AcDbVertex
100
AcDb2dVertex
62
5
10
121.250000
20
341.500000
0
VERTEX
5
159
100
AcDbEntity
8
1
100
AcDbVertex
100
AcDb2dVertex
62
5
10
121.500000
20
341.250000
0
VERTEX
5
15a
100
AcDbEntity
8
1
100
AcDbVertex
100
AcDb2dVertex
62
5
10
122.000000
20
341.000000
0
VERTEX
5
15b
100
AcDbEntity
8
1
100
AcDbVertex
100
AcDb2dVertex
62
5
10
122.500000
20
341.000000
0
VERTEX
5
15c
100
AcDbEntity
8
1
100
AcDbVertex
100
AcDb2dVertex
62
5
10
123.000000
20
341.250000
0
VERTEX
5
15d
100
AcDbEntity
8
1
100
AcDbVertex
100
AcDb2dVertex
62
5
10
123.250000
20
341.500000
0
VERTEX
5
15e
100
AcDbEntity
8
1
100
AcDbVertex
100
AcDb2dVertex
62
5
10
123.500000
20
342.250000
0
VERTEX
5
15f
100
AcDbEntity
8
1
100
AcDbVertex
100
AcDb2dVertex
62
5
10
123.500000
20
347.000000
0
SEQEND
5
160
100
AcDbEntity
8
1
0
POLYLINE
5
161
100
AcDbEntity
8
1
6
CONTINUOUS
62
5
100
AcDb2dPolyline
66
1
10
0.0
20
0.0
30
0.0
70
0
0
VERTEX
5
162
100
AcDbEntity
8
1
100
AcDbVertex
100
AcDb2dVertex
62
5
10
127.500000
20
345.750000
0
VERTEX
5
163
100
AcDbEntity
8
1
100
AcDbVertex
100
AcDb2dVertex
62
5
10
127.000000
20
346.750000
0
VERTEX
5
164
100
AcDbEntity
8
1
100
AcDbVertex
100
AcDb2dVertex
62
5
10
126.250000
20
347.000000
0
VERTEX
5
165
100
AcDbEntity
8
1
100
AcDbVertex
100
AcDb2dVertex
62
5
10
125.750000
20
347.000000
0
VERTEX
5
166
100
AcDbEntity
8
1
100
AcDbVertex
100
AcDb2dVertex
62
5
10
125.250000
20
346.750000
0
VERTEX
5
167
100
AcDbEntity
8
1
100
AcDbVertex
100
AcDb2dVertex
62
5
10
124.750000
20
346.000000
0
VERTEX
5
168
100
AcDbEntity
8
1
100
AcDbVertex
100
AcDb2dVertex
62
5
10
124.750000
20
345.250000
0
VERTEX
5
169
100
AcDbEntity
8
1
100
AcDbVertex
100
AcDb2dVertex
62
5
10
125.250000
20
344.500000
0
VERTEX
5
16a
100
AcDbEntity
8
1
100
AcDbVertex
100
AcDb2dVertex
62
5
10
127.000000
20
343.500000
0
VERTEX
5
16b
100
AcDbEntity
8
1
100
AcDbVertex
100
AcDb2dVertex
62
5
10
127.500000
20
342.750000
0
VERTEX
5
16c
100
AcDbEntity
8
1
100
AcDbVertex
100
AcDb2dVertex
62
5
10
127.500000
20
342.000000
0
VERTEX
5
16d
100
AcDbEntity
8
1
100
AcDbVertex
100
AcDb2dVertex
62
5
10
127.000000
20
341.250000
0
VERTEX
5
16e
100
AcDbEntity
8
1
100
AcDbVertex
100
AcDb2dVertex
62
5
10
126.250000
20
341.000000
0
VERTEX
5
16f
100
AcDbEntity
8
1
100
AcDbVertex
100
AcDb2dVertex
62
5
10
125.750000
20
341.000000
0
VERTEX
5
170
100
AcDbEntity
8
1
100
AcDbVertex
100
AcDb2dVertex
62
5
10
125.000000
20
341.500000
0
VERTEX
5
171
100
AcDbEntity
8
1
100
AcDbVertex
100
AcDb2dVertex
62
5
10
124.750000
20
342.500000
0
SEQEND
5
172
100
AcDbEntity
8
1
0
POLYLINE
5
173
100
AcDbEntity
8
1
6
CONTINUOUS
62
5
100
AcDb2dPolyline
66
1
10
0.0
20
0.0
30
0.0
70
0
0
VERTEX
5
174
100
AcDbEntity
8
1
100
AcDbVertex
100
AcDb2dVertex
62
5
10
120.500000
20
337.750000
0
VERTEX
5
175
100
AcDbEntity
8
1
100
AcDbVertex
100
AcDb2dVertex
62
5
10
120.500000
20
332.125000
0
VERTEX
5
176
100
AcDbEntity
8
1
100
AcDbVertex
100
AcDb2dVertex
62
5
10
120.000000
20
330.875000
0
VERTEX
5
177
100
AcDbEntity
8
1
100
AcDbVertex
100
AcDb2dVertex
62
5
10
119.500000
20
329.937500
0
SEQEND
5
178
100
AcDbEntity
8
1
0
POLYLINE
5
179
100
AcDbEntity
8
1
6
CONTINUOUS
62
5
100
AcDb2dPolyline
66
1
10
0.0
20
0.0
30
0.0
70
0
0
VERTEX
5
17a
100
AcDbEntity
8
1
100
AcDbVertex
100
AcDb2dVertex
62
5
10
124.500000
20
330.250000
0
VERTEX
5
17b
100
AcDbEntity
8
1
100
AcDbVertex
100
AcDb2dVertex
62
5
10
125.500000
20
329.625000
0
VERTEX
5
17c
100
AcDbEntity
8
1
100
AcDbVertex
100
AcDb2dVertex
62
5
10
125.500000
20
337.750000
0
VERTEX
5
17d
100
AcDbEntity
8
1
100
AcDbVertex
100
AcDb2dVertex
62
5
10
120.500000
20
337.750000
0
SEQEND
5
17e
100
AcDbEntity
8
1
0
LINE
5
17f
100
AcDbEntity
8
1
100
AcDbLine
6
CONTINUOUS
62
5
10
120.500000
20
335.250000
11
125.500000
21
335.250000
0
LINE
5
180
100
AcDbEntity
8
1
100
AcDbLine
6
CONTINUOUS
62
5
10
123.000000
20
337.750000
11
123.000000
21
329.625000
0
LINE
5
181
100
AcDbEntity
8
1
100
AcDbLine
6
CONTINUOUS
62
5
10
120.500000
20
332.750000
11
125.500000
21
332.750000
0
POLYLINE
5
182
100
AcDbEntity
8
1
6
CONTINUOUS
62
5
100
AcDb2dPolyline
66
1
10
0.0
20
0.0
30
0.0
70
0
0
VERTEX
5
183
100
AcDbEntity
8
1
100
AcDbVertex
100
AcDb2dVertex
62
5
10
95.500000
20
345.750000
0
VERTEX
5
184
100
AcDbEntity
8
1
100
AcDbVertex
100
AcDb2dVertex
62
5
10
95.000000
20
346.750000
0
VERTEX
5
185
100
AcDbEntity
8
1
100
AcDbVertex
100
AcDb2dVertex
62
5
10
94.250000
20
347.000000
0
VERTEX
5
186
100
AcDbEntity
8
1
100
AcDbVertex
100
AcDb2dVertex
62
5
10
93.750000
20
347.000000
0
VERTEX
5
187
100
AcDbEntity
8
1
100
AcDbVertex
100
AcDb2dVertex
62
5
10
93.250000
20
346.750000
0
VERTEX
5
188
100
AcDbEntity
8
1
100
AcDbVertex
100
AcDb2dVertex
62
5
10
92.750000
20
346.000000
0
VERTEX
5
189
100
AcDbEntity
8
1
100
AcDbVertex
100
AcDb2dVertex
62
5
10
92.750000
20
345.250000
0
VERTEX
5
18a
100
AcDbEntity
8
1
100
AcDbVertex
100
AcDb2dVertex
62
5
10
93.250000
20
344.500000
0
VERTEX
5
18b
100
AcDbEntity
8
1
100
AcDbVertex
100
AcDb2dVertex
62
5
10
95.000000
20
343.500000
0
VERTEX
5
18c
100
AcDbEntity
8
1
100
AcDbVertex
100
AcDb2dVertex
62
5
10
95.500000
20
342.750000
0
VERTEX
5
18d
100
AcDbEntity
8
1
100
AcDbVertex
100
AcDb2dVertex
62
5
10
95.500000
20
342.000000
0
VERTEX
5
18e
100
AcDbEntity
8
1
100
AcDbVertex
100
AcDb2dVertex
62
5
10
95.000000
20
341.250000
0
VERTEX
5
18f
100
AcDbEntity
8
1
100
AcDbVertex
100
AcDb2dVertex
62
5
10
94.250000
20
341.000000
0
VERTEX
5
190
100
AcDbEntity
8
1
100
AcDbVertex
100
AcDb2dVertex
62
5
10
93.750000
20
341.000000
0
VERTEX
5
191
100
AcDbEntity
8
1
100
AcDbVertex
100
AcDb2dVertex
62
5
10
93.000000
20
341.500000
0
VERTEX
5
192
100
AcDbEntity
8
1
100
AcDbVertex
100
AcDb2dVertex
62
5
10
92.750000
20
342.500000
0
SEQEND
5
193
100
AcDbEntity
8
1
0
POLYLINE
5
194
100
AcDbEntity
8
1
6
CONTINUOUS
62
5
100
AcDb2dPolyline
66
1
10
0.0
20
0.0
30
0.0
70
0
0
VERTEX
5
195
100
AcDbEntity
8
1
100
AcDbVertex
100
AcDb2dVertex
62
5
10
97.000000
20
347.000000
0
VERTEX
5
196
100
AcDbEntity
8
1
100
AcDbVertex
100
AcDb2dVertex
62
5
10
97.000000
20
341.000000
0
VERTEX
5
197
100
AcDbEntity
8
1
100
AcDbVertex
100
AcDb2dVertex
62
5
10
99.500000
20
341.000000
0
SEQEND
5
198
100
AcDbEntity
8
1
0
LINE
5
199
100
AcDbEntity
8
1
100
AcDbLine
6
CONTINUOUS
62
5
10
101.500000
20
347.000000
11
103.000000
21
347.000000
0
LINE
5
19a
100
AcDbEntity
8
1
100
AcDbLine
6
CONTINUOUS
62
5
10
102.250000
20
347.000000
11
102.250000
21
341.000000
0
LINE
5
19b
100
AcDbEntity
8
1
100
AcDbLine
6
CONTINUOUS
62
5
10
101.500000
20
341.000000
11
103.000000
21
341.000000
0
POLYLINE
5
19c
100
AcDbEntity
8
1
6
CONTINUOUS
62
5
100
AcDb2dPolyline
66
1
10
0.0
20
0.0
30
0.0
70
0
0
VERTEX
5
19d
100
AcDbEntity
8
1
100
AcDbVertex
100
AcDb2dVertex
62
5
10
105.000000
20
341.000000
0
VERTEX
5
19e
100
AcDbEntity
8
1
100
AcDbVertex
100
AcDb2dVertex
62
5
10
105.000000
20
347.000000
0
VERTEX
5
19f
100
AcDbEntity
8
1
100
AcDbVertex
100
AcDb2dVertex
62
5
10
106.250000
20
341.000000
0
VERTEX
5
1a0
100
AcDbEntity
8
1
100
AcDbVertex
100
AcDb2dVertex
62
5
10
107.500000
20
347.000000
0
VERTEX
5
1a1
100
AcDbEntity
8
1
100
AcDbVertex
100
AcDb2dVertex
62
5
10
107.500000
20
341.000000
0
SEQEND
5
1a2
100
AcDbEntity
8
1
0
POLYLINE
5
1a3
100
AcDbEntity
8
1
6
CONTINUOUS
62
5
100
AcDb2dPolyline
66
1
10
0.0
20
0.0
30
0.0
70
0
0
VERTEX
5
1a4
100
AcDbEntity
8
1
100
AcDbVertex
100
AcDb2dVertex
62
5
10
108.000000
20
335.562500
0
VERTEX
5
1a5
100
AcDbEntity
8
1
100
AcDbVertex
100
AcDb2dVertex
62
5
10
108.250000
20
337.125000
0
VERTEX
5
1a6
100
AcDbEntity
8
1
100
AcDbVertex
100
AcDb2dVertex
62
5
10
109.000000
20
337.750000
0
VERTEX
5
1a7
100
AcDbEntity
8
1
100
AcDbVertex
100
AcDb2dVertex
62
5
10
109.750000
20
337.750000
0
VERTEX
5
1a8
100
AcDbEntity
8
1
100
AcDbVertex
100
AcDb2dVertex
62
5
10
110.250000
20
337.437500
0
VERTEX
5
1a9
100
AcDbEntity
8
1
100
AcDbVertex
100
AcDb2dVertex
62
5
10
110.500000
20
336.500000
0
VERTEX
5
1aa
100
AcDbEntity
8
1
100
AcDbVertex
100
AcDb2dVertex
62
5
10
110.500000
20
335.562500
0
VERTEX
5
1ab
100
AcDbEntity
8
1
100
AcDbVertex
100
AcDb2dVertex
62
5
10
110.250000
20
334.625000
0
VERTEX
5
1ac
100
AcDbEntity
8
1
100
AcDbVertex
100
AcDb2dVertex
62
5
10
108.000000
20
330.250000
0
VERTEX
5
1ad
100
AcDbEntity
8
1
100
AcDbVertex
100
AcDb2dVertex
62
5
10
110.500000
20
330.250000
0
VERTEX
5
1ae
100
AcDbEntity
8
1
100
AcDbVertex
100
AcDb2dVertex
62
5
10
110.500000
20
331.187500
0
SEQEND
5
1af
100
AcDbEntity
8
1
0
POLYLINE
5
1b0
100
AcDbEntity
8
1
6
CONTINUOUS
62
5
100
AcDb2dPolyline
66
1
10
0.0
20
0.0
30
0.0
70
0
0
VERTEX
5
1b1
100
AcDbEntity
8
1
100
AcDbVertex
100
AcDb2dVertex
62
5
10
116.250000
20
325.875000
0
VERTEX
5
1b2
100
AcDbEntity
8
1
100
AcDbVertex
100
AcDb2dVertex
62
5
10
120.000000
20
325.875000
0
VERTEX
5
1b3
100
AcDbEntity
8
1
100
AcDbVertex
100
AcDb2dVertex
62
5
10
120.000000
20
324.937500
0
VERTEX
5
1b4
100
AcDbEntity
8
1
100
AcDbVertex
100
AcDb2dVertex
62
5
10
119.750000
20
323.687500
0
VERTEX
5
1b5
100
AcDbEntity
8
1
100
AcDbVertex
100
AcDb2dVertex
62
5
10
119.250000
20
322.750000
0
VERTEX
5
1b6
100
AcDbEntity
8
1
100
AcDbVertex
100
AcDb2dVertex
62
5
10
118.750000
20
321.812500
0
VERTEX
5
1b7
100
AcDbEntity
8
1
100
AcDbVertex
100
AcDb2dVertex
62
5
10
117.250000
20
320.562500
0
SEQEND
5
1b8
100
AcDbEntity
8
1
0
LINE
5
1b9
100
AcDbEntity
8
1
100
AcDbLine
6
CONTINUOUS
62
5
10
120.500000
20
327.125000
11
121.250000
21
326.187500
0
LINE
5
1ba
100
AcDbEntity
8
1
100
AcDbLine
6
CONTINUOUS
62
5
10
121.500000
20
327.750000
11
122.000000
21
326.812500
0
POLYLINE
5
1bb
100
AcDbEntity
8
1
6
CONTINUOUS
62
5
100
AcDb2dPolyline
66
1
10
0.0
20
0.0
30
0.0
70
0
0
VERTEX
5
1bc
100
AcDbEntity
8
1
100
AcDbVertex
100
AcDb2dVertex
62
5
10
124.500000
20
324.625000
0
VERTEX
5
1bd
100
AcDbEntity
8
1
100
AcDbVertex
100
AcDb2dVertex
62
5
10
129.250000
20
324.625000
0
VERTEX
5
1be
100
AcDbEntity
8
1
100
AcDbVertex
100
AcDb2dVertex
62
5
10
129.250000
20
324.312500
0
VERTEX
5
1bf
100
AcDbEntity
8
1
100
AcDbVertex
100
AcDb2dVertex
62
5
10
128.000000
20
322.125000
0
VERTEX
5
1c0
100
AcDbEntity
8
1
100
AcDbVertex
100
AcDb2dVertex
62
5
10
127.000000
20
321.187500
0
VERTEX
5
1c1
100
AcDbEntity
8
1
100
AcDbVertex
100
AcDb2dVertex
62
5
10
126.000000
20
320.562500
0
SEQEND
5
1c2
100
AcDbEntity
8
1
0
LINE
5
1c3
100
AcDbEntity
8
1
100
AcDbLine
6
CONTINUOUS
62
5
10
125.250000
20
326.812500
11
128.750000
21
326.812500
0
LINE
5
1c4
100
AcDbEntity
8
1
100
AcDbLine
6
CONTINUOUS
62
5
10
92.750000
20
326.187500
11
93.750000
21
324.937500
0
POLYLINE
5
1c5
100
AcDbEntity
8
1
6
CONTINUOUS
62
5
100
AcDb2dPolyline
66
1
10
0.0
20
0.0
30
0.0
70
0
0
VERTEX
5
1c6
100
AcDbEntity
8
1
100
AcDbVertex
100
AcDb2dVertex
62
5
10
92.500000
20
321.187500
0
VERTEX
5
1c7
100
AcDbEntity
8
1
100
AcDbVertex
100
AcDb2dVertex
62
5
10
94.250000
20
322.125000
0
VERTEX
5
1c8
100
AcDbEntity
8
1
100
AcDbVertex
100
AcDb2dVertex
62
5
10
95.750000
20
323.375000
0
VERTEX
5
1c9
100
AcDbEntity
8
1
100
AcDbVertex
100
AcDb2dVertex
62
5
10
97.250000
20
324.937500
0
SEQEND
5
1ca
100
AcDbEntity
8
1
0
POLYLINE
5
1cb
100
AcDbEntity
8
1
6
CONTINUOUS
62
5
100
AcDb2dPolyline
66
1
10
0.0
20
0.0
30
0.0
70
0
0
VERTEX
5
1cc
100
AcDbEntity
8
1
100
AcDbVertex
100
AcDb2dVertex
62
5
10
101.250000
20
327.125000
0
VERTEX
5
1cd
100
AcDbEntity
8
1
100
AcDbVertex
100
AcDb2dVertex
62
5
10
101.250000
20
320.875000
0
VERTEX
5
1ce
100
AcDbEntity
8
1
100
AcDbVertex
100
AcDb2dVertex
62
5
10
101.750000
20
320.562500
0
VERTEX
5
1cf
100
AcDbEntity
8
1
100
AcDbVertex
100
AcDb2dVertex
62
5
10
103.000000
20
321.187500
0
VERTEX
5
1d0
100
AcDbEntity
8
1
100
AcDbVertex
100
AcDb2dVertex
62
5
10
104.250000
20
322.125000
0
VERTEX
5
1d1
100
AcDbEntity
8
1
100
AcDbVertex
100
AcDb2dVertex
62
5
10
105.500000
20
323.375000
0
SEQEND
5
1d2
100
AcDbEntity
8
1
0
POLYLINE
5
1d3
100
AcDbEntity
8
1
6
CONTINUOUS
62
5
100
AcDb2dPolyline
66
1
10
0.0
20
0.0
30
0.0
70
0
0
VERTEX
5
1d4
100
AcDbEntity
8
1
100
AcDbVertex
100
AcDb2dVertex
62
5
10
109.000000
20
325.875000
0
VERTEX
5
1d5
100
AcDbEntity
8
1
100
AcDbVertex
100
AcDb2dVertex
62
5
10
112.250000
20
325.875000
0
VERTEX
5
1d6
100
AcDbEntity
8
1
100
AcDbVertex
100
AcDb2dVertex
62
5
10
112.250000
20
325.562500
0
VERTEX
5
1d7
100
AcDbEntity
8
1
100
AcDbVertex
100
AcDb2dVertex
62
5
10
111.750000
20
324.312500
0
VERTEX
5
1d8
100
AcDbEntity
8
1
100
AcDbVertex
100
AcDb2dVertex
62
5
10
111.250000
20
323.375000
0
VERTEX
5
1d9
100
AcDbEntity
8
1
100
AcDbVertex
100
AcDb2dVertex
62
5
10
110.250000
20
322.125000
0
VERTEX
5
1da
100
AcDbEntity
8
1
100
AcDbVertex
100
AcDb2dVertex
62
5
10
108.500000
20
320.562500
0
SEQEND
5
1db
100
AcDbEntity
8
1
0
LINE
5
1dc
100
AcDbEntity
8
1
100
AcDbLine
6
CONTINUOUS
62
5
10
111.250000
20
323.375000
11
113.250000
21
320.562500
0
POLYLINE
5
1dd
100
AcDbEntity
8
1
6
CONTINUOUS
62
5
100
AcDb2dPolyline
66
1
10
0.0
20
0.0
30
0.0
70
0
0
VERTEX
5
1de
100
AcDbEntity
8
1
100
AcDbVertex
100
AcDb2dVertex
62
5
10
94.250000
20
337.437500
0
VERTEX
5
1df
100
AcDbEntity
8
1
100
AcDbVertex
100
AcDb2dVertex
62
5
10
94.250000
20
332.437500
0
VERTEX
5
1e0
100
AcDbEntity
8
1
100
AcDbVertex
100
AcDb2dVertex
62
5
10
94.000000
20
331.187500
0
VERTEX
5
1e1
100
AcDbEntity
8
1
100
AcDbVertex
100
AcDb2dVertex
62
5
10
93.500000
20
330.250000
0
VERTEX
5
1e2
100
AcDbEntity
8
1
100
AcDbVertex
100
AcDb2dVertex
62
5
10
93.000000
20
329.625000
0
SEQEND
5
1e3
100
AcDbEntity
8
1
0
LINE
5
1e4
100
AcDbEntity
8
1
100
AcDbLine
6
CONTINUOUS
62
5
10
92.000000
20
333.375000
11
92.500000
21
335.875000
0
POLYLINE
5
1e5
100
AcDbEntity
8
1
6
CONTINUOUS
62
5
100
AcDb2dPolyline
66
1
10
0.0
20
0.0
30
0.0
70
0
0
VERTEX
5
1e6
100
AcDbEntity
8
1
100
AcDbVertex
100
AcDb2dVertex
62
5
10
92.000000
20
333.375000
0
VERTEX
5
1e7
100
AcDbEntity
8
1
100
AcDbVertex
100
AcDb2dVertex
62
5
10
91.750000
20
332.437500
0
VERTEX
5
1e8
100
AcDbEntity
8
1
100
AcDbVertex
100
AcDb2dVertex
62
5
10
91.250000
20
331.187500
0
SEQEND
5
1e9
100
AcDbEntity
8
1
0
LINE
5
1ea
100
AcDbEntity
8
1
100
AcDbLine
6
CONTINUOUS
62
5
10
96.000000
20
331.812500
11
96.500000
21
330.875000
0
LINE
5
1eb
100
AcDbEntity
8
1
100
AcDbLine
6
CONTINUOUS
62
5
10
91.250000
20
335.875000
11
93.750000
21
335.875000
0
LINE
5
1ec
100
AcDbEntity
8
1
100
AcDbLine
6
CONTINUOUS
62
5
10
92.500000
20
338.062500
11
92.500000
21
329.312500
0
LINE
5
1ed
100
AcDbEntity
8
1
100
AcDbLine
6
CONTINUOUS
62
5
10
92.500000
20
334.625000
11
93.500000
21
332.750000
0
LINE
5
1ee
100
AcDbEntity
8
1
100
AcDbLine
6
CONTINUOUS
62
5
10
98.250000
20
337.437500
11
94.250000
21
337.437500
0
POLYLINE
5
1ef
100
AcDbEntity
8
1
6
CONTINUOUS
62
5
100
AcDb2dPolyline
66
1
10
0.0
20
0.0
30
0.0
70
0
0
VERTEX
5
1f0
100
AcDbEntity
8
1
100
AcDbVertex
100
AcDb2dVertex
62
5
10
94.250000
20
334.937500
0
VERTEX
5
1f1
100
AcDbEntity
8
1
100
AcDbVertex
100
AcDb2dVertex
62
5
10
97.750000
20
334.937500
0
VERTEX
5
1f2
100
AcDbEntity
8
1
100
AcDbVertex
100
AcDb2dVertex
62
5
10
97.250000
20
332.750000
0
VERTEX
5
1f3
100
AcDbEntity
8
1
100
AcDbVertex
100
AcDb2dVertex
62
5
10
96.500000
20
331.500000
0
VERTEX
5
1f4
100
AcDbEntity
8
1
100
AcDbVertex
100
AcDb2dVertex
62
5
10
95.500000
20
330.250000
0
VERTEX
5
1f5
100
AcDbEntity
8
1
100
AcDbVertex
100
AcDb2dVertex
62
5
10
94.250000
20
329.625000
0
SEQEND
5
1f6
100
AcDbEntity
8
1
0
POLYLINE
5
1f7
100
AcDbEntity
8
1
6
CONTINUOUS
62
5
100
AcDb2dPolyline
66
1
10
0.0
20
0.0
30
0.0
70
0
0
VERTEX
5
1f8
100
AcDbEntity
8
1
100
AcDbVertex
100
AcDb2dVertex
62
5
10
96.500000
20
330.875000
0
VERTEX
5
1f9
100
AcDbEntity
8
1
100
AcDbVertex
100
AcDb2dVertex
62
5
10
97.500000
20
329.937500
0
VERTEX
5
1fa
100
AcDbEntity
8
1
100
AcDbVertex
100
AcDb2dVertex
62
5
10
98.500000
20
329.312500
0
SEQEND
5
1fb
100
AcDbEntity
8
1
0
LINE
5
1fc
100
AcDbEntity
8
1
100
AcDbLine
6
CONTINUOUS
62
5
10
95.000000
20
334.312500
11
96.000000
21
331.812500
0
POLYLINE
5
1fd
100
AcDbEntity
8
1
6
CONTINUOUS
62
5
100
AcDb2dPolyline
66
1
10
0.0
20
0.0
30
0.0
70
0
0
VERTEX
5
1fe
100
AcDbEntity
8
1
100
AcDbVertex
100
AcDb2dVertex
62
5
10
113.250000
20
338.062500
0
VERTEX
5
1ff
100
AcDbEntity
8
1
100
AcDbVertex
100
AcDb2dVertex
62
5
10
112.500000
20
335.875000
0
VERTEX
5
200
100
AcDbEntity
8
1
100
AcDbVertex
100
AcDb2dVertex
62
5
10
111.250000
20
334.000000
0
SEQEND
5
201
100
AcDbEntity
8
1
0
LINE
5
202
100
AcDbEntity
8
1
100
AcDbLine
6
CONTINUOUS
62
5
10
112.500000
20
335.875000
11
112.500000
21
329.312500
0
POLYLINE
5
203
100
AcDbEntity
8
1
6
CONTINUOUS
62
5
100
AcDb2dPolyline
66
1
10
0.0
20
0.0
30
0.0
70
1
0
VERTEX
5
204
100
AcDbEntity
8
1
100
AcDbVertex
100
AcDb2dVertex
62
5
10
113.750000
20
329.625000
0
VERTEX
5
205
100
AcDbEntity
8
1
100
AcDbVertex
100
AcDb2dVertex
62
5
10
113.750000
20
337.750000
0
VERTEX
5
206
100
AcDbEntity
8
1
100
AcDbVertex
100
AcDb2dVertex
62
5
10
118.250000
20
337.750000
0
VERTEX
5
207
100
AcDbEntity
8
1
100
AcDbVertex
100
AcDb2dVertex
62
5
10
118.250000
20
329.625000
0
VERTEX
5
208
100
AcDbEntity
8
1
100
AcDbVertex
100
AcDb2dVertex
62
5
10
113.750000
20
329.625000
0
SEQEND
5
209
100
AcDbEntity
8
1
0
LINE
5
20a
100
AcDbEntity
8
1
100
AcDbLine
6
CONTINUOUS
62
5
10
114.500000
20
335.562500
11
117.500000
21
335.562500
0
LINE
5
20b
100
AcDbEntity
8
1
100
AcDbLine
6
CONTINUOUS
62
5
10
116.000000
20
336.500000
11
116.000000
21
333.687500
0
POLYLINE
5
20c
100
AcDbEntity
8
1
6
CONTINUOUS
62
5
100
AcDb2dPolyline
66
1
10
0.0
20
0.0
30
0.0
70
1
0
VERTEX
5
20d
100
AcDbEntity
8
1
100
AcDbVertex
100
AcDb2dVertex
62
5
10
114.750000
20
333.687500
0
VERTEX
5
20e
100
AcDbEntity
8
1
100
AcDbVertex
100
AcDb2dVertex
62
5
10
114.750000
20
330.875000
0
VERTEX
5
20f
100
AcDbEntity
8
1
100
AcDbVertex
100
AcDb2dVertex
62
5
10
117.250000
20
330.875000
0
VERTEX
5
210
100
AcDbEntity
8
1
100
AcDbVertex
100
AcDb2dVertex
62
5
10
117.250000
20
333.687500
0
VERTEX
5
211
100
AcDbEntity
8
1
100
AcDbVertex
100
AcDb2dVertex
62
5
10
114.750000
20
333.687500
0
SEQEND
5
212
100
AcDbEntity
8
1
0
LINE
5
213
100
AcDbEntity
8
1
100
AcDbLine
6
CONTINUOUS
62
5
10
129.000000
20
347.000000
11
131.500000
21
347.000000
0
LINE
5
214
100
AcDbEntity
8
1
100
AcDbLine
6
CONTINUOUS
62
5
10
130.250000
20
347.000000
11
130.250000
21
341.000000
0
POLYLINE
5
215
100
AcDbEntity
8
1
6
CONTINUOUS
62
5
100
AcDb2dPolyline
66
1
10
0.0
20
0.0
30
0.0
70
0
0
VERTEX
5
216
100
AcDbEntity
8
1
100
AcDbVertex
100
AcDb2dVertex
62
5
10
95.625000
20
298.937500
0
VERTEX
5
217
100
AcDbEntity
8
1
100
AcDbVertex
100
AcDb2dVertex
62
5
10
95.000000
20
300.187500
0
VERTEX
5
218
100
AcDbEntity
8
1
100
AcDbVertex
100
AcDb2dVertex
62
5
10
94.062500
20
300.500000
0
VERTEX
5
219
100
AcDbEntity
8
1
100
AcDbVertex
100
AcDb2dVertex
62
5
10
93.437500
20
300.500000
0
VERTEX
5
21a
100
AcDbEntity
8
1
100
AcDbVertex
100
AcDb2dVertex
62
5
10
92.812500
20
300.187500
0
VERTEX
5
21b
100
AcDbEntity
8
1
100
AcDbVertex
100
AcDb2dVertex
62
5
10
92.187500
20
299.250000
0
VERTEX
5
21c
100
AcDbEntity
8
1
100
AcDbVertex
100
AcDb2dVertex
62
5
10
92.187500
20
298.312500
0
VERTEX
5
21d
100
AcDbEntity
8
1
100
AcDbVertex
100
AcDb2dVertex
62
5
10
92.812500
20
297.375000
0
VERTEX
5
21e
100
AcDbEntity
8
1
100
AcDbVertex
100
AcDb2dVertex
62
5
10
95.000000
20
296.125000
0
VERTEX
5
21f
100
AcDbEntity
8
1
100
AcDbVertex
100
AcDb2dVertex
62
5
10
95.625000
20
295.187500
0
VERTEX
5
220
100
AcDbEntity
8
1
100
AcDbVertex
100
AcDb2dVertex
62
5
10
95.625000
20
294.250000
0
VERTEX
5
221
100
AcDbEntity
8
1
100
AcDbVertex
100
AcDb2dVertex
62
5
10
95.000000
20
293.312500
0
VERTEX
5
222
100
AcDbEntity
8
1
100
AcDbVertex
100
AcDb2dVertex
62
5
10
94.062500
20
293.000000
0
VERTEX
5
223
100
AcDbEntity
8
1
100
AcDbVertex
100
AcDb2dVertex
62
5
10
93.437500
20
293.000000
0
VERTEX
5
224
100
AcDbEntity
8
1
100
AcDbVertex
100
AcDb2dVertex
62
5
10
92.500000
20
293.625000
0
VERTEX
5
225
100
AcDbEntity
8
1
100
AcDbVertex
100
AcDb2dVertex
62
5
10
92.187500
20
294.875000
0
SEQEND
5
226
100
AcDbEntity
8
1
0
LINE
5
227
100
AcDbEntity
8
1
100
AcDbLine
6
CONTINUOUS
62
5
10
97.500000
20
300.500000
11
97.500000
21
293.000000
0
POLYLINE
5
228
100
AcDbEntity
8
1
6
CONTINUOUS
62
5
100
AcDb2dPolyline
66
1
10
0.0
20
0.0
30
0.0
70
0
0
VERTEX
5
229
100
AcDbEntity
8
1
100
AcDbVertex
100
AcDb2dVertex
62
5
10
97.500000
20
300.500000
0
VERTEX
5
22a
100
AcDbEntity
8
1
100
AcDbVertex
100
AcDb2dVertex
62
5
10
99.062500
20
300.500000
0
VERTEX
5
22b
100
AcDbEntity
8
1
100
AcDbVertex
100
AcDb2dVertex
62
5
10
99.687500
20
300.187500
0
VERTEX
5
22c
100
AcDbEntity
8
1
100
AcDbVertex
100
AcDb2dVertex
62
5
10
100.000000
20
299.875000
0
VERTEX
5
22d
100
AcDbEntity
8
1
100
AcDbVertex
100
AcDb2dVertex
62
5
10
100.312500
20
299.250000
0
VERTEX
5
22e
100
AcDbEntity
8
1
100
AcDbVertex
100
AcDb2dVertex
62
5
10
100.312500
20
298.312500
0
VERTEX
5
22f
100
AcDbEntity
8
1
100
AcDbVertex
100
AcDb2dVertex
62
5
10
100.000000
20
297.687500
0
VERTEX
5
230
100
AcDbEntity
8
1
100
AcDbVertex
100
AcDb2dVertex
62
5
10
99.687500
20
297.375000
0
VERTEX
5
231
100
AcDbEntity
8
1
100
AcDbVertex
100
AcDb2dVertex
62
5
10
99.062500
20
297.062500
0
VERTEX
5
232
100
AcDbEntity
8
1
100
AcDbVertex
100
AcDb2dVertex
62
5
10
97.500000
20
297.062500
0
SEQEND
5
233
100
AcDbEntity
8
1
0
POLYLINE
5
234
100
AcDbEntity
8
1
6
CONTINUOUS
62
5
100
AcDb2dPolyline
66
1
10
0.0
20
0.0
30
0.0
70
0
0
VERTEX
5
235
100
AcDbEntity
8
1
100
AcDbVertex
100
AcDb2dVertex
62
5
10
99.062500
20
297.062500
0
VERTEX
5
236
100
AcDbEntity
8
1
100
AcDbVertex
100
AcDb2dVertex
62
5
10
99.687500
20
296.750000
0
VERTEX
5
237
100
AcDbEntity
8
1
100
AcDbVertex
100
AcDb2dVertex
62
5
10
100.312500
20
296.125000
0
VERTEX
5
238
100
AcDbEntity
8
1
100
AcDbVertex
100
AcDb2dVertex
62
5
10
100.625000
20
295.500000
0
VERTEX
5
239
100
AcDbEntity
8
1
100
AcDbVertex
100
AcDb2dVertex
62
5
10
100.625000
20
294.250000
0
VERTEX
5
23a
100
AcDbEntity
8
1
100
AcDbVertex
100
AcDb2dVertex
62
5
10
100.312500
20
293.625000
0
VERTEX
5
23b
100
AcDbEntity
8
1
100
AcDbVertex
100
AcDb2dVertex
62
5
10
100.000000
20
293.312500
0
VERTEX
5
23c
100
AcDbEntity
8
1
100
AcDbVertex
100
AcDb2dVertex
62
5
10
99.375000
20
293.000000
0
VERTEX
5
23d
100
AcDbEntity
8
1
100
AcDbVertex
100
AcDb2dVertex
62
5
10
97.500000
20
293.000000
0
SEQEND
5
23e
100
AcDbEntity
8
1
0
POLYLINE
5
23f
100
AcDbEntity
8
1
6
CONTINUOUS
62
5
100
AcDb2dPolyline
66
1
10
0.0
20
0.0
30
0.0
70
0
0
VERTEX
5
240
100
AcDbEntity
8
1
100
AcDbVertex
100
AcDb2dVertex
62
5
10
72.750000
20
347.000000
0
VERTEX
5
241
100
AcDbEntity
8
1
100
AcDbVertex
100
AcDb2dVertex
62
5
10
73.500000
20
341.000000
0
VERTEX
5
242
100
AcDbEntity
8
1
100
AcDbVertex
100
AcDb2dVertex
62
5
10
74.250000
20
347.000000
0
VERTEX
5
243
100
AcDbEntity
8
1
100
AcDbVertex
100
AcDb2dVertex
62
5
10
75.000000
20
341.000000
0
VERTEX
5
244
100
AcDbEntity
8
1
100
AcDbVertex
100
AcDb2dVertex
62
5
10
75.750000
20
347.000000
0
SEQEND
5
245
100
AcDbEntity
8
1
0
LINE
5
246
100
AcDbEntity
8
1
100
AcDbLine
6
CONTINUOUS
62
5
10
77.500000
20
347.000000
11
79.000000
21
347.000000
0
LINE
5
247
100
AcDbEntity
8
1
100
AcDbLine
6
CONTINUOUS
62
5
10
78.250000
20
347.000000
11
78.250000
21
341.000000
0
LINE
5
248
100
AcDbEntity
8
1
100
AcDbLine
6
CONTINUOUS
62
5
10
77.500000
20
341.000000
11
79.000000
21
341.000000
0
LINE
5
249
100
AcDbEntity
8
1
100
AcDbLine
6
CONTINUOUS
62
5
10
81.000000
20
347.000000
11
81.000000
21
341.000000
0
POLYLINE
5
24a
100
AcDbEntity
8
1
6
CONTINUOUS
62
5
100
AcDb2dPolyline
66
1
10
0.0
20
0.0
30
0.0
70
0
0
VERTEX
5
24b
100
AcDbEntity
8
1
100
AcDbVertex
100
AcDb2dVertex
62
5
10
81.000000
20
347.000000
0
VERTEX
5
24c
100
AcDbEntity
8
1
100
AcDbVertex
100
AcDb2dVertex
62
5
10
82.250000
20
347.000000
0
VERTEX
5
24d
100
AcDbEntity
8
1
100
AcDbVertex
100
AcDb2dVertex
62
5
10
82.750000
20
346.750000
0
VERTEX
5
24e
100
AcDbEntity
8
1
100
AcDbVertex
100
AcDb2dVertex
62
5
10
83.250000
20
346.250000
0
VERTEX
5
24f
100
AcDbEntity
8
1
100
AcDbVertex
100
AcDb2dVertex
62
5
10
83.500000
20
345.250000
0
VERTEX
5
250
100
AcDbEntity
8
1
100
AcDbVertex
100
AcDb2dVertex
62
5
10
83.500000
20
342.750000
0
VERTEX
5
251
100
AcDbEntity
8
1
100
AcDbVertex
100
AcDb2dVertex
62
5
10
83.250000
20
341.750000
0
VERTEX
5
252
100
AcDbEntity
8
1
100
AcDbVertex
100
AcDb2dVertex
62
5
10
82.750000
20
341.250000
0
VERTEX
5
253
100
AcDbEntity
8
1
100
AcDbVertex
100
AcDb2dVertex
62
5
10
82.250000
20
341.000000
0
VERTEX
5
254
100
AcDbEntity
8
1
100
AcDbVertex
100
AcDb2dVertex
62
5
10
81.000000
20
341.000000
0
SEQEND
5
255
100
AcDbEntity
8
1
0
POLYLINE
5
256
100
AcDbEntity
8
1
6
CONTINUOUS
62
5
100
AcDb2dPolyline
66
1
10
0.0
20
0.0
30
0.0
70
0
0
VERTEX
5
257
100
AcDbEntity
8
1
100
AcDbVertex
100
AcDb2dVertex
62
5
10
87.500000
20
347.000000
0
VERTEX
5
258
100
AcDbEntity
8
1
100
AcDbVertex
100
AcDb2dVertex
62
5
10
85.000000
20
347.000000
0
VERTEX
5
259
100
AcDbEntity
8
1
100
AcDbVertex
100
AcDb2dVertex
62
5
10
85.000000
20
341.000000
0
VERTEX
5
25a
100
AcDbEntity
8
1
100
AcDbVertex
100
AcDb2dVertex
62
5
10
87.750000
20
341.000000
0
SEQEND
5
25b
100
AcDbEntity
8
1
0
LINE
5
25c
100
AcDbEntity
8
1
100
AcDbLine
6
CONTINUOUS
62
5
10
85.000000
20
344.000000
11
87.250000
21
344.000000
0
LINE
5
25d
100
AcDbEntity
8
1
100
AcDbLine
6
CONTINUOUS
62
5
10
75.250000
20
336.187500
11
77.000000
21
336.187500
0
POLYLINE
5
25e
100
AcDbEntity
8
1
6
CONTINUOUS
62
5
100
AcDb2dPolyline
66
1
10
0.0
20
0.0
30
0.0
70
0
0
VERTEX
5
25f
100
AcDbEntity
8
1
100
AcDbVertex
100
AcDb2dVertex
62
5
10
76.250000
20
338.062500
0
VERTEX
5
260
100
AcDbEntity
8
1
100
AcDbVertex
100
AcDb2dVertex
62
5
10
76.250000
20
330.562500
0
VERTEX
5
261
100
AcDbEntity
8
1
100
AcDbVertex
100
AcDb2dVertex
62
5
10
75.750000
20
329.937500
0
VERTEX
5
262
100
AcDbEntity
8
1
100
AcDbVertex
100
AcDb2dVertex
62
5
10
75.500000
20
329.937500
0
SEQEND
5
263
100
AcDbEntity
8
1
0
LINE
5
264
100
AcDbEntity
8
1
100
AcDbLine
6
CONTINUOUS
62
5
10
75.250000
20
333.062500
11
76.750000
21
334.000000
0
POLYLINE
5
265
100
AcDbEntity
8
1
6
CONTINUOUS
62
5
100
AcDb2dPolyline
66
1
10
0.0
20
0.0
30
0.0
70
1
0
VERTEX
5
266
100
AcDbEntity
8
1
100
AcDbVertex
100
AcDb2dVertex
62
5
10
78.500000
20
336.187500
0
VERTEX
5
267
100
AcDbEntity
8
1
100
AcDbVertex
100
AcDb2dVertex
62
5
10
78.500000
20
337.750000
0
VERTEX
5
268
100
AcDbEntity
8
1
100
AcDbVertex
100
AcDb2dVertex
62
5
10
81.000000
20
337.750000
0
VERTEX
5
269
100
AcDbEntity
8
1
100
AcDbVertex
100
AcDb2dVertex
62
5
10
81.000000
20
336.187500
0
VERTEX
5
26a
100
AcDbEntity
8
1
100
AcDbVertex
100
AcDb2dVertex
62
5
10
78.500000
20
336.187500
0
SEQEND
5
26b
100
AcDbEntity
8
1
0
POLYLINE
5
26c
100
AcDbEntity
8
1
6
CONTINUOUS
62
5
100
AcDb2dPolyline
66
1
10
0.0
20
0.0
30
0.0
70
1
0
VERTEX
5
26d
100
AcDbEntity
8
1
100
AcDbVertex
100
AcDb2dVertex
62
5
10
77.750000
20
335.250000
0
VERTEX
5
26e
100
AcDbEntity
8
1
100
AcDbVertex
100
AcDb2dVertex
62
5
10
79.000000
20
335.250000
0
VERTEX
5
26f
100
AcDbEntity
8
1
100
AcDbVertex
100
AcDb2dVertex
62
5
10
79.000000
20
334.000000
0
VERTEX
5
270
100
AcDbEntity
8
1
100
AcDbVertex
100
AcDb2dVertex
62
5
10
77.750000
20
334.000000
0
VERTEX
5
271
100
AcDbEntity
8
1
100
AcDbVertex
100
AcDb2dVertex
62
5
10
77.750000
20
335.250000
0
SEQEND
5
272
100
AcDbEntity
8
1
0
POLYLINE
5
273
100
AcDbEntity
8
1
6
CONTINUOUS
62
5
100
AcDb2dPolyline
66
1
10
0.0
20
0.0
30
0.0
70
1
0
VERTEX
5
274
100
AcDbEntity
8
1
100
AcDbVertex
100
AcDb2dVertex
62
5
10
80.500000
20
335.250000
0
VERTEX
5
275
100
AcDbEntity
8
1
100
AcDbVertex
100
AcDb2dVertex
62
5
10
81.750000
20
335.250000
0
VERTEX
5
276
100
AcDbEntity
8
1
100
AcDbVertex
100
AcDb2dVertex
62
5
10
81.750000
20
334.000000
0
VERTEX
5
277
100
AcDbEntity
8
1
100
AcDbVertex
100
AcDb2dVertex
62
5
10
80.500000
20
334.000000
0
VERTEX
5
278
100
AcDbEntity
8
1
100
AcDbVertex
100
AcDb2dVertex
62
5
10
80.500000
20
335.250000
0
SEQEND
5
279
100
AcDbEntity
8
1
0
LINE
5
27a
100
AcDbEntity
8
1
100
AcDbLine
6
CONTINUOUS
62
5
10
77.500000
20
332.750000
11
82.250000
21
332.750000
0
LINE
5
27b
100
AcDbEntity
8
1
100
AcDbLine
6
CONTINUOUS
62
5
10
79.750000
20
333.687500
11
79.750000
21
329.625000
0
POLYLINE
5
27c
100
AcDbEntity
8
1
6
CONTINUOUS
62
5
100
AcDb2dPolyline
66
1
10
0.0
20
0.0
30
0.0
70
0
0
VERTEX
5
27d
100
AcDbEntity
8
1
100
AcDbVertex
100
AcDb2dVertex
62
5
10
79.750000
20
332.437500
0
VERTEX
5
27e
100
AcDbEntity
8
1
100
AcDbVertex
100
AcDb2dVertex
62
5
10
79.000000
20
331.187500
0
VERTEX
5
27f
100
AcDbEntity
8
1
100
AcDbVertex
100
AcDb2dVertex
62
5
10
78.500000
20
330.875000
0
VERTEX
5
280
100
AcDbEntity
8
1
100
AcDbVertex
100
AcDb2dVertex
62
5
10
77.250000
20
330.250000
0
SEQEND
5
281
100
AcDbEntity
8
1
0
POLYLINE
5
282
100
AcDbEntity
8
1
6
CONTINUOUS
62
5
100
AcDb2dPolyline
66
1
10
0.0
20
0.0
30
0.0
70
0
0
VERTEX
5
283
100
AcDbEntity
8
1
100
AcDbVertex
100
AcDb2dVertex
62
5
10
79.750000
20
332.437500
0
VERTEX
5
284
100
AcDbEntity
8
1
100
AcDbVertex
100
AcDb2dVertex
62
5
10
80.500000
20
331.187500
0
VERTEX
5
285
100
AcDbEntity
8
1
100
AcDbVertex
100
AcDb2dVertex
62
5
10
81.250000
20
330.562500
0
VERTEX
5
286
100
AcDbEntity
8
1
100
AcDbVertex
100
AcDb2dVertex
62
5
10
82.250000
20
330.250000
0
SEQEND
5
287
100
AcDbEntity
8
1
0
POLYLINE
5
288
100
AcDbEntity
8
1
6
CONTINUOUS
62
5
100
AcDb2dPolyline
66
1
10
0.0
20
0.0
30
0.0
70
0
0
VERTEX
5
289
100
AcDbEntity
8
1
100
AcDbVertex
100
AcDb2dVertex
62
5
10
63.250000
20
347.000000
0
VERTEX
5
28a
100
AcDbEntity
8
1
100
AcDbVertex
100
AcDb2dVertex
62
5
10
63.250000
20
342.500000
0
VERTEX
5
28b
100
AcDbEntity
8
1
100
AcDbVertex
100
AcDb2dVertex
62
5
10
63.000000
20
341.500000
0
VERTEX
5
28c
100
AcDbEntity
8
1
100
AcDbVertex
100
AcDb2dVertex
62
5
10
62.500000
20
341.000000
0
VERTEX
5
28d
100
AcDbEntity
8
1
100
AcDbVertex
100
AcDb2dVertex
62
5
10
61.750000
20
341.000000
0
VERTEX
5
28e
100
AcDbEntity
8
1
100
AcDbVertex
100
AcDb2dVertex
62
5
10
61.250000
20
341.500000
0
VERTEX
5
28f
100
AcDbEntity
8
1
100
AcDbVertex
100
AcDb2dVertex
62
5
10
61.000000
20
342.500000
0
SEQEND
5
290
100
AcDbEntity
8
1
0
POLYLINE
5
291
100
AcDbEntity
8
1
6
CONTINUOUS
62
5
100
AcDb2dPolyline
66
1
10
0.0
20
0.0
30
0.0
70
0
0
VERTEX
5
292
100
AcDbEntity
8
1
100
AcDbVertex
100
AcDb2dVertex
62
5
10
67.250000
20
344.000000
0
VERTEX
5
293
100
AcDbEntity
8
1
100
AcDbVertex
100
AcDb2dVertex
62
5
10
67.750000
20
344.500000
0
VERTEX
5
294
100
AcDbEntity
8
1
100
AcDbVertex
100
AcDb2dVertex
62
5
10
68.000000
20
344.500000
0
VERTEX
5
295
100
AcDbEntity
8
1
100
AcDbVertex
100
AcDb2dVertex
62
5
10
68.500000
20
344.000000
0
VERTEX
5
296
100
AcDbEntity
8
1
100
AcDbVertex
100
AcDb2dVertex
62
5
10
68.500000
20
343.750000
0
VERTEX
5
297
100
AcDbEntity
8
1
100
AcDbVertex
100
AcDb2dVertex
62
5
10
68.000000
20
343.250000
0
VERTEX
5
298
100
AcDbEntity
8
1
100
AcDbVertex
100
AcDb2dVertex
62
5
10
67.750000
20
343.250000
0
VERTEX
5
299
100
AcDbEntity
8
1
100
AcDbVertex
100
AcDb2dVertex
62
5
10
67.250000
20
343.750000
0
VERTEX
5
29a
100
AcDbEntity
8
1
100
AcDbVertex
100
AcDb2dVertex
62
5
10
67.250000
20
344.000000
0
VERTEX
5
29b
100
AcDbEntity
8
1
100
AcDbVertex
100
AcDb2dVertex
62
5
10
68.500000
20
344.000000
0
SEQEND
5
29c
100
AcDbEntity
8
1
0
LINE
5
29d
100
AcDbEntity
8
1
100
AcDbLine
6
CONTINUOUS
62
5
10
68.500000
20
343.750000
11
67.250000
21
343.750000
0
LINE
5
29e
100
AcDbEntity
8
1
100
AcDbLine
6
CONTINUOUS
62
5
10
67.500000
20
343.500000
11
68.250000
21
343.500000
0
LINE
5
29f
100
AcDbEntity
8
1
100
AcDbLine
6
CONTINUOUS
62
5
10
68.250000
20
344.250000
11
67.500000
21
344.250000
0
POLYLINE
5
2a0
100
AcDbEntity
8
1
6
CONTINUOUS
62
5
100
AcDb2dPolyline
66
1
10
0.0
20
0.0
30
0.0
70
0
0
VERTEX
5
2a1
100
AcDbEntity
8
1
100
AcDbVertex
100
AcDb2dVertex
62
5
10
77.000000
20
325.875000
0
VERTEX
5
2a2
100
AcDbEntity
8
1
100
AcDbVertex
100
AcDb2dVertex
62
5
10
80.250000
20
325.875000
0
VERTEX
5
2a3
100
AcDbEntity
8
1
100
AcDbVertex
100
AcDb2dVertex
62
5
10
80.250000
20
325.562500
0
VERTEX
5
2a4
100
AcDbEntity
8
1
100
AcDbVertex
100
AcDb2dVertex
62
5
10
79.750000
20
324.312500
0
VERTEX
5
2a5
100
AcDbEntity
8
1
100
AcDbVertex
100
AcDb2dVertex
62
5
10
79.250000
20
323.375000
0
VERTEX
5
2a6
100
AcDbEntity
8
1
100
AcDbVertex
100
AcDb2dVertex
62
5
10
78.250000
20
322.125000
0
VERTEX
5
2a7
100
AcDbEntity
8
1
100
AcDbVertex
100
AcDb2dVertex
62
5
10
76.500000
20
320.562500
0
SEQEND
5
2a8
100
AcDbEntity
8
1
0
LINE
5
2a9
100
AcDbEntity
8
1
100
AcDbLine
6
CONTINUOUS
62
5
10
79.250000
20
323.375000
11
81.250000
21
320.562500
0
LINE
5
2aa
100
AcDbEntity
8
1
100
AcDbLine
6
CONTINUOUS
62
5
10
50.000000
20
350.000000
11
50.000000
21
318.000000
0
LINE
5
2ab
100
AcDbEntity
8
1
100
AcDbLine
6
CONTINUOUS
62
5
10
50.000000
20
350.000000
11
50.000000
21
318.000000
0
POLYLINE
5
2ac
100
AcDbEntity
8
1
6
CONTINUOUS
62
5
100
AcDb2dPolyline
66
1
10
0.0
20
0.0
30
0.0
70
0
0
VERTEX
5
2ad
100
AcDbEntity
8
1
100
AcDbVertex
100
AcDb2dVertex
62
5
10
72.500000
20
293.000000
0
VERTEX
5
2ae
100
AcDbEntity
8
1
100
AcDbVertex
100
AcDb2dVertex
62
5
10
72.500000
20
300.500000
0
VERTEX
5
2af
100
AcDbEntity
8
1
100
AcDbVertex
100
AcDb2dVertex
62
5
10
75.625000
20
293.000000
0
VERTEX
5
2b0
100
AcDbEntity
8
1
100
AcDbVertex
100
AcDb2dVertex
62
5
10
75.625000
20
300.500000
0
SEQEND
5
2b1
100
AcDbEntity
8
1
0
LINE
5
2b2
100
AcDbEntity
8
1
100
AcDbLine
6
CONTINUOUS
62
5
10
77.500000
20
296.750000
11
80.625000
21
296.750000
0
LINE
5
2b3
100
AcDbEntity
8
1
100
AcDbLine
6
CONTINUOUS
62
5
10
82.500000
20
300.500000
11
82.500000
21
293.000000
0
POLYLINE
5
2b4
100
AcDbEntity
8
1
6
CONTINUOUS
62
5
100
AcDb2dPolyline
66
1
10
0.0
20
0.0
30
0.0
70
0
0
VERTEX
5
2b5
100
AcDbEntity
8
1
100
AcDbVertex
100
AcDb2dVertex
62
5
10
82.500000
20
300.500000
0
VERTEX
5
2b6
100
AcDbEntity
8
1
100
AcDbVertex
100
AcDb2dVertex
62
5
10
84.062500
20
300.500000
0
VERTEX
5
2b7
100
AcDbEntity
8
1
100
AcDbVertex
100
AcDb2dVertex
62
5
10
84.687500
20
300.187500
0
VERTEX
5
2b8
100
AcDbEntity
8
1
100
AcDbVertex
100
AcDb2dVertex
62
5
10
85.312500
20
299.562500
0
VERTEX
5
2b9
100
AcDbEntity
8
1
100
AcDbVertex
100
AcDb2dVertex
62
5
10
85.625000
20
298.312500
0
VERTEX
5
2ba
100
AcDbEntity
8
1
100
AcDbVertex
100
AcDb2dVertex
62
5
10
85.625000
20
295.187500
0
VERTEX
5
2bb
100
AcDbEntity
8
1
100
AcDbVertex
100
AcDb2dVertex
62
5
10
85.312500
20
293.937500
0
VERTEX
5
2bc
100
AcDbEntity
8
1
100
AcDbVertex
100
AcDb2dVertex
62
5
10
84.687500
20
293.312500
0
VERTEX
5
2bd
100
AcDbEntity
8
1
100
AcDbVertex
100
AcDb2dVertex
62
5
10
84.062500
20
293.000000
0
VERTEX
5
2be
100
AcDbEntity
8
1
100
AcDbVertex
100
AcDb2dVertex
62
5
10
82.500000
20
293.000000
0
SEQEND
5
2bf
100
AcDbEntity
8
1
0
POLYLINE
5
2c0
100
AcDbEntity
8
1
6
CONTINUOUS
62
5
100
AcDb2dPolyline
66
1
10
0.0
20
0.0
30
0.0
70
0
0
VERTEX
5
2c1
100
AcDbEntity
8
1
100
AcDbVertex
100
AcDb2dVertex
62
5
10
62.187500
20
300.500000
0
VERTEX
5
2c2
100
AcDbEntity
8
1
100
AcDbVertex
100
AcDb2dVertex
62
5
10
63.125000
20
293.000000
0
VERTEX
5
2c3
100
AcDbEntity
8
1
100
AcDbVertex
100
AcDb2dVertex
62
5
10
64.062500
20
300.500000
0
VERTEX
5
2c4
100
AcDbEntity
8
1
100
AcDbVertex
100
AcDb2dVertex
62
5
10
65.000000
20
293.000000
0
VERTEX
5
2c5
100
AcDbEntity
8
1
100
AcDbVertex
100
AcDb2dVertex
62
5
10
65.937500
20
300.500000
0
SEQEND
5
2c6
100
AcDbEntity
8
1
0
POLYLINE
5
2c7
100
AcDbEntity
8
1
6
CONTINUOUS
62
5
100
AcDb2dPolyline
66
1
10
0.0
20
0.0
30
0.0
70
0
0
VERTEX
5
2c8
100
AcDbEntity
8
1
100
AcDbVertex
100
AcDb2dVertex
62
5
10
70.625000
20
298.937500
0
VERTEX
5
2c9
100
AcDbEntity
8
1
100
AcDbVertex
100
AcDb2dVertex
62
5
10
70.000000
20
300.187500
0
VERTEX
5
2ca
100
AcDbEntity
8
1
100
AcDbVertex
100
AcDb2dVertex
62
5
10
69.062500
20
300.500000
0
VERTEX
5
2cb
100
AcDbEntity
8
1
100
AcDbVertex
100
AcDb2dVertex
62
5
10
68.437500
20
300.500000
0
VERTEX
5
2cc
100
AcDbEntity
8
1
100
AcDbVertex
100
AcDb2dVertex
62
5
10
67.812500
20
300.187500
0
VERTEX
5
2cd
100
AcDbEntity
8
1
100
AcDbVertex
100
AcDb2dVertex
62
5
10
67.187500
20
299.250000
0
VERTEX
5
2ce
100
AcDbEntity
8
1
100
AcDbVertex
100
AcDb2dVertex
62
5
10
67.187500
20
298.312500
0
VERTEX
5
2cf
100
AcDbEntity
8
1
100
AcDbVertex
100
AcDb2dVertex
62
5
10
67.812500
20
297.375000
0
VERTEX
5
2d0
100
AcDbEntity
8
1
100
AcDbVertex
100
AcDb2dVertex
62
5
10
70.000000
20
296.125000
0
VERTEX
5
2d1
100
AcDbEntity
8
1
100
AcDbVertex
100
AcDb2dVertex
62
5
10
70.625000
20
295.187500
0
VERTEX
5
2d2
100
AcDbEntity
8
1
100
AcDbVertex
100
AcDb2dVertex
62
5
10
70.625000
20
294.250000
0
VERTEX
5
2d3
100
AcDbEntity
8
1
100
AcDbVertex
100
AcDb2dVertex
62
5
10
70.000000
20
293.312500
0
VERTEX
5
2d4
100
AcDbEntity
8
1
100
AcDbVertex
100
AcDb2dVertex
62
5
10
69.062500
20
293.000000
0
VERTEX
5
2d5
100
AcDbEntity
8
1
100
AcDbVertex
100
AcDb2dVertex
62
5
10
68.437500
20
293.000000
0
VERTEX
5
2d6
100
AcDbEntity
8
1
100
AcDbVertex
100
AcDb2dVertex
62
5
10
67.500000
20
293.625000
0
VERTEX
5
2d7
100
AcDbEntity
8
1
100
AcDbVertex
100
AcDb2dVertex
62
5
10
67.187500
20
294.875000
0
SEQEND
5
2d8
100
AcDbEntity
8
1
0
LINE
5
2d9
100
AcDbEntity
8
1
100
AcDbLine
6
CONTINUOUS
62
5
10
87.250000
20
323.687500
11
86.750000
21
322.125000
0
LINE
5
2da
100
AcDbEntity
8
1
100
AcDbLine
6
CONTINUOUS
62
5
10
85.250000
20
326.812500
11
88.750000
21
326.812500
0
LINE
5
2db
100
AcDbEntity
8
1
100
AcDbLine
6
CONTINUOUS
62
5
10
84.000000
20
324.625000
11
89.750000
21
324.625000
0
POLYLINE
5
2dc
100
AcDbEntity
8
1
6
CONTINUOUS
62
5
100
AcDb2dPolyline
66
1
10
0.0
20
0.0
30
0.0
70
0
0
VERTEX
5
2dd
100
AcDbEntity
8
1
100
AcDbVertex
100
AcDb2dVertex
62
5
10
86.750000
20
322.125000
0
VERTEX
5
2de
100
AcDbEntity
8
1
100
AcDbVertex
100
AcDb2dVertex
62
5
10
86.000000
20
321.187500
0
VERTEX
5
2df
100
AcDbEntity
8
1
100
AcDbVertex
100
AcDb2dVertex
62
5
10
85.000000
20
320.250000
0
SEQEND
5
2e0
100
AcDbEntity
8
1
0
LINE
5
2e1
100
AcDbEntity
8
1
100
AcDbLine
6
CONTINUOUS
62
5
10
87.250000
20
324.625000
11
87.250000
21
323.687500
0
POLYLINE
5
2e2
100
AcDbEntity
8
1
6
CONTINUOUS
62
5
100
AcDb2dPolyline
66
1
10
0.0
20
0.0
30
0.0
70
0
0
VERTEX
5
2e3
100
AcDbEntity
8
1
100
AcDbVertex
100
AcDb2dVertex
62
5
10
85.250000
20
338.375000
0
VERTEX
5
2e4
100
AcDbEntity
8
1
100
AcDbVertex
100
AcDb2dVertex
62
5
10
84.500000
20
336.500000
0
VERTEX
5
2e5
100
AcDbEntity
8
1
100
AcDbVertex
100
AcDb2dVertex
62
5
10
83.250000
20
334.000000
0
SEQEND
5
2e6
100
AcDbEntity
8
1
0
LINE
5
2e7
100
AcDbEntity
8
1
100
AcDbLine
6
CONTINUOUS
62
5
10
84.500000
20
336.500000
11
84.500000
21
329.625000
0
POLYLINE
5
2e8
100
AcDbEntity
8
1
6
CONTINUOUS
62
5
100
AcDb2dPolyline
66
1
10
0.0
20
0.0
30
0.0
70
0
0
VERTEX
5
2e9
100
AcDbEntity
8
1
100
AcDbVertex
100
AcDb2dVertex
62
5
10
87.500000
20
338.375000
0
VERTEX
5
2ea
100
AcDbEntity
8
1
100
AcDbVertex
100
AcDb2dVertex
62
5
10
86.750000
20
336.812500
0
VERTEX
5
2eb
100
AcDbEntity
8
1
100
AcDbVertex
100
AcDb2dVertex
62
5
10
85.250000
20
334.937500
0
SEQEND
5
2ec
100
AcDbEntity
8
1
0
LINE
5
2ed
100
AcDbEntity
8
1
100
AcDbLine
6
CONTINUOUS
62
5
10
86.750000
20
336.812500
11
90.500000
21
336.812500
0
LINE
5
2ee
100
AcDbEntity
8
1
100
AcDbLine
6
CONTINUOUS
62
5
10
87.250000
20
336.812500
11
87.250000
21
329.625000
0
LINE
5
2ef
100
AcDbEntity
8
1
100
AcDbLine
6
CONTINUOUS
62
5
10
87.250000
20
334.625000
11
89.750000
21
334.625000
0
LINE
5
2f0
100
AcDbEntity
8
1
100
AcDbLine
6
CONTINUOUS
62
5
10
87.250000
20
332.125000
11
89.750000
21
332.125000
0
POLYLINE
5
2f1
100
AcDbEntity
8
6
6
DOT2
62
5
100
AcDb2dPolyline
66
1
10
0.0
20
0.0
30
0.0
70
0
0
VERTEX
5
2f2
100
AcDbEntity
8
6
100
AcDbVertex
100
AcDb2dVertex
62
5
10
163.750000
20
246.400000
0
VERTEX
5
2f3
100
AcDbEntity
8
6
100
AcDbVertex
100
AcDb2dVertex
62
5
10
160.937500
20
240.775000
0
VERTEX
5
2f4
100
AcDbEntity
8
6
100
AcDbVertex
100
AcDb2dVertex
62
5
10
164.687500
20
240.775000
0
SEQEND
5
2f5
100
AcDbEntity
8
6
0
LINE
5
2f6
100
AcDbEntity
8
6
100
AcDbLine
6
DOT2
62
5
10
163.750000
20
246.400000
11
163.750000
21
238.900000
0
LINE
5
2f7
100
AcDbEntity
8
6
100
AcDbLine
6
DOT2
62
5
10
163.125000
20
238.900000
11
164.375000
21
238.900000
0
POLYLINE
5
2f8
100
AcDbEntity
8
6
6
DOT2
62
5
100
AcDb2dPolyline
66
1
10
0.0
20
0.0
30
0.0
70
0
0
VERTEX
5
2f9
100
AcDbEntity
8
6
100
AcDbVertex
100
AcDb2dVertex
62
5
10
166.250000
20
244.525000
0
VERTEX
5
2fa
100
AcDbEntity
8
6
100
AcDbVertex
100
AcDb2dVertex
62
5
10
166.562500
20
245.775000
0
VERTEX
5
2fb
100
AcDbEntity
8
6
100
AcDbVertex
100
AcDb2dVertex
62
5
10
167.187500
20
246.400000
0
VERTEX
5
2fc
100
AcDbEntity
8
6
100
AcDbVertex
100
AcDb2dVertex
62
5
10
168.125000
20
246.400000
0
VERTEX
5
2fd
100
AcDbEntity
8
6
100
AcDbVertex
100
AcDb2dVertex
62
5
10
168.750000
20
246.087500
0
VERTEX
5
2fe
100
AcDbEntity
8
6
100
AcDbVertex
100
AcDb2dVertex
62
5
10
169.062500
20
245.150000
0
VERTEX
5
2ff
100
AcDbEntity
8
6
100
AcDbVertex
100
AcDb2dVertex
62
5
10
169.062500
20
243.900000
0
VERTEX
5
300
100
AcDbEntity
8
6
100
AcDbVertex
100
AcDb2dVertex
62
5
10
168.750000
20
243.275000
0
VERTEX
5
301
100
AcDbEntity
8
6
100
AcDbVertex
100
AcDb2dVertex
62
5
10
168.125000
20
242.650000
0
VERTEX
5
302
100
AcDbEntity
8
6
100
AcDbVertex
100
AcDb2dVertex
62
5
10
167.187500
20
242.650000
0
SEQEND
5
303
100
AcDbEntity
8
6
0
POLYLINE
5
304
100
AcDbEntity
8
6
6
DOT2
62
5
100
AcDb2dPolyline
66
1
10
0.0
20
0.0
30
0.0
70
0
0
VERTEX
5
305
100
AcDbEntity
8
6
100
AcDbVertex
100
AcDb2dVertex
62
5
10
168.125000
20
242.650000
0
VERTEX
5
306
100
AcDbEntity
8
6
100
AcDbVertex
100
AcDb2dVertex
62
5
10
169.062500
20
242.025000
0
VERTEX
5
307
100
AcDbEntity
8
6
100
AcDbVertex
100
AcDb2dVertex
62
5
10
169.375000
20
241.087500
0
VERTEX
5
308
100
AcDbEntity
8
6
100
AcDbVertex
100
AcDb2dVertex
62
5
10
169.375000
20
240.150000
0
VERTEX
5
309
100
AcDbEntity
8
6
100
AcDbVertex
100
AcDb2dVertex
62
5
10
169.062500
20
239.525000
0
VERTEX
5
30a
100
AcDbEntity
8
6
100
AcDbVertex
100
AcDb2dVertex
62
5
10
168.125000
20
238.900000
0
VERTEX
5
30b
100
AcDbEntity
8
6
100
AcDbVertex
100
AcDb2dVertex
62
5
10
167.187500
20
238.900000
0
VERTEX
5
30c
100
AcDbEntity
8
6
100
AcDbVertex
100
AcDb2dVertex
62
5
10
166.562500
20
239.212500
0
VERTEX
5
30d
100
AcDbEntity
8
6
100
AcDbVertex
100
AcDb2dVertex
62
5
10
165.937500
20
240.150000
0
SEQEND
5
30e
100
AcDbEntity
8
6
0
LINE
5
30f
100
AcDbEntity
8
3
100
AcDbLine
6
CONTINUOUS
62
5
10
151.950000
20
192.850000
11
151.900000
21
192.850000
0
LINE
5
310
100
AcDbEntity
8
3
100
AcDbLine
6
CONTINUOUS
62
5
10
151.900000
20
185.850000
11
151.950000
21
185.850000
0
LINE
5
311
100
AcDbEntity
8
3
100
AcDbLine
6
CONTINUOUS
62
5
10
151.950000
20
186.850000
11
151.900000
21
186.850000
0
LINE
5
312
100
AcDbEntity
8
3
100
AcDbLine
6
CONTINUOUS
62
5
10
151.900000
20
193.850000
11
151.950000
21
193.850000
0
LINE
5
313
100
AcDbEntity
8
6
100
AcDbLine
6
CONTINUOUS
62
5
10
191.600000
20
204.150000
11
191.600000
21
239.650000
0
LINE
5
314
100
AcDbEntity
8
6
100
AcDbLine
6
CONTINUOUS
62
5
10
148.400000
20
204.150000
11
148.400000
21
239.650000
0
POLYLINE
5
315
100
AcDbEntity
8
6
6
CONTINUOUS
62
5
100
AcDb2dPolyline
66
1
10
0.0
20
0.0
30
0.0
70
0
0
VERTEX
5
316
100
AcDbEntity
8
6
100
AcDbVertex
100
AcDb2dVertex
62
5
10
170.000000
20
237.650000
0
VERTEX
5
317
100
AcDbEntity
8
6
100
AcDbVertex
100
AcDb2dVertex
62
5
10
148.400000
20
237.650000
0
VERTEX
5
318
100
AcDbEntity
8
6
100
AcDbVertex
100
AcDb2dVertex
62
5
10
154.400000
20
238.650000
0
VERTEX
5
319
100
AcDbEntity
8
6
100
AcDbVertex
100
AcDb2dVertex
62
5
10
154.400000
20
236.650000
0
VERTEX
5
31a
100
AcDbEntity
8
6
100
AcDbVertex
100
AcDb2dVertex
62
5
10
148.400000
20
237.650000
0
VERTEX
5
31b
100
AcDbEntity
8
6
100
AcDbVertex
100
AcDb2dVertex
62
5
10
154.400000
20
238.150000
0
VERTEX
5
31c
100
AcDbEntity
8
6
100
AcDbVertex
100
AcDb2dVertex
62
5
10
154.400000
20
237.150000
0
VERTEX
5
31d
100
AcDbEntity
8
6
100
AcDbVertex
100
AcDb2dVertex
62
5
10
148.400000
20
237.650000
0
SEQEND
5
31e
100
AcDbEntity
8
6
0
POLYLINE
5
31f
100
AcDbEntity
8
6
6
CONTINUOUS
62
5
100
AcDb2dPolyline
66
1
10
0.0
20
0.0
30
0.0
70
0
0
VERTEX
5
320
100
AcDbEntity
8
6
100
AcDbVertex
100
AcDb2dVertex
62
5
10
170.000000
20
237.650000
0
VERTEX
5
321
100
AcDbEntity
8
6
100
AcDbVertex
100
AcDb2dVertex
62
5
10
191.600000
20
237.650000
0
VERTEX
5
322
100
AcDbEntity
8
6
100
AcDbVertex
100
AcDb2dVertex
62
5
10
185.600000
20
236.650000
0
VERTEX
5
323
100
AcDbEntity
8
6
100
AcDbVertex
100
AcDb2dVertex
62
5
10
185.600000
20
238.650000
0
VERTEX
5
324
100
AcDbEntity
8
6
100
AcDbVertex
100
AcDb2dVertex
62
5
10
191.600000
20
237.650000
0
VERTEX
5
325
100
AcDbEntity
8
6
100
AcDbVertex
100
AcDb2dVertex
62
5
10
185.600000
20
237.150000
0
VERTEX
5
326
100
AcDbEntity
8
6
100
AcDbVertex
100
AcDb2dVertex
62
5
10
185.600000
20
238.150000
0
VERTEX
5
327
100
AcDbEntity
8
6
100
AcDbVertex
100
AcDb2dVertex
62
5
10
191.600000
20
237.650000
0
SEQEND
5
328
100
AcDbEntity
8
6
0
LINE
5
329
100
AcDbEntity
8
1
100
AcDbLine
6
CONTINUOUS
62
5
10
10.000000
20
318.000000
11
330.000000
21
318.000000
0
LINE
5
32a
100
AcDbEntity
8
1
100
AcDbLine
6
CONTINUOUS
62
5
10
10.000000
20
318.000000
11
330.000000
21
318.000000
0
LINE
5
32b
100
AcDbEntity
8
3
100
AcDbLine
6
CONTINUOUS
62
5
10
185.000000
20
170.600000
11
185.000000
21
170.550000
0
LINE
5
32c
100
AcDbEntity
8
3
100
AcDbLine
6
CONTINUOUS
62
5
10
186.000000
20
170.600000
11
186.000000
21
170.550000
0
LINE
5
32d
100
AcDbEntity
8
3
100
AcDbLine
6
CONTINUOUS
62
5
10
179.000000
20
170.600000
11
179.000000
21
170.550000
0
LINE
5
32e
100
AcDbEntity
8
3
100
AcDbLine
6
CONTINUOUS
62
5
10
178.000000
20
170.600000
11
178.000000
21
170.550000
0
LINE
5
32f
100
AcDbEntity
8
3
100
AcDbLine
6
CONTINUOUS
62
5
10
179.000000
20
170.550000
11
185.000000
21
170.550000
0
POLYLINE
5
330
100
AcDbEntity
8
3
6
CONTINUOUS
62
5
100
AcDb2dPolyline
66
1
10
0.0
20
0.0
30
0.0
70
0
0
VERTEX
5
331
100
AcDbEntity
8
3
100
AcDbVertex
100
AcDb2dVertex
62
5
10
182.209999
20
107.050000
0
VERTEX
5
332
100
AcDbEntity
8
3
100
AcDbVertex
100
AcDb2dVertex
62
5
10
182.000000
20
105.850055
0
VERTEX
5
333
100
AcDbEntity
8
3
100
AcDbVertex
100
AcDb2dVertex
62
5
10
181.200988
20
105.850055
0
SEQEND
5
334
100
AcDbEntity
8
3
0
LINE
5
335
100
AcDbEntity
8
3
100
AcDbLine
6
CONTINUOUS
62
5
10
179.500000
20
107.350000
11
180.500000
21
107.050000
0
ARC
5
336
100
AcDbEntity
8
3
100
AcDbCircle
6
CONTINUOUS
62
5
10
181.207114
20
106.150055
40
0.300000
100
AcDbArc
50
-89.999999
51
-1.374853
0
LINE
5
337
100
AcDbEntity
8
3
100
AcDbLine
6
CONTINUOUS
62
5
10
181.507027
20
106.142857
11
181.528799
21
107.050000
0
LINE
5
338
100
AcDbEntity
8
3
100
AcDbLine
6
CONTINUOUS
62
5
10
178.875004
20
107.350000
11
178.977075
21
106.125142
0
ARC
5
339
100
AcDbEntity
8
3
100
AcDbCircle
6
CONTINUOUS
62
5
10
179.276039
20
106.150056
40
0.300000
100
AcDbArc
50
-175.236357
51
-89.999999
0
LINE
5
33a
100
AcDbEntity
8
3
100
AcDbLine
6
CONTINUOUS
62
5
10
179.276039
20
105.850056
11
181.207114
21
105.850055
0
LINE
5
33b
100
AcDbEntity
8
3
100
AcDbLine
6
CONTINUOUS
62
5
10
161.000000
20
170.600000
11
161.000000
21
170.550000
0
LINE
5
33c
100
AcDbEntity
8
3
100
AcDbLine
6
CONTINUOUS
62
5
10
162.000000
20
170.600000
11
162.000000
21
170.550000
0
LINE
5
33d
100
AcDbEntity
8
3
100
AcDbLine
6
CONTINUOUS
62
5
10
155.000000
20
170.600000
11
155.000000
21
170.550000
0
LINE
5
33e
100
AcDbEntity
8
3
100
AcDbLine
6
CONTINUOUS
62
5
10
154.000000
20
170.600000
11
154.000000
21
170.550000
0
POLYLINE
5
33f
100
AcDbEntity
8
3
6
CONTINUOUS
62
5
100
AcDb2dPolyline
66
1
10
0.0
20
0.0
30
0.0
70
0
0
VERTEX
5
340
100
AcDbEntity
8
3
100
AcDbVertex
100
AcDb2dVertex
62
5
10
157.792017
20
107.050000
0
VERTEX
5
341
100
AcDbEntity
8
3
100
AcDbVertex
100
AcDb2dVertex
62
5
10
158.000000
20
105.850055
0
VERTEX
5
342
100
AcDbEntity
8
3
100
AcDbVertex
100
AcDb2dVertex
62
5
10
158.799012
20
105.850055
0
SEQEND
5
343
100
AcDbEntity
8
3
0
ARC
5
344
100
AcDbEntity
8
3
100
AcDbCircle
6
CONTINUOUS
62
5
10
158.792886
20
106.150055
40
0.300000
100
AcDbArc
50
-178.625146
51
-89.999999
0
LINE
5
345
100
AcDbEntity
8
3
100
AcDbLine
6
CONTINUOUS
62
5
10
158.492973
20
106.142857
11
158.471201
21
107.050000
0
LINE
5
346
100
AcDbEntity
8
3
100
AcDbLine
6
CONTINUOUS
62
5
10
161.124996
20
107.350000
11
161.022925
21
106.125142
0
ARC
5
347
100
AcDbEntity
8
3
100
AcDbCircle
6
CONTINUOUS
62
5
10
160.723961
20
106.150056
40
0.300000
100
AcDbArc
50
-89.999999
51
-4.763642
0
LINE
5
348
100
AcDbEntity
8
3
100
AcDbLine
6
CONTINUOUS
62
5
10
160.723961
20
105.850056
11
158.792886
21
105.850055
0
LINE
5
349
100
AcDbEntity
8
3
100
AcDbLine
6
CONTINUOUS
62
5
10
159.500000
20
107.050000
11
160.500001
21
107.350000
0
LINE
5
34a
100
AcDbEntity
8
6
100
AcDbLine
6
CONTINUOUS
62
5
10
182.000000
20
170.550000
11
155.000000
21
170.550000
0
LINE
5
34b
100
AcDbEntity
8
3
100
AcDbLine
6
CONTINUOUS
62
5
10
160.500000
20
107.350000
11
179.500000
21
107.350000
0
ARC
5
34c
100
AcDbEntity
8
3
100
AcDbCircle
6
CONTINUOUS
62
5
10
190.742086
20
111.119150
40
0.500000
100
AcDbArc
50
5.000000
51
87.620068
0
ARC
5
34d
100
AcDbEntity
8
3
100
AcDbCircle
6
CONTINUOUS
62
5
10
170.000000
20
-387.950000
40
500.000000
100
AcDbArc
50
87.620068
51
92.379931
0
ARC
5
34e
100
AcDbEntity
8
3
100
AcDbCircle
6
CONTINUOUS
62
5
10
149.257914
20
111.119150
40
0.500000
100
AcDbArc
50
92.379931
51
174.999998
0
POLYLINE
5
34f
100
AcDbEntity
8
3
6
CONTINUOUS
62
5
100
AcDb2dPolyline
66
1
10
0.0
20
0.0
30
0.0
70
0
0
VERTEX
5
350
100
AcDbEntity
8
3
100
AcDbVertex
100
AcDb2dVertex
62
5
10
148.759817
20
111.162727
0
VERTEX
5
351
100
AcDbEntity
8
3
100
AcDbVertex
100
AcDb2dVertex
62
5
10
148.400000
20
107.050000
0
VERTEX
5
352
100
AcDbEntity
8
3
100
AcDbVertex
100
AcDb2dVertex
62
5
10
159.500000
20
107.050000
0
SEQEND
5
353
100
AcDbEntity
8
3
0
POLYLINE
5
354
100
AcDbEntity
8
3
6
CONTINUOUS
62
5
100
AcDb2dPolyline
66
1
10
0.0
20
0.0
30
0.0
70
0
0
VERTEX
5
355
100
AcDbEntity
8
3
100
AcDbVertex
100
AcDb2dVertex
62
5
10
180.500000
20
107.050000
0
VERTEX
5
356
100
AcDbEntity
8
3
100
AcDbVertex
100
AcDb2dVertex
62
5
10
191.600000
20
107.050000
0
VERTEX
5
357
100
AcDbEntity
8
3
100
AcDbVertex
100
AcDb2dVertex
62
5
10
191.240183
20
111.162727
0
SEQEND
5
358
100
AcDbEntity
8
3
0
LINE
5
359
100
AcDbEntity
8
6
100
AcDbLine
6
CONTINUOUS
62
5
10
183.100000
20
212.650000
11
218.600000
21
212.650000
0
LINE
5
35a
100
AcDbEntity
8
6
100
AcDbLine
6
CONTINUOUS
62
5
10
183.100000
20
167.050000
11
218.600000
21
167.050000
0
POLYLINE
5
35b
100
AcDbEntity
8
6
6
CONTINUOUS
62
5
100
AcDb2dPolyline
66
1
10
0.0
20
0.0
30
0.0
70
0
0
VERTEX
5
35c
100
AcDbEntity
8
6
100
AcDbVertex
100
AcDb2dVertex
62
5
10
216.600000
20
189.850000
0
VERTEX
5
35d
100
AcDbEntity
8
6
100
AcDbVertex
100
AcDb2dVertex
62
5
10
216.600000
20
167.050000
0
VERTEX
5
35e
100
AcDbEntity
8
6
100
AcDbVertex
100
AcDb2dVertex
62
5
10
215.600000
20
173.050000
0
VERTEX
5
35f
100
AcDbEntity
8
6
100
AcDbVertex
100
AcDb2dVertex
62
5
10
217.600000
20
173.050000
0
VERTEX
5
360
100
AcDbEntity
8
6
100
AcDbVertex
100
AcDb2dVertex
62
5
10
216.600000
20
167.050000
0
VERTEX
5
361
100
AcDbEntity
8
6
100
AcDbVertex
100
AcDb2dVertex
62
5
10
216.100000
20
173.050000
0
VERTEX
5
362
100
AcDbEntity
8
6
100
AcDbVertex
100
AcDb2dVertex
62
5
10
217.100000
20
173.050000
0
VERTEX
5
363
100
AcDbEntity
8
6
100
AcDbVertex
100
AcDb2dVertex
62
5
10
216.600000
20
167.050000
0
SEQEND
5
364
100
AcDbEntity
8
6
0
POLYLINE
5
365
100
AcDbEntity
8
6
6
CONTINUOUS
62
5
100
AcDb2dPolyline
66
1
10
0.0
20
0.0
30
0.0
70
0
0
VERTEX
5
366
100
AcDbEntity
8
6
100
AcDbVertex
100
AcDb2dVertex
62
5
10
216.600000
20
189.850000
0
VERTEX
5
367
100
AcDbEntity
8
6
100
AcDbVertex
100
AcDb2dVertex
62
5
10
216.600000
20
212.650000
0
VERTEX
5
368
100
AcDbEntity
8
6
100
AcDbVertex
100
AcDb2dVertex
62
5
10
217.600000
20
206.650000
0
VERTEX
5
369
100
AcDbEntity
8
6
100
AcDbVertex
100
AcDb2dVertex
62
5
10
215.600000
20
206.650000
0
VERTEX
5
36a
100
AcDbEntity
8
6
100
AcDbVertex
100
AcDb2dVertex
62
5
10
216.600000
20
212.650000
0
VERTEX
5
36b
100
AcDbEntity
8
6
100
AcDbVertex
100
AcDb2dVertex
62
5
10
217.100000
20
206.650000
0
VERTEX
5
36c
100
AcDbEntity
8
6
100
AcDbVertex
100
AcDb2dVertex
62
5
10
216.100000
20
206.650000
0
VERTEX
5
36d
100
AcDbEntity
8
6
100
AcDbVertex
100
AcDb2dVertex
62
5
10
216.600000
20
212.650000
0
SEQEND
5
36e
100
AcDbEntity
8
6
0
ARC
5
36f
100
AcDbEntity
8
2
100
AcDbCircle
6
CONTINUOUS
62
5
10
187.550000
20
171.100000
40
0.500000
100
AcDbArc
50
-89.999999
51
0.000000
0
LINE
5
370
100
AcDbEntity
8
2
100
AcDbLine
6
CONTINUOUS
62
5
10
188.050000
20
171.100000
11
188.050000
21
208.600000
0
ARC
5
371
100
AcDbEntity
8
2
100
AcDbCircle
6
CONTINUOUS
62
5
10
187.550000
20
208.600000
40
0.500000
100
AcDbArc
50
0.000000
51
89.999999
0
LINE
5
372
100
AcDbEntity
8
2
100
AcDbLine
6
CONTINUOUS
62
5
10
187.550000
20
209.100000
11
152.450000
21
209.100000
0
ARC
5
373
100
AcDbEntity
8
2
100
AcDbCircle
6
CONTINUOUS
62
5
10
152.450000
20
208.600000
40
0.500000
100
AcDbArc
50
89.999999
51
179.999998
0
LINE
5
374
100
AcDbEntity
8
2
100
AcDbLine
6
CONTINUOUS
62
5
10
151.950000
20
208.600000
11
151.950000
21
171.100000
0
ARC
5
375
100
AcDbEntity
8
2
100
AcDbCircle
6
CONTINUOUS
62
5
10
152.450000
20
171.100000
40
0.500000
100
AcDbArc
50
179.999998
51
-89.999999
0
LINE
5
376
100
AcDbEntity
8
2
100
AcDbLine
6
CONTINUOUS
62
5
10
152.450000
20
170.600000
11
187.550000
21
170.600000
0
ARC
5
377
100
AcDbEntity
8
3
100
AcDbCircle
6
CONTINUOUS
62
5
10
187.600000
20
171.050000
40
0.500000
100
AcDbArc
50
-89.999999
51
0.000000
0
LINE
5
378
100
AcDbEntity
8
3
100
AcDbLine
6
CONTINUOUS
62
5
10
188.100000
20
171.050000
11
188.100000
21
208.650000
0
ARC
5
379
100
AcDbEntity
8
3
100
AcDbCircle
6
CONTINUOUS
62
5
10
187.600000
20
208.650000
40
0.500000
100
AcDbArc
50
0.000000
51
89.999999
0
LINE
5
37a
100
AcDbEntity
8
3
100
AcDbLine
6
CONTINUOUS
62
5
10
187.600000
20
209.150000
11
152.400000
21
209.150000
0
ARC
5
37b
100
AcDbEntity
8
3
100
AcDbCircle
6
CONTINUOUS
62
5
10
152.400000
20
208.650000
40
0.500000
100
AcDbArc
50
89.999999
51
179.999998
0
LINE
5
37c
100
AcDbEntity
8
3
100
AcDbLine
6
CONTINUOUS
62
5
10
151.900000
20
208.650000
11
151.900000
21
171.050000
0
ARC
5
37d
100
AcDbEntity
8
3
100
AcDbCircle
6
CONTINUOUS
62
5
10
152.400000
20
171.050000
40
0.500000
100
AcDbArc
50
179.999998
51
-89.999999
0
LINE
5
37e
100
AcDbEntity
8
3
100
AcDbLine
6
CONTINUOUS
62
5
10
152.400000
20
170.550000
11
187.600000
21
170.550000
0
ARC
5
37f
100
AcDbEntity
8
3
100
AcDbCircle
6
CONTINUOUS
62
5
10
149.298284
20
211.975396
40
0.500000
100
AcDbArc
50
89.999999
51
179.999998
0
LINE
5
380
100
AcDbEntity
8
3
100
AcDbLine
6
CONTINUOUS
62
5
10
149.298284
20
212.475396
11
190.701716
21
212.475396
0
ARC
5
381
100
AcDbEntity
8
3
100
AcDbCircle
6
CONTINUOUS
62
5
10
190.701716
20
211.975396
40
0.500000
100
AcDbArc
50
0.000000
51
89.999999
0
LINE
5
382
100
AcDbEntity
8
3
100
AcDbLine
6
CONTINUOUS
62
5
10
191.201716
20
211.975396
11
191.201716
21
167.724604
0
ARC
5
383
100
AcDbEntity
8
3
100
AcDbCircle
6
CONTINUOUS
62
5
10
190.701716
20
167.724604
40
0.500000
100
AcDbArc
50
-89.999999
51
0.000000
0
LINE
5
384
100
AcDbEntity
8
3
100
AcDbLine
6
CONTINUOUS
62
5
10
190.701716
20
167.224604
11
149.298284
21
167.224604
0
ARC
5
385
100
AcDbEntity
8
3
100
AcDbCircle
6
CONTINUOUS
62
5
10
149.298284
20
167.724604
40
0.500000
100
AcDbArc
50
179.999998
51
-89.999999
0
LINE
5
386
100
AcDbEntity
8
3
100
AcDbLine
6
CONTINUOUS
62
5
10
148.798284
20
167.724604
11
148.798284
21
211.975396
0
ARC
5
387
100
AcDbEntity
8
3
100
AcDbCircle
6
CONTINUOUS
62
5
10
148.900000
20
212.150000
40
0.500000
100
AcDbArc
50
89.999999
51
179.999998
0
LINE
5
388
100
AcDbEntity
8
3
100
AcDbLine
6
CONTINUOUS
62
5
10
148.900000
20
212.650000
11
191.100000
21
212.650000
0
ARC
5
389
100
AcDbEntity
8
3
100
AcDbCircle
6
CONTINUOUS
62
5
10
191.100000
20
212.150000
40
0.500000
100
AcDbArc
50
0.000000
51
89.999999
0
LINE
5
38a
100
AcDbEntity
8
3
100
AcDbLine
6
CONTINUOUS
62
5
10
191.600000
20
212.150000
11
191.600000
21
167.550000
0
ARC
5
38b
100
AcDbEntity
8
3
100
AcDbCircle
6
CONTINUOUS
62
5
10
191.100000
20
167.550000
40
0.500000
100
AcDbArc
50
-89.999999
51
0.000000
0
LINE
5
38c
100
AcDbEntity
8
3
100
AcDbLine
6
CONTINUOUS
62
5
10
191.100000
20
167.050000
11
148.900000
21
167.050000
0
ARC
5
38d
100
AcDbEntity
8
3
100
AcDbCircle
6
CONTINUOUS
62
5
10
148.900000
20
167.550000
40
0.500000
100
AcDbArc
50
179.999998
51
-89.999999
0
LINE
5
38e
100
AcDbEntity
8
3
100
AcDbLine
6
CONTINUOUS
62
5
10
148.400000
20
167.550000
11
148.400000
21
212.150000
0
POLYLINE
5
38f
100
AcDbEntity
8
1
6
CONTINUOUS
62
5
100
AcDb2dPolyline
66
1
10
0.0
20
0.0
30
0.0
70
1
0
VERTEX
5
390
100
AcDbEntity
8
1
100
AcDbVertex
100
AcDb2dVertex
62
5
10
10.000000
20
10.000000
0
VERTEX
5
391
100
AcDbEntity
8
1
100
AcDbVertex
100
AcDb2dVertex
62
5
10
10.000000
20
350.000000
0
VERTEX
5
392
100
AcDbEntity
8
1
100
AcDbVertex
100
AcDb2dVertex
62
5
10
330.000000
20
350.000000
0
VERTEX
5
393
100
AcDbEntity
8
1
100
AcDbVertex
100
AcDb2dVertex
62
5
10
330.000000
20
10.000000
0
VERTEX
5
394
100
AcDbEntity
8
1
100
AcDbVertex
100
AcDb2dVertex
62
5
10
10.000000
20
10.000000
0
SEQEND
5
395
100
AcDbEntity
8
1
0
POLYLINE
5
396
100
AcDbEntity
8
1
6
CONTINUOUS
62
5
100
AcDb2dPolyline
66
1
10
0.0
20
0.0
30
0.0
70
1
0
VERTEX
5
397
100
AcDbEntity
8
1
100
AcDbVertex
100
AcDb2dVertex
62
5
10
10.000000
20
10.000000
0
VERTEX
5
398
100
AcDbEntity
8
1
100
AcDbVertex
100
AcDb2dVertex
62
5
10
10.000000
20
350.000000
0
VERTEX
5
399
100
AcDbEntity
8
1
100
AcDbVertex
100
AcDb2dVertex
62
5
10
330.000000
20
350.000000
0
VERTEX
5
39a
100
AcDbEntity
8
1
100
AcDbVertex
100
AcDb2dVertex
62
5
10
330.000000
20
10.000000
0
VERTEX
5
39b
100
AcDbEntity
8
1
100
AcDbVertex
100
AcDb2dVertex
62
5
10
10.000000
20
10.000000
0
SEQEND
5
39c
100
AcDbEntity
8
1
0
ENDSEC
0
SECTION
2
OBJECTS
0
DICTIONARY
5
39d
100
AcDbDictionary
3
ACAD_GROUP
350
39e
3
ACAD_MLINESTYLE
350
39f
0
DICTIONARY
5
39e
102
{ACAD_REACTORS
330
39d
102
}
100
AcDbDictionary
0
DICTIONARY
5
39f
102
{ACAD_REACTORS
330
39d
102
}
100
AcDbDictionary
3
STANDARD
350
3a0
0
MLINESTYLE
5
3a0
102
{ACAD_REACTORS
330
39f
102
}
100
AcDbMlineStyle
2
STANDARD
70
0
3

62
0
51
90.0
52
90.0
71
2
49
0.5
62
256
6
BYLAYER
49
-0.5
62
256
6
BYLAYER
0
ENDSEC
0
EOF
