0
SECTION
2
HEADER
9
$ACADVER
1
AC1012
9
$EXTMIN
10
-0.010000
20
-12.130000
30
0.0
9
$EXTMAX
10
12.600000
20
1.260000
30
0.0
9
$LIMMIN
10
-0.254000
20
-308.102000
9
$LIMMAX
10
320.040000
20
32.004000
9
$DIMSCALE
40
1.000000
9
$PDMODE
70
2
9
$PDSIZE
40
0.0
  9
$HANDSEED
  5
3d6
0
ENDSEC
0
SECTION
2
CLASSES
0
ENDSEC
0
SECTION
2
TABLES
0
TABLE
2
LTYPE
5
1e
100
AcDbSymbolTable
70
12
0
LTYPE
5
1f
100
AcDbSymbolTableRecord
100
AcDbLinetypeTableRecord
2
BYBLOCK
70
0
3

72
65
73
0
40
0.0
0
LTYPE
5
20
100
AcDbSymbolTableRecord
100
AcDbLinetypeTableRecord
2
BYLAYER
70
0
3

72
65
73
0
40
0.0
0
LTYPE
5
21
100
AcDbSymbolTableRecord
100
AcDbLinetypeTableRecord
2
CONTINUOUS
70
64
3
Solid line
72
65
73
0
40
0.0
0
LTYPE
5
22
100
AcDbSymbolTableRecord
100
AcDbLinetypeTableRecord
2
DASHED
70
64
3
__ __ __ __ __ __ __ __ __ __ __ __ __ __ __
72
65
73
2
40
0.75
49
0.5
74
0
49
-0.25
74
0
0
LTYPE
5
23
100
AcDbSymbolTableRecord
100
AcDbLinetypeTableRecord
2
DOT
70
64
3
...............................................
72
65
73
2
40
0.25
49
0.0
74
0
49
-0.25
74
0
0
LTYPE
5
24
100
AcDbSymbolTableRecord
100
AcDbLinetypeTableRecord
2
DASHDOT
70
64
3
__ . __ . __ . __ . __ . __ . __ . __ . __ . --
72
65
73
4
40
1.0
49
0.5
74
0
49
-0.25
74
0
49
0.0
74
0
49
-0.25
74
0
0
LTYPE
5
25
100
AcDbSymbolTableRecord
100
AcDbLinetypeTableRecord
2
CENTER
70
64
3
____ _ ____ _ ____ _ ____ _ ____ _ ____ _ ____
72
65
73
4
40
2.0
49
1.25
74
0
49
-0.25
74
0
49
0.25
74
0
49
-0.25
74
0
0
LTYPE
5
26
100
AcDbSymbolTableRecord
100
AcDbLinetypeTableRecord
2
PHANTOM
70
64
3
_____ _ _ _____ _ _ _____ _ _ _____ _ _ ____
72
65
73
6
40
2.5
49
1.25
74
0
49
-0.25
74
0
49
0.25
74
0
49
-0.25
74
0
49
0.25
74
0
49
-0.25
74
0
0
LTYPE
5
27
100
AcDbSymbolTableRecord
100
AcDbLinetypeTableRecord
2
HIDDEN
70
64
3
_ _ _ _ _ _ _ _ _ _ _ _ _ _ _ _ _ _ _ _ _ _ _
72
65
73
2
40
0.375
49
0.25
74
0
49
-0.125
74
0
0
LTYPE
5
28
100
AcDbSymbolTableRecord
100
AcDbLinetypeTableRecord
2
BORDER
70
64
3
__ __ . __ __ . __ __ . __ __ . __ __ . __ __
72
65
73
6
40
1.75
49
0.5
74
0
49
-0.25
74
0
49
0.5
74
0
49
-0.25
74
0
49
0.0
74
0
49
-0.25
74
0
0
LTYPE
5
29
100
AcDbSymbolTableRecord
100
AcDbLinetypeTableRecord
2
DIVIDE
70
64
3
__ . . __ . . __ . . __ . . __ . . __ . . __
72
65
73
6
40
1.25
49
0.5
74
0
49
-0.25
74
0
49
0.0
74
0
49
-0.25
74
0
49
0.0
74
0
49
-0.25
74
0
0
LTYPE
5
2a
100
AcDbSymbolTableRecord
100
AcDbLinetypeTableRecord
2
DOT2
70
64
3
...............................................
72
65
73
2
40
0.125
49
0.0
74
0
49
-0.125
74
0
0
ENDTAB
0
TABLE
2
STYLE
5
2b
100
AcDbSymbolTable
70
1
0
STYLE
5
2c
100
AcDbSymbolTableRecord
100
AcDbTextStyleTableRecord
2
STANDARD
70
64
40
0.0
41
1.0
50
0.0
71
0
42
5.0
3
txt
4
bigfont
0
ENDTAB
0
TABLE
2
LAYER
5
2d
100
AcDbSymbolTable
70
7
0
LAYER
5
2e
100
AcDbSymbolTableRecord
100
AcDbLayerTableRecord
2
0
70
0
62
7
6
CONTINUOUS
0
LAYER
5
2f
100
AcDbSymbolTableRecord
100
AcDbLayerTableRecord
2
1
70
0
62
7
6
CONTINUOUS
0
LAYER
5
30
100
AcDbSymbolTableRecord
100
AcDbLayerTableRecord
2
6
70
0
62
7
6
CONTINUOUS
0
LAYER
5
31
100
AcDbSymbolTableRecord
100
AcDbLayerTableRecord
2
4
70
0
62
7
6
CONTINUOUS
0
LAYER
5
32
100
AcDbSymbolTableRecord
100
AcDbLayerTableRecord
2
3
70
0
62
7
6
CONTINUOUS
0
LAYER
5
33
100
AcDbSymbolTableRecord
100
AcDbLayerTableRecord
2
5
70
0
62
7
6
CONTINUOUS
0
LAYER
5
34
100
AcDbSymbolTableRecord
100
AcDbLayerTableRecord
2
2
70
0
62
7
6
CONTINUOUS
0
ENDTAB
0
TABLE
2
APPID
5
35
100
AcDbSymbolTable
70
1
0
APPID
5
36
100
AcDbSymbolTableRecord
100
AcDbRegAppTableRecord
2
ACAD
70
64
0
ENDTAB
0
TABLE
2
DIMSTYLE
5
37
100
AcDbSymbolTable
70
0
0
ENDTAB
0
TABLE
2
UCS
5
38
100
AcDbSymbolTable
70
0
0
ENDTAB
0
TABLE
2
VIEW
5
39
100
AcDbSymbolTable
70
0
0
ENDTAB
0
TABLE
2
VPORT
5
3a
100
AcDbSymbolTable
70
0
0
ENDTAB
0
TABLE
2
BLOCK_RECORD
5
3b
100
AcDbSymbolTable
70
0
0
BLOCK_RECORD
5
3c
100
AcDbSymbolTableRecord
100
AcDbBlockTableRecord
2
*MODEL_SPACE
0
BLOCK_RECORD
5
3d
100
AcDbSymbolTableRecord
100
AcDbBlockTableRecord
2
*PAPER_SPACE
0
BLOCK_RECORD
5
3e
100
AcDbSymbolTableRecord
100
AcDbBlockTableRecord
2
OPEN
0
BLOCK_RECORD
5
3f
100
AcDbSymbolTableRecord
100
AcDbBlockTableRecord
2
HALF
0
BLOCK_RECORD
5
40
100
AcDbSymbolTableRecord
100
AcDbBlockTableRecord
2
CLOSEDBLANK
0
BLOCK_RECORD
5
41
100
AcDbSymbolTableRecord
100
AcDbBlockTableRecord
2
HALFCLOSE_R
0
BLOCK_RECORD
5
42
100
AcDbSymbolTableRecord
100
AcDbBlockTableRecord
2
DOT
0
BLOCK_RECORD
5
43
100
AcDbSymbolTableRecord
100
AcDbBlockTableRecord
2
HALFOPEN_R
0
BLOCK_RECORD
5
44
100
AcDbSymbolTableRecord
100
AcDbBlockTableRecord
2
CLOSEDF
0
BLOCK_RECORD
5
45
100
AcDbSymbolTableRecord
100
AcDbBlockTableRecord
2
HALF_R
0
ENDTAB
0
ENDSEC
0
SECTION
2
BLOCKS
0
BLOCK
5
46
100
AcDbEntity
8
0
100
AcDbBlockBegin
2
*MODEL_SPACE
70
0
10
0.0
20
0.0
30
0.0
3
*MODEL_SPACE
1

0
ENDBLK
5
47
100
AcDbEntity
8
0
100
AcDbBlockEnd
0
BLOCK
5
48
100
AcDbEntity
67
1
8
0
100
AcDbBlockBegin
2
*PAPER_SPACE
70
0
10
0.0
20
0.0
30
0.0
3
*PAPER_SPACE
1

0
ENDBLK
5
49
100
AcDbEntity
67
1
8
0
100
AcDbBlockEnd
0
BLOCK
5
4a
100
AcDbEntity
8
0
100
AcDbBlockBegin
2
OPEN
70
0
10
0.0
20
0.0
30
0.0
3
OPEN
1

0
LINE
5
4b
100
AcDbEntity
8
0
6
BYBLOCK
62
0
100
AcDbLine
10
0.000000
20
0.000000
11
-1.000000
21
0.000000
0
LINE
5
4c
100
AcDbEntity
8
0
6
BYBLOCK
62
0
100
AcDbLine
10
-1.000000
20
-0.166667
11
0.000000
21
0.000000
0
LINE
5
4d
100
AcDbEntity
8
0
6
BYBLOCK
62
0
100
AcDbLine
10
-1.000000
20
0.166667
11
0.000000
21
0.000000
0
ENDBLK
5
4e
100
AcDbEntity
8
0
100
AcDbBlockEnd
0
BLOCK
5
4f
100
AcDbEntity
8
0
100
AcDbBlockBegin
2
HALF
70
0
10
0.0
20
0.0
30
0.0
3
HALF
1

0
SOLID
5
50
100
AcDbEntity
8
0
6
BYBLOCK
62
0
100
AcDbTrace
10
-1.000000
20
0.166667
11
-1.000000
21
-0.166667
12
0.000000
22
0.000000
13
0.000000
23
0.000000
0
ENDBLK
5
51
100
AcDbEntity
8
0
100
AcDbBlockEnd
0
BLOCK
5
52
100
AcDbEntity
8
0
100
AcDbBlockBegin
2
CLOSEDBLANK
70
0
10
0.0
20
0.0
30
0.0
3
CLOSEDBLANK
1

0
LINE
5
53
100
AcDbEntity
8
0
6
BYBLOCK
62
0
100
AcDbLine
10
-1.000000
20
0.166667
11
-1.000000
21
-0.166667
0
LINE
5
54
100
AcDbEntity
8
0
6
BYBLOCK
62
0
100
AcDbLine
10
0.000000
20
0.000000
11
-1.000000
21
-0.166667
0
LINE
5
55
100
AcDbEntity
8
0
6
BYBLOCK
62
0
100
AcDbLine
10
-1.000000
20
0.166667
11
0.000000
21
0.000000
0
ENDBLK
5
56
100
AcDbEntity
8
0
100
AcDbBlockEnd
0
BLOCK
5
57
100
AcDbEntity
8
0
100
AcDbBlockBegin
2
HALFCLOSE_R
70
0
10
0.0
20
0.0
30
0.0
3
HALFCLOSE_R
1

0
LINE
5
58
100
AcDbEntity
8
0
6
BYBLOCK
62
0
100
AcDbLine
10
-1.000000
20
-0.166667
11
-1.000000
21
0.000000
0
LINE
5
59
100
AcDbEntity
8
0
6
BYBLOCK
62
0
100
AcDbLine
10
-1.000000
20
-0.166667
11
0.000000
21
0.000000
0
LINE
5
5a
100
AcDbEntity
8
0
6
BYBLOCK
62
0
100
AcDbLine
10
0.000000
20
0.000000
11
-1.000000
21
0.000000
0
ENDBLK
5
5b
100
AcDbEntity
8
0
100
AcDbBlockEnd
0
BLOCK
5
5c
100
AcDbEntity
8
0
100
AcDbBlockBegin
2
DOT
70
0
10
0.0
20
0.0
30
0.0
3
DOT
1

0
LINE
5
5d
100
AcDbEntity
8
0
6
BYBLOCK
62
0
100
AcDbLine
10
0.000000
20
0.000000
11
-1.000000
21
0.000000
0
POLYLINE
5
5e
100
AcDbEntity
8
0
6
BYBLOCK
62
0
100
AcDb2dPolyline
66
1
10
0.0
20
0.0
30
0.0
70
1
40
0.166667
41
0.166667
0
VERTEX
5
5f
100
AcDbEntity
8
0
100
AcDbVertex
100
AcDb2dVertex
62
10
10
-0.083333
20
0.000000
42
1.000000
0
VERTEX
5
60
100
AcDbEntity
8
0
100
AcDbVertex
100
AcDb2dVertex
62
10
10
0.083333
20
0.000000
42
1.000000
0
SEQEND
5
61
100
AcDbEntity
8
0
0
ENDBLK
5
62
100
AcDbEntity
8
0
100
AcDbBlockEnd
0
BLOCK
5
63
100
AcDbEntity
8
0
100
AcDbBlockBegin
2
HALFOPEN_R
70
0
10
0.0
20
0.0
30
0.0
3
HALFOPEN_R
1

0
LINE
5
64
100
AcDbEntity
8
0
6
BYBLOCK
62
0
100
AcDbLine
10
-1.000000
20
-0.166667
11
0.000000
21
0.000000
0
LINE
5
65
100
AcDbEntity
8
0
6
BYBLOCK
62
0
100
AcDbLine
10
0.000000
20
0.000000
11
-1.000000
21
0.000000
0
ENDBLK
5
66
100
AcDbEntity
8
0
100
AcDbBlockEnd
0
BLOCK
5
67
100
AcDbEntity
8
0
100
AcDbBlockBegin
2
CLOSEDF
70
0
10
0.0
20
0.0
30
0.0
3
CLOSEDF
1

0
SOLID
5
68
100
AcDbEntity
8
0
6
BYBLOCK
62
0
100
AcDbTrace
10
-1.000000
20
0.166667
11
-1.000000
21
-0.166667
12
0.000000
22
0.000000
13
0.000000
23
0.000000
0
ENDBLK
5
69
100
AcDbEntity
8
0
100
AcDbBlockEnd
0
BLOCK
5
6a
100
AcDbEntity
8
0
100
AcDbBlockBegin
2
HALF_R
70
0
10
0.0
20
0.0
30
0.0
3
HALF_R
1

0
SOLID
5
6b
100
AcDbEntity
8
0
6
BYBLOCK
62
0
100
AcDbTrace
10
-1.000000
20
-0.166667
11
-1.000000
21
0.000000
12
0.000000
22
0.000000
13
0.000000
23
0.000000
0
ENDBLK
5
6c
100
AcDbEntity
8
0
100
AcDbBlockEnd
0
ENDSEC
0
SECTION
2
ENTITIES
0
POLYLINE
5
6d
100
AcDbEntity
8
1
6
CONTINUOUS
62
5
100
AcDb2dPolyline
66
1
10
0.0
20
0.0
30
0.0
70
0
0
VERTEX
5
6e
100
AcDbEntity
8
1
100
AcDbVertex
100
AcDb2dVertex
62
5
10
186.750000
20
6.000000
0
VERTEX
5
6f
100
AcDbEntity
8
1
100
AcDbVertex
100
AcDb2dVertex
62
5
10
187.750000
20
7.250000
0
VERTEX
5
70
100
AcDbEntity
8
1
100
AcDbVertex
100
AcDb2dVertex
62
5
10
188.250000
20
8.187500
0
VERTEX
5
71
100
AcDbEntity
8
1
100
AcDbVertex
100
AcDb2dVertex
62
5
10
190.750000
20
8.187500
0
VERTEX
5
72
100
AcDbEntity
8
1
100
AcDbVertex
100
AcDb2dVertex
62
5
10
190.750000
20
7.875000
0
VERTEX
5
73
100
AcDbEntity
8
1
100
AcDbVertex
100
AcDb2dVertex
62
5
10
190.000000
20
6.000000
0
VERTEX
5
74
100
AcDbEntity
8
1
100
AcDbVertex
100
AcDb2dVertex
62
5
10
188.750000
20
4.125000
0
VERTEX
5
75
100
AcDbEntity
8
1
100
AcDbVertex
100
AcDb2dVertex
62
5
10
187.250000
20
2.562500
0
SEQEND
5
76
100
AcDbEntity
8
1
0
POLYLINE
5
77
100
AcDbEntity
8
1
6
CONTINUOUS
62
5
100
AcDb2dPolyline
66
1
10
0.0
20
0.0
30
0.0
70
0
0
VERTEX
5
78
100
AcDbEntity
8
1
100
AcDbVertex
100
AcDb2dVertex
62
5
10
162.250000
20
7.875000
0
VERTEX
5
79
100
AcDbEntity
8
1
100
AcDbVertex
100
AcDb2dVertex
62
5
10
166.000000
20
7.875000
0
VERTEX
5
7a
100
AcDbEntity
8
1
100
AcDbVertex
100
AcDb2dVertex
62
5
10
166.000000
20
6.937500
0
VERTEX
5
7b
100
AcDbEntity
8
1
100
AcDbVertex
100
AcDb2dVertex
62
5
10
165.750000
20
5.687500
0
VERTEX
5
7c
100
AcDbEntity
8
1
100
AcDbVertex
100
AcDb2dVertex
62
5
10
165.250000
20
4.750000
0
VERTEX
5
7d
100
AcDbEntity
8
1
100
AcDbVertex
100
AcDb2dVertex
62
5
10
164.750000
20
3.812500
0
VERTEX
5
7e
100
AcDbEntity
8
1
100
AcDbVertex
100
AcDb2dVertex
62
5
10
163.250000
20
2.562500
0
SEQEND
5
7f
100
AcDbEntity
8
1
0
LINE
5
80
100
AcDbEntity
8
1
100
AcDbLine
6
CONTINUOUS
62
5
10
166.500000
20
9.125000
11
167.250000
21
8.187500
0
LINE
5
81
100
AcDbEntity
8
1
100
AcDbLine
6
CONTINUOUS
62
5
10
167.500000
20
9.750000
11
168.000000
21
8.812500
0
POLYLINE
5
82
100
AcDbEntity
8
1
6
CONTINUOUS
62
5
100
AcDb2dPolyline
66
1
10
0.0
20
0.0
30
0.0
70
0
0
VERTEX
5
83
100
AcDbEntity
8
1
100
AcDbVertex
100
AcDb2dVertex
62
5
10
170.500000
20
6.625000
0
VERTEX
5
84
100
AcDbEntity
8
1
100
AcDbVertex
100
AcDb2dVertex
62
5
10
175.250000
20
6.625000
0
VERTEX
5
85
100
AcDbEntity
8
1
100
AcDbVertex
100
AcDb2dVertex
62
5
10
175.250000
20
6.312500
0
VERTEX
5
86
100
AcDbEntity
8
1
100
AcDbVertex
100
AcDb2dVertex
62
5
10
174.000000
20
4.125000
0
VERTEX
5
87
100
AcDbEntity
8
1
100
AcDbVertex
100
AcDb2dVertex
62
5
10
173.000000
20
3.187500
0
VERTEX
5
88
100
AcDbEntity
8
1
100
AcDbVertex
100
AcDb2dVertex
62
5
10
172.000000
20
2.562500
0
SEQEND
5
89
100
AcDbEntity
8
1
0
LINE
5
8a
100
AcDbEntity
8
1
100
AcDbLine
6
CONTINUOUS
62
5
10
171.250000
20
8.812500
11
174.750000
21
8.812500
0
LINE
5
8b
100
AcDbEntity
8
1
100
AcDbLine
6
CONTINUOUS
62
5
10
179.250000
20
6.312500
11
179.500000
21
5.062500
0
LINE
5
8c
100
AcDbEntity
8
1
100
AcDbLine
6
CONTINUOUS
62
5
10
180.750000
20
6.625000
11
181.000000
21
5.375000
0
POLYLINE
5
8d
100
AcDbEntity
8
1
6
CONTINUOUS
62
5
100
AcDb2dPolyline
66
1
10
0.0
20
0.0
30
0.0
70
0
0
VERTEX
5
8e
100
AcDbEntity
8
1
100
AcDbVertex
100
AcDb2dVertex
62
5
10
182.750000
20
6.625000
0
VERTEX
5
8f
100
AcDbEntity
8
1
100
AcDbVertex
100
AcDb2dVertex
62
5
10
182.500000
20
5.062500
0
VERTEX
5
90
100
AcDbEntity
8
1
100
AcDbVertex
100
AcDb2dVertex
62
5
10
181.250000
20
3.187500
0
VERTEX
5
91
100
AcDbEntity
8
1
100
AcDbVertex
100
AcDb2dVertex
62
5
10
180.250000
20
2.250000
0
SEQEND
5
92
100
AcDbEntity
8
1
0
POLYLINE
5
93
100
AcDbEntity
8
1
6
CONTINUOUS
62
5
100
AcDb2dPolyline
66
1
10
0.0
20
0.0
30
0.0
70
0
0
VERTEX
5
94
100
AcDbEntity
8
1
100
AcDbVertex
100
AcDb2dVertex
62
5
10
196.250000
20
10.375000
0
VERTEX
5
95
100
AcDbEntity
8
1
100
AcDbVertex
100
AcDb2dVertex
62
5
10
195.500000
20
9.125000
0
VERTEX
5
96
100
AcDbEntity
8
1
100
AcDbVertex
100
AcDb2dVertex
62
5
10
194.750000
20
8.187500
0
VERTEX
5
97
100
AcDbEntity
8
1
100
AcDbVertex
100
AcDb2dVertex
62
5
10
193.750000
20
7.250000
0
SEQEND
5
98
100
AcDbEntity
8
1
0
POLYLINE
5
99
100
AcDbEntity
8
1
6
CONTINUOUS
62
5
100
AcDb2dPolyline
66
1
10
0.0
20
0.0
30
0.0
70
0
0
VERTEX
5
9a
100
AcDbEntity
8
1
100
AcDbVertex
100
AcDb2dVertex
62
5
10
196.000000
20
9.750000
0
VERTEX
5
9b
100
AcDbEntity
8
1
100
AcDbVertex
100
AcDb2dVertex
62
5
10
198.250000
20
9.750000
0
VERTEX
5
9c
100
AcDbEntity
8
1
100
AcDbVertex
100
AcDb2dVertex
62
5
10
197.000000
20
7.875000
0
SEQEND
5
9d
100
AcDbEntity
8
1
0
POLYLINE
5
9e
100
AcDbEntity
8
1
6
CONTINUOUS
62
5
100
AcDb2dPolyline
66
1
10
0.0
20
0.0
30
0.0
70
0
0
VERTEX
5
9f
100
AcDbEntity
8
1
100
AcDbVertex
100
AcDb2dVertex
62
5
10
194.750000
20
7.875000
0
VERTEX
5
a0
100
AcDbEntity
8
1
100
AcDbVertex
100
AcDb2dVertex
62
5
10
199.250000
20
7.875000
0
VERTEX
5
a1
100
AcDbEntity
8
1
100
AcDbVertex
100
AcDb2dVertex
62
5
10
199.250000
20
5.062500
0
VERTEX
5
a2
100
AcDbEntity
8
1
100
AcDbVertex
100
AcDb2dVertex
62
5
10
194.750000
20
5.062500
0
SEQEND
5
a3
100
AcDbEntity
8
1
0
LINE
5
a4
100
AcDbEntity
8
1
100
AcDbLine
6
CONTINUOUS
62
5
10
197.000000
20
7.875000
11
197.000000
21
5.062500
0
POLYLINE
5
a5
100
AcDbEntity
8
1
6
CONTINUOUS
62
5
100
AcDb2dPolyline
66
1
10
0.0
20
0.0
30
0.0
70
0
0
VERTEX
5
a6
100
AcDbEntity
8
1
100
AcDbVertex
100
AcDb2dVertex
62
5
10
194.750000
20
7.875000
0
VERTEX
5
a7
100
AcDbEntity
8
1
100
AcDbVertex
100
AcDb2dVertex
62
5
10
194.750000
20
2.562500
0
VERTEX
5
a8
100
AcDbEntity
8
1
100
AcDbVertex
100
AcDb2dVertex
62
5
10
195.250000
20
1.937500
0
VERTEX
5
a9
100
AcDbEntity
8
1
100
AcDbVertex
100
AcDb2dVertex
62
5
10
200.250000
20
1.937500
0
VERTEX
5
aa
100
AcDbEntity
8
1
100
AcDbVertex
100
AcDb2dVertex
62
5
10
200.250000
20
3.187500
0
SEQEND
5
ab
100
AcDbEntity
8
1
0
LINE
5
ac
100
AcDbEntity
8
6
100
AcDbLine
6
DOT2
62
5
10
161.875000
20
-86.125021
11
161.250000
21
-86.750021
0
POLYLINE
5
ad
100
AcDbEntity
8
6
6
DOT2
62
5
100
AcDb2dPolyline
66
1
10
0.0
20
0.0
30
0.0
70
0
0
VERTEX
5
ae
100
AcDbEntity
8
6
100
AcDbVertex
100
AcDb2dVertex
62
5
10
161.250000
20
-86.125021
0
VERTEX
5
af
100
AcDbEntity
8
6
100
AcDbVertex
100
AcDb2dVertex
62
5
10
161.875000
20
-86.750021
0
VERTEX
5
b0
100
AcDbEntity
8
6
100
AcDbVertex
100
AcDb2dVertex
62
5
10
161.250000
20
-86.750021
0
VERTEX
5
b1
100
AcDbEntity
8
6
100
AcDbVertex
100
AcDb2dVertex
62
5
10
161.250000
20
-86.125021
0
VERTEX
5
b2
100
AcDbEntity
8
6
100
AcDbVertex
100
AcDb2dVertex
62
5
10
161.875000
20
-86.125021
0
VERTEX
5
b3
100
AcDbEntity
8
6
100
AcDbVertex
100
AcDb2dVertex
62
5
10
161.875000
20
-86.750021
0
SEQEND
5
b4
100
AcDbEntity
8
6
0
POLYLINE
5
b5
100
AcDbEntity
8
6
6
DOT2
62
5
100
AcDb2dPolyline
66
1
10
0.0
20
0.0
30
0.0
70
0
0
VERTEX
5
b6
100
AcDbEntity
8
6
100
AcDbVertex
100
AcDb2dVertex
62
5
10
166.250000
20
-81.437521
0
VERTEX
5
b7
100
AcDbEntity
8
6
100
AcDbVertex
100
AcDb2dVertex
62
5
10
166.562500
20
-79.875021
0
VERTEX
5
b8
100
AcDbEntity
8
6
100
AcDbVertex
100
AcDb2dVertex
62
5
10
167.500000
20
-79.250021
0
VERTEX
5
b9
100
AcDbEntity
8
6
100
AcDbVertex
100
AcDb2dVertex
62
5
10
168.437500
20
-79.250021
0
VERTEX
5
ba
100
AcDbEntity
8
6
100
AcDbVertex
100
AcDb2dVertex
62
5
10
169.062500
20
-79.562521
0
VERTEX
5
bb
100
AcDbEntity
8
6
100
AcDbVertex
100
AcDb2dVertex
62
5
10
169.375000
20
-80.500021
0
VERTEX
5
bc
100
AcDbEntity
8
6
100
AcDbVertex
100
AcDb2dVertex
62
5
10
169.375000
20
-81.437521
0
VERTEX
5
bd
100
AcDbEntity
8
6
100
AcDbVertex
100
AcDb2dVertex
62
5
10
169.062500
20
-82.375021
0
VERTEX
5
be
100
AcDbEntity
8
6
100
AcDbVertex
100
AcDb2dVertex
62
5
10
166.250000
20
-86.750021
0
VERTEX
5
bf
100
AcDbEntity
8
6
100
AcDbVertex
100
AcDb2dVertex
62
5
10
169.375000
20
-86.750021
0
VERTEX
5
c0
100
AcDbEntity
8
6
100
AcDbVertex
100
AcDb2dVertex
62
5
10
169.375000
20
-85.812521
0
SEQEND
5
c1
100
AcDbEntity
8
6
0
POLYLINE
5
c2
100
AcDbEntity
8
1
6
CONTINUOUS
62
5
100
AcDb2dPolyline
66
1
10
0.0
20
0.0
30
0.0
70
0
0
VERTEX
5
c3
100
AcDbEntity
8
1
100
AcDbVertex
100
AcDb2dVertex
62
5
10
145.500000
20
27.750000
0
VERTEX
5
c4
100
AcDbEntity
8
1
100
AcDbVertex
100
AcDb2dVertex
62
5
10
145.250000
20
28.500000
0
VERTEX
5
c5
100
AcDbEntity
8
1
100
AcDbVertex
100
AcDb2dVertex
62
5
10
144.750000
20
29.000000
0
VERTEX
5
c6
100
AcDbEntity
8
1
100
AcDbVertex
100
AcDb2dVertex
62
5
10
144.000000
20
29.000000
0
VERTEX
5
c7
100
AcDbEntity
8
1
100
AcDbVertex
100
AcDb2dVertex
62
5
10
143.250000
20
28.250000
0
VERTEX
5
c8
100
AcDbEntity
8
1
100
AcDbVertex
100
AcDb2dVertex
62
5
10
143.000000
20
27.000000
0
VERTEX
5
c9
100
AcDbEntity
8
1
100
AcDbVertex
100
AcDb2dVertex
62
5
10
143.000000
20
25.000000
0
VERTEX
5
ca
100
AcDbEntity
8
1
100
AcDbVertex
100
AcDb2dVertex
62
5
10
143.250000
20
23.750000
0
VERTEX
5
cb
100
AcDbEntity
8
1
100
AcDbVertex
100
AcDb2dVertex
62
5
10
144.000000
20
23.000000
0
VERTEX
5
cc
100
AcDbEntity
8
1
100
AcDbVertex
100
AcDb2dVertex
62
5
10
144.750000
20
23.000000
0
VERTEX
5
cd
100
AcDbEntity
8
1
100
AcDbVertex
100
AcDb2dVertex
62
5
10
145.250000
20
23.500000
0
VERTEX
5
ce
100
AcDbEntity
8
1
100
AcDbVertex
100
AcDb2dVertex
62
5
10
145.750000
20
24.750000
0
SEQEND
5
cf
100
AcDbEntity
8
1
0
LINE
5
d0
100
AcDbEntity
8
1
100
AcDbLine
6
CONTINUOUS
62
5
10
147.000000
20
29.000000
11
147.000000
21
23.000000
0
LINE
5
d1
100
AcDbEntity
8
1
100
AcDbLine
6
CONTINUOUS
62
5
10
149.500000
20
29.000000
11
147.000000
21
25.500000
0
LINE
5
d2
100
AcDbEntity
8
1
100
AcDbLine
6
CONTINUOUS
62
5
10
147.750000
20
26.500000
11
149.750000
21
23.000000
0
POLYLINE
5
d3
100
AcDbEntity
8
1
6
CONTINUOUS
62
5
100
AcDb2dPolyline
66
1
10
0.0
20
0.0
30
0.0
70
0
0
VERTEX
5
d4
100
AcDbEntity
8
1
100
AcDbVertex
100
AcDb2dVertex
62
5
10
150.750000
20
29.250000
0
VERTEX
5
d5
100
AcDbEntity
8
1
100
AcDbVertex
100
AcDb2dVertex
62
5
10
152.000000
20
29.250000
0
VERTEX
5
d6
100
AcDbEntity
8
1
100
AcDbVertex
100
AcDb2dVertex
62
5
10
152.000000
20
22.750000
0
VERTEX
5
d7
100
AcDbEntity
8
1
100
AcDbVertex
100
AcDb2dVertex
62
5
10
150.750000
20
22.750000
0
SEQEND
5
d8
100
AcDbEntity
8
1
0
POLYLINE
5
d9
100
AcDbEntity
8
1
6
CONTINUOUS
62
5
100
AcDb2dPolyline
66
1
10
0.0
20
0.0
30
0.0
70
0
0
VERTEX
5
da
100
AcDbEntity
8
1
100
AcDbVertex
100
AcDb2dVertex
62
5
10
125.500000
20
29.000000
0
VERTEX
5
db
100
AcDbEntity
8
1
100
AcDbVertex
100
AcDb2dVertex
62
5
10
123.000000
20
29.000000
0
VERTEX
5
dc
100
AcDbEntity
8
1
100
AcDbVertex
100
AcDb2dVertex
62
5
10
123.000000
20
23.000000
0
VERTEX
5
dd
100
AcDbEntity
8
1
100
AcDbVertex
100
AcDb2dVertex
62
5
10
125.750000
20
23.000000
0
SEQEND
5
de
100
AcDbEntity
8
1
0
LINE
5
df
100
AcDbEntity
8
1
100
AcDbLine
6
CONTINUOUS
62
5
10
123.000000
20
26.000000
11
125.250000
21
26.000000
0
LINE
5
e0
100
AcDbEntity
8
1
100
AcDbLine
6
CONTINUOUS
62
5
10
131.000000
20
29.000000
11
131.000000
21
23.000000
0
POLYLINE
5
e1
100
AcDbEntity
8
1
6
CONTINUOUS
62
5
100
AcDb2dPolyline
66
1
10
0.0
20
0.0
30
0.0
70
0
0
VERTEX
5
e2
100
AcDbEntity
8
1
100
AcDbVertex
100
AcDb2dVertex
62
5
10
131.000000
20
29.000000
0
VERTEX
5
e3
100
AcDbEntity
8
1
100
AcDbVertex
100
AcDb2dVertex
62
5
10
132.250000
20
29.000000
0
VERTEX
5
e4
100
AcDbEntity
8
1
100
AcDbVertex
100
AcDb2dVertex
62
5
10
132.750000
20
28.750000
0
VERTEX
5
e5
100
AcDbEntity
8
1
100
AcDbVertex
100
AcDb2dVertex
62
5
10
133.000000
20
28.500000
0
VERTEX
5
e6
100
AcDbEntity
8
1
100
AcDbVertex
100
AcDb2dVertex
62
5
10
133.250000
20
28.000000
0
VERTEX
5
e7
100
AcDbEntity
8
1
100
AcDbVertex
100
AcDb2dVertex
62
5
10
133.250000
20
27.250000
0
VERTEX
5
e8
100
AcDbEntity
8
1
100
AcDbVertex
100
AcDb2dVertex
62
5
10
133.000000
20
26.750000
0
VERTEX
5
e9
100
AcDbEntity
8
1
100
AcDbVertex
100
AcDb2dVertex
62
5
10
132.750000
20
26.500000
0
VERTEX
5
ea
100
AcDbEntity
8
1
100
AcDbVertex
100
AcDb2dVertex
62
5
10
132.250000
20
26.250000
0
VERTEX
5
eb
100
AcDbEntity
8
1
100
AcDbVertex
100
AcDb2dVertex
62
5
10
131.000000
20
26.250000
0
SEQEND
5
ec
100
AcDbEntity
8
1
0
POLYLINE
5
ed
100
AcDbEntity
8
1
6
CONTINUOUS
62
5
100
AcDb2dPolyline
66
1
10
0.0
20
0.0
30
0.0
70
0
0
VERTEX
5
ee
100
AcDbEntity
8
1
100
AcDbVertex
100
AcDb2dVertex
62
5
10
132.250000
20
26.250000
0
VERTEX
5
ef
100
AcDbEntity
8
1
100
AcDbVertex
100
AcDb2dVertex
62
5
10
132.750000
20
26.000000
0
VERTEX
5
f0
100
AcDbEntity
8
1
100
AcDbVertex
100
AcDb2dVertex
62
5
10
133.250000
20
25.500000
0
VERTEX
5
f1
100
AcDbEntity
8
1
100
AcDbVertex
100
AcDb2dVertex
62
5
10
133.500000
20
25.000000
0
VERTEX
5
f2
100
AcDbEntity
8
1
100
AcDbVertex
100
AcDb2dVertex
62
5
10
133.500000
20
24.000000
0
VERTEX
5
f3
100
AcDbEntity
8
1
100
AcDbVertex
100
AcDb2dVertex
62
5
10
133.250000
20
23.500000
0
VERTEX
5
f4
100
AcDbEntity
8
1
100
AcDbVertex
100
AcDb2dVertex
62
5
10
133.000000
20
23.250000
0
VERTEX
5
f5
100
AcDbEntity
8
1
100
AcDbVertex
100
AcDb2dVertex
62
5
10
132.500000
20
23.000000
0
VERTEX
5
f6
100
AcDbEntity
8
1
100
AcDbVertex
100
AcDb2dVertex
62
5
10
131.000000
20
23.000000
0
SEQEND
5
f7
100
AcDbEntity
8
1
0
POLYLINE
5
f8
100
AcDbEntity
8
1
6
CONTINUOUS
62
5
100
AcDb2dPolyline
66
1
10
0.0
20
0.0
30
0.0
70
0
0
VERTEX
5
f9
100
AcDbEntity
8
1
100
AcDbVertex
100
AcDb2dVertex
62
5
10
135.000000
20
29.000000
0
VERTEX
5
fa
100
AcDbEntity
8
1
100
AcDbVertex
100
AcDb2dVertex
62
5
10
135.000000
20
23.000000
0
VERTEX
5
fb
100
AcDbEntity
8
1
100
AcDbVertex
100
AcDb2dVertex
62
5
10
137.500000
20
23.000000
0
SEQEND
5
fc
100
AcDbEntity
8
1
0
POLYLINE
5
fd
100
AcDbEntity
8
1
6
CONTINUOUS
62
5
100
AcDb2dPolyline
66
1
10
0.0
20
0.0
30
0.0
70
0
0
VERTEX
5
fe
100
AcDbEntity
8
1
100
AcDbVertex
100
AcDb2dVertex
62
5
10
139.000000
20
23.000000
0
VERTEX
5
ff
100
AcDbEntity
8
1
100
AcDbVertex
100
AcDb2dVertex
62
5
10
140.250000
20
29.000000
0
VERTEX
5
100
100
AcDbEntity
8
1
100
AcDbVertex
100
AcDb2dVertex
62
5
10
141.500000
20
23.000000
0
SEQEND
5
101
100
AcDbEntity
8
1
0
LINE
5
102
100
AcDbEntity
8
1
100
AcDbLine
6
CONTINUOUS
62
5
10
139.500000
20
25.000000
11
141.000000
21
25.000000
0
LINE
5
103
100
AcDbEntity
8
1
100
AcDbLine
6
CONTINUOUS
62
5
10
145.750000
20
9.125000
11
151.750000
21
9.125000
0
LINE
5
104
100
AcDbEntity
8
1
100
AcDbLine
6
CONTINUOUS
62
5
10
148.750000
20
9.125000
11
148.750000
21
1.625000
0
LINE
5
105
100
AcDbEntity
8
1
100
AcDbLine
6
CONTINUOUS
62
5
10
145.250000
20
1.625000
11
152.250000
21
1.625000
0
POLYLINE
5
106
100
AcDbEntity
8
1
6
CONTINUOUS
62
5
100
AcDb2dPolyline
66
1
10
0.0
20
0.0
30
0.0
70
0
0
VERTEX
5
107
100
AcDbEntity
8
1
100
AcDbVertex
100
AcDb2dVertex
62
5
10
123.000000
20
7.875000
0
VERTEX
5
108
100
AcDbEntity
8
1
100
AcDbVertex
100
AcDb2dVertex
62
5
10
126.250000
20
7.875000
0
VERTEX
5
109
100
AcDbEntity
8
1
100
AcDbVertex
100
AcDb2dVertex
62
5
10
126.250000
20
7.562500
0
VERTEX
5
10a
100
AcDbEntity
8
1
100
AcDbVertex
100
AcDb2dVertex
62
5
10
125.750000
20
6.312500
0
VERTEX
5
10b
100
AcDbEntity
8
1
100
AcDbVertex
100
AcDb2dVertex
62
5
10
125.250000
20
5.375000
0
VERTEX
5
10c
100
AcDbEntity
8
1
100
AcDbVertex
100
AcDb2dVertex
62
5
10
124.250000
20
4.125000
0
VERTEX
5
10d
100
AcDbEntity
8
1
100
AcDbVertex
100
AcDb2dVertex
62
5
10
122.500000
20
2.562500
0
SEQEND
5
10e
100
AcDbEntity
8
1
0
LINE
5
10f
100
AcDbEntity
8
1
100
AcDbLine
6
CONTINUOUS
62
5
10
125.250000
20
5.375000
11
127.250000
21
2.562500
0
POLYLINE
5
110
100
AcDbEntity
8
1
6
CONTINUOUS
62
5
100
AcDb2dPolyline
66
1
10
0.0
20
0.0
30
0.0
70
0
0
VERTEX
5
111
100
AcDbEntity
8
1
100
AcDbVertex
100
AcDb2dVertex
62
5
10
132.250000
20
6.937500
0
VERTEX
5
112
100
AcDbEntity
8
1
100
AcDbVertex
100
AcDb2dVertex
62
5
10
132.500000
20
6.937500
0
VERTEX
5
113
100
AcDbEntity
8
1
100
AcDbVertex
100
AcDb2dVertex
62
5
10
134.250000
20
5.687500
0
SEQEND
5
114
100
AcDbEntity
8
1
0
LINE
5
115
100
AcDbEntity
8
1
100
AcDbLine
6
CONTINUOUS
62
5
10
132.250000
20
9.750000
11
132.250000
21
2.250000
0
POLYLINE
5
116
100
AcDbEntity
8
1
6
CONTINUOUS
62
5
100
AcDb2dPolyline
66
1
10
0.0
20
0.0
30
0.0
70
0
0
VERTEX
5
117
100
AcDbEntity
8
1
100
AcDbVertex
100
AcDb2dVertex
62
5
10
137.500000
20
8.500000
0
VERTEX
5
118
100
AcDbEntity
8
1
100
AcDbVertex
100
AcDb2dVertex
62
5
10
141.000000
20
8.500000
0
VERTEX
5
119
100
AcDbEntity
8
1
100
AcDbVertex
100
AcDb2dVertex
62
5
10
141.000000
20
5.687500
0
VERTEX
5
11a
100
AcDbEntity
8
1
100
AcDbVertex
100
AcDb2dVertex
62
5
10
140.750000
20
3.812500
0
VERTEX
5
11b
100
AcDbEntity
8
1
100
AcDbVertex
100
AcDb2dVertex
62
5
10
140.250000
20
1.625000
0
VERTEX
5
11c
100
AcDbEntity
8
1
100
AcDbVertex
100
AcDb2dVertex
62
5
10
139.500000
20
1.625000
0
SEQEND
5
11d
100
AcDbEntity
8
1
0
POLYLINE
5
11e
100
AcDbEntity
8
1
6
CONTINUOUS
62
5
100
AcDb2dPolyline
66
1
10
0.0
20
0.0
30
0.0
70
0
0
VERTEX
5
11f
100
AcDbEntity
8
1
100
AcDbVertex
100
AcDb2dVertex
62
5
10
139.250000
20
10.375000
0
VERTEX
5
120
100
AcDbEntity
8
1
100
AcDbVertex
100
AcDb2dVertex
62
5
10
139.250000
20
8.500000
0
VERTEX
5
121
100
AcDbEntity
8
1
100
AcDbVertex
100
AcDb2dVertex
62
5
10
139.000000
20
5.375000
0
VERTEX
5
122
100
AcDbEntity
8
1
100
AcDbVertex
100
AcDb2dVertex
62
5
10
138.500000
20
3.812500
0
VERTEX
5
123
100
AcDbEntity
8
1
100
AcDbVertex
100
AcDb2dVertex
62
5
10
137.250000
20
1.625000
0
SEQEND
5
124
100
AcDbEntity
8
1
0
POLYLINE
5
125
100
AcDbEntity
8
1
6
CONTINUOUS
62
5
100
AcDb2dPolyline
66
1
10
0.0
20
0.0
30
0.0
70
1
0
VERTEX
5
126
100
AcDbEntity
8
1
100
AcDbVertex
100
AcDb2dVertex
62
5
10
142.000000
20
8.500000
0
VERTEX
5
127
100
AcDbEntity
8
1
100
AcDbVertex
100
AcDb2dVertex
62
5
10
144.250000
20
8.500000
0
VERTEX
5
128
100
AcDbEntity
8
1
100
AcDbVertex
100
AcDb2dVertex
62
5
10
144.250000
20
1.625000
0
VERTEX
5
129
100
AcDbEntity
8
1
100
AcDbVertex
100
AcDb2dVertex
62
5
10
142.000000
20
1.625000
0
VERTEX
5
12a
100
AcDbEntity
8
1
100
AcDbVertex
100
AcDb2dVertex
62
5
10
142.000000
20
8.500000
0
SEQEND
5
12b
100
AcDbEntity
8
1
0
POLYLINE
5
12c
100
AcDbEntity
8
1
6
CONTINUOUS
62
5
100
AcDb2dPolyline
66
1
10
0.0
20
0.0
30
0.0
70
0
0
VERTEX
5
12d
100
AcDbEntity
8
1
100
AcDbVertex
100
AcDb2dVertex
62
5
10
105.500000
20
29.250000
0
VERTEX
5
12e
100
AcDbEntity
8
1
100
AcDbVertex
100
AcDb2dVertex
62
5
10
104.250000
20
29.250000
0
VERTEX
5
12f
100
AcDbEntity
8
1
100
AcDbVertex
100
AcDb2dVertex
62
5
10
104.250000
20
22.750000
0
VERTEX
5
130
100
AcDbEntity
8
1
100
AcDbVertex
100
AcDb2dVertex
62
5
10
105.500000
20
22.750000
0
SEQEND
5
131
100
AcDbEntity
8
1
0
POLYLINE
5
132
100
AcDbEntity
8
1
6
CONTINUOUS
62
5
100
AcDb2dPolyline
66
1
10
0.0
20
0.0
30
0.0
70
0
0
VERTEX
5
133
100
AcDbEntity
8
1
100
AcDbVertex
100
AcDb2dVertex
62
5
10
109.500000
20
27.750000
0
VERTEX
5
134
100
AcDbEntity
8
1
100
AcDbVertex
100
AcDb2dVertex
62
5
10
109.000000
20
28.750000
0
VERTEX
5
135
100
AcDbEntity
8
1
100
AcDbVertex
100
AcDb2dVertex
62
5
10
108.250000
20
29.000000
0
VERTEX
5
136
100
AcDbEntity
8
1
100
AcDbVertex
100
AcDb2dVertex
62
5
10
107.750000
20
29.000000
0
VERTEX
5
137
100
AcDbEntity
8
1
100
AcDbVertex
100
AcDb2dVertex
62
5
10
107.250000
20
28.750000
0
VERTEX
5
138
100
AcDbEntity
8
1
100
AcDbVertex
100
AcDb2dVertex
62
5
10
106.750000
20
28.000000
0
VERTEX
5
139
100
AcDbEntity
8
1
100
AcDbVertex
100
AcDb2dVertex
62
5
10
106.750000
20
27.250000
0
VERTEX
5
13a
100
AcDbEntity
8
1
100
AcDbVertex
100
AcDb2dVertex
62
5
10
107.250000
20
26.500000
0
VERTEX
5
13b
100
AcDbEntity
8
1
100
AcDbVertex
100
AcDb2dVertex
62
5
10
109.000000
20
25.500000
0
VERTEX
5
13c
100
AcDbEntity
8
1
100
AcDbVertex
100
AcDb2dVertex
62
5
10
109.500000
20
24.750000
0
VERTEX
5
13d
100
AcDbEntity
8
1
100
AcDbVertex
100
AcDb2dVertex
62
5
10
109.500000
20
24.000000
0
VERTEX
5
13e
100
AcDbEntity
8
1
100
AcDbVertex
100
AcDb2dVertex
62
5
10
109.000000
20
23.250000
0
VERTEX
5
13f
100
AcDbEntity
8
1
100
AcDbVertex
100
AcDb2dVertex
62
5
10
108.250000
20
23.000000
0
VERTEX
5
140
100
AcDbEntity
8
1
100
AcDbVertex
100
AcDb2dVertex
62
5
10
107.750000
20
23.000000
0
VERTEX
5
141
100
AcDbEntity
8
1
100
AcDbVertex
100
AcDb2dVertex
62
5
10
107.000000
20
23.500000
0
VERTEX
5
142
100
AcDbEntity
8
1
100
AcDbVertex
100
AcDb2dVertex
62
5
10
106.750000
20
24.500000
0
SEQEND
5
143
100
AcDbEntity
8
1
0
POLYLINE
5
144
100
AcDbEntity
8
1
6
CONTINUOUS
62
5
100
AcDb2dPolyline
66
1
10
0.0
20
0.0
30
0.0
70
0
0
VERTEX
5
145
100
AcDbEntity
8
1
100
AcDbVertex
100
AcDb2dVertex
62
5
10
111.000000
20
29.000000
0
VERTEX
5
146
100
AcDbEntity
8
1
100
AcDbVertex
100
AcDb2dVertex
62
5
10
111.000000
20
24.250000
0
VERTEX
5
147
100
AcDbEntity
8
1
100
AcDbVertex
100
AcDb2dVertex
62
5
10
111.250000
20
23.500000
0
VERTEX
5
148
100
AcDbEntity
8
1
100
AcDbVertex
100
AcDb2dVertex
62
5
10
111.500000
20
23.250000
0
VERTEX
5
149
100
AcDbEntity
8
1
100
AcDbVertex
100
AcDb2dVertex
62
5
10
112.000000
20
23.000000
0
VERTEX
5
14a
100
AcDbEntity
8
1
100
AcDbVertex
100
AcDb2dVertex
62
5
10
112.500000
20
23.000000
0
VERTEX
5
14b
100
AcDbEntity
8
1
100
AcDbVertex
100
AcDb2dVertex
62
5
10
113.000000
20
23.250000
0
VERTEX
5
14c
100
AcDbEntity
8
1
100
AcDbVertex
100
AcDb2dVertex
62
5
10
113.250000
20
23.500000
0
VERTEX
5
14d
100
AcDbEntity
8
1
100
AcDbVertex
100
AcDb2dVertex
62
5
10
113.500000
20
24.250000
0
VERTEX
5
14e
100
AcDbEntity
8
1
100
AcDbVertex
100
AcDb2dVertex
62
5
10
113.500000
20
29.000000
0
SEQEND
5
14f
100
AcDbEntity
8
1
0
POLYLINE
5
150
100
AcDbEntity
8
1
6
CONTINUOUS
62
5
100
AcDb2dPolyline
66
1
10
0.0
20
0.0
30
0.0
70
0
0
VERTEX
5
151
100
AcDbEntity
8
1
100
AcDbVertex
100
AcDb2dVertex
62
5
10
117.500000
20
27.750000
0
VERTEX
5
152
100
AcDbEntity
8
1
100
AcDbVertex
100
AcDb2dVertex
62
5
10
117.000000
20
28.750000
0
VERTEX
5
153
100
AcDbEntity
8
1
100
AcDbVertex
100
AcDb2dVertex
62
5
10
116.250000
20
29.000000
0
VERTEX
5
154
100
AcDbEntity
8
1
100
AcDbVertex
100
AcDb2dVertex
62
5
10
115.750000
20
29.000000
0
VERTEX
5
155
100
AcDbEntity
8
1
100
AcDbVertex
100
AcDb2dVertex
62
5
10
115.250000
20
28.750000
0
VERTEX
5
156
100
AcDbEntity
8
1
100
AcDbVertex
100
AcDb2dVertex
62
5
10
114.750000
20
28.000000
0
VERTEX
5
157
100
AcDbEntity
8
1
100
AcDbVertex
100
AcDb2dVertex
62
5
10
114.750000
20
27.250000
0
VERTEX
5
158
100
AcDbEntity
8
1
100
AcDbVertex
100
AcDb2dVertex
62
5
10
115.250000
20
26.500000
0
VERTEX
5
159
100
AcDbEntity
8
1
100
AcDbVertex
100
AcDb2dVertex
62
5
10
117.000000
20
25.500000
0
VERTEX
5
15a
100
AcDbEntity
8
1
100
AcDbVertex
100
AcDb2dVertex
62
5
10
117.500000
20
24.750000
0
VERTEX
5
15b
100
AcDbEntity
8
1
100
AcDbVertex
100
AcDb2dVertex
62
5
10
117.500000
20
24.000000
0
VERTEX
5
15c
100
AcDbEntity
8
1
100
AcDbVertex
100
AcDb2dVertex
62
5
10
117.000000
20
23.250000
0
VERTEX
5
15d
100
AcDbEntity
8
1
100
AcDbVertex
100
AcDb2dVertex
62
5
10
116.250000
20
23.000000
0
VERTEX
5
15e
100
AcDbEntity
8
1
100
AcDbVertex
100
AcDb2dVertex
62
5
10
115.750000
20
23.000000
0
VERTEX
5
15f
100
AcDbEntity
8
1
100
AcDbVertex
100
AcDb2dVertex
62
5
10
115.000000
20
23.500000
0
VERTEX
5
160
100
AcDbEntity
8
1
100
AcDbVertex
100
AcDb2dVertex
62
5
10
114.750000
20
24.500000
0
SEQEND
5
161
100
AcDbEntity
8
1
0
POLYLINE
5
162
100
AcDbEntity
8
1
6
CONTINUOUS
62
5
100
AcDb2dPolyline
66
1
10
0.0
20
0.0
30
0.0
70
0
0
VERTEX
5
163
100
AcDbEntity
8
1
100
AcDbVertex
100
AcDb2dVertex
62
5
10
110.500000
20
19.750000
0
VERTEX
5
164
100
AcDbEntity
8
1
100
AcDbVertex
100
AcDb2dVertex
62
5
10
110.500000
20
14.125000
0
VERTEX
5
165
100
AcDbEntity
8
1
100
AcDbVertex
100
AcDb2dVertex
62
5
10
110.000000
20
12.875000
0
VERTEX
5
166
100
AcDbEntity
8
1
100
AcDbVertex
100
AcDb2dVertex
62
5
10
109.500000
20
11.937500
0
SEQEND
5
167
100
AcDbEntity
8
1
0
POLYLINE
5
168
100
AcDbEntity
8
1
6
CONTINUOUS
62
5
100
AcDb2dPolyline
66
1
10
0.0
20
0.0
30
0.0
70
0
0
VERTEX
5
169
100
AcDbEntity
8
1
100
AcDbVertex
100
AcDb2dVertex
62
5
10
114.500000
20
12.250000
0
VERTEX
5
16a
100
AcDbEntity
8
1
100
AcDbVertex
100
AcDb2dVertex
62
5
10
115.500000
20
11.625000
0
VERTEX
5
16b
100
AcDbEntity
8
1
100
AcDbVertex
100
AcDb2dVertex
62
5
10
115.500000
20
19.750000
0
VERTEX
5
16c
100
AcDbEntity
8
1
100
AcDbVertex
100
AcDb2dVertex
62
5
10
110.500000
20
19.750000
0
SEQEND
5
16d
100
AcDbEntity
8
1
0
LINE
5
16e
100
AcDbEntity
8
1
100
AcDbLine
6
CONTINUOUS
62
5
10
110.500000
20
17.250000
11
115.500000
21
17.250000
0
LINE
5
16f
100
AcDbEntity
8
1
100
AcDbLine
6
CONTINUOUS
62
5
10
113.000000
20
19.750000
11
113.000000
21
11.625000
0
LINE
5
170
100
AcDbEntity
8
1
100
AcDbLine
6
CONTINUOUS
62
5
10
110.500000
20
14.750000
11
115.500000
21
14.750000
0
POLYLINE
5
171
100
AcDbEntity
8
1
6
CONTINUOUS
62
5
100
AcDb2dPolyline
66
1
10
0.0
20
0.0
30
0.0
70
0
0
VERTEX
5
172
100
AcDbEntity
8
1
100
AcDbVertex
100
AcDb2dVertex
62
5
10
85.500000
20
27.750000
0
VERTEX
5
173
100
AcDbEntity
8
1
100
AcDbVertex
100
AcDb2dVertex
62
5
10
85.000000
20
28.750000
0
VERTEX
5
174
100
AcDbEntity
8
1
100
AcDbVertex
100
AcDb2dVertex
62
5
10
84.250000
20
29.000000
0
VERTEX
5
175
100
AcDbEntity
8
1
100
AcDbVertex
100
AcDb2dVertex
62
5
10
83.750000
20
29.000000
0
VERTEX
5
176
100
AcDbEntity
8
1
100
AcDbVertex
100
AcDb2dVertex
62
5
10
83.250000
20
28.750000
0
VERTEX
5
177
100
AcDbEntity
8
1
100
AcDbVertex
100
AcDb2dVertex
62
5
10
82.750000
20
28.000000
0
VERTEX
5
178
100
AcDbEntity
8
1
100
AcDbVertex
100
AcDb2dVertex
62
5
10
82.750000
20
27.250000
0
VERTEX
5
179
100
AcDbEntity
8
1
100
AcDbVertex
100
AcDb2dVertex
62
5
10
83.250000
20
26.500000
0
VERTEX
5
17a
100
AcDbEntity
8
1
100
AcDbVertex
100
AcDb2dVertex
62
5
10
85.000000
20
25.500000
0
VERTEX
5
17b
100
AcDbEntity
8
1
100
AcDbVertex
100
AcDb2dVertex
62
5
10
85.500000
20
24.750000
0
VERTEX
5
17c
100
AcDbEntity
8
1
100
AcDbVertex
100
AcDb2dVertex
62
5
10
85.500000
20
24.000000
0
VERTEX
5
17d
100
AcDbEntity
8
1
100
AcDbVertex
100
AcDb2dVertex
62
5
10
85.000000
20
23.250000
0
VERTEX
5
17e
100
AcDbEntity
8
1
100
AcDbVertex
100
AcDb2dVertex
62
5
10
84.250000
20
23.000000
0
VERTEX
5
17f
100
AcDbEntity
8
1
100
AcDbVertex
100
AcDb2dVertex
62
5
10
83.750000
20
23.000000
0
VERTEX
5
180
100
AcDbEntity
8
1
100
AcDbVertex
100
AcDb2dVertex
62
5
10
83.000000
20
23.500000
0
VERTEX
5
181
100
AcDbEntity
8
1
100
AcDbVertex
100
AcDb2dVertex
62
5
10
82.750000
20
24.500000
0
SEQEND
5
182
100
AcDbEntity
8
1
0
POLYLINE
5
183
100
AcDbEntity
8
1
6
CONTINUOUS
62
5
100
AcDb2dPolyline
66
1
10
0.0
20
0.0
30
0.0
70
0
0
VERTEX
5
184
100
AcDbEntity
8
1
100
AcDbVertex
100
AcDb2dVertex
62
5
10
87.000000
20
29.000000
0
VERTEX
5
185
100
AcDbEntity
8
1
100
AcDbVertex
100
AcDb2dVertex
62
5
10
87.000000
20
23.000000
0
VERTEX
5
186
100
AcDbEntity
8
1
100
AcDbVertex
100
AcDb2dVertex
62
5
10
89.500000
20
23.000000
0
SEQEND
5
187
100
AcDbEntity
8
1
0
LINE
5
188
100
AcDbEntity
8
1
100
AcDbLine
6
CONTINUOUS
62
5
10
91.500000
20
29.000000
11
93.000000
21
29.000000
0
LINE
5
189
100
AcDbEntity
8
1
100
AcDbLine
6
CONTINUOUS
62
5
10
92.250000
20
29.000000
11
92.250000
21
23.000000
0
LINE
5
18a
100
AcDbEntity
8
1
100
AcDbLine
6
CONTINUOUS
62
5
10
91.500000
20
23.000000
11
93.000000
21
23.000000
0
POLYLINE
5
18b
100
AcDbEntity
8
1
6
CONTINUOUS
62
5
100
AcDb2dPolyline
66
1
10
0.0
20
0.0
30
0.0
70
0
0
VERTEX
5
18c
100
AcDbEntity
8
1
100
AcDbVertex
100
AcDb2dVertex
62
5
10
95.000000
20
23.000000
0
VERTEX
5
18d
100
AcDbEntity
8
1
100
AcDbVertex
100
AcDb2dVertex
62
5
10
95.000000
20
29.000000
0
VERTEX
5
18e
100
AcDbEntity
8
1
100
AcDbVertex
100
AcDb2dVertex
62
5
10
96.250000
20
23.000000
0
VERTEX
5
18f
100
AcDbEntity
8
1
100
AcDbVertex
100
AcDb2dVertex
62
5
10
97.500000
20
29.000000
0
VERTEX
5
190
100
AcDbEntity
8
1
100
AcDbVertex
100
AcDb2dVertex
62
5
10
97.500000
20
23.000000
0
SEQEND
5
191
100
AcDbEntity
8
1
0
POLYLINE
5
192
100
AcDbEntity
8
1
6
CONTINUOUS
62
5
100
AcDb2dPolyline
66
1
10
0.0
20
0.0
30
0.0
70
0
0
VERTEX
5
193
100
AcDbEntity
8
1
100
AcDbVertex
100
AcDb2dVertex
62
5
10
98.000000
20
17.875000
0
VERTEX
5
194
100
AcDbEntity
8
1
100
AcDbVertex
100
AcDb2dVertex
62
5
10
98.250000
20
19.125000
0
VERTEX
5
195
100
AcDbEntity
8
1
100
AcDbVertex
100
AcDb2dVertex
62
5
10
98.750000
20
19.750000
0
VERTEX
5
196
100
AcDbEntity
8
1
100
AcDbVertex
100
AcDb2dVertex
62
5
10
99.500000
20
19.750000
0
VERTEX
5
197
100
AcDbEntity
8
1
100
AcDbVertex
100
AcDb2dVertex
62
5
10
100.000000
20
19.437500
0
VERTEX
5
198
100
AcDbEntity
8
1
100
AcDbVertex
100
AcDb2dVertex
62
5
10
100.250000
20
18.500000
0
VERTEX
5
199
100
AcDbEntity
8
1
100
AcDbVertex
100
AcDb2dVertex
62
5
10
100.250000
20
17.250000
0
VERTEX
5
19a
100
AcDbEntity
8
1
100
AcDbVertex
100
AcDb2dVertex
62
5
10
100.000000
20
16.625000
0
VERTEX
5
19b
100
AcDbEntity
8
1
100
AcDbVertex
100
AcDb2dVertex
62
5
10
99.500000
20
16.000000
0
VERTEX
5
19c
100
AcDbEntity
8
1
100
AcDbVertex
100
AcDb2dVertex
62
5
10
98.750000
20
16.000000
0
SEQEND
5
19d
100
AcDbEntity
8
1
0
POLYLINE
5
19e
100
AcDbEntity
8
1
6
CONTINUOUS
62
5
100
AcDb2dPolyline
66
1
10
0.0
20
0.0
30
0.0
70
0
0
VERTEX
5
19f
100
AcDbEntity
8
1
100
AcDbVertex
100
AcDb2dVertex
62
5
10
99.500000
20
16.000000
0
VERTEX
5
1a0
100
AcDbEntity
8
1
100
AcDbVertex
100
AcDb2dVertex
62
5
10
100.250000
20
15.375000
0
VERTEX
5
1a1
100
AcDbEntity
8
1
100
AcDbVertex
100
AcDb2dVertex
62
5
10
100.500000
20
14.437500
0
VERTEX
5
1a2
100
AcDbEntity
8
1
100
AcDbVertex
100
AcDb2dVertex
62
5
10
100.500000
20
13.500000
0
VERTEX
5
1a3
100
AcDbEntity
8
1
100
AcDbVertex
100
AcDb2dVertex
62
5
10
100.250000
20
12.875000
0
VERTEX
5
1a4
100
AcDbEntity
8
1
100
AcDbVertex
100
AcDb2dVertex
62
5
10
99.500000
20
12.250000
0
VERTEX
5
1a5
100
AcDbEntity
8
1
100
AcDbVertex
100
AcDb2dVertex
62
5
10
98.750000
20
12.250000
0
VERTEX
5
1a6
100
AcDbEntity
8
1
100
AcDbVertex
100
AcDb2dVertex
62
5
10
98.250000
20
12.562500
0
VERTEX
5
1a7
100
AcDbEntity
8
1
100
AcDbVertex
100
AcDb2dVertex
62
5
10
97.750000
20
13.500000
0
SEQEND
5
1a8
100
AcDbEntity
8
1
0
POLYLINE
5
1a9
100
AcDbEntity
8
1
6
CONTINUOUS
62
5
100
AcDb2dPolyline
66
1
10
0.0
20
0.0
30
0.0
70
0
0
VERTEX
5
1aa
100
AcDbEntity
8
1
100
AcDbVertex
100
AcDb2dVertex
62
5
10
106.250000
20
7.875000
0
VERTEX
5
1ab
100
AcDbEntity
8
1
100
AcDbVertex
100
AcDb2dVertex
62
5
10
110.000000
20
7.875000
0
VERTEX
5
1ac
100
AcDbEntity
8
1
100
AcDbVertex
100
AcDb2dVertex
62
5
10
110.000000
20
6.937500
0
VERTEX
5
1ad
100
AcDbEntity
8
1
100
AcDbVertex
100
AcDb2dVertex
62
5
10
109.750000
20
5.687500
0
VERTEX
5
1ae
100
AcDbEntity
8
1
100
AcDbVertex
100
AcDb2dVertex
62
5
10
109.250000
20
4.750000
0
VERTEX
5
1af
100
AcDbEntity
8
1
100
AcDbVertex
100
AcDb2dVertex
62
5
10
108.750000
20
3.812500
0
VERTEX
5
1b0
100
AcDbEntity
8
1
100
AcDbVertex
100
AcDb2dVertex
62
5
10
107.250000
20
2.562500
0
SEQEND
5
1b1
100
AcDbEntity
8
1
0
LINE
5
1b2
100
AcDbEntity
8
1
100
AcDbLine
6
CONTINUOUS
62
5
10
110.500000
20
9.125000
11
111.250000
21
8.187500
0
LINE
5
1b3
100
AcDbEntity
8
1
100
AcDbLine
6
CONTINUOUS
62
5
10
111.500000
20
9.750000
11
112.000000
21
8.812500
0
POLYLINE
5
1b4
100
AcDbEntity
8
1
6
CONTINUOUS
62
5
100
AcDb2dPolyline
66
1
10
0.0
20
0.0
30
0.0
70
0
0
VERTEX
5
1b5
100
AcDbEntity
8
1
100
AcDbVertex
100
AcDb2dVertex
62
5
10
114.500000
20
6.625000
0
VERTEX
5
1b6
100
AcDbEntity
8
1
100
AcDbVertex
100
AcDb2dVertex
62
5
10
119.250000
20
6.625000
0
VERTEX
5
1b7
100
AcDbEntity
8
1
100
AcDbVertex
100
AcDb2dVertex
62
5
10
119.250000
20
6.312500
0
VERTEX
5
1b8
100
AcDbEntity
8
1
100
AcDbVertex
100
AcDb2dVertex
62
5
10
118.000000
20
4.125000
0
VERTEX
5
1b9
100
AcDbEntity
8
1
100
AcDbVertex
100
AcDb2dVertex
62
5
10
117.000000
20
3.187500
0
VERTEX
5
1ba
100
AcDbEntity
8
1
100
AcDbVertex
100
AcDb2dVertex
62
5
10
116.000000
20
2.562500
0
SEQEND
5
1bb
100
AcDbEntity
8
1
0
LINE
5
1bc
100
AcDbEntity
8
1
100
AcDbLine
6
CONTINUOUS
62
5
10
115.250000
20
8.812500
11
118.750000
21
8.812500
0
LINE
5
1bd
100
AcDbEntity
8
1
100
AcDbLine
6
CONTINUOUS
62
5
10
82.750000
20
8.187500
11
83.750000
21
6.937500
0
POLYLINE
5
1be
100
AcDbEntity
8
1
6
CONTINUOUS
62
5
100
AcDb2dPolyline
66
1
10
0.0
20
0.0
30
0.0
70
0
0
VERTEX
5
1bf
100
AcDbEntity
8
1
100
AcDbVertex
100
AcDb2dVertex
62
5
10
82.500000
20
3.187500
0
VERTEX
5
1c0
100
AcDbEntity
8
1
100
AcDbVertex
100
AcDb2dVertex
62
5
10
84.250000
20
4.125000
0
VERTEX
5
1c1
100
AcDbEntity
8
1
100
AcDbVertex
100
AcDb2dVertex
62
5
10
85.750000
20
5.375000
0
VERTEX
5
1c2
100
AcDbEntity
8
1
100
AcDbVertex
100
AcDb2dVertex
62
5
10
87.250000
20
6.937500
0
SEQEND
5
1c3
100
AcDbEntity
8
1
0
POLYLINE
5
1c4
100
AcDbEntity
8
1
6
CONTINUOUS
62
5
100
AcDb2dPolyline
66
1
10
0.0
20
0.0
30
0.0
70
0
0
VERTEX
5
1c5
100
AcDbEntity
8
1
100
AcDbVertex
100
AcDb2dVertex
62
5
10
91.250000
20
9.125000
0
VERTEX
5
1c6
100
AcDbEntity
8
1
100
AcDbVertex
100
AcDb2dVertex
62
5
10
91.250000
20
2.875000
0
VERTEX
5
1c7
100
AcDbEntity
8
1
100
AcDbVertex
100
AcDb2dVertex
62
5
10
91.750000
20
2.562500
0
VERTEX
5
1c8
100
AcDbEntity
8
1
100
AcDbVertex
100
AcDb2dVertex
62
5
10
93.000000
20
3.187500
0
VERTEX
5
1c9
100
AcDbEntity
8
1
100
AcDbVertex
100
AcDb2dVertex
62
5
10
94.250000
20
4.125000
0
VERTEX
5
1ca
100
AcDbEntity
8
1
100
AcDbVertex
100
AcDb2dVertex
62
5
10
95.500000
20
5.375000
0
SEQEND
5
1cb
100
AcDbEntity
8
1
0
POLYLINE
5
1cc
100
AcDbEntity
8
1
6
CONTINUOUS
62
5
100
AcDb2dPolyline
66
1
10
0.0
20
0.0
30
0.0
70
0
0
VERTEX
5
1cd
100
AcDbEntity
8
1
100
AcDbVertex
100
AcDb2dVertex
62
5
10
99.000000
20
7.875000
0
VERTEX
5
1ce
100
AcDbEntity
8
1
100
AcDbVertex
100
AcDb2dVertex
62
5
10
102.250000
20
7.875000
0
VERTEX
5
1cf
100
AcDbEntity
8
1
100
AcDbVertex
100
AcDb2dVertex
62
5
10
102.250000
20
7.562500
0
VERTEX
5
1d0
100
AcDbEntity
8
1
100
AcDbVertex
100
AcDb2dVertex
62
5
10
101.750000
20
6.312500
0
VERTEX
5
1d1
100
AcDbEntity
8
1
100
AcDbVertex
100
AcDb2dVertex
62
5
10
101.250000
20
5.375000
0
VERTEX
5
1d2
100
AcDbEntity
8
1
100
AcDbVertex
100
AcDb2dVertex
62
5
10
100.250000
20
4.125000
0
VERTEX
5
1d3
100
AcDbEntity
8
1
100
AcDbVertex
100
AcDb2dVertex
62
5
10
98.500000
20
2.562500
0
SEQEND
5
1d4
100
AcDbEntity
8
1
0
LINE
5
1d5
100
AcDbEntity
8
1
100
AcDbLine
6
CONTINUOUS
62
5
10
101.250000
20
5.375000
11
103.250000
21
2.562500
0
POLYLINE
5
1d6
100
AcDbEntity
8
1
6
CONTINUOUS
62
5
100
AcDb2dPolyline
66
1
10
0.0
20
0.0
30
0.0
70
0
0
VERTEX
5
1d7
100
AcDbEntity
8
1
100
AcDbVertex
100
AcDb2dVertex
62
5
10
84.250000
20
19.437500
0
VERTEX
5
1d8
100
AcDbEntity
8
1
100
AcDbVertex
100
AcDb2dVertex
62
5
10
84.250000
20
14.437500
0
VERTEX
5
1d9
100
AcDbEntity
8
1
100
AcDbVertex
100
AcDb2dVertex
62
5
10
84.000000
20
13.187500
0
VERTEX
5
1da
100
AcDbEntity
8
1
100
AcDbVertex
100
AcDb2dVertex
62
5
10
83.500000
20
12.250000
0
VERTEX
5
1db
100
AcDbEntity
8
1
100
AcDbVertex
100
AcDb2dVertex
62
5
10
83.000000
20
11.625000
0
SEQEND
5
1dc
100
AcDbEntity
8
1
0
LINE
5
1dd
100
AcDbEntity
8
1
100
AcDbLine
6
CONTINUOUS
62
5
10
82.000000
20
15.375000
11
82.500000
21
17.875000
0
POLYLINE
5
1de
100
AcDbEntity
8
1
6
CONTINUOUS
62
5
100
AcDb2dPolyline
66
1
10
0.0
20
0.0
30
0.0
70
0
0
VERTEX
5
1df
100
AcDbEntity
8
1
100
AcDbVertex
100
AcDb2dVertex
62
5
10
82.000000
20
15.375000
0
VERTEX
5
1e0
100
AcDbEntity
8
1
100
AcDbVertex
100
AcDb2dVertex
62
5
10
81.750000
20
14.437500
0
VERTEX
5
1e1
100
AcDbEntity
8
1
100
AcDbVertex
100
AcDb2dVertex
62
5
10
81.250000
20
13.187500
0
SEQEND
5
1e2
100
AcDbEntity
8
1
0
LINE
5
1e3
100
AcDbEntity
8
1
100
AcDbLine
6
CONTINUOUS
62
5
10
86.000000
20
13.812500
11
86.500000
21
12.875000
0
LINE
5
1e4
100
AcDbEntity
8
1
100
AcDbLine
6
CONTINUOUS
62
5
10
81.250000
20
17.875000
11
83.750000
21
17.875000
0
LINE
5
1e5
100
AcDbEntity
8
1
100
AcDbLine
6
CONTINUOUS
62
5
10
82.500000
20
20.062500
11
82.500000
21
11.312500
0
LINE
5
1e6
100
AcDbEntity
8
1
100
AcDbLine
6
CONTINUOUS
62
5
10
82.500000
20
16.625000
11
83.500000
21
14.750000
0
LINE
5
1e7
100
AcDbEntity
8
1
100
AcDbLine
6
CONTINUOUS
62
5
10
88.250000
20
19.437500
11
84.250000
21
19.437500
0
POLYLINE
5
1e8
100
AcDbEntity
8
1
6
CONTINUOUS
62
5
100
AcDb2dPolyline
66
1
10
0.0
20
0.0
30
0.0
70
0
0
VERTEX
5
1e9
100
AcDbEntity
8
1
100
AcDbVertex
100
AcDb2dVertex
62
5
10
84.250000
20
16.937500
0
VERTEX
5
1ea
100
AcDbEntity
8
1
100
AcDbVertex
100
AcDb2dVertex
62
5
10
87.750000
20
16.937500
0
VERTEX
5
1eb
100
AcDbEntity
8
1
100
AcDbVertex
100
AcDb2dVertex
62
5
10
87.250000
20
14.750000
0
VERTEX
5
1ec
100
AcDbEntity
8
1
100
AcDbVertex
100
AcDb2dVertex
62
5
10
86.500000
20
13.500000
0
VERTEX
5
1ed
100
AcDbEntity
8
1
100
AcDbVertex
100
AcDb2dVertex
62
5
10
85.500000
20
12.250000
0
VERTEX
5
1ee
100
AcDbEntity
8
1
100
AcDbVertex
100
AcDb2dVertex
62
5
10
84.250000
20
11.625000
0
SEQEND
5
1ef
100
AcDbEntity
8
1
0
POLYLINE
5
1f0
100
AcDbEntity
8
1
6
CONTINUOUS
62
5
100
AcDb2dPolyline
66
1
10
0.0
20
0.0
30
0.0
70
0
0
VERTEX
5
1f1
100
AcDbEntity
8
1
100
AcDbVertex
100
AcDb2dVertex
62
5
10
86.500000
20
12.875000
0
VERTEX
5
1f2
100
AcDbEntity
8
1
100
AcDbVertex
100
AcDb2dVertex
62
5
10
87.500000
20
11.937500
0
VERTEX
5
1f3
100
AcDbEntity
8
1
100
AcDbVertex
100
AcDb2dVertex
62
5
10
88.500000
20
11.312500
0
SEQEND
5
1f4
100
AcDbEntity
8
1
0
LINE
5
1f5
100
AcDbEntity
8
1
100
AcDbLine
6
CONTINUOUS
62
5
10
85.000000
20
16.312500
11
86.000000
21
13.812500
0
POLYLINE
5
1f6
100
AcDbEntity
8
1
6
CONTINUOUS
62
5
100
AcDb2dPolyline
66
1
10
0.0
20
0.0
30
0.0
70
0
0
VERTEX
5
1f7
100
AcDbEntity
8
1
100
AcDbVertex
100
AcDb2dVertex
62
5
10
103.250000
20
20.062500
0
VERTEX
5
1f8
100
AcDbEntity
8
1
100
AcDbVertex
100
AcDb2dVertex
62
5
10
102.500000
20
17.875000
0
VERTEX
5
1f9
100
AcDbEntity
8
1
100
AcDbVertex
100
AcDb2dVertex
62
5
10
101.250000
20
16.000000
0
SEQEND
5
1fa
100
AcDbEntity
8
1
0
LINE
5
1fb
100
AcDbEntity
8
1
100
AcDbLine
6
CONTINUOUS
62
5
10
102.500000
20
17.875000
11
102.500000
21
11.312500
0
POLYLINE
5
1fc
100
AcDbEntity
8
1
6
CONTINUOUS
62
5
100
AcDb2dPolyline
66
1
10
0.0
20
0.0
30
0.0
70
1
0
VERTEX
5
1fd
100
AcDbEntity
8
1
100
AcDbVertex
100
AcDb2dVertex
62
5
10
103.750000
20
11.625000
0
VERTEX
5
1fe
100
AcDbEntity
8
1
100
AcDbVertex
100
AcDb2dVertex
62
5
10
103.750000
20
19.750000
0
VERTEX
5
1ff
100
AcDbEntity
8
1
100
AcDbVertex
100
AcDb2dVertex
62
5
10
108.250000
20
19.750000
0
VERTEX
5
200
100
AcDbEntity
8
1
100
AcDbVertex
100
AcDb2dVertex
62
5
10
108.250000
20
11.625000
0
VERTEX
5
201
100
AcDbEntity
8
1
100
AcDbVertex
100
AcDb2dVertex
62
5
10
103.750000
20
11.625000
0
SEQEND
5
202
100
AcDbEntity
8
1
0
LINE
5
203
100
AcDbEntity
8
1
100
AcDbLine
6
CONTINUOUS
62
5
10
104.500000
20
17.562500
11
107.500000
21
17.562500
0
LINE
5
204
100
AcDbEntity
8
1
100
AcDbLine
6
CONTINUOUS
62
5
10
106.000000
20
18.500000
11
106.000000
21
15.687500
0
POLYLINE
5
205
100
AcDbEntity
8
1
6
CONTINUOUS
62
5
100
AcDb2dPolyline
66
1
10
0.0
20
0.0
30
0.0
70
1
0
VERTEX
5
206
100
AcDbEntity
8
1
100
AcDbVertex
100
AcDb2dVertex
62
5
10
104.750000
20
15.687500
0
VERTEX
5
207
100
AcDbEntity
8
1
100
AcDbVertex
100
AcDb2dVertex
62
5
10
104.750000
20
12.875000
0
VERTEX
5
208
100
AcDbEntity
8
1
100
AcDbVertex
100
AcDb2dVertex
62
5
10
107.250000
20
12.875000
0
VERTEX
5
209
100
AcDbEntity
8
1
100
AcDbVertex
100
AcDb2dVertex
62
5
10
107.250000
20
15.687500
0
VERTEX
5
20a
100
AcDbEntity
8
1
100
AcDbVertex
100
AcDb2dVertex
62
5
10
104.750000
20
15.687500
0
SEQEND
5
20b
100
AcDbEntity
8
1
0
LINE
5
20c
100
AcDbEntity
8
1
100
AcDbLine
6
CONTINUOUS
62
5
10
119.000000
20
29.000000
11
121.500000
21
29.000000
0
LINE
5
20d
100
AcDbEntity
8
1
100
AcDbLine
6
CONTINUOUS
62
5
10
120.250000
20
29.000000
11
120.250000
21
23.000000
0
POLYLINE
5
20e
100
AcDbEntity
8
1
6
CONTINUOUS
62
5
100
AcDb2dPolyline
66
1
10
0.0
20
0.0
30
0.0
70
0
0
VERTEX
5
20f
100
AcDbEntity
8
1
100
AcDbVertex
100
AcDb2dVertex
62
5
10
62.750000
20
29.000000
0
VERTEX
5
210
100
AcDbEntity
8
1
100
AcDbVertex
100
AcDb2dVertex
62
5
10
63.500000
20
23.000000
0
VERTEX
5
211
100
AcDbEntity
8
1
100
AcDbVertex
100
AcDb2dVertex
62
5
10
64.250000
20
29.000000
0
VERTEX
5
212
100
AcDbEntity
8
1
100
AcDbVertex
100
AcDb2dVertex
62
5
10
65.000000
20
23.000000
0
VERTEX
5
213
100
AcDbEntity
8
1
100
AcDbVertex
100
AcDb2dVertex
62
5
10
65.750000
20
29.000000
0
SEQEND
5
214
100
AcDbEntity
8
1
0
LINE
5
215
100
AcDbEntity
8
1
100
AcDbLine
6
CONTINUOUS
62
5
10
67.500000
20
29.000000
11
69.000000
21
29.000000
0
LINE
5
216
100
AcDbEntity
8
1
100
AcDbLine
6
CONTINUOUS
62
5
10
68.250000
20
29.000000
11
68.250000
21
23.000000
0
LINE
5
217
100
AcDbEntity
8
1
100
AcDbLine
6
CONTINUOUS
62
5
10
67.500000
20
23.000000
11
69.000000
21
23.000000
0
LINE
5
218
100
AcDbEntity
8
1
100
AcDbLine
6
CONTINUOUS
62
5
10
71.000000
20
29.000000
11
71.000000
21
23.000000
0
POLYLINE
5
219
100
AcDbEntity
8
1
6
CONTINUOUS
62
5
100
AcDb2dPolyline
66
1
10
0.0
20
0.0
30
0.0
70
0
0
VERTEX
5
21a
100
AcDbEntity
8
1
100
AcDbVertex
100
AcDb2dVertex
62
5
10
71.000000
20
29.000000
0
VERTEX
5
21b
100
AcDbEntity
8
1
100
AcDbVertex
100
AcDb2dVertex
62
5
10
72.250000
20
29.000000
0
VERTEX
5
21c
100
AcDbEntity
8
1
100
AcDbVertex
100
AcDb2dVertex
62
5
10
72.750000
20
28.750000
0
VERTEX
5
21d
100
AcDbEntity
8
1
100
AcDbVertex
100
AcDb2dVertex
62
5
10
73.250000
20
28.250000
0
VERTEX
5
21e
100
AcDbEntity
8
1
100
AcDbVertex
100
AcDb2dVertex
62
5
10
73.500000
20
27.250000
0
VERTEX
5
21f
100
AcDbEntity
8
1
100
AcDbVertex
100
AcDb2dVertex
62
5
10
73.500000
20
24.750000
0
VERTEX
5
220
100
AcDbEntity
8
1
100
AcDbVertex
100
AcDb2dVertex
62
5
10
73.250000
20
23.750000
0
VERTEX
5
221
100
AcDbEntity
8
1
100
AcDbVertex
100
AcDb2dVertex
62
5
10
72.750000
20
23.250000
0
VERTEX
5
222
100
AcDbEntity
8
1
100
AcDbVertex
100
AcDb2dVertex
62
5
10
72.250000
20
23.000000
0
VERTEX
5
223
100
AcDbEntity
8
1
100
AcDbVertex
100
AcDb2dVertex
62
5
10
71.000000
20
23.000000
0
SEQEND
5
224
100
AcDbEntity
8
1
0
POLYLINE
5
225
100
AcDbEntity
8
1
6
CONTINUOUS
62
5
100
AcDb2dPolyline
66
1
10
0.0
20
0.0
30
0.0
70
0
0
VERTEX
5
226
100
AcDbEntity
8
1
100
AcDbVertex
100
AcDb2dVertex
62
5
10
77.500000
20
29.000000
0
VERTEX
5
227
100
AcDbEntity
8
1
100
AcDbVertex
100
AcDb2dVertex
62
5
10
75.000000
20
29.000000
0
VERTEX
5
228
100
AcDbEntity
8
1
100
AcDbVertex
100
AcDb2dVertex
62
5
10
75.000000
20
23.000000
0
VERTEX
5
229
100
AcDbEntity
8
1
100
AcDbVertex
100
AcDb2dVertex
62
5
10
77.750000
20
23.000000
0
SEQEND
5
22a
100
AcDbEntity
8
1
0
LINE
5
22b
100
AcDbEntity
8
1
100
AcDbLine
6
CONTINUOUS
62
5
10
75.000000
20
26.000000
11
77.250000
21
26.000000
0
LINE
5
22c
100
AcDbEntity
8
1
100
AcDbLine
6
CONTINUOUS
62
5
10
65.250000
20
18.187500
11
67.000000
21
18.187500
0
POLYLINE
5
22d
100
AcDbEntity
8
1
6
CONTINUOUS
62
5
100
AcDb2dPolyline
66
1
10
0.0
20
0.0
30
0.0
70
0
0
VERTEX
5
22e
100
AcDbEntity
8
1
100
AcDbVertex
100
AcDb2dVertex
62
5
10
66.250000
20
20.062500
0
VERTEX
5
22f
100
AcDbEntity
8
1
100
AcDbVertex
100
AcDb2dVertex
62
5
10
66.250000
20
12.562500
0
VERTEX
5
230
100
AcDbEntity
8
1
100
AcDbVertex
100
AcDb2dVertex
62
5
10
65.750000
20
11.937500
0
VERTEX
5
231
100
AcDbEntity
8
1
100
AcDbVertex
100
AcDb2dVertex
62
5
10
65.500000
20
11.937500
0
SEQEND
5
232
100
AcDbEntity
8
1
0
LINE
5
233
100
AcDbEntity
8
1
100
AcDbLine
6
CONTINUOUS
62
5
10
65.250000
20
15.062500
11
66.750000
21
16.000000
0
POLYLINE
5
234
100
AcDbEntity
8
1
6
CONTINUOUS
62
5
100
AcDb2dPolyline
66
1
10
0.0
20
0.0
30
0.0
70
1
0
VERTEX
5
235
100
AcDbEntity
8
1
100
AcDbVertex
100
AcDb2dVertex
62
5
10
68.500000
20
18.187500
0
VERTEX
5
236
100
AcDbEntity
8
1
100
AcDbVertex
100
AcDb2dVertex
62
5
10
68.500000
20
19.750000
0
VERTEX
5
237
100
AcDbEntity
8
1
100
AcDbVertex
100
AcDb2dVertex
62
5
10
71.000000
20
19.750000
0
VERTEX
5
238
100
AcDbEntity
8
1
100
AcDbVertex
100
AcDb2dVertex
62
5
10
71.000000
20
18.187500
0
VERTEX
5
239
100
AcDbEntity
8
1
100
AcDbVertex
100
AcDb2dVertex
62
5
10
68.500000
20
18.187500
0
SEQEND
5
23a
100
AcDbEntity
8
1
0
POLYLINE
5
23b
100
AcDbEntity
8
1
6
CONTINUOUS
62
5
100
AcDb2dPolyline
66
1
10
0.0
20
0.0
30
0.0
70
1
0
VERTEX
5
23c
100
AcDbEntity
8
1
100
AcDbVertex
100
AcDb2dVertex
62
5
10
67.750000
20
17.250000
0
VERTEX
5
23d
100
AcDbEntity
8
1
100
AcDbVertex
100
AcDb2dVertex
62
5
10
69.000000
20
17.250000
0
VERTEX
5
23e
100
AcDbEntity
8
1
100
AcDbVertex
100
AcDb2dVertex
62
5
10
69.000000
20
16.000000
0
VERTEX
5
23f
100
AcDbEntity
8
1
100
AcDbVertex
100
AcDb2dVertex
62
5
10
67.750000
20
16.000000
0
VERTEX
5
240
100
AcDbEntity
8
1
100
AcDbVertex
100
AcDb2dVertex
62
5
10
67.750000
20
17.250000
0
SEQEND
5
241
100
AcDbEntity
8
1
0
POLYLINE
5
242
100
AcDbEntity
8
1
6
CONTINUOUS
62
5
100
AcDb2dPolyline
66
1
10
0.0
20
0.0
30
0.0
70
1
0
VERTEX
5
243
100
AcDbEntity
8
1
100
AcDbVertex
100
AcDb2dVertex
62
5
10
70.500000
20
17.250000
0
VERTEX
5
244
100
AcDbEntity
8
1
100
AcDbVertex
100
AcDb2dVertex
62
5
10
71.750000
20
17.250000
0
VERTEX
5
245
100
AcDbEntity
8
1
100
AcDbVertex
100
AcDb2dVertex
62
5
10
71.750000
20
16.000000
0
VERTEX
5
246
100
AcDbEntity
8
1
100
AcDbVertex
100
AcDb2dVertex
62
5
10
70.500000
20
16.000000
0
VERTEX
5
247
100
AcDbEntity
8
1
100
AcDbVertex
100
AcDb2dVertex
62
5
10
70.500000
20
17.250000
0
SEQEND
5
248
100
AcDbEntity
8
1
0
LINE
5
249
100
AcDbEntity
8
1
100
AcDbLine
6
CONTINUOUS
62
5
10
67.500000
20
14.750000
11
72.250000
21
14.750000
0
LINE
5
24a
100
AcDbEntity
8
1
100
AcDbLine
6
CONTINUOUS
62
5
10
69.750000
20
15.687500
11
69.750000
21
11.625000
0
POLYLINE
5
24b
100
AcDbEntity
8
1
6
CONTINUOUS
62
5
100
AcDb2dPolyline
66
1
10
0.0
20
0.0
30
0.0
70
0
0
VERTEX
5
24c
100
AcDbEntity
8
1
100
AcDbVertex
100
AcDb2dVertex
62
5
10
69.750000
20
14.437500
0
VERTEX
5
24d
100
AcDbEntity
8
1
100
AcDbVertex
100
AcDb2dVertex
62
5
10
69.000000
20
13.187500
0
VERTEX
5
24e
100
AcDbEntity
8
1
100
AcDbVertex
100
AcDb2dVertex
62
5
10
68.500000
20
12.875000
0
VERTEX
5
24f
100
AcDbEntity
8
1
100
AcDbVertex
100
AcDb2dVertex
62
5
10
67.250000
20
12.250000
0
SEQEND
5
250
100
AcDbEntity
8
1
0
POLYLINE
5
251
100
AcDbEntity
8
1
6
CONTINUOUS
62
5
100
AcDb2dPolyline
66
1
10
0.0
20
0.0
30
0.0
70
0
0
VERTEX
5
252
100
AcDbEntity
8
1
100
AcDbVertex
100
AcDb2dVertex
62
5
10
69.750000
20
14.437500
0
VERTEX
5
253
100
AcDbEntity
8
1
100
AcDbVertex
100
AcDb2dVertex
62
5
10
70.500000
20
13.187500
0
VERTEX
5
254
100
AcDbEntity
8
1
100
AcDbVertex
100
AcDb2dVertex
62
5
10
71.250000
20
12.562500
0
VERTEX
5
255
100
AcDbEntity
8
1
100
AcDbVertex
100
AcDb2dVertex
62
5
10
72.250000
20
12.250000
0
SEQEND
5
256
100
AcDbEntity
8
1
0
POLYLINE
5
257
100
AcDbEntity
8
1
6
CONTINUOUS
62
5
100
AcDb2dPolyline
66
1
10
0.0
20
0.0
30
0.0
70
0
0
VERTEX
5
258
100
AcDbEntity
8
1
100
AcDbVertex
100
AcDb2dVertex
62
5
10
53.250000
20
29.000000
0
VERTEX
5
259
100
AcDbEntity
8
1
100
AcDbVertex
100
AcDb2dVertex
62
5
10
53.250000
20
24.500000
0
VERTEX
5
25a
100
AcDbEntity
8
1
100
AcDbVertex
100
AcDb2dVertex
62
5
10
53.000000
20
23.500000
0
VERTEX
5
25b
100
AcDbEntity
8
1
100
AcDbVertex
100
AcDb2dVertex
62
5
10
52.500000
20
23.000000
0
VERTEX
5
25c
100
AcDbEntity
8
1
100
AcDbVertex
100
AcDb2dVertex
62
5
10
51.750000
20
23.000000
0
VERTEX
5
25d
100
AcDbEntity
8
1
100
AcDbVertex
100
AcDb2dVertex
62
5
10
51.250000
20
23.500000
0
VERTEX
5
25e
100
AcDbEntity
8
1
100
AcDbVertex
100
AcDb2dVertex
62
5
10
51.000000
20
24.500000
0
SEQEND
5
25f
100
AcDbEntity
8
1
0
POLYLINE
5
260
100
AcDbEntity
8
1
6
CONTINUOUS
62
5
100
AcDb2dPolyline
66
1
10
0.0
20
0.0
30
0.0
70
0
0
VERTEX
5
261
100
AcDbEntity
8
1
100
AcDbVertex
100
AcDb2dVertex
62
5
10
57.250000
20
26.000000
0
VERTEX
5
262
100
AcDbEntity
8
1
100
AcDbVertex
100
AcDb2dVertex
62
5
10
57.750000
20
26.500000
0
VERTEX
5
263
100
AcDbEntity
8
1
100
AcDbVertex
100
AcDb2dVertex
62
5
10
58.000000
20
26.500000
0
VERTEX
5
264
100
AcDbEntity
8
1
100
AcDbVertex
100
AcDb2dVertex
62
5
10
58.500000
20
26.000000
0
VERTEX
5
265
100
AcDbEntity
8
1
100
AcDbVertex
100
AcDb2dVertex
62
5
10
58.500000
20
25.750000
0
VERTEX
5
266
100
AcDbEntity
8
1
100
AcDbVertex
100
AcDb2dVertex
62
5
10
58.000000
20
25.250000
0
VERTEX
5
267
100
AcDbEntity
8
1
100
AcDbVertex
100
AcDb2dVertex
62
5
10
57.750000
20
25.250000
0
VERTEX
5
268
100
AcDbEntity
8
1
100
AcDbVertex
100
AcDb2dVertex
62
5
10
57.250000
20
25.750000
0
VERTEX
5
269
100
AcDbEntity
8
1
100
AcDbVertex
100
AcDb2dVertex
62
5
10
57.250000
20
26.000000
0
VERTEX
5
26a
100
AcDbEntity
8
1
100
AcDbVertex
100
AcDb2dVertex
62
5
10
58.500000
20
26.000000
0
SEQEND
5
26b
100
AcDbEntity
8
1
0
LINE
5
26c
100
AcDbEntity
8
1
100
AcDbLine
6
CONTINUOUS
62
5
10
58.500000
20
25.750000
11
57.250000
21
25.750000
0
LINE
5
26d
100
AcDbEntity
8
1
100
AcDbLine
6
CONTINUOUS
62
5
10
57.500000
20
25.500000
11
58.250000
21
25.500000
0
LINE
5
26e
100
AcDbEntity
8
1
100
AcDbLine
6
CONTINUOUS
62
5
10
58.250000
20
26.250000
11
57.500000
21
26.250000
0
POLYLINE
5
26f
100
AcDbEntity
8
1
6
CONTINUOUS
62
5
100
AcDb2dPolyline
66
1
10
0.0
20
0.0
30
0.0
70
0
0
VERTEX
5
270
100
AcDbEntity
8
1
100
AcDbVertex
100
AcDb2dVertex
62
5
10
67.000000
20
7.875000
0
VERTEX
5
271
100
AcDbEntity
8
1
100
AcDbVertex
100
AcDb2dVertex
62
5
10
70.250000
20
7.875000
0
VERTEX
5
272
100
AcDbEntity
8
1
100
AcDbVertex
100
AcDb2dVertex
62
5
10
70.250000
20
7.562500
0
VERTEX
5
273
100
AcDbEntity
8
1
100
AcDbVertex
100
AcDb2dVertex
62
5
10
69.750000
20
6.312500
0
VERTEX
5
274
100
AcDbEntity
8
1
100
AcDbVertex
100
AcDb2dVertex
62
5
10
69.250000
20
5.375000
0
VERTEX
5
275
100
AcDbEntity
8
1
100
AcDbVertex
100
AcDb2dVertex
62
5
10
68.250000
20
4.125000
0
VERTEX
5
276
100
AcDbEntity
8
1
100
AcDbVertex
100
AcDb2dVertex
62
5
10
66.500000
20
2.562500
0
SEQEND
5
277
100
AcDbEntity
8
1
0
LINE
5
278
100
AcDbEntity
8
1
100
AcDbLine
6
CONTINUOUS
62
5
10
69.250000
20
5.375000
11
71.250000
21
2.562500
0
LINE
5
279
100
AcDbEntity
8
1
100
AcDbLine
6
CONTINUOUS
62
5
10
40.000000
20
32.000000
11
40.000000
21
0.000000
0
LINE
5
27a
100
AcDbEntity
8
1
100
AcDbLine
6
CONTINUOUS
62
5
10
40.000000
20
32.000000
11
40.000000
21
0.000000
0
LINE
5
27b
100
AcDbEntity
8
1
100
AcDbLine
6
CONTINUOUS
62
5
10
62.500000
20
-17.500000
11
62.500000
21
-25.000000
0
POLYLINE
5
27c
100
AcDbEntity
8
1
6
CONTINUOUS
62
5
100
AcDb2dPolyline
66
1
10
0.0
20
0.0
30
0.0
70
0
0
VERTEX
5
27d
100
AcDbEntity
8
1
100
AcDbVertex
100
AcDb2dVertex
62
5
10
62.500000
20
-17.500000
0
VERTEX
5
27e
100
AcDbEntity
8
1
100
AcDbVertex
100
AcDb2dVertex
62
5
10
64.062500
20
-17.500000
0
VERTEX
5
27f
100
AcDbEntity
8
1
100
AcDbVertex
100
AcDb2dVertex
62
5
10
64.687500
20
-17.812500
0
VERTEX
5
280
100
AcDbEntity
8
1
100
AcDbVertex
100
AcDb2dVertex
62
5
10
65.000000
20
-18.125000
0
VERTEX
5
281
100
AcDbEntity
8
1
100
AcDbVertex
100
AcDb2dVertex
62
5
10
65.312500
20
-18.750000
0
VERTEX
5
282
100
AcDbEntity
8
1
100
AcDbVertex
100
AcDb2dVertex
62
5
10
65.312500
20
-19.687500
0
VERTEX
5
283
100
AcDbEntity
8
1
100
AcDbVertex
100
AcDb2dVertex
62
5
10
65.000000
20
-20.312500
0
VERTEX
5
284
100
AcDbEntity
8
1
100
AcDbVertex
100
AcDb2dVertex
62
5
10
64.687500
20
-20.625000
0
VERTEX
5
285
100
AcDbEntity
8
1
100
AcDbVertex
100
AcDb2dVertex
62
5
10
64.062500
20
-20.937500
0
VERTEX
5
286
100
AcDbEntity
8
1
100
AcDbVertex
100
AcDb2dVertex
62
5
10
62.500000
20
-20.937500
0
SEQEND
5
287
100
AcDbEntity
8
1
0
POLYLINE
5
288
100
AcDbEntity
8
1
6
CONTINUOUS
62
5
100
AcDb2dPolyline
66
1
10
0.0
20
0.0
30
0.0
70
0
0
VERTEX
5
289
100
AcDbEntity
8
1
100
AcDbVertex
100
AcDb2dVertex
62
5
10
64.062500
20
-20.937500
0
VERTEX
5
28a
100
AcDbEntity
8
1
100
AcDbVertex
100
AcDb2dVertex
62
5
10
64.687500
20
-21.250000
0
VERTEX
5
28b
100
AcDbEntity
8
1
100
AcDbVertex
100
AcDb2dVertex
62
5
10
65.312500
20
-21.875000
0
VERTEX
5
28c
100
AcDbEntity
8
1
100
AcDbVertex
100
AcDb2dVertex
62
5
10
65.625000
20
-22.500000
0
VERTEX
5
28d
100
AcDbEntity
8
1
100
AcDbVertex
100
AcDb2dVertex
62
5
10
65.625000
20
-23.750000
0
VERTEX
5
28e
100
AcDbEntity
8
1
100
AcDbVertex
100
AcDb2dVertex
62
5
10
65.312500
20
-24.375000
0
VERTEX
5
28f
100
AcDbEntity
8
1
100
AcDbVertex
100
AcDb2dVertex
62
5
10
65.000000
20
-24.687500
0
VERTEX
5
290
100
AcDbEntity
8
1
100
AcDbVertex
100
AcDb2dVertex
62
5
10
64.375000
20
-25.000000
0
VERTEX
5
291
100
AcDbEntity
8
1
100
AcDbVertex
100
AcDb2dVertex
62
5
10
62.500000
20
-25.000000
0
SEQEND
5
292
100
AcDbEntity
8
1
0
POLYLINE
5
293
100
AcDbEntity
8
1
6
CONTINUOUS
62
5
100
AcDb2dPolyline
66
1
10
0.0
20
0.0
30
0.0
70
0
0
VERTEX
5
294
100
AcDbEntity
8
1
100
AcDbVertex
100
AcDb2dVertex
62
5
10
67.500000
20
-25.000000
0
VERTEX
5
295
100
AcDbEntity
8
1
100
AcDbVertex
100
AcDb2dVertex
62
5
10
67.500000
20
-17.500000
0
VERTEX
5
296
100
AcDbEntity
8
1
100
AcDbVertex
100
AcDb2dVertex
62
5
10
70.625000
20
-25.000000
0
VERTEX
5
297
100
AcDbEntity
8
1
100
AcDbVertex
100
AcDb2dVertex
62
5
10
70.625000
20
-17.500000
0
SEQEND
5
298
100
AcDbEntity
8
1
0
LINE
5
299
100
AcDbEntity
8
1
100
AcDbLine
6
CONTINUOUS
62
5
10
72.500000
20
-21.250000
11
75.625000
21
-21.250000
0
POLYLINE
5
29a
100
AcDbEntity
8
1
6
CONTINUOUS
62
5
100
AcDb2dPolyline
66
1
10
0.0
20
0.0
30
0.0
70
0
0
VERTEX
5
29b
100
AcDbEntity
8
1
100
AcDbVertex
100
AcDb2dVertex
62
5
10
52.187500
20
-17.500000
0
VERTEX
5
29c
100
AcDbEntity
8
1
100
AcDbVertex
100
AcDb2dVertex
62
5
10
53.125000
20
-25.000000
0
VERTEX
5
29d
100
AcDbEntity
8
1
100
AcDbVertex
100
AcDb2dVertex
62
5
10
54.062500
20
-17.500000
0
VERTEX
5
29e
100
AcDbEntity
8
1
100
AcDbVertex
100
AcDb2dVertex
62
5
10
55.000000
20
-25.000000
0
VERTEX
5
29f
100
AcDbEntity
8
1
100
AcDbVertex
100
AcDb2dVertex
62
5
10
55.937500
20
-17.500000
0
SEQEND
5
2a0
100
AcDbEntity
8
1
0
POLYLINE
5
2a1
100
AcDbEntity
8
1
6
CONTINUOUS
62
5
100
AcDb2dPolyline
66
1
10
0.0
20
0.0
30
0.0
70
0
0
VERTEX
5
2a2
100
AcDbEntity
8
1
100
AcDbVertex
100
AcDb2dVertex
62
5
10
60.625000
20
-19.062500
0
VERTEX
5
2a3
100
AcDbEntity
8
1
100
AcDbVertex
100
AcDb2dVertex
62
5
10
60.000000
20
-17.812500
0
VERTEX
5
2a4
100
AcDbEntity
8
1
100
AcDbVertex
100
AcDb2dVertex
62
5
10
59.062500
20
-17.500000
0
VERTEX
5
2a5
100
AcDbEntity
8
1
100
AcDbVertex
100
AcDb2dVertex
62
5
10
58.437500
20
-17.500000
0
VERTEX
5
2a6
100
AcDbEntity
8
1
100
AcDbVertex
100
AcDb2dVertex
62
5
10
57.812500
20
-17.812500
0
VERTEX
5
2a7
100
AcDbEntity
8
1
100
AcDbVertex
100
AcDb2dVertex
62
5
10
57.187500
20
-18.750000
0
VERTEX
5
2a8
100
AcDbEntity
8
1
100
AcDbVertex
100
AcDb2dVertex
62
5
10
57.187500
20
-19.687500
0
VERTEX
5
2a9
100
AcDbEntity
8
1
100
AcDbVertex
100
AcDb2dVertex
62
5
10
57.812500
20
-20.625000
0
VERTEX
5
2aa
100
AcDbEntity
8
1
100
AcDbVertex
100
AcDb2dVertex
62
5
10
60.000000
20
-21.875000
0
VERTEX
5
2ab
100
AcDbEntity
8
1
100
AcDbVertex
100
AcDb2dVertex
62
5
10
60.625000
20
-22.812500
0
VERTEX
5
2ac
100
AcDbEntity
8
1
100
AcDbVertex
100
AcDb2dVertex
62
5
10
60.625000
20
-23.750000
0
VERTEX
5
2ad
100
AcDbEntity
8
1
100
AcDbVertex
100
AcDb2dVertex
62
5
10
60.000000
20
-24.687500
0
VERTEX
5
2ae
100
AcDbEntity
8
1
100
AcDbVertex
100
AcDb2dVertex
62
5
10
59.062500
20
-25.000000
0
VERTEX
5
2af
100
AcDbEntity
8
1
100
AcDbVertex
100
AcDb2dVertex
62
5
10
58.437500
20
-25.000000
0
VERTEX
5
2b0
100
AcDbEntity
8
1
100
AcDbVertex
100
AcDb2dVertex
62
5
10
57.500000
20
-24.375000
0
VERTEX
5
2b1
100
AcDbEntity
8
1
100
AcDbVertex
100
AcDb2dVertex
62
5
10
57.187500
20
-23.125000
0
SEQEND
5
2b2
100
AcDbEntity
8
1
0
LINE
5
2b3
100
AcDbEntity
8
1
100
AcDbLine
6
CONTINUOUS
62
5
10
77.250000
20
5.687500
11
76.750000
21
4.125000
0
LINE
5
2b4
100
AcDbEntity
8
1
100
AcDbLine
6
CONTINUOUS
62
5
10
75.250000
20
8.812500
11
78.750000
21
8.812500
0
LINE
5
2b5
100
AcDbEntity
8
1
100
AcDbLine
6
CONTINUOUS
62
5
10
74.000000
20
6.625000
11
79.750000
21
6.625000
0
POLYLINE
5
2b6
100
AcDbEntity
8
1
6
CONTINUOUS
62
5
100
AcDb2dPolyline
66
1
10
0.0
20
0.0
30
0.0
70
0
0
VERTEX
5
2b7
100
AcDbEntity
8
1
100
AcDbVertex
100
AcDb2dVertex
62
5
10
76.750000
20
4.125000
0
VERTEX
5
2b8
100
AcDbEntity
8
1
100
AcDbVertex
100
AcDb2dVertex
62
5
10
76.000000
20
3.187500
0
VERTEX
5
2b9
100
AcDbEntity
8
1
100
AcDbVertex
100
AcDb2dVertex
62
5
10
75.000000
20
2.250000
0
SEQEND
5
2ba
100
AcDbEntity
8
1
0
LINE
5
2bb
100
AcDbEntity
8
1
100
AcDbLine
6
CONTINUOUS
62
5
10
77.250000
20
6.625000
11
77.250000
21
5.687500
0
POLYLINE
5
2bc
100
AcDbEntity
8
1
6
CONTINUOUS
62
5
100
AcDb2dPolyline
66
1
10
0.0
20
0.0
30
0.0
70
0
0
VERTEX
5
2bd
100
AcDbEntity
8
1
100
AcDbVertex
100
AcDb2dVertex
62
5
10
75.250000
20
20.375000
0
VERTEX
5
2be
100
AcDbEntity
8
1
100
AcDbVertex
100
AcDb2dVertex
62
5
10
74.500000
20
18.500000
0
VERTEX
5
2bf
100
AcDbEntity
8
1
100
AcDbVertex
100
AcDb2dVertex
62
5
10
73.250000
20
16.000000
0
SEQEND
5
2c0
100
AcDbEntity
8
1
0
LINE
5
2c1
100
AcDbEntity
8
1
100
AcDbLine
6
CONTINUOUS
62
5
10
74.500000
20
18.500000
11
74.500000
21
11.625000
0
POLYLINE
5
2c2
100
AcDbEntity
8
1
6
CONTINUOUS
62
5
100
AcDb2dPolyline
66
1
10
0.0
20
0.0
30
0.0
70
0
0
VERTEX
5
2c3
100
AcDbEntity
8
1
100
AcDbVertex
100
AcDb2dVertex
62
5
10
77.500000
20
20.375000
0
VERTEX
5
2c4
100
AcDbEntity
8
1
100
AcDbVertex
100
AcDb2dVertex
62
5
10
76.750000
20
18.812500
0
VERTEX
5
2c5
100
AcDbEntity
8
1
100
AcDbVertex
100
AcDb2dVertex
62
5
10
75.250000
20
16.937500
0
SEQEND
5
2c6
100
AcDbEntity
8
1
0
LINE
5
2c7
100
AcDbEntity
8
1
100
AcDbLine
6
CONTINUOUS
62
5
10
76.750000
20
18.812500
11
80.500000
21
18.812500
0
LINE
5
2c8
100
AcDbEntity
8
1
100
AcDbLine
6
CONTINUOUS
62
5
10
77.250000
20
18.812500
11
77.250000
21
11.625000
0
LINE
5
2c9
100
AcDbEntity
8
1
100
AcDbLine
6
CONTINUOUS
62
5
10
77.250000
20
16.625000
11
79.750000
21
16.625000
0
LINE
5
2ca
100
AcDbEntity
8
1
100
AcDbLine
6
CONTINUOUS
62
5
10
77.250000
20
14.125000
11
79.750000
21
14.125000
0
LINE
5
2cb
100
AcDbEntity
8
1
100
AcDbLine
6
CONTINUOUS
62
5
10
77.500000
20
-17.500000
11
80.625000
21
-17.500000
0
LINE
5
2cc
100
AcDbEntity
8
1
100
AcDbLine
6
CONTINUOUS
62
5
10
79.062500
20
-17.500000
11
79.062500
21
-25.000000
0
POLYLINE
5
2cd
100
AcDbEntity
8
6
6
DOT2
62
5
100
AcDb2dPolyline
66
1
10
0.0
20
0.0
30
0.0
70
0
0
VERTEX
5
2ce
100
AcDbEntity
8
6
100
AcDbVertex
100
AcDb2dVertex
62
5
10
153.750000
20
-79.250021
0
VERTEX
5
2cf
100
AcDbEntity
8
6
100
AcDbVertex
100
AcDb2dVertex
62
5
10
150.937500
20
-84.875021
0
VERTEX
5
2d0
100
AcDbEntity
8
6
100
AcDbVertex
100
AcDb2dVertex
62
5
10
154.687500
20
-84.875021
0
SEQEND
5
2d1
100
AcDbEntity
8
6
0
LINE
5
2d2
100
AcDbEntity
8
6
100
AcDbLine
6
DOT2
62
5
10
153.750000
20
-79.250021
11
153.750000
21
-86.750021
0
LINE
5
2d3
100
AcDbEntity
8
6
100
AcDbLine
6
DOT2
62
5
10
153.125000
20
-86.750021
11
154.375000
21
-86.750021
0
POLYLINE
5
2d4
100
AcDbEntity
8
6
6
DOT2
62
5
100
AcDb2dPolyline
66
1
10
0.0
20
0.0
30
0.0
70
0
0
VERTEX
5
2d5
100
AcDbEntity
8
6
100
AcDbVertex
100
AcDb2dVertex
62
5
10
156.250000
20
-81.125021
0
VERTEX
5
2d6
100
AcDbEntity
8
6
100
AcDbVertex
100
AcDb2dVertex
62
5
10
156.562500
20
-79.875021
0
VERTEX
5
2d7
100
AcDbEntity
8
6
100
AcDbVertex
100
AcDb2dVertex
62
5
10
157.187500
20
-79.250021
0
VERTEX
5
2d8
100
AcDbEntity
8
6
100
AcDbVertex
100
AcDb2dVertex
62
5
10
158.125000
20
-79.250021
0
VERTEX
5
2d9
100
AcDbEntity
8
6
100
AcDbVertex
100
AcDb2dVertex
62
5
10
158.750000
20
-79.562521
0
VERTEX
5
2da
100
AcDbEntity
8
6
100
AcDbVertex
100
AcDb2dVertex
62
5
10
159.062500
20
-80.500021
0
VERTEX
5
2db
100
AcDbEntity
8
6
100
AcDbVertex
100
AcDb2dVertex
62
5
10
159.062500
20
-81.750021
0
VERTEX
5
2dc
100
AcDbEntity
8
6
100
AcDbVertex
100
AcDb2dVertex
62
5
10
158.750000
20
-82.375021
0
VERTEX
5
2dd
100
AcDbEntity
8
6
100
AcDbVertex
100
AcDb2dVertex
62
5
10
158.125000
20
-83.000021
0
VERTEX
5
2de
100
AcDbEntity
8
6
100
AcDbVertex
100
AcDb2dVertex
62
5
10
157.187500
20
-83.000021
0
SEQEND
5
2df
100
AcDbEntity
8
6
0
POLYLINE
5
2e0
100
AcDbEntity
8
6
6
DOT2
62
5
100
AcDb2dPolyline
66
1
10
0.0
20
0.0
30
0.0
70
0
0
VERTEX
5
2e1
100
AcDbEntity
8
6
100
AcDbVertex
100
AcDb2dVertex
62
5
10
158.125000
20
-83.000021
0
VERTEX
5
2e2
100
AcDbEntity
8
6
100
AcDbVertex
100
AcDb2dVertex
62
5
10
159.062500
20
-83.625021
0
VERTEX
5
2e3
100
AcDbEntity
8
6
100
AcDbVertex
100
AcDb2dVertex
62
5
10
159.375000
20
-84.562521
0
VERTEX
5
2e4
100
AcDbEntity
8
6
100
AcDbVertex
100
AcDb2dVertex
62
5
10
159.375000
20
-85.500021
0
VERTEX
5
2e5
100
AcDbEntity
8
6
100
AcDbVertex
100
AcDb2dVertex
62
5
10
159.062500
20
-86.125021
0
VERTEX
5
2e6
100
AcDbEntity
8
6
100
AcDbVertex
100
AcDb2dVertex
62
5
10
158.125000
20
-86.750021
0
VERTEX
5
2e7
100
AcDbEntity
8
6
100
AcDbVertex
100
AcDb2dVertex
62
5
10
157.187500
20
-86.750021
0
VERTEX
5
2e8
100
AcDbEntity
8
6
100
AcDbVertex
100
AcDb2dVertex
62
5
10
156.562500
20
-86.437521
0
VERTEX
5
2e9
100
AcDbEntity
8
6
100
AcDbVertex
100
AcDb2dVertex
62
5
10
155.937500
20
-85.500021
0
SEQEND
5
2ea
100
AcDbEntity
8
6
0
LINE
5
2eb
100
AcDbEntity
8
6
100
AcDbLine
6
CONTINUOUS
62
5
10
181.600000
20
-121.500021
11
181.600000
21
-86.000021
0
LINE
5
2ec
100
AcDbEntity
8
6
100
AcDbLine
6
CONTINUOUS
62
5
10
138.400000
20
-121.500021
11
138.400000
21
-86.000021
0
POLYLINE
5
2ed
100
AcDbEntity
8
6
6
CONTINUOUS
62
5
100
AcDb2dPolyline
66
1
10
0.0
20
0.0
30
0.0
70
0
0
VERTEX
5
2ee
100
AcDbEntity
8
6
100
AcDbVertex
100
AcDb2dVertex
62
5
10
160.000000
20
-88.000021
0
VERTEX
5
2ef
100
AcDbEntity
8
6
100
AcDbVertex
100
AcDb2dVertex
62
5
10
138.400000
20
-88.000021
0
VERTEX
5
2f0
100
AcDbEntity
8
6
100
AcDbVertex
100
AcDb2dVertex
62
5
10
144.400000
20
-87.000021
0
VERTEX
5
2f1
100
AcDbEntity
8
6
100
AcDbVertex
100
AcDb2dVertex
62
5
10
144.400000
20
-89.000021
0
VERTEX
5
2f2
100
AcDbEntity
8
6
100
AcDbVertex
100
AcDb2dVertex
62
5
10
138.400000
20
-88.000021
0
VERTEX
5
2f3
100
AcDbEntity
8
6
100
AcDbVertex
100
AcDb2dVertex
62
5
10
144.400000
20
-87.500021
0
VERTEX
5
2f4
100
AcDbEntity
8
6
100
AcDbVertex
100
AcDb2dVertex
62
5
10
144.400000
20
-88.500021
0
VERTEX
5
2f5
100
AcDbEntity
8
6
100
AcDbVertex
100
AcDb2dVertex
62
5
10
138.400000
20
-88.000021
0
SEQEND
5
2f6
100
AcDbEntity
8
6
0
POLYLINE
5
2f7
100
AcDbEntity
8
6
6
CONTINUOUS
62
5
100
AcDb2dPolyline
66
1
10
0.0
20
0.0
30
0.0
70
0
0
VERTEX
5
2f8
100
AcDbEntity
8
6
100
AcDbVertex
100
AcDb2dVertex
62
5
10
160.000000
20
-88.000021
0
VERTEX
5
2f9
100
AcDbEntity
8
6
100
AcDbVertex
100
AcDb2dVertex
62
5
10
181.600000
20
-88.000021
0
VERTEX
5
2fa
100
AcDbEntity
8
6
100
AcDbVertex
100
AcDb2dVertex
62
5
10
175.600000
20
-89.000021
0
VERTEX
5
2fb
100
AcDbEntity
8
6
100
AcDbVertex
100
AcDb2dVertex
62
5
10
175.600000
20
-87.000021
0
VERTEX
5
2fc
100
AcDbEntity
8
6
100
AcDbVertex
100
AcDb2dVertex
62
5
10
181.600000
20
-88.000021
0
VERTEX
5
2fd
100
AcDbEntity
8
6
100
AcDbVertex
100
AcDb2dVertex
62
5
10
175.600000
20
-88.500021
0
VERTEX
5
2fe
100
AcDbEntity
8
6
100
AcDbVertex
100
AcDb2dVertex
62
5
10
175.600000
20
-87.500021
0
VERTEX
5
2ff
100
AcDbEntity
8
6
100
AcDbVertex
100
AcDb2dVertex
62
5
10
181.600000
20
-88.000021
0
SEQEND
5
300
100
AcDbEntity
8
6
0
LINE
5
301
100
AcDbEntity
8
1
100
AcDbLine
6
CONTINUOUS
62
5
10
0.000000
20
0.000000
11
320.000000
21
0.000000
0
LINE
5
302
100
AcDbEntity
8
1
100
AcDbLine
6
CONTINUOUS
62
5
10
0.000000
20
0.000000
11
320.000000
21
0.000000
0
LINE
5
303
100
AcDbEntity
8
4
100
AcDbLine
6
DOT2
62
5
10
204.725000
20
-161.425021
11
205.350000
21
-162.050021
0
POLYLINE
5
304
100
AcDbEntity
8
4
6
DOT2
62
5
100
AcDb2dPolyline
66
1
10
0.0
20
0.0
30
0.0
70
0
0
VERTEX
5
305
100
AcDbEntity
8
4
100
AcDbVertex
100
AcDb2dVertex
62
5
10
204.725000
20
-162.050021
0
VERTEX
5
306
100
AcDbEntity
8
4
100
AcDbVertex
100
AcDb2dVertex
62
5
10
205.350000
20
-161.425021
0
VERTEX
5
307
100
AcDbEntity
8
4
100
AcDbVertex
100
AcDb2dVertex
62
5
10
205.350000
20
-162.050021
0
VERTEX
5
308
100
AcDbEntity
8
4
100
AcDbVertex
100
AcDb2dVertex
62
5
10
204.725000
20
-162.050021
0
VERTEX
5
309
100
AcDbEntity
8
4
100
AcDbVertex
100
AcDb2dVertex
62
5
10
204.725000
20
-161.425021
0
VERTEX
5
30a
100
AcDbEntity
8
4
100
AcDbVertex
100
AcDb2dVertex
62
5
10
205.350000
20
-161.425021
0
SEQEND
5
30b
100
AcDbEntity
8
4
0
POLYLINE
5
30c
100
AcDbEntity
8
4
6
DOT2
62
5
100
AcDb2dPolyline
66
1
10
0.0
20
0.0
30
0.0
70
0
0
VERTEX
5
30d
100
AcDbEntity
8
4
100
AcDbVertex
100
AcDb2dVertex
62
5
10
199.725000
20
-172.050021
0
VERTEX
5
30e
100
AcDbEntity
8
4
100
AcDbVertex
100
AcDb2dVertex
62
5
10
198.475000
20
-171.737521
0
VERTEX
5
30f
100
AcDbEntity
8
4
100
AcDbVertex
100
AcDb2dVertex
62
5
10
197.850000
20
-171.112521
0
VERTEX
5
310
100
AcDbEntity
8
4
100
AcDbVertex
100
AcDb2dVertex
62
5
10
197.850000
20
-170.175021
0
VERTEX
5
311
100
AcDbEntity
8
4
100
AcDbVertex
100
AcDb2dVertex
62
5
10
198.162500
20
-169.550021
0
VERTEX
5
312
100
AcDbEntity
8
4
100
AcDbVertex
100
AcDb2dVertex
62
5
10
199.100000
20
-169.237521
0
VERTEX
5
313
100
AcDbEntity
8
4
100
AcDbVertex
100
AcDb2dVertex
62
5
10
200.350000
20
-169.237521
0
VERTEX
5
314
100
AcDbEntity
8
4
100
AcDbVertex
100
AcDb2dVertex
62
5
10
200.975000
20
-169.550021
0
VERTEX
5
315
100
AcDbEntity
8
4
100
AcDbVertex
100
AcDb2dVertex
62
5
10
201.600000
20
-170.175021
0
VERTEX
5
316
100
AcDbEntity
8
4
100
AcDbVertex
100
AcDb2dVertex
62
5
10
201.600000
20
-171.112521
0
SEQEND
5
317
100
AcDbEntity
8
4
0
POLYLINE
5
318
100
AcDbEntity
8
4
6
DOT2
62
5
100
AcDb2dPolyline
66
1
10
0.0
20
0.0
30
0.0
70
0
0
VERTEX
5
319
100
AcDbEntity
8
4
100
AcDbVertex
100
AcDb2dVertex
62
5
10
201.600000
20
-170.175021
0
VERTEX
5
31a
100
AcDbEntity
8
4
100
AcDbVertex
100
AcDb2dVertex
62
5
10
202.225000
20
-169.237521
0
VERTEX
5
31b
100
AcDbEntity
8
4
100
AcDbVertex
100
AcDb2dVertex
62
5
10
203.162500
20
-168.925021
0
VERTEX
5
31c
100
AcDbEntity
8
4
100
AcDbVertex
100
AcDb2dVertex
62
5
10
204.100000
20
-168.925021
0
VERTEX
5
31d
100
AcDbEntity
8
4
100
AcDbVertex
100
AcDb2dVertex
62
5
10
204.725000
20
-169.237521
0
VERTEX
5
31e
100
AcDbEntity
8
4
100
AcDbVertex
100
AcDb2dVertex
62
5
10
205.350000
20
-170.175021
0
VERTEX
5
31f
100
AcDbEntity
8
4
100
AcDbVertex
100
AcDb2dVertex
62
5
10
205.350000
20
-171.112521
0
VERTEX
5
320
100
AcDbEntity
8
4
100
AcDbVertex
100
AcDb2dVertex
62
5
10
205.037500
20
-171.737521
0
VERTEX
5
321
100
AcDbEntity
8
4
100
AcDbVertex
100
AcDb2dVertex
62
5
10
204.100000
20
-172.362521
0
SEQEND
5
322
100
AcDbEntity
8
4
0
POLYLINE
5
323
100
AcDbEntity
8
4
6
DOT2
62
5
100
AcDb2dPolyline
66
1
10
0.0
20
0.0
30
0.0
70
1
0
VERTEX
5
324
100
AcDbEntity
8
4
100
AcDbVertex
100
AcDb2dVertex
62
5
10
197.850000
20
-165.800021
0
VERTEX
5
325
100
AcDbEntity
8
4
100
AcDbVertex
100
AcDb2dVertex
62
5
10
197.850000
20
-165.175021
0
VERTEX
5
326
100
AcDbEntity
8
4
100
AcDbVertex
100
AcDb2dVertex
62
5
10
198.162500
20
-164.862521
0
VERTEX
5
327
100
AcDbEntity
8
4
100
AcDbVertex
100
AcDb2dVertex
62
5
10
199.412500
20
-164.237521
0
VERTEX
5
328
100
AcDbEntity
8
4
100
AcDbVertex
100
AcDb2dVertex
62
5
10
200.662500
20
-163.925021
0
VERTEX
5
329
100
AcDbEntity
8
4
100
AcDbVertex
100
AcDb2dVertex
62
5
10
202.537500
20
-163.925021
0
VERTEX
5
32a
100
AcDbEntity
8
4
100
AcDbVertex
100
AcDb2dVertex
62
5
10
203.787500
20
-164.237521
0
VERTEX
5
32b
100
AcDbEntity
8
4
100
AcDbVertex
100
AcDb2dVertex
62
5
10
205.037500
20
-164.862521
0
VERTEX
5
32c
100
AcDbEntity
8
4
100
AcDbVertex
100
AcDb2dVertex
62
5
10
205.350000
20
-165.175021
0
VERTEX
5
32d
100
AcDbEntity
8
4
100
AcDbVertex
100
AcDb2dVertex
62
5
10
205.350000
20
-165.800021
0
VERTEX
5
32e
100
AcDbEntity
8
4
100
AcDbVertex
100
AcDb2dVertex
62
5
10
205.037500
20
-166.112521
0
VERTEX
5
32f
100
AcDbEntity
8
4
100
AcDbVertex
100
AcDb2dVertex
62
5
10
203.787500
20
-166.737521
0
VERTEX
5
330
100
AcDbEntity
8
4
100
AcDbVertex
100
AcDb2dVertex
62
5
10
202.537500
20
-167.050021
0
VERTEX
5
331
100
AcDbEntity
8
4
100
AcDbVertex
100
AcDb2dVertex
62
5
10
200.662500
20
-167.050021
0
VERTEX
5
332
100
AcDbEntity
8
4
100
AcDbVertex
100
AcDb2dVertex
62
5
10
199.412500
20
-166.737521
0
VERTEX
5
333
100
AcDbEntity
8
4
100
AcDbVertex
100
AcDb2dVertex
62
5
10
198.162500
20
-166.112521
0
VERTEX
5
334
100
AcDbEntity
8
4
100
AcDbVertex
100
AcDb2dVertex
62
5
10
197.850000
20
-165.800021
0
SEQEND
5
335
100
AcDbEntity
8
4
0
POLYLINE
5
336
100
AcDbEntity
8
4
6
DOT2
62
5
100
AcDb2dPolyline
66
1
10
0.0
20
0.0
30
0.0
70
0
0
VERTEX
5
337
100
AcDbEntity
8
4
100
AcDbVertex
100
AcDb2dVertex
62
5
10
199.725000
20
-157.050021
0
VERTEX
5
338
100
AcDbEntity
8
4
100
AcDbVertex
100
AcDb2dVertex
62
5
10
198.475000
20
-156.737521
0
VERTEX
5
339
100
AcDbEntity
8
4
100
AcDbVertex
100
AcDb2dVertex
62
5
10
197.850000
20
-156.112521
0
VERTEX
5
33a
100
AcDbEntity
8
4
100
AcDbVertex
100
AcDb2dVertex
62
5
10
197.850000
20
-155.175021
0
VERTEX
5
33b
100
AcDbEntity
8
4
100
AcDbVertex
100
AcDb2dVertex
62
5
10
198.162500
20
-154.550021
0
VERTEX
5
33c
100
AcDbEntity
8
4
100
AcDbVertex
100
AcDb2dVertex
62
5
10
199.100000
20
-154.237521
0
VERTEX
5
33d
100
AcDbEntity
8
4
100
AcDbVertex
100
AcDb2dVertex
62
5
10
200.350000
20
-154.237521
0
VERTEX
5
33e
100
AcDbEntity
8
4
100
AcDbVertex
100
AcDb2dVertex
62
5
10
200.975000
20
-154.550021
0
VERTEX
5
33f
100
AcDbEntity
8
4
100
AcDbVertex
100
AcDb2dVertex
62
5
10
201.600000
20
-155.175021
0
VERTEX
5
340
100
AcDbEntity
8
4
100
AcDbVertex
100
AcDb2dVertex
62
5
10
201.600000
20
-156.112521
0
SEQEND
5
341
100
AcDbEntity
8
4
0
POLYLINE
5
342
100
AcDbEntity
8
4
6
DOT2
62
5
100
AcDb2dPolyline
66
1
10
0.0
20
0.0
30
0.0
70
0
0
VERTEX
5
343
100
AcDbEntity
8
4
100
AcDbVertex
100
AcDb2dVertex
62
5
10
201.600000
20
-155.175021
0
VERTEX
5
344
100
AcDbEntity
8
4
100
AcDbVertex
100
AcDb2dVertex
62
5
10
202.225000
20
-154.237521
0
VERTEX
5
345
100
AcDbEntity
8
4
100
AcDbVertex
100
AcDb2dVertex
62
5
10
203.162500
20
-153.925021
0
VERTEX
5
346
100
AcDbEntity
8
4
100
AcDbVertex
100
AcDb2dVertex
62
5
10
204.100000
20
-153.925021
0
VERTEX
5
347
100
AcDbEntity
8
4
100
AcDbVertex
100
AcDb2dVertex
62
5
10
204.725000
20
-154.237521
0
VERTEX
5
348
100
AcDbEntity
8
4
100
AcDbVertex
100
AcDb2dVertex
62
5
10
205.350000
20
-155.175021
0
VERTEX
5
349
100
AcDbEntity
8
4
100
AcDbVertex
100
AcDb2dVertex
62
5
10
205.350000
20
-156.112521
0
VERTEX
5
34a
100
AcDbEntity
8
4
100
AcDbVertex
100
AcDb2dVertex
62
5
10
205.037500
20
-156.737521
0
VERTEX
5
34b
100
AcDbEntity
8
4
100
AcDbVertex
100
AcDb2dVertex
62
5
10
204.100000
20
-157.362521
0
SEQEND
5
34c
100
AcDbEntity
8
4
0
ARC
5
34d
100
AcDbEntity
8
3
100
AcDbCircle
6
CONTINUOUS
62
5
10
171.207311
20
-204.046978
40
0.300000
100
AcDbArc
50
-86.775477
51
-1.495249
0
LINE
5
34e
100
AcDbEntity
8
3
100
AcDbLine
6
CONTINUOUS
62
5
10
171.526912
20
-203.299978
11
171.507209
21
-204.054806
0
ARC
5
34f
100
AcDbEntity
8
5
100
AcDbCircle
6
CONTINUOUS
62
5
10
164.661782
20
-204.549978
40
0.250000
100
AcDbArc
50
-170.537676
51
-89.999999
0
LINE
5
350
100
AcDbEntity
8
5
100
AcDbLine
6
CONTINUOUS
62
5
10
164.415183
20
-204.591078
11
164.250000
21
-203.599978
0
LINE
5
351
100
AcDbEntity
8
5
100
AcDbLine
6
CONTINUOUS
62
5
10
166.286016
20
-202.999979
11
166.213118
21
-204.563846
0
ARC
5
352
100
AcDbEntity
8
5
100
AcDbCircle
6
CONTINUOUS
62
5
10
165.963503
20
-204.549978
40
0.250000
100
AcDbArc
50
-89.999999
51
-3.179830
0
LINE
5
353
100
AcDbEntity
8
5
100
AcDbLine
6
CONTINUOUS
62
5
10
165.963503
20
-204.799978
11
164.661782
21
-204.799978
0
POLYLINE
5
354
100
AcDbEntity
8
5
6
CONTINUOUS
62
5
100
AcDb2dPolyline
66
1
10
0.0
20
0.0
30
0.0
70
0
0
VERTEX
5
355
100
AcDbEntity
8
5
100
AcDbVertex
100
AcDb2dVertex
62
5
10
162.000000
20
-202.999979
0
VERTEX
5
356
100
AcDbEntity
8
5
100
AcDbVertex
100
AcDb2dVertex
62
5
10
162.000000
20
-203.600277
0
VERTEX
5
357
100
AcDbEntity
8
5
100
AcDbVertex
100
AcDb2dVertex
62
5
10
164.250000
20
-203.600277
0
VERTEX
5
358
100
AcDbEntity
8
5
100
AcDbVertex
100
AcDb2dVertex
62
5
10
164.250000
20
-202.999979
0
SEQEND
5
359
100
AcDbEntity
8
5
0
POLYLINE
5
35a
100
AcDbEntity
8
3
6
CONTINUOUS
62
5
100
AcDb2dPolyline
66
1
10
0.0
20
0.0
30
0.0
70
0
0
VERTEX
5
35b
100
AcDbEntity
8
3
100
AcDbVertex
100
AcDb2dVertex
62
5
10
168.000000
20
-202.999979
0
VERTEX
5
35c
100
AcDbEntity
8
3
100
AcDbVertex
100
AcDb2dVertex
62
5
10
169.500000
20
-202.999979
0
VERTEX
5
35d
100
AcDbEntity
8
3
100
AcDbVertex
100
AcDb2dVertex
62
5
10
170.500000
20
-203.299978
0
SEQEND
5
35e
100
AcDbEntity
8
3
0
ARC
5
35f
100
AcDbEntity
8
3
100
AcDbCircle
6
CONTINUOUS
62
5
10
168.712086
20
-204.187554
40
0.300000
100
AcDbArc
50
-161.565047
51
-86.775477
0
POLYLINE
5
360
100
AcDbEntity
8
3
6
CONTINUOUS
62
5
100
AcDb2dPolyline
66
1
10
0.0
20
0.0
30
0.0
70
0
0
VERTEX
5
361
100
AcDbEntity
8
3
100
AcDbVertex
100
AcDb2dVertex
62
5
10
168.728961
20
-204.487079
0
VERTEX
5
362
100
AcDbEntity
8
3
100
AcDbVertex
100
AcDb2dVertex
62
5
10
172.050000
20
-204.299978
0
VERTEX
5
363
100
AcDbEntity
8
3
100
AcDbVertex
100
AcDb2dVertex
62
5
10
172.228730
20
-203.299978
0
SEQEND
5
364
100
AcDbEntity
8
3
0
LINE
5
365
100
AcDbEntity
8
3
100
AcDbLine
6
CONTINUOUS
62
5
10
168.000000
20
-202.999979
11
168.427481
21
-204.282422
0
POLYLINE
5
366
100
AcDbEntity
8
3
6
CONTINUOUS
62
5
100
AcDb2dPolyline
66
1
10
0.0
20
0.0
30
0.0
70
0
0
VERTEX
5
367
100
AcDbEntity
8
3
100
AcDbVertex
100
AcDb2dVertex
62
5
10
149.500000
20
-203.299978
0
VERTEX
5
368
100
AcDbEntity
8
3
100
AcDbVertex
100
AcDb2dVertex
62
5
10
150.500000
20
-202.999979
0
VERTEX
5
369
100
AcDbEntity
8
3
100
AcDbVertex
100
AcDb2dVertex
62
5
10
152.000000
20
-202.999979
0
SEQEND
5
36a
100
AcDbEntity
8
3
0
POLYLINE
5
36b
100
AcDbEntity
8
5
6
CONTINUOUS
62
5
100
AcDb2dPolyline
66
1
10
0.0
20
0.0
30
0.0
70
0
0
VERTEX
5
36c
100
AcDbEntity
8
5
100
AcDbVertex
100
AcDb2dVertex
62
5
10
158.000000
20
-202.999979
0
VERTEX
5
36d
100
AcDbEntity
8
5
100
AcDbVertex
100
AcDb2dVertex
62
5
10
158.000000
20
-203.600277
0
VERTEX
5
36e
100
AcDbEntity
8
5
100
AcDbVertex
100
AcDb2dVertex
62
5
10
155.750000
20
-203.600277
0
VERTEX
5
36f
100
AcDbEntity
8
5
100
AcDbVertex
100
AcDb2dVertex
62
5
10
155.750000
20
-202.999979
0
SEQEND
5
370
100
AcDbEntity
8
5
0
ARC
5
371
100
AcDbEntity
8
5
100
AcDbCircle
6
CONTINUOUS
62
5
10
155.338227
20
-204.549978
40
0.250000
100
AcDbArc
50
-89.999999
51
-9.464637
0
LINE
5
372
100
AcDbEntity
8
5
100
AcDbLine
6
CONTINUOUS
62
5
10
155.584824
20
-204.591088
11
155.750000
21
-203.600277
0
LINE
5
373
100
AcDbEntity
8
5
100
AcDbLine
6
CONTINUOUS
62
5
10
153.714286
20
-202.999979
11
153.788661
21
-204.561870
0
ARC
5
374
100
AcDbEntity
8
5
100
AcDbCircle
6
CONTINUOUS
62
5
10
154.038379
20
-204.549978
40
0.250000
100
AcDbArc
50
-177.273687
51
-89.999999
0
LINE
5
375
100
AcDbEntity
8
5
100
AcDbLine
6
CONTINUOUS
62
5
10
154.038379
20
-204.799978
11
155.338227
21
-204.799978
0
ARC
5
376
100
AcDbEntity
8
3
100
AcDbCircle
6
CONTINUOUS
62
5
10
148.792689
20
-204.046978
40
0.300000
100
AcDbArc
50
-178.504750
51
-93.224522
0
LINE
5
377
100
AcDbEntity
8
3
100
AcDbLine
6
CONTINUOUS
62
5
10
148.473088
20
-203.299978
11
148.492791
21
-204.054806
0
ARC
5
378
100
AcDbEntity
8
3
100
AcDbCircle
6
CONTINUOUS
62
5
10
151.287914
20
-204.187554
40
0.300000
100
AcDbArc
50
-93.224522
51
-18.434951
0
POLYLINE
5
379
100
AcDbEntity
8
3
6
CONTINUOUS
62
5
100
AcDb2dPolyline
66
1
10
0.0
20
0.0
30
0.0
70
0
0
VERTEX
5
37a
100
AcDbEntity
8
3
100
AcDbVertex
100
AcDb2dVertex
62
5
10
151.271039
20
-204.487079
0
VERTEX
5
37b
100
AcDbEntity
8
3
100
AcDbVertex
100
AcDb2dVertex
62
5
10
147.950000
20
-204.299978
0
VERTEX
5
37c
100
AcDbEntity
8
3
100
AcDbVertex
100
AcDb2dVertex
62
5
10
147.771270
20
-203.299978
0
SEQEND
5
37d
100
AcDbEntity
8
3
0
LINE
5
37e
100
AcDbEntity
8
3
100
AcDbLine
6
CONTINUOUS
62
5
10
152.000000
20
-202.999979
11
151.572519
21
-204.282422
0
LINE
5
37f
100
AcDbEntity
8
3
100
AcDbLine
6
CONTINUOUS
62
5
10
152.000000
20
-202.999979
11
168.000000
21
-202.999979
0
ARC
5
380
100
AcDbEntity
8
3
100
AcDbCircle
6
CONTINUOUS
62
5
10
139.257914
20
-199.230829
40
0.500000
100
AcDbArc
50
92.379931
51
174.999998
0
ARC
5
381
100
AcDbEntity
8
3
100
AcDbCircle
6
CONTINUOUS
62
5
10
159.999999
20
-698.299978
40
500.000000
100
AcDbArc
50
87.620068
51
92.379931
0
ARC
5
382
100
AcDbEntity
8
3
100
AcDbCircle
6
CONTINUOUS
62
5
10
180.742086
20
-199.230829
40
0.500000
100
AcDbArc
50
5.000000
51
87.620068
0
POLYLINE
5
383
100
AcDbEntity
8
3
6
CONTINUOUS
62
5
100
AcDb2dPolyline
66
1
10
0.0
20
0.0
30
0.0
70
0
0
VERTEX
5
384
100
AcDbEntity
8
3
100
AcDbVertex
100
AcDb2dVertex
62
5
10
181.240183
20
-199.187251
0
VERTEX
5
385
100
AcDbEntity
8
3
100
AcDbVertex
100
AcDb2dVertex
62
5
10
181.600000
20
-203.299978
0
VERTEX
5
386
100
AcDbEntity
8
3
100
AcDbVertex
100
AcDb2dVertex
62
5
10
170.500000
20
-203.299978
0
SEQEND
5
387
100
AcDbEntity
8
3
0
POLYLINE
5
388
100
AcDbEntity
8
3
6
CONTINUOUS
62
5
100
AcDb2dPolyline
66
1
10
0.0
20
0.0
30
0.0
70
0
0
VERTEX
5
389
100
AcDbEntity
8
3
100
AcDbVertex
100
AcDb2dVertex
62
5
10
149.500000
20
-203.299978
0
VERTEX
5
38a
100
AcDbEntity
8
3
100
AcDbVertex
100
AcDb2dVertex
62
5
10
138.400000
20
-203.299978
0
VERTEX
5
38b
100
AcDbEntity
8
3
100
AcDbVertex
100
AcDb2dVertex
62
5
10
138.759817
20
-199.187251
0
SEQEND
5
38c
100
AcDbEntity
8
3
0
LINE
5
38d
100
AcDbEntity
8
4
100
AcDbLine
6
CONTINUOUS
62
5
10
161.500000
20
-113.000021
11
208.600000
21
-113.000021
0
LINE
5
38e
100
AcDbEntity
8
4
100
AcDbLine
6
CONTINUOUS
62
5
10
161.500000
20
-143.300021
11
208.600000
21
-143.300021
0
POLYLINE
5
38f
100
AcDbEntity
8
4
6
CONTINUOUS
62
5
100
AcDb2dPolyline
66
1
10
0.0
20
0.0
30
0.0
70
0
0
VERTEX
5
390
100
AcDbEntity
8
4
100
AcDbVertex
100
AcDb2dVertex
62
5
10
206.600000
20
-174.550021
0
VERTEX
5
391
100
AcDbEntity
8
4
100
AcDbVertex
100
AcDb2dVertex
62
5
10
206.600000
20
-143.300021
0
VERTEX
5
392
100
AcDbEntity
8
4
100
AcDbVertex
100
AcDb2dVertex
62
5
10
207.600000
20
-149.300021
0
VERTEX
5
393
100
AcDbEntity
8
4
100
AcDbVertex
100
AcDb2dVertex
62
5
10
205.600000
20
-149.300021
0
VERTEX
5
394
100
AcDbEntity
8
4
100
AcDbVertex
100
AcDb2dVertex
62
5
10
206.600000
20
-143.300021
0
VERTEX
5
395
100
AcDbEntity
8
4
100
AcDbVertex
100
AcDb2dVertex
62
5
10
207.100000
20
-149.300021
0
VERTEX
5
396
100
AcDbEntity
8
4
100
AcDbVertex
100
AcDb2dVertex
62
5
10
206.100000
20
-149.300021
0
VERTEX
5
397
100
AcDbEntity
8
4
100
AcDbVertex
100
AcDb2dVertex
62
5
10
206.600000
20
-143.300021
0
SEQEND
5
398
100
AcDbEntity
8
4
0
LINE
5
399
100
AcDbEntity
8
4
100
AcDbLine
6
CONTINUOUS
62
5
10
206.600000
20
-143.300021
11
206.600000
21
-113.000021
0
POLYLINE
5
39a
100
AcDbEntity
8
4
6
CONTINUOUS
62
5
100
AcDb2dPolyline
66
1
10
0.0
20
0.0
30
0.0
70
0
0
VERTEX
5
39b
100
AcDbEntity
8
4
100
AcDbVertex
100
AcDb2dVertex
62
5
10
206.600000
20
-104.000021
0
VERTEX
5
39c
100
AcDbEntity
8
4
100
AcDbVertex
100
AcDb2dVertex
62
5
10
206.600000
20
-113.000021
0
VERTEX
5
39d
100
AcDbEntity
8
4
100
AcDbVertex
100
AcDb2dVertex
62
5
10
205.600000
20
-107.000021
0
VERTEX
5
39e
100
AcDbEntity
8
4
100
AcDbVertex
100
AcDb2dVertex
62
5
10
207.600000
20
-107.000021
0
VERTEX
5
39f
100
AcDbEntity
8
4
100
AcDbVertex
100
AcDb2dVertex
62
5
10
206.600000
20
-113.000021
0
VERTEX
5
3a0
100
AcDbEntity
8
4
100
AcDbVertex
100
AcDb2dVertex
62
5
10
206.100000
20
-107.000021
0
VERTEX
5
3a1
100
AcDbEntity
8
4
100
AcDbVertex
100
AcDb2dVertex
62
5
10
207.100000
20
-107.000021
0
VERTEX
5
3a2
100
AcDbEntity
8
4
100
AcDbVertex
100
AcDb2dVertex
62
5
10
206.600000
20
-113.000021
0
SEQEND
5
3a3
100
AcDbEntity
8
4
0
ARC
5
3a4
100
AcDbEntity
8
3
100
AcDbCircle
6
CONTINUOUS
62
5
10
138.900000
20
-113.500021
40
0.500000
100
AcDbArc
50
89.999999
51
179.999998
0
LINE
5
3a5
100
AcDbEntity
8
3
100
AcDbLine
6
CONTINUOUS
62
5
10
138.900000
20
-113.000021
11
181.100000
21
-113.000021
0
ARC
5
3a6
100
AcDbEntity
8
3
100
AcDbCircle
6
CONTINUOUS
62
5
10
181.100000
20
-113.500021
40
0.500000
100
AcDbArc
50
0.000000
51
89.999999
0
LINE
5
3a7
100
AcDbEntity
8
3
100
AcDbLine
6
CONTINUOUS
62
5
10
181.600000
20
-113.500021
11
181.600000
21
-142.800021
0
ARC
5
3a8
100
AcDbEntity
8
3
100
AcDbCircle
6
CONTINUOUS
62
5
10
181.100000
20
-142.800021
40
0.500000
100
AcDbArc
50
-89.999999
51
0.000000
0
LINE
5
3a9
100
AcDbEntity
8
3
100
AcDbLine
6
CONTINUOUS
62
5
10
181.100000
20
-143.300021
11
138.900000
21
-143.300021
0
ARC
5
3aa
100
AcDbEntity
8
3
100
AcDbCircle
6
CONTINUOUS
62
5
10
138.900000
20
-142.800021
40
0.500000
100
AcDbArc
50
179.999998
51
-89.999999
0
LINE
5
3ab
100
AcDbEntity
8
3
100
AcDbLine
6
CONTINUOUS
62
5
10
138.400000
20
-142.800021
11
138.400000
21
-113.500021
0
ARC
5
3ac
100
AcDbEntity
8
3
100
AcDbCircle
6
CONTINUOUS
62
5
10
139.298284
20
-113.674625
40
0.500000
100
AcDbArc
50
89.999999
51
179.999998
0
LINE
5
3ad
100
AcDbEntity
8
3
100
AcDbLine
6
CONTINUOUS
62
5
10
139.298284
20
-113.174625
11
180.701716
21
-113.174625
0
ARC
5
3ae
100
AcDbEntity
8
3
100
AcDbCircle
6
CONTINUOUS
62
5
10
180.701716
20
-113.674625
40
0.500000
100
AcDbArc
50
0.000000
51
89.999999
0
LINE
5
3af
100
AcDbEntity
8
3
100
AcDbLine
6
CONTINUOUS
62
5
10
181.201716
20
-113.674625
11
181.201716
21
-142.625418
0
ARC
5
3b0
100
AcDbEntity
8
3
100
AcDbCircle
6
CONTINUOUS
62
5
10
180.701716
20
-142.625418
40
0.500000
100
AcDbArc
50
-89.999999
51
0.000000
0
LINE
5
3b1
100
AcDbEntity
8
3
100
AcDbLine
6
CONTINUOUS
62
5
10
180.701716
20
-143.125418
11
139.298284
21
-143.125418
0
ARC
5
3b2
100
AcDbEntity
8
3
100
AcDbCircle
6
CONTINUOUS
62
5
10
139.298284
20
-142.625418
40
0.500000
100
AcDbArc
50
179.999998
51
-89.999999
0
LINE
5
3b3
100
AcDbEntity
8
3
100
AcDbLine
6
CONTINUOUS
62
5
10
138.798284
20
-142.625418
11
138.798284
21
-113.674625
0
ARC
5
3b4
100
AcDbEntity
8
3
100
AcDbCircle
6
CONTINUOUS
62
5
10
177.600000
20
-139.300021
40
0.500000
100
AcDbArc
50
-89.999999
51
0.000000
0
LINE
5
3b5
100
AcDbEntity
8
3
100
AcDbLine
6
CONTINUOUS
62
5
10
178.100000
20
-139.300021
11
178.100000
21
-117.000021
0
ARC
5
3b6
100
AcDbEntity
8
3
100
AcDbCircle
6
CONTINUOUS
62
5
10
177.600000
20
-117.000021
40
0.500000
100
AcDbArc
50
0.000000
51
89.999999
0
LINE
5
3b7
100
AcDbEntity
8
3
100
AcDbLine
6
CONTINUOUS
62
5
10
177.600000
20
-116.500021
11
142.400000
21
-116.500021
0
ARC
5
3b8
100
AcDbEntity
8
3
100
AcDbCircle
6
CONTINUOUS
62
5
10
142.400000
20
-117.000021
40
0.500000
100
AcDbArc
50
89.999999
51
179.999998
0
LINE
5
3b9
100
AcDbEntity
8
3
100
AcDbLine
6
CONTINUOUS
62
5
10
141.900000
20
-117.000021
11
141.900000
21
-139.300021
0
ARC
5
3ba
100
AcDbEntity
8
3
100
AcDbCircle
6
CONTINUOUS
62
5
10
142.400000
20
-139.300021
40
0.500000
100
AcDbArc
50
179.999998
51
-89.999999
0
LINE
5
3bb
100
AcDbEntity
8
3
100
AcDbLine
6
CONTINUOUS
62
5
10
142.400000
20
-139.800021
11
177.600000
21
-139.800021
0
ARC
5
3bc
100
AcDbEntity
8
2
100
AcDbCircle
6
CONTINUOUS
62
5
10
177.550000
20
-139.250021
40
0.500000
100
AcDbArc
50
-89.999999
51
0.000000
0
LINE
5
3bd
100
AcDbEntity
8
2
100
AcDbLine
6
CONTINUOUS
62
5
10
178.050000
20
-139.250021
11
178.050000
21
-117.050021
0
ARC
5
3be
100
AcDbEntity
8
2
100
AcDbCircle
6
CONTINUOUS
62
5
10
177.550000
20
-117.050021
40
0.500000
100
AcDbArc
50
0.000000
51
89.999999
0
LINE
5
3bf
100
AcDbEntity
8
2
100
AcDbLine
6
CONTINUOUS
62
5
10
177.550000
20
-116.550021
11
142.450000
21
-116.550021
0
ARC
5
3c0
100
AcDbEntity
8
2
100
AcDbCircle
6
CONTINUOUS
62
5
10
142.450000
20
-117.050021
40
0.500000
100
AcDbArc
50
89.999999
51
179.999998
0
LINE
5
3c1
100
AcDbEntity
8
2
100
AcDbLine
6
CONTINUOUS
62
5
10
141.950000
20
-117.050021
11
141.950000
21
-139.250021
0
ARC
5
3c2
100
AcDbEntity
8
2
100
AcDbCircle
6
CONTINUOUS
62
5
10
142.450000
20
-139.250021
40
0.500000
100
AcDbArc
50
179.999998
51
-89.999999
0
LINE
5
3c3
100
AcDbEntity
8
2
100
AcDbLine
6
CONTINUOUS
62
5
10
142.450000
20
-139.750021
11
177.550000
21
-139.750021
0
POLYLINE
5
3c4
100
AcDbEntity
8
1
6
CONTINUOUS
62
5
100
AcDb2dPolyline
66
1
10
0.0
20
0.0
30
0.0
70
1
0
VERTEX
5
3c5
100
AcDbEntity
8
1
100
AcDbVertex
100
AcDb2dVertex
62
5
10
0.000000
20
-308.000000
0
VERTEX
5
3c6
100
AcDbEntity
8
1
100
AcDbVertex
100
AcDb2dVertex
62
5
10
0.000000
20
32.000000
0
VERTEX
5
3c7
100
AcDbEntity
8
1
100
AcDbVertex
100
AcDb2dVertex
62
5
10
320.000000
20
32.000000
0
VERTEX
5
3c8
100
AcDbEntity
8
1
100
AcDbVertex
100
AcDb2dVertex
62
5
10
320.000000
20
-308.000000
0
VERTEX
5
3c9
100
AcDbEntity
8
1
100
AcDbVertex
100
AcDb2dVertex
62
5
10
0.000000
20
-308.000000
0
SEQEND
5
3ca
100
AcDbEntity
8
1
0
POLYLINE
5
3cb
100
AcDbEntity
8
1
6
CONTINUOUS
62
5
100
AcDb2dPolyline
66
1
10
0.0
20
0.0
30
0.0
70
1
0
VERTEX
5
3cc
100
AcDbEntity
8
1
100
AcDbVertex
100
AcDb2dVertex
62
5
10
0.000000
20
-308.000000
0
VERTEX
5
3cd
100
AcDbEntity
8
1
100
AcDbVertex
100
AcDb2dVertex
62
5
10
0.000000
20
32.000000
0
VERTEX
5
3ce
100
AcDbEntity
8
1
100
AcDbVertex
100
AcDb2dVertex
62
5
10
320.000000
20
32.000000
0
VERTEX
5
3cf
100
AcDbEntity
8
1
100
AcDbVertex
100
AcDb2dVertex
62
5
10
320.000000
20
-308.000000
0
VERTEX
5
3d0
100
AcDbEntity
8
1
100
AcDbVertex
100
AcDb2dVertex
62
5
10
0.000000
20
-308.000000
0
SEQEND
5
3d1
100
AcDbEntity
8
1
0
ENDSEC
0
SECTION
2
OBJECTS
0
DICTIONARY
5
3d2
100
AcDbDictionary
3
ACAD_GROUP
350
3d3
3
ACAD_MLINESTYLE
350
3d4
0
DICTIONARY
5
3d3
102
{ACAD_REACTORS
330
3d2
102
}
100
AcDbDictionary
0
DICTIONARY
5
3d4
102
{ACAD_REACTORS
330
3d2
102
}
100
AcDbDictionary
3
STANDARD
350
3d5
0
MLINESTYLE
5
3d5
102
{ACAD_REACTORS
330
3d4
102
}
100
AcDbMlineStyle
2
STANDARD
70
0
3

62
0
51
90.0
52
90.0
71
2
49
0.5
62
256
6
BYLAYER
49
-0.5
62
256
6
BYLAYER
0
ENDSEC
0
EOF
