0
SECTION
2
HEADER
9
$ACADVER
1
AC1012
9
$EXTMIN
10
-1.580000
20
-13.390000
30
0.0
9
$EXTMAX
10
11.030000
20
0.010000
30
0.0
9
$LIMMIN
10
-40.132000
20
-340.106000
9
$LIMMAX
10
280.162000
20
0.254000
9
$DIMSCALE
40
1.000000
9
$PDMODE
70
2
9
$PDSIZE
40
0.0
  9
$HANDSEED
  5
41e
0
ENDSEC
0
SECTION
2
CLASSES
0
ENDSEC
0
SECTION
2
TABLES
0
TABLE
2
LTYPE
5
1e
100
AcDbSymbolTable
70
12
0
LTYPE
5
1f
100
AcDbSymbolTableRecord
100
AcDbLinetypeTableRecord
2
BYBLOCK
70
0
3

72
65
73
0
40
0.0
0
LTYPE
5
20
100
AcDbSymbolTableRecord
100
AcDbLinetypeTableRecord
2
BYLAYER
70
0
3

72
65
73
0
40
0.0
0
LTYPE
5
21
100
AcDbSymbolTableRecord
100
AcDbLinetypeTableRecord
2
CONTINUOUS
70
64
3
Solid line
72
65
73
0
40
0.0
0
LTYPE
5
22
100
AcDbSymbolTableRecord
100
AcDbLinetypeTableRecord
2
DASHED
70
64
3
__ __ __ __ __ __ __ __ __ __ __ __ __ __ __
72
65
73
2
40
0.75
49
0.5
74
0
49
-0.25
74
0
0
LTYPE
5
23
100
AcDbSymbolTableRecord
100
AcDbLinetypeTableRecord
2
DOT
70
64
3
...............................................
72
65
73
2
40
0.25
49
0.0
74
0
49
-0.25
74
0
0
LTYPE
5
24
100
AcDbSymbolTableRecord
100
AcDbLinetypeTableRecord
2
DASHDOT
70
64
3
__ . __ . __ . __ . __ . __ . __ . __ . __ . --
72
65
73
4
40
1.0
49
0.5
74
0
49
-0.25
74
0
49
0.0
74
0
49
-0.25
74
0
0
LTYPE
5
25
100
AcDbSymbolTableRecord
100
AcDbLinetypeTableRecord
2
CENTER
70
64
3
____ _ ____ _ ____ _ ____ _ ____ _ ____ _ ____
72
65
73
4
40
2.0
49
1.25
74
0
49
-0.25
74
0
49
0.25
74
0
49
-0.25
74
0
0
LTYPE
5
26
100
AcDbSymbolTableRecord
100
AcDbLinetypeTableRecord
2
PHANTOM
70
64
3
_____ _ _ _____ _ _ _____ _ _ _____ _ _ ____
72
65
73
6
40
2.5
49
1.25
74
0
49
-0.25
74
0
49
0.25
74
0
49
-0.25
74
0
49
0.25
74
0
49
-0.25
74
0
0
LTYPE
5
27
100
AcDbSymbolTableRecord
100
AcDbLinetypeTableRecord
2
HIDDEN
70
64
3
_ _ _ _ _ _ _ _ _ _ _ _ _ _ _ _ _ _ _ _ _ _ _
72
65
73
2
40
0.375
49
0.25
74
0
49
-0.125
74
0
0
LTYPE
5
28
100
AcDbSymbolTableRecord
100
AcDbLinetypeTableRecord
2
BORDER
70
64
3
__ __ . __ __ . __ __ . __ __ . __ __ . __ __
72
65
73
6
40
1.75
49
0.5
74
0
49
-0.25
74
0
49
0.5
74
0
49
-0.25
74
0
49
0.0
74
0
49
-0.25
74
0
0
LTYPE
5
29
100
AcDbSymbolTableRecord
100
AcDbLinetypeTableRecord
2
DIVIDE
70
64
3
__ . . __ . . __ . . __ . . __ . . __ . . __
72
65
73
6
40
1.25
49
0.5
74
0
49
-0.25
74
0
49
0.0
74
0
49
-0.25
74
0
49
0.0
74
0
49
-0.25
74
0
0
LTYPE
5
2a
100
AcDbSymbolTableRecord
100
AcDbLinetypeTableRecord
2
DOT2
70
64
3
...............................................
72
65
73
2
40
0.125
49
0.0
74
0
49
-0.125
74
0
0
ENDTAB
0
TABLE
2
STYLE
5
2b
100
AcDbSymbolTable
70
1
0
STYLE
5
2c
100
AcDbSymbolTableRecord
100
AcDbTextStyleTableRecord
2
STANDARD
70
64
40
0.0
41
1.0
50
0.0
71
0
42
5.0
3
txt
4
bigfont
0
ENDTAB
0
TABLE
2
LAYER
5
2d
100
AcDbSymbolTable
70
6
0
LAYER
5
2e
100
AcDbSymbolTableRecord
100
AcDbLayerTableRecord
2
0
70
0
62
7
6
CONTINUOUS
0
LAYER
5
2f
100
AcDbSymbolTableRecord
100
AcDbLayerTableRecord
2
1
70
0
62
7
6
CONTINUOUS
0
LAYER
5
30
100
AcDbSymbolTableRecord
100
AcDbLayerTableRecord
2
6
70
0
62
7
6
CONTINUOUS
0
LAYER
5
31
100
AcDbSymbolTableRecord
100
AcDbLayerTableRecord
2
2
70
0
62
7
6
CONTINUOUS
0
LAYER
5
32
100
AcDbSymbolTableRecord
100
AcDbLayerTableRecord
2
3
70
0
62
7
6
CONTINUOUS
0
LAYER
5
33
100
AcDbSymbolTableRecord
100
AcDbLayerTableRecord
2
4
70
0
62
7
6
CONTINUOUS
0
ENDTAB
0
TABLE
2
APPID
5
34
100
AcDbSymbolTable
70
1
0
APPID
5
35
100
AcDbSymbolTableRecord
100
AcDbRegAppTableRecord
2
ACAD
70
64
0
ENDTAB
0
TABLE
2
DIMSTYLE
5
36
100
AcDbSymbolTable
70
0
0
ENDTAB
0
TABLE
2
UCS
5
37
100
AcDbSymbolTable
70
0
0
ENDTAB
0
TABLE
2
VIEW
5
38
100
AcDbSymbolTable
70
0
0
ENDTAB
0
TABLE
2
VPORT
5
39
100
AcDbSymbolTable
70
0
0
ENDTAB
0
TABLE
2
BLOCK_RECORD
5
3a
100
AcDbSymbolTable
70
0
0
BLOCK_RECORD
5
3b
100
AcDbSymbolTableRecord
100
AcDbBlockTableRecord
2
*MODEL_SPACE
0
BLOCK_RECORD
5
3c
100
AcDbSymbolTableRecord
100
AcDbBlockTableRecord
2
*PAPER_SPACE
0
BLOCK_RECORD
5
3d
100
AcDbSymbolTableRecord
100
AcDbBlockTableRecord
2
OPEN
0
BLOCK_RECORD
5
3e
100
AcDbSymbolTableRecord
100
AcDbBlockTableRecord
2
HALF
0
BLOCK_RECORD
5
3f
100
AcDbSymbolTableRecord
100
AcDbBlockTableRecord
2
CLOSEDBLANK
0
BLOCK_RECORD
5
40
100
AcDbSymbolTableRecord
100
AcDbBlockTableRecord
2
HALFCLOSE_R
0
BLOCK_RECORD
5
41
100
AcDbSymbolTableRecord
100
AcDbBlockTableRecord
2
DOT
0
BLOCK_RECORD
5
42
100
AcDbSymbolTableRecord
100
AcDbBlockTableRecord
2
HALFOPEN_R
0
BLOCK_RECORD
5
43
100
AcDbSymbolTableRecord
100
AcDbBlockTableRecord
2
CLOSEDF
0
BLOCK_RECORD
5
44
100
AcDbSymbolTableRecord
100
AcDbBlockTableRecord
2
HALF_R
0
ENDTAB
0
ENDSEC
0
SECTION
2
BLOCKS
0
BLOCK
5
45
100
AcDbEntity
8
0
100
AcDbBlockBegin
2
*MODEL_SPACE
70
0
10
0.0
20
0.0
30
0.0
3
*MODEL_SPACE
1

0
ENDBLK
5
46
100
AcDbEntity
8
0
100
AcDbBlockEnd
0
BLOCK
5
47
100
AcDbEntity
67
1
8
0
100
AcDbBlockBegin
2
*PAPER_SPACE
70
0
10
0.0
20
0.0
30
0.0
3
*PAPER_SPACE
1

0
ENDBLK
5
48
100
AcDbEntity
67
1
8
0
100
AcDbBlockEnd
0
BLOCK
5
49
100
AcDbEntity
8
0
100
AcDbBlockBegin
2
OPEN
70
0
10
0.0
20
0.0
30
0.0
3
OPEN
1

0
LINE
5
4a
100
AcDbEntity
8
0
6
BYBLOCK
62
0
100
AcDbLine
10
0.000000
20
0.000000
11
-1.000000
21
0.000000
0
LINE
5
4b
100
AcDbEntity
8
0
6
BYBLOCK
62
0
100
AcDbLine
10
-1.000000
20
-0.166667
11
0.000000
21
0.000000
0
LINE
5
4c
100
AcDbEntity
8
0
6
BYBLOCK
62
0
100
AcDbLine
10
-1.000000
20
0.166667
11
0.000000
21
0.000000
0
ENDBLK
5
4d
100
AcDbEntity
8
0
100
AcDbBlockEnd
0
BLOCK
5
4e
100
AcDbEntity
8
0
100
AcDbBlockBegin
2
HALF
70
0
10
0.0
20
0.0
30
0.0
3
HALF
1

0
SOLID
5
4f
100
AcDbEntity
8
0
6
BYBLOCK
62
0
100
AcDbTrace
10
-1.000000
20
0.166667
11
-1.000000
21
-0.166667
12
0.000000
22
0.000000
13
0.000000
23
0.000000
0
ENDBLK
5
50
100
AcDbEntity
8
0
100
AcDbBlockEnd
0
BLOCK
5
51
100
AcDbEntity
8
0
100
AcDbBlockBegin
2
CLOSEDBLANK
70
0
10
0.0
20
0.0
30
0.0
3
CLOSEDBLANK
1

0
LINE
5
52
100
AcDbEntity
8
0
6
BYBLOCK
62
0
100
AcDbLine
10
-1.000000
20
0.166667
11
-1.000000
21
-0.166667
0
LINE
5
53
100
AcDbEntity
8
0
6
BYBLOCK
62
0
100
AcDbLine
10
0.000000
20
0.000000
11
-1.000000
21
-0.166667
0
LINE
5
54
100
AcDbEntity
8
0
6
BYBLOCK
62
0
100
AcDbLine
10
-1.000000
20
0.166667
11
0.000000
21
0.000000
0
ENDBLK
5
55
100
AcDbEntity
8
0
100
AcDbBlockEnd
0
BLOCK
5
56
100
AcDbEntity
8
0
100
AcDbBlockBegin
2
HALFCLOSE_R
70
0
10
0.0
20
0.0
30
0.0
3
HALFCLOSE_R
1

0
LINE
5
57
100
AcDbEntity
8
0
6
BYBLOCK
62
0
100
AcDbLine
10
-1.000000
20
-0.166667
11
-1.000000
21
0.000000
0
LINE
5
58
100
AcDbEntity
8
0
6
BYBLOCK
62
0
100
AcDbLine
10
-1.000000
20
-0.166667
11
0.000000
21
0.000000
0
LINE
5
59
100
AcDbEntity
8
0
6
BYBLOCK
62
0
100
AcDbLine
10
0.000000
20
0.000000
11
-1.000000
21
0.000000
0
ENDBLK
5
5a
100
AcDbEntity
8
0
100
AcDbBlockEnd
0
BLOCK
5
5b
100
AcDbEntity
8
0
100
AcDbBlockBegin
2
DOT
70
0
10
0.0
20
0.0
30
0.0
3
DOT
1

0
LINE
5
5c
100
AcDbEntity
8
0
6
BYBLOCK
62
0
100
AcDbLine
10
0.000000
20
0.000000
11
-1.000000
21
0.000000
0
POLYLINE
5
5d
100
AcDbEntity
8
0
6
BYBLOCK
62
0
100
AcDb2dPolyline
66
1
10
0.0
20
0.0
30
0.0
70
1
40
0.166667
41
0.166667
0
VERTEX
5
5e
100
AcDbEntity
8
0
100
AcDbVertex
100
AcDb2dVertex
62
10
10
-0.083333
20
0.000000
42
1.000000
0
VERTEX
5
5f
100
AcDbEntity
8
0
100
AcDbVertex
100
AcDb2dVertex
62
10
10
0.083333
20
0.000000
42
1.000000
0
SEQEND
5
60
100
AcDbEntity
8
0
0
ENDBLK
5
61
100
AcDbEntity
8
0
100
AcDbBlockEnd
0
BLOCK
5
62
100
AcDbEntity
8
0
100
AcDbBlockBegin
2
HALFOPEN_R
70
0
10
0.0
20
0.0
30
0.0
3
HALFOPEN_R
1

0
LINE
5
63
100
AcDbEntity
8
0
6
BYBLOCK
62
0
100
AcDbLine
10
-1.000000
20
-0.166667
11
0.000000
21
0.000000
0
LINE
5
64
100
AcDbEntity
8
0
6
BYBLOCK
62
0
100
AcDbLine
10
0.000000
20
0.000000
11
-1.000000
21
0.000000
0
ENDBLK
5
65
100
AcDbEntity
8
0
100
AcDbBlockEnd
0
BLOCK
5
66
100
AcDbEntity
8
0
100
AcDbBlockBegin
2
CLOSEDF
70
0
10
0.0
20
0.0
30
0.0
3
CLOSEDF
1

0
SOLID
5
67
100
AcDbEntity
8
0
6
BYBLOCK
62
0
100
AcDbTrace
10
-1.000000
20
0.166667
11
-1.000000
21
-0.166667
12
0.000000
22
0.000000
13
0.000000
23
0.000000
0
ENDBLK
5
68
100
AcDbEntity
8
0
100
AcDbBlockEnd
0
BLOCK
5
69
100
AcDbEntity
8
0
100
AcDbBlockBegin
2
HALF_R
70
0
10
0.0
20
0.0
30
0.0
3
HALF_R
1

0
SOLID
5
6a
100
AcDbEntity
8
0
6
BYBLOCK
62
0
100
AcDbTrace
10
-1.000000
20
-0.166667
11
-1.000000
21
0.000000
12
0.000000
22
0.000000
13
0.000000
23
0.000000
0
ENDBLK
5
6b
100
AcDbEntity
8
0
100
AcDbBlockEnd
0
ENDSEC
0
SECTION
2
ENTITIES
0
POLYLINE
5
6c
100
AcDbEntity
8
1
6
CONTINUOUS
62
5
100
AcDb2dPolyline
66
1
10
0.0
20
0.0
30
0.0
70
0
0
VERTEX
5
6d
100
AcDbEntity
8
1
100
AcDbVertex
100
AcDb2dVertex
62
5
10
146.750000
20
-26.000000
0
VERTEX
5
6e
100
AcDbEntity
8
1
100
AcDbVertex
100
AcDb2dVertex
62
5
10
147.750000
20
-24.750000
0
VERTEX
5
6f
100
AcDbEntity
8
1
100
AcDbVertex
100
AcDb2dVertex
62
5
10
148.250000
20
-23.812500
0
VERTEX
5
70
100
AcDbEntity
8
1
100
AcDbVertex
100
AcDb2dVertex
62
5
10
150.750000
20
-23.812500
0
VERTEX
5
71
100
AcDbEntity
8
1
100
AcDbVertex
100
AcDb2dVertex
62
5
10
150.750000
20
-24.125000
0
VERTEX
5
72
100
AcDbEntity
8
1
100
AcDbVertex
100
AcDb2dVertex
62
5
10
150.000000
20
-26.000000
0
VERTEX
5
73
100
AcDbEntity
8
1
100
AcDbVertex
100
AcDb2dVertex
62
5
10
148.750000
20
-27.875000
0
VERTEX
5
74
100
AcDbEntity
8
1
100
AcDbVertex
100
AcDb2dVertex
62
5
10
147.250000
20
-29.437500
0
SEQEND
5
75
100
AcDbEntity
8
1
0
POLYLINE
5
76
100
AcDbEntity
8
1
6
CONTINUOUS
62
5
100
AcDb2dPolyline
66
1
10
0.0
20
0.0
30
0.0
70
0
0
VERTEX
5
77
100
AcDbEntity
8
1
100
AcDbVertex
100
AcDb2dVertex
62
5
10
122.250000
20
-24.125000
0
VERTEX
5
78
100
AcDbEntity
8
1
100
AcDbVertex
100
AcDb2dVertex
62
5
10
126.000000
20
-24.125000
0
VERTEX
5
79
100
AcDbEntity
8
1
100
AcDbVertex
100
AcDb2dVertex
62
5
10
126.000000
20
-25.062500
0
VERTEX
5
7a
100
AcDbEntity
8
1
100
AcDbVertex
100
AcDb2dVertex
62
5
10
125.750000
20
-26.312500
0
VERTEX
5
7b
100
AcDbEntity
8
1
100
AcDbVertex
100
AcDb2dVertex
62
5
10
125.250000
20
-27.250000
0
VERTEX
5
7c
100
AcDbEntity
8
1
100
AcDbVertex
100
AcDb2dVertex
62
5
10
124.750000
20
-28.187500
0
VERTEX
5
7d
100
AcDbEntity
8
1
100
AcDbVertex
100
AcDb2dVertex
62
5
10
123.250000
20
-29.437500
0
SEQEND
5
7e
100
AcDbEntity
8
1
0
LINE
5
7f
100
AcDbEntity
8
1
100
AcDbLine
6
CONTINUOUS
62
5
10
126.500000
20
-22.875000
11
127.250000
21
-23.812500
0
LINE
5
80
100
AcDbEntity
8
1
100
AcDbLine
6
CONTINUOUS
62
5
10
127.500000
20
-22.250000
11
128.000000
21
-23.187500
0
POLYLINE
5
81
100
AcDbEntity
8
1
6
CONTINUOUS
62
5
100
AcDb2dPolyline
66
1
10
0.0
20
0.0
30
0.0
70
0
0
VERTEX
5
82
100
AcDbEntity
8
1
100
AcDbVertex
100
AcDb2dVertex
62
5
10
130.500000
20
-25.375000
0
VERTEX
5
83
100
AcDbEntity
8
1
100
AcDbVertex
100
AcDb2dVertex
62
5
10
135.250000
20
-25.375000
0
VERTEX
5
84
100
AcDbEntity
8
1
100
AcDbVertex
100
AcDb2dVertex
62
5
10
135.250000
20
-25.687500
0
VERTEX
5
85
100
AcDbEntity
8
1
100
AcDbVertex
100
AcDb2dVertex
62
5
10
134.000000
20
-27.875000
0
VERTEX
5
86
100
AcDbEntity
8
1
100
AcDbVertex
100
AcDb2dVertex
62
5
10
133.000000
20
-28.812500
0
VERTEX
5
87
100
AcDbEntity
8
1
100
AcDbVertex
100
AcDb2dVertex
62
5
10
132.000000
20
-29.437500
0
SEQEND
5
88
100
AcDbEntity
8
1
0
LINE
5
89
100
AcDbEntity
8
1
100
AcDbLine
6
CONTINUOUS
62
5
10
131.250000
20
-23.187500
11
134.750000
21
-23.187500
0
LINE
5
8a
100
AcDbEntity
8
1
100
AcDbLine
6
CONTINUOUS
62
5
10
139.250000
20
-25.687500
11
139.500000
21
-26.937500
0
LINE
5
8b
100
AcDbEntity
8
1
100
AcDbLine
6
CONTINUOUS
62
5
10
140.750000
20
-25.375000
11
141.000000
21
-26.625000
0
POLYLINE
5
8c
100
AcDbEntity
8
1
6
CONTINUOUS
62
5
100
AcDb2dPolyline
66
1
10
0.0
20
0.0
30
0.0
70
0
0
VERTEX
5
8d
100
AcDbEntity
8
1
100
AcDbVertex
100
AcDb2dVertex
62
5
10
142.750000
20
-25.375000
0
VERTEX
5
8e
100
AcDbEntity
8
1
100
AcDbVertex
100
AcDb2dVertex
62
5
10
142.500000
20
-26.937500
0
VERTEX
5
8f
100
AcDbEntity
8
1
100
AcDbVertex
100
AcDb2dVertex
62
5
10
141.250000
20
-28.812500
0
VERTEX
5
90
100
AcDbEntity
8
1
100
AcDbVertex
100
AcDb2dVertex
62
5
10
140.250000
20
-29.750000
0
SEQEND
5
91
100
AcDbEntity
8
1
0
POLYLINE
5
92
100
AcDbEntity
8
1
6
CONTINUOUS
62
5
100
AcDb2dPolyline
66
1
10
0.0
20
0.0
30
0.0
70
0
0
VERTEX
5
93
100
AcDbEntity
8
1
100
AcDbVertex
100
AcDb2dVertex
62
5
10
156.250000
20
-21.625000
0
VERTEX
5
94
100
AcDbEntity
8
1
100
AcDbVertex
100
AcDb2dVertex
62
5
10
155.500000
20
-22.875000
0
VERTEX
5
95
100
AcDbEntity
8
1
100
AcDbVertex
100
AcDb2dVertex
62
5
10
154.750000
20
-23.812500
0
VERTEX
5
96
100
AcDbEntity
8
1
100
AcDbVertex
100
AcDb2dVertex
62
5
10
153.750000
20
-24.750000
0
SEQEND
5
97
100
AcDbEntity
8
1
0
POLYLINE
5
98
100
AcDbEntity
8
1
6
CONTINUOUS
62
5
100
AcDb2dPolyline
66
1
10
0.0
20
0.0
30
0.0
70
0
0
VERTEX
5
99
100
AcDbEntity
8
1
100
AcDbVertex
100
AcDb2dVertex
62
5
10
156.000000
20
-22.250000
0
VERTEX
5
9a
100
AcDbEntity
8
1
100
AcDbVertex
100
AcDb2dVertex
62
5
10
158.250000
20
-22.250000
0
VERTEX
5
9b
100
AcDbEntity
8
1
100
AcDbVertex
100
AcDb2dVertex
62
5
10
157.000000
20
-24.125000
0
SEQEND
5
9c
100
AcDbEntity
8
1
0
POLYLINE
5
9d
100
AcDbEntity
8
1
6
CONTINUOUS
62
5
100
AcDb2dPolyline
66
1
10
0.0
20
0.0
30
0.0
70
0
0
VERTEX
5
9e
100
AcDbEntity
8
1
100
AcDbVertex
100
AcDb2dVertex
62
5
10
154.750000
20
-24.125000
0
VERTEX
5
9f
100
AcDbEntity
8
1
100
AcDbVertex
100
AcDb2dVertex
62
5
10
159.250000
20
-24.125000
0
VERTEX
5
a0
100
AcDbEntity
8
1
100
AcDbVertex
100
AcDb2dVertex
62
5
10
159.250000
20
-26.937500
0
VERTEX
5
a1
100
AcDbEntity
8
1
100
AcDbVertex
100
AcDb2dVertex
62
5
10
154.750000
20
-26.937500
0
SEQEND
5
a2
100
AcDbEntity
8
1
0
LINE
5
a3
100
AcDbEntity
8
1
100
AcDbLine
6
CONTINUOUS
62
5
10
157.000000
20
-24.125000
11
157.000000
21
-26.937500
0
POLYLINE
5
a4
100
AcDbEntity
8
1
6
CONTINUOUS
62
5
100
AcDb2dPolyline
66
1
10
0.0
20
0.0
30
0.0
70
0
0
VERTEX
5
a5
100
AcDbEntity
8
1
100
AcDbVertex
100
AcDb2dVertex
62
5
10
154.750000
20
-24.125000
0
VERTEX
5
a6
100
AcDbEntity
8
1
100
AcDbVertex
100
AcDb2dVertex
62
5
10
154.750000
20
-29.437500
0
VERTEX
5
a7
100
AcDbEntity
8
1
100
AcDbVertex
100
AcDb2dVertex
62
5
10
155.250000
20
-30.062500
0
VERTEX
5
a8
100
AcDbEntity
8
1
100
AcDbVertex
100
AcDb2dVertex
62
5
10
160.250000
20
-30.062500
0
VERTEX
5
a9
100
AcDbEntity
8
1
100
AcDbVertex
100
AcDb2dVertex
62
5
10
160.250000
20
-28.812500
0
SEQEND
5
aa
100
AcDbEntity
8
1
0
LINE
5
ab
100
AcDbEntity
8
6
100
AcDbLine
6
DOT2
62
5
10
121.875000
20
-87.375000
11
121.250000
21
-88.000000
0
POLYLINE
5
ac
100
AcDbEntity
8
6
6
DOT2
62
5
100
AcDb2dPolyline
66
1
10
0.0
20
0.0
30
0.0
70
0
0
VERTEX
5
ad
100
AcDbEntity
8
6
100
AcDbVertex
100
AcDb2dVertex
62
5
10
121.250000
20
-87.375000
0
VERTEX
5
ae
100
AcDbEntity
8
6
100
AcDbVertex
100
AcDb2dVertex
62
5
10
121.875000
20
-88.000000
0
VERTEX
5
af
100
AcDbEntity
8
6
100
AcDbVertex
100
AcDb2dVertex
62
5
10
121.250000
20
-88.000000
0
VERTEX
5
b0
100
AcDbEntity
8
6
100
AcDbVertex
100
AcDb2dVertex
62
5
10
121.250000
20
-87.375000
0
VERTEX
5
b1
100
AcDbEntity
8
6
100
AcDbVertex
100
AcDb2dVertex
62
5
10
121.875000
20
-87.375000
0
VERTEX
5
b2
100
AcDbEntity
8
6
100
AcDbVertex
100
AcDb2dVertex
62
5
10
121.875000
20
-88.000000
0
SEQEND
5
b3
100
AcDbEntity
8
6
0
LINE
5
b4
100
AcDbEntity
8
6
100
AcDbLine
6
DOT2
62
5
10
164.725000
20
-158.175000
11
165.350000
21
-158.800000
0
POLYLINE
5
b5
100
AcDbEntity
8
6
6
DOT2
62
5
100
AcDb2dPolyline
66
1
10
0.0
20
0.0
30
0.0
70
0
0
VERTEX
5
b6
100
AcDbEntity
8
6
100
AcDbVertex
100
AcDb2dVertex
62
5
10
164.725000
20
-158.800000
0
VERTEX
5
b7
100
AcDbEntity
8
6
100
AcDbVertex
100
AcDb2dVertex
62
5
10
165.350000
20
-158.175000
0
VERTEX
5
b8
100
AcDbEntity
8
6
100
AcDbVertex
100
AcDb2dVertex
62
5
10
165.350000
20
-158.800000
0
VERTEX
5
b9
100
AcDbEntity
8
6
100
AcDbVertex
100
AcDb2dVertex
62
5
10
164.725000
20
-158.800000
0
VERTEX
5
ba
100
AcDbEntity
8
6
100
AcDbVertex
100
AcDb2dVertex
62
5
10
164.725000
20
-158.175000
0
VERTEX
5
bb
100
AcDbEntity
8
6
100
AcDbVertex
100
AcDb2dVertex
62
5
10
165.350000
20
-158.175000
0
SEQEND
5
bc
100
AcDbEntity
8
6
0
POLYLINE
5
bd
100
AcDbEntity
8
6
6
DOT2
62
5
100
AcDb2dPolyline
66
1
10
0.0
20
0.0
30
0.0
70
0
0
VERTEX
5
be
100
AcDbEntity
8
6
100
AcDbVertex
100
AcDb2dVertex
62
5
10
161.912500
20
-165.675000
0
VERTEX
5
bf
100
AcDbEntity
8
6
100
AcDbVertex
100
AcDb2dVertex
62
5
10
161.912500
20
-165.675000
0
VERTEX
5
c0
100
AcDbEntity
8
6
100
AcDbVertex
100
AcDb2dVertex
62
5
10
162.225000
20
-166.925000
0
VERTEX
5
c1
100
AcDbEntity
8
6
100
AcDbVertex
100
AcDb2dVertex
62
5
10
162.225000
20
-167.862500
0
VERTEX
5
c2
100
AcDbEntity
8
6
100
AcDbVertex
100
AcDb2dVertex
62
5
10
161.912500
20
-168.487500
0
VERTEX
5
c3
100
AcDbEntity
8
6
100
AcDbVertex
100
AcDb2dVertex
62
5
10
160.975000
20
-168.800000
0
VERTEX
5
c4
100
AcDbEntity
8
6
100
AcDbVertex
100
AcDb2dVertex
62
5
10
159.412500
20
-168.800000
0
VERTEX
5
c5
100
AcDbEntity
8
6
100
AcDbVertex
100
AcDb2dVertex
62
5
10
158.475000
20
-168.487500
0
VERTEX
5
c6
100
AcDbEntity
8
6
100
AcDbVertex
100
AcDb2dVertex
62
5
10
158.162500
20
-168.175000
0
VERTEX
5
c7
100
AcDbEntity
8
6
100
AcDbVertex
100
AcDb2dVertex
62
5
10
157.850000
20
-167.550000
0
VERTEX
5
c8
100
AcDbEntity
8
6
100
AcDbVertex
100
AcDb2dVertex
62
5
10
157.850000
20
-166.925000
0
VERTEX
5
c9
100
AcDbEntity
8
6
100
AcDbVertex
100
AcDb2dVertex
62
5
10
158.162500
20
-166.300000
0
VERTEX
5
ca
100
AcDbEntity
8
6
100
AcDbVertex
100
AcDb2dVertex
62
5
10
158.475000
20
-165.987500
0
VERTEX
5
cb
100
AcDbEntity
8
6
100
AcDbVertex
100
AcDb2dVertex
62
5
10
159.412500
20
-165.675000
0
VERTEX
5
cc
100
AcDbEntity
8
6
100
AcDbVertex
100
AcDb2dVertex
62
5
10
162.850000
20
-165.675000
0
VERTEX
5
cd
100
AcDbEntity
8
6
100
AcDbVertex
100
AcDb2dVertex
62
5
10
164.412500
20
-165.987500
0
VERTEX
5
ce
100
AcDbEntity
8
6
100
AcDbVertex
100
AcDb2dVertex
62
5
10
165.037500
20
-166.612500
0
VERTEX
5
cf
100
AcDbEntity
8
6
100
AcDbVertex
100
AcDb2dVertex
62
5
10
165.350000
20
-167.550000
0
VERTEX
5
d0
100
AcDbEntity
8
6
100
AcDbVertex
100
AcDb2dVertex
62
5
10
165.350000
20
-168.175000
0
SEQEND
5
d1
100
AcDbEntity
8
6
0
POLYLINE
5
d2
100
AcDbEntity
8
6
6
DOT2
62
5
100
AcDb2dPolyline
66
1
10
0.0
20
0.0
30
0.0
70
0
0
VERTEX
5
d3
100
AcDbEntity
8
6
100
AcDbVertex
100
AcDb2dVertex
62
5
10
158.475000
20
-163.175000
0
VERTEX
5
d4
100
AcDbEntity
8
6
100
AcDbVertex
100
AcDb2dVertex
62
5
10
157.850000
20
-162.237500
0
VERTEX
5
d5
100
AcDbEntity
8
6
100
AcDbVertex
100
AcDb2dVertex
62
5
10
165.350000
20
-162.237500
0
SEQEND
5
d6
100
AcDbEntity
8
6
0
LINE
5
d7
100
AcDbEntity
8
6
100
AcDbLine
6
DOT2
62
5
10
165.350000
20
-162.862500
11
165.350000
21
-161.612500
0
POLYLINE
5
d8
100
AcDbEntity
8
6
6
DOT2
62
5
100
AcDb2dPolyline
66
1
10
0.0
20
0.0
30
0.0
70
0
0
VERTEX
5
d9
100
AcDbEntity
8
6
100
AcDbVertex
100
AcDb2dVertex
62
5
10
157.850000
20
-151.300000
0
VERTEX
5
da
100
AcDbEntity
8
6
100
AcDbVertex
100
AcDb2dVertex
62
5
10
157.850000
20
-152.237500
0
VERTEX
5
db
100
AcDbEntity
8
6
100
AcDbVertex
100
AcDb2dVertex
62
5
10
158.162500
20
-153.175000
0
VERTEX
5
dc
100
AcDbEntity
8
6
100
AcDbVertex
100
AcDb2dVertex
62
5
10
159.412500
20
-153.800000
0
VERTEX
5
dd
100
AcDbEntity
8
6
100
AcDbVertex
100
AcDb2dVertex
62
5
10
163.787500
20
-153.800000
0
VERTEX
5
de
100
AcDbEntity
8
6
100
AcDbVertex
100
AcDb2dVertex
62
5
10
164.725000
20
-153.487500
0
VERTEX
5
df
100
AcDbEntity
8
6
100
AcDbVertex
100
AcDb2dVertex
62
5
10
165.037500
20
-153.175000
0
VERTEX
5
e0
100
AcDbEntity
8
6
100
AcDbVertex
100
AcDb2dVertex
62
5
10
165.350000
20
-152.550000
0
VERTEX
5
e1
100
AcDbEntity
8
6
100
AcDbVertex
100
AcDb2dVertex
62
5
10
165.350000
20
-151.925000
0
VERTEX
5
e2
100
AcDbEntity
8
6
100
AcDbVertex
100
AcDb2dVertex
62
5
10
165.037500
20
-151.300000
0
VERTEX
5
e3
100
AcDbEntity
8
6
100
AcDbVertex
100
AcDb2dVertex
62
5
10
164.725000
20
-150.987500
0
VERTEX
5
e4
100
AcDbEntity
8
6
100
AcDbVertex
100
AcDb2dVertex
62
5
10
163.787500
20
-150.675000
0
VERTEX
5
e5
100
AcDbEntity
8
6
100
AcDbVertex
100
AcDb2dVertex
62
5
10
161.912500
20
-150.675000
0
VERTEX
5
e6
100
AcDbEntity
8
6
100
AcDbVertex
100
AcDb2dVertex
62
5
10
161.287500
20
-150.987500
0
VERTEX
5
e7
100
AcDbEntity
8
6
100
AcDbVertex
100
AcDb2dVertex
62
5
10
160.975000
20
-151.612500
0
VERTEX
5
e8
100
AcDbEntity
8
6
100
AcDbVertex
100
AcDb2dVertex
62
5
10
160.975000
20
-152.862500
0
VERTEX
5
e9
100
AcDbEntity
8
6
100
AcDbVertex
100
AcDb2dVertex
62
5
10
161.287500
20
-153.800000
0
SEQEND
5
ea
100
AcDbEntity
8
6
0
POLYLINE
5
eb
100
AcDbEntity
8
6
6
DOT2
62
5
100
AcDb2dPolyline
66
1
10
0.0
20
0.0
30
0.0
70
0
0
VERTEX
5
ec
100
AcDbEntity
8
6
100
AcDbVertex
100
AcDb2dVertex
62
5
10
126.250000
20
-82.687500
0
VERTEX
5
ed
100
AcDbEntity
8
6
100
AcDbVertex
100
AcDb2dVertex
62
5
10
126.562500
20
-81.125000
0
VERTEX
5
ee
100
AcDbEntity
8
6
100
AcDbVertex
100
AcDb2dVertex
62
5
10
127.500000
20
-80.500000
0
VERTEX
5
ef
100
AcDbEntity
8
6
100
AcDbVertex
100
AcDb2dVertex
62
5
10
128.437500
20
-80.500000
0
VERTEX
5
f0
100
AcDbEntity
8
6
100
AcDbVertex
100
AcDb2dVertex
62
5
10
129.062500
20
-80.812500
0
VERTEX
5
f1
100
AcDbEntity
8
6
100
AcDbVertex
100
AcDb2dVertex
62
5
10
129.375000
20
-81.750000
0
VERTEX
5
f2
100
AcDbEntity
8
6
100
AcDbVertex
100
AcDb2dVertex
62
5
10
129.375000
20
-82.687500
0
VERTEX
5
f3
100
AcDbEntity
8
6
100
AcDbVertex
100
AcDb2dVertex
62
5
10
129.062500
20
-83.625000
0
VERTEX
5
f4
100
AcDbEntity
8
6
100
AcDbVertex
100
AcDb2dVertex
62
5
10
126.250000
20
-88.000000
0
VERTEX
5
f5
100
AcDbEntity
8
6
100
AcDbVertex
100
AcDb2dVertex
62
5
10
129.375000
20
-88.000000
0
VERTEX
5
f6
100
AcDbEntity
8
6
100
AcDbVertex
100
AcDb2dVertex
62
5
10
129.375000
20
-87.062500
0
SEQEND
5
f7
100
AcDbEntity
8
6
0
POLYLINE
5
f8
100
AcDbEntity
8
1
6
CONTINUOUS
62
5
100
AcDb2dPolyline
66
1
10
0.0
20
0.0
30
0.0
70
0
0
VERTEX
5
f9
100
AcDbEntity
8
1
100
AcDbVertex
100
AcDb2dVertex
62
5
10
105.500000
20
-4.250000
0
VERTEX
5
fa
100
AcDbEntity
8
1
100
AcDbVertex
100
AcDb2dVertex
62
5
10
105.250000
20
-3.500000
0
VERTEX
5
fb
100
AcDbEntity
8
1
100
AcDbVertex
100
AcDb2dVertex
62
5
10
104.750000
20
-3.000000
0
VERTEX
5
fc
100
AcDbEntity
8
1
100
AcDbVertex
100
AcDb2dVertex
62
5
10
104.000000
20
-3.000000
0
VERTEX
5
fd
100
AcDbEntity
8
1
100
AcDbVertex
100
AcDb2dVertex
62
5
10
103.250000
20
-3.750000
0
VERTEX
5
fe
100
AcDbEntity
8
1
100
AcDbVertex
100
AcDb2dVertex
62
5
10
103.000000
20
-5.000000
0
VERTEX
5
ff
100
AcDbEntity
8
1
100
AcDbVertex
100
AcDb2dVertex
62
5
10
103.000000
20
-7.000000
0
VERTEX
5
100
100
AcDbEntity
8
1
100
AcDbVertex
100
AcDb2dVertex
62
5
10
103.250000
20
-8.250000
0
VERTEX
5
101
100
AcDbEntity
8
1
100
AcDbVertex
100
AcDb2dVertex
62
5
10
104.000000
20
-9.000000
0
VERTEX
5
102
100
AcDbEntity
8
1
100
AcDbVertex
100
AcDb2dVertex
62
5
10
104.750000
20
-9.000000
0
VERTEX
5
103
100
AcDbEntity
8
1
100
AcDbVertex
100
AcDb2dVertex
62
5
10
105.250000
20
-8.500000
0
VERTEX
5
104
100
AcDbEntity
8
1
100
AcDbVertex
100
AcDb2dVertex
62
5
10
105.750000
20
-7.250000
0
SEQEND
5
105
100
AcDbEntity
8
1
0
LINE
5
106
100
AcDbEntity
8
1
100
AcDbLine
6
CONTINUOUS
62
5
10
107.000000
20
-3.000000
11
107.000000
21
-9.000000
0
LINE
5
107
100
AcDbEntity
8
1
100
AcDbLine
6
CONTINUOUS
62
5
10
109.500000
20
-3.000000
11
107.000000
21
-6.500000
0
LINE
5
108
100
AcDbEntity
8
1
100
AcDbLine
6
CONTINUOUS
62
5
10
107.750000
20
-5.500000
11
109.750000
21
-9.000000
0
POLYLINE
5
109
100
AcDbEntity
8
1
6
CONTINUOUS
62
5
100
AcDb2dPolyline
66
1
10
0.0
20
0.0
30
0.0
70
0
0
VERTEX
5
10a
100
AcDbEntity
8
1
100
AcDbVertex
100
AcDb2dVertex
62
5
10
110.750000
20
-2.750000
0
VERTEX
5
10b
100
AcDbEntity
8
1
100
AcDbVertex
100
AcDb2dVertex
62
5
10
112.000000
20
-2.750000
0
VERTEX
5
10c
100
AcDbEntity
8
1
100
AcDbVertex
100
AcDb2dVertex
62
5
10
112.000000
20
-9.250000
0
VERTEX
5
10d
100
AcDbEntity
8
1
100
AcDbVertex
100
AcDb2dVertex
62
5
10
110.750000
20
-9.250000
0
SEQEND
5
10e
100
AcDbEntity
8
1
0
POLYLINE
5
10f
100
AcDbEntity
8
1
6
CONTINUOUS
62
5
100
AcDb2dPolyline
66
1
10
0.0
20
0.0
30
0.0
70
0
0
VERTEX
5
110
100
AcDbEntity
8
1
100
AcDbVertex
100
AcDb2dVertex
62
5
10
85.500000
20
-3.000000
0
VERTEX
5
111
100
AcDbEntity
8
1
100
AcDbVertex
100
AcDb2dVertex
62
5
10
83.000000
20
-3.000000
0
VERTEX
5
112
100
AcDbEntity
8
1
100
AcDbVertex
100
AcDb2dVertex
62
5
10
83.000000
20
-9.000000
0
VERTEX
5
113
100
AcDbEntity
8
1
100
AcDbVertex
100
AcDb2dVertex
62
5
10
85.750000
20
-9.000000
0
SEQEND
5
114
100
AcDbEntity
8
1
0
LINE
5
115
100
AcDbEntity
8
1
100
AcDbLine
6
CONTINUOUS
62
5
10
83.000000
20
-6.000000
11
85.250000
21
-6.000000
0
LINE
5
116
100
AcDbEntity
8
1
100
AcDbLine
6
CONTINUOUS
62
5
10
91.000000
20
-3.000000
11
91.000000
21
-9.000000
0
POLYLINE
5
117
100
AcDbEntity
8
1
6
CONTINUOUS
62
5
100
AcDb2dPolyline
66
1
10
0.0
20
0.0
30
0.0
70
0
0
VERTEX
5
118
100
AcDbEntity
8
1
100
AcDbVertex
100
AcDb2dVertex
62
5
10
91.000000
20
-3.000000
0
VERTEX
5
119
100
AcDbEntity
8
1
100
AcDbVertex
100
AcDb2dVertex
62
5
10
92.250000
20
-3.000000
0
VERTEX
5
11a
100
AcDbEntity
8
1
100
AcDbVertex
100
AcDb2dVertex
62
5
10
92.750000
20
-3.250000
0
VERTEX
5
11b
100
AcDbEntity
8
1
100
AcDbVertex
100
AcDb2dVertex
62
5
10
93.000000
20
-3.500000
0
VERTEX
5
11c
100
AcDbEntity
8
1
100
AcDbVertex
100
AcDb2dVertex
62
5
10
93.250000
20
-4.000000
0
VERTEX
5
11d
100
AcDbEntity
8
1
100
AcDbVertex
100
AcDb2dVertex
62
5
10
93.250000
20
-4.750000
0
VERTEX
5
11e
100
AcDbEntity
8
1
100
AcDbVertex
100
AcDb2dVertex
62
5
10
93.000000
20
-5.250000
0
VERTEX
5
11f
100
AcDbEntity
8
1
100
AcDbVertex
100
AcDb2dVertex
62
5
10
92.750000
20
-5.500000
0
VERTEX
5
120
100
AcDbEntity
8
1
100
AcDbVertex
100
AcDb2dVertex
62
5
10
92.250000
20
-5.750000
0
VERTEX
5
121
100
AcDbEntity
8
1
100
AcDbVertex
100
AcDb2dVertex
62
5
10
91.000000
20
-5.750000
0
SEQEND
5
122
100
AcDbEntity
8
1
0
POLYLINE
5
123
100
AcDbEntity
8
1
6
CONTINUOUS
62
5
100
AcDb2dPolyline
66
1
10
0.0
20
0.0
30
0.0
70
0
0
VERTEX
5
124
100
AcDbEntity
8
1
100
AcDbVertex
100
AcDb2dVertex
62
5
10
92.250000
20
-5.750000
0
VERTEX
5
125
100
AcDbEntity
8
1
100
AcDbVertex
100
AcDb2dVertex
62
5
10
92.750000
20
-6.000000
0
VERTEX
5
126
100
AcDbEntity
8
1
100
AcDbVertex
100
AcDb2dVertex
62
5
10
93.250000
20
-6.500000
0
VERTEX
5
127
100
AcDbEntity
8
1
100
AcDbVertex
100
AcDb2dVertex
62
5
10
93.500000
20
-7.000000
0
VERTEX
5
128
100
AcDbEntity
8
1
100
AcDbVertex
100
AcDb2dVertex
62
5
10
93.500000
20
-8.000000
0
VERTEX
5
129
100
AcDbEntity
8
1
100
AcDbVertex
100
AcDb2dVertex
62
5
10
93.250000
20
-8.500000
0
VERTEX
5
12a
100
AcDbEntity
8
1
100
AcDbVertex
100
AcDb2dVertex
62
5
10
93.000000
20
-8.750000
0
VERTEX
5
12b
100
AcDbEntity
8
1
100
AcDbVertex
100
AcDb2dVertex
62
5
10
92.500000
20
-9.000000
0
VERTEX
5
12c
100
AcDbEntity
8
1
100
AcDbVertex
100
AcDb2dVertex
62
5
10
91.000000
20
-9.000000
0
SEQEND
5
12d
100
AcDbEntity
8
1
0
POLYLINE
5
12e
100
AcDbEntity
8
1
6
CONTINUOUS
62
5
100
AcDb2dPolyline
66
1
10
0.0
20
0.0
30
0.0
70
0
0
VERTEX
5
12f
100
AcDbEntity
8
1
100
AcDbVertex
100
AcDb2dVertex
62
5
10
95.000000
20
-3.000000
0
VERTEX
5
130
100
AcDbEntity
8
1
100
AcDbVertex
100
AcDb2dVertex
62
5
10
95.000000
20
-9.000000
0
VERTEX
5
131
100
AcDbEntity
8
1
100
AcDbVertex
100
AcDb2dVertex
62
5
10
97.500000
20
-9.000000
0
SEQEND
5
132
100
AcDbEntity
8
1
0
POLYLINE
5
133
100
AcDbEntity
8
1
6
CONTINUOUS
62
5
100
AcDb2dPolyline
66
1
10
0.0
20
0.0
30
0.0
70
0
0
VERTEX
5
134
100
AcDbEntity
8
1
100
AcDbVertex
100
AcDb2dVertex
62
5
10
99.000000
20
-9.000000
0
VERTEX
5
135
100
AcDbEntity
8
1
100
AcDbVertex
100
AcDb2dVertex
62
5
10
100.250000
20
-3.000000
0
VERTEX
5
136
100
AcDbEntity
8
1
100
AcDbVertex
100
AcDb2dVertex
62
5
10
101.500000
20
-9.000000
0
SEQEND
5
137
100
AcDbEntity
8
1
0
LINE
5
138
100
AcDbEntity
8
1
100
AcDbLine
6
CONTINUOUS
62
5
10
99.500000
20
-7.000000
11
101.000000
21
-7.000000
0
LINE
5
139
100
AcDbEntity
8
1
100
AcDbLine
6
CONTINUOUS
62
5
10
105.750000
20
-22.875000
11
111.750000
21
-22.875000
0
LINE
5
13a
100
AcDbEntity
8
1
100
AcDbLine
6
CONTINUOUS
62
5
10
108.750000
20
-22.875000
11
108.750000
21
-30.375000
0
LINE
5
13b
100
AcDbEntity
8
1
100
AcDbLine
6
CONTINUOUS
62
5
10
105.250000
20
-30.375000
11
112.250000
21
-30.375000
0
POLYLINE
5
13c
100
AcDbEntity
8
1
6
CONTINUOUS
62
5
100
AcDb2dPolyline
66
1
10
0.0
20
0.0
30
0.0
70
0
0
VERTEX
5
13d
100
AcDbEntity
8
1
100
AcDbVertex
100
AcDb2dVertex
62
5
10
83.000000
20
-24.125000
0
VERTEX
5
13e
100
AcDbEntity
8
1
100
AcDbVertex
100
AcDb2dVertex
62
5
10
86.250000
20
-24.125000
0
VERTEX
5
13f
100
AcDbEntity
8
1
100
AcDbVertex
100
AcDb2dVertex
62
5
10
86.250000
20
-24.437500
0
VERTEX
5
140
100
AcDbEntity
8
1
100
AcDbVertex
100
AcDb2dVertex
62
5
10
85.750000
20
-25.687500
0
VERTEX
5
141
100
AcDbEntity
8
1
100
AcDbVertex
100
AcDb2dVertex
62
5
10
85.250000
20
-26.625000
0
VERTEX
5
142
100
AcDbEntity
8
1
100
AcDbVertex
100
AcDb2dVertex
62
5
10
84.250000
20
-27.875000
0
VERTEX
5
143
100
AcDbEntity
8
1
100
AcDbVertex
100
AcDb2dVertex
62
5
10
82.500000
20
-29.437500
0
SEQEND
5
144
100
AcDbEntity
8
1
0
LINE
5
145
100
AcDbEntity
8
1
100
AcDbLine
6
CONTINUOUS
62
5
10
85.250000
20
-26.625000
11
87.250000
21
-29.437500
0
POLYLINE
5
146
100
AcDbEntity
8
1
6
CONTINUOUS
62
5
100
AcDb2dPolyline
66
1
10
0.0
20
0.0
30
0.0
70
0
0
VERTEX
5
147
100
AcDbEntity
8
1
100
AcDbVertex
100
AcDb2dVertex
62
5
10
92.250000
20
-25.062500
0
VERTEX
5
148
100
AcDbEntity
8
1
100
AcDbVertex
100
AcDb2dVertex
62
5
10
92.500000
20
-25.062500
0
VERTEX
5
149
100
AcDbEntity
8
1
100
AcDbVertex
100
AcDb2dVertex
62
5
10
94.250000
20
-26.312500
0
SEQEND
5
14a
100
AcDbEntity
8
1
0
LINE
5
14b
100
AcDbEntity
8
1
100
AcDbLine
6
CONTINUOUS
62
5
10
92.250000
20
-22.250000
11
92.250000
21
-29.750000
0
POLYLINE
5
14c
100
AcDbEntity
8
1
6
CONTINUOUS
62
5
100
AcDb2dPolyline
66
1
10
0.0
20
0.0
30
0.0
70
0
0
VERTEX
5
14d
100
AcDbEntity
8
1
100
AcDbVertex
100
AcDb2dVertex
62
5
10
97.500000
20
-23.500000
0
VERTEX
5
14e
100
AcDbEntity
8
1
100
AcDbVertex
100
AcDb2dVertex
62
5
10
101.000000
20
-23.500000
0
VERTEX
5
14f
100
AcDbEntity
8
1
100
AcDbVertex
100
AcDb2dVertex
62
5
10
101.000000
20
-26.312500
0
VERTEX
5
150
100
AcDbEntity
8
1
100
AcDbVertex
100
AcDb2dVertex
62
5
10
100.750000
20
-28.187500
0
VERTEX
5
151
100
AcDbEntity
8
1
100
AcDbVertex
100
AcDb2dVertex
62
5
10
100.250000
20
-30.375000
0
VERTEX
5
152
100
AcDbEntity
8
1
100
AcDbVertex
100
AcDb2dVertex
62
5
10
99.500000
20
-30.375000
0
SEQEND
5
153
100
AcDbEntity
8
1
0
POLYLINE
5
154
100
AcDbEntity
8
1
6
CONTINUOUS
62
5
100
AcDb2dPolyline
66
1
10
0.0
20
0.0
30
0.0
70
0
0
VERTEX
5
155
100
AcDbEntity
8
1
100
AcDbVertex
100
AcDb2dVertex
62
5
10
99.250000
20
-21.625000
0
VERTEX
5
156
100
AcDbEntity
8
1
100
AcDbVertex
100
AcDb2dVertex
62
5
10
99.250000
20
-23.500000
0
VERTEX
5
157
100
AcDbEntity
8
1
100
AcDbVertex
100
AcDb2dVertex
62
5
10
99.000000
20
-26.625000
0
VERTEX
5
158
100
AcDbEntity
8
1
100
AcDbVertex
100
AcDb2dVertex
62
5
10
98.500000
20
-28.187500
0
VERTEX
5
159
100
AcDbEntity
8
1
100
AcDbVertex
100
AcDb2dVertex
62
5
10
97.250000
20
-30.375000
0
SEQEND
5
15a
100
AcDbEntity
8
1
0
POLYLINE
5
15b
100
AcDbEntity
8
1
6
CONTINUOUS
62
5
100
AcDb2dPolyline
66
1
10
0.0
20
0.0
30
0.0
70
1
0
VERTEX
5
15c
100
AcDbEntity
8
1
100
AcDbVertex
100
AcDb2dVertex
62
5
10
102.000000
20
-23.500000
0
VERTEX
5
15d
100
AcDbEntity
8
1
100
AcDbVertex
100
AcDb2dVertex
62
5
10
104.250000
20
-23.500000
0
VERTEX
5
15e
100
AcDbEntity
8
1
100
AcDbVertex
100
AcDb2dVertex
62
5
10
104.250000
20
-30.375000
0
VERTEX
5
15f
100
AcDbEntity
8
1
100
AcDbVertex
100
AcDb2dVertex
62
5
10
102.000000
20
-30.375000
0
VERTEX
5
160
100
AcDbEntity
8
1
100
AcDbVertex
100
AcDb2dVertex
62
5
10
102.000000
20
-23.500000
0
SEQEND
5
161
100
AcDbEntity
8
1
0
LINE
5
162
100
AcDbEntity
8
1
100
AcDbLine
6
CONTINUOUS
62
5
10
88.750000
20
-11.625000
11
88.750000
21
-16.312500
0
LINE
5
163
100
AcDbEntity
8
1
100
AcDbLine
6
CONTINUOUS
62
5
10
85.750000
20
-13.187500
11
91.750000
21
-13.187500
0
LINE
5
164
100
AcDbEntity
8
1
100
AcDbLine
6
CONTINUOUS
62
5
10
86.500000
20
-14.750000
11
91.250000
21
-14.750000
0
LINE
5
165
100
AcDbEntity
8
1
100
AcDbLine
6
CONTINUOUS
62
5
10
85.250000
20
-16.312500
11
92.500000
21
-16.312500
0
POLYLINE
5
166
100
AcDbEntity
8
1
6
CONTINUOUS
62
5
100
AcDb2dPolyline
66
1
10
0.0
20
0.0
30
0.0
70
0
0
VERTEX
5
167
100
AcDbEntity
8
1
100
AcDbVertex
100
AcDb2dVertex
62
5
10
88.750000
20
-16.312500
0
VERTEX
5
168
100
AcDbEntity
8
1
100
AcDbVertex
100
AcDb2dVertex
62
5
10
87.250000
20
-17.875000
0
VERTEX
5
169
100
AcDbEntity
8
1
100
AcDbVertex
100
AcDb2dVertex
62
5
10
85.250000
20
-19.125000
0
SEQEND
5
16a
100
AcDbEntity
8
1
0
LINE
5
16b
100
AcDbEntity
8
1
100
AcDbLine
6
CONTINUOUS
62
5
10
87.250000
20
-17.875000
11
87.250000
21
-20.062500
0
POLYLINE
5
16c
100
AcDbEntity
8
1
6
CONTINUOUS
62
5
100
AcDb2dPolyline
66
1
10
0.0
20
0.0
30
0.0
70
0
0
VERTEX
5
16d
100
AcDbEntity
8
1
100
AcDbVertex
100
AcDb2dVertex
62
5
10
86.000000
20
-20.375000
0
VERTEX
5
16e
100
AcDbEntity
8
1
100
AcDbVertex
100
AcDb2dVertex
62
5
10
87.250000
20
-20.062500
0
VERTEX
5
16f
100
AcDbEntity
8
1
100
AcDbVertex
100
AcDb2dVertex
62
5
10
88.250000
20
-19.750000
0
VERTEX
5
170
100
AcDbEntity
8
1
100
AcDbVertex
100
AcDb2dVertex
62
5
10
89.250000
20
-19.125000
0
SEQEND
5
171
100
AcDbEntity
8
1
0
LINE
5
172
100
AcDbEntity
8
1
100
AcDbLine
6
CONTINUOUS
62
5
10
91.500000
20
-17.250000
11
90.000000
21
-18.500000
0
POLYLINE
5
173
100
AcDbEntity
8
1
6
CONTINUOUS
62
5
100
AcDb2dPolyline
66
1
10
0.0
20
0.0
30
0.0
70
0
0
VERTEX
5
174
100
AcDbEntity
8
1
100
AcDbVertex
100
AcDb2dVertex
62
5
10
89.000000
20
-16.937500
0
VERTEX
5
175
100
AcDbEntity
8
1
100
AcDbVertex
100
AcDb2dVertex
62
5
10
90.000000
20
-19.125000
0
VERTEX
5
176
100
AcDbEntity
8
1
100
AcDbVertex
100
AcDb2dVertex
62
5
10
91.250000
20
-20.062500
0
VERTEX
5
177
100
AcDbEntity
8
1
100
AcDbVertex
100
AcDb2dVertex
62
5
10
92.250000
20
-20.375000
0
SEQEND
5
178
100
AcDbEntity
8
1
0
LINE
5
179
100
AcDbEntity
8
1
100
AcDbLine
6
CONTINUOUS
62
5
10
94.500000
20
-12.250000
11
99.000000
21
-12.250000
0
LINE
5
17a
100
AcDbEntity
8
1
100
AcDbLine
6
CONTINUOUS
62
5
10
93.250000
20
-14.437500
11
100.250000
21
-14.437500
0
POLYLINE
5
17b
100
AcDbEntity
8
1
6
CONTINUOUS
62
5
100
AcDb2dPolyline
66
1
10
0.0
20
0.0
30
0.0
70
0
0
VERTEX
5
17c
100
AcDbEntity
8
1
100
AcDbVertex
100
AcDb2dVertex
62
5
10
96.750000
20
-14.437500
0
VERTEX
5
17d
100
AcDbEntity
8
1
100
AcDbVertex
100
AcDb2dVertex
62
5
10
96.750000
20
-20.062500
0
VERTEX
5
17e
100
AcDbEntity
8
1
100
AcDbVertex
100
AcDb2dVertex
62
5
10
96.250000
20
-20.687500
0
VERTEX
5
17f
100
AcDbEntity
8
1
100
AcDbVertex
100
AcDb2dVertex
62
5
10
95.750000
20
-20.687500
0
SEQEND
5
180
100
AcDbEntity
8
1
0
POLYLINE
5
181
100
AcDbEntity
8
1
6
CONTINUOUS
62
5
100
AcDb2dPolyline
66
1
10
0.0
20
0.0
30
0.0
70
0
0
VERTEX
5
182
100
AcDbEntity
8
1
100
AcDbVertex
100
AcDb2dVertex
62
5
10
95.000000
20
-16.937500
0
VERTEX
5
183
100
AcDbEntity
8
1
100
AcDbVertex
100
AcDb2dVertex
62
5
10
94.500000
20
-18.187500
0
VERTEX
5
184
100
AcDbEntity
8
1
100
AcDbVertex
100
AcDb2dVertex
62
5
10
93.500000
20
-19.437500
0
SEQEND
5
185
100
AcDbEntity
8
1
0
POLYLINE
5
186
100
AcDbEntity
8
1
6
CONTINUOUS
62
5
100
AcDb2dPolyline
66
1
10
0.0
20
0.0
30
0.0
70
0
0
VERTEX
5
187
100
AcDbEntity
8
1
100
AcDbVertex
100
AcDb2dVertex
62
5
10
98.250000
20
-16.937500
0
VERTEX
5
188
100
AcDbEntity
8
1
100
AcDbVertex
100
AcDb2dVertex
62
5
10
99.250000
20
-17.875000
0
VERTEX
5
189
100
AcDbEntity
8
1
100
AcDbVertex
100
AcDb2dVertex
62
5
10
100.000000
20
-19.437500
0
SEQEND
5
18a
100
AcDbEntity
8
1
0
LINE
5
18b
100
AcDbEntity
8
1
100
AcDbLine
6
CONTINUOUS
62
5
10
104.750000
20
-11.625000
11
104.750000
21
-12.562500
0
POLYLINE
5
18c
100
AcDbEntity
8
1
6
CONTINUOUS
62
5
100
AcDb2dPolyline
66
1
10
0.0
20
0.0
30
0.0
70
0
0
VERTEX
5
18d
100
AcDbEntity
8
1
100
AcDbVertex
100
AcDb2dVertex
62
5
10
101.500000
20
-14.437500
0
VERTEX
5
18e
100
AcDbEntity
8
1
100
AcDbVertex
100
AcDb2dVertex
62
5
10
101.500000
20
-12.562500
0
VERTEX
5
18f
100
AcDbEntity
8
1
100
AcDbVertex
100
AcDb2dVertex
62
5
10
108.000000
20
-12.562500
0
VERTEX
5
190
100
AcDbEntity
8
1
100
AcDbVertex
100
AcDb2dVertex
62
5
10
108.000000
20
-14.437500
0
SEQEND
5
191
100
AcDbEntity
8
1
0
POLYLINE
5
192
100
AcDbEntity
8
1
6
CONTINUOUS
62
5
100
AcDb2dPolyline
66
1
10
0.0
20
0.0
30
0.0
70
0
0
VERTEX
5
193
100
AcDbEntity
8
1
100
AcDbVertex
100
AcDb2dVertex
62
5
10
103.750000
20
-13.187500
0
VERTEX
5
194
100
AcDbEntity
8
1
100
AcDbVertex
100
AcDb2dVertex
62
5
10
103.250000
20
-14.437500
0
VERTEX
5
195
100
AcDbEntity
8
1
100
AcDbVertex
100
AcDb2dVertex
62
5
10
102.250000
20
-15.062500
0
SEQEND
5
196
100
AcDbEntity
8
1
0
POLYLINE
5
197
100
AcDbEntity
8
1
6
CONTINUOUS
62
5
100
AcDb2dPolyline
66
1
10
0.0
20
0.0
30
0.0
70
0
0
VERTEX
5
198
100
AcDbEntity
8
1
100
AcDbVertex
100
AcDb2dVertex
62
5
10
105.250000
20
-13.187500
0
VERTEX
5
199
100
AcDbEntity
8
1
100
AcDbVertex
100
AcDb2dVertex
62
5
10
105.250000
20
-15.062500
0
VERTEX
5
19a
100
AcDbEntity
8
1
100
AcDbVertex
100
AcDb2dVertex
62
5
10
107.250000
20
-15.062500
0
VERTEX
5
19b
100
AcDbEntity
8
1
100
AcDbVertex
100
AcDb2dVertex
62
5
10
107.000000
20
-13.812500
0
SEQEND
5
19c
100
AcDbEntity
8
1
0
LINE
5
19d
100
AcDbEntity
8
1
100
AcDbLine
6
CONTINUOUS
62
5
10
104.250000
20
-14.750000
11
102.750000
21
-16.937500
0
LINE
5
19e
100
AcDbEntity
8
1
100
AcDbLine
6
CONTINUOUS
62
5
10
102.000000
20
-16.937500
11
107.000000
21
-16.937500
0
LINE
5
19f
100
AcDbEntity
8
1
100
AcDbLine
6
CONTINUOUS
62
5
10
105.750000
20
-15.687500
11
107.250000
21
-17.250000
0
POLYLINE
5
1a0
100
AcDbEntity
8
1
6
CONTINUOUS
62
5
100
AcDb2dPolyline
66
1
10
0.0
20
0.0
30
0.0
70
0
0
VERTEX
5
1a1
100
AcDbEntity
8
1
100
AcDbVertex
100
AcDb2dVertex
62
5
10
102.250000
20
-18.187500
0
VERTEX
5
1a2
100
AcDbEntity
8
1
100
AcDbVertex
100
AcDb2dVertex
62
5
10
102.000000
20
-19.437500
0
VERTEX
5
1a3
100
AcDbEntity
8
1
100
AcDbVertex
100
AcDb2dVertex
62
5
10
101.500000
20
-20.375000
0
SEQEND
5
1a4
100
AcDbEntity
8
1
0
POLYLINE
5
1a5
100
AcDbEntity
8
1
6
CONTINUOUS
62
5
100
AcDb2dPolyline
66
1
10
0.0
20
0.0
30
0.0
70
0
0
VERTEX
5
1a6
100
AcDbEntity
8
1
100
AcDbVertex
100
AcDb2dVertex
62
5
10
103.250000
20
-17.875000
0
VERTEX
5
1a7
100
AcDbEntity
8
1
100
AcDbVertex
100
AcDb2dVertex
62
5
10
103.250000
20
-20.062500
0
VERTEX
5
1a8
100
AcDbEntity
8
1
100
AcDbVertex
100
AcDb2dVertex
62
5
10
103.500000
20
-20.687500
0
VERTEX
5
1a9
100
AcDbEntity
8
1
100
AcDbVertex
100
AcDb2dVertex
62
5
10
105.500000
20
-20.687500
0
VERTEX
5
1aa
100
AcDbEntity
8
1
100
AcDbVertex
100
AcDb2dVertex
62
5
10
106.500000
20
-19.750000
0
SEQEND
5
1ab
100
AcDbEntity
8
1
0
LINE
5
1ac
100
AcDbEntity
8
1
100
AcDbLine
6
CONTINUOUS
62
5
10
106.500000
20
-17.875000
11
107.750000
21
-19.750000
0
LINE
5
1ad
100
AcDbEntity
8
1
100
AcDbLine
6
CONTINUOUS
62
5
10
104.250000
20
-17.562500
11
105.000000
21
-18.812500
0
POLYLINE
5
1ae
100
AcDbEntity
8
1
6
CONTINUOUS
62
5
100
AcDb2dPolyline
66
1
10
0.0
20
0.0
30
0.0
70
0
0
VERTEX
5
1af
100
AcDbEntity
8
1
100
AcDbVertex
100
AcDb2dVertex
62
5
10
111.500000
20
-11.937500
0
VERTEX
5
1b0
100
AcDbEntity
8
1
100
AcDbVertex
100
AcDb2dVertex
62
5
10
110.500000
20
-14.750000
0
VERTEX
5
1b1
100
AcDbEntity
8
1
100
AcDbVertex
100
AcDb2dVertex
62
5
10
109.250000
20
-16.937500
0
SEQEND
5
1b2
100
AcDbEntity
8
1
0
LINE
5
1b3
100
AcDbEntity
8
1
100
AcDbLine
6
CONTINUOUS
62
5
10
110.500000
20
-14.750000
11
110.500000
21
-20.687500
0
LINE
5
1b4
100
AcDbEntity
8
1
100
AcDbLine
6
CONTINUOUS
62
5
10
111.250000
20
-14.750000
11
116.500000
21
-14.750000
0
POLYLINE
5
1b5
100
AcDbEntity
8
1
6
CONTINUOUS
62
5
100
AcDb2dPolyline
66
1
10
0.0
20
0.0
30
0.0
70
0
0
VERTEX
5
1b6
100
AcDbEntity
8
1
100
AcDbVertex
100
AcDb2dVertex
62
5
10
114.750000
20
-11.937500
0
VERTEX
5
1b7
100
AcDbEntity
8
1
100
AcDbVertex
100
AcDb2dVertex
62
5
10
114.750000
20
-20.375000
0
VERTEX
5
1b8
100
AcDbEntity
8
1
100
AcDbVertex
100
AcDb2dVertex
62
5
10
113.250000
20
-20.062500
0
SEQEND
5
1b9
100
AcDbEntity
8
1
0
LINE
5
1ba
100
AcDbEntity
8
1
100
AcDbLine
6
CONTINUOUS
62
5
10
112.250000
20
-16.000000
11
113.250000
21
-17.875000
0
POLYLINE
5
1bb
100
AcDbEntity
8
1
6
CONTINUOUS
62
5
100
AcDb2dPolyline
66
1
10
0.0
20
0.0
30
0.0
70
0
0
VERTEX
5
1bc
100
AcDbEntity
8
1
100
AcDbVertex
100
AcDb2dVertex
62
5
10
65.500000
20
-2.750000
0
VERTEX
5
1bd
100
AcDbEntity
8
1
100
AcDbVertex
100
AcDb2dVertex
62
5
10
64.250000
20
-2.750000
0
VERTEX
5
1be
100
AcDbEntity
8
1
100
AcDbVertex
100
AcDb2dVertex
62
5
10
64.250000
20
-9.250000
0
VERTEX
5
1bf
100
AcDbEntity
8
1
100
AcDbVertex
100
AcDb2dVertex
62
5
10
65.500000
20
-9.250000
0
SEQEND
5
1c0
100
AcDbEntity
8
1
0
POLYLINE
5
1c1
100
AcDbEntity
8
1
6
CONTINUOUS
62
5
100
AcDb2dPolyline
66
1
10
0.0
20
0.0
30
0.0
70
0
0
VERTEX
5
1c2
100
AcDbEntity
8
1
100
AcDbVertex
100
AcDb2dVertex
62
5
10
69.500000
20
-4.250000
0
VERTEX
5
1c3
100
AcDbEntity
8
1
100
AcDbVertex
100
AcDb2dVertex
62
5
10
69.000000
20
-3.250000
0
VERTEX
5
1c4
100
AcDbEntity
8
1
100
AcDbVertex
100
AcDb2dVertex
62
5
10
68.250000
20
-3.000000
0
VERTEX
5
1c5
100
AcDbEntity
8
1
100
AcDbVertex
100
AcDb2dVertex
62
5
10
67.750000
20
-3.000000
0
VERTEX
5
1c6
100
AcDbEntity
8
1
100
AcDbVertex
100
AcDb2dVertex
62
5
10
67.250000
20
-3.250000
0
VERTEX
5
1c7
100
AcDbEntity
8
1
100
AcDbVertex
100
AcDb2dVertex
62
5
10
66.750000
20
-4.000000
0
VERTEX
5
1c8
100
AcDbEntity
8
1
100
AcDbVertex
100
AcDb2dVertex
62
5
10
66.750000
20
-4.750000
0
VERTEX
5
1c9
100
AcDbEntity
8
1
100
AcDbVertex
100
AcDb2dVertex
62
5
10
67.250000
20
-5.500000
0
VERTEX
5
1ca
100
AcDbEntity
8
1
100
AcDbVertex
100
AcDb2dVertex
62
5
10
69.000000
20
-6.500000
0
VERTEX
5
1cb
100
AcDbEntity
8
1
100
AcDbVertex
100
AcDb2dVertex
62
5
10
69.500000
20
-7.250000
0
VERTEX
5
1cc
100
AcDbEntity
8
1
100
AcDbVertex
100
AcDb2dVertex
62
5
10
69.500000
20
-8.000000
0
VERTEX
5
1cd
100
AcDbEntity
8
1
100
AcDbVertex
100
AcDb2dVertex
62
5
10
69.000000
20
-8.750000
0
VERTEX
5
1ce
100
AcDbEntity
8
1
100
AcDbVertex
100
AcDb2dVertex
62
5
10
68.250000
20
-9.000000
0
VERTEX
5
1cf
100
AcDbEntity
8
1
100
AcDbVertex
100
AcDb2dVertex
62
5
10
67.750000
20
-9.000000
0
VERTEX
5
1d0
100
AcDbEntity
8
1
100
AcDbVertex
100
AcDb2dVertex
62
5
10
67.000000
20
-8.500000
0
VERTEX
5
1d1
100
AcDbEntity
8
1
100
AcDbVertex
100
AcDb2dVertex
62
5
10
66.750000
20
-7.500000
0
SEQEND
5
1d2
100
AcDbEntity
8
1
0
POLYLINE
5
1d3
100
AcDbEntity
8
1
6
CONTINUOUS
62
5
100
AcDb2dPolyline
66
1
10
0.0
20
0.0
30
0.0
70
0
0
VERTEX
5
1d4
100
AcDbEntity
8
1
100
AcDbVertex
100
AcDb2dVertex
62
5
10
71.000000
20
-3.000000
0
VERTEX
5
1d5
100
AcDbEntity
8
1
100
AcDbVertex
100
AcDb2dVertex
62
5
10
71.000000
20
-7.750000
0
VERTEX
5
1d6
100
AcDbEntity
8
1
100
AcDbVertex
100
AcDb2dVertex
62
5
10
71.250000
20
-8.500000
0
VERTEX
5
1d7
100
AcDbEntity
8
1
100
AcDbVertex
100
AcDb2dVertex
62
5
10
71.500000
20
-8.750000
0
VERTEX
5
1d8
100
AcDbEntity
8
1
100
AcDbVertex
100
AcDb2dVertex
62
5
10
72.000000
20
-9.000000
0
VERTEX
5
1d9
100
AcDbEntity
8
1
100
AcDbVertex
100
AcDb2dVertex
62
5
10
72.500000
20
-9.000000
0
VERTEX
5
1da
100
AcDbEntity
8
1
100
AcDbVertex
100
AcDb2dVertex
62
5
10
73.000000
20
-8.750000
0
VERTEX
5
1db
100
AcDbEntity
8
1
100
AcDbVertex
100
AcDb2dVertex
62
5
10
73.250000
20
-8.500000
0
VERTEX
5
1dc
100
AcDbEntity
8
1
100
AcDbVertex
100
AcDb2dVertex
62
5
10
73.500000
20
-7.750000
0
VERTEX
5
1dd
100
AcDbEntity
8
1
100
AcDbVertex
100
AcDb2dVertex
62
5
10
73.500000
20
-3.000000
0
SEQEND
5
1de
100
AcDbEntity
8
1
0
POLYLINE
5
1df
100
AcDbEntity
8
1
6
CONTINUOUS
62
5
100
AcDb2dPolyline
66
1
10
0.0
20
0.0
30
0.0
70
0
0
VERTEX
5
1e0
100
AcDbEntity
8
1
100
AcDbVertex
100
AcDb2dVertex
62
5
10
77.500000
20
-4.250000
0
VERTEX
5
1e1
100
AcDbEntity
8
1
100
AcDbVertex
100
AcDb2dVertex
62
5
10
77.000000
20
-3.250000
0
VERTEX
5
1e2
100
AcDbEntity
8
1
100
AcDbVertex
100
AcDb2dVertex
62
5
10
76.250000
20
-3.000000
0
VERTEX
5
1e3
100
AcDbEntity
8
1
100
AcDbVertex
100
AcDb2dVertex
62
5
10
75.750000
20
-3.000000
0
VERTEX
5
1e4
100
AcDbEntity
8
1
100
AcDbVertex
100
AcDb2dVertex
62
5
10
75.250000
20
-3.250000
0
VERTEX
5
1e5
100
AcDbEntity
8
1
100
AcDbVertex
100
AcDb2dVertex
62
5
10
74.750000
20
-4.000000
0
VERTEX
5
1e6
100
AcDbEntity
8
1
100
AcDbVertex
100
AcDb2dVertex
62
5
10
74.750000
20
-4.750000
0
VERTEX
5
1e7
100
AcDbEntity
8
1
100
AcDbVertex
100
AcDb2dVertex
62
5
10
75.250000
20
-5.500000
0
VERTEX
5
1e8
100
AcDbEntity
8
1
100
AcDbVertex
100
AcDb2dVertex
62
5
10
77.000000
20
-6.500000
0
VERTEX
5
1e9
100
AcDbEntity
8
1
100
AcDbVertex
100
AcDb2dVertex
62
5
10
77.500000
20
-7.250000
0
VERTEX
5
1ea
100
AcDbEntity
8
1
100
AcDbVertex
100
AcDb2dVertex
62
5
10
77.500000
20
-8.000000
0
VERTEX
5
1eb
100
AcDbEntity
8
1
100
AcDbVertex
100
AcDb2dVertex
62
5
10
77.000000
20
-8.750000
0
VERTEX
5
1ec
100
AcDbEntity
8
1
100
AcDbVertex
100
AcDb2dVertex
62
5
10
76.250000
20
-9.000000
0
VERTEX
5
1ed
100
AcDbEntity
8
1
100
AcDbVertex
100
AcDb2dVertex
62
5
10
75.750000
20
-9.000000
0
VERTEX
5
1ee
100
AcDbEntity
8
1
100
AcDbVertex
100
AcDb2dVertex
62
5
10
75.000000
20
-8.500000
0
VERTEX
5
1ef
100
AcDbEntity
8
1
100
AcDbVertex
100
AcDb2dVertex
62
5
10
74.750000
20
-7.500000
0
SEQEND
5
1f0
100
AcDbEntity
8
1
0
POLYLINE
5
1f1
100
AcDbEntity
8
1
6
CONTINUOUS
62
5
100
AcDb2dPolyline
66
1
10
0.0
20
0.0
30
0.0
70
0
0
VERTEX
5
1f2
100
AcDbEntity
8
1
100
AcDbVertex
100
AcDb2dVertex
62
5
10
45.500000
20
-4.250000
0
VERTEX
5
1f3
100
AcDbEntity
8
1
100
AcDbVertex
100
AcDb2dVertex
62
5
10
45.000000
20
-3.250000
0
VERTEX
5
1f4
100
AcDbEntity
8
1
100
AcDbVertex
100
AcDb2dVertex
62
5
10
44.250000
20
-3.000000
0
VERTEX
5
1f5
100
AcDbEntity
8
1
100
AcDbVertex
100
AcDb2dVertex
62
5
10
43.750000
20
-3.000000
0
VERTEX
5
1f6
100
AcDbEntity
8
1
100
AcDbVertex
100
AcDb2dVertex
62
5
10
43.250000
20
-3.250000
0
VERTEX
5
1f7
100
AcDbEntity
8
1
100
AcDbVertex
100
AcDb2dVertex
62
5
10
42.750000
20
-4.000000
0
VERTEX
5
1f8
100
AcDbEntity
8
1
100
AcDbVertex
100
AcDb2dVertex
62
5
10
42.750000
20
-4.750000
0
VERTEX
5
1f9
100
AcDbEntity
8
1
100
AcDbVertex
100
AcDb2dVertex
62
5
10
43.250000
20
-5.500000
0
VERTEX
5
1fa
100
AcDbEntity
8
1
100
AcDbVertex
100
AcDb2dVertex
62
5
10
45.000000
20
-6.500000
0
VERTEX
5
1fb
100
AcDbEntity
8
1
100
AcDbVertex
100
AcDb2dVertex
62
5
10
45.500000
20
-7.250000
0
VERTEX
5
1fc
100
AcDbEntity
8
1
100
AcDbVertex
100
AcDb2dVertex
62
5
10
45.500000
20
-8.000000
0
VERTEX
5
1fd
100
AcDbEntity
8
1
100
AcDbVertex
100
AcDb2dVertex
62
5
10
45.000000
20
-8.750000
0
VERTEX
5
1fe
100
AcDbEntity
8
1
100
AcDbVertex
100
AcDb2dVertex
62
5
10
44.250000
20
-9.000000
0
VERTEX
5
1ff
100
AcDbEntity
8
1
100
AcDbVertex
100
AcDb2dVertex
62
5
10
43.750000
20
-9.000000
0
VERTEX
5
200
100
AcDbEntity
8
1
100
AcDbVertex
100
AcDb2dVertex
62
5
10
43.000000
20
-8.500000
0
VERTEX
5
201
100
AcDbEntity
8
1
100
AcDbVertex
100
AcDb2dVertex
62
5
10
42.750000
20
-7.500000
0
SEQEND
5
202
100
AcDbEntity
8
1
0
POLYLINE
5
203
100
AcDbEntity
8
1
6
CONTINUOUS
62
5
100
AcDb2dPolyline
66
1
10
0.0
20
0.0
30
0.0
70
0
0
VERTEX
5
204
100
AcDbEntity
8
1
100
AcDbVertex
100
AcDb2dVertex
62
5
10
47.000000
20
-3.000000
0
VERTEX
5
205
100
AcDbEntity
8
1
100
AcDbVertex
100
AcDb2dVertex
62
5
10
47.000000
20
-9.000000
0
VERTEX
5
206
100
AcDbEntity
8
1
100
AcDbVertex
100
AcDb2dVertex
62
5
10
49.500000
20
-9.000000
0
SEQEND
5
207
100
AcDbEntity
8
1
0
LINE
5
208
100
AcDbEntity
8
1
100
AcDbLine
6
CONTINUOUS
62
5
10
51.500000
20
-3.000000
11
53.000000
21
-3.000000
0
LINE
5
209
100
AcDbEntity
8
1
100
AcDbLine
6
CONTINUOUS
62
5
10
52.250000
20
-3.000000
11
52.250000
21
-9.000000
0
LINE
5
20a
100
AcDbEntity
8
1
100
AcDbLine
6
CONTINUOUS
62
5
10
51.500000
20
-9.000000
11
53.000000
21
-9.000000
0
POLYLINE
5
20b
100
AcDbEntity
8
1
6
CONTINUOUS
62
5
100
AcDb2dPolyline
66
1
10
0.0
20
0.0
30
0.0
70
0
0
VERTEX
5
20c
100
AcDbEntity
8
1
100
AcDbVertex
100
AcDb2dVertex
62
5
10
55.000000
20
-9.000000
0
VERTEX
5
20d
100
AcDbEntity
8
1
100
AcDbVertex
100
AcDb2dVertex
62
5
10
55.000000
20
-3.000000
0
VERTEX
5
20e
100
AcDbEntity
8
1
100
AcDbVertex
100
AcDb2dVertex
62
5
10
56.250000
20
-9.000000
0
VERTEX
5
20f
100
AcDbEntity
8
1
100
AcDbVertex
100
AcDb2dVertex
62
5
10
57.500000
20
-3.000000
0
VERTEX
5
210
100
AcDbEntity
8
1
100
AcDbVertex
100
AcDb2dVertex
62
5
10
57.500000
20
-9.000000
0
SEQEND
5
211
100
AcDbEntity
8
1
0
POLYLINE
5
212
100
AcDbEntity
8
1
6
CONTINUOUS
62
5
100
AcDb2dPolyline
66
1
10
0.0
20
0.0
30
0.0
70
0
0
VERTEX
5
213
100
AcDbEntity
8
1
100
AcDbVertex
100
AcDb2dVertex
62
5
10
58.500000
20
-12.875000
0
VERTEX
5
214
100
AcDbEntity
8
1
100
AcDbVertex
100
AcDb2dVertex
62
5
10
59.250000
20
-12.250000
0
VERTEX
5
215
100
AcDbEntity
8
1
100
AcDbVertex
100
AcDb2dVertex
62
5
10
59.250000
20
-19.750000
0
SEQEND
5
216
100
AcDbEntity
8
1
0
LINE
5
217
100
AcDbEntity
8
1
100
AcDbLine
6
CONTINUOUS
62
5
10
58.750000
20
-19.750000
11
59.750000
21
-19.750000
0
POLYLINE
5
218
100
AcDbEntity
8
1
6
CONTINUOUS
62
5
100
AcDb2dPolyline
66
1
10
0.0
20
0.0
30
0.0
70
0
0
VERTEX
5
219
100
AcDbEntity
8
1
100
AcDbVertex
100
AcDb2dVertex
62
5
10
66.250000
20
-24.125000
0
VERTEX
5
21a
100
AcDbEntity
8
1
100
AcDbVertex
100
AcDb2dVertex
62
5
10
70.000000
20
-24.125000
0
VERTEX
5
21b
100
AcDbEntity
8
1
100
AcDbVertex
100
AcDb2dVertex
62
5
10
70.000000
20
-25.062500
0
VERTEX
5
21c
100
AcDbEntity
8
1
100
AcDbVertex
100
AcDb2dVertex
62
5
10
69.750000
20
-26.312500
0
VERTEX
5
21d
100
AcDbEntity
8
1
100
AcDbVertex
100
AcDb2dVertex
62
5
10
69.250000
20
-27.250000
0
VERTEX
5
21e
100
AcDbEntity
8
1
100
AcDbVertex
100
AcDb2dVertex
62
5
10
68.750000
20
-28.187500
0
VERTEX
5
21f
100
AcDbEntity
8
1
100
AcDbVertex
100
AcDb2dVertex
62
5
10
67.250000
20
-29.437500
0
SEQEND
5
220
100
AcDbEntity
8
1
0
LINE
5
221
100
AcDbEntity
8
1
100
AcDbLine
6
CONTINUOUS
62
5
10
70.500000
20
-22.875000
11
71.250000
21
-23.812500
0
LINE
5
222
100
AcDbEntity
8
1
100
AcDbLine
6
CONTINUOUS
62
5
10
71.500000
20
-22.250000
11
72.000000
21
-23.187500
0
POLYLINE
5
223
100
AcDbEntity
8
1
6
CONTINUOUS
62
5
100
AcDb2dPolyline
66
1
10
0.0
20
0.0
30
0.0
70
0
0
VERTEX
5
224
100
AcDbEntity
8
1
100
AcDbVertex
100
AcDb2dVertex
62
5
10
74.500000
20
-25.375000
0
VERTEX
5
225
100
AcDbEntity
8
1
100
AcDbVertex
100
AcDb2dVertex
62
5
10
79.250000
20
-25.375000
0
VERTEX
5
226
100
AcDbEntity
8
1
100
AcDbVertex
100
AcDb2dVertex
62
5
10
79.250000
20
-25.687500
0
VERTEX
5
227
100
AcDbEntity
8
1
100
AcDbVertex
100
AcDb2dVertex
62
5
10
78.000000
20
-27.875000
0
VERTEX
5
228
100
AcDbEntity
8
1
100
AcDbVertex
100
AcDb2dVertex
62
5
10
77.000000
20
-28.812500
0
VERTEX
5
229
100
AcDbEntity
8
1
100
AcDbVertex
100
AcDb2dVertex
62
5
10
76.000000
20
-29.437500
0
SEQEND
5
22a
100
AcDbEntity
8
1
0
LINE
5
22b
100
AcDbEntity
8
1
100
AcDbLine
6
CONTINUOUS
62
5
10
75.250000
20
-23.187500
11
78.750000
21
-23.187500
0
LINE
5
22c
100
AcDbEntity
8
1
100
AcDbLine
6
CONTINUOUS
62
5
10
42.750000
20
-23.812500
11
43.750000
21
-25.062500
0
POLYLINE
5
22d
100
AcDbEntity
8
1
6
CONTINUOUS
62
5
100
AcDb2dPolyline
66
1
10
0.0
20
0.0
30
0.0
70
0
0
VERTEX
5
22e
100
AcDbEntity
8
1
100
AcDbVertex
100
AcDb2dVertex
62
5
10
42.500000
20
-28.812500
0
VERTEX
5
22f
100
AcDbEntity
8
1
100
AcDbVertex
100
AcDb2dVertex
62
5
10
44.250000
20
-27.875000
0
VERTEX
5
230
100
AcDbEntity
8
1
100
AcDbVertex
100
AcDb2dVertex
62
5
10
45.750000
20
-26.625000
0
VERTEX
5
231
100
AcDbEntity
8
1
100
AcDbVertex
100
AcDb2dVertex
62
5
10
47.250000
20
-25.062500
0
SEQEND
5
232
100
AcDbEntity
8
1
0
POLYLINE
5
233
100
AcDbEntity
8
1
6
CONTINUOUS
62
5
100
AcDb2dPolyline
66
1
10
0.0
20
0.0
30
0.0
70
0
0
VERTEX
5
234
100
AcDbEntity
8
1
100
AcDbVertex
100
AcDb2dVertex
62
5
10
51.250000
20
-22.875000
0
VERTEX
5
235
100
AcDbEntity
8
1
100
AcDbVertex
100
AcDb2dVertex
62
5
10
51.250000
20
-29.125000
0
VERTEX
5
236
100
AcDbEntity
8
1
100
AcDbVertex
100
AcDb2dVertex
62
5
10
51.750000
20
-29.437500
0
VERTEX
5
237
100
AcDbEntity
8
1
100
AcDbVertex
100
AcDb2dVertex
62
5
10
53.000000
20
-28.812500
0
VERTEX
5
238
100
AcDbEntity
8
1
100
AcDbVertex
100
AcDb2dVertex
62
5
10
54.250000
20
-27.875000
0
VERTEX
5
239
100
AcDbEntity
8
1
100
AcDbVertex
100
AcDb2dVertex
62
5
10
55.500000
20
-26.625000
0
SEQEND
5
23a
100
AcDbEntity
8
1
0
POLYLINE
5
23b
100
AcDbEntity
8
1
6
CONTINUOUS
62
5
100
AcDb2dPolyline
66
1
10
0.0
20
0.0
30
0.0
70
0
0
VERTEX
5
23c
100
AcDbEntity
8
1
100
AcDbVertex
100
AcDb2dVertex
62
5
10
59.000000
20
-24.125000
0
VERTEX
5
23d
100
AcDbEntity
8
1
100
AcDbVertex
100
AcDb2dVertex
62
5
10
62.250000
20
-24.125000
0
VERTEX
5
23e
100
AcDbEntity
8
1
100
AcDbVertex
100
AcDb2dVertex
62
5
10
62.250000
20
-24.437500
0
VERTEX
5
23f
100
AcDbEntity
8
1
100
AcDbVertex
100
AcDb2dVertex
62
5
10
61.750000
20
-25.687500
0
VERTEX
5
240
100
AcDbEntity
8
1
100
AcDbVertex
100
AcDb2dVertex
62
5
10
61.250000
20
-26.625000
0
VERTEX
5
241
100
AcDbEntity
8
1
100
AcDbVertex
100
AcDb2dVertex
62
5
10
60.250000
20
-27.875000
0
VERTEX
5
242
100
AcDbEntity
8
1
100
AcDbVertex
100
AcDb2dVertex
62
5
10
58.500000
20
-29.437500
0
SEQEND
5
243
100
AcDbEntity
8
1
0
LINE
5
244
100
AcDbEntity
8
1
100
AcDbLine
6
CONTINUOUS
62
5
10
61.250000
20
-26.625000
11
63.250000
21
-29.437500
0
POLYLINE
5
245
100
AcDbEntity
8
1
6
CONTINUOUS
62
5
100
AcDb2dPolyline
66
1
10
0.0
20
0.0
30
0.0
70
0
0
VERTEX
5
246
100
AcDbEntity
8
1
100
AcDbVertex
100
AcDb2dVertex
62
5
10
44.250000
20
-12.562500
0
VERTEX
5
247
100
AcDbEntity
8
1
100
AcDbVertex
100
AcDb2dVertex
62
5
10
44.250000
20
-17.562500
0
VERTEX
5
248
100
AcDbEntity
8
1
100
AcDbVertex
100
AcDb2dVertex
62
5
10
44.000000
20
-18.812500
0
VERTEX
5
249
100
AcDbEntity
8
1
100
AcDbVertex
100
AcDb2dVertex
62
5
10
43.500000
20
-19.750000
0
VERTEX
5
24a
100
AcDbEntity
8
1
100
AcDbVertex
100
AcDb2dVertex
62
5
10
43.000000
20
-20.375000
0
SEQEND
5
24b
100
AcDbEntity
8
1
0
LINE
5
24c
100
AcDbEntity
8
1
100
AcDbLine
6
CONTINUOUS
62
5
10
42.000000
20
-16.625000
11
42.500000
21
-14.125000
0
POLYLINE
5
24d
100
AcDbEntity
8
1
6
CONTINUOUS
62
5
100
AcDb2dPolyline
66
1
10
0.0
20
0.0
30
0.0
70
0
0
VERTEX
5
24e
100
AcDbEntity
8
1
100
AcDbVertex
100
AcDb2dVertex
62
5
10
42.000000
20
-16.625000
0
VERTEX
5
24f
100
AcDbEntity
8
1
100
AcDbVertex
100
AcDb2dVertex
62
5
10
41.750000
20
-17.562500
0
VERTEX
5
250
100
AcDbEntity
8
1
100
AcDbVertex
100
AcDb2dVertex
62
5
10
41.250000
20
-18.812500
0
SEQEND
5
251
100
AcDbEntity
8
1
0
LINE
5
252
100
AcDbEntity
8
1
100
AcDbLine
6
CONTINUOUS
62
5
10
46.000000
20
-18.187500
11
46.500000
21
-19.125000
0
LINE
5
253
100
AcDbEntity
8
1
100
AcDbLine
6
CONTINUOUS
62
5
10
41.250000
20
-14.125000
11
43.750000
21
-14.125000
0
LINE
5
254
100
AcDbEntity
8
1
100
AcDbLine
6
CONTINUOUS
62
5
10
42.500000
20
-11.937500
11
42.500000
21
-20.687500
0
LINE
5
255
100
AcDbEntity
8
1
100
AcDbLine
6
CONTINUOUS
62
5
10
42.500000
20
-15.375000
11
43.500000
21
-17.250000
0
LINE
5
256
100
AcDbEntity
8
1
100
AcDbLine
6
CONTINUOUS
62
5
10
48.250000
20
-12.562500
11
44.250000
21
-12.562500
0
POLYLINE
5
257
100
AcDbEntity
8
1
6
CONTINUOUS
62
5
100
AcDb2dPolyline
66
1
10
0.0
20
0.0
30
0.0
70
0
0
VERTEX
5
258
100
AcDbEntity
8
1
100
AcDbVertex
100
AcDb2dVertex
62
5
10
44.250000
20
-15.062500
0
VERTEX
5
259
100
AcDbEntity
8
1
100
AcDbVertex
100
AcDb2dVertex
62
5
10
47.750000
20
-15.062500
0
VERTEX
5
25a
100
AcDbEntity
8
1
100
AcDbVertex
100
AcDb2dVertex
62
5
10
47.250000
20
-17.250000
0
VERTEX
5
25b
100
AcDbEntity
8
1
100
AcDbVertex
100
AcDb2dVertex
62
5
10
46.500000
20
-18.500000
0
VERTEX
5
25c
100
AcDbEntity
8
1
100
AcDbVertex
100
AcDb2dVertex
62
5
10
45.500000
20
-19.750000
0
VERTEX
5
25d
100
AcDbEntity
8
1
100
AcDbVertex
100
AcDb2dVertex
62
5
10
44.250000
20
-20.375000
0
SEQEND
5
25e
100
AcDbEntity
8
1
0
POLYLINE
5
25f
100
AcDbEntity
8
1
6
CONTINUOUS
62
5
100
AcDb2dPolyline
66
1
10
0.0
20
0.0
30
0.0
70
0
0
VERTEX
5
260
100
AcDbEntity
8
1
100
AcDbVertex
100
AcDb2dVertex
62
5
10
46.500000
20
-19.125000
0
VERTEX
5
261
100
AcDbEntity
8
1
100
AcDbVertex
100
AcDb2dVertex
62
5
10
47.500000
20
-20.062500
0
VERTEX
5
262
100
AcDbEntity
8
1
100
AcDbVertex
100
AcDb2dVertex
62
5
10
48.500000
20
-20.687500
0
SEQEND
5
263
100
AcDbEntity
8
1
0
LINE
5
264
100
AcDbEntity
8
1
100
AcDbLine
6
CONTINUOUS
62
5
10
45.000000
20
-15.687500
11
46.000000
21
-18.187500
0
POLYLINE
5
265
100
AcDbEntity
8
1
6
CONTINUOUS
62
5
100
AcDb2dPolyline
66
1
10
0.0
20
0.0
30
0.0
70
0
0
VERTEX
5
266
100
AcDbEntity
8
1
100
AcDbVertex
100
AcDb2dVertex
62
5
10
63.250000
20
-11.937500
0
VERTEX
5
267
100
AcDbEntity
8
1
100
AcDbVertex
100
AcDb2dVertex
62
5
10
62.500000
20
-14.125000
0
VERTEX
5
268
100
AcDbEntity
8
1
100
AcDbVertex
100
AcDb2dVertex
62
5
10
61.250000
20
-16.000000
0
SEQEND
5
269
100
AcDbEntity
8
1
0
LINE
5
26a
100
AcDbEntity
8
1
100
AcDbLine
6
CONTINUOUS
62
5
10
62.500000
20
-14.125000
11
62.500000
21
-20.687500
0
POLYLINE
5
26b
100
AcDbEntity
8
1
6
CONTINUOUS
62
5
100
AcDb2dPolyline
66
1
10
0.0
20
0.0
30
0.0
70
1
0
VERTEX
5
26c
100
AcDbEntity
8
1
100
AcDbVertex
100
AcDb2dVertex
62
5
10
63.750000
20
-20.375000
0
VERTEX
5
26d
100
AcDbEntity
8
1
100
AcDbVertex
100
AcDb2dVertex
62
5
10
63.750000
20
-12.250000
0
VERTEX
5
26e
100
AcDbEntity
8
1
100
AcDbVertex
100
AcDb2dVertex
62
5
10
68.250000
20
-12.250000
0
VERTEX
5
26f
100
AcDbEntity
8
1
100
AcDbVertex
100
AcDb2dVertex
62
5
10
68.250000
20
-20.375000
0
VERTEX
5
270
100
AcDbEntity
8
1
100
AcDbVertex
100
AcDb2dVertex
62
5
10
63.750000
20
-20.375000
0
SEQEND
5
271
100
AcDbEntity
8
1
0
LINE
5
272
100
AcDbEntity
8
1
100
AcDbLine
6
CONTINUOUS
62
5
10
64.500000
20
-14.437500
11
67.500000
21
-14.437500
0
LINE
5
273
100
AcDbEntity
8
1
100
AcDbLine
6
CONTINUOUS
62
5
10
66.000000
20
-13.500000
11
66.000000
21
-16.312500
0
POLYLINE
5
274
100
AcDbEntity
8
1
6
CONTINUOUS
62
5
100
AcDb2dPolyline
66
1
10
0.0
20
0.0
30
0.0
70
1
0
VERTEX
5
275
100
AcDbEntity
8
1
100
AcDbVertex
100
AcDb2dVertex
62
5
10
64.750000
20
-16.312500
0
VERTEX
5
276
100
AcDbEntity
8
1
100
AcDbVertex
100
AcDb2dVertex
62
5
10
64.750000
20
-19.125000
0
VERTEX
5
277
100
AcDbEntity
8
1
100
AcDbVertex
100
AcDb2dVertex
62
5
10
67.250000
20
-19.125000
0
VERTEX
5
278
100
AcDbEntity
8
1
100
AcDbVertex
100
AcDb2dVertex
62
5
10
67.250000
20
-16.312500
0
VERTEX
5
279
100
AcDbEntity
8
1
100
AcDbVertex
100
AcDb2dVertex
62
5
10
64.750000
20
-16.312500
0
SEQEND
5
27a
100
AcDbEntity
8
1
0
POLYLINE
5
27b
100
AcDbEntity
8
1
6
CONTINUOUS
62
5
100
AcDb2dPolyline
66
1
10
0.0
20
0.0
30
0.0
70
0
0
VERTEX
5
27c
100
AcDbEntity
8
1
100
AcDbVertex
100
AcDb2dVertex
62
5
10
70.500000
20
-12.250000
0
VERTEX
5
27d
100
AcDbEntity
8
1
100
AcDbVertex
100
AcDb2dVertex
62
5
10
70.500000
20
-17.875000
0
VERTEX
5
27e
100
AcDbEntity
8
1
100
AcDbVertex
100
AcDb2dVertex
62
5
10
70.000000
20
-19.125000
0
VERTEX
5
27f
100
AcDbEntity
8
1
100
AcDbVertex
100
AcDb2dVertex
62
5
10
69.500000
20
-20.062500
0
SEQEND
5
280
100
AcDbEntity
8
1
0
POLYLINE
5
281
100
AcDbEntity
8
1
6
CONTINUOUS
62
5
100
AcDb2dPolyline
66
1
10
0.0
20
0.0
30
0.0
70
0
0
VERTEX
5
282
100
AcDbEntity
8
1
100
AcDbVertex
100
AcDb2dVertex
62
5
10
74.500000
20
-19.750000
0
VERTEX
5
283
100
AcDbEntity
8
1
100
AcDbVertex
100
AcDb2dVertex
62
5
10
75.500000
20
-20.375000
0
VERTEX
5
284
100
AcDbEntity
8
1
100
AcDbVertex
100
AcDb2dVertex
62
5
10
75.500000
20
-12.250000
0
VERTEX
5
285
100
AcDbEntity
8
1
100
AcDbVertex
100
AcDb2dVertex
62
5
10
70.500000
20
-12.250000
0
SEQEND
5
286
100
AcDbEntity
8
1
0
LINE
5
287
100
AcDbEntity
8
1
100
AcDbLine
6
CONTINUOUS
62
5
10
70.500000
20
-14.750000
11
75.500000
21
-14.750000
0
LINE
5
288
100
AcDbEntity
8
1
100
AcDbLine
6
CONTINUOUS
62
5
10
73.000000
20
-12.250000
11
73.000000
21
-20.375000
0
LINE
5
289
100
AcDbEntity
8
1
100
AcDbLine
6
CONTINUOUS
62
5
10
70.500000
20
-17.250000
11
75.500000
21
-17.250000
0
LINE
5
28a
100
AcDbEntity
8
1
100
AcDbLine
6
CONTINUOUS
62
5
10
79.000000
20
-3.000000
11
81.500000
21
-3.000000
0
LINE
5
28b
100
AcDbEntity
8
1
100
AcDbLine
6
CONTINUOUS
62
5
10
80.250000
20
-3.000000
11
80.250000
21
-9.000000
0
POLYLINE
5
28c
100
AcDbEntity
8
1
6
CONTINUOUS
62
5
100
AcDb2dPolyline
66
1
10
0.0
20
0.0
30
0.0
70
0
0
VERTEX
5
28d
100
AcDbEntity
8
1
100
AcDbVertex
100
AcDb2dVertex
62
5
10
45.625000
20
-51.062500
0
VERTEX
5
28e
100
AcDbEntity
8
1
100
AcDbVertex
100
AcDb2dVertex
62
5
10
45.000000
20
-49.812500
0
VERTEX
5
28f
100
AcDbEntity
8
1
100
AcDbVertex
100
AcDb2dVertex
62
5
10
44.062500
20
-49.500000
0
VERTEX
5
290
100
AcDbEntity
8
1
100
AcDbVertex
100
AcDb2dVertex
62
5
10
43.437500
20
-49.500000
0
VERTEX
5
291
100
AcDbEntity
8
1
100
AcDbVertex
100
AcDb2dVertex
62
5
10
42.812500
20
-49.812500
0
VERTEX
5
292
100
AcDbEntity
8
1
100
AcDbVertex
100
AcDb2dVertex
62
5
10
42.187500
20
-50.750000
0
VERTEX
5
293
100
AcDbEntity
8
1
100
AcDbVertex
100
AcDb2dVertex
62
5
10
42.187500
20
-51.687500
0
VERTEX
5
294
100
AcDbEntity
8
1
100
AcDbVertex
100
AcDb2dVertex
62
5
10
42.812500
20
-52.625000
0
VERTEX
5
295
100
AcDbEntity
8
1
100
AcDbVertex
100
AcDb2dVertex
62
5
10
45.000000
20
-53.875000
0
VERTEX
5
296
100
AcDbEntity
8
1
100
AcDbVertex
100
AcDb2dVertex
62
5
10
45.625000
20
-54.812500
0
VERTEX
5
297
100
AcDbEntity
8
1
100
AcDbVertex
100
AcDb2dVertex
62
5
10
45.625000
20
-55.750000
0
VERTEX
5
298
100
AcDbEntity
8
1
100
AcDbVertex
100
AcDb2dVertex
62
5
10
45.000000
20
-56.687500
0
VERTEX
5
299
100
AcDbEntity
8
1
100
AcDbVertex
100
AcDb2dVertex
62
5
10
44.062500
20
-57.000000
0
VERTEX
5
29a
100
AcDbEntity
8
1
100
AcDbVertex
100
AcDb2dVertex
62
5
10
43.437500
20
-57.000000
0
VERTEX
5
29b
100
AcDbEntity
8
1
100
AcDbVertex
100
AcDb2dVertex
62
5
10
42.500000
20
-56.375000
0
VERTEX
5
29c
100
AcDbEntity
8
1
100
AcDbVertex
100
AcDb2dVertex
62
5
10
42.187500
20
-55.125000
0
SEQEND
5
29d
100
AcDbEntity
8
1
0
POLYLINE
5
29e
100
AcDbEntity
8
1
6
CONTINUOUS
62
5
100
AcDb2dPolyline
66
1
10
0.0
20
0.0
30
0.0
70
0
0
VERTEX
5
29f
100
AcDbEntity
8
1
100
AcDbVertex
100
AcDb2dVertex
62
5
10
22.750000
20
-3.000000
0
VERTEX
5
2a0
100
AcDbEntity
8
1
100
AcDbVertex
100
AcDb2dVertex
62
5
10
23.500000
20
-9.000000
0
VERTEX
5
2a1
100
AcDbEntity
8
1
100
AcDbVertex
100
AcDb2dVertex
62
5
10
24.250000
20
-3.000000
0
VERTEX
5
2a2
100
AcDbEntity
8
1
100
AcDbVertex
100
AcDb2dVertex
62
5
10
25.000000
20
-9.000000
0
VERTEX
5
2a3
100
AcDbEntity
8
1
100
AcDbVertex
100
AcDb2dVertex
62
5
10
25.750000
20
-3.000000
0
SEQEND
5
2a4
100
AcDbEntity
8
1
0
LINE
5
2a5
100
AcDbEntity
8
1
100
AcDbLine
6
CONTINUOUS
62
5
10
27.500000
20
-3.000000
11
29.000000
21
-3.000000
0
LINE
5
2a6
100
AcDbEntity
8
1
100
AcDbLine
6
CONTINUOUS
62
5
10
28.250000
20
-3.000000
11
28.250000
21
-9.000000
0
LINE
5
2a7
100
AcDbEntity
8
1
100
AcDbLine
6
CONTINUOUS
62
5
10
27.500000
20
-9.000000
11
29.000000
21
-9.000000
0
LINE
5
2a8
100
AcDbEntity
8
1
100
AcDbLine
6
CONTINUOUS
62
5
10
31.000000
20
-3.000000
11
31.000000
21
-9.000000
0
POLYLINE
5
2a9
100
AcDbEntity
8
1
6
CONTINUOUS
62
5
100
AcDb2dPolyline
66
1
10
0.0
20
0.0
30
0.0
70
0
0
VERTEX
5
2aa
100
AcDbEntity
8
1
100
AcDbVertex
100
AcDb2dVertex
62
5
10
31.000000
20
-3.000000
0
VERTEX
5
2ab
100
AcDbEntity
8
1
100
AcDbVertex
100
AcDb2dVertex
62
5
10
32.250000
20
-3.000000
0
VERTEX
5
2ac
100
AcDbEntity
8
1
100
AcDbVertex
100
AcDb2dVertex
62
5
10
32.750000
20
-3.250000
0
VERTEX
5
2ad
100
AcDbEntity
8
1
100
AcDbVertex
100
AcDb2dVertex
62
5
10
33.250000
20
-3.750000
0
VERTEX
5
2ae
100
AcDbEntity
8
1
100
AcDbVertex
100
AcDb2dVertex
62
5
10
33.500000
20
-4.750000
0
VERTEX
5
2af
100
AcDbEntity
8
1
100
AcDbVertex
100
AcDb2dVertex
62
5
10
33.500000
20
-7.250000
0
VERTEX
5
2b0
100
AcDbEntity
8
1
100
AcDbVertex
100
AcDb2dVertex
62
5
10
33.250000
20
-8.250000
0
VERTEX
5
2b1
100
AcDbEntity
8
1
100
AcDbVertex
100
AcDb2dVertex
62
5
10
32.750000
20
-8.750000
0
VERTEX
5
2b2
100
AcDbEntity
8
1
100
AcDbVertex
100
AcDb2dVertex
62
5
10
32.250000
20
-9.000000
0
VERTEX
5
2b3
100
AcDbEntity
8
1
100
AcDbVertex
100
AcDb2dVertex
62
5
10
31.000000
20
-9.000000
0
SEQEND
5
2b4
100
AcDbEntity
8
1
0
POLYLINE
5
2b5
100
AcDbEntity
8
1
6
CONTINUOUS
62
5
100
AcDb2dPolyline
66
1
10
0.0
20
0.0
30
0.0
70
0
0
VERTEX
5
2b6
100
AcDbEntity
8
1
100
AcDbVertex
100
AcDb2dVertex
62
5
10
37.500000
20
-3.000000
0
VERTEX
5
2b7
100
AcDbEntity
8
1
100
AcDbVertex
100
AcDb2dVertex
62
5
10
35.000000
20
-3.000000
0
VERTEX
5
2b8
100
AcDbEntity
8
1
100
AcDbVertex
100
AcDb2dVertex
62
5
10
35.000000
20
-9.000000
0
VERTEX
5
2b9
100
AcDbEntity
8
1
100
AcDbVertex
100
AcDb2dVertex
62
5
10
37.750000
20
-9.000000
0
SEQEND
5
2ba
100
AcDbEntity
8
1
0
LINE
5
2bb
100
AcDbEntity
8
1
100
AcDbLine
6
CONTINUOUS
62
5
10
35.000000
20
-6.000000
11
37.250000
21
-6.000000
0
POLYLINE
5
2bc
100
AcDbEntity
8
1
6
CONTINUOUS
62
5
100
AcDb2dPolyline
66
1
10
0.0
20
0.0
30
0.0
70
0
0
VERTEX
5
2bd
100
AcDbEntity
8
1
100
AcDbVertex
100
AcDb2dVertex
62
5
10
13.250000
20
-3.000000
0
VERTEX
5
2be
100
AcDbEntity
8
1
100
AcDbVertex
100
AcDb2dVertex
62
5
10
13.250000
20
-7.500000
0
VERTEX
5
2bf
100
AcDbEntity
8
1
100
AcDbVertex
100
AcDb2dVertex
62
5
10
13.000000
20
-8.500000
0
VERTEX
5
2c0
100
AcDbEntity
8
1
100
AcDbVertex
100
AcDb2dVertex
62
5
10
12.500000
20
-9.000000
0
VERTEX
5
2c1
100
AcDbEntity
8
1
100
AcDbVertex
100
AcDb2dVertex
62
5
10
11.750000
20
-9.000000
0
VERTEX
5
2c2
100
AcDbEntity
8
1
100
AcDbVertex
100
AcDb2dVertex
62
5
10
11.250000
20
-8.500000
0
VERTEX
5
2c3
100
AcDbEntity
8
1
100
AcDbVertex
100
AcDb2dVertex
62
5
10
11.000000
20
-7.500000
0
SEQEND
5
2c4
100
AcDbEntity
8
1
0
POLYLINE
5
2c5
100
AcDbEntity
8
1
6
CONTINUOUS
62
5
100
AcDb2dPolyline
66
1
10
0.0
20
0.0
30
0.0
70
0
0
VERTEX
5
2c6
100
AcDbEntity
8
1
100
AcDbVertex
100
AcDb2dVertex
62
5
10
17.250000
20
-6.000000
0
VERTEX
5
2c7
100
AcDbEntity
8
1
100
AcDbVertex
100
AcDb2dVertex
62
5
10
17.750000
20
-5.500000
0
VERTEX
5
2c8
100
AcDbEntity
8
1
100
AcDbVertex
100
AcDb2dVertex
62
5
10
18.000000
20
-5.500000
0
VERTEX
5
2c9
100
AcDbEntity
8
1
100
AcDbVertex
100
AcDb2dVertex
62
5
10
18.500000
20
-6.000000
0
VERTEX
5
2ca
100
AcDbEntity
8
1
100
AcDbVertex
100
AcDb2dVertex
62
5
10
18.500000
20
-6.250000
0
VERTEX
5
2cb
100
AcDbEntity
8
1
100
AcDbVertex
100
AcDb2dVertex
62
5
10
18.000000
20
-6.750000
0
VERTEX
5
2cc
100
AcDbEntity
8
1
100
AcDbVertex
100
AcDb2dVertex
62
5
10
17.750000
20
-6.750000
0
VERTEX
5
2cd
100
AcDbEntity
8
1
100
AcDbVertex
100
AcDb2dVertex
62
5
10
17.250000
20
-6.250000
0
VERTEX
5
2ce
100
AcDbEntity
8
1
100
AcDbVertex
100
AcDb2dVertex
62
5
10
17.250000
20
-6.000000
0
VERTEX
5
2cf
100
AcDbEntity
8
1
100
AcDbVertex
100
AcDb2dVertex
62
5
10
18.500000
20
-6.000000
0
SEQEND
5
2d0
100
AcDbEntity
8
1
0
LINE
5
2d1
100
AcDbEntity
8
1
100
AcDbLine
6
CONTINUOUS
62
5
10
18.500000
20
-6.250000
11
17.250000
21
-6.250000
0
LINE
5
2d2
100
AcDbEntity
8
1
100
AcDbLine
6
CONTINUOUS
62
5
10
17.500000
20
-6.500000
11
18.250000
21
-6.500000
0
LINE
5
2d3
100
AcDbEntity
8
1
100
AcDbLine
6
CONTINUOUS
62
5
10
18.250000
20
-5.750000
11
17.500000
21
-5.750000
0
POLYLINE
5
2d4
100
AcDbEntity
8
1
6
CONTINUOUS
62
5
100
AcDb2dPolyline
66
1
10
0.0
20
0.0
30
0.0
70
0
0
VERTEX
5
2d5
100
AcDbEntity
8
1
100
AcDbVertex
100
AcDb2dVertex
62
5
10
27.000000
20
-24.125000
0
VERTEX
5
2d6
100
AcDbEntity
8
1
100
AcDbVertex
100
AcDb2dVertex
62
5
10
30.250000
20
-24.125000
0
VERTEX
5
2d7
100
AcDbEntity
8
1
100
AcDbVertex
100
AcDb2dVertex
62
5
10
30.250000
20
-24.437500
0
VERTEX
5
2d8
100
AcDbEntity
8
1
100
AcDbVertex
100
AcDb2dVertex
62
5
10
29.750000
20
-25.687500
0
VERTEX
5
2d9
100
AcDbEntity
8
1
100
AcDbVertex
100
AcDb2dVertex
62
5
10
29.250000
20
-26.625000
0
VERTEX
5
2da
100
AcDbEntity
8
1
100
AcDbVertex
100
AcDb2dVertex
62
5
10
28.250000
20
-27.875000
0
VERTEX
5
2db
100
AcDbEntity
8
1
100
AcDbVertex
100
AcDb2dVertex
62
5
10
26.500000
20
-29.437500
0
SEQEND
5
2dc
100
AcDbEntity
8
1
0
LINE
5
2dd
100
AcDbEntity
8
1
100
AcDbLine
6
CONTINUOUS
62
5
10
29.250000
20
-26.625000
11
31.250000
21
-29.437500
0
LINE
5
2de
100
AcDbEntity
8
1
100
AcDbLine
6
CONTINUOUS
62
5
10
25.250000
20
-13.812500
11
27.000000
21
-13.812500
0
POLYLINE
5
2df
100
AcDbEntity
8
1
6
CONTINUOUS
62
5
100
AcDb2dPolyline
66
1
10
0.0
20
0.0
30
0.0
70
0
0
VERTEX
5
2e0
100
AcDbEntity
8
1
100
AcDbVertex
100
AcDb2dVertex
62
5
10
26.250000
20
-11.937500
0
VERTEX
5
2e1
100
AcDbEntity
8
1
100
AcDbVertex
100
AcDb2dVertex
62
5
10
26.250000
20
-19.437500
0
VERTEX
5
2e2
100
AcDbEntity
8
1
100
AcDbVertex
100
AcDb2dVertex
62
5
10
25.750000
20
-20.062500
0
VERTEX
5
2e3
100
AcDbEntity
8
1
100
AcDbVertex
100
AcDb2dVertex
62
5
10
25.500000
20
-20.062500
0
SEQEND
5
2e4
100
AcDbEntity
8
1
0
LINE
5
2e5
100
AcDbEntity
8
1
100
AcDbLine
6
CONTINUOUS
62
5
10
25.250000
20
-16.937500
11
26.750000
21
-16.000000
0
POLYLINE
5
2e6
100
AcDbEntity
8
1
6
CONTINUOUS
62
5
100
AcDb2dPolyline
66
1
10
0.0
20
0.0
30
0.0
70
1
0
VERTEX
5
2e7
100
AcDbEntity
8
1
100
AcDbVertex
100
AcDb2dVertex
62
5
10
28.500000
20
-13.812500
0
VERTEX
5
2e8
100
AcDbEntity
8
1
100
AcDbVertex
100
AcDb2dVertex
62
5
10
28.500000
20
-12.250000
0
VERTEX
5
2e9
100
AcDbEntity
8
1
100
AcDbVertex
100
AcDb2dVertex
62
5
10
31.000000
20
-12.250000
0
VERTEX
5
2ea
100
AcDbEntity
8
1
100
AcDbVertex
100
AcDb2dVertex
62
5
10
31.000000
20
-13.812500
0
VERTEX
5
2eb
100
AcDbEntity
8
1
100
AcDbVertex
100
AcDb2dVertex
62
5
10
28.500000
20
-13.812500
0
SEQEND
5
2ec
100
AcDbEntity
8
1
0
POLYLINE
5
2ed
100
AcDbEntity
8
1
6
CONTINUOUS
62
5
100
AcDb2dPolyline
66
1
10
0.0
20
0.0
30
0.0
70
1
0
VERTEX
5
2ee
100
AcDbEntity
8
1
100
AcDbVertex
100
AcDb2dVertex
62
5
10
27.750000
20
-14.750000
0
VERTEX
5
2ef
100
AcDbEntity
8
1
100
AcDbVertex
100
AcDb2dVertex
62
5
10
29.000000
20
-14.750000
0
VERTEX
5
2f0
100
AcDbEntity
8
1
100
AcDbVertex
100
AcDb2dVertex
62
5
10
29.000000
20
-16.000000
0
VERTEX
5
2f1
100
AcDbEntity
8
1
100
AcDbVertex
100
AcDb2dVertex
62
5
10
27.750000
20
-16.000000
0
VERTEX
5
2f2
100
AcDbEntity
8
1
100
AcDbVertex
100
AcDb2dVertex
62
5
10
27.750000
20
-14.750000
0
SEQEND
5
2f3
100
AcDbEntity
8
1
0
POLYLINE
5
2f4
100
AcDbEntity
8
1
6
CONTINUOUS
62
5
100
AcDb2dPolyline
66
1
10
0.0
20
0.0
30
0.0
70
1
0
VERTEX
5
2f5
100
AcDbEntity
8
1
100
AcDbVertex
100
AcDb2dVertex
62
5
10
30.500000
20
-14.750000
0
VERTEX
5
2f6
100
AcDbEntity
8
1
100
AcDbVertex
100
AcDb2dVertex
62
5
10
31.750000
20
-14.750000
0
VERTEX
5
2f7
100
AcDbEntity
8
1
100
AcDbVertex
100
AcDb2dVertex
62
5
10
31.750000
20
-16.000000
0
VERTEX
5
2f8
100
AcDbEntity
8
1
100
AcDbVertex
100
AcDb2dVertex
62
5
10
30.500000
20
-16.000000
0
VERTEX
5
2f9
100
AcDbEntity
8
1
100
AcDbVertex
100
AcDb2dVertex
62
5
10
30.500000
20
-14.750000
0
SEQEND
5
2fa
100
AcDbEntity
8
1
0
LINE
5
2fb
100
AcDbEntity
8
1
100
AcDbLine
6
CONTINUOUS
62
5
10
27.500000
20
-17.250000
11
32.250000
21
-17.250000
0
LINE
5
2fc
100
AcDbEntity
8
1
100
AcDbLine
6
CONTINUOUS
62
5
10
29.750000
20
-16.312500
11
29.750000
21
-20.375000
0
POLYLINE
5
2fd
100
AcDbEntity
8
1
6
CONTINUOUS
62
5
100
AcDb2dPolyline
66
1
10
0.0
20
0.0
30
0.0
70
0
0
VERTEX
5
2fe
100
AcDbEntity
8
1
100
AcDbVertex
100
AcDb2dVertex
62
5
10
29.750000
20
-17.562500
0
VERTEX
5
2ff
100
AcDbEntity
8
1
100
AcDbVertex
100
AcDb2dVertex
62
5
10
29.000000
20
-18.812500
0
VERTEX
5
300
100
AcDbEntity
8
1
100
AcDbVertex
100
AcDb2dVertex
62
5
10
28.500000
20
-19.125000
0
VERTEX
5
301
100
AcDbEntity
8
1
100
AcDbVertex
100
AcDb2dVertex
62
5
10
27.250000
20
-19.750000
0
SEQEND
5
302
100
AcDbEntity
8
1
0
POLYLINE
5
303
100
AcDbEntity
8
1
6
CONTINUOUS
62
5
100
AcDb2dPolyline
66
1
10
0.0
20
0.0
30
0.0
70
0
0
VERTEX
5
304
100
AcDbEntity
8
1
100
AcDbVertex
100
AcDb2dVertex
62
5
10
29.750000
20
-17.562500
0
VERTEX
5
305
100
AcDbEntity
8
1
100
AcDbVertex
100
AcDb2dVertex
62
5
10
30.500000
20
-18.812500
0
VERTEX
5
306
100
AcDbEntity
8
1
100
AcDbVertex
100
AcDb2dVertex
62
5
10
31.250000
20
-19.437500
0
VERTEX
5
307
100
AcDbEntity
8
1
100
AcDbVertex
100
AcDb2dVertex
62
5
10
32.250000
20
-19.750000
0
SEQEND
5
308
100
AcDbEntity
8
1
0
LINE
5
309
100
AcDbEntity
8
1
100
AcDbLine
6
CONTINUOUS
62
5
10
0.000000
20
0.000000
11
0.000000
21
-32.000000
0
LINE
5
30a
100
AcDbEntity
8
1
100
AcDbLine
6
CONTINUOUS
62
5
10
0.000000
20
0.000000
11
0.000000
21
-32.000000
0
LINE
5
30b
100
AcDbEntity
8
1
100
AcDbLine
6
CONTINUOUS
62
5
10
22.500000
20
-49.500000
11
22.500000
21
-57.000000
0
POLYLINE
5
30c
100
AcDbEntity
8
1
6
CONTINUOUS
62
5
100
AcDb2dPolyline
66
1
10
0.0
20
0.0
30
0.0
70
0
0
VERTEX
5
30d
100
AcDbEntity
8
1
100
AcDbVertex
100
AcDb2dVertex
62
5
10
22.500000
20
-49.500000
0
VERTEX
5
30e
100
AcDbEntity
8
1
100
AcDbVertex
100
AcDb2dVertex
62
5
10
24.062500
20
-49.500000
0
VERTEX
5
30f
100
AcDbEntity
8
1
100
AcDbVertex
100
AcDb2dVertex
62
5
10
24.687500
20
-49.812500
0
VERTEX
5
310
100
AcDbEntity
8
1
100
AcDbVertex
100
AcDb2dVertex
62
5
10
25.000000
20
-50.125000
0
VERTEX
5
311
100
AcDbEntity
8
1
100
AcDbVertex
100
AcDb2dVertex
62
5
10
25.312500
20
-50.750000
0
VERTEX
5
312
100
AcDbEntity
8
1
100
AcDbVertex
100
AcDb2dVertex
62
5
10
25.312500
20
-51.687500
0
VERTEX
5
313
100
AcDbEntity
8
1
100
AcDbVertex
100
AcDb2dVertex
62
5
10
25.000000
20
-52.312500
0
VERTEX
5
314
100
AcDbEntity
8
1
100
AcDbVertex
100
AcDb2dVertex
62
5
10
24.687500
20
-52.625000
0
VERTEX
5
315
100
AcDbEntity
8
1
100
AcDbVertex
100
AcDb2dVertex
62
5
10
24.062500
20
-52.937500
0
VERTEX
5
316
100
AcDbEntity
8
1
100
AcDbVertex
100
AcDb2dVertex
62
5
10
22.500000
20
-52.937500
0
SEQEND
5
317
100
AcDbEntity
8
1
0
POLYLINE
5
318
100
AcDbEntity
8
1
6
CONTINUOUS
62
5
100
AcDb2dPolyline
66
1
10
0.0
20
0.0
30
0.0
70
0
0
VERTEX
5
319
100
AcDbEntity
8
1
100
AcDbVertex
100
AcDb2dVertex
62
5
10
24.062500
20
-52.937500
0
VERTEX
5
31a
100
AcDbEntity
8
1
100
AcDbVertex
100
AcDb2dVertex
62
5
10
24.687500
20
-53.250000
0
VERTEX
5
31b
100
AcDbEntity
8
1
100
AcDbVertex
100
AcDb2dVertex
62
5
10
25.312500
20
-53.875000
0
VERTEX
5
31c
100
AcDbEntity
8
1
100
AcDbVertex
100
AcDb2dVertex
62
5
10
25.625000
20
-54.500000
0
VERTEX
5
31d
100
AcDbEntity
8
1
100
AcDbVertex
100
AcDb2dVertex
62
5
10
25.625000
20
-55.750000
0
VERTEX
5
31e
100
AcDbEntity
8
1
100
AcDbVertex
100
AcDb2dVertex
62
5
10
25.312500
20
-56.375000
0
VERTEX
5
31f
100
AcDbEntity
8
1
100
AcDbVertex
100
AcDb2dVertex
62
5
10
25.000000
20
-56.687500
0
VERTEX
5
320
100
AcDbEntity
8
1
100
AcDbVertex
100
AcDb2dVertex
62
5
10
24.375000
20
-57.000000
0
VERTEX
5
321
100
AcDbEntity
8
1
100
AcDbVertex
100
AcDb2dVertex
62
5
10
22.500000
20
-57.000000
0
SEQEND
5
322
100
AcDbEntity
8
1
0
POLYLINE
5
323
100
AcDbEntity
8
1
6
CONTINUOUS
62
5
100
AcDb2dPolyline
66
1
10
0.0
20
0.0
30
0.0
70
0
0
VERTEX
5
324
100
AcDbEntity
8
1
100
AcDbVertex
100
AcDb2dVertex
62
5
10
27.500000
20
-57.000000
0
VERTEX
5
325
100
AcDbEntity
8
1
100
AcDbVertex
100
AcDb2dVertex
62
5
10
27.500000
20
-49.500000
0
VERTEX
5
326
100
AcDbEntity
8
1
100
AcDbVertex
100
AcDb2dVertex
62
5
10
30.625000
20
-57.000000
0
VERTEX
5
327
100
AcDbEntity
8
1
100
AcDbVertex
100
AcDb2dVertex
62
5
10
30.625000
20
-49.500000
0
SEQEND
5
328
100
AcDbEntity
8
1
0
LINE
5
329
100
AcDbEntity
8
1
100
AcDbLine
6
CONTINUOUS
62
5
10
32.500000
20
-53.250000
11
35.625000
21
-53.250000
0
POLYLINE
5
32a
100
AcDbEntity
8
1
6
CONTINUOUS
62
5
100
AcDb2dPolyline
66
1
10
0.0
20
0.0
30
0.0
70
0
0
VERTEX
5
32b
100
AcDbEntity
8
1
100
AcDbVertex
100
AcDb2dVertex
62
5
10
12.187500
20
-49.500000
0
VERTEX
5
32c
100
AcDbEntity
8
1
100
AcDbVertex
100
AcDb2dVertex
62
5
10
13.125000
20
-57.000000
0
VERTEX
5
32d
100
AcDbEntity
8
1
100
AcDbVertex
100
AcDb2dVertex
62
5
10
14.062500
20
-49.500000
0
VERTEX
5
32e
100
AcDbEntity
8
1
100
AcDbVertex
100
AcDb2dVertex
62
5
10
15.000000
20
-57.000000
0
VERTEX
5
32f
100
AcDbEntity
8
1
100
AcDbVertex
100
AcDb2dVertex
62
5
10
15.937500
20
-49.500000
0
SEQEND
5
330
100
AcDbEntity
8
1
0
POLYLINE
5
331
100
AcDbEntity
8
1
6
CONTINUOUS
62
5
100
AcDb2dPolyline
66
1
10
0.0
20
0.0
30
0.0
70
0
0
VERTEX
5
332
100
AcDbEntity
8
1
100
AcDbVertex
100
AcDb2dVertex
62
5
10
20.625000
20
-51.062500
0
VERTEX
5
333
100
AcDbEntity
8
1
100
AcDbVertex
100
AcDb2dVertex
62
5
10
20.000000
20
-49.812500
0
VERTEX
5
334
100
AcDbEntity
8
1
100
AcDbVertex
100
AcDb2dVertex
62
5
10
19.062500
20
-49.500000
0
VERTEX
5
335
100
AcDbEntity
8
1
100
AcDbVertex
100
AcDb2dVertex
62
5
10
18.437500
20
-49.500000
0
VERTEX
5
336
100
AcDbEntity
8
1
100
AcDbVertex
100
AcDb2dVertex
62
5
10
17.812500
20
-49.812500
0
VERTEX
5
337
100
AcDbEntity
8
1
100
AcDbVertex
100
AcDb2dVertex
62
5
10
17.187500
20
-50.750000
0
VERTEX
5
338
100
AcDbEntity
8
1
100
AcDbVertex
100
AcDb2dVertex
62
5
10
17.187500
20
-51.687500
0
VERTEX
5
339
100
AcDbEntity
8
1
100
AcDbVertex
100
AcDb2dVertex
62
5
10
17.812500
20
-52.625000
0
VERTEX
5
33a
100
AcDbEntity
8
1
100
AcDbVertex
100
AcDb2dVertex
62
5
10
20.000000
20
-53.875000
0
VERTEX
5
33b
100
AcDbEntity
8
1
100
AcDbVertex
100
AcDb2dVertex
62
5
10
20.625000
20
-54.812500
0
VERTEX
5
33c
100
AcDbEntity
8
1
100
AcDbVertex
100
AcDb2dVertex
62
5
10
20.625000
20
-55.750000
0
VERTEX
5
33d
100
AcDbEntity
8
1
100
AcDbVertex
100
AcDb2dVertex
62
5
10
20.000000
20
-56.687500
0
VERTEX
5
33e
100
AcDbEntity
8
1
100
AcDbVertex
100
AcDb2dVertex
62
5
10
19.062500
20
-57.000000
0
VERTEX
5
33f
100
AcDbEntity
8
1
100
AcDbVertex
100
AcDb2dVertex
62
5
10
18.437500
20
-57.000000
0
VERTEX
5
340
100
AcDbEntity
8
1
100
AcDbVertex
100
AcDb2dVertex
62
5
10
17.500000
20
-56.375000
0
VERTEX
5
341
100
AcDbEntity
8
1
100
AcDbVertex
100
AcDb2dVertex
62
5
10
17.187500
20
-55.125000
0
SEQEND
5
342
100
AcDbEntity
8
1
0
LINE
5
343
100
AcDbEntity
8
1
100
AcDbLine
6
CONTINUOUS
62
5
10
37.250000
20
-26.312500
11
36.750000
21
-27.875000
0
LINE
5
344
100
AcDbEntity
8
1
100
AcDbLine
6
CONTINUOUS
62
5
10
35.250000
20
-23.187500
11
38.750000
21
-23.187500
0
LINE
5
345
100
AcDbEntity
8
1
100
AcDbLine
6
CONTINUOUS
62
5
10
34.000000
20
-25.375000
11
39.750000
21
-25.375000
0
POLYLINE
5
346
100
AcDbEntity
8
1
6
CONTINUOUS
62
5
100
AcDb2dPolyline
66
1
10
0.0
20
0.0
30
0.0
70
0
0
VERTEX
5
347
100
AcDbEntity
8
1
100
AcDbVertex
100
AcDb2dVertex
62
5
10
36.750000
20
-27.875000
0
VERTEX
5
348
100
AcDbEntity
8
1
100
AcDbVertex
100
AcDb2dVertex
62
5
10
36.000000
20
-28.812500
0
VERTEX
5
349
100
AcDbEntity
8
1
100
AcDbVertex
100
AcDb2dVertex
62
5
10
35.000000
20
-29.750000
0
SEQEND
5
34a
100
AcDbEntity
8
1
0
LINE
5
34b
100
AcDbEntity
8
1
100
AcDbLine
6
CONTINUOUS
62
5
10
37.250000
20
-25.375000
11
37.250000
21
-26.312500
0
POLYLINE
5
34c
100
AcDbEntity
8
1
6
CONTINUOUS
62
5
100
AcDb2dPolyline
66
1
10
0.0
20
0.0
30
0.0
70
0
0
VERTEX
5
34d
100
AcDbEntity
8
1
100
AcDbVertex
100
AcDb2dVertex
62
5
10
40.312500
20
-51.062500
0
VERTEX
5
34e
100
AcDbEntity
8
1
100
AcDbVertex
100
AcDb2dVertex
62
5
10
40.000000
20
-50.125000
0
VERTEX
5
34f
100
AcDbEntity
8
1
100
AcDbVertex
100
AcDb2dVertex
62
5
10
39.375000
20
-49.500000
0
VERTEX
5
350
100
AcDbEntity
8
1
100
AcDbVertex
100
AcDb2dVertex
62
5
10
38.437500
20
-49.500000
0
VERTEX
5
351
100
AcDbEntity
8
1
100
AcDbVertex
100
AcDb2dVertex
62
5
10
37.812500
20
-50.125000
0
VERTEX
5
352
100
AcDbEntity
8
1
100
AcDbVertex
100
AcDb2dVertex
62
5
10
37.500000
20
-50.750000
0
VERTEX
5
353
100
AcDbEntity
8
1
100
AcDbVertex
100
AcDb2dVertex
62
5
10
37.187500
20
-52.312500
0
VERTEX
5
354
100
AcDbEntity
8
1
100
AcDbVertex
100
AcDb2dVertex
62
5
10
37.187500
20
-54.187500
0
VERTEX
5
355
100
AcDbEntity
8
1
100
AcDbVertex
100
AcDb2dVertex
62
5
10
37.500000
20
-55.750000
0
VERTEX
5
356
100
AcDbEntity
8
1
100
AcDbVertex
100
AcDb2dVertex
62
5
10
37.812500
20
-56.375000
0
VERTEX
5
357
100
AcDbEntity
8
1
100
AcDbVertex
100
AcDb2dVertex
62
5
10
38.437500
20
-57.000000
0
VERTEX
5
358
100
AcDbEntity
8
1
100
AcDbVertex
100
AcDb2dVertex
62
5
10
39.375000
20
-57.000000
0
VERTEX
5
359
100
AcDbEntity
8
1
100
AcDbVertex
100
AcDb2dVertex
62
5
10
40.000000
20
-56.375000
0
VERTEX
5
35a
100
AcDbEntity
8
1
100
AcDbVertex
100
AcDb2dVertex
62
5
10
40.312500
20
-55.750000
0
SEQEND
5
35b
100
AcDbEntity
8
1
0
LINE
5
35c
100
AcDbEntity
8
1
100
AcDbLine
6
CONTINUOUS
62
5
10
39.687500
20
-53.562500
11
40.937500
21
-53.562500
0
LINE
5
35d
100
AcDbEntity
8
1
100
AcDbLine
6
CONTINUOUS
62
5
10
40.312500
20
-53.562500
11
40.312500
21
-57.000000
0
POLYLINE
5
35e
100
AcDbEntity
8
1
6
CONTINUOUS
62
5
100
AcDb2dPolyline
66
1
10
0.0
20
0.0
30
0.0
70
0
0
VERTEX
5
35f
100
AcDbEntity
8
1
100
AcDbVertex
100
AcDb2dVertex
62
5
10
35.250000
20
-11.625000
0
VERTEX
5
360
100
AcDbEntity
8
1
100
AcDbVertex
100
AcDb2dVertex
62
5
10
34.500000
20
-13.500000
0
VERTEX
5
361
100
AcDbEntity
8
1
100
AcDbVertex
100
AcDb2dVertex
62
5
10
33.250000
20
-16.000000
0
SEQEND
5
362
100
AcDbEntity
8
1
0
LINE
5
363
100
AcDbEntity
8
1
100
AcDbLine
6
CONTINUOUS
62
5
10
34.500000
20
-13.500000
11
34.500000
21
-20.375000
0
POLYLINE
5
364
100
AcDbEntity
8
1
6
CONTINUOUS
62
5
100
AcDb2dPolyline
66
1
10
0.0
20
0.0
30
0.0
70
0
0
VERTEX
5
365
100
AcDbEntity
8
1
100
AcDbVertex
100
AcDb2dVertex
62
5
10
37.500000
20
-11.625000
0
VERTEX
5
366
100
AcDbEntity
8
1
100
AcDbVertex
100
AcDb2dVertex
62
5
10
36.750000
20
-13.187500
0
VERTEX
5
367
100
AcDbEntity
8
1
100
AcDbVertex
100
AcDb2dVertex
62
5
10
35.250000
20
-15.062500
0
SEQEND
5
368
100
AcDbEntity
8
1
0
LINE
5
369
100
AcDbEntity
8
1
100
AcDbLine
6
CONTINUOUS
62
5
10
36.750000
20
-13.187500
11
40.500000
21
-13.187500
0
LINE
5
36a
100
AcDbEntity
8
1
100
AcDbLine
6
CONTINUOUS
62
5
10
37.250000
20
-13.187500
11
37.250000
21
-20.375000
0
LINE
5
36b
100
AcDbEntity
8
1
100
AcDbLine
6
CONTINUOUS
62
5
10
37.250000
20
-15.375000
11
39.750000
21
-15.375000
0
LINE
5
36c
100
AcDbEntity
8
1
100
AcDbLine
6
CONTINUOUS
62
5
10
37.250000
20
-17.875000
11
39.750000
21
-17.875000
0
POLYLINE
5
36d
100
AcDbEntity
8
6
6
DOT2
62
5
100
AcDb2dPolyline
66
1
10
0.0
20
0.0
30
0.0
70
0
0
VERTEX
5
36e
100
AcDbEntity
8
6
100
AcDbVertex
100
AcDb2dVertex
62
5
10
113.750000
20
-80.500000
0
VERTEX
5
36f
100
AcDbEntity
8
6
100
AcDbVertex
100
AcDb2dVertex
62
5
10
110.937500
20
-86.125000
0
VERTEX
5
370
100
AcDbEntity
8
6
100
AcDbVertex
100
AcDb2dVertex
62
5
10
114.687500
20
-86.125000
0
SEQEND
5
371
100
AcDbEntity
8
6
0
LINE
5
372
100
AcDbEntity
8
6
100
AcDbLine
6
DOT2
62
5
10
113.750000
20
-80.500000
11
113.750000
21
-88.000000
0
LINE
5
373
100
AcDbEntity
8
6
100
AcDbLine
6
DOT2
62
5
10
113.125000
20
-88.000000
11
114.375000
21
-88.000000
0
POLYLINE
5
374
100
AcDbEntity
8
6
6
DOT2
62
5
100
AcDb2dPolyline
66
1
10
0.0
20
0.0
30
0.0
70
0
0
VERTEX
5
375
100
AcDbEntity
8
6
100
AcDbVertex
100
AcDb2dVertex
62
5
10
116.250000
20
-82.375000
0
VERTEX
5
376
100
AcDbEntity
8
6
100
AcDbVertex
100
AcDb2dVertex
62
5
10
116.562500
20
-81.125000
0
VERTEX
5
377
100
AcDbEntity
8
6
100
AcDbVertex
100
AcDb2dVertex
62
5
10
117.187500
20
-80.500000
0
VERTEX
5
378
100
AcDbEntity
8
6
100
AcDbVertex
100
AcDb2dVertex
62
5
10
118.125000
20
-80.500000
0
VERTEX
5
379
100
AcDbEntity
8
6
100
AcDbVertex
100
AcDb2dVertex
62
5
10
118.750000
20
-80.812500
0
VERTEX
5
37a
100
AcDbEntity
8
6
100
AcDbVertex
100
AcDb2dVertex
62
5
10
119.062500
20
-81.750000
0
VERTEX
5
37b
100
AcDbEntity
8
6
100
AcDbVertex
100
AcDb2dVertex
62
5
10
119.062500
20
-83.000000
0
VERTEX
5
37c
100
AcDbEntity
8
6
100
AcDbVertex
100
AcDb2dVertex
62
5
10
118.750000
20
-83.625000
0
VERTEX
5
37d
100
AcDbEntity
8
6
100
AcDbVertex
100
AcDb2dVertex
62
5
10
118.125000
20
-84.250000
0
VERTEX
5
37e
100
AcDbEntity
8
6
100
AcDbVertex
100
AcDb2dVertex
62
5
10
117.187500
20
-84.250000
0
SEQEND
5
37f
100
AcDbEntity
8
6
0
POLYLINE
5
380
100
AcDbEntity
8
6
6
DOT2
62
5
100
AcDb2dPolyline
66
1
10
0.0
20
0.0
30
0.0
70
0
0
VERTEX
5
381
100
AcDbEntity
8
6
100
AcDbVertex
100
AcDb2dVertex
62
5
10
118.125000
20
-84.250000
0
VERTEX
5
382
100
AcDbEntity
8
6
100
AcDbVertex
100
AcDb2dVertex
62
5
10
119.062500
20
-84.875000
0
VERTEX
5
383
100
AcDbEntity
8
6
100
AcDbVertex
100
AcDb2dVertex
62
5
10
119.375000
20
-85.812500
0
VERTEX
5
384
100
AcDbEntity
8
6
100
AcDbVertex
100
AcDb2dVertex
62
5
10
119.375000
20
-86.750000
0
VERTEX
5
385
100
AcDbEntity
8
6
100
AcDbVertex
100
AcDb2dVertex
62
5
10
119.062500
20
-87.375000
0
VERTEX
5
386
100
AcDbEntity
8
6
100
AcDbVertex
100
AcDb2dVertex
62
5
10
118.125000
20
-88.000000
0
VERTEX
5
387
100
AcDbEntity
8
6
100
AcDbVertex
100
AcDb2dVertex
62
5
10
117.187500
20
-88.000000
0
VERTEX
5
388
100
AcDbEntity
8
6
100
AcDbVertex
100
AcDb2dVertex
62
5
10
116.562500
20
-87.687500
0
VERTEX
5
389
100
AcDbEntity
8
6
100
AcDbVertex
100
AcDb2dVertex
62
5
10
115.937500
20
-86.750000
0
SEQEND
5
38a
100
AcDbEntity
8
6
0
ARC
5
38b
100
AcDbEntity
8
2
100
AcDbCircle
6
CONTINUOUS
62
5
10
123.500000
20
-160.050000
40
1.000000
100
AcDbArc
50
-89.999999
51
89.999999
0
LINE
5
38c
100
AcDbEntity
8
2
100
AcDbLine
6
CONTINUOUS
62
5
10
123.500000
20
-159.050000
11
116.500000
21
-159.050000
0
ARC
5
38d
100
AcDbEntity
8
2
100
AcDbCircle
6
CONTINUOUS
62
5
10
116.500000
20
-160.050000
40
1.000000
100
AcDbArc
50
89.999999
51
-89.999999
0
LINE
5
38e
100
AcDbEntity
8
2
100
AcDbLine
6
CONTINUOUS
62
5
10
116.500000
20
-161.050000
11
123.500000
21
-161.050000
0
ARC
5
38f
100
AcDbEntity
8
2
100
AcDbCircle
6
CONTINUOUS
62
5
10
123.500000
20
-160.050000
40
1.100000
100
AcDbArc
50
-89.999999
51
89.999999
0
LINE
5
390
100
AcDbEntity
8
2
100
AcDbLine
6
CONTINUOUS
62
5
10
123.500000
20
-158.950000
11
116.500000
21
-158.950000
0
ARC
5
391
100
AcDbEntity
8
2
100
AcDbCircle
6
CONTINUOUS
62
5
10
116.500000
20
-160.050000
40
1.100000
100
AcDbArc
50
89.999999
51
-89.999999
0
LINE
5
392
100
AcDbEntity
8
2
100
AcDbLine
6
CONTINUOUS
62
5
10
116.500000
20
-161.150000
11
123.500000
21
-161.150000
0
LINE
5
393
100
AcDbEntity
8
1
100
AcDbLine
6
CONTINUOUS
62
5
10
-40.000000
20
-32.000000
11
280.000000
21
-32.000000
0
LINE
5
394
100
AcDbEntity
8
1
100
AcDbLine
6
CONTINUOUS
62
5
10
-40.000000
20
-32.000000
11
280.000000
21
-32.000000
0
LINE
5
395
100
AcDbEntity
8
3
100
AcDbLine
6
CONTINUOUS
62
5
10
129.500000
20
-265.750000
11
130.500000
21
-266.050000
0
ARC
5
396
100
AcDbEntity
8
3
100
AcDbCircle
6
CONTINUOUS
62
5
10
129.276039
20
-266.949944
40
0.300000
100
AcDbArc
50
-175.236357
51
-89.999999
0
LINE
5
397
100
AcDbEntity
8
3
100
AcDbLine
6
CONTINUOUS
62
5
10
129.276039
20
-267.249944
11
131.212239
21
-267.249945
0
ARC
5
398
100
AcDbEntity
8
3
100
AcDbCircle
6
CONTINUOUS
62
5
10
131.212240
20
-266.949945
40
0.300000
100
AcDbArc
50
-90.000021
51
-2.385944
0
LINE
5
399
100
AcDbEntity
8
3
100
AcDbLine
6
CONTINUOUS
62
5
10
131.511980
20
-266.962434
11
131.549998
21
-266.050000
0
LINE
5
39a
100
AcDbEntity
8
3
100
AcDbLine
6
CONTINUOUS
62
5
10
128.875004
20
-265.750000
11
128.977075
21
-266.974858
0
POLYLINE
5
39b
100
AcDbEntity
8
3
6
CONTINUOUS
62
5
100
AcDb2dPolyline
66
1
10
0.0
20
0.0
30
0.0
70
0
0
VERTEX
5
39c
100
AcDbEntity
8
3
100
AcDbVertex
100
AcDb2dVertex
62
5
10
132.207982
20
-266.050000
0
VERTEX
5
39d
100
AcDbEntity
8
3
100
AcDbVertex
100
AcDb2dVertex
62
5
10
132.000000
20
-267.249945
0
VERTEX
5
39e
100
AcDbEntity
8
3
100
AcDbVertex
100
AcDb2dVertex
62
5
10
131.212240
20
-267.249945
0
SEQEND
5
39f
100
AcDbEntity
8
3
0
LINE
5
3a0
100
AcDbEntity
8
3
100
AcDbLine
6
CONTINUOUS
62
5
10
101.950000
20
-186.050000
11
101.900000
21
-186.050000
0
LINE
5
3a1
100
AcDbEntity
8
3
100
AcDbLine
6
CONTINUOUS
62
5
10
101.900000
20
-187.050000
11
101.950000
21
-187.050000
0
LINE
5
3a2
100
AcDbEntity
8
3
100
AcDbLine
6
CONTINUOUS
62
5
10
101.950000
20
-180.050000
11
101.900000
21
-180.050000
0
LINE
5
3a3
100
AcDbEntity
8
3
100
AcDbLine
6
CONTINUOUS
62
5
10
101.900000
20
-179.050000
11
101.950000
21
-179.050000
0
ARC
5
3a4
100
AcDbEntity
8
3
100
AcDbCircle
6
CONTINUOUS
62
5
10
110.723961
20
-266.949944
40
0.300000
100
AcDbArc
50
-89.999999
51
-4.763642
0
LINE
5
3a5
100
AcDbEntity
8
3
100
AcDbLine
6
CONTINUOUS
62
5
10
110.723961
20
-267.249944
11
108.787760
21
-267.249945
0
ARC
5
3a6
100
AcDbEntity
8
3
100
AcDbCircle
6
CONTINUOUS
62
5
10
108.787760
20
-266.949945
40
0.300000
100
AcDbArc
50
-177.614055
51
-89.999977
0
LINE
5
3a7
100
AcDbEntity
8
3
100
AcDbLine
6
CONTINUOUS
62
5
10
108.488020
20
-266.962434
11
108.450002
21
-266.050000
0
LINE
5
3a8
100
AcDbEntity
8
3
100
AcDbLine
6
CONTINUOUS
62
5
10
111.124996
20
-265.750000
11
111.022925
21
-266.974858
0
LINE
5
3a9
100
AcDbEntity
8
3
100
AcDbLine
6
CONTINUOUS
62
5
10
109.500000
20
-266.050000
11
110.500001
21
-265.750000
0
POLYLINE
5
3aa
100
AcDbEntity
8
3
6
CONTINUOUS
62
5
100
AcDb2dPolyline
66
1
10
0.0
20
0.0
30
0.0
70
0
0
VERTEX
5
3ab
100
AcDbEntity
8
3
100
AcDbVertex
100
AcDb2dVertex
62
5
10
107.790000
20
-266.050000
0
VERTEX
5
3ac
100
AcDbEntity
8
3
100
AcDbVertex
100
AcDb2dVertex
62
5
10
108.000000
20
-267.249945
0
VERTEX
5
3ad
100
AcDbEntity
8
3
100
AcDbVertex
100
AcDb2dVertex
62
5
10
108.787612
20
-267.249945
0
SEQEND
5
3ae
100
AcDbEntity
8
3
0
LINE
5
3af
100
AcDbEntity
8
3
100
AcDbLine
6
CONTINUOUS
62
5
10
110.500000
20
-265.750000
11
129.500000
21
-265.750000
0
ARC
5
3b0
100
AcDbEntity
8
4
100
AcDbCircle
6
CONTINUOUS
62
5
10
124.218054
20
-261.120375
40
0.300000
100
AcDbArc
50
9.593986
51
90.804810
0
ARC
5
3b1
100
AcDbEntity
8
4
100
AcDbCircle
6
CONTINUOUS
62
5
10
120.000001
20
39.150000
40
300.000000
100
AcDbArc
50
-90.804810
51
-89.195189
0
ARC
5
3b2
100
AcDbEntity
8
4
100
AcDbCircle
6
CONTINUOUS
62
5
10
115.781947
20
-261.120375
40
0.300000
100
AcDbArc
50
89.195189
51
170.406011
0
ARC
5
3b3
100
AcDbEntity
8
3
100
AcDbCircle
6
CONTINUOUS
62
5
10
140.742086
20
-261.980850
40
0.500000
100
AcDbArc
50
5.000000
51
87.620068
0
ARC
5
3b4
100
AcDbEntity
8
3
100
AcDbCircle
6
CONTINUOUS
62
5
10
120.000000
20
-761.050000
40
500.000000
100
AcDbArc
50
87.620068
51
92.379931
0
ARC
5
3b5
100
AcDbEntity
8
3
100
AcDbCircle
6
CONTINUOUS
62
5
10
99.257914
20
-261.980850
40
0.500000
100
AcDbArc
50
92.379931
51
174.999998
0
POLYLINE
5
3b6
100
AcDbEntity
8
3
6
CONTINUOUS
62
5
100
AcDb2dPolyline
66
1
10
0.0
20
0.0
30
0.0
70
0
0
VERTEX
5
3b7
100
AcDbEntity
8
3
100
AcDbVertex
100
AcDb2dVertex
62
5
10
98.759817
20
-261.937273
0
VERTEX
5
3b8
100
AcDbEntity
8
3
100
AcDbVertex
100
AcDb2dVertex
62
5
10
98.400000
20
-266.050000
0
VERTEX
5
3b9
100
AcDbEntity
8
3
100
AcDbVertex
100
AcDb2dVertex
62
5
10
109.500000
20
-266.050000
0
SEQEND
5
3ba
100
AcDbEntity
8
3
0
POLYLINE
5
3bb
100
AcDbEntity
8
3
6
CONTINUOUS
62
5
100
AcDb2dPolyline
66
1
10
0.0
20
0.0
30
0.0
70
0
0
VERTEX
5
3bc
100
AcDbEntity
8
3
100
AcDbVertex
100
AcDb2dVertex
62
5
10
130.500000
20
-266.050000
0
VERTEX
5
3bd
100
AcDbEntity
8
3
100
AcDbVertex
100
AcDb2dVertex
62
5
10
141.600000
20
-266.050000
0
VERTEX
5
3be
100
AcDbEntity
8
3
100
AcDbVertex
100
AcDb2dVertex
62
5
10
141.240183
20
-261.937273
0
SEQEND
5
3bf
100
AcDbEntity
8
3
0
LINE
5
3c0
100
AcDbEntity
8
6
100
AcDbLine
6
CONTINUOUS
62
5
10
133.100000
20
-114.250000
11
168.600000
21
-114.250000
0
LINE
5
3c1
100
AcDbEntity
8
6
100
AcDbLine
6
CONTINUOUS
62
5
10
133.100000
20
-205.850000
11
168.600000
21
-205.850000
0
POLYLINE
5
3c2
100
AcDbEntity
8
6
6
CONTINUOUS
62
5
100
AcDb2dPolyline
66
1
10
0.0
20
0.0
30
0.0
70
0
0
VERTEX
5
3c3
100
AcDbEntity
8
6
100
AcDbVertex
100
AcDb2dVertex
62
5
10
166.600000
20
-160.050000
0
VERTEX
5
3c4
100
AcDbEntity
8
6
100
AcDbVertex
100
AcDb2dVertex
62
5
10
166.600000
20
-205.850000
0
VERTEX
5
3c5
100
AcDbEntity
8
6
100
AcDbVertex
100
AcDb2dVertex
62
5
10
165.600000
20
-199.850000
0
VERTEX
5
3c6
100
AcDbEntity
8
6
100
AcDbVertex
100
AcDb2dVertex
62
5
10
167.600000
20
-199.850000
0
VERTEX
5
3c7
100
AcDbEntity
8
6
100
AcDbVertex
100
AcDb2dVertex
62
5
10
166.600000
20
-205.850000
0
VERTEX
5
3c8
100
AcDbEntity
8
6
100
AcDbVertex
100
AcDb2dVertex
62
5
10
166.100000
20
-199.850000
0
VERTEX
5
3c9
100
AcDbEntity
8
6
100
AcDbVertex
100
AcDb2dVertex
62
5
10
167.100000
20
-199.850000
0
VERTEX
5
3ca
100
AcDbEntity
8
6
100
AcDbVertex
100
AcDb2dVertex
62
5
10
166.600000
20
-205.850000
0
SEQEND
5
3cb
100
AcDbEntity
8
6
0
POLYLINE
5
3cc
100
AcDbEntity
8
6
6
CONTINUOUS
62
5
100
AcDb2dPolyline
66
1
10
0.0
20
0.0
30
0.0
70
0
0
VERTEX
5
3cd
100
AcDbEntity
8
6
100
AcDbVertex
100
AcDb2dVertex
62
5
10
166.600000
20
-160.050000
0
VERTEX
5
3ce
100
AcDbEntity
8
6
100
AcDbVertex
100
AcDb2dVertex
62
5
10
166.600000
20
-114.250000
0
VERTEX
5
3cf
100
AcDbEntity
8
6
100
AcDbVertex
100
AcDb2dVertex
62
5
10
167.600000
20
-120.250000
0
VERTEX
5
3d0
100
AcDbEntity
8
6
100
AcDbVertex
100
AcDb2dVertex
62
5
10
165.600000
20
-120.250000
0
VERTEX
5
3d1
100
AcDbEntity
8
6
100
AcDbVertex
100
AcDb2dVertex
62
5
10
166.600000
20
-114.250000
0
VERTEX
5
3d2
100
AcDbEntity
8
6
100
AcDbVertex
100
AcDb2dVertex
62
5
10
167.100000
20
-120.250000
0
VERTEX
5
3d3
100
AcDbEntity
8
6
100
AcDbVertex
100
AcDb2dVertex
62
5
10
166.100000
20
-120.250000
0
VERTEX
5
3d4
100
AcDbEntity
8
6
100
AcDbVertex
100
AcDb2dVertex
62
5
10
166.600000
20
-114.250000
0
SEQEND
5
3d5
100
AcDbEntity
8
6
0
LINE
5
3d6
100
AcDbEntity
8
6
100
AcDbLine
6
CONTINUOUS
62
5
10
141.600000
20
-194.350000
11
141.600000
21
-87.250000
0
LINE
5
3d7
100
AcDbEntity
8
6
100
AcDbLine
6
CONTINUOUS
62
5
10
98.400000
20
-194.350000
11
98.400000
21
-87.250000
0
POLYLINE
5
3d8
100
AcDbEntity
8
6
6
CONTINUOUS
62
5
100
AcDb2dPolyline
66
1
10
0.0
20
0.0
30
0.0
70
0
0
VERTEX
5
3d9
100
AcDbEntity
8
6
100
AcDbVertex
100
AcDb2dVertex
62
5
10
120.000000
20
-89.250000
0
VERTEX
5
3da
100
AcDbEntity
8
6
100
AcDbVertex
100
AcDb2dVertex
62
5
10
98.400000
20
-89.250000
0
VERTEX
5
3db
100
AcDbEntity
8
6
100
AcDbVertex
100
AcDb2dVertex
62
5
10
104.400000
20
-88.250000
0
VERTEX
5
3dc
100
AcDbEntity
8
6
100
AcDbVertex
100
AcDb2dVertex
62
5
10
104.400000
20
-90.250000
0
VERTEX
5
3dd
100
AcDbEntity
8
6
100
AcDbVertex
100
AcDb2dVertex
62
5
10
98.400000
20
-89.250000
0
VERTEX
5
3de
100
AcDbEntity
8
6
100
AcDbVertex
100
AcDb2dVertex
62
5
10
104.400000
20
-88.750000
0
VERTEX
5
3df
100
AcDbEntity
8
6
100
AcDbVertex
100
AcDb2dVertex
62
5
10
104.400000
20
-89.750000
0
VERTEX
5
3e0
100
AcDbEntity
8
6
100
AcDbVertex
100
AcDb2dVertex
62
5
10
98.400000
20
-89.250000
0
SEQEND
5
3e1
100
AcDbEntity
8
6
0
POLYLINE
5
3e2
100
AcDbEntity
8
6
6
CONTINUOUS
62
5
100
AcDb2dPolyline
66
1
10
0.0
20
0.0
30
0.0
70
0
0
VERTEX
5
3e3
100
AcDbEntity
8
6
100
AcDbVertex
100
AcDb2dVertex
62
5
10
120.000000
20
-89.250000
0
VERTEX
5
3e4
100
AcDbEntity
8
6
100
AcDbVertex
100
AcDb2dVertex
62
5
10
141.600000
20
-89.250000
0
VERTEX
5
3e5
100
AcDbEntity
8
6
100
AcDbVertex
100
AcDb2dVertex
62
5
10
135.600000
20
-90.250000
0
VERTEX
5
3e6
100
AcDbEntity
8
6
100
AcDbVertex
100
AcDb2dVertex
62
5
10
135.600000
20
-88.250000
0
VERTEX
5
3e7
100
AcDbEntity
8
6
100
AcDbVertex
100
AcDb2dVertex
62
5
10
141.600000
20
-89.250000
0
VERTEX
5
3e8
100
AcDbEntity
8
6
100
AcDbVertex
100
AcDb2dVertex
62
5
10
135.600000
20
-89.750000
0
VERTEX
5
3e9
100
AcDbEntity
8
6
100
AcDbVertex
100
AcDb2dVertex
62
5
10
135.600000
20
-88.750000
0
VERTEX
5
3ea
100
AcDbEntity
8
6
100
AcDbVertex
100
AcDb2dVertex
62
5
10
141.600000
20
-89.250000
0
SEQEND
5
3eb
100
AcDbEntity
8
6
0
ARC
5
3ec
100
AcDbEntity
8
2
100
AcDbCircle
6
CONTINUOUS
62
5
10
137.550000
20
-201.850000
40
0.500000
100
AcDbArc
50
-89.999999
51
0.000000
0
LINE
5
3ed
100
AcDbEntity
8
2
100
AcDbLine
6
CONTINUOUS
62
5
10
138.050000
20
-201.850000
11
138.050000
21
-118.250000
0
ARC
5
3ee
100
AcDbEntity
8
2
100
AcDbCircle
6
CONTINUOUS
62
5
10
137.550000
20
-118.250000
40
0.500000
100
AcDbArc
50
0.000000
51
89.999999
0
LINE
5
3ef
100
AcDbEntity
8
2
100
AcDbLine
6
CONTINUOUS
62
5
10
137.550000
20
-117.750000
11
102.450000
21
-117.750000
0
ARC
5
3f0
100
AcDbEntity
8
2
100
AcDbCircle
6
CONTINUOUS
62
5
10
102.450000
20
-118.250000
40
0.500000
100
AcDbArc
50
89.999999
51
179.999998
0
LINE
5
3f1
100
AcDbEntity
8
2
100
AcDbLine
6
CONTINUOUS
62
5
10
101.950000
20
-118.250000
11
101.950000
21
-201.850000
0
ARC
5
3f2
100
AcDbEntity
8
2
100
AcDbCircle
6
CONTINUOUS
62
5
10
102.450000
20
-201.850000
40
0.500000
100
AcDbArc
50
179.999998
51
-89.999999
0
LINE
5
3f3
100
AcDbEntity
8
2
100
AcDbLine
6
CONTINUOUS
62
5
10
102.450000
20
-202.350000
11
137.550000
21
-202.350000
0
ARC
5
3f4
100
AcDbEntity
8
3
100
AcDbCircle
6
CONTINUOUS
62
5
10
137.600000
20
-201.900000
40
0.500000
100
AcDbArc
50
-89.999999
51
0.000000
0
LINE
5
3f5
100
AcDbEntity
8
3
100
AcDbLine
6
CONTINUOUS
62
5
10
138.100000
20
-201.900000
11
138.100000
21
-118.200000
0
ARC
5
3f6
100
AcDbEntity
8
3
100
AcDbCircle
6
CONTINUOUS
62
5
10
137.600000
20
-118.200000
40
0.500000
100
AcDbArc
50
0.000000
51
89.999999
0
LINE
5
3f7
100
AcDbEntity
8
3
100
AcDbLine
6
CONTINUOUS
62
5
10
137.600000
20
-117.700000
11
102.400000
21
-117.700000
0
ARC
5
3f8
100
AcDbEntity
8
3
100
AcDbCircle
6
CONTINUOUS
62
5
10
102.400000
20
-118.200000
40
0.500000
100
AcDbArc
50
89.999999
51
179.999998
0
LINE
5
3f9
100
AcDbEntity
8
3
100
AcDbLine
6
CONTINUOUS
62
5
10
101.900000
20
-118.200000
11
101.900000
21
-201.900000
0
ARC
5
3fa
100
AcDbEntity
8
3
100
AcDbCircle
6
CONTINUOUS
62
5
10
102.400000
20
-201.900000
40
0.500000
100
AcDbArc
50
179.999998
51
-89.999999
0
LINE
5
3fb
100
AcDbEntity
8
3
100
AcDbLine
6
CONTINUOUS
62
5
10
102.400000
20
-202.400000
11
137.600000
21
-202.400000
0
ARC
5
3fc
100
AcDbEntity
8
1
100
AcDbCircle
6
CONTINUOUS
62
5
10
98.900000
20
-114.750000
40
0.500000
100
AcDbArc
50
89.999999
51
179.999998
0
LINE
5
3fd
100
AcDbEntity
8
1
100
AcDbLine
6
CONTINUOUS
62
5
10
98.900000
20
-114.250000
11
141.100000
21
-114.250000
0
ARC
5
3fe
100
AcDbEntity
8
1
100
AcDbCircle
6
CONTINUOUS
62
5
10
141.100000
20
-114.750000
40
0.500000
100
AcDbArc
50
0.000000
51
89.999999
0
LINE
5
3ff
100
AcDbEntity
8
1
100
AcDbLine
6
CONTINUOUS
62
5
10
141.600000
20
-114.750000
11
141.600000
21
-205.350000
0
ARC
5
400
100
AcDbEntity
8
1
100
AcDbCircle
6
CONTINUOUS
62
5
10
141.100000
20
-205.350000
40
0.500000
100
AcDbArc
50
-89.999999
51
0.000000
0
LINE
5
401
100
AcDbEntity
8
1
100
AcDbLine
6
CONTINUOUS
62
5
10
141.100000
20
-205.850000
11
98.900000
21
-205.850000
0
ARC
5
402
100
AcDbEntity
8
1
100
AcDbCircle
6
CONTINUOUS
62
5
10
98.900000
20
-205.350000
40
0.500000
100
AcDbArc
50
179.999998
51
-89.999999
0
LINE
5
403
100
AcDbEntity
8
1
100
AcDbLine
6
CONTINUOUS
62
5
10
98.400000
20
-205.350000
11
98.400000
21
-114.750000
0
ARC
5
404
100
AcDbEntity
8
1
100
AcDbCircle
6
CONTINUOUS
62
5
10
99.298284
20
-114.908899
40
0.500000
100
AcDbArc
50
89.999999
51
179.999998
0
LINE
5
405
100
AcDbEntity
8
1
100
AcDbLine
6
CONTINUOUS
62
5
10
99.298284
20
-114.408899
11
140.701716
21
-114.408899
0
ARC
5
406
100
AcDbEntity
8
1
100
AcDbCircle
6
CONTINUOUS
62
5
10
140.701716
20
-114.908899
40
0.500000
100
AcDbArc
50
0.000000
51
89.999999
0
LINE
5
407
100
AcDbEntity
8
1
100
AcDbLine
6
CONTINUOUS
62
5
10
141.201716
20
-114.908899
11
141.201716
21
-205.191101
0
ARC
5
408
100
AcDbEntity
8
1
100
AcDbCircle
6
CONTINUOUS
62
5
10
140.701716
20
-205.191101
40
0.500000
100
AcDbArc
50
-89.999999
51
0.000000
0
LINE
5
409
100
AcDbEntity
8
1
100
AcDbLine
6
CONTINUOUS
62
5
10
140.701716
20
-205.691101
11
99.298284
21
-205.691101
0
ARC
5
40a
100
AcDbEntity
8
1
100
AcDbCircle
6
CONTINUOUS
62
5
10
99.298284
20
-205.191101
40
0.500000
100
AcDbArc
50
179.999998
51
-89.999999
0
LINE
5
40b
100
AcDbEntity
8
1
100
AcDbLine
6
CONTINUOUS
62
5
10
98.798284
20
-205.191101
11
98.798284
21
-114.908899
0
POLYLINE
5
40c
100
AcDbEntity
8
1
6
CONTINUOUS
62
5
100
AcDb2dPolyline
66
1
10
0.0
20
0.0
30
0.0
70
1
0
VERTEX
5
40d
100
AcDbEntity
8
1
100
AcDbVertex
100
AcDb2dVertex
62
5
10
-40.000000
20
-340.000000
0
VERTEX
5
40e
100
AcDbEntity
8
1
100
AcDbVertex
100
AcDb2dVertex
62
5
10
-40.000000
20
0.000000
0
VERTEX
5
40f
100
AcDbEntity
8
1
100
AcDbVertex
100
AcDb2dVertex
62
5
10
280.000000
20
0.000000
0
VERTEX
5
410
100
AcDbEntity
8
1
100
AcDbVertex
100
AcDb2dVertex
62
5
10
280.000000
20
-340.000000
0
VERTEX
5
411
100
AcDbEntity
8
1
100
AcDbVertex
100
AcDb2dVertex
62
5
10
-40.000000
20
-340.000000
0
SEQEND
5
412
100
AcDbEntity
8
1
0
POLYLINE
5
413
100
AcDbEntity
8
1
6
CONTINUOUS
62
5
100
AcDb2dPolyline
66
1
10
0.0
20
0.0
30
0.0
70
1
0
VERTEX
5
414
100
AcDbEntity
8
1
100
AcDbVertex
100
AcDb2dVertex
62
5
10
-40.000000
20
-340.000000
0
VERTEX
5
415
100
AcDbEntity
8
1
100
AcDbVertex
100
AcDb2dVertex
62
5
10
-40.000000
20
0.000000
0
VERTEX
5
416
100
AcDbEntity
8
1
100
AcDbVertex
100
AcDb2dVertex
62
5
10
280.000000
20
0.000000
0
VERTEX
5
417
100
AcDbEntity
8
1
100
AcDbVertex
100
AcDb2dVertex
62
5
10
280.000000
20
-340.000000
0
VERTEX
5
418
100
AcDbEntity
8
1
100
AcDbVertex
100
AcDb2dVertex
62
5
10
-40.000000
20
-340.000000
0
SEQEND
5
419
100
AcDbEntity
8
1
0
ENDSEC
0
SECTION
2
OBJECTS
0
DICTIONARY
5
41a
100
AcDbDictionary
3
ACAD_GROUP
350
41b
3
ACAD_MLINESTYLE
350
41c
0
DICTIONARY
5
41b
102
{ACAD_REACTORS
330
41a
102
}
100
AcDbDictionary
0
DICTIONARY
5
41c
102
{ACAD_REACTORS
330
41a
102
}
100
AcDbDictionary
3
STANDARD
350
41d
0
MLINESTYLE
5
41d
102
{ACAD_REACTORS
330
41c
102
}
100
AcDbMlineStyle
2
STANDARD
70
0
3

62
0
51
90.0
52
90.0
71
2
49
0.5
62
256
6
BYLAYER
49
-0.5
62
256
6
BYLAYER
0
ENDSEC
0
EOF
