0
SECTION
2
HEADER
9
$ACADVER
1
AC1012
9
$EXTMIN
10
-7.150000
20
-7.690000
30
0.0
9
$EXTMAX
10
5.450000
20
5.710000
30
0.0
9
$LIMMIN
10
-181.610000
20
-195.326000
9
$LIMMAX
10
138.430000
20
145.034000
9
$DIMSCALE
40
1.000000
9
$PDMODE
70
2
9
$PDSIZE
40
0.0
  9
$HANDSEED
  5
3af
0
ENDSEC
0
SECTION
2
CLASSES
0
ENDSEC
0
SECTION
2
TABLES
0
TABLE
2
LTYPE
5
1e
100
AcDbSymbolTable
70
12
0
LTYPE
5
1f
100
AcDbSymbolTableRecord
100
AcDbLinetypeTableRecord
2
BYBLOCK
70
0
3

72
65
73
0
40
0.0
0
LTYPE
5
20
100
AcDbSymbolTableRecord
100
AcDbLinetypeTableRecord
2
BYLAYER
70
0
3

72
65
73
0
40
0.0
0
LTYPE
5
21
100
AcDbSymbolTableRecord
100
AcDbLinetypeTableRecord
2
CONTINUOUS
70
64
3
Solid line
72
65
73
0
40
0.0
0
LTYPE
5
22
100
AcDbSymbolTableRecord
100
AcDbLinetypeTableRecord
2
DASHED
70
64
3
__ __ __ __ __ __ __ __ __ __ __ __ __ __ __
72
65
73
2
40
0.75
49
0.5
74
0
49
-0.25
74
0
0
LTYPE
5
23
100
AcDbSymbolTableRecord
100
AcDbLinetypeTableRecord
2
DOT
70
64
3
...............................................
72
65
73
2
40
0.25
49
0.0
74
0
49
-0.25
74
0
0
LTYPE
5
24
100
AcDbSymbolTableRecord
100
AcDbLinetypeTableRecord
2
DASHDOT
70
64
3
__ . __ . __ . __ . __ . __ . __ . __ . __ . --
72
65
73
4
40
1.0
49
0.5
74
0
49
-0.25
74
0
49
0.0
74
0
49
-0.25
74
0
0
LTYPE
5
25
100
AcDbSymbolTableRecord
100
AcDbLinetypeTableRecord
2
CENTER
70
64
3
____ _ ____ _ ____ _ ____ _ ____ _ ____ _ ____
72
65
73
4
40
2.0
49
1.25
74
0
49
-0.25
74
0
49
0.25
74
0
49
-0.25
74
0
0
LTYPE
5
26
100
AcDbSymbolTableRecord
100
AcDbLinetypeTableRecord
2
PHANTOM
70
64
3
_____ _ _ _____ _ _ _____ _ _ _____ _ _ ____
72
65
73
6
40
2.5
49
1.25
74
0
49
-0.25
74
0
49
0.25
74
0
49
-0.25
74
0
49
0.25
74
0
49
-0.25
74
0
0
LTYPE
5
27
100
AcDbSymbolTableRecord
100
AcDbLinetypeTableRecord
2
HIDDEN
70
64
3
_ _ _ _ _ _ _ _ _ _ _ _ _ _ _ _ _ _ _ _ _ _ _
72
65
73
2
40
0.375
49
0.25
74
0
49
-0.125
74
0
0
LTYPE
5
28
100
AcDbSymbolTableRecord
100
AcDbLinetypeTableRecord
2
BORDER
70
64
3
__ __ . __ __ . __ __ . __ __ . __ __ . __ __
72
65
73
6
40
1.75
49
0.5
74
0
49
-0.25
74
0
49
0.5
74
0
49
-0.25
74
0
49
0.0
74
0
49
-0.25
74
0
0
LTYPE
5
29
100
AcDbSymbolTableRecord
100
AcDbLinetypeTableRecord
2
DIVIDE
70
64
3
__ . . __ . . __ . . __ . . __ . . __ . . __
72
65
73
6
40
1.25
49
0.5
74
0
49
-0.25
74
0
49
0.0
74
0
49
-0.25
74
0
49
0.0
74
0
49
-0.25
74
0
0
LTYPE
5
2a
100
AcDbSymbolTableRecord
100
AcDbLinetypeTableRecord
2
DOT2
70
64
3
...............................................
72
65
73
2
40
0.125
49
0.0
74
0
49
-0.125
74
0
0
ENDTAB
0
TABLE
2
STYLE
5
2b
100
AcDbSymbolTable
70
1
0
STYLE
5
2c
100
AcDbSymbolTableRecord
100
AcDbTextStyleTableRecord
2
STANDARD
70
64
40
0.0
41
1.0
50
0.0
71
0
42
5.0
3
txt
4
bigfont
0
ENDTAB
0
TABLE
2
LAYER
5
2d
100
AcDbSymbolTable
70
3
0
LAYER
5
2e
100
AcDbSymbolTableRecord
100
AcDbLayerTableRecord
2
0
70
0
62
7
6
CONTINUOUS
0
LAYER
5
2f
100
AcDbSymbolTableRecord
100
AcDbLayerTableRecord
2
6
70
0
62
7
6
CONTINUOUS
0
LAYER
5
30
100
AcDbSymbolTableRecord
100
AcDbLayerTableRecord
2
1
70
0
62
7
6
CONTINUOUS
0
ENDTAB
0
TABLE
2
APPID
5
31
100
AcDbSymbolTable
70
1
0
APPID
5
32
100
AcDbSymbolTableRecord
100
AcDbRegAppTableRecord
2
ACAD
70
64
0
ENDTAB
0
TABLE
2
DIMSTYLE
5
33
100
AcDbSymbolTable
70
0
0
ENDTAB
0
TABLE
2
UCS
5
34
100
AcDbSymbolTable
70
0
0
ENDTAB
0
TABLE
2
VIEW
5
35
100
AcDbSymbolTable
70
0
0
ENDTAB
0
TABLE
2
VPORT
5
36
100
AcDbSymbolTable
70
0
0
ENDTAB
0
TABLE
2
BLOCK_RECORD
5
37
100
AcDbSymbolTable
70
0
0
BLOCK_RECORD
5
38
100
AcDbSymbolTableRecord
100
AcDbBlockTableRecord
2
*MODEL_SPACE
0
BLOCK_RECORD
5
39
100
AcDbSymbolTableRecord
100
AcDbBlockTableRecord
2
*PAPER_SPACE
0
BLOCK_RECORD
5
3a
100
AcDbSymbolTableRecord
100
AcDbBlockTableRecord
2
OPEN
0
BLOCK_RECORD
5
3b
100
AcDbSymbolTableRecord
100
AcDbBlockTableRecord
2
HALF
0
BLOCK_RECORD
5
3c
100
AcDbSymbolTableRecord
100
AcDbBlockTableRecord
2
CLOSEDBLANK
0
BLOCK_RECORD
5
3d
100
AcDbSymbolTableRecord
100
AcDbBlockTableRecord
2
HALFCLOSE_R
0
BLOCK_RECORD
5
3e
100
AcDbSymbolTableRecord
100
AcDbBlockTableRecord
2
DOT
0
BLOCK_RECORD
5
3f
100
AcDbSymbolTableRecord
100
AcDbBlockTableRecord
2
HALFOPEN_R
0
BLOCK_RECORD
5
40
100
AcDbSymbolTableRecord
100
AcDbBlockTableRecord
2
CLOSEDF
0
BLOCK_RECORD
5
41
100
AcDbSymbolTableRecord
100
AcDbBlockTableRecord
2
HALF_R
0
ENDTAB
0
ENDSEC
0
SECTION
2
BLOCKS
0
BLOCK
5
42
100
AcDbEntity
8
0
100
AcDbBlockBegin
2
*MODEL_SPACE
70
0
10
0.0
20
0.0
30
0.0
3
*MODEL_SPACE
1

0
ENDBLK
5
43
100
AcDbEntity
8
0
100
AcDbBlockEnd
0
BLOCK
5
44
100
AcDbEntity
67
1
8
0
100
AcDbBlockBegin
2
*PAPER_SPACE
70
0
10
0.0
20
0.0
30
0.0
3
*PAPER_SPACE
1

0
ENDBLK
5
45
100
AcDbEntity
67
1
8
0
100
AcDbBlockEnd
0
BLOCK
5
46
100
AcDbEntity
8
0
100
AcDbBlockBegin
2
OPEN
70
0
10
0.0
20
0.0
30
0.0
3
OPEN
1

0
LINE
5
47
100
AcDbEntity
8
0
6
BYBLOCK
62
0
100
AcDbLine
10
0.000000
20
0.000000
11
-1.000000
21
0.000000
0
LINE
5
48
100
AcDbEntity
8
0
6
BYBLOCK
62
0
100
AcDbLine
10
-1.000000
20
-0.166667
11
0.000000
21
0.000000
0
LINE
5
49
100
AcDbEntity
8
0
6
BYBLOCK
62
0
100
AcDbLine
10
-1.000000
20
0.166667
11
0.000000
21
0.000000
0
ENDBLK
5
4a
100
AcDbEntity
8
0
100
AcDbBlockEnd
0
BLOCK
5
4b
100
AcDbEntity
8
0
100
AcDbBlockBegin
2
HALF
70
0
10
0.0
20
0.0
30
0.0
3
HALF
1

0
SOLID
5
4c
100
AcDbEntity
8
0
6
BYBLOCK
62
0
100
AcDbTrace
10
-1.000000
20
0.166667
11
-1.000000
21
-0.166667
12
0.000000
22
0.000000
13
0.000000
23
0.000000
0
ENDBLK
5
4d
100
AcDbEntity
8
0
100
AcDbBlockEnd
0
BLOCK
5
4e
100
AcDbEntity
8
0
100
AcDbBlockBegin
2
CLOSEDBLANK
70
0
10
0.0
20
0.0
30
0.0
3
CLOSEDBLANK
1

0
LINE
5
4f
100
AcDbEntity
8
0
6
BYBLOCK
62
0
100
AcDbLine
10
-1.000000
20
0.166667
11
-1.000000
21
-0.166667
0
LINE
5
50
100
AcDbEntity
8
0
6
BYBLOCK
62
0
100
AcDbLine
10
0.000000
20
0.000000
11
-1.000000
21
-0.166667
0
LINE
5
51
100
AcDbEntity
8
0
6
BYBLOCK
62
0
100
AcDbLine
10
-1.000000
20
0.166667
11
0.000000
21
0.000000
0
ENDBLK
5
52
100
AcDbEntity
8
0
100
AcDbBlockEnd
0
BLOCK
5
53
100
AcDbEntity
8
0
100
AcDbBlockBegin
2
HALFCLOSE_R
70
0
10
0.0
20
0.0
30
0.0
3
HALFCLOSE_R
1

0
LINE
5
54
100
AcDbEntity
8
0
6
BYBLOCK
62
0
100
AcDbLine
10
-1.000000
20
-0.166667
11
-1.000000
21
0.000000
0
LINE
5
55
100
AcDbEntity
8
0
6
BYBLOCK
62
0
100
AcDbLine
10
-1.000000
20
-0.166667
11
0.000000
21
0.000000
0
LINE
5
56
100
AcDbEntity
8
0
6
BYBLOCK
62
0
100
AcDbLine
10
0.000000
20
0.000000
11
-1.000000
21
0.000000
0
ENDBLK
5
57
100
AcDbEntity
8
0
100
AcDbBlockEnd
0
BLOCK
5
58
100
AcDbEntity
8
0
100
AcDbBlockBegin
2
DOT
70
0
10
0.0
20
0.0
30
0.0
3
DOT
1

0
LINE
5
59
100
AcDbEntity
8
0
6
BYBLOCK
62
0
100
AcDbLine
10
0.000000
20
0.000000
11
-1.000000
21
0.000000
0
POLYLINE
5
5a
100
AcDbEntity
8
0
6
BYBLOCK
62
0
100
AcDb2dPolyline
66
1
10
0.0
20
0.0
30
0.0
70
1
40
0.166667
41
0.166667
0
VERTEX
5
5b
100
AcDbEntity
8
0
100
AcDbVertex
100
AcDb2dVertex
62
10
10
-0.083333
20
0.000000
42
1.000000
0
VERTEX
5
5c
100
AcDbEntity
8
0
100
AcDbVertex
100
AcDb2dVertex
62
10
10
0.083333
20
0.000000
42
1.000000
0
SEQEND
5
5d
100
AcDbEntity
8
0
0
ENDBLK
5
5e
100
AcDbEntity
8
0
100
AcDbBlockEnd
0
BLOCK
5
5f
100
AcDbEntity
8
0
100
AcDbBlockBegin
2
HALFOPEN_R
70
0
10
0.0
20
0.0
30
0.0
3
HALFOPEN_R
1

0
LINE
5
60
100
AcDbEntity
8
0
6
BYBLOCK
62
0
100
AcDbLine
10
-1.000000
20
-0.166667
11
0.000000
21
0.000000
0
LINE
5
61
100
AcDbEntity
8
0
6
BYBLOCK
62
0
100
AcDbLine
10
0.000000
20
0.000000
11
-1.000000
21
0.000000
0
ENDBLK
5
62
100
AcDbEntity
8
0
100
AcDbBlockEnd
0
BLOCK
5
63
100
AcDbEntity
8
0
100
AcDbBlockBegin
2
CLOSEDF
70
0
10
0.0
20
0.0
30
0.0
3
CLOSEDF
1

0
SOLID
5
64
100
AcDbEntity
8
0
6
BYBLOCK
62
0
100
AcDbTrace
10
-1.000000
20
0.166667
11
-1.000000
21
-0.166667
12
0.000000
22
0.000000
13
0.000000
23
0.000000
0
ENDBLK
5
65
100
AcDbEntity
8
0
100
AcDbBlockEnd
0
BLOCK
5
66
100
AcDbEntity
8
0
100
AcDbBlockBegin
2
HALF_R
70
0
10
0.0
20
0.0
30
0.0
3
HALF_R
1

0
SOLID
5
67
100
AcDbEntity
8
0
6
BYBLOCK
62
0
100
AcDbTrace
10
-1.000000
20
-0.166667
11
-1.000000
21
0.000000
12
0.000000
22
0.000000
13
0.000000
23
0.000000
0
ENDBLK
5
68
100
AcDbEntity
8
0
100
AcDbBlockEnd
0
ENDSEC
0
SECTION
2
ENTITIES
0
LINE
5
69
100
AcDbEntity
8
6
100
AcDbLine
6
DOT2
62
5
10
-19.725000
20
26.774947
11
-20.350000
21
26.149947
0
POLYLINE
5
6a
100
AcDbEntity
8
6
6
DOT2
62
5
100
AcDb2dPolyline
66
1
10
0.0
20
0.0
30
0.0
70
0
0
VERTEX
5
6b
100
AcDbEntity
8
6
100
AcDbVertex
100
AcDb2dVertex
62
5
10
-20.350000
20
26.774947
0
VERTEX
5
6c
100
AcDbEntity
8
6
100
AcDbVertex
100
AcDb2dVertex
62
5
10
-19.725000
20
26.149947
0
VERTEX
5
6d
100
AcDbEntity
8
6
100
AcDbVertex
100
AcDb2dVertex
62
5
10
-20.350000
20
26.149947
0
VERTEX
5
6e
100
AcDbEntity
8
6
100
AcDbVertex
100
AcDb2dVertex
62
5
10
-20.350000
20
26.774947
0
VERTEX
5
6f
100
AcDbEntity
8
6
100
AcDbVertex
100
AcDb2dVertex
62
5
10
-19.725000
20
26.774947
0
VERTEX
5
70
100
AcDbEntity
8
6
100
AcDbVertex
100
AcDb2dVertex
62
5
10
-19.725000
20
26.149947
0
SEQEND
5
71
100
AcDbEntity
8
6
0
POLYLINE
5
72
100
AcDbEntity
8
6
6
DOT2
62
5
100
AcDb2dPolyline
66
1
10
0.0
20
0.0
30
0.0
70
0
0
VERTEX
5
73
100
AcDbEntity
8
6
100
AcDbVertex
100
AcDb2dVertex
62
5
10
-15.350000
20
31.462447
0
VERTEX
5
74
100
AcDbEntity
8
6
100
AcDbVertex
100
AcDb2dVertex
62
5
10
-15.037500
20
33.024947
0
VERTEX
5
75
100
AcDbEntity
8
6
100
AcDbVertex
100
AcDb2dVertex
62
5
10
-14.100000
20
33.649947
0
VERTEX
5
76
100
AcDbEntity
8
6
100
AcDbVertex
100
AcDb2dVertex
62
5
10
-13.162500
20
33.649947
0
VERTEX
5
77
100
AcDbEntity
8
6
100
AcDbVertex
100
AcDb2dVertex
62
5
10
-12.537500
20
33.337447
0
VERTEX
5
78
100
AcDbEntity
8
6
100
AcDbVertex
100
AcDb2dVertex
62
5
10
-12.225000
20
32.399947
0
VERTEX
5
79
100
AcDbEntity
8
6
100
AcDbVertex
100
AcDb2dVertex
62
5
10
-12.225000
20
31.462447
0
VERTEX
5
7a
100
AcDbEntity
8
6
100
AcDbVertex
100
AcDb2dVertex
62
5
10
-12.537500
20
30.524947
0
VERTEX
5
7b
100
AcDbEntity
8
6
100
AcDbVertex
100
AcDb2dVertex
62
5
10
-15.350000
20
26.149947
0
VERTEX
5
7c
100
AcDbEntity
8
6
100
AcDbVertex
100
AcDb2dVertex
62
5
10
-12.225000
20
26.149947
0
VERTEX
5
7d
100
AcDbEntity
8
6
100
AcDbVertex
100
AcDb2dVertex
62
5
10
-12.225000
20
27.087447
0
SEQEND
5
7e
100
AcDbEntity
8
6
0
LINE
5
7f
100
AcDbEntity
8
1
100
AcDbLine
6
CONTINUOUS
62
5
10
-17.567187
20
-5.551720
11
-13.524687
21
-5.551720
0
POLYLINE
5
80
100
AcDbEntity
8
1
6
CONTINUOUS
62
5
100
AcDb2dPolyline
66
1
10
0.0
20
0.0
30
0.0
70
0
0
VERTEX
5
81
100
AcDbEntity
8
1
100
AcDbVertex
100
AcDb2dVertex
62
5
10
-17.904062
20
-9.848595
0
VERTEX
5
82
100
AcDbEntity
8
1
100
AcDbVertex
100
AcDb2dVertex
62
5
10
-17.398750
20
-8.645470
0
VERTEX
5
83
100
AcDbEntity
8
1
100
AcDbVertex
100
AcDb2dVertex
62
5
10
-17.230312
20
-7.098595
0
VERTEX
5
84
100
AcDbEntity
8
1
100
AcDbVertex
100
AcDb2dVertex
62
5
10
-17.230312
20
-6.067345
0
VERTEX
5
85
100
AcDbEntity
8
1
100
AcDbVertex
100
AcDb2dVertex
62
5
10
-13.693125
20
-6.067345
0
VERTEX
5
86
100
AcDbEntity
8
1
100
AcDbVertex
100
AcDb2dVertex
62
5
10
-13.693125
20
-7.098595
0
VERTEX
5
87
100
AcDbEntity
8
1
100
AcDbVertex
100
AcDb2dVertex
62
5
10
-17.230312
20
-7.098595
0
SEQEND
5
88
100
AcDbEntity
8
1
0
POLYLINE
5
89
100
AcDbEntity
8
1
6
CONTINUOUS
62
5
100
AcDb2dPolyline
66
1
10
0.0
20
0.0
30
0.0
70
0
0
VERTEX
5
8a
100
AcDbEntity
8
1
100
AcDbVertex
100
AcDb2dVertex
62
5
10
-16.893437
20
-7.614220
0
VERTEX
5
8b
100
AcDbEntity
8
1
100
AcDbVertex
100
AcDb2dVertex
62
5
10
-15.545937
20
-7.614220
0
VERTEX
5
8c
100
AcDbEntity
8
1
100
AcDbVertex
100
AcDb2dVertex
62
5
10
-15.545937
20
-9.504845
0
VERTEX
5
8d
100
AcDbEntity
8
1
100
AcDbVertex
100
AcDb2dVertex
62
5
10
-15.882812
20
-9.848595
0
VERTEX
5
8e
100
AcDbEntity
8
1
100
AcDbVertex
100
AcDb2dVertex
62
5
10
-16.219687
20
-9.848595
0
SEQEND
5
8f
100
AcDbEntity
8
1
0
LINE
5
90
100
AcDbEntity
8
1
100
AcDbLine
6
CONTINUOUS
62
5
10
-16.725000
20
-8.129845
11
-16.219687
21
-8.473595
0
LINE
5
91
100
AcDbEntity
8
1
100
AcDbLine
6
CONTINUOUS
62
5
10
-16.051250
20
-8.817345
11
-17.061875
21
-9.504845
0
POLYLINE
5
92
100
AcDbEntity
8
1
6
CONTINUOUS
62
5
100
AcDb2dPolyline
66
1
10
0.0
20
0.0
30
0.0
70
0
0
VERTEX
5
93
100
AcDbEntity
8
1
100
AcDbVertex
100
AcDb2dVertex
62
5
10
-15.040625
20
-7.614220
0
VERTEX
5
94
100
AcDbEntity
8
1
100
AcDbVertex
100
AcDb2dVertex
62
5
10
-13.524687
20
-7.614220
0
VERTEX
5
95
100
AcDbEntity
8
1
100
AcDbVertex
100
AcDb2dVertex
62
5
10
-13.524687
20
-9.504845
0
VERTEX
5
96
100
AcDbEntity
8
1
100
AcDbVertex
100
AcDb2dVertex
62
5
10
-13.861562
20
-9.848595
0
VERTEX
5
97
100
AcDbEntity
8
1
100
AcDbVertex
100
AcDb2dVertex
62
5
10
-14.198437
20
-9.848595
0
SEQEND
5
98
100
AcDbEntity
8
1
0
LINE
5
99
100
AcDbEntity
8
1
100
AcDbLine
6
CONTINUOUS
62
5
10
-14.872187
20
-8.129845
11
-14.366875
21
-8.473595
0
LINE
5
9a
100
AcDbEntity
8
1
100
AcDbLine
6
CONTINUOUS
62
5
10
-14.030000
20
-8.817345
11
-15.040625
21
-9.504845
0
POLYLINE
5
9b
100
AcDbEntity
8
1
6
CONTINUOUS
62
5
100
AcDb2dPolyline
66
1
10
0.0
20
0.0
30
0.0
70
0
0
VERTEX
5
9c
100
AcDbEntity
8
1
100
AcDbVertex
100
AcDb2dVertex
62
5
10
-38.600000
20
132.649946
0
VERTEX
5
9d
100
AcDbEntity
8
1
100
AcDbVertex
100
AcDb2dVertex
62
5
10
-36.850000
20
132.649946
0
VERTEX
5
9e
100
AcDbEntity
8
1
100
AcDbVertex
100
AcDb2dVertex
62
5
10
-36.850000
20
130.462446
0
VERTEX
5
9f
100
AcDbEntity
8
1
100
AcDbVertex
100
AcDb2dVertex
62
5
10
-38.100000
20
127.337446
0
VERTEX
5
a0
100
AcDbEntity
8
1
100
AcDbVertex
100
AcDb2dVertex
62
5
10
-40.100000
20
124.837446
0
SEQEND
5
a1
100
AcDbEntity
8
1
0
POLYLINE
5
a2
100
AcDbEntity
8
1
6
CONTINUOUS
62
5
100
AcDb2dPolyline
66
1
10
0.0
20
0.0
30
0.0
70
0
0
VERTEX
5
a3
100
AcDbEntity
8
1
100
AcDbVertex
100
AcDb2dVertex
62
5
10
-36.850000
20
130.462446
0
VERTEX
5
a4
100
AcDbEntity
8
1
100
AcDbVertex
100
AcDb2dVertex
62
5
10
-36.100000
20
128.274946
0
VERTEX
5
a5
100
AcDbEntity
8
1
100
AcDbVertex
100
AcDb2dVertex
62
5
10
-34.850000
20
126.087446
0
VERTEX
5
a6
100
AcDbEntity
8
1
100
AcDbVertex
100
AcDb2dVertex
62
5
10
-33.350000
20
124.837446
0
SEQEND
5
a7
100
AcDbEntity
8
1
0
POLYLINE
5
a8
100
AcDbEntity
8
1
6
CONTINUOUS
62
5
100
AcDb2dPolyline
66
1
10
0.0
20
0.0
30
0.0
70
0
0
VERTEX
5
a9
100
AcDbEntity
8
1
100
AcDbVertex
100
AcDb2dVertex
62
5
10
-30.100000
20
132.337446
0
VERTEX
5
aa
100
AcDbEntity
8
1
100
AcDbVertex
100
AcDb2dVertex
62
5
10
-30.350000
20
130.462446
0
VERTEX
5
ab
100
AcDbEntity
8
1
100
AcDbVertex
100
AcDb2dVertex
62
5
10
-30.350000
20
128.899946
0
VERTEX
5
ac
100
AcDbEntity
8
1
100
AcDbVertex
100
AcDb2dVertex
62
5
10
-30.100000
20
127.649946
0
VERTEX
5
ad
100
AcDbEntity
8
1
100
AcDbVertex
100
AcDb2dVertex
62
5
10
-29.350000
20
129.212446
0
SEQEND
5
ae
100
AcDbEntity
8
1
0
POLYLINE
5
af
100
AcDbEntity
8
1
6
CONTINUOUS
62
5
100
AcDb2dPolyline
66
1
10
0.0
20
0.0
30
0.0
70
0
0
VERTEX
5
b0
100
AcDbEntity
8
1
100
AcDbVertex
100
AcDb2dVertex
62
5
10
-27.600000
20
132.337446
0
VERTEX
5
b1
100
AcDbEntity
8
1
100
AcDbVertex
100
AcDb2dVertex
62
5
10
-27.350000
20
130.462446
0
VERTEX
5
b2
100
AcDbEntity
8
1
100
AcDbVertex
100
AcDb2dVertex
62
5
10
-27.350000
20
127.962446
0
VERTEX
5
b3
100
AcDbEntity
8
1
100
AcDbVertex
100
AcDb2dVertex
62
5
10
-27.850000
20
126.399946
0
VERTEX
5
b4
100
AcDbEntity
8
1
100
AcDbVertex
100
AcDb2dVertex
62
5
10
-28.600000
20
125.462446
0
VERTEX
5
b5
100
AcDbEntity
8
1
100
AcDbVertex
100
AcDb2dVertex
62
5
10
-28.850000
20
125.149946
0
SEQEND
5
b6
100
AcDbEntity
8
1
0
POLYLINE
5
b7
100
AcDbEntity
8
1
6
CONTINUOUS
62
5
100
AcDb2dPolyline
66
1
10
0.0
20
0.0
30
0.0
70
0
0
VERTEX
5
b8
100
AcDbEntity
8
1
100
AcDbVertex
100
AcDb2dVertex
62
5
10
-53.350000
20
132.962446
0
VERTEX
5
b9
100
AcDbEntity
8
1
100
AcDbVertex
100
AcDb2dVertex
62
5
10
-54.600000
20
132.337446
0
VERTEX
5
ba
100
AcDbEntity
8
1
100
AcDbVertex
100
AcDb2dVertex
62
5
10
-55.850000
20
132.024946
0
VERTEX
5
bb
100
AcDbEntity
8
1
100
AcDbVertex
100
AcDb2dVertex
62
5
10
-55.850000
20
124.524946
0
SEQEND
5
bc
100
AcDbEntity
8
1
0
LINE
5
bd
100
AcDbEntity
8
1
100
AcDbLine
6
CONTINUOUS
62
5
10
-55.850000
20
129.524946
11
-53.100000
21
129.524946
0
LINE
5
be
100
AcDbEntity
8
1
100
AcDbLine
6
CONTINUOUS
62
5
10
-55.850000
20
126.399946
11
-53.100000
21
126.399946
0
POLYLINE
5
bf
100
AcDbEntity
8
1
6
CONTINUOUS
62
5
100
AcDb2dPolyline
66
1
10
0.0
20
0.0
30
0.0
70
0
0
VERTEX
5
c0
100
AcDbEntity
8
1
100
AcDbVertex
100
AcDb2dVertex
62
5
10
-52.100000
20
124.524946
0
VERTEX
5
c1
100
AcDbEntity
8
1
100
AcDbVertex
100
AcDb2dVertex
62
5
10
-52.100000
20
132.649946
0
VERTEX
5
c2
100
AcDbEntity
8
1
100
AcDbVertex
100
AcDb2dVertex
62
5
10
-49.350000
20
132.649946
0
VERTEX
5
c3
100
AcDbEntity
8
1
100
AcDbVertex
100
AcDb2dVertex
62
5
10
-49.350000
20
125.774946
0
VERTEX
5
c4
100
AcDbEntity
8
1
100
AcDbVertex
100
AcDb2dVertex
62
5
10
-50.350000
20
125.774946
0
SEQEND
5
c5
100
AcDbEntity
8
1
0
LINE
5
c6
100
AcDbEntity
8
1
100
AcDbLine
6
CONTINUOUS
62
5
10
-44.850000
20
133.274946
11
-44.850000
21
132.024946
0
POLYLINE
5
c7
100
AcDbEntity
8
1
6
CONTINUOUS
62
5
100
AcDb2dPolyline
66
1
10
0.0
20
0.0
30
0.0
70
0
0
VERTEX
5
c8
100
AcDbEntity
8
1
100
AcDbVertex
100
AcDb2dVertex
62
5
10
-48.100000
20
130.149946
0
VERTEX
5
c9
100
AcDbEntity
8
1
100
AcDbVertex
100
AcDb2dVertex
62
5
10
-48.100000
20
132.024946
0
VERTEX
5
ca
100
AcDbEntity
8
1
100
AcDbVertex
100
AcDb2dVertex
62
5
10
-41.600000
20
132.024946
0
VERTEX
5
cb
100
AcDbEntity
8
1
100
AcDbVertex
100
AcDb2dVertex
62
5
10
-41.600000
20
130.149946
0
SEQEND
5
cc
100
AcDbEntity
8
1
0
POLYLINE
5
cd
100
AcDbEntity
8
1
6
CONTINUOUS
62
5
100
AcDb2dPolyline
66
1
10
0.0
20
0.0
30
0.0
70
0
0
VERTEX
5
ce
100
AcDbEntity
8
1
100
AcDbVertex
100
AcDb2dVertex
62
5
10
-47.100000
20
130.462446
0
VERTEX
5
cf
100
AcDbEntity
8
1
100
AcDbVertex
100
AcDb2dVertex
62
5
10
-42.600000
20
130.462446
0
VERTEX
5
d0
100
AcDbEntity
8
1
100
AcDbVertex
100
AcDb2dVertex
62
5
10
-44.850000
20
128.899946
0
VERTEX
5
d1
100
AcDbEntity
8
1
100
AcDbVertex
100
AcDb2dVertex
62
5
10
-44.350000
20
127.337446
0
VERTEX
5
d2
100
AcDbEntity
8
1
100
AcDbVertex
100
AcDb2dVertex
62
5
10
-44.350000
20
126.087446
0
VERTEX
5
d3
100
AcDbEntity
8
1
100
AcDbVertex
100
AcDb2dVertex
62
5
10
-44.850000
20
124.524946
0
VERTEX
5
d4
100
AcDbEntity
8
1
100
AcDbVertex
100
AcDb2dVertex
62
5
10
-45.600000
20
124.524946
0
SEQEND
5
d5
100
AcDbEntity
8
1
0
LINE
5
d6
100
AcDbEntity
8
1
100
AcDbLine
6
CONTINUOUS
62
5
10
-48.100000
20
127.649946
11
-41.350000
21
127.649946
0
POLYLINE
5
d7
100
AcDbEntity
8
1
6
CONTINUOUS
62
5
100
AcDb2dPolyline
66
1
10
0.0
20
0.0
30
0.0
70
0
0
VERTEX
5
d8
100
AcDbEntity
8
1
100
AcDbVertex
100
AcDb2dVertex
62
5
10
-57.350000
20
123.274946
0
VERTEX
5
d9
100
AcDbEntity
8
1
100
AcDbVertex
100
AcDb2dVertex
62
5
10
-58.100000
20
122.024946
0
VERTEX
5
da
100
AcDbEntity
8
1
100
AcDbVertex
100
AcDb2dVertex
62
5
10
-58.850000
20
121.087446
0
VERTEX
5
db
100
AcDbEntity
8
1
100
AcDbVertex
100
AcDb2dVertex
62
5
10
-59.850000
20
120.149946
0
SEQEND
5
dc
100
AcDbEntity
8
1
0
POLYLINE
5
dd
100
AcDbEntity
8
1
6
CONTINUOUS
62
5
100
AcDb2dPolyline
66
1
10
0.0
20
0.0
30
0.0
70
0
0
VERTEX
5
de
100
AcDbEntity
8
1
100
AcDbVertex
100
AcDb2dVertex
62
5
10
-57.600000
20
122.649946
0
VERTEX
5
df
100
AcDbEntity
8
1
100
AcDbVertex
100
AcDb2dVertex
62
5
10
-55.350000
20
122.649946
0
VERTEX
5
e0
100
AcDbEntity
8
1
100
AcDbVertex
100
AcDb2dVertex
62
5
10
-56.600000
20
120.774946
0
SEQEND
5
e1
100
AcDbEntity
8
1
0
POLYLINE
5
e2
100
AcDbEntity
8
1
6
CONTINUOUS
62
5
100
AcDb2dPolyline
66
1
10
0.0
20
0.0
30
0.0
70
0
0
VERTEX
5
e3
100
AcDbEntity
8
1
100
AcDbVertex
100
AcDb2dVertex
62
5
10
-58.850000
20
120.774946
0
VERTEX
5
e4
100
AcDbEntity
8
1
100
AcDbVertex
100
AcDb2dVertex
62
5
10
-54.350000
20
120.774946
0
VERTEX
5
e5
100
AcDbEntity
8
1
100
AcDbVertex
100
AcDb2dVertex
62
5
10
-54.350000
20
117.962446
0
VERTEX
5
e6
100
AcDbEntity
8
1
100
AcDbVertex
100
AcDb2dVertex
62
5
10
-58.850000
20
117.962446
0
SEQEND
5
e7
100
AcDbEntity
8
1
0
LINE
5
e8
100
AcDbEntity
8
1
100
AcDbLine
6
CONTINUOUS
62
5
10
-56.600000
20
120.774946
11
-56.600000
21
117.962446
0
POLYLINE
5
e9
100
AcDbEntity
8
1
6
CONTINUOUS
62
5
100
AcDb2dPolyline
66
1
10
0.0
20
0.0
30
0.0
70
0
0
VERTEX
5
ea
100
AcDbEntity
8
1
100
AcDbVertex
100
AcDb2dVertex
62
5
10
-58.850000
20
120.774946
0
VERTEX
5
eb
100
AcDbEntity
8
1
100
AcDbVertex
100
AcDb2dVertex
62
5
10
-58.850000
20
115.462446
0
VERTEX
5
ec
100
AcDbEntity
8
1
100
AcDbVertex
100
AcDb2dVertex
62
5
10
-58.350000
20
114.837446
0
VERTEX
5
ed
100
AcDbEntity
8
1
100
AcDbVertex
100
AcDb2dVertex
62
5
10
-53.350000
20
114.837446
0
VERTEX
5
ee
100
AcDbEntity
8
1
100
AcDbVertex
100
AcDb2dVertex
62
5
10
-53.350000
20
116.087446
0
SEQEND
5
ef
100
AcDbEntity
8
1
0
POLYLINE
5
f0
100
AcDbEntity
8
1
6
CONTINUOUS
62
5
100
AcDb2dPolyline
66
1
10
0.0
20
0.0
30
0.0
70
0
0
VERTEX
5
f1
100
AcDbEntity
8
1
100
AcDbVertex
100
AcDb2dVertex
62
5
10
-71.100000
20
132.649946
0
VERTEX
5
f2
100
AcDbEntity
8
1
100
AcDbVertex
100
AcDb2dVertex
62
5
10
-71.100000
20
127.024946
0
VERTEX
5
f3
100
AcDbEntity
8
1
100
AcDbVertex
100
AcDb2dVertex
62
5
10
-71.600000
20
125.774946
0
VERTEX
5
f4
100
AcDbEntity
8
1
100
AcDbVertex
100
AcDb2dVertex
62
5
10
-72.100000
20
124.837446
0
SEQEND
5
f5
100
AcDbEntity
8
1
0
POLYLINE
5
f6
100
AcDbEntity
8
1
6
CONTINUOUS
62
5
100
AcDb2dPolyline
66
1
10
0.0
20
0.0
30
0.0
70
0
0
VERTEX
5
f7
100
AcDbEntity
8
1
100
AcDbVertex
100
AcDb2dVertex
62
5
10
-67.100000
20
125.149946
0
VERTEX
5
f8
100
AcDbEntity
8
1
100
AcDbVertex
100
AcDb2dVertex
62
5
10
-66.100000
20
124.524946
0
VERTEX
5
f9
100
AcDbEntity
8
1
100
AcDbVertex
100
AcDb2dVertex
62
5
10
-66.100000
20
132.649946
0
VERTEX
5
fa
100
AcDbEntity
8
1
100
AcDbVertex
100
AcDb2dVertex
62
5
10
-71.100000
20
132.649946
0
SEQEND
5
fb
100
AcDbEntity
8
1
0
LINE
5
fc
100
AcDbEntity
8
1
100
AcDbLine
6
CONTINUOUS
62
5
10
-71.100000
20
130.149946
11
-66.100000
21
130.149946
0
LINE
5
fd
100
AcDbEntity
8
1
100
AcDbLine
6
CONTINUOUS
62
5
10
-68.600000
20
132.649946
11
-68.600000
21
124.524946
0
LINE
5
fe
100
AcDbEntity
8
1
100
AcDbLine
6
CONTINUOUS
62
5
10
-71.100000
20
127.649946
11
-66.100000
21
127.649946
0
POLYLINE
5
ff
100
AcDbEntity
8
1
6
CONTINUOUS
62
5
100
AcDb2dPolyline
66
1
10
0.0
20
0.0
30
0.0
70
0
0
VERTEX
5
100
100
AcDbEntity
8
1
100
AcDbVertex
100
AcDb2dVertex
62
5
10
-83.600000
20
130.774946
0
VERTEX
5
101
100
AcDbEntity
8
1
100
AcDbVertex
100
AcDb2dVertex
62
5
10
-83.350000
20
132.024946
0
VERTEX
5
102
100
AcDbEntity
8
1
100
AcDbVertex
100
AcDb2dVertex
62
5
10
-82.850000
20
132.649946
0
VERTEX
5
103
100
AcDbEntity
8
1
100
AcDbVertex
100
AcDb2dVertex
62
5
10
-82.100000
20
132.649946
0
VERTEX
5
104
100
AcDbEntity
8
1
100
AcDbVertex
100
AcDb2dVertex
62
5
10
-81.600000
20
132.337446
0
VERTEX
5
105
100
AcDbEntity
8
1
100
AcDbVertex
100
AcDb2dVertex
62
5
10
-81.350000
20
131.399946
0
VERTEX
5
106
100
AcDbEntity
8
1
100
AcDbVertex
100
AcDb2dVertex
62
5
10
-81.350000
20
130.149946
0
VERTEX
5
107
100
AcDbEntity
8
1
100
AcDbVertex
100
AcDb2dVertex
62
5
10
-81.600000
20
129.524946
0
VERTEX
5
108
100
AcDbEntity
8
1
100
AcDbVertex
100
AcDb2dVertex
62
5
10
-82.100000
20
128.899946
0
VERTEX
5
109
100
AcDbEntity
8
1
100
AcDbVertex
100
AcDb2dVertex
62
5
10
-82.850000
20
128.899946
0
SEQEND
5
10a
100
AcDbEntity
8
1
0
POLYLINE
5
10b
100
AcDbEntity
8
1
6
CONTINUOUS
62
5
100
AcDb2dPolyline
66
1
10
0.0
20
0.0
30
0.0
70
0
0
VERTEX
5
10c
100
AcDbEntity
8
1
100
AcDbVertex
100
AcDb2dVertex
62
5
10
-82.100000
20
128.899946
0
VERTEX
5
10d
100
AcDbEntity
8
1
100
AcDbVertex
100
AcDb2dVertex
62
5
10
-81.350000
20
128.274946
0
VERTEX
5
10e
100
AcDbEntity
8
1
100
AcDbVertex
100
AcDb2dVertex
62
5
10
-81.100000
20
127.337446
0
VERTEX
5
10f
100
AcDbEntity
8
1
100
AcDbVertex
100
AcDb2dVertex
62
5
10
-81.100000
20
126.399946
0
VERTEX
5
110
100
AcDbEntity
8
1
100
AcDbVertex
100
AcDb2dVertex
62
5
10
-81.350000
20
125.774946
0
VERTEX
5
111
100
AcDbEntity
8
1
100
AcDbVertex
100
AcDb2dVertex
62
5
10
-82.100000
20
125.149946
0
VERTEX
5
112
100
AcDbEntity
8
1
100
AcDbVertex
100
AcDb2dVertex
62
5
10
-82.850000
20
125.149946
0
VERTEX
5
113
100
AcDbEntity
8
1
100
AcDbVertex
100
AcDb2dVertex
62
5
10
-83.350000
20
125.462446
0
VERTEX
5
114
100
AcDbEntity
8
1
100
AcDbVertex
100
AcDb2dVertex
62
5
10
-83.850000
20
126.399946
0
SEQEND
5
115
100
AcDbEntity
8
1
0
POLYLINE
5
116
100
AcDbEntity
8
1
6
CONTINUOUS
62
5
100
AcDb2dPolyline
66
1
10
0.0
20
0.0
30
0.0
70
0
0
VERTEX
5
117
100
AcDbEntity
8
1
100
AcDbVertex
100
AcDb2dVertex
62
5
10
-70.850000
20
122.337446
0
VERTEX
5
118
100
AcDbEntity
8
1
100
AcDbVertex
100
AcDb2dVertex
62
5
10
-72.850000
20
119.837446
0
VERTEX
5
119
100
AcDbEntity
8
1
100
AcDbVertex
100
AcDb2dVertex
62
5
10
-75.100000
20
118.274946
0
SEQEND
5
11a
100
AcDbEntity
8
1
0
LINE
5
11b
100
AcDbEntity
8
1
100
AcDbLine
6
CONTINUOUS
62
5
10
-72.350000
20
120.462446
11
-72.350000
21
115.149946
0
POLYLINE
5
11c
100
AcDbEntity
8
1
6
CONTINUOUS
62
5
100
AcDb2dPolyline
66
1
10
0.0
20
0.0
30
0.0
70
0
0
VERTEX
5
11d
100
AcDbEntity
8
1
100
AcDbVertex
100
AcDb2dVertex
62
5
10
-65.350000
20
119.837446
0
VERTEX
5
11e
100
AcDbEntity
8
1
100
AcDbVertex
100
AcDb2dVertex
62
5
10
-65.100000
20
119.837446
0
VERTEX
5
11f
100
AcDbEntity
8
1
100
AcDbVertex
100
AcDb2dVertex
62
5
10
-63.350000
20
118.587446
0
SEQEND
5
120
100
AcDbEntity
8
1
0
LINE
5
121
100
AcDbEntity
8
1
100
AcDbLine
6
CONTINUOUS
62
5
10
-65.350000
20
122.649946
11
-65.350000
21
115.149946
0
POLYLINE
5
122
100
AcDbEntity
8
1
6
CONTINUOUS
62
5
100
AcDb2dPolyline
66
1
10
0.0
20
0.0
30
0.0
70
0
0
VERTEX
5
123
100
AcDbEntity
8
1
100
AcDbVertex
100
AcDb2dVertex
62
5
10
-99.600000
20
121.087446
0
VERTEX
5
124
100
AcDbEntity
8
1
100
AcDbVertex
100
AcDb2dVertex
62
5
10
-94.350000
20
121.087446
0
VERTEX
5
125
100
AcDbEntity
8
1
100
AcDbVertex
100
AcDb2dVertex
62
5
10
-94.350000
20
120.774946
0
VERTEX
5
126
100
AcDbEntity
8
1
100
AcDbVertex
100
AcDb2dVertex
62
5
10
-96.100000
20
118.899946
0
VERTEX
5
127
100
AcDbEntity
8
1
100
AcDbVertex
100
AcDb2dVertex
62
5
10
-96.850000
20
118.899946
0
SEQEND
5
128
100
AcDbEntity
8
1
0
POLYLINE
5
129
100
AcDbEntity
8
1
6
CONTINUOUS
62
5
100
AcDb2dPolyline
66
1
10
0.0
20
0.0
30
0.0
70
0
0
VERTEX
5
12a
100
AcDbEntity
8
1
100
AcDbVertex
100
AcDb2dVertex
62
5
10
-96.850000
20
119.837446
0
VERTEX
5
12b
100
AcDbEntity
8
1
100
AcDbVertex
100
AcDb2dVertex
62
5
10
-96.850000
20
118.274946
0
VERTEX
5
12c
100
AcDbEntity
8
1
100
AcDbVertex
100
AcDb2dVertex
62
5
10
-97.600000
20
116.399946
0
VERTEX
5
12d
100
AcDbEntity
8
1
100
AcDbVertex
100
AcDb2dVertex
62
5
10
-98.600000
20
115.149946
0
SEQEND
5
12e
100
AcDbEntity
8
1
0
LINE
5
12f
100
AcDbEntity
8
1
100
AcDbLine
6
CONTINUOUS
62
5
10
-91.350000
20
119.837446
11
-86.350000
21
119.837446
0
POLYLINE
5
130
100
AcDbEntity
8
1
6
CONTINUOUS
62
5
100
AcDb2dPolyline
66
1
10
0.0
20
0.0
30
0.0
70
0
0
VERTEX
5
131
100
AcDbEntity
8
1
100
AcDbVertex
100
AcDb2dVertex
62
5
10
-88.850000
20
121.712446
0
VERTEX
5
132
100
AcDbEntity
8
1
100
AcDbVertex
100
AcDb2dVertex
62
5
10
-88.850000
20
115.462446
0
VERTEX
5
133
100
AcDbEntity
8
1
100
AcDbVertex
100
AcDb2dVertex
62
5
10
-89.350000
20
115.462446
0
SEQEND
5
134
100
AcDbEntity
8
1
0
LINE
5
135
100
AcDbEntity
8
1
100
AcDbLine
6
CONTINUOUS
62
5
10
-90.100000
20
118.274946
11
-91.350000
21
116.399946
0
LINE
5
136
100
AcDbEntity
8
1
100
AcDbLine
6
CONTINUOUS
62
5
10
-87.350000
20
118.274946
11
-86.100000
21
116.712446
0
POLYLINE
5
137
100
AcDbEntity
8
1
6
CONTINUOUS
62
5
100
AcDb2dPolyline
66
1
10
0.0
20
0.0
30
0.0
70
0
0
VERTEX
5
138
100
AcDbEntity
8
1
100
AcDbVertex
100
AcDb2dVertex
62
5
10
-82.850000
20
119.212446
0
VERTEX
5
139
100
AcDbEntity
8
1
100
AcDbVertex
100
AcDb2dVertex
62
5
10
-82.850000
20
121.399946
0
VERTEX
5
13a
100
AcDbEntity
8
1
100
AcDbVertex
100
AcDb2dVertex
62
5
10
-78.850000
20
121.399946
0
VERTEX
5
13b
100
AcDbEntity
8
1
100
AcDbVertex
100
AcDb2dVertex
62
5
10
-78.850000
20
120.462446
0
VERTEX
5
13c
100
AcDbEntity
8
1
100
AcDbVertex
100
AcDb2dVertex
62
5
10
-79.100000
20
118.899946
0
VERTEX
5
13d
100
AcDbEntity
8
1
100
AcDbVertex
100
AcDb2dVertex
62
5
10
-79.600000
20
117.649946
0
VERTEX
5
13e
100
AcDbEntity
8
1
100
AcDbVertex
100
AcDb2dVertex
62
5
10
-80.100000
20
116.712446
0
VERTEX
5
13f
100
AcDbEntity
8
1
100
AcDbVertex
100
AcDb2dVertex
62
5
10
-81.100000
20
115.462446
0
SEQEND
5
140
100
AcDbEntity
8
1
0
POLYLINE
5
141
100
AcDbEntity
8
1
6
CONTINUOUS
62
5
100
AcDb2dPolyline
66
1
10
0.0
20
0.0
30
0.0
70
0
0
VERTEX
5
142
100
AcDbEntity
8
1
100
AcDbVertex
100
AcDb2dVertex
62
5
10
-97.350000
20
132.337446
0
VERTEX
5
143
100
AcDbEntity
8
1
100
AcDbVertex
100
AcDb2dVertex
62
5
10
-97.350000
20
127.337446
0
VERTEX
5
144
100
AcDbEntity
8
1
100
AcDbVertex
100
AcDb2dVertex
62
5
10
-97.600000
20
126.087446
0
VERTEX
5
145
100
AcDbEntity
8
1
100
AcDbVertex
100
AcDb2dVertex
62
5
10
-98.100000
20
125.149946
0
VERTEX
5
146
100
AcDbEntity
8
1
100
AcDbVertex
100
AcDb2dVertex
62
5
10
-98.600000
20
124.524946
0
SEQEND
5
147
100
AcDbEntity
8
1
0
LINE
5
148
100
AcDbEntity
8
1
100
AcDbLine
6
CONTINUOUS
62
5
10
-99.600000
20
128.274946
11
-99.100000
21
130.774946
0
POLYLINE
5
149
100
AcDbEntity
8
1
6
CONTINUOUS
62
5
100
AcDb2dPolyline
66
1
10
0.0
20
0.0
30
0.0
70
0
0
VERTEX
5
14a
100
AcDbEntity
8
1
100
AcDbVertex
100
AcDb2dVertex
62
5
10
-99.600000
20
128.274946
0
VERTEX
5
14b
100
AcDbEntity
8
1
100
AcDbVertex
100
AcDb2dVertex
62
5
10
-99.850000
20
127.337446
0
VERTEX
5
14c
100
AcDbEntity
8
1
100
AcDbVertex
100
AcDb2dVertex
62
5
10
-100.350000
20
126.087446
0
SEQEND
5
14d
100
AcDbEntity
8
1
0
LINE
5
14e
100
AcDbEntity
8
1
100
AcDbLine
6
CONTINUOUS
62
5
10
-95.600000
20
126.712446
11
-95.100000
21
125.774946
0
LINE
5
14f
100
AcDbEntity
8
1
100
AcDbLine
6
CONTINUOUS
62
5
10
-100.350000
20
130.774946
11
-97.850000
21
130.774946
0
LINE
5
150
100
AcDbEntity
8
1
100
AcDbLine
6
CONTINUOUS
62
5
10
-99.100000
20
132.962446
11
-99.100000
21
124.212446
0
LINE
5
151
100
AcDbEntity
8
1
100
AcDbLine
6
CONTINUOUS
62
5
10
-99.100000
20
129.524946
11
-98.100000
21
127.649946
0
LINE
5
152
100
AcDbEntity
8
1
100
AcDbLine
6
CONTINUOUS
62
5
10
-93.350000
20
132.337446
11
-97.350000
21
132.337446
0
POLYLINE
5
153
100
AcDbEntity
8
1
6
CONTINUOUS
62
5
100
AcDb2dPolyline
66
1
10
0.0
20
0.0
30
0.0
70
0
0
VERTEX
5
154
100
AcDbEntity
8
1
100
AcDbVertex
100
AcDb2dVertex
62
5
10
-97.350000
20
129.837446
0
VERTEX
5
155
100
AcDbEntity
8
1
100
AcDbVertex
100
AcDb2dVertex
62
5
10
-93.850000
20
129.837446
0
VERTEX
5
156
100
AcDbEntity
8
1
100
AcDbVertex
100
AcDb2dVertex
62
5
10
-94.350000
20
127.649946
0
VERTEX
5
157
100
AcDbEntity
8
1
100
AcDbVertex
100
AcDb2dVertex
62
5
10
-95.100000
20
126.399946
0
VERTEX
5
158
100
AcDbEntity
8
1
100
AcDbVertex
100
AcDb2dVertex
62
5
10
-96.100000
20
125.149946
0
VERTEX
5
159
100
AcDbEntity
8
1
100
AcDbVertex
100
AcDb2dVertex
62
5
10
-97.350000
20
124.524946
0
SEQEND
5
15a
100
AcDbEntity
8
1
0
POLYLINE
5
15b
100
AcDbEntity
8
1
6
CONTINUOUS
62
5
100
AcDb2dPolyline
66
1
10
0.0
20
0.0
30
0.0
70
0
0
VERTEX
5
15c
100
AcDbEntity
8
1
100
AcDbVertex
100
AcDb2dVertex
62
5
10
-95.100000
20
125.774946
0
VERTEX
5
15d
100
AcDbEntity
8
1
100
AcDbVertex
100
AcDb2dVertex
62
5
10
-94.100000
20
124.837446
0
VERTEX
5
15e
100
AcDbEntity
8
1
100
AcDbVertex
100
AcDb2dVertex
62
5
10
-93.100000
20
124.212446
0
SEQEND
5
15f
100
AcDbEntity
8
1
0
LINE
5
160
100
AcDbEntity
8
1
100
AcDbLine
6
CONTINUOUS
62
5
10
-96.600000
20
129.212446
11
-95.600000
21
126.712446
0
POLYLINE
5
161
100
AcDbEntity
8
1
6
CONTINUOUS
62
5
100
AcDb2dPolyline
66
1
10
0.0
20
0.0
30
0.0
70
0
0
VERTEX
5
162
100
AcDbEntity
8
1
100
AcDbVertex
100
AcDb2dVertex
62
5
10
-78.350000
20
132.962446
0
VERTEX
5
163
100
AcDbEntity
8
1
100
AcDbVertex
100
AcDb2dVertex
62
5
10
-79.100000
20
130.774946
0
VERTEX
5
164
100
AcDbEntity
8
1
100
AcDbVertex
100
AcDb2dVertex
62
5
10
-80.350000
20
128.899946
0
SEQEND
5
165
100
AcDbEntity
8
1
0
LINE
5
166
100
AcDbEntity
8
1
100
AcDbLine
6
CONTINUOUS
62
5
10
-79.100000
20
130.774946
11
-79.100000
21
124.212446
0
POLYLINE
5
167
100
AcDbEntity
8
1
6
CONTINUOUS
62
5
100
AcDb2dPolyline
66
1
10
0.0
20
0.0
30
0.0
70
1
0
VERTEX
5
168
100
AcDbEntity
8
1
100
AcDbVertex
100
AcDb2dVertex
62
5
10
-77.850000
20
124.524946
0
VERTEX
5
169
100
AcDbEntity
8
1
100
AcDbVertex
100
AcDb2dVertex
62
5
10
-77.850000
20
132.649946
0
VERTEX
5
16a
100
AcDbEntity
8
1
100
AcDbVertex
100
AcDb2dVertex
62
5
10
-73.350000
20
132.649946
0
VERTEX
5
16b
100
AcDbEntity
8
1
100
AcDbVertex
100
AcDb2dVertex
62
5
10
-73.350000
20
124.524946
0
VERTEX
5
16c
100
AcDbEntity
8
1
100
AcDbVertex
100
AcDb2dVertex
62
5
10
-77.850000
20
124.524946
0
SEQEND
5
16d
100
AcDbEntity
8
1
0
LINE
5
16e
100
AcDbEntity
8
1
100
AcDbLine
6
CONTINUOUS
62
5
10
-77.100000
20
130.462446
11
-74.100000
21
130.462446
0
LINE
5
16f
100
AcDbEntity
8
1
100
AcDbLine
6
CONTINUOUS
62
5
10
-75.600000
20
131.399946
11
-75.600000
21
128.587446
0
POLYLINE
5
170
100
AcDbEntity
8
1
6
CONTINUOUS
62
5
100
AcDb2dPolyline
66
1
10
0.0
20
0.0
30
0.0
70
1
0
VERTEX
5
171
100
AcDbEntity
8
1
100
AcDbVertex
100
AcDb2dVertex
62
5
10
-76.850000
20
128.587446
0
VERTEX
5
172
100
AcDbEntity
8
1
100
AcDbVertex
100
AcDb2dVertex
62
5
10
-76.850000
20
125.774946
0
VERTEX
5
173
100
AcDbEntity
8
1
100
AcDbVertex
100
AcDb2dVertex
62
5
10
-74.350000
20
125.774946
0
VERTEX
5
174
100
AcDbEntity
8
1
100
AcDbVertex
100
AcDb2dVertex
62
5
10
-74.350000
20
128.587446
0
VERTEX
5
175
100
AcDbEntity
8
1
100
AcDbVertex
100
AcDb2dVertex
62
5
10
-76.850000
20
128.587446
0
SEQEND
5
176
100
AcDbEntity
8
1
0
LINE
5
177
100
AcDbEntity
8
1
100
AcDbLine
6
CONTINUOUS
62
5
10
-79.100000
20
95.399946
11
-79.100000
21
87.899946
0
POLYLINE
5
178
100
AcDbEntity
8
1
6
CONTINUOUS
62
5
100
AcDb2dPolyline
66
1
10
0.0
20
0.0
30
0.0
70
0
0
VERTEX
5
179
100
AcDbEntity
8
1
100
AcDbVertex
100
AcDb2dVertex
62
5
10
-79.100000
20
95.399946
0
VERTEX
5
17a
100
AcDbEntity
8
1
100
AcDbVertex
100
AcDb2dVertex
62
5
10
-77.850000
20
95.399946
0
VERTEX
5
17b
100
AcDbEntity
8
1
100
AcDbVertex
100
AcDb2dVertex
62
5
10
-76.912500
20
95.087446
0
VERTEX
5
17c
100
AcDbEntity
8
1
100
AcDbVertex
100
AcDb2dVertex
62
5
10
-76.287500
20
94.462446
0
VERTEX
5
17d
100
AcDbEntity
8
1
100
AcDbVertex
100
AcDb2dVertex
62
5
10
-75.975000
20
93.837446
0
VERTEX
5
17e
100
AcDbEntity
8
1
100
AcDbVertex
100
AcDb2dVertex
62
5
10
-75.975000
20
92.899946
0
VERTEX
5
17f
100
AcDbEntity
8
1
100
AcDbVertex
100
AcDb2dVertex
62
5
10
-76.287500
20
92.274946
0
VERTEX
5
180
100
AcDbEntity
8
1
100
AcDbVertex
100
AcDb2dVertex
62
5
10
-76.912500
20
91.649946
0
VERTEX
5
181
100
AcDbEntity
8
1
100
AcDbVertex
100
AcDb2dVertex
62
5
10
-77.850000
20
91.337446
0
VERTEX
5
182
100
AcDbEntity
8
1
100
AcDbVertex
100
AcDb2dVertex
62
5
10
-79.100000
20
91.337446
0
SEQEND
5
183
100
AcDbEntity
8
1
0
POLYLINE
5
184
100
AcDbEntity
8
1
6
CONTINUOUS
62
5
100
AcDb2dPolyline
66
1
10
0.0
20
0.0
30
0.0
70
0
0
VERTEX
5
185
100
AcDbEntity
8
1
100
AcDbVertex
100
AcDb2dVertex
62
5
10
-74.412500
20
95.399946
0
VERTEX
5
186
100
AcDbEntity
8
1
100
AcDbVertex
100
AcDb2dVertex
62
5
10
-73.475000
20
87.899946
0
VERTEX
5
187
100
AcDbEntity
8
1
100
AcDbVertex
100
AcDb2dVertex
62
5
10
-72.537500
20
95.399946
0
VERTEX
5
188
100
AcDbEntity
8
1
100
AcDbVertex
100
AcDb2dVertex
62
5
10
-71.600000
20
87.899946
0
VERTEX
5
189
100
AcDbEntity
8
1
100
AcDbVertex
100
AcDb2dVertex
62
5
10
-70.662500
20
95.399946
0
SEQEND
5
18a
100
AcDbEntity
8
1
0
POLYLINE
5
18b
100
AcDbEntity
8
1
6
CONTINUOUS
62
5
100
AcDb2dPolyline
66
1
10
0.0
20
0.0
30
0.0
70
0
0
VERTEX
5
18c
100
AcDbEntity
8
1
100
AcDbVertex
100
AcDb2dVertex
62
5
10
-98.475000
20
94.774946
0
VERTEX
5
18d
100
AcDbEntity
8
1
100
AcDbVertex
100
AcDb2dVertex
62
5
10
-97.537500
20
95.399946
0
VERTEX
5
18e
100
AcDbEntity
8
1
100
AcDbVertex
100
AcDb2dVertex
62
5
10
-97.537500
20
87.899946
0
SEQEND
5
18f
100
AcDbEntity
8
1
0
LINE
5
190
100
AcDbEntity
8
1
100
AcDbLine
6
CONTINUOUS
62
5
10
-98.162500
20
87.899946
11
-96.912500
21
87.899946
0
POLYLINE
5
191
100
AcDbEntity
8
1
6
CONTINUOUS
62
5
100
AcDb2dPolyline
66
1
10
0.0
20
0.0
30
0.0
70
0
0
VERTEX
5
192
100
AcDbEntity
8
1
100
AcDbVertex
100
AcDb2dVertex
62
5
10
-91.600000
20
95.399946
0
VERTEX
5
193
100
AcDbEntity
8
1
100
AcDbVertex
100
AcDb2dVertex
62
5
10
-92.537500
20
95.399946
0
VERTEX
5
194
100
AcDbEntity
8
1
100
AcDbVertex
100
AcDb2dVertex
62
5
10
-93.475000
20
95.087446
0
VERTEX
5
195
100
AcDbEntity
8
1
100
AcDbVertex
100
AcDb2dVertex
62
5
10
-94.100000
20
93.837446
0
VERTEX
5
196
100
AcDbEntity
8
1
100
AcDbVertex
100
AcDb2dVertex
62
5
10
-94.100000
20
89.462446
0
VERTEX
5
197
100
AcDbEntity
8
1
100
AcDbVertex
100
AcDb2dVertex
62
5
10
-93.787500
20
88.524946
0
VERTEX
5
198
100
AcDbEntity
8
1
100
AcDbVertex
100
AcDb2dVertex
62
5
10
-93.475000
20
88.212446
0
VERTEX
5
199
100
AcDbEntity
8
1
100
AcDbVertex
100
AcDb2dVertex
62
5
10
-92.850000
20
87.899946
0
VERTEX
5
19a
100
AcDbEntity
8
1
100
AcDbVertex
100
AcDb2dVertex
62
5
10
-92.225000
20
87.899946
0
VERTEX
5
19b
100
AcDbEntity
8
1
100
AcDbVertex
100
AcDb2dVertex
62
5
10
-91.600000
20
88.212446
0
VERTEX
5
19c
100
AcDbEntity
8
1
100
AcDbVertex
100
AcDb2dVertex
62
5
10
-91.287500
20
88.524946
0
VERTEX
5
19d
100
AcDbEntity
8
1
100
AcDbVertex
100
AcDb2dVertex
62
5
10
-90.975000
20
89.462446
0
VERTEX
5
19e
100
AcDbEntity
8
1
100
AcDbVertex
100
AcDb2dVertex
62
5
10
-90.975000
20
91.337446
0
VERTEX
5
19f
100
AcDbEntity
8
1
100
AcDbVertex
100
AcDb2dVertex
62
5
10
-91.287500
20
91.962446
0
VERTEX
5
1a0
100
AcDbEntity
8
1
100
AcDbVertex
100
AcDb2dVertex
62
5
10
-91.912500
20
92.274946
0
VERTEX
5
1a1
100
AcDbEntity
8
1
100
AcDbVertex
100
AcDb2dVertex
62
5
10
-93.162500
20
92.274946
0
VERTEX
5
1a2
100
AcDbEntity
8
1
100
AcDbVertex
100
AcDb2dVertex
62
5
10
-94.100000
20
91.962446
0
SEQEND
5
1a3
100
AcDbEntity
8
1
0
POLYLINE
5
1a4
100
AcDbEntity
8
1
6
CONTINUOUS
62
5
100
AcDb2dPolyline
66
1
10
0.0
20
0.0
30
0.0
70
1
0
VERTEX
5
1a5
100
AcDbEntity
8
1
100
AcDbVertex
100
AcDb2dVertex
62
5
10
-87.850000
20
95.399946
0
VERTEX
5
1a6
100
AcDbEntity
8
1
100
AcDbVertex
100
AcDb2dVertex
62
5
10
-87.225000
20
95.399946
0
VERTEX
5
1a7
100
AcDbEntity
8
1
100
AcDbVertex
100
AcDb2dVertex
62
5
10
-86.912500
20
95.087446
0
VERTEX
5
1a8
100
AcDbEntity
8
1
100
AcDbVertex
100
AcDb2dVertex
62
5
10
-86.287500
20
93.837446
0
VERTEX
5
1a9
100
AcDbEntity
8
1
100
AcDbVertex
100
AcDb2dVertex
62
5
10
-85.975000
20
92.587446
0
VERTEX
5
1aa
100
AcDbEntity
8
1
100
AcDbVertex
100
AcDb2dVertex
62
5
10
-85.975000
20
90.712446
0
VERTEX
5
1ab
100
AcDbEntity
8
1
100
AcDbVertex
100
AcDb2dVertex
62
5
10
-86.287500
20
89.462446
0
VERTEX
5
1ac
100
AcDbEntity
8
1
100
AcDbVertex
100
AcDb2dVertex
62
5
10
-86.912500
20
88.212446
0
VERTEX
5
1ad
100
AcDbEntity
8
1
100
AcDbVertex
100
AcDb2dVertex
62
5
10
-87.225000
20
87.899946
0
VERTEX
5
1ae
100
AcDbEntity
8
1
100
AcDbVertex
100
AcDb2dVertex
62
5
10
-87.850000
20
87.899946
0
VERTEX
5
1af
100
AcDbEntity
8
1
100
AcDbVertex
100
AcDb2dVertex
62
5
10
-88.162500
20
88.212446
0
VERTEX
5
1b0
100
AcDbEntity
8
1
100
AcDbVertex
100
AcDb2dVertex
62
5
10
-88.787500
20
89.462446
0
VERTEX
5
1b1
100
AcDbEntity
8
1
100
AcDbVertex
100
AcDb2dVertex
62
5
10
-89.100000
20
90.712446
0
VERTEX
5
1b2
100
AcDbEntity
8
1
100
AcDbVertex
100
AcDb2dVertex
62
5
10
-89.100000
20
92.587446
0
VERTEX
5
1b3
100
AcDbEntity
8
1
100
AcDbVertex
100
AcDb2dVertex
62
5
10
-88.787500
20
93.837446
0
VERTEX
5
1b4
100
AcDbEntity
8
1
100
AcDbVertex
100
AcDb2dVertex
62
5
10
-88.162500
20
95.087446
0
VERTEX
5
1b5
100
AcDbEntity
8
1
100
AcDbVertex
100
AcDb2dVertex
62
5
10
-87.850000
20
95.399946
0
SEQEND
5
1b6
100
AcDbEntity
8
1
0
LINE
5
1b7
100
AcDbEntity
8
1
100
AcDbLine
6
CONTINUOUS
62
5
10
-116.350000
20
131.087446
11
-114.600000
21
131.087446
0
POLYLINE
5
1b8
100
AcDbEntity
8
1
6
CONTINUOUS
62
5
100
AcDb2dPolyline
66
1
10
0.0
20
0.0
30
0.0
70
0
0
VERTEX
5
1b9
100
AcDbEntity
8
1
100
AcDbVertex
100
AcDb2dVertex
62
5
10
-115.350000
20
132.962446
0
VERTEX
5
1ba
100
AcDbEntity
8
1
100
AcDbVertex
100
AcDb2dVertex
62
5
10
-115.350000
20
125.462446
0
VERTEX
5
1bb
100
AcDbEntity
8
1
100
AcDbVertex
100
AcDb2dVertex
62
5
10
-115.850000
20
124.837446
0
VERTEX
5
1bc
100
AcDbEntity
8
1
100
AcDbVertex
100
AcDb2dVertex
62
5
10
-116.100000
20
124.837446
0
SEQEND
5
1bd
100
AcDbEntity
8
1
0
LINE
5
1be
100
AcDbEntity
8
1
100
AcDbLine
6
CONTINUOUS
62
5
10
-116.350000
20
127.962446
11
-114.850000
21
128.899946
0
POLYLINE
5
1bf
100
AcDbEntity
8
1
6
CONTINUOUS
62
5
100
AcDb2dPolyline
66
1
10
0.0
20
0.0
30
0.0
70
1
0
VERTEX
5
1c0
100
AcDbEntity
8
1
100
AcDbVertex
100
AcDb2dVertex
62
5
10
-113.100000
20
131.087446
0
VERTEX
5
1c1
100
AcDbEntity
8
1
100
AcDbVertex
100
AcDb2dVertex
62
5
10
-113.100000
20
132.649946
0
VERTEX
5
1c2
100
AcDbEntity
8
1
100
AcDbVertex
100
AcDb2dVertex
62
5
10
-110.600000
20
132.649946
0
VERTEX
5
1c3
100
AcDbEntity
8
1
100
AcDbVertex
100
AcDb2dVertex
62
5
10
-110.600000
20
131.087446
0
VERTEX
5
1c4
100
AcDbEntity
8
1
100
AcDbVertex
100
AcDb2dVertex
62
5
10
-113.100000
20
131.087446
0
SEQEND
5
1c5
100
AcDbEntity
8
1
0
POLYLINE
5
1c6
100
AcDbEntity
8
1
6
CONTINUOUS
62
5
100
AcDb2dPolyline
66
1
10
0.0
20
0.0
30
0.0
70
1
0
VERTEX
5
1c7
100
AcDbEntity
8
1
100
AcDbVertex
100
AcDb2dVertex
62
5
10
-113.850000
20
130.149946
0
VERTEX
5
1c8
100
AcDbEntity
8
1
100
AcDbVertex
100
AcDb2dVertex
62
5
10
-112.600000
20
130.149946
0
VERTEX
5
1c9
100
AcDbEntity
8
1
100
AcDbVertex
100
AcDb2dVertex
62
5
10
-112.600000
20
128.899946
0
VERTEX
5
1ca
100
AcDbEntity
8
1
100
AcDbVertex
100
AcDb2dVertex
62
5
10
-113.850000
20
128.899946
0
VERTEX
5
1cb
100
AcDbEntity
8
1
100
AcDbVertex
100
AcDb2dVertex
62
5
10
-113.850000
20
130.149946
0
SEQEND
5
1cc
100
AcDbEntity
8
1
0
POLYLINE
5
1cd
100
AcDbEntity
8
1
6
CONTINUOUS
62
5
100
AcDb2dPolyline
66
1
10
0.0
20
0.0
30
0.0
70
1
0
VERTEX
5
1ce
100
AcDbEntity
8
1
100
AcDbVertex
100
AcDb2dVertex
62
5
10
-111.100000
20
130.149946
0
VERTEX
5
1cf
100
AcDbEntity
8
1
100
AcDbVertex
100
AcDb2dVertex
62
5
10
-109.850000
20
130.149946
0
VERTEX
5
1d0
100
AcDbEntity
8
1
100
AcDbVertex
100
AcDb2dVertex
62
5
10
-109.850000
20
128.899946
0
VERTEX
5
1d1
100
AcDbEntity
8
1
100
AcDbVertex
100
AcDb2dVertex
62
5
10
-111.100000
20
128.899946
0
VERTEX
5
1d2
100
AcDbEntity
8
1
100
AcDbVertex
100
AcDb2dVertex
62
5
10
-111.100000
20
130.149946
0
SEQEND
5
1d3
100
AcDbEntity
8
1
0
LINE
5
1d4
100
AcDbEntity
8
1
100
AcDbLine
6
CONTINUOUS
62
5
10
-114.100000
20
127.649946
11
-109.350000
21
127.649946
0
LINE
5
1d5
100
AcDbEntity
8
1
100
AcDbLine
6
CONTINUOUS
62
5
10
-111.850000
20
128.587446
11
-111.850000
21
124.524946
0
POLYLINE
5
1d6
100
AcDbEntity
8
1
6
CONTINUOUS
62
5
100
AcDb2dPolyline
66
1
10
0.0
20
0.0
30
0.0
70
0
0
VERTEX
5
1d7
100
AcDbEntity
8
1
100
AcDbVertex
100
AcDb2dVertex
62
5
10
-111.850000
20
127.337446
0
VERTEX
5
1d8
100
AcDbEntity
8
1
100
AcDbVertex
100
AcDb2dVertex
62
5
10
-112.600000
20
126.087446
0
VERTEX
5
1d9
100
AcDbEntity
8
1
100
AcDbVertex
100
AcDb2dVertex
62
5
10
-113.100000
20
125.774946
0
VERTEX
5
1da
100
AcDbEntity
8
1
100
AcDbVertex
100
AcDb2dVertex
62
5
10
-114.350000
20
125.149946
0
SEQEND
5
1db
100
AcDbEntity
8
1
0
POLYLINE
5
1dc
100
AcDbEntity
8
1
6
CONTINUOUS
62
5
100
AcDb2dPolyline
66
1
10
0.0
20
0.0
30
0.0
70
0
0
VERTEX
5
1dd
100
AcDbEntity
8
1
100
AcDbVertex
100
AcDb2dVertex
62
5
10
-111.850000
20
127.337446
0
VERTEX
5
1de
100
AcDbEntity
8
1
100
AcDbVertex
100
AcDb2dVertex
62
5
10
-111.100000
20
126.087446
0
VERTEX
5
1df
100
AcDbEntity
8
1
100
AcDbVertex
100
AcDb2dVertex
62
5
10
-110.350000
20
125.462446
0
VERTEX
5
1e0
100
AcDbEntity
8
1
100
AcDbVertex
100
AcDb2dVertex
62
5
10
-109.350000
20
125.149946
0
SEQEND
5
1e1
100
AcDbEntity
8
1
0
POLYLINE
5
1e2
100
AcDbEntity
8
1
6
CONTINUOUS
62
5
100
AcDb2dPolyline
66
1
10
0.0
20
0.0
30
0.0
70
0
0
VERTEX
5
1e3
100
AcDbEntity
8
1
100
AcDbVertex
100
AcDb2dVertex
62
5
10
-118.850000
20
141.899946
0
VERTEX
5
1e4
100
AcDbEntity
8
1
100
AcDbVertex
100
AcDb2dVertex
62
5
10
-118.100000
20
135.899946
0
VERTEX
5
1e5
100
AcDbEntity
8
1
100
AcDbVertex
100
AcDb2dVertex
62
5
10
-117.350000
20
141.899946
0
VERTEX
5
1e6
100
AcDbEntity
8
1
100
AcDbVertex
100
AcDb2dVertex
62
5
10
-116.600000
20
135.899946
0
VERTEX
5
1e7
100
AcDbEntity
8
1
100
AcDbVertex
100
AcDb2dVertex
62
5
10
-115.850000
20
141.899946
0
SEQEND
5
1e8
100
AcDbEntity
8
1
0
LINE
5
1e9
100
AcDbEntity
8
1
100
AcDbLine
6
CONTINUOUS
62
5
10
-114.100000
20
141.899946
11
-112.600000
21
141.899946
0
LINE
5
1ea
100
AcDbEntity
8
1
100
AcDbLine
6
CONTINUOUS
62
5
10
-113.350000
20
141.899946
11
-113.350000
21
135.899946
0
LINE
5
1eb
100
AcDbEntity
8
1
100
AcDbLine
6
CONTINUOUS
62
5
10
-114.100000
20
135.899946
11
-112.600000
21
135.899946
0
LINE
5
1ec
100
AcDbEntity
8
1
100
AcDbLine
6
CONTINUOUS
62
5
10
-110.600000
20
141.899946
11
-110.600000
21
135.899946
0
POLYLINE
5
1ed
100
AcDbEntity
8
1
6
CONTINUOUS
62
5
100
AcDb2dPolyline
66
1
10
0.0
20
0.0
30
0.0
70
0
0
VERTEX
5
1ee
100
AcDbEntity
8
1
100
AcDbVertex
100
AcDb2dVertex
62
5
10
-110.600000
20
141.899946
0
VERTEX
5
1ef
100
AcDbEntity
8
1
100
AcDbVertex
100
AcDb2dVertex
62
5
10
-109.350000
20
141.899946
0
VERTEX
5
1f0
100
AcDbEntity
8
1
100
AcDbVertex
100
AcDb2dVertex
62
5
10
-108.850000
20
141.649946
0
VERTEX
5
1f1
100
AcDbEntity
8
1
100
AcDbVertex
100
AcDb2dVertex
62
5
10
-108.350000
20
141.149946
0
VERTEX
5
1f2
100
AcDbEntity
8
1
100
AcDbVertex
100
AcDb2dVertex
62
5
10
-108.100000
20
140.149946
0
VERTEX
5
1f3
100
AcDbEntity
8
1
100
AcDbVertex
100
AcDb2dVertex
62
5
10
-108.100000
20
137.649946
0
VERTEX
5
1f4
100
AcDbEntity
8
1
100
AcDbVertex
100
AcDb2dVertex
62
5
10
-108.350000
20
136.649946
0
VERTEX
5
1f5
100
AcDbEntity
8
1
100
AcDbVertex
100
AcDb2dVertex
62
5
10
-108.850000
20
136.149946
0
VERTEX
5
1f6
100
AcDbEntity
8
1
100
AcDbVertex
100
AcDb2dVertex
62
5
10
-109.350000
20
135.899946
0
VERTEX
5
1f7
100
AcDbEntity
8
1
100
AcDbVertex
100
AcDb2dVertex
62
5
10
-110.600000
20
135.899946
0
SEQEND
5
1f8
100
AcDbEntity
8
1
0
POLYLINE
5
1f9
100
AcDbEntity
8
1
6
CONTINUOUS
62
5
100
AcDb2dPolyline
66
1
10
0.0
20
0.0
30
0.0
70
0
0
VERTEX
5
1fa
100
AcDbEntity
8
1
100
AcDbVertex
100
AcDb2dVertex
62
5
10
-104.100000
20
141.899946
0
VERTEX
5
1fb
100
AcDbEntity
8
1
100
AcDbVertex
100
AcDb2dVertex
62
5
10
-106.600000
20
141.899946
0
VERTEX
5
1fc
100
AcDbEntity
8
1
100
AcDbVertex
100
AcDb2dVertex
62
5
10
-106.600000
20
135.899946
0
VERTEX
5
1fd
100
AcDbEntity
8
1
100
AcDbVertex
100
AcDb2dVertex
62
5
10
-103.850000
20
135.899946
0
SEQEND
5
1fe
100
AcDbEntity
8
1
0
LINE
5
1ff
100
AcDbEntity
8
1
100
AcDbLine
6
CONTINUOUS
62
5
10
-106.600000
20
138.899946
11
-104.350000
21
138.899946
0
POLYLINE
5
200
100
AcDbEntity
8
1
6
CONTINUOUS
62
5
100
AcDb2dPolyline
66
1
10
0.0
20
0.0
30
0.0
70
0
0
VERTEX
5
201
100
AcDbEntity
8
1
100
AcDbVertex
100
AcDb2dVertex
62
5
10
-128.350000
20
141.899946
0
VERTEX
5
202
100
AcDbEntity
8
1
100
AcDbVertex
100
AcDb2dVertex
62
5
10
-128.350000
20
137.399946
0
VERTEX
5
203
100
AcDbEntity
8
1
100
AcDbVertex
100
AcDb2dVertex
62
5
10
-128.600000
20
136.399946
0
VERTEX
5
204
100
AcDbEntity
8
1
100
AcDbVertex
100
AcDb2dVertex
62
5
10
-129.100000
20
135.899946
0
VERTEX
5
205
100
AcDbEntity
8
1
100
AcDbVertex
100
AcDb2dVertex
62
5
10
-129.850000
20
135.899946
0
VERTEX
5
206
100
AcDbEntity
8
1
100
AcDbVertex
100
AcDb2dVertex
62
5
10
-130.350000
20
136.399946
0
VERTEX
5
207
100
AcDbEntity
8
1
100
AcDbVertex
100
AcDb2dVertex
62
5
10
-130.600000
20
137.399946
0
SEQEND
5
208
100
AcDbEntity
8
1
0
POLYLINE
5
209
100
AcDbEntity
8
1
6
CONTINUOUS
62
5
100
AcDb2dPolyline
66
1
10
0.0
20
0.0
30
0.0
70
0
0
VERTEX
5
20a
100
AcDbEntity
8
1
100
AcDbVertex
100
AcDb2dVertex
62
5
10
-124.350000
20
138.899946
0
VERTEX
5
20b
100
AcDbEntity
8
1
100
AcDbVertex
100
AcDb2dVertex
62
5
10
-123.850000
20
139.399946
0
VERTEX
5
20c
100
AcDbEntity
8
1
100
AcDbVertex
100
AcDb2dVertex
62
5
10
-123.600000
20
139.399946
0
VERTEX
5
20d
100
AcDbEntity
8
1
100
AcDbVertex
100
AcDb2dVertex
62
5
10
-123.100000
20
138.899946
0
VERTEX
5
20e
100
AcDbEntity
8
1
100
AcDbVertex
100
AcDb2dVertex
62
5
10
-123.100000
20
138.649946
0
VERTEX
5
20f
100
AcDbEntity
8
1
100
AcDbVertex
100
AcDb2dVertex
62
5
10
-123.600000
20
138.149946
0
VERTEX
5
210
100
AcDbEntity
8
1
100
AcDbVertex
100
AcDb2dVertex
62
5
10
-123.850000
20
138.149946
0
VERTEX
5
211
100
AcDbEntity
8
1
100
AcDbVertex
100
AcDb2dVertex
62
5
10
-124.350000
20
138.649946
0
VERTEX
5
212
100
AcDbEntity
8
1
100
AcDbVertex
100
AcDb2dVertex
62
5
10
-124.350000
20
138.899946
0
VERTEX
5
213
100
AcDbEntity
8
1
100
AcDbVertex
100
AcDb2dVertex
62
5
10
-123.100000
20
138.899946
0
SEQEND
5
214
100
AcDbEntity
8
1
0
LINE
5
215
100
AcDbEntity
8
1
100
AcDbLine
6
CONTINUOUS
62
5
10
-123.100000
20
138.649946
11
-124.350000
21
138.649946
0
LINE
5
216
100
AcDbEntity
8
1
100
AcDbLine
6
CONTINUOUS
62
5
10
-124.100000
20
138.399946
11
-123.350000
21
138.399946
0
LINE
5
217
100
AcDbEntity
8
1
100
AcDbLine
6
CONTINUOUS
62
5
10
-123.350000
20
139.149946
11
-124.100000
21
139.149946
0
POLYLINE
5
218
100
AcDbEntity
8
1
6
CONTINUOUS
62
5
100
AcDb2dPolyline
66
1
10
0.0
20
0.0
30
0.0
70
0
0
VERTEX
5
219
100
AcDbEntity
8
1
100
AcDbVertex
100
AcDb2dVertex
62
5
10
-114.850000
20
121.399946
0
VERTEX
5
21a
100
AcDbEntity
8
1
100
AcDbVertex
100
AcDb2dVertex
62
5
10
-114.850000
20
116.087446
0
VERTEX
5
21b
100
AcDbEntity
8
1
100
AcDbVertex
100
AcDb2dVertex
62
5
10
-114.350000
20
115.462446
0
VERTEX
5
21c
100
AcDbEntity
8
1
100
AcDbVertex
100
AcDb2dVertex
62
5
10
-110.850000
20
115.462446
0
SEQEND
5
21d
100
AcDbEntity
8
1
0
LINE
5
21e
100
AcDbEntity
8
1
100
AcDbLine
6
CONTINUOUS
62
5
10
-111.350000
20
119.524946
11
-114.850000
21
118.587446
0
POLYLINE
5
21f
100
AcDbEntity
8
1
6
CONTINUOUS
62
5
100
AcDb2dPolyline
66
1
10
0.0
20
0.0
30
0.0
70
1
0
VERTEX
5
220
100
AcDbEntity
8
1
100
AcDbVertex
100
AcDb2dVertex
62
5
10
-111.350000
20
121.399946
0
VERTEX
5
221
100
AcDbEntity
8
1
100
AcDbVertex
100
AcDb2dVertex
62
5
10
-110.850000
20
122.024946
0
VERTEX
5
222
100
AcDbEntity
8
1
100
AcDbVertex
100
AcDb2dVertex
62
5
10
-110.600000
20
122.024946
0
VERTEX
5
223
100
AcDbEntity
8
1
100
AcDbVertex
100
AcDb2dVertex
62
5
10
-110.100000
20
121.399946
0
VERTEX
5
224
100
AcDbEntity
8
1
100
AcDbVertex
100
AcDb2dVertex
62
5
10
-110.100000
20
121.087446
0
VERTEX
5
225
100
AcDbEntity
8
1
100
AcDbVertex
100
AcDb2dVertex
62
5
10
-110.600000
20
120.462446
0
VERTEX
5
226
100
AcDbEntity
8
1
100
AcDbVertex
100
AcDb2dVertex
62
5
10
-110.850000
20
120.462446
0
VERTEX
5
227
100
AcDbEntity
8
1
100
AcDbVertex
100
AcDb2dVertex
62
5
10
-111.350000
20
121.087446
0
VERTEX
5
228
100
AcDbEntity
8
1
100
AcDbVertex
100
AcDb2dVertex
62
5
10
-111.350000
20
121.399946
0
SEQEND
5
229
100
AcDbEntity
8
1
0
POLYLINE
5
22a
100
AcDbEntity
8
1
6
CONTINUOUS
62
5
100
AcDb2dPolyline
66
1
10
0.0
20
0.0
30
0.0
70
0
0
VERTEX
5
22b
100
AcDbEntity
8
1
100
AcDbVertex
100
AcDb2dVertex
62
5
10
-106.100000
20
119.212446
0
VERTEX
5
22c
100
AcDbEntity
8
1
100
AcDbVertex
100
AcDb2dVertex
62
5
10
-104.100000
20
119.212446
0
VERTEX
5
22d
100
AcDbEntity
8
1
100
AcDbVertex
100
AcDb2dVertex
62
5
10
-104.350000
20
116.087446
0
SEQEND
5
22e
100
AcDbEntity
8
1
0
LINE
5
22f
100
AcDbEntity
8
1
100
AcDbLine
6
CONTINUOUS
62
5
10
-106.850000
20
116.087446
11
-102.600000
21
116.087446
0
LINE
5
230
100
AcDbEntity
8
1
100
AcDbLine
6
CONTINUOUS
62
5
10
-141.600000
20
144.899946
11
-141.600000
21
112.899946
0
POLYLINE
5
231
100
AcDbEntity
8
1
6
CONTINUOUS
62
5
100
AcDb2dPolyline
66
1
10
0.0
20
0.0
30
0.0
70
0
0
VERTEX
5
232
100
AcDbEntity
8
1
100
AcDbVertex
100
AcDb2dVertex
62
5
10
-119.100000
20
87.899946
0
VERTEX
5
233
100
AcDbEntity
8
1
100
AcDbVertex
100
AcDb2dVertex
62
5
10
-119.100000
20
95.399946
0
VERTEX
5
234
100
AcDbEntity
8
1
100
AcDbVertex
100
AcDb2dVertex
62
5
10
-115.975000
20
87.899946
0
VERTEX
5
235
100
AcDbEntity
8
1
100
AcDbVertex
100
AcDb2dVertex
62
5
10
-115.975000
20
95.399946
0
SEQEND
5
236
100
AcDbEntity
8
1
0
LINE
5
237
100
AcDbEntity
8
1
100
AcDbLine
6
CONTINUOUS
62
5
10
-114.100000
20
91.649946
11
-110.975000
21
91.649946
0
LINE
5
238
100
AcDbEntity
8
1
100
AcDbLine
6
CONTINUOUS
62
5
10
-109.100000
20
95.399946
11
-105.975000
21
95.399946
0
LINE
5
239
100
AcDbEntity
8
1
100
AcDbLine
6
CONTINUOUS
62
5
10
-107.537500
20
95.399946
11
-107.537500
21
87.899946
0
POLYLINE
5
23a
100
AcDbEntity
8
1
6
CONTINUOUS
62
5
100
AcDb2dPolyline
66
1
10
0.0
20
0.0
30
0.0
70
0
0
VERTEX
5
23b
100
AcDbEntity
8
1
100
AcDbVertex
100
AcDb2dVertex
62
5
10
-129.412500
20
95.399946
0
VERTEX
5
23c
100
AcDbEntity
8
1
100
AcDbVertex
100
AcDb2dVertex
62
5
10
-128.475000
20
87.899946
0
VERTEX
5
23d
100
AcDbEntity
8
1
100
AcDbVertex
100
AcDb2dVertex
62
5
10
-127.537500
20
95.399946
0
VERTEX
5
23e
100
AcDbEntity
8
1
100
AcDbVertex
100
AcDb2dVertex
62
5
10
-126.600000
20
87.899946
0
VERTEX
5
23f
100
AcDbEntity
8
1
100
AcDbVertex
100
AcDb2dVertex
62
5
10
-125.662500
20
95.399946
0
SEQEND
5
240
100
AcDbEntity
8
1
0
POLYLINE
5
241
100
AcDbEntity
8
1
6
CONTINUOUS
62
5
100
AcDb2dPolyline
66
1
10
0.0
20
0.0
30
0.0
70
0
0
VERTEX
5
242
100
AcDbEntity
8
1
100
AcDbVertex
100
AcDb2dVertex
62
5
10
-121.287500
20
95.399946
0
VERTEX
5
243
100
AcDbEntity
8
1
100
AcDbVertex
100
AcDb2dVertex
62
5
10
-121.287500
20
89.774946
0
VERTEX
5
244
100
AcDbEntity
8
1
100
AcDbVertex
100
AcDb2dVertex
62
5
10
-121.600000
20
88.524946
0
VERTEX
5
245
100
AcDbEntity
8
1
100
AcDbVertex
100
AcDb2dVertex
62
5
10
-122.225000
20
87.899946
0
VERTEX
5
246
100
AcDbEntity
8
1
100
AcDbVertex
100
AcDb2dVertex
62
5
10
-123.162500
20
87.899946
0
VERTEX
5
247
100
AcDbEntity
8
1
100
AcDbVertex
100
AcDb2dVertex
62
5
10
-123.787500
20
88.524946
0
VERTEX
5
248
100
AcDbEntity
8
1
100
AcDbVertex
100
AcDb2dVertex
62
5
10
-124.100000
20
89.774946
0
SEQEND
5
249
100
AcDbEntity
8
1
0
POLYLINE
5
24a
100
AcDbEntity
8
1
6
CONTINUOUS
62
5
100
AcDb2dPolyline
66
1
10
0.0
20
0.0
30
0.0
70
0
0
VERTEX
5
24b
100
AcDbEntity
8
1
100
AcDbVertex
100
AcDb2dVertex
62
5
10
-106.350000
20
133.274946
0
VERTEX
5
24c
100
AcDbEntity
8
1
100
AcDbVertex
100
AcDb2dVertex
62
5
10
-107.100000
20
131.399946
0
VERTEX
5
24d
100
AcDbEntity
8
1
100
AcDbVertex
100
AcDb2dVertex
62
5
10
-108.350000
20
128.899946
0
SEQEND
5
24e
100
AcDbEntity
8
1
0
LINE
5
24f
100
AcDbEntity
8
1
100
AcDbLine
6
CONTINUOUS
62
5
10
-107.100000
20
131.399946
11
-107.100000
21
124.524946
0
POLYLINE
5
250
100
AcDbEntity
8
1
6
CONTINUOUS
62
5
100
AcDb2dPolyline
66
1
10
0.0
20
0.0
30
0.0
70
0
0
VERTEX
5
251
100
AcDbEntity
8
1
100
AcDbVertex
100
AcDb2dVertex
62
5
10
-104.100000
20
133.274946
0
VERTEX
5
252
100
AcDbEntity
8
1
100
AcDbVertex
100
AcDb2dVertex
62
5
10
-104.850000
20
131.712446
0
VERTEX
5
253
100
AcDbEntity
8
1
100
AcDbVertex
100
AcDb2dVertex
62
5
10
-106.350000
20
129.837446
0
SEQEND
5
254
100
AcDbEntity
8
1
0
LINE
5
255
100
AcDbEntity
8
1
100
AcDbLine
6
CONTINUOUS
62
5
10
-104.850000
20
131.712446
11
-101.100000
21
131.712446
0
LINE
5
256
100
AcDbEntity
8
1
100
AcDbLine
6
CONTINUOUS
62
5
10
-104.350000
20
131.712446
11
-104.350000
21
124.524946
0
LINE
5
257
100
AcDbEntity
8
1
100
AcDbLine
6
CONTINUOUS
62
5
10
-104.350000
20
129.524946
11
-101.850000
21
129.524946
0
LINE
5
258
100
AcDbEntity
8
1
100
AcDbLine
6
CONTINUOUS
62
5
10
-104.350000
20
127.024946
11
-101.850000
21
127.024946
0
LINE
5
259
100
AcDbEntity
8
1
100
AcDbLine
6
CONTINUOUS
62
5
10
-104.100000
20
91.649946
11
-100.975000
21
91.649946
0
POLYLINE
5
25a
100
AcDbEntity
8
6
6
DOT2
62
5
100
AcDb2dPolyline
66
1
10
0.0
20
0.0
30
0.0
70
0
0
VERTEX
5
25b
100
AcDbEntity
8
6
100
AcDbVertex
100
AcDb2dVertex
62
5
10
-27.850000
20
33.649947
0
VERTEX
5
25c
100
AcDbEntity
8
6
100
AcDbVertex
100
AcDb2dVertex
62
5
10
-30.662500
20
28.024947
0
VERTEX
5
25d
100
AcDbEntity
8
6
100
AcDbVertex
100
AcDb2dVertex
62
5
10
-26.912500
20
28.024947
0
SEQEND
5
25e
100
AcDbEntity
8
6
0
LINE
5
25f
100
AcDbEntity
8
6
100
AcDbLine
6
DOT2
62
5
10
-27.850000
20
33.649947
11
-27.850000
21
26.149947
0
LINE
5
260
100
AcDbEntity
8
6
100
AcDbLine
6
DOT2
62
5
10
-28.475000
20
26.149947
11
-27.225000
21
26.149947
0
POLYLINE
5
261
100
AcDbEntity
8
6
6
DOT2
62
5
100
AcDb2dPolyline
66
1
10
0.0
20
0.0
30
0.0
70
0
0
VERTEX
5
262
100
AcDbEntity
8
6
100
AcDbVertex
100
AcDb2dVertex
62
5
10
-25.350000
20
31.774947
0
VERTEX
5
263
100
AcDbEntity
8
6
100
AcDbVertex
100
AcDb2dVertex
62
5
10
-25.037500
20
33.024947
0
VERTEX
5
264
100
AcDbEntity
8
6
100
AcDbVertex
100
AcDb2dVertex
62
5
10
-24.412500
20
33.649947
0
VERTEX
5
265
100
AcDbEntity
8
6
100
AcDbVertex
100
AcDb2dVertex
62
5
10
-23.475000
20
33.649947
0
VERTEX
5
266
100
AcDbEntity
8
6
100
AcDbVertex
100
AcDb2dVertex
62
5
10
-22.850000
20
33.337447
0
VERTEX
5
267
100
AcDbEntity
8
6
100
AcDbVertex
100
AcDb2dVertex
62
5
10
-22.537500
20
32.399947
0
VERTEX
5
268
100
AcDbEntity
8
6
100
AcDbVertex
100
AcDb2dVertex
62
5
10
-22.537500
20
31.149947
0
VERTEX
5
269
100
AcDbEntity
8
6
100
AcDbVertex
100
AcDb2dVertex
62
5
10
-22.850000
20
30.524947
0
VERTEX
5
26a
100
AcDbEntity
8
6
100
AcDbVertex
100
AcDb2dVertex
62
5
10
-23.475000
20
29.899947
0
VERTEX
5
26b
100
AcDbEntity
8
6
100
AcDbVertex
100
AcDb2dVertex
62
5
10
-24.412500
20
29.899947
0
SEQEND
5
26c
100
AcDbEntity
8
6
0
POLYLINE
5
26d
100
AcDbEntity
8
6
6
DOT2
62
5
100
AcDb2dPolyline
66
1
10
0.0
20
0.0
30
0.0
70
0
0
VERTEX
5
26e
100
AcDbEntity
8
6
100
AcDbVertex
100
AcDb2dVertex
62
5
10
-23.475000
20
29.899947
0
VERTEX
5
26f
100
AcDbEntity
8
6
100
AcDbVertex
100
AcDb2dVertex
62
5
10
-22.537500
20
29.274947
0
VERTEX
5
270
100
AcDbEntity
8
6
100
AcDbVertex
100
AcDb2dVertex
62
5
10
-22.225000
20
28.337447
0
VERTEX
5
271
100
AcDbEntity
8
6
100
AcDbVertex
100
AcDb2dVertex
62
5
10
-22.225000
20
27.399947
0
VERTEX
5
272
100
AcDbEntity
8
6
100
AcDbVertex
100
AcDb2dVertex
62
5
10
-22.537500
20
26.774947
0
VERTEX
5
273
100
AcDbEntity
8
6
100
AcDbVertex
100
AcDb2dVertex
62
5
10
-23.475000
20
26.149947
0
VERTEX
5
274
100
AcDbEntity
8
6
100
AcDbVertex
100
AcDb2dVertex
62
5
10
-24.412500
20
26.149947
0
VERTEX
5
275
100
AcDbEntity
8
6
100
AcDbVertex
100
AcDb2dVertex
62
5
10
-25.037500
20
26.462447
0
VERTEX
5
276
100
AcDbEntity
8
6
100
AcDbVertex
100
AcDb2dVertex
62
5
10
-25.662500
20
27.399947
0
SEQEND
5
277
100
AcDbEntity
8
6
0
LINE
5
278
100
AcDbEntity
8
1
100
AcDbLine
6
CONTINUOUS
62
5
10
-29.863125
20
-6.582970
11
-28.515625
21
-6.582970
0
LINE
5
279
100
AcDbEntity
8
1
100
AcDbLine
6
CONTINUOUS
62
5
10
-29.863125
20
-8.301720
11
-28.515625
21
-7.442345
0
POLYLINE
5
27a
100
AcDbEntity
8
1
6
CONTINUOUS
62
5
100
AcDb2dPolyline
66
1
10
0.0
20
0.0
30
0.0
70
0
0
VERTEX
5
27b
100
AcDbEntity
8
1
100
AcDbVertex
100
AcDb2dVertex
62
5
10
-29.189375
20
-5.379845
0
VERTEX
5
27c
100
AcDbEntity
8
1
100
AcDbVertex
100
AcDb2dVertex
62
5
10
-29.189375
20
-10.020470
0
VERTEX
5
27d
100
AcDbEntity
8
1
100
AcDbVertex
100
AcDb2dVertex
62
5
10
-29.526250
20
-10.020470
0
SEQEND
5
27e
100
AcDbEntity
8
1
0
LINE
5
27f
100
AcDbEntity
8
1
100
AcDbLine
6
CONTINUOUS
62
5
10
-28.178750
20
-6.239220
11
-27.505000
21
-5.207970
0
POLYLINE
5
280
100
AcDbEntity
8
1
6
CONTINUOUS
62
5
100
AcDb2dPolyline
66
1
10
0.0
20
0.0
30
0.0
70
0
0
VERTEX
5
281
100
AcDbEntity
8
1
100
AcDbVertex
100
AcDb2dVertex
62
5
10
-27.673437
20
-5.551720
0
VERTEX
5
282
100
AcDbEntity
8
1
100
AcDbVertex
100
AcDb2dVertex
62
5
10
-26.325937
20
-5.551720
0
VERTEX
5
283
100
AcDbEntity
8
1
100
AcDbVertex
100
AcDb2dVertex
62
5
10
-26.999687
20
-6.582970
0
SEQEND
5
284
100
AcDbEntity
8
1
0
POLYLINE
5
285
100
AcDbEntity
8
1
6
CONTINUOUS
62
5
100
AcDb2dPolyline
66
1
10
0.0
20
0.0
30
0.0
70
0
0
VERTEX
5
286
100
AcDbEntity
8
1
100
AcDbVertex
100
AcDb2dVertex
62
5
10
-28.010312
20
-8.129845
0
VERTEX
5
287
100
AcDbEntity
8
1
100
AcDbVertex
100
AcDb2dVertex
62
5
10
-28.010312
20
-6.582970
0
VERTEX
5
288
100
AcDbEntity
8
1
100
AcDbVertex
100
AcDb2dVertex
62
5
10
-25.652187
20
-6.582970
0
VERTEX
5
289
100
AcDbEntity
8
1
100
AcDbVertex
100
AcDb2dVertex
62
5
10
-25.652187
20
-8.129845
0
SEQEND
5
28a
100
AcDbEntity
8
1
0
POLYLINE
5
28b
100
AcDbEntity
8
1
6
CONTINUOUS
62
5
100
AcDb2dPolyline
66
1
10
0.0
20
0.0
30
0.0
70
0
0
VERTEX
5
28c
100
AcDbEntity
8
1
100
AcDbVertex
100
AcDb2dVertex
62
5
10
-27.168125
20
-6.582970
0
VERTEX
5
28d
100
AcDbEntity
8
1
100
AcDbVertex
100
AcDb2dVertex
62
5
10
-27.168125
20
-7.270470
0
VERTEX
5
28e
100
AcDbEntity
8
1
100
AcDbVertex
100
AcDb2dVertex
62
5
10
-27.673437
20
-7.786095
0
SEQEND
5
28f
100
AcDbEntity
8
1
0
POLYLINE
5
290
100
AcDbEntity
8
1
6
CONTINUOUS
62
5
100
AcDb2dPolyline
66
1
10
0.0
20
0.0
30
0.0
70
0
0
VERTEX
5
291
100
AcDbEntity
8
1
100
AcDbVertex
100
AcDb2dVertex
62
5
10
-26.494375
20
-6.582970
0
VERTEX
5
292
100
AcDbEntity
8
1
100
AcDbVertex
100
AcDb2dVertex
62
5
10
-26.494375
20
-7.786095
0
VERTEX
5
293
100
AcDbEntity
8
1
100
AcDbVertex
100
AcDb2dVertex
62
5
10
-25.820625
20
-7.786095
0
SEQEND
5
294
100
AcDbEntity
8
1
0
LINE
5
295
100
AcDbEntity
8
1
100
AcDbLine
6
CONTINUOUS
62
5
10
-28.684062
20
-8.645470
11
-24.978437
21
-8.645470
0
POLYLINE
5
296
100
AcDbEntity
8
1
6
CONTINUOUS
62
5
100
AcDb2dPolyline
66
1
10
0.0
20
0.0
30
0.0
70
0
0
VERTEX
5
297
100
AcDbEntity
8
1
100
AcDbVertex
100
AcDb2dVertex
62
5
10
-26.999687
20
-7.957970
0
VERTEX
5
298
100
AcDbEntity
8
1
100
AcDbVertex
100
AcDb2dVertex
62
5
10
-26.999687
20
-8.645470
0
VERTEX
5
299
100
AcDbEntity
8
1
100
AcDbVertex
100
AcDb2dVertex
62
5
10
-27.336562
20
-9.332970
0
VERTEX
5
29a
100
AcDbEntity
8
1
100
AcDbVertex
100
AcDb2dVertex
62
5
10
-27.841875
20
-9.848595
0
VERTEX
5
29b
100
AcDbEntity
8
1
100
AcDbVertex
100
AcDb2dVertex
62
5
10
-28.684062
20
-10.192345
0
SEQEND
5
29c
100
AcDbEntity
8
1
0
POLYLINE
5
29d
100
AcDbEntity
8
1
6
CONTINUOUS
62
5
100
AcDb2dPolyline
66
1
10
0.0
20
0.0
30
0.0
70
0
0
VERTEX
5
29e
100
AcDbEntity
8
1
100
AcDbVertex
100
AcDb2dVertex
62
5
10
-26.999687
20
-8.645470
0
VERTEX
5
29f
100
AcDbEntity
8
1
100
AcDbVertex
100
AcDb2dVertex
62
5
10
-26.494375
20
-9.332970
0
VERTEX
5
2a0
100
AcDbEntity
8
1
100
AcDbVertex
100
AcDb2dVertex
62
5
10
-25.820625
20
-9.848595
0
VERTEX
5
2a1
100
AcDbEntity
8
1
100
AcDbVertex
100
AcDb2dVertex
62
5
10
-25.146875
20
-10.192345
0
SEQEND
5
2a2
100
AcDbEntity
8
1
0
LINE
5
2a3
100
AcDbEntity
8
6
100
AcDbLine
6
CONTINUOUS
62
5
10
0.000000
20
-8.600053
11
0.000000
21
26.899947
0
LINE
5
2a4
100
AcDbEntity
8
6
100
AcDbLine
6
CONTINUOUS
62
5
10
-43.200000
20
-8.600053
11
-43.200000
21
26.899947
0
POLYLINE
5
2a5
100
AcDbEntity
8
6
6
CONTINUOUS
62
5
100
AcDb2dPolyline
66
1
10
0.0
20
0.0
30
0.0
70
0
0
VERTEX
5
2a6
100
AcDbEntity
8
6
100
AcDbVertex
100
AcDb2dVertex
62
5
10
-21.600000
20
24.899947
0
VERTEX
5
2a7
100
AcDbEntity
8
6
100
AcDbVertex
100
AcDb2dVertex
62
5
10
-43.200000
20
24.899947
0
VERTEX
5
2a8
100
AcDbEntity
8
6
100
AcDbVertex
100
AcDb2dVertex
62
5
10
-37.200000
20
25.899947
0
VERTEX
5
2a9
100
AcDbEntity
8
6
100
AcDbVertex
100
AcDb2dVertex
62
5
10
-37.200000
20
23.899947
0
VERTEX
5
2aa
100
AcDbEntity
8
6
100
AcDbVertex
100
AcDb2dVertex
62
5
10
-43.200000
20
24.899947
0
VERTEX
5
2ab
100
AcDbEntity
8
6
100
AcDbVertex
100
AcDb2dVertex
62
5
10
-37.200000
20
25.399947
0
VERTEX
5
2ac
100
AcDbEntity
8
6
100
AcDbVertex
100
AcDb2dVertex
62
5
10
-37.200000
20
24.399947
0
VERTEX
5
2ad
100
AcDbEntity
8
6
100
AcDbVertex
100
AcDb2dVertex
62
5
10
-43.200000
20
24.899947
0
SEQEND
5
2ae
100
AcDbEntity
8
6
0
POLYLINE
5
2af
100
AcDbEntity
8
6
6
CONTINUOUS
62
5
100
AcDb2dPolyline
66
1
10
0.0
20
0.0
30
0.0
70
0
0
VERTEX
5
2b0
100
AcDbEntity
8
6
100
AcDbVertex
100
AcDb2dVertex
62
5
10
-21.600000
20
24.899947
0
VERTEX
5
2b1
100
AcDbEntity
8
6
100
AcDbVertex
100
AcDb2dVertex
62
5
10
0.000000
20
24.899947
0
VERTEX
5
2b2
100
AcDbEntity
8
6
100
AcDbVertex
100
AcDb2dVertex
62
5
10
-6.000000
20
23.899947
0
VERTEX
5
2b3
100
AcDbEntity
8
6
100
AcDbVertex
100
AcDb2dVertex
62
5
10
-6.000000
20
25.899947
0
VERTEX
5
2b4
100
AcDbEntity
8
6
100
AcDbVertex
100
AcDb2dVertex
62
5
10
0.000000
20
24.899947
0
VERTEX
5
2b5
100
AcDbEntity
8
6
100
AcDbVertex
100
AcDb2dVertex
62
5
10
-6.000000
20
24.399947
0
VERTEX
5
2b6
100
AcDbEntity
8
6
100
AcDbVertex
100
AcDb2dVertex
62
5
10
-6.000000
20
25.399947
0
VERTEX
5
2b7
100
AcDbEntity
8
6
100
AcDbVertex
100
AcDb2dVertex
62
5
10
0.000000
20
24.899947
0
SEQEND
5
2b8
100
AcDbEntity
8
6
0
POLYLINE
5
2b9
100
AcDbEntity
8
1
6
CONTINUOUS
62
5
100
AcDb2dPolyline
66
1
10
0.0
20
0.0
30
0.0
70
0
0
VERTEX
5
2ba
100
AcDbEntity
8
1
100
AcDbVertex
100
AcDb2dVertex
62
5
10
-23.799375
20
-6.754845
0
VERTEX
5
2bb
100
AcDbEntity
8
1
100
AcDbVertex
100
AcDb2dVertex
62
5
10
-23.294062
20
-6.411095
0
VERTEX
5
2bc
100
AcDbEntity
8
1
100
AcDbVertex
100
AcDb2dVertex
62
5
10
-22.788750
20
-5.723595
0
VERTEX
5
2bd
100
AcDbEntity
8
1
100
AcDbVertex
100
AcDb2dVertex
62
5
10
-22.451875
20
-5.207970
0
SEQEND
5
2be
100
AcDbEntity
8
1
0
LINE
5
2bf
100
AcDbEntity
8
1
100
AcDbLine
6
CONTINUOUS
62
5
10
-22.788750
20
-5.723595
11
-19.588437
21
-5.723595
0
LINE
5
2c0
100
AcDbEntity
8
1
100
AcDbLine
6
CONTINUOUS
62
5
10
-22.620312
20
-6.582970
11
-20.093750
21
-6.582970
0
POLYLINE
5
2c1
100
AcDbEntity
8
1
6
CONTINUOUS
62
5
100
AcDb2dPolyline
66
1
10
0.0
20
0.0
30
0.0
70
0
0
VERTEX
5
2c2
100
AcDbEntity
8
1
100
AcDbVertex
100
AcDb2dVertex
62
5
10
-23.294062
20
-7.270470
0
VERTEX
5
2c3
100
AcDbEntity
8
1
100
AcDbVertex
100
AcDb2dVertex
62
5
10
-20.093750
20
-7.270470
0
VERTEX
5
2c4
100
AcDbEntity
8
1
100
AcDbVertex
100
AcDb2dVertex
62
5
10
-20.093750
20
-8.989220
0
VERTEX
5
2c5
100
AcDbEntity
8
1
100
AcDbVertex
100
AcDb2dVertex
62
5
10
-19.925312
20
-9.504845
0
VERTEX
5
2c6
100
AcDbEntity
8
1
100
AcDbVertex
100
AcDb2dVertex
62
5
10
-19.588437
20
-10.020470
0
VERTEX
5
2c7
100
AcDbEntity
8
1
100
AcDbVertex
100
AcDb2dVertex
62
5
10
-19.251562
20
-8.989220
0
SEQEND
5
2c8
100
AcDbEntity
8
1
0
POLYLINE
5
2c9
100
AcDbEntity
8
1
6
CONTINUOUS
62
5
100
AcDb2dPolyline
66
1
10
0.0
20
0.0
30
0.0
70
0
0
VERTEX
5
2ca
100
AcDbEntity
8
1
100
AcDbVertex
100
AcDb2dVertex
62
5
10
-22.620312
20
-8.301720
0
VERTEX
5
2cb
100
AcDbEntity
8
1
100
AcDbVertex
100
AcDb2dVertex
62
5
10
-21.778125
20
-8.817345
0
VERTEX
5
2cc
100
AcDbEntity
8
1
100
AcDbVertex
100
AcDb2dVertex
62
5
10
-21.104375
20
-9.332970
0
SEQEND
5
2cd
100
AcDbEntity
8
1
0
POLYLINE
5
2ce
100
AcDbEntity
8
1
6
CONTINUOUS
62
5
100
AcDb2dPolyline
66
1
10
0.0
20
0.0
30
0.0
70
0
0
VERTEX
5
2cf
100
AcDbEntity
8
1
100
AcDbVertex
100
AcDb2dVertex
62
5
10
-21.104375
20
-7.957970
0
VERTEX
5
2d0
100
AcDbEntity
8
1
100
AcDbVertex
100
AcDb2dVertex
62
5
10
-22.115000
20
-8.989220
0
VERTEX
5
2d1
100
AcDbEntity
8
1
100
AcDbVertex
100
AcDb2dVertex
62
5
10
-22.957187
20
-9.504845
0
VERTEX
5
2d2
100
AcDbEntity
8
1
100
AcDbVertex
100
AcDb2dVertex
62
5
10
-23.799375
20
-9.848595
0
SEQEND
5
2d3
100
AcDbEntity
8
1
0
LINE
5
2d4
100
AcDbEntity
8
1
100
AcDbLine
6
CONTINUOUS
62
5
10
-181.600000
20
112.899946
11
138.400000
21
112.899946
0
LINE
5
2d5
100
AcDbEntity
8
6
100
AcDbLine
6
DOT2
62
5
10
23.125000
20
-48.525053
11
23.750000
21
-49.150053
0
POLYLINE
5
2d6
100
AcDbEntity
8
6
6
DOT2
62
5
100
AcDb2dPolyline
66
1
10
0.0
20
0.0
30
0.0
70
0
0
VERTEX
5
2d7
100
AcDbEntity
8
6
100
AcDbVertex
100
AcDb2dVertex
62
5
10
23.125000
20
-49.150053
0
VERTEX
5
2d8
100
AcDbEntity
8
6
100
AcDbVertex
100
AcDb2dVertex
62
5
10
23.750000
20
-48.525053
0
VERTEX
5
2d9
100
AcDbEntity
8
6
100
AcDbVertex
100
AcDb2dVertex
62
5
10
23.750000
20
-49.150053
0
VERTEX
5
2da
100
AcDbEntity
8
6
100
AcDbVertex
100
AcDb2dVertex
62
5
10
23.125000
20
-49.150053
0
VERTEX
5
2db
100
AcDbEntity
8
6
100
AcDbVertex
100
AcDb2dVertex
62
5
10
23.125000
20
-48.525053
0
VERTEX
5
2dc
100
AcDbEntity
8
6
100
AcDbVertex
100
AcDb2dVertex
62
5
10
23.750000
20
-48.525053
0
SEQEND
5
2dd
100
AcDbEntity
8
6
0
POLYLINE
5
2de
100
AcDbEntity
8
6
6
DOT2
62
5
100
AcDb2dPolyline
66
1
10
0.0
20
0.0
30
0.0
70
0
0
VERTEX
5
2df
100
AcDbEntity
8
6
100
AcDbVertex
100
AcDb2dVertex
62
5
10
18.125000
20
-59.150053
0
VERTEX
5
2e0
100
AcDbEntity
8
6
100
AcDbVertex
100
AcDb2dVertex
62
5
10
16.875000
20
-58.837553
0
VERTEX
5
2e1
100
AcDbEntity
8
6
100
AcDbVertex
100
AcDb2dVertex
62
5
10
16.250000
20
-58.212553
0
VERTEX
5
2e2
100
AcDbEntity
8
6
100
AcDbVertex
100
AcDb2dVertex
62
5
10
16.250000
20
-57.275053
0
VERTEX
5
2e3
100
AcDbEntity
8
6
100
AcDbVertex
100
AcDb2dVertex
62
5
10
16.562500
20
-56.650053
0
VERTEX
5
2e4
100
AcDbEntity
8
6
100
AcDbVertex
100
AcDb2dVertex
62
5
10
17.500000
20
-56.337553
0
VERTEX
5
2e5
100
AcDbEntity
8
6
100
AcDbVertex
100
AcDb2dVertex
62
5
10
18.750000
20
-56.337553
0
VERTEX
5
2e6
100
AcDbEntity
8
6
100
AcDbVertex
100
AcDb2dVertex
62
5
10
19.375000
20
-56.650053
0
VERTEX
5
2e7
100
AcDbEntity
8
6
100
AcDbVertex
100
AcDb2dVertex
62
5
10
20.000000
20
-57.275053
0
VERTEX
5
2e8
100
AcDbEntity
8
6
100
AcDbVertex
100
AcDb2dVertex
62
5
10
20.000000
20
-58.212553
0
SEQEND
5
2e9
100
AcDbEntity
8
6
0
POLYLINE
5
2ea
100
AcDbEntity
8
6
6
DOT2
62
5
100
AcDb2dPolyline
66
1
10
0.0
20
0.0
30
0.0
70
0
0
VERTEX
5
2eb
100
AcDbEntity
8
6
100
AcDbVertex
100
AcDb2dVertex
62
5
10
20.000000
20
-57.275053
0
VERTEX
5
2ec
100
AcDbEntity
8
6
100
AcDbVertex
100
AcDb2dVertex
62
5
10
20.625000
20
-56.337553
0
VERTEX
5
2ed
100
AcDbEntity
8
6
100
AcDbVertex
100
AcDb2dVertex
62
5
10
21.562500
20
-56.025053
0
VERTEX
5
2ee
100
AcDbEntity
8
6
100
AcDbVertex
100
AcDb2dVertex
62
5
10
22.500000
20
-56.025053
0
VERTEX
5
2ef
100
AcDbEntity
8
6
100
AcDbVertex
100
AcDb2dVertex
62
5
10
23.125000
20
-56.337553
0
VERTEX
5
2f0
100
AcDbEntity
8
6
100
AcDbVertex
100
AcDb2dVertex
62
5
10
23.750000
20
-57.275053
0
VERTEX
5
2f1
100
AcDbEntity
8
6
100
AcDbVertex
100
AcDb2dVertex
62
5
10
23.750000
20
-58.212553
0
VERTEX
5
2f2
100
AcDbEntity
8
6
100
AcDbVertex
100
AcDb2dVertex
62
5
10
23.437500
20
-58.837553
0
VERTEX
5
2f3
100
AcDbEntity
8
6
100
AcDbVertex
100
AcDb2dVertex
62
5
10
22.500000
20
-59.462553
0
SEQEND
5
2f4
100
AcDbEntity
8
6
0
POLYLINE
5
2f5
100
AcDbEntity
8
6
6
DOT2
62
5
100
AcDb2dPolyline
66
1
10
0.0
20
0.0
30
0.0
70
1
0
VERTEX
5
2f6
100
AcDbEntity
8
6
100
AcDbVertex
100
AcDb2dVertex
62
5
10
16.250000
20
-52.900053
0
VERTEX
5
2f7
100
AcDbEntity
8
6
100
AcDbVertex
100
AcDb2dVertex
62
5
10
16.250000
20
-52.275053
0
VERTEX
5
2f8
100
AcDbEntity
8
6
100
AcDbVertex
100
AcDb2dVertex
62
5
10
16.562500
20
-51.962553
0
VERTEX
5
2f9
100
AcDbEntity
8
6
100
AcDbVertex
100
AcDb2dVertex
62
5
10
17.812500
20
-51.337553
0
VERTEX
5
2fa
100
AcDbEntity
8
6
100
AcDbVertex
100
AcDb2dVertex
62
5
10
19.062500
20
-51.025053
0
VERTEX
5
2fb
100
AcDbEntity
8
6
100
AcDbVertex
100
AcDb2dVertex
62
5
10
20.937500
20
-51.025053
0
VERTEX
5
2fc
100
AcDbEntity
8
6
100
AcDbVertex
100
AcDb2dVertex
62
5
10
22.187500
20
-51.337553
0
VERTEX
5
2fd
100
AcDbEntity
8
6
100
AcDbVertex
100
AcDb2dVertex
62
5
10
23.437500
20
-51.962553
0
VERTEX
5
2fe
100
AcDbEntity
8
6
100
AcDbVertex
100
AcDb2dVertex
62
5
10
23.750000
20
-52.275053
0
VERTEX
5
2ff
100
AcDbEntity
8
6
100
AcDbVertex
100
AcDb2dVertex
62
5
10
23.750000
20
-52.900053
0
VERTEX
5
300
100
AcDbEntity
8
6
100
AcDbVertex
100
AcDb2dVertex
62
5
10
23.437500
20
-53.212553
0
VERTEX
5
301
100
AcDbEntity
8
6
100
AcDbVertex
100
AcDb2dVertex
62
5
10
22.187500
20
-53.837553
0
VERTEX
5
302
100
AcDbEntity
8
6
100
AcDbVertex
100
AcDb2dVertex
62
5
10
20.937500
20
-54.150053
0
VERTEX
5
303
100
AcDbEntity
8
6
100
AcDbVertex
100
AcDb2dVertex
62
5
10
19.062500
20
-54.150053
0
VERTEX
5
304
100
AcDbEntity
8
6
100
AcDbVertex
100
AcDb2dVertex
62
5
10
17.812500
20
-53.837553
0
VERTEX
5
305
100
AcDbEntity
8
6
100
AcDbVertex
100
AcDb2dVertex
62
5
10
16.562500
20
-53.212553
0
VERTEX
5
306
100
AcDbEntity
8
6
100
AcDbVertex
100
AcDb2dVertex
62
5
10
16.250000
20
-52.900053
0
SEQEND
5
307
100
AcDbEntity
8
6
0
POLYLINE
5
308
100
AcDbEntity
8
6
6
DOT2
62
5
100
AcDb2dPolyline
66
1
10
0.0
20
0.0
30
0.0
70
0
0
VERTEX
5
309
100
AcDbEntity
8
6
100
AcDbVertex
100
AcDb2dVertex
62
5
10
18.125000
20
-44.150053
0
VERTEX
5
30a
100
AcDbEntity
8
6
100
AcDbVertex
100
AcDb2dVertex
62
5
10
16.875000
20
-43.837553
0
VERTEX
5
30b
100
AcDbEntity
8
6
100
AcDbVertex
100
AcDb2dVertex
62
5
10
16.250000
20
-43.212553
0
VERTEX
5
30c
100
AcDbEntity
8
6
100
AcDbVertex
100
AcDb2dVertex
62
5
10
16.250000
20
-42.275053
0
VERTEX
5
30d
100
AcDbEntity
8
6
100
AcDbVertex
100
AcDb2dVertex
62
5
10
16.562500
20
-41.650053
0
VERTEX
5
30e
100
AcDbEntity
8
6
100
AcDbVertex
100
AcDb2dVertex
62
5
10
17.500000
20
-41.337553
0
VERTEX
5
30f
100
AcDbEntity
8
6
100
AcDbVertex
100
AcDb2dVertex
62
5
10
18.750000
20
-41.337553
0
VERTEX
5
310
100
AcDbEntity
8
6
100
AcDbVertex
100
AcDb2dVertex
62
5
10
19.375000
20
-41.650053
0
VERTEX
5
311
100
AcDbEntity
8
6
100
AcDbVertex
100
AcDb2dVertex
62
5
10
20.000000
20
-42.275053
0
VERTEX
5
312
100
AcDbEntity
8
6
100
AcDbVertex
100
AcDb2dVertex
62
5
10
20.000000
20
-43.212553
0
SEQEND
5
313
100
AcDbEntity
8
6
0
POLYLINE
5
314
100
AcDbEntity
8
6
6
DOT2
62
5
100
AcDb2dPolyline
66
1
10
0.0
20
0.0
30
0.0
70
0
0
VERTEX
5
315
100
AcDbEntity
8
6
100
AcDbVertex
100
AcDb2dVertex
62
5
10
20.000000
20
-42.275053
0
VERTEX
5
316
100
AcDbEntity
8
6
100
AcDbVertex
100
AcDb2dVertex
62
5
10
20.625000
20
-41.337553
0
VERTEX
5
317
100
AcDbEntity
8
6
100
AcDbVertex
100
AcDb2dVertex
62
5
10
21.562500
20
-41.025053
0
VERTEX
5
318
100
AcDbEntity
8
6
100
AcDbVertex
100
AcDb2dVertex
62
5
10
22.500000
20
-41.025053
0
VERTEX
5
319
100
AcDbEntity
8
6
100
AcDbVertex
100
AcDb2dVertex
62
5
10
23.125000
20
-41.337553
0
VERTEX
5
31a
100
AcDbEntity
8
6
100
AcDbVertex
100
AcDb2dVertex
62
5
10
23.750000
20
-42.275053
0
VERTEX
5
31b
100
AcDbEntity
8
6
100
AcDbVertex
100
AcDb2dVertex
62
5
10
23.750000
20
-43.212553
0
VERTEX
5
31c
100
AcDbEntity
8
6
100
AcDbVertex
100
AcDb2dVertex
62
5
10
23.437500
20
-43.837553
0
VERTEX
5
31d
100
AcDbEntity
8
6
100
AcDbVertex
100
AcDb2dVertex
62
5
10
22.500000
20
-44.462553
0
SEQEND
5
31e
100
AcDbEntity
8
6
0
ARC
5
31f
100
AcDbEntity
8
1
100
AcDbCircle
6
CONTINUOUS
62
5
10
-10.800000
20
-90.946043
40
0.300000
100
AcDbArc
50
-179.999998
51
-144.334361
0
LINE
5
320
100
AcDbEntity
8
1
100
AcDbLine
6
CONTINUOUS
62
5
10
-11.100000
20
-90.946043
11
-11.100000
21
-90.400053
0
LINE
5
321
100
AcDbEntity
8
1
100
AcDbLine
6
CONTINUOUS
62
5
10
-10.509691
20
-91.464246
11
-10.623140
21
-91.470192
0
ARC
5
322
100
AcDbEntity
8
1
100
AcDbCircle
6
CONTINUOUS
62
5
10
-10.638841
20
-91.170603
40
0.300000
100
AcDbArc
50
-144.334361
51
-86.999999
0
LINE
5
323
100
AcDbEntity
8
1
100
AcDbLine
6
CONTINUOUS
62
5
10
-10.882571
20
-91.345519
11
-11.043730
21
-91.120959
0
ARC
5
324
100
AcDbEntity
8
1
100
AcDbCircle
6
CONTINUOUS
62
5
10
-10.389467
20
-91.157534
40
0.300000
100
AcDbArc
50
-86.999999
51
-1.374853
0
LINE
5
325
100
AcDbEntity
8
1
100
AcDbLine
6
CONTINUOUS
62
5
10
-10.373766
20
-91.457123
11
-10.442934
21
-91.460748
0
LINE
5
326
100
AcDbEntity
8
1
100
AcDbLine
6
CONTINUOUS
62
5
10
-10.071201
20
-90.400053
11
-10.089553
21
-91.164732
0
POLYLINE
5
327
100
AcDbEntity
8
1
6
CONTINUOUS
62
5
100
AcDb2dPolyline
66
1
10
0.0
20
0.0
30
0.0
70
0
0
VERTEX
5
328
100
AcDbEntity
8
1
100
AcDbVertex
100
AcDb2dVertex
62
5
10
-13.600000
20
-90.100054
0
VERTEX
5
329
100
AcDbEntity
8
1
100
AcDbVertex
100
AcDb2dVertex
62
5
10
-12.100000
20
-90.100054
0
VERTEX
5
32a
100
AcDbEntity
8
1
100
AcDbVertex
100
AcDb2dVertex
62
5
10
-11.100000
20
-90.400053
0
SEQEND
5
32b
100
AcDbEntity
8
1
0
ARC
5
32c
100
AcDbEntity
8
1
100
AcDbCircle
6
CONTINUOUS
62
5
10
-12.887622
20
-91.288457
40
0.300000
100
AcDbArc
50
-161.564421
51
-86.999999
0
POLYLINE
5
32d
100
AcDbEntity
8
1
6
CONTINUOUS
62
5
100
AcDb2dPolyline
66
1
10
0.0
20
0.0
30
0.0
70
0
0
VERTEX
5
32e
100
AcDbEntity
8
1
100
AcDbVertex
100
AcDb2dVertex
62
5
10
-12.871921
20
-91.588046
0
VERTEX
5
32f
100
AcDbEntity
8
1
100
AcDbVertex
100
AcDb2dVertex
62
5
10
-9.570828
20
-91.415043
0
VERTEX
5
330
100
AcDbEntity
8
1
100
AcDbVertex
100
AcDb2dVertex
62
5
10
-9.410739
20
-90.400053
0
SEQEND
5
331
100
AcDbEntity
8
1
0
LINE
5
332
100
AcDbEntity
8
1
100
AcDbLine
6
CONTINUOUS
62
5
10
-13.600000
20
-90.100054
11
-13.172226
21
-91.383328
0
ARC
5
333
100
AcDbEntity
8
1
100
AcDbCircle
6
CONTINUOUS
62
5
10
-32.400000
20
-90.946043
40
0.300000
100
AcDbArc
50
-35.665637
51
-0.000000
0
LINE
5
334
100
AcDbEntity
8
1
100
AcDbLine
6
CONTINUOUS
62
5
10
-32.100000
20
-90.946043
11
-32.100000
21
-90.400053
0
LINE
5
335
100
AcDbEntity
8
1
100
AcDbLine
6
CONTINUOUS
62
5
10
-32.690309
20
-91.464246
11
-32.576860
21
-91.470192
0
ARC
5
336
100
AcDbEntity
8
1
100
AcDbCircle
6
CONTINUOUS
62
5
10
-32.561159
20
-91.170603
40
0.300000
100
AcDbArc
50
-92.999999
51
-35.665637
0
LINE
5
337
100
AcDbEntity
8
1
100
AcDbLine
6
CONTINUOUS
62
5
10
-32.317429
20
-91.345519
11
-32.156270
21
-91.120959
0
ARC
5
338
100
AcDbEntity
8
1
100
AcDbCircle
6
CONTINUOUS
62
5
10
-32.810533
20
-91.157534
40
0.300000
100
AcDbArc
50
-178.625146
51
-92.999999
0
LINE
5
339
100
AcDbEntity
8
1
100
AcDbLine
6
CONTINUOUS
62
5
10
-32.826234
20
-91.457123
11
-32.757066
21
-91.460748
0
LINE
5
33a
100
AcDbEntity
8
1
100
AcDbLine
6
CONTINUOUS
62
5
10
-33.128799
20
-90.400053
11
-33.110447
21
-91.164732
0
ARC
5
33b
100
AcDbEntity
8
1
100
AcDbCircle
6
CONTINUOUS
62
5
10
-30.312378
20
-91.288457
40
0.300000
100
AcDbArc
50
-92.999999
51
-18.435577
0
POLYLINE
5
33c
100
AcDbEntity
8
1
6
CONTINUOUS
62
5
100
AcDb2dPolyline
66
1
10
0.0
20
0.0
30
0.0
70
0
0
VERTEX
5
33d
100
AcDbEntity
8
1
100
AcDbVertex
100
AcDb2dVertex
62
5
10
-30.328079
20
-91.588046
0
VERTEX
5
33e
100
AcDbEntity
8
1
100
AcDbVertex
100
AcDb2dVertex
62
5
10
-33.629172
20
-91.415043
0
VERTEX
5
33f
100
AcDbEntity
8
1
100
AcDbVertex
100
AcDb2dVertex
62
5
10
-33.789261
20
-90.400053
0
SEQEND
5
340
100
AcDbEntity
8
1
0
LINE
5
341
100
AcDbEntity
8
1
100
AcDbLine
6
CONTINUOUS
62
5
10
-29.600000
20
-90.100054
11
-30.027774
21
-91.383328
0
POLYLINE
5
342
100
AcDbEntity
8
1
6
CONTINUOUS
62
5
100
AcDb2dPolyline
66
1
10
0.0
20
0.0
30
0.0
70
0
0
VERTEX
5
343
100
AcDbEntity
8
1
100
AcDbVertex
100
AcDb2dVertex
62
5
10
-32.100000
20
-90.400053
0
VERTEX
5
344
100
AcDbEntity
8
1
100
AcDbVertex
100
AcDb2dVertex
62
5
10
-31.100000
20
-90.100054
0
VERTEX
5
345
100
AcDbEntity
8
1
100
AcDbVertex
100
AcDb2dVertex
62
5
10
-29.600000
20
-90.100054
0
SEQEND
5
346
100
AcDbEntity
8
1
0
LINE
5
347
100
AcDbEntity
8
1
100
AcDbLine
6
CONTINUOUS
62
5
10
-29.600000
20
-90.100054
11
-13.600000
21
-90.100054
0
ARC
5
348
100
AcDbEntity
8
1
100
AcDbCircle
6
CONTINUOUS
62
5
10
-0.857914
20
-86.330904
40
0.500000
100
AcDbArc
50
5.000000
51
87.620068
0
ARC
5
349
100
AcDbEntity
8
1
100
AcDbCircle
6
CONTINUOUS
62
5
10
-21.600001
20
-585.400053
40
500.000000
100
AcDbArc
50
87.620068
51
92.379931
0
ARC
5
34a
100
AcDbEntity
8
1
100
AcDbCircle
6
CONTINUOUS
62
5
10
-42.342086
20
-86.330904
40
0.500000
100
AcDbArc
50
92.379931
51
174.999998
0
POLYLINE
5
34b
100
AcDbEntity
8
1
6
CONTINUOUS
62
5
100
AcDb2dPolyline
66
1
10
0.0
20
0.0
30
0.0
70
0
0
VERTEX
5
34c
100
AcDbEntity
8
1
100
AcDbVertex
100
AcDb2dVertex
62
5
10
-42.840183
20
-86.287326
0
VERTEX
5
34d
100
AcDbEntity
8
1
100
AcDbVertex
100
AcDb2dVertex
62
5
10
-43.200000
20
-90.400053
0
VERTEX
5
34e
100
AcDbEntity
8
1
100
AcDbVertex
100
AcDb2dVertex
62
5
10
-32.100000
20
-90.400053
0
SEQEND
5
34f
100
AcDbEntity
8
1
0
POLYLINE
5
350
100
AcDbEntity
8
1
6
CONTINUOUS
62
5
100
AcDb2dPolyline
66
1
10
0.0
20
0.0
30
0.0
70
0
0
VERTEX
5
351
100
AcDbEntity
8
1
100
AcDbVertex
100
AcDb2dVertex
62
5
10
-11.100000
20
-90.400053
0
VERTEX
5
352
100
AcDbEntity
8
1
100
AcDbVertex
100
AcDb2dVertex
62
5
10
0.000000
20
-90.400053
0
VERTEX
5
353
100
AcDbEntity
8
1
100
AcDbVertex
100
AcDb2dVertex
62
5
10
-0.359817
20
-86.287326
0
SEQEND
5
354
100
AcDbEntity
8
1
0
LINE
5
355
100
AcDbEntity
8
6
100
AcDbLine
6
CONTINUOUS
62
5
10
-20.100000
20
-0.100053
11
27.000000
21
-0.100053
0
LINE
5
356
100
AcDbEntity
8
6
100
AcDbLine
6
CONTINUOUS
62
5
10
-20.100000
20
-30.400053
11
27.000000
21
-30.400053
0
POLYLINE
5
357
100
AcDbEntity
8
6
6
CONTINUOUS
62
5
100
AcDb2dPolyline
66
1
10
0.0
20
0.0
30
0.0
70
0
0
VERTEX
5
358
100
AcDbEntity
8
6
100
AcDbVertex
100
AcDb2dVertex
62
5
10
25.000000
20
-61.650053
0
VERTEX
5
359
100
AcDbEntity
8
6
100
AcDbVertex
100
AcDb2dVertex
62
5
10
25.000000
20
-30.400053
0
VERTEX
5
35a
100
AcDbEntity
8
6
100
AcDbVertex
100
AcDb2dVertex
62
5
10
26.000000
20
-36.400053
0
VERTEX
5
35b
100
AcDbEntity
8
6
100
AcDbVertex
100
AcDb2dVertex
62
5
10
24.000000
20
-36.400053
0
VERTEX
5
35c
100
AcDbEntity
8
6
100
AcDbVertex
100
AcDb2dVertex
62
5
10
25.000000
20
-30.400053
0
VERTEX
5
35d
100
AcDbEntity
8
6
100
AcDbVertex
100
AcDb2dVertex
62
5
10
25.500000
20
-36.400053
0
VERTEX
5
35e
100
AcDbEntity
8
6
100
AcDbVertex
100
AcDb2dVertex
62
5
10
24.500000
20
-36.400053
0
VERTEX
5
35f
100
AcDbEntity
8
6
100
AcDbVertex
100
AcDb2dVertex
62
5
10
25.000000
20
-30.400053
0
SEQEND
5
360
100
AcDbEntity
8
6
0
LINE
5
361
100
AcDbEntity
8
6
100
AcDbLine
6
CONTINUOUS
62
5
10
25.000000
20
-30.400053
11
25.000000
21
-0.100053
0
POLYLINE
5
362
100
AcDbEntity
8
6
6
CONTINUOUS
62
5
100
AcDb2dPolyline
66
1
10
0.0
20
0.0
30
0.0
70
0
0
VERTEX
5
363
100
AcDbEntity
8
6
100
AcDbVertex
100
AcDb2dVertex
62
5
10
25.000000
20
8.899947
0
VERTEX
5
364
100
AcDbEntity
8
6
100
AcDbVertex
100
AcDb2dVertex
62
5
10
25.000000
20
-0.100053
0
VERTEX
5
365
100
AcDbEntity
8
6
100
AcDbVertex
100
AcDb2dVertex
62
5
10
24.000000
20
5.899947
0
VERTEX
5
366
100
AcDbEntity
8
6
100
AcDbVertex
100
AcDb2dVertex
62
5
10
26.000000
20
5.899947
0
VERTEX
5
367
100
AcDbEntity
8
6
100
AcDbVertex
100
AcDb2dVertex
62
5
10
25.000000
20
-0.100053
0
VERTEX
5
368
100
AcDbEntity
8
6
100
AcDbVertex
100
AcDb2dVertex
62
5
10
24.500000
20
5.899947
0
VERTEX
5
369
100
AcDbEntity
8
6
100
AcDbVertex
100
AcDb2dVertex
62
5
10
25.500000
20
5.899947
0
VERTEX
5
36a
100
AcDbEntity
8
6
100
AcDbVertex
100
AcDb2dVertex
62
5
10
25.000000
20
-0.100053
0
SEQEND
5
36b
100
AcDbEntity
8
6
0
POLYLINE
5
36c
100
AcDbEntity
8
1
6
CONTINUOUS
62
5
100
AcDb2dPolyline
66
1
10
0.0
20
0.0
30
0.0
70
0
0
VERTEX
5
36d
100
AcDbEntity
8
1
100
AcDbVertex
100
AcDb2dVertex
62
5
10
-5.007300
20
-23.083110
0
VERTEX
5
36e
100
AcDbEntity
8
1
100
AcDbVertex
100
AcDb2dVertex
62
5
10
-4.104956
20
-23.083110
0
VERTEX
5
36f
100
AcDbEntity
8
1
100
AcDbVertex
100
AcDb2dVertex
62
5
10
-4.104956
20
-23.985454
0
VERTEX
5
370
100
AcDbEntity
8
1
100
AcDbVertex
100
AcDb2dVertex
62
5
10
-4.749488
20
-25.274517
0
VERTEX
5
371
100
AcDbEntity
8
1
100
AcDbVertex
100
AcDb2dVertex
62
5
10
-5.780738
20
-26.305767
0
SEQEND
5
372
100
AcDbEntity
8
1
0
POLYLINE
5
373
100
AcDbEntity
8
1
6
CONTINUOUS
62
5
100
AcDb2dPolyline
66
1
10
0.0
20
0.0
30
0.0
70
0
0
VERTEX
5
374
100
AcDbEntity
8
1
100
AcDbVertex
100
AcDb2dVertex
62
5
10
-4.104956
20
-23.985454
0
VERTEX
5
375
100
AcDbEntity
8
1
100
AcDbVertex
100
AcDb2dVertex
62
5
10
-3.718237
20
-24.887798
0
VERTEX
5
376
100
AcDbEntity
8
1
100
AcDbVertex
100
AcDb2dVertex
62
5
10
-3.073706
20
-25.790142
0
VERTEX
5
377
100
AcDbEntity
8
1
100
AcDbVertex
100
AcDb2dVertex
62
5
10
-2.300268
20
-26.305767
0
SEQEND
5
378
100
AcDbEntity
8
1
0
POLYLINE
5
379
100
AcDbEntity
8
1
6
CONTINUOUS
62
5
100
AcDb2dPolyline
66
1
10
0.0
20
0.0
30
0.0
70
0
0
VERTEX
5
37a
100
AcDbEntity
8
1
100
AcDbVertex
100
AcDb2dVertex
62
5
10
-38.527515
20
-23.309713
0
VERTEX
5
37b
100
AcDbEntity
8
1
100
AcDbVertex
100
AcDb2dVertex
62
5
10
-38.527515
20
-24.856588
0
VERTEX
5
37c
100
AcDbEntity
8
1
100
AcDbVertex
100
AcDb2dVertex
62
5
10
-38.785328
20
-25.501120
0
VERTEX
5
37d
100
AcDbEntity
8
1
100
AcDbVertex
100
AcDb2dVertex
62
5
10
-39.172047
20
-26.016745
0
VERTEX
5
37e
100
AcDbEntity
8
1
100
AcDbVertex
100
AcDb2dVertex
62
5
10
-39.816578
20
-26.403464
0
SEQEND
5
37f
100
AcDbEntity
8
1
0
POLYLINE
5
380
100
AcDbEntity
8
1
6
CONTINUOUS
62
5
100
AcDb2dPolyline
66
1
10
0.0
20
0.0
30
0.0
70
0
0
VERTEX
5
381
100
AcDbEntity
8
1
100
AcDbVertex
100
AcDb2dVertex
62
5
10
-39.300953
20
-23.309713
0
VERTEX
5
382
100
AcDbEntity
8
1
100
AcDbVertex
100
AcDb2dVertex
62
5
10
-37.367358
20
-23.309713
0
VERTEX
5
383
100
AcDbEntity
8
1
100
AcDbVertex
100
AcDb2dVertex
62
5
10
-37.367358
20
-25.501120
0
VERTEX
5
384
100
AcDbEntity
8
1
100
AcDbVertex
100
AcDb2dVertex
62
5
10
-37.496265
20
-25.887839
0
VERTEX
5
385
100
AcDbEntity
8
1
100
AcDbVertex
100
AcDb2dVertex
62
5
10
-37.754077
20
-26.016745
0
VERTEX
5
386
100
AcDbEntity
8
1
100
AcDbVertex
100
AcDb2dVertex
62
5
10
-38.269702
20
-26.016745
0
SEQEND
5
387
100
AcDbEntity
8
1
0
POLYLINE
5
388
100
AcDbEntity
8
1
6
CONTINUOUS
62
5
100
AcDb2dPolyline
66
1
10
0.0
20
0.0
30
0.0
70
0
0
VERTEX
5
389
100
AcDbEntity
8
1
100
AcDbVertex
100
AcDb2dVertex
62
5
10
-40.718922
20
-24.083151
0
VERTEX
5
38a
100
AcDbEntity
8
1
100
AcDbVertex
100
AcDb2dVertex
62
5
10
-39.945484
20
-23.954244
0
VERTEX
5
38b
100
AcDbEntity
8
1
100
AcDbVertex
100
AcDb2dVertex
62
5
10
-39.300953
20
-23.696432
0
SEQEND
5
38c
100
AcDbEntity
8
1
0
POLYLINE
5
38d
100
AcDbEntity
8
1
6
CONTINUOUS
62
5
100
AcDb2dPolyline
66
1
10
0.0
20
0.0
30
0.0
70
0
0
VERTEX
5
38e
100
AcDbEntity
8
1
100
AcDbVertex
100
AcDb2dVertex
62
5
10
-40.203297
20
-22.922994
0
VERTEX
5
38f
100
AcDbEntity
8
1
100
AcDbVertex
100
AcDb2dVertex
62
5
10
-40.203297
20
-25.243307
0
VERTEX
5
390
100
AcDbEntity
8
1
100
AcDbVertex
100
AcDb2dVertex
62
5
10
-39.945484
20
-25.501120
0
VERTEX
5
391
100
AcDbEntity
8
1
100
AcDbVertex
100
AcDb2dVertex
62
5
10
-39.300953
20
-25.501120
0
VERTEX
5
392
100
AcDbEntity
8
1
100
AcDbVertex
100
AcDb2dVertex
62
5
10
-39.172047
20
-24.985495
0
SEQEND
5
393
100
AcDbEntity
8
1
0
ARC
5
394
100
AcDbEntity
8
1
100
AcDbCircle
6
CONTINUOUS
62
5
10
-42.700000
20
-0.600053
40
0.500000
100
AcDbArc
50
89.999999
51
179.999998
0
LINE
5
395
100
AcDbEntity
8
1
100
AcDbLine
6
CONTINUOUS
62
5
10
-42.700000
20
-0.100053
11
-0.500000
21
-0.100053
0
ARC
5
396
100
AcDbEntity
8
1
100
AcDbCircle
6
CONTINUOUS
62
5
10
-0.500000
20
-0.600053
40
0.500000
100
AcDbArc
50
0.000000
51
89.999999
0
LINE
5
397
100
AcDbEntity
8
1
100
AcDbLine
6
CONTINUOUS
62
5
10
0.000000
20
-0.600053
11
0.000000
21
-29.900053
0
ARC
5
398
100
AcDbEntity
8
1
100
AcDbCircle
6
CONTINUOUS
62
5
10
-0.500000
20
-29.900053
40
0.500000
100
AcDbArc
50
-89.999999
51
0.000000
0
LINE
5
399
100
AcDbEntity
8
1
100
AcDbLine
6
CONTINUOUS
62
5
10
-0.500000
20
-30.400053
11
-42.700000
21
-30.400053
0
ARC
5
39a
100
AcDbEntity
8
1
100
AcDbCircle
6
CONTINUOUS
62
5
10
-42.700000
20
-29.900053
40
0.500000
100
AcDbArc
50
179.999998
51
-89.999999
0
LINE
5
39b
100
AcDbEntity
8
1
100
AcDbLine
6
CONTINUOUS
62
5
10
-43.200000
20
-29.900053
11
-43.200000
21
-0.600053
0
ARC
5
39c
100
AcDbEntity
8
1
100
AcDbCircle
6
CONTINUOUS
62
5
10
-42.301716
20
-0.774657
40
0.500000
100
AcDbArc
50
89.999999
51
179.999998
0
LINE
5
39d
100
AcDbEntity
8
1
100
AcDbLine
6
CONTINUOUS
62
5
10
-42.301716
20
-0.274657
11
-0.898284
21
-0.274657
0
ARC
5
39e
100
AcDbEntity
8
1
100
AcDbCircle
6
CONTINUOUS
62
5
10
-0.898284
20
-0.774657
40
0.500000
100
AcDbArc
50
0.000000
51
89.999999
0
LINE
5
39f
100
AcDbEntity
8
1
100
AcDbLine
6
CONTINUOUS
62
5
10
-0.398284
20
-0.774657
11
-0.398284
21
-29.725450
0
ARC
5
3a0
100
AcDbEntity
8
1
100
AcDbCircle
6
CONTINUOUS
62
5
10
-0.898284
20
-29.725450
40
0.500000
100
AcDbArc
50
-89.999999
51
0.000000
0
LINE
5
3a1
100
AcDbEntity
8
1
100
AcDbLine
6
CONTINUOUS
62
5
10
-0.898284
20
-30.225450
11
-42.301716
21
-30.225450
0
ARC
5
3a2
100
AcDbEntity
8
1
100
AcDbCircle
6
CONTINUOUS
62
5
10
-42.301716
20
-29.725450
40
0.500000
100
AcDbArc
50
179.999998
51
-89.999999
0
LINE
5
3a3
100
AcDbEntity
8
1
100
AcDbLine
6
CONTINUOUS
62
5
10
-42.801716
20
-29.725450
11
-42.801716
21
-0.774657
0
POLYLINE
5
3a4
100
AcDbEntity
8
1
6
CONTINUOUS
62
5
100
AcDb2dPolyline
66
1
10
0.0
20
0.0
30
0.0
70
1
0
VERTEX
5
3a5
100
AcDbEntity
8
1
100
AcDbVertex
100
AcDb2dVertex
62
5
10
-181.600000
20
-195.100054
0
VERTEX
5
3a6
100
AcDbEntity
8
1
100
AcDbVertex
100
AcDb2dVertex
62
5
10
-181.600000
20
144.899946
0
VERTEX
5
3a7
100
AcDbEntity
8
1
100
AcDbVertex
100
AcDb2dVertex
62
5
10
138.400000
20
144.899946
0
VERTEX
5
3a8
100
AcDbEntity
8
1
100
AcDbVertex
100
AcDb2dVertex
62
5
10
138.400000
20
-195.100054
0
VERTEX
5
3a9
100
AcDbEntity
8
1
100
AcDbVertex
100
AcDb2dVertex
62
5
10
-181.600000
20
-195.100054
0
SEQEND
5
3aa
100
AcDbEntity
8
1
0
ENDSEC
0
SECTION
2
OBJECTS
0
DICTIONARY
5
3ab
100
AcDbDictionary
3
ACAD_GROUP
350
3ac
3
ACAD_MLINESTYLE
350
3ad
0
DICTIONARY
5
3ac
102
{ACAD_REACTORS
330
3ab
102
}
100
AcDbDictionary
0
DICTIONARY
5
3ad
102
{ACAD_REACTORS
330
3ab
102
}
100
AcDbDictionary
3
STANDARD
350
3ae
0
MLINESTYLE
5
3ae
102
{ACAD_REACTORS
330
3ad
102
}
100
AcDbMlineStyle
2
STANDARD
70
0
3

62
0
51
90.0
52
90.0
71
2
49
0.5
62
256
6
BYLAYER
49
-0.5
62
256
6
BYLAYER
0
ENDSEC
0
EOF
