0
SECTION
2
HEADER
9
$ACADVER
1
AC1012
9
$EXTMIN
10
-7.150000
20
-7.980000
30
0.0
9
$EXTMAX
10
5.450000
20
5.410000
30
0.0
9
$LIMMIN
10
-181.610000
20
-202.692000
9
$LIMMAX
10
138.430000
20
137.414000
9
$DIMSCALE
40
1.000000
9
$PDMODE
70
2
9
$PDSIZE
40
0.0
  9
$HANDSEED
  5
553
0
ENDSEC
0
SECTION
2
CLASSES
0
ENDSEC
0
SECTION
2
TABLES
0
TABLE
2
LTYPE
5
1e
100
AcDbSymbolTable
70
12
0
LTYPE
5
1f
100
AcDbSymbolTableRecord
100
AcDbLinetypeTableRecord
2
BYBLOCK
70
0
3

72
65
73
0
40
0.0
0
LTYPE
5
20
100
AcDbSymbolTableRecord
100
AcDbLinetypeTableRecord
2
BYLAYER
70
0
3

72
65
73
0
40
0.0
0
LTYPE
5
21
100
AcDbSymbolTableRecord
100
AcDbLinetypeTableRecord
2
CONTINUOUS
70
64
3
Solid line
72
65
73
0
40
0.0
0
LTYPE
5
22
100
AcDbSymbolTableRecord
100
AcDbLinetypeTableRecord
2
DASHED
70
64
3
__ __ __ __ __ __ __ __ __ __ __ __ __ __ __
72
65
73
2
40
0.75
49
0.5
74
0
49
-0.25
74
0
0
LTYPE
5
23
100
AcDbSymbolTableRecord
100
AcDbLinetypeTableRecord
2
DOT
70
64
3
...............................................
72
65
73
2
40
0.25
49
0.0
74
0
49
-0.25
74
0
0
LTYPE
5
24
100
AcDbSymbolTableRecord
100
AcDbLinetypeTableRecord
2
DASHDOT
70
64
3
__ . __ . __ . __ . __ . __ . __ . __ . __ . --
72
65
73
4
40
1.0
49
0.5
74
0
49
-0.25
74
0
49
0.0
74
0
49
-0.25
74
0
0
LTYPE
5
25
100
AcDbSymbolTableRecord
100
AcDbLinetypeTableRecord
2
CENTER
70
64
3
____ _ ____ _ ____ _ ____ _ ____ _ ____ _ ____
72
65
73
4
40
2.0
49
1.25
74
0
49
-0.25
74
0
49
0.25
74
0
49
-0.25
74
0
0
LTYPE
5
26
100
AcDbSymbolTableRecord
100
AcDbLinetypeTableRecord
2
PHANTOM
70
64
3
_____ _ _ _____ _ _ _____ _ _ _____ _ _ ____
72
65
73
6
40
2.5
49
1.25
74
0
49
-0.25
74
0
49
0.25
74
0
49
-0.25
74
0
49
0.25
74
0
49
-0.25
74
0
0
LTYPE
5
27
100
AcDbSymbolTableRecord
100
AcDbLinetypeTableRecord
2
HIDDEN
70
64
3
_ _ _ _ _ _ _ _ _ _ _ _ _ _ _ _ _ _ _ _ _ _ _
72
65
73
2
40
0.375
49
0.25
74
0
49
-0.125
74
0
0
LTYPE
5
28
100
AcDbSymbolTableRecord
100
AcDbLinetypeTableRecord
2
BORDER
70
64
3
__ __ . __ __ . __ __ . __ __ . __ __ . __ __
72
65
73
6
40
1.75
49
0.5
74
0
49
-0.25
74
0
49
0.5
74
0
49
-0.25
74
0
49
0.0
74
0
49
-0.25
74
0
0
LTYPE
5
29
100
AcDbSymbolTableRecord
100
AcDbLinetypeTableRecord
2
DIVIDE
70
64
3
__ . . __ . . __ . . __ . . __ . . __ . . __
72
65
73
6
40
1.25
49
0.5
74
0
49
-0.25
74
0
49
0.0
74
0
49
-0.25
74
0
49
0.0
74
0
49
-0.25
74
0
0
LTYPE
5
2a
100
AcDbSymbolTableRecord
100
AcDbLinetypeTableRecord
2
DOT2
70
64
3
...............................................
72
65
73
2
40
0.125
49
0.0
74
0
49
-0.125
74
0
0
ENDTAB
0
TABLE
2
STYLE
5
2b
100
AcDbSymbolTable
70
1
0
STYLE
5
2c
100
AcDbSymbolTableRecord
100
AcDbTextStyleTableRecord
2
STANDARD
70
64
40
0.0
41
1.0
50
0.0
71
0
42
5.0
3
txt
4
bigfont
0
ENDTAB
0
TABLE
2
LAYER
5
2d
100
AcDbSymbolTable
70
3
0
LAYER
5
2e
100
AcDbSymbolTableRecord
100
AcDbLayerTableRecord
2
0
70
0
62
7
6
CONTINUOUS
0
LAYER
5
2f
100
AcDbSymbolTableRecord
100
AcDbLayerTableRecord
2
1
70
0
62
7
6
CONTINUOUS
0
LAYER
5
30
100
AcDbSymbolTableRecord
100
AcDbLayerTableRecord
2
6
70
0
62
7
6
CONTINUOUS
0
ENDTAB
0
TABLE
2
APPID
5
31
100
AcDbSymbolTable
70
1
0
APPID
5
32
100
AcDbSymbolTableRecord
100
AcDbRegAppTableRecord
2
ACAD
70
64
0
ENDTAB
0
TABLE
2
DIMSTYLE
5
33
100
AcDbSymbolTable
70
0
0
ENDTAB
0
TABLE
2
UCS
5
34
100
AcDbSymbolTable
70
0
0
ENDTAB
0
TABLE
2
VIEW
5
35
100
AcDbSymbolTable
70
0
0
ENDTAB
0
TABLE
2
VPORT
5
36
100
AcDbSymbolTable
70
0
0
ENDTAB
0
TABLE
2
BLOCK_RECORD
5
37
100
AcDbSymbolTable
70
0
0
BLOCK_RECORD
5
38
100
AcDbSymbolTableRecord
100
AcDbBlockTableRecord
2
*MODEL_SPACE
0
BLOCK_RECORD
5
39
100
AcDbSymbolTableRecord
100
AcDbBlockTableRecord
2
*PAPER_SPACE
0
BLOCK_RECORD
5
3a
100
AcDbSymbolTableRecord
100
AcDbBlockTableRecord
2
OPEN
0
BLOCK_RECORD
5
3b
100
AcDbSymbolTableRecord
100
AcDbBlockTableRecord
2
HALF
0
BLOCK_RECORD
5
3c
100
AcDbSymbolTableRecord
100
AcDbBlockTableRecord
2
CLOSEDBLANK
0
BLOCK_RECORD
5
3d
100
AcDbSymbolTableRecord
100
AcDbBlockTableRecord
2
HALFCLOSE_R
0
BLOCK_RECORD
5
3e
100
AcDbSymbolTableRecord
100
AcDbBlockTableRecord
2
DOT
0
BLOCK_RECORD
5
3f
100
AcDbSymbolTableRecord
100
AcDbBlockTableRecord
2
HALFOPEN_R
0
BLOCK_RECORD
5
40
100
AcDbSymbolTableRecord
100
AcDbBlockTableRecord
2
CLOSEDF
0
BLOCK_RECORD
5
41
100
AcDbSymbolTableRecord
100
AcDbBlockTableRecord
2
HALF_R
0
ENDTAB
0
ENDSEC
0
SECTION
2
BLOCKS
0
BLOCK
5
42
100
AcDbEntity
8
0
100
AcDbBlockBegin
2
*MODEL_SPACE
70
0
10
0.0
20
0.0
30
0.0
3
*MODEL_SPACE
1

0
ENDBLK
5
43
100
AcDbEntity
8
0
100
AcDbBlockEnd
0
BLOCK
5
44
100
AcDbEntity
67
1
8
0
100
AcDbBlockBegin
2
*PAPER_SPACE
70
0
10
0.0
20
0.0
30
0.0
3
*PAPER_SPACE
1

0
ENDBLK
5
45
100
AcDbEntity
67
1
8
0
100
AcDbBlockEnd
0
BLOCK
5
46
100
AcDbEntity
8
0
100
AcDbBlockBegin
2
OPEN
70
0
10
0.0
20
0.0
30
0.0
3
OPEN
1

0
LINE
5
47
100
AcDbEntity
8
0
6
BYBLOCK
62
0
100
AcDbLine
10
0.000000
20
0.000000
11
-1.000000
21
0.000000
0
LINE
5
48
100
AcDbEntity
8
0
6
BYBLOCK
62
0
100
AcDbLine
10
-1.000000
20
-0.166667
11
0.000000
21
0.000000
0
LINE
5
49
100
AcDbEntity
8
0
6
BYBLOCK
62
0
100
AcDbLine
10
-1.000000
20
0.166667
11
0.000000
21
0.000000
0
ENDBLK
5
4a
100
AcDbEntity
8
0
100
AcDbBlockEnd
0
BLOCK
5
4b
100
AcDbEntity
8
0
100
AcDbBlockBegin
2
HALF
70
0
10
0.0
20
0.0
30
0.0
3
HALF
1

0
SOLID
5
4c
100
AcDbEntity
8
0
6
BYBLOCK
62
0
100
AcDbTrace
10
-1.000000
20
0.166667
11
-1.000000
21
-0.166667
12
0.000000
22
0.000000
13
0.000000
23
0.000000
0
ENDBLK
5
4d
100
AcDbEntity
8
0
100
AcDbBlockEnd
0
BLOCK
5
4e
100
AcDbEntity
8
0
100
AcDbBlockBegin
2
CLOSEDBLANK
70
0
10
0.0
20
0.0
30
0.0
3
CLOSEDBLANK
1

0
LINE
5
4f
100
AcDbEntity
8
0
6
BYBLOCK
62
0
100
AcDbLine
10
-1.000000
20
0.166667
11
-1.000000
21
-0.166667
0
LINE
5
50
100
AcDbEntity
8
0
6
BYBLOCK
62
0
100
AcDbLine
10
0.000000
20
0.000000
11
-1.000000
21
-0.166667
0
LINE
5
51
100
AcDbEntity
8
0
6
BYBLOCK
62
0
100
AcDbLine
10
-1.000000
20
0.166667
11
0.000000
21
0.000000
0
ENDBLK
5
52
100
AcDbEntity
8
0
100
AcDbBlockEnd
0
BLOCK
5
53
100
AcDbEntity
8
0
100
AcDbBlockBegin
2
HALFCLOSE_R
70
0
10
0.0
20
0.0
30
0.0
3
HALFCLOSE_R
1

0
LINE
5
54
100
AcDbEntity
8
0
6
BYBLOCK
62
0
100
AcDbLine
10
-1.000000
20
-0.166667
11
-1.000000
21
0.000000
0
LINE
5
55
100
AcDbEntity
8
0
6
BYBLOCK
62
0
100
AcDbLine
10
-1.000000
20
-0.166667
11
0.000000
21
0.000000
0
LINE
5
56
100
AcDbEntity
8
0
6
BYBLOCK
62
0
100
AcDbLine
10
0.000000
20
0.000000
11
-1.000000
21
0.000000
0
ENDBLK
5
57
100
AcDbEntity
8
0
100
AcDbBlockEnd
0
BLOCK
5
58
100
AcDbEntity
8
0
100
AcDbBlockBegin
2
DOT
70
0
10
0.0
20
0.0
30
0.0
3
DOT
1

0
LINE
5
59
100
AcDbEntity
8
0
6
BYBLOCK
62
0
100
AcDbLine
10
0.000000
20
0.000000
11
-1.000000
21
0.000000
0
POLYLINE
5
5a
100
AcDbEntity
8
0
6
BYBLOCK
62
0
100
AcDb2dPolyline
66
1
10
0.0
20
0.0
30
0.0
70
1
40
0.166667
41
0.166667
0
VERTEX
5
5b
100
AcDbEntity
8
0
100
AcDbVertex
100
AcDb2dVertex
62
10
10
-0.083333
20
0.000000
42
1.000000
0
VERTEX
5
5c
100
AcDbEntity
8
0
100
AcDbVertex
100
AcDb2dVertex
62
10
10
0.083333
20
0.000000
42
1.000000
0
SEQEND
5
5d
100
AcDbEntity
8
0
0
ENDBLK
5
5e
100
AcDbEntity
8
0
100
AcDbBlockEnd
0
BLOCK
5
5f
100
AcDbEntity
8
0
100
AcDbBlockBegin
2
HALFOPEN_R
70
0
10
0.0
20
0.0
30
0.0
3
HALFOPEN_R
1

0
LINE
5
60
100
AcDbEntity
8
0
6
BYBLOCK
62
0
100
AcDbLine
10
-1.000000
20
-0.166667
11
0.000000
21
0.000000
0
LINE
5
61
100
AcDbEntity
8
0
6
BYBLOCK
62
0
100
AcDbLine
10
0.000000
20
0.000000
11
-1.000000
21
0.000000
0
ENDBLK
5
62
100
AcDbEntity
8
0
100
AcDbBlockEnd
0
BLOCK
5
63
100
AcDbEntity
8
0
100
AcDbBlockBegin
2
CLOSEDF
70
0
10
0.0
20
0.0
30
0.0
3
CLOSEDF
1

0
SOLID
5
64
100
AcDbEntity
8
0
6
BYBLOCK
62
0
100
AcDbTrace
10
-1.000000
20
0.166667
11
-1.000000
21
-0.166667
12
0.000000
22
0.000000
13
0.000000
23
0.000000
0
ENDBLK
5
65
100
AcDbEntity
8
0
100
AcDbBlockEnd
0
BLOCK
5
66
100
AcDbEntity
8
0
100
AcDbBlockBegin
2
HALF_R
70
0
10
0.0
20
0.0
30
0.0
3
HALF_R
1

0
SOLID
5
67
100
AcDbEntity
8
0
6
BYBLOCK
62
0
100
AcDbTrace
10
-1.000000
20
-0.166667
11
-1.000000
21
0.000000
12
0.000000
22
0.000000
13
0.000000
23
0.000000
0
ENDBLK
5
68
100
AcDbEntity
8
0
100
AcDbBlockEnd
0
ENDSEC
0
SECTION
2
ENTITIES
0
POLYLINE
5
69
100
AcDbEntity
8
1
6
CONTINUOUS
62
5
100
AcDb2dPolyline
66
1
10
0.0
20
0.0
30
0.0
70
0
0
VERTEX
5
6a
100
AcDbEntity
8
1
100
AcDbVertex
100
AcDb2dVertex
62
5
10
1.400000
20
125.100000
0
VERTEX
5
6b
100
AcDbEntity
8
1
100
AcDbVertex
100
AcDb2dVertex
62
5
10
3.150000
20
125.100000
0
VERTEX
5
6c
100
AcDbEntity
8
1
100
AcDbVertex
100
AcDb2dVertex
62
5
10
3.150000
20
122.912500
0
VERTEX
5
6d
100
AcDbEntity
8
1
100
AcDbVertex
100
AcDb2dVertex
62
5
10
1.900000
20
119.787500
0
VERTEX
5
6e
100
AcDbEntity
8
1
100
AcDbVertex
100
AcDb2dVertex
62
5
10
-0.100000
20
117.287500
0
SEQEND
5
6f
100
AcDbEntity
8
1
0
POLYLINE
5
70
100
AcDbEntity
8
1
6
CONTINUOUS
62
5
100
AcDb2dPolyline
66
1
10
0.0
20
0.0
30
0.0
70
0
0
VERTEX
5
71
100
AcDbEntity
8
1
100
AcDbVertex
100
AcDb2dVertex
62
5
10
3.150000
20
122.912500
0
VERTEX
5
72
100
AcDbEntity
8
1
100
AcDbVertex
100
AcDb2dVertex
62
5
10
3.900000
20
120.725000
0
VERTEX
5
73
100
AcDbEntity
8
1
100
AcDbVertex
100
AcDb2dVertex
62
5
10
5.150000
20
118.537500
0
VERTEX
5
74
100
AcDbEntity
8
1
100
AcDbVertex
100
AcDb2dVertex
62
5
10
6.650000
20
117.287500
0
SEQEND
5
75
100
AcDbEntity
8
1
0
POLYLINE
5
76
100
AcDbEntity
8
1
6
CONTINUOUS
62
5
100
AcDb2dPolyline
66
1
10
0.0
20
0.0
30
0.0
70
0
0
VERTEX
5
77
100
AcDbEntity
8
1
100
AcDbVertex
100
AcDb2dVertex
62
5
10
9.900000
20
124.787500
0
VERTEX
5
78
100
AcDbEntity
8
1
100
AcDbVertex
100
AcDb2dVertex
62
5
10
9.650000
20
122.912500
0
VERTEX
5
79
100
AcDbEntity
8
1
100
AcDbVertex
100
AcDb2dVertex
62
5
10
9.650000
20
121.350000
0
VERTEX
5
7a
100
AcDbEntity
8
1
100
AcDbVertex
100
AcDb2dVertex
62
5
10
9.900000
20
120.100000
0
VERTEX
5
7b
100
AcDbEntity
8
1
100
AcDbVertex
100
AcDb2dVertex
62
5
10
10.650000
20
121.662500
0
SEQEND
5
7c
100
AcDbEntity
8
1
0
POLYLINE
5
7d
100
AcDbEntity
8
1
6
CONTINUOUS
62
5
100
AcDb2dPolyline
66
1
10
0.0
20
0.0
30
0.0
70
0
0
VERTEX
5
7e
100
AcDbEntity
8
1
100
AcDbVertex
100
AcDb2dVertex
62
5
10
12.400000
20
124.787500
0
VERTEX
5
7f
100
AcDbEntity
8
1
100
AcDbVertex
100
AcDb2dVertex
62
5
10
12.650000
20
122.912500
0
VERTEX
5
80
100
AcDbEntity
8
1
100
AcDbVertex
100
AcDb2dVertex
62
5
10
12.650000
20
120.412500
0
VERTEX
5
81
100
AcDbEntity
8
1
100
AcDbVertex
100
AcDb2dVertex
62
5
10
12.150000
20
118.850000
0
VERTEX
5
82
100
AcDbEntity
8
1
100
AcDbVertex
100
AcDb2dVertex
62
5
10
11.400000
20
117.912500
0
VERTEX
5
83
100
AcDbEntity
8
1
100
AcDbVertex
100
AcDb2dVertex
62
5
10
11.150000
20
117.600000
0
SEQEND
5
84
100
AcDbEntity
8
1
0
POLYLINE
5
85
100
AcDbEntity
8
1
6
CONTINUOUS
62
5
100
AcDb2dPolyline
66
1
10
0.0
20
0.0
30
0.0
70
0
0
VERTEX
5
86
100
AcDbEntity
8
1
100
AcDbVertex
100
AcDb2dVertex
62
5
10
-13.350000
20
125.412500
0
VERTEX
5
87
100
AcDbEntity
8
1
100
AcDbVertex
100
AcDb2dVertex
62
5
10
-14.600000
20
124.787500
0
VERTEX
5
88
100
AcDbEntity
8
1
100
AcDbVertex
100
AcDb2dVertex
62
5
10
-15.850000
20
124.475000
0
VERTEX
5
89
100
AcDbEntity
8
1
100
AcDbVertex
100
AcDb2dVertex
62
5
10
-15.850000
20
116.975000
0
SEQEND
5
8a
100
AcDbEntity
8
1
0
LINE
5
8b
100
AcDbEntity
8
1
100
AcDbLine
6
CONTINUOUS
62
5
10
-15.850000
20
121.975000
11
-13.100000
21
121.975000
0
LINE
5
8c
100
AcDbEntity
8
1
100
AcDbLine
6
CONTINUOUS
62
5
10
-15.850000
20
118.850000
11
-13.100000
21
118.850000
0
POLYLINE
5
8d
100
AcDbEntity
8
1
6
CONTINUOUS
62
5
100
AcDb2dPolyline
66
1
10
0.0
20
0.0
30
0.0
70
0
0
VERTEX
5
8e
100
AcDbEntity
8
1
100
AcDbVertex
100
AcDb2dVertex
62
5
10
-12.100000
20
116.975000
0
VERTEX
5
8f
100
AcDbEntity
8
1
100
AcDbVertex
100
AcDb2dVertex
62
5
10
-12.100000
20
125.100000
0
VERTEX
5
90
100
AcDbEntity
8
1
100
AcDbVertex
100
AcDb2dVertex
62
5
10
-9.350000
20
125.100000
0
VERTEX
5
91
100
AcDbEntity
8
1
100
AcDbVertex
100
AcDb2dVertex
62
5
10
-9.350000
20
118.225000
0
VERTEX
5
92
100
AcDbEntity
8
1
100
AcDbVertex
100
AcDb2dVertex
62
5
10
-10.350000
20
118.225000
0
SEQEND
5
93
100
AcDbEntity
8
1
0
LINE
5
94
100
AcDbEntity
8
1
100
AcDbLine
6
CONTINUOUS
62
5
10
-4.850000
20
125.725000
11
-4.850000
21
124.475000
0
POLYLINE
5
95
100
AcDbEntity
8
1
6
CONTINUOUS
62
5
100
AcDb2dPolyline
66
1
10
0.0
20
0.0
30
0.0
70
0
0
VERTEX
5
96
100
AcDbEntity
8
1
100
AcDbVertex
100
AcDb2dVertex
62
5
10
-8.100000
20
122.600000
0
VERTEX
5
97
100
AcDbEntity
8
1
100
AcDbVertex
100
AcDb2dVertex
62
5
10
-8.100000
20
124.475000
0
VERTEX
5
98
100
AcDbEntity
8
1
100
AcDbVertex
100
AcDb2dVertex
62
5
10
-1.600000
20
124.475000
0
VERTEX
5
99
100
AcDbEntity
8
1
100
AcDbVertex
100
AcDb2dVertex
62
5
10
-1.600000
20
122.600000
0
SEQEND
5
9a
100
AcDbEntity
8
1
0
POLYLINE
5
9b
100
AcDbEntity
8
1
6
CONTINUOUS
62
5
100
AcDb2dPolyline
66
1
10
0.0
20
0.0
30
0.0
70
0
0
VERTEX
5
9c
100
AcDbEntity
8
1
100
AcDbVertex
100
AcDb2dVertex
62
5
10
-7.100000
20
122.912500
0
VERTEX
5
9d
100
AcDbEntity
8
1
100
AcDbVertex
100
AcDb2dVertex
62
5
10
-2.600000
20
122.912500
0
VERTEX
5
9e
100
AcDbEntity
8
1
100
AcDbVertex
100
AcDb2dVertex
62
5
10
-4.850000
20
121.350000
0
VERTEX
5
9f
100
AcDbEntity
8
1
100
AcDbVertex
100
AcDb2dVertex
62
5
10
-4.350000
20
119.787500
0
VERTEX
5
a0
100
AcDbEntity
8
1
100
AcDbVertex
100
AcDb2dVertex
62
5
10
-4.350000
20
118.537500
0
VERTEX
5
a1
100
AcDbEntity
8
1
100
AcDbVertex
100
AcDb2dVertex
62
5
10
-4.850000
20
116.975000
0
VERTEX
5
a2
100
AcDbEntity
8
1
100
AcDbVertex
100
AcDb2dVertex
62
5
10
-5.600000
20
116.975000
0
SEQEND
5
a3
100
AcDbEntity
8
1
0
LINE
5
a4
100
AcDbEntity
8
1
100
AcDbLine
6
CONTINUOUS
62
5
10
-8.100000
20
120.100000
11
-1.350000
21
120.100000
0
LINE
5
a5
100
AcDbEntity
8
6
100
AcDbLine
6
DOT2
62
5
10
-19.725000
20
26.975434
11
-20.350000
21
26.350434
0
POLYLINE
5
a6
100
AcDbEntity
8
6
6
DOT2
62
5
100
AcDb2dPolyline
66
1
10
0.0
20
0.0
30
0.0
70
0
0
VERTEX
5
a7
100
AcDbEntity
8
6
100
AcDbVertex
100
AcDb2dVertex
62
5
10
-20.350000
20
26.975434
0
VERTEX
5
a8
100
AcDbEntity
8
6
100
AcDbVertex
100
AcDb2dVertex
62
5
10
-19.725000
20
26.350434
0
VERTEX
5
a9
100
AcDbEntity
8
6
100
AcDbVertex
100
AcDb2dVertex
62
5
10
-20.350000
20
26.350434
0
VERTEX
5
aa
100
AcDbEntity
8
6
100
AcDbVertex
100
AcDb2dVertex
62
5
10
-20.350000
20
26.975434
0
VERTEX
5
ab
100
AcDbEntity
8
6
100
AcDbVertex
100
AcDb2dVertex
62
5
10
-19.725000
20
26.975434
0
VERTEX
5
ac
100
AcDbEntity
8
6
100
AcDbVertex
100
AcDb2dVertex
62
5
10
-19.725000
20
26.350434
0
SEQEND
5
ad
100
AcDbEntity
8
6
0
POLYLINE
5
ae
100
AcDbEntity
8
6
6
DOT2
62
5
100
AcDb2dPolyline
66
1
10
0.0
20
0.0
30
0.0
70
0
0
VERTEX
5
af
100
AcDbEntity
8
6
100
AcDbVertex
100
AcDb2dVertex
62
5
10
-15.350000
20
31.662934
0
VERTEX
5
b0
100
AcDbEntity
8
6
100
AcDbVertex
100
AcDb2dVertex
62
5
10
-15.037500
20
33.225434
0
VERTEX
5
b1
100
AcDbEntity
8
6
100
AcDbVertex
100
AcDb2dVertex
62
5
10
-14.100000
20
33.850434
0
VERTEX
5
b2
100
AcDbEntity
8
6
100
AcDbVertex
100
AcDb2dVertex
62
5
10
-13.162500
20
33.850434
0
VERTEX
5
b3
100
AcDbEntity
8
6
100
AcDbVertex
100
AcDb2dVertex
62
5
10
-12.537500
20
33.537934
0
VERTEX
5
b4
100
AcDbEntity
8
6
100
AcDbVertex
100
AcDb2dVertex
62
5
10
-12.225000
20
32.600434
0
VERTEX
5
b5
100
AcDbEntity
8
6
100
AcDbVertex
100
AcDb2dVertex
62
5
10
-12.225000
20
31.662934
0
VERTEX
5
b6
100
AcDbEntity
8
6
100
AcDbVertex
100
AcDb2dVertex
62
5
10
-12.537500
20
30.725434
0
VERTEX
5
b7
100
AcDbEntity
8
6
100
AcDbVertex
100
AcDb2dVertex
62
5
10
-15.350000
20
26.350434
0
VERTEX
5
b8
100
AcDbEntity
8
6
100
AcDbVertex
100
AcDb2dVertex
62
5
10
-12.225000
20
26.350434
0
VERTEX
5
b9
100
AcDbEntity
8
6
100
AcDbVertex
100
AcDb2dVertex
62
5
10
-12.225000
20
27.287934
0
SEQEND
5
ba
100
AcDbEntity
8
6
0
LINE
5
bb
100
AcDbEntity
8
6
100
AcDbLine
6
DOT2
62
5
10
23.125000
20
-20.824566
11
23.750000
21
-21.449566
0
POLYLINE
5
bc
100
AcDbEntity
8
6
6
DOT2
62
5
100
AcDb2dPolyline
66
1
10
0.0
20
0.0
30
0.0
70
0
0
VERTEX
5
bd
100
AcDbEntity
8
6
100
AcDbVertex
100
AcDb2dVertex
62
5
10
23.125000
20
-21.449566
0
VERTEX
5
be
100
AcDbEntity
8
6
100
AcDbVertex
100
AcDb2dVertex
62
5
10
23.750000
20
-20.824566
0
VERTEX
5
bf
100
AcDbEntity
8
6
100
AcDbVertex
100
AcDb2dVertex
62
5
10
23.750000
20
-21.449566
0
VERTEX
5
c0
100
AcDbEntity
8
6
100
AcDbVertex
100
AcDb2dVertex
62
5
10
23.125000
20
-21.449566
0
VERTEX
5
c1
100
AcDbEntity
8
6
100
AcDbVertex
100
AcDb2dVertex
62
5
10
23.125000
20
-20.824566
0
VERTEX
5
c2
100
AcDbEntity
8
6
100
AcDbVertex
100
AcDb2dVertex
62
5
10
23.750000
20
-20.824566
0
SEQEND
5
c3
100
AcDbEntity
8
6
0
POLYLINE
5
c4
100
AcDbEntity
8
1
6
CONTINUOUS
62
5
100
AcDb2dPolyline
66
1
10
0.0
20
0.0
30
0.0
70
0
0
VERTEX
5
c5
100
AcDbEntity
8
1
100
AcDbVertex
100
AcDb2dVertex
62
5
10
-11.037500
20
-21.293316
0
VERTEX
5
c6
100
AcDbEntity
8
1
100
AcDbVertex
100
AcDb2dVertex
62
5
10
-10.217187
20
-21.293316
0
VERTEX
5
c7
100
AcDbEntity
8
1
100
AcDbVertex
100
AcDb2dVertex
62
5
10
-10.217187
20
-22.113629
0
VERTEX
5
c8
100
AcDbEntity
8
1
100
AcDbVertex
100
AcDb2dVertex
62
5
10
-10.803125
20
-23.285504
0
VERTEX
5
c9
100
AcDbEntity
8
1
100
AcDbVertex
100
AcDb2dVertex
62
5
10
-11.740625
20
-24.223004
0
SEQEND
5
ca
100
AcDbEntity
8
1
0
POLYLINE
5
cb
100
AcDbEntity
8
1
6
CONTINUOUS
62
5
100
AcDb2dPolyline
66
1
10
0.0
20
0.0
30
0.0
70
0
0
VERTEX
5
cc
100
AcDbEntity
8
1
100
AcDbVertex
100
AcDb2dVertex
62
5
10
-10.217187
20
-22.113629
0
VERTEX
5
cd
100
AcDbEntity
8
1
100
AcDbVertex
100
AcDb2dVertex
62
5
10
-9.865625
20
-22.933941
0
VERTEX
5
ce
100
AcDbEntity
8
1
100
AcDbVertex
100
AcDb2dVertex
62
5
10
-9.279687
20
-23.754254
0
VERTEX
5
cf
100
AcDbEntity
8
1
100
AcDbVertex
100
AcDb2dVertex
62
5
10
-8.576562
20
-24.223004
0
SEQEND
5
d0
100
AcDbEntity
8
1
0
LINE
5
d1
100
AcDbEntity
8
1
100
AcDbLine
6
CONTINUOUS
62
5
10
-17.567188
20
-9.001233
11
-13.524687
21
-9.001233
0
POLYLINE
5
d2
100
AcDbEntity
8
1
6
CONTINUOUS
62
5
100
AcDb2dPolyline
66
1
10
0.0
20
0.0
30
0.0
70
0
0
VERTEX
5
d3
100
AcDbEntity
8
1
100
AcDbVertex
100
AcDb2dVertex
62
5
10
-17.904063
20
-13.298108
0
VERTEX
5
d4
100
AcDbEntity
8
1
100
AcDbVertex
100
AcDb2dVertex
62
5
10
-17.398750
20
-12.094983
0
VERTEX
5
d5
100
AcDbEntity
8
1
100
AcDbVertex
100
AcDb2dVertex
62
5
10
-17.230313
20
-10.548108
0
VERTEX
5
d6
100
AcDbEntity
8
1
100
AcDbVertex
100
AcDb2dVertex
62
5
10
-17.230313
20
-9.516858
0
VERTEX
5
d7
100
AcDbEntity
8
1
100
AcDbVertex
100
AcDb2dVertex
62
5
10
-13.693125
20
-9.516858
0
VERTEX
5
d8
100
AcDbEntity
8
1
100
AcDbVertex
100
AcDb2dVertex
62
5
10
-13.693125
20
-10.548108
0
VERTEX
5
d9
100
AcDbEntity
8
1
100
AcDbVertex
100
AcDb2dVertex
62
5
10
-17.230313
20
-10.548108
0
SEQEND
5
da
100
AcDbEntity
8
1
0
POLYLINE
5
db
100
AcDbEntity
8
1
6
CONTINUOUS
62
5
100
AcDb2dPolyline
66
1
10
0.0
20
0.0
30
0.0
70
0
0
VERTEX
5
dc
100
AcDbEntity
8
1
100
AcDbVertex
100
AcDb2dVertex
62
5
10
-16.893438
20
-11.063733
0
VERTEX
5
dd
100
AcDbEntity
8
1
100
AcDbVertex
100
AcDb2dVertex
62
5
10
-15.545938
20
-11.063733
0
VERTEX
5
de
100
AcDbEntity
8
1
100
AcDbVertex
100
AcDb2dVertex
62
5
10
-15.545938
20
-12.954358
0
VERTEX
5
df
100
AcDbEntity
8
1
100
AcDbVertex
100
AcDb2dVertex
62
5
10
-15.882813
20
-13.298108
0
VERTEX
5
e0
100
AcDbEntity
8
1
100
AcDbVertex
100
AcDb2dVertex
62
5
10
-16.219688
20
-13.298108
0
SEQEND
5
e1
100
AcDbEntity
8
1
0
LINE
5
e2
100
AcDbEntity
8
1
100
AcDbLine
6
CONTINUOUS
62
5
10
-16.725000
20
-11.579358
11
-16.219688
21
-11.923108
0
LINE
5
e3
100
AcDbEntity
8
1
100
AcDbLine
6
CONTINUOUS
62
5
10
-16.051250
20
-12.266858
11
-17.061875
21
-12.954358
0
POLYLINE
5
e4
100
AcDbEntity
8
1
6
CONTINUOUS
62
5
100
AcDb2dPolyline
66
1
10
0.0
20
0.0
30
0.0
70
0
0
VERTEX
5
e5
100
AcDbEntity
8
1
100
AcDbVertex
100
AcDb2dVertex
62
5
10
-15.040625
20
-11.063733
0
VERTEX
5
e6
100
AcDbEntity
8
1
100
AcDbVertex
100
AcDb2dVertex
62
5
10
-13.524687
20
-11.063733
0
VERTEX
5
e7
100
AcDbEntity
8
1
100
AcDbVertex
100
AcDb2dVertex
62
5
10
-13.524687
20
-12.954358
0
VERTEX
5
e8
100
AcDbEntity
8
1
100
AcDbVertex
100
AcDb2dVertex
62
5
10
-13.861562
20
-13.298108
0
VERTEX
5
e9
100
AcDbEntity
8
1
100
AcDbVertex
100
AcDb2dVertex
62
5
10
-14.198437
20
-13.298108
0
SEQEND
5
ea
100
AcDbEntity
8
1
0
LINE
5
eb
100
AcDbEntity
8
1
100
AcDbLine
6
CONTINUOUS
62
5
10
-14.872188
20
-11.579358
11
-14.366875
21
-11.923108
0
LINE
5
ec
100
AcDbEntity
8
1
100
AcDbLine
6
CONTINUOUS
62
5
10
-14.030000
20
-12.266858
11
-15.040625
21
-12.954358
0
POLYLINE
5
ed
100
AcDbEntity
8
6
6
DOT2
62
5
100
AcDb2dPolyline
66
1
10
0.0
20
0.0
30
0.0
70
0
0
VERTEX
5
ee
100
AcDbEntity
8
6
100
AcDbVertex
100
AcDb2dVertex
62
5
10
16.250000
20
-28.949566
0
VERTEX
5
ef
100
AcDbEntity
8
6
100
AcDbVertex
100
AcDb2dVertex
62
5
10
21.875000
20
-31.762066
0
VERTEX
5
f0
100
AcDbEntity
8
6
100
AcDbVertex
100
AcDb2dVertex
62
5
10
21.875000
20
-28.012066
0
SEQEND
5
f1
100
AcDbEntity
8
6
0
LINE
5
f2
100
AcDbEntity
8
6
100
AcDbLine
6
DOT2
62
5
10
16.250000
20
-28.949566
11
23.750000
21
-28.949566
0
LINE
5
f3
100
AcDbEntity
8
6
100
AcDbLine
6
DOT2
62
5
10
23.750000
20
-29.574566
11
23.750000
21
-28.324566
0
LINE
5
f4
100
AcDbEntity
8
6
100
AcDbLine
6
DOT2
62
5
10
16.250000
20
-26.449566
11
16.250000
21
-23.637066
0
POLYLINE
5
f5
100
AcDbEntity
8
6
6
DOT2
62
5
100
AcDb2dPolyline
66
1
10
0.0
20
0.0
30
0.0
70
0
0
VERTEX
5
f6
100
AcDbEntity
8
6
100
AcDbVertex
100
AcDb2dVertex
62
5
10
16.250000
20
-26.449566
0
VERTEX
5
f7
100
AcDbEntity
8
6
100
AcDbVertex
100
AcDb2dVertex
62
5
10
20.000000
20
-26.449566
0
VERTEX
5
f8
100
AcDbEntity
8
6
100
AcDbVertex
100
AcDb2dVertex
62
5
10
19.375000
20
-25.824566
0
VERTEX
5
f9
100
AcDbEntity
8
6
100
AcDbVertex
100
AcDb2dVertex
62
5
10
19.062500
20
-25.199566
0
VERTEX
5
fa
100
AcDbEntity
8
6
100
AcDbVertex
100
AcDb2dVertex
62
5
10
19.062500
20
-24.262066
0
VERTEX
5
fb
100
AcDbEntity
8
6
100
AcDbVertex
100
AcDb2dVertex
62
5
10
19.375000
20
-23.637066
0
VERTEX
5
fc
100
AcDbEntity
8
6
100
AcDbVertex
100
AcDb2dVertex
62
5
10
20.312500
20
-23.324566
0
VERTEX
5
fd
100
AcDbEntity
8
6
100
AcDbVertex
100
AcDb2dVertex
62
5
10
22.187500
20
-23.324566
0
VERTEX
5
fe
100
AcDbEntity
8
6
100
AcDbVertex
100
AcDb2dVertex
62
5
10
23.125000
20
-23.949566
0
VERTEX
5
ff
100
AcDbEntity
8
6
100
AcDbVertex
100
AcDb2dVertex
62
5
10
23.750000
20
-24.887066
0
VERTEX
5
100
100
AcDbEntity
8
6
100
AcDbVertex
100
AcDb2dVertex
62
5
10
23.750000
20
-26.449566
0
SEQEND
5
101
100
AcDbEntity
8
6
0
POLYLINE
5
102
100
AcDbEntity
8
6
6
DOT2
62
5
100
AcDb2dPolyline
66
1
10
0.0
20
0.0
30
0.0
70
0
0
VERTEX
5
103
100
AcDbEntity
8
6
100
AcDbVertex
100
AcDb2dVertex
62
5
10
16.250000
20
-13.949566
0
VERTEX
5
104
100
AcDbEntity
8
6
100
AcDbVertex
100
AcDb2dVertex
62
5
10
16.250000
20
-14.887066
0
VERTEX
5
105
100
AcDbEntity
8
6
100
AcDbVertex
100
AcDb2dVertex
62
5
10
16.562500
20
-15.824566
0
VERTEX
5
106
100
AcDbEntity
8
6
100
AcDbVertex
100
AcDb2dVertex
62
5
10
17.812500
20
-16.449566
0
VERTEX
5
107
100
AcDbEntity
8
6
100
AcDbVertex
100
AcDb2dVertex
62
5
10
22.187500
20
-16.449566
0
VERTEX
5
108
100
AcDbEntity
8
6
100
AcDbVertex
100
AcDb2dVertex
62
5
10
23.125000
20
-16.137066
0
VERTEX
5
109
100
AcDbEntity
8
6
100
AcDbVertex
100
AcDb2dVertex
62
5
10
23.437500
20
-15.824566
0
VERTEX
5
10a
100
AcDbEntity
8
6
100
AcDbVertex
100
AcDb2dVertex
62
5
10
23.750000
20
-15.199566
0
VERTEX
5
10b
100
AcDbEntity
8
6
100
AcDbVertex
100
AcDb2dVertex
62
5
10
23.750000
20
-14.574566
0
VERTEX
5
10c
100
AcDbEntity
8
6
100
AcDbVertex
100
AcDb2dVertex
62
5
10
23.437500
20
-13.949566
0
VERTEX
5
10d
100
AcDbEntity
8
6
100
AcDbVertex
100
AcDb2dVertex
62
5
10
23.125000
20
-13.637066
0
VERTEX
5
10e
100
AcDbEntity
8
6
100
AcDbVertex
100
AcDb2dVertex
62
5
10
22.187500
20
-13.324566
0
VERTEX
5
10f
100
AcDbEntity
8
6
100
AcDbVertex
100
AcDb2dVertex
62
5
10
20.312500
20
-13.324566
0
VERTEX
5
110
100
AcDbEntity
8
6
100
AcDbVertex
100
AcDb2dVertex
62
5
10
19.687500
20
-13.637066
0
VERTEX
5
111
100
AcDbEntity
8
6
100
AcDbVertex
100
AcDb2dVertex
62
5
10
19.375000
20
-14.262066
0
VERTEX
5
112
100
AcDbEntity
8
6
100
AcDbVertex
100
AcDb2dVertex
62
5
10
19.375000
20
-15.512066
0
VERTEX
5
113
100
AcDbEntity
8
6
100
AcDbVertex
100
AcDb2dVertex
62
5
10
19.687500
20
-16.449566
0
SEQEND
5
114
100
AcDbEntity
8
6
0
LINE
5
115
100
AcDbEntity
8
1
100
AcDbLine
6
CONTINUOUS
62
5
10
-52.850000
20
125.725000
11
-52.850000
21
121.037500
0
LINE
5
116
100
AcDbEntity
8
1
100
AcDbLine
6
CONTINUOUS
62
5
10
-55.850000
20
124.162500
11
-49.850000
21
124.162500
0
LINE
5
117
100
AcDbEntity
8
1
100
AcDbLine
6
CONTINUOUS
62
5
10
-55.100000
20
122.600000
11
-50.350000
21
122.600000
0
LINE
5
118
100
AcDbEntity
8
1
100
AcDbLine
6
CONTINUOUS
62
5
10
-56.350000
20
121.037500
11
-49.100000
21
121.037500
0
POLYLINE
5
119
100
AcDbEntity
8
1
6
CONTINUOUS
62
5
100
AcDb2dPolyline
66
1
10
0.0
20
0.0
30
0.0
70
0
0
VERTEX
5
11a
100
AcDbEntity
8
1
100
AcDbVertex
100
AcDb2dVertex
62
5
10
-52.850000
20
121.037500
0
VERTEX
5
11b
100
AcDbEntity
8
1
100
AcDbVertex
100
AcDb2dVertex
62
5
10
-54.350000
20
119.475000
0
VERTEX
5
11c
100
AcDbEntity
8
1
100
AcDbVertex
100
AcDb2dVertex
62
5
10
-56.350000
20
118.225000
0
SEQEND
5
11d
100
AcDbEntity
8
1
0
LINE
5
11e
100
AcDbEntity
8
1
100
AcDbLine
6
CONTINUOUS
62
5
10
-54.350000
20
119.475000
11
-54.350000
21
117.287500
0
POLYLINE
5
11f
100
AcDbEntity
8
1
6
CONTINUOUS
62
5
100
AcDb2dPolyline
66
1
10
0.0
20
0.0
30
0.0
70
0
0
VERTEX
5
120
100
AcDbEntity
8
1
100
AcDbVertex
100
AcDb2dVertex
62
5
10
-55.600000
20
116.975000
0
VERTEX
5
121
100
AcDbEntity
8
1
100
AcDbVertex
100
AcDb2dVertex
62
5
10
-54.350000
20
117.287500
0
VERTEX
5
122
100
AcDbEntity
8
1
100
AcDbVertex
100
AcDb2dVertex
62
5
10
-53.350000
20
117.600000
0
VERTEX
5
123
100
AcDbEntity
8
1
100
AcDbVertex
100
AcDb2dVertex
62
5
10
-52.350000
20
118.225000
0
SEQEND
5
124
100
AcDbEntity
8
1
0
LINE
5
125
100
AcDbEntity
8
1
100
AcDbLine
6
CONTINUOUS
62
5
10
-50.100000
20
120.100000
11
-51.600000
21
118.850000
0
POLYLINE
5
126
100
AcDbEntity
8
1
6
CONTINUOUS
62
5
100
AcDb2dPolyline
66
1
10
0.0
20
0.0
30
0.0
70
0
0
VERTEX
5
127
100
AcDbEntity
8
1
100
AcDbVertex
100
AcDb2dVertex
62
5
10
-52.600000
20
120.412500
0
VERTEX
5
128
100
AcDbEntity
8
1
100
AcDbVertex
100
AcDb2dVertex
62
5
10
-51.600000
20
118.225000
0
VERTEX
5
129
100
AcDbEntity
8
1
100
AcDbVertex
100
AcDb2dVertex
62
5
10
-50.350000
20
117.287500
0
VERTEX
5
12a
100
AcDbEntity
8
1
100
AcDbVertex
100
AcDb2dVertex
62
5
10
-49.350000
20
116.975000
0
SEQEND
5
12b
100
AcDbEntity
8
1
0
POLYLINE
5
12c
100
AcDbEntity
8
1
6
CONTINUOUS
62
5
100
AcDb2dPolyline
66
1
10
0.0
20
0.0
30
0.0
70
0
0
VERTEX
5
12d
100
AcDbEntity
8
1
100
AcDbVertex
100
AcDb2dVertex
62
5
10
-56.100000
20
133.100000
0
VERTEX
5
12e
100
AcDbEntity
8
1
100
AcDbVertex
100
AcDb2dVertex
62
5
10
-56.600000
20
134.100000
0
VERTEX
5
12f
100
AcDbEntity
8
1
100
AcDbVertex
100
AcDb2dVertex
62
5
10
-57.350000
20
134.350000
0
VERTEX
5
130
100
AcDbEntity
8
1
100
AcDbVertex
100
AcDb2dVertex
62
5
10
-57.850000
20
134.350000
0
VERTEX
5
131
100
AcDbEntity
8
1
100
AcDbVertex
100
AcDb2dVertex
62
5
10
-58.350000
20
134.100000
0
VERTEX
5
132
100
AcDbEntity
8
1
100
AcDbVertex
100
AcDb2dVertex
62
5
10
-58.850000
20
133.350000
0
VERTEX
5
133
100
AcDbEntity
8
1
100
AcDbVertex
100
AcDb2dVertex
62
5
10
-58.850000
20
132.600000
0
VERTEX
5
134
100
AcDbEntity
8
1
100
AcDbVertex
100
AcDb2dVertex
62
5
10
-58.350000
20
131.850000
0
VERTEX
5
135
100
AcDbEntity
8
1
100
AcDbVertex
100
AcDb2dVertex
62
5
10
-56.600000
20
130.850000
0
VERTEX
5
136
100
AcDbEntity
8
1
100
AcDbVertex
100
AcDb2dVertex
62
5
10
-56.100000
20
130.100000
0
VERTEX
5
137
100
AcDbEntity
8
1
100
AcDbVertex
100
AcDb2dVertex
62
5
10
-56.100000
20
129.350000
0
VERTEX
5
138
100
AcDbEntity
8
1
100
AcDbVertex
100
AcDb2dVertex
62
5
10
-56.600000
20
128.600000
0
VERTEX
5
139
100
AcDbEntity
8
1
100
AcDbVertex
100
AcDb2dVertex
62
5
10
-57.350000
20
128.350000
0
VERTEX
5
13a
100
AcDbEntity
8
1
100
AcDbVertex
100
AcDb2dVertex
62
5
10
-57.850000
20
128.350000
0
VERTEX
5
13b
100
AcDbEntity
8
1
100
AcDbVertex
100
AcDb2dVertex
62
5
10
-58.600000
20
128.850000
0
VERTEX
5
13c
100
AcDbEntity
8
1
100
AcDbVertex
100
AcDb2dVertex
62
5
10
-58.850000
20
129.850000
0
SEQEND
5
13d
100
AcDbEntity
8
1
0
POLYLINE
5
13e
100
AcDbEntity
8
1
6
CONTINUOUS
62
5
100
AcDb2dPolyline
66
1
10
0.0
20
0.0
30
0.0
70
0
0
VERTEX
5
13f
100
AcDbEntity
8
1
100
AcDbVertex
100
AcDb2dVertex
62
5
10
-54.600000
20
134.350000
0
VERTEX
5
140
100
AcDbEntity
8
1
100
AcDbVertex
100
AcDb2dVertex
62
5
10
-54.600000
20
128.350000
0
VERTEX
5
141
100
AcDbEntity
8
1
100
AcDbVertex
100
AcDb2dVertex
62
5
10
-52.100000
20
128.350000
0
SEQEND
5
142
100
AcDbEntity
8
1
0
LINE
5
143
100
AcDbEntity
8
1
100
AcDbLine
6
CONTINUOUS
62
5
10
-50.100000
20
134.350000
11
-48.600000
21
134.350000
0
LINE
5
144
100
AcDbEntity
8
1
100
AcDbLine
6
CONTINUOUS
62
5
10
-49.350000
20
134.350000
11
-49.350000
21
128.350000
0
LINE
5
145
100
AcDbEntity
8
1
100
AcDbLine
6
CONTINUOUS
62
5
10
-50.100000
20
128.350000
11
-48.600000
21
128.350000
0
POLYLINE
5
146
100
AcDbEntity
8
1
6
CONTINUOUS
62
5
100
AcDb2dPolyline
66
1
10
0.0
20
0.0
30
0.0
70
0
0
VERTEX
5
147
100
AcDbEntity
8
1
100
AcDbVertex
100
AcDb2dVertex
62
5
10
-46.600000
20
128.350000
0
VERTEX
5
148
100
AcDbEntity
8
1
100
AcDbVertex
100
AcDb2dVertex
62
5
10
-46.600000
20
134.350000
0
VERTEX
5
149
100
AcDbEntity
8
1
100
AcDbVertex
100
AcDb2dVertex
62
5
10
-45.350000
20
128.350000
0
VERTEX
5
14a
100
AcDbEntity
8
1
100
AcDbVertex
100
AcDb2dVertex
62
5
10
-44.100000
20
134.350000
0
VERTEX
5
14b
100
AcDbEntity
8
1
100
AcDbVertex
100
AcDb2dVertex
62
5
10
-44.100000
20
128.350000
0
SEQEND
5
14c
100
AcDbEntity
8
1
0
POLYLINE
5
14d
100
AcDbEntity
8
1
6
CONTINUOUS
62
5
100
AcDb2dPolyline
66
1
10
0.0
20
0.0
30
0.0
70
0
0
VERTEX
5
14e
100
AcDbEntity
8
1
100
AcDbVertex
100
AcDb2dVertex
62
5
10
-57.350000
20
115.725000
0
VERTEX
5
14f
100
AcDbEntity
8
1
100
AcDbVertex
100
AcDb2dVertex
62
5
10
-58.100000
20
114.475000
0
VERTEX
5
150
100
AcDbEntity
8
1
100
AcDbVertex
100
AcDb2dVertex
62
5
10
-58.850000
20
113.537500
0
VERTEX
5
151
100
AcDbEntity
8
1
100
AcDbVertex
100
AcDb2dVertex
62
5
10
-59.850000
20
112.600000
0
SEQEND
5
152
100
AcDbEntity
8
1
0
POLYLINE
5
153
100
AcDbEntity
8
1
6
CONTINUOUS
62
5
100
AcDb2dPolyline
66
1
10
0.0
20
0.0
30
0.0
70
0
0
VERTEX
5
154
100
AcDbEntity
8
1
100
AcDbVertex
100
AcDb2dVertex
62
5
10
-57.600000
20
115.100000
0
VERTEX
5
155
100
AcDbEntity
8
1
100
AcDbVertex
100
AcDb2dVertex
62
5
10
-55.350000
20
115.100000
0
VERTEX
5
156
100
AcDbEntity
8
1
100
AcDbVertex
100
AcDb2dVertex
62
5
10
-56.600000
20
113.225000
0
SEQEND
5
157
100
AcDbEntity
8
1
0
POLYLINE
5
158
100
AcDbEntity
8
1
6
CONTINUOUS
62
5
100
AcDb2dPolyline
66
1
10
0.0
20
0.0
30
0.0
70
0
0
VERTEX
5
159
100
AcDbEntity
8
1
100
AcDbVertex
100
AcDb2dVertex
62
5
10
-58.850000
20
113.225000
0
VERTEX
5
15a
100
AcDbEntity
8
1
100
AcDbVertex
100
AcDb2dVertex
62
5
10
-54.350000
20
113.225000
0
VERTEX
5
15b
100
AcDbEntity
8
1
100
AcDbVertex
100
AcDb2dVertex
62
5
10
-54.350000
20
110.412500
0
VERTEX
5
15c
100
AcDbEntity
8
1
100
AcDbVertex
100
AcDb2dVertex
62
5
10
-58.850000
20
110.412500
0
SEQEND
5
15d
100
AcDbEntity
8
1
0
LINE
5
15e
100
AcDbEntity
8
1
100
AcDbLine
6
CONTINUOUS
62
5
10
-56.600000
20
113.225000
11
-56.600000
21
110.412500
0
POLYLINE
5
15f
100
AcDbEntity
8
1
6
CONTINUOUS
62
5
100
AcDb2dPolyline
66
1
10
0.0
20
0.0
30
0.0
70
0
0
VERTEX
5
160
100
AcDbEntity
8
1
100
AcDbVertex
100
AcDb2dVertex
62
5
10
-58.850000
20
113.225000
0
VERTEX
5
161
100
AcDbEntity
8
1
100
AcDbVertex
100
AcDb2dVertex
62
5
10
-58.850000
20
107.912500
0
VERTEX
5
162
100
AcDbEntity
8
1
100
AcDbVertex
100
AcDb2dVertex
62
5
10
-58.350000
20
107.287500
0
VERTEX
5
163
100
AcDbEntity
8
1
100
AcDbVertex
100
AcDb2dVertex
62
5
10
-53.350000
20
107.287500
0
VERTEX
5
164
100
AcDbEntity
8
1
100
AcDbVertex
100
AcDb2dVertex
62
5
10
-53.350000
20
108.537500
0
SEQEND
5
165
100
AcDbEntity
8
1
0
LINE
5
166
100
AcDbEntity
8
1
100
AcDbLine
6
CONTINUOUS
62
5
10
-47.100000
20
125.100000
11
-42.600000
21
125.100000
0
LINE
5
167
100
AcDbEntity
8
1
100
AcDbLine
6
CONTINUOUS
62
5
10
-48.350000
20
122.912500
11
-41.350000
21
122.912500
0
POLYLINE
5
168
100
AcDbEntity
8
1
6
CONTINUOUS
62
5
100
AcDb2dPolyline
66
1
10
0.0
20
0.0
30
0.0
70
0
0
VERTEX
5
169
100
AcDbEntity
8
1
100
AcDbVertex
100
AcDb2dVertex
62
5
10
-44.850000
20
122.912500
0
VERTEX
5
16a
100
AcDbEntity
8
1
100
AcDbVertex
100
AcDb2dVertex
62
5
10
-44.850000
20
117.287500
0
VERTEX
5
16b
100
AcDbEntity
8
1
100
AcDbVertex
100
AcDb2dVertex
62
5
10
-45.350000
20
116.662500
0
VERTEX
5
16c
100
AcDbEntity
8
1
100
AcDbVertex
100
AcDb2dVertex
62
5
10
-45.850000
20
116.662500
0
SEQEND
5
16d
100
AcDbEntity
8
1
0
POLYLINE
5
16e
100
AcDbEntity
8
1
6
CONTINUOUS
62
5
100
AcDb2dPolyline
66
1
10
0.0
20
0.0
30
0.0
70
0
0
VERTEX
5
16f
100
AcDbEntity
8
1
100
AcDbVertex
100
AcDb2dVertex
62
5
10
-46.600000
20
120.412500
0
VERTEX
5
170
100
AcDbEntity
8
1
100
AcDbVertex
100
AcDb2dVertex
62
5
10
-47.100000
20
119.162500
0
VERTEX
5
171
100
AcDbEntity
8
1
100
AcDbVertex
100
AcDb2dVertex
62
5
10
-48.100000
20
117.912500
0
SEQEND
5
172
100
AcDbEntity
8
1
0
POLYLINE
5
173
100
AcDbEntity
8
1
6
CONTINUOUS
62
5
100
AcDb2dPolyline
66
1
10
0.0
20
0.0
30
0.0
70
0
0
VERTEX
5
174
100
AcDbEntity
8
1
100
AcDbVertex
100
AcDb2dVertex
62
5
10
-43.350000
20
120.412500
0
VERTEX
5
175
100
AcDbEntity
8
1
100
AcDbVertex
100
AcDb2dVertex
62
5
10
-42.350000
20
119.475000
0
VERTEX
5
176
100
AcDbEntity
8
1
100
AcDbVertex
100
AcDb2dVertex
62
5
10
-41.600000
20
117.912500
0
SEQEND
5
177
100
AcDbEntity
8
1
0
LINE
5
178
100
AcDbEntity
8
1
100
AcDbLine
6
CONTINUOUS
62
5
10
-36.850000
20
125.725000
11
-36.850000
21
124.787500
0
POLYLINE
5
179
100
AcDbEntity
8
1
6
CONTINUOUS
62
5
100
AcDb2dPolyline
66
1
10
0.0
20
0.0
30
0.0
70
0
0
VERTEX
5
17a
100
AcDbEntity
8
1
100
AcDbVertex
100
AcDb2dVertex
62
5
10
-40.100000
20
122.912500
0
VERTEX
5
17b
100
AcDbEntity
8
1
100
AcDbVertex
100
AcDb2dVertex
62
5
10
-40.100000
20
124.787500
0
VERTEX
5
17c
100
AcDbEntity
8
1
100
AcDbVertex
100
AcDb2dVertex
62
5
10
-33.600000
20
124.787500
0
VERTEX
5
17d
100
AcDbEntity
8
1
100
AcDbVertex
100
AcDb2dVertex
62
5
10
-33.600000
20
122.912500
0
SEQEND
5
17e
100
AcDbEntity
8
1
0
POLYLINE
5
17f
100
AcDbEntity
8
1
6
CONTINUOUS
62
5
100
AcDb2dPolyline
66
1
10
0.0
20
0.0
30
0.0
70
0
0
VERTEX
5
180
100
AcDbEntity
8
1
100
AcDbVertex
100
AcDb2dVertex
62
5
10
-37.850000
20
124.162500
0
VERTEX
5
181
100
AcDbEntity
8
1
100
AcDbVertex
100
AcDb2dVertex
62
5
10
-38.350000
20
122.912500
0
VERTEX
5
182
100
AcDbEntity
8
1
100
AcDbVertex
100
AcDb2dVertex
62
5
10
-39.350000
20
122.287500
0
SEQEND
5
183
100
AcDbEntity
8
1
0
POLYLINE
5
184
100
AcDbEntity
8
1
6
CONTINUOUS
62
5
100
AcDb2dPolyline
66
1
10
0.0
20
0.0
30
0.0
70
0
0
VERTEX
5
185
100
AcDbEntity
8
1
100
AcDbVertex
100
AcDb2dVertex
62
5
10
-36.350000
20
124.162500
0
VERTEX
5
186
100
AcDbEntity
8
1
100
AcDbVertex
100
AcDb2dVertex
62
5
10
-36.350000
20
122.287500
0
VERTEX
5
187
100
AcDbEntity
8
1
100
AcDbVertex
100
AcDb2dVertex
62
5
10
-34.350000
20
122.287500
0
VERTEX
5
188
100
AcDbEntity
8
1
100
AcDbVertex
100
AcDb2dVertex
62
5
10
-34.600000
20
123.537500
0
SEQEND
5
189
100
AcDbEntity
8
1
0
LINE
5
18a
100
AcDbEntity
8
1
100
AcDbLine
6
CONTINUOUS
62
5
10
-37.350000
20
122.600000
11
-38.850000
21
120.412500
0
LINE
5
18b
100
AcDbEntity
8
1
100
AcDbLine
6
CONTINUOUS
62
5
10
-39.600000
20
120.412500
11
-34.600000
21
120.412500
0
LINE
5
18c
100
AcDbEntity
8
1
100
AcDbLine
6
CONTINUOUS
62
5
10
-35.850000
20
121.662500
11
-34.350000
21
120.100000
0
POLYLINE
5
18d
100
AcDbEntity
8
1
6
CONTINUOUS
62
5
100
AcDb2dPolyline
66
1
10
0.0
20
0.0
30
0.0
70
0
0
VERTEX
5
18e
100
AcDbEntity
8
1
100
AcDbVertex
100
AcDb2dVertex
62
5
10
-39.350000
20
119.162500
0
VERTEX
5
18f
100
AcDbEntity
8
1
100
AcDbVertex
100
AcDb2dVertex
62
5
10
-39.600000
20
117.912500
0
VERTEX
5
190
100
AcDbEntity
8
1
100
AcDbVertex
100
AcDb2dVertex
62
5
10
-40.100000
20
116.975000
0
SEQEND
5
191
100
AcDbEntity
8
1
0
POLYLINE
5
192
100
AcDbEntity
8
1
6
CONTINUOUS
62
5
100
AcDb2dPolyline
66
1
10
0.0
20
0.0
30
0.0
70
0
0
VERTEX
5
193
100
AcDbEntity
8
1
100
AcDbVertex
100
AcDb2dVertex
62
5
10
-38.350000
20
119.475000
0
VERTEX
5
194
100
AcDbEntity
8
1
100
AcDbVertex
100
AcDb2dVertex
62
5
10
-38.350000
20
117.287500
0
VERTEX
5
195
100
AcDbEntity
8
1
100
AcDbVertex
100
AcDb2dVertex
62
5
10
-38.100000
20
116.662500
0
VERTEX
5
196
100
AcDbEntity
8
1
100
AcDbVertex
100
AcDb2dVertex
62
5
10
-36.100000
20
116.662500
0
VERTEX
5
197
100
AcDbEntity
8
1
100
AcDbVertex
100
AcDb2dVertex
62
5
10
-35.100000
20
117.600000
0
SEQEND
5
198
100
AcDbEntity
8
1
0
LINE
5
199
100
AcDbEntity
8
1
100
AcDbLine
6
CONTINUOUS
62
5
10
-35.100000
20
119.475000
11
-33.850000
21
117.600000
0
LINE
5
19a
100
AcDbEntity
8
1
100
AcDbLine
6
CONTINUOUS
62
5
10
-37.350000
20
119.787500
11
-36.600000
21
118.537500
0
POLYLINE
5
19b
100
AcDbEntity
8
1
6
CONTINUOUS
62
5
100
AcDb2dPolyline
66
1
10
0.0
20
0.0
30
0.0
70
0
0
VERTEX
5
19c
100
AcDbEntity
8
1
100
AcDbVertex
100
AcDb2dVertex
62
5
10
-30.100000
20
125.412500
0
VERTEX
5
19d
100
AcDbEntity
8
1
100
AcDbVertex
100
AcDb2dVertex
62
5
10
-31.100000
20
122.600000
0
VERTEX
5
19e
100
AcDbEntity
8
1
100
AcDbVertex
100
AcDb2dVertex
62
5
10
-32.350000
20
120.412500
0
SEQEND
5
19f
100
AcDbEntity
8
1
0
LINE
5
1a0
100
AcDbEntity
8
1
100
AcDbLine
6
CONTINUOUS
62
5
10
-31.100000
20
122.600000
11
-31.100000
21
116.662500
0
LINE
5
1a1
100
AcDbEntity
8
1
100
AcDbLine
6
CONTINUOUS
62
5
10
-30.350000
20
122.600000
11
-25.100000
21
122.600000
0
POLYLINE
5
1a2
100
AcDbEntity
8
1
6
CONTINUOUS
62
5
100
AcDb2dPolyline
66
1
10
0.0
20
0.0
30
0.0
70
0
0
VERTEX
5
1a3
100
AcDbEntity
8
1
100
AcDbVertex
100
AcDb2dVertex
62
5
10
-26.850000
20
125.412500
0
VERTEX
5
1a4
100
AcDbEntity
8
1
100
AcDbVertex
100
AcDb2dVertex
62
5
10
-26.850000
20
116.975000
0
VERTEX
5
1a5
100
AcDbEntity
8
1
100
AcDbVertex
100
AcDb2dVertex
62
5
10
-28.350000
20
117.287500
0
SEQEND
5
1a6
100
AcDbEntity
8
1
0
LINE
5
1a7
100
AcDbEntity
8
1
100
AcDbLine
6
CONTINUOUS
62
5
10
-29.350000
20
121.350000
11
-28.350000
21
119.475000
0
POLYLINE
5
1a8
100
AcDbEntity
8
1
6
CONTINUOUS
62
5
100
AcDb2dPolyline
66
1
10
0.0
20
0.0
30
0.0
70
0
0
VERTEX
5
1a9
100
AcDbEntity
8
1
100
AcDbVertex
100
AcDb2dVertex
62
5
10
-71.100000
20
125.100000
0
VERTEX
5
1aa
100
AcDbEntity
8
1
100
AcDbVertex
100
AcDb2dVertex
62
5
10
-71.100000
20
119.475000
0
VERTEX
5
1ab
100
AcDbEntity
8
1
100
AcDbVertex
100
AcDb2dVertex
62
5
10
-71.600000
20
118.225000
0
VERTEX
5
1ac
100
AcDbEntity
8
1
100
AcDbVertex
100
AcDb2dVertex
62
5
10
-72.100000
20
117.287500
0
SEQEND
5
1ad
100
AcDbEntity
8
1
0
POLYLINE
5
1ae
100
AcDbEntity
8
1
6
CONTINUOUS
62
5
100
AcDb2dPolyline
66
1
10
0.0
20
0.0
30
0.0
70
0
0
VERTEX
5
1af
100
AcDbEntity
8
1
100
AcDbVertex
100
AcDb2dVertex
62
5
10
-67.100000
20
117.600000
0
VERTEX
5
1b0
100
AcDbEntity
8
1
100
AcDbVertex
100
AcDb2dVertex
62
5
10
-66.100000
20
116.975000
0
VERTEX
5
1b1
100
AcDbEntity
8
1
100
AcDbVertex
100
AcDb2dVertex
62
5
10
-66.100000
20
125.100000
0
VERTEX
5
1b2
100
AcDbEntity
8
1
100
AcDbVertex
100
AcDb2dVertex
62
5
10
-71.100000
20
125.100000
0
SEQEND
5
1b3
100
AcDbEntity
8
1
0
LINE
5
1b4
100
AcDbEntity
8
1
100
AcDbLine
6
CONTINUOUS
62
5
10
-71.100000
20
122.600000
11
-66.100000
21
122.600000
0
LINE
5
1b5
100
AcDbEntity
8
1
100
AcDbLine
6
CONTINUOUS
62
5
10
-68.600000
20
125.100000
11
-68.600000
21
116.975000
0
LINE
5
1b6
100
AcDbEntity
8
1
100
AcDbLine
6
CONTINUOUS
62
5
10
-71.100000
20
120.100000
11
-66.100000
21
120.100000
0
POLYLINE
5
1b7
100
AcDbEntity
8
1
6
CONTINUOUS
62
5
100
AcDb2dPolyline
66
1
10
0.0
20
0.0
30
0.0
70
0
0
VERTEX
5
1b8
100
AcDbEntity
8
1
100
AcDbVertex
100
AcDb2dVertex
62
5
10
-78.850000
20
134.350000
0
VERTEX
5
1b9
100
AcDbEntity
8
1
100
AcDbVertex
100
AcDb2dVertex
62
5
10
-78.100000
20
128.350000
0
VERTEX
5
1ba
100
AcDbEntity
8
1
100
AcDbVertex
100
AcDb2dVertex
62
5
10
-77.350000
20
134.350000
0
VERTEX
5
1bb
100
AcDbEntity
8
1
100
AcDbVertex
100
AcDb2dVertex
62
5
10
-76.600000
20
128.350000
0
VERTEX
5
1bc
100
AcDbEntity
8
1
100
AcDbVertex
100
AcDb2dVertex
62
5
10
-75.850000
20
134.350000
0
SEQEND
5
1bd
100
AcDbEntity
8
1
0
LINE
5
1be
100
AcDbEntity
8
1
100
AcDbLine
6
CONTINUOUS
62
5
10
-74.100000
20
134.350000
11
-72.600000
21
134.350000
0
LINE
5
1bf
100
AcDbEntity
8
1
100
AcDbLine
6
CONTINUOUS
62
5
10
-73.350000
20
134.350000
11
-73.350000
21
128.350000
0
LINE
5
1c0
100
AcDbEntity
8
1
100
AcDbLine
6
CONTINUOUS
62
5
10
-74.100000
20
128.350000
11
-72.600000
21
128.350000
0
LINE
5
1c1
100
AcDbEntity
8
1
100
AcDbLine
6
CONTINUOUS
62
5
10
-70.600000
20
134.350000
11
-70.600000
21
128.350000
0
POLYLINE
5
1c2
100
AcDbEntity
8
1
6
CONTINUOUS
62
5
100
AcDb2dPolyline
66
1
10
0.0
20
0.0
30
0.0
70
0
0
VERTEX
5
1c3
100
AcDbEntity
8
1
100
AcDbVertex
100
AcDb2dVertex
62
5
10
-70.600000
20
134.350000
0
VERTEX
5
1c4
100
AcDbEntity
8
1
100
AcDbVertex
100
AcDb2dVertex
62
5
10
-69.350000
20
134.350000
0
VERTEX
5
1c5
100
AcDbEntity
8
1
100
AcDbVertex
100
AcDb2dVertex
62
5
10
-68.850000
20
134.100000
0
VERTEX
5
1c6
100
AcDbEntity
8
1
100
AcDbVertex
100
AcDb2dVertex
62
5
10
-68.350000
20
133.600000
0
VERTEX
5
1c7
100
AcDbEntity
8
1
100
AcDbVertex
100
AcDb2dVertex
62
5
10
-68.100000
20
132.600000
0
VERTEX
5
1c8
100
AcDbEntity
8
1
100
AcDbVertex
100
AcDb2dVertex
62
5
10
-68.100000
20
130.100000
0
VERTEX
5
1c9
100
AcDbEntity
8
1
100
AcDbVertex
100
AcDb2dVertex
62
5
10
-68.350000
20
129.100000
0
VERTEX
5
1ca
100
AcDbEntity
8
1
100
AcDbVertex
100
AcDb2dVertex
62
5
10
-68.850000
20
128.600000
0
VERTEX
5
1cb
100
AcDbEntity
8
1
100
AcDbVertex
100
AcDb2dVertex
62
5
10
-69.350000
20
128.350000
0
VERTEX
5
1cc
100
AcDbEntity
8
1
100
AcDbVertex
100
AcDb2dVertex
62
5
10
-70.600000
20
128.350000
0
SEQEND
5
1cd
100
AcDbEntity
8
1
0
POLYLINE
5
1ce
100
AcDbEntity
8
1
6
CONTINUOUS
62
5
100
AcDb2dPolyline
66
1
10
0.0
20
0.0
30
0.0
70
0
0
VERTEX
5
1cf
100
AcDbEntity
8
1
100
AcDbVertex
100
AcDb2dVertex
62
5
10
-64.100000
20
134.350000
0
VERTEX
5
1d0
100
AcDbEntity
8
1
100
AcDbVertex
100
AcDb2dVertex
62
5
10
-66.600000
20
134.350000
0
VERTEX
5
1d1
100
AcDbEntity
8
1
100
AcDbVertex
100
AcDb2dVertex
62
5
10
-66.600000
20
128.350000
0
VERTEX
5
1d2
100
AcDbEntity
8
1
100
AcDbVertex
100
AcDb2dVertex
62
5
10
-63.850000
20
128.350000
0
SEQEND
5
1d3
100
AcDbEntity
8
1
0
LINE
5
1d4
100
AcDbEntity
8
1
100
AcDbLine
6
CONTINUOUS
62
5
10
-66.600000
20
131.350000
11
-64.350000
21
131.350000
0
LINE
5
1d5
100
AcDbEntity
8
1
100
AcDbLine
6
CONTINUOUS
62
5
10
-96.100000
20
134.600000
11
-98.600000
21
128.100000
0
POLYLINE
5
1d6
100
AcDbEntity
8
1
6
CONTINUOUS
62
5
100
AcDb2dPolyline
66
1
10
0.0
20
0.0
30
0.0
70
0
0
VERTEX
5
1d7
100
AcDbEntity
8
1
100
AcDbVertex
100
AcDb2dVertex
62
5
10
-88.350000
20
134.350000
0
VERTEX
5
1d8
100
AcDbEntity
8
1
100
AcDbVertex
100
AcDb2dVertex
62
5
10
-88.350000
20
129.850000
0
VERTEX
5
1d9
100
AcDbEntity
8
1
100
AcDbVertex
100
AcDb2dVertex
62
5
10
-88.600000
20
128.850000
0
VERTEX
5
1da
100
AcDbEntity
8
1
100
AcDbVertex
100
AcDb2dVertex
62
5
10
-89.100000
20
128.350000
0
VERTEX
5
1db
100
AcDbEntity
8
1
100
AcDbVertex
100
AcDb2dVertex
62
5
10
-89.850000
20
128.350000
0
VERTEX
5
1dc
100
AcDbEntity
8
1
100
AcDbVertex
100
AcDb2dVertex
62
5
10
-90.350000
20
128.850000
0
VERTEX
5
1dd
100
AcDbEntity
8
1
100
AcDbVertex
100
AcDb2dVertex
62
5
10
-90.600000
20
129.850000
0
SEQEND
5
1de
100
AcDbEntity
8
1
0
POLYLINE
5
1df
100
AcDbEntity
8
1
6
CONTINUOUS
62
5
100
AcDb2dPolyline
66
1
10
0.0
20
0.0
30
0.0
70
0
0
VERTEX
5
1e0
100
AcDbEntity
8
1
100
AcDbVertex
100
AcDb2dVertex
62
5
10
-84.350000
20
131.350000
0
VERTEX
5
1e1
100
AcDbEntity
8
1
100
AcDbVertex
100
AcDb2dVertex
62
5
10
-83.850000
20
131.850000
0
VERTEX
5
1e2
100
AcDbEntity
8
1
100
AcDbVertex
100
AcDb2dVertex
62
5
10
-83.600000
20
131.850000
0
VERTEX
5
1e3
100
AcDbEntity
8
1
100
AcDbVertex
100
AcDb2dVertex
62
5
10
-83.100000
20
131.350000
0
VERTEX
5
1e4
100
AcDbEntity
8
1
100
AcDbVertex
100
AcDb2dVertex
62
5
10
-83.100000
20
131.100000
0
VERTEX
5
1e5
100
AcDbEntity
8
1
100
AcDbVertex
100
AcDb2dVertex
62
5
10
-83.600000
20
130.600000
0
VERTEX
5
1e6
100
AcDbEntity
8
1
100
AcDbVertex
100
AcDb2dVertex
62
5
10
-83.850000
20
130.600000
0
VERTEX
5
1e7
100
AcDbEntity
8
1
100
AcDbVertex
100
AcDb2dVertex
62
5
10
-84.350000
20
131.100000
0
VERTEX
5
1e8
100
AcDbEntity
8
1
100
AcDbVertex
100
AcDb2dVertex
62
5
10
-84.350000
20
131.350000
0
VERTEX
5
1e9
100
AcDbEntity
8
1
100
AcDbVertex
100
AcDb2dVertex
62
5
10
-83.100000
20
131.350000
0
SEQEND
5
1ea
100
AcDbEntity
8
1
0
LINE
5
1eb
100
AcDbEntity
8
1
100
AcDbLine
6
CONTINUOUS
62
5
10
-83.100000
20
131.100000
11
-84.350000
21
131.100000
0
LINE
5
1ec
100
AcDbEntity
8
1
100
AcDbLine
6
CONTINUOUS
62
5
10
-84.100000
20
130.850000
11
-83.350000
21
130.850000
0
LINE
5
1ed
100
AcDbEntity
8
1
100
AcDbLine
6
CONTINUOUS
62
5
10
-83.350000
20
131.600000
11
-84.100000
21
131.600000
0
POLYLINE
5
1ee
100
AcDbEntity
8
1
6
CONTINUOUS
62
5
100
AcDb2dPolyline
66
1
10
0.0
20
0.0
30
0.0
70
0
0
VERTEX
5
1ef
100
AcDbEntity
8
1
100
AcDbVertex
100
AcDb2dVertex
62
5
10
-83.600000
20
122.912500
0
VERTEX
5
1f0
100
AcDbEntity
8
1
100
AcDbVertex
100
AcDb2dVertex
62
5
10
-83.350000
20
124.475000
0
VERTEX
5
1f1
100
AcDbEntity
8
1
100
AcDbVertex
100
AcDb2dVertex
62
5
10
-82.600000
20
125.100000
0
VERTEX
5
1f2
100
AcDbEntity
8
1
100
AcDbVertex
100
AcDb2dVertex
62
5
10
-81.850000
20
125.100000
0
VERTEX
5
1f3
100
AcDbEntity
8
1
100
AcDbVertex
100
AcDb2dVertex
62
5
10
-81.350000
20
124.787500
0
VERTEX
5
1f4
100
AcDbEntity
8
1
100
AcDbVertex
100
AcDb2dVertex
62
5
10
-81.100000
20
123.850000
0
VERTEX
5
1f5
100
AcDbEntity
8
1
100
AcDbVertex
100
AcDb2dVertex
62
5
10
-81.100000
20
122.912500
0
VERTEX
5
1f6
100
AcDbEntity
8
1
100
AcDbVertex
100
AcDb2dVertex
62
5
10
-81.350000
20
121.975000
0
VERTEX
5
1f7
100
AcDbEntity
8
1
100
AcDbVertex
100
AcDb2dVertex
62
5
10
-83.600000
20
117.600000
0
VERTEX
5
1f8
100
AcDbEntity
8
1
100
AcDbVertex
100
AcDb2dVertex
62
5
10
-81.100000
20
117.600000
0
VERTEX
5
1f9
100
AcDbEntity
8
1
100
AcDbVertex
100
AcDb2dVertex
62
5
10
-81.100000
20
118.537500
0
SEQEND
5
1fa
100
AcDbEntity
8
1
0
POLYLINE
5
1fb
100
AcDbEntity
8
1
6
CONTINUOUS
62
5
100
AcDb2dPolyline
66
1
10
0.0
20
0.0
30
0.0
70
0
0
VERTEX
5
1fc
100
AcDbEntity
8
1
100
AcDbVertex
100
AcDb2dVertex
62
5
10
-70.850000
20
114.787500
0
VERTEX
5
1fd
100
AcDbEntity
8
1
100
AcDbVertex
100
AcDb2dVertex
62
5
10
-72.850000
20
112.287500
0
VERTEX
5
1fe
100
AcDbEntity
8
1
100
AcDbVertex
100
AcDb2dVertex
62
5
10
-75.100000
20
110.725000
0
SEQEND
5
1ff
100
AcDbEntity
8
1
0
LINE
5
200
100
AcDbEntity
8
1
100
AcDbLine
6
CONTINUOUS
62
5
10
-72.350000
20
112.912500
11
-72.350000
21
107.600000
0
POLYLINE
5
201
100
AcDbEntity
8
1
6
CONTINUOUS
62
5
100
AcDb2dPolyline
66
1
10
0.0
20
0.0
30
0.0
70
0
0
VERTEX
5
202
100
AcDbEntity
8
1
100
AcDbVertex
100
AcDb2dVertex
62
5
10
-65.350000
20
112.287500
0
VERTEX
5
203
100
AcDbEntity
8
1
100
AcDbVertex
100
AcDb2dVertex
62
5
10
-65.100000
20
112.287500
0
VERTEX
5
204
100
AcDbEntity
8
1
100
AcDbVertex
100
AcDb2dVertex
62
5
10
-63.350000
20
111.037500
0
SEQEND
5
205
100
AcDbEntity
8
1
0
LINE
5
206
100
AcDbEntity
8
1
100
AcDbLine
6
CONTINUOUS
62
5
10
-65.350000
20
115.100000
11
-65.350000
21
107.600000
0
POLYLINE
5
207
100
AcDbEntity
8
1
6
CONTINUOUS
62
5
100
AcDb2dPolyline
66
1
10
0.0
20
0.0
30
0.0
70
0
0
VERTEX
5
208
100
AcDbEntity
8
1
100
AcDbVertex
100
AcDb2dVertex
62
5
10
-99.600000
20
113.537500
0
VERTEX
5
209
100
AcDbEntity
8
1
100
AcDbVertex
100
AcDb2dVertex
62
5
10
-94.350000
20
113.537500
0
VERTEX
5
20a
100
AcDbEntity
8
1
100
AcDbVertex
100
AcDb2dVertex
62
5
10
-94.350000
20
113.225000
0
VERTEX
5
20b
100
AcDbEntity
8
1
100
AcDbVertex
100
AcDb2dVertex
62
5
10
-96.100000
20
111.350000
0
VERTEX
5
20c
100
AcDbEntity
8
1
100
AcDbVertex
100
AcDb2dVertex
62
5
10
-96.850000
20
111.350000
0
SEQEND
5
20d
100
AcDbEntity
8
1
0
POLYLINE
5
20e
100
AcDbEntity
8
1
6
CONTINUOUS
62
5
100
AcDb2dPolyline
66
1
10
0.0
20
0.0
30
0.0
70
0
0
VERTEX
5
20f
100
AcDbEntity
8
1
100
AcDbVertex
100
AcDb2dVertex
62
5
10
-96.850000
20
112.287500
0
VERTEX
5
210
100
AcDbEntity
8
1
100
AcDbVertex
100
AcDb2dVertex
62
5
10
-96.850000
20
110.725000
0
VERTEX
5
211
100
AcDbEntity
8
1
100
AcDbVertex
100
AcDb2dVertex
62
5
10
-97.600000
20
108.850000
0
VERTEX
5
212
100
AcDbEntity
8
1
100
AcDbVertex
100
AcDb2dVertex
62
5
10
-98.600000
20
107.600000
0
SEQEND
5
213
100
AcDbEntity
8
1
0
LINE
5
214
100
AcDbEntity
8
1
100
AcDbLine
6
CONTINUOUS
62
5
10
-91.350000
20
112.287500
11
-86.350000
21
112.287500
0
POLYLINE
5
215
100
AcDbEntity
8
1
6
CONTINUOUS
62
5
100
AcDb2dPolyline
66
1
10
0.0
20
0.0
30
0.0
70
0
0
VERTEX
5
216
100
AcDbEntity
8
1
100
AcDbVertex
100
AcDb2dVertex
62
5
10
-88.850000
20
114.162500
0
VERTEX
5
217
100
AcDbEntity
8
1
100
AcDbVertex
100
AcDb2dVertex
62
5
10
-88.850000
20
107.912500
0
VERTEX
5
218
100
AcDbEntity
8
1
100
AcDbVertex
100
AcDb2dVertex
62
5
10
-89.350000
20
107.912500
0
SEQEND
5
219
100
AcDbEntity
8
1
0
LINE
5
21a
100
AcDbEntity
8
1
100
AcDbLine
6
CONTINUOUS
62
5
10
-90.100000
20
110.725000
11
-91.350000
21
108.850000
0
LINE
5
21b
100
AcDbEntity
8
1
100
AcDbLine
6
CONTINUOUS
62
5
10
-87.350000
20
110.725000
11
-86.100000
21
109.162500
0
POLYLINE
5
21c
100
AcDbEntity
8
1
6
CONTINUOUS
62
5
100
AcDb2dPolyline
66
1
10
0.0
20
0.0
30
0.0
70
0
0
VERTEX
5
21d
100
AcDbEntity
8
1
100
AcDbVertex
100
AcDb2dVertex
62
5
10
-82.850000
20
111.662500
0
VERTEX
5
21e
100
AcDbEntity
8
1
100
AcDbVertex
100
AcDb2dVertex
62
5
10
-82.850000
20
113.850000
0
VERTEX
5
21f
100
AcDbEntity
8
1
100
AcDbVertex
100
AcDb2dVertex
62
5
10
-78.850000
20
113.850000
0
VERTEX
5
220
100
AcDbEntity
8
1
100
AcDbVertex
100
AcDb2dVertex
62
5
10
-78.850000
20
112.912500
0
VERTEX
5
221
100
AcDbEntity
8
1
100
AcDbVertex
100
AcDb2dVertex
62
5
10
-79.100000
20
111.350000
0
VERTEX
5
222
100
AcDbEntity
8
1
100
AcDbVertex
100
AcDb2dVertex
62
5
10
-79.600000
20
110.100000
0
VERTEX
5
223
100
AcDbEntity
8
1
100
AcDbVertex
100
AcDb2dVertex
62
5
10
-80.100000
20
109.162500
0
VERTEX
5
224
100
AcDbEntity
8
1
100
AcDbVertex
100
AcDb2dVertex
62
5
10
-81.100000
20
107.912500
0
SEQEND
5
225
100
AcDbEntity
8
1
0
POLYLINE
5
226
100
AcDbEntity
8
1
6
CONTINUOUS
62
5
100
AcDb2dPolyline
66
1
10
0.0
20
0.0
30
0.0
70
0
0
VERTEX
5
227
100
AcDbEntity
8
1
100
AcDbVertex
100
AcDb2dVertex
62
5
10
-97.350000
20
124.787500
0
VERTEX
5
228
100
AcDbEntity
8
1
100
AcDbVertex
100
AcDb2dVertex
62
5
10
-97.350000
20
119.787500
0
VERTEX
5
229
100
AcDbEntity
8
1
100
AcDbVertex
100
AcDb2dVertex
62
5
10
-97.600000
20
118.537500
0
VERTEX
5
22a
100
AcDbEntity
8
1
100
AcDbVertex
100
AcDb2dVertex
62
5
10
-98.100000
20
117.600000
0
VERTEX
5
22b
100
AcDbEntity
8
1
100
AcDbVertex
100
AcDb2dVertex
62
5
10
-98.600000
20
116.975000
0
SEQEND
5
22c
100
AcDbEntity
8
1
0
LINE
5
22d
100
AcDbEntity
8
1
100
AcDbLine
6
CONTINUOUS
62
5
10
-99.600000
20
120.725000
11
-99.100000
21
123.225000
0
POLYLINE
5
22e
100
AcDbEntity
8
1
6
CONTINUOUS
62
5
100
AcDb2dPolyline
66
1
10
0.0
20
0.0
30
0.0
70
0
0
VERTEX
5
22f
100
AcDbEntity
8
1
100
AcDbVertex
100
AcDb2dVertex
62
5
10
-99.600000
20
120.725000
0
VERTEX
5
230
100
AcDbEntity
8
1
100
AcDbVertex
100
AcDb2dVertex
62
5
10
-99.850000
20
119.787500
0
VERTEX
5
231
100
AcDbEntity
8
1
100
AcDbVertex
100
AcDb2dVertex
62
5
10
-100.350000
20
118.537500
0
SEQEND
5
232
100
AcDbEntity
8
1
0
LINE
5
233
100
AcDbEntity
8
1
100
AcDbLine
6
CONTINUOUS
62
5
10
-95.600000
20
119.162500
11
-95.100000
21
118.225000
0
LINE
5
234
100
AcDbEntity
8
1
100
AcDbLine
6
CONTINUOUS
62
5
10
-100.350000
20
123.225000
11
-97.850000
21
123.225000
0
LINE
5
235
100
AcDbEntity
8
1
100
AcDbLine
6
CONTINUOUS
62
5
10
-99.100000
20
125.412500
11
-99.100000
21
116.662500
0
LINE
5
236
100
AcDbEntity
8
1
100
AcDbLine
6
CONTINUOUS
62
5
10
-99.100000
20
121.975000
11
-98.100000
21
120.100000
0
LINE
5
237
100
AcDbEntity
8
1
100
AcDbLine
6
CONTINUOUS
62
5
10
-93.350000
20
124.787500
11
-97.350000
21
124.787500
0
POLYLINE
5
238
100
AcDbEntity
8
1
6
CONTINUOUS
62
5
100
AcDb2dPolyline
66
1
10
0.0
20
0.0
30
0.0
70
0
0
VERTEX
5
239
100
AcDbEntity
8
1
100
AcDbVertex
100
AcDb2dVertex
62
5
10
-97.350000
20
122.287500
0
VERTEX
5
23a
100
AcDbEntity
8
1
100
AcDbVertex
100
AcDb2dVertex
62
5
10
-93.850000
20
122.287500
0
VERTEX
5
23b
100
AcDbEntity
8
1
100
AcDbVertex
100
AcDb2dVertex
62
5
10
-94.350000
20
120.100000
0
VERTEX
5
23c
100
AcDbEntity
8
1
100
AcDbVertex
100
AcDb2dVertex
62
5
10
-95.100000
20
118.850000
0
VERTEX
5
23d
100
AcDbEntity
8
1
100
AcDbVertex
100
AcDb2dVertex
62
5
10
-96.100000
20
117.600000
0
VERTEX
5
23e
100
AcDbEntity
8
1
100
AcDbVertex
100
AcDb2dVertex
62
5
10
-97.350000
20
116.975000
0
SEQEND
5
23f
100
AcDbEntity
8
1
0
POLYLINE
5
240
100
AcDbEntity
8
1
6
CONTINUOUS
62
5
100
AcDb2dPolyline
66
1
10
0.0
20
0.0
30
0.0
70
0
0
VERTEX
5
241
100
AcDbEntity
8
1
100
AcDbVertex
100
AcDb2dVertex
62
5
10
-95.100000
20
118.225000
0
VERTEX
5
242
100
AcDbEntity
8
1
100
AcDbVertex
100
AcDb2dVertex
62
5
10
-94.100000
20
117.287500
0
VERTEX
5
243
100
AcDbEntity
8
1
100
AcDbVertex
100
AcDb2dVertex
62
5
10
-93.100000
20
116.662500
0
SEQEND
5
244
100
AcDbEntity
8
1
0
LINE
5
245
100
AcDbEntity
8
1
100
AcDbLine
6
CONTINUOUS
62
5
10
-96.600000
20
121.662500
11
-95.600000
21
119.162500
0
POLYLINE
5
246
100
AcDbEntity
8
1
6
CONTINUOUS
62
5
100
AcDb2dPolyline
66
1
10
0.0
20
0.0
30
0.0
70
0
0
VERTEX
5
247
100
AcDbEntity
8
1
100
AcDbVertex
100
AcDb2dVertex
62
5
10
-78.350000
20
125.412500
0
VERTEX
5
248
100
AcDbEntity
8
1
100
AcDbVertex
100
AcDb2dVertex
62
5
10
-79.100000
20
123.225000
0
VERTEX
5
249
100
AcDbEntity
8
1
100
AcDbVertex
100
AcDb2dVertex
62
5
10
-80.350000
20
121.350000
0
SEQEND
5
24a
100
AcDbEntity
8
1
0
LINE
5
24b
100
AcDbEntity
8
1
100
AcDbLine
6
CONTINUOUS
62
5
10
-79.100000
20
123.225000
11
-79.100000
21
116.662500
0
POLYLINE
5
24c
100
AcDbEntity
8
1
6
CONTINUOUS
62
5
100
AcDb2dPolyline
66
1
10
0.0
20
0.0
30
0.0
70
1
0
VERTEX
5
24d
100
AcDbEntity
8
1
100
AcDbVertex
100
AcDb2dVertex
62
5
10
-77.850000
20
116.975000
0
VERTEX
5
24e
100
AcDbEntity
8
1
100
AcDbVertex
100
AcDb2dVertex
62
5
10
-77.850000
20
125.100000
0
VERTEX
5
24f
100
AcDbEntity
8
1
100
AcDbVertex
100
AcDb2dVertex
62
5
10
-73.350000
20
125.100000
0
VERTEX
5
250
100
AcDbEntity
8
1
100
AcDbVertex
100
AcDb2dVertex
62
5
10
-73.350000
20
116.975000
0
VERTEX
5
251
100
AcDbEntity
8
1
100
AcDbVertex
100
AcDb2dVertex
62
5
10
-77.850000
20
116.975000
0
SEQEND
5
252
100
AcDbEntity
8
1
0
LINE
5
253
100
AcDbEntity
8
1
100
AcDbLine
6
CONTINUOUS
62
5
10
-77.100000
20
122.912500
11
-74.100000
21
122.912500
0
LINE
5
254
100
AcDbEntity
8
1
100
AcDbLine
6
CONTINUOUS
62
5
10
-75.600000
20
123.850000
11
-75.600000
21
121.037500
0
POLYLINE
5
255
100
AcDbEntity
8
1
6
CONTINUOUS
62
5
100
AcDb2dPolyline
66
1
10
0.0
20
0.0
30
0.0
70
1
0
VERTEX
5
256
100
AcDbEntity
8
1
100
AcDbVertex
100
AcDb2dVertex
62
5
10
-76.850000
20
121.037500
0
VERTEX
5
257
100
AcDbEntity
8
1
100
AcDbVertex
100
AcDb2dVertex
62
5
10
-76.850000
20
118.225000
0
VERTEX
5
258
100
AcDbEntity
8
1
100
AcDbVertex
100
AcDb2dVertex
62
5
10
-74.350000
20
118.225000
0
VERTEX
5
259
100
AcDbEntity
8
1
100
AcDbVertex
100
AcDb2dVertex
62
5
10
-74.350000
20
121.037500
0
VERTEX
5
25a
100
AcDbEntity
8
1
100
AcDbVertex
100
AcDb2dVertex
62
5
10
-76.850000
20
121.037500
0
SEQEND
5
25b
100
AcDbEntity
8
1
0
LINE
5
25c
100
AcDbEntity
8
1
100
AcDbLine
6
CONTINUOUS
62
5
10
-74.100000
20
87.850000
11
-74.100000
21
80.350000
0
POLYLINE
5
25d
100
AcDbEntity
8
1
6
CONTINUOUS
62
5
100
AcDb2dPolyline
66
1
10
0.0
20
0.0
30
0.0
70
0
0
VERTEX
5
25e
100
AcDbEntity
8
1
100
AcDbVertex
100
AcDb2dVertex
62
5
10
-74.100000
20
87.850000
0
VERTEX
5
25f
100
AcDbEntity
8
1
100
AcDbVertex
100
AcDb2dVertex
62
5
10
-72.850000
20
87.850000
0
VERTEX
5
260
100
AcDbEntity
8
1
100
AcDbVertex
100
AcDb2dVertex
62
5
10
-71.912500
20
87.537500
0
VERTEX
5
261
100
AcDbEntity
8
1
100
AcDbVertex
100
AcDb2dVertex
62
5
10
-71.287500
20
86.912500
0
VERTEX
5
262
100
AcDbEntity
8
1
100
AcDbVertex
100
AcDb2dVertex
62
5
10
-70.975000
20
86.287500
0
VERTEX
5
263
100
AcDbEntity
8
1
100
AcDbVertex
100
AcDb2dVertex
62
5
10
-70.975000
20
85.350000
0
VERTEX
5
264
100
AcDbEntity
8
1
100
AcDbVertex
100
AcDb2dVertex
62
5
10
-71.287500
20
84.725000
0
VERTEX
5
265
100
AcDbEntity
8
1
100
AcDbVertex
100
AcDb2dVertex
62
5
10
-71.912500
20
84.100000
0
VERTEX
5
266
100
AcDbEntity
8
1
100
AcDbVertex
100
AcDb2dVertex
62
5
10
-72.850000
20
83.787500
0
VERTEX
5
267
100
AcDbEntity
8
1
100
AcDbVertex
100
AcDb2dVertex
62
5
10
-74.100000
20
83.787500
0
SEQEND
5
268
100
AcDbEntity
8
1
0
POLYLINE
5
269
100
AcDbEntity
8
1
6
CONTINUOUS
62
5
100
AcDb2dPolyline
66
1
10
0.0
20
0.0
30
0.0
70
0
0
VERTEX
5
26a
100
AcDbEntity
8
1
100
AcDbVertex
100
AcDb2dVertex
62
5
10
-69.412500
20
87.850000
0
VERTEX
5
26b
100
AcDbEntity
8
1
100
AcDbVertex
100
AcDb2dVertex
62
5
10
-68.475000
20
80.350000
0
VERTEX
5
26c
100
AcDbEntity
8
1
100
AcDbVertex
100
AcDb2dVertex
62
5
10
-67.537500
20
87.850000
0
VERTEX
5
26d
100
AcDbEntity
8
1
100
AcDbVertex
100
AcDb2dVertex
62
5
10
-66.600000
20
80.350000
0
VERTEX
5
26e
100
AcDbEntity
8
1
100
AcDbVertex
100
AcDb2dVertex
62
5
10
-65.662500
20
87.850000
0
SEQEND
5
26f
100
AcDbEntity
8
1
0
LINE
5
270
100
AcDbEntity
8
1
100
AcDbLine
6
CONTINUOUS
62
5
10
-99.100000
20
84.100000
11
-95.975000
21
84.100000
0
POLYLINE
5
271
100
AcDbEntity
8
1
6
CONTINUOUS
62
5
100
AcDb2dPolyline
66
1
10
0.0
20
0.0
30
0.0
70
0
0
VERTEX
5
272
100
AcDbEntity
8
1
100
AcDbVertex
100
AcDb2dVertex
62
5
10
-93.475000
20
87.225000
0
VERTEX
5
273
100
AcDbEntity
8
1
100
AcDbVertex
100
AcDb2dVertex
62
5
10
-92.537500
20
87.850000
0
VERTEX
5
274
100
AcDbEntity
8
1
100
AcDbVertex
100
AcDb2dVertex
62
5
10
-92.537500
20
80.350000
0
SEQEND
5
275
100
AcDbEntity
8
1
0
LINE
5
276
100
AcDbEntity
8
1
100
AcDbLine
6
CONTINUOUS
62
5
10
-93.162500
20
80.350000
11
-91.912500
21
80.350000
0
POLYLINE
5
277
100
AcDbEntity
8
1
6
CONTINUOUS
62
5
100
AcDb2dPolyline
66
1
10
0.0
20
0.0
30
0.0
70
0
0
VERTEX
5
278
100
AcDbEntity
8
1
100
AcDbVertex
100
AcDb2dVertex
62
5
10
-86.600000
20
87.850000
0
VERTEX
5
279
100
AcDbEntity
8
1
100
AcDbVertex
100
AcDb2dVertex
62
5
10
-89.412500
20
82.225000
0
VERTEX
5
27a
100
AcDbEntity
8
1
100
AcDbVertex
100
AcDb2dVertex
62
5
10
-85.662500
20
82.225000
0
SEQEND
5
27b
100
AcDbEntity
8
1
0
LINE
5
27c
100
AcDbEntity
8
1
100
AcDbLine
6
CONTINUOUS
62
5
10
-86.600000
20
87.850000
11
-86.600000
21
80.350000
0
LINE
5
27d
100
AcDbEntity
8
1
100
AcDbLine
6
CONTINUOUS
62
5
10
-87.225000
20
80.350000
11
-85.975000
21
80.350000
0
POLYLINE
5
27e
100
AcDbEntity
8
1
6
CONTINUOUS
62
5
100
AcDb2dPolyline
66
1
10
0.0
20
0.0
30
0.0
70
1
0
VERTEX
5
27f
100
AcDbEntity
8
1
100
AcDbVertex
100
AcDb2dVertex
62
5
10
-82.850000
20
87.850000
0
VERTEX
5
280
100
AcDbEntity
8
1
100
AcDbVertex
100
AcDb2dVertex
62
5
10
-82.225000
20
87.850000
0
VERTEX
5
281
100
AcDbEntity
8
1
100
AcDbVertex
100
AcDb2dVertex
62
5
10
-81.912500
20
87.537500
0
VERTEX
5
282
100
AcDbEntity
8
1
100
AcDbVertex
100
AcDb2dVertex
62
5
10
-81.287500
20
86.287500
0
VERTEX
5
283
100
AcDbEntity
8
1
100
AcDbVertex
100
AcDb2dVertex
62
5
10
-80.975000
20
85.037500
0
VERTEX
5
284
100
AcDbEntity
8
1
100
AcDbVertex
100
AcDb2dVertex
62
5
10
-80.975000
20
83.162500
0
VERTEX
5
285
100
AcDbEntity
8
1
100
AcDbVertex
100
AcDb2dVertex
62
5
10
-81.287500
20
81.912500
0
VERTEX
5
286
100
AcDbEntity
8
1
100
AcDbVertex
100
AcDb2dVertex
62
5
10
-81.912500
20
80.662500
0
VERTEX
5
287
100
AcDbEntity
8
1
100
AcDbVertex
100
AcDb2dVertex
62
5
10
-82.225000
20
80.350000
0
VERTEX
5
288
100
AcDbEntity
8
1
100
AcDbVertex
100
AcDb2dVertex
62
5
10
-82.850000
20
80.350000
0
VERTEX
5
289
100
AcDbEntity
8
1
100
AcDbVertex
100
AcDb2dVertex
62
5
10
-83.162500
20
80.662500
0
VERTEX
5
28a
100
AcDbEntity
8
1
100
AcDbVertex
100
AcDb2dVertex
62
5
10
-83.787500
20
81.912500
0
VERTEX
5
28b
100
AcDbEntity
8
1
100
AcDbVertex
100
AcDb2dVertex
62
5
10
-84.100000
20
83.162500
0
VERTEX
5
28c
100
AcDbEntity
8
1
100
AcDbVertex
100
AcDb2dVertex
62
5
10
-84.100000
20
85.037500
0
VERTEX
5
28d
100
AcDbEntity
8
1
100
AcDbVertex
100
AcDb2dVertex
62
5
10
-83.787500
20
86.287500
0
VERTEX
5
28e
100
AcDbEntity
8
1
100
AcDbVertex
100
AcDb2dVertex
62
5
10
-83.162500
20
87.537500
0
VERTEX
5
28f
100
AcDbEntity
8
1
100
AcDbVertex
100
AcDb2dVertex
62
5
10
-82.850000
20
87.850000
0
SEQEND
5
290
100
AcDbEntity
8
1
0
LINE
5
291
100
AcDbEntity
8
1
100
AcDbLine
6
CONTINUOUS
62
5
10
-116.350000
20
123.537500
11
-114.600000
21
123.537500
0
POLYLINE
5
292
100
AcDbEntity
8
1
6
CONTINUOUS
62
5
100
AcDb2dPolyline
66
1
10
0.0
20
0.0
30
0.0
70
0
0
VERTEX
5
293
100
AcDbEntity
8
1
100
AcDbVertex
100
AcDb2dVertex
62
5
10
-115.350000
20
125.412500
0
VERTEX
5
294
100
AcDbEntity
8
1
100
AcDbVertex
100
AcDb2dVertex
62
5
10
-115.350000
20
117.912500
0
VERTEX
5
295
100
AcDbEntity
8
1
100
AcDbVertex
100
AcDb2dVertex
62
5
10
-115.850000
20
117.287500
0
VERTEX
5
296
100
AcDbEntity
8
1
100
AcDbVertex
100
AcDb2dVertex
62
5
10
-116.100000
20
117.287500
0
SEQEND
5
297
100
AcDbEntity
8
1
0
LINE
5
298
100
AcDbEntity
8
1
100
AcDbLine
6
CONTINUOUS
62
5
10
-116.350000
20
120.412500
11
-114.850000
21
121.350000
0
POLYLINE
5
299
100
AcDbEntity
8
1
6
CONTINUOUS
62
5
100
AcDb2dPolyline
66
1
10
0.0
20
0.0
30
0.0
70
1
0
VERTEX
5
29a
100
AcDbEntity
8
1
100
AcDbVertex
100
AcDb2dVertex
62
5
10
-113.100000
20
123.537500
0
VERTEX
5
29b
100
AcDbEntity
8
1
100
AcDbVertex
100
AcDb2dVertex
62
5
10
-113.100000
20
125.100000
0
VERTEX
5
29c
100
AcDbEntity
8
1
100
AcDbVertex
100
AcDb2dVertex
62
5
10
-110.600000
20
125.100000
0
VERTEX
5
29d
100
AcDbEntity
8
1
100
AcDbVertex
100
AcDb2dVertex
62
5
10
-110.600000
20
123.537500
0
VERTEX
5
29e
100
AcDbEntity
8
1
100
AcDbVertex
100
AcDb2dVertex
62
5
10
-113.100000
20
123.537500
0
SEQEND
5
29f
100
AcDbEntity
8
1
0
POLYLINE
5
2a0
100
AcDbEntity
8
1
6
CONTINUOUS
62
5
100
AcDb2dPolyline
66
1
10
0.0
20
0.0
30
0.0
70
1
0
VERTEX
5
2a1
100
AcDbEntity
8
1
100
AcDbVertex
100
AcDb2dVertex
62
5
10
-113.850000
20
122.600000
0
VERTEX
5
2a2
100
AcDbEntity
8
1
100
AcDbVertex
100
AcDb2dVertex
62
5
10
-112.600000
20
122.600000
0
VERTEX
5
2a3
100
AcDbEntity
8
1
100
AcDbVertex
100
AcDb2dVertex
62
5
10
-112.600000
20
121.350000
0
VERTEX
5
2a4
100
AcDbEntity
8
1
100
AcDbVertex
100
AcDb2dVertex
62
5
10
-113.850000
20
121.350000
0
VERTEX
5
2a5
100
AcDbEntity
8
1
100
AcDbVertex
100
AcDb2dVertex
62
5
10
-113.850000
20
122.600000
0
SEQEND
5
2a6
100
AcDbEntity
8
1
0
POLYLINE
5
2a7
100
AcDbEntity
8
1
6
CONTINUOUS
62
5
100
AcDb2dPolyline
66
1
10
0.0
20
0.0
30
0.0
70
1
0
VERTEX
5
2a8
100
AcDbEntity
8
1
100
AcDbVertex
100
AcDb2dVertex
62
5
10
-111.100000
20
122.600000
0
VERTEX
5
2a9
100
AcDbEntity
8
1
100
AcDbVertex
100
AcDb2dVertex
62
5
10
-109.850000
20
122.600000
0
VERTEX
5
2aa
100
AcDbEntity
8
1
100
AcDbVertex
100
AcDb2dVertex
62
5
10
-109.850000
20
121.350000
0
VERTEX
5
2ab
100
AcDbEntity
8
1
100
AcDbVertex
100
AcDb2dVertex
62
5
10
-111.100000
20
121.350000
0
VERTEX
5
2ac
100
AcDbEntity
8
1
100
AcDbVertex
100
AcDb2dVertex
62
5
10
-111.100000
20
122.600000
0
SEQEND
5
2ad
100
AcDbEntity
8
1
0
LINE
5
2ae
100
AcDbEntity
8
1
100
AcDbLine
6
CONTINUOUS
62
5
10
-114.100000
20
120.100000
11
-109.350000
21
120.100000
0
LINE
5
2af
100
AcDbEntity
8
1
100
AcDbLine
6
CONTINUOUS
62
5
10
-111.850000
20
121.037500
11
-111.850000
21
116.975000
0
POLYLINE
5
2b0
100
AcDbEntity
8
1
6
CONTINUOUS
62
5
100
AcDb2dPolyline
66
1
10
0.0
20
0.0
30
0.0
70
0
0
VERTEX
5
2b1
100
AcDbEntity
8
1
100
AcDbVertex
100
AcDb2dVertex
62
5
10
-111.850000
20
119.787500
0
VERTEX
5
2b2
100
AcDbEntity
8
1
100
AcDbVertex
100
AcDb2dVertex
62
5
10
-112.600000
20
118.537500
0
VERTEX
5
2b3
100
AcDbEntity
8
1
100
AcDbVertex
100
AcDb2dVertex
62
5
10
-113.100000
20
118.225000
0
VERTEX
5
2b4
100
AcDbEntity
8
1
100
AcDbVertex
100
AcDb2dVertex
62
5
10
-114.350000
20
117.600000
0
SEQEND
5
2b5
100
AcDbEntity
8
1
0
POLYLINE
5
2b6
100
AcDbEntity
8
1
6
CONTINUOUS
62
5
100
AcDb2dPolyline
66
1
10
0.0
20
0.0
30
0.0
70
0
0
VERTEX
5
2b7
100
AcDbEntity
8
1
100
AcDbVertex
100
AcDb2dVertex
62
5
10
-111.850000
20
119.787500
0
VERTEX
5
2b8
100
AcDbEntity
8
1
100
AcDbVertex
100
AcDb2dVertex
62
5
10
-111.100000
20
118.537500
0
VERTEX
5
2b9
100
AcDbEntity
8
1
100
AcDbVertex
100
AcDb2dVertex
62
5
10
-110.350000
20
117.912500
0
VERTEX
5
2ba
100
AcDbEntity
8
1
100
AcDbVertex
100
AcDb2dVertex
62
5
10
-109.350000
20
117.600000
0
SEQEND
5
2bb
100
AcDbEntity
8
1
0
POLYLINE
5
2bc
100
AcDbEntity
8
1
6
CONTINUOUS
62
5
100
AcDb2dPolyline
66
1
10
0.0
20
0.0
30
0.0
70
0
0
VERTEX
5
2bd
100
AcDbEntity
8
1
100
AcDbVertex
100
AcDb2dVertex
62
5
10
-118.850000
20
134.350000
0
VERTEX
5
2be
100
AcDbEntity
8
1
100
AcDbVertex
100
AcDb2dVertex
62
5
10
-118.100000
20
128.350000
0
VERTEX
5
2bf
100
AcDbEntity
8
1
100
AcDbVertex
100
AcDb2dVertex
62
5
10
-117.350000
20
134.350000
0
VERTEX
5
2c0
100
AcDbEntity
8
1
100
AcDbVertex
100
AcDb2dVertex
62
5
10
-116.600000
20
128.350000
0
VERTEX
5
2c1
100
AcDbEntity
8
1
100
AcDbVertex
100
AcDb2dVertex
62
5
10
-115.850000
20
134.350000
0
SEQEND
5
2c2
100
AcDbEntity
8
1
0
LINE
5
2c3
100
AcDbEntity
8
1
100
AcDbLine
6
CONTINUOUS
62
5
10
-114.100000
20
134.350000
11
-112.600000
21
134.350000
0
LINE
5
2c4
100
AcDbEntity
8
1
100
AcDbLine
6
CONTINUOUS
62
5
10
-113.350000
20
134.350000
11
-113.350000
21
128.350000
0
LINE
5
2c5
100
AcDbEntity
8
1
100
AcDbLine
6
CONTINUOUS
62
5
10
-114.100000
20
128.350000
11
-112.600000
21
128.350000
0
LINE
5
2c6
100
AcDbEntity
8
1
100
AcDbLine
6
CONTINUOUS
62
5
10
-110.600000
20
134.350000
11
-110.600000
21
128.350000
0
POLYLINE
5
2c7
100
AcDbEntity
8
1
6
CONTINUOUS
62
5
100
AcDb2dPolyline
66
1
10
0.0
20
0.0
30
0.0
70
0
0
VERTEX
5
2c8
100
AcDbEntity
8
1
100
AcDbVertex
100
AcDb2dVertex
62
5
10
-110.600000
20
134.350000
0
VERTEX
5
2c9
100
AcDbEntity
8
1
100
AcDbVertex
100
AcDb2dVertex
62
5
10
-109.350000
20
134.350000
0
VERTEX
5
2ca
100
AcDbEntity
8
1
100
AcDbVertex
100
AcDb2dVertex
62
5
10
-108.850000
20
134.100000
0
VERTEX
5
2cb
100
AcDbEntity
8
1
100
AcDbVertex
100
AcDb2dVertex
62
5
10
-108.350000
20
133.600000
0
VERTEX
5
2cc
100
AcDbEntity
8
1
100
AcDbVertex
100
AcDb2dVertex
62
5
10
-108.100000
20
132.600000
0
VERTEX
5
2cd
100
AcDbEntity
8
1
100
AcDbVertex
100
AcDb2dVertex
62
5
10
-108.100000
20
130.100000
0
VERTEX
5
2ce
100
AcDbEntity
8
1
100
AcDbVertex
100
AcDb2dVertex
62
5
10
-108.350000
20
129.100000
0
VERTEX
5
2cf
100
AcDbEntity
8
1
100
AcDbVertex
100
AcDb2dVertex
62
5
10
-108.850000
20
128.600000
0
VERTEX
5
2d0
100
AcDbEntity
8
1
100
AcDbVertex
100
AcDb2dVertex
62
5
10
-109.350000
20
128.350000
0
VERTEX
5
2d1
100
AcDbEntity
8
1
100
AcDbVertex
100
AcDb2dVertex
62
5
10
-110.600000
20
128.350000
0
SEQEND
5
2d2
100
AcDbEntity
8
1
0
POLYLINE
5
2d3
100
AcDbEntity
8
1
6
CONTINUOUS
62
5
100
AcDb2dPolyline
66
1
10
0.0
20
0.0
30
0.0
70
0
0
VERTEX
5
2d4
100
AcDbEntity
8
1
100
AcDbVertex
100
AcDb2dVertex
62
5
10
-104.100000
20
134.350000
0
VERTEX
5
2d5
100
AcDbEntity
8
1
100
AcDbVertex
100
AcDb2dVertex
62
5
10
-106.600000
20
134.350000
0
VERTEX
5
2d6
100
AcDbEntity
8
1
100
AcDbVertex
100
AcDb2dVertex
62
5
10
-106.600000
20
128.350000
0
VERTEX
5
2d7
100
AcDbEntity
8
1
100
AcDbVertex
100
AcDb2dVertex
62
5
10
-103.850000
20
128.350000
0
SEQEND
5
2d8
100
AcDbEntity
8
1
0
LINE
5
2d9
100
AcDbEntity
8
1
100
AcDbLine
6
CONTINUOUS
62
5
10
-106.600000
20
131.350000
11
-104.350000
21
131.350000
0
POLYLINE
5
2da
100
AcDbEntity
8
1
6
CONTINUOUS
62
5
100
AcDb2dPolyline
66
1
10
0.0
20
0.0
30
0.0
70
0
0
VERTEX
5
2db
100
AcDbEntity
8
1
100
AcDbVertex
100
AcDb2dVertex
62
5
10
-128.350000
20
134.350000
0
VERTEX
5
2dc
100
AcDbEntity
8
1
100
AcDbVertex
100
AcDb2dVertex
62
5
10
-128.350000
20
129.850000
0
VERTEX
5
2dd
100
AcDbEntity
8
1
100
AcDbVertex
100
AcDb2dVertex
62
5
10
-128.600000
20
128.850000
0
VERTEX
5
2de
100
AcDbEntity
8
1
100
AcDbVertex
100
AcDb2dVertex
62
5
10
-129.100000
20
128.350000
0
VERTEX
5
2df
100
AcDbEntity
8
1
100
AcDbVertex
100
AcDb2dVertex
62
5
10
-129.850000
20
128.350000
0
VERTEX
5
2e0
100
AcDbEntity
8
1
100
AcDbVertex
100
AcDb2dVertex
62
5
10
-130.350000
20
128.850000
0
VERTEX
5
2e1
100
AcDbEntity
8
1
100
AcDbVertex
100
AcDb2dVertex
62
5
10
-130.600000
20
129.850000
0
SEQEND
5
2e2
100
AcDbEntity
8
1
0
POLYLINE
5
2e3
100
AcDbEntity
8
1
6
CONTINUOUS
62
5
100
AcDb2dPolyline
66
1
10
0.0
20
0.0
30
0.0
70
0
0
VERTEX
5
2e4
100
AcDbEntity
8
1
100
AcDbVertex
100
AcDb2dVertex
62
5
10
-124.350000
20
131.350000
0
VERTEX
5
2e5
100
AcDbEntity
8
1
100
AcDbVertex
100
AcDb2dVertex
62
5
10
-123.850000
20
131.850000
0
VERTEX
5
2e6
100
AcDbEntity
8
1
100
AcDbVertex
100
AcDb2dVertex
62
5
10
-123.600000
20
131.850000
0
VERTEX
5
2e7
100
AcDbEntity
8
1
100
AcDbVertex
100
AcDb2dVertex
62
5
10
-123.100000
20
131.350000
0
VERTEX
5
2e8
100
AcDbEntity
8
1
100
AcDbVertex
100
AcDb2dVertex
62
5
10
-123.100000
20
131.100000
0
VERTEX
5
2e9
100
AcDbEntity
8
1
100
AcDbVertex
100
AcDb2dVertex
62
5
10
-123.600000
20
130.600000
0
VERTEX
5
2ea
100
AcDbEntity
8
1
100
AcDbVertex
100
AcDb2dVertex
62
5
10
-123.850000
20
130.600000
0
VERTEX
5
2eb
100
AcDbEntity
8
1
100
AcDbVertex
100
AcDb2dVertex
62
5
10
-124.350000
20
131.100000
0
VERTEX
5
2ec
100
AcDbEntity
8
1
100
AcDbVertex
100
AcDb2dVertex
62
5
10
-124.350000
20
131.350000
0
VERTEX
5
2ed
100
AcDbEntity
8
1
100
AcDbVertex
100
AcDb2dVertex
62
5
10
-123.100000
20
131.350000
0
SEQEND
5
2ee
100
AcDbEntity
8
1
0
LINE
5
2ef
100
AcDbEntity
8
1
100
AcDbLine
6
CONTINUOUS
62
5
10
-123.100000
20
131.100000
11
-124.350000
21
131.100000
0
LINE
5
2f0
100
AcDbEntity
8
1
100
AcDbLine
6
CONTINUOUS
62
5
10
-124.100000
20
130.850000
11
-123.350000
21
130.850000
0
LINE
5
2f1
100
AcDbEntity
8
1
100
AcDbLine
6
CONTINUOUS
62
5
10
-123.350000
20
131.600000
11
-124.100000
21
131.600000
0
POLYLINE
5
2f2
100
AcDbEntity
8
1
6
CONTINUOUS
62
5
100
AcDb2dPolyline
66
1
10
0.0
20
0.0
30
0.0
70
0
0
VERTEX
5
2f3
100
AcDbEntity
8
1
100
AcDbVertex
100
AcDb2dVertex
62
5
10
-114.850000
20
113.850000
0
VERTEX
5
2f4
100
AcDbEntity
8
1
100
AcDbVertex
100
AcDb2dVertex
62
5
10
-114.850000
20
108.537500
0
VERTEX
5
2f5
100
AcDbEntity
8
1
100
AcDbVertex
100
AcDb2dVertex
62
5
10
-114.350000
20
107.912500
0
VERTEX
5
2f6
100
AcDbEntity
8
1
100
AcDbVertex
100
AcDb2dVertex
62
5
10
-110.850000
20
107.912500
0
SEQEND
5
2f7
100
AcDbEntity
8
1
0
LINE
5
2f8
100
AcDbEntity
8
1
100
AcDbLine
6
CONTINUOUS
62
5
10
-111.350000
20
111.975000
11
-114.850000
21
111.037500
0
POLYLINE
5
2f9
100
AcDbEntity
8
1
6
CONTINUOUS
62
5
100
AcDb2dPolyline
66
1
10
0.0
20
0.0
30
0.0
70
1
0
VERTEX
5
2fa
100
AcDbEntity
8
1
100
AcDbVertex
100
AcDb2dVertex
62
5
10
-111.350000
20
113.850000
0
VERTEX
5
2fb
100
AcDbEntity
8
1
100
AcDbVertex
100
AcDb2dVertex
62
5
10
-110.850000
20
114.475000
0
VERTEX
5
2fc
100
AcDbEntity
8
1
100
AcDbVertex
100
AcDb2dVertex
62
5
10
-110.600000
20
114.475000
0
VERTEX
5
2fd
100
AcDbEntity
8
1
100
AcDbVertex
100
AcDb2dVertex
62
5
10
-110.100000
20
113.850000
0
VERTEX
5
2fe
100
AcDbEntity
8
1
100
AcDbVertex
100
AcDb2dVertex
62
5
10
-110.100000
20
113.537500
0
VERTEX
5
2ff
100
AcDbEntity
8
1
100
AcDbVertex
100
AcDb2dVertex
62
5
10
-110.600000
20
112.912500
0
VERTEX
5
300
100
AcDbEntity
8
1
100
AcDbVertex
100
AcDb2dVertex
62
5
10
-110.850000
20
112.912500
0
VERTEX
5
301
100
AcDbEntity
8
1
100
AcDbVertex
100
AcDb2dVertex
62
5
10
-111.350000
20
113.537500
0
VERTEX
5
302
100
AcDbEntity
8
1
100
AcDbVertex
100
AcDb2dVertex
62
5
10
-111.350000
20
113.850000
0
SEQEND
5
303
100
AcDbEntity
8
1
0
POLYLINE
5
304
100
AcDbEntity
8
1
6
CONTINUOUS
62
5
100
AcDb2dPolyline
66
1
10
0.0
20
0.0
30
0.0
70
0
0
VERTEX
5
305
100
AcDbEntity
8
1
100
AcDbVertex
100
AcDb2dVertex
62
5
10
-106.100000
20
111.662500
0
VERTEX
5
306
100
AcDbEntity
8
1
100
AcDbVertex
100
AcDb2dVertex
62
5
10
-104.100000
20
111.662500
0
VERTEX
5
307
100
AcDbEntity
8
1
100
AcDbVertex
100
AcDb2dVertex
62
5
10
-104.350000
20
108.537500
0
SEQEND
5
308
100
AcDbEntity
8
1
0
LINE
5
309
100
AcDbEntity
8
1
100
AcDbLine
6
CONTINUOUS
62
5
10
-106.850000
20
108.537500
11
-102.600000
21
108.537500
0
LINE
5
30a
100
AcDbEntity
8
1
100
AcDbLine
6
CONTINUOUS
62
5
10
-141.600000
20
137.350000
11
-141.600000
21
105.350000
0
POLYLINE
5
30b
100
AcDbEntity
8
1
6
CONTINUOUS
62
5
100
AcDb2dPolyline
66
1
10
0.0
20
0.0
30
0.0
70
0
0
VERTEX
5
30c
100
AcDbEntity
8
1
100
AcDbVertex
100
AcDb2dVertex
62
5
10
-119.100000
20
80.350000
0
VERTEX
5
30d
100
AcDbEntity
8
1
100
AcDbVertex
100
AcDb2dVertex
62
5
10
-119.100000
20
87.850000
0
VERTEX
5
30e
100
AcDbEntity
8
1
100
AcDbVertex
100
AcDb2dVertex
62
5
10
-115.975000
20
80.350000
0
VERTEX
5
30f
100
AcDbEntity
8
1
100
AcDbVertex
100
AcDb2dVertex
62
5
10
-115.975000
20
87.850000
0
SEQEND
5
310
100
AcDbEntity
8
1
0
LINE
5
311
100
AcDbEntity
8
1
100
AcDbLine
6
CONTINUOUS
62
5
10
-114.100000
20
84.100000
11
-110.975000
21
84.100000
0
POLYLINE
5
312
100
AcDbEntity
8
1
6
CONTINUOUS
62
5
100
AcDb2dPolyline
66
1
10
0.0
20
0.0
30
0.0
70
0
0
VERTEX
5
313
100
AcDbEntity
8
1
100
AcDbVertex
100
AcDb2dVertex
62
5
10
-106.287500
20
86.287500
0
VERTEX
5
314
100
AcDbEntity
8
1
100
AcDbVertex
100
AcDb2dVertex
62
5
10
-106.600000
20
87.225000
0
VERTEX
5
315
100
AcDbEntity
8
1
100
AcDbVertex
100
AcDb2dVertex
62
5
10
-107.225000
20
87.850000
0
VERTEX
5
316
100
AcDbEntity
8
1
100
AcDbVertex
100
AcDb2dVertex
62
5
10
-108.162500
20
87.850000
0
VERTEX
5
317
100
AcDbEntity
8
1
100
AcDbVertex
100
AcDb2dVertex
62
5
10
-108.787500
20
87.225000
0
VERTEX
5
318
100
AcDbEntity
8
1
100
AcDbVertex
100
AcDb2dVertex
62
5
10
-109.100000
20
86.600000
0
VERTEX
5
319
100
AcDbEntity
8
1
100
AcDbVertex
100
AcDb2dVertex
62
5
10
-109.412500
20
85.037500
0
VERTEX
5
31a
100
AcDbEntity
8
1
100
AcDbVertex
100
AcDb2dVertex
62
5
10
-109.412500
20
83.162500
0
VERTEX
5
31b
100
AcDbEntity
8
1
100
AcDbVertex
100
AcDb2dVertex
62
5
10
-109.100000
20
81.600000
0
VERTEX
5
31c
100
AcDbEntity
8
1
100
AcDbVertex
100
AcDb2dVertex
62
5
10
-108.787500
20
80.975000
0
VERTEX
5
31d
100
AcDbEntity
8
1
100
AcDbVertex
100
AcDb2dVertex
62
5
10
-108.162500
20
80.350000
0
VERTEX
5
31e
100
AcDbEntity
8
1
100
AcDbVertex
100
AcDb2dVertex
62
5
10
-107.225000
20
80.350000
0
VERTEX
5
31f
100
AcDbEntity
8
1
100
AcDbVertex
100
AcDb2dVertex
62
5
10
-106.600000
20
80.975000
0
VERTEX
5
320
100
AcDbEntity
8
1
100
AcDbVertex
100
AcDb2dVertex
62
5
10
-106.287500
20
81.600000
0
SEQEND
5
321
100
AcDbEntity
8
1
0
LINE
5
322
100
AcDbEntity
8
1
100
AcDbLine
6
CONTINUOUS
62
5
10
-106.912500
20
83.787500
11
-105.662500
21
83.787500
0
LINE
5
323
100
AcDbEntity
8
1
100
AcDbLine
6
CONTINUOUS
62
5
10
-106.287500
20
83.787500
11
-106.287500
21
80.350000
0
POLYLINE
5
324
100
AcDbEntity
8
1
6
CONTINUOUS
62
5
100
AcDb2dPolyline
66
1
10
0.0
20
0.0
30
0.0
70
0
0
VERTEX
5
325
100
AcDbEntity
8
1
100
AcDbVertex
100
AcDb2dVertex
62
5
10
-129.412500
20
87.850000
0
VERTEX
5
326
100
AcDbEntity
8
1
100
AcDbVertex
100
AcDb2dVertex
62
5
10
-128.475000
20
80.350000
0
VERTEX
5
327
100
AcDbEntity
8
1
100
AcDbVertex
100
AcDb2dVertex
62
5
10
-127.537500
20
87.850000
0
VERTEX
5
328
100
AcDbEntity
8
1
100
AcDbVertex
100
AcDb2dVertex
62
5
10
-126.600000
20
80.350000
0
VERTEX
5
329
100
AcDbEntity
8
1
100
AcDbVertex
100
AcDb2dVertex
62
5
10
-125.662500
20
87.850000
0
SEQEND
5
32a
100
AcDbEntity
8
1
0
POLYLINE
5
32b
100
AcDbEntity
8
1
6
CONTINUOUS
62
5
100
AcDb2dPolyline
66
1
10
0.0
20
0.0
30
0.0
70
0
0
VERTEX
5
32c
100
AcDbEntity
8
1
100
AcDbVertex
100
AcDb2dVertex
62
5
10
-121.287500
20
87.850000
0
VERTEX
5
32d
100
AcDbEntity
8
1
100
AcDbVertex
100
AcDb2dVertex
62
5
10
-121.287500
20
82.225000
0
VERTEX
5
32e
100
AcDbEntity
8
1
100
AcDbVertex
100
AcDb2dVertex
62
5
10
-121.600000
20
80.975000
0
VERTEX
5
32f
100
AcDbEntity
8
1
100
AcDbVertex
100
AcDb2dVertex
62
5
10
-122.225000
20
80.350000
0
VERTEX
5
330
100
AcDbEntity
8
1
100
AcDbVertex
100
AcDb2dVertex
62
5
10
-123.162500
20
80.350000
0
VERTEX
5
331
100
AcDbEntity
8
1
100
AcDbVertex
100
AcDb2dVertex
62
5
10
-123.787500
20
80.975000
0
VERTEX
5
332
100
AcDbEntity
8
1
100
AcDbVertex
100
AcDb2dVertex
62
5
10
-124.100000
20
82.225000
0
SEQEND
5
333
100
AcDbEntity
8
1
0
POLYLINE
5
334
100
AcDbEntity
8
1
6
CONTINUOUS
62
5
100
AcDb2dPolyline
66
1
10
0.0
20
0.0
30
0.0
70
0
0
VERTEX
5
335
100
AcDbEntity
8
1
100
AcDbVertex
100
AcDb2dVertex
62
5
10
-106.350000
20
125.725000
0
VERTEX
5
336
100
AcDbEntity
8
1
100
AcDbVertex
100
AcDb2dVertex
62
5
10
-107.100000
20
123.850000
0
VERTEX
5
337
100
AcDbEntity
8
1
100
AcDbVertex
100
AcDb2dVertex
62
5
10
-108.350000
20
121.350000
0
SEQEND
5
338
100
AcDbEntity
8
1
0
LINE
5
339
100
AcDbEntity
8
1
100
AcDbLine
6
CONTINUOUS
62
5
10
-107.100000
20
123.850000
11
-107.100000
21
116.975000
0
POLYLINE
5
33a
100
AcDbEntity
8
1
6
CONTINUOUS
62
5
100
AcDb2dPolyline
66
1
10
0.0
20
0.0
30
0.0
70
0
0
VERTEX
5
33b
100
AcDbEntity
8
1
100
AcDbVertex
100
AcDb2dVertex
62
5
10
-104.100000
20
125.725000
0
VERTEX
5
33c
100
AcDbEntity
8
1
100
AcDbVertex
100
AcDb2dVertex
62
5
10
-104.850000
20
124.162500
0
VERTEX
5
33d
100
AcDbEntity
8
1
100
AcDbVertex
100
AcDb2dVertex
62
5
10
-106.350000
20
122.287500
0
SEQEND
5
33e
100
AcDbEntity
8
1
0
LINE
5
33f
100
AcDbEntity
8
1
100
AcDbLine
6
CONTINUOUS
62
5
10
-104.850000
20
124.162500
11
-101.100000
21
124.162500
0
LINE
5
340
100
AcDbEntity
8
1
100
AcDbLine
6
CONTINUOUS
62
5
10
-104.350000
20
124.162500
11
-104.350000
21
116.975000
0
LINE
5
341
100
AcDbEntity
8
1
100
AcDbLine
6
CONTINUOUS
62
5
10
-104.350000
20
121.975000
11
-101.850000
21
121.975000
0
LINE
5
342
100
AcDbEntity
8
1
100
AcDbLine
6
CONTINUOUS
62
5
10
-104.350000
20
119.475000
11
-101.850000
21
119.475000
0
LINE
5
343
100
AcDbEntity
8
1
100
AcDbLine
6
CONTINUOUS
62
5
10
-104.100000
20
87.850000
11
-104.100000
21
80.350000
0
POLYLINE
5
344
100
AcDbEntity
8
1
6
CONTINUOUS
62
5
100
AcDb2dPolyline
66
1
10
0.0
20
0.0
30
0.0
70
0
0
VERTEX
5
345
100
AcDbEntity
8
1
100
AcDbVertex
100
AcDb2dVertex
62
5
10
-104.100000
20
87.850000
0
VERTEX
5
346
100
AcDbEntity
8
1
100
AcDbVertex
100
AcDb2dVertex
62
5
10
-102.537500
20
87.850000
0
VERTEX
5
347
100
AcDbEntity
8
1
100
AcDbVertex
100
AcDb2dVertex
62
5
10
-101.912500
20
87.537500
0
VERTEX
5
348
100
AcDbEntity
8
1
100
AcDbVertex
100
AcDb2dVertex
62
5
10
-101.287500
20
86.912500
0
VERTEX
5
349
100
AcDbEntity
8
1
100
AcDbVertex
100
AcDb2dVertex
62
5
10
-100.975000
20
85.662500
0
VERTEX
5
34a
100
AcDbEntity
8
1
100
AcDbVertex
100
AcDb2dVertex
62
5
10
-100.975000
20
82.537500
0
VERTEX
5
34b
100
AcDbEntity
8
1
100
AcDbVertex
100
AcDb2dVertex
62
5
10
-101.287500
20
81.287500
0
VERTEX
5
34c
100
AcDbEntity
8
1
100
AcDbVertex
100
AcDb2dVertex
62
5
10
-101.912500
20
80.662500
0
VERTEX
5
34d
100
AcDbEntity
8
1
100
AcDbVertex
100
AcDb2dVertex
62
5
10
-102.537500
20
80.350000
0
VERTEX
5
34e
100
AcDbEntity
8
1
100
AcDbVertex
100
AcDb2dVertex
62
5
10
-104.100000
20
80.350000
0
SEQEND
5
34f
100
AcDbEntity
8
1
0
POLYLINE
5
350
100
AcDbEntity
8
6
6
DOT2
62
5
100
AcDb2dPolyline
66
1
10
0.0
20
0.0
30
0.0
70
0
0
VERTEX
5
351
100
AcDbEntity
8
6
100
AcDbVertex
100
AcDb2dVertex
62
5
10
-27.850000
20
33.850434
0
VERTEX
5
352
100
AcDbEntity
8
6
100
AcDbVertex
100
AcDb2dVertex
62
5
10
-30.662500
20
28.225434
0
VERTEX
5
353
100
AcDbEntity
8
6
100
AcDbVertex
100
AcDb2dVertex
62
5
10
-26.912500
20
28.225434
0
SEQEND
5
354
100
AcDbEntity
8
6
0
LINE
5
355
100
AcDbEntity
8
6
100
AcDbLine
6
DOT2
62
5
10
-27.850000
20
33.850434
11
-27.850000
21
26.350434
0
LINE
5
356
100
AcDbEntity
8
6
100
AcDbLine
6
DOT2
62
5
10
-28.475000
20
26.350434
11
-27.225000
21
26.350434
0
POLYLINE
5
357
100
AcDbEntity
8
6
6
DOT2
62
5
100
AcDb2dPolyline
66
1
10
0.0
20
0.0
30
0.0
70
0
0
VERTEX
5
358
100
AcDbEntity
8
6
100
AcDbVertex
100
AcDb2dVertex
62
5
10
-25.350000
20
31.975434
0
VERTEX
5
359
100
AcDbEntity
8
6
100
AcDbVertex
100
AcDb2dVertex
62
5
10
-25.037500
20
33.225434
0
VERTEX
5
35a
100
AcDbEntity
8
6
100
AcDbVertex
100
AcDb2dVertex
62
5
10
-24.412500
20
33.850434
0
VERTEX
5
35b
100
AcDbEntity
8
6
100
AcDbVertex
100
AcDb2dVertex
62
5
10
-23.475000
20
33.850434
0
VERTEX
5
35c
100
AcDbEntity
8
6
100
AcDbVertex
100
AcDb2dVertex
62
5
10
-22.850000
20
33.537934
0
VERTEX
5
35d
100
AcDbEntity
8
6
100
AcDbVertex
100
AcDb2dVertex
62
5
10
-22.537500
20
32.600434
0
VERTEX
5
35e
100
AcDbEntity
8
6
100
AcDbVertex
100
AcDb2dVertex
62
5
10
-22.537500
20
31.350434
0
VERTEX
5
35f
100
AcDbEntity
8
6
100
AcDbVertex
100
AcDb2dVertex
62
5
10
-22.850000
20
30.725434
0
VERTEX
5
360
100
AcDbEntity
8
6
100
AcDbVertex
100
AcDb2dVertex
62
5
10
-23.475000
20
30.100434
0
VERTEX
5
361
100
AcDbEntity
8
6
100
AcDbVertex
100
AcDb2dVertex
62
5
10
-24.412500
20
30.100434
0
SEQEND
5
362
100
AcDbEntity
8
6
0
POLYLINE
5
363
100
AcDbEntity
8
6
6
DOT2
62
5
100
AcDb2dPolyline
66
1
10
0.0
20
0.0
30
0.0
70
0
0
VERTEX
5
364
100
AcDbEntity
8
6
100
AcDbVertex
100
AcDb2dVertex
62
5
10
-23.475000
20
30.100434
0
VERTEX
5
365
100
AcDbEntity
8
6
100
AcDbVertex
100
AcDb2dVertex
62
5
10
-22.537500
20
29.475434
0
VERTEX
5
366
100
AcDbEntity
8
6
100
AcDbVertex
100
AcDb2dVertex
62
5
10
-22.225000
20
28.537934
0
VERTEX
5
367
100
AcDbEntity
8
6
100
AcDbVertex
100
AcDb2dVertex
62
5
10
-22.225000
20
27.600434
0
VERTEX
5
368
100
AcDbEntity
8
6
100
AcDbVertex
100
AcDb2dVertex
62
5
10
-22.537500
20
26.975434
0
VERTEX
5
369
100
AcDbEntity
8
6
100
AcDbVertex
100
AcDb2dVertex
62
5
10
-23.475000
20
26.350434
0
VERTEX
5
36a
100
AcDbEntity
8
6
100
AcDbVertex
100
AcDb2dVertex
62
5
10
-24.412500
20
26.350434
0
VERTEX
5
36b
100
AcDbEntity
8
6
100
AcDbVertex
100
AcDb2dVertex
62
5
10
-25.037500
20
26.662934
0
VERTEX
5
36c
100
AcDbEntity
8
6
100
AcDbVertex
100
AcDb2dVertex
62
5
10
-25.662500
20
27.600434
0
SEQEND
5
36d
100
AcDbEntity
8
6
0
POLYLINE
5
36e
100
AcDbEntity
8
1
6
CONTINUOUS
62
5
100
AcDb2dPolyline
66
1
10
0.0
20
0.0
30
0.0
70
0
0
VERTEX
5
36f
100
AcDbEntity
8
1
100
AcDbVertex
100
AcDb2dVertex
62
5
10
-34.587500
20
-22.249566
0
VERTEX
5
370
100
AcDbEntity
8
1
100
AcDbVertex
100
AcDb2dVertex
62
5
10
-33.912500
20
-22.137066
0
VERTEX
5
371
100
AcDbEntity
8
1
100
AcDbVertex
100
AcDb2dVertex
62
5
10
-33.350000
20
-21.912066
0
SEQEND
5
372
100
AcDbEntity
8
1
0
POLYLINE
5
373
100
AcDbEntity
8
1
6
CONTINUOUS
62
5
100
AcDb2dPolyline
66
1
10
0.0
20
0.0
30
0.0
70
0
0
VERTEX
5
374
100
AcDbEntity
8
1
100
AcDbVertex
100
AcDb2dVertex
62
5
10
-34.137500
20
-21.237066
0
VERTEX
5
375
100
AcDbEntity
8
1
100
AcDbVertex
100
AcDb2dVertex
62
5
10
-34.137500
20
-23.262066
0
VERTEX
5
376
100
AcDbEntity
8
1
100
AcDbVertex
100
AcDb2dVertex
62
5
10
-33.912500
20
-23.487066
0
VERTEX
5
377
100
AcDbEntity
8
1
100
AcDbVertex
100
AcDb2dVertex
62
5
10
-33.350000
20
-23.487066
0
VERTEX
5
378
100
AcDbEntity
8
1
100
AcDbVertex
100
AcDb2dVertex
62
5
10
-33.237500
20
-23.037066
0
SEQEND
5
379
100
AcDbEntity
8
1
0
POLYLINE
5
37a
100
AcDbEntity
8
1
6
CONTINUOUS
62
5
100
AcDb2dPolyline
66
1
10
0.0
20
0.0
30
0.0
70
0
0
VERTEX
5
37b
100
AcDbEntity
8
1
100
AcDbVertex
100
AcDb2dVertex
62
5
10
-32.675000
20
-21.574566
0
VERTEX
5
37c
100
AcDbEntity
8
1
100
AcDbVertex
100
AcDb2dVertex
62
5
10
-32.675000
20
-22.924566
0
VERTEX
5
37d
100
AcDbEntity
8
1
100
AcDbVertex
100
AcDb2dVertex
62
5
10
-32.900000
20
-23.487066
0
VERTEX
5
37e
100
AcDbEntity
8
1
100
AcDbVertex
100
AcDb2dVertex
62
5
10
-33.237500
20
-23.937066
0
VERTEX
5
37f
100
AcDbEntity
8
1
100
AcDbVertex
100
AcDb2dVertex
62
5
10
-33.800000
20
-24.274566
0
SEQEND
5
380
100
AcDbEntity
8
1
0
POLYLINE
5
381
100
AcDbEntity
8
1
6
CONTINUOUS
62
5
100
AcDb2dPolyline
66
1
10
0.0
20
0.0
30
0.0
70
0
0
VERTEX
5
382
100
AcDbEntity
8
1
100
AcDbVertex
100
AcDb2dVertex
62
5
10
-33.350000
20
-21.574566
0
VERTEX
5
383
100
AcDbEntity
8
1
100
AcDbVertex
100
AcDb2dVertex
62
5
10
-31.662500
20
-21.574566
0
VERTEX
5
384
100
AcDbEntity
8
1
100
AcDbVertex
100
AcDb2dVertex
62
5
10
-31.662500
20
-23.487066
0
VERTEX
5
385
100
AcDbEntity
8
1
100
AcDbVertex
100
AcDb2dVertex
62
5
10
-31.775000
20
-23.824566
0
VERTEX
5
386
100
AcDbEntity
8
1
100
AcDbVertex
100
AcDb2dVertex
62
5
10
-32.000000
20
-23.937066
0
VERTEX
5
387
100
AcDbEntity
8
1
100
AcDbVertex
100
AcDb2dVertex
62
5
10
-32.450000
20
-23.937066
0
SEQEND
5
388
100
AcDbEntity
8
1
0
LINE
5
389
100
AcDbEntity
8
1
100
AcDbLine
6
CONTINUOUS
62
5
10
-29.863125
20
-10.032483
11
-28.515625
21
-10.032483
0
LINE
5
38a
100
AcDbEntity
8
1
100
AcDbLine
6
CONTINUOUS
62
5
10
-29.863125
20
-11.751233
11
-28.515625
21
-10.891858
0
POLYLINE
5
38b
100
AcDbEntity
8
1
6
CONTINUOUS
62
5
100
AcDb2dPolyline
66
1
10
0.0
20
0.0
30
0.0
70
0
0
VERTEX
5
38c
100
AcDbEntity
8
1
100
AcDbVertex
100
AcDb2dVertex
62
5
10
-29.189375
20
-8.829358
0
VERTEX
5
38d
100
AcDbEntity
8
1
100
AcDbVertex
100
AcDb2dVertex
62
5
10
-29.189375
20
-13.469983
0
VERTEX
5
38e
100
AcDbEntity
8
1
100
AcDbVertex
100
AcDb2dVertex
62
5
10
-29.526250
20
-13.469983
0
SEQEND
5
38f
100
AcDbEntity
8
1
0
LINE
5
390
100
AcDbEntity
8
1
100
AcDbLine
6
CONTINUOUS
62
5
10
-28.178750
20
-9.688733
11
-27.505000
21
-8.657483
0
POLYLINE
5
391
100
AcDbEntity
8
1
6
CONTINUOUS
62
5
100
AcDb2dPolyline
66
1
10
0.0
20
0.0
30
0.0
70
0
0
VERTEX
5
392
100
AcDbEntity
8
1
100
AcDbVertex
100
AcDb2dVertex
62
5
10
-27.673438
20
-9.001233
0
VERTEX
5
393
100
AcDbEntity
8
1
100
AcDbVertex
100
AcDb2dVertex
62
5
10
-26.325938
20
-9.001233
0
VERTEX
5
394
100
AcDbEntity
8
1
100
AcDbVertex
100
AcDb2dVertex
62
5
10
-26.999688
20
-10.032483
0
SEQEND
5
395
100
AcDbEntity
8
1
0
POLYLINE
5
396
100
AcDbEntity
8
1
6
CONTINUOUS
62
5
100
AcDb2dPolyline
66
1
10
0.0
20
0.0
30
0.0
70
0
0
VERTEX
5
397
100
AcDbEntity
8
1
100
AcDbVertex
100
AcDb2dVertex
62
5
10
-28.010313
20
-11.579358
0
VERTEX
5
398
100
AcDbEntity
8
1
100
AcDbVertex
100
AcDb2dVertex
62
5
10
-28.010313
20
-10.032483
0
VERTEX
5
399
100
AcDbEntity
8
1
100
AcDbVertex
100
AcDb2dVertex
62
5
10
-25.652188
20
-10.032483
0
VERTEX
5
39a
100
AcDbEntity
8
1
100
AcDbVertex
100
AcDb2dVertex
62
5
10
-25.652188
20
-11.579358
0
SEQEND
5
39b
100
AcDbEntity
8
1
0
POLYLINE
5
39c
100
AcDbEntity
8
1
6
CONTINUOUS
62
5
100
AcDb2dPolyline
66
1
10
0.0
20
0.0
30
0.0
70
0
0
VERTEX
5
39d
100
AcDbEntity
8
1
100
AcDbVertex
100
AcDb2dVertex
62
5
10
-27.168125
20
-10.032483
0
VERTEX
5
39e
100
AcDbEntity
8
1
100
AcDbVertex
100
AcDb2dVertex
62
5
10
-27.168125
20
-10.719983
0
VERTEX
5
39f
100
AcDbEntity
8
1
100
AcDbVertex
100
AcDb2dVertex
62
5
10
-27.673438
20
-11.235608
0
SEQEND
5
3a0
100
AcDbEntity
8
1
0
POLYLINE
5
3a1
100
AcDbEntity
8
1
6
CONTINUOUS
62
5
100
AcDb2dPolyline
66
1
10
0.0
20
0.0
30
0.0
70
0
0
VERTEX
5
3a2
100
AcDbEntity
8
1
100
AcDbVertex
100
AcDb2dVertex
62
5
10
-26.494375
20
-10.032483
0
VERTEX
5
3a3
100
AcDbEntity
8
1
100
AcDbVertex
100
AcDb2dVertex
62
5
10
-26.494375
20
-11.235608
0
VERTEX
5
3a4
100
AcDbEntity
8
1
100
AcDbVertex
100
AcDb2dVertex
62
5
10
-25.820625
20
-11.235608
0
SEQEND
5
3a5
100
AcDbEntity
8
1
0
LINE
5
3a6
100
AcDbEntity
8
1
100
AcDbLine
6
CONTINUOUS
62
5
10
-28.684063
20
-12.094983
11
-24.978438
21
-12.094983
0
POLYLINE
5
3a7
100
AcDbEntity
8
1
6
CONTINUOUS
62
5
100
AcDb2dPolyline
66
1
10
0.0
20
0.0
30
0.0
70
0
0
VERTEX
5
3a8
100
AcDbEntity
8
1
100
AcDbVertex
100
AcDb2dVertex
62
5
10
-26.999688
20
-11.407483
0
VERTEX
5
3a9
100
AcDbEntity
8
1
100
AcDbVertex
100
AcDb2dVertex
62
5
10
-26.999688
20
-12.094983
0
VERTEX
5
3aa
100
AcDbEntity
8
1
100
AcDbVertex
100
AcDb2dVertex
62
5
10
-27.336563
20
-12.782483
0
VERTEX
5
3ab
100
AcDbEntity
8
1
100
AcDbVertex
100
AcDb2dVertex
62
5
10
-27.841875
20
-13.298108
0
VERTEX
5
3ac
100
AcDbEntity
8
1
100
AcDbVertex
100
AcDb2dVertex
62
5
10
-28.684063
20
-13.641858
0
SEQEND
5
3ad
100
AcDbEntity
8
1
0
POLYLINE
5
3ae
100
AcDbEntity
8
1
6
CONTINUOUS
62
5
100
AcDb2dPolyline
66
1
10
0.0
20
0.0
30
0.0
70
0
0
VERTEX
5
3af
100
AcDbEntity
8
1
100
AcDbVertex
100
AcDb2dVertex
62
5
10
-26.999688
20
-12.094983
0
VERTEX
5
3b0
100
AcDbEntity
8
1
100
AcDbVertex
100
AcDb2dVertex
62
5
10
-26.494375
20
-12.782483
0
VERTEX
5
3b1
100
AcDbEntity
8
1
100
AcDbVertex
100
AcDb2dVertex
62
5
10
-25.820625
20
-13.298108
0
VERTEX
5
3b2
100
AcDbEntity
8
1
100
AcDbVertex
100
AcDb2dVertex
62
5
10
-25.146875
20
-13.641858
0
SEQEND
5
3b3
100
AcDbEntity
8
1
0
LINE
5
3b4
100
AcDbEntity
8
6
100
AcDbLine
6
CONTINUOUS
62
5
10
0.000000
20
-8.399566
11
0.000000
21
27.100434
0
LINE
5
3b5
100
AcDbEntity
8
6
100
AcDbLine
6
CONTINUOUS
62
5
10
-43.200000
20
-8.399566
11
-43.200000
21
27.100434
0
POLYLINE
5
3b6
100
AcDbEntity
8
6
6
CONTINUOUS
62
5
100
AcDb2dPolyline
66
1
10
0.0
20
0.0
30
0.0
70
0
0
VERTEX
5
3b7
100
AcDbEntity
8
6
100
AcDbVertex
100
AcDb2dVertex
62
5
10
-21.600000
20
25.100434
0
VERTEX
5
3b8
100
AcDbEntity
8
6
100
AcDbVertex
100
AcDb2dVertex
62
5
10
-43.200000
20
25.100434
0
VERTEX
5
3b9
100
AcDbEntity
8
6
100
AcDbVertex
100
AcDb2dVertex
62
5
10
-37.200000
20
26.100434
0
VERTEX
5
3ba
100
AcDbEntity
8
6
100
AcDbVertex
100
AcDb2dVertex
62
5
10
-37.200000
20
24.100434
0
VERTEX
5
3bb
100
AcDbEntity
8
6
100
AcDbVertex
100
AcDb2dVertex
62
5
10
-43.200000
20
25.100434
0
VERTEX
5
3bc
100
AcDbEntity
8
6
100
AcDbVertex
100
AcDb2dVertex
62
5
10
-37.200000
20
25.600434
0
VERTEX
5
3bd
100
AcDbEntity
8
6
100
AcDbVertex
100
AcDb2dVertex
62
5
10
-37.200000
20
24.600434
0
VERTEX
5
3be
100
AcDbEntity
8
6
100
AcDbVertex
100
AcDb2dVertex
62
5
10
-43.200000
20
25.100434
0
SEQEND
5
3bf
100
AcDbEntity
8
6
0
POLYLINE
5
3c0
100
AcDbEntity
8
6
6
CONTINUOUS
62
5
100
AcDb2dPolyline
66
1
10
0.0
20
0.0
30
0.0
70
0
0
VERTEX
5
3c1
100
AcDbEntity
8
6
100
AcDbVertex
100
AcDb2dVertex
62
5
10
-21.600000
20
25.100434
0
VERTEX
5
3c2
100
AcDbEntity
8
6
100
AcDbVertex
100
AcDb2dVertex
62
5
10
0.000000
20
25.100434
0
VERTEX
5
3c3
100
AcDbEntity
8
6
100
AcDbVertex
100
AcDb2dVertex
62
5
10
-6.000000
20
24.100434
0
VERTEX
5
3c4
100
AcDbEntity
8
6
100
AcDbVertex
100
AcDb2dVertex
62
5
10
-6.000000
20
26.100434
0
VERTEX
5
3c5
100
AcDbEntity
8
6
100
AcDbVertex
100
AcDb2dVertex
62
5
10
0.000000
20
25.100434
0
VERTEX
5
3c6
100
AcDbEntity
8
6
100
AcDbVertex
100
AcDb2dVertex
62
5
10
-6.000000
20
24.600434
0
VERTEX
5
3c7
100
AcDbEntity
8
6
100
AcDbVertex
100
AcDb2dVertex
62
5
10
-6.000000
20
25.600434
0
VERTEX
5
3c8
100
AcDbEntity
8
6
100
AcDbVertex
100
AcDb2dVertex
62
5
10
0.000000
20
25.100434
0
SEQEND
5
3c9
100
AcDbEntity
8
6
0
POLYLINE
5
3ca
100
AcDbEntity
8
1
6
CONTINUOUS
62
5
100
AcDb2dPolyline
66
1
10
0.0
20
0.0
30
0.0
70
0
0
VERTEX
5
3cb
100
AcDbEntity
8
1
100
AcDbVertex
100
AcDb2dVertex
62
5
10
-23.799375
20
-10.204358
0
VERTEX
5
3cc
100
AcDbEntity
8
1
100
AcDbVertex
100
AcDb2dVertex
62
5
10
-23.294063
20
-9.860608
0
VERTEX
5
3cd
100
AcDbEntity
8
1
100
AcDbVertex
100
AcDb2dVertex
62
5
10
-22.788750
20
-9.173108
0
VERTEX
5
3ce
100
AcDbEntity
8
1
100
AcDbVertex
100
AcDb2dVertex
62
5
10
-22.451875
20
-8.657483
0
SEQEND
5
3cf
100
AcDbEntity
8
1
0
LINE
5
3d0
100
AcDbEntity
8
1
100
AcDbLine
6
CONTINUOUS
62
5
10
-22.788750
20
-9.173108
11
-19.588438
21
-9.173108
0
LINE
5
3d1
100
AcDbEntity
8
1
100
AcDbLine
6
CONTINUOUS
62
5
10
-22.620313
20
-10.032483
11
-20.093750
21
-10.032483
0
POLYLINE
5
3d2
100
AcDbEntity
8
1
6
CONTINUOUS
62
5
100
AcDb2dPolyline
66
1
10
0.0
20
0.0
30
0.0
70
0
0
VERTEX
5
3d3
100
AcDbEntity
8
1
100
AcDbVertex
100
AcDb2dVertex
62
5
10
-23.294063
20
-10.719983
0
VERTEX
5
3d4
100
AcDbEntity
8
1
100
AcDbVertex
100
AcDb2dVertex
62
5
10
-20.093750
20
-10.719983
0
VERTEX
5
3d5
100
AcDbEntity
8
1
100
AcDbVertex
100
AcDb2dVertex
62
5
10
-20.093750
20
-12.438733
0
VERTEX
5
3d6
100
AcDbEntity
8
1
100
AcDbVertex
100
AcDb2dVertex
62
5
10
-19.925313
20
-12.954358
0
VERTEX
5
3d7
100
AcDbEntity
8
1
100
AcDbVertex
100
AcDb2dVertex
62
5
10
-19.588438
20
-13.469983
0
VERTEX
5
3d8
100
AcDbEntity
8
1
100
AcDbVertex
100
AcDb2dVertex
62
5
10
-19.251563
20
-12.438733
0
SEQEND
5
3d9
100
AcDbEntity
8
1
0
POLYLINE
5
3da
100
AcDbEntity
8
1
6
CONTINUOUS
62
5
100
AcDb2dPolyline
66
1
10
0.0
20
0.0
30
0.0
70
0
0
VERTEX
5
3db
100
AcDbEntity
8
1
100
AcDbVertex
100
AcDb2dVertex
62
5
10
-22.620313
20
-11.751233
0
VERTEX
5
3dc
100
AcDbEntity
8
1
100
AcDbVertex
100
AcDb2dVertex
62
5
10
-21.778125
20
-12.266858
0
VERTEX
5
3dd
100
AcDbEntity
8
1
100
AcDbVertex
100
AcDb2dVertex
62
5
10
-21.104375
20
-12.782483
0
SEQEND
5
3de
100
AcDbEntity
8
1
0
POLYLINE
5
3df
100
AcDbEntity
8
1
6
CONTINUOUS
62
5
100
AcDb2dPolyline
66
1
10
0.0
20
0.0
30
0.0
70
0
0
VERTEX
5
3e0
100
AcDbEntity
8
1
100
AcDbVertex
100
AcDb2dVertex
62
5
10
-21.104375
20
-11.407483
0
VERTEX
5
3e1
100
AcDbEntity
8
1
100
AcDbVertex
100
AcDb2dVertex
62
5
10
-22.115000
20
-12.438733
0
VERTEX
5
3e2
100
AcDbEntity
8
1
100
AcDbVertex
100
AcDb2dVertex
62
5
10
-22.957188
20
-12.954358
0
VERTEX
5
3e3
100
AcDbEntity
8
1
100
AcDbVertex
100
AcDb2dVertex
62
5
10
-23.799375
20
-13.298108
0
SEQEND
5
3e4
100
AcDbEntity
8
1
0
ARC
5
3e5
100
AcDbEntity
8
1
100
AcDbCircle
6
CONTINUOUS
62
5
10
-38.100000
20
-20.949566
40
1.000000
100
AcDbArc
50
89.999999
51
179.999998
0
LINE
5
3e6
100
AcDbEntity
8
1
100
AcDbLine
6
CONTINUOUS
62
5
10
-39.100000
20
-20.949566
11
-39.100000
21
-24.449566
0
ARC
5
3e7
100
AcDbEntity
8
1
100
AcDbCircle
6
CONTINUOUS
62
5
10
-38.100000
20
-24.449566
40
1.000000
100
AcDbArc
50
179.999998
51
-89.999999
0
LINE
5
3e8
100
AcDbEntity
8
1
100
AcDbLine
6
CONTINUOUS
62
5
10
-38.100000
20
-25.449566
11
-5.100000
21
-25.449566
0
ARC
5
3e9
100
AcDbEntity
8
1
100
AcDbCircle
6
CONTINUOUS
62
5
10
-5.100000
20
-24.449566
40
1.000000
100
AcDbArc
50
-89.999999
51
0.000000
0
LINE
5
3ea
100
AcDbEntity
8
1
100
AcDbLine
6
CONTINUOUS
62
5
10
-4.100000
20
-24.449566
11
-4.100000
21
-20.949566
0
ARC
5
3eb
100
AcDbEntity
8
1
100
AcDbCircle
6
CONTINUOUS
62
5
10
-5.100000
20
-20.949566
40
1.000000
100
AcDbArc
50
0.000000
51
89.999999
0
LINE
5
3ec
100
AcDbEntity
8
1
100
AcDbLine
6
CONTINUOUS
62
5
10
-5.100000
20
-19.949566
11
-38.100000
21
-19.949566
0
ARC
5
3ed
100
AcDbEntity
8
1
100
AcDbCircle
6
CONTINUOUS
62
5
10
-18.200000
20
-22.699566
40
0.800000
100
AcDbArc
50
-89.999999
51
89.999999
0
LINE
5
3ee
100
AcDbEntity
8
1
100
AcDbLine
6
CONTINUOUS
62
5
10
-18.200000
20
-23.499566
11
-25.000000
21
-23.499566
0
ARC
5
3ef
100
AcDbEntity
8
1
100
AcDbCircle
6
CONTINUOUS
62
5
10
-25.000000
20
-22.699566
40
0.800000
100
AcDbArc
50
89.999999
51
-89.999999
0
LINE
5
3f0
100
AcDbEntity
8
1
100
AcDbLine
6
CONTINUOUS
62
5
10
-25.000000
20
-21.899566
11
-18.200000
21
-21.899566
0
LINE
5
3f1
100
AcDbEntity
8
1
100
AcDbLine
6
CONTINUOUS
62
5
10
-181.600000
20
105.350000
11
138.400000
21
105.350000
0
LINE
5
3f2
100
AcDbEntity
8
1
100
AcDbLine
6
CONTINUOUS
62
5
10
-18.184375
20
-35.175400
11
-17.746875
21
-35.503525
0
POLYLINE
5
3f3
100
AcDbEntity
8
1
6
CONTINUOUS
62
5
100
AcDb2dPolyline
66
1
10
0.0
20
0.0
30
0.0
70
0
0
VERTEX
5
3f4
100
AcDbEntity
8
1
100
AcDbVertex
100
AcDb2dVertex
62
5
10
-18.403125
20
-36.487900
0
VERTEX
5
3f5
100
AcDbEntity
8
1
100
AcDbVertex
100
AcDb2dVertex
62
5
10
-17.856250
20
-36.487900
0
VERTEX
5
3f6
100
AcDbEntity
8
1
100
AcDbVertex
100
AcDb2dVertex
62
5
10
-17.856250
20
-37.581650
0
VERTEX
5
3f7
100
AcDbEntity
8
1
100
AcDbVertex
100
AcDb2dVertex
62
5
10
-18.403125
20
-37.909775
0
SEQEND
5
3f8
100
AcDbEntity
8
1
0
POLYLINE
5
3f9
100
AcDbEntity
8
1
6
CONTINUOUS
62
5
100
AcDb2dPolyline
66
1
10
0.0
20
0.0
30
0.0
70
0
0
VERTEX
5
3fa
100
AcDbEntity
8
1
100
AcDbVertex
100
AcDb2dVertex
62
5
10
-17.856250
20
-37.581650
0
VERTEX
5
3fb
100
AcDbEntity
8
1
100
AcDbVertex
100
AcDb2dVertex
62
5
10
-17.418750
20
-37.800400
0
VERTEX
5
3fc
100
AcDbEntity
8
1
100
AcDbVertex
100
AcDb2dVertex
62
5
10
-15.340625
20
-38.019150
0
SEQEND
5
3fd
100
AcDbEntity
8
1
0
LINE
5
3fe
100
AcDbEntity
8
1
100
AcDbLine
6
CONTINUOUS
62
5
10
-17.418750
20
-35.394150
11
-15.340625
21
-35.394150
0
LINE
5
3ff
100
AcDbEntity
8
1
100
AcDbLine
6
CONTINUOUS
62
5
10
-16.325000
20
-34.956650
11
-16.325000
21
-37.581650
0
POLYLINE
5
400
100
AcDbEntity
8
1
6
CONTINUOUS
62
5
100
AcDb2dPolyline
66
1
10
0.0
20
0.0
30
0.0
70
1
0
VERTEX
5
401
100
AcDbEntity
8
1
100
AcDbVertex
100
AcDb2dVertex
62
5
10
-17.200000
20
-35.831650
0
VERTEX
5
402
100
AcDbEntity
8
1
100
AcDbVertex
100
AcDb2dVertex
62
5
10
-17.200000
20
-36.706650
0
VERTEX
5
403
100
AcDbEntity
8
1
100
AcDbVertex
100
AcDb2dVertex
62
5
10
-15.559375
20
-36.706650
0
VERTEX
5
404
100
AcDbEntity
8
1
100
AcDbVertex
100
AcDb2dVertex
62
5
10
-15.559375
20
-35.831650
0
VERTEX
5
405
100
AcDbEntity
8
1
100
AcDbVertex
100
AcDb2dVertex
62
5
10
-17.200000
20
-35.831650
0
SEQEND
5
406
100
AcDbEntity
8
1
0
LINE
5
407
100
AcDbEntity
8
1
100
AcDbLine
6
CONTINUOUS
62
5
10
-17.200000
20
-36.269150
11
-15.559375
21
-36.269150
0
LINE
5
408
100
AcDbEntity
8
1
100
AcDbLine
6
CONTINUOUS
62
5
10
-17.637500
20
-37.144150
11
-15.231250
21
-37.144150
0
LINE
5
409
100
AcDbEntity
8
1
100
AcDbLine
6
CONTINUOUS
62
5
10
-14.028125
20
-35.066025
11
-14.465625
21
-35.612900
0
LINE
5
40a
100
AcDbEntity
8
1
100
AcDbLine
6
CONTINUOUS
62
5
10
-14.575000
20
-35.503525
11
-14.137500
21
-35.941025
0
LINE
5
40b
100
AcDbEntity
8
1
100
AcDbLine
6
CONTINUOUS
62
5
10
-13.809375
20
-35.503525
11
-14.575000
21
-36.487900
0
LINE
5
40c
100
AcDbEntity
8
1
100
AcDbLine
6
CONTINUOUS
62
5
10
-14.793750
20
-36.487900
11
-13.700000
21
-36.487900
0
LINE
5
40d
100
AcDbEntity
8
1
100
AcDbLine
6
CONTINUOUS
62
5
10
-13.809375
20
-36.159775
11
-13.590625
21
-36.706650
0
LINE
5
40e
100
AcDbEntity
8
1
100
AcDbLine
6
CONTINUOUS
62
5
10
-14.137500
20
-36.487900
11
-14.137500
21
-38.019150
0
LINE
5
40f
100
AcDbEntity
8
1
100
AcDbLine
6
CONTINUOUS
62
5
10
-14.465625
20
-36.816025
11
-14.684375
21
-37.472275
0
LINE
5
410
100
AcDbEntity
8
1
100
AcDbLine
6
CONTINUOUS
62
5
10
-13.809375
20
-36.816025
11
-13.590625
21
-37.362900
0
LINE
5
411
100
AcDbEntity
8
1
100
AcDbLine
6
CONTINUOUS
62
5
10
-13.481250
20
-35.394150
11
-11.731250
21
-35.394150
0
LINE
5
412
100
AcDbEntity
8
1
100
AcDbLine
6
CONTINUOUS
62
5
10
-12.606250
20
-34.956650
11
-12.606250
21
-35.941025
0
LINE
5
413
100
AcDbEntity
8
1
100
AcDbLine
6
CONTINUOUS
62
5
10
-13.262500
20
-35.941025
11
-11.950000
21
-35.941025
0
POLYLINE
5
414
100
AcDbEntity
8
1
6
CONTINUOUS
62
5
100
AcDb2dPolyline
66
1
10
0.0
20
0.0
30
0.0
70
0
0
VERTEX
5
415
100
AcDbEntity
8
1
100
AcDbVertex
100
AcDb2dVertex
62
5
10
-13.371875
20
-36.706650
0
VERTEX
5
416
100
AcDbEntity
8
1
100
AcDbVertex
100
AcDb2dVertex
62
5
10
-13.371875
20
-36.269150
0
VERTEX
5
417
100
AcDbEntity
8
1
100
AcDbVertex
100
AcDb2dVertex
62
5
10
-11.731250
20
-36.269150
0
VERTEX
5
418
100
AcDbEntity
8
1
100
AcDbVertex
100
AcDb2dVertex
62
5
10
-11.731250
20
-36.706650
0
SEQEND
5
419
100
AcDbEntity
8
1
0
POLYLINE
5
41a
100
AcDbEntity
8
1
6
CONTINUOUS
62
5
100
AcDb2dPolyline
66
1
10
0.0
20
0.0
30
0.0
70
0
0
VERTEX
5
41b
100
AcDbEntity
8
1
100
AcDbVertex
100
AcDb2dVertex
62
5
10
-12.825000
20
-36.706650
0
VERTEX
5
41c
100
AcDbEntity
8
1
100
AcDbVertex
100
AcDb2dVertex
62
5
10
-12.825000
20
-37.253525
0
VERTEX
5
41d
100
AcDbEntity
8
1
100
AcDbVertex
100
AcDb2dVertex
62
5
10
-13.043750
20
-37.691025
0
VERTEX
5
41e
100
AcDbEntity
8
1
100
AcDbVertex
100
AcDb2dVertex
62
5
10
-13.371875
20
-37.909775
0
SEQEND
5
41f
100
AcDbEntity
8
1
0
POLYLINE
5
420
100
AcDbEntity
8
1
6
CONTINUOUS
62
5
100
AcDb2dPolyline
66
1
10
0.0
20
0.0
30
0.0
70
0
0
VERTEX
5
421
100
AcDbEntity
8
1
100
AcDbVertex
100
AcDb2dVertex
62
5
10
-12.387500
20
-36.706650
0
VERTEX
5
422
100
AcDbEntity
8
1
100
AcDbVertex
100
AcDb2dVertex
62
5
10
-12.387500
20
-37.800400
0
VERTEX
5
423
100
AcDbEntity
8
1
100
AcDbVertex
100
AcDb2dVertex
62
5
10
-12.278125
20
-37.909775
0
VERTEX
5
424
100
AcDbEntity
8
1
100
AcDbVertex
100
AcDb2dVertex
62
5
10
-11.731250
20
-37.909775
0
VERTEX
5
425
100
AcDbEntity
8
1
100
AcDbVertex
100
AcDb2dVertex
62
5
10
-11.731250
20
-37.581650
0
SEQEND
5
426
100
AcDbEntity
8
1
0
POLYLINE
5
427
100
AcDbEntity
8
1
6
CONTINUOUS
62
5
100
AcDb2dPolyline
66
1
10
0.0
20
0.0
30
0.0
70
0
0
VERTEX
5
428
100
AcDbEntity
8
1
100
AcDbVertex
100
AcDb2dVertex
62
5
10
-19.490625
20
-39.598733
0
VERTEX
5
429
100
AcDbEntity
8
1
100
AcDbVertex
100
AcDb2dVertex
62
5
10
-20.365625
20
-40.911233
0
VERTEX
5
42a
100
AcDbEntity
8
1
100
AcDbVertex
100
AcDb2dVertex
62
5
10
-19.490625
20
-42.114358
0
SEQEND
5
42b
100
AcDbEntity
8
1
0
LINE
5
42c
100
AcDbEntity
8
1
100
AcDbLine
6
CONTINUOUS
62
5
10
-17.303125
20
-40.473733
11
-15.990625
21
-40.364358
0
POLYLINE
5
42d
100
AcDbEntity
8
1
6
CONTINUOUS
62
5
100
AcDb2dPolyline
66
1
10
0.0
20
0.0
30
0.0
70
0
0
VERTEX
5
42e
100
AcDbEntity
8
1
100
AcDbVertex
100
AcDb2dVertex
62
5
10
-16.537500
20
-39.817483
0
VERTEX
5
42f
100
AcDbEntity
8
1
100
AcDbVertex
100
AcDb2dVertex
62
5
10
-16.537500
20
-40.145608
0
VERTEX
5
430
100
AcDbEntity
8
1
100
AcDbVertex
100
AcDb2dVertex
62
5
10
-16.975000
20
-41.458108
0
VERTEX
5
431
100
AcDbEntity
8
1
100
AcDbVertex
100
AcDb2dVertex
62
5
10
-17.412500
20
-42.223733
0
SEQEND
5
432
100
AcDbEntity
8
1
0
POLYLINE
5
433
100
AcDbEntity
8
1
6
CONTINUOUS
62
5
100
AcDb2dPolyline
66
1
10
0.0
20
0.0
30
0.0
70
0
0
VERTEX
5
434
100
AcDbEntity
8
1
100
AcDbVertex
100
AcDb2dVertex
62
5
10
-15.990625
20
-40.801858
0
VERTEX
5
435
100
AcDbEntity
8
1
100
AcDbVertex
100
AcDb2dVertex
62
5
10
-15.443750
20
-40.801858
0
VERTEX
5
436
100
AcDbEntity
8
1
100
AcDbVertex
100
AcDb2dVertex
62
5
10
-15.225000
20
-40.911233
0
SEQEND
5
437
100
AcDbEntity
8
1
0
POLYLINE
5
438
100
AcDbEntity
8
1
6
CONTINUOUS
62
5
100
AcDb2dPolyline
66
1
10
0.0
20
0.0
30
0.0
70
0
0
VERTEX
5
439
100
AcDbEntity
8
1
100
AcDbVertex
100
AcDb2dVertex
62
5
10
-16.318750
20
-41.786233
0
VERTEX
5
43a
100
AcDbEntity
8
1
100
AcDbVertex
100
AcDb2dVertex
62
5
10
-16.209375
20
-41.895608
0
VERTEX
5
43b
100
AcDbEntity
8
1
100
AcDbVertex
100
AcDb2dVertex
62
5
10
-15.771875
20
-42.004983
0
VERTEX
5
43c
100
AcDbEntity
8
1
100
AcDbVertex
100
AcDb2dVertex
62
5
10
-15.115625
20
-42.004983
0
SEQEND
5
43d
100
AcDbEntity
8
1
0
LINE
5
43e
100
AcDbEntity
8
1
100
AcDbLine
6
CONTINUOUS
62
5
10
-15.334375
20
-40.036233
11
-15.115625
21
-40.254983
0
LINE
5
43f
100
AcDbEntity
8
1
100
AcDbLine
6
CONTINUOUS
62
5
10
-15.006250
20
-39.817483
11
-14.787500
21
-40.036233
0
POLYLINE
5
440
100
AcDbEntity
8
1
6
CONTINUOUS
62
5
100
AcDb2dPolyline
66
1
10
0.0
20
0.0
30
0.0
70
0
0
VERTEX
5
441
100
AcDbEntity
8
1
100
AcDbVertex
100
AcDb2dVertex
62
5
10
-13.475000
20
-40.583108
0
VERTEX
5
442
100
AcDbEntity
8
1
100
AcDbVertex
100
AcDb2dVertex
62
5
10
-12.162500
20
-40.364358
0
VERTEX
5
443
100
AcDbEntity
8
1
100
AcDbVertex
100
AcDb2dVertex
62
5
10
-11.834375
20
-40.254983
0
SEQEND
5
444
100
AcDbEntity
8
1
0
POLYLINE
5
445
100
AcDbEntity
8
1
6
CONTINUOUS
62
5
100
AcDb2dPolyline
66
1
10
0.0
20
0.0
30
0.0
70
0
0
VERTEX
5
446
100
AcDbEntity
8
1
100
AcDbVertex
100
AcDb2dVertex
62
5
10
-12.818750
20
-39.708108
0
VERTEX
5
447
100
AcDbEntity
8
1
100
AcDbVertex
100
AcDb2dVertex
62
5
10
-12.381250
20
-40.583108
0
VERTEX
5
448
100
AcDbEntity
8
1
100
AcDbVertex
100
AcDb2dVertex
62
5
10
-11.834375
20
-41.348733
0
VERTEX
5
449
100
AcDbEntity
8
1
100
AcDbVertex
100
AcDb2dVertex
62
5
10
-12.600000
20
-41.129983
0
VERTEX
5
44a
100
AcDbEntity
8
1
100
AcDbVertex
100
AcDb2dVertex
62
5
10
-13.146875
20
-41.129983
0
VERTEX
5
44b
100
AcDbEntity
8
1
100
AcDbVertex
100
AcDb2dVertex
62
5
10
-13.475000
20
-41.348733
0
VERTEX
5
44c
100
AcDbEntity
8
1
100
AcDbVertex
100
AcDb2dVertex
62
5
10
-13.584375
20
-41.567483
0
VERTEX
5
44d
100
AcDbEntity
8
1
100
AcDbVertex
100
AcDb2dVertex
62
5
10
-13.584375
20
-41.676858
0
VERTEX
5
44e
100
AcDbEntity
8
1
100
AcDbVertex
100
AcDb2dVertex
62
5
10
-13.365625
20
-41.895608
0
VERTEX
5
44f
100
AcDbEntity
8
1
100
AcDbVertex
100
AcDb2dVertex
62
5
10
-13.037500
20
-42.004983
0
VERTEX
5
450
100
AcDbEntity
8
1
100
AcDbVertex
100
AcDb2dVertex
62
5
10
-12.271875
20
-42.114358
0
SEQEND
5
451
100
AcDbEntity
8
1
0
POLYLINE
5
452
100
AcDbEntity
8
1
6
CONTINUOUS
62
5
100
AcDb2dPolyline
66
1
10
0.0
20
0.0
30
0.0
70
0
0
VERTEX
5
453
100
AcDbEntity
8
1
100
AcDbVertex
100
AcDb2dVertex
62
5
10
-10.303125
20
-40.254983
0
VERTEX
5
454
100
AcDbEntity
8
1
100
AcDbVertex
100
AcDb2dVertex
62
5
10
-10.303125
20
-40.583108
0
VERTEX
5
455
100
AcDbEntity
8
1
100
AcDbVertex
100
AcDb2dVertex
62
5
10
-10.084375
20
-41.348733
0
VERTEX
5
456
100
AcDbEntity
8
1
100
AcDbVertex
100
AcDb2dVertex
62
5
10
-9.975000
20
-41.676858
0
VERTEX
5
457
100
AcDbEntity
8
1
100
AcDbVertex
100
AcDb2dVertex
62
5
10
-9.756250
20
-41.895608
0
VERTEX
5
458
100
AcDbEntity
8
1
100
AcDbVertex
100
AcDb2dVertex
62
5
10
-9.537500
20
-41.895608
0
VERTEX
5
459
100
AcDbEntity
8
1
100
AcDbVertex
100
AcDb2dVertex
62
5
10
-9.209375
20
-41.567483
0
SEQEND
5
45a
100
AcDbEntity
8
1
0
POLYLINE
5
45b
100
AcDbEntity
8
1
6
CONTINUOUS
62
5
100
AcDb2dPolyline
66
1
10
0.0
20
0.0
30
0.0
70
0
0
VERTEX
5
45c
100
AcDbEntity
8
1
100
AcDbVertex
100
AcDb2dVertex
62
5
10
-8.443750
20
-40.364358
0
VERTEX
5
45d
100
AcDbEntity
8
1
100
AcDbVertex
100
AcDb2dVertex
62
5
10
-8.115625
20
-40.911233
0
VERTEX
5
45e
100
AcDbEntity
8
1
100
AcDbVertex
100
AcDb2dVertex
62
5
10
-8.006250
20
-41.348733
0
SEQEND
5
45f
100
AcDbEntity
8
1
0
POLYLINE
5
460
100
AcDbEntity
8
1
6
CONTINUOUS
62
5
100
AcDb2dPolyline
66
1
10
0.0
20
0.0
30
0.0
70
0
0
VERTEX
5
461
100
AcDbEntity
8
1
100
AcDbVertex
100
AcDb2dVertex
62
5
10
-9.410739
20
-105.700434
0
VERTEX
5
462
100
AcDbEntity
8
1
100
AcDbVertex
100
AcDb2dVertex
62
5
10
-9.600000
20
-106.900379
0
VERTEX
5
463
100
AcDbEntity
8
1
100
AcDbVertex
100
AcDb2dVertex
62
5
10
-10.399012
20
-106.900379
0
SEQEND
5
464
100
AcDbEntity
8
1
0
ARC
5
465
100
AcDbEntity
8
1
100
AcDbCircle
6
CONTINUOUS
62
5
10
-12.323962
20
-106.600379
40
0.300000
100
AcDbArc
50
-175.236355
51
-89.999999
0
LINE
5
466
100
AcDbEntity
8
1
100
AcDbLine
6
CONTINUOUS
62
5
10
-12.323962
20
-106.900379
11
-10.399011
21
-106.900379
0
ARC
5
467
100
AcDbEntity
8
1
100
AcDbCircle
6
CONTINUOUS
62
5
10
-10.400000
20
-106.600380
40
0.300000
100
AcDbArc
50
-89.811142
51
-0.000000
0
LINE
5
468
100
AcDbEntity
8
1
100
AcDbLine
6
CONTINUOUS
62
5
10
-10.100000
20
-106.600380
11
-10.100000
21
-105.700434
0
LINE
5
469
100
AcDbEntity
8
1
100
AcDbLine
6
CONTINUOUS
62
5
10
-12.724997
20
-105.400434
11
-12.622926
21
-106.625293
0
POLYLINE
5
46a
100
AcDbEntity
8
1
6
CONTINUOUS
62
5
100
AcDb2dPolyline
66
1
10
0.0
20
0.0
30
0.0
70
0
0
VERTEX
5
46b
100
AcDbEntity
8
1
100
AcDbVertex
100
AcDb2dVertex
62
5
10
-31.637500
20
-35.831650
0
VERTEX
5
46c
100
AcDbEntity
8
1
100
AcDbVertex
100
AcDb2dVertex
62
5
10
-31.418750
20
-35.503525
0
VERTEX
5
46d
100
AcDbEntity
8
1
100
AcDbVertex
100
AcDb2dVertex
62
5
10
-30.981250
20
-35.175400
0
VERTEX
5
46e
100
AcDbEntity
8
1
100
AcDbVertex
100
AcDb2dVertex
62
5
10
-30.434375
20
-35.175400
0
VERTEX
5
46f
100
AcDbEntity
8
1
100
AcDbVertex
100
AcDb2dVertex
62
5
10
-29.996875
20
-35.394150
0
VERTEX
5
470
100
AcDbEntity
8
1
100
AcDbVertex
100
AcDb2dVertex
62
5
10
-29.887500
20
-35.612900
0
VERTEX
5
471
100
AcDbEntity
8
1
100
AcDbVertex
100
AcDb2dVertex
62
5
10
-29.887500
20
-35.941025
0
VERTEX
5
472
100
AcDbEntity
8
1
100
AcDbVertex
100
AcDb2dVertex
62
5
10
-29.996875
20
-36.159775
0
VERTEX
5
473
100
AcDbEntity
8
1
100
AcDbVertex
100
AcDb2dVertex
62
5
10
-31.528125
20
-37.800400
0
VERTEX
5
474
100
AcDbEntity
8
1
100
AcDbVertex
100
AcDb2dVertex
62
5
10
-29.887500
20
-37.800400
0
VERTEX
5
475
100
AcDbEntity
8
1
100
AcDbVertex
100
AcDb2dVertex
62
5
10
-29.887500
20
-37.253525
0
SEQEND
5
476
100
AcDbEntity
8
1
0
LINE
5
477
100
AcDbEntity
8
1
100
AcDbLine
6
CONTINUOUS
62
5
10
-26.825000
20
-35.175400
11
-26.825000
21
-37.800400
0
LINE
5
478
100
AcDbEntity
8
1
100
AcDbLine
6
CONTINUOUS
62
5
10
-27.371875
20
-37.800400
11
-26.278125
21
-37.800400
0
POLYLINE
5
479
100
AcDbEntity
8
1
6
CONTINUOUS
62
5
100
AcDb2dPolyline
66
1
10
0.0
20
0.0
30
0.0
70
0
0
VERTEX
5
47a
100
AcDbEntity
8
1
100
AcDbVertex
100
AcDb2dVertex
62
5
10
-26.825000
20
-35.175400
0
VERTEX
5
47b
100
AcDbEntity
8
1
100
AcDbVertex
100
AcDb2dVertex
62
5
10
-28.356250
20
-37.144150
0
VERTEX
5
47c
100
AcDbEntity
8
1
100
AcDbVertex
100
AcDb2dVertex
62
5
10
-26.278125
20
-37.144150
0
SEQEND
5
47d
100
AcDbEntity
8
1
0
POLYLINE
5
47e
100
AcDbEntity
8
1
6
CONTINUOUS
62
5
100
AcDb2dPolyline
66
1
10
0.0
20
0.0
30
0.0
70
1
0
VERTEX
5
47f
100
AcDbEntity
8
1
100
AcDbVertex
100
AcDb2dVertex
62
5
10
-25.293750
20
-35.284775
0
VERTEX
5
480
100
AcDbEntity
8
1
100
AcDbVertex
100
AcDb2dVertex
62
5
10
-25.293750
20
-37.472275
0
VERTEX
5
481
100
AcDbEntity
8
1
100
AcDbVertex
100
AcDb2dVertex
62
5
10
-24.528125
20
-37.472275
0
VERTEX
5
482
100
AcDbEntity
8
1
100
AcDbVertex
100
AcDb2dVertex
62
5
10
-24.528125
20
-35.284775
0
VERTEX
5
483
100
AcDbEntity
8
1
100
AcDbVertex
100
AcDb2dVertex
62
5
10
-25.293750
20
-35.284775
0
SEQEND
5
484
100
AcDbEntity
8
1
0
LINE
5
485
100
AcDbEntity
8
1
100
AcDbLine
6
CONTINUOUS
62
5
10
-25.293750
20
-36.378525
11
-24.528125
21
-36.378525
0
LINE
5
486
100
AcDbEntity
8
1
100
AcDbLine
6
CONTINUOUS
62
5
10
-24.090625
20
-35.503525
11
-22.450000
21
-35.503525
0
LINE
5
487
100
AcDbEntity
8
1
100
AcDbLine
6
CONTINUOUS
62
5
10
-24.309375
20
-36.159775
11
-22.231250
21
-36.159775
0
LINE
5
488
100
AcDbEntity
8
1
100
AcDbLine
6
CONTINUOUS
62
5
10
-23.325000
20
-34.956650
11
-23.325000
21
-36.159775
0
LINE
5
489
100
AcDbEntity
8
1
100
AcDbLine
6
CONTINUOUS
62
5
10
-24.200000
20
-36.816025
11
-22.340625
21
-36.816025
0
POLYLINE
5
48a
100
AcDbEntity
8
1
6
CONTINUOUS
62
5
100
AcDb2dPolyline
66
1
10
0.0
20
0.0
30
0.0
70
0
0
VERTEX
5
48b
100
AcDbEntity
8
1
100
AcDbVertex
100
AcDb2dVertex
62
5
10
-22.887500
20
-36.378525
0
VERTEX
5
48c
100
AcDbEntity
8
1
100
AcDbVertex
100
AcDb2dVertex
62
5
10
-22.887500
20
-37.800400
0
VERTEX
5
48d
100
AcDbEntity
8
1
100
AcDbVertex
100
AcDb2dVertex
62
5
10
-23.106250
20
-38.019150
0
VERTEX
5
48e
100
AcDbEntity
8
1
100
AcDbVertex
100
AcDb2dVertex
62
5
10
-23.325000
20
-38.019150
0
SEQEND
5
48f
100
AcDbEntity
8
1
0
LINE
5
490
100
AcDbEntity
8
1
100
AcDbLine
6
CONTINUOUS
62
5
10
-23.871875
20
-37.253525
11
-23.653125
21
-37.581650
0
LINE
5
491
100
AcDbEntity
8
1
100
AcDbLine
6
CONTINUOUS
62
5
10
-35.240625
20
-40.254983
11
-34.365625
21
-40.254983
0
LINE
5
492
100
AcDbEntity
8
1
100
AcDbLine
6
CONTINUOUS
62
5
10
-35.240625
20
-41.348733
11
-34.365625
21
-40.801858
0
POLYLINE
5
493
100
AcDbEntity
8
1
6
CONTINUOUS
62
5
100
AcDb2dPolyline
66
1
10
0.0
20
0.0
30
0.0
70
0
0
VERTEX
5
494
100
AcDbEntity
8
1
100
AcDbVertex
100
AcDb2dVertex
62
5
10
-34.803125
20
-39.489358
0
VERTEX
5
495
100
AcDbEntity
8
1
100
AcDbVertex
100
AcDb2dVertex
62
5
10
-34.803125
20
-42.442483
0
VERTEX
5
496
100
AcDbEntity
8
1
100
AcDbVertex
100
AcDb2dVertex
62
5
10
-35.021875
20
-42.442483
0
SEQEND
5
497
100
AcDbEntity
8
1
0
LINE
5
498
100
AcDbEntity
8
1
100
AcDbLine
6
CONTINUOUS
62
5
10
-34.146875
20
-40.036233
11
-33.709375
21
-39.379983
0
POLYLINE
5
499
100
AcDbEntity
8
1
6
CONTINUOUS
62
5
100
AcDb2dPolyline
66
1
10
0.0
20
0.0
30
0.0
70
0
0
VERTEX
5
49a
100
AcDbEntity
8
1
100
AcDbVertex
100
AcDb2dVertex
62
5
10
-33.818750
20
-39.598733
0
VERTEX
5
49b
100
AcDbEntity
8
1
100
AcDbVertex
100
AcDb2dVertex
62
5
10
-32.943750
20
-39.598733
0
VERTEX
5
49c
100
AcDbEntity
8
1
100
AcDbVertex
100
AcDb2dVertex
62
5
10
-33.381250
20
-40.254983
0
SEQEND
5
49d
100
AcDbEntity
8
1
0
POLYLINE
5
49e
100
AcDbEntity
8
1
6
CONTINUOUS
62
5
100
AcDb2dPolyline
66
1
10
0.0
20
0.0
30
0.0
70
0
0
VERTEX
5
49f
100
AcDbEntity
8
1
100
AcDbVertex
100
AcDb2dVertex
62
5
10
-34.037500
20
-41.239358
0
VERTEX
5
4a0
100
AcDbEntity
8
1
100
AcDbVertex
100
AcDb2dVertex
62
5
10
-34.037500
20
-40.254983
0
VERTEX
5
4a1
100
AcDbEntity
8
1
100
AcDbVertex
100
AcDb2dVertex
62
5
10
-32.506250
20
-40.254983
0
VERTEX
5
4a2
100
AcDbEntity
8
1
100
AcDbVertex
100
AcDb2dVertex
62
5
10
-32.506250
20
-41.239358
0
SEQEND
5
4a3
100
AcDbEntity
8
1
0
POLYLINE
5
4a4
100
AcDbEntity
8
1
6
CONTINUOUS
62
5
100
AcDb2dPolyline
66
1
10
0.0
20
0.0
30
0.0
70
0
0
VERTEX
5
4a5
100
AcDbEntity
8
1
100
AcDbVertex
100
AcDb2dVertex
62
5
10
-33.490625
20
-40.254983
0
VERTEX
5
4a6
100
AcDbEntity
8
1
100
AcDbVertex
100
AcDb2dVertex
62
5
10
-33.490625
20
-40.692483
0
VERTEX
5
4a7
100
AcDbEntity
8
1
100
AcDbVertex
100
AcDb2dVertex
62
5
10
-33.818750
20
-41.020608
0
SEQEND
5
4a8
100
AcDbEntity
8
1
0
POLYLINE
5
4a9
100
AcDbEntity
8
1
6
CONTINUOUS
62
5
100
AcDb2dPolyline
66
1
10
0.0
20
0.0
30
0.0
70
0
0
VERTEX
5
4aa
100
AcDbEntity
8
1
100
AcDbVertex
100
AcDb2dVertex
62
5
10
-33.053125
20
-40.254983
0
VERTEX
5
4ab
100
AcDbEntity
8
1
100
AcDbVertex
100
AcDb2dVertex
62
5
10
-33.053125
20
-41.020608
0
VERTEX
5
4ac
100
AcDbEntity
8
1
100
AcDbVertex
100
AcDb2dVertex
62
5
10
-32.615625
20
-41.020608
0
SEQEND
5
4ad
100
AcDbEntity
8
1
0
LINE
5
4ae
100
AcDbEntity
8
1
100
AcDbLine
6
CONTINUOUS
62
5
10
-34.475000
20
-41.567483
11
-32.068750
21
-41.567483
0
POLYLINE
5
4af
100
AcDbEntity
8
1
6
CONTINUOUS
62
5
100
AcDb2dPolyline
66
1
10
0.0
20
0.0
30
0.0
70
0
0
VERTEX
5
4b0
100
AcDbEntity
8
1
100
AcDbVertex
100
AcDb2dVertex
62
5
10
-33.381250
20
-41.129983
0
VERTEX
5
4b1
100
AcDbEntity
8
1
100
AcDbVertex
100
AcDb2dVertex
62
5
10
-33.381250
20
-41.567483
0
VERTEX
5
4b2
100
AcDbEntity
8
1
100
AcDbVertex
100
AcDb2dVertex
62
5
10
-33.600000
20
-42.004983
0
VERTEX
5
4b3
100
AcDbEntity
8
1
100
AcDbVertex
100
AcDb2dVertex
62
5
10
-33.928125
20
-42.333108
0
VERTEX
5
4b4
100
AcDbEntity
8
1
100
AcDbVertex
100
AcDb2dVertex
62
5
10
-34.475000
20
-42.551858
0
SEQEND
5
4b5
100
AcDbEntity
8
1
0
POLYLINE
5
4b6
100
AcDbEntity
8
1
6
CONTINUOUS
62
5
100
AcDb2dPolyline
66
1
10
0.0
20
0.0
30
0.0
70
0
0
VERTEX
5
4b7
100
AcDbEntity
8
1
100
AcDbVertex
100
AcDb2dVertex
62
5
10
-33.381250
20
-41.567483
0
VERTEX
5
4b8
100
AcDbEntity
8
1
100
AcDbVertex
100
AcDb2dVertex
62
5
10
-33.053125
20
-42.004983
0
VERTEX
5
4b9
100
AcDbEntity
8
1
100
AcDbVertex
100
AcDb2dVertex
62
5
10
-32.615625
20
-42.333108
0
VERTEX
5
4ba
100
AcDbEntity
8
1
100
AcDbVertex
100
AcDb2dVertex
62
5
10
-32.178125
20
-42.551858
0
SEQEND
5
4bb
100
AcDbEntity
8
1
0
POLYLINE
5
4bc
100
AcDbEntity
8
1
6
CONTINUOUS
62
5
100
AcDb2dPolyline
66
1
10
0.0
20
0.0
30
0.0
70
0
0
VERTEX
5
4bd
100
AcDbEntity
8
1
100
AcDbVertex
100
AcDb2dVertex
62
5
10
-31.631250
20
-40.364358
0
VERTEX
5
4be
100
AcDbEntity
8
1
100
AcDbVertex
100
AcDb2dVertex
62
5
10
-31.303125
20
-40.145608
0
VERTEX
5
4bf
100
AcDbEntity
8
1
100
AcDbVertex
100
AcDb2dVertex
62
5
10
-30.975000
20
-39.708108
0
VERTEX
5
4c0
100
AcDbEntity
8
1
100
AcDbVertex
100
AcDb2dVertex
62
5
10
-30.756250
20
-39.379983
0
SEQEND
5
4c1
100
AcDbEntity
8
1
0
LINE
5
4c2
100
AcDbEntity
8
1
100
AcDbLine
6
CONTINUOUS
62
5
10
-30.975000
20
-39.708108
11
-28.896875
21
-39.708108
0
LINE
5
4c3
100
AcDbEntity
8
1
100
AcDbLine
6
CONTINUOUS
62
5
10
-30.865625
20
-40.254983
11
-29.225000
21
-40.254983
0
POLYLINE
5
4c4
100
AcDbEntity
8
1
6
CONTINUOUS
62
5
100
AcDb2dPolyline
66
1
10
0.0
20
0.0
30
0.0
70
0
0
VERTEX
5
4c5
100
AcDbEntity
8
1
100
AcDbVertex
100
AcDb2dVertex
62
5
10
-31.303125
20
-40.692483
0
VERTEX
5
4c6
100
AcDbEntity
8
1
100
AcDbVertex
100
AcDb2dVertex
62
5
10
-29.225000
20
-40.692483
0
VERTEX
5
4c7
100
AcDbEntity
8
1
100
AcDbVertex
100
AcDb2dVertex
62
5
10
-29.225000
20
-41.786233
0
VERTEX
5
4c8
100
AcDbEntity
8
1
100
AcDbVertex
100
AcDb2dVertex
62
5
10
-29.115625
20
-42.114358
0
VERTEX
5
4c9
100
AcDbEntity
8
1
100
AcDbVertex
100
AcDb2dVertex
62
5
10
-28.896875
20
-42.442483
0
VERTEX
5
4ca
100
AcDbEntity
8
1
100
AcDbVertex
100
AcDb2dVertex
62
5
10
-28.678125
20
-41.786233
0
SEQEND
5
4cb
100
AcDbEntity
8
1
0
POLYLINE
5
4cc
100
AcDbEntity
8
1
6
CONTINUOUS
62
5
100
AcDb2dPolyline
66
1
10
0.0
20
0.0
30
0.0
70
0
0
VERTEX
5
4cd
100
AcDbEntity
8
1
100
AcDbVertex
100
AcDb2dVertex
62
5
10
-30.865625
20
-41.348733
0
VERTEX
5
4ce
100
AcDbEntity
8
1
100
AcDbVertex
100
AcDb2dVertex
62
5
10
-30.318750
20
-41.676858
0
VERTEX
5
4cf
100
AcDbEntity
8
1
100
AcDbVertex
100
AcDb2dVertex
62
5
10
-29.881250
20
-42.004983
0
SEQEND
5
4d0
100
AcDbEntity
8
1
0
POLYLINE
5
4d1
100
AcDbEntity
8
1
6
CONTINUOUS
62
5
100
AcDb2dPolyline
66
1
10
0.0
20
0.0
30
0.0
70
0
0
VERTEX
5
4d2
100
AcDbEntity
8
1
100
AcDbVertex
100
AcDb2dVertex
62
5
10
-29.881250
20
-41.129983
0
VERTEX
5
4d3
100
AcDbEntity
8
1
100
AcDbVertex
100
AcDb2dVertex
62
5
10
-30.537500
20
-41.786233
0
VERTEX
5
4d4
100
AcDbEntity
8
1
100
AcDbVertex
100
AcDb2dVertex
62
5
10
-31.084375
20
-42.114358
0
VERTEX
5
4d5
100
AcDbEntity
8
1
100
AcDbVertex
100
AcDb2dVertex
62
5
10
-31.631250
20
-42.333108
0
SEQEND
5
4d6
100
AcDbEntity
8
1
0
POLYLINE
5
4d7
100
AcDbEntity
8
1
6
CONTINUOUS
62
5
100
AcDb2dPolyline
66
1
10
0.0
20
0.0
30
0.0
70
0
0
VERTEX
5
4d8
100
AcDbEntity
8
1
100
AcDbVertex
100
AcDb2dVertex
62
5
10
-27.256250
20
-39.708108
0
VERTEX
5
4d9
100
AcDbEntity
8
1
100
AcDbVertex
100
AcDb2dVertex
62
5
10
-27.256250
20
-41.676858
0
VERTEX
5
4da
100
AcDbEntity
8
1
100
AcDbVertex
100
AcDb2dVertex
62
5
10
-27.037500
20
-42.114358
0
VERTEX
5
4db
100
AcDbEntity
8
1
100
AcDbVertex
100
AcDb2dVertex
62
5
10
-26.381250
20
-42.114358
0
VERTEX
5
4dc
100
AcDbEntity
8
1
100
AcDbVertex
100
AcDb2dVertex
62
5
10
-25.943750
20
-41.895608
0
VERTEX
5
4dd
100
AcDbEntity
8
1
100
AcDbVertex
100
AcDb2dVertex
62
5
10
-25.725000
20
-41.567483
0
SEQEND
5
4de
100
AcDbEntity
8
1
0
LINE
5
4df
100
AcDbEntity
8
1
100
AcDbLine
6
CONTINUOUS
62
5
10
-24.303125
20
-40.364358
11
-22.115625
21
-39.926858
0
POLYLINE
5
4e0
100
AcDbEntity
8
1
6
CONTINUOUS
62
5
100
AcDb2dPolyline
66
1
10
0.0
20
0.0
30
0.0
70
0
0
VERTEX
5
4e1
100
AcDbEntity
8
1
100
AcDbVertex
100
AcDb2dVertex
62
5
10
-22.662500
20
-40.036233
0
VERTEX
5
4e2
100
AcDbEntity
8
1
100
AcDbVertex
100
AcDb2dVertex
62
5
10
-23.100000
20
-40.473733
0
VERTEX
5
4e3
100
AcDbEntity
8
1
100
AcDbVertex
100
AcDb2dVertex
62
5
10
-23.318750
20
-40.911233
0
VERTEX
5
4e4
100
AcDbEntity
8
1
100
AcDbVertex
100
AcDb2dVertex
62
5
10
-23.318750
20
-41.458108
0
VERTEX
5
4e5
100
AcDbEntity
8
1
100
AcDbVertex
100
AcDb2dVertex
62
5
10
-23.209375
20
-41.786233
0
VERTEX
5
4e6
100
AcDbEntity
8
1
100
AcDbVertex
100
AcDb2dVertex
62
5
10
-22.881250
20
-42.004983
0
VERTEX
5
4e7
100
AcDbEntity
8
1
100
AcDbVertex
100
AcDb2dVertex
62
5
10
-22.334375
20
-42.114358
0
SEQEND
5
4e8
100
AcDbEntity
8
1
0
ARC
5
4e9
100
AcDbEntity
8
1
100
AcDbCircle
6
CONTINUOUS
62
5
10
-30.876038
20
-106.600379
40
0.300000
100
AcDbArc
50
-89.999999
51
-4.763643
0
LINE
5
4ea
100
AcDbEntity
8
1
100
AcDbLine
6
CONTINUOUS
62
5
10
-30.876038
20
-106.900379
11
-32.800989
21
-106.900379
0
ARC
5
4eb
100
AcDbEntity
8
1
100
AcDbCircle
6
CONTINUOUS
62
5
10
-32.800000
20
-106.600380
40
0.300000
100
AcDbArc
50
-179.999998
51
-90.188856
0
LINE
5
4ec
100
AcDbEntity
8
1
100
AcDbLine
6
CONTINUOUS
62
5
10
-33.100000
20
-106.600380
11
-33.100000
21
-105.700434
0
LINE
5
4ed
100
AcDbEntity
8
1
100
AcDbLine
6
CONTINUOUS
62
5
10
-30.475003
20
-105.400434
11
-30.577074
21
-106.625293
0
POLYLINE
5
4ee
100
AcDbEntity
8
1
6
CONTINUOUS
62
5
100
AcDb2dPolyline
66
1
10
0.0
20
0.0
30
0.0
70
0
0
VERTEX
5
4ef
100
AcDbEntity
8
1
100
AcDbVertex
100
AcDb2dVertex
62
5
10
-33.789261
20
-105.700434
0
VERTEX
5
4f0
100
AcDbEntity
8
1
100
AcDbVertex
100
AcDb2dVertex
62
5
10
-33.600000
20
-106.900379
0
VERTEX
5
4f1
100
AcDbEntity
8
1
100
AcDbVertex
100
AcDb2dVertex
62
5
10
-32.800988
20
-106.900379
0
SEQEND
5
4f2
100
AcDbEntity
8
1
0
POLYLINE
5
4f3
100
AcDbEntity
8
1
6
CONTINUOUS
62
5
100
AcDb2dPolyline
66
1
10
0.0
20
0.0
30
0.0
70
0
0
VERTEX
5
4f4
100
AcDbEntity
8
1
100
AcDbVertex
100
AcDb2dVertex
62
5
10
-21.793750
20
-38.128525
0
VERTEX
5
4f5
100
AcDbEntity
8
1
100
AcDbVertex
100
AcDb2dVertex
62
5
10
-21.793750
20
-35.066025
0
VERTEX
5
4f6
100
AcDbEntity
8
1
100
AcDbVertex
100
AcDb2dVertex
62
5
10
-20.590625
20
-35.066025
0
VERTEX
5
4f7
100
AcDbEntity
8
1
100
AcDbVertex
100
AcDb2dVertex
62
5
10
-20.590625
20
-36.159775
0
VERTEX
5
4f8
100
AcDbEntity
8
1
100
AcDbVertex
100
AcDb2dVertex
62
5
10
-21.793750
20
-36.159775
0
SEQEND
5
4f9
100
AcDbEntity
8
1
0
LINE
5
4fa
100
AcDbEntity
8
1
100
AcDbLine
6
CONTINUOUS
62
5
10
-21.793750
20
-35.612900
11
-20.590625
21
-35.612900
0
POLYLINE
5
4fb
100
AcDbEntity
8
1
6
CONTINUOUS
62
5
100
AcDb2dPolyline
66
1
10
0.0
20
0.0
30
0.0
70
0
0
VERTEX
5
4fc
100
AcDbEntity
8
1
100
AcDbVertex
100
AcDb2dVertex
62
5
10
-18.840625
20
-36.159775
0
VERTEX
5
4fd
100
AcDbEntity
8
1
100
AcDbVertex
100
AcDb2dVertex
62
5
10
-20.153125
20
-36.159775
0
VERTEX
5
4fe
100
AcDbEntity
8
1
100
AcDbVertex
100
AcDb2dVertex
62
5
10
-20.153125
20
-35.066025
0
VERTEX
5
4ff
100
AcDbEntity
8
1
100
AcDbVertex
100
AcDb2dVertex
62
5
10
-18.840625
20
-35.066025
0
VERTEX
5
500
100
AcDbEntity
8
1
100
AcDbVertex
100
AcDb2dVertex
62
5
10
-18.840625
20
-38.128525
0
VERTEX
5
501
100
AcDbEntity
8
1
100
AcDbVertex
100
AcDb2dVertex
62
5
10
-19.168750
20
-38.128525
0
SEQEND
5
502
100
AcDbEntity
8
1
0
LINE
5
503
100
AcDbEntity
8
1
100
AcDbLine
6
CONTINUOUS
62
5
10
-18.840625
20
-35.612900
11
-20.153125
21
-35.612900
0
POLYLINE
5
504
100
AcDbEntity
8
1
6
CONTINUOUS
62
5
100
AcDb2dPolyline
66
1
10
0.0
20
0.0
30
0.0
70
1
0
VERTEX
5
505
100
AcDbEntity
8
1
100
AcDbVertex
100
AcDb2dVertex
62
5
10
-21.028125
20
-36.706650
0
VERTEX
5
506
100
AcDbEntity
8
1
100
AcDbVertex
100
AcDb2dVertex
62
5
10
-19.606250
20
-36.706650
0
VERTEX
5
507
100
AcDbEntity
8
1
100
AcDbVertex
100
AcDb2dVertex
62
5
10
-19.606250
20
-37.800400
0
VERTEX
5
508
100
AcDbEntity
8
1
100
AcDbVertex
100
AcDb2dVertex
62
5
10
-21.028125
20
-37.800400
0
VERTEX
5
509
100
AcDbEntity
8
1
100
AcDbVertex
100
AcDb2dVertex
62
5
10
-21.028125
20
-36.706650
0
SEQEND
5
50a
100
AcDbEntity
8
1
0
LINE
5
50b
100
AcDbEntity
8
1
100
AcDbLine
6
CONTINUOUS
62
5
10
-21.028125
20
-37.253525
11
-19.606250
21
-37.253525
0
ARC
5
50c
100
AcDbEntity
8
1
100
AcDbCircle
6
CONTINUOUS
62
5
10
-25.599146
20
-100.700850
40
0.201517
100
AcDbArc
50
90.218020
51
-175.097023
0
LINE
5
50d
100
AcDbEntity
8
1
100
AcDbLine
6
CONTINUOUS
62
5
10
-25.599912
20
-100.499335
11
-17.599912
21
-100.499798
0
ARC
5
50e
100
AcDbEntity
8
1
100
AcDbCircle
6
CONTINUOUS
62
5
10
-17.600408
20
-100.701006
40
0.201208
100
AcDbArc
50
-4.866415
51
89.858886
0
POLYLINE
5
50f
100
AcDbEntity
8
1
6
CONTINUOUS
62
5
100
AcDb2dPolyline
66
1
10
0.0
20
0.0
30
0.0
70
0
0
VERTEX
5
510
100
AcDbEntity
8
1
100
AcDbVertex
100
AcDb2dVertex
62
5
10
-32.100000
20
-105.700434
0
VERTEX
5
511
100
AcDbEntity
8
1
100
AcDbVertex
100
AcDb2dVertex
62
5
10
-31.100000
20
-105.400434
0
VERTEX
5
512
100
AcDbEntity
8
1
100
AcDbVertex
100
AcDb2dVertex
62
5
10
-12.100000
20
-105.400434
0
VERTEX
5
513
100
AcDbEntity
8
1
100
AcDbVertex
100
AcDb2dVertex
62
5
10
-11.100000
20
-105.700434
0
SEQEND
5
514
100
AcDbEntity
8
1
0
ARC
5
515
100
AcDbEntity
8
1
100
AcDbCircle
6
CONTINUOUS
62
5
10
-42.342086
20
-101.631284
40
0.500000
100
AcDbArc
50
92.379931
51
174.999998
0
ARC
5
516
100
AcDbEntity
8
1
100
AcDbCircle
6
CONTINUOUS
62
5
10
-21.600000
20
-600.700434
40
500.000000
100
AcDbArc
50
87.620068
51
92.379931
0
ARC
5
517
100
AcDbEntity
8
1
100
AcDbCircle
6
CONTINUOUS
62
5
10
-0.857914
20
-101.631284
40
0.500000
100
AcDbArc
50
5.000000
51
87.620068
0
POLYLINE
5
518
100
AcDbEntity
8
1
6
CONTINUOUS
62
5
100
AcDb2dPolyline
66
1
10
0.0
20
0.0
30
0.0
70
0
0
VERTEX
5
519
100
AcDbEntity
8
1
100
AcDbVertex
100
AcDb2dVertex
62
5
10
-0.359817
20
-101.587706
0
VERTEX
5
51a
100
AcDbEntity
8
1
100
AcDbVertex
100
AcDb2dVertex
62
5
10
0.000000
20
-105.700434
0
VERTEX
5
51b
100
AcDbEntity
8
1
100
AcDbVertex
100
AcDb2dVertex
62
5
10
-11.100000
20
-105.700434
0
SEQEND
5
51c
100
AcDbEntity
8
1
0
POLYLINE
5
51d
100
AcDbEntity
8
1
6
CONTINUOUS
62
5
100
AcDb2dPolyline
66
1
10
0.0
20
0.0
30
0.0
70
0
0
VERTEX
5
51e
100
AcDbEntity
8
1
100
AcDbVertex
100
AcDb2dVertex
62
5
10
-32.100000
20
-105.700434
0
VERTEX
5
51f
100
AcDbEntity
8
1
100
AcDbVertex
100
AcDb2dVertex
62
5
10
-43.200000
20
-105.700434
0
VERTEX
5
520
100
AcDbEntity
8
1
100
AcDbVertex
100
AcDb2dVertex
62
5
10
-42.840183
20
-101.587706
0
SEQEND
5
521
100
AcDbEntity
8
1
0
LINE
5
522
100
AcDbEntity
8
6
100
AcDbLine
6
CONTINUOUS
62
5
10
-8.500000
20
0.100434
11
27.000000
21
0.100434
0
LINE
5
523
100
AcDbEntity
8
6
100
AcDbLine
6
CONTINUOUS
62
5
10
-8.500000
20
-45.499566
11
27.000000
21
-45.499566
0
POLYLINE
5
524
100
AcDbEntity
8
6
6
CONTINUOUS
62
5
100
AcDb2dPolyline
66
1
10
0.0
20
0.0
30
0.0
70
0
0
VERTEX
5
525
100
AcDbEntity
8
6
100
AcDbVertex
100
AcDb2dVertex
62
5
10
25.000000
20
-22.699566
0
VERTEX
5
526
100
AcDbEntity
8
6
100
AcDbVertex
100
AcDb2dVertex
62
5
10
25.000000
20
-45.499566
0
VERTEX
5
527
100
AcDbEntity
8
6
100
AcDbVertex
100
AcDb2dVertex
62
5
10
24.000000
20
-39.499566
0
VERTEX
5
528
100
AcDbEntity
8
6
100
AcDbVertex
100
AcDb2dVertex
62
5
10
26.000000
20
-39.499566
0
VERTEX
5
529
100
AcDbEntity
8
6
100
AcDbVertex
100
AcDb2dVertex
62
5
10
25.000000
20
-45.499566
0
VERTEX
5
52a
100
AcDbEntity
8
6
100
AcDbVertex
100
AcDb2dVertex
62
5
10
24.500000
20
-39.499566
0
VERTEX
5
52b
100
AcDbEntity
8
6
100
AcDbVertex
100
AcDb2dVertex
62
5
10
25.500000
20
-39.499566
0
VERTEX
5
52c
100
AcDbEntity
8
6
100
AcDbVertex
100
AcDb2dVertex
62
5
10
25.000000
20
-45.499566
0
SEQEND
5
52d
100
AcDbEntity
8
6
0
POLYLINE
5
52e
100
AcDbEntity
8
6
6
CONTINUOUS
62
5
100
AcDb2dPolyline
66
1
10
0.0
20
0.0
30
0.0
70
0
0
VERTEX
5
52f
100
AcDbEntity
8
6
100
AcDbVertex
100
AcDb2dVertex
62
5
10
25.000000
20
-22.699566
0
VERTEX
5
530
100
AcDbEntity
8
6
100
AcDbVertex
100
AcDb2dVertex
62
5
10
25.000000
20
0.100434
0
VERTEX
5
531
100
AcDbEntity
8
6
100
AcDbVertex
100
AcDb2dVertex
62
5
10
26.000000
20
-5.899566
0
VERTEX
5
532
100
AcDbEntity
8
6
100
AcDbVertex
100
AcDb2dVertex
62
5
10
24.000000
20
-5.899566
0
VERTEX
5
533
100
AcDbEntity
8
6
100
AcDbVertex
100
AcDb2dVertex
62
5
10
25.000000
20
0.100434
0
VERTEX
5
534
100
AcDbEntity
8
6
100
AcDbVertex
100
AcDb2dVertex
62
5
10
25.500000
20
-5.899566
0
VERTEX
5
535
100
AcDbEntity
8
6
100
AcDbVertex
100
AcDb2dVertex
62
5
10
24.500000
20
-5.899566
0
VERTEX
5
536
100
AcDbEntity
8
6
100
AcDbVertex
100
AcDb2dVertex
62
5
10
25.000000
20
0.100434
0
SEQEND
5
537
100
AcDbEntity
8
6
0
ARC
5
538
100
AcDbEntity
8
1
100
AcDbCircle
6
CONTINUOUS
62
5
10
-42.301716
20
-0.558272
40
0.500000
100
AcDbArc
50
89.999999
51
179.999998
0
LINE
5
539
100
AcDbEntity
8
1
100
AcDbLine
6
CONTINUOUS
62
5
10
-42.301716
20
-0.058272
11
-0.898284
21
-0.058272
0
ARC
5
53a
100
AcDbEntity
8
1
100
AcDbCircle
6
CONTINUOUS
62
5
10
-0.898284
20
-0.558272
40
0.500000
100
AcDbArc
50
0.000000
51
89.999999
0
LINE
5
53b
100
AcDbEntity
8
1
100
AcDbLine
6
CONTINUOUS
62
5
10
-0.398284
20
-0.558272
11
-0.398284
21
-44.840861
0
ARC
5
53c
100
AcDbEntity
8
1
100
AcDbCircle
6
CONTINUOUS
62
5
10
-0.898284
20
-44.840861
40
0.500000
100
AcDbArc
50
-89.999999
51
0.000000
0
LINE
5
53d
100
AcDbEntity
8
1
100
AcDbLine
6
CONTINUOUS
62
5
10
-0.898284
20
-45.340861
11
-42.301716
21
-45.340861
0
ARC
5
53e
100
AcDbEntity
8
1
100
AcDbCircle
6
CONTINUOUS
62
5
10
-42.301716
20
-44.840861
40
0.500000
100
AcDbArc
50
179.999998
51
-89.999999
0
LINE
5
53f
100
AcDbEntity
8
1
100
AcDbLine
6
CONTINUOUS
62
5
10
-42.801716
20
-44.840861
11
-42.801716
21
-0.558272
0
ARC
5
540
100
AcDbEntity
8
1
100
AcDbCircle
6
CONTINUOUS
62
5
10
-42.700000
20
-0.399566
40
0.500000
100
AcDbArc
50
89.999999
51
179.999998
0
LINE
5
541
100
AcDbEntity
8
1
100
AcDbLine
6
CONTINUOUS
62
5
10
-42.700000
20
0.100434
11
-0.500000
21
0.100434
0
ARC
5
542
100
AcDbEntity
8
1
100
AcDbCircle
6
CONTINUOUS
62
5
10
-0.500000
20
-0.399566
40
0.500000
100
AcDbArc
50
0.000000
51
89.999999
0
LINE
5
543
100
AcDbEntity
8
1
100
AcDbLine
6
CONTINUOUS
62
5
10
0.000000
20
-0.399566
11
0.000000
21
-44.999566
0
ARC
5
544
100
AcDbEntity
8
1
100
AcDbCircle
6
CONTINUOUS
62
5
10
-0.500000
20
-44.999566
40
0.500000
100
AcDbArc
50
-89.999999
51
0.000000
0
LINE
5
545
100
AcDbEntity
8
1
100
AcDbLine
6
CONTINUOUS
62
5
10
-0.500000
20
-45.499566
11
-42.700000
21
-45.499566
0
ARC
5
546
100
AcDbEntity
8
1
100
AcDbCircle
6
CONTINUOUS
62
5
10
-42.700000
20
-44.999566
40
0.500000
100
AcDbArc
50
179.999998
51
-89.999999
0
LINE
5
547
100
AcDbEntity
8
1
100
AcDbLine
6
CONTINUOUS
62
5
10
-43.200000
20
-44.999566
11
-43.200000
21
-0.399566
0
POLYLINE
5
548
100
AcDbEntity
8
1
6
CONTINUOUS
62
5
100
AcDb2dPolyline
66
1
10
0.0
20
0.0
30
0.0
70
1
0
VERTEX
5
549
100
AcDbEntity
8
1
100
AcDbVertex
100
AcDb2dVertex
62
5
10
-181.600000
20
-202.650000
0
VERTEX
5
54a
100
AcDbEntity
8
1
100
AcDbVertex
100
AcDb2dVertex
62
5
10
-181.600000
20
137.350000
0
VERTEX
5
54b
100
AcDbEntity
8
1
100
AcDbVertex
100
AcDb2dVertex
62
5
10
138.400000
20
137.350000
0
VERTEX
5
54c
100
AcDbEntity
8
1
100
AcDbVertex
100
AcDb2dVertex
62
5
10
138.400000
20
-202.650000
0
VERTEX
5
54d
100
AcDbEntity
8
1
100
AcDbVertex
100
AcDb2dVertex
62
5
10
-181.600000
20
-202.650000
0
SEQEND
5
54e
100
AcDbEntity
8
1
0
ENDSEC
0
SECTION
2
OBJECTS
0
DICTIONARY
5
54f
100
AcDbDictionary
3
ACAD_GROUP
350
550
3
ACAD_MLINESTYLE
350
551
0
DICTIONARY
5
550
102
{ACAD_REACTORS
330
54f
102
}
100
AcDbDictionary
0
DICTIONARY
5
551
102
{ACAD_REACTORS
330
54f
102
}
100
AcDbDictionary
3
STANDARD
350
552
0
MLINESTYLE
5
552
102
{ACAD_REACTORS
330
551
102
}
100
AcDbMlineStyle
2
STANDARD
70
0
3

62
0
51
90.0
52
90.0
71
2
49
0.5
62
256
6
BYLAYER
49
-0.5
62
256
6
BYLAYER
0
ENDSEC
0
EOF
