0
SECTION
2
HEADER
9
$ACADVER
1
AC1012
9
$EXTMIN
10
-1.580000
20
-13.390000
30
0.0
9
$EXTMAX
10
11.030000
20
0.010000
30
0.0
9
$LIMMIN
10
-40.132000
20
-340.106000
9
$LIMMAX
10
280.162000
20
0.254000
9
$DIMSCALE
40
1.000000
9
$PDMODE
70
2
9
$PDSIZE
40
0.0
  9
$HANDSEED
  5
865
0
ENDSEC
0
SECTION
2
CLASSES
0
ENDSEC
0
SECTION
2
TABLES
0
TABLE
2
LTYPE
5
1e
100
AcDbSymbolTable
70
12
0
LTYPE
5
1f
100
AcDbSymbolTableRecord
100
AcDbLinetypeTableRecord
2
BYBLOCK
70
0
3

72
65
73
0
40
0.0
0
LTYPE
5
20
100
AcDbSymbolTableRecord
100
AcDbLinetypeTableRecord
2
BYLAYER
70
0
3

72
65
73
0
40
0.0
0
LTYPE
5
21
100
AcDbSymbolTableRecord
100
AcDbLinetypeTableRecord
2
CONTINUOUS
70
64
3
Solid line
72
65
73
0
40
0.0
0
LTYPE
5
22
100
AcDbSymbolTableRecord
100
AcDbLinetypeTableRecord
2
DASHED
70
64
3
__ __ __ __ __ __ __ __ __ __ __ __ __ __ __
72
65
73
2
40
0.75
49
0.5
74
0
49
-0.25
74
0
0
LTYPE
5
23
100
AcDbSymbolTableRecord
100
AcDbLinetypeTableRecord
2
DOT
70
64
3
...............................................
72
65
73
2
40
0.25
49
0.0
74
0
49
-0.25
74
0
0
LTYPE
5
24
100
AcDbSymbolTableRecord
100
AcDbLinetypeTableRecord
2
DASHDOT
70
64
3
__ . __ . __ . __ . __ . __ . __ . __ . __ . --
72
65
73
4
40
1.0
49
0.5
74
0
49
-0.25
74
0
49
0.0
74
0
49
-0.25
74
0
0
LTYPE
5
25
100
AcDbSymbolTableRecord
100
AcDbLinetypeTableRecord
2
CENTER
70
64
3
____ _ ____ _ ____ _ ____ _ ____ _ ____ _ ____
72
65
73
4
40
2.0
49
1.25
74
0
49
-0.25
74
0
49
0.25
74
0
49
-0.25
74
0
0
LTYPE
5
26
100
AcDbSymbolTableRecord
100
AcDbLinetypeTableRecord
2
PHANTOM
70
64
3
_____ _ _ _____ _ _ _____ _ _ _____ _ _ ____
72
65
73
6
40
2.5
49
1.25
74
0
49
-0.25
74
0
49
0.25
74
0
49
-0.25
74
0
49
0.25
74
0
49
-0.25
74
0
0
LTYPE
5
27
100
AcDbSymbolTableRecord
100
AcDbLinetypeTableRecord
2
HIDDEN
70
64
3
_ _ _ _ _ _ _ _ _ _ _ _ _ _ _ _ _ _ _ _ _ _ _
72
65
73
2
40
0.375
49
0.25
74
0
49
-0.125
74
0
0
LTYPE
5
28
100
AcDbSymbolTableRecord
100
AcDbLinetypeTableRecord
2
BORDER
70
64
3
__ __ . __ __ . __ __ . __ __ . __ __ . __ __
72
65
73
6
40
1.75
49
0.5
74
0
49
-0.25
74
0
49
0.5
74
0
49
-0.25
74
0
49
0.0
74
0
49
-0.25
74
0
0
LTYPE
5
29
100
AcDbSymbolTableRecord
100
AcDbLinetypeTableRecord
2
DIVIDE
70
64
3
__ . . __ . . __ . . __ . . __ . . __ . . __
72
65
73
6
40
1.25
49
0.5
74
0
49
-0.25
74
0
49
0.0
74
0
49
-0.25
74
0
49
0.0
74
0
49
-0.25
74
0
0
LTYPE
5
2a
100
AcDbSymbolTableRecord
100
AcDbLinetypeTableRecord
2
DOT2
70
64
3
...............................................
72
65
73
2
40
0.125
49
0.0
74
0
49
-0.125
74
0
0
ENDTAB
0
TABLE
2
STYLE
5
2b
100
AcDbSymbolTable
70
1
0
STYLE
5
2c
100
AcDbSymbolTableRecord
100
AcDbTextStyleTableRecord
2
STANDARD
70
64
40
0.0
41
1.0
50
0.0
71
0
42
5.0
3
txt
4
bigfont
0
ENDTAB
0
TABLE
2
LAYER
5
2d
100
AcDbSymbolTable
70
2
0
LAYER
5
2e
100
AcDbSymbolTableRecord
100
AcDbLayerTableRecord
2
0
70
0
62
7
6
CONTINUOUS
0
LAYER
5
2f
100
AcDbSymbolTableRecord
100
AcDbLayerTableRecord
2
1
70
0
62
7
6
CONTINUOUS
0
ENDTAB
0
TABLE
2
APPID
5
30
100
AcDbSymbolTable
70
1
0
APPID
5
31
100
AcDbSymbolTableRecord
100
AcDbRegAppTableRecord
2
ACAD
70
64
0
ENDTAB
0
TABLE
2
DIMSTYLE
5
32
100
AcDbSymbolTable
70
0
0
ENDTAB
0
TABLE
2
UCS
5
33
100
AcDbSymbolTable
70
0
0
ENDTAB
0
TABLE
2
VIEW
5
34
100
AcDbSymbolTable
70
0
0
ENDTAB
0
TABLE
2
VPORT
5
35
100
AcDbSymbolTable
70
0
0
ENDTAB
0
TABLE
2
BLOCK_RECORD
5
36
100
AcDbSymbolTable
70
0
0
BLOCK_RECORD
5
37
100
AcDbSymbolTableRecord
100
AcDbBlockTableRecord
2
*MODEL_SPACE
0
BLOCK_RECORD
5
38
100
AcDbSymbolTableRecord
100
AcDbBlockTableRecord
2
*PAPER_SPACE
0
BLOCK_RECORD
5
39
100
AcDbSymbolTableRecord
100
AcDbBlockTableRecord
2
OPEN
0
BLOCK_RECORD
5
3a
100
AcDbSymbolTableRecord
100
AcDbBlockTableRecord
2
HALF
0
BLOCK_RECORD
5
3b
100
AcDbSymbolTableRecord
100
AcDbBlockTableRecord
2
CLOSEDBLANK
0
BLOCK_RECORD
5
3c
100
AcDbSymbolTableRecord
100
AcDbBlockTableRecord
2
HALFCLOSE_R
0
BLOCK_RECORD
5
3d
100
AcDbSymbolTableRecord
100
AcDbBlockTableRecord
2
DOT
0
BLOCK_RECORD
5
3e
100
AcDbSymbolTableRecord
100
AcDbBlockTableRecord
2
HALFOPEN_R
0
BLOCK_RECORD
5
3f
100
AcDbSymbolTableRecord
100
AcDbBlockTableRecord
2
CLOSEDF
0
BLOCK_RECORD
5
40
100
AcDbSymbolTableRecord
100
AcDbBlockTableRecord
2
HALF_R
0
ENDTAB
0
ENDSEC
0
SECTION
2
BLOCKS
0
BLOCK
5
41
100
AcDbEntity
8
0
100
AcDbBlockBegin
2
*MODEL_SPACE
70
0
10
0.0
20
0.0
30
0.0
3
*MODEL_SPACE
1

0
ENDBLK
5
42
100
AcDbEntity
8
0
100
AcDbBlockEnd
0
BLOCK
5
43
100
AcDbEntity
67
1
8
0
100
AcDbBlockBegin
2
*PAPER_SPACE
70
0
10
0.0
20
0.0
30
0.0
3
*PAPER_SPACE
1

0
ENDBLK
5
44
100
AcDbEntity
67
1
8
0
100
AcDbBlockEnd
0
BLOCK
5
45
100
AcDbEntity
8
0
100
AcDbBlockBegin
2
OPEN
70
0
10
0.0
20
0.0
30
0.0
3
OPEN
1

0
LINE
5
46
100
AcDbEntity
8
0
6
BYBLOCK
62
0
100
AcDbLine
10
0.000000
20
0.000000
11
-1.000000
21
0.000000
0
LINE
5
47
100
AcDbEntity
8
0
6
BYBLOCK
62
0
100
AcDbLine
10
-1.000000
20
-0.166667
11
0.000000
21
0.000000
0
LINE
5
48
100
AcDbEntity
8
0
6
BYBLOCK
62
0
100
AcDbLine
10
-1.000000
20
0.166667
11
0.000000
21
0.000000
0
ENDBLK
5
49
100
AcDbEntity
8
0
100
AcDbBlockEnd
0
BLOCK
5
4a
100
AcDbEntity
8
0
100
AcDbBlockBegin
2
HALF
70
0
10
0.0
20
0.0
30
0.0
3
HALF
1

0
SOLID
5
4b
100
AcDbEntity
8
0
6
BYBLOCK
62
0
100
AcDbTrace
10
-1.000000
20
0.166667
11
-1.000000
21
-0.166667
12
0.000000
22
0.000000
13
0.000000
23
0.000000
0
ENDBLK
5
4c
100
AcDbEntity
8
0
100
AcDbBlockEnd
0
BLOCK
5
4d
100
AcDbEntity
8
0
100
AcDbBlockBegin
2
CLOSEDBLANK
70
0
10
0.0
20
0.0
30
0.0
3
CLOSEDBLANK
1

0
LINE
5
4e
100
AcDbEntity
8
0
6
BYBLOCK
62
0
100
AcDbLine
10
-1.000000
20
0.166667
11
-1.000000
21
-0.166667
0
LINE
5
4f
100
AcDbEntity
8
0
6
BYBLOCK
62
0
100
AcDbLine
10
0.000000
20
0.000000
11
-1.000000
21
-0.166667
0
LINE
5
50
100
AcDbEntity
8
0
6
BYBLOCK
62
0
100
AcDbLine
10
-1.000000
20
0.166667
11
0.000000
21
0.000000
0
ENDBLK
5
51
100
AcDbEntity
8
0
100
AcDbBlockEnd
0
BLOCK
5
52
100
AcDbEntity
8
0
100
AcDbBlockBegin
2
HALFCLOSE_R
70
0
10
0.0
20
0.0
30
0.0
3
HALFCLOSE_R
1

0
LINE
5
53
100
AcDbEntity
8
0
6
BYBLOCK
62
0
100
AcDbLine
10
-1.000000
20
-0.166667
11
-1.000000
21
0.000000
0
LINE
5
54
100
AcDbEntity
8
0
6
BYBLOCK
62
0
100
AcDbLine
10
-1.000000
20
-0.166667
11
0.000000
21
0.000000
0
LINE
5
55
100
AcDbEntity
8
0
6
BYBLOCK
62
0
100
AcDbLine
10
0.000000
20
0.000000
11
-1.000000
21
0.000000
0
ENDBLK
5
56
100
AcDbEntity
8
0
100
AcDbBlockEnd
0
BLOCK
5
57
100
AcDbEntity
8
0
100
AcDbBlockBegin
2
DOT
70
0
10
0.0
20
0.0
30
0.0
3
DOT
1

0
LINE
5
58
100
AcDbEntity
8
0
6
BYBLOCK
62
0
100
AcDbLine
10
0.000000
20
0.000000
11
-1.000000
21
0.000000
0
POLYLINE
5
59
100
AcDbEntity
8
0
6
BYBLOCK
62
0
100
AcDb2dPolyline
66
1
10
0.0
20
0.0
30
0.0
70
1
40
0.166667
41
0.166667
0
VERTEX
5
5a
100
AcDbEntity
8
0
100
AcDbVertex
100
AcDb2dVertex
62
10
10
-0.083333
20
0.000000
42
1.000000
0
VERTEX
5
5b
100
AcDbEntity
8
0
100
AcDbVertex
100
AcDb2dVertex
62
10
10
0.083333
20
0.000000
42
1.000000
0
SEQEND
5
5c
100
AcDbEntity
8
0
0
ENDBLK
5
5d
100
AcDbEntity
8
0
100
AcDbBlockEnd
0
BLOCK
5
5e
100
AcDbEntity
8
0
100
AcDbBlockBegin
2
HALFOPEN_R
70
0
10
0.0
20
0.0
30
0.0
3
HALFOPEN_R
1

0
LINE
5
5f
100
AcDbEntity
8
0
6
BYBLOCK
62
0
100
AcDbLine
10
-1.000000
20
-0.166667
11
0.000000
21
0.000000
0
LINE
5
60
100
AcDbEntity
8
0
6
BYBLOCK
62
0
100
AcDbLine
10
0.000000
20
0.000000
11
-1.000000
21
0.000000
0
ENDBLK
5
61
100
AcDbEntity
8
0
100
AcDbBlockEnd
0
BLOCK
5
62
100
AcDbEntity
8
0
100
AcDbBlockBegin
2
CLOSEDF
70
0
10
0.0
20
0.0
30
0.0
3
CLOSEDF
1

0
SOLID
5
63
100
AcDbEntity
8
0
6
BYBLOCK
62
0
100
AcDbTrace
10
-1.000000
20
0.166667
11
-1.000000
21
-0.166667
12
0.000000
22
0.000000
13
0.000000
23
0.000000
0
ENDBLK
5
64
100
AcDbEntity
8
0
100
AcDbBlockEnd
0
BLOCK
5
65
100
AcDbEntity
8
0
100
AcDbBlockBegin
2
HALF_R
70
0
10
0.0
20
0.0
30
0.0
3
HALF_R
1

0
SOLID
5
66
100
AcDbEntity
8
0
6
BYBLOCK
62
0
100
AcDbTrace
10
-1.000000
20
-0.166667
11
-1.000000
21
0.000000
12
0.000000
22
0.000000
13
0.000000
23
0.000000
0
ENDBLK
5
67
100
AcDbEntity
8
0
100
AcDbBlockEnd
0
ENDSEC
0
SECTION
2
ENTITIES
0
LINE
5
68
100
AcDbEntity
8
1
100
AcDbLine
6
DOT2
62
5
10
219.775000
20
-107.124986
11
219.150000
21
-107.749986
0
POLYLINE
5
69
100
AcDbEntity
8
1
6
DOT2
62
5
100
AcDb2dPolyline
66
1
10
0.0
20
0.0
30
0.0
70
0
0
VERTEX
5
6a
100
AcDbEntity
8
1
100
AcDbVertex
100
AcDb2dVertex
62
5
10
219.150000
20
-107.124986
0
VERTEX
5
6b
100
AcDbEntity
8
1
100
AcDbVertex
100
AcDb2dVertex
62
5
10
219.775000
20
-107.749986
0
VERTEX
5
6c
100
AcDbEntity
8
1
100
AcDbVertex
100
AcDb2dVertex
62
5
10
219.150000
20
-107.749986
0
VERTEX
5
6d
100
AcDbEntity
8
1
100
AcDbVertex
100
AcDb2dVertex
62
5
10
219.150000
20
-107.124986
0
VERTEX
5
6e
100
AcDbEntity
8
1
100
AcDbVertex
100
AcDb2dVertex
62
5
10
219.775000
20
-107.124986
0
VERTEX
5
6f
100
AcDbEntity
8
1
100
AcDbVertex
100
AcDb2dVertex
62
5
10
219.775000
20
-107.749986
0
SEQEND
5
70
100
AcDbEntity
8
1
0
LINE
5
71
100
AcDbEntity
8
1
100
AcDbLine
6
DOT2
62
5
10
214.150000
20
-100.249986
11
216.962500
21
-100.249986
0
POLYLINE
5
72
100
AcDbEntity
8
1
6
DOT2
62
5
100
AcDb2dPolyline
66
1
10
0.0
20
0.0
30
0.0
70
0
0
VERTEX
5
73
100
AcDbEntity
8
1
100
AcDbVertex
100
AcDb2dVertex
62
5
10
214.150000
20
-100.249986
0
VERTEX
5
74
100
AcDbEntity
8
1
100
AcDbVertex
100
AcDb2dVertex
62
5
10
214.150000
20
-103.999986
0
VERTEX
5
75
100
AcDbEntity
8
1
100
AcDbVertex
100
AcDb2dVertex
62
5
10
214.775000
20
-103.374986
0
VERTEX
5
76
100
AcDbEntity
8
1
100
AcDbVertex
100
AcDb2dVertex
62
5
10
215.400000
20
-103.062486
0
VERTEX
5
77
100
AcDbEntity
8
1
100
AcDbVertex
100
AcDb2dVertex
62
5
10
216.337500
20
-103.062486
0
VERTEX
5
78
100
AcDbEntity
8
1
100
AcDbVertex
100
AcDb2dVertex
62
5
10
216.962500
20
-103.374986
0
VERTEX
5
79
100
AcDbEntity
8
1
100
AcDbVertex
100
AcDb2dVertex
62
5
10
217.275000
20
-104.312486
0
VERTEX
5
7a
100
AcDbEntity
8
1
100
AcDbVertex
100
AcDb2dVertex
62
5
10
217.275000
20
-106.187486
0
VERTEX
5
7b
100
AcDbEntity
8
1
100
AcDbVertex
100
AcDb2dVertex
62
5
10
216.650000
20
-107.124986
0
VERTEX
5
7c
100
AcDbEntity
8
1
100
AcDbVertex
100
AcDb2dVertex
62
5
10
215.712500
20
-107.749986
0
VERTEX
5
7d
100
AcDbEntity
8
1
100
AcDbVertex
100
AcDb2dVertex
62
5
10
214.150000
20
-107.749986
0
SEQEND
5
7e
100
AcDbEntity
8
1
0
POLYLINE
5
7f
100
AcDbEntity
8
1
6
DOT2
62
5
100
AcDb2dPolyline
66
1
10
0.0
20
0.0
30
0.0
70
1
0
VERTEX
5
80
100
AcDbEntity
8
1
100
AcDbVertex
100
AcDb2dVertex
62
5
10
225.400000
20
-100.249986
0
VERTEX
5
81
100
AcDbEntity
8
1
100
AcDbVertex
100
AcDb2dVertex
62
5
10
226.025000
20
-100.249986
0
VERTEX
5
82
100
AcDbEntity
8
1
100
AcDbVertex
100
AcDb2dVertex
62
5
10
226.650000
20
-100.562486
0
VERTEX
5
83
100
AcDbEntity
8
1
100
AcDbVertex
100
AcDb2dVertex
62
5
10
226.962500
20
-101.187486
0
VERTEX
5
84
100
AcDbEntity
8
1
100
AcDbVertex
100
AcDb2dVertex
62
5
10
226.962500
20
-102.437486
0
VERTEX
5
85
100
AcDbEntity
8
1
100
AcDbVertex
100
AcDb2dVertex
62
5
10
226.650000
20
-103.062486
0
VERTEX
5
86
100
AcDbEntity
8
1
100
AcDbVertex
100
AcDb2dVertex
62
5
10
224.775000
20
-104.312486
0
VERTEX
5
87
100
AcDbEntity
8
1
100
AcDbVertex
100
AcDb2dVertex
62
5
10
224.150000
20
-105.249986
0
VERTEX
5
88
100
AcDbEntity
8
1
100
AcDbVertex
100
AcDb2dVertex
62
5
10
224.150000
20
-106.499986
0
VERTEX
5
89
100
AcDbEntity
8
1
100
AcDbVertex
100
AcDb2dVertex
62
5
10
224.462500
20
-107.124986
0
VERTEX
5
8a
100
AcDbEntity
8
1
100
AcDbVertex
100
AcDb2dVertex
62
5
10
224.775000
20
-107.437486
0
VERTEX
5
8b
100
AcDbEntity
8
1
100
AcDbVertex
100
AcDb2dVertex
62
5
10
225.400000
20
-107.749986
0
VERTEX
5
8c
100
AcDbEntity
8
1
100
AcDbVertex
100
AcDb2dVertex
62
5
10
226.025000
20
-107.749986
0
VERTEX
5
8d
100
AcDbEntity
8
1
100
AcDbVertex
100
AcDb2dVertex
62
5
10
226.650000
20
-107.437486
0
VERTEX
5
8e
100
AcDbEntity
8
1
100
AcDbVertex
100
AcDb2dVertex
62
5
10
226.962500
20
-107.124986
0
VERTEX
5
8f
100
AcDbEntity
8
1
100
AcDbVertex
100
AcDb2dVertex
62
5
10
227.275000
20
-106.499986
0
VERTEX
5
90
100
AcDbEntity
8
1
100
AcDbVertex
100
AcDb2dVertex
62
5
10
227.275000
20
-105.249986
0
VERTEX
5
91
100
AcDbEntity
8
1
100
AcDbVertex
100
AcDb2dVertex
62
5
10
226.650000
20
-104.312486
0
VERTEX
5
92
100
AcDbEntity
8
1
100
AcDbVertex
100
AcDb2dVertex
62
5
10
224.775000
20
-103.062486
0
VERTEX
5
93
100
AcDbEntity
8
1
100
AcDbVertex
100
AcDb2dVertex
62
5
10
224.462500
20
-102.437486
0
VERTEX
5
94
100
AcDbEntity
8
1
100
AcDbVertex
100
AcDb2dVertex
62
5
10
224.462500
20
-101.187486
0
VERTEX
5
95
100
AcDbEntity
8
1
100
AcDbVertex
100
AcDb2dVertex
62
5
10
224.775000
20
-100.562486
0
VERTEX
5
96
100
AcDbEntity
8
1
100
AcDbVertex
100
AcDb2dVertex
62
5
10
225.400000
20
-100.249986
0
SEQEND
5
97
100
AcDbEntity
8
1
0
POLYLINE
5
98
100
AcDbEntity
8
1
6
CONTINUOUS
62
5
100
AcDb2dPolyline
66
1
10
0.0
20
0.0
30
0.0
70
1
0
VERTEX
5
99
100
AcDbEntity
8
1
100
AcDbVertex
100
AcDb2dVertex
62
5
10
202.900000
20
-133.999986
0
VERTEX
5
9a
100
AcDbEntity
8
1
100
AcDbVertex
100
AcDb2dVertex
62
5
10
202.900000
20
-142.499986
0
SEQEND
5
9b
100
AcDbEntity
8
1
0
LINE
5
9c
100
AcDbEntity
8
1
100
AcDbLine
6
CONTINUOUS
62
5
10
203.900000
20
-152.799994
11
205.400000
21
-154.340007
0
ARC
5
9d
100
AcDbEntity
8
1
100
AcDbCircle
6
CONTINUOUS
62
5
10
204.500000
20
-158.799986
40
0.700000
100
AcDbArc
50
-89.999999
51
-0.000000
0
LINE
5
9e
100
AcDbEntity
8
1
100
AcDbLine
6
CONTINUOUS
62
5
10
205.200000
20
-158.799986
11
205.200000
21
-158.486726
0
ARC
5
9f
100
AcDbEntity
8
1
100
AcDbCircle
6
CONTINUOUS
62
5
10
204.200000
20
-158.486726
40
1.000000
100
AcDbArc
50
-0.000000
51
89.236101
0
LINE
5
a0
100
AcDbEntity
8
1
100
AcDbLine
6
CONTINUOUS
62
5
10
204.213332
20
-157.486814
11
203.900000
21
-157.479970
0
LINE
5
a1
100
AcDbEntity
8
1
100
AcDbLine
6
CONTINUOUS
62
5
10
203.900000
20
-159.499986
11
204.500000
21
-159.499986
0
ARC
5
a2
100
AcDbEntity
8
1
100
AcDbCircle
6
CONTINUOUS
62
5
10
196.200000
20
-155.199986
40
0.300000
100
AcDbArc
50
179.999998
51
-89.999999
0
LINE
5
a3
100
AcDbEntity
8
1
100
AcDbLine
6
CONTINUOUS
62
5
10
196.200000
20
-155.499986
11
198.100000
21
-155.499986
0
LINE
5
a4
100
AcDbEntity
8
1
100
AcDbLine
6
CONTINUOUS
62
5
10
198.100000
20
-153.999986
11
196.200000
21
-153.999986
0
ARC
5
a5
100
AcDbEntity
8
1
100
AcDbCircle
6
CONTINUOUS
62
5
10
196.200000
20
-154.299986
40
0.300000
100
AcDbArc
50
89.999999
51
179.999998
0
LINE
5
a6
100
AcDbEntity
8
1
100
AcDbLine
6
CONTINUOUS
62
5
10
195.900000
20
-154.299986
11
195.900000
21
-155.199986
0
LINE
5
a7
100
AcDbEntity
8
1
100
AcDbLine
6
CONTINUOUS
62
5
10
136.400000
20
-142.390895
11
135.700000
21
-142.899986
0
ARC
5
a8
100
AcDbEntity
8
1
100
AcDbCircle
6
CONTINUOUS
62
5
10
138.000000
20
-141.899986
40
1.000000
100
AcDbArc
50
-89.999999
51
-55.550098
0
LINE
5
a9
100
AcDbEntity
8
1
100
AcDbLine
6
CONTINUOUS
62
5
10
138.000000
20
-142.899986
11
135.700000
21
-142.899986
0
POLYLINE
5
aa
100
AcDbEntity
8
1
6
CONTINUOUS
62
5
100
AcDb2dPolyline
66
1
10
0.0
20
0.0
30
0.0
70
0
0
VERTEX
5
ab
100
AcDbEntity
8
1
100
AcDbVertex
100
AcDb2dVertex
62
5
10
135.700000
20
-142.899986
0
VERTEX
5
ac
100
AcDbEntity
8
1
100
AcDbVertex
100
AcDb2dVertex
62
5
10
136.400000
20
-142.390895
0
VERTEX
5
ad
100
AcDbEntity
8
1
100
AcDbVertex
100
AcDb2dVertex
62
5
10
136.400000
20
-142.099986
0
VERTEX
5
ae
100
AcDbEntity
8
1
100
AcDbVertex
100
AcDb2dVertex
62
5
10
138.565685
20
-142.099986
0
VERTEX
5
af
100
AcDbEntity
8
1
100
AcDbVertex
100
AcDb2dVertex
62
5
10
138.565685
20
-142.724607
0
SEQEND
5
b0
100
AcDbEntity
8
1
0
LINE
5
b1
100
AcDbEntity
8
1
100
AcDbLine
6
CONTINUOUS
62
5
10
130.900000
20
-147.799986
11
130.800000
21
-147.899986
0
LINE
5
b2
100
AcDbEntity
8
1
100
AcDbLine
6
CONTINUOUS
62
5
10
126.800000
20
-147.799986
11
126.900000
21
-147.899986
0
POLYLINE
5
b3
100
AcDbEntity
8
1
6
CONTINUOUS
62
5
100
AcDb2dPolyline
66
1
10
0.0
20
0.0
30
0.0
70
0
0
VERTEX
5
b4
100
AcDbEntity
8
1
100
AcDbVertex
100
AcDb2dVertex
62
5
10
135.700000
20
-136.599986
0
VERTEX
5
b5
100
AcDbEntity
8
1
100
AcDbVertex
100
AcDb2dVertex
62
5
10
136.400000
20
-136.854532
0
VERTEX
5
b6
100
AcDbEntity
8
1
100
AcDbVertex
100
AcDb2dVertex
62
5
10
136.400000
20
-142.099986
0
SEQEND
5
b7
100
AcDbEntity
8
1
0
ARC
5
b8
100
AcDbEntity
8
1
100
AcDbCircle
6
CONTINUOUS
62
5
10
138.000000
20
-137.599986
40
1.000000
100
AcDbArc
50
0.000000
51
89.999999
0
LINE
5
b9
100
AcDbEntity
8
1
100
AcDbLine
6
CONTINUOUS
62
5
10
139.000000
20
-137.599986
11
139.000000
21
-141.899986
0
ARC
5
ba
100
AcDbEntity
8
1
100
AcDbCircle
6
CONTINUOUS
62
5
10
138.000000
20
-141.899986
40
1.000000
100
AcDbArc
50
-89.999999
51
0.000000
0
POLYLINE
5
bb
100
AcDbEntity
8
1
6
CONTINUOUS
62
5
100
AcDb2dPolyline
66
1
10
0.0
20
0.0
30
0.0
70
0
0
VERTEX
5
bc
100
AcDbEntity
8
1
100
AcDbVertex
100
AcDb2dVertex
62
5
10
138.000000
20
-142.899986
0
VERTEX
5
bd
100
AcDbEntity
8
1
100
AcDbVertex
100
AcDb2dVertex
62
5
10
135.700000
20
-142.899986
0
VERTEX
5
be
100
AcDbEntity
8
1
100
AcDbVertex
100
AcDb2dVertex
62
5
10
135.700000
20
-136.599986
0
VERTEX
5
bf
100
AcDbEntity
8
1
100
AcDbVertex
100
AcDb2dVertex
62
5
10
138.000000
20
-136.599986
0
SEQEND
5
c0
100
AcDbEntity
8
1
0
ARC
5
c1
100
AcDbEntity
8
1
100
AcDbCircle
6
CONTINUOUS
62
5
10
138.000000
20
-141.899986
40
0.600000
100
AcDbArc
50
-19.471224
51
0.000000
0
LINE
5
c2
100
AcDbEntity
8
1
100
AcDbLine
6
CONTINUOUS
62
5
10
138.600000
20
-141.899986
11
138.600000
21
-137.599986
0
ARC
5
c3
100
AcDbEntity
8
1
100
AcDbCircle
6
CONTINUOUS
62
5
10
138.000000
20
-137.599986
40
0.600000
100
AcDbArc
50
0.000000
51
89.999999
0
LINE
5
c4
100
AcDbEntity
8
1
100
AcDbLine
6
CONTINUOUS
62
5
10
138.000000
20
-136.999986
11
136.400000
21
-136.999986
0
LINE
5
c5
100
AcDbEntity
8
1
100
AcDbLine
6
CONTINUOUS
62
5
10
140.600000
20
-163.999974
11
141.100000
21
-163.999974
0
ARC
5
c6
100
AcDbEntity
8
1
100
AcDbCircle
6
CONTINUOUS
62
5
10
135.150000
20
-158.999986
40
0.500000
100
AcDbArc
50
-89.999999
51
0.000000
0
LINE
5
c7
100
AcDbEntity
8
1
100
AcDbLine
6
CONTINUOUS
62
5
10
135.150000
20
-159.499986
11
134.699965
21
-159.499986
0
LINE
5
c8
100
AcDbEntity
8
1
100
AcDbLine
6
CONTINUOUS
62
5
10
135.650000
20
-157.501550
11
135.650000
21
-158.999986
0
LINE
5
c9
100
AcDbEntity
8
1
100
AcDbLine
6
CONTINUOUS
62
5
10
132.200000
20
-161.499986
11
132.300000
21
-161.499986
0
POLYLINE
5
ca
100
AcDbEntity
8
1
6
CONTINUOUS
62
5
100
AcDb2dPolyline
66
1
10
0.0
20
0.0
30
0.0
70
0
0
VERTEX
5
cb
100
AcDbEntity
8
1
100
AcDbVertex
100
AcDb2dVertex
62
5
10
129.900000
20
-157.799986
0
VERTEX
5
cc
100
AcDbEntity
8
1
100
AcDbVertex
100
AcDb2dVertex
62
5
10
129.600000
20
-158.099986
0
VERTEX
5
cd
100
AcDbEntity
8
1
100
AcDbVertex
100
AcDb2dVertex
62
5
10
129.500000
20
-158.199986
0
SEQEND
5
ce
100
AcDbEntity
8
1
0
LINE
5
cf
100
AcDbEntity
8
1
100
AcDbLine
6
CONTINUOUS
62
5
10
133.900011
20
-161.799986
11
133.944607
21
-161.844584
0
LINE
5
d0
100
AcDbEntity
8
1
100
AcDbLine
6
CONTINUOUS
62
5
10
133.899965
20
-161.826379
11
133.899965
21
-159.499986
0
ARC
5
d1
100
AcDbEntity
8
1
100
AcDbCircle
6
CONTINUOUS
62
5
10
134.100000
20
-159.349986
40
0.150000
100
AcDbArc
50
-90.000001
51
0.000001
0
LINE
5
d2
100
AcDbEntity
8
1
100
AcDbLine
6
CONTINUOUS
62
5
10
134.250000
20
-157.499986
11
134.250000
21
-159.349986
0
POLYLINE
5
d3
100
AcDbEntity
8
1
6
CONTINUOUS
62
5
100
AcDb2dPolyline
66
1
10
0.0
20
0.0
30
0.0
70
0
0
VERTEX
5
d4
100
AcDbEntity
8
1
100
AcDbVertex
100
AcDb2dVertex
62
5
10
126.900000
20
-149.299986
0
VERTEX
5
d5
100
AcDbEntity
8
1
100
AcDbVertex
100
AcDb2dVertex
62
5
10
128.400000
20
-149.299986
0
VERTEX
5
d6
100
AcDbEntity
8
1
100
AcDbVertex
100
AcDb2dVertex
62
5
10
128.400000
20
-153.899986
0
SEQEND
5
d7
100
AcDbEntity
8
1
0
ARC
5
d8
100
AcDbEntity
8
1
100
AcDbCircle
6
CONTINUOUS
62
5
10
133.100000
20
-164.199986
40
0.300000
100
AcDbArc
50
179.999998
51
-89.999999
0
LINE
5
d9
100
AcDbEntity
8
1
100
AcDbLine
6
CONTINUOUS
62
5
10
132.800000
20
-164.199986
11
132.800000
21
-162.799986
0
ARC
5
da
100
AcDbEntity
8
1
100
AcDbCircle
6
CONTINUOUS
62
5
10
133.100000
20
-162.799986
40
0.300000
100
AcDbArc
50
89.999999
51
179.999998
0
LINE
5
db
100
AcDbEntity
8
1
100
AcDbLine
6
CONTINUOUS
62
5
10
133.100000
20
-162.499986
11
133.599965
21
-162.499986
0
LINE
5
dc
100
AcDbEntity
8
1
100
AcDbLine
6
CONTINUOUS
62
5
10
133.599965
20
-164.499986
11
133.100000
21
-164.499986
0
ARC
5
dd
100
AcDbEntity
8
1
100
AcDbCircle
6
CONTINUOUS
62
5
10
133.300000
20
-164.199986
40
0.300000
100
AcDbArc
50
179.999998
51
-89.999999
0
LINE
5
de
100
AcDbEntity
8
1
100
AcDbLine
6
CONTINUOUS
62
5
10
133.000000
20
-164.199986
11
133.000000
21
-162.799986
0
ARC
5
df
100
AcDbEntity
8
1
100
AcDbCircle
6
CONTINUOUS
62
5
10
133.300000
20
-162.799986
40
0.300000
100
AcDbArc
50
89.999999
51
179.999998
0
LINE
5
e0
100
AcDbEntity
8
1
100
AcDbLine
6
CONTINUOUS
62
5
10
139.800000
20
-163.999974
11
139.300000
21
-163.999974
0
POLYLINE
5
e1
100
AcDbEntity
8
1
6
CONTINUOUS
62
5
100
AcDb2dPolyline
66
1
10
0.0
20
0.0
30
0.0
70
1
0
VERTEX
5
e2
100
AcDbEntity
8
1
100
AcDbVertex
100
AcDb2dVertex
62
5
10
130.900000
20
-147.799986
0
VERTEX
5
e3
100
AcDbEntity
8
1
100
AcDbVertex
100
AcDb2dVertex
62
5
10
126.800000
20
-147.799986
0
VERTEX
5
e4
100
AcDbEntity
8
1
100
AcDbVertex
100
AcDb2dVertex
62
5
10
126.800000
20
-153.999986
0
VERTEX
5
e5
100
AcDbEntity
8
1
100
AcDbVertex
100
AcDb2dVertex
62
5
10
130.900000
20
-153.999986
0
VERTEX
5
e6
100
AcDbEntity
8
1
100
AcDbVertex
100
AcDb2dVertex
62
5
10
130.900000
20
-147.799986
0
SEQEND
5
e7
100
AcDbEntity
8
1
0
POLYLINE
5
e8
100
AcDbEntity
8
1
6
CONTINUOUS
62
5
100
AcDb2dPolyline
66
1
10
0.0
20
0.0
30
0.0
70
1
0
VERTEX
5
e9
100
AcDbEntity
8
1
100
AcDbVertex
100
AcDb2dVertex
62
5
10
126.900000
20
-153.899986
0
VERTEX
5
ea
100
AcDbEntity
8
1
100
AcDbVertex
100
AcDb2dVertex
62
5
10
130.800000
20
-153.899986
0
VERTEX
5
eb
100
AcDbEntity
8
1
100
AcDbVertex
100
AcDb2dVertex
62
5
10
130.800000
20
-147.899986
0
VERTEX
5
ec
100
AcDbEntity
8
1
100
AcDbVertex
100
AcDb2dVertex
62
5
10
126.900000
20
-147.899986
0
SEQEND
5
ed
100
AcDbEntity
8
1
0
ARC
5
ee
100
AcDbEntity
8
1
100
AcDbCircle
6
CONTINUOUS
62
5
10
199.100000
20
-143.499986
40
1.000000
100
AcDbArc
50
89.999999
51
179.999998
0
LINE
5
ef
100
AcDbEntity
8
1
100
AcDbLine
6
CONTINUOUS
62
5
10
203.900000
20
-142.499986
11
199.100000
21
-142.499986
0
LINE
5
f0
100
AcDbEntity
8
1
100
AcDbLine
6
CONTINUOUS
62
5
10
81.500000
20
-12.250000
11
85.250000
21
-12.250000
0
LINE
5
f1
100
AcDbEntity
8
1
100
AcDbLine
6
CONTINUOUS
62
5
10
82.250000
20
-12.250000
11
82.250000
21
-18.812500
0
LINE
5
f2
100
AcDbEntity
8
1
100
AcDbLine
6
CONTINUOUS
62
5
10
84.250000
20
-12.250000
11
84.250000
21
-20.375000
0
LINE
5
f3
100
AcDbEntity
8
1
100
AcDbLine
6
CONTINUOUS
62
5
10
82.250000
20
-14.437500
11
84.250000
21
-14.437500
0
LINE
5
f4
100
AcDbEntity
8
1
100
AcDbLine
6
CONTINUOUS
62
5
10
82.250000
20
-16.312500
11
84.250000
21
-16.312500
0
LINE
5
f5
100
AcDbEntity
8
1
100
AcDbLine
6
CONTINUOUS
62
5
10
81.250000
20
-19.125000
11
84.250000
21
-18.187500
0
POLYLINE
5
f6
100
AcDbEntity
8
1
6
CONTINUOUS
62
5
100
AcDb2dPolyline
66
1
10
0.0
20
0.0
30
0.0
70
0
0
VERTEX
5
f7
100
AcDbEntity
8
1
100
AcDbVertex
100
AcDb2dVertex
62
5
10
85.000000
20
-13.812500
0
VERTEX
5
f8
100
AcDbEntity
8
1
100
AcDbVertex
100
AcDb2dVertex
62
5
10
88.250000
20
-13.812500
0
VERTEX
5
f9
100
AcDbEntity
8
1
100
AcDbVertex
100
AcDb2dVertex
62
5
10
87.750000
20
-16.000000
0
VERTEX
5
fa
100
AcDbEntity
8
1
100
AcDbVertex
100
AcDb2dVertex
62
5
10
87.250000
20
-17.250000
0
VERTEX
5
fb
100
AcDbEntity
8
1
100
AcDbVertex
100
AcDb2dVertex
62
5
10
86.250000
20
-19.125000
0
VERTEX
5
fc
100
AcDbEntity
8
1
100
AcDbVertex
100
AcDb2dVertex
62
5
10
85.000000
20
-20.375000
0
SEQEND
5
fd
100
AcDbEntity
8
1
0
POLYLINE
5
fe
100
AcDbEntity
8
1
6
CONTINUOUS
62
5
100
AcDb2dPolyline
66
1
10
0.0
20
0.0
30
0.0
70
0
0
VERTEX
5
ff
100
AcDbEntity
8
1
100
AcDbVertex
100
AcDb2dVertex
62
5
10
85.250000
20
-15.062500
0
VERTEX
5
100
100
AcDbEntity
8
1
100
AcDbVertex
100
AcDb2dVertex
62
5
10
86.000000
20
-16.937500
0
VERTEX
5
101
100
AcDbEntity
8
1
100
AcDbVertex
100
AcDb2dVertex
62
5
10
87.000000
20
-18.812500
0
VERTEX
5
102
100
AcDbEntity
8
1
100
AcDbVertex
100
AcDb2dVertex
62
5
10
88.500000
20
-20.375000
0
SEQEND
5
103
100
AcDbEntity
8
1
0
POLYLINE
5
104
100
AcDbEntity
8
1
6
CONTINUOUS
62
5
100
AcDb2dPolyline
66
1
10
0.0
20
0.0
30
0.0
70
0
0
VERTEX
5
105
100
AcDbEntity
8
1
100
AcDbVertex
100
AcDb2dVertex
62
5
10
91.500000
20
-11.937500
0
VERTEX
5
106
100
AcDbEntity
8
1
100
AcDbVertex
100
AcDb2dVertex
62
5
10
90.500000
20
-14.750000
0
VERTEX
5
107
100
AcDbEntity
8
1
100
AcDbVertex
100
AcDb2dVertex
62
5
10
89.250000
20
-16.937500
0
SEQEND
5
108
100
AcDbEntity
8
1
0
LINE
5
109
100
AcDbEntity
8
1
100
AcDbLine
6
CONTINUOUS
62
5
10
90.500000
20
-14.750000
11
90.500000
21
-20.687500
0
LINE
5
10a
100
AcDbEntity
8
1
100
AcDbLine
6
CONTINUOUS
62
5
10
91.250000
20
-14.750000
11
96.500000
21
-14.750000
0
POLYLINE
5
10b
100
AcDbEntity
8
1
6
CONTINUOUS
62
5
100
AcDb2dPolyline
66
1
10
0.0
20
0.0
30
0.0
70
0
0
VERTEX
5
10c
100
AcDbEntity
8
1
100
AcDbVertex
100
AcDb2dVertex
62
5
10
94.750000
20
-11.937500
0
VERTEX
5
10d
100
AcDbEntity
8
1
100
AcDbVertex
100
AcDb2dVertex
62
5
10
94.750000
20
-20.375000
0
VERTEX
5
10e
100
AcDbEntity
8
1
100
AcDbVertex
100
AcDb2dVertex
62
5
10
93.250000
20
-20.062500
0
SEQEND
5
10f
100
AcDbEntity
8
1
0
LINE
5
110
100
AcDbEntity
8
1
100
AcDbLine
6
CONTINUOUS
62
5
10
92.250000
20
-16.000000
11
93.250000
21
-17.875000
0
LINE
5
111
100
AcDbEntity
8
1
100
AcDbLine
6
CONTINUOUS
62
5
10
103.250000
20
-15.687500
11
104.000000
21
-15.687500
0
LINE
5
112
100
AcDbEntity
8
1
100
AcDbLine
6
CONTINUOUS
62
5
10
97.250000
20
-14.437500
11
99.750000
21
-14.437500
0
LINE
5
113
100
AcDbEntity
8
1
100
AcDbLine
6
CONTINUOUS
62
5
10
98.750000
20
-11.937500
11
98.750000
21
-20.687500
0
POLYLINE
5
114
100
AcDbEntity
8
1
6
CONTINUOUS
62
5
100
AcDb2dPolyline
66
1
10
0.0
20
0.0
30
0.0
70
0
0
VERTEX
5
115
100
AcDbEntity
8
1
100
AcDbVertex
100
AcDb2dVertex
62
5
10
98.750000
20
-14.437500
0
VERTEX
5
116
100
AcDbEntity
8
1
100
AcDbVertex
100
AcDb2dVertex
62
5
10
98.000000
20
-16.937500
0
VERTEX
5
117
100
AcDbEntity
8
1
100
AcDbVertex
100
AcDb2dVertex
62
5
10
97.250000
20
-18.500000
0
SEQEND
5
118
100
AcDbEntity
8
1
0
LINE
5
119
100
AcDbEntity
8
1
100
AcDbLine
6
CONTINUOUS
62
5
10
98.750000
20
-15.062500
11
99.500000
21
-16.937500
0
POLYLINE
5
11a
100
AcDbEntity
8
1
6
CONTINUOUS
62
5
100
AcDb2dPolyline
66
1
10
0.0
20
0.0
30
0.0
70
0
0
VERTEX
5
11b
100
AcDbEntity
8
1
100
AcDbVertex
100
AcDb2dVertex
62
5
10
100.000000
20
-13.500000
0
VERTEX
5
11c
100
AcDbEntity
8
1
100
AcDbVertex
100
AcDb2dVertex
62
5
10
102.750000
20
-13.500000
0
VERTEX
5
11d
100
AcDbEntity
8
1
100
AcDbVertex
100
AcDb2dVertex
62
5
10
102.750000
20
-14.750000
0
VERTEX
5
11e
100
AcDbEntity
8
1
100
AcDbVertex
100
AcDb2dVertex
62
5
10
103.250000
20
-15.687500
0
SEQEND
5
11f
100
AcDbEntity
8
1
0
POLYLINE
5
120
100
AcDbEntity
8
1
6
CONTINUOUS
62
5
100
AcDb2dPolyline
66
1
10
0.0
20
0.0
30
0.0
70
0
0
VERTEX
5
121
100
AcDbEntity
8
1
100
AcDbVertex
100
AcDb2dVertex
62
5
10
101.500000
20
-11.625000
0
VERTEX
5
122
100
AcDbEntity
8
1
100
AcDbVertex
100
AcDb2dVertex
62
5
10
101.250000
20
-14.125000
0
VERTEX
5
123
100
AcDbEntity
8
1
100
AcDbVertex
100
AcDb2dVertex
62
5
10
100.750000
20
-15.375000
0
VERTEX
5
124
100
AcDbEntity
8
1
100
AcDbVertex
100
AcDb2dVertex
62
5
10
100.000000
20
-16.000000
0
SEQEND
5
125
100
AcDbEntity
8
1
0
POLYLINE
5
126
100
AcDbEntity
8
1
6
CONTINUOUS
62
5
100
AcDb2dPolyline
66
1
10
0.0
20
0.0
30
0.0
70
0
0
VERTEX
5
127
100
AcDbEntity
8
1
100
AcDbVertex
100
AcDb2dVertex
62
5
10
104.000000
20
-15.687500
0
VERTEX
5
128
100
AcDbEntity
8
1
100
AcDbVertex
100
AcDb2dVertex
62
5
10
104.250000
20
-15.375000
0
VERTEX
5
129
100
AcDbEntity
8
1
100
AcDbVertex
100
AcDb2dVertex
62
5
10
104.250000
20
-14.125000
0
SEQEND
5
12a
100
AcDbEntity
8
1
0
LINE
5
12b
100
AcDbEntity
8
1
100
AcDbLine
6
CONTINUOUS
62
5
10
99.750000
20
-17.562500
11
104.500000
21
-17.562500
0
LINE
5
12c
100
AcDbEntity
8
1
100
AcDbLine
6
CONTINUOUS
62
5
10
102.000000
20
-16.000000
11
102.000000
21
-20.687500
0
POLYLINE
5
12d
100
AcDbEntity
8
1
6
CONTINUOUS
62
5
100
AcDb2dPolyline
66
1
10
0.0
20
0.0
30
0.0
70
1
0
VERTEX
5
12e
100
AcDbEntity
8
1
100
AcDbVertex
100
AcDb2dVertex
62
5
10
51.000000
20
-11.937500
0
VERTEX
5
12f
100
AcDbEntity
8
1
100
AcDbVertex
100
AcDb2dVertex
62
5
10
51.000000
20
-16.625000
0
VERTEX
5
130
100
AcDbEntity
8
1
100
AcDbVertex
100
AcDb2dVertex
62
5
10
55.000000
20
-16.625000
0
VERTEX
5
131
100
AcDbEntity
8
1
100
AcDbVertex
100
AcDb2dVertex
62
5
10
55.000000
20
-11.937500
0
VERTEX
5
132
100
AcDbEntity
8
1
100
AcDbVertex
100
AcDb2dVertex
62
5
10
51.000000
20
-11.937500
0
SEQEND
5
133
100
AcDbEntity
8
1
0
LINE
5
134
100
AcDbEntity
8
1
100
AcDbLine
6
CONTINUOUS
62
5
10
51.000000
20
-13.500000
11
55.000000
21
-13.500000
0
LINE
5
135
100
AcDbEntity
8
1
100
AcDbLine
6
CONTINUOUS
62
5
10
51.000000
20
-15.062500
11
55.000000
21
-15.062500
0
LINE
5
136
100
AcDbEntity
8
1
100
AcDbLine
6
CONTINUOUS
62
5
10
49.750000
20
-17.875000
11
56.250000
21
-17.875000
0
POLYLINE
5
137
100
AcDbEntity
8
1
6
CONTINUOUS
62
5
100
AcDb2dPolyline
66
1
10
0.0
20
0.0
30
0.0
70
0
0
VERTEX
5
138
100
AcDbEntity
8
1
100
AcDbVertex
100
AcDb2dVertex
62
5
10
52.000000
20
-18.500000
0
VERTEX
5
139
100
AcDbEntity
8
1
100
AcDbVertex
100
AcDb2dVertex
62
5
10
51.250000
20
-19.437500
0
VERTEX
5
13a
100
AcDbEntity
8
1
100
AcDbVertex
100
AcDb2dVertex
62
5
10
50.250000
20
-20.062500
0
SEQEND
5
13b
100
AcDbEntity
8
1
0
POLYLINE
5
13c
100
AcDbEntity
8
1
6
CONTINUOUS
62
5
100
AcDb2dPolyline
66
1
10
0.0
20
0.0
30
0.0
70
0
0
VERTEX
5
13d
100
AcDbEntity
8
1
100
AcDbVertex
100
AcDb2dVertex
62
5
10
53.750000
20
-18.500000
0
VERTEX
5
13e
100
AcDbEntity
8
1
100
AcDbVertex
100
AcDb2dVertex
62
5
10
54.750000
20
-19.125000
0
VERTEX
5
13f
100
AcDbEntity
8
1
100
AcDbVertex
100
AcDb2dVertex
62
5
10
55.750000
20
-20.062500
0
SEQEND
5
140
100
AcDbEntity
8
1
0
POLYLINE
5
141
100
AcDbEntity
8
1
6
CONTINUOUS
62
5
100
AcDb2dPolyline
66
1
10
0.0
20
0.0
30
0.0
70
1
0
VERTEX
5
142
100
AcDbEntity
8
1
100
AcDbVertex
100
AcDb2dVertex
62
5
10
42.000000
20
-12.250000
0
VERTEX
5
143
100
AcDbEntity
8
1
100
AcDbVertex
100
AcDb2dVertex
62
5
10
44.250000
20
-12.250000
0
VERTEX
5
144
100
AcDbEntity
8
1
100
AcDbVertex
100
AcDb2dVertex
62
5
10
44.250000
20
-14.125000
0
VERTEX
5
145
100
AcDbEntity
8
1
100
AcDbVertex
100
AcDb2dVertex
62
5
10
42.000000
20
-14.125000
0
VERTEX
5
146
100
AcDbEntity
8
1
100
AcDbVertex
100
AcDb2dVertex
62
5
10
42.000000
20
-12.250000
0
SEQEND
5
147
100
AcDbEntity
8
1
0
POLYLINE
5
148
100
AcDbEntity
8
1
6
CONTINUOUS
62
5
100
AcDb2dPolyline
66
1
10
0.0
20
0.0
30
0.0
70
1
0
VERTEX
5
149
100
AcDbEntity
8
1
100
AcDbVertex
100
AcDb2dVertex
62
5
10
45.500000
20
-12.250000
0
VERTEX
5
14a
100
AcDbEntity
8
1
100
AcDbVertex
100
AcDb2dVertex
62
5
10
47.750000
20
-12.250000
0
VERTEX
5
14b
100
AcDbEntity
8
1
100
AcDbVertex
100
AcDb2dVertex
62
5
10
47.750000
20
-14.125000
0
VERTEX
5
14c
100
AcDbEntity
8
1
100
AcDbVertex
100
AcDb2dVertex
62
5
10
45.500000
20
-14.125000
0
VERTEX
5
14d
100
AcDbEntity
8
1
100
AcDbVertex
100
AcDb2dVertex
62
5
10
45.500000
20
-12.250000
0
SEQEND
5
14e
100
AcDbEntity
8
1
0
LINE
5
14f
100
AcDbEntity
8
1
100
AcDbLine
6
CONTINUOUS
62
5
10
41.500000
20
-15.687500
11
48.250000
21
-15.687500
0
POLYLINE
5
150
100
AcDbEntity
8
1
6
CONTINUOUS
62
5
100
AcDb2dPolyline
66
1
10
0.0
20
0.0
30
0.0
70
0
0
VERTEX
5
151
100
AcDbEntity
8
1
100
AcDbVertex
100
AcDb2dVertex
62
5
10
45.000000
20
-14.437500
0
VERTEX
5
152
100
AcDbEntity
8
1
100
AcDbVertex
100
AcDb2dVertex
62
5
10
44.250000
20
-16.000000
0
VERTEX
5
153
100
AcDbEntity
8
1
100
AcDbVertex
100
AcDb2dVertex
62
5
10
43.250000
20
-17.250000
0
VERTEX
5
154
100
AcDbEntity
8
1
100
AcDbVertex
100
AcDb2dVertex
62
5
10
41.250000
20
-18.500000
0
SEQEND
5
155
100
AcDbEntity
8
1
0
POLYLINE
5
156
100
AcDbEntity
8
1
6
CONTINUOUS
62
5
100
AcDb2dPolyline
66
1
10
0.0
20
0.0
30
0.0
70
0
0
VERTEX
5
157
100
AcDbEntity
8
1
100
AcDbVertex
100
AcDb2dVertex
62
5
10
45.250000
20
-15.687500
0
VERTEX
5
158
100
AcDbEntity
8
1
100
AcDbVertex
100
AcDb2dVertex
62
5
10
46.000000
20
-16.625000
0
VERTEX
5
159
100
AcDbEntity
8
1
100
AcDbVertex
100
AcDb2dVertex
62
5
10
47.250000
20
-17.875000
0
VERTEX
5
15a
100
AcDbEntity
8
1
100
AcDbVertex
100
AcDb2dVertex
62
5
10
48.500000
20
-18.500000
0
SEQEND
5
15b
100
AcDbEntity
8
1
0
POLYLINE
5
15c
100
AcDbEntity
8
1
6
CONTINUOUS
62
5
100
AcDb2dPolyline
66
1
10
0.0
20
0.0
30
0.0
70
1
0
VERTEX
5
15d
100
AcDbEntity
8
1
100
AcDbVertex
100
AcDb2dVertex
62
5
10
42.250000
20
-18.187500
0
VERTEX
5
15e
100
AcDbEntity
8
1
100
AcDbVertex
100
AcDb2dVertex
62
5
10
44.250000
20
-18.187500
0
VERTEX
5
15f
100
AcDbEntity
8
1
100
AcDbVertex
100
AcDb2dVertex
62
5
10
44.250000
20
-20.375000
0
VERTEX
5
160
100
AcDbEntity
8
1
100
AcDbVertex
100
AcDb2dVertex
62
5
10
42.250000
20
-20.375000
0
VERTEX
5
161
100
AcDbEntity
8
1
100
AcDbVertex
100
AcDb2dVertex
62
5
10
42.250000
20
-18.187500
0
SEQEND
5
162
100
AcDbEntity
8
1
0
POLYLINE
5
163
100
AcDbEntity
8
1
6
CONTINUOUS
62
5
100
AcDb2dPolyline
66
1
10
0.0
20
0.0
30
0.0
70
1
0
VERTEX
5
164
100
AcDbEntity
8
1
100
AcDbVertex
100
AcDb2dVertex
62
5
10
45.500000
20
-18.187500
0
VERTEX
5
165
100
AcDbEntity
8
1
100
AcDbVertex
100
AcDb2dVertex
62
5
10
47.500000
20
-18.187500
0
VERTEX
5
166
100
AcDbEntity
8
1
100
AcDbVertex
100
AcDb2dVertex
62
5
10
47.500000
20
-20.375000
0
VERTEX
5
167
100
AcDbEntity
8
1
100
AcDbVertex
100
AcDb2dVertex
62
5
10
45.500000
20
-20.375000
0
VERTEX
5
168
100
AcDbEntity
8
1
100
AcDbVertex
100
AcDb2dVertex
62
5
10
45.500000
20
-18.187500
0
SEQEND
5
169
100
AcDbEntity
8
1
0
POLYLINE
5
16a
100
AcDbEntity
8
1
6
CONTINUOUS
62
5
100
AcDb2dPolyline
66
1
10
0.0
20
0.0
30
0.0
70
0
0
VERTEX
5
16b
100
AcDbEntity
8
1
100
AcDbVertex
100
AcDb2dVertex
62
5
10
58.500000
20
-12.250000
0
VERTEX
5
16c
100
AcDbEntity
8
1
100
AcDbVertex
100
AcDb2dVertex
62
5
10
58.500000
20
-17.875000
0
VERTEX
5
16d
100
AcDbEntity
8
1
100
AcDbVertex
100
AcDb2dVertex
62
5
10
58.000000
20
-19.125000
0
VERTEX
5
16e
100
AcDbEntity
8
1
100
AcDbVertex
100
AcDb2dVertex
62
5
10
57.500000
20
-20.062500
0
SEQEND
5
16f
100
AcDbEntity
8
1
0
POLYLINE
5
170
100
AcDbEntity
8
1
6
CONTINUOUS
62
5
100
AcDb2dPolyline
66
1
10
0.0
20
0.0
30
0.0
70
0
0
VERTEX
5
171
100
AcDbEntity
8
1
100
AcDbVertex
100
AcDb2dVertex
62
5
10
62.500000
20
-19.750000
0
VERTEX
5
172
100
AcDbEntity
8
1
100
AcDbVertex
100
AcDb2dVertex
62
5
10
63.500000
20
-20.375000
0
VERTEX
5
173
100
AcDbEntity
8
1
100
AcDbVertex
100
AcDb2dVertex
62
5
10
63.500000
20
-12.250000
0
VERTEX
5
174
100
AcDbEntity
8
1
100
AcDbVertex
100
AcDb2dVertex
62
5
10
58.500000
20
-12.250000
0
SEQEND
5
175
100
AcDbEntity
8
1
0
LINE
5
176
100
AcDbEntity
8
1
100
AcDbLine
6
CONTINUOUS
62
5
10
58.500000
20
-14.750000
11
63.500000
21
-14.750000
0
LINE
5
177
100
AcDbEntity
8
1
100
AcDbLine
6
CONTINUOUS
62
5
10
61.000000
20
-12.250000
11
61.000000
21
-20.375000
0
LINE
5
178
100
AcDbEntity
8
1
100
AcDbLine
6
CONTINUOUS
62
5
10
58.500000
20
-17.250000
11
63.500000
21
-17.250000
0
LINE
5
179
100
AcDbEntity
8
1
100
AcDbLine
6
CONTINUOUS
62
5
10
67.250000
20
-11.937500
11
66.250000
21
-13.500000
0
LINE
5
17a
100
AcDbEntity
8
1
100
AcDbLine
6
CONTINUOUS
62
5
10
66.000000
20
-13.187500
11
67.000000
21
-14.437500
0
LINE
5
17b
100
AcDbEntity
8
1
100
AcDbLine
6
CONTINUOUS
62
5
10
67.750000
20
-13.187500
11
66.000000
21
-16.000000
0
LINE
5
17c
100
AcDbEntity
8
1
100
AcDbLine
6
CONTINUOUS
62
5
10
65.500000
20
-16.000000
11
67.750000
21
-16.000000
0
LINE
5
17d
100
AcDbEntity
8
1
100
AcDbLine
6
CONTINUOUS
62
5
10
67.500000
20
-15.375000
11
68.000000
21
-16.625000
0
LINE
5
17e
100
AcDbEntity
8
1
100
AcDbLine
6
CONTINUOUS
62
5
10
66.750000
20
-16.000000
11
66.750000
21
-20.375000
0
LINE
5
17f
100
AcDbEntity
8
1
100
AcDbLine
6
CONTINUOUS
62
5
10
66.000000
20
-17.250000
11
65.750000
21
-19.125000
0
LINE
5
180
100
AcDbEntity
8
1
100
AcDbLine
6
CONTINUOUS
62
5
10
67.500000
20
-17.250000
11
67.750000
21
-18.500000
0
POLYLINE
5
181
100
AcDbEntity
8
1
6
CONTINUOUS
62
5
100
AcDb2dPolyline
66
1
10
0.0
20
0.0
30
0.0
70
0
0
VERTEX
5
182
100
AcDbEntity
8
1
100
AcDbVertex
100
AcDb2dVertex
62
5
10
69.750000
20
-11.937500
0
VERTEX
5
183
100
AcDbEntity
8
1
100
AcDbVertex
100
AcDb2dVertex
62
5
10
69.250000
20
-13.187500
0
VERTEX
5
184
100
AcDbEntity
8
1
100
AcDbVertex
100
AcDb2dVertex
62
5
10
68.250000
20
-14.750000
0
SEQEND
5
185
100
AcDbEntity
8
1
0
POLYLINE
5
186
100
AcDbEntity
8
1
6
CONTINUOUS
62
5
100
AcDb2dPolyline
66
1
10
0.0
20
0.0
30
0.0
70
0
0
VERTEX
5
187
100
AcDbEntity
8
1
100
AcDbVertex
100
AcDb2dVertex
62
5
10
69.250000
20
-13.187500
0
VERTEX
5
188
100
AcDbEntity
8
1
100
AcDbVertex
100
AcDb2dVertex
62
5
10
71.000000
20
-13.187500
0
VERTEX
5
189
100
AcDbEntity
8
1
100
AcDbVertex
100
AcDb2dVertex
62
5
10
70.250000
20
-15.062500
0
SEQEND
5
18a
100
AcDbEntity
8
1
0
POLYLINE
5
18b
100
AcDbEntity
8
1
6
CONTINUOUS
62
5
100
AcDb2dPolyline
66
1
10
0.0
20
0.0
30
0.0
70
0
0
VERTEX
5
18c
100
AcDbEntity
8
1
100
AcDbVertex
100
AcDb2dVertex
62
5
10
68.500000
20
-15.062500
0
VERTEX
5
18d
100
AcDbEntity
8
1
100
AcDbVertex
100
AcDb2dVertex
62
5
10
72.000000
20
-15.062500
0
VERTEX
5
18e
100
AcDbEntity
8
1
100
AcDbVertex
100
AcDb2dVertex
62
5
10
72.000000
20
-17.250000
0
VERTEX
5
18f
100
AcDbEntity
8
1
100
AcDbVertex
100
AcDb2dVertex
62
5
10
68.500000
20
-17.250000
0
SEQEND
5
190
100
AcDbEntity
8
1
0
POLYLINE
5
191
100
AcDbEntity
8
1
6
CONTINUOUS
62
5
100
AcDb2dPolyline
66
1
10
0.0
20
0.0
30
0.0
70
0
0
VERTEX
5
192
100
AcDbEntity
8
1
100
AcDbVertex
100
AcDb2dVertex
62
5
10
68.500000
20
-15.062500
0
VERTEX
5
193
100
AcDbEntity
8
1
100
AcDbVertex
100
AcDb2dVertex
62
5
10
68.500000
20
-19.750000
0
VERTEX
5
194
100
AcDbEntity
8
1
100
AcDbVertex
100
AcDb2dVertex
62
5
10
68.750000
20
-20.062500
0
VERTEX
5
195
100
AcDbEntity
8
1
100
AcDbVertex
100
AcDb2dVertex
62
5
10
72.250000
20
-20.062500
0
VERTEX
5
196
100
AcDbEntity
8
1
100
AcDbVertex
100
AcDb2dVertex
62
5
10
72.250000
20
-19.125000
0
SEQEND
5
197
100
AcDbEntity
8
1
0
LINE
5
198
100
AcDbEntity
8
1
100
AcDbLine
6
CONTINUOUS
62
5
10
70.250000
20
-15.062500
11
70.250000
21
-17.250000
0
LINE
5
199
100
AcDbEntity
8
1
100
AcDbLine
6
CONTINUOUS
62
5
10
75.250000
20
-11.625000
11
74.000000
21
-13.500000
0
LINE
5
19a
100
AcDbEntity
8
1
100
AcDbLine
6
CONTINUOUS
62
5
10
73.750000
20
-13.187500
11
74.750000
21
-14.437500
0
LINE
5
19b
100
AcDbEntity
8
1
100
AcDbLine
6
CONTINUOUS
62
5
10
75.750000
20
-13.187500
11
73.750000
21
-15.687500
0
LINE
5
19c
100
AcDbEntity
8
1
100
AcDbLine
6
CONTINUOUS
62
5
10
73.500000
20
-15.687500
11
75.750000
21
-15.687500
0
LINE
5
19d
100
AcDbEntity
8
1
100
AcDbLine
6
CONTINUOUS
62
5
10
75.500000
20
-15.062500
11
76.000000
21
-16.312500
0
LINE
5
19e
100
AcDbEntity
8
1
100
AcDbLine
6
CONTINUOUS
62
5
10
74.750000
20
-15.687500
11
74.750000
21
-20.375000
0
LINE
5
19f
100
AcDbEntity
8
1
100
AcDbLine
6
CONTINUOUS
62
5
10
74.000000
20
-16.937500
11
73.500000
21
-19.437500
0
LINE
5
1a0
100
AcDbEntity
8
1
100
AcDbLine
6
CONTINUOUS
62
5
10
75.500000
20
-16.937500
11
76.000000
21
-18.500000
0
POLYLINE
5
1a1
100
AcDbEntity
8
1
6
CONTINUOUS
62
5
100
AcDb2dPolyline
66
1
10
0.0
20
0.0
30
0.0
70
0
0
VERTEX
5
1a2
100
AcDbEntity
8
1
100
AcDbVertex
100
AcDb2dVertex
62
5
10
76.750000
20
-12.250000
0
VERTEX
5
1a3
100
AcDbEntity
8
1
100
AcDbVertex
100
AcDb2dVertex
62
5
10
79.250000
20
-12.250000
0
VERTEX
5
1a4
100
AcDbEntity
8
1
100
AcDbVertex
100
AcDb2dVertex
62
5
10
79.250000
20
-14.750000
0
SEQEND
5
1a5
100
AcDbEntity
8
1
0
LINE
5
1a6
100
AcDbEntity
8
1
100
AcDbLine
6
CONTINUOUS
62
5
10
77.000000
20
-13.500000
11
79.250000
21
-13.500000
0
LINE
5
1a7
100
AcDbEntity
8
1
100
AcDbLine
6
CONTINUOUS
62
5
10
76.250000
20
-14.750000
11
80.250000
21
-14.750000
0
POLYLINE
5
1a8
100
AcDbEntity
8
1
6
CONTINUOUS
62
5
100
AcDb2dPolyline
66
1
10
0.0
20
0.0
30
0.0
70
0
0
VERTEX
5
1a9
100
AcDbEntity
8
1
100
AcDbVertex
100
AcDb2dVertex
62
5
10
78.250000
20
-14.750000
0
VERTEX
5
1aa
100
AcDbEntity
8
1
100
AcDbVertex
100
AcDb2dVertex
62
5
10
77.750000
20
-15.687500
0
VERTEX
5
1ab
100
AcDbEntity
8
1
100
AcDbVertex
100
AcDb2dVertex
62
5
10
76.500000
20
-16.625000
0
SEQEND
5
1ac
100
AcDbEntity
8
1
0
POLYLINE
5
1ad
100
AcDbEntity
8
1
6
CONTINUOUS
62
5
100
AcDb2dPolyline
66
1
10
0.0
20
0.0
30
0.0
70
0
0
VERTEX
5
1ae
100
AcDbEntity
8
1
100
AcDbVertex
100
AcDb2dVertex
62
5
10
77.750000
20
-15.687500
0
VERTEX
5
1af
100
AcDbEntity
8
1
100
AcDbVertex
100
AcDb2dVertex
62
5
10
78.500000
20
-16.625000
0
VERTEX
5
1b0
100
AcDbEntity
8
1
100
AcDbVertex
100
AcDb2dVertex
62
5
10
78.750000
20
-17.875000
0
VERTEX
5
1b1
100
AcDbEntity
8
1
100
AcDbVertex
100
AcDb2dVertex
62
5
10
78.750000
20
-18.812500
0
VERTEX
5
1b2
100
AcDbEntity
8
1
100
AcDbVertex
100
AcDb2dVertex
62
5
10
78.000000
20
-20.375000
0
VERTEX
5
1b3
100
AcDbEntity
8
1
100
AcDbVertex
100
AcDb2dVertex
62
5
10
77.250000
20
-20.062500
0
SEQEND
5
1b4
100
AcDbEntity
8
1
0
POLYLINE
5
1b5
100
AcDbEntity
8
1
6
CONTINUOUS
62
5
100
AcDb2dPolyline
66
1
10
0.0
20
0.0
30
0.0
70
0
0
VERTEX
5
1b6
100
AcDbEntity
8
1
100
AcDbVertex
100
AcDb2dVertex
62
5
10
78.250000
20
-16.312500
0
VERTEX
5
1b7
100
AcDbEntity
8
1
100
AcDbVertex
100
AcDb2dVertex
62
5
10
77.500000
20
-17.250000
0
VERTEX
5
1b8
100
AcDbEntity
8
1
100
AcDbVertex
100
AcDb2dVertex
62
5
10
76.750000
20
-17.875000
0
SEQEND
5
1b9
100
AcDbEntity
8
1
0
POLYLINE
5
1ba
100
AcDbEntity
8
1
6
CONTINUOUS
62
5
100
AcDb2dPolyline
66
1
10
0.0
20
0.0
30
0.0
70
0
0
VERTEX
5
1bb
100
AcDbEntity
8
1
100
AcDbVertex
100
AcDb2dVertex
62
5
10
78.500000
20
-17.250000
0
VERTEX
5
1bc
100
AcDbEntity
8
1
100
AcDbVertex
100
AcDb2dVertex
62
5
10
77.750000
20
-18.500000
0
VERTEX
5
1bd
100
AcDbEntity
8
1
100
AcDbVertex
100
AcDb2dVertex
62
5
10
77.000000
20
-19.125000
0
VERTEX
5
1be
100
AcDbEntity
8
1
100
AcDbVertex
100
AcDb2dVertex
62
5
10
76.250000
20
-19.437500
0
SEQEND
5
1bf
100
AcDbEntity
8
1
0
LINE
5
1c0
100
AcDbEntity
8
1
100
AcDbLine
6
CONTINUOUS
62
5
10
80.000000
20
-15.687500
11
79.000000
21
-16.937500
0
POLYLINE
5
1c1
100
AcDbEntity
8
1
6
CONTINUOUS
62
5
100
AcDb2dPolyline
66
1
10
0.0
20
0.0
30
0.0
70
0
0
VERTEX
5
1c2
100
AcDbEntity
8
1
100
AcDbVertex
100
AcDb2dVertex
62
5
10
78.750000
20
-14.750000
0
VERTEX
5
1c3
100
AcDbEntity
8
1
100
AcDbVertex
100
AcDb2dVertex
62
5
10
79.000000
20
-16.937500
0
VERTEX
5
1c4
100
AcDbEntity
8
1
100
AcDbVertex
100
AcDb2dVertex
62
5
10
79.750000
20
-19.125000
0
VERTEX
5
1c5
100
AcDbEntity
8
1
100
AcDbVertex
100
AcDb2dVertex
62
5
10
80.500000
20
-20.375000
0
SEQEND
5
1c6
100
AcDbEntity
8
1
0
POLYLINE
5
1c7
100
AcDbEntity
8
1
6
CONTINUOUS
62
5
100
AcDb2dPolyline
66
1
10
0.0
20
0.0
30
0.0
70
0
0
VERTEX
5
1c8
100
AcDbEntity
8
1
100
AcDbVertex
100
AcDb2dVertex
62
5
10
27.000000
20
-14.125000
0
VERTEX
5
1c9
100
AcDbEntity
8
1
100
AcDbVertex
100
AcDb2dVertex
62
5
10
27.500000
20
-13.187500
0
VERTEX
5
1ca
100
AcDbEntity
8
1
100
AcDbVertex
100
AcDb2dVertex
62
5
10
28.500000
20
-12.250000
0
VERTEX
5
1cb
100
AcDbEntity
8
1
100
AcDbVertex
100
AcDb2dVertex
62
5
10
29.750000
20
-12.250000
0
VERTEX
5
1cc
100
AcDbEntity
8
1
100
AcDbVertex
100
AcDb2dVertex
62
5
10
30.750000
20
-12.875000
0
VERTEX
5
1cd
100
AcDbEntity
8
1
100
AcDbVertex
100
AcDb2dVertex
62
5
10
31.000000
20
-13.500000
0
VERTEX
5
1ce
100
AcDbEntity
8
1
100
AcDbVertex
100
AcDb2dVertex
62
5
10
31.000000
20
-14.437500
0
VERTEX
5
1cf
100
AcDbEntity
8
1
100
AcDbVertex
100
AcDb2dVertex
62
5
10
30.750000
20
-15.062500
0
VERTEX
5
1d0
100
AcDbEntity
8
1
100
AcDbVertex
100
AcDb2dVertex
62
5
10
27.250000
20
-19.750000
0
VERTEX
5
1d1
100
AcDbEntity
8
1
100
AcDbVertex
100
AcDb2dVertex
62
5
10
31.000000
20
-19.750000
0
VERTEX
5
1d2
100
AcDbEntity
8
1
100
AcDbVertex
100
AcDb2dVertex
62
5
10
31.000000
20
-18.187500
0
SEQEND
5
1d3
100
AcDbEntity
8
1
0
POLYLINE
5
1d4
100
AcDbEntity
8
1
6
CONTINUOUS
62
5
100
AcDb2dPolyline
66
1
10
0.0
20
0.0
30
0.0
70
0
0
VERTEX
5
1d5
100
AcDbEntity
8
1
100
AcDbVertex
100
AcDb2dVertex
62
5
10
22.750000
20
-3.000000
0
VERTEX
5
1d6
100
AcDbEntity
8
1
100
AcDbVertex
100
AcDb2dVertex
62
5
10
23.500000
20
-9.000000
0
VERTEX
5
1d7
100
AcDbEntity
8
1
100
AcDbVertex
100
AcDb2dVertex
62
5
10
24.250000
20
-3.000000
0
VERTEX
5
1d8
100
AcDbEntity
8
1
100
AcDbVertex
100
AcDb2dVertex
62
5
10
25.000000
20
-9.000000
0
VERTEX
5
1d9
100
AcDbEntity
8
1
100
AcDbVertex
100
AcDb2dVertex
62
5
10
25.750000
20
-3.000000
0
SEQEND
5
1da
100
AcDbEntity
8
1
0
LINE
5
1db
100
AcDbEntity
8
1
100
AcDbLine
6
CONTINUOUS
62
5
10
27.500000
20
-3.000000
11
29.000000
21
-3.000000
0
LINE
5
1dc
100
AcDbEntity
8
1
100
AcDbLine
6
CONTINUOUS
62
5
10
28.250000
20
-3.000000
11
28.250000
21
-9.000000
0
LINE
5
1dd
100
AcDbEntity
8
1
100
AcDbLine
6
CONTINUOUS
62
5
10
27.500000
20
-9.000000
11
29.000000
21
-9.000000
0
LINE
5
1de
100
AcDbEntity
8
1
100
AcDbLine
6
CONTINUOUS
62
5
10
31.000000
20
-3.000000
11
31.000000
21
-9.000000
0
POLYLINE
5
1df
100
AcDbEntity
8
1
6
CONTINUOUS
62
5
100
AcDb2dPolyline
66
1
10
0.0
20
0.0
30
0.0
70
0
0
VERTEX
5
1e0
100
AcDbEntity
8
1
100
AcDbVertex
100
AcDb2dVertex
62
5
10
31.000000
20
-3.000000
0
VERTEX
5
1e1
100
AcDbEntity
8
1
100
AcDbVertex
100
AcDb2dVertex
62
5
10
32.250000
20
-3.000000
0
VERTEX
5
1e2
100
AcDbEntity
8
1
100
AcDbVertex
100
AcDb2dVertex
62
5
10
32.750000
20
-3.250000
0
VERTEX
5
1e3
100
AcDbEntity
8
1
100
AcDbVertex
100
AcDb2dVertex
62
5
10
33.250000
20
-3.750000
0
VERTEX
5
1e4
100
AcDbEntity
8
1
100
AcDbVertex
100
AcDb2dVertex
62
5
10
33.500000
20
-4.750000
0
VERTEX
5
1e5
100
AcDbEntity
8
1
100
AcDbVertex
100
AcDb2dVertex
62
5
10
33.500000
20
-7.250000
0
VERTEX
5
1e6
100
AcDbEntity
8
1
100
AcDbVertex
100
AcDb2dVertex
62
5
10
33.250000
20
-8.250000
0
VERTEX
5
1e7
100
AcDbEntity
8
1
100
AcDbVertex
100
AcDb2dVertex
62
5
10
32.750000
20
-8.750000
0
VERTEX
5
1e8
100
AcDbEntity
8
1
100
AcDbVertex
100
AcDb2dVertex
62
5
10
32.250000
20
-9.000000
0
VERTEX
5
1e9
100
AcDbEntity
8
1
100
AcDbVertex
100
AcDb2dVertex
62
5
10
31.000000
20
-9.000000
0
SEQEND
5
1ea
100
AcDbEntity
8
1
0
POLYLINE
5
1eb
100
AcDbEntity
8
1
6
CONTINUOUS
62
5
100
AcDb2dPolyline
66
1
10
0.0
20
0.0
30
0.0
70
0
0
VERTEX
5
1ec
100
AcDbEntity
8
1
100
AcDbVertex
100
AcDb2dVertex
62
5
10
37.500000
20
-3.000000
0
VERTEX
5
1ed
100
AcDbEntity
8
1
100
AcDbVertex
100
AcDb2dVertex
62
5
10
35.000000
20
-3.000000
0
VERTEX
5
1ee
100
AcDbEntity
8
1
100
AcDbVertex
100
AcDb2dVertex
62
5
10
35.000000
20
-9.000000
0
VERTEX
5
1ef
100
AcDbEntity
8
1
100
AcDbVertex
100
AcDb2dVertex
62
5
10
37.750000
20
-9.000000
0
SEQEND
5
1f0
100
AcDbEntity
8
1
0
LINE
5
1f1
100
AcDbEntity
8
1
100
AcDbLine
6
CONTINUOUS
62
5
10
35.000000
20
-6.000000
11
37.250000
21
-6.000000
0
POLYLINE
5
1f2
100
AcDbEntity
8
1
6
CONTINUOUS
62
5
100
AcDb2dPolyline
66
1
10
0.0
20
0.0
30
0.0
70
0
0
VERTEX
5
1f3
100
AcDbEntity
8
1
100
AcDbVertex
100
AcDb2dVertex
62
5
10
13.250000
20
-3.000000
0
VERTEX
5
1f4
100
AcDbEntity
8
1
100
AcDbVertex
100
AcDb2dVertex
62
5
10
13.250000
20
-7.500000
0
VERTEX
5
1f5
100
AcDbEntity
8
1
100
AcDbVertex
100
AcDb2dVertex
62
5
10
13.000000
20
-8.500000
0
VERTEX
5
1f6
100
AcDbEntity
8
1
100
AcDbVertex
100
AcDb2dVertex
62
5
10
12.500000
20
-9.000000
0
VERTEX
5
1f7
100
AcDbEntity
8
1
100
AcDbVertex
100
AcDb2dVertex
62
5
10
11.750000
20
-9.000000
0
VERTEX
5
1f8
100
AcDbEntity
8
1
100
AcDbVertex
100
AcDb2dVertex
62
5
10
11.250000
20
-8.500000
0
VERTEX
5
1f9
100
AcDbEntity
8
1
100
AcDbVertex
100
AcDb2dVertex
62
5
10
11.000000
20
-7.500000
0
SEQEND
5
1fa
100
AcDbEntity
8
1
0
POLYLINE
5
1fb
100
AcDbEntity
8
1
6
CONTINUOUS
62
5
100
AcDb2dPolyline
66
1
10
0.0
20
0.0
30
0.0
70
0
0
VERTEX
5
1fc
100
AcDbEntity
8
1
100
AcDbVertex
100
AcDb2dVertex
62
5
10
17.250000
20
-6.000000
0
VERTEX
5
1fd
100
AcDbEntity
8
1
100
AcDbVertex
100
AcDb2dVertex
62
5
10
17.750000
20
-5.500000
0
VERTEX
5
1fe
100
AcDbEntity
8
1
100
AcDbVertex
100
AcDb2dVertex
62
5
10
18.000000
20
-5.500000
0
VERTEX
5
1ff
100
AcDbEntity
8
1
100
AcDbVertex
100
AcDb2dVertex
62
5
10
18.500000
20
-6.000000
0
VERTEX
5
200
100
AcDbEntity
8
1
100
AcDbVertex
100
AcDb2dVertex
62
5
10
18.500000
20
-6.250000
0
VERTEX
5
201
100
AcDbEntity
8
1
100
AcDbVertex
100
AcDb2dVertex
62
5
10
18.000000
20
-6.750000
0
VERTEX
5
202
100
AcDbEntity
8
1
100
AcDbVertex
100
AcDb2dVertex
62
5
10
17.750000
20
-6.750000
0
VERTEX
5
203
100
AcDbEntity
8
1
100
AcDbVertex
100
AcDb2dVertex
62
5
10
17.250000
20
-6.250000
0
VERTEX
5
204
100
AcDbEntity
8
1
100
AcDbVertex
100
AcDb2dVertex
62
5
10
17.250000
20
-6.000000
0
VERTEX
5
205
100
AcDbEntity
8
1
100
AcDbVertex
100
AcDb2dVertex
62
5
10
18.500000
20
-6.000000
0
SEQEND
5
206
100
AcDbEntity
8
1
0
LINE
5
207
100
AcDbEntity
8
1
100
AcDbLine
6
CONTINUOUS
62
5
10
18.500000
20
-6.250000
11
17.250000
21
-6.250000
0
LINE
5
208
100
AcDbEntity
8
1
100
AcDbLine
6
CONTINUOUS
62
5
10
17.500000
20
-6.500000
11
18.250000
21
-6.500000
0
LINE
5
209
100
AcDbEntity
8
1
100
AcDbLine
6
CONTINUOUS
62
5
10
18.250000
20
-5.750000
11
17.500000
21
-5.750000
0
LINE
5
20a
100
AcDbEntity
8
1
100
AcDbLine
6
CONTINUOUS
62
5
10
0.000000
20
0.000000
11
0.000000
21
-32.000000
0
LINE
5
20b
100
AcDbEntity
8
1
100
AcDbLine
6
CONTINUOUS
62
5
10
22.500000
20
-49.500000
11
22.500000
21
-57.000000
0
LINE
5
20c
100
AcDbEntity
8
1
100
AcDbLine
6
CONTINUOUS
62
5
10
25.625000
20
-49.500000
11
22.500000
21
-53.875000
0
LINE
5
20d
100
AcDbEntity
8
1
100
AcDbLine
6
CONTINUOUS
62
5
10
23.437500
20
-52.625000
11
25.937500
21
-57.000000
0
LINE
5
20e
100
AcDbEntity
8
1
100
AcDbLine
6
CONTINUOUS
62
5
10
27.500000
20
-53.250000
11
30.625000
21
-53.250000
0
POLYLINE
5
20f
100
AcDbEntity
8
1
6
CONTINUOUS
62
5
100
AcDb2dPolyline
66
1
10
0.0
20
0.0
30
0.0
70
0
0
VERTEX
5
210
100
AcDbEntity
8
1
100
AcDbVertex
100
AcDb2dVertex
62
5
10
32.500000
20
-57.000000
0
VERTEX
5
211
100
AcDbEntity
8
1
100
AcDbVertex
100
AcDb2dVertex
62
5
10
32.500000
20
-49.500000
0
VERTEX
5
212
100
AcDbEntity
8
1
100
AcDbVertex
100
AcDb2dVertex
62
5
10
35.625000
20
-57.000000
0
VERTEX
5
213
100
AcDbEntity
8
1
100
AcDbVertex
100
AcDb2dVertex
62
5
10
35.625000
20
-49.500000
0
SEQEND
5
214
100
AcDbEntity
8
1
0
POLYLINE
5
215
100
AcDbEntity
8
1
6
CONTINUOUS
62
5
100
AcDb2dPolyline
66
1
10
0.0
20
0.0
30
0.0
70
0
0
VERTEX
5
216
100
AcDbEntity
8
1
100
AcDbVertex
100
AcDb2dVertex
62
5
10
12.187500
20
-49.500000
0
VERTEX
5
217
100
AcDbEntity
8
1
100
AcDbVertex
100
AcDb2dVertex
62
5
10
13.125000
20
-57.000000
0
VERTEX
5
218
100
AcDbEntity
8
1
100
AcDbVertex
100
AcDb2dVertex
62
5
10
14.062500
20
-49.500000
0
VERTEX
5
219
100
AcDbEntity
8
1
100
AcDbVertex
100
AcDb2dVertex
62
5
10
15.000000
20
-57.000000
0
VERTEX
5
21a
100
AcDbEntity
8
1
100
AcDbVertex
100
AcDb2dVertex
62
5
10
15.937500
20
-49.500000
0
SEQEND
5
21b
100
AcDbEntity
8
1
0
POLYLINE
5
21c
100
AcDbEntity
8
1
6
CONTINUOUS
62
5
100
AcDb2dPolyline
66
1
10
0.0
20
0.0
30
0.0
70
0
0
VERTEX
5
21d
100
AcDbEntity
8
1
100
AcDbVertex
100
AcDb2dVertex
62
5
10
20.312500
20
-49.500000
0
VERTEX
5
21e
100
AcDbEntity
8
1
100
AcDbVertex
100
AcDb2dVertex
62
5
10
20.312500
20
-55.125000
0
VERTEX
5
21f
100
AcDbEntity
8
1
100
AcDbVertex
100
AcDb2dVertex
62
5
10
20.000000
20
-56.375000
0
VERTEX
5
220
100
AcDbEntity
8
1
100
AcDbVertex
100
AcDb2dVertex
62
5
10
19.375000
20
-57.000000
0
VERTEX
5
221
100
AcDbEntity
8
1
100
AcDbVertex
100
AcDb2dVertex
62
5
10
18.437500
20
-57.000000
0
VERTEX
5
222
100
AcDbEntity
8
1
100
AcDbVertex
100
AcDb2dVertex
62
5
10
17.812500
20
-56.375000
0
VERTEX
5
223
100
AcDbEntity
8
1
100
AcDbVertex
100
AcDb2dVertex
62
5
10
17.500000
20
-55.125000
0
SEQEND
5
224
100
AcDbEntity
8
1
0
POLYLINE
5
225
100
AcDbEntity
8
1
6
CONTINUOUS
62
5
100
AcDb2dPolyline
66
1
10
0.0
20
0.0
30
0.0
70
0
0
VERTEX
5
226
100
AcDbEntity
8
1
100
AcDbVertex
100
AcDb2dVertex
62
5
10
37.500000
20
-49.500000
0
VERTEX
5
227
100
AcDbEntity
8
1
100
AcDbVertex
100
AcDb2dVertex
62
5
10
37.500000
20
-57.000000
0
VERTEX
5
228
100
AcDbEntity
8
1
100
AcDbVertex
100
AcDb2dVertex
62
5
10
40.625000
20
-57.000000
0
SEQEND
5
229
100
AcDbEntity
8
1
0
LINE
5
22a
100
AcDbEntity
8
1
100
AcDbLine
6
CONTINUOUS
62
5
10
33.750000
20
-12.250000
11
34.750000
21
-13.187500
0
POLYLINE
5
22b
100
AcDbEntity
8
1
6
CONTINUOUS
62
5
100
AcDb2dPolyline
66
1
10
0.0
20
0.0
30
0.0
70
0
0
VERTEX
5
22c
100
AcDbEntity
8
1
100
AcDbVertex
100
AcDb2dVertex
62
5
10
33.250000
20
-16.000000
0
VERTEX
5
22d
100
AcDbEntity
8
1
100
AcDbVertex
100
AcDb2dVertex
62
5
10
34.500000
20
-16.000000
0
VERTEX
5
22e
100
AcDbEntity
8
1
100
AcDbVertex
100
AcDb2dVertex
62
5
10
34.500000
20
-19.125000
0
VERTEX
5
22f
100
AcDbEntity
8
1
100
AcDbVertex
100
AcDb2dVertex
62
5
10
33.250000
20
-20.062500
0
SEQEND
5
230
100
AcDbEntity
8
1
0
POLYLINE
5
231
100
AcDbEntity
8
1
6
CONTINUOUS
62
5
100
AcDb2dPolyline
66
1
10
0.0
20
0.0
30
0.0
70
0
0
VERTEX
5
232
100
AcDbEntity
8
1
100
AcDbVertex
100
AcDb2dVertex
62
5
10
34.500000
20
-19.125000
0
VERTEX
5
233
100
AcDbEntity
8
1
100
AcDbVertex
100
AcDb2dVertex
62
5
10
35.500000
20
-19.750000
0
VERTEX
5
234
100
AcDbEntity
8
1
100
AcDbVertex
100
AcDb2dVertex
62
5
10
40.250000
20
-20.375000
0
SEQEND
5
235
100
AcDbEntity
8
1
0
LINE
5
236
100
AcDbEntity
8
1
100
AcDbLine
6
CONTINUOUS
62
5
10
35.500000
20
-12.875000
11
40.250000
21
-12.875000
0
LINE
5
237
100
AcDbEntity
8
1
100
AcDbLine
6
CONTINUOUS
62
5
10
38.000000
20
-11.625000
11
38.000000
21
-19.125000
0
POLYLINE
5
238
100
AcDbEntity
8
1
6
CONTINUOUS
62
5
100
AcDb2dPolyline
66
1
10
0.0
20
0.0
30
0.0
70
1
0
VERTEX
5
239
100
AcDbEntity
8
1
100
AcDbVertex
100
AcDb2dVertex
62
5
10
36.000000
20
-14.125000
0
VERTEX
5
23a
100
AcDbEntity
8
1
100
AcDbVertex
100
AcDb2dVertex
62
5
10
36.000000
20
-16.625000
0
VERTEX
5
23b
100
AcDbEntity
8
1
100
AcDbVertex
100
AcDb2dVertex
62
5
10
39.750000
20
-16.625000
0
VERTEX
5
23c
100
AcDbEntity
8
1
100
AcDbVertex
100
AcDb2dVertex
62
5
10
39.750000
20
-14.125000
0
VERTEX
5
23d
100
AcDbEntity
8
1
100
AcDbVertex
100
AcDb2dVertex
62
5
10
36.000000
20
-14.125000
0
SEQEND
5
23e
100
AcDbEntity
8
1
0
LINE
5
23f
100
AcDbEntity
8
1
100
AcDbLine
6
CONTINUOUS
62
5
10
36.000000
20
-15.375000
11
39.750000
21
-15.375000
0
LINE
5
240
100
AcDbEntity
8
1
100
AcDbLine
6
CONTINUOUS
62
5
10
35.000000
20
-17.875000
11
40.500000
21
-17.875000
0
POLYLINE
5
241
100
AcDbEntity
8
1
6
DOT2
62
5
100
AcDb2dPolyline
66
1
10
0.0
20
0.0
30
0.0
70
0
0
VERTEX
5
242
100
AcDbEntity
8
1
100
AcDbVertex
100
AcDb2dVertex
62
5
10
83.975000
20
-100.874986
0
VERTEX
5
243
100
AcDbEntity
8
1
100
AcDbVertex
100
AcDb2dVertex
62
5
10
84.912500
20
-100.249986
0
VERTEX
5
244
100
AcDbEntity
8
1
100
AcDbVertex
100
AcDb2dVertex
62
5
10
84.912500
20
-107.749986
0
SEQEND
5
245
100
AcDbEntity
8
1
0
LINE
5
246
100
AcDbEntity
8
1
100
AcDbLine
6
DOT2
62
5
10
84.287500
20
-107.749986
11
85.537500
21
-107.749986
0
POLYLINE
5
247
100
AcDbEntity
8
1
6
DOT2
62
5
100
AcDb2dPolyline
66
1
10
0.0
20
0.0
30
0.0
70
1
0
VERTEX
5
248
100
AcDbEntity
8
1
100
AcDbVertex
100
AcDb2dVertex
62
5
10
89.600000
20
-100.249986
0
VERTEX
5
249
100
AcDbEntity
8
1
100
AcDbVertex
100
AcDb2dVertex
62
5
10
90.225000
20
-100.249986
0
VERTEX
5
24a
100
AcDbEntity
8
1
100
AcDbVertex
100
AcDb2dVertex
62
5
10
90.537500
20
-100.562486
0
VERTEX
5
24b
100
AcDbEntity
8
1
100
AcDbVertex
100
AcDb2dVertex
62
5
10
91.162500
20
-101.812486
0
VERTEX
5
24c
100
AcDbEntity
8
1
100
AcDbVertex
100
AcDb2dVertex
62
5
10
91.475000
20
-103.062486
0
VERTEX
5
24d
100
AcDbEntity
8
1
100
AcDbVertex
100
AcDb2dVertex
62
5
10
91.475000
20
-104.937486
0
VERTEX
5
24e
100
AcDbEntity
8
1
100
AcDbVertex
100
AcDb2dVertex
62
5
10
91.162500
20
-106.187486
0
VERTEX
5
24f
100
AcDbEntity
8
1
100
AcDbVertex
100
AcDb2dVertex
62
5
10
90.537500
20
-107.437486
0
VERTEX
5
250
100
AcDbEntity
8
1
100
AcDbVertex
100
AcDb2dVertex
62
5
10
90.225000
20
-107.749986
0
VERTEX
5
251
100
AcDbEntity
8
1
100
AcDbVertex
100
AcDb2dVertex
62
5
10
89.600000
20
-107.749986
0
VERTEX
5
252
100
AcDbEntity
8
1
100
AcDbVertex
100
AcDb2dVertex
62
5
10
89.287500
20
-107.437486
0
VERTEX
5
253
100
AcDbEntity
8
1
100
AcDbVertex
100
AcDb2dVertex
62
5
10
88.662500
20
-106.187486
0
VERTEX
5
254
100
AcDbEntity
8
1
100
AcDbVertex
100
AcDb2dVertex
62
5
10
88.350000
20
-104.937486
0
VERTEX
5
255
100
AcDbEntity
8
1
100
AcDbVertex
100
AcDb2dVertex
62
5
10
88.350000
20
-103.062486
0
VERTEX
5
256
100
AcDbEntity
8
1
100
AcDbVertex
100
AcDb2dVertex
62
5
10
88.662500
20
-101.812486
0
VERTEX
5
257
100
AcDbEntity
8
1
100
AcDbVertex
100
AcDb2dVertex
62
5
10
89.287500
20
-100.562486
0
VERTEX
5
258
100
AcDbEntity
8
1
100
AcDbVertex
100
AcDb2dVertex
62
5
10
89.600000
20
-100.249986
0
SEQEND
5
259
100
AcDbEntity
8
1
0
POLYLINE
5
25a
100
AcDbEntity
8
1
6
DOT2
62
5
100
AcDb2dPolyline
66
1
10
0.0
20
0.0
30
0.0
70
0
0
VERTEX
5
25b
100
AcDbEntity
8
1
100
AcDbVertex
100
AcDb2dVertex
62
5
10
93.350000
20
-101.187486
0
VERTEX
5
25c
100
AcDbEntity
8
1
100
AcDbVertex
100
AcDb2dVertex
62
5
10
93.350000
20
-100.249986
0
VERTEX
5
25d
100
AcDbEntity
8
1
100
AcDbVertex
100
AcDb2dVertex
62
5
10
96.475000
20
-100.249986
0
VERTEX
5
25e
100
AcDbEntity
8
1
100
AcDbVertex
100
AcDb2dVertex
62
5
10
96.475000
20
-100.874986
0
VERTEX
5
25f
100
AcDbEntity
8
1
100
AcDbVertex
100
AcDb2dVertex
62
5
10
95.850000
20
-102.437486
0
VERTEX
5
260
100
AcDbEntity
8
1
100
AcDbVertex
100
AcDb2dVertex
62
5
10
95.225000
20
-104.624986
0
VERTEX
5
261
100
AcDbEntity
8
1
100
AcDbVertex
100
AcDb2dVertex
62
5
10
94.600000
20
-107.749986
0
SEQEND
5
262
100
AcDbEntity
8
1
0
ARC
5
263
100
AcDbEntity
8
1
100
AcDbCircle
6
CONTINUOUS
62
5
10
112.600000
20
-147.899986
40
2.500000
100
AcDbArc
50
44.886181
51
135.113817
0
ARC
5
264
100
AcDbEntity
8
1
100
AcDbCircle
6
CONTINUOUS
62
5
10
91.750000
20
-137.499985
40
1.000000
100
AcDbArc
50
0.000000
51
89.999999
0
LINE
5
265
100
AcDbEntity
8
1
100
AcDbLine
6
CONTINUOUS
62
5
10
92.750000
20
-137.499985
11
92.750000
21
-139.799986
0
POLYLINE
5
266
100
AcDbEntity
8
1
6
CONTINUOUS
62
5
100
AcDb2dPolyline
66
1
10
0.0
20
0.0
30
0.0
70
0
0
VERTEX
5
267
100
AcDbEntity
8
1
100
AcDbVertex
100
AcDb2dVertex
62
5
10
92.750000
20
-139.799986
0
VERTEX
5
268
100
AcDbEntity
8
1
100
AcDbVertex
100
AcDb2dVertex
62
5
10
86.450000
20
-139.799986
0
VERTEX
5
269
100
AcDbEntity
8
1
100
AcDbVertex
100
AcDb2dVertex
62
5
10
86.450000
20
-137.499985
0
SEQEND
5
26a
100
AcDbEntity
8
1
0
ARC
5
26b
100
AcDbEntity
8
1
100
AcDbCircle
6
CONTINUOUS
62
5
10
87.450000
20
-137.499985
40
1.000000
100
AcDbArc
50
89.999999
51
179.999998
0
LINE
5
26c
100
AcDbEntity
8
1
100
AcDbLine
6
CONTINUOUS
62
5
10
87.450000
20
-136.499985
11
91.750000
21
-136.499985
0
ARC
5
26d
100
AcDbEntity
8
1
100
AcDbCircle
6
CONTINUOUS
62
5
10
87.450000
20
-137.499985
40
0.600000
100
AcDbArc
50
89.999999
51
179.999998
0
LINE
5
26e
100
AcDbEntity
8
1
100
AcDbLine
6
CONTINUOUS
62
5
10
87.450000
20
-136.899985
11
91.750000
21
-136.899985
0
ARC
5
26f
100
AcDbEntity
8
1
100
AcDbCircle
6
CONTINUOUS
62
5
10
91.750000
20
-137.499985
40
0.600000
100
AcDbArc
50
0.000000
51
89.999999
0
POLYLINE
5
270
100
AcDbEntity
8
1
6
CONTINUOUS
62
5
100
AcDb2dPolyline
66
1
10
0.0
20
0.0
30
0.0
70
0
0
VERTEX
5
271
100
AcDbEntity
8
1
100
AcDbVertex
100
AcDb2dVertex
62
5
10
92.350000
20
-137.499985
0
VERTEX
5
272
100
AcDbEntity
8
1
100
AcDbVertex
100
AcDb2dVertex
62
5
10
92.350000
20
-139.099986
0
VERTEX
5
273
100
AcDbEntity
8
1
100
AcDbVertex
100
AcDb2dVertex
62
5
10
86.850000
20
-139.099986
0
VERTEX
5
274
100
AcDbEntity
8
1
100
AcDbVertex
100
AcDb2dVertex
62
5
10
86.850000
20
-137.499985
0
SEQEND
5
275
100
AcDbEntity
8
1
0
POLYLINE
5
276
100
AcDbEntity
8
1
6
CONTINUOUS
62
5
100
AcDb2dPolyline
66
1
10
0.0
20
0.0
30
0.0
70
0
0
VERTEX
5
277
100
AcDbEntity
8
1
100
AcDbVertex
100
AcDb2dVertex
62
5
10
86.450000
20
-139.799986
0
VERTEX
5
278
100
AcDbEntity
8
1
100
AcDbVertex
100
AcDb2dVertex
62
5
10
86.704545
20
-139.099986
0
VERTEX
5
279
100
AcDbEntity
8
1
100
AcDbVertex
100
AcDb2dVertex
62
5
10
92.495455
20
-139.099986
0
VERTEX
5
27a
100
AcDbEntity
8
1
100
AcDbVertex
100
AcDb2dVertex
62
5
10
92.750000
20
-139.799986
0
SEQEND
5
27b
100
AcDbEntity
8
1
0
LINE
5
27c
100
AcDbEntity
8
1
100
AcDbLine
6
CONTINUOUS
62
5
10
86.850000
20
-139.099986
11
92.350000
21
-139.099986
0
LINE
5
27d
100
AcDbEntity
8
1
100
AcDbLine
6
CONTINUOUS
62
5
10
98.400000
20
-147.799986
11
98.300000
21
-147.899986
0
LINE
5
27e
100
AcDbEntity
8
1
100
AcDbLine
6
CONTINUOUS
62
5
10
84.900000
20
-147.799986
11
84.800000
21
-147.899986
0
LINE
5
27f
100
AcDbEntity
8
1
100
AcDbLine
6
CONTINUOUS
62
5
10
94.300000
20
-147.799986
11
94.400000
21
-147.899986
0
LINE
5
280
100
AcDbEntity
8
1
100
AcDbLine
6
CONTINUOUS
62
5
10
80.800000
20
-147.799986
11
80.900000
21
-147.899986
0
CIRCLE
5
281
100
AcDbEntity
8
1
100
AcDbCircle
6
CONTINUOUS
62
5
10
100.100000
20
-141.499986
40
2.250000
0
CIRCLE
5
282
100
AcDbEntity
8
1
100
AcDbCircle
6
CONTINUOUS
62
5
10
100.100000
20
-141.499986
40
3.450000
0
CIRCLE
5
283
100
AcDbEntity
8
1
100
AcDbCircle
6
CONTINUOUS
62
5
10
100.100000
20
-141.499986
40
4.000000
0
POLYLINE
5
284
100
AcDbEntity
8
1
6
CONTINUOUS
62
5
100
AcDb2dPolyline
66
1
10
0.0
20
0.0
30
0.0
70
0
0
VERTEX
5
285
100
AcDbEntity
8
1
100
AcDbVertex
100
AcDb2dVertex
62
5
10
98.300000
20
-149.299986
0
VERTEX
5
286
100
AcDbEntity
8
1
100
AcDbVertex
100
AcDb2dVertex
62
5
10
96.800000
20
-149.299986
0
VERTEX
5
287
100
AcDbEntity
8
1
100
AcDbVertex
100
AcDb2dVertex
62
5
10
96.800000
20
-153.899986
0
SEQEND
5
288
100
AcDbEntity
8
1
0
POLYLINE
5
289
100
AcDbEntity
8
1
6
CONTINUOUS
62
5
100
AcDb2dPolyline
66
1
10
0.0
20
0.0
30
0.0
70
0
0
VERTEX
5
28a
100
AcDbEntity
8
1
100
AcDbVertex
100
AcDb2dVertex
62
5
10
80.900000
20
-149.299986
0
VERTEX
5
28b
100
AcDbEntity
8
1
100
AcDbVertex
100
AcDb2dVertex
62
5
10
82.400000
20
-149.299986
0
VERTEX
5
28c
100
AcDbEntity
8
1
100
AcDbVertex
100
AcDb2dVertex
62
5
10
82.400000
20
-153.899986
0
SEQEND
5
28d
100
AcDbEntity
8
1
0
ARC
5
28e
100
AcDbEntity
8
1
100
AcDbCircle
6
CONTINUOUS
62
5
10
112.600000
20
-189.999986
40
43.900000
100
AcDbArc
50
92.312394
51
95.291079
0
ARC
5
28f
100
AcDbEntity
8
1
100
AcDbCircle
6
CONTINUOUS
62
5
10
112.600000
20
-189.999986
40
43.900000
100
AcDbArc
50
84.708919
51
87.687604
0
ARC
5
290
100
AcDbEntity
8
1
100
AcDbCircle
6
CONTINUOUS
62
5
10
116.450000
20
-148.427880
40
2.150000
100
AcDbArc
50
-95.291079
51
84.708919
0
ARC
5
291
100
AcDbEntity
8
1
100
AcDbCircle
6
CONTINUOUS
62
5
10
112.600000
20
-189.999986
40
39.600000
100
AcDbArc
50
84.708919
51
95.291079
0
ARC
5
292
100
AcDbEntity
8
1
100
AcDbCircle
6
CONTINUOUS
62
5
10
108.750000
20
-148.427880
40
2.150000
100
AcDbArc
50
95.291079
51
-84.708919
0
ARC
5
293
100
AcDbEntity
8
1
100
AcDbCircle
6
CONTINUOUS
62
5
10
112.600000
20
-189.999986
40
44.200000
100
AcDbArc
50
91.801760
51
95.291079
0
ARC
5
294
100
AcDbEntity
8
1
100
AcDbCircle
6
CONTINUOUS
62
5
10
112.600000
20
-189.999986
40
44.200000
100
AcDbArc
50
84.708919
51
88.198238
0
LINE
5
295
100
AcDbEntity
8
1
100
AcDbLine
6
CONTINUOUS
62
5
10
116.675928
20
-145.988319
11
116.675928
21
-145.988319
0
ARC
5
296
100
AcDbEntity
8
1
100
AcDbCircle
6
CONTINUOUS
62
5
10
116.450000
20
-148.427880
40
2.450000
100
AcDbArc
50
-95.291079
51
84.708919
0
LINE
5
297
100
AcDbEntity
8
1
100
AcDbLine
6
CONTINUOUS
62
5
10
116.224072
20
-150.867441
11
116.224072
21
-150.867441
0
ARC
5
298
100
AcDbEntity
8
1
100
AcDbCircle
6
CONTINUOUS
62
5
10
112.600000
20
-189.999986
40
39.300000
100
AcDbArc
50
84.708919
51
95.291079
0
LINE
5
299
100
AcDbEntity
8
1
100
AcDbLine
6
CONTINUOUS
62
5
10
108.975928
20
-150.867441
11
108.975928
21
-150.867441
0
ARC
5
29a
100
AcDbEntity
8
1
100
AcDbCircle
6
CONTINUOUS
62
5
10
108.750000
20
-148.427880
40
2.450000
100
AcDbArc
50
95.291079
51
-84.708919
0
LINE
5
29b
100
AcDbEntity
8
1
100
AcDbLine
6
CONTINUOUS
62
5
10
108.524072
20
-145.988319
11
108.524072
21
-145.988319
0
POLYLINE
5
29c
100
AcDbEntity
8
1
6
CONTINUOUS
62
5
100
AcDb2dPolyline
66
1
10
0.0
20
0.0
30
0.0
70
1
0
VERTEX
5
29d
100
AcDbEntity
8
1
100
AcDbVertex
100
AcDb2dVertex
62
5
10
98.400000
20
-147.799986
0
VERTEX
5
29e
100
AcDbEntity
8
1
100
AcDbVertex
100
AcDb2dVertex
62
5
10
94.300000
20
-147.799986
0
VERTEX
5
29f
100
AcDbEntity
8
1
100
AcDbVertex
100
AcDb2dVertex
62
5
10
94.300000
20
-153.999986
0
VERTEX
5
2a0
100
AcDbEntity
8
1
100
AcDbVertex
100
AcDb2dVertex
62
5
10
98.400000
20
-153.999986
0
VERTEX
5
2a1
100
AcDbEntity
8
1
100
AcDbVertex
100
AcDb2dVertex
62
5
10
98.400000
20
-147.799986
0
SEQEND
5
2a2
100
AcDbEntity
8
1
0
POLYLINE
5
2a3
100
AcDbEntity
8
1
6
CONTINUOUS
62
5
100
AcDb2dPolyline
66
1
10
0.0
20
0.0
30
0.0
70
1
0
VERTEX
5
2a4
100
AcDbEntity
8
1
100
AcDbVertex
100
AcDb2dVertex
62
5
10
94.400000
20
-153.899986
0
VERTEX
5
2a5
100
AcDbEntity
8
1
100
AcDbVertex
100
AcDb2dVertex
62
5
10
98.300000
20
-153.899986
0
VERTEX
5
2a6
100
AcDbEntity
8
1
100
AcDbVertex
100
AcDb2dVertex
62
5
10
98.300000
20
-147.899986
0
VERTEX
5
2a7
100
AcDbEntity
8
1
100
AcDbVertex
100
AcDb2dVertex
62
5
10
94.400000
20
-147.899986
0
SEQEND
5
2a8
100
AcDbEntity
8
1
0
POLYLINE
5
2a9
100
AcDbEntity
8
1
6
CONTINUOUS
62
5
100
AcDb2dPolyline
66
1
10
0.0
20
0.0
30
0.0
70
1
0
VERTEX
5
2aa
100
AcDbEntity
8
1
100
AcDbVertex
100
AcDb2dVertex
62
5
10
80.900000
20
-153.899986
0
VERTEX
5
2ab
100
AcDbEntity
8
1
100
AcDbVertex
100
AcDb2dVertex
62
5
10
84.800000
20
-153.899986
0
VERTEX
5
2ac
100
AcDbEntity
8
1
100
AcDbVertex
100
AcDb2dVertex
62
5
10
84.800000
20
-147.899986
0
VERTEX
5
2ad
100
AcDbEntity
8
1
100
AcDbVertex
100
AcDb2dVertex
62
5
10
80.900000
20
-147.899986
0
SEQEND
5
2ae
100
AcDbEntity
8
1
0
POLYLINE
5
2af
100
AcDbEntity
8
1
6
CONTINUOUS
62
5
100
AcDb2dPolyline
66
1
10
0.0
20
0.0
30
0.0
70
1
0
VERTEX
5
2b0
100
AcDbEntity
8
1
100
AcDbVertex
100
AcDb2dVertex
62
5
10
84.900000
20
-147.799986
0
VERTEX
5
2b1
100
AcDbEntity
8
1
100
AcDbVertex
100
AcDb2dVertex
62
5
10
80.800000
20
-147.799986
0
VERTEX
5
2b2
100
AcDbEntity
8
1
100
AcDbVertex
100
AcDb2dVertex
62
5
10
80.800000
20
-153.999986
0
VERTEX
5
2b3
100
AcDbEntity
8
1
100
AcDbVertex
100
AcDb2dVertex
62
5
10
84.900000
20
-153.999986
0
VERTEX
5
2b4
100
AcDbEntity
8
1
100
AcDbVertex
100
AcDb2dVertex
62
5
10
84.900000
20
-147.799986
0
SEQEND
5
2b5
100
AcDbEntity
8
1
0
ARC
5
2b6
100
AcDbEntity
8
1
100
AcDbCircle
6
CONTINUOUS
62
5
10
66.600000
20
-147.899986
40
2.500000
100
AcDbArc
50
44.886181
51
135.113817
0
LINE
5
2b7
100
AcDbEntity
8
1
100
AcDbLine
6
CONTINUOUS
62
5
10
52.400000
20
-147.799986
11
52.300000
21
-147.899986
0
LINE
5
2b8
100
AcDbEntity
8
1
100
AcDbLine
6
CONTINUOUS
62
5
10
48.300000
20
-147.799986
11
48.400000
21
-147.899986
0
POLYLINE
5
2b9
100
AcDbEntity
8
1
6
CONTINUOUS
62
5
100
AcDb2dPolyline
66
1
10
0.0
20
0.0
30
0.0
70
0
0
VERTEX
5
2ba
100
AcDbEntity
8
1
100
AcDbVertex
100
AcDb2dVertex
62
5
10
43.500000
20
-136.599986
0
VERTEX
5
2bb
100
AcDbEntity
8
1
100
AcDbVertex
100
AcDb2dVertex
62
5
10
42.800000
20
-136.854532
0
VERTEX
5
2bc
100
AcDbEntity
8
1
100
AcDbVertex
100
AcDb2dVertex
62
5
10
42.800000
20
-142.099986
0
SEQEND
5
2bd
100
AcDbEntity
8
1
0
CIRCLE
5
2be
100
AcDbEntity
8
1
100
AcDbCircle
6
CONTINUOUS
62
5
10
54.100000
20
-141.499986
40
2.250000
0
CIRCLE
5
2bf
100
AcDbEntity
8
1
100
AcDbCircle
6
CONTINUOUS
62
5
10
54.100000
20
-141.499986
40
3.450000
0
CIRCLE
5
2c0
100
AcDbEntity
8
1
100
AcDbCircle
6
CONTINUOUS
62
5
10
54.100000
20
-141.499986
40
4.000000
0
ARC
5
2c1
100
AcDbEntity
8
1
100
AcDbCircle
6
CONTINUOUS
62
5
10
41.200000
20
-137.599986
40
1.000000
100
AcDbArc
50
89.999999
51
179.999998
0
LINE
5
2c2
100
AcDbEntity
8
1
100
AcDbLine
6
CONTINUOUS
62
5
10
40.200000
20
-137.599986
11
40.200000
21
-141.899986
0
ARC
5
2c3
100
AcDbEntity
8
1
100
AcDbCircle
6
CONTINUOUS
62
5
10
41.200000
20
-141.899986
40
1.000000
100
AcDbArc
50
179.999998
51
-89.999999
0
POLYLINE
5
2c4
100
AcDbEntity
8
1
6
CONTINUOUS
62
5
100
AcDb2dPolyline
66
1
10
0.0
20
0.0
30
0.0
70
0
0
VERTEX
5
2c5
100
AcDbEntity
8
1
100
AcDbVertex
100
AcDb2dVertex
62
5
10
41.200000
20
-142.899986
0
VERTEX
5
2c6
100
AcDbEntity
8
1
100
AcDbVertex
100
AcDb2dVertex
62
5
10
43.500000
20
-142.899986
0
VERTEX
5
2c7
100
AcDbEntity
8
1
100
AcDbVertex
100
AcDb2dVertex
62
5
10
43.500000
20
-136.599986
0
VERTEX
5
2c8
100
AcDbEntity
8
1
100
AcDbVertex
100
AcDb2dVertex
62
5
10
41.200000
20
-136.599986
0
SEQEND
5
2c9
100
AcDbEntity
8
1
0
ARC
5
2ca
100
AcDbEntity
8
1
100
AcDbCircle
6
CONTINUOUS
62
5
10
41.200000
20
-141.899986
40
0.600000
100
AcDbArc
50
179.999998
51
-160.528774
0
LINE
5
2cb
100
AcDbEntity
8
1
100
AcDbLine
6
CONTINUOUS
62
5
10
40.600000
20
-141.899986
11
40.600000
21
-137.599986
0
ARC
5
2cc
100
AcDbEntity
8
1
100
AcDbCircle
6
CONTINUOUS
62
5
10
41.200000
20
-137.599986
40
0.600000
100
AcDbArc
50
89.999999
51
179.999998
0
LINE
5
2cd
100
AcDbEntity
8
1
100
AcDbLine
6
CONTINUOUS
62
5
10
41.200000
20
-136.999986
11
42.800000
21
-136.999986
0
ARC
5
2ce
100
AcDbEntity
8
1
100
AcDbCircle
6
CONTINUOUS
62
5
10
41.200000
20
-141.899986
40
1.000000
100
AcDbArc
50
-124.449900
51
-89.999999
0
LINE
5
2cf
100
AcDbEntity
8
1
100
AcDbLine
6
CONTINUOUS
62
5
10
41.200000
20
-142.899986
11
43.500000
21
-142.899986
0
POLYLINE
5
2d0
100
AcDbEntity
8
1
6
CONTINUOUS
62
5
100
AcDb2dPolyline
66
1
10
0.0
20
0.0
30
0.0
70
0
0
VERTEX
5
2d1
100
AcDbEntity
8
1
100
AcDbVertex
100
AcDb2dVertex
62
5
10
43.500000
20
-142.899986
0
VERTEX
5
2d2
100
AcDbEntity
8
1
100
AcDbVertex
100
AcDb2dVertex
62
5
10
42.800000
20
-142.390895
0
VERTEX
5
2d3
100
AcDbEntity
8
1
100
AcDbVertex
100
AcDb2dVertex
62
5
10
42.800000
20
-142.099986
0
VERTEX
5
2d4
100
AcDbEntity
8
1
100
AcDbVertex
100
AcDb2dVertex
62
5
10
40.634315
20
-142.099986
0
VERTEX
5
2d5
100
AcDbEntity
8
1
100
AcDbVertex
100
AcDb2dVertex
62
5
10
40.634315
20
-142.724607
0
SEQEND
5
2d6
100
AcDbEntity
8
1
0
LINE
5
2d7
100
AcDbEntity
8
1
100
AcDbLine
6
CONTINUOUS
62
5
10
44.100000
20
-162.349986
11
44.100000
21
-158.149986
0
LINE
5
2d8
100
AcDbEntity
8
1
100
AcDbLine
6
CONTINUOUS
62
5
10
45.600000
20
-158.249986
11
44.100000
21
-158.149986
0
POLYLINE
5
2d9
100
AcDbEntity
8
1
6
CONTINUOUS
62
5
100
AcDb2dPolyline
66
1
10
0.0
20
0.0
30
0.0
70
0
0
VERTEX
5
2da
100
AcDbEntity
8
1
100
AcDbVertex
100
AcDb2dVertex
62
5
10
44.399989
20
-161.749994
0
VERTEX
5
2db
100
AcDbEntity
8
1
100
AcDbVertex
100
AcDb2dVertex
62
5
10
44.342814
20
-161.755986
0
VERTEX
5
2dc
100
AcDbEntity
8
1
100
AcDbVertex
100
AcDb2dVertex
62
5
10
44.291847
20
-161.773986
0
VERTEX
5
2dd
100
AcDbEntity
8
1
100
AcDbVertex
100
AcDb2dVertex
62
5
10
44.246877
20
-161.803986
0
VERTEX
5
2de
100
AcDbEntity
8
1
100
AcDbVertex
100
AcDb2dVertex
62
5
10
44.207904
20
-161.845986
0
VERTEX
5
2df
100
AcDbEntity
8
1
100
AcDbVertex
100
AcDb2dVertex
62
5
10
44.174928
20
-161.899986
0
VERTEX
5
2e0
100
AcDbEntity
8
1
100
AcDbVertex
100
AcDb2dVertex
62
5
10
44.147949
20
-161.965986
0
VERTEX
5
2e1
100
AcDbEntity
8
1
100
AcDbVertex
100
AcDb2dVertex
62
5
10
44.126967
20
-162.043986
0
VERTEX
5
2e2
100
AcDbEntity
8
1
100
AcDbVertex
100
AcDb2dVertex
62
5
10
44.111981
20
-162.133986
0
VERTEX
5
2e3
100
AcDbEntity
8
1
100
AcDbVertex
100
AcDb2dVertex
62
5
10
44.102992
20
-162.235986
0
VERTEX
5
2e4
100
AcDbEntity
8
1
100
AcDbVertex
100
AcDb2dVertex
62
5
10
44.100000
20
-162.349986
0
SEQEND
5
2e5
100
AcDbEntity
8
1
0
LINE
5
2e6
100
AcDbEntity
8
1
100
AcDbLine
6
CONTINUOUS
62
5
10
45.600000
20
-162.349986
11
44.100000
21
-162.349986
0
POLYLINE
5
2e7
100
AcDbEntity
8
1
6
CONTINUOUS
62
5
100
AcDb2dPolyline
66
1
10
0.0
20
0.0
30
0.0
70
0
0
VERTEX
5
2e8
100
AcDbEntity
8
1
100
AcDbVertex
100
AcDb2dVertex
62
5
10
44.099989
20
-158.149986
0
VERTEX
5
2e9
100
AcDbEntity
8
1
100
AcDbVertex
100
AcDb2dVertex
62
5
10
44.102994
20
-158.264005
0
VERTEX
5
2ea
100
AcDbEntity
8
1
100
AcDbVertex
100
AcDb2dVertex
62
5
10
44.111999
20
-158.366008
0
VERTEX
5
2eb
100
AcDbEntity
8
1
100
AcDbVertex
100
AcDb2dVertex
62
5
10
44.127002
20
-158.456010
0
VERTEX
5
2ec
100
AcDbEntity
8
1
100
AcDbVertex
100
AcDb2dVertex
62
5
10
44.148004
20
-158.534012
0
VERTEX
5
2ed
100
AcDbEntity
8
1
100
AcDbVertex
100
AcDb2dVertex
62
5
10
44.175005
20
-158.600014
0
VERTEX
5
2ee
100
AcDbEntity
8
1
100
AcDbVertex
100
AcDb2dVertex
62
5
10
44.208004
20
-158.654015
0
VERTEX
5
2ef
100
AcDbEntity
8
1
100
AcDbVertex
100
AcDb2dVertex
62
5
10
44.247002
20
-158.696016
0
VERTEX
5
2f0
100
AcDbEntity
8
1
100
AcDbVertex
100
AcDb2dVertex
62
5
10
44.291999
20
-158.726017
0
VERTEX
5
2f1
100
AcDbEntity
8
1
100
AcDbVertex
100
AcDb2dVertex
62
5
10
44.342995
20
-158.744017
0
VERTEX
5
2f2
100
AcDbEntity
8
1
100
AcDbVertex
100
AcDb2dVertex
62
5
10
44.400000
20
-158.749986
0
SEQEND
5
2f3
100
AcDbEntity
8
1
0
LINE
5
2f4
100
AcDbEntity
8
1
100
AcDbLine
6
CONTINUOUS
62
5
10
44.399989
20
-161.749994
11
44.399989
21
-158.749993
0
ARC
5
2f5
100
AcDbEntity
8
1
100
AcDbCircle
6
CONTINUOUS
62
5
10
45.100000
20
-162.249986
40
0.500000
100
AcDbArc
50
0.000000
51
89.999999
0
LINE
5
2f6
100
AcDbEntity
8
1
100
AcDbLine
6
CONTINUOUS
62
5
10
45.600000
20
-162.249986
11
45.600000
21
-162.349986
0
LINE
5
2f7
100
AcDbEntity
8
1
100
AcDbLine
6
CONTINUOUS
62
5
10
45.600000
20
-158.249986
11
45.600000
21
-158.249986
0
ARC
5
2f8
100
AcDbEntity
8
1
100
AcDbCircle
6
CONTINUOUS
62
5
10
45.100000
20
-158.249986
40
0.500000
100
AcDbArc
50
-89.999999
51
0.000000
0
POLYLINE
5
2f9
100
AcDbEntity
8
1
6
CONTINUOUS
62
5
100
AcDb2dPolyline
66
1
10
0.0
20
0.0
30
0.0
70
0
0
VERTEX
5
2fa
100
AcDbEntity
8
1
100
AcDbVertex
100
AcDb2dVertex
62
5
10
45.100000
20
-158.749986
0
VERTEX
5
2fb
100
AcDbEntity
8
1
100
AcDbVertex
100
AcDb2dVertex
62
5
10
44.400000
20
-158.749986
0
VERTEX
5
2fc
100
AcDbEntity
8
1
100
AcDbVertex
100
AcDb2dVertex
62
5
10
44.400000
20
-161.749986
0
VERTEX
5
2fd
100
AcDbEntity
8
1
100
AcDbVertex
100
AcDb2dVertex
62
5
10
45.100000
20
-161.749986
0
SEQEND
5
2fe
100
AcDbEntity
8
1
0
LINE
5
2ff
100
AcDbEntity
8
1
100
AcDbLine
6
CONTINUOUS
62
5
10
46.400000
20
-158.249986
11
45.600000
21
-158.249986
0
LINE
5
300
100
AcDbEntity
8
1
100
AcDbLine
6
CONTINUOUS
62
5
10
46.400000
20
-158.249986
11
46.500000
21
-158.149986
0
LINE
5
301
100
AcDbEntity
8
1
100
AcDbLine
6
CONTINUOUS
62
5
10
46.900000
20
-161.499986
11
47.000000
21
-161.499986
0
LINE
5
302
100
AcDbEntity
8
1
100
AcDbLine
6
CONTINUOUS
62
5
10
50.200000
20
-158.199986
11
49.800000
21
-157.799986
0
POLYLINE
5
303
100
AcDbEntity
8
1
6
CONTINUOUS
62
5
100
AcDb2dPolyline
66
1
10
0.0
20
0.0
30
0.0
70
0
0
VERTEX
5
304
100
AcDbEntity
8
1
100
AcDbVertex
100
AcDb2dVertex
62
5
10
52.300000
20
-149.299986
0
VERTEX
5
305
100
AcDbEntity
8
1
100
AcDbVertex
100
AcDb2dVertex
62
5
10
50.800000
20
-149.299986
0
VERTEX
5
306
100
AcDbEntity
8
1
100
AcDbVertex
100
AcDb2dVertex
62
5
10
50.800000
20
-153.899986
0
SEQEND
5
307
100
AcDbEntity
8
1
0
LINE
5
308
100
AcDbEntity
8
1
100
AcDbLine
6
CONTINUOUS
62
5
10
52.300000
20
-153.899986
11
52.400000
21
-153.999986
0
LINE
5
309
100
AcDbEntity
8
1
100
AcDbLine
6
CONTINUOUS
62
5
10
48.400000
20
-153.899986
11
48.300000
21
-153.999986
0
POLYLINE
5
30a
100
AcDbEntity
8
1
6
CONTINUOUS
62
5
100
AcDb2dPolyline
66
1
10
0.0
20
0.0
30
0.0
70
0
0
VERTEX
5
30b
100
AcDbEntity
8
1
100
AcDbVertex
100
AcDb2dVertex
62
5
10
45.600000
20
-164.999986
0
VERTEX
5
30c
100
AcDbEntity
8
1
100
AcDbVertex
100
AcDb2dVertex
62
5
10
43.950000
20
-164.999986
0
VERTEX
5
30d
100
AcDbEntity
8
1
100
AcDbVertex
100
AcDb2dVertex
62
5
10
43.950000
20
-168.999986
0
VERTEX
5
30e
100
AcDbEntity
8
1
100
AcDbVertex
100
AcDb2dVertex
62
5
10
45.600000
20
-168.999986
0
SEQEND
5
30f
100
AcDbEntity
8
1
0
ARC
5
310
100
AcDbEntity
8
1
100
AcDbCircle
6
CONTINUOUS
62
5
10
42.650000
20
-165.499986
40
0.500000
100
AcDbArc
50
89.999999
51
179.999998
0
POLYLINE
5
311
100
AcDbEntity
8
1
6
CONTINUOUS
62
5
100
AcDb2dPolyline
66
1
10
0.0
20
0.0
30
0.0
70
0
0
VERTEX
5
312
100
AcDbEntity
8
1
100
AcDbVertex
100
AcDb2dVertex
62
5
10
42.650000
20
-164.999986
0
VERTEX
5
313
100
AcDbEntity
8
1
100
AcDbVertex
100
AcDb2dVertex
62
5
10
43.950000
20
-164.999986
0
VERTEX
5
314
100
AcDbEntity
8
1
100
AcDbVertex
100
AcDb2dVertex
62
5
10
43.950000
20
-168.999986
0
SEQEND
5
315
100
AcDbEntity
8
1
0
LINE
5
316
100
AcDbEntity
8
1
100
AcDbLine
6
CONTINUOUS
62
5
10
43.950000
20
-168.999986
11
42.650000
21
-168.999986
0
ARC
5
317
100
AcDbEntity
8
1
100
AcDbCircle
6
CONTINUOUS
62
5
10
42.650000
20
-168.499986
40
0.500000
100
AcDbArc
50
179.999998
51
-89.999999
0
LINE
5
318
100
AcDbEntity
8
1
100
AcDbLine
6
CONTINUOUS
62
5
10
42.150000
20
-168.499986
11
42.150000
21
-165.499986
0
ARC
5
319
100
AcDbEntity
8
1
100
AcDbCircle
6
CONTINUOUS
62
5
10
46.100000
20
-162.799986
40
0.300000
100
AcDbArc
50
0.000000
51
89.999999
0
LINE
5
31a
100
AcDbEntity
8
1
100
AcDbLine
6
CONTINUOUS
62
5
10
46.100000
20
-162.499986
11
45.600000
21
-162.499986
0
LINE
5
31b
100
AcDbEntity
8
1
100
AcDbLine
6
CONTINUOUS
62
5
10
45.600000
20
-164.999986
11
46.100000
21
-164.999986
0
ARC
5
31c
100
AcDbEntity
8
1
100
AcDbCircle
6
CONTINUOUS
62
5
10
46.100000
20
-164.699986
40
0.300000
100
AcDbArc
50
-89.999999
51
0.000000
0
LINE
5
31d
100
AcDbEntity
8
1
100
AcDbLine
6
CONTINUOUS
62
5
10
46.400000
20
-164.699986
11
46.400000
21
-162.799986
0
ARC
5
31e
100
AcDbEntity
8
1
100
AcDbCircle
6
CONTINUOUS
62
5
10
45.900000
20
-164.699986
40
0.300000
100
AcDbArc
50
-89.999999
51
0.000000
0
LINE
5
31f
100
AcDbEntity
8
1
100
AcDbLine
6
CONTINUOUS
62
5
10
46.200000
20
-164.699986
11
46.200000
21
-162.799986
0
ARC
5
320
100
AcDbEntity
8
1
100
AcDbCircle
6
CONTINUOUS
62
5
10
45.900000
20
-162.799986
40
0.300000
100
AcDbArc
50
0.000000
51
89.999999
0
LINE
5
321
100
AcDbEntity
8
1
100
AcDbLine
6
CONTINUOUS
62
5
10
45.900000
20
-162.499986
11
45.600000
21
-162.499986
0
LINE
5
322
100
AcDbEntity
8
1
100
AcDbLine
6
CONTINUOUS
62
5
10
45.600000
20
-164.999986
11
45.900000
21
-164.999986
0
LINE
5
323
100
AcDbEntity
8
1
100
AcDbLine
6
CONTINUOUS
62
5
10
45.500000
20
-164.999986
11
45.500000
21
-162.349986
0
POLYLINE
5
324
100
AcDbEntity
8
1
6
CONTINUOUS
62
5
100
AcDb2dPolyline
66
1
10
0.0
20
0.0
30
0.0
70
1
0
VERTEX
5
325
100
AcDbEntity
8
1
100
AcDbVertex
100
AcDb2dVertex
62
5
10
48.400000
20
-153.899986
0
VERTEX
5
326
100
AcDbEntity
8
1
100
AcDbVertex
100
AcDb2dVertex
62
5
10
52.300000
20
-153.899986
0
VERTEX
5
327
100
AcDbEntity
8
1
100
AcDbVertex
100
AcDb2dVertex
62
5
10
52.300000
20
-147.899986
0
VERTEX
5
328
100
AcDbEntity
8
1
100
AcDbVertex
100
AcDb2dVertex
62
5
10
48.400000
20
-147.899986
0
SEQEND
5
329
100
AcDbEntity
8
1
0
POLYLINE
5
32a
100
AcDbEntity
8
1
6
CONTINUOUS
62
5
100
AcDb2dPolyline
66
1
10
0.0
20
0.0
30
0.0
70
1
0
VERTEX
5
32b
100
AcDbEntity
8
1
100
AcDbVertex
100
AcDb2dVertex
62
5
10
52.400000
20
-147.799986
0
VERTEX
5
32c
100
AcDbEntity
8
1
100
AcDbVertex
100
AcDb2dVertex
62
5
10
48.300000
20
-147.799986
0
VERTEX
5
32d
100
AcDbEntity
8
1
100
AcDbVertex
100
AcDb2dVertex
62
5
10
48.300000
20
-153.999986
0
VERTEX
5
32e
100
AcDbEntity
8
1
100
AcDbVertex
100
AcDb2dVertex
62
5
10
52.400000
20
-153.999986
0
VERTEX
5
32f
100
AcDbEntity
8
1
100
AcDbVertex
100
AcDb2dVertex
62
5
10
52.400000
20
-147.799986
0
SEQEND
5
330
100
AcDbEntity
8
1
0
ARC
5
331
100
AcDbEntity
8
1
100
AcDbCircle
6
CONTINUOUS
62
5
10
66.600000
20
-189.999986
40
43.900000
100
AcDbArc
50
92.312394
51
95.291079
0
ARC
5
332
100
AcDbEntity
8
1
100
AcDbCircle
6
CONTINUOUS
62
5
10
66.600000
20
-189.999986
40
43.900000
100
AcDbArc
50
84.708919
51
87.687604
0
ARC
5
333
100
AcDbEntity
8
1
100
AcDbCircle
6
CONTINUOUS
62
5
10
70.450000
20
-148.427880
40
2.150000
100
AcDbArc
50
-95.291079
51
84.708919
0
ARC
5
334
100
AcDbEntity
8
1
100
AcDbCircle
6
CONTINUOUS
62
5
10
66.600000
20
-189.999986
40
39.600000
100
AcDbArc
50
84.708919
51
95.291079
0
ARC
5
335
100
AcDbEntity
8
1
100
AcDbCircle
6
CONTINUOUS
62
5
10
62.750000
20
-148.427880
40
2.150000
100
AcDbArc
50
95.291079
51
-84.708919
0
ARC
5
336
100
AcDbEntity
8
1
100
AcDbCircle
6
CONTINUOUS
62
5
10
66.600000
20
-189.999986
40
44.200000
100
AcDbArc
50
91.801760
51
95.291079
0
ARC
5
337
100
AcDbEntity
8
1
100
AcDbCircle
6
CONTINUOUS
62
5
10
66.600000
20
-189.999986
40
44.200000
100
AcDbArc
50
84.708919
51
88.198238
0
LINE
5
338
100
AcDbEntity
8
1
100
AcDbLine
6
CONTINUOUS
62
5
10
70.675928
20
-145.988319
11
70.675928
21
-145.988319
0
ARC
5
339
100
AcDbEntity
8
1
100
AcDbCircle
6
CONTINUOUS
62
5
10
70.450000
20
-148.427880
40
2.450000
100
AcDbArc
50
-95.291079
51
84.708919
0
LINE
5
33a
100
AcDbEntity
8
1
100
AcDbLine
6
CONTINUOUS
62
5
10
70.224072
20
-150.867441
11
70.224072
21
-150.867441
0
ARC
5
33b
100
AcDbEntity
8
1
100
AcDbCircle
6
CONTINUOUS
62
5
10
66.600000
20
-189.999986
40
39.300000
100
AcDbArc
50
84.708919
51
95.291079
0
LINE
5
33c
100
AcDbEntity
8
1
100
AcDbLine
6
CONTINUOUS
62
5
10
62.975928
20
-150.867441
11
62.975928
21
-150.867441
0
ARC
5
33d
100
AcDbEntity
8
1
100
AcDbCircle
6
CONTINUOUS
62
5
10
62.750000
20
-148.427880
40
2.450000
100
AcDbArc
50
95.291079
51
-84.708919
0
LINE
5
33e
100
AcDbEntity
8
1
100
AcDbLine
6
CONTINUOUS
62
5
10
62.524072
20
-145.988319
11
62.524072
21
-145.988319
0
ARC
5
33f
100
AcDbEntity
8
1
100
AcDbCircle
6
CONTINUOUS
62
5
10
62.750000
20
-148.427880
40
4.500000
100
AcDbArc
50
95.291079
51
-84.708919
0
LINE
5
340
100
AcDbEntity
8
1
100
AcDbLine
6
CONTINUOUS
62
5
10
62.335030
20
-143.947054
11
62.335030
21
-143.947054
0
ARC
5
341
100
AcDbEntity
8
1
100
AcDbCircle
6
CONTINUOUS
62
5
10
66.600000
20
-189.999986
40
46.250000
100
AcDbArc
50
84.708919
51
95.291079
0
LINE
5
342
100
AcDbEntity
8
1
100
AcDbLine
6
CONTINUOUS
62
5
10
70.864970
20
-143.947054
11
70.864970
21
-143.947054
0
ARC
5
343
100
AcDbEntity
8
1
100
AcDbCircle
6
CONTINUOUS
62
5
10
70.450000
20
-148.427880
40
4.500000
100
AcDbArc
50
-95.291079
51
84.708919
0
LINE
5
344
100
AcDbEntity
8
1
100
AcDbLine
6
CONTINUOUS
62
5
10
70.035030
20
-152.908706
11
70.035030
21
-152.908706
0
ARC
5
345
100
AcDbEntity
8
1
100
AcDbCircle
6
CONTINUOUS
62
5
10
66.600000
20
-189.999986
40
37.250000
100
AcDbArc
50
84.708919
51
95.291079
0
LINE
5
346
100
AcDbEntity
8
1
100
AcDbLine
6
CONTINUOUS
62
5
10
63.164970
20
-152.908706
11
63.164970
21
-152.908706
0
LINE
5
347
100
AcDbEntity
8
1
100
AcDbLine
6
CONTINUOUS
62
5
10
38.600000
20
-163.999974
11
38.100000
21
-163.999974
0
LINE
5
348
100
AcDbEntity
8
1
100
AcDbLine
6
CONTINUOUS
62
5
10
39.400000
20
-163.999974
11
39.900000
21
-163.999974
0
LINE
5
349
100
AcDbEntity
8
1
100
AcDbLine
6
CONTINUOUS
62
5
10
36.100000
20
-143.907424
11
36.100000
21
-106.999986
0
LINE
5
34a
100
AcDbEntity
8
1
100
AcDbLine
6
CONTINUOUS
62
5
10
143.100000
20
-143.907424
11
143.100000
21
-106.999986
0
POLYLINE
5
34b
100
AcDbEntity
8
1
6
CONTINUOUS
62
5
100
AcDb2dPolyline
66
1
10
0.0
20
0.0
30
0.0
70
0
0
VERTEX
5
34c
100
AcDbEntity
8
1
100
AcDbVertex
100
AcDb2dVertex
62
5
10
89.600000
20
-108.999986
0
VERTEX
5
34d
100
AcDbEntity
8
1
100
AcDbVertex
100
AcDb2dVertex
62
5
10
36.100000
20
-108.999986
0
VERTEX
5
34e
100
AcDbEntity
8
1
100
AcDbVertex
100
AcDb2dVertex
62
5
10
42.100000
20
-107.999986
0
VERTEX
5
34f
100
AcDbEntity
8
1
100
AcDbVertex
100
AcDb2dVertex
62
5
10
42.100000
20
-109.999986
0
VERTEX
5
350
100
AcDbEntity
8
1
100
AcDbVertex
100
AcDb2dVertex
62
5
10
36.100000
20
-108.999986
0
VERTEX
5
351
100
AcDbEntity
8
1
100
AcDbVertex
100
AcDb2dVertex
62
5
10
42.100000
20
-108.499986
0
VERTEX
5
352
100
AcDbEntity
8
1
100
AcDbVertex
100
AcDb2dVertex
62
5
10
42.100000
20
-109.499986
0
VERTEX
5
353
100
AcDbEntity
8
1
100
AcDbVertex
100
AcDb2dVertex
62
5
10
36.100000
20
-108.999986
0
SEQEND
5
354
100
AcDbEntity
8
1
0
POLYLINE
5
355
100
AcDbEntity
8
1
6
CONTINUOUS
62
5
100
AcDb2dPolyline
66
1
10
0.0
20
0.0
30
0.0
70
0
0
VERTEX
5
356
100
AcDbEntity
8
1
100
AcDbVertex
100
AcDb2dVertex
62
5
10
89.600000
20
-108.999986
0
VERTEX
5
357
100
AcDbEntity
8
1
100
AcDbVertex
100
AcDb2dVertex
62
5
10
143.100000
20
-108.999986
0
VERTEX
5
358
100
AcDbEntity
8
1
100
AcDbVertex
100
AcDb2dVertex
62
5
10
137.100000
20
-109.999986
0
VERTEX
5
359
100
AcDbEntity
8
1
100
AcDbVertex
100
AcDb2dVertex
62
5
10
137.100000
20
-107.999986
0
VERTEX
5
35a
100
AcDbEntity
8
1
100
AcDbVertex
100
AcDb2dVertex
62
5
10
143.100000
20
-108.999986
0
VERTEX
5
35b
100
AcDbEntity
8
1
100
AcDbVertex
100
AcDb2dVertex
62
5
10
137.100000
20
-109.499986
0
VERTEX
5
35c
100
AcDbEntity
8
1
100
AcDbVertex
100
AcDb2dVertex
62
5
10
137.100000
20
-108.499986
0
VERTEX
5
35d
100
AcDbEntity
8
1
100
AcDbVertex
100
AcDb2dVertex
62
5
10
143.100000
20
-108.999986
0
SEQEND
5
35e
100
AcDbEntity
8
1
0
ARC
5
35f
100
AcDbEntity
8
1
100
AcDbCircle
6
CONTINUOUS
62
5
10
108.750000
20
-148.427880
40
4.500000
100
AcDbArc
50
95.291079
51
-84.708919
0
LINE
5
360
100
AcDbEntity
8
1
100
AcDbLine
6
CONTINUOUS
62
5
10
108.335030
20
-143.947054
11
108.335030
21
-143.947054
0
ARC
5
361
100
AcDbEntity
8
1
100
AcDbCircle
6
CONTINUOUS
62
5
10
112.600000
20
-189.999986
40
46.250000
100
AcDbArc
50
84.708919
51
95.291079
0
LINE
5
362
100
AcDbEntity
8
1
100
AcDbLine
6
CONTINUOUS
62
5
10
116.864970
20
-143.947054
11
116.864970
21
-143.947054
0
ARC
5
363
100
AcDbEntity
8
1
100
AcDbCircle
6
CONTINUOUS
62
5
10
116.450000
20
-148.427880
40
4.500000
100
AcDbArc
50
-95.291079
51
84.708919
0
LINE
5
364
100
AcDbEntity
8
1
100
AcDbLine
6
CONTINUOUS
62
5
10
116.035030
20
-152.908706
11
116.035030
21
-152.908706
0
ARC
5
365
100
AcDbEntity
8
1
100
AcDbCircle
6
CONTINUOUS
62
5
10
112.600000
20
-189.999986
40
37.250000
100
AcDbArc
50
84.708919
51
95.291079
0
LINE
5
366
100
AcDbEntity
8
1
100
AcDbLine
6
CONTINUOUS
62
5
10
109.164970
20
-152.908706
11
109.164970
21
-152.908706
0
POLYLINE
5
367
100
AcDbEntity
8
1
6
CONTINUOUS
62
5
100
AcDb2dPolyline
66
1
10
0.0
20
0.0
30
0.0
70
0
0
VERTEX
5
368
100
AcDbEntity
8
1
100
AcDbVertex
100
AcDb2dVertex
62
5
10
-40.000000
20
-32.000000
0
VERTEX
5
369
100
AcDbEntity
8
1
100
AcDbVertex
100
AcDb2dVertex
62
5
10
280.000000
20
-32.000000
0
VERTEX
5
36a
100
AcDbEntity
8
1
100
AcDbVertex
100
AcDb2dVertex
62
5
10
120.000000
20
-32.000000
0
SEQEND
5
36b
100
AcDbEntity
8
1
0
LINE
5
36c
100
AcDbEntity
8
1
100
AcDbLine
6
CONTINUOUS
62
5
10
-40.000000
20
-32.000000
11
280.000000
21
-32.000000
0
LINE
5
36d
100
AcDbEntity
8
1
100
AcDbLine
6
CONTINUOUS
62
5
10
-40.000000
20
-32.000000
11
280.000000
21
-32.000000
0
ARC
5
36e
100
AcDbEntity
8
1
100
AcDbCircle
6
CONTINUOUS
62
5
10
204.500000
20
-181.299986
40
0.700000
100
AcDbArc
50
-89.999999
51
0.000000
0
LINE
5
36f
100
AcDbEntity
8
1
100
AcDbLine
6
CONTINUOUS
62
5
10
205.200000
20
-181.299986
11
205.200000
21
-181.189623
0
ARC
5
370
100
AcDbEntity
8
1
100
AcDbCircle
6
CONTINUOUS
62
5
10
204.500000
20
-181.189623
40
0.700000
100
AcDbArc
50
-0.000000
51
89.144902
0
LINE
5
371
100
AcDbEntity
8
1
100
AcDbLine
6
CONTINUOUS
62
5
10
204.510447
20
-180.489701
11
203.900000
21
-180.477605
0
LINE
5
372
100
AcDbEntity
8
1
100
AcDbLine
6
CONTINUOUS
62
5
10
203.900000
20
-181.999986
11
204.500000
21
-181.999986
0
ARC
5
373
100
AcDbEntity
8
1
100
AcDbCircle
6
CONTINUOUS
62
5
10
204.500000
20
-175.699986
40
0.700000
100
AcDbArc
50
0.000000
51
89.999998
0
LINE
5
374
100
AcDbEntity
8
1
100
AcDbLine
6
CONTINUOUS
62
5
10
205.200000
20
-175.699986
11
205.200000
21
-175.810356
0
ARC
5
375
100
AcDbEntity
8
1
100
AcDbCircle
6
CONTINUOUS
62
5
10
204.500000
20
-175.810356
40
0.700000
100
AcDbArc
50
-89.144902
51
0.000001
0
LINE
5
376
100
AcDbEntity
8
1
100
AcDbLine
6
CONTINUOUS
62
5
10
204.510447
20
-176.510278
11
203.900000
21
-176.522374
0
LINE
5
377
100
AcDbEntity
8
1
100
AcDbLine
6
CONTINUOUS
62
5
10
203.900000
20
-174.999986
11
204.500000
21
-174.999986
0
LINE
5
378
100
AcDbEntity
8
1
100
AcDbLine
6
CONTINUOUS
62
5
10
205.200000
20
-181.300147
11
205.200000
21
-189.999986
0
ARC
5
379
100
AcDbEntity
8
1
100
AcDbCircle
6
CONTINUOUS
62
5
10
204.500000
20
-198.699986
40
0.700000
100
AcDbArc
50
-0.000000
51
89.999999
0
LINE
5
37a
100
AcDbEntity
8
1
100
AcDbLine
6
CONTINUOUS
62
5
10
205.200000
20
-198.699986
11
205.200000
21
-198.810349
0
ARC
5
37b
100
AcDbEntity
8
1
100
AcDbCircle
6
CONTINUOUS
62
5
10
204.500000
20
-198.810349
40
0.700000
100
AcDbArc
50
-89.144902
51
0.000000
0
LINE
5
37c
100
AcDbEntity
8
1
100
AcDbLine
6
CONTINUOUS
62
5
10
204.510447
20
-199.510271
11
203.900000
21
-199.522368
0
LINE
5
37d
100
AcDbEntity
8
1
100
AcDbLine
6
CONTINUOUS
62
5
10
203.900000
20
-197.999986
11
204.500000
21
-197.999986
0
ARC
5
37e
100
AcDbEntity
8
1
100
AcDbCircle
6
CONTINUOUS
62
5
10
204.500000
20
-204.299986
40
0.700000
100
AcDbArc
50
-89.999998
51
-0.000000
0
LINE
5
37f
100
AcDbEntity
8
1
100
AcDbLine
6
CONTINUOUS
62
5
10
205.200000
20
-204.299986
11
205.200000
21
-204.189616
0
ARC
5
380
100
AcDbEntity
8
1
100
AcDbCircle
6
CONTINUOUS
62
5
10
204.500000
20
-204.189616
40
0.700000
100
AcDbArc
50
-0.000001
51
89.144902
0
LINE
5
381
100
AcDbEntity
8
1
100
AcDbLine
6
CONTINUOUS
62
5
10
204.510447
20
-203.489694
11
203.900000
21
-203.477598
0
LINE
5
382
100
AcDbEntity
8
1
100
AcDbLine
6
CONTINUOUS
62
5
10
203.900000
20
-204.999986
11
204.500000
21
-204.999986
0
LINE
5
383
100
AcDbEntity
8
1
100
AcDbLine
6
CONTINUOUS
62
5
10
205.200000
20
-198.699825
11
205.200000
21
-189.999986
0
ARC
5
384
100
AcDbEntity
8
1
100
AcDbCircle
6
CONTINUOUS
62
5
10
204.500000
20
-221.199986
40
0.700000
100
AcDbArc
50
0.000000
51
89.999999
0
LINE
5
385
100
AcDbEntity
8
1
100
AcDbLine
6
CONTINUOUS
62
5
10
205.200000
20
-221.199986
11
205.200000
21
-221.513247
0
ARC
5
386
100
AcDbEntity
8
1
100
AcDbCircle
6
CONTINUOUS
62
5
10
204.200000
20
-221.513247
40
1.000000
100
AcDbArc
50
-89.236101
51
0.000000
0
LINE
5
387
100
AcDbEntity
8
1
100
AcDbLine
6
CONTINUOUS
62
5
10
204.213332
20
-222.513158
11
203.900000
21
-222.520002
0
LINE
5
388
100
AcDbEntity
8
1
100
AcDbLine
6
CONTINUOUS
62
5
10
203.900000
20
-220.499986
11
204.500000
21
-220.499986
0
LINE
5
389
100
AcDbEntity
8
1
100
AcDbLine
6
CONTINUOUS
62
5
10
203.900000
20
-227.199978
11
205.400000
21
-225.659965
0
POLYLINE
5
38a
100
AcDbEntity
8
1
6
CONTINUOUS
62
5
100
AcDb2dPolyline
66
1
10
0.0
20
0.0
30
0.0
70
1
0
VERTEX
5
38b
100
AcDbEntity
8
1
100
AcDbVertex
100
AcDb2dVertex
62
5
10
202.900000
20
-245.999986
0
VERTEX
5
38c
100
AcDbEntity
8
1
100
AcDbVertex
100
AcDb2dVertex
62
5
10
202.900000
20
-237.499986
0
SEQEND
5
38d
100
AcDbEntity
8
1
0
LINE
5
38e
100
AcDbEntity
8
1
100
AcDbLine
6
CONTINUOUS
62
5
10
205.200000
20
-204.300138
11
205.200000
21
-221.199986
0
ARC
5
38f
100
AcDbEntity
8
1
100
AcDbCircle
6
CONTINUOUS
62
5
10
135.150000
20
-175.499986
40
0.500000
100
AcDbArc
50
-0.000000
51
89.999999
0
LINE
5
390
100
AcDbEntity
8
1
100
AcDbLine
6
CONTINUOUS
62
5
10
135.150000
20
-174.999986
11
134.699965
21
-174.999986
0
LINE
5
391
100
AcDbEntity
8
1
100
AcDbLine
6
CONTINUOUS
62
5
10
135.650000
20
-176.498422
11
135.650000
21
-175.499986
0
ARC
5
392
100
AcDbEntity
8
1
100
AcDbCircle
6
CONTINUOUS
62
5
10
135.150000
20
-181.499986
40
0.500000
100
AcDbArc
50
-89.999999
51
0.000000
0
LINE
5
393
100
AcDbEntity
8
1
100
AcDbLine
6
CONTINUOUS
62
5
10
135.150000
20
-181.999986
11
134.699965
21
-181.999986
0
LINE
5
394
100
AcDbEntity
8
1
100
AcDbLine
6
CONTINUOUS
62
5
10
135.650000
20
-180.501550
11
135.650000
21
-181.499986
0
POLYLINE
5
395
100
AcDbEntity
8
1
6
CONTINUOUS
62
5
100
AcDb2dPolyline
66
1
10
0.0
20
0.0
30
0.0
70
0
0
VERTEX
5
396
100
AcDbEntity
8
1
100
AcDbVertex
100
AcDb2dVertex
62
5
10
129.900000
20
-176.199986
0
VERTEX
5
397
100
AcDbEntity
8
1
100
AcDbVertex
100
AcDb2dVertex
62
5
10
129.600000
20
-175.899986
0
VERTEX
5
398
100
AcDbEntity
8
1
100
AcDbVertex
100
AcDb2dVertex
62
5
10
129.500000
20
-175.799986
0
SEQEND
5
399
100
AcDbEntity
8
1
0
POLYLINE
5
39a
100
AcDbEntity
8
1
6
CONTINUOUS
62
5
100
AcDb2dPolyline
66
1
10
0.0
20
0.0
30
0.0
70
0
0
VERTEX
5
39b
100
AcDbEntity
8
1
100
AcDbVertex
100
AcDb2dVertex
62
5
10
129.400000
20
-180.799986
0
VERTEX
5
39c
100
AcDbEntity
8
1
100
AcDbVertex
100
AcDb2dVertex
62
5
10
129.100000
20
-181.099986
0
VERTEX
5
39d
100
AcDbEntity
8
1
100
AcDbVertex
100
AcDb2dVertex
62
5
10
129.000000
20
-181.199986
0
SEQEND
5
39e
100
AcDbEntity
8
1
0
ARC
5
39f
100
AcDbEntity
8
1
100
AcDbCircle
6
CONTINUOUS
62
5
10
133.750000
20
-175.498201
40
0.500000
100
AcDbArc
50
0.000000
51
85.156528
0
LINE
5
3a0
100
AcDbEntity
8
1
100
AcDbLine
6
CONTINUOUS
62
5
10
134.250000
20
-176.499986
11
134.250000
21
-175.498201
0
ARC
5
3a1
100
AcDbEntity
8
1
100
AcDbCircle
6
CONTINUOUS
62
5
10
133.750000
20
-181.501772
40
0.500000
100
AcDbArc
50
-85.156528
51
-0.000000
0
LINE
5
3a2
100
AcDbEntity
8
1
100
AcDbLine
6
CONTINUOUS
62
5
10
134.250000
20
-180.499986
11
134.250000
21
-181.501772
0
LINE
5
3a3
100
AcDbEntity
8
1
100
AcDbLine
6
CONTINUOUS
62
5
10
132.300000
20
-172.499986
11
132.200000
21
-172.499986
0
LINE
5
3a4
100
AcDbEntity
8
1
100
AcDbLine
6
CONTINUOUS
62
5
10
132.200000
20
-184.499986
11
132.300000
21
-184.499986
0
ARC
5
3a5
100
AcDbEntity
8
1
100
AcDbCircle
6
CONTINUOUS
62
5
10
133.100000
20
-185.799986
40
0.300000
100
AcDbArc
50
89.999999
51
179.999998
0
LINE
5
3a6
100
AcDbEntity
8
1
100
AcDbLine
6
CONTINUOUS
62
5
10
132.800000
20
-185.799986
11
132.800000
21
-187.199986
0
ARC
5
3a7
100
AcDbEntity
8
1
100
AcDbCircle
6
CONTINUOUS
62
5
10
133.100000
20
-187.199986
40
0.300000
100
AcDbArc
50
-179.999998
51
-89.999999
0
LINE
5
3a8
100
AcDbEntity
8
1
100
AcDbLine
6
CONTINUOUS
62
5
10
133.100000
20
-187.499986
11
133.599965
21
-187.499986
0
LINE
5
3a9
100
AcDbEntity
8
1
100
AcDbLine
6
CONTINUOUS
62
5
10
133.599965
20
-185.499986
11
133.100000
21
-185.499986
0
ARC
5
3aa
100
AcDbEntity
8
1
100
AcDbCircle
6
CONTINUOUS
62
5
10
133.300000
20
-185.799986
40
0.300000
100
AcDbArc
50
89.999999
51
179.999998
0
LINE
5
3ab
100
AcDbEntity
8
1
100
AcDbLine
6
CONTINUOUS
62
5
10
133.000000
20
-185.799986
11
133.000000
21
-187.199986
0
ARC
5
3ac
100
AcDbEntity
8
1
100
AcDbCircle
6
CONTINUOUS
62
5
10
133.300000
20
-187.199986
40
0.300000
100
AcDbArc
50
-179.999998
51
-89.999999
0
LINE
5
3ad
100
AcDbEntity
8
1
100
AcDbLine
6
CONTINUOUS
62
5
10
140.600000
20
-209.999998
11
141.100000
21
-209.999998
0
ARC
5
3ae
100
AcDbEntity
8
1
100
AcDbCircle
6
CONTINUOUS
62
5
10
133.100000
20
-192.799986
40
0.300000
100
AcDbArc
50
89.999999
51
179.999998
0
LINE
5
3af
100
AcDbEntity
8
1
100
AcDbLine
6
CONTINUOUS
62
5
10
132.800000
20
-192.799986
11
132.800000
21
-194.199986
0
ARC
5
3b0
100
AcDbEntity
8
1
100
AcDbCircle
6
CONTINUOUS
62
5
10
133.100000
20
-194.199986
40
0.300000
100
AcDbArc
50
179.999998
51
-89.999999
0
LINE
5
3b1
100
AcDbEntity
8
1
100
AcDbLine
6
CONTINUOUS
62
5
10
133.100000
20
-194.499986
11
133.599965
21
-194.499986
0
LINE
5
3b2
100
AcDbEntity
8
1
100
AcDbLine
6
CONTINUOUS
62
5
10
133.599965
20
-192.499986
11
133.100000
21
-192.499986
0
ARC
5
3b3
100
AcDbEntity
8
1
100
AcDbCircle
6
CONTINUOUS
62
5
10
133.300000
20
-192.799986
40
0.300000
100
AcDbArc
50
89.999999
51
-179.999998
0
LINE
5
3b4
100
AcDbEntity
8
1
100
AcDbLine
6
CONTINUOUS
62
5
10
133.000000
20
-192.799986
11
133.000000
21
-194.199986
0
ARC
5
3b5
100
AcDbEntity
8
1
100
AcDbCircle
6
CONTINUOUS
62
5
10
133.300000
20
-194.199986
40
0.300000
100
AcDbArc
50
-179.999998
51
-89.999999
0
ARC
5
3b6
100
AcDbEntity
8
1
100
AcDbCircle
6
CONTINUOUS
62
5
10
135.150000
20
-198.499986
40
0.500000
100
AcDbArc
50
-0.000000
51
89.999999
0
LINE
5
3b7
100
AcDbEntity
8
1
100
AcDbLine
6
CONTINUOUS
62
5
10
135.150000
20
-197.999986
11
134.699965
21
-197.999986
0
LINE
5
3b8
100
AcDbEntity
8
1
100
AcDbLine
6
CONTINUOUS
62
5
10
135.650000
20
-199.499986
11
135.650000
21
-198.499986
0
LINE
5
3b9
100
AcDbEntity
8
1
100
AcDbLine
6
CONTINUOUS
62
5
10
132.200000
20
-195.499986
11
132.300000
21
-195.499986
0
POLYLINE
5
3ba
100
AcDbEntity
8
1
6
CONTINUOUS
62
5
100
AcDb2dPolyline
66
1
10
0.0
20
0.0
30
0.0
70
0
0
VERTEX
5
3bb
100
AcDbEntity
8
1
100
AcDbVertex
100
AcDb2dVertex
62
5
10
129.400000
20
-199.199986
0
VERTEX
5
3bc
100
AcDbEntity
8
1
100
AcDbVertex
100
AcDb2dVertex
62
5
10
129.100000
20
-198.899986
0
VERTEX
5
3bd
100
AcDbEntity
8
1
100
AcDbVertex
100
AcDb2dVertex
62
5
10
129.000000
20
-198.799986
0
SEQEND
5
3be
100
AcDbEntity
8
1
0
POLYLINE
5
3bf
100
AcDbEntity
8
1
6
CONTINUOUS
62
5
100
AcDb2dPolyline
66
1
10
0.0
20
0.0
30
0.0
70
0
0
VERTEX
5
3c0
100
AcDbEntity
8
1
100
AcDbVertex
100
AcDb2dVertex
62
5
10
129.900000
20
-203.799986
0
VERTEX
5
3c1
100
AcDbEntity
8
1
100
AcDbVertex
100
AcDb2dVertex
62
5
10
129.600000
20
-204.099986
0
VERTEX
5
3c2
100
AcDbEntity
8
1
100
AcDbVertex
100
AcDb2dVertex
62
5
10
129.500000
20
-204.199986
0
SEQEND
5
3c3
100
AcDbEntity
8
1
0
ARC
5
3c4
100
AcDbEntity
8
1
100
AcDbCircle
6
CONTINUOUS
62
5
10
133.750000
20
-198.498201
40
0.500000
100
AcDbArc
50
0.000000
51
85.156528
0
POLYLINE
5
3c5
100
AcDbEntity
8
1
6
CONTINUOUS
62
5
100
AcDb2dPolyline
66
1
10
0.0
20
0.0
30
0.0
70
0
0
VERTEX
5
3c6
100
AcDbEntity
8
1
100
AcDbVertex
100
AcDb2dVertex
62
5
10
134.250000
20
-199.499986
0
VERTEX
5
3c7
100
AcDbEntity
8
1
100
AcDbVertex
100
AcDb2dVertex
62
5
10
134.250000
20
-199.499986
0
VERTEX
5
3c8
100
AcDbEntity
8
1
100
AcDbVertex
100
AcDb2dVertex
62
5
10
134.250000
20
-198.498201
0
SEQEND
5
3c9
100
AcDbEntity
8
1
0
LINE
5
3ca
100
AcDbEntity
8
1
100
AcDbLine
6
CONTINUOUS
62
5
10
132.200000
20
-207.499986
11
132.300000
21
-207.499986
0
ARC
5
3cb
100
AcDbEntity
8
1
100
AcDbCircle
6
CONTINUOUS
62
5
10
133.100000
20
-208.799986
40
0.300000
100
AcDbArc
50
89.999999
51
179.999998
0
LINE
5
3cc
100
AcDbEntity
8
1
100
AcDbLine
6
CONTINUOUS
62
5
10
132.800000
20
-208.799986
11
132.800000
21
-210.199986
0
ARC
5
3cd
100
AcDbEntity
8
1
100
AcDbCircle
6
CONTINUOUS
62
5
10
133.100000
20
-210.199986
40
0.300000
100
AcDbArc
50
-179.999998
51
-89.999999
0
LINE
5
3ce
100
AcDbEntity
8
1
100
AcDbLine
6
CONTINUOUS
62
5
10
133.100000
20
-210.499986
11
133.599965
21
-210.499986
0
LINE
5
3cf
100
AcDbEntity
8
1
100
AcDbLine
6
CONTINUOUS
62
5
10
133.599965
20
-208.499986
11
133.100000
21
-208.499986
0
ARC
5
3d0
100
AcDbEntity
8
1
100
AcDbCircle
6
CONTINUOUS
62
5
10
133.300000
20
-208.799986
40
0.300000
100
AcDbArc
50
89.999999
51
179.999998
0
LINE
5
3d1
100
AcDbEntity
8
1
100
AcDbLine
6
CONTINUOUS
62
5
10
133.000000
20
-208.799986
11
133.000000
21
-210.199986
0
ARC
5
3d2
100
AcDbEntity
8
1
100
AcDbCircle
6
CONTINUOUS
62
5
10
133.300000
20
-210.199986
40
0.300000
100
AcDbArc
50
-179.999998
51
-89.999999
0
ARC
5
3d3
100
AcDbEntity
8
1
100
AcDbCircle
6
CONTINUOUS
62
5
10
135.150000
20
-204.499986
40
0.500000
100
AcDbArc
50
-89.999999
51
0.000000
0
LINE
5
3d4
100
AcDbEntity
8
1
100
AcDbLine
6
CONTINUOUS
62
5
10
135.150000
20
-204.999986
11
134.699965
21
-204.999986
0
LINE
5
3d5
100
AcDbEntity
8
1
100
AcDbLine
6
CONTINUOUS
62
5
10
135.650000
20
-203.501557
11
135.650000
21
-204.499986
0
ARC
5
3d6
100
AcDbEntity
8
1
100
AcDbCircle
6
CONTINUOUS
62
5
10
133.750000
20
-204.501772
40
0.500000
100
AcDbArc
50
-85.156528
51
-0.000000
0
LINE
5
3d7
100
AcDbEntity
8
1
100
AcDbLine
6
CONTINUOUS
62
5
10
134.250000
20
-203.499993
11
134.250000
21
-204.501772
0
LINE
5
3d8
100
AcDbEntity
8
1
100
AcDbLine
6
CONTINUOUS
62
5
10
139.800000
20
-209.999998
11
139.300000
21
-209.999998
0
ARC
5
3d9
100
AcDbEntity
8
1
100
AcDbCircle
6
CONTINUOUS
62
5
10
134.099965
20
-185.049986
40
0.300000
100
AcDbArc
50
89.999999
51
179.999998
0
LINE
5
3da
100
AcDbEntity
8
1
100
AcDbLine
6
CONTINUOUS
62
5
10
134.099965
20
-184.749986
11
134.699965
21
-184.749986
0
ARC
5
3db
100
AcDbEntity
8
1
100
AcDbCircle
6
CONTINUOUS
62
5
10
134.699965
20
-185.049986
40
0.300000
100
AcDbArc
50
0.000000
51
89.999999
0
LINE
5
3dc
100
AcDbEntity
8
1
100
AcDbLine
6
CONTINUOUS
62
5
10
134.999965
20
-185.049986
11
134.999965
21
-194.949986
0
ARC
5
3dd
100
AcDbEntity
8
1
100
AcDbCircle
6
CONTINUOUS
62
5
10
134.699965
20
-194.949986
40
0.300000
100
AcDbArc
50
-89.999999
51
0.000000
0
LINE
5
3de
100
AcDbEntity
8
1
100
AcDbLine
6
CONTINUOUS
62
5
10
134.699965
20
-195.249986
11
134.099965
21
-195.249986
0
ARC
5
3df
100
AcDbEntity
8
1
100
AcDbCircle
6
CONTINUOUS
62
5
10
134.099965
20
-194.949986
40
0.300000
100
AcDbArc
50
-179.999998
51
-89.999999
0
LINE
5
3e0
100
AcDbEntity
8
1
100
AcDbLine
6
CONTINUOUS
62
5
10
133.799965
20
-194.949986
11
133.799965
21
-185.049986
0
LINE
5
3e1
100
AcDbEntity
8
1
100
AcDbLine
6
CONTINUOUS
62
5
10
135.650000
20
-181.499986
11
135.650000
21
-198.499986
0
ARC
5
3e2
100
AcDbEntity
8
1
100
AcDbCircle
6
CONTINUOUS
62
5
10
134.699965
20
-197.699986
40
0.300000
100
AcDbArc
50
-89.999999
51
0.000000
0
POLYLINE
5
3e3
100
AcDbEntity
8
1
6
CONTINUOUS
62
5
100
AcDb2dPolyline
66
1
10
0.0
20
0.0
30
0.0
70
0
0
VERTEX
5
3e4
100
AcDbEntity
8
1
100
AcDbVertex
100
AcDb2dVertex
62
5
10
134.699965
20
-197.999986
0
VERTEX
5
3e5
100
AcDbEntity
8
1
100
AcDbVertex
100
AcDb2dVertex
62
5
10
133.599965
20
-197.999986
0
VERTEX
5
3e6
100
AcDbEntity
8
1
100
AcDbVertex
100
AcDb2dVertex
62
5
10
133.599965
20
-181.999986
0
VERTEX
5
3e7
100
AcDbEntity
8
1
100
AcDbVertex
100
AcDb2dVertex
62
5
10
134.699965
20
-181.999986
0
SEQEND
5
3e8
100
AcDbEntity
8
1
0
ARC
5
3e9
100
AcDbEntity
8
1
100
AcDbCircle
6
CONTINUOUS
62
5
10
134.699965
20
-182.299986
40
0.300000
100
AcDbArc
50
-0.000000
51
89.999999
0
LINE
5
3ea
100
AcDbEntity
8
1
100
AcDbLine
6
CONTINUOUS
62
5
10
134.999965
20
-182.299986
11
134.999965
21
-197.699986
0
ARC
5
3eb
100
AcDbEntity
8
1
100
AcDbCircle
6
CONTINUOUS
62
5
10
132.300000
20
-195.999986
40
0.500000
100
AcDbArc
50
0.000000
51
89.999999
0
LINE
5
3ec
100
AcDbEntity
8
1
100
AcDbLine
6
CONTINUOUS
62
5
10
132.800000
20
-195.999986
11
132.800000
21
-198.499986
0
ARC
5
3ed
100
AcDbEntity
8
1
100
AcDbCircle
6
CONTINUOUS
62
5
10
133.800000
20
-198.499986
40
1.000000
100
AcDbArc
50
179.999998
51
-89.999999
0
LINE
5
3ee
100
AcDbEntity
8
1
100
AcDbLine
6
CONTINUOUS
62
5
10
133.800000
20
-199.499986
11
135.700000
21
-199.499986
0
ARC
5
3ef
100
AcDbEntity
8
1
100
AcDbCircle
6
CONTINUOUS
62
5
10
135.700000
20
-198.499986
40
1.000000
100
AcDbArc
50
-89.999999
51
0.000000
0
LINE
5
3f0
100
AcDbEntity
8
1
100
AcDbLine
6
CONTINUOUS
62
5
10
136.700000
20
-198.499986
11
136.700000
21
-181.499986
0
ARC
5
3f1
100
AcDbEntity
8
1
100
AcDbCircle
6
CONTINUOUS
62
5
10
135.700000
20
-181.499986
40
1.000000
100
AcDbArc
50
0.000000
51
89.999999
0
POLYLINE
5
3f2
100
AcDbEntity
8
1
6
CONTINUOUS
62
5
100
AcDb2dPolyline
66
1
10
0.0
20
0.0
30
0.0
70
0
0
VERTEX
5
3f3
100
AcDbEntity
8
1
100
AcDbVertex
100
AcDb2dVertex
62
5
10
135.700000
20
-180.499986
0
VERTEX
5
3f4
100
AcDbEntity
8
1
100
AcDbVertex
100
AcDb2dVertex
62
5
10
135.650000
20
-180.499986
0
VERTEX
5
3f5
100
AcDbEntity
8
1
100
AcDbVertex
100
AcDb2dVertex
62
5
10
133.800000
20
-180.499986
0
SEQEND
5
3f6
100
AcDbEntity
8
1
0
ARC
5
3f7
100
AcDbEntity
8
1
100
AcDbCircle
6
CONTINUOUS
62
5
10
133.800000
20
-181.499986
40
1.000000
100
AcDbArc
50
89.999999
51
179.999998
0
POLYLINE
5
3f8
100
AcDbEntity
8
1
6
CONTINUOUS
62
5
100
AcDb2dPolyline
66
1
10
0.0
20
0.0
30
0.0
70
0
0
VERTEX
5
3f9
100
AcDbEntity
8
1
100
AcDbVertex
100
AcDb2dVertex
62
5
10
132.800000
20
-181.499986
0
VERTEX
5
3fa
100
AcDbEntity
8
1
100
AcDbVertex
100
AcDb2dVertex
62
5
10
132.800000
20
-181.499986
0
VERTEX
5
3fb
100
AcDbEntity
8
1
100
AcDbVertex
100
AcDb2dVertex
62
5
10
132.800000
20
-183.999986
0
SEQEND
5
3fc
100
AcDbEntity
8
1
0
ARC
5
3fd
100
AcDbEntity
8
1
100
AcDbCircle
6
CONTINUOUS
62
5
10
132.300000
20
-183.999986
40
0.500000
100
AcDbArc
50
-89.999999
51
0.000000
0
POLYLINE
5
3fe
100
AcDbEntity
8
1
6
CONTINUOUS
62
5
100
AcDb2dPolyline
66
1
10
0.0
20
0.0
30
0.0
70
0
0
VERTEX
5
3ff
100
AcDbEntity
8
1
100
AcDbVertex
100
AcDb2dVertex
62
5
10
132.300000
20
-184.499986
0
VERTEX
5
400
100
AcDbEntity
8
1
100
AcDbVertex
100
AcDb2dVertex
62
5
10
132.300000
20
-184.499986
0
VERTEX
5
401
100
AcDbEntity
8
1
100
AcDbVertex
100
AcDb2dVertex
62
5
10
132.300000
20
-195.499986
0
VERTEX
5
402
100
AcDbEntity
8
1
100
AcDbVertex
100
AcDb2dVertex
62
5
10
132.300000
20
-195.499986
0
SEQEND
5
403
100
AcDbEntity
8
1
0
ARC
5
404
100
AcDbEntity
8
1
100
AcDbCircle
6
CONTINUOUS
62
5
10
132.200000
20
-183.999986
40
0.500000
100
AcDbArc
50
-89.999999
51
0.000000
0
POLYLINE
5
405
100
AcDbEntity
8
1
6
CONTINUOUS
62
5
100
AcDb2dPolyline
66
1
10
0.0
20
0.0
30
0.0
70
0
0
VERTEX
5
406
100
AcDbEntity
8
1
100
AcDbVertex
100
AcDb2dVertex
62
5
10
132.200000
20
-184.499986
0
VERTEX
5
407
100
AcDbEntity
8
1
100
AcDbVertex
100
AcDb2dVertex
62
5
10
132.200000
20
-184.499986
0
VERTEX
5
408
100
AcDbEntity
8
1
100
AcDbVertex
100
AcDb2dVertex
62
5
10
132.200000
20
-184.599986
0
VERTEX
5
409
100
AcDbEntity
8
1
100
AcDbVertex
100
AcDb2dVertex
62
5
10
132.200000
20
-195.499986
0
VERTEX
5
40a
100
AcDbEntity
8
1
100
AcDbVertex
100
AcDb2dVertex
62
5
10
132.200000
20
-195.499986
0
SEQEND
5
40b
100
AcDbEntity
8
1
0
ARC
5
40c
100
AcDbEntity
8
1
100
AcDbCircle
6
CONTINUOUS
62
5
10
132.200000
20
-195.999986
40
0.500000
100
AcDbArc
50
0.000000
51
89.999999
0
LINE
5
40d
100
AcDbEntity
8
1
100
AcDbLine
6
CONTINUOUS
62
5
10
132.700000
20
-195.999986
11
132.700000
21
-198.599986
0
ARC
5
40e
100
AcDbEntity
8
1
100
AcDbCircle
6
CONTINUOUS
62
5
10
133.700000
20
-198.599986
40
1.000000
100
AcDbArc
50
179.999998
51
-89.999999
0
LINE
5
40f
100
AcDbEntity
8
1
100
AcDbLine
6
CONTINUOUS
62
5
10
133.700000
20
-199.599986
11
135.800000
21
-199.599986
0
ARC
5
410
100
AcDbEntity
8
1
100
AcDbCircle
6
CONTINUOUS
62
5
10
135.800000
20
-198.599986
40
1.000000
100
AcDbArc
50
-89.999999
51
0.000000
0
LINE
5
411
100
AcDbEntity
8
1
100
AcDbLine
6
CONTINUOUS
62
5
10
136.800000
20
-198.599986
11
136.800000
21
-181.399986
0
ARC
5
412
100
AcDbEntity
8
1
100
AcDbCircle
6
CONTINUOUS
62
5
10
135.800000
20
-181.399986
40
1.000000
100
AcDbArc
50
0.000000
51
89.999999
0
POLYLINE
5
413
100
AcDbEntity
8
1
6
CONTINUOUS
62
5
100
AcDb2dPolyline
66
1
10
0.0
20
0.0
30
0.0
70
0
0
VERTEX
5
414
100
AcDbEntity
8
1
100
AcDbVertex
100
AcDb2dVertex
62
5
10
135.800000
20
-180.399986
0
VERTEX
5
415
100
AcDbEntity
8
1
100
AcDbVertex
100
AcDb2dVertex
62
5
10
135.650000
20
-180.399986
0
VERTEX
5
416
100
AcDbEntity
8
1
100
AcDbVertex
100
AcDb2dVertex
62
5
10
133.700000
20
-180.399986
0
SEQEND
5
417
100
AcDbEntity
8
1
0
ARC
5
418
100
AcDbEntity
8
1
100
AcDbCircle
6
CONTINUOUS
62
5
10
133.700000
20
-181.399986
40
1.000000
100
AcDbArc
50
89.999999
51
179.999998
0
POLYLINE
5
419
100
AcDbEntity
8
1
6
CONTINUOUS
62
5
100
AcDb2dPolyline
66
1
10
0.0
20
0.0
30
0.0
70
0
0
VERTEX
5
41a
100
AcDbEntity
8
1
100
AcDbVertex
100
AcDb2dVertex
62
5
10
132.700000
20
-181.399986
0
VERTEX
5
41b
100
AcDbEntity
8
1
100
AcDbVertex
100
AcDb2dVertex
62
5
10
132.700000
20
-181.499986
0
VERTEX
5
41c
100
AcDbEntity
8
1
100
AcDbVertex
100
AcDb2dVertex
62
5
10
132.700000
20
-183.999986
0
SEQEND
5
41d
100
AcDbEntity
8
1
0
ARC
5
41e
100
AcDbEntity
8
1
100
AcDbCircle
6
CONTINUOUS
62
5
10
196.200000
20
-224.799986
40
0.300000
100
AcDbArc
50
89.999999
51
179.999998
0
LINE
5
41f
100
AcDbEntity
8
1
100
AcDbLine
6
CONTINUOUS
62
5
10
196.200000
20
-224.499986
11
198.100000
21
-224.499986
0
LINE
5
420
100
AcDbEntity
8
1
100
AcDbLine
6
CONTINUOUS
62
5
10
198.100000
20
-225.999986
11
196.200000
21
-225.999986
0
ARC
5
421
100
AcDbEntity
8
1
100
AcDbCircle
6
CONTINUOUS
62
5
10
196.200000
20
-225.699986
40
0.300000
100
AcDbArc
50
179.999998
51
-89.999999
0
LINE
5
422
100
AcDbEntity
8
1
100
AcDbLine
6
CONTINUOUS
62
5
10
195.900000
20
-225.699986
11
195.900000
21
-224.799986
0
LINE
5
423
100
AcDbEntity
8
1
100
AcDbLine
6
CONTINUOUS
62
5
10
140.600000
20
-215.999998
11
141.100000
21
-215.999998
0
ARC
5
424
100
AcDbEntity
8
1
100
AcDbCircle
6
CONTINUOUS
62
5
10
135.150000
20
-220.999986
40
0.500000
100
AcDbArc
50
-0.000000
51
89.999999
0
LINE
5
425
100
AcDbEntity
8
1
100
AcDbLine
6
CONTINUOUS
62
5
10
135.150000
20
-220.499986
11
134.699965
21
-220.499986
0
LINE
5
426
100
AcDbEntity
8
1
100
AcDbLine
6
CONTINUOUS
62
5
10
135.650000
20
-222.500002
11
135.650000
21
-220.999986
0
ARC
5
427
100
AcDbEntity
8
1
100
AcDbCircle
6
CONTINUOUS
62
5
10
133.100000
20
-215.799986
40
0.300000
100
AcDbArc
50
89.999999
51
-179.999998
0
LINE
5
428
100
AcDbEntity
8
1
100
AcDbLine
6
CONTINUOUS
62
5
10
132.800000
20
-215.799986
11
132.800000
21
-217.199986
0
ARC
5
429
100
AcDbEntity
8
1
100
AcDbCircle
6
CONTINUOUS
62
5
10
133.100000
20
-217.199986
40
0.300000
100
AcDbArc
50
179.999998
51
-89.999999
0
LINE
5
42a
100
AcDbEntity
8
1
100
AcDbLine
6
CONTINUOUS
62
5
10
133.100000
20
-217.499986
11
133.599965
21
-217.499986
0
LINE
5
42b
100
AcDbEntity
8
1
100
AcDbLine
6
CONTINUOUS
62
5
10
133.599965
20
-215.499986
11
133.100000
21
-215.499986
0
LINE
5
42c
100
AcDbEntity
8
1
100
AcDbLine
6
CONTINUOUS
62
5
10
132.200000
20
-218.499986
11
132.300000
21
-218.499986
0
LINE
5
42d
100
AcDbEntity
8
1
100
AcDbLine
6
CONTINUOUS
62
5
10
130.900000
20
-225.999986
11
130.800000
21
-226.099986
0
LINE
5
42e
100
AcDbEntity
8
1
100
AcDbLine
6
CONTINUOUS
62
5
10
126.800000
20
-225.999986
11
126.900000
21
-226.099986
0
POLYLINE
5
42f
100
AcDbEntity
8
1
6
CONTINUOUS
62
5
100
AcDb2dPolyline
66
1
10
0.0
20
0.0
30
0.0
70
0
0
VERTEX
5
430
100
AcDbEntity
8
1
100
AcDbVertex
100
AcDb2dVertex
62
5
10
129.900000
20
-222.199986
0
VERTEX
5
431
100
AcDbEntity
8
1
100
AcDbVertex
100
AcDb2dVertex
62
5
10
129.600000
20
-221.899986
0
VERTEX
5
432
100
AcDbEntity
8
1
100
AcDbVertex
100
AcDb2dVertex
62
5
10
129.500000
20
-221.799986
0
SEQEND
5
433
100
AcDbEntity
8
1
0
ARC
5
434
100
AcDbEntity
8
1
100
AcDbCircle
6
CONTINUOUS
62
5
10
133.300000
20
-217.199986
40
0.300000
100
AcDbArc
50
-179.999998
51
-89.999999
0
ARC
5
435
100
AcDbEntity
8
1
100
AcDbCircle
6
CONTINUOUS
62
5
10
133.300000
20
-215.799986
40
0.300000
100
AcDbArc
50
89.999999
51
179.999998
0
LINE
5
436
100
AcDbEntity
8
1
100
AcDbLine
6
CONTINUOUS
62
5
10
133.000000
20
-215.799986
11
133.000000
21
-217.199986
0
LINE
5
437
100
AcDbEntity
8
1
100
AcDbLine
6
CONTINUOUS
62
5
10
133.899965
20
-218.173593
11
133.899965
21
-220.499986
0
ARC
5
438
100
AcDbEntity
8
1
100
AcDbCircle
6
CONTINUOUS
62
5
10
134.100000
20
-220.649986
40
0.150000
100
AcDbArc
50
-0.000001
51
90.000001
0
LINE
5
439
100
AcDbEntity
8
1
100
AcDbLine
6
CONTINUOUS
62
5
10
134.250000
20
-222.500002
11
134.250000
21
-220.649986
0
LINE
5
43a
100
AcDbEntity
8
1
100
AcDbLine
6
CONTINUOUS
62
5
10
133.900011
20
-218.199986
11
133.944607
21
-218.155389
0
LINE
5
43b
100
AcDbEntity
8
1
100
AcDbLine
6
CONTINUOUS
62
5
10
130.800000
20
-232.099986
11
130.900000
21
-232.199986
0
LINE
5
43c
100
AcDbEntity
8
1
100
AcDbLine
6
CONTINUOUS
62
5
10
126.900000
20
-232.099986
11
126.800000
21
-232.199986
0
POLYLINE
5
43d
100
AcDbEntity
8
1
6
CONTINUOUS
62
5
100
AcDb2dPolyline
66
1
10
0.0
20
0.0
30
0.0
70
1
0
VERTEX
5
43e
100
AcDbEntity
8
1
100
AcDbVertex
100
AcDb2dVertex
62
5
10
126.900000
20
-232.099986
0
VERTEX
5
43f
100
AcDbEntity
8
1
100
AcDbVertex
100
AcDb2dVertex
62
5
10
130.800000
20
-232.099986
0
VERTEX
5
440
100
AcDbEntity
8
1
100
AcDbVertex
100
AcDb2dVertex
62
5
10
130.800000
20
-226.099986
0
VERTEX
5
441
100
AcDbEntity
8
1
100
AcDbVertex
100
AcDb2dVertex
62
5
10
126.900000
20
-226.099986
0
SEQEND
5
442
100
AcDbEntity
8
1
0
POLYLINE
5
443
100
AcDbEntity
8
1
6
CONTINUOUS
62
5
100
AcDb2dPolyline
66
1
10
0.0
20
0.0
30
0.0
70
1
0
VERTEX
5
444
100
AcDbEntity
8
1
100
AcDbVertex
100
AcDb2dVertex
62
5
10
130.900000
20
-225.999986
0
VERTEX
5
445
100
AcDbEntity
8
1
100
AcDbVertex
100
AcDb2dVertex
62
5
10
126.800000
20
-225.999986
0
VERTEX
5
446
100
AcDbEntity
8
1
100
AcDbVertex
100
AcDb2dVertex
62
5
10
126.800000
20
-232.199986
0
VERTEX
5
447
100
AcDbEntity
8
1
100
AcDbVertex
100
AcDb2dVertex
62
5
10
130.900000
20
-232.199986
0
VERTEX
5
448
100
AcDbEntity
8
1
100
AcDbVertex
100
AcDb2dVertex
62
5
10
130.900000
20
-225.999986
0
SEQEND
5
449
100
AcDbEntity
8
1
0
POLYLINE
5
44a
100
AcDbEntity
8
1
6
CONTINUOUS
62
5
100
AcDb2dPolyline
66
1
10
0.0
20
0.0
30
0.0
70
0
0
VERTEX
5
44b
100
AcDbEntity
8
1
100
AcDbVertex
100
AcDb2dVertex
62
5
10
128.400000
20
-226.099986
0
VERTEX
5
44c
100
AcDbEntity
8
1
100
AcDbVertex
100
AcDb2dVertex
62
5
10
128.400000
20
-230.699986
0
VERTEX
5
44d
100
AcDbEntity
8
1
100
AcDbVertex
100
AcDb2dVertex
62
5
10
126.900000
20
-230.699986
0
SEQEND
5
44e
100
AcDbEntity
8
1
0
LINE
5
44f
100
AcDbEntity
8
1
100
AcDbLine
6
CONTINUOUS
62
5
10
139.800000
20
-215.999998
11
139.300000
21
-215.999998
0
CIRCLE
5
450
100
AcDbEntity
8
1
100
AcDbCircle
6
CONTINUOUS
62
5
10
125.100000
20
-238.499986
40
3.450000
0
CIRCLE
5
451
100
AcDbEntity
8
1
100
AcDbCircle
6
CONTINUOUS
62
5
10
125.100000
20
-238.499986
40
2.250000
0
POLYLINE
5
452
100
AcDbEntity
8
1
6
CONTINUOUS
62
5
100
AcDb2dPolyline
66
1
10
0.0
20
0.0
30
0.0
70
0
0
VERTEX
5
453
100
AcDbEntity
8
1
100
AcDbVertex
100
AcDb2dVertex
62
5
10
135.700000
20
-237.099986
0
VERTEX
5
454
100
AcDbEntity
8
1
100
AcDbVertex
100
AcDb2dVertex
62
5
10
136.400000
20
-237.354532
0
VERTEX
5
455
100
AcDbEntity
8
1
100
AcDbVertex
100
AcDb2dVertex
62
5
10
136.400000
20
-243.145441
0
VERTEX
5
456
100
AcDbEntity
8
1
100
AcDbVertex
100
AcDb2dVertex
62
5
10
135.700000
20
-243.399986
0
SEQEND
5
457
100
AcDbEntity
8
1
0
ARC
5
458
100
AcDbEntity
8
1
100
AcDbCircle
6
CONTINUOUS
62
5
10
138.000000
20
-242.399986
40
1.000000
100
AcDbArc
50
-89.999999
51
0.000000
0
LINE
5
459
100
AcDbEntity
8
1
100
AcDbLine
6
CONTINUOUS
62
5
10
139.000000
20
-242.399986
11
139.000000
21
-238.099986
0
ARC
5
45a
100
AcDbEntity
8
1
100
AcDbCircle
6
CONTINUOUS
62
5
10
138.000000
20
-238.099986
40
1.000000
100
AcDbArc
50
0.000000
51
89.999999
0
POLYLINE
5
45b
100
AcDbEntity
8
1
6
CONTINUOUS
62
5
100
AcDb2dPolyline
66
1
10
0.0
20
0.0
30
0.0
70
0
0
VERTEX
5
45c
100
AcDbEntity
8
1
100
AcDbVertex
100
AcDb2dVertex
62
5
10
138.000000
20
-237.099986
0
VERTEX
5
45d
100
AcDbEntity
8
1
100
AcDbVertex
100
AcDb2dVertex
62
5
10
135.700000
20
-237.099986
0
VERTEX
5
45e
100
AcDbEntity
8
1
100
AcDbVertex
100
AcDb2dVertex
62
5
10
135.700000
20
-243.399986
0
VERTEX
5
45f
100
AcDbEntity
8
1
100
AcDbVertex
100
AcDb2dVertex
62
5
10
138.000000
20
-243.399986
0
SEQEND
5
460
100
AcDbEntity
8
1
0
ARC
5
461
100
AcDbEntity
8
1
100
AcDbCircle
6
CONTINUOUS
62
5
10
138.000000
20
-238.099986
40
0.600000
100
AcDbArc
50
0.000000
51
89.999999
0
LINE
5
462
100
AcDbEntity
8
1
100
AcDbLine
6
CONTINUOUS
62
5
10
138.000000
20
-237.499986
11
136.400000
21
-237.499986
0
LINE
5
463
100
AcDbEntity
8
1
100
AcDbLine
6
CONTINUOUS
62
5
10
136.400000
20
-242.999986
11
138.000000
21
-242.999986
0
ARC
5
464
100
AcDbEntity
8
1
100
AcDbCircle
6
CONTINUOUS
62
5
10
138.000000
20
-242.399986
40
0.600000
100
AcDbArc
50
-89.999999
51
0.000000
0
LINE
5
465
100
AcDbEntity
8
1
100
AcDbLine
6
CONTINUOUS
62
5
10
138.600000
20
-242.399986
11
138.600000
21
-238.099986
0
CIRCLE
5
466
100
AcDbEntity
8
1
100
AcDbCircle
6
CONTINUOUS
62
5
10
125.100000
20
-238.499986
40
4.000000
0
POLYLINE
5
467
100
AcDbEntity
8
1
6
CONTINUOUS
62
5
100
AcDb2dPolyline
66
1
10
0.0
20
0.0
30
0.0
70
0
0
VERTEX
5
468
100
AcDbEntity
8
1
100
AcDbVertex
100
AcDb2dVertex
62
5
10
140.600000
20
-215.999998
0
VERTEX
5
469
100
AcDbEntity
8
1
100
AcDbVertex
100
AcDb2dVertex
62
5
10
139.800000
20
-215.999998
0
VERTEX
5
46a
100
AcDbEntity
8
1
100
AcDbVertex
100
AcDb2dVertex
62
5
10
139.800000
20
-209.999998
0
VERTEX
5
46b
100
AcDbEntity
8
1
100
AcDbVertex
100
AcDb2dVertex
62
5
10
140.600000
20
-209.999998
0
VERTEX
5
46c
100
AcDbEntity
8
1
100
AcDbVertex
100
AcDb2dVertex
62
5
10
140.600000
20
-215.999998
0
VERTEX
5
46d
100
AcDbEntity
8
1
100
AcDbVertex
100
AcDb2dVertex
62
5
10
139.800000
20
-215.999998
0
SEQEND
5
46e
100
AcDbEntity
8
1
0
ARC
5
46f
100
AcDbEntity
8
1
100
AcDbCircle
6
CONTINUOUS
62
5
10
134.099965
20
-208.049986
40
0.300000
100
AcDbArc
50
89.999999
51
179.999998
0
LINE
5
470
100
AcDbEntity
8
1
100
AcDbLine
6
CONTINUOUS
62
5
10
134.099965
20
-207.749986
11
134.699965
21
-207.749986
0
ARC
5
471
100
AcDbEntity
8
1
100
AcDbCircle
6
CONTINUOUS
62
5
10
134.699965
20
-208.049986
40
0.300000
100
AcDbArc
50
0.000000
51
89.999999
0
LINE
5
472
100
AcDbEntity
8
1
100
AcDbLine
6
CONTINUOUS
62
5
10
134.999965
20
-208.049986
11
134.999965
21
-217.949986
0
ARC
5
473
100
AcDbEntity
8
1
100
AcDbCircle
6
CONTINUOUS
62
5
10
134.699965
20
-217.949986
40
0.300000
100
AcDbArc
50
-89.999999
51
-0.000000
0
LINE
5
474
100
AcDbEntity
8
1
100
AcDbLine
6
CONTINUOUS
62
5
10
134.699965
20
-218.249986
11
134.099965
21
-218.249986
0
ARC
5
475
100
AcDbEntity
8
1
100
AcDbCircle
6
CONTINUOUS
62
5
10
134.099965
20
-217.949986
40
0.300000
100
AcDbArc
50
-179.999998
51
-89.999999
0
LINE
5
476
100
AcDbEntity
8
1
100
AcDbLine
6
CONTINUOUS
62
5
10
133.799965
20
-217.949986
11
133.799965
21
-208.049986
0
LINE
5
477
100
AcDbEntity
8
1
100
AcDbLine
6
CONTINUOUS
62
5
10
135.650000
20
-204.499986
11
135.650000
21
-220.999986
0
ARC
5
478
100
AcDbEntity
8
1
100
AcDbCircle
6
CONTINUOUS
62
5
10
134.699965
20
-220.199986
40
0.300000
100
AcDbArc
50
-89.999999
51
0.000000
0
LINE
5
479
100
AcDbEntity
8
1
100
AcDbLine
6
CONTINUOUS
62
5
10
134.999965
20
-220.199986
11
134.999965
21
-205.299986
0
ARC
5
47a
100
AcDbEntity
8
1
100
AcDbCircle
6
CONTINUOUS
62
5
10
134.699965
20
-205.299986
40
0.300000
100
AcDbArc
50
-0.000000
51
89.999999
0
POLYLINE
5
47b
100
AcDbEntity
8
1
6
CONTINUOUS
62
5
100
AcDb2dPolyline
66
1
10
0.0
20
0.0
30
0.0
70
0
0
VERTEX
5
47c
100
AcDbEntity
8
1
100
AcDbVertex
100
AcDb2dVertex
62
5
10
134.699965
20
-204.999986
0
VERTEX
5
47d
100
AcDbEntity
8
1
100
AcDbVertex
100
AcDb2dVertex
62
5
10
133.599965
20
-204.999986
0
VERTEX
5
47e
100
AcDbEntity
8
1
100
AcDbVertex
100
AcDb2dVertex
62
5
10
133.599965
20
-217.949986
0
SEQEND
5
47f
100
AcDbEntity
8
1
0
ARC
5
480
100
AcDbEntity
8
1
100
AcDbCircle
6
CONTINUOUS
62
5
10
133.899965
20
-217.949986
40
0.300000
100
AcDbArc
50
179.999998
51
-89.999999
0
LINE
5
481
100
AcDbEntity
8
1
100
AcDbLine
6
CONTINUOUS
62
5
10
133.899965
20
-220.499986
11
134.699965
21
-220.499986
0
ARC
5
482
100
AcDbEntity
8
1
100
AcDbCircle
6
CONTINUOUS
62
5
10
133.700000
20
-204.399993
40
1.000000
100
AcDbArc
50
89.999999
51
179.999998
0
LINE
5
483
100
AcDbEntity
8
1
100
AcDbLine
6
CONTINUOUS
62
5
10
132.700000
20
-204.399993
11
132.700000
21
-206.999986
0
ARC
5
484
100
AcDbEntity
8
1
100
AcDbCircle
6
CONTINUOUS
62
5
10
132.200000
20
-206.999986
40
0.500000
100
AcDbArc
50
-89.999999
51
0.000000
0
POLYLINE
5
485
100
AcDbEntity
8
1
6
CONTINUOUS
62
5
100
AcDb2dPolyline
66
1
10
0.0
20
0.0
30
0.0
70
0
0
VERTEX
5
486
100
AcDbEntity
8
1
100
AcDbVertex
100
AcDb2dVertex
62
5
10
132.200000
20
-207.499986
0
VERTEX
5
487
100
AcDbEntity
8
1
100
AcDbVertex
100
AcDb2dVertex
62
5
10
132.200000
20
-207.499986
0
VERTEX
5
488
100
AcDbEntity
8
1
100
AcDbVertex
100
AcDb2dVertex
62
5
10
132.200000
20
-207.599986
0
VERTEX
5
489
100
AcDbEntity
8
1
100
AcDbVertex
100
AcDb2dVertex
62
5
10
132.200000
20
-218.499986
0
VERTEX
5
48a
100
AcDbEntity
8
1
100
AcDbVertex
100
AcDb2dVertex
62
5
10
132.200000
20
-218.499986
0
SEQEND
5
48b
100
AcDbEntity
8
1
0
ARC
5
48c
100
AcDbEntity
8
1
100
AcDbCircle
6
CONTINUOUS
62
5
10
132.200000
20
-218.999986
40
0.500000
100
AcDbArc
50
0.000000
51
89.999999
0
LINE
5
48d
100
AcDbEntity
8
1
100
AcDbLine
6
CONTINUOUS
62
5
10
132.700000
20
-218.999986
11
132.700000
21
-221.600002
0
ARC
5
48e
100
AcDbEntity
8
1
100
AcDbCircle
6
CONTINUOUS
62
5
10
133.700000
20
-221.600002
40
1.000000
100
AcDbArc
50
179.999998
51
-89.999999
0
LINE
5
48f
100
AcDbEntity
8
1
100
AcDbLine
6
CONTINUOUS
62
5
10
133.700000
20
-222.600002
11
135.800000
21
-222.600002
0
ARC
5
490
100
AcDbEntity
8
1
100
AcDbCircle
6
CONTINUOUS
62
5
10
135.800000
20
-221.600002
40
1.000000
100
AcDbArc
50
-89.999999
51
0.000000
0
LINE
5
491
100
AcDbEntity
8
1
100
AcDbLine
6
CONTINUOUS
62
5
10
136.800000
20
-221.600002
11
136.800000
21
-204.399993
0
ARC
5
492
100
AcDbEntity
8
1
100
AcDbCircle
6
CONTINUOUS
62
5
10
135.800000
20
-204.399993
40
1.000000
100
AcDbArc
50
0.000000
51
89.999999
0
POLYLINE
5
493
100
AcDbEntity
8
1
6
CONTINUOUS
62
5
100
AcDb2dPolyline
66
1
10
0.0
20
0.0
30
0.0
70
0
0
VERTEX
5
494
100
AcDbEntity
8
1
100
AcDbVertex
100
AcDb2dVertex
62
5
10
135.800000
20
-203.399993
0
VERTEX
5
495
100
AcDbEntity
8
1
100
AcDbVertex
100
AcDb2dVertex
62
5
10
135.650000
20
-203.399993
0
VERTEX
5
496
100
AcDbEntity
8
1
100
AcDbVertex
100
AcDb2dVertex
62
5
10
133.700000
20
-203.399993
0
SEQEND
5
497
100
AcDbEntity
8
1
0
ARC
5
498
100
AcDbEntity
8
1
100
AcDbCircle
6
CONTINUOUS
62
5
10
132.300000
20
-206.999986
40
0.500000
100
AcDbArc
50
-89.999999
51
0.000000
0
POLYLINE
5
499
100
AcDbEntity
8
1
6
CONTINUOUS
62
5
100
AcDb2dPolyline
66
1
10
0.0
20
0.0
30
0.0
70
0
0
VERTEX
5
49a
100
AcDbEntity
8
1
100
AcDbVertex
100
AcDb2dVertex
62
5
10
132.300000
20
-207.499986
0
VERTEX
5
49b
100
AcDbEntity
8
1
100
AcDbVertex
100
AcDb2dVertex
62
5
10
132.300000
20
-207.499986
0
VERTEX
5
49c
100
AcDbEntity
8
1
100
AcDbVertex
100
AcDb2dVertex
62
5
10
132.300000
20
-218.499986
0
VERTEX
5
49d
100
AcDbEntity
8
1
100
AcDbVertex
100
AcDb2dVertex
62
5
10
132.300000
20
-218.499986
0
SEQEND
5
49e
100
AcDbEntity
8
1
0
ARC
5
49f
100
AcDbEntity
8
1
100
AcDbCircle
6
CONTINUOUS
62
5
10
132.300000
20
-218.999986
40
0.500000
100
AcDbArc
50
0.000000
51
89.999999
0
LINE
5
4a0
100
AcDbEntity
8
1
100
AcDbLine
6
CONTINUOUS
62
5
10
132.800000
20
-218.999986
11
132.800000
21
-221.500002
0
ARC
5
4a1
100
AcDbEntity
8
1
100
AcDbCircle
6
CONTINUOUS
62
5
10
133.800000
20
-221.500002
40
1.000000
100
AcDbArc
50
179.999998
51
-89.999999
0
LINE
5
4a2
100
AcDbEntity
8
1
100
AcDbLine
6
CONTINUOUS
62
5
10
133.800000
20
-222.500002
11
135.700000
21
-222.500002
0
ARC
5
4a3
100
AcDbEntity
8
1
100
AcDbCircle
6
CONTINUOUS
62
5
10
135.700000
20
-221.500002
40
1.000000
100
AcDbArc
50
-89.999999
51
0.000000
0
LINE
5
4a4
100
AcDbEntity
8
1
100
AcDbLine
6
CONTINUOUS
62
5
10
136.700000
20
-221.500002
11
136.700000
21
-204.499993
0
ARC
5
4a5
100
AcDbEntity
8
1
100
AcDbCircle
6
CONTINUOUS
62
5
10
135.700000
20
-204.499993
40
1.000000
100
AcDbArc
50
0.000000
51
89.999999
0
POLYLINE
5
4a6
100
AcDbEntity
8
1
6
CONTINUOUS
62
5
100
AcDb2dPolyline
66
1
10
0.0
20
0.0
30
0.0
70
0
0
VERTEX
5
4a7
100
AcDbEntity
8
1
100
AcDbVertex
100
AcDb2dVertex
62
5
10
135.700000
20
-203.499993
0
VERTEX
5
4a8
100
AcDbEntity
8
1
100
AcDbVertex
100
AcDb2dVertex
62
5
10
135.650000
20
-203.499993
0
VERTEX
5
4a9
100
AcDbEntity
8
1
100
AcDbVertex
100
AcDb2dVertex
62
5
10
133.800000
20
-203.499993
0
SEQEND
5
4aa
100
AcDbEntity
8
1
0
ARC
5
4ab
100
AcDbEntity
8
1
100
AcDbCircle
6
CONTINUOUS
62
5
10
133.800000
20
-204.499993
40
1.000000
100
AcDbArc
50
89.999999
51
179.999998
0
LINE
5
4ac
100
AcDbEntity
8
1
100
AcDbLine
6
CONTINUOUS
62
5
10
132.800000
20
-204.499993
11
132.800000
21
-206.999986
0
ARC
5
4ad
100
AcDbEntity
8
1
100
AcDbCircle
6
CONTINUOUS
62
5
10
199.100000
20
-236.499986
40
1.000000
100
AcDbArc
50
179.999998
51
-89.999999
0
LINE
5
4ae
100
AcDbEntity
8
1
100
AcDbLine
6
CONTINUOUS
62
5
10
203.900000
20
-237.499986
11
199.100000
21
-237.499986
0
LINE
5
4af
100
AcDbEntity
8
1
100
AcDbLine
6
CONTINUOUS
62
5
10
44.100000
20
-171.649986
11
44.099989
21
-175.850002
0
ARC
5
4b0
100
AcDbEntity
8
1
100
AcDbCircle
6
CONTINUOUS
62
5
10
45.100000
20
-171.749986
40
0.500000
100
AcDbArc
50
-89.999999
51
0.000000
0
LINE
5
4b1
100
AcDbEntity
8
1
100
AcDbLine
6
CONTINUOUS
62
5
10
45.600000
20
-171.749986
11
45.600000
21
-171.649986
0
LINE
5
4b2
100
AcDbEntity
8
1
100
AcDbLine
6
CONTINUOUS
62
5
10
45.600000
20
-175.749986
11
45.600000
21
-175.749986
0
ARC
5
4b3
100
AcDbEntity
8
1
100
AcDbCircle
6
CONTINUOUS
62
5
10
45.100000
20
-175.749986
40
0.500000
100
AcDbArc
50
0.000000
51
89.999999
0
POLYLINE
5
4b4
100
AcDbEntity
8
1
6
CONTINUOUS
62
5
100
AcDb2dPolyline
66
1
10
0.0
20
0.0
30
0.0
70
0
0
VERTEX
5
4b5
100
AcDbEntity
8
1
100
AcDbVertex
100
AcDb2dVertex
62
5
10
45.100000
20
-175.249986
0
VERTEX
5
4b6
100
AcDbEntity
8
1
100
AcDbVertex
100
AcDb2dVertex
62
5
10
44.400000
20
-175.249986
0
VERTEX
5
4b7
100
AcDbEntity
8
1
100
AcDbVertex
100
AcDb2dVertex
62
5
10
44.400000
20
-172.249986
0
VERTEX
5
4b8
100
AcDbEntity
8
1
100
AcDbVertex
100
AcDb2dVertex
62
5
10
45.100000
20
-172.249986
0
SEQEND
5
4b9
100
AcDbEntity
8
1
0
POLYLINE
5
4ba
100
AcDbEntity
8
1
6
CONTINUOUS
62
5
100
AcDb2dPolyline
66
1
10
0.0
20
0.0
30
0.0
70
0
0
VERTEX
5
4bb
100
AcDbEntity
8
1
100
AcDbVertex
100
AcDb2dVertex
62
5
10
44.399989
20
-172.249978
0
VERTEX
5
4bc
100
AcDbEntity
8
1
100
AcDbVertex
100
AcDb2dVertex
62
5
10
44.342814
20
-172.243987
0
VERTEX
5
4bd
100
AcDbEntity
8
1
100
AcDbVertex
100
AcDb2dVertex
62
5
10
44.291847
20
-172.225987
0
VERTEX
5
4be
100
AcDbEntity
8
1
100
AcDbVertex
100
AcDb2dVertex
62
5
10
44.246877
20
-172.195986
0
VERTEX
5
4bf
100
AcDbEntity
8
1
100
AcDbVertex
100
AcDb2dVertex
62
5
10
44.207904
20
-172.153986
0
VERTEX
5
4c0
100
AcDbEntity
8
1
100
AcDbVertex
100
AcDb2dVertex
62
5
10
44.174928
20
-172.099986
0
VERTEX
5
4c1
100
AcDbEntity
8
1
100
AcDbVertex
100
AcDb2dVertex
62
5
10
44.147949
20
-172.033986
0
VERTEX
5
4c2
100
AcDbEntity
8
1
100
AcDbVertex
100
AcDb2dVertex
62
5
10
44.126967
20
-171.955986
0
VERTEX
5
4c3
100
AcDbEntity
8
1
100
AcDbVertex
100
AcDb2dVertex
62
5
10
44.111981
20
-171.865986
0
VERTEX
5
4c4
100
AcDbEntity
8
1
100
AcDbVertex
100
AcDb2dVertex
62
5
10
44.102992
20
-171.763986
0
VERTEX
5
4c5
100
AcDbEntity
8
1
100
AcDbVertex
100
AcDb2dVertex
62
5
10
44.100000
20
-171.649986
0
SEQEND
5
4c6
100
AcDbEntity
8
1
0
LINE
5
4c7
100
AcDbEntity
8
1
100
AcDbLine
6
CONTINUOUS
62
5
10
45.600000
20
-175.749986
11
44.099989
21
-175.849986
0
POLYLINE
5
4c8
100
AcDbEntity
8
1
6
CONTINUOUS
62
5
100
AcDb2dPolyline
66
1
10
0.0
20
0.0
30
0.0
70
0
0
VERTEX
5
4c9
100
AcDbEntity
8
1
100
AcDbVertex
100
AcDb2dVertex
62
5
10
44.400000
20
-175.249986
0
VERTEX
5
4ca
100
AcDbEntity
8
1
100
AcDbVertex
100
AcDb2dVertex
62
5
10
44.342995
20
-175.255955
0
VERTEX
5
4cb
100
AcDbEntity
8
1
100
AcDbVertex
100
AcDb2dVertex
62
5
10
44.291999
20
-175.273956
0
VERTEX
5
4cc
100
AcDbEntity
8
1
100
AcDbVertex
100
AcDb2dVertex
62
5
10
44.247002
20
-175.303956
0
VERTEX
5
4cd
100
AcDbEntity
8
1
100
AcDbVertex
100
AcDb2dVertex
62
5
10
44.208004
20
-175.345958
0
VERTEX
5
4ce
100
AcDbEntity
8
1
100
AcDbVertex
100
AcDb2dVertex
62
5
10
44.175005
20
-175.399959
0
VERTEX
5
4cf
100
AcDbEntity
8
1
100
AcDbVertex
100
AcDb2dVertex
62
5
10
44.148004
20
-175.465961
0
VERTEX
5
4d0
100
AcDbEntity
8
1
100
AcDbVertex
100
AcDb2dVertex
62
5
10
44.127002
20
-175.543963
0
VERTEX
5
4d1
100
AcDbEntity
8
1
100
AcDbVertex
100
AcDb2dVertex
62
5
10
44.111999
20
-175.633965
0
VERTEX
5
4d2
100
AcDbEntity
8
1
100
AcDbVertex
100
AcDb2dVertex
62
5
10
44.102994
20
-175.735967
0
VERTEX
5
4d3
100
AcDbEntity
8
1
100
AcDbVertex
100
AcDb2dVertex
62
5
10
44.099989
20
-175.850002
0
SEQEND
5
4d4
100
AcDbEntity
8
1
0
POLYLINE
5
4d5
100
AcDbEntity
8
1
6
CONTINUOUS
62
5
100
AcDb2dPolyline
66
1
10
0.0
20
0.0
30
0.0
70
0
0
VERTEX
5
4d6
100
AcDbEntity
8
1
100
AcDbVertex
100
AcDb2dVertex
62
5
10
44.099989
20
-181.149986
0
VERTEX
5
4d7
100
AcDbEntity
8
1
100
AcDbVertex
100
AcDb2dVertex
62
5
10
44.102994
20
-181.264005
0
VERTEX
5
4d8
100
AcDbEntity
8
1
100
AcDbVertex
100
AcDb2dVertex
62
5
10
44.111999
20
-181.366008
0
VERTEX
5
4d9
100
AcDbEntity
8
1
100
AcDbVertex
100
AcDb2dVertex
62
5
10
44.127002
20
-181.456010
0
VERTEX
5
4da
100
AcDbEntity
8
1
100
AcDbVertex
100
AcDb2dVertex
62
5
10
44.148004
20
-181.534012
0
VERTEX
5
4db
100
AcDbEntity
8
1
100
AcDbVertex
100
AcDb2dVertex
62
5
10
44.175005
20
-181.600014
0
VERTEX
5
4dc
100
AcDbEntity
8
1
100
AcDbVertex
100
AcDb2dVertex
62
5
10
44.208004
20
-181.654015
0
VERTEX
5
4dd
100
AcDbEntity
8
1
100
AcDbVertex
100
AcDb2dVertex
62
5
10
44.247002
20
-181.696016
0
VERTEX
5
4de
100
AcDbEntity
8
1
100
AcDbVertex
100
AcDb2dVertex
62
5
10
44.291999
20
-181.726017
0
VERTEX
5
4df
100
AcDbEntity
8
1
100
AcDbVertex
100
AcDb2dVertex
62
5
10
44.342995
20
-181.744017
0
VERTEX
5
4e0
100
AcDbEntity
8
1
100
AcDbVertex
100
AcDb2dVertex
62
5
10
44.400000
20
-181.749986
0
SEQEND
5
4e1
100
AcDbEntity
8
1
0
LINE
5
4e2
100
AcDbEntity
8
1
100
AcDbLine
6
CONTINUOUS
62
5
10
45.600000
20
-181.249986
11
44.100000
21
-181.149986
0
LINE
5
4e3
100
AcDbEntity
8
1
100
AcDbLine
6
CONTINUOUS
62
5
10
45.600000
20
-171.649986
11
44.100000
21
-171.649986
0
LINE
5
4e4
100
AcDbEntity
8
1
100
AcDbLine
6
CONTINUOUS
62
5
10
46.400000
20
-175.749986
11
46.500000
21
-175.849986
0
LINE
5
4e5
100
AcDbEntity
8
1
100
AcDbLine
6
CONTINUOUS
62
5
10
46.400000
20
-175.749986
11
45.600000
21
-175.749986
0
LINE
5
4e6
100
AcDbEntity
8
1
100
AcDbLine
6
CONTINUOUS
62
5
10
50.200000
20
-175.799986
11
49.800000
21
-176.199986
0
LINE
5
4e7
100
AcDbEntity
8
1
100
AcDbLine
6
CONTINUOUS
62
5
10
46.400000
20
-181.249986
11
45.600000
21
-181.249986
0
LINE
5
4e8
100
AcDbEntity
8
1
100
AcDbLine
6
CONTINUOUS
62
5
10
46.400000
20
-181.249986
11
46.500000
21
-181.149986
0
LINE
5
4e9
100
AcDbEntity
8
1
100
AcDbLine
6
CONTINUOUS
62
5
10
49.800000
20
-180.799986
11
50.200000
21
-181.199986
0
LINE
5
4ea
100
AcDbEntity
8
1
100
AcDbLine
6
CONTINUOUS
62
5
10
46.900000
20
-172.499986
11
47.000000
21
-172.499986
0
POLYLINE
5
4eb
100
AcDbEntity
8
1
6
CONTINUOUS
62
5
100
AcDb2dPolyline
66
1
10
0.0
20
0.0
30
0.0
70
0
0
VERTEX
5
4ec
100
AcDbEntity
8
1
100
AcDbVertex
100
AcDb2dVertex
62
5
10
44.399989
20
-184.749994
0
VERTEX
5
4ed
100
AcDbEntity
8
1
100
AcDbVertex
100
AcDb2dVertex
62
5
10
44.342814
20
-184.755986
0
VERTEX
5
4ee
100
AcDbEntity
8
1
100
AcDbVertex
100
AcDb2dVertex
62
5
10
44.291847
20
-184.773986
0
VERTEX
5
4ef
100
AcDbEntity
8
1
100
AcDbVertex
100
AcDb2dVertex
62
5
10
44.246877
20
-184.803986
0
VERTEX
5
4f0
100
AcDbEntity
8
1
100
AcDbVertex
100
AcDb2dVertex
62
5
10
44.207904
20
-184.845986
0
VERTEX
5
4f1
100
AcDbEntity
8
1
100
AcDbVertex
100
AcDb2dVertex
62
5
10
44.174928
20
-184.899986
0
VERTEX
5
4f2
100
AcDbEntity
8
1
100
AcDbVertex
100
AcDb2dVertex
62
5
10
44.147949
20
-184.965986
0
VERTEX
5
4f3
100
AcDbEntity
8
1
100
AcDbVertex
100
AcDb2dVertex
62
5
10
44.126967
20
-185.043986
0
VERTEX
5
4f4
100
AcDbEntity
8
1
100
AcDbVertex
100
AcDb2dVertex
62
5
10
44.111981
20
-185.133986
0
VERTEX
5
4f5
100
AcDbEntity
8
1
100
AcDbVertex
100
AcDb2dVertex
62
5
10
44.102992
20
-185.235986
0
VERTEX
5
4f6
100
AcDbEntity
8
1
100
AcDbVertex
100
AcDb2dVertex
62
5
10
44.100000
20
-185.349986
0
SEQEND
5
4f7
100
AcDbEntity
8
1
0
LINE
5
4f8
100
AcDbEntity
8
1
100
AcDbLine
6
CONTINUOUS
62
5
10
45.600000
20
-185.349986
11
44.100000
21
-185.349986
0
LINE
5
4f9
100
AcDbEntity
8
1
100
AcDbLine
6
CONTINUOUS
62
5
10
46.900000
20
-184.499986
11
47.000000
21
-184.499986
0
ARC
5
4fa
100
AcDbEntity
8
1
100
AcDbCircle
6
CONTINUOUS
62
5
10
46.100000
20
-185.799986
40
0.300000
100
AcDbArc
50
0.000000
51
89.999999
0
LINE
5
4fb
100
AcDbEntity
8
1
100
AcDbLine
6
CONTINUOUS
62
5
10
46.100000
20
-185.499986
11
45.600000
21
-185.499986
0
LINE
5
4fc
100
AcDbEntity
8
1
100
AcDbLine
6
CONTINUOUS
62
5
10
45.600000
20
-187.999986
11
46.100000
21
-187.999986
0
ARC
5
4fd
100
AcDbEntity
8
1
100
AcDbCircle
6
CONTINUOUS
62
5
10
46.100000
20
-187.699986
40
0.300000
100
AcDbArc
50
-89.999999
51
0.000000
0
LINE
5
4fe
100
AcDbEntity
8
1
100
AcDbLine
6
CONTINUOUS
62
5
10
46.400000
20
-187.699986
11
46.400000
21
-185.799986
0
ARC
5
4ff
100
AcDbEntity
8
1
100
AcDbCircle
6
CONTINUOUS
62
5
10
45.900000
20
-187.699986
40
0.300000
100
AcDbArc
50
-89.999999
51
0.000000
0
LINE
5
500
100
AcDbEntity
8
1
100
AcDbLine
6
CONTINUOUS
62
5
10
46.200000
20
-187.699986
11
46.200000
21
-185.799986
0
ARC
5
501
100
AcDbEntity
8
1
100
AcDbCircle
6
CONTINUOUS
62
5
10
45.900000
20
-185.799986
40
0.300000
100
AcDbArc
50
0.000000
51
89.999999
0
LINE
5
502
100
AcDbEntity
8
1
100
AcDbLine
6
CONTINUOUS
62
5
10
45.900000
20
-185.499986
11
45.600000
21
-185.499986
0
LINE
5
503
100
AcDbEntity
8
1
100
AcDbLine
6
CONTINUOUS
62
5
10
45.600000
20
-187.999986
11
45.900000
21
-187.999986
0
LINE
5
504
100
AcDbEntity
8
1
100
AcDbLine
6
CONTINUOUS
62
5
10
44.100000
20
-185.349986
11
44.100000
21
-181.149986
0
LINE
5
505
100
AcDbEntity
8
1
100
AcDbLine
6
CONTINUOUS
62
5
10
44.399989
20
-184.749994
11
44.399989
21
-181.749993
0
ARC
5
506
100
AcDbEntity
8
1
100
AcDbCircle
6
CONTINUOUS
62
5
10
45.100000
20
-185.249986
40
0.500000
100
AcDbArc
50
0.000000
51
89.999999
0
LINE
5
507
100
AcDbEntity
8
1
100
AcDbLine
6
CONTINUOUS
62
5
10
45.600000
20
-185.249986
11
45.600000
21
-185.349986
0
LINE
5
508
100
AcDbEntity
8
1
100
AcDbLine
6
CONTINUOUS
62
5
10
45.600000
20
-181.249986
11
45.600000
21
-181.249986
0
ARC
5
509
100
AcDbEntity
8
1
100
AcDbCircle
6
CONTINUOUS
62
5
10
45.100000
20
-181.249986
40
0.500000
100
AcDbArc
50
-89.999999
51
0.000000
0
POLYLINE
5
50a
100
AcDbEntity
8
1
6
CONTINUOUS
62
5
100
AcDb2dPolyline
66
1
10
0.0
20
0.0
30
0.0
70
0
0
VERTEX
5
50b
100
AcDbEntity
8
1
100
AcDbVertex
100
AcDb2dVertex
62
5
10
45.100000
20
-181.749986
0
VERTEX
5
50c
100
AcDbEntity
8
1
100
AcDbVertex
100
AcDb2dVertex
62
5
10
44.400000
20
-181.749986
0
VERTEX
5
50d
100
AcDbEntity
8
1
100
AcDbVertex
100
AcDb2dVertex
62
5
10
44.400000
20
-184.749986
0
VERTEX
5
50e
100
AcDbEntity
8
1
100
AcDbVertex
100
AcDb2dVertex
62
5
10
45.100000
20
-184.749986
0
SEQEND
5
50f
100
AcDbEntity
8
1
0
LINE
5
510
100
AcDbEntity
8
1
100
AcDbLine
6
CONTINUOUS
62
5
10
44.100000
20
-194.649986
11
44.099989
21
-198.850002
0
POLYLINE
5
511
100
AcDbEntity
8
1
6
CONTINUOUS
62
5
100
AcDb2dPolyline
66
1
10
0.0
20
0.0
30
0.0
70
0
0
VERTEX
5
512
100
AcDbEntity
8
1
100
AcDbVertex
100
AcDb2dVertex
62
5
10
44.400000
20
-198.249986
0
VERTEX
5
513
100
AcDbEntity
8
1
100
AcDbVertex
100
AcDb2dVertex
62
5
10
44.342995
20
-198.255955
0
VERTEX
5
514
100
AcDbEntity
8
1
100
AcDbVertex
100
AcDb2dVertex
62
5
10
44.291999
20
-198.273956
0
VERTEX
5
515
100
AcDbEntity
8
1
100
AcDbVertex
100
AcDb2dVertex
62
5
10
44.247002
20
-198.303956
0
VERTEX
5
516
100
AcDbEntity
8
1
100
AcDbVertex
100
AcDb2dVertex
62
5
10
44.208004
20
-198.345958
0
VERTEX
5
517
100
AcDbEntity
8
1
100
AcDbVertex
100
AcDb2dVertex
62
5
10
44.175005
20
-198.399959
0
VERTEX
5
518
100
AcDbEntity
8
1
100
AcDbVertex
100
AcDb2dVertex
62
5
10
44.148004
20
-198.465961
0
VERTEX
5
519
100
AcDbEntity
8
1
100
AcDbVertex
100
AcDb2dVertex
62
5
10
44.127002
20
-198.543963
0
VERTEX
5
51a
100
AcDbEntity
8
1
100
AcDbVertex
100
AcDb2dVertex
62
5
10
44.111999
20
-198.633965
0
VERTEX
5
51b
100
AcDbEntity
8
1
100
AcDbVertex
100
AcDb2dVertex
62
5
10
44.102994
20
-198.735967
0
VERTEX
5
51c
100
AcDbEntity
8
1
100
AcDbVertex
100
AcDb2dVertex
62
5
10
44.099989
20
-198.850002
0
SEQEND
5
51d
100
AcDbEntity
8
1
0
LINE
5
51e
100
AcDbEntity
8
1
100
AcDbLine
6
CONTINUOUS
62
5
10
45.600000
20
-198.749986
11
44.099989
21
-198.849986
0
ARC
5
51f
100
AcDbEntity
8
1
100
AcDbCircle
6
CONTINUOUS
62
5
10
45.100000
20
-194.749986
40
0.500000
100
AcDbArc
50
-89.999999
51
0.000000
0
LINE
5
520
100
AcDbEntity
8
1
100
AcDbLine
6
CONTINUOUS
62
5
10
45.600000
20
-194.749986
11
45.600000
21
-194.649986
0
LINE
5
521
100
AcDbEntity
8
1
100
AcDbLine
6
CONTINUOUS
62
5
10
45.600000
20
-198.749986
11
45.600000
21
-198.749986
0
ARC
5
522
100
AcDbEntity
8
1
100
AcDbCircle
6
CONTINUOUS
62
5
10
45.100000
20
-198.749986
40
0.500000
100
AcDbArc
50
0.000000
51
89.999999
0
POLYLINE
5
523
100
AcDbEntity
8
1
6
CONTINUOUS
62
5
100
AcDb2dPolyline
66
1
10
0.0
20
0.0
30
0.0
70
0
0
VERTEX
5
524
100
AcDbEntity
8
1
100
AcDbVertex
100
AcDb2dVertex
62
5
10
45.100000
20
-198.249986
0
VERTEX
5
525
100
AcDbEntity
8
1
100
AcDbVertex
100
AcDb2dVertex
62
5
10
44.400000
20
-198.249986
0
VERTEX
5
526
100
AcDbEntity
8
1
100
AcDbVertex
100
AcDb2dVertex
62
5
10
44.400000
20
-195.249986
0
VERTEX
5
527
100
AcDbEntity
8
1
100
AcDbVertex
100
AcDb2dVertex
62
5
10
45.100000
20
-195.249986
0
SEQEND
5
528
100
AcDbEntity
8
1
0
POLYLINE
5
529
100
AcDbEntity
8
1
6
CONTINUOUS
62
5
100
AcDb2dPolyline
66
1
10
0.0
20
0.0
30
0.0
70
0
0
VERTEX
5
52a
100
AcDbEntity
8
1
100
AcDbVertex
100
AcDb2dVertex
62
5
10
44.099989
20
-204.149986
0
VERTEX
5
52b
100
AcDbEntity
8
1
100
AcDbVertex
100
AcDb2dVertex
62
5
10
44.102994
20
-204.264005
0
VERTEX
5
52c
100
AcDbEntity
8
1
100
AcDbVertex
100
AcDb2dVertex
62
5
10
44.111999
20
-204.366008
0
VERTEX
5
52d
100
AcDbEntity
8
1
100
AcDbVertex
100
AcDb2dVertex
62
5
10
44.127002
20
-204.456010
0
VERTEX
5
52e
100
AcDbEntity
8
1
100
AcDbVertex
100
AcDb2dVertex
62
5
10
44.148004
20
-204.534012
0
VERTEX
5
52f
100
AcDbEntity
8
1
100
AcDbVertex
100
AcDb2dVertex
62
5
10
44.175005
20
-204.600014
0
VERTEX
5
530
100
AcDbEntity
8
1
100
AcDbVertex
100
AcDb2dVertex
62
5
10
44.208004
20
-204.654015
0
VERTEX
5
531
100
AcDbEntity
8
1
100
AcDbVertex
100
AcDb2dVertex
62
5
10
44.247002
20
-204.696016
0
VERTEX
5
532
100
AcDbEntity
8
1
100
AcDbVertex
100
AcDb2dVertex
62
5
10
44.291999
20
-204.726017
0
VERTEX
5
533
100
AcDbEntity
8
1
100
AcDbVertex
100
AcDb2dVertex
62
5
10
44.342995
20
-204.744017
0
VERTEX
5
534
100
AcDbEntity
8
1
100
AcDbVertex
100
AcDb2dVertex
62
5
10
44.400000
20
-204.749986
0
SEQEND
5
535
100
AcDbEntity
8
1
0
LINE
5
536
100
AcDbEntity
8
1
100
AcDbLine
6
CONTINUOUS
62
5
10
45.600000
20
-204.249986
11
44.100000
21
-204.149986
0
POLYLINE
5
537
100
AcDbEntity
8
1
6
CONTINUOUS
62
5
100
AcDb2dPolyline
66
1
10
0.0
20
0.0
30
0.0
70
0
0
VERTEX
5
538
100
AcDbEntity
8
1
100
AcDbVertex
100
AcDb2dVertex
62
5
10
44.399989
20
-195.249978
0
VERTEX
5
539
100
AcDbEntity
8
1
100
AcDbVertex
100
AcDb2dVertex
62
5
10
44.342814
20
-195.243987
0
VERTEX
5
53a
100
AcDbEntity
8
1
100
AcDbVertex
100
AcDb2dVertex
62
5
10
44.291847
20
-195.225987
0
VERTEX
5
53b
100
AcDbEntity
8
1
100
AcDbVertex
100
AcDb2dVertex
62
5
10
44.246877
20
-195.195986
0
VERTEX
5
53c
100
AcDbEntity
8
1
100
AcDbVertex
100
AcDb2dVertex
62
5
10
44.207904
20
-195.153986
0
VERTEX
5
53d
100
AcDbEntity
8
1
100
AcDbVertex
100
AcDb2dVertex
62
5
10
44.174928
20
-195.099986
0
VERTEX
5
53e
100
AcDbEntity
8
1
100
AcDbVertex
100
AcDb2dVertex
62
5
10
44.147949
20
-195.033986
0
VERTEX
5
53f
100
AcDbEntity
8
1
100
AcDbVertex
100
AcDb2dVertex
62
5
10
44.126967
20
-194.955986
0
VERTEX
5
540
100
AcDbEntity
8
1
100
AcDbVertex
100
AcDb2dVertex
62
5
10
44.111981
20
-194.865986
0
VERTEX
5
541
100
AcDbEntity
8
1
100
AcDbVertex
100
AcDb2dVertex
62
5
10
44.102992
20
-194.763986
0
VERTEX
5
542
100
AcDbEntity
8
1
100
AcDbVertex
100
AcDb2dVertex
62
5
10
44.100000
20
-194.649986
0
SEQEND
5
543
100
AcDbEntity
8
1
0
LINE
5
544
100
AcDbEntity
8
1
100
AcDbLine
6
CONTINUOUS
62
5
10
45.600000
20
-194.649986
11
44.100000
21
-194.649986
0
ARC
5
545
100
AcDbEntity
8
1
100
AcDbCircle
6
CONTINUOUS
62
5
10
45.900000
20
-194.199986
40
0.300000
100
AcDbArc
50
-89.999999
51
0.000000
0
LINE
5
546
100
AcDbEntity
8
1
100
AcDbLine
6
CONTINUOUS
62
5
10
46.200000
20
-194.199986
11
46.200000
21
-192.299986
0
ARC
5
547
100
AcDbEntity
8
1
100
AcDbCircle
6
CONTINUOUS
62
5
10
45.900000
20
-192.299986
40
0.300000
100
AcDbArc
50
0.000000
51
89.999999
0
LINE
5
548
100
AcDbEntity
8
1
100
AcDbLine
6
CONTINUOUS
62
5
10
45.900000
20
-191.999986
11
45.600000
21
-191.999986
0
LINE
5
549
100
AcDbEntity
8
1
100
AcDbLine
6
CONTINUOUS
62
5
10
45.600000
20
-194.499986
11
45.900000
21
-194.499986
0
ARC
5
54a
100
AcDbEntity
8
1
100
AcDbCircle
6
CONTINUOUS
62
5
10
46.100000
20
-192.299986
40
0.300000
100
AcDbArc
50
0.000000
51
89.999999
0
LINE
5
54b
100
AcDbEntity
8
1
100
AcDbLine
6
CONTINUOUS
62
5
10
46.100000
20
-191.999986
11
45.600000
21
-191.999986
0
LINE
5
54c
100
AcDbEntity
8
1
100
AcDbLine
6
CONTINUOUS
62
5
10
45.600000
20
-194.499986
11
46.100000
21
-194.499986
0
ARC
5
54d
100
AcDbEntity
8
1
100
AcDbCircle
6
CONTINUOUS
62
5
10
46.100000
20
-194.199986
40
0.300000
100
AcDbArc
50
-89.999999
51
0.000000
0
LINE
5
54e
100
AcDbEntity
8
1
100
AcDbLine
6
CONTINUOUS
62
5
10
46.400000
20
-194.199986
11
46.400000
21
-192.299986
0
LINE
5
54f
100
AcDbEntity
8
1
100
AcDbLine
6
CONTINUOUS
62
5
10
46.400000
20
-198.749986
11
45.600000
21
-198.749986
0
LINE
5
550
100
AcDbEntity
8
1
100
AcDbLine
6
CONTINUOUS
62
5
10
46.400000
20
-198.749986
11
46.500000
21
-198.849986
0
LINE
5
551
100
AcDbEntity
8
1
100
AcDbLine
6
CONTINUOUS
62
5
10
49.800000
20
-199.199986
11
50.200000
21
-198.799986
0
LINE
5
552
100
AcDbEntity
8
1
100
AcDbLine
6
CONTINUOUS
62
5
10
46.400000
20
-204.249986
11
45.600000
21
-204.249986
0
LINE
5
553
100
AcDbEntity
8
1
100
AcDbLine
6
CONTINUOUS
62
5
10
46.400000
20
-204.249986
11
46.500000
21
-204.149986
0
LINE
5
554
100
AcDbEntity
8
1
100
AcDbLine
6
CONTINUOUS
62
5
10
49.800000
20
-203.799986
11
50.200000
21
-204.199986
0
LINE
5
555
100
AcDbEntity
8
1
100
AcDbLine
6
CONTINUOUS
62
5
10
46.900000
20
-195.499986
11
47.000000
21
-195.499986
0
POLYLINE
5
556
100
AcDbEntity
8
1
6
CONTINUOUS
62
5
100
AcDb2dPolyline
66
1
10
0.0
20
0.0
30
0.0
70
0
0
VERTEX
5
557
100
AcDbEntity
8
1
100
AcDbVertex
100
AcDb2dVertex
62
5
10
44.399989
20
-207.749994
0
VERTEX
5
558
100
AcDbEntity
8
1
100
AcDbVertex
100
AcDb2dVertex
62
5
10
44.342814
20
-207.755986
0
VERTEX
5
559
100
AcDbEntity
8
1
100
AcDbVertex
100
AcDb2dVertex
62
5
10
44.291847
20
-207.773986
0
VERTEX
5
55a
100
AcDbEntity
8
1
100
AcDbVertex
100
AcDb2dVertex
62
5
10
44.246877
20
-207.803986
0
VERTEX
5
55b
100
AcDbEntity
8
1
100
AcDbVertex
100
AcDb2dVertex
62
5
10
44.207904
20
-207.845986
0
VERTEX
5
55c
100
AcDbEntity
8
1
100
AcDbVertex
100
AcDb2dVertex
62
5
10
44.174928
20
-207.899986
0
VERTEX
5
55d
100
AcDbEntity
8
1
100
AcDbVertex
100
AcDb2dVertex
62
5
10
44.147949
20
-207.965986
0
VERTEX
5
55e
100
AcDbEntity
8
1
100
AcDbVertex
100
AcDb2dVertex
62
5
10
44.126967
20
-208.043986
0
VERTEX
5
55f
100
AcDbEntity
8
1
100
AcDbVertex
100
AcDb2dVertex
62
5
10
44.111981
20
-208.133986
0
VERTEX
5
560
100
AcDbEntity
8
1
100
AcDbVertex
100
AcDb2dVertex
62
5
10
44.102992
20
-208.235986
0
VERTEX
5
561
100
AcDbEntity
8
1
100
AcDbVertex
100
AcDb2dVertex
62
5
10
44.100000
20
-208.349986
0
SEQEND
5
562
100
AcDbEntity
8
1
0
LINE
5
563
100
AcDbEntity
8
1
100
AcDbLine
6
CONTINUOUS
62
5
10
45.600000
20
-208.349986
11
44.100000
21
-208.349986
0
LINE
5
564
100
AcDbEntity
8
1
100
AcDbLine
6
CONTINUOUS
62
5
10
46.900000
20
-207.499986
11
47.000000
21
-207.499986
0
LINE
5
565
100
AcDbEntity
8
1
100
AcDbLine
6
CONTINUOUS
62
5
10
45.500000
20
-210.999986
11
45.500000
21
-208.349986
0
ARC
5
566
100
AcDbEntity
8
1
100
AcDbCircle
6
CONTINUOUS
62
5
10
45.900000
20
-210.699986
40
0.300000
100
AcDbArc
50
-89.999999
51
0.000000
0
LINE
5
567
100
AcDbEntity
8
1
100
AcDbLine
6
CONTINUOUS
62
5
10
46.200000
20
-210.699986
11
46.200000
21
-208.799986
0
ARC
5
568
100
AcDbEntity
8
1
100
AcDbCircle
6
CONTINUOUS
62
5
10
45.900000
20
-208.799986
40
0.300000
100
AcDbArc
50
0.000000
51
89.999999
0
LINE
5
569
100
AcDbEntity
8
1
100
AcDbLine
6
CONTINUOUS
62
5
10
45.900000
20
-208.499986
11
45.600000
21
-208.499986
0
LINE
5
56a
100
AcDbEntity
8
1
100
AcDbLine
6
CONTINUOUS
62
5
10
45.600000
20
-210.999986
11
45.900000
21
-210.999986
0
ARC
5
56b
100
AcDbEntity
8
1
100
AcDbCircle
6
CONTINUOUS
62
5
10
46.100000
20
-208.799986
40
0.300000
100
AcDbArc
50
0.000000
51
89.999999
0
LINE
5
56c
100
AcDbEntity
8
1
100
AcDbLine
6
CONTINUOUS
62
5
10
46.100000
20
-208.499986
11
45.600000
21
-208.499986
0
LINE
5
56d
100
AcDbEntity
8
1
100
AcDbLine
6
CONTINUOUS
62
5
10
45.600000
20
-210.999986
11
46.100000
21
-210.999986
0
ARC
5
56e
100
AcDbEntity
8
1
100
AcDbCircle
6
CONTINUOUS
62
5
10
46.100000
20
-210.699986
40
0.300000
100
AcDbArc
50
-89.999999
51
0.000000
0
LINE
5
56f
100
AcDbEntity
8
1
100
AcDbLine
6
CONTINUOUS
62
5
10
46.400000
20
-210.699986
11
46.400000
21
-208.799986
0
LINE
5
570
100
AcDbEntity
8
1
100
AcDbLine
6
CONTINUOUS
62
5
10
44.399989
20
-207.749994
11
44.399989
21
-204.749993
0
LINE
5
571
100
AcDbEntity
8
1
100
AcDbLine
6
CONTINUOUS
62
5
10
44.100000
20
-208.349986
11
44.100000
21
-204.149986
0
ARC
5
572
100
AcDbEntity
8
1
100
AcDbCircle
6
CONTINUOUS
62
5
10
45.100000
20
-208.249986
40
0.500000
100
AcDbArc
50
0.000000
51
89.999999
0
LINE
5
573
100
AcDbEntity
8
1
100
AcDbLine
6
CONTINUOUS
62
5
10
45.600000
20
-208.249986
11
45.600000
21
-208.349986
0
LINE
5
574
100
AcDbEntity
8
1
100
AcDbLine
6
CONTINUOUS
62
5
10
45.600000
20
-204.249986
11
45.600000
21
-204.249986
0
ARC
5
575
100
AcDbEntity
8
1
100
AcDbCircle
6
CONTINUOUS
62
5
10
45.100000
20
-204.249986
40
0.500000
100
AcDbArc
50
-89.999999
51
0.000000
0
POLYLINE
5
576
100
AcDbEntity
8
1
6
CONTINUOUS
62
5
100
AcDb2dPolyline
66
1
10
0.0
20
0.0
30
0.0
70
0
0
VERTEX
5
577
100
AcDbEntity
8
1
100
AcDbVertex
100
AcDb2dVertex
62
5
10
45.100000
20
-204.749986
0
VERTEX
5
578
100
AcDbEntity
8
1
100
AcDbVertex
100
AcDb2dVertex
62
5
10
44.400000
20
-204.749986
0
VERTEX
5
579
100
AcDbEntity
8
1
100
AcDbVertex
100
AcDb2dVertex
62
5
10
44.400000
20
-207.749986
0
VERTEX
5
57a
100
AcDbEntity
8
1
100
AcDbVertex
100
AcDb2dVertex
62
5
10
45.100000
20
-207.749986
0
SEQEND
5
57b
100
AcDbEntity
8
1
0
LINE
5
57c
100
AcDbEntity
8
1
100
AcDbLine
6
CONTINUOUS
62
5
10
45.500000
20
-194.649986
11
45.500000
21
-185.349986
0
ARC
5
57d
100
AcDbEntity
8
1
100
AcDbCircle
6
CONTINUOUS
62
5
10
47.000000
20
-195.999986
40
0.500000
100
AcDbArc
50
89.999999
51
179.999998
0
POLYLINE
5
57e
100
AcDbEntity
8
1
6
CONTINUOUS
62
5
100
AcDb2dPolyline
66
1
10
0.0
20
0.0
30
0.0
70
0
0
VERTEX
5
57f
100
AcDbEntity
8
1
100
AcDbVertex
100
AcDb2dVertex
62
5
10
47.000000
20
-195.499986
0
VERTEX
5
580
100
AcDbEntity
8
1
100
AcDbVertex
100
AcDb2dVertex
62
5
10
47.000000
20
-195.499986
0
VERTEX
5
581
100
AcDbEntity
8
1
100
AcDbVertex
100
AcDb2dVertex
62
5
10
47.000000
20
-184.499986
0
VERTEX
5
582
100
AcDbEntity
8
1
100
AcDbVertex
100
AcDb2dVertex
62
5
10
47.000000
20
-184.499986
0
SEQEND
5
583
100
AcDbEntity
8
1
0
ARC
5
584
100
AcDbEntity
8
1
100
AcDbCircle
6
CONTINUOUS
62
5
10
47.000000
20
-183.999986
40
0.500000
100
AcDbArc
50
179.999998
51
-89.999999
0
POLYLINE
5
585
100
AcDbEntity
8
1
6
CONTINUOUS
62
5
100
AcDb2dPolyline
66
1
10
0.0
20
0.0
30
0.0
70
0
0
VERTEX
5
586
100
AcDbEntity
8
1
100
AcDbVertex
100
AcDb2dVertex
62
5
10
46.500000
20
-183.999986
0
VERTEX
5
587
100
AcDbEntity
8
1
100
AcDbVertex
100
AcDb2dVertex
62
5
10
46.500000
20
-181.149986
0
VERTEX
5
588
100
AcDbEntity
8
1
100
AcDbVertex
100
AcDb2dVertex
62
5
10
44.100000
20
-181.149986
0
SEQEND
5
589
100
AcDbEntity
8
1
0
POLYLINE
5
58a
100
AcDbEntity
8
1
6
CONTINUOUS
62
5
100
AcDb2dPolyline
66
1
10
0.0
20
0.0
30
0.0
70
0
0
VERTEX
5
58b
100
AcDbEntity
8
1
100
AcDbVertex
100
AcDb2dVertex
62
5
10
44.100000
20
-198.849986
0
VERTEX
5
58c
100
AcDbEntity
8
1
100
AcDbVertex
100
AcDb2dVertex
62
5
10
46.500000
20
-198.849986
0
VERTEX
5
58d
100
AcDbEntity
8
1
100
AcDbVertex
100
AcDb2dVertex
62
5
10
46.500000
20
-195.999986
0
SEQEND
5
58e
100
AcDbEntity
8
1
0
LINE
5
58f
100
AcDbEntity
8
1
100
AcDbLine
6
CONTINUOUS
62
5
10
45.600000
20
-198.749986
11
45.600000
21
-181.249986
0
ARC
5
590
100
AcDbEntity
8
1
100
AcDbCircle
6
CONTINUOUS
62
5
10
46.900000
20
-183.999986
40
0.500000
100
AcDbArc
50
179.999998
51
-89.999999
0
LINE
5
591
100
AcDbEntity
8
1
100
AcDbLine
6
CONTINUOUS
62
5
10
46.400000
20
-183.999986
11
46.400000
21
-181.249986
0
LINE
5
592
100
AcDbEntity
8
1
100
AcDbLine
6
CONTINUOUS
62
5
10
46.400000
20
-198.749986
11
46.400000
21
-195.999986
0
ARC
5
593
100
AcDbEntity
8
1
100
AcDbCircle
6
CONTINUOUS
62
5
10
46.900000
20
-195.999986
40
0.500000
100
AcDbArc
50
89.999999
51
179.999998
0
POLYLINE
5
594
100
AcDbEntity
8
1
6
CONTINUOUS
62
5
100
AcDb2dPolyline
66
1
10
0.0
20
0.0
30
0.0
70
0
0
VERTEX
5
595
100
AcDbEntity
8
1
100
AcDbVertex
100
AcDb2dVertex
62
5
10
46.900000
20
-195.499986
0
VERTEX
5
596
100
AcDbEntity
8
1
100
AcDbVertex
100
AcDb2dVertex
62
5
10
46.900000
20
-195.499986
0
VERTEX
5
597
100
AcDbEntity
8
1
100
AcDbVertex
100
AcDb2dVertex
62
5
10
46.900000
20
-184.499986
0
VERTEX
5
598
100
AcDbEntity
8
1
100
AcDbVertex
100
AcDb2dVertex
62
5
10
46.900000
20
-184.499986
0
SEQEND
5
599
100
AcDbEntity
8
1
0
LINE
5
59a
100
AcDbEntity
8
1
100
AcDbLine
6
CONTINUOUS
62
5
10
98.400000
20
-225.999986
11
98.300000
21
-226.099986
0
LINE
5
59b
100
AcDbEntity
8
1
100
AcDbLine
6
CONTINUOUS
62
5
10
84.900000
20
-225.999986
11
84.800000
21
-226.099986
0
LINE
5
59c
100
AcDbEntity
8
1
100
AcDbLine
6
CONTINUOUS
62
5
10
98.300000
20
-232.099986
11
98.400000
21
-232.199986
0
LINE
5
59d
100
AcDbEntity
8
1
100
AcDbLine
6
CONTINUOUS
62
5
10
84.800000
20
-232.099986
11
84.900000
21
-232.199986
0
POLYLINE
5
59e
100
AcDbEntity
8
1
6
CONTINUOUS
62
5
100
AcDb2dPolyline
66
1
10
0.0
20
0.0
30
0.0
70
0
0
VERTEX
5
59f
100
AcDbEntity
8
1
100
AcDbVertex
100
AcDb2dVertex
62
5
10
96.800000
20
-226.099986
0
VERTEX
5
5a0
100
AcDbEntity
8
1
100
AcDbVertex
100
AcDb2dVertex
62
5
10
96.800000
20
-230.699986
0
VERTEX
5
5a1
100
AcDbEntity
8
1
100
AcDbVertex
100
AcDb2dVertex
62
5
10
98.300000
20
-230.699986
0
SEQEND
5
5a2
100
AcDbEntity
8
1
0
POLYLINE
5
5a3
100
AcDbEntity
8
1
6
CONTINUOUS
62
5
100
AcDb2dPolyline
66
1
10
0.0
20
0.0
30
0.0
70
1
0
VERTEX
5
5a4
100
AcDbEntity
8
1
100
AcDbVertex
100
AcDb2dVertex
62
5
10
94.400000
20
-226.099986
0
VERTEX
5
5a5
100
AcDbEntity
8
1
100
AcDbVertex
100
AcDb2dVertex
62
5
10
94.400000
20
-232.099986
0
VERTEX
5
5a6
100
AcDbEntity
8
1
100
AcDbVertex
100
AcDb2dVertex
62
5
10
98.300000
20
-232.099986
0
VERTEX
5
5a7
100
AcDbEntity
8
1
100
AcDbVertex
100
AcDb2dVertex
62
5
10
98.300000
20
-226.099986
0
SEQEND
5
5a8
100
AcDbEntity
8
1
0
POLYLINE
5
5a9
100
AcDbEntity
8
1
6
CONTINUOUS
62
5
100
AcDb2dPolyline
66
1
10
0.0
20
0.0
30
0.0
70
1
0
VERTEX
5
5aa
100
AcDbEntity
8
1
100
AcDbVertex
100
AcDb2dVertex
62
5
10
98.400000
20
-225.999986
0
VERTEX
5
5ab
100
AcDbEntity
8
1
100
AcDbVertex
100
AcDb2dVertex
62
5
10
94.300000
20
-225.999986
0
VERTEX
5
5ac
100
AcDbEntity
8
1
100
AcDbVertex
100
AcDb2dVertex
62
5
10
94.300000
20
-232.199986
0
VERTEX
5
5ad
100
AcDbEntity
8
1
100
AcDbVertex
100
AcDb2dVertex
62
5
10
98.400000
20
-232.199986
0
VERTEX
5
5ae
100
AcDbEntity
8
1
100
AcDbVertex
100
AcDb2dVertex
62
5
10
98.400000
20
-225.999986
0
SEQEND
5
5af
100
AcDbEntity
8
1
0
LINE
5
5b0
100
AcDbEntity
8
1
100
AcDbLine
6
CONTINUOUS
62
5
10
80.800000
20
-225.999986
11
80.900000
21
-226.099986
0
LINE
5
5b1
100
AcDbEntity
8
1
100
AcDbLine
6
CONTINUOUS
62
5
10
80.900000
20
-232.099986
11
80.800000
21
-232.199986
0
POLYLINE
5
5b2
100
AcDbEntity
8
1
6
CONTINUOUS
62
5
100
AcDb2dPolyline
66
1
10
0.0
20
0.0
30
0.0
70
0
0
VERTEX
5
5b3
100
AcDbEntity
8
1
100
AcDbVertex
100
AcDb2dVertex
62
5
10
82.400000
20
-226.099986
0
VERTEX
5
5b4
100
AcDbEntity
8
1
100
AcDbVertex
100
AcDb2dVertex
62
5
10
82.400000
20
-230.699986
0
VERTEX
5
5b5
100
AcDbEntity
8
1
100
AcDbVertex
100
AcDb2dVertex
62
5
10
80.900000
20
-230.699986
0
SEQEND
5
5b6
100
AcDbEntity
8
1
0
POLYLINE
5
5b7
100
AcDbEntity
8
1
6
CONTINUOUS
62
5
100
AcDb2dPolyline
66
1
10
0.0
20
0.0
30
0.0
70
1
0
VERTEX
5
5b8
100
AcDbEntity
8
1
100
AcDbVertex
100
AcDb2dVertex
62
5
10
84.900000
20
-225.999986
0
VERTEX
5
5b9
100
AcDbEntity
8
1
100
AcDbVertex
100
AcDb2dVertex
62
5
10
80.800000
20
-225.999986
0
VERTEX
5
5ba
100
AcDbEntity
8
1
100
AcDbVertex
100
AcDb2dVertex
62
5
10
80.800000
20
-232.199986
0
VERTEX
5
5bb
100
AcDbEntity
8
1
100
AcDbVertex
100
AcDb2dVertex
62
5
10
84.900000
20
-232.199986
0
VERTEX
5
5bc
100
AcDbEntity
8
1
100
AcDbVertex
100
AcDb2dVertex
62
5
10
84.900000
20
-225.999986
0
SEQEND
5
5bd
100
AcDbEntity
8
1
0
POLYLINE
5
5be
100
AcDbEntity
8
1
6
CONTINUOUS
62
5
100
AcDb2dPolyline
66
1
10
0.0
20
0.0
30
0.0
70
1
0
VERTEX
5
5bf
100
AcDbEntity
8
1
100
AcDbVertex
100
AcDb2dVertex
62
5
10
80.900000
20
-232.099986
0
VERTEX
5
5c0
100
AcDbEntity
8
1
100
AcDbVertex
100
AcDb2dVertex
62
5
10
84.800000
20
-232.099986
0
VERTEX
5
5c1
100
AcDbEntity
8
1
100
AcDbVertex
100
AcDb2dVertex
62
5
10
84.800000
20
-226.099986
0
VERTEX
5
5c2
100
AcDbEntity
8
1
100
AcDbVertex
100
AcDb2dVertex
62
5
10
80.900000
20
-226.099986
0
SEQEND
5
5c3
100
AcDbEntity
8
1
0
POLYLINE
5
5c4
100
AcDbEntity
8
1
6
CONTINUOUS
62
5
100
AcDb2dPolyline
66
1
10
0.0
20
0.0
30
0.0
70
0
0
VERTEX
5
5c5
100
AcDbEntity
8
1
100
AcDbVertex
100
AcDb2dVertex
62
5
10
86.450000
20
-240.199986
0
VERTEX
5
5c6
100
AcDbEntity
8
1
100
AcDbVertex
100
AcDb2dVertex
62
5
10
86.704545
20
-240.899986
0
VERTEX
5
5c7
100
AcDbEntity
8
1
100
AcDbVertex
100
AcDb2dVertex
62
5
10
92.495455
20
-240.899986
0
VERTEX
5
5c8
100
AcDbEntity
8
1
100
AcDbVertex
100
AcDb2dVertex
62
5
10
92.750000
20
-240.199986
0
SEQEND
5
5c9
100
AcDbEntity
8
1
0
ARC
5
5ca
100
AcDbEntity
8
1
100
AcDbCircle
6
CONTINUOUS
62
5
10
87.450000
20
-242.499987
40
0.600000
100
AcDbArc
50
179.999998
51
-89.999999
0
LINE
5
5cb
100
AcDbEntity
8
1
100
AcDbLine
6
CONTINUOUS
62
5
10
87.450000
20
-243.099987
11
91.750000
21
-243.099987
0
ARC
5
5cc
100
AcDbEntity
8
1
100
AcDbCircle
6
CONTINUOUS
62
5
10
91.750000
20
-242.499987
40
0.600000
100
AcDbArc
50
-89.999999
51
0.000000
0
POLYLINE
5
5cd
100
AcDbEntity
8
1
6
CONTINUOUS
62
5
100
AcDb2dPolyline
66
1
10
0.0
20
0.0
30
0.0
70
0
0
VERTEX
5
5ce
100
AcDbEntity
8
1
100
AcDbVertex
100
AcDb2dVertex
62
5
10
92.350000
20
-242.499987
0
VERTEX
5
5cf
100
AcDbEntity
8
1
100
AcDbVertex
100
AcDb2dVertex
62
5
10
92.350000
20
-240.899986
0
VERTEX
5
5d0
100
AcDbEntity
8
1
100
AcDbVertex
100
AcDb2dVertex
62
5
10
86.850000
20
-240.899986
0
VERTEX
5
5d1
100
AcDbEntity
8
1
100
AcDbVertex
100
AcDb2dVertex
62
5
10
86.850000
20
-242.499987
0
SEQEND
5
5d2
100
AcDbEntity
8
1
0
ARC
5
5d3
100
AcDbEntity
8
1
100
AcDbCircle
6
CONTINUOUS
62
5
10
91.750000
20
-242.499987
40
1.000000
100
AcDbArc
50
-89.999999
51
0.000000
0
LINE
5
5d4
100
AcDbEntity
8
1
100
AcDbLine
6
CONTINUOUS
62
5
10
92.750000
20
-242.499987
11
92.750000
21
-240.199986
0
POLYLINE
5
5d5
100
AcDbEntity
8
1
6
CONTINUOUS
62
5
100
AcDb2dPolyline
66
1
10
0.0
20
0.0
30
0.0
70
0
0
VERTEX
5
5d6
100
AcDbEntity
8
1
100
AcDbVertex
100
AcDb2dVertex
62
5
10
92.750000
20
-240.199986
0
VERTEX
5
5d7
100
AcDbEntity
8
1
100
AcDbVertex
100
AcDb2dVertex
62
5
10
86.450000
20
-240.199986
0
VERTEX
5
5d8
100
AcDbEntity
8
1
100
AcDbVertex
100
AcDb2dVertex
62
5
10
86.450000
20
-242.499987
0
SEQEND
5
5d9
100
AcDbEntity
8
1
0
ARC
5
5da
100
AcDbEntity
8
1
100
AcDbCircle
6
CONTINUOUS
62
5
10
87.450000
20
-242.499987
40
1.000000
100
AcDbArc
50
179.999998
51
-89.999999
0
LINE
5
5db
100
AcDbEntity
8
1
100
AcDbLine
6
CONTINUOUS
62
5
10
87.450000
20
-243.499987
11
91.750000
21
-243.499987
0
ARC
5
5dc
100
AcDbEntity
8
1
100
AcDbCircle
6
CONTINUOUS
62
5
10
112.600000
20
-232.099986
40
2.500000
100
AcDbArc
50
-135.113817
51
-44.886181
0
ARC
5
5dd
100
AcDbEntity
8
1
100
AcDbCircle
6
CONTINUOUS
62
5
10
112.600000
20
-189.999986
40
43.900000
100
AcDbArc
50
-95.291079
51
-92.312394
0
ARC
5
5de
100
AcDbEntity
8
1
100
AcDbCircle
6
CONTINUOUS
62
5
10
112.600000
20
-189.999986
40
43.900000
100
AcDbArc
50
-87.687604
51
-84.708919
0
ARC
5
5df
100
AcDbEntity
8
1
100
AcDbCircle
6
CONTINUOUS
62
5
10
116.450000
20
-231.572092
40
2.150000
100
AcDbArc
50
-84.708919
51
95.291079
0
ARC
5
5e0
100
AcDbEntity
8
1
100
AcDbCircle
6
CONTINUOUS
62
5
10
112.600000
20
-189.999986
40
39.600000
100
AcDbArc
50
-95.291079
51
-84.708919
0
ARC
5
5e1
100
AcDbEntity
8
1
100
AcDbCircle
6
CONTINUOUS
62
5
10
108.750000
20
-231.572092
40
2.150000
100
AcDbArc
50
84.708919
51
-95.291079
0
ARC
5
5e2
100
AcDbEntity
8
1
100
AcDbCircle
6
CONTINUOUS
62
5
10
112.600000
20
-189.999986
40
44.200000
100
AcDbArc
50
-95.291079
51
-91.801760
0
ARC
5
5e3
100
AcDbEntity
8
1
100
AcDbCircle
6
CONTINUOUS
62
5
10
112.600000
20
-189.999986
40
44.200000
100
AcDbArc
50
-88.198238
51
-84.708919
0
LINE
5
5e4
100
AcDbEntity
8
1
100
AcDbLine
6
CONTINUOUS
62
5
10
116.675928
20
-234.011653
11
116.675928
21
-234.011653
0
ARC
5
5e5
100
AcDbEntity
8
1
100
AcDbCircle
6
CONTINUOUS
62
5
10
116.450000
20
-231.572092
40
2.450000
100
AcDbArc
50
-84.708919
51
95.291079
0
LINE
5
5e6
100
AcDbEntity
8
1
100
AcDbLine
6
CONTINUOUS
62
5
10
116.224072
20
-229.132532
11
116.224072
21
-229.132532
0
ARC
5
5e7
100
AcDbEntity
8
1
100
AcDbCircle
6
CONTINUOUS
62
5
10
112.600000
20
-189.999986
40
39.300000
100
AcDbArc
50
-95.291079
51
-84.708919
0
LINE
5
5e8
100
AcDbEntity
8
1
100
AcDbLine
6
CONTINUOUS
62
5
10
108.975928
20
-229.132532
11
108.975928
21
-229.132532
0
ARC
5
5e9
100
AcDbEntity
8
1
100
AcDbCircle
6
CONTINUOUS
62
5
10
108.750000
20
-231.572092
40
2.450000
100
AcDbArc
50
84.708919
51
-95.291079
0
LINE
5
5ea
100
AcDbEntity
8
1
100
AcDbLine
6
CONTINUOUS
62
5
10
108.524072
20
-234.011653
11
108.524072
21
-234.011653
0
ARC
5
5eb
100
AcDbEntity
8
1
100
AcDbCircle
6
CONTINUOUS
62
5
10
102.100000
20
-235.249986
40
0.500000
100
AcDbArc
50
-89.999999
51
0.000000
0
LINE
5
5ec
100
AcDbEntity
8
1
100
AcDbLine
6
CONTINUOUS
62
5
10
102.100000
20
-235.749986
11
99.600000
21
-235.749986
0
ARC
5
5ed
100
AcDbEntity
8
1
100
AcDbCircle
6
CONTINUOUS
62
5
10
99.600000
20
-235.249986
40
0.500000
100
AcDbArc
50
179.999998
51
-89.999999
0
LINE
5
5ee
100
AcDbEntity
8
1
100
AcDbLine
6
CONTINUOUS
62
5
10
99.100000
20
-235.249986
11
99.100000
21
-224.799986
0
ARC
5
5ef
100
AcDbEntity
8
1
100
AcDbCircle
6
CONTINUOUS
62
5
10
98.800000
20
-224.799986
40
0.300000
100
AcDbArc
50
0.000000
51
89.999999
0
ARC
5
5f0
100
AcDbEntity
8
1
100
AcDbCircle
6
CONTINUOUS
62
5
10
102.900000
20
-224.799986
40
0.300000
100
AcDbArc
50
89.999999
51
179.999998
0
LINE
5
5f1
100
AcDbEntity
8
1
100
AcDbLine
6
CONTINUOUS
62
5
10
102.600000
20
-224.799986
11
102.600000
21
-235.249986
0
ARC
5
5f2
100
AcDbEntity
8
1
100
AcDbCircle
6
CONTINUOUS
62
5
10
98.300000
20
-224.799986
40
0.300000
100
AcDbArc
50
-0.000000
51
89.999999
0
LINE
5
5f3
100
AcDbEntity
8
1
100
AcDbLine
6
CONTINUOUS
62
5
10
98.600000
20
-224.799986
11
98.600000
21
-235.249986
0
ARC
5
5f4
100
AcDbEntity
8
1
100
AcDbCircle
6
CONTINUOUS
62
5
10
99.600000
20
-235.249986
40
1.000000
100
AcDbArc
50
179.999998
51
-89.999999
0
LINE
5
5f5
100
AcDbEntity
8
1
100
AcDbLine
6
CONTINUOUS
62
5
10
99.600000
20
-236.249986
11
102.100000
21
-236.249986
0
ARC
5
5f6
100
AcDbEntity
8
1
100
AcDbCircle
6
CONTINUOUS
62
5
10
102.100000
20
-235.249986
40
1.000000
100
AcDbArc
50
-89.999999
51
0.000000
0
LINE
5
5f7
100
AcDbEntity
8
1
100
AcDbLine
6
CONTINUOUS
62
5
10
103.100000
20
-235.249986
11
103.100000
21
-224.799986
0
ARC
5
5f8
100
AcDbEntity
8
1
100
AcDbCircle
6
CONTINUOUS
62
5
10
103.400000
20
-224.799986
40
0.300000
100
AcDbArc
50
89.999999
51
179.999998
0
LINE
5
5f9
100
AcDbEntity
8
1
100
AcDbLine
6
CONTINUOUS
62
5
10
98.300000
20
-224.499986
11
98.300000
21
-224.499986
0
ARC
5
5fa
100
AcDbEntity
8
1
100
AcDbCircle
6
CONTINUOUS
62
5
10
80.900000
20
-224.799986
40
0.300000
100
AcDbArc
50
89.999999
51
179.999998
0
LINE
5
5fb
100
AcDbEntity
8
1
100
AcDbLine
6
CONTINUOUS
62
5
10
80.600000
20
-234.791887
11
80.600000
21
-224.799986
0
LINE
5
5fc
100
AcDbEntity
8
1
100
AcDbLine
6
CONTINUOUS
62
5
10
44.100000
20
-217.649986
11
44.099989
21
-221.850002
0
ARC
5
5fd
100
AcDbEntity
8
1
100
AcDbCircle
6
CONTINUOUS
62
5
10
45.100000
20
-217.749986
40
0.500000
100
AcDbArc
50
-89.999999
51
0.000000
0
LINE
5
5fe
100
AcDbEntity
8
1
100
AcDbLine
6
CONTINUOUS
62
5
10
45.600000
20
-217.749986
11
45.600000
21
-217.649986
0
LINE
5
5ff
100
AcDbEntity
8
1
100
AcDbLine
6
CONTINUOUS
62
5
10
45.600000
20
-221.749986
11
45.600000
21
-221.749986
0
ARC
5
600
100
AcDbEntity
8
1
100
AcDbCircle
6
CONTINUOUS
62
5
10
45.100000
20
-221.749986
40
0.500000
100
AcDbArc
50
0.000000
51
89.999999
0
POLYLINE
5
601
100
AcDbEntity
8
1
6
CONTINUOUS
62
5
100
AcDb2dPolyline
66
1
10
0.0
20
0.0
30
0.0
70
0
0
VERTEX
5
602
100
AcDbEntity
8
1
100
AcDbVertex
100
AcDb2dVertex
62
5
10
45.100000
20
-221.249986
0
VERTEX
5
603
100
AcDbEntity
8
1
100
AcDbVertex
100
AcDb2dVertex
62
5
10
44.400000
20
-221.249986
0
VERTEX
5
604
100
AcDbEntity
8
1
100
AcDbVertex
100
AcDb2dVertex
62
5
10
44.400000
20
-218.249986
0
VERTEX
5
605
100
AcDbEntity
8
1
100
AcDbVertex
100
AcDb2dVertex
62
5
10
45.100000
20
-218.249986
0
SEQEND
5
606
100
AcDbEntity
8
1
0
POLYLINE
5
607
100
AcDbEntity
8
1
6
CONTINUOUS
62
5
100
AcDb2dPolyline
66
1
10
0.0
20
0.0
30
0.0
70
0
0
VERTEX
5
608
100
AcDbEntity
8
1
100
AcDbVertex
100
AcDb2dVertex
62
5
10
44.400000
20
-221.249986
0
VERTEX
5
609
100
AcDbEntity
8
1
100
AcDbVertex
100
AcDb2dVertex
62
5
10
44.342995
20
-221.255955
0
VERTEX
5
60a
100
AcDbEntity
8
1
100
AcDbVertex
100
AcDb2dVertex
62
5
10
44.291999
20
-221.273956
0
VERTEX
5
60b
100
AcDbEntity
8
1
100
AcDbVertex
100
AcDb2dVertex
62
5
10
44.247002
20
-221.303956
0
VERTEX
5
60c
100
AcDbEntity
8
1
100
AcDbVertex
100
AcDb2dVertex
62
5
10
44.208004
20
-221.345958
0
VERTEX
5
60d
100
AcDbEntity
8
1
100
AcDbVertex
100
AcDb2dVertex
62
5
10
44.175005
20
-221.399959
0
VERTEX
5
60e
100
AcDbEntity
8
1
100
AcDbVertex
100
AcDb2dVertex
62
5
10
44.148004
20
-221.465961
0
VERTEX
5
60f
100
AcDbEntity
8
1
100
AcDbVertex
100
AcDb2dVertex
62
5
10
44.127002
20
-221.543963
0
VERTEX
5
610
100
AcDbEntity
8
1
100
AcDbVertex
100
AcDb2dVertex
62
5
10
44.111999
20
-221.633965
0
VERTEX
5
611
100
AcDbEntity
8
1
100
AcDbVertex
100
AcDb2dVertex
62
5
10
44.102994
20
-221.735967
0
VERTEX
5
612
100
AcDbEntity
8
1
100
AcDbVertex
100
AcDb2dVertex
62
5
10
44.099989
20
-221.850002
0
SEQEND
5
613
100
AcDbEntity
8
1
0
LINE
5
614
100
AcDbEntity
8
1
100
AcDbLine
6
CONTINUOUS
62
5
10
45.600000
20
-221.749986
11
44.099989
21
-221.849986
0
POLYLINE
5
615
100
AcDbEntity
8
1
6
CONTINUOUS
62
5
100
AcDb2dPolyline
66
1
10
0.0
20
0.0
30
0.0
70
0
0
VERTEX
5
616
100
AcDbEntity
8
1
100
AcDbVertex
100
AcDb2dVertex
62
5
10
44.399989
20
-218.249978
0
VERTEX
5
617
100
AcDbEntity
8
1
100
AcDbVertex
100
AcDb2dVertex
62
5
10
44.342814
20
-218.243987
0
VERTEX
5
618
100
AcDbEntity
8
1
100
AcDbVertex
100
AcDb2dVertex
62
5
10
44.291847
20
-218.225987
0
VERTEX
5
619
100
AcDbEntity
8
1
100
AcDbVertex
100
AcDb2dVertex
62
5
10
44.246877
20
-218.195986
0
VERTEX
5
61a
100
AcDbEntity
8
1
100
AcDbVertex
100
AcDb2dVertex
62
5
10
44.207904
20
-218.153986
0
VERTEX
5
61b
100
AcDbEntity
8
1
100
AcDbVertex
100
AcDb2dVertex
62
5
10
44.174928
20
-218.099986
0
VERTEX
5
61c
100
AcDbEntity
8
1
100
AcDbVertex
100
AcDb2dVertex
62
5
10
44.147949
20
-218.033986
0
VERTEX
5
61d
100
AcDbEntity
8
1
100
AcDbVertex
100
AcDb2dVertex
62
5
10
44.126967
20
-217.955986
0
VERTEX
5
61e
100
AcDbEntity
8
1
100
AcDbVertex
100
AcDb2dVertex
62
5
10
44.111981
20
-217.865986
0
VERTEX
5
61f
100
AcDbEntity
8
1
100
AcDbVertex
100
AcDb2dVertex
62
5
10
44.102992
20
-217.763986
0
VERTEX
5
620
100
AcDbEntity
8
1
100
AcDbVertex
100
AcDb2dVertex
62
5
10
44.100000
20
-217.649986
0
SEQEND
5
621
100
AcDbEntity
8
1
0
LINE
5
622
100
AcDbEntity
8
1
100
AcDbLine
6
CONTINUOUS
62
5
10
45.600000
20
-217.649986
11
44.100000
21
-217.649986
0
LINE
5
623
100
AcDbEntity
8
1
100
AcDbLine
6
CONTINUOUS
62
5
10
45.500000
20
-217.649986
11
45.500000
21
-214.999986
0
ARC
5
624
100
AcDbEntity
8
1
100
AcDbCircle
6
CONTINUOUS
62
5
10
45.900000
20
-217.199986
40
0.300000
100
AcDbArc
50
-89.999999
51
0.000000
0
LINE
5
625
100
AcDbEntity
8
1
100
AcDbLine
6
CONTINUOUS
62
5
10
46.200000
20
-217.199986
11
46.200000
21
-215.299986
0
ARC
5
626
100
AcDbEntity
8
1
100
AcDbCircle
6
CONTINUOUS
62
5
10
45.900000
20
-215.299986
40
0.300000
100
AcDbArc
50
0.000000
51
89.999999
0
LINE
5
627
100
AcDbEntity
8
1
100
AcDbLine
6
CONTINUOUS
62
5
10
45.900000
20
-214.999986
11
45.600000
21
-214.999986
0
LINE
5
628
100
AcDbEntity
8
1
100
AcDbLine
6
CONTINUOUS
62
5
10
45.600000
20
-217.499986
11
45.900000
21
-217.499986
0
ARC
5
629
100
AcDbEntity
8
1
100
AcDbCircle
6
CONTINUOUS
62
5
10
46.100000
20
-215.299986
40
0.300000
100
AcDbArc
50
0.000000
51
89.999999
0
LINE
5
62a
100
AcDbEntity
8
1
100
AcDbLine
6
CONTINUOUS
62
5
10
46.100000
20
-214.999986
11
45.600000
21
-214.999986
0
LINE
5
62b
100
AcDbEntity
8
1
100
AcDbLine
6
CONTINUOUS
62
5
10
45.600000
20
-217.499986
11
46.100000
21
-217.499986
0
ARC
5
62c
100
AcDbEntity
8
1
100
AcDbCircle
6
CONTINUOUS
62
5
10
46.100000
20
-217.199986
40
0.300000
100
AcDbArc
50
-89.999999
51
0.000000
0
LINE
5
62d
100
AcDbEntity
8
1
100
AcDbLine
6
CONTINUOUS
62
5
10
46.400000
20
-217.199986
11
46.400000
21
-215.299986
0
LINE
5
62e
100
AcDbEntity
8
1
100
AcDbLine
6
CONTINUOUS
62
5
10
52.400000
20
-225.999986
11
52.300000
21
-226.099986
0
LINE
5
62f
100
AcDbEntity
8
1
100
AcDbLine
6
CONTINUOUS
62
5
10
48.300000
20
-225.999986
11
48.400000
21
-226.099986
0
LINE
5
630
100
AcDbEntity
8
1
100
AcDbLine
6
CONTINUOUS
62
5
10
46.400000
20
-221.749986
11
45.600000
21
-221.749986
0
LINE
5
631
100
AcDbEntity
8
1
100
AcDbLine
6
CONTINUOUS
62
5
10
46.400000
20
-221.749986
11
46.500000
21
-221.849986
0
LINE
5
632
100
AcDbEntity
8
1
100
AcDbLine
6
CONTINUOUS
62
5
10
50.200000
20
-221.799986
11
49.800000
21
-222.199986
0
LINE
5
633
100
AcDbEntity
8
1
100
AcDbLine
6
CONTINUOUS
62
5
10
46.900000
20
-218.499986
11
47.000000
21
-218.499986
0
LINE
5
634
100
AcDbEntity
8
1
100
AcDbLine
6
CONTINUOUS
62
5
10
52.300000
20
-232.099986
11
52.400000
21
-232.199986
0
LINE
5
635
100
AcDbEntity
8
1
100
AcDbLine
6
CONTINUOUS
62
5
10
48.400000
20
-232.099986
11
48.300000
21
-232.199986
0
POLYLINE
5
636
100
AcDbEntity
8
1
6
CONTINUOUS
62
5
100
AcDb2dPolyline
66
1
10
0.0
20
0.0
30
0.0
70
0
0
VERTEX
5
637
100
AcDbEntity
8
1
100
AcDbVertex
100
AcDb2dVertex
62
5
10
50.800000
20
-226.099986
0
VERTEX
5
638
100
AcDbEntity
8
1
100
AcDbVertex
100
AcDb2dVertex
62
5
10
50.800000
20
-230.699986
0
VERTEX
5
639
100
AcDbEntity
8
1
100
AcDbVertex
100
AcDb2dVertex
62
5
10
52.300000
20
-230.699986
0
SEQEND
5
63a
100
AcDbEntity
8
1
0
POLYLINE
5
63b
100
AcDbEntity
8
1
6
CONTINUOUS
62
5
100
AcDb2dPolyline
66
1
10
0.0
20
0.0
30
0.0
70
1
0
VERTEX
5
63c
100
AcDbEntity
8
1
100
AcDbVertex
100
AcDb2dVertex
62
5
10
52.400000
20
-225.999986
0
VERTEX
5
63d
100
AcDbEntity
8
1
100
AcDbVertex
100
AcDb2dVertex
62
5
10
48.300000
20
-225.999986
0
VERTEX
5
63e
100
AcDbEntity
8
1
100
AcDbVertex
100
AcDb2dVertex
62
5
10
48.300000
20
-232.199986
0
VERTEX
5
63f
100
AcDbEntity
8
1
100
AcDbVertex
100
AcDb2dVertex
62
5
10
52.400000
20
-232.199986
0
VERTEX
5
640
100
AcDbEntity
8
1
100
AcDbVertex
100
AcDb2dVertex
62
5
10
52.400000
20
-225.999986
0
SEQEND
5
641
100
AcDbEntity
8
1
0
POLYLINE
5
642
100
AcDbEntity
8
1
6
CONTINUOUS
62
5
100
AcDb2dPolyline
66
1
10
0.0
20
0.0
30
0.0
70
1
0
VERTEX
5
643
100
AcDbEntity
8
1
100
AcDbVertex
100
AcDb2dVertex
62
5
10
48.400000
20
-226.099986
0
VERTEX
5
644
100
AcDbEntity
8
1
100
AcDbVertex
100
AcDb2dVertex
62
5
10
48.400000
20
-232.099986
0
VERTEX
5
645
100
AcDbEntity
8
1
100
AcDbVertex
100
AcDb2dVertex
62
5
10
52.300000
20
-232.099986
0
VERTEX
5
646
100
AcDbEntity
8
1
100
AcDbVertex
100
AcDb2dVertex
62
5
10
52.300000
20
-226.099986
0
SEQEND
5
647
100
AcDbEntity
8
1
0
POLYLINE
5
648
100
AcDbEntity
8
1
6
CONTINUOUS
62
5
100
AcDb2dPolyline
66
1
10
0.0
20
0.0
30
0.0
70
0
0
VERTEX
5
649
100
AcDbEntity
8
1
100
AcDbVertex
100
AcDb2dVertex
62
5
10
43.500000
20
-237.099986
0
VERTEX
5
64a
100
AcDbEntity
8
1
100
AcDbVertex
100
AcDb2dVertex
62
5
10
42.800000
20
-237.354532
0
VERTEX
5
64b
100
AcDbEntity
8
1
100
AcDbVertex
100
AcDb2dVertex
62
5
10
42.800000
20
-243.145441
0
VERTEX
5
64c
100
AcDbEntity
8
1
100
AcDbVertex
100
AcDb2dVertex
62
5
10
43.500000
20
-243.399986
0
SEQEND
5
64d
100
AcDbEntity
8
1
0
ARC
5
64e
100
AcDbEntity
8
1
100
AcDbCircle
6
CONTINUOUS
62
5
10
41.200000
20
-238.099986
40
0.600000
100
AcDbArc
50
89.999999
51
179.999998
0
LINE
5
64f
100
AcDbEntity
8
1
100
AcDbLine
6
CONTINUOUS
62
5
10
41.200000
20
-237.499986
11
42.800000
21
-237.499986
0
LINE
5
650
100
AcDbEntity
8
1
100
AcDbLine
6
CONTINUOUS
62
5
10
42.800000
20
-242.999986
11
41.200000
21
-242.999986
0
ARC
5
651
100
AcDbEntity
8
1
100
AcDbCircle
6
CONTINUOUS
62
5
10
41.200000
20
-242.399986
40
0.600000
100
AcDbArc
50
179.999998
51
-89.999999
0
LINE
5
652
100
AcDbEntity
8
1
100
AcDbLine
6
CONTINUOUS
62
5
10
40.600000
20
-242.399986
11
40.600000
21
-238.099986
0
ARC
5
653
100
AcDbEntity
8
1
100
AcDbCircle
6
CONTINUOUS
62
5
10
41.200000
20
-242.399986
40
1.000000
100
AcDbArc
50
179.999998
51
-89.999999
0
LINE
5
654
100
AcDbEntity
8
1
100
AcDbLine
6
CONTINUOUS
62
5
10
40.200000
20
-242.399986
11
40.200000
21
-238.099986
0
ARC
5
655
100
AcDbEntity
8
1
100
AcDbCircle
6
CONTINUOUS
62
5
10
41.200000
20
-238.099986
40
1.000000
100
AcDbArc
50
89.999999
51
179.999998
0
POLYLINE
5
656
100
AcDbEntity
8
1
6
CONTINUOUS
62
5
100
AcDb2dPolyline
66
1
10
0.0
20
0.0
30
0.0
70
0
0
VERTEX
5
657
100
AcDbEntity
8
1
100
AcDbVertex
100
AcDb2dVertex
62
5
10
41.200000
20
-237.099986
0
VERTEX
5
658
100
AcDbEntity
8
1
100
AcDbVertex
100
AcDb2dVertex
62
5
10
43.500000
20
-237.099986
0
VERTEX
5
659
100
AcDbEntity
8
1
100
AcDbVertex
100
AcDb2dVertex
62
5
10
43.500000
20
-243.399986
0
VERTEX
5
65a
100
AcDbEntity
8
1
100
AcDbVertex
100
AcDb2dVertex
62
5
10
41.200000
20
-243.399986
0
SEQEND
5
65b
100
AcDbEntity
8
1
0
ARC
5
65c
100
AcDbEntity
8
1
100
AcDbCircle
6
CONTINUOUS
62
5
10
66.600000
20
-232.099986
40
2.500000
100
AcDbArc
50
-135.113817
51
-44.886181
0
ARC
5
65d
100
AcDbEntity
8
1
100
AcDbCircle
6
CONTINUOUS
62
5
10
62.750000
20
-231.572092
40
4.500000
100
AcDbArc
50
84.708919
51
-95.291079
0
LINE
5
65e
100
AcDbEntity
8
1
100
AcDbLine
6
CONTINUOUS
62
5
10
62.335030
20
-236.052918
11
62.335030
21
-236.052918
0
ARC
5
65f
100
AcDbEntity
8
1
100
AcDbCircle
6
CONTINUOUS
62
5
10
66.600000
20
-189.999986
40
46.250000
100
AcDbArc
50
-95.291079
51
-84.708919
0
LINE
5
660
100
AcDbEntity
8
1
100
AcDbLine
6
CONTINUOUS
62
5
10
70.864970
20
-236.052918
11
70.864970
21
-236.052918
0
ARC
5
661
100
AcDbEntity
8
1
100
AcDbCircle
6
CONTINUOUS
62
5
10
70.450000
20
-231.572092
40
4.500000
100
AcDbArc
50
-84.708919
51
95.291079
0
LINE
5
662
100
AcDbEntity
8
1
100
AcDbLine
6
CONTINUOUS
62
5
10
70.035030
20
-227.091266
11
70.035030
21
-227.091266
0
ARC
5
663
100
AcDbEntity
8
1
100
AcDbCircle
6
CONTINUOUS
62
5
10
66.600000
20
-189.999986
40
37.250000
100
AcDbArc
50
-95.291079
51
-84.708919
0
LINE
5
664
100
AcDbEntity
8
1
100
AcDbLine
6
CONTINUOUS
62
5
10
63.164970
20
-227.091266
11
63.164970
21
-227.091266
0
ARC
5
665
100
AcDbEntity
8
1
100
AcDbCircle
6
CONTINUOUS
62
5
10
66.600000
20
-189.999986
40
43.900000
100
AcDbArc
50
-95.291079
51
-92.312394
0
ARC
5
666
100
AcDbEntity
8
1
100
AcDbCircle
6
CONTINUOUS
62
5
10
66.600000
20
-189.999986
40
43.900000
100
AcDbArc
50
-87.687604
51
-84.708919
0
ARC
5
667
100
AcDbEntity
8
1
100
AcDbCircle
6
CONTINUOUS
62
5
10
70.450000
20
-231.572092
40
2.150000
100
AcDbArc
50
-84.708919
51
95.291079
0
ARC
5
668
100
AcDbEntity
8
1
100
AcDbCircle
6
CONTINUOUS
62
5
10
66.600000
20
-189.999986
40
39.600000
100
AcDbArc
50
-95.291079
51
-84.708919
0
ARC
5
669
100
AcDbEntity
8
1
100
AcDbCircle
6
CONTINUOUS
62
5
10
62.750000
20
-231.572092
40
2.150000
100
AcDbArc
50
84.708919
51
-95.291079
0
ARC
5
66a
100
AcDbEntity
8
1
100
AcDbCircle
6
CONTINUOUS
62
5
10
66.600000
20
-189.999986
40
44.200000
100
AcDbArc
50
-95.291079
51
-91.801760
0
ARC
5
66b
100
AcDbEntity
8
1
100
AcDbCircle
6
CONTINUOUS
62
5
10
66.600000
20
-189.999986
40
44.200000
100
AcDbArc
50
-88.198238
51
-84.708919
0
LINE
5
66c
100
AcDbEntity
8
1
100
AcDbLine
6
CONTINUOUS
62
5
10
70.675928
20
-234.011653
11
70.675928
21
-234.011653
0
ARC
5
66d
100
AcDbEntity
8
1
100
AcDbCircle
6
CONTINUOUS
62
5
10
70.450000
20
-231.572092
40
2.450000
100
AcDbArc
50
-84.708919
51
95.291079
0
LINE
5
66e
100
AcDbEntity
8
1
100
AcDbLine
6
CONTINUOUS
62
5
10
70.224072
20
-229.132532
11
70.224072
21
-229.132532
0
ARC
5
66f
100
AcDbEntity
8
1
100
AcDbCircle
6
CONTINUOUS
62
5
10
66.600000
20
-189.999986
40
39.300000
100
AcDbArc
50
-95.291079
51
-84.708919
0
LINE
5
670
100
AcDbEntity
8
1
100
AcDbLine
6
CONTINUOUS
62
5
10
62.975928
20
-229.132532
11
62.975928
21
-229.132532
0
ARC
5
671
100
AcDbEntity
8
1
100
AcDbCircle
6
CONTINUOUS
62
5
10
62.750000
20
-231.572092
40
2.450000
100
AcDbArc
50
84.708919
51
-95.291079
0
LINE
5
672
100
AcDbEntity
8
1
100
AcDbLine
6
CONTINUOUS
62
5
10
62.524072
20
-234.011653
11
62.524072
21
-234.011653
0
ARC
5
673
100
AcDbEntity
8
1
100
AcDbCircle
6
CONTINUOUS
62
5
10
76.300000
20
-224.799986
40
0.300000
100
AcDbArc
50
-0.000000
51
89.999999
0
LINE
5
674
100
AcDbEntity
8
1
100
AcDbLine
6
CONTINUOUS
62
5
10
76.600000
20
-224.799986
11
76.600000
21
-235.377487
0
ARC
5
675
100
AcDbEntity
8
1
100
AcDbCircle
6
CONTINUOUS
62
5
10
75.800000
20
-224.799986
40
0.300000
100
AcDbArc
50
0.000000
51
89.999999
0
LINE
5
676
100
AcDbEntity
8
1
100
AcDbLine
6
CONTINUOUS
62
5
10
76.100000
20
-235.854235
11
76.100000
21
-224.799986
0
ARC
5
677
100
AcDbEntity
8
1
100
AcDbCircle
6
CONTINUOUS
62
5
10
80.400000
20
-224.799986
40
0.300000
100
AcDbArc
50
89.999999
51
-179.999998
0
LINE
5
678
100
AcDbEntity
8
1
100
AcDbLine
6
CONTINUOUS
62
5
10
80.100000
20
-224.799986
11
80.100000
21
-234.627003
0
CIRCLE
5
679
100
AcDbEntity
8
1
100
AcDbCircle
6
CONTINUOUS
62
5
10
79.100000
20
-238.499986
40
2.250000
0
CIRCLE
5
67a
100
AcDbEntity
8
1
100
AcDbCircle
6
CONTINUOUS
62
5
10
79.100000
20
-238.499986
40
4.000000
0
CIRCLE
5
67b
100
AcDbEntity
8
1
100
AcDbCircle
6
CONTINUOUS
62
5
10
79.100000
20
-238.499986
40
3.450000
0
POLYLINE
5
67c
100
AcDbEntity
8
1
6
CONTINUOUS
62
5
100
AcDb2dPolyline
66
1
10
0.0
20
0.0
30
0.0
70
0
0
VERTEX
5
67d
100
AcDbEntity
8
1
100
AcDbVertex
100
AcDb2dVertex
62
5
10
45.600000
20
-210.999986
0
VERTEX
5
67e
100
AcDbEntity
8
1
100
AcDbVertex
100
AcDb2dVertex
62
5
10
43.950000
20
-210.999986
0
VERTEX
5
67f
100
AcDbEntity
8
1
100
AcDbVertex
100
AcDb2dVertex
62
5
10
43.950000
20
-214.999986
0
VERTEX
5
680
100
AcDbEntity
8
1
100
AcDbVertex
100
AcDb2dVertex
62
5
10
45.600000
20
-214.999986
0
SEQEND
5
681
100
AcDbEntity
8
1
0
ARC
5
682
100
AcDbEntity
8
1
100
AcDbCircle
6
CONTINUOUS
62
5
10
42.650000
20
-211.499986
40
0.500000
100
AcDbArc
50
89.999999
51
179.999998
0
POLYLINE
5
683
100
AcDbEntity
8
1
6
CONTINUOUS
62
5
100
AcDb2dPolyline
66
1
10
0.0
20
0.0
30
0.0
70
0
0
VERTEX
5
684
100
AcDbEntity
8
1
100
AcDbVertex
100
AcDb2dVertex
62
5
10
42.650000
20
-210.999986
0
VERTEX
5
685
100
AcDbEntity
8
1
100
AcDbVertex
100
AcDb2dVertex
62
5
10
43.950000
20
-210.999986
0
VERTEX
5
686
100
AcDbEntity
8
1
100
AcDbVertex
100
AcDb2dVertex
62
5
10
43.950000
20
-214.999986
0
SEQEND
5
687
100
AcDbEntity
8
1
0
LINE
5
688
100
AcDbEntity
8
1
100
AcDbLine
6
CONTINUOUS
62
5
10
43.950000
20
-214.999986
11
42.650000
21
-214.999986
0
ARC
5
689
100
AcDbEntity
8
1
100
AcDbCircle
6
CONTINUOUS
62
5
10
42.650000
20
-214.499986
40
0.500000
100
AcDbArc
50
179.999998
51
-89.999999
0
LINE
5
68a
100
AcDbEntity
8
1
100
AcDbLine
6
CONTINUOUS
62
5
10
42.150000
20
-214.499986
11
42.150000
21
-211.499986
0
LINE
5
68b
100
AcDbEntity
8
1
100
AcDbLine
6
CONTINUOUS
62
5
10
45.600000
20
-221.749986
11
45.600000
21
-204.249986
0
ARC
5
68c
100
AcDbEntity
8
1
100
AcDbCircle
6
CONTINUOUS
62
5
10
46.900000
20
-206.999986
40
0.500000
100
AcDbArc
50
179.999998
51
-89.999999
0
LINE
5
68d
100
AcDbEntity
8
1
100
AcDbLine
6
CONTINUOUS
62
5
10
46.400000
20
-206.999986
11
46.400000
21
-204.249986
0
LINE
5
68e
100
AcDbEntity
8
1
100
AcDbLine
6
CONTINUOUS
62
5
10
46.400000
20
-221.749986
11
46.400000
21
-218.999986
0
ARC
5
68f
100
AcDbEntity
8
1
100
AcDbCircle
6
CONTINUOUS
62
5
10
46.900000
20
-218.999986
40
0.500000
100
AcDbArc
50
89.999999
51
179.999998
0
POLYLINE
5
690
100
AcDbEntity
8
1
6
CONTINUOUS
62
5
100
AcDb2dPolyline
66
1
10
0.0
20
0.0
30
0.0
70
0
0
VERTEX
5
691
100
AcDbEntity
8
1
100
AcDbVertex
100
AcDb2dVertex
62
5
10
46.900000
20
-218.499986
0
VERTEX
5
692
100
AcDbEntity
8
1
100
AcDbVertex
100
AcDb2dVertex
62
5
10
46.900000
20
-218.499986
0
VERTEX
5
693
100
AcDbEntity
8
1
100
AcDbVertex
100
AcDb2dVertex
62
5
10
46.900000
20
-207.499986
0
VERTEX
5
694
100
AcDbEntity
8
1
100
AcDbVertex
100
AcDb2dVertex
62
5
10
46.900000
20
-207.499986
0
SEQEND
5
695
100
AcDbEntity
8
1
0
ARC
5
696
100
AcDbEntity
8
1
100
AcDbCircle
6
CONTINUOUS
62
5
10
47.000000
20
-218.999986
40
0.500000
100
AcDbArc
50
89.999999
51
179.999998
0
POLYLINE
5
697
100
AcDbEntity
8
1
6
CONTINUOUS
62
5
100
AcDb2dPolyline
66
1
10
0.0
20
0.0
30
0.0
70
0
0
VERTEX
5
698
100
AcDbEntity
8
1
100
AcDbVertex
100
AcDb2dVertex
62
5
10
47.000000
20
-218.499986
0
VERTEX
5
699
100
AcDbEntity
8
1
100
AcDbVertex
100
AcDb2dVertex
62
5
10
47.000000
20
-218.499986
0
VERTEX
5
69a
100
AcDbEntity
8
1
100
AcDbVertex
100
AcDb2dVertex
62
5
10
47.000000
20
-207.499986
0
VERTEX
5
69b
100
AcDbEntity
8
1
100
AcDbVertex
100
AcDb2dVertex
62
5
10
47.000000
20
-207.499986
0
SEQEND
5
69c
100
AcDbEntity
8
1
0
ARC
5
69d
100
AcDbEntity
8
1
100
AcDbCircle
6
CONTINUOUS
62
5
10
47.000000
20
-206.999986
40
0.500000
100
AcDbArc
50
179.999998
51
-89.999999
0
POLYLINE
5
69e
100
AcDbEntity
8
1
6
CONTINUOUS
62
5
100
AcDb2dPolyline
66
1
10
0.0
20
0.0
30
0.0
70
0
0
VERTEX
5
69f
100
AcDbEntity
8
1
100
AcDbVertex
100
AcDb2dVertex
62
5
10
46.500000
20
-206.999986
0
VERTEX
5
6a0
100
AcDbEntity
8
1
100
AcDbVertex
100
AcDb2dVertex
62
5
10
46.500000
20
-204.149986
0
VERTEX
5
6a1
100
AcDbEntity
8
1
100
AcDbVertex
100
AcDb2dVertex
62
5
10
44.100000
20
-204.149986
0
SEQEND
5
6a2
100
AcDbEntity
8
1
0
POLYLINE
5
6a3
100
AcDbEntity
8
1
6
CONTINUOUS
62
5
100
AcDb2dPolyline
66
1
10
0.0
20
0.0
30
0.0
70
0
0
VERTEX
5
6a4
100
AcDbEntity
8
1
100
AcDbVertex
100
AcDb2dVertex
62
5
10
44.100000
20
-221.849986
0
VERTEX
5
6a5
100
AcDbEntity
8
1
100
AcDbVertex
100
AcDb2dVertex
62
5
10
46.500000
20
-221.849986
0
VERTEX
5
6a6
100
AcDbEntity
8
1
100
AcDbVertex
100
AcDb2dVertex
62
5
10
46.500000
20
-218.999986
0
SEQEND
5
6a7
100
AcDbEntity
8
1
0
POLYLINE
5
6a8
100
AcDbEntity
8
1
6
DOT2
62
5
100
AcDb2dPolyline
66
1
10
0.0
20
0.0
30
0.0
70
0
0
VERTEX
5
6a9
100
AcDbEntity
8
1
100
AcDbVertex
100
AcDb2dVertex
62
5
10
2.975000
20
-190.625000
0
VERTEX
5
6aa
100
AcDbEntity
8
1
100
AcDbVertex
100
AcDb2dVertex
62
5
10
2.350000
20
-189.687500
0
VERTEX
5
6ab
100
AcDbEntity
8
1
100
AcDbVertex
100
AcDb2dVertex
62
5
10
9.850000
20
-189.687500
0
SEQEND
5
6ac
100
AcDbEntity
8
1
0
LINE
5
6ad
100
AcDbEntity
8
1
100
AcDbLine
6
DOT2
62
5
10
9.850000
20
-190.312500
11
9.850000
21
-189.062500
0
POLYLINE
5
6ae
100
AcDbEntity
8
1
6
DOT2
62
5
100
AcDb2dPolyline
66
1
10
0.0
20
0.0
30
0.0
70
0
0
VERTEX
5
6af
100
AcDbEntity
8
1
100
AcDbVertex
100
AcDb2dVertex
62
5
10
4.537500
20
-186.250000
0
VERTEX
5
6b0
100
AcDbEntity
8
1
100
AcDbVertex
100
AcDb2dVertex
62
5
10
2.975000
20
-185.937500
0
VERTEX
5
6b1
100
AcDbEntity
8
1
100
AcDbVertex
100
AcDb2dVertex
62
5
10
2.350000
20
-185.000000
0
VERTEX
5
6b2
100
AcDbEntity
8
1
100
AcDbVertex
100
AcDb2dVertex
62
5
10
2.350000
20
-184.062500
0
VERTEX
5
6b3
100
AcDbEntity
8
1
100
AcDbVertex
100
AcDb2dVertex
62
5
10
2.662500
20
-183.437500
0
VERTEX
5
6b4
100
AcDbEntity
8
1
100
AcDbVertex
100
AcDb2dVertex
62
5
10
3.600000
20
-183.125000
0
VERTEX
5
6b5
100
AcDbEntity
8
1
100
AcDbVertex
100
AcDb2dVertex
62
5
10
4.537500
20
-183.125000
0
VERTEX
5
6b6
100
AcDbEntity
8
1
100
AcDbVertex
100
AcDb2dVertex
62
5
10
5.475000
20
-183.437500
0
VERTEX
5
6b7
100
AcDbEntity
8
1
100
AcDbVertex
100
AcDb2dVertex
62
5
10
9.850000
20
-186.250000
0
VERTEX
5
6b8
100
AcDbEntity
8
1
100
AcDbVertex
100
AcDb2dVertex
62
5
10
9.850000
20
-183.125000
0
VERTEX
5
6b9
100
AcDbEntity
8
1
100
AcDbVertex
100
AcDb2dVertex
62
5
10
8.912500
20
-183.125000
0
SEQEND
5
6ba
100
AcDbEntity
8
1
0
LINE
5
6bb
100
AcDbEntity
8
1
100
AcDbLine
6
CONTINUOUS
62
5
10
38.600000
20
-209.999998
11
38.100000
21
-209.999998
0
POLYLINE
5
6bc
100
AcDbEntity
8
1
6
DOT2
62
5
100
AcDb2dPolyline
66
1
10
0.0
20
0.0
30
0.0
70
0
0
VERTEX
5
6bd
100
AcDbEntity
8
1
100
AcDbVertex
100
AcDb2dVertex
62
5
10
2.975000
20
-195.625000
0
VERTEX
5
6be
100
AcDbEntity
8
1
100
AcDbVertex
100
AcDb2dVertex
62
5
10
2.350000
20
-194.687500
0
VERTEX
5
6bf
100
AcDbEntity
8
1
100
AcDbVertex
100
AcDb2dVertex
62
5
10
9.850000
20
-194.687500
0
SEQEND
5
6c0
100
AcDbEntity
8
1
0
LINE
5
6c1
100
AcDbEntity
8
1
100
AcDbLine
6
DOT2
62
5
10
9.850000
20
-195.312500
11
9.850000
21
-194.062500
0
LINE
5
6c2
100
AcDbEntity
8
1
100
AcDbLine
6
CONTINUOUS
62
5
10
38.600000
20
-215.999998
11
38.100000
21
-215.999998
0
LINE
5
6c3
100
AcDbEntity
8
1
100
AcDbLine
6
CONTINUOUS
62
5
10
39.400000
20
-209.999998
11
39.900000
21
-209.999998
0
LINE
5
6c4
100
AcDbEntity
8
1
100
AcDbLine
6
CONTINUOUS
62
5
10
39.400000
20
-215.999998
11
39.900000
21
-215.999998
0
POLYLINE
5
6c5
100
AcDbEntity
8
1
6
CONTINUOUS
62
5
100
AcDb2dPolyline
66
1
10
0.0
20
0.0
30
0.0
70
0
0
VERTEX
5
6c6
100
AcDbEntity
8
1
100
AcDbVertex
100
AcDb2dVertex
62
5
10
38.600000
20
-215.999998
0
VERTEX
5
6c7
100
AcDbEntity
8
1
100
AcDbVertex
100
AcDb2dVertex
62
5
10
39.400000
20
-215.999998
0
VERTEX
5
6c8
100
AcDbEntity
8
1
100
AcDbVertex
100
AcDb2dVertex
62
5
10
39.400000
20
-209.999998
0
VERTEX
5
6c9
100
AcDbEntity
8
1
100
AcDbVertex
100
AcDb2dVertex
62
5
10
38.600000
20
-209.999998
0
VERTEX
5
6ca
100
AcDbEntity
8
1
100
AcDbVertex
100
AcDb2dVertex
62
5
10
38.600000
20
-215.999998
0
VERTEX
5
6cb
100
AcDbEntity
8
1
100
AcDbVertex
100
AcDb2dVertex
62
5
10
39.400000
20
-215.999998
0
SEQEND
5
6cc
100
AcDbEntity
8
1
0
ARC
5
6cd
100
AcDbEntity
8
1
100
AcDbCircle
6
CONTINUOUS
62
5
10
108.750000
20
-231.572092
40
4.500000
100
AcDbArc
50
84.708919
51
-95.291079
0
LINE
5
6ce
100
AcDbEntity
8
1
100
AcDbLine
6
CONTINUOUS
62
5
10
108.335030
20
-236.052918
11
108.335030
21
-236.052918
0
ARC
5
6cf
100
AcDbEntity
8
1
100
AcDbCircle
6
CONTINUOUS
62
5
10
112.600000
20
-189.999986
40
46.250000
100
AcDbArc
50
-95.291079
51
-84.708919
0
LINE
5
6d0
100
AcDbEntity
8
1
100
AcDbLine
6
CONTINUOUS
62
5
10
116.864970
20
-236.052918
11
116.864970
21
-236.052918
0
ARC
5
6d1
100
AcDbEntity
8
1
100
AcDbCircle
6
CONTINUOUS
62
5
10
116.450000
20
-231.572092
40
4.500000
100
AcDbArc
50
-84.708919
51
95.291079
0
LINE
5
6d2
100
AcDbEntity
8
1
100
AcDbLine
6
CONTINUOUS
62
5
10
116.035030
20
-227.091266
11
116.035030
21
-227.091266
0
ARC
5
6d3
100
AcDbEntity
8
1
100
AcDbCircle
6
CONTINUOUS
62
5
10
112.600000
20
-189.999986
40
37.250000
100
AcDbArc
50
-95.291079
51
-84.708919
0
LINE
5
6d4
100
AcDbEntity
8
1
100
AcDbLine
6
CONTINUOUS
62
5
10
109.164970
20
-227.091266
11
109.164970
21
-227.091266
0
LINE
5
6d5
100
AcDbEntity
8
1
100
AcDbLine
6
CONTINUOUS
62
5
10
47.538826
20
-133.999986
11
9.100000
21
-133.999986
0
LINE
5
6d6
100
AcDbEntity
8
1
100
AcDbLine
6
CONTINUOUS
62
5
10
47.310489
20
-246.000014
11
9.100000
21
-246.000014
0
POLYLINE
5
6d7
100
AcDbEntity
8
1
6
CONTINUOUS
62
5
100
AcDb2dPolyline
66
1
10
0.0
20
0.0
30
0.0
70
0
0
VERTEX
5
6d8
100
AcDbEntity
8
1
100
AcDbVertex
100
AcDb2dVertex
62
5
10
11.100000
20
-190.000000
0
VERTEX
5
6d9
100
AcDbEntity
8
1
100
AcDbVertex
100
AcDb2dVertex
62
5
10
11.100000
20
-246.000014
0
VERTEX
5
6da
100
AcDbEntity
8
1
100
AcDbVertex
100
AcDb2dVertex
62
5
10
10.100000
20
-240.000014
0
VERTEX
5
6db
100
AcDbEntity
8
1
100
AcDbVertex
100
AcDb2dVertex
62
5
10
12.100000
20
-240.000014
0
VERTEX
5
6dc
100
AcDbEntity
8
1
100
AcDbVertex
100
AcDb2dVertex
62
5
10
11.100000
20
-246.000014
0
VERTEX
5
6dd
100
AcDbEntity
8
1
100
AcDbVertex
100
AcDb2dVertex
62
5
10
10.600000
20
-240.000014
0
VERTEX
5
6de
100
AcDbEntity
8
1
100
AcDbVertex
100
AcDb2dVertex
62
5
10
11.600000
20
-240.000014
0
VERTEX
5
6df
100
AcDbEntity
8
1
100
AcDbVertex
100
AcDb2dVertex
62
5
10
11.100000
20
-246.000014
0
SEQEND
5
6e0
100
AcDbEntity
8
1
0
POLYLINE
5
6e1
100
AcDbEntity
8
1
6
CONTINUOUS
62
5
100
AcDb2dPolyline
66
1
10
0.0
20
0.0
30
0.0
70
0
0
VERTEX
5
6e2
100
AcDbEntity
8
1
100
AcDbVertex
100
AcDb2dVertex
62
5
10
11.100000
20
-190.000000
0
VERTEX
5
6e3
100
AcDbEntity
8
1
100
AcDbVertex
100
AcDb2dVertex
62
5
10
11.100000
20
-133.999986
0
VERTEX
5
6e4
100
AcDbEntity
8
1
100
AcDbVertex
100
AcDb2dVertex
62
5
10
12.100000
20
-139.999986
0
VERTEX
5
6e5
100
AcDbEntity
8
1
100
AcDbVertex
100
AcDb2dVertex
62
5
10
10.100000
20
-139.999986
0
VERTEX
5
6e6
100
AcDbEntity
8
1
100
AcDbVertex
100
AcDb2dVertex
62
5
10
11.100000
20
-133.999986
0
VERTEX
5
6e7
100
AcDbEntity
8
1
100
AcDbVertex
100
AcDb2dVertex
62
5
10
11.600000
20
-139.999986
0
VERTEX
5
6e8
100
AcDbEntity
8
1
100
AcDbVertex
100
AcDb2dVertex
62
5
10
10.600000
20
-139.999986
0
VERTEX
5
6e9
100
AcDbEntity
8
1
100
AcDbVertex
100
AcDb2dVertex
62
5
10
11.100000
20
-133.999986
0
SEQEND
5
6ea
100
AcDbEntity
8
1
0
LINE
5
6eb
100
AcDbEntity
8
1
100
AcDbLine
6
CONTINUOUS
62
5
10
198.100000
20
-188.500000
11
198.100000
21
-106.999986
0
LINE
5
6ec
100
AcDbEntity
8
1
100
AcDbLine
6
CONTINUOUS
62
5
10
203.900000
20
-132.499986
11
203.900000
21
-106.999986
0
POLYLINE
5
6ed
100
AcDbEntity
8
1
6
CONTINUOUS
62
5
100
AcDb2dPolyline
66
1
10
0.0
20
0.0
30
0.0
70
0
0
VERTEX
5
6ee
100
AcDbEntity
8
1
100
AcDbVertex
100
AcDb2dVertex
62
5
10
229.150000
20
-108.999986
0
VERTEX
5
6ef
100
AcDbEntity
8
1
100
AcDbVertex
100
AcDb2dVertex
62
5
10
203.900000
20
-108.999986
0
VERTEX
5
6f0
100
AcDbEntity
8
1
100
AcDbVertex
100
AcDb2dVertex
62
5
10
209.900000
20
-107.999986
0
VERTEX
5
6f1
100
AcDbEntity
8
1
100
AcDbVertex
100
AcDb2dVertex
62
5
10
209.900000
20
-109.999986
0
VERTEX
5
6f2
100
AcDbEntity
8
1
100
AcDbVertex
100
AcDb2dVertex
62
5
10
203.900000
20
-108.999986
0
VERTEX
5
6f3
100
AcDbEntity
8
1
100
AcDbVertex
100
AcDb2dVertex
62
5
10
209.900000
20
-108.499986
0
VERTEX
5
6f4
100
AcDbEntity
8
1
100
AcDbVertex
100
AcDb2dVertex
62
5
10
209.900000
20
-109.499986
0
VERTEX
5
6f5
100
AcDbEntity
8
1
100
AcDbVertex
100
AcDb2dVertex
62
5
10
203.900000
20
-108.999986
0
SEQEND
5
6f6
100
AcDbEntity
8
1
0
LINE
5
6f7
100
AcDbEntity
8
1
100
AcDbLine
6
CONTINUOUS
62
5
10
203.900000
20
-108.999986
11
198.100000
21
-108.999986
0
POLYLINE
5
6f8
100
AcDbEntity
8
1
6
CONTINUOUS
62
5
100
AcDb2dPolyline
66
1
10
0.0
20
0.0
30
0.0
70
0
0
VERTEX
5
6f9
100
AcDbEntity
8
1
100
AcDbVertex
100
AcDb2dVertex
62
5
10
189.100000
20
-108.999986
0
VERTEX
5
6fa
100
AcDbEntity
8
1
100
AcDbVertex
100
AcDb2dVertex
62
5
10
198.100000
20
-108.999986
0
VERTEX
5
6fb
100
AcDbEntity
8
1
100
AcDbVertex
100
AcDb2dVertex
62
5
10
192.100000
20
-109.999986
0
VERTEX
5
6fc
100
AcDbEntity
8
1
100
AcDbVertex
100
AcDb2dVertex
62
5
10
192.100000
20
-107.999986
0
VERTEX
5
6fd
100
AcDbEntity
8
1
100
AcDbVertex
100
AcDb2dVertex
62
5
10
198.100000
20
-108.999986
0
VERTEX
5
6fe
100
AcDbEntity
8
1
100
AcDbVertex
100
AcDb2dVertex
62
5
10
192.100000
20
-109.499986
0
VERTEX
5
6ff
100
AcDbEntity
8
1
100
AcDbVertex
100
AcDb2dVertex
62
5
10
192.100000
20
-108.499986
0
VERTEX
5
700
100
AcDbEntity
8
1
100
AcDbVertex
100
AcDb2dVertex
62
5
10
198.100000
20
-108.999986
0
SEQEND
5
701
100
AcDbEntity
8
1
0
LINE
5
702
100
AcDbEntity
8
1
100
AcDbLine
6
CONTINUOUS
62
5
10
205.200000
20
-175.699835
11
205.200000
21
-158.799986
0
ARC
5
703
100
AcDbEntity
8
1
100
AcDbCircle
6
CONTINUOUS
62
5
10
211.100000
20
-225.207879
40
0.300000
100
AcDbArc
50
-88.472555
51
0.000000
0
LINE
5
704
100
AcDbEntity
8
1
100
AcDbLine
6
CONTINUOUS
62
5
10
211.107997
20
-225.507773
11
203.900000
21
-225.699976
0
LINE
5
705
100
AcDbEntity
8
1
100
AcDbLine
6
CONTINUOUS
62
5
10
203.900000
20
-154.299986
11
211.107997
21
-154.492199
0
ARC
5
706
100
AcDbEntity
8
1
100
AcDbCircle
6
CONTINUOUS
62
5
10
211.100000
20
-154.792093
40
0.300000
100
AcDbArc
50
0.000000
51
88.472474
0
LINE
5
707
100
AcDbEntity
8
1
100
AcDbLine
6
CONTINUOUS
62
5
10
211.400000
20
-154.792093
11
211.400000
21
-225.207879
0
ARC
5
708
100
AcDbEntity
8
1
100
AcDbCircle
6
CONTINUOUS
62
5
10
199.100000
20
-244.598744
40
1.000000
100
AcDbArc
50
179.999998
51
-95.946830
0
POLYLINE
5
709
100
AcDbEntity
8
1
6
CONTINUOUS
62
5
100
AcDb2dPolyline
66
1
10
0.0
20
0.0
30
0.0
70
0
0
VERTEX
5
70a
100
AcDbEntity
8
1
100
AcDbVertex
100
AcDb2dVertex
62
5
10
198.996394
20
-245.593363
0
VERTEX
5
70b
100
AcDbEntity
8
1
100
AcDbVertex
100
AcDb2dVertex
62
5
10
202.900000
20
-245.999986
0
VERTEX
5
70c
100
AcDbEntity
8
1
100
AcDbVertex
100
AcDb2dVertex
62
5
10
203.900000
20
-245.999986
0
VERTEX
5
70d
100
AcDbEntity
8
1
100
AcDbVertex
100
AcDb2dVertex
62
5
10
203.900000
20
-225.699976
0
SEQEND
5
70e
100
AcDbEntity
8
1
0
POLYLINE
5
70f
100
AcDbEntity
8
1
6
CONTINUOUS
62
5
100
AcDb2dPolyline
66
1
10
0.0
20
0.0
30
0.0
70
0
0
VERTEX
5
710
100
AcDbEntity
8
1
100
AcDbVertex
100
AcDb2dVertex
62
5
10
203.900000
20
-245.999986
0
VERTEX
5
711
100
AcDbEntity
8
1
100
AcDbVertex
100
AcDb2dVertex
62
5
10
203.900000
20
-133.999986
0
VERTEX
5
712
100
AcDbEntity
8
1
100
AcDbVertex
100
AcDb2dVertex
62
5
10
202.900000
20
-133.999986
0
VERTEX
5
713
100
AcDbEntity
8
1
100
AcDbVertex
100
AcDb2dVertex
62
5
10
198.996394
20
-134.406612
0
SEQEND
5
714
100
AcDbEntity
8
1
0
ARC
5
715
100
AcDbEntity
8
1
100
AcDbCircle
6
CONTINUOUS
62
5
10
199.100000
20
-135.401230
40
1.000000
100
AcDbArc
50
95.946863
51
179.999998
0
POLYLINE
5
716
100
AcDbEntity
8
1
6
CONTINUOUS
62
5
100
AcDb2dPolyline
66
1
10
0.0
20
0.0
30
0.0
70
0
0
VERTEX
5
717
100
AcDbEntity
8
1
100
AcDbVertex
100
AcDb2dVertex
62
5
10
198.100000
20
-135.401230
0
VERTEX
5
718
100
AcDbEntity
8
1
100
AcDbVertex
100
AcDb2dVertex
62
5
10
198.100000
20
-233.499986
0
VERTEX
5
719
100
AcDbEntity
8
1
100
AcDbVertex
100
AcDb2dVertex
62
5
10
198.100000
20
-244.598744
0
SEQEND
5
71a
100
AcDbEntity
8
1
0
LINE
5
71b
100
AcDbEntity
8
1
100
AcDbLine
6
CONTINUOUS
62
5
10
139.800000
20
-169.999974
11
139.300000
21
-169.999974
0
ARC
5
71c
100
AcDbEntity
8
1
100
AcDbCircle
6
CONTINUOUS
62
5
10
133.100000
20
-171.199986
40
0.300000
100
AcDbArc
50
-179.999998
51
-89.999999
0
LINE
5
71d
100
AcDbEntity
8
1
100
AcDbLine
6
CONTINUOUS
62
5
10
132.800000
20
-171.199986
11
132.800000
21
-169.799986
0
ARC
5
71e
100
AcDbEntity
8
1
100
AcDbCircle
6
CONTINUOUS
62
5
10
133.100000
20
-169.799986
40
0.300000
100
AcDbArc
50
89.999999
51
179.999998
0
LINE
5
71f
100
AcDbEntity
8
1
100
AcDbLine
6
CONTINUOUS
62
5
10
133.100000
20
-169.499986
11
133.599965
21
-169.499986
0
LINE
5
720
100
AcDbEntity
8
1
100
AcDbLine
6
CONTINUOUS
62
5
10
133.599965
20
-171.499986
11
133.100000
21
-171.499986
0
ARC
5
721
100
AcDbEntity
8
1
100
AcDbCircle
6
CONTINUOUS
62
5
10
133.300000
20
-171.199986
40
0.300000
100
AcDbArc
50
179.999998
51
-89.999999
0
LINE
5
722
100
AcDbEntity
8
1
100
AcDbLine
6
CONTINUOUS
62
5
10
133.000000
20
-171.199986
11
133.000000
21
-169.799986
0
ARC
5
723
100
AcDbEntity
8
1
100
AcDbCircle
6
CONTINUOUS
62
5
10
133.300000
20
-169.799986
40
0.300000
100
AcDbArc
50
89.999999
51
179.999998
0
POLYLINE
5
724
100
AcDbEntity
8
1
6
CONTINUOUS
62
5
100
AcDb2dPolyline
66
1
10
0.0
20
0.0
30
0.0
70
0
0
VERTEX
5
725
100
AcDbEntity
8
1
100
AcDbVertex
100
AcDb2dVertex
62
5
10
140.600000
20
-163.999974
0
VERTEX
5
726
100
AcDbEntity
8
1
100
AcDbVertex
100
AcDb2dVertex
62
5
10
139.800000
20
-163.999974
0
VERTEX
5
727
100
AcDbEntity
8
1
100
AcDbVertex
100
AcDb2dVertex
62
5
10
139.800000
20
-169.999974
0
VERTEX
5
728
100
AcDbEntity
8
1
100
AcDbVertex
100
AcDb2dVertex
62
5
10
140.600000
20
-169.999974
0
VERTEX
5
729
100
AcDbEntity
8
1
100
AcDbVertex
100
AcDb2dVertex
62
5
10
140.600000
20
-163.999974
0
VERTEX
5
72a
100
AcDbEntity
8
1
100
AcDbVertex
100
AcDb2dVertex
62
5
10
139.800000
20
-163.999974
0
SEQEND
5
72b
100
AcDbEntity
8
1
0
LINE
5
72c
100
AcDbEntity
8
1
100
AcDbLine
6
CONTINUOUS
62
5
10
140.600000
20
-169.999974
11
141.100000
21
-169.999974
0
ARC
5
72d
100
AcDbEntity
8
1
100
AcDbCircle
6
CONTINUOUS
62
5
10
45.900000
20
-171.199986
40
0.300000
100
AcDbArc
50
-89.999999
51
0.000000
0
LINE
5
72e
100
AcDbEntity
8
1
100
AcDbLine
6
CONTINUOUS
62
5
10
46.200000
20
-171.199986
11
46.200000
21
-169.299986
0
ARC
5
72f
100
AcDbEntity
8
1
100
AcDbCircle
6
CONTINUOUS
62
5
10
45.900000
20
-169.299986
40
0.300000
100
AcDbArc
50
0.000000
51
89.999999
0
LINE
5
730
100
AcDbEntity
8
1
100
AcDbLine
6
CONTINUOUS
62
5
10
45.900000
20
-168.999986
11
45.600000
21
-168.999986
0
LINE
5
731
100
AcDbEntity
8
1
100
AcDbLine
6
CONTINUOUS
62
5
10
45.600000
20
-171.499986
11
45.900000
21
-171.499986
0
ARC
5
732
100
AcDbEntity
8
1
100
AcDbCircle
6
CONTINUOUS
62
5
10
46.100000
20
-169.299986
40
0.300000
100
AcDbArc
50
0.000000
51
89.999999
0
LINE
5
733
100
AcDbEntity
8
1
100
AcDbLine
6
CONTINUOUS
62
5
10
46.100000
20
-168.999986
11
45.600000
21
-168.999986
0
LINE
5
734
100
AcDbEntity
8
1
100
AcDbLine
6
CONTINUOUS
62
5
10
45.600000
20
-171.499986
11
46.100000
21
-171.499986
0
ARC
5
735
100
AcDbEntity
8
1
100
AcDbCircle
6
CONTINUOUS
62
5
10
46.100000
20
-171.199986
40
0.300000
100
AcDbArc
50
-89.999999
51
0.000000
0
LINE
5
736
100
AcDbEntity
8
1
100
AcDbLine
6
CONTINUOUS
62
5
10
46.400000
20
-171.199986
11
46.400000
21
-169.299986
0
LINE
5
737
100
AcDbEntity
8
1
100
AcDbLine
6
CONTINUOUS
62
5
10
45.500000
20
-171.649986
11
45.500000
21
-168.999986
0
LINE
5
738
100
AcDbEntity
8
1
100
AcDbLine
6
CONTINUOUS
62
5
10
38.600000
20
-169.999974
11
38.100000
21
-169.999974
0
LINE
5
739
100
AcDbEntity
8
1
100
AcDbLine
6
CONTINUOUS
62
5
10
39.400000
20
-169.999974
11
39.900000
21
-169.999974
0
POLYLINE
5
73a
100
AcDbEntity
8
1
6
CONTINUOUS
62
5
100
AcDb2dPolyline
66
1
10
0.0
20
0.0
30
0.0
70
0
0
VERTEX
5
73b
100
AcDbEntity
8
1
100
AcDbVertex
100
AcDb2dVertex
62
5
10
38.600000
20
-163.999974
0
VERTEX
5
73c
100
AcDbEntity
8
1
100
AcDbVertex
100
AcDb2dVertex
62
5
10
39.400000
20
-163.999974
0
VERTEX
5
73d
100
AcDbEntity
8
1
100
AcDbVertex
100
AcDb2dVertex
62
5
10
39.400000
20
-169.999974
0
VERTEX
5
73e
100
AcDbEntity
8
1
100
AcDbVertex
100
AcDb2dVertex
62
5
10
38.600000
20
-169.999974
0
VERTEX
5
73f
100
AcDbEntity
8
1
100
AcDbVertex
100
AcDb2dVertex
62
5
10
38.600000
20
-163.999974
0
VERTEX
5
740
100
AcDbEntity
8
1
100
AcDbVertex
100
AcDb2dVertex
62
5
10
39.400000
20
-163.999974
0
SEQEND
5
741
100
AcDbEntity
8
1
0
ARC
5
742
100
AcDbEntity
8
1
100
AcDbCircle
6
CONTINUOUS
62
5
10
51.800000
20
-157.699986
40
0.500000
100
AcDbArc
50
-89.999999
51
0.000000
0
POLYLINE
5
743
100
AcDbEntity
8
1
6
CONTINUOUS
62
5
100
AcDb2dPolyline
66
1
10
0.0
20
0.0
30
0.0
70
0
0
VERTEX
5
744
100
AcDbEntity
8
1
100
AcDbVertex
100
AcDb2dVertex
62
5
10
51.800000
20
-158.199986
0
VERTEX
5
745
100
AcDbEntity
8
1
100
AcDbVertex
100
AcDb2dVertex
62
5
10
50.200000
20
-158.199986
0
VERTEX
5
746
100
AcDbEntity
8
1
100
AcDbVertex
100
AcDb2dVertex
62
5
10
50.200000
20
-175.799986
0
VERTEX
5
747
100
AcDbEntity
8
1
100
AcDbVertex
100
AcDb2dVertex
62
5
10
51.800000
20
-175.799986
0
SEQEND
5
748
100
AcDbEntity
8
1
0
ARC
5
749
100
AcDbEntity
8
1
100
AcDbCircle
6
CONTINUOUS
62
5
10
51.800000
20
-176.299986
40
0.500000
100
AcDbArc
50
0.000000
51
89.999999
0
LINE
5
74a
100
AcDbEntity
8
1
100
AcDbLine
6
CONTINUOUS
62
5
10
52.300000
20
-176.299986
11
52.300000
21
-180.699986
0
ARC
5
74b
100
AcDbEntity
8
1
100
AcDbCircle
6
CONTINUOUS
62
5
10
51.800000
20
-180.699986
40
0.500000
100
AcDbArc
50
-89.999999
51
0.000000
0
POLYLINE
5
74c
100
AcDbEntity
8
1
6
CONTINUOUS
62
5
100
AcDb2dPolyline
66
1
10
0.0
20
0.0
30
0.0
70
0
0
VERTEX
5
74d
100
AcDbEntity
8
1
100
AcDbVertex
100
AcDb2dVertex
62
5
10
51.800000
20
-181.199986
0
VERTEX
5
74e
100
AcDbEntity
8
1
100
AcDbVertex
100
AcDb2dVertex
62
5
10
50.200000
20
-181.199986
0
VERTEX
5
74f
100
AcDbEntity
8
1
100
AcDbVertex
100
AcDb2dVertex
62
5
10
50.200000
20
-198.799986
0
VERTEX
5
750
100
AcDbEntity
8
1
100
AcDbVertex
100
AcDb2dVertex
62
5
10
51.800000
20
-198.799986
0
SEQEND
5
751
100
AcDbEntity
8
1
0
ARC
5
752
100
AcDbEntity
8
1
100
AcDbCircle
6
CONTINUOUS
62
5
10
51.800000
20
-199.299986
40
0.500000
100
AcDbArc
50
0.000000
51
89.999999
0
LINE
5
753
100
AcDbEntity
8
1
100
AcDbLine
6
CONTINUOUS
62
5
10
52.300000
20
-199.299986
11
52.300000
21
-203.699986
0
ARC
5
754
100
AcDbEntity
8
1
100
AcDbCircle
6
CONTINUOUS
62
5
10
51.800000
20
-203.699986
40
0.500000
100
AcDbArc
50
-89.999999
51
0.000000
0
POLYLINE
5
755
100
AcDbEntity
8
1
6
CONTINUOUS
62
5
100
AcDb2dPolyline
66
1
10
0.0
20
0.0
30
0.0
70
0
0
VERTEX
5
756
100
AcDbEntity
8
1
100
AcDbVertex
100
AcDb2dVertex
62
5
10
51.800000
20
-204.199986
0
VERTEX
5
757
100
AcDbEntity
8
1
100
AcDbVertex
100
AcDb2dVertex
62
5
10
50.200000
20
-204.199986
0
VERTEX
5
758
100
AcDbEntity
8
1
100
AcDbVertex
100
AcDb2dVertex
62
5
10
50.200000
20
-221.799986
0
VERTEX
5
759
100
AcDbEntity
8
1
100
AcDbVertex
100
AcDb2dVertex
62
5
10
51.800000
20
-221.799986
0
SEQEND
5
75a
100
AcDbEntity
8
1
0
ARC
5
75b
100
AcDbEntity
8
1
100
AcDbCircle
6
CONTINUOUS
62
5
10
51.800000
20
-222.299986
40
0.500000
100
AcDbArc
50
0.000000
51
89.999999
0
LINE
5
75c
100
AcDbEntity
8
1
100
AcDbLine
6
CONTINUOUS
62
5
10
52.300000
20
-222.299986
11
52.300000
21
-223.999986
0
ARC
5
75d
100
AcDbEntity
8
1
100
AcDbCircle
6
CONTINUOUS
62
5
10
52.800000
20
-223.999986
40
0.500000
100
AcDbArc
50
179.999998
51
-89.999999
0
LINE
5
75e
100
AcDbEntity
8
1
100
AcDbLine
6
CONTINUOUS
62
5
10
52.800000
20
-224.499986
11
85.600000
21
-224.499986
0
ARC
5
75f
100
AcDbEntity
8
1
100
AcDbCircle
6
CONTINUOUS
62
5
10
85.600000
20
-224.999986
40
0.500000
100
AcDbArc
50
0.000000
51
89.999999
0
LINE
5
760
100
AcDbEntity
8
1
100
AcDbLine
6
CONTINUOUS
62
5
10
86.100000
20
-224.999986
11
86.100000
21
-225.499986
0
ARC
5
761
100
AcDbEntity
8
1
100
AcDbCircle
6
CONTINUOUS
62
5
10
86.600000
20
-225.499986
40
0.500000
100
AcDbArc
50
179.999998
51
-89.999999
0
LINE
5
762
100
AcDbEntity
8
1
100
AcDbLine
6
CONTINUOUS
62
5
10
86.600000
20
-225.999986
11
92.600000
21
-225.999986
0
ARC
5
763
100
AcDbEntity
8
1
100
AcDbCircle
6
CONTINUOUS
62
5
10
92.600000
20
-225.499986
40
0.500000
100
AcDbArc
50
-89.999999
51
0.000000
0
LINE
5
764
100
AcDbEntity
8
1
100
AcDbLine
6
CONTINUOUS
62
5
10
93.100000
20
-225.499986
11
93.100000
21
-224.999986
0
ARC
5
765
100
AcDbEntity
8
1
100
AcDbCircle
6
CONTINUOUS
62
5
10
93.600000
20
-224.999986
40
0.500000
100
AcDbArc
50
89.999999
51
179.999998
0
LINE
5
766
100
AcDbEntity
8
1
100
AcDbLine
6
CONTINUOUS
62
5
10
93.600000
20
-224.499986
11
128.100000
21
-224.499986
0
ARC
5
767
100
AcDbEntity
8
1
100
AcDbCircle
6
CONTINUOUS
62
5
10
128.100000
20
-223.999986
40
0.500000
100
AcDbArc
50
-89.999999
51
0.000000
0
LINE
5
768
100
AcDbEntity
8
1
100
AcDbLine
6
CONTINUOUS
62
5
10
128.600000
20
-223.999986
11
128.600000
21
-222.099986
0
ARC
5
769
100
AcDbEntity
8
1
100
AcDbCircle
6
CONTINUOUS
62
5
10
128.900000
20
-222.099986
40
0.300000
100
AcDbArc
50
89.999999
51
179.999998
0
POLYLINE
5
76a
100
AcDbEntity
8
1
6
CONTINUOUS
62
5
100
AcDb2dPolyline
66
1
10
0.0
20
0.0
30
0.0
70
0
0
VERTEX
5
76b
100
AcDbEntity
8
1
100
AcDbVertex
100
AcDb2dVertex
62
5
10
128.900000
20
-221.799986
0
VERTEX
5
76c
100
AcDbEntity
8
1
100
AcDbVertex
100
AcDb2dVertex
62
5
10
129.500000
20
-221.799986
0
VERTEX
5
76d
100
AcDbEntity
8
1
100
AcDbVertex
100
AcDb2dVertex
62
5
10
129.500000
20
-204.199986
0
VERTEX
5
76e
100
AcDbEntity
8
1
100
AcDbVertex
100
AcDb2dVertex
62
5
10
128.900000
20
-204.199986
0
SEQEND
5
76f
100
AcDbEntity
8
1
0
ARC
5
770
100
AcDbEntity
8
1
100
AcDbCircle
6
CONTINUOUS
62
5
10
128.900000
20
-203.899986
40
0.300000
100
AcDbArc
50
179.999998
51
-89.999999
0
LINE
5
771
100
AcDbEntity
8
1
100
AcDbLine
6
CONTINUOUS
62
5
10
128.600000
20
-203.899986
11
128.600000
21
-199.099986
0
ARC
5
772
100
AcDbEntity
8
1
100
AcDbCircle
6
CONTINUOUS
62
5
10
128.900000
20
-199.099986
40
0.300000
100
AcDbArc
50
89.999999
51
-179.999998
0
POLYLINE
5
773
100
AcDbEntity
8
1
6
CONTINUOUS
62
5
100
AcDb2dPolyline
66
1
10
0.0
20
0.0
30
0.0
70
0
0
VERTEX
5
774
100
AcDbEntity
8
1
100
AcDbVertex
100
AcDb2dVertex
62
5
10
128.900000
20
-198.799986
0
VERTEX
5
775
100
AcDbEntity
8
1
100
AcDbVertex
100
AcDb2dVertex
62
5
10
129.000000
20
-198.799986
0
VERTEX
5
776
100
AcDbEntity
8
1
100
AcDbVertex
100
AcDb2dVertex
62
5
10
129.000000
20
-181.199986
0
VERTEX
5
777
100
AcDbEntity
8
1
100
AcDbVertex
100
AcDb2dVertex
62
5
10
128.900000
20
-181.199986
0
SEQEND
5
778
100
AcDbEntity
8
1
0
ARC
5
779
100
AcDbEntity
8
1
100
AcDbCircle
6
CONTINUOUS
62
5
10
128.900000
20
-180.899986
40
0.300000
100
AcDbArc
50
-179.999998
51
-89.999999
0
LINE
5
77a
100
AcDbEntity
8
1
100
AcDbLine
6
CONTINUOUS
62
5
10
128.600000
20
-180.899986
11
128.600000
21
-176.099986
0
ARC
5
77b
100
AcDbEntity
8
1
100
AcDbCircle
6
CONTINUOUS
62
5
10
128.900000
20
-176.099986
40
0.300000
100
AcDbArc
50
89.999999
51
-179.999998
0
POLYLINE
5
77c
100
AcDbEntity
8
1
6
CONTINUOUS
62
5
100
AcDb2dPolyline
66
1
10
0.0
20
0.0
30
0.0
70
0
0
VERTEX
5
77d
100
AcDbEntity
8
1
100
AcDbVertex
100
AcDb2dVertex
62
5
10
128.900000
20
-175.799986
0
VERTEX
5
77e
100
AcDbEntity
8
1
100
AcDbVertex
100
AcDb2dVertex
62
5
10
129.500000
20
-175.799986
0
VERTEX
5
77f
100
AcDbEntity
8
1
100
AcDbVertex
100
AcDb2dVertex
62
5
10
129.500000
20
-158.199986
0
VERTEX
5
780
100
AcDbEntity
8
1
100
AcDbVertex
100
AcDb2dVertex
62
5
10
128.900000
20
-158.199986
0
SEQEND
5
781
100
AcDbEntity
8
1
0
ARC
5
782
100
AcDbEntity
8
1
100
AcDbCircle
6
CONTINUOUS
62
5
10
128.900000
20
-157.899986
40
0.300000
100
AcDbArc
50
179.999998
51
-89.999999
0
LINE
5
783
100
AcDbEntity
8
1
100
AcDbLine
6
CONTINUOUS
62
5
10
128.600000
20
-157.899986
11
128.600000
21
-155.999986
0
ARC
5
784
100
AcDbEntity
8
1
100
AcDbCircle
6
CONTINUOUS
62
5
10
128.100000
20
-155.999986
40
0.500000
100
AcDbArc
50
-0.000000
51
89.999999
0
LINE
5
785
100
AcDbEntity
8
1
100
AcDbLine
6
CONTINUOUS
62
5
10
128.100000
20
-155.499986
11
52.800000
21
-155.499986
0
ARC
5
786
100
AcDbEntity
8
1
100
AcDbCircle
6
CONTINUOUS
62
5
10
52.800000
20
-155.999986
40
0.500000
100
AcDbArc
50
89.999999
51
-179.999998
0
LINE
5
787
100
AcDbEntity
8
1
100
AcDbLine
6
CONTINUOUS
62
5
10
52.300000
20
-155.999986
11
52.300000
21
-157.699986
0
ARC
5
788
100
AcDbEntity
8
1
100
AcDbCircle
6
CONTINUOUS
62
5
10
128.200000
20
-223.999986
40
0.500000
100
AcDbArc
50
-89.999999
51
0.000000
0
LINE
5
789
100
AcDbEntity
8
1
100
AcDbLine
6
CONTINUOUS
62
5
10
128.700000
20
-223.999986
11
128.700000
21
-222.199986
0
ARC
5
78a
100
AcDbEntity
8
1
100
AcDbCircle
6
CONTINUOUS
62
5
10
129.000000
20
-222.199986
40
0.300000
100
AcDbArc
50
89.999999
51
-179.999998
0
POLYLINE
5
78b
100
AcDbEntity
8
1
6
CONTINUOUS
62
5
100
AcDb2dPolyline
66
1
10
0.0
20
0.0
30
0.0
70
0
0
VERTEX
5
78c
100
AcDbEntity
8
1
100
AcDbVertex
100
AcDb2dVertex
62
5
10
129.000000
20
-221.899986
0
VERTEX
5
78d
100
AcDbEntity
8
1
100
AcDbVertex
100
AcDb2dVertex
62
5
10
129.600000
20
-221.899986
0
VERTEX
5
78e
100
AcDbEntity
8
1
100
AcDbVertex
100
AcDb2dVertex
62
5
10
129.600000
20
-204.099986
0
VERTEX
5
78f
100
AcDbEntity
8
1
100
AcDbVertex
100
AcDb2dVertex
62
5
10
129.000000
20
-204.099986
0
SEQEND
5
790
100
AcDbEntity
8
1
0
ARC
5
791
100
AcDbEntity
8
1
100
AcDbCircle
6
CONTINUOUS
62
5
10
129.000000
20
-203.799986
40
0.300000
100
AcDbArc
50
179.999998
51
-89.999999
0
LINE
5
792
100
AcDbEntity
8
1
100
AcDbLine
6
CONTINUOUS
62
5
10
128.700000
20
-203.799986
11
128.700000
21
-199.199986
0
ARC
5
793
100
AcDbEntity
8
1
100
AcDbCircle
6
CONTINUOUS
62
5
10
129.000000
20
-199.199986
40
0.300000
100
AcDbArc
50
89.999999
51
-179.999998
0
POLYLINE
5
794
100
AcDbEntity
8
1
6
CONTINUOUS
62
5
100
AcDb2dPolyline
66
1
10
0.0
20
0.0
30
0.0
70
0
0
VERTEX
5
795
100
AcDbEntity
8
1
100
AcDbVertex
100
AcDb2dVertex
62
5
10
129.000000
20
-198.899986
0
VERTEX
5
796
100
AcDbEntity
8
1
100
AcDbVertex
100
AcDb2dVertex
62
5
10
129.100000
20
-198.899986
0
VERTEX
5
797
100
AcDbEntity
8
1
100
AcDbVertex
100
AcDb2dVertex
62
5
10
129.100000
20
-181.099986
0
VERTEX
5
798
100
AcDbEntity
8
1
100
AcDbVertex
100
AcDb2dVertex
62
5
10
129.000000
20
-181.099986
0
SEQEND
5
799
100
AcDbEntity
8
1
0
ARC
5
79a
100
AcDbEntity
8
1
100
AcDbCircle
6
CONTINUOUS
62
5
10
129.000000
20
-180.799986
40
0.300000
100
AcDbArc
50
-179.999998
51
-89.999999
0
LINE
5
79b
100
AcDbEntity
8
1
100
AcDbLine
6
CONTINUOUS
62
5
10
128.700000
20
-180.799986
11
128.700000
21
-176.199986
0
ARC
5
79c
100
AcDbEntity
8
1
100
AcDbCircle
6
CONTINUOUS
62
5
10
129.000000
20
-176.199986
40
0.300000
100
AcDbArc
50
89.999999
51
-179.999998
0
POLYLINE
5
79d
100
AcDbEntity
8
1
6
CONTINUOUS
62
5
100
AcDb2dPolyline
66
1
10
0.0
20
0.0
30
0.0
70
0
0
VERTEX
5
79e
100
AcDbEntity
8
1
100
AcDbVertex
100
AcDb2dVertex
62
5
10
129.000000
20
-175.899986
0
VERTEX
5
79f
100
AcDbEntity
8
1
100
AcDbVertex
100
AcDb2dVertex
62
5
10
129.600000
20
-175.899986
0
VERTEX
5
7a0
100
AcDbEntity
8
1
100
AcDbVertex
100
AcDb2dVertex
62
5
10
129.600000
20
-158.099986
0
VERTEX
5
7a1
100
AcDbEntity
8
1
100
AcDbVertex
100
AcDb2dVertex
62
5
10
129.000000
20
-158.099986
0
SEQEND
5
7a2
100
AcDbEntity
8
1
0
ARC
5
7a3
100
AcDbEntity
8
1
100
AcDbCircle
6
CONTINUOUS
62
5
10
129.000000
20
-157.799986
40
0.300000
100
AcDbArc
50
-179.999998
51
-89.999999
0
LINE
5
7a4
100
AcDbEntity
8
1
100
AcDbLine
6
CONTINUOUS
62
5
10
128.700000
20
-157.799986
11
128.700000
21
-155.999986
0
ARC
5
7a5
100
AcDbEntity
8
1
100
AcDbCircle
6
CONTINUOUS
62
5
10
128.200000
20
-155.999986
40
0.500000
100
AcDbArc
50
0.000000
51
89.999999
0
LINE
5
7a6
100
AcDbEntity
8
1
100
AcDbLine
6
CONTINUOUS
62
5
10
128.200000
20
-155.499986
11
52.700000
21
-155.499986
0
ARC
5
7a7
100
AcDbEntity
8
1
100
AcDbCircle
6
CONTINUOUS
62
5
10
52.700000
20
-155.999986
40
0.500000
100
AcDbArc
50
89.999999
51
179.999998
0
LINE
5
7a8
100
AcDbEntity
8
1
100
AcDbLine
6
CONTINUOUS
62
5
10
52.200000
20
-155.999986
11
52.200000
21
-157.599986
0
ARC
5
7a9
100
AcDbEntity
8
1
100
AcDbCircle
6
CONTINUOUS
62
5
10
51.700000
20
-157.599986
40
0.500000
100
AcDbArc
50
-89.999999
51
0.000000
0
POLYLINE
5
7aa
100
AcDbEntity
8
1
6
CONTINUOUS
62
5
100
AcDb2dPolyline
66
1
10
0.0
20
0.0
30
0.0
70
0
0
VERTEX
5
7ab
100
AcDbEntity
8
1
100
AcDbVertex
100
AcDb2dVertex
62
5
10
51.700000
20
-158.099986
0
VERTEX
5
7ac
100
AcDbEntity
8
1
100
AcDbVertex
100
AcDb2dVertex
62
5
10
50.100000
20
-158.099986
0
VERTEX
5
7ad
100
AcDbEntity
8
1
100
AcDbVertex
100
AcDb2dVertex
62
5
10
50.100000
20
-175.899986
0
VERTEX
5
7ae
100
AcDbEntity
8
1
100
AcDbVertex
100
AcDb2dVertex
62
5
10
51.700000
20
-175.899986
0
SEQEND
5
7af
100
AcDbEntity
8
1
0
ARC
5
7b0
100
AcDbEntity
8
1
100
AcDbCircle
6
CONTINUOUS
62
5
10
51.700000
20
-176.399986
40
0.500000
100
AcDbArc
50
0.000000
51
89.999999
0
LINE
5
7b1
100
AcDbEntity
8
1
100
AcDbLine
6
CONTINUOUS
62
5
10
52.200000
20
-176.399986
11
52.200000
21
-180.599986
0
ARC
5
7b2
100
AcDbEntity
8
1
100
AcDbCircle
6
CONTINUOUS
62
5
10
51.700000
20
-180.599986
40
0.500000
100
AcDbArc
50
-89.999999
51
-0.000000
0
POLYLINE
5
7b3
100
AcDbEntity
8
1
6
CONTINUOUS
62
5
100
AcDb2dPolyline
66
1
10
0.0
20
0.0
30
0.0
70
0
0
VERTEX
5
7b4
100
AcDbEntity
8
1
100
AcDbVertex
100
AcDb2dVertex
62
5
10
51.700000
20
-181.099986
0
VERTEX
5
7b5
100
AcDbEntity
8
1
100
AcDbVertex
100
AcDb2dVertex
62
5
10
50.100000
20
-181.099986
0
VERTEX
5
7b6
100
AcDbEntity
8
1
100
AcDbVertex
100
AcDb2dVertex
62
5
10
50.100000
20
-198.899986
0
VERTEX
5
7b7
100
AcDbEntity
8
1
100
AcDbVertex
100
AcDb2dVertex
62
5
10
51.700000
20
-198.899986
0
SEQEND
5
7b8
100
AcDbEntity
8
1
0
ARC
5
7b9
100
AcDbEntity
8
1
100
AcDbCircle
6
CONTINUOUS
62
5
10
51.700000
20
-199.399986
40
0.500000
100
AcDbArc
50
0.000000
51
89.999999
0
LINE
5
7ba
100
AcDbEntity
8
1
100
AcDbLine
6
CONTINUOUS
62
5
10
52.200000
20
-199.399986
11
52.200000
21
-203.599986
0
ARC
5
7bb
100
AcDbEntity
8
1
100
AcDbCircle
6
CONTINUOUS
62
5
10
51.700000
20
-203.599986
40
0.500000
100
AcDbArc
50
-89.999999
51
0.000000
0
POLYLINE
5
7bc
100
AcDbEntity
8
1
6
CONTINUOUS
62
5
100
AcDb2dPolyline
66
1
10
0.0
20
0.0
30
0.0
70
0
0
VERTEX
5
7bd
100
AcDbEntity
8
1
100
AcDbVertex
100
AcDb2dVertex
62
5
10
51.700000
20
-204.099986
0
VERTEX
5
7be
100
AcDbEntity
8
1
100
AcDbVertex
100
AcDb2dVertex
62
5
10
50.100000
20
-204.099986
0
VERTEX
5
7bf
100
AcDbEntity
8
1
100
AcDbVertex
100
AcDb2dVertex
62
5
10
50.100000
20
-221.899986
0
VERTEX
5
7c0
100
AcDbEntity
8
1
100
AcDbVertex
100
AcDb2dVertex
62
5
10
51.700000
20
-221.899986
0
SEQEND
5
7c1
100
AcDbEntity
8
1
0
ARC
5
7c2
100
AcDbEntity
8
1
100
AcDbCircle
6
CONTINUOUS
62
5
10
51.700000
20
-222.399986
40
0.500000
100
AcDbArc
50
0.000000
51
89.999999
0
LINE
5
7c3
100
AcDbEntity
8
1
100
AcDbLine
6
CONTINUOUS
62
5
10
52.200000
20
-222.399986
11
52.200000
21
-223.999986
0
ARC
5
7c4
100
AcDbEntity
8
1
100
AcDbCircle
6
CONTINUOUS
62
5
10
52.700000
20
-223.999986
40
0.500000
100
AcDbArc
50
-179.999998
51
-89.999999
0
LINE
5
7c5
100
AcDbEntity
8
1
100
AcDbLine
6
CONTINUOUS
62
5
10
128.100000
20
-224.499986
11
128.200000
21
-224.499986
0
ARC
5
7c6
100
AcDbEntity
8
1
100
AcDbCircle
6
CONTINUOUS
62
5
10
137.100000
20
-239.999986
40
5.500000
100
AcDbArc
50
-89.999999
51
-0.000000
0
POLYLINE
5
7c7
100
AcDbEntity
8
1
6
CONTINUOUS
62
5
100
AcDb2dPolyline
66
1
10
0.0
20
0.0
30
0.0
70
0
0
VERTEX
5
7c8
100
AcDbEntity
8
1
100
AcDbVertex
100
AcDb2dVertex
62
5
10
142.600000
20
-239.999986
0
VERTEX
5
7c9
100
AcDbEntity
8
1
100
AcDbVertex
100
AcDb2dVertex
62
5
10
142.600000
20
-239.999986
0
VERTEX
5
7ca
100
AcDbEntity
8
1
100
AcDbVertex
100
AcDb2dVertex
62
5
10
142.600000
20
-139.999986
0
SEQEND
5
7cb
100
AcDbEntity
8
1
0
ARC
5
7cc
100
AcDbEntity
8
1
100
AcDbCircle
6
CONTINUOUS
62
5
10
137.100000
20
-139.999986
40
5.500000
100
AcDbArc
50
0.000000
51
89.999999
0
POLYLINE
5
7cd
100
AcDbEntity
8
1
6
CONTINUOUS
62
5
100
AcDb2dPolyline
66
1
10
0.0
20
0.0
30
0.0
70
0
0
VERTEX
5
7ce
100
AcDbEntity
8
1
100
AcDbVertex
100
AcDb2dVertex
62
5
10
137.100000
20
-134.499986
0
VERTEX
5
7cf
100
AcDbEntity
8
1
100
AcDbVertex
100
AcDb2dVertex
62
5
10
137.100000
20
-134.499986
0
VERTEX
5
7d0
100
AcDbEntity
8
1
100
AcDbVertex
100
AcDb2dVertex
62
5
10
42.100000
20
-134.499986
0
SEQEND
5
7d1
100
AcDbEntity
8
1
0
ARC
5
7d2
100
AcDbEntity
8
1
100
AcDbCircle
6
CONTINUOUS
62
5
10
42.100000
20
-139.999986
40
5.500000
100
AcDbArc
50
89.999999
51
-179.999998
0
POLYLINE
5
7d3
100
AcDbEntity
8
1
6
CONTINUOUS
62
5
100
AcDb2dPolyline
66
1
10
0.0
20
0.0
30
0.0
70
0
0
VERTEX
5
7d4
100
AcDbEntity
8
1
100
AcDbVertex
100
AcDb2dVertex
62
5
10
36.600000
20
-139.999986
0
VERTEX
5
7d5
100
AcDbEntity
8
1
100
AcDbVertex
100
AcDb2dVertex
62
5
10
36.600000
20
-139.999986
0
VERTEX
5
7d6
100
AcDbEntity
8
1
100
AcDbVertex
100
AcDb2dVertex
62
5
10
36.600000
20
-239.999986
0
SEQEND
5
7d7
100
AcDbEntity
8
1
0
ARC
5
7d8
100
AcDbEntity
8
1
100
AcDbCircle
6
CONTINUOUS
62
5
10
42.100000
20
-239.999986
40
5.500000
100
AcDbArc
50
179.999998
51
-89.999999
0
POLYLINE
5
7d9
100
AcDbEntity
8
1
6
CONTINUOUS
62
5
100
AcDb2dPolyline
66
1
10
0.0
20
0.0
30
0.0
70
0
0
VERTEX
5
7da
100
AcDbEntity
8
1
100
AcDbVertex
100
AcDb2dVertex
62
5
10
42.100000
20
-245.499986
0
VERTEX
5
7db
100
AcDbEntity
8
1
100
AcDbVertex
100
AcDb2dVertex
62
5
10
42.100000
20
-245.499986
0
VERTEX
5
7dc
100
AcDbEntity
8
1
100
AcDbVertex
100
AcDb2dVertex
62
5
10
137.100000
20
-245.499986
0
SEQEND
5
7dd
100
AcDbEntity
8
1
0
ARC
5
7de
100
AcDbEntity
8
1
100
AcDbCircle
6
CONTINUOUS
62
5
10
42.100000
20
-239.999986
40
6.000000
100
AcDbArc
50
179.999998
51
-89.999999
0
LINE
5
7df
100
AcDbEntity
8
1
100
AcDbLine
6
CONTINUOUS
62
5
10
42.100000
20
-245.999986
11
137.100000
21
-245.999986
0
ARC
5
7e0
100
AcDbEntity
8
1
100
AcDbCircle
6
CONTINUOUS
62
5
10
137.100000
20
-239.999986
40
6.000000
100
AcDbArc
50
-89.999999
51
0.000000
0
LINE
5
7e1
100
AcDbEntity
8
1
100
AcDbLine
6
CONTINUOUS
62
5
10
143.100000
20
-239.999986
11
143.100000
21
-139.999986
0
ARC
5
7e2
100
AcDbEntity
8
1
100
AcDbCircle
6
CONTINUOUS
62
5
10
137.100000
20
-139.999986
40
6.000000
100
AcDbArc
50
0.000000
51
89.999999
0
LINE
5
7e3
100
AcDbEntity
8
1
100
AcDbLine
6
CONTINUOUS
62
5
10
137.100000
20
-133.999986
11
42.100000
21
-133.999986
0
ARC
5
7e4
100
AcDbEntity
8
1
100
AcDbCircle
6
CONTINUOUS
62
5
10
42.100000
20
-139.999986
40
6.000000
100
AcDbArc
50
89.999999
51
179.999998
0
LINE
5
7e5
100
AcDbEntity
8
1
100
AcDbLine
6
CONTINUOUS
62
5
10
36.100000
20
-139.999986
11
36.100000
21
-239.999986
0
ARC
5
7e6
100
AcDbEntity
8
1
100
AcDbCircle
6
CONTINUOUS
62
5
10
133.600000
20
-235.699986
40
2.500000
100
AcDbArc
50
89.999999
51
179.999998
0
LINE
5
7e7
100
AcDbEntity
8
1
100
AcDbLine
6
CONTINUOUS
62
5
10
133.600000
20
-233.199986
11
136.300000
21
-233.199986
0
ARC
5
7e8
100
AcDbEntity
8
1
100
AcDbCircle
6
CONTINUOUS
62
5
10
136.300000
20
-228.199986
40
5.000000
100
AcDbArc
50
-89.999999
51
-0.000000
0
LINE
5
7e9
100
AcDbEntity
8
1
100
AcDbLine
6
CONTINUOUS
62
5
10
141.300000
20
-228.199986
11
141.300000
21
-151.799986
0
ARC
5
7ea
100
AcDbEntity
8
1
100
AcDbCircle
6
CONTINUOUS
62
5
10
136.300000
20
-151.799986
40
5.000000
100
AcDbArc
50
0.000000
51
89.999999
0
LINE
5
7eb
100
AcDbEntity
8
1
100
AcDbLine
6
CONTINUOUS
62
5
10
136.300000
20
-146.799986
11
133.600000
21
-146.799986
0
ARC
5
7ec
100
AcDbEntity
8
1
100
AcDbCircle
6
CONTINUOUS
62
5
10
133.600000
20
-144.299986
40
2.500000
100
AcDbArc
50
179.999998
51
-89.999999
0
LINE
5
7ed
100
AcDbEntity
8
1
100
AcDbLine
6
CONTINUOUS
62
5
10
131.100000
20
-144.299986
11
131.100000
21
-140.799986
0
ARC
5
7ee
100
AcDbEntity
8
1
100
AcDbCircle
6
CONTINUOUS
62
5
10
126.100000
20
-140.799986
40
5.000000
100
AcDbArc
50
0.000000
51
89.999999
0
LINE
5
7ef
100
AcDbEntity
8
1
100
AcDbLine
6
CONTINUOUS
62
5
10
126.100000
20
-135.799986
11
53.100000
21
-135.799986
0
ARC
5
7f0
100
AcDbEntity
8
1
100
AcDbCircle
6
CONTINUOUS
62
5
10
53.100000
20
-140.799986
40
5.000000
100
AcDbArc
50
89.999999
51
179.999998
0
LINE
5
7f1
100
AcDbEntity
8
1
100
AcDbLine
6
CONTINUOUS
62
5
10
48.100000
20
-140.799986
11
48.100000
21
-144.299986
0
ARC
5
7f2
100
AcDbEntity
8
1
100
AcDbCircle
6
CONTINUOUS
62
5
10
45.600000
20
-144.299986
40
2.500000
100
AcDbArc
50
-89.999999
51
-0.000000
0
LINE
5
7f3
100
AcDbEntity
8
1
100
AcDbLine
6
CONTINUOUS
62
5
10
45.600000
20
-146.799986
11
42.900000
21
-146.799986
0
ARC
5
7f4
100
AcDbEntity
8
1
100
AcDbCircle
6
CONTINUOUS
62
5
10
42.900000
20
-151.799986
40
5.000000
100
AcDbArc
50
89.999999
51
179.999998
0
LINE
5
7f5
100
AcDbEntity
8
1
100
AcDbLine
6
CONTINUOUS
62
5
10
37.900000
20
-151.799986
11
37.900000
21
-228.199986
0
ARC
5
7f6
100
AcDbEntity
8
1
100
AcDbCircle
6
CONTINUOUS
62
5
10
42.900000
20
-228.199986
40
5.000000
100
AcDbArc
50
179.999998
51
-89.999999
0
LINE
5
7f7
100
AcDbEntity
8
1
100
AcDbLine
6
CONTINUOUS
62
5
10
42.900000
20
-233.199986
11
45.600000
21
-233.199986
0
ARC
5
7f8
100
AcDbEntity
8
1
100
AcDbCircle
6
CONTINUOUS
62
5
10
45.600000
20
-235.699986
40
2.500000
100
AcDbArc
50
0.000000
51
89.999999
0
LINE
5
7f9
100
AcDbEntity
8
1
100
AcDbLine
6
CONTINUOUS
62
5
10
48.100000
20
-235.699986
11
48.100000
21
-239.199986
0
ARC
5
7fa
100
AcDbEntity
8
1
100
AcDbCircle
6
CONTINUOUS
62
5
10
53.100000
20
-239.199986
40
5.000000
100
AcDbArc
50
179.999998
51
-89.999999
0
LINE
5
7fb
100
AcDbEntity
8
1
100
AcDbLine
6
CONTINUOUS
62
5
10
53.100000
20
-244.199986
11
126.100000
21
-244.199986
0
ARC
5
7fc
100
AcDbEntity
8
1
100
AcDbCircle
6
CONTINUOUS
62
5
10
126.100000
20
-239.199986
40
5.000000
100
AcDbArc
50
-89.999999
51
0.000000
0
LINE
5
7fd
100
AcDbEntity
8
1
100
AcDbLine
6
CONTINUOUS
62
5
10
131.100000
20
-239.199986
11
131.100000
21
-235.699986
0
ARC
5
7fe
100
AcDbEntity
8
1
100
AcDbCircle
6
CONTINUOUS
62
5
10
47.000000
20
-172.999986
40
0.500000
100
AcDbArc
50
89.999999
51
179.999998
0
POLYLINE
5
7ff
100
AcDbEntity
8
1
6
CONTINUOUS
62
5
100
AcDb2dPolyline
66
1
10
0.0
20
0.0
30
0.0
70
0
0
VERTEX
5
800
100
AcDbEntity
8
1
100
AcDbVertex
100
AcDb2dVertex
62
5
10
47.000000
20
-172.499986
0
VERTEX
5
801
100
AcDbEntity
8
1
100
AcDbVertex
100
AcDb2dVertex
62
5
10
47.000000
20
-172.499986
0
VERTEX
5
802
100
AcDbEntity
8
1
100
AcDbVertex
100
AcDb2dVertex
62
5
10
47.000000
20
-161.499986
0
VERTEX
5
803
100
AcDbEntity
8
1
100
AcDbVertex
100
AcDb2dVertex
62
5
10
47.000000
20
-161.499986
0
SEQEND
5
804
100
AcDbEntity
8
1
0
ARC
5
805
100
AcDbEntity
8
1
100
AcDbCircle
6
CONTINUOUS
62
5
10
47.000000
20
-160.999986
40
0.500000
100
AcDbArc
50
179.999998
51
-89.999999
0
POLYLINE
5
806
100
AcDbEntity
8
1
6
CONTINUOUS
62
5
100
AcDb2dPolyline
66
1
10
0.0
20
0.0
30
0.0
70
0
0
VERTEX
5
807
100
AcDbEntity
8
1
100
AcDbVertex
100
AcDb2dVertex
62
5
10
46.500000
20
-160.999986
0
VERTEX
5
808
100
AcDbEntity
8
1
100
AcDbVertex
100
AcDb2dVertex
62
5
10
46.500000
20
-158.149986
0
VERTEX
5
809
100
AcDbEntity
8
1
100
AcDbVertex
100
AcDb2dVertex
62
5
10
44.100000
20
-158.149986
0
SEQEND
5
80a
100
AcDbEntity
8
1
0
POLYLINE
5
80b
100
AcDbEntity
8
1
6
CONTINUOUS
62
5
100
AcDb2dPolyline
66
1
10
0.0
20
0.0
30
0.0
70
0
0
VERTEX
5
80c
100
AcDbEntity
8
1
100
AcDbVertex
100
AcDb2dVertex
62
5
10
44.100000
20
-175.849986
0
VERTEX
5
80d
100
AcDbEntity
8
1
100
AcDbVertex
100
AcDb2dVertex
62
5
10
46.500000
20
-175.849986
0
VERTEX
5
80e
100
AcDbEntity
8
1
100
AcDbVertex
100
AcDb2dVertex
62
5
10
46.500000
20
-172.999986
0
SEQEND
5
80f
100
AcDbEntity
8
1
0
LINE
5
810
100
AcDbEntity
8
1
100
AcDbLine
6
CONTINUOUS
62
5
10
45.600000
20
-175.749986
11
45.600000
21
-158.249986
0
ARC
5
811
100
AcDbEntity
8
1
100
AcDbCircle
6
CONTINUOUS
62
5
10
46.900000
20
-160.999986
40
0.500000
100
AcDbArc
50
179.999998
51
-89.999999
0
LINE
5
812
100
AcDbEntity
8
1
100
AcDbLine
6
CONTINUOUS
62
5
10
46.400000
20
-160.999986
11
46.400000
21
-158.249986
0
LINE
5
813
100
AcDbEntity
8
1
100
AcDbLine
6
CONTINUOUS
62
5
10
46.400000
20
-175.749986
11
46.400000
21
-172.999986
0
ARC
5
814
100
AcDbEntity
8
1
100
AcDbCircle
6
CONTINUOUS
62
5
10
46.900000
20
-172.999986
40
0.500000
100
AcDbArc
50
89.999999
51
179.999998
0
POLYLINE
5
815
100
AcDbEntity
8
1
6
CONTINUOUS
62
5
100
AcDb2dPolyline
66
1
10
0.0
20
0.0
30
0.0
70
0
0
VERTEX
5
816
100
AcDbEntity
8
1
100
AcDbVertex
100
AcDb2dVertex
62
5
10
46.900000
20
-172.499986
0
VERTEX
5
817
100
AcDbEntity
8
1
100
AcDbVertex
100
AcDb2dVertex
62
5
10
46.900000
20
-172.499986
0
VERTEX
5
818
100
AcDbEntity
8
1
100
AcDbVertex
100
AcDb2dVertex
62
5
10
46.900000
20
-161.499986
0
VERTEX
5
819
100
AcDbEntity
8
1
100
AcDbVertex
100
AcDb2dVertex
62
5
10
46.900000
20
-161.499986
0
SEQEND
5
81a
100
AcDbEntity
8
1
0
ARC
5
81b
100
AcDbEntity
8
1
100
AcDbCircle
6
CONTINUOUS
62
5
10
133.700000
20
-175.599979
40
1.000000
100
AcDbArc
50
179.999998
51
-89.999999
0
LINE
5
81c
100
AcDbEntity
8
1
100
AcDbLine
6
CONTINUOUS
62
5
10
132.700000
20
-175.599979
11
132.700000
21
-172.999986
0
ARC
5
81d
100
AcDbEntity
8
1
100
AcDbCircle
6
CONTINUOUS
62
5
10
132.200000
20
-172.999986
40
0.500000
100
AcDbArc
50
0.000000
51
89.999999
0
POLYLINE
5
81e
100
AcDbEntity
8
1
6
CONTINUOUS
62
5
100
AcDb2dPolyline
66
1
10
0.0
20
0.0
30
0.0
70
0
0
VERTEX
5
81f
100
AcDbEntity
8
1
100
AcDbVertex
100
AcDb2dVertex
62
5
10
132.200000
20
-172.499986
0
VERTEX
5
820
100
AcDbEntity
8
1
100
AcDbVertex
100
AcDb2dVertex
62
5
10
132.200000
20
-172.499986
0
VERTEX
5
821
100
AcDbEntity
8
1
100
AcDbVertex
100
AcDb2dVertex
62
5
10
132.200000
20
-172.399986
0
VERTEX
5
822
100
AcDbEntity
8
1
100
AcDbVertex
100
AcDb2dVertex
62
5
10
132.200000
20
-161.499986
0
VERTEX
5
823
100
AcDbEntity
8
1
100
AcDbVertex
100
AcDb2dVertex
62
5
10
132.200000
20
-161.499986
0
SEQEND
5
824
100
AcDbEntity
8
1
0
ARC
5
825
100
AcDbEntity
8
1
100
AcDbCircle
6
CONTINUOUS
62
5
10
132.200000
20
-160.999986
40
0.500000
100
AcDbArc
50
-89.999999
51
0.000000
0
LINE
5
826
100
AcDbEntity
8
1
100
AcDbLine
6
CONTINUOUS
62
5
10
132.700000
20
-160.999986
11
132.700000
21
-158.399970
0
ARC
5
827
100
AcDbEntity
8
1
100
AcDbCircle
6
CONTINUOUS
62
5
10
133.700000
20
-158.399970
40
1.000000
100
AcDbArc
50
89.999999
51
179.999998
0
LINE
5
828
100
AcDbEntity
8
1
100
AcDbLine
6
CONTINUOUS
62
5
10
133.700000
20
-157.399970
11
135.800000
21
-157.399970
0
ARC
5
829
100
AcDbEntity
8
1
100
AcDbCircle
6
CONTINUOUS
62
5
10
135.800000
20
-158.399970
40
1.000000
100
AcDbArc
50
0.000000
51
89.999999
0
LINE
5
82a
100
AcDbEntity
8
1
100
AcDbLine
6
CONTINUOUS
62
5
10
136.800000
20
-158.399970
11
136.800000
21
-175.599979
0
ARC
5
82b
100
AcDbEntity
8
1
100
AcDbCircle
6
CONTINUOUS
62
5
10
135.800000
20
-175.599979
40
1.000000
100
AcDbArc
50
-89.999999
51
0.000000
0
POLYLINE
5
82c
100
AcDbEntity
8
1
6
CONTINUOUS
62
5
100
AcDb2dPolyline
66
1
10
0.0
20
0.0
30
0.0
70
0
0
VERTEX
5
82d
100
AcDbEntity
8
1
100
AcDbVertex
100
AcDb2dVertex
62
5
10
135.800000
20
-176.599979
0
VERTEX
5
82e
100
AcDbEntity
8
1
100
AcDbVertex
100
AcDb2dVertex
62
5
10
135.650000
20
-176.599979
0
VERTEX
5
82f
100
AcDbEntity
8
1
100
AcDbVertex
100
AcDb2dVertex
62
5
10
133.700000
20
-176.599979
0
SEQEND
5
830
100
AcDbEntity
8
1
0
ARC
5
831
100
AcDbEntity
8
1
100
AcDbCircle
6
CONTINUOUS
62
5
10
132.300000
20
-172.999986
40
0.500000
100
AcDbArc
50
0.000000
51
89.999999
0
POLYLINE
5
832
100
AcDbEntity
8
1
6
CONTINUOUS
62
5
100
AcDb2dPolyline
66
1
10
0.0
20
0.0
30
0.0
70
0
0
VERTEX
5
833
100
AcDbEntity
8
1
100
AcDbVertex
100
AcDb2dVertex
62
5
10
132.300000
20
-172.499986
0
VERTEX
5
834
100
AcDbEntity
8
1
100
AcDbVertex
100
AcDb2dVertex
62
5
10
132.300000
20
-172.499986
0
VERTEX
5
835
100
AcDbEntity
8
1
100
AcDbVertex
100
AcDb2dVertex
62
5
10
132.300000
20
-161.499986
0
VERTEX
5
836
100
AcDbEntity
8
1
100
AcDbVertex
100
AcDb2dVertex
62
5
10
132.300000
20
-161.499986
0
SEQEND
5
837
100
AcDbEntity
8
1
0
ARC
5
838
100
AcDbEntity
8
1
100
AcDbCircle
6
CONTINUOUS
62
5
10
132.300000
20
-160.999986
40
0.500000
100
AcDbArc
50
-89.999999
51
0.000000
0
LINE
5
839
100
AcDbEntity
8
1
100
AcDbLine
6
CONTINUOUS
62
5
10
132.800000
20
-160.999986
11
132.800000
21
-158.499970
0
ARC
5
83a
100
AcDbEntity
8
1
100
AcDbCircle
6
CONTINUOUS
62
5
10
133.800000
20
-158.499970
40
1.000000
100
AcDbArc
50
89.999999
51
179.999998
0
LINE
5
83b
100
AcDbEntity
8
1
100
AcDbLine
6
CONTINUOUS
62
5
10
133.800000
20
-157.499970
11
135.700000
21
-157.499970
0
ARC
5
83c
100
AcDbEntity
8
1
100
AcDbCircle
6
CONTINUOUS
62
5
10
135.700000
20
-158.499970
40
1.000000
100
AcDbArc
50
0.000000
51
89.999999
0
LINE
5
83d
100
AcDbEntity
8
1
100
AcDbLine
6
CONTINUOUS
62
5
10
136.700000
20
-158.499970
11
136.700000
21
-175.499979
0
ARC
5
83e
100
AcDbEntity
8
1
100
AcDbCircle
6
CONTINUOUS
62
5
10
135.700000
20
-175.499979
40
1.000000
100
AcDbArc
50
-89.999999
51
0.000000
0
POLYLINE
5
83f
100
AcDbEntity
8
1
6
CONTINUOUS
62
5
100
AcDb2dPolyline
66
1
10
0.0
20
0.0
30
0.0
70
0
0
VERTEX
5
840
100
AcDbEntity
8
1
100
AcDbVertex
100
AcDb2dVertex
62
5
10
135.700000
20
-176.499979
0
VERTEX
5
841
100
AcDbEntity
8
1
100
AcDbVertex
100
AcDb2dVertex
62
5
10
135.650000
20
-176.499979
0
VERTEX
5
842
100
AcDbEntity
8
1
100
AcDbVertex
100
AcDb2dVertex
62
5
10
133.800000
20
-176.499979
0
SEQEND
5
843
100
AcDbEntity
8
1
0
ARC
5
844
100
AcDbEntity
8
1
100
AcDbCircle
6
CONTINUOUS
62
5
10
133.800000
20
-175.499979
40
1.000000
100
AcDbArc
50
179.999998
51
-89.999999
0
LINE
5
845
100
AcDbEntity
8
1
100
AcDbLine
6
CONTINUOUS
62
5
10
132.800000
20
-175.499979
11
132.800000
21
-172.999986
0
ARC
5
846
100
AcDbEntity
8
1
100
AcDbCircle
6
CONTINUOUS
62
5
10
134.699965
20
-159.799986
40
0.300000
100
AcDbArc
50
0.000000
51
89.999999
0
LINE
5
847
100
AcDbEntity
8
1
100
AcDbLine
6
CONTINUOUS
62
5
10
134.999965
20
-159.799986
11
134.999965
21
-174.699986
0
ARC
5
848
100
AcDbEntity
8
1
100
AcDbCircle
6
CONTINUOUS
62
5
10
134.699965
20
-174.699986
40
0.300000
100
AcDbArc
50
-89.999999
51
0.000000
0
POLYLINE
5
849
100
AcDbEntity
8
1
6
CONTINUOUS
62
5
100
AcDb2dPolyline
66
1
10
0.0
20
0.0
30
0.0
70
0
0
VERTEX
5
84a
100
AcDbEntity
8
1
100
AcDbVertex
100
AcDb2dVertex
62
5
10
134.699965
20
-174.999986
0
VERTEX
5
84b
100
AcDbEntity
8
1
100
AcDbVertex
100
AcDb2dVertex
62
5
10
133.599965
20
-174.999986
0
VERTEX
5
84c
100
AcDbEntity
8
1
100
AcDbVertex
100
AcDb2dVertex
62
5
10
133.599965
20
-162.049986
0
SEQEND
5
84d
100
AcDbEntity
8
1
0
ARC
5
84e
100
AcDbEntity
8
1
100
AcDbCircle
6
CONTINUOUS
62
5
10
133.899965
20
-162.049986
40
0.300000
100
AcDbArc
50
89.999999
51
179.999998
0
LINE
5
84f
100
AcDbEntity
8
1
100
AcDbLine
6
CONTINUOUS
62
5
10
133.899965
20
-159.499986
11
134.699965
21
-159.499986
0
LINE
5
850
100
AcDbEntity
8
1
100
AcDbLine
6
CONTINUOUS
62
5
10
135.650000
20
-175.499986
11
135.650000
21
-158.999986
0
ARC
5
851
100
AcDbEntity
8
1
100
AcDbCircle
6
CONTINUOUS
62
5
10
134.099965
20
-171.949986
40
0.300000
100
AcDbArc
50
-179.999998
51
-89.999999
0
LINE
5
852
100
AcDbEntity
8
1
100
AcDbLine
6
CONTINUOUS
62
5
10
134.099965
20
-172.249986
11
134.699965
21
-172.249986
0
ARC
5
853
100
AcDbEntity
8
1
100
AcDbCircle
6
CONTINUOUS
62
5
10
134.699965
20
-171.949986
40
0.300000
100
AcDbArc
50
-89.999999
51
-0.000000
0
LINE
5
854
100
AcDbEntity
8
1
100
AcDbLine
6
CONTINUOUS
62
5
10
134.999965
20
-171.949986
11
134.999965
21
-162.049986
0
ARC
5
855
100
AcDbEntity
8
1
100
AcDbCircle
6
CONTINUOUS
62
5
10
134.699965
20
-162.049986
40
0.300000
100
AcDbArc
50
0.000000
51
89.999999
0
LINE
5
856
100
AcDbEntity
8
1
100
AcDbLine
6
CONTINUOUS
62
5
10
134.699965
20
-161.749986
11
134.099965
21
-161.749986
0
ARC
5
857
100
AcDbEntity
8
1
100
AcDbCircle
6
CONTINUOUS
62
5
10
134.099965
20
-162.049986
40
0.300000
100
AcDbArc
50
89.999999
51
179.999998
0
LINE
5
858
100
AcDbEntity
8
1
100
AcDbLine
6
CONTINUOUS
62
5
10
133.799965
20
-162.049986
11
133.799965
21
-171.949986
0
LINE
5
859
100
AcDbEntity
8
1
100
AcDbLine
6
CONTINUOUS
62
5
10
-40.000000
20
-32.000000
11
-40.000000
21
-340.000000
0
POLYLINE
5
85a
100
AcDbEntity
8
1
6
CONTINUOUS
62
5
100
AcDb2dPolyline
66
1
10
0.0
20
0.0
30
0.0
70
1
0
VERTEX
5
85b
100
AcDbEntity
8
1
100
AcDbVertex
100
AcDb2dVertex
62
5
10
-40.000000
20
-340.000000
0
VERTEX
5
85c
100
AcDbEntity
8
1
100
AcDbVertex
100
AcDb2dVertex
62
5
10
-40.000000
20
0.000000
0
VERTEX
5
85d
100
AcDbEntity
8
1
100
AcDbVertex
100
AcDb2dVertex
62
5
10
280.000000
20
0.000000
0
VERTEX
5
85e
100
AcDbEntity
8
1
100
AcDbVertex
100
AcDb2dVertex
62
5
10
280.000000
20
-340.000000
0
VERTEX
5
85f
100
AcDbEntity
8
1
100
AcDbVertex
100
AcDb2dVertex
62
5
10
-40.000000
20
-340.000000
0
SEQEND
5
860
100
AcDbEntity
8
1
0
ENDSEC
0
SECTION
2
OBJECTS
0
DICTIONARY
5
861
100
AcDbDictionary
3
ACAD_GROUP
350
862
3
ACAD_MLINESTYLE
350
863
0
DICTIONARY
5
862
102
{ACAD_REACTORS
330
861
102
}
100
AcDbDictionary
0
DICTIONARY
5
863
102
{ACAD_REACTORS
330
861
102
}
100
AcDbDictionary
3
STANDARD
350
864
0
MLINESTYLE
5
864
102
{ACAD_REACTORS
330
863
102
}
100
AcDbMlineStyle
2
STANDARD
70
0
3

62
0
51
90.0
52
90.0
71
2
49
0.5
62
256
6
BYLAYER
49
-0.5
62
256
6
BYLAYER
0
ENDSEC
0
EOF
