0
SECTION
2
HEADER
9
$ACADVER
1
AC1012
9
$EXTMIN
10
-1.580000
20
-13.390000
30
0.0
9
$EXTMAX
10
11.030000
20
0.010000
30
0.0
9
$LIMMIN
10
-40.132000
20
-340.106000
9
$LIMMAX
10
280.162000
20
0.254000
9
$DIMSCALE
40
1.000000
9
$PDMODE
70
2
9
$PDSIZE
40
0.0
  9
$HANDSEED
  5
b83
0
ENDSEC
0
SECTION
2
CLASSES
0
ENDSEC
0
SECTION
2
TABLES
0
TABLE
2
LTYPE
5
1e
100
AcDbSymbolTable
70
12
0
LTYPE
5
1f
100
AcDbSymbolTableRecord
100
AcDbLinetypeTableRecord
2
BYBLOCK
70
0
3

72
65
73
0
40
0.0
0
LTYPE
5
20
100
AcDbSymbolTableRecord
100
AcDbLinetypeTableRecord
2
BYLAYER
70
0
3

72
65
73
0
40
0.0
0
LTYPE
5
21
100
AcDbSymbolTableRecord
100
AcDbLinetypeTableRecord
2
CONTINUOUS
70
64
3
Solid line
72
65
73
0
40
0.0
0
LTYPE
5
22
100
AcDbSymbolTableRecord
100
AcDbLinetypeTableRecord
2
DASHED
70
64
3
__ __ __ __ __ __ __ __ __ __ __ __ __ __ __
72
65
73
2
40
0.75
49
0.5
74
0
49
-0.25
74
0
0
LTYPE
5
23
100
AcDbSymbolTableRecord
100
AcDbLinetypeTableRecord
2
DOT
70
64
3
...............................................
72
65
73
2
40
0.25
49
0.0
74
0
49
-0.25
74
0
0
LTYPE
5
24
100
AcDbSymbolTableRecord
100
AcDbLinetypeTableRecord
2
DASHDOT
70
64
3
__ . __ . __ . __ . __ . __ . __ . __ . __ . --
72
65
73
4
40
1.0
49
0.5
74
0
49
-0.25
74
0
49
0.0
74
0
49
-0.25
74
0
0
LTYPE
5
25
100
AcDbSymbolTableRecord
100
AcDbLinetypeTableRecord
2
CENTER
70
64
3
____ _ ____ _ ____ _ ____ _ ____ _ ____ _ ____
72
65
73
4
40
2.0
49
1.25
74
0
49
-0.25
74
0
49
0.25
74
0
49
-0.25
74
0
0
LTYPE
5
26
100
AcDbSymbolTableRecord
100
AcDbLinetypeTableRecord
2
PHANTOM
70
64
3
_____ _ _ _____ _ _ _____ _ _ _____ _ _ ____
72
65
73
6
40
2.5
49
1.25
74
0
49
-0.25
74
0
49
0.25
74
0
49
-0.25
74
0
49
0.25
74
0
49
-0.25
74
0
0
LTYPE
5
27
100
AcDbSymbolTableRecord
100
AcDbLinetypeTableRecord
2
HIDDEN
70
64
3
_ _ _ _ _ _ _ _ _ _ _ _ _ _ _ _ _ _ _ _ _ _ _
72
65
73
2
40
0.375
49
0.25
74
0
49
-0.125
74
0
0
LTYPE
5
28
100
AcDbSymbolTableRecord
100
AcDbLinetypeTableRecord
2
BORDER
70
64
3
__ __ . __ __ . __ __ . __ __ . __ __ . __ __
72
65
73
6
40
1.75
49
0.5
74
0
49
-0.25
74
0
49
0.5
74
0
49
-0.25
74
0
49
0.0
74
0
49
-0.25
74
0
0
LTYPE
5
29
100
AcDbSymbolTableRecord
100
AcDbLinetypeTableRecord
2
DIVIDE
70
64
3
__ . . __ . . __ . . __ . . __ . . __ . . __
72
65
73
6
40
1.25
49
0.5
74
0
49
-0.25
74
0
49
0.0
74
0
49
-0.25
74
0
49
0.0
74
0
49
-0.25
74
0
0
LTYPE
5
2a
100
AcDbSymbolTableRecord
100
AcDbLinetypeTableRecord
2
DOT2
70
64
3
...............................................
72
65
73
2
40
0.125
49
0.0
74
0
49
-0.125
74
0
0
ENDTAB
0
TABLE
2
STYLE
5
2b
100
AcDbSymbolTable
70
1
0
STYLE
5
2c
100
AcDbSymbolTableRecord
100
AcDbTextStyleTableRecord
2
STANDARD
70
64
40
0.0
41
1.0
50
0.0
71
0
42
5.0
3
txt
4
bigfont
0
ENDTAB
0
TABLE
2
LAYER
5
2d
100
AcDbSymbolTable
70
2
0
LAYER
5
2e
100
AcDbSymbolTableRecord
100
AcDbLayerTableRecord
2
0
70
0
62
7
6
CONTINUOUS
0
LAYER
5
2f
100
AcDbSymbolTableRecord
100
AcDbLayerTableRecord
2
1
70
0
62
7
6
CONTINUOUS
0
ENDTAB
0
TABLE
2
APPID
5
30
100
AcDbSymbolTable
70
1
0
APPID
5
31
100
AcDbSymbolTableRecord
100
AcDbRegAppTableRecord
2
ACAD
70
64
0
ENDTAB
0
TABLE
2
DIMSTYLE
5
32
100
AcDbSymbolTable
70
0
0
ENDTAB
0
TABLE
2
UCS
5
33
100
AcDbSymbolTable
70
0
0
ENDTAB
0
TABLE
2
VIEW
5
34
100
AcDbSymbolTable
70
0
0
ENDTAB
0
TABLE
2
VPORT
5
35
100
AcDbSymbolTable
70
0
0
ENDTAB
0
TABLE
2
BLOCK_RECORD
5
36
100
AcDbSymbolTable
70
0
0
BLOCK_RECORD
5
37
100
AcDbSymbolTableRecord
100
AcDbBlockTableRecord
2
*MODEL_SPACE
0
BLOCK_RECORD
5
38
100
AcDbSymbolTableRecord
100
AcDbBlockTableRecord
2
*PAPER_SPACE
0
BLOCK_RECORD
5
39
100
AcDbSymbolTableRecord
100
AcDbBlockTableRecord
2
OPEN
0
BLOCK_RECORD
5
3a
100
AcDbSymbolTableRecord
100
AcDbBlockTableRecord
2
HALF
0
BLOCK_RECORD
5
3b
100
AcDbSymbolTableRecord
100
AcDbBlockTableRecord
2
CLOSEDBLANK
0
BLOCK_RECORD
5
3c
100
AcDbSymbolTableRecord
100
AcDbBlockTableRecord
2
HALFCLOSE_R
0
BLOCK_RECORD
5
3d
100
AcDbSymbolTableRecord
100
AcDbBlockTableRecord
2
DOT
0
BLOCK_RECORD
5
3e
100
AcDbSymbolTableRecord
100
AcDbBlockTableRecord
2
HALFOPEN_R
0
BLOCK_RECORD
5
3f
100
AcDbSymbolTableRecord
100
AcDbBlockTableRecord
2
CLOSEDF
0
BLOCK_RECORD
5
40
100
AcDbSymbolTableRecord
100
AcDbBlockTableRecord
2
HALF_R
0
ENDTAB
0
ENDSEC
0
SECTION
2
BLOCKS
0
BLOCK
5
41
100
AcDbEntity
8
0
100
AcDbBlockBegin
2
*MODEL_SPACE
70
0
10
0.0
20
0.0
30
0.0
3
*MODEL_SPACE
1

0
ENDBLK
5
42
100
AcDbEntity
8
0
100
AcDbBlockEnd
0
BLOCK
5
43
100
AcDbEntity
67
1
8
0
100
AcDbBlockBegin
2
*PAPER_SPACE
70
0
10
0.0
20
0.0
30
0.0
3
*PAPER_SPACE
1

0
ENDBLK
5
44
100
AcDbEntity
67
1
8
0
100
AcDbBlockEnd
0
BLOCK
5
45
100
AcDbEntity
8
0
100
AcDbBlockBegin
2
OPEN
70
0
10
0.0
20
0.0
30
0.0
3
OPEN
1

0
LINE
5
46
100
AcDbEntity
8
0
6
BYBLOCK
62
0
100
AcDbLine
10
0.000000
20
0.000000
11
-1.000000
21
0.000000
0
LINE
5
47
100
AcDbEntity
8
0
6
BYBLOCK
62
0
100
AcDbLine
10
-1.000000
20
-0.166667
11
0.000000
21
0.000000
0
LINE
5
48
100
AcDbEntity
8
0
6
BYBLOCK
62
0
100
AcDbLine
10
-1.000000
20
0.166667
11
0.000000
21
0.000000
0
ENDBLK
5
49
100
AcDbEntity
8
0
100
AcDbBlockEnd
0
BLOCK
5
4a
100
AcDbEntity
8
0
100
AcDbBlockBegin
2
HALF
70
0
10
0.0
20
0.0
30
0.0
3
HALF
1

0
SOLID
5
4b
100
AcDbEntity
8
0
6
BYBLOCK
62
0
100
AcDbTrace
10
-1.000000
20
0.166667
11
-1.000000
21
-0.166667
12
0.000000
22
0.000000
13
0.000000
23
0.000000
0
ENDBLK
5
4c
100
AcDbEntity
8
0
100
AcDbBlockEnd
0
BLOCK
5
4d
100
AcDbEntity
8
0
100
AcDbBlockBegin
2
CLOSEDBLANK
70
0
10
0.0
20
0.0
30
0.0
3
CLOSEDBLANK
1

0
LINE
5
4e
100
AcDbEntity
8
0
6
BYBLOCK
62
0
100
AcDbLine
10
-1.000000
20
0.166667
11
-1.000000
21
-0.166667
0
LINE
5
4f
100
AcDbEntity
8
0
6
BYBLOCK
62
0
100
AcDbLine
10
0.000000
20
0.000000
11
-1.000000
21
-0.166667
0
LINE
5
50
100
AcDbEntity
8
0
6
BYBLOCK
62
0
100
AcDbLine
10
-1.000000
20
0.166667
11
0.000000
21
0.000000
0
ENDBLK
5
51
100
AcDbEntity
8
0
100
AcDbBlockEnd
0
BLOCK
5
52
100
AcDbEntity
8
0
100
AcDbBlockBegin
2
HALFCLOSE_R
70
0
10
0.0
20
0.0
30
0.0
3
HALFCLOSE_R
1

0
LINE
5
53
100
AcDbEntity
8
0
6
BYBLOCK
62
0
100
AcDbLine
10
-1.000000
20
-0.166667
11
-1.000000
21
0.000000
0
LINE
5
54
100
AcDbEntity
8
0
6
BYBLOCK
62
0
100
AcDbLine
10
-1.000000
20
-0.166667
11
0.000000
21
0.000000
0
LINE
5
55
100
AcDbEntity
8
0
6
BYBLOCK
62
0
100
AcDbLine
10
0.000000
20
0.000000
11
-1.000000
21
0.000000
0
ENDBLK
5
56
100
AcDbEntity
8
0
100
AcDbBlockEnd
0
BLOCK
5
57
100
AcDbEntity
8
0
100
AcDbBlockBegin
2
DOT
70
0
10
0.0
20
0.0
30
0.0
3
DOT
1

0
LINE
5
58
100
AcDbEntity
8
0
6
BYBLOCK
62
0
100
AcDbLine
10
0.000000
20
0.000000
11
-1.000000
21
0.000000
0
POLYLINE
5
59
100
AcDbEntity
8
0
6
BYBLOCK
62
0
100
AcDb2dPolyline
66
1
10
0.0
20
0.0
30
0.0
70
1
40
0.166667
41
0.166667
0
VERTEX
5
5a
100
AcDbEntity
8
0
100
AcDbVertex
100
AcDb2dVertex
62
10
10
-0.083333
20
0.000000
42
1.000000
0
VERTEX
5
5b
100
AcDbEntity
8
0
100
AcDbVertex
100
AcDb2dVertex
62
10
10
0.083333
20
0.000000
42
1.000000
0
SEQEND
5
5c
100
AcDbEntity
8
0
0
ENDBLK
5
5d
100
AcDbEntity
8
0
100
AcDbBlockEnd
0
BLOCK
5
5e
100
AcDbEntity
8
0
100
AcDbBlockBegin
2
HALFOPEN_R
70
0
10
0.0
20
0.0
30
0.0
3
HALFOPEN_R
1

0
LINE
5
5f
100
AcDbEntity
8
0
6
BYBLOCK
62
0
100
AcDbLine
10
-1.000000
20
-0.166667
11
0.000000
21
0.000000
0
LINE
5
60
100
AcDbEntity
8
0
6
BYBLOCK
62
0
100
AcDbLine
10
0.000000
20
0.000000
11
-1.000000
21
0.000000
0
ENDBLK
5
61
100
AcDbEntity
8
0
100
AcDbBlockEnd
0
BLOCK
5
62
100
AcDbEntity
8
0
100
AcDbBlockBegin
2
CLOSEDF
70
0
10
0.0
20
0.0
30
0.0
3
CLOSEDF
1

0
SOLID
5
63
100
AcDbEntity
8
0
6
BYBLOCK
62
0
100
AcDbTrace
10
-1.000000
20
0.166667
11
-1.000000
21
-0.166667
12
0.000000
22
0.000000
13
0.000000
23
0.000000
0
ENDBLK
5
64
100
AcDbEntity
8
0
100
AcDbBlockEnd
0
BLOCK
5
65
100
AcDbEntity
8
0
100
AcDbBlockBegin
2
HALF_R
70
0
10
0.0
20
0.0
30
0.0
3
HALF_R
1

0
SOLID
5
66
100
AcDbEntity
8
0
6
BYBLOCK
62
0
100
AcDbTrace
10
-1.000000
20
-0.166667
11
-1.000000
21
0.000000
12
0.000000
22
0.000000
13
0.000000
23
0.000000
0
ENDBLK
5
67
100
AcDbEntity
8
0
100
AcDbBlockEnd
0
ENDSEC
0
SECTION
2
ENTITIES
0
POLYLINE
5
68
100
AcDbEntity
8
1
6
CONTINUOUS
62
5
100
AcDb2dPolyline
66
1
10
0.0
20
0.0
30
0.0
70
0
0
VERTEX
5
69
100
AcDbEntity
8
1
100
AcDbVertex
100
AcDb2dVertex
62
5
10
123.000000
20
-14.125000
0
VERTEX
5
6a
100
AcDbEntity
8
1
100
AcDbVertex
100
AcDb2dVertex
62
5
10
123.500000
20
-13.187500
0
VERTEX
5
6b
100
AcDbEntity
8
1
100
AcDbVertex
100
AcDb2dVertex
62
5
10
124.500000
20
-12.250000
0
VERTEX
5
6c
100
AcDbEntity
8
1
100
AcDbVertex
100
AcDb2dVertex
62
5
10
125.750000
20
-12.250000
0
VERTEX
5
6d
100
AcDbEntity
8
1
100
AcDbVertex
100
AcDb2dVertex
62
5
10
126.750000
20
-12.875000
0
VERTEX
5
6e
100
AcDbEntity
8
1
100
AcDbVertex
100
AcDb2dVertex
62
5
10
127.000000
20
-13.500000
0
VERTEX
5
6f
100
AcDbEntity
8
1
100
AcDbVertex
100
AcDb2dVertex
62
5
10
127.000000
20
-14.437500
0
VERTEX
5
70
100
AcDbEntity
8
1
100
AcDbVertex
100
AcDb2dVertex
62
5
10
126.750000
20
-15.062500
0
VERTEX
5
71
100
AcDbEntity
8
1
100
AcDbVertex
100
AcDb2dVertex
62
5
10
123.250000
20
-19.750000
0
VERTEX
5
72
100
AcDbEntity
8
1
100
AcDbVertex
100
AcDb2dVertex
62
5
10
127.000000
20
-19.750000
0
VERTEX
5
73
100
AcDbEntity
8
1
100
AcDbVertex
100
AcDb2dVertex
62
5
10
127.000000
20
-18.187500
0
SEQEND
5
74
100
AcDbEntity
8
1
0
LINE
5
75
100
AcDbEntity
8
1
100
AcDbLine
6
CONTINUOUS
62
5
10
129.750000
20
-12.250000
11
130.750000
21
-13.187500
0
POLYLINE
5
76
100
AcDbEntity
8
1
6
CONTINUOUS
62
5
100
AcDb2dPolyline
66
1
10
0.0
20
0.0
30
0.0
70
0
0
VERTEX
5
77
100
AcDbEntity
8
1
100
AcDbVertex
100
AcDb2dVertex
62
5
10
129.250000
20
-16.000000
0
VERTEX
5
78
100
AcDbEntity
8
1
100
AcDbVertex
100
AcDb2dVertex
62
5
10
130.500000
20
-16.000000
0
VERTEX
5
79
100
AcDbEntity
8
1
100
AcDbVertex
100
AcDb2dVertex
62
5
10
130.500000
20
-19.125000
0
VERTEX
5
7a
100
AcDbEntity
8
1
100
AcDbVertex
100
AcDb2dVertex
62
5
10
129.250000
20
-20.062500
0
SEQEND
5
7b
100
AcDbEntity
8
1
0
POLYLINE
5
7c
100
AcDbEntity
8
1
6
CONTINUOUS
62
5
100
AcDb2dPolyline
66
1
10
0.0
20
0.0
30
0.0
70
0
0
VERTEX
5
7d
100
AcDbEntity
8
1
100
AcDbVertex
100
AcDb2dVertex
62
5
10
130.500000
20
-19.125000
0
VERTEX
5
7e
100
AcDbEntity
8
1
100
AcDbVertex
100
AcDb2dVertex
62
5
10
131.500000
20
-19.750000
0
VERTEX
5
7f
100
AcDbEntity
8
1
100
AcDbVertex
100
AcDb2dVertex
62
5
10
136.250000
20
-20.375000
0
SEQEND
5
80
100
AcDbEntity
8
1
0
LINE
5
81
100
AcDbEntity
8
1
100
AcDbLine
6
CONTINUOUS
62
5
10
131.500000
20
-12.875000
11
136.250000
21
-12.875000
0
LINE
5
82
100
AcDbEntity
8
1
100
AcDbLine
6
CONTINUOUS
62
5
10
134.000000
20
-11.625000
11
134.000000
21
-19.125000
0
POLYLINE
5
83
100
AcDbEntity
8
1
6
CONTINUOUS
62
5
100
AcDb2dPolyline
66
1
10
0.0
20
0.0
30
0.0
70
1
0
VERTEX
5
84
100
AcDbEntity
8
1
100
AcDbVertex
100
AcDb2dVertex
62
5
10
132.000000
20
-14.125000
0
VERTEX
5
85
100
AcDbEntity
8
1
100
AcDbVertex
100
AcDb2dVertex
62
5
10
132.000000
20
-16.625000
0
VERTEX
5
86
100
AcDbEntity
8
1
100
AcDbVertex
100
AcDb2dVertex
62
5
10
135.750000
20
-16.625000
0
VERTEX
5
87
100
AcDbEntity
8
1
100
AcDbVertex
100
AcDb2dVertex
62
5
10
135.750000
20
-14.125000
0
VERTEX
5
88
100
AcDbEntity
8
1
100
AcDbVertex
100
AcDb2dVertex
62
5
10
132.000000
20
-14.125000
0
SEQEND
5
89
100
AcDbEntity
8
1
0
LINE
5
8a
100
AcDbEntity
8
1
100
AcDbLine
6
CONTINUOUS
62
5
10
132.000000
20
-15.375000
11
135.750000
21
-15.375000
0
LINE
5
8b
100
AcDbEntity
8
1
100
AcDbLine
6
CONTINUOUS
62
5
10
131.000000
20
-17.875000
11
136.500000
21
-17.875000
0
POLYLINE
5
8c
100
AcDbEntity
8
1
6
CONTINUOUS
62
5
100
AcDb2dPolyline
66
1
10
0.0
20
0.0
30
0.0
70
0
0
VERTEX
5
8d
100
AcDbEntity
8
1
100
AcDbVertex
100
AcDb2dVertex
62
5
10
138.500000
20
-12.250000
0
VERTEX
5
8e
100
AcDbEntity
8
1
100
AcDbVertex
100
AcDb2dVertex
62
5
10
138.500000
20
-17.875000
0
VERTEX
5
8f
100
AcDbEntity
8
1
100
AcDbVertex
100
AcDb2dVertex
62
5
10
138.000000
20
-19.125000
0
VERTEX
5
90
100
AcDbEntity
8
1
100
AcDbVertex
100
AcDb2dVertex
62
5
10
137.500000
20
-20.062500
0
SEQEND
5
91
100
AcDbEntity
8
1
0
POLYLINE
5
92
100
AcDbEntity
8
1
6
CONTINUOUS
62
5
100
AcDb2dPolyline
66
1
10
0.0
20
0.0
30
0.0
70
0
0
VERTEX
5
93
100
AcDbEntity
8
1
100
AcDbVertex
100
AcDb2dVertex
62
5
10
142.500000
20
-19.750000
0
VERTEX
5
94
100
AcDbEntity
8
1
100
AcDbVertex
100
AcDb2dVertex
62
5
10
143.500000
20
-20.375000
0
VERTEX
5
95
100
AcDbEntity
8
1
100
AcDbVertex
100
AcDb2dVertex
62
5
10
143.500000
20
-12.250000
0
VERTEX
5
96
100
AcDbEntity
8
1
100
AcDbVertex
100
AcDb2dVertex
62
5
10
138.500000
20
-12.250000
0
SEQEND
5
97
100
AcDbEntity
8
1
0
LINE
5
98
100
AcDbEntity
8
1
100
AcDbLine
6
CONTINUOUS
62
5
10
138.500000
20
-14.750000
11
143.500000
21
-14.750000
0
LINE
5
99
100
AcDbEntity
8
1
100
AcDbLine
6
CONTINUOUS
62
5
10
141.000000
20
-12.250000
11
141.000000
21
-20.375000
0
LINE
5
9a
100
AcDbEntity
8
1
100
AcDbLine
6
CONTINUOUS
62
5
10
138.500000
20
-17.250000
11
143.500000
21
-17.250000
0
LINE
5
9b
100
AcDbEntity
8
1
100
AcDbLine
6
DOT2
62
5
10
217.725000
20
-107.124986
11
217.100000
21
-107.749986
0
POLYLINE
5
9c
100
AcDbEntity
8
1
6
DOT2
62
5
100
AcDb2dPolyline
66
1
10
0.0
20
0.0
30
0.0
70
0
0
VERTEX
5
9d
100
AcDbEntity
8
1
100
AcDbVertex
100
AcDb2dVertex
62
5
10
217.100000
20
-107.124986
0
VERTEX
5
9e
100
AcDbEntity
8
1
100
AcDbVertex
100
AcDb2dVertex
62
5
10
217.725000
20
-107.749986
0
VERTEX
5
9f
100
AcDbEntity
8
1
100
AcDbVertex
100
AcDb2dVertex
62
5
10
217.100000
20
-107.749986
0
VERTEX
5
a0
100
AcDbEntity
8
1
100
AcDbVertex
100
AcDb2dVertex
62
5
10
217.100000
20
-107.124986
0
VERTEX
5
a1
100
AcDbEntity
8
1
100
AcDbVertex
100
AcDb2dVertex
62
5
10
217.725000
20
-107.124986
0
VERTEX
5
a2
100
AcDbEntity
8
1
100
AcDbVertex
100
AcDb2dVertex
62
5
10
217.725000
20
-107.749986
0
SEQEND
5
a3
100
AcDbEntity
8
1
0
LINE
5
a4
100
AcDbEntity
8
1
100
AcDbLine
6
DOT2
62
5
10
212.100000
20
-100.249986
11
214.912500
21
-100.249986
0
POLYLINE
5
a5
100
AcDbEntity
8
1
6
DOT2
62
5
100
AcDb2dPolyline
66
1
10
0.0
20
0.0
30
0.0
70
0
0
VERTEX
5
a6
100
AcDbEntity
8
1
100
AcDbVertex
100
AcDb2dVertex
62
5
10
212.100000
20
-100.249986
0
VERTEX
5
a7
100
AcDbEntity
8
1
100
AcDbVertex
100
AcDb2dVertex
62
5
10
212.100000
20
-103.999986
0
VERTEX
5
a8
100
AcDbEntity
8
1
100
AcDbVertex
100
AcDb2dVertex
62
5
10
212.725000
20
-103.374986
0
VERTEX
5
a9
100
AcDbEntity
8
1
100
AcDbVertex
100
AcDb2dVertex
62
5
10
213.350000
20
-103.062486
0
VERTEX
5
aa
100
AcDbEntity
8
1
100
AcDbVertex
100
AcDb2dVertex
62
5
10
214.287500
20
-103.062486
0
VERTEX
5
ab
100
AcDbEntity
8
1
100
AcDbVertex
100
AcDb2dVertex
62
5
10
214.912500
20
-103.374986
0
VERTEX
5
ac
100
AcDbEntity
8
1
100
AcDbVertex
100
AcDb2dVertex
62
5
10
215.225000
20
-104.312486
0
VERTEX
5
ad
100
AcDbEntity
8
1
100
AcDbVertex
100
AcDb2dVertex
62
5
10
215.225000
20
-106.187486
0
VERTEX
5
ae
100
AcDbEntity
8
1
100
AcDbVertex
100
AcDb2dVertex
62
5
10
214.600000
20
-107.124986
0
VERTEX
5
af
100
AcDbEntity
8
1
100
AcDbVertex
100
AcDb2dVertex
62
5
10
213.662500
20
-107.749986
0
VERTEX
5
b0
100
AcDbEntity
8
1
100
AcDbVertex
100
AcDb2dVertex
62
5
10
212.100000
20
-107.749986
0
SEQEND
5
b1
100
AcDbEntity
8
1
0
POLYLINE
5
b2
100
AcDbEntity
8
1
6
DOT2
62
5
100
AcDb2dPolyline
66
1
10
0.0
20
0.0
30
0.0
70
1
0
VERTEX
5
b3
100
AcDbEntity
8
1
100
AcDbVertex
100
AcDb2dVertex
62
5
10
223.350000
20
-100.249986
0
VERTEX
5
b4
100
AcDbEntity
8
1
100
AcDbVertex
100
AcDb2dVertex
62
5
10
223.975000
20
-100.249986
0
VERTEX
5
b5
100
AcDbEntity
8
1
100
AcDbVertex
100
AcDb2dVertex
62
5
10
224.600000
20
-100.562486
0
VERTEX
5
b6
100
AcDbEntity
8
1
100
AcDbVertex
100
AcDb2dVertex
62
5
10
224.912500
20
-101.187486
0
VERTEX
5
b7
100
AcDbEntity
8
1
100
AcDbVertex
100
AcDb2dVertex
62
5
10
224.912500
20
-102.437486
0
VERTEX
5
b8
100
AcDbEntity
8
1
100
AcDbVertex
100
AcDb2dVertex
62
5
10
224.600000
20
-103.062486
0
VERTEX
5
b9
100
AcDbEntity
8
1
100
AcDbVertex
100
AcDb2dVertex
62
5
10
222.725000
20
-104.312486
0
VERTEX
5
ba
100
AcDbEntity
8
1
100
AcDbVertex
100
AcDb2dVertex
62
5
10
222.100000
20
-105.249986
0
VERTEX
5
bb
100
AcDbEntity
8
1
100
AcDbVertex
100
AcDb2dVertex
62
5
10
222.100000
20
-106.499986
0
VERTEX
5
bc
100
AcDbEntity
8
1
100
AcDbVertex
100
AcDb2dVertex
62
5
10
222.412500
20
-107.124986
0
VERTEX
5
bd
100
AcDbEntity
8
1
100
AcDbVertex
100
AcDb2dVertex
62
5
10
222.725000
20
-107.437486
0
VERTEX
5
be
100
AcDbEntity
8
1
100
AcDbVertex
100
AcDb2dVertex
62
5
10
223.350000
20
-107.749986
0
VERTEX
5
bf
100
AcDbEntity
8
1
100
AcDbVertex
100
AcDb2dVertex
62
5
10
223.975000
20
-107.749986
0
VERTEX
5
c0
100
AcDbEntity
8
1
100
AcDbVertex
100
AcDb2dVertex
62
5
10
224.600000
20
-107.437486
0
VERTEX
5
c1
100
AcDbEntity
8
1
100
AcDbVertex
100
AcDb2dVertex
62
5
10
224.912500
20
-107.124986
0
VERTEX
5
c2
100
AcDbEntity
8
1
100
AcDbVertex
100
AcDb2dVertex
62
5
10
225.225000
20
-106.499986
0
VERTEX
5
c3
100
AcDbEntity
8
1
100
AcDbVertex
100
AcDb2dVertex
62
5
10
225.225000
20
-105.249986
0
VERTEX
5
c4
100
AcDbEntity
8
1
100
AcDbVertex
100
AcDb2dVertex
62
5
10
224.600000
20
-104.312486
0
VERTEX
5
c5
100
AcDbEntity
8
1
100
AcDbVertex
100
AcDb2dVertex
62
5
10
222.725000
20
-103.062486
0
VERTEX
5
c6
100
AcDbEntity
8
1
100
AcDbVertex
100
AcDb2dVertex
62
5
10
222.412500
20
-102.437486
0
VERTEX
5
c7
100
AcDbEntity
8
1
100
AcDbVertex
100
AcDb2dVertex
62
5
10
222.412500
20
-101.187486
0
VERTEX
5
c8
100
AcDbEntity
8
1
100
AcDbVertex
100
AcDb2dVertex
62
5
10
222.725000
20
-100.562486
0
VERTEX
5
c9
100
AcDbEntity
8
1
100
AcDbVertex
100
AcDb2dVertex
62
5
10
223.350000
20
-100.249986
0
SEQEND
5
ca
100
AcDbEntity
8
1
0
POLYLINE
5
cb
100
AcDbEntity
8
1
6
CONTINUOUS
62
5
100
AcDb2dPolyline
66
1
10
0.0
20
0.0
30
0.0
70
1
0
VERTEX
5
cc
100
AcDbEntity
8
1
100
AcDbVertex
100
AcDb2dVertex
62
5
10
200.850000
20
-133.999986
0
VERTEX
5
cd
100
AcDbEntity
8
1
100
AcDbVertex
100
AcDb2dVertex
62
5
10
200.850000
20
-142.499986
0
SEQEND
5
ce
100
AcDbEntity
8
1
0
LINE
5
cf
100
AcDbEntity
8
1
100
AcDbLine
6
CONTINUOUS
62
5
10
201.850000
20
-152.799994
11
203.350000
21
-154.340007
0
ARC
5
d0
100
AcDbEntity
8
1
100
AcDbCircle
6
CONTINUOUS
62
5
10
202.450000
20
-158.799986
40
0.700000
100
AcDbArc
50
-89.999999
51
-0.000000
0
LINE
5
d1
100
AcDbEntity
8
1
100
AcDbLine
6
CONTINUOUS
62
5
10
203.150000
20
-158.799986
11
203.150000
21
-158.486726
0
ARC
5
d2
100
AcDbEntity
8
1
100
AcDbCircle
6
CONTINUOUS
62
5
10
202.150000
20
-158.486726
40
1.000000
100
AcDbArc
50
-0.000000
51
89.236101
0
LINE
5
d3
100
AcDbEntity
8
1
100
AcDbLine
6
CONTINUOUS
62
5
10
202.163332
20
-157.486814
11
201.850000
21
-157.479970
0
LINE
5
d4
100
AcDbEntity
8
1
100
AcDbLine
6
CONTINUOUS
62
5
10
201.850000
20
-159.499986
11
202.450000
21
-159.499986
0
ARC
5
d5
100
AcDbEntity
8
1
100
AcDbCircle
6
CONTINUOUS
62
5
10
194.150000
20
-155.199986
40
0.300000
100
AcDbArc
50
179.999998
51
-89.999999
0
LINE
5
d6
100
AcDbEntity
8
1
100
AcDbLine
6
CONTINUOUS
62
5
10
194.150000
20
-155.499986
11
196.050000
21
-155.499986
0
LINE
5
d7
100
AcDbEntity
8
1
100
AcDbLine
6
CONTINUOUS
62
5
10
196.050000
20
-153.999986
11
194.150000
21
-153.999986
0
ARC
5
d8
100
AcDbEntity
8
1
100
AcDbCircle
6
CONTINUOUS
62
5
10
194.150000
20
-154.299986
40
0.300000
100
AcDbArc
50
89.999999
51
179.999998
0
LINE
5
d9
100
AcDbEntity
8
1
100
AcDbLine
6
CONTINUOUS
62
5
10
193.850000
20
-154.299986
11
193.850000
21
-155.199986
0
POLYLINE
5
da
100
AcDbEntity
8
1
6
CONTINUOUS
62
5
100
AcDb2dPolyline
66
1
10
0.0
20
0.0
30
0.0
70
0
0
VERTEX
5
db
100
AcDbEntity
8
1
100
AcDbVertex
100
AcDb2dVertex
62
5
10
132.050001
20
-143.899986
0
VERTEX
5
dc
100
AcDbEntity
8
1
100
AcDbVertex
100
AcDb2dVertex
62
5
10
132.750001
20
-143.199986
0
VERTEX
5
dd
100
AcDbEntity
8
1
100
AcDbVertex
100
AcDb2dVertex
62
5
10
132.750001
20
-136.599986
0
VERTEX
5
de
100
AcDbEntity
8
1
100
AcDbVertex
100
AcDb2dVertex
62
5
10
132.050001
20
-135.899986
0
SEQEND
5
df
100
AcDbEntity
8
1
0
LINE
5
e0
100
AcDbEntity
8
1
100
AcDbLine
6
CONTINUOUS
62
5
10
132.750001
20
-142.499986
11
132.750001
21
-137.299986
0
ARC
5
e1
100
AcDbEntity
8
1
100
AcDbCircle
6
CONTINUOUS
62
5
10
134.250002
20
-137.899986
40
2.000000
100
AcDbArc
50
0.000000
51
89.999999
0
POLYLINE
5
e2
100
AcDbEntity
8
1
6
CONTINUOUS
62
5
100
AcDb2dPolyline
66
1
10
0.0
20
0.0
30
0.0
70
0
0
VERTEX
5
e3
100
AcDbEntity
8
1
100
AcDbVertex
100
AcDb2dVertex
62
5
10
134.250002
20
-135.899986
0
VERTEX
5
e4
100
AcDbEntity
8
1
100
AcDbVertex
100
AcDb2dVertex
62
5
10
132.050001
20
-135.899986
0
VERTEX
5
e5
100
AcDbEntity
8
1
100
AcDbVertex
100
AcDb2dVertex
62
5
10
132.050001
20
-143.899986
0
VERTEX
5
e6
100
AcDbEntity
8
1
100
AcDbVertex
100
AcDb2dVertex
62
5
10
134.250002
20
-143.899986
0
SEQEND
5
e7
100
AcDbEntity
8
1
0
ARC
5
e8
100
AcDbEntity
8
1
100
AcDbCircle
6
CONTINUOUS
62
5
10
134.250002
20
-141.899986
40
2.000000
100
AcDbArc
50
-89.999999
51
0.000000
0
LINE
5
e9
100
AcDbEntity
8
1
100
AcDbLine
6
CONTINUOUS
62
5
10
136.250002
20
-141.899986
11
136.250002
21
-137.899986
0
ARC
5
ea
100
AcDbEntity
8
1
100
AcDbCircle
6
CONTINUOUS
62
5
10
134.250002
20
-141.899986
40
0.600000
100
AcDbArc
50
-89.999999
51
0.000000
0
LINE
5
eb
100
AcDbEntity
8
1
100
AcDbLine
6
CONTINUOUS
62
5
10
134.850002
20
-141.899986
11
134.850002
21
-137.899986
0
ARC
5
ec
100
AcDbEntity
8
1
100
AcDbCircle
6
CONTINUOUS
62
5
10
134.250002
20
-137.899986
40
0.600000
100
AcDbArc
50
0.000000
51
89.999999
0
POLYLINE
5
ed
100
AcDbEntity
8
1
6
CONTINUOUS
62
5
100
AcDb2dPolyline
66
1
10
0.0
20
0.0
30
0.0
70
0
0
VERTEX
5
ee
100
AcDbEntity
8
1
100
AcDbVertex
100
AcDb2dVertex
62
5
10
134.250002
20
-137.299986
0
VERTEX
5
ef
100
AcDbEntity
8
1
100
AcDbVertex
100
AcDb2dVertex
62
5
10
132.750001
20
-137.299986
0
VERTEX
5
f0
100
AcDbEntity
8
1
100
AcDbVertex
100
AcDb2dVertex
62
5
10
132.750001
20
-142.499986
0
VERTEX
5
f1
100
AcDbEntity
8
1
100
AcDbVertex
100
AcDb2dVertex
62
5
10
134.250002
20
-142.499986
0
SEQEND
5
f2
100
AcDbEntity
8
1
0
LINE
5
f3
100
AcDbEntity
8
1
100
AcDbLine
6
CONTINUOUS
62
5
10
123.050000
20
-147.799986
11
123.150000
21
-147.899986
0
LINE
5
f4
100
AcDbEntity
8
1
100
AcDbLine
6
CONTINUOUS
62
5
10
123.050000
20
-147.799986
11
123.150000
21
-147.899986
0
LINE
5
f5
100
AcDbEntity
8
1
100
AcDbLine
6
CONTINUOUS
62
5
10
127.150000
20
-147.799986
11
127.050000
21
-147.899986
0
LINE
5
f6
100
AcDbEntity
8
1
100
AcDbLine
6
CONTINUOUS
62
5
10
127.150000
20
-147.799986
11
127.050000
21
-147.899986
0
POLYLINE
5
f7
100
AcDbEntity
8
1
6
CONTINUOUS
62
5
100
AcDb2dPolyline
66
1
10
0.0
20
0.0
30
0.0
70
0
0
VERTEX
5
f8
100
AcDbEntity
8
1
100
AcDbVertex
100
AcDb2dVertex
62
5
10
123.150000
20
-149.299986
0
VERTEX
5
f9
100
AcDbEntity
8
1
100
AcDbVertex
100
AcDb2dVertex
62
5
10
124.650000
20
-149.299986
0
VERTEX
5
fa
100
AcDbEntity
8
1
100
AcDbVertex
100
AcDb2dVertex
62
5
10
124.650000
20
-153.899986
0
SEQEND
5
fb
100
AcDbEntity
8
1
0
LINE
5
fc
100
AcDbEntity
8
1
100
AcDbLine
6
CONTINUOUS
62
5
10
123.150000
20
-153.899986
11
123.050000
21
-153.999986
0
LINE
5
fd
100
AcDbEntity
8
1
100
AcDbLine
6
CONTINUOUS
62
5
10
127.050000
20
-153.899986
11
127.150000
21
-153.999986
0
POLYLINE
5
fe
100
AcDbEntity
8
1
6
CONTINUOUS
62
5
100
AcDb2dPolyline
66
1
10
0.0
20
0.0
30
0.0
70
0
0
VERTEX
5
ff
100
AcDbEntity
8
1
100
AcDbVertex
100
AcDb2dVertex
62
5
10
125.650000
20
-158.599986
0
VERTEX
5
100
100
AcDbEntity
8
1
100
AcDbVertex
100
AcDb2dVertex
62
5
10
125.350000
20
-158.899986
0
VERTEX
5
101
100
AcDbEntity
8
1
100
AcDbVertex
100
AcDb2dVertex
62
5
10
125.250000
20
-158.999986
0
SEQEND
5
102
100
AcDbEntity
8
1
0
ARC
5
103
100
AcDbEntity
8
1
100
AcDbCircle
6
CONTINUOUS
62
5
10
131.400000
20
-158.999986
40
0.500000
100
AcDbArc
50
-89.999999
51
0.000000
0
LINE
5
104
100
AcDbEntity
8
1
100
AcDbLine
6
CONTINUOUS
62
5
10
131.400000
20
-159.499986
11
130.949965
21
-159.499986
0
LINE
5
105
100
AcDbEntity
8
1
100
AcDbLine
6
CONTINUOUS
62
5
10
131.900000
20
-157.499970
11
131.900000
21
-158.999986
0
ARC
5
106
100
AcDbEntity
8
1
100
AcDbCircle
6
CONTINUOUS
62
5
10
130.350000
20
-159.349986
40
0.150000
100
AcDbArc
50
-90.000001
51
0.000001
0
LINE
5
107
100
AcDbEntity
8
1
100
AcDbLine
6
CONTINUOUS
62
5
10
130.500000
20
-157.499986
11
130.500000
21
-159.349986
0
POLYLINE
5
108
100
AcDbEntity
8
1
6
CONTINUOUS
62
5
100
AcDb2dPolyline
66
1
10
0.0
20
0.0
30
0.0
70
0
0
VERTEX
5
109
100
AcDbEntity
8
1
100
AcDbVertex
100
AcDb2dVertex
62
5
10
129.849965
20
-164.499986
0
VERTEX
5
10a
100
AcDbEntity
8
1
100
AcDbVertex
100
AcDb2dVertex
62
5
10
129.050000
20
-164.499986
0
VERTEX
5
10b
100
AcDbEntity
8
1
100
AcDbVertex
100
AcDb2dVertex
62
5
10
129.050000
20
-162.499986
0
VERTEX
5
10c
100
AcDbEntity
8
1
100
AcDbVertex
100
AcDb2dVertex
62
5
10
129.849965
20
-162.499986
0
SEQEND
5
10d
100
AcDbEntity
8
1
0
LINE
5
10e
100
AcDbEntity
8
1
100
AcDbLine
6
CONTINUOUS
62
5
10
129.250000
20
-162.499986
11
129.250000
21
-164.499986
0
LINE
5
10f
100
AcDbEntity
8
1
100
AcDbLine
6
CONTINUOUS
62
5
10
128.450000
20
-161.499986
11
128.550000
21
-161.499986
0
LINE
5
110
100
AcDbEntity
8
1
100
AcDbLine
6
CONTINUOUS
62
5
10
130.149965
20
-161.749986
11
130.149965
21
-159.499986
0
POLYLINE
5
111
100
AcDbEntity
8
1
6
CONTINUOUS
62
5
100
AcDb2dPolyline
66
1
10
0.0
20
0.0
30
0.0
70
1
0
VERTEX
5
112
100
AcDbEntity
8
1
100
AcDbVertex
100
AcDb2dVertex
62
5
10
123.150000
20
-153.899986
0
VERTEX
5
113
100
AcDbEntity
8
1
100
AcDbVertex
100
AcDb2dVertex
62
5
10
127.050000
20
-153.899986
0
VERTEX
5
114
100
AcDbEntity
8
1
100
AcDbVertex
100
AcDb2dVertex
62
5
10
127.050000
20
-147.899986
0
VERTEX
5
115
100
AcDbEntity
8
1
100
AcDbVertex
100
AcDb2dVertex
62
5
10
123.150000
20
-147.899986
0
SEQEND
5
116
100
AcDbEntity
8
1
0
POLYLINE
5
117
100
AcDbEntity
8
1
6
CONTINUOUS
62
5
100
AcDb2dPolyline
66
1
10
0.0
20
0.0
30
0.0
70
1
0
VERTEX
5
118
100
AcDbEntity
8
1
100
AcDbVertex
100
AcDb2dVertex
62
5
10
127.150000
20
-147.799986
0
VERTEX
5
119
100
AcDbEntity
8
1
100
AcDbVertex
100
AcDb2dVertex
62
5
10
123.050000
20
-147.799986
0
VERTEX
5
11a
100
AcDbEntity
8
1
100
AcDbVertex
100
AcDb2dVertex
62
5
10
123.050000
20
-153.999986
0
VERTEX
5
11b
100
AcDbEntity
8
1
100
AcDbVertex
100
AcDb2dVertex
62
5
10
127.150000
20
-153.999986
0
VERTEX
5
11c
100
AcDbEntity
8
1
100
AcDbVertex
100
AcDb2dVertex
62
5
10
127.150000
20
-147.799986
0
SEQEND
5
11d
100
AcDbEntity
8
1
0
LINE
5
11e
100
AcDbEntity
8
1
100
AcDbLine
6
CONTINUOUS
62
5
10
196.050000
20
-146.381264
11
196.050000
21
-106.999986
0
LINE
5
11f
100
AcDbEntity
8
1
100
AcDbLine
6
CONTINUOUS
62
5
10
201.850000
20
-146.381264
11
201.850000
21
-106.999986
0
POLYLINE
5
120
100
AcDbEntity
8
1
6
CONTINUOUS
62
5
100
AcDb2dPolyline
66
1
10
0.0
20
0.0
30
0.0
70
0
0
VERTEX
5
121
100
AcDbEntity
8
1
100
AcDbVertex
100
AcDb2dVertex
62
5
10
227.100000
20
-108.999986
0
VERTEX
5
122
100
AcDbEntity
8
1
100
AcDbVertex
100
AcDb2dVertex
62
5
10
201.850000
20
-108.999986
0
VERTEX
5
123
100
AcDbEntity
8
1
100
AcDbVertex
100
AcDb2dVertex
62
5
10
207.850000
20
-107.999986
0
VERTEX
5
124
100
AcDbEntity
8
1
100
AcDbVertex
100
AcDb2dVertex
62
5
10
207.850000
20
-109.999986
0
VERTEX
5
125
100
AcDbEntity
8
1
100
AcDbVertex
100
AcDb2dVertex
62
5
10
201.850000
20
-108.999986
0
VERTEX
5
126
100
AcDbEntity
8
1
100
AcDbVertex
100
AcDb2dVertex
62
5
10
207.850000
20
-108.499986
0
VERTEX
5
127
100
AcDbEntity
8
1
100
AcDbVertex
100
AcDb2dVertex
62
5
10
207.850000
20
-109.499986
0
VERTEX
5
128
100
AcDbEntity
8
1
100
AcDbVertex
100
AcDb2dVertex
62
5
10
201.850000
20
-108.999986
0
SEQEND
5
129
100
AcDbEntity
8
1
0
LINE
5
12a
100
AcDbEntity
8
1
100
AcDbLine
6
CONTINUOUS
62
5
10
201.850000
20
-108.999986
11
196.050000
21
-108.999986
0
POLYLINE
5
12b
100
AcDbEntity
8
1
6
CONTINUOUS
62
5
100
AcDb2dPolyline
66
1
10
0.0
20
0.0
30
0.0
70
0
0
VERTEX
5
12c
100
AcDbEntity
8
1
100
AcDbVertex
100
AcDb2dVertex
62
5
10
187.050000
20
-108.999986
0
VERTEX
5
12d
100
AcDbEntity
8
1
100
AcDbVertex
100
AcDb2dVertex
62
5
10
196.050000
20
-108.999986
0
VERTEX
5
12e
100
AcDbEntity
8
1
100
AcDbVertex
100
AcDb2dVertex
62
5
10
190.050000
20
-109.999986
0
VERTEX
5
12f
100
AcDbEntity
8
1
100
AcDbVertex
100
AcDb2dVertex
62
5
10
190.050000
20
-107.999986
0
VERTEX
5
130
100
AcDbEntity
8
1
100
AcDbVertex
100
AcDb2dVertex
62
5
10
196.050000
20
-108.999986
0
VERTEX
5
131
100
AcDbEntity
8
1
100
AcDbVertex
100
AcDb2dVertex
62
5
10
190.050000
20
-109.499986
0
VERTEX
5
132
100
AcDbEntity
8
1
100
AcDbVertex
100
AcDb2dVertex
62
5
10
190.050000
20
-108.499986
0
VERTEX
5
133
100
AcDbEntity
8
1
100
AcDbVertex
100
AcDb2dVertex
62
5
10
196.050000
20
-108.999986
0
SEQEND
5
134
100
AcDbEntity
8
1
0
ARC
5
135
100
AcDbEntity
8
1
100
AcDbCircle
6
CONTINUOUS
62
5
10
197.050000
20
-143.499986
40
1.000000
100
AcDbArc
50
89.999999
51
179.999998
0
LINE
5
136
100
AcDbEntity
8
1
100
AcDbLine
6
CONTINUOUS
62
5
10
201.850000
20
-142.499986
11
197.050000
21
-142.499986
0
LINE
5
137
100
AcDbEntity
8
1
100
AcDbLine
6
CONTINUOUS
62
5
10
83.250000
20
-11.625000
11
82.000000
21
-13.500000
0
LINE
5
138
100
AcDbEntity
8
1
100
AcDbLine
6
CONTINUOUS
62
5
10
81.750000
20
-13.187500
11
82.750000
21
-14.437500
0
LINE
5
139
100
AcDbEntity
8
1
100
AcDbLine
6
CONTINUOUS
62
5
10
83.750000
20
-13.187500
11
81.750000
21
-15.687500
0
LINE
5
13a
100
AcDbEntity
8
1
100
AcDbLine
6
CONTINUOUS
62
5
10
81.500000
20
-15.687500
11
83.750000
21
-15.687500
0
LINE
5
13b
100
AcDbEntity
8
1
100
AcDbLine
6
CONTINUOUS
62
5
10
83.500000
20
-15.062500
11
84.000000
21
-16.312500
0
LINE
5
13c
100
AcDbEntity
8
1
100
AcDbLine
6
CONTINUOUS
62
5
10
82.750000
20
-15.687500
11
82.750000
21
-20.375000
0
LINE
5
13d
100
AcDbEntity
8
1
100
AcDbLine
6
CONTINUOUS
62
5
10
82.000000
20
-16.937500
11
81.500000
21
-19.437500
0
LINE
5
13e
100
AcDbEntity
8
1
100
AcDbLine
6
CONTINUOUS
62
5
10
83.500000
20
-16.937500
11
84.000000
21
-18.500000
0
POLYLINE
5
13f
100
AcDbEntity
8
1
6
CONTINUOUS
62
5
100
AcDb2dPolyline
66
1
10
0.0
20
0.0
30
0.0
70
0
0
VERTEX
5
140
100
AcDbEntity
8
1
100
AcDbVertex
100
AcDb2dVertex
62
5
10
84.750000
20
-12.250000
0
VERTEX
5
141
100
AcDbEntity
8
1
100
AcDbVertex
100
AcDb2dVertex
62
5
10
87.250000
20
-12.250000
0
VERTEX
5
142
100
AcDbEntity
8
1
100
AcDbVertex
100
AcDb2dVertex
62
5
10
87.250000
20
-14.750000
0
SEQEND
5
143
100
AcDbEntity
8
1
0
LINE
5
144
100
AcDbEntity
8
1
100
AcDbLine
6
CONTINUOUS
62
5
10
85.000000
20
-13.500000
11
87.250000
21
-13.500000
0
LINE
5
145
100
AcDbEntity
8
1
100
AcDbLine
6
CONTINUOUS
62
5
10
84.250000
20
-14.750000
11
88.250000
21
-14.750000
0
POLYLINE
5
146
100
AcDbEntity
8
1
6
CONTINUOUS
62
5
100
AcDb2dPolyline
66
1
10
0.0
20
0.0
30
0.0
70
0
0
VERTEX
5
147
100
AcDbEntity
8
1
100
AcDbVertex
100
AcDb2dVertex
62
5
10
86.250000
20
-14.750000
0
VERTEX
5
148
100
AcDbEntity
8
1
100
AcDbVertex
100
AcDb2dVertex
62
5
10
85.750000
20
-15.687500
0
VERTEX
5
149
100
AcDbEntity
8
1
100
AcDbVertex
100
AcDb2dVertex
62
5
10
84.500000
20
-16.625000
0
SEQEND
5
14a
100
AcDbEntity
8
1
0
POLYLINE
5
14b
100
AcDbEntity
8
1
6
CONTINUOUS
62
5
100
AcDb2dPolyline
66
1
10
0.0
20
0.0
30
0.0
70
0
0
VERTEX
5
14c
100
AcDbEntity
8
1
100
AcDbVertex
100
AcDb2dVertex
62
5
10
85.750000
20
-15.687500
0
VERTEX
5
14d
100
AcDbEntity
8
1
100
AcDbVertex
100
AcDb2dVertex
62
5
10
86.500000
20
-16.625000
0
VERTEX
5
14e
100
AcDbEntity
8
1
100
AcDbVertex
100
AcDb2dVertex
62
5
10
86.750000
20
-17.875000
0
VERTEX
5
14f
100
AcDbEntity
8
1
100
AcDbVertex
100
AcDb2dVertex
62
5
10
86.750000
20
-18.812500
0
VERTEX
5
150
100
AcDbEntity
8
1
100
AcDbVertex
100
AcDb2dVertex
62
5
10
86.000000
20
-20.375000
0
VERTEX
5
151
100
AcDbEntity
8
1
100
AcDbVertex
100
AcDb2dVertex
62
5
10
85.250000
20
-20.062500
0
SEQEND
5
152
100
AcDbEntity
8
1
0
POLYLINE
5
153
100
AcDbEntity
8
1
6
CONTINUOUS
62
5
100
AcDb2dPolyline
66
1
10
0.0
20
0.0
30
0.0
70
0
0
VERTEX
5
154
100
AcDbEntity
8
1
100
AcDbVertex
100
AcDb2dVertex
62
5
10
86.250000
20
-16.312500
0
VERTEX
5
155
100
AcDbEntity
8
1
100
AcDbVertex
100
AcDb2dVertex
62
5
10
85.500000
20
-17.250000
0
VERTEX
5
156
100
AcDbEntity
8
1
100
AcDbVertex
100
AcDb2dVertex
62
5
10
84.750000
20
-17.875000
0
SEQEND
5
157
100
AcDbEntity
8
1
0
POLYLINE
5
158
100
AcDbEntity
8
1
6
CONTINUOUS
62
5
100
AcDb2dPolyline
66
1
10
0.0
20
0.0
30
0.0
70
0
0
VERTEX
5
159
100
AcDbEntity
8
1
100
AcDbVertex
100
AcDb2dVertex
62
5
10
86.500000
20
-17.250000
0
VERTEX
5
15a
100
AcDbEntity
8
1
100
AcDbVertex
100
AcDb2dVertex
62
5
10
85.750000
20
-18.500000
0
VERTEX
5
15b
100
AcDbEntity
8
1
100
AcDbVertex
100
AcDb2dVertex
62
5
10
85.000000
20
-19.125000
0
VERTEX
5
15c
100
AcDbEntity
8
1
100
AcDbVertex
100
AcDb2dVertex
62
5
10
84.250000
20
-19.437500
0
SEQEND
5
15d
100
AcDbEntity
8
1
0
LINE
5
15e
100
AcDbEntity
8
1
100
AcDbLine
6
CONTINUOUS
62
5
10
88.000000
20
-15.687500
11
87.000000
21
-16.937500
0
POLYLINE
5
15f
100
AcDbEntity
8
1
6
CONTINUOUS
62
5
100
AcDb2dPolyline
66
1
10
0.0
20
0.0
30
0.0
70
0
0
VERTEX
5
160
100
AcDbEntity
8
1
100
AcDbVertex
100
AcDb2dVertex
62
5
10
86.750000
20
-14.750000
0
VERTEX
5
161
100
AcDbEntity
8
1
100
AcDbVertex
100
AcDb2dVertex
62
5
10
87.000000
20
-16.937500
0
VERTEX
5
162
100
AcDbEntity
8
1
100
AcDbVertex
100
AcDb2dVertex
62
5
10
87.750000
20
-19.125000
0
VERTEX
5
163
100
AcDbEntity
8
1
100
AcDbVertex
100
AcDb2dVertex
62
5
10
88.500000
20
-20.375000
0
SEQEND
5
164
100
AcDbEntity
8
1
0
LINE
5
165
100
AcDbEntity
8
1
100
AcDbLine
6
CONTINUOUS
62
5
10
89.500000
20
-12.250000
11
93.250000
21
-12.250000
0
LINE
5
166
100
AcDbEntity
8
1
100
AcDbLine
6
CONTINUOUS
62
5
10
90.250000
20
-12.250000
11
90.250000
21
-18.812500
0
LINE
5
167
100
AcDbEntity
8
1
100
AcDbLine
6
CONTINUOUS
62
5
10
92.250000
20
-12.250000
11
92.250000
21
-20.375000
0
LINE
5
168
100
AcDbEntity
8
1
100
AcDbLine
6
CONTINUOUS
62
5
10
90.250000
20
-14.437500
11
92.250000
21
-14.437500
0
LINE
5
169
100
AcDbEntity
8
1
100
AcDbLine
6
CONTINUOUS
62
5
10
90.250000
20
-16.312500
11
92.250000
21
-16.312500
0
LINE
5
16a
100
AcDbEntity
8
1
100
AcDbLine
6
CONTINUOUS
62
5
10
89.250000
20
-19.125000
11
92.250000
21
-18.187500
0
POLYLINE
5
16b
100
AcDbEntity
8
1
6
CONTINUOUS
62
5
100
AcDb2dPolyline
66
1
10
0.0
20
0.0
30
0.0
70
0
0
VERTEX
5
16c
100
AcDbEntity
8
1
100
AcDbVertex
100
AcDb2dVertex
62
5
10
93.000000
20
-13.812500
0
VERTEX
5
16d
100
AcDbEntity
8
1
100
AcDbVertex
100
AcDb2dVertex
62
5
10
96.250000
20
-13.812500
0
VERTEX
5
16e
100
AcDbEntity
8
1
100
AcDbVertex
100
AcDb2dVertex
62
5
10
95.750000
20
-16.000000
0
VERTEX
5
16f
100
AcDbEntity
8
1
100
AcDbVertex
100
AcDb2dVertex
62
5
10
95.250000
20
-17.250000
0
VERTEX
5
170
100
AcDbEntity
8
1
100
AcDbVertex
100
AcDb2dVertex
62
5
10
94.250000
20
-19.125000
0
VERTEX
5
171
100
AcDbEntity
8
1
100
AcDbVertex
100
AcDb2dVertex
62
5
10
93.000000
20
-20.375000
0
SEQEND
5
172
100
AcDbEntity
8
1
0
POLYLINE
5
173
100
AcDbEntity
8
1
6
CONTINUOUS
62
5
100
AcDb2dPolyline
66
1
10
0.0
20
0.0
30
0.0
70
0
0
VERTEX
5
174
100
AcDbEntity
8
1
100
AcDbVertex
100
AcDb2dVertex
62
5
10
93.250000
20
-15.062500
0
VERTEX
5
175
100
AcDbEntity
8
1
100
AcDbVertex
100
AcDb2dVertex
62
5
10
94.000000
20
-16.937500
0
VERTEX
5
176
100
AcDbEntity
8
1
100
AcDbVertex
100
AcDb2dVertex
62
5
10
95.000000
20
-18.812500
0
VERTEX
5
177
100
AcDbEntity
8
1
100
AcDbVertex
100
AcDb2dVertex
62
5
10
96.500000
20
-20.375000
0
SEQEND
5
178
100
AcDbEntity
8
1
0
POLYLINE
5
179
100
AcDbEntity
8
1
6
CONTINUOUS
62
5
100
AcDb2dPolyline
66
1
10
0.0
20
0.0
30
0.0
70
0
0
VERTEX
5
17a
100
AcDbEntity
8
1
100
AcDbVertex
100
AcDb2dVertex
62
5
10
99.500000
20
-11.937500
0
VERTEX
5
17b
100
AcDbEntity
8
1
100
AcDbVertex
100
AcDb2dVertex
62
5
10
98.500000
20
-14.750000
0
VERTEX
5
17c
100
AcDbEntity
8
1
100
AcDbVertex
100
AcDb2dVertex
62
5
10
97.250000
20
-16.937500
0
SEQEND
5
17d
100
AcDbEntity
8
1
0
LINE
5
17e
100
AcDbEntity
8
1
100
AcDbLine
6
CONTINUOUS
62
5
10
98.500000
20
-14.750000
11
98.500000
21
-20.687500
0
LINE
5
17f
100
AcDbEntity
8
1
100
AcDbLine
6
CONTINUOUS
62
5
10
99.250000
20
-14.750000
11
104.500000
21
-14.750000
0
POLYLINE
5
180
100
AcDbEntity
8
1
6
CONTINUOUS
62
5
100
AcDb2dPolyline
66
1
10
0.0
20
0.0
30
0.0
70
0
0
VERTEX
5
181
100
AcDbEntity
8
1
100
AcDbVertex
100
AcDb2dVertex
62
5
10
102.750000
20
-11.937500
0
VERTEX
5
182
100
AcDbEntity
8
1
100
AcDbVertex
100
AcDb2dVertex
62
5
10
102.750000
20
-20.375000
0
VERTEX
5
183
100
AcDbEntity
8
1
100
AcDbVertex
100
AcDb2dVertex
62
5
10
101.250000
20
-20.062500
0
SEQEND
5
184
100
AcDbEntity
8
1
0
LINE
5
185
100
AcDbEntity
8
1
100
AcDbLine
6
CONTINUOUS
62
5
10
100.250000
20
-16.000000
11
101.250000
21
-17.875000
0
LINE
5
186
100
AcDbEntity
8
1
100
AcDbLine
6
CONTINUOUS
62
5
10
111.250000
20
-15.687500
11
112.000000
21
-15.687500
0
LINE
5
187
100
AcDbEntity
8
1
100
AcDbLine
6
CONTINUOUS
62
5
10
105.250000
20
-14.437500
11
107.750000
21
-14.437500
0
LINE
5
188
100
AcDbEntity
8
1
100
AcDbLine
6
CONTINUOUS
62
5
10
106.750000
20
-11.937500
11
106.750000
21
-20.687500
0
POLYLINE
5
189
100
AcDbEntity
8
1
6
CONTINUOUS
62
5
100
AcDb2dPolyline
66
1
10
0.0
20
0.0
30
0.0
70
0
0
VERTEX
5
18a
100
AcDbEntity
8
1
100
AcDbVertex
100
AcDb2dVertex
62
5
10
106.750000
20
-14.437500
0
VERTEX
5
18b
100
AcDbEntity
8
1
100
AcDbVertex
100
AcDb2dVertex
62
5
10
106.000000
20
-16.937500
0
VERTEX
5
18c
100
AcDbEntity
8
1
100
AcDbVertex
100
AcDb2dVertex
62
5
10
105.250000
20
-18.500000
0
SEQEND
5
18d
100
AcDbEntity
8
1
0
LINE
5
18e
100
AcDbEntity
8
1
100
AcDbLine
6
CONTINUOUS
62
5
10
106.750000
20
-15.062500
11
107.500000
21
-16.937500
0
POLYLINE
5
18f
100
AcDbEntity
8
1
6
CONTINUOUS
62
5
100
AcDb2dPolyline
66
1
10
0.0
20
0.0
30
0.0
70
0
0
VERTEX
5
190
100
AcDbEntity
8
1
100
AcDbVertex
100
AcDb2dVertex
62
5
10
108.000000
20
-13.500000
0
VERTEX
5
191
100
AcDbEntity
8
1
100
AcDbVertex
100
AcDb2dVertex
62
5
10
110.750000
20
-13.500000
0
VERTEX
5
192
100
AcDbEntity
8
1
100
AcDbVertex
100
AcDb2dVertex
62
5
10
110.750000
20
-14.750000
0
VERTEX
5
193
100
AcDbEntity
8
1
100
AcDbVertex
100
AcDb2dVertex
62
5
10
111.250000
20
-15.687500
0
SEQEND
5
194
100
AcDbEntity
8
1
0
POLYLINE
5
195
100
AcDbEntity
8
1
6
CONTINUOUS
62
5
100
AcDb2dPolyline
66
1
10
0.0
20
0.0
30
0.0
70
0
0
VERTEX
5
196
100
AcDbEntity
8
1
100
AcDbVertex
100
AcDb2dVertex
62
5
10
109.500000
20
-11.625000
0
VERTEX
5
197
100
AcDbEntity
8
1
100
AcDbVertex
100
AcDb2dVertex
62
5
10
109.250000
20
-14.125000
0
VERTEX
5
198
100
AcDbEntity
8
1
100
AcDbVertex
100
AcDb2dVertex
62
5
10
108.750000
20
-15.375000
0
VERTEX
5
199
100
AcDbEntity
8
1
100
AcDbVertex
100
AcDb2dVertex
62
5
10
108.000000
20
-16.000000
0
SEQEND
5
19a
100
AcDbEntity
8
1
0
POLYLINE
5
19b
100
AcDbEntity
8
1
6
CONTINUOUS
62
5
100
AcDb2dPolyline
66
1
10
0.0
20
0.0
30
0.0
70
0
0
VERTEX
5
19c
100
AcDbEntity
8
1
100
AcDbVertex
100
AcDb2dVertex
62
5
10
112.000000
20
-15.687500
0
VERTEX
5
19d
100
AcDbEntity
8
1
100
AcDbVertex
100
AcDb2dVertex
62
5
10
112.250000
20
-15.375000
0
VERTEX
5
19e
100
AcDbEntity
8
1
100
AcDbVertex
100
AcDb2dVertex
62
5
10
112.250000
20
-14.125000
0
SEQEND
5
19f
100
AcDbEntity
8
1
0
LINE
5
1a0
100
AcDbEntity
8
1
100
AcDbLine
6
CONTINUOUS
62
5
10
107.750000
20
-17.562500
11
112.500000
21
-17.562500
0
LINE
5
1a1
100
AcDbEntity
8
1
100
AcDbLine
6
CONTINUOUS
62
5
10
110.000000
20
-16.000000
11
110.000000
21
-20.687500
0
POLYLINE
5
1a2
100
AcDbEntity
8
1
6
CONTINUOUS
62
5
100
AcDb2dPolyline
66
1
10
0.0
20
0.0
30
0.0
70
0
0
VERTEX
5
1a3
100
AcDbEntity
8
1
100
AcDbVertex
100
AcDb2dVertex
62
5
10
60.250000
20
-15.062500
0
VERTEX
5
1a4
100
AcDbEntity
8
1
100
AcDbVertex
100
AcDb2dVertex
62
5
10
60.500000
20
-15.062500
0
VERTEX
5
1a5
100
AcDbEntity
8
1
100
AcDbVertex
100
AcDb2dVertex
62
5
10
62.250000
20
-16.312500
0
SEQEND
5
1a6
100
AcDbEntity
8
1
0
LINE
5
1a7
100
AcDbEntity
8
1
100
AcDbLine
6
CONTINUOUS
62
5
10
60.250000
20
-12.250000
11
60.250000
21
-19.750000
0
POLYLINE
5
1a8
100
AcDbEntity
8
1
6
CONTINUOUS
62
5
100
AcDb2dPolyline
66
1
10
0.0
20
0.0
30
0.0
70
0
0
VERTEX
5
1a9
100
AcDbEntity
8
1
100
AcDbVertex
100
AcDb2dVertex
62
5
10
42.000000
20
-15.687500
0
VERTEX
5
1aa
100
AcDbEntity
8
1
100
AcDbVertex
100
AcDb2dVertex
62
5
10
47.250000
20
-15.062500
0
VERTEX
5
1ab
100
AcDbEntity
8
1
100
AcDbVertex
100
AcDb2dVertex
62
5
10
47.250000
20
-15.375000
0
VERTEX
5
1ac
100
AcDbEntity
8
1
100
AcDbVertex
100
AcDb2dVertex
62
5
10
46.000000
20
-16.937500
0
SEQEND
5
1ad
100
AcDbEntity
8
1
0
POLYLINE
5
1ae
100
AcDbEntity
8
1
6
CONTINUOUS
62
5
100
AcDb2dPolyline
66
1
10
0.0
20
0.0
30
0.0
70
0
0
VERTEX
5
1af
100
AcDbEntity
8
1
100
AcDbVertex
100
AcDb2dVertex
62
5
10
44.000000
20
-12.875000
0
VERTEX
5
1b0
100
AcDbEntity
8
1
100
AcDbVertex
100
AcDb2dVertex
62
5
10
44.000000
20
-18.812500
0
VERTEX
5
1b1
100
AcDbEntity
8
1
100
AcDbVertex
100
AcDb2dVertex
62
5
10
44.500000
20
-19.437500
0
VERTEX
5
1b2
100
AcDbEntity
8
1
100
AcDbVertex
100
AcDb2dVertex
62
5
10
47.250000
20
-19.437500
0
SEQEND
5
1b3
100
AcDbEntity
8
1
0
LINE
5
1b4
100
AcDbEntity
8
1
100
AcDbLine
6
CONTINUOUS
62
5
10
50.750000
20
-13.812500
11
51.750000
21
-15.062500
0
POLYLINE
5
1b5
100
AcDbEntity
8
1
6
CONTINUOUS
62
5
100
AcDb2dPolyline
66
1
10
0.0
20
0.0
30
0.0
70
0
0
VERTEX
5
1b6
100
AcDbEntity
8
1
100
AcDbVertex
100
AcDb2dVertex
62
5
10
50.500000
20
-18.812500
0
VERTEX
5
1b7
100
AcDbEntity
8
1
100
AcDbVertex
100
AcDb2dVertex
62
5
10
52.250000
20
-17.875000
0
VERTEX
5
1b8
100
AcDbEntity
8
1
100
AcDbVertex
100
AcDb2dVertex
62
5
10
53.750000
20
-16.625000
0
VERTEX
5
1b9
100
AcDbEntity
8
1
100
AcDbVertex
100
AcDb2dVertex
62
5
10
55.250000
20
-15.062500
0
SEQEND
5
1ba
100
AcDbEntity
8
1
0
POLYLINE
5
1bb
100
AcDbEntity
8
1
6
CONTINUOUS
62
5
100
AcDb2dPolyline
66
1
10
0.0
20
0.0
30
0.0
70
0
0
VERTEX
5
1bc
100
AcDbEntity
8
1
100
AcDbVertex
100
AcDb2dVertex
62
5
10
66.500000
20
-12.250000
0
VERTEX
5
1bd
100
AcDbEntity
8
1
100
AcDbVertex
100
AcDb2dVertex
62
5
10
66.500000
20
-17.875000
0
VERTEX
5
1be
100
AcDbEntity
8
1
100
AcDbVertex
100
AcDb2dVertex
62
5
10
66.000000
20
-19.125000
0
VERTEX
5
1bf
100
AcDbEntity
8
1
100
AcDbVertex
100
AcDb2dVertex
62
5
10
65.500000
20
-20.062500
0
SEQEND
5
1c0
100
AcDbEntity
8
1
0
POLYLINE
5
1c1
100
AcDbEntity
8
1
6
CONTINUOUS
62
5
100
AcDb2dPolyline
66
1
10
0.0
20
0.0
30
0.0
70
0
0
VERTEX
5
1c2
100
AcDbEntity
8
1
100
AcDbVertex
100
AcDb2dVertex
62
5
10
70.500000
20
-19.750000
0
VERTEX
5
1c3
100
AcDbEntity
8
1
100
AcDbVertex
100
AcDb2dVertex
62
5
10
71.500000
20
-20.375000
0
VERTEX
5
1c4
100
AcDbEntity
8
1
100
AcDbVertex
100
AcDb2dVertex
62
5
10
71.500000
20
-12.250000
0
VERTEX
5
1c5
100
AcDbEntity
8
1
100
AcDbVertex
100
AcDb2dVertex
62
5
10
66.500000
20
-12.250000
0
SEQEND
5
1c6
100
AcDbEntity
8
1
0
LINE
5
1c7
100
AcDbEntity
8
1
100
AcDbLine
6
CONTINUOUS
62
5
10
66.500000
20
-14.750000
11
71.500000
21
-14.750000
0
LINE
5
1c8
100
AcDbEntity
8
1
100
AcDbLine
6
CONTINUOUS
62
5
10
69.000000
20
-12.250000
11
69.000000
21
-20.375000
0
LINE
5
1c9
100
AcDbEntity
8
1
100
AcDbLine
6
CONTINUOUS
62
5
10
66.500000
20
-17.250000
11
71.500000
21
-17.250000
0
LINE
5
1ca
100
AcDbEntity
8
1
100
AcDbLine
6
CONTINUOUS
62
5
10
75.250000
20
-11.937500
11
74.250000
21
-13.500000
0
LINE
5
1cb
100
AcDbEntity
8
1
100
AcDbLine
6
CONTINUOUS
62
5
10
74.000000
20
-13.187500
11
75.000000
21
-14.437500
0
LINE
5
1cc
100
AcDbEntity
8
1
100
AcDbLine
6
CONTINUOUS
62
5
10
75.750000
20
-13.187500
11
74.000000
21
-16.000000
0
LINE
5
1cd
100
AcDbEntity
8
1
100
AcDbLine
6
CONTINUOUS
62
5
10
73.500000
20
-16.000000
11
75.750000
21
-16.000000
0
LINE
5
1ce
100
AcDbEntity
8
1
100
AcDbLine
6
CONTINUOUS
62
5
10
75.500000
20
-15.375000
11
76.000000
21
-16.625000
0
LINE
5
1cf
100
AcDbEntity
8
1
100
AcDbLine
6
CONTINUOUS
62
5
10
74.750000
20
-16.000000
11
74.750000
21
-20.375000
0
LINE
5
1d0
100
AcDbEntity
8
1
100
AcDbLine
6
CONTINUOUS
62
5
10
74.000000
20
-17.250000
11
73.750000
21
-19.125000
0
LINE
5
1d1
100
AcDbEntity
8
1
100
AcDbLine
6
CONTINUOUS
62
5
10
75.500000
20
-17.250000
11
75.750000
21
-18.500000
0
POLYLINE
5
1d2
100
AcDbEntity
8
1
6
CONTINUOUS
62
5
100
AcDb2dPolyline
66
1
10
0.0
20
0.0
30
0.0
70
0
0
VERTEX
5
1d3
100
AcDbEntity
8
1
100
AcDbVertex
100
AcDb2dVertex
62
5
10
77.750000
20
-11.937500
0
VERTEX
5
1d4
100
AcDbEntity
8
1
100
AcDbVertex
100
AcDb2dVertex
62
5
10
77.250000
20
-13.187500
0
VERTEX
5
1d5
100
AcDbEntity
8
1
100
AcDbVertex
100
AcDb2dVertex
62
5
10
76.250000
20
-14.750000
0
SEQEND
5
1d6
100
AcDbEntity
8
1
0
POLYLINE
5
1d7
100
AcDbEntity
8
1
6
CONTINUOUS
62
5
100
AcDb2dPolyline
66
1
10
0.0
20
0.0
30
0.0
70
0
0
VERTEX
5
1d8
100
AcDbEntity
8
1
100
AcDbVertex
100
AcDb2dVertex
62
5
10
77.250000
20
-13.187500
0
VERTEX
5
1d9
100
AcDbEntity
8
1
100
AcDbVertex
100
AcDb2dVertex
62
5
10
79.000000
20
-13.187500
0
VERTEX
5
1da
100
AcDbEntity
8
1
100
AcDbVertex
100
AcDb2dVertex
62
5
10
78.250000
20
-15.062500
0
SEQEND
5
1db
100
AcDbEntity
8
1
0
POLYLINE
5
1dc
100
AcDbEntity
8
1
6
CONTINUOUS
62
5
100
AcDb2dPolyline
66
1
10
0.0
20
0.0
30
0.0
70
0
0
VERTEX
5
1dd
100
AcDbEntity
8
1
100
AcDbVertex
100
AcDb2dVertex
62
5
10
76.500000
20
-15.062500
0
VERTEX
5
1de
100
AcDbEntity
8
1
100
AcDbVertex
100
AcDb2dVertex
62
5
10
80.000000
20
-15.062500
0
VERTEX
5
1df
100
AcDbEntity
8
1
100
AcDbVertex
100
AcDb2dVertex
62
5
10
80.000000
20
-17.250000
0
VERTEX
5
1e0
100
AcDbEntity
8
1
100
AcDbVertex
100
AcDb2dVertex
62
5
10
76.500000
20
-17.250000
0
SEQEND
5
1e1
100
AcDbEntity
8
1
0
POLYLINE
5
1e2
100
AcDbEntity
8
1
6
CONTINUOUS
62
5
100
AcDb2dPolyline
66
1
10
0.0
20
0.0
30
0.0
70
0
0
VERTEX
5
1e3
100
AcDbEntity
8
1
100
AcDbVertex
100
AcDb2dVertex
62
5
10
76.500000
20
-15.062500
0
VERTEX
5
1e4
100
AcDbEntity
8
1
100
AcDbVertex
100
AcDb2dVertex
62
5
10
76.500000
20
-19.750000
0
VERTEX
5
1e5
100
AcDbEntity
8
1
100
AcDbVertex
100
AcDb2dVertex
62
5
10
76.750000
20
-20.062500
0
VERTEX
5
1e6
100
AcDbEntity
8
1
100
AcDbVertex
100
AcDb2dVertex
62
5
10
80.250000
20
-20.062500
0
VERTEX
5
1e7
100
AcDbEntity
8
1
100
AcDbVertex
100
AcDb2dVertex
62
5
10
80.250000
20
-19.125000
0
SEQEND
5
1e8
100
AcDbEntity
8
1
0
LINE
5
1e9
100
AcDbEntity
8
1
100
AcDbLine
6
CONTINUOUS
62
5
10
78.250000
20
-15.062500
11
78.250000
21
-17.250000
0
POLYLINE
5
1ea
100
AcDbEntity
8
1
6
CONTINUOUS
62
5
100
AcDb2dPolyline
66
1
10
0.0
20
0.0
30
0.0
70
0
0
VERTEX
5
1eb
100
AcDbEntity
8
1
100
AcDbVertex
100
AcDb2dVertex
62
5
10
26.750000
20
-14.125000
0
VERTEX
5
1ec
100
AcDbEntity
8
1
100
AcDbVertex
100
AcDb2dVertex
62
5
10
30.750000
20
-14.125000
0
VERTEX
5
1ed
100
AcDbEntity
8
1
100
AcDbVertex
100
AcDb2dVertex
62
5
10
30.750000
20
-18.500000
0
VERTEX
5
1ee
100
AcDbEntity
8
1
100
AcDbVertex
100
AcDb2dVertex
62
5
10
26.750000
20
-18.500000
0
SEQEND
5
1ef
100
AcDbEntity
8
1
0
LINE
5
1f0
100
AcDbEntity
8
1
100
AcDbLine
6
CONTINUOUS
62
5
10
34.750000
20
-13.812500
11
35.750000
21
-15.062500
0
POLYLINE
5
1f1
100
AcDbEntity
8
1
6
CONTINUOUS
62
5
100
AcDb2dPolyline
66
1
10
0.0
20
0.0
30
0.0
70
0
0
VERTEX
5
1f2
100
AcDbEntity
8
1
100
AcDbVertex
100
AcDb2dVertex
62
5
10
34.500000
20
-18.812500
0
VERTEX
5
1f3
100
AcDbEntity
8
1
100
AcDbVertex
100
AcDb2dVertex
62
5
10
36.250000
20
-17.875000
0
VERTEX
5
1f4
100
AcDbEntity
8
1
100
AcDbVertex
100
AcDb2dVertex
62
5
10
37.750000
20
-16.625000
0
VERTEX
5
1f5
100
AcDbEntity
8
1
100
AcDbVertex
100
AcDb2dVertex
62
5
10
39.250000
20
-15.062500
0
SEQEND
5
1f6
100
AcDbEntity
8
1
0
POLYLINE
5
1f7
100
AcDbEntity
8
1
6
CONTINUOUS
62
5
100
AcDb2dPolyline
66
1
10
0.0
20
0.0
30
0.0
70
0
0
VERTEX
5
1f8
100
AcDbEntity
8
1
100
AcDbVertex
100
AcDb2dVertex
62
5
10
22.750000
20
-3.000000
0
VERTEX
5
1f9
100
AcDbEntity
8
1
100
AcDbVertex
100
AcDb2dVertex
62
5
10
23.500000
20
-9.000000
0
VERTEX
5
1fa
100
AcDbEntity
8
1
100
AcDbVertex
100
AcDb2dVertex
62
5
10
24.250000
20
-3.000000
0
VERTEX
5
1fb
100
AcDbEntity
8
1
100
AcDbVertex
100
AcDb2dVertex
62
5
10
25.000000
20
-9.000000
0
VERTEX
5
1fc
100
AcDbEntity
8
1
100
AcDbVertex
100
AcDb2dVertex
62
5
10
25.750000
20
-3.000000
0
SEQEND
5
1fd
100
AcDbEntity
8
1
0
LINE
5
1fe
100
AcDbEntity
8
1
100
AcDbLine
6
CONTINUOUS
62
5
10
27.500000
20
-3.000000
11
29.000000
21
-3.000000
0
LINE
5
1ff
100
AcDbEntity
8
1
100
AcDbLine
6
CONTINUOUS
62
5
10
28.250000
20
-3.000000
11
28.250000
21
-9.000000
0
LINE
5
200
100
AcDbEntity
8
1
100
AcDbLine
6
CONTINUOUS
62
5
10
27.500000
20
-9.000000
11
29.000000
21
-9.000000
0
LINE
5
201
100
AcDbEntity
8
1
100
AcDbLine
6
CONTINUOUS
62
5
10
31.000000
20
-3.000000
11
31.000000
21
-9.000000
0
POLYLINE
5
202
100
AcDbEntity
8
1
6
CONTINUOUS
62
5
100
AcDb2dPolyline
66
1
10
0.0
20
0.0
30
0.0
70
0
0
VERTEX
5
203
100
AcDbEntity
8
1
100
AcDbVertex
100
AcDb2dVertex
62
5
10
31.000000
20
-3.000000
0
VERTEX
5
204
100
AcDbEntity
8
1
100
AcDbVertex
100
AcDb2dVertex
62
5
10
32.250000
20
-3.000000
0
VERTEX
5
205
100
AcDbEntity
8
1
100
AcDbVertex
100
AcDb2dVertex
62
5
10
32.750000
20
-3.250000
0
VERTEX
5
206
100
AcDbEntity
8
1
100
AcDbVertex
100
AcDb2dVertex
62
5
10
33.250000
20
-3.750000
0
VERTEX
5
207
100
AcDbEntity
8
1
100
AcDbVertex
100
AcDb2dVertex
62
5
10
33.500000
20
-4.750000
0
VERTEX
5
208
100
AcDbEntity
8
1
100
AcDbVertex
100
AcDb2dVertex
62
5
10
33.500000
20
-7.250000
0
VERTEX
5
209
100
AcDbEntity
8
1
100
AcDbVertex
100
AcDb2dVertex
62
5
10
33.250000
20
-8.250000
0
VERTEX
5
20a
100
AcDbEntity
8
1
100
AcDbVertex
100
AcDb2dVertex
62
5
10
32.750000
20
-8.750000
0
VERTEX
5
20b
100
AcDbEntity
8
1
100
AcDbVertex
100
AcDb2dVertex
62
5
10
32.250000
20
-9.000000
0
VERTEX
5
20c
100
AcDbEntity
8
1
100
AcDbVertex
100
AcDb2dVertex
62
5
10
31.000000
20
-9.000000
0
SEQEND
5
20d
100
AcDbEntity
8
1
0
POLYLINE
5
20e
100
AcDbEntity
8
1
6
CONTINUOUS
62
5
100
AcDb2dPolyline
66
1
10
0.0
20
0.0
30
0.0
70
0
0
VERTEX
5
20f
100
AcDbEntity
8
1
100
AcDbVertex
100
AcDb2dVertex
62
5
10
37.500000
20
-3.000000
0
VERTEX
5
210
100
AcDbEntity
8
1
100
AcDbVertex
100
AcDb2dVertex
62
5
10
35.000000
20
-3.000000
0
VERTEX
5
211
100
AcDbEntity
8
1
100
AcDbVertex
100
AcDb2dVertex
62
5
10
35.000000
20
-9.000000
0
VERTEX
5
212
100
AcDbEntity
8
1
100
AcDbVertex
100
AcDb2dVertex
62
5
10
37.750000
20
-9.000000
0
SEQEND
5
213
100
AcDbEntity
8
1
0
LINE
5
214
100
AcDbEntity
8
1
100
AcDbLine
6
CONTINUOUS
62
5
10
35.000000
20
-6.000000
11
37.250000
21
-6.000000
0
POLYLINE
5
215
100
AcDbEntity
8
1
6
CONTINUOUS
62
5
100
AcDb2dPolyline
66
1
10
0.0
20
0.0
30
0.0
70
0
0
VERTEX
5
216
100
AcDbEntity
8
1
100
AcDbVertex
100
AcDb2dVertex
62
5
10
13.250000
20
-3.000000
0
VERTEX
5
217
100
AcDbEntity
8
1
100
AcDbVertex
100
AcDb2dVertex
62
5
10
13.250000
20
-7.500000
0
VERTEX
5
218
100
AcDbEntity
8
1
100
AcDbVertex
100
AcDb2dVertex
62
5
10
13.000000
20
-8.500000
0
VERTEX
5
219
100
AcDbEntity
8
1
100
AcDbVertex
100
AcDb2dVertex
62
5
10
12.500000
20
-9.000000
0
VERTEX
5
21a
100
AcDbEntity
8
1
100
AcDbVertex
100
AcDb2dVertex
62
5
10
11.750000
20
-9.000000
0
VERTEX
5
21b
100
AcDbEntity
8
1
100
AcDbVertex
100
AcDb2dVertex
62
5
10
11.250000
20
-8.500000
0
VERTEX
5
21c
100
AcDbEntity
8
1
100
AcDbVertex
100
AcDb2dVertex
62
5
10
11.000000
20
-7.500000
0
SEQEND
5
21d
100
AcDbEntity
8
1
0
POLYLINE
5
21e
100
AcDbEntity
8
1
6
CONTINUOUS
62
5
100
AcDb2dPolyline
66
1
10
0.0
20
0.0
30
0.0
70
0
0
VERTEX
5
21f
100
AcDbEntity
8
1
100
AcDbVertex
100
AcDb2dVertex
62
5
10
17.250000
20
-6.000000
0
VERTEX
5
220
100
AcDbEntity
8
1
100
AcDbVertex
100
AcDb2dVertex
62
5
10
17.750000
20
-5.500000
0
VERTEX
5
221
100
AcDbEntity
8
1
100
AcDbVertex
100
AcDb2dVertex
62
5
10
18.000000
20
-5.500000
0
VERTEX
5
222
100
AcDbEntity
8
1
100
AcDbVertex
100
AcDb2dVertex
62
5
10
18.500000
20
-6.000000
0
VERTEX
5
223
100
AcDbEntity
8
1
100
AcDbVertex
100
AcDb2dVertex
62
5
10
18.500000
20
-6.250000
0
VERTEX
5
224
100
AcDbEntity
8
1
100
AcDbVertex
100
AcDb2dVertex
62
5
10
18.000000
20
-6.750000
0
VERTEX
5
225
100
AcDbEntity
8
1
100
AcDbVertex
100
AcDb2dVertex
62
5
10
17.750000
20
-6.750000
0
VERTEX
5
226
100
AcDbEntity
8
1
100
AcDbVertex
100
AcDb2dVertex
62
5
10
17.250000
20
-6.250000
0
VERTEX
5
227
100
AcDbEntity
8
1
100
AcDbVertex
100
AcDb2dVertex
62
5
10
17.250000
20
-6.000000
0
VERTEX
5
228
100
AcDbEntity
8
1
100
AcDbVertex
100
AcDb2dVertex
62
5
10
18.500000
20
-6.000000
0
SEQEND
5
229
100
AcDbEntity
8
1
0
LINE
5
22a
100
AcDbEntity
8
1
100
AcDbLine
6
CONTINUOUS
62
5
10
18.500000
20
-6.250000
11
17.250000
21
-6.250000
0
LINE
5
22b
100
AcDbEntity
8
1
100
AcDbLine
6
CONTINUOUS
62
5
10
17.500000
20
-6.500000
11
18.250000
21
-6.500000
0
LINE
5
22c
100
AcDbEntity
8
1
100
AcDbLine
6
CONTINUOUS
62
5
10
18.250000
20
-5.750000
11
17.500000
21
-5.750000
0
LINE
5
22d
100
AcDbEntity
8
1
100
AcDbLine
6
CONTINUOUS
62
5
10
0.000000
20
0.000000
11
0.000000
21
-32.000000
0
LINE
5
22e
100
AcDbEntity
8
1
100
AcDbLine
6
CONTINUOUS
62
5
10
22.500000
20
-49.500000
11
22.500000
21
-57.000000
0
LINE
5
22f
100
AcDbEntity
8
1
100
AcDbLine
6
CONTINUOUS
62
5
10
25.625000
20
-49.500000
11
22.500000
21
-53.875000
0
LINE
5
230
100
AcDbEntity
8
1
100
AcDbLine
6
CONTINUOUS
62
5
10
23.437500
20
-52.625000
11
25.937500
21
-57.000000
0
LINE
5
231
100
AcDbEntity
8
1
100
AcDbLine
6
CONTINUOUS
62
5
10
27.500000
20
-53.250000
11
30.625000
21
-53.250000
0
POLYLINE
5
232
100
AcDbEntity
8
1
6
CONTINUOUS
62
5
100
AcDb2dPolyline
66
1
10
0.0
20
0.0
30
0.0
70
0
0
VERTEX
5
233
100
AcDbEntity
8
1
100
AcDbVertex
100
AcDb2dVertex
62
5
10
32.500000
20
-51.687500
0
VERTEX
5
234
100
AcDbEntity
8
1
100
AcDbVertex
100
AcDb2dVertex
62
5
10
32.812500
20
-50.125000
0
VERTEX
5
235
100
AcDbEntity
8
1
100
AcDbVertex
100
AcDb2dVertex
62
5
10
33.750000
20
-49.500000
0
VERTEX
5
236
100
AcDbEntity
8
1
100
AcDbVertex
100
AcDb2dVertex
62
5
10
34.687500
20
-49.500000
0
VERTEX
5
237
100
AcDbEntity
8
1
100
AcDbVertex
100
AcDb2dVertex
62
5
10
35.312500
20
-49.812500
0
VERTEX
5
238
100
AcDbEntity
8
1
100
AcDbVertex
100
AcDb2dVertex
62
5
10
35.625000
20
-50.750000
0
VERTEX
5
239
100
AcDbEntity
8
1
100
AcDbVertex
100
AcDb2dVertex
62
5
10
35.625000
20
-51.687500
0
VERTEX
5
23a
100
AcDbEntity
8
1
100
AcDbVertex
100
AcDb2dVertex
62
5
10
35.312500
20
-52.625000
0
VERTEX
5
23b
100
AcDbEntity
8
1
100
AcDbVertex
100
AcDb2dVertex
62
5
10
32.500000
20
-57.000000
0
VERTEX
5
23c
100
AcDbEntity
8
1
100
AcDbVertex
100
AcDb2dVertex
62
5
10
35.625000
20
-57.000000
0
VERTEX
5
23d
100
AcDbEntity
8
1
100
AcDbVertex
100
AcDb2dVertex
62
5
10
35.625000
20
-56.062500
0
SEQEND
5
23e
100
AcDbEntity
8
1
0
POLYLINE
5
23f
100
AcDbEntity
8
1
6
CONTINUOUS
62
5
100
AcDb2dPolyline
66
1
10
0.0
20
0.0
30
0.0
70
0
0
VERTEX
5
240
100
AcDbEntity
8
1
100
AcDbVertex
100
AcDb2dVertex
62
5
10
12.187500
20
-49.500000
0
VERTEX
5
241
100
AcDbEntity
8
1
100
AcDbVertex
100
AcDb2dVertex
62
5
10
13.125000
20
-57.000000
0
VERTEX
5
242
100
AcDbEntity
8
1
100
AcDbVertex
100
AcDb2dVertex
62
5
10
14.062500
20
-49.500000
0
VERTEX
5
243
100
AcDbEntity
8
1
100
AcDbVertex
100
AcDb2dVertex
62
5
10
15.000000
20
-57.000000
0
VERTEX
5
244
100
AcDbEntity
8
1
100
AcDbVertex
100
AcDb2dVertex
62
5
10
15.937500
20
-49.500000
0
SEQEND
5
245
100
AcDbEntity
8
1
0
POLYLINE
5
246
100
AcDbEntity
8
1
6
CONTINUOUS
62
5
100
AcDb2dPolyline
66
1
10
0.0
20
0.0
30
0.0
70
0
0
VERTEX
5
247
100
AcDbEntity
8
1
100
AcDbVertex
100
AcDb2dVertex
62
5
10
20.312500
20
-49.500000
0
VERTEX
5
248
100
AcDbEntity
8
1
100
AcDbVertex
100
AcDb2dVertex
62
5
10
20.312500
20
-55.125000
0
VERTEX
5
249
100
AcDbEntity
8
1
100
AcDbVertex
100
AcDb2dVertex
62
5
10
20.000000
20
-56.375000
0
VERTEX
5
24a
100
AcDbEntity
8
1
100
AcDbVertex
100
AcDb2dVertex
62
5
10
19.375000
20
-57.000000
0
VERTEX
5
24b
100
AcDbEntity
8
1
100
AcDbVertex
100
AcDb2dVertex
62
5
10
18.437500
20
-57.000000
0
VERTEX
5
24c
100
AcDbEntity
8
1
100
AcDbVertex
100
AcDb2dVertex
62
5
10
17.812500
20
-56.375000
0
VERTEX
5
24d
100
AcDbEntity
8
1
100
AcDbVertex
100
AcDb2dVertex
62
5
10
17.500000
20
-55.125000
0
SEQEND
5
24e
100
AcDbEntity
8
1
0
LINE
5
24f
100
AcDbEntity
8
1
100
AcDbLine
6
DOT2
62
5
10
90.225000
20
-107.124986
11
89.600000
21
-107.749986
0
POLYLINE
5
250
100
AcDbEntity
8
1
6
DOT2
62
5
100
AcDb2dPolyline
66
1
10
0.0
20
0.0
30
0.0
70
0
0
VERTEX
5
251
100
AcDbEntity
8
1
100
AcDbVertex
100
AcDb2dVertex
62
5
10
89.600000
20
-107.124986
0
VERTEX
5
252
100
AcDbEntity
8
1
100
AcDbVertex
100
AcDb2dVertex
62
5
10
90.225000
20
-107.749986
0
VERTEX
5
253
100
AcDbEntity
8
1
100
AcDbVertex
100
AcDb2dVertex
62
5
10
89.600000
20
-107.749986
0
VERTEX
5
254
100
AcDbEntity
8
1
100
AcDbVertex
100
AcDb2dVertex
62
5
10
89.600000
20
-107.124986
0
VERTEX
5
255
100
AcDbEntity
8
1
100
AcDbVertex
100
AcDb2dVertex
62
5
10
90.225000
20
-107.124986
0
VERTEX
5
256
100
AcDbEntity
8
1
100
AcDbVertex
100
AcDb2dVertex
62
5
10
90.225000
20
-107.749986
0
SEQEND
5
257
100
AcDbEntity
8
1
0
POLYLINE
5
258
100
AcDbEntity
8
1
6
DOT2
62
5
100
AcDb2dPolyline
66
1
10
0.0
20
0.0
30
0.0
70
1
0
VERTEX
5
259
100
AcDbEntity
8
1
100
AcDbVertex
100
AcDb2dVertex
62
5
10
85.850000
20
-100.249986
0
VERTEX
5
25a
100
AcDbEntity
8
1
100
AcDbVertex
100
AcDb2dVertex
62
5
10
86.475000
20
-100.249986
0
VERTEX
5
25b
100
AcDbEntity
8
1
100
AcDbVertex
100
AcDb2dVertex
62
5
10
86.787500
20
-100.562486
0
VERTEX
5
25c
100
AcDbEntity
8
1
100
AcDbVertex
100
AcDb2dVertex
62
5
10
87.412500
20
-101.812486
0
VERTEX
5
25d
100
AcDbEntity
8
1
100
AcDbVertex
100
AcDb2dVertex
62
5
10
87.725000
20
-103.062486
0
VERTEX
5
25e
100
AcDbEntity
8
1
100
AcDbVertex
100
AcDb2dVertex
62
5
10
87.725000
20
-104.937486
0
VERTEX
5
25f
100
AcDbEntity
8
1
100
AcDbVertex
100
AcDb2dVertex
62
5
10
87.412500
20
-106.187486
0
VERTEX
5
260
100
AcDbEntity
8
1
100
AcDbVertex
100
AcDb2dVertex
62
5
10
86.787500
20
-107.437486
0
VERTEX
5
261
100
AcDbEntity
8
1
100
AcDbVertex
100
AcDb2dVertex
62
5
10
86.475000
20
-107.749986
0
VERTEX
5
262
100
AcDbEntity
8
1
100
AcDbVertex
100
AcDb2dVertex
62
5
10
85.850000
20
-107.749986
0
VERTEX
5
263
100
AcDbEntity
8
1
100
AcDbVertex
100
AcDb2dVertex
62
5
10
85.537500
20
-107.437486
0
VERTEX
5
264
100
AcDbEntity
8
1
100
AcDbVertex
100
AcDb2dVertex
62
5
10
84.912500
20
-106.187486
0
VERTEX
5
265
100
AcDbEntity
8
1
100
AcDbVertex
100
AcDb2dVertex
62
5
10
84.600000
20
-104.937486
0
VERTEX
5
266
100
AcDbEntity
8
1
100
AcDbVertex
100
AcDb2dVertex
62
5
10
84.600000
20
-103.062486
0
VERTEX
5
267
100
AcDbEntity
8
1
100
AcDbVertex
100
AcDb2dVertex
62
5
10
84.912500
20
-101.812486
0
VERTEX
5
268
100
AcDbEntity
8
1
100
AcDbVertex
100
AcDb2dVertex
62
5
10
85.537500
20
-100.562486
0
VERTEX
5
269
100
AcDbEntity
8
1
100
AcDbVertex
100
AcDb2dVertex
62
5
10
85.850000
20
-100.249986
0
SEQEND
5
26a
100
AcDbEntity
8
1
0
POLYLINE
5
26b
100
AcDbEntity
8
1
6
DOT2
62
5
100
AcDb2dPolyline
66
1
10
0.0
20
0.0
30
0.0
70
0
0
VERTEX
5
26c
100
AcDbEntity
8
1
100
AcDbVertex
100
AcDb2dVertex
62
5
10
97.100000
20
-100.249986
0
VERTEX
5
26d
100
AcDbEntity
8
1
100
AcDbVertex
100
AcDb2dVertex
62
5
10
94.287500
20
-105.874986
0
VERTEX
5
26e
100
AcDbEntity
8
1
100
AcDbVertex
100
AcDb2dVertex
62
5
10
98.037500
20
-105.874986
0
SEQEND
5
26f
100
AcDbEntity
8
1
0
LINE
5
270
100
AcDbEntity
8
1
100
AcDbLine
6
DOT2
62
5
10
97.100000
20
-100.249986
11
97.100000
21
-107.749986
0
LINE
5
271
100
AcDbEntity
8
1
100
AcDbLine
6
DOT2
62
5
10
96.475000
20
-107.749986
11
97.725000
21
-107.749986
0
POLYLINE
5
272
100
AcDbEntity
8
1
6
DOT2
62
5
100
AcDb2dPolyline
66
1
10
0.0
20
0.0
30
0.0
70
0
0
VERTEX
5
273
100
AcDbEntity
8
1
100
AcDbVertex
100
AcDb2dVertex
62
5
10
75.225000
20
-100.874986
0
VERTEX
5
274
100
AcDbEntity
8
1
100
AcDbVertex
100
AcDb2dVertex
62
5
10
76.162500
20
-100.249986
0
VERTEX
5
275
100
AcDbEntity
8
1
100
AcDbVertex
100
AcDb2dVertex
62
5
10
76.162500
20
-107.749986
0
SEQEND
5
276
100
AcDbEntity
8
1
0
LINE
5
277
100
AcDbEntity
8
1
100
AcDbLine
6
DOT2
62
5
10
75.537500
20
-107.749986
11
76.787500
21
-107.749986
0
POLYLINE
5
278
100
AcDbEntity
8
1
6
DOT2
62
5
100
AcDb2dPolyline
66
1
10
0.0
20
0.0
30
0.0
70
0
0
VERTEX
5
279
100
AcDbEntity
8
1
100
AcDbVertex
100
AcDb2dVertex
62
5
10
80.225000
20
-100.874986
0
VERTEX
5
27a
100
AcDbEntity
8
1
100
AcDbVertex
100
AcDb2dVertex
62
5
10
81.162500
20
-100.249986
0
VERTEX
5
27b
100
AcDbEntity
8
1
100
AcDbVertex
100
AcDb2dVertex
62
5
10
81.162500
20
-107.749986
0
SEQEND
5
27c
100
AcDbEntity
8
1
0
LINE
5
27d
100
AcDbEntity
8
1
100
AcDbLine
6
DOT2
62
5
10
80.537500
20
-107.749986
11
81.787500
21
-107.749986
0
ARC
5
27e
100
AcDbEntity
8
1
100
AcDbCircle
6
CONTINUOUS
62
5
10
108.850000
20
-147.899986
40
2.500000
100
AcDbArc
50
44.886181
51
135.113817
0
LINE
5
27f
100
AcDbEntity
8
1
100
AcDbLine
6
CONTINUOUS
62
5
10
83.100000
20
-139.099986
11
88.600000
21
-139.099986
0
POLYLINE
5
280
100
AcDbEntity
8
1
6
CONTINUOUS
62
5
100
AcDb2dPolyline
66
1
10
0.0
20
0.0
30
0.0
70
0
0
VERTEX
5
281
100
AcDbEntity
8
1
100
AcDbVertex
100
AcDb2dVertex
62
5
10
90.000000
20
-139.799986
0
VERTEX
5
282
100
AcDbEntity
8
1
100
AcDbVertex
100
AcDb2dVertex
62
5
10
89.300000
20
-139.099986
0
VERTEX
5
283
100
AcDbEntity
8
1
100
AcDbVertex
100
AcDb2dVertex
62
5
10
82.400000
20
-139.099986
0
VERTEX
5
284
100
AcDbEntity
8
1
100
AcDbVertex
100
AcDb2dVertex
62
5
10
81.700000
20
-139.799986
0
SEQEND
5
285
100
AcDbEntity
8
1
0
ARC
5
286
100
AcDbEntity
8
1
100
AcDbCircle
6
CONTINUOUS
62
5
10
88.000000
20
-137.499985
40
2.000000
100
AcDbArc
50
0.000000
51
89.999999
0
LINE
5
287
100
AcDbEntity
8
1
100
AcDbLine
6
CONTINUOUS
62
5
10
88.000000
20
-135.499985
11
83.700000
21
-135.499985
0
ARC
5
288
100
AcDbEntity
8
1
100
AcDbCircle
6
CONTINUOUS
62
5
10
83.700000
20
-137.499985
40
2.000000
100
AcDbArc
50
89.999999
51
179.999998
0
POLYLINE
5
289
100
AcDbEntity
8
1
6
CONTINUOUS
62
5
100
AcDb2dPolyline
66
1
10
0.0
20
0.0
30
0.0
70
0
0
VERTEX
5
28a
100
AcDbEntity
8
1
100
AcDbVertex
100
AcDb2dVertex
62
5
10
81.700000
20
-137.499985
0
VERTEX
5
28b
100
AcDbEntity
8
1
100
AcDbVertex
100
AcDb2dVertex
62
5
10
81.700000
20
-139.799986
0
VERTEX
5
28c
100
AcDbEntity
8
1
100
AcDbVertex
100
AcDb2dVertex
62
5
10
90.000000
20
-139.799986
0
VERTEX
5
28d
100
AcDbEntity
8
1
100
AcDbVertex
100
AcDb2dVertex
62
5
10
90.000000
20
-137.499985
0
SEQEND
5
28e
100
AcDbEntity
8
1
0
ARC
5
28f
100
AcDbEntity
8
1
100
AcDbCircle
6
CONTINUOUS
62
5
10
83.700000
20
-137.499985
40
0.600000
100
AcDbArc
50
89.999999
51
179.999998
0
LINE
5
290
100
AcDbEntity
8
1
100
AcDbLine
6
CONTINUOUS
62
5
10
83.700000
20
-136.899985
11
88.000000
21
-136.899985
0
ARC
5
291
100
AcDbEntity
8
1
100
AcDbCircle
6
CONTINUOUS
62
5
10
88.000000
20
-137.499985
40
0.600000
100
AcDbArc
50
0.000000
51
89.999999
0
POLYLINE
5
292
100
AcDbEntity
8
1
6
CONTINUOUS
62
5
100
AcDb2dPolyline
66
1
10
0.0
20
0.0
30
0.0
70
0
0
VERTEX
5
293
100
AcDbEntity
8
1
100
AcDbVertex
100
AcDb2dVertex
62
5
10
88.600000
20
-137.499985
0
VERTEX
5
294
100
AcDbEntity
8
1
100
AcDbVertex
100
AcDb2dVertex
62
5
10
88.600000
20
-139.099986
0
VERTEX
5
295
100
AcDbEntity
8
1
100
AcDbVertex
100
AcDb2dVertex
62
5
10
83.100000
20
-139.099986
0
VERTEX
5
296
100
AcDbEntity
8
1
100
AcDbVertex
100
AcDb2dVertex
62
5
10
83.100000
20
-137.499985
0
SEQEND
5
297
100
AcDbEntity
8
1
0
LINE
5
298
100
AcDbEntity
8
1
100
AcDbLine
6
CONTINUOUS
62
5
10
94.650000
20
-147.799986
11
94.550000
21
-147.899986
0
LINE
5
299
100
AcDbEntity
8
1
100
AcDbLine
6
CONTINUOUS
62
5
10
90.550000
20
-147.799986
11
90.650000
21
-147.899986
0
ARC
5
29a
100
AcDbEntity
8
1
100
AcDbCircle
6
CONTINUOUS
62
5
10
90.432546
20
-145.799986
40
1.000000
100
AcDbArc
50
-89.999999
51
-44.683452
0
LINE
5
29b
100
AcDbEntity
8
1
100
AcDbLine
6
CONTINUOUS
62
5
10
91.143549
20
-146.503176
11
93.409660
21
-144.211886
0
CIRCLE
5
29c
100
AcDbEntity
8
1
100
AcDbCircle
6
CONTINUOUS
62
5
10
96.350000
20
-141.499986
40
1.650000
0
CIRCLE
5
29d
100
AcDbEntity
8
1
100
AcDbCircle
6
CONTINUOUS
62
5
10
96.350000
20
-141.499986
40
1.750000
0
CIRCLE
5
29e
100
AcDbEntity
8
1
100
AcDbCircle
6
CONTINUOUS
62
5
10
96.350000
20
-141.499986
40
2.250000
0
LINE
5
29f
100
AcDbEntity
8
1
100
AcDbLine
6
CONTINUOUS
62
5
10
81.150000
20
-147.799986
11
81.050000
21
-147.899986
0
ARC
5
2a0
100
AcDbEntity
8
1
100
AcDbCircle
6
CONTINUOUS
62
5
10
96.350000
20
-141.499986
40
4.000000
100
AcDbArc
50
-104.477511
51
-28.955024
0
CIRCLE
5
2a1
100
AcDbEntity
8
1
100
AcDbCircle
6
CONTINUOUS
62
5
10
96.350000
20
-141.499986
40
3.450000
0
ARC
5
2a2
100
AcDbEntity
8
1
100
AcDbCircle
6
CONTINUOUS
62
5
10
96.350000
20
-141.499986
40
4.000000
100
AcDbArc
50
-28.955024
51
-104.477511
0
LINE
5
2a3
100
AcDbEntity
8
1
100
AcDbLine
6
CONTINUOUS
62
5
10
108.850000
20
-154.299986
11
108.850000
21
-155.199986
0
LINE
5
2a4
100
AcDbEntity
8
1
100
AcDbLine
6
CONTINUOUS
62
5
10
108.850000
20
-154.299986
11
108.850000
21
-155.199986
0
ARC
5
2a5
100
AcDbEntity
8
1
100
AcDbCircle
6
CONTINUOUS
62
5
10
104.150000
20
-154.299986
40
0.300000
100
AcDbArc
50
89.999999
51
179.999998
0
LINE
5
2a6
100
AcDbEntity
8
1
100
AcDbLine
6
CONTINUOUS
62
5
10
103.850000
20
-154.299986
11
103.850000
21
-155.199986
0
ARC
5
2a7
100
AcDbEntity
8
1
100
AcDbCircle
6
CONTINUOUS
62
5
10
104.150000
20
-155.199986
40
0.300000
100
AcDbArc
50
-179.999998
51
-89.999999
0
LINE
5
2a8
100
AcDbEntity
8
1
100
AcDbLine
6
CONTINUOUS
62
5
10
104.150000
20
-155.499986
11
113.550000
21
-155.499986
0
ARC
5
2a9
100
AcDbEntity
8
1
100
AcDbCircle
6
CONTINUOUS
62
5
10
113.550000
20
-155.199986
40
0.300000
100
AcDbArc
50
-89.999999
51
0.000000
0
LINE
5
2aa
100
AcDbEntity
8
1
100
AcDbLine
6
CONTINUOUS
62
5
10
113.850000
20
-155.199986
11
113.850000
21
-154.299986
0
ARC
5
2ab
100
AcDbEntity
8
1
100
AcDbCircle
6
CONTINUOUS
62
5
10
113.550000
20
-154.299986
40
0.300000
100
AcDbArc
50
-0.000000
51
89.999999
0
LINE
5
2ac
100
AcDbEntity
8
1
100
AcDbLine
6
CONTINUOUS
62
5
10
113.550000
20
-153.999986
11
104.150000
21
-153.999986
0
ARC
5
2ad
100
AcDbEntity
8
1
100
AcDbCircle
6
CONTINUOUS
62
5
10
104.150000
20
-154.299986
40
0.300000
100
AcDbArc
50
89.999999
51
179.999998
0
LINE
5
2ae
100
AcDbEntity
8
1
100
AcDbLine
6
CONTINUOUS
62
5
10
103.850000
20
-154.299986
11
103.850000
21
-155.199986
0
ARC
5
2af
100
AcDbEntity
8
1
100
AcDbCircle
6
CONTINUOUS
62
5
10
104.150000
20
-155.199986
40
0.300000
100
AcDbArc
50
-179.999998
51
-89.999999
0
LINE
5
2b0
100
AcDbEntity
8
1
100
AcDbLine
6
CONTINUOUS
62
5
10
104.150000
20
-155.499986
11
113.550000
21
-155.499986
0
ARC
5
2b1
100
AcDbEntity
8
1
100
AcDbCircle
6
CONTINUOUS
62
5
10
113.550000
20
-155.199986
40
0.300000
100
AcDbArc
50
-89.999999
51
0.000000
0
LINE
5
2b2
100
AcDbEntity
8
1
100
AcDbLine
6
CONTINUOUS
62
5
10
113.850000
20
-155.199986
11
113.850000
21
-154.299986
0
ARC
5
2b3
100
AcDbEntity
8
1
100
AcDbCircle
6
CONTINUOUS
62
5
10
113.550000
20
-154.299986
40
0.300000
100
AcDbArc
50
-0.000000
51
89.999999
0
LINE
5
2b4
100
AcDbEntity
8
1
100
AcDbLine
6
CONTINUOUS
62
5
10
113.550000
20
-153.999986
11
104.150000
21
-153.999986
0
LINE
5
2b5
100
AcDbEntity
8
1
100
AcDbLine
6
CONTINUOUS
62
5
10
94.550000
20
-153.899986
11
94.650000
21
-153.999986
0
LINE
5
2b6
100
AcDbEntity
8
1
100
AcDbLine
6
CONTINUOUS
62
5
10
90.650000
20
-153.899986
11
90.550000
21
-153.999986
0
ARC
5
2b7
100
AcDbEntity
8
1
100
AcDbCircle
6
CONTINUOUS
62
5
10
85.350000
20
-158.499986
40
0.500000
100
AcDbArc
50
-89.999999
51
0.000000
0
LINE
5
2b8
100
AcDbEntity
8
1
100
AcDbLine
6
CONTINUOUS
62
5
10
85.850000
20
-158.499986
11
85.850000
21
-158.572424
0
LINE
5
2b9
100
AcDbEntity
8
1
100
AcDbLine
6
CONTINUOUS
62
5
10
84.683312
20
-158.999986
11
85.350000
21
-158.999986
0
ARC
5
2ba
100
AcDbEntity
8
1
100
AcDbCircle
6
CONTINUOUS
62
5
10
84.183312
20
-158.999986
40
0.500000
100
AcDbArc
50
-89.999999
51
0.000000
0
LINE
5
2bb
100
AcDbEntity
8
1
100
AcDbLine
6
CONTINUOUS
62
5
10
84.183312
20
-159.499986
11
84.149965
21
-159.499986
0
LINE
5
2bc
100
AcDbEntity
8
1
100
AcDbLine
6
CONTINUOUS
62
5
10
84.683312
20
-157.499970
11
84.683312
21
-158.999986
0
ARC
5
2bd
100
AcDbEntity
8
1
100
AcDbCircle
6
CONTINUOUS
62
5
10
85.350000
20
-158.999986
40
0.500000
100
AcDbArc
50
-89.999999
51
0.000000
0
LINE
5
2be
100
AcDbEntity
8
1
100
AcDbLine
6
CONTINUOUS
62
5
10
85.350000
20
-159.499986
11
84.949965
21
-159.499986
0
LINE
5
2bf
100
AcDbEntity
8
1
100
AcDbLine
6
CONTINUOUS
62
5
10
85.850000
20
-158.499986
11
85.850000
21
-158.999986
0
ARC
5
2c0
100
AcDbEntity
8
1
100
AcDbCircle
6
CONTINUOUS
62
5
10
87.349996
20
-158.249993
40
0.500000
100
AcDbArc
50
-89.999999
51
0.000000
0
LINE
5
2c1
100
AcDbEntity
8
1
100
AcDbLine
6
CONTINUOUS
62
5
10
87.849996
20
-158.249993
11
87.849996
21
-158.250000
0
LINE
5
2c2
100
AcDbEntity
8
1
100
AcDbLine
6
CONTINUOUS
62
5
10
86.650000
20
-158.749993
11
87.349996
21
-158.749993
0
ARC
5
2c3
100
AcDbEntity
8
1
100
AcDbCircle
6
CONTINUOUS
62
5
10
87.349997
20
-158.249993
40
0.500000
100
AcDbArc
50
-89.999999
51
0.000000
0
POLYLINE
5
2c4
100
AcDbEntity
8
1
6
CONTINUOUS
62
5
100
AcDb2dPolyline
66
1
10
0.0
20
0.0
30
0.0
70
0
0
VERTEX
5
2c5
100
AcDbEntity
8
1
100
AcDbVertex
100
AcDb2dVertex
62
5
10
87.349997
20
-158.749993
0
VERTEX
5
2c6
100
AcDbEntity
8
1
100
AcDbVertex
100
AcDb2dVertex
62
5
10
86.650000
20
-158.749993
0
VERTEX
5
2c7
100
AcDbEntity
8
1
100
AcDbVertex
100
AcDb2dVertex
62
5
10
86.650000
20
-157.499970
0
SEQEND
5
2c8
100
AcDbEntity
8
1
0
LINE
5
2c9
100
AcDbEntity
8
1
100
AcDbLine
6
CONTINUOUS
62
5
10
87.849764
20
-157.499970
11
87.849997
21
-158.150007
0
LINE
5
2ca
100
AcDbEntity
8
1
100
AcDbLine
6
CONTINUOUS
62
5
10
87.849997
20
-158.150007
11
87.849997
21
-158.249993
0
LINE
5
2cb
100
AcDbEntity
8
1
100
AcDbLine
6
CONTINUOUS
62
5
10
92.450000
20
-158.999986
11
92.050000
21
-158.599986
0
POLYLINE
5
2cc
100
AcDbEntity
8
1
6
CONTINUOUS
62
5
100
AcDb2dPolyline
66
1
10
0.0
20
0.0
30
0.0
70
0
0
VERTEX
5
2cd
100
AcDbEntity
8
1
100
AcDbVertex
100
AcDb2dVertex
62
5
10
83.849965
20
-164.499986
0
VERTEX
5
2ce
100
AcDbEntity
8
1
100
AcDbVertex
100
AcDb2dVertex
62
5
10
83.050000
20
-164.499986
0
VERTEX
5
2cf
100
AcDbEntity
8
1
100
AcDbVertex
100
AcDb2dVertex
62
5
10
83.050000
20
-162.499986
0
VERTEX
5
2d0
100
AcDbEntity
8
1
100
AcDbVertex
100
AcDb2dVertex
62
5
10
83.849965
20
-162.499986
0
SEQEND
5
2d1
100
AcDbEntity
8
1
0
LINE
5
2d2
100
AcDbEntity
8
1
100
AcDbLine
6
CONTINUOUS
62
5
10
83.250000
20
-162.499986
11
83.250000
21
-164.499986
0
POLYLINE
5
2d3
100
AcDbEntity
8
1
6
CONTINUOUS
62
5
100
AcDb2dPolyline
66
1
10
0.0
20
0.0
30
0.0
70
0
0
VERTEX
5
2d4
100
AcDbEntity
8
1
100
AcDbVertex
100
AcDb2dVertex
62
5
10
87.850002
20
-164.999998
0
VERTEX
5
2d5
100
AcDbEntity
8
1
100
AcDbVertex
100
AcDb2dVertex
62
5
10
88.650003
20
-164.998935
0
VERTEX
5
2d6
100
AcDbEntity
8
1
100
AcDbVertex
100
AcDb2dVertex
62
5
10
88.650006
20
-162.498996
0
VERTEX
5
2d7
100
AcDbEntity
8
1
100
AcDbVertex
100
AcDb2dVertex
62
5
10
87.850002
20
-162.499996
0
SEQEND
5
2d8
100
AcDbEntity
8
1
0
LINE
5
2d9
100
AcDbEntity
8
1
100
AcDbLine
6
CONTINUOUS
62
5
10
88.450006
20
-162.499246
11
88.450003
21
-164.999201
0
LINE
5
2da
100
AcDbEntity
8
1
100
AcDbLine
6
CONTINUOUS
62
5
10
84.149965
20
-161.749986
11
84.149965
21
-159.499986
0
LINE
5
2db
100
AcDbEntity
8
1
100
AcDbLine
6
CONTINUOUS
62
5
10
82.450000
20
-161.499986
11
82.550000
21
-161.499986
0
LINE
5
2dc
100
AcDbEntity
8
1
100
AcDbLine
6
CONTINUOUS
62
5
10
89.150000
20
-161.499986
11
89.250000
21
-161.499986
0
LINE
5
2dd
100
AcDbEntity
8
1
100
AcDbLine
6
CONTINUOUS
62
5
10
86.650000
20
-158.749993
11
86.650000
21
-161.749994
0
LINE
5
2de
100
AcDbEntity
8
1
100
AcDbLine
6
CONTINUOUS
62
5
10
87.849997
20
-158.250893
11
87.849997
21
-162.249994
0
POLYLINE
5
2df
100
AcDbEntity
8
1
6
CONTINUOUS
62
5
100
AcDb2dPolyline
66
1
10
0.0
20
0.0
30
0.0
70
0
0
VERTEX
5
2e0
100
AcDbEntity
8
1
100
AcDbVertex
100
AcDb2dVertex
62
5
10
94.550000
20
-149.299986
0
VERTEX
5
2e1
100
AcDbEntity
8
1
100
AcDbVertex
100
AcDb2dVertex
62
5
10
93.050000
20
-149.299986
0
VERTEX
5
2e2
100
AcDbEntity
8
1
100
AcDbVertex
100
AcDb2dVertex
62
5
10
93.050000
20
-153.899986
0
SEQEND
5
2e3
100
AcDbEntity
8
1
0
LINE
5
2e4
100
AcDbEntity
8
1
100
AcDbLine
6
CONTINUOUS
62
5
10
81.050000
20
-153.899986
11
81.150000
21
-153.999986
0
ARC
5
2e5
100
AcDbEntity
8
1
100
AcDbCircle
6
CONTINUOUS
62
5
10
108.850000
20
-189.999986
40
44.200000
100
AcDbArc
50
91.801760
51
95.291079
0
ARC
5
2e6
100
AcDbEntity
8
1
100
AcDbCircle
6
CONTINUOUS
62
5
10
108.850000
20
-189.999986
40
44.200000
100
AcDbArc
50
84.708919
51
88.198238
0
LINE
5
2e7
100
AcDbEntity
8
1
100
AcDbLine
6
CONTINUOUS
62
5
10
112.925928
20
-145.988319
11
112.925928
21
-145.988319
0
ARC
5
2e8
100
AcDbEntity
8
1
100
AcDbCircle
6
CONTINUOUS
62
5
10
112.700000
20
-148.427880
40
2.450000
100
AcDbArc
50
-95.291079
51
84.708919
0
LINE
5
2e9
100
AcDbEntity
8
1
100
AcDbLine
6
CONTINUOUS
62
5
10
112.474072
20
-150.867441
11
112.474072
21
-150.867441
0
ARC
5
2ea
100
AcDbEntity
8
1
100
AcDbCircle
6
CONTINUOUS
62
5
10
108.850000
20
-189.999986
40
39.300000
100
AcDbArc
50
84.708919
51
95.291079
0
LINE
5
2eb
100
AcDbEntity
8
1
100
AcDbLine
6
CONTINUOUS
62
5
10
105.225928
20
-150.867441
11
105.225928
21
-150.867441
0
ARC
5
2ec
100
AcDbEntity
8
1
100
AcDbCircle
6
CONTINUOUS
62
5
10
105.000000
20
-148.427880
40
2.450000
100
AcDbArc
50
95.291079
51
-84.708919
0
LINE
5
2ed
100
AcDbEntity
8
1
100
AcDbLine
6
CONTINUOUS
62
5
10
104.774072
20
-145.988319
11
104.774072
21
-145.988319
0
ARC
5
2ee
100
AcDbEntity
8
1
100
AcDbCircle
6
CONTINUOUS
62
5
10
108.850000
20
-189.999986
40
43.900000
100
AcDbArc
50
92.312394
51
95.291079
0
ARC
5
2ef
100
AcDbEntity
8
1
100
AcDbCircle
6
CONTINUOUS
62
5
10
108.850000
20
-189.999986
40
43.900000
100
AcDbArc
50
84.708919
51
87.687604
0
ARC
5
2f0
100
AcDbEntity
8
1
100
AcDbCircle
6
CONTINUOUS
62
5
10
112.700000
20
-148.427880
40
2.150000
100
AcDbArc
50
-95.291079
51
84.708919
0
ARC
5
2f1
100
AcDbEntity
8
1
100
AcDbCircle
6
CONTINUOUS
62
5
10
108.850000
20
-189.999986
40
39.600000
100
AcDbArc
50
84.708919
51
95.291079
0
ARC
5
2f2
100
AcDbEntity
8
1
100
AcDbCircle
6
CONTINUOUS
62
5
10
105.000000
20
-148.427880
40
2.150000
100
AcDbArc
50
95.291079
51
-84.708919
0
ARC
5
2f3
100
AcDbEntity
8
1
100
AcDbCircle
6
CONTINUOUS
62
5
10
100.150000
20
-155.199986
40
0.300000
100
AcDbArc
50
179.999998
51
-89.999999
0
LINE
5
2f4
100
AcDbEntity
8
1
100
AcDbLine
6
CONTINUOUS
62
5
10
99.850000
20
-143.436478
11
99.850000
21
-155.199986
0
ARC
5
2f5
100
AcDbEntity
8
1
100
AcDbCircle
6
CONTINUOUS
62
5
10
99.650000
20
-155.199986
40
0.300000
100
AcDbArc
50
179.999998
51
-89.999999
0
LINE
5
2f6
100
AcDbEntity
8
1
100
AcDbLine
6
CONTINUOUS
62
5
10
99.350000
20
-155.199986
11
99.350000
21
-144.145738
0
ARC
5
2f7
100
AcDbEntity
8
1
100
AcDbCircle
6
CONTINUOUS
62
5
10
108.850000
20
-189.999986
40
46.250000
100
AcDbArc
50
84.708919
51
95.291079
0
LINE
5
2f8
100
AcDbEntity
8
1
100
AcDbLine
6
CONTINUOUS
62
5
10
113.114970
20
-143.947054
11
113.114970
21
-143.947054
0
ARC
5
2f9
100
AcDbEntity
8
1
100
AcDbCircle
6
CONTINUOUS
62
5
10
112.700000
20
-148.427880
40
4.500000
100
AcDbArc
50
-95.291079
51
84.708919
0
LINE
5
2fa
100
AcDbEntity
8
1
100
AcDbLine
6
CONTINUOUS
62
5
10
112.285030
20
-152.908706
11
112.285030
21
-152.908706
0
ARC
5
2fb
100
AcDbEntity
8
1
100
AcDbCircle
6
CONTINUOUS
62
5
10
108.850000
20
-189.999986
40
37.250000
100
AcDbArc
50
84.708919
51
95.291079
0
LINE
5
2fc
100
AcDbEntity
8
1
100
AcDbLine
6
CONTINUOUS
62
5
10
105.414970
20
-152.908706
11
105.414970
21
-152.908706
0
ARC
5
2fd
100
AcDbEntity
8
1
100
AcDbCircle
6
CONTINUOUS
62
5
10
105.000000
20
-148.427880
40
4.500000
100
AcDbArc
50
95.291079
51
-84.708919
0
LINE
5
2fe
100
AcDbEntity
8
1
100
AcDbLine
6
CONTINUOUS
62
5
10
104.585030
20
-143.947054
11
104.585030
21
-143.947054
0
ARC
5
2ff
100
AcDbEntity
8
1
100
AcDbCircle
6
CONTINUOUS
62
5
10
105.000000
20
-148.427880
40
3.000000
100
AcDbArc
50
95.291079
51
-84.708919
0
LINE
5
300
100
AcDbEntity
8
1
100
AcDbLine
6
CONTINUOUS
62
5
10
104.723353
20
-145.440663
11
104.723353
21
-145.440663
0
ARC
5
301
100
AcDbEntity
8
1
100
AcDbCircle
6
CONTINUOUS
62
5
10
108.850000
20
-189.999986
40
44.750000
100
AcDbArc
50
84.708919
51
95.291079
0
LINE
5
302
100
AcDbEntity
8
1
100
AcDbLine
6
CONTINUOUS
62
5
10
112.976647
20
-145.440663
11
112.976647
21
-145.440663
0
ARC
5
303
100
AcDbEntity
8
1
100
AcDbCircle
6
CONTINUOUS
62
5
10
112.700000
20
-148.427880
40
3.000000
100
AcDbArc
50
-95.291079
51
84.708919
0
LINE
5
304
100
AcDbEntity
8
1
100
AcDbLine
6
CONTINUOUS
62
5
10
112.423353
20
-151.415097
11
112.423353
21
-151.415097
0
ARC
5
305
100
AcDbEntity
8
1
100
AcDbCircle
6
CONTINUOUS
62
5
10
108.850000
20
-189.999986
40
38.750000
100
AcDbArc
50
84.708919
51
95.291079
0
LINE
5
306
100
AcDbEntity
8
1
100
AcDbLine
6
CONTINUOUS
62
5
10
105.276647
20
-151.415097
11
105.276647
21
-151.415097
0
POLYLINE
5
307
100
AcDbEntity
8
1
6
CONTINUOUS
62
5
100
AcDb2dPolyline
66
1
10
0.0
20
0.0
30
0.0
70
1
0
VERTEX
5
308
100
AcDbEntity
8
1
100
AcDbVertex
100
AcDb2dVertex
62
5
10
90.650000
20
-153.899986
0
VERTEX
5
309
100
AcDbEntity
8
1
100
AcDbVertex
100
AcDb2dVertex
62
5
10
94.550000
20
-153.899986
0
VERTEX
5
30a
100
AcDbEntity
8
1
100
AcDbVertex
100
AcDb2dVertex
62
5
10
94.550000
20
-147.899986
0
VERTEX
5
30b
100
AcDbEntity
8
1
100
AcDbVertex
100
AcDb2dVertex
62
5
10
90.650000
20
-147.899986
0
SEQEND
5
30c
100
AcDbEntity
8
1
0
POLYLINE
5
30d
100
AcDbEntity
8
1
6
CONTINUOUS
62
5
100
AcDb2dPolyline
66
1
10
0.0
20
0.0
30
0.0
70
1
0
VERTEX
5
30e
100
AcDbEntity
8
1
100
AcDbVertex
100
AcDb2dVertex
62
5
10
94.650000
20
-147.799986
0
VERTEX
5
30f
100
AcDbEntity
8
1
100
AcDbVertex
100
AcDb2dVertex
62
5
10
90.550000
20
-147.799986
0
VERTEX
5
310
100
AcDbEntity
8
1
100
AcDbVertex
100
AcDb2dVertex
62
5
10
90.550000
20
-153.999986
0
VERTEX
5
311
100
AcDbEntity
8
1
100
AcDbVertex
100
AcDb2dVertex
62
5
10
94.650000
20
-153.999986
0
VERTEX
5
312
100
AcDbEntity
8
1
100
AcDbVertex
100
AcDb2dVertex
62
5
10
94.650000
20
-147.799986
0
SEQEND
5
313
100
AcDbEntity
8
1
0
ARC
5
314
100
AcDbEntity
8
1
100
AcDbCircle
6
CONTINUOUS
62
5
10
95.050000
20
-155.199986
40
0.300000
100
AcDbArc
50
-89.999999
51
0.000000
0
LINE
5
315
100
AcDbEntity
8
1
100
AcDbLine
6
CONTINUOUS
62
5
10
95.350000
20
-145.372970
11
95.350000
21
-155.199986
0
ARC
5
316
100
AcDbEntity
8
1
100
AcDbCircle
6
CONTINUOUS
62
5
10
95.550000
20
-155.199986
40
0.300000
100
AcDbArc
50
-89.999999
51
0.000000
0
LINE
5
317
100
AcDbEntity
8
1
100
AcDbLine
6
CONTINUOUS
62
5
10
95.850000
20
-155.199986
11
95.850000
21
-145.468613
0
LINE
5
318
100
AcDbEntity
8
1
100
AcDbLine
6
CONTINUOUS
62
5
10
77.050000
20
-147.799986
11
77.150000
21
-147.899986
0
ARC
5
319
100
AcDbEntity
8
1
100
AcDbCircle
6
CONTINUOUS
62
5
10
62.850000
20
-147.899986
40
2.500000
100
AcDbArc
50
44.886181
51
135.113817
0
LINE
5
31a
100
AcDbEntity
8
1
100
AcDbLine
6
CONTINUOUS
62
5
10
44.550000
20
-147.799986
11
44.650000
21
-147.899986
0
LINE
5
31b
100
AcDbEntity
8
1
100
AcDbLine
6
CONTINUOUS
62
5
10
48.650000
20
-147.799986
11
48.550000
21
-147.899986
0
ARC
5
31c
100
AcDbEntity
8
1
100
AcDbCircle
6
CONTINUOUS
62
5
10
44.432546
20
-145.799986
40
1.000000
100
AcDbArc
50
-89.999999
51
-44.683452
0
LINE
5
31d
100
AcDbEntity
8
1
100
AcDbLine
6
CONTINUOUS
62
5
10
45.143549
20
-146.503176
11
47.409660
21
-144.211886
0
CIRCLE
5
31e
100
AcDbEntity
8
1
100
AcDbCircle
6
CONTINUOUS
62
5
10
50.350000
20
-141.499986
40
1.650000
0
CIRCLE
5
31f
100
AcDbEntity
8
1
100
AcDbCircle
6
CONTINUOUS
62
5
10
50.350000
20
-141.499986
40
1.750000
0
CIRCLE
5
320
100
AcDbEntity
8
1
100
AcDbCircle
6
CONTINUOUS
62
5
10
50.350000
20
-141.499986
40
2.250000
0
ARC
5
321
100
AcDbEntity
8
1
100
AcDbCircle
6
CONTINUOUS
62
5
10
50.350000
20
-141.499986
40
4.000000
100
AcDbArc
50
-28.955024
51
-104.477511
0
CIRCLE
5
322
100
AcDbEntity
8
1
100
AcDbCircle
6
CONTINUOUS
62
5
10
50.350000
20
-141.499986
40
3.450000
0
ARC
5
323
100
AcDbEntity
8
1
100
AcDbCircle
6
CONTINUOUS
62
5
10
50.350000
20
-141.499986
40
4.000000
100
AcDbArc
50
-104.477511
51
-28.955024
0
LINE
5
324
100
AcDbEntity
8
1
100
AcDbLine
6
CONTINUOUS
62
5
10
53.850000
20
-143.749986
11
72.850000
21
-143.749986
0
POLYLINE
5
325
100
AcDbEntity
8
1
6
CONTINUOUS
62
5
100
AcDb2dPolyline
66
1
10
0.0
20
0.0
30
0.0
70
0
0
VERTEX
5
326
100
AcDbEntity
8
1
100
AcDbVertex
100
AcDb2dVertex
62
5
10
77.150000
20
-149.299986
0
VERTEX
5
327
100
AcDbEntity
8
1
100
AcDbVertex
100
AcDb2dVertex
62
5
10
78.650000
20
-149.299986
0
VERTEX
5
328
100
AcDbEntity
8
1
100
AcDbVertex
100
AcDb2dVertex
62
5
10
78.650000
20
-153.899986
0
SEQEND
5
329
100
AcDbEntity
8
1
0
LINE
5
32a
100
AcDbEntity
8
1
100
AcDbLine
6
CONTINUOUS
62
5
10
77.150000
20
-153.899986
11
77.050000
21
-153.999986
0
LINE
5
32b
100
AcDbEntity
8
1
100
AcDbLine
6
CONTINUOUS
62
5
10
62.850000
20
-154.299986
11
62.850000
21
-155.199986
0
LINE
5
32c
100
AcDbEntity
8
1
100
AcDbLine
6
CONTINUOUS
62
5
10
62.850000
20
-154.299986
11
62.850000
21
-155.199986
0
LINE
5
32d
100
AcDbEntity
8
1
100
AcDbLine
6
CONTINUOUS
62
5
10
46.450000
20
-158.999986
11
46.050000
21
-158.599986
0
LINE
5
32e
100
AcDbEntity
8
1
100
AcDbLine
6
CONTINUOUS
62
5
10
44.650000
20
-153.899986
11
44.550000
21
-153.999986
0
ARC
5
32f
100
AcDbEntity
8
1
100
AcDbCircle
6
CONTINUOUS
62
5
10
41.271149
20
-158.249971
40
0.500000
100
AcDbArc
50
-89.999999
51
0.000000
0
LINE
5
330
100
AcDbEntity
8
1
100
AcDbLine
6
CONTINUOUS
62
5
10
41.271149
20
-158.749971
11
41.349996
21
-158.749971
0
LINE
5
331
100
AcDbEntity
8
1
100
AcDbLine
6
CONTINUOUS
62
5
10
41.771149
20
-158.149955
11
41.771149
21
-158.249971
0
LINE
5
332
100
AcDbEntity
8
1
100
AcDbLine
6
CONTINUOUS
62
5
10
41.850000
20
-158.250001
11
42.650000
21
-158.250001
0
LINE
5
333
100
AcDbEntity
8
1
100
AcDbLine
6
CONTINUOUS
62
5
10
42.650000
20
-158.250001
11
42.750014
21
-158.150001
0
POLYLINE
5
334
100
AcDbEntity
8
1
6
CONTINUOUS
62
5
100
AcDb2dPolyline
66
1
10
0.0
20
0.0
30
0.0
70
0
0
VERTEX
5
335
100
AcDbEntity
8
1
100
AcDbVertex
100
AcDb2dVertex
62
5
10
48.550000
20
-149.299986
0
VERTEX
5
336
100
AcDbEntity
8
1
100
AcDbVertex
100
AcDb2dVertex
62
5
10
47.050000
20
-149.299986
0
VERTEX
5
337
100
AcDbEntity
8
1
100
AcDbVertex
100
AcDb2dVertex
62
5
10
47.050000
20
-153.899986
0
SEQEND
5
338
100
AcDbEntity
8
1
0
LINE
5
339
100
AcDbEntity
8
1
100
AcDbLine
6
CONTINUOUS
62
5
10
48.550000
20
-153.899986
11
48.650000
21
-153.999986
0
LINE
5
33a
100
AcDbEntity
8
1
100
AcDbLine
6
CONTINUOUS
62
5
10
41.750000
20
-162.349981
11
41.750000
21
-164.999997
0
POLYLINE
5
33b
100
AcDbEntity
8
1
6
CONTINUOUS
62
5
100
AcDb2dPolyline
66
1
10
0.0
20
0.0
30
0.0
70
0
0
VERTEX
5
33c
100
AcDbEntity
8
1
100
AcDbVertex
100
AcDb2dVertex
62
5
10
41.850002
20
-164.999998
0
VERTEX
5
33d
100
AcDbEntity
8
1
100
AcDbVertex
100
AcDb2dVertex
62
5
10
42.650003
20
-164.998935
0
VERTEX
5
33e
100
AcDbEntity
8
1
100
AcDbVertex
100
AcDb2dVertex
62
5
10
42.650006
20
-162.498996
0
VERTEX
5
33f
100
AcDbEntity
8
1
100
AcDbVertex
100
AcDb2dVertex
62
5
10
41.850002
20
-162.499996
0
SEQEND
5
340
100
AcDbEntity
8
1
0
LINE
5
341
100
AcDbEntity
8
1
100
AcDbLine
6
CONTINUOUS
62
5
10
42.450006
20
-162.499246
11
42.450003
21
-164.999201
0
ARC
5
342
100
AcDbEntity
8
1
100
AcDbCircle
6
CONTINUOUS
62
5
10
41.271149
20
-162.249972
40
0.500000
100
AcDbArc
50
0.000000
51
89.999999
0
LINE
5
343
100
AcDbEntity
8
1
100
AcDbLine
6
CONTINUOUS
62
5
10
41.271149
20
-161.749972
11
41.349997
21
-161.749972
0
LINE
5
344
100
AcDbEntity
8
1
100
AcDbLine
6
CONTINUOUS
62
5
10
41.771149
20
-162.349958
11
41.771149
21
-162.249972
0
LINE
5
345
100
AcDbEntity
8
1
100
AcDbLine
6
CONTINUOUS
62
5
10
43.150000
20
-161.499986
11
43.250000
21
-161.499986
0
ARC
5
346
100
AcDbEntity
8
1
100
AcDbCircle
6
CONTINUOUS
62
5
10
43.150000
20
-160.999986
40
0.500000
100
AcDbArc
50
179.999998
51
-89.999999
0
LINE
5
347
100
AcDbEntity
8
1
100
AcDbLine
6
CONTINUOUS
62
5
10
43.150000
20
-161.499986
11
43.150523
21
-166.999986
0
LINE
5
348
100
AcDbEntity
8
1
100
AcDbLine
6
CONTINUOUS
62
5
10
42.650000
20
-158.250001
11
42.650000
21
-160.999986
0
ARC
5
349
100
AcDbEntity
8
1
100
AcDbCircle
6
CONTINUOUS
62
5
10
43.250000
20
-160.999986
40
0.500000
100
AcDbArc
50
-179.991048
51
-89.999999
0
LINE
5
34a
100
AcDbEntity
8
1
100
AcDbLine
6
CONTINUOUS
62
5
10
43.250000
20
-161.499986
11
43.250523
21
-166.999986
0
LINE
5
34b
100
AcDbEntity
8
1
100
AcDbLine
6
CONTINUOUS
62
5
10
42.750014
20
-158.150001
11
42.750000
21
-161.000064
0
LINE
5
34c
100
AcDbEntity
8
1
100
AcDbLine
6
CONTINUOUS
62
5
10
40.349989
20
-158.150001
11
40.350212
21
-162.349995
0
POLYLINE
5
34d
100
AcDbEntity
8
1
6
CONTINUOUS
62
5
100
AcDb2dPolyline
66
1
10
0.0
20
0.0
30
0.0
70
0
0
VERTEX
5
34e
100
AcDbEntity
8
1
100
AcDbVertex
100
AcDb2dVertex
62
5
10
40.349989
20
-158.149955
0
VERTEX
5
34f
100
AcDbEntity
8
1
100
AcDbVertex
100
AcDb2dVertex
62
5
10
41.771149
20
-158.149955
0
VERTEX
5
350
100
AcDbEntity
8
1
100
AcDbVertex
100
AcDb2dVertex
62
5
10
41.850000
20
-158.249971
0
SEQEND
5
351
100
AcDbEntity
8
1
0
ARC
5
352
100
AcDbEntity
8
1
100
AcDbCircle
6
CONTINUOUS
62
5
10
41.349996
20
-158.249971
40
0.500000
100
AcDbArc
50
-89.999999
51
0.000000
0
LINE
5
353
100
AcDbEntity
8
1
100
AcDbLine
6
CONTINUOUS
62
5
10
41.849996
20
-158.249971
11
41.852655
21
-158.249955
0
LINE
5
354
100
AcDbEntity
8
1
100
AcDbLine
6
CONTINUOUS
62
5
10
40.649798
20
-158.749971
11
41.349996
21
-158.749971
0
POLYLINE
5
355
100
AcDbEntity
8
1
6
CONTINUOUS
62
5
100
AcDb2dPolyline
66
1
10
0.0
20
0.0
30
0.0
70
0
0
VERTEX
5
356
100
AcDbEntity
8
1
100
AcDbVertex
100
AcDb2dVertex
62
5
10
40.649989
20
-158.749971
0
VERTEX
5
357
100
AcDbEntity
8
1
100
AcDbVertex
100
AcDb2dVertex
62
5
10
40.592995
20
-158.743970
0
VERTEX
5
358
100
AcDbEntity
8
1
100
AcDbVertex
100
AcDb2dVertex
62
5
10
40.541999
20
-158.725970
0
VERTEX
5
359
100
AcDbEntity
8
1
100
AcDbVertex
100
AcDb2dVertex
62
5
10
40.497002
20
-158.695969
0
VERTEX
5
35a
100
AcDbEntity
8
1
100
AcDbVertex
100
AcDb2dVertex
62
5
10
40.458004
20
-158.653968
0
VERTEX
5
35b
100
AcDbEntity
8
1
100
AcDbVertex
100
AcDb2dVertex
62
5
10
40.425005
20
-158.599967
0
VERTEX
5
35c
100
AcDbEntity
8
1
100
AcDbVertex
100
AcDb2dVertex
62
5
10
40.398004
20
-158.533965
0
VERTEX
5
35d
100
AcDbEntity
8
1
100
AcDbVertex
100
AcDb2dVertex
62
5
10
40.377002
20
-158.455963
0
VERTEX
5
35e
100
AcDbEntity
8
1
100
AcDbVertex
100
AcDb2dVertex
62
5
10
40.361999
20
-158.365961
0
VERTEX
5
35f
100
AcDbEntity
8
1
100
AcDbVertex
100
AcDb2dVertex
62
5
10
40.352994
20
-158.263958
0
VERTEX
5
360
100
AcDbEntity
8
1
100
AcDbVertex
100
AcDb2dVertex
62
5
10
40.349989
20
-158.149955
0
SEQEND
5
361
100
AcDbEntity
8
1
0
LINE
5
362
100
AcDbEntity
8
1
100
AcDbLine
6
CONTINUOUS
62
5
10
41.771149
20
-162.349958
11
40.350212
21
-162.349972
0
POLYLINE
5
363
100
AcDbEntity
8
1
6
CONTINUOUS
62
5
100
AcDb2dPolyline
66
1
10
0.0
20
0.0
30
0.0
70
0
0
VERTEX
5
364
100
AcDbEntity
8
1
100
AcDbVertex
100
AcDb2dVertex
62
5
10
40.349989
20
-162.350003
0
VERTEX
5
365
100
AcDbEntity
8
1
100
AcDbVertex
100
AcDb2dVertex
62
5
10
40.349989
20
-158.150001
0
VERTEX
5
366
100
AcDbEntity
8
1
100
AcDbVertex
100
AcDb2dVertex
62
5
10
42.750014
20
-158.150001
0
SEQEND
5
367
100
AcDbEntity
8
1
0
ARC
5
368
100
AcDbEntity
8
1
100
AcDbCircle
6
CONTINUOUS
62
5
10
41.349997
20
-162.249972
40
0.500000
100
AcDbArc
50
-0.000000
51
89.999999
0
LINE
5
369
100
AcDbEntity
8
1
100
AcDbLine
6
CONTINUOUS
62
5
10
41.849997
20
-162.249972
11
41.849997
21
-162.349958
0
POLYLINE
5
36a
100
AcDbEntity
8
1
6
CONTINUOUS
62
5
100
AcDb2dPolyline
66
1
10
0.0
20
0.0
30
0.0
70
0
0
VERTEX
5
36b
100
AcDbEntity
8
1
100
AcDbVertex
100
AcDb2dVertex
62
5
10
40.350212
20
-162.349972
0
VERTEX
5
36c
100
AcDbEntity
8
1
100
AcDbVertex
100
AcDb2dVertex
62
5
10
40.353204
20
-162.235972
0
VERTEX
5
36d
100
AcDbEntity
8
1
100
AcDbVertex
100
AcDb2dVertex
62
5
10
40.362193
20
-162.133972
0
VERTEX
5
36e
100
AcDbEntity
8
1
100
AcDbVertex
100
AcDb2dVertex
62
5
10
40.377178
20
-162.043972
0
VERTEX
5
36f
100
AcDbEntity
8
1
100
AcDbVertex
100
AcDb2dVertex
62
5
10
40.398161
20
-161.965972
0
VERTEX
5
370
100
AcDbEntity
8
1
100
AcDbVertex
100
AcDb2dVertex
62
5
10
40.425140
20
-161.899972
0
VERTEX
5
371
100
AcDbEntity
8
1
100
AcDbVertex
100
AcDb2dVertex
62
5
10
40.458116
20
-161.845972
0
VERTEX
5
372
100
AcDbEntity
8
1
100
AcDbVertex
100
AcDb2dVertex
62
5
10
40.497089
20
-161.803972
0
VERTEX
5
373
100
AcDbEntity
8
1
100
AcDbVertex
100
AcDb2dVertex
62
5
10
40.542059
20
-161.773972
0
VERTEX
5
374
100
AcDbEntity
8
1
100
AcDbVertex
100
AcDb2dVertex
62
5
10
40.593026
20
-161.755972
0
VERTEX
5
375
100
AcDbEntity
8
1
100
AcDbVertex
100
AcDb2dVertex
62
5
10
40.649989
20
-161.749972
0
VERTEX
5
376
100
AcDbEntity
8
1
100
AcDbVertex
100
AcDb2dVertex
62
5
10
41.349997
20
-161.749972
0
SEQEND
5
377
100
AcDbEntity
8
1
0
LINE
5
378
100
AcDbEntity
8
1
100
AcDbLine
6
CONTINUOUS
62
5
10
40.649989
20
-161.749994
11
40.649989
21
-158.749993
0
ARC
5
379
100
AcDbEntity
8
1
100
AcDbCircle
6
CONTINUOUS
62
5
10
58.150000
20
-154.299986
40
0.300000
100
AcDbArc
50
89.999999
51
179.999998
0
LINE
5
37a
100
AcDbEntity
8
1
100
AcDbLine
6
CONTINUOUS
62
5
10
57.850000
20
-154.299986
11
57.850000
21
-155.199986
0
ARC
5
37b
100
AcDbEntity
8
1
100
AcDbCircle
6
CONTINUOUS
62
5
10
58.150000
20
-155.199986
40
0.300000
100
AcDbArc
50
-179.999998
51
-89.999999
0
LINE
5
37c
100
AcDbEntity
8
1
100
AcDbLine
6
CONTINUOUS
62
5
10
58.150000
20
-155.499986
11
67.550000
21
-155.499986
0
ARC
5
37d
100
AcDbEntity
8
1
100
AcDbCircle
6
CONTINUOUS
62
5
10
67.550000
20
-155.199986
40
0.300000
100
AcDbArc
50
-89.999999
51
0.000000
0
LINE
5
37e
100
AcDbEntity
8
1
100
AcDbLine
6
CONTINUOUS
62
5
10
67.850000
20
-155.199986
11
67.850000
21
-154.299986
0
ARC
5
37f
100
AcDbEntity
8
1
100
AcDbCircle
6
CONTINUOUS
62
5
10
67.550000
20
-154.299986
40
0.300000
100
AcDbArc
50
-0.000000
51
89.999999
0
LINE
5
380
100
AcDbEntity
8
1
100
AcDbLine
6
CONTINUOUS
62
5
10
67.550000
20
-153.999986
11
58.150000
21
-153.999986
0
ARC
5
381
100
AcDbEntity
8
1
100
AcDbCircle
6
CONTINUOUS
62
5
10
58.150000
20
-154.299986
40
0.300000
100
AcDbArc
50
89.999999
51
179.999998
0
LINE
5
382
100
AcDbEntity
8
1
100
AcDbLine
6
CONTINUOUS
62
5
10
57.850000
20
-154.299986
11
57.850000
21
-155.199986
0
ARC
5
383
100
AcDbEntity
8
1
100
AcDbCircle
6
CONTINUOUS
62
5
10
58.150000
20
-155.199986
40
0.300000
100
AcDbArc
50
-179.999998
51
-89.999999
0
LINE
5
384
100
AcDbEntity
8
1
100
AcDbLine
6
CONTINUOUS
62
5
10
58.150000
20
-155.499986
11
67.550000
21
-155.499986
0
ARC
5
385
100
AcDbEntity
8
1
100
AcDbCircle
6
CONTINUOUS
62
5
10
67.550000
20
-155.199986
40
0.300000
100
AcDbArc
50
-89.999999
51
0.000000
0
LINE
5
386
100
AcDbEntity
8
1
100
AcDbLine
6
CONTINUOUS
62
5
10
67.850000
20
-155.199986
11
67.850000
21
-154.299986
0
ARC
5
387
100
AcDbEntity
8
1
100
AcDbCircle
6
CONTINUOUS
62
5
10
67.550000
20
-154.299986
40
0.300000
100
AcDbArc
50
-0.000000
51
89.999999
0
LINE
5
388
100
AcDbEntity
8
1
100
AcDbLine
6
CONTINUOUS
62
5
10
67.550000
20
-153.999986
11
58.150000
21
-153.999986
0
ARC
5
389
100
AcDbEntity
8
1
100
AcDbCircle
6
CONTINUOUS
62
5
10
62.850000
20
-189.999986
40
44.200000
100
AcDbArc
50
91.801760
51
95.291079
0
ARC
5
38a
100
AcDbEntity
8
1
100
AcDbCircle
6
CONTINUOUS
62
5
10
62.850000
20
-189.999986
40
44.200000
100
AcDbArc
50
84.708919
51
88.198238
0
LINE
5
38b
100
AcDbEntity
8
1
100
AcDbLine
6
CONTINUOUS
62
5
10
66.925928
20
-145.988319
11
66.925928
21
-145.988319
0
ARC
5
38c
100
AcDbEntity
8
1
100
AcDbCircle
6
CONTINUOUS
62
5
10
66.700000
20
-148.427880
40
2.450000
100
AcDbArc
50
-95.291079
51
84.708919
0
LINE
5
38d
100
AcDbEntity
8
1
100
AcDbLine
6
CONTINUOUS
62
5
10
66.474072
20
-150.867441
11
66.474072
21
-150.867441
0
ARC
5
38e
100
AcDbEntity
8
1
100
AcDbCircle
6
CONTINUOUS
62
5
10
62.850000
20
-189.999986
40
39.300000
100
AcDbArc
50
84.708919
51
95.291079
0
LINE
5
38f
100
AcDbEntity
8
1
100
AcDbLine
6
CONTINUOUS
62
5
10
59.225928
20
-150.867441
11
59.225928
21
-150.867441
0
ARC
5
390
100
AcDbEntity
8
1
100
AcDbCircle
6
CONTINUOUS
62
5
10
59.000000
20
-148.427880
40
2.450000
100
AcDbArc
50
95.291079
51
-84.708919
0
LINE
5
391
100
AcDbEntity
8
1
100
AcDbLine
6
CONTINUOUS
62
5
10
58.774072
20
-145.988319
11
58.774072
21
-145.988319
0
ARC
5
392
100
AcDbEntity
8
1
100
AcDbCircle
6
CONTINUOUS
62
5
10
62.850000
20
-189.999986
40
43.900000
100
AcDbArc
50
92.312394
51
95.291079
0
ARC
5
393
100
AcDbEntity
8
1
100
AcDbCircle
6
CONTINUOUS
62
5
10
62.850000
20
-189.999986
40
43.900000
100
AcDbArc
50
84.708919
51
87.687604
0
ARC
5
394
100
AcDbEntity
8
1
100
AcDbCircle
6
CONTINUOUS
62
5
10
66.700000
20
-148.427880
40
2.150000
100
AcDbArc
50
-95.291079
51
84.708919
0
ARC
5
395
100
AcDbEntity
8
1
100
AcDbCircle
6
CONTINUOUS
62
5
10
62.850000
20
-189.999986
40
39.600000
100
AcDbArc
50
84.708919
51
95.291079
0
ARC
5
396
100
AcDbEntity
8
1
100
AcDbCircle
6
CONTINUOUS
62
5
10
59.000000
20
-148.427880
40
2.150000
100
AcDbArc
50
95.291079
51
-84.708919
0
ARC
5
397
100
AcDbEntity
8
1
100
AcDbCircle
6
CONTINUOUS
62
5
10
62.850000
20
-189.999986
40
46.250000
100
AcDbArc
50
84.708919
51
95.291079
0
LINE
5
398
100
AcDbEntity
8
1
100
AcDbLine
6
CONTINUOUS
62
5
10
67.114970
20
-143.947054
11
67.114970
21
-143.947054
0
ARC
5
399
100
AcDbEntity
8
1
100
AcDbCircle
6
CONTINUOUS
62
5
10
66.700000
20
-148.427880
40
4.500000
100
AcDbArc
50
-95.291079
51
84.708919
0
LINE
5
39a
100
AcDbEntity
8
1
100
AcDbLine
6
CONTINUOUS
62
5
10
66.285030
20
-152.908706
11
66.285030
21
-152.908706
0
ARC
5
39b
100
AcDbEntity
8
1
100
AcDbCircle
6
CONTINUOUS
62
5
10
62.850000
20
-189.999986
40
37.250000
100
AcDbArc
50
84.708919
51
95.291079
0
LINE
5
39c
100
AcDbEntity
8
1
100
AcDbLine
6
CONTINUOUS
62
5
10
59.414970
20
-152.908706
11
59.414970
21
-152.908706
0
ARC
5
39d
100
AcDbEntity
8
1
100
AcDbCircle
6
CONTINUOUS
62
5
10
59.000000
20
-148.427880
40
4.500000
100
AcDbArc
50
95.291079
51
-84.708919
0
LINE
5
39e
100
AcDbEntity
8
1
100
AcDbLine
6
CONTINUOUS
62
5
10
58.585030
20
-143.947054
11
58.585030
21
-143.947054
0
ARC
5
39f
100
AcDbEntity
8
1
100
AcDbCircle
6
CONTINUOUS
62
5
10
59.000000
20
-148.427880
40
3.000000
100
AcDbArc
50
95.291079
51
-84.708919
0
LINE
5
3a0
100
AcDbEntity
8
1
100
AcDbLine
6
CONTINUOUS
62
5
10
58.723353
20
-145.440663
11
58.723353
21
-145.440663
0
ARC
5
3a1
100
AcDbEntity
8
1
100
AcDbCircle
6
CONTINUOUS
62
5
10
62.850000
20
-189.999986
40
44.750000
100
AcDbArc
50
84.708919
51
95.291079
0
LINE
5
3a2
100
AcDbEntity
8
1
100
AcDbLine
6
CONTINUOUS
62
5
10
66.976647
20
-145.440663
11
66.976647
21
-145.440663
0
ARC
5
3a3
100
AcDbEntity
8
1
100
AcDbCircle
6
CONTINUOUS
62
5
10
66.700000
20
-148.427880
40
3.000000
100
AcDbArc
50
-95.291079
51
84.708919
0
LINE
5
3a4
100
AcDbEntity
8
1
100
AcDbLine
6
CONTINUOUS
62
5
10
66.423353
20
-151.415097
11
66.423353
21
-151.415097
0
ARC
5
3a5
100
AcDbEntity
8
1
100
AcDbCircle
6
CONTINUOUS
62
5
10
62.850000
20
-189.999986
40
38.750000
100
AcDbArc
50
84.708919
51
95.291079
0
LINE
5
3a6
100
AcDbEntity
8
1
100
AcDbLine
6
CONTINUOUS
62
5
10
59.276647
20
-151.415097
11
59.276647
21
-151.415097
0
ARC
5
3a7
100
AcDbEntity
8
1
100
AcDbCircle
6
CONTINUOUS
62
5
10
54.150000
20
-155.199986
40
0.300000
100
AcDbArc
50
179.999998
51
-89.999999
0
LINE
5
3a8
100
AcDbEntity
8
1
100
AcDbLine
6
CONTINUOUS
62
5
10
53.850000
20
-143.436478
11
53.850000
21
-155.199986
0
ARC
5
3a9
100
AcDbEntity
8
1
100
AcDbCircle
6
CONTINUOUS
62
5
10
53.650000
20
-155.199986
40
0.300000
100
AcDbArc
50
179.999998
51
-89.999999
0
LINE
5
3aa
100
AcDbEntity
8
1
100
AcDbLine
6
CONTINUOUS
62
5
10
53.350000
20
-155.199986
11
53.350000
21
-144.145738
0
ARC
5
3ab
100
AcDbEntity
8
1
100
AcDbCircle
6
CONTINUOUS
62
5
10
76.650000
20
-155.199986
40
0.300000
100
AcDbArc
50
179.999998
51
-89.999999
0
LINE
5
3ac
100
AcDbEntity
8
1
100
AcDbLine
6
CONTINUOUS
62
5
10
76.350000
20
-155.199986
11
76.350000
21
-144.749986
0
ARC
5
3ad
100
AcDbEntity
8
1
100
AcDbCircle
6
CONTINUOUS
62
5
10
75.350000
20
-144.749986
40
1.000000
100
AcDbArc
50
-0.000000
51
89.999999
0
LINE
5
3ae
100
AcDbEntity
8
1
100
AcDbLine
6
CONTINUOUS
62
5
10
75.350000
20
-143.749986
11
72.850000
21
-143.749986
0
ARC
5
3af
100
AcDbEntity
8
1
100
AcDbCircle
6
CONTINUOUS
62
5
10
72.850000
20
-144.749986
40
1.000000
100
AcDbArc
50
89.999999
51
-179.999998
0
LINE
5
3b0
100
AcDbEntity
8
1
100
AcDbLine
6
CONTINUOUS
62
5
10
71.850000
20
-144.749986
11
71.850000
21
-155.199986
0
ARC
5
3b1
100
AcDbEntity
8
1
100
AcDbCircle
6
CONTINUOUS
62
5
10
71.550000
20
-155.199986
40
0.300000
100
AcDbArc
50
-89.999999
51
-0.000000
0
LINE
5
3b2
100
AcDbEntity
8
1
100
AcDbLine
6
CONTINUOUS
62
5
10
76.650000
20
-155.499986
11
76.650000
21
-155.499986
0
ARC
5
3b3
100
AcDbEntity
8
1
100
AcDbCircle
6
CONTINUOUS
62
5
10
72.850000
20
-144.749986
40
0.500000
100
AcDbArc
50
89.999999
51
179.999998
0
LINE
5
3b4
100
AcDbEntity
8
1
100
AcDbLine
6
CONTINUOUS
62
5
10
72.850000
20
-144.249986
11
75.350000
21
-144.249986
0
ARC
5
3b5
100
AcDbEntity
8
1
100
AcDbCircle
6
CONTINUOUS
62
5
10
75.350000
20
-144.749986
40
0.500000
100
AcDbArc
50
0.000000
51
89.999999
0
LINE
5
3b6
100
AcDbEntity
8
1
100
AcDbLine
6
CONTINUOUS
62
5
10
75.850000
20
-144.749986
11
75.850000
21
-155.199986
0
ARC
5
3b7
100
AcDbEntity
8
1
100
AcDbCircle
6
CONTINUOUS
62
5
10
76.150000
20
-155.199986
40
0.300000
100
AcDbArc
50
-179.999998
51
-89.999999
0
ARC
5
3b8
100
AcDbEntity
8
1
100
AcDbCircle
6
CONTINUOUS
62
5
10
72.050000
20
-155.199986
40
0.300000
100
AcDbArc
50
-89.999999
51
-0.000000
0
LINE
5
3b9
100
AcDbEntity
8
1
100
AcDbLine
6
CONTINUOUS
62
5
10
72.350000
20
-155.199986
11
72.350000
21
-144.749986
0
POLYLINE
5
3ba
100
AcDbEntity
8
1
6
CONTINUOUS
62
5
100
AcDb2dPolyline
66
1
10
0.0
20
0.0
30
0.0
70
1
0
VERTEX
5
3bb
100
AcDbEntity
8
1
100
AcDbVertex
100
AcDb2dVertex
62
5
10
48.650000
20
-147.799986
0
VERTEX
5
3bc
100
AcDbEntity
8
1
100
AcDbVertex
100
AcDb2dVertex
62
5
10
44.550000
20
-147.799986
0
VERTEX
5
3bd
100
AcDbEntity
8
1
100
AcDbVertex
100
AcDb2dVertex
62
5
10
44.550000
20
-153.999986
0
VERTEX
5
3be
100
AcDbEntity
8
1
100
AcDbVertex
100
AcDb2dVertex
62
5
10
48.650000
20
-153.999986
0
VERTEX
5
3bf
100
AcDbEntity
8
1
100
AcDbVertex
100
AcDb2dVertex
62
5
10
48.650000
20
-147.799986
0
SEQEND
5
3c0
100
AcDbEntity
8
1
0
POLYLINE
5
3c1
100
AcDbEntity
8
1
6
CONTINUOUS
62
5
100
AcDb2dPolyline
66
1
10
0.0
20
0.0
30
0.0
70
1
0
VERTEX
5
3c2
100
AcDbEntity
8
1
100
AcDbVertex
100
AcDb2dVertex
62
5
10
44.650000
20
-153.899986
0
VERTEX
5
3c3
100
AcDbEntity
8
1
100
AcDbVertex
100
AcDb2dVertex
62
5
10
48.550000
20
-153.899986
0
VERTEX
5
3c4
100
AcDbEntity
8
1
100
AcDbVertex
100
AcDb2dVertex
62
5
10
48.550000
20
-147.899986
0
VERTEX
5
3c5
100
AcDbEntity
8
1
100
AcDbVertex
100
AcDb2dVertex
62
5
10
44.650000
20
-147.899986
0
SEQEND
5
3c6
100
AcDbEntity
8
1
0
ARC
5
3c7
100
AcDbEntity
8
1
100
AcDbCircle
6
CONTINUOUS
62
5
10
49.050000
20
-155.199986
40
0.300000
100
AcDbArc
50
-89.999999
51
0.000000
0
LINE
5
3c8
100
AcDbEntity
8
1
100
AcDbLine
6
CONTINUOUS
62
5
10
49.350000
20
-145.372970
11
49.350000
21
-155.199986
0
ARC
5
3c9
100
AcDbEntity
8
1
100
AcDbCircle
6
CONTINUOUS
62
5
10
49.550000
20
-155.199986
40
0.300000
100
AcDbArc
50
-89.999999
51
0.000000
0
LINE
5
3ca
100
AcDbEntity
8
1
100
AcDbLine
6
CONTINUOUS
62
5
10
49.850000
20
-155.199986
11
49.850000
21
-145.468613
0
POLYLINE
5
3cb
100
AcDbEntity
8
1
6
CONTINUOUS
62
5
100
AcDb2dPolyline
66
1
10
0.0
20
0.0
30
0.0
70
0
0
VERTEX
5
3cc
100
AcDbEntity
8
1
100
AcDbVertex
100
AcDb2dVertex
62
5
10
79.650000
20
-158.599986
0
VERTEX
5
3cd
100
AcDbEntity
8
1
100
AcDbVertex
100
AcDb2dVertex
62
5
10
79.350000
20
-158.899986
0
VERTEX
5
3ce
100
AcDbEntity
8
1
100
AcDbVertex
100
AcDb2dVertex
62
5
10
79.250000
20
-158.999986
0
SEQEND
5
3cf
100
AcDbEntity
8
1
0
ARC
5
3d0
100
AcDbEntity
8
1
100
AcDbCircle
6
CONTINUOUS
62
5
10
92.439555
20
-145.799986
40
1.000000
100
AcDbArc
50
-89.999999
51
-45.369135
0
LINE
5
3d1
100
AcDbEntity
8
1
100
AcDbLine
6
CONTINUOUS
62
5
10
93.142092
20
-146.511634
11
94.583429
21
-145.088750
0
POLYLINE
5
3d2
100
AcDbEntity
8
1
6
CONTINUOUS
62
5
100
AcDb2dPolyline
66
1
10
0.0
20
0.0
30
0.0
70
0
0
VERTEX
5
3d3
100
AcDbEntity
8
1
100
AcDbVertex
100
AcDb2dVertex
62
5
10
76.052537
20
-144.038339
0
VERTEX
5
3d4
100
AcDbEntity
8
1
100
AcDbVertex
100
AcDb2dVertex
62
5
10
78.557908
20
-146.511634
0
VERTEX
5
3d5
100
AcDbEntity
8
1
100
AcDbVertex
100
AcDb2dVertex
62
5
10
78.981654
20
-146.760338
0
VERTEX
5
3d6
100
AcDbEntity
8
1
100
AcDbVertex
100
AcDb2dVertex
62
5
10
79.260445
20
-146.799986
0
VERTEX
5
3d7
100
AcDbEntity
8
1
100
AcDbVertex
100
AcDb2dVertex
62
5
10
92.439555
20
-146.799986
0
SEQEND
5
3d8
100
AcDbEntity
8
1
0
POLYLINE
5
3d9
100
AcDbEntity
8
1
6
CONTINUOUS
62
5
100
AcDb2dPolyline
66
1
10
0.0
20
0.0
30
0.0
70
1
0
VERTEX
5
3da
100
AcDbEntity
8
1
100
AcDbVertex
100
AcDb2dVertex
62
5
10
77.150000
20
-153.899986
0
VERTEX
5
3db
100
AcDbEntity
8
1
100
AcDbVertex
100
AcDb2dVertex
62
5
10
81.050000
20
-153.899986
0
VERTEX
5
3dc
100
AcDbEntity
8
1
100
AcDbVertex
100
AcDb2dVertex
62
5
10
81.050000
20
-147.899986
0
VERTEX
5
3dd
100
AcDbEntity
8
1
100
AcDbVertex
100
AcDb2dVertex
62
5
10
77.150000
20
-147.899986
0
SEQEND
5
3de
100
AcDbEntity
8
1
0
POLYLINE
5
3df
100
AcDbEntity
8
1
6
CONTINUOUS
62
5
100
AcDb2dPolyline
66
1
10
0.0
20
0.0
30
0.0
70
1
0
VERTEX
5
3e0
100
AcDbEntity
8
1
100
AcDbVertex
100
AcDb2dVertex
62
5
10
81.150000
20
-147.799986
0
VERTEX
5
3e1
100
AcDbEntity
8
1
100
AcDbVertex
100
AcDb2dVertex
62
5
10
77.050000
20
-147.799986
0
VERTEX
5
3e2
100
AcDbEntity
8
1
100
AcDbVertex
100
AcDb2dVertex
62
5
10
77.050000
20
-153.999986
0
VERTEX
5
3e3
100
AcDbEntity
8
1
100
AcDbVertex
100
AcDb2dVertex
62
5
10
81.150000
20
-153.999986
0
VERTEX
5
3e4
100
AcDbEntity
8
1
100
AcDbVertex
100
AcDb2dVertex
62
5
10
81.150000
20
-147.799986
0
SEQEND
5
3e5
100
AcDbEntity
8
1
0
ARC
5
3e6
100
AcDbEntity
8
1
100
AcDbCircle
6
CONTINUOUS
62
5
10
75.097639
20
-145.249986
40
3.000000
100
AcDbArc
50
44.683452
51
89.999999
0
LINE
5
3e7
100
AcDbEntity
8
1
100
AcDbLine
6
CONTINUOUS
62
5
10
77.230647
20
-143.140418
11
80.556451
21
-146.503176
0
ARC
5
3e8
100
AcDbEntity
8
1
100
AcDbCircle
6
CONTINUOUS
62
5
10
81.267454
20
-145.799986
40
1.000000
100
AcDbArc
50
-135.316547
51
-89.999999
0
LINE
5
3e9
100
AcDbEntity
8
1
100
AcDbLine
6
CONTINUOUS
62
5
10
54.279058
20
-142.249986
11
75.097639
21
-142.249986
0
ARC
5
3ea
100
AcDbEntity
8
1
100
AcDbCircle
6
CONTINUOUS
62
5
10
37.449998
20
-141.899986
40
0.600000
100
AcDbArc
50
179.999998
51
-89.999999
0
LINE
5
3eb
100
AcDbEntity
8
1
100
AcDbLine
6
CONTINUOUS
62
5
10
36.849998
20
-141.899986
11
36.849998
21
-137.899986
0
ARC
5
3ec
100
AcDbEntity
8
1
100
AcDbCircle
6
CONTINUOUS
62
5
10
37.449998
20
-137.899986
40
0.600000
100
AcDbArc
50
89.999999
51
179.999998
0
POLYLINE
5
3ed
100
AcDbEntity
8
1
6
CONTINUOUS
62
5
100
AcDb2dPolyline
66
1
10
0.0
20
0.0
30
0.0
70
0
0
VERTEX
5
3ee
100
AcDbEntity
8
1
100
AcDbVertex
100
AcDb2dVertex
62
5
10
37.449998
20
-137.299986
0
VERTEX
5
3ef
100
AcDbEntity
8
1
100
AcDbVertex
100
AcDb2dVertex
62
5
10
38.949999
20
-137.299986
0
VERTEX
5
3f0
100
AcDbEntity
8
1
100
AcDbVertex
100
AcDb2dVertex
62
5
10
38.949999
20
-142.499986
0
VERTEX
5
3f1
100
AcDbEntity
8
1
100
AcDbVertex
100
AcDb2dVertex
62
5
10
37.449998
20
-142.499986
0
SEQEND
5
3f2
100
AcDbEntity
8
1
0
LINE
5
3f3
100
AcDbEntity
8
1
100
AcDbLine
6
CONTINUOUS
62
5
10
38.949999
20
-142.499986
11
38.949999
21
-137.299986
0
LINE
5
3f4
100
AcDbEntity
8
1
100
AcDbLine
6
CONTINUOUS
62
5
10
38.949999
20
-142.499986
11
38.949999
21
-137.299986
0
ARC
5
3f5
100
AcDbEntity
8
1
100
AcDbCircle
6
CONTINUOUS
62
5
10
37.449998
20
-137.899986
40
2.000000
100
AcDbArc
50
89.999999
51
179.999998
0
POLYLINE
5
3f6
100
AcDbEntity
8
1
6
CONTINUOUS
62
5
100
AcDb2dPolyline
66
1
10
0.0
20
0.0
30
0.0
70
0
0
VERTEX
5
3f7
100
AcDbEntity
8
1
100
AcDbVertex
100
AcDb2dVertex
62
5
10
37.449998
20
-135.899986
0
VERTEX
5
3f8
100
AcDbEntity
8
1
100
AcDbVertex
100
AcDb2dVertex
62
5
10
39.649999
20
-135.899986
0
VERTEX
5
3f9
100
AcDbEntity
8
1
100
AcDbVertex
100
AcDb2dVertex
62
5
10
39.649999
20
-143.899986
0
VERTEX
5
3fa
100
AcDbEntity
8
1
100
AcDbVertex
100
AcDb2dVertex
62
5
10
37.449998
20
-143.899986
0
SEQEND
5
3fb
100
AcDbEntity
8
1
0
ARC
5
3fc
100
AcDbEntity
8
1
100
AcDbCircle
6
CONTINUOUS
62
5
10
37.449998
20
-141.899986
40
2.000000
100
AcDbArc
50
179.999998
51
-89.999999
0
LINE
5
3fd
100
AcDbEntity
8
1
100
AcDbLine
6
CONTINUOUS
62
5
10
35.449998
20
-141.899986
11
35.449998
21
-137.899986
0
POLYLINE
5
3fe
100
AcDbEntity
8
1
6
CONTINUOUS
62
5
100
AcDb2dPolyline
66
1
10
0.0
20
0.0
30
0.0
70
0
0
VERTEX
5
3ff
100
AcDbEntity
8
1
100
AcDbVertex
100
AcDb2dVertex
62
5
10
39.649999
20
-143.899986
0
VERTEX
5
400
100
AcDbEntity
8
1
100
AcDbVertex
100
AcDb2dVertex
62
5
10
38.949999
20
-143.199986
0
VERTEX
5
401
100
AcDbEntity
8
1
100
AcDbVertex
100
AcDb2dVertex
62
5
10
38.949999
20
-136.599986
0
VERTEX
5
402
100
AcDbEntity
8
1
100
AcDbVertex
100
AcDb2dVertex
62
5
10
39.649999
20
-135.899986
0
SEQEND
5
403
100
AcDbEntity
8
1
0
ARC
5
404
100
AcDbEntity
8
1
100
AcDbCircle
6
CONTINUOUS
62
5
10
38.900000
20
-165.499997
40
0.500000
100
AcDbArc
50
89.999999
51
179.999998
0
LINE
5
405
100
AcDbEntity
8
1
100
AcDbLine
6
CONTINUOUS
62
5
10
38.400000
20
-165.499997
11
38.400000
21
-168.500000
0
ARC
5
406
100
AcDbEntity
8
1
100
AcDbCircle
6
CONTINUOUS
62
5
10
38.900000
20
-168.500000
40
0.500000
100
AcDbArc
50
179.999998
51
-89.999999
0
POLYLINE
5
407
100
AcDbEntity
8
1
6
CONTINUOUS
62
5
100
AcDb2dPolyline
66
1
10
0.0
20
0.0
30
0.0
70
0
0
VERTEX
5
408
100
AcDbEntity
8
1
100
AcDbVertex
100
AcDb2dVertex
62
5
10
38.900000
20
-169.000000
0
VERTEX
5
409
100
AcDbEntity
8
1
100
AcDbVertex
100
AcDb2dVertex
62
5
10
39.850000
20
-168.999999
0
VERTEX
5
40a
100
AcDbEntity
8
1
100
AcDbVertex
100
AcDb2dVertex
62
5
10
39.850000
20
-164.999997
0
VERTEX
5
40b
100
AcDbEntity
8
1
100
AcDbVertex
100
AcDb2dVertex
62
5
10
38.900000
20
-164.999997
0
SEQEND
5
40c
100
AcDbEntity
8
1
0
LINE
5
40d
100
AcDbEntity
8
1
100
AcDbLine
6
CONTINUOUS
62
5
10
39.850000
20
-164.999997
11
41.850000
21
-164.999997
0
LINE
5
40e
100
AcDbEntity
8
1
100
AcDbLine
6
CONTINUOUS
62
5
10
39.850000
20
-168.999999
11
41.850000
21
-169.000004
0
LINE
5
40f
100
AcDbEntity
8
1
100
AcDbLine
6
CONTINUOUS
62
5
10
39.850000
20
-168.999999
11
41.850000
21
-169.000004
0
LINE
5
410
100
AcDbEntity
8
1
100
AcDbLine
6
CONTINUOUS
62
5
10
30.650000
20
-143.907424
11
30.650000
21
-106.999986
0
LINE
5
411
100
AcDbEntity
8
1
100
AcDbLine
6
CONTINUOUS
62
5
10
141.050000
20
-143.907424
11
141.050000
21
-106.999986
0
POLYLINE
5
412
100
AcDbEntity
8
1
6
CONTINUOUS
62
5
100
AcDb2dPolyline
66
1
10
0.0
20
0.0
30
0.0
70
0
0
VERTEX
5
413
100
AcDbEntity
8
1
100
AcDbVertex
100
AcDb2dVertex
62
5
10
85.850000
20
-108.999986
0
VERTEX
5
414
100
AcDbEntity
8
1
100
AcDbVertex
100
AcDb2dVertex
62
5
10
30.650000
20
-108.999986
0
VERTEX
5
415
100
AcDbEntity
8
1
100
AcDbVertex
100
AcDb2dVertex
62
5
10
36.650000
20
-107.999986
0
VERTEX
5
416
100
AcDbEntity
8
1
100
AcDbVertex
100
AcDb2dVertex
62
5
10
36.650000
20
-109.999986
0
VERTEX
5
417
100
AcDbEntity
8
1
100
AcDbVertex
100
AcDb2dVertex
62
5
10
30.650000
20
-108.999986
0
VERTEX
5
418
100
AcDbEntity
8
1
100
AcDbVertex
100
AcDb2dVertex
62
5
10
36.650000
20
-108.499986
0
VERTEX
5
419
100
AcDbEntity
8
1
100
AcDbVertex
100
AcDb2dVertex
62
5
10
36.650000
20
-109.499986
0
VERTEX
5
41a
100
AcDbEntity
8
1
100
AcDbVertex
100
AcDb2dVertex
62
5
10
30.650000
20
-108.999986
0
SEQEND
5
41b
100
AcDbEntity
8
1
0
POLYLINE
5
41c
100
AcDbEntity
8
1
6
CONTINUOUS
62
5
100
AcDb2dPolyline
66
1
10
0.0
20
0.0
30
0.0
70
0
0
VERTEX
5
41d
100
AcDbEntity
8
1
100
AcDbVertex
100
AcDb2dVertex
62
5
10
85.850000
20
-108.999986
0
VERTEX
5
41e
100
AcDbEntity
8
1
100
AcDbVertex
100
AcDb2dVertex
62
5
10
141.050000
20
-108.999986
0
VERTEX
5
41f
100
AcDbEntity
8
1
100
AcDbVertex
100
AcDb2dVertex
62
5
10
135.050000
20
-109.999986
0
VERTEX
5
420
100
AcDbEntity
8
1
100
AcDbVertex
100
AcDb2dVertex
62
5
10
135.050000
20
-107.999986
0
VERTEX
5
421
100
AcDbEntity
8
1
100
AcDbVertex
100
AcDb2dVertex
62
5
10
141.050000
20
-108.999986
0
VERTEX
5
422
100
AcDbEntity
8
1
100
AcDbVertex
100
AcDb2dVertex
62
5
10
135.050000
20
-109.499986
0
VERTEX
5
423
100
AcDbEntity
8
1
100
AcDbVertex
100
AcDb2dVertex
62
5
10
135.050000
20
-108.499986
0
VERTEX
5
424
100
AcDbEntity
8
1
100
AcDbVertex
100
AcDb2dVertex
62
5
10
141.050000
20
-108.999986
0
SEQEND
5
425
100
AcDbEntity
8
1
0
ARC
5
426
100
AcDbEntity
8
1
100
AcDbCircle
6
CONTINUOUS
62
5
10
122.650000
20
-155.199986
40
0.300000
100
AcDbArc
50
179.999998
51
-89.999999
0
LINE
5
427
100
AcDbEntity
8
1
100
AcDbLine
6
CONTINUOUS
62
5
10
122.350000
20
-155.199986
11
122.350000
21
-144.749986
0
ARC
5
428
100
AcDbEntity
8
1
100
AcDbCircle
6
CONTINUOUS
62
5
10
121.350000
20
-144.749986
40
1.000000
100
AcDbArc
50
-0.000000
51
89.999999
0
LINE
5
429
100
AcDbEntity
8
1
100
AcDbLine
6
CONTINUOUS
62
5
10
121.350000
20
-143.749986
11
118.850000
21
-143.749986
0
ARC
5
42a
100
AcDbEntity
8
1
100
AcDbCircle
6
CONTINUOUS
62
5
10
118.850000
20
-144.749986
40
1.000000
100
AcDbArc
50
89.999999
51
-179.999998
0
LINE
5
42b
100
AcDbEntity
8
1
100
AcDbLine
6
CONTINUOUS
62
5
10
117.850000
20
-144.749986
11
117.850000
21
-155.199986
0
ARC
5
42c
100
AcDbEntity
8
1
100
AcDbCircle
6
CONTINUOUS
62
5
10
117.550000
20
-155.199986
40
0.300000
100
AcDbArc
50
-89.999999
51
-0.000000
0
LINE
5
42d
100
AcDbEntity
8
1
100
AcDbLine
6
CONTINUOUS
62
5
10
122.650000
20
-155.499986
11
122.650000
21
-155.499986
0
ARC
5
42e
100
AcDbEntity
8
1
100
AcDbCircle
6
CONTINUOUS
62
5
10
118.850000
20
-144.749986
40
0.500000
100
AcDbArc
50
89.999999
51
179.999998
0
LINE
5
42f
100
AcDbEntity
8
1
100
AcDbLine
6
CONTINUOUS
62
5
10
118.850000
20
-144.249986
11
121.350000
21
-144.249986
0
ARC
5
430
100
AcDbEntity
8
1
100
AcDbCircle
6
CONTINUOUS
62
5
10
121.350000
20
-144.749986
40
0.500000
100
AcDbArc
50
0.000000
51
89.999999
0
LINE
5
431
100
AcDbEntity
8
1
100
AcDbLine
6
CONTINUOUS
62
5
10
121.850000
20
-144.749986
11
121.850000
21
-155.199986
0
ARC
5
432
100
AcDbEntity
8
1
100
AcDbCircle
6
CONTINUOUS
62
5
10
122.150000
20
-155.199986
40
0.300000
100
AcDbArc
50
-179.999998
51
-89.999999
0
ARC
5
433
100
AcDbEntity
8
1
100
AcDbCircle
6
CONTINUOUS
62
5
10
118.050000
20
-155.199986
40
0.300000
100
AcDbArc
50
-89.999999
51
-0.000000
0
LINE
5
434
100
AcDbEntity
8
1
100
AcDbLine
6
CONTINUOUS
62
5
10
118.350000
20
-155.199986
11
118.350000
21
-144.749986
0
ARC
5
435
100
AcDbEntity
8
1
100
AcDbCircle
6
CONTINUOUS
62
5
10
121.097639
20
-145.249986
40
3.000000
100
AcDbArc
50
44.683452
51
89.999999
0
LINE
5
436
100
AcDbEntity
8
1
100
AcDbLine
6
CONTINUOUS
62
5
10
123.230647
20
-143.140418
11
126.556451
21
-146.503176
0
ARC
5
437
100
AcDbEntity
8
1
100
AcDbCircle
6
CONTINUOUS
62
5
10
127.267454
20
-145.799986
40
1.000000
100
AcDbArc
50
-135.316547
51
-89.999999
0
LINE
5
438
100
AcDbEntity
8
1
100
AcDbLine
6
CONTINUOUS
62
5
10
100.279058
20
-142.249986
11
121.097639
21
-142.249986
0
LINE
5
439
100
AcDbEntity
8
1
100
AcDbLine
6
CONTINUOUS
62
5
10
-40.000000
20
-32.000000
11
280.000000
21
-32.000000
0
LINE
5
43a
100
AcDbEntity
8
1
100
AcDbLine
6
CONTINUOUS
62
5
10
-40.000000
20
-32.000000
11
280.000000
21
-32.000000
0
ARC
5
43b
100
AcDbEntity
8
1
100
AcDbCircle
6
CONTINUOUS
62
5
10
202.450000
20
-181.299986
40
0.700000
100
AcDbArc
50
-89.999999
51
0.000000
0
LINE
5
43c
100
AcDbEntity
8
1
100
AcDbLine
6
CONTINUOUS
62
5
10
203.150000
20
-181.299986
11
203.150000
21
-181.189623
0
ARC
5
43d
100
AcDbEntity
8
1
100
AcDbCircle
6
CONTINUOUS
62
5
10
202.450000
20
-181.189623
40
0.700000
100
AcDbArc
50
-0.000000
51
89.144902
0
LINE
5
43e
100
AcDbEntity
8
1
100
AcDbLine
6
CONTINUOUS
62
5
10
202.460447
20
-180.489701
11
201.850000
21
-180.477605
0
LINE
5
43f
100
AcDbEntity
8
1
100
AcDbLine
6
CONTINUOUS
62
5
10
201.850000
20
-181.999986
11
202.450000
21
-181.999986
0
ARC
5
440
100
AcDbEntity
8
1
100
AcDbCircle
6
CONTINUOUS
62
5
10
202.450000
20
-175.699986
40
0.700000
100
AcDbArc
50
0.000000
51
89.999998
0
LINE
5
441
100
AcDbEntity
8
1
100
AcDbLine
6
CONTINUOUS
62
5
10
203.150000
20
-175.699986
11
203.150000
21
-175.810356
0
ARC
5
442
100
AcDbEntity
8
1
100
AcDbCircle
6
CONTINUOUS
62
5
10
202.450000
20
-175.810356
40
0.700000
100
AcDbArc
50
-89.144902
51
0.000001
0
LINE
5
443
100
AcDbEntity
8
1
100
AcDbLine
6
CONTINUOUS
62
5
10
202.460447
20
-176.510278
11
201.850000
21
-176.522374
0
LINE
5
444
100
AcDbEntity
8
1
100
AcDbLine
6
CONTINUOUS
62
5
10
201.850000
20
-174.999986
11
202.450000
21
-174.999986
0
LINE
5
445
100
AcDbEntity
8
1
100
AcDbLine
6
CONTINUOUS
62
5
10
203.150000
20
-181.300147
11
203.150000
21
-189.999986
0
ARC
5
446
100
AcDbEntity
8
1
100
AcDbCircle
6
CONTINUOUS
62
5
10
202.450000
20
-198.699986
40
0.700000
100
AcDbArc
50
-0.000000
51
89.999999
0
LINE
5
447
100
AcDbEntity
8
1
100
AcDbLine
6
CONTINUOUS
62
5
10
203.150000
20
-198.699986
11
203.150000
21
-198.810349
0
ARC
5
448
100
AcDbEntity
8
1
100
AcDbCircle
6
CONTINUOUS
62
5
10
202.450000
20
-198.810349
40
0.700000
100
AcDbArc
50
-89.144902
51
0.000000
0
LINE
5
449
100
AcDbEntity
8
1
100
AcDbLine
6
CONTINUOUS
62
5
10
202.460447
20
-199.510271
11
201.850000
21
-199.522368
0
LINE
5
44a
100
AcDbEntity
8
1
100
AcDbLine
6
CONTINUOUS
62
5
10
201.850000
20
-197.999986
11
202.450000
21
-197.999986
0
ARC
5
44b
100
AcDbEntity
8
1
100
AcDbCircle
6
CONTINUOUS
62
5
10
202.450000
20
-204.299986
40
0.700000
100
AcDbArc
50
-89.999998
51
-0.000000
0
LINE
5
44c
100
AcDbEntity
8
1
100
AcDbLine
6
CONTINUOUS
62
5
10
203.150000
20
-204.299986
11
203.150000
21
-204.189616
0
ARC
5
44d
100
AcDbEntity
8
1
100
AcDbCircle
6
CONTINUOUS
62
5
10
202.450000
20
-204.189616
40
0.700000
100
AcDbArc
50
-0.000001
51
89.144902
0
LINE
5
44e
100
AcDbEntity
8
1
100
AcDbLine
6
CONTINUOUS
62
5
10
202.460447
20
-203.489694
11
201.850000
21
-203.477598
0
LINE
5
44f
100
AcDbEntity
8
1
100
AcDbLine
6
CONTINUOUS
62
5
10
201.850000
20
-204.999986
11
202.450000
21
-204.999986
0
LINE
5
450
100
AcDbEntity
8
1
100
AcDbLine
6
CONTINUOUS
62
5
10
203.150000
20
-198.699825
11
203.150000
21
-189.999986
0
LINE
5
451
100
AcDbEntity
8
1
100
AcDbLine
6
CONTINUOUS
62
5
10
201.850000
20
-227.199978
11
203.350000
21
-225.659965
0
ARC
5
452
100
AcDbEntity
8
1
100
AcDbCircle
6
CONTINUOUS
62
5
10
202.450000
20
-221.199986
40
0.700000
100
AcDbArc
50
0.000000
51
89.999999
0
LINE
5
453
100
AcDbEntity
8
1
100
AcDbLine
6
CONTINUOUS
62
5
10
203.150000
20
-221.199986
11
203.150000
21
-221.513247
0
ARC
5
454
100
AcDbEntity
8
1
100
AcDbCircle
6
CONTINUOUS
62
5
10
202.150000
20
-221.513247
40
1.000000
100
AcDbArc
50
-89.236101
51
0.000000
0
LINE
5
455
100
AcDbEntity
8
1
100
AcDbLine
6
CONTINUOUS
62
5
10
202.163332
20
-222.513158
11
201.850000
21
-222.520002
0
LINE
5
456
100
AcDbEntity
8
1
100
AcDbLine
6
CONTINUOUS
62
5
10
201.850000
20
-220.499986
11
202.450000
21
-220.499986
0
POLYLINE
5
457
100
AcDbEntity
8
1
6
CONTINUOUS
62
5
100
AcDb2dPolyline
66
1
10
0.0
20
0.0
30
0.0
70
1
0
VERTEX
5
458
100
AcDbEntity
8
1
100
AcDbVertex
100
AcDb2dVertex
62
5
10
200.850000
20
-245.999986
0
VERTEX
5
459
100
AcDbEntity
8
1
100
AcDbVertex
100
AcDb2dVertex
62
5
10
200.850000
20
-237.499986
0
SEQEND
5
45a
100
AcDbEntity
8
1
0
LINE
5
45b
100
AcDbEntity
8
1
100
AcDbLine
6
CONTINUOUS
62
5
10
203.150000
20
-204.300138
11
203.150000
21
-221.199986
0
POLYLINE
5
45c
100
AcDbEntity
8
1
6
CONTINUOUS
62
5
100
AcDb2dPolyline
66
1
10
0.0
20
0.0
30
0.0
70
0
0
VERTEX
5
45d
100
AcDbEntity
8
1
100
AcDbVertex
100
AcDb2dVertex
62
5
10
125.650000
20
-181.599986
0
VERTEX
5
45e
100
AcDbEntity
8
1
100
AcDbVertex
100
AcDb2dVertex
62
5
10
125.350000
20
-181.899986
0
VERTEX
5
45f
100
AcDbEntity
8
1
100
AcDbVertex
100
AcDb2dVertex
62
5
10
125.250000
20
-181.999986
0
SEQEND
5
460
100
AcDbEntity
8
1
0
POLYLINE
5
461
100
AcDbEntity
8
1
6
CONTINUOUS
62
5
100
AcDb2dPolyline
66
1
10
0.0
20
0.0
30
0.0
70
0
0
VERTEX
5
462
100
AcDbEntity
8
1
100
AcDbVertex
100
AcDb2dVertex
62
5
10
125.650000
20
-175.399986
0
VERTEX
5
463
100
AcDbEntity
8
1
100
AcDbVertex
100
AcDb2dVertex
62
5
10
125.350000
20
-175.099986
0
VERTEX
5
464
100
AcDbEntity
8
1
100
AcDbVertex
100
AcDb2dVertex
62
5
10
125.250000
20
-174.999986
0
SEQEND
5
465
100
AcDbEntity
8
1
0
ARC
5
466
100
AcDbEntity
8
1
100
AcDbCircle
6
CONTINUOUS
62
5
10
131.400000
20
-181.499986
40
0.500000
100
AcDbArc
50
-89.999999
51
0.000000
0
LINE
5
467
100
AcDbEntity
8
1
100
AcDbLine
6
CONTINUOUS
62
5
10
131.400000
20
-181.999986
11
130.949965
21
-181.999986
0
LINE
5
468
100
AcDbEntity
8
1
100
AcDbLine
6
CONTINUOUS
62
5
10
131.900000
20
-180.501550
11
131.900000
21
-181.499986
0
ARC
5
469
100
AcDbEntity
8
1
100
AcDbCircle
6
CONTINUOUS
62
5
10
131.400000
20
-175.499986
40
0.500000
100
AcDbArc
50
-0.000000
51
89.999999
0
LINE
5
46a
100
AcDbEntity
8
1
100
AcDbLine
6
CONTINUOUS
62
5
10
131.400000
20
-174.999986
11
130.949965
21
-174.999986
0
LINE
5
46b
100
AcDbEntity
8
1
100
AcDbLine
6
CONTINUOUS
62
5
10
131.900000
20
-176.499979
11
131.900000
21
-175.499986
0
LINE
5
46c
100
AcDbEntity
8
1
100
AcDbLine
6
CONTINUOUS
62
5
10
128.450000
20
-184.499986
11
128.550000
21
-184.499986
0
LINE
5
46d
100
AcDbEntity
8
1
100
AcDbLine
6
CONTINUOUS
62
5
10
128.550000
20
-172.499986
11
128.450000
21
-172.499986
0
ARC
5
46e
100
AcDbEntity
8
1
100
AcDbCircle
6
CONTINUOUS
62
5
10
130.000000
20
-181.501772
40
0.500000
100
AcDbArc
50
-85.156528
51
-0.000000
0
LINE
5
46f
100
AcDbEntity
8
1
100
AcDbLine
6
CONTINUOUS
62
5
10
130.500000
20
-180.499986
11
130.500000
21
-181.501772
0
ARC
5
470
100
AcDbEntity
8
1
100
AcDbCircle
6
CONTINUOUS
62
5
10
130.000000
20
-175.498201
40
0.500000
100
AcDbArc
50
0.000000
51
85.156528
0
LINE
5
471
100
AcDbEntity
8
1
100
AcDbLine
6
CONTINUOUS
62
5
10
130.500000
20
-176.499986
11
130.500000
21
-175.498201
0
POLYLINE
5
472
100
AcDbEntity
8
1
6
CONTINUOUS
62
5
100
AcDb2dPolyline
66
1
10
0.0
20
0.0
30
0.0
70
0
0
VERTEX
5
473
100
AcDbEntity
8
1
100
AcDbVertex
100
AcDb2dVertex
62
5
10
129.849965
20
-185.499986
0
VERTEX
5
474
100
AcDbEntity
8
1
100
AcDbVertex
100
AcDb2dVertex
62
5
10
129.050000
20
-185.499986
0
VERTEX
5
475
100
AcDbEntity
8
1
100
AcDbVertex
100
AcDb2dVertex
62
5
10
129.050000
20
-187.499986
0
VERTEX
5
476
100
AcDbEntity
8
1
100
AcDbVertex
100
AcDb2dVertex
62
5
10
129.849965
20
-187.499986
0
SEQEND
5
477
100
AcDbEntity
8
1
0
LINE
5
478
100
AcDbEntity
8
1
100
AcDbLine
6
CONTINUOUS
62
5
10
129.250000
20
-185.499986
11
129.250000
21
-187.499986
0
POLYLINE
5
479
100
AcDbEntity
8
1
6
CONTINUOUS
62
5
100
AcDb2dPolyline
66
1
10
0.0
20
0.0
30
0.0
70
0
0
VERTEX
5
47a
100
AcDbEntity
8
1
100
AcDbVertex
100
AcDb2dVertex
62
5
10
125.650000
20
-204.599986
0
VERTEX
5
47b
100
AcDbEntity
8
1
100
AcDbVertex
100
AcDb2dVertex
62
5
10
125.350000
20
-204.899986
0
VERTEX
5
47c
100
AcDbEntity
8
1
100
AcDbVertex
100
AcDb2dVertex
62
5
10
125.250000
20
-204.999986
0
SEQEND
5
47d
100
AcDbEntity
8
1
0
POLYLINE
5
47e
100
AcDbEntity
8
1
6
CONTINUOUS
62
5
100
AcDb2dPolyline
66
1
10
0.0
20
0.0
30
0.0
70
0
0
VERTEX
5
47f
100
AcDbEntity
8
1
100
AcDbVertex
100
AcDb2dVertex
62
5
10
125.650000
20
-198.399986
0
VERTEX
5
480
100
AcDbEntity
8
1
100
AcDbVertex
100
AcDb2dVertex
62
5
10
125.350000
20
-198.099986
0
VERTEX
5
481
100
AcDbEntity
8
1
100
AcDbVertex
100
AcDb2dVertex
62
5
10
125.250000
20
-197.999986
0
SEQEND
5
482
100
AcDbEntity
8
1
0
ARC
5
483
100
AcDbEntity
8
1
100
AcDbCircle
6
CONTINUOUS
62
5
10
131.400000
20
-198.499986
40
0.500000
100
AcDbArc
50
-0.000000
51
89.999999
0
LINE
5
484
100
AcDbEntity
8
1
100
AcDbLine
6
CONTINUOUS
62
5
10
131.400000
20
-197.999986
11
130.949965
21
-197.999986
0
LINE
5
485
100
AcDbEntity
8
1
100
AcDbLine
6
CONTINUOUS
62
5
10
131.900000
20
-199.499986
11
131.900000
21
-198.499986
0
ARC
5
486
100
AcDbEntity
8
1
100
AcDbCircle
6
CONTINUOUS
62
5
10
131.400000
20
-204.499986
40
0.500000
100
AcDbArc
50
-89.999999
51
0.000000
0
LINE
5
487
100
AcDbEntity
8
1
100
AcDbLine
6
CONTINUOUS
62
5
10
131.400000
20
-204.999986
11
130.949965
21
-204.999986
0
LINE
5
488
100
AcDbEntity
8
1
100
AcDbLine
6
CONTINUOUS
62
5
10
131.900000
20
-203.499993
11
131.900000
21
-204.499986
0
ARC
5
489
100
AcDbEntity
8
1
100
AcDbCircle
6
CONTINUOUS
62
5
10
130.000000
20
-198.498201
40
0.500000
100
AcDbArc
50
0.000000
51
85.156528
0
POLYLINE
5
48a
100
AcDbEntity
8
1
6
CONTINUOUS
62
5
100
AcDb2dPolyline
66
1
10
0.0
20
0.0
30
0.0
70
0
0
VERTEX
5
48b
100
AcDbEntity
8
1
100
AcDbVertex
100
AcDb2dVertex
62
5
10
130.500000
20
-199.499986
0
VERTEX
5
48c
100
AcDbEntity
8
1
100
AcDbVertex
100
AcDb2dVertex
62
5
10
130.500000
20
-199.499986
0
VERTEX
5
48d
100
AcDbEntity
8
1
100
AcDbVertex
100
AcDb2dVertex
62
5
10
130.500000
20
-198.498201
0
SEQEND
5
48e
100
AcDbEntity
8
1
0
LINE
5
48f
100
AcDbEntity
8
1
100
AcDbLine
6
CONTINUOUS
62
5
10
128.450000
20
-207.499986
11
128.550000
21
-207.499986
0
ARC
5
490
100
AcDbEntity
8
1
100
AcDbCircle
6
CONTINUOUS
62
5
10
130.000000
20
-204.501772
40
0.500000
100
AcDbArc
50
-85.156528
51
-0.000000
0
LINE
5
491
100
AcDbEntity
8
1
100
AcDbLine
6
CONTINUOUS
62
5
10
130.500000
20
-203.499993
11
130.500000
21
-204.501772
0
POLYLINE
5
492
100
AcDbEntity
8
1
6
CONTINUOUS
62
5
100
AcDb2dPolyline
66
1
10
0.0
20
0.0
30
0.0
70
0
0
VERTEX
5
493
100
AcDbEntity
8
1
100
AcDbVertex
100
AcDb2dVertex
62
5
10
129.849965
20
-192.499986
0
VERTEX
5
494
100
AcDbEntity
8
1
100
AcDbVertex
100
AcDb2dVertex
62
5
10
129.050000
20
-192.499986
0
VERTEX
5
495
100
AcDbEntity
8
1
100
AcDbVertex
100
AcDb2dVertex
62
5
10
129.050000
20
-194.499986
0
VERTEX
5
496
100
AcDbEntity
8
1
100
AcDbVertex
100
AcDb2dVertex
62
5
10
129.849965
20
-194.499986
0
SEQEND
5
497
100
AcDbEntity
8
1
0
LINE
5
498
100
AcDbEntity
8
1
100
AcDbLine
6
CONTINUOUS
62
5
10
129.250000
20
-192.499986
11
129.250000
21
-194.499986
0
LINE
5
499
100
AcDbEntity
8
1
100
AcDbLine
6
CONTINUOUS
62
5
10
128.450000
20
-195.499986
11
128.550000
21
-195.499986
0
LINE
5
49a
100
AcDbEntity
8
1
100
AcDbLine
6
CONTINUOUS
62
5
10
129.250000
20
-208.499986
11
129.250000
21
-210.499986
0
POLYLINE
5
49b
100
AcDbEntity
8
1
6
CONTINUOUS
62
5
100
AcDb2dPolyline
66
1
10
0.0
20
0.0
30
0.0
70
0
0
VERTEX
5
49c
100
AcDbEntity
8
1
100
AcDbVertex
100
AcDb2dVertex
62
5
10
129.849965
20
-208.499986
0
VERTEX
5
49d
100
AcDbEntity
8
1
100
AcDbVertex
100
AcDb2dVertex
62
5
10
129.050000
20
-208.499986
0
VERTEX
5
49e
100
AcDbEntity
8
1
100
AcDbVertex
100
AcDb2dVertex
62
5
10
129.050000
20
-210.499986
0
VERTEX
5
49f
100
AcDbEntity
8
1
100
AcDbVertex
100
AcDb2dVertex
62
5
10
129.849965
20
-210.499986
0
SEQEND
5
4a0
100
AcDbEntity
8
1
0
ARC
5
4a1
100
AcDbEntity
8
1
100
AcDbCircle
6
CONTINUOUS
62
5
10
128.550000
20
-195.999986
40
0.500000
100
AcDbArc
50
0.000000
51
89.999999
0
LINE
5
4a2
100
AcDbEntity
8
1
100
AcDbLine
6
CONTINUOUS
62
5
10
129.050000
20
-195.999986
11
129.050000
21
-199.299986
0
ARC
5
4a3
100
AcDbEntity
8
1
100
AcDbCircle
6
CONTINUOUS
62
5
10
129.250000
20
-199.299986
40
0.200000
100
AcDbArc
50
179.999998
51
-89.999999
0
LINE
5
4a4
100
AcDbEntity
8
1
100
AcDbLine
6
CONTINUOUS
62
5
10
129.250000
20
-199.499986
11
132.750000
21
-199.499986
0
ARC
5
4a5
100
AcDbEntity
8
1
100
AcDbCircle
6
CONTINUOUS
62
5
10
132.750000
20
-199.299986
40
0.200000
100
AcDbArc
50
-89.999999
51
0.000000
0
LINE
5
4a6
100
AcDbEntity
8
1
100
AcDbLine
6
CONTINUOUS
62
5
10
132.950000
20
-199.299986
11
132.950000
21
-180.699986
0
ARC
5
4a7
100
AcDbEntity
8
1
100
AcDbCircle
6
CONTINUOUS
62
5
10
132.750000
20
-180.699986
40
0.200000
100
AcDbArc
50
0.000000
51
89.999999
0
POLYLINE
5
4a8
100
AcDbEntity
8
1
6
CONTINUOUS
62
5
100
AcDb2dPolyline
66
1
10
0.0
20
0.0
30
0.0
70
0
0
VERTEX
5
4a9
100
AcDbEntity
8
1
100
AcDbVertex
100
AcDb2dVertex
62
5
10
132.750000
20
-180.499986
0
VERTEX
5
4aa
100
AcDbEntity
8
1
100
AcDbVertex
100
AcDb2dVertex
62
5
10
131.900000
20
-180.499986
0
VERTEX
5
4ab
100
AcDbEntity
8
1
100
AcDbVertex
100
AcDb2dVertex
62
5
10
129.250000
20
-180.499986
0
SEQEND
5
4ac
100
AcDbEntity
8
1
0
ARC
5
4ad
100
AcDbEntity
8
1
100
AcDbCircle
6
CONTINUOUS
62
5
10
129.250000
20
-180.699986
40
0.200000
100
AcDbArc
50
89.999999
51
179.999998
0
POLYLINE
5
4ae
100
AcDbEntity
8
1
6
CONTINUOUS
62
5
100
AcDb2dPolyline
66
1
10
0.0
20
0.0
30
0.0
70
0
0
VERTEX
5
4af
100
AcDbEntity
8
1
100
AcDbVertex
100
AcDb2dVertex
62
5
10
129.050000
20
-180.699986
0
VERTEX
5
4b0
100
AcDbEntity
8
1
100
AcDbVertex
100
AcDb2dVertex
62
5
10
129.050000
20
-181.499986
0
VERTEX
5
4b1
100
AcDbEntity
8
1
100
AcDbVertex
100
AcDb2dVertex
62
5
10
129.050000
20
-183.999986
0
SEQEND
5
4b2
100
AcDbEntity
8
1
0
ARC
5
4b3
100
AcDbEntity
8
1
100
AcDbCircle
6
CONTINUOUS
62
5
10
128.550000
20
-183.999986
40
0.500000
100
AcDbArc
50
-89.999999
51
0.000000
0
POLYLINE
5
4b4
100
AcDbEntity
8
1
6
CONTINUOUS
62
5
100
AcDb2dPolyline
66
1
10
0.0
20
0.0
30
0.0
70
0
0
VERTEX
5
4b5
100
AcDbEntity
8
1
100
AcDbVertex
100
AcDb2dVertex
62
5
10
128.550000
20
-184.499986
0
VERTEX
5
4b6
100
AcDbEntity
8
1
100
AcDbVertex
100
AcDb2dVertex
62
5
10
128.550000
20
-184.499986
0
VERTEX
5
4b7
100
AcDbEntity
8
1
100
AcDbVertex
100
AcDb2dVertex
62
5
10
128.550000
20
-195.499986
0
VERTEX
5
4b8
100
AcDbEntity
8
1
100
AcDbVertex
100
AcDb2dVertex
62
5
10
128.550000
20
-195.499986
0
SEQEND
5
4b9
100
AcDbEntity
8
1
0
ARC
5
4ba
100
AcDbEntity
8
1
100
AcDbCircle
6
CONTINUOUS
62
5
10
128.450000
20
-183.999986
40
0.500000
100
AcDbArc
50
-89.999999
51
0.000000
0
POLYLINE
5
4bb
100
AcDbEntity
8
1
6
CONTINUOUS
62
5
100
AcDb2dPolyline
66
1
10
0.0
20
0.0
30
0.0
70
0
0
VERTEX
5
4bc
100
AcDbEntity
8
1
100
AcDbVertex
100
AcDb2dVertex
62
5
10
128.450000
20
-184.499986
0
VERTEX
5
4bd
100
AcDbEntity
8
1
100
AcDbVertex
100
AcDb2dVertex
62
5
10
128.450000
20
-184.499986
0
VERTEX
5
4be
100
AcDbEntity
8
1
100
AcDbVertex
100
AcDb2dVertex
62
5
10
128.450000
20
-184.599986
0
VERTEX
5
4bf
100
AcDbEntity
8
1
100
AcDbVertex
100
AcDb2dVertex
62
5
10
128.450000
20
-195.499986
0
VERTEX
5
4c0
100
AcDbEntity
8
1
100
AcDbVertex
100
AcDb2dVertex
62
5
10
128.450000
20
-195.499986
0
SEQEND
5
4c1
100
AcDbEntity
8
1
0
ARC
5
4c2
100
AcDbEntity
8
1
100
AcDbCircle
6
CONTINUOUS
62
5
10
128.450000
20
-195.999986
40
0.500000
100
AcDbArc
50
0.000000
51
89.999999
0
LINE
5
4c3
100
AcDbEntity
8
1
100
AcDbLine
6
CONTINUOUS
62
5
10
128.950000
20
-195.999986
11
128.950000
21
-199.399986
0
ARC
5
4c4
100
AcDbEntity
8
1
100
AcDbCircle
6
CONTINUOUS
62
5
10
129.150000
20
-199.399986
40
0.200000
100
AcDbArc
50
179.999998
51
-89.999999
0
LINE
5
4c5
100
AcDbEntity
8
1
100
AcDbLine
6
CONTINUOUS
62
5
10
129.150000
20
-199.599986
11
132.850000
21
-199.599986
0
ARC
5
4c6
100
AcDbEntity
8
1
100
AcDbCircle
6
CONTINUOUS
62
5
10
132.850000
20
-199.399986
40
0.200000
100
AcDbArc
50
-89.999999
51
0.000000
0
LINE
5
4c7
100
AcDbEntity
8
1
100
AcDbLine
6
CONTINUOUS
62
5
10
133.050000
20
-199.399986
11
133.050000
21
-180.599986
0
ARC
5
4c8
100
AcDbEntity
8
1
100
AcDbCircle
6
CONTINUOUS
62
5
10
132.850000
20
-180.599986
40
0.200000
100
AcDbArc
50
0.000000
51
89.999999
0
POLYLINE
5
4c9
100
AcDbEntity
8
1
6
CONTINUOUS
62
5
100
AcDb2dPolyline
66
1
10
0.0
20
0.0
30
0.0
70
0
0
VERTEX
5
4ca
100
AcDbEntity
8
1
100
AcDbVertex
100
AcDb2dVertex
62
5
10
132.850000
20
-180.399986
0
VERTEX
5
4cb
100
AcDbEntity
8
1
100
AcDbVertex
100
AcDb2dVertex
62
5
10
131.900000
20
-180.399986
0
VERTEX
5
4cc
100
AcDbEntity
8
1
100
AcDbVertex
100
AcDb2dVertex
62
5
10
129.150000
20
-180.399986
0
SEQEND
5
4cd
100
AcDbEntity
8
1
0
ARC
5
4ce
100
AcDbEntity
8
1
100
AcDbCircle
6
CONTINUOUS
62
5
10
129.150000
20
-180.599986
40
0.200000
100
AcDbArc
50
89.999999
51
179.999998
0
POLYLINE
5
4cf
100
AcDbEntity
8
1
6
CONTINUOUS
62
5
100
AcDb2dPolyline
66
1
10
0.0
20
0.0
30
0.0
70
0
0
VERTEX
5
4d0
100
AcDbEntity
8
1
100
AcDbVertex
100
AcDb2dVertex
62
5
10
128.950000
20
-180.599986
0
VERTEX
5
4d1
100
AcDbEntity
8
1
100
AcDbVertex
100
AcDb2dVertex
62
5
10
128.950000
20
-181.499986
0
VERTEX
5
4d2
100
AcDbEntity
8
1
100
AcDbVertex
100
AcDb2dVertex
62
5
10
128.950000
20
-183.999986
0
SEQEND
5
4d3
100
AcDbEntity
8
1
0
LINE
5
4d4
100
AcDbEntity
8
1
100
AcDbLine
6
CONTINUOUS
62
5
10
131.900000
20
-181.499986
11
131.900000
21
-198.499986
0
ARC
5
4d5
100
AcDbEntity
8
1
100
AcDbCircle
6
CONTINUOUS
62
5
10
130.149965
20
-194.949986
40
0.300000
100
AcDbArc
50
179.999998
51
-89.999999
0
LINE
5
4d6
100
AcDbEntity
8
1
100
AcDbLine
6
CONTINUOUS
62
5
10
130.149965
20
-195.249986
11
130.949965
21
-195.249986
0
ARC
5
4d7
100
AcDbEntity
8
1
100
AcDbCircle
6
CONTINUOUS
62
5
10
130.949965
20
-194.949986
40
0.300000
100
AcDbArc
50
-89.999999
51
-0.000000
0
LINE
5
4d8
100
AcDbEntity
8
1
100
AcDbLine
6
CONTINUOUS
62
5
10
131.249965
20
-194.949986
11
131.249965
21
-185.049986
0
ARC
5
4d9
100
AcDbEntity
8
1
100
AcDbCircle
6
CONTINUOUS
62
5
10
130.949965
20
-185.049986
40
0.300000
100
AcDbArc
50
-0.000000
51
89.999999
0
LINE
5
4da
100
AcDbEntity
8
1
100
AcDbLine
6
CONTINUOUS
62
5
10
130.949965
20
-184.749986
11
130.149965
21
-184.749986
0
ARC
5
4db
100
AcDbEntity
8
1
100
AcDbCircle
6
CONTINUOUS
62
5
10
130.149965
20
-185.049986
40
0.300000
100
AcDbArc
50
89.999999
51
-179.999998
0
LINE
5
4dc
100
AcDbEntity
8
1
100
AcDbLine
6
CONTINUOUS
62
5
10
129.849965
20
-185.049986
11
129.849965
21
-194.949986
0
ARC
5
4dd
100
AcDbEntity
8
1
100
AcDbCircle
6
CONTINUOUS
62
5
10
130.949965
20
-197.699986
40
0.300000
100
AcDbArc
50
-89.999999
51
-0.000000
0
POLYLINE
5
4de
100
AcDbEntity
8
1
6
CONTINUOUS
62
5
100
AcDb2dPolyline
66
1
10
0.0
20
0.0
30
0.0
70
0
0
VERTEX
5
4df
100
AcDbEntity
8
1
100
AcDbVertex
100
AcDb2dVertex
62
5
10
130.949965
20
-197.999986
0
VERTEX
5
4e0
100
AcDbEntity
8
1
100
AcDbVertex
100
AcDb2dVertex
62
5
10
129.849965
20
-197.999986
0
VERTEX
5
4e1
100
AcDbEntity
8
1
100
AcDbVertex
100
AcDb2dVertex
62
5
10
129.849965
20
-181.999986
0
VERTEX
5
4e2
100
AcDbEntity
8
1
100
AcDbVertex
100
AcDb2dVertex
62
5
10
130.949965
20
-181.999986
0
SEQEND
5
4e3
100
AcDbEntity
8
1
0
ARC
5
4e4
100
AcDbEntity
8
1
100
AcDbCircle
6
CONTINUOUS
62
5
10
130.949965
20
-182.299986
40
0.300000
100
AcDbArc
50
-0.000000
51
89.999999
0
LINE
5
4e5
100
AcDbEntity
8
1
100
AcDbLine
6
CONTINUOUS
62
5
10
131.249965
20
-182.299986
11
131.249965
21
-197.699986
0
ARC
5
4e6
100
AcDbEntity
8
1
100
AcDbCircle
6
CONTINUOUS
62
5
10
130.349965
20
-185.049986
40
0.300000
100
AcDbArc
50
89.999999
51
-179.999998
0
LINE
5
4e7
100
AcDbEntity
8
1
100
AcDbLine
6
CONTINUOUS
62
5
10
130.049965
20
-185.049986
11
130.049965
21
-194.949986
0
ARC
5
4e8
100
AcDbEntity
8
1
100
AcDbCircle
6
CONTINUOUS
62
5
10
130.349965
20
-194.949986
40
0.300000
100
AcDbArc
50
-179.999998
51
-89.999999
0
LINE
5
4e9
100
AcDbEntity
8
1
100
AcDbLine
6
CONTINUOUS
62
5
10
130.349965
20
-195.249986
11
130.849965
21
-195.249986
0
ARC
5
4ea
100
AcDbEntity
8
1
100
AcDbCircle
6
CONTINUOUS
62
5
10
130.849965
20
-194.949986
40
0.300000
100
AcDbArc
50
-89.999999
51
-0.000000
0
LINE
5
4eb
100
AcDbEntity
8
1
100
AcDbLine
6
CONTINUOUS
62
5
10
131.149965
20
-194.949986
11
131.149965
21
-185.049986
0
ARC
5
4ec
100
AcDbEntity
8
1
100
AcDbCircle
6
CONTINUOUS
62
5
10
130.849965
20
-185.049986
40
0.300000
100
AcDbArc
50
0.000000
51
89.999999
0
LINE
5
4ed
100
AcDbEntity
8
1
100
AcDbLine
6
CONTINUOUS
62
5
10
130.849965
20
-184.749986
11
130.349965
21
-184.749986
0
ARC
5
4ee
100
AcDbEntity
8
1
100
AcDbCircle
6
CONTINUOUS
62
5
10
194.150000
20
-224.799986
40
0.300000
100
AcDbArc
50
89.999999
51
179.999998
0
LINE
5
4ef
100
AcDbEntity
8
1
100
AcDbLine
6
CONTINUOUS
62
5
10
194.150000
20
-224.499986
11
196.050000
21
-224.499986
0
LINE
5
4f0
100
AcDbEntity
8
1
100
AcDbLine
6
CONTINUOUS
62
5
10
196.050000
20
-225.999986
11
194.150000
21
-225.999986
0
ARC
5
4f1
100
AcDbEntity
8
1
100
AcDbCircle
6
CONTINUOUS
62
5
10
194.150000
20
-225.699986
40
0.300000
100
AcDbArc
50
179.999998
51
-89.999999
0
LINE
5
4f2
100
AcDbEntity
8
1
100
AcDbLine
6
CONTINUOUS
62
5
10
193.850000
20
-225.699986
11
193.850000
21
-224.799986
0
LINE
5
4f3
100
AcDbEntity
8
1
100
AcDbLine
6
CONTINUOUS
62
5
10
123.050000
20
-225.999986
11
123.150000
21
-226.099986
0
POLYLINE
5
4f4
100
AcDbEntity
8
1
6
CONTINUOUS
62
5
100
AcDb2dPolyline
66
1
10
0.0
20
0.0
30
0.0
70
0
0
VERTEX
5
4f5
100
AcDbEntity
8
1
100
AcDbVertex
100
AcDb2dVertex
62
5
10
125.650000
20
-221.399986
0
VERTEX
5
4f6
100
AcDbEntity
8
1
100
AcDbVertex
100
AcDb2dVertex
62
5
10
125.350000
20
-221.099986
0
VERTEX
5
4f7
100
AcDbEntity
8
1
100
AcDbVertex
100
AcDb2dVertex
62
5
10
125.250000
20
-220.999986
0
SEQEND
5
4f8
100
AcDbEntity
8
1
0
ARC
5
4f9
100
AcDbEntity
8
1
100
AcDbCircle
6
CONTINUOUS
62
5
10
131.400000
20
-220.999986
40
0.500000
100
AcDbArc
50
-0.000000
51
89.999999
0
LINE
5
4fa
100
AcDbEntity
8
1
100
AcDbLine
6
CONTINUOUS
62
5
10
131.400000
20
-220.499986
11
130.949965
21
-220.499986
0
LINE
5
4fb
100
AcDbEntity
8
1
100
AcDbLine
6
CONTINUOUS
62
5
10
131.900000
20
-222.500002
11
131.900000
21
-220.999986
0
LINE
5
4fc
100
AcDbEntity
8
1
100
AcDbLine
6
CONTINUOUS
62
5
10
127.150000
20
-225.999986
11
127.050000
21
-226.099986
0
POLYLINE
5
4fd
100
AcDbEntity
8
1
6
CONTINUOUS
62
5
100
AcDb2dPolyline
66
1
10
0.0
20
0.0
30
0.0
70
0
0
VERTEX
5
4fe
100
AcDbEntity
8
1
100
AcDbVertex
100
AcDb2dVertex
62
5
10
129.849965
20
-215.499986
0
VERTEX
5
4ff
100
AcDbEntity
8
1
100
AcDbVertex
100
AcDb2dVertex
62
5
10
129.050000
20
-215.499986
0
VERTEX
5
500
100
AcDbEntity
8
1
100
AcDbVertex
100
AcDb2dVertex
62
5
10
129.050000
20
-217.499986
0
VERTEX
5
501
100
AcDbEntity
8
1
100
AcDbVertex
100
AcDb2dVertex
62
5
10
129.849965
20
-217.499986
0
SEQEND
5
502
100
AcDbEntity
8
1
0
LINE
5
503
100
AcDbEntity
8
1
100
AcDbLine
6
CONTINUOUS
62
5
10
129.250000
20
-215.499986
11
129.250000
21
-217.499986
0
LINE
5
504
100
AcDbEntity
8
1
100
AcDbLine
6
CONTINUOUS
62
5
10
128.450000
20
-218.499986
11
128.550000
21
-218.499986
0
ARC
5
505
100
AcDbEntity
8
1
100
AcDbCircle
6
CONTINUOUS
62
5
10
130.350000
20
-220.649986
40
0.150000
100
AcDbArc
50
-0.000001
51
90.000001
0
LINE
5
506
100
AcDbEntity
8
1
100
AcDbLine
6
CONTINUOUS
62
5
10
130.500000
20
-222.500002
11
130.500000
21
-220.649986
0
LINE
5
507
100
AcDbEntity
8
1
100
AcDbLine
6
CONTINUOUS
62
5
10
130.149965
20
-218.249986
11
130.149965
21
-220.499986
0
LINE
5
508
100
AcDbEntity
8
1
100
AcDbLine
6
CONTINUOUS
62
5
10
123.150000
20
-232.099986
11
123.050000
21
-232.199986
0
LINE
5
509
100
AcDbEntity
8
1
100
AcDbLine
6
CONTINUOUS
62
5
10
127.050000
20
-232.099986
11
127.150000
21
-232.199986
0
POLYLINE
5
50a
100
AcDbEntity
8
1
6
CONTINUOUS
62
5
100
AcDb2dPolyline
66
1
10
0.0
20
0.0
30
0.0
70
1
0
VERTEX
5
50b
100
AcDbEntity
8
1
100
AcDbVertex
100
AcDb2dVertex
62
5
10
123.150000
20
-232.099986
0
VERTEX
5
50c
100
AcDbEntity
8
1
100
AcDbVertex
100
AcDb2dVertex
62
5
10
127.050000
20
-232.099986
0
VERTEX
5
50d
100
AcDbEntity
8
1
100
AcDbVertex
100
AcDb2dVertex
62
5
10
127.050000
20
-226.099986
0
VERTEX
5
50e
100
AcDbEntity
8
1
100
AcDbVertex
100
AcDb2dVertex
62
5
10
123.150000
20
-226.099986
0
SEQEND
5
50f
100
AcDbEntity
8
1
0
POLYLINE
5
510
100
AcDbEntity
8
1
6
CONTINUOUS
62
5
100
AcDb2dPolyline
66
1
10
0.0
20
0.0
30
0.0
70
1
0
VERTEX
5
511
100
AcDbEntity
8
1
100
AcDbVertex
100
AcDb2dVertex
62
5
10
127.150000
20
-225.999986
0
VERTEX
5
512
100
AcDbEntity
8
1
100
AcDbVertex
100
AcDb2dVertex
62
5
10
123.050000
20
-225.999986
0
VERTEX
5
513
100
AcDbEntity
8
1
100
AcDbVertex
100
AcDb2dVertex
62
5
10
123.050000
20
-232.199986
0
VERTEX
5
514
100
AcDbEntity
8
1
100
AcDbVertex
100
AcDb2dVertex
62
5
10
127.150000
20
-232.199986
0
VERTEX
5
515
100
AcDbEntity
8
1
100
AcDbVertex
100
AcDb2dVertex
62
5
10
127.150000
20
-225.999986
0
SEQEND
5
516
100
AcDbEntity
8
1
0
POLYLINE
5
517
100
AcDbEntity
8
1
6
CONTINUOUS
62
5
100
AcDb2dPolyline
66
1
10
0.0
20
0.0
30
0.0
70
0
0
VERTEX
5
518
100
AcDbEntity
8
1
100
AcDbVertex
100
AcDb2dVertex
62
5
10
124.650000
20
-226.099986
0
VERTEX
5
519
100
AcDbEntity
8
1
100
AcDbVertex
100
AcDb2dVertex
62
5
10
124.650000
20
-230.699986
0
VERTEX
5
51a
100
AcDbEntity
8
1
100
AcDbVertex
100
AcDb2dVertex
62
5
10
123.150000
20
-230.699986
0
SEQEND
5
51b
100
AcDbEntity
8
1
0
LINE
5
51c
100
AcDbEntity
8
1
100
AcDbLine
6
CONTINUOUS
62
5
10
132.750001
20
-237.499986
11
132.750001
21
-242.699986
0
POLYLINE
5
51d
100
AcDbEntity
8
1
6
CONTINUOUS
62
5
100
AcDb2dPolyline
66
1
10
0.0
20
0.0
30
0.0
70
0
0
VERTEX
5
51e
100
AcDbEntity
8
1
100
AcDbVertex
100
AcDb2dVertex
62
5
10
132.050001
20
-236.099986
0
VERTEX
5
51f
100
AcDbEntity
8
1
100
AcDbVertex
100
AcDb2dVertex
62
5
10
132.750001
20
-236.799986
0
VERTEX
5
520
100
AcDbEntity
8
1
100
AcDbVertex
100
AcDb2dVertex
62
5
10
132.750001
20
-243.399986
0
VERTEX
5
521
100
AcDbEntity
8
1
100
AcDbVertex
100
AcDb2dVertex
62
5
10
132.050001
20
-244.099986
0
SEQEND
5
522
100
AcDbEntity
8
1
0
ARC
5
523
100
AcDbEntity
8
1
100
AcDbCircle
6
CONTINUOUS
62
5
10
134.250002
20
-242.099986
40
2.000000
100
AcDbArc
50
-89.999999
51
0.000000
0
POLYLINE
5
524
100
AcDbEntity
8
1
6
CONTINUOUS
62
5
100
AcDb2dPolyline
66
1
10
0.0
20
0.0
30
0.0
70
0
0
VERTEX
5
525
100
AcDbEntity
8
1
100
AcDbVertex
100
AcDb2dVertex
62
5
10
134.250002
20
-244.099986
0
VERTEX
5
526
100
AcDbEntity
8
1
100
AcDbVertex
100
AcDb2dVertex
62
5
10
132.050001
20
-244.099986
0
VERTEX
5
527
100
AcDbEntity
8
1
100
AcDbVertex
100
AcDb2dVertex
62
5
10
132.050001
20
-236.099986
0
VERTEX
5
528
100
AcDbEntity
8
1
100
AcDbVertex
100
AcDb2dVertex
62
5
10
134.250002
20
-236.099986
0
SEQEND
5
529
100
AcDbEntity
8
1
0
ARC
5
52a
100
AcDbEntity
8
1
100
AcDbCircle
6
CONTINUOUS
62
5
10
134.250002
20
-238.099986
40
2.000000
100
AcDbArc
50
0.000000
51
89.999999
0
LINE
5
52b
100
AcDbEntity
8
1
100
AcDbLine
6
CONTINUOUS
62
5
10
136.250002
20
-238.099986
11
136.250002
21
-242.099986
0
ARC
5
52c
100
AcDbEntity
8
1
100
AcDbCircle
6
CONTINUOUS
62
5
10
134.250002
20
-238.099986
40
0.600000
100
AcDbArc
50
0.000000
51
89.999999
0
LINE
5
52d
100
AcDbEntity
8
1
100
AcDbLine
6
CONTINUOUS
62
5
10
134.850002
20
-238.099986
11
134.850002
21
-242.099986
0
ARC
5
52e
100
AcDbEntity
8
1
100
AcDbCircle
6
CONTINUOUS
62
5
10
134.250002
20
-242.099986
40
0.600000
100
AcDbArc
50
-89.999999
51
0.000000
0
POLYLINE
5
52f
100
AcDbEntity
8
1
6
CONTINUOUS
62
5
100
AcDb2dPolyline
66
1
10
0.0
20
0.0
30
0.0
70
0
0
VERTEX
5
530
100
AcDbEntity
8
1
100
AcDbVertex
100
AcDb2dVertex
62
5
10
134.250002
20
-242.699986
0
VERTEX
5
531
100
AcDbEntity
8
1
100
AcDbVertex
100
AcDb2dVertex
62
5
10
132.750001
20
-242.699986
0
VERTEX
5
532
100
AcDbEntity
8
1
100
AcDbVertex
100
AcDb2dVertex
62
5
10
132.750001
20
-237.499986
0
VERTEX
5
533
100
AcDbEntity
8
1
100
AcDbVertex
100
AcDb2dVertex
62
5
10
134.250002
20
-237.499986
0
SEQEND
5
534
100
AcDbEntity
8
1
0
ARC
5
535
100
AcDbEntity
8
1
100
AcDbCircle
6
CONTINUOUS
62
5
10
127.267454
20
-234.199986
40
1.000000
100
AcDbArc
50
89.999999
51
135.316547
0
LINE
5
536
100
AcDbEntity
8
1
100
AcDbLine
6
CONTINUOUS
62
5
10
126.556451
20
-233.496797
11
124.290340
21
-235.788087
0
ARC
5
537
100
AcDbEntity
8
1
100
AcDbCircle
6
CONTINUOUS
62
5
10
122.150000
20
-224.799986
40
0.300000
100
AcDbArc
50
89.999999
51
-179.999998
0
LINE
5
538
100
AcDbEntity
8
1
100
AcDbLine
6
CONTINUOUS
62
5
10
121.850000
20
-224.799986
11
121.850000
21
-234.531359
0
ARC
5
539
100
AcDbEntity
8
1
100
AcDbCircle
6
CONTINUOUS
62
5
10
122.650000
20
-224.799986
40
0.300000
100
AcDbArc
50
89.999999
51
179.999998
0
LINE
5
53a
100
AcDbEntity
8
1
100
AcDbLine
6
CONTINUOUS
62
5
10
122.350000
20
-234.627003
11
122.350000
21
-224.799986
0
ARC
5
53b
100
AcDbEntity
8
1
100
AcDbCircle
6
CONTINUOUS
62
5
10
130.149965
20
-217.949986
40
0.300000
100
AcDbArc
50
179.999998
51
-89.999999
0
LINE
5
53c
100
AcDbEntity
8
1
100
AcDbLine
6
CONTINUOUS
62
5
10
130.149965
20
-218.249986
11
130.949965
21
-218.249986
0
ARC
5
53d
100
AcDbEntity
8
1
100
AcDbCircle
6
CONTINUOUS
62
5
10
130.949965
20
-217.949986
40
0.300000
100
AcDbArc
50
-89.999999
51
-0.000000
0
LINE
5
53e
100
AcDbEntity
8
1
100
AcDbLine
6
CONTINUOUS
62
5
10
131.249965
20
-217.949986
11
131.249965
21
-208.049986
0
ARC
5
53f
100
AcDbEntity
8
1
100
AcDbCircle
6
CONTINUOUS
62
5
10
130.949965
20
-208.049986
40
0.300000
100
AcDbArc
50
-0.000000
51
89.999999
0
LINE
5
540
100
AcDbEntity
8
1
100
AcDbLine
6
CONTINUOUS
62
5
10
130.949965
20
-207.749986
11
130.149965
21
-207.749986
0
ARC
5
541
100
AcDbEntity
8
1
100
AcDbCircle
6
CONTINUOUS
62
5
10
130.149965
20
-208.049986
40
0.300000
100
AcDbArc
50
89.999999
51
-179.999998
0
LINE
5
542
100
AcDbEntity
8
1
100
AcDbLine
6
CONTINUOUS
62
5
10
129.849965
20
-208.049986
11
129.849965
21
-217.949986
0
ARC
5
543
100
AcDbEntity
8
1
100
AcDbCircle
6
CONTINUOUS
62
5
10
130.949965
20
-220.199986
40
0.300000
100
AcDbArc
50
-89.999999
51
-0.000000
0
LINE
5
544
100
AcDbEntity
8
1
100
AcDbLine
6
CONTINUOUS
62
5
10
131.249965
20
-220.199986
11
131.249965
21
-205.299986
0
ARC
5
545
100
AcDbEntity
8
1
100
AcDbCircle
6
CONTINUOUS
62
5
10
130.949965
20
-205.299986
40
0.300000
100
AcDbArc
50
-0.000000
51
89.999999
0
POLYLINE
5
546
100
AcDbEntity
8
1
6
CONTINUOUS
62
5
100
AcDb2dPolyline
66
1
10
0.0
20
0.0
30
0.0
70
0
0
VERTEX
5
547
100
AcDbEntity
8
1
100
AcDbVertex
100
AcDb2dVertex
62
5
10
130.949965
20
-204.999986
0
VERTEX
5
548
100
AcDbEntity
8
1
100
AcDbVertex
100
AcDb2dVertex
62
5
10
129.849965
20
-204.999986
0
VERTEX
5
549
100
AcDbEntity
8
1
100
AcDbVertex
100
AcDb2dVertex
62
5
10
129.849965
20
-217.949986
0
SEQEND
5
54a
100
AcDbEntity
8
1
0
ARC
5
54b
100
AcDbEntity
8
1
100
AcDbCircle
6
CONTINUOUS
62
5
10
130.149965
20
-217.949986
40
0.300000
100
AcDbArc
50
179.999998
51
-89.999999
0
LINE
5
54c
100
AcDbEntity
8
1
100
AcDbLine
6
CONTINUOUS
62
5
10
130.149965
20
-220.499986
11
130.949965
21
-220.499986
0
ARC
5
54d
100
AcDbEntity
8
1
100
AcDbCircle
6
CONTINUOUS
62
5
10
129.150000
20
-203.599993
40
0.200000
100
AcDbArc
50
89.999999
51
179.999998
0
LINE
5
54e
100
AcDbEntity
8
1
100
AcDbLine
6
CONTINUOUS
62
5
10
128.950000
20
-203.599993
11
128.950000
21
-206.999986
0
ARC
5
54f
100
AcDbEntity
8
1
100
AcDbCircle
6
CONTINUOUS
62
5
10
128.450000
20
-206.999986
40
0.500000
100
AcDbArc
50
-89.999999
51
0.000000
0
POLYLINE
5
550
100
AcDbEntity
8
1
6
CONTINUOUS
62
5
100
AcDb2dPolyline
66
1
10
0.0
20
0.0
30
0.0
70
0
0
VERTEX
5
551
100
AcDbEntity
8
1
100
AcDbVertex
100
AcDb2dVertex
62
5
10
128.450000
20
-207.499986
0
VERTEX
5
552
100
AcDbEntity
8
1
100
AcDbVertex
100
AcDb2dVertex
62
5
10
128.450000
20
-207.499986
0
VERTEX
5
553
100
AcDbEntity
8
1
100
AcDbVertex
100
AcDb2dVertex
62
5
10
128.450000
20
-207.599986
0
VERTEX
5
554
100
AcDbEntity
8
1
100
AcDbVertex
100
AcDb2dVertex
62
5
10
128.450000
20
-218.499986
0
VERTEX
5
555
100
AcDbEntity
8
1
100
AcDbVertex
100
AcDb2dVertex
62
5
10
128.450000
20
-218.499986
0
SEQEND
5
556
100
AcDbEntity
8
1
0
ARC
5
557
100
AcDbEntity
8
1
100
AcDbCircle
6
CONTINUOUS
62
5
10
128.450000
20
-218.999986
40
0.500000
100
AcDbArc
50
0.000000
51
89.999999
0
LINE
5
558
100
AcDbEntity
8
1
100
AcDbLine
6
CONTINUOUS
62
5
10
128.950000
20
-218.999986
11
128.950000
21
-222.400002
0
ARC
5
559
100
AcDbEntity
8
1
100
AcDbCircle
6
CONTINUOUS
62
5
10
129.150000
20
-222.400002
40
0.200000
100
AcDbArc
50
179.999998
51
-89.999999
0
LINE
5
55a
100
AcDbEntity
8
1
100
AcDbLine
6
CONTINUOUS
62
5
10
129.150000
20
-222.600002
11
132.850000
21
-222.600002
0
ARC
5
55b
100
AcDbEntity
8
1
100
AcDbCircle
6
CONTINUOUS
62
5
10
132.850000
20
-222.400002
40
0.200000
100
AcDbArc
50
-89.999999
51
0.000000
0
LINE
5
55c
100
AcDbEntity
8
1
100
AcDbLine
6
CONTINUOUS
62
5
10
133.050000
20
-222.400002
11
133.050000
21
-203.599993
0
ARC
5
55d
100
AcDbEntity
8
1
100
AcDbCircle
6
CONTINUOUS
62
5
10
132.850000
20
-203.599993
40
0.200000
100
AcDbArc
50
0.000000
51
89.999999
0
POLYLINE
5
55e
100
AcDbEntity
8
1
6
CONTINUOUS
62
5
100
AcDb2dPolyline
66
1
10
0.0
20
0.0
30
0.0
70
0
0
VERTEX
5
55f
100
AcDbEntity
8
1
100
AcDbVertex
100
AcDb2dVertex
62
5
10
132.850000
20
-203.399993
0
VERTEX
5
560
100
AcDbEntity
8
1
100
AcDbVertex
100
AcDb2dVertex
62
5
10
131.900000
20
-203.399993
0
VERTEX
5
561
100
AcDbEntity
8
1
100
AcDbVertex
100
AcDb2dVertex
62
5
10
129.150000
20
-203.399993
0
SEQEND
5
562
100
AcDbEntity
8
1
0
ARC
5
563
100
AcDbEntity
8
1
100
AcDbCircle
6
CONTINUOUS
62
5
10
128.550000
20
-206.999986
40
0.500000
100
AcDbArc
50
-89.999999
51
0.000000
0
POLYLINE
5
564
100
AcDbEntity
8
1
6
CONTINUOUS
62
5
100
AcDb2dPolyline
66
1
10
0.0
20
0.0
30
0.0
70
0
0
VERTEX
5
565
100
AcDbEntity
8
1
100
AcDbVertex
100
AcDb2dVertex
62
5
10
128.550000
20
-207.499986
0
VERTEX
5
566
100
AcDbEntity
8
1
100
AcDbVertex
100
AcDb2dVertex
62
5
10
128.550000
20
-207.499986
0
VERTEX
5
567
100
AcDbEntity
8
1
100
AcDbVertex
100
AcDb2dVertex
62
5
10
128.550000
20
-218.499986
0
VERTEX
5
568
100
AcDbEntity
8
1
100
AcDbVertex
100
AcDb2dVertex
62
5
10
128.550000
20
-218.499986
0
SEQEND
5
569
100
AcDbEntity
8
1
0
ARC
5
56a
100
AcDbEntity
8
1
100
AcDbCircle
6
CONTINUOUS
62
5
10
128.550000
20
-218.999986
40
0.500000
100
AcDbArc
50
0.000000
51
89.999999
0
LINE
5
56b
100
AcDbEntity
8
1
100
AcDbLine
6
CONTINUOUS
62
5
10
129.050000
20
-218.999986
11
129.050000
21
-222.300002
0
ARC
5
56c
100
AcDbEntity
8
1
100
AcDbCircle
6
CONTINUOUS
62
5
10
129.250000
20
-222.300002
40
0.200000
100
AcDbArc
50
179.999998
51
-89.999999
0
LINE
5
56d
100
AcDbEntity
8
1
100
AcDbLine
6
CONTINUOUS
62
5
10
129.250000
20
-222.500002
11
132.750000
21
-222.500002
0
ARC
5
56e
100
AcDbEntity
8
1
100
AcDbCircle
6
CONTINUOUS
62
5
10
132.750000
20
-222.300002
40
0.200000
100
AcDbArc
50
-89.999999
51
0.000000
0
LINE
5
56f
100
AcDbEntity
8
1
100
AcDbLine
6
CONTINUOUS
62
5
10
132.950000
20
-222.300002
11
132.950000
21
-203.699993
0
ARC
5
570
100
AcDbEntity
8
1
100
AcDbCircle
6
CONTINUOUS
62
5
10
132.750000
20
-203.699993
40
0.200000
100
AcDbArc
50
0.000000
51
89.999999
0
POLYLINE
5
571
100
AcDbEntity
8
1
6
CONTINUOUS
62
5
100
AcDb2dPolyline
66
1
10
0.0
20
0.0
30
0.0
70
0
0
VERTEX
5
572
100
AcDbEntity
8
1
100
AcDbVertex
100
AcDb2dVertex
62
5
10
132.750000
20
-203.499993
0
VERTEX
5
573
100
AcDbEntity
8
1
100
AcDbVertex
100
AcDb2dVertex
62
5
10
131.900000
20
-203.499993
0
VERTEX
5
574
100
AcDbEntity
8
1
100
AcDbVertex
100
AcDb2dVertex
62
5
10
129.250000
20
-203.499993
0
SEQEND
5
575
100
AcDbEntity
8
1
0
ARC
5
576
100
AcDbEntity
8
1
100
AcDbCircle
6
CONTINUOUS
62
5
10
129.250000
20
-203.699993
40
0.200000
100
AcDbArc
50
89.999999
51
179.999998
0
LINE
5
577
100
AcDbEntity
8
1
100
AcDbLine
6
CONTINUOUS
62
5
10
129.050000
20
-203.699993
11
129.050000
21
-206.999986
0
ARC
5
578
100
AcDbEntity
8
1
100
AcDbCircle
6
CONTINUOUS
62
5
10
130.349965
20
-208.049986
40
0.300000
100
AcDbArc
50
89.999999
51
-179.999998
0
LINE
5
579
100
AcDbEntity
8
1
100
AcDbLine
6
CONTINUOUS
62
5
10
130.049965
20
-208.049986
11
130.049965
21
-217.949986
0
ARC
5
57a
100
AcDbEntity
8
1
100
AcDbCircle
6
CONTINUOUS
62
5
10
130.349965
20
-217.949986
40
0.300000
100
AcDbArc
50
-179.999998
51
-89.999999
0
LINE
5
57b
100
AcDbEntity
8
1
100
AcDbLine
6
CONTINUOUS
62
5
10
130.349965
20
-218.249986
11
130.849965
21
-218.249986
0
ARC
5
57c
100
AcDbEntity
8
1
100
AcDbCircle
6
CONTINUOUS
62
5
10
130.849965
20
-217.949986
40
0.300000
100
AcDbArc
50
-89.999999
51
-0.000000
0
LINE
5
57d
100
AcDbEntity
8
1
100
AcDbLine
6
CONTINUOUS
62
5
10
131.149965
20
-217.949986
11
131.149965
21
-208.049986
0
ARC
5
57e
100
AcDbEntity
8
1
100
AcDbCircle
6
CONTINUOUS
62
5
10
130.849965
20
-208.049986
40
0.300000
100
AcDbArc
50
0.000000
51
89.999999
0
LINE
5
57f
100
AcDbEntity
8
1
100
AcDbLine
6
CONTINUOUS
62
5
10
130.849965
20
-207.749986
11
130.349965
21
-207.749986
0
LINE
5
580
100
AcDbEntity
8
1
100
AcDbLine
6
CONTINUOUS
62
5
10
131.900000
20
-204.499986
11
131.900000
21
-220.999986
0
ARC
5
581
100
AcDbEntity
8
1
100
AcDbCircle
6
CONTINUOUS
62
5
10
197.050000
20
-236.499986
40
1.000000
100
AcDbArc
50
179.999998
51
-89.999999
0
LINE
5
582
100
AcDbEntity
8
1
100
AcDbLine
6
CONTINUOUS
62
5
10
201.850000
20
-237.499986
11
197.050000
21
-237.499986
0
ARC
5
583
100
AcDbEntity
8
1
100
AcDbCircle
6
CONTINUOUS
62
5
10
84.207143
20
-171.949986
40
0.300000
100
AcDbArc
50
179.999998
51
-89.999999
0
LINE
5
584
100
AcDbEntity
8
1
100
AcDbLine
6
CONTINUOUS
62
5
10
83.907143
20
-171.949986
11
83.964286
21
-171.199753
0
LINE
5
585
100
AcDbEntity
8
1
100
AcDbLine
6
CONTINUOUS
62
5
10
85.190616
20
-171.199753
11
85.217694
21
-171.949986
0
ARC
5
586
100
AcDbEntity
8
1
100
AcDbCircle
6
CONTINUOUS
62
5
10
84.917694
20
-171.949986
40
0.300000
100
AcDbArc
50
-89.999999
51
0.000000
0
LINE
5
587
100
AcDbEntity
8
1
100
AcDbLine
6
CONTINUOUS
62
5
10
84.917694
20
-172.249986
11
84.207143
21
-172.249986
0
LINE
5
588
100
AcDbEntity
8
1
100
AcDbLine
6
CONTINUOUS
62
5
10
87.849997
20
-171.750000
11
87.849997
21
-175.749980
0
LINE
5
589
100
AcDbEntity
8
1
100
AcDbLine
6
CONTINUOUS
62
5
10
86.650000
20
-172.250000
11
86.650000
21
-175.249980
0
ARC
5
58a
100
AcDbEntity
8
1
100
AcDbCircle
6
CONTINUOUS
62
5
10
85.350000
20
-181.000751
40
0.500000
100
AcDbArc
50
-89.912316
51
0.000000
0
LINE
5
58b
100
AcDbEntity
8
1
100
AcDbLine
6
CONTINUOUS
62
5
10
84.683312
20
-181.501772
11
85.350765
21
-181.500750
0
ARC
5
58c
100
AcDbEntity
8
1
100
AcDbCircle
6
CONTINUOUS
62
5
10
85.350000
20
-175.999222
40
0.500000
100
AcDbArc
50
0.000000
51
89.912316
0
LINE
5
58d
100
AcDbEntity
8
1
100
AcDbLine
6
CONTINUOUS
62
5
10
84.683312
20
-175.498201
11
85.350765
21
-175.499222
0
ARC
5
58e
100
AcDbEntity
8
1
100
AcDbCircle
6
CONTINUOUS
62
5
10
84.183312
20
-181.501772
40
0.500000
100
AcDbArc
50
-85.156528
51
-0.000000
0
LINE
5
58f
100
AcDbEntity
8
1
100
AcDbLine
6
CONTINUOUS
62
5
10
84.683312
20
-180.499986
11
84.683312
21
-181.501772
0
ARC
5
590
100
AcDbEntity
8
1
100
AcDbCircle
6
CONTINUOUS
62
5
10
84.183312
20
-175.498201
40
0.500000
100
AcDbArc
50
0.000000
51
85.156528
0
LINE
5
591
100
AcDbEntity
8
1
100
AcDbLine
6
CONTINUOUS
62
5
10
84.683312
20
-176.499986
11
84.683312
21
-175.498201
0
ARC
5
592
100
AcDbEntity
8
1
100
AcDbCircle
6
CONTINUOUS
62
5
10
85.350000
20
-181.499986
40
0.500000
100
AcDbArc
50
-89.999999
51
0.000000
0
LINE
5
593
100
AcDbEntity
8
1
100
AcDbLine
6
CONTINUOUS
62
5
10
85.350000
20
-181.999986
11
84.949965
21
-181.999986
0
LINE
5
594
100
AcDbEntity
8
1
100
AcDbLine
6
CONTINUOUS
62
5
10
85.850000
20
-181.000751
11
85.850000
21
-181.499986
0
ARC
5
595
100
AcDbEntity
8
1
100
AcDbCircle
6
CONTINUOUS
62
5
10
85.350000
20
-175.499986
40
0.500000
100
AcDbArc
50
-0.000000
51
89.999999
0
LINE
5
596
100
AcDbEntity
8
1
100
AcDbLine
6
CONTINUOUS
62
5
10
85.350000
20
-174.999986
11
84.949965
21
-174.999986
0
LINE
5
597
100
AcDbEntity
8
1
100
AcDbLine
6
CONTINUOUS
62
5
10
85.850000
20
-175.999222
11
85.850000
21
-175.499986
0
LINE
5
598
100
AcDbEntity
8
1
100
AcDbLine
6
CONTINUOUS
62
5
10
82.550000
20
-184.499986
11
82.450000
21
-184.499986
0
LINE
5
599
100
AcDbEntity
8
1
100
AcDbLine
6
CONTINUOUS
62
5
10
82.550000
20
-172.499986
11
82.450000
21
-172.499986
0
LINE
5
59a
100
AcDbEntity
8
1
100
AcDbLine
6
CONTINUOUS
62
5
10
89.150000
20
-184.499986
11
89.250000
21
-184.499986
0
LINE
5
59b
100
AcDbEntity
8
1
100
AcDbLine
6
CONTINUOUS
62
5
10
89.150000
20
-172.499986
11
89.250000
21
-172.499986
0
ARC
5
59c
100
AcDbEntity
8
1
100
AcDbCircle
6
CONTINUOUS
62
5
10
87.349997
20
-181.249993
40
0.500000
100
AcDbArc
50
-89.999999
51
0.000000
0
POLYLINE
5
59d
100
AcDbEntity
8
1
6
CONTINUOUS
62
5
100
AcDb2dPolyline
66
1
10
0.0
20
0.0
30
0.0
70
0
0
VERTEX
5
59e
100
AcDbEntity
8
1
100
AcDbVertex
100
AcDb2dVertex
62
5
10
87.349997
20
-181.749993
0
VERTEX
5
59f
100
AcDbEntity
8
1
100
AcDbVertex
100
AcDb2dVertex
62
5
10
86.650000
20
-181.749993
0
VERTEX
5
5a0
100
AcDbEntity
8
1
100
AcDbVertex
100
AcDb2dVertex
62
5
10
86.650000
20
-180.499993
0
SEQEND
5
5a1
100
AcDbEntity
8
1
0
LINE
5
5a2
100
AcDbEntity
8
1
100
AcDbLine
6
CONTINUOUS
62
5
10
87.850000
20
-180.520148
11
87.849997
21
-181.150007
0
LINE
5
5a3
100
AcDbEntity
8
1
100
AcDbLine
6
CONTINUOUS
62
5
10
87.849997
20
-181.150007
11
87.849997
21
-181.249993
0
LINE
5
5a4
100
AcDbEntity
8
1
100
AcDbLine
6
CONTINUOUS
62
5
10
86.650000
20
-181.749993
11
86.650000
21
-184.749986
0
LINE
5
5a5
100
AcDbEntity
8
1
100
AcDbLine
6
CONTINUOUS
62
5
10
87.849997
20
-181.249993
11
87.849997
21
-185.249577
0
ARC
5
5a6
100
AcDbEntity
8
1
100
AcDbCircle
6
CONTINUOUS
62
5
10
87.349997
20
-175.749980
40
0.500000
100
AcDbArc
50
0.000000
51
89.999999
0
POLYLINE
5
5a7
100
AcDbEntity
8
1
6
CONTINUOUS
62
5
100
AcDb2dPolyline
66
1
10
0.0
20
0.0
30
0.0
70
0
0
VERTEX
5
5a8
100
AcDbEntity
8
1
100
AcDbVertex
100
AcDb2dVertex
62
5
10
87.349997
20
-175.249980
0
VERTEX
5
5a9
100
AcDbEntity
8
1
100
AcDbVertex
100
AcDb2dVertex
62
5
10
86.650000
20
-175.249980
0
VERTEX
5
5aa
100
AcDbEntity
8
1
100
AcDbVertex
100
AcDb2dVertex
62
5
10
86.650000
20
-176.499979
0
SEQEND
5
5ab
100
AcDbEntity
8
1
0
LINE
5
5ac
100
AcDbEntity
8
1
100
AcDbLine
6
CONTINUOUS
62
5
10
87.849833
20
-176.499979
11
87.849997
21
-175.849965
0
LINE
5
5ad
100
AcDbEntity
8
1
100
AcDbLine
6
CONTINUOUS
62
5
10
87.849997
20
-175.849965
11
87.849997
21
-175.749980
0
LINE
5
5ae
100
AcDbEntity
8
1
100
AcDbLine
6
CONTINUOUS
62
5
10
92.450000
20
-181.999986
11
92.050000
21
-181.599986
0
LINE
5
5af
100
AcDbEntity
8
1
100
AcDbLine
6
CONTINUOUS
62
5
10
92.450000
20
-174.999986
11
92.050000
21
-175.399986
0
ARC
5
5b0
100
AcDbEntity
8
1
100
AcDbCircle
6
CONTINUOUS
62
5
10
84.890616
20
-171.199753
40
0.300000
100
AcDbArc
50
-89.999999
51
0.000000
0
LINE
5
5b1
100
AcDbEntity
8
1
100
AcDbLine
6
CONTINUOUS
62
5
10
84.890616
20
-171.499753
11
84.264286
21
-171.499753
0
ARC
5
5b2
100
AcDbEntity
8
1
100
AcDbCircle
6
CONTINUOUS
62
5
10
84.264286
20
-171.199753
40
0.300000
100
AcDbArc
50
179.999998
51
-89.999999
0
ARC
5
5b3
100
AcDbEntity
8
1
100
AcDbCircle
6
CONTINUOUS
62
5
10
87.349997
20
-170.999761
40
0.500000
100
AcDbArc
50
-89.999999
51
0.000000
0
LINE
5
5b4
100
AcDbEntity
8
1
100
AcDbLine
6
CONTINUOUS
62
5
10
87.849997
20
-170.999761
11
87.849997
21
-171.197520
0
LINE
5
5b5
100
AcDbEntity
8
1
100
AcDbLine
6
CONTINUOUS
62
5
10
86.650000
20
-171.499753
11
87.349997
21
-171.499761
0
POLYLINE
5
5b6
100
AcDbEntity
8
1
6
CONTINUOUS
62
5
100
AcDb2dPolyline
66
1
10
0.0
20
0.0
30
0.0
70
0
0
VERTEX
5
5b7
100
AcDbEntity
8
1
100
AcDbVertex
100
AcDb2dVertex
62
5
10
83.849965
20
-185.499986
0
VERTEX
5
5b8
100
AcDbEntity
8
1
100
AcDbVertex
100
AcDb2dVertex
62
5
10
83.050000
20
-185.499986
0
VERTEX
5
5b9
100
AcDbEntity
8
1
100
AcDbVertex
100
AcDb2dVertex
62
5
10
83.050000
20
-187.499986
0
VERTEX
5
5ba
100
AcDbEntity
8
1
100
AcDbVertex
100
AcDb2dVertex
62
5
10
83.849965
20
-187.499986
0
SEQEND
5
5bb
100
AcDbEntity
8
1
0
LINE
5
5bc
100
AcDbEntity
8
1
100
AcDbLine
6
CONTINUOUS
62
5
10
83.250000
20
-185.499986
11
83.250000
21
-187.499986
0
POLYLINE
5
5bd
100
AcDbEntity
8
1
6
CONTINUOUS
62
5
100
AcDb2dPolyline
66
1
10
0.0
20
0.0
30
0.0
70
0
0
VERTEX
5
5be
100
AcDbEntity
8
1
100
AcDbVertex
100
AcDb2dVertex
62
5
10
87.850000
20
-185.499970
0
VERTEX
5
5bf
100
AcDbEntity
8
1
100
AcDbVertex
100
AcDb2dVertex
62
5
10
88.650001
20
-185.501033
0
VERTEX
5
5c0
100
AcDbEntity
8
1
100
AcDbVertex
100
AcDb2dVertex
62
5
10
88.650004
20
-188.000972
0
VERTEX
5
5c1
100
AcDbEntity
8
1
100
AcDbVertex
100
AcDb2dVertex
62
5
10
87.850000
20
-187.999972
0
SEQEND
5
5c2
100
AcDbEntity
8
1
0
LINE
5
5c3
100
AcDbEntity
8
1
100
AcDbLine
6
CONTINUOUS
62
5
10
88.449984
20
-185.500767
11
88.449981
21
-188.000722
0
ARC
5
5c4
100
AcDbEntity
8
1
100
AcDbCircle
6
CONTINUOUS
62
5
10
85.350000
20
-204.000751
40
0.500000
100
AcDbArc
50
-89.912316
51
0.000000
0
LINE
5
5c5
100
AcDbEntity
8
1
100
AcDbLine
6
CONTINUOUS
62
5
10
84.683312
20
-204.501772
11
85.350765
21
-204.500750
0
ARC
5
5c6
100
AcDbEntity
8
1
100
AcDbCircle
6
CONTINUOUS
62
5
10
85.350000
20
-198.999986
40
0.500000
100
AcDbArc
50
0.000000
51
89.999999
0
LINE
5
5c7
100
AcDbEntity
8
1
100
AcDbLine
6
CONTINUOUS
62
5
10
84.683312
20
-198.499986
11
85.350000
21
-198.499986
0
ARC
5
5c8
100
AcDbEntity
8
1
100
AcDbCircle
6
CONTINUOUS
62
5
10
84.183312
20
-198.499986
40
0.500000
100
AcDbArc
50
0.000000
51
89.999999
0
LINE
5
5c9
100
AcDbEntity
8
1
100
AcDbLine
6
CONTINUOUS
62
5
10
84.183312
20
-197.999986
11
83.849965
21
-197.999986
0
LINE
5
5ca
100
AcDbEntity
8
1
100
AcDbLine
6
CONTINUOUS
62
5
10
84.683312
20
-199.500002
11
84.683312
21
-198.499986
0
ARC
5
5cb
100
AcDbEntity
8
1
100
AcDbCircle
6
CONTINUOUS
62
5
10
84.183312
20
-204.501772
40
0.500000
100
AcDbArc
50
-85.156528
51
-0.000000
0
LINE
5
5cc
100
AcDbEntity
8
1
100
AcDbLine
6
CONTINUOUS
62
5
10
84.683312
20
-203.499986
11
84.683312
21
-204.501772
0
ARC
5
5cd
100
AcDbEntity
8
1
100
AcDbCircle
6
CONTINUOUS
62
5
10
85.350000
20
-204.499986
40
0.500000
100
AcDbArc
50
-89.999999
51
0.000000
0
LINE
5
5ce
100
AcDbEntity
8
1
100
AcDbLine
6
CONTINUOUS
62
5
10
85.350000
20
-204.999986
11
84.949965
21
-204.999986
0
LINE
5
5cf
100
AcDbEntity
8
1
100
AcDbLine
6
CONTINUOUS
62
5
10
85.850000
20
-204.000751
11
85.850000
21
-204.499986
0
ARC
5
5d0
100
AcDbEntity
8
1
100
AcDbCircle
6
CONTINUOUS
62
5
10
85.350000
20
-198.499986
40
0.500000
100
AcDbArc
50
-0.000000
51
89.999999
0
LINE
5
5d1
100
AcDbEntity
8
1
100
AcDbLine
6
CONTINUOUS
62
5
10
85.350000
20
-197.999986
11
84.949965
21
-197.999986
0
LINE
5
5d2
100
AcDbEntity
8
1
100
AcDbLine
6
CONTINUOUS
62
5
10
85.850000
20
-198.999986
11
85.850000
21
-198.499986
0
POLYLINE
5
5d3
100
AcDbEntity
8
1
6
CONTINUOUS
62
5
100
AcDb2dPolyline
66
1
10
0.0
20
0.0
30
0.0
70
0
0
VERTEX
5
5d4
100
AcDbEntity
8
1
100
AcDbVertex
100
AcDb2dVertex
62
5
10
83.849965
20
-192.499986
0
VERTEX
5
5d5
100
AcDbEntity
8
1
100
AcDbVertex
100
AcDb2dVertex
62
5
10
83.050000
20
-192.499986
0
VERTEX
5
5d6
100
AcDbEntity
8
1
100
AcDbVertex
100
AcDb2dVertex
62
5
10
83.050000
20
-194.499986
0
VERTEX
5
5d7
100
AcDbEntity
8
1
100
AcDbVertex
100
AcDb2dVertex
62
5
10
83.849965
20
-194.499986
0
SEQEND
5
5d8
100
AcDbEntity
8
1
0
LINE
5
5d9
100
AcDbEntity
8
1
100
AcDbLine
6
CONTINUOUS
62
5
10
82.550000
20
-207.499986
11
82.450000
21
-207.499986
0
LINE
5
5da
100
AcDbEntity
8
1
100
AcDbLine
6
CONTINUOUS
62
5
10
82.450000
20
-195.499986
11
82.550000
21
-195.499986
0
LINE
5
5db
100
AcDbEntity
8
1
100
AcDbLine
6
CONTINUOUS
62
5
10
83.250000
20
-192.499986
11
83.250000
21
-194.499986
0
LINE
5
5dc
100
AcDbEntity
8
1
100
AcDbLine
6
CONTINUOUS
62
5
10
89.150000
20
-207.499986
11
89.250000
21
-207.499986
0
LINE
5
5dd
100
AcDbEntity
8
1
100
AcDbLine
6
CONTINUOUS
62
5
10
89.150000
20
-195.499986
11
89.250000
21
-195.499986
0
POLYLINE
5
5de
100
AcDbEntity
8
1
6
CONTINUOUS
62
5
100
AcDb2dPolyline
66
1
10
0.0
20
0.0
30
0.0
70
0
0
VERTEX
5
5df
100
AcDbEntity
8
1
100
AcDbVertex
100
AcDb2dVertex
62
5
10
87.850002
20
-191.999974
0
VERTEX
5
5e0
100
AcDbEntity
8
1
100
AcDbVertex
100
AcDb2dVertex
62
5
10
88.650003
20
-192.001037
0
VERTEX
5
5e1
100
AcDbEntity
8
1
100
AcDbVertex
100
AcDb2dVertex
62
5
10
88.650006
20
-194.500976
0
VERTEX
5
5e2
100
AcDbEntity
8
1
100
AcDbVertex
100
AcDb2dVertex
62
5
10
87.850002
20
-194.499976
0
SEQEND
5
5e3
100
AcDbEntity
8
1
0
ARC
5
5e4
100
AcDbEntity
8
1
100
AcDbCircle
6
CONTINUOUS
62
5
10
87.349997
20
-198.749980
40
0.500000
100
AcDbArc
50
0.000000
51
89.999999
0
POLYLINE
5
5e5
100
AcDbEntity
8
1
6
CONTINUOUS
62
5
100
AcDb2dPolyline
66
1
10
0.0
20
0.0
30
0.0
70
0
0
VERTEX
5
5e6
100
AcDbEntity
8
1
100
AcDbVertex
100
AcDb2dVertex
62
5
10
87.349997
20
-198.249980
0
VERTEX
5
5e7
100
AcDbEntity
8
1
100
AcDbVertex
100
AcDb2dVertex
62
5
10
86.650000
20
-198.249980
0
VERTEX
5
5e8
100
AcDbEntity
8
1
100
AcDbVertex
100
AcDb2dVertex
62
5
10
86.650000
20
-199.500002
0
SEQEND
5
5e9
100
AcDbEntity
8
1
0
LINE
5
5ea
100
AcDbEntity
8
1
100
AcDbLine
6
CONTINUOUS
62
5
10
87.850000
20
-199.479847
11
87.849997
21
-198.749980
0
ARC
5
5eb
100
AcDbEntity
8
1
100
AcDbCircle
6
CONTINUOUS
62
5
10
87.349997
20
-204.249993
40
0.500000
100
AcDbArc
50
-89.999999
51
0.000000
0
POLYLINE
5
5ec
100
AcDbEntity
8
1
6
CONTINUOUS
62
5
100
AcDb2dPolyline
66
1
10
0.0
20
0.0
30
0.0
70
0
0
VERTEX
5
5ed
100
AcDbEntity
8
1
100
AcDbVertex
100
AcDb2dVertex
62
5
10
87.349997
20
-204.749993
0
VERTEX
5
5ee
100
AcDbEntity
8
1
100
AcDbVertex
100
AcDb2dVertex
62
5
10
86.650000
20
-204.749993
0
VERTEX
5
5ef
100
AcDbEntity
8
1
100
AcDbVertex
100
AcDb2dVertex
62
5
10
86.650000
20
-203.499993
0
SEQEND
5
5f0
100
AcDbEntity
8
1
0
LINE
5
5f1
100
AcDbEntity
8
1
100
AcDbLine
6
CONTINUOUS
62
5
10
87.849931
20
-203.499993
11
87.849997
21
-204.249993
0
LINE
5
5f2
100
AcDbEntity
8
1
100
AcDbLine
6
CONTINUOUS
62
5
10
86.650000
20
-204.749993
11
86.650000
21
-207.749986
0
LINE
5
5f3
100
AcDbEntity
8
1
100
AcDbLine
6
CONTINUOUS
62
5
10
87.849997
20
-204.249993
11
87.849997
21
-208.249972
0
ARC
5
5f4
100
AcDbEntity
8
1
100
AcDbCircle
6
CONTINUOUS
62
5
10
87.349996
20
-198.749980
40
0.500000
100
AcDbArc
50
0.000000
51
89.999999
0
LINE
5
5f5
100
AcDbEntity
8
1
100
AcDbLine
6
CONTINUOUS
62
5
10
87.849996
20
-198.749980
11
87.849996
21
-198.749972
0
LINE
5
5f6
100
AcDbEntity
8
1
100
AcDbLine
6
CONTINUOUS
62
5
10
86.650000
20
-198.249980
11
87.349996
21
-198.249980
0
LINE
5
5f7
100
AcDbEntity
8
1
100
AcDbLine
6
CONTINUOUS
62
5
10
87.849997
20
-194.750704
11
87.849997
21
-198.749153
0
LINE
5
5f8
100
AcDbEntity
8
1
100
AcDbLine
6
CONTINUOUS
62
5
10
86.650000
20
-195.249986
11
86.650000
21
-198.249980
0
LINE
5
5f9
100
AcDbEntity
8
1
100
AcDbLine
6
CONTINUOUS
62
5
10
88.449978
20
-192.000771
11
88.449975
21
-194.500726
0
LINE
5
5fa
100
AcDbEntity
8
1
100
AcDbLine
6
CONTINUOUS
62
5
10
92.050000
20
-204.599986
11
92.450000
21
-204.999986
0
LINE
5
5fb
100
AcDbEntity
8
1
100
AcDbLine
6
CONTINUOUS
62
5
10
92.450000
20
-197.999986
11
92.050000
21
-198.399986
0
ARC
5
5fc
100
AcDbEntity
8
1
100
AcDbCircle
6
CONTINUOUS
62
5
10
84.207143
20
-208.049986
40
0.300000
100
AcDbArc
50
89.999999
51
179.999998
0
LINE
5
5fd
100
AcDbEntity
8
1
100
AcDbLine
6
CONTINUOUS
62
5
10
83.907143
20
-208.049986
11
83.964286
21
-208.800220
0
LINE
5
5fe
100
AcDbEntity
8
1
100
AcDbLine
6
CONTINUOUS
62
5
10
85.190616
20
-208.800220
11
85.217694
21
-208.049986
0
ARC
5
5ff
100
AcDbEntity
8
1
100
AcDbCircle
6
CONTINUOUS
62
5
10
84.917694
20
-208.049986
40
0.300000
100
AcDbArc
50
-0.000000
51
89.999999
0
LINE
5
600
100
AcDbEntity
8
1
100
AcDbLine
6
CONTINUOUS
62
5
10
84.917694
20
-207.749986
11
84.207143
21
-207.749986
0
ARC
5
601
100
AcDbEntity
8
1
100
AcDbCircle
6
CONTINUOUS
62
5
10
84.890616
20
-208.800220
40
0.300000
100
AcDbArc
50
-0.000000
51
89.999999
0
LINE
5
602
100
AcDbEntity
8
1
100
AcDbLine
6
CONTINUOUS
62
5
10
84.890616
20
-208.500220
11
84.264286
21
-208.500220
0
ARC
5
603
100
AcDbEntity
8
1
100
AcDbCircle
6
CONTINUOUS
62
5
10
84.264286
20
-208.800220
40
0.300000
100
AcDbArc
50
89.999999
51
179.999998
0
ARC
5
604
100
AcDbEntity
8
1
100
AcDbCircle
6
CONTINUOUS
62
5
10
87.349997
20
-209.000151
40
0.500000
100
AcDbArc
50
0.000000
51
89.999999
0
LINE
5
605
100
AcDbEntity
8
1
100
AcDbLine
6
CONTINUOUS
62
5
10
86.650000
20
-208.500151
11
87.349997
21
-208.500151
0
LINE
5
606
100
AcDbEntity
8
1
100
AcDbLine
6
CONTINUOUS
62
5
10
88.449962
20
-208.500767
11
88.449960
21
-211.000722
0
POLYLINE
5
607
100
AcDbEntity
8
1
6
CONTINUOUS
62
5
100
AcDb2dPolyline
66
1
10
0.0
20
0.0
30
0.0
70
0
0
VERTEX
5
608
100
AcDbEntity
8
1
100
AcDbVertex
100
AcDb2dVertex
62
5
10
87.850000
20
-208.499970
0
VERTEX
5
609
100
AcDbEntity
8
1
100
AcDbVertex
100
AcDb2dVertex
62
5
10
88.650001
20
-208.501033
0
VERTEX
5
60a
100
AcDbEntity
8
1
100
AcDbVertex
100
AcDb2dVertex
62
5
10
88.650004
20
-211.000972
0
VERTEX
5
60b
100
AcDbEntity
8
1
100
AcDbVertex
100
AcDb2dVertex
62
5
10
87.850000
20
-210.999972
0
SEQEND
5
60c
100
AcDbEntity
8
1
0
LINE
5
60d
100
AcDbEntity
8
1
100
AcDbLine
6
CONTINUOUS
62
5
10
83.250000
20
-208.499986
11
83.250000
21
-210.499986
0
POLYLINE
5
60e
100
AcDbEntity
8
1
6
CONTINUOUS
62
5
100
AcDb2dPolyline
66
1
10
0.0
20
0.0
30
0.0
70
0
0
VERTEX
5
60f
100
AcDbEntity
8
1
100
AcDbVertex
100
AcDb2dVertex
62
5
10
83.849965
20
-208.499986
0
VERTEX
5
610
100
AcDbEntity
8
1
100
AcDbVertex
100
AcDb2dVertex
62
5
10
83.050000
20
-208.499986
0
VERTEX
5
611
100
AcDbEntity
8
1
100
AcDbVertex
100
AcDb2dVertex
62
5
10
83.050000
20
-210.499986
0
VERTEX
5
612
100
AcDbEntity
8
1
100
AcDbVertex
100
AcDb2dVertex
62
5
10
83.849965
20
-210.499986
0
SEQEND
5
613
100
AcDbEntity
8
1
0
ARC
5
614
100
AcDbEntity
8
1
100
AcDbCircle
6
CONTINUOUS
62
5
10
89.250239
20
-183.999986
40
0.500000
100
AcDbArc
50
179.999998
51
-89.999999
0
LINE
5
615
100
AcDbEntity
8
1
100
AcDbLine
6
CONTINUOUS
62
5
10
89.250239
20
-184.499986
11
89.250239
21
-195.499986
0
ARC
5
616
100
AcDbEntity
8
1
100
AcDbCircle
6
CONTINUOUS
62
5
10
89.249707
20
-195.999454
40
0.499469
100
AcDbArc
50
89.939000
51
-179.938999
0
LINE
5
617
100
AcDbEntity
8
1
100
AcDbLine
6
CONTINUOUS
62
5
10
88.750239
20
-195.999986
11
88.750239
21
-199.400002
0
ARC
5
618
100
AcDbEntity
8
1
100
AcDbCircle
6
CONTINUOUS
62
5
10
88.550239
20
-199.400002
40
0.200000
100
AcDbArc
50
-89.999999
51
0.000000
0
LINE
5
619
100
AcDbEntity
8
1
100
AcDbLine
6
CONTINUOUS
62
5
10
88.550239
20
-199.600002
11
83.150000
21
-199.600002
0
ARC
5
61a
100
AcDbEntity
8
1
100
AcDbCircle
6
CONTINUOUS
62
5
10
83.150000
20
-199.400002
40
0.200000
100
AcDbArc
50
179.999998
51
-89.999999
0
LINE
5
61b
100
AcDbEntity
8
1
100
AcDbLine
6
CONTINUOUS
62
5
10
82.950000
20
-199.400002
11
82.950000
21
-195.999986
0
ARC
5
61c
100
AcDbEntity
8
1
100
AcDbCircle
6
CONTINUOUS
62
5
10
82.450000
20
-195.999986
40
0.500000
100
AcDbArc
50
0.000000
51
89.999999
0
LINE
5
61d
100
AcDbEntity
8
1
100
AcDbLine
6
CONTINUOUS
62
5
10
82.450000
20
-195.499986
11
82.450000
21
-184.499986
0
ARC
5
61e
100
AcDbEntity
8
1
100
AcDbCircle
6
CONTINUOUS
62
5
10
82.450000
20
-183.999986
40
0.500000
100
AcDbArc
50
-89.999999
51
0.000000
0
LINE
5
61f
100
AcDbEntity
8
1
100
AcDbLine
6
CONTINUOUS
62
5
10
82.950000
20
-183.999986
11
82.950000
21
-180.599993
0
ARC
5
620
100
AcDbEntity
8
1
100
AcDbCircle
6
CONTINUOUS
62
5
10
83.150000
20
-180.599993
40
0.200000
100
AcDbArc
50
89.999999
51
179.999998
0
LINE
5
621
100
AcDbEntity
8
1
100
AcDbLine
6
CONTINUOUS
62
5
10
83.150000
20
-180.399993
11
88.550239
21
-180.399993
0
ARC
5
622
100
AcDbEntity
8
1
100
AcDbCircle
6
CONTINUOUS
62
5
10
88.550239
20
-180.599993
40
0.200000
100
AcDbArc
50
0.000000
51
89.999999
0
LINE
5
623
100
AcDbEntity
8
1
100
AcDbLine
6
CONTINUOUS
62
5
10
88.750239
20
-180.599993
11
88.750239
21
-183.999986
0
ARC
5
624
100
AcDbEntity
8
1
100
AcDbCircle
6
CONTINUOUS
62
5
10
89.150000
20
-183.999986
40
0.500000
100
AcDbArc
50
-179.999998
51
-89.999999
0
LINE
5
625
100
AcDbEntity
8
1
100
AcDbLine
6
CONTINUOUS
62
5
10
89.150000
20
-184.499986
11
89.150239
21
-195.499986
0
ARC
5
626
100
AcDbEntity
8
1
100
AcDbCircle
6
CONTINUOUS
62
5
10
89.150239
20
-195.999986
40
0.500000
100
AcDbArc
50
89.999999
51
179.999998
0
LINE
5
627
100
AcDbEntity
8
1
100
AcDbLine
6
CONTINUOUS
62
5
10
88.650239
20
-195.999986
11
88.650239
21
-199.300002
0
ARC
5
628
100
AcDbEntity
8
1
100
AcDbCircle
6
CONTINUOUS
62
5
10
88.450239
20
-199.300002
40
0.200000
100
AcDbArc
50
-89.999999
51
0.000000
0
LINE
5
629
100
AcDbEntity
8
1
100
AcDbLine
6
CONTINUOUS
62
5
10
88.450239
20
-199.500002
11
83.250000
21
-199.500002
0
ARC
5
62a
100
AcDbEntity
8
1
100
AcDbCircle
6
CONTINUOUS
62
5
10
83.250000
20
-199.300002
40
0.200000
100
AcDbArc
50
179.999998
51
-89.999999
0
LINE
5
62b
100
AcDbEntity
8
1
100
AcDbLine
6
CONTINUOUS
62
5
10
83.050000
20
-199.300002
11
83.050000
21
-195.999986
0
ARC
5
62c
100
AcDbEntity
8
1
100
AcDbCircle
6
CONTINUOUS
62
5
10
82.550000
20
-195.999986
40
0.500000
100
AcDbArc
50
0.000000
51
89.999999
0
LINE
5
62d
100
AcDbEntity
8
1
100
AcDbLine
6
CONTINUOUS
62
5
10
82.550000
20
-195.499986
11
82.550000
21
-184.499986
0
ARC
5
62e
100
AcDbEntity
8
1
100
AcDbCircle
6
CONTINUOUS
62
5
10
82.550000
20
-183.999986
40
0.500000
100
AcDbArc
50
-89.999999
51
-0.000000
0
LINE
5
62f
100
AcDbEntity
8
1
100
AcDbLine
6
CONTINUOUS
62
5
10
83.050000
20
-183.999986
11
83.050000
21
-180.699993
0
ARC
5
630
100
AcDbEntity
8
1
100
AcDbCircle
6
CONTINUOUS
62
5
10
83.250000
20
-180.699993
40
0.200000
100
AcDbArc
50
89.999999
51
179.999998
0
LINE
5
631
100
AcDbEntity
8
1
100
AcDbLine
6
CONTINUOUS
62
5
10
83.250000
20
-180.499993
11
88.449997
21
-180.499993
0
ARC
5
632
100
AcDbEntity
8
1
100
AcDbCircle
6
CONTINUOUS
62
5
10
88.449997
20
-180.699993
40
0.200000
100
AcDbArc
50
0.000000
51
89.999999
0
LINE
5
633
100
AcDbEntity
8
1
100
AcDbLine
6
CONTINUOUS
62
5
10
88.649997
20
-180.699993
11
88.650000
21
-183.999986
0
LINE
5
634
100
AcDbEntity
8
1
100
AcDbLine
6
CONTINUOUS
62
5
10
86.150000
20
-180.499993
11
86.150000
21
-199.500002
0
LINE
5
635
100
AcDbEntity
8
1
100
AcDbLine
6
CONTINUOUS
62
5
10
85.850000
20
-197.699986
11
85.850000
21
-182.299986
0
ARC
5
636
100
AcDbEntity
8
1
100
AcDbCircle
6
CONTINUOUS
62
5
10
84.149965
20
-194.949986
40
0.300000
100
AcDbArc
50
179.999998
51
-89.999999
0
LINE
5
637
100
AcDbEntity
8
1
100
AcDbLine
6
CONTINUOUS
62
5
10
84.149965
20
-195.249986
11
84.949965
21
-195.249986
0
ARC
5
638
100
AcDbEntity
8
1
100
AcDbCircle
6
CONTINUOUS
62
5
10
84.949965
20
-194.949986
40
0.300000
100
AcDbArc
50
-89.999999
51
-0.000000
0
LINE
5
639
100
AcDbEntity
8
1
100
AcDbLine
6
CONTINUOUS
62
5
10
85.249965
20
-194.949986
11
85.249965
21
-185.049986
0
ARC
5
63a
100
AcDbEntity
8
1
100
AcDbCircle
6
CONTINUOUS
62
5
10
84.949965
20
-185.049986
40
0.300000
100
AcDbArc
50
-0.000000
51
89.999999
0
LINE
5
63b
100
AcDbEntity
8
1
100
AcDbLine
6
CONTINUOUS
62
5
10
84.949965
20
-184.749986
11
84.149965
21
-184.749986
0
ARC
5
63c
100
AcDbEntity
8
1
100
AcDbCircle
6
CONTINUOUS
62
5
10
84.149965
20
-185.049986
40
0.300000
100
AcDbArc
50
89.999999
51
-179.999998
0
LINE
5
63d
100
AcDbEntity
8
1
100
AcDbLine
6
CONTINUOUS
62
5
10
83.849965
20
-185.049986
11
83.849965
21
-194.949986
0
ARC
5
63e
100
AcDbEntity
8
1
100
AcDbCircle
6
CONTINUOUS
62
5
10
84.949965
20
-197.699986
40
0.300000
100
AcDbArc
50
-89.999999
51
-0.000000
0
LINE
5
63f
100
AcDbEntity
8
1
100
AcDbLine
6
CONTINUOUS
62
5
10
85.249965
20
-197.699986
11
85.249965
21
-182.299986
0
ARC
5
640
100
AcDbEntity
8
1
100
AcDbCircle
6
CONTINUOUS
62
5
10
84.949965
20
-182.299986
40
0.300000
100
AcDbArc
50
-0.000000
51
89.999999
0
POLYLINE
5
641
100
AcDbEntity
8
1
6
CONTINUOUS
62
5
100
AcDb2dPolyline
66
1
10
0.0
20
0.0
30
0.0
70
0
0
VERTEX
5
642
100
AcDbEntity
8
1
100
AcDbVertex
100
AcDb2dVertex
62
5
10
84.949965
20
-181.999986
0
VERTEX
5
643
100
AcDbEntity
8
1
100
AcDbVertex
100
AcDb2dVertex
62
5
10
83.849965
20
-181.999986
0
VERTEX
5
644
100
AcDbEntity
8
1
100
AcDbVertex
100
AcDb2dVertex
62
5
10
83.849965
20
-197.999986
0
VERTEX
5
645
100
AcDbEntity
8
1
100
AcDbVertex
100
AcDb2dVertex
62
5
10
84.149965
20
-197.999986
0
SEQEND
5
646
100
AcDbEntity
8
1
0
LINE
5
647
100
AcDbEntity
8
1
100
AcDbLine
6
CONTINUOUS
62
5
10
84.149965
20
-197.999986
11
84.949965
21
-197.999986
0
ARC
5
648
100
AcDbEntity
8
1
100
AcDbCircle
6
CONTINUOUS
62
5
10
84.349965
20
-185.049986
40
0.300000
100
AcDbArc
50
89.999999
51
-179.999998
0
LINE
5
649
100
AcDbEntity
8
1
100
AcDbLine
6
CONTINUOUS
62
5
10
84.049965
20
-185.049986
11
84.049965
21
-194.949986
0
ARC
5
64a
100
AcDbEntity
8
1
100
AcDbCircle
6
CONTINUOUS
62
5
10
84.349965
20
-194.949986
40
0.300000
100
AcDbArc
50
-179.999998
51
-89.999999
0
LINE
5
64b
100
AcDbEntity
8
1
100
AcDbLine
6
CONTINUOUS
62
5
10
84.349965
20
-195.249986
11
84.549965
21
-195.249986
0
ARC
5
64c
100
AcDbEntity
8
1
100
AcDbCircle
6
CONTINUOUS
62
5
10
84.549965
20
-194.949986
40
0.300000
100
AcDbArc
50
-89.999999
51
-0.000000
0
LINE
5
64d
100
AcDbEntity
8
1
100
AcDbLine
6
CONTINUOUS
62
5
10
84.849965
20
-194.949986
11
84.849965
21
-185.049986
0
ARC
5
64e
100
AcDbEntity
8
1
100
AcDbCircle
6
CONTINUOUS
62
5
10
84.549965
20
-185.049986
40
0.300000
100
AcDbArc
50
0.000000
51
89.999999
0
LINE
5
64f
100
AcDbEntity
8
1
100
AcDbLine
6
CONTINUOUS
62
5
10
84.549965
20
-184.749986
11
84.349965
21
-184.749986
0
ARC
5
650
100
AcDbEntity
8
1
100
AcDbCircle
6
CONTINUOUS
62
5
10
87.349997
20
-194.749978
40
0.500000
100
AcDbArc
50
-89.999999
51
0.000000
0
POLYLINE
5
651
100
AcDbEntity
8
1
6
CONTINUOUS
62
5
100
AcDb2dPolyline
66
1
10
0.0
20
0.0
30
0.0
70
0
0
VERTEX
5
652
100
AcDbEntity
8
1
100
AcDbVertex
100
AcDb2dVertex
62
5
10
87.349997
20
-195.249978
0
VERTEX
5
653
100
AcDbEntity
8
1
100
AcDbVertex
100
AcDb2dVertex
62
5
10
86.650000
20
-195.249978
0
VERTEX
5
654
100
AcDbEntity
8
1
100
AcDbVertex
100
AcDb2dVertex
62
5
10
86.650000
20
-184.749972
0
VERTEX
5
655
100
AcDbEntity
8
1
100
AcDbVertex
100
AcDb2dVertex
62
5
10
87.349997
20
-184.749972
0
SEQEND
5
656
100
AcDbEntity
8
1
0
ARC
5
657
100
AcDbEntity
8
1
100
AcDbCircle
6
CONTINUOUS
62
5
10
87.349997
20
-185.249972
40
0.500000
100
AcDbArc
50
0.000000
51
89.999999
0
POLYLINE
5
658
100
AcDbEntity
8
1
6
CONTINUOUS
62
5
100
AcDb2dPolyline
66
1
10
0.0
20
0.0
30
0.0
70
0
0
VERTEX
5
659
100
AcDbEntity
8
1
100
AcDbVertex
100
AcDb2dVertex
62
5
10
87.849997
20
-185.249972
0
VERTEX
5
65a
100
AcDbEntity
8
1
100
AcDbVertex
100
AcDb2dVertex
62
5
10
87.849997
20
-185.349958
0
VERTEX
5
65b
100
AcDbEntity
8
1
100
AcDbVertex
100
AcDb2dVertex
62
5
10
87.849997
20
-194.749978
0
SEQEND
5
65c
100
AcDbEntity
8
1
0
LINE
5
65d
100
AcDbEntity
8
1
100
AcDbLine
6
CONTINUOUS
62
5
10
46.450000
20
-181.999986
11
46.050000
21
-181.599986
0
LINE
5
65e
100
AcDbEntity
8
1
100
AcDbLine
6
CONTINUOUS
62
5
10
46.450000
20
-174.999986
11
46.050000
21
-175.399986
0
ARC
5
65f
100
AcDbEntity
8
1
100
AcDbCircle
6
CONTINUOUS
62
5
10
41.271149
20
-171.750000
40
0.500000
100
AcDbArc
50
-89.999999
51
0.000000
0
LINE
5
660
100
AcDbEntity
8
1
100
AcDbLine
6
CONTINUOUS
62
5
10
41.271149
20
-172.250000
11
41.349997
21
-172.250000
0
LINE
5
661
100
AcDbEntity
8
1
100
AcDbLine
6
CONTINUOUS
62
5
10
41.771149
20
-171.650014
11
41.771149
21
-171.750000
0
ARC
5
662
100
AcDbEntity
8
1
100
AcDbCircle
6
CONTINUOUS
62
5
10
41.271149
20
-185.249972
40
0.500000
100
AcDbArc
50
0.000000
51
89.999999
0
LINE
5
663
100
AcDbEntity
8
1
100
AcDbLine
6
CONTINUOUS
62
5
10
41.271149
20
-184.749972
11
41.349997
21
-184.749972
0
LINE
5
664
100
AcDbEntity
8
1
100
AcDbLine
6
CONTINUOUS
62
5
10
41.771149
20
-185.349958
11
41.771149
21
-185.249972
0
ARC
5
665
100
AcDbEntity
8
1
100
AcDbCircle
6
CONTINUOUS
62
5
10
41.271149
20
-175.750002
40
0.500000
100
AcDbArc
50
0.000000
51
89.999999
0
LINE
5
666
100
AcDbEntity
8
1
100
AcDbLine
6
CONTINUOUS
62
5
10
41.271149
20
-175.250002
11
41.349996
21
-175.250002
0
LINE
5
667
100
AcDbEntity
8
1
100
AcDbLine
6
CONTINUOUS
62
5
10
41.771149
20
-175.850017
11
41.771149
21
-175.750002
0
LINE
5
668
100
AcDbEntity
8
1
100
AcDbLine
6
CONTINUOUS
62
5
10
41.850000
20
-181.250001
11
42.650000
21
-181.250001
0
LINE
5
669
100
AcDbEntity
8
1
100
AcDbLine
6
CONTINUOUS
62
5
10
41.850000
20
-175.750002
11
42.649997
21
-175.750017
0
LINE
5
66a
100
AcDbEntity
8
1
100
AcDbLine
6
CONTINUOUS
62
5
10
42.750014
20
-181.150001
11
42.650000
21
-181.250001
0
LINE
5
66b
100
AcDbEntity
8
1
100
AcDbLine
6
CONTINUOUS
62
5
10
43.150000
20
-184.499986
11
43.250000
21
-184.499986
0
LINE
5
66c
100
AcDbEntity
8
1
100
AcDbLine
6
CONTINUOUS
62
5
10
43.150000
20
-172.499986
11
43.250000
21
-172.499986
0
LINE
5
66d
100
AcDbEntity
8
1
100
AcDbLine
6
CONTINUOUS
62
5
10
42.649997
20
-175.750017
11
42.749997
21
-175.850017
0
ARC
5
66e
100
AcDbEntity
8
1
100
AcDbCircle
6
CONTINUOUS
62
5
10
41.271185
20
-181.249987
40
0.500000
100
AcDbArc
50
-89.999999
51
0.000000
0
LINE
5
66f
100
AcDbEntity
8
1
100
AcDbLine
6
CONTINUOUS
62
5
10
41.271185
20
-181.749987
11
41.350033
21
-181.749987
0
LINE
5
670
100
AcDbEntity
8
1
100
AcDbLine
6
CONTINUOUS
62
5
10
41.771185
20
-181.150001
11
41.771185
21
-181.249987
0
ARC
5
671
100
AcDbEntity
8
1
100
AcDbCircle
6
CONTINUOUS
62
5
10
43.250000
20
-183.999986
40
0.500000
100
AcDbArc
50
-179.991048
51
-89.999999
0
LINE
5
672
100
AcDbEntity
8
1
100
AcDbLine
6
CONTINUOUS
62
5
10
43.250000
20
-184.499986
11
43.250324
21
-189.999986
0
LINE
5
673
100
AcDbEntity
8
1
100
AcDbLine
6
CONTINUOUS
62
5
10
42.750014
20
-181.150001
11
42.750000
21
-184.000064
0
ARC
5
674
100
AcDbEntity
8
1
100
AcDbCircle
6
CONTINUOUS
62
5
10
43.150000
20
-183.999986
40
0.500000
100
AcDbArc
50
179.999998
51
-89.999999
0
LINE
5
675
100
AcDbEntity
8
1
100
AcDbLine
6
CONTINUOUS
62
5
10
43.150000
20
-184.499986
11
43.150523
21
-189.999986
0
LINE
5
676
100
AcDbEntity
8
1
100
AcDbLine
6
CONTINUOUS
62
5
10
42.650000
20
-181.250001
11
42.650000
21
-183.999986
0
POLYLINE
5
677
100
AcDbEntity
8
1
6
CONTINUOUS
62
5
100
AcDb2dPolyline
66
1
10
0.0
20
0.0
30
0.0
70
0
0
VERTEX
5
678
100
AcDbEntity
8
1
100
AcDbVertex
100
AcDb2dVertex
62
5
10
41.850002
20
-187.999998
0
VERTEX
5
679
100
AcDbEntity
8
1
100
AcDbVertex
100
AcDb2dVertex
62
5
10
42.650003
20
-187.998935
0
VERTEX
5
67a
100
AcDbEntity
8
1
100
AcDbVertex
100
AcDb2dVertex
62
5
10
42.650006
20
-185.498996
0
VERTEX
5
67b
100
AcDbEntity
8
1
100
AcDbVertex
100
AcDb2dVertex
62
5
10
41.850002
20
-185.499996
0
SEQEND
5
67c
100
AcDbEntity
8
1
0
LINE
5
67d
100
AcDbEntity
8
1
100
AcDbLine
6
CONTINUOUS
62
5
10
42.449984
20
-185.499246
11
42.449981
21
-187.999201
0
LINE
5
67e
100
AcDbEntity
8
1
100
AcDbLine
6
CONTINUOUS
62
5
10
40.350212
20
-171.650000
11
40.349989
21
-175.850017
0
LINE
5
67f
100
AcDbEntity
8
1
100
AcDbLine
6
CONTINUOUS
62
5
10
40.349989
20
-181.150001
11
40.350212
21
-185.349995
0
ARC
5
680
100
AcDbEntity
8
1
100
AcDbCircle
6
CONTINUOUS
62
5
10
41.349997
20
-171.750000
40
0.500000
100
AcDbArc
50
-89.999999
51
0.000000
0
LINE
5
681
100
AcDbEntity
8
1
100
AcDbLine
6
CONTINUOUS
62
5
10
41.849997
20
-171.750000
11
41.849997
21
-171.650015
0
POLYLINE
5
682
100
AcDbEntity
8
1
6
CONTINUOUS
62
5
100
AcDb2dPolyline
66
1
10
0.0
20
0.0
30
0.0
70
0
0
VERTEX
5
683
100
AcDbEntity
8
1
100
AcDbVertex
100
AcDb2dVertex
62
5
10
40.350212
20
-171.650000
0
VERTEX
5
684
100
AcDbEntity
8
1
100
AcDbVertex
100
AcDb2dVertex
62
5
10
40.353204
20
-171.764000
0
VERTEX
5
685
100
AcDbEntity
8
1
100
AcDbVertex
100
AcDb2dVertex
62
5
10
40.362193
20
-171.866000
0
VERTEX
5
686
100
AcDbEntity
8
1
100
AcDbVertex
100
AcDb2dVertex
62
5
10
40.377178
20
-171.956000
0
VERTEX
5
687
100
AcDbEntity
8
1
100
AcDbVertex
100
AcDb2dVertex
62
5
10
40.398161
20
-172.034000
0
VERTEX
5
688
100
AcDbEntity
8
1
100
AcDbVertex
100
AcDb2dVertex
62
5
10
40.425140
20
-172.100000
0
VERTEX
5
689
100
AcDbEntity
8
1
100
AcDbVertex
100
AcDb2dVertex
62
5
10
40.458116
20
-172.154000
0
VERTEX
5
68a
100
AcDbEntity
8
1
100
AcDbVertex
100
AcDb2dVertex
62
5
10
40.497089
20
-172.196000
0
VERTEX
5
68b
100
AcDbEntity
8
1
100
AcDbVertex
100
AcDb2dVertex
62
5
10
40.542059
20
-172.226000
0
VERTEX
5
68c
100
AcDbEntity
8
1
100
AcDbVertex
100
AcDb2dVertex
62
5
10
40.593026
20
-172.244000
0
VERTEX
5
68d
100
AcDbEntity
8
1
100
AcDbVertex
100
AcDb2dVertex
62
5
10
40.649989
20
-172.250000
0
VERTEX
5
68e
100
AcDbEntity
8
1
100
AcDbVertex
100
AcDb2dVertex
62
5
10
41.349997
20
-172.250000
0
SEQEND
5
68f
100
AcDbEntity
8
1
0
POLYLINE
5
690
100
AcDbEntity
8
1
6
CONTINUOUS
62
5
100
AcDb2dPolyline
66
1
10
0.0
20
0.0
30
0.0
70
0
0
VERTEX
5
691
100
AcDbEntity
8
1
100
AcDbVertex
100
AcDb2dVertex
62
5
10
42.749997
20
-175.850017
0
VERTEX
5
692
100
AcDbEntity
8
1
100
AcDbVertex
100
AcDb2dVertex
62
5
10
40.349989
20
-175.850017
0
VERTEX
5
693
100
AcDbEntity
8
1
100
AcDbVertex
100
AcDb2dVertex
62
5
10
40.350212
20
-171.650015
0
SEQEND
5
694
100
AcDbEntity
8
1
0
LINE
5
695
100
AcDbEntity
8
1
100
AcDbLine
6
CONTINUOUS
62
5
10
40.649989
20
-172.250000
11
40.649989
21
-175.250002
0
POLYLINE
5
696
100
AcDbEntity
8
1
6
CONTINUOUS
62
5
100
AcDb2dPolyline
66
1
10
0.0
20
0.0
30
0.0
70
0
0
VERTEX
5
697
100
AcDbEntity
8
1
100
AcDbVertex
100
AcDb2dVertex
62
5
10
40.349989
20
-181.149955
0
VERTEX
5
698
100
AcDbEntity
8
1
100
AcDbVertex
100
AcDb2dVertex
62
5
10
41.771149
20
-181.149955
0
VERTEX
5
699
100
AcDbEntity
8
1
100
AcDbVertex
100
AcDb2dVertex
62
5
10
41.850000
20
-181.249971
0
SEQEND
5
69a
100
AcDbEntity
8
1
0
ARC
5
69b
100
AcDbEntity
8
1
100
AcDbCircle
6
CONTINUOUS
62
5
10
41.349996
20
-181.249971
40
0.500000
100
AcDbArc
50
-89.999999
51
0.000000
0
LINE
5
69c
100
AcDbEntity
8
1
100
AcDbLine
6
CONTINUOUS
62
5
10
41.849996
20
-181.249971
11
41.852655
21
-181.249955
0
LINE
5
69d
100
AcDbEntity
8
1
100
AcDbLine
6
CONTINUOUS
62
5
10
40.649798
20
-181.749971
11
41.349996
21
-181.749971
0
LINE
5
69e
100
AcDbEntity
8
1
100
AcDbLine
6
CONTINUOUS
62
5
10
41.771149
20
-185.349958
11
40.350212
21
-185.349972
0
ARC
5
69f
100
AcDbEntity
8
1
100
AcDbCircle
6
CONTINUOUS
62
5
10
41.349997
20
-185.249972
40
0.500000
100
AcDbArc
50
0.000000
51
89.999999
0
LINE
5
6a0
100
AcDbEntity
8
1
100
AcDbLine
6
CONTINUOUS
62
5
10
41.849997
20
-185.249972
11
41.849997
21
-185.349958
0
POLYLINE
5
6a1
100
AcDbEntity
8
1
6
CONTINUOUS
62
5
100
AcDb2dPolyline
66
1
10
0.0
20
0.0
30
0.0
70
0
0
VERTEX
5
6a2
100
AcDbEntity
8
1
100
AcDbVertex
100
AcDb2dVertex
62
5
10
40.350212
20
-185.349972
0
VERTEX
5
6a3
100
AcDbEntity
8
1
100
AcDbVertex
100
AcDb2dVertex
62
5
10
40.353204
20
-185.235972
0
VERTEX
5
6a4
100
AcDbEntity
8
1
100
AcDbVertex
100
AcDb2dVertex
62
5
10
40.362193
20
-185.133972
0
VERTEX
5
6a5
100
AcDbEntity
8
1
100
AcDbVertex
100
AcDb2dVertex
62
5
10
40.377178
20
-185.043972
0
VERTEX
5
6a6
100
AcDbEntity
8
1
100
AcDbVertex
100
AcDb2dVertex
62
5
10
40.398161
20
-184.965972
0
VERTEX
5
6a7
100
AcDbEntity
8
1
100
AcDbVertex
100
AcDb2dVertex
62
5
10
40.425140
20
-184.899972
0
VERTEX
5
6a8
100
AcDbEntity
8
1
100
AcDbVertex
100
AcDb2dVertex
62
5
10
40.458116
20
-184.845972
0
VERTEX
5
6a9
100
AcDbEntity
8
1
100
AcDbVertex
100
AcDb2dVertex
62
5
10
40.497089
20
-184.803972
0
VERTEX
5
6aa
100
AcDbEntity
8
1
100
AcDbVertex
100
AcDb2dVertex
62
5
10
40.542059
20
-184.773972
0
VERTEX
5
6ab
100
AcDbEntity
8
1
100
AcDbVertex
100
AcDb2dVertex
62
5
10
40.593026
20
-184.755972
0
VERTEX
5
6ac
100
AcDbEntity
8
1
100
AcDbVertex
100
AcDb2dVertex
62
5
10
40.649989
20
-184.749972
0
VERTEX
5
6ad
100
AcDbEntity
8
1
100
AcDbVertex
100
AcDb2dVertex
62
5
10
41.349997
20
-184.749972
0
SEQEND
5
6ae
100
AcDbEntity
8
1
0
POLYLINE
5
6af
100
AcDbEntity
8
1
6
CONTINUOUS
62
5
100
AcDb2dPolyline
66
1
10
0.0
20
0.0
30
0.0
70
0
0
VERTEX
5
6b0
100
AcDbEntity
8
1
100
AcDbVertex
100
AcDb2dVertex
62
5
10
40.349989
20
-175.850017
0
VERTEX
5
6b1
100
AcDbEntity
8
1
100
AcDbVertex
100
AcDb2dVertex
62
5
10
41.771149
20
-175.850017
0
VERTEX
5
6b2
100
AcDbEntity
8
1
100
AcDbVertex
100
AcDb2dVertex
62
5
10
41.850000
20
-175.750002
0
SEQEND
5
6b3
100
AcDbEntity
8
1
0
ARC
5
6b4
100
AcDbEntity
8
1
100
AcDbCircle
6
CONTINUOUS
62
5
10
41.349996
20
-175.750002
40
0.500000
100
AcDbArc
50
0.000000
51
89.999999
0
LINE
5
6b5
100
AcDbEntity
8
1
100
AcDbLine
6
CONTINUOUS
62
5
10
41.849996
20
-175.750002
11
41.852655
21
-175.750017
0
LINE
5
6b6
100
AcDbEntity
8
1
100
AcDbLine
6
CONTINUOUS
62
5
10
40.649798
20
-175.250002
11
41.349996
21
-175.250002
0
POLYLINE
5
6b7
100
AcDbEntity
8
1
6
CONTINUOUS
62
5
100
AcDb2dPolyline
66
1
10
0.0
20
0.0
30
0.0
70
0
0
VERTEX
5
6b8
100
AcDbEntity
8
1
100
AcDbVertex
100
AcDb2dVertex
62
5
10
40.649989
20
-181.749971
0
VERTEX
5
6b9
100
AcDbEntity
8
1
100
AcDbVertex
100
AcDb2dVertex
62
5
10
40.592995
20
-181.743970
0
VERTEX
5
6ba
100
AcDbEntity
8
1
100
AcDbVertex
100
AcDb2dVertex
62
5
10
40.541999
20
-181.725970
0
VERTEX
5
6bb
100
AcDbEntity
8
1
100
AcDbVertex
100
AcDb2dVertex
62
5
10
40.497002
20
-181.695969
0
VERTEX
5
6bc
100
AcDbEntity
8
1
100
AcDbVertex
100
AcDb2dVertex
62
5
10
40.458004
20
-181.653968
0
VERTEX
5
6bd
100
AcDbEntity
8
1
100
AcDbVertex
100
AcDb2dVertex
62
5
10
40.425005
20
-181.599967
0
VERTEX
5
6be
100
AcDbEntity
8
1
100
AcDbVertex
100
AcDb2dVertex
62
5
10
40.398004
20
-181.533965
0
VERTEX
5
6bf
100
AcDbEntity
8
1
100
AcDbVertex
100
AcDb2dVertex
62
5
10
40.377002
20
-181.455963
0
VERTEX
5
6c0
100
AcDbEntity
8
1
100
AcDbVertex
100
AcDb2dVertex
62
5
10
40.361999
20
-181.365961
0
VERTEX
5
6c1
100
AcDbEntity
8
1
100
AcDbVertex
100
AcDb2dVertex
62
5
10
40.352994
20
-181.263958
0
VERTEX
5
6c2
100
AcDbEntity
8
1
100
AcDbVertex
100
AcDb2dVertex
62
5
10
40.349989
20
-181.149955
0
SEQEND
5
6c3
100
AcDbEntity
8
1
0
LINE
5
6c4
100
AcDbEntity
8
1
100
AcDbLine
6
CONTINUOUS
62
5
10
40.649989
20
-184.749994
11
40.649989
21
-181.749993
0
POLYLINE
5
6c5
100
AcDbEntity
8
1
6
CONTINUOUS
62
5
100
AcDb2dPolyline
66
1
10
0.0
20
0.0
30
0.0
70
0
0
VERTEX
5
6c6
100
AcDbEntity
8
1
100
AcDbVertex
100
AcDb2dVertex
62
5
10
40.649989
20
-175.250002
0
VERTEX
5
6c7
100
AcDbEntity
8
1
100
AcDbVertex
100
AcDb2dVertex
62
5
10
40.592995
20
-175.256002
0
VERTEX
5
6c8
100
AcDbEntity
8
1
100
AcDbVertex
100
AcDb2dVertex
62
5
10
40.541999
20
-175.274002
0
VERTEX
5
6c9
100
AcDbEntity
8
1
100
AcDbVertex
100
AcDb2dVertex
62
5
10
40.497002
20
-175.304003
0
VERTEX
5
6ca
100
AcDbEntity
8
1
100
AcDbVertex
100
AcDb2dVertex
62
5
10
40.458004
20
-175.346004
0
VERTEX
5
6cb
100
AcDbEntity
8
1
100
AcDbVertex
100
AcDb2dVertex
62
5
10
40.425005
20
-175.400006
0
VERTEX
5
6cc
100
AcDbEntity
8
1
100
AcDbVertex
100
AcDb2dVertex
62
5
10
40.398004
20
-175.466007
0
VERTEX
5
6cd
100
AcDbEntity
8
1
100
AcDbVertex
100
AcDb2dVertex
62
5
10
40.377002
20
-175.544009
0
VERTEX
5
6ce
100
AcDbEntity
8
1
100
AcDbVertex
100
AcDb2dVertex
62
5
10
40.361999
20
-175.634012
0
VERTEX
5
6cf
100
AcDbEntity
8
1
100
AcDbVertex
100
AcDb2dVertex
62
5
10
40.352994
20
-175.736014
0
VERTEX
5
6d0
100
AcDbEntity
8
1
100
AcDbVertex
100
AcDb2dVertex
62
5
10
40.349989
20
-175.850017
0
SEQEND
5
6d1
100
AcDbEntity
8
1
0
POLYLINE
5
6d2
100
AcDbEntity
8
1
6
CONTINUOUS
62
5
100
AcDb2dPolyline
66
1
10
0.0
20
0.0
30
0.0
70
0
0
VERTEX
5
6d3
100
AcDbEntity
8
1
100
AcDbVertex
100
AcDb2dVertex
62
5
10
40.349989
20
-185.350003
0
VERTEX
5
6d4
100
AcDbEntity
8
1
100
AcDbVertex
100
AcDb2dVertex
62
5
10
40.349989
20
-181.150001
0
VERTEX
5
6d5
100
AcDbEntity
8
1
100
AcDbVertex
100
AcDb2dVertex
62
5
10
42.750014
20
-181.150001
0
SEQEND
5
6d6
100
AcDbEntity
8
1
0
LINE
5
6d7
100
AcDbEntity
8
1
100
AcDbLine
6
CONTINUOUS
62
5
10
41.771149
20
-171.650014
11
40.350212
21
-171.650000
0
LINE
5
6d8
100
AcDbEntity
8
1
100
AcDbLine
6
CONTINUOUS
62
5
10
46.050000
20
-204.599986
11
46.450000
21
-204.999986
0
LINE
5
6d9
100
AcDbEntity
8
1
100
AcDbLine
6
CONTINUOUS
62
5
10
46.450000
20
-197.999986
11
46.050000
21
-198.399986
0
ARC
5
6da
100
AcDbEntity
8
1
100
AcDbCircle
6
CONTINUOUS
62
5
10
41.271149
20
-204.249971
40
0.500000
100
AcDbArc
50
-89.999999
51
0.000000
0
LINE
5
6db
100
AcDbEntity
8
1
100
AcDbLine
6
CONTINUOUS
62
5
10
41.271149
20
-204.749971
11
41.349996
21
-204.749971
0
LINE
5
6dc
100
AcDbEntity
8
1
100
AcDbLine
6
CONTINUOUS
62
5
10
41.771149
20
-204.149955
11
41.771149
21
-204.249971
0
ARC
5
6dd
100
AcDbEntity
8
1
100
AcDbCircle
6
CONTINUOUS
62
5
10
41.271149
20
-208.249972
40
0.500000
100
AcDbArc
50
0.000000
51
89.999999
0
LINE
5
6de
100
AcDbEntity
8
1
100
AcDbLine
6
CONTINUOUS
62
5
10
41.271149
20
-207.749972
11
41.349997
21
-207.749972
0
LINE
5
6df
100
AcDbEntity
8
1
100
AcDbLine
6
CONTINUOUS
62
5
10
41.771149
20
-208.349958
11
41.771149
21
-208.249972
0
ARC
5
6e0
100
AcDbEntity
8
1
100
AcDbCircle
6
CONTINUOUS
62
5
10
41.271149
20
-198.750002
40
0.500000
100
AcDbArc
50
0.000000
51
89.999999
0
LINE
5
6e1
100
AcDbEntity
8
1
100
AcDbLine
6
CONTINUOUS
62
5
10
41.271149
20
-198.250002
11
41.349996
21
-198.250002
0
LINE
5
6e2
100
AcDbEntity
8
1
100
AcDbLine
6
CONTINUOUS
62
5
10
41.771149
20
-198.850017
11
41.771149
21
-198.750002
0
LINE
5
6e3
100
AcDbEntity
8
1
100
AcDbLine
6
CONTINUOUS
62
5
10
41.850000
20
-204.250001
11
42.650000
21
-204.250001
0
LINE
5
6e4
100
AcDbEntity
8
1
100
AcDbLine
6
CONTINUOUS
62
5
10
42.650000
20
-204.250001
11
42.750014
21
-204.150001
0
LINE
5
6e5
100
AcDbEntity
8
1
100
AcDbLine
6
CONTINUOUS
62
5
10
43.150000
20
-207.499986
11
43.250000
21
-207.499986
0
LINE
5
6e6
100
AcDbEntity
8
1
100
AcDbLine
6
CONTINUOUS
62
5
10
41.850000
20
-198.750002
11
42.649997
21
-198.750017
0
POLYLINE
5
6e7
100
AcDbEntity
8
1
6
CONTINUOUS
62
5
100
AcDb2dPolyline
66
1
10
0.0
20
0.0
30
0.0
70
0
0
VERTEX
5
6e8
100
AcDbEntity
8
1
100
AcDbVertex
100
AcDb2dVertex
62
5
10
41.850000
20
-194.500003
0
VERTEX
5
6e9
100
AcDbEntity
8
1
100
AcDbVertex
100
AcDb2dVertex
62
5
10
42.650001
20
-194.498940
0
VERTEX
5
6ea
100
AcDbEntity
8
1
100
AcDbVertex
100
AcDb2dVertex
62
5
10
42.650004
20
-191.999001
0
VERTEX
5
6eb
100
AcDbEntity
8
1
100
AcDbVertex
100
AcDb2dVertex
62
5
10
41.850000
20
-192.000001
0
SEQEND
5
6ec
100
AcDbEntity
8
1
0
LINE
5
6ed
100
AcDbEntity
8
1
100
AcDbLine
6
CONTINUOUS
62
5
10
42.649997
20
-198.750017
11
42.749997
21
-198.850017
0
LINE
5
6ee
100
AcDbEntity
8
1
100
AcDbLine
6
CONTINUOUS
62
5
10
43.150000
20
-195.499986
11
43.250000
21
-195.499986
0
LINE
5
6ef
100
AcDbEntity
8
1
100
AcDbLine
6
CONTINUOUS
62
5
10
42.449978
20
-191.999251
11
42.449975
21
-194.499206
0
ARC
5
6f0
100
AcDbEntity
8
1
100
AcDbCircle
6
CONTINUOUS
62
5
10
41.271149
20
-194.750000
40
0.500000
100
AcDbArc
50
-89.999999
51
0.000000
0
LINE
5
6f1
100
AcDbEntity
8
1
100
AcDbLine
6
CONTINUOUS
62
5
10
41.271149
20
-195.250000
11
41.349997
21
-195.250000
0
LINE
5
6f2
100
AcDbEntity
8
1
100
AcDbLine
6
CONTINUOUS
62
5
10
41.771149
20
-194.650014
11
41.771149
21
-194.750000
0
LINE
5
6f3
100
AcDbEntity
8
1
100
AcDbLine
6
CONTINUOUS
62
5
10
42.449962
20
-208.499246
11
42.449960
21
-210.999201
0
LINE
5
6f4
100
AcDbEntity
8
1
100
AcDbLine
6
CONTINUOUS
62
5
10
41.750000
20
-208.349981
11
41.750000
21
-210.999997
0
POLYLINE
5
6f5
100
AcDbEntity
8
1
6
CONTINUOUS
62
5
100
AcDb2dPolyline
66
1
10
0.0
20
0.0
30
0.0
70
0
0
VERTEX
5
6f6
100
AcDbEntity
8
1
100
AcDbVertex
100
AcDb2dVertex
62
5
10
41.850002
20
-210.999998
0
VERTEX
5
6f7
100
AcDbEntity
8
1
100
AcDbVertex
100
AcDb2dVertex
62
5
10
42.650003
20
-210.998935
0
VERTEX
5
6f8
100
AcDbEntity
8
1
100
AcDbVertex
100
AcDb2dVertex
62
5
10
42.650006
20
-208.498996
0
VERTEX
5
6f9
100
AcDbEntity
8
1
100
AcDbVertex
100
AcDb2dVertex
62
5
10
41.850002
20
-208.499996
0
SEQEND
5
6fa
100
AcDbEntity
8
1
0
LINE
5
6fb
100
AcDbEntity
8
1
100
AcDbLine
6
CONTINUOUS
62
5
10
40.349989
20
-204.150001
11
40.350212
21
-208.349995
0
LINE
5
6fc
100
AcDbEntity
8
1
100
AcDbLine
6
CONTINUOUS
62
5
10
40.350212
20
-194.650000
11
40.349989
21
-198.850017
0
POLYLINE
5
6fd
100
AcDbEntity
8
1
6
CONTINUOUS
62
5
100
AcDb2dPolyline
66
1
10
0.0
20
0.0
30
0.0
70
0
0
VERTEX
5
6fe
100
AcDbEntity
8
1
100
AcDbVertex
100
AcDb2dVertex
62
5
10
40.349989
20
-204.149955
0
VERTEX
5
6ff
100
AcDbEntity
8
1
100
AcDbVertex
100
AcDb2dVertex
62
5
10
41.771149
20
-204.149955
0
VERTEX
5
700
100
AcDbEntity
8
1
100
AcDbVertex
100
AcDb2dVertex
62
5
10
41.850000
20
-204.249971
0
SEQEND
5
701
100
AcDbEntity
8
1
0
ARC
5
702
100
AcDbEntity
8
1
100
AcDbCircle
6
CONTINUOUS
62
5
10
41.349996
20
-204.249971
40
0.500000
100
AcDbArc
50
-89.999999
51
0.000000
0
LINE
5
703
100
AcDbEntity
8
1
100
AcDbLine
6
CONTINUOUS
62
5
10
41.849996
20
-204.249971
11
41.852655
21
-204.249955
0
LINE
5
704
100
AcDbEntity
8
1
100
AcDbLine
6
CONTINUOUS
62
5
10
40.649798
20
-204.749971
11
41.349996
21
-204.749971
0
LINE
5
705
100
AcDbEntity
8
1
100
AcDbLine
6
CONTINUOUS
62
5
10
41.771149
20
-208.349958
11
40.350212
21
-208.349972
0
ARC
5
706
100
AcDbEntity
8
1
100
AcDbCircle
6
CONTINUOUS
62
5
10
41.349997
20
-208.249972
40
0.500000
100
AcDbArc
50
-0.000000
51
89.999999
0
LINE
5
707
100
AcDbEntity
8
1
100
AcDbLine
6
CONTINUOUS
62
5
10
41.849997
20
-208.249972
11
41.849997
21
-208.349958
0
POLYLINE
5
708
100
AcDbEntity
8
1
6
CONTINUOUS
62
5
100
AcDb2dPolyline
66
1
10
0.0
20
0.0
30
0.0
70
0
0
VERTEX
5
709
100
AcDbEntity
8
1
100
AcDbVertex
100
AcDb2dVertex
62
5
10
40.350212
20
-208.349972
0
VERTEX
5
70a
100
AcDbEntity
8
1
100
AcDbVertex
100
AcDb2dVertex
62
5
10
40.353204
20
-208.235972
0
VERTEX
5
70b
100
AcDbEntity
8
1
100
AcDbVertex
100
AcDb2dVertex
62
5
10
40.362193
20
-208.133972
0
VERTEX
5
70c
100
AcDbEntity
8
1
100
AcDbVertex
100
AcDb2dVertex
62
5
10
40.377178
20
-208.043972
0
VERTEX
5
70d
100
AcDbEntity
8
1
100
AcDbVertex
100
AcDb2dVertex
62
5
10
40.398161
20
-207.965972
0
VERTEX
5
70e
100
AcDbEntity
8
1
100
AcDbVertex
100
AcDb2dVertex
62
5
10
40.425140
20
-207.899972
0
VERTEX
5
70f
100
AcDbEntity
8
1
100
AcDbVertex
100
AcDb2dVertex
62
5
10
40.458116
20
-207.845972
0
VERTEX
5
710
100
AcDbEntity
8
1
100
AcDbVertex
100
AcDb2dVertex
62
5
10
40.497089
20
-207.803972
0
VERTEX
5
711
100
AcDbEntity
8
1
100
AcDbVertex
100
AcDb2dVertex
62
5
10
40.542059
20
-207.773972
0
VERTEX
5
712
100
AcDbEntity
8
1
100
AcDbVertex
100
AcDb2dVertex
62
5
10
40.593026
20
-207.755972
0
VERTEX
5
713
100
AcDbEntity
8
1
100
AcDbVertex
100
AcDb2dVertex
62
5
10
40.649989
20
-207.749972
0
VERTEX
5
714
100
AcDbEntity
8
1
100
AcDbVertex
100
AcDb2dVertex
62
5
10
41.349997
20
-207.749972
0
SEQEND
5
715
100
AcDbEntity
8
1
0
POLYLINE
5
716
100
AcDbEntity
8
1
6
CONTINUOUS
62
5
100
AcDb2dPolyline
66
1
10
0.0
20
0.0
30
0.0
70
0
0
VERTEX
5
717
100
AcDbEntity
8
1
100
AcDbVertex
100
AcDb2dVertex
62
5
10
40.349989
20
-208.350003
0
VERTEX
5
718
100
AcDbEntity
8
1
100
AcDbVertex
100
AcDb2dVertex
62
5
10
40.349989
20
-204.150001
0
VERTEX
5
719
100
AcDbEntity
8
1
100
AcDbVertex
100
AcDb2dVertex
62
5
10
42.750014
20
-204.150001
0
SEQEND
5
71a
100
AcDbEntity
8
1
0
POLYLINE
5
71b
100
AcDbEntity
8
1
6
CONTINUOUS
62
5
100
AcDb2dPolyline
66
1
10
0.0
20
0.0
30
0.0
70
0
0
VERTEX
5
71c
100
AcDbEntity
8
1
100
AcDbVertex
100
AcDb2dVertex
62
5
10
40.349989
20
-198.850017
0
VERTEX
5
71d
100
AcDbEntity
8
1
100
AcDbVertex
100
AcDb2dVertex
62
5
10
41.771149
20
-198.850017
0
VERTEX
5
71e
100
AcDbEntity
8
1
100
AcDbVertex
100
AcDb2dVertex
62
5
10
41.850000
20
-198.750002
0
SEQEND
5
71f
100
AcDbEntity
8
1
0
POLYLINE
5
720
100
AcDbEntity
8
1
6
CONTINUOUS
62
5
100
AcDb2dPolyline
66
1
10
0.0
20
0.0
30
0.0
70
0
0
VERTEX
5
721
100
AcDbEntity
8
1
100
AcDbVertex
100
AcDb2dVertex
62
5
10
42.749997
20
-198.850017
0
VERTEX
5
722
100
AcDbEntity
8
1
100
AcDbVertex
100
AcDb2dVertex
62
5
10
40.349989
20
-198.850017
0
VERTEX
5
723
100
AcDbEntity
8
1
100
AcDbVertex
100
AcDb2dVertex
62
5
10
40.350212
20
-194.650015
0
SEQEND
5
724
100
AcDbEntity
8
1
0
LINE
5
725
100
AcDbEntity
8
1
100
AcDbLine
6
CONTINUOUS
62
5
10
41.771149
20
-194.650014
11
40.350212
21
-194.650000
0
ARC
5
726
100
AcDbEntity
8
1
100
AcDbCircle
6
CONTINUOUS
62
5
10
41.349996
20
-198.750002
40
0.500000
100
AcDbArc
50
0.000000
51
89.999999
0
LINE
5
727
100
AcDbEntity
8
1
100
AcDbLine
6
CONTINUOUS
62
5
10
41.849996
20
-198.750002
11
41.852655
21
-198.750017
0
LINE
5
728
100
AcDbEntity
8
1
100
AcDbLine
6
CONTINUOUS
62
5
10
40.649798
20
-198.250002
11
41.349996
21
-198.250002
0
ARC
5
729
100
AcDbEntity
8
1
100
AcDbCircle
6
CONTINUOUS
62
5
10
41.349997
20
-194.750000
40
0.500000
100
AcDbArc
50
-89.999999
51
0.000000
0
LINE
5
72a
100
AcDbEntity
8
1
100
AcDbLine
6
CONTINUOUS
62
5
10
41.849997
20
-194.750000
11
41.849997
21
-194.650015
0
POLYLINE
5
72b
100
AcDbEntity
8
1
6
CONTINUOUS
62
5
100
AcDb2dPolyline
66
1
10
0.0
20
0.0
30
0.0
70
0
0
VERTEX
5
72c
100
AcDbEntity
8
1
100
AcDbVertex
100
AcDb2dVertex
62
5
10
40.350212
20
-194.650000
0
VERTEX
5
72d
100
AcDbEntity
8
1
100
AcDbVertex
100
AcDb2dVertex
62
5
10
40.353204
20
-194.764000
0
VERTEX
5
72e
100
AcDbEntity
8
1
100
AcDbVertex
100
AcDb2dVertex
62
5
10
40.362193
20
-194.866000
0
VERTEX
5
72f
100
AcDbEntity
8
1
100
AcDbVertex
100
AcDb2dVertex
62
5
10
40.377178
20
-194.956000
0
VERTEX
5
730
100
AcDbEntity
8
1
100
AcDbVertex
100
AcDb2dVertex
62
5
10
40.398161
20
-195.034000
0
VERTEX
5
731
100
AcDbEntity
8
1
100
AcDbVertex
100
AcDb2dVertex
62
5
10
40.425140
20
-195.100000
0
VERTEX
5
732
100
AcDbEntity
8
1
100
AcDbVertex
100
AcDb2dVertex
62
5
10
40.458116
20
-195.154000
0
VERTEX
5
733
100
AcDbEntity
8
1
100
AcDbVertex
100
AcDb2dVertex
62
5
10
40.497089
20
-195.196000
0
VERTEX
5
734
100
AcDbEntity
8
1
100
AcDbVertex
100
AcDb2dVertex
62
5
10
40.542059
20
-195.226000
0
VERTEX
5
735
100
AcDbEntity
8
1
100
AcDbVertex
100
AcDb2dVertex
62
5
10
40.593026
20
-195.244000
0
VERTEX
5
736
100
AcDbEntity
8
1
100
AcDbVertex
100
AcDb2dVertex
62
5
10
40.649989
20
-195.250000
0
VERTEX
5
737
100
AcDbEntity
8
1
100
AcDbVertex
100
AcDb2dVertex
62
5
10
41.349997
20
-195.250000
0
SEQEND
5
738
100
AcDbEntity
8
1
0
POLYLINE
5
739
100
AcDbEntity
8
1
6
CONTINUOUS
62
5
100
AcDb2dPolyline
66
1
10
0.0
20
0.0
30
0.0
70
0
0
VERTEX
5
73a
100
AcDbEntity
8
1
100
AcDbVertex
100
AcDb2dVertex
62
5
10
40.649989
20
-204.749971
0
VERTEX
5
73b
100
AcDbEntity
8
1
100
AcDbVertex
100
AcDb2dVertex
62
5
10
40.592995
20
-204.743970
0
VERTEX
5
73c
100
AcDbEntity
8
1
100
AcDbVertex
100
AcDb2dVertex
62
5
10
40.541999
20
-204.725970
0
VERTEX
5
73d
100
AcDbEntity
8
1
100
AcDbVertex
100
AcDb2dVertex
62
5
10
40.497002
20
-204.695969
0
VERTEX
5
73e
100
AcDbEntity
8
1
100
AcDbVertex
100
AcDb2dVertex
62
5
10
40.458004
20
-204.653968
0
VERTEX
5
73f
100
AcDbEntity
8
1
100
AcDbVertex
100
AcDb2dVertex
62
5
10
40.425005
20
-204.599967
0
VERTEX
5
740
100
AcDbEntity
8
1
100
AcDbVertex
100
AcDb2dVertex
62
5
10
40.398004
20
-204.533965
0
VERTEX
5
741
100
AcDbEntity
8
1
100
AcDbVertex
100
AcDb2dVertex
62
5
10
40.377002
20
-204.455963
0
VERTEX
5
742
100
AcDbEntity
8
1
100
AcDbVertex
100
AcDb2dVertex
62
5
10
40.361999
20
-204.365961
0
VERTEX
5
743
100
AcDbEntity
8
1
100
AcDbVertex
100
AcDb2dVertex
62
5
10
40.352994
20
-204.263958
0
VERTEX
5
744
100
AcDbEntity
8
1
100
AcDbVertex
100
AcDb2dVertex
62
5
10
40.349989
20
-204.149955
0
SEQEND
5
745
100
AcDbEntity
8
1
0
LINE
5
746
100
AcDbEntity
8
1
100
AcDbLine
6
CONTINUOUS
62
5
10
40.649989
20
-207.749994
11
40.649989
21
-204.749993
0
POLYLINE
5
747
100
AcDbEntity
8
1
6
CONTINUOUS
62
5
100
AcDb2dPolyline
66
1
10
0.0
20
0.0
30
0.0
70
0
0
VERTEX
5
748
100
AcDbEntity
8
1
100
AcDbVertex
100
AcDb2dVertex
62
5
10
40.649989
20
-198.250002
0
VERTEX
5
749
100
AcDbEntity
8
1
100
AcDbVertex
100
AcDb2dVertex
62
5
10
40.592995
20
-198.256002
0
VERTEX
5
74a
100
AcDbEntity
8
1
100
AcDbVertex
100
AcDb2dVertex
62
5
10
40.541999
20
-198.274002
0
VERTEX
5
74b
100
AcDbEntity
8
1
100
AcDbVertex
100
AcDb2dVertex
62
5
10
40.497002
20
-198.304003
0
VERTEX
5
74c
100
AcDbEntity
8
1
100
AcDbVertex
100
AcDb2dVertex
62
5
10
40.458004
20
-198.346004
0
VERTEX
5
74d
100
AcDbEntity
8
1
100
AcDbVertex
100
AcDb2dVertex
62
5
10
40.425005
20
-198.400006
0
VERTEX
5
74e
100
AcDbEntity
8
1
100
AcDbVertex
100
AcDb2dVertex
62
5
10
40.398004
20
-198.466007
0
VERTEX
5
74f
100
AcDbEntity
8
1
100
AcDbVertex
100
AcDb2dVertex
62
5
10
40.377002
20
-198.544009
0
VERTEX
5
750
100
AcDbEntity
8
1
100
AcDbVertex
100
AcDb2dVertex
62
5
10
40.361999
20
-198.634012
0
VERTEX
5
751
100
AcDbEntity
8
1
100
AcDbVertex
100
AcDb2dVertex
62
5
10
40.352994
20
-198.736014
0
VERTEX
5
752
100
AcDbEntity
8
1
100
AcDbVertex
100
AcDb2dVertex
62
5
10
40.349989
20
-198.850017
0
SEQEND
5
753
100
AcDbEntity
8
1
0
LINE
5
754
100
AcDbEntity
8
1
100
AcDbLine
6
CONTINUOUS
62
5
10
40.649989
20
-195.250000
11
40.649989
21
-198.250002
0
ARC
5
755
100
AcDbEntity
8
1
100
AcDbCircle
6
CONTINUOUS
62
5
10
43.250000
20
-195.999986
40
0.500000
100
AcDbArc
50
89.999999
51
179.991048
0
LINE
5
756
100
AcDbEntity
8
1
100
AcDbLine
6
CONTINUOUS
62
5
10
43.250000
20
-195.499986
11
43.250324
21
-189.999986
0
LINE
5
757
100
AcDbEntity
8
1
100
AcDbLine
6
CONTINUOUS
62
5
10
42.749997
20
-198.850017
11
42.750000
21
-195.999908
0
ARC
5
758
100
AcDbEntity
8
1
100
AcDbCircle
6
CONTINUOUS
62
5
10
43.150000
20
-195.999986
40
0.500000
100
AcDbArc
50
89.999999
51
179.999998
0
LINE
5
759
100
AcDbEntity
8
1
100
AcDbLine
6
CONTINUOUS
62
5
10
43.150000
20
-195.499986
11
43.150523
21
-189.999986
0
LINE
5
75a
100
AcDbEntity
8
1
100
AcDbLine
6
CONTINUOUS
62
5
10
42.649997
20
-198.750017
11
42.650000
21
-195.999986
0
LINE
5
75b
100
AcDbEntity
8
1
100
AcDbLine
6
CONTINUOUS
62
5
10
41.750000
20
-185.349981
11
41.750000
21
-194.650014
0
POLYLINE
5
75c
100
AcDbEntity
8
1
6
CONTINUOUS
62
5
100
AcDb2dPolyline
66
1
10
0.0
20
0.0
30
0.0
70
0
0
VERTEX
5
75d
100
AcDbEntity
8
1
100
AcDbVertex
100
AcDb2dVertex
62
5
10
41.850000
20
-191.499986
0
VERTEX
5
75e
100
AcDbEntity
8
1
100
AcDbVertex
100
AcDb2dVertex
62
5
10
41.849997
20
-185.249972
0
VERTEX
5
75f
100
AcDbEntity
8
1
100
AcDbVertex
100
AcDb2dVertex
62
5
10
41.850000
20
-198.750002
0
SEQEND
5
760
100
AcDbEntity
8
1
0
POLYLINE
5
761
100
AcDbEntity
8
1
6
CONTINUOUS
62
5
100
AcDb2dPolyline
66
1
10
0.0
20
0.0
30
0.0
70
0
0
VERTEX
5
762
100
AcDbEntity
8
1
100
AcDbVertex
100
AcDb2dVertex
62
5
10
79.650000
20
-181.599986
0
VERTEX
5
763
100
AcDbEntity
8
1
100
AcDbVertex
100
AcDb2dVertex
62
5
10
79.350000
20
-181.899986
0
VERTEX
5
764
100
AcDbEntity
8
1
100
AcDbVertex
100
AcDb2dVertex
62
5
10
79.250000
20
-181.999986
0
SEQEND
5
765
100
AcDbEntity
8
1
0
POLYLINE
5
766
100
AcDbEntity
8
1
6
CONTINUOUS
62
5
100
AcDb2dPolyline
66
1
10
0.0
20
0.0
30
0.0
70
0
0
VERTEX
5
767
100
AcDbEntity
8
1
100
AcDbVertex
100
AcDb2dVertex
62
5
10
79.650000
20
-175.399986
0
VERTEX
5
768
100
AcDbEntity
8
1
100
AcDbVertex
100
AcDb2dVertex
62
5
10
79.350000
20
-175.099986
0
VERTEX
5
769
100
AcDbEntity
8
1
100
AcDbVertex
100
AcDb2dVertex
62
5
10
79.250000
20
-174.999986
0
SEQEND
5
76a
100
AcDbEntity
8
1
0
POLYLINE
5
76b
100
AcDbEntity
8
1
6
CONTINUOUS
62
5
100
AcDb2dPolyline
66
1
10
0.0
20
0.0
30
0.0
70
0
0
VERTEX
5
76c
100
AcDbEntity
8
1
100
AcDbVertex
100
AcDb2dVertex
62
5
10
79.650000
20
-204.599986
0
VERTEX
5
76d
100
AcDbEntity
8
1
100
AcDbVertex
100
AcDb2dVertex
62
5
10
79.350000
20
-204.899986
0
VERTEX
5
76e
100
AcDbEntity
8
1
100
AcDbVertex
100
AcDb2dVertex
62
5
10
79.250000
20
-204.999986
0
SEQEND
5
76f
100
AcDbEntity
8
1
0
POLYLINE
5
770
100
AcDbEntity
8
1
6
CONTINUOUS
62
5
100
AcDb2dPolyline
66
1
10
0.0
20
0.0
30
0.0
70
0
0
VERTEX
5
771
100
AcDbEntity
8
1
100
AcDbVertex
100
AcDb2dVertex
62
5
10
79.650000
20
-198.399986
0
VERTEX
5
772
100
AcDbEntity
8
1
100
AcDbVertex
100
AcDb2dVertex
62
5
10
79.350000
20
-198.099986
0
VERTEX
5
773
100
AcDbEntity
8
1
100
AcDbVertex
100
AcDb2dVertex
62
5
10
79.250000
20
-197.999986
0
SEQEND
5
774
100
AcDbEntity
8
1
0
LINE
5
775
100
AcDbEntity
8
1
100
AcDbLine
6
CONTINUOUS
62
5
10
108.850000
20
-225.699986
11
108.850000
21
-224.799986
0
ARC
5
776
100
AcDbEntity
8
1
100
AcDbCircle
6
CONTINUOUS
62
5
10
104.150000
20
-225.699986
40
0.300000
100
AcDbArc
50
-179.999998
51
-89.999999
0
LINE
5
777
100
AcDbEntity
8
1
100
AcDbLine
6
CONTINUOUS
62
5
10
103.850000
20
-225.699986
11
103.850000
21
-224.799986
0
ARC
5
778
100
AcDbEntity
8
1
100
AcDbCircle
6
CONTINUOUS
62
5
10
104.150000
20
-224.799986
40
0.300000
100
AcDbArc
50
89.999999
51
179.999998
0
LINE
5
779
100
AcDbEntity
8
1
100
AcDbLine
6
CONTINUOUS
62
5
10
104.150000
20
-224.499986
11
113.550000
21
-224.499986
0
ARC
5
77a
100
AcDbEntity
8
1
100
AcDbCircle
6
CONTINUOUS
62
5
10
113.550000
20
-224.799986
40
0.300000
100
AcDbArc
50
-0.000000
51
89.999999
0
LINE
5
77b
100
AcDbEntity
8
1
100
AcDbLine
6
CONTINUOUS
62
5
10
113.850000
20
-224.799986
11
113.850000
21
-225.699986
0
ARC
5
77c
100
AcDbEntity
8
1
100
AcDbCircle
6
CONTINUOUS
62
5
10
113.550000
20
-225.699986
40
0.300000
100
AcDbArc
50
-89.999999
51
0.000000
0
LINE
5
77d
100
AcDbEntity
8
1
100
AcDbLine
6
CONTINUOUS
62
5
10
113.550000
20
-225.999986
11
104.150000
21
-225.999986
0
LINE
5
77e
100
AcDbEntity
8
1
100
AcDbLine
6
CONTINUOUS
62
5
10
94.650000
20
-225.999986
11
94.550000
21
-226.099986
0
ARC
5
77f
100
AcDbEntity
8
1
100
AcDbCircle
6
CONTINUOUS
62
5
10
85.350000
20
-221.499986
40
0.500000
100
AcDbArc
50
0.000000
51
89.999999
0
LINE
5
780
100
AcDbEntity
8
1
100
AcDbLine
6
CONTINUOUS
62
5
10
84.683312
20
-220.999986
11
85.350000
21
-220.999986
0
ARC
5
781
100
AcDbEntity
8
1
100
AcDbCircle
6
CONTINUOUS
62
5
10
84.183312
20
-220.999986
40
0.500000
100
AcDbArc
50
0.000000
51
89.999999
0
LINE
5
782
100
AcDbEntity
8
1
100
AcDbLine
6
CONTINUOUS
62
5
10
84.183312
20
-220.499986
11
84.149965
21
-220.499986
0
LINE
5
783
100
AcDbEntity
8
1
100
AcDbLine
6
CONTINUOUS
62
5
10
84.683312
20
-222.500002
11
84.683312
21
-220.999986
0
ARC
5
784
100
AcDbEntity
8
1
100
AcDbCircle
6
CONTINUOUS
62
5
10
85.350000
20
-220.999986
40
0.500000
100
AcDbArc
50
-0.000000
51
89.999999
0
LINE
5
785
100
AcDbEntity
8
1
100
AcDbLine
6
CONTINUOUS
62
5
10
85.350000
20
-220.499986
11
84.949965
21
-220.499986
0
LINE
5
786
100
AcDbEntity
8
1
100
AcDbLine
6
CONTINUOUS
62
5
10
85.850000
20
-221.499986
11
85.850000
21
-220.999986
0
LINE
5
787
100
AcDbEntity
8
1
100
AcDbLine
6
CONTINUOUS
62
5
10
84.149965
20
-218.249986
11
84.149965
21
-220.499986
0
POLYLINE
5
788
100
AcDbEntity
8
1
6
CONTINUOUS
62
5
100
AcDb2dPolyline
66
1
10
0.0
20
0.0
30
0.0
70
0
0
VERTEX
5
789
100
AcDbEntity
8
1
100
AcDbVertex
100
AcDb2dVertex
62
5
10
83.849965
20
-215.499986
0
VERTEX
5
78a
100
AcDbEntity
8
1
100
AcDbVertex
100
AcDb2dVertex
62
5
10
83.050000
20
-215.499986
0
VERTEX
5
78b
100
AcDbEntity
8
1
100
AcDbVertex
100
AcDb2dVertex
62
5
10
83.050000
20
-217.499986
0
VERTEX
5
78c
100
AcDbEntity
8
1
100
AcDbVertex
100
AcDb2dVertex
62
5
10
83.849965
20
-217.499986
0
SEQEND
5
78d
100
AcDbEntity
8
1
0
LINE
5
78e
100
AcDbEntity
8
1
100
AcDbLine
6
CONTINUOUS
62
5
10
82.450000
20
-218.499986
11
82.550000
21
-218.499986
0
LINE
5
78f
100
AcDbEntity
8
1
100
AcDbLine
6
CONTINUOUS
62
5
10
83.250000
20
-215.499986
11
83.250000
21
-217.499986
0
POLYLINE
5
790
100
AcDbEntity
8
1
6
CONTINUOUS
62
5
100
AcDb2dPolyline
66
1
10
0.0
20
0.0
30
0.0
70
0
0
VERTEX
5
791
100
AcDbEntity
8
1
100
AcDbVertex
100
AcDb2dVertex
62
5
10
87.850002
20
-214.999974
0
VERTEX
5
792
100
AcDbEntity
8
1
100
AcDbVertex
100
AcDb2dVertex
62
5
10
88.650003
20
-215.001037
0
VERTEX
5
793
100
AcDbEntity
8
1
100
AcDbVertex
100
AcDb2dVertex
62
5
10
88.650006
20
-217.500976
0
VERTEX
5
794
100
AcDbEntity
8
1
100
AcDbVertex
100
AcDb2dVertex
62
5
10
87.850002
20
-217.499976
0
SEQEND
5
795
100
AcDbEntity
8
1
0
LINE
5
796
100
AcDbEntity
8
1
100
AcDbLine
6
CONTINUOUS
62
5
10
89.150000
20
-218.499986
11
89.250000
21
-218.499986
0
LINE
5
797
100
AcDbEntity
8
1
100
AcDbLine
6
CONTINUOUS
62
5
10
87.849997
20
-217.749978
11
87.849997
21
-221.749980
0
LINE
5
798
100
AcDbEntity
8
1
100
AcDbLine
6
CONTINUOUS
62
5
10
88.449956
20
-215.000771
11
88.449954
21
-217.500726
0
ARC
5
799
100
AcDbEntity
8
1
100
AcDbCircle
6
CONTINUOUS
62
5
10
87.349997
20
-221.749980
40
0.500000
100
AcDbArc
50
0.000000
51
89.999999
0
LINE
5
79a
100
AcDbEntity
8
1
100
AcDbLine
6
CONTINUOUS
62
5
10
87.849997
20
-221.749980
11
87.850000
21
-222.500002
0
LINE
5
79b
100
AcDbEntity
8
1
100
AcDbLine
6
CONTINUOUS
62
5
10
86.650000
20
-221.249980
11
87.349997
21
-221.249980
0
ARC
5
79c
100
AcDbEntity
8
1
100
AcDbCircle
6
CONTINUOUS
62
5
10
87.349996
20
-221.749980
40
0.500000
100
AcDbArc
50
0.000000
51
89.999999
0
POLYLINE
5
79d
100
AcDbEntity
8
1
6
CONTINUOUS
62
5
100
AcDb2dPolyline
66
1
10
0.0
20
0.0
30
0.0
70
0
0
VERTEX
5
79e
100
AcDbEntity
8
1
100
AcDbVertex
100
AcDb2dVertex
62
5
10
87.349996
20
-221.249980
0
VERTEX
5
79f
100
AcDbEntity
8
1
100
AcDbVertex
100
AcDb2dVertex
62
5
10
86.650000
20
-221.249980
0
VERTEX
5
7a0
100
AcDbEntity
8
1
100
AcDbVertex
100
AcDb2dVertex
62
5
10
86.650000
20
-222.500002
0
SEQEND
5
7a1
100
AcDbEntity
8
1
0
LINE
5
7a2
100
AcDbEntity
8
1
100
AcDbLine
6
CONTINUOUS
62
5
10
87.849996
20
-221.749972
11
87.849996
21
-221.749980
0
LINE
5
7a3
100
AcDbEntity
8
1
100
AcDbLine
6
CONTINUOUS
62
5
10
86.650000
20
-218.249978
11
86.650000
21
-221.249980
0
LINE
5
7a4
100
AcDbEntity
8
1
100
AcDbLine
6
CONTINUOUS
62
5
10
90.550000
20
-225.999986
11
90.650000
21
-226.099986
0
LINE
5
7a5
100
AcDbEntity
8
1
100
AcDbLine
6
CONTINUOUS
62
5
10
92.450000
20
-220.999986
11
92.050000
21
-221.399986
0
LINE
5
7a6
100
AcDbEntity
8
1
100
AcDbLine
6
CONTINUOUS
62
5
10
94.550000
20
-232.099986
11
94.650000
21
-232.199986
0
LINE
5
7a7
100
AcDbEntity
8
1
100
AcDbLine
6
CONTINUOUS
62
5
10
90.650000
20
-232.099986
11
90.550000
21
-232.199986
0
POLYLINE
5
7a8
100
AcDbEntity
8
1
6
CONTINUOUS
62
5
100
AcDb2dPolyline
66
1
10
0.0
20
0.0
30
0.0
70
1
0
VERTEX
5
7a9
100
AcDbEntity
8
1
100
AcDbVertex
100
AcDb2dVertex
62
5
10
90.650000
20
-226.099986
0
VERTEX
5
7aa
100
AcDbEntity
8
1
100
AcDbVertex
100
AcDb2dVertex
62
5
10
90.650000
20
-232.099986
0
VERTEX
5
7ab
100
AcDbEntity
8
1
100
AcDbVertex
100
AcDb2dVertex
62
5
10
94.550000
20
-232.099986
0
VERTEX
5
7ac
100
AcDbEntity
8
1
100
AcDbVertex
100
AcDb2dVertex
62
5
10
94.550000
20
-226.099986
0
SEQEND
5
7ad
100
AcDbEntity
8
1
0
POLYLINE
5
7ae
100
AcDbEntity
8
1
6
CONTINUOUS
62
5
100
AcDb2dPolyline
66
1
10
0.0
20
0.0
30
0.0
70
1
0
VERTEX
5
7af
100
AcDbEntity
8
1
100
AcDbVertex
100
AcDb2dVertex
62
5
10
94.650000
20
-225.999986
0
VERTEX
5
7b0
100
AcDbEntity
8
1
100
AcDbVertex
100
AcDb2dVertex
62
5
10
90.550000
20
-225.999986
0
VERTEX
5
7b1
100
AcDbEntity
8
1
100
AcDbVertex
100
AcDb2dVertex
62
5
10
90.550000
20
-232.199986
0
VERTEX
5
7b2
100
AcDbEntity
8
1
100
AcDbVertex
100
AcDb2dVertex
62
5
10
94.650000
20
-232.199986
0
VERTEX
5
7b3
100
AcDbEntity
8
1
100
AcDbVertex
100
AcDb2dVertex
62
5
10
94.650000
20
-225.999986
0
SEQEND
5
7b4
100
AcDbEntity
8
1
0
POLYLINE
5
7b5
100
AcDbEntity
8
1
6
CONTINUOUS
62
5
100
AcDb2dPolyline
66
1
10
0.0
20
0.0
30
0.0
70
0
0
VERTEX
5
7b6
100
AcDbEntity
8
1
100
AcDbVertex
100
AcDb2dVertex
62
5
10
93.050000
20
-226.099986
0
VERTEX
5
7b7
100
AcDbEntity
8
1
100
AcDbVertex
100
AcDb2dVertex
62
5
10
93.050000
20
-230.699986
0
VERTEX
5
7b8
100
AcDbEntity
8
1
100
AcDbVertex
100
AcDb2dVertex
62
5
10
94.550000
20
-230.699986
0
SEQEND
5
7b9
100
AcDbEntity
8
1
0
LINE
5
7ba
100
AcDbEntity
8
1
100
AcDbLine
6
CONTINUOUS
62
5
10
81.150000
20
-225.999986
11
81.050000
21
-226.099986
0
LINE
5
7bb
100
AcDbEntity
8
1
100
AcDbLine
6
CONTINUOUS
62
5
10
81.050000
20
-232.099986
11
81.150000
21
-232.199986
0
LINE
5
7bc
100
AcDbEntity
8
1
100
AcDbLine
6
CONTINUOUS
62
5
10
81.050000
20
-232.099986
11
81.150000
21
-232.199986
0
ARC
5
7bd
100
AcDbEntity
8
1
100
AcDbCircle
6
CONTINUOUS
62
5
10
83.700000
20
-242.499987
40
0.600000
100
AcDbArc
50
179.999998
51
-89.999999
0
LINE
5
7be
100
AcDbEntity
8
1
100
AcDbLine
6
CONTINUOUS
62
5
10
83.700000
20
-243.099987
11
88.000000
21
-243.099987
0
ARC
5
7bf
100
AcDbEntity
8
1
100
AcDbCircle
6
CONTINUOUS
62
5
10
88.000000
20
-242.499987
40
0.600000
100
AcDbArc
50
-89.999999
51
0.000000
0
POLYLINE
5
7c0
100
AcDbEntity
8
1
6
CONTINUOUS
62
5
100
AcDb2dPolyline
66
1
10
0.0
20
0.0
30
0.0
70
0
0
VERTEX
5
7c1
100
AcDbEntity
8
1
100
AcDbVertex
100
AcDb2dVertex
62
5
10
88.600000
20
-242.499987
0
VERTEX
5
7c2
100
AcDbEntity
8
1
100
AcDbVertex
100
AcDb2dVertex
62
5
10
88.600000
20
-240.899986
0
VERTEX
5
7c3
100
AcDbEntity
8
1
100
AcDbVertex
100
AcDb2dVertex
62
5
10
83.100000
20
-240.899986
0
VERTEX
5
7c4
100
AcDbEntity
8
1
100
AcDbVertex
100
AcDb2dVertex
62
5
10
83.100000
20
-242.499987
0
SEQEND
5
7c5
100
AcDbEntity
8
1
0
ARC
5
7c6
100
AcDbEntity
8
1
100
AcDbCircle
6
CONTINUOUS
62
5
10
88.000000
20
-242.499987
40
2.000000
100
AcDbArc
50
-89.999999
51
0.000000
0
LINE
5
7c7
100
AcDbEntity
8
1
100
AcDbLine
6
CONTINUOUS
62
5
10
88.000000
20
-244.499987
11
83.700000
21
-244.499987
0
ARC
5
7c8
100
AcDbEntity
8
1
100
AcDbCircle
6
CONTINUOUS
62
5
10
83.700000
20
-242.499987
40
2.000000
100
AcDbArc
50
179.999998
51
-89.999999
0
POLYLINE
5
7c9
100
AcDbEntity
8
1
6
CONTINUOUS
62
5
100
AcDb2dPolyline
66
1
10
0.0
20
0.0
30
0.0
70
0
0
VERTEX
5
7ca
100
AcDbEntity
8
1
100
AcDbVertex
100
AcDb2dVertex
62
5
10
81.700000
20
-242.499987
0
VERTEX
5
7cb
100
AcDbEntity
8
1
100
AcDbVertex
100
AcDb2dVertex
62
5
10
81.700000
20
-240.199986
0
VERTEX
5
7cc
100
AcDbEntity
8
1
100
AcDbVertex
100
AcDb2dVertex
62
5
10
90.000000
20
-240.199986
0
VERTEX
5
7cd
100
AcDbEntity
8
1
100
AcDbVertex
100
AcDb2dVertex
62
5
10
90.000000
20
-242.499987
0
SEQEND
5
7ce
100
AcDbEntity
8
1
0
POLYLINE
5
7cf
100
AcDbEntity
8
1
6
CONTINUOUS
62
5
100
AcDb2dPolyline
66
1
10
0.0
20
0.0
30
0.0
70
0
0
VERTEX
5
7d0
100
AcDbEntity
8
1
100
AcDbVertex
100
AcDb2dVertex
62
5
10
90.000000
20
-240.199986
0
VERTEX
5
7d1
100
AcDbEntity
8
1
100
AcDbVertex
100
AcDb2dVertex
62
5
10
89.300000
20
-240.899986
0
VERTEX
5
7d2
100
AcDbEntity
8
1
100
AcDbVertex
100
AcDb2dVertex
62
5
10
82.400000
20
-240.899986
0
VERTEX
5
7d3
100
AcDbEntity
8
1
100
AcDbVertex
100
AcDb2dVertex
62
5
10
81.700000
20
-240.199986
0
SEQEND
5
7d4
100
AcDbEntity
8
1
0
LINE
5
7d5
100
AcDbEntity
8
1
100
AcDbLine
6
CONTINUOUS
62
5
10
98.850000
20
-236.249986
11
117.850000
21
-236.249986
0
ARC
5
7d6
100
AcDbEntity
8
1
100
AcDbCircle
6
CONTINUOUS
62
5
10
108.850000
20
-232.099986
40
2.500000
100
AcDbArc
50
-135.113817
51
-44.886181
0
ARC
5
7d7
100
AcDbEntity
8
1
100
AcDbCircle
6
CONTINUOUS
62
5
10
118.050000
20
-224.799986
40
0.300000
100
AcDbArc
50
-0.000000
51
89.999999
0
LINE
5
7d8
100
AcDbEntity
8
1
100
AcDbLine
6
CONTINUOUS
62
5
10
118.350000
20
-224.799986
11
118.350000
21
-235.854235
0
ARC
5
7d9
100
AcDbEntity
8
1
100
AcDbCircle
6
CONTINUOUS
62
5
10
108.850000
20
-189.999986
40
46.250000
100
AcDbArc
50
-95.291079
51
-84.708919
0
LINE
5
7da
100
AcDbEntity
8
1
100
AcDbLine
6
CONTINUOUS
62
5
10
113.114970
20
-236.052918
11
113.114970
21
-236.052918
0
ARC
5
7db
100
AcDbEntity
8
1
100
AcDbCircle
6
CONTINUOUS
62
5
10
112.700000
20
-231.572092
40
4.500000
100
AcDbArc
50
-84.708919
51
95.291079
0
LINE
5
7dc
100
AcDbEntity
8
1
100
AcDbLine
6
CONTINUOUS
62
5
10
112.285030
20
-227.091266
11
112.285030
21
-227.091266
0
ARC
5
7dd
100
AcDbEntity
8
1
100
AcDbCircle
6
CONTINUOUS
62
5
10
108.850000
20
-189.999986
40
37.250000
100
AcDbArc
50
-95.291079
51
-84.708919
0
LINE
5
7de
100
AcDbEntity
8
1
100
AcDbLine
6
CONTINUOUS
62
5
10
105.414970
20
-227.091266
11
105.414970
21
-227.091266
0
ARC
5
7df
100
AcDbEntity
8
1
100
AcDbCircle
6
CONTINUOUS
62
5
10
105.000000
20
-231.572092
40
4.500000
100
AcDbArc
50
84.708919
51
-95.291079
0
LINE
5
7e0
100
AcDbEntity
8
1
100
AcDbLine
6
CONTINUOUS
62
5
10
104.585030
20
-236.052918
11
104.585030
21
-236.052918
0
ARC
5
7e1
100
AcDbEntity
8
1
100
AcDbCircle
6
CONTINUOUS
62
5
10
105.000000
20
-231.572092
40
3.000000
100
AcDbArc
50
84.708919
51
-95.291079
0
LINE
5
7e2
100
AcDbEntity
8
1
100
AcDbLine
6
CONTINUOUS
62
5
10
104.723353
20
-234.559309
11
104.723353
21
-234.559309
0
ARC
5
7e3
100
AcDbEntity
8
1
100
AcDbCircle
6
CONTINUOUS
62
5
10
108.850000
20
-189.999986
40
44.750000
100
AcDbArc
50
-95.291079
51
-84.708919
0
LINE
5
7e4
100
AcDbEntity
8
1
100
AcDbLine
6
CONTINUOUS
62
5
10
112.976647
20
-234.559309
11
112.976647
21
-234.559309
0
ARC
5
7e5
100
AcDbEntity
8
1
100
AcDbCircle
6
CONTINUOUS
62
5
10
112.700000
20
-231.572092
40
3.000000
100
AcDbArc
50
-84.708919
51
95.291079
0
LINE
5
7e6
100
AcDbEntity
8
1
100
AcDbLine
6
CONTINUOUS
62
5
10
112.423353
20
-228.584875
11
112.423353
21
-228.584875
0
ARC
5
7e7
100
AcDbEntity
8
1
100
AcDbCircle
6
CONTINUOUS
62
5
10
108.850000
20
-189.999986
40
38.750000
100
AcDbArc
50
-95.291079
51
-84.708919
0
LINE
5
7e8
100
AcDbEntity
8
1
100
AcDbLine
6
CONTINUOUS
62
5
10
105.276647
20
-228.584875
11
105.276647
21
-228.584875
0
ARC
5
7e9
100
AcDbEntity
8
1
100
AcDbCircle
6
CONTINUOUS
62
5
10
108.850000
20
-189.999986
40
44.200000
100
AcDbArc
50
-95.291079
51
-91.801760
0
ARC
5
7ea
100
AcDbEntity
8
1
100
AcDbCircle
6
CONTINUOUS
62
5
10
108.850000
20
-189.999986
40
44.200000
100
AcDbArc
50
-88.198238
51
-84.708919
0
LINE
5
7eb
100
AcDbEntity
8
1
100
AcDbLine
6
CONTINUOUS
62
5
10
112.925928
20
-234.011653
11
112.925928
21
-234.011653
0
ARC
5
7ec
100
AcDbEntity
8
1
100
AcDbCircle
6
CONTINUOUS
62
5
10
112.700000
20
-231.572092
40
2.450000
100
AcDbArc
50
-84.708919
51
95.291079
0
LINE
5
7ed
100
AcDbEntity
8
1
100
AcDbLine
6
CONTINUOUS
62
5
10
112.474072
20
-229.132532
11
112.474072
21
-229.132532
0
ARC
5
7ee
100
AcDbEntity
8
1
100
AcDbCircle
6
CONTINUOUS
62
5
10
108.850000
20
-189.999986
40
39.300000
100
AcDbArc
50
-95.291079
51
-84.708919
0
LINE
5
7ef
100
AcDbEntity
8
1
100
AcDbLine
6
CONTINUOUS
62
5
10
105.225928
20
-229.132532
11
105.225928
21
-229.132532
0
ARC
5
7f0
100
AcDbEntity
8
1
100
AcDbCircle
6
CONTINUOUS
62
5
10
105.000000
20
-231.572092
40
2.450000
100
AcDbArc
50
84.708919
51
-95.291079
0
LINE
5
7f1
100
AcDbEntity
8
1
100
AcDbLine
6
CONTINUOUS
62
5
10
104.774072
20
-234.011653
11
104.774072
21
-234.011653
0
ARC
5
7f2
100
AcDbEntity
8
1
100
AcDbCircle
6
CONTINUOUS
62
5
10
108.850000
20
-189.999986
40
43.900000
100
AcDbArc
50
-95.291079
51
-92.312394
0
ARC
5
7f3
100
AcDbEntity
8
1
100
AcDbCircle
6
CONTINUOUS
62
5
10
108.850000
20
-189.999986
40
43.900000
100
AcDbArc
50
-87.687604
51
-84.708919
0
ARC
5
7f4
100
AcDbEntity
8
1
100
AcDbCircle
6
CONTINUOUS
62
5
10
112.700000
20
-231.572092
40
2.150000
100
AcDbArc
50
-84.708919
51
95.291079
0
ARC
5
7f5
100
AcDbEntity
8
1
100
AcDbCircle
6
CONTINUOUS
62
5
10
108.850000
20
-189.999986
40
39.600000
100
AcDbArc
50
-95.291079
51
-84.708919
0
ARC
5
7f6
100
AcDbEntity
8
1
100
AcDbCircle
6
CONTINUOUS
62
5
10
105.000000
20
-231.572092
40
2.150000
100
AcDbArc
50
84.708919
51
-95.291079
0
ARC
5
7f7
100
AcDbEntity
8
1
100
AcDbCircle
6
CONTINUOUS
62
5
10
117.550000
20
-224.799986
40
0.300000
100
AcDbArc
50
0.000000
51
89.999999
0
LINE
5
7f8
100
AcDbEntity
8
1
100
AcDbLine
6
CONTINUOUS
62
5
10
117.850000
20
-236.563495
11
117.850000
21
-224.799986
0
ARC
5
7f9
100
AcDbEntity
8
1
100
AcDbCircle
6
CONTINUOUS
62
5
10
96.602361
20
-234.749986
40
3.000000
100
AcDbArc
50
-135.316547
51
-89.999999
0
LINE
5
7fa
100
AcDbEntity
8
1
100
AcDbLine
6
CONTINUOUS
62
5
10
94.469353
20
-236.859554
11
91.143549
21
-233.496797
0
ARC
5
7fb
100
AcDbEntity
8
1
100
AcDbCircle
6
CONTINUOUS
62
5
10
90.432546
20
-234.199986
40
1.000000
100
AcDbArc
50
44.683452
51
89.999999
0
LINE
5
7fc
100
AcDbEntity
8
1
100
AcDbLine
6
CONTINUOUS
62
5
10
117.420942
20
-237.749986
11
96.602361
21
-237.749986
0
ARC
5
7fd
100
AcDbEntity
8
1
100
AcDbCircle
6
CONTINUOUS
62
5
10
95.050000
20
-224.799986
40
0.300000
100
AcDbArc
50
-0.000000
51
89.999999
0
LINE
5
7fe
100
AcDbEntity
8
1
100
AcDbLine
6
CONTINUOUS
62
5
10
95.350000
20
-224.799986
11
95.350000
21
-235.249986
0
ARC
5
7ff
100
AcDbEntity
8
1
100
AcDbCircle
6
CONTINUOUS
62
5
10
96.350000
20
-235.249986
40
1.000000
100
AcDbArc
50
179.999998
51
-89.999999
0
LINE
5
800
100
AcDbEntity
8
1
100
AcDbLine
6
CONTINUOUS
62
5
10
96.350000
20
-236.249986
11
98.850000
21
-236.249986
0
ARC
5
801
100
AcDbEntity
8
1
100
AcDbCircle
6
CONTINUOUS
62
5
10
98.850000
20
-235.249986
40
1.000000
100
AcDbArc
50
-89.999999
51
0.000000
0
LINE
5
802
100
AcDbEntity
8
1
100
AcDbLine
6
CONTINUOUS
62
5
10
99.850000
20
-235.249986
11
99.850000
21
-224.799986
0
ARC
5
803
100
AcDbEntity
8
1
100
AcDbCircle
6
CONTINUOUS
62
5
10
100.150000
20
-224.799986
40
0.300000
100
AcDbArc
50
89.999999
51
179.999998
0
LINE
5
804
100
AcDbEntity
8
1
100
AcDbLine
6
CONTINUOUS
62
5
10
95.050000
20
-224.499986
11
95.050000
21
-224.499986
0
ARC
5
805
100
AcDbEntity
8
1
100
AcDbCircle
6
CONTINUOUS
62
5
10
98.850000
20
-235.249986
40
0.500000
100
AcDbArc
50
-89.999999
51
0.000000
0
LINE
5
806
100
AcDbEntity
8
1
100
AcDbLine
6
CONTINUOUS
62
5
10
98.850000
20
-235.749986
11
96.350000
21
-235.749986
0
ARC
5
807
100
AcDbEntity
8
1
100
AcDbCircle
6
CONTINUOUS
62
5
10
96.350000
20
-235.249986
40
0.500000
100
AcDbArc
50
179.999998
51
-89.999999
0
LINE
5
808
100
AcDbEntity
8
1
100
AcDbLine
6
CONTINUOUS
62
5
10
95.850000
20
-235.249986
11
95.850000
21
-224.799986
0
ARC
5
809
100
AcDbEntity
8
1
100
AcDbCircle
6
CONTINUOUS
62
5
10
95.550000
20
-224.799986
40
0.300000
100
AcDbArc
50
0.000000
51
89.999999
0
ARC
5
80a
100
AcDbEntity
8
1
100
AcDbCircle
6
CONTINUOUS
62
5
10
99.650000
20
-224.799986
40
0.300000
100
AcDbArc
50
89.999999
51
179.999998
0
LINE
5
80b
100
AcDbEntity
8
1
100
AcDbLine
6
CONTINUOUS
62
5
10
99.350000
20
-224.799986
11
99.350000
21
-235.249986
0
LINE
5
80c
100
AcDbEntity
8
1
100
AcDbLine
6
CONTINUOUS
62
5
10
77.050000
20
-225.999986
11
77.150000
21
-226.099986
0
LINE
5
80d
100
AcDbEntity
8
1
100
AcDbLine
6
CONTINUOUS
62
5
10
77.150000
20
-232.099986
11
77.050000
21
-232.199986
0
POLYLINE
5
80e
100
AcDbEntity
8
1
6
CONTINUOUS
62
5
100
AcDb2dPolyline
66
1
10
0.0
20
0.0
30
0.0
70
0
0
VERTEX
5
80f
100
AcDbEntity
8
1
100
AcDbVertex
100
AcDb2dVertex
62
5
10
78.650000
20
-226.099986
0
VERTEX
5
810
100
AcDbEntity
8
1
100
AcDbVertex
100
AcDb2dVertex
62
5
10
78.650000
20
-230.699986
0
VERTEX
5
811
100
AcDbEntity
8
1
100
AcDbVertex
100
AcDb2dVertex
62
5
10
77.150000
20
-230.699986
0
SEQEND
5
812
100
AcDbEntity
8
1
0
LINE
5
813
100
AcDbEntity
8
1
100
AcDbLine
6
CONTINUOUS
62
5
10
62.850000
20
-225.699986
11
62.850000
21
-224.799986
0
LINE
5
814
100
AcDbEntity
8
1
100
AcDbLine
6
CONTINUOUS
62
5
10
46.450000
20
-220.999986
11
46.050000
21
-221.399986
0
ARC
5
815
100
AcDbEntity
8
1
100
AcDbCircle
6
CONTINUOUS
62
5
10
41.271149
20
-217.750000
40
0.500000
100
AcDbArc
50
-89.999999
51
0.000000
0
LINE
5
816
100
AcDbEntity
8
1
100
AcDbLine
6
CONTINUOUS
62
5
10
41.271149
20
-218.250000
11
41.349997
21
-218.250000
0
LINE
5
817
100
AcDbEntity
8
1
100
AcDbLine
6
CONTINUOUS
62
5
10
41.771149
20
-217.650014
11
41.771149
21
-217.750000
0
ARC
5
818
100
AcDbEntity
8
1
100
AcDbCircle
6
CONTINUOUS
62
5
10
41.271149
20
-221.750002
40
0.500000
100
AcDbArc
50
0.000000
51
89.999999
0
LINE
5
819
100
AcDbEntity
8
1
100
AcDbLine
6
CONTINUOUS
62
5
10
41.271149
20
-221.250002
11
41.349996
21
-221.250002
0
LINE
5
81a
100
AcDbEntity
8
1
100
AcDbLine
6
CONTINUOUS
62
5
10
41.771149
20
-221.850017
11
41.771149
21
-221.750002
0
LINE
5
81b
100
AcDbEntity
8
1
100
AcDbLine
6
CONTINUOUS
62
5
10
41.750000
20
-215.000003
11
41.750000
21
-217.650014
0
POLYLINE
5
81c
100
AcDbEntity
8
1
6
CONTINUOUS
62
5
100
AcDb2dPolyline
66
1
10
0.0
20
0.0
30
0.0
70
0
0
VERTEX
5
81d
100
AcDbEntity
8
1
100
AcDbVertex
100
AcDb2dVertex
62
5
10
41.850000
20
-217.500003
0
VERTEX
5
81e
100
AcDbEntity
8
1
100
AcDbVertex
100
AcDb2dVertex
62
5
10
42.650001
20
-217.498940
0
VERTEX
5
81f
100
AcDbEntity
8
1
100
AcDbVertex
100
AcDb2dVertex
62
5
10
42.650004
20
-214.999001
0
VERTEX
5
820
100
AcDbEntity
8
1
100
AcDbVertex
100
AcDb2dVertex
62
5
10
41.850000
20
-215.000001
0
SEQEND
5
821
100
AcDbEntity
8
1
0
LINE
5
822
100
AcDbEntity
8
1
100
AcDbLine
6
CONTINUOUS
62
5
10
42.649997
20
-221.750017
11
41.850000
21
-221.750002
0
LINE
5
823
100
AcDbEntity
8
1
100
AcDbLine
6
CONTINUOUS
62
5
10
42.449956
20
-214.999251
11
42.449954
21
-217.499206
0
ARC
5
824
100
AcDbEntity
8
1
100
AcDbCircle
6
CONTINUOUS
62
5
10
43.150000
20
-218.999986
40
0.500000
100
AcDbArc
50
89.999999
51
179.999998
0
LINE
5
825
100
AcDbEntity
8
1
100
AcDbLine
6
CONTINUOUS
62
5
10
43.150000
20
-218.499986
11
43.150523
21
-212.999986
0
LINE
5
826
100
AcDbEntity
8
1
100
AcDbLine
6
CONTINUOUS
62
5
10
42.649997
20
-221.750017
11
42.650000
21
-218.999986
0
ARC
5
827
100
AcDbEntity
8
1
100
AcDbCircle
6
CONTINUOUS
62
5
10
43.250000
20
-218.999986
40
0.500000
100
AcDbArc
50
89.999999
51
179.991048
0
LINE
5
828
100
AcDbEntity
8
1
100
AcDbLine
6
CONTINUOUS
62
5
10
43.250000
20
-218.499986
11
43.250523
21
-212.999986
0
LINE
5
829
100
AcDbEntity
8
1
100
AcDbLine
6
CONTINUOUS
62
5
10
42.749997
20
-221.850017
11
42.750000
21
-218.999908
0
LINE
5
82a
100
AcDbEntity
8
1
100
AcDbLine
6
CONTINUOUS
62
5
10
44.550000
20
-225.999986
11
44.650000
21
-226.099986
0
LINE
5
82b
100
AcDbEntity
8
1
100
AcDbLine
6
CONTINUOUS
62
5
10
42.649997
20
-221.750017
11
42.749997
21
-221.850017
0
LINE
5
82c
100
AcDbEntity
8
1
100
AcDbLine
6
CONTINUOUS
62
5
10
43.150000
20
-218.499986
11
43.250000
21
-218.499986
0
LINE
5
82d
100
AcDbEntity
8
1
100
AcDbLine
6
CONTINUOUS
62
5
10
48.650000
20
-225.999986
11
48.550000
21
-226.099986
0
LINE
5
82e
100
AcDbEntity
8
1
100
AcDbLine
6
CONTINUOUS
62
5
10
44.650000
20
-232.099986
11
44.550000
21
-232.199986
0
LINE
5
82f
100
AcDbEntity
8
1
100
AcDbLine
6
CONTINUOUS
62
5
10
48.550000
20
-232.099986
11
48.650000
21
-232.199986
0
POLYLINE
5
830
100
AcDbEntity
8
1
6
CONTINUOUS
62
5
100
AcDb2dPolyline
66
1
10
0.0
20
0.0
30
0.0
70
1
0
VERTEX
5
831
100
AcDbEntity
8
1
100
AcDbVertex
100
AcDb2dVertex
62
5
10
48.650000
20
-225.999986
0
VERTEX
5
832
100
AcDbEntity
8
1
100
AcDbVertex
100
AcDb2dVertex
62
5
10
44.550000
20
-225.999986
0
VERTEX
5
833
100
AcDbEntity
8
1
100
AcDbVertex
100
AcDb2dVertex
62
5
10
44.550000
20
-232.199986
0
VERTEX
5
834
100
AcDbEntity
8
1
100
AcDbVertex
100
AcDb2dVertex
62
5
10
48.650000
20
-232.199986
0
VERTEX
5
835
100
AcDbEntity
8
1
100
AcDbVertex
100
AcDb2dVertex
62
5
10
48.650000
20
-225.999986
0
SEQEND
5
836
100
AcDbEntity
8
1
0
POLYLINE
5
837
100
AcDbEntity
8
1
6
CONTINUOUS
62
5
100
AcDb2dPolyline
66
1
10
0.0
20
0.0
30
0.0
70
1
0
VERTEX
5
838
100
AcDbEntity
8
1
100
AcDbVertex
100
AcDb2dVertex
62
5
10
44.650000
20
-226.099986
0
VERTEX
5
839
100
AcDbEntity
8
1
100
AcDbVertex
100
AcDb2dVertex
62
5
10
44.650000
20
-232.099986
0
VERTEX
5
83a
100
AcDbEntity
8
1
100
AcDbVertex
100
AcDb2dVertex
62
5
10
48.550000
20
-232.099986
0
VERTEX
5
83b
100
AcDbEntity
8
1
100
AcDbVertex
100
AcDb2dVertex
62
5
10
48.550000
20
-226.099986
0
SEQEND
5
83c
100
AcDbEntity
8
1
0
POLYLINE
5
83d
100
AcDbEntity
8
1
6
CONTINUOUS
62
5
100
AcDb2dPolyline
66
1
10
0.0
20
0.0
30
0.0
70
0
0
VERTEX
5
83e
100
AcDbEntity
8
1
100
AcDbVertex
100
AcDb2dVertex
62
5
10
47.050000
20
-226.099986
0
VERTEX
5
83f
100
AcDbEntity
8
1
100
AcDbVertex
100
AcDb2dVertex
62
5
10
47.050000
20
-230.699986
0
VERTEX
5
840
100
AcDbEntity
8
1
100
AcDbVertex
100
AcDb2dVertex
62
5
10
48.550000
20
-230.699986
0
SEQEND
5
841
100
AcDbEntity
8
1
0
LINE
5
842
100
AcDbEntity
8
1
100
AcDbLine
6
CONTINUOUS
62
5
10
40.350212
20
-217.650000
11
40.349989
21
-221.850017
0
ARC
5
843
100
AcDbEntity
8
1
100
AcDbCircle
6
CONTINUOUS
62
5
10
41.349997
20
-217.750000
40
0.500000
100
AcDbArc
50
-89.999999
51
0.000000
0
LINE
5
844
100
AcDbEntity
8
1
100
AcDbLine
6
CONTINUOUS
62
5
10
41.849997
20
-217.750000
11
41.849997
21
-217.650015
0
POLYLINE
5
845
100
AcDbEntity
8
1
6
CONTINUOUS
62
5
100
AcDb2dPolyline
66
1
10
0.0
20
0.0
30
0.0
70
0
0
VERTEX
5
846
100
AcDbEntity
8
1
100
AcDbVertex
100
AcDb2dVertex
62
5
10
40.350212
20
-217.650000
0
VERTEX
5
847
100
AcDbEntity
8
1
100
AcDbVertex
100
AcDb2dVertex
62
5
10
40.353204
20
-217.764000
0
VERTEX
5
848
100
AcDbEntity
8
1
100
AcDbVertex
100
AcDb2dVertex
62
5
10
40.362193
20
-217.866000
0
VERTEX
5
849
100
AcDbEntity
8
1
100
AcDbVertex
100
AcDb2dVertex
62
5
10
40.377178
20
-217.956000
0
VERTEX
5
84a
100
AcDbEntity
8
1
100
AcDbVertex
100
AcDb2dVertex
62
5
10
40.398161
20
-218.034000
0
VERTEX
5
84b
100
AcDbEntity
8
1
100
AcDbVertex
100
AcDb2dVertex
62
5
10
40.425140
20
-218.100000
0
VERTEX
5
84c
100
AcDbEntity
8
1
100
AcDbVertex
100
AcDb2dVertex
62
5
10
40.458116
20
-218.154000
0
VERTEX
5
84d
100
AcDbEntity
8
1
100
AcDbVertex
100
AcDb2dVertex
62
5
10
40.497089
20
-218.196000
0
VERTEX
5
84e
100
AcDbEntity
8
1
100
AcDbVertex
100
AcDb2dVertex
62
5
10
40.542059
20
-218.226000
0
VERTEX
5
84f
100
AcDbEntity
8
1
100
AcDbVertex
100
AcDb2dVertex
62
5
10
40.593026
20
-218.244000
0
VERTEX
5
850
100
AcDbEntity
8
1
100
AcDbVertex
100
AcDb2dVertex
62
5
10
40.649989
20
-218.250000
0
VERTEX
5
851
100
AcDbEntity
8
1
100
AcDbVertex
100
AcDb2dVertex
62
5
10
41.349997
20
-218.250000
0
SEQEND
5
852
100
AcDbEntity
8
1
0
LINE
5
853
100
AcDbEntity
8
1
100
AcDbLine
6
CONTINUOUS
62
5
10
41.771149
20
-217.650014
11
40.350212
21
-217.650000
0
POLYLINE
5
854
100
AcDbEntity
8
1
6
CONTINUOUS
62
5
100
AcDb2dPolyline
66
1
10
0.0
20
0.0
30
0.0
70
0
0
VERTEX
5
855
100
AcDbEntity
8
1
100
AcDbVertex
100
AcDb2dVertex
62
5
10
42.749997
20
-221.850017
0
VERTEX
5
856
100
AcDbEntity
8
1
100
AcDbVertex
100
AcDb2dVertex
62
5
10
40.349989
20
-221.850017
0
VERTEX
5
857
100
AcDbEntity
8
1
100
AcDbVertex
100
AcDb2dVertex
62
5
10
40.350212
20
-217.650015
0
SEQEND
5
858
100
AcDbEntity
8
1
0
ARC
5
859
100
AcDbEntity
8
1
100
AcDbCircle
6
CONTINUOUS
62
5
10
41.349996
20
-221.750002
40
0.500000
100
AcDbArc
50
0.000000
51
89.999999
0
LINE
5
85a
100
AcDbEntity
8
1
100
AcDbLine
6
CONTINUOUS
62
5
10
41.849996
20
-221.750002
11
41.852655
21
-221.750017
0
LINE
5
85b
100
AcDbEntity
8
1
100
AcDbLine
6
CONTINUOUS
62
5
10
40.649798
20
-221.250002
11
41.349996
21
-221.250002
0
POLYLINE
5
85c
100
AcDbEntity
8
1
6
CONTINUOUS
62
5
100
AcDb2dPolyline
66
1
10
0.0
20
0.0
30
0.0
70
0
0
VERTEX
5
85d
100
AcDbEntity
8
1
100
AcDbVertex
100
AcDb2dVertex
62
5
10
40.349989
20
-221.850017
0
VERTEX
5
85e
100
AcDbEntity
8
1
100
AcDbVertex
100
AcDb2dVertex
62
5
10
41.771149
20
-221.850017
0
VERTEX
5
85f
100
AcDbEntity
8
1
100
AcDbVertex
100
AcDb2dVertex
62
5
10
41.850000
20
-221.750002
0
SEQEND
5
860
100
AcDbEntity
8
1
0
POLYLINE
5
861
100
AcDbEntity
8
1
6
CONTINUOUS
62
5
100
AcDb2dPolyline
66
1
10
0.0
20
0.0
30
0.0
70
0
0
VERTEX
5
862
100
AcDbEntity
8
1
100
AcDbVertex
100
AcDb2dVertex
62
5
10
40.649989
20
-221.250002
0
VERTEX
5
863
100
AcDbEntity
8
1
100
AcDbVertex
100
AcDb2dVertex
62
5
10
40.592995
20
-221.256002
0
VERTEX
5
864
100
AcDbEntity
8
1
100
AcDbVertex
100
AcDb2dVertex
62
5
10
40.541999
20
-221.274002
0
VERTEX
5
865
100
AcDbEntity
8
1
100
AcDbVertex
100
AcDb2dVertex
62
5
10
40.497002
20
-221.304003
0
VERTEX
5
866
100
AcDbEntity
8
1
100
AcDbVertex
100
AcDb2dVertex
62
5
10
40.458004
20
-221.346004
0
VERTEX
5
867
100
AcDbEntity
8
1
100
AcDbVertex
100
AcDb2dVertex
62
5
10
40.425005
20
-221.400006
0
VERTEX
5
868
100
AcDbEntity
8
1
100
AcDbVertex
100
AcDb2dVertex
62
5
10
40.398004
20
-221.466007
0
VERTEX
5
869
100
AcDbEntity
8
1
100
AcDbVertex
100
AcDb2dVertex
62
5
10
40.377002
20
-221.544009
0
VERTEX
5
86a
100
AcDbEntity
8
1
100
AcDbVertex
100
AcDb2dVertex
62
5
10
40.361999
20
-221.634012
0
VERTEX
5
86b
100
AcDbEntity
8
1
100
AcDbVertex
100
AcDb2dVertex
62
5
10
40.352994
20
-221.736014
0
VERTEX
5
86c
100
AcDbEntity
8
1
100
AcDbVertex
100
AcDb2dVertex
62
5
10
40.349989
20
-221.850017
0
SEQEND
5
86d
100
AcDbEntity
8
1
0
LINE
5
86e
100
AcDbEntity
8
1
100
AcDbLine
6
CONTINUOUS
62
5
10
40.649989
20
-218.250000
11
40.649989
21
-221.250002
0
ARC
5
86f
100
AcDbEntity
8
1
100
AcDbCircle
6
CONTINUOUS
62
5
10
58.150000
20
-225.699986
40
0.300000
100
AcDbArc
50
-179.999998
51
-89.999999
0
LINE
5
870
100
AcDbEntity
8
1
100
AcDbLine
6
CONTINUOUS
62
5
10
57.850000
20
-225.699986
11
57.850000
21
-224.799986
0
ARC
5
871
100
AcDbEntity
8
1
100
AcDbCircle
6
CONTINUOUS
62
5
10
58.150000
20
-224.799986
40
0.300000
100
AcDbArc
50
89.999999
51
179.999998
0
LINE
5
872
100
AcDbEntity
8
1
100
AcDbLine
6
CONTINUOUS
62
5
10
58.150000
20
-224.499986
11
67.550000
21
-224.499986
0
ARC
5
873
100
AcDbEntity
8
1
100
AcDbCircle
6
CONTINUOUS
62
5
10
67.550000
20
-224.799986
40
0.300000
100
AcDbArc
50
-0.000000
51
89.999999
0
LINE
5
874
100
AcDbEntity
8
1
100
AcDbLine
6
CONTINUOUS
62
5
10
67.850000
20
-224.799986
11
67.850000
21
-225.699986
0
ARC
5
875
100
AcDbEntity
8
1
100
AcDbCircle
6
CONTINUOUS
62
5
10
67.550000
20
-225.699986
40
0.300000
100
AcDbArc
50
-89.999999
51
0.000000
0
LINE
5
876
100
AcDbEntity
8
1
100
AcDbLine
6
CONTINUOUS
62
5
10
67.550000
20
-225.999986
11
58.150000
21
-225.999986
0
ARC
5
877
100
AcDbEntity
8
1
100
AcDbCircle
6
CONTINUOUS
62
5
10
75.350000
20
-238.499986
40
4.000000
100
AcDbArc
50
151.044974
51
75.522487
0
CIRCLE
5
878
100
AcDbEntity
8
1
100
AcDbCircle
6
CONTINUOUS
62
5
10
75.350000
20
-238.499986
40
3.450000
0
ARC
5
879
100
AcDbEntity
8
1
100
AcDbCircle
6
CONTINUOUS
62
5
10
75.350000
20
-238.499986
40
4.000000
100
AcDbArc
50
75.522487
51
151.044974
0
CIRCLE
5
87a
100
AcDbEntity
8
1
100
AcDbCircle
6
CONTINUOUS
62
5
10
75.350000
20
-238.499986
40
2.250000
0
CIRCLE
5
87b
100
AcDbEntity
8
1
100
AcDbCircle
6
CONTINUOUS
62
5
10
75.350000
20
-238.499986
40
1.650000
0
CIRCLE
5
87c
100
AcDbEntity
8
1
100
AcDbCircle
6
CONTINUOUS
62
5
10
75.350000
20
-238.499986
40
1.750000
0
LINE
5
87d
100
AcDbEntity
8
1
100
AcDbLine
6
CONTINUOUS
62
5
10
71.850000
20
-236.249986
11
52.850000
21
-236.249986
0
ARC
5
87e
100
AcDbEntity
8
1
100
AcDbCircle
6
CONTINUOUS
62
5
10
76.150000
20
-224.799986
40
0.300000
100
AcDbArc
50
89.999999
51
-179.999998
0
LINE
5
87f
100
AcDbEntity
8
1
100
AcDbLine
6
CONTINUOUS
62
5
10
75.850000
20
-224.799986
11
75.850000
21
-234.531359
0
ARC
5
880
100
AcDbEntity
8
1
100
AcDbCircle
6
CONTINUOUS
62
5
10
76.650000
20
-224.799986
40
0.300000
100
AcDbArc
50
89.999999
51
179.999998
0
LINE
5
881
100
AcDbEntity
8
1
100
AcDbLine
6
CONTINUOUS
62
5
10
76.350000
20
-234.627003
11
76.350000
21
-224.799986
0
ARC
5
882
100
AcDbEntity
8
1
100
AcDbCircle
6
CONTINUOUS
62
5
10
62.850000
20
-232.099986
40
2.500000
100
AcDbArc
50
-135.113817
51
-44.886181
0
ARC
5
883
100
AcDbEntity
8
1
100
AcDbCircle
6
CONTINUOUS
62
5
10
72.050000
20
-224.799986
40
0.300000
100
AcDbArc
50
-0.000000
51
89.999999
0
LINE
5
884
100
AcDbEntity
8
1
100
AcDbLine
6
CONTINUOUS
62
5
10
72.350000
20
-224.799986
11
72.350000
21
-235.854235
0
ARC
5
885
100
AcDbEntity
8
1
100
AcDbCircle
6
CONTINUOUS
62
5
10
62.850000
20
-189.999986
40
46.250000
100
AcDbArc
50
-95.291079
51
-84.708919
0
ARC
5
886
100
AcDbEntity
8
1
100
AcDbCircle
6
CONTINUOUS
62
5
10
59.000000
20
-231.572092
40
4.500000
100
AcDbArc
50
84.708919
51
-95.291079
0
ARC
5
887
100
AcDbEntity
8
1
100
AcDbCircle
6
CONTINUOUS
62
5
10
62.850000
20
-189.999986
40
37.250000
100
AcDbArc
50
-95.291079
51
-84.708919
0
ARC
5
888
100
AcDbEntity
8
1
100
AcDbCircle
6
CONTINUOUS
62
5
10
66.700000
20
-231.572092
40
4.500000
100
AcDbArc
50
-84.708919
51
95.291079
0
ARC
5
889
100
AcDbEntity
8
1
100
AcDbCircle
6
CONTINUOUS
62
5
10
59.000000
20
-231.572092
40
3.000000
100
AcDbArc
50
84.708919
51
-95.291079
0
LINE
5
88a
100
AcDbEntity
8
1
100
AcDbLine
6
CONTINUOUS
62
5
10
58.723353
20
-234.559309
11
58.723353
21
-234.559309
0
ARC
5
88b
100
AcDbEntity
8
1
100
AcDbCircle
6
CONTINUOUS
62
5
10
62.850000
20
-189.999986
40
44.750000
100
AcDbArc
50
-95.291079
51
-84.708919
0
LINE
5
88c
100
AcDbEntity
8
1
100
AcDbLine
6
CONTINUOUS
62
5
10
66.976647
20
-234.559309
11
66.976647
21
-234.559309
0
ARC
5
88d
100
AcDbEntity
8
1
100
AcDbCircle
6
CONTINUOUS
62
5
10
66.700000
20
-231.572092
40
3.000000
100
AcDbArc
50
-84.708919
51
95.291079
0
LINE
5
88e
100
AcDbEntity
8
1
100
AcDbLine
6
CONTINUOUS
62
5
10
66.423353
20
-228.584875
11
66.423353
21
-228.584875
0
ARC
5
88f
100
AcDbEntity
8
1
100
AcDbCircle
6
CONTINUOUS
62
5
10
62.850000
20
-189.999986
40
38.750000
100
AcDbArc
50
-95.291079
51
-84.708919
0
LINE
5
890
100
AcDbEntity
8
1
100
AcDbLine
6
CONTINUOUS
62
5
10
59.276647
20
-228.584875
11
59.276647
21
-228.584875
0
ARC
5
891
100
AcDbEntity
8
1
100
AcDbCircle
6
CONTINUOUS
62
5
10
62.850000
20
-189.999986
40
44.200000
100
AcDbArc
50
-95.291079
51
-91.801760
0
ARC
5
892
100
AcDbEntity
8
1
100
AcDbCircle
6
CONTINUOUS
62
5
10
62.850000
20
-189.999986
40
44.200000
100
AcDbArc
50
-88.198238
51
-84.708919
0
LINE
5
893
100
AcDbEntity
8
1
100
AcDbLine
6
CONTINUOUS
62
5
10
66.925928
20
-234.011653
11
66.925928
21
-234.011653
0
ARC
5
894
100
AcDbEntity
8
1
100
AcDbCircle
6
CONTINUOUS
62
5
10
66.700000
20
-231.572092
40
2.450000
100
AcDbArc
50
-84.708919
51
95.291079
0
LINE
5
895
100
AcDbEntity
8
1
100
AcDbLine
6
CONTINUOUS
62
5
10
66.474072
20
-229.132532
11
66.474072
21
-229.132532
0
ARC
5
896
100
AcDbEntity
8
1
100
AcDbCircle
6
CONTINUOUS
62
5
10
62.850000
20
-189.999986
40
39.300000
100
AcDbArc
50
-95.291079
51
-84.708919
0
LINE
5
897
100
AcDbEntity
8
1
100
AcDbLine
6
CONTINUOUS
62
5
10
59.225928
20
-229.132532
11
59.225928
21
-229.132532
0
ARC
5
898
100
AcDbEntity
8
1
100
AcDbCircle
6
CONTINUOUS
62
5
10
59.000000
20
-231.572092
40
2.450000
100
AcDbArc
50
84.708919
51
-95.291079
0
LINE
5
899
100
AcDbEntity
8
1
100
AcDbLine
6
CONTINUOUS
62
5
10
58.774072
20
-234.011653
11
58.774072
21
-234.011653
0
ARC
5
89a
100
AcDbEntity
8
1
100
AcDbCircle
6
CONTINUOUS
62
5
10
62.850000
20
-189.999986
40
43.900000
100
AcDbArc
50
-95.291079
51
-92.312394
0
ARC
5
89b
100
AcDbEntity
8
1
100
AcDbCircle
6
CONTINUOUS
62
5
10
62.850000
20
-189.999986
40
43.900000
100
AcDbArc
50
-87.687604
51
-84.708919
0
ARC
5
89c
100
AcDbEntity
8
1
100
AcDbCircle
6
CONTINUOUS
62
5
10
66.700000
20
-231.572092
40
2.150000
100
AcDbArc
50
-84.708919
51
95.291079
0
ARC
5
89d
100
AcDbEntity
8
1
100
AcDbCircle
6
CONTINUOUS
62
5
10
62.850000
20
-189.999986
40
39.600000
100
AcDbArc
50
-95.291079
51
-84.708919
0
ARC
5
89e
100
AcDbEntity
8
1
100
AcDbCircle
6
CONTINUOUS
62
5
10
59.000000
20
-231.572092
40
2.150000
100
AcDbArc
50
84.708919
51
-95.291079
0
ARC
5
89f
100
AcDbEntity
8
1
100
AcDbCircle
6
CONTINUOUS
62
5
10
71.550000
20
-224.799986
40
0.300000
100
AcDbArc
50
0.000000
51
89.999999
0
LINE
5
8a0
100
AcDbEntity
8
1
100
AcDbLine
6
CONTINUOUS
62
5
10
71.850000
20
-236.563495
11
71.850000
21
-224.799986
0
ARC
5
8a1
100
AcDbEntity
8
1
100
AcDbCircle
6
CONTINUOUS
62
5
10
50.602361
20
-234.749986
40
3.000000
100
AcDbArc
50
-135.316547
51
-89.999999
0
LINE
5
8a2
100
AcDbEntity
8
1
100
AcDbLine
6
CONTINUOUS
62
5
10
48.469353
20
-236.859554
11
45.143549
21
-233.496797
0
ARC
5
8a3
100
AcDbEntity
8
1
100
AcDbCircle
6
CONTINUOUS
62
5
10
44.432546
20
-234.199986
40
1.000000
100
AcDbArc
50
44.683452
51
89.999999
0
LINE
5
8a4
100
AcDbEntity
8
1
100
AcDbLine
6
CONTINUOUS
62
5
10
71.420942
20
-237.749986
11
50.602361
21
-237.749986
0
ARC
5
8a5
100
AcDbEntity
8
1
100
AcDbCircle
6
CONTINUOUS
62
5
10
49.050000
20
-224.799986
40
0.300000
100
AcDbArc
50
-0.000000
51
89.999999
0
LINE
5
8a6
100
AcDbEntity
8
1
100
AcDbLine
6
CONTINUOUS
62
5
10
49.350000
20
-224.799986
11
49.350000
21
-235.249986
0
ARC
5
8a7
100
AcDbEntity
8
1
100
AcDbCircle
6
CONTINUOUS
62
5
10
50.350000
20
-235.249986
40
1.000000
100
AcDbArc
50
179.999998
51
-89.999999
0
LINE
5
8a8
100
AcDbEntity
8
1
100
AcDbLine
6
CONTINUOUS
62
5
10
50.350000
20
-236.249986
11
52.850000
21
-236.249986
0
ARC
5
8a9
100
AcDbEntity
8
1
100
AcDbCircle
6
CONTINUOUS
62
5
10
52.850000
20
-235.249986
40
1.000000
100
AcDbArc
50
-89.999999
51
0.000000
0
LINE
5
8aa
100
AcDbEntity
8
1
100
AcDbLine
6
CONTINUOUS
62
5
10
53.850000
20
-235.249986
11
53.850000
21
-224.799986
0
ARC
5
8ab
100
AcDbEntity
8
1
100
AcDbCircle
6
CONTINUOUS
62
5
10
54.150000
20
-224.799986
40
0.300000
100
AcDbArc
50
89.999999
51
179.999998
0
LINE
5
8ac
100
AcDbEntity
8
1
100
AcDbLine
6
CONTINUOUS
62
5
10
49.050000
20
-224.499986
11
49.050000
21
-224.499986
0
ARC
5
8ad
100
AcDbEntity
8
1
100
AcDbCircle
6
CONTINUOUS
62
5
10
52.850000
20
-235.249986
40
0.500000
100
AcDbArc
50
-89.999999
51
0.000000
0
LINE
5
8ae
100
AcDbEntity
8
1
100
AcDbLine
6
CONTINUOUS
62
5
10
52.850000
20
-235.749986
11
50.350000
21
-235.749986
0
ARC
5
8af
100
AcDbEntity
8
1
100
AcDbCircle
6
CONTINUOUS
62
5
10
50.350000
20
-235.249986
40
0.500000
100
AcDbArc
50
179.999998
51
-89.999999
0
LINE
5
8b0
100
AcDbEntity
8
1
100
AcDbLine
6
CONTINUOUS
62
5
10
49.850000
20
-235.249986
11
49.850000
21
-224.799986
0
ARC
5
8b1
100
AcDbEntity
8
1
100
AcDbCircle
6
CONTINUOUS
62
5
10
49.550000
20
-224.799986
40
0.300000
100
AcDbArc
50
0.000000
51
89.999999
0
ARC
5
8b2
100
AcDbEntity
8
1
100
AcDbCircle
6
CONTINUOUS
62
5
10
53.650000
20
-224.799986
40
0.300000
100
AcDbArc
50
89.999999
51
179.999998
0
LINE
5
8b3
100
AcDbEntity
8
1
100
AcDbLine
6
CONTINUOUS
62
5
10
53.350000
20
-224.799986
11
53.350000
21
-235.249986
0
POLYLINE
5
8b4
100
AcDbEntity
8
1
6
CONTINUOUS
62
5
100
AcDb2dPolyline
66
1
10
0.0
20
0.0
30
0.0
70
0
0
VERTEX
5
8b5
100
AcDbEntity
8
1
100
AcDbVertex
100
AcDb2dVertex
62
5
10
79.650000
20
-221.399986
0
VERTEX
5
8b6
100
AcDbEntity
8
1
100
AcDbVertex
100
AcDb2dVertex
62
5
10
79.350000
20
-221.099986
0
VERTEX
5
8b7
100
AcDbEntity
8
1
100
AcDbVertex
100
AcDb2dVertex
62
5
10
79.250000
20
-220.999986
0
SEQEND
5
8b8
100
AcDbEntity
8
1
0
POLYLINE
5
8b9
100
AcDbEntity
8
1
6
CONTINUOUS
62
5
100
AcDb2dPolyline
66
1
10
0.0
20
0.0
30
0.0
70
1
0
VERTEX
5
8ba
100
AcDbEntity
8
1
100
AcDbVertex
100
AcDb2dVertex
62
5
10
77.150000
20
-232.099986
0
VERTEX
5
8bb
100
AcDbEntity
8
1
100
AcDbVertex
100
AcDb2dVertex
62
5
10
81.050000
20
-232.099986
0
VERTEX
5
8bc
100
AcDbEntity
8
1
100
AcDbVertex
100
AcDb2dVertex
62
5
10
81.050000
20
-226.099986
0
VERTEX
5
8bd
100
AcDbEntity
8
1
100
AcDbVertex
100
AcDb2dVertex
62
5
10
77.150000
20
-226.099986
0
SEQEND
5
8be
100
AcDbEntity
8
1
0
POLYLINE
5
8bf
100
AcDbEntity
8
1
6
CONTINUOUS
62
5
100
AcDb2dPolyline
66
1
10
0.0
20
0.0
30
0.0
70
1
0
VERTEX
5
8c0
100
AcDbEntity
8
1
100
AcDbVertex
100
AcDb2dVertex
62
5
10
81.150000
20
-225.999986
0
VERTEX
5
8c1
100
AcDbEntity
8
1
100
AcDbVertex
100
AcDb2dVertex
62
5
10
77.050000
20
-225.999986
0
VERTEX
5
8c2
100
AcDbEntity
8
1
100
AcDbVertex
100
AcDb2dVertex
62
5
10
77.050000
20
-232.199986
0
VERTEX
5
8c3
100
AcDbEntity
8
1
100
AcDbVertex
100
AcDb2dVertex
62
5
10
81.150000
20
-232.199986
0
VERTEX
5
8c4
100
AcDbEntity
8
1
100
AcDbVertex
100
AcDb2dVertex
62
5
10
81.150000
20
-225.999986
0
SEQEND
5
8c5
100
AcDbEntity
8
1
0
ARC
5
8c6
100
AcDbEntity
8
1
100
AcDbCircle
6
CONTINUOUS
62
5
10
81.267454
20
-234.199986
40
1.000000
100
AcDbArc
50
89.999999
51
135.316547
0
LINE
5
8c7
100
AcDbEntity
8
1
100
AcDbLine
6
CONTINUOUS
62
5
10
80.556451
20
-233.496797
11
78.290340
21
-235.788087
0
ARC
5
8c8
100
AcDbEntity
8
1
100
AcDbCircle
6
CONTINUOUS
62
5
10
79.260445
20
-234.199986
40
1.000000
100
AcDbArc
50
89.999999
51
134.630863
0
LINE
5
8c9
100
AcDbEntity
8
1
100
AcDbLine
6
CONTINUOUS
62
5
10
79.260445
20
-233.199986
11
92.439555
21
-233.199986
0
ARC
5
8ca
100
AcDbEntity
8
1
100
AcDbCircle
6
CONTINUOUS
62
5
10
92.439555
20
-234.199986
40
1.000000
100
AcDbArc
50
45.369135
51
89.999999
0
LINE
5
8cb
100
AcDbEntity
8
1
100
AcDbLine
6
CONTINUOUS
62
5
10
93.142092
20
-233.488339
11
95.647463
21
-235.961634
0
LINE
5
8cc
100
AcDbEntity
8
1
100
AcDbLine
6
CONTINUOUS
62
5
10
77.116571
20
-234.911222
11
78.557908
21
-233.488339
0
ARC
5
8cd
100
AcDbEntity
8
1
100
AcDbCircle
6
CONTINUOUS
62
5
10
84.349965
20
-217.949986
40
0.300000
100
AcDbArc
50
179.999998
51
-89.999999
0
LINE
5
8ce
100
AcDbEntity
8
1
100
AcDbLine
6
CONTINUOUS
62
5
10
84.049965
20
-217.949986
11
84.049965
21
-208.800220
0
ARC
5
8cf
100
AcDbEntity
8
1
100
AcDbCircle
6
CONTINUOUS
62
5
10
84.349965
20
-208.800220
40
0.300000
100
AcDbArc
50
89.999999
51
179.999998
0
LINE
5
8d0
100
AcDbEntity
8
1
100
AcDbLine
6
CONTINUOUS
62
5
10
84.349965
20
-208.500220
11
84.849999
21
-208.500220
0
ARC
5
8d1
100
AcDbEntity
8
1
100
AcDbCircle
6
CONTINUOUS
62
5
10
84.849999
20
-208.800220
40
0.300000
100
AcDbArc
50
0.000000
51
89.999999
0
LINE
5
8d2
100
AcDbEntity
8
1
100
AcDbLine
6
CONTINUOUS
62
5
10
85.149999
20
-208.800220
11
85.149999
21
-217.949986
0
ARC
5
8d3
100
AcDbEntity
8
1
100
AcDbCircle
6
CONTINUOUS
62
5
10
84.849999
20
-217.949986
40
0.300000
100
AcDbArc
50
-89.999999
51
-0.000000
0
LINE
5
8d4
100
AcDbEntity
8
1
100
AcDbLine
6
CONTINUOUS
62
5
10
84.849999
20
-218.249986
11
84.349965
21
-218.249986
0
ARC
5
8d5
100
AcDbEntity
8
1
100
AcDbCircle
6
CONTINUOUS
62
5
10
84.149965
20
-208.049986
40
0.300000
100
AcDbArc
50
89.999999
51
179.999998
0
LINE
5
8d6
100
AcDbEntity
8
1
100
AcDbLine
6
CONTINUOUS
62
5
10
84.149965
20
-207.749986
11
84.949965
21
-207.749986
0
ARC
5
8d7
100
AcDbEntity
8
1
100
AcDbCircle
6
CONTINUOUS
62
5
10
84.949965
20
-208.049986
40
0.300000
100
AcDbArc
50
0.000000
51
89.999999
0
LINE
5
8d8
100
AcDbEntity
8
1
100
AcDbLine
6
CONTINUOUS
62
5
10
85.249965
20
-208.049986
11
85.249965
21
-217.949986
0
ARC
5
8d9
100
AcDbEntity
8
1
100
AcDbCircle
6
CONTINUOUS
62
5
10
84.949965
20
-217.949986
40
0.300000
100
AcDbArc
50
-89.999999
51
0.000000
0
LINE
5
8da
100
AcDbEntity
8
1
100
AcDbLine
6
CONTINUOUS
62
5
10
84.949965
20
-218.249986
11
84.149965
21
-218.249986
0
ARC
5
8db
100
AcDbEntity
8
1
100
AcDbCircle
6
CONTINUOUS
62
5
10
84.149965
20
-217.949986
40
0.300000
100
AcDbArc
50
179.999998
51
-89.999999
0
LINE
5
8dc
100
AcDbEntity
8
1
100
AcDbLine
6
CONTINUOUS
62
5
10
83.849965
20
-217.949986
11
83.849965
21
-208.049986
0
ARC
5
8dd
100
AcDbEntity
8
1
100
AcDbCircle
6
CONTINUOUS
62
5
10
87.349997
20
-208.249972
40
0.500000
100
AcDbArc
50
0.000000
51
89.999999
0
LINE
5
8de
100
AcDbEntity
8
1
100
AcDbLine
6
CONTINUOUS
62
5
10
87.849997
20
-208.249972
11
87.849997
21
-217.749978
0
ARC
5
8df
100
AcDbEntity
8
1
100
AcDbCircle
6
CONTINUOUS
62
5
10
87.349997
20
-217.749978
40
0.500000
100
AcDbArc
50
-89.999999
51
0.000000
0
POLYLINE
5
8e0
100
AcDbEntity
8
1
6
CONTINUOUS
62
5
100
AcDb2dPolyline
66
1
10
0.0
20
0.0
30
0.0
70
0
0
VERTEX
5
8e1
100
AcDbEntity
8
1
100
AcDbVertex
100
AcDb2dVertex
62
5
10
87.349997
20
-218.249978
0
VERTEX
5
8e2
100
AcDbEntity
8
1
100
AcDbVertex
100
AcDb2dVertex
62
5
10
86.650000
20
-218.249978
0
VERTEX
5
8e3
100
AcDbEntity
8
1
100
AcDbVertex
100
AcDb2dVertex
62
5
10
86.650000
20
-207.749972
0
VERTEX
5
8e4
100
AcDbEntity
8
1
100
AcDbVertex
100
AcDb2dVertex
62
5
10
87.349997
20
-207.749972
0
SEQEND
5
8e5
100
AcDbEntity
8
1
0
LINE
5
8e6
100
AcDbEntity
8
1
100
AcDbLine
6
CONTINUOUS
62
5
10
85.850000
20
-220.199986
11
85.850000
21
-205.299986
0
ARC
5
8e7
100
AcDbEntity
8
1
100
AcDbCircle
6
CONTINUOUS
62
5
10
84.949965
20
-220.199986
40
0.300000
100
AcDbArc
50
-89.999999
51
-0.000000
0
LINE
5
8e8
100
AcDbEntity
8
1
100
AcDbLine
6
CONTINUOUS
62
5
10
85.249965
20
-220.199986
11
85.249965
21
-205.299986
0
ARC
5
8e9
100
AcDbEntity
8
1
100
AcDbCircle
6
CONTINUOUS
62
5
10
84.949965
20
-205.299986
40
0.300000
100
AcDbArc
50
-0.000000
51
89.999999
0
POLYLINE
5
8ea
100
AcDbEntity
8
1
6
CONTINUOUS
62
5
100
AcDb2dPolyline
66
1
10
0.0
20
0.0
30
0.0
70
0
0
VERTEX
5
8eb
100
AcDbEntity
8
1
100
AcDbVertex
100
AcDb2dVertex
62
5
10
84.949965
20
-204.999986
0
VERTEX
5
8ec
100
AcDbEntity
8
1
100
AcDbVertex
100
AcDb2dVertex
62
5
10
83.849965
20
-204.999986
0
VERTEX
5
8ed
100
AcDbEntity
8
1
100
AcDbVertex
100
AcDb2dVertex
62
5
10
83.849965
20
-217.949986
0
SEQEND
5
8ee
100
AcDbEntity
8
1
0
ARC
5
8ef
100
AcDbEntity
8
1
100
AcDbCircle
6
CONTINUOUS
62
5
10
84.149965
20
-217.949986
40
0.300000
100
AcDbArc
50
179.999998
51
-89.999999
0
LINE
5
8f0
100
AcDbEntity
8
1
100
AcDbLine
6
CONTINUOUS
62
5
10
84.149965
20
-220.499986
11
84.949965
21
-220.499986
0
LINE
5
8f1
100
AcDbEntity
8
1
100
AcDbLine
6
CONTINUOUS
62
5
10
86.150000
20
-203.499993
11
86.150000
21
-222.500002
0
ARC
5
8f2
100
AcDbEntity
8
1
100
AcDbCircle
6
CONTINUOUS
62
5
10
89.150000
20
-206.999986
40
0.500000
100
AcDbArc
50
-179.999998
51
-89.999999
0
LINE
5
8f3
100
AcDbEntity
8
1
100
AcDbLine
6
CONTINUOUS
62
5
10
89.150000
20
-207.499986
11
89.150239
21
-218.499986
0
ARC
5
8f4
100
AcDbEntity
8
1
100
AcDbCircle
6
CONTINUOUS
62
5
10
89.150239
20
-218.999986
40
0.500000
100
AcDbArc
50
89.999999
51
179.999998
0
LINE
5
8f5
100
AcDbEntity
8
1
100
AcDbLine
6
CONTINUOUS
62
5
10
88.650239
20
-218.999986
11
88.650239
21
-222.300002
0
ARC
5
8f6
100
AcDbEntity
8
1
100
AcDbCircle
6
CONTINUOUS
62
5
10
88.450239
20
-222.300002
40
0.200000
100
AcDbArc
50
-89.999999
51
0.000000
0
LINE
5
8f7
100
AcDbEntity
8
1
100
AcDbLine
6
CONTINUOUS
62
5
10
88.450239
20
-222.500002
11
83.250000
21
-222.500002
0
ARC
5
8f8
100
AcDbEntity
8
1
100
AcDbCircle
6
CONTINUOUS
62
5
10
83.250000
20
-222.300002
40
0.200000
100
AcDbArc
50
179.999998
51
-89.999999
0
LINE
5
8f9
100
AcDbEntity
8
1
100
AcDbLine
6
CONTINUOUS
62
5
10
83.050000
20
-222.300002
11
83.050000
21
-218.999986
0
ARC
5
8fa
100
AcDbEntity
8
1
100
AcDbCircle
6
CONTINUOUS
62
5
10
82.550000
20
-218.999986
40
0.500000
100
AcDbArc
50
0.000000
51
89.999999
0
LINE
5
8fb
100
AcDbEntity
8
1
100
AcDbLine
6
CONTINUOUS
62
5
10
82.550000
20
-218.499986
11
82.550000
21
-207.499986
0
ARC
5
8fc
100
AcDbEntity
8
1
100
AcDbCircle
6
CONTINUOUS
62
5
10
82.550000
20
-206.999986
40
0.500000
100
AcDbArc
50
-89.999999
51
-0.000000
0
LINE
5
8fd
100
AcDbEntity
8
1
100
AcDbLine
6
CONTINUOUS
62
5
10
83.050000
20
-206.999986
11
83.050000
21
-203.699993
0
ARC
5
8fe
100
AcDbEntity
8
1
100
AcDbCircle
6
CONTINUOUS
62
5
10
83.250000
20
-203.699993
40
0.200000
100
AcDbArc
50
89.999999
51
179.999998
0
LINE
5
8ff
100
AcDbEntity
8
1
100
AcDbLine
6
CONTINUOUS
62
5
10
83.250000
20
-203.499993
11
88.449997
21
-203.499993
0
ARC
5
900
100
AcDbEntity
8
1
100
AcDbCircle
6
CONTINUOUS
62
5
10
88.449997
20
-203.699993
40
0.200000
100
AcDbArc
50
0.000000
51
89.999999
0
LINE
5
901
100
AcDbEntity
8
1
100
AcDbLine
6
CONTINUOUS
62
5
10
88.649997
20
-203.699993
11
88.650000
21
-206.999986
0
ARC
5
902
100
AcDbEntity
8
1
100
AcDbCircle
6
CONTINUOUS
62
5
10
89.250239
20
-206.999986
40
0.500000
100
AcDbArc
50
179.999998
51
-89.999999
0
LINE
5
903
100
AcDbEntity
8
1
100
AcDbLine
6
CONTINUOUS
62
5
10
89.250239
20
-207.499986
11
89.250239
21
-218.499986
0
ARC
5
904
100
AcDbEntity
8
1
100
AcDbCircle
6
CONTINUOUS
62
5
10
89.249707
20
-218.999454
40
0.499469
100
AcDbArc
50
89.939000
51
-179.938999
0
LINE
5
905
100
AcDbEntity
8
1
100
AcDbLine
6
CONTINUOUS
62
5
10
88.750239
20
-218.999986
11
88.750239
21
-222.400002
0
ARC
5
906
100
AcDbEntity
8
1
100
AcDbCircle
6
CONTINUOUS
62
5
10
88.550239
20
-222.400002
40
0.200000
100
AcDbArc
50
-89.999999
51
0.000000
0
LINE
5
907
100
AcDbEntity
8
1
100
AcDbLine
6
CONTINUOUS
62
5
10
88.550239
20
-222.600002
11
83.150000
21
-222.600002
0
ARC
5
908
100
AcDbEntity
8
1
100
AcDbCircle
6
CONTINUOUS
62
5
10
83.150000
20
-222.400002
40
0.200000
100
AcDbArc
50
179.999998
51
-89.999999
0
LINE
5
909
100
AcDbEntity
8
1
100
AcDbLine
6
CONTINUOUS
62
5
10
82.950000
20
-222.400002
11
82.950000
21
-218.999986
0
ARC
5
90a
100
AcDbEntity
8
1
100
AcDbCircle
6
CONTINUOUS
62
5
10
82.450000
20
-218.999986
40
0.500000
100
AcDbArc
50
0.000000
51
89.999999
0
LINE
5
90b
100
AcDbEntity
8
1
100
AcDbLine
6
CONTINUOUS
62
5
10
82.450000
20
-218.499986
11
82.450000
21
-207.499986
0
ARC
5
90c
100
AcDbEntity
8
1
100
AcDbCircle
6
CONTINUOUS
62
5
10
82.450000
20
-206.999986
40
0.500000
100
AcDbArc
50
-89.999999
51
0.000000
0
LINE
5
90d
100
AcDbEntity
8
1
100
AcDbLine
6
CONTINUOUS
62
5
10
82.950000
20
-206.999986
11
82.950000
21
-203.599993
0
ARC
5
90e
100
AcDbEntity
8
1
100
AcDbCircle
6
CONTINUOUS
62
5
10
83.150000
20
-203.599993
40
0.200000
100
AcDbArc
50
89.999999
51
179.999998
0
LINE
5
90f
100
AcDbEntity
8
1
100
AcDbLine
6
CONTINUOUS
62
5
10
83.150000
20
-203.399993
11
88.550239
21
-203.399993
0
ARC
5
910
100
AcDbEntity
8
1
100
AcDbCircle
6
CONTINUOUS
62
5
10
88.550239
20
-203.599993
40
0.200000
100
AcDbArc
50
0.000000
51
89.999999
0
LINE
5
911
100
AcDbEntity
8
1
100
AcDbLine
6
CONTINUOUS
62
5
10
88.750239
20
-203.599993
11
88.750239
21
-206.999986
0
LINE
5
912
100
AcDbEntity
8
1
100
AcDbLine
6
CONTINUOUS
62
5
10
41.850000
20
-204.250001
11
41.850000
21
-221.750002
0
ARC
5
913
100
AcDbEntity
8
1
100
AcDbCircle
6
CONTINUOUS
62
5
10
43.150000
20
-206.999986
40
0.500000
100
AcDbArc
50
179.999998
51
-89.999999
0
LINE
5
914
100
AcDbEntity
8
1
100
AcDbLine
6
CONTINUOUS
62
5
10
43.150000
20
-207.499986
11
43.150523
21
-212.999986
0
LINE
5
915
100
AcDbEntity
8
1
100
AcDbLine
6
CONTINUOUS
62
5
10
42.650000
20
-204.250001
11
42.650000
21
-206.999986
0
ARC
5
916
100
AcDbEntity
8
1
100
AcDbCircle
6
CONTINUOUS
62
5
10
43.250000
20
-206.999986
40
0.500000
100
AcDbArc
50
-179.991048
51
-89.999999
0
LINE
5
917
100
AcDbEntity
8
1
100
AcDbLine
6
CONTINUOUS
62
5
10
43.250000
20
-207.499986
11
43.250523
21
-212.999986
0
LINE
5
918
100
AcDbEntity
8
1
100
AcDbLine
6
CONTINUOUS
62
5
10
42.750014
20
-204.150001
11
42.750000
21
-207.000064
0
POLYLINE
5
919
100
AcDbEntity
8
1
6
DOT2
62
5
100
AcDb2dPolyline
66
1
10
0.0
20
0.0
30
0.0
70
0
0
VERTEX
5
91a
100
AcDbEntity
8
1
100
AcDbVertex
100
AcDb2dVertex
62
5
10
-2.475000
20
-195.625000
0
VERTEX
5
91b
100
AcDbEntity
8
1
100
AcDbVertex
100
AcDb2dVertex
62
5
10
-3.100000
20
-194.687500
0
VERTEX
5
91c
100
AcDbEntity
8
1
100
AcDbVertex
100
AcDb2dVertex
62
5
10
4.400000
20
-194.687500
0
SEQEND
5
91d
100
AcDbEntity
8
1
0
LINE
5
91e
100
AcDbEntity
8
1
100
AcDbLine
6
DOT2
62
5
10
4.400000
20
-195.312500
11
4.400000
21
-194.062500
0
POLYLINE
5
91f
100
AcDbEntity
8
1
6
DOT2
62
5
100
AcDb2dPolyline
66
1
10
0.0
20
0.0
30
0.0
70
0
0
VERTEX
5
920
100
AcDbEntity
8
1
100
AcDbVertex
100
AcDb2dVertex
62
5
10
-2.475000
20
-190.625000
0
VERTEX
5
921
100
AcDbEntity
8
1
100
AcDbVertex
100
AcDb2dVertex
62
5
10
-3.100000
20
-189.687500
0
VERTEX
5
922
100
AcDbEntity
8
1
100
AcDbVertex
100
AcDb2dVertex
62
5
10
4.400000
20
-189.687500
0
SEQEND
5
923
100
AcDbEntity
8
1
0
LINE
5
924
100
AcDbEntity
8
1
100
AcDbLine
6
DOT2
62
5
10
4.400000
20
-190.312500
11
4.400000
21
-189.062500
0
POLYLINE
5
925
100
AcDbEntity
8
1
6
DOT2
62
5
100
AcDb2dPolyline
66
1
10
0.0
20
0.0
30
0.0
70
0
0
VERTEX
5
926
100
AcDbEntity
8
1
100
AcDbVertex
100
AcDb2dVertex
62
5
10
-0.912500
20
-186.250000
0
VERTEX
5
927
100
AcDbEntity
8
1
100
AcDbVertex
100
AcDb2dVertex
62
5
10
-2.475000
20
-185.937500
0
VERTEX
5
928
100
AcDbEntity
8
1
100
AcDbVertex
100
AcDb2dVertex
62
5
10
-3.100000
20
-185.000000
0
VERTEX
5
929
100
AcDbEntity
8
1
100
AcDbVertex
100
AcDb2dVertex
62
5
10
-3.100000
20
-184.062500
0
VERTEX
5
92a
100
AcDbEntity
8
1
100
AcDbVertex
100
AcDb2dVertex
62
5
10
-2.787500
20
-183.437500
0
VERTEX
5
92b
100
AcDbEntity
8
1
100
AcDbVertex
100
AcDb2dVertex
62
5
10
-1.850000
20
-183.125000
0
VERTEX
5
92c
100
AcDbEntity
8
1
100
AcDbVertex
100
AcDb2dVertex
62
5
10
-0.912500
20
-183.125000
0
VERTEX
5
92d
100
AcDbEntity
8
1
100
AcDbVertex
100
AcDb2dVertex
62
5
10
0.025000
20
-183.437500
0
VERTEX
5
92e
100
AcDbEntity
8
1
100
AcDbVertex
100
AcDb2dVertex
62
5
10
4.400000
20
-186.250000
0
VERTEX
5
92f
100
AcDbEntity
8
1
100
AcDbVertex
100
AcDb2dVertex
62
5
10
4.400000
20
-183.125000
0
VERTEX
5
930
100
AcDbEntity
8
1
100
AcDbVertex
100
AcDb2dVertex
62
5
10
3.462500
20
-183.125000
0
SEQEND
5
931
100
AcDbEntity
8
1
0
LINE
5
932
100
AcDbEntity
8
1
100
AcDbLine
6
CONTINUOUS
62
5
10
38.949999
20
-237.499986
11
38.949999
21
-242.699986
0
ARC
5
933
100
AcDbEntity
8
1
100
AcDbCircle
6
CONTINUOUS
62
5
10
37.449998
20
-238.099986
40
0.600000
100
AcDbArc
50
89.999999
51
179.999998
0
LINE
5
934
100
AcDbEntity
8
1
100
AcDbLine
6
CONTINUOUS
62
5
10
36.849998
20
-238.099986
11
36.849998
21
-242.099986
0
ARC
5
935
100
AcDbEntity
8
1
100
AcDbCircle
6
CONTINUOUS
62
5
10
37.449998
20
-242.099986
40
0.600000
100
AcDbArc
50
179.999998
51
-89.999999
0
POLYLINE
5
936
100
AcDbEntity
8
1
6
CONTINUOUS
62
5
100
AcDb2dPolyline
66
1
10
0.0
20
0.0
30
0.0
70
0
0
VERTEX
5
937
100
AcDbEntity
8
1
100
AcDbVertex
100
AcDb2dVertex
62
5
10
37.449998
20
-242.699986
0
VERTEX
5
938
100
AcDbEntity
8
1
100
AcDbVertex
100
AcDb2dVertex
62
5
10
38.949999
20
-242.699986
0
VERTEX
5
939
100
AcDbEntity
8
1
100
AcDbVertex
100
AcDb2dVertex
62
5
10
38.949999
20
-237.499986
0
VERTEX
5
93a
100
AcDbEntity
8
1
100
AcDbVertex
100
AcDb2dVertex
62
5
10
37.449998
20
-237.499986
0
SEQEND
5
93b
100
AcDbEntity
8
1
0
ARC
5
93c
100
AcDbEntity
8
1
100
AcDbCircle
6
CONTINUOUS
62
5
10
37.449998
20
-242.099986
40
2.000000
100
AcDbArc
50
179.999998
51
-89.999999
0
POLYLINE
5
93d
100
AcDbEntity
8
1
6
CONTINUOUS
62
5
100
AcDb2dPolyline
66
1
10
0.0
20
0.0
30
0.0
70
0
0
VERTEX
5
93e
100
AcDbEntity
8
1
100
AcDbVertex
100
AcDb2dVertex
62
5
10
37.449998
20
-244.099986
0
VERTEX
5
93f
100
AcDbEntity
8
1
100
AcDbVertex
100
AcDb2dVertex
62
5
10
39.649999
20
-244.099986
0
VERTEX
5
940
100
AcDbEntity
8
1
100
AcDbVertex
100
AcDb2dVertex
62
5
10
39.649999
20
-236.099986
0
VERTEX
5
941
100
AcDbEntity
8
1
100
AcDbVertex
100
AcDb2dVertex
62
5
10
37.449998
20
-236.099986
0
SEQEND
5
942
100
AcDbEntity
8
1
0
ARC
5
943
100
AcDbEntity
8
1
100
AcDbCircle
6
CONTINUOUS
62
5
10
37.449998
20
-238.099986
40
2.000000
100
AcDbArc
50
89.999999
51
179.999998
0
LINE
5
944
100
AcDbEntity
8
1
100
AcDbLine
6
CONTINUOUS
62
5
10
35.449998
20
-238.099986
11
35.449998
21
-242.099986
0
POLYLINE
5
945
100
AcDbEntity
8
1
6
CONTINUOUS
62
5
100
AcDb2dPolyline
66
1
10
0.0
20
0.0
30
0.0
70
0
0
VERTEX
5
946
100
AcDbEntity
8
1
100
AcDbVertex
100
AcDb2dVertex
62
5
10
39.649999
20
-236.099986
0
VERTEX
5
947
100
AcDbEntity
8
1
100
AcDbVertex
100
AcDb2dVertex
62
5
10
38.949999
20
-236.799986
0
VERTEX
5
948
100
AcDbEntity
8
1
100
AcDbVertex
100
AcDb2dVertex
62
5
10
38.949999
20
-243.399986
0
VERTEX
5
949
100
AcDbEntity
8
1
100
AcDbVertex
100
AcDb2dVertex
62
5
10
39.649999
20
-244.099986
0
SEQEND
5
94a
100
AcDbEntity
8
1
0
ARC
5
94b
100
AcDbEntity
8
1
100
AcDbCircle
6
CONTINUOUS
62
5
10
38.900000
20
-214.500000
40
0.500000
100
AcDbArc
50
179.999998
51
-89.999999
0
LINE
5
94c
100
AcDbEntity
8
1
100
AcDbLine
6
CONTINUOUS
62
5
10
38.400000
20
-214.500000
11
38.400000
21
-211.499997
0
ARC
5
94d
100
AcDbEntity
8
1
100
AcDbCircle
6
CONTINUOUS
62
5
10
38.900000
20
-211.499997
40
0.500000
100
AcDbArc
50
89.999999
51
179.999998
0
POLYLINE
5
94e
100
AcDbEntity
8
1
6
CONTINUOUS
62
5
100
AcDb2dPolyline
66
1
10
0.0
20
0.0
30
0.0
70
0
0
VERTEX
5
94f
100
AcDbEntity
8
1
100
AcDbVertex
100
AcDb2dVertex
62
5
10
38.900000
20
-210.999997
0
VERTEX
5
950
100
AcDbEntity
8
1
100
AcDbVertex
100
AcDb2dVertex
62
5
10
39.850000
20
-210.999997
0
VERTEX
5
951
100
AcDbEntity
8
1
100
AcDbVertex
100
AcDb2dVertex
62
5
10
39.850000
20
-214.999999
0
VERTEX
5
952
100
AcDbEntity
8
1
100
AcDbVertex
100
AcDb2dVertex
62
5
10
38.900000
20
-215.000000
0
SEQEND
5
953
100
AcDbEntity
8
1
0
LINE
5
954
100
AcDbEntity
8
1
100
AcDbLine
6
CONTINUOUS
62
5
10
39.850000
20
-210.999997
11
41.850000
21
-210.999997
0
LINE
5
955
100
AcDbEntity
8
1
100
AcDbLine
6
CONTINUOUS
62
5
10
39.850000
20
-214.999999
11
41.850000
21
-215.000004
0
CIRCLE
5
956
100
AcDbEntity
8
1
100
AcDbCircle
6
CONTINUOUS
62
5
10
121.350000
20
-238.499986
40
1.750000
0
CIRCLE
5
957
100
AcDbEntity
8
1
100
AcDbCircle
6
CONTINUOUS
62
5
10
121.350000
20
-238.499986
40
1.650000
0
ARC
5
958
100
AcDbEntity
8
1
100
AcDbCircle
6
CONTINUOUS
62
5
10
121.350000
20
-238.499986
40
4.000000
100
AcDbArc
50
151.044974
51
75.522487
0
CIRCLE
5
959
100
AcDbEntity
8
1
100
AcDbCircle
6
CONTINUOUS
62
5
10
121.350000
20
-238.499986
40
3.450000
0
CIRCLE
5
95a
100
AcDbEntity
8
1
100
AcDbCircle
6
CONTINUOUS
62
5
10
121.350000
20
-238.499986
40
2.250000
0
ARC
5
95b
100
AcDbEntity
8
1
100
AcDbCircle
6
CONTINUOUS
62
5
10
121.350000
20
-238.499986
40
4.000000
100
AcDbArc
50
75.522487
51
151.044974
0
LINE
5
95c
100
AcDbEntity
8
1
100
AcDbLine
6
CONTINUOUS
62
5
10
45.488826
20
-133.999986
11
3.650000
21
-133.999986
0
LINE
5
95d
100
AcDbEntity
8
1
100
AcDbLine
6
CONTINUOUS
62
5
10
45.260489
20
-246.000014
11
3.650000
21
-246.000014
0
POLYLINE
5
95e
100
AcDbEntity
8
1
6
CONTINUOUS
62
5
100
AcDb2dPolyline
66
1
10
0.0
20
0.0
30
0.0
70
0
0
VERTEX
5
95f
100
AcDbEntity
8
1
100
AcDbVertex
100
AcDb2dVertex
62
5
10
5.650000
20
-190.000000
0
VERTEX
5
960
100
AcDbEntity
8
1
100
AcDbVertex
100
AcDb2dVertex
62
5
10
5.650000
20
-246.000014
0
VERTEX
5
961
100
AcDbEntity
8
1
100
AcDbVertex
100
AcDb2dVertex
62
5
10
4.650000
20
-240.000014
0
VERTEX
5
962
100
AcDbEntity
8
1
100
AcDbVertex
100
AcDb2dVertex
62
5
10
6.650000
20
-240.000014
0
VERTEX
5
963
100
AcDbEntity
8
1
100
AcDbVertex
100
AcDb2dVertex
62
5
10
5.650000
20
-246.000014
0
VERTEX
5
964
100
AcDbEntity
8
1
100
AcDbVertex
100
AcDb2dVertex
62
5
10
5.150000
20
-240.000014
0
VERTEX
5
965
100
AcDbEntity
8
1
100
AcDbVertex
100
AcDb2dVertex
62
5
10
6.150000
20
-240.000014
0
VERTEX
5
966
100
AcDbEntity
8
1
100
AcDbVertex
100
AcDb2dVertex
62
5
10
5.650000
20
-246.000014
0
SEQEND
5
967
100
AcDbEntity
8
1
0
POLYLINE
5
968
100
AcDbEntity
8
1
6
CONTINUOUS
62
5
100
AcDb2dPolyline
66
1
10
0.0
20
0.0
30
0.0
70
0
0
VERTEX
5
969
100
AcDbEntity
8
1
100
AcDbVertex
100
AcDb2dVertex
62
5
10
5.650000
20
-190.000000
0
VERTEX
5
96a
100
AcDbEntity
8
1
100
AcDbVertex
100
AcDb2dVertex
62
5
10
5.650000
20
-133.999986
0
VERTEX
5
96b
100
AcDbEntity
8
1
100
AcDbVertex
100
AcDb2dVertex
62
5
10
6.650000
20
-139.999986
0
VERTEX
5
96c
100
AcDbEntity
8
1
100
AcDbVertex
100
AcDb2dVertex
62
5
10
4.650000
20
-139.999986
0
VERTEX
5
96d
100
AcDbEntity
8
1
100
AcDbVertex
100
AcDb2dVertex
62
5
10
5.650000
20
-133.999986
0
VERTEX
5
96e
100
AcDbEntity
8
1
100
AcDbVertex
100
AcDb2dVertex
62
5
10
6.150000
20
-139.999986
0
VERTEX
5
96f
100
AcDbEntity
8
1
100
AcDbVertex
100
AcDb2dVertex
62
5
10
5.150000
20
-139.999986
0
VERTEX
5
970
100
AcDbEntity
8
1
100
AcDbVertex
100
AcDb2dVertex
62
5
10
5.650000
20
-133.999986
0
SEQEND
5
971
100
AcDbEntity
8
1
0
LINE
5
972
100
AcDbEntity
8
1
100
AcDbLine
6
CONTINUOUS
62
5
10
203.150000
20
-175.699835
11
203.150000
21
-158.799986
0
ARC
5
973
100
AcDbEntity
8
1
100
AcDbCircle
6
CONTINUOUS
62
5
10
209.050000
20
-225.207879
40
0.300000
100
AcDbArc
50
-88.472555
51
0.000000
0
LINE
5
974
100
AcDbEntity
8
1
100
AcDbLine
6
CONTINUOUS
62
5
10
209.057997
20
-225.507773
11
201.850000
21
-225.699976
0
LINE
5
975
100
AcDbEntity
8
1
100
AcDbLine
6
CONTINUOUS
62
5
10
201.850000
20
-154.299986
11
209.057997
21
-154.492199
0
ARC
5
976
100
AcDbEntity
8
1
100
AcDbCircle
6
CONTINUOUS
62
5
10
209.050000
20
-154.792093
40
0.300000
100
AcDbArc
50
0.000000
51
88.472474
0
LINE
5
977
100
AcDbEntity
8
1
100
AcDbLine
6
CONTINUOUS
62
5
10
209.350000
20
-154.792093
11
209.350000
21
-225.207879
0
ARC
5
978
100
AcDbEntity
8
1
100
AcDbCircle
6
CONTINUOUS
62
5
10
197.050000
20
-244.598744
40
1.000000
100
AcDbArc
50
179.999998
51
-95.946830
0
POLYLINE
5
979
100
AcDbEntity
8
1
6
CONTINUOUS
62
5
100
AcDb2dPolyline
66
1
10
0.0
20
0.0
30
0.0
70
0
0
VERTEX
5
97a
100
AcDbEntity
8
1
100
AcDbVertex
100
AcDb2dVertex
62
5
10
196.946394
20
-245.593363
0
VERTEX
5
97b
100
AcDbEntity
8
1
100
AcDbVertex
100
AcDb2dVertex
62
5
10
200.850000
20
-245.999986
0
VERTEX
5
97c
100
AcDbEntity
8
1
100
AcDbVertex
100
AcDb2dVertex
62
5
10
201.850000
20
-245.999986
0
VERTEX
5
97d
100
AcDbEntity
8
1
100
AcDbVertex
100
AcDb2dVertex
62
5
10
201.850000
20
-225.699976
0
SEQEND
5
97e
100
AcDbEntity
8
1
0
POLYLINE
5
97f
100
AcDbEntity
8
1
6
CONTINUOUS
62
5
100
AcDb2dPolyline
66
1
10
0.0
20
0.0
30
0.0
70
0
0
VERTEX
5
980
100
AcDbEntity
8
1
100
AcDbVertex
100
AcDb2dVertex
62
5
10
201.850000
20
-245.999986
0
VERTEX
5
981
100
AcDbEntity
8
1
100
AcDbVertex
100
AcDb2dVertex
62
5
10
201.850000
20
-133.999986
0
VERTEX
5
982
100
AcDbEntity
8
1
100
AcDbVertex
100
AcDb2dVertex
62
5
10
200.850000
20
-133.999986
0
VERTEX
5
983
100
AcDbEntity
8
1
100
AcDbVertex
100
AcDb2dVertex
62
5
10
196.946394
20
-134.406612
0
SEQEND
5
984
100
AcDbEntity
8
1
0
ARC
5
985
100
AcDbEntity
8
1
100
AcDbCircle
6
CONTINUOUS
62
5
10
197.050000
20
-135.401230
40
1.000000
100
AcDbArc
50
95.946863
51
179.999998
0
POLYLINE
5
986
100
AcDbEntity
8
1
6
CONTINUOUS
62
5
100
AcDb2dPolyline
66
1
10
0.0
20
0.0
30
0.0
70
0
0
VERTEX
5
987
100
AcDbEntity
8
1
100
AcDbVertex
100
AcDb2dVertex
62
5
10
196.050000
20
-135.401230
0
VERTEX
5
988
100
AcDbEntity
8
1
100
AcDbVertex
100
AcDb2dVertex
62
5
10
196.050000
20
-233.499986
0
VERTEX
5
989
100
AcDbEntity
8
1
100
AcDbVertex
100
AcDb2dVertex
62
5
10
196.050000
20
-244.598744
0
SEQEND
5
98a
100
AcDbEntity
8
1
0
POLYLINE
5
98b
100
AcDbEntity
8
1
6
CONTINUOUS
62
5
100
AcDb2dPolyline
66
1
10
0.0
20
0.0
30
0.0
70
0
0
VERTEX
5
98c
100
AcDbEntity
8
1
100
AcDbVertex
100
AcDb2dVertex
62
5
10
129.849965
20
-171.499986
0
VERTEX
5
98d
100
AcDbEntity
8
1
100
AcDbVertex
100
AcDb2dVertex
62
5
10
129.050000
20
-171.499986
0
VERTEX
5
98e
100
AcDbEntity
8
1
100
AcDbVertex
100
AcDb2dVertex
62
5
10
129.050000
20
-169.499986
0
VERTEX
5
98f
100
AcDbEntity
8
1
100
AcDbVertex
100
AcDb2dVertex
62
5
10
129.849965
20
-169.499986
0
SEQEND
5
990
100
AcDbEntity
8
1
0
LINE
5
991
100
AcDbEntity
8
1
100
AcDbLine
6
CONTINUOUS
62
5
10
129.250000
20
-169.499986
11
129.250000
21
-171.499986
0
POLYLINE
5
992
100
AcDbEntity
8
1
6
CONTINUOUS
62
5
100
AcDb2dPolyline
66
1
10
0.0
20
0.0
30
0.0
70
0
0
VERTEX
5
993
100
AcDbEntity
8
1
100
AcDbVertex
100
AcDb2dVertex
62
5
10
83.849965
20
-171.499986
0
VERTEX
5
994
100
AcDbEntity
8
1
100
AcDbVertex
100
AcDb2dVertex
62
5
10
83.050000
20
-171.499986
0
VERTEX
5
995
100
AcDbEntity
8
1
100
AcDbVertex
100
AcDb2dVertex
62
5
10
83.050000
20
-169.499986
0
VERTEX
5
996
100
AcDbEntity
8
1
100
AcDbVertex
100
AcDb2dVertex
62
5
10
83.849965
20
-169.499986
0
SEQEND
5
997
100
AcDbEntity
8
1
0
LINE
5
998
100
AcDbEntity
8
1
100
AcDbLine
6
CONTINUOUS
62
5
10
83.250000
20
-169.499986
11
83.250000
21
-171.499986
0
POLYLINE
5
999
100
AcDbEntity
8
1
6
CONTINUOUS
62
5
100
AcDb2dPolyline
66
1
10
0.0
20
0.0
30
0.0
70
0
0
VERTEX
5
99a
100
AcDbEntity
8
1
100
AcDbVertex
100
AcDb2dVertex
62
5
10
87.850000
20
-171.500003
0
VERTEX
5
99b
100
AcDbEntity
8
1
100
AcDbVertex
100
AcDb2dVertex
62
5
10
88.650001
20
-171.498940
0
VERTEX
5
99c
100
AcDbEntity
8
1
100
AcDbVertex
100
AcDb2dVertex
62
5
10
88.650004
20
-168.999001
0
VERTEX
5
99d
100
AcDbEntity
8
1
100
AcDbVertex
100
AcDb2dVertex
62
5
10
87.850000
20
-169.000001
0
SEQEND
5
99e
100
AcDbEntity
8
1
0
LINE
5
99f
100
AcDbEntity
8
1
100
AcDbLine
6
CONTINUOUS
62
5
10
88.450000
20
-168.999251
11
88.449997
21
-171.499206
0
ARC
5
9a0
100
AcDbEntity
8
1
100
AcDbCircle
6
CONTINUOUS
62
5
10
43.150000
20
-172.999986
40
0.500000
100
AcDbArc
50
89.999999
51
179.999998
0
LINE
5
9a1
100
AcDbEntity
8
1
100
AcDbLine
6
CONTINUOUS
62
5
10
43.150000
20
-172.499986
11
43.150523
21
-166.999986
0
LINE
5
9a2
100
AcDbEntity
8
1
100
AcDbLine
6
CONTINUOUS
62
5
10
42.649997
20
-175.750017
11
42.650000
21
-172.999986
0
ARC
5
9a3
100
AcDbEntity
8
1
100
AcDbCircle
6
CONTINUOUS
62
5
10
43.250000
20
-172.999986
40
0.500000
100
AcDbArc
50
89.999999
51
179.991048
0
LINE
5
9a4
100
AcDbEntity
8
1
100
AcDbLine
6
CONTINUOUS
62
5
10
43.250000
20
-172.499986
11
43.250523
21
-166.999986
0
LINE
5
9a5
100
AcDbEntity
8
1
100
AcDbLine
6
CONTINUOUS
62
5
10
42.749997
20
-175.850017
11
42.750000
21
-172.999908
0
LINE
5
9a6
100
AcDbEntity
8
1
100
AcDbLine
6
CONTINUOUS
62
5
10
42.450000
20
-168.999251
11
42.449997
21
-171.499206
0
LINE
5
9a7
100
AcDbEntity
8
1
100
AcDbLine
6
CONTINUOUS
62
5
10
41.750000
20
-169.000004
11
41.750000
21
-171.650014
0
POLYLINE
5
9a8
100
AcDbEntity
8
1
6
CONTINUOUS
62
5
100
AcDb2dPolyline
66
1
10
0.0
20
0.0
30
0.0
70
0
0
VERTEX
5
9a9
100
AcDbEntity
8
1
100
AcDbVertex
100
AcDb2dVertex
62
5
10
41.850000
20
-171.500003
0
VERTEX
5
9aa
100
AcDbEntity
8
1
100
AcDbVertex
100
AcDb2dVertex
62
5
10
42.650001
20
-171.498940
0
VERTEX
5
9ab
100
AcDbEntity
8
1
100
AcDbVertex
100
AcDb2dVertex
62
5
10
42.650004
20
-168.999001
0
VERTEX
5
9ac
100
AcDbEntity
8
1
100
AcDbVertex
100
AcDb2dVertex
62
5
10
41.850000
20
-169.000001
0
SEQEND
5
9ad
100
AcDbEntity
8
1
0
ARC
5
9ae
100
AcDbEntity
8
1
100
AcDbCircle
6
CONTINUOUS
62
5
10
140.050000
20
-236.499986
40
1.000000
100
AcDbArc
50
-78.162409
51
-0.000000
0
LINE
5
9af
100
AcDbEntity
8
1
100
AcDbLine
6
CONTINUOUS
62
5
10
141.050000
20
-236.499986
11
141.050000
21
-143.499986
0
ARC
5
9b0
100
AcDbEntity
8
1
100
AcDbCircle
6
CONTINUOUS
62
5
10
140.050000
20
-143.499986
40
1.000000
100
AcDbArc
50
0.000000
51
89.999999
0
LINE
5
9b1
100
AcDbEntity
8
1
100
AcDbLine
6
CONTINUOUS
62
5
10
140.050000
20
-142.499986
11
138.850000
21
-142.499986
0
LINE
5
9b2
100
AcDbEntity
8
1
100
AcDbLine
6
CONTINUOUS
62
5
10
138.850000
20
-237.499986
11
140.255138
21
-237.478719
0
ARC
5
9b3
100
AcDbEntity
8
1
100
AcDbCircle
6
CONTINUOUS
62
5
10
128.550000
20
-172.999986
40
0.500000
100
AcDbArc
50
0.000000
51
89.999999
0
POLYLINE
5
9b4
100
AcDbEntity
8
1
6
CONTINUOUS
62
5
100
AcDb2dPolyline
66
1
10
0.0
20
0.0
30
0.0
70
0
0
VERTEX
5
9b5
100
AcDbEntity
8
1
100
AcDbVertex
100
AcDb2dVertex
62
5
10
128.550000
20
-172.499986
0
VERTEX
5
9b6
100
AcDbEntity
8
1
100
AcDbVertex
100
AcDb2dVertex
62
5
10
128.550000
20
-172.499986
0
VERTEX
5
9b7
100
AcDbEntity
8
1
100
AcDbVertex
100
AcDb2dVertex
62
5
10
128.550000
20
-161.499986
0
VERTEX
5
9b8
100
AcDbEntity
8
1
100
AcDbVertex
100
AcDb2dVertex
62
5
10
128.550000
20
-161.499986
0
SEQEND
5
9b9
100
AcDbEntity
8
1
0
ARC
5
9ba
100
AcDbEntity
8
1
100
AcDbCircle
6
CONTINUOUS
62
5
10
128.550000
20
-160.999986
40
0.500000
100
AcDbArc
50
-89.999999
51
0.000000
0
LINE
5
9bb
100
AcDbEntity
8
1
100
AcDbLine
6
CONTINUOUS
62
5
10
129.050000
20
-160.999986
11
129.050000
21
-157.699970
0
ARC
5
9bc
100
AcDbEntity
8
1
100
AcDbCircle
6
CONTINUOUS
62
5
10
129.250000
20
-157.699970
40
0.200000
100
AcDbArc
50
89.999999
51
179.999998
0
LINE
5
9bd
100
AcDbEntity
8
1
100
AcDbLine
6
CONTINUOUS
62
5
10
129.250000
20
-157.499970
11
132.750000
21
-157.499970
0
ARC
5
9be
100
AcDbEntity
8
1
100
AcDbCircle
6
CONTINUOUS
62
5
10
132.750000
20
-157.699970
40
0.200000
100
AcDbArc
50
0.000000
51
89.999999
0
LINE
5
9bf
100
AcDbEntity
8
1
100
AcDbLine
6
CONTINUOUS
62
5
10
132.950000
20
-157.699970
11
132.950000
21
-176.299979
0
ARC
5
9c0
100
AcDbEntity
8
1
100
AcDbCircle
6
CONTINUOUS
62
5
10
132.750000
20
-176.299979
40
0.200000
100
AcDbArc
50
-89.999999
51
0.000000
0
POLYLINE
5
9c1
100
AcDbEntity
8
1
6
CONTINUOUS
62
5
100
AcDb2dPolyline
66
1
10
0.0
20
0.0
30
0.0
70
0
0
VERTEX
5
9c2
100
AcDbEntity
8
1
100
AcDbVertex
100
AcDb2dVertex
62
5
10
132.750000
20
-176.499979
0
VERTEX
5
9c3
100
AcDbEntity
8
1
100
AcDbVertex
100
AcDb2dVertex
62
5
10
131.900000
20
-176.499979
0
VERTEX
5
9c4
100
AcDbEntity
8
1
100
AcDbVertex
100
AcDb2dVertex
62
5
10
129.250000
20
-176.499979
0
SEQEND
5
9c5
100
AcDbEntity
8
1
0
ARC
5
9c6
100
AcDbEntity
8
1
100
AcDbCircle
6
CONTINUOUS
62
5
10
129.250000
20
-176.299979
40
0.200000
100
AcDbArc
50
179.999998
51
-89.999999
0
LINE
5
9c7
100
AcDbEntity
8
1
100
AcDbLine
6
CONTINUOUS
62
5
10
129.050000
20
-176.299979
11
129.050000
21
-172.999986
0
ARC
5
9c8
100
AcDbEntity
8
1
100
AcDbCircle
6
CONTINUOUS
62
5
10
129.150000
20
-176.399979
40
0.200000
100
AcDbArc
50
179.999998
51
-89.999999
0
LINE
5
9c9
100
AcDbEntity
8
1
100
AcDbLine
6
CONTINUOUS
62
5
10
128.950000
20
-176.399979
11
128.950000
21
-172.999986
0
ARC
5
9ca
100
AcDbEntity
8
1
100
AcDbCircle
6
CONTINUOUS
62
5
10
128.450000
20
-172.999986
40
0.500000
100
AcDbArc
50
0.000000
51
89.999999
0
POLYLINE
5
9cb
100
AcDbEntity
8
1
6
CONTINUOUS
62
5
100
AcDb2dPolyline
66
1
10
0.0
20
0.0
30
0.0
70
0
0
VERTEX
5
9cc
100
AcDbEntity
8
1
100
AcDbVertex
100
AcDb2dVertex
62
5
10
128.450000
20
-172.499986
0
VERTEX
5
9cd
100
AcDbEntity
8
1
100
AcDbVertex
100
AcDb2dVertex
62
5
10
128.450000
20
-172.499986
0
VERTEX
5
9ce
100
AcDbEntity
8
1
100
AcDbVertex
100
AcDb2dVertex
62
5
10
128.450000
20
-172.399986
0
VERTEX
5
9cf
100
AcDbEntity
8
1
100
AcDbVertex
100
AcDb2dVertex
62
5
10
128.450000
20
-161.499986
0
VERTEX
5
9d0
100
AcDbEntity
8
1
100
AcDbVertex
100
AcDb2dVertex
62
5
10
128.450000
20
-161.499986
0
SEQEND
5
9d1
100
AcDbEntity
8
1
0
ARC
5
9d2
100
AcDbEntity
8
1
100
AcDbCircle
6
CONTINUOUS
62
5
10
128.450000
20
-160.999986
40
0.500000
100
AcDbArc
50
-89.999999
51
0.000000
0
LINE
5
9d3
100
AcDbEntity
8
1
100
AcDbLine
6
CONTINUOUS
62
5
10
128.950000
20
-160.999986
11
128.950000
21
-157.599970
0
ARC
5
9d4
100
AcDbEntity
8
1
100
AcDbCircle
6
CONTINUOUS
62
5
10
129.150000
20
-157.599970
40
0.200000
100
AcDbArc
50
89.999999
51
179.999998
0
LINE
5
9d5
100
AcDbEntity
8
1
100
AcDbLine
6
CONTINUOUS
62
5
10
129.150000
20
-157.399970
11
132.850000
21
-157.399970
0
ARC
5
9d6
100
AcDbEntity
8
1
100
AcDbCircle
6
CONTINUOUS
62
5
10
132.850000
20
-157.599970
40
0.200000
100
AcDbArc
50
0.000000
51
89.999999
0
LINE
5
9d7
100
AcDbEntity
8
1
100
AcDbLine
6
CONTINUOUS
62
5
10
133.050000
20
-157.599970
11
133.050000
21
-176.399979
0
ARC
5
9d8
100
AcDbEntity
8
1
100
AcDbCircle
6
CONTINUOUS
62
5
10
132.850000
20
-176.399979
40
0.200000
100
AcDbArc
50
-89.999999
51
0.000000
0
POLYLINE
5
9d9
100
AcDbEntity
8
1
6
CONTINUOUS
62
5
100
AcDb2dPolyline
66
1
10
0.0
20
0.0
30
0.0
70
0
0
VERTEX
5
9da
100
AcDbEntity
8
1
100
AcDbVertex
100
AcDb2dVertex
62
5
10
132.850000
20
-176.599979
0
VERTEX
5
9db
100
AcDbEntity
8
1
100
AcDbVertex
100
AcDb2dVertex
62
5
10
131.900000
20
-176.599979
0
VERTEX
5
9dc
100
AcDbEntity
8
1
100
AcDbVertex
100
AcDb2dVertex
62
5
10
129.150000
20
-176.599979
0
SEQEND
5
9dd
100
AcDbEntity
8
1
0
LINE
5
9de
100
AcDbEntity
8
1
100
AcDbLine
6
CONTINUOUS
62
5
10
131.900000
20
-175.499986
11
131.900000
21
-158.999986
0
ARC
5
9df
100
AcDbEntity
8
1
100
AcDbCircle
6
CONTINUOUS
62
5
10
130.149965
20
-171.949986
40
0.300000
100
AcDbArc
50
179.999998
51
-89.999999
0
LINE
5
9e0
100
AcDbEntity
8
1
100
AcDbLine
6
CONTINUOUS
62
5
10
130.149965
20
-172.249986
11
130.949965
21
-172.249986
0
ARC
5
9e1
100
AcDbEntity
8
1
100
AcDbCircle
6
CONTINUOUS
62
5
10
130.949965
20
-171.949986
40
0.300000
100
AcDbArc
50
-89.999999
51
-0.000000
0
LINE
5
9e2
100
AcDbEntity
8
1
100
AcDbLine
6
CONTINUOUS
62
5
10
131.249965
20
-171.949986
11
131.249965
21
-162.049986
0
ARC
5
9e3
100
AcDbEntity
8
1
100
AcDbCircle
6
CONTINUOUS
62
5
10
130.949965
20
-162.049986
40
0.300000
100
AcDbArc
50
-0.000000
51
89.999999
0
LINE
5
9e4
100
AcDbEntity
8
1
100
AcDbLine
6
CONTINUOUS
62
5
10
130.949965
20
-161.749986
11
130.149965
21
-161.749986
0
ARC
5
9e5
100
AcDbEntity
8
1
100
AcDbCircle
6
CONTINUOUS
62
5
10
130.149965
20
-162.049986
40
0.300000
100
AcDbArc
50
89.999999
51
-179.999998
0
LINE
5
9e6
100
AcDbEntity
8
1
100
AcDbLine
6
CONTINUOUS
62
5
10
129.849965
20
-162.049986
11
129.849965
21
-171.949986
0
ARC
5
9e7
100
AcDbEntity
8
1
100
AcDbCircle
6
CONTINUOUS
62
5
10
130.949965
20
-159.799986
40
0.300000
100
AcDbArc
50
0.000000
51
89.999999
0
LINE
5
9e8
100
AcDbEntity
8
1
100
AcDbLine
6
CONTINUOUS
62
5
10
131.249965
20
-159.799986
11
131.249965
21
-174.699986
0
ARC
5
9e9
100
AcDbEntity
8
1
100
AcDbCircle
6
CONTINUOUS
62
5
10
130.949965
20
-174.699986
40
0.300000
100
AcDbArc
50
-89.999999
51
0.000000
0
POLYLINE
5
9ea
100
AcDbEntity
8
1
6
CONTINUOUS
62
5
100
AcDb2dPolyline
66
1
10
0.0
20
0.0
30
0.0
70
0
0
VERTEX
5
9eb
100
AcDbEntity
8
1
100
AcDbVertex
100
AcDb2dVertex
62
5
10
130.949965
20
-174.999986
0
VERTEX
5
9ec
100
AcDbEntity
8
1
100
AcDbVertex
100
AcDb2dVertex
62
5
10
129.849965
20
-174.999986
0
VERTEX
5
9ed
100
AcDbEntity
8
1
100
AcDbVertex
100
AcDb2dVertex
62
5
10
129.849965
20
-162.049986
0
SEQEND
5
9ee
100
AcDbEntity
8
1
0
ARC
5
9ef
100
AcDbEntity
8
1
100
AcDbCircle
6
CONTINUOUS
62
5
10
130.149965
20
-162.049986
40
0.300000
100
AcDbArc
50
89.999999
51
-179.999998
0
LINE
5
9f0
100
AcDbEntity
8
1
100
AcDbLine
6
CONTINUOUS
62
5
10
130.149965
20
-159.499986
11
130.949965
21
-159.499986
0
ARC
5
9f1
100
AcDbEntity
8
1
100
AcDbCircle
6
CONTINUOUS
62
5
10
130.349965
20
-162.049986
40
0.300000
100
AcDbArc
50
89.999999
51
-179.999998
0
LINE
5
9f2
100
AcDbEntity
8
1
100
AcDbLine
6
CONTINUOUS
62
5
10
130.049965
20
-162.049986
11
130.049965
21
-171.949986
0
ARC
5
9f3
100
AcDbEntity
8
1
100
AcDbCircle
6
CONTINUOUS
62
5
10
130.349965
20
-171.949986
40
0.300000
100
AcDbArc
50
-179.999998
51
-89.999999
0
LINE
5
9f4
100
AcDbEntity
8
1
100
AcDbLine
6
CONTINUOUS
62
5
10
130.349965
20
-172.249986
11
130.849965
21
-172.249986
0
ARC
5
9f5
100
AcDbEntity
8
1
100
AcDbCircle
6
CONTINUOUS
62
5
10
130.849965
20
-171.949986
40
0.300000
100
AcDbArc
50
-89.999999
51
-0.000000
0
LINE
5
9f6
100
AcDbEntity
8
1
100
AcDbLine
6
CONTINUOUS
62
5
10
131.149965
20
-171.949986
11
131.149965
21
-162.049986
0
ARC
5
9f7
100
AcDbEntity
8
1
100
AcDbCircle
6
CONTINUOUS
62
5
10
130.849965
20
-162.049986
40
0.300000
100
AcDbArc
50
0.000000
51
89.999999
0
LINE
5
9f8
100
AcDbEntity
8
1
100
AcDbLine
6
CONTINUOUS
62
5
10
130.849965
20
-161.749986
11
130.349965
21
-161.749986
0
ARC
5
9f9
100
AcDbEntity
8
1
100
AcDbCircle
6
CONTINUOUS
62
5
10
89.250239
20
-172.999986
40
0.500000
100
AcDbArc
50
89.999999
51
-179.999998
0
LINE
5
9fa
100
AcDbEntity
8
1
100
AcDbLine
6
CONTINUOUS
62
5
10
89.250239
20
-172.499986
11
89.250239
21
-161.499986
0
ARC
5
9fb
100
AcDbEntity
8
1
100
AcDbCircle
6
CONTINUOUS
62
5
10
89.249707
20
-161.000518
40
0.499469
100
AcDbArc
50
179.938999
51
-89.939000
0
LINE
5
9fc
100
AcDbEntity
8
1
100
AcDbLine
6
CONTINUOUS
62
5
10
88.750239
20
-160.999986
11
88.750239
21
-157.699970
0
ARC
5
9fd
100
AcDbEntity
8
1
100
AcDbCircle
6
CONTINUOUS
62
5
10
88.450239
20
-157.699970
40
0.300000
100
AcDbArc
50
0.000000
51
89.999999
0
LINE
5
9fe
100
AcDbEntity
8
1
100
AcDbLine
6
CONTINUOUS
62
5
10
88.450239
20
-157.399970
11
83.150000
21
-157.399970
0
ARC
5
9ff
100
AcDbEntity
8
1
100
AcDbCircle
6
CONTINUOUS
62
5
10
83.150000
20
-157.599970
40
0.200000
100
AcDbArc
50
89.999999
51
179.999998
0
LINE
5
a00
100
AcDbEntity
8
1
100
AcDbLine
6
CONTINUOUS
62
5
10
82.950000
20
-157.599970
11
82.950000
21
-160.999986
0
ARC
5
a01
100
AcDbEntity
8
1
100
AcDbCircle
6
CONTINUOUS
62
5
10
82.450000
20
-160.999986
40
0.500000
100
AcDbArc
50
-89.999999
51
-0.000000
0
LINE
5
a02
100
AcDbEntity
8
1
100
AcDbLine
6
CONTINUOUS
62
5
10
82.450000
20
-161.499986
11
82.450000
21
-172.499986
0
ARC
5
a03
100
AcDbEntity
8
1
100
AcDbCircle
6
CONTINUOUS
62
5
10
82.450000
20
-172.999986
40
0.500000
100
AcDbArc
50
0.000000
51
89.999999
0
LINE
5
a04
100
AcDbEntity
8
1
100
AcDbLine
6
CONTINUOUS
62
5
10
82.950000
20
-172.999986
11
82.950000
21
-176.399979
0
ARC
5
a05
100
AcDbEntity
8
1
100
AcDbCircle
6
CONTINUOUS
62
5
10
83.150000
20
-176.399979
40
0.200000
100
AcDbArc
50
179.999998
51
-89.999999
0
LINE
5
a06
100
AcDbEntity
8
1
100
AcDbLine
6
CONTINUOUS
62
5
10
83.150000
20
-176.599979
11
88.550239
21
-176.599979
0
ARC
5
a07
100
AcDbEntity
8
1
100
AcDbCircle
6
CONTINUOUS
62
5
10
88.550239
20
-176.399979
40
0.200000
100
AcDbArc
50
-89.999999
51
0.000000
0
LINE
5
a08
100
AcDbEntity
8
1
100
AcDbLine
6
CONTINUOUS
62
5
10
88.750239
20
-176.399979
11
88.750239
21
-172.999986
0
ARC
5
a09
100
AcDbEntity
8
1
100
AcDbCircle
6
CONTINUOUS
62
5
10
89.150000
20
-172.999986
40
0.500000
100
AcDbArc
50
89.999999
51
179.999998
0
LINE
5
a0a
100
AcDbEntity
8
1
100
AcDbLine
6
CONTINUOUS
62
5
10
89.150000
20
-172.499986
11
89.150239
21
-161.499986
0
ARC
5
a0b
100
AcDbEntity
8
1
100
AcDbCircle
6
CONTINUOUS
62
5
10
89.150239
20
-160.999986
40
0.500000
100
AcDbArc
50
-179.999998
51
-89.999999
0
LINE
5
a0c
100
AcDbEntity
8
1
100
AcDbLine
6
CONTINUOUS
62
5
10
88.650239
20
-160.999986
11
88.650239
21
-157.799970
0
ARC
5
a0d
100
AcDbEntity
8
1
100
AcDbCircle
6
CONTINUOUS
62
5
10
88.350239
20
-157.799970
40
0.300000
100
AcDbArc
50
0.000000
51
89.999999
0
LINE
5
a0e
100
AcDbEntity
8
1
100
AcDbLine
6
CONTINUOUS
62
5
10
88.350239
20
-157.499970
11
83.250000
21
-157.499970
0
ARC
5
a0f
100
AcDbEntity
8
1
100
AcDbCircle
6
CONTINUOUS
62
5
10
83.250000
20
-157.699970
40
0.200000
100
AcDbArc
50
89.999999
51
179.999998
0
LINE
5
a10
100
AcDbEntity
8
1
100
AcDbLine
6
CONTINUOUS
62
5
10
83.050000
20
-157.699970
11
83.050000
21
-160.999986
0
ARC
5
a11
100
AcDbEntity
8
1
100
AcDbCircle
6
CONTINUOUS
62
5
10
82.550000
20
-160.999986
40
0.500000
100
AcDbArc
50
-89.999999
51
-0.000000
0
LINE
5
a12
100
AcDbEntity
8
1
100
AcDbLine
6
CONTINUOUS
62
5
10
82.550000
20
-161.499986
11
82.550000
21
-172.499986
0
ARC
5
a13
100
AcDbEntity
8
1
100
AcDbCircle
6
CONTINUOUS
62
5
10
82.550000
20
-172.999986
40
0.500000
100
AcDbArc
50
0.000000
51
89.999999
0
LINE
5
a14
100
AcDbEntity
8
1
100
AcDbLine
6
CONTINUOUS
62
5
10
83.050000
20
-172.999986
11
83.050000
21
-176.299979
0
ARC
5
a15
100
AcDbEntity
8
1
100
AcDbCircle
6
CONTINUOUS
62
5
10
83.250000
20
-176.299979
40
0.200000
100
AcDbArc
50
179.999998
51
-89.999999
0
LINE
5
a16
100
AcDbEntity
8
1
100
AcDbLine
6
CONTINUOUS
62
5
10
83.250000
20
-176.499979
11
88.449997
21
-176.499979
0
ARC
5
a17
100
AcDbEntity
8
1
100
AcDbCircle
6
CONTINUOUS
62
5
10
88.449997
20
-176.299979
40
0.200000
100
AcDbArc
50
-89.999999
51
0.000000
0
LINE
5
a18
100
AcDbEntity
8
1
100
AcDbLine
6
CONTINUOUS
62
5
10
88.649997
20
-176.299979
11
88.650000
21
-172.999986
0
ARC
5
a19
100
AcDbEntity
8
1
100
AcDbCircle
6
CONTINUOUS
62
5
10
84.949965
20
-159.799986
40
0.300000
100
AcDbArc
50
0.000000
51
89.999999
0
LINE
5
a1a
100
AcDbEntity
8
1
100
AcDbLine
6
CONTINUOUS
62
5
10
85.249965
20
-159.799986
11
85.249965
21
-174.699986
0
ARC
5
a1b
100
AcDbEntity
8
1
100
AcDbCircle
6
CONTINUOUS
62
5
10
84.949965
20
-174.699986
40
0.300000
100
AcDbArc
50
-89.999999
51
0.000000
0
POLYLINE
5
a1c
100
AcDbEntity
8
1
6
CONTINUOUS
62
5
100
AcDb2dPolyline
66
1
10
0.0
20
0.0
30
0.0
70
0
0
VERTEX
5
a1d
100
AcDbEntity
8
1
100
AcDbVertex
100
AcDb2dVertex
62
5
10
84.949965
20
-174.999986
0
VERTEX
5
a1e
100
AcDbEntity
8
1
100
AcDbVertex
100
AcDb2dVertex
62
5
10
83.849965
20
-174.999986
0
VERTEX
5
a1f
100
AcDbEntity
8
1
100
AcDbVertex
100
AcDb2dVertex
62
5
10
83.849965
20
-162.049986
0
SEQEND
5
a20
100
AcDbEntity
8
1
0
ARC
5
a21
100
AcDbEntity
8
1
100
AcDbCircle
6
CONTINUOUS
62
5
10
84.149965
20
-162.049986
40
0.300000
100
AcDbArc
50
89.999999
51
179.999998
0
LINE
5
a22
100
AcDbEntity
8
1
100
AcDbLine
6
CONTINUOUS
62
5
10
84.149965
20
-159.499986
11
84.949965
21
-159.499986
0
ARC
5
a23
100
AcDbEntity
8
1
100
AcDbCircle
6
CONTINUOUS
62
5
10
84.149965
20
-171.949986
40
0.300000
100
AcDbArc
50
179.999998
51
-89.999999
0
LINE
5
a24
100
AcDbEntity
8
1
100
AcDbLine
6
CONTINUOUS
62
5
10
84.149965
20
-172.249986
11
84.949965
21
-172.249986
0
ARC
5
a25
100
AcDbEntity
8
1
100
AcDbCircle
6
CONTINUOUS
62
5
10
84.949965
20
-171.949986
40
0.300000
100
AcDbArc
50
-89.999999
51
-0.000000
0
LINE
5
a26
100
AcDbEntity
8
1
100
AcDbLine
6
CONTINUOUS
62
5
10
85.249965
20
-171.949986
11
85.249965
21
-162.049986
0
ARC
5
a27
100
AcDbEntity
8
1
100
AcDbCircle
6
CONTINUOUS
62
5
10
84.949965
20
-162.049986
40
0.300000
100
AcDbArc
50
-0.000000
51
89.999999
0
LINE
5
a28
100
AcDbEntity
8
1
100
AcDbLine
6
CONTINUOUS
62
5
10
84.949965
20
-161.749986
11
84.149965
21
-161.749986
0
ARC
5
a29
100
AcDbEntity
8
1
100
AcDbCircle
6
CONTINUOUS
62
5
10
84.149965
20
-162.049986
40
0.300000
100
AcDbArc
50
89.999999
51
-179.999998
0
LINE
5
a2a
100
AcDbEntity
8
1
100
AcDbLine
6
CONTINUOUS
62
5
10
83.849965
20
-162.049986
11
83.849965
21
-171.949986
0
LINE
5
a2b
100
AcDbEntity
8
1
100
AcDbLine
6
CONTINUOUS
62
5
10
85.850000
20
-159.799986
11
85.850000
21
-174.699986
0
LINE
5
a2c
100
AcDbEntity
8
1
100
AcDbLine
6
CONTINUOUS
62
5
10
86.150000
20
-176.499979
11
86.150000
21
-157.499970
0
ARC
5
a2d
100
AcDbEntity
8
1
100
AcDbCircle
6
CONTINUOUS
62
5
10
87.349997
20
-171.750000
40
0.500000
100
AcDbArc
50
-89.999999
51
-0.000000
0
POLYLINE
5
a2e
100
AcDbEntity
8
1
6
CONTINUOUS
62
5
100
AcDb2dPolyline
66
1
10
0.0
20
0.0
30
0.0
70
0
0
VERTEX
5
a2f
100
AcDbEntity
8
1
100
AcDbVertex
100
AcDb2dVertex
62
5
10
87.349997
20
-172.250000
0
VERTEX
5
a30
100
AcDbEntity
8
1
100
AcDbVertex
100
AcDb2dVertex
62
5
10
86.650000
20
-172.250000
0
VERTEX
5
a31
100
AcDbEntity
8
1
100
AcDbVertex
100
AcDb2dVertex
62
5
10
86.650000
20
-161.749994
0
VERTEX
5
a32
100
AcDbEntity
8
1
100
AcDbVertex
100
AcDb2dVertex
62
5
10
87.349997
20
-161.749994
0
SEQEND
5
a33
100
AcDbEntity
8
1
0
ARC
5
a34
100
AcDbEntity
8
1
100
AcDbCircle
6
CONTINUOUS
62
5
10
87.349997
20
-162.249994
40
0.500000
100
AcDbArc
50
0.000000
51
89.999999
0
LINE
5
a35
100
AcDbEntity
8
1
100
AcDbLine
6
CONTINUOUS
62
5
10
87.849997
20
-162.249994
11
87.849997
21
-162.349980
0
LINE
5
a36
100
AcDbEntity
8
1
100
AcDbLine
6
CONTINUOUS
62
5
10
87.849997
20
-162.349980
11
87.849997
21
-171.750000
0
ARC
5
a37
100
AcDbEntity
8
1
100
AcDbCircle
6
CONTINUOUS
62
5
10
84.349965
20
-162.049986
40
0.300000
100
AcDbArc
50
89.999999
51
-179.999998
0
LINE
5
a38
100
AcDbEntity
8
1
100
AcDbLine
6
CONTINUOUS
62
5
10
84.049965
20
-162.049986
11
84.049965
21
-171.199753
0
ARC
5
a39
100
AcDbEntity
8
1
100
AcDbCircle
6
CONTINUOUS
62
5
10
84.349965
20
-171.199753
40
0.300000
100
AcDbArc
50
-179.999998
51
-89.999999
0
LINE
5
a3a
100
AcDbEntity
8
1
100
AcDbLine
6
CONTINUOUS
62
5
10
84.349965
20
-171.499753
11
84.849999
21
-171.499753
0
ARC
5
a3b
100
AcDbEntity
8
1
100
AcDbCircle
6
CONTINUOUS
62
5
10
84.849999
20
-171.199753
40
0.300000
100
AcDbArc
50
-89.999999
51
-0.000000
0
LINE
5
a3c
100
AcDbEntity
8
1
100
AcDbLine
6
CONTINUOUS
62
5
10
85.149999
20
-171.199753
11
85.149999
21
-162.049986
0
ARC
5
a3d
100
AcDbEntity
8
1
100
AcDbCircle
6
CONTINUOUS
62
5
10
84.849999
20
-162.049986
40
0.300000
100
AcDbArc
50
0.000000
51
89.999999
0
LINE
5
a3e
100
AcDbEntity
8
1
100
AcDbLine
6
CONTINUOUS
62
5
10
84.849999
20
-161.749986
11
84.349965
21
-161.749986
0
ARC
5
a3f
100
AcDbEntity
8
1
100
AcDbCircle
6
CONTINUOUS
62
5
10
95.050000
20
-155.999986
40
0.500000
100
AcDbArc
50
89.999999
51
179.999998
0
LINE
5
a40
100
AcDbEntity
8
1
100
AcDbLine
6
CONTINUOUS
62
5
10
94.550000
20
-155.999986
11
94.550000
21
-158.499986
0
ARC
5
a41
100
AcDbEntity
8
1
100
AcDbCircle
6
CONTINUOUS
62
5
10
94.050000
20
-158.499986
40
0.500000
100
AcDbArc
50
-89.999999
51
0.000000
0
POLYLINE
5
a42
100
AcDbEntity
8
1
6
CONTINUOUS
62
5
100
AcDb2dPolyline
66
1
10
0.0
20
0.0
30
0.0
70
0
0
VERTEX
5
a43
100
AcDbEntity
8
1
100
AcDbVertex
100
AcDb2dVertex
62
5
10
94.050000
20
-158.999986
0
VERTEX
5
a44
100
AcDbEntity
8
1
100
AcDbVertex
100
AcDb2dVertex
62
5
10
92.450000
20
-158.999986
0
VERTEX
5
a45
100
AcDbEntity
8
1
100
AcDbVertex
100
AcDb2dVertex
62
5
10
92.450000
20
-174.999986
0
VERTEX
5
a46
100
AcDbEntity
8
1
100
AcDbVertex
100
AcDb2dVertex
62
5
10
94.050000
20
-174.999986
0
SEQEND
5
a47
100
AcDbEntity
8
1
0
ARC
5
a48
100
AcDbEntity
8
1
100
AcDbCircle
6
CONTINUOUS
62
5
10
94.050000
20
-175.499986
40
0.500000
100
AcDbArc
50
0.000000
51
89.999999
0
LINE
5
a49
100
AcDbEntity
8
1
100
AcDbLine
6
CONTINUOUS
62
5
10
94.550000
20
-175.499986
11
94.550000
21
-181.499986
0
ARC
5
a4a
100
AcDbEntity
8
1
100
AcDbCircle
6
CONTINUOUS
62
5
10
94.050000
20
-181.499986
40
0.500000
100
AcDbArc
50
-89.999999
51
-0.000000
0
POLYLINE
5
a4b
100
AcDbEntity
8
1
6
CONTINUOUS
62
5
100
AcDb2dPolyline
66
1
10
0.0
20
0.0
30
0.0
70
0
0
VERTEX
5
a4c
100
AcDbEntity
8
1
100
AcDbVertex
100
AcDb2dVertex
62
5
10
94.050000
20
-181.999986
0
VERTEX
5
a4d
100
AcDbEntity
8
1
100
AcDbVertex
100
AcDb2dVertex
62
5
10
92.450000
20
-181.999986
0
VERTEX
5
a4e
100
AcDbEntity
8
1
100
AcDbVertex
100
AcDb2dVertex
62
5
10
92.450000
20
-197.999986
0
VERTEX
5
a4f
100
AcDbEntity
8
1
100
AcDbVertex
100
AcDb2dVertex
62
5
10
94.050000
20
-197.999986
0
SEQEND
5
a50
100
AcDbEntity
8
1
0
ARC
5
a51
100
AcDbEntity
8
1
100
AcDbCircle
6
CONTINUOUS
62
5
10
94.050000
20
-198.499986
40
0.500000
100
AcDbArc
50
0.000000
51
89.999999
0
LINE
5
a52
100
AcDbEntity
8
1
100
AcDbLine
6
CONTINUOUS
62
5
10
94.550000
20
-198.499986
11
94.550000
21
-204.499986
0
ARC
5
a53
100
AcDbEntity
8
1
100
AcDbCircle
6
CONTINUOUS
62
5
10
94.050000
20
-204.499986
40
0.500000
100
AcDbArc
50
-89.999999
51
-0.000000
0
POLYLINE
5
a54
100
AcDbEntity
8
1
6
CONTINUOUS
62
5
100
AcDb2dPolyline
66
1
10
0.0
20
0.0
30
0.0
70
0
0
VERTEX
5
a55
100
AcDbEntity
8
1
100
AcDbVertex
100
AcDb2dVertex
62
5
10
94.050000
20
-204.999986
0
VERTEX
5
a56
100
AcDbEntity
8
1
100
AcDbVertex
100
AcDb2dVertex
62
5
10
92.450000
20
-204.999986
0
VERTEX
5
a57
100
AcDbEntity
8
1
100
AcDbVertex
100
AcDb2dVertex
62
5
10
92.450000
20
-220.999986
0
VERTEX
5
a58
100
AcDbEntity
8
1
100
AcDbVertex
100
AcDb2dVertex
62
5
10
94.050000
20
-220.999986
0
SEQEND
5
a59
100
AcDbEntity
8
1
0
ARC
5
a5a
100
AcDbEntity
8
1
100
AcDbCircle
6
CONTINUOUS
62
5
10
94.050000
20
-221.499986
40
0.500000
100
AcDbArc
50
-0.000000
51
89.999999
0
LINE
5
a5b
100
AcDbEntity
8
1
100
AcDbLine
6
CONTINUOUS
62
5
10
94.550000
20
-221.499986
11
94.550000
21
-223.999986
0
ARC
5
a5c
100
AcDbEntity
8
1
100
AcDbCircle
6
CONTINUOUS
62
5
10
95.050000
20
-223.999986
40
0.500000
100
AcDbArc
50
179.999998
51
-89.999999
0
ARC
5
a5d
100
AcDbEntity
8
1
100
AcDbCircle
6
CONTINUOUS
62
5
10
94.950000
20
-155.999986
40
0.500000
100
AcDbArc
50
89.999999
51
179.999998
0
LINE
5
a5e
100
AcDbEntity
8
1
100
AcDbLine
6
CONTINUOUS
62
5
10
94.450000
20
-155.999986
11
94.450000
21
-158.399986
0
ARC
5
a5f
100
AcDbEntity
8
1
100
AcDbCircle
6
CONTINUOUS
62
5
10
93.950000
20
-158.399986
40
0.500000
100
AcDbArc
50
-89.999999
51
0.000000
0
POLYLINE
5
a60
100
AcDbEntity
8
1
6
CONTINUOUS
62
5
100
AcDb2dPolyline
66
1
10
0.0
20
0.0
30
0.0
70
0
0
VERTEX
5
a61
100
AcDbEntity
8
1
100
AcDbVertex
100
AcDb2dVertex
62
5
10
93.950000
20
-158.899986
0
VERTEX
5
a62
100
AcDbEntity
8
1
100
AcDbVertex
100
AcDb2dVertex
62
5
10
92.350000
20
-158.899986
0
VERTEX
5
a63
100
AcDbEntity
8
1
100
AcDbVertex
100
AcDb2dVertex
62
5
10
92.350000
20
-175.099986
0
VERTEX
5
a64
100
AcDbEntity
8
1
100
AcDbVertex
100
AcDb2dVertex
62
5
10
93.950000
20
-175.099986
0
SEQEND
5
a65
100
AcDbEntity
8
1
0
ARC
5
a66
100
AcDbEntity
8
1
100
AcDbCircle
6
CONTINUOUS
62
5
10
93.950000
20
-175.599986
40
0.500000
100
AcDbArc
50
0.000000
51
89.999999
0
LINE
5
a67
100
AcDbEntity
8
1
100
AcDbLine
6
CONTINUOUS
62
5
10
94.450000
20
-175.599986
11
94.450000
21
-181.399986
0
ARC
5
a68
100
AcDbEntity
8
1
100
AcDbCircle
6
CONTINUOUS
62
5
10
93.950000
20
-181.399986
40
0.500000
100
AcDbArc
50
-89.999999
51
0.000000
0
POLYLINE
5
a69
100
AcDbEntity
8
1
6
CONTINUOUS
62
5
100
AcDb2dPolyline
66
1
10
0.0
20
0.0
30
0.0
70
0
0
VERTEX
5
a6a
100
AcDbEntity
8
1
100
AcDbVertex
100
AcDb2dVertex
62
5
10
93.950000
20
-181.899986
0
VERTEX
5
a6b
100
AcDbEntity
8
1
100
AcDbVertex
100
AcDb2dVertex
62
5
10
92.350000
20
-181.899986
0
VERTEX
5
a6c
100
AcDbEntity
8
1
100
AcDbVertex
100
AcDb2dVertex
62
5
10
92.350000
20
-198.099986
0
VERTEX
5
a6d
100
AcDbEntity
8
1
100
AcDbVertex
100
AcDb2dVertex
62
5
10
93.950000
20
-198.099986
0
SEQEND
5
a6e
100
AcDbEntity
8
1
0
ARC
5
a6f
100
AcDbEntity
8
1
100
AcDbCircle
6
CONTINUOUS
62
5
10
93.950000
20
-198.599986
40
0.500000
100
AcDbArc
50
0.000000
51
89.999999
0
LINE
5
a70
100
AcDbEntity
8
1
100
AcDbLine
6
CONTINUOUS
62
5
10
94.450000
20
-198.599986
11
94.450000
21
-204.399986
0
ARC
5
a71
100
AcDbEntity
8
1
100
AcDbCircle
6
CONTINUOUS
62
5
10
93.950000
20
-204.399986
40
0.500000
100
AcDbArc
50
-89.999999
51
0.000000
0
POLYLINE
5
a72
100
AcDbEntity
8
1
6
CONTINUOUS
62
5
100
AcDb2dPolyline
66
1
10
0.0
20
0.0
30
0.0
70
0
0
VERTEX
5
a73
100
AcDbEntity
8
1
100
AcDbVertex
100
AcDb2dVertex
62
5
10
93.950000
20
-204.899986
0
VERTEX
5
a74
100
AcDbEntity
8
1
100
AcDbVertex
100
AcDb2dVertex
62
5
10
92.350000
20
-204.899986
0
VERTEX
5
a75
100
AcDbEntity
8
1
100
AcDbVertex
100
AcDb2dVertex
62
5
10
92.350000
20
-221.099986
0
VERTEX
5
a76
100
AcDbEntity
8
1
100
AcDbVertex
100
AcDb2dVertex
62
5
10
93.950000
20
-221.099986
0
SEQEND
5
a77
100
AcDbEntity
8
1
0
ARC
5
a78
100
AcDbEntity
8
1
100
AcDbCircle
6
CONTINUOUS
62
5
10
93.950000
20
-221.599986
40
0.500000
100
AcDbArc
50
0.000000
51
89.999999
0
LINE
5
a79
100
AcDbEntity
8
1
100
AcDbLine
6
CONTINUOUS
62
5
10
94.450000
20
-221.599986
11
94.450000
21
-223.999986
0
ARC
5
a7a
100
AcDbEntity
8
1
100
AcDbCircle
6
CONTINUOUS
62
5
10
94.950000
20
-223.999986
40
0.500000
100
AcDbArc
50
179.999998
51
-89.999999
0
ARC
5
a7b
100
AcDbEntity
8
1
100
AcDbCircle
6
CONTINUOUS
62
5
10
79.150000
20
-221.299986
40
0.300000
100
AcDbArc
50
89.999999
51
-179.999998
0
LINE
5
a7c
100
AcDbEntity
8
1
100
AcDbLine
6
CONTINUOUS
62
5
10
78.850000
20
-221.299986
11
78.850000
21
-223.999986
0
ARC
5
a7d
100
AcDbEntity
8
1
100
AcDbCircle
6
CONTINUOUS
62
5
10
78.350000
20
-223.999986
40
0.500000
100
AcDbArc
50
-89.999999
51
-0.000000
0
ARC
5
a7e
100
AcDbEntity
8
1
100
AcDbCircle
6
CONTINUOUS
62
5
10
78.350000
20
-155.999986
40
0.500000
100
AcDbArc
50
-0.000000
51
89.999999
0
LINE
5
a7f
100
AcDbEntity
8
1
100
AcDbLine
6
CONTINUOUS
62
5
10
78.850000
20
-155.999986
11
78.850000
21
-158.699986
0
ARC
5
a80
100
AcDbEntity
8
1
100
AcDbCircle
6
CONTINUOUS
62
5
10
79.150000
20
-158.699986
40
0.300000
100
AcDbArc
50
179.999998
51
-89.999999
0
POLYLINE
5
a81
100
AcDbEntity
8
1
6
CONTINUOUS
62
5
100
AcDb2dPolyline
66
1
10
0.0
20
0.0
30
0.0
70
0
0
VERTEX
5
a82
100
AcDbEntity
8
1
100
AcDbVertex
100
AcDb2dVertex
62
5
10
79.150000
20
-158.999986
0
VERTEX
5
a83
100
AcDbEntity
8
1
100
AcDbVertex
100
AcDb2dVertex
62
5
10
79.250000
20
-158.999986
0
VERTEX
5
a84
100
AcDbEntity
8
1
100
AcDbVertex
100
AcDb2dVertex
62
5
10
79.250000
20
-174.999986
0
VERTEX
5
a85
100
AcDbEntity
8
1
100
AcDbVertex
100
AcDb2dVertex
62
5
10
79.150000
20
-174.999986
0
SEQEND
5
a86
100
AcDbEntity
8
1
0
ARC
5
a87
100
AcDbEntity
8
1
100
AcDbCircle
6
CONTINUOUS
62
5
10
79.150000
20
-175.299986
40
0.300000
100
AcDbArc
50
89.999999
51
179.999998
0
LINE
5
a88
100
AcDbEntity
8
1
100
AcDbLine
6
CONTINUOUS
62
5
10
78.850000
20
-175.299986
11
78.850000
21
-181.699986
0
ARC
5
a89
100
AcDbEntity
8
1
100
AcDbCircle
6
CONTINUOUS
62
5
10
79.150000
20
-181.699986
40
0.300000
100
AcDbArc
50
-179.999998
51
-89.999999
0
POLYLINE
5
a8a
100
AcDbEntity
8
1
6
CONTINUOUS
62
5
100
AcDb2dPolyline
66
1
10
0.0
20
0.0
30
0.0
70
0
0
VERTEX
5
a8b
100
AcDbEntity
8
1
100
AcDbVertex
100
AcDb2dVertex
62
5
10
79.150000
20
-181.999986
0
VERTEX
5
a8c
100
AcDbEntity
8
1
100
AcDbVertex
100
AcDb2dVertex
62
5
10
79.250000
20
-181.999986
0
VERTEX
5
a8d
100
AcDbEntity
8
1
100
AcDbVertex
100
AcDb2dVertex
62
5
10
79.250000
20
-197.999986
0
VERTEX
5
a8e
100
AcDbEntity
8
1
100
AcDbVertex
100
AcDb2dVertex
62
5
10
79.150000
20
-197.999986
0
SEQEND
5
a8f
100
AcDbEntity
8
1
0
ARC
5
a90
100
AcDbEntity
8
1
100
AcDbCircle
6
CONTINUOUS
62
5
10
79.150000
20
-198.299986
40
0.300000
100
AcDbArc
50
89.999999
51
179.999998
0
LINE
5
a91
100
AcDbEntity
8
1
100
AcDbLine
6
CONTINUOUS
62
5
10
78.850000
20
-198.299986
11
78.850000
21
-204.699986
0
ARC
5
a92
100
AcDbEntity
8
1
100
AcDbCircle
6
CONTINUOUS
62
5
10
79.150000
20
-204.699986
40
0.300000
100
AcDbArc
50
179.999998
51
-89.999999
0
POLYLINE
5
a93
100
AcDbEntity
8
1
6
CONTINUOUS
62
5
100
AcDb2dPolyline
66
1
10
0.0
20
0.0
30
0.0
70
0
0
VERTEX
5
a94
100
AcDbEntity
8
1
100
AcDbVertex
100
AcDb2dVertex
62
5
10
79.150000
20
-204.999986
0
VERTEX
5
a95
100
AcDbEntity
8
1
100
AcDbVertex
100
AcDb2dVertex
62
5
10
79.250000
20
-204.999986
0
VERTEX
5
a96
100
AcDbEntity
8
1
100
AcDbVertex
100
AcDb2dVertex
62
5
10
79.250000
20
-220.999986
0
VERTEX
5
a97
100
AcDbEntity
8
1
100
AcDbVertex
100
AcDb2dVertex
62
5
10
79.150000
20
-220.999986
0
SEQEND
5
a98
100
AcDbEntity
8
1
0
ARC
5
a99
100
AcDbEntity
8
1
100
AcDbCircle
6
CONTINUOUS
62
5
10
78.450000
20
-155.999986
40
0.500000
100
AcDbArc
50
0.000000
51
89.999999
0
LINE
5
a9a
100
AcDbEntity
8
1
100
AcDbLine
6
CONTINUOUS
62
5
10
78.950000
20
-155.999986
11
78.950000
21
-158.599986
0
ARC
5
a9b
100
AcDbEntity
8
1
100
AcDbCircle
6
CONTINUOUS
62
5
10
79.250000
20
-158.599986
40
0.300000
100
AcDbArc
50
179.999998
51
-89.999999
0
POLYLINE
5
a9c
100
AcDbEntity
8
1
6
CONTINUOUS
62
5
100
AcDb2dPolyline
66
1
10
0.0
20
0.0
30
0.0
70
0
0
VERTEX
5
a9d
100
AcDbEntity
8
1
100
AcDbVertex
100
AcDb2dVertex
62
5
10
79.250000
20
-158.899986
0
VERTEX
5
a9e
100
AcDbEntity
8
1
100
AcDbVertex
100
AcDb2dVertex
62
5
10
79.350000
20
-158.899986
0
VERTEX
5
a9f
100
AcDbEntity
8
1
100
AcDbVertex
100
AcDb2dVertex
62
5
10
79.350000
20
-175.099986
0
VERTEX
5
aa0
100
AcDbEntity
8
1
100
AcDbVertex
100
AcDb2dVertex
62
5
10
79.250000
20
-175.099986
0
SEQEND
5
aa1
100
AcDbEntity
8
1
0
ARC
5
aa2
100
AcDbEntity
8
1
100
AcDbCircle
6
CONTINUOUS
62
5
10
79.250000
20
-175.399986
40
0.300000
100
AcDbArc
50
89.999999
51
179.999998
0
LINE
5
aa3
100
AcDbEntity
8
1
100
AcDbLine
6
CONTINUOUS
62
5
10
78.950000
20
-175.399986
11
78.950000
21
-181.599986
0
ARC
5
aa4
100
AcDbEntity
8
1
100
AcDbCircle
6
CONTINUOUS
62
5
10
79.250000
20
-181.599986
40
0.300000
100
AcDbArc
50
179.999998
51
-89.999999
0
POLYLINE
5
aa5
100
AcDbEntity
8
1
6
CONTINUOUS
62
5
100
AcDb2dPolyline
66
1
10
0.0
20
0.0
30
0.0
70
0
0
VERTEX
5
aa6
100
AcDbEntity
8
1
100
AcDbVertex
100
AcDb2dVertex
62
5
10
79.250000
20
-181.899986
0
VERTEX
5
aa7
100
AcDbEntity
8
1
100
AcDbVertex
100
AcDb2dVertex
62
5
10
79.350000
20
-181.899986
0
VERTEX
5
aa8
100
AcDbEntity
8
1
100
AcDbVertex
100
AcDb2dVertex
62
5
10
79.350000
20
-198.099986
0
VERTEX
5
aa9
100
AcDbEntity
8
1
100
AcDbVertex
100
AcDb2dVertex
62
5
10
79.250000
20
-198.099986
0
SEQEND
5
aaa
100
AcDbEntity
8
1
0
ARC
5
aab
100
AcDbEntity
8
1
100
AcDbCircle
6
CONTINUOUS
62
5
10
79.250000
20
-198.399986
40
0.300000
100
AcDbArc
50
89.999999
51
179.999998
0
LINE
5
aac
100
AcDbEntity
8
1
100
AcDbLine
6
CONTINUOUS
62
5
10
78.950000
20
-198.399986
11
78.950000
21
-204.599986
0
ARC
5
aad
100
AcDbEntity
8
1
100
AcDbCircle
6
CONTINUOUS
62
5
10
79.250000
20
-204.599986
40
0.300000
100
AcDbArc
50
179.999998
51
-89.999999
0
POLYLINE
5
aae
100
AcDbEntity
8
1
6
CONTINUOUS
62
5
100
AcDb2dPolyline
66
1
10
0.0
20
0.0
30
0.0
70
0
0
VERTEX
5
aaf
100
AcDbEntity
8
1
100
AcDbVertex
100
AcDb2dVertex
62
5
10
79.250000
20
-204.899986
0
VERTEX
5
ab0
100
AcDbEntity
8
1
100
AcDbVertex
100
AcDb2dVertex
62
5
10
79.350000
20
-204.899986
0
VERTEX
5
ab1
100
AcDbEntity
8
1
100
AcDbVertex
100
AcDb2dVertex
62
5
10
79.350000
20
-221.099986
0
VERTEX
5
ab2
100
AcDbEntity
8
1
100
AcDbVertex
100
AcDb2dVertex
62
5
10
79.250000
20
-221.099986
0
SEQEND
5
ab3
100
AcDbEntity
8
1
0
ARC
5
ab4
100
AcDbEntity
8
1
100
AcDbCircle
6
CONTINUOUS
62
5
10
79.250000
20
-221.399986
40
0.300000
100
AcDbArc
50
89.999999
51
179.999998
0
LINE
5
ab5
100
AcDbEntity
8
1
100
AcDbLine
6
CONTINUOUS
62
5
10
78.950000
20
-221.399986
11
78.950000
21
-223.999986
0
ARC
5
ab6
100
AcDbEntity
8
1
100
AcDbCircle
6
CONTINUOUS
62
5
10
78.450000
20
-223.999986
40
0.500000
100
AcDbArc
50
-89.999999
51
-0.000000
0
LINE
5
ab7
100
AcDbEntity
8
1
100
AcDbLine
6
CONTINUOUS
62
5
10
41.850000
20
-158.250001
11
41.850000
21
-175.750002
0
ARC
5
ab8
100
AcDbEntity
8
1
100
AcDbCircle
6
CONTINUOUS
62
5
10
46.439555
20
-234.199986
40
1.000000
100
AcDbArc
50
45.369135
51
89.999999
0
LINE
5
ab9
100
AcDbEntity
8
1
100
AcDbLine
6
CONTINUOUS
62
5
10
46.439555
20
-233.199986
11
39.152834
21
-233.199986
0
ARC
5
aba
100
AcDbEntity
8
1
100
AcDbCircle
6
CONTINUOUS
62
5
10
39.152834
20
-228.199986
40
5.000000
100
AcDbArc
50
-179.997873
51
-89.999999
0
LINE
5
abb
100
AcDbEntity
8
1
100
AcDbLine
6
CONTINUOUS
62
5
10
34.152834
20
-228.200172
11
34.150000
21
-151.799986
0
ARC
5
abc
100
AcDbEntity
8
1
100
AcDbCircle
6
CONTINUOUS
62
5
10
39.150000
20
-151.799986
40
5.000000
100
AcDbArc
50
89.999999
51
-179.999998
0
LINE
5
abd
100
AcDbEntity
8
1
100
AcDbLine
6
CONTINUOUS
62
5
10
39.150000
20
-146.799986
11
46.439555
21
-146.799986
0
ARC
5
abe
100
AcDbEntity
8
1
100
AcDbCircle
6
CONTINUOUS
62
5
10
46.439555
20
-145.799986
40
1.000000
100
AcDbArc
50
-89.999999
51
-45.369135
0
LINE
5
abf
100
AcDbEntity
8
1
100
AcDbLine
6
CONTINUOUS
62
5
10
47.142092
20
-146.511634
11
48.583429
21
-145.088750
0
LINE
5
ac0
100
AcDbEntity
8
1
100
AcDbLine
6
CONTINUOUS
62
5
10
49.647463
20
-235.961634
11
47.142092
21
-233.488339
0
ARC
5
ac1
100
AcDbEntity
8
1
100
AcDbCircle
6
CONTINUOUS
62
5
10
49.050000
20
-223.999986
40
0.500000
100
AcDbArc
50
-179.999998
51
-89.999999
0
LINE
5
ac2
100
AcDbEntity
8
1
100
AcDbLine
6
CONTINUOUS
62
5
10
48.550000
20
-223.999986
11
48.550000
21
-221.499986
0
ARC
5
ac3
100
AcDbEntity
8
1
100
AcDbCircle
6
CONTINUOUS
62
5
10
48.050000
20
-221.499986
40
0.500000
100
AcDbArc
50
0.000000
51
89.999999
0
POLYLINE
5
ac4
100
AcDbEntity
8
1
6
CONTINUOUS
62
5
100
AcDb2dPolyline
66
1
10
0.0
20
0.0
30
0.0
70
0
0
VERTEX
5
ac5
100
AcDbEntity
8
1
100
AcDbVertex
100
AcDb2dVertex
62
5
10
48.050000
20
-220.999986
0
VERTEX
5
ac6
100
AcDbEntity
8
1
100
AcDbVertex
100
AcDb2dVertex
62
5
10
46.450000
20
-220.999986
0
VERTEX
5
ac7
100
AcDbEntity
8
1
100
AcDbVertex
100
AcDb2dVertex
62
5
10
46.450000
20
-204.999986
0
VERTEX
5
ac8
100
AcDbEntity
8
1
100
AcDbVertex
100
AcDb2dVertex
62
5
10
48.050000
20
-204.999986
0
SEQEND
5
ac9
100
AcDbEntity
8
1
0
ARC
5
aca
100
AcDbEntity
8
1
100
AcDbCircle
6
CONTINUOUS
62
5
10
48.050000
20
-204.499986
40
0.500000
100
AcDbArc
50
-89.999999
51
-0.000000
0
LINE
5
acb
100
AcDbEntity
8
1
100
AcDbLine
6
CONTINUOUS
62
5
10
48.550000
20
-204.499986
11
48.550000
21
-198.499986
0
ARC
5
acc
100
AcDbEntity
8
1
100
AcDbCircle
6
CONTINUOUS
62
5
10
48.050000
20
-198.499986
40
0.500000
100
AcDbArc
50
0.000000
51
89.999999
0
POLYLINE
5
acd
100
AcDbEntity
8
1
6
CONTINUOUS
62
5
100
AcDb2dPolyline
66
1
10
0.0
20
0.0
30
0.0
70
0
0
VERTEX
5
ace
100
AcDbEntity
8
1
100
AcDbVertex
100
AcDb2dVertex
62
5
10
48.050000
20
-197.999986
0
VERTEX
5
acf
100
AcDbEntity
8
1
100
AcDbVertex
100
AcDb2dVertex
62
5
10
46.450000
20
-197.999986
0
VERTEX
5
ad0
100
AcDbEntity
8
1
100
AcDbVertex
100
AcDb2dVertex
62
5
10
46.450000
20
-181.999986
0
VERTEX
5
ad1
100
AcDbEntity
8
1
100
AcDbVertex
100
AcDb2dVertex
62
5
10
48.050000
20
-181.999986
0
SEQEND
5
ad2
100
AcDbEntity
8
1
0
ARC
5
ad3
100
AcDbEntity
8
1
100
AcDbCircle
6
CONTINUOUS
62
5
10
48.050000
20
-181.499986
40
0.500000
100
AcDbArc
50
-89.999999
51
0.000000
0
LINE
5
ad4
100
AcDbEntity
8
1
100
AcDbLine
6
CONTINUOUS
62
5
10
48.550000
20
-181.499986
11
48.550000
21
-175.499986
0
ARC
5
ad5
100
AcDbEntity
8
1
100
AcDbCircle
6
CONTINUOUS
62
5
10
48.050000
20
-175.499986
40
0.500000
100
AcDbArc
50
0.000000
51
89.999999
0
POLYLINE
5
ad6
100
AcDbEntity
8
1
6
CONTINUOUS
62
5
100
AcDb2dPolyline
66
1
10
0.0
20
0.0
30
0.0
70
0
0
VERTEX
5
ad7
100
AcDbEntity
8
1
100
AcDbVertex
100
AcDb2dVertex
62
5
10
48.050000
20
-174.999986
0
VERTEX
5
ad8
100
AcDbEntity
8
1
100
AcDbVertex
100
AcDb2dVertex
62
5
10
46.450000
20
-174.999986
0
VERTEX
5
ad9
100
AcDbEntity
8
1
100
AcDbVertex
100
AcDb2dVertex
62
5
10
46.450000
20
-158.999986
0
VERTEX
5
ada
100
AcDbEntity
8
1
100
AcDbVertex
100
AcDb2dVertex
62
5
10
48.050000
20
-158.999986
0
SEQEND
5
adb
100
AcDbEntity
8
1
0
ARC
5
adc
100
AcDbEntity
8
1
100
AcDbCircle
6
CONTINUOUS
62
5
10
48.050000
20
-158.499986
40
0.500000
100
AcDbArc
50
-89.999999
51
0.000000
0
LINE
5
add
100
AcDbEntity
8
1
100
AcDbLine
6
CONTINUOUS
62
5
10
48.550000
20
-158.499986
11
48.550000
21
-155.999986
0
ARC
5
ade
100
AcDbEntity
8
1
100
AcDbCircle
6
CONTINUOUS
62
5
10
49.050000
20
-155.999986
40
0.500000
100
AcDbArc
50
89.999999
51
-179.999998
0
LINE
5
adf
100
AcDbEntity
8
1
100
AcDbLine
6
CONTINUOUS
62
5
10
49.050000
20
-155.499986
11
78.350000
21
-155.499986
0
LINE
5
ae0
100
AcDbEntity
8
1
100
AcDbLine
6
CONTINUOUS
62
5
10
95.050000
20
-155.499986
11
124.350000
21
-155.499986
0
ARC
5
ae1
100
AcDbEntity
8
1
100
AcDbCircle
6
CONTINUOUS
62
5
10
124.350000
20
-155.999986
40
0.500000
100
AcDbArc
50
-0.000000
51
89.999999
0
LINE
5
ae2
100
AcDbEntity
8
1
100
AcDbLine
6
CONTINUOUS
62
5
10
124.850000
20
-155.999986
11
124.850000
21
-158.699986
0
ARC
5
ae3
100
AcDbEntity
8
1
100
AcDbCircle
6
CONTINUOUS
62
5
10
125.150000
20
-158.699986
40
0.300000
100
AcDbArc
50
179.999998
51
-89.999999
0
POLYLINE
5
ae4
100
AcDbEntity
8
1
6
CONTINUOUS
62
5
100
AcDb2dPolyline
66
1
10
0.0
20
0.0
30
0.0
70
0
0
VERTEX
5
ae5
100
AcDbEntity
8
1
100
AcDbVertex
100
AcDb2dVertex
62
5
10
125.150000
20
-158.999986
0
VERTEX
5
ae6
100
AcDbEntity
8
1
100
AcDbVertex
100
AcDb2dVertex
62
5
10
125.250000
20
-158.999986
0
VERTEX
5
ae7
100
AcDbEntity
8
1
100
AcDbVertex
100
AcDb2dVertex
62
5
10
125.250000
20
-174.999986
0
VERTEX
5
ae8
100
AcDbEntity
8
1
100
AcDbVertex
100
AcDb2dVertex
62
5
10
125.150000
20
-174.999986
0
SEQEND
5
ae9
100
AcDbEntity
8
1
0
ARC
5
aea
100
AcDbEntity
8
1
100
AcDbCircle
6
CONTINUOUS
62
5
10
125.150000
20
-175.299986
40
0.300000
100
AcDbArc
50
89.999999
51
-179.999998
0
LINE
5
aeb
100
AcDbEntity
8
1
100
AcDbLine
6
CONTINUOUS
62
5
10
124.850000
20
-175.299986
11
124.850000
21
-181.699986
0
ARC
5
aec
100
AcDbEntity
8
1
100
AcDbCircle
6
CONTINUOUS
62
5
10
125.150000
20
-181.699986
40
0.300000
100
AcDbArc
50
-179.999998
51
-89.999999
0
POLYLINE
5
aed
100
AcDbEntity
8
1
6
CONTINUOUS
62
5
100
AcDb2dPolyline
66
1
10
0.0
20
0.0
30
0.0
70
0
0
VERTEX
5
aee
100
AcDbEntity
8
1
100
AcDbVertex
100
AcDb2dVertex
62
5
10
125.150000
20
-181.999986
0
VERTEX
5
aef
100
AcDbEntity
8
1
100
AcDbVertex
100
AcDb2dVertex
62
5
10
125.250000
20
-181.999986
0
VERTEX
5
af0
100
AcDbEntity
8
1
100
AcDbVertex
100
AcDb2dVertex
62
5
10
125.250000
20
-197.999986
0
VERTEX
5
af1
100
AcDbEntity
8
1
100
AcDbVertex
100
AcDb2dVertex
62
5
10
125.150000
20
-197.999986
0
SEQEND
5
af2
100
AcDbEntity
8
1
0
ARC
5
af3
100
AcDbEntity
8
1
100
AcDbCircle
6
CONTINUOUS
62
5
10
125.150000
20
-198.299986
40
0.300000
100
AcDbArc
50
89.999999
51
-179.999998
0
LINE
5
af4
100
AcDbEntity
8
1
100
AcDbLine
6
CONTINUOUS
62
5
10
124.850000
20
-198.299986
11
124.850000
21
-204.699986
0
ARC
5
af5
100
AcDbEntity
8
1
100
AcDbCircle
6
CONTINUOUS
62
5
10
125.150000
20
-204.699986
40
0.300000
100
AcDbArc
50
179.999998
51
-89.999999
0
POLYLINE
5
af6
100
AcDbEntity
8
1
6
CONTINUOUS
62
5
100
AcDb2dPolyline
66
1
10
0.0
20
0.0
30
0.0
70
0
0
VERTEX
5
af7
100
AcDbEntity
8
1
100
AcDbVertex
100
AcDb2dVertex
62
5
10
125.150000
20
-204.999986
0
VERTEX
5
af8
100
AcDbEntity
8
1
100
AcDbVertex
100
AcDb2dVertex
62
5
10
125.250000
20
-204.999986
0
VERTEX
5
af9
100
AcDbEntity
8
1
100
AcDbVertex
100
AcDb2dVertex
62
5
10
125.250000
20
-220.999986
0
VERTEX
5
afa
100
AcDbEntity
8
1
100
AcDbVertex
100
AcDb2dVertex
62
5
10
125.150000
20
-220.999986
0
SEQEND
5
afb
100
AcDbEntity
8
1
0
ARC
5
afc
100
AcDbEntity
8
1
100
AcDbCircle
6
CONTINUOUS
62
5
10
125.150000
20
-221.299986
40
0.300000
100
AcDbArc
50
89.999999
51
179.999998
0
LINE
5
afd
100
AcDbEntity
8
1
100
AcDbLine
6
CONTINUOUS
62
5
10
124.850000
20
-221.299986
11
124.850000
21
-223.999986
0
ARC
5
afe
100
AcDbEntity
8
1
100
AcDbCircle
6
CONTINUOUS
62
5
10
124.350000
20
-223.999986
40
0.500000
100
AcDbArc
50
-89.999999
51
0.000000
0
LINE
5
aff
100
AcDbEntity
8
1
100
AcDbLine
6
CONTINUOUS
62
5
10
124.350000
20
-224.499986
11
95.050000
21
-224.499986
0
LINE
5
b00
100
AcDbEntity
8
1
100
AcDbLine
6
CONTINUOUS
62
5
10
78.350000
20
-224.499986
11
49.050000
21
-224.499986
0
ARC
5
b01
100
AcDbEntity
8
1
100
AcDbCircle
6
CONTINUOUS
62
5
10
124.450000
20
-223.999986
40
0.500000
100
AcDbArc
50
-89.999999
51
0.000000
0
LINE
5
b02
100
AcDbEntity
8
1
100
AcDbLine
6
CONTINUOUS
62
5
10
124.950000
20
-223.999986
11
124.950000
21
-221.399986
0
ARC
5
b03
100
AcDbEntity
8
1
100
AcDbCircle
6
CONTINUOUS
62
5
10
125.250000
20
-221.399986
40
0.300000
100
AcDbArc
50
89.999999
51
-179.999998
0
POLYLINE
5
b04
100
AcDbEntity
8
1
6
CONTINUOUS
62
5
100
AcDb2dPolyline
66
1
10
0.0
20
0.0
30
0.0
70
0
0
VERTEX
5
b05
100
AcDbEntity
8
1
100
AcDbVertex
100
AcDb2dVertex
62
5
10
125.250000
20
-221.099986
0
VERTEX
5
b06
100
AcDbEntity
8
1
100
AcDbVertex
100
AcDb2dVertex
62
5
10
125.350000
20
-221.099986
0
VERTEX
5
b07
100
AcDbEntity
8
1
100
AcDbVertex
100
AcDb2dVertex
62
5
10
125.350000
20
-204.899986
0
VERTEX
5
b08
100
AcDbEntity
8
1
100
AcDbVertex
100
AcDb2dVertex
62
5
10
125.250000
20
-204.899986
0
SEQEND
5
b09
100
AcDbEntity
8
1
0
ARC
5
b0a
100
AcDbEntity
8
1
100
AcDbCircle
6
CONTINUOUS
62
5
10
125.250000
20
-204.599986
40
0.300000
100
AcDbArc
50
179.999998
51
-89.999999
0
LINE
5
b0b
100
AcDbEntity
8
1
100
AcDbLine
6
CONTINUOUS
62
5
10
124.950000
20
-204.599986
11
124.950000
21
-198.399986
0
ARC
5
b0c
100
AcDbEntity
8
1
100
AcDbCircle
6
CONTINUOUS
62
5
10
125.250000
20
-198.399986
40
0.300000
100
AcDbArc
50
89.999999
51
-179.999998
0
POLYLINE
5
b0d
100
AcDbEntity
8
1
6
CONTINUOUS
62
5
100
AcDb2dPolyline
66
1
10
0.0
20
0.0
30
0.0
70
0
0
VERTEX
5
b0e
100
AcDbEntity
8
1
100
AcDbVertex
100
AcDb2dVertex
62
5
10
125.250000
20
-198.099986
0
VERTEX
5
b0f
100
AcDbEntity
8
1
100
AcDbVertex
100
AcDb2dVertex
62
5
10
125.350000
20
-198.099986
0
VERTEX
5
b10
100
AcDbEntity
8
1
100
AcDbVertex
100
AcDb2dVertex
62
5
10
125.350000
20
-181.899986
0
VERTEX
5
b11
100
AcDbEntity
8
1
100
AcDbVertex
100
AcDb2dVertex
62
5
10
125.250000
20
-181.899986
0
SEQEND
5
b12
100
AcDbEntity
8
1
0
ARC
5
b13
100
AcDbEntity
8
1
100
AcDbCircle
6
CONTINUOUS
62
5
10
125.250000
20
-181.599986
40
0.300000
100
AcDbArc
50
-179.999998
51
-89.999999
0
LINE
5
b14
100
AcDbEntity
8
1
100
AcDbLine
6
CONTINUOUS
62
5
10
124.950000
20
-181.599986
11
124.950000
21
-175.399986
0
ARC
5
b15
100
AcDbEntity
8
1
100
AcDbCircle
6
CONTINUOUS
62
5
10
125.250000
20
-175.399986
40
0.300000
100
AcDbArc
50
89.999999
51
-179.999998
0
POLYLINE
5
b16
100
AcDbEntity
8
1
6
CONTINUOUS
62
5
100
AcDb2dPolyline
66
1
10
0.0
20
0.0
30
0.0
70
0
0
VERTEX
5
b17
100
AcDbEntity
8
1
100
AcDbVertex
100
AcDb2dVertex
62
5
10
125.250000
20
-175.099986
0
VERTEX
5
b18
100
AcDbEntity
8
1
100
AcDbVertex
100
AcDb2dVertex
62
5
10
125.350000
20
-175.099986
0
VERTEX
5
b19
100
AcDbEntity
8
1
100
AcDbVertex
100
AcDb2dVertex
62
5
10
125.350000
20
-158.899986
0
VERTEX
5
b1a
100
AcDbEntity
8
1
100
AcDbVertex
100
AcDb2dVertex
62
5
10
125.250000
20
-158.899986
0
SEQEND
5
b1b
100
AcDbEntity
8
1
0
ARC
5
b1c
100
AcDbEntity
8
1
100
AcDbCircle
6
CONTINUOUS
62
5
10
125.250000
20
-158.599986
40
0.300000
100
AcDbArc
50
-179.999998
51
-89.999999
0
LINE
5
b1d
100
AcDbEntity
8
1
100
AcDbLine
6
CONTINUOUS
62
5
10
124.950000
20
-158.599986
11
124.950000
21
-155.999986
0
ARC
5
b1e
100
AcDbEntity
8
1
100
AcDbCircle
6
CONTINUOUS
62
5
10
124.450000
20
-155.999986
40
0.500000
100
AcDbArc
50
0.000000
51
89.999999
0
LINE
5
b1f
100
AcDbEntity
8
1
100
AcDbLine
6
CONTINUOUS
62
5
10
124.450000
20
-155.499986
11
124.350000
21
-155.499986
0
LINE
5
b20
100
AcDbEntity
8
1
100
AcDbLine
6
CONTINUOUS
62
5
10
49.050000
20
-155.499986
11
48.950000
21
-155.499986
0
ARC
5
b21
100
AcDbEntity
8
1
100
AcDbCircle
6
CONTINUOUS
62
5
10
48.950000
20
-155.999986
40
0.500000
100
AcDbArc
50
89.999999
51
179.999998
0
LINE
5
b22
100
AcDbEntity
8
1
100
AcDbLine
6
CONTINUOUS
62
5
10
48.450000
20
-155.999986
11
48.450000
21
-158.399986
0
ARC
5
b23
100
AcDbEntity
8
1
100
AcDbCircle
6
CONTINUOUS
62
5
10
47.950000
20
-158.399986
40
0.500000
100
AcDbArc
50
-89.999999
51
-0.000000
0
POLYLINE
5
b24
100
AcDbEntity
8
1
6
CONTINUOUS
62
5
100
AcDb2dPolyline
66
1
10
0.0
20
0.0
30
0.0
70
0
0
VERTEX
5
b25
100
AcDbEntity
8
1
100
AcDbVertex
100
AcDb2dVertex
62
5
10
47.950000
20
-158.899986
0
VERTEX
5
b26
100
AcDbEntity
8
1
100
AcDbVertex
100
AcDb2dVertex
62
5
10
46.350000
20
-158.899986
0
VERTEX
5
b27
100
AcDbEntity
8
1
100
AcDbVertex
100
AcDb2dVertex
62
5
10
46.350000
20
-175.099986
0
VERTEX
5
b28
100
AcDbEntity
8
1
100
AcDbVertex
100
AcDb2dVertex
62
5
10
47.950000
20
-175.099986
0
SEQEND
5
b29
100
AcDbEntity
8
1
0
ARC
5
b2a
100
AcDbEntity
8
1
100
AcDbCircle
6
CONTINUOUS
62
5
10
47.950000
20
-175.599986
40
0.500000
100
AcDbArc
50
0.000000
51
89.999999
0
LINE
5
b2b
100
AcDbEntity
8
1
100
AcDbLine
6
CONTINUOUS
62
5
10
48.450000
20
-175.599986
11
48.450000
21
-181.399986
0
ARC
5
b2c
100
AcDbEntity
8
1
100
AcDbCircle
6
CONTINUOUS
62
5
10
47.950000
20
-181.399986
40
0.500000
100
AcDbArc
50
-89.999999
51
-0.000000
0
POLYLINE
5
b2d
100
AcDbEntity
8
1
6
CONTINUOUS
62
5
100
AcDb2dPolyline
66
1
10
0.0
20
0.0
30
0.0
70
0
0
VERTEX
5
b2e
100
AcDbEntity
8
1
100
AcDbVertex
100
AcDb2dVertex
62
5
10
47.950000
20
-181.899986
0
VERTEX
5
b2f
100
AcDbEntity
8
1
100
AcDbVertex
100
AcDb2dVertex
62
5
10
46.350000
20
-181.899986
0
VERTEX
5
b30
100
AcDbEntity
8
1
100
AcDbVertex
100
AcDb2dVertex
62
5
10
46.350000
20
-198.099986
0
VERTEX
5
b31
100
AcDbEntity
8
1
100
AcDbVertex
100
AcDb2dVertex
62
5
10
47.950000
20
-198.099986
0
SEQEND
5
b32
100
AcDbEntity
8
1
0
ARC
5
b33
100
AcDbEntity
8
1
100
AcDbCircle
6
CONTINUOUS
62
5
10
47.950000
20
-198.599986
40
0.500000
100
AcDbArc
50
0.000000
51
89.999999
0
LINE
5
b34
100
AcDbEntity
8
1
100
AcDbLine
6
CONTINUOUS
62
5
10
48.450000
20
-198.599986
11
48.450000
21
-204.399986
0
ARC
5
b35
100
AcDbEntity
8
1
100
AcDbCircle
6
CONTINUOUS
62
5
10
47.950000
20
-204.399986
40
0.500000
100
AcDbArc
50
-89.999999
51
-0.000000
0
POLYLINE
5
b36
100
AcDbEntity
8
1
6
CONTINUOUS
62
5
100
AcDb2dPolyline
66
1
10
0.0
20
0.0
30
0.0
70
0
0
VERTEX
5
b37
100
AcDbEntity
8
1
100
AcDbVertex
100
AcDb2dVertex
62
5
10
47.950000
20
-204.899986
0
VERTEX
5
b38
100
AcDbEntity
8
1
100
AcDbVertex
100
AcDb2dVertex
62
5
10
46.350000
20
-204.899986
0
VERTEX
5
b39
100
AcDbEntity
8
1
100
AcDbVertex
100
AcDb2dVertex
62
5
10
46.350000
20
-221.099986
0
VERTEX
5
b3a
100
AcDbEntity
8
1
100
AcDbVertex
100
AcDb2dVertex
62
5
10
47.950000
20
-221.099986
0
SEQEND
5
b3b
100
AcDbEntity
8
1
0
ARC
5
b3c
100
AcDbEntity
8
1
100
AcDbCircle
6
CONTINUOUS
62
5
10
47.950000
20
-221.599986
40
0.500000
100
AcDbArc
50
0.000000
51
89.999999
0
LINE
5
b3d
100
AcDbEntity
8
1
100
AcDbLine
6
CONTINUOUS
62
5
10
48.450000
20
-221.599986
11
48.450000
21
-223.999986
0
ARC
5
b3e
100
AcDbEntity
8
1
100
AcDbCircle
6
CONTINUOUS
62
5
10
48.950000
20
-223.999986
40
0.500000
100
AcDbArc
50
-179.999998
51
-89.999999
0
LINE
5
b3f
100
AcDbEntity
8
1
100
AcDbLine
6
CONTINUOUS
62
5
10
48.950000
20
-224.499986
11
49.050000
21
-224.499986
0
POLYLINE
5
b40
100
AcDbEntity
8
1
6
CONTINUOUS
62
5
100
AcDb2dPolyline
66
1
10
0.0
20
0.0
30
0.0
70
0
0
VERTEX
5
b41
100
AcDbEntity
8
1
100
AcDbVertex
100
AcDb2dVertex
62
5
10
124.350000
20
-224.499986
0
VERTEX
5
b42
100
AcDbEntity
8
1
100
AcDbVertex
100
AcDb2dVertex
62
5
10
124.350000
20
-224.499986
0
VERTEX
5
b43
100
AcDbEntity
8
1
100
AcDbVertex
100
AcDb2dVertex
62
5
10
124.450000
20
-224.499986
0
SEQEND
5
b44
100
AcDbEntity
8
1
0
ARC
5
b45
100
AcDbEntity
8
1
100
AcDbCircle
6
CONTINUOUS
62
5
10
31.650000
20
-236.499986
40
1.000000
100
AcDbArc
50
-179.999998
51
-89.999999
0
LINE
5
b46
100
AcDbEntity
8
1
100
AcDbLine
6
CONTINUOUS
62
5
10
30.650000
20
-236.499986
11
30.650000
21
-143.499986
0
ARC
5
b47
100
AcDbEntity
8
1
100
AcDbCircle
6
CONTINUOUS
62
5
10
31.650000
20
-143.499986
40
1.000000
100
AcDbArc
50
89.999999
51
179.999998
0
LINE
5
b48
100
AcDbEntity
8
1
100
AcDbLine
6
CONTINUOUS
62
5
10
31.650000
20
-142.499986
11
32.850000
21
-142.499986
0
LINE
5
b49
100
AcDbEntity
8
1
100
AcDbLine
6
CONTINUOUS
62
5
10
32.850000
20
-237.499986
11
31.650000
21
-237.499986
0
ARC
5
b4a
100
AcDbEntity
8
1
100
AcDbCircle
6
CONTINUOUS
62
5
10
125.260445
20
-234.199986
40
1.000000
100
AcDbArc
50
89.999999
51
134.630863
0
LINE
5
b4b
100
AcDbEntity
8
1
100
AcDbLine
6
CONTINUOUS
62
5
10
125.260445
20
-233.199986
11
132.550000
21
-233.199986
0
ARC
5
b4c
100
AcDbEntity
8
1
100
AcDbCircle
6
CONTINUOUS
62
5
10
132.550000
20
-228.199986
40
5.000000
100
AcDbArc
50
-89.999999
51
0.000000
0
LINE
5
b4d
100
AcDbEntity
8
1
100
AcDbLine
6
CONTINUOUS
62
5
10
137.550000
20
-228.199986
11
137.550000
21
-151.799986
0
ARC
5
b4e
100
AcDbEntity
8
1
100
AcDbCircle
6
CONTINUOUS
62
5
10
132.550000
20
-151.799986
40
5.000000
100
AcDbArc
50
0.000000
51
89.999999
0
LINE
5
b4f
100
AcDbEntity
8
1
100
AcDbLine
6
CONTINUOUS
62
5
10
132.550000
20
-146.799986
11
125.260445
21
-146.799986
0
ARC
5
b50
100
AcDbEntity
8
1
100
AcDbCircle
6
CONTINUOUS
62
5
10
125.260445
20
-145.799986
40
1.000000
100
AcDbArc
50
-134.630863
51
-89.999999
0
LINE
5
b51
100
AcDbEntity
8
1
100
AcDbLine
6
CONTINUOUS
62
5
10
124.557908
20
-146.511634
11
122.052537
21
-144.038339
0
ARC
5
b52
100
AcDbEntity
8
1
100
AcDbCircle
6
CONTINUOUS
62
5
10
121.350000
20
-144.749986
40
1.000000
100
AcDbArc
50
45.369135
51
89.999999
0
LINE
5
b53
100
AcDbEntity
8
1
100
AcDbLine
6
CONTINUOUS
62
5
10
121.350000
20
-143.749986
11
99.850000
21
-143.749986
0
LINE
5
b54
100
AcDbEntity
8
1
100
AcDbLine
6
CONTINUOUS
62
5
10
123.116571
20
-234.911222
11
124.557908
21
-233.488339
0
ARC
5
b55
100
AcDbEntity
8
1
100
AcDbCircle
6
CONTINUOUS
62
5
10
38.350000
20
-139.999986
40
6.000000
100
AcDbArc
50
89.999999
51
179.999998
0
LINE
5
b56
100
AcDbEntity
8
1
100
AcDbLine
6
CONTINUOUS
62
5
10
38.350000
20
-133.999986
11
133.350000
21
-133.999986
0
ARC
5
b57
100
AcDbEntity
8
1
100
AcDbCircle
6
CONTINUOUS
62
5
10
133.350000
20
-139.999986
40
6.000000
100
AcDbArc
50
0.000000
51
89.999999
0
LINE
5
b58
100
AcDbEntity
8
1
100
AcDbLine
6
CONTINUOUS
62
5
10
139.350000
20
-139.999986
11
139.350000
21
-142.499986
0
LINE
5
b59
100
AcDbEntity
8
1
100
AcDbLine
6
CONTINUOUS
62
5
10
139.350000
20
-237.499986
11
139.350000
21
-239.999986
0
ARC
5
b5a
100
AcDbEntity
8
1
100
AcDbCircle
6
CONTINUOUS
62
5
10
133.350000
20
-239.999986
40
6.000000
100
AcDbArc
50
-89.999999
51
0.000000
0
LINE
5
b5b
100
AcDbEntity
8
1
100
AcDbLine
6
CONTINUOUS
62
5
10
133.350000
20
-245.999986
11
38.350000
21
-245.999986
0
ARC
5
b5c
100
AcDbEntity
8
1
100
AcDbCircle
6
CONTINUOUS
62
5
10
38.350000
20
-239.999986
40
6.000000
100
AcDbArc
50
179.999998
51
-89.999999
0
LINE
5
b5d
100
AcDbEntity
8
1
100
AcDbLine
6
CONTINUOUS
62
5
10
32.350000
20
-239.999986
11
32.350000
21
-237.499986
0
LINE
5
b5e
100
AcDbEntity
8
1
100
AcDbLine
6
CONTINUOUS
62
5
10
32.350000
20
-142.499986
11
32.350000
21
-139.999986
0
ARC
5
b5f
100
AcDbEntity
8
1
100
AcDbCircle
6
CONTINUOUS
62
5
10
133.350000
20
-239.999986
40
5.500000
100
AcDbArc
50
-89.999999
51
0.000000
0
POLYLINE
5
b60
100
AcDbEntity
8
1
6
CONTINUOUS
62
5
100
AcDb2dPolyline
66
1
10
0.0
20
0.0
30
0.0
70
0
0
VERTEX
5
b61
100
AcDbEntity
8
1
100
AcDbVertex
100
AcDb2dVertex
62
5
10
138.850000
20
-239.999986
0
VERTEX
5
b62
100
AcDbEntity
8
1
100
AcDbVertex
100
AcDb2dVertex
62
5
10
138.850000
20
-239.999986
0
VERTEX
5
b63
100
AcDbEntity
8
1
100
AcDbVertex
100
AcDb2dVertex
62
5
10
138.850000
20
-139.999986
0
SEQEND
5
b64
100
AcDbEntity
8
1
0
ARC
5
b65
100
AcDbEntity
8
1
100
AcDbCircle
6
CONTINUOUS
62
5
10
133.350000
20
-139.999986
40
5.500000
100
AcDbArc
50
0.000000
51
89.999999
0
POLYLINE
5
b66
100
AcDbEntity
8
1
6
CONTINUOUS
62
5
100
AcDb2dPolyline
66
1
10
0.0
20
0.0
30
0.0
70
0
0
VERTEX
5
b67
100
AcDbEntity
8
1
100
AcDbVertex
100
AcDb2dVertex
62
5
10
133.350000
20
-134.499986
0
VERTEX
5
b68
100
AcDbEntity
8
1
100
AcDbVertex
100
AcDb2dVertex
62
5
10
133.350000
20
-134.499986
0
VERTEX
5
b69
100
AcDbEntity
8
1
100
AcDbVertex
100
AcDb2dVertex
62
5
10
38.450000
20
-134.499986
0
VERTEX
5
b6a
100
AcDbEntity
8
1
100
AcDbVertex
100
AcDb2dVertex
62
5
10
38.350000
20
-134.499986
0
SEQEND
5
b6b
100
AcDbEntity
8
1
0
ARC
5
b6c
100
AcDbEntity
8
1
100
AcDbCircle
6
CONTINUOUS
62
5
10
38.350000
20
-139.999986
40
5.500000
100
AcDbArc
50
89.999999
51
179.999998
0
POLYLINE
5
b6d
100
AcDbEntity
8
1
6
CONTINUOUS
62
5
100
AcDb2dPolyline
66
1
10
0.0
20
0.0
30
0.0
70
0
0
VERTEX
5
b6e
100
AcDbEntity
8
1
100
AcDbVertex
100
AcDb2dVertex
62
5
10
32.850000
20
-139.999986
0
VERTEX
5
b6f
100
AcDbEntity
8
1
100
AcDbVertex
100
AcDb2dVertex
62
5
10
32.850000
20
-139.999986
0
VERTEX
5
b70
100
AcDbEntity
8
1
100
AcDbVertex
100
AcDb2dVertex
62
5
10
32.850000
20
-239.999986
0
SEQEND
5
b71
100
AcDbEntity
8
1
0
ARC
5
b72
100
AcDbEntity
8
1
100
AcDbCircle
6
CONTINUOUS
62
5
10
38.350000
20
-239.999986
40
5.500000
100
AcDbArc
50
179.999998
51
-89.999999
0
POLYLINE
5
b73
100
AcDbEntity
8
1
6
CONTINUOUS
62
5
100
AcDb2dPolyline
66
1
10
0.0
20
0.0
30
0.0
70
0
0
VERTEX
5
b74
100
AcDbEntity
8
1
100
AcDbVertex
100
AcDb2dVertex
62
5
10
38.350000
20
-245.499986
0
VERTEX
5
b75
100
AcDbEntity
8
1
100
AcDbVertex
100
AcDb2dVertex
62
5
10
38.350000
20
-245.499986
0
VERTEX
5
b76
100
AcDbEntity
8
1
100
AcDbVertex
100
AcDb2dVertex
62
5
10
133.350000
20
-245.499986
0
SEQEND
5
b77
100
AcDbEntity
8
1
0
POLYLINE
5
b78
100
AcDbEntity
8
1
6
CONTINUOUS
62
5
100
AcDb2dPolyline
66
1
10
0.0
20
0.0
30
0.0
70
1
0
VERTEX
5
b79
100
AcDbEntity
8
1
100
AcDbVertex
100
AcDb2dVertex
62
5
10
-40.000000
20
-340.000000
0
VERTEX
5
b7a
100
AcDbEntity
8
1
100
AcDbVertex
100
AcDb2dVertex
62
5
10
-40.000000
20
0.000000
0
VERTEX
5
b7b
100
AcDbEntity
8
1
100
AcDbVertex
100
AcDb2dVertex
62
5
10
280.000000
20
0.000000
0
VERTEX
5
b7c
100
AcDbEntity
8
1
100
AcDbVertex
100
AcDb2dVertex
62
5
10
280.000000
20
-340.000000
0
VERTEX
5
b7d
100
AcDbEntity
8
1
100
AcDbVertex
100
AcDb2dVertex
62
5
10
-40.000000
20
-340.000000
0
SEQEND
5
b7e
100
AcDbEntity
8
1
0
ENDSEC
0
SECTION
2
OBJECTS
0
DICTIONARY
5
b7f
100
AcDbDictionary
3
ACAD_GROUP
350
b80
3
ACAD_MLINESTYLE
350
b81
0
DICTIONARY
5
b80
102
{ACAD_REACTORS
330
b7f
102
}
100
AcDbDictionary
0
DICTIONARY
5
b81
102
{ACAD_REACTORS
330
b7f
102
}
100
AcDbDictionary
3
STANDARD
350
b82
0
MLINESTYLE
5
b82
102
{ACAD_REACTORS
330
b81
102
}
100
AcDbMlineStyle
2
STANDARD
70
0
3

62
0
51
90.0
52
90.0
71
2
49
0.5
62
256
6
BYLAYER
49
-0.5
62
256
6
BYLAYER
0
ENDSEC
0
EOF
