0
SECTION
2
HEADER
9
$ACADVER
1
AC1012
9
$EXTMIN
10
-4.420000
20
-6.630000
30
0.0
9
$EXTMAX
10
8.180000
20
6.770000
30
0.0
9
$LIMMIN
10
-112.268000
20
-168.402000
9
$LIMMAX
10
207.772000
20
171.958000
9
$DIMSCALE
40
1.000000
9
$PDMODE
70
2
9
$PDSIZE
40
0.0
  9
$HANDSEED
  5
681
0
ENDSEC
0
SECTION
2
CLASSES
0
ENDSEC
0
SECTION
2
TABLES
0
TABLE
2
LTYPE
5
1e
100
AcDbSymbolTable
70
12
0
LTYPE
5
1f
100
AcDbSymbolTableRecord
100
AcDbLinetypeTableRecord
2
BYBLOCK
70
0
3

72
65
73
0
40
0.0
0
LTYPE
5
20
100
AcDbSymbolTableRecord
100
AcDbLinetypeTableRecord
2
BYLAYER
70
0
3

72
65
73
0
40
0.0
0
LTYPE
5
21
100
AcDbSymbolTableRecord
100
AcDbLinetypeTableRecord
2
CONTINUOUS
70
64
3
Solid line
72
65
73
0
40
0.0
0
LTYPE
5
22
100
AcDbSymbolTableRecord
100
AcDbLinetypeTableRecord
2
DASHED
70
64
3
__ __ __ __ __ __ __ __ __ __ __ __ __ __ __
72
65
73
2
40
0.75
49
0.5
74
0
49
-0.25
74
0
0
LTYPE
5
23
100
AcDbSymbolTableRecord
100
AcDbLinetypeTableRecord
2
DOT
70
64
3
...............................................
72
65
73
2
40
0.25
49
0.0
74
0
49
-0.25
74
0
0
LTYPE
5
24
100
AcDbSymbolTableRecord
100
AcDbLinetypeTableRecord
2
DASHDOT
70
64
3
__ . __ . __ . __ . __ . __ . __ . __ . __ . --
72
65
73
4
40
1.0
49
0.5
74
0
49
-0.25
74
0
49
0.0
74
0
49
-0.25
74
0
0
LTYPE
5
25
100
AcDbSymbolTableRecord
100
AcDbLinetypeTableRecord
2
CENTER
70
64
3
____ _ ____ _ ____ _ ____ _ ____ _ ____ _ ____
72
65
73
4
40
2.0
49
1.25
74
0
49
-0.25
74
0
49
0.25
74
0
49
-0.25
74
0
0
LTYPE
5
26
100
AcDbSymbolTableRecord
100
AcDbLinetypeTableRecord
2
PHANTOM
70
64
3
_____ _ _ _____ _ _ _____ _ _ _____ _ _ ____
72
65
73
6
40
2.5
49
1.25
74
0
49
-0.25
74
0
49
0.25
74
0
49
-0.25
74
0
49
0.25
74
0
49
-0.25
74
0
0
LTYPE
5
27
100
AcDbSymbolTableRecord
100
AcDbLinetypeTableRecord
2
HIDDEN
70
64
3
_ _ _ _ _ _ _ _ _ _ _ _ _ _ _ _ _ _ _ _ _ _ _
72
65
73
2
40
0.375
49
0.25
74
0
49
-0.125
74
0
0
LTYPE
5
28
100
AcDbSymbolTableRecord
100
AcDbLinetypeTableRecord
2
BORDER
70
64
3
__ __ . __ __ . __ __ . __ __ . __ __ . __ __
72
65
73
6
40
1.75
49
0.5
74
0
49
-0.25
74
0
49
0.5
74
0
49
-0.25
74
0
49
0.0
74
0
49
-0.25
74
0
0
LTYPE
5
29
100
AcDbSymbolTableRecord
100
AcDbLinetypeTableRecord
2
DIVIDE
70
64
3
__ . . __ . . __ . . __ . . __ . . __ . . __
72
65
73
6
40
1.25
49
0.5
74
0
49
-0.25
74
0
49
0.0
74
0
49
-0.25
74
0
49
0.0
74
0
49
-0.25
74
0
0
LTYPE
5
2a
100
AcDbSymbolTableRecord
100
AcDbLinetypeTableRecord
2
DOT2
70
64
3
...............................................
72
65
73
2
40
0.125
49
0.0
74
0
49
-0.125
74
0
0
ENDTAB
0
TABLE
2
STYLE
5
2b
100
AcDbSymbolTable
70
1
0
STYLE
5
2c
100
AcDbSymbolTableRecord
100
AcDbTextStyleTableRecord
2
STANDARD
70
64
40
0.0
41
1.0
50
0.0
71
0
42
5.0
3
txt
4
bigfont
0
ENDTAB
0
TABLE
2
LAYER
5
2d
100
AcDbSymbolTable
70
2
0
LAYER
5
2e
100
AcDbSymbolTableRecord
100
AcDbLayerTableRecord
2
0
70
0
62
7
6
CONTINUOUS
0
LAYER
5
2f
100
AcDbSymbolTableRecord
100
AcDbLayerTableRecord
2
1
70
0
62
7
6
CONTINUOUS
0
ENDTAB
0
TABLE
2
APPID
5
30
100
AcDbSymbolTable
70
1
0
APPID
5
31
100
AcDbSymbolTableRecord
100
AcDbRegAppTableRecord
2
ACAD
70
64
0
ENDTAB
0
TABLE
2
DIMSTYLE
5
32
100
AcDbSymbolTable
70
0
0
ENDTAB
0
TABLE
2
UCS
5
33
100
AcDbSymbolTable
70
0
0
ENDTAB
0
TABLE
2
VIEW
5
34
100
AcDbSymbolTable
70
0
0
ENDTAB
0
TABLE
2
VPORT
5
35
100
AcDbSymbolTable
70
0
0
ENDTAB
0
TABLE
2
BLOCK_RECORD
5
36
100
AcDbSymbolTable
70
0
0
BLOCK_RECORD
5
37
100
AcDbSymbolTableRecord
100
AcDbBlockTableRecord
2
*MODEL_SPACE
0
BLOCK_RECORD
5
38
100
AcDbSymbolTableRecord
100
AcDbBlockTableRecord
2
*PAPER_SPACE
0
BLOCK_RECORD
5
39
100
AcDbSymbolTableRecord
100
AcDbBlockTableRecord
2
OPEN
0
BLOCK_RECORD
5
3a
100
AcDbSymbolTableRecord
100
AcDbBlockTableRecord
2
HALF
0
BLOCK_RECORD
5
3b
100
AcDbSymbolTableRecord
100
AcDbBlockTableRecord
2
CLOSEDBLANK
0
BLOCK_RECORD
5
3c
100
AcDbSymbolTableRecord
100
AcDbBlockTableRecord
2
HALFCLOSE_R
0
BLOCK_RECORD
5
3d
100
AcDbSymbolTableRecord
100
AcDbBlockTableRecord
2
DOT
0
BLOCK_RECORD
5
3e
100
AcDbSymbolTableRecord
100
AcDbBlockTableRecord
2
HALFOPEN_R
0
BLOCK_RECORD
5
3f
100
AcDbSymbolTableRecord
100
AcDbBlockTableRecord
2
CLOSEDF
0
BLOCK_RECORD
5
40
100
AcDbSymbolTableRecord
100
AcDbBlockTableRecord
2
HALF_R
0
ENDTAB
0
ENDSEC
0
SECTION
2
BLOCKS
0
BLOCK
5
41
100
AcDbEntity
8
0
100
AcDbBlockBegin
2
*MODEL_SPACE
70
0
10
0.0
20
0.0
30
0.0
3
*MODEL_SPACE
1

0
ENDBLK
5
42
100
AcDbEntity
8
0
100
AcDbBlockEnd
0
BLOCK
5
43
100
AcDbEntity
67
1
8
0
100
AcDbBlockBegin
2
*PAPER_SPACE
70
0
10
0.0
20
0.0
30
0.0
3
*PAPER_SPACE
1

0
ENDBLK
5
44
100
AcDbEntity
67
1
8
0
100
AcDbBlockEnd
0
BLOCK
5
45
100
AcDbEntity
8
0
100
AcDbBlockBegin
2
OPEN
70
0
10
0.0
20
0.0
30
0.0
3
OPEN
1

0
LINE
5
46
100
AcDbEntity
8
0
6
BYBLOCK
62
0
100
AcDbLine
10
0.000000
20
0.000000
11
-1.000000
21
0.000000
0
LINE
5
47
100
AcDbEntity
8
0
6
BYBLOCK
62
0
100
AcDbLine
10
-1.000000
20
-0.166667
11
0.000000
21
0.000000
0
LINE
5
48
100
AcDbEntity
8
0
6
BYBLOCK
62
0
100
AcDbLine
10
-1.000000
20
0.166667
11
0.000000
21
0.000000
0
ENDBLK
5
49
100
AcDbEntity
8
0
100
AcDbBlockEnd
0
BLOCK
5
4a
100
AcDbEntity
8
0
100
AcDbBlockBegin
2
HALF
70
0
10
0.0
20
0.0
30
0.0
3
HALF
1

0
SOLID
5
4b
100
AcDbEntity
8
0
6
BYBLOCK
62
0
100
AcDbTrace
10
-1.000000
20
0.166667
11
-1.000000
21
-0.166667
12
0.000000
22
0.000000
13
0.000000
23
0.000000
0
ENDBLK
5
4c
100
AcDbEntity
8
0
100
AcDbBlockEnd
0
BLOCK
5
4d
100
AcDbEntity
8
0
100
AcDbBlockBegin
2
CLOSEDBLANK
70
0
10
0.0
20
0.0
30
0.0
3
CLOSEDBLANK
1

0
LINE
5
4e
100
AcDbEntity
8
0
6
BYBLOCK
62
0
100
AcDbLine
10
-1.000000
20
0.166667
11
-1.000000
21
-0.166667
0
LINE
5
4f
100
AcDbEntity
8
0
6
BYBLOCK
62
0
100
AcDbLine
10
0.000000
20
0.000000
11
-1.000000
21
-0.166667
0
LINE
5
50
100
AcDbEntity
8
0
6
BYBLOCK
62
0
100
AcDbLine
10
-1.000000
20
0.166667
11
0.000000
21
0.000000
0
ENDBLK
5
51
100
AcDbEntity
8
0
100
AcDbBlockEnd
0
BLOCK
5
52
100
AcDbEntity
8
0
100
AcDbBlockBegin
2
HALFCLOSE_R
70
0
10
0.0
20
0.0
30
0.0
3
HALFCLOSE_R
1

0
LINE
5
53
100
AcDbEntity
8
0
6
BYBLOCK
62
0
100
AcDbLine
10
-1.000000
20
-0.166667
11
-1.000000
21
0.000000
0
LINE
5
54
100
AcDbEntity
8
0
6
BYBLOCK
62
0
100
AcDbLine
10
-1.000000
20
-0.166667
11
0.000000
21
0.000000
0
LINE
5
55
100
AcDbEntity
8
0
6
BYBLOCK
62
0
100
AcDbLine
10
0.000000
20
0.000000
11
-1.000000
21
0.000000
0
ENDBLK
5
56
100
AcDbEntity
8
0
100
AcDbBlockEnd
0
BLOCK
5
57
100
AcDbEntity
8
0
100
AcDbBlockBegin
2
DOT
70
0
10
0.0
20
0.0
30
0.0
3
DOT
1

0
LINE
5
58
100
AcDbEntity
8
0
6
BYBLOCK
62
0
100
AcDbLine
10
0.000000
20
0.000000
11
-1.000000
21
0.000000
0
POLYLINE
5
59
100
AcDbEntity
8
0
6
BYBLOCK
62
0
100
AcDb2dPolyline
66
1
10
0.0
20
0.0
30
0.0
70
1
40
0.166667
41
0.166667
0
VERTEX
5
5a
100
AcDbEntity
8
0
100
AcDbVertex
100
AcDb2dVertex
62
10
10
-0.083333
20
0.000000
42
1.000000
0
VERTEX
5
5b
100
AcDbEntity
8
0
100
AcDbVertex
100
AcDb2dVertex
62
10
10
0.083333
20
0.000000
42
1.000000
0
SEQEND
5
5c
100
AcDbEntity
8
0
0
ENDBLK
5
5d
100
AcDbEntity
8
0
100
AcDbBlockEnd
0
BLOCK
5
5e
100
AcDbEntity
8
0
100
AcDbBlockBegin
2
HALFOPEN_R
70
0
10
0.0
20
0.0
30
0.0
3
HALFOPEN_R
1

0
LINE
5
5f
100
AcDbEntity
8
0
6
BYBLOCK
62
0
100
AcDbLine
10
-1.000000
20
-0.166667
11
0.000000
21
0.000000
0
LINE
5
60
100
AcDbEntity
8
0
6
BYBLOCK
62
0
100
AcDbLine
10
0.000000
20
0.000000
11
-1.000000
21
0.000000
0
ENDBLK
5
61
100
AcDbEntity
8
0
100
AcDbBlockEnd
0
BLOCK
5
62
100
AcDbEntity
8
0
100
AcDbBlockBegin
2
CLOSEDF
70
0
10
0.0
20
0.0
30
0.0
3
CLOSEDF
1

0
SOLID
5
63
100
AcDbEntity
8
0
6
BYBLOCK
62
0
100
AcDbTrace
10
-1.000000
20
0.166667
11
-1.000000
21
-0.166667
12
0.000000
22
0.000000
13
0.000000
23
0.000000
0
ENDBLK
5
64
100
AcDbEntity
8
0
100
AcDbBlockEnd
0
BLOCK
5
65
100
AcDbEntity
8
0
100
AcDbBlockBegin
2
HALF_R
70
0
10
0.0
20
0.0
30
0.0
3
HALF_R
1

0
SOLID
5
66
100
AcDbEntity
8
0
6
BYBLOCK
62
0
100
AcDbTrace
10
-1.000000
20
-0.166667
11
-1.000000
21
0.000000
12
0.000000
22
0.000000
13
0.000000
23
0.000000
0
ENDBLK
5
67
100
AcDbEntity
8
0
100
AcDbBlockEnd
0
ENDSEC
0
SECTION
2
ENTITIES
0
LINE
5
68
100
AcDbEntity
8
1
100
AcDbLine
6
CONTINUOUS
62
5
10
114.488514
20
158.036442
11
115.488514
21
156.786442
0
POLYLINE
5
69
100
AcDbEntity
8
1
6
CONTINUOUS
62
5
100
AcDb2dPolyline
66
1
10
0.0
20
0.0
30
0.0
70
0
0
VERTEX
5
6a
100
AcDbEntity
8
1
100
AcDbVertex
100
AcDb2dVertex
62
5
10
114.238514
20
153.036442
0
VERTEX
5
6b
100
AcDbEntity
8
1
100
AcDbVertex
100
AcDb2dVertex
62
5
10
115.988514
20
153.973942
0
VERTEX
5
6c
100
AcDbEntity
8
1
100
AcDbVertex
100
AcDb2dVertex
62
5
10
117.488514
20
155.223942
0
VERTEX
5
6d
100
AcDbEntity
8
1
100
AcDbVertex
100
AcDb2dVertex
62
5
10
118.988514
20
156.786442
0
SEQEND
5
6e
100
AcDbEntity
8
1
0
POLYLINE
5
6f
100
AcDbEntity
8
1
6
CONTINUOUS
62
5
100
AcDb2dPolyline
66
1
10
0.0
20
0.0
30
0.0
70
0
0
VERTEX
5
70
100
AcDbEntity
8
1
100
AcDbVertex
100
AcDb2dVertex
62
5
10
123.988514
20
156.786442
0
VERTEX
5
71
100
AcDbEntity
8
1
100
AcDbVertex
100
AcDb2dVertex
62
5
10
124.238514
20
156.786442
0
VERTEX
5
72
100
AcDbEntity
8
1
100
AcDbVertex
100
AcDb2dVertex
62
5
10
125.988514
20
155.536442
0
SEQEND
5
73
100
AcDbEntity
8
1
0
LINE
5
74
100
AcDbEntity
8
1
100
AcDbLine
6
CONTINUOUS
62
5
10
123.988514
20
159.598942
11
123.988514
21
152.098942
0
POLYLINE
5
75
100
AcDbEntity
8
1
6
CONTINUOUS
62
5
100
AcDb2dPolyline
66
1
10
0.0
20
0.0
30
0.0
70
0
0
VERTEX
5
76
100
AcDbEntity
8
1
100
AcDbVertex
100
AcDb2dVertex
62
5
10
90.488514
20
157.723942
0
VERTEX
5
77
100
AcDbEntity
8
1
100
AcDbVertex
100
AcDb2dVertex
62
5
10
94.488514
20
157.723942
0
VERTEX
5
78
100
AcDbEntity
8
1
100
AcDbVertex
100
AcDb2dVertex
62
5
10
94.488514
20
153.348942
0
VERTEX
5
79
100
AcDbEntity
8
1
100
AcDbVertex
100
AcDb2dVertex
62
5
10
90.488514
20
153.348942
0
SEQEND
5
7a
100
AcDbEntity
8
1
0
LINE
5
7b
100
AcDbEntity
8
1
100
AcDbLine
6
CONTINUOUS
62
5
10
98.488514
20
158.036442
11
99.488514
21
156.786442
0
POLYLINE
5
7c
100
AcDbEntity
8
1
6
CONTINUOUS
62
5
100
AcDb2dPolyline
66
1
10
0.0
20
0.0
30
0.0
70
0
0
VERTEX
5
7d
100
AcDbEntity
8
1
100
AcDbVertex
100
AcDb2dVertex
62
5
10
98.238514
20
153.036442
0
VERTEX
5
7e
100
AcDbEntity
8
1
100
AcDbVertex
100
AcDb2dVertex
62
5
10
99.988514
20
153.973942
0
VERTEX
5
7f
100
AcDbEntity
8
1
100
AcDbVertex
100
AcDb2dVertex
62
5
10
101.488514
20
155.223942
0
VERTEX
5
80
100
AcDbEntity
8
1
100
AcDbVertex
100
AcDb2dVertex
62
5
10
102.988514
20
156.786442
0
SEQEND
5
81
100
AcDbEntity
8
1
0
POLYLINE
5
82
100
AcDbEntity
8
1
6
CONTINUOUS
62
5
100
AcDb2dPolyline
66
1
10
0.0
20
0.0
30
0.0
70
0
0
VERTEX
5
83
100
AcDbEntity
8
1
100
AcDbVertex
100
AcDb2dVertex
62
5
10
105.738514
20
156.161442
0
VERTEX
5
84
100
AcDbEntity
8
1
100
AcDbVertex
100
AcDb2dVertex
62
5
10
110.988514
20
156.786442
0
VERTEX
5
85
100
AcDbEntity
8
1
100
AcDbVertex
100
AcDb2dVertex
62
5
10
110.988514
20
156.473942
0
VERTEX
5
86
100
AcDbEntity
8
1
100
AcDbVertex
100
AcDb2dVertex
62
5
10
109.738514
20
154.911442
0
SEQEND
5
87
100
AcDbEntity
8
1
0
POLYLINE
5
88
100
AcDbEntity
8
1
6
CONTINUOUS
62
5
100
AcDb2dPolyline
66
1
10
0.0
20
0.0
30
0.0
70
0
0
VERTEX
5
89
100
AcDbEntity
8
1
100
AcDbVertex
100
AcDb2dVertex
62
5
10
107.738514
20
158.973942
0
VERTEX
5
8a
100
AcDbEntity
8
1
100
AcDbVertex
100
AcDb2dVertex
62
5
10
107.738514
20
153.036442
0
VERTEX
5
8b
100
AcDbEntity
8
1
100
AcDbVertex
100
AcDb2dVertex
62
5
10
108.238514
20
152.411442
0
VERTEX
5
8c
100
AcDbEntity
8
1
100
AcDbVertex
100
AcDb2dVertex
62
5
10
110.988514
20
152.411442
0
SEQEND
5
8d
100
AcDbEntity
8
1
0
LINE
5
8e
100
AcDbEntity
8
1
100
AcDbLine
6
CONTINUOUS
62
5
10
73.238514
20
157.098942
11
75.238514
21
157.098942
0
LINE
5
8f
100
AcDbEntity
8
1
100
AcDbLine
6
CONTINUOUS
62
5
10
72.988514
20
152.723942
11
75.238514
21
153.973942
0
LINE
5
90
100
AcDbEntity
8
1
100
AcDbLine
6
CONTINUOUS
62
5
10
74.238514
20
159.598942
11
74.238514
21
153.348942
0
POLYLINE
5
91
100
AcDbEntity
8
1
6
CONTINUOUS
62
5
100
AcDb2dPolyline
66
1
10
0.0
20
0.0
30
0.0
70
1
0
VERTEX
5
92
100
AcDbEntity
8
1
100
AcDbVertex
100
AcDb2dVertex
62
5
10
76.238514
20
159.286442
0
VERTEX
5
93
100
AcDbEntity
8
1
100
AcDbVertex
100
AcDb2dVertex
62
5
10
76.238514
20
155.848942
0
VERTEX
5
94
100
AcDbEntity
8
1
100
AcDbVertex
100
AcDb2dVertex
62
5
10
79.238514
20
155.848942
0
VERTEX
5
95
100
AcDbEntity
8
1
100
AcDbVertex
100
AcDb2dVertex
62
5
10
79.238514
20
159.286442
0
VERTEX
5
96
100
AcDbEntity
8
1
100
AcDbVertex
100
AcDb2dVertex
62
5
10
76.238514
20
159.286442
0
SEQEND
5
97
100
AcDbEntity
8
1
0
LINE
5
98
100
AcDbEntity
8
1
100
AcDbLine
6
CONTINUOUS
62
5
10
76.238514
20
157.723942
11
79.238514
21
157.723942
0
LINE
5
99
100
AcDbEntity
8
1
100
AcDbLine
6
CONTINUOUS
62
5
10
77.738514
20
159.286442
11
77.738514
21
152.098942
0
LINE
5
9a
100
AcDbEntity
8
1
100
AcDbLine
6
CONTINUOUS
62
5
10
75.738514
20
154.286442
11
79.738514
21
154.286442
0
LINE
5
9b
100
AcDbEntity
8
1
100
AcDbLine
6
CONTINUOUS
62
5
10
74.988514
20
152.098942
11
80.238514
21
152.098942
0
POLYLINE
5
9c
100
AcDbEntity
8
1
6
CONTINUOUS
62
5
100
AcDb2dPolyline
66
1
10
0.0
20
0.0
30
0.0
70
0
0
VERTEX
5
9d
100
AcDbEntity
8
1
100
AcDbVertex
100
AcDb2dVertex
62
5
10
50.238514
20
159.598942
0
VERTEX
5
9e
100
AcDbEntity
8
1
100
AcDbVertex
100
AcDb2dVertex
62
5
10
50.238514
20
153.973942
0
VERTEX
5
9f
100
AcDbEntity
8
1
100
AcDbVertex
100
AcDb2dVertex
62
5
10
49.738514
20
152.723942
0
VERTEX
5
a0
100
AcDbEntity
8
1
100
AcDbVertex
100
AcDb2dVertex
62
5
10
49.238514
20
151.786442
0
SEQEND
5
a1
100
AcDbEntity
8
1
0
POLYLINE
5
a2
100
AcDbEntity
8
1
6
CONTINUOUS
62
5
100
AcDb2dPolyline
66
1
10
0.0
20
0.0
30
0.0
70
0
0
VERTEX
5
a3
100
AcDbEntity
8
1
100
AcDbVertex
100
AcDb2dVertex
62
5
10
54.238514
20
152.098942
0
VERTEX
5
a4
100
AcDbEntity
8
1
100
AcDbVertex
100
AcDb2dVertex
62
5
10
55.238514
20
151.473942
0
VERTEX
5
a5
100
AcDbEntity
8
1
100
AcDbVertex
100
AcDb2dVertex
62
5
10
55.238514
20
159.598942
0
VERTEX
5
a6
100
AcDbEntity
8
1
100
AcDbVertex
100
AcDb2dVertex
62
5
10
50.238514
20
159.598942
0
SEQEND
5
a7
100
AcDbEntity
8
1
0
LINE
5
a8
100
AcDbEntity
8
1
100
AcDbLine
6
CONTINUOUS
62
5
10
50.238514
20
157.098942
11
55.238514
21
157.098942
0
LINE
5
a9
100
AcDbEntity
8
1
100
AcDbLine
6
CONTINUOUS
62
5
10
52.738514
20
159.598942
11
52.738514
21
151.473942
0
LINE
5
aa
100
AcDbEntity
8
1
100
AcDbLine
6
CONTINUOUS
62
5
10
50.238514
20
154.598942
11
55.238514
21
154.598942
0
LINE
5
ab
100
AcDbEntity
8
1
100
AcDbLine
6
CONTINUOUS
62
5
10
65.738514
20
155.848942
11
68.238514
21
155.848942
0
LINE
5
ac
100
AcDbEntity
8
1
100
AcDbLine
6
CONTINUOUS
62
5
10
66.988514
20
158.036442
11
66.988514
21
153.661442
0
LINE
5
ad
100
AcDbEntity
8
1
100
AcDbLine
6
CONTINUOUS
62
5
10
81.738514
20
159.598942
11
82.738514
21
158.661442
0
POLYLINE
5
ae
100
AcDbEntity
8
1
6
CONTINUOUS
62
5
100
AcDb2dPolyline
66
1
10
0.0
20
0.0
30
0.0
70
0
0
VERTEX
5
af
100
AcDbEntity
8
1
100
AcDbVertex
100
AcDb2dVertex
62
5
10
81.488514
20
156.473942
0
VERTEX
5
b0
100
AcDbEntity
8
1
100
AcDbVertex
100
AcDb2dVertex
62
5
10
82.738514
20
156.473942
0
VERTEX
5
b1
100
AcDbEntity
8
1
100
AcDbVertex
100
AcDb2dVertex
62
5
10
82.738514
20
153.348942
0
VERTEX
5
b2
100
AcDbEntity
8
1
100
AcDbVertex
100
AcDb2dVertex
62
5
10
81.488514
20
151.786442
0
SEQEND
5
b3
100
AcDbEntity
8
1
0
POLYLINE
5
b4
100
AcDbEntity
8
1
6
CONTINUOUS
62
5
100
AcDb2dPolyline
66
1
10
0.0
20
0.0
30
0.0
70
0
0
VERTEX
5
b5
100
AcDbEntity
8
1
100
AcDbVertex
100
AcDb2dVertex
62
5
10
82.738514
20
153.348942
0
VERTEX
5
b6
100
AcDbEntity
8
1
100
AcDbVertex
100
AcDb2dVertex
62
5
10
83.488514
20
152.098942
0
VERTEX
5
b7
100
AcDbEntity
8
1
100
AcDbVertex
100
AcDb2dVertex
62
5
10
84.488514
20
151.786442
0
VERTEX
5
b8
100
AcDbEntity
8
1
100
AcDbVertex
100
AcDb2dVertex
62
5
10
88.238514
20
151.786442
0
SEQEND
5
b9
100
AcDbEntity
8
1
0
POLYLINE
5
ba
100
AcDbEntity
8
1
6
CONTINUOUS
62
5
100
AcDb2dPolyline
66
1
10
0.0
20
0.0
30
0.0
70
0
0
VERTEX
5
bb
100
AcDbEntity
8
1
100
AcDbVertex
100
AcDb2dVertex
62
5
10
85.488514
20
157.098942
0
VERTEX
5
bc
100
AcDbEntity
8
1
100
AcDbVertex
100
AcDb2dVertex
62
5
10
84.738514
20
155.223942
0
VERTEX
5
bd
100
AcDbEntity
8
1
100
AcDbVertex
100
AcDb2dVertex
62
5
10
83.988514
20
153.973942
0
VERTEX
5
be
100
AcDbEntity
8
1
100
AcDbVertex
100
AcDb2dVertex
62
5
10
83.488514
20
153.348942
0
SEQEND
5
bf
100
AcDbEntity
8
1
0
POLYLINE
5
c0
100
AcDbEntity
8
1
6
CONTINUOUS
62
5
100
AcDb2dPolyline
66
1
10
0.0
20
0.0
30
0.0
70
0
0
VERTEX
5
c1
100
AcDbEntity
8
1
100
AcDbVertex
100
AcDb2dVertex
62
5
10
84.238514
20
159.911442
0
VERTEX
5
c2
100
AcDbEntity
8
1
100
AcDbVertex
100
AcDb2dVertex
62
5
10
85.488514
20
159.911442
0
VERTEX
5
c3
100
AcDbEntity
8
1
100
AcDbVertex
100
AcDb2dVertex
62
5
10
85.488514
20
157.098942
0
VERTEX
5
c4
100
AcDbEntity
8
1
100
AcDbVertex
100
AcDb2dVertex
62
5
10
86.238514
20
155.223942
0
VERTEX
5
c5
100
AcDbEntity
8
1
100
AcDbVertex
100
AcDb2dVertex
62
5
10
87.238514
20
153.973942
0
VERTEX
5
c6
100
AcDbEntity
8
1
100
AcDbVertex
100
AcDb2dVertex
62
5
10
87.988514
20
153.348942
0
SEQEND
5
c7
100
AcDbEntity
8
1
0
POLYLINE
5
c8
100
AcDbEntity
8
1
6
DOT2
62
5
100
AcDb2dPolyline
66
1
10
0.0
20
0.0
30
0.0
70
0
0
VERTEX
5
c9
100
AcDbEntity
8
1
100
AcDbVertex
100
AcDb2dVertex
62
5
10
154.688514
20
75.598942
0
VERTEX
5
ca
100
AcDbEntity
8
1
100
AcDbVertex
100
AcDb2dVertex
62
5
10
151.876014
20
69.973942
0
VERTEX
5
cb
100
AcDbEntity
8
1
100
AcDbVertex
100
AcDb2dVertex
62
5
10
155.626014
20
69.973942
0
SEQEND
5
cc
100
AcDbEntity
8
1
0
LINE
5
cd
100
AcDbEntity
8
1
100
AcDbLine
6
DOT2
62
5
10
154.688514
20
75.598942
11
154.688514
21
68.098942
0
LINE
5
ce
100
AcDbEntity
8
1
100
AcDbLine
6
DOT2
62
5
10
154.063514
20
68.098942
11
155.313514
21
68.098942
0
POLYLINE
5
cf
100
AcDbEntity
8
1
6
DOT2
62
5
100
AcDb2dPolyline
66
1
10
0.0
20
0.0
30
0.0
70
0
0
VERTEX
5
d0
100
AcDbEntity
8
1
100
AcDbVertex
100
AcDb2dVertex
62
5
10
137.188514
20
73.411442
0
VERTEX
5
d1
100
AcDbEntity
8
1
100
AcDbVertex
100
AcDb2dVertex
62
5
10
137.501014
20
74.973942
0
VERTEX
5
d2
100
AcDbEntity
8
1
100
AcDbVertex
100
AcDb2dVertex
62
5
10
138.438514
20
75.598942
0
VERTEX
5
d3
100
AcDbEntity
8
1
100
AcDbVertex
100
AcDb2dVertex
62
5
10
139.376014
20
75.598942
0
VERTEX
5
d4
100
AcDbEntity
8
1
100
AcDbVertex
100
AcDb2dVertex
62
5
10
140.001014
20
75.286442
0
VERTEX
5
d5
100
AcDbEntity
8
1
100
AcDbVertex
100
AcDb2dVertex
62
5
10
140.313514
20
74.348942
0
VERTEX
5
d6
100
AcDbEntity
8
1
100
AcDbVertex
100
AcDb2dVertex
62
5
10
140.313514
20
73.411442
0
VERTEX
5
d7
100
AcDbEntity
8
1
100
AcDbVertex
100
AcDb2dVertex
62
5
10
140.001014
20
72.473942
0
VERTEX
5
d8
100
AcDbEntity
8
1
100
AcDbVertex
100
AcDb2dVertex
62
5
10
137.188514
20
68.098942
0
VERTEX
5
d9
100
AcDbEntity
8
1
100
AcDbVertex
100
AcDb2dVertex
62
5
10
140.313514
20
68.098942
0
VERTEX
5
da
100
AcDbEntity
8
1
100
AcDbVertex
100
AcDb2dVertex
62
5
10
140.313514
20
69.036442
0
SEQEND
5
db
100
AcDbEntity
8
1
0
POLYLINE
5
dc
100
AcDbEntity
8
1
6
DOT2
62
5
100
AcDb2dPolyline
66
1
10
0.0
20
0.0
30
0.0
70
0
0
VERTEX
5
dd
100
AcDbEntity
8
1
100
AcDbVertex
100
AcDb2dVertex
62
5
10
142.813514
20
74.973942
0
VERTEX
5
de
100
AcDbEntity
8
1
100
AcDbVertex
100
AcDb2dVertex
62
5
10
143.751014
20
75.598942
0
VERTEX
5
df
100
AcDbEntity
8
1
100
AcDbVertex
100
AcDb2dVertex
62
5
10
143.751014
20
68.098942
0
SEQEND
5
e0
100
AcDbEntity
8
1
0
LINE
5
e1
100
AcDbEntity
8
1
100
AcDbLine
6
DOT2
62
5
10
143.126014
20
68.098942
11
144.376014
21
68.098942
0
LINE
5
e2
100
AcDbEntity
8
1
100
AcDbLine
6
DOT2
62
5
10
147.813514
20
68.723942
11
147.188514
21
68.098942
0
POLYLINE
5
e3
100
AcDbEntity
8
1
6
DOT2
62
5
100
AcDb2dPolyline
66
1
10
0.0
20
0.0
30
0.0
70
0
0
VERTEX
5
e4
100
AcDbEntity
8
1
100
AcDbVertex
100
AcDb2dVertex
62
5
10
147.188514
20
68.723942
0
VERTEX
5
e5
100
AcDbEntity
8
1
100
AcDbVertex
100
AcDb2dVertex
62
5
10
147.813514
20
68.098942
0
VERTEX
5
e6
100
AcDbEntity
8
1
100
AcDbVertex
100
AcDb2dVertex
62
5
10
147.188514
20
68.098942
0
VERTEX
5
e7
100
AcDbEntity
8
1
100
AcDbVertex
100
AcDb2dVertex
62
5
10
147.188514
20
68.723942
0
VERTEX
5
e8
100
AcDbEntity
8
1
100
AcDbVertex
100
AcDb2dVertex
62
5
10
147.813514
20
68.723942
0
VERTEX
5
e9
100
AcDbEntity
8
1
100
AcDbVertex
100
AcDb2dVertex
62
5
10
147.813514
20
68.098942
0
SEQEND
5
ea
100
AcDbEntity
8
1
0
POLYLINE
5
eb
100
AcDbEntity
8
1
6
DOT2
62
5
100
AcDb2dPolyline
66
1
10
0.0
20
0.0
30
0.0
70
0
0
VERTEX
5
ec
100
AcDbEntity
8
1
100
AcDbVertex
100
AcDb2dVertex
62
5
10
76.413514
20
74.973942
0
VERTEX
5
ed
100
AcDbEntity
8
1
100
AcDbVertex
100
AcDb2dVertex
62
5
10
77.351014
20
75.598942
0
VERTEX
5
ee
100
AcDbEntity
8
1
100
AcDbVertex
100
AcDb2dVertex
62
5
10
77.351014
20
68.098942
0
SEQEND
5
ef
100
AcDbEntity
8
1
0
LINE
5
f0
100
AcDbEntity
8
1
100
AcDbLine
6
DOT2
62
5
10
76.726014
20
68.098942
11
77.976014
21
68.098942
0
POLYLINE
5
f1
100
AcDbEntity
8
1
6
DOT2
62
5
100
AcDb2dPolyline
66
1
10
0.0
20
0.0
30
0.0
70
1
0
VERTEX
5
f2
100
AcDbEntity
8
1
100
AcDbVertex
100
AcDb2dVertex
62
5
10
82.038514
20
75.598942
0
VERTEX
5
f3
100
AcDbEntity
8
1
100
AcDbVertex
100
AcDb2dVertex
62
5
10
82.663514
20
75.598942
0
VERTEX
5
f4
100
AcDbEntity
8
1
100
AcDbVertex
100
AcDb2dVertex
62
5
10
82.976014
20
75.286442
0
VERTEX
5
f5
100
AcDbEntity
8
1
100
AcDbVertex
100
AcDb2dVertex
62
5
10
83.601014
20
74.036442
0
VERTEX
5
f6
100
AcDbEntity
8
1
100
AcDbVertex
100
AcDb2dVertex
62
5
10
83.913514
20
72.786442
0
VERTEX
5
f7
100
AcDbEntity
8
1
100
AcDbVertex
100
AcDb2dVertex
62
5
10
83.913514
20
70.911442
0
VERTEX
5
f8
100
AcDbEntity
8
1
100
AcDbVertex
100
AcDb2dVertex
62
5
10
83.601014
20
69.661442
0
VERTEX
5
f9
100
AcDbEntity
8
1
100
AcDbVertex
100
AcDb2dVertex
62
5
10
82.976014
20
68.411442
0
VERTEX
5
fa
100
AcDbEntity
8
1
100
AcDbVertex
100
AcDb2dVertex
62
5
10
82.663514
20
68.098942
0
VERTEX
5
fb
100
AcDbEntity
8
1
100
AcDbVertex
100
AcDb2dVertex
62
5
10
82.038514
20
68.098942
0
VERTEX
5
fc
100
AcDbEntity
8
1
100
AcDbVertex
100
AcDb2dVertex
62
5
10
81.726014
20
68.411442
0
VERTEX
5
fd
100
AcDbEntity
8
1
100
AcDbVertex
100
AcDb2dVertex
62
5
10
81.101014
20
69.661442
0
VERTEX
5
fe
100
AcDbEntity
8
1
100
AcDbVertex
100
AcDb2dVertex
62
5
10
80.788514
20
70.911442
0
VERTEX
5
ff
100
AcDbEntity
8
1
100
AcDbVertex
100
AcDb2dVertex
62
5
10
80.788514
20
72.786442
0
VERTEX
5
100
100
AcDbEntity
8
1
100
AcDbVertex
100
AcDb2dVertex
62
5
10
81.101014
20
74.036442
0
VERTEX
5
101
100
AcDbEntity
8
1
100
AcDbVertex
100
AcDb2dVertex
62
5
10
81.726014
20
75.286442
0
VERTEX
5
102
100
AcDbEntity
8
1
100
AcDbVertex
100
AcDb2dVertex
62
5
10
82.038514
20
75.598942
0
SEQEND
5
103
100
AcDbEntity
8
1
0
POLYLINE
5
104
100
AcDbEntity
8
1
6
CONTINUOUS
62
5
100
AcDb2dPolyline
66
1
10
0.0
20
0.0
30
0.0
70
0
0
VERTEX
5
105
100
AcDbEntity
8
1
100
AcDbVertex
100
AcDb2dVertex
62
5
10
112.038514
20
16.039562
0
VERTEX
5
106
100
AcDbEntity
8
1
100
AcDbVertex
100
AcDb2dVertex
62
5
10
118.038514
20
15.959562
0
VERTEX
5
107
100
AcDbEntity
8
1
100
AcDbVertex
100
AcDb2dVertex
62
5
10
118.038514
20
15.086229
0
VERTEX
5
108
100
AcDbEntity
8
1
100
AcDbVertex
100
AcDb2dVertex
62
5
10
117.038514
20
14.786229
0
VERTEX
5
109
100
AcDbEntity
8
1
100
AcDbVertex
100
AcDb2dVertex
62
5
10
114.288514
20
14.859562
0
VERTEX
5
10a
100
AcDbEntity
8
1
100
AcDbVertex
100
AcDb2dVertex
62
5
10
112.038514
20
14.859562
0
SEQEND
5
10b
100
AcDbEntity
8
1
0
ARC
5
10c
100
AcDbEntity
8
1
100
AcDbCircle
6
CONTINUOUS
62
5
10
105.338517
20
13.048942
40
0.700000
100
AcDbArc
50
-89.999999
51
0.000000
0
LINE
5
10d
100
AcDbEntity
8
1
100
AcDbLine
6
CONTINUOUS
62
5
10
106.038517
20
13.048942
11
106.038517
21
13.364225
0
ARC
5
10e
100
AcDbEntity
8
1
100
AcDbCircle
6
CONTINUOUS
62
5
10
105.038517
20
13.364225
40
1.000000
100
AcDbArc
50
0.000000
51
89.118595
0
LINE
5
10f
100
AcDbEntity
8
1
100
AcDbLine
6
CONTINUOUS
62
5
10
105.053900
20
14.364106
11
104.538514
21
14.368958
0
LINE
5
110
100
AcDbEntity
8
1
100
AcDbLine
6
CONTINUOUS
62
5
10
104.538514
20
12.348942
11
105.338517
21
12.348942
0
POLYLINE
5
111
100
AcDbEntity
8
1
6
CONTINUOUS
62
5
100
AcDb2dPolyline
66
1
10
0.0
20
0.0
30
0.0
70
0
0
VERTEX
5
112
100
AcDbEntity
8
1
100
AcDbVertex
100
AcDb2dVertex
62
5
10
104.538514
20
19.048942
0
VERTEX
5
113
100
AcDbEntity
8
1
100
AcDbVertex
100
AcDb2dVertex
62
5
10
104.538514
20
19.048942
0
VERTEX
5
114
100
AcDbEntity
8
1
100
AcDbVertex
100
AcDb2dVertex
62
5
10
106.038514
20
17.508942
0
SEQEND
5
115
100
AcDbEntity
8
1
0
LINE
5
116
100
AcDbEntity
8
1
100
AcDbLine
6
CONTINUOUS
62
5
10
104.538514
20
43.364383
11
104.538514
21
68.848942
0
LINE
5
117
100
AcDbEntity
8
1
100
AcDbLine
6
CONTINUOUS
62
5
10
94.538514
20
27.152650
11
94.538514
21
68.848942
0
POLYLINE
5
118
100
AcDbEntity
8
1
6
CONTINUOUS
62
5
100
AcDb2dPolyline
66
1
10
0.0
20
0.0
30
0.0
70
0
0
VERTEX
5
119
100
AcDbEntity
8
1
100
AcDbVertex
100
AcDb2dVertex
62
5
10
73.288514
20
66.848942
0
VERTEX
5
11a
100
AcDbEntity
8
1
100
AcDbVertex
100
AcDb2dVertex
62
5
10
94.538514
20
66.848942
0
VERTEX
5
11b
100
AcDbEntity
8
1
100
AcDbVertex
100
AcDb2dVertex
62
5
10
91.490514
20
66.340942
0
VERTEX
5
11c
100
AcDbEntity
8
1
100
AcDbVertex
100
AcDb2dVertex
62
5
10
91.490514
20
67.356942
0
VERTEX
5
11d
100
AcDbEntity
8
1
100
AcDbVertex
100
AcDb2dVertex
62
5
10
94.538514
20
66.848942
0
VERTEX
5
11e
100
AcDbEntity
8
1
100
AcDbVertex
100
AcDb2dVertex
62
5
10
91.490514
20
66.594942
0
VERTEX
5
11f
100
AcDbEntity
8
1
100
AcDbVertex
100
AcDb2dVertex
62
5
10
91.490514
20
67.102942
0
VERTEX
5
120
100
AcDbEntity
8
1
100
AcDbVertex
100
AcDb2dVertex
62
5
10
94.538514
20
66.848942
0
SEQEND
5
121
100
AcDbEntity
8
1
0
LINE
5
122
100
AcDbEntity
8
1
100
AcDbLine
6
CONTINUOUS
62
5
10
94.538514
20
66.848942
11
104.538514
21
66.848942
0
LINE
5
123
100
AcDbEntity
8
1
100
AcDbLine
6
CONTINUOUS
62
5
10
108.554514
20
66.848942
11
104.538514
21
66.848942
0
POLYLINE
5
124
100
AcDbEntity
8
1
6
CONTINUOUS
62
5
100
AcDb2dPolyline
66
1
10
0.0
20
0.0
30
0.0
70
0
0
VERTEX
5
125
100
AcDbEntity
8
1
100
AcDbVertex
100
AcDb2dVertex
62
5
10
104.030514
20
66.594942
0
VERTEX
5
126
100
AcDbEntity
8
1
100
AcDbVertex
100
AcDb2dVertex
62
5
10
104.030514
20
67.102942
0
VERTEX
5
127
100
AcDbEntity
8
1
100
AcDbVertex
100
AcDb2dVertex
62
5
10
104.284514
20
67.356942
0
VERTEX
5
128
100
AcDbEntity
8
1
100
AcDbVertex
100
AcDb2dVertex
62
5
10
104.792514
20
67.356942
0
VERTEX
5
129
100
AcDbEntity
8
1
100
AcDbVertex
100
AcDb2dVertex
62
5
10
105.046514
20
67.102942
0
VERTEX
5
12a
100
AcDbEntity
8
1
100
AcDbVertex
100
AcDb2dVertex
62
5
10
105.046514
20
66.594942
0
VERTEX
5
12b
100
AcDbEntity
8
1
100
AcDbVertex
100
AcDb2dVertex
62
5
10
104.792514
20
66.340942
0
VERTEX
5
12c
100
AcDbEntity
8
1
100
AcDbVertex
100
AcDb2dVertex
62
5
10
104.284514
20
66.340942
0
VERTEX
5
12d
100
AcDbEntity
8
1
100
AcDbVertex
100
AcDb2dVertex
62
5
10
104.030514
20
66.594942
0
VERTEX
5
12e
100
AcDbEntity
8
1
100
AcDbVertex
100
AcDb2dVertex
62
5
10
105.046514
20
67.102942
0
SEQEND
5
12f
100
AcDbEntity
8
1
0
LINE
5
130
100
AcDbEntity
8
1
100
AcDbLine
6
CONTINUOUS
62
5
10
105.046514
20
66.594942
11
104.030514
21
67.102942
0
LINE
5
131
100
AcDbEntity
8
1
100
AcDbLine
6
CONTINUOUS
62
5
10
104.284514
20
67.356942
11
104.792514
21
66.340942
0
LINE
5
132
100
AcDbEntity
8
1
100
AcDbLine
6
CONTINUOUS
62
5
10
104.284514
20
66.340942
11
104.792514
21
67.356942
0
LINE
5
133
100
AcDbEntity
8
1
100
AcDbLine
6
CONTINUOUS
62
5
10
104.538514
20
43.364383
11
104.538514
21
68.848942
0
LINE
5
134
100
AcDbEntity
8
1
100
AcDbLine
6
CONTINUOUS
62
5
10
125.938514
20
13.140443
11
125.938514
21
68.848942
0
POLYLINE
5
135
100
AcDbEntity
8
1
6
CONTINUOUS
62
5
100
AcDb2dPolyline
66
1
10
0.0
20
0.0
30
0.0
70
0
0
VERTEX
5
136
100
AcDbEntity
8
1
100
AcDbVertex
100
AcDb2dVertex
62
5
10
157.188514
20
66.848942
0
VERTEX
5
137
100
AcDbEntity
8
1
100
AcDbVertex
100
AcDb2dVertex
62
5
10
125.938514
20
66.848942
0
VERTEX
5
138
100
AcDbEntity
8
1
100
AcDbVertex
100
AcDb2dVertex
62
5
10
128.986514
20
67.356942
0
VERTEX
5
139
100
AcDbEntity
8
1
100
AcDbVertex
100
AcDb2dVertex
62
5
10
128.986514
20
66.340942
0
VERTEX
5
13a
100
AcDbEntity
8
1
100
AcDbVertex
100
AcDb2dVertex
62
5
10
125.938514
20
66.848942
0
VERTEX
5
13b
100
AcDbEntity
8
1
100
AcDbVertex
100
AcDb2dVertex
62
5
10
128.986514
20
67.102942
0
VERTEX
5
13c
100
AcDbEntity
8
1
100
AcDbVertex
100
AcDb2dVertex
62
5
10
128.986514
20
66.594942
0
VERTEX
5
13d
100
AcDbEntity
8
1
100
AcDbVertex
100
AcDb2dVertex
62
5
10
125.938514
20
66.848942
0
SEQEND
5
13e
100
AcDbEntity
8
1
0
LINE
5
13f
100
AcDbEntity
8
1
100
AcDbLine
6
CONTINUOUS
62
5
10
125.938514
20
66.848942
11
104.538514
21
66.848942
0
LINE
5
140
100
AcDbEntity
8
1
100
AcDbLine
6
CONTINUOUS
62
5
10
101.538514
20
66.848942
11
104.538514
21
66.848942
0
POLYLINE
5
141
100
AcDbEntity
8
1
6
CONTINUOUS
62
5
100
AcDb2dPolyline
66
1
10
0.0
20
0.0
30
0.0
70
0
0
VERTEX
5
142
100
AcDbEntity
8
1
100
AcDbVertex
100
AcDb2dVertex
62
5
10
40.988514
20
157.098942
0
VERTEX
5
143
100
AcDbEntity
8
1
100
AcDbVertex
100
AcDb2dVertex
62
5
10
42.488514
20
157.411442
0
VERTEX
5
144
100
AcDbEntity
8
1
100
AcDbVertex
100
AcDb2dVertex
62
5
10
43.738514
20
158.036442
0
SEQEND
5
145
100
AcDbEntity
8
1
0
POLYLINE
5
146
100
AcDbEntity
8
1
6
CONTINUOUS
62
5
100
AcDb2dPolyline
66
1
10
0.0
20
0.0
30
0.0
70
0
0
VERTEX
5
147
100
AcDbEntity
8
1
100
AcDbVertex
100
AcDb2dVertex
62
5
10
41.988514
20
159.911442
0
VERTEX
5
148
100
AcDbEntity
8
1
100
AcDbVertex
100
AcDb2dVertex
62
5
10
41.988514
20
154.286442
0
VERTEX
5
149
100
AcDbEntity
8
1
100
AcDbVertex
100
AcDb2dVertex
62
5
10
42.488514
20
153.661442
0
VERTEX
5
14a
100
AcDbEntity
8
1
100
AcDbVertex
100
AcDb2dVertex
62
5
10
43.738514
20
153.661442
0
VERTEX
5
14b
100
AcDbEntity
8
1
100
AcDbVertex
100
AcDb2dVertex
62
5
10
43.988514
20
154.911442
0
SEQEND
5
14c
100
AcDbEntity
8
1
0
POLYLINE
5
14d
100
AcDbEntity
8
1
6
CONTINUOUS
62
5
100
AcDb2dPolyline
66
1
10
0.0
20
0.0
30
0.0
70
0
0
VERTEX
5
14e
100
AcDbEntity
8
1
100
AcDbVertex
100
AcDb2dVertex
62
5
10
45.238514
20
158.973942
0
VERTEX
5
14f
100
AcDbEntity
8
1
100
AcDbVertex
100
AcDb2dVertex
62
5
10
45.238514
20
155.223942
0
VERTEX
5
150
100
AcDbEntity
8
1
100
AcDbVertex
100
AcDb2dVertex
62
5
10
44.738514
20
153.661442
0
VERTEX
5
151
100
AcDbEntity
8
1
100
AcDbVertex
100
AcDb2dVertex
62
5
10
43.988514
20
152.411442
0
VERTEX
5
152
100
AcDbEntity
8
1
100
AcDbVertex
100
AcDb2dVertex
62
5
10
42.738514
20
151.473942
0
SEQEND
5
153
100
AcDbEntity
8
1
0
POLYLINE
5
154
100
AcDbEntity
8
1
6
CONTINUOUS
62
5
100
AcDb2dPolyline
66
1
10
0.0
20
0.0
30
0.0
70
0
0
VERTEX
5
155
100
AcDbEntity
8
1
100
AcDbVertex
100
AcDb2dVertex
62
5
10
43.738514
20
158.973942
0
VERTEX
5
156
100
AcDbEntity
8
1
100
AcDbVertex
100
AcDb2dVertex
62
5
10
47.488514
20
158.973942
0
VERTEX
5
157
100
AcDbEntity
8
1
100
AcDbVertex
100
AcDb2dVertex
62
5
10
47.488514
20
153.661442
0
VERTEX
5
158
100
AcDbEntity
8
1
100
AcDbVertex
100
AcDb2dVertex
62
5
10
47.238514
20
152.723942
0
VERTEX
5
159
100
AcDbEntity
8
1
100
AcDbVertex
100
AcDb2dVertex
62
5
10
46.738514
20
152.411442
0
VERTEX
5
15a
100
AcDbEntity
8
1
100
AcDbVertex
100
AcDb2dVertex
62
5
10
45.738514
20
152.411442
0
SEQEND
5
15b
100
AcDbEntity
8
1
0
LINE
5
15c
100
AcDbEntity
8
1
100
AcDbLine
6
CONTINUOUS
62
5
10
10.988514
20
156.161442
11
11.238514
21
154.911442
0
LINE
5
15d
100
AcDbEntity
8
1
100
AcDbLine
6
CONTINUOUS
62
5
10
12.488514
20
156.473942
11
12.738514
21
155.223942
0
POLYLINE
5
15e
100
AcDbEntity
8
1
6
CONTINUOUS
62
5
100
AcDb2dPolyline
66
1
10
0.0
20
0.0
30
0.0
70
0
0
VERTEX
5
15f
100
AcDbEntity
8
1
100
AcDbVertex
100
AcDb2dVertex
62
5
10
14.488514
20
156.473942
0
VERTEX
5
160
100
AcDbEntity
8
1
100
AcDbVertex
100
AcDb2dVertex
62
5
10
14.238514
20
154.911442
0
VERTEX
5
161
100
AcDbEntity
8
1
100
AcDbVertex
100
AcDb2dVertex
62
5
10
12.988514
20
153.036442
0
VERTEX
5
162
100
AcDbEntity
8
1
100
AcDbVertex
100
AcDb2dVertex
62
5
10
11.988514
20
152.098942
0
SEQEND
5
163
100
AcDbEntity
8
1
0
LINE
5
164
100
AcDbEntity
8
1
100
AcDbLine
6
CONTINUOUS
62
5
10
18.738514
20
158.036442
11
22.488514
21
158.661442
0
LINE
5
165
100
AcDbEntity
8
1
100
AcDbLine
6
CONTINUOUS
62
5
10
17.488514
20
156.161442
11
23.488514
21
156.161442
0
POLYLINE
5
166
100
AcDbEntity
8
1
6
CONTINUOUS
62
5
100
AcDb2dPolyline
66
1
10
0.0
20
0.0
30
0.0
70
0
0
VERTEX
5
167
100
AcDbEntity
8
1
100
AcDbVertex
100
AcDb2dVertex
62
5
10
20.738514
20
158.348942
0
VERTEX
5
168
100
AcDbEntity
8
1
100
AcDbVertex
100
AcDb2dVertex
62
5
10
20.738514
20
156.161442
0
VERTEX
5
169
100
AcDbEntity
8
1
100
AcDbVertex
100
AcDb2dVertex
62
5
10
20.488514
20
154.598942
0
VERTEX
5
16a
100
AcDbEntity
8
1
100
AcDbVertex
100
AcDb2dVertex
62
5
10
19.738514
20
153.348942
0
VERTEX
5
16b
100
AcDbEntity
8
1
100
AcDbVertex
100
AcDb2dVertex
62
5
10
18.988514
20
152.411442
0
SEQEND
5
16c
100
AcDbEntity
8
1
0
POLYLINE
5
16d
100
AcDbEntity
8
1
6
CONTINUOUS
62
5
100
AcDb2dPolyline
66
1
10
0.0
20
0.0
30
0.0
70
0
0
VERTEX
5
16e
100
AcDbEntity
8
1
100
AcDbVertex
100
AcDb2dVertex
62
5
10
11.988514
20
150.223942
0
VERTEX
5
16f
100
AcDbEntity
8
1
100
AcDbVertex
100
AcDb2dVertex
62
5
10
11.238514
20
148.973942
0
VERTEX
5
170
100
AcDbEntity
8
1
100
AcDbVertex
100
AcDb2dVertex
62
5
10
10.488514
20
148.036442
0
VERTEX
5
171
100
AcDbEntity
8
1
100
AcDbVertex
100
AcDb2dVertex
62
5
10
9.488514
20
147.098942
0
SEQEND
5
172
100
AcDbEntity
8
1
0
POLYLINE
5
173
100
AcDbEntity
8
1
6
CONTINUOUS
62
5
100
AcDb2dPolyline
66
1
10
0.0
20
0.0
30
0.0
70
0
0
VERTEX
5
174
100
AcDbEntity
8
1
100
AcDbVertex
100
AcDb2dVertex
62
5
10
11.738514
20
149.598942
0
VERTEX
5
175
100
AcDbEntity
8
1
100
AcDbVertex
100
AcDb2dVertex
62
5
10
13.988514
20
149.598942
0
VERTEX
5
176
100
AcDbEntity
8
1
100
AcDbVertex
100
AcDb2dVertex
62
5
10
12.738514
20
147.723942
0
SEQEND
5
177
100
AcDbEntity
8
1
0
POLYLINE
5
178
100
AcDbEntity
8
1
6
CONTINUOUS
62
5
100
AcDb2dPolyline
66
1
10
0.0
20
0.0
30
0.0
70
0
0
VERTEX
5
179
100
AcDbEntity
8
1
100
AcDbVertex
100
AcDb2dVertex
62
5
10
10.488514
20
147.723942
0
VERTEX
5
17a
100
AcDbEntity
8
1
100
AcDbVertex
100
AcDb2dVertex
62
5
10
14.988514
20
147.723942
0
VERTEX
5
17b
100
AcDbEntity
8
1
100
AcDbVertex
100
AcDb2dVertex
62
5
10
14.988514
20
144.911442
0
VERTEX
5
17c
100
AcDbEntity
8
1
100
AcDbVertex
100
AcDb2dVertex
62
5
10
10.488514
20
144.911442
0
SEQEND
5
17d
100
AcDbEntity
8
1
0
LINE
5
17e
100
AcDbEntity
8
1
100
AcDbLine
6
CONTINUOUS
62
5
10
12.738514
20
147.723942
11
12.738514
21
144.911442
0
POLYLINE
5
17f
100
AcDbEntity
8
1
6
CONTINUOUS
62
5
100
AcDb2dPolyline
66
1
10
0.0
20
0.0
30
0.0
70
0
0
VERTEX
5
180
100
AcDbEntity
8
1
100
AcDbVertex
100
AcDb2dVertex
62
5
10
10.488514
20
147.723942
0
VERTEX
5
181
100
AcDbEntity
8
1
100
AcDbVertex
100
AcDb2dVertex
62
5
10
10.488514
20
142.411442
0
VERTEX
5
182
100
AcDbEntity
8
1
100
AcDbVertex
100
AcDb2dVertex
62
5
10
10.988514
20
141.786442
0
VERTEX
5
183
100
AcDbEntity
8
1
100
AcDbVertex
100
AcDb2dVertex
62
5
10
15.988514
20
141.786442
0
VERTEX
5
184
100
AcDbEntity
8
1
100
AcDbVertex
100
AcDb2dVertex
62
5
10
15.988514
20
143.036442
0
SEQEND
5
185
100
AcDbEntity
8
1
0
POLYLINE
5
186
100
AcDbEntity
8
1
6
CONTINUOUS
62
5
100
AcDb2dPolyline
66
1
10
0.0
20
0.0
30
0.0
70
0
0
VERTEX
5
187
100
AcDbEntity
8
1
100
AcDbVertex
100
AcDb2dVertex
62
5
10
34.488514
20
159.911442
0
VERTEX
5
188
100
AcDbEntity
8
1
100
AcDbVertex
100
AcDb2dVertex
62
5
10
34.488514
20
154.598942
0
VERTEX
5
189
100
AcDbEntity
8
1
100
AcDbVertex
100
AcDb2dVertex
62
5
10
33.988514
20
152.723942
0
VERTEX
5
18a
100
AcDbEntity
8
1
100
AcDbVertex
100
AcDb2dVertex
62
5
10
33.238514
20
151.473942
0
SEQEND
5
18b
100
AcDbEntity
8
1
0
LINE
5
18c
100
AcDbEntity
8
1
100
AcDbLine
6
CONTINUOUS
62
5
10
34.488514
20
157.723942
11
39.988514
21
157.723942
0
LINE
5
18d
100
AcDbEntity
8
1
100
AcDbLine
6
CONTINUOUS
62
5
10
37.238514
20
160.223942
11
37.238514
21
157.723942
0
POLYLINE
5
18e
100
AcDbEntity
8
1
6
CONTINUOUS
62
5
100
AcDb2dPolyline
66
1
10
0.0
20
0.0
30
0.0
70
0
0
VERTEX
5
18f
100
AcDbEntity
8
1
100
AcDbVertex
100
AcDb2dVertex
62
5
10
34.488514
20
155.223942
0
VERTEX
5
190
100
AcDbEntity
8
1
100
AcDbVertex
100
AcDb2dVertex
62
5
10
37.988514
20
155.223942
0
VERTEX
5
191
100
AcDbEntity
8
1
100
AcDbVertex
100
AcDb2dVertex
62
5
10
37.988514
20
151.161442
0
SEQEND
5
192
100
AcDbEntity
8
1
0
POLYLINE
5
193
100
AcDbEntity
8
1
6
CONTINUOUS
62
5
100
AcDb2dPolyline
66
1
10
0.0
20
0.0
30
0.0
70
0
0
VERTEX
5
194
100
AcDbEntity
8
1
100
AcDbVertex
100
AcDb2dVertex
62
5
10
-5.261486
20
157.723942
0
VERTEX
5
195
100
AcDbEntity
8
1
100
AcDbVertex
100
AcDb2dVertex
62
5
10
-2.011486
20
157.723942
0
VERTEX
5
196
100
AcDbEntity
8
1
100
AcDbVertex
100
AcDb2dVertex
62
5
10
-2.011486
20
157.411442
0
VERTEX
5
197
100
AcDbEntity
8
1
100
AcDbVertex
100
AcDb2dVertex
62
5
10
-2.511486
20
156.161442
0
VERTEX
5
198
100
AcDbEntity
8
1
100
AcDbVertex
100
AcDb2dVertex
62
5
10
-3.011486
20
155.223942
0
VERTEX
5
199
100
AcDbEntity
8
1
100
AcDbVertex
100
AcDb2dVertex
62
5
10
-4.011486
20
153.973942
0
VERTEX
5
19a
100
AcDbEntity
8
1
100
AcDbVertex
100
AcDb2dVertex
62
5
10
-5.761486
20
152.411442
0
SEQEND
5
19b
100
AcDbEntity
8
1
0
LINE
5
19c
100
AcDbEntity
8
1
100
AcDbLine
6
CONTINUOUS
62
5
10
-3.011486
20
155.223942
11
-1.011486
21
152.411442
0
POLYLINE
5
19d
100
AcDbEntity
8
1
6
CONTINUOUS
62
5
100
AcDb2dPolyline
66
1
10
0.0
20
0.0
30
0.0
70
0
0
VERTEX
5
19e
100
AcDbEntity
8
1
100
AcDbVertex
100
AcDb2dVertex
62
5
10
6.488514
20
159.286442
0
VERTEX
5
19f
100
AcDbEntity
8
1
100
AcDbVertex
100
AcDb2dVertex
62
5
10
4.488514
20
156.786442
0
VERTEX
5
1a0
100
AcDbEntity
8
1
100
AcDbVertex
100
AcDb2dVertex
62
5
10
2.238514
20
155.223942
0
SEQEND
5
1a1
100
AcDbEntity
8
1
0
LINE
5
1a2
100
AcDbEntity
8
1
100
AcDbLine
6
CONTINUOUS
62
5
10
4.988514
20
157.411442
11
4.988514
21
152.098942
0
POLYLINE
5
1a3
100
AcDbEntity
8
1
6
CONTINUOUS
62
5
100
AcDb2dPolyline
66
1
10
0.0
20
0.0
30
0.0
70
0
0
VERTEX
5
1a4
100
AcDbEntity
8
1
100
AcDbVertex
100
AcDb2dVertex
62
5
10
-30.511486
20
157.411442
0
VERTEX
5
1a5
100
AcDbEntity
8
1
100
AcDbVertex
100
AcDb2dVertex
62
5
10
-25.511486
20
157.723942
0
VERTEX
5
1a6
100
AcDbEntity
8
1
100
AcDbVertex
100
AcDb2dVertex
62
5
10
-25.011486
20
157.098942
0
VERTEX
5
1a7
100
AcDbEntity
8
1
100
AcDbVertex
100
AcDb2dVertex
62
5
10
-26.261486
20
155.536442
0
VERTEX
5
1a8
100
AcDbEntity
8
1
100
AcDbVertex
100
AcDb2dVertex
62
5
10
-27.511486
20
153.973942
0
SEQEND
5
1a9
100
AcDbEntity
8
1
0
POLYLINE
5
1aa
100
AcDbEntity
8
1
6
CONTINUOUS
62
5
100
AcDb2dPolyline
66
1
10
0.0
20
0.0
30
0.0
70
0
0
VERTEX
5
1ab
100
AcDbEntity
8
1
100
AcDbVertex
100
AcDb2dVertex
62
5
10
-28.761486
20
155.223942
0
VERTEX
5
1ac
100
AcDbEntity
8
1
100
AcDbVertex
100
AcDb2dVertex
62
5
10
-27.511486
20
153.973942
0
VERTEX
5
1ad
100
AcDbEntity
8
1
100
AcDbVertex
100
AcDb2dVertex
62
5
10
-27.011486
20
153.036442
0
SEQEND
5
1ae
100
AcDbEntity
8
1
0
POLYLINE
5
1af
100
AcDbEntity
8
1
6
CONTINUOUS
62
5
100
AcDb2dPolyline
66
1
10
0.0
20
0.0
30
0.0
70
0
0
VERTEX
5
1b0
100
AcDbEntity
8
1
100
AcDbVertex
100
AcDb2dVertex
62
5
10
-22.511486
20
156.161442
0
VERTEX
5
1b1
100
AcDbEntity
8
1
100
AcDbVertex
100
AcDb2dVertex
62
5
10
-22.261486
20
155.848942
0
VERTEX
5
1b2
100
AcDbEntity
8
1
100
AcDbVertex
100
AcDb2dVertex
62
5
10
-15.511486
20
155.848942
0
SEQEND
5
1b3
100
AcDbEntity
8
1
0
POLYLINE
5
1b4
100
AcDbEntity
8
1
6
CONTINUOUS
62
5
100
AcDb2dPolyline
66
1
10
0.0
20
0.0
30
0.0
70
0
0
VERTEX
5
1b5
100
AcDbEntity
8
1
100
AcDbVertex
100
AcDb2dVertex
62
5
10
-13.511486
20
155.848942
0
VERTEX
5
1b6
100
AcDbEntity
8
1
100
AcDbVertex
100
AcDb2dVertex
62
5
10
-12.511486
20
157.098942
0
VERTEX
5
1b7
100
AcDbEntity
8
1
100
AcDbVertex
100
AcDb2dVertex
62
5
10
-12.011486
20
158.036442
0
VERTEX
5
1b8
100
AcDbEntity
8
1
100
AcDbVertex
100
AcDb2dVertex
62
5
10
-9.511486
20
158.036442
0
VERTEX
5
1b9
100
AcDbEntity
8
1
100
AcDbVertex
100
AcDb2dVertex
62
5
10
-9.511486
20
157.723942
0
VERTEX
5
1ba
100
AcDbEntity
8
1
100
AcDbVertex
100
AcDb2dVertex
62
5
10
-10.261486
20
155.848942
0
VERTEX
5
1bb
100
AcDbEntity
8
1
100
AcDbVertex
100
AcDb2dVertex
62
5
10
-11.511486
20
153.973942
0
VERTEX
5
1bc
100
AcDbEntity
8
1
100
AcDbVertex
100
AcDb2dVertex
62
5
10
-13.011486
20
152.411442
0
SEQEND
5
1bd
100
AcDbEntity
8
1
0
POLYLINE
5
1be
100
AcDbEntity
8
1
6
CONTINUOUS
62
5
100
AcDb2dPolyline
66
1
10
0.0
20
0.0
30
0.0
70
0
0
VERTEX
5
1bf
100
AcDbEntity
8
1
100
AcDbVertex
100
AcDb2dVertex
62
5
10
-1.511486
20
149.286442
0
VERTEX
5
1c0
100
AcDbEntity
8
1
100
AcDbVertex
100
AcDb2dVertex
62
5
10
-3.511486
20
146.786442
0
VERTEX
5
1c1
100
AcDbEntity
8
1
100
AcDbVertex
100
AcDb2dVertex
62
5
10
-5.761486
20
145.223942
0
SEQEND
5
1c2
100
AcDbEntity
8
1
0
LINE
5
1c3
100
AcDbEntity
8
1
100
AcDbLine
6
CONTINUOUS
62
5
10
-3.011486
20
147.411442
11
-3.011486
21
142.098942
0
POLYLINE
5
1c4
100
AcDbEntity
8
1
6
CONTINUOUS
62
5
100
AcDb2dPolyline
66
1
10
0.0
20
0.0
30
0.0
70
0
0
VERTEX
5
1c5
100
AcDbEntity
8
1
100
AcDbVertex
100
AcDb2dVertex
62
5
10
3.988514
20
146.786442
0
VERTEX
5
1c6
100
AcDbEntity
8
1
100
AcDbVertex
100
AcDb2dVertex
62
5
10
4.238514
20
146.786442
0
VERTEX
5
1c7
100
AcDbEntity
8
1
100
AcDbVertex
100
AcDb2dVertex
62
5
10
5.988514
20
145.536442
0
SEQEND
5
1c8
100
AcDbEntity
8
1
0
LINE
5
1c9
100
AcDbEntity
8
1
100
AcDbLine
6
CONTINUOUS
62
5
10
3.988514
20
149.598942
11
3.988514
21
142.098942
0
POLYLINE
5
1ca
100
AcDbEntity
8
1
6
CONTINUOUS
62
5
100
AcDb2dPolyline
66
1
10
0.0
20
0.0
30
0.0
70
0
0
VERTEX
5
1cb
100
AcDbEntity
8
1
100
AcDbVertex
100
AcDb2dVertex
62
5
10
-30.261486
20
148.036442
0
VERTEX
5
1cc
100
AcDbEntity
8
1
100
AcDbVertex
100
AcDb2dVertex
62
5
10
-25.011486
20
148.036442
0
VERTEX
5
1cd
100
AcDbEntity
8
1
100
AcDbVertex
100
AcDb2dVertex
62
5
10
-25.011486
20
147.723942
0
VERTEX
5
1ce
100
AcDbEntity
8
1
100
AcDbVertex
100
AcDb2dVertex
62
5
10
-26.761486
20
145.848942
0
VERTEX
5
1cf
100
AcDbEntity
8
1
100
AcDbVertex
100
AcDb2dVertex
62
5
10
-27.511486
20
145.848942
0
SEQEND
5
1d0
100
AcDbEntity
8
1
0
POLYLINE
5
1d1
100
AcDbEntity
8
1
6
CONTINUOUS
62
5
100
AcDb2dPolyline
66
1
10
0.0
20
0.0
30
0.0
70
0
0
VERTEX
5
1d2
100
AcDbEntity
8
1
100
AcDbVertex
100
AcDb2dVertex
62
5
10
-27.511486
20
146.786442
0
VERTEX
5
1d3
100
AcDbEntity
8
1
100
AcDbVertex
100
AcDb2dVertex
62
5
10
-27.511486
20
145.223942
0
VERTEX
5
1d4
100
AcDbEntity
8
1
100
AcDbVertex
100
AcDb2dVertex
62
5
10
-28.261486
20
143.348942
0
VERTEX
5
1d5
100
AcDbEntity
8
1
100
AcDbVertex
100
AcDb2dVertex
62
5
10
-29.261486
20
142.098942
0
SEQEND
5
1d6
100
AcDbEntity
8
1
0
LINE
5
1d7
100
AcDbEntity
8
1
100
AcDbLine
6
CONTINUOUS
62
5
10
-22.011486
20
146.786442
11
-17.011486
21
146.786442
0
POLYLINE
5
1d8
100
AcDbEntity
8
1
6
CONTINUOUS
62
5
100
AcDb2dPolyline
66
1
10
0.0
20
0.0
30
0.0
70
0
0
VERTEX
5
1d9
100
AcDbEntity
8
1
100
AcDbVertex
100
AcDb2dVertex
62
5
10
-19.511486
20
148.661442
0
VERTEX
5
1da
100
AcDbEntity
8
1
100
AcDbVertex
100
AcDb2dVertex
62
5
10
-19.511486
20
142.411442
0
VERTEX
5
1db
100
AcDbEntity
8
1
100
AcDbVertex
100
AcDb2dVertex
62
5
10
-20.011486
20
142.411442
0
SEQEND
5
1dc
100
AcDbEntity
8
1
0
LINE
5
1dd
100
AcDbEntity
8
1
100
AcDbLine
6
CONTINUOUS
62
5
10
-20.761486
20
145.223942
11
-22.011486
21
143.348942
0
LINE
5
1de
100
AcDbEntity
8
1
100
AcDbLine
6
CONTINUOUS
62
5
10
-18.011486
20
145.223942
11
-16.761486
21
143.661442
0
POLYLINE
5
1df
100
AcDbEntity
8
1
6
CONTINUOUS
62
5
100
AcDb2dPolyline
66
1
10
0.0
20
0.0
30
0.0
70
0
0
VERTEX
5
1e0
100
AcDbEntity
8
1
100
AcDbVertex
100
AcDb2dVertex
62
5
10
-13.511486
20
146.161442
0
VERTEX
5
1e1
100
AcDbEntity
8
1
100
AcDbVertex
100
AcDb2dVertex
62
5
10
-13.511486
20
148.348942
0
VERTEX
5
1e2
100
AcDbEntity
8
1
100
AcDbVertex
100
AcDb2dVertex
62
5
10
-9.511486
20
148.348942
0
VERTEX
5
1e3
100
AcDbEntity
8
1
100
AcDbVertex
100
AcDb2dVertex
62
5
10
-9.511486
20
147.411442
0
VERTEX
5
1e4
100
AcDbEntity
8
1
100
AcDbVertex
100
AcDb2dVertex
62
5
10
-9.761486
20
145.848942
0
VERTEX
5
1e5
100
AcDbEntity
8
1
100
AcDbVertex
100
AcDb2dVertex
62
5
10
-10.261486
20
144.598942
0
VERTEX
5
1e6
100
AcDbEntity
8
1
100
AcDbVertex
100
AcDb2dVertex
62
5
10
-10.761486
20
143.661442
0
VERTEX
5
1e7
100
AcDbEntity
8
1
100
AcDbVertex
100
AcDb2dVertex
62
5
10
-11.761486
20
142.411442
0
SEQEND
5
1e8
100
AcDbEntity
8
1
0
LINE
5
1e9
100
AcDbEntity
8
1
100
AcDbLine
6
CONTINUOUS
62
5
10
-9.761486
20
122.348942
11
-9.761486
21
114.848942
0
POLYLINE
5
1ea
100
AcDbEntity
8
1
6
CONTINUOUS
62
5
100
AcDb2dPolyline
66
1
10
0.0
20
0.0
30
0.0
70
0
0
VERTEX
5
1eb
100
AcDbEntity
8
1
100
AcDbVertex
100
AcDb2dVertex
62
5
10
-9.761486
20
122.348942
0
VERTEX
5
1ec
100
AcDbEntity
8
1
100
AcDbVertex
100
AcDb2dVertex
62
5
10
-8.511486
20
122.348942
0
VERTEX
5
1ed
100
AcDbEntity
8
1
100
AcDbVertex
100
AcDb2dVertex
62
5
10
-7.573986
20
122.036442
0
VERTEX
5
1ee
100
AcDbEntity
8
1
100
AcDbVertex
100
AcDb2dVertex
62
5
10
-6.948986
20
121.411442
0
VERTEX
5
1ef
100
AcDbEntity
8
1
100
AcDbVertex
100
AcDb2dVertex
62
5
10
-6.636486
20
120.786442
0
VERTEX
5
1f0
100
AcDbEntity
8
1
100
AcDbVertex
100
AcDb2dVertex
62
5
10
-6.636486
20
119.848942
0
VERTEX
5
1f1
100
AcDbEntity
8
1
100
AcDbVertex
100
AcDb2dVertex
62
5
10
-6.948986
20
119.223942
0
VERTEX
5
1f2
100
AcDbEntity
8
1
100
AcDbVertex
100
AcDb2dVertex
62
5
10
-7.573986
20
118.598942
0
VERTEX
5
1f3
100
AcDbEntity
8
1
100
AcDbVertex
100
AcDb2dVertex
62
5
10
-8.511486
20
118.286442
0
VERTEX
5
1f4
100
AcDbEntity
8
1
100
AcDbVertex
100
AcDb2dVertex
62
5
10
-9.761486
20
118.286442
0
SEQEND
5
1f5
100
AcDbEntity
8
1
0
POLYLINE
5
1f6
100
AcDbEntity
8
1
6
CONTINUOUS
62
5
100
AcDb2dPolyline
66
1
10
0.0
20
0.0
30
0.0
70
0
0
VERTEX
5
1f7
100
AcDbEntity
8
1
100
AcDbVertex
100
AcDb2dVertex
62
5
10
-5.073986
20
122.348942
0
VERTEX
5
1f8
100
AcDbEntity
8
1
100
AcDbVertex
100
AcDb2dVertex
62
5
10
-4.136486
20
114.848942
0
VERTEX
5
1f9
100
AcDbEntity
8
1
100
AcDbVertex
100
AcDb2dVertex
62
5
10
-3.198986
20
122.348942
0
VERTEX
5
1fa
100
AcDbEntity
8
1
100
AcDbVertex
100
AcDb2dVertex
62
5
10
-2.261486
20
114.848942
0
VERTEX
5
1fb
100
AcDbEntity
8
1
100
AcDbVertex
100
AcDb2dVertex
62
5
10
-1.323986
20
122.348942
0
SEQEND
5
1fc
100
AcDbEntity
8
1
0
POLYLINE
5
1fd
100
AcDbEntity
8
1
6
CONTINUOUS
62
5
100
AcDb2dPolyline
66
1
10
0.0
20
0.0
30
0.0
70
0
0
VERTEX
5
1fe
100
AcDbEntity
8
1
100
AcDbVertex
100
AcDb2dVertex
62
5
10
-27.261486
20
122.348942
0
VERTEX
5
1ff
100
AcDbEntity
8
1
100
AcDbVertex
100
AcDb2dVertex
62
5
10
-30.073986
20
116.723942
0
VERTEX
5
200
100
AcDbEntity
8
1
100
AcDbVertex
100
AcDb2dVertex
62
5
10
-26.323986
20
116.723942
0
SEQEND
5
201
100
AcDbEntity
8
1
0
LINE
5
202
100
AcDbEntity
8
1
100
AcDbLine
6
CONTINUOUS
62
5
10
-27.261486
20
122.348942
11
-27.261486
21
114.848942
0
LINE
5
203
100
AcDbEntity
8
1
100
AcDbLine
6
CONTINUOUS
62
5
10
-27.886486
20
114.848942
11
-26.636486
21
114.848942
0
POLYLINE
5
204
100
AcDbEntity
8
1
6
CONTINUOUS
62
5
100
AcDb2dPolyline
66
1
10
0.0
20
0.0
30
0.0
70
0
0
VERTEX
5
205
100
AcDbEntity
8
1
100
AcDbVertex
100
AcDb2dVertex
62
5
10
-24.761486
20
120.473942
0
VERTEX
5
206
100
AcDbEntity
8
1
100
AcDbVertex
100
AcDb2dVertex
62
5
10
-24.448986
20
121.723942
0
VERTEX
5
207
100
AcDbEntity
8
1
100
AcDbVertex
100
AcDb2dVertex
62
5
10
-23.823986
20
122.348942
0
VERTEX
5
208
100
AcDbEntity
8
1
100
AcDbVertex
100
AcDb2dVertex
62
5
10
-22.886486
20
122.348942
0
VERTEX
5
209
100
AcDbEntity
8
1
100
AcDbVertex
100
AcDb2dVertex
62
5
10
-22.261486
20
122.036442
0
VERTEX
5
20a
100
AcDbEntity
8
1
100
AcDbVertex
100
AcDb2dVertex
62
5
10
-21.948986
20
121.098942
0
VERTEX
5
20b
100
AcDbEntity
8
1
100
AcDbVertex
100
AcDb2dVertex
62
5
10
-21.948986
20
119.848942
0
VERTEX
5
20c
100
AcDbEntity
8
1
100
AcDbVertex
100
AcDb2dVertex
62
5
10
-22.261486
20
119.223942
0
VERTEX
5
20d
100
AcDbEntity
8
1
100
AcDbVertex
100
AcDb2dVertex
62
5
10
-22.886486
20
118.598942
0
VERTEX
5
20e
100
AcDbEntity
8
1
100
AcDbVertex
100
AcDb2dVertex
62
5
10
-23.823986
20
118.598942
0
SEQEND
5
20f
100
AcDbEntity
8
1
0
POLYLINE
5
210
100
AcDbEntity
8
1
6
CONTINUOUS
62
5
100
AcDb2dPolyline
66
1
10
0.0
20
0.0
30
0.0
70
0
0
VERTEX
5
211
100
AcDbEntity
8
1
100
AcDbVertex
100
AcDb2dVertex
62
5
10
-22.886486
20
118.598942
0
VERTEX
5
212
100
AcDbEntity
8
1
100
AcDbVertex
100
AcDb2dVertex
62
5
10
-21.948986
20
117.973942
0
VERTEX
5
213
100
AcDbEntity
8
1
100
AcDbVertex
100
AcDb2dVertex
62
5
10
-21.636486
20
117.036442
0
VERTEX
5
214
100
AcDbEntity
8
1
100
AcDbVertex
100
AcDb2dVertex
62
5
10
-21.636486
20
116.098942
0
VERTEX
5
215
100
AcDbEntity
8
1
100
AcDbVertex
100
AcDb2dVertex
62
5
10
-21.948986
20
115.473942
0
VERTEX
5
216
100
AcDbEntity
8
1
100
AcDbVertex
100
AcDb2dVertex
62
5
10
-22.886486
20
114.848942
0
VERTEX
5
217
100
AcDbEntity
8
1
100
AcDbVertex
100
AcDb2dVertex
62
5
10
-23.823986
20
114.848942
0
VERTEX
5
218
100
AcDbEntity
8
1
100
AcDbVertex
100
AcDb2dVertex
62
5
10
-24.448986
20
115.161442
0
VERTEX
5
219
100
AcDbEntity
8
1
100
AcDbVertex
100
AcDb2dVertex
62
5
10
-25.073986
20
116.098942
0
SEQEND
5
21a
100
AcDbEntity
8
1
0
POLYLINE
5
21b
100
AcDbEntity
8
1
6
CONTINUOUS
62
5
100
AcDb2dPolyline
66
1
10
0.0
20
0.0
30
0.0
70
1
0
VERTEX
5
21c
100
AcDbEntity
8
1
100
AcDbVertex
100
AcDb2dVertex
62
5
10
-18.511486
20
122.348942
0
VERTEX
5
21d
100
AcDbEntity
8
1
100
AcDbVertex
100
AcDb2dVertex
62
5
10
-17.886486
20
122.348942
0
VERTEX
5
21e
100
AcDbEntity
8
1
100
AcDbVertex
100
AcDb2dVertex
62
5
10
-17.573986
20
122.036442
0
VERTEX
5
21f
100
AcDbEntity
8
1
100
AcDbVertex
100
AcDb2dVertex
62
5
10
-16.948986
20
120.786442
0
VERTEX
5
220
100
AcDbEntity
8
1
100
AcDbVertex
100
AcDb2dVertex
62
5
10
-16.636486
20
119.536442
0
VERTEX
5
221
100
AcDbEntity
8
1
100
AcDbVertex
100
AcDb2dVertex
62
5
10
-16.636486
20
117.661442
0
VERTEX
5
222
100
AcDbEntity
8
1
100
AcDbVertex
100
AcDb2dVertex
62
5
10
-16.948986
20
116.411442
0
VERTEX
5
223
100
AcDbEntity
8
1
100
AcDbVertex
100
AcDb2dVertex
62
5
10
-17.573986
20
115.161442
0
VERTEX
5
224
100
AcDbEntity
8
1
100
AcDbVertex
100
AcDb2dVertex
62
5
10
-17.886486
20
114.848942
0
VERTEX
5
225
100
AcDbEntity
8
1
100
AcDbVertex
100
AcDb2dVertex
62
5
10
-18.511486
20
114.848942
0
VERTEX
5
226
100
AcDbEntity
8
1
100
AcDbVertex
100
AcDb2dVertex
62
5
10
-18.823986
20
115.161442
0
VERTEX
5
227
100
AcDbEntity
8
1
100
AcDbVertex
100
AcDb2dVertex
62
5
10
-19.448986
20
116.411442
0
VERTEX
5
228
100
AcDbEntity
8
1
100
AcDbVertex
100
AcDb2dVertex
62
5
10
-19.761486
20
117.661442
0
VERTEX
5
229
100
AcDbEntity
8
1
100
AcDbVertex
100
AcDb2dVertex
62
5
10
-19.761486
20
119.536442
0
VERTEX
5
22a
100
AcDbEntity
8
1
100
AcDbVertex
100
AcDb2dVertex
62
5
10
-19.448986
20
120.786442
0
VERTEX
5
22b
100
AcDbEntity
8
1
100
AcDbVertex
100
AcDb2dVertex
62
5
10
-18.823986
20
122.036442
0
VERTEX
5
22c
100
AcDbEntity
8
1
100
AcDbVertex
100
AcDb2dVertex
62
5
10
-18.511486
20
122.348942
0
SEQEND
5
22d
100
AcDbEntity
8
1
0
LINE
5
22e
100
AcDbEntity
8
1
100
AcDbLine
6
CONTINUOUS
62
5
10
-46.761486
20
157.098942
11
-44.761486
21
157.098942
0
LINE
5
22f
100
AcDbEntity
8
1
100
AcDbLine
6
CONTINUOUS
62
5
10
-47.011486
20
152.723942
11
-44.761486
21
153.973942
0
LINE
5
230
100
AcDbEntity
8
1
100
AcDbLine
6
CONTINUOUS
62
5
10
-45.761486
20
159.598942
11
-45.761486
21
153.348942
0
POLYLINE
5
231
100
AcDbEntity
8
1
6
CONTINUOUS
62
5
100
AcDb2dPolyline
66
1
10
0.0
20
0.0
30
0.0
70
1
0
VERTEX
5
232
100
AcDbEntity
8
1
100
AcDbVertex
100
AcDb2dVertex
62
5
10
-43.761486
20
159.286442
0
VERTEX
5
233
100
AcDbEntity
8
1
100
AcDbVertex
100
AcDb2dVertex
62
5
10
-43.761486
20
155.848942
0
VERTEX
5
234
100
AcDbEntity
8
1
100
AcDbVertex
100
AcDb2dVertex
62
5
10
-40.761486
20
155.848942
0
VERTEX
5
235
100
AcDbEntity
8
1
100
AcDbVertex
100
AcDb2dVertex
62
5
10
-40.761486
20
159.286442
0
VERTEX
5
236
100
AcDbEntity
8
1
100
AcDbVertex
100
AcDb2dVertex
62
5
10
-43.761486
20
159.286442
0
SEQEND
5
237
100
AcDbEntity
8
1
0
LINE
5
238
100
AcDbEntity
8
1
100
AcDbLine
6
CONTINUOUS
62
5
10
-43.761486
20
157.723942
11
-40.761486
21
157.723942
0
LINE
5
239
100
AcDbEntity
8
1
100
AcDbLine
6
CONTINUOUS
62
5
10
-42.261486
20
159.286442
11
-42.261486
21
152.098942
0
LINE
5
23a
100
AcDbEntity
8
1
100
AcDbLine
6
CONTINUOUS
62
5
10
-44.261486
20
154.286442
11
-40.261486
21
154.286442
0
LINE
5
23b
100
AcDbEntity
8
1
100
AcDbLine
6
CONTINUOUS
62
5
10
-45.011486
20
152.098942
11
-39.761486
21
152.098942
0
POLYLINE
5
23c
100
AcDbEntity
8
1
6
CONTINUOUS
62
5
100
AcDb2dPolyline
66
1
10
0.0
20
0.0
30
0.0
70
0
0
VERTEX
5
23d
100
AcDbEntity
8
1
100
AcDbVertex
100
AcDb2dVertex
62
5
10
-49.511486
20
168.848942
0
VERTEX
5
23e
100
AcDbEntity
8
1
100
AcDbVertex
100
AcDb2dVertex
62
5
10
-48.761486
20
162.848942
0
VERTEX
5
23f
100
AcDbEntity
8
1
100
AcDbVertex
100
AcDb2dVertex
62
5
10
-48.011486
20
168.848942
0
VERTEX
5
240
100
AcDbEntity
8
1
100
AcDbVertex
100
AcDb2dVertex
62
5
10
-47.261486
20
162.848942
0
VERTEX
5
241
100
AcDbEntity
8
1
100
AcDbVertex
100
AcDb2dVertex
62
5
10
-46.511486
20
168.848942
0
SEQEND
5
242
100
AcDbEntity
8
1
0
LINE
5
243
100
AcDbEntity
8
1
100
AcDbLine
6
CONTINUOUS
62
5
10
-44.761486
20
168.848942
11
-43.261486
21
168.848942
0
LINE
5
244
100
AcDbEntity
8
1
100
AcDbLine
6
CONTINUOUS
62
5
10
-44.011486
20
168.848942
11
-44.011486
21
162.848942
0
LINE
5
245
100
AcDbEntity
8
1
100
AcDbLine
6
CONTINUOUS
62
5
10
-44.761486
20
162.848942
11
-43.261486
21
162.848942
0
LINE
5
246
100
AcDbEntity
8
1
100
AcDbLine
6
CONTINUOUS
62
5
10
-41.261486
20
168.848942
11
-41.261486
21
162.848942
0
POLYLINE
5
247
100
AcDbEntity
8
1
6
CONTINUOUS
62
5
100
AcDb2dPolyline
66
1
10
0.0
20
0.0
30
0.0
70
0
0
VERTEX
5
248
100
AcDbEntity
8
1
100
AcDbVertex
100
AcDb2dVertex
62
5
10
-41.261486
20
168.848942
0
VERTEX
5
249
100
AcDbEntity
8
1
100
AcDbVertex
100
AcDb2dVertex
62
5
10
-40.011486
20
168.848942
0
VERTEX
5
24a
100
AcDbEntity
8
1
100
AcDbVertex
100
AcDb2dVertex
62
5
10
-39.511486
20
168.598942
0
VERTEX
5
24b
100
AcDbEntity
8
1
100
AcDbVertex
100
AcDb2dVertex
62
5
10
-39.011486
20
168.098942
0
VERTEX
5
24c
100
AcDbEntity
8
1
100
AcDbVertex
100
AcDb2dVertex
62
5
10
-38.761486
20
167.098942
0
VERTEX
5
24d
100
AcDbEntity
8
1
100
AcDbVertex
100
AcDb2dVertex
62
5
10
-38.761486
20
164.598942
0
VERTEX
5
24e
100
AcDbEntity
8
1
100
AcDbVertex
100
AcDb2dVertex
62
5
10
-39.011486
20
163.598942
0
VERTEX
5
24f
100
AcDbEntity
8
1
100
AcDbVertex
100
AcDb2dVertex
62
5
10
-39.511486
20
163.098942
0
VERTEX
5
250
100
AcDbEntity
8
1
100
AcDbVertex
100
AcDb2dVertex
62
5
10
-40.011486
20
162.848942
0
VERTEX
5
251
100
AcDbEntity
8
1
100
AcDbVertex
100
AcDb2dVertex
62
5
10
-41.261486
20
162.848942
0
SEQEND
5
252
100
AcDbEntity
8
1
0
POLYLINE
5
253
100
AcDbEntity
8
1
6
CONTINUOUS
62
5
100
AcDb2dPolyline
66
1
10
0.0
20
0.0
30
0.0
70
0
0
VERTEX
5
254
100
AcDbEntity
8
1
100
AcDbVertex
100
AcDb2dVertex
62
5
10
-34.761486
20
168.848942
0
VERTEX
5
255
100
AcDbEntity
8
1
100
AcDbVertex
100
AcDb2dVertex
62
5
10
-37.261486
20
168.848942
0
VERTEX
5
256
100
AcDbEntity
8
1
100
AcDbVertex
100
AcDb2dVertex
62
5
10
-37.261486
20
162.848942
0
VERTEX
5
257
100
AcDbEntity
8
1
100
AcDbVertex
100
AcDb2dVertex
62
5
10
-34.511486
20
162.848942
0
SEQEND
5
258
100
AcDbEntity
8
1
0
LINE
5
259
100
AcDbEntity
8
1
100
AcDbLine
6
CONTINUOUS
62
5
10
-37.261486
20
165.848942
11
-35.011486
21
165.848942
0
POLYLINE
5
25a
100
AcDbEntity
8
1
6
CONTINUOUS
62
5
100
AcDb2dPolyline
66
1
10
0.0
20
0.0
30
0.0
70
0
0
VERTEX
5
25b
100
AcDbEntity
8
1
100
AcDbVertex
100
AcDb2dVertex
62
5
10
-59.011486
20
168.848942
0
VERTEX
5
25c
100
AcDbEntity
8
1
100
AcDbVertex
100
AcDb2dVertex
62
5
10
-59.011486
20
164.348942
0
VERTEX
5
25d
100
AcDbEntity
8
1
100
AcDbVertex
100
AcDb2dVertex
62
5
10
-59.261486
20
163.348942
0
VERTEX
5
25e
100
AcDbEntity
8
1
100
AcDbVertex
100
AcDb2dVertex
62
5
10
-59.761486
20
162.848942
0
VERTEX
5
25f
100
AcDbEntity
8
1
100
AcDbVertex
100
AcDb2dVertex
62
5
10
-60.511486
20
162.848942
0
VERTEX
5
260
100
AcDbEntity
8
1
100
AcDbVertex
100
AcDb2dVertex
62
5
10
-61.011486
20
163.348942
0
VERTEX
5
261
100
AcDbEntity
8
1
100
AcDbVertex
100
AcDb2dVertex
62
5
10
-61.261486
20
164.348942
0
SEQEND
5
262
100
AcDbEntity
8
1
0
POLYLINE
5
263
100
AcDbEntity
8
1
6
CONTINUOUS
62
5
100
AcDb2dPolyline
66
1
10
0.0
20
0.0
30
0.0
70
0
0
VERTEX
5
264
100
AcDbEntity
8
1
100
AcDbVertex
100
AcDb2dVertex
62
5
10
-55.011486
20
165.848942
0
VERTEX
5
265
100
AcDbEntity
8
1
100
AcDbVertex
100
AcDb2dVertex
62
5
10
-54.511486
20
166.348942
0
VERTEX
5
266
100
AcDbEntity
8
1
100
AcDbVertex
100
AcDb2dVertex
62
5
10
-54.261486
20
166.348942
0
VERTEX
5
267
100
AcDbEntity
8
1
100
AcDbVertex
100
AcDb2dVertex
62
5
10
-53.761486
20
165.848942
0
VERTEX
5
268
100
AcDbEntity
8
1
100
AcDbVertex
100
AcDb2dVertex
62
5
10
-53.761486
20
165.598942
0
VERTEX
5
269
100
AcDbEntity
8
1
100
AcDbVertex
100
AcDb2dVertex
62
5
10
-54.261486
20
165.098942
0
VERTEX
5
26a
100
AcDbEntity
8
1
100
AcDbVertex
100
AcDb2dVertex
62
5
10
-54.511486
20
165.098942
0
VERTEX
5
26b
100
AcDbEntity
8
1
100
AcDbVertex
100
AcDb2dVertex
62
5
10
-55.011486
20
165.598942
0
VERTEX
5
26c
100
AcDbEntity
8
1
100
AcDbVertex
100
AcDb2dVertex
62
5
10
-55.011486
20
165.848942
0
VERTEX
5
26d
100
AcDbEntity
8
1
100
AcDbVertex
100
AcDb2dVertex
62
5
10
-53.761486
20
165.848942
0
SEQEND
5
26e
100
AcDbEntity
8
1
0
LINE
5
26f
100
AcDbEntity
8
1
100
AcDbLine
6
CONTINUOUS
62
5
10
-53.761486
20
165.598942
11
-55.011486
21
165.598942
0
LINE
5
270
100
AcDbEntity
8
1
100
AcDbLine
6
CONTINUOUS
62
5
10
-54.761486
20
165.348942
11
-54.011486
21
165.348942
0
LINE
5
271
100
AcDbEntity
8
1
100
AcDbLine
6
CONTINUOUS
62
5
10
-54.011486
20
166.098942
11
-54.761486
21
166.098942
0
POLYLINE
5
272
100
AcDbEntity
8
1
6
CONTINUOUS
62
5
100
AcDb2dPolyline
66
1
10
0.0
20
0.0
30
0.0
70
0
0
VERTEX
5
273
100
AcDbEntity
8
1
100
AcDbVertex
100
AcDb2dVertex
62
5
10
-45.511486
20
148.348942
0
VERTEX
5
274
100
AcDbEntity
8
1
100
AcDbVertex
100
AcDb2dVertex
62
5
10
-45.511486
20
143.036442
0
VERTEX
5
275
100
AcDbEntity
8
1
100
AcDbVertex
100
AcDb2dVertex
62
5
10
-45.011486
20
142.411442
0
VERTEX
5
276
100
AcDbEntity
8
1
100
AcDbVertex
100
AcDb2dVertex
62
5
10
-41.511486
20
142.411442
0
SEQEND
5
277
100
AcDbEntity
8
1
0
LINE
5
278
100
AcDbEntity
8
1
100
AcDbLine
6
CONTINUOUS
62
5
10
-42.011486
20
146.473942
11
-45.511486
21
145.536442
0
POLYLINE
5
279
100
AcDbEntity
8
1
6
CONTINUOUS
62
5
100
AcDb2dPolyline
66
1
10
0.0
20
0.0
30
0.0
70
1
0
VERTEX
5
27a
100
AcDbEntity
8
1
100
AcDbVertex
100
AcDb2dVertex
62
5
10
-42.011486
20
148.348942
0
VERTEX
5
27b
100
AcDbEntity
8
1
100
AcDbVertex
100
AcDb2dVertex
62
5
10
-41.511486
20
148.973942
0
VERTEX
5
27c
100
AcDbEntity
8
1
100
AcDbVertex
100
AcDb2dVertex
62
5
10
-41.261486
20
148.973942
0
VERTEX
5
27d
100
AcDbEntity
8
1
100
AcDbVertex
100
AcDb2dVertex
62
5
10
-40.761486
20
148.348942
0
VERTEX
5
27e
100
AcDbEntity
8
1
100
AcDbVertex
100
AcDb2dVertex
62
5
10
-40.761486
20
148.036442
0
VERTEX
5
27f
100
AcDbEntity
8
1
100
AcDbVertex
100
AcDb2dVertex
62
5
10
-41.261486
20
147.411442
0
VERTEX
5
280
100
AcDbEntity
8
1
100
AcDbVertex
100
AcDb2dVertex
62
5
10
-41.511486
20
147.411442
0
VERTEX
5
281
100
AcDbEntity
8
1
100
AcDbVertex
100
AcDb2dVertex
62
5
10
-42.011486
20
148.036442
0
VERTEX
5
282
100
AcDbEntity
8
1
100
AcDbVertex
100
AcDb2dVertex
62
5
10
-42.011486
20
148.348942
0
SEQEND
5
283
100
AcDbEntity
8
1
0
POLYLINE
5
284
100
AcDbEntity
8
1
6
CONTINUOUS
62
5
100
AcDb2dPolyline
66
1
10
0.0
20
0.0
30
0.0
70
0
0
VERTEX
5
285
100
AcDbEntity
8
1
100
AcDbVertex
100
AcDb2dVertex
62
5
10
-36.761486
20
146.161442
0
VERTEX
5
286
100
AcDbEntity
8
1
100
AcDbVertex
100
AcDb2dVertex
62
5
10
-34.761486
20
146.161442
0
VERTEX
5
287
100
AcDbEntity
8
1
100
AcDbVertex
100
AcDb2dVertex
62
5
10
-35.011486
20
143.036442
0
SEQEND
5
288
100
AcDbEntity
8
1
0
LINE
5
289
100
AcDbEntity
8
1
100
AcDbLine
6
CONTINUOUS
62
5
10
-37.511486
20
143.036442
11
-33.261486
21
143.036442
0
LINE
5
28a
100
AcDbEntity
8
1
100
AcDbLine
6
CONTINUOUS
62
5
10
-72.261486
20
171.848942
11
-72.261486
21
139.848942
0
LINE
5
28b
100
AcDbEntity
8
1
100
AcDbLine
6
CONTINUOUS
62
5
10
-49.761486
20
122.348942
11
-49.761486
21
114.848942
0
LINE
5
28c
100
AcDbEntity
8
1
100
AcDbLine
6
CONTINUOUS
62
5
10
-49.761486
20
118.598942
11
-46.948986
21
118.598942
0
LINE
5
28d
100
AcDbEntity
8
1
100
AcDbLine
6
CONTINUOUS
62
5
10
-46.948986
20
122.348942
11
-46.948986
21
114.848942
0
POLYLINE
5
28e
100
AcDbEntity
8
1
6
CONTINUOUS
62
5
100
AcDb2dPolyline
66
1
10
0.0
20
0.0
30
0.0
70
0
0
VERTEX
5
28f
100
AcDbEntity
8
1
100
AcDbVertex
100
AcDb2dVertex
62
5
10
-44.761486
20
114.848942
0
VERTEX
5
290
100
AcDbEntity
8
1
100
AcDbVertex
100
AcDb2dVertex
62
5
10
-44.761486
20
122.348942
0
VERTEX
5
291
100
AcDbEntity
8
1
100
AcDbVertex
100
AcDb2dVertex
62
5
10
-43.198986
20
114.848942
0
VERTEX
5
292
100
AcDbEntity
8
1
100
AcDbVertex
100
AcDb2dVertex
62
5
10
-41.636486
20
122.348942
0
VERTEX
5
293
100
AcDbEntity
8
1
100
AcDbVertex
100
AcDb2dVertex
62
5
10
-41.636486
20
114.848942
0
SEQEND
5
294
100
AcDbEntity
8
1
0
POLYLINE
5
295
100
AcDbEntity
8
1
6
CONTINUOUS
62
5
100
AcDb2dPolyline
66
1
10
0.0
20
0.0
30
0.0
70
1
0
VERTEX
5
296
100
AcDbEntity
8
1
100
AcDbVertex
100
AcDb2dVertex
62
5
10
-38.511486
20
122.348942
0
VERTEX
5
297
100
AcDbEntity
8
1
100
AcDbVertex
100
AcDb2dVertex
62
5
10
-37.886486
20
122.348942
0
VERTEX
5
298
100
AcDbEntity
8
1
100
AcDbVertex
100
AcDb2dVertex
62
5
10
-37.573986
20
122.036442
0
VERTEX
5
299
100
AcDbEntity
8
1
100
AcDbVertex
100
AcDb2dVertex
62
5
10
-36.948986
20
120.786442
0
VERTEX
5
29a
100
AcDbEntity
8
1
100
AcDbVertex
100
AcDb2dVertex
62
5
10
-36.636486
20
119.536442
0
VERTEX
5
29b
100
AcDbEntity
8
1
100
AcDbVertex
100
AcDb2dVertex
62
5
10
-36.636486
20
117.661442
0
VERTEX
5
29c
100
AcDbEntity
8
1
100
AcDbVertex
100
AcDb2dVertex
62
5
10
-36.948986
20
116.411442
0
VERTEX
5
29d
100
AcDbEntity
8
1
100
AcDbVertex
100
AcDb2dVertex
62
5
10
-37.573986
20
115.161442
0
VERTEX
5
29e
100
AcDbEntity
8
1
100
AcDbVertex
100
AcDb2dVertex
62
5
10
-37.886486
20
114.848942
0
VERTEX
5
29f
100
AcDbEntity
8
1
100
AcDbVertex
100
AcDb2dVertex
62
5
10
-38.511486
20
114.848942
0
VERTEX
5
2a0
100
AcDbEntity
8
1
100
AcDbVertex
100
AcDb2dVertex
62
5
10
-38.823986
20
115.161442
0
VERTEX
5
2a1
100
AcDbEntity
8
1
100
AcDbVertex
100
AcDb2dVertex
62
5
10
-39.448986
20
116.411442
0
VERTEX
5
2a2
100
AcDbEntity
8
1
100
AcDbVertex
100
AcDb2dVertex
62
5
10
-39.761486
20
117.661442
0
VERTEX
5
2a3
100
AcDbEntity
8
1
100
AcDbVertex
100
AcDb2dVertex
62
5
10
-39.761486
20
119.536442
0
VERTEX
5
2a4
100
AcDbEntity
8
1
100
AcDbVertex
100
AcDb2dVertex
62
5
10
-39.448986
20
120.786442
0
VERTEX
5
2a5
100
AcDbEntity
8
1
100
AcDbVertex
100
AcDb2dVertex
62
5
10
-38.823986
20
122.036442
0
VERTEX
5
2a6
100
AcDbEntity
8
1
100
AcDbVertex
100
AcDb2dVertex
62
5
10
-38.511486
20
122.348942
0
SEQEND
5
2a7
100
AcDbEntity
8
1
0
POLYLINE
5
2a8
100
AcDbEntity
8
1
6
CONTINUOUS
62
5
100
AcDb2dPolyline
66
1
10
0.0
20
0.0
30
0.0
70
0
0
VERTEX
5
2a9
100
AcDbEntity
8
1
100
AcDbVertex
100
AcDb2dVertex
62
5
10
-60.073986
20
122.348942
0
VERTEX
5
2aa
100
AcDbEntity
8
1
100
AcDbVertex
100
AcDb2dVertex
62
5
10
-59.136486
20
114.848942
0
VERTEX
5
2ab
100
AcDbEntity
8
1
100
AcDbVertex
100
AcDb2dVertex
62
5
10
-58.198986
20
122.348942
0
VERTEX
5
2ac
100
AcDbEntity
8
1
100
AcDbVertex
100
AcDb2dVertex
62
5
10
-57.261486
20
114.848942
0
VERTEX
5
2ad
100
AcDbEntity
8
1
100
AcDbVertex
100
AcDb2dVertex
62
5
10
-56.323986
20
122.348942
0
SEQEND
5
2ae
100
AcDbEntity
8
1
0
POLYLINE
5
2af
100
AcDbEntity
8
1
6
CONTINUOUS
62
5
100
AcDb2dPolyline
66
1
10
0.0
20
0.0
30
0.0
70
0
0
VERTEX
5
2b0
100
AcDbEntity
8
1
100
AcDbVertex
100
AcDb2dVertex
62
5
10
-51.948986
20
122.348942
0
VERTEX
5
2b1
100
AcDbEntity
8
1
100
AcDbVertex
100
AcDb2dVertex
62
5
10
-51.948986
20
116.723942
0
VERTEX
5
2b2
100
AcDbEntity
8
1
100
AcDbVertex
100
AcDb2dVertex
62
5
10
-52.261486
20
115.473942
0
VERTEX
5
2b3
100
AcDbEntity
8
1
100
AcDbVertex
100
AcDb2dVertex
62
5
10
-52.886486
20
114.848942
0
VERTEX
5
2b4
100
AcDbEntity
8
1
100
AcDbVertex
100
AcDb2dVertex
62
5
10
-53.823986
20
114.848942
0
VERTEX
5
2b5
100
AcDbEntity
8
1
100
AcDbVertex
100
AcDb2dVertex
62
5
10
-54.448986
20
115.473942
0
VERTEX
5
2b6
100
AcDbEntity
8
1
100
AcDbVertex
100
AcDb2dVertex
62
5
10
-54.761486
20
116.723942
0
SEQEND
5
2b7
100
AcDbEntity
8
1
0
LINE
5
2b8
100
AcDbEntity
8
1
100
AcDbLine
6
CONTINUOUS
62
5
10
-38.261486
20
159.598942
11
-37.261486
21
158.661442
0
POLYLINE
5
2b9
100
AcDbEntity
8
1
6
CONTINUOUS
62
5
100
AcDb2dPolyline
66
1
10
0.0
20
0.0
30
0.0
70
0
0
VERTEX
5
2ba
100
AcDbEntity
8
1
100
AcDbVertex
100
AcDb2dVertex
62
5
10
-38.511486
20
156.473942
0
VERTEX
5
2bb
100
AcDbEntity
8
1
100
AcDbVertex
100
AcDb2dVertex
62
5
10
-37.261486
20
156.473942
0
VERTEX
5
2bc
100
AcDbEntity
8
1
100
AcDbVertex
100
AcDb2dVertex
62
5
10
-37.261486
20
153.348942
0
VERTEX
5
2bd
100
AcDbEntity
8
1
100
AcDbVertex
100
AcDb2dVertex
62
5
10
-38.511486
20
151.786442
0
SEQEND
5
2be
100
AcDbEntity
8
1
0
POLYLINE
5
2bf
100
AcDbEntity
8
1
6
CONTINUOUS
62
5
100
AcDb2dPolyline
66
1
10
0.0
20
0.0
30
0.0
70
0
0
VERTEX
5
2c0
100
AcDbEntity
8
1
100
AcDbVertex
100
AcDb2dVertex
62
5
10
-37.261486
20
153.348942
0
VERTEX
5
2c1
100
AcDbEntity
8
1
100
AcDbVertex
100
AcDb2dVertex
62
5
10
-36.511486
20
152.098942
0
VERTEX
5
2c2
100
AcDbEntity
8
1
100
AcDbVertex
100
AcDb2dVertex
62
5
10
-35.511486
20
151.786442
0
VERTEX
5
2c3
100
AcDbEntity
8
1
100
AcDbVertex
100
AcDb2dVertex
62
5
10
-31.761486
20
151.786442
0
SEQEND
5
2c4
100
AcDbEntity
8
1
0
POLYLINE
5
2c5
100
AcDbEntity
8
1
6
CONTINUOUS
62
5
100
AcDb2dPolyline
66
1
10
0.0
20
0.0
30
0.0
70
0
0
VERTEX
5
2c6
100
AcDbEntity
8
1
100
AcDbVertex
100
AcDb2dVertex
62
5
10
-34.511486
20
157.098942
0
VERTEX
5
2c7
100
AcDbEntity
8
1
100
AcDbVertex
100
AcDb2dVertex
62
5
10
-35.261486
20
155.223942
0
VERTEX
5
2c8
100
AcDbEntity
8
1
100
AcDbVertex
100
AcDb2dVertex
62
5
10
-36.011486
20
153.973942
0
VERTEX
5
2c9
100
AcDbEntity
8
1
100
AcDbVertex
100
AcDb2dVertex
62
5
10
-36.511486
20
153.348942
0
SEQEND
5
2ca
100
AcDbEntity
8
1
0
POLYLINE
5
2cb
100
AcDbEntity
8
1
6
CONTINUOUS
62
5
100
AcDb2dPolyline
66
1
10
0.0
20
0.0
30
0.0
70
0
0
VERTEX
5
2cc
100
AcDbEntity
8
1
100
AcDbVertex
100
AcDb2dVertex
62
5
10
-35.761486
20
159.911442
0
VERTEX
5
2cd
100
AcDbEntity
8
1
100
AcDbVertex
100
AcDb2dVertex
62
5
10
-34.511486
20
159.911442
0
VERTEX
5
2ce
100
AcDbEntity
8
1
100
AcDbVertex
100
AcDb2dVertex
62
5
10
-34.511486
20
157.098942
0
VERTEX
5
2cf
100
AcDbEntity
8
1
100
AcDbVertex
100
AcDb2dVertex
62
5
10
-33.761486
20
155.223942
0
VERTEX
5
2d0
100
AcDbEntity
8
1
100
AcDbVertex
100
AcDb2dVertex
62
5
10
-32.761486
20
153.973942
0
VERTEX
5
2d1
100
AcDbEntity
8
1
100
AcDbVertex
100
AcDb2dVertex
62
5
10
-32.011486
20
153.348942
0
SEQEND
5
2d2
100
AcDbEntity
8
1
0
POLYLINE
5
2d3
100
AcDbEntity
8
1
6
CONTINUOUS
62
5
100
AcDb2dPolyline
66
1
10
0.0
20
0.0
30
0.0
70
0
0
VERTEX
5
2d4
100
AcDbEntity
8
1
100
AcDbVertex
100
AcDb2dVertex
62
5
10
-34.761486
20
120.473942
0
VERTEX
5
2d5
100
AcDbEntity
8
1
100
AcDbVertex
100
AcDb2dVertex
62
5
10
-34.448986
20
121.723942
0
VERTEX
5
2d6
100
AcDbEntity
8
1
100
AcDbVertex
100
AcDb2dVertex
62
5
10
-33.823986
20
122.348942
0
VERTEX
5
2d7
100
AcDbEntity
8
1
100
AcDbVertex
100
AcDb2dVertex
62
5
10
-32.886486
20
122.348942
0
VERTEX
5
2d8
100
AcDbEntity
8
1
100
AcDbVertex
100
AcDb2dVertex
62
5
10
-32.261486
20
122.036442
0
VERTEX
5
2d9
100
AcDbEntity
8
1
100
AcDbVertex
100
AcDb2dVertex
62
5
10
-31.948986
20
121.098942
0
VERTEX
5
2da
100
AcDbEntity
8
1
100
AcDbVertex
100
AcDb2dVertex
62
5
10
-31.948986
20
119.848942
0
VERTEX
5
2db
100
AcDbEntity
8
1
100
AcDbVertex
100
AcDb2dVertex
62
5
10
-32.261486
20
119.223942
0
VERTEX
5
2dc
100
AcDbEntity
8
1
100
AcDbVertex
100
AcDb2dVertex
62
5
10
-32.886486
20
118.598942
0
VERTEX
5
2dd
100
AcDbEntity
8
1
100
AcDbVertex
100
AcDb2dVertex
62
5
10
-33.823986
20
118.598942
0
SEQEND
5
2de
100
AcDbEntity
8
1
0
POLYLINE
5
2df
100
AcDbEntity
8
1
6
CONTINUOUS
62
5
100
AcDb2dPolyline
66
1
10
0.0
20
0.0
30
0.0
70
0
0
VERTEX
5
2e0
100
AcDbEntity
8
1
100
AcDbVertex
100
AcDb2dVertex
62
5
10
-32.886486
20
118.598942
0
VERTEX
5
2e1
100
AcDbEntity
8
1
100
AcDbVertex
100
AcDb2dVertex
62
5
10
-31.948986
20
117.973942
0
VERTEX
5
2e2
100
AcDbEntity
8
1
100
AcDbVertex
100
AcDb2dVertex
62
5
10
-31.636486
20
117.036442
0
VERTEX
5
2e3
100
AcDbEntity
8
1
100
AcDbVertex
100
AcDb2dVertex
62
5
10
-31.636486
20
116.098942
0
VERTEX
5
2e4
100
AcDbEntity
8
1
100
AcDbVertex
100
AcDb2dVertex
62
5
10
-31.948986
20
115.473942
0
VERTEX
5
2e5
100
AcDbEntity
8
1
100
AcDbVertex
100
AcDb2dVertex
62
5
10
-32.886486
20
114.848942
0
VERTEX
5
2e6
100
AcDbEntity
8
1
100
AcDbVertex
100
AcDb2dVertex
62
5
10
-33.823986
20
114.848942
0
VERTEX
5
2e7
100
AcDbEntity
8
1
100
AcDbVertex
100
AcDb2dVertex
62
5
10
-34.448986
20
115.161442
0
VERTEX
5
2e8
100
AcDbEntity
8
1
100
AcDbVertex
100
AcDb2dVertex
62
5
10
-35.073986
20
116.098942
0
SEQEND
5
2e9
100
AcDbEntity
8
1
0
POLYLINE
5
2ea
100
AcDbEntity
8
1
6
DOT2
62
5
100
AcDb2dPolyline
66
1
10
0.0
20
0.0
30
0.0
70
0
0
VERTEX
5
2eb
100
AcDbEntity
8
1
100
AcDbVertex
100
AcDb2dVertex
62
5
10
0.788514
20
74.661442
0
VERTEX
5
2ec
100
AcDbEntity
8
1
100
AcDbVertex
100
AcDb2dVertex
62
5
10
0.788514
20
75.598942
0
VERTEX
5
2ed
100
AcDbEntity
8
1
100
AcDbVertex
100
AcDb2dVertex
62
5
10
3.913514
20
75.598942
0
VERTEX
5
2ee
100
AcDbEntity
8
1
100
AcDbVertex
100
AcDb2dVertex
62
5
10
3.913514
20
74.973942
0
VERTEX
5
2ef
100
AcDbEntity
8
1
100
AcDbVertex
100
AcDb2dVertex
62
5
10
3.288514
20
73.411442
0
VERTEX
5
2f0
100
AcDbEntity
8
1
100
AcDbVertex
100
AcDb2dVertex
62
5
10
2.663514
20
71.223942
0
VERTEX
5
2f1
100
AcDbEntity
8
1
100
AcDbVertex
100
AcDb2dVertex
62
5
10
2.038514
20
68.098942
0
SEQEND
5
2f2
100
AcDbEntity
8
1
0
POLYLINE
5
2f3
100
AcDbEntity
8
1
6
DOT2
62
5
100
AcDb2dPolyline
66
1
10
0.0
20
0.0
30
0.0
70
1
0
VERTEX
5
2f4
100
AcDbEntity
8
1
100
AcDbVertex
100
AcDb2dVertex
62
5
10
7.038514
20
75.598942
0
VERTEX
5
2f5
100
AcDbEntity
8
1
100
AcDbVertex
100
AcDb2dVertex
62
5
10
7.663514
20
75.598942
0
VERTEX
5
2f6
100
AcDbEntity
8
1
100
AcDbVertex
100
AcDb2dVertex
62
5
10
7.976014
20
75.286442
0
VERTEX
5
2f7
100
AcDbEntity
8
1
100
AcDbVertex
100
AcDb2dVertex
62
5
10
8.601014
20
74.036442
0
VERTEX
5
2f8
100
AcDbEntity
8
1
100
AcDbVertex
100
AcDb2dVertex
62
5
10
8.913514
20
72.786442
0
VERTEX
5
2f9
100
AcDbEntity
8
1
100
AcDbVertex
100
AcDb2dVertex
62
5
10
8.913514
20
70.911442
0
VERTEX
5
2fa
100
AcDbEntity
8
1
100
AcDbVertex
100
AcDb2dVertex
62
5
10
8.601014
20
69.661442
0
VERTEX
5
2fb
100
AcDbEntity
8
1
100
AcDbVertex
100
AcDb2dVertex
62
5
10
7.976014
20
68.411442
0
VERTEX
5
2fc
100
AcDbEntity
8
1
100
AcDbVertex
100
AcDb2dVertex
62
5
10
7.663514
20
68.098942
0
VERTEX
5
2fd
100
AcDbEntity
8
1
100
AcDbVertex
100
AcDb2dVertex
62
5
10
7.038514
20
68.098942
0
VERTEX
5
2fe
100
AcDbEntity
8
1
100
AcDbVertex
100
AcDb2dVertex
62
5
10
6.726014
20
68.411442
0
VERTEX
5
2ff
100
AcDbEntity
8
1
100
AcDbVertex
100
AcDb2dVertex
62
5
10
6.101014
20
69.661442
0
VERTEX
5
300
100
AcDbEntity
8
1
100
AcDbVertex
100
AcDb2dVertex
62
5
10
5.788514
20
70.911442
0
VERTEX
5
301
100
AcDbEntity
8
1
100
AcDbVertex
100
AcDb2dVertex
62
5
10
5.788514
20
72.786442
0
VERTEX
5
302
100
AcDbEntity
8
1
100
AcDbVertex
100
AcDb2dVertex
62
5
10
6.101014
20
74.036442
0
VERTEX
5
303
100
AcDbEntity
8
1
100
AcDbVertex
100
AcDb2dVertex
62
5
10
6.726014
20
75.286442
0
VERTEX
5
304
100
AcDbEntity
8
1
100
AcDbVertex
100
AcDb2dVertex
62
5
10
7.038514
20
75.598942
0
SEQEND
5
305
100
AcDbEntity
8
1
0
ARC
5
306
100
AcDbEntity
8
1
100
AcDbCircle
6
CONTINUOUS
62
5
10
23.802527
20
10.748942
40
0.250000
100
AcDbArc
50
-89.999999
51
0.000000
0
LINE
5
307
100
AcDbEntity
8
1
100
AcDbLine
6
CONTINUOUS
62
5
10
24.052527
20
10.748942
11
24.052527
21
14.248942
0
ARC
5
308
100
AcDbEntity
8
1
100
AcDbCircle
6
CONTINUOUS
62
5
10
23.802527
20
14.248942
40
0.250000
100
AcDbArc
50
0.000000
51
89.999999
0
LINE
5
309
100
AcDbEntity
8
1
100
AcDbLine
6
CONTINUOUS
62
5
10
23.802527
20
14.498942
11
23.802527
21
14.498942
0
ARC
5
30a
100
AcDbEntity
8
1
100
AcDbCircle
6
CONTINUOUS
62
5
10
23.802527
20
14.248942
40
0.250000
100
AcDbArc
50
89.999999
51
179.999998
0
LINE
5
30b
100
AcDbEntity
8
1
100
AcDbLine
6
CONTINUOUS
62
5
10
23.552527
20
14.248942
11
23.552527
21
10.748942
0
ARC
5
30c
100
AcDbEntity
8
1
100
AcDbCircle
6
CONTINUOUS
62
5
10
23.802527
20
10.748942
40
0.250000
100
AcDbArc
50
179.999998
51
-89.999999
0
LINE
5
30d
100
AcDbEntity
8
1
100
AcDbLine
6
CONTINUOUS
62
5
10
23.802527
20
10.498942
11
23.802527
21
10.498942
0
ARC
5
30e
100
AcDbEntity
8
1
100
AcDbCircle
6
CONTINUOUS
62
5
10
11.806058
20
16.498942
40
1.000000
100
AcDbArc
50
-89.999999
51
0.000000
0
LINE
5
30f
100
AcDbEntity
8
1
100
AcDbLine
6
CONTINUOUS
62
5
10
12.806058
20
16.498942
11
12.806058
21
21.298942
0
ARC
5
310
100
AcDbEntity
8
1
100
AcDbCircle
6
CONTINUOUS
62
5
10
11.806058
20
21.298942
40
1.000000
100
AcDbArc
50
0.000000
51
89.999999
0
LINE
5
311
100
AcDbEntity
8
1
100
AcDbLine
6
CONTINUOUS
62
5
10
11.806058
20
22.298942
11
-1.793942
21
22.298942
0
ARC
5
312
100
AcDbEntity
8
1
100
AcDbCircle
6
CONTINUOUS
62
5
10
-1.793942
20
21.298942
40
1.000000
100
AcDbArc
50
89.999999
51
179.999998
0
LINE
5
313
100
AcDbEntity
8
1
100
AcDbLine
6
CONTINUOUS
62
5
10
-2.793942
20
21.298942
11
-2.793942
21
16.498942
0
ARC
5
314
100
AcDbEntity
8
1
100
AcDbCircle
6
CONTINUOUS
62
5
10
-1.793942
20
16.498942
40
1.000000
100
AcDbArc
50
179.999998
51
-89.999999
0
LINE
5
315
100
AcDbEntity
8
1
100
AcDbLine
6
CONTINUOUS
62
5
10
-1.793942
20
15.498942
11
11.806058
21
15.498942
0
LINE
5
316
100
AcDbEntity
8
1
100
AcDbLine
6
CONTINUOUS
62
5
10
-30.461486
20
33.348942
11
-30.461486
21
68.848942
0
LINE
5
317
100
AcDbEntity
8
1
100
AcDbLine
6
CONTINUOUS
62
5
10
39.538514
20
33.348942
11
39.538514
21
68.848942
0
POLYLINE
5
318
100
AcDbEntity
8
1
6
CONTINUOUS
62
5
100
AcDb2dPolyline
66
1
10
0.0
20
0.0
30
0.0
70
0
0
VERTEX
5
319
100
AcDbEntity
8
1
100
AcDbVertex
100
AcDb2dVertex
62
5
10
4.538514
20
66.848942
0
VERTEX
5
31a
100
AcDbEntity
8
1
100
AcDbVertex
100
AcDb2dVertex
62
5
10
-30.461486
20
66.848942
0
VERTEX
5
31b
100
AcDbEntity
8
1
100
AcDbVertex
100
AcDb2dVertex
62
5
10
-27.413486
20
67.356942
0
VERTEX
5
31c
100
AcDbEntity
8
1
100
AcDbVertex
100
AcDb2dVertex
62
5
10
-27.413486
20
66.340942
0
VERTEX
5
31d
100
AcDbEntity
8
1
100
AcDbVertex
100
AcDb2dVertex
62
5
10
-30.461486
20
66.848942
0
VERTEX
5
31e
100
AcDbEntity
8
1
100
AcDbVertex
100
AcDb2dVertex
62
5
10
-27.413486
20
67.102942
0
VERTEX
5
31f
100
AcDbEntity
8
1
100
AcDbVertex
100
AcDb2dVertex
62
5
10
-27.413486
20
66.594942
0
VERTEX
5
320
100
AcDbEntity
8
1
100
AcDbVertex
100
AcDb2dVertex
62
5
10
-30.461486
20
66.848942
0
SEQEND
5
321
100
AcDbEntity
8
1
0
POLYLINE
5
322
100
AcDbEntity
8
1
6
CONTINUOUS
62
5
100
AcDb2dPolyline
66
1
10
0.0
20
0.0
30
0.0
70
0
0
VERTEX
5
323
100
AcDbEntity
8
1
100
AcDbVertex
100
AcDb2dVertex
62
5
10
4.538514
20
66.848942
0
VERTEX
5
324
100
AcDbEntity
8
1
100
AcDbVertex
100
AcDb2dVertex
62
5
10
39.538514
20
66.848942
0
VERTEX
5
325
100
AcDbEntity
8
1
100
AcDbVertex
100
AcDb2dVertex
62
5
10
36.490514
20
66.340942
0
VERTEX
5
326
100
AcDbEntity
8
1
100
AcDbVertex
100
AcDb2dVertex
62
5
10
36.490514
20
67.356942
0
VERTEX
5
327
100
AcDbEntity
8
1
100
AcDbVertex
100
AcDb2dVertex
62
5
10
39.538514
20
66.848942
0
VERTEX
5
328
100
AcDbEntity
8
1
100
AcDbVertex
100
AcDb2dVertex
62
5
10
36.490514
20
66.594942
0
VERTEX
5
329
100
AcDbEntity
8
1
100
AcDbVertex
100
AcDb2dVertex
62
5
10
36.490514
20
67.102942
0
VERTEX
5
32a
100
AcDbEntity
8
1
100
AcDbVertex
100
AcDb2dVertex
62
5
10
39.538514
20
66.848942
0
SEQEND
5
32b
100
AcDbEntity
8
1
0
LINE
5
32c
100
AcDbEntity
8
1
100
AcDbLine
6
CONTINUOUS
62
5
10
-112.261486
20
139.848942
11
207.738514
21
139.848942
0
POLYLINE
5
32d
100
AcDbEntity
8
1
6
CONTINUOUS
62
5
100
AcDb2dPolyline
66
1
10
0.0
20
0.0
30
0.0
70
0
0
VERTEX
5
32e
100
AcDbEntity
8
1
100
AcDbVertex
100
AcDb2dVertex
62
5
10
112.038514
20
-8.431848
0
VERTEX
5
32f
100
AcDbEntity
8
1
100
AcDbVertex
100
AcDb2dVertex
62
5
10
112.106902
20
-7.655404
0
VERTEX
5
330
100
AcDbEntity
8
1
100
AcDbVertex
100
AcDb2dVertex
62
5
10
112.038514
20
-7.649306
0
SEQEND
5
331
100
AcDbEntity
8
1
0
LINE
5
332
100
AcDbEntity
8
1
100
AcDbLine
6
CONTINUOUS
62
5
10
112.038514
20
-1.940438
11
114.538514
21
-1.940438
0
POLYLINE
5
333
100
AcDbEntity
8
1
6
CONTINUOUS
62
5
100
AcDb2dPolyline
66
1
10
0.0
20
0.0
30
0.0
70
0
0
VERTEX
5
334
100
AcDbEntity
8
1
100
AcDbVertex
100
AcDb2dVertex
62
5
10
112.038514
20
-6.320438
0
VERTEX
5
335
100
AcDbEntity
8
1
100
AcDbVertex
100
AcDb2dVertex
62
5
10
118.038514
20
-6.240438
0
VERTEX
5
336
100
AcDbEntity
8
1
100
AcDbVertex
100
AcDb2dVertex
62
5
10
118.038514
20
-5.367105
0
VERTEX
5
337
100
AcDbEntity
8
1
100
AcDbVertex
100
AcDb2dVertex
62
5
10
117.038514
20
-5.067105
0
VERTEX
5
338
100
AcDbEntity
8
1
100
AcDbVertex
100
AcDb2dVertex
62
5
10
114.288514
20
-5.140438
0
VERTEX
5
339
100
AcDbEntity
8
1
100
AcDbVertex
100
AcDb2dVertex
62
5
10
112.038514
20
-5.140438
0
SEQEND
5
33a
100
AcDbEntity
8
1
0
ARC
5
33b
100
AcDbEntity
8
1
100
AcDbCircle
6
CONTINUOUS
62
5
10
121.638514
20
-9.640893
40
1.000000
100
AcDbArc
50
0.000000
51
88.798166
0
LINE
5
33c
100
AcDbEntity
8
1
100
AcDbLine
6
CONTINUOUS
62
5
10
121.659489
20
-8.641113
11
112.038514
21
-8.460657
0
LINE
5
33d
100
AcDbEntity
8
1
100
AcDbLine
6
CONTINUOUS
62
5
10
122.638514
20
-11.661652
11
122.638514
21
-9.640893
0
ARC
5
33e
100
AcDbEntity
8
1
100
AcDbCircle
6
CONTINUOUS
62
5
10
124.938514
20
-0.565434
40
1.000000
100
AcDbArc
50
-88.549783
51
-0.000000
0
LINE
5
33f
100
AcDbEntity
8
1
100
AcDbLine
6
CONTINUOUS
62
5
10
124.963823
20
-1.565114
11
119.013206
21
-1.715762
0
ARC
5
340
100
AcDbEntity
8
1
100
AcDbCircle
6
CONTINUOUS
62
5
10
119.038515
20
-2.715442
40
1.000000
100
AcDbArc
50
91.450216
51
-179.999998
0
LINE
5
341
100
AcDbEntity
8
1
100
AcDbLine
6
CONTINUOUS
62
5
10
118.038515
20
-2.715442
11
118.038515
21
-3.874302
0
ARC
5
342
100
AcDbEntity
8
1
100
AcDbCircle
6
CONTINUOUS
62
5
10
117.038515
20
-3.874302
40
1.000000
100
AcDbArc
50
-88.492563
51
0.000000
0
ARC
5
343
100
AcDbEntity
8
1
100
AcDbCircle
6
CONTINUOUS
62
5
10
105.338517
20
-9.461661
40
0.700000
100
AcDbArc
50
-89.999999
51
-0.000000
0
LINE
5
344
100
AcDbEntity
8
1
100
AcDbLine
6
CONTINUOUS
62
5
10
106.038517
20
-9.461661
11
106.038517
21
-9.350975
0
ARC
5
345
100
AcDbEntity
8
1
100
AcDbCircle
6
CONTINUOUS
62
5
10
105.338517
20
-9.350975
40
0.700000
100
AcDbArc
50
0.000000
51
89.118595
0
LINE
5
346
100
AcDbEntity
8
1
100
AcDbLine
6
CONTINUOUS
62
5
10
105.349285
20
-8.651058
11
104.538514
21
-8.641661
0
LINE
5
347
100
AcDbEntity
8
1
100
AcDbLine
6
CONTINUOUS
62
5
10
104.538514
20
-10.151058
11
105.338517
21
-10.161661
0
ARC
5
348
100
AcDbEntity
8
1
100
AcDbCircle
6
CONTINUOUS
62
5
10
105.338517
20
-3.851058
40
0.700000
100
AcDbArc
50
0.000000
51
89.999999
0
LINE
5
349
100
AcDbEntity
8
1
100
AcDbLine
6
CONTINUOUS
62
5
10
106.038517
20
-3.851058
11
106.038517
21
-3.961738
0
ARC
5
34a
100
AcDbEntity
8
1
100
AcDbCircle
6
CONTINUOUS
62
5
10
105.338517
20
-3.961738
40
0.700000
100
AcDbArc
50
-89.118595
51
-0.000000
0
LINE
5
34b
100
AcDbEntity
8
1
100
AcDbLine
6
CONTINUOUS
62
5
10
105.349285
20
-4.661655
11
104.538514
21
-4.671051
0
LINE
5
34c
100
AcDbEntity
8
1
100
AcDbLine
6
CONTINUOUS
62
5
10
104.538514
20
-3.151058
11
105.338517
21
-3.151058
0
POLYLINE
5
34d
100
AcDbEntity
8
1
6
CONTINUOUS
62
5
100
AcDb2dPolyline
66
1
10
0.0
20
0.0
30
0.0
70
0
0
VERTEX
5
34e
100
AcDbEntity
8
1
100
AcDbVertex
100
AcDb2dVertex
62
5
10
112.038514
20
-28.674003
0
VERTEX
5
34f
100
AcDbEntity
8
1
100
AcDbVertex
100
AcDb2dVertex
62
5
10
112.106902
20
-28.667906
0
VERTEX
5
350
100
AcDbEntity
8
1
100
AcDbVertex
100
AcDb2dVertex
62
5
10
112.038514
20
-27.900844
0
SEQEND
5
351
100
AcDbEntity
8
1
0
POLYLINE
5
352
100
AcDbEntity
8
1
6
CONTINUOUS
62
5
100
AcDb2dPolyline
66
1
10
0.0
20
0.0
30
0.0
70
0
0
VERTEX
5
353
100
AcDbEntity
8
1
100
AcDbVertex
100
AcDb2dVertex
62
5
10
112.038514
20
-31.421251
0
VERTEX
5
354
100
AcDbEntity
8
1
100
AcDbVertex
100
AcDb2dVertex
62
5
10
112.106902
20
-30.644807
0
VERTEX
5
355
100
AcDbEntity
8
1
100
AcDbVertex
100
AcDb2dVertex
62
5
10
112.038514
20
-30.638710
0
SEQEND
5
356
100
AcDbEntity
8
1
0
ARC
5
357
100
AcDbEntity
8
1
100
AcDbCircle
6
CONTINUOUS
62
5
10
121.638514
20
-32.630296
40
1.000000
100
AcDbArc
50
0.000000
51
88.798166
0
LINE
5
358
100
AcDbEntity
8
1
100
AcDbLine
6
CONTINUOUS
62
5
10
121.659489
20
-31.630516
11
112.038514
21
-31.450060
0
LINE
5
359
100
AcDbEntity
8
1
100
AcDbLine
6
CONTINUOUS
62
5
10
122.638514
20
-34.651055
11
122.638514
21
-32.630296
0
ARC
5
35a
100
AcDbEntity
8
1
100
AcDbCircle
6
CONTINUOUS
62
5
10
121.638514
20
-26.682411
40
1.000000
100
AcDbArc
50
-88.798166
51
-0.000000
0
LINE
5
35b
100
AcDbEntity
8
1
100
AcDbLine
6
CONTINUOUS
62
5
10
122.638514
20
-26.682411
11
122.638514
21
-24.661652
0
LINE
5
35c
100
AcDbEntity
8
1
100
AcDbLine
6
CONTINUOUS
62
5
10
112.038514
20
-27.862646
11
121.659489
21
-27.682191
0
ARC
5
35d
100
AcDbEntity
8
1
100
AcDbCircle
6
CONTINUOUS
62
5
10
105.338517
20
-32.451058
40
0.700000
100
AcDbArc
50
-89.999999
51
-0.000000
0
LINE
5
35e
100
AcDbEntity
8
1
100
AcDbLine
6
CONTINUOUS
62
5
10
106.038517
20
-32.451058
11
106.038517
21
-32.340378
0
ARC
5
35f
100
AcDbEntity
8
1
100
AcDbCircle
6
CONTINUOUS
62
5
10
105.338517
20
-32.340378
40
0.700000
100
AcDbArc
50
0.000000
51
89.118595
0
LINE
5
360
100
AcDbEntity
8
1
100
AcDbLine
6
CONTINUOUS
62
5
10
105.349285
20
-31.640461
11
104.538514
21
-31.631065
0
LINE
5
361
100
AcDbEntity
8
1
100
AcDbLine
6
CONTINUOUS
62
5
10
104.538514
20
-33.151058
11
105.338517
21
-33.151058
0
ARC
5
362
100
AcDbEntity
8
1
100
AcDbCircle
6
CONTINUOUS
62
5
10
105.338517
20
-26.840454
40
0.700000
100
AcDbArc
50
0.000000
51
89.999999
0
LINE
5
363
100
AcDbEntity
8
1
100
AcDbLine
6
CONTINUOUS
62
5
10
106.038517
20
-26.840454
11
106.038517
21
-26.951141
0
ARC
5
364
100
AcDbEntity
8
1
100
AcDbCircle
6
CONTINUOUS
62
5
10
105.338517
20
-26.951141
40
0.700000
100
AcDbArc
50
-89.118595
51
0.000000
0
LINE
5
365
100
AcDbEntity
8
1
100
AcDbLine
6
CONTINUOUS
62
5
10
105.349285
20
-27.651058
11
104.538514
21
-27.660454
0
LINE
5
366
100
AcDbEntity
8
1
100
AcDbLine
6
CONTINUOUS
62
5
10
104.538514
20
-26.151058
11
105.338517
21
-26.140454
0
ARC
5
367
100
AcDbEntity
8
1
100
AcDbCircle
6
CONTINUOUS
62
5
10
121.638514
20
-24.661652
40
1.000000
100
AcDbArc
50
-89.999999
51
0.000000
0
LINE
5
368
100
AcDbEntity
8
1
100
AcDbLine
6
CONTINUOUS
62
5
10
122.638514
20
-24.661652
11
122.638514
21
-11.661652
0
ARC
5
369
100
AcDbEntity
8
1
100
AcDbCircle
6
CONTINUOUS
62
5
10
121.638514
20
-11.661652
40
1.000000
100
AcDbArc
50
0.000000
51
89.999999
0
LINE
5
36a
100
AcDbEntity
8
1
100
AcDbLine
6
CONTINUOUS
62
5
10
121.638514
20
-10.661652
11
112.038514
21
-10.661652
0
LINE
5
36b
100
AcDbEntity
8
1
100
AcDbLine
6
CONTINUOUS
62
5
10
112.038514
20
-25.661652
11
121.638514
21
-25.661652
0
ARC
5
36c
100
AcDbEntity
8
1
100
AcDbCircle
6
CONTINUOUS
62
5
10
94.838514
20
-28.811652
40
0.700000
100
AcDbArc
50
-179.999998
51
-115.376933
0
LINE
5
36d
100
AcDbEntity
8
1
100
AcDbLine
6
CONTINUOUS
62
5
10
94.138514
20
-28.811652
11
94.138514
21
-7.511652
0
ARC
5
36e
100
AcDbEntity
8
1
100
AcDbCircle
6
CONTINUOUS
62
5
10
94.838514
20
-7.511652
40
0.700000
100
AcDbArc
50
115.376933
51
179.999998
0
LINE
5
36f
100
AcDbEntity
8
1
100
AcDbLine
6
CONTINUOUS
62
5
10
106.038517
20
-9.461661
11
106.038517
21
-26.840454
0
POLYLINE
5
370
100
AcDbEntity
8
1
6
CONTINUOUS
62
5
100
AcDb2dPolyline
66
1
10
0.0
20
0.0
30
0.0
70
0
0
VERTEX
5
371
100
AcDbEntity
8
1
100
AcDbVertex
100
AcDb2dVertex
62
5
10
112.038514
20
-51.663406
0
VERTEX
5
372
100
AcDbEntity
8
1
100
AcDbVertex
100
AcDb2dVertex
62
5
10
112.106902
20
-51.657309
0
VERTEX
5
373
100
AcDbEntity
8
1
100
AcDbVertex
100
AcDb2dVertex
62
5
10
112.038514
20
-50.890247
0
SEQEND
5
374
100
AcDbEntity
8
1
0
ARC
5
375
100
AcDbEntity
8
1
100
AcDbCircle
6
CONTINUOUS
62
5
10
121.638514
20
-49.671814
40
1.000000
100
AcDbArc
50
-88.798166
51
-0.000000
0
LINE
5
376
100
AcDbEntity
8
1
100
AcDbLine
6
CONTINUOUS
62
5
10
122.638514
20
-49.671814
11
122.638514
21
-47.651055
0
LINE
5
377
100
AcDbEntity
8
1
100
AcDbLine
6
CONTINUOUS
62
5
10
112.038514
20
-50.852050
11
121.659489
21
-50.671594
0
LINE
5
378
100
AcDbEntity
8
1
100
AcDbLine
6
CONTINUOUS
62
5
10
104.538514
20
-55.351058
11
106.038515
21
-53.811051
0
ARC
5
379
100
AcDbEntity
8
1
100
AcDbCircle
6
CONTINUOUS
62
5
10
105.338517
20
-49.351058
40
0.700000
100
AcDbArc
50
0.000000
51
89.999999
0
LINE
5
37a
100
AcDbEntity
8
1
100
AcDbLine
6
CONTINUOUS
62
5
10
106.038517
20
-49.351058
11
106.038517
21
-49.666340
0
ARC
5
37b
100
AcDbEntity
8
1
100
AcDbCircle
6
CONTINUOUS
62
5
10
105.038517
20
-49.666340
40
1.000000
100
AcDbArc
50
-89.118595
51
0.000000
0
LINE
5
37c
100
AcDbEntity
8
1
100
AcDbLine
6
CONTINUOUS
62
5
10
105.053900
20
-50.666222
11
104.538514
21
-50.671074
0
LINE
5
37d
100
AcDbEntity
8
1
100
AcDbLine
6
CONTINUOUS
62
5
10
104.538514
20
-48.651058
11
105.338517
21
-48.651058
0
ARC
5
37e
100
AcDbEntity
8
1
100
AcDbCircle
6
CONTINUOUS
62
5
10
121.638514
20
-47.651055
40
1.000000
100
AcDbArc
50
-89.999999
51
0.000000
0
LINE
5
37f
100
AcDbEntity
8
1
100
AcDbLine
6
CONTINUOUS
62
5
10
122.638514
20
-47.651055
11
122.638514
21
-34.651055
0
ARC
5
380
100
AcDbEntity
8
1
100
AcDbCircle
6
CONTINUOUS
62
5
10
121.638514
20
-34.651055
40
1.000000
100
AcDbArc
50
0.000000
51
89.999999
0
LINE
5
381
100
AcDbEntity
8
1
100
AcDbLine
6
CONTINUOUS
62
5
10
121.638514
20
-33.651055
11
112.038514
21
-33.651055
0
LINE
5
382
100
AcDbEntity
8
1
100
AcDbLine
6
CONTINUOUS
62
5
10
112.038514
20
-48.651055
11
121.638514
21
-48.651055
0
LINE
5
383
100
AcDbEntity
8
1
100
AcDbLine
6
CONTINUOUS
62
5
10
106.038517
20
-49.351058
11
106.038517
21
-32.451058
0
ARC
5
384
100
AcDbEntity
8
1
100
AcDbCircle
6
CONTINUOUS
62
5
10
94.838514
20
-51.801055
40
0.700000
100
AcDbArc
50
-179.999998
51
-115.376933
0
LINE
5
385
100
AcDbEntity
8
1
100
AcDbLine
6
CONTINUOUS
62
5
10
94.138514
20
-51.801055
11
94.138514
21
-30.501055
0
ARC
5
386
100
AcDbEntity
8
1
100
AcDbCircle
6
CONTINUOUS
62
5
10
94.838514
20
-30.501055
40
0.700000
100
AcDbArc
50
115.376933
51
179.999998
0
POLYLINE
5
387
100
AcDbEntity
8
1
6
CONTINUOUS
62
5
100
AcDb2dPolyline
66
1
10
0.0
20
0.0
30
0.0
70
1
0
VERTEX
5
388
100
AcDbEntity
8
1
100
AcDbVertex
100
AcDb2dVertex
62
5
10
70.738514
20
-126.776058
0
VERTEX
5
389
100
AcDbEntity
8
1
100
AcDbVertex
100
AcDb2dVertex
62
5
10
71.238514
20
-126.776058
0
VERTEX
5
38a
100
AcDbEntity
8
1
100
AcDbVertex
100
AcDb2dVertex
62
5
10
71.488514
20
-127.088558
0
VERTEX
5
38b
100
AcDbEntity
8
1
100
AcDbVertex
100
AcDb2dVertex
62
5
10
71.988514
20
-128.338558
0
VERTEX
5
38c
100
AcDbEntity
8
1
100
AcDbVertex
100
AcDb2dVertex
62
5
10
72.238514
20
-129.588558
0
VERTEX
5
38d
100
AcDbEntity
8
1
100
AcDbVertex
100
AcDb2dVertex
62
5
10
72.238514
20
-131.463558
0
VERTEX
5
38e
100
AcDbEntity
8
1
100
AcDbVertex
100
AcDb2dVertex
62
5
10
71.988514
20
-132.713558
0
VERTEX
5
38f
100
AcDbEntity
8
1
100
AcDbVertex
100
AcDb2dVertex
62
5
10
71.488514
20
-133.963558
0
VERTEX
5
390
100
AcDbEntity
8
1
100
AcDbVertex
100
AcDb2dVertex
62
5
10
71.238514
20
-134.276058
0
VERTEX
5
391
100
AcDbEntity
8
1
100
AcDbVertex
100
AcDb2dVertex
62
5
10
70.738514
20
-134.276058
0
VERTEX
5
392
100
AcDbEntity
8
1
100
AcDbVertex
100
AcDb2dVertex
62
5
10
70.488514
20
-133.963558
0
VERTEX
5
393
100
AcDbEntity
8
1
100
AcDbVertex
100
AcDb2dVertex
62
5
10
69.988514
20
-132.713558
0
VERTEX
5
394
100
AcDbEntity
8
1
100
AcDbVertex
100
AcDb2dVertex
62
5
10
69.738514
20
-131.463558
0
VERTEX
5
395
100
AcDbEntity
8
1
100
AcDbVertex
100
AcDb2dVertex
62
5
10
69.738514
20
-129.588558
0
VERTEX
5
396
100
AcDbEntity
8
1
100
AcDbVertex
100
AcDb2dVertex
62
5
10
69.988514
20
-128.338558
0
VERTEX
5
397
100
AcDbEntity
8
1
100
AcDbVertex
100
AcDb2dVertex
62
5
10
70.488514
20
-127.088558
0
VERTEX
5
398
100
AcDbEntity
8
1
100
AcDbVertex
100
AcDb2dVertex
62
5
10
70.738514
20
-126.776058
0
SEQEND
5
399
100
AcDbEntity
8
1
0
POLYLINE
5
39a
100
AcDbEntity
8
1
6
CONTINUOUS
62
5
100
AcDb2dPolyline
66
1
10
0.0
20
0.0
30
0.0
70
0
0
VERTEX
5
39b
100
AcDbEntity
8
1
100
AcDbVertex
100
AcDb2dVertex
62
5
10
73.738514
20
-126.776058
0
VERTEX
5
39c
100
AcDbEntity
8
1
100
AcDbVertex
100
AcDb2dVertex
62
5
10
74.988514
20
-134.276058
0
VERTEX
5
39d
100
AcDbEntity
8
1
100
AcDbVertex
100
AcDb2dVertex
62
5
10
76.238514
20
-126.776058
0
SEQEND
5
39e
100
AcDbEntity
8
1
0
POLYLINE
5
39f
100
AcDbEntity
8
1
6
CONTINUOUS
62
5
100
AcDb2dPolyline
66
1
10
0.0
20
0.0
30
0.0
70
0
0
VERTEX
5
3a0
100
AcDbEntity
8
1
100
AcDbVertex
100
AcDb2dVertex
62
5
10
81.738514
20
-134.276058
0
VERTEX
5
3a1
100
AcDbEntity
8
1
100
AcDbVertex
100
AcDb2dVertex
62
5
10
82.988514
20
-126.776058
0
VERTEX
5
3a2
100
AcDbEntity
8
1
100
AcDbVertex
100
AcDb2dVertex
62
5
10
84.238514
20
-134.276058
0
SEQEND
5
3a3
100
AcDbEntity
8
1
0
LINE
5
3a4
100
AcDbEntity
8
1
100
AcDbLine
6
CONTINUOUS
62
5
10
82.238514
20
-131.776058
11
83.738514
21
-131.776058
0
LINE
5
3a5
100
AcDbEntity
8
1
100
AcDbLine
6
CONTINUOUS
62
5
10
69.738514
20
-138.026058
11
71.988514
21
-138.026058
0
POLYLINE
5
3a6
100
AcDbEntity
8
1
6
CONTINUOUS
62
5
100
AcDb2dPolyline
66
1
10
0.0
20
0.0
30
0.0
70
0
0
VERTEX
5
3a7
100
AcDbEntity
8
1
100
AcDbVertex
100
AcDb2dVertex
62
5
10
69.738514
20
-138.026058
0
VERTEX
5
3a8
100
AcDbEntity
8
1
100
AcDbVertex
100
AcDb2dVertex
62
5
10
69.738514
20
-141.776058
0
VERTEX
5
3a9
100
AcDbEntity
8
1
100
AcDbVertex
100
AcDb2dVertex
62
5
10
70.238514
20
-141.151058
0
VERTEX
5
3aa
100
AcDbEntity
8
1
100
AcDbVertex
100
AcDb2dVertex
62
5
10
70.738514
20
-140.838558
0
VERTEX
5
3ab
100
AcDbEntity
8
1
100
AcDbVertex
100
AcDb2dVertex
62
5
10
71.488514
20
-140.838558
0
VERTEX
5
3ac
100
AcDbEntity
8
1
100
AcDbVertex
100
AcDb2dVertex
62
5
10
71.988514
20
-141.151058
0
VERTEX
5
3ad
100
AcDbEntity
8
1
100
AcDbVertex
100
AcDb2dVertex
62
5
10
72.238514
20
-142.088558
0
VERTEX
5
3ae
100
AcDbEntity
8
1
100
AcDbVertex
100
AcDb2dVertex
62
5
10
72.238514
20
-143.963558
0
VERTEX
5
3af
100
AcDbEntity
8
1
100
AcDbVertex
100
AcDb2dVertex
62
5
10
71.738514
20
-144.901058
0
VERTEX
5
3b0
100
AcDbEntity
8
1
100
AcDbVertex
100
AcDb2dVertex
62
5
10
70.988514
20
-145.526058
0
VERTEX
5
3b1
100
AcDbEntity
8
1
100
AcDbVertex
100
AcDb2dVertex
62
5
10
69.738514
20
-145.526058
0
SEQEND
5
3b2
100
AcDbEntity
8
1
0
POLYLINE
5
3b3
100
AcDbEntity
8
1
6
CONTINUOUS
62
5
100
AcDb2dPolyline
66
1
10
0.0
20
0.0
30
0.0
70
0
0
VERTEX
5
3b4
100
AcDbEntity
8
1
100
AcDbVertex
100
AcDb2dVertex
62
5
10
73.738514
20
-138.026058
0
VERTEX
5
3b5
100
AcDbEntity
8
1
100
AcDbVertex
100
AcDb2dVertex
62
5
10
74.988514
20
-145.526058
0
VERTEX
5
3b6
100
AcDbEntity
8
1
100
AcDbVertex
100
AcDb2dVertex
62
5
10
76.238514
20
-138.026058
0
SEQEND
5
3b7
100
AcDbEntity
8
1
0
POLYLINE
5
3b8
100
AcDbEntity
8
1
6
CONTINUOUS
62
5
100
AcDb2dPolyline
66
1
10
0.0
20
0.0
30
0.0
70
0
0
VERTEX
5
3b9
100
AcDbEntity
8
1
100
AcDbVertex
100
AcDb2dVertex
62
5
10
81.738514
20
-145.526058
0
VERTEX
5
3ba
100
AcDbEntity
8
1
100
AcDbVertex
100
AcDb2dVertex
62
5
10
82.988514
20
-138.026058
0
VERTEX
5
3bb
100
AcDbEntity
8
1
100
AcDbVertex
100
AcDb2dVertex
62
5
10
84.238514
20
-145.526058
0
SEQEND
5
3bc
100
AcDbEntity
8
1
0
LINE
5
3bd
100
AcDbEntity
8
1
100
AcDbLine
6
CONTINUOUS
62
5
10
82.238514
20
-143.026058
11
83.738514
21
-143.026058
0
LINE
5
3be
100
AcDbEntity
8
1
100
AcDbLine
6
CONTINUOUS
62
5
10
49.738514
20
-126.776058
11
51.988514
21
-126.776058
0
POLYLINE
5
3bf
100
AcDbEntity
8
1
6
CONTINUOUS
62
5
100
AcDb2dPolyline
66
1
10
0.0
20
0.0
30
0.0
70
0
0
VERTEX
5
3c0
100
AcDbEntity
8
1
100
AcDbVertex
100
AcDb2dVertex
62
5
10
49.738514
20
-126.776058
0
VERTEX
5
3c1
100
AcDbEntity
8
1
100
AcDbVertex
100
AcDb2dVertex
62
5
10
49.738514
20
-130.526058
0
VERTEX
5
3c2
100
AcDbEntity
8
1
100
AcDbVertex
100
AcDb2dVertex
62
5
10
50.238514
20
-129.901058
0
VERTEX
5
3c3
100
AcDbEntity
8
1
100
AcDbVertex
100
AcDb2dVertex
62
5
10
50.738514
20
-129.588558
0
VERTEX
5
3c4
100
AcDbEntity
8
1
100
AcDbVertex
100
AcDb2dVertex
62
5
10
51.488514
20
-129.588558
0
VERTEX
5
3c5
100
AcDbEntity
8
1
100
AcDbVertex
100
AcDb2dVertex
62
5
10
51.988514
20
-129.901058
0
VERTEX
5
3c6
100
AcDbEntity
8
1
100
AcDbVertex
100
AcDb2dVertex
62
5
10
52.238514
20
-130.838558
0
VERTEX
5
3c7
100
AcDbEntity
8
1
100
AcDbVertex
100
AcDb2dVertex
62
5
10
52.238514
20
-132.713558
0
VERTEX
5
3c8
100
AcDbEntity
8
1
100
AcDbVertex
100
AcDb2dVertex
62
5
10
51.738514
20
-133.651058
0
VERTEX
5
3c9
100
AcDbEntity
8
1
100
AcDbVertex
100
AcDb2dVertex
62
5
10
50.988514
20
-134.276058
0
VERTEX
5
3ca
100
AcDbEntity
8
1
100
AcDbVertex
100
AcDb2dVertex
62
5
10
49.738514
20
-134.276058
0
SEQEND
5
3cb
100
AcDbEntity
8
1
0
POLYLINE
5
3cc
100
AcDbEntity
8
1
6
CONTINUOUS
62
5
100
AcDb2dPolyline
66
1
10
0.0
20
0.0
30
0.0
70
0
0
VERTEX
5
3cd
100
AcDbEntity
8
1
100
AcDbVertex
100
AcDb2dVertex
62
5
10
53.738514
20
-134.276058
0
VERTEX
5
3ce
100
AcDbEntity
8
1
100
AcDbVertex
100
AcDb2dVertex
62
5
10
54.988514
20
-126.776058
0
VERTEX
5
3cf
100
AcDbEntity
8
1
100
AcDbVertex
100
AcDb2dVertex
62
5
10
56.238514
20
-134.276058
0
SEQEND
5
3d0
100
AcDbEntity
8
1
0
LINE
5
3d1
100
AcDbEntity
8
1
100
AcDbLine
6
CONTINUOUS
62
5
10
54.238514
20
-131.776058
11
55.738514
21
-131.776058
0
LINE
5
3d2
100
AcDbEntity
8
1
100
AcDbLine
6
CONTINUOUS
62
5
10
57.738514
20
-130.526058
11
60.238514
21
-130.526058
0
POLYLINE
5
3d3
100
AcDbEntity
8
1
6
CONTINUOUS
62
5
100
AcDb2dPolyline
66
1
10
0.0
20
0.0
30
0.0
70
0
0
VERTEX
5
3d4
100
AcDbEntity
8
1
100
AcDbVertex
100
AcDb2dVertex
62
5
10
61.738514
20
-128.651058
0
VERTEX
5
3d5
100
AcDbEntity
8
1
100
AcDbVertex
100
AcDb2dVertex
62
5
10
61.988514
20
-127.401058
0
VERTEX
5
3d6
100
AcDbEntity
8
1
100
AcDbVertex
100
AcDb2dVertex
62
5
10
62.488514
20
-126.776058
0
VERTEX
5
3d7
100
AcDbEntity
8
1
100
AcDbVertex
100
AcDb2dVertex
62
5
10
63.238514
20
-126.776058
0
VERTEX
5
3d8
100
AcDbEntity
8
1
100
AcDbVertex
100
AcDb2dVertex
62
5
10
63.738514
20
-127.088558
0
VERTEX
5
3d9
100
AcDbEntity
8
1
100
AcDbVertex
100
AcDb2dVertex
62
5
10
63.988514
20
-128.026058
0
VERTEX
5
3da
100
AcDbEntity
8
1
100
AcDbVertex
100
AcDb2dVertex
62
5
10
63.988514
20
-129.276058
0
VERTEX
5
3db
100
AcDbEntity
8
1
100
AcDbVertex
100
AcDb2dVertex
62
5
10
63.738514
20
-129.901058
0
VERTEX
5
3dc
100
AcDbEntity
8
1
100
AcDbVertex
100
AcDb2dVertex
62
5
10
63.238514
20
-130.526058
0
VERTEX
5
3dd
100
AcDbEntity
8
1
100
AcDbVertex
100
AcDb2dVertex
62
5
10
62.488514
20
-130.526058
0
SEQEND
5
3de
100
AcDbEntity
8
1
0
POLYLINE
5
3df
100
AcDbEntity
8
1
6
CONTINUOUS
62
5
100
AcDb2dPolyline
66
1
10
0.0
20
0.0
30
0.0
70
0
0
VERTEX
5
3e0
100
AcDbEntity
8
1
100
AcDbVertex
100
AcDb2dVertex
62
5
10
63.238514
20
-130.526058
0
VERTEX
5
3e1
100
AcDbEntity
8
1
100
AcDbVertex
100
AcDb2dVertex
62
5
10
63.988514
20
-131.151058
0
VERTEX
5
3e2
100
AcDbEntity
8
1
100
AcDbVertex
100
AcDb2dVertex
62
5
10
64.238514
20
-132.088558
0
VERTEX
5
3e3
100
AcDbEntity
8
1
100
AcDbVertex
100
AcDb2dVertex
62
5
10
64.238514
20
-133.026058
0
VERTEX
5
3e4
100
AcDbEntity
8
1
100
AcDbVertex
100
AcDb2dVertex
62
5
10
63.988514
20
-133.651058
0
VERTEX
5
3e5
100
AcDbEntity
8
1
100
AcDbVertex
100
AcDb2dVertex
62
5
10
63.238514
20
-134.276058
0
VERTEX
5
3e6
100
AcDbEntity
8
1
100
AcDbVertex
100
AcDb2dVertex
62
5
10
62.488514
20
-134.276058
0
VERTEX
5
3e7
100
AcDbEntity
8
1
100
AcDbVertex
100
AcDb2dVertex
62
5
10
61.988514
20
-133.963558
0
VERTEX
5
3e8
100
AcDbEntity
8
1
100
AcDbVertex
100
AcDb2dVertex
62
5
10
61.488514
20
-133.026058
0
SEQEND
5
3e9
100
AcDbEntity
8
1
0
LINE
5
3ea
100
AcDbEntity
8
1
100
AcDbLine
6
CONTINUOUS
62
5
10
49.738514
20
-138.026058
11
51.988514
21
-138.026058
0
POLYLINE
5
3eb
100
AcDbEntity
8
1
6
CONTINUOUS
62
5
100
AcDb2dPolyline
66
1
10
0.0
20
0.0
30
0.0
70
0
0
VERTEX
5
3ec
100
AcDbEntity
8
1
100
AcDbVertex
100
AcDb2dVertex
62
5
10
49.738514
20
-138.026058
0
VERTEX
5
3ed
100
AcDbEntity
8
1
100
AcDbVertex
100
AcDb2dVertex
62
5
10
49.738514
20
-141.776058
0
VERTEX
5
3ee
100
AcDbEntity
8
1
100
AcDbVertex
100
AcDb2dVertex
62
5
10
50.238514
20
-141.151058
0
VERTEX
5
3ef
100
AcDbEntity
8
1
100
AcDbVertex
100
AcDb2dVertex
62
5
10
50.738514
20
-140.838558
0
VERTEX
5
3f0
100
AcDbEntity
8
1
100
AcDbVertex
100
AcDb2dVertex
62
5
10
51.488514
20
-140.838558
0
VERTEX
5
3f1
100
AcDbEntity
8
1
100
AcDbVertex
100
AcDb2dVertex
62
5
10
51.988514
20
-141.151058
0
VERTEX
5
3f2
100
AcDbEntity
8
1
100
AcDbVertex
100
AcDb2dVertex
62
5
10
52.238514
20
-142.088558
0
VERTEX
5
3f3
100
AcDbEntity
8
1
100
AcDbVertex
100
AcDb2dVertex
62
5
10
52.238514
20
-143.963558
0
VERTEX
5
3f4
100
AcDbEntity
8
1
100
AcDbVertex
100
AcDb2dVertex
62
5
10
51.738514
20
-144.901058
0
VERTEX
5
3f5
100
AcDbEntity
8
1
100
AcDbVertex
100
AcDb2dVertex
62
5
10
50.988514
20
-145.526058
0
VERTEX
5
3f6
100
AcDbEntity
8
1
100
AcDbVertex
100
AcDb2dVertex
62
5
10
49.738514
20
-145.526058
0
SEQEND
5
3f7
100
AcDbEntity
8
1
0
POLYLINE
5
3f8
100
AcDbEntity
8
1
6
CONTINUOUS
62
5
100
AcDb2dPolyline
66
1
10
0.0
20
0.0
30
0.0
70
0
0
VERTEX
5
3f9
100
AcDbEntity
8
1
100
AcDbVertex
100
AcDb2dVertex
62
5
10
53.738514
20
-145.526058
0
VERTEX
5
3fa
100
AcDbEntity
8
1
100
AcDbVertex
100
AcDb2dVertex
62
5
10
54.988514
20
-138.026058
0
VERTEX
5
3fb
100
AcDbEntity
8
1
100
AcDbVertex
100
AcDb2dVertex
62
5
10
56.238514
20
-145.526058
0
SEQEND
5
3fc
100
AcDbEntity
8
1
0
LINE
5
3fd
100
AcDbEntity
8
1
100
AcDbLine
6
CONTINUOUS
62
5
10
54.238514
20
-143.026058
11
55.738514
21
-143.026058
0
LINE
5
3fe
100
AcDbEntity
8
1
100
AcDbLine
6
CONTINUOUS
62
5
10
57.738514
20
-141.776058
11
60.238514
21
-141.776058
0
POLYLINE
5
3ff
100
AcDbEntity
8
1
6
CONTINUOUS
62
5
100
AcDb2dPolyline
66
1
10
0.0
20
0.0
30
0.0
70
0
0
VERTEX
5
400
100
AcDbEntity
8
1
100
AcDbVertex
100
AcDb2dVertex
62
5
10
62.238514
20
-138.651058
0
VERTEX
5
401
100
AcDbEntity
8
1
100
AcDbVertex
100
AcDb2dVertex
62
5
10
62.988514
20
-138.026058
0
VERTEX
5
402
100
AcDbEntity
8
1
100
AcDbVertex
100
AcDb2dVertex
62
5
10
62.988514
20
-145.526058
0
SEQEND
5
403
100
AcDbEntity
8
1
0
LINE
5
404
100
AcDbEntity
8
1
100
AcDbLine
6
CONTINUOUS
62
5
10
62.488514
20
-145.526058
11
63.488514
21
-145.526058
0
POLYLINE
5
405
100
AcDbEntity
8
1
6
CONTINUOUS
62
5
100
AcDb2dPolyline
66
1
10
0.0
20
0.0
30
0.0
70
1
0
VERTEX
5
406
100
AcDbEntity
8
1
100
AcDbVertex
100
AcDb2dVertex
62
5
10
66.738514
20
-126.776058
0
VERTEX
5
407
100
AcDbEntity
8
1
100
AcDbVertex
100
AcDb2dVertex
62
5
10
67.238514
20
-126.776058
0
VERTEX
5
408
100
AcDbEntity
8
1
100
AcDbVertex
100
AcDb2dVertex
62
5
10
67.488514
20
-127.088558
0
VERTEX
5
409
100
AcDbEntity
8
1
100
AcDbVertex
100
AcDb2dVertex
62
5
10
67.988514
20
-128.338558
0
VERTEX
5
40a
100
AcDbEntity
8
1
100
AcDbVertex
100
AcDb2dVertex
62
5
10
68.238514
20
-129.588558
0
VERTEX
5
40b
100
AcDbEntity
8
1
100
AcDbVertex
100
AcDb2dVertex
62
5
10
68.238514
20
-131.463558
0
VERTEX
5
40c
100
AcDbEntity
8
1
100
AcDbVertex
100
AcDb2dVertex
62
5
10
67.988514
20
-132.713558
0
VERTEX
5
40d
100
AcDbEntity
8
1
100
AcDbVertex
100
AcDb2dVertex
62
5
10
67.488514
20
-133.963558
0
VERTEX
5
40e
100
AcDbEntity
8
1
100
AcDbVertex
100
AcDb2dVertex
62
5
10
67.238514
20
-134.276058
0
VERTEX
5
40f
100
AcDbEntity
8
1
100
AcDbVertex
100
AcDb2dVertex
62
5
10
66.738514
20
-134.276058
0
VERTEX
5
410
100
AcDbEntity
8
1
100
AcDbVertex
100
AcDb2dVertex
62
5
10
66.488514
20
-133.963558
0
VERTEX
5
411
100
AcDbEntity
8
1
100
AcDbVertex
100
AcDb2dVertex
62
5
10
65.988514
20
-132.713558
0
VERTEX
5
412
100
AcDbEntity
8
1
100
AcDbVertex
100
AcDb2dVertex
62
5
10
65.738514
20
-131.463558
0
VERTEX
5
413
100
AcDbEntity
8
1
100
AcDbVertex
100
AcDb2dVertex
62
5
10
65.738514
20
-129.588558
0
VERTEX
5
414
100
AcDbEntity
8
1
100
AcDbVertex
100
AcDb2dVertex
62
5
10
65.988514
20
-128.338558
0
VERTEX
5
415
100
AcDbEntity
8
1
100
AcDbVertex
100
AcDb2dVertex
62
5
10
66.488514
20
-127.088558
0
VERTEX
5
416
100
AcDbEntity
8
1
100
AcDbVertex
100
AcDb2dVertex
62
5
10
66.738514
20
-126.776058
0
SEQEND
5
417
100
AcDbEntity
8
1
0
POLYLINE
5
418
100
AcDbEntity
8
1
6
CONTINUOUS
62
5
100
AcDb2dPolyline
66
1
10
0.0
20
0.0
30
0.0
70
0
0
VERTEX
5
419
100
AcDbEntity
8
1
100
AcDbVertex
100
AcDb2dVertex
62
5
10
65.738514
20
-140.213558
0
VERTEX
5
41a
100
AcDbEntity
8
1
100
AcDbVertex
100
AcDb2dVertex
62
5
10
65.988514
20
-138.651058
0
VERTEX
5
41b
100
AcDbEntity
8
1
100
AcDbVertex
100
AcDb2dVertex
62
5
10
66.738514
20
-138.026058
0
VERTEX
5
41c
100
AcDbEntity
8
1
100
AcDbVertex
100
AcDb2dVertex
62
5
10
67.488514
20
-138.026058
0
VERTEX
5
41d
100
AcDbEntity
8
1
100
AcDbVertex
100
AcDb2dVertex
62
5
10
67.988514
20
-138.338558
0
VERTEX
5
41e
100
AcDbEntity
8
1
100
AcDbVertex
100
AcDb2dVertex
62
5
10
68.238514
20
-139.276058
0
VERTEX
5
41f
100
AcDbEntity
8
1
100
AcDbVertex
100
AcDb2dVertex
62
5
10
68.238514
20
-140.213558
0
VERTEX
5
420
100
AcDbEntity
8
1
100
AcDbVertex
100
AcDb2dVertex
62
5
10
67.988514
20
-141.151058
0
VERTEX
5
421
100
AcDbEntity
8
1
100
AcDbVertex
100
AcDb2dVertex
62
5
10
65.738514
20
-145.526058
0
VERTEX
5
422
100
AcDbEntity
8
1
100
AcDbVertex
100
AcDb2dVertex
62
5
10
68.238514
20
-145.526058
0
VERTEX
5
423
100
AcDbEntity
8
1
100
AcDbVertex
100
AcDb2dVertex
62
5
10
68.238514
20
-144.588558
0
SEQEND
5
424
100
AcDbEntity
8
1
0
POLYLINE
5
425
100
AcDbEntity
8
1
6
CONTINUOUS
62
5
100
AcDb2dPolyline
66
1
10
0.0
20
0.0
30
0.0
70
0
0
VERTEX
5
426
100
AcDbEntity
8
1
100
AcDbVertex
100
AcDb2dVertex
62
5
10
88.238514
20
-128.338558
0
VERTEX
5
427
100
AcDbEntity
8
1
100
AcDbVertex
100
AcDb2dVertex
62
5
10
87.988514
20
-127.401058
0
VERTEX
5
428
100
AcDbEntity
8
1
100
AcDbVertex
100
AcDb2dVertex
62
5
10
87.488514
20
-126.776058
0
VERTEX
5
429
100
AcDbEntity
8
1
100
AcDbVertex
100
AcDb2dVertex
62
5
10
86.738514
20
-126.776058
0
VERTEX
5
42a
100
AcDbEntity
8
1
100
AcDbVertex
100
AcDb2dVertex
62
5
10
85.988514
20
-127.713558
0
VERTEX
5
42b
100
AcDbEntity
8
1
100
AcDbVertex
100
AcDb2dVertex
62
5
10
85.738514
20
-129.276058
0
VERTEX
5
42c
100
AcDbEntity
8
1
100
AcDbVertex
100
AcDb2dVertex
62
5
10
85.738514
20
-131.776058
0
VERTEX
5
42d
100
AcDbEntity
8
1
100
AcDbVertex
100
AcDb2dVertex
62
5
10
85.988514
20
-133.338558
0
VERTEX
5
42e
100
AcDbEntity
8
1
100
AcDbVertex
100
AcDb2dVertex
62
5
10
86.738514
20
-134.276058
0
VERTEX
5
42f
100
AcDbEntity
8
1
100
AcDbVertex
100
AcDb2dVertex
62
5
10
87.488514
20
-134.276058
0
VERTEX
5
430
100
AcDbEntity
8
1
100
AcDbVertex
100
AcDb2dVertex
62
5
10
87.988514
20
-133.651058
0
VERTEX
5
431
100
AcDbEntity
8
1
100
AcDbVertex
100
AcDb2dVertex
62
5
10
88.488514
20
-132.088558
0
SEQEND
5
432
100
AcDbEntity
8
1
0
POLYLINE
5
433
100
AcDbEntity
8
1
6
CONTINUOUS
62
5
100
AcDb2dPolyline
66
1
10
0.0
20
0.0
30
0.0
70
0
0
VERTEX
5
434
100
AcDbEntity
8
1
100
AcDbVertex
100
AcDb2dVertex
62
5
10
88.238514
20
-139.588558
0
VERTEX
5
435
100
AcDbEntity
8
1
100
AcDbVertex
100
AcDb2dVertex
62
5
10
87.988514
20
-138.651058
0
VERTEX
5
436
100
AcDbEntity
8
1
100
AcDbVertex
100
AcDb2dVertex
62
5
10
87.488514
20
-138.026058
0
VERTEX
5
437
100
AcDbEntity
8
1
100
AcDbVertex
100
AcDb2dVertex
62
5
10
86.738514
20
-138.026058
0
VERTEX
5
438
100
AcDbEntity
8
1
100
AcDbVertex
100
AcDb2dVertex
62
5
10
85.988514
20
-138.963558
0
VERTEX
5
439
100
AcDbEntity
8
1
100
AcDbVertex
100
AcDb2dVertex
62
5
10
85.738514
20
-140.526058
0
VERTEX
5
43a
100
AcDbEntity
8
1
100
AcDbVertex
100
AcDb2dVertex
62
5
10
85.738514
20
-143.026058
0
VERTEX
5
43b
100
AcDbEntity
8
1
100
AcDbVertex
100
AcDb2dVertex
62
5
10
85.988514
20
-144.588558
0
VERTEX
5
43c
100
AcDbEntity
8
1
100
AcDbVertex
100
AcDb2dVertex
62
5
10
86.738514
20
-145.526058
0
VERTEX
5
43d
100
AcDbEntity
8
1
100
AcDbVertex
100
AcDb2dVertex
62
5
10
87.488514
20
-145.526058
0
VERTEX
5
43e
100
AcDbEntity
8
1
100
AcDbVertex
100
AcDb2dVertex
62
5
10
87.988514
20
-144.901058
0
VERTEX
5
43f
100
AcDbEntity
8
1
100
AcDbVertex
100
AcDb2dVertex
62
5
10
88.488514
20
-143.338558
0
SEQEND
5
440
100
AcDbEntity
8
1
0
LINE
5
441
100
AcDbEntity
8
1
100
AcDbLine
6
CONTINUOUS
62
5
10
9.788514
20
-14.651058
11
9.081408
21
-13.943951
0
LINE
5
442
100
AcDbEntity
8
1
100
AcDbLine
6
CONTINUOUS
62
5
10
11.988514
20
-14.651058
11
12.695621
21
-13.943951
0
LINE
5
443
100
AcDbEntity
8
1
100
AcDbLine
6
CONTINUOUS
62
5
10
9.788514
20
-21.651058
11
9.081408
21
-22.358165
0
LINE
5
444
100
AcDbEntity
8
1
100
AcDbLine
6
CONTINUOUS
62
5
10
11.988514
20
-21.651058
11
12.695621
21
-22.358165
0
LINE
5
445
100
AcDbEntity
8
1
100
AcDbLine
6
CONTINUOUS
62
5
10
9.788514
20
-37.651058
11
9.081408
21
-36.943951
0
LINE
5
446
100
AcDbEntity
8
1
100
AcDbLine
6
CONTINUOUS
62
5
10
11.988514
20
-37.651058
11
12.695621
21
-36.943951
0
POLYLINE
5
447
100
AcDbEntity
8
1
6
CONTINUOUS
62
5
100
AcDb2dPolyline
66
1
10
0.0
20
0.0
30
0.0
70
1
0
VERTEX
5
448
100
AcDbEntity
8
1
100
AcDbVertex
100
AcDb2dVertex
62
5
10
11.988514
20
-21.651058
0
VERTEX
5
449
100
AcDbEntity
8
1
100
AcDbVertex
100
AcDb2dVertex
62
5
10
11.988514
20
-14.651058
0
VERTEX
5
44a
100
AcDbEntity
8
1
100
AcDbVertex
100
AcDb2dVertex
62
5
10
9.788514
20
-14.651058
0
VERTEX
5
44b
100
AcDbEntity
8
1
100
AcDbVertex
100
AcDb2dVertex
62
5
10
9.788514
20
-21.651058
0
SEQEND
5
44c
100
AcDbEntity
8
1
0
POLYLINE
5
44d
100
AcDbEntity
8
1
6
CONTINUOUS
62
5
100
AcDb2dPolyline
66
1
10
0.0
20
0.0
30
0.0
70
1
0
VERTEX
5
44e
100
AcDbEntity
8
1
100
AcDbVertex
100
AcDb2dVertex
62
5
10
9.938514
20
-21.501058
0
VERTEX
5
44f
100
AcDbEntity
8
1
100
AcDbVertex
100
AcDb2dVertex
62
5
10
11.838514
20
-21.501058
0
VERTEX
5
450
100
AcDbEntity
8
1
100
AcDbVertex
100
AcDb2dVertex
62
5
10
11.838514
20
-14.801058
0
VERTEX
5
451
100
AcDbEntity
8
1
100
AcDbVertex
100
AcDb2dVertex
62
5
10
9.938514
20
-14.801058
0
VERTEX
5
452
100
AcDbEntity
8
1
100
AcDbVertex
100
AcDb2dVertex
62
5
10
9.938514
20
-21.501058
0
SEQEND
5
453
100
AcDbEntity
8
1
0
LINE
5
454
100
AcDbEntity
8
1
100
AcDbLine
6
CONTINUOUS
62
5
10
10.888514
20
-15.151058
11
10.888514
21
-21.151058
0
LINE
5
455
100
AcDbEntity
8
1
100
AcDbLine
6
CONTINUOUS
62
5
10
9.938514
20
-21.151058
11
11.838514
21
-21.151058
0
LINE
5
456
100
AcDbEntity
8
1
100
AcDbLine
6
CONTINUOUS
62
5
10
9.938514
20
-15.151058
11
11.838514
21
-15.151058
0
LINE
5
457
100
AcDbEntity
8
1
100
AcDbLine
6
CONTINUOUS
62
5
10
-0.711486
20
-13.901058
11
-0.004379
21
-13.193951
0
LINE
5
458
100
AcDbEntity
8
1
100
AcDbLine
6
CONTINUOUS
62
5
10
-2.911486
20
-13.901058
11
-3.618592
21
-13.193951
0
LINE
5
459
100
AcDbEntity
8
1
100
AcDbLine
6
CONTINUOUS
62
5
10
-0.711486
20
-22.401058
11
-0.004379
21
-23.108165
0
LINE
5
45a
100
AcDbEntity
8
1
100
AcDbLine
6
CONTINUOUS
62
5
10
-2.911486
20
-22.401058
11
-3.618592
21
-23.108165
0
LINE
5
45b
100
AcDbEntity
8
1
100
AcDbLine
6
CONTINUOUS
62
5
10
-0.711486
20
-36.901058
11
-0.004379
21
-36.193951
0
LINE
5
45c
100
AcDbEntity
8
1
100
AcDbLine
6
CONTINUOUS
62
5
10
-2.911486
20
-36.901058
11
-3.618592
21
-36.193951
0
POLYLINE
5
45d
100
AcDbEntity
8
1
6
CONTINUOUS
62
5
100
AcDb2dPolyline
66
1
10
0.0
20
0.0
30
0.0
70
1
0
VERTEX
5
45e
100
AcDbEntity
8
1
100
AcDbVertex
100
AcDb2dVertex
62
5
10
-2.811486
20
-14.001058
0
VERTEX
5
45f
100
AcDbEntity
8
1
100
AcDbVertex
100
AcDb2dVertex
62
5
10
-2.811486
20
-22.301058
0
VERTEX
5
460
100
AcDbEntity
8
1
100
AcDbVertex
100
AcDb2dVertex
62
5
10
-0.811486
20
-22.301058
0
VERTEX
5
461
100
AcDbEntity
8
1
100
AcDbVertex
100
AcDb2dVertex
62
5
10
-0.811486
20
-14.001058
0
VERTEX
5
462
100
AcDbEntity
8
1
100
AcDbVertex
100
AcDb2dVertex
62
5
10
-2.811486
20
-14.001058
0
SEQEND
5
463
100
AcDbEntity
8
1
0
POLYLINE
5
464
100
AcDbEntity
8
1
6
CONTINUOUS
62
5
100
AcDb2dPolyline
66
1
10
0.0
20
0.0
30
0.0
70
1
0
VERTEX
5
465
100
AcDbEntity
8
1
100
AcDbVertex
100
AcDb2dVertex
62
5
10
-2.911486
20
-22.401058
0
VERTEX
5
466
100
AcDbEntity
8
1
100
AcDbVertex
100
AcDb2dVertex
62
5
10
-0.711486
20
-22.401058
0
VERTEX
5
467
100
AcDbEntity
8
1
100
AcDbVertex
100
AcDb2dVertex
62
5
10
-0.711486
20
-13.901058
0
VERTEX
5
468
100
AcDbEntity
8
1
100
AcDbVertex
100
AcDb2dVertex
62
5
10
-2.911486
20
-13.901058
0
SEQEND
5
469
100
AcDbEntity
8
1
0
LINE
5
46a
100
AcDbEntity
8
1
100
AcDbLine
6
CONTINUOUS
62
5
10
-1.811486
20
-15.151058
11
-1.811486
21
-21.151058
0
LINE
5
46b
100
AcDbEntity
8
1
100
AcDbLine
6
CONTINUOUS
62
5
10
-2.811486
20
-21.151058
11
-0.811486
21
-21.151058
0
LINE
5
46c
100
AcDbEntity
8
1
100
AcDbLine
6
CONTINUOUS
62
5
10
-2.811486
20
-15.151058
11
-0.811486
21
-15.151058
0
ARC
5
46d
100
AcDbEntity
8
1
100
AcDbCircle
6
CONTINUOUS
62
5
10
0.125635
20
-11.651058
40
1.000000
100
AcDbArc
50
32.797168
51
89.999999
0
ARC
5
46e
100
AcDbEntity
8
1
100
AcDbCircle
6
CONTINUOUS
62
5
10
-9.961486
20
-18.151058
40
13.000000
100
AcDbArc
50
-32.797168
51
32.797168
0
ARC
5
46f
100
AcDbEntity
8
1
100
AcDbCircle
6
CONTINUOUS
62
5
10
0.125635
20
-24.651058
40
1.000000
100
AcDbArc
50
-89.999999
51
-32.797168
0
LINE
5
470
100
AcDbEntity
8
1
100
AcDbLine
6
CONTINUOUS
62
5
10
0.125635
20
-25.651058
11
-5.461486
21
-25.651058
0
ARC
5
471
100
AcDbEntity
8
1
100
AcDbCircle
6
CONTINUOUS
62
5
10
-5.461486
20
-24.651058
40
1.000000
100
AcDbArc
50
179.999998
51
-89.999999
0
LINE
5
472
100
AcDbEntity
8
1
100
AcDbLine
6
CONTINUOUS
62
5
10
-6.461486
20
-24.651058
11
-6.461486
21
-11.651058
0
ARC
5
473
100
AcDbEntity
8
1
100
AcDbCircle
6
CONTINUOUS
62
5
10
-5.461486
20
-11.651058
40
1.000000
100
AcDbArc
50
89.999999
51
179.999998
0
LINE
5
474
100
AcDbEntity
8
1
100
AcDbLine
6
CONTINUOUS
62
5
10
-5.461486
20
-10.651058
11
0.125635
21
-10.651058
0
ARC
5
475
100
AcDbEntity
8
1
100
AcDbCircle
6
CONTINUOUS
62
5
10
-8.761486
20
-28.801058
40
0.700000
100
AcDbArc
50
179.999998
51
-89.999999
0
LINE
5
476
100
AcDbEntity
8
1
100
AcDbLine
6
CONTINUOUS
62
5
10
-9.461486
20
-28.801058
11
-9.461486
21
-7.501058
0
ARC
5
477
100
AcDbEntity
8
1
100
AcDbCircle
6
CONTINUOUS
62
5
10
-8.761486
20
-7.501058
40
0.700000
100
AcDbArc
50
89.999999
51
179.999998
0
LINE
5
478
100
AcDbEntity
8
1
100
AcDbLine
6
CONTINUOUS
62
5
10
-8.761486
20
-6.801058
11
17.838514
21
-6.801058
0
ARC
5
479
100
AcDbEntity
8
1
100
AcDbCircle
6
CONTINUOUS
62
5
10
17.838514
20
-7.501058
40
0.700000
100
AcDbArc
50
0.000000
51
89.999999
0
LINE
5
47a
100
AcDbEntity
8
1
100
AcDbLine
6
CONTINUOUS
62
5
10
18.538514
20
-7.501058
11
18.538514
21
-28.801058
0
ARC
5
47b
100
AcDbEntity
8
1
100
AcDbCircle
6
CONTINUOUS
62
5
10
17.838514
20
-28.801058
40
0.700000
100
AcDbArc
50
-89.999999
51
0.000000
0
LINE
5
47c
100
AcDbEntity
8
1
100
AcDbLine
6
CONTINUOUS
62
5
10
17.838514
20
-29.501058
11
-8.761486
21
-29.501058
0
ARC
5
47d
100
AcDbEntity
8
1
100
AcDbCircle
6
CONTINUOUS
62
5
10
8.951394
20
-11.651058
40
1.000000
100
AcDbArc
50
89.999999
51
147.202830
0
ARC
5
47e
100
AcDbEntity
8
1
100
AcDbCircle
6
CONTINUOUS
62
5
10
19.038514
20
-18.151058
40
13.000000
100
AcDbArc
50
147.202830
51
-147.202830
0
ARC
5
47f
100
AcDbEntity
8
1
100
AcDbCircle
6
CONTINUOUS
62
5
10
8.951394
20
-24.651058
40
1.000000
100
AcDbArc
50
-147.202830
51
-89.999999
0
LINE
5
480
100
AcDbEntity
8
1
100
AcDbLine
6
CONTINUOUS
62
5
10
8.951394
20
-25.651058
11
14.538514
21
-25.651058
0
ARC
5
481
100
AcDbEntity
8
1
100
AcDbCircle
6
CONTINUOUS
62
5
10
14.538514
20
-24.651058
40
1.000000
100
AcDbArc
50
-89.999999
51
0.000000
0
LINE
5
482
100
AcDbEntity
8
1
100
AcDbLine
6
CONTINUOUS
62
5
10
15.538514
20
-24.651058
11
15.538514
21
-11.651058
0
ARC
5
483
100
AcDbEntity
8
1
100
AcDbCircle
6
CONTINUOUS
62
5
10
14.538514
20
-11.651058
40
1.000000
100
AcDbArc
50
0.000000
51
89.999999
0
LINE
5
484
100
AcDbEntity
8
1
100
AcDbLine
6
CONTINUOUS
62
5
10
14.538514
20
-10.651058
11
8.951394
21
-10.651058
0
LINE
5
485
100
AcDbEntity
8
1
100
AcDbLine
6
CONTINUOUS
62
5
10
9.788514
20
-44.651058
11
9.081408
21
-45.358165
0
LINE
5
486
100
AcDbEntity
8
1
100
AcDbLine
6
CONTINUOUS
62
5
10
11.988514
20
-44.651058
11
12.695621
21
-45.358165
0
LINE
5
487
100
AcDbEntity
8
1
100
AcDbLine
6
CONTINUOUS
62
5
10
-0.711486
20
-45.401058
11
-0.004379
21
-46.108165
0
LINE
5
488
100
AcDbEntity
8
1
100
AcDbLine
6
CONTINUOUS
62
5
10
-2.911486
20
-45.401058
11
-3.618592
21
-46.108165
0
ARC
5
489
100
AcDbEntity
8
1
100
AcDbCircle
6
CONTINUOUS
62
5
10
0.125635
20
-34.651058
40
1.000000
100
AcDbArc
50
32.797168
51
89.999999
0
ARC
5
48a
100
AcDbEntity
8
1
100
AcDbCircle
6
CONTINUOUS
62
5
10
-9.961486
20
-41.151058
40
13.000000
100
AcDbArc
50
-32.797168
51
32.797168
0
ARC
5
48b
100
AcDbEntity
8
1
100
AcDbCircle
6
CONTINUOUS
62
5
10
0.125635
20
-47.651058
40
1.000000
100
AcDbArc
50
-89.999999
51
-32.797168
0
LINE
5
48c
100
AcDbEntity
8
1
100
AcDbLine
6
CONTINUOUS
62
5
10
0.125635
20
-48.651058
11
-5.461486
21
-48.651058
0
ARC
5
48d
100
AcDbEntity
8
1
100
AcDbCircle
6
CONTINUOUS
62
5
10
-5.461486
20
-47.651058
40
1.000000
100
AcDbArc
50
179.999998
51
-89.999999
0
LINE
5
48e
100
AcDbEntity
8
1
100
AcDbLine
6
CONTINUOUS
62
5
10
-6.461486
20
-47.651058
11
-6.461486
21
-34.651058
0
ARC
5
48f
100
AcDbEntity
8
1
100
AcDbCircle
6
CONTINUOUS
62
5
10
-5.461486
20
-34.651058
40
1.000000
100
AcDbArc
50
89.999999
51
179.999998
0
LINE
5
490
100
AcDbEntity
8
1
100
AcDbLine
6
CONTINUOUS
62
5
10
-5.461486
20
-33.651058
11
0.125635
21
-33.651058
0
POLYLINE
5
491
100
AcDbEntity
8
1
6
CONTINUOUS
62
5
100
AcDb2dPolyline
66
1
10
0.0
20
0.0
30
0.0
70
1
0
VERTEX
5
492
100
AcDbEntity
8
1
100
AcDbVertex
100
AcDb2dVertex
62
5
10
-2.911486
20
-45.401058
0
VERTEX
5
493
100
AcDbEntity
8
1
100
AcDbVertex
100
AcDb2dVertex
62
5
10
-0.711486
20
-45.401058
0
VERTEX
5
494
100
AcDbEntity
8
1
100
AcDbVertex
100
AcDb2dVertex
62
5
10
-0.711486
20
-36.901058
0
VERTEX
5
495
100
AcDbEntity
8
1
100
AcDbVertex
100
AcDb2dVertex
62
5
10
-2.911486
20
-36.901058
0
SEQEND
5
496
100
AcDbEntity
8
1
0
POLYLINE
5
497
100
AcDbEntity
8
1
6
CONTINUOUS
62
5
100
AcDb2dPolyline
66
1
10
0.0
20
0.0
30
0.0
70
1
0
VERTEX
5
498
100
AcDbEntity
8
1
100
AcDbVertex
100
AcDb2dVertex
62
5
10
-2.811486
20
-37.001058
0
VERTEX
5
499
100
AcDbEntity
8
1
100
AcDbVertex
100
AcDb2dVertex
62
5
10
-2.811486
20
-45.301058
0
VERTEX
5
49a
100
AcDbEntity
8
1
100
AcDbVertex
100
AcDb2dVertex
62
5
10
-0.811486
20
-45.301058
0
VERTEX
5
49b
100
AcDbEntity
8
1
100
AcDbVertex
100
AcDb2dVertex
62
5
10
-0.811486
20
-37.001058
0
VERTEX
5
49c
100
AcDbEntity
8
1
100
AcDbVertex
100
AcDb2dVertex
62
5
10
-2.811486
20
-37.001058
0
SEQEND
5
49d
100
AcDbEntity
8
1
0
POLYLINE
5
49e
100
AcDbEntity
8
1
6
CONTINUOUS
62
5
100
AcDb2dPolyline
66
1
10
0.0
20
0.0
30
0.0
70
1
0
VERTEX
5
49f
100
AcDbEntity
8
1
100
AcDbVertex
100
AcDb2dVertex
62
5
10
11.988514
20
-44.651058
0
VERTEX
5
4a0
100
AcDbEntity
8
1
100
AcDbVertex
100
AcDb2dVertex
62
5
10
11.988514
20
-37.651058
0
VERTEX
5
4a1
100
AcDbEntity
8
1
100
AcDbVertex
100
AcDb2dVertex
62
5
10
9.788514
20
-37.651058
0
VERTEX
5
4a2
100
AcDbEntity
8
1
100
AcDbVertex
100
AcDb2dVertex
62
5
10
9.788514
20
-44.651058
0
SEQEND
5
4a3
100
AcDbEntity
8
1
0
POLYLINE
5
4a4
100
AcDbEntity
8
1
6
CONTINUOUS
62
5
100
AcDb2dPolyline
66
1
10
0.0
20
0.0
30
0.0
70
1
0
VERTEX
5
4a5
100
AcDbEntity
8
1
100
AcDbVertex
100
AcDb2dVertex
62
5
10
9.938514
20
-44.501058
0
VERTEX
5
4a6
100
AcDbEntity
8
1
100
AcDbVertex
100
AcDb2dVertex
62
5
10
11.838514
20
-44.501058
0
VERTEX
5
4a7
100
AcDbEntity
8
1
100
AcDbVertex
100
AcDb2dVertex
62
5
10
11.838514
20
-37.801058
0
VERTEX
5
4a8
100
AcDbEntity
8
1
100
AcDbVertex
100
AcDb2dVertex
62
5
10
9.938514
20
-37.801058
0
VERTEX
5
4a9
100
AcDbEntity
8
1
100
AcDbVertex
100
AcDb2dVertex
62
5
10
9.938514
20
-44.501058
0
SEQEND
5
4aa
100
AcDbEntity
8
1
0
LINE
5
4ab
100
AcDbEntity
8
1
100
AcDbLine
6
CONTINUOUS
62
5
10
-2.811486
20
-44.151058
11
-0.811486
21
-44.151058
0
LINE
5
4ac
100
AcDbEntity
8
1
100
AcDbLine
6
CONTINUOUS
62
5
10
-2.811486
20
-38.151058
11
-0.811486
21
-38.151058
0
LINE
5
4ad
100
AcDbEntity
8
1
100
AcDbLine
6
CONTINUOUS
62
5
10
-1.811486
20
-38.151058
11
-1.811486
21
-44.151058
0
LINE
5
4ae
100
AcDbEntity
8
1
100
AcDbLine
6
CONTINUOUS
62
5
10
9.938514
20
-44.151058
11
11.838514
21
-44.151058
0
LINE
5
4af
100
AcDbEntity
8
1
100
AcDbLine
6
CONTINUOUS
62
5
10
9.938514
20
-38.151058
11
11.838514
21
-38.151058
0
LINE
5
4b0
100
AcDbEntity
8
1
100
AcDbLine
6
CONTINUOUS
62
5
10
10.888514
20
-38.151058
11
10.888514
21
-44.151058
0
ARC
5
4b1
100
AcDbEntity
8
1
100
AcDbCircle
6
CONTINUOUS
62
5
10
-8.761486
20
-51.801058
40
0.700000
100
AcDbArc
50
179.999998
51
-89.999999
0
LINE
5
4b2
100
AcDbEntity
8
1
100
AcDbLine
6
CONTINUOUS
62
5
10
-9.461486
20
-51.801058
11
-9.461486
21
-30.501058
0
ARC
5
4b3
100
AcDbEntity
8
1
100
AcDbCircle
6
CONTINUOUS
62
5
10
-8.761486
20
-30.501058
40
0.700000
100
AcDbArc
50
89.999999
51
179.999998
0
LINE
5
4b4
100
AcDbEntity
8
1
100
AcDbLine
6
CONTINUOUS
62
5
10
-8.761486
20
-29.801058
11
17.838514
21
-29.801058
0
ARC
5
4b5
100
AcDbEntity
8
1
100
AcDbCircle
6
CONTINUOUS
62
5
10
17.838514
20
-30.501058
40
0.700000
100
AcDbArc
50
0.000000
51
89.999999
0
LINE
5
4b6
100
AcDbEntity
8
1
100
AcDbLine
6
CONTINUOUS
62
5
10
18.538514
20
-30.501058
11
18.538514
21
-51.801058
0
ARC
5
4b7
100
AcDbEntity
8
1
100
AcDbCircle
6
CONTINUOUS
62
5
10
17.838514
20
-51.801058
40
0.700000
100
AcDbArc
50
-89.999999
51
0.000000
0
LINE
5
4b8
100
AcDbEntity
8
1
100
AcDbLine
6
CONTINUOUS
62
5
10
17.838514
20
-52.501058
11
-8.761486
21
-52.501058
0
ARC
5
4b9
100
AcDbEntity
8
1
100
AcDbCircle
6
CONTINUOUS
62
5
10
8.951394
20
-34.651058
40
1.000000
100
AcDbArc
50
89.999999
51
147.202830
0
ARC
5
4ba
100
AcDbEntity
8
1
100
AcDbCircle
6
CONTINUOUS
62
5
10
19.038514
20
-41.151058
40
13.000000
100
AcDbArc
50
147.202830
51
-147.202830
0
ARC
5
4bb
100
AcDbEntity
8
1
100
AcDbCircle
6
CONTINUOUS
62
5
10
8.951394
20
-47.651058
40
1.000000
100
AcDbArc
50
-147.202830
51
-89.999999
0
LINE
5
4bc
100
AcDbEntity
8
1
100
AcDbLine
6
CONTINUOUS
62
5
10
8.951394
20
-48.651058
11
14.538514
21
-48.651058
0
ARC
5
4bd
100
AcDbEntity
8
1
100
AcDbCircle
6
CONTINUOUS
62
5
10
14.538514
20
-47.651058
40
1.000000
100
AcDbArc
50
-89.999999
51
0.000000
0
LINE
5
4be
100
AcDbEntity
8
1
100
AcDbLine
6
CONTINUOUS
62
5
10
15.538514
20
-47.651058
11
15.538514
21
-34.651058
0
ARC
5
4bf
100
AcDbEntity
8
1
100
AcDbCircle
6
CONTINUOUS
62
5
10
14.538514
20
-34.651058
40
1.000000
100
AcDbArc
50
0.000000
51
89.999999
0
LINE
5
4c0
100
AcDbEntity
8
1
100
AcDbLine
6
CONTINUOUS
62
5
10
14.538514
20
-33.651058
11
8.951394
21
-33.651058
0
POLYLINE
5
4c1
100
AcDbEntity
8
1
6
CONTINUOUS
62
5
100
AcDb2dPolyline
66
1
10
0.0
20
0.0
30
0.0
70
1
0
VERTEX
5
4c2
100
AcDbEntity
8
1
100
AcDbVertex
100
AcDb2dVertex
62
5
10
-9.711486
20
-52.751058
0
VERTEX
5
4c3
100
AcDbEntity
8
1
100
AcDbVertex
100
AcDb2dVertex
62
5
10
18.788514
20
-52.751058
0
VERTEX
5
4c4
100
AcDbEntity
8
1
100
AcDbVertex
100
AcDb2dVertex
62
5
10
18.788514
20
-6.551058
0
VERTEX
5
4c5
100
AcDbEntity
8
1
100
AcDbVertex
100
AcDb2dVertex
62
5
10
-9.711486
20
-6.551058
0
SEQEND
5
4c6
100
AcDbEntity
8
1
0
ARC
5
4c7
100
AcDbEntity
8
1
100
AcDbCircle
6
CONTINUOUS
62
5
10
25.738514
20
-63.451058
40
0.500000
100
AcDbArc
50
-89.999999
51
0.000000
0
POLYLINE
5
4c8
100
AcDbEntity
8
1
6
CONTINUOUS
62
5
100
AcDb2dPolyline
66
1
10
0.0
20
0.0
30
0.0
70
0
0
VERTEX
5
4c9
100
AcDbEntity
8
1
100
AcDbVertex
100
AcDb2dVertex
62
5
10
26.238514
20
-63.451058
0
VERTEX
5
4ca
100
AcDbEntity
8
1
100
AcDbVertex
100
AcDb2dVertex
62
5
10
26.238514
20
-63.451058
0
VERTEX
5
4cb
100
AcDbEntity
8
1
100
AcDbVertex
100
AcDb2dVertex
62
5
10
26.238514
20
-3.551058
0
SEQEND
5
4cc
100
AcDbEntity
8
1
0
ARC
5
4cd
100
AcDbEntity
8
1
100
AcDbCircle
6
CONTINUOUS
62
5
10
25.738514
20
-3.551058
40
0.500000
100
AcDbArc
50
0.000000
51
89.999999
0
LINE
5
4ce
100
AcDbEntity
8
1
100
AcDbLine
6
CONTINUOUS
62
5
10
25.738514
20
-3.051058
11
-16.661486
21
-3.051058
0
ARC
5
4cf
100
AcDbEntity
8
1
100
AcDbCircle
6
CONTINUOUS
62
5
10
-16.661486
20
-3.551058
40
0.500000
100
AcDbArc
50
89.999999
51
-179.999998
0
POLYLINE
5
4d0
100
AcDbEntity
8
1
6
CONTINUOUS
62
5
100
AcDb2dPolyline
66
1
10
0.0
20
0.0
30
0.0
70
0
0
VERTEX
5
4d1
100
AcDbEntity
8
1
100
AcDbVertex
100
AcDb2dVertex
62
5
10
-17.161486
20
-3.551058
0
VERTEX
5
4d2
100
AcDbEntity
8
1
100
AcDbVertex
100
AcDb2dVertex
62
5
10
-17.161486
20
-3.551058
0
VERTEX
5
4d3
100
AcDbEntity
8
1
100
AcDbVertex
100
AcDb2dVertex
62
5
10
-17.161486
20
-63.451058
0
SEQEND
5
4d4
100
AcDbEntity
8
1
0
ARC
5
4d5
100
AcDbEntity
8
1
100
AcDbCircle
6
CONTINUOUS
62
5
10
-16.661486
20
-63.451058
40
0.500000
100
AcDbArc
50
-179.999998
51
-89.999999
0
LINE
5
4d6
100
AcDbEntity
8
1
100
AcDbLine
6
CONTINUOUS
62
5
10
-16.661486
20
-63.951058
11
-16.661486
21
-63.951058
0
LINE
5
4d7
100
AcDbEntity
8
1
100
AcDbLine
6
CONTINUOUS
62
5
10
-16.661486
20
-63.951058
11
25.738514
21
-63.951058
0
ARC
5
4d8
100
AcDbEntity
8
1
100
AcDbCircle
6
CONTINUOUS
62
5
10
25.838514
20
-63.551058
40
0.500000
100
AcDbArc
50
-89.999999
51
0.000000
0
POLYLINE
5
4d9
100
AcDbEntity
8
1
6
CONTINUOUS
62
5
100
AcDb2dPolyline
66
1
10
0.0
20
0.0
30
0.0
70
0
0
VERTEX
5
4da
100
AcDbEntity
8
1
100
AcDbVertex
100
AcDb2dVertex
62
5
10
25.838514
20
-64.051058
0
VERTEX
5
4db
100
AcDbEntity
8
1
100
AcDbVertex
100
AcDb2dVertex
62
5
10
8.038514
20
-64.051058
0
VERTEX
5
4dc
100
AcDbEntity
8
1
100
AcDbVertex
100
AcDb2dVertex
62
5
10
8.038514
20
-63.984391
0
VERTEX
5
4dd
100
AcDbEntity
8
1
100
AcDbVertex
100
AcDb2dVertex
62
5
10
1.038514
20
-63.984391
0
VERTEX
5
4de
100
AcDbEntity
8
1
100
AcDbVertex
100
AcDb2dVertex
62
5
10
1.038514
20
-64.051058
0
VERTEX
5
4df
100
AcDbEntity
8
1
100
AcDbVertex
100
AcDb2dVertex
62
5
10
-16.761486
20
-64.051058
0
SEQEND
5
4e0
100
AcDbEntity
8
1
0
ARC
5
4e1
100
AcDbEntity
8
1
100
AcDbCircle
6
CONTINUOUS
62
5
10
-16.761486
20
-63.551058
40
0.500000
100
AcDbArc
50
179.999998
51
-89.999999
0
LINE
5
4e2
100
AcDbEntity
8
1
100
AcDbLine
6
CONTINUOUS
62
5
10
-17.261486
20
-63.551058
11
-17.261486
21
-3.451058
0
ARC
5
4e3
100
AcDbEntity
8
1
100
AcDbCircle
6
CONTINUOUS
62
5
10
-16.761486
20
-3.451058
40
0.500000
100
AcDbArc
50
89.999999
51
179.999998
0
LINE
5
4e4
100
AcDbEntity
8
1
100
AcDbLine
6
CONTINUOUS
62
5
10
-16.761486
20
-2.951058
11
25.838514
21
-2.951058
0
ARC
5
4e5
100
AcDbEntity
8
1
100
AcDbCircle
6
CONTINUOUS
62
5
10
25.838514
20
-3.451058
40
0.500000
100
AcDbArc
50
0.000000
51
89.999999
0
LINE
5
4e6
100
AcDbEntity
8
1
100
AcDbLine
6
CONTINUOUS
62
5
10
26.338514
20
-3.451058
11
26.338514
21
-63.551058
0
POLYLINE
5
4e7
100
AcDbEntity
8
1
6
DOT2
62
5
100
AcDb2dPolyline
66
1
10
0.0
20
0.0
30
0.0
70
1
0
VERTEX
5
4e8
100
AcDbEntity
8
1
100
AcDbVertex
100
AcDb2dVertex
62
5
10
-64.211486
20
-13.151058
0
VERTEX
5
4e9
100
AcDbEntity
8
1
100
AcDbVertex
100
AcDb2dVertex
62
5
10
-64.211486
20
-12.526058
0
VERTEX
5
4ea
100
AcDbEntity
8
1
100
AcDbVertex
100
AcDb2dVertex
62
5
10
-63.898986
20
-12.213558
0
VERTEX
5
4eb
100
AcDbEntity
8
1
100
AcDbVertex
100
AcDb2dVertex
62
5
10
-62.648986
20
-11.588558
0
VERTEX
5
4ec
100
AcDbEntity
8
1
100
AcDbVertex
100
AcDb2dVertex
62
5
10
-61.398986
20
-11.276058
0
VERTEX
5
4ed
100
AcDbEntity
8
1
100
AcDbVertex
100
AcDb2dVertex
62
5
10
-59.523986
20
-11.276058
0
VERTEX
5
4ee
100
AcDbEntity
8
1
100
AcDbVertex
100
AcDb2dVertex
62
5
10
-58.273986
20
-11.588558
0
VERTEX
5
4ef
100
AcDbEntity
8
1
100
AcDbVertex
100
AcDb2dVertex
62
5
10
-57.023986
20
-12.213558
0
VERTEX
5
4f0
100
AcDbEntity
8
1
100
AcDbVertex
100
AcDb2dVertex
62
5
10
-56.711486
20
-12.526058
0
VERTEX
5
4f1
100
AcDbEntity
8
1
100
AcDbVertex
100
AcDb2dVertex
62
5
10
-56.711486
20
-13.151058
0
VERTEX
5
4f2
100
AcDbEntity
8
1
100
AcDbVertex
100
AcDb2dVertex
62
5
10
-57.023986
20
-13.463558
0
VERTEX
5
4f3
100
AcDbEntity
8
1
100
AcDbVertex
100
AcDb2dVertex
62
5
10
-58.273986
20
-14.088558
0
VERTEX
5
4f4
100
AcDbEntity
8
1
100
AcDbVertex
100
AcDb2dVertex
62
5
10
-59.523986
20
-14.401058
0
VERTEX
5
4f5
100
AcDbEntity
8
1
100
AcDbVertex
100
AcDb2dVertex
62
5
10
-61.398986
20
-14.401058
0
VERTEX
5
4f6
100
AcDbEntity
8
1
100
AcDbVertex
100
AcDb2dVertex
62
5
10
-62.648986
20
-14.088558
0
VERTEX
5
4f7
100
AcDbEntity
8
1
100
AcDbVertex
100
AcDb2dVertex
62
5
10
-63.898986
20
-13.463558
0
VERTEX
5
4f8
100
AcDbEntity
8
1
100
AcDbVertex
100
AcDb2dVertex
62
5
10
-64.211486
20
-13.151058
0
SEQEND
5
4f9
100
AcDbEntity
8
1
0
POLYLINE
5
4fa
100
AcDbEntity
8
1
6
DOT2
62
5
100
AcDb2dPolyline
66
1
10
0.0
20
0.0
30
0.0
70
0
0
VERTEX
5
4fb
100
AcDbEntity
8
1
100
AcDbVertex
100
AcDb2dVertex
62
5
10
-63.586486
20
-23.776058
0
VERTEX
5
4fc
100
AcDbEntity
8
1
100
AcDbVertex
100
AcDb2dVertex
62
5
10
-64.211486
20
-22.838558
0
VERTEX
5
4fd
100
AcDbEntity
8
1
100
AcDbVertex
100
AcDb2dVertex
62
5
10
-56.711486
20
-22.838558
0
SEQEND
5
4fe
100
AcDbEntity
8
1
0
LINE
5
4ff
100
AcDbEntity
8
1
100
AcDbLine
6
DOT2
62
5
10
-56.711486
20
-23.463558
11
-56.711486
21
-22.213558
0
POLYLINE
5
500
100
AcDbEntity
8
1
6
DOT2
62
5
100
AcDb2dPolyline
66
1
10
0.0
20
0.0
30
0.0
70
0
0
VERTEX
5
501
100
AcDbEntity
8
1
100
AcDbVertex
100
AcDb2dVertex
62
5
10
-62.023986
20
-19.401058
0
VERTEX
5
502
100
AcDbEntity
8
1
100
AcDbVertex
100
AcDb2dVertex
62
5
10
-63.586486
20
-19.088558
0
VERTEX
5
503
100
AcDbEntity
8
1
100
AcDbVertex
100
AcDb2dVertex
62
5
10
-64.211486
20
-18.151058
0
VERTEX
5
504
100
AcDbEntity
8
1
100
AcDbVertex
100
AcDb2dVertex
62
5
10
-64.211486
20
-17.213558
0
VERTEX
5
505
100
AcDbEntity
8
1
100
AcDbVertex
100
AcDb2dVertex
62
5
10
-63.898986
20
-16.588558
0
VERTEX
5
506
100
AcDbEntity
8
1
100
AcDbVertex
100
AcDb2dVertex
62
5
10
-62.961486
20
-16.276058
0
VERTEX
5
507
100
AcDbEntity
8
1
100
AcDbVertex
100
AcDb2dVertex
62
5
10
-62.023986
20
-16.276058
0
VERTEX
5
508
100
AcDbEntity
8
1
100
AcDbVertex
100
AcDb2dVertex
62
5
10
-61.086486
20
-16.588558
0
VERTEX
5
509
100
AcDbEntity
8
1
100
AcDbVertex
100
AcDb2dVertex
62
5
10
-56.711486
20
-19.401058
0
VERTEX
5
50a
100
AcDbEntity
8
1
100
AcDbVertex
100
AcDb2dVertex
62
5
10
-56.711486
20
-16.276058
0
VERTEX
5
50b
100
AcDbEntity
8
1
100
AcDbVertex
100
AcDb2dVertex
62
5
10
-57.648986
20
-16.276058
0
SEQEND
5
50c
100
AcDbEntity
8
1
0
LINE
5
50d
100
AcDbEntity
8
1
100
AcDbLine
6
CONTINUOUS
62
5
10
30.738514
20
-128.338558
11
34.488514
21
-127.713558
0
LINE
5
50e
100
AcDbEntity
8
1
100
AcDbLine
6
CONTINUOUS
62
5
10
29.488514
20
-130.213558
11
35.488514
21
-130.213558
0
POLYLINE
5
50f
100
AcDbEntity
8
1
6
CONTINUOUS
62
5
100
AcDb2dPolyline
66
1
10
0.0
20
0.0
30
0.0
70
0
0
VERTEX
5
510
100
AcDbEntity
8
1
100
AcDbVertex
100
AcDb2dVertex
62
5
10
32.738514
20
-128.026058
0
VERTEX
5
511
100
AcDbEntity
8
1
100
AcDbVertex
100
AcDb2dVertex
62
5
10
32.738514
20
-130.213558
0
VERTEX
5
512
100
AcDbEntity
8
1
100
AcDbVertex
100
AcDb2dVertex
62
5
10
32.488514
20
-131.776058
0
VERTEX
5
513
100
AcDbEntity
8
1
100
AcDbVertex
100
AcDb2dVertex
62
5
10
31.738514
20
-133.026058
0
VERTEX
5
514
100
AcDbEntity
8
1
100
AcDbVertex
100
AcDb2dVertex
62
5
10
30.988514
20
-133.963558
0
SEQEND
5
515
100
AcDbEntity
8
1
0
POLYLINE
5
516
100
AcDbEntity
8
1
6
CONTINUOUS
62
5
100
AcDb2dPolyline
66
1
10
0.0
20
0.0
30
0.0
70
0
0
VERTEX
5
517
100
AcDbEntity
8
1
100
AcDbVertex
100
AcDb2dVertex
62
5
10
40.238514
20
-128.026058
0
VERTEX
5
518
100
AcDbEntity
8
1
100
AcDbVertex
100
AcDb2dVertex
62
5
10
40.738514
20
-128.026058
0
VERTEX
5
519
100
AcDbEntity
8
1
100
AcDbVertex
100
AcDb2dVertex
62
5
10
40.738514
20
-128.651058
0
VERTEX
5
51a
100
AcDbEntity
8
1
100
AcDbVertex
100
AcDb2dVertex
62
5
10
40.238514
20
-128.651058
0
VERTEX
5
51b
100
AcDbEntity
8
1
100
AcDbVertex
100
AcDb2dVertex
62
5
10
40.238514
20
-128.026058
0
VERTEX
5
51c
100
AcDbEntity
8
1
100
AcDbVertex
100
AcDb2dVertex
62
5
10
40.738514
20
-128.651058
0
SEQEND
5
51d
100
AcDbEntity
8
1
0
LINE
5
51e
100
AcDbEntity
8
1
100
AcDbLine
6
CONTINUOUS
62
5
10
40.738514
20
-128.026058
11
40.238514
21
-128.651058
0
POLYLINE
5
51f
100
AcDbEntity
8
1
6
CONTINUOUS
62
5
100
AcDb2dPolyline
66
1
10
0.0
20
0.0
30
0.0
70
0
0
VERTEX
5
520
100
AcDbEntity
8
1
100
AcDbVertex
100
AcDb2dVertex
62
5
10
40.238514
20
-132.713558
0
VERTEX
5
521
100
AcDbEntity
8
1
100
AcDbVertex
100
AcDb2dVertex
62
5
10
40.738514
20
-132.713558
0
VERTEX
5
522
100
AcDbEntity
8
1
100
AcDbVertex
100
AcDb2dVertex
62
5
10
40.738514
20
-133.338558
0
VERTEX
5
523
100
AcDbEntity
8
1
100
AcDbVertex
100
AcDb2dVertex
62
5
10
40.238514
20
-133.338558
0
VERTEX
5
524
100
AcDbEntity
8
1
100
AcDbVertex
100
AcDb2dVertex
62
5
10
40.238514
20
-132.713558
0
VERTEX
5
525
100
AcDbEntity
8
1
100
AcDbVertex
100
AcDb2dVertex
62
5
10
40.738514
20
-133.338558
0
SEQEND
5
526
100
AcDbEntity
8
1
0
LINE
5
527
100
AcDbEntity
8
1
100
AcDbLine
6
CONTINUOUS
62
5
10
40.738514
20
-132.713558
11
40.238514
21
-133.338558
0
POLYLINE
5
528
100
AcDbEntity
8
1
6
CONTINUOUS
62
5
100
AcDb2dPolyline
66
1
10
0.0
20
0.0
30
0.0
70
0
0
VERTEX
5
529
100
AcDbEntity
8
1
100
AcDbVertex
100
AcDb2dVertex
62
5
10
46.238514
20
-127.401058
0
VERTEX
5
52a
100
AcDbEntity
8
1
100
AcDbVertex
100
AcDb2dVertex
62
5
10
46.988514
20
-126.776058
0
VERTEX
5
52b
100
AcDbEntity
8
1
100
AcDbVertex
100
AcDb2dVertex
62
5
10
46.988514
20
-134.276058
0
SEQEND
5
52c
100
AcDbEntity
8
1
0
LINE
5
52d
100
AcDbEntity
8
1
100
AcDbLine
6
CONTINUOUS
62
5
10
46.488514
20
-134.276058
11
47.488514
21
-134.276058
0
POLYLINE
5
52e
100
AcDbEntity
8
1
6
CONTINUOUS
62
5
100
AcDb2dPolyline
66
1
10
0.0
20
0.0
30
0.0
70
0
0
VERTEX
5
52f
100
AcDbEntity
8
1
100
AcDbVertex
100
AcDb2dVertex
62
5
10
40.238514
20
-139.276058
0
VERTEX
5
530
100
AcDbEntity
8
1
100
AcDbVertex
100
AcDb2dVertex
62
5
10
40.738514
20
-139.276058
0
VERTEX
5
531
100
AcDbEntity
8
1
100
AcDbVertex
100
AcDb2dVertex
62
5
10
40.738514
20
-139.901058
0
VERTEX
5
532
100
AcDbEntity
8
1
100
AcDbVertex
100
AcDb2dVertex
62
5
10
40.238514
20
-139.901058
0
VERTEX
5
533
100
AcDbEntity
8
1
100
AcDbVertex
100
AcDb2dVertex
62
5
10
40.238514
20
-139.276058
0
VERTEX
5
534
100
AcDbEntity
8
1
100
AcDbVertex
100
AcDb2dVertex
62
5
10
40.738514
20
-139.901058
0
SEQEND
5
535
100
AcDbEntity
8
1
0
LINE
5
536
100
AcDbEntity
8
1
100
AcDbLine
6
CONTINUOUS
62
5
10
40.738514
20
-139.276058
11
40.238514
21
-139.901058
0
POLYLINE
5
537
100
AcDbEntity
8
1
6
CONTINUOUS
62
5
100
AcDb2dPolyline
66
1
10
0.0
20
0.0
30
0.0
70
0
0
VERTEX
5
538
100
AcDbEntity
8
1
100
AcDbVertex
100
AcDb2dVertex
62
5
10
40.238514
20
-143.963558
0
VERTEX
5
539
100
AcDbEntity
8
1
100
AcDbVertex
100
AcDb2dVertex
62
5
10
40.738514
20
-143.963558
0
VERTEX
5
53a
100
AcDbEntity
8
1
100
AcDbVertex
100
AcDb2dVertex
62
5
10
40.738514
20
-144.588558
0
VERTEX
5
53b
100
AcDbEntity
8
1
100
AcDbVertex
100
AcDb2dVertex
62
5
10
40.238514
20
-144.588558
0
VERTEX
5
53c
100
AcDbEntity
8
1
100
AcDbVertex
100
AcDb2dVertex
62
5
10
40.238514
20
-143.963558
0
VERTEX
5
53d
100
AcDbEntity
8
1
100
AcDbVertex
100
AcDb2dVertex
62
5
10
40.738514
20
-144.588558
0
SEQEND
5
53e
100
AcDbEntity
8
1
0
LINE
5
53f
100
AcDbEntity
8
1
100
AcDbLine
6
CONTINUOUS
62
5
10
40.738514
20
-143.963558
11
40.238514
21
-144.588558
0
POLYLINE
5
540
100
AcDbEntity
8
1
6
CONTINUOUS
62
5
100
AcDb2dPolyline
66
1
10
0.0
20
0.0
30
0.0
70
0
0
VERTEX
5
541
100
AcDbEntity
8
1
100
AcDbVertex
100
AcDb2dVertex
62
5
10
46.238514
20
-138.651058
0
VERTEX
5
542
100
AcDbEntity
8
1
100
AcDbVertex
100
AcDb2dVertex
62
5
10
46.988514
20
-138.026058
0
VERTEX
5
543
100
AcDbEntity
8
1
100
AcDbVertex
100
AcDb2dVertex
62
5
10
46.988514
20
-145.526058
0
SEQEND
5
544
100
AcDbEntity
8
1
0
LINE
5
545
100
AcDbEntity
8
1
100
AcDbLine
6
CONTINUOUS
62
5
10
46.488514
20
-145.526058
11
47.488514
21
-145.526058
0
POLYLINE
5
546
100
AcDbEntity
8
1
6
CONTINUOUS
62
5
100
AcDb2dPolyline
66
1
10
0.0
20
0.0
30
0.0
70
0
0
VERTEX
5
547
100
AcDbEntity
8
1
100
AcDbVertex
100
AcDb2dVertex
62
5
10
18.488514
20
-127.088558
0
VERTEX
5
548
100
AcDbEntity
8
1
100
AcDbVertex
100
AcDb2dVertex
62
5
10
16.488514
20
-129.588558
0
VERTEX
5
549
100
AcDbEntity
8
1
100
AcDbVertex
100
AcDb2dVertex
62
5
10
14.238514
20
-131.151058
0
SEQEND
5
54a
100
AcDbEntity
8
1
0
LINE
5
54b
100
AcDbEntity
8
1
100
AcDbLine
6
CONTINUOUS
62
5
10
16.988514
20
-128.963558
11
16.988514
21
-134.276058
0
LINE
5
54c
100
AcDbEntity
8
1
100
AcDbLine
6
CONTINUOUS
62
5
10
22.988514
20
-130.213558
11
23.238514
21
-131.463558
0
LINE
5
54d
100
AcDbEntity
8
1
100
AcDbLine
6
CONTINUOUS
62
5
10
24.488514
20
-129.901058
11
24.738514
21
-131.151058
0
POLYLINE
5
54e
100
AcDbEntity
8
1
6
CONTINUOUS
62
5
100
AcDb2dPolyline
66
1
10
0.0
20
0.0
30
0.0
70
0
0
VERTEX
5
54f
100
AcDbEntity
8
1
100
AcDbVertex
100
AcDb2dVertex
62
5
10
26.488514
20
-129.901058
0
VERTEX
5
550
100
AcDbEntity
8
1
100
AcDbVertex
100
AcDb2dVertex
62
5
10
26.238514
20
-131.463558
0
VERTEX
5
551
100
AcDbEntity
8
1
100
AcDbVertex
100
AcDb2dVertex
62
5
10
24.988514
20
-133.338558
0
VERTEX
5
552
100
AcDbEntity
8
1
100
AcDbVertex
100
AcDb2dVertex
62
5
10
23.988514
20
-134.276058
0
SEQEND
5
553
100
AcDbEntity
8
1
0
LINE
5
554
100
AcDbEntity
8
1
100
AcDbLine
6
CONTINUOUS
62
5
10
14.488514
20
-139.588558
11
15.488514
21
-140.838558
0
POLYLINE
5
555
100
AcDbEntity
8
1
6
CONTINUOUS
62
5
100
AcDb2dPolyline
66
1
10
0.0
20
0.0
30
0.0
70
0
0
VERTEX
5
556
100
AcDbEntity
8
1
100
AcDbVertex
100
AcDb2dVertex
62
5
10
14.238514
20
-144.588558
0
VERTEX
5
557
100
AcDbEntity
8
1
100
AcDbVertex
100
AcDb2dVertex
62
5
10
15.988514
20
-143.651058
0
VERTEX
5
558
100
AcDbEntity
8
1
100
AcDbVertex
100
AcDb2dVertex
62
5
10
17.488514
20
-142.401058
0
VERTEX
5
559
100
AcDbEntity
8
1
100
AcDbVertex
100
AcDb2dVertex
62
5
10
18.988514
20
-140.838558
0
SEQEND
5
55a
100
AcDbEntity
8
1
0
POLYLINE
5
55b
100
AcDbEntity
8
1
6
CONTINUOUS
62
5
100
AcDb2dPolyline
66
1
10
0.0
20
0.0
30
0.0
70
0
0
VERTEX
5
55c
100
AcDbEntity
8
1
100
AcDbVertex
100
AcDb2dVertex
62
5
10
23.988514
20
-140.838558
0
VERTEX
5
55d
100
AcDbEntity
8
1
100
AcDbVertex
100
AcDb2dVertex
62
5
10
24.238514
20
-140.838558
0
VERTEX
5
55e
100
AcDbEntity
8
1
100
AcDbVertex
100
AcDb2dVertex
62
5
10
25.988514
20
-142.088558
0
SEQEND
5
55f
100
AcDbEntity
8
1
0
LINE
5
560
100
AcDbEntity
8
1
100
AcDbLine
6
CONTINUOUS
62
5
10
23.988514
20
-138.026058
11
23.988514
21
-145.526058
0
POLYLINE
5
561
100
AcDbEntity
8
1
6
CONTINUOUS
62
5
100
AcDb2dPolyline
66
1
10
0.0
20
0.0
30
0.0
70
0
0
VERTEX
5
562
100
AcDbEntity
8
1
100
AcDbVertex
100
AcDb2dVertex
62
5
10
-9.511486
20
-139.901058
0
VERTEX
5
563
100
AcDbEntity
8
1
100
AcDbVertex
100
AcDb2dVertex
62
5
10
-5.511486
20
-139.901058
0
VERTEX
5
564
100
AcDbEntity
8
1
100
AcDbVertex
100
AcDb2dVertex
62
5
10
-5.511486
20
-144.276058
0
VERTEX
5
565
100
AcDbEntity
8
1
100
AcDbVertex
100
AcDb2dVertex
62
5
10
-9.511486
20
-144.276058
0
SEQEND
5
566
100
AcDbEntity
8
1
0
LINE
5
567
100
AcDbEntity
8
1
100
AcDbLine
6
CONTINUOUS
62
5
10
-1.511486
20
-139.588558
11
-0.511486
21
-140.838558
0
POLYLINE
5
568
100
AcDbEntity
8
1
6
CONTINUOUS
62
5
100
AcDb2dPolyline
66
1
10
0.0
20
0.0
30
0.0
70
0
0
VERTEX
5
569
100
AcDbEntity
8
1
100
AcDbVertex
100
AcDb2dVertex
62
5
10
-1.761486
20
-144.588558
0
VERTEX
5
56a
100
AcDbEntity
8
1
100
AcDbVertex
100
AcDb2dVertex
62
5
10
-0.011486
20
-143.651058
0
VERTEX
5
56b
100
AcDbEntity
8
1
100
AcDbVertex
100
AcDb2dVertex
62
5
10
1.488514
20
-142.401058
0
VERTEX
5
56c
100
AcDbEntity
8
1
100
AcDbVertex
100
AcDb2dVertex
62
5
10
2.988514
20
-140.838558
0
SEQEND
5
56d
100
AcDbEntity
8
1
0
POLYLINE
5
56e
100
AcDbEntity
8
1
6
CONTINUOUS
62
5
100
AcDb2dPolyline
66
1
10
0.0
20
0.0
30
0.0
70
0
0
VERTEX
5
56f
100
AcDbEntity
8
1
100
AcDbVertex
100
AcDb2dVertex
62
5
10
6.738514
20
-128.651058
0
VERTEX
5
570
100
AcDbEntity
8
1
100
AcDbVertex
100
AcDb2dVertex
62
5
10
9.988514
20
-128.651058
0
VERTEX
5
571
100
AcDbEntity
8
1
100
AcDbVertex
100
AcDb2dVertex
62
5
10
9.988514
20
-128.963558
0
VERTEX
5
572
100
AcDbEntity
8
1
100
AcDbVertex
100
AcDb2dVertex
62
5
10
9.488514
20
-130.213558
0
VERTEX
5
573
100
AcDbEntity
8
1
100
AcDbVertex
100
AcDb2dVertex
62
5
10
8.988514
20
-131.151058
0
VERTEX
5
574
100
AcDbEntity
8
1
100
AcDbVertex
100
AcDb2dVertex
62
5
10
7.988514
20
-132.401058
0
VERTEX
5
575
100
AcDbEntity
8
1
100
AcDbVertex
100
AcDb2dVertex
62
5
10
6.238514
20
-133.963558
0
SEQEND
5
576
100
AcDbEntity
8
1
0
LINE
5
577
100
AcDbEntity
8
1
100
AcDbLine
6
CONTINUOUS
62
5
10
8.988514
20
-131.151058
11
10.988514
21
-133.963558
0
POLYLINE
5
578
100
AcDbEntity
8
1
6
CONTINUOUS
62
5
100
AcDb2dPolyline
66
1
10
0.0
20
0.0
30
0.0
70
0
0
VERTEX
5
579
100
AcDbEntity
8
1
100
AcDbVertex
100
AcDb2dVertex
62
5
10
5.738514
20
-141.463558
0
VERTEX
5
57a
100
AcDbEntity
8
1
100
AcDbVertex
100
AcDb2dVertex
62
5
10
10.988514
20
-140.838558
0
VERTEX
5
57b
100
AcDbEntity
8
1
100
AcDbVertex
100
AcDb2dVertex
62
5
10
10.988514
20
-141.151058
0
VERTEX
5
57c
100
AcDbEntity
8
1
100
AcDbVertex
100
AcDb2dVertex
62
5
10
9.738514
20
-142.713558
0
SEQEND
5
57d
100
AcDbEntity
8
1
0
POLYLINE
5
57e
100
AcDbEntity
8
1
6
CONTINUOUS
62
5
100
AcDb2dPolyline
66
1
10
0.0
20
0.0
30
0.0
70
0
0
VERTEX
5
57f
100
AcDbEntity
8
1
100
AcDbVertex
100
AcDb2dVertex
62
5
10
7.738514
20
-138.651058
0
VERTEX
5
580
100
AcDbEntity
8
1
100
AcDbVertex
100
AcDb2dVertex
62
5
10
7.738514
20
-144.588558
0
VERTEX
5
581
100
AcDbEntity
8
1
100
AcDbVertex
100
AcDb2dVertex
62
5
10
8.238514
20
-145.213558
0
VERTEX
5
582
100
AcDbEntity
8
1
100
AcDbVertex
100
AcDb2dVertex
62
5
10
10.988514
20
-145.213558
0
SEQEND
5
583
100
AcDbEntity
8
1
0
POLYLINE
5
584
100
AcDbEntity
8
1
6
CONTINUOUS
62
5
100
AcDb2dPolyline
66
1
10
0.0
20
0.0
30
0.0
70
0
0
VERTEX
5
585
100
AcDbEntity
8
1
100
AcDbVertex
100
AcDb2dVertex
62
5
10
-9.511486
20
-126.463558
0
VERTEX
5
586
100
AcDbEntity
8
1
100
AcDbVertex
100
AcDb2dVertex
62
5
10
-9.511486
20
-131.776058
0
VERTEX
5
587
100
AcDbEntity
8
1
100
AcDbVertex
100
AcDb2dVertex
62
5
10
-10.011486
20
-133.651058
0
VERTEX
5
588
100
AcDbEntity
8
1
100
AcDbVertex
100
AcDb2dVertex
62
5
10
-10.761486
20
-134.901058
0
SEQEND
5
589
100
AcDbEntity
8
1
0
LINE
5
58a
100
AcDbEntity
8
1
100
AcDbLine
6
CONTINUOUS
62
5
10
-9.511486
20
-128.651058
11
-4.011486
21
-128.651058
0
LINE
5
58b
100
AcDbEntity
8
1
100
AcDbLine
6
CONTINUOUS
62
5
10
-6.761486
20
-126.151058
11
-6.761486
21
-128.651058
0
POLYLINE
5
58c
100
AcDbEntity
8
1
6
CONTINUOUS
62
5
100
AcDb2dPolyline
66
1
10
0.0
20
0.0
30
0.0
70
0
0
VERTEX
5
58d
100
AcDbEntity
8
1
100
AcDbVertex
100
AcDb2dVertex
62
5
10
-9.511486
20
-131.151058
0
VERTEX
5
58e
100
AcDbEntity
8
1
100
AcDbVertex
100
AcDb2dVertex
62
5
10
-6.011486
20
-131.151058
0
VERTEX
5
58f
100
AcDbEntity
8
1
100
AcDbVertex
100
AcDb2dVertex
62
5
10
-6.011486
20
-135.213558
0
SEQEND
5
590
100
AcDbEntity
8
1
0
POLYLINE
5
591
100
AcDbEntity
8
1
6
CONTINUOUS
62
5
100
AcDb2dPolyline
66
1
10
0.0
20
0.0
30
0.0
70
0
0
VERTEX
5
592
100
AcDbEntity
8
1
100
AcDbVertex
100
AcDb2dVertex
62
5
10
-3.011486
20
-129.276058
0
VERTEX
5
593
100
AcDbEntity
8
1
100
AcDbVertex
100
AcDb2dVertex
62
5
10
-1.511486
20
-128.963558
0
VERTEX
5
594
100
AcDbEntity
8
1
100
AcDbVertex
100
AcDb2dVertex
62
5
10
-0.261486
20
-128.338558
0
SEQEND
5
595
100
AcDbEntity
8
1
0
POLYLINE
5
596
100
AcDbEntity
8
1
6
CONTINUOUS
62
5
100
AcDb2dPolyline
66
1
10
0.0
20
0.0
30
0.0
70
0
0
VERTEX
5
597
100
AcDbEntity
8
1
100
AcDbVertex
100
AcDb2dVertex
62
5
10
-2.011486
20
-126.463558
0
VERTEX
5
598
100
AcDbEntity
8
1
100
AcDbVertex
100
AcDb2dVertex
62
5
10
-2.011486
20
-132.088558
0
VERTEX
5
599
100
AcDbEntity
8
1
100
AcDbVertex
100
AcDb2dVertex
62
5
10
-1.511486
20
-132.713558
0
VERTEX
5
59a
100
AcDbEntity
8
1
100
AcDbVertex
100
AcDb2dVertex
62
5
10
-0.261486
20
-132.713558
0
VERTEX
5
59b
100
AcDbEntity
8
1
100
AcDbVertex
100
AcDb2dVertex
62
5
10
-0.011486
20
-131.463558
0
SEQEND
5
59c
100
AcDbEntity
8
1
0
POLYLINE
5
59d
100
AcDbEntity
8
1
6
CONTINUOUS
62
5
100
AcDb2dPolyline
66
1
10
0.0
20
0.0
30
0.0
70
0
0
VERTEX
5
59e
100
AcDbEntity
8
1
100
AcDbVertex
100
AcDb2dVertex
62
5
10
1.238514
20
-127.401058
0
VERTEX
5
59f
100
AcDbEntity
8
1
100
AcDbVertex
100
AcDb2dVertex
62
5
10
1.238514
20
-131.151058
0
VERTEX
5
5a0
100
AcDbEntity
8
1
100
AcDbVertex
100
AcDb2dVertex
62
5
10
0.738514
20
-132.713558
0
VERTEX
5
5a1
100
AcDbEntity
8
1
100
AcDbVertex
100
AcDb2dVertex
62
5
10
-0.011486
20
-133.963558
0
VERTEX
5
5a2
100
AcDbEntity
8
1
100
AcDbVertex
100
AcDb2dVertex
62
5
10
-1.261486
20
-134.901058
0
SEQEND
5
5a3
100
AcDbEntity
8
1
0
POLYLINE
5
5a4
100
AcDbEntity
8
1
6
CONTINUOUS
62
5
100
AcDb2dPolyline
66
1
10
0.0
20
0.0
30
0.0
70
0
0
VERTEX
5
5a5
100
AcDbEntity
8
1
100
AcDbVertex
100
AcDb2dVertex
62
5
10
-0.261486
20
-127.401058
0
VERTEX
5
5a6
100
AcDbEntity
8
1
100
AcDbVertex
100
AcDb2dVertex
62
5
10
3.488514
20
-127.401058
0
VERTEX
5
5a7
100
AcDbEntity
8
1
100
AcDbVertex
100
AcDb2dVertex
62
5
10
3.488514
20
-132.713558
0
VERTEX
5
5a8
100
AcDbEntity
8
1
100
AcDbVertex
100
AcDb2dVertex
62
5
10
3.238514
20
-133.651058
0
VERTEX
5
5a9
100
AcDbEntity
8
1
100
AcDbVertex
100
AcDb2dVertex
62
5
10
2.738514
20
-133.963558
0
VERTEX
5
5aa
100
AcDbEntity
8
1
100
AcDbVertex
100
AcDb2dVertex
62
5
10
1.738514
20
-133.963558
0
SEQEND
5
5ab
100
AcDbEntity
8
1
0
LINE
5
5ac
100
AcDbEntity
8
1
100
AcDbLine
6
CONTINUOUS
62
5
10
-22.261486
20
-124.151058
11
-22.261486
21
-148.151058
0
LINE
5
5ad
100
AcDbEntity
8
1
100
AcDbLine
6
CONTINUOUS
62
5
10
-41.636486
20
-133.963558
11
-38.511486
21
-133.963558
0
LINE
5
5ae
100
AcDbEntity
8
1
100
AcDbLine
6
CONTINUOUS
62
5
10
-39.761486
20
-131.776058
11
-39.761486
21
-140.526058
0
POLYLINE
5
5af
100
AcDbEntity
8
1
6
CONTINUOUS
62
5
100
AcDb2dPolyline
66
1
10
0.0
20
0.0
30
0.0
70
0
0
VERTEX
5
5b0
100
AcDbEntity
8
1
100
AcDbVertex
100
AcDb2dVertex
62
5
10
-39.761486
20
-133.963558
0
VERTEX
5
5b1
100
AcDbEntity
8
1
100
AcDbVertex
100
AcDb2dVertex
62
5
10
-40.698986
20
-136.151058
0
VERTEX
5
5b2
100
AcDbEntity
8
1
100
AcDbVertex
100
AcDb2dVertex
62
5
10
-41.636486
20
-137.401058
0
SEQEND
5
5b3
100
AcDbEntity
8
1
0
LINE
5
5b4
100
AcDbEntity
8
1
100
AcDbLine
6
CONTINUOUS
62
5
10
-39.761486
20
-134.901058
11
-38.823986
21
-136.151058
0
POLYLINE
5
5b5
100
AcDbEntity
8
1
6
CONTINUOUS
62
5
100
AcDb2dPolyline
66
1
10
0.0
20
0.0
30
0.0
70
0
0
VERTEX
5
5b6
100
AcDbEntity
8
1
100
AcDbVertex
100
AcDb2dVertex
62
5
10
-36.323986
20
-131.776058
0
VERTEX
5
5b7
100
AcDbEntity
8
1
100
AcDbVertex
100
AcDb2dVertex
62
5
10
-36.948986
20
-133.026058
0
VERTEX
5
5b8
100
AcDbEntity
8
1
100
AcDbVertex
100
AcDb2dVertex
62
5
10
-38.511486
20
-134.901058
0
SEQEND
5
5b9
100
AcDbEntity
8
1
0
POLYLINE
5
5ba
100
AcDbEntity
8
1
6
CONTINUOUS
62
5
100
AcDb2dPolyline
66
1
10
0.0
20
0.0
30
0.0
70
0
0
VERTEX
5
5bb
100
AcDbEntity
8
1
100
AcDbVertex
100
AcDb2dVertex
62
5
10
-36.948986
20
-133.026058
0
VERTEX
5
5bc
100
AcDbEntity
8
1
100
AcDbVertex
100
AcDb2dVertex
62
5
10
-33.823986
20
-133.026058
0
VERTEX
5
5bd
100
AcDbEntity
8
1
100
AcDbVertex
100
AcDb2dVertex
62
5
10
-34.761486
20
-134.588558
0
VERTEX
5
5be
100
AcDbEntity
8
1
100
AcDbVertex
100
AcDb2dVertex
62
5
10
-36.323986
20
-136.151058
0
VERTEX
5
5bf
100
AcDbEntity
8
1
100
AcDbVertex
100
AcDb2dVertex
62
5
10
-38.511486
20
-137.401058
0
SEQEND
5
5c0
100
AcDbEntity
8
1
0
POLYLINE
5
5c1
100
AcDbEntity
8
1
6
CONTINUOUS
62
5
100
AcDb2dPolyline
66
1
10
0.0
20
0.0
30
0.0
70
0
0
VERTEX
5
5c2
100
AcDbEntity
8
1
100
AcDbVertex
100
AcDb2dVertex
62
5
10
-36.948986
20
-133.026058
0
VERTEX
5
5c3
100
AcDbEntity
8
1
100
AcDbVertex
100
AcDb2dVertex
62
5
10
-36.323986
20
-134.588558
0
VERTEX
5
5c4
100
AcDbEntity
8
1
100
AcDbVertex
100
AcDb2dVertex
62
5
10
-35.073986
20
-136.151058
0
VERTEX
5
5c5
100
AcDbEntity
8
1
100
AcDbVertex
100
AcDb2dVertex
62
5
10
-34.136486
20
-136.776058
0
VERTEX
5
5c6
100
AcDbEntity
8
1
100
AcDbVertex
100
AcDb2dVertex
62
5
10
-32.886486
20
-137.401058
0
SEQEND
5
5c7
100
AcDbEntity
8
1
0
POLYLINE
5
5c8
100
AcDbEntity
8
1
6
CONTINUOUS
62
5
100
AcDb2dPolyline
66
1
10
0.0
20
0.0
30
0.0
70
1
0
VERTEX
5
5c9
100
AcDbEntity
8
1
100
AcDbVertex
100
AcDb2dVertex
62
5
10
-37.261486
20
-137.401058
0
VERTEX
5
5ca
100
AcDbEntity
8
1
100
AcDbVertex
100
AcDb2dVertex
62
5
10
-37.261486
20
-140.213558
0
VERTEX
5
5cb
100
AcDbEntity
8
1
100
AcDbVertex
100
AcDb2dVertex
62
5
10
-33.823986
20
-140.213558
0
VERTEX
5
5cc
100
AcDbEntity
8
1
100
AcDbVertex
100
AcDb2dVertex
62
5
10
-33.823986
20
-137.401058
0
VERTEX
5
5cd
100
AcDbEntity
8
1
100
AcDbVertex
100
AcDb2dVertex
62
5
10
-37.261486
20
-137.401058
0
SEQEND
5
5ce
100
AcDbEntity
8
1
0
LINE
5
5cf
100
AcDbEntity
8
1
100
AcDbLine
6
CONTINUOUS
62
5
10
-57.573986
20
-131.776058
11
-57.573986
21
-132.713558
0
POLYLINE
5
5d0
100
AcDbEntity
8
1
6
CONTINUOUS
62
5
100
AcDb2dPolyline
66
1
10
0.0
20
0.0
30
0.0
70
0
0
VERTEX
5
5d1
100
AcDbEntity
8
1
100
AcDbVertex
100
AcDb2dVertex
62
5
10
-61.323986
20
-134.901058
0
VERTEX
5
5d2
100
AcDbEntity
8
1
100
AcDbVertex
100
AcDb2dVertex
62
5
10
-61.323986
20
-132.713558
0
VERTEX
5
5d3
100
AcDbEntity
8
1
100
AcDbVertex
100
AcDb2dVertex
62
5
10
-53.823986
20
-132.713558
0
VERTEX
5
5d4
100
AcDbEntity
8
1
100
AcDbVertex
100
AcDb2dVertex
62
5
10
-53.823986
20
-134.901058
0
SEQEND
5
5d5
100
AcDbEntity
8
1
0
LINE
5
5d6
100
AcDbEntity
8
1
100
AcDbLine
6
CONTINUOUS
62
5
10
-60.386486
20
-134.588558
11
-54.761486
21
-134.588558
0
LINE
5
5d7
100
AcDbEntity
8
1
100
AcDbLine
6
CONTINUOUS
62
5
10
-57.573986
20
-134.588558
11
-57.573986
21
-139.901058
0
LINE
5
5d8
100
AcDbEntity
8
1
100
AcDbLine
6
CONTINUOUS
62
5
10
-57.573986
20
-137.088558
11
-54.761486
21
-137.088558
0
POLYLINE
5
5d9
100
AcDbEntity
8
1
6
CONTINUOUS
62
5
100
AcDb2dPolyline
66
1
10
0.0
20
0.0
30
0.0
70
0
0
VERTEX
5
5da
100
AcDbEntity
8
1
100
AcDbVertex
100
AcDb2dVertex
62
5
10
-59.761486
20
-136.463558
0
VERTEX
5
5db
100
AcDbEntity
8
1
100
AcDbVertex
100
AcDb2dVertex
62
5
10
-60.073986
20
-138.338558
0
VERTEX
5
5dc
100
AcDbEntity
8
1
100
AcDbVertex
100
AcDb2dVertex
62
5
10
-60.698986
20
-139.588558
0
VERTEX
5
5dd
100
AcDbEntity
8
1
100
AcDbVertex
100
AcDb2dVertex
62
5
10
-61.636486
20
-140.526058
0
SEQEND
5
5de
100
AcDbEntity
8
1
0
POLYLINE
5
5df
100
AcDbEntity
8
1
6
CONTINUOUS
62
5
100
AcDb2dPolyline
66
1
10
0.0
20
0.0
30
0.0
70
0
0
VERTEX
5
5e0
100
AcDbEntity
8
1
100
AcDbVertex
100
AcDb2dVertex
62
5
10
-60.073986
20
-138.338558
0
VERTEX
5
5e1
100
AcDbEntity
8
1
100
AcDbVertex
100
AcDb2dVertex
62
5
10
-57.573986
20
-139.901058
0
VERTEX
5
5e2
100
AcDbEntity
8
1
100
AcDbVertex
100
AcDb2dVertex
62
5
10
-56.323986
20
-140.213558
0
VERTEX
5
5e3
100
AcDbEntity
8
1
100
AcDbVertex
100
AcDb2dVertex
62
5
10
-53.198986
20
-140.526058
0
SEQEND
5
5e4
100
AcDbEntity
8
1
0
POLYLINE
5
5e5
100
AcDbEntity
8
1
6
CONTINUOUS
62
5
100
AcDb2dPolyline
66
1
10
0.0
20
0.0
30
0.0
70
1
0
VERTEX
5
5e6
100
AcDbEntity
8
1
100
AcDbVertex
100
AcDb2dVertex
62
5
10
167.738514
20
-148.151058
0
VERTEX
5
5e7
100
AcDbEntity
8
1
100
AcDbVertex
100
AcDb2dVertex
62
5
10
167.738514
20
-124.151058
0
VERTEX
5
5e8
100
AcDbEntity
8
1
100
AcDbVertex
100
AcDb2dVertex
62
5
10
-72.261486
20
-124.151058
0
VERTEX
5
5e9
100
AcDbEntity
8
1
100
AcDbVertex
100
AcDb2dVertex
62
5
10
-72.261486
20
-148.151058
0
VERTEX
5
5ea
100
AcDbEntity
8
1
100
AcDbVertex
100
AcDb2dVertex
62
5
10
167.738514
20
-148.151058
0
SEQEND
5
5eb
100
AcDbEntity
8
1
0
LINE
5
5ec
100
AcDbEntity
8
1
100
AcDbLine
6
CONTINUOUS
62
5
10
-21.961486
20
41.848942
11
-57.461486
21
41.848942
0
LINE
5
5ed
100
AcDbEntity
8
1
100
AcDbLine
6
CONTINUOUS
62
5
10
-21.961486
20
-78.151058
11
-57.461486
21
-78.151058
0
POLYLINE
5
5ee
100
AcDbEntity
8
1
6
CONTINUOUS
62
5
100
AcDb2dPolyline
66
1
10
0.0
20
0.0
30
0.0
70
0
0
VERTEX
5
5ef
100
AcDbEntity
8
1
100
AcDbVertex
100
AcDb2dVertex
62
5
10
-55.461486
20
-18.151058
0
VERTEX
5
5f0
100
AcDbEntity
8
1
100
AcDbVertex
100
AcDb2dVertex
62
5
10
-55.461486
20
-78.151058
0
VERTEX
5
5f1
100
AcDbEntity
8
1
100
AcDbVertex
100
AcDb2dVertex
62
5
10
-55.969486
20
-75.103058
0
VERTEX
5
5f2
100
AcDbEntity
8
1
100
AcDbVertex
100
AcDb2dVertex
62
5
10
-54.953486
20
-75.103058
0
VERTEX
5
5f3
100
AcDbEntity
8
1
100
AcDbVertex
100
AcDb2dVertex
62
5
10
-55.461486
20
-78.151058
0
VERTEX
5
5f4
100
AcDbEntity
8
1
100
AcDbVertex
100
AcDb2dVertex
62
5
10
-55.715486
20
-75.103058
0
VERTEX
5
5f5
100
AcDbEntity
8
1
100
AcDbVertex
100
AcDb2dVertex
62
5
10
-55.207486
20
-75.103058
0
VERTEX
5
5f6
100
AcDbEntity
8
1
100
AcDbVertex
100
AcDb2dVertex
62
5
10
-55.461486
20
-78.151058
0
SEQEND
5
5f7
100
AcDbEntity
8
1
0
POLYLINE
5
5f8
100
AcDbEntity
8
1
6
CONTINUOUS
62
5
100
AcDb2dPolyline
66
1
10
0.0
20
0.0
30
0.0
70
0
0
VERTEX
5
5f9
100
AcDbEntity
8
1
100
AcDbVertex
100
AcDb2dVertex
62
5
10
-55.461486
20
-18.151058
0
VERTEX
5
5fa
100
AcDbEntity
8
1
100
AcDbVertex
100
AcDb2dVertex
62
5
10
-55.461486
20
41.848942
0
VERTEX
5
5fb
100
AcDbEntity
8
1
100
AcDbVertex
100
AcDb2dVertex
62
5
10
-54.953486
20
38.800942
0
VERTEX
5
5fc
100
AcDbEntity
8
1
100
AcDbVertex
100
AcDb2dVertex
62
5
10
-55.969486
20
38.800942
0
VERTEX
5
5fd
100
AcDbEntity
8
1
100
AcDbVertex
100
AcDb2dVertex
62
5
10
-55.461486
20
41.848942
0
VERTEX
5
5fe
100
AcDbEntity
8
1
100
AcDbVertex
100
AcDb2dVertex
62
5
10
-55.207486
20
38.800942
0
VERTEX
5
5ff
100
AcDbEntity
8
1
100
AcDbVertex
100
AcDb2dVertex
62
5
10
-55.715486
20
38.800942
0
VERTEX
5
600
100
AcDbEntity
8
1
100
AcDbVertex
100
AcDb2dVertex
62
5
10
-55.461486
20
41.848942
0
SEQEND
5
601
100
AcDbEntity
8
1
0
LINE
5
602
100
AcDbEntity
8
1
100
AcDbLine
6
CONTINUOUS
62
5
10
112.038514
20
1.559562
11
114.538514
21
1.559562
0
ARC
5
603
100
AcDbEntity
8
1
100
AcDbCircle
6
CONTINUOUS
62
5
10
124.938514
20
-3.666408
40
1.000000
100
AcDbArc
50
-88.492563
51
0.000000
0
LINE
5
604
100
AcDbEntity
8
1
100
AcDbLine
6
CONTINUOUS
62
5
10
125.938514
20
-3.666408
11
125.938514
21
13.385532
0
ARC
5
605
100
AcDbEntity
8
1
100
AcDbCircle
6
CONTINUOUS
62
5
10
124.938514
20
13.385532
40
1.000000
100
AcDbArc
50
0.000000
51
88.492563
0
POLYLINE
5
606
100
AcDbEntity
8
1
6
CONTINUOUS
62
5
100
AcDb2dPolyline
66
1
10
0.0
20
0.0
30
0.0
70
0
0
VERTEX
5
607
100
AcDbEntity
8
1
100
AcDbVertex
100
AcDb2dVertex
62
5
10
124.964821
20
14.385185
0
VERTEX
5
608
100
AcDbEntity
8
1
100
AcDbVertex
100
AcDb2dVertex
62
5
10
114.538514
20
14.659562
0
VERTEX
5
609
100
AcDbEntity
8
1
100
AcDbVertex
100
AcDb2dVertex
62
5
10
112.038514
20
14.659562
0
SEQEND
5
60a
100
AcDbEntity
8
1
0
POLYLINE
5
60b
100
AcDbEntity
8
1
6
CONTINUOUS
62
5
100
AcDb2dPolyline
66
1
10
0.0
20
0.0
30
0.0
70
0
0
VERTEX
5
60c
100
AcDbEntity
8
1
100
AcDbVertex
100
AcDb2dVertex
62
5
10
112.038514
20
-4.940438
0
VERTEX
5
60d
100
AcDbEntity
8
1
100
AcDbVertex
100
AcDb2dVertex
62
5
10
114.538514
20
-4.940438
0
VERTEX
5
60e
100
AcDbEntity
8
1
100
AcDbVertex
100
AcDb2dVertex
62
5
10
124.964821
20
-4.666062
0
SEQEND
5
60f
100
AcDbEntity
8
1
0
LINE
5
610
100
AcDbEntity
8
1
100
AcDbLine
6
CONTINUOUS
62
5
10
114.538514
20
-4.940438
11
114.538514
21
14.659562
0
LINE
5
611
100
AcDbEntity
8
1
100
AcDbLine
6
CONTINUOUS
62
5
10
106.038517
20
13.048942
11
106.038517
21
-3.851058
0
ARC
5
612
100
AcDbEntity
8
1
100
AcDbCircle
6
CONTINUOUS
62
5
10
-16.611486
20
27.248942
40
0.500000
100
AcDbArc
50
89.999999
51
179.999998
0
LINE
5
613
100
AcDbEntity
8
1
100
AcDbLine
6
CONTINUOUS
62
5
10
-16.611486
20
27.748942
11
25.688514
21
27.748942
0
ARC
5
614
100
AcDbEntity
8
1
100
AcDbCircle
6
CONTINUOUS
62
5
10
25.688514
20
27.248942
40
0.500000
100
AcDbArc
50
0.000000
51
89.999999
0
LINE
5
615
100
AcDbEntity
8
1
100
AcDbLine
6
CONTINUOUS
62
5
10
26.188514
20
27.248942
11
26.188514
21
-2.251058
0
ARC
5
616
100
AcDbEntity
8
1
100
AcDbCircle
6
CONTINUOUS
62
5
10
25.688514
20
-2.251058
40
0.500000
100
AcDbArc
50
-89.999999
51
0.000000
0
LINE
5
617
100
AcDbEntity
8
1
100
AcDbLine
6
CONTINUOUS
62
5
10
25.688514
20
-2.751058
11
-16.611486
21
-2.751058
0
ARC
5
618
100
AcDbEntity
8
1
100
AcDbCircle
6
CONTINUOUS
62
5
10
-16.611486
20
-2.251058
40
0.500000
100
AcDbArc
50
179.999998
51
-89.999999
0
LINE
5
619
100
AcDbEntity
8
1
100
AcDbLine
6
CONTINUOUS
62
5
10
-17.111486
20
-2.251058
11
-17.111486
21
27.248942
0
ARC
5
61a
100
AcDbEntity
8
1
100
AcDbCircle
6
CONTINUOUS
62
5
10
-15.806117
20
27.077830
40
0.500000
100
AcDbArc
50
89.999999
51
179.999998
0
LINE
5
61b
100
AcDbEntity
8
1
100
AcDbLine
6
CONTINUOUS
62
5
10
-15.806117
20
27.577830
11
25.423113
21
27.577830
0
ARC
5
61c
100
AcDbEntity
8
1
100
AcDbCircle
6
CONTINUOUS
62
5
10
25.423113
20
27.077830
40
0.500000
100
AcDbArc
50
0.000000
51
89.999999
0
LINE
5
61d
100
AcDbEntity
8
1
100
AcDbLine
6
CONTINUOUS
62
5
10
25.923113
20
27.077830
11
25.923113
21
-2.079946
0
ARC
5
61e
100
AcDbEntity
8
1
100
AcDbCircle
6
CONTINUOUS
62
5
10
25.423113
20
-2.079946
40
0.500000
100
AcDbArc
50
-89.999999
51
0.000000
0
LINE
5
61f
100
AcDbEntity
8
1
100
AcDbLine
6
CONTINUOUS
62
5
10
25.423113
20
-2.579946
11
-15.806117
21
-2.579946
0
ARC
5
620
100
AcDbEntity
8
1
100
AcDbCircle
6
CONTINUOUS
62
5
10
-15.806117
20
-2.079946
40
0.500000
100
AcDbArc
50
179.999998
51
-89.999999
0
LINE
5
621
100
AcDbEntity
8
1
100
AcDbLine
6
CONTINUOUS
62
5
10
-16.306117
20
-2.079946
11
-16.306117
21
27.077830
0
ARC
5
622
100
AcDbEntity
8
1
100
AcDbCircle
6
CONTINUOUS
62
5
10
12.982012
20
22.498942
40
1.950000
100
AcDbArc
50
0.000000
51
89.999999
0
LINE
5
623
100
AcDbEntity
8
1
100
AcDbLine
6
CONTINUOUS
62
5
10
12.982012
20
24.448942
11
-2.969896
21
24.448942
0
ARC
5
624
100
AcDbEntity
8
1
100
AcDbCircle
6
CONTINUOUS
62
5
10
-2.969896
20
22.498942
40
1.950000
100
AcDbArc
50
89.999999
51
179.999998
0
LINE
5
625
100
AcDbEntity
8
1
100
AcDbLine
6
CONTINUOUS
62
5
10
-4.919896
20
22.498942
11
-4.919896
21
2.498942
0
ARC
5
626
100
AcDbEntity
8
1
100
AcDbCircle
6
CONTINUOUS
62
5
10
-2.969896
20
2.498942
40
1.950000
100
AcDbArc
50
179.999998
51
-89.999999
0
LINE
5
627
100
AcDbEntity
8
1
100
AcDbLine
6
CONTINUOUS
62
5
10
-2.969896
20
0.548942
11
12.982012
21
0.548942
0
ARC
5
628
100
AcDbEntity
8
1
100
AcDbCircle
6
CONTINUOUS
62
5
10
12.982012
20
2.498942
40
1.950000
100
AcDbArc
50
-89.999999
51
0.000000
0
LINE
5
629
100
AcDbEntity
8
1
100
AcDbLine
6
CONTINUOUS
62
5
10
14.932012
20
2.498942
11
14.932012
21
22.498942
0
ARC
5
62a
100
AcDbEntity
8
1
100
AcDbCircle
6
CONTINUOUS
62
5
10
12.974549
20
22.498942
40
2.000000
100
AcDbArc
50
0.000000
51
89.999999
0
LINE
5
62b
100
AcDbEntity
8
1
100
AcDbLine
6
CONTINUOUS
62
5
10
12.974549
20
24.498942
11
-2.976733
21
24.498942
0
ARC
5
62c
100
AcDbEntity
8
1
100
AcDbCircle
6
CONTINUOUS
62
5
10
-2.976733
20
22.498942
40
2.000000
100
AcDbArc
50
89.999999
51
179.999998
0
LINE
5
62d
100
AcDbEntity
8
1
100
AcDbLine
6
CONTINUOUS
62
5
10
-4.976733
20
22.498942
11
-4.976733
21
2.498942
0
ARC
5
62e
100
AcDbEntity
8
1
100
AcDbCircle
6
CONTINUOUS
62
5
10
-2.976733
20
2.498942
40
2.000000
100
AcDbArc
50
179.999998
51
-89.999999
0
LINE
5
62f
100
AcDbEntity
8
1
100
AcDbLine
6
CONTINUOUS
62
5
10
-2.976733
20
0.498942
11
12.974549
21
0.498942
0
ARC
5
630
100
AcDbEntity
8
1
100
AcDbCircle
6
CONTINUOUS
62
5
10
12.974549
20
2.498942
40
2.000000
100
AcDbArc
50
-89.999999
51
0.000000
0
LINE
5
631
100
AcDbEntity
8
1
100
AcDbLine
6
CONTINUOUS
62
5
10
14.974549
20
2.498942
11
14.974549
21
22.498942
0
ARC
5
632
100
AcDbEntity
8
1
100
AcDbCircle
6
CONTINUOUS
62
5
10
13.006058
20
2.498942
40
1.800000
100
AcDbArc
50
-89.999999
51
0.000000
0
LINE
5
633
100
AcDbEntity
8
1
100
AcDbLine
6
CONTINUOUS
62
5
10
14.806058
20
2.498942
11
14.806058
21
22.498942
0
ARC
5
634
100
AcDbEntity
8
1
100
AcDbCircle
6
CONTINUOUS
62
5
10
13.006058
20
22.498942
40
1.800000
100
AcDbArc
50
0.000000
51
89.999999
0
LINE
5
635
100
AcDbEntity
8
1
100
AcDbLine
6
CONTINUOUS
62
5
10
13.006058
20
24.298942
11
-2.993942
21
24.298942
0
ARC
5
636
100
AcDbEntity
8
1
100
AcDbCircle
6
CONTINUOUS
62
5
10
-2.993942
20
22.498942
40
1.800000
100
AcDbArc
50
89.999999
51
-179.999998
0
LINE
5
637
100
AcDbEntity
8
1
100
AcDbLine
6
CONTINUOUS
62
5
10
-4.793942
20
22.498942
11
-4.793942
21
2.498942
0
ARC
5
638
100
AcDbEntity
8
1
100
AcDbCircle
6
CONTINUOUS
62
5
10
-2.993942
20
2.498942
40
1.800000
100
AcDbArc
50
179.999998
51
-89.999999
0
LINE
5
639
100
AcDbEntity
8
1
100
AcDbLine
6
CONTINUOUS
62
5
10
-2.993942
20
0.698942
11
13.006058
21
0.698942
0
ARC
5
63a
100
AcDbEntity
8
1
100
AcDbCircle
6
CONTINUOUS
62
5
10
111.738514
20
-53.358951
40
0.300000
100
AcDbArc
50
-88.472474
51
0.000000
0
LINE
5
63b
100
AcDbEntity
8
1
100
AcDbLine
6
CONTINUOUS
62
5
10
112.038514
20
-53.358951
11
112.038514
21
17.056835
0
ARC
5
63c
100
AcDbEntity
8
1
100
AcDbCircle
6
CONTINUOUS
62
5
10
111.738514
20
17.056835
40
0.300000
100
AcDbArc
50
0.000000
51
88.472474
0
LINE
5
63d
100
AcDbEntity
8
1
100
AcDbLine
6
CONTINUOUS
62
5
10
111.746511
20
17.356729
11
104.538514
21
17.548942
0
LINE
5
63e
100
AcDbEntity
8
1
100
AcDbLine
6
CONTINUOUS
62
5
10
104.538514
20
-53.851047
11
111.746511
21
-53.658845
0
LINE
5
63f
100
AcDbEntity
8
1
100
AcDbLine
6
CONTINUOUS
62
5
10
100.538514
20
-77.751058
11
100.538514
21
41.448942
0
ARC
5
640
100
AcDbEntity
8
1
100
AcDbCircle
6
CONTINUOUS
62
5
10
120.738514
20
28.148942
40
26.200000
100
AcDbArc
50
153.806047
51
179.999998
0
ARC
5
641
100
AcDbEntity
8
1
100
AcDbCircle
6
CONTINUOUS
62
5
10
99.921039
20
38.389680
40
3.000000
100
AcDbArc
50
94.592458
51
153.806047
0
LINE
5
642
100
AcDbEntity
8
1
100
AcDbLine
6
CONTINUOUS
62
5
10
99.680836
20
41.380049
11
100.538514
21
41.448942
0
ARC
5
643
100
AcDbEntity
8
1
100
AcDbCircle
6
CONTINUOUS
62
5
10
100.928632
20
41.360580
40
0.400000
100
AcDbArc
50
91.735704
51
167.237827
0
POLYLINE
5
644
100
AcDbEntity
8
1
6
CONTINUOUS
62
5
100
AcDb2dPolyline
66
1
10
0.0
20
0.0
30
0.0
70
0
0
VERTEX
5
645
100
AcDbEntity
8
1
100
AcDbVertex
100
AcDb2dVertex
62
5
10
100.916517
20
41.760397
0
VERTEX
5
646
100
AcDbEntity
8
1
100
AcDbVertex
100
AcDb2dVertex
62
5
10
104.538514
20
41.848942
0
VERTEX
5
647
100
AcDbEntity
8
1
100
AcDbVertex
100
AcDb2dVertex
62
5
10
104.538514
20
-78.151058
0
VERTEX
5
648
100
AcDbEntity
8
1
100
AcDbVertex
100
AcDb2dVertex
62
5
10
100.916517
20
-78.062513
0
SEQEND
5
649
100
AcDbEntity
8
1
0
ARC
5
64a
100
AcDbEntity
8
1
100
AcDbCircle
6
CONTINUOUS
62
5
10
100.928632
20
-77.662696
40
0.400000
100
AcDbArc
50
-167.237827
51
-91.735704
0
LINE
5
64b
100
AcDbEntity
8
1
100
AcDbLine
6
CONTINUOUS
62
5
10
100.538514
20
-77.751058
11
99.680836
21
-77.682164
0
ARC
5
64c
100
AcDbEntity
8
1
100
AcDbCircle
6
CONTINUOUS
62
5
10
99.921039
20
-74.691796
40
3.000000
100
AcDbArc
50
-153.806047
51
-94.592458
0
ARC
5
64d
100
AcDbEntity
8
1
100
AcDbCircle
6
CONTINUOUS
62
5
10
120.738514
20
-64.451058
40
26.200000
100
AcDbArc
50
-179.999998
51
-153.806047
0
LINE
5
64e
100
AcDbEntity
8
1
100
AcDbLine
6
CONTINUOUS
62
5
10
94.538514
20
-64.451058
11
94.538514
21
28.148942
0
ARC
5
64f
100
AcDbEntity
8
1
100
AcDbCircle
6
CONTINUOUS
62
5
10
25.838514
20
27.248942
40
0.700000
100
AcDbArc
50
0.000000
51
89.999999
0
LINE
5
650
100
AcDbEntity
8
1
100
AcDbLine
6
CONTINUOUS
62
5
10
25.838514
20
27.948942
11
-16.761486
21
27.948942
0
ARC
5
651
100
AcDbEntity
8
1
100
AcDbCircle
6
CONTINUOUS
62
5
10
-16.761486
20
27.248942
40
0.700000
100
AcDbArc
50
89.999999
51
179.999998
0
LINE
5
652
100
AcDbEntity
8
1
100
AcDbLine
6
CONTINUOUS
62
5
10
-17.461486
20
27.248942
11
-17.461486
21
-63.551058
0
ARC
5
653
100
AcDbEntity
8
1
100
AcDbCircle
6
CONTINUOUS
62
5
10
-16.761486
20
-63.551058
40
0.700000
100
AcDbArc
50
179.999998
51
-89.999999
0
LINE
5
654
100
AcDbEntity
8
1
100
AcDbLine
6
CONTINUOUS
62
5
10
-16.761486
20
-64.251058
11
25.838514
21
-64.251058
0
ARC
5
655
100
AcDbEntity
8
1
100
AcDbCircle
6
CONTINUOUS
62
5
10
25.838514
20
-63.551058
40
0.700000
100
AcDbArc
50
-89.999999
51
0.000000
0
LINE
5
656
100
AcDbEntity
8
1
100
AcDbLine
6
CONTINUOUS
62
5
10
26.538514
20
-63.551058
11
26.538514
21
27.248942
0
ARC
5
657
100
AcDbEntity
8
1
100
AcDbCircle
6
CONTINUOUS
62
5
10
-17.161486
20
27.248942
40
0.900000
100
AcDbArc
50
89.999999
51
179.999998
0
LINE
5
658
100
AcDbEntity
8
1
100
AcDbLine
6
CONTINUOUS
62
5
10
-18.061486
20
27.248942
11
-18.061486
21
-63.551058
0
ARC
5
659
100
AcDbEntity
8
1
100
AcDbCircle
6
CONTINUOUS
62
5
10
-17.161486
20
-63.551058
40
0.900000
100
AcDbArc
50
179.999998
51
-89.999999
0
LINE
5
65a
100
AcDbEntity
8
1
100
AcDbLine
6
CONTINUOUS
62
5
10
-17.161486
20
-64.451058
11
26.238514
21
-64.451058
0
ARC
5
65b
100
AcDbEntity
8
1
100
AcDbCircle
6
CONTINUOUS
62
5
10
26.238514
20
-63.551058
40
0.900000
100
AcDbArc
50
-89.999999
51
0.000000
0
LINE
5
65c
100
AcDbEntity
8
1
100
AcDbLine
6
CONTINUOUS
62
5
10
27.138514
20
-63.551058
11
27.138514
21
27.248942
0
ARC
5
65d
100
AcDbEntity
8
1
100
AcDbCircle
6
CONTINUOUS
62
5
10
26.238514
20
27.248942
40
0.900000
100
AcDbArc
50
0.000000
51
89.999999
0
LINE
5
65e
100
AcDbEntity
8
1
100
AcDbLine
6
CONTINUOUS
62
5
10
26.238514
20
28.148942
11
-17.161486
21
28.148942
0
ARC
5
65f
100
AcDbEntity
8
1
100
AcDbCircle
6
CONTINUOUS
62
5
10
-23.461486
20
34.848942
40
7.000000
100
AcDbArc
50
89.999999
51
179.999998
0
LINE
5
660
100
AcDbEntity
8
1
100
AcDbLine
6
CONTINUOUS
62
5
10
-30.461486
20
34.848942
11
-30.461486
21
-71.151058
0
ARC
5
661
100
AcDbEntity
8
1
100
AcDbCircle
6
CONTINUOUS
62
5
10
-23.461486
20
-71.151058
40
7.000000
100
AcDbArc
50
179.999998
51
-89.999999
0
POLYLINE
5
662
100
AcDbEntity
8
1
6
CONTINUOUS
62
5
100
AcDb2dPolyline
66
1
10
0.0
20
0.0
30
0.0
70
0
0
VERTEX
5
663
100
AcDbEntity
8
1
100
AcDbVertex
100
AcDb2dVertex
62
5
10
-23.461486
20
-78.151058
0
VERTEX
5
664
100
AcDbEntity
8
1
100
AcDbVertex
100
AcDb2dVertex
62
5
10
1.038514
20
-78.151058
0
VERTEX
5
665
100
AcDbEntity
8
1
100
AcDbVertex
100
AcDb2dVertex
62
5
10
1.038514
20
-78.119277
0
VERTEX
5
666
100
AcDbEntity
8
1
100
AcDbVertex
100
AcDb2dVertex
62
5
10
8.038514
20
-78.119277
0
VERTEX
5
667
100
AcDbEntity
8
1
100
AcDbVertex
100
AcDb2dVertex
62
5
10
8.038514
20
-78.151058
0
VERTEX
5
668
100
AcDbEntity
8
1
100
AcDbVertex
100
AcDb2dVertex
62
5
10
32.538514
20
-78.151058
0
SEQEND
5
669
100
AcDbEntity
8
1
0
ARC
5
66a
100
AcDbEntity
8
1
100
AcDbCircle
6
CONTINUOUS
62
5
10
32.538514
20
-71.151058
40
7.000000
100
AcDbArc
50
-89.999999
51
0.000000
0
LINE
5
66b
100
AcDbEntity
8
1
100
AcDbLine
6
CONTINUOUS
62
5
10
39.538514
20
-71.151058
11
39.538514
21
34.848942
0
ARC
5
66c
100
AcDbEntity
8
1
100
AcDbCircle
6
CONTINUOUS
62
5
10
32.538514
20
34.848942
40
7.000000
100
AcDbArc
50
0.000000
51
89.999999
0
LINE
5
66d
100
AcDbEntity
8
1
100
AcDbLine
6
CONTINUOUS
62
5
10
32.538514
20
41.848942
11
-23.461486
21
41.848942
0
ARC
5
66e
100
AcDbEntity
8
1
100
AcDbCircle
6
CONTINUOUS
62
5
10
-23.461486
20
34.848942
40
6.600000
100
AcDbArc
50
89.999999
51
179.999998
0
LINE
5
66f
100
AcDbEntity
8
1
100
AcDbLine
6
CONTINUOUS
62
5
10
-23.461486
20
41.448942
11
32.538514
21
41.448942
0
ARC
5
670
100
AcDbEntity
8
1
100
AcDbCircle
6
CONTINUOUS
62
5
10
32.538514
20
34.848942
40
6.600000
100
AcDbArc
50
0.000000
51
89.999999
0
LINE
5
671
100
AcDbEntity
8
1
100
AcDbLine
6
CONTINUOUS
62
5
10
39.138514
20
34.848942
11
39.138514
21
-71.151058
0
ARC
5
672
100
AcDbEntity
8
1
100
AcDbCircle
6
CONTINUOUS
62
5
10
32.538514
20
-71.151058
40
6.600000
100
AcDbArc
50
-89.999999
51
0.000000
0
LINE
5
673
100
AcDbEntity
8
1
100
AcDbLine
6
CONTINUOUS
62
5
10
32.538514
20
-77.751058
11
-23.461486
21
-77.751058
0
ARC
5
674
100
AcDbEntity
8
1
100
AcDbCircle
6
CONTINUOUS
62
5
10
-23.461486
20
-71.151058
40
6.600000
100
AcDbArc
50
179.999998
51
-89.999999
0
LINE
5
675
100
AcDbEntity
8
1
100
AcDbLine
6
CONTINUOUS
62
5
10
-30.061486
20
-71.151058
11
-30.061486
21
34.848942
0
POLYLINE
5
676
100
AcDbEntity
8
1
6
CONTINUOUS
62
5
100
AcDb2dPolyline
66
1
10
0.0
20
0.0
30
0.0
70
1
0
VERTEX
5
677
100
AcDbEntity
8
1
100
AcDbVertex
100
AcDb2dVertex
62
5
10
-112.261486
20
-168.151058
0
VERTEX
5
678
100
AcDbEntity
8
1
100
AcDbVertex
100
AcDb2dVertex
62
5
10
-112.261486
20
171.848942
0
VERTEX
5
679
100
AcDbEntity
8
1
100
AcDbVertex
100
AcDb2dVertex
62
5
10
207.738514
20
171.848942
0
VERTEX
5
67a
100
AcDbEntity
8
1
100
AcDbVertex
100
AcDb2dVertex
62
5
10
207.738514
20
-168.151058
0
VERTEX
5
67b
100
AcDbEntity
8
1
100
AcDbVertex
100
AcDb2dVertex
62
5
10
-112.261486
20
-168.151058
0
SEQEND
5
67c
100
AcDbEntity
8
1
0
ENDSEC
0
SECTION
2
OBJECTS
0
DICTIONARY
5
67d
100
AcDbDictionary
3
ACAD_GROUP
350
67e
3
ACAD_MLINESTYLE
350
67f
0
DICTIONARY
5
67e
102
{ACAD_REACTORS
330
67d
102
}
100
AcDbDictionary
0
DICTIONARY
5
67f
102
{ACAD_REACTORS
330
67d
102
}
100
AcDbDictionary
3
STANDARD
350
680
0
MLINESTYLE
5
680
102
{ACAD_REACTORS
330
67f
102
}
100
AcDbMlineStyle
2
STANDARD
70
0
3

62
0
51
90.0
52
90.0
71
2
49
0.5
62
256
6
BYLAYER
49
-0.5
62
256
6
BYLAYER
0
ENDSEC
0
EOF
