0
SECTION
2
HEADER
9
$ACADVER
1
AC1012
9
$EXTMIN
10
-0.010000
20
-13.390000
30
0.0
9
$EXTMAX
10
12.600000
20
0.000000
30
0.0
9
$LIMMIN
10
-0.254000
20
-340.106000
9
$LIMMAX
10
320.040000
20
0.000000
9
$DIMSCALE
40
1.000000
9
$PDMODE
70
2
9
$PDSIZE
40
0.0
  9
$HANDSEED
  5
623
0
ENDSEC
0
SECTION
2
CLASSES
0
ENDSEC
0
SECTION
2
TABLES
0
TABLE
2
LTYPE
5
1e
100
AcDbSymbolTable
70
12
0
LTYPE
5
1f
100
AcDbSymbolTableRecord
100
AcDbLinetypeTableRecord
2
BYBLOCK
70
0
3

72
65
73
0
40
0.0
0
LTYPE
5
20
100
AcDbSymbolTableRecord
100
AcDbLinetypeTableRecord
2
BYLAYER
70
0
3

72
65
73
0
40
0.0
0
LTYPE
5
21
100
AcDbSymbolTableRecord
100
AcDbLinetypeTableRecord
2
CONTINUOUS
70
64
3
Solid line
72
65
73
0
40
0.0
0
LTYPE
5
22
100
AcDbSymbolTableRecord
100
AcDbLinetypeTableRecord
2
DASHED
70
64
3
__ __ __ __ __ __ __ __ __ __ __ __ __ __ __
72
65
73
2
40
0.75
49
0.5
74
0
49
-0.25
74
0
0
LTYPE
5
23
100
AcDbSymbolTableRecord
100
AcDbLinetypeTableRecord
2
DOT
70
64
3
...............................................
72
65
73
2
40
0.25
49
0.0
74
0
49
-0.25
74
0
0
LTYPE
5
24
100
AcDbSymbolTableRecord
100
AcDbLinetypeTableRecord
2
DASHDOT
70
64
3
__ . __ . __ . __ . __ . __ . __ . __ . __ . --
72
65
73
4
40
1.0
49
0.5
74
0
49
-0.25
74
0
49
0.0
74
0
49
-0.25
74
0
0
LTYPE
5
25
100
AcDbSymbolTableRecord
100
AcDbLinetypeTableRecord
2
CENTER
70
64
3
____ _ ____ _ ____ _ ____ _ ____ _ ____ _ ____
72
65
73
4
40
2.0
49
1.25
74
0
49
-0.25
74
0
49
0.25
74
0
49
-0.25
74
0
0
LTYPE
5
26
100
AcDbSymbolTableRecord
100
AcDbLinetypeTableRecord
2
PHANTOM
70
64
3
_____ _ _ _____ _ _ _____ _ _ _____ _ _ ____
72
65
73
6
40
2.5
49
1.25
74
0
49
-0.25
74
0
49
0.25
74
0
49
-0.25
74
0
49
0.25
74
0
49
-0.25
74
0
0
LTYPE
5
27
100
AcDbSymbolTableRecord
100
AcDbLinetypeTableRecord
2
HIDDEN
70
64
3
_ _ _ _ _ _ _ _ _ _ _ _ _ _ _ _ _ _ _ _ _ _ _
72
65
73
2
40
0.375
49
0.25
74
0
49
-0.125
74
0
0
LTYPE
5
28
100
AcDbSymbolTableRecord
100
AcDbLinetypeTableRecord
2
BORDER
70
64
3
__ __ . __ __ . __ __ . __ __ . __ __ . __ __
72
65
73
6
40
1.75
49
0.5
74
0
49
-0.25
74
0
49
0.5
74
0
49
-0.25
74
0
49
0.0
74
0
49
-0.25
74
0
0
LTYPE
5
29
100
AcDbSymbolTableRecord
100
AcDbLinetypeTableRecord
2
DIVIDE
70
64
3
__ . . __ . . __ . . __ . . __ . . __ . . __
72
65
73
6
40
1.25
49
0.5
74
0
49
-0.25
74
0
49
0.0
74
0
49
-0.25
74
0
49
0.0
74
0
49
-0.25
74
0
0
LTYPE
5
2a
100
AcDbSymbolTableRecord
100
AcDbLinetypeTableRecord
2
DOT2
70
64
3
...............................................
72
65
73
2
40
0.125
49
0.0
74
0
49
-0.125
74
0
0
ENDTAB
0
TABLE
2
STYLE
5
2b
100
AcDbSymbolTable
70
1
0
STYLE
5
2c
100
AcDbSymbolTableRecord
100
AcDbTextStyleTableRecord
2
STANDARD
70
64
40
0.0
41
1.0
50
0.0
71
0
42
5.0
3
txt
4
bigfont
0
ENDTAB
0
TABLE
2
LAYER
5
2d
100
AcDbSymbolTable
70
2
0
LAYER
5
2e
100
AcDbSymbolTableRecord
100
AcDbLayerTableRecord
2
0
70
0
62
7
6
CONTINUOUS
0
LAYER
5
2f
100
AcDbSymbolTableRecord
100
AcDbLayerTableRecord
2
1
70
0
62
7
6
CONTINUOUS
0
ENDTAB
0
TABLE
2
APPID
5
30
100
AcDbSymbolTable
70
1
0
APPID
5
31
100
AcDbSymbolTableRecord
100
AcDbRegAppTableRecord
2
ACAD
70
64
0
ENDTAB
0
TABLE
2
DIMSTYLE
5
32
100
AcDbSymbolTable
70
0
0
ENDTAB
0
TABLE
2
UCS
5
33
100
AcDbSymbolTable
70
0
0
ENDTAB
0
TABLE
2
VIEW
5
34
100
AcDbSymbolTable
70
0
0
ENDTAB
0
TABLE
2
VPORT
5
35
100
AcDbSymbolTable
70
0
0
ENDTAB
0
TABLE
2
BLOCK_RECORD
5
36
100
AcDbSymbolTable
70
0
0
BLOCK_RECORD
5
37
100
AcDbSymbolTableRecord
100
AcDbBlockTableRecord
2
*MODEL_SPACE
0
BLOCK_RECORD
5
38
100
AcDbSymbolTableRecord
100
AcDbBlockTableRecord
2
*PAPER_SPACE
0
BLOCK_RECORD
5
39
100
AcDbSymbolTableRecord
100
AcDbBlockTableRecord
2
OPEN
0
BLOCK_RECORD
5
3a
100
AcDbSymbolTableRecord
100
AcDbBlockTableRecord
2
HALF
0
BLOCK_RECORD
5
3b
100
AcDbSymbolTableRecord
100
AcDbBlockTableRecord
2
CLOSEDBLANK
0
BLOCK_RECORD
5
3c
100
AcDbSymbolTableRecord
100
AcDbBlockTableRecord
2
HALFCLOSE_R
0
BLOCK_RECORD
5
3d
100
AcDbSymbolTableRecord
100
AcDbBlockTableRecord
2
DOT
0
BLOCK_RECORD
5
3e
100
AcDbSymbolTableRecord
100
AcDbBlockTableRecord
2
HALFOPEN_R
0
BLOCK_RECORD
5
3f
100
AcDbSymbolTableRecord
100
AcDbBlockTableRecord
2
CLOSEDF
0
BLOCK_RECORD
5
40
100
AcDbSymbolTableRecord
100
AcDbBlockTableRecord
2
HALF_R
0
ENDTAB
0
ENDSEC
0
SECTION
2
BLOCKS
0
BLOCK
5
41
100
AcDbEntity
8
0
100
AcDbBlockBegin
2
*MODEL_SPACE
70
0
10
0.0
20
0.0
30
0.0
3
*MODEL_SPACE
1

0
ENDBLK
5
42
100
AcDbEntity
8
0
100
AcDbBlockEnd
0
BLOCK
5
43
100
AcDbEntity
67
1
8
0
100
AcDbBlockBegin
2
*PAPER_SPACE
70
0
10
0.0
20
0.0
30
0.0
3
*PAPER_SPACE
1

0
ENDBLK
5
44
100
AcDbEntity
67
1
8
0
100
AcDbBlockEnd
0
BLOCK
5
45
100
AcDbEntity
8
0
100
AcDbBlockBegin
2
OPEN
70
0
10
0.0
20
0.0
30
0.0
3
OPEN
1

0
LINE
5
46
100
AcDbEntity
8
0
6
BYBLOCK
62
0
100
AcDbLine
10
0.000000
20
0.000000
11
-1.000000
21
0.000000
0
LINE
5
47
100
AcDbEntity
8
0
6
BYBLOCK
62
0
100
AcDbLine
10
-1.000000
20
-0.166667
11
0.000000
21
0.000000
0
LINE
5
48
100
AcDbEntity
8
0
6
BYBLOCK
62
0
100
AcDbLine
10
-1.000000
20
0.166667
11
0.000000
21
0.000000
0
ENDBLK
5
49
100
AcDbEntity
8
0
100
AcDbBlockEnd
0
BLOCK
5
4a
100
AcDbEntity
8
0
100
AcDbBlockBegin
2
HALF
70
0
10
0.0
20
0.0
30
0.0
3
HALF
1

0
SOLID
5
4b
100
AcDbEntity
8
0
6
BYBLOCK
62
0
100
AcDbTrace
10
-1.000000
20
0.166667
11
-1.000000
21
-0.166667
12
0.000000
22
0.000000
13
0.000000
23
0.000000
0
ENDBLK
5
4c
100
AcDbEntity
8
0
100
AcDbBlockEnd
0
BLOCK
5
4d
100
AcDbEntity
8
0
100
AcDbBlockBegin
2
CLOSEDBLANK
70
0
10
0.0
20
0.0
30
0.0
3
CLOSEDBLANK
1

0
LINE
5
4e
100
AcDbEntity
8
0
6
BYBLOCK
62
0
100
AcDbLine
10
-1.000000
20
0.166667
11
-1.000000
21
-0.166667
0
LINE
5
4f
100
AcDbEntity
8
0
6
BYBLOCK
62
0
100
AcDbLine
10
0.000000
20
0.000000
11
-1.000000
21
-0.166667
0
LINE
5
50
100
AcDbEntity
8
0
6
BYBLOCK
62
0
100
AcDbLine
10
-1.000000
20
0.166667
11
0.000000
21
0.000000
0
ENDBLK
5
51
100
AcDbEntity
8
0
100
AcDbBlockEnd
0
BLOCK
5
52
100
AcDbEntity
8
0
100
AcDbBlockBegin
2
HALFCLOSE_R
70
0
10
0.0
20
0.0
30
0.0
3
HALFCLOSE_R
1

0
LINE
5
53
100
AcDbEntity
8
0
6
BYBLOCK
62
0
100
AcDbLine
10
-1.000000
20
-0.166667
11
-1.000000
21
0.000000
0
LINE
5
54
100
AcDbEntity
8
0
6
BYBLOCK
62
0
100
AcDbLine
10
-1.000000
20
-0.166667
11
0.000000
21
0.000000
0
LINE
5
55
100
AcDbEntity
8
0
6
BYBLOCK
62
0
100
AcDbLine
10
0.000000
20
0.000000
11
-1.000000
21
0.000000
0
ENDBLK
5
56
100
AcDbEntity
8
0
100
AcDbBlockEnd
0
BLOCK
5
57
100
AcDbEntity
8
0
100
AcDbBlockBegin
2
DOT
70
0
10
0.0
20
0.0
30
0.0
3
DOT
1

0
LINE
5
58
100
AcDbEntity
8
0
6
BYBLOCK
62
0
100
AcDbLine
10
0.000000
20
0.000000
11
-1.000000
21
0.000000
0
POLYLINE
5
59
100
AcDbEntity
8
0
6
BYBLOCK
62
0
100
AcDb2dPolyline
66
1
10
0.0
20
0.0
30
0.0
70
1
40
0.166667
41
0.166667
0
VERTEX
5
5a
100
AcDbEntity
8
0
100
AcDbVertex
100
AcDb2dVertex
62
10
10
-0.083333
20
0.000000
42
1.000000
0
VERTEX
5
5b
100
AcDbEntity
8
0
100
AcDbVertex
100
AcDb2dVertex
62
10
10
0.083333
20
0.000000
42
1.000000
0
SEQEND
5
5c
100
AcDbEntity
8
0
0
ENDBLK
5
5d
100
AcDbEntity
8
0
100
AcDbBlockEnd
0
BLOCK
5
5e
100
AcDbEntity
8
0
100
AcDbBlockBegin
2
HALFOPEN_R
70
0
10
0.0
20
0.0
30
0.0
3
HALFOPEN_R
1

0
LINE
5
5f
100
AcDbEntity
8
0
6
BYBLOCK
62
0
100
AcDbLine
10
-1.000000
20
-0.166667
11
0.000000
21
0.000000
0
LINE
5
60
100
AcDbEntity
8
0
6
BYBLOCK
62
0
100
AcDbLine
10
0.000000
20
0.000000
11
-1.000000
21
0.000000
0
ENDBLK
5
61
100
AcDbEntity
8
0
100
AcDbBlockEnd
0
BLOCK
5
62
100
AcDbEntity
8
0
100
AcDbBlockBegin
2
CLOSEDF
70
0
10
0.0
20
0.0
30
0.0
3
CLOSEDF
1

0
SOLID
5
63
100
AcDbEntity
8
0
6
BYBLOCK
62
0
100
AcDbTrace
10
-1.000000
20
0.166667
11
-1.000000
21
-0.166667
12
0.000000
22
0.000000
13
0.000000
23
0.000000
0
ENDBLK
5
64
100
AcDbEntity
8
0
100
AcDbBlockEnd
0
BLOCK
5
65
100
AcDbEntity
8
0
100
AcDbBlockBegin
2
HALF_R
70
0
10
0.0
20
0.0
30
0.0
3
HALF_R
1

0
SOLID
5
66
100
AcDbEntity
8
0
6
BYBLOCK
62
0
100
AcDbTrace
10
-1.000000
20
-0.166667
11
-1.000000
21
0.000000
12
0.000000
22
0.000000
13
0.000000
23
0.000000
0
ENDBLK
5
67
100
AcDbEntity
8
0
100
AcDbBlockEnd
0
ENDSEC
0
SECTION
2
ENTITIES
0
LINE
5
68
100
AcDbEntity
8
1
100
AcDbLine
6
CONTINUOUS
62
5
10
187.000000
20
-13.812500
11
190.750000
21
-13.187500
0
LINE
5
69
100
AcDbEntity
8
1
100
AcDbLine
6
CONTINUOUS
62
5
10
185.750000
20
-15.687500
11
191.750000
21
-15.687500
0
POLYLINE
5
6a
100
AcDbEntity
8
1
6
CONTINUOUS
62
5
100
AcDb2dPolyline
66
1
10
0.0
20
0.0
30
0.0
70
0
0
VERTEX
5
6b
100
AcDbEntity
8
1
100
AcDbVertex
100
AcDb2dVertex
62
5
10
189.000000
20
-13.500000
0
VERTEX
5
6c
100
AcDbEntity
8
1
100
AcDbVertex
100
AcDb2dVertex
62
5
10
189.000000
20
-15.687500
0
VERTEX
5
6d
100
AcDbEntity
8
1
100
AcDbVertex
100
AcDb2dVertex
62
5
10
188.750000
20
-17.250000
0
VERTEX
5
6e
100
AcDbEntity
8
1
100
AcDbVertex
100
AcDb2dVertex
62
5
10
188.000000
20
-18.500000
0
VERTEX
5
6f
100
AcDbEntity
8
1
100
AcDbVertex
100
AcDb2dVertex
62
5
10
187.250000
20
-19.437500
0
SEQEND
5
70
100
AcDbEntity
8
1
0
POLYLINE
5
71
100
AcDbEntity
8
1
6
CONTINUOUS
62
5
100
AcDb2dPolyline
66
1
10
0.0
20
0.0
30
0.0
70
0
0
VERTEX
5
72
100
AcDbEntity
8
1
100
AcDbVertex
100
AcDb2dVertex
62
5
10
163.000000
20
-14.125000
0
VERTEX
5
73
100
AcDbEntity
8
1
100
AcDbVertex
100
AcDb2dVertex
62
5
10
166.250000
20
-14.125000
0
VERTEX
5
74
100
AcDbEntity
8
1
100
AcDbVertex
100
AcDb2dVertex
62
5
10
166.250000
20
-14.437500
0
VERTEX
5
75
100
AcDbEntity
8
1
100
AcDbVertex
100
AcDb2dVertex
62
5
10
165.750000
20
-15.687500
0
VERTEX
5
76
100
AcDbEntity
8
1
100
AcDbVertex
100
AcDb2dVertex
62
5
10
165.250000
20
-16.625000
0
VERTEX
5
77
100
AcDbEntity
8
1
100
AcDbVertex
100
AcDb2dVertex
62
5
10
164.250000
20
-17.875000
0
VERTEX
5
78
100
AcDbEntity
8
1
100
AcDbVertex
100
AcDb2dVertex
62
5
10
162.500000
20
-19.437500
0
SEQEND
5
79
100
AcDbEntity
8
1
0
LINE
5
7a
100
AcDbEntity
8
1
100
AcDbLine
6
CONTINUOUS
62
5
10
165.250000
20
-16.625000
11
167.250000
21
-19.437500
0
POLYLINE
5
7b
100
AcDbEntity
8
1
6
CONTINUOUS
62
5
100
AcDb2dPolyline
66
1
10
0.0
20
0.0
30
0.0
70
0
0
VERTEX
5
7c
100
AcDbEntity
8
1
100
AcDbVertex
100
AcDb2dVertex
62
5
10
174.750000
20
-12.562500
0
VERTEX
5
7d
100
AcDbEntity
8
1
100
AcDbVertex
100
AcDb2dVertex
62
5
10
172.750000
20
-15.062500
0
VERTEX
5
7e
100
AcDbEntity
8
1
100
AcDbVertex
100
AcDb2dVertex
62
5
10
170.500000
20
-16.625000
0
SEQEND
5
7f
100
AcDbEntity
8
1
0
LINE
5
80
100
AcDbEntity
8
1
100
AcDbLine
6
CONTINUOUS
62
5
10
173.250000
20
-14.437500
11
173.250000
21
-19.750000
0
LINE
5
81
100
AcDbEntity
8
1
100
AcDbLine
6
CONTINUOUS
62
5
10
179.250000
20
-15.687500
11
179.500000
21
-16.937500
0
LINE
5
82
100
AcDbEntity
8
1
100
AcDbLine
6
CONTINUOUS
62
5
10
180.750000
20
-15.375000
11
181.000000
21
-16.625000
0
POLYLINE
5
83
100
AcDbEntity
8
1
6
CONTINUOUS
62
5
100
AcDb2dPolyline
66
1
10
0.0
20
0.0
30
0.0
70
0
0
VERTEX
5
84
100
AcDbEntity
8
1
100
AcDbVertex
100
AcDb2dVertex
62
5
10
182.750000
20
-15.375000
0
VERTEX
5
85
100
AcDbEntity
8
1
100
AcDbVertex
100
AcDb2dVertex
62
5
10
182.500000
20
-16.937500
0
VERTEX
5
86
100
AcDbEntity
8
1
100
AcDbVertex
100
AcDb2dVertex
62
5
10
181.250000
20
-18.812500
0
VERTEX
5
87
100
AcDbEntity
8
1
100
AcDbVertex
100
AcDb2dVertex
62
5
10
180.250000
20
-19.750000
0
SEQEND
5
88
100
AcDbEntity
8
1
0
POLYLINE
5
89
100
AcDbEntity
8
1
6
DOT2
62
5
100
AcDb2dPolyline
66
1
10
0.0
20
0.0
30
0.0
70
0
0
VERTEX
5
8a
100
AcDbEntity
8
1
100
AcDbVertex
100
AcDb2dVertex
62
5
10
264.650000
20
-98.422059
0
VERTEX
5
8b
100
AcDbEntity
8
1
100
AcDbVertex
100
AcDb2dVertex
62
5
10
264.962500
20
-96.859559
0
VERTEX
5
8c
100
AcDbEntity
8
1
100
AcDbVertex
100
AcDb2dVertex
62
5
10
265.900000
20
-96.234559
0
VERTEX
5
8d
100
AcDbEntity
8
1
100
AcDbVertex
100
AcDb2dVertex
62
5
10
266.837500
20
-96.234559
0
VERTEX
5
8e
100
AcDbEntity
8
1
100
AcDbVertex
100
AcDb2dVertex
62
5
10
267.462500
20
-96.547059
0
VERTEX
5
8f
100
AcDbEntity
8
1
100
AcDbVertex
100
AcDb2dVertex
62
5
10
267.775000
20
-97.484559
0
VERTEX
5
90
100
AcDbEntity
8
1
100
AcDbVertex
100
AcDb2dVertex
62
5
10
267.775000
20
-98.422059
0
VERTEX
5
91
100
AcDbEntity
8
1
100
AcDbVertex
100
AcDb2dVertex
62
5
10
267.462500
20
-99.359559
0
VERTEX
5
92
100
AcDbEntity
8
1
100
AcDbVertex
100
AcDb2dVertex
62
5
10
264.650000
20
-103.734559
0
VERTEX
5
93
100
AcDbEntity
8
1
100
AcDbVertex
100
AcDb2dVertex
62
5
10
267.775000
20
-103.734559
0
VERTEX
5
94
100
AcDbEntity
8
1
100
AcDbVertex
100
AcDb2dVertex
62
5
10
267.775000
20
-102.797059
0
SEQEND
5
95
100
AcDbEntity
8
1
0
POLYLINE
5
96
100
AcDbEntity
8
1
6
DOT2
62
5
100
AcDb2dPolyline
66
1
10
0.0
20
0.0
30
0.0
70
0
0
VERTEX
5
97
100
AcDbEntity
8
1
100
AcDbVertex
100
AcDb2dVertex
62
5
10
250.275000
20
-96.859559
0
VERTEX
5
98
100
AcDbEntity
8
1
100
AcDbVertex
100
AcDb2dVertex
62
5
10
251.212500
20
-96.234559
0
VERTEX
5
99
100
AcDbEntity
8
1
100
AcDbVertex
100
AcDb2dVertex
62
5
10
251.212500
20
-103.734559
0
SEQEND
5
9a
100
AcDbEntity
8
1
0
LINE
5
9b
100
AcDbEntity
8
1
100
AcDbLine
6
DOT2
62
5
10
250.587500
20
-103.734559
11
251.837500
21
-103.734559
0
POLYLINE
5
9c
100
AcDbEntity
8
1
6
DOT2
62
5
100
AcDb2dPolyline
66
1
10
0.0
20
0.0
30
0.0
70
1
0
VERTEX
5
9d
100
AcDbEntity
8
1
100
AcDbVertex
100
AcDb2dVertex
62
5
10
255.900000
20
-96.234559
0
VERTEX
5
9e
100
AcDbEntity
8
1
100
AcDbVertex
100
AcDb2dVertex
62
5
10
256.525000
20
-96.234559
0
VERTEX
5
9f
100
AcDbEntity
8
1
100
AcDbVertex
100
AcDb2dVertex
62
5
10
257.150000
20
-96.547059
0
VERTEX
5
a0
100
AcDbEntity
8
1
100
AcDbVertex
100
AcDb2dVertex
62
5
10
257.462500
20
-97.172059
0
VERTEX
5
a1
100
AcDbEntity
8
1
100
AcDbVertex
100
AcDb2dVertex
62
5
10
257.462500
20
-98.422059
0
VERTEX
5
a2
100
AcDbEntity
8
1
100
AcDbVertex
100
AcDb2dVertex
62
5
10
257.150000
20
-99.047059
0
VERTEX
5
a3
100
AcDbEntity
8
1
100
AcDbVertex
100
AcDb2dVertex
62
5
10
255.275000
20
-100.297059
0
VERTEX
5
a4
100
AcDbEntity
8
1
100
AcDbVertex
100
AcDb2dVertex
62
5
10
254.650000
20
-101.234559
0
VERTEX
5
a5
100
AcDbEntity
8
1
100
AcDbVertex
100
AcDb2dVertex
62
5
10
254.650000
20
-102.484559
0
VERTEX
5
a6
100
AcDbEntity
8
1
100
AcDbVertex
100
AcDb2dVertex
62
5
10
254.962500
20
-103.109559
0
VERTEX
5
a7
100
AcDbEntity
8
1
100
AcDbVertex
100
AcDb2dVertex
62
5
10
255.275000
20
-103.422059
0
VERTEX
5
a8
100
AcDbEntity
8
1
100
AcDbVertex
100
AcDb2dVertex
62
5
10
255.900000
20
-103.734559
0
VERTEX
5
a9
100
AcDbEntity
8
1
100
AcDbVertex
100
AcDb2dVertex
62
5
10
256.525000
20
-103.734559
0
VERTEX
5
aa
100
AcDbEntity
8
1
100
AcDbVertex
100
AcDb2dVertex
62
5
10
257.150000
20
-103.422059
0
VERTEX
5
ab
100
AcDbEntity
8
1
100
AcDbVertex
100
AcDb2dVertex
62
5
10
257.462500
20
-103.109559
0
VERTEX
5
ac
100
AcDbEntity
8
1
100
AcDbVertex
100
AcDb2dVertex
62
5
10
257.775000
20
-102.484559
0
VERTEX
5
ad
100
AcDbEntity
8
1
100
AcDbVertex
100
AcDb2dVertex
62
5
10
257.775000
20
-101.234559
0
VERTEX
5
ae
100
AcDbEntity
8
1
100
AcDbVertex
100
AcDb2dVertex
62
5
10
257.150000
20
-100.297059
0
VERTEX
5
af
100
AcDbEntity
8
1
100
AcDbVertex
100
AcDb2dVertex
62
5
10
255.275000
20
-99.047059
0
VERTEX
5
b0
100
AcDbEntity
8
1
100
AcDbVertex
100
AcDb2dVertex
62
5
10
254.962500
20
-98.422059
0
VERTEX
5
b1
100
AcDbEntity
8
1
100
AcDbVertex
100
AcDb2dVertex
62
5
10
254.962500
20
-97.172059
0
VERTEX
5
b2
100
AcDbEntity
8
1
100
AcDbVertex
100
AcDb2dVertex
62
5
10
255.275000
20
-96.547059
0
VERTEX
5
b3
100
AcDbEntity
8
1
100
AcDbVertex
100
AcDb2dVertex
62
5
10
255.900000
20
-96.234559
0
SEQEND
5
b4
100
AcDbEntity
8
1
0
LINE
5
b5
100
AcDbEntity
8
1
100
AcDbLine
6
DOT2
62
5
10
260.275000
20
-103.109559
11
259.650000
21
-103.734559
0
POLYLINE
5
b6
100
AcDbEntity
8
1
6
DOT2
62
5
100
AcDb2dPolyline
66
1
10
0.0
20
0.0
30
0.0
70
0
0
VERTEX
5
b7
100
AcDbEntity
8
1
100
AcDbVertex
100
AcDb2dVertex
62
5
10
259.650000
20
-103.109559
0
VERTEX
5
b8
100
AcDbEntity
8
1
100
AcDbVertex
100
AcDb2dVertex
62
5
10
260.275000
20
-103.734559
0
VERTEX
5
b9
100
AcDbEntity
8
1
100
AcDbVertex
100
AcDb2dVertex
62
5
10
259.650000
20
-103.734559
0
VERTEX
5
ba
100
AcDbEntity
8
1
100
AcDbVertex
100
AcDb2dVertex
62
5
10
259.650000
20
-103.109559
0
VERTEX
5
bb
100
AcDbEntity
8
1
100
AcDbVertex
100
AcDb2dVertex
62
5
10
260.275000
20
-103.109559
0
VERTEX
5
bc
100
AcDbEntity
8
1
100
AcDbVertex
100
AcDb2dVertex
62
5
10
260.275000
20
-103.734559
0
SEQEND
5
bd
100
AcDbEntity
8
1
0
POLYLINE
5
be
100
AcDbEntity
8
1
6
DOT2
62
5
100
AcDb2dPolyline
66
1
10
0.0
20
0.0
30
0.0
70
0
0
VERTEX
5
bf
100
AcDbEntity
8
1
100
AcDbVertex
100
AcDb2dVertex
62
5
10
192.075000
20
-96.875000
0
VERTEX
5
c0
100
AcDbEntity
8
1
100
AcDbVertex
100
AcDb2dVertex
62
5
10
193.012500
20
-96.250000
0
VERTEX
5
c1
100
AcDbEntity
8
1
100
AcDbVertex
100
AcDb2dVertex
62
5
10
193.012500
20
-103.750000
0
SEQEND
5
c2
100
AcDbEntity
8
1
0
LINE
5
c3
100
AcDbEntity
8
1
100
AcDbLine
6
DOT2
62
5
10
192.387500
20
-103.750000
11
193.637500
21
-103.750000
0
POLYLINE
5
c4
100
AcDbEntity
8
1
6
DOT2
62
5
100
AcDb2dPolyline
66
1
10
0.0
20
0.0
30
0.0
70
1
0
VERTEX
5
c5
100
AcDbEntity
8
1
100
AcDbVertex
100
AcDb2dVertex
62
5
10
197.700000
20
-96.250000
0
VERTEX
5
c6
100
AcDbEntity
8
1
100
AcDbVertex
100
AcDb2dVertex
62
5
10
198.325000
20
-96.250000
0
VERTEX
5
c7
100
AcDbEntity
8
1
100
AcDbVertex
100
AcDb2dVertex
62
5
10
198.637500
20
-96.562500
0
VERTEX
5
c8
100
AcDbEntity
8
1
100
AcDbVertex
100
AcDb2dVertex
62
5
10
199.262500
20
-97.812500
0
VERTEX
5
c9
100
AcDbEntity
8
1
100
AcDbVertex
100
AcDb2dVertex
62
5
10
199.575000
20
-99.062500
0
VERTEX
5
ca
100
AcDbEntity
8
1
100
AcDbVertex
100
AcDb2dVertex
62
5
10
199.575000
20
-100.937500
0
VERTEX
5
cb
100
AcDbEntity
8
1
100
AcDbVertex
100
AcDb2dVertex
62
5
10
199.262500
20
-102.187500
0
VERTEX
5
cc
100
AcDbEntity
8
1
100
AcDbVertex
100
AcDb2dVertex
62
5
10
198.637500
20
-103.437500
0
VERTEX
5
cd
100
AcDbEntity
8
1
100
AcDbVertex
100
AcDb2dVertex
62
5
10
198.325000
20
-103.750000
0
VERTEX
5
ce
100
AcDbEntity
8
1
100
AcDbVertex
100
AcDb2dVertex
62
5
10
197.700000
20
-103.750000
0
VERTEX
5
cf
100
AcDbEntity
8
1
100
AcDbVertex
100
AcDb2dVertex
62
5
10
197.387500
20
-103.437500
0
VERTEX
5
d0
100
AcDbEntity
8
1
100
AcDbVertex
100
AcDb2dVertex
62
5
10
196.762500
20
-102.187500
0
VERTEX
5
d1
100
AcDbEntity
8
1
100
AcDbVertex
100
AcDb2dVertex
62
5
10
196.450000
20
-100.937500
0
VERTEX
5
d2
100
AcDbEntity
8
1
100
AcDbVertex
100
AcDb2dVertex
62
5
10
196.450000
20
-99.062500
0
VERTEX
5
d3
100
AcDbEntity
8
1
100
AcDbVertex
100
AcDb2dVertex
62
5
10
196.762500
20
-97.812500
0
VERTEX
5
d4
100
AcDbEntity
8
1
100
AcDbVertex
100
AcDb2dVertex
62
5
10
197.387500
20
-96.562500
0
VERTEX
5
d5
100
AcDbEntity
8
1
100
AcDbVertex
100
AcDb2dVertex
62
5
10
197.700000
20
-96.250000
0
SEQEND
5
d6
100
AcDbEntity
8
1
0
ARC
5
d7
100
AcDbEntity
8
1
100
AcDbCircle
6
CONTINUOUS
62
5
10
221.000003
20
-158.800000
40
0.700000
100
AcDbArc
50
-89.999999
51
0.000000
0
LINE
5
d8
100
AcDbEntity
8
1
100
AcDbLine
6
CONTINUOUS
62
5
10
221.700003
20
-158.800000
11
221.700003
21
-158.484717
0
ARC
5
d9
100
AcDbEntity
8
1
100
AcDbCircle
6
CONTINUOUS
62
5
10
220.700003
20
-158.484717
40
1.000000
100
AcDbArc
50
0.000000
51
89.118595
0
LINE
5
da
100
AcDbEntity
8
1
100
AcDbLine
6
CONTINUOUS
62
5
10
220.715386
20
-157.484836
11
220.200000
21
-157.479984
0
LINE
5
db
100
AcDbEntity
8
1
100
AcDbLine
6
CONTINUOUS
62
5
10
220.200000
20
-159.500000
11
221.000003
21
-159.500000
0
POLYLINE
5
dc
100
AcDbEntity
8
1
6
CONTINUOUS
62
5
100
AcDb2dPolyline
66
1
10
0.0
20
0.0
30
0.0
70
0
0
VERTEX
5
dd
100
AcDbEntity
8
1
100
AcDbVertex
100
AcDb2dVertex
62
5
10
220.200000
20
-152.800000
0
VERTEX
5
de
100
AcDbEntity
8
1
100
AcDbVertex
100
AcDb2dVertex
62
5
10
220.200000
20
-152.800000
0
VERTEX
5
df
100
AcDbEntity
8
1
100
AcDbVertex
100
AcDb2dVertex
62
5
10
221.700000
20
-154.340000
0
SEQEND
5
e0
100
AcDbEntity
8
1
0
LINE
5
e1
100
AcDbEntity
8
1
100
AcDbLine
6
CONTINUOUS
62
5
10
220.200000
20
-128.500000
11
220.200000
21
-103.000000
0
LINE
5
e2
100
AcDbEntity
8
1
100
AcDbLine
6
CONTINUOUS
62
5
10
210.200000
20
-144.711734
11
210.200000
21
-103.000000
0
POLYLINE
5
e3
100
AcDbEntity
8
1
6
CONTINUOUS
62
5
100
AcDb2dPolyline
66
1
10
0.0
20
0.0
30
0.0
70
0
0
VERTEX
5
e4
100
AcDbEntity
8
1
100
AcDbVertex
100
AcDb2dVertex
62
5
10
188.950000
20
-105.000000
0
VERTEX
5
e5
100
AcDbEntity
8
1
100
AcDbVertex
100
AcDb2dVertex
62
5
10
210.200000
20
-105.000000
0
VERTEX
5
e6
100
AcDbEntity
8
1
100
AcDbVertex
100
AcDb2dVertex
62
5
10
207.152000
20
-105.508000
0
VERTEX
5
e7
100
AcDbEntity
8
1
100
AcDbVertex
100
AcDb2dVertex
62
5
10
207.152000
20
-104.492000
0
VERTEX
5
e8
100
AcDbEntity
8
1
100
AcDbVertex
100
AcDb2dVertex
62
5
10
210.200000
20
-105.000000
0
VERTEX
5
e9
100
AcDbEntity
8
1
100
AcDbVertex
100
AcDb2dVertex
62
5
10
207.152000
20
-105.254000
0
VERTEX
5
ea
100
AcDbEntity
8
1
100
AcDbVertex
100
AcDb2dVertex
62
5
10
207.152000
20
-104.746000
0
VERTEX
5
eb
100
AcDbEntity
8
1
100
AcDbVertex
100
AcDb2dVertex
62
5
10
210.200000
20
-105.000000
0
SEQEND
5
ec
100
AcDbEntity
8
1
0
LINE
5
ed
100
AcDbEntity
8
1
100
AcDbLine
6
CONTINUOUS
62
5
10
210.200000
20
-105.000000
11
220.200000
21
-105.000000
0
LINE
5
ee
100
AcDbEntity
8
1
100
AcDbLine
6
CONTINUOUS
62
5
10
224.216000
20
-105.000000
11
220.200000
21
-105.000000
0
POLYLINE
5
ef
100
AcDbEntity
8
1
6
CONTINUOUS
62
5
100
AcDb2dPolyline
66
1
10
0.0
20
0.0
30
0.0
70
0
0
VERTEX
5
f0
100
AcDbEntity
8
1
100
AcDbVertex
100
AcDb2dVertex
62
5
10
219.692000
20
-105.254000
0
VERTEX
5
f1
100
AcDbEntity
8
1
100
AcDbVertex
100
AcDb2dVertex
62
5
10
219.692000
20
-104.746000
0
VERTEX
5
f2
100
AcDbEntity
8
1
100
AcDbVertex
100
AcDb2dVertex
62
5
10
219.946000
20
-104.492000
0
VERTEX
5
f3
100
AcDbEntity
8
1
100
AcDbVertex
100
AcDb2dVertex
62
5
10
220.454000
20
-104.492000
0
VERTEX
5
f4
100
AcDbEntity
8
1
100
AcDbVertex
100
AcDb2dVertex
62
5
10
220.708000
20
-104.746000
0
VERTEX
5
f5
100
AcDbEntity
8
1
100
AcDbVertex
100
AcDb2dVertex
62
5
10
220.708000
20
-105.254000
0
VERTEX
5
f6
100
AcDbEntity
8
1
100
AcDbVertex
100
AcDb2dVertex
62
5
10
220.454000
20
-105.508000
0
VERTEX
5
f7
100
AcDbEntity
8
1
100
AcDbVertex
100
AcDb2dVertex
62
5
10
219.946000
20
-105.508000
0
VERTEX
5
f8
100
AcDbEntity
8
1
100
AcDbVertex
100
AcDb2dVertex
62
5
10
219.692000
20
-105.254000
0
VERTEX
5
f9
100
AcDbEntity
8
1
100
AcDbVertex
100
AcDb2dVertex
62
5
10
220.708000
20
-104.746000
0
SEQEND
5
fa
100
AcDbEntity
8
1
0
LINE
5
fb
100
AcDbEntity
8
1
100
AcDbLine
6
CONTINUOUS
62
5
10
220.708000
20
-105.254000
11
219.692000
21
-104.746000
0
LINE
5
fc
100
AcDbEntity
8
1
100
AcDbLine
6
CONTINUOUS
62
5
10
219.946000
20
-104.492000
11
220.454000
21
-105.508000
0
LINE
5
fd
100
AcDbEntity
8
1
100
AcDbLine
6
CONTINUOUS
62
5
10
219.946000
20
-105.508000
11
220.454000
21
-104.492000
0
POLYLINE
5
fe
100
AcDbEntity
8
1
6
CONTINUOUS
62
5
100
AcDb2dPolyline
66
1
10
0.0
20
0.0
30
0.0
70
0
0
VERTEX
5
ff
100
AcDbEntity
8
1
100
AcDbVertex
100
AcDb2dVertex
62
5
10
146.750000
20
-16.312500
0
VERTEX
5
100
100
AcDbEntity
8
1
100
AcDbVertex
100
AcDb2dVertex
62
5
10
147.750000
20
-15.062500
0
VERTEX
5
101
100
AcDbEntity
8
1
100
AcDbVertex
100
AcDb2dVertex
62
5
10
148.500000
20
-13.812500
0
VERTEX
5
102
100
AcDbEntity
8
1
100
AcDbVertex
100
AcDb2dVertex
62
5
10
151.000000
20
-13.812500
0
VERTEX
5
103
100
AcDbEntity
8
1
100
AcDbVertex
100
AcDb2dVertex
62
5
10
151.000000
20
-14.125000
0
VERTEX
5
104
100
AcDbEntity
8
1
100
AcDbVertex
100
AcDb2dVertex
62
5
10
150.000000
20
-16.625000
0
VERTEX
5
105
100
AcDbEntity
8
1
100
AcDbVertex
100
AcDb2dVertex
62
5
10
148.750000
20
-18.500000
0
VERTEX
5
106
100
AcDbEntity
8
1
100
AcDbVertex
100
AcDb2dVertex
62
5
10
147.250000
20
-19.750000
0
SEQEND
5
107
100
AcDbEntity
8
1
0
LINE
5
108
100
AcDbEntity
8
1
100
AcDbLine
6
CONTINUOUS
62
5
10
148.500000
20
-15.687500
11
149.750000
21
-16.937500
0
LINE
5
109
100
AcDbEntity
8
1
100
AcDbLine
6
CONTINUOUS
62
5
10
155.250000
20
-12.875000
11
155.250000
21
-16.625000
0
POLYLINE
5
10a
100
AcDbEntity
8
1
6
CONTINUOUS
62
5
100
AcDb2dPolyline
66
1
10
0.0
20
0.0
30
0.0
70
0
0
VERTEX
5
10b
100
AcDbEntity
8
1
100
AcDbVertex
100
AcDb2dVertex
62
5
10
158.000000
20
-12.562500
0
VERTEX
5
10c
100
AcDbEntity
8
1
100
AcDbVertex
100
AcDb2dVertex
62
5
10
158.000000
20
-16.312500
0
VERTEX
5
10d
100
AcDbEntity
8
1
100
AcDbVertex
100
AcDb2dVertex
62
5
10
157.750000
20
-17.562500
0
VERTEX
5
10e
100
AcDbEntity
8
1
100
AcDbVertex
100
AcDb2dVertex
62
5
10
157.250000
20
-18.812500
0
VERTEX
5
10f
100
AcDbEntity
8
1
100
AcDbVertex
100
AcDb2dVertex
62
5
10
156.500000
20
-19.750000
0
SEQEND
5
110
100
AcDbEntity
8
1
0
POLYLINE
5
111
100
AcDbEntity
8
1
6
CONTINUOUS
62
5
100
AcDb2dPolyline
66
1
10
0.0
20
0.0
30
0.0
70
0
0
VERTEX
5
112
100
AcDbEntity
8
1
100
AcDbVertex
100
AcDb2dVertex
62
5
10
122.500000
20
-12.250000
0
VERTEX
5
113
100
AcDbEntity
8
1
100
AcDbVertex
100
AcDb2dVertex
62
5
10
122.500000
20
-17.875000
0
VERTEX
5
114
100
AcDbEntity
8
1
100
AcDbVertex
100
AcDb2dVertex
62
5
10
122.000000
20
-19.125000
0
VERTEX
5
115
100
AcDbEntity
8
1
100
AcDbVertex
100
AcDb2dVertex
62
5
10
121.500000
20
-20.062500
0
SEQEND
5
116
100
AcDbEntity
8
1
0
POLYLINE
5
117
100
AcDbEntity
8
1
6
CONTINUOUS
62
5
100
AcDb2dPolyline
66
1
10
0.0
20
0.0
30
0.0
70
0
0
VERTEX
5
118
100
AcDbEntity
8
1
100
AcDbVertex
100
AcDb2dVertex
62
5
10
126.500000
20
-19.750000
0
VERTEX
5
119
100
AcDbEntity
8
1
100
AcDbVertex
100
AcDb2dVertex
62
5
10
127.500000
20
-20.375000
0
VERTEX
5
11a
100
AcDbEntity
8
1
100
AcDbVertex
100
AcDb2dVertex
62
5
10
127.500000
20
-12.250000
0
VERTEX
5
11b
100
AcDbEntity
8
1
100
AcDbVertex
100
AcDb2dVertex
62
5
10
122.500000
20
-12.250000
0
SEQEND
5
11c
100
AcDbEntity
8
1
0
LINE
5
11d
100
AcDbEntity
8
1
100
AcDbLine
6
CONTINUOUS
62
5
10
122.500000
20
-14.750000
11
127.500000
21
-14.750000
0
LINE
5
11e
100
AcDbEntity
8
1
100
AcDbLine
6
CONTINUOUS
62
5
10
125.000000
20
-12.250000
11
125.000000
21
-20.375000
0
LINE
5
11f
100
AcDbEntity
8
1
100
AcDbLine
6
CONTINUOUS
62
5
10
122.500000
20
-17.250000
11
127.500000
21
-17.250000
0
POLYLINE
5
120
100
AcDbEntity
8
1
6
CONTINUOUS
62
5
100
AcDb2dPolyline
66
1
10
0.0
20
0.0
30
0.0
70
1
0
VERTEX
5
121
100
AcDbEntity
8
1
100
AcDbVertex
100
AcDb2dVertex
62
5
10
131.000000
20
-18.500000
0
VERTEX
5
122
100
AcDbEntity
8
1
100
AcDbVertex
100
AcDb2dVertex
62
5
10
131.000000
20
-13.500000
0
VERTEX
5
123
100
AcDbEntity
8
1
100
AcDbVertex
100
AcDb2dVertex
62
5
10
135.000000
20
-13.500000
0
VERTEX
5
124
100
AcDbEntity
8
1
100
AcDbVertex
100
AcDb2dVertex
62
5
10
135.000000
20
-18.500000
0
VERTEX
5
125
100
AcDbEntity
8
1
100
AcDbVertex
100
AcDb2dVertex
62
5
10
131.000000
20
-18.500000
0
SEQEND
5
126
100
AcDbEntity
8
1
0
POLYLINE
5
127
100
AcDbEntity
8
1
6
CONTINUOUS
62
5
100
AcDb2dPolyline
66
1
10
0.0
20
0.0
30
0.0
70
0
0
VERTEX
5
128
100
AcDbEntity
8
1
100
AcDbVertex
100
AcDb2dVertex
62
5
10
137.750000
20
-15.687500
0
VERTEX
5
129
100
AcDbEntity
8
1
100
AcDbVertex
100
AcDb2dVertex
62
5
10
138.000000
20
-16.000000
0
VERTEX
5
12a
100
AcDbEntity
8
1
100
AcDbVertex
100
AcDb2dVertex
62
5
10
144.750000
20
-16.000000
0
SEQEND
5
12b
100
AcDbEntity
8
1
0
POLYLINE
5
12c
100
AcDbEntity
8
1
6
CONTINUOUS
62
5
100
AcDb2dPolyline
66
1
10
0.0
20
0.0
30
0.0
70
0
0
VERTEX
5
12d
100
AcDbEntity
8
1
100
AcDbVertex
100
AcDb2dVertex
62
5
10
124.250000
20
-21.625000
0
VERTEX
5
12e
100
AcDbEntity
8
1
100
AcDbVertex
100
AcDb2dVertex
62
5
10
123.500000
20
-22.875000
0
VERTEX
5
12f
100
AcDbEntity
8
1
100
AcDbVertex
100
AcDb2dVertex
62
5
10
122.750000
20
-23.812500
0
VERTEX
5
130
100
AcDbEntity
8
1
100
AcDbVertex
100
AcDb2dVertex
62
5
10
121.750000
20
-24.750000
0
SEQEND
5
131
100
AcDbEntity
8
1
0
POLYLINE
5
132
100
AcDbEntity
8
1
6
CONTINUOUS
62
5
100
AcDb2dPolyline
66
1
10
0.0
20
0.0
30
0.0
70
0
0
VERTEX
5
133
100
AcDbEntity
8
1
100
AcDbVertex
100
AcDb2dVertex
62
5
10
124.000000
20
-22.250000
0
VERTEX
5
134
100
AcDbEntity
8
1
100
AcDbVertex
100
AcDb2dVertex
62
5
10
126.250000
20
-22.250000
0
VERTEX
5
135
100
AcDbEntity
8
1
100
AcDbVertex
100
AcDb2dVertex
62
5
10
125.000000
20
-24.125000
0
SEQEND
5
136
100
AcDbEntity
8
1
0
POLYLINE
5
137
100
AcDbEntity
8
1
6
CONTINUOUS
62
5
100
AcDb2dPolyline
66
1
10
0.0
20
0.0
30
0.0
70
0
0
VERTEX
5
138
100
AcDbEntity
8
1
100
AcDbVertex
100
AcDb2dVertex
62
5
10
122.750000
20
-24.125000
0
VERTEX
5
139
100
AcDbEntity
8
1
100
AcDbVertex
100
AcDb2dVertex
62
5
10
127.250000
20
-24.125000
0
VERTEX
5
13a
100
AcDbEntity
8
1
100
AcDbVertex
100
AcDb2dVertex
62
5
10
127.250000
20
-26.937500
0
VERTEX
5
13b
100
AcDbEntity
8
1
100
AcDbVertex
100
AcDb2dVertex
62
5
10
122.750000
20
-26.937500
0
SEQEND
5
13c
100
AcDbEntity
8
1
0
LINE
5
13d
100
AcDbEntity
8
1
100
AcDbLine
6
CONTINUOUS
62
5
10
125.000000
20
-24.125000
11
125.000000
21
-26.937500
0
POLYLINE
5
13e
100
AcDbEntity
8
1
6
CONTINUOUS
62
5
100
AcDb2dPolyline
66
1
10
0.0
20
0.0
30
0.0
70
0
0
VERTEX
5
13f
100
AcDbEntity
8
1
100
AcDbVertex
100
AcDb2dVertex
62
5
10
122.750000
20
-24.125000
0
VERTEX
5
140
100
AcDbEntity
8
1
100
AcDbVertex
100
AcDb2dVertex
62
5
10
122.750000
20
-29.437500
0
VERTEX
5
141
100
AcDbEntity
8
1
100
AcDbVertex
100
AcDb2dVertex
62
5
10
123.250000
20
-30.062500
0
VERTEX
5
142
100
AcDbEntity
8
1
100
AcDbVertex
100
AcDb2dVertex
62
5
10
128.250000
20
-30.062500
0
VERTEX
5
143
100
AcDbEntity
8
1
100
AcDbVertex
100
AcDb2dVertex
62
5
10
128.250000
20
-28.812500
0
SEQEND
5
144
100
AcDbEntity
8
1
0
LINE
5
145
100
AcDbEntity
8
1
100
AcDbLine
6
CONTINUOUS
62
5
10
106.750000
20
-13.812500
11
107.750000
21
-15.062500
0
POLYLINE
5
146
100
AcDbEntity
8
1
6
CONTINUOUS
62
5
100
AcDb2dPolyline
66
1
10
0.0
20
0.0
30
0.0
70
0
0
VERTEX
5
147
100
AcDbEntity
8
1
100
AcDbVertex
100
AcDb2dVertex
62
5
10
106.500000
20
-18.812500
0
VERTEX
5
148
100
AcDbEntity
8
1
100
AcDbVertex
100
AcDb2dVertex
62
5
10
108.250000
20
-17.875000
0
VERTEX
5
149
100
AcDbEntity
8
1
100
AcDbVertex
100
AcDb2dVertex
62
5
10
109.750000
20
-16.625000
0
VERTEX
5
14a
100
AcDbEntity
8
1
100
AcDbVertex
100
AcDb2dVertex
62
5
10
111.250000
20
-15.062500
0
SEQEND
5
14b
100
AcDbEntity
8
1
0
POLYLINE
5
14c
100
AcDbEntity
8
1
6
CONTINUOUS
62
5
100
AcDb2dPolyline
66
1
10
0.0
20
0.0
30
0.0
70
0
0
VERTEX
5
14d
100
AcDbEntity
8
1
100
AcDbVertex
100
AcDb2dVertex
62
5
10
81.250000
20
-17.875000
0
VERTEX
5
14e
100
AcDbEntity
8
1
100
AcDbVertex
100
AcDb2dVertex
62
5
10
81.750000
20
-16.937500
0
VERTEX
5
14f
100
AcDbEntity
8
1
100
AcDbVertex
100
AcDb2dVertex
62
5
10
82.250000
20
-15.375000
0
VERTEX
5
150
100
AcDbEntity
8
1
100
AcDbVertex
100
AcDb2dVertex
62
5
10
82.250000
20
-12.875000
0
VERTEX
5
151
100
AcDbEntity
8
1
100
AcDbVertex
100
AcDb2dVertex
62
5
10
88.000000
20
-12.875000
0
SEQEND
5
152
100
AcDbEntity
8
1
0
LINE
5
153
100
AcDbEntity
8
1
100
AcDbLine
6
CONTINUOUS
62
5
10
86.750000
20
-11.937500
11
87.250000
21
-12.250000
0
POLYLINE
5
154
100
AcDbEntity
8
1
6
CONTINUOUS
62
5
100
AcDb2dPolyline
66
1
10
0.0
20
0.0
30
0.0
70
0
0
VERTEX
5
155
100
AcDbEntity
8
1
100
AcDbVertex
100
AcDb2dVertex
62
5
10
85.500000
20
-11.937500
0
VERTEX
5
156
100
AcDbEntity
8
1
100
AcDbVertex
100
AcDb2dVertex
62
5
10
85.500000
20
-14.125000
0
VERTEX
5
157
100
AcDbEntity
8
1
100
AcDbVertex
100
AcDb2dVertex
62
5
10
86.000000
20
-15.687500
0
VERTEX
5
158
100
AcDbEntity
8
1
100
AcDbVertex
100
AcDb2dVertex
62
5
10
87.000000
20
-17.250000
0
VERTEX
5
159
100
AcDbEntity
8
1
100
AcDbVertex
100
AcDb2dVertex
62
5
10
88.250000
20
-17.250000
0
VERTEX
5
15a
100
AcDbEntity
8
1
100
AcDbVertex
100
AcDb2dVertex
62
5
10
88.000000
20
-16.312500
0
SEQEND
5
15b
100
AcDbEntity
8
1
0
POLYLINE
5
15c
100
AcDbEntity
8
1
6
CONTINUOUS
62
5
100
AcDb2dPolyline
66
1
10
0.0
20
0.0
30
0.0
70
0
0
VERTEX
5
15d
100
AcDbEntity
8
1
100
AcDbVertex
100
AcDb2dVertex
62
5
10
87.250000
20
-14.125000
0
VERTEX
5
15e
100
AcDbEntity
8
1
100
AcDbVertex
100
AcDb2dVertex
62
5
10
86.500000
20
-15.687500
0
VERTEX
5
15f
100
AcDbEntity
8
1
100
AcDbVertex
100
AcDb2dVertex
62
5
10
85.750000
20
-16.625000
0
VERTEX
5
160
100
AcDbEntity
8
1
100
AcDbVertex
100
AcDb2dVertex
62
5
10
85.000000
20
-17.250000
0
SEQEND
5
161
100
AcDbEntity
8
1
0
LINE
5
162
100
AcDbEntity
8
1
100
AcDbLine
6
CONTINUOUS
62
5
10
83.000000
20
-14.437500
11
84.750000
21
-14.437500
0
POLYLINE
5
163
100
AcDbEntity
8
1
6
CONTINUOUS
62
5
100
AcDb2dPolyline
66
1
10
0.0
20
0.0
30
0.0
70
1
0
VERTEX
5
164
100
AcDbEntity
8
1
100
AcDbVertex
100
AcDb2dVertex
62
5
10
83.000000
20
-15.375000
0
VERTEX
5
165
100
AcDbEntity
8
1
100
AcDbVertex
100
AcDb2dVertex
62
5
10
84.750000
20
-15.375000
0
VERTEX
5
166
100
AcDbEntity
8
1
100
AcDbVertex
100
AcDb2dVertex
62
5
10
84.750000
20
-16.937500
0
VERTEX
5
167
100
AcDbEntity
8
1
100
AcDbVertex
100
AcDb2dVertex
62
5
10
83.000000
20
-16.937500
0
VERTEX
5
168
100
AcDbEntity
8
1
100
AcDbVertex
100
AcDb2dVertex
62
5
10
83.000000
20
-15.375000
0
SEQEND
5
169
100
AcDbEntity
8
1
0
POLYLINE
5
16a
100
AcDbEntity
8
1
6
CONTINUOUS
62
5
100
AcDb2dPolyline
66
1
10
0.0
20
0.0
30
0.0
70
0
0
VERTEX
5
16b
100
AcDbEntity
8
1
100
AcDbVertex
100
AcDb2dVertex
62
5
10
82.250000
20
-18.500000
0
VERTEX
5
16c
100
AcDbEntity
8
1
100
AcDbVertex
100
AcDb2dVertex
62
5
10
82.000000
20
-19.437500
0
VERTEX
5
16d
100
AcDbEntity
8
1
100
AcDbVertex
100
AcDb2dVertex
62
5
10
81.500000
20
-20.062500
0
SEQEND
5
16e
100
AcDbEntity
8
1
0
POLYLINE
5
16f
100
AcDbEntity
8
1
6
CONTINUOUS
62
5
100
AcDb2dPolyline
66
1
10
0.0
20
0.0
30
0.0
70
0
0
VERTEX
5
170
100
AcDbEntity
8
1
100
AcDbVertex
100
AcDb2dVertex
62
5
10
83.250000
20
-18.187500
0
VERTEX
5
171
100
AcDbEntity
8
1
100
AcDbVertex
100
AcDb2dVertex
62
5
10
83.250000
20
-19.750000
0
VERTEX
5
172
100
AcDbEntity
8
1
100
AcDbVertex
100
AcDb2dVertex
62
5
10
83.750000
20
-20.375000
0
VERTEX
5
173
100
AcDbEntity
8
1
100
AcDbVertex
100
AcDb2dVertex
62
5
10
86.750000
20
-20.375000
0
VERTEX
5
174
100
AcDbEntity
8
1
100
AcDbVertex
100
AcDb2dVertex
62
5
10
86.500000
20
-19.437500
0
SEQEND
5
175
100
AcDbEntity
8
1
0
LINE
5
176
100
AcDbEntity
8
1
100
AcDbLine
6
CONTINUOUS
62
5
10
84.750000
20
-18.187500
11
85.500000
21
-19.125000
0
POLYLINE
5
177
100
AcDbEntity
8
1
6
CONTINUOUS
62
5
100
AcDb2dPolyline
66
1
10
0.0
20
0.0
30
0.0
70
0
0
VERTEX
5
178
100
AcDbEntity
8
1
100
AcDbVertex
100
AcDb2dVertex
62
5
10
87.500000
20
-18.500000
0
VERTEX
5
179
100
AcDbEntity
8
1
100
AcDbVertex
100
AcDb2dVertex
62
5
10
88.000000
20
-19.437500
0
VERTEX
5
17a
100
AcDbEntity
8
1
100
AcDbVertex
100
AcDb2dVertex
62
5
10
88.250000
20
-20.062500
0
SEQEND
5
17b
100
AcDbEntity
8
1
0
LINE
5
17c
100
AcDbEntity
8
1
100
AcDbLine
6
CONTINUOUS
62
5
10
90.000000
20
-12.562500
11
92.500000
21
-12.562500
0
LINE
5
17d
100
AcDbEntity
8
1
100
AcDbLine
6
CONTINUOUS
62
5
10
91.250000
20
-11.625000
11
91.250000
21
-13.812500
0
LINE
5
17e
100
AcDbEntity
8
1
100
AcDbLine
6
CONTINUOUS
62
5
10
89.500000
20
-13.812500
11
92.750000
21
-13.812500
0
POLYLINE
5
17f
100
AcDbEntity
8
1
6
CONTINUOUS
62
5
100
AcDb2dPolyline
66
1
10
0.0
20
0.0
30
0.0
70
0
0
VERTEX
5
180
100
AcDbEntity
8
1
100
AcDbVertex
100
AcDb2dVertex
62
5
10
90.750000
20
-14.125000
0
VERTEX
5
181
100
AcDbEntity
8
1
100
AcDbVertex
100
AcDb2dVertex
62
5
10
90.500000
20
-14.750000
0
VERTEX
5
182
100
AcDbEntity
8
1
100
AcDbVertex
100
AcDb2dVertex
62
5
10
89.750000
20
-15.375000
0
SEQEND
5
183
100
AcDbEntity
8
1
0
POLYLINE
5
184
100
AcDbEntity
8
1
6
CONTINUOUS
62
5
100
AcDb2dPolyline
66
1
10
0.0
20
0.0
30
0.0
70
0
0
VERTEX
5
185
100
AcDbEntity
8
1
100
AcDbVertex
100
AcDb2dVertex
62
5
10
91.750000
20
-14.125000
0
VERTEX
5
186
100
AcDbEntity
8
1
100
AcDbVertex
100
AcDb2dVertex
62
5
10
91.750000
20
-15.062500
0
VERTEX
5
187
100
AcDbEntity
8
1
100
AcDbVertex
100
AcDb2dVertex
62
5
10
92.000000
20
-15.375000
0
VERTEX
5
188
100
AcDbEntity
8
1
100
AcDbVertex
100
AcDb2dVertex
62
5
10
92.750000
20
-15.375000
0
VERTEX
5
189
100
AcDbEntity
8
1
100
AcDbVertex
100
AcDb2dVertex
62
5
10
92.750000
20
-14.750000
0
SEQEND
5
18a
100
AcDbEntity
8
1
0
LINE
5
18b
100
AcDbEntity
8
1
100
AcDbLine
6
CONTINUOUS
62
5
10
90.000000
20
-16.000000
11
92.500000
21
-16.000000
0
LINE
5
18c
100
AcDbEntity
8
1
100
AcDbLine
6
CONTINUOUS
62
5
10
91.250000
20
-15.375000
11
91.250000
21
-17.250000
0
LINE
5
18d
100
AcDbEntity
8
1
100
AcDbLine
6
CONTINUOUS
62
5
10
89.750000
20
-17.562500
11
92.500000
21
-16.937500
0
POLYLINE
5
18e
100
AcDbEntity
8
1
6
CONTINUOUS
62
5
100
AcDb2dPolyline
66
1
10
0.0
20
0.0
30
0.0
70
0
0
VERTEX
5
18f
100
AcDbEntity
8
1
100
AcDbVertex
100
AcDb2dVertex
62
5
10
93.250000
20
-13.187500
0
VERTEX
5
190
100
AcDbEntity
8
1
100
AcDbVertex
100
AcDb2dVertex
62
5
10
95.500000
20
-13.187500
0
VERTEX
5
191
100
AcDbEntity
8
1
100
AcDbVertex
100
AcDb2dVertex
62
5
10
95.500000
20
-17.562500
0
VERTEX
5
192
100
AcDbEntity
8
1
100
AcDbVertex
100
AcDb2dVertex
62
5
10
96.000000
20
-18.187500
0
VERTEX
5
193
100
AcDbEntity
8
1
100
AcDbVertex
100
AcDb2dVertex
62
5
10
96.500000
20
-18.187500
0
VERTEX
5
194
100
AcDbEntity
8
1
100
AcDbVertex
100
AcDb2dVertex
62
5
10
96.500000
20
-17.250000
0
SEQEND
5
195
100
AcDbEntity
8
1
0
POLYLINE
5
196
100
AcDbEntity
8
1
6
CONTINUOUS
62
5
100
AcDb2dPolyline
66
1
10
0.0
20
0.0
30
0.0
70
0
0
VERTEX
5
197
100
AcDbEntity
8
1
100
AcDbVertex
100
AcDb2dVertex
62
5
10
94.500000
20
-11.937500
0
VERTEX
5
198
100
AcDbEntity
8
1
100
AcDbVertex
100
AcDb2dVertex
62
5
10
94.250000
20
-14.750000
0
VERTEX
5
199
100
AcDbEntity
8
1
100
AcDbVertex
100
AcDb2dVertex
62
5
10
93.750000
20
-16.625000
0
VERTEX
5
19a
100
AcDbEntity
8
1
100
AcDbVertex
100
AcDb2dVertex
62
5
10
93.000000
20
-18.187500
0
SEQEND
5
19b
100
AcDbEntity
8
1
0
LINE
5
19c
100
AcDbEntity
8
1
100
AcDbLine
6
CONTINUOUS
62
5
10
93.500000
20
-15.062500
11
94.750000
21
-16.312500
0
LINE
5
19d
100
AcDbEntity
8
1
100
AcDbLine
6
CONTINUOUS
62
5
10
90.500000
20
-18.500000
11
89.750000
21
-20.062500
0
LINE
5
19e
100
AcDbEntity
8
1
100
AcDbLine
6
CONTINUOUS
62
5
10
91.750000
20
-18.500000
11
92.250000
21
-20.062500
0
LINE
5
19f
100
AcDbEntity
8
1
100
AcDbLine
6
CONTINUOUS
62
5
10
93.250000
20
-18.500000
11
94.000000
21
-20.062500
0
LINE
5
1a0
100
AcDbEntity
8
1
100
AcDbLine
6
CONTINUOUS
62
5
10
94.750000
20
-18.500000
11
96.000000
21
-20.062500
0
POLYLINE
5
1a1
100
AcDbEntity
8
1
6
CONTINUOUS
62
5
100
AcDb2dPolyline
66
1
10
0.0
20
0.0
30
0.0
70
0
0
VERTEX
5
1a2
100
AcDbEntity
8
1
100
AcDbVertex
100
AcDb2dVertex
62
5
10
98.000000
20
-15.687500
0
VERTEX
5
1a3
100
AcDbEntity
8
1
100
AcDbVertex
100
AcDb2dVertex
62
5
10
103.250000
20
-15.062500
0
VERTEX
5
1a4
100
AcDbEntity
8
1
100
AcDbVertex
100
AcDb2dVertex
62
5
10
103.250000
20
-15.375000
0
VERTEX
5
1a5
100
AcDbEntity
8
1
100
AcDbVertex
100
AcDb2dVertex
62
5
10
102.000000
20
-16.937500
0
SEQEND
5
1a6
100
AcDbEntity
8
1
0
POLYLINE
5
1a7
100
AcDbEntity
8
1
6
CONTINUOUS
62
5
100
AcDb2dPolyline
66
1
10
0.0
20
0.0
30
0.0
70
0
0
VERTEX
5
1a8
100
AcDbEntity
8
1
100
AcDbVertex
100
AcDb2dVertex
62
5
10
100.000000
20
-12.875000
0
VERTEX
5
1a9
100
AcDbEntity
8
1
100
AcDbVertex
100
AcDb2dVertex
62
5
10
100.000000
20
-18.812500
0
VERTEX
5
1aa
100
AcDbEntity
8
1
100
AcDbVertex
100
AcDb2dVertex
62
5
10
100.500000
20
-19.437500
0
VERTEX
5
1ab
100
AcDbEntity
8
1
100
AcDbVertex
100
AcDb2dVertex
62
5
10
103.250000
20
-19.437500
0
SEQEND
5
1ac
100
AcDbEntity
8
1
0
POLYLINE
5
1ad
100
AcDbEntity
8
1
6
CONTINUOUS
62
5
100
AcDb2dPolyline
66
1
10
0.0
20
0.0
30
0.0
70
0
0
VERTEX
5
1ae
100
AcDbEntity
8
1
100
AcDbVertex
100
AcDb2dVertex
62
5
10
110.750000
20
-22.562500
0
VERTEX
5
1af
100
AcDbEntity
8
1
100
AcDbVertex
100
AcDb2dVertex
62
5
10
108.750000
20
-25.062500
0
VERTEX
5
1b0
100
AcDbEntity
8
1
100
AcDbVertex
100
AcDb2dVertex
62
5
10
106.500000
20
-26.625000
0
SEQEND
5
1b1
100
AcDbEntity
8
1
0
LINE
5
1b2
100
AcDbEntity
8
1
100
AcDbLine
6
CONTINUOUS
62
5
10
109.250000
20
-24.437500
11
109.250000
21
-29.750000
0
POLYLINE
5
1b3
100
AcDbEntity
8
1
6
CONTINUOUS
62
5
100
AcDb2dPolyline
66
1
10
0.0
20
0.0
30
0.0
70
0
0
VERTEX
5
1b4
100
AcDbEntity
8
1
100
AcDbVertex
100
AcDb2dVertex
62
5
10
116.250000
20
-25.062500
0
VERTEX
5
1b5
100
AcDbEntity
8
1
100
AcDbVertex
100
AcDb2dVertex
62
5
10
116.500000
20
-25.062500
0
VERTEX
5
1b6
100
AcDbEntity
8
1
100
AcDbVertex
100
AcDb2dVertex
62
5
10
118.250000
20
-26.312500
0
SEQEND
5
1b7
100
AcDbEntity
8
1
0
LINE
5
1b8
100
AcDbEntity
8
1
100
AcDbLine
6
CONTINUOUS
62
5
10
116.250000
20
-22.250000
11
116.250000
21
-29.750000
0
POLYLINE
5
1b9
100
AcDbEntity
8
1
6
CONTINUOUS
62
5
100
AcDb2dPolyline
66
1
10
0.0
20
0.0
30
0.0
70
0
0
VERTEX
5
1ba
100
AcDbEntity
8
1
100
AcDbVertex
100
AcDb2dVertex
62
5
10
82.000000
20
-23.812500
0
VERTEX
5
1bb
100
AcDbEntity
8
1
100
AcDbVertex
100
AcDb2dVertex
62
5
10
87.250000
20
-23.812500
0
VERTEX
5
1bc
100
AcDbEntity
8
1
100
AcDbVertex
100
AcDb2dVertex
62
5
10
87.250000
20
-24.125000
0
VERTEX
5
1bd
100
AcDbEntity
8
1
100
AcDbVertex
100
AcDb2dVertex
62
5
10
85.500000
20
-26.000000
0
VERTEX
5
1be
100
AcDbEntity
8
1
100
AcDbVertex
100
AcDb2dVertex
62
5
10
84.750000
20
-26.000000
0
SEQEND
5
1bf
100
AcDbEntity
8
1
0
POLYLINE
5
1c0
100
AcDbEntity
8
1
6
CONTINUOUS
62
5
100
AcDb2dPolyline
66
1
10
0.0
20
0.0
30
0.0
70
0
0
VERTEX
5
1c1
100
AcDbEntity
8
1
100
AcDbVertex
100
AcDb2dVertex
62
5
10
84.750000
20
-25.062500
0
VERTEX
5
1c2
100
AcDbEntity
8
1
100
AcDbVertex
100
AcDb2dVertex
62
5
10
84.750000
20
-26.625000
0
VERTEX
5
1c3
100
AcDbEntity
8
1
100
AcDbVertex
100
AcDb2dVertex
62
5
10
84.000000
20
-28.500000
0
VERTEX
5
1c4
100
AcDbEntity
8
1
100
AcDbVertex
100
AcDb2dVertex
62
5
10
83.000000
20
-29.750000
0
SEQEND
5
1c5
100
AcDbEntity
8
1
0
LINE
5
1c6
100
AcDbEntity
8
1
100
AcDbLine
6
CONTINUOUS
62
5
10
90.250000
20
-25.062500
11
95.250000
21
-25.062500
0
POLYLINE
5
1c7
100
AcDbEntity
8
1
6
CONTINUOUS
62
5
100
AcDb2dPolyline
66
1
10
0.0
20
0.0
30
0.0
70
0
0
VERTEX
5
1c8
100
AcDbEntity
8
1
100
AcDbVertex
100
AcDb2dVertex
62
5
10
92.750000
20
-23.187500
0
VERTEX
5
1c9
100
AcDbEntity
8
1
100
AcDbVertex
100
AcDb2dVertex
62
5
10
92.750000
20
-29.437500
0
VERTEX
5
1ca
100
AcDbEntity
8
1
100
AcDbVertex
100
AcDb2dVertex
62
5
10
92.250000
20
-29.437500
0
SEQEND
5
1cb
100
AcDbEntity
8
1
0
LINE
5
1cc
100
AcDbEntity
8
1
100
AcDbLine
6
CONTINUOUS
62
5
10
91.500000
20
-26.625000
11
90.250000
21
-28.500000
0
LINE
5
1cd
100
AcDbEntity
8
1
100
AcDbLine
6
CONTINUOUS
62
5
10
94.250000
20
-26.625000
11
95.500000
21
-28.187500
0
POLYLINE
5
1ce
100
AcDbEntity
8
1
6
CONTINUOUS
62
5
100
AcDb2dPolyline
66
1
10
0.0
20
0.0
30
0.0
70
0
0
VERTEX
5
1cf
100
AcDbEntity
8
1
100
AcDbVertex
100
AcDb2dVertex
62
5
10
98.750000
20
-25.687500
0
VERTEX
5
1d0
100
AcDbEntity
8
1
100
AcDbVertex
100
AcDb2dVertex
62
5
10
98.750000
20
-23.500000
0
VERTEX
5
1d1
100
AcDbEntity
8
1
100
AcDbVertex
100
AcDb2dVertex
62
5
10
102.750000
20
-23.500000
0
VERTEX
5
1d2
100
AcDbEntity
8
1
100
AcDbVertex
100
AcDb2dVertex
62
5
10
102.750000
20
-24.437500
0
VERTEX
5
1d3
100
AcDbEntity
8
1
100
AcDbVertex
100
AcDb2dVertex
62
5
10
102.500000
20
-26.000000
0
VERTEX
5
1d4
100
AcDbEntity
8
1
100
AcDbVertex
100
AcDb2dVertex
62
5
10
102.000000
20
-27.250000
0
VERTEX
5
1d5
100
AcDbEntity
8
1
100
AcDbVertex
100
AcDb2dVertex
62
5
10
101.500000
20
-28.187500
0
VERTEX
5
1d6
100
AcDbEntity
8
1
100
AcDbVertex
100
AcDb2dVertex
62
5
10
100.500000
20
-29.437500
0
SEQEND
5
1d7
100
AcDbEntity
8
1
0
LINE
5
1d8
100
AcDbEntity
8
1
100
AcDbLine
6
CONTINUOUS
62
5
10
115.500000
20
-12.875000
11
115.500000
21
-16.937500
0
LINE
5
1d9
100
AcDbEntity
8
1
100
AcDbLine
6
CONTINUOUS
62
5
10
113.750000
20
-14.750000
11
120.000000
21
-14.750000
0
POLYLINE
5
1da
100
AcDbEntity
8
1
6
CONTINUOUS
62
5
100
AcDb2dPolyline
66
1
10
0.0
20
0.0
30
0.0
70
0
0
VERTEX
5
1db
100
AcDbEntity
8
1
100
AcDbVertex
100
AcDb2dVertex
62
5
10
118.250000
20
-12.562500
0
VERTEX
5
1dc
100
AcDbEntity
8
1
100
AcDbVertex
100
AcDb2dVertex
62
5
10
118.250000
20
-16.312500
0
VERTEX
5
1dd
100
AcDbEntity
8
1
100
AcDbVertex
100
AcDb2dVertex
62
5
10
118.000000
20
-17.562500
0
VERTEX
5
1de
100
AcDbEntity
8
1
100
AcDbVertex
100
AcDb2dVertex
62
5
10
117.250000
20
-18.812500
0
VERTEX
5
1df
100
AcDbEntity
8
1
100
AcDbVertex
100
AcDb2dVertex
62
5
10
116.500000
20
-19.750000
0
SEQEND
5
1e0
100
AcDbEntity
8
1
0
POLYLINE
5
1e1
100
AcDbEntity
8
1
6
CONTINUOUS
62
5
100
AcDb2dPolyline
66
1
10
0.0
20
0.0
30
0.0
70
0
0
VERTEX
5
1e2
100
AcDbEntity
8
1
100
AcDbVertex
100
AcDb2dVertex
62
5
10
102.187500
20
-49.500000
0
VERTEX
5
1e3
100
AcDbEntity
8
1
100
AcDbVertex
100
AcDb2dVertex
62
5
10
103.125000
20
-57.000000
0
VERTEX
5
1e4
100
AcDbEntity
8
1
100
AcDbVertex
100
AcDb2dVertex
62
5
10
104.062500
20
-49.500000
0
VERTEX
5
1e5
100
AcDbEntity
8
1
100
AcDbVertex
100
AcDb2dVertex
62
5
10
105.000000
20
-57.000000
0
VERTEX
5
1e6
100
AcDbEntity
8
1
100
AcDbVertex
100
AcDb2dVertex
62
5
10
105.937500
20
-49.500000
0
SEQEND
5
1e7
100
AcDbEntity
8
1
0
POLYLINE
5
1e8
100
AcDbEntity
8
1
6
CONTINUOUS
62
5
100
AcDb2dPolyline
66
1
10
0.0
20
0.0
30
0.0
70
0
0
VERTEX
5
1e9
100
AcDbEntity
8
1
100
AcDbVertex
100
AcDb2dVertex
62
5
10
82.500000
20
-51.687500
0
VERTEX
5
1ea
100
AcDbEntity
8
1
100
AcDbVertex
100
AcDb2dVertex
62
5
10
82.812500
20
-50.125000
0
VERTEX
5
1eb
100
AcDbEntity
8
1
100
AcDbVertex
100
AcDb2dVertex
62
5
10
83.750000
20
-49.500000
0
VERTEX
5
1ec
100
AcDbEntity
8
1
100
AcDbVertex
100
AcDb2dVertex
62
5
10
84.687500
20
-49.500000
0
VERTEX
5
1ed
100
AcDbEntity
8
1
100
AcDbVertex
100
AcDb2dVertex
62
5
10
85.312500
20
-49.812500
0
VERTEX
5
1ee
100
AcDbEntity
8
1
100
AcDbVertex
100
AcDb2dVertex
62
5
10
85.625000
20
-50.750000
0
VERTEX
5
1ef
100
AcDbEntity
8
1
100
AcDbVertex
100
AcDb2dVertex
62
5
10
85.625000
20
-51.687500
0
VERTEX
5
1f0
100
AcDbEntity
8
1
100
AcDbVertex
100
AcDb2dVertex
62
5
10
85.312500
20
-52.625000
0
VERTEX
5
1f1
100
AcDbEntity
8
1
100
AcDbVertex
100
AcDb2dVertex
62
5
10
82.500000
20
-57.000000
0
VERTEX
5
1f2
100
AcDbEntity
8
1
100
AcDbVertex
100
AcDb2dVertex
62
5
10
85.625000
20
-57.000000
0
VERTEX
5
1f3
100
AcDbEntity
8
1
100
AcDbVertex
100
AcDb2dVertex
62
5
10
85.625000
20
-56.062500
0
SEQEND
5
1f4
100
AcDbEntity
8
1
0
POLYLINE
5
1f5
100
AcDbEntity
8
1
6
CONTINUOUS
62
5
100
AcDb2dPolyline
66
1
10
0.0
20
0.0
30
0.0
70
1
0
VERTEX
5
1f6
100
AcDbEntity
8
1
100
AcDbVertex
100
AcDb2dVertex
62
5
10
88.750000
20
-49.500000
0
VERTEX
5
1f7
100
AcDbEntity
8
1
100
AcDbVertex
100
AcDb2dVertex
62
5
10
89.375000
20
-49.500000
0
VERTEX
5
1f8
100
AcDbEntity
8
1
100
AcDbVertex
100
AcDb2dVertex
62
5
10
89.687500
20
-49.812500
0
VERTEX
5
1f9
100
AcDbEntity
8
1
100
AcDbVertex
100
AcDb2dVertex
62
5
10
90.312500
20
-51.062500
0
VERTEX
5
1fa
100
AcDbEntity
8
1
100
AcDbVertex
100
AcDb2dVertex
62
5
10
90.625000
20
-52.312500
0
VERTEX
5
1fb
100
AcDbEntity
8
1
100
AcDbVertex
100
AcDb2dVertex
62
5
10
90.625000
20
-54.187500
0
VERTEX
5
1fc
100
AcDbEntity
8
1
100
AcDbVertex
100
AcDb2dVertex
62
5
10
90.312500
20
-55.437500
0
VERTEX
5
1fd
100
AcDbEntity
8
1
100
AcDbVertex
100
AcDb2dVertex
62
5
10
89.687500
20
-56.687500
0
VERTEX
5
1fe
100
AcDbEntity
8
1
100
AcDbVertex
100
AcDb2dVertex
62
5
10
89.375000
20
-57.000000
0
VERTEX
5
1ff
100
AcDbEntity
8
1
100
AcDbVertex
100
AcDb2dVertex
62
5
10
88.750000
20
-57.000000
0
VERTEX
5
200
100
AcDbEntity
8
1
100
AcDbVertex
100
AcDb2dVertex
62
5
10
88.437500
20
-56.687500
0
VERTEX
5
201
100
AcDbEntity
8
1
100
AcDbVertex
100
AcDb2dVertex
62
5
10
87.812500
20
-55.437500
0
VERTEX
5
202
100
AcDbEntity
8
1
100
AcDbVertex
100
AcDb2dVertex
62
5
10
87.500000
20
-54.187500
0
VERTEX
5
203
100
AcDbEntity
8
1
100
AcDbVertex
100
AcDb2dVertex
62
5
10
87.500000
20
-52.312500
0
VERTEX
5
204
100
AcDbEntity
8
1
100
AcDbVertex
100
AcDb2dVertex
62
5
10
87.812500
20
-51.062500
0
VERTEX
5
205
100
AcDbEntity
8
1
100
AcDbVertex
100
AcDb2dVertex
62
5
10
88.437500
20
-49.812500
0
VERTEX
5
206
100
AcDbEntity
8
1
100
AcDbVertex
100
AcDb2dVertex
62
5
10
88.750000
20
-49.500000
0
SEQEND
5
207
100
AcDbEntity
8
1
0
LINE
5
208
100
AcDbEntity
8
1
100
AcDbLine
6
CONTINUOUS
62
5
10
97.500000
20
-49.500000
11
97.500000
21
-57.000000
0
POLYLINE
5
209
100
AcDbEntity
8
1
6
CONTINUOUS
62
5
100
AcDb2dPolyline
66
1
10
0.0
20
0.0
30
0.0
70
0
0
VERTEX
5
20a
100
AcDbEntity
8
1
100
AcDbVertex
100
AcDb2dVertex
62
5
10
97.500000
20
-49.500000
0
VERTEX
5
20b
100
AcDbEntity
8
1
100
AcDbVertex
100
AcDb2dVertex
62
5
10
98.750000
20
-49.500000
0
VERTEX
5
20c
100
AcDbEntity
8
1
100
AcDbVertex
100
AcDb2dVertex
62
5
10
99.687500
20
-49.812500
0
VERTEX
5
20d
100
AcDbEntity
8
1
100
AcDbVertex
100
AcDb2dVertex
62
5
10
100.312500
20
-50.437500
0
VERTEX
5
20e
100
AcDbEntity
8
1
100
AcDbVertex
100
AcDb2dVertex
62
5
10
100.625000
20
-51.062500
0
VERTEX
5
20f
100
AcDbEntity
8
1
100
AcDbVertex
100
AcDb2dVertex
62
5
10
100.625000
20
-52.000000
0
VERTEX
5
210
100
AcDbEntity
8
1
100
AcDbVertex
100
AcDb2dVertex
62
5
10
100.312500
20
-52.625000
0
VERTEX
5
211
100
AcDbEntity
8
1
100
AcDbVertex
100
AcDb2dVertex
62
5
10
99.687500
20
-53.250000
0
VERTEX
5
212
100
AcDbEntity
8
1
100
AcDbVertex
100
AcDb2dVertex
62
5
10
98.750000
20
-53.562500
0
VERTEX
5
213
100
AcDbEntity
8
1
100
AcDbVertex
100
AcDb2dVertex
62
5
10
97.500000
20
-53.562500
0
SEQEND
5
214
100
AcDbEntity
8
1
0
LINE
5
215
100
AcDbEntity
8
1
100
AcDbLine
6
CONTINUOUS
62
5
10
65.500000
20
-14.750000
11
67.500000
21
-14.750000
0
LINE
5
216
100
AcDbEntity
8
1
100
AcDbLine
6
CONTINUOUS
62
5
10
65.250000
20
-19.125000
11
67.500000
21
-17.875000
0
LINE
5
217
100
AcDbEntity
8
1
100
AcDbLine
6
CONTINUOUS
62
5
10
66.500000
20
-12.250000
11
66.500000
21
-18.500000
0
POLYLINE
5
218
100
AcDbEntity
8
1
6
CONTINUOUS
62
5
100
AcDb2dPolyline
66
1
10
0.0
20
0.0
30
0.0
70
1
0
VERTEX
5
219
100
AcDbEntity
8
1
100
AcDbVertex
100
AcDb2dVertex
62
5
10
68.500000
20
-12.562500
0
VERTEX
5
21a
100
AcDbEntity
8
1
100
AcDbVertex
100
AcDb2dVertex
62
5
10
68.500000
20
-16.000000
0
VERTEX
5
21b
100
AcDbEntity
8
1
100
AcDbVertex
100
AcDb2dVertex
62
5
10
71.500000
20
-16.000000
0
VERTEX
5
21c
100
AcDbEntity
8
1
100
AcDbVertex
100
AcDb2dVertex
62
5
10
71.500000
20
-12.562500
0
VERTEX
5
21d
100
AcDbEntity
8
1
100
AcDbVertex
100
AcDb2dVertex
62
5
10
68.500000
20
-12.562500
0
SEQEND
5
21e
100
AcDbEntity
8
1
0
LINE
5
21f
100
AcDbEntity
8
1
100
AcDbLine
6
CONTINUOUS
62
5
10
68.500000
20
-14.125000
11
71.500000
21
-14.125000
0
LINE
5
220
100
AcDbEntity
8
1
100
AcDbLine
6
CONTINUOUS
62
5
10
70.000000
20
-12.562500
11
70.000000
21
-19.750000
0
LINE
5
221
100
AcDbEntity
8
1
100
AcDbLine
6
CONTINUOUS
62
5
10
68.000000
20
-17.562500
11
72.000000
21
-17.562500
0
LINE
5
222
100
AcDbEntity
8
1
100
AcDbLine
6
CONTINUOUS
62
5
10
67.250000
20
-19.750000
11
72.500000
21
-19.750000
0
POLYLINE
5
223
100
AcDbEntity
8
1
6
CONTINUOUS
62
5
100
AcDb2dPolyline
66
1
10
0.0
20
0.0
30
0.0
70
0
0
VERTEX
5
224
100
AcDbEntity
8
1
100
AcDbVertex
100
AcDb2dVertex
62
5
10
62.750000
20
-3.000000
0
VERTEX
5
225
100
AcDbEntity
8
1
100
AcDbVertex
100
AcDb2dVertex
62
5
10
63.500000
20
-9.000000
0
VERTEX
5
226
100
AcDbEntity
8
1
100
AcDbVertex
100
AcDb2dVertex
62
5
10
64.250000
20
-3.000000
0
VERTEX
5
227
100
AcDbEntity
8
1
100
AcDbVertex
100
AcDb2dVertex
62
5
10
65.000000
20
-9.000000
0
VERTEX
5
228
100
AcDbEntity
8
1
100
AcDbVertex
100
AcDb2dVertex
62
5
10
65.750000
20
-3.000000
0
SEQEND
5
229
100
AcDbEntity
8
1
0
LINE
5
22a
100
AcDbEntity
8
1
100
AcDbLine
6
CONTINUOUS
62
5
10
67.500000
20
-3.000000
11
69.000000
21
-3.000000
0
LINE
5
22b
100
AcDbEntity
8
1
100
AcDbLine
6
CONTINUOUS
62
5
10
68.250000
20
-3.000000
11
68.250000
21
-9.000000
0
LINE
5
22c
100
AcDbEntity
8
1
100
AcDbLine
6
CONTINUOUS
62
5
10
67.500000
20
-9.000000
11
69.000000
21
-9.000000
0
LINE
5
22d
100
AcDbEntity
8
1
100
AcDbLine
6
CONTINUOUS
62
5
10
71.000000
20
-3.000000
11
71.000000
21
-9.000000
0
POLYLINE
5
22e
100
AcDbEntity
8
1
6
CONTINUOUS
62
5
100
AcDb2dPolyline
66
1
10
0.0
20
0.0
30
0.0
70
0
0
VERTEX
5
22f
100
AcDbEntity
8
1
100
AcDbVertex
100
AcDb2dVertex
62
5
10
71.000000
20
-3.000000
0
VERTEX
5
230
100
AcDbEntity
8
1
100
AcDbVertex
100
AcDb2dVertex
62
5
10
72.250000
20
-3.000000
0
VERTEX
5
231
100
AcDbEntity
8
1
100
AcDbVertex
100
AcDb2dVertex
62
5
10
72.750000
20
-3.250000
0
VERTEX
5
232
100
AcDbEntity
8
1
100
AcDbVertex
100
AcDb2dVertex
62
5
10
73.250000
20
-3.750000
0
VERTEX
5
233
100
AcDbEntity
8
1
100
AcDbVertex
100
AcDb2dVertex
62
5
10
73.500000
20
-4.750000
0
VERTEX
5
234
100
AcDbEntity
8
1
100
AcDbVertex
100
AcDb2dVertex
62
5
10
73.500000
20
-7.250000
0
VERTEX
5
235
100
AcDbEntity
8
1
100
AcDbVertex
100
AcDb2dVertex
62
5
10
73.250000
20
-8.250000
0
VERTEX
5
236
100
AcDbEntity
8
1
100
AcDbVertex
100
AcDb2dVertex
62
5
10
72.750000
20
-8.750000
0
VERTEX
5
237
100
AcDbEntity
8
1
100
AcDbVertex
100
AcDb2dVertex
62
5
10
72.250000
20
-9.000000
0
VERTEX
5
238
100
AcDbEntity
8
1
100
AcDbVertex
100
AcDb2dVertex
62
5
10
71.000000
20
-9.000000
0
SEQEND
5
239
100
AcDbEntity
8
1
0
POLYLINE
5
23a
100
AcDbEntity
8
1
6
CONTINUOUS
62
5
100
AcDb2dPolyline
66
1
10
0.0
20
0.0
30
0.0
70
0
0
VERTEX
5
23b
100
AcDbEntity
8
1
100
AcDbVertex
100
AcDb2dVertex
62
5
10
77.500000
20
-3.000000
0
VERTEX
5
23c
100
AcDbEntity
8
1
100
AcDbVertex
100
AcDb2dVertex
62
5
10
75.000000
20
-3.000000
0
VERTEX
5
23d
100
AcDbEntity
8
1
100
AcDbVertex
100
AcDb2dVertex
62
5
10
75.000000
20
-9.000000
0
VERTEX
5
23e
100
AcDbEntity
8
1
100
AcDbVertex
100
AcDb2dVertex
62
5
10
77.750000
20
-9.000000
0
SEQEND
5
23f
100
AcDbEntity
8
1
0
LINE
5
240
100
AcDbEntity
8
1
100
AcDbLine
6
CONTINUOUS
62
5
10
75.000000
20
-6.000000
11
77.250000
21
-6.000000
0
POLYLINE
5
241
100
AcDbEntity
8
1
6
CONTINUOUS
62
5
100
AcDb2dPolyline
66
1
10
0.0
20
0.0
30
0.0
70
0
0
VERTEX
5
242
100
AcDbEntity
8
1
100
AcDbVertex
100
AcDb2dVertex
62
5
10
53.250000
20
-3.000000
0
VERTEX
5
243
100
AcDbEntity
8
1
100
AcDbVertex
100
AcDb2dVertex
62
5
10
53.250000
20
-7.500000
0
VERTEX
5
244
100
AcDbEntity
8
1
100
AcDbVertex
100
AcDb2dVertex
62
5
10
53.000000
20
-8.500000
0
VERTEX
5
245
100
AcDbEntity
8
1
100
AcDbVertex
100
AcDb2dVertex
62
5
10
52.500000
20
-9.000000
0
VERTEX
5
246
100
AcDbEntity
8
1
100
AcDbVertex
100
AcDb2dVertex
62
5
10
51.750000
20
-9.000000
0
VERTEX
5
247
100
AcDbEntity
8
1
100
AcDbVertex
100
AcDb2dVertex
62
5
10
51.250000
20
-8.500000
0
VERTEX
5
248
100
AcDbEntity
8
1
100
AcDbVertex
100
AcDb2dVertex
62
5
10
51.000000
20
-7.500000
0
SEQEND
5
249
100
AcDbEntity
8
1
0
POLYLINE
5
24a
100
AcDbEntity
8
1
6
CONTINUOUS
62
5
100
AcDb2dPolyline
66
1
10
0.0
20
0.0
30
0.0
70
0
0
VERTEX
5
24b
100
AcDbEntity
8
1
100
AcDbVertex
100
AcDb2dVertex
62
5
10
57.250000
20
-6.000000
0
VERTEX
5
24c
100
AcDbEntity
8
1
100
AcDbVertex
100
AcDb2dVertex
62
5
10
57.750000
20
-5.500000
0
VERTEX
5
24d
100
AcDbEntity
8
1
100
AcDbVertex
100
AcDb2dVertex
62
5
10
58.000000
20
-5.500000
0
VERTEX
5
24e
100
AcDbEntity
8
1
100
AcDbVertex
100
AcDb2dVertex
62
5
10
58.500000
20
-6.000000
0
VERTEX
5
24f
100
AcDbEntity
8
1
100
AcDbVertex
100
AcDb2dVertex
62
5
10
58.500000
20
-6.250000
0
VERTEX
5
250
100
AcDbEntity
8
1
100
AcDbVertex
100
AcDb2dVertex
62
5
10
58.000000
20
-6.750000
0
VERTEX
5
251
100
AcDbEntity
8
1
100
AcDbVertex
100
AcDb2dVertex
62
5
10
57.750000
20
-6.750000
0
VERTEX
5
252
100
AcDbEntity
8
1
100
AcDbVertex
100
AcDb2dVertex
62
5
10
57.250000
20
-6.250000
0
VERTEX
5
253
100
AcDbEntity
8
1
100
AcDbVertex
100
AcDb2dVertex
62
5
10
57.250000
20
-6.000000
0
VERTEX
5
254
100
AcDbEntity
8
1
100
AcDbVertex
100
AcDb2dVertex
62
5
10
58.500000
20
-6.000000
0
SEQEND
5
255
100
AcDbEntity
8
1
0
LINE
5
256
100
AcDbEntity
8
1
100
AcDbLine
6
CONTINUOUS
62
5
10
58.500000
20
-6.250000
11
57.250000
21
-6.250000
0
LINE
5
257
100
AcDbEntity
8
1
100
AcDbLine
6
CONTINUOUS
62
5
10
57.500000
20
-6.500000
11
58.250000
21
-6.500000
0
LINE
5
258
100
AcDbEntity
8
1
100
AcDbLine
6
CONTINUOUS
62
5
10
58.250000
20
-5.750000
11
57.500000
21
-5.750000
0
POLYLINE
5
259
100
AcDbEntity
8
1
6
CONTINUOUS
62
5
100
AcDb2dPolyline
66
1
10
0.0
20
0.0
30
0.0
70
0
0
VERTEX
5
25a
100
AcDbEntity
8
1
100
AcDbVertex
100
AcDb2dVertex
62
5
10
66.750000
20
-23.500000
0
VERTEX
5
25b
100
AcDbEntity
8
1
100
AcDbVertex
100
AcDb2dVertex
62
5
10
66.750000
20
-28.812500
0
VERTEX
5
25c
100
AcDbEntity
8
1
100
AcDbVertex
100
AcDb2dVertex
62
5
10
67.250000
20
-29.437500
0
VERTEX
5
25d
100
AcDbEntity
8
1
100
AcDbVertex
100
AcDb2dVertex
62
5
10
70.750000
20
-29.437500
0
SEQEND
5
25e
100
AcDbEntity
8
1
0
LINE
5
25f
100
AcDbEntity
8
1
100
AcDbLine
6
CONTINUOUS
62
5
10
70.250000
20
-25.375000
11
66.750000
21
-26.312500
0
POLYLINE
5
260
100
AcDbEntity
8
1
6
CONTINUOUS
62
5
100
AcDb2dPolyline
66
1
10
0.0
20
0.0
30
0.0
70
1
0
VERTEX
5
261
100
AcDbEntity
8
1
100
AcDbVertex
100
AcDb2dVertex
62
5
10
70.250000
20
-23.500000
0
VERTEX
5
262
100
AcDbEntity
8
1
100
AcDbVertex
100
AcDb2dVertex
62
5
10
70.750000
20
-22.875000
0
VERTEX
5
263
100
AcDbEntity
8
1
100
AcDbVertex
100
AcDb2dVertex
62
5
10
71.000000
20
-22.875000
0
VERTEX
5
264
100
AcDbEntity
8
1
100
AcDbVertex
100
AcDb2dVertex
62
5
10
71.500000
20
-23.500000
0
VERTEX
5
265
100
AcDbEntity
8
1
100
AcDbVertex
100
AcDb2dVertex
62
5
10
71.500000
20
-23.812500
0
VERTEX
5
266
100
AcDbEntity
8
1
100
AcDbVertex
100
AcDb2dVertex
62
5
10
71.000000
20
-24.437500
0
VERTEX
5
267
100
AcDbEntity
8
1
100
AcDbVertex
100
AcDb2dVertex
62
5
10
70.750000
20
-24.437500
0
VERTEX
5
268
100
AcDbEntity
8
1
100
AcDbVertex
100
AcDb2dVertex
62
5
10
70.250000
20
-23.812500
0
VERTEX
5
269
100
AcDbEntity
8
1
100
AcDbVertex
100
AcDb2dVertex
62
5
10
70.250000
20
-23.500000
0
SEQEND
5
26a
100
AcDbEntity
8
1
0
POLYLINE
5
26b
100
AcDbEntity
8
1
6
CONTINUOUS
62
5
100
AcDb2dPolyline
66
1
10
0.0
20
0.0
30
0.0
70
0
0
VERTEX
5
26c
100
AcDbEntity
8
1
100
AcDbVertex
100
AcDb2dVertex
62
5
10
75.500000
20
-25.687500
0
VERTEX
5
26d
100
AcDbEntity
8
1
100
AcDbVertex
100
AcDb2dVertex
62
5
10
77.500000
20
-25.687500
0
VERTEX
5
26e
100
AcDbEntity
8
1
100
AcDbVertex
100
AcDb2dVertex
62
5
10
77.250000
20
-28.812500
0
SEQEND
5
26f
100
AcDbEntity
8
1
0
LINE
5
270
100
AcDbEntity
8
1
100
AcDbLine
6
CONTINUOUS
62
5
10
74.750000
20
-28.812500
11
79.000000
21
-28.812500
0
LINE
5
271
100
AcDbEntity
8
1
100
AcDbLine
6
CONTINUOUS
62
5
10
40.000000
20
-0.000000
11
40.000000
21
-32.000000
0
LINE
5
272
100
AcDbEntity
8
1
100
AcDbLine
6
CONTINUOUS
62
5
10
62.500000
20
-49.500000
11
62.500000
21
-57.000000
0
LINE
5
273
100
AcDbEntity
8
1
100
AcDbLine
6
CONTINUOUS
62
5
10
62.500000
20
-53.250000
11
65.312500
21
-53.250000
0
LINE
5
274
100
AcDbEntity
8
1
100
AcDbLine
6
CONTINUOUS
62
5
10
65.312500
20
-49.500000
11
65.312500
21
-57.000000
0
POLYLINE
5
275
100
AcDbEntity
8
1
6
CONTINUOUS
62
5
100
AcDb2dPolyline
66
1
10
0.0
20
0.0
30
0.0
70
1
0
VERTEX
5
276
100
AcDbEntity
8
1
100
AcDbVertex
100
AcDb2dVertex
62
5
10
68.750000
20
-49.500000
0
VERTEX
5
277
100
AcDbEntity
8
1
100
AcDbVertex
100
AcDb2dVertex
62
5
10
69.375000
20
-49.500000
0
VERTEX
5
278
100
AcDbEntity
8
1
100
AcDbVertex
100
AcDb2dVertex
62
5
10
69.687500
20
-49.812500
0
VERTEX
5
279
100
AcDbEntity
8
1
100
AcDbVertex
100
AcDb2dVertex
62
5
10
70.312500
20
-51.062500
0
VERTEX
5
27a
100
AcDbEntity
8
1
100
AcDbVertex
100
AcDb2dVertex
62
5
10
70.625000
20
-52.312500
0
VERTEX
5
27b
100
AcDbEntity
8
1
100
AcDbVertex
100
AcDb2dVertex
62
5
10
70.625000
20
-54.187500
0
VERTEX
5
27c
100
AcDbEntity
8
1
100
AcDbVertex
100
AcDb2dVertex
62
5
10
70.312500
20
-55.437500
0
VERTEX
5
27d
100
AcDbEntity
8
1
100
AcDbVertex
100
AcDb2dVertex
62
5
10
69.687500
20
-56.687500
0
VERTEX
5
27e
100
AcDbEntity
8
1
100
AcDbVertex
100
AcDb2dVertex
62
5
10
69.375000
20
-57.000000
0
VERTEX
5
27f
100
AcDbEntity
8
1
100
AcDbVertex
100
AcDb2dVertex
62
5
10
68.750000
20
-57.000000
0
VERTEX
5
280
100
AcDbEntity
8
1
100
AcDbVertex
100
AcDb2dVertex
62
5
10
68.437500
20
-56.687500
0
VERTEX
5
281
100
AcDbEntity
8
1
100
AcDbVertex
100
AcDb2dVertex
62
5
10
67.812500
20
-55.437500
0
VERTEX
5
282
100
AcDbEntity
8
1
100
AcDbVertex
100
AcDb2dVertex
62
5
10
67.500000
20
-54.187500
0
VERTEX
5
283
100
AcDbEntity
8
1
100
AcDbVertex
100
AcDb2dVertex
62
5
10
67.500000
20
-52.312500
0
VERTEX
5
284
100
AcDbEntity
8
1
100
AcDbVertex
100
AcDb2dVertex
62
5
10
67.812500
20
-51.062500
0
VERTEX
5
285
100
AcDbEntity
8
1
100
AcDbVertex
100
AcDb2dVertex
62
5
10
68.437500
20
-49.812500
0
VERTEX
5
286
100
AcDbEntity
8
1
100
AcDbVertex
100
AcDb2dVertex
62
5
10
68.750000
20
-49.500000
0
SEQEND
5
287
100
AcDbEntity
8
1
0
POLYLINE
5
288
100
AcDbEntity
8
1
6
CONTINUOUS
62
5
100
AcDb2dPolyline
66
1
10
0.0
20
0.0
30
0.0
70
0
0
VERTEX
5
289
100
AcDbEntity
8
1
100
AcDbVertex
100
AcDb2dVertex
62
5
10
73.125000
20
-50.125000
0
VERTEX
5
28a
100
AcDbEntity
8
1
100
AcDbVertex
100
AcDb2dVertex
62
5
10
74.062500
20
-49.500000
0
VERTEX
5
28b
100
AcDbEntity
8
1
100
AcDbVertex
100
AcDb2dVertex
62
5
10
74.062500
20
-57.000000
0
SEQEND
5
28c
100
AcDbEntity
8
1
0
LINE
5
28d
100
AcDbEntity
8
1
100
AcDbLine
6
CONTINUOUS
62
5
10
73.437500
20
-57.000000
11
74.687500
21
-57.000000
0
POLYLINE
5
28e
100
AcDbEntity
8
1
6
CONTINUOUS
62
5
100
AcDb2dPolyline
66
1
10
0.0
20
0.0
30
0.0
70
0
0
VERTEX
5
28f
100
AcDbEntity
8
1
100
AcDbVertex
100
AcDb2dVertex
62
5
10
52.187500
20
-49.500000
0
VERTEX
5
290
100
AcDbEntity
8
1
100
AcDbVertex
100
AcDb2dVertex
62
5
10
53.125000
20
-57.000000
0
VERTEX
5
291
100
AcDbEntity
8
1
100
AcDbVertex
100
AcDb2dVertex
62
5
10
54.062500
20
-49.500000
0
VERTEX
5
292
100
AcDbEntity
8
1
100
AcDbVertex
100
AcDb2dVertex
62
5
10
55.000000
20
-57.000000
0
VERTEX
5
293
100
AcDbEntity
8
1
100
AcDbVertex
100
AcDb2dVertex
62
5
10
55.937500
20
-49.500000
0
SEQEND
5
294
100
AcDbEntity
8
1
0
POLYLINE
5
295
100
AcDbEntity
8
1
6
CONTINUOUS
62
5
100
AcDb2dPolyline
66
1
10
0.0
20
0.0
30
0.0
70
0
0
VERTEX
5
296
100
AcDbEntity
8
1
100
AcDbVertex
100
AcDb2dVertex
62
5
10
60.312500
20
-49.500000
0
VERTEX
5
297
100
AcDbEntity
8
1
100
AcDbVertex
100
AcDb2dVertex
62
5
10
60.312500
20
-55.125000
0
VERTEX
5
298
100
AcDbEntity
8
1
100
AcDbVertex
100
AcDb2dVertex
62
5
10
60.000000
20
-56.375000
0
VERTEX
5
299
100
AcDbEntity
8
1
100
AcDbVertex
100
AcDb2dVertex
62
5
10
59.375000
20
-57.000000
0
VERTEX
5
29a
100
AcDbEntity
8
1
100
AcDbVertex
100
AcDb2dVertex
62
5
10
58.437500
20
-57.000000
0
VERTEX
5
29b
100
AcDbEntity
8
1
100
AcDbVertex
100
AcDb2dVertex
62
5
10
57.812500
20
-56.375000
0
VERTEX
5
29c
100
AcDbEntity
8
1
100
AcDbVertex
100
AcDb2dVertex
62
5
10
57.500000
20
-55.125000
0
SEQEND
5
29d
100
AcDbEntity
8
1
0
LINE
5
29e
100
AcDbEntity
8
1
100
AcDbLine
6
CONTINUOUS
62
5
10
74.000000
20
-12.250000
11
75.000000
21
-13.187500
0
POLYLINE
5
29f
100
AcDbEntity
8
1
6
CONTINUOUS
62
5
100
AcDb2dPolyline
66
1
10
0.0
20
0.0
30
0.0
70
0
0
VERTEX
5
2a0
100
AcDbEntity
8
1
100
AcDbVertex
100
AcDb2dVertex
62
5
10
73.750000
20
-15.375000
0
VERTEX
5
2a1
100
AcDbEntity
8
1
100
AcDbVertex
100
AcDb2dVertex
62
5
10
75.000000
20
-15.375000
0
VERTEX
5
2a2
100
AcDbEntity
8
1
100
AcDbVertex
100
AcDb2dVertex
62
5
10
75.000000
20
-18.500000
0
VERTEX
5
2a3
100
AcDbEntity
8
1
100
AcDbVertex
100
AcDb2dVertex
62
5
10
73.750000
20
-20.062500
0
SEQEND
5
2a4
100
AcDbEntity
8
1
0
POLYLINE
5
2a5
100
AcDbEntity
8
1
6
CONTINUOUS
62
5
100
AcDb2dPolyline
66
1
10
0.0
20
0.0
30
0.0
70
0
0
VERTEX
5
2a6
100
AcDbEntity
8
1
100
AcDbVertex
100
AcDb2dVertex
62
5
10
75.000000
20
-18.500000
0
VERTEX
5
2a7
100
AcDbEntity
8
1
100
AcDbVertex
100
AcDb2dVertex
62
5
10
75.750000
20
-19.750000
0
VERTEX
5
2a8
100
AcDbEntity
8
1
100
AcDbVertex
100
AcDb2dVertex
62
5
10
76.750000
20
-20.062500
0
VERTEX
5
2a9
100
AcDbEntity
8
1
100
AcDbVertex
100
AcDb2dVertex
62
5
10
80.500000
20
-20.062500
0
SEQEND
5
2aa
100
AcDbEntity
8
1
0
POLYLINE
5
2ab
100
AcDbEntity
8
1
6
CONTINUOUS
62
5
100
AcDb2dPolyline
66
1
10
0.0
20
0.0
30
0.0
70
0
0
VERTEX
5
2ac
100
AcDbEntity
8
1
100
AcDbVertex
100
AcDb2dVertex
62
5
10
77.750000
20
-14.750000
0
VERTEX
5
2ad
100
AcDbEntity
8
1
100
AcDbVertex
100
AcDb2dVertex
62
5
10
77.000000
20
-16.625000
0
VERTEX
5
2ae
100
AcDbEntity
8
1
100
AcDbVertex
100
AcDb2dVertex
62
5
10
76.250000
20
-17.875000
0
VERTEX
5
2af
100
AcDbEntity
8
1
100
AcDbVertex
100
AcDb2dVertex
62
5
10
75.750000
20
-18.500000
0
SEQEND
5
2b0
100
AcDbEntity
8
1
0
POLYLINE
5
2b1
100
AcDbEntity
8
1
6
CONTINUOUS
62
5
100
AcDb2dPolyline
66
1
10
0.0
20
0.0
30
0.0
70
0
0
VERTEX
5
2b2
100
AcDbEntity
8
1
100
AcDbVertex
100
AcDb2dVertex
62
5
10
76.500000
20
-11.937500
0
VERTEX
5
2b3
100
AcDbEntity
8
1
100
AcDbVertex
100
AcDb2dVertex
62
5
10
77.750000
20
-11.937500
0
VERTEX
5
2b4
100
AcDbEntity
8
1
100
AcDbVertex
100
AcDb2dVertex
62
5
10
77.750000
20
-14.750000
0
VERTEX
5
2b5
100
AcDbEntity
8
1
100
AcDbVertex
100
AcDb2dVertex
62
5
10
78.500000
20
-16.625000
0
VERTEX
5
2b6
100
AcDbEntity
8
1
100
AcDbVertex
100
AcDb2dVertex
62
5
10
79.500000
20
-17.875000
0
VERTEX
5
2b7
100
AcDbEntity
8
1
100
AcDbVertex
100
AcDb2dVertex
62
5
10
80.250000
20
-18.500000
0
SEQEND
5
2b8
100
AcDbEntity
8
1
0
POLYLINE
5
2b9
100
AcDbEntity
8
1
6
CONTINUOUS
62
5
100
AcDb2dPolyline
66
1
10
0.0
20
0.0
30
0.0
70
0
0
VERTEX
5
2ba
100
AcDbEntity
8
1
100
AcDbVertex
100
AcDb2dVertex
62
5
10
80.000000
20
-49.500000
0
VERTEX
5
2bb
100
AcDbEntity
8
1
100
AcDbVertex
100
AcDb2dVertex
62
5
10
79.062500
20
-49.500000
0
VERTEX
5
2bc
100
AcDbEntity
8
1
100
AcDbVertex
100
AcDb2dVertex
62
5
10
78.125000
20
-49.812500
0
VERTEX
5
2bd
100
AcDbEntity
8
1
100
AcDbVertex
100
AcDb2dVertex
62
5
10
77.500000
20
-51.062500
0
VERTEX
5
2be
100
AcDbEntity
8
1
100
AcDbVertex
100
AcDb2dVertex
62
5
10
77.500000
20
-55.437500
0
VERTEX
5
2bf
100
AcDbEntity
8
1
100
AcDbVertex
100
AcDb2dVertex
62
5
10
77.812500
20
-56.375000
0
VERTEX
5
2c0
100
AcDbEntity
8
1
100
AcDbVertex
100
AcDb2dVertex
62
5
10
78.125000
20
-56.687500
0
VERTEX
5
2c1
100
AcDbEntity
8
1
100
AcDbVertex
100
AcDb2dVertex
62
5
10
78.750000
20
-57.000000
0
VERTEX
5
2c2
100
AcDbEntity
8
1
100
AcDbVertex
100
AcDb2dVertex
62
5
10
79.375000
20
-57.000000
0
VERTEX
5
2c3
100
AcDbEntity
8
1
100
AcDbVertex
100
AcDb2dVertex
62
5
10
80.000000
20
-56.687500
0
VERTEX
5
2c4
100
AcDbEntity
8
1
100
AcDbVertex
100
AcDb2dVertex
62
5
10
80.312500
20
-56.375000
0
VERTEX
5
2c5
100
AcDbEntity
8
1
100
AcDbVertex
100
AcDb2dVertex
62
5
10
80.625000
20
-55.437500
0
VERTEX
5
2c6
100
AcDbEntity
8
1
100
AcDbVertex
100
AcDb2dVertex
62
5
10
80.625000
20
-53.562500
0
VERTEX
5
2c7
100
AcDbEntity
8
1
100
AcDbVertex
100
AcDb2dVertex
62
5
10
80.312500
20
-52.937500
0
VERTEX
5
2c8
100
AcDbEntity
8
1
100
AcDbVertex
100
AcDb2dVertex
62
5
10
79.687500
20
-52.625000
0
VERTEX
5
2c9
100
AcDbEntity
8
1
100
AcDbVertex
100
AcDb2dVertex
62
5
10
78.437500
20
-52.625000
0
VERTEX
5
2ca
100
AcDbEntity
8
1
100
AcDbVertex
100
AcDb2dVertex
62
5
10
77.500000
20
-52.937500
0
SEQEND
5
2cb
100
AcDbEntity
8
1
0
POLYLINE
5
2cc
100
AcDbEntity
8
1
6
DOT2
62
5
100
AcDb2dPolyline
66
1
10
0.0
20
0.0
30
0.0
70
0
0
VERTEX
5
2cd
100
AcDbEntity
8
1
100
AcDbVertex
100
AcDb2dVertex
62
5
10
112.850000
20
-97.187500
0
VERTEX
5
2ce
100
AcDbEntity
8
1
100
AcDbVertex
100
AcDb2dVertex
62
5
10
112.850000
20
-96.250000
0
VERTEX
5
2cf
100
AcDbEntity
8
1
100
AcDbVertex
100
AcDb2dVertex
62
5
10
115.975000
20
-96.250000
0
VERTEX
5
2d0
100
AcDbEntity
8
1
100
AcDbVertex
100
AcDb2dVertex
62
5
10
115.975000
20
-96.875000
0
VERTEX
5
2d1
100
AcDbEntity
8
1
100
AcDbVertex
100
AcDb2dVertex
62
5
10
115.350000
20
-98.437500
0
VERTEX
5
2d2
100
AcDbEntity
8
1
100
AcDbVertex
100
AcDb2dVertex
62
5
10
114.725000
20
-100.625000
0
VERTEX
5
2d3
100
AcDbEntity
8
1
100
AcDbVertex
100
AcDb2dVertex
62
5
10
114.100000
20
-103.750000
0
SEQEND
5
2d4
100
AcDbEntity
8
1
0
POLYLINE
5
2d5
100
AcDbEntity
8
1
6
DOT2
62
5
100
AcDb2dPolyline
66
1
10
0.0
20
0.0
30
0.0
70
1
0
VERTEX
5
2d6
100
AcDbEntity
8
1
100
AcDbVertex
100
AcDb2dVertex
62
5
10
119.100000
20
-96.250000
0
VERTEX
5
2d7
100
AcDbEntity
8
1
100
AcDbVertex
100
AcDb2dVertex
62
5
10
119.725000
20
-96.250000
0
VERTEX
5
2d8
100
AcDbEntity
8
1
100
AcDbVertex
100
AcDb2dVertex
62
5
10
120.037500
20
-96.562500
0
VERTEX
5
2d9
100
AcDbEntity
8
1
100
AcDbVertex
100
AcDb2dVertex
62
5
10
120.662500
20
-97.812500
0
VERTEX
5
2da
100
AcDbEntity
8
1
100
AcDbVertex
100
AcDb2dVertex
62
5
10
120.975000
20
-99.062500
0
VERTEX
5
2db
100
AcDbEntity
8
1
100
AcDbVertex
100
AcDb2dVertex
62
5
10
120.975000
20
-100.937500
0
VERTEX
5
2dc
100
AcDbEntity
8
1
100
AcDbVertex
100
AcDb2dVertex
62
5
10
120.662500
20
-102.187500
0
VERTEX
5
2dd
100
AcDbEntity
8
1
100
AcDbVertex
100
AcDb2dVertex
62
5
10
120.037500
20
-103.437500
0
VERTEX
5
2de
100
AcDbEntity
8
1
100
AcDbVertex
100
AcDb2dVertex
62
5
10
119.725000
20
-103.750000
0
VERTEX
5
2df
100
AcDbEntity
8
1
100
AcDbVertex
100
AcDb2dVertex
62
5
10
119.100000
20
-103.750000
0
VERTEX
5
2e0
100
AcDbEntity
8
1
100
AcDbVertex
100
AcDb2dVertex
62
5
10
118.787500
20
-103.437500
0
VERTEX
5
2e1
100
AcDbEntity
8
1
100
AcDbVertex
100
AcDb2dVertex
62
5
10
118.162500
20
-102.187500
0
VERTEX
5
2e2
100
AcDbEntity
8
1
100
AcDbVertex
100
AcDb2dVertex
62
5
10
117.850000
20
-100.937500
0
VERTEX
5
2e3
100
AcDbEntity
8
1
100
AcDbVertex
100
AcDb2dVertex
62
5
10
117.850000
20
-99.062500
0
VERTEX
5
2e4
100
AcDbEntity
8
1
100
AcDbVertex
100
AcDb2dVertex
62
5
10
118.162500
20
-97.812500
0
VERTEX
5
2e5
100
AcDbEntity
8
1
100
AcDbVertex
100
AcDb2dVertex
62
5
10
118.787500
20
-96.562500
0
VERTEX
5
2e6
100
AcDbEntity
8
1
100
AcDbVertex
100
AcDb2dVertex
62
5
10
119.100000
20
-96.250000
0
SEQEND
5
2e7
100
AcDbEntity
8
1
0
POLYLINE
5
2e8
100
AcDbEntity
8
1
6
CONTINUOUS
62
5
100
AcDb2dPolyline
66
1
10
0.0
20
0.0
30
0.0
70
1
0
VERTEX
5
2e9
100
AcDbEntity
8
1
100
AcDbVertex
100
AcDb2dVertex
62
5
10
113.244246
20
-168.652596
0
VERTEX
5
2ea
100
AcDbEntity
8
1
100
AcDbVertex
100
AcDb2dVertex
62
5
10
113.244246
20
-167.835201
0
VERTEX
5
2eb
100
AcDbEntity
8
1
100
AcDbVertex
100
AcDb2dVertex
62
5
10
115.455754
20
-167.835201
0
VERTEX
5
2ec
100
AcDbEntity
8
1
100
AcDbVertex
100
AcDb2dVertex
62
5
10
115.455754
20
-168.652596
0
SEQEND
5
2ed
100
AcDbEntity
8
1
0
POLYLINE
5
2ee
100
AcDbEntity
8
1
6
CONTINUOUS
62
5
100
AcDb2dPolyline
66
1
10
0.0
20
0.0
30
0.0
70
1
0
VERTEX
5
2ef
100
AcDbEntity
8
1
100
AcDbVertex
100
AcDb2dVertex
62
5
10
115.455754
20
-169.614238
0
VERTEX
5
2f0
100
AcDbEntity
8
1
100
AcDbVertex
100
AcDb2dVertex
62
5
10
113.244246
20
-169.614238
0
VERTEX
5
2f1
100
AcDbEntity
8
1
100
AcDbVertex
100
AcDb2dVertex
62
5
10
113.244246
20
-168.796842
0
VERTEX
5
2f2
100
AcDbEntity
8
1
100
AcDbVertex
100
AcDb2dVertex
62
5
10
115.455754
20
-168.796842
0
SEQEND
5
2f3
100
AcDbEntity
8
1
0
POLYLINE
5
2f4
100
AcDbEntity
8
1
6
CONTINUOUS
62
5
100
AcDb2dPolyline
66
1
10
0.0
20
0.0
30
0.0
70
1
0
VERTEX
5
2f5
100
AcDbEntity
8
1
100
AcDbVertex
100
AcDb2dVertex
62
5
10
118.272881
20
-168.893007
0
VERTEX
5
2f6
100
AcDbEntity
8
1
100
AcDbVertex
100
AcDb2dVertex
62
5
10
117.695896
20
-168.893007
0
VERTEX
5
2f7
100
AcDbEntity
8
1
100
AcDbVertex
100
AcDb2dVertex
62
5
10
117.695896
20
-168.556432
0
VERTEX
5
2f8
100
AcDbEntity
8
1
100
AcDbVertex
100
AcDb2dVertex
62
5
10
118.272881
20
-168.556432
0
SEQEND
5
2f9
100
AcDbEntity
8
1
0
POLYLINE
5
2fa
100
AcDbEntity
8
1
6
CONTINUOUS
62
5
100
AcDb2dPolyline
66
1
10
0.0
20
0.0
30
0.0
70
1
0
VERTEX
5
2fb
100
AcDbEntity
8
1
100
AcDbVertex
100
AcDb2dVertex
62
5
10
118.272881
20
-169.373827
0
VERTEX
5
2fc
100
AcDbEntity
8
1
100
AcDbVertex
100
AcDb2dVertex
62
5
10
117.695896
20
-169.373827
0
VERTEX
5
2fd
100
AcDbEntity
8
1
100
AcDbVertex
100
AcDb2dVertex
62
5
10
117.695896
20
-169.037253
0
VERTEX
5
2fe
100
AcDbEntity
8
1
100
AcDbVertex
100
AcDb2dVertex
62
5
10
118.272881
20
-169.037253
0
SEQEND
5
2ff
100
AcDbEntity
8
1
0
POLYLINE
5
300
100
AcDbEntity
8
1
6
CONTINUOUS
62
5
100
AcDb2dPolyline
66
1
10
0.0
20
0.0
30
0.0
70
1
0
VERTEX
5
301
100
AcDbEntity
8
1
100
AcDbVertex
100
AcDb2dVertex
62
5
10
117.551650
20
-168.893007
0
VERTEX
5
302
100
AcDbEntity
8
1
100
AcDbVertex
100
AcDb2dVertex
62
5
10
116.854460
20
-168.893007
0
VERTEX
5
303
100
AcDbEntity
8
1
100
AcDbVertex
100
AcDb2dVertex
62
5
10
116.854460
20
-168.556432
0
VERTEX
5
304
100
AcDbEntity
8
1
100
AcDbVertex
100
AcDb2dVertex
62
5
10
117.551650
20
-168.556432
0
SEQEND
5
305
100
AcDbEntity
8
1
0
POLYLINE
5
306
100
AcDbEntity
8
1
6
CONTINUOUS
62
5
100
AcDb2dPolyline
66
1
10
0.0
20
0.0
30
0.0
70
1
0
VERTEX
5
307
100
AcDbEntity
8
1
100
AcDbVertex
100
AcDb2dVertex
62
5
10
117.551650
20
-169.373827
0
VERTEX
5
308
100
AcDbEntity
8
1
100
AcDbVertex
100
AcDb2dVertex
62
5
10
116.854460
20
-169.373827
0
VERTEX
5
309
100
AcDbEntity
8
1
100
AcDbVertex
100
AcDb2dVertex
62
5
10
116.854460
20
-169.037253
0
VERTEX
5
30a
100
AcDbEntity
8
1
100
AcDbVertex
100
AcDb2dVertex
62
5
10
117.551650
20
-169.037253
0
SEQEND
5
30b
100
AcDbEntity
8
1
0
LINE
5
30c
100
AcDbEntity
8
1
100
AcDbLine
6
CONTINUOUS
62
5
10
81.600000
20
-138.500000
11
81.600000
21
-103.000000
0
LINE
5
30d
100
AcDbEntity
8
1
100
AcDbLine
6
CONTINUOUS
62
5
10
151.600000
20
-138.500000
11
151.600000
21
-103.000000
0
POLYLINE
5
30e
100
AcDbEntity
8
1
6
CONTINUOUS
62
5
100
AcDb2dPolyline
66
1
10
0.0
20
0.0
30
0.0
70
0
0
VERTEX
5
30f
100
AcDbEntity
8
1
100
AcDbVertex
100
AcDb2dVertex
62
5
10
116.600000
20
-105.000000
0
VERTEX
5
310
100
AcDbEntity
8
1
100
AcDbVertex
100
AcDb2dVertex
62
5
10
81.600000
20
-105.000000
0
VERTEX
5
311
100
AcDbEntity
8
1
100
AcDbVertex
100
AcDb2dVertex
62
5
10
84.648000
20
-104.492000
0
VERTEX
5
312
100
AcDbEntity
8
1
100
AcDbVertex
100
AcDb2dVertex
62
5
10
84.648000
20
-105.508000
0
VERTEX
5
313
100
AcDbEntity
8
1
100
AcDbVertex
100
AcDb2dVertex
62
5
10
81.600000
20
-105.000000
0
VERTEX
5
314
100
AcDbEntity
8
1
100
AcDbVertex
100
AcDb2dVertex
62
5
10
84.648000
20
-104.746000
0
VERTEX
5
315
100
AcDbEntity
8
1
100
AcDbVertex
100
AcDb2dVertex
62
5
10
84.648000
20
-105.254000
0
VERTEX
5
316
100
AcDbEntity
8
1
100
AcDbVertex
100
AcDb2dVertex
62
5
10
81.600000
20
-105.000000
0
SEQEND
5
317
100
AcDbEntity
8
1
0
POLYLINE
5
318
100
AcDbEntity
8
1
6
CONTINUOUS
62
5
100
AcDb2dPolyline
66
1
10
0.0
20
0.0
30
0.0
70
0
0
VERTEX
5
319
100
AcDbEntity
8
1
100
AcDbVertex
100
AcDb2dVertex
62
5
10
116.600000
20
-105.000000
0
VERTEX
5
31a
100
AcDbEntity
8
1
100
AcDbVertex
100
AcDb2dVertex
62
5
10
151.600000
20
-105.000000
0
VERTEX
5
31b
100
AcDbEntity
8
1
100
AcDbVertex
100
AcDb2dVertex
62
5
10
148.552000
20
-105.508000
0
VERTEX
5
31c
100
AcDbEntity
8
1
100
AcDbVertex
100
AcDb2dVertex
62
5
10
148.552000
20
-104.492000
0
VERTEX
5
31d
100
AcDbEntity
8
1
100
AcDbVertex
100
AcDb2dVertex
62
5
10
151.600000
20
-105.000000
0
VERTEX
5
31e
100
AcDbEntity
8
1
100
AcDbVertex
100
AcDb2dVertex
62
5
10
148.552000
20
-105.254000
0
VERTEX
5
31f
100
AcDbEntity
8
1
100
AcDbVertex
100
AcDb2dVertex
62
5
10
148.552000
20
-104.746000
0
VERTEX
5
320
100
AcDbEntity
8
1
100
AcDbVertex
100
AcDb2dVertex
62
5
10
151.600000
20
-105.000000
0
SEQEND
5
321
100
AcDbEntity
8
1
0
LINE
5
322
100
AcDbEntity
8
1
100
AcDbLine
6
CONTINUOUS
62
5
10
0.000000
20
-32.000000
11
320.000000
21
-32.000000
0
POLYLINE
5
323
100
AcDbEntity
8
1
6
CONTINUOUS
62
5
100
AcDb2dPolyline
66
1
10
0.0
20
0.0
30
0.0
70
0
0
VERTEX
5
324
100
AcDbEntity
8
1
100
AcDbVertex
100
AcDb2dVertex
62
5
10
227.700000
20
-178.862667
0
VERTEX
5
325
100
AcDbEntity
8
1
100
AcDbVertex
100
AcDb2dVertex
62
5
10
230.500000
20
-178.900000
0
VERTEX
5
326
100
AcDbEntity
8
1
100
AcDbVertex
100
AcDb2dVertex
62
5
10
230.500000
20
-179.773333
0
VERTEX
5
327
100
AcDbEntity
8
1
100
AcDbVertex
100
AcDb2dVertex
62
5
10
229.500000
20
-180.073333
0
VERTEX
5
328
100
AcDbEntity
8
1
100
AcDbVertex
100
AcDb2dVertex
62
5
10
227.700000
20
-180.025333
0
SEQEND
5
329
100
AcDbEntity
8
1
0
LINE
5
32a
100
AcDbEntity
8
1
100
AcDbLine
6
CONTINUOUS
62
5
10
210.200000
20
-187.000000
11
210.100000
21
-187.000000
0
ARC
5
32b
100
AcDbEntity
8
1
100
AcDbCircle
6
CONTINUOUS
62
5
10
221.000003
20
-181.310604
40
0.700000
100
AcDbArc
50
-89.999999
51
-0.000000
0
LINE
5
32c
100
AcDbEntity
8
1
100
AcDbLine
6
CONTINUOUS
62
5
10
221.700003
20
-181.310604
11
221.700003
21
-181.199917
0
ARC
5
32d
100
AcDbEntity
8
1
100
AcDbCircle
6
CONTINUOUS
62
5
10
221.000003
20
-181.199917
40
0.700000
100
AcDbArc
50
0.000000
51
89.118595
0
LINE
5
32e
100
AcDbEntity
8
1
100
AcDbLine
6
CONTINUOUS
62
5
10
221.010771
20
-180.500000
11
220.200000
21
-180.490604
0
LINE
5
32f
100
AcDbEntity
8
1
100
AcDbLine
6
CONTINUOUS
62
5
10
220.200000
20
-182.000000
11
221.000003
21
-182.010604
0
ARC
5
330
100
AcDbEntity
8
1
100
AcDbCircle
6
CONTINUOUS
62
5
10
221.000003
20
-175.700000
40
0.700000
100
AcDbArc
50
0.000000
51
89.999999
0
LINE
5
331
100
AcDbEntity
8
1
100
AcDbLine
6
CONTINUOUS
62
5
10
221.700003
20
-175.700000
11
221.700003
21
-175.810680
0
ARC
5
332
100
AcDbEntity
8
1
100
AcDbCircle
6
CONTINUOUS
62
5
10
221.000003
20
-175.810680
40
0.700000
100
AcDbArc
50
-89.118595
51
-0.000000
0
LINE
5
333
100
AcDbEntity
8
1
100
AcDbLine
6
CONTINUOUS
62
5
10
221.010771
20
-176.510597
11
220.200000
21
-176.519993
0
LINE
5
334
100
AcDbEntity
8
1
100
AcDbLine
6
CONTINUOUS
62
5
10
220.200000
20
-175.000000
11
221.000003
21
-175.000000
0
POLYLINE
5
335
100
AcDbEntity
8
1
6
CONTINUOUS
62
5
100
AcDb2dPolyline
66
1
10
0.0
20
0.0
30
0.0
70
0
0
VERTEX
5
336
100
AcDbEntity
8
1
100
AcDbVertex
100
AcDb2dVertex
62
5
10
227.700000
20
-201.137333
0
VERTEX
5
337
100
AcDbEntity
8
1
100
AcDbVertex
100
AcDb2dVertex
62
5
10
230.500000
20
-201.100000
0
VERTEX
5
338
100
AcDbEntity
8
1
100
AcDbVertex
100
AcDb2dVertex
62
5
10
230.500000
20
-200.226667
0
VERTEX
5
339
100
AcDbEntity
8
1
100
AcDbVertex
100
AcDb2dVertex
62
5
10
229.500000
20
-199.926667
0
VERTEX
5
33a
100
AcDbEntity
8
1
100
AcDbVertex
100
AcDb2dVertex
62
5
10
227.700000
20
-199.974667
0
SEQEND
5
33b
100
AcDbEntity
8
1
0
ARC
5
33c
100
AcDbEntity
8
1
100
AcDbCircle
6
CONTINUOUS
62
5
10
229.500000
20
-198.733864
40
1.000000
100
AcDbArc
50
-88.492563
51
-0.000000
0
LINE
5
33d
100
AcDbEntity
8
1
100
AcDbLine
6
CONTINUOUS
62
5
10
230.500000
20
-198.733864
11
230.500000
21
-197.575004
0
ARC
5
33e
100
AcDbEntity
8
1
100
AcDbCircle
6
CONTINUOUS
62
5
10
231.500000
20
-197.575004
40
1.000000
100
AcDbArc
50
91.450216
51
179.999998
0
LINE
5
33f
100
AcDbEntity
8
1
100
AcDbLine
6
CONTINUOUS
62
5
10
231.474692
20
-196.575324
11
237.425308
21
-196.424676
0
ARC
5
340
100
AcDbEntity
8
1
100
AcDbCircle
6
CONTINUOUS
62
5
10
237.400000
20
-195.424996
40
1.000000
100
AcDbArc
50
-88.549783
51
-0.000000
0
LINE
5
341
100
AcDbEntity
8
1
100
AcDbLine
6
CONTINUOUS
62
5
10
210.100000
20
-193.000000
11
210.200000
21
-193.000000
0
ARC
5
342
100
AcDbEntity
8
1
100
AcDbCircle
6
CONTINUOUS
62
5
10
221.000003
20
-204.300000
40
0.700000
100
AcDbArc
50
-89.999999
51
-0.000000
0
LINE
5
343
100
AcDbEntity
8
1
100
AcDbLine
6
CONTINUOUS
62
5
10
221.700003
20
-204.300000
11
221.700003
21
-204.189320
0
ARC
5
344
100
AcDbEntity
8
1
100
AcDbCircle
6
CONTINUOUS
62
5
10
221.000003
20
-204.189320
40
0.700000
100
AcDbArc
50
0.000000
51
89.118595
0
LINE
5
345
100
AcDbEntity
8
1
100
AcDbLine
6
CONTINUOUS
62
5
10
221.010771
20
-203.489403
11
220.200000
21
-203.480007
0
LINE
5
346
100
AcDbEntity
8
1
100
AcDbLine
6
CONTINUOUS
62
5
10
220.200000
20
-205.000000
11
221.000003
21
-205.000000
0
ARC
5
347
100
AcDbEntity
8
1
100
AcDbCircle
6
CONTINUOUS
62
5
10
221.000003
20
-198.689396
40
0.700000
100
AcDbArc
50
0.000000
51
89.999999
0
LINE
5
348
100
AcDbEntity
8
1
100
AcDbLine
6
CONTINUOUS
62
5
10
221.700003
20
-198.689396
11
221.700003
21
-198.800083
0
ARC
5
349
100
AcDbEntity
8
1
100
AcDbCircle
6
CONTINUOUS
62
5
10
221.000003
20
-198.800083
40
0.700000
100
AcDbArc
50
-89.118595
51
0.000000
0
LINE
5
34a
100
AcDbEntity
8
1
100
AcDbLine
6
CONTINUOUS
62
5
10
221.010771
20
-199.500000
11
220.200000
21
-199.509396
0
LINE
5
34b
100
AcDbEntity
8
1
100
AcDbLine
6
CONTINUOUS
62
5
10
220.200000
20
-198.000000
11
221.000003
21
-197.989396
0
LINE
5
34c
100
AcDbEntity
8
1
100
AcDbLine
6
CONTINUOUS
62
5
10
221.700003
20
-181.310604
11
221.700003
21
-198.689396
0
ARC
5
34d
100
AcDbEntity
8
1
100
AcDbCircle
6
CONTINUOUS
62
5
10
286.600000
20
-190.000000
40
80.000000
100
AcDbArc
50
171.576035
51
-171.576032
0
ARC
5
34e
100
AcDbEntity
8
1
100
AcDbCircle
6
CONTINUOUS
62
5
10
208.946925
20
-178.500004
40
1.500000
100
AcDbArc
50
89.999999
51
171.576035
0
POLYLINE
5
34f
100
AcDbEntity
8
1
6
CONTINUOUS
62
5
100
AcDb2dPolyline
66
1
10
0.0
20
0.0
30
0.0
70
0
0
VERTEX
5
350
100
AcDbEntity
8
1
100
AcDbVertex
100
AcDb2dVertex
62
5
10
208.946925
20
-177.000004
0
VERTEX
5
351
100
AcDbEntity
8
1
100
AcDbVertex
100
AcDb2dVertex
62
5
10
210.100000
20
-177.000004
0
VERTEX
5
352
100
AcDbEntity
8
1
100
AcDbVertex
100
AcDb2dVertex
62
5
10
210.100000
20
-203.000000
0
VERTEX
5
353
100
AcDbEntity
8
1
100
AcDbVertex
100
AcDb2dVertex
62
5
10
208.946925
20
-203.000000
0
SEQEND
5
354
100
AcDbEntity
8
1
0
ARC
5
355
100
AcDbEntity
8
1
100
AcDbCircle
6
CONTINUOUS
62
5
10
208.946925
20
-201.500000
40
1.500000
100
AcDbArc
50
-171.576032
51
-89.999999
0
ARC
5
356
100
AcDbEntity
8
1
100
AcDbCircle
6
CONTINUOUS
62
5
10
237.400000
20
-181.474030
40
1.000000
100
AcDbArc
50
0.000000
51
88.492563
0
LINE
5
357
100
AcDbEntity
8
1
100
AcDbLine
6
CONTINUOUS
62
5
10
237.426307
20
-180.474376
11
227.700000
21
-180.218421
0
LINE
5
358
100
AcDbEntity
8
1
100
AcDbLine
6
CONTINUOUS
62
5
10
227.700000
20
-199.781579
11
237.426307
21
-199.525624
0
ARC
5
359
100
AcDbEntity
8
1
100
AcDbCircle
6
CONTINUOUS
62
5
10
237.400000
20
-198.525970
40
1.000000
100
AcDbArc
50
-88.492563
51
0.000000
0
LINE
5
35a
100
AcDbEntity
8
1
100
AcDbLine
6
CONTINUOUS
62
5
10
238.400000
20
-198.525970
11
238.400000
21
-181.474030
0
ARC
5
35b
100
AcDbEntity
8
1
100
AcDbCircle
6
CONTINUOUS
62
5
10
206.279728
20
-176.233716
40
2.000000
100
AcDbArc
50
-77.199379
51
-40.354189
0
ARC
5
35c
100
AcDbEntity
8
1
100
AcDbCircle
6
CONTINUOUS
62
5
10
206.314979
20
-203.812011
40
2.003218
100
AcDbArc
50
41.303458
51
79.268859
0
LINE
5
35d
100
AcDbEntity
8
1
100
AcDbLine
6
CONTINUOUS
62
5
10
206.687979
20
-201.843826
11
201.649113
21
-200.914710
0
ARC
5
35e
100
AcDbEntity
8
1
100
AcDbCircle
6
CONTINUOUS
62
5
10
202.193113
20
-197.964445
40
3.000000
100
AcDbArc
50
-176.221845
51
-100.447414
0
ARC
5
35f
100
AcDbEntity
8
1
100
AcDbCircle
6
CONTINUOUS
62
5
10
259.069233
20
-194.208518
40
60.000000
100
AcDbArc
50
168.963856
51
-176.221845
0
ARC
5
360
100
AcDbEntity
8
1
100
AcDbCircle
6
CONTINUOUS
62
5
10
205.086368
20
-183.679968
40
5.000000
100
AcDbArc
50
102.735193
51
168.963856
0
LINE
5
361
100
AcDbEntity
8
1
100
AcDbLine
6
CONTINUOUS
62
5
10
203.984141
20
-178.802972
11
206.722846
21
-178.184010
0
ARC
5
362
100
AcDbEntity
8
1
100
AcDbCircle
6
CONTINUOUS
62
5
10
221.000003
20
-221.200000
40
0.700000
100
AcDbArc
50
0.000000
51
89.999999
0
LINE
5
363
100
AcDbEntity
8
1
100
AcDbLine
6
CONTINUOUS
62
5
10
221.700003
20
-221.200000
11
221.700003
21
-221.515283
0
ARC
5
364
100
AcDbEntity
8
1
100
AcDbCircle
6
CONTINUOUS
62
5
10
220.700003
20
-221.515283
40
1.000000
100
AcDbArc
50
-89.118595
51
0.000000
0
LINE
5
365
100
AcDbEntity
8
1
100
AcDbLine
6
CONTINUOUS
62
5
10
220.715386
20
-222.515164
11
220.200000
21
-222.520016
0
LINE
5
366
100
AcDbEntity
8
1
100
AcDbLine
6
CONTINUOUS
62
5
10
220.200000
20
-220.500000
11
221.000003
21
-220.500000
0
LINE
5
367
100
AcDbEntity
8
1
100
AcDbLine
6
CONTINUOUS
62
5
10
220.200000
20
-227.200000
11
221.700001
21
-225.659993
0
LINE
5
368
100
AcDbEntity
8
1
100
AcDbLine
6
CONTINUOUS
62
5
10
221.700003
20
-221.200000
11
221.700003
21
-204.300000
0
POLYLINE
5
369
100
AcDbEntity
8
1
6
CONTINUOUS
62
5
100
AcDb2dPolyline
66
1
10
0.0
20
0.0
30
0.0
70
1
0
VERTEX
5
36a
100
AcDbEntity
8
1
100
AcDbVertex
100
AcDb2dVertex
62
5
10
124.693990
20
-173.619236
0
VERTEX
5
36b
100
AcDbEntity
8
1
100
AcDbVertex
100
AcDb2dVertex
62
5
10
124.693990
20
-174.871202
0
VERTEX
5
36c
100
AcDbEntity
8
1
100
AcDbVertex
100
AcDb2dVertex
62
5
10
125.131052
20
-175.089733
0
VERTEX
5
36d
100
AcDbEntity
8
1
100
AcDbVertex
100
AcDb2dVertex
62
5
10
127.443250
20
-175.333122
0
VERTEX
5
36e
100
AcDbEntity
8
1
100
AcDbVertex
100
AcDb2dVertex
62
5
10
127.427875
20
-175.479185
0
VERTEX
5
36f
100
AcDbEntity
8
1
100
AcDbVertex
100
AcDb2dVertex
62
5
10
125.089191
20
-175.233007
0
VERTEX
5
370
100
AcDbEntity
8
1
100
AcDbVertex
100
AcDb2dVertex
62
5
10
124.623770
20
-175.000297
0
VERTEX
5
371
100
AcDbEntity
8
1
100
AcDbVertex
100
AcDb2dVertex
62
5
10
124.046379
20
-175.346732
0
VERTEX
5
372
100
AcDbEntity
8
1
100
AcDbVertex
100
AcDb2dVertex
62
5
10
123.970815
20
-175.220792
0
VERTEX
5
373
100
AcDbEntity
8
1
100
AcDbVertex
100
AcDb2dVertex
62
5
10
124.547120
20
-174.875009
0
VERTEX
5
374
100
AcDbEntity
8
1
100
AcDbVertex
100
AcDb2dVertex
62
5
10
124.547120
20
-173.766106
0
VERTEX
5
375
100
AcDbEntity
8
1
100
AcDbVertex
100
AcDb2dVertex
62
5
10
124.008597
20
-173.766106
0
VERTEX
5
376
100
AcDbEntity
8
1
100
AcDbVertex
100
AcDb2dVertex
62
5
10
124.008597
20
-173.619236
0
SEQEND
5
377
100
AcDbEntity
8
1
0
POLYLINE
5
378
100
AcDbEntity
8
1
6
CONTINUOUS
62
5
100
AcDb2dPolyline
66
1
10
0.0
20
0.0
30
0.0
70
1
0
VERTEX
5
379
100
AcDbEntity
8
1
100
AcDbVertex
100
AcDb2dVertex
62
5
10
126.248364
20
-174.500455
0
VERTEX
5
37a
100
AcDbEntity
8
1
100
AcDbVertex
100
AcDb2dVertex
62
5
10
124.926534
20
-174.500455
0
VERTEX
5
37b
100
AcDbEntity
8
1
100
AcDbVertex
100
AcDb2dVertex
62
5
10
124.926534
20
-174.353585
0
VERTEX
5
37c
100
AcDbEntity
8
1
100
AcDbVertex
100
AcDb2dVertex
62
5
10
126.248364
20
-174.353585
0
VERTEX
5
37d
100
AcDbEntity
8
1
100
AcDbVertex
100
AcDb2dVertex
62
5
10
126.248364
20
-174.010889
0
VERTEX
5
37e
100
AcDbEntity
8
1
100
AcDbVertex
100
AcDb2dVertex
62
5
10
125.281470
20
-174.010889
0
VERTEX
5
37f
100
AcDbEntity
8
1
100
AcDbVertex
100
AcDb2dVertex
62
5
10
125.281470
20
-172.884886
0
VERTEX
5
380
100
AcDbEntity
8
1
100
AcDbVertex
100
AcDb2dVertex
62
5
10
126.248364
20
-172.884886
0
VERTEX
5
381
100
AcDbEntity
8
1
100
AcDbVertex
100
AcDb2dVertex
62
5
10
126.248364
20
-172.542190
0
VERTEX
5
382
100
AcDbEntity
8
1
100
AcDbVertex
100
AcDb2dVertex
62
5
10
125.110122
20
-172.542190
0
VERTEX
5
383
100
AcDbEntity
8
1
100
AcDbVertex
100
AcDb2dVertex
62
5
10
125.110122
20
-172.395320
0
VERTEX
5
384
100
AcDbEntity
8
1
100
AcDbVertex
100
AcDb2dVertex
62
5
10
126.248364
20
-172.395320
0
VERTEX
5
385
100
AcDbEntity
8
1
100
AcDbVertex
100
AcDb2dVertex
62
5
10
126.248364
20
-171.979188
0
VERTEX
5
386
100
AcDbEntity
8
1
100
AcDbVertex
100
AcDb2dVertex
62
5
10
126.395234
20
-171.979188
0
VERTEX
5
387
100
AcDbEntity
8
1
100
AcDbVertex
100
AcDb2dVertex
62
5
10
126.395234
20
-172.395320
0
VERTEX
5
388
100
AcDbEntity
8
1
100
AcDbVertex
100
AcDb2dVertex
62
5
10
127.435562
20
-172.395320
0
VERTEX
5
389
100
AcDbEntity
8
1
100
AcDbVertex
100
AcDb2dVertex
62
5
10
127.435562
20
-172.542190
0
VERTEX
5
38a
100
AcDbEntity
8
1
100
AcDbVertex
100
AcDb2dVertex
62
5
10
126.395234
20
-172.542190
0
VERTEX
5
38b
100
AcDbEntity
8
1
100
AcDbVertex
100
AcDb2dVertex
62
5
10
126.395234
20
-172.884886
0
VERTEX
5
38c
100
AcDbEntity
8
1
100
AcDbVertex
100
AcDb2dVertex
62
5
10
127.264214
20
-172.884886
0
VERTEX
5
38d
100
AcDbEntity
8
1
100
AcDbVertex
100
AcDb2dVertex
62
5
10
127.264214
20
-174.010889
0
VERTEX
5
38e
100
AcDbEntity
8
1
100
AcDbVertex
100
AcDb2dVertex
62
5
10
126.395234
20
-174.010889
0
VERTEX
5
38f
100
AcDbEntity
8
1
100
AcDbVertex
100
AcDb2dVertex
62
5
10
126.395234
20
-174.353585
0
VERTEX
5
390
100
AcDbEntity
8
1
100
AcDbVertex
100
AcDb2dVertex
62
5
10
127.619150
20
-174.353585
0
VERTEX
5
391
100
AcDbEntity
8
1
100
AcDbVertex
100
AcDb2dVertex
62
5
10
127.619150
20
-174.500455
0
VERTEX
5
392
100
AcDbEntity
8
1
100
AcDbVertex
100
AcDb2dVertex
62
5
10
126.395234
20
-174.500455
0
VERTEX
5
393
100
AcDbEntity
8
1
100
AcDbVertex
100
AcDb2dVertex
62
5
10
126.395234
20
-174.916587
0
VERTEX
5
394
100
AcDbEntity
8
1
100
AcDbVertex
100
AcDb2dVertex
62
5
10
126.248364
20
-174.916587
0
SEQEND
5
395
100
AcDbEntity
8
1
0
POLYLINE
5
396
100
AcDbEntity
8
1
6
CONTINUOUS
62
5
100
AcDb2dPolyline
66
1
10
0.0
20
0.0
30
0.0
70
1
0
VERTEX
5
397
100
AcDbEntity
8
1
100
AcDbVertex
100
AcDb2dVertex
62
5
10
126.248364
20
-173.864019
0
VERTEX
5
398
100
AcDbEntity
8
1
100
AcDbVertex
100
AcDb2dVertex
62
5
10
125.428340
20
-173.864019
0
VERTEX
5
399
100
AcDbEntity
8
1
100
AcDbVertex
100
AcDb2dVertex
62
5
10
125.428340
20
-173.521322
0
VERTEX
5
39a
100
AcDbEntity
8
1
100
AcDbVertex
100
AcDb2dVertex
62
5
10
126.248364
20
-173.521322
0
SEQEND
5
39b
100
AcDbEntity
8
1
0
POLYLINE
5
39c
100
AcDbEntity
8
1
6
CONTINUOUS
62
5
100
AcDb2dPolyline
66
1
10
0.0
20
0.0
30
0.0
70
1
0
VERTEX
5
39d
100
AcDbEntity
8
1
100
AcDbVertex
100
AcDb2dVertex
62
5
10
127.117344
20
-173.374453
0
VERTEX
5
39e
100
AcDbEntity
8
1
100
AcDbVertex
100
AcDb2dVertex
62
5
10
126.395234
20
-173.374453
0
VERTEX
5
39f
100
AcDbEntity
8
1
100
AcDbVertex
100
AcDb2dVertex
62
5
10
126.395234
20
-173.031756
0
VERTEX
5
3a0
100
AcDbEntity
8
1
100
AcDbVertex
100
AcDb2dVertex
62
5
10
127.117344
20
-173.031756
0
SEQEND
5
3a1
100
AcDbEntity
8
1
0
POLYLINE
5
3a2
100
AcDbEntity
8
1
6
CONTINUOUS
62
5
100
AcDb2dPolyline
66
1
10
0.0
20
0.0
30
0.0
70
1
0
VERTEX
5
3a3
100
AcDbEntity
8
1
100
AcDbVertex
100
AcDb2dVertex
62
5
10
127.117344
20
-173.864019
0
VERTEX
5
3a4
100
AcDbEntity
8
1
100
AcDbVertex
100
AcDb2dVertex
62
5
10
126.395234
20
-173.864019
0
VERTEX
5
3a5
100
AcDbEntity
8
1
100
AcDbVertex
100
AcDb2dVertex
62
5
10
126.395234
20
-173.521322
0
VERTEX
5
3a6
100
AcDbEntity
8
1
100
AcDbVertex
100
AcDb2dVertex
62
5
10
127.117344
20
-173.521322
0
SEQEND
5
3a7
100
AcDbEntity
8
1
0
POLYLINE
5
3a8
100
AcDbEntity
8
1
6
CONTINUOUS
62
5
100
AcDb2dPolyline
66
1
10
0.0
20
0.0
30
0.0
70
1
0
VERTEX
5
3a9
100
AcDbEntity
8
1
100
AcDbVertex
100
AcDb2dVertex
62
5
10
126.248364
20
-173.374453
0
VERTEX
5
3aa
100
AcDbEntity
8
1
100
AcDbVertex
100
AcDb2dVertex
62
5
10
125.428340
20
-173.374453
0
VERTEX
5
3ab
100
AcDbEntity
8
1
100
AcDbVertex
100
AcDb2dVertex
62
5
10
125.428340
20
-173.031756
0
VERTEX
5
3ac
100
AcDbEntity
8
1
100
AcDbVertex
100
AcDb2dVertex
62
5
10
126.248364
20
-173.031756
0
SEQEND
5
3ad
100
AcDbEntity
8
1
0
POLYLINE
5
3ae
100
AcDbEntity
8
1
6
CONTINUOUS
62
5
100
AcDb2dPolyline
66
1
10
0.0
20
0.0
30
0.0
70
1
0
VERTEX
5
3af
100
AcDbEntity
8
1
100
AcDbVertex
100
AcDb2dVertex
62
5
10
124.698886
20
-172.649894
0
VERTEX
5
3b0
100
AcDbEntity
8
1
100
AcDbVertex
100
AcDb2dVertex
62
5
10
124.209319
20
-172.282719
0
VERTEX
5
3b1
100
AcDbEntity
8
1
100
AcDbVertex
100
AcDb2dVertex
62
5
10
124.297441
20
-172.165223
0
VERTEX
5
3b2
100
AcDbEntity
8
1
100
AcDbVertex
100
AcDb2dVertex
62
5
10
124.787008
20
-172.532398
0
SEQEND
5
3b3
100
AcDbEntity
8
1
0
POLYLINE
5
3b4
100
AcDbEntity
8
1
6
CONTINUOUS
62
5
100
AcDb2dPolyline
66
1
10
0.0
20
0.0
30
0.0
70
1
0
VERTEX
5
3b5
100
AcDbEntity
8
1
100
AcDbVertex
100
AcDb2dVertex
62
5
10
129.692774
20
-173.521322
0
VERTEX
5
3b6
100
AcDbEntity
8
1
100
AcDbVertex
100
AcDb2dVertex
62
5
10
129.692774
20
-173.937454
0
VERTEX
5
3b7
100
AcDbEntity
8
1
100
AcDbVertex
100
AcDb2dVertex
62
5
10
129.545904
20
-173.937454
0
VERTEX
5
3b8
100
AcDbEntity
8
1
100
AcDbVertex
100
AcDb2dVertex
62
5
10
129.545904
20
-173.374453
0
VERTEX
5
3b9
100
AcDbEntity
8
1
100
AcDbVertex
100
AcDb2dVertex
62
5
10
131.528648
20
-173.374453
0
VERTEX
5
3ba
100
AcDbEntity
8
1
100
AcDbVertex
100
AcDb2dVertex
62
5
10
131.528648
20
-173.937454
0
VERTEX
5
3bb
100
AcDbEntity
8
1
100
AcDbVertex
100
AcDb2dVertex
62
5
10
131.381778
20
-173.937454
0
VERTEX
5
3bc
100
AcDbEntity
8
1
100
AcDbVertex
100
AcDb2dVertex
62
5
10
131.381778
20
-173.521322
0
SEQEND
5
3bd
100
AcDbEntity
8
1
0
POLYLINE
5
3be
100
AcDbEntity
8
1
6
CONTINUOUS
62
5
100
AcDb2dPolyline
66
1
10
0.0
20
0.0
30
0.0
70
1
0
VERTEX
5
3bf
100
AcDbEntity
8
1
100
AcDbVertex
100
AcDb2dVertex
62
5
10
129.741731
20
-173.007278
0
VERTEX
5
3c0
100
AcDbEntity
8
1
100
AcDbVertex
100
AcDb2dVertex
62
5
10
130.402645
20
-173.007278
0
VERTEX
5
3c1
100
AcDbEntity
8
1
100
AcDbVertex
100
AcDb2dVertex
62
5
10
130.402645
20
-172.542190
0
VERTEX
5
3c2
100
AcDbEntity
8
1
100
AcDbVertex
100
AcDb2dVertex
62
5
10
129.496947
20
-172.542190
0
VERTEX
5
3c3
100
AcDbEntity
8
1
100
AcDbVertex
100
AcDb2dVertex
62
5
10
129.496947
20
-172.395320
0
VERTEX
5
3c4
100
AcDbEntity
8
1
100
AcDbVertex
100
AcDb2dVertex
62
5
10
130.402645
20
-172.395320
0
VERTEX
5
3c5
100
AcDbEntity
8
1
100
AcDbVertex
100
AcDb2dVertex
62
5
10
130.402645
20
-171.979188
0
VERTEX
5
3c6
100
AcDbEntity
8
1
100
AcDbVertex
100
AcDb2dVertex
62
5
10
130.549515
20
-171.979188
0
VERTEX
5
3c7
100
AcDbEntity
8
1
100
AcDbVertex
100
AcDb2dVertex
62
5
10
130.549515
20
-172.395320
0
VERTEX
5
3c8
100
AcDbEntity
8
1
100
AcDbVertex
100
AcDb2dVertex
62
5
10
131.455213
20
-172.395320
0
VERTEX
5
3c9
100
AcDbEntity
8
1
100
AcDbVertex
100
AcDb2dVertex
62
5
10
131.455213
20
-172.542190
0
VERTEX
5
3ca
100
AcDbEntity
8
1
100
AcDbVertex
100
AcDb2dVertex
62
5
10
130.549515
20
-172.542190
0
VERTEX
5
3cb
100
AcDbEntity
8
1
100
AcDbVertex
100
AcDb2dVertex
62
5
10
130.549515
20
-173.007278
0
VERTEX
5
3cc
100
AcDbEntity
8
1
100
AcDbVertex
100
AcDb2dVertex
62
5
10
131.210430
20
-173.007278
0
VERTEX
5
3cd
100
AcDbEntity
8
1
100
AcDbVertex
100
AcDb2dVertex
62
5
10
131.210430
20
-173.154148
0
VERTEX
5
3ce
100
AcDbEntity
8
1
100
AcDbVertex
100
AcDb2dVertex
62
5
10
129.741731
20
-173.154148
0
SEQEND
5
3cf
100
AcDbEntity
8
1
0
POLYLINE
5
3d0
100
AcDbEntity
8
1
6
CONTINUOUS
62
5
100
AcDb2dPolyline
66
1
10
0.0
20
0.0
30
0.0
70
1
0
VERTEX
5
3d1
100
AcDbEntity
8
1
100
AcDbVertex
100
AcDb2dVertex
62
5
10
129.578605
20
-175.222660
0
VERTEX
5
3d2
100
AcDbEntity
8
1
100
AcDbVertex
100
AcDb2dVertex
62
5
10
129.929553
20
-174.988694
0
VERTEX
5
3d3
100
AcDbEntity
8
1
100
AcDbVertex
100
AcDb2dVertex
62
5
10
130.157862
20
-174.532076
0
VERTEX
5
3d4
100
AcDbEntity
8
1
100
AcDbVertex
100
AcDb2dVertex
62
5
10
130.157862
20
-173.937454
0
VERTEX
5
3d5
100
AcDbEntity
8
1
100
AcDbVertex
100
AcDb2dVertex
62
5
10
130.304732
20
-173.937454
0
VERTEX
5
3d6
100
AcDbEntity
8
1
100
AcDbVertex
100
AcDb2dVertex
62
5
10
130.304732
20
-174.566748
0
VERTEX
5
3d7
100
AcDbEntity
8
1
100
AcDbVertex
100
AcDb2dVertex
62
5
10
130.043475
20
-175.089262
0
VERTEX
5
3d8
100
AcDbEntity
8
1
100
AcDbVertex
100
AcDb2dVertex
62
5
10
129.660073
20
-175.344863
0
SEQEND
5
3d9
100
AcDbEntity
8
1
0
POLYLINE
5
3da
100
AcDbEntity
8
1
6
CONTINUOUS
62
5
100
AcDb2dPolyline
66
1
10
0.0
20
0.0
30
0.0
70
1
0
VERTEX
5
3db
100
AcDbEntity
8
1
100
AcDbVertex
100
AcDb2dVertex
62
5
10
131.381778
20
-175.210327
0
VERTEX
5
3dc
100
AcDbEntity
8
1
100
AcDbVertex
100
AcDb2dVertex
62
5
10
131.381778
20
-174.916587
0
VERTEX
5
3dd
100
AcDbEntity
8
1
100
AcDbVertex
100
AcDb2dVertex
62
5
10
131.528648
20
-174.916587
0
VERTEX
5
3de
100
AcDbEntity
8
1
100
AcDbVertex
100
AcDb2dVertex
62
5
10
131.528648
20
-175.210327
0
VERTEX
5
3df
100
AcDbEntity
8
1
100
AcDbVertex
100
AcDb2dVertex
62
5
10
131.528648
20
-175.357197
0
VERTEX
5
3e0
100
AcDbEntity
8
1
100
AcDbVertex
100
AcDb2dVertex
62
5
10
130.812837
20
-175.357197
0
VERTEX
5
3e1
100
AcDbEntity
8
1
100
AcDbVertex
100
AcDb2dVertex
62
5
10
130.647429
20
-175.191788
0
VERTEX
5
3e2
100
AcDbEntity
8
1
100
AcDbVertex
100
AcDb2dVertex
62
5
10
130.647429
20
-173.937454
0
VERTEX
5
3e3
100
AcDbEntity
8
1
100
AcDbVertex
100
AcDb2dVertex
62
5
10
130.794299
20
-173.937454
0
VERTEX
5
3e4
100
AcDbEntity
8
1
100
AcDbVertex
100
AcDb2dVertex
62
5
10
130.794299
20
-175.130952
0
VERTEX
5
3e5
100
AcDbEntity
8
1
100
AcDbVertex
100
AcDb2dVertex
62
5
10
130.873673
20
-175.210327
0
SEQEND
5
3e6
100
AcDbEntity
8
1
0
CIRCLE
5
3e7
100
AcDbEntity
8
1
100
AcDbCircle
6
CONTINUOUS
62
5
10
128.620815
20
-177.979185
40
1.000000
0
POLYLINE
5
3e8
100
AcDbEntity
8
1
6
CONTINUOUS
62
5
100
AcDb2dPolyline
66
1
10
0.0
20
0.0
30
0.0
70
1
0
VERTEX
5
3e9
100
AcDbEntity
8
1
100
AcDbVertex
100
AcDb2dVertex
62
5
10
128.689163
20
-175.406153
0
VERTEX
5
3ea
100
AcDbEntity
8
1
100
AcDbVertex
100
AcDb2dVertex
62
5
10
128.836033
20
-175.406153
0
VERTEX
5
3eb
100
AcDbEntity
8
1
100
AcDbVertex
100
AcDb2dVertex
62
5
10
128.836033
20
-173.766106
0
VERTEX
5
3ec
100
AcDbEntity
8
1
100
AcDbVertex
100
AcDb2dVertex
62
5
10
129.226925
20
-173.766106
0
VERTEX
5
3ed
100
AcDbEntity
8
1
100
AcDbVertex
100
AcDb2dVertex
62
5
10
129.306373
20
-173.964727
0
VERTEX
5
3ee
100
AcDbEntity
8
1
100
AcDbVertex
100
AcDb2dVertex
62
5
10
129.442739
20
-173.910181
0
VERTEX
5
3ef
100
AcDbEntity
8
1
100
AcDbVertex
100
AcDb2dVertex
62
5
10
129.197955
20
-173.298223
0
VERTEX
5
3f0
100
AcDbEntity
8
1
100
AcDbVertex
100
AcDb2dVertex
62
5
10
129.061590
20
-173.352769
0
VERTEX
5
3f1
100
AcDbEntity
8
1
100
AcDbVertex
100
AcDb2dVertex
62
5
10
129.168177
20
-173.619236
0
VERTEX
5
3f2
100
AcDbEntity
8
1
100
AcDbVertex
100
AcDb2dVertex
62
5
10
128.423179
20
-173.619236
0
VERTEX
5
3f3
100
AcDbEntity
8
1
100
AcDbVertex
100
AcDb2dVertex
62
5
10
129.187739
20
-172.636231
0
VERTEX
5
3f4
100
AcDbEntity
8
1
100
AcDbVertex
100
AcDb2dVertex
62
5
10
129.071807
20
-172.546062
0
VERTEX
5
3f5
100
AcDbEntity
8
1
100
AcDbVertex
100
AcDb2dVertex
62
5
10
128.748053
20
-172.962316
0
VERTEX
5
3f6
100
AcDbEntity
8
1
100
AcDbVertex
100
AcDb2dVertex
62
5
10
128.493826
20
-172.708088
0
VERTEX
5
3f7
100
AcDbEntity
8
1
100
AcDbVertex
100
AcDb2dVertex
62
5
10
128.942332
20
-172.147454
0
VERTEX
5
3f8
100
AcDbEntity
8
1
100
AcDbVertex
100
AcDb2dVertex
62
5
10
128.827646
20
-172.055705
0
VERTEX
5
3f9
100
AcDbEntity
8
1
100
AcDbVertex
100
AcDb2dVertex
62
5
10
128.389334
20
-172.603596
0
VERTEX
5
3fa
100
AcDbEntity
8
1
100
AcDbVertex
100
AcDb2dVertex
62
5
10
128.324958
20
-172.539220
0
VERTEX
5
3fb
100
AcDbEntity
8
1
100
AcDbVertex
100
AcDb2dVertex
62
5
10
128.221105
20
-172.643073
0
VERTEX
5
3fc
100
AcDbEntity
8
1
100
AcDbVertex
100
AcDb2dVertex
62
5
10
128.657182
20
-173.079150
0
VERTEX
5
3fd
100
AcDbEntity
8
1
100
AcDbVertex
100
AcDb2dVertex
62
5
10
128.237116
20
-173.619236
0
VERTEX
5
3fe
100
AcDbEntity
8
1
100
AcDbVertex
100
AcDb2dVertex
62
5
10
128.028248
20
-173.619236
0
VERTEX
5
3ff
100
AcDbEntity
8
1
100
AcDbVertex
100
AcDb2dVertex
62
5
10
128.028248
20
-173.766106
0
VERTEX
5
400
100
AcDbEntity
8
1
100
AcDbVertex
100
AcDb2dVertex
62
5
10
128.689163
20
-173.766106
0
SEQEND
5
401
100
AcDbEntity
8
1
0
POLYLINE
5
402
100
AcDbEntity
8
1
6
CONTINUOUS
62
5
100
AcDb2dPolyline
66
1
10
0.0
20
0.0
30
0.0
70
1
0
VERTEX
5
403
100
AcDbEntity
8
1
100
AcDbVertex
100
AcDb2dVertex
62
5
10
129.306373
20
-174.699077
0
VERTEX
5
404
100
AcDbEntity
8
1
100
AcDbVertex
100
AcDb2dVertex
62
5
10
129.061590
20
-174.087119
0
VERTEX
5
405
100
AcDbEntity
8
1
100
AcDbVertex
100
AcDb2dVertex
62
5
10
129.197955
20
-174.032572
0
VERTEX
5
406
100
AcDbEntity
8
1
100
AcDbVertex
100
AcDb2dVertex
62
5
10
129.442739
20
-174.644531
0
SEQEND
5
407
100
AcDbEntity
8
1
0
POLYLINE
5
408
100
AcDbEntity
8
1
6
CONTINUOUS
62
5
100
AcDb2dPolyline
66
1
10
0.0
20
0.0
30
0.0
70
1
0
VERTEX
5
409
100
AcDbEntity
8
1
100
AcDbVertex
100
AcDb2dVertex
62
5
10
128.080973
20
-174.770973
0
VERTEX
5
40a
100
AcDbEntity
8
1
100
AcDbVertex
100
AcDb2dVertex
62
5
10
128.325756
20
-174.036623
0
VERTEX
5
40b
100
AcDbEntity
8
1
100
AcDbVertex
100
AcDb2dVertex
62
5
10
128.465090
20
-174.083068
0
VERTEX
5
40c
100
AcDbEntity
8
1
100
AcDbVertex
100
AcDb2dVertex
62
5
10
128.220306
20
-174.817417
0
SEQEND
5
40d
100
AcDbEntity
8
1
0
POLYLINE
5
40e
100
AcDbEntity
8
1
6
CONTINUOUS
62
5
100
AcDb2dPolyline
66
1
10
0.0
20
0.0
30
0.0
70
1
0
VERTEX
5
40f
100
AcDbEntity
8
1
100
AcDbVertex
100
AcDb2dVertex
62
5
10
132.964993
20
-174.348129
0
VERTEX
5
410
100
AcDbEntity
8
1
100
AcDbVertex
100
AcDb2dVertex
62
5
10
131.977434
20
-175.335688
0
VERTEX
5
411
100
AcDbEntity
8
1
100
AcDbVertex
100
AcDb2dVertex
62
5
10
131.873581
20
-175.231835
0
VERTEX
5
412
100
AcDbEntity
8
1
100
AcDbVertex
100
AcDb2dVertex
62
5
10
132.844287
20
-174.261129
0
VERTEX
5
413
100
AcDbEntity
8
1
100
AcDbVertex
100
AcDb2dVertex
62
5
10
133.443163
20
-173.063377
0
VERTEX
5
414
100
AcDbEntity
8
1
100
AcDbVertex
100
AcDb2dVertex
62
5
10
133.443163
20
-172.297406
0
VERTEX
5
415
100
AcDbEntity
8
1
100
AcDbVertex
100
AcDb2dVertex
62
5
10
132.659857
20
-172.297406
0
VERTEX
5
416
100
AcDbEntity
8
1
100
AcDbVertex
100
AcDb2dVertex
62
5
10
132.659857
20
-172.150536
0
VERTEX
5
417
100
AcDbEntity
8
1
100
AcDbVertex
100
AcDb2dVertex
62
5
10
133.590033
20
-172.150536
0
VERTEX
5
418
100
AcDbEntity
8
1
100
AcDbVertex
100
AcDb2dVertex
62
5
10
133.590033
20
-173.065640
0
VERTEX
5
419
100
AcDbEntity
8
1
100
AcDbVertex
100
AcDb2dVertex
62
5
10
133.948144
20
-173.901230
0
VERTEX
5
41a
100
AcDbEntity
8
1
100
AcDbVertex
100
AcDb2dVertex
62
5
10
134.547665
20
-174.740560
0
VERTEX
5
41b
100
AcDbEntity
8
1
100
AcDbVertex
100
AcDb2dVertex
62
5
10
135.270815
20
-175.222660
0
VERTEX
5
41c
100
AcDbEntity
8
1
100
AcDbVertex
100
AcDb2dVertex
62
5
10
135.189347
20
-175.344863
0
VERTEX
5
41d
100
AcDbEntity
8
1
100
AcDbVertex
100
AcDb2dVertex
62
5
10
134.443798
20
-174.847831
0
VERTEX
5
41e
100
AcDbEntity
8
1
100
AcDbVertex
100
AcDb2dVertex
62
5
10
133.819403
20
-173.973678
0
VERTEX
5
41f
100
AcDbEntity
8
1
100
AcDbVertex
100
AcDb2dVertex
62
5
10
133.511472
20
-173.255172
0
SEQEND
5
420
100
AcDbEntity
8
1
0
CIRCLE
5
421
100
AcDbEntity
8
1
100
AcDbCircle
6
CONTINUOUS
62
5
10
104.579185
20
-177.979185
40
0.500000
0
POLYLINE
5
422
100
AcDbEntity
8
1
6
CONTINUOUS
62
5
100
AcDb2dPolyline
66
1
10
0.0
20
0.0
30
0.0
70
1
0
VERTEX
5
423
100
AcDbEntity
8
1
100
AcDbVertex
100
AcDb2dVertex
62
5
10
103.985311
20
-172.933895
0
VERTEX
5
424
100
AcDbEntity
8
1
100
AcDbVertex
100
AcDb2dVertex
62
5
10
103.294150
20
-172.933895
0
VERTEX
5
425
100
AcDbEntity
8
1
100
AcDbVertex
100
AcDb2dVertex
62
5
10
103.294150
20
-172.788388
0
VERTEX
5
426
100
AcDbEntity
8
1
100
AcDbVertex
100
AcDb2dVertex
62
5
10
105.276690
20
-172.788388
0
VERTEX
5
427
100
AcDbEntity
8
1
100
AcDbVertex
100
AcDb2dVertex
62
5
10
105.276690
20
-175.037372
0
VERTEX
5
428
100
AcDbEntity
8
1
100
AcDbVertex
100
AcDb2dVertex
62
5
10
105.136107
20
-175.459119
0
VERTEX
5
429
100
AcDbEntity
8
1
100
AcDbVertex
100
AcDb2dVertex
62
5
10
104.839154
20
-175.607595
0
VERTEX
5
42a
100
AcDbEntity
8
1
100
AcDbVertex
100
AcDb2dVertex
62
5
10
104.312702
20
-175.607595
0
VERTEX
5
42b
100
AcDbEntity
8
1
100
AcDbVertex
100
AcDb2dVertex
62
5
10
104.312702
20
-175.462088
0
VERTEX
5
42c
100
AcDbEntity
8
1
100
AcDbVertex
100
AcDb2dVertex
62
5
10
104.804804
20
-175.462088
0
VERTEX
5
42d
100
AcDbEntity
8
1
100
AcDbVertex
100
AcDb2dVertex
62
5
10
105.017126
20
-175.355927
0
VERTEX
5
42e
100
AcDbEntity
8
1
100
AcDbVertex
100
AcDb2dVertex
62
5
10
105.131182
20
-175.013759
0
VERTEX
5
42f
100
AcDbEntity
8
1
100
AcDbVertex
100
AcDb2dVertex
62
5
10
105.131182
20
-172.933895
0
VERTEX
5
430
100
AcDbEntity
8
1
100
AcDbVertex
100
AcDb2dVertex
62
5
10
104.130818
20
-172.933895
0
VERTEX
5
431
100
AcDbEntity
8
1
100
AcDbVertex
100
AcDb2dVertex
62
5
10
104.130818
20
-174.402981
0
VERTEX
5
432
100
AcDbEntity
8
1
100
AcDbVertex
100
AcDb2dVertex
62
5
10
103.867403
20
-175.061520
0
VERTEX
5
433
100
AcDbEntity
8
1
100
AcDbVertex
100
AcDb2dVertex
62
5
10
103.471121
20
-175.589895
0
VERTEX
5
434
100
AcDbEntity
8
1
100
AcDbVertex
100
AcDb2dVertex
62
5
10
102.822305
20
-175.979185
0
VERTEX
5
435
100
AcDbEntity
8
1
100
AcDbVertex
100
AcDb2dVertex
62
5
10
102.747442
20
-175.854413
0
VERTEX
5
436
100
AcDbEntity
8
1
100
AcDbVertex
100
AcDb2dVertex
62
5
10
103.371817
20
-175.479788
0
VERTEX
5
437
100
AcDbEntity
8
1
100
AcDbVertex
100
AcDb2dVertex
62
5
10
103.739450
20
-174.989611
0
VERTEX
5
438
100
AcDbEntity
8
1
100
AcDbVertex
100
AcDb2dVertex
62
5
10
103.985311
20
-174.374959
0
SEQEND
5
439
100
AcDbEntity
8
1
0
POLYLINE
5
43a
100
AcDbEntity
8
1
6
CONTINUOUS
62
5
100
AcDb2dPolyline
66
1
10
0.0
20
0.0
30
0.0
70
1
0
VERTEX
5
43b
100
AcDbEntity
8
1
100
AcDbVertex
100
AcDb2dVertex
62
5
10
102.330163
20
-173.626060
0
VERTEX
5
43c
100
AcDbEntity
8
1
100
AcDbVertex
100
AcDb2dVertex
62
5
10
101.905601
20
-173.696820
0
VERTEX
5
43d
100
AcDbEntity
8
1
100
AcDbVertex
100
AcDb2dVertex
62
5
10
101.881680
20
-173.553292
0
VERTEX
5
43e
100
AcDbEntity
8
1
100
AcDbVertex
100
AcDb2dVertex
62
5
10
102.330163
20
-173.478545
0
VERTEX
5
43f
100
AcDbEntity
8
1
100
AcDbVertex
100
AcDb2dVertex
62
5
10
102.330163
20
-172.479185
0
VERTEX
5
440
100
AcDbEntity
8
1
100
AcDbVertex
100
AcDb2dVertex
62
5
10
102.475670
20
-172.479185
0
VERTEX
5
441
100
AcDbEntity
8
1
100
AcDbVertex
100
AcDb2dVertex
62
5
10
102.475670
20
-173.454294
0
VERTEX
5
442
100
AcDbEntity
8
1
100
AcDbVertex
100
AcDb2dVertex
62
5
10
102.637837
20
-173.427266
0
VERTEX
5
443
100
AcDbEntity
8
1
100
AcDbVertex
100
AcDb2dVertex
62
5
10
103.267130
20
-173.175549
0
VERTEX
5
444
100
AcDbEntity
8
1
100
AcDbVertex
100
AcDb2dVertex
62
5
10
103.321170
20
-173.310649
0
VERTEX
5
445
100
AcDbEntity
8
1
100
AcDbVertex
100
AcDb2dVertex
62
5
10
102.639023
20
-173.583508
0
VERTEX
5
446
100
AcDbEntity
8
1
100
AcDbVertex
100
AcDb2dVertex
62
5
10
102.475670
20
-173.608745
0
VERTEX
5
447
100
AcDbEntity
8
1
100
AcDbVertex
100
AcDb2dVertex
62
5
10
102.475670
20
-174.740792
0
VERTEX
5
448
100
AcDbEntity
8
1
100
AcDbVertex
100
AcDb2dVertex
62
5
10
102.687690
20
-174.952812
0
VERTEX
5
449
100
AcDbEntity
8
1
100
AcDbVertex
100
AcDb2dVertex
62
5
10
103.237346
20
-174.952812
0
VERTEX
5
44a
100
AcDbEntity
8
1
100
AcDbVertex
100
AcDb2dVertex
62
5
10
103.350888
20
-174.498644
0
VERTEX
5
44b
100
AcDbEntity
8
1
100
AcDbVertex
100
AcDb2dVertex
62
5
10
103.492051
20
-174.533935
0
VERTEX
5
44c
100
AcDbEntity
8
1
100
AcDbVertex
100
AcDb2dVertex
62
5
10
103.350954
20
-175.098319
0
VERTEX
5
44d
100
AcDbEntity
8
1
100
AcDbVertex
100
AcDb2dVertex
62
5
10
102.627419
20
-175.098319
0
VERTEX
5
44e
100
AcDbEntity
8
1
100
AcDbVertex
100
AcDb2dVertex
62
5
10
102.330163
20
-174.801063
0
SEQEND
5
44f
100
AcDbEntity
8
1
0
CIRCLE
5
450
100
AcDbEntity
8
1
100
AcDbCircle
6
CONTINUOUS
62
5
10
116.600000
20
-173.000000
40
0.750000
0
ARC
5
451
100
AcDbEntity
8
1
100
AcDbCircle
6
CONTINUOUS
62
5
10
116.600000
20
-178.750004
40
0.750000
100
AcDbArc
50
35.827087
51
144.172911
0
ARC
5
452
100
AcDbEntity
8
1
100
AcDbCircle
6
CONTINUOUS
62
5
10
98.397828
20
-191.890911
40
23.200000
100
AcDbArc
50
-18.552987
51
35.827087
0
ARC
5
453
100
AcDbEntity
8
1
100
AcDbCircle
6
CONTINUOUS
62
5
10
116.600000
20
-197.999996
40
4.000000
100
AcDbArc
50
-161.447011
51
-18.552987
0
ARC
5
454
100
AcDbEntity
8
1
100
AcDbCircle
6
CONTINUOUS
62
5
10
134.802172
20
-191.890911
40
23.200000
100
AcDbArc
50
144.172911
51
-161.447011
0
ARC
5
455
100
AcDbEntity
8
1
100
AcDbCircle
6
CONTINUOUS
62
5
10
100.702536
20
-190.926761
40
19.900000
100
AcDbArc
50
-23.985644
51
33.885361
0
ARC
5
456
100
AcDbEntity
8
1
100
AcDbCircle
6
CONTINUOUS
62
5
10
116.600000
20
-197.999996
40
2.500000
100
AcDbArc
50
-156.014354
51
-23.985644
0
ARC
5
457
100
AcDbEntity
8
1
100
AcDbCircle
6
CONTINUOUS
62
5
10
132.497464
20
-190.926761
40
19.900000
100
AcDbArc
50
146.114638
51
-156.014354
0
ARC
5
458
100
AcDbEntity
8
1
100
AcDbCircle
6
CONTINUOUS
62
5
10
116.600000
20
-180.250004
40
0.750000
100
AcDbArc
50
33.885361
51
146.114638
0
CIRCLE
5
459
100
AcDbEntity
8
1
100
AcDbCircle
6
CONTINUOUS
62
5
10
116.600000
20
-190.000000
40
12.999996
0
POLYLINE
5
45a
100
AcDbEntity
8
1
6
DOT2
62
5
100
AcDb2dPolyline
66
1
10
0.0
20
0.0
30
0.0
70
1
0
VERTEX
5
45b
100
AcDbEntity
8
1
100
AcDbVertex
100
AcDb2dVertex
62
5
10
47.850000
20
-185.000000
0
VERTEX
5
45c
100
AcDbEntity
8
1
100
AcDbVertex
100
AcDb2dVertex
62
5
10
47.850000
20
-184.375000
0
VERTEX
5
45d
100
AcDbEntity
8
1
100
AcDbVertex
100
AcDb2dVertex
62
5
10
48.162500
20
-184.062500
0
VERTEX
5
45e
100
AcDbEntity
8
1
100
AcDbVertex
100
AcDb2dVertex
62
5
10
49.412500
20
-183.437500
0
VERTEX
5
45f
100
AcDbEntity
8
1
100
AcDbVertex
100
AcDb2dVertex
62
5
10
50.662500
20
-183.125000
0
VERTEX
5
460
100
AcDbEntity
8
1
100
AcDbVertex
100
AcDb2dVertex
62
5
10
52.537500
20
-183.125000
0
VERTEX
5
461
100
AcDbEntity
8
1
100
AcDbVertex
100
AcDb2dVertex
62
5
10
53.787500
20
-183.437500
0
VERTEX
5
462
100
AcDbEntity
8
1
100
AcDbVertex
100
AcDb2dVertex
62
5
10
55.037500
20
-184.062500
0
VERTEX
5
463
100
AcDbEntity
8
1
100
AcDbVertex
100
AcDb2dVertex
62
5
10
55.350000
20
-184.375000
0
VERTEX
5
464
100
AcDbEntity
8
1
100
AcDbVertex
100
AcDb2dVertex
62
5
10
55.350000
20
-185.000000
0
VERTEX
5
465
100
AcDbEntity
8
1
100
AcDbVertex
100
AcDb2dVertex
62
5
10
55.037500
20
-185.312500
0
VERTEX
5
466
100
AcDbEntity
8
1
100
AcDbVertex
100
AcDb2dVertex
62
5
10
53.787500
20
-185.937500
0
VERTEX
5
467
100
AcDbEntity
8
1
100
AcDbVertex
100
AcDb2dVertex
62
5
10
52.537500
20
-186.250000
0
VERTEX
5
468
100
AcDbEntity
8
1
100
AcDbVertex
100
AcDb2dVertex
62
5
10
50.662500
20
-186.250000
0
VERTEX
5
469
100
AcDbEntity
8
1
100
AcDbVertex
100
AcDb2dVertex
62
5
10
49.412500
20
-185.937500
0
VERTEX
5
46a
100
AcDbEntity
8
1
100
AcDbVertex
100
AcDb2dVertex
62
5
10
48.162500
20
-185.312500
0
VERTEX
5
46b
100
AcDbEntity
8
1
100
AcDbVertex
100
AcDb2dVertex
62
5
10
47.850000
20
-185.000000
0
SEQEND
5
46c
100
AcDbEntity
8
1
0
POLYLINE
5
46d
100
AcDbEntity
8
1
6
DOT2
62
5
100
AcDb2dPolyline
66
1
10
0.0
20
0.0
30
0.0
70
0
0
VERTEX
5
46e
100
AcDbEntity
8
1
100
AcDbVertex
100
AcDb2dVertex
62
5
10
48.475000
20
-195.625000
0
VERTEX
5
46f
100
AcDbEntity
8
1
100
AcDbVertex
100
AcDb2dVertex
62
5
10
47.850000
20
-194.687500
0
VERTEX
5
470
100
AcDbEntity
8
1
100
AcDbVertex
100
AcDb2dVertex
62
5
10
55.350000
20
-194.687500
0
SEQEND
5
471
100
AcDbEntity
8
1
0
LINE
5
472
100
AcDbEntity
8
1
100
AcDbLine
6
DOT2
62
5
10
55.350000
20
-195.312500
11
55.350000
21
-194.062500
0
POLYLINE
5
473
100
AcDbEntity
8
1
6
DOT2
62
5
100
AcDb2dPolyline
66
1
10
0.0
20
0.0
30
0.0
70
0
0
VERTEX
5
474
100
AcDbEntity
8
1
100
AcDbVertex
100
AcDb2dVertex
62
5
10
50.037500
20
-191.250000
0
VERTEX
5
475
100
AcDbEntity
8
1
100
AcDbVertex
100
AcDb2dVertex
62
5
10
48.475000
20
-190.937500
0
VERTEX
5
476
100
AcDbEntity
8
1
100
AcDbVertex
100
AcDb2dVertex
62
5
10
47.850000
20
-190.000000
0
VERTEX
5
477
100
AcDbEntity
8
1
100
AcDbVertex
100
AcDb2dVertex
62
5
10
47.850000
20
-189.062500
0
VERTEX
5
478
100
AcDbEntity
8
1
100
AcDbVertex
100
AcDb2dVertex
62
5
10
48.162500
20
-188.437500
0
VERTEX
5
479
100
AcDbEntity
8
1
100
AcDbVertex
100
AcDb2dVertex
62
5
10
49.100000
20
-188.125000
0
VERTEX
5
47a
100
AcDbEntity
8
1
100
AcDbVertex
100
AcDb2dVertex
62
5
10
50.037500
20
-188.125000
0
VERTEX
5
47b
100
AcDbEntity
8
1
100
AcDbVertex
100
AcDb2dVertex
62
5
10
50.975000
20
-188.437500
0
VERTEX
5
47c
100
AcDbEntity
8
1
100
AcDbVertex
100
AcDb2dVertex
62
5
10
55.350000
20
-191.250000
0
VERTEX
5
47d
100
AcDbEntity
8
1
100
AcDbVertex
100
AcDb2dVertex
62
5
10
55.350000
20
-188.125000
0
VERTEX
5
47e
100
AcDbEntity
8
1
100
AcDbVertex
100
AcDb2dVertex
62
5
10
54.412500
20
-188.125000
0
SEQEND
5
47f
100
AcDbEntity
8
1
0
POLYLINE
5
480
100
AcDbEntity
8
1
6
CONTINUOUS
62
5
100
AcDb2dPolyline
66
1
10
0.0
20
0.0
30
0.0
70
0
0
VERTEX
5
481
100
AcDbEntity
8
1
100
AcDbVertex
100
AcDb2dVertex
62
5
10
147.500000
20
-311.750000
0
VERTEX
5
482
100
AcDbEntity
8
1
100
AcDbVertex
100
AcDb2dVertex
62
5
10
149.062500
20
-304.250000
0
VERTEX
5
483
100
AcDbEntity
8
1
100
AcDbVertex
100
AcDb2dVertex
62
5
10
150.625000
20
-311.750000
0
SEQEND
5
484
100
AcDbEntity
8
1
0
LINE
5
485
100
AcDbEntity
8
1
100
AcDbLine
6
CONTINUOUS
62
5
10
148.125000
20
-309.250000
11
150.000000
21
-309.250000
0
POLYLINE
5
486
100
AcDbEntity
8
1
6
CONTINUOUS
62
5
100
AcDb2dPolyline
66
1
10
0.0
20
0.0
30
0.0
70
0
0
VERTEX
5
487
100
AcDbEntity
8
1
100
AcDbVertex
100
AcDb2dVertex
62
5
10
155.625000
20
-305.812500
0
VERTEX
5
488
100
AcDbEntity
8
1
100
AcDbVertex
100
AcDb2dVertex
62
5
10
155.312500
20
-304.875000
0
VERTEX
5
489
100
AcDbEntity
8
1
100
AcDbVertex
100
AcDb2dVertex
62
5
10
154.687500
20
-304.250000
0
VERTEX
5
48a
100
AcDbEntity
8
1
100
AcDbVertex
100
AcDb2dVertex
62
5
10
153.750000
20
-304.250000
0
VERTEX
5
48b
100
AcDbEntity
8
1
100
AcDbVertex
100
AcDb2dVertex
62
5
10
152.812500
20
-305.187500
0
VERTEX
5
48c
100
AcDbEntity
8
1
100
AcDbVertex
100
AcDb2dVertex
62
5
10
152.500000
20
-306.750000
0
VERTEX
5
48d
100
AcDbEntity
8
1
100
AcDbVertex
100
AcDb2dVertex
62
5
10
152.500000
20
-309.250000
0
VERTEX
5
48e
100
AcDbEntity
8
1
100
AcDbVertex
100
AcDb2dVertex
62
5
10
152.812500
20
-310.812500
0
VERTEX
5
48f
100
AcDbEntity
8
1
100
AcDbVertex
100
AcDb2dVertex
62
5
10
153.750000
20
-311.750000
0
VERTEX
5
490
100
AcDbEntity
8
1
100
AcDbVertex
100
AcDb2dVertex
62
5
10
154.687500
20
-311.750000
0
VERTEX
5
491
100
AcDbEntity
8
1
100
AcDbVertex
100
AcDb2dVertex
62
5
10
155.312500
20
-311.125000
0
VERTEX
5
492
100
AcDbEntity
8
1
100
AcDbVertex
100
AcDb2dVertex
62
5
10
155.937500
20
-309.562500
0
SEQEND
5
493
100
AcDbEntity
8
1
0
POLYLINE
5
494
100
AcDbEntity
8
1
6
CONTINUOUS
62
5
100
AcDb2dPolyline
66
1
10
0.0
20
0.0
30
0.0
70
0
0
VERTEX
5
495
100
AcDbEntity
8
1
100
AcDbVertex
100
AcDb2dVertex
62
5
10
122.500000
20
-306.125000
0
VERTEX
5
496
100
AcDbEntity
8
1
100
AcDbVertex
100
AcDb2dVertex
62
5
10
122.812500
20
-304.875000
0
VERTEX
5
497
100
AcDbEntity
8
1
100
AcDbVertex
100
AcDb2dVertex
62
5
10
123.437500
20
-304.250000
0
VERTEX
5
498
100
AcDbEntity
8
1
100
AcDbVertex
100
AcDb2dVertex
62
5
10
124.375000
20
-304.250000
0
VERTEX
5
499
100
AcDbEntity
8
1
100
AcDbVertex
100
AcDb2dVertex
62
5
10
125.000000
20
-304.562500
0
VERTEX
5
49a
100
AcDbEntity
8
1
100
AcDbVertex
100
AcDb2dVertex
62
5
10
125.312500
20
-305.500000
0
VERTEX
5
49b
100
AcDbEntity
8
1
100
AcDbVertex
100
AcDb2dVertex
62
5
10
125.312500
20
-306.750000
0
VERTEX
5
49c
100
AcDbEntity
8
1
100
AcDbVertex
100
AcDb2dVertex
62
5
10
125.000000
20
-307.375000
0
VERTEX
5
49d
100
AcDbEntity
8
1
100
AcDbVertex
100
AcDb2dVertex
62
5
10
124.375000
20
-308.000000
0
VERTEX
5
49e
100
AcDbEntity
8
1
100
AcDbVertex
100
AcDb2dVertex
62
5
10
123.437500
20
-308.000000
0
SEQEND
5
49f
100
AcDbEntity
8
1
0
POLYLINE
5
4a0
100
AcDbEntity
8
1
6
CONTINUOUS
62
5
100
AcDb2dPolyline
66
1
10
0.0
20
0.0
30
0.0
70
0
0
VERTEX
5
4a1
100
AcDbEntity
8
1
100
AcDbVertex
100
AcDb2dVertex
62
5
10
124.375000
20
-308.000000
0
VERTEX
5
4a2
100
AcDbEntity
8
1
100
AcDbVertex
100
AcDb2dVertex
62
5
10
125.312500
20
-308.625000
0
VERTEX
5
4a3
100
AcDbEntity
8
1
100
AcDbVertex
100
AcDb2dVertex
62
5
10
125.625000
20
-309.562500
0
VERTEX
5
4a4
100
AcDbEntity
8
1
100
AcDbVertex
100
AcDb2dVertex
62
5
10
125.625000
20
-310.500000
0
VERTEX
5
4a5
100
AcDbEntity
8
1
100
AcDbVertex
100
AcDb2dVertex
62
5
10
125.312500
20
-311.125000
0
VERTEX
5
4a6
100
AcDbEntity
8
1
100
AcDbVertex
100
AcDb2dVertex
62
5
10
124.375000
20
-311.750000
0
VERTEX
5
4a7
100
AcDbEntity
8
1
100
AcDbVertex
100
AcDb2dVertex
62
5
10
123.437500
20
-311.750000
0
VERTEX
5
4a8
100
AcDbEntity
8
1
100
AcDbVertex
100
AcDb2dVertex
62
5
10
122.812500
20
-311.437500
0
VERTEX
5
4a9
100
AcDbEntity
8
1
100
AcDbVertex
100
AcDb2dVertex
62
5
10
122.187500
20
-310.500000
0
SEQEND
5
4aa
100
AcDbEntity
8
1
0
POLYLINE
5
4ab
100
AcDbEntity
8
1
6
CONTINUOUS
62
5
100
AcDb2dPolyline
66
1
10
0.0
20
0.0
30
0.0
70
1
0
VERTEX
5
4ac
100
AcDbEntity
8
1
100
AcDbVertex
100
AcDb2dVertex
62
5
10
128.750000
20
-304.250000
0
VERTEX
5
4ad
100
AcDbEntity
8
1
100
AcDbVertex
100
AcDb2dVertex
62
5
10
129.375000
20
-304.250000
0
VERTEX
5
4ae
100
AcDbEntity
8
1
100
AcDbVertex
100
AcDb2dVertex
62
5
10
129.687500
20
-304.562500
0
VERTEX
5
4af
100
AcDbEntity
8
1
100
AcDbVertex
100
AcDb2dVertex
62
5
10
130.312500
20
-305.812500
0
VERTEX
5
4b0
100
AcDbEntity
8
1
100
AcDbVertex
100
AcDb2dVertex
62
5
10
130.625000
20
-307.062500
0
VERTEX
5
4b1
100
AcDbEntity
8
1
100
AcDbVertex
100
AcDb2dVertex
62
5
10
130.625000
20
-308.937500
0
VERTEX
5
4b2
100
AcDbEntity
8
1
100
AcDbVertex
100
AcDb2dVertex
62
5
10
130.312500
20
-310.187500
0
VERTEX
5
4b3
100
AcDbEntity
8
1
100
AcDbVertex
100
AcDb2dVertex
62
5
10
129.687500
20
-311.437500
0
VERTEX
5
4b4
100
AcDbEntity
8
1
100
AcDbVertex
100
AcDb2dVertex
62
5
10
129.375000
20
-311.750000
0
VERTEX
5
4b5
100
AcDbEntity
8
1
100
AcDbVertex
100
AcDb2dVertex
62
5
10
128.750000
20
-311.750000
0
VERTEX
5
4b6
100
AcDbEntity
8
1
100
AcDbVertex
100
AcDb2dVertex
62
5
10
128.437500
20
-311.437500
0
VERTEX
5
4b7
100
AcDbEntity
8
1
100
AcDbVertex
100
AcDb2dVertex
62
5
10
127.812500
20
-310.187500
0
VERTEX
5
4b8
100
AcDbEntity
8
1
100
AcDbVertex
100
AcDb2dVertex
62
5
10
127.500000
20
-308.937500
0
VERTEX
5
4b9
100
AcDbEntity
8
1
100
AcDbVertex
100
AcDb2dVertex
62
5
10
127.500000
20
-307.062500
0
VERTEX
5
4ba
100
AcDbEntity
8
1
100
AcDbVertex
100
AcDb2dVertex
62
5
10
127.812500
20
-305.812500
0
VERTEX
5
4bb
100
AcDbEntity
8
1
100
AcDbVertex
100
AcDb2dVertex
62
5
10
128.437500
20
-304.562500
0
VERTEX
5
4bc
100
AcDbEntity
8
1
100
AcDbVertex
100
AcDb2dVertex
62
5
10
128.750000
20
-304.250000
0
SEQEND
5
4bd
100
AcDbEntity
8
1
0
POLYLINE
5
4be
100
AcDbEntity
8
1
6
CONTINUOUS
62
5
100
AcDb2dPolyline
66
1
10
0.0
20
0.0
30
0.0
70
1
0
VERTEX
5
4bf
100
AcDbEntity
8
1
100
AcDbVertex
100
AcDb2dVertex
62
5
10
133.750000
20
-304.250000
0
VERTEX
5
4c0
100
AcDbEntity
8
1
100
AcDbVertex
100
AcDb2dVertex
62
5
10
134.375000
20
-304.250000
0
VERTEX
5
4c1
100
AcDbEntity
8
1
100
AcDbVertex
100
AcDb2dVertex
62
5
10
134.687500
20
-304.562500
0
VERTEX
5
4c2
100
AcDbEntity
8
1
100
AcDbVertex
100
AcDb2dVertex
62
5
10
135.312500
20
-305.812500
0
VERTEX
5
4c3
100
AcDbEntity
8
1
100
AcDbVertex
100
AcDb2dVertex
62
5
10
135.625000
20
-307.062500
0
VERTEX
5
4c4
100
AcDbEntity
8
1
100
AcDbVertex
100
AcDb2dVertex
62
5
10
135.625000
20
-308.937500
0
VERTEX
5
4c5
100
AcDbEntity
8
1
100
AcDbVertex
100
AcDb2dVertex
62
5
10
135.312500
20
-310.187500
0
VERTEX
5
4c6
100
AcDbEntity
8
1
100
AcDbVertex
100
AcDb2dVertex
62
5
10
134.687500
20
-311.437500
0
VERTEX
5
4c7
100
AcDbEntity
8
1
100
AcDbVertex
100
AcDb2dVertex
62
5
10
134.375000
20
-311.750000
0
VERTEX
5
4c8
100
AcDbEntity
8
1
100
AcDbVertex
100
AcDb2dVertex
62
5
10
133.750000
20
-311.750000
0
VERTEX
5
4c9
100
AcDbEntity
8
1
100
AcDbVertex
100
AcDb2dVertex
62
5
10
133.437500
20
-311.437500
0
VERTEX
5
4ca
100
AcDbEntity
8
1
100
AcDbVertex
100
AcDb2dVertex
62
5
10
132.812500
20
-310.187500
0
VERTEX
5
4cb
100
AcDbEntity
8
1
100
AcDbVertex
100
AcDb2dVertex
62
5
10
132.500000
20
-308.937500
0
VERTEX
5
4cc
100
AcDbEntity
8
1
100
AcDbVertex
100
AcDb2dVertex
62
5
10
132.500000
20
-307.062500
0
VERTEX
5
4cd
100
AcDbEntity
8
1
100
AcDbVertex
100
AcDb2dVertex
62
5
10
132.812500
20
-305.812500
0
VERTEX
5
4ce
100
AcDbEntity
8
1
100
AcDbVertex
100
AcDb2dVertex
62
5
10
133.437500
20
-304.562500
0
VERTEX
5
4cf
100
AcDbEntity
8
1
100
AcDbVertex
100
AcDb2dVertex
62
5
10
133.750000
20
-304.250000
0
SEQEND
5
4d0
100
AcDbEntity
8
1
0
POLYLINE
5
4d1
100
AcDbEntity
8
1
6
CONTINUOUS
62
5
100
AcDb2dPolyline
66
1
10
0.0
20
0.0
30
0.0
70
0
0
VERTEX
5
4d2
100
AcDbEntity
8
1
100
AcDbVertex
100
AcDb2dVertex
62
5
10
137.500000
20
-304.250000
0
VERTEX
5
4d3
100
AcDbEntity
8
1
100
AcDbVertex
100
AcDb2dVertex
62
5
10
139.062500
20
-311.750000
0
VERTEX
5
4d4
100
AcDbEntity
8
1
100
AcDbVertex
100
AcDb2dVertex
62
5
10
140.625000
20
-304.250000
0
SEQEND
5
4d5
100
AcDbEntity
8
1
0
POLYLINE
5
4d6
100
AcDbEntity
8
1
6
CONTINUOUS
62
5
100
AcDb2dPolyline
66
1
10
0.0
20
0.0
30
0.0
70
0
0
VERTEX
5
4d7
100
AcDbEntity
8
1
100
AcDbVertex
100
AcDb2dVertex
62
5
10
103.125000
20
-304.875000
0
VERTEX
5
4d8
100
AcDbEntity
8
1
100
AcDbVertex
100
AcDb2dVertex
62
5
10
104.062500
20
-304.250000
0
VERTEX
5
4d9
100
AcDbEntity
8
1
100
AcDbVertex
100
AcDb2dVertex
62
5
10
104.062500
20
-311.750000
0
SEQEND
5
4da
100
AcDbEntity
8
1
0
LINE
5
4db
100
AcDbEntity
8
1
100
AcDbLine
6
CONTINUOUS
62
5
10
103.437500
20
-311.750000
11
104.687500
21
-311.750000
0
LINE
5
4dc
100
AcDbEntity
8
1
100
AcDbLine
6
CONTINUOUS
62
5
10
107.500000
20
-304.250000
11
110.312500
21
-304.250000
0
POLYLINE
5
4dd
100
AcDbEntity
8
1
6
CONTINUOUS
62
5
100
AcDb2dPolyline
66
1
10
0.0
20
0.0
30
0.0
70
0
0
VERTEX
5
4de
100
AcDbEntity
8
1
100
AcDbVertex
100
AcDb2dVertex
62
5
10
107.500000
20
-304.250000
0
VERTEX
5
4df
100
AcDbEntity
8
1
100
AcDbVertex
100
AcDb2dVertex
62
5
10
107.500000
20
-308.000000
0
VERTEX
5
4e0
100
AcDbEntity
8
1
100
AcDbVertex
100
AcDb2dVertex
62
5
10
108.125000
20
-307.375000
0
VERTEX
5
4e1
100
AcDbEntity
8
1
100
AcDbVertex
100
AcDb2dVertex
62
5
10
108.750000
20
-307.062500
0
VERTEX
5
4e2
100
AcDbEntity
8
1
100
AcDbVertex
100
AcDb2dVertex
62
5
10
109.687500
20
-307.062500
0
VERTEX
5
4e3
100
AcDbEntity
8
1
100
AcDbVertex
100
AcDb2dVertex
62
5
10
110.312500
20
-307.375000
0
VERTEX
5
4e4
100
AcDbEntity
8
1
100
AcDbVertex
100
AcDb2dVertex
62
5
10
110.625000
20
-308.312500
0
VERTEX
5
4e5
100
AcDbEntity
8
1
100
AcDbVertex
100
AcDb2dVertex
62
5
10
110.625000
20
-310.187500
0
VERTEX
5
4e6
100
AcDbEntity
8
1
100
AcDbVertex
100
AcDb2dVertex
62
5
10
110.000000
20
-311.125000
0
VERTEX
5
4e7
100
AcDbEntity
8
1
100
AcDbVertex
100
AcDb2dVertex
62
5
10
109.062500
20
-311.750000
0
VERTEX
5
4e8
100
AcDbEntity
8
1
100
AcDbVertex
100
AcDb2dVertex
62
5
10
107.500000
20
-311.750000
0
SEQEND
5
4e9
100
AcDbEntity
8
1
0
POLYLINE
5
4ea
100
AcDbEntity
8
1
6
CONTINUOUS
62
5
100
AcDb2dPolyline
66
1
10
0.0
20
0.0
30
0.0
70
0
0
VERTEX
5
4eb
100
AcDbEntity
8
1
100
AcDbVertex
100
AcDb2dVertex
62
5
10
112.500000
20
-311.750000
0
VERTEX
5
4ec
100
AcDbEntity
8
1
100
AcDbVertex
100
AcDb2dVertex
62
5
10
114.062500
20
-304.250000
0
VERTEX
5
4ed
100
AcDbEntity
8
1
100
AcDbVertex
100
AcDb2dVertex
62
5
10
115.625000
20
-311.750000
0
SEQEND
5
4ee
100
AcDbEntity
8
1
0
LINE
5
4ef
100
AcDbEntity
8
1
100
AcDbLine
6
CONTINUOUS
62
5
10
113.125000
20
-309.250000
11
115.000000
21
-309.250000
0
LINE
5
4f0
100
AcDbEntity
8
1
100
AcDbLine
6
CONTINUOUS
62
5
10
117.500000
20
-308.000000
11
120.625000
21
-308.000000
0
LINE
5
4f1
100
AcDbEntity
8
1
100
AcDbLine
6
CONTINUOUS
62
5
10
90.000000
20
-296.000000
11
90.000000
21
-320.000000
0
LINE
5
4f2
100
AcDbEntity
8
1
100
AcDbLine
6
CONTINUOUS
62
5
10
54.687500
20
-303.625000
11
54.687500
21
-304.562500
0
POLYLINE
5
4f3
100
AcDbEntity
8
1
6
CONTINUOUS
62
5
100
AcDb2dPolyline
66
1
10
0.0
20
0.0
30
0.0
70
0
0
VERTEX
5
4f4
100
AcDbEntity
8
1
100
AcDbVertex
100
AcDb2dVertex
62
5
10
50.937500
20
-306.750000
0
VERTEX
5
4f5
100
AcDbEntity
8
1
100
AcDbVertex
100
AcDb2dVertex
62
5
10
50.937500
20
-304.562500
0
VERTEX
5
4f6
100
AcDbEntity
8
1
100
AcDbVertex
100
AcDb2dVertex
62
5
10
58.437500
20
-304.562500
0
VERTEX
5
4f7
100
AcDbEntity
8
1
100
AcDbVertex
100
AcDb2dVertex
62
5
10
58.437500
20
-306.750000
0
SEQEND
5
4f8
100
AcDbEntity
8
1
0
LINE
5
4f9
100
AcDbEntity
8
1
100
AcDbLine
6
CONTINUOUS
62
5
10
51.875000
20
-306.437500
11
57.500000
21
-306.437500
0
LINE
5
4fa
100
AcDbEntity
8
1
100
AcDbLine
6
CONTINUOUS
62
5
10
54.687500
20
-306.437500
11
54.687500
21
-311.750000
0
LINE
5
4fb
100
AcDbEntity
8
1
100
AcDbLine
6
CONTINUOUS
62
5
10
54.687500
20
-308.937500
11
57.500000
21
-308.937500
0
POLYLINE
5
4fc
100
AcDbEntity
8
1
6
CONTINUOUS
62
5
100
AcDb2dPolyline
66
1
10
0.0
20
0.0
30
0.0
70
0
0
VERTEX
5
4fd
100
AcDbEntity
8
1
100
AcDbVertex
100
AcDb2dVertex
62
5
10
52.500000
20
-308.312500
0
VERTEX
5
4fe
100
AcDbEntity
8
1
100
AcDbVertex
100
AcDb2dVertex
62
5
10
52.187500
20
-310.187500
0
VERTEX
5
4ff
100
AcDbEntity
8
1
100
AcDbVertex
100
AcDb2dVertex
62
5
10
51.562500
20
-311.437500
0
VERTEX
5
500
100
AcDbEntity
8
1
100
AcDbVertex
100
AcDb2dVertex
62
5
10
50.625000
20
-312.375000
0
SEQEND
5
501
100
AcDbEntity
8
1
0
POLYLINE
5
502
100
AcDbEntity
8
1
6
CONTINUOUS
62
5
100
AcDb2dPolyline
66
1
10
0.0
20
0.0
30
0.0
70
0
0
VERTEX
5
503
100
AcDbEntity
8
1
100
AcDbVertex
100
AcDb2dVertex
62
5
10
52.187500
20
-310.187500
0
VERTEX
5
504
100
AcDbEntity
8
1
100
AcDbVertex
100
AcDb2dVertex
62
5
10
54.687500
20
-311.750000
0
VERTEX
5
505
100
AcDbEntity
8
1
100
AcDbVertex
100
AcDb2dVertex
62
5
10
55.937500
20
-312.062500
0
VERTEX
5
506
100
AcDbEntity
8
1
100
AcDbVertex
100
AcDb2dVertex
62
5
10
59.062500
20
-312.375000
0
SEQEND
5
507
100
AcDbEntity
8
1
0
LINE
5
508
100
AcDbEntity
8
1
100
AcDbLine
6
CONTINUOUS
62
5
10
70.625000
20
-305.812500
11
73.750000
21
-305.812500
0
LINE
5
509
100
AcDbEntity
8
1
100
AcDbLine
6
CONTINUOUS
62
5
10
72.500000
20
-303.625000
11
72.500000
21
-312.375000
0
POLYLINE
5
50a
100
AcDbEntity
8
1
6
CONTINUOUS
62
5
100
AcDb2dPolyline
66
1
10
0.0
20
0.0
30
0.0
70
0
0
VERTEX
5
50b
100
AcDbEntity
8
1
100
AcDbVertex
100
AcDb2dVertex
62
5
10
72.500000
20
-305.812500
0
VERTEX
5
50c
100
AcDbEntity
8
1
100
AcDbVertex
100
AcDb2dVertex
62
5
10
71.562500
20
-308.000000
0
VERTEX
5
50d
100
AcDbEntity
8
1
100
AcDbVertex
100
AcDb2dVertex
62
5
10
70.625000
20
-309.250000
0
SEQEND
5
50e
100
AcDbEntity
8
1
0
LINE
5
50f
100
AcDbEntity
8
1
100
AcDbLine
6
CONTINUOUS
62
5
10
72.500000
20
-306.750000
11
73.437500
21
-308.000000
0
POLYLINE
5
510
100
AcDbEntity
8
1
6
CONTINUOUS
62
5
100
AcDb2dPolyline
66
1
10
0.0
20
0.0
30
0.0
70
0
0
VERTEX
5
511
100
AcDbEntity
8
1
100
AcDbVertex
100
AcDb2dVertex
62
5
10
75.937500
20
-303.625000
0
VERTEX
5
512
100
AcDbEntity
8
1
100
AcDbVertex
100
AcDb2dVertex
62
5
10
75.312500
20
-304.875000
0
VERTEX
5
513
100
AcDbEntity
8
1
100
AcDbVertex
100
AcDb2dVertex
62
5
10
73.750000
20
-306.750000
0
SEQEND
5
514
100
AcDbEntity
8
1
0
POLYLINE
5
515
100
AcDbEntity
8
1
6
CONTINUOUS
62
5
100
AcDb2dPolyline
66
1
10
0.0
20
0.0
30
0.0
70
0
0
VERTEX
5
516
100
AcDbEntity
8
1
100
AcDbVertex
100
AcDb2dVertex
62
5
10
75.312500
20
-304.875000
0
VERTEX
5
517
100
AcDbEntity
8
1
100
AcDbVertex
100
AcDb2dVertex
62
5
10
78.437500
20
-304.875000
0
VERTEX
5
518
100
AcDbEntity
8
1
100
AcDbVertex
100
AcDb2dVertex
62
5
10
77.500000
20
-306.437500
0
VERTEX
5
519
100
AcDbEntity
8
1
100
AcDbVertex
100
AcDb2dVertex
62
5
10
75.937500
20
-308.000000
0
VERTEX
5
51a
100
AcDbEntity
8
1
100
AcDbVertex
100
AcDb2dVertex
62
5
10
73.750000
20
-309.250000
0
SEQEND
5
51b
100
AcDbEntity
8
1
0
POLYLINE
5
51c
100
AcDbEntity
8
1
6
CONTINUOUS
62
5
100
AcDb2dPolyline
66
1
10
0.0
20
0.0
30
0.0
70
0
0
VERTEX
5
51d
100
AcDbEntity
8
1
100
AcDbVertex
100
AcDb2dVertex
62
5
10
75.312500
20
-304.875000
0
VERTEX
5
51e
100
AcDbEntity
8
1
100
AcDbVertex
100
AcDb2dVertex
62
5
10
75.937500
20
-306.437500
0
VERTEX
5
51f
100
AcDbEntity
8
1
100
AcDbVertex
100
AcDb2dVertex
62
5
10
77.187500
20
-308.000000
0
VERTEX
5
520
100
AcDbEntity
8
1
100
AcDbVertex
100
AcDb2dVertex
62
5
10
78.125000
20
-308.625000
0
VERTEX
5
521
100
AcDbEntity
8
1
100
AcDbVertex
100
AcDb2dVertex
62
5
10
79.375000
20
-309.250000
0
SEQEND
5
522
100
AcDbEntity
8
1
0
POLYLINE
5
523
100
AcDbEntity
8
1
6
CONTINUOUS
62
5
100
AcDb2dPolyline
66
1
10
0.0
20
0.0
30
0.0
70
1
0
VERTEX
5
524
100
AcDbEntity
8
1
100
AcDbVertex
100
AcDb2dVertex
62
5
10
75.000000
20
-309.250000
0
VERTEX
5
525
100
AcDbEntity
8
1
100
AcDbVertex
100
AcDb2dVertex
62
5
10
75.000000
20
-312.062500
0
VERTEX
5
526
100
AcDbEntity
8
1
100
AcDbVertex
100
AcDb2dVertex
62
5
10
78.437500
20
-312.062500
0
VERTEX
5
527
100
AcDbEntity
8
1
100
AcDbVertex
100
AcDb2dVertex
62
5
10
78.437500
20
-309.250000
0
VERTEX
5
528
100
AcDbEntity
8
1
100
AcDbVertex
100
AcDb2dVertex
62
5
10
75.000000
20
-309.250000
0
SEQEND
5
529
100
AcDbEntity
8
1
0
POLYLINE
5
52a
100
AcDbEntity
8
1
6
CONTINUOUS
62
5
100
AcDb2dPolyline
66
1
10
0.0
20
0.0
30
0.0
70
1
0
VERTEX
5
52b
100
AcDbEntity
8
1
100
AcDbVertex
100
AcDb2dVertex
62
5
10
280.000000
20
-320.000000
0
VERTEX
5
52c
100
AcDbEntity
8
1
100
AcDbVertex
100
AcDb2dVertex
62
5
10
280.000000
20
-296.000000
0
VERTEX
5
52d
100
AcDbEntity
8
1
100
AcDbVertex
100
AcDb2dVertex
62
5
10
40.000000
20
-296.000000
0
VERTEX
5
52e
100
AcDbEntity
8
1
100
AcDbVertex
100
AcDb2dVertex
62
5
10
40.000000
20
-320.000000
0
VERTEX
5
52f
100
AcDbEntity
8
1
100
AcDbVertex
100
AcDb2dVertex
62
5
10
280.000000
20
-320.000000
0
SEQEND
5
530
100
AcDbEntity
8
1
0
LINE
5
531
100
AcDbEntity
8
1
100
AcDbLine
6
CONTINUOUS
62
5
10
90.100000
20
-130.000000
11
54.600000
21
-130.000000
0
LINE
5
532
100
AcDbEntity
8
1
100
AcDbLine
6
CONTINUOUS
62
5
10
90.100000
20
-250.000000
11
54.600000
21
-250.000000
0
POLYLINE
5
533
100
AcDbEntity
8
1
6
CONTINUOUS
62
5
100
AcDb2dPolyline
66
1
10
0.0
20
0.0
30
0.0
70
0
0
VERTEX
5
534
100
AcDbEntity
8
1
100
AcDbVertex
100
AcDb2dVertex
62
5
10
56.600000
20
-190.000000
0
VERTEX
5
535
100
AcDbEntity
8
1
100
AcDbVertex
100
AcDb2dVertex
62
5
10
56.600000
20
-250.000000
0
VERTEX
5
536
100
AcDbEntity
8
1
100
AcDbVertex
100
AcDb2dVertex
62
5
10
56.092000
20
-246.952000
0
VERTEX
5
537
100
AcDbEntity
8
1
100
AcDbVertex
100
AcDb2dVertex
62
5
10
57.108000
20
-246.952000
0
VERTEX
5
538
100
AcDbEntity
8
1
100
AcDbVertex
100
AcDb2dVertex
62
5
10
56.600000
20
-250.000000
0
VERTEX
5
539
100
AcDbEntity
8
1
100
AcDbVertex
100
AcDb2dVertex
62
5
10
56.346000
20
-246.952000
0
VERTEX
5
53a
100
AcDbEntity
8
1
100
AcDbVertex
100
AcDb2dVertex
62
5
10
56.854000
20
-246.952000
0
VERTEX
5
53b
100
AcDbEntity
8
1
100
AcDbVertex
100
AcDb2dVertex
62
5
10
56.600000
20
-250.000000
0
SEQEND
5
53c
100
AcDbEntity
8
1
0
POLYLINE
5
53d
100
AcDbEntity
8
1
6
CONTINUOUS
62
5
100
AcDb2dPolyline
66
1
10
0.0
20
0.0
30
0.0
70
0
0
VERTEX
5
53e
100
AcDbEntity
8
1
100
AcDbVertex
100
AcDb2dVertex
62
5
10
56.600000
20
-190.000000
0
VERTEX
5
53f
100
AcDbEntity
8
1
100
AcDbVertex
100
AcDb2dVertex
62
5
10
56.600000
20
-130.000000
0
VERTEX
5
540
100
AcDbEntity
8
1
100
AcDbVertex
100
AcDb2dVertex
62
5
10
57.108000
20
-133.048000
0
VERTEX
5
541
100
AcDbEntity
8
1
100
AcDbVertex
100
AcDb2dVertex
62
5
10
56.092000
20
-133.048000
0
VERTEX
5
542
100
AcDbEntity
8
1
100
AcDbVertex
100
AcDb2dVertex
62
5
10
56.600000
20
-130.000000
0
VERTEX
5
543
100
AcDbEntity
8
1
100
AcDbVertex
100
AcDb2dVertex
62
5
10
56.854000
20
-133.048000
0
VERTEX
5
544
100
AcDbEntity
8
1
100
AcDbVertex
100
AcDb2dVertex
62
5
10
56.346000
20
-133.048000
0
VERTEX
5
545
100
AcDbEntity
8
1
100
AcDbVertex
100
AcDb2dVertex
62
5
10
56.600000
20
-130.000000
0
SEQEND
5
546
100
AcDbEntity
8
1
0
LINE
5
547
100
AcDbEntity
8
1
100
AcDbLine
6
CONTINUOUS
62
5
10
220.200000
20
-128.484559
11
220.200000
21
-102.984559
0
LINE
5
548
100
AcDbEntity
8
1
100
AcDbLine
6
CONTINUOUS
62
5
10
238.400000
20
-179.979238
11
238.400000
21
-102.984559
0
POLYLINE
5
549
100
AcDbEntity
8
1
6
CONTINUOUS
62
5
100
AcDb2dPolyline
66
1
10
0.0
20
0.0
30
0.0
70
0
0
VERTEX
5
54a
100
AcDbEntity
8
1
100
AcDbVertex
100
AcDb2dVertex
62
5
10
269.650000
20
-104.984559
0
VERTEX
5
54b
100
AcDbEntity
8
1
100
AcDbVertex
100
AcDb2dVertex
62
5
10
238.400000
20
-104.984559
0
VERTEX
5
54c
100
AcDbEntity
8
1
100
AcDbVertex
100
AcDb2dVertex
62
5
10
241.448000
20
-104.476559
0
VERTEX
5
54d
100
AcDbEntity
8
1
100
AcDbVertex
100
AcDb2dVertex
62
5
10
241.448000
20
-105.492559
0
VERTEX
5
54e
100
AcDbEntity
8
1
100
AcDbVertex
100
AcDb2dVertex
62
5
10
238.400000
20
-104.984559
0
VERTEX
5
54f
100
AcDbEntity
8
1
100
AcDbVertex
100
AcDb2dVertex
62
5
10
241.448000
20
-104.730559
0
VERTEX
5
550
100
AcDbEntity
8
1
100
AcDbVertex
100
AcDb2dVertex
62
5
10
241.448000
20
-105.238559
0
VERTEX
5
551
100
AcDbEntity
8
1
100
AcDbVertex
100
AcDb2dVertex
62
5
10
238.400000
20
-104.984559
0
SEQEND
5
552
100
AcDbEntity
8
1
0
LINE
5
553
100
AcDbEntity
8
1
100
AcDbLine
6
CONTINUOUS
62
5
10
238.400000
20
-104.984559
11
220.200000
21
-104.984559
0
LINE
5
554
100
AcDbEntity
8
1
100
AcDbLine
6
CONTINUOUS
62
5
10
217.200000
20
-104.984559
11
220.200000
21
-104.984559
0
ARC
5
555
100
AcDbEntity
8
1
100
AcDbCircle
6
CONTINUOUS
62
5
10
236.400000
20
-143.700000
40
26.200000
100
AcDbArc
50
153.806047
51
179.999998
0
ARC
5
556
100
AcDbEntity
8
1
100
AcDbCircle
6
CONTINUOUS
62
5
10
215.582525
20
-133.459262
40
3.000000
100
AcDbArc
50
94.592458
51
153.806047
0
LINE
5
557
100
AcDbEntity
8
1
100
AcDbLine
6
CONTINUOUS
62
5
10
215.342321
20
-130.468894
11
216.200000
21
-130.400000
0
ARC
5
558
100
AcDbEntity
8
1
100
AcDbCircle
6
CONTINUOUS
62
5
10
216.590118
20
-130.488362
40
0.400000
100
AcDbArc
50
91.735704
51
167.237827
0
POLYLINE
5
559
100
AcDbEntity
8
1
6
CONTINUOUS
62
5
100
AcDb2dPolyline
66
1
10
0.0
20
0.0
30
0.0
70
0
0
VERTEX
5
55a
100
AcDbEntity
8
1
100
AcDbVertex
100
AcDb2dVertex
62
5
10
216.578003
20
-130.088545
0
VERTEX
5
55b
100
AcDbEntity
8
1
100
AcDbVertex
100
AcDb2dVertex
62
5
10
220.200000
20
-130.000000
0
VERTEX
5
55c
100
AcDbEntity
8
1
100
AcDbVertex
100
AcDb2dVertex
62
5
10
220.200000
20
-250.000000
0
VERTEX
5
55d
100
AcDbEntity
8
1
100
AcDbVertex
100
AcDb2dVertex
62
5
10
216.578003
20
-249.911455
0
SEQEND
5
55e
100
AcDbEntity
8
1
0
ARC
5
55f
100
AcDbEntity
8
1
100
AcDbCircle
6
CONTINUOUS
62
5
10
216.590118
20
-249.511638
40
0.400000
100
AcDbArc
50
-167.237827
51
-91.735704
0
LINE
5
560
100
AcDbEntity
8
1
100
AcDbLine
6
CONTINUOUS
62
5
10
216.200000
20
-249.600000
11
215.342321
21
-249.531106
0
ARC
5
561
100
AcDbEntity
8
1
100
AcDbCircle
6
CONTINUOUS
62
5
10
215.582525
20
-246.540738
40
3.000000
100
AcDbArc
50
-153.806047
51
-94.592458
0
ARC
5
562
100
AcDbEntity
8
1
100
AcDbCircle
6
CONTINUOUS
62
5
10
236.400000
20
-236.300000
40
26.200000
100
AcDbArc
50
-179.999998
51
-153.806047
0
LINE
5
563
100
AcDbEntity
8
1
100
AcDbLine
6
CONTINUOUS
62
5
10
210.200000
20
-236.300000
11
210.200000
21
-143.700000
0
LINE
5
564
100
AcDbEntity
8
1
100
AcDbLine
6
CONTINUOUS
62
5
10
216.200000
20
-249.600000
11
216.200000
21
-130.400000
0
LINE
5
565
100
AcDbEntity
8
1
100
AcDbLine
6
CONTINUOUS
62
5
10
221.700003
20
-158.800000
11
221.700003
21
-175.700000
0
ARC
5
566
100
AcDbEntity
8
1
100
AcDbCircle
6
CONTINUOUS
62
5
10
227.400000
20
-225.207893
40
0.300000
100
AcDbArc
50
-88.472474
51
0.000000
0
LINE
5
567
100
AcDbEntity
8
1
100
AcDbLine
6
CONTINUOUS
62
5
10
227.700000
20
-225.207893
11
227.700000
21
-154.792107
0
ARC
5
568
100
AcDbEntity
8
1
100
AcDbCircle
6
CONTINUOUS
62
5
10
227.400000
20
-154.792107
40
0.300000
100
AcDbArc
50
0.000000
51
88.472474
0
LINE
5
569
100
AcDbEntity
8
1
100
AcDbLine
6
CONTINUOUS
62
5
10
227.407997
20
-154.492213
11
220.200000
21
-154.300000
0
LINE
5
56a
100
AcDbEntity
8
1
100
AcDbLine
6
CONTINUOUS
62
5
10
220.200000
20
-225.699989
11
227.407997
21
-225.507787
0
ARC
5
56b
100
AcDbEntity
8
1
100
AcDbCircle
6
CONTINUOUS
62
5
10
88.600000
20
-137.000000
40
6.600000
100
AcDbArc
50
89.999999
51
179.999998
0
LINE
5
56c
100
AcDbEntity
8
1
100
AcDbLine
6
CONTINUOUS
62
5
10
88.600000
20
-130.400000
11
144.600000
21
-130.400000
0
ARC
5
56d
100
AcDbEntity
8
1
100
AcDbCircle
6
CONTINUOUS
62
5
10
144.600000
20
-137.000000
40
6.600000
100
AcDbArc
50
0.000000
51
89.999999
0
LINE
5
56e
100
AcDbEntity
8
1
100
AcDbLine
6
CONTINUOUS
62
5
10
151.200000
20
-137.000000
11
151.200000
21
-243.000000
0
ARC
5
56f
100
AcDbEntity
8
1
100
AcDbCircle
6
CONTINUOUS
62
5
10
144.600000
20
-243.000000
40
6.600000
100
AcDbArc
50
-89.999999
51
0.000000
0
LINE
5
570
100
AcDbEntity
8
1
100
AcDbLine
6
CONTINUOUS
62
5
10
144.600000
20
-249.600000
11
88.600000
21
-249.600000
0
ARC
5
571
100
AcDbEntity
8
1
100
AcDbCircle
6
CONTINUOUS
62
5
10
88.600000
20
-243.000000
40
6.600000
100
AcDbArc
50
179.999998
51
-89.999999
0
LINE
5
572
100
AcDbEntity
8
1
100
AcDbLine
6
CONTINUOUS
62
5
10
82.000000
20
-243.000000
11
82.000000
21
-137.000000
0
ARC
5
573
100
AcDbEntity
8
1
100
AcDbCircle
6
CONTINUOUS
62
5
10
88.600000
20
-137.000000
40
7.000000
100
AcDbArc
50
89.999999
51
179.999998
0
LINE
5
574
100
AcDbEntity
8
1
100
AcDbLine
6
CONTINUOUS
62
5
10
81.600000
20
-137.000000
11
81.600000
21
-243.000000
0
ARC
5
575
100
AcDbEntity
8
1
100
AcDbCircle
6
CONTINUOUS
62
5
10
88.600000
20
-243.000000
40
7.000000
100
AcDbArc
50
179.999998
51
-89.999999
0
POLYLINE
5
576
100
AcDbEntity
8
1
6
CONTINUOUS
62
5
100
AcDb2dPolyline
66
1
10
0.0
20
0.0
30
0.0
70
0
0
VERTEX
5
577
100
AcDbEntity
8
1
100
AcDbVertex
100
AcDb2dVertex
62
5
10
88.600000
20
-250.000000
0
VERTEX
5
578
100
AcDbEntity
8
1
100
AcDbVertex
100
AcDb2dVertex
62
5
10
113.100000
20
-250.000000
0
VERTEX
5
579
100
AcDbEntity
8
1
100
AcDbVertex
100
AcDb2dVertex
62
5
10
113.100000
20
-249.968219
0
VERTEX
5
57a
100
AcDbEntity
8
1
100
AcDbVertex
100
AcDb2dVertex
62
5
10
120.100000
20
-249.968219
0
VERTEX
5
57b
100
AcDbEntity
8
1
100
AcDbVertex
100
AcDb2dVertex
62
5
10
120.100000
20
-250.000000
0
VERTEX
5
57c
100
AcDbEntity
8
1
100
AcDbVertex
100
AcDb2dVertex
62
5
10
144.600000
20
-250.000000
0
SEQEND
5
57d
100
AcDbEntity
8
1
0
ARC
5
57e
100
AcDbEntity
8
1
100
AcDbCircle
6
CONTINUOUS
62
5
10
144.600000
20
-243.000000
40
7.000000
100
AcDbArc
50
-89.999999
51
0.000000
0
LINE
5
57f
100
AcDbEntity
8
1
100
AcDbLine
6
CONTINUOUS
62
5
10
151.600000
20
-243.000000
11
151.600000
21
-137.000000
0
ARC
5
580
100
AcDbEntity
8
1
100
AcDbCircle
6
CONTINUOUS
62
5
10
144.600000
20
-137.000000
40
7.000000
100
AcDbArc
50
0.000000
51
89.999999
0
LINE
5
581
100
AcDbEntity
8
1
100
AcDbLine
6
CONTINUOUS
62
5
10
144.600000
20
-130.000000
11
88.600000
21
-130.000000
0
ARC
5
582
100
AcDbEntity
8
1
100
AcDbCircle
6
CONTINUOUS
62
5
10
88.600000
20
-137.000000
40
6.600000
100
AcDbArc
50
89.999999
51
179.999998
0
LINE
5
583
100
AcDbEntity
8
1
100
AcDbLine
6
CONTINUOUS
62
5
10
88.600000
20
-130.400000
11
144.600000
21
-130.400000
0
ARC
5
584
100
AcDbEntity
8
1
100
AcDbCircle
6
CONTINUOUS
62
5
10
144.600000
20
-137.000000
40
6.600000
100
AcDbArc
50
0.000000
51
89.999999
0
LINE
5
585
100
AcDbEntity
8
1
100
AcDbLine
6
CONTINUOUS
62
5
10
151.200000
20
-137.000000
11
151.200000
21
-243.000000
0
ARC
5
586
100
AcDbEntity
8
1
100
AcDbCircle
6
CONTINUOUS
62
5
10
144.600000
20
-243.000000
40
6.600000
100
AcDbArc
50
-89.999999
51
0.000000
0
LINE
5
587
100
AcDbEntity
8
1
100
AcDbLine
6
CONTINUOUS
62
5
10
144.600000
20
-249.600000
11
88.600000
21
-249.600000
0
ARC
5
588
100
AcDbEntity
8
1
100
AcDbCircle
6
CONTINUOUS
62
5
10
88.600000
20
-243.000000
40
6.600000
100
AcDbArc
50
179.999998
51
-89.999999
0
LINE
5
589
100
AcDbEntity
8
1
100
AcDbLine
6
CONTINUOUS
62
5
10
82.000000
20
-243.000000
11
82.000000
21
-137.000000
0
ARC
5
58a
100
AcDbEntity
8
1
100
AcDbCircle
6
CONTINUOUS
62
5
10
137.900000
20
-144.600000
40
0.700000
100
AcDbArc
50
0.000000
51
89.999999
0
LINE
5
58b
100
AcDbEntity
8
1
100
AcDbLine
6
CONTINUOUS
62
5
10
137.900000
20
-143.900000
11
95.300000
21
-143.900000
0
ARC
5
58c
100
AcDbEntity
8
1
100
AcDbCircle
6
CONTINUOUS
62
5
10
95.300000
20
-144.600000
40
0.700000
100
AcDbArc
50
89.999999
51
179.999998
0
LINE
5
58d
100
AcDbEntity
8
1
100
AcDbLine
6
CONTINUOUS
62
5
10
94.600000
20
-144.600000
11
94.600000
21
-235.400000
0
ARC
5
58e
100
AcDbEntity
8
1
100
AcDbCircle
6
CONTINUOUS
62
5
10
95.300000
20
-235.400000
40
0.700000
100
AcDbArc
50
179.999998
51
-89.999999
0
LINE
5
58f
100
AcDbEntity
8
1
100
AcDbLine
6
CONTINUOUS
62
5
10
95.300000
20
-236.100000
11
137.900000
21
-236.100000
0
ARC
5
590
100
AcDbEntity
8
1
100
AcDbCircle
6
CONTINUOUS
62
5
10
137.900000
20
-235.400000
40
0.700000
100
AcDbArc
50
-89.999999
51
0.000000
0
LINE
5
591
100
AcDbEntity
8
1
100
AcDbLine
6
CONTINUOUS
62
5
10
138.600000
20
-235.400000
11
138.600000
21
-144.600000
0
ARC
5
592
100
AcDbEntity
8
1
100
AcDbCircle
6
CONTINUOUS
62
5
10
138.300000
20
-144.600000
40
0.900000
100
AcDbArc
50
0.000000
51
89.999999
0
LINE
5
593
100
AcDbEntity
8
1
100
AcDbLine
6
CONTINUOUS
62
5
10
138.300000
20
-143.700000
11
94.900000
21
-143.700000
0
ARC
5
594
100
AcDbEntity
8
1
100
AcDbCircle
6
CONTINUOUS
62
5
10
94.900000
20
-144.600000
40
0.900000
100
AcDbArc
50
89.999999
51
179.999998
0
LINE
5
595
100
AcDbEntity
8
1
100
AcDbLine
6
CONTINUOUS
62
5
10
94.000000
20
-144.600000
11
94.000000
21
-235.400000
0
ARC
5
596
100
AcDbEntity
8
1
100
AcDbCircle
6
CONTINUOUS
62
5
10
94.900000
20
-235.400000
40
0.900000
100
AcDbArc
50
179.999998
51
-89.999999
0
LINE
5
597
100
AcDbEntity
8
1
100
AcDbLine
6
CONTINUOUS
62
5
10
94.900000
20
-236.300000
11
138.300000
21
-236.300000
0
ARC
5
598
100
AcDbEntity
8
1
100
AcDbCircle
6
CONTINUOUS
62
5
10
138.300000
20
-235.400000
40
0.900000
100
AcDbArc
50
-89.999999
51
0.000000
0
LINE
5
599
100
AcDbEntity
8
1
100
AcDbLine
6
CONTINUOUS
62
5
10
139.200000
20
-235.400000
11
139.200000
21
-144.600000
0
ARC
5
59a
100
AcDbEntity
8
1
100
AcDbCircle
6
CONTINUOUS
62
5
10
137.800000
20
-235.300000
40
0.500000
100
AcDbArc
50
-89.999999
51
0.000000
0
POLYLINE
5
59b
100
AcDbEntity
8
1
6
CONTINUOUS
62
5
100
AcDb2dPolyline
66
1
10
0.0
20
0.0
30
0.0
70
0
0
VERTEX
5
59c
100
AcDbEntity
8
1
100
AcDbVertex
100
AcDb2dVertex
62
5
10
138.300000
20
-235.300000
0
VERTEX
5
59d
100
AcDbEntity
8
1
100
AcDbVertex
100
AcDb2dVertex
62
5
10
138.300000
20
-235.300000
0
VERTEX
5
59e
100
AcDbEntity
8
1
100
AcDbVertex
100
AcDb2dVertex
62
5
10
138.300000
20
-144.700000
0
SEQEND
5
59f
100
AcDbEntity
8
1
0
ARC
5
5a0
100
AcDbEntity
8
1
100
AcDbCircle
6
CONTINUOUS
62
5
10
137.800000
20
-144.700000
40
0.500000
100
AcDbArc
50
-0.000000
51
89.999999
0
POLYLINE
5
5a1
100
AcDbEntity
8
1
6
CONTINUOUS
62
5
100
AcDb2dPolyline
66
1
10
0.0
20
0.0
30
0.0
70
0
0
VERTEX
5
5a2
100
AcDbEntity
8
1
100
AcDbVertex
100
AcDb2dVertex
62
5
10
137.800000
20
-144.200000
0
VERTEX
5
5a3
100
AcDbEntity
8
1
100
AcDbVertex
100
AcDb2dVertex
62
5
10
137.800000
20
-144.200000
0
VERTEX
5
5a4
100
AcDbEntity
8
1
100
AcDbVertex
100
AcDb2dVertex
62
5
10
95.400000
20
-144.200000
0
SEQEND
5
5a5
100
AcDbEntity
8
1
0
ARC
5
5a6
100
AcDbEntity
8
1
100
AcDbCircle
6
CONTINUOUS
62
5
10
95.400000
20
-144.700000
40
0.500000
100
AcDbArc
50
89.999999
51
-179.999998
0
POLYLINE
5
5a7
100
AcDbEntity
8
1
6
CONTINUOUS
62
5
100
AcDb2dPolyline
66
1
10
0.0
20
0.0
30
0.0
70
0
0
VERTEX
5
5a8
100
AcDbEntity
8
1
100
AcDbVertex
100
AcDb2dVertex
62
5
10
94.900000
20
-144.700000
0
VERTEX
5
5a9
100
AcDbEntity
8
1
100
AcDbVertex
100
AcDb2dVertex
62
5
10
94.900000
20
-144.700000
0
VERTEX
5
5aa
100
AcDbEntity
8
1
100
AcDbVertex
100
AcDb2dVertex
62
5
10
94.900000
20
-235.300000
0
SEQEND
5
5ab
100
AcDbEntity
8
1
0
ARC
5
5ac
100
AcDbEntity
8
1
100
AcDbCircle
6
CONTINUOUS
62
5
10
95.400000
20
-235.300000
40
0.500000
100
AcDbArc
50
-179.999998
51
-89.999999
0
LINE
5
5ad
100
AcDbEntity
8
1
100
AcDbLine
6
CONTINUOUS
62
5
10
95.400000
20
-235.800000
11
95.400000
21
-235.800000
0
LINE
5
5ae
100
AcDbEntity
8
1
100
AcDbLine
6
CONTINUOUS
62
5
10
95.400000
20
-235.800000
11
137.800000
21
-235.800000
0
ARC
5
5af
100
AcDbEntity
8
1
100
AcDbCircle
6
CONTINUOUS
62
5
10
95.300000
20
-235.400000
40
0.500000
100
AcDbArc
50
179.999998
51
-89.999999
0
LINE
5
5b0
100
AcDbEntity
8
1
100
AcDbLine
6
CONTINUOUS
62
5
10
94.800000
20
-235.400000
11
94.800000
21
-144.600000
0
ARC
5
5b1
100
AcDbEntity
8
1
100
AcDbCircle
6
CONTINUOUS
62
5
10
95.300000
20
-144.600000
40
0.500000
100
AcDbArc
50
89.999999
51
179.999998
0
POLYLINE
5
5b2
100
AcDbEntity
8
1
6
CONTINUOUS
62
5
100
AcDb2dPolyline
66
1
10
0.0
20
0.0
30
0.0
70
0
0
VERTEX
5
5b3
100
AcDbEntity
8
1
100
AcDbVertex
100
AcDb2dVertex
62
5
10
95.300000
20
-144.100000
0
VERTEX
5
5b4
100
AcDbEntity
8
1
100
AcDbVertex
100
AcDb2dVertex
62
5
10
113.100000
20
-144.100000
0
VERTEX
5
5b5
100
AcDbEntity
8
1
100
AcDbVertex
100
AcDb2dVertex
62
5
10
113.100000
20
-144.168884
0
VERTEX
5
5b6
100
AcDbEntity
8
1
100
AcDbVertex
100
AcDb2dVertex
62
5
10
120.100000
20
-144.168884
0
VERTEX
5
5b7
100
AcDbEntity
8
1
100
AcDbVertex
100
AcDb2dVertex
62
5
10
120.100000
20
-144.100000
0
VERTEX
5
5b8
100
AcDbEntity
8
1
100
AcDbVertex
100
AcDb2dVertex
62
5
10
137.900000
20
-144.100000
0
SEQEND
5
5b9
100
AcDbEntity
8
1
0
ARC
5
5ba
100
AcDbEntity
8
1
100
AcDbCircle
6
CONTINUOUS
62
5
10
137.900000
20
-144.600000
40
0.500000
100
AcDbArc
50
0.000000
51
89.999999
0
LINE
5
5bb
100
AcDbEntity
8
1
100
AcDbLine
6
CONTINUOUS
62
5
10
138.400000
20
-144.600000
11
138.400000
21
-235.400000
0
ARC
5
5bc
100
AcDbEntity
8
1
100
AcDbCircle
6
CONTINUOUS
62
5
10
137.900000
20
-235.400000
40
0.500000
100
AcDbArc
50
-89.999999
51
0.000000
0
POLYLINE
5
5bd
100
AcDbEntity
8
1
6
CONTINUOUS
62
5
100
AcDb2dPolyline
66
1
10
0.0
20
0.0
30
0.0
70
0
0
VERTEX
5
5be
100
AcDbEntity
8
1
100
AcDbVertex
100
AcDb2dVertex
62
5
10
137.900000
20
-235.900000
0
VERTEX
5
5bf
100
AcDbEntity
8
1
100
AcDbVertex
100
AcDb2dVertex
62
5
10
120.100000
20
-235.900000
0
VERTEX
5
5c0
100
AcDbEntity
8
1
100
AcDbVertex
100
AcDb2dVertex
62
5
10
120.100000
20
-235.833333
0
VERTEX
5
5c1
100
AcDbEntity
8
1
100
AcDbVertex
100
AcDb2dVertex
62
5
10
113.100000
20
-235.833333
0
VERTEX
5
5c2
100
AcDbEntity
8
1
100
AcDbVertex
100
AcDb2dVertex
62
5
10
113.100000
20
-235.900000
0
VERTEX
5
5c3
100
AcDbEntity
8
1
100
AcDbVertex
100
AcDb2dVertex
62
5
10
95.300000
20
-235.900000
0
SEQEND
5
5c4
100
AcDbEntity
8
1
0
POLYLINE
5
5c5
100
AcDbEntity
8
1
6
CONTINUOUS
62
5
100
AcDb2dPolyline
66
1
10
0.0
20
0.0
30
0.0
70
1
0
VERTEX
5
5c6
100
AcDbEntity
8
1
100
AcDbVertex
100
AcDb2dVertex
62
5
10
113.100000
20
-170.720126
0
VERTEX
5
5c7
100
AcDbEntity
8
1
100
AcDbVertex
100
AcDb2dVertex
62
5
10
113.100000
20
-167.690955
0
VERTEX
5
5c8
100
AcDbEntity
8
1
100
AcDbVertex
100
AcDb2dVertex
62
5
10
114.125118
20
-167.690955
0
VERTEX
5
5c9
100
AcDbEntity
8
1
100
AcDbVertex
100
AcDb2dVertex
62
5
10
114.345594
20
-167.250002
0
VERTEX
5
5ca
100
AcDbEntity
8
1
100
AcDbVertex
100
AcDb2dVertex
62
5
10
114.474611
20
-167.314511
0
VERTEX
5
5cb
100
AcDbEntity
8
1
100
AcDbVertex
100
AcDb2dVertex
62
5
10
114.286390
20
-167.690955
0
VERTEX
5
5cc
100
AcDbEntity
8
1
100
AcDbVertex
100
AcDb2dVertex
62
5
10
115.600000
20
-167.690955
0
VERTEX
5
5cd
100
AcDbEntity
8
1
100
AcDbVertex
100
AcDb2dVertex
62
5
10
115.600000
20
-170.720126
0
SEQEND
5
5ce
100
AcDbEntity
8
1
0
POLYLINE
5
5cf
100
AcDbEntity
8
1
6
CONTINUOUS
62
5
100
AcDb2dPolyline
66
1
10
0.0
20
0.0
30
0.0
70
1
0
VERTEX
5
5d0
100
AcDbEntity
8
1
100
AcDbVertex
100
AcDb2dVertex
62
5
10
115.455754
20
-170.575879
0
VERTEX
5
5d1
100
AcDbEntity
8
1
100
AcDbVertex
100
AcDb2dVertex
62
5
10
113.244246
20
-170.575879
0
VERTEX
5
5d2
100
AcDbEntity
8
1
100
AcDbVertex
100
AcDb2dVertex
62
5
10
113.244246
20
-169.758484
0
VERTEX
5
5d3
100
AcDbEntity
8
1
100
AcDbVertex
100
AcDb2dVertex
62
5
10
115.455754
20
-169.758484
0
SEQEND
5
5d4
100
AcDbEntity
8
1
0
POLYLINE
5
5d5
100
AcDbEntity
8
1
6
CONTINUOUS
62
5
100
AcDb2dPolyline
66
1
10
0.0
20
0.0
30
0.0
70
1
0
VERTEX
5
5d6
100
AcDbEntity
8
1
100
AcDbVertex
100
AcDb2dVertex
62
5
10
117.150094
20
-170.599920
0
VERTEX
5
5d7
100
AcDbEntity
8
1
100
AcDbVertex
100
AcDb2dVertex
62
5
10
116.782336
20
-170.599920
0
VERTEX
5
5d8
100
AcDbEntity
8
1
100
AcDbVertex
100
AcDb2dVertex
62
5
10
116.782336
20
-170.455674
0
VERTEX
5
5d9
100
AcDbEntity
8
1
100
AcDbVertex
100
AcDb2dVertex
62
5
10
117.135810
20
-170.455674
0
VERTEX
5
5da
100
AcDbEntity
8
1
100
AcDbVertex
100
AcDb2dVertex
62
5
10
117.551650
20
-170.372506
0
VERTEX
5
5db
100
AcDbEntity
8
1
100
AcDbVertex
100
AcDb2dVertex
62
5
10
117.551650
20
-169.878689
0
VERTEX
5
5dc
100
AcDbEntity
8
1
100
AcDbVertex
100
AcDb2dVertex
62
5
10
116.782336
20
-169.878689
0
VERTEX
5
5dd
100
AcDbEntity
8
1
100
AcDbVertex
100
AcDb2dVertex
62
5
10
116.782336
20
-169.734443
0
VERTEX
5
5de
100
AcDbEntity
8
1
100
AcDbVertex
100
AcDb2dVertex
62
5
10
117.551650
20
-169.734443
0
VERTEX
5
5df
100
AcDbEntity
8
1
100
AcDbVertex
100
AcDb2dVertex
62
5
10
117.551650
20
-169.518074
0
VERTEX
5
5e0
100
AcDbEntity
8
1
100
AcDbVertex
100
AcDb2dVertex
62
5
10
116.710213
20
-169.518074
0
VERTEX
5
5e1
100
AcDbEntity
8
1
100
AcDbVertex
100
AcDb2dVertex
62
5
10
116.710213
20
-168.412186
0
VERTEX
5
5e2
100
AcDbEntity
8
1
100
AcDbVertex
100
AcDb2dVertex
62
5
10
117.551650
20
-168.412186
0
VERTEX
5
5e3
100
AcDbEntity
8
1
100
AcDbVertex
100
AcDb2dVertex
62
5
10
117.551650
20
-168.195816
0
VERTEX
5
5e4
100
AcDbEntity
8
1
100
AcDbVertex
100
AcDb2dVertex
62
5
10
116.662131
20
-168.195816
0
VERTEX
5
5e5
100
AcDbEntity
8
1
100
AcDbVertex
100
AcDb2dVertex
62
5
10
116.662131
20
-168.051570
0
VERTEX
5
5e6
100
AcDbEntity
8
1
100
AcDbVertex
100
AcDb2dVertex
62
5
10
117.551650
20
-168.051570
0
VERTEX
5
5e7
100
AcDbEntity
8
1
100
AcDbVertex
100
AcDb2dVertex
62
5
10
117.551650
20
-167.726031
0
VERTEX
5
5e8
100
AcDbEntity
8
1
100
AcDbVertex
100
AcDb2dVertex
62
5
10
116.792536
20
-167.834476
0
VERTEX
5
5e9
100
AcDbEntity
8
1
100
AcDbVertex
100
AcDb2dVertex
62
5
10
116.772137
20
-167.691679
0
VERTEX
5
5ea
100
AcDbEntity
8
1
100
AcDbVertex
100
AcDb2dVertex
62
5
10
117.605014
20
-167.572697
0
VERTEX
5
5eb
100
AcDbEntity
8
1
100
AcDbVertex
100
AcDb2dVertex
62
5
10
118.198013
20
-167.335497
0
VERTEX
5
5ec
100
AcDbEntity
8
1
100
AcDbVertex
100
AcDb2dVertex
62
5
10
118.251585
20
-167.469427
0
VERTEX
5
5ed
100
AcDbEntity
8
1
100
AcDbVertex
100
AcDb2dVertex
62
5
10
117.695896
20
-167.691702
0
VERTEX
5
5ee
100
AcDbEntity
8
1
100
AcDbVertex
100
AcDb2dVertex
62
5
10
117.695896
20
-168.051570
0
VERTEX
5
5ef
100
AcDbEntity
8
1
100
AcDbVertex
100
AcDb2dVertex
62
5
10
118.465209
20
-168.051570
0
VERTEX
5
5f0
100
AcDbEntity
8
1
100
AcDbVertex
100
AcDb2dVertex
62
5
10
118.465209
20
-168.195816
0
VERTEX
5
5f1
100
AcDbEntity
8
1
100
AcDbVertex
100
AcDb2dVertex
62
5
10
117.695896
20
-168.195816
0
VERTEX
5
5f2
100
AcDbEntity
8
1
100
AcDbVertex
100
AcDb2dVertex
62
5
10
117.695896
20
-168.412186
0
VERTEX
5
5f3
100
AcDbEntity
8
1
100
AcDbVertex
100
AcDb2dVertex
62
5
10
118.417127
20
-168.412186
0
VERTEX
5
5f4
100
AcDbEntity
8
1
100
AcDbVertex
100
AcDb2dVertex
62
5
10
118.417127
20
-169.518074
0
VERTEX
5
5f5
100
AcDbEntity
8
1
100
AcDbVertex
100
AcDb2dVertex
62
5
10
117.695896
20
-169.518074
0
VERTEX
5
5f6
100
AcDbEntity
8
1
100
AcDbVertex
100
AcDb2dVertex
62
5
10
117.695896
20
-169.734443
0
VERTEX
5
5f7
100
AcDbEntity
8
1
100
AcDbVertex
100
AcDb2dVertex
62
5
10
118.345004
20
-169.734443
0
VERTEX
5
5f8
100
AcDbEntity
8
1
100
AcDbVertex
100
AcDb2dVertex
62
5
10
118.345004
20
-169.878689
0
VERTEX
5
5f9
100
AcDbEntity
8
1
100
AcDbVertex
100
AcDb2dVertex
62
5
10
117.695896
20
-169.878689
0
VERTEX
5
5fa
100
AcDbEntity
8
1
100
AcDbVertex
100
AcDb2dVertex
62
5
10
117.695896
20
-170.343657
0
VERTEX
5
5fb
100
AcDbEntity
8
1
100
AcDbVertex
100
AcDb2dVertex
62
5
10
118.330860
20
-170.216664
0
VERTEX
5
5fc
100
AcDbEntity
8
1
100
AcDbVertex
100
AcDb2dVertex
62
5
10
118.359149
20
-170.358109
0
SEQEND
5
5fd
100
AcDbEntity
8
1
0
POLYLINE
5
5fe
100
AcDbEntity
8
1
6
CONTINUOUS
62
5
100
AcDb2dPolyline
66
1
10
0.0
20
0.0
30
0.0
70
1
0
VERTEX
5
5ff
100
AcDbEntity
8
1
100
AcDbVertex
100
AcDb2dVertex
62
5
10
118.771015
20
-170.200193
0
VERTEX
5
600
100
AcDbEntity
8
1
100
AcDbVertex
100
AcDb2dVertex
62
5
10
118.402703
20
-170.691276
0
VERTEX
5
601
100
AcDbEntity
8
1
100
AcDbVertex
100
AcDb2dVertex
62
5
10
118.287306
20
-170.604729
0
VERTEX
5
602
100
AcDbEntity
8
1
100
AcDbVertex
100
AcDb2dVertex
62
5
10
118.640224
20
-170.134170
0
VERTEX
5
603
100
AcDbEntity
8
1
100
AcDbVertex
100
AcDb2dVertex
62
5
10
118.994112
20
-168.954544
0
VERTEX
5
604
100
AcDbEntity
8
1
100
AcDbVertex
100
AcDb2dVertex
62
5
10
118.994112
20
-168.316022
0
VERTEX
5
605
100
AcDbEntity
8
1
100
AcDbVertex
100
AcDb2dVertex
62
5
10
118.585414
20
-168.316022
0
VERTEX
5
606
100
AcDbEntity
8
1
100
AcDbVertex
100
AcDb2dVertex
62
5
10
118.585414
20
-168.171775
0
VERTEX
5
607
100
AcDbEntity
8
1
100
AcDbVertex
100
AcDb2dVertex
62
5
10
118.994112
20
-168.171775
0
VERTEX
5
608
100
AcDbEntity
8
1
100
AcDbVertex
100
AcDb2dVertex
62
5
10
118.994112
20
-167.282257
0
VERTEX
5
609
100
AcDbEntity
8
1
100
AcDbVertex
100
AcDb2dVertex
62
5
10
119.138358
20
-167.282257
0
VERTEX
5
60a
100
AcDbEntity
8
1
100
AcDbVertex
100
AcDb2dVertex
62
5
10
119.138358
20
-168.171775
0
VERTEX
5
60b
100
AcDbEntity
8
1
100
AcDbVertex
100
AcDb2dVertex
62
5
10
120.100000
20
-168.171775
0
VERTEX
5
60c
100
AcDbEntity
8
1
100
AcDbVertex
100
AcDb2dVertex
62
5
10
120.100000
20
-169.572125
0
VERTEX
5
60d
100
AcDbEntity
8
1
100
AcDbVertex
100
AcDb2dVertex
62
5
10
119.975014
20
-170.322042
0
VERTEX
5
60e
100
AcDbEntity
8
1
100
AcDbVertex
100
AcDb2dVertex
62
5
10
119.547056
20
-170.750000
0
VERTEX
5
60f
100
AcDbEntity
8
1
100
AcDbVertex
100
AcDb2dVertex
62
5
10
119.135442
20
-170.338386
0
VERTEX
5
610
100
AcDbEntity
8
1
100
AcDbVertex
100
AcDb2dVertex
62
5
10
119.237439
20
-170.236388
0
VERTEX
5
611
100
AcDbEntity
8
1
100
AcDbVertex
100
AcDb2dVertex
62
5
10
119.547056
20
-170.546005
0
VERTEX
5
612
100
AcDbEntity
8
1
100
AcDbVertex
100
AcDb2dVertex
62
5
10
119.840330
20
-170.252731
0
VERTEX
5
613
100
AcDbEntity
8
1
100
AcDbVertex
100
AcDb2dVertex
62
5
10
119.955754
20
-169.560187
0
VERTEX
5
614
100
AcDbEntity
8
1
100
AcDbVertex
100
AcDb2dVertex
62
5
10
119.955754
20
-168.316022
0
VERTEX
5
615
100
AcDbEntity
8
1
100
AcDbVertex
100
AcDb2dVertex
62
5
10
119.138358
20
-168.316022
0
VERTEX
5
616
100
AcDbEntity
8
1
100
AcDbVertex
100
AcDb2dVertex
62
5
10
119.138358
20
-168.975715
0
SEQEND
5
617
100
AcDbEntity
8
1
0
POLYLINE
5
618
100
AcDbEntity
8
1
6
CONTINUOUS
62
5
100
AcDb2dPolyline
66
1
10
0.0
20
0.0
30
0.0
70
1
0
VERTEX
5
619
100
AcDbEntity
8
1
100
AcDbVertex
100
AcDb2dVertex
62
5
10
0.000000
20
-340.000000
0
VERTEX
5
61a
100
AcDbEntity
8
1
100
AcDbVertex
100
AcDb2dVertex
62
5
10
0.000000
20
-0.000000
0
VERTEX
5
61b
100
AcDbEntity
8
1
100
AcDbVertex
100
AcDb2dVertex
62
5
10
320.000000
20
-0.000000
0
VERTEX
5
61c
100
AcDbEntity
8
1
100
AcDbVertex
100
AcDb2dVertex
62
5
10
320.000000
20
-340.000000
0
VERTEX
5
61d
100
AcDbEntity
8
1
100
AcDbVertex
100
AcDb2dVertex
62
5
10
0.000000
20
-340.000000
0
SEQEND
5
61e
100
AcDbEntity
8
1
0
ENDSEC
0
SECTION
2
OBJECTS
0
DICTIONARY
5
61f
100
AcDbDictionary
3
ACAD_GROUP
350
620
3
ACAD_MLINESTYLE
350
621
0
DICTIONARY
5
620
102
{ACAD_REACTORS
330
61f
102
}
100
AcDbDictionary
0
DICTIONARY
5
621
102
{ACAD_REACTORS
330
61f
102
}
100
AcDbDictionary
3
STANDARD
350
622
0
MLINESTYLE
5
622
102
{ACAD_REACTORS
330
621
102
}
100
AcDbMlineStyle
2
STANDARD
70
0
3

62
0
51
90.0
52
90.0
71
2
49
0.5
62
256
6
BYLAYER
49
-0.5
62
256
6
BYLAYER
0
ENDSEC
0
EOF
