0
SECTION
2
HEADER
9
$ACADVER
1
AC1012
9
$EXTMIN
10
-7.370000
20
-9.260000
30
0.0
9
$EXTMAX
10
5.240000
20
4.140000
30
0.0
9
$LIMMIN
10
-187.198000
20
-235.204000
9
$LIMMAX
10
133.096000
20
105.156000
9
$DIMSCALE
40
1.000000
9
$PDMODE
70
2
9
$PDSIZE
40
0.0
  9
$HANDSEED
  5
343
0
ENDSEC
0
SECTION
2
CLASSES
0
ENDSEC
0
SECTION
2
TABLES
0
TABLE
2
LTYPE
5
1e
100
AcDbSymbolTable
70
12
0
LTYPE
5
1f
100
AcDbSymbolTableRecord
100
AcDbLinetypeTableRecord
2
BYBLOCK
70
0
3

72
65
73
0
40
0.0
0
LTYPE
5
20
100
AcDbSymbolTableRecord
100
AcDbLinetypeTableRecord
2
BYLAYER
70
0
3

72
65
73
0
40
0.0
0
LTYPE
5
21
100
AcDbSymbolTableRecord
100
AcDbLinetypeTableRecord
2
CONTINUOUS
70
64
3
Solid line
72
65
73
0
40
0.0
0
LTYPE
5
22
100
AcDbSymbolTableRecord
100
AcDbLinetypeTableRecord
2
DASHED
70
64
3
__ __ __ __ __ __ __ __ __ __ __ __ __ __ __
72
65
73
2
40
0.75
49
0.5
74
0
49
-0.25
74
0
0
LTYPE
5
23
100
AcDbSymbolTableRecord
100
AcDbLinetypeTableRecord
2
DOT
70
64
3
...............................................
72
65
73
2
40
0.25
49
0.0
74
0
49
-0.25
74
0
0
LTYPE
5
24
100
AcDbSymbolTableRecord
100
AcDbLinetypeTableRecord
2
DASHDOT
70
64
3
__ . __ . __ . __ . __ . __ . __ . __ . __ . --
72
65
73
4
40
1.0
49
0.5
74
0
49
-0.25
74
0
49
0.0
74
0
49
-0.25
74
0
0
LTYPE
5
25
100
AcDbSymbolTableRecord
100
AcDbLinetypeTableRecord
2
CENTER
70
64
3
____ _ ____ _ ____ _ ____ _ ____ _ ____ _ ____
72
65
73
4
40
2.0
49
1.25
74
0
49
-0.25
74
0
49
0.25
74
0
49
-0.25
74
0
0
LTYPE
5
26
100
AcDbSymbolTableRecord
100
AcDbLinetypeTableRecord
2
PHANTOM
70
64
3
_____ _ _ _____ _ _ _____ _ _ _____ _ _ ____
72
65
73
6
40
2.5
49
1.25
74
0
49
-0.25
74
0
49
0.25
74
0
49
-0.25
74
0
49
0.25
74
0
49
-0.25
74
0
0
LTYPE
5
27
100
AcDbSymbolTableRecord
100
AcDbLinetypeTableRecord
2
HIDDEN
70
64
3
_ _ _ _ _ _ _ _ _ _ _ _ _ _ _ _ _ _ _ _ _ _ _
72
65
73
2
40
0.375
49
0.25
74
0
49
-0.125
74
0
0
LTYPE
5
28
100
AcDbSymbolTableRecord
100
AcDbLinetypeTableRecord
2
BORDER
70
64
3
__ __ . __ __ . __ __ . __ __ . __ __ . __ __
72
65
73
6
40
1.75
49
0.5
74
0
49
-0.25
74
0
49
0.5
74
0
49
-0.25
74
0
49
0.0
74
0
49
-0.25
74
0
0
LTYPE
5
29
100
AcDbSymbolTableRecord
100
AcDbLinetypeTableRecord
2
DIVIDE
70
64
3
__ . . __ . . __ . . __ . . __ . . __ . . __
72
65
73
6
40
1.25
49
0.5
74
0
49
-0.25
74
0
49
0.0
74
0
49
-0.25
74
0
49
0.0
74
0
49
-0.25
74
0
0
LTYPE
5
2a
100
AcDbSymbolTableRecord
100
AcDbLinetypeTableRecord
2
DOT2
70
64
3
...............................................
72
65
73
2
40
0.125
49
0.0
74
0
49
-0.125
74
0
0
ENDTAB
0
TABLE
2
STYLE
5
2b
100
AcDbSymbolTable
70
1
0
STYLE
5
2c
100
AcDbSymbolTableRecord
100
AcDbTextStyleTableRecord
2
STANDARD
70
64
40
0.0
41
1.0
50
0.0
71
0
42
5.0
3
txt
4
bigfont
0
ENDTAB
0
TABLE
2
LAYER
5
2d
100
AcDbSymbolTable
70
2
0
LAYER
5
2e
100
AcDbSymbolTableRecord
100
AcDbLayerTableRecord
2
0
70
0
62
7
6
CONTINUOUS
0
LAYER
5
2f
100
AcDbSymbolTableRecord
100
AcDbLayerTableRecord
2
1
70
0
62
7
6
CONTINUOUS
0
ENDTAB
0
TABLE
2
APPID
5
30
100
AcDbSymbolTable
70
1
0
APPID
5
31
100
AcDbSymbolTableRecord
100
AcDbRegAppTableRecord
2
ACAD
70
64
0
ENDTAB
0
TABLE
2
DIMSTYLE
5
32
100
AcDbSymbolTable
70
0
0
ENDTAB
0
TABLE
2
UCS
5
33
100
AcDbSymbolTable
70
0
0
ENDTAB
0
TABLE
2
VIEW
5
34
100
AcDbSymbolTable
70
0
0
ENDTAB
0
TABLE
2
VPORT
5
35
100
AcDbSymbolTable
70
0
0
ENDTAB
0
TABLE
2
BLOCK_RECORD
5
36
100
AcDbSymbolTable
70
0
0
BLOCK_RECORD
5
37
100
AcDbSymbolTableRecord
100
AcDbBlockTableRecord
2
*MODEL_SPACE
0
BLOCK_RECORD
5
38
100
AcDbSymbolTableRecord
100
AcDbBlockTableRecord
2
*PAPER_SPACE
0
BLOCK_RECORD
5
39
100
AcDbSymbolTableRecord
100
AcDbBlockTableRecord
2
OPEN
0
BLOCK_RECORD
5
3a
100
AcDbSymbolTableRecord
100
AcDbBlockTableRecord
2
HALF
0
BLOCK_RECORD
5
3b
100
AcDbSymbolTableRecord
100
AcDbBlockTableRecord
2
CLOSEDBLANK
0
BLOCK_RECORD
5
3c
100
AcDbSymbolTableRecord
100
AcDbBlockTableRecord
2
HALFCLOSE_R
0
BLOCK_RECORD
5
3d
100
AcDbSymbolTableRecord
100
AcDbBlockTableRecord
2
DOT
0
BLOCK_RECORD
5
3e
100
AcDbSymbolTableRecord
100
AcDbBlockTableRecord
2
HALFOPEN_R
0
BLOCK_RECORD
5
3f
100
AcDbSymbolTableRecord
100
AcDbBlockTableRecord
2
CLOSEDF
0
BLOCK_RECORD
5
40
100
AcDbSymbolTableRecord
100
AcDbBlockTableRecord
2
HALF_R
0
ENDTAB
0
ENDSEC
0
SECTION
2
BLOCKS
0
BLOCK
5
41
100
AcDbEntity
8
0
100
AcDbBlockBegin
2
*MODEL_SPACE
70
0
10
0.0
20
0.0
30
0.0
3
*MODEL_SPACE
1

0
ENDBLK
5
42
100
AcDbEntity
8
0
100
AcDbBlockEnd
0
BLOCK
5
43
100
AcDbEntity
67
1
8
0
100
AcDbBlockBegin
2
*PAPER_SPACE
70
0
10
0.0
20
0.0
30
0.0
3
*PAPER_SPACE
1

0
ENDBLK
5
44
100
AcDbEntity
67
1
8
0
100
AcDbBlockEnd
0
BLOCK
5
45
100
AcDbEntity
8
0
100
AcDbBlockBegin
2
OPEN
70
0
10
0.0
20
0.0
30
0.0
3
OPEN
1

0
LINE
5
46
100
AcDbEntity
8
0
6
BYBLOCK
62
0
100
AcDbLine
10
0.000000
20
0.000000
11
-1.000000
21
0.000000
0
LINE
5
47
100
AcDbEntity
8
0
6
BYBLOCK
62
0
100
AcDbLine
10
-1.000000
20
-0.166667
11
0.000000
21
0.000000
0
LINE
5
48
100
AcDbEntity
8
0
6
BYBLOCK
62
0
100
AcDbLine
10
-1.000000
20
0.166667
11
0.000000
21
0.000000
0
ENDBLK
5
49
100
AcDbEntity
8
0
100
AcDbBlockEnd
0
BLOCK
5
4a
100
AcDbEntity
8
0
100
AcDbBlockBegin
2
HALF
70
0
10
0.0
20
0.0
30
0.0
3
HALF
1

0
SOLID
5
4b
100
AcDbEntity
8
0
6
BYBLOCK
62
0
100
AcDbTrace
10
-1.000000
20
0.166667
11
-1.000000
21
-0.166667
12
0.000000
22
0.000000
13
0.000000
23
0.000000
0
ENDBLK
5
4c
100
AcDbEntity
8
0
100
AcDbBlockEnd
0
BLOCK
5
4d
100
AcDbEntity
8
0
100
AcDbBlockBegin
2
CLOSEDBLANK
70
0
10
0.0
20
0.0
30
0.0
3
CLOSEDBLANK
1

0
LINE
5
4e
100
AcDbEntity
8
0
6
BYBLOCK
62
0
100
AcDbLine
10
-1.000000
20
0.166667
11
-1.000000
21
-0.166667
0
LINE
5
4f
100
AcDbEntity
8
0
6
BYBLOCK
62
0
100
AcDbLine
10
0.000000
20
0.000000
11
-1.000000
21
-0.166667
0
LINE
5
50
100
AcDbEntity
8
0
6
BYBLOCK
62
0
100
AcDbLine
10
-1.000000
20
0.166667
11
0.000000
21
0.000000
0
ENDBLK
5
51
100
AcDbEntity
8
0
100
AcDbBlockEnd
0
BLOCK
5
52
100
AcDbEntity
8
0
100
AcDbBlockBegin
2
HALFCLOSE_R
70
0
10
0.0
20
0.0
30
0.0
3
HALFCLOSE_R
1

0
LINE
5
53
100
AcDbEntity
8
0
6
BYBLOCK
62
0
100
AcDbLine
10
-1.000000
20
-0.166667
11
-1.000000
21
0.000000
0
LINE
5
54
100
AcDbEntity
8
0
6
BYBLOCK
62
0
100
AcDbLine
10
-1.000000
20
-0.166667
11
0.000000
21
0.000000
0
LINE
5
55
100
AcDbEntity
8
0
6
BYBLOCK
62
0
100
AcDbLine
10
0.000000
20
0.000000
11
-1.000000
21
0.000000
0
ENDBLK
5
56
100
AcDbEntity
8
0
100
AcDbBlockEnd
0
BLOCK
5
57
100
AcDbEntity
8
0
100
AcDbBlockBegin
2
DOT
70
0
10
0.0
20
0.0
30
0.0
3
DOT
1

0
LINE
5
58
100
AcDbEntity
8
0
6
BYBLOCK
62
0
100
AcDbLine
10
0.000000
20
0.000000
11
-1.000000
21
0.000000
0
POLYLINE
5
59
100
AcDbEntity
8
0
6
BYBLOCK
62
0
100
AcDb2dPolyline
66
1
10
0.0
20
0.0
30
0.0
70
1
40
0.166667
41
0.166667
0
VERTEX
5
5a
100
AcDbEntity
8
0
100
AcDbVertex
100
AcDb2dVertex
62
10
10
-0.083333
20
0.000000
42
1.000000
0
VERTEX
5
5b
100
AcDbEntity
8
0
100
AcDbVertex
100
AcDb2dVertex
62
10
10
0.083333
20
0.000000
42
1.000000
0
SEQEND
5
5c
100
AcDbEntity
8
0
0
ENDBLK
5
5d
100
AcDbEntity
8
0
100
AcDbBlockEnd
0
BLOCK
5
5e
100
AcDbEntity
8
0
100
AcDbBlockBegin
2
HALFOPEN_R
70
0
10
0.0
20
0.0
30
0.0
3
HALFOPEN_R
1

0
LINE
5
5f
100
AcDbEntity
8
0
6
BYBLOCK
62
0
100
AcDbLine
10
-1.000000
20
-0.166667
11
0.000000
21
0.000000
0
LINE
5
60
100
AcDbEntity
8
0
6
BYBLOCK
62
0
100
AcDbLine
10
0.000000
20
0.000000
11
-1.000000
21
0.000000
0
ENDBLK
5
61
100
AcDbEntity
8
0
100
AcDbBlockEnd
0
BLOCK
5
62
100
AcDbEntity
8
0
100
AcDbBlockBegin
2
CLOSEDF
70
0
10
0.0
20
0.0
30
0.0
3
CLOSEDF
1

0
SOLID
5
63
100
AcDbEntity
8
0
6
BYBLOCK
62
0
100
AcDbTrace
10
-1.000000
20
0.166667
11
-1.000000
21
-0.166667
12
0.000000
22
0.000000
13
0.000000
23
0.000000
0
ENDBLK
5
64
100
AcDbEntity
8
0
100
AcDbBlockEnd
0
BLOCK
5
65
100
AcDbEntity
8
0
100
AcDbBlockBegin
2
HALF_R
70
0
10
0.0
20
0.0
30
0.0
3
HALF_R
1

0
SOLID
5
66
100
AcDbEntity
8
0
6
BYBLOCK
62
0
100
AcDbTrace
10
-1.000000
20
-0.166667
11
-1.000000
21
0.000000
12
0.000000
22
0.000000
13
0.000000
23
0.000000
0
ENDBLK
5
67
100
AcDbEntity
8
0
100
AcDbBlockEnd
0
ENDSEC
0
SECTION
2
ENTITIES
0
POLYLINE
5
68
100
AcDbEntity
8
1
6
CONTINUOUS
62
5
100
AcDb2dPolyline
66
1
10
0.0
20
0.0
30
0.0
70
0
0
VERTEX
5
69
100
AcDbEntity
8
1
100
AcDbVertex
100
AcDb2dVertex
62
5
10
19.750000
20
91.500000
0
VERTEX
5
6a
100
AcDbEntity
8
1
100
AcDbVertex
100
AcDb2dVertex
62
5
10
21.000000
20
92.437500
0
VERTEX
5
6b
100
AcDbEntity
8
1
100
AcDbVertex
100
AcDb2dVertex
62
5
10
21.750000
20
92.750000
0
VERTEX
5
6c
100
AcDbEntity
8
1
100
AcDbVertex
100
AcDb2dVertex
62
5
10
22.750000
20
92.750000
0
VERTEX
5
6d
100
AcDbEntity
8
1
100
AcDbVertex
100
AcDb2dVertex
62
5
10
23.250000
20
92.437500
0
VERTEX
5
6e
100
AcDbEntity
8
1
100
AcDbVertex
100
AcDb2dVertex
62
5
10
23.750000
20
91.812500
0
VERTEX
5
6f
100
AcDbEntity
8
1
100
AcDbVertex
100
AcDb2dVertex
62
5
10
23.750000
20
90.875000
0
VERTEX
5
70
100
AcDbEntity
8
1
100
AcDbVertex
100
AcDb2dVertex
62
5
10
23.250000
20
89.937500
0
VERTEX
5
71
100
AcDbEntity
8
1
100
AcDbVertex
100
AcDb2dVertex
62
5
10
22.500000
20
89.312500
0
VERTEX
5
72
100
AcDbEntity
8
1
100
AcDbVertex
100
AcDb2dVertex
62
5
10
21.000000
20
89.312500
0
SEQEND
5
73
100
AcDbEntity
8
1
0
POLYLINE
5
74
100
AcDbEntity
8
1
6
CONTINUOUS
62
5
100
AcDb2dPolyline
66
1
10
0.0
20
0.0
30
0.0
70
0
0
VERTEX
5
75
100
AcDbEntity
8
1
100
AcDbVertex
100
AcDb2dVertex
62
5
10
22.500000
20
89.312500
0
VERTEX
5
76
100
AcDbEntity
8
1
100
AcDbVertex
100
AcDb2dVertex
62
5
10
23.250000
20
89.000000
0
VERTEX
5
77
100
AcDbEntity
8
1
100
AcDbVertex
100
AcDb2dVertex
62
5
10
23.750000
20
88.375000
0
VERTEX
5
78
100
AcDbEntity
8
1
100
AcDbVertex
100
AcDb2dVertex
62
5
10
24.000000
20
87.750000
0
VERTEX
5
79
100
AcDbEntity
8
1
100
AcDbVertex
100
AcDb2dVertex
62
5
10
24.000000
20
86.812500
0
VERTEX
5
7a
100
AcDbEntity
8
1
100
AcDbVertex
100
AcDb2dVertex
62
5
10
23.500000
20
85.875000
0
VERTEX
5
7b
100
AcDbEntity
8
1
100
AcDbVertex
100
AcDb2dVertex
62
5
10
22.250000
20
85.250000
0
VERTEX
5
7c
100
AcDbEntity
8
1
100
AcDbVertex
100
AcDb2dVertex
62
5
10
21.000000
20
85.250000
0
VERTEX
5
7d
100
AcDbEntity
8
1
100
AcDbVertex
100
AcDb2dVertex
62
5
10
20.000000
20
85.562500
0
SEQEND
5
7e
100
AcDbEntity
8
1
0
POLYLINE
5
7f
100
AcDbEntity
8
1
6
CONTINUOUS
62
5
100
AcDb2dPolyline
66
1
10
0.0
20
0.0
30
0.0
70
1
0
VERTEX
5
80
100
AcDbEntity
8
1
100
AcDbVertex
100
AcDb2dVertex
62
5
10
27.250000
20
85.250000
0
VERTEX
5
81
100
AcDbEntity
8
1
100
AcDbVertex
100
AcDb2dVertex
62
5
10
32.500000
20
85.250000
0
VERTEX
5
82
100
AcDbEntity
8
1
100
AcDbVertex
100
AcDb2dVertex
62
5
10
32.500000
20
91.500000
0
VERTEX
5
83
100
AcDbEntity
8
1
100
AcDbVertex
100
AcDb2dVertex
62
5
10
27.250000
20
91.500000
0
VERTEX
5
84
100
AcDbEntity
8
1
100
AcDbVertex
100
AcDb2dVertex
62
5
10
27.250000
20
85.250000
0
SEQEND
5
85
100
AcDbEntity
8
1
0
LINE
5
86
100
AcDbEntity
8
1
100
AcDbLine
6
CONTINUOUS
62
5
10
-4.500000
20
88.687500
11
0.500000
21
88.687500
0
LINE
5
87
100
AcDbEntity
8
1
100
AcDbLine
6
CONTINUOUS
62
5
10
-2.000000
20
91.500000
11
-2.000000
21
85.875000
0
POLYLINE
5
88
100
AcDbEntity
8
1
6
CONTINUOUS
62
5
100
AcDb2dPolyline
66
1
10
0.0
20
0.0
30
0.0
70
0
0
VERTEX
5
89
100
AcDbEntity
8
1
100
AcDbVertex
100
AcDb2dVertex
62
5
10
3.750000
20
91.500000
0
VERTEX
5
8a
100
AcDbEntity
8
1
100
AcDbVertex
100
AcDb2dVertex
62
5
10
5.000000
20
92.437500
0
VERTEX
5
8b
100
AcDbEntity
8
1
100
AcDbVertex
100
AcDb2dVertex
62
5
10
5.750000
20
92.750000
0
VERTEX
5
8c
100
AcDbEntity
8
1
100
AcDbVertex
100
AcDb2dVertex
62
5
10
6.750000
20
92.750000
0
VERTEX
5
8d
100
AcDbEntity
8
1
100
AcDbVertex
100
AcDb2dVertex
62
5
10
7.250000
20
92.437500
0
VERTEX
5
8e
100
AcDbEntity
8
1
100
AcDbVertex
100
AcDb2dVertex
62
5
10
7.750000
20
91.812500
0
VERTEX
5
8f
100
AcDbEntity
8
1
100
AcDbVertex
100
AcDb2dVertex
62
5
10
7.750000
20
90.875000
0
VERTEX
5
90
100
AcDbEntity
8
1
100
AcDbVertex
100
AcDb2dVertex
62
5
10
7.250000
20
89.937500
0
VERTEX
5
91
100
AcDbEntity
8
1
100
AcDbVertex
100
AcDb2dVertex
62
5
10
6.500000
20
89.312500
0
VERTEX
5
92
100
AcDbEntity
8
1
100
AcDbVertex
100
AcDb2dVertex
62
5
10
5.000000
20
89.312500
0
SEQEND
5
93
100
AcDbEntity
8
1
0
POLYLINE
5
94
100
AcDbEntity
8
1
6
CONTINUOUS
62
5
100
AcDb2dPolyline
66
1
10
0.0
20
0.0
30
0.0
70
0
0
VERTEX
5
95
100
AcDbEntity
8
1
100
AcDbVertex
100
AcDb2dVertex
62
5
10
6.500000
20
89.312500
0
VERTEX
5
96
100
AcDbEntity
8
1
100
AcDbVertex
100
AcDb2dVertex
62
5
10
7.250000
20
89.000000
0
VERTEX
5
97
100
AcDbEntity
8
1
100
AcDbVertex
100
AcDb2dVertex
62
5
10
7.750000
20
88.375000
0
VERTEX
5
98
100
AcDbEntity
8
1
100
AcDbVertex
100
AcDb2dVertex
62
5
10
8.000000
20
87.750000
0
VERTEX
5
99
100
AcDbEntity
8
1
100
AcDbVertex
100
AcDb2dVertex
62
5
10
8.000000
20
86.812500
0
VERTEX
5
9a
100
AcDbEntity
8
1
100
AcDbVertex
100
AcDb2dVertex
62
5
10
7.500000
20
85.875000
0
VERTEX
5
9b
100
AcDbEntity
8
1
100
AcDbVertex
100
AcDb2dVertex
62
5
10
6.250000
20
85.250000
0
VERTEX
5
9c
100
AcDbEntity
8
1
100
AcDbVertex
100
AcDb2dVertex
62
5
10
5.000000
20
85.250000
0
VERTEX
5
9d
100
AcDbEntity
8
1
100
AcDbVertex
100
AcDb2dVertex
62
5
10
4.000000
20
85.562500
0
SEQEND
5
9e
100
AcDbEntity
8
1
0
POLYLINE
5
9f
100
AcDbEntity
8
1
6
CONTINUOUS
62
5
100
AcDb2dPolyline
66
1
10
0.0
20
0.0
30
0.0
70
0
0
VERTEX
5
a0
100
AcDbEntity
8
1
100
AcDbVertex
100
AcDb2dVertex
62
5
10
-11.500000
20
92.125000
0
VERTEX
5
a1
100
AcDbEntity
8
1
100
AcDbVertex
100
AcDb2dVertex
62
5
10
-10.000000
20
92.750000
0
VERTEX
5
a2
100
AcDbEntity
8
1
100
AcDbVertex
100
AcDb2dVertex
62
5
10
-10.000000
20
85.250000
0
SEQEND
5
a3
100
AcDbEntity
8
1
0
LINE
5
a4
100
AcDbEntity
8
1
100
AcDbLine
6
CONTINUOUS
62
5
10
-11.250000
20
85.250000
11
-8.750000
21
85.250000
0
LINE
5
a5
100
AcDbEntity
8
1
100
AcDbLine
6
CONTINUOUS
62
5
10
11.500000
20
88.687500
11
16.500000
21
88.687500
0
LINE
5
a6
100
AcDbEntity
8
1
100
AcDbLine
6
CONTINUOUS
62
5
10
14.000000
20
91.500000
11
14.000000
21
85.875000
0
POLYLINE
5
a7
100
AcDbEntity
8
1
6
DOT2
62
5
100
AcDb2dPolyline
66
1
10
0.0
20
0.0
30
0.0
70
0
0
VERTEX
5
a8
100
AcDbEntity
8
1
100
AcDbVertex
100
AcDb2dVertex
62
5
10
100.625000
20
4.669620
0
VERTEX
5
a9
100
AcDbEntity
8
1
100
AcDbVertex
100
AcDb2dVertex
62
5
10
100.625000
20
4.669620
0
VERTEX
5
aa
100
AcDbEntity
8
1
100
AcDbVertex
100
AcDb2dVertex
62
5
10
99.375000
20
4.357120
0
VERTEX
5
ab
100
AcDbEntity
8
1
100
AcDbVertex
100
AcDb2dVertex
62
5
10
98.437500
20
4.357120
0
VERTEX
5
ac
100
AcDbEntity
8
1
100
AcDbVertex
100
AcDb2dVertex
62
5
10
97.812500
20
4.669620
0
VERTEX
5
ad
100
AcDbEntity
8
1
100
AcDbVertex
100
AcDb2dVertex
62
5
10
97.500000
20
5.607120
0
VERTEX
5
ae
100
AcDbEntity
8
1
100
AcDbVertex
100
AcDb2dVertex
62
5
10
97.500000
20
7.169620
0
VERTEX
5
af
100
AcDbEntity
8
1
100
AcDbVertex
100
AcDb2dVertex
62
5
10
97.812500
20
8.107120
0
VERTEX
5
b0
100
AcDbEntity
8
1
100
AcDbVertex
100
AcDb2dVertex
62
5
10
98.125000
20
8.419620
0
VERTEX
5
b1
100
AcDbEntity
8
1
100
AcDbVertex
100
AcDb2dVertex
62
5
10
98.750000
20
8.732120
0
VERTEX
5
b2
100
AcDbEntity
8
1
100
AcDbVertex
100
AcDb2dVertex
62
5
10
99.375000
20
8.732120
0
VERTEX
5
b3
100
AcDbEntity
8
1
100
AcDbVertex
100
AcDb2dVertex
62
5
10
100.000000
20
8.419620
0
VERTEX
5
b4
100
AcDbEntity
8
1
100
AcDbVertex
100
AcDb2dVertex
62
5
10
100.312500
20
8.107120
0
VERTEX
5
b5
100
AcDbEntity
8
1
100
AcDbVertex
100
AcDb2dVertex
62
5
10
100.625000
20
7.169620
0
VERTEX
5
b6
100
AcDbEntity
8
1
100
AcDbVertex
100
AcDb2dVertex
62
5
10
100.625000
20
3.732120
0
VERTEX
5
b7
100
AcDbEntity
8
1
100
AcDbVertex
100
AcDb2dVertex
62
5
10
100.312500
20
2.169620
0
VERTEX
5
b8
100
AcDbEntity
8
1
100
AcDbVertex
100
AcDb2dVertex
62
5
10
99.687500
20
1.544620
0
VERTEX
5
b9
100
AcDbEntity
8
1
100
AcDbVertex
100
AcDb2dVertex
62
5
10
98.750000
20
1.232120
0
VERTEX
5
ba
100
AcDbEntity
8
1
100
AcDbVertex
100
AcDb2dVertex
62
5
10
98.125000
20
1.232120
0
SEQEND
5
bb
100
AcDbEntity
8
1
0
LINE
5
bc
100
AcDbEntity
8
1
100
AcDbLine
6
DOT2
62
5
10
103.125000
20
1.857120
11
102.500000
21
1.232120
0
POLYLINE
5
bd
100
AcDbEntity
8
1
6
DOT2
62
5
100
AcDb2dPolyline
66
1
10
0.0
20
0.0
30
0.0
70
0
0
VERTEX
5
be
100
AcDbEntity
8
1
100
AcDbVertex
100
AcDb2dVertex
62
5
10
102.500000
20
1.857120
0
VERTEX
5
bf
100
AcDbEntity
8
1
100
AcDbVertex
100
AcDb2dVertex
62
5
10
103.125000
20
1.232120
0
VERTEX
5
c0
100
AcDbEntity
8
1
100
AcDbVertex
100
AcDb2dVertex
62
5
10
102.500000
20
1.232120
0
VERTEX
5
c1
100
AcDbEntity
8
1
100
AcDbVertex
100
AcDb2dVertex
62
5
10
102.500000
20
1.857120
0
VERTEX
5
c2
100
AcDbEntity
8
1
100
AcDbVertex
100
AcDb2dVertex
62
5
10
103.125000
20
1.857120
0
VERTEX
5
c3
100
AcDbEntity
8
1
100
AcDbVertex
100
AcDb2dVertex
62
5
10
103.125000
20
1.232120
0
SEQEND
5
c4
100
AcDbEntity
8
1
0
LINE
5
c5
100
AcDbEntity
8
1
100
AcDbLine
6
DOT2
62
5
10
107.500000
20
8.732120
11
110.312500
21
8.732120
0
POLYLINE
5
c6
100
AcDbEntity
8
1
6
DOT2
62
5
100
AcDb2dPolyline
66
1
10
0.0
20
0.0
30
0.0
70
0
0
VERTEX
5
c7
100
AcDbEntity
8
1
100
AcDbVertex
100
AcDb2dVertex
62
5
10
107.500000
20
8.732120
0
VERTEX
5
c8
100
AcDbEntity
8
1
100
AcDbVertex
100
AcDb2dVertex
62
5
10
107.500000
20
4.982120
0
VERTEX
5
c9
100
AcDbEntity
8
1
100
AcDbVertex
100
AcDb2dVertex
62
5
10
108.125000
20
5.607120
0
VERTEX
5
ca
100
AcDbEntity
8
1
100
AcDbVertex
100
AcDb2dVertex
62
5
10
108.750000
20
5.919620
0
VERTEX
5
cb
100
AcDbEntity
8
1
100
AcDbVertex
100
AcDb2dVertex
62
5
10
109.687500
20
5.919620
0
VERTEX
5
cc
100
AcDbEntity
8
1
100
AcDbVertex
100
AcDb2dVertex
62
5
10
110.312500
20
5.607120
0
VERTEX
5
cd
100
AcDbEntity
8
1
100
AcDbVertex
100
AcDb2dVertex
62
5
10
110.625000
20
4.669620
0
VERTEX
5
ce
100
AcDbEntity
8
1
100
AcDbVertex
100
AcDb2dVertex
62
5
10
110.625000
20
2.794620
0
VERTEX
5
cf
100
AcDbEntity
8
1
100
AcDbVertex
100
AcDb2dVertex
62
5
10
110.000000
20
1.857120
0
VERTEX
5
d0
100
AcDbEntity
8
1
100
AcDbVertex
100
AcDb2dVertex
62
5
10
109.062500
20
1.232120
0
VERTEX
5
d1
100
AcDbEntity
8
1
100
AcDbVertex
100
AcDb2dVertex
62
5
10
107.500000
20
1.232120
0
SEQEND
5
d2
100
AcDbEntity
8
1
0
LINE
5
d3
100
AcDbEntity
8
1
100
AcDbLine
6
CONTINUOUS
62
5
10
86.250000
20
-24.649793
11
86.250000
21
1.982120
0
LINE
5
d4
100
AcDbEntity
8
1
100
AcDbLine
6
CONTINUOUS
62
5
10
76.750000
20
-39.714172
11
76.750000
21
1.982120
0
POLYLINE
5
d5
100
AcDbEntity
8
1
6
CONTINUOUS
62
5
100
AcDb2dPolyline
66
1
10
0.0
20
0.0
30
0.0
70
0
0
VERTEX
5
d6
100
AcDbEntity
8
1
100
AcDbVertex
100
AcDb2dVertex
62
5
10
112.500000
20
-0.017880
0
VERTEX
5
d7
100
AcDbEntity
8
1
100
AcDbVertex
100
AcDb2dVertex
62
5
10
86.250000
20
-0.017880
0
VERTEX
5
d8
100
AcDbEntity
8
1
100
AcDbVertex
100
AcDb2dVertex
62
5
10
92.250000
20
0.982120
0
VERTEX
5
d9
100
AcDbEntity
8
1
100
AcDbVertex
100
AcDb2dVertex
62
5
10
92.250000
20
-1.017880
0
VERTEX
5
da
100
AcDbEntity
8
1
100
AcDbVertex
100
AcDb2dVertex
62
5
10
86.250000
20
-0.017880
0
VERTEX
5
db
100
AcDbEntity
8
1
100
AcDbVertex
100
AcDb2dVertex
62
5
10
92.250000
20
0.482120
0
VERTEX
5
dc
100
AcDbEntity
8
1
100
AcDbVertex
100
AcDb2dVertex
62
5
10
92.250000
20
-0.517880
0
VERTEX
5
dd
100
AcDbEntity
8
1
100
AcDbVertex
100
AcDb2dVertex
62
5
10
86.250000
20
-0.017880
0
SEQEND
5
de
100
AcDbEntity
8
1
0
LINE
5
df
100
AcDbEntity
8
1
100
AcDbLine
6
CONTINUOUS
62
5
10
86.250000
20
-0.017880
11
76.750000
21
-0.017880
0
POLYLINE
5
e0
100
AcDbEntity
8
1
6
CONTINUOUS
62
5
100
AcDb2dPolyline
66
1
10
0.0
20
0.0
30
0.0
70
0
0
VERTEX
5
e1
100
AcDbEntity
8
1
100
AcDbVertex
100
AcDb2dVertex
62
5
10
67.750000
20
-0.017880
0
VERTEX
5
e2
100
AcDbEntity
8
1
100
AcDbVertex
100
AcDb2dVertex
62
5
10
76.750000
20
-0.017880
0
VERTEX
5
e3
100
AcDbEntity
8
1
100
AcDbVertex
100
AcDb2dVertex
62
5
10
70.750000
20
-1.017880
0
VERTEX
5
e4
100
AcDbEntity
8
1
100
AcDbVertex
100
AcDb2dVertex
62
5
10
70.750000
20
0.982120
0
VERTEX
5
e5
100
AcDbEntity
8
1
100
AcDbVertex
100
AcDb2dVertex
62
5
10
76.750000
20
-0.017880
0
VERTEX
5
e6
100
AcDbEntity
8
1
100
AcDbVertex
100
AcDb2dVertex
62
5
10
70.750000
20
-0.517880
0
VERTEX
5
e7
100
AcDbEntity
8
1
100
AcDbVertex
100
AcDb2dVertex
62
5
10
70.750000
20
0.482120
0
VERTEX
5
e8
100
AcDbEntity
8
1
100
AcDbVertex
100
AcDb2dVertex
62
5
10
76.750000
20
-0.017880
0
SEQEND
5
e9
100
AcDbEntity
8
1
0
POLYLINE
5
ea
100
AcDbEntity
8
1
6
CONTINUOUS
62
5
100
AcDb2dPolyline
66
1
10
0.0
20
0.0
30
0.0
70
0
0
VERTEX
5
eb
100
AcDbEntity
8
1
100
AcDbVertex
100
AcDb2dVertex
62
5
10
-44.250000
20
91.500000
0
VERTEX
5
ec
100
AcDbEntity
8
1
100
AcDbVertex
100
AcDb2dVertex
62
5
10
-43.000000
20
92.437500
0
VERTEX
5
ed
100
AcDbEntity
8
1
100
AcDbVertex
100
AcDb2dVertex
62
5
10
-42.250000
20
92.750000
0
VERTEX
5
ee
100
AcDbEntity
8
1
100
AcDbVertex
100
AcDb2dVertex
62
5
10
-41.250000
20
92.750000
0
VERTEX
5
ef
100
AcDbEntity
8
1
100
AcDbVertex
100
AcDb2dVertex
62
5
10
-40.750000
20
92.437500
0
VERTEX
5
f0
100
AcDbEntity
8
1
100
AcDbVertex
100
AcDb2dVertex
62
5
10
-40.250000
20
91.812500
0
VERTEX
5
f1
100
AcDbEntity
8
1
100
AcDbVertex
100
AcDb2dVertex
62
5
10
-40.250000
20
90.875000
0
VERTEX
5
f2
100
AcDbEntity
8
1
100
AcDbVertex
100
AcDb2dVertex
62
5
10
-40.750000
20
89.937500
0
VERTEX
5
f3
100
AcDbEntity
8
1
100
AcDbVertex
100
AcDb2dVertex
62
5
10
-41.500000
20
89.312500
0
VERTEX
5
f4
100
AcDbEntity
8
1
100
AcDbVertex
100
AcDb2dVertex
62
5
10
-43.000000
20
89.312500
0
SEQEND
5
f5
100
AcDbEntity
8
1
0
POLYLINE
5
f6
100
AcDbEntity
8
1
6
CONTINUOUS
62
5
100
AcDb2dPolyline
66
1
10
0.0
20
0.0
30
0.0
70
0
0
VERTEX
5
f7
100
AcDbEntity
8
1
100
AcDbVertex
100
AcDb2dVertex
62
5
10
-41.500000
20
89.312500
0
VERTEX
5
f8
100
AcDbEntity
8
1
100
AcDbVertex
100
AcDb2dVertex
62
5
10
-40.750000
20
89.000000
0
VERTEX
5
f9
100
AcDbEntity
8
1
100
AcDbVertex
100
AcDb2dVertex
62
5
10
-40.250000
20
88.375000
0
VERTEX
5
fa
100
AcDbEntity
8
1
100
AcDbVertex
100
AcDb2dVertex
62
5
10
-40.000000
20
87.750000
0
VERTEX
5
fb
100
AcDbEntity
8
1
100
AcDbVertex
100
AcDb2dVertex
62
5
10
-40.000000
20
86.812500
0
VERTEX
5
fc
100
AcDbEntity
8
1
100
AcDbVertex
100
AcDb2dVertex
62
5
10
-40.500000
20
85.875000
0
VERTEX
5
fd
100
AcDbEntity
8
1
100
AcDbVertex
100
AcDb2dVertex
62
5
10
-41.750000
20
85.250000
0
VERTEX
5
fe
100
AcDbEntity
8
1
100
AcDbVertex
100
AcDb2dVertex
62
5
10
-43.000000
20
85.250000
0
VERTEX
5
ff
100
AcDbEntity
8
1
100
AcDbVertex
100
AcDb2dVertex
62
5
10
-44.000000
20
85.562500
0
SEQEND
5
100
100
AcDbEntity
8
1
0
LINE
5
101
100
AcDbEntity
8
1
100
AcDbLine
6
CONTINUOUS
62
5
10
-37.250000
20
92.750000
11
-36.250000
21
91.812500
0
POLYLINE
5
102
100
AcDbEntity
8
1
6
CONTINUOUS
62
5
100
AcDb2dPolyline
66
1
10
0.0
20
0.0
30
0.0
70
0
0
VERTEX
5
103
100
AcDbEntity
8
1
100
AcDbVertex
100
AcDb2dVertex
62
5
10
-37.750000
20
89.000000
0
VERTEX
5
104
100
AcDbEntity
8
1
100
AcDbVertex
100
AcDb2dVertex
62
5
10
-36.500000
20
89.000000
0
VERTEX
5
105
100
AcDbEntity
8
1
100
AcDbVertex
100
AcDb2dVertex
62
5
10
-36.500000
20
85.875000
0
VERTEX
5
106
100
AcDbEntity
8
1
100
AcDbVertex
100
AcDb2dVertex
62
5
10
-37.750000
20
84.937500
0
SEQEND
5
107
100
AcDbEntity
8
1
0
POLYLINE
5
108
100
AcDbEntity
8
1
6
CONTINUOUS
62
5
100
AcDb2dPolyline
66
1
10
0.0
20
0.0
30
0.0
70
0
0
VERTEX
5
109
100
AcDbEntity
8
1
100
AcDbVertex
100
AcDb2dVertex
62
5
10
-36.500000
20
85.875000
0
VERTEX
5
10a
100
AcDbEntity
8
1
100
AcDbVertex
100
AcDb2dVertex
62
5
10
-35.500000
20
85.250000
0
VERTEX
5
10b
100
AcDbEntity
8
1
100
AcDbVertex
100
AcDb2dVertex
62
5
10
-30.750000
20
84.625000
0
SEQEND
5
10c
100
AcDbEntity
8
1
0
LINE
5
10d
100
AcDbEntity
8
1
100
AcDbLine
6
CONTINUOUS
62
5
10
-35.500000
20
92.125000
11
-30.750000
21
92.125000
0
LINE
5
10e
100
AcDbEntity
8
1
100
AcDbLine
6
CONTINUOUS
62
5
10
-33.000000
20
93.375000
11
-33.000000
21
85.875000
0
POLYLINE
5
10f
100
AcDbEntity
8
1
6
CONTINUOUS
62
5
100
AcDb2dPolyline
66
1
10
0.0
20
0.0
30
0.0
70
1
0
VERTEX
5
110
100
AcDbEntity
8
1
100
AcDbVertex
100
AcDb2dVertex
62
5
10
-35.000000
20
90.875000
0
VERTEX
5
111
100
AcDbEntity
8
1
100
AcDbVertex
100
AcDb2dVertex
62
5
10
-35.000000
20
88.375000
0
VERTEX
5
112
100
AcDbEntity
8
1
100
AcDbVertex
100
AcDb2dVertex
62
5
10
-31.250000
20
88.375000
0
VERTEX
5
113
100
AcDbEntity
8
1
100
AcDbVertex
100
AcDb2dVertex
62
5
10
-31.250000
20
90.875000
0
VERTEX
5
114
100
AcDbEntity
8
1
100
AcDbVertex
100
AcDb2dVertex
62
5
10
-35.000000
20
90.875000
0
SEQEND
5
115
100
AcDbEntity
8
1
0
LINE
5
116
100
AcDbEntity
8
1
100
AcDbLine
6
CONTINUOUS
62
5
10
-35.000000
20
89.625000
11
-31.250000
21
89.625000
0
LINE
5
117
100
AcDbEntity
8
1
100
AcDbLine
6
CONTINUOUS
62
5
10
-36.000000
20
87.125000
11
-30.500000
21
87.125000
0
POLYLINE
5
118
100
AcDbEntity
8
1
6
CONTINUOUS
62
5
100
AcDb2dPolyline
66
1
10
0.0
20
0.0
30
0.0
70
0
0
VERTEX
5
119
100
AcDbEntity
8
1
100
AcDbVertex
100
AcDb2dVertex
62
5
10
-65.250000
20
89.312500
0
VERTEX
5
11a
100
AcDbEntity
8
1
100
AcDbVertex
100
AcDb2dVertex
62
5
10
-65.000000
20
89.000000
0
VERTEX
5
11b
100
AcDbEntity
8
1
100
AcDbVertex
100
AcDb2dVertex
62
5
10
-58.250000
20
89.000000
0
SEQEND
5
11c
100
AcDbEntity
8
1
0
POLYLINE
5
11d
100
AcDbEntity
8
1
6
CONTINUOUS
62
5
100
AcDb2dPolyline
66
1
10
0.0
20
0.0
30
0.0
70
0
0
VERTEX
5
11e
100
AcDbEntity
8
1
100
AcDbVertex
100
AcDb2dVertex
62
5
10
-54.750000
20
89.937500
0
VERTEX
5
11f
100
AcDbEntity
8
1
100
AcDbVertex
100
AcDb2dVertex
62
5
10
-54.500000
20
89.937500
0
VERTEX
5
120
100
AcDbEntity
8
1
100
AcDbVertex
100
AcDb2dVertex
62
5
10
-52.750000
20
88.687500
0
SEQEND
5
121
100
AcDbEntity
8
1
0
LINE
5
122
100
AcDbEntity
8
1
100
AcDbLine
6
CONTINUOUS
62
5
10
-54.750000
20
92.750000
11
-54.750000
21
85.250000
0
POLYLINE
5
123
100
AcDbEntity
8
1
6
CONTINUOUS
62
5
100
AcDb2dPolyline
66
1
10
0.0
20
0.0
30
0.0
70
0
0
VERTEX
5
124
100
AcDbEntity
8
1
100
AcDbVertex
100
AcDb2dVertex
62
5
10
-62.750000
20
83.375000
0
VERTEX
5
125
100
AcDbEntity
8
1
100
AcDbVertex
100
AcDb2dVertex
62
5
10
-63.500000
20
82.125000
0
VERTEX
5
126
100
AcDbEntity
8
1
100
AcDbVertex
100
AcDb2dVertex
62
5
10
-64.250000
20
81.187500
0
VERTEX
5
127
100
AcDbEntity
8
1
100
AcDbVertex
100
AcDb2dVertex
62
5
10
-65.250000
20
80.250000
0
SEQEND
5
128
100
AcDbEntity
8
1
0
POLYLINE
5
129
100
AcDbEntity
8
1
6
CONTINUOUS
62
5
100
AcDb2dPolyline
66
1
10
0.0
20
0.0
30
0.0
70
0
0
VERTEX
5
12a
100
AcDbEntity
8
1
100
AcDbVertex
100
AcDb2dVertex
62
5
10
-63.000000
20
82.750000
0
VERTEX
5
12b
100
AcDbEntity
8
1
100
AcDbVertex
100
AcDb2dVertex
62
5
10
-60.750000
20
82.750000
0
VERTEX
5
12c
100
AcDbEntity
8
1
100
AcDbVertex
100
AcDb2dVertex
62
5
10
-62.000000
20
80.875000
0
SEQEND
5
12d
100
AcDbEntity
8
1
0
POLYLINE
5
12e
100
AcDbEntity
8
1
6
CONTINUOUS
62
5
100
AcDb2dPolyline
66
1
10
0.0
20
0.0
30
0.0
70
0
0
VERTEX
5
12f
100
AcDbEntity
8
1
100
AcDbVertex
100
AcDb2dVertex
62
5
10
-64.250000
20
80.875000
0
VERTEX
5
130
100
AcDbEntity
8
1
100
AcDbVertex
100
AcDb2dVertex
62
5
10
-59.750000
20
80.875000
0
VERTEX
5
131
100
AcDbEntity
8
1
100
AcDbVertex
100
AcDb2dVertex
62
5
10
-59.750000
20
78.062500
0
VERTEX
5
132
100
AcDbEntity
8
1
100
AcDbVertex
100
AcDb2dVertex
62
5
10
-64.250000
20
78.062500
0
SEQEND
5
133
100
AcDbEntity
8
1
0
LINE
5
134
100
AcDbEntity
8
1
100
AcDbLine
6
CONTINUOUS
62
5
10
-62.000000
20
80.875000
11
-62.000000
21
78.062500
0
POLYLINE
5
135
100
AcDbEntity
8
1
6
CONTINUOUS
62
5
100
AcDb2dPolyline
66
1
10
0.0
20
0.0
30
0.0
70
0
0
VERTEX
5
136
100
AcDbEntity
8
1
100
AcDbVertex
100
AcDb2dVertex
62
5
10
-64.250000
20
80.875000
0
VERTEX
5
137
100
AcDbEntity
8
1
100
AcDbVertex
100
AcDb2dVertex
62
5
10
-64.250000
20
75.562500
0
VERTEX
5
138
100
AcDbEntity
8
1
100
AcDbVertex
100
AcDb2dVertex
62
5
10
-63.750000
20
74.937500
0
VERTEX
5
139
100
AcDbEntity
8
1
100
AcDbVertex
100
AcDb2dVertex
62
5
10
-58.750000
20
74.937500
0
VERTEX
5
13a
100
AcDbEntity
8
1
100
AcDbVertex
100
AcDb2dVertex
62
5
10
-58.750000
20
76.187500
0
SEQEND
5
13b
100
AcDbEntity
8
1
0
POLYLINE
5
13c
100
AcDbEntity
8
1
6
CONTINUOUS
62
5
100
AcDb2dPolyline
66
1
10
0.0
20
0.0
30
0.0
70
0
0
VERTEX
5
13d
100
AcDbEntity
8
1
100
AcDbVertex
100
AcDb2dVertex
62
5
10
-86.750000
20
89.937500
0
VERTEX
5
13e
100
AcDbEntity
8
1
100
AcDbVertex
100
AcDb2dVertex
62
5
10
-86.500000
20
89.937500
0
VERTEX
5
13f
100
AcDbEntity
8
1
100
AcDbVertex
100
AcDb2dVertex
62
5
10
-84.750000
20
88.687500
0
SEQEND
5
140
100
AcDbEntity
8
1
0
LINE
5
141
100
AcDbEntity
8
1
100
AcDbLine
6
CONTINUOUS
62
5
10
-86.750000
20
92.750000
11
-86.750000
21
85.250000
0
POLYLINE
5
142
100
AcDbEntity
8
1
6
CONTINUOUS
62
5
100
AcDb2dPolyline
66
1
10
0.0
20
0.0
30
0.0
70
0
0
VERTEX
5
143
100
AcDbEntity
8
1
100
AcDbVertex
100
AcDb2dVertex
62
5
10
-81.000000
20
90.875000
0
VERTEX
5
144
100
AcDbEntity
8
1
100
AcDbVertex
100
AcDb2dVertex
62
5
10
-76.750000
20
90.875000
0
VERTEX
5
145
100
AcDbEntity
8
1
100
AcDbVertex
100
AcDb2dVertex
62
5
10
-76.750000
20
90.250000
0
VERTEX
5
146
100
AcDbEntity
8
1
100
AcDbVertex
100
AcDb2dVertex
62
5
10
-77.000000
20
89.312500
0
VERTEX
5
147
100
AcDbEntity
8
1
100
AcDbVertex
100
AcDb2dVertex
62
5
10
-77.500000
20
88.375000
0
VERTEX
5
148
100
AcDbEntity
8
1
100
AcDbVertex
100
AcDb2dVertex
62
5
10
-78.250000
20
87.125000
0
VERTEX
5
149
100
AcDbEntity
8
1
100
AcDbVertex
100
AcDb2dVertex
62
5
10
-79.000000
20
86.500000
0
VERTEX
5
14a
100
AcDbEntity
8
1
100
AcDbVertex
100
AcDb2dVertex
62
5
10
-80.250000
20
85.562500
0
SEQEND
5
14b
100
AcDbEntity
8
1
0
POLYLINE
5
14c
100
AcDbEntity
8
1
6
CONTINUOUS
62
5
100
AcDb2dPolyline
66
1
10
0.0
20
0.0
30
0.0
70
1
0
VERTEX
5
14d
100
AcDbEntity
8
1
100
AcDbVertex
100
AcDb2dVertex
62
5
10
-76.000000
20
92.437500
0
VERTEX
5
14e
100
AcDbEntity
8
1
100
AcDbVertex
100
AcDb2dVertex
62
5
10
-75.500000
20
92.437500
0
VERTEX
5
14f
100
AcDbEntity
8
1
100
AcDbVertex
100
AcDb2dVertex
62
5
10
-75.250000
20
92.125000
0
VERTEX
5
150
100
AcDbEntity
8
1
100
AcDbVertex
100
AcDb2dVertex
62
5
10
-75.250000
20
91.500000
0
VERTEX
5
151
100
AcDbEntity
8
1
100
AcDbVertex
100
AcDb2dVertex
62
5
10
-75.500000
20
91.187500
0
VERTEX
5
152
100
AcDbEntity
8
1
100
AcDbVertex
100
AcDb2dVertex
62
5
10
-76.000000
20
91.187500
0
VERTEX
5
153
100
AcDbEntity
8
1
100
AcDbVertex
100
AcDb2dVertex
62
5
10
-76.250000
20
91.500000
0
VERTEX
5
154
100
AcDbEntity
8
1
100
AcDbVertex
100
AcDb2dVertex
62
5
10
-76.250000
20
92.125000
0
VERTEX
5
155
100
AcDbEntity
8
1
100
AcDbVertex
100
AcDb2dVertex
62
5
10
-76.000000
20
92.437500
0
SEQEND
5
156
100
AcDbEntity
8
1
0
POLYLINE
5
157
100
AcDbEntity
8
1
6
CONTINUOUS
62
5
100
AcDb2dPolyline
66
1
10
0.0
20
0.0
30
0.0
70
0
0
VERTEX
5
158
100
AcDbEntity
8
1
100
AcDbVertex
100
AcDb2dVertex
62
5
10
-105.000000
20
89.312500
0
VERTEX
5
159
100
AcDbEntity
8
1
100
AcDbVertex
100
AcDb2dVertex
62
5
10
-99.750000
20
89.937500
0
VERTEX
5
15a
100
AcDbEntity
8
1
100
AcDbVertex
100
AcDb2dVertex
62
5
10
-99.750000
20
89.625000
0
VERTEX
5
15b
100
AcDbEntity
8
1
100
AcDbVertex
100
AcDb2dVertex
62
5
10
-101.000000
20
88.062500
0
SEQEND
5
15c
100
AcDbEntity
8
1
0
POLYLINE
5
15d
100
AcDbEntity
8
1
6
CONTINUOUS
62
5
100
AcDb2dPolyline
66
1
10
0.0
20
0.0
30
0.0
70
0
0
VERTEX
5
15e
100
AcDbEntity
8
1
100
AcDbVertex
100
AcDb2dVertex
62
5
10
-103.000000
20
92.125000
0
VERTEX
5
15f
100
AcDbEntity
8
1
100
AcDbVertex
100
AcDb2dVertex
62
5
10
-103.000000
20
86.187500
0
VERTEX
5
160
100
AcDbEntity
8
1
100
AcDbVertex
100
AcDb2dVertex
62
5
10
-102.500000
20
85.562500
0
VERTEX
5
161
100
AcDbEntity
8
1
100
AcDbVertex
100
AcDb2dVertex
62
5
10
-99.750000
20
85.562500
0
SEQEND
5
162
100
AcDbEntity
8
1
0
LINE
5
163
100
AcDbEntity
8
1
100
AcDbLine
6
CONTINUOUS
62
5
10
-96.250000
20
91.187500
11
-95.250000
21
89.937500
0
POLYLINE
5
164
100
AcDbEntity
8
1
6
CONTINUOUS
62
5
100
AcDb2dPolyline
66
1
10
0.0
20
0.0
30
0.0
70
0
0
VERTEX
5
165
100
AcDbEntity
8
1
100
AcDbVertex
100
AcDb2dVertex
62
5
10
-96.500000
20
86.187500
0
VERTEX
5
166
100
AcDbEntity
8
1
100
AcDbVertex
100
AcDb2dVertex
62
5
10
-94.750000
20
87.125000
0
VERTEX
5
167
100
AcDbEntity
8
1
100
AcDbVertex
100
AcDb2dVertex
62
5
10
-93.250000
20
88.375000
0
VERTEX
5
168
100
AcDbEntity
8
1
100
AcDbVertex
100
AcDb2dVertex
62
5
10
-91.750000
20
89.937500
0
SEQEND
5
169
100
AcDbEntity
8
1
0
POLYLINE
5
16a
100
AcDbEntity
8
1
6
CONTINUOUS
62
5
100
AcDb2dPolyline
66
1
10
0.0
20
0.0
30
0.0
70
0
0
VERTEX
5
16b
100
AcDbEntity
8
1
100
AcDbVertex
100
AcDb2dVertex
62
5
10
-76.250000
20
82.437500
0
VERTEX
5
16c
100
AcDbEntity
8
1
100
AcDbVertex
100
AcDb2dVertex
62
5
10
-78.250000
20
79.937500
0
VERTEX
5
16d
100
AcDbEntity
8
1
100
AcDbVertex
100
AcDb2dVertex
62
5
10
-80.500000
20
78.375000
0
SEQEND
5
16e
100
AcDbEntity
8
1
0
LINE
5
16f
100
AcDbEntity
8
1
100
AcDbLine
6
CONTINUOUS
62
5
10
-77.750000
20
80.562500
11
-77.750000
21
75.250000
0
POLYLINE
5
170
100
AcDbEntity
8
1
6
CONTINUOUS
62
5
100
AcDb2dPolyline
66
1
10
0.0
20
0.0
30
0.0
70
0
0
VERTEX
5
171
100
AcDbEntity
8
1
100
AcDbVertex
100
AcDb2dVertex
62
5
10
-70.750000
20
79.937500
0
VERTEX
5
172
100
AcDbEntity
8
1
100
AcDbVertex
100
AcDb2dVertex
62
5
10
-70.500000
20
79.937500
0
VERTEX
5
173
100
AcDbEntity
8
1
100
AcDbVertex
100
AcDb2dVertex
62
5
10
-68.750000
20
78.687500
0
SEQEND
5
174
100
AcDbEntity
8
1
0
LINE
5
175
100
AcDbEntity
8
1
100
AcDbLine
6
CONTINUOUS
62
5
10
-70.750000
20
82.750000
11
-70.750000
21
75.250000
0
POLYLINE
5
176
100
AcDbEntity
8
1
6
CONTINUOUS
62
5
100
AcDb2dPolyline
66
1
10
0.0
20
0.0
30
0.0
70
0
0
VERTEX
5
177
100
AcDbEntity
8
1
100
AcDbVertex
100
AcDb2dVertex
62
5
10
-105.000000
20
81.187500
0
VERTEX
5
178
100
AcDbEntity
8
1
100
AcDbVertex
100
AcDb2dVertex
62
5
10
-99.750000
20
81.187500
0
VERTEX
5
179
100
AcDbEntity
8
1
100
AcDbVertex
100
AcDb2dVertex
62
5
10
-99.750000
20
80.875000
0
VERTEX
5
17a
100
AcDbEntity
8
1
100
AcDbVertex
100
AcDb2dVertex
62
5
10
-101.500000
20
79.000000
0
VERTEX
5
17b
100
AcDbEntity
8
1
100
AcDbVertex
100
AcDb2dVertex
62
5
10
-102.250000
20
79.000000
0
SEQEND
5
17c
100
AcDbEntity
8
1
0
POLYLINE
5
17d
100
AcDbEntity
8
1
6
CONTINUOUS
62
5
100
AcDb2dPolyline
66
1
10
0.0
20
0.0
30
0.0
70
0
0
VERTEX
5
17e
100
AcDbEntity
8
1
100
AcDbVertex
100
AcDb2dVertex
62
5
10
-102.250000
20
79.937500
0
VERTEX
5
17f
100
AcDbEntity
8
1
100
AcDbVertex
100
AcDb2dVertex
62
5
10
-102.250000
20
78.375000
0
VERTEX
5
180
100
AcDbEntity
8
1
100
AcDbVertex
100
AcDb2dVertex
62
5
10
-103.000000
20
76.500000
0
VERTEX
5
181
100
AcDbEntity
8
1
100
AcDbVertex
100
AcDb2dVertex
62
5
10
-104.000000
20
75.250000
0
SEQEND
5
182
100
AcDbEntity
8
1
0
LINE
5
183
100
AcDbEntity
8
1
100
AcDbLine
6
CONTINUOUS
62
5
10
-96.750000
20
79.937500
11
-91.750000
21
79.937500
0
POLYLINE
5
184
100
AcDbEntity
8
1
6
CONTINUOUS
62
5
100
AcDb2dPolyline
66
1
10
0.0
20
0.0
30
0.0
70
0
0
VERTEX
5
185
100
AcDbEntity
8
1
100
AcDbVertex
100
AcDb2dVertex
62
5
10
-94.250000
20
81.812500
0
VERTEX
5
186
100
AcDbEntity
8
1
100
AcDbVertex
100
AcDb2dVertex
62
5
10
-94.250000
20
75.562500
0
VERTEX
5
187
100
AcDbEntity
8
1
100
AcDbVertex
100
AcDb2dVertex
62
5
10
-94.750000
20
75.562500
0
SEQEND
5
188
100
AcDbEntity
8
1
0
LINE
5
189
100
AcDbEntity
8
1
100
AcDbLine
6
CONTINUOUS
62
5
10
-95.500000
20
78.375000
11
-96.750000
21
76.500000
0
LINE
5
18a
100
AcDbEntity
8
1
100
AcDbLine
6
CONTINUOUS
62
5
10
-92.750000
20
78.375000
11
-91.500000
21
76.812500
0
POLYLINE
5
18b
100
AcDbEntity
8
1
6
CONTINUOUS
62
5
100
AcDb2dPolyline
66
1
10
0.0
20
0.0
30
0.0
70
0
0
VERTEX
5
18c
100
AcDbEntity
8
1
100
AcDbVertex
100
AcDb2dVertex
62
5
10
-88.250000
20
79.312500
0
VERTEX
5
18d
100
AcDbEntity
8
1
100
AcDbVertex
100
AcDb2dVertex
62
5
10
-88.250000
20
81.500000
0
VERTEX
5
18e
100
AcDbEntity
8
1
100
AcDbVertex
100
AcDb2dVertex
62
5
10
-84.250000
20
81.500000
0
VERTEX
5
18f
100
AcDbEntity
8
1
100
AcDbVertex
100
AcDb2dVertex
62
5
10
-84.250000
20
80.562500
0
VERTEX
5
190
100
AcDbEntity
8
1
100
AcDbVertex
100
AcDb2dVertex
62
5
10
-84.500000
20
79.000000
0
VERTEX
5
191
100
AcDbEntity
8
1
100
AcDbVertex
100
AcDb2dVertex
62
5
10
-85.000000
20
77.750000
0
VERTEX
5
192
100
AcDbEntity
8
1
100
AcDbVertex
100
AcDb2dVertex
62
5
10
-85.500000
20
76.812500
0
VERTEX
5
193
100
AcDbEntity
8
1
100
AcDbVertex
100
AcDb2dVertex
62
5
10
-86.500000
20
75.562500
0
SEQEND
5
194
100
AcDbEntity
8
1
0
POLYLINE
5
195
100
AcDbEntity
8
1
6
CONTINUOUS
62
5
100
AcDb2dPolyline
66
1
10
0.0
20
0.0
30
0.0
70
0
0
VERTEX
5
196
100
AcDbEntity
8
1
100
AcDbVertex
100
AcDb2dVertex
62
5
10
-71.750000
20
92.125000
0
VERTEX
5
197
100
AcDbEntity
8
1
100
AcDbVertex
100
AcDb2dVertex
62
5
10
-71.750000
20
85.875000
0
VERTEX
5
198
100
AcDbEntity
8
1
100
AcDbVertex
100
AcDb2dVertex
62
5
10
-71.250000
20
85.562500
0
VERTEX
5
199
100
AcDbEntity
8
1
100
AcDbVertex
100
AcDb2dVertex
62
5
10
-70.000000
20
86.187500
0
VERTEX
5
19a
100
AcDbEntity
8
1
100
AcDbVertex
100
AcDb2dVertex
62
5
10
-68.750000
20
87.125000
0
VERTEX
5
19b
100
AcDbEntity
8
1
100
AcDbVertex
100
AcDb2dVertex
62
5
10
-67.500000
20
88.375000
0
SEQEND
5
19c
100
AcDbEntity
8
1
0
POLYLINE
5
19d
100
AcDbEntity
8
1
6
CONTINUOUS
62
5
100
AcDb2dPolyline
66
1
10
0.0
20
0.0
30
0.0
70
0
0
VERTEX
5
19e
100
AcDbEntity
8
1
100
AcDbVertex
100
AcDb2dVertex
62
5
10
-104.500000
20
53.625000
0
VERTEX
5
19f
100
AcDbEntity
8
1
100
AcDbVertex
100
AcDb2dVertex
62
5
10
-104.187500
20
54.875000
0
VERTEX
5
1a0
100
AcDbEntity
8
1
100
AcDbVertex
100
AcDb2dVertex
62
5
10
-103.562500
20
55.500000
0
VERTEX
5
1a1
100
AcDbEntity
8
1
100
AcDbVertex
100
AcDb2dVertex
62
5
10
-102.625000
20
55.500000
0
VERTEX
5
1a2
100
AcDbEntity
8
1
100
AcDbVertex
100
AcDb2dVertex
62
5
10
-102.000000
20
55.187500
0
VERTEX
5
1a3
100
AcDbEntity
8
1
100
AcDbVertex
100
AcDb2dVertex
62
5
10
-101.687500
20
54.250000
0
VERTEX
5
1a4
100
AcDbEntity
8
1
100
AcDbVertex
100
AcDb2dVertex
62
5
10
-101.687500
20
53.000000
0
VERTEX
5
1a5
100
AcDbEntity
8
1
100
AcDbVertex
100
AcDb2dVertex
62
5
10
-102.000000
20
52.375000
0
VERTEX
5
1a6
100
AcDbEntity
8
1
100
AcDbVertex
100
AcDb2dVertex
62
5
10
-102.625000
20
51.750000
0
VERTEX
5
1a7
100
AcDbEntity
8
1
100
AcDbVertex
100
AcDb2dVertex
62
5
10
-103.562500
20
51.750000
0
SEQEND
5
1a8
100
AcDbEntity
8
1
0
POLYLINE
5
1a9
100
AcDbEntity
8
1
6
CONTINUOUS
62
5
100
AcDb2dPolyline
66
1
10
0.0
20
0.0
30
0.0
70
0
0
VERTEX
5
1aa
100
AcDbEntity
8
1
100
AcDbVertex
100
AcDb2dVertex
62
5
10
-102.625000
20
51.750000
0
VERTEX
5
1ab
100
AcDbEntity
8
1
100
AcDbVertex
100
AcDb2dVertex
62
5
10
-101.687500
20
51.125000
0
VERTEX
5
1ac
100
AcDbEntity
8
1
100
AcDbVertex
100
AcDb2dVertex
62
5
10
-101.375000
20
50.187500
0
VERTEX
5
1ad
100
AcDbEntity
8
1
100
AcDbVertex
100
AcDb2dVertex
62
5
10
-101.375000
20
49.250000
0
VERTEX
5
1ae
100
AcDbEntity
8
1
100
AcDbVertex
100
AcDb2dVertex
62
5
10
-101.687500
20
48.625000
0
VERTEX
5
1af
100
AcDbEntity
8
1
100
AcDbVertex
100
AcDb2dVertex
62
5
10
-102.625000
20
48.000000
0
VERTEX
5
1b0
100
AcDbEntity
8
1
100
AcDbVertex
100
AcDb2dVertex
62
5
10
-103.562500
20
48.000000
0
VERTEX
5
1b1
100
AcDbEntity
8
1
100
AcDbVertex
100
AcDb2dVertex
62
5
10
-104.187500
20
48.312500
0
VERTEX
5
1b2
100
AcDbEntity
8
1
100
AcDbVertex
100
AcDb2dVertex
62
5
10
-104.812500
20
49.250000
0
SEQEND
5
1b3
100
AcDbEntity
8
1
0
POLYLINE
5
1b4
100
AcDbEntity
8
1
6
CONTINUOUS
62
5
100
AcDb2dPolyline
66
1
10
0.0
20
0.0
30
0.0
70
0
0
VERTEX
5
1b5
100
AcDbEntity
8
1
100
AcDbVertex
100
AcDb2dVertex
62
5
10
-120.250000
20
90.875000
0
VERTEX
5
1b6
100
AcDbEntity
8
1
100
AcDbVertex
100
AcDb2dVertex
62
5
10
-116.250000
20
90.875000
0
VERTEX
5
1b7
100
AcDbEntity
8
1
100
AcDbVertex
100
AcDb2dVertex
62
5
10
-116.250000
20
86.500000
0
VERTEX
5
1b8
100
AcDbEntity
8
1
100
AcDbVertex
100
AcDb2dVertex
62
5
10
-120.250000
20
86.500000
0
SEQEND
5
1b9
100
AcDbEntity
8
1
0
LINE
5
1ba
100
AcDbEntity
8
1
100
AcDbLine
6
CONTINUOUS
62
5
10
-112.250000
20
91.187500
11
-111.250000
21
89.937500
0
POLYLINE
5
1bb
100
AcDbEntity
8
1
6
CONTINUOUS
62
5
100
AcDb2dPolyline
66
1
10
0.0
20
0.0
30
0.0
70
0
0
VERTEX
5
1bc
100
AcDbEntity
8
1
100
AcDbVertex
100
AcDb2dVertex
62
5
10
-112.500000
20
86.187500
0
VERTEX
5
1bd
100
AcDbEntity
8
1
100
AcDbVertex
100
AcDb2dVertex
62
5
10
-110.750000
20
87.125000
0
VERTEX
5
1be
100
AcDbEntity
8
1
100
AcDbVertex
100
AcDb2dVertex
62
5
10
-109.250000
20
88.375000
0
VERTEX
5
1bf
100
AcDbEntity
8
1
100
AcDbVertex
100
AcDb2dVertex
62
5
10
-107.750000
20
89.937500
0
SEQEND
5
1c0
100
AcDbEntity
8
1
0
POLYLINE
5
1c1
100
AcDbEntity
8
1
6
CONTINUOUS
62
5
100
AcDb2dPolyline
66
1
10
0.0
20
0.0
30
0.0
70
0
0
VERTEX
5
1c2
100
AcDbEntity
8
1
100
AcDbVertex
100
AcDb2dVertex
62
5
10
-124.250000
20
102.000000
0
VERTEX
5
1c3
100
AcDbEntity
8
1
100
AcDbVertex
100
AcDb2dVertex
62
5
10
-123.500000
20
96.000000
0
VERTEX
5
1c4
100
AcDbEntity
8
1
100
AcDbVertex
100
AcDb2dVertex
62
5
10
-122.750000
20
102.000000
0
VERTEX
5
1c5
100
AcDbEntity
8
1
100
AcDbVertex
100
AcDb2dVertex
62
5
10
-122.000000
20
96.000000
0
VERTEX
5
1c6
100
AcDbEntity
8
1
100
AcDbVertex
100
AcDb2dVertex
62
5
10
-121.250000
20
102.000000
0
SEQEND
5
1c7
100
AcDbEntity
8
1
0
LINE
5
1c8
100
AcDbEntity
8
1
100
AcDbLine
6
CONTINUOUS
62
5
10
-119.500000
20
102.000000
11
-118.000000
21
102.000000
0
LINE
5
1c9
100
AcDbEntity
8
1
100
AcDbLine
6
CONTINUOUS
62
5
10
-118.750000
20
102.000000
11
-118.750000
21
96.000000
0
LINE
5
1ca
100
AcDbEntity
8
1
100
AcDbLine
6
CONTINUOUS
62
5
10
-119.500000
20
96.000000
11
-118.000000
21
96.000000
0
LINE
5
1cb
100
AcDbEntity
8
1
100
AcDbLine
6
CONTINUOUS
62
5
10
-116.000000
20
102.000000
11
-116.000000
21
96.000000
0
POLYLINE
5
1cc
100
AcDbEntity
8
1
6
CONTINUOUS
62
5
100
AcDb2dPolyline
66
1
10
0.0
20
0.0
30
0.0
70
0
0
VERTEX
5
1cd
100
AcDbEntity
8
1
100
AcDbVertex
100
AcDb2dVertex
62
5
10
-116.000000
20
102.000000
0
VERTEX
5
1ce
100
AcDbEntity
8
1
100
AcDbVertex
100
AcDb2dVertex
62
5
10
-114.750000
20
102.000000
0
VERTEX
5
1cf
100
AcDbEntity
8
1
100
AcDbVertex
100
AcDb2dVertex
62
5
10
-114.250000
20
101.750000
0
VERTEX
5
1d0
100
AcDbEntity
8
1
100
AcDbVertex
100
AcDb2dVertex
62
5
10
-113.750000
20
101.250000
0
VERTEX
5
1d1
100
AcDbEntity
8
1
100
AcDbVertex
100
AcDb2dVertex
62
5
10
-113.500000
20
100.250000
0
VERTEX
5
1d2
100
AcDbEntity
8
1
100
AcDbVertex
100
AcDb2dVertex
62
5
10
-113.500000
20
97.750000
0
VERTEX
5
1d3
100
AcDbEntity
8
1
100
AcDbVertex
100
AcDb2dVertex
62
5
10
-113.750000
20
96.750000
0
VERTEX
5
1d4
100
AcDbEntity
8
1
100
AcDbVertex
100
AcDb2dVertex
62
5
10
-114.250000
20
96.250000
0
VERTEX
5
1d5
100
AcDbEntity
8
1
100
AcDbVertex
100
AcDb2dVertex
62
5
10
-114.750000
20
96.000000
0
VERTEX
5
1d6
100
AcDbEntity
8
1
100
AcDbVertex
100
AcDb2dVertex
62
5
10
-116.000000
20
96.000000
0
SEQEND
5
1d7
100
AcDbEntity
8
1
0
POLYLINE
5
1d8
100
AcDbEntity
8
1
6
CONTINUOUS
62
5
100
AcDb2dPolyline
66
1
10
0.0
20
0.0
30
0.0
70
0
0
VERTEX
5
1d9
100
AcDbEntity
8
1
100
AcDbVertex
100
AcDb2dVertex
62
5
10
-109.500000
20
102.000000
0
VERTEX
5
1da
100
AcDbEntity
8
1
100
AcDbVertex
100
AcDb2dVertex
62
5
10
-112.000000
20
102.000000
0
VERTEX
5
1db
100
AcDbEntity
8
1
100
AcDbVertex
100
AcDb2dVertex
62
5
10
-112.000000
20
96.000000
0
VERTEX
5
1dc
100
AcDbEntity
8
1
100
AcDbVertex
100
AcDb2dVertex
62
5
10
-109.250000
20
96.000000
0
SEQEND
5
1dd
100
AcDbEntity
8
1
0
LINE
5
1de
100
AcDbEntity
8
1
100
AcDbLine
6
CONTINUOUS
62
5
10
-112.000000
20
99.000000
11
-109.750000
21
99.000000
0
POLYLINE
5
1df
100
AcDbEntity
8
1
6
CONTINUOUS
62
5
100
AcDb2dPolyline
66
1
10
0.0
20
0.0
30
0.0
70
0
0
VERTEX
5
1e0
100
AcDbEntity
8
1
100
AcDbVertex
100
AcDb2dVertex
62
5
10
-133.750000
20
102.000000
0
VERTEX
5
1e1
100
AcDbEntity
8
1
100
AcDbVertex
100
AcDb2dVertex
62
5
10
-133.750000
20
97.500000
0
VERTEX
5
1e2
100
AcDbEntity
8
1
100
AcDbVertex
100
AcDb2dVertex
62
5
10
-134.000000
20
96.500000
0
VERTEX
5
1e3
100
AcDbEntity
8
1
100
AcDbVertex
100
AcDb2dVertex
62
5
10
-134.500000
20
96.000000
0
VERTEX
5
1e4
100
AcDbEntity
8
1
100
AcDbVertex
100
AcDb2dVertex
62
5
10
-135.250000
20
96.000000
0
VERTEX
5
1e5
100
AcDbEntity
8
1
100
AcDbVertex
100
AcDb2dVertex
62
5
10
-135.750000
20
96.500000
0
VERTEX
5
1e6
100
AcDbEntity
8
1
100
AcDbVertex
100
AcDb2dVertex
62
5
10
-136.000000
20
97.500000
0
SEQEND
5
1e7
100
AcDbEntity
8
1
0
POLYLINE
5
1e8
100
AcDbEntity
8
1
6
CONTINUOUS
62
5
100
AcDb2dPolyline
66
1
10
0.0
20
0.0
30
0.0
70
0
0
VERTEX
5
1e9
100
AcDbEntity
8
1
100
AcDbVertex
100
AcDb2dVertex
62
5
10
-129.750000
20
99.000000
0
VERTEX
5
1ea
100
AcDbEntity
8
1
100
AcDbVertex
100
AcDb2dVertex
62
5
10
-129.250000
20
99.500000
0
VERTEX
5
1eb
100
AcDbEntity
8
1
100
AcDbVertex
100
AcDb2dVertex
62
5
10
-129.000000
20
99.500000
0
VERTEX
5
1ec
100
AcDbEntity
8
1
100
AcDbVertex
100
AcDb2dVertex
62
5
10
-128.500000
20
99.000000
0
VERTEX
5
1ed
100
AcDbEntity
8
1
100
AcDbVertex
100
AcDb2dVertex
62
5
10
-128.500000
20
98.750000
0
VERTEX
5
1ee
100
AcDbEntity
8
1
100
AcDbVertex
100
AcDb2dVertex
62
5
10
-129.000000
20
98.250000
0
VERTEX
5
1ef
100
AcDbEntity
8
1
100
AcDbVertex
100
AcDb2dVertex
62
5
10
-129.250000
20
98.250000
0
VERTEX
5
1f0
100
AcDbEntity
8
1
100
AcDbVertex
100
AcDb2dVertex
62
5
10
-129.750000
20
98.750000
0
VERTEX
5
1f1
100
AcDbEntity
8
1
100
AcDbVertex
100
AcDb2dVertex
62
5
10
-129.750000
20
99.000000
0
VERTEX
5
1f2
100
AcDbEntity
8
1
100
AcDbVertex
100
AcDb2dVertex
62
5
10
-128.500000
20
99.000000
0
SEQEND
5
1f3
100
AcDbEntity
8
1
0
LINE
5
1f4
100
AcDbEntity
8
1
100
AcDbLine
6
CONTINUOUS
62
5
10
-128.500000
20
98.750000
11
-129.750000
21
98.750000
0
LINE
5
1f5
100
AcDbEntity
8
1
100
AcDbLine
6
CONTINUOUS
62
5
10
-129.500000
20
98.500000
11
-128.750000
21
98.500000
0
LINE
5
1f6
100
AcDbEntity
8
1
100
AcDbLine
6
CONTINUOUS
62
5
10
-128.750000
20
99.250000
11
-129.500000
21
99.250000
0
POLYLINE
5
1f7
100
AcDbEntity
8
1
6
CONTINUOUS
62
5
100
AcDb2dPolyline
66
1
10
0.0
20
0.0
30
0.0
70
0
0
VERTEX
5
1f8
100
AcDbEntity
8
1
100
AcDbVertex
100
AcDb2dVertex
62
5
10
-120.250000
20
81.500000
0
VERTEX
5
1f9
100
AcDbEntity
8
1
100
AcDbVertex
100
AcDb2dVertex
62
5
10
-120.250000
20
76.187500
0
VERTEX
5
1fa
100
AcDbEntity
8
1
100
AcDbVertex
100
AcDb2dVertex
62
5
10
-119.750000
20
75.562500
0
VERTEX
5
1fb
100
AcDbEntity
8
1
100
AcDbVertex
100
AcDb2dVertex
62
5
10
-116.250000
20
75.562500
0
SEQEND
5
1fc
100
AcDbEntity
8
1
0
LINE
5
1fd
100
AcDbEntity
8
1
100
AcDbLine
6
CONTINUOUS
62
5
10
-116.750000
20
79.625000
11
-120.250000
21
78.687500
0
POLYLINE
5
1fe
100
AcDbEntity
8
1
6
CONTINUOUS
62
5
100
AcDb2dPolyline
66
1
10
0.0
20
0.0
30
0.0
70
1
0
VERTEX
5
1ff
100
AcDbEntity
8
1
100
AcDbVertex
100
AcDb2dVertex
62
5
10
-116.750000
20
81.500000
0
VERTEX
5
200
100
AcDbEntity
8
1
100
AcDbVertex
100
AcDb2dVertex
62
5
10
-116.250000
20
82.125000
0
VERTEX
5
201
100
AcDbEntity
8
1
100
AcDbVertex
100
AcDb2dVertex
62
5
10
-116.000000
20
82.125000
0
VERTEX
5
202
100
AcDbEntity
8
1
100
AcDbVertex
100
AcDb2dVertex
62
5
10
-115.500000
20
81.500000
0
VERTEX
5
203
100
AcDbEntity
8
1
100
AcDbVertex
100
AcDb2dVertex
62
5
10
-115.500000
20
81.187500
0
VERTEX
5
204
100
AcDbEntity
8
1
100
AcDbVertex
100
AcDb2dVertex
62
5
10
-116.000000
20
80.562500
0
VERTEX
5
205
100
AcDbEntity
8
1
100
AcDbVertex
100
AcDb2dVertex
62
5
10
-116.250000
20
80.562500
0
VERTEX
5
206
100
AcDbEntity
8
1
100
AcDbVertex
100
AcDb2dVertex
62
5
10
-116.750000
20
81.187500
0
VERTEX
5
207
100
AcDbEntity
8
1
100
AcDbVertex
100
AcDb2dVertex
62
5
10
-116.750000
20
81.500000
0
SEQEND
5
208
100
AcDbEntity
8
1
0
POLYLINE
5
209
100
AcDbEntity
8
1
6
CONTINUOUS
62
5
100
AcDb2dPolyline
66
1
10
0.0
20
0.0
30
0.0
70
0
0
VERTEX
5
20a
100
AcDbEntity
8
1
100
AcDbVertex
100
AcDb2dVertex
62
5
10
-111.500000
20
79.312500
0
VERTEX
5
20b
100
AcDbEntity
8
1
100
AcDbVertex
100
AcDb2dVertex
62
5
10
-109.500000
20
79.312500
0
VERTEX
5
20c
100
AcDbEntity
8
1
100
AcDbVertex
100
AcDb2dVertex
62
5
10
-109.750000
20
76.187500
0
SEQEND
5
20d
100
AcDbEntity
8
1
0
LINE
5
20e
100
AcDbEntity
8
1
100
AcDbLine
6
CONTINUOUS
62
5
10
-112.250000
20
76.187500
11
-108.000000
21
76.187500
0
POLYLINE
5
20f
100
AcDbEntity
8
1
6
CONTINUOUS
62
5
100
AcDb2dPolyline
66
1
10
0.0
20
0.0
30
0.0
70
0
0
VERTEX
5
210
100
AcDbEntity
8
1
100
AcDbVertex
100
AcDb2dVertex
62
5
10
-121.375000
20
55.500000
0
VERTEX
5
211
100
AcDbEntity
8
1
100
AcDbVertex
100
AcDb2dVertex
62
5
10
-124.500000
20
55.500000
0
VERTEX
5
212
100
AcDbEntity
8
1
100
AcDbVertex
100
AcDb2dVertex
62
5
10
-124.500000
20
48.000000
0
VERTEX
5
213
100
AcDbEntity
8
1
100
AcDbVertex
100
AcDb2dVertex
62
5
10
-121.062500
20
48.000000
0
SEQEND
5
214
100
AcDbEntity
8
1
0
LINE
5
215
100
AcDbEntity
8
1
100
AcDbLine
6
CONTINUOUS
62
5
10
-124.500000
20
51.750000
11
-121.687500
21
51.750000
0
LINE
5
216
100
AcDbEntity
8
1
100
AcDbLine
6
CONTINUOUS
62
5
10
-119.500000
20
51.750000
11
-116.375000
21
51.750000
0
POLYLINE
5
217
100
AcDbEntity
8
1
6
CONTINUOUS
62
5
100
AcDb2dPolyline
66
1
10
0.0
20
0.0
30
0.0
70
0
0
VERTEX
5
218
100
AcDbEntity
8
1
100
AcDbVertex
100
AcDb2dVertex
62
5
10
-113.875000
20
54.875000
0
VERTEX
5
219
100
AcDbEntity
8
1
100
AcDbVertex
100
AcDb2dVertex
62
5
10
-112.937500
20
55.500000
0
VERTEX
5
21a
100
AcDbEntity
8
1
100
AcDbVertex
100
AcDb2dVertex
62
5
10
-112.937500
20
48.000000
0
SEQEND
5
21b
100
AcDbEntity
8
1
0
LINE
5
21c
100
AcDbEntity
8
1
100
AcDbLine
6
CONTINUOUS
62
5
10
-113.562500
20
48.000000
11
-112.312500
21
48.000000
0
POLYLINE
5
21d
100
AcDbEntity
8
1
6
CONTINUOUS
62
5
100
AcDb2dPolyline
66
1
10
0.0
20
0.0
30
0.0
70
0
0
VERTEX
5
21e
100
AcDbEntity
8
1
100
AcDbVertex
100
AcDb2dVertex
62
5
10
-134.812500
20
55.500000
0
VERTEX
5
21f
100
AcDbEntity
8
1
100
AcDbVertex
100
AcDb2dVertex
62
5
10
-133.875000
20
48.000000
0
VERTEX
5
220
100
AcDbEntity
8
1
100
AcDbVertex
100
AcDb2dVertex
62
5
10
-132.937500
20
55.500000
0
VERTEX
5
221
100
AcDbEntity
8
1
100
AcDbVertex
100
AcDb2dVertex
62
5
10
-132.000000
20
48.000000
0
VERTEX
5
222
100
AcDbEntity
8
1
100
AcDbVertex
100
AcDb2dVertex
62
5
10
-131.062500
20
55.500000
0
SEQEND
5
223
100
AcDbEntity
8
1
0
POLYLINE
5
224
100
AcDbEntity
8
1
6
CONTINUOUS
62
5
100
AcDb2dPolyline
66
1
10
0.0
20
0.0
30
0.0
70
0
0
VERTEX
5
225
100
AcDbEntity
8
1
100
AcDbVertex
100
AcDb2dVertex
62
5
10
-126.687500
20
55.500000
0
VERTEX
5
226
100
AcDbEntity
8
1
100
AcDbVertex
100
AcDb2dVertex
62
5
10
-126.687500
20
49.875000
0
VERTEX
5
227
100
AcDbEntity
8
1
100
AcDbVertex
100
AcDb2dVertex
62
5
10
-127.000000
20
48.625000
0
VERTEX
5
228
100
AcDbEntity
8
1
100
AcDbVertex
100
AcDb2dVertex
62
5
10
-127.625000
20
48.000000
0
VERTEX
5
229
100
AcDbEntity
8
1
100
AcDbVertex
100
AcDb2dVertex
62
5
10
-128.562500
20
48.000000
0
VERTEX
5
22a
100
AcDbEntity
8
1
100
AcDbVertex
100
AcDb2dVertex
62
5
10
-129.187500
20
48.625000
0
VERTEX
5
22b
100
AcDbEntity
8
1
100
AcDbVertex
100
AcDb2dVertex
62
5
10
-129.500000
20
49.875000
0
SEQEND
5
22c
100
AcDbEntity
8
1
0
POLYLINE
5
22d
100
AcDbEntity
8
1
6
CONTINUOUS
62
5
100
AcDb2dPolyline
66
1
10
0.0
20
0.0
30
0.0
70
0
0
VERTEX
5
22e
100
AcDbEntity
8
1
100
AcDbVertex
100
AcDb2dVertex
62
5
10
-109.500000
20
53.625000
0
VERTEX
5
22f
100
AcDbEntity
8
1
100
AcDbVertex
100
AcDb2dVertex
62
5
10
-109.187500
20
54.875000
0
VERTEX
5
230
100
AcDbEntity
8
1
100
AcDbVertex
100
AcDb2dVertex
62
5
10
-108.562500
20
55.500000
0
VERTEX
5
231
100
AcDbEntity
8
1
100
AcDbVertex
100
AcDb2dVertex
62
5
10
-107.625000
20
55.500000
0
VERTEX
5
232
100
AcDbEntity
8
1
100
AcDbVertex
100
AcDb2dVertex
62
5
10
-107.000000
20
55.187500
0
VERTEX
5
233
100
AcDbEntity
8
1
100
AcDbVertex
100
AcDb2dVertex
62
5
10
-106.687500
20
54.250000
0
VERTEX
5
234
100
AcDbEntity
8
1
100
AcDbVertex
100
AcDb2dVertex
62
5
10
-106.687500
20
53.000000
0
VERTEX
5
235
100
AcDbEntity
8
1
100
AcDbVertex
100
AcDb2dVertex
62
5
10
-107.000000
20
52.375000
0
VERTEX
5
236
100
AcDbEntity
8
1
100
AcDbVertex
100
AcDb2dVertex
62
5
10
-107.625000
20
51.750000
0
VERTEX
5
237
100
AcDbEntity
8
1
100
AcDbVertex
100
AcDb2dVertex
62
5
10
-108.562500
20
51.750000
0
SEQEND
5
238
100
AcDbEntity
8
1
0
POLYLINE
5
239
100
AcDbEntity
8
1
6
CONTINUOUS
62
5
100
AcDb2dPolyline
66
1
10
0.0
20
0.0
30
0.0
70
0
0
VERTEX
5
23a
100
AcDbEntity
8
1
100
AcDbVertex
100
AcDb2dVertex
62
5
10
-107.625000
20
51.750000
0
VERTEX
5
23b
100
AcDbEntity
8
1
100
AcDbVertex
100
AcDb2dVertex
62
5
10
-106.687500
20
51.125000
0
VERTEX
5
23c
100
AcDbEntity
8
1
100
AcDbVertex
100
AcDb2dVertex
62
5
10
-106.375000
20
50.187500
0
VERTEX
5
23d
100
AcDbEntity
8
1
100
AcDbVertex
100
AcDb2dVertex
62
5
10
-106.375000
20
49.250000
0
VERTEX
5
23e
100
AcDbEntity
8
1
100
AcDbVertex
100
AcDb2dVertex
62
5
10
-106.687500
20
48.625000
0
VERTEX
5
23f
100
AcDbEntity
8
1
100
AcDbVertex
100
AcDb2dVertex
62
5
10
-107.625000
20
48.000000
0
VERTEX
5
240
100
AcDbEntity
8
1
100
AcDbVertex
100
AcDb2dVertex
62
5
10
-108.562500
20
48.000000
0
VERTEX
5
241
100
AcDbEntity
8
1
100
AcDbVertex
100
AcDb2dVertex
62
5
10
-109.187500
20
48.312500
0
VERTEX
5
242
100
AcDbEntity
8
1
100
AcDbVertex
100
AcDb2dVertex
62
5
10
-109.812500
20
49.250000
0
SEQEND
5
243
100
AcDbEntity
8
1
0
POLYLINE
5
244
100
AcDbEntity
8
1
6
DOT2
62
5
100
AcDb2dPolyline
66
1
10
0.0
20
0.0
30
0.0
70
0
0
VERTEX
5
245
100
AcDbEntity
8
1
100
AcDbVertex
100
AcDb2dVertex
62
5
10
-64.875000
20
8.125000
0
VERTEX
5
246
100
AcDbEntity
8
1
100
AcDbVertex
100
AcDb2dVertex
62
5
10
-63.937500
20
8.750000
0
VERTEX
5
247
100
AcDbEntity
8
1
100
AcDbVertex
100
AcDb2dVertex
62
5
10
-63.937500
20
1.250000
0
SEQEND
5
248
100
AcDbEntity
8
1
0
LINE
5
249
100
AcDbEntity
8
1
100
AcDbLine
6
DOT2
62
5
10
-64.562500
20
1.250000
11
-63.312500
21
1.250000
0
POLYLINE
5
24a
100
AcDbEntity
8
1
6
DOT2
62
5
100
AcDb2dPolyline
66
1
10
0.0
20
0.0
30
0.0
70
0
0
VERTEX
5
24b
100
AcDbEntity
8
1
100
AcDbVertex
100
AcDb2dVertex
62
5
10
-58.000000
20
8.750000
0
VERTEX
5
24c
100
AcDbEntity
8
1
100
AcDbVertex
100
AcDb2dVertex
62
5
10
-58.937500
20
8.750000
0
VERTEX
5
24d
100
AcDbEntity
8
1
100
AcDbVertex
100
AcDb2dVertex
62
5
10
-59.875000
20
8.437500
0
VERTEX
5
24e
100
AcDbEntity
8
1
100
AcDbVertex
100
AcDb2dVertex
62
5
10
-60.500000
20
7.187500
0
VERTEX
5
24f
100
AcDbEntity
8
1
100
AcDbVertex
100
AcDb2dVertex
62
5
10
-60.500000
20
2.812500
0
VERTEX
5
250
100
AcDbEntity
8
1
100
AcDbVertex
100
AcDb2dVertex
62
5
10
-60.187500
20
1.875000
0
VERTEX
5
251
100
AcDbEntity
8
1
100
AcDbVertex
100
AcDb2dVertex
62
5
10
-59.875000
20
1.562500
0
VERTEX
5
252
100
AcDbEntity
8
1
100
AcDbVertex
100
AcDb2dVertex
62
5
10
-59.250000
20
1.250000
0
VERTEX
5
253
100
AcDbEntity
8
1
100
AcDbVertex
100
AcDb2dVertex
62
5
10
-58.625000
20
1.250000
0
VERTEX
5
254
100
AcDbEntity
8
1
100
AcDbVertex
100
AcDb2dVertex
62
5
10
-58.000000
20
1.562500
0
VERTEX
5
255
100
AcDbEntity
8
1
100
AcDbVertex
100
AcDb2dVertex
62
5
10
-57.687500
20
1.875000
0
VERTEX
5
256
100
AcDbEntity
8
1
100
AcDbVertex
100
AcDb2dVertex
62
5
10
-57.375000
20
2.812500
0
VERTEX
5
257
100
AcDbEntity
8
1
100
AcDbVertex
100
AcDb2dVertex
62
5
10
-57.375000
20
4.687500
0
VERTEX
5
258
100
AcDbEntity
8
1
100
AcDbVertex
100
AcDb2dVertex
62
5
10
-57.687500
20
5.312500
0
VERTEX
5
259
100
AcDbEntity
8
1
100
AcDbVertex
100
AcDb2dVertex
62
5
10
-58.312500
20
5.625000
0
VERTEX
5
25a
100
AcDbEntity
8
1
100
AcDbVertex
100
AcDb2dVertex
62
5
10
-59.562500
20
5.625000
0
VERTEX
5
25b
100
AcDbEntity
8
1
100
AcDbVertex
100
AcDb2dVertex
62
5
10
-60.500000
20
5.312500
0
SEQEND
5
25c
100
AcDbEntity
8
1
0
POLYLINE
5
25d
100
AcDbEntity
8
1
6
DOT2
62
5
100
AcDb2dPolyline
66
1
10
0.0
20
0.0
30
0.0
70
0
0
VERTEX
5
25e
100
AcDbEntity
8
1
100
AcDbVertex
100
AcDb2dVertex
62
5
10
-55.500000
20
6.562500
0
VERTEX
5
25f
100
AcDbEntity
8
1
100
AcDbVertex
100
AcDb2dVertex
62
5
10
-55.187500
20
8.125000
0
VERTEX
5
260
100
AcDbEntity
8
1
100
AcDbVertex
100
AcDb2dVertex
62
5
10
-54.250000
20
8.750000
0
VERTEX
5
261
100
AcDbEntity
8
1
100
AcDbVertex
100
AcDb2dVertex
62
5
10
-53.312500
20
8.750000
0
VERTEX
5
262
100
AcDbEntity
8
1
100
AcDbVertex
100
AcDb2dVertex
62
5
10
-52.687500
20
8.437500
0
VERTEX
5
263
100
AcDbEntity
8
1
100
AcDbVertex
100
AcDb2dVertex
62
5
10
-52.375000
20
7.500000
0
VERTEX
5
264
100
AcDbEntity
8
1
100
AcDbVertex
100
AcDb2dVertex
62
5
10
-52.375000
20
6.562500
0
VERTEX
5
265
100
AcDbEntity
8
1
100
AcDbVertex
100
AcDb2dVertex
62
5
10
-52.687500
20
5.625000
0
VERTEX
5
266
100
AcDbEntity
8
1
100
AcDbVertex
100
AcDb2dVertex
62
5
10
-55.500000
20
1.250000
0
VERTEX
5
267
100
AcDbEntity
8
1
100
AcDbVertex
100
AcDb2dVertex
62
5
10
-52.375000
20
1.250000
0
VERTEX
5
268
100
AcDbEntity
8
1
100
AcDbVertex
100
AcDb2dVertex
62
5
10
-52.375000
20
2.187500
0
SEQEND
5
269
100
AcDbEntity
8
1
0
LINE
5
26a
100
AcDbEntity
8
1
100
AcDbLine
6
CONTINUOUS
62
5
10
-140.250000
20
-31.900000
11
-140.250000
21
2.000000
0
LINE
5
26b
100
AcDbEntity
8
1
100
AcDbLine
6
CONTINUOUS
62
5
10
21.750000
20
-31.900000
11
21.750000
21
2.000000
0
POLYLINE
5
26c
100
AcDbEntity
8
1
6
CONTINUOUS
62
5
100
AcDb2dPolyline
66
1
10
0.0
20
0.0
30
0.0
70
0
0
VERTEX
5
26d
100
AcDbEntity
8
1
100
AcDbVertex
100
AcDb2dVertex
62
5
10
-59.250000
20
0.000000
0
VERTEX
5
26e
100
AcDbEntity
8
1
100
AcDbVertex
100
AcDb2dVertex
62
5
10
-140.250000
20
0.000000
0
VERTEX
5
26f
100
AcDbEntity
8
1
100
AcDbVertex
100
AcDb2dVertex
62
5
10
-134.250000
20
1.000000
0
VERTEX
5
270
100
AcDbEntity
8
1
100
AcDbVertex
100
AcDb2dVertex
62
5
10
-134.250000
20
-1.000000
0
VERTEX
5
271
100
AcDbEntity
8
1
100
AcDbVertex
100
AcDb2dVertex
62
5
10
-140.250000
20
0.000000
0
VERTEX
5
272
100
AcDbEntity
8
1
100
AcDbVertex
100
AcDb2dVertex
62
5
10
-134.250000
20
0.500000
0
VERTEX
5
273
100
AcDbEntity
8
1
100
AcDbVertex
100
AcDb2dVertex
62
5
10
-134.250000
20
-0.500000
0
VERTEX
5
274
100
AcDbEntity
8
1
100
AcDbVertex
100
AcDb2dVertex
62
5
10
-140.250000
20
0.000000
0
SEQEND
5
275
100
AcDbEntity
8
1
0
POLYLINE
5
276
100
AcDbEntity
8
1
6
CONTINUOUS
62
5
100
AcDb2dPolyline
66
1
10
0.0
20
0.0
30
0.0
70
0
0
VERTEX
5
277
100
AcDbEntity
8
1
100
AcDbVertex
100
AcDb2dVertex
62
5
10
-59.250000
20
0.000000
0
VERTEX
5
278
100
AcDbEntity
8
1
100
AcDbVertex
100
AcDb2dVertex
62
5
10
21.750000
20
0.000000
0
VERTEX
5
279
100
AcDbEntity
8
1
100
AcDbVertex
100
AcDb2dVertex
62
5
10
15.750000
20
-1.000000
0
VERTEX
5
27a
100
AcDbEntity
8
1
100
AcDbVertex
100
AcDb2dVertex
62
5
10
15.750000
20
1.000000
0
VERTEX
5
27b
100
AcDbEntity
8
1
100
AcDbVertex
100
AcDb2dVertex
62
5
10
21.750000
20
0.000000
0
VERTEX
5
27c
100
AcDbEntity
8
1
100
AcDbVertex
100
AcDb2dVertex
62
5
10
15.750000
20
-0.500000
0
VERTEX
5
27d
100
AcDbEntity
8
1
100
AcDbVertex
100
AcDb2dVertex
62
5
10
15.750000
20
0.500000
0
VERTEX
5
27e
100
AcDbEntity
8
1
100
AcDbVertex
100
AcDb2dVertex
62
5
10
21.750000
20
0.000000
0
SEQEND
5
27f
100
AcDbEntity
8
1
0
POLYLINE
5
280
100
AcDbEntity
8
1
6
CONTINUOUS
62
5
100
AcDb2dPolyline
66
1
10
0.0
20
0.0
30
0.0
70
0
0
VERTEX
5
281
100
AcDbEntity
8
1
100
AcDbVertex
100
AcDb2dVertex
62
5
10
-28.500000
20
92.750000
0
VERTEX
5
282
100
AcDbEntity
8
1
100
AcDbVertex
100
AcDb2dVertex
62
5
10
-28.500000
20
87.125000
0
VERTEX
5
283
100
AcDbEntity
8
1
100
AcDbVertex
100
AcDb2dVertex
62
5
10
-29.000000
20
85.875000
0
VERTEX
5
284
100
AcDbEntity
8
1
100
AcDbVertex
100
AcDb2dVertex
62
5
10
-29.500000
20
84.937500
0
SEQEND
5
285
100
AcDbEntity
8
1
0
POLYLINE
5
286
100
AcDbEntity
8
1
6
CONTINUOUS
62
5
100
AcDb2dPolyline
66
1
10
0.0
20
0.0
30
0.0
70
0
0
VERTEX
5
287
100
AcDbEntity
8
1
100
AcDbVertex
100
AcDb2dVertex
62
5
10
-24.500000
20
85.250000
0
VERTEX
5
288
100
AcDbEntity
8
1
100
AcDbVertex
100
AcDb2dVertex
62
5
10
-23.500000
20
84.625000
0
VERTEX
5
289
100
AcDbEntity
8
1
100
AcDbVertex
100
AcDb2dVertex
62
5
10
-23.500000
20
92.750000
0
VERTEX
5
28a
100
AcDbEntity
8
1
100
AcDbVertex
100
AcDb2dVertex
62
5
10
-28.500000
20
92.750000
0
SEQEND
5
28b
100
AcDbEntity
8
1
0
LINE
5
28c
100
AcDbEntity
8
1
100
AcDbLine
6
CONTINUOUS
62
5
10
-28.500000
20
90.250000
11
-23.500000
21
90.250000
0
LINE
5
28d
100
AcDbEntity
8
1
100
AcDbLine
6
CONTINUOUS
62
5
10
-26.000000
20
92.750000
11
-26.000000
21
84.625000
0
LINE
5
28e
100
AcDbEntity
8
1
100
AcDbLine
6
CONTINUOUS
62
5
10
-28.500000
20
87.750000
11
-23.500000
21
87.750000
0
LINE
5
28f
100
AcDbEntity
8
1
100
AcDbLine
6
CONTINUOUS
62
5
10
-187.000000
20
73.000000
11
133.000000
21
73.000000
0
POLYLINE
5
290
100
AcDbEntity
8
1
6
DOT2
62
5
100
AcDb2dPolyline
66
1
10
0.0
20
0.0
30
0.0
70
1
0
VERTEX
5
291
100
AcDbEntity
8
1
100
AcDbVertex
100
AcDb2dVertex
62
5
10
-174.000000
20
-80.000000
0
VERTEX
5
292
100
AcDbEntity
8
1
100
AcDbVertex
100
AcDb2dVertex
62
5
10
-174.000000
20
-79.375000
0
VERTEX
5
293
100
AcDbEntity
8
1
100
AcDbVertex
100
AcDb2dVertex
62
5
10
-173.687500
20
-79.062500
0
VERTEX
5
294
100
AcDbEntity
8
1
100
AcDbVertex
100
AcDb2dVertex
62
5
10
-172.437500
20
-78.437500
0
VERTEX
5
295
100
AcDbEntity
8
1
100
AcDbVertex
100
AcDb2dVertex
62
5
10
-171.187500
20
-78.125000
0
VERTEX
5
296
100
AcDbEntity
8
1
100
AcDbVertex
100
AcDb2dVertex
62
5
10
-169.312500
20
-78.125000
0
VERTEX
5
297
100
AcDbEntity
8
1
100
AcDbVertex
100
AcDb2dVertex
62
5
10
-168.062500
20
-78.437500
0
VERTEX
5
298
100
AcDbEntity
8
1
100
AcDbVertex
100
AcDb2dVertex
62
5
10
-166.812500
20
-79.062500
0
VERTEX
5
299
100
AcDbEntity
8
1
100
AcDbVertex
100
AcDb2dVertex
62
5
10
-166.500000
20
-79.375000
0
VERTEX
5
29a
100
AcDbEntity
8
1
100
AcDbVertex
100
AcDb2dVertex
62
5
10
-166.500000
20
-80.000000
0
VERTEX
5
29b
100
AcDbEntity
8
1
100
AcDbVertex
100
AcDb2dVertex
62
5
10
-166.812500
20
-80.312500
0
VERTEX
5
29c
100
AcDbEntity
8
1
100
AcDbVertex
100
AcDb2dVertex
62
5
10
-168.062500
20
-80.937500
0
VERTEX
5
29d
100
AcDbEntity
8
1
100
AcDbVertex
100
AcDb2dVertex
62
5
10
-169.312500
20
-81.250000
0
VERTEX
5
29e
100
AcDbEntity
8
1
100
AcDbVertex
100
AcDb2dVertex
62
5
10
-171.187500
20
-81.250000
0
VERTEX
5
29f
100
AcDbEntity
8
1
100
AcDbVertex
100
AcDb2dVertex
62
5
10
-172.437500
20
-80.937500
0
VERTEX
5
2a0
100
AcDbEntity
8
1
100
AcDbVertex
100
AcDb2dVertex
62
5
10
-173.687500
20
-80.312500
0
VERTEX
5
2a1
100
AcDbEntity
8
1
100
AcDbVertex
100
AcDb2dVertex
62
5
10
-174.000000
20
-80.000000
0
SEQEND
5
2a2
100
AcDbEntity
8
1
0
POLYLINE
5
2a3
100
AcDbEntity
8
1
6
DOT2
62
5
100
AcDb2dPolyline
66
1
10
0.0
20
0.0
30
0.0
70
0
0
VERTEX
5
2a4
100
AcDbEntity
8
1
100
AcDbVertex
100
AcDb2dVertex
62
5
10
-173.375000
20
-90.625000
0
VERTEX
5
2a5
100
AcDbEntity
8
1
100
AcDbVertex
100
AcDb2dVertex
62
5
10
-174.000000
20
-89.687500
0
VERTEX
5
2a6
100
AcDbEntity
8
1
100
AcDbVertex
100
AcDb2dVertex
62
5
10
-166.500000
20
-89.687500
0
SEQEND
5
2a7
100
AcDbEntity
8
1
0
LINE
5
2a8
100
AcDbEntity
8
1
100
AcDbLine
6
DOT2
62
5
10
-166.500000
20
-90.312500
11
-166.500000
21
-89.062500
0
POLYLINE
5
2a9
100
AcDbEntity
8
1
6
DOT2
62
5
100
AcDb2dPolyline
66
1
10
0.0
20
0.0
30
0.0
70
0
0
VERTEX
5
2aa
100
AcDbEntity
8
1
100
AcDbVertex
100
AcDb2dVertex
62
5
10
-171.812500
20
-86.250000
0
VERTEX
5
2ab
100
AcDbEntity
8
1
100
AcDbVertex
100
AcDb2dVertex
62
5
10
-173.375000
20
-85.937500
0
VERTEX
5
2ac
100
AcDbEntity
8
1
100
AcDbVertex
100
AcDb2dVertex
62
5
10
-174.000000
20
-85.000000
0
VERTEX
5
2ad
100
AcDbEntity
8
1
100
AcDbVertex
100
AcDb2dVertex
62
5
10
-174.000000
20
-84.062500
0
VERTEX
5
2ae
100
AcDbEntity
8
1
100
AcDbVertex
100
AcDb2dVertex
62
5
10
-173.687500
20
-83.437500
0
VERTEX
5
2af
100
AcDbEntity
8
1
100
AcDbVertex
100
AcDb2dVertex
62
5
10
-172.750000
20
-83.125000
0
VERTEX
5
2b0
100
AcDbEntity
8
1
100
AcDbVertex
100
AcDb2dVertex
62
5
10
-171.812500
20
-83.125000
0
VERTEX
5
2b1
100
AcDbEntity
8
1
100
AcDbVertex
100
AcDb2dVertex
62
5
10
-170.875000
20
-83.437500
0
VERTEX
5
2b2
100
AcDbEntity
8
1
100
AcDbVertex
100
AcDb2dVertex
62
5
10
-166.500000
20
-86.250000
0
VERTEX
5
2b3
100
AcDbEntity
8
1
100
AcDbVertex
100
AcDb2dVertex
62
5
10
-166.500000
20
-83.125000
0
VERTEX
5
2b4
100
AcDbEntity
8
1
100
AcDbVertex
100
AcDb2dVertex
62
5
10
-167.437500
20
-83.125000
0
SEQEND
5
2b5
100
AcDbEntity
8
1
0
POLYLINE
5
2b6
100
AcDbEntity
8
1
6
CONTINUOUS
62
5
100
AcDb2dPolyline
66
1
10
0.0
20
0.0
30
0.0
70
1
0
VERTEX
5
2b7
100
AcDbEntity
8
1
100
AcDbVertex
100
AcDb2dVertex
62
5
10
-119.500000
20
-96.600000
0
VERTEX
5
2b8
100
AcDbEntity
8
1
100
AcDbVertex
100
AcDb2dVertex
62
5
10
-91.000000
20
-96.600000
0
VERTEX
5
2b9
100
AcDbEntity
8
1
100
AcDbVertex
100
AcDb2dVertex
62
5
10
-91.000000
20
-73.400000
0
VERTEX
5
2ba
100
AcDbEntity
8
1
100
AcDbVertex
100
AcDb2dVertex
62
5
10
-119.500000
20
-73.400000
0
SEQEND
5
2bb
100
AcDbEntity
8
1
0
POLYLINE
5
2bc
100
AcDbEntity
8
1
6
CONTINUOUS
62
5
100
AcDb2dPolyline
66
1
10
0.0
20
0.0
30
0.0
70
1
0
VERTEX
5
2bd
100
AcDbEntity
8
1
100
AcDbVertex
100
AcDb2dVertex
62
5
10
-119.500000
20
-96.600000
0
VERTEX
5
2be
100
AcDbEntity
8
1
100
AcDbVertex
100
AcDb2dVertex
62
5
10
-91.000000
20
-96.600000
0
VERTEX
5
2bf
100
AcDbEntity
8
1
100
AcDbVertex
100
AcDb2dVertex
62
5
10
-91.000000
20
-73.400000
0
VERTEX
5
2c0
100
AcDbEntity
8
1
100
AcDbVertex
100
AcDb2dVertex
62
5
10
-119.500000
20
-73.400000
0
SEQEND
5
2c1
100
AcDbEntity
8
1
0
LINE
5
2c2
100
AcDbEntity
8
1
100
AcDbLine
6
CONTINUOUS
62
5
10
13.250000
20
-25.000000
11
-167.250000
21
-25.000000
0
LINE
5
2c3
100
AcDbEntity
8
1
100
AcDbLine
6
CONTINUOUS
62
5
10
13.250000
20
-145.000000
11
-167.250000
21
-145.000000
0
POLYLINE
5
2c4
100
AcDbEntity
8
1
6
CONTINUOUS
62
5
100
AcDb2dPolyline
66
1
10
0.0
20
0.0
30
0.0
70
0
0
VERTEX
5
2c5
100
AcDbEntity
8
1
100
AcDbVertex
100
AcDb2dVertex
62
5
10
-165.250000
20
-85.000000
0
VERTEX
5
2c6
100
AcDbEntity
8
1
100
AcDbVertex
100
AcDb2dVertex
62
5
10
-165.250000
20
-145.000000
0
VERTEX
5
2c7
100
AcDbEntity
8
1
100
AcDbVertex
100
AcDb2dVertex
62
5
10
-166.250000
20
-139.000000
0
VERTEX
5
2c8
100
AcDbEntity
8
1
100
AcDbVertex
100
AcDb2dVertex
62
5
10
-164.250000
20
-139.000000
0
VERTEX
5
2c9
100
AcDbEntity
8
1
100
AcDbVertex
100
AcDb2dVertex
62
5
10
-165.250000
20
-145.000000
0
VERTEX
5
2ca
100
AcDbEntity
8
1
100
AcDbVertex
100
AcDb2dVertex
62
5
10
-165.750000
20
-139.000000
0
VERTEX
5
2cb
100
AcDbEntity
8
1
100
AcDbVertex
100
AcDb2dVertex
62
5
10
-164.750000
20
-139.000000
0
VERTEX
5
2cc
100
AcDbEntity
8
1
100
AcDbVertex
100
AcDb2dVertex
62
5
10
-165.250000
20
-145.000000
0
SEQEND
5
2cd
100
AcDbEntity
8
1
0
POLYLINE
5
2ce
100
AcDbEntity
8
1
6
CONTINUOUS
62
5
100
AcDb2dPolyline
66
1
10
0.0
20
0.0
30
0.0
70
0
0
VERTEX
5
2cf
100
AcDbEntity
8
1
100
AcDbVertex
100
AcDb2dVertex
62
5
10
-165.250000
20
-85.000000
0
VERTEX
5
2d0
100
AcDbEntity
8
1
100
AcDbVertex
100
AcDb2dVertex
62
5
10
-165.250000
20
-25.000000
0
VERTEX
5
2d1
100
AcDbEntity
8
1
100
AcDbVertex
100
AcDb2dVertex
62
5
10
-164.250000
20
-31.000000
0
VERTEX
5
2d2
100
AcDbEntity
8
1
100
AcDbVertex
100
AcDb2dVertex
62
5
10
-166.250000
20
-31.000000
0
VERTEX
5
2d3
100
AcDbEntity
8
1
100
AcDbVertex
100
AcDb2dVertex
62
5
10
-165.250000
20
-25.000000
0
VERTEX
5
2d4
100
AcDbEntity
8
1
100
AcDbVertex
100
AcDb2dVertex
62
5
10
-164.750000
20
-31.000000
0
VERTEX
5
2d5
100
AcDbEntity
8
1
100
AcDbVertex
100
AcDb2dVertex
62
5
10
-165.750000
20
-31.000000
0
VERTEX
5
2d6
100
AcDbEntity
8
1
100
AcDbVertex
100
AcDb2dVertex
62
5
10
-165.250000
20
-25.000000
0
SEQEND
5
2d7
100
AcDbEntity
8
1
0
LINE
5
2d8
100
AcDbEntity
8
1
100
AcDbLine
6
CONTINUOUS
62
5
10
82.250000
20
-144.588822
11
82.250000
21
-25.388822
0
LINE
5
2d9
100
AcDbEntity
8
1
100
AcDbLine
6
CONTINUOUS
62
5
10
82.250000
20
-144.570942
11
82.250000
21
-25.370942
0
LINE
5
2da
100
AcDbEntity
8
1
100
AcDbLine
6
CONTINUOUS
62
5
10
86.250000
20
-88.991060
11
86.250000
21
-25.008940
0
LINE
5
2db
100
AcDbEntity
8
1
100
AcDbLine
6
CONTINUOUS
62
5
10
82.250000
20
-144.591060
11
82.250000
21
-25.391060
0
ARC
5
2dc
100
AcDbEntity
8
1
100
AcDbCircle
6
CONTINUOUS
62
5
10
106.750000
20
-38.691060
40
30.000000
100
AcDbArc
50
157.684855
51
179.999998
0
ARC
5
2dd
100
AcDbEntity
8
1
100
AcDbCircle
6
CONTINUOUS
62
5
10
81.772046
20
-28.439142
40
3.000000
100
AcDbArc
50
94.594597
51
157.684855
0
POLYLINE
5
2de
100
AcDbEntity
8
1
6
CONTINUOUS
62
5
100
AcDb2dPolyline
66
1
10
0.0
20
0.0
30
0.0
70
0
0
VERTEX
5
2df
100
AcDbEntity
8
1
100
AcDbVertex
100
AcDb2dVertex
62
5
10
81.531731
20
-25.448782
0
VERTEX
5
2e0
100
AcDbEntity
8
1
100
AcDbVertex
100
AcDb2dVertex
62
5
10
82.250000
20
-25.391060
0
VERTEX
5
2e1
100
AcDbEntity
8
1
100
AcDbVertex
100
AcDb2dVertex
62
5
10
82.250000
20
-25.391060
0
SEQEND
5
2e2
100
AcDbEntity
8
1
0
ARC
5
2e3
100
AcDbEntity
8
1
100
AcDbCircle
6
CONTINUOUS
62
5
10
82.640118
20
-25.479422
40
0.400000
100
AcDbArc
50
91.735704
51
167.237827
0
POLYLINE
5
2e4
100
AcDbEntity
8
1
6
CONTINUOUS
62
5
100
AcDb2dPolyline
66
1
10
0.0
20
0.0
30
0.0
70
0
0
VERTEX
5
2e5
100
AcDbEntity
8
1
100
AcDbVertex
100
AcDb2dVertex
62
5
10
82.628003
20
-25.079605
0
VERTEX
5
2e6
100
AcDbEntity
8
1
100
AcDbVertex
100
AcDb2dVertex
62
5
10
86.250000
20
-24.991060
0
VERTEX
5
2e7
100
AcDbEntity
8
1
100
AcDbVertex
100
AcDb2dVertex
62
5
10
86.250000
20
-144.991060
0
VERTEX
5
2e8
100
AcDbEntity
8
1
100
AcDbVertex
100
AcDb2dVertex
62
5
10
82.628003
20
-144.902515
0
SEQEND
5
2e9
100
AcDbEntity
8
1
0
ARC
5
2ea
100
AcDbEntity
8
1
100
AcDbCircle
6
CONTINUOUS
62
5
10
82.640118
20
-144.502698
40
0.400000
100
AcDbArc
50
-167.237827
51
-91.735704
0
LINE
5
2eb
100
AcDbEntity
8
1
100
AcDbLine
6
CONTINUOUS
62
5
10
82.250000
20
-144.591060
11
81.531731
21
-144.533338
0
ARC
5
2ec
100
AcDbEntity
8
1
100
AcDbCircle
6
CONTINUOUS
62
5
10
81.772046
20
-141.542978
40
3.000000
100
AcDbArc
50
-157.684855
51
-94.594597
0
ARC
5
2ed
100
AcDbEntity
8
1
100
AcDbCircle
6
CONTINUOUS
62
5
10
106.750000
20
-131.291060
40
30.000000
100
AcDbArc
50
-179.999998
51
-157.684855
0
LINE
5
2ee
100
AcDbEntity
8
1
100
AcDbLine
6
CONTINUOUS
62
5
10
76.750000
20
-131.291060
11
76.750000
21
-38.691060
0
POLYLINE
5
2ef
100
AcDbEntity
8
1
6
CONTINUOUS
62
5
100
AcDb2dPolyline
66
1
10
0.0
20
0.0
30
0.0
70
1
0
VERTEX
5
2f0
100
AcDbEntity
8
1
100
AcDbVertex
100
AcDb2dVertex
62
5
10
-73.500000
20
-119.600000
0
VERTEX
5
2f1
100
AcDbEntity
8
1
100
AcDbVertex
100
AcDb2dVertex
62
5
10
-45.000000
20
-119.600000
0
VERTEX
5
2f2
100
AcDbEntity
8
1
100
AcDbVertex
100
AcDb2dVertex
62
5
10
-45.000000
20
-50.400000
0
VERTEX
5
2f3
100
AcDbEntity
8
1
100
AcDbVertex
100
AcDb2dVertex
62
5
10
-73.500000
20
-50.400000
0
SEQEND
5
2f4
100
AcDbEntity
8
1
0
ARC
5
2f5
100
AcDbEntity
8
1
100
AcDbCircle
6
CONTINUOUS
62
5
10
-133.250000
20
-138.000000
40
7.000000
100
AcDbArc
50
179.999998
51
-89.999999
0
POLYLINE
5
2f6
100
AcDbEntity
8
1
6
CONTINUOUS
62
5
100
AcDb2dPolyline
66
1
10
0.0
20
0.0
30
0.0
70
0
0
VERTEX
5
2f7
100
AcDbEntity
8
1
100
AcDbVertex
100
AcDb2dVertex
62
5
10
-133.250000
20
-145.000000
0
VERTEX
5
2f8
100
AcDbEntity
8
1
100
AcDbVertex
100
AcDb2dVertex
62
5
10
-108.750000
20
-145.000000
0
VERTEX
5
2f9
100
AcDbEntity
8
1
100
AcDbVertex
100
AcDb2dVertex
62
5
10
-108.750000
20
-144.968219
0
VERTEX
5
2fa
100
AcDbEntity
8
1
100
AcDbVertex
100
AcDb2dVertex
62
5
10
-101.750000
20
-144.968219
0
VERTEX
5
2fb
100
AcDbEntity
8
1
100
AcDbVertex
100
AcDb2dVertex
62
5
10
-101.750000
20
-145.000000
0
VERTEX
5
2fc
100
AcDbEntity
8
1
100
AcDbVertex
100
AcDb2dVertex
62
5
10
-16.750000
20
-145.000000
0
VERTEX
5
2fd
100
AcDbEntity
8
1
100
AcDbVertex
100
AcDb2dVertex
62
5
10
-16.750000
20
-144.968219
0
VERTEX
5
2fe
100
AcDbEntity
8
1
100
AcDbVertex
100
AcDb2dVertex
62
5
10
-9.750000
20
-144.968219
0
VERTEX
5
2ff
100
AcDbEntity
8
1
100
AcDbVertex
100
AcDb2dVertex
62
5
10
-9.750000
20
-145.000000
0
VERTEX
5
300
100
AcDbEntity
8
1
100
AcDbVertex
100
AcDb2dVertex
62
5
10
14.750000
20
-145.000000
0
SEQEND
5
301
100
AcDbEntity
8
1
0
ARC
5
302
100
AcDbEntity
8
1
100
AcDbCircle
6
CONTINUOUS
62
5
10
14.750000
20
-138.000000
40
7.000000
100
AcDbArc
50
-89.999999
51
0.000000
0
LINE
5
303
100
AcDbEntity
8
1
100
AcDbLine
6
CONTINUOUS
62
5
10
21.750000
20
-138.000000
11
21.750000
21
-32.000000
0
ARC
5
304
100
AcDbEntity
8
1
100
AcDbCircle
6
CONTINUOUS
62
5
10
14.750000
20
-32.000000
40
7.000000
100
AcDbArc
50
0.000000
51
89.999999
0
LINE
5
305
100
AcDbEntity
8
1
100
AcDbLine
6
CONTINUOUS
62
5
10
14.750000
20
-25.000000
11
-133.250000
21
-25.000000
0
ARC
5
306
100
AcDbEntity
8
1
100
AcDbCircle
6
CONTINUOUS
62
5
10
-133.250000
20
-32.000000
40
7.000000
100
AcDbArc
50
89.999999
51
179.999998
0
LINE
5
307
100
AcDbEntity
8
1
100
AcDbLine
6
CONTINUOUS
62
5
10
-140.250000
20
-32.000000
11
-140.250000
21
-138.000000
0
ARC
5
308
100
AcDbEntity
8
1
100
AcDbCircle
6
CONTINUOUS
62
5
10
-133.250000
20
-32.000000
40
6.600000
100
AcDbArc
50
89.999999
51
179.999998
0
LINE
5
309
100
AcDbEntity
8
1
100
AcDbLine
6
CONTINUOUS
62
5
10
-133.250000
20
-25.400000
11
14.750000
21
-25.400000
0
ARC
5
30a
100
AcDbEntity
8
1
100
AcDbCircle
6
CONTINUOUS
62
5
10
14.750000
20
-32.000000
40
6.600000
100
AcDbArc
50
0.000000
51
89.999999
0
LINE
5
30b
100
AcDbEntity
8
1
100
AcDbLine
6
CONTINUOUS
62
5
10
21.350000
20
-32.000000
11
21.350000
21
-138.000000
0
ARC
5
30c
100
AcDbEntity
8
1
100
AcDbCircle
6
CONTINUOUS
62
5
10
14.750000
20
-138.000000
40
6.600000
100
AcDbArc
50
-89.999999
51
0.000000
0
LINE
5
30d
100
AcDbEntity
8
1
100
AcDbLine
6
CONTINUOUS
62
5
10
14.750000
20
-144.600000
11
-133.250000
21
-144.600000
0
ARC
5
30e
100
AcDbEntity
8
1
100
AcDbCircle
6
CONTINUOUS
62
5
10
-133.250000
20
-138.000000
40
6.600000
100
AcDbArc
50
179.999998
51
-89.999999
0
LINE
5
30f
100
AcDbEntity
8
1
100
AcDbLine
6
CONTINUOUS
62
5
10
-139.850000
20
-138.000000
11
-139.850000
21
-32.000000
0
ARC
5
310
100
AcDbEntity
8
1
100
AcDbCircle
6
CONTINUOUS
62
5
10
-133.250000
20
-138.000000
40
7.000000
100
AcDbArc
50
179.999998
51
-89.999999
0
POLYLINE
5
311
100
AcDbEntity
8
1
6
CONTINUOUS
62
5
100
AcDb2dPolyline
66
1
10
0.0
20
0.0
30
0.0
70
0
0
VERTEX
5
312
100
AcDbEntity
8
1
100
AcDbVertex
100
AcDb2dVertex
62
5
10
-133.250000
20
-145.000000
0
VERTEX
5
313
100
AcDbEntity
8
1
100
AcDbVertex
100
AcDb2dVertex
62
5
10
-108.750000
20
-145.000000
0
VERTEX
5
314
100
AcDbEntity
8
1
100
AcDbVertex
100
AcDb2dVertex
62
5
10
-108.750000
20
-144.968219
0
VERTEX
5
315
100
AcDbEntity
8
1
100
AcDbVertex
100
AcDb2dVertex
62
5
10
-101.750000
20
-144.968219
0
VERTEX
5
316
100
AcDbEntity
8
1
100
AcDbVertex
100
AcDb2dVertex
62
5
10
-101.750000
20
-145.000000
0
VERTEX
5
317
100
AcDbEntity
8
1
100
AcDbVertex
100
AcDb2dVertex
62
5
10
-16.750000
20
-145.000000
0
VERTEX
5
318
100
AcDbEntity
8
1
100
AcDbVertex
100
AcDb2dVertex
62
5
10
-16.750000
20
-144.968219
0
VERTEX
5
319
100
AcDbEntity
8
1
100
AcDbVertex
100
AcDb2dVertex
62
5
10
-9.750000
20
-144.968219
0
VERTEX
5
31a
100
AcDbEntity
8
1
100
AcDbVertex
100
AcDb2dVertex
62
5
10
-9.750000
20
-145.000000
0
VERTEX
5
31b
100
AcDbEntity
8
1
100
AcDbVertex
100
AcDb2dVertex
62
5
10
14.750000
20
-145.000000
0
SEQEND
5
31c
100
AcDbEntity
8
1
0
ARC
5
31d
100
AcDbEntity
8
1
100
AcDbCircle
6
CONTINUOUS
62
5
10
14.750000
20
-138.000000
40
7.000000
100
AcDbArc
50
-89.999999
51
0.000000
0
LINE
5
31e
100
AcDbEntity
8
1
100
AcDbLine
6
CONTINUOUS
62
5
10
21.750000
20
-138.000000
11
21.750000
21
-32.000000
0
ARC
5
31f
100
AcDbEntity
8
1
100
AcDbCircle
6
CONTINUOUS
62
5
10
14.750000
20
-32.000000
40
7.000000
100
AcDbArc
50
0.000000
51
89.999999
0
LINE
5
320
100
AcDbEntity
8
1
100
AcDbLine
6
CONTINUOUS
62
5
10
14.750000
20
-25.000000
11
-133.250000
21
-25.000000
0
ARC
5
321
100
AcDbEntity
8
1
100
AcDbCircle
6
CONTINUOUS
62
5
10
-133.250000
20
-32.000000
40
7.000000
100
AcDbArc
50
89.999999
51
179.999998
0
LINE
5
322
100
AcDbEntity
8
1
100
AcDbLine
6
CONTINUOUS
62
5
10
-140.250000
20
-32.000000
11
-140.250000
21
-138.000000
0
ARC
5
323
100
AcDbEntity
8
1
100
AcDbCircle
6
CONTINUOUS
62
5
10
-133.250000
20
-32.000000
40
6.600000
100
AcDbArc
50
89.999999
51
179.999998
0
LINE
5
324
100
AcDbEntity
8
1
100
AcDbLine
6
CONTINUOUS
62
5
10
-133.250000
20
-25.400000
11
14.750000
21
-25.400000
0
ARC
5
325
100
AcDbEntity
8
1
100
AcDbCircle
6
CONTINUOUS
62
5
10
14.750000
20
-32.000000
40
6.600000
100
AcDbArc
50
0.000000
51
89.999999
0
LINE
5
326
100
AcDbEntity
8
1
100
AcDbLine
6
CONTINUOUS
62
5
10
21.350000
20
-32.000000
11
21.350000
21
-138.000000
0
ARC
5
327
100
AcDbEntity
8
1
100
AcDbCircle
6
CONTINUOUS
62
5
10
14.750000
20
-138.000000
40
6.600000
100
AcDbArc
50
-89.999999
51
0.000000
0
LINE
5
328
100
AcDbEntity
8
1
100
AcDbLine
6
CONTINUOUS
62
5
10
14.750000
20
-144.600000
11
-133.250000
21
-144.600000
0
ARC
5
329
100
AcDbEntity
8
1
100
AcDbCircle
6
CONTINUOUS
62
5
10
-133.250000
20
-138.000000
40
6.600000
100
AcDbArc
50
179.999998
51
-89.999999
0
LINE
5
32a
100
AcDbEntity
8
1
100
AcDbLine
6
CONTINUOUS
62
5
10
-139.850000
20
-138.000000
11
-139.850000
21
-32.000000
0
POLYLINE
5
32b
100
AcDbEntity
8
1
6
CONTINUOUS
62
5
100
AcDb2dPolyline
66
1
10
0.0
20
0.0
30
0.0
70
1
0
VERTEX
5
32c
100
AcDbEntity
8
1
100
AcDbVertex
100
AcDb2dVertex
62
5
10
-27.500000
20
-119.600000
0
VERTEX
5
32d
100
AcDbEntity
8
1
100
AcDbVertex
100
AcDb2dVertex
62
5
10
1.000000
20
-119.600000
0
VERTEX
5
32e
100
AcDbEntity
8
1
100
AcDbVertex
100
AcDb2dVertex
62
5
10
1.000000
20
-50.400000
0
VERTEX
5
32f
100
AcDbEntity
8
1
100
AcDbVertex
100
AcDb2dVertex
62
5
10
-27.500000
20
-50.400000
0
SEQEND
5
330
100
AcDbEntity
8
1
0
POLYLINE
5
331
100
AcDbEntity
8
1
6
CONTINUOUS
62
5
100
AcDb2dPolyline
66
1
10
0.0
20
0.0
30
0.0
70
1
0
VERTEX
5
332
100
AcDbEntity
8
1
100
AcDbVertex
100
AcDb2dVertex
62
5
10
-27.500000
20
-119.600000
0
VERTEX
5
333
100
AcDbEntity
8
1
100
AcDbVertex
100
AcDb2dVertex
62
5
10
1.000000
20
-119.600000
0
VERTEX
5
334
100
AcDbEntity
8
1
100
AcDbVertex
100
AcDb2dVertex
62
5
10
1.000000
20
-50.400000
0
VERTEX
5
335
100
AcDbEntity
8
1
100
AcDbVertex
100
AcDb2dVertex
62
5
10
-27.500000
20
-50.400000
0
SEQEND
5
336
100
AcDbEntity
8
1
0
LINE
5
337
100
AcDbEntity
8
1
100
AcDbLine
6
CONTINUOUS
62
5
10
-147.000000
20
105.000000
11
-147.000000
21
73.000000
0
POLYLINE
5
338
100
AcDbEntity
8
1
6
CONTINUOUS
62
5
100
AcDb2dPolyline
66
1
10
0.0
20
0.0
30
0.0
70
1
0
VERTEX
5
339
100
AcDbEntity
8
1
100
AcDbVertex
100
AcDb2dVertex
62
5
10
-187.000000
20
-235.000000
0
VERTEX
5
33a
100
AcDbEntity
8
1
100
AcDbVertex
100
AcDb2dVertex
62
5
10
-187.000000
20
105.000000
0
VERTEX
5
33b
100
AcDbEntity
8
1
100
AcDbVertex
100
AcDb2dVertex
62
5
10
133.000000
20
105.000000
0
VERTEX
5
33c
100
AcDbEntity
8
1
100
AcDbVertex
100
AcDb2dVertex
62
5
10
133.000000
20
-235.000000
0
VERTEX
5
33d
100
AcDbEntity
8
1
100
AcDbVertex
100
AcDb2dVertex
62
5
10
-187.000000
20
-235.000000
0
SEQEND
5
33e
100
AcDbEntity
8
1
0
ENDSEC
0
SECTION
2
OBJECTS
0
DICTIONARY
5
33f
100
AcDbDictionary
3
ACAD_GROUP
350
340
3
ACAD_MLINESTYLE
350
341
0
DICTIONARY
5
340
102
{ACAD_REACTORS
330
33f
102
}
100
AcDbDictionary
0
DICTIONARY
5
341
102
{ACAD_REACTORS
330
33f
102
}
100
AcDbDictionary
3
STANDARD
350
342
0
MLINESTYLE
5
342
102
{ACAD_REACTORS
330
341
102
}
100
AcDbMlineStyle
2
STANDARD
70
0
3

62
0
51
90.0
52
90.0
71
2
49
0.5
62
256
6
BYLAYER
49
-0.5
62
256
6
BYLAYER
0
ENDSEC
0
EOF
