0
SECTION
2
HEADER
9
$ACADVER
1
AC1012
9
$EXTMIN
10
-1.580000
20
-13.390000
30
0.0
9
$EXTMAX
10
11.030000
20
0.010000
30
0.0
9
$LIMMIN
10
-40.132000
20
-340.106000
9
$LIMMAX
10
280.162000
20
0.254000
9
$DIMSCALE
40
1.000000
9
$PDMODE
70
2
9
$PDSIZE
40
0.0
  9
$HANDSEED
  5
380
0
ENDSEC
0
SECTION
2
CLASSES
0
ENDSEC
0
SECTION
2
TABLES
0
TABLE
2
LTYPE
5
1e
100
AcDbSymbolTable
70
12
0
LTYPE
5
1f
100
AcDbSymbolTableRecord
100
AcDbLinetypeTableRecord
2
BYBLOCK
70
0
3

72
65
73
0
40
0.0
0
LTYPE
5
20
100
AcDbSymbolTableRecord
100
AcDbLinetypeTableRecord
2
BYLAYER
70
0
3

72
65
73
0
40
0.0
0
LTYPE
5
21
100
AcDbSymbolTableRecord
100
AcDbLinetypeTableRecord
2
CONTINUOUS
70
64
3
Solid line
72
65
73
0
40
0.0
0
LTYPE
5
22
100
AcDbSymbolTableRecord
100
AcDbLinetypeTableRecord
2
DASHED
70
64
3
__ __ __ __ __ __ __ __ __ __ __ __ __ __ __
72
65
73
2
40
0.75
49
0.5
74
0
49
-0.25
74
0
0
LTYPE
5
23
100
AcDbSymbolTableRecord
100
AcDbLinetypeTableRecord
2
DOT
70
64
3
...............................................
72
65
73
2
40
0.25
49
0.0
74
0
49
-0.25
74
0
0
LTYPE
5
24
100
AcDbSymbolTableRecord
100
AcDbLinetypeTableRecord
2
DASHDOT
70
64
3
__ . __ . __ . __ . __ . __ . __ . __ . __ . --
72
65
73
4
40
1.0
49
0.5
74
0
49
-0.25
74
0
49
0.0
74
0
49
-0.25
74
0
0
LTYPE
5
25
100
AcDbSymbolTableRecord
100
AcDbLinetypeTableRecord
2
CENTER
70
64
3
____ _ ____ _ ____ _ ____ _ ____ _ ____ _ ____
72
65
73
4
40
2.0
49
1.25
74
0
49
-0.25
74
0
49
0.25
74
0
49
-0.25
74
0
0
LTYPE
5
26
100
AcDbSymbolTableRecord
100
AcDbLinetypeTableRecord
2
PHANTOM
70
64
3
_____ _ _ _____ _ _ _____ _ _ _____ _ _ ____
72
65
73
6
40
2.5
49
1.25
74
0
49
-0.25
74
0
49
0.25
74
0
49
-0.25
74
0
49
0.25
74
0
49
-0.25
74
0
0
LTYPE
5
27
100
AcDbSymbolTableRecord
100
AcDbLinetypeTableRecord
2
HIDDEN
70
64
3
_ _ _ _ _ _ _ _ _ _ _ _ _ _ _ _ _ _ _ _ _ _ _
72
65
73
2
40
0.375
49
0.25
74
0
49
-0.125
74
0
0
LTYPE
5
28
100
AcDbSymbolTableRecord
100
AcDbLinetypeTableRecord
2
BORDER
70
64
3
__ __ . __ __ . __ __ . __ __ . __ __ . __ __
72
65
73
6
40
1.75
49
0.5
74
0
49
-0.25
74
0
49
0.5
74
0
49
-0.25
74
0
49
0.0
74
0
49
-0.25
74
0
0
LTYPE
5
29
100
AcDbSymbolTableRecord
100
AcDbLinetypeTableRecord
2
DIVIDE
70
64
3
__ . . __ . . __ . . __ . . __ . . __ . . __
72
65
73
6
40
1.25
49
0.5
74
0
49
-0.25
74
0
49
0.0
74
0
49
-0.25
74
0
49
0.0
74
0
49
-0.25
74
0
0
LTYPE
5
2a
100
AcDbSymbolTableRecord
100
AcDbLinetypeTableRecord
2
DOT2
70
64
3
...............................................
72
65
73
2
40
0.125
49
0.0
74
0
49
-0.125
74
0
0
ENDTAB
0
TABLE
2
STYLE
5
2b
100
AcDbSymbolTable
70
1
0
STYLE
5
2c
100
AcDbSymbolTableRecord
100
AcDbTextStyleTableRecord
2
STANDARD
70
64
40
0.0
41
1.0
50
0.0
71
0
42
5.0
3
txt
4
bigfont
0
ENDTAB
0
TABLE
2
LAYER
5
2d
100
AcDbSymbolTable
70
2
0
LAYER
5
2e
100
AcDbSymbolTableRecord
100
AcDbLayerTableRecord
2
0
70
0
62
7
6
CONTINUOUS
0
LAYER
5
2f
100
AcDbSymbolTableRecord
100
AcDbLayerTableRecord
2
1
70
0
62
7
6
CONTINUOUS
0
ENDTAB
0
TABLE
2
APPID
5
30
100
AcDbSymbolTable
70
1
0
APPID
5
31
100
AcDbSymbolTableRecord
100
AcDbRegAppTableRecord
2
ACAD
70
64
0
ENDTAB
0
TABLE
2
DIMSTYLE
5
32
100
AcDbSymbolTable
70
0
0
ENDTAB
0
TABLE
2
UCS
5
33
100
AcDbSymbolTable
70
0
0
ENDTAB
0
TABLE
2
VIEW
5
34
100
AcDbSymbolTable
70
0
0
ENDTAB
0
TABLE
2
VPORT
5
35
100
AcDbSymbolTable
70
0
0
ENDTAB
0
TABLE
2
BLOCK_RECORD
5
36
100
AcDbSymbolTable
70
0
0
BLOCK_RECORD
5
37
100
AcDbSymbolTableRecord
100
AcDbBlockTableRecord
2
*MODEL_SPACE
0
BLOCK_RECORD
5
38
100
AcDbSymbolTableRecord
100
AcDbBlockTableRecord
2
*PAPER_SPACE
0
BLOCK_RECORD
5
39
100
AcDbSymbolTableRecord
100
AcDbBlockTableRecord
2
OPEN
0
BLOCK_RECORD
5
3a
100
AcDbSymbolTableRecord
100
AcDbBlockTableRecord
2
HALF
0
BLOCK_RECORD
5
3b
100
AcDbSymbolTableRecord
100
AcDbBlockTableRecord
2
CLOSEDBLANK
0
BLOCK_RECORD
5
3c
100
AcDbSymbolTableRecord
100
AcDbBlockTableRecord
2
HALFCLOSE_R
0
BLOCK_RECORD
5
3d
100
AcDbSymbolTableRecord
100
AcDbBlockTableRecord
2
DOT
0
BLOCK_RECORD
5
3e
100
AcDbSymbolTableRecord
100
AcDbBlockTableRecord
2
HALFOPEN_R
0
BLOCK_RECORD
5
3f
100
AcDbSymbolTableRecord
100
AcDbBlockTableRecord
2
CLOSEDF
0
BLOCK_RECORD
5
40
100
AcDbSymbolTableRecord
100
AcDbBlockTableRecord
2
HALF_R
0
ENDTAB
0
ENDSEC
0
SECTION
2
BLOCKS
0
BLOCK
5
41
100
AcDbEntity
8
0
100
AcDbBlockBegin
2
*MODEL_SPACE
70
0
10
0.0
20
0.0
30
0.0
3
*MODEL_SPACE
1

0
ENDBLK
5
42
100
AcDbEntity
8
0
100
AcDbBlockEnd
0
BLOCK
5
43
100
AcDbEntity
67
1
8
0
100
AcDbBlockBegin
2
*PAPER_SPACE
70
0
10
0.0
20
0.0
30
0.0
3
*PAPER_SPACE
1

0
ENDBLK
5
44
100
AcDbEntity
67
1
8
0
100
AcDbBlockEnd
0
BLOCK
5
45
100
AcDbEntity
8
0
100
AcDbBlockBegin
2
OPEN
70
0
10
0.0
20
0.0
30
0.0
3
OPEN
1

0
LINE
5
46
100
AcDbEntity
8
0
6
BYBLOCK
62
0
100
AcDbLine
10
0.000000
20
0.000000
11
-1.000000
21
0.000000
0
LINE
5
47
100
AcDbEntity
8
0
6
BYBLOCK
62
0
100
AcDbLine
10
-1.000000
20
-0.166667
11
0.000000
21
0.000000
0
LINE
5
48
100
AcDbEntity
8
0
6
BYBLOCK
62
0
100
AcDbLine
10
-1.000000
20
0.166667
11
0.000000
21
0.000000
0
ENDBLK
5
49
100
AcDbEntity
8
0
100
AcDbBlockEnd
0
BLOCK
5
4a
100
AcDbEntity
8
0
100
AcDbBlockBegin
2
HALF
70
0
10
0.0
20
0.0
30
0.0
3
HALF
1

0
SOLID
5
4b
100
AcDbEntity
8
0
6
BYBLOCK
62
0
100
AcDbTrace
10
-1.000000
20
0.166667
11
-1.000000
21
-0.166667
12
0.000000
22
0.000000
13
0.000000
23
0.000000
0
ENDBLK
5
4c
100
AcDbEntity
8
0
100
AcDbBlockEnd
0
BLOCK
5
4d
100
AcDbEntity
8
0
100
AcDbBlockBegin
2
CLOSEDBLANK
70
0
10
0.0
20
0.0
30
0.0
3
CLOSEDBLANK
1

0
LINE
5
4e
100
AcDbEntity
8
0
6
BYBLOCK
62
0
100
AcDbLine
10
-1.000000
20
0.166667
11
-1.000000
21
-0.166667
0
LINE
5
4f
100
AcDbEntity
8
0
6
BYBLOCK
62
0
100
AcDbLine
10
0.000000
20
0.000000
11
-1.000000
21
-0.166667
0
LINE
5
50
100
AcDbEntity
8
0
6
BYBLOCK
62
0
100
AcDbLine
10
-1.000000
20
0.166667
11
0.000000
21
0.000000
0
ENDBLK
5
51
100
AcDbEntity
8
0
100
AcDbBlockEnd
0
BLOCK
5
52
100
AcDbEntity
8
0
100
AcDbBlockBegin
2
HALFCLOSE_R
70
0
10
0.0
20
0.0
30
0.0
3
HALFCLOSE_R
1

0
LINE
5
53
100
AcDbEntity
8
0
6
BYBLOCK
62
0
100
AcDbLine
10
-1.000000
20
-0.166667
11
-1.000000
21
0.000000
0
LINE
5
54
100
AcDbEntity
8
0
6
BYBLOCK
62
0
100
AcDbLine
10
-1.000000
20
-0.166667
11
0.000000
21
0.000000
0
LINE
5
55
100
AcDbEntity
8
0
6
BYBLOCK
62
0
100
AcDbLine
10
0.000000
20
0.000000
11
-1.000000
21
0.000000
0
ENDBLK
5
56
100
AcDbEntity
8
0
100
AcDbBlockEnd
0
BLOCK
5
57
100
AcDbEntity
8
0
100
AcDbBlockBegin
2
DOT
70
0
10
0.0
20
0.0
30
0.0
3
DOT
1

0
LINE
5
58
100
AcDbEntity
8
0
6
BYBLOCK
62
0
100
AcDbLine
10
0.000000
20
0.000000
11
-1.000000
21
0.000000
0
POLYLINE
5
59
100
AcDbEntity
8
0
6
BYBLOCK
62
0
100
AcDb2dPolyline
66
1
10
0.0
20
0.0
30
0.0
70
1
40
0.166667
41
0.166667
0
VERTEX
5
5a
100
AcDbEntity
8
0
100
AcDbVertex
100
AcDb2dVertex
62
10
10
-0.083333
20
0.000000
42
1.000000
0
VERTEX
5
5b
100
AcDbEntity
8
0
100
AcDbVertex
100
AcDb2dVertex
62
10
10
0.083333
20
0.000000
42
1.000000
0
SEQEND
5
5c
100
AcDbEntity
8
0
0
ENDBLK
5
5d
100
AcDbEntity
8
0
100
AcDbBlockEnd
0
BLOCK
5
5e
100
AcDbEntity
8
0
100
AcDbBlockBegin
2
HALFOPEN_R
70
0
10
0.0
20
0.0
30
0.0
3
HALFOPEN_R
1

0
LINE
5
5f
100
AcDbEntity
8
0
6
BYBLOCK
62
0
100
AcDbLine
10
-1.000000
20
-0.166667
11
0.000000
21
0.000000
0
LINE
5
60
100
AcDbEntity
8
0
6
BYBLOCK
62
0
100
AcDbLine
10
0.000000
20
0.000000
11
-1.000000
21
0.000000
0
ENDBLK
5
61
100
AcDbEntity
8
0
100
AcDbBlockEnd
0
BLOCK
5
62
100
AcDbEntity
8
0
100
AcDbBlockBegin
2
CLOSEDF
70
0
10
0.0
20
0.0
30
0.0
3
CLOSEDF
1

0
SOLID
5
63
100
AcDbEntity
8
0
6
BYBLOCK
62
0
100
AcDbTrace
10
-1.000000
20
0.166667
11
-1.000000
21
-0.166667
12
0.000000
22
0.000000
13
0.000000
23
0.000000
0
ENDBLK
5
64
100
AcDbEntity
8
0
100
AcDbBlockEnd
0
BLOCK
5
65
100
AcDbEntity
8
0
100
AcDbBlockBegin
2
HALF_R
70
0
10
0.0
20
0.0
30
0.0
3
HALF_R
1

0
SOLID
5
66
100
AcDbEntity
8
0
6
BYBLOCK
62
0
100
AcDbTrace
10
-1.000000
20
-0.166667
11
-1.000000
21
0.000000
12
0.000000
22
0.000000
13
0.000000
23
0.000000
0
ENDBLK
5
67
100
AcDbEntity
8
0
100
AcDbBlockEnd
0
ENDSEC
0
SECTION
2
ENTITIES
0
POLYLINE
5
68
100
AcDbEntity
8
1
6
CONTINUOUS
62
5
100
AcDb2dPolyline
66
1
10
0.0
20
0.0
30
0.0
70
0
0
VERTEX
5
69
100
AcDbEntity
8
1
100
AcDbVertex
100
AcDb2dVertex
62
5
10
170.500000
20
-12.875000
0
VERTEX
5
6a
100
AcDbEntity
8
1
100
AcDbVertex
100
AcDb2dVertex
62
5
10
171.250000
20
-12.250000
0
VERTEX
5
6b
100
AcDbEntity
8
1
100
AcDbVertex
100
AcDb2dVertex
62
5
10
171.250000
20
-19.750000
0
SEQEND
5
6c
100
AcDbEntity
8
1
0
LINE
5
6d
100
AcDbEntity
8
1
100
AcDbLine
6
CONTINUOUS
62
5
10
170.750000
20
-19.750000
11
171.750000
21
-19.750000
0
POLYLINE
5
6e
100
AcDbEntity
8
1
6
CONTINUOUS
62
5
100
AcDb2dPolyline
66
1
10
0.0
20
0.0
30
0.0
70
0
0
VERTEX
5
6f
100
AcDbEntity
8
1
100
AcDbVertex
100
AcDb2dVertex
62
5
10
184.250000
20
-25.062500
0
VERTEX
5
70
100
AcDbEntity
8
1
100
AcDbVertex
100
AcDb2dVertex
62
5
10
184.500000
20
-25.062500
0
VERTEX
5
71
100
AcDbEntity
8
1
100
AcDbVertex
100
AcDb2dVertex
62
5
10
186.250000
20
-26.312500
0
SEQEND
5
72
100
AcDbEntity
8
1
0
LINE
5
73
100
AcDbEntity
8
1
100
AcDbLine
6
CONTINUOUS
62
5
10
184.250000
20
-22.250000
11
184.250000
21
-29.750000
0
POLYLINE
5
74
100
AcDbEntity
8
1
6
CONTINUOUS
62
5
100
AcDb2dPolyline
66
1
10
0.0
20
0.0
30
0.0
70
0
0
VERTEX
5
75
100
AcDbEntity
8
1
100
AcDbVertex
100
AcDb2dVertex
62
5
10
192.250000
20
-21.625000
0
VERTEX
5
76
100
AcDbEntity
8
1
100
AcDbVertex
100
AcDb2dVertex
62
5
10
191.500000
20
-22.875000
0
VERTEX
5
77
100
AcDbEntity
8
1
100
AcDbVertex
100
AcDb2dVertex
62
5
10
190.750000
20
-23.812500
0
VERTEX
5
78
100
AcDbEntity
8
1
100
AcDbVertex
100
AcDb2dVertex
62
5
10
189.750000
20
-24.750000
0
SEQEND
5
79
100
AcDbEntity
8
1
0
POLYLINE
5
7a
100
AcDbEntity
8
1
6
CONTINUOUS
62
5
100
AcDb2dPolyline
66
1
10
0.0
20
0.0
30
0.0
70
0
0
VERTEX
5
7b
100
AcDbEntity
8
1
100
AcDbVertex
100
AcDb2dVertex
62
5
10
192.000000
20
-22.250000
0
VERTEX
5
7c
100
AcDbEntity
8
1
100
AcDbVertex
100
AcDb2dVertex
62
5
10
194.250000
20
-22.250000
0
VERTEX
5
7d
100
AcDbEntity
8
1
100
AcDbVertex
100
AcDb2dVertex
62
5
10
193.000000
20
-24.125000
0
SEQEND
5
7e
100
AcDbEntity
8
1
0
POLYLINE
5
7f
100
AcDbEntity
8
1
6
CONTINUOUS
62
5
100
AcDb2dPolyline
66
1
10
0.0
20
0.0
30
0.0
70
0
0
VERTEX
5
80
100
AcDbEntity
8
1
100
AcDbVertex
100
AcDb2dVertex
62
5
10
190.750000
20
-24.125000
0
VERTEX
5
81
100
AcDbEntity
8
1
100
AcDbVertex
100
AcDb2dVertex
62
5
10
195.250000
20
-24.125000
0
VERTEX
5
82
100
AcDbEntity
8
1
100
AcDbVertex
100
AcDb2dVertex
62
5
10
195.250000
20
-26.937500
0
VERTEX
5
83
100
AcDbEntity
8
1
100
AcDbVertex
100
AcDb2dVertex
62
5
10
190.750000
20
-26.937500
0
SEQEND
5
84
100
AcDbEntity
8
1
0
LINE
5
85
100
AcDbEntity
8
1
100
AcDbLine
6
CONTINUOUS
62
5
10
193.000000
20
-24.125000
11
193.000000
21
-26.937500
0
POLYLINE
5
86
100
AcDbEntity
8
1
6
CONTINUOUS
62
5
100
AcDb2dPolyline
66
1
10
0.0
20
0.0
30
0.0
70
0
0
VERTEX
5
87
100
AcDbEntity
8
1
100
AcDbVertex
100
AcDb2dVertex
62
5
10
190.750000
20
-24.125000
0
VERTEX
5
88
100
AcDbEntity
8
1
100
AcDbVertex
100
AcDb2dVertex
62
5
10
190.750000
20
-29.437500
0
VERTEX
5
89
100
AcDbEntity
8
1
100
AcDbVertex
100
AcDb2dVertex
62
5
10
191.250000
20
-30.062500
0
VERTEX
5
8a
100
AcDbEntity
8
1
100
AcDbVertex
100
AcDb2dVertex
62
5
10
196.250000
20
-30.062500
0
VERTEX
5
8b
100
AcDbEntity
8
1
100
AcDbVertex
100
AcDb2dVertex
62
5
10
196.250000
20
-28.812500
0
SEQEND
5
8c
100
AcDbEntity
8
1
0
POLYLINE
5
8d
100
AcDbEntity
8
1
6
CONTINUOUS
62
5
100
AcDb2dPolyline
66
1
10
0.0
20
0.0
30
0.0
70
0
0
VERTEX
5
8e
100
AcDbEntity
8
1
100
AcDbVertex
100
AcDb2dVertex
62
5
10
166.750000
20
-25.687500
0
VERTEX
5
8f
100
AcDbEntity
8
1
100
AcDbVertex
100
AcDb2dVertex
62
5
10
166.750000
20
-23.500000
0
VERTEX
5
90
100
AcDbEntity
8
1
100
AcDbVertex
100
AcDb2dVertex
62
5
10
170.750000
20
-23.500000
0
VERTEX
5
91
100
AcDbEntity
8
1
100
AcDbVertex
100
AcDb2dVertex
62
5
10
170.750000
20
-24.437500
0
VERTEX
5
92
100
AcDbEntity
8
1
100
AcDbVertex
100
AcDb2dVertex
62
5
10
170.500000
20
-26.000000
0
VERTEX
5
93
100
AcDbEntity
8
1
100
AcDbVertex
100
AcDb2dVertex
62
5
10
170.000000
20
-27.250000
0
VERTEX
5
94
100
AcDbEntity
8
1
100
AcDbVertex
100
AcDb2dVertex
62
5
10
169.500000
20
-28.187500
0
VERTEX
5
95
100
AcDbEntity
8
1
100
AcDbVertex
100
AcDb2dVertex
62
5
10
168.500000
20
-29.437500
0
SEQEND
5
96
100
AcDbEntity
8
1
0
POLYLINE
5
97
100
AcDbEntity
8
1
6
CONTINUOUS
62
5
100
AcDb2dPolyline
66
1
10
0.0
20
0.0
30
0.0
70
0
0
VERTEX
5
98
100
AcDbEntity
8
1
100
AcDbVertex
100
AcDb2dVertex
62
5
10
178.750000
20
-22.562500
0
VERTEX
5
99
100
AcDbEntity
8
1
100
AcDbVertex
100
AcDb2dVertex
62
5
10
176.750000
20
-25.062500
0
VERTEX
5
9a
100
AcDbEntity
8
1
100
AcDbVertex
100
AcDb2dVertex
62
5
10
174.500000
20
-26.625000
0
SEQEND
5
9b
100
AcDbEntity
8
1
0
LINE
5
9c
100
AcDbEntity
8
1
100
AcDbLine
6
CONTINUOUS
62
5
10
177.250000
20
-24.437500
11
177.250000
21
-29.750000
0
LINE
5
9d
100
AcDbEntity
8
1
100
AcDbLine
6
CONTINUOUS
62
5
10
173.750000
20
-12.250000
11
174.750000
21
-13.187500
0
POLYLINE
5
9e
100
AcDbEntity
8
1
6
CONTINUOUS
62
5
100
AcDb2dPolyline
66
1
10
0.0
20
0.0
30
0.0
70
0
0
VERTEX
5
9f
100
AcDbEntity
8
1
100
AcDbVertex
100
AcDb2dVertex
62
5
10
173.250000
20
-16.000000
0
VERTEX
5
a0
100
AcDbEntity
8
1
100
AcDbVertex
100
AcDb2dVertex
62
5
10
174.500000
20
-16.000000
0
VERTEX
5
a1
100
AcDbEntity
8
1
100
AcDbVertex
100
AcDb2dVertex
62
5
10
174.500000
20
-19.125000
0
VERTEX
5
a2
100
AcDbEntity
8
1
100
AcDbVertex
100
AcDb2dVertex
62
5
10
173.250000
20
-20.062500
0
SEQEND
5
a3
100
AcDbEntity
8
1
0
POLYLINE
5
a4
100
AcDbEntity
8
1
6
CONTINUOUS
62
5
100
AcDb2dPolyline
66
1
10
0.0
20
0.0
30
0.0
70
0
0
VERTEX
5
a5
100
AcDbEntity
8
1
100
AcDbVertex
100
AcDb2dVertex
62
5
10
174.500000
20
-19.125000
0
VERTEX
5
a6
100
AcDbEntity
8
1
100
AcDbVertex
100
AcDb2dVertex
62
5
10
175.500000
20
-19.750000
0
VERTEX
5
a7
100
AcDbEntity
8
1
100
AcDbVertex
100
AcDb2dVertex
62
5
10
180.250000
20
-20.375000
0
SEQEND
5
a8
100
AcDbEntity
8
1
0
LINE
5
a9
100
AcDbEntity
8
1
100
AcDbLine
6
CONTINUOUS
62
5
10
175.500000
20
-12.875000
11
180.250000
21
-12.875000
0
LINE
5
aa
100
AcDbEntity
8
1
100
AcDbLine
6
CONTINUOUS
62
5
10
178.000000
20
-11.625000
11
178.000000
21
-19.125000
0
POLYLINE
5
ab
100
AcDbEntity
8
1
6
CONTINUOUS
62
5
100
AcDb2dPolyline
66
1
10
0.0
20
0.0
30
0.0
70
1
0
VERTEX
5
ac
100
AcDbEntity
8
1
100
AcDbVertex
100
AcDb2dVertex
62
5
10
176.000000
20
-14.125000
0
VERTEX
5
ad
100
AcDbEntity
8
1
100
AcDbVertex
100
AcDb2dVertex
62
5
10
176.000000
20
-16.625000
0
VERTEX
5
ae
100
AcDbEntity
8
1
100
AcDbVertex
100
AcDb2dVertex
62
5
10
179.750000
20
-16.625000
0
VERTEX
5
af
100
AcDbEntity
8
1
100
AcDbVertex
100
AcDb2dVertex
62
5
10
179.750000
20
-14.125000
0
VERTEX
5
b0
100
AcDbEntity
8
1
100
AcDbVertex
100
AcDb2dVertex
62
5
10
176.000000
20
-14.125000
0
SEQEND
5
b1
100
AcDbEntity
8
1
0
LINE
5
b2
100
AcDbEntity
8
1
100
AcDbLine
6
CONTINUOUS
62
5
10
176.000000
20
-15.375000
11
179.750000
21
-15.375000
0
LINE
5
b3
100
AcDbEntity
8
1
100
AcDbLine
6
CONTINUOUS
62
5
10
175.000000
20
-17.875000
11
180.500000
21
-17.875000
0
POLYLINE
5
b4
100
AcDbEntity
8
1
6
CONTINUOUS
62
5
100
AcDb2dPolyline
66
1
10
0.0
20
0.0
30
0.0
70
0
0
VERTEX
5
b5
100
AcDbEntity
8
1
100
AcDbVertex
100
AcDb2dVertex
62
5
10
182.500000
20
-12.250000
0
VERTEX
5
b6
100
AcDbEntity
8
1
100
AcDbVertex
100
AcDb2dVertex
62
5
10
182.500000
20
-17.875000
0
VERTEX
5
b7
100
AcDbEntity
8
1
100
AcDbVertex
100
AcDb2dVertex
62
5
10
182.000000
20
-19.125000
0
VERTEX
5
b8
100
AcDbEntity
8
1
100
AcDbVertex
100
AcDb2dVertex
62
5
10
181.500000
20
-20.062500
0
SEQEND
5
b9
100
AcDbEntity
8
1
0
POLYLINE
5
ba
100
AcDbEntity
8
1
6
CONTINUOUS
62
5
100
AcDb2dPolyline
66
1
10
0.0
20
0.0
30
0.0
70
0
0
VERTEX
5
bb
100
AcDbEntity
8
1
100
AcDbVertex
100
AcDb2dVertex
62
5
10
186.500000
20
-19.750000
0
VERTEX
5
bc
100
AcDbEntity
8
1
100
AcDbVertex
100
AcDb2dVertex
62
5
10
187.500000
20
-20.375000
0
VERTEX
5
bd
100
AcDbEntity
8
1
100
AcDbVertex
100
AcDb2dVertex
62
5
10
187.500000
20
-12.250000
0
VERTEX
5
be
100
AcDbEntity
8
1
100
AcDbVertex
100
AcDb2dVertex
62
5
10
182.500000
20
-12.250000
0
SEQEND
5
bf
100
AcDbEntity
8
1
0
LINE
5
c0
100
AcDbEntity
8
1
100
AcDbLine
6
CONTINUOUS
62
5
10
182.500000
20
-14.750000
11
187.500000
21
-14.750000
0
LINE
5
c1
100
AcDbEntity
8
1
100
AcDbLine
6
CONTINUOUS
62
5
10
185.000000
20
-12.250000
11
185.000000
21
-20.375000
0
LINE
5
c2
100
AcDbEntity
8
1
100
AcDbLine
6
CONTINUOUS
62
5
10
182.500000
20
-17.250000
11
187.500000
21
-17.250000
0
POLYLINE
5
c3
100
AcDbEntity
8
1
6
CONTINUOUS
62
5
100
AcDb2dPolyline
66
1
10
0.0
20
0.0
30
0.0
70
0
0
VERTEX
5
c4
100
AcDbEntity
8
1
100
AcDbVertex
100
AcDb2dVertex
62
5
10
146.000000
20
-14.125000
0
VERTEX
5
c5
100
AcDbEntity
8
1
100
AcDbVertex
100
AcDb2dVertex
62
5
10
150.250000
20
-14.125000
0
VERTEX
5
c6
100
AcDbEntity
8
1
100
AcDbVertex
100
AcDb2dVertex
62
5
10
150.250000
20
-14.750000
0
VERTEX
5
c7
100
AcDbEntity
8
1
100
AcDbVertex
100
AcDb2dVertex
62
5
10
150.000000
20
-15.687500
0
VERTEX
5
c8
100
AcDbEntity
8
1
100
AcDbVertex
100
AcDb2dVertex
62
5
10
149.500000
20
-16.625000
0
VERTEX
5
c9
100
AcDbEntity
8
1
100
AcDbVertex
100
AcDb2dVertex
62
5
10
148.750000
20
-17.875000
0
VERTEX
5
ca
100
AcDbEntity
8
1
100
AcDbVertex
100
AcDb2dVertex
62
5
10
148.000000
20
-18.500000
0
VERTEX
5
cb
100
AcDbEntity
8
1
100
AcDbVertex
100
AcDb2dVertex
62
5
10
146.750000
20
-19.437500
0
SEQEND
5
cc
100
AcDbEntity
8
1
0
POLYLINE
5
cd
100
AcDbEntity
8
1
6
CONTINUOUS
62
5
100
AcDb2dPolyline
66
1
10
0.0
20
0.0
30
0.0
70
1
0
VERTEX
5
ce
100
AcDbEntity
8
1
100
AcDbVertex
100
AcDb2dVertex
62
5
10
151.000000
20
-12.562500
0
VERTEX
5
cf
100
AcDbEntity
8
1
100
AcDbVertex
100
AcDb2dVertex
62
5
10
151.500000
20
-12.562500
0
VERTEX
5
d0
100
AcDbEntity
8
1
100
AcDbVertex
100
AcDb2dVertex
62
5
10
151.750000
20
-12.875000
0
VERTEX
5
d1
100
AcDbEntity
8
1
100
AcDbVertex
100
AcDb2dVertex
62
5
10
151.750000
20
-13.500000
0
VERTEX
5
d2
100
AcDbEntity
8
1
100
AcDbVertex
100
AcDb2dVertex
62
5
10
151.500000
20
-13.812500
0
VERTEX
5
d3
100
AcDbEntity
8
1
100
AcDbVertex
100
AcDb2dVertex
62
5
10
151.000000
20
-13.812500
0
VERTEX
5
d4
100
AcDbEntity
8
1
100
AcDbVertex
100
AcDb2dVertex
62
5
10
150.750000
20
-13.500000
0
VERTEX
5
d5
100
AcDbEntity
8
1
100
AcDbVertex
100
AcDb2dVertex
62
5
10
150.750000
20
-12.875000
0
VERTEX
5
d6
100
AcDbEntity
8
1
100
AcDbVertex
100
AcDb2dVertex
62
5
10
151.000000
20
-12.562500
0
SEQEND
5
d7
100
AcDbEntity
8
1
0
POLYLINE
5
d8
100
AcDbEntity
8
1
6
CONTINUOUS
62
5
100
AcDb2dPolyline
66
1
10
0.0
20
0.0
30
0.0
70
0
0
VERTEX
5
d9
100
AcDbEntity
8
1
100
AcDbVertex
100
AcDb2dVertex
62
5
10
122.750000
20
-16.312500
0
VERTEX
5
da
100
AcDbEntity
8
1
100
AcDbVertex
100
AcDb2dVertex
62
5
10
123.750000
20
-15.062500
0
VERTEX
5
db
100
AcDbEntity
8
1
100
AcDbVertex
100
AcDb2dVertex
62
5
10
124.500000
20
-13.812500
0
VERTEX
5
dc
100
AcDbEntity
8
1
100
AcDbVertex
100
AcDb2dVertex
62
5
10
127.000000
20
-13.812500
0
VERTEX
5
dd
100
AcDbEntity
8
1
100
AcDbVertex
100
AcDb2dVertex
62
5
10
127.000000
20
-14.125000
0
VERTEX
5
de
100
AcDbEntity
8
1
100
AcDbVertex
100
AcDb2dVertex
62
5
10
126.000000
20
-16.625000
0
VERTEX
5
df
100
AcDbEntity
8
1
100
AcDbVertex
100
AcDb2dVertex
62
5
10
124.750000
20
-18.500000
0
VERTEX
5
e0
100
AcDbEntity
8
1
100
AcDbVertex
100
AcDb2dVertex
62
5
10
123.250000
20
-19.750000
0
SEQEND
5
e1
100
AcDbEntity
8
1
0
LINE
5
e2
100
AcDbEntity
8
1
100
AcDbLine
6
CONTINUOUS
62
5
10
124.500000
20
-15.687500
11
125.750000
21
-16.937500
0
LINE
5
e3
100
AcDbEntity
8
1
100
AcDbLine
6
CONTINUOUS
62
5
10
131.000000
20
-13.812500
11
134.750000
21
-13.187500
0
LINE
5
e4
100
AcDbEntity
8
1
100
AcDbLine
6
CONTINUOUS
62
5
10
129.750000
20
-15.687500
11
135.750000
21
-15.687500
0
POLYLINE
5
e5
100
AcDbEntity
8
1
6
CONTINUOUS
62
5
100
AcDb2dPolyline
66
1
10
0.0
20
0.0
30
0.0
70
0
0
VERTEX
5
e6
100
AcDbEntity
8
1
100
AcDbVertex
100
AcDb2dVertex
62
5
10
133.000000
20
-13.500000
0
VERTEX
5
e7
100
AcDbEntity
8
1
100
AcDbVertex
100
AcDb2dVertex
62
5
10
133.000000
20
-15.687500
0
VERTEX
5
e8
100
AcDbEntity
8
1
100
AcDbVertex
100
AcDb2dVertex
62
5
10
132.750000
20
-17.250000
0
VERTEX
5
e9
100
AcDbEntity
8
1
100
AcDbVertex
100
AcDb2dVertex
62
5
10
132.000000
20
-18.500000
0
VERTEX
5
ea
100
AcDbEntity
8
1
100
AcDbVertex
100
AcDb2dVertex
62
5
10
131.250000
20
-19.437500
0
SEQEND
5
eb
100
AcDbEntity
8
1
0
LINE
5
ec
100
AcDbEntity
8
1
100
AcDbLine
6
CONTINUOUS
62
5
10
139.250000
20
-15.687500
11
139.500000
21
-16.937500
0
LINE
5
ed
100
AcDbEntity
8
1
100
AcDbLine
6
CONTINUOUS
62
5
10
140.750000
20
-15.375000
11
141.000000
21
-16.625000
0
POLYLINE
5
ee
100
AcDbEntity
8
1
6
CONTINUOUS
62
5
100
AcDb2dPolyline
66
1
10
0.0
20
0.0
30
0.0
70
0
0
VERTEX
5
ef
100
AcDbEntity
8
1
100
AcDbVertex
100
AcDb2dVertex
62
5
10
142.750000
20
-15.375000
0
VERTEX
5
f0
100
AcDbEntity
8
1
100
AcDbVertex
100
AcDb2dVertex
62
5
10
142.500000
20
-16.937500
0
VERTEX
5
f1
100
AcDbEntity
8
1
100
AcDbVertex
100
AcDb2dVertex
62
5
10
141.250000
20
-18.812500
0
VERTEX
5
f2
100
AcDbEntity
8
1
100
AcDbVertex
100
AcDb2dVertex
62
5
10
140.250000
20
-19.750000
0
SEQEND
5
f3
100
AcDbEntity
8
1
0
POLYLINE
5
f4
100
AcDbEntity
8
1
6
CONTINUOUS
62
5
100
AcDb2dPolyline
66
1
10
0.0
20
0.0
30
0.0
70
0
0
VERTEX
5
f5
100
AcDbEntity
8
1
100
AcDbVertex
100
AcDb2dVertex
62
5
10
143.500000
20
-25.687500
0
VERTEX
5
f6
100
AcDbEntity
8
1
100
AcDbVertex
100
AcDb2dVertex
62
5
10
145.500000
20
-25.687500
0
VERTEX
5
f7
100
AcDbEntity
8
1
100
AcDbVertex
100
AcDb2dVertex
62
5
10
145.250000
20
-28.812500
0
SEQEND
5
f8
100
AcDbEntity
8
1
0
LINE
5
f9
100
AcDbEntity
8
1
100
AcDbLine
6
CONTINUOUS
62
5
10
142.750000
20
-28.812500
11
147.000000
21
-28.812500
0
POLYLINE
5
fa
100
AcDbEntity
8
1
6
CONTINUOUS
62
5
100
AcDb2dPolyline
66
1
10
0.0
20
0.0
30
0.0
70
0
0
VERTEX
5
fb
100
AcDbEntity
8
1
100
AcDbVertex
100
AcDb2dVertex
62
5
10
150.000000
20
-23.812500
0
VERTEX
5
fc
100
AcDbEntity
8
1
100
AcDbVertex
100
AcDb2dVertex
62
5
10
155.250000
20
-23.812500
0
VERTEX
5
fd
100
AcDbEntity
8
1
100
AcDbVertex
100
AcDb2dVertex
62
5
10
155.250000
20
-24.125000
0
VERTEX
5
fe
100
AcDbEntity
8
1
100
AcDbVertex
100
AcDb2dVertex
62
5
10
153.500000
20
-26.000000
0
VERTEX
5
ff
100
AcDbEntity
8
1
100
AcDbVertex
100
AcDb2dVertex
62
5
10
152.750000
20
-26.000000
0
SEQEND
5
100
100
AcDbEntity
8
1
0
POLYLINE
5
101
100
AcDbEntity
8
1
6
CONTINUOUS
62
5
100
AcDb2dPolyline
66
1
10
0.0
20
0.0
30
0.0
70
0
0
VERTEX
5
102
100
AcDbEntity
8
1
100
AcDbVertex
100
AcDb2dVertex
62
5
10
152.750000
20
-25.062500
0
VERTEX
5
103
100
AcDbEntity
8
1
100
AcDbVertex
100
AcDb2dVertex
62
5
10
152.750000
20
-26.625000
0
VERTEX
5
104
100
AcDbEntity
8
1
100
AcDbVertex
100
AcDb2dVertex
62
5
10
152.000000
20
-28.500000
0
VERTEX
5
105
100
AcDbEntity
8
1
100
AcDbVertex
100
AcDb2dVertex
62
5
10
151.000000
20
-29.750000
0
SEQEND
5
106
100
AcDbEntity
8
1
0
POLYLINE
5
107
100
AcDbEntity
8
1
6
CONTINUOUS
62
5
100
AcDb2dPolyline
66
1
10
0.0
20
0.0
30
0.0
70
0
0
VERTEX
5
108
100
AcDbEntity
8
1
100
AcDbVertex
100
AcDb2dVertex
62
5
10
134.750000
20
-23.500000
0
VERTEX
5
109
100
AcDbEntity
8
1
100
AcDbVertex
100
AcDb2dVertex
62
5
10
134.750000
20
-28.812500
0
VERTEX
5
10a
100
AcDbEntity
8
1
100
AcDbVertex
100
AcDb2dVertex
62
5
10
135.250000
20
-29.437500
0
VERTEX
5
10b
100
AcDbEntity
8
1
100
AcDbVertex
100
AcDb2dVertex
62
5
10
138.750000
20
-29.437500
0
SEQEND
5
10c
100
AcDbEntity
8
1
0
LINE
5
10d
100
AcDbEntity
8
1
100
AcDbLine
6
CONTINUOUS
62
5
10
138.250000
20
-25.375000
11
134.750000
21
-26.312500
0
POLYLINE
5
10e
100
AcDbEntity
8
1
6
CONTINUOUS
62
5
100
AcDb2dPolyline
66
1
10
0.0
20
0.0
30
0.0
70
1
0
VERTEX
5
10f
100
AcDbEntity
8
1
100
AcDbVertex
100
AcDb2dVertex
62
5
10
138.250000
20
-23.500000
0
VERTEX
5
110
100
AcDbEntity
8
1
100
AcDbVertex
100
AcDb2dVertex
62
5
10
138.750000
20
-22.875000
0
VERTEX
5
111
100
AcDbEntity
8
1
100
AcDbVertex
100
AcDb2dVertex
62
5
10
139.000000
20
-22.875000
0
VERTEX
5
112
100
AcDbEntity
8
1
100
AcDbVertex
100
AcDb2dVertex
62
5
10
139.500000
20
-23.500000
0
VERTEX
5
113
100
AcDbEntity
8
1
100
AcDbVertex
100
AcDb2dVertex
62
5
10
139.500000
20
-23.812500
0
VERTEX
5
114
100
AcDbEntity
8
1
100
AcDbVertex
100
AcDb2dVertex
62
5
10
139.000000
20
-24.437500
0
VERTEX
5
115
100
AcDbEntity
8
1
100
AcDbVertex
100
AcDb2dVertex
62
5
10
138.750000
20
-24.437500
0
VERTEX
5
116
100
AcDbEntity
8
1
100
AcDbVertex
100
AcDb2dVertex
62
5
10
138.250000
20
-23.812500
0
VERTEX
5
117
100
AcDbEntity
8
1
100
AcDbVertex
100
AcDb2dVertex
62
5
10
138.250000
20
-23.500000
0
SEQEND
5
118
100
AcDbEntity
8
1
0
POLYLINE
5
119
100
AcDbEntity
8
1
6
CONTINUOUS
62
5
100
AcDb2dPolyline
66
1
10
0.0
20
0.0
30
0.0
70
0
0
VERTEX
5
11a
100
AcDbEntity
8
1
100
AcDbVertex
100
AcDb2dVertex
62
5
10
155.500000
20
-11.937500
0
VERTEX
5
11b
100
AcDbEntity
8
1
100
AcDbVertex
100
AcDb2dVertex
62
5
10
154.500000
20
-14.750000
0
VERTEX
5
11c
100
AcDbEntity
8
1
100
AcDbVertex
100
AcDb2dVertex
62
5
10
153.250000
20
-16.937500
0
SEQEND
5
11d
100
AcDbEntity
8
1
0
LINE
5
11e
100
AcDbEntity
8
1
100
AcDbLine
6
CONTINUOUS
62
5
10
154.500000
20
-14.750000
11
154.500000
21
-20.687500
0
LINE
5
11f
100
AcDbEntity
8
1
100
AcDbLine
6
CONTINUOUS
62
5
10
155.250000
20
-14.750000
11
160.500000
21
-14.750000
0
POLYLINE
5
120
100
AcDbEntity
8
1
6
CONTINUOUS
62
5
100
AcDb2dPolyline
66
1
10
0.0
20
0.0
30
0.0
70
0
0
VERTEX
5
121
100
AcDbEntity
8
1
100
AcDbVertex
100
AcDb2dVertex
62
5
10
158.750000
20
-11.937500
0
VERTEX
5
122
100
AcDbEntity
8
1
100
AcDbVertex
100
AcDb2dVertex
62
5
10
158.750000
20
-20.375000
0
VERTEX
5
123
100
AcDbEntity
8
1
100
AcDbVertex
100
AcDb2dVertex
62
5
10
157.250000
20
-20.062500
0
SEQEND
5
124
100
AcDbEntity
8
1
0
LINE
5
125
100
AcDbEntity
8
1
100
AcDbLine
6
CONTINUOUS
62
5
10
156.250000
20
-16.000000
11
157.250000
21
-17.875000
0
LINE
5
126
100
AcDbEntity
8
1
100
AcDbLine
6
CONTINUOUS
62
5
10
158.250000
20
-25.062500
11
163.250000
21
-25.062500
0
POLYLINE
5
127
100
AcDbEntity
8
1
6
CONTINUOUS
62
5
100
AcDb2dPolyline
66
1
10
0.0
20
0.0
30
0.0
70
0
0
VERTEX
5
128
100
AcDbEntity
8
1
100
AcDbVertex
100
AcDb2dVertex
62
5
10
160.750000
20
-23.187500
0
VERTEX
5
129
100
AcDbEntity
8
1
100
AcDbVertex
100
AcDb2dVertex
62
5
10
160.750000
20
-29.437500
0
VERTEX
5
12a
100
AcDbEntity
8
1
100
AcDbVertex
100
AcDb2dVertex
62
5
10
160.250000
20
-29.437500
0
SEQEND
5
12b
100
AcDbEntity
8
1
0
LINE
5
12c
100
AcDbEntity
8
1
100
AcDbLine
6
CONTINUOUS
62
5
10
159.500000
20
-26.625000
11
158.250000
21
-28.500000
0
LINE
5
12d
100
AcDbEntity
8
1
100
AcDbLine
6
CONTINUOUS
62
5
10
162.250000
20
-26.625000
11
163.500000
21
-28.187500
0
POLYLINE
5
12e
100
AcDbEntity
8
1
6
DOT2
62
5
100
AcDb2dPolyline
66
1
10
0.0
20
0.0
30
0.0
70
1
0
VERTEX
5
12f
100
AcDbEntity
8
1
100
AcDbVertex
100
AcDb2dVertex
62
5
10
205.000000
20
-96.250000
0
VERTEX
5
130
100
AcDbEntity
8
1
100
AcDbVertex
100
AcDb2dVertex
62
5
10
205.625000
20
-96.250000
0
VERTEX
5
131
100
AcDbEntity
8
1
100
AcDbVertex
100
AcDb2dVertex
62
5
10
205.937500
20
-96.562500
0
VERTEX
5
132
100
AcDbEntity
8
1
100
AcDbVertex
100
AcDb2dVertex
62
5
10
206.562500
20
-97.812500
0
VERTEX
5
133
100
AcDbEntity
8
1
100
AcDbVertex
100
AcDb2dVertex
62
5
10
206.875000
20
-99.062500
0
VERTEX
5
134
100
AcDbEntity
8
1
100
AcDbVertex
100
AcDb2dVertex
62
5
10
206.875000
20
-100.937500
0
VERTEX
5
135
100
AcDbEntity
8
1
100
AcDbVertex
100
AcDb2dVertex
62
5
10
206.562500
20
-102.187500
0
VERTEX
5
136
100
AcDbEntity
8
1
100
AcDbVertex
100
AcDb2dVertex
62
5
10
205.937500
20
-103.437500
0
VERTEX
5
137
100
AcDbEntity
8
1
100
AcDbVertex
100
AcDb2dVertex
62
5
10
205.625000
20
-103.750000
0
VERTEX
5
138
100
AcDbEntity
8
1
100
AcDbVertex
100
AcDb2dVertex
62
5
10
205.000000
20
-103.750000
0
VERTEX
5
139
100
AcDbEntity
8
1
100
AcDbVertex
100
AcDb2dVertex
62
5
10
204.687500
20
-103.437500
0
VERTEX
5
13a
100
AcDbEntity
8
1
100
AcDbVertex
100
AcDb2dVertex
62
5
10
204.062500
20
-102.187500
0
VERTEX
5
13b
100
AcDbEntity
8
1
100
AcDbVertex
100
AcDb2dVertex
62
5
10
203.750000
20
-100.937500
0
VERTEX
5
13c
100
AcDbEntity
8
1
100
AcDbVertex
100
AcDb2dVertex
62
5
10
203.750000
20
-99.062500
0
VERTEX
5
13d
100
AcDbEntity
8
1
100
AcDbVertex
100
AcDb2dVertex
62
5
10
204.062500
20
-97.812500
0
VERTEX
5
13e
100
AcDbEntity
8
1
100
AcDbVertex
100
AcDb2dVertex
62
5
10
204.687500
20
-96.562500
0
VERTEX
5
13f
100
AcDbEntity
8
1
100
AcDbVertex
100
AcDb2dVertex
62
5
10
205.000000
20
-96.250000
0
SEQEND
5
140
100
AcDbEntity
8
1
0
POLYLINE
5
141
100
AcDbEntity
8
1
6
DOT2
62
5
100
AcDb2dPolyline
66
1
10
0.0
20
0.0
30
0.0
70
0
0
VERTEX
5
142
100
AcDbEntity
8
1
100
AcDbVertex
100
AcDb2dVertex
62
5
10
199.375000
20
-96.875000
0
VERTEX
5
143
100
AcDbEntity
8
1
100
AcDbVertex
100
AcDb2dVertex
62
5
10
200.312500
20
-96.250000
0
VERTEX
5
144
100
AcDbEntity
8
1
100
AcDbVertex
100
AcDb2dVertex
62
5
10
200.312500
20
-103.750000
0
SEQEND
5
145
100
AcDbEntity
8
1
0
LINE
5
146
100
AcDbEntity
8
1
100
AcDbLine
6
DOT2
62
5
10
199.687500
20
-103.750000
11
200.937500
21
-103.750000
0
LINE
5
147
100
AcDbEntity
8
1
100
AcDbLine
6
CONTINUOUS
62
5
10
187.500000
20
-130.749547
11
187.500000
21
-103.000000
0
LINE
5
148
100
AcDbEntity
8
1
100
AcDbLine
6
CONTINUOUS
62
5
10
177.500000
20
-144.696292
11
177.500000
21
-103.000000
0
POLYLINE
5
149
100
AcDbEntity
8
1
6
CONTINUOUS
62
5
100
AcDb2dPolyline
66
1
10
0.0
20
0.0
30
0.0
70
0
0
VERTEX
5
14a
100
AcDbEntity
8
1
100
AcDbVertex
100
AcDb2dVertex
62
5
10
208.750000
20
-105.000000
0
VERTEX
5
14b
100
AcDbEntity
8
1
100
AcDbVertex
100
AcDb2dVertex
62
5
10
187.500000
20
-105.000000
0
VERTEX
5
14c
100
AcDbEntity
8
1
100
AcDbVertex
100
AcDb2dVertex
62
5
10
193.500000
20
-104.000000
0
VERTEX
5
14d
100
AcDbEntity
8
1
100
AcDbVertex
100
AcDb2dVertex
62
5
10
193.500000
20
-106.000000
0
VERTEX
5
14e
100
AcDbEntity
8
1
100
AcDbVertex
100
AcDb2dVertex
62
5
10
187.500000
20
-105.000000
0
VERTEX
5
14f
100
AcDbEntity
8
1
100
AcDbVertex
100
AcDb2dVertex
62
5
10
193.500000
20
-104.500000
0
VERTEX
5
150
100
AcDbEntity
8
1
100
AcDbVertex
100
AcDb2dVertex
62
5
10
193.500000
20
-105.500000
0
VERTEX
5
151
100
AcDbEntity
8
1
100
AcDbVertex
100
AcDb2dVertex
62
5
10
187.500000
20
-105.000000
0
SEQEND
5
152
100
AcDbEntity
8
1
0
LINE
5
153
100
AcDbEntity
8
1
100
AcDbLine
6
CONTINUOUS
62
5
10
187.500000
20
-105.000000
11
177.500000
21
-105.000000
0
POLYLINE
5
154
100
AcDbEntity
8
1
6
CONTINUOUS
62
5
100
AcDb2dPolyline
66
1
10
0.0
20
0.0
30
0.0
70
0
0
VERTEX
5
155
100
AcDbEntity
8
1
100
AcDbVertex
100
AcDb2dVertex
62
5
10
168.500000
20
-105.000000
0
VERTEX
5
156
100
AcDbEntity
8
1
100
AcDbVertex
100
AcDb2dVertex
62
5
10
177.500000
20
-105.000000
0
VERTEX
5
157
100
AcDbEntity
8
1
100
AcDbVertex
100
AcDb2dVertex
62
5
10
171.500000
20
-106.000000
0
VERTEX
5
158
100
AcDbEntity
8
1
100
AcDbVertex
100
AcDb2dVertex
62
5
10
171.500000
20
-104.000000
0
VERTEX
5
159
100
AcDbEntity
8
1
100
AcDbVertex
100
AcDb2dVertex
62
5
10
177.500000
20
-105.000000
0
VERTEX
5
15a
100
AcDbEntity
8
1
100
AcDbVertex
100
AcDb2dVertex
62
5
10
171.500000
20
-105.500000
0
VERTEX
5
15b
100
AcDbEntity
8
1
100
AcDbVertex
100
AcDb2dVertex
62
5
10
171.500000
20
-104.500000
0
VERTEX
5
15c
100
AcDbEntity
8
1
100
AcDbVertex
100
AcDb2dVertex
62
5
10
177.500000
20
-105.000000
0
SEQEND
5
15d
100
AcDbEntity
8
1
0
LINE
5
15e
100
AcDbEntity
8
1
100
AcDbLine
6
CONTINUOUS
62
5
10
108.250000
20
-14.125000
11
110.750000
21
-14.125000
0
POLYLINE
5
15f
100
AcDbEntity
8
1
6
CONTINUOUS
62
5
100
AcDb2dPolyline
66
1
10
0.0
20
0.0
30
0.0
70
0
0
VERTEX
5
160
100
AcDbEntity
8
1
100
AcDbVertex
100
AcDb2dVertex
62
5
10
108.250000
20
-14.125000
0
VERTEX
5
161
100
AcDbEntity
8
1
100
AcDbVertex
100
AcDb2dVertex
62
5
10
107.500000
20
-15.375000
0
VERTEX
5
162
100
AcDbEntity
8
1
100
AcDbVertex
100
AcDb2dVertex
62
5
10
106.750000
20
-16.312500
0
SEQEND
5
163
100
AcDbEntity
8
1
0
POLYLINE
5
164
100
AcDbEntity
8
1
6
CONTINUOUS
62
5
100
AcDb2dPolyline
66
1
10
0.0
20
0.0
30
0.0
70
0
0
VERTEX
5
165
100
AcDbEntity
8
1
100
AcDbVertex
100
AcDb2dVertex
62
5
10
110.750000
20
-14.125000
0
VERTEX
5
166
100
AcDbEntity
8
1
100
AcDbVertex
100
AcDb2dVertex
62
5
10
111.000000
20
-14.437500
0
VERTEX
5
167
100
AcDbEntity
8
1
100
AcDbVertex
100
AcDb2dVertex
62
5
10
110.500000
20
-15.375000
0
VERTEX
5
168
100
AcDbEntity
8
1
100
AcDbVertex
100
AcDb2dVertex
62
5
10
109.750000
20
-16.937500
0
VERTEX
5
169
100
AcDbEntity
8
1
100
AcDbVertex
100
AcDb2dVertex
62
5
10
108.500000
20
-18.500000
0
VERTEX
5
16a
100
AcDbEntity
8
1
100
AcDbVertex
100
AcDb2dVertex
62
5
10
107.000000
20
-19.750000
0
SEQEND
5
16b
100
AcDbEntity
8
1
0
LINE
5
16c
100
AcDbEntity
8
1
100
AcDbLine
6
CONTINUOUS
62
5
10
108.250000
20
-16.000000
11
109.250000
21
-17.562500
0
LINE
5
16d
100
AcDbEntity
8
1
100
AcDbLine
6
CONTINUOUS
62
5
10
110.750000
20
-12.562500
11
111.500000
21
-13.500000
0
LINE
5
16e
100
AcDbEntity
8
1
100
AcDbLine
6
CONTINUOUS
62
5
10
111.500000
20
-11.937500
11
112.250000
21
-12.875000
0
POLYLINE
5
16f
100
AcDbEntity
8
1
6
CONTINUOUS
62
5
100
AcDb2dPolyline
66
1
10
0.0
20
0.0
30
0.0
70
0
0
VERTEX
5
170
100
AcDbEntity
8
1
100
AcDbVertex
100
AcDb2dVertex
62
5
10
84.250000
20
-15.062500
0
VERTEX
5
171
100
AcDbEntity
8
1
100
AcDbVertex
100
AcDb2dVertex
62
5
10
84.500000
20
-15.062500
0
VERTEX
5
172
100
AcDbEntity
8
1
100
AcDbVertex
100
AcDb2dVertex
62
5
10
86.250000
20
-16.312500
0
SEQEND
5
173
100
AcDbEntity
8
1
0
LINE
5
174
100
AcDbEntity
8
1
100
AcDbLine
6
CONTINUOUS
62
5
10
84.250000
20
-12.250000
11
84.250000
21
-19.750000
0
POLYLINE
5
175
100
AcDbEntity
8
1
6
CONTINUOUS
62
5
100
AcDb2dPolyline
66
1
10
0.0
20
0.0
30
0.0
70
0
0
VERTEX
5
176
100
AcDbEntity
8
1
100
AcDbVertex
100
AcDb2dVertex
62
5
10
98.000000
20
-13.812500
0
VERTEX
5
177
100
AcDbEntity
8
1
100
AcDbVertex
100
AcDb2dVertex
62
5
10
103.250000
20
-13.812500
0
VERTEX
5
178
100
AcDbEntity
8
1
100
AcDbVertex
100
AcDb2dVertex
62
5
10
103.250000
20
-14.125000
0
VERTEX
5
179
100
AcDbEntity
8
1
100
AcDbVertex
100
AcDb2dVertex
62
5
10
101.500000
20
-16.000000
0
VERTEX
5
17a
100
AcDbEntity
8
1
100
AcDbVertex
100
AcDb2dVertex
62
5
10
100.750000
20
-16.000000
0
SEQEND
5
17b
100
AcDbEntity
8
1
0
POLYLINE
5
17c
100
AcDbEntity
8
1
6
CONTINUOUS
62
5
100
AcDb2dPolyline
66
1
10
0.0
20
0.0
30
0.0
70
0
0
VERTEX
5
17d
100
AcDbEntity
8
1
100
AcDbVertex
100
AcDb2dVertex
62
5
10
100.750000
20
-15.062500
0
VERTEX
5
17e
100
AcDbEntity
8
1
100
AcDbVertex
100
AcDb2dVertex
62
5
10
100.750000
20
-16.625000
0
VERTEX
5
17f
100
AcDbEntity
8
1
100
AcDbVertex
100
AcDb2dVertex
62
5
10
100.000000
20
-18.500000
0
VERTEX
5
180
100
AcDbEntity
8
1
100
AcDbVertex
100
AcDb2dVertex
62
5
10
99.000000
20
-19.750000
0
SEQEND
5
181
100
AcDbEntity
8
1
0
POLYLINE
5
182
100
AcDbEntity
8
1
6
CONTINUOUS
62
5
100
AcDb2dPolyline
66
1
10
0.0
20
0.0
30
0.0
70
0
0
VERTEX
5
183
100
AcDbEntity
8
1
100
AcDbVertex
100
AcDb2dVertex
62
5
10
108.250000
20
-25.062500
0
VERTEX
5
184
100
AcDbEntity
8
1
100
AcDbVertex
100
AcDb2dVertex
62
5
10
108.500000
20
-25.062500
0
VERTEX
5
185
100
AcDbEntity
8
1
100
AcDbVertex
100
AcDb2dVertex
62
5
10
110.250000
20
-26.312500
0
SEQEND
5
186
100
AcDbEntity
8
1
0
LINE
5
187
100
AcDbEntity
8
1
100
AcDbLine
6
CONTINUOUS
62
5
10
108.250000
20
-22.250000
11
108.250000
21
-29.750000
0
POLYLINE
5
188
100
AcDbEntity
8
1
6
CONTINUOUS
62
5
100
AcDb2dPolyline
66
1
10
0.0
20
0.0
30
0.0
70
0
0
VERTEX
5
189
100
AcDbEntity
8
1
100
AcDbVertex
100
AcDb2dVertex
62
5
10
114.500000
20
-22.875000
0
VERTEX
5
18a
100
AcDbEntity
8
1
100
AcDbVertex
100
AcDb2dVertex
62
5
10
115.250000
20
-22.250000
0
VERTEX
5
18b
100
AcDbEntity
8
1
100
AcDbVertex
100
AcDb2dVertex
62
5
10
115.250000
20
-29.750000
0
SEQEND
5
18c
100
AcDbEntity
8
1
0
LINE
5
18d
100
AcDbEntity
8
1
100
AcDbLine
6
CONTINUOUS
62
5
10
114.750000
20
-29.750000
11
115.750000
21
-29.750000
0
LINE
5
18e
100
AcDbEntity
8
1
100
AcDbLine
6
CONTINUOUS
62
5
10
82.750000
20
-23.812500
11
83.750000
21
-25.062500
0
POLYLINE
5
18f
100
AcDbEntity
8
1
6
CONTINUOUS
62
5
100
AcDb2dPolyline
66
1
10
0.0
20
0.0
30
0.0
70
0
0
VERTEX
5
190
100
AcDbEntity
8
1
100
AcDbVertex
100
AcDb2dVertex
62
5
10
82.500000
20
-28.812500
0
VERTEX
5
191
100
AcDbEntity
8
1
100
AcDbVertex
100
AcDb2dVertex
62
5
10
84.250000
20
-27.875000
0
VERTEX
5
192
100
AcDbEntity
8
1
100
AcDbVertex
100
AcDb2dVertex
62
5
10
85.750000
20
-26.625000
0
VERTEX
5
193
100
AcDbEntity
8
1
100
AcDbVertex
100
AcDb2dVertex
62
5
10
87.250000
20
-25.062500
0
SEQEND
5
194
100
AcDbEntity
8
1
0
POLYLINE
5
195
100
AcDbEntity
8
1
6
CONTINUOUS
62
5
100
AcDb2dPolyline
66
1
10
0.0
20
0.0
30
0.0
70
0
0
VERTEX
5
196
100
AcDbEntity
8
1
100
AcDbVertex
100
AcDb2dVertex
62
5
10
90.000000
20
-25.687500
0
VERTEX
5
197
100
AcDbEntity
8
1
100
AcDbVertex
100
AcDb2dVertex
62
5
10
95.250000
20
-25.062500
0
VERTEX
5
198
100
AcDbEntity
8
1
100
AcDbVertex
100
AcDb2dVertex
62
5
10
95.250000
20
-25.375000
0
VERTEX
5
199
100
AcDbEntity
8
1
100
AcDbVertex
100
AcDb2dVertex
62
5
10
94.000000
20
-26.937500
0
SEQEND
5
19a
100
AcDbEntity
8
1
0
POLYLINE
5
19b
100
AcDbEntity
8
1
6
CONTINUOUS
62
5
100
AcDb2dPolyline
66
1
10
0.0
20
0.0
30
0.0
70
0
0
VERTEX
5
19c
100
AcDbEntity
8
1
100
AcDbVertex
100
AcDb2dVertex
62
5
10
92.000000
20
-22.875000
0
VERTEX
5
19d
100
AcDbEntity
8
1
100
AcDbVertex
100
AcDb2dVertex
62
5
10
92.000000
20
-28.812500
0
VERTEX
5
19e
100
AcDbEntity
8
1
100
AcDbVertex
100
AcDb2dVertex
62
5
10
92.500000
20
-29.437500
0
VERTEX
5
19f
100
AcDbEntity
8
1
100
AcDbVertex
100
AcDb2dVertex
62
5
10
95.250000
20
-29.437500
0
SEQEND
5
1a0
100
AcDbEntity
8
1
0
LINE
5
1a1
100
AcDbEntity
8
1
100
AcDbLine
6
CONTINUOUS
62
5
10
98.750000
20
-23.812500
11
99.750000
21
-25.062500
0
POLYLINE
5
1a2
100
AcDbEntity
8
1
6
CONTINUOUS
62
5
100
AcDb2dPolyline
66
1
10
0.0
20
0.0
30
0.0
70
0
0
VERTEX
5
1a3
100
AcDbEntity
8
1
100
AcDbVertex
100
AcDb2dVertex
62
5
10
98.500000
20
-28.812500
0
VERTEX
5
1a4
100
AcDbEntity
8
1
100
AcDbVertex
100
AcDb2dVertex
62
5
10
100.250000
20
-27.875000
0
VERTEX
5
1a5
100
AcDbEntity
8
1
100
AcDbVertex
100
AcDb2dVertex
62
5
10
101.750000
20
-26.625000
0
VERTEX
5
1a6
100
AcDbEntity
8
1
100
AcDbVertex
100
AcDb2dVertex
62
5
10
103.250000
20
-25.062500
0
SEQEND
5
1a7
100
AcDbEntity
8
1
0
POLYLINE
5
1a8
100
AcDbEntity
8
1
6
CONTINUOUS
62
5
100
AcDb2dPolyline
66
1
10
0.0
20
0.0
30
0.0
70
0
0
VERTEX
5
1a9
100
AcDbEntity
8
1
100
AcDbVertex
100
AcDb2dVertex
62
5
10
67.250000
20
-12.875000
0
VERTEX
5
1aa
100
AcDbEntity
8
1
100
AcDbVertex
100
AcDb2dVertex
62
5
10
67.250000
20
-19.125000
0
VERTEX
5
1ab
100
AcDbEntity
8
1
100
AcDbVertex
100
AcDb2dVertex
62
5
10
67.750000
20
-19.437500
0
VERTEX
5
1ac
100
AcDbEntity
8
1
100
AcDbVertex
100
AcDb2dVertex
62
5
10
69.000000
20
-18.812500
0
VERTEX
5
1ad
100
AcDbEntity
8
1
100
AcDbVertex
100
AcDb2dVertex
62
5
10
70.250000
20
-17.875000
0
VERTEX
5
1ae
100
AcDbEntity
8
1
100
AcDbVertex
100
AcDb2dVertex
62
5
10
71.500000
20
-16.625000
0
SEQEND
5
1af
100
AcDbEntity
8
1
0
LINE
5
1b0
100
AcDbEntity
8
1
100
AcDbLine
6
CONTINUOUS
62
5
10
43.250000
20
-15.687500
11
43.500000
21
-16.937500
0
LINE
5
1b1
100
AcDbEntity
8
1
100
AcDbLine
6
CONTINUOUS
62
5
10
44.750000
20
-15.375000
11
45.000000
21
-16.625000
0
POLYLINE
5
1b2
100
AcDbEntity
8
1
6
CONTINUOUS
62
5
100
AcDb2dPolyline
66
1
10
0.0
20
0.0
30
0.0
70
0
0
VERTEX
5
1b3
100
AcDbEntity
8
1
100
AcDbVertex
100
AcDb2dVertex
62
5
10
46.750000
20
-15.375000
0
VERTEX
5
1b4
100
AcDbEntity
8
1
100
AcDbVertex
100
AcDb2dVertex
62
5
10
46.500000
20
-16.937500
0
VERTEX
5
1b5
100
AcDbEntity
8
1
100
AcDbVertex
100
AcDb2dVertex
62
5
10
45.250000
20
-18.812500
0
VERTEX
5
1b6
100
AcDbEntity
8
1
100
AcDbVertex
100
AcDb2dVertex
62
5
10
44.250000
20
-19.750000
0
SEQEND
5
1b7
100
AcDbEntity
8
1
0
LINE
5
1b8
100
AcDbEntity
8
1
100
AcDbLine
6
CONTINUOUS
62
5
10
51.000000
20
-13.812500
11
54.750000
21
-13.187500
0
LINE
5
1b9
100
AcDbEntity
8
1
100
AcDbLine
6
CONTINUOUS
62
5
10
49.750000
20
-15.687500
11
55.750000
21
-15.687500
0
POLYLINE
5
1ba
100
AcDbEntity
8
1
6
CONTINUOUS
62
5
100
AcDb2dPolyline
66
1
10
0.0
20
0.0
30
0.0
70
0
0
VERTEX
5
1bb
100
AcDbEntity
8
1
100
AcDbVertex
100
AcDb2dVertex
62
5
10
53.000000
20
-13.500000
0
VERTEX
5
1bc
100
AcDbEntity
8
1
100
AcDbVertex
100
AcDb2dVertex
62
5
10
53.000000
20
-15.687500
0
VERTEX
5
1bd
100
AcDbEntity
8
1
100
AcDbVertex
100
AcDb2dVertex
62
5
10
52.750000
20
-17.250000
0
VERTEX
5
1be
100
AcDbEntity
8
1
100
AcDbVertex
100
AcDb2dVertex
62
5
10
52.000000
20
-18.500000
0
VERTEX
5
1bf
100
AcDbEntity
8
1
100
AcDbVertex
100
AcDb2dVertex
62
5
10
51.250000
20
-19.437500
0
SEQEND
5
1c0
100
AcDbEntity
8
1
0
POLYLINE
5
1c1
100
AcDbEntity
8
1
6
CONTINUOUS
62
5
100
AcDb2dPolyline
66
1
10
0.0
20
0.0
30
0.0
70
0
0
VERTEX
5
1c2
100
AcDbEntity
8
1
100
AcDbVertex
100
AcDb2dVertex
62
5
10
58.000000
20
-14.125000
0
VERTEX
5
1c3
100
AcDbEntity
8
1
100
AcDbVertex
100
AcDb2dVertex
62
5
10
62.250000
20
-14.125000
0
VERTEX
5
1c4
100
AcDbEntity
8
1
100
AcDbVertex
100
AcDb2dVertex
62
5
10
62.250000
20
-14.750000
0
VERTEX
5
1c5
100
AcDbEntity
8
1
100
AcDbVertex
100
AcDb2dVertex
62
5
10
62.000000
20
-15.687500
0
VERTEX
5
1c6
100
AcDbEntity
8
1
100
AcDbVertex
100
AcDb2dVertex
62
5
10
61.500000
20
-16.625000
0
VERTEX
5
1c7
100
AcDbEntity
8
1
100
AcDbVertex
100
AcDb2dVertex
62
5
10
60.750000
20
-17.875000
0
VERTEX
5
1c8
100
AcDbEntity
8
1
100
AcDbVertex
100
AcDb2dVertex
62
5
10
60.000000
20
-18.500000
0
VERTEX
5
1c9
100
AcDbEntity
8
1
100
AcDbVertex
100
AcDb2dVertex
62
5
10
58.750000
20
-19.437500
0
SEQEND
5
1ca
100
AcDbEntity
8
1
0
POLYLINE
5
1cb
100
AcDbEntity
8
1
6
CONTINUOUS
62
5
100
AcDb2dPolyline
66
1
10
0.0
20
0.0
30
0.0
70
1
0
VERTEX
5
1cc
100
AcDbEntity
8
1
100
AcDbVertex
100
AcDb2dVertex
62
5
10
63.000000
20
-12.562500
0
VERTEX
5
1cd
100
AcDbEntity
8
1
100
AcDbVertex
100
AcDb2dVertex
62
5
10
63.500000
20
-12.562500
0
VERTEX
5
1ce
100
AcDbEntity
8
1
100
AcDbVertex
100
AcDb2dVertex
62
5
10
63.750000
20
-12.875000
0
VERTEX
5
1cf
100
AcDbEntity
8
1
100
AcDbVertex
100
AcDb2dVertex
62
5
10
63.750000
20
-13.500000
0
VERTEX
5
1d0
100
AcDbEntity
8
1
100
AcDbVertex
100
AcDb2dVertex
62
5
10
63.500000
20
-13.812500
0
VERTEX
5
1d1
100
AcDbEntity
8
1
100
AcDbVertex
100
AcDb2dVertex
62
5
10
63.000000
20
-13.812500
0
VERTEX
5
1d2
100
AcDbEntity
8
1
100
AcDbVertex
100
AcDb2dVertex
62
5
10
62.750000
20
-13.500000
0
VERTEX
5
1d3
100
AcDbEntity
8
1
100
AcDbVertex
100
AcDb2dVertex
62
5
10
62.750000
20
-12.875000
0
VERTEX
5
1d4
100
AcDbEntity
8
1
100
AcDbVertex
100
AcDb2dVertex
62
5
10
63.000000
20
-12.562500
0
SEQEND
5
1d5
100
AcDbEntity
8
1
0
POLYLINE
5
1d6
100
AcDbEntity
8
1
6
CONTINUOUS
62
5
100
AcDb2dPolyline
66
1
10
0.0
20
0.0
30
0.0
70
0
0
VERTEX
5
1d7
100
AcDbEntity
8
1
100
AcDbVertex
100
AcDb2dVertex
62
5
10
63.250000
20
-21.937500
0
VERTEX
5
1d8
100
AcDbEntity
8
1
100
AcDbVertex
100
AcDb2dVertex
62
5
10
62.500000
20
-24.125000
0
VERTEX
5
1d9
100
AcDbEntity
8
1
100
AcDbVertex
100
AcDb2dVertex
62
5
10
61.250000
20
-26.000000
0
SEQEND
5
1da
100
AcDbEntity
8
1
0
LINE
5
1db
100
AcDbEntity
8
1
100
AcDbLine
6
CONTINUOUS
62
5
10
62.500000
20
-24.125000
11
62.500000
21
-30.687500
0
POLYLINE
5
1dc
100
AcDbEntity
8
1
6
CONTINUOUS
62
5
100
AcDb2dPolyline
66
1
10
0.0
20
0.0
30
0.0
70
1
0
VERTEX
5
1dd
100
AcDbEntity
8
1
100
AcDbVertex
100
AcDb2dVertex
62
5
10
63.750000
20
-30.375000
0
VERTEX
5
1de
100
AcDbEntity
8
1
100
AcDbVertex
100
AcDb2dVertex
62
5
10
63.750000
20
-22.250000
0
VERTEX
5
1df
100
AcDbEntity
8
1
100
AcDbVertex
100
AcDb2dVertex
62
5
10
68.250000
20
-22.250000
0
VERTEX
5
1e0
100
AcDbEntity
8
1
100
AcDbVertex
100
AcDb2dVertex
62
5
10
68.250000
20
-30.375000
0
VERTEX
5
1e1
100
AcDbEntity
8
1
100
AcDbVertex
100
AcDb2dVertex
62
5
10
63.750000
20
-30.375000
0
SEQEND
5
1e2
100
AcDbEntity
8
1
0
LINE
5
1e3
100
AcDbEntity
8
1
100
AcDbLine
6
CONTINUOUS
62
5
10
64.500000
20
-24.437500
11
67.500000
21
-24.437500
0
LINE
5
1e4
100
AcDbEntity
8
1
100
AcDbLine
6
CONTINUOUS
62
5
10
66.000000
20
-23.500000
11
66.000000
21
-26.312500
0
POLYLINE
5
1e5
100
AcDbEntity
8
1
6
CONTINUOUS
62
5
100
AcDb2dPolyline
66
1
10
0.0
20
0.0
30
0.0
70
1
0
VERTEX
5
1e6
100
AcDbEntity
8
1
100
AcDbVertex
100
AcDb2dVertex
62
5
10
64.750000
20
-26.312500
0
VERTEX
5
1e7
100
AcDbEntity
8
1
100
AcDbVertex
100
AcDb2dVertex
62
5
10
64.750000
20
-29.125000
0
VERTEX
5
1e8
100
AcDbEntity
8
1
100
AcDbVertex
100
AcDb2dVertex
62
5
10
67.250000
20
-29.125000
0
VERTEX
5
1e9
100
AcDbEntity
8
1
100
AcDbVertex
100
AcDb2dVertex
62
5
10
67.250000
20
-26.312500
0
VERTEX
5
1ea
100
AcDbEntity
8
1
100
AcDbVertex
100
AcDb2dVertex
62
5
10
64.750000
20
-26.312500
0
SEQEND
5
1eb
100
AcDbEntity
8
1
0
LINE
5
1ec
100
AcDbEntity
8
1
100
AcDbLine
6
CONTINUOUS
62
5
10
70.000000
20
-26.000000
11
72.500000
21
-26.000000
0
LINE
5
1ed
100
AcDbEntity
8
1
100
AcDbLine
6
CONTINUOUS
62
5
10
71.250000
20
-23.812500
11
71.250000
21
-28.187500
0
POLYLINE
5
1ee
100
AcDbEntity
8
1
6
CONTINUOUS
62
5
100
AcDb2dPolyline
66
1
10
0.0
20
0.0
30
0.0
70
0
0
VERTEX
5
1ef
100
AcDbEntity
8
1
100
AcDbVertex
100
AcDb2dVertex
62
5
10
74.750000
20
-24.125000
0
VERTEX
5
1f0
100
AcDbEntity
8
1
100
AcDbVertex
100
AcDb2dVertex
62
5
10
78.750000
20
-24.125000
0
VERTEX
5
1f1
100
AcDbEntity
8
1
100
AcDbVertex
100
AcDb2dVertex
62
5
10
78.750000
20
-28.500000
0
VERTEX
5
1f2
100
AcDbEntity
8
1
100
AcDbVertex
100
AcDb2dVertex
62
5
10
74.750000
20
-28.500000
0
SEQEND
5
1f3
100
AcDbEntity
8
1
0
LINE
5
1f4
100
AcDbEntity
8
1
100
AcDbLine
6
CONTINUOUS
62
5
10
43.250000
20
-25.687500
11
43.500000
21
-26.937500
0
LINE
5
1f5
100
AcDbEntity
8
1
100
AcDbLine
6
CONTINUOUS
62
5
10
44.750000
20
-25.375000
11
45.000000
21
-26.625000
0
POLYLINE
5
1f6
100
AcDbEntity
8
1
6
CONTINUOUS
62
5
100
AcDb2dPolyline
66
1
10
0.0
20
0.0
30
0.0
70
0
0
VERTEX
5
1f7
100
AcDbEntity
8
1
100
AcDbVertex
100
AcDb2dVertex
62
5
10
46.750000
20
-25.375000
0
VERTEX
5
1f8
100
AcDbEntity
8
1
100
AcDbVertex
100
AcDb2dVertex
62
5
10
46.500000
20
-26.937500
0
VERTEX
5
1f9
100
AcDbEntity
8
1
100
AcDbVertex
100
AcDb2dVertex
62
5
10
45.250000
20
-28.812500
0
VERTEX
5
1fa
100
AcDbEntity
8
1
100
AcDbVertex
100
AcDb2dVertex
62
5
10
44.250000
20
-29.750000
0
SEQEND
5
1fb
100
AcDbEntity
8
1
0
LINE
5
1fc
100
AcDbEntity
8
1
100
AcDbLine
6
CONTINUOUS
62
5
10
51.000000
20
-23.812500
11
54.750000
21
-23.187500
0
LINE
5
1fd
100
AcDbEntity
8
1
100
AcDbLine
6
CONTINUOUS
62
5
10
49.750000
20
-25.687500
11
55.750000
21
-25.687500
0
POLYLINE
5
1fe
100
AcDbEntity
8
1
6
CONTINUOUS
62
5
100
AcDb2dPolyline
66
1
10
0.0
20
0.0
30
0.0
70
0
0
VERTEX
5
1ff
100
AcDbEntity
8
1
100
AcDbVertex
100
AcDb2dVertex
62
5
10
53.000000
20
-23.500000
0
VERTEX
5
200
100
AcDbEntity
8
1
100
AcDbVertex
100
AcDb2dVertex
62
5
10
53.000000
20
-25.687500
0
VERTEX
5
201
100
AcDbEntity
8
1
100
AcDbVertex
100
AcDb2dVertex
62
5
10
52.750000
20
-27.250000
0
VERTEX
5
202
100
AcDbEntity
8
1
100
AcDbVertex
100
AcDb2dVertex
62
5
10
52.000000
20
-28.500000
0
VERTEX
5
203
100
AcDbEntity
8
1
100
AcDbVertex
100
AcDb2dVertex
62
5
10
51.250000
20
-29.437500
0
SEQEND
5
204
100
AcDbEntity
8
1
0
POLYLINE
5
205
100
AcDbEntity
8
1
6
CONTINUOUS
62
5
100
AcDb2dPolyline
66
1
10
0.0
20
0.0
30
0.0
70
0
0
VERTEX
5
206
100
AcDbEntity
8
1
100
AcDbVertex
100
AcDb2dVertex
62
5
10
58.500000
20
-22.875000
0
VERTEX
5
207
100
AcDbEntity
8
1
100
AcDbVertex
100
AcDb2dVertex
62
5
10
59.250000
20
-22.250000
0
VERTEX
5
208
100
AcDbEntity
8
1
100
AcDbVertex
100
AcDb2dVertex
62
5
10
59.250000
20
-29.750000
0
SEQEND
5
209
100
AcDbEntity
8
1
0
LINE
5
20a
100
AcDbEntity
8
1
100
AcDbLine
6
CONTINUOUS
62
5
10
58.750000
20
-29.750000
11
59.750000
21
-29.750000
0
POLYLINE
5
20b
100
AcDbEntity
8
1
6
CONTINUOUS
62
5
100
AcDb2dPolyline
66
1
10
0.0
20
0.0
30
0.0
70
0
0
VERTEX
5
20c
100
AcDbEntity
8
1
100
AcDbVertex
100
AcDb2dVertex
62
5
10
73.750000
20
-15.687500
0
VERTEX
5
20d
100
AcDbEntity
8
1
100
AcDbVertex
100
AcDb2dVertex
62
5
10
74.000000
20
-16.000000
0
VERTEX
5
20e
100
AcDbEntity
8
1
100
AcDbVertex
100
AcDb2dVertex
62
5
10
80.750000
20
-16.000000
0
SEQEND
5
20f
100
AcDbEntity
8
1
0
POLYLINE
5
210
100
AcDbEntity
8
1
6
CONTINUOUS
62
5
100
AcDb2dPolyline
66
1
10
0.0
20
0.0
30
0.0
70
0
0
VERTEX
5
211
100
AcDbEntity
8
1
100
AcDbVertex
100
AcDb2dVertex
62
5
10
27.000000
20
-14.125000
0
VERTEX
5
212
100
AcDbEntity
8
1
100
AcDbVertex
100
AcDb2dVertex
62
5
10
30.250000
20
-14.125000
0
VERTEX
5
213
100
AcDbEntity
8
1
100
AcDbVertex
100
AcDb2dVertex
62
5
10
30.250000
20
-14.437500
0
VERTEX
5
214
100
AcDbEntity
8
1
100
AcDbVertex
100
AcDb2dVertex
62
5
10
29.750000
20
-15.687500
0
VERTEX
5
215
100
AcDbEntity
8
1
100
AcDbVertex
100
AcDb2dVertex
62
5
10
29.250000
20
-16.625000
0
VERTEX
5
216
100
AcDbEntity
8
1
100
AcDbVertex
100
AcDb2dVertex
62
5
10
28.250000
20
-17.875000
0
VERTEX
5
217
100
AcDbEntity
8
1
100
AcDbVertex
100
AcDb2dVertex
62
5
10
26.500000
20
-19.437500
0
SEQEND
5
218
100
AcDbEntity
8
1
0
LINE
5
219
100
AcDbEntity
8
1
100
AcDbLine
6
CONTINUOUS
62
5
10
29.250000
20
-16.625000
11
31.250000
21
-19.437500
0
POLYLINE
5
21a
100
AcDbEntity
8
1
6
CONTINUOUS
62
5
100
AcDb2dPolyline
66
1
10
0.0
20
0.0
30
0.0
70
0
0
VERTEX
5
21b
100
AcDbEntity
8
1
100
AcDbVertex
100
AcDb2dVertex
62
5
10
38.750000
20
-12.562500
0
VERTEX
5
21c
100
AcDbEntity
8
1
100
AcDbVertex
100
AcDb2dVertex
62
5
10
36.750000
20
-15.062500
0
VERTEX
5
21d
100
AcDbEntity
8
1
100
AcDbVertex
100
AcDb2dVertex
62
5
10
34.500000
20
-16.625000
0
SEQEND
5
21e
100
AcDbEntity
8
1
0
LINE
5
21f
100
AcDbEntity
8
1
100
AcDbLine
6
CONTINUOUS
62
5
10
37.250000
20
-14.437500
11
37.250000
21
-19.750000
0
POLYLINE
5
220
100
AcDbEntity
8
1
6
CONTINUOUS
62
5
100
AcDb2dPolyline
66
1
10
0.0
20
0.0
30
0.0
70
0
0
VERTEX
5
221
100
AcDbEntity
8
1
100
AcDbVertex
100
AcDb2dVertex
62
5
10
22.750000
20
-3.000000
0
VERTEX
5
222
100
AcDbEntity
8
1
100
AcDbVertex
100
AcDb2dVertex
62
5
10
23.500000
20
-9.000000
0
VERTEX
5
223
100
AcDbEntity
8
1
100
AcDbVertex
100
AcDb2dVertex
62
5
10
24.250000
20
-3.000000
0
VERTEX
5
224
100
AcDbEntity
8
1
100
AcDbVertex
100
AcDb2dVertex
62
5
10
25.000000
20
-9.000000
0
VERTEX
5
225
100
AcDbEntity
8
1
100
AcDbVertex
100
AcDb2dVertex
62
5
10
25.750000
20
-3.000000
0
SEQEND
5
226
100
AcDbEntity
8
1
0
LINE
5
227
100
AcDbEntity
8
1
100
AcDbLine
6
CONTINUOUS
62
5
10
27.500000
20
-3.000000
11
29.000000
21
-3.000000
0
LINE
5
228
100
AcDbEntity
8
1
100
AcDbLine
6
CONTINUOUS
62
5
10
28.250000
20
-3.000000
11
28.250000
21
-9.000000
0
LINE
5
229
100
AcDbEntity
8
1
100
AcDbLine
6
CONTINUOUS
62
5
10
27.500000
20
-9.000000
11
29.000000
21
-9.000000
0
LINE
5
22a
100
AcDbEntity
8
1
100
AcDbLine
6
CONTINUOUS
62
5
10
31.000000
20
-3.000000
11
31.000000
21
-9.000000
0
POLYLINE
5
22b
100
AcDbEntity
8
1
6
CONTINUOUS
62
5
100
AcDb2dPolyline
66
1
10
0.0
20
0.0
30
0.0
70
0
0
VERTEX
5
22c
100
AcDbEntity
8
1
100
AcDbVertex
100
AcDb2dVertex
62
5
10
31.000000
20
-3.000000
0
VERTEX
5
22d
100
AcDbEntity
8
1
100
AcDbVertex
100
AcDb2dVertex
62
5
10
32.250000
20
-3.000000
0
VERTEX
5
22e
100
AcDbEntity
8
1
100
AcDbVertex
100
AcDb2dVertex
62
5
10
32.750000
20
-3.250000
0
VERTEX
5
22f
100
AcDbEntity
8
1
100
AcDbVertex
100
AcDb2dVertex
62
5
10
33.250000
20
-3.750000
0
VERTEX
5
230
100
AcDbEntity
8
1
100
AcDbVertex
100
AcDb2dVertex
62
5
10
33.500000
20
-4.750000
0
VERTEX
5
231
100
AcDbEntity
8
1
100
AcDbVertex
100
AcDb2dVertex
62
5
10
33.500000
20
-7.250000
0
VERTEX
5
232
100
AcDbEntity
8
1
100
AcDbVertex
100
AcDb2dVertex
62
5
10
33.250000
20
-8.250000
0
VERTEX
5
233
100
AcDbEntity
8
1
100
AcDbVertex
100
AcDb2dVertex
62
5
10
32.750000
20
-8.750000
0
VERTEX
5
234
100
AcDbEntity
8
1
100
AcDbVertex
100
AcDb2dVertex
62
5
10
32.250000
20
-9.000000
0
VERTEX
5
235
100
AcDbEntity
8
1
100
AcDbVertex
100
AcDb2dVertex
62
5
10
31.000000
20
-9.000000
0
SEQEND
5
236
100
AcDbEntity
8
1
0
POLYLINE
5
237
100
AcDbEntity
8
1
6
CONTINUOUS
62
5
100
AcDb2dPolyline
66
1
10
0.0
20
0.0
30
0.0
70
0
0
VERTEX
5
238
100
AcDbEntity
8
1
100
AcDbVertex
100
AcDb2dVertex
62
5
10
37.500000
20
-3.000000
0
VERTEX
5
239
100
AcDbEntity
8
1
100
AcDbVertex
100
AcDb2dVertex
62
5
10
35.000000
20
-3.000000
0
VERTEX
5
23a
100
AcDbEntity
8
1
100
AcDbVertex
100
AcDb2dVertex
62
5
10
35.000000
20
-9.000000
0
VERTEX
5
23b
100
AcDbEntity
8
1
100
AcDbVertex
100
AcDb2dVertex
62
5
10
37.750000
20
-9.000000
0
SEQEND
5
23c
100
AcDbEntity
8
1
0
LINE
5
23d
100
AcDbEntity
8
1
100
AcDbLine
6
CONTINUOUS
62
5
10
35.000000
20
-6.000000
11
37.250000
21
-6.000000
0
POLYLINE
5
23e
100
AcDbEntity
8
1
6
CONTINUOUS
62
5
100
AcDb2dPolyline
66
1
10
0.0
20
0.0
30
0.0
70
0
0
VERTEX
5
23f
100
AcDbEntity
8
1
100
AcDbVertex
100
AcDb2dVertex
62
5
10
13.250000
20
-3.000000
0
VERTEX
5
240
100
AcDbEntity
8
1
100
AcDbVertex
100
AcDb2dVertex
62
5
10
13.250000
20
-7.500000
0
VERTEX
5
241
100
AcDbEntity
8
1
100
AcDbVertex
100
AcDb2dVertex
62
5
10
13.000000
20
-8.500000
0
VERTEX
5
242
100
AcDbEntity
8
1
100
AcDbVertex
100
AcDb2dVertex
62
5
10
12.500000
20
-9.000000
0
VERTEX
5
243
100
AcDbEntity
8
1
100
AcDbVertex
100
AcDb2dVertex
62
5
10
11.750000
20
-9.000000
0
VERTEX
5
244
100
AcDbEntity
8
1
100
AcDbVertex
100
AcDb2dVertex
62
5
10
11.250000
20
-8.500000
0
VERTEX
5
245
100
AcDbEntity
8
1
100
AcDbVertex
100
AcDb2dVertex
62
5
10
11.000000
20
-7.500000
0
SEQEND
5
246
100
AcDbEntity
8
1
0
POLYLINE
5
247
100
AcDbEntity
8
1
6
CONTINUOUS
62
5
100
AcDb2dPolyline
66
1
10
0.0
20
0.0
30
0.0
70
0
0
VERTEX
5
248
100
AcDbEntity
8
1
100
AcDbVertex
100
AcDb2dVertex
62
5
10
17.250000
20
-6.000000
0
VERTEX
5
249
100
AcDbEntity
8
1
100
AcDbVertex
100
AcDb2dVertex
62
5
10
17.750000
20
-5.500000
0
VERTEX
5
24a
100
AcDbEntity
8
1
100
AcDbVertex
100
AcDb2dVertex
62
5
10
18.000000
20
-5.500000
0
VERTEX
5
24b
100
AcDbEntity
8
1
100
AcDbVertex
100
AcDb2dVertex
62
5
10
18.500000
20
-6.000000
0
VERTEX
5
24c
100
AcDbEntity
8
1
100
AcDbVertex
100
AcDb2dVertex
62
5
10
18.500000
20
-6.250000
0
VERTEX
5
24d
100
AcDbEntity
8
1
100
AcDbVertex
100
AcDb2dVertex
62
5
10
18.000000
20
-6.750000
0
VERTEX
5
24e
100
AcDbEntity
8
1
100
AcDbVertex
100
AcDb2dVertex
62
5
10
17.750000
20
-6.750000
0
VERTEX
5
24f
100
AcDbEntity
8
1
100
AcDbVertex
100
AcDb2dVertex
62
5
10
17.250000
20
-6.250000
0
VERTEX
5
250
100
AcDbEntity
8
1
100
AcDbVertex
100
AcDb2dVertex
62
5
10
17.250000
20
-6.000000
0
VERTEX
5
251
100
AcDbEntity
8
1
100
AcDbVertex
100
AcDb2dVertex
62
5
10
18.500000
20
-6.000000
0
SEQEND
5
252
100
AcDbEntity
8
1
0
LINE
5
253
100
AcDbEntity
8
1
100
AcDbLine
6
CONTINUOUS
62
5
10
18.500000
20
-6.250000
11
17.250000
21
-6.250000
0
LINE
5
254
100
AcDbEntity
8
1
100
AcDbLine
6
CONTINUOUS
62
5
10
17.500000
20
-6.500000
11
18.250000
21
-6.500000
0
LINE
5
255
100
AcDbEntity
8
1
100
AcDbLine
6
CONTINUOUS
62
5
10
18.250000
20
-5.750000
11
17.500000
21
-5.750000
0
POLYLINE
5
256
100
AcDbEntity
8
1
6
CONTINUOUS
62
5
100
AcDb2dPolyline
66
1
10
0.0
20
0.0
30
0.0
70
0
0
VERTEX
5
257
100
AcDbEntity
8
1
100
AcDbVertex
100
AcDb2dVertex
62
5
10
27.000000
20
-24.125000
0
VERTEX
5
258
100
AcDbEntity
8
1
100
AcDbVertex
100
AcDb2dVertex
62
5
10
30.250000
20
-24.125000
0
VERTEX
5
259
100
AcDbEntity
8
1
100
AcDbVertex
100
AcDb2dVertex
62
5
10
30.250000
20
-24.437500
0
VERTEX
5
25a
100
AcDbEntity
8
1
100
AcDbVertex
100
AcDb2dVertex
62
5
10
29.750000
20
-25.687500
0
VERTEX
5
25b
100
AcDbEntity
8
1
100
AcDbVertex
100
AcDb2dVertex
62
5
10
29.250000
20
-26.625000
0
VERTEX
5
25c
100
AcDbEntity
8
1
100
AcDbVertex
100
AcDb2dVertex
62
5
10
28.250000
20
-27.875000
0
VERTEX
5
25d
100
AcDbEntity
8
1
100
AcDbVertex
100
AcDb2dVertex
62
5
10
26.500000
20
-29.437500
0
SEQEND
5
25e
100
AcDbEntity
8
1
0
LINE
5
25f
100
AcDbEntity
8
1
100
AcDbLine
6
CONTINUOUS
62
5
10
29.250000
20
-26.625000
11
31.250000
21
-29.437500
0
POLYLINE
5
260
100
AcDbEntity
8
1
6
CONTINUOUS
62
5
100
AcDb2dPolyline
66
1
10
0.0
20
0.0
30
0.0
70
0
0
VERTEX
5
261
100
AcDbEntity
8
1
100
AcDbVertex
100
AcDb2dVertex
62
5
10
38.750000
20
-22.562500
0
VERTEX
5
262
100
AcDbEntity
8
1
100
AcDbVertex
100
AcDb2dVertex
62
5
10
36.750000
20
-25.062500
0
VERTEX
5
263
100
AcDbEntity
8
1
100
AcDbVertex
100
AcDb2dVertex
62
5
10
34.500000
20
-26.625000
0
SEQEND
5
264
100
AcDbEntity
8
1
0
LINE
5
265
100
AcDbEntity
8
1
100
AcDbLine
6
CONTINUOUS
62
5
10
37.250000
20
-24.437500
11
37.250000
21
-29.750000
0
LINE
5
266
100
AcDbEntity
8
1
100
AcDbLine
6
CONTINUOUS
62
5
10
0.000000
20
0.000000
11
0.000000
21
-32.000000
0
POLYLINE
5
267
100
AcDbEntity
8
1
6
CONTINUOUS
62
5
100
AcDb2dPolyline
66
1
10
0.0
20
0.0
30
0.0
70
0
0
VERTEX
5
268
100
AcDbEntity
8
1
100
AcDbVertex
100
AcDb2dVertex
62
5
10
25.625000
20
-51.062500
0
VERTEX
5
269
100
AcDbEntity
8
1
100
AcDbVertex
100
AcDb2dVertex
62
5
10
25.312500
20
-50.125000
0
VERTEX
5
26a
100
AcDbEntity
8
1
100
AcDbVertex
100
AcDb2dVertex
62
5
10
24.687500
20
-49.500000
0
VERTEX
5
26b
100
AcDbEntity
8
1
100
AcDbVertex
100
AcDb2dVertex
62
5
10
23.750000
20
-49.500000
0
VERTEX
5
26c
100
AcDbEntity
8
1
100
AcDbVertex
100
AcDb2dVertex
62
5
10
22.812500
20
-50.437500
0
VERTEX
5
26d
100
AcDbEntity
8
1
100
AcDbVertex
100
AcDb2dVertex
62
5
10
22.500000
20
-52.000000
0
VERTEX
5
26e
100
AcDbEntity
8
1
100
AcDbVertex
100
AcDb2dVertex
62
5
10
22.500000
20
-54.500000
0
VERTEX
5
26f
100
AcDbEntity
8
1
100
AcDbVertex
100
AcDb2dVertex
62
5
10
22.812500
20
-56.062500
0
VERTEX
5
270
100
AcDbEntity
8
1
100
AcDbVertex
100
AcDb2dVertex
62
5
10
23.750000
20
-57.000000
0
VERTEX
5
271
100
AcDbEntity
8
1
100
AcDbVertex
100
AcDb2dVertex
62
5
10
24.687500
20
-57.000000
0
VERTEX
5
272
100
AcDbEntity
8
1
100
AcDbVertex
100
AcDb2dVertex
62
5
10
25.312500
20
-56.375000
0
VERTEX
5
273
100
AcDbEntity
8
1
100
AcDbVertex
100
AcDb2dVertex
62
5
10
25.937500
20
-54.812500
0
SEQEND
5
274
100
AcDbEntity
8
1
0
LINE
5
275
100
AcDbEntity
8
1
100
AcDbLine
6
CONTINUOUS
62
5
10
27.500000
20
-53.250000
11
30.625000
21
-53.250000
0
POLYLINE
5
276
100
AcDbEntity
8
1
6
CONTINUOUS
62
5
100
AcDb2dPolyline
66
1
10
0.0
20
0.0
30
0.0
70
0
0
VERTEX
5
277
100
AcDbEntity
8
1
100
AcDbVertex
100
AcDb2dVertex
62
5
10
35.000000
20
-49.500000
0
VERTEX
5
278
100
AcDbEntity
8
1
100
AcDbVertex
100
AcDb2dVertex
62
5
10
32.187500
20
-55.125000
0
VERTEX
5
279
100
AcDbEntity
8
1
100
AcDbVertex
100
AcDb2dVertex
62
5
10
35.937500
20
-55.125000
0
SEQEND
5
27a
100
AcDbEntity
8
1
0
LINE
5
27b
100
AcDbEntity
8
1
100
AcDbLine
6
CONTINUOUS
62
5
10
35.000000
20
-49.500000
11
35.000000
21
-57.000000
0
LINE
5
27c
100
AcDbEntity
8
1
100
AcDbLine
6
CONTINUOUS
62
5
10
34.375000
20
-57.000000
11
35.625000
21
-57.000000
0
POLYLINE
5
27d
100
AcDbEntity
8
1
6
CONTINUOUS
62
5
100
AcDb2dPolyline
66
1
10
0.0
20
0.0
30
0.0
70
0
0
VERTEX
5
27e
100
AcDbEntity
8
1
100
AcDbVertex
100
AcDb2dVertex
62
5
10
12.187500
20
-49.500000
0
VERTEX
5
27f
100
AcDbEntity
8
1
100
AcDbVertex
100
AcDb2dVertex
62
5
10
13.125000
20
-57.000000
0
VERTEX
5
280
100
AcDbEntity
8
1
100
AcDbVertex
100
AcDb2dVertex
62
5
10
14.062500
20
-49.500000
0
VERTEX
5
281
100
AcDbEntity
8
1
100
AcDbVertex
100
AcDb2dVertex
62
5
10
15.000000
20
-57.000000
0
VERTEX
5
282
100
AcDbEntity
8
1
100
AcDbVertex
100
AcDb2dVertex
62
5
10
15.937500
20
-49.500000
0
SEQEND
5
283
100
AcDbEntity
8
1
0
POLYLINE
5
284
100
AcDbEntity
8
1
6
CONTINUOUS
62
5
100
AcDb2dPolyline
66
1
10
0.0
20
0.0
30
0.0
70
0
0
VERTEX
5
285
100
AcDbEntity
8
1
100
AcDbVertex
100
AcDb2dVertex
62
5
10
20.312500
20
-49.500000
0
VERTEX
5
286
100
AcDbEntity
8
1
100
AcDbVertex
100
AcDb2dVertex
62
5
10
20.312500
20
-55.125000
0
VERTEX
5
287
100
AcDbEntity
8
1
100
AcDbVertex
100
AcDb2dVertex
62
5
10
20.000000
20
-56.375000
0
VERTEX
5
288
100
AcDbEntity
8
1
100
AcDbVertex
100
AcDb2dVertex
62
5
10
19.375000
20
-57.000000
0
VERTEX
5
289
100
AcDbEntity
8
1
100
AcDbVertex
100
AcDb2dVertex
62
5
10
18.437500
20
-57.000000
0
VERTEX
5
28a
100
AcDbEntity
8
1
100
AcDbVertex
100
AcDb2dVertex
62
5
10
17.812500
20
-56.375000
0
VERTEX
5
28b
100
AcDbEntity
8
1
100
AcDbVertex
100
AcDb2dVertex
62
5
10
17.500000
20
-55.125000
0
SEQEND
5
28c
100
AcDbEntity
8
1
0
POLYLINE
5
28d
100
AcDbEntity
8
1
6
DOT2
62
5
100
AcDb2dPolyline
66
1
10
0.0
20
0.0
30
0.0
70
0
0
VERTEX
5
28e
100
AcDbEntity
8
1
100
AcDbVertex
100
AcDb2dVertex
62
5
10
83.750000
20
-97.187500
0
VERTEX
5
28f
100
AcDbEntity
8
1
100
AcDbVertex
100
AcDb2dVertex
62
5
10
83.750000
20
-96.250000
0
VERTEX
5
290
100
AcDbEntity
8
1
100
AcDbVertex
100
AcDb2dVertex
62
5
10
86.875000
20
-96.250000
0
VERTEX
5
291
100
AcDbEntity
8
1
100
AcDbVertex
100
AcDb2dVertex
62
5
10
86.875000
20
-96.875000
0
VERTEX
5
292
100
AcDbEntity
8
1
100
AcDbVertex
100
AcDb2dVertex
62
5
10
86.250000
20
-98.437500
0
VERTEX
5
293
100
AcDbEntity
8
1
100
AcDbVertex
100
AcDb2dVertex
62
5
10
85.625000
20
-100.625000
0
VERTEX
5
294
100
AcDbEntity
8
1
100
AcDbVertex
100
AcDb2dVertex
62
5
10
85.000000
20
-103.750000
0
SEQEND
5
295
100
AcDbEntity
8
1
0
POLYLINE
5
296
100
AcDbEntity
8
1
6
DOT2
62
5
100
AcDb2dPolyline
66
1
10
0.0
20
0.0
30
0.0
70
1
0
VERTEX
5
297
100
AcDbEntity
8
1
100
AcDbVertex
100
AcDb2dVertex
62
5
10
90.000000
20
-96.250000
0
VERTEX
5
298
100
AcDbEntity
8
1
100
AcDbVertex
100
AcDb2dVertex
62
5
10
90.625000
20
-96.250000
0
VERTEX
5
299
100
AcDbEntity
8
1
100
AcDbVertex
100
AcDb2dVertex
62
5
10
90.937500
20
-96.562500
0
VERTEX
5
29a
100
AcDbEntity
8
1
100
AcDbVertex
100
AcDb2dVertex
62
5
10
91.562500
20
-97.812500
0
VERTEX
5
29b
100
AcDbEntity
8
1
100
AcDbVertex
100
AcDb2dVertex
62
5
10
91.875000
20
-99.062500
0
VERTEX
5
29c
100
AcDbEntity
8
1
100
AcDbVertex
100
AcDb2dVertex
62
5
10
91.875000
20
-100.937500
0
VERTEX
5
29d
100
AcDbEntity
8
1
100
AcDbVertex
100
AcDb2dVertex
62
5
10
91.562500
20
-102.187500
0
VERTEX
5
29e
100
AcDbEntity
8
1
100
AcDbVertex
100
AcDb2dVertex
62
5
10
90.937500
20
-103.437500
0
VERTEX
5
29f
100
AcDbEntity
8
1
100
AcDbVertex
100
AcDb2dVertex
62
5
10
90.625000
20
-103.750000
0
VERTEX
5
2a0
100
AcDbEntity
8
1
100
AcDbVertex
100
AcDb2dVertex
62
5
10
90.000000
20
-103.750000
0
VERTEX
5
2a1
100
AcDbEntity
8
1
100
AcDbVertex
100
AcDb2dVertex
62
5
10
89.687500
20
-103.437500
0
VERTEX
5
2a2
100
AcDbEntity
8
1
100
AcDbVertex
100
AcDb2dVertex
62
5
10
89.062500
20
-102.187500
0
VERTEX
5
2a3
100
AcDbEntity
8
1
100
AcDbVertex
100
AcDb2dVertex
62
5
10
88.750000
20
-100.937500
0
VERTEX
5
2a4
100
AcDbEntity
8
1
100
AcDbVertex
100
AcDb2dVertex
62
5
10
88.750000
20
-99.062500
0
VERTEX
5
2a5
100
AcDbEntity
8
1
100
AcDbVertex
100
AcDb2dVertex
62
5
10
89.062500
20
-97.812500
0
VERTEX
5
2a6
100
AcDbEntity
8
1
100
AcDbVertex
100
AcDb2dVertex
62
5
10
89.687500
20
-96.562500
0
VERTEX
5
2a7
100
AcDbEntity
8
1
100
AcDbVertex
100
AcDb2dVertex
62
5
10
90.000000
20
-96.250000
0
SEQEND
5
2a8
100
AcDbEntity
8
1
0
LINE
5
2a9
100
AcDbEntity
8
1
100
AcDbLine
6
CONTINUOUS
62
5
10
52.500000
20
-138.500000
11
52.500000
21
-103.000000
0
LINE
5
2aa
100
AcDbEntity
8
1
100
AcDbLine
6
CONTINUOUS
62
5
10
122.500000
20
-138.500000
11
122.500000
21
-103.000000
0
POLYLINE
5
2ab
100
AcDbEntity
8
1
6
CONTINUOUS
62
5
100
AcDb2dPolyline
66
1
10
0.0
20
0.0
30
0.0
70
0
0
VERTEX
5
2ac
100
AcDbEntity
8
1
100
AcDbVertex
100
AcDb2dVertex
62
5
10
87.500000
20
-105.000000
0
VERTEX
5
2ad
100
AcDbEntity
8
1
100
AcDbVertex
100
AcDb2dVertex
62
5
10
52.500000
20
-105.000000
0
VERTEX
5
2ae
100
AcDbEntity
8
1
100
AcDbVertex
100
AcDb2dVertex
62
5
10
58.500000
20
-104.000000
0
VERTEX
5
2af
100
AcDbEntity
8
1
100
AcDbVertex
100
AcDb2dVertex
62
5
10
58.500000
20
-106.000000
0
VERTEX
5
2b0
100
AcDbEntity
8
1
100
AcDbVertex
100
AcDb2dVertex
62
5
10
52.500000
20
-105.000000
0
VERTEX
5
2b1
100
AcDbEntity
8
1
100
AcDbVertex
100
AcDb2dVertex
62
5
10
58.500000
20
-104.500000
0
VERTEX
5
2b2
100
AcDbEntity
8
1
100
AcDbVertex
100
AcDb2dVertex
62
5
10
58.500000
20
-105.500000
0
VERTEX
5
2b3
100
AcDbEntity
8
1
100
AcDbVertex
100
AcDb2dVertex
62
5
10
52.500000
20
-105.000000
0
SEQEND
5
2b4
100
AcDbEntity
8
1
0
POLYLINE
5
2b5
100
AcDbEntity
8
1
6
CONTINUOUS
62
5
100
AcDb2dPolyline
66
1
10
0.0
20
0.0
30
0.0
70
0
0
VERTEX
5
2b6
100
AcDbEntity
8
1
100
AcDbVertex
100
AcDb2dVertex
62
5
10
87.500000
20
-105.000000
0
VERTEX
5
2b7
100
AcDbEntity
8
1
100
AcDbVertex
100
AcDb2dVertex
62
5
10
122.500000
20
-105.000000
0
VERTEX
5
2b8
100
AcDbEntity
8
1
100
AcDbVertex
100
AcDb2dVertex
62
5
10
116.500000
20
-106.000000
0
VERTEX
5
2b9
100
AcDbEntity
8
1
100
AcDbVertex
100
AcDb2dVertex
62
5
10
116.500000
20
-104.000000
0
VERTEX
5
2ba
100
AcDbEntity
8
1
100
AcDbVertex
100
AcDb2dVertex
62
5
10
122.500000
20
-105.000000
0
VERTEX
5
2bb
100
AcDbEntity
8
1
100
AcDbVertex
100
AcDb2dVertex
62
5
10
116.500000
20
-105.500000
0
VERTEX
5
2bc
100
AcDbEntity
8
1
100
AcDbVertex
100
AcDb2dVertex
62
5
10
116.500000
20
-104.500000
0
VERTEX
5
2bd
100
AcDbEntity
8
1
100
AcDbVertex
100
AcDb2dVertex
62
5
10
122.500000
20
-105.000000
0
SEQEND
5
2be
100
AcDbEntity
8
1
0
POLYLINE
5
2bf
100
AcDbEntity
8
1
6
CONTINUOUS
62
5
100
AcDb2dPolyline
66
1
10
0.0
20
0.0
30
0.0
70
0
0
VERTEX
5
2c0
100
AcDbEntity
8
1
100
AcDbVertex
100
AcDb2dVertex
62
5
10
114.000000
20
-14.125000
0
VERTEX
5
2c1
100
AcDbEntity
8
1
100
AcDbVertex
100
AcDb2dVertex
62
5
10
118.250000
20
-14.125000
0
VERTEX
5
2c2
100
AcDbEntity
8
1
100
AcDbVertex
100
AcDb2dVertex
62
5
10
118.250000
20
-14.750000
0
VERTEX
5
2c3
100
AcDbEntity
8
1
100
AcDbVertex
100
AcDb2dVertex
62
5
10
118.000000
20
-15.687500
0
VERTEX
5
2c4
100
AcDbEntity
8
1
100
AcDbVertex
100
AcDb2dVertex
62
5
10
117.500000
20
-16.625000
0
VERTEX
5
2c5
100
AcDbEntity
8
1
100
AcDbVertex
100
AcDb2dVertex
62
5
10
116.750000
20
-17.875000
0
VERTEX
5
2c6
100
AcDbEntity
8
1
100
AcDbVertex
100
AcDb2dVertex
62
5
10
116.000000
20
-18.500000
0
VERTEX
5
2c7
100
AcDbEntity
8
1
100
AcDbVertex
100
AcDb2dVertex
62
5
10
114.750000
20
-19.437500
0
SEQEND
5
2c8
100
AcDbEntity
8
1
0
POLYLINE
5
2c9
100
AcDbEntity
8
1
6
CONTINUOUS
62
5
100
AcDb2dPolyline
66
1
10
0.0
20
0.0
30
0.0
70
1
0
VERTEX
5
2ca
100
AcDbEntity
8
1
100
AcDbVertex
100
AcDb2dVertex
62
5
10
119.000000
20
-12.562500
0
VERTEX
5
2cb
100
AcDbEntity
8
1
100
AcDbVertex
100
AcDb2dVertex
62
5
10
119.500000
20
-12.562500
0
VERTEX
5
2cc
100
AcDbEntity
8
1
100
AcDbVertex
100
AcDb2dVertex
62
5
10
119.750000
20
-12.875000
0
VERTEX
5
2cd
100
AcDbEntity
8
1
100
AcDbVertex
100
AcDb2dVertex
62
5
10
119.750000
20
-13.500000
0
VERTEX
5
2ce
100
AcDbEntity
8
1
100
AcDbVertex
100
AcDb2dVertex
62
5
10
119.500000
20
-13.812500
0
VERTEX
5
2cf
100
AcDbEntity
8
1
100
AcDbVertex
100
AcDb2dVertex
62
5
10
119.000000
20
-13.812500
0
VERTEX
5
2d0
100
AcDbEntity
8
1
100
AcDbVertex
100
AcDb2dVertex
62
5
10
118.750000
20
-13.500000
0
VERTEX
5
2d1
100
AcDbEntity
8
1
100
AcDbVertex
100
AcDb2dVertex
62
5
10
118.750000
20
-12.875000
0
VERTEX
5
2d2
100
AcDbEntity
8
1
100
AcDbVertex
100
AcDb2dVertex
62
5
10
119.000000
20
-12.562500
0
SEQEND
5
2d3
100
AcDbEntity
8
1
0
POLYLINE
5
2d4
100
AcDbEntity
8
1
6
CONTINUOUS
62
5
100
AcDb2dPolyline
66
1
10
0.0
20
0.0
30
0.0
70
1
0
VERTEX
5
2d5
100
AcDbEntity
8
1
100
AcDbVertex
100
AcDb2dVertex
62
5
10
118.250000
20
-29.750000
0
VERTEX
5
2d6
100
AcDbEntity
8
1
100
AcDbVertex
100
AcDb2dVertex
62
5
10
123.500000
20
-29.750000
0
VERTEX
5
2d7
100
AcDbEntity
8
1
100
AcDbVertex
100
AcDb2dVertex
62
5
10
123.500000
20
-23.500000
0
VERTEX
5
2d8
100
AcDbEntity
8
1
100
AcDbVertex
100
AcDb2dVertex
62
5
10
118.250000
20
-23.500000
0
VERTEX
5
2d9
100
AcDbEntity
8
1
100
AcDbVertex
100
AcDb2dVertex
62
5
10
118.250000
20
-29.750000
0
SEQEND
5
2da
100
AcDbEntity
8
1
0
LINE
5
2db
100
AcDbEntity
8
1
100
AcDbLine
6
CONTINUOUS
62
5
10
-40.000000
20
-32.000000
11
280.000000
21
-32.000000
0
ARC
5
2dc
100
AcDbEntity
8
1
100
AcDbCircle
6
CONTINUOUS
62
5
10
108.700000
20
-235.300000
40
0.500000
100
AcDbArc
50
-89.999999
51
0.000000
0
POLYLINE
5
2dd
100
AcDbEntity
8
1
6
CONTINUOUS
62
5
100
AcDb2dPolyline
66
1
10
0.0
20
0.0
30
0.0
70
0
0
VERTEX
5
2de
100
AcDbEntity
8
1
100
AcDbVertex
100
AcDb2dVertex
62
5
10
109.200000
20
-235.300000
0
VERTEX
5
2df
100
AcDbEntity
8
1
100
AcDbVertex
100
AcDb2dVertex
62
5
10
109.200000
20
-235.300000
0
VERTEX
5
2e0
100
AcDbEntity
8
1
100
AcDbVertex
100
AcDb2dVertex
62
5
10
109.200000
20
-190.700000
0
SEQEND
5
2e1
100
AcDbEntity
8
1
0
ARC
5
2e2
100
AcDbEntity
8
1
100
AcDbCircle
6
CONTINUOUS
62
5
10
108.700000
20
-190.700000
40
0.500000
100
AcDbArc
50
0.000000
51
89.999999
0
LINE
5
2e3
100
AcDbEntity
8
1
100
AcDbLine
6
CONTINUOUS
62
5
10
108.700000
20
-190.200000
11
66.300000
21
-190.200000
0
ARC
5
2e4
100
AcDbEntity
8
1
100
AcDbCircle
6
CONTINUOUS
62
5
10
66.300000
20
-190.700000
40
0.500000
100
AcDbArc
50
89.999999
51
-179.999998
0
POLYLINE
5
2e5
100
AcDbEntity
8
1
6
CONTINUOUS
62
5
100
AcDb2dPolyline
66
1
10
0.0
20
0.0
30
0.0
70
0
0
VERTEX
5
2e6
100
AcDbEntity
8
1
100
AcDbVertex
100
AcDb2dVertex
62
5
10
65.800000
20
-190.700000
0
VERTEX
5
2e7
100
AcDbEntity
8
1
100
AcDbVertex
100
AcDb2dVertex
62
5
10
65.800000
20
-190.700000
0
VERTEX
5
2e8
100
AcDbEntity
8
1
100
AcDbVertex
100
AcDb2dVertex
62
5
10
65.800000
20
-235.300000
0
SEQEND
5
2e9
100
AcDbEntity
8
1
0
ARC
5
2ea
100
AcDbEntity
8
1
100
AcDbCircle
6
CONTINUOUS
62
5
10
66.300000
20
-235.300000
40
0.500000
100
AcDbArc
50
-179.999998
51
-89.999999
0
LINE
5
2eb
100
AcDbEntity
8
1
100
AcDbLine
6
CONTINUOUS
62
5
10
66.300000
20
-235.800000
11
66.300000
21
-235.800000
0
LINE
5
2ec
100
AcDbEntity
8
1
100
AcDbLine
6
CONTINUOUS
62
5
10
66.300000
20
-235.800000
11
108.700000
21
-235.800000
0
ARC
5
2ed
100
AcDbEntity
8
1
100
AcDbCircle
6
CONTINUOUS
62
5
10
108.800000
20
-235.400000
40
0.500000
100
AcDbArc
50
-89.999999
51
0.000000
0
POLYLINE
5
2ee
100
AcDbEntity
8
1
6
CONTINUOUS
62
5
100
AcDb2dPolyline
66
1
10
0.0
20
0.0
30
0.0
70
0
0
VERTEX
5
2ef
100
AcDbEntity
8
1
100
AcDbVertex
100
AcDb2dVertex
62
5
10
108.800000
20
-235.900000
0
VERTEX
5
2f0
100
AcDbEntity
8
1
100
AcDbVertex
100
AcDb2dVertex
62
5
10
91.000000
20
-235.900000
0
VERTEX
5
2f1
100
AcDbEntity
8
1
100
AcDbVertex
100
AcDb2dVertex
62
5
10
91.000000
20
-235.833333
0
VERTEX
5
2f2
100
AcDbEntity
8
1
100
AcDbVertex
100
AcDb2dVertex
62
5
10
84.000000
20
-235.833333
0
VERTEX
5
2f3
100
AcDbEntity
8
1
100
AcDbVertex
100
AcDb2dVertex
62
5
10
84.000000
20
-235.900000
0
VERTEX
5
2f4
100
AcDbEntity
8
1
100
AcDbVertex
100
AcDb2dVertex
62
5
10
66.200000
20
-235.900000
0
SEQEND
5
2f5
100
AcDbEntity
8
1
0
ARC
5
2f6
100
AcDbEntity
8
1
100
AcDbCircle
6
CONTINUOUS
62
5
10
66.200000
20
-235.400000
40
0.500000
100
AcDbArc
50
179.999998
51
-89.999999
0
LINE
5
2f7
100
AcDbEntity
8
1
100
AcDbLine
6
CONTINUOUS
62
5
10
65.700000
20
-235.400000
11
65.700000
21
-190.600000
0
ARC
5
2f8
100
AcDbEntity
8
1
100
AcDbCircle
6
CONTINUOUS
62
5
10
66.200000
20
-190.600000
40
0.500000
100
AcDbArc
50
89.999999
51
179.999998
0
LINE
5
2f9
100
AcDbEntity
8
1
100
AcDbLine
6
CONTINUOUS
62
5
10
66.200000
20
-190.100000
11
108.800000
21
-190.100000
0
ARC
5
2fa
100
AcDbEntity
8
1
100
AcDbCircle
6
CONTINUOUS
62
5
10
108.800000
20
-190.600000
40
0.500000
100
AcDbArc
50
0.000000
51
89.999999
0
LINE
5
2fb
100
AcDbEntity
8
1
100
AcDbLine
6
CONTINUOUS
62
5
10
109.300000
20
-190.600000
11
109.300000
21
-235.400000
0
POLYLINE
5
2fc
100
AcDbEntity
8
1
6
CONTINUOUS
62
5
100
AcDb2dPolyline
66
1
10
0.0
20
0.0
30
0.0
70
1
0
VERTEX
5
2fd
100
AcDbEntity
8
1
100
AcDbVertex
100
AcDb2dVertex
62
5
10
73.250000
20
-201.400000
0
VERTEX
5
2fe
100
AcDbEntity
8
1
100
AcDbVertex
100
AcDb2dVertex
62
5
10
101.750000
20
-201.400000
0
VERTEX
5
2ff
100
AcDbEntity
8
1
100
AcDbVertex
100
AcDb2dVertex
62
5
10
101.750000
20
-224.600000
0
VERTEX
5
300
100
AcDbEntity
8
1
100
AcDbVertex
100
AcDb2dVertex
62
5
10
73.250000
20
-224.600000
0
SEQEND
5
301
100
AcDbEntity
8
1
0
POLYLINE
5
302
100
AcDbEntity
8
1
6
DOT2
62
5
100
AcDb2dPolyline
66
1
10
0.0
20
0.0
30
0.0
70
1
0
VERTEX
5
303
100
AcDbEntity
8
1
100
AcDbVertex
100
AcDb2dVertex
62
5
10
18.750000
20
-185.000000
0
VERTEX
5
304
100
AcDbEntity
8
1
100
AcDbVertex
100
AcDb2dVertex
62
5
10
18.750000
20
-184.375000
0
VERTEX
5
305
100
AcDbEntity
8
1
100
AcDbVertex
100
AcDb2dVertex
62
5
10
19.062500
20
-184.062500
0
VERTEX
5
306
100
AcDbEntity
8
1
100
AcDbVertex
100
AcDb2dVertex
62
5
10
20.312500
20
-183.437500
0
VERTEX
5
307
100
AcDbEntity
8
1
100
AcDbVertex
100
AcDb2dVertex
62
5
10
21.562500
20
-183.125000
0
VERTEX
5
308
100
AcDbEntity
8
1
100
AcDbVertex
100
AcDb2dVertex
62
5
10
23.437500
20
-183.125000
0
VERTEX
5
309
100
AcDbEntity
8
1
100
AcDbVertex
100
AcDb2dVertex
62
5
10
24.687500
20
-183.437500
0
VERTEX
5
30a
100
AcDbEntity
8
1
100
AcDbVertex
100
AcDb2dVertex
62
5
10
25.937500
20
-184.062500
0
VERTEX
5
30b
100
AcDbEntity
8
1
100
AcDbVertex
100
AcDb2dVertex
62
5
10
26.250000
20
-184.375000
0
VERTEX
5
30c
100
AcDbEntity
8
1
100
AcDbVertex
100
AcDb2dVertex
62
5
10
26.250000
20
-185.000000
0
VERTEX
5
30d
100
AcDbEntity
8
1
100
AcDbVertex
100
AcDb2dVertex
62
5
10
25.937500
20
-185.312500
0
VERTEX
5
30e
100
AcDbEntity
8
1
100
AcDbVertex
100
AcDb2dVertex
62
5
10
24.687500
20
-185.937500
0
VERTEX
5
30f
100
AcDbEntity
8
1
100
AcDbVertex
100
AcDb2dVertex
62
5
10
23.437500
20
-186.250000
0
VERTEX
5
310
100
AcDbEntity
8
1
100
AcDbVertex
100
AcDb2dVertex
62
5
10
21.562500
20
-186.250000
0
VERTEX
5
311
100
AcDbEntity
8
1
100
AcDbVertex
100
AcDb2dVertex
62
5
10
20.312500
20
-185.937500
0
VERTEX
5
312
100
AcDbEntity
8
1
100
AcDbVertex
100
AcDb2dVertex
62
5
10
19.062500
20
-185.312500
0
VERTEX
5
313
100
AcDbEntity
8
1
100
AcDbVertex
100
AcDb2dVertex
62
5
10
18.750000
20
-185.000000
0
SEQEND
5
314
100
AcDbEntity
8
1
0
POLYLINE
5
315
100
AcDbEntity
8
1
6
DOT2
62
5
100
AcDb2dPolyline
66
1
10
0.0
20
0.0
30
0.0
70
0
0
VERTEX
5
316
100
AcDbEntity
8
1
100
AcDbVertex
100
AcDb2dVertex
62
5
10
19.375000
20
-195.625000
0
VERTEX
5
317
100
AcDbEntity
8
1
100
AcDbVertex
100
AcDb2dVertex
62
5
10
18.750000
20
-194.687500
0
VERTEX
5
318
100
AcDbEntity
8
1
100
AcDbVertex
100
AcDb2dVertex
62
5
10
26.250000
20
-194.687500
0
SEQEND
5
319
100
AcDbEntity
8
1
0
LINE
5
31a
100
AcDbEntity
8
1
100
AcDbLine
6
DOT2
62
5
10
26.250000
20
-195.312500
11
26.250000
21
-194.062500
0
POLYLINE
5
31b
100
AcDbEntity
8
1
6
DOT2
62
5
100
AcDb2dPolyline
66
1
10
0.0
20
0.0
30
0.0
70
0
0
VERTEX
5
31c
100
AcDbEntity
8
1
100
AcDbVertex
100
AcDb2dVertex
62
5
10
20.937500
20
-191.250000
0
VERTEX
5
31d
100
AcDbEntity
8
1
100
AcDbVertex
100
AcDb2dVertex
62
5
10
19.375000
20
-190.937500
0
VERTEX
5
31e
100
AcDbEntity
8
1
100
AcDbVertex
100
AcDb2dVertex
62
5
10
18.750000
20
-190.000000
0
VERTEX
5
31f
100
AcDbEntity
8
1
100
AcDbVertex
100
AcDb2dVertex
62
5
10
18.750000
20
-189.062500
0
VERTEX
5
320
100
AcDbEntity
8
1
100
AcDbVertex
100
AcDb2dVertex
62
5
10
19.062500
20
-188.437500
0
VERTEX
5
321
100
AcDbEntity
8
1
100
AcDbVertex
100
AcDb2dVertex
62
5
10
20.000000
20
-188.125000
0
VERTEX
5
322
100
AcDbEntity
8
1
100
AcDbVertex
100
AcDb2dVertex
62
5
10
20.937500
20
-188.125000
0
VERTEX
5
323
100
AcDbEntity
8
1
100
AcDbVertex
100
AcDb2dVertex
62
5
10
21.875000
20
-188.437500
0
VERTEX
5
324
100
AcDbEntity
8
1
100
AcDbVertex
100
AcDb2dVertex
62
5
10
26.250000
20
-191.250000
0
VERTEX
5
325
100
AcDbEntity
8
1
100
AcDbVertex
100
AcDb2dVertex
62
5
10
26.250000
20
-188.125000
0
VERTEX
5
326
100
AcDbEntity
8
1
100
AcDbVertex
100
AcDb2dVertex
62
5
10
25.312500
20
-188.125000
0
SEQEND
5
327
100
AcDbEntity
8
1
0
LINE
5
328
100
AcDbEntity
8
1
100
AcDbLine
6
CONTINUOUS
62
5
10
61.000000
20
-130.000000
11
25.500000
21
-130.000000
0
LINE
5
329
100
AcDbEntity
8
1
100
AcDbLine
6
CONTINUOUS
62
5
10
61.000000
20
-250.000000
11
25.500000
21
-250.000000
0
POLYLINE
5
32a
100
AcDbEntity
8
1
6
CONTINUOUS
62
5
100
AcDb2dPolyline
66
1
10
0.0
20
0.0
30
0.0
70
0
0
VERTEX
5
32b
100
AcDbEntity
8
1
100
AcDbVertex
100
AcDb2dVertex
62
5
10
27.500000
20
-190.000000
0
VERTEX
5
32c
100
AcDbEntity
8
1
100
AcDbVertex
100
AcDb2dVertex
62
5
10
27.500000
20
-250.000000
0
VERTEX
5
32d
100
AcDbEntity
8
1
100
AcDbVertex
100
AcDb2dVertex
62
5
10
26.500000
20
-244.000000
0
VERTEX
5
32e
100
AcDbEntity
8
1
100
AcDbVertex
100
AcDb2dVertex
62
5
10
28.500000
20
-244.000000
0
VERTEX
5
32f
100
AcDbEntity
8
1
100
AcDbVertex
100
AcDb2dVertex
62
5
10
27.500000
20
-250.000000
0
VERTEX
5
330
100
AcDbEntity
8
1
100
AcDbVertex
100
AcDb2dVertex
62
5
10
27.000000
20
-244.000000
0
VERTEX
5
331
100
AcDbEntity
8
1
100
AcDbVertex
100
AcDb2dVertex
62
5
10
28.000000
20
-244.000000
0
VERTEX
5
332
100
AcDbEntity
8
1
100
AcDbVertex
100
AcDb2dVertex
62
5
10
27.500000
20
-250.000000
0
SEQEND
5
333
100
AcDbEntity
8
1
0
POLYLINE
5
334
100
AcDbEntity
8
1
6
CONTINUOUS
62
5
100
AcDb2dPolyline
66
1
10
0.0
20
0.0
30
0.0
70
0
0
VERTEX
5
335
100
AcDbEntity
8
1
100
AcDbVertex
100
AcDb2dVertex
62
5
10
27.500000
20
-190.000000
0
VERTEX
5
336
100
AcDbEntity
8
1
100
AcDbVertex
100
AcDb2dVertex
62
5
10
27.500000
20
-130.000000
0
VERTEX
5
337
100
AcDbEntity
8
1
100
AcDbVertex
100
AcDb2dVertex
62
5
10
28.500000
20
-136.000000
0
VERTEX
5
338
100
AcDbEntity
8
1
100
AcDbVertex
100
AcDb2dVertex
62
5
10
26.500000
20
-136.000000
0
VERTEX
5
339
100
AcDbEntity
8
1
100
AcDbVertex
100
AcDb2dVertex
62
5
10
27.500000
20
-130.000000
0
VERTEX
5
33a
100
AcDbEntity
8
1
100
AcDbVertex
100
AcDb2dVertex
62
5
10
28.000000
20
-136.000000
0
VERTEX
5
33b
100
AcDbEntity
8
1
100
AcDbVertex
100
AcDb2dVertex
62
5
10
27.000000
20
-136.000000
0
VERTEX
5
33c
100
AcDbEntity
8
1
100
AcDbVertex
100
AcDb2dVertex
62
5
10
27.500000
20
-130.000000
0
SEQEND
5
33d
100
AcDbEntity
8
1
0
ARC
5
33e
100
AcDbEntity
8
1
100
AcDbCircle
6
CONTINUOUS
62
5
10
203.700000
20
-143.700000
40
26.200000
100
AcDbArc
50
153.806047
51
179.999998
0
LINE
5
33f
100
AcDbEntity
8
1
100
AcDbLine
6
CONTINUOUS
62
5
10
177.500000
20
-143.700000
11
177.500000
21
-236.300000
0
ARC
5
340
100
AcDbEntity
8
1
100
AcDbCircle
6
CONTINUOUS
62
5
10
203.700000
20
-236.300000
40
26.200000
100
AcDbArc
50
-179.999998
51
-153.806047
0
ARC
5
341
100
AcDbEntity
8
1
100
AcDbCircle
6
CONTINUOUS
62
5
10
182.882525
20
-246.540738
40
3.000000
100
AcDbArc
50
-153.806047
51
-94.592458
0
LINE
5
342
100
AcDbEntity
8
1
100
AcDbLine
6
CONTINUOUS
62
5
10
182.642321
20
-249.531106
11
183.500000
21
-249.600000
0
ARC
5
343
100
AcDbEntity
8
1
100
AcDbCircle
6
CONTINUOUS
62
5
10
183.890118
20
-249.511638
40
0.400000
100
AcDbArc
50
-167.237827
51
-91.735704
0
POLYLINE
5
344
100
AcDbEntity
8
1
6
CONTINUOUS
62
5
100
AcDb2dPolyline
66
1
10
0.0
20
0.0
30
0.0
70
0
0
VERTEX
5
345
100
AcDbEntity
8
1
100
AcDbVertex
100
AcDb2dVertex
62
5
10
183.878003
20
-249.911455
0
VERTEX
5
346
100
AcDbEntity
8
1
100
AcDbVertex
100
AcDb2dVertex
62
5
10
187.500000
20
-250.000000
0
VERTEX
5
347
100
AcDbEntity
8
1
100
AcDbVertex
100
AcDb2dVertex
62
5
10
187.500000
20
-130.000000
0
VERTEX
5
348
100
AcDbEntity
8
1
100
AcDbVertex
100
AcDb2dVertex
62
5
10
183.878003
20
-130.088545
0
SEQEND
5
349
100
AcDbEntity
8
1
0
ARC
5
34a
100
AcDbEntity
8
1
100
AcDbCircle
6
CONTINUOUS
62
5
10
183.890118
20
-130.488362
40
0.400000
100
AcDbArc
50
91.735704
51
167.237827
0
LINE
5
34b
100
AcDbEntity
8
1
100
AcDbLine
6
CONTINUOUS
62
5
10
183.500000
20
-130.400000
11
182.642321
21
-130.468894
0
ARC
5
34c
100
AcDbEntity
8
1
100
AcDbCircle
6
CONTINUOUS
62
5
10
182.882525
20
-133.459262
40
3.000000
100
AcDbArc
50
94.592458
51
153.806047
0
LINE
5
34d
100
AcDbEntity
8
1
100
AcDbLine
6
CONTINUOUS
62
5
10
183.500000
20
-249.600000
11
183.500000
21
-130.400000
0
ARC
5
34e
100
AcDbEntity
8
1
100
AcDbCircle
6
CONTINUOUS
62
5
10
108.800000
20
-144.600000
40
0.700000
100
AcDbArc
50
0.000000
51
89.999999
0
LINE
5
34f
100
AcDbEntity
8
1
100
AcDbLine
6
CONTINUOUS
62
5
10
108.800000
20
-143.900000
11
66.200000
21
-143.900000
0
ARC
5
350
100
AcDbEntity
8
1
100
AcDbCircle
6
CONTINUOUS
62
5
10
66.200000
20
-144.600000
40
0.700000
100
AcDbArc
50
89.999999
51
179.999998
0
LINE
5
351
100
AcDbEntity
8
1
100
AcDbLine
6
CONTINUOUS
62
5
10
65.500000
20
-144.600000
11
65.500000
21
-235.400000
0
ARC
5
352
100
AcDbEntity
8
1
100
AcDbCircle
6
CONTINUOUS
62
5
10
66.200000
20
-235.400000
40
0.700000
100
AcDbArc
50
179.999998
51
-89.999999
0
LINE
5
353
100
AcDbEntity
8
1
100
AcDbLine
6
CONTINUOUS
62
5
10
66.200000
20
-236.100000
11
108.800000
21
-236.100000
0
ARC
5
354
100
AcDbEntity
8
1
100
AcDbCircle
6
CONTINUOUS
62
5
10
108.800000
20
-235.400000
40
0.700000
100
AcDbArc
50
-89.999999
51
0.000000
0
LINE
5
355
100
AcDbEntity
8
1
100
AcDbLine
6
CONTINUOUS
62
5
10
109.500000
20
-235.400000
11
109.500000
21
-144.600000
0
ARC
5
356
100
AcDbEntity
8
1
100
AcDbCircle
6
CONTINUOUS
62
5
10
65.800000
20
-144.600000
40
0.900000
100
AcDbArc
50
89.999999
51
179.999998
0
LINE
5
357
100
AcDbEntity
8
1
100
AcDbLine
6
CONTINUOUS
62
5
10
64.900000
20
-144.600000
11
64.900000
21
-235.400000
0
ARC
5
358
100
AcDbEntity
8
1
100
AcDbCircle
6
CONTINUOUS
62
5
10
65.800000
20
-235.400000
40
0.900000
100
AcDbArc
50
179.999998
51
-89.999999
0
LINE
5
359
100
AcDbEntity
8
1
100
AcDbLine
6
CONTINUOUS
62
5
10
65.800000
20
-236.300000
11
109.200000
21
-236.300000
0
ARC
5
35a
100
AcDbEntity
8
1
100
AcDbCircle
6
CONTINUOUS
62
5
10
109.200000
20
-235.400000
40
0.900000
100
AcDbArc
50
-89.999999
51
0.000000
0
LINE
5
35b
100
AcDbEntity
8
1
100
AcDbLine
6
CONTINUOUS
62
5
10
110.100000
20
-235.400000
11
110.100000
21
-144.600000
0
ARC
5
35c
100
AcDbEntity
8
1
100
AcDbCircle
6
CONTINUOUS
62
5
10
109.200000
20
-144.600000
40
0.900000
100
AcDbArc
50
0.000000
51
89.999999
0
LINE
5
35d
100
AcDbEntity
8
1
100
AcDbLine
6
CONTINUOUS
62
5
10
109.200000
20
-143.700000
11
65.800000
21
-143.700000
0
ARC
5
35e
100
AcDbEntity
8
1
100
AcDbCircle
6
CONTINUOUS
62
5
10
59.500000
20
-137.000000
40
6.600000
100
AcDbArc
50
89.999999
51
179.999998
0
LINE
5
35f
100
AcDbEntity
8
1
100
AcDbLine
6
CONTINUOUS
62
5
10
59.500000
20
-130.400000
11
115.500000
21
-130.400000
0
ARC
5
360
100
AcDbEntity
8
1
100
AcDbCircle
6
CONTINUOUS
62
5
10
115.500000
20
-137.000000
40
6.600000
100
AcDbArc
50
0.000000
51
89.999999
0
LINE
5
361
100
AcDbEntity
8
1
100
AcDbLine
6
CONTINUOUS
62
5
10
122.100000
20
-137.000000
11
122.100000
21
-243.000000
0
ARC
5
362
100
AcDbEntity
8
1
100
AcDbCircle
6
CONTINUOUS
62
5
10
115.500000
20
-243.000000
40
6.600000
100
AcDbArc
50
-89.999999
51
0.000000
0
LINE
5
363
100
AcDbEntity
8
1
100
AcDbLine
6
CONTINUOUS
62
5
10
115.500000
20
-249.600000
11
59.500000
21
-249.600000
0
ARC
5
364
100
AcDbEntity
8
1
100
AcDbCircle
6
CONTINUOUS
62
5
10
59.500000
20
-243.000000
40
6.600000
100
AcDbArc
50
179.999998
51
-89.999999
0
LINE
5
365
100
AcDbEntity
8
1
100
AcDbLine
6
CONTINUOUS
62
5
10
52.900000
20
-243.000000
11
52.900000
21
-137.000000
0
ARC
5
366
100
AcDbEntity
8
1
100
AcDbCircle
6
CONTINUOUS
62
5
10
59.500000
20
-137.000000
40
7.000000
100
AcDbArc
50
89.999999
51
179.999998
0
LINE
5
367
100
AcDbEntity
8
1
100
AcDbLine
6
CONTINUOUS
62
5
10
52.500000
20
-137.000000
11
52.500000
21
-243.000000
0
ARC
5
368
100
AcDbEntity
8
1
100
AcDbCircle
6
CONTINUOUS
62
5
10
59.500000
20
-243.000000
40
7.000000
100
AcDbArc
50
179.999998
51
-89.999999
0
POLYLINE
5
369
100
AcDbEntity
8
1
6
CONTINUOUS
62
5
100
AcDb2dPolyline
66
1
10
0.0
20
0.0
30
0.0
70
0
0
VERTEX
5
36a
100
AcDbEntity
8
1
100
AcDbVertex
100
AcDb2dVertex
62
5
10
59.500000
20
-250.000000
0
VERTEX
5
36b
100
AcDbEntity
8
1
100
AcDbVertex
100
AcDb2dVertex
62
5
10
84.000000
20
-250.000000
0
VERTEX
5
36c
100
AcDbEntity
8
1
100
AcDbVertex
100
AcDb2dVertex
62
5
10
84.000000
20
-249.968219
0
VERTEX
5
36d
100
AcDbEntity
8
1
100
AcDbVertex
100
AcDb2dVertex
62
5
10
91.000000
20
-249.968219
0
VERTEX
5
36e
100
AcDbEntity
8
1
100
AcDbVertex
100
AcDb2dVertex
62
5
10
91.000000
20
-250.000000
0
VERTEX
5
36f
100
AcDbEntity
8
1
100
AcDbVertex
100
AcDb2dVertex
62
5
10
115.500000
20
-250.000000
0
SEQEND
5
370
100
AcDbEntity
8
1
0
ARC
5
371
100
AcDbEntity
8
1
100
AcDbCircle
6
CONTINUOUS
62
5
10
115.500000
20
-243.000000
40
7.000000
100
AcDbArc
50
-89.999999
51
0.000000
0
LINE
5
372
100
AcDbEntity
8
1
100
AcDbLine
6
CONTINUOUS
62
5
10
122.500000
20
-243.000000
11
122.500000
21
-137.000000
0
ARC
5
373
100
AcDbEntity
8
1
100
AcDbCircle
6
CONTINUOUS
62
5
10
115.500000
20
-137.000000
40
7.000000
100
AcDbArc
50
0.000000
51
89.999999
0
LINE
5
374
100
AcDbEntity
8
1
100
AcDbLine
6
CONTINUOUS
62
5
10
115.500000
20
-130.000000
11
59.500000
21
-130.000000
0
POLYLINE
5
375
100
AcDbEntity
8
1
6
CONTINUOUS
62
5
100
AcDb2dPolyline
66
1
10
0.0
20
0.0
30
0.0
70
1
0
VERTEX
5
376
100
AcDbEntity
8
1
100
AcDbVertex
100
AcDb2dVertex
62
5
10
-40.000000
20
-340.000000
0
VERTEX
5
377
100
AcDbEntity
8
1
100
AcDbVertex
100
AcDb2dVertex
62
5
10
-40.000000
20
0.000000
0
VERTEX
5
378
100
AcDbEntity
8
1
100
AcDbVertex
100
AcDb2dVertex
62
5
10
280.000000
20
0.000000
0
VERTEX
5
379
100
AcDbEntity
8
1
100
AcDbVertex
100
AcDb2dVertex
62
5
10
280.000000
20
-340.000000
0
VERTEX
5
37a
100
AcDbEntity
8
1
100
AcDbVertex
100
AcDb2dVertex
62
5
10
-40.000000
20
-340.000000
0
SEQEND
5
37b
100
AcDbEntity
8
1
0
ENDSEC
0
SECTION
2
OBJECTS
0
DICTIONARY
5
37c
100
AcDbDictionary
3
ACAD_GROUP
350
37d
3
ACAD_MLINESTYLE
350
37e
0
DICTIONARY
5
37d
102
{ACAD_REACTORS
330
37c
102
}
100
AcDbDictionary
0
DICTIONARY
5
37e
102
{ACAD_REACTORS
330
37c
102
}
100
AcDbDictionary
3
STANDARD
350
37f
0
MLINESTYLE
5
37f
102
{ACAD_REACTORS
330
37e
102
}
100
AcDbMlineStyle
2
STANDARD
70
0
3

62
0
51
90.0
52
90.0
71
2
49
0.5
62
256
6
BYLAYER
49
-0.5
62
256
6
BYLAYER
0
ENDSEC
0
EOF
