0
SECTION
2
HEADER
9
$ACADVER
1
AC1012
9
$EXTMIN
10
-1.580000
20
-13.390000
30
0.0
9
$EXTMAX
10
11.030000
20
0.010000
30
0.0
9
$LIMMIN
10
-40.132000
20
-340.106000
9
$LIMMAX
10
280.162000
20
0.254000
9
$DIMSCALE
40
1.000000
9
$PDMODE
70
2
9
$PDSIZE
40
0.0
  9
$HANDSEED
  5
65f
0
ENDSEC
0
SECTION
2
CLASSES
0
ENDSEC
0
SECTION
2
TABLES
0
TABLE
2
LTYPE
5
1e
100
AcDbSymbolTable
70
12
0
LTYPE
5
1f
100
AcDbSymbolTableRecord
100
AcDbLinetypeTableRecord
2
BYBLOCK
70
0
3

72
65
73
0
40
0.0
0
LTYPE
5
20
100
AcDbSymbolTableRecord
100
AcDbLinetypeTableRecord
2
BYLAYER
70
0
3

72
65
73
0
40
0.0
0
LTYPE
5
21
100
AcDbSymbolTableRecord
100
AcDbLinetypeTableRecord
2
CONTINUOUS
70
64
3
Solid line
72
65
73
0
40
0.0
0
LTYPE
5
22
100
AcDbSymbolTableRecord
100
AcDbLinetypeTableRecord
2
DASHED
70
64
3
__ __ __ __ __ __ __ __ __ __ __ __ __ __ __
72
65
73
2
40
0.75
49
0.5
74
0
49
-0.25
74
0
0
LTYPE
5
23
100
AcDbSymbolTableRecord
100
AcDbLinetypeTableRecord
2
DOT
70
64
3
...............................................
72
65
73
2
40
0.25
49
0.0
74
0
49
-0.25
74
0
0
LTYPE
5
24
100
AcDbSymbolTableRecord
100
AcDbLinetypeTableRecord
2
DASHDOT
70
64
3
__ . __ . __ . __ . __ . __ . __ . __ . __ . --
72
65
73
4
40
1.0
49
0.5
74
0
49
-0.25
74
0
49
0.0
74
0
49
-0.25
74
0
0
LTYPE
5
25
100
AcDbSymbolTableRecord
100
AcDbLinetypeTableRecord
2
CENTER
70
64
3
____ _ ____ _ ____ _ ____ _ ____ _ ____ _ ____
72
65
73
4
40
2.0
49
1.25
74
0
49
-0.25
74
0
49
0.25
74
0
49
-0.25
74
0
0
LTYPE
5
26
100
AcDbSymbolTableRecord
100
AcDbLinetypeTableRecord
2
PHANTOM
70
64
3
_____ _ _ _____ _ _ _____ _ _ _____ _ _ ____
72
65
73
6
40
2.5
49
1.25
74
0
49
-0.25
74
0
49
0.25
74
0
49
-0.25
74
0
49
0.25
74
0
49
-0.25
74
0
0
LTYPE
5
27
100
AcDbSymbolTableRecord
100
AcDbLinetypeTableRecord
2
HIDDEN
70
64
3
_ _ _ _ _ _ _ _ _ _ _ _ _ _ _ _ _ _ _ _ _ _ _
72
65
73
2
40
0.375
49
0.25
74
0
49
-0.125
74
0
0
LTYPE
5
28
100
AcDbSymbolTableRecord
100
AcDbLinetypeTableRecord
2
BORDER
70
64
3
__ __ . __ __ . __ __ . __ __ . __ __ . __ __
72
65
73
6
40
1.75
49
0.5
74
0
49
-0.25
74
0
49
0.5
74
0
49
-0.25
74
0
49
0.0
74
0
49
-0.25
74
0
0
LTYPE
5
29
100
AcDbSymbolTableRecord
100
AcDbLinetypeTableRecord
2
DIVIDE
70
64
3
__ . . __ . . __ . . __ . . __ . . __ . . __
72
65
73
6
40
1.25
49
0.5
74
0
49
-0.25
74
0
49
0.0
74
0
49
-0.25
74
0
49
0.0
74
0
49
-0.25
74
0
0
LTYPE
5
2a
100
AcDbSymbolTableRecord
100
AcDbLinetypeTableRecord
2
DOT2
70
64
3
...............................................
72
65
73
2
40
0.125
49
0.0
74
0
49
-0.125
74
0
0
ENDTAB
0
TABLE
2
STYLE
5
2b
100
AcDbSymbolTable
70
1
0
STYLE
5
2c
100
AcDbSymbolTableRecord
100
AcDbTextStyleTableRecord
2
STANDARD
70
64
40
0.0
41
1.0
50
0.0
71
0
42
5.0
3
txt
4
bigfont
0
ENDTAB
0
TABLE
2
LAYER
5
2d
100
AcDbSymbolTable
70
2
0
LAYER
5
2e
100
AcDbSymbolTableRecord
100
AcDbLayerTableRecord
2
0
70
0
62
7
6
CONTINUOUS
0
LAYER
5
2f
100
AcDbSymbolTableRecord
100
AcDbLayerTableRecord
2
1
70
0
62
7
6
CONTINUOUS
0
ENDTAB
0
TABLE
2
APPID
5
30
100
AcDbSymbolTable
70
1
0
APPID
5
31
100
AcDbSymbolTableRecord
100
AcDbRegAppTableRecord
2
ACAD
70
64
0
ENDTAB
0
TABLE
2
DIMSTYLE
5
32
100
AcDbSymbolTable
70
0
0
ENDTAB
0
TABLE
2
UCS
5
33
100
AcDbSymbolTable
70
0
0
ENDTAB
0
TABLE
2
VIEW
5
34
100
AcDbSymbolTable
70
0
0
ENDTAB
0
TABLE
2
VPORT
5
35
100
AcDbSymbolTable
70
0
0
ENDTAB
0
TABLE
2
BLOCK_RECORD
5
36
100
AcDbSymbolTable
70
0
0
BLOCK_RECORD
5
37
100
AcDbSymbolTableRecord
100
AcDbBlockTableRecord
2
*MODEL_SPACE
0
BLOCK_RECORD
5
38
100
AcDbSymbolTableRecord
100
AcDbBlockTableRecord
2
*PAPER_SPACE
0
BLOCK_RECORD
5
39
100
AcDbSymbolTableRecord
100
AcDbBlockTableRecord
2
OPEN
0
BLOCK_RECORD
5
3a
100
AcDbSymbolTableRecord
100
AcDbBlockTableRecord
2
HALF
0
BLOCK_RECORD
5
3b
100
AcDbSymbolTableRecord
100
AcDbBlockTableRecord
2
CLOSEDBLANK
0
BLOCK_RECORD
5
3c
100
AcDbSymbolTableRecord
100
AcDbBlockTableRecord
2
HALFCLOSE_R
0
BLOCK_RECORD
5
3d
100
AcDbSymbolTableRecord
100
AcDbBlockTableRecord
2
DOT
0
BLOCK_RECORD
5
3e
100
AcDbSymbolTableRecord
100
AcDbBlockTableRecord
2
HALFOPEN_R
0
BLOCK_RECORD
5
3f
100
AcDbSymbolTableRecord
100
AcDbBlockTableRecord
2
CLOSEDF
0
BLOCK_RECORD
5
40
100
AcDbSymbolTableRecord
100
AcDbBlockTableRecord
2
HALF_R
0
ENDTAB
0
ENDSEC
0
SECTION
2
BLOCKS
0
BLOCK
5
41
100
AcDbEntity
8
0
100
AcDbBlockBegin
2
*MODEL_SPACE
70
0
10
0.0
20
0.0
30
0.0
3
*MODEL_SPACE
1

0
ENDBLK
5
42
100
AcDbEntity
8
0
100
AcDbBlockEnd
0
BLOCK
5
43
100
AcDbEntity
67
1
8
0
100
AcDbBlockBegin
2
*PAPER_SPACE
70
0
10
0.0
20
0.0
30
0.0
3
*PAPER_SPACE
1

0
ENDBLK
5
44
100
AcDbEntity
67
1
8
0
100
AcDbBlockEnd
0
BLOCK
5
45
100
AcDbEntity
8
0
100
AcDbBlockBegin
2
OPEN
70
0
10
0.0
20
0.0
30
0.0
3
OPEN
1

0
LINE
5
46
100
AcDbEntity
8
0
6
BYBLOCK
62
0
100
AcDbLine
10
0.000000
20
0.000000
11
-1.000000
21
0.000000
0
LINE
5
47
100
AcDbEntity
8
0
6
BYBLOCK
62
0
100
AcDbLine
10
-1.000000
20
-0.166667
11
0.000000
21
0.000000
0
LINE
5
48
100
AcDbEntity
8
0
6
BYBLOCK
62
0
100
AcDbLine
10
-1.000000
20
0.166667
11
0.000000
21
0.000000
0
ENDBLK
5
49
100
AcDbEntity
8
0
100
AcDbBlockEnd
0
BLOCK
5
4a
100
AcDbEntity
8
0
100
AcDbBlockBegin
2
HALF
70
0
10
0.0
20
0.0
30
0.0
3
HALF
1

0
SOLID
5
4b
100
AcDbEntity
8
0
6
BYBLOCK
62
0
100
AcDbTrace
10
-1.000000
20
0.166667
11
-1.000000
21
-0.166667
12
0.000000
22
0.000000
13
0.000000
23
0.000000
0
ENDBLK
5
4c
100
AcDbEntity
8
0
100
AcDbBlockEnd
0
BLOCK
5
4d
100
AcDbEntity
8
0
100
AcDbBlockBegin
2
CLOSEDBLANK
70
0
10
0.0
20
0.0
30
0.0
3
CLOSEDBLANK
1

0
LINE
5
4e
100
AcDbEntity
8
0
6
BYBLOCK
62
0
100
AcDbLine
10
-1.000000
20
0.166667
11
-1.000000
21
-0.166667
0
LINE
5
4f
100
AcDbEntity
8
0
6
BYBLOCK
62
0
100
AcDbLine
10
0.000000
20
0.000000
11
-1.000000
21
-0.166667
0
LINE
5
50
100
AcDbEntity
8
0
6
BYBLOCK
62
0
100
AcDbLine
10
-1.000000
20
0.166667
11
0.000000
21
0.000000
0
ENDBLK
5
51
100
AcDbEntity
8
0
100
AcDbBlockEnd
0
BLOCK
5
52
100
AcDbEntity
8
0
100
AcDbBlockBegin
2
HALFCLOSE_R
70
0
10
0.0
20
0.0
30
0.0
3
HALFCLOSE_R
1

0
LINE
5
53
100
AcDbEntity
8
0
6
BYBLOCK
62
0
100
AcDbLine
10
-1.000000
20
-0.166667
11
-1.000000
21
0.000000
0
LINE
5
54
100
AcDbEntity
8
0
6
BYBLOCK
62
0
100
AcDbLine
10
-1.000000
20
-0.166667
11
0.000000
21
0.000000
0
LINE
5
55
100
AcDbEntity
8
0
6
BYBLOCK
62
0
100
AcDbLine
10
0.000000
20
0.000000
11
-1.000000
21
0.000000
0
ENDBLK
5
56
100
AcDbEntity
8
0
100
AcDbBlockEnd
0
BLOCK
5
57
100
AcDbEntity
8
0
100
AcDbBlockBegin
2
DOT
70
0
10
0.0
20
0.0
30
0.0
3
DOT
1

0
LINE
5
58
100
AcDbEntity
8
0
6
BYBLOCK
62
0
100
AcDbLine
10
0.000000
20
0.000000
11
-1.000000
21
0.000000
0
POLYLINE
5
59
100
AcDbEntity
8
0
6
BYBLOCK
62
0
100
AcDb2dPolyline
66
1
10
0.0
20
0.0
30
0.0
70
1
40
0.166667
41
0.166667
0
VERTEX
5
5a
100
AcDbEntity
8
0
100
AcDbVertex
100
AcDb2dVertex
62
10
10
-0.083333
20
0.000000
42
1.000000
0
VERTEX
5
5b
100
AcDbEntity
8
0
100
AcDbVertex
100
AcDb2dVertex
62
10
10
0.083333
20
0.000000
42
1.000000
0
SEQEND
5
5c
100
AcDbEntity
8
0
0
ENDBLK
5
5d
100
AcDbEntity
8
0
100
AcDbBlockEnd
0
BLOCK
5
5e
100
AcDbEntity
8
0
100
AcDbBlockBegin
2
HALFOPEN_R
70
0
10
0.0
20
0.0
30
0.0
3
HALFOPEN_R
1

0
LINE
5
5f
100
AcDbEntity
8
0
6
BYBLOCK
62
0
100
AcDbLine
10
-1.000000
20
-0.166667
11
0.000000
21
0.000000
0
LINE
5
60
100
AcDbEntity
8
0
6
BYBLOCK
62
0
100
AcDbLine
10
0.000000
20
0.000000
11
-1.000000
21
0.000000
0
ENDBLK
5
61
100
AcDbEntity
8
0
100
AcDbBlockEnd
0
BLOCK
5
62
100
AcDbEntity
8
0
100
AcDbBlockBegin
2
CLOSEDF
70
0
10
0.0
20
0.0
30
0.0
3
CLOSEDF
1

0
SOLID
5
63
100
AcDbEntity
8
0
6
BYBLOCK
62
0
100
AcDbTrace
10
-1.000000
20
0.166667
11
-1.000000
21
-0.166667
12
0.000000
22
0.000000
13
0.000000
23
0.000000
0
ENDBLK
5
64
100
AcDbEntity
8
0
100
AcDbBlockEnd
0
BLOCK
5
65
100
AcDbEntity
8
0
100
AcDbBlockBegin
2
HALF_R
70
0
10
0.0
20
0.0
30
0.0
3
HALF_R
1

0
SOLID
5
66
100
AcDbEntity
8
0
6
BYBLOCK
62
0
100
AcDbTrace
10
-1.000000
20
-0.166667
11
-1.000000
21
0.000000
12
0.000000
22
0.000000
13
0.000000
23
0.000000
0
ENDBLK
5
67
100
AcDbEntity
8
0
100
AcDbBlockEnd
0
ENDSEC
0
SECTION
2
ENTITIES
0
LINE
5
68
100
AcDbEntity
8
1
100
AcDbLine
6
DOT2
62
5
10
227.675000
20
-107.125000
11
227.050000
21
-107.750000
0
POLYLINE
5
69
100
AcDbEntity
8
1
6
DOT2
62
5
100
AcDb2dPolyline
66
1
10
0.0
20
0.0
30
0.0
70
0
0
VERTEX
5
6a
100
AcDbEntity
8
1
100
AcDbVertex
100
AcDb2dVertex
62
5
10
227.050000
20
-107.125000
0
VERTEX
5
6b
100
AcDbEntity
8
1
100
AcDbVertex
100
AcDb2dVertex
62
5
10
227.675000
20
-107.750000
0
VERTEX
5
6c
100
AcDbEntity
8
1
100
AcDbVertex
100
AcDb2dVertex
62
5
10
227.050000
20
-107.750000
0
VERTEX
5
6d
100
AcDbEntity
8
1
100
AcDbVertex
100
AcDb2dVertex
62
5
10
227.050000
20
-107.125000
0
VERTEX
5
6e
100
AcDbEntity
8
1
100
AcDbVertex
100
AcDb2dVertex
62
5
10
227.675000
20
-107.125000
0
VERTEX
5
6f
100
AcDbEntity
8
1
100
AcDbVertex
100
AcDb2dVertex
62
5
10
227.675000
20
-107.750000
0
SEQEND
5
70
100
AcDbEntity
8
1
0
LINE
5
71
100
AcDbEntity
8
1
100
AcDbLine
6
DOT2
62
5
10
222.050000
20
-100.250000
11
224.862500
21
-100.250000
0
POLYLINE
5
72
100
AcDbEntity
8
1
6
DOT2
62
5
100
AcDb2dPolyline
66
1
10
0.0
20
0.0
30
0.0
70
0
0
VERTEX
5
73
100
AcDbEntity
8
1
100
AcDbVertex
100
AcDb2dVertex
62
5
10
222.050000
20
-100.250000
0
VERTEX
5
74
100
AcDbEntity
8
1
100
AcDbVertex
100
AcDb2dVertex
62
5
10
222.050000
20
-104.000000
0
VERTEX
5
75
100
AcDbEntity
8
1
100
AcDbVertex
100
AcDb2dVertex
62
5
10
222.675000
20
-103.375000
0
VERTEX
5
76
100
AcDbEntity
8
1
100
AcDbVertex
100
AcDb2dVertex
62
5
10
223.300000
20
-103.062500
0
VERTEX
5
77
100
AcDbEntity
8
1
100
AcDbVertex
100
AcDb2dVertex
62
5
10
224.237500
20
-103.062500
0
VERTEX
5
78
100
AcDbEntity
8
1
100
AcDbVertex
100
AcDb2dVertex
62
5
10
224.862500
20
-103.375000
0
VERTEX
5
79
100
AcDbEntity
8
1
100
AcDbVertex
100
AcDb2dVertex
62
5
10
225.175000
20
-104.312500
0
VERTEX
5
7a
100
AcDbEntity
8
1
100
AcDbVertex
100
AcDb2dVertex
62
5
10
225.175000
20
-106.187500
0
VERTEX
5
7b
100
AcDbEntity
8
1
100
AcDbVertex
100
AcDb2dVertex
62
5
10
224.550000
20
-107.125000
0
VERTEX
5
7c
100
AcDbEntity
8
1
100
AcDbVertex
100
AcDb2dVertex
62
5
10
223.612500
20
-107.750000
0
VERTEX
5
7d
100
AcDbEntity
8
1
100
AcDbVertex
100
AcDb2dVertex
62
5
10
222.050000
20
-107.750000
0
SEQEND
5
7e
100
AcDbEntity
8
1
0
POLYLINE
5
7f
100
AcDbEntity
8
1
6
DOT2
62
5
100
AcDb2dPolyline
66
1
10
0.0
20
0.0
30
0.0
70
1
0
VERTEX
5
80
100
AcDbEntity
8
1
100
AcDbVertex
100
AcDb2dVertex
62
5
10
233.300000
20
-100.250000
0
VERTEX
5
81
100
AcDbEntity
8
1
100
AcDbVertex
100
AcDb2dVertex
62
5
10
233.925000
20
-100.250000
0
VERTEX
5
82
100
AcDbEntity
8
1
100
AcDbVertex
100
AcDb2dVertex
62
5
10
234.550000
20
-100.562500
0
VERTEX
5
83
100
AcDbEntity
8
1
100
AcDbVertex
100
AcDb2dVertex
62
5
10
234.862500
20
-101.187500
0
VERTEX
5
84
100
AcDbEntity
8
1
100
AcDbVertex
100
AcDb2dVertex
62
5
10
234.862500
20
-102.437500
0
VERTEX
5
85
100
AcDbEntity
8
1
100
AcDbVertex
100
AcDb2dVertex
62
5
10
234.550000
20
-103.062500
0
VERTEX
5
86
100
AcDbEntity
8
1
100
AcDbVertex
100
AcDb2dVertex
62
5
10
232.675000
20
-104.312500
0
VERTEX
5
87
100
AcDbEntity
8
1
100
AcDbVertex
100
AcDb2dVertex
62
5
10
232.050000
20
-105.250000
0
VERTEX
5
88
100
AcDbEntity
8
1
100
AcDbVertex
100
AcDb2dVertex
62
5
10
232.050000
20
-106.500000
0
VERTEX
5
89
100
AcDbEntity
8
1
100
AcDbVertex
100
AcDb2dVertex
62
5
10
232.362500
20
-107.125000
0
VERTEX
5
8a
100
AcDbEntity
8
1
100
AcDbVertex
100
AcDb2dVertex
62
5
10
232.675000
20
-107.437500
0
VERTEX
5
8b
100
AcDbEntity
8
1
100
AcDbVertex
100
AcDb2dVertex
62
5
10
233.300000
20
-107.750000
0
VERTEX
5
8c
100
AcDbEntity
8
1
100
AcDbVertex
100
AcDb2dVertex
62
5
10
233.925000
20
-107.750000
0
VERTEX
5
8d
100
AcDbEntity
8
1
100
AcDbVertex
100
AcDb2dVertex
62
5
10
234.550000
20
-107.437500
0
VERTEX
5
8e
100
AcDbEntity
8
1
100
AcDbVertex
100
AcDb2dVertex
62
5
10
234.862500
20
-107.125000
0
VERTEX
5
8f
100
AcDbEntity
8
1
100
AcDbVertex
100
AcDb2dVertex
62
5
10
235.175000
20
-106.500000
0
VERTEX
5
90
100
AcDbEntity
8
1
100
AcDbVertex
100
AcDb2dVertex
62
5
10
235.175000
20
-105.250000
0
VERTEX
5
91
100
AcDbEntity
8
1
100
AcDbVertex
100
AcDb2dVertex
62
5
10
234.550000
20
-104.312500
0
VERTEX
5
92
100
AcDbEntity
8
1
100
AcDbVertex
100
AcDb2dVertex
62
5
10
232.675000
20
-103.062500
0
VERTEX
5
93
100
AcDbEntity
8
1
100
AcDbVertex
100
AcDb2dVertex
62
5
10
232.362500
20
-102.437500
0
VERTEX
5
94
100
AcDbEntity
8
1
100
AcDbVertex
100
AcDb2dVertex
62
5
10
232.362500
20
-101.187500
0
VERTEX
5
95
100
AcDbEntity
8
1
100
AcDbVertex
100
AcDb2dVertex
62
5
10
232.675000
20
-100.562500
0
VERTEX
5
96
100
AcDbEntity
8
1
100
AcDbVertex
100
AcDb2dVertex
62
5
10
233.300000
20
-100.250000
0
SEQEND
5
97
100
AcDbEntity
8
1
0
ARC
5
98
100
AcDbEntity
8
1
100
AcDbCircle
6
CONTINUOUS
62
5
10
246.300000
20
-143.000000
40
0.500000
100
AcDbArc
50
89.999999
51
179.999998
0
LINE
5
99
100
AcDbEntity
8
1
100
AcDbLine
6
CONTINUOUS
62
5
10
246.300000
20
-142.500000
11
251.600000
21
-142.500000
0
ARC
5
9a
100
AcDbEntity
8
1
100
AcDbCircle
6
CONTINUOUS
62
5
10
245.900000
20
-140.300000
40
0.500000
100
AcDbArc
50
179.999998
51
-101.536957
0
ARC
5
9b
100
AcDbEntity
8
1
100
AcDbCircle
6
CONTINUOUS
62
5
10
245.900000
20
-138.700000
40
0.500000
100
AcDbArc
50
101.536957
51
-179.999998
0
LINE
5
9c
100
AcDbEntity
8
1
100
AcDbLine
6
CONTINUOUS
62
5
10
245.400000
20
-138.700000
11
245.400000
21
-140.300000
0
LINE
5
9d
100
AcDbEntity
8
1
100
AcDbLine
6
CONTINUOUS
62
5
10
251.600000
20
-138.555916
11
251.600000
21
-107.000000
0
LINE
5
9e
100
AcDbEntity
8
1
100
AcDbLine
6
CONTINUOUS
62
5
10
245.800000
20
-144.696292
11
245.800000
21
-107.000000
0
POLYLINE
5
9f
100
AcDbEntity
8
1
6
CONTINUOUS
62
5
100
AcDb2dPolyline
66
1
10
0.0
20
0.0
30
0.0
70
0
0
VERTEX
5
a0
100
AcDbEntity
8
1
100
AcDbVertex
100
AcDb2dVertex
62
5
10
219.550000
20
-109.000000
0
VERTEX
5
a1
100
AcDbEntity
8
1
100
AcDbVertex
100
AcDb2dVertex
62
5
10
245.800000
20
-109.000000
0
VERTEX
5
a2
100
AcDbEntity
8
1
100
AcDbVertex
100
AcDb2dVertex
62
5
10
239.800000
20
-110.000000
0
VERTEX
5
a3
100
AcDbEntity
8
1
100
AcDbVertex
100
AcDb2dVertex
62
5
10
239.800000
20
-108.000000
0
VERTEX
5
a4
100
AcDbEntity
8
1
100
AcDbVertex
100
AcDb2dVertex
62
5
10
245.800000
20
-109.000000
0
VERTEX
5
a5
100
AcDbEntity
8
1
100
AcDbVertex
100
AcDb2dVertex
62
5
10
239.800000
20
-109.500000
0
VERTEX
5
a6
100
AcDbEntity
8
1
100
AcDbVertex
100
AcDb2dVertex
62
5
10
239.800000
20
-108.500000
0
VERTEX
5
a7
100
AcDbEntity
8
1
100
AcDbVertex
100
AcDb2dVertex
62
5
10
245.800000
20
-109.000000
0
SEQEND
5
a8
100
AcDbEntity
8
1
0
LINE
5
a9
100
AcDbEntity
8
1
100
AcDbLine
6
CONTINUOUS
62
5
10
245.800000
20
-109.000000
11
251.600000
21
-109.000000
0
POLYLINE
5
aa
100
AcDbEntity
8
1
6
CONTINUOUS
62
5
100
AcDb2dPolyline
66
1
10
0.0
20
0.0
30
0.0
70
0
0
VERTEX
5
ab
100
AcDbEntity
8
1
100
AcDbVertex
100
AcDb2dVertex
62
5
10
260.600000
20
-109.000000
0
VERTEX
5
ac
100
AcDbEntity
8
1
100
AcDbVertex
100
AcDb2dVertex
62
5
10
251.600000
20
-109.000000
0
VERTEX
5
ad
100
AcDbEntity
8
1
100
AcDbVertex
100
AcDb2dVertex
62
5
10
257.600000
20
-108.000000
0
VERTEX
5
ae
100
AcDbEntity
8
1
100
AcDbVertex
100
AcDb2dVertex
62
5
10
257.600000
20
-110.000000
0
VERTEX
5
af
100
AcDbEntity
8
1
100
AcDbVertex
100
AcDb2dVertex
62
5
10
251.600000
20
-109.000000
0
VERTEX
5
b0
100
AcDbEntity
8
1
100
AcDbVertex
100
AcDb2dVertex
62
5
10
257.600000
20
-108.500000
0
VERTEX
5
b1
100
AcDbEntity
8
1
100
AcDbVertex
100
AcDb2dVertex
62
5
10
257.600000
20
-109.500000
0
VERTEX
5
b2
100
AcDbEntity
8
1
100
AcDbVertex
100
AcDb2dVertex
62
5
10
251.600000
20
-109.000000
0
SEQEND
5
b3
100
AcDbEntity
8
1
0
ARC
5
b4
100
AcDbEntity
8
1
100
AcDbCircle
6
CONTINUOUS
62
5
10
184.400002
20
-142.000000
40
0.500000
100
AcDbArc
50
-90.000212
51
-0.000000
0
LINE
5
b5
100
AcDbEntity
8
1
100
AcDbLine
6
CONTINUOUS
62
5
10
184.900002
20
-142.000000
11
184.900002
21
-135.560406
0
ARC
5
b6
100
AcDbEntity
8
1
100
AcDbCircle
6
CONTINUOUS
62
5
10
185.900002
20
-135.560406
40
1.000000
100
AcDbArc
50
62.612868
51
179.999998
0
ARC
5
b7
100
AcDbEntity
8
1
100
AcDbCircle
6
CONTINUOUS
62
5
10
183.600000
20
-140.000000
40
6.000000
100
AcDbArc
50
48.431357
51
62.612868
0
LINE
5
b8
100
AcDbEntity
8
1
100
AcDbLine
6
CONTINUOUS
62
5
10
182.400001
20
-142.500000
11
184.400000
21
-142.500000
0
ARC
5
b9
100
AcDbEntity
8
1
100
AcDbCircle
6
CONTINUOUS
62
5
10
181.800000
20
-137.000000
40
0.500000
100
AcDbArc
50
89.999999
51
179.999998
0
LINE
5
ba
100
AcDbEntity
8
1
100
AcDbLine
6
CONTINUOUS
62
5
10
181.800000
20
-136.500000
11
183.900002
21
-136.500000
0
ARC
5
bb
100
AcDbEntity
8
1
100
AcDbCircle
6
CONTINUOUS
62
5
10
183.900002
20
-137.500000
40
1.000000
100
AcDbArc
50
0.000000
51
89.999999
0
LINE
5
bc
100
AcDbEntity
8
1
100
AcDbLine
6
CONTINUOUS
62
5
10
184.900002
20
-137.500000
11
184.900002
21
-137.500000
0
LINE
5
bd
100
AcDbEntity
8
1
100
AcDbLine
6
CONTINUOUS
62
5
10
181.300000
20
-137.100000
11
181.300000
21
-137.000000
0
ARC
5
be
100
AcDbEntity
8
1
100
AcDbCircle
6
CONTINUOUS
62
5
10
166.100000
20
-147.200000
40
1.000000
100
AcDbArc
50
179.999998
51
-89.999999
0
LINE
5
bf
100
AcDbEntity
8
1
100
AcDbLine
6
CONTINUOUS
62
5
10
166.100000
20
-148.200000
11
173.600000
21
-148.200000
0
LINE
5
c0
100
AcDbEntity
8
1
100
AcDbLine
6
CONTINUOUS
62
5
10
165.100000
20
-145.700000
11
165.100000
21
-147.200000
0
LINE
5
c1
100
AcDbEntity
8
1
100
AcDbLine
6
CONTINUOUS
62
5
10
187.500000
20
-154.500000
11
187.500000
21
-162.500000
0
LINE
5
c2
100
AcDbEntity
8
1
100
AcDbLine
6
CONTINUOUS
62
5
10
187.500000
20
-162.500000
11
187.500000
21
-154.500000
0
POLYLINE
5
c3
100
AcDbEntity
8
1
6
CONTINUOUS
62
5
100
AcDb2dPolyline
66
1
10
0.0
20
0.0
30
0.0
70
0
0
VERTEX
5
c4
100
AcDbEntity
8
1
100
AcDbVertex
100
AcDb2dVertex
62
5
10
188.400000
20
-154.500000
0
VERTEX
5
c5
100
AcDbEntity
8
1
100
AcDbVertex
100
AcDb2dVertex
62
5
10
185.600000
20
-154.500000
0
VERTEX
5
c6
100
AcDbEntity
8
1
100
AcDbVertex
100
AcDb2dVertex
62
5
10
185.600000
20
-162.500000
0
VERTEX
5
c7
100
AcDbEntity
8
1
100
AcDbVertex
100
AcDb2dVertex
62
5
10
188.400000
20
-162.500000
0
SEQEND
5
c8
100
AcDbEntity
8
1
0
LINE
5
c9
100
AcDbEntity
8
1
100
AcDbLine
6
CONTINUOUS
62
5
10
188.300000
20
-162.500000
11
188.300000
21
-154.500000
0
LINE
5
ca
100
AcDbEntity
8
1
100
AcDbLine
6
CONTINUOUS
62
5
10
188.400000
20
-154.500000
11
188.400000
21
-162.500000
0
LINE
5
cb
100
AcDbEntity
8
1
100
AcDbLine
6
CONTINUOUS
62
5
10
182.600000
20
-152.000000
11
182.600000
21
-151.600000
0
LINE
5
cc
100
AcDbEntity
8
1
100
AcDbLine
6
CONTINUOUS
62
5
10
180.600000
20
-152.000000
11
180.600000
21
-151.600000
0
LINE
5
cd
100
AcDbEntity
8
1
100
AcDbLine
6
CONTINUOUS
62
5
10
180.600000
20
-151.600000
11
182.600000
21
-151.600000
0
ARC
5
ce
100
AcDbEntity
8
1
100
AcDbCircle
6
CONTINUOUS
62
5
10
180.000000
20
-151.200000
40
0.900000
100
AcDbArc
50
89.999999
51
179.999998
0
LINE
5
cf
100
AcDbEntity
8
1
100
AcDbLine
6
CONTINUOUS
62
5
10
179.100000
20
-151.200000
11
179.100000
21
-152.000000
0
LINE
5
d0
100
AcDbEntity
8
1
100
AcDbLine
6
CONTINUOUS
62
5
10
184.100000
20
-150.300000
11
180.000000
21
-150.300000
0
ARC
5
d1
100
AcDbEntity
8
1
100
AcDbCircle
6
CONTINUOUS
62
5
10
181.900001
20
-137.642154
40
0.500000
100
AcDbArc
50
0.000000
51
89.999999
0
POLYLINE
5
d2
100
AcDbEntity
8
1
6
CONTINUOUS
62
5
100
AcDb2dPolyline
66
1
10
0.0
20
0.0
30
0.0
70
0
0
VERTEX
5
d3
100
AcDbEntity
8
1
100
AcDbVertex
100
AcDb2dVertex
62
5
10
182.400001
20
-137.642154
0
VERTEX
5
d4
100
AcDbEntity
8
1
100
AcDbVertex
100
AcDb2dVertex
62
5
10
182.400001
20
-142.645455
0
VERTEX
5
d5
100
AcDbEntity
8
1
100
AcDbVertex
100
AcDb2dVertex
62
5
10
181.700001
20
-142.900000
0
SEQEND
5
d6
100
AcDbEntity
8
1
0
LINE
5
d7
100
AcDbEntity
8
1
100
AcDbLine
6
CONTINUOUS
62
5
10
184.100000
20
-153.500000
11
184.100000
21
-146.715504
0
ARC
5
d8
100
AcDbEntity
8
1
100
AcDbCircle
6
CONTINUOUS
62
5
10
183.100000
20
-146.715504
40
1.000000
100
AcDbArc
50
0.000000
51
71.175304
0
LINE
5
d9
100
AcDbEntity
8
1
100
AcDbLine
6
CONTINUOUS
62
5
10
183.422674
20
-145.768993
11
181.054649
21
-144.961713
0
ARC
5
da
100
AcDbEntity
8
1
100
AcDbCircle
6
CONTINUOUS
62
5
10
181.699996
20
-143.068692
40
2.000000
100
AcDbArc
50
179.999998
51
-108.824694
0
LINE
5
db
100
AcDbEntity
8
1
100
AcDbLine
6
CONTINUOUS
62
5
10
179.699996
20
-143.068692
11
179.699996
21
-138.100000
0
ARC
5
dc
100
AcDbEntity
8
1
100
AcDbCircle
6
CONTINUOUS
62
5
10
180.699996
20
-138.100000
40
1.000000
100
AcDbArc
50
89.999999
51
179.999998
0
POLYLINE
5
dd
100
AcDbEntity
8
1
6
CONTINUOUS
62
5
100
AcDb2dPolyline
66
1
10
0.0
20
0.0
30
0.0
70
0
0
VERTEX
5
de
100
AcDbEntity
8
1
100
AcDbVertex
100
AcDb2dVertex
62
5
10
180.699996
20
-137.100000
0
VERTEX
5
df
100
AcDbEntity
8
1
100
AcDbVertex
100
AcDb2dVertex
62
5
10
181.300000
20
-137.100000
0
VERTEX
5
e0
100
AcDbEntity
8
1
100
AcDbVertex
100
AcDb2dVertex
62
5
10
181.300000
20
-137.142154
0
VERTEX
5
e1
100
AcDbEntity
8
1
100
AcDbVertex
100
AcDb2dVertex
62
5
10
181.900001
20
-137.142154
0
SEQEND
5
e2
100
AcDbEntity
8
1
0
ARC
5
e3
100
AcDbEntity
8
1
100
AcDbCircle
6
CONTINUOUS
62
5
10
151.100000
20
-147.200000
40
1.000000
100
AcDbArc
50
-89.999999
51
-0.000000
0
LINE
5
e4
100
AcDbEntity
8
1
100
AcDbLine
6
CONTINUOUS
62
5
10
152.100000
20
-147.200000
11
152.100000
21
-145.700000
0
LINE
5
e5
100
AcDbEntity
8
1
100
AcDbLine
6
CONTINUOUS
62
5
10
143.600000
20
-148.200000
11
151.100000
21
-148.200000
0
LINE
5
e6
100
AcDbEntity
8
1
100
AcDbLine
6
CONTINUOUS
62
5
10
134.350000
20
-141.700000
11
136.850000
21
-141.700000
0
LINE
5
e7
100
AcDbEntity
8
1
100
AcDbLine
6
CONTINUOUS
62
5
10
137.750000
20
-139.800000
11
133.450000
21
-139.800000
0
LINE
5
e8
100
AcDbEntity
8
1
100
AcDbLine
6
CONTINUOUS
62
5
10
137.750000
20
-140.800000
11
133.450000
21
-140.800000
0
LINE
5
e9
100
AcDbEntity
8
1
100
AcDbLine
6
CONTINUOUS
62
5
10
133.423077
20
-139.100000
11
137.776923
21
-139.100000
0
ARC
5
ea
100
AcDbEntity
8
1
100
AcDbCircle
6
CONTINUOUS
62
5
10
138.350000
20
-140.800000
40
0.500000
100
AcDbArc
50
-89.999999
51
0.000000
0
LINE
5
eb
100
AcDbEntity
8
1
100
AcDbLine
6
CONTINUOUS
62
5
10
138.850000
20
-140.800000
11
138.850000
21
-137.499999
0
ARC
5
ec
100
AcDbEntity
8
1
100
AcDbCircle
6
CONTINUOUS
62
5
10
138.350000
20
-137.499999
40
0.500000
100
AcDbArc
50
0.000000
51
89.999999
0
LINE
5
ed
100
AcDbEntity
8
1
100
AcDbLine
6
CONTINUOUS
62
5
10
138.350000
20
-136.999999
11
132.850000
21
-136.999999
0
ARC
5
ee
100
AcDbEntity
8
1
100
AcDbCircle
6
CONTINUOUS
62
5
10
132.850000
20
-137.499999
40
0.500000
100
AcDbArc
50
89.999999
51
179.999998
0
LINE
5
ef
100
AcDbEntity
8
1
100
AcDbLine
6
CONTINUOUS
62
5
10
132.350000
20
-137.499999
11
132.350000
21
-140.800000
0
ARC
5
f0
100
AcDbEntity
8
1
100
AcDbCircle
6
CONTINUOUS
62
5
10
132.850000
20
-140.800000
40
0.500000
100
AcDbArc
50
179.999998
51
-89.999999
0
LINE
5
f1
100
AcDbEntity
8
1
100
AcDbLine
6
CONTINUOUS
62
5
10
132.850000
20
-141.300000
11
133.350000
21
-141.300000
0
LINE
5
f2
100
AcDbEntity
8
1
100
AcDbLine
6
CONTINUOUS
62
5
10
134.350000
20
-141.300000
11
136.850000
21
-141.300000
0
LINE
5
f3
100
AcDbEntity
8
1
100
AcDbLine
6
CONTINUOUS
62
5
10
137.850000
20
-141.300000
11
138.350000
21
-141.300000
0
ARC
5
f4
100
AcDbEntity
8
1
100
AcDbCircle
6
CONTINUOUS
62
5
10
138.350000
20
-140.800000
40
1.000000
100
AcDbArc
50
-89.999999
51
0.000000
0
LINE
5
f5
100
AcDbEntity
8
1
100
AcDbLine
6
CONTINUOUS
62
5
10
139.350000
20
-140.800000
11
139.350000
21
-137.499999
0
ARC
5
f6
100
AcDbEntity
8
1
100
AcDbCircle
6
CONTINUOUS
62
5
10
138.350000
20
-137.499999
40
1.000000
100
AcDbArc
50
0.000000
51
89.999999
0
POLYLINE
5
f7
100
AcDbEntity
8
1
6
CONTINUOUS
62
5
100
AcDb2dPolyline
66
1
10
0.0
20
0.0
30
0.0
70
0
0
VERTEX
5
f8
100
AcDbEntity
8
1
100
AcDbVertex
100
AcDb2dVertex
62
5
10
138.350000
20
-136.499999
0
VERTEX
5
f9
100
AcDbEntity
8
1
100
AcDbVertex
100
AcDb2dVertex
62
5
10
138.350000
20
-136.499999
0
VERTEX
5
fa
100
AcDbEntity
8
1
100
AcDbVertex
100
AcDb2dVertex
62
5
10
132.850000
20
-136.499999
0
SEQEND
5
fb
100
AcDbEntity
8
1
0
ARC
5
fc
100
AcDbEntity
8
1
100
AcDbCircle
6
CONTINUOUS
62
5
10
132.850000
20
-137.499999
40
1.000000
100
AcDbArc
50
89.999999
51
179.999998
0
POLYLINE
5
fd
100
AcDbEntity
8
1
6
CONTINUOUS
62
5
100
AcDb2dPolyline
66
1
10
0.0
20
0.0
30
0.0
70
0
0
VERTEX
5
fe
100
AcDbEntity
8
1
100
AcDbVertex
100
AcDb2dVertex
62
5
10
131.850000
20
-137.499999
0
VERTEX
5
ff
100
AcDbEntity
8
1
100
AcDbVertex
100
AcDb2dVertex
62
5
10
131.850000
20
-137.499999
0
VERTEX
5
100
100
AcDbEntity
8
1
100
AcDbVertex
100
AcDb2dVertex
62
5
10
131.850000
20
-140.800000
0
SEQEND
5
101
100
AcDbEntity
8
1
0
ARC
5
102
100
AcDbEntity
8
1
100
AcDbCircle
6
CONTINUOUS
62
5
10
132.850000
20
-140.800000
40
1.000000
100
AcDbArc
50
179.999998
51
-89.999999
0
LINE
5
103
100
AcDbEntity
8
1
100
AcDbLine
6
CONTINUOUS
62
5
10
132.850000
20
-141.800000
11
133.350000
21
-141.800000
0
LINE
5
104
100
AcDbEntity
8
1
100
AcDbLine
6
CONTINUOUS
62
5
10
134.350000
20
-141.800000
11
136.850000
21
-141.800000
0
LINE
5
105
100
AcDbEntity
8
1
100
AcDbLine
6
CONTINUOUS
62
5
10
137.850000
20
-141.800000
11
138.350000
21
-141.800000
0
POLYLINE
5
106
100
AcDbEntity
8
1
6
CONTINUOUS
62
5
100
AcDb2dPolyline
66
1
10
0.0
20
0.0
30
0.0
70
1
0
VERTEX
5
107
100
AcDbEntity
8
1
100
AcDbVertex
100
AcDb2dVertex
62
5
10
133.350000
20
-141.800000
0
VERTEX
5
108
100
AcDbEntity
8
1
100
AcDbVertex
100
AcDb2dVertex
62
5
10
133.350000
20
-141.117072
0
VERTEX
5
109
100
AcDbEntity
8
1
100
AcDbVertex
100
AcDb2dVertex
62
5
10
133.450000
20
-140.800000
0
VERTEX
5
10a
100
AcDbEntity
8
1
100
AcDbVertex
100
AcDb2dVertex
62
5
10
133.450000
20
-139.800000
0
VERTEX
5
10b
100
AcDbEntity
8
1
100
AcDbVertex
100
AcDb2dVertex
62
5
10
133.423077
20
-139.100000
0
VERTEX
5
10c
100
AcDbEntity
8
1
100
AcDbVertex
100
AcDb2dVertex
62
5
10
133.380769
20
-139.100000
0
VERTEX
5
10d
100
AcDbEntity
8
1
100
AcDbVertex
100
AcDb2dVertex
62
5
10
133.380769
20
-139.800000
0
VERTEX
5
10e
100
AcDbEntity
8
1
100
AcDbVertex
100
AcDb2dVertex
62
5
10
133.350000
20
-140.200000
0
VERTEX
5
10f
100
AcDbEntity
8
1
100
AcDbVertex
100
AcDb2dVertex
62
5
10
133.350000
20
-141.800000
0
SEQEND
5
110
100
AcDbEntity
8
1
0
POLYLINE
5
111
100
AcDbEntity
8
1
6
CONTINUOUS
62
5
100
AcDb2dPolyline
66
1
10
0.0
20
0.0
30
0.0
70
0
0
VERTEX
5
112
100
AcDbEntity
8
1
100
AcDbVertex
100
AcDb2dVertex
62
5
10
134.350000
20
-141.800000
0
VERTEX
5
113
100
AcDbEntity
8
1
100
AcDbVertex
100
AcDb2dVertex
62
5
10
134.350000
20
-141.117072
0
VERTEX
5
114
100
AcDbEntity
8
1
100
AcDbVertex
100
AcDb2dVertex
62
5
10
133.350000
20
-141.117072
0
SEQEND
5
115
100
AcDbEntity
8
1
0
POLYLINE
5
116
100
AcDbEntity
8
1
6
CONTINUOUS
62
5
100
AcDb2dPolyline
66
1
10
0.0
20
0.0
30
0.0
70
0
0
VERTEX
5
117
100
AcDbEntity
8
1
100
AcDbVertex
100
AcDb2dVertex
62
5
10
136.850000
20
-141.800000
0
VERTEX
5
118
100
AcDbEntity
8
1
100
AcDbVertex
100
AcDb2dVertex
62
5
10
136.850000
20
-141.117072
0
VERTEX
5
119
100
AcDbEntity
8
1
100
AcDbVertex
100
AcDb2dVertex
62
5
10
137.850000
20
-141.117072
0
SEQEND
5
11a
100
AcDbEntity
8
1
0
POLYLINE
5
11b
100
AcDbEntity
8
1
6
CONTINUOUS
62
5
100
AcDb2dPolyline
66
1
10
0.0
20
0.0
30
0.0
70
1
0
VERTEX
5
11c
100
AcDbEntity
8
1
100
AcDbVertex
100
AcDb2dVertex
62
5
10
137.850000
20
-141.800000
0
VERTEX
5
11d
100
AcDbEntity
8
1
100
AcDbVertex
100
AcDb2dVertex
62
5
10
137.850000
20
-141.117072
0
VERTEX
5
11e
100
AcDbEntity
8
1
100
AcDbVertex
100
AcDb2dVertex
62
5
10
137.750000
20
-140.800000
0
VERTEX
5
11f
100
AcDbEntity
8
1
100
AcDbVertex
100
AcDb2dVertex
62
5
10
137.750000
20
-139.800000
0
VERTEX
5
120
100
AcDbEntity
8
1
100
AcDbVertex
100
AcDb2dVertex
62
5
10
137.776923
20
-139.100000
0
VERTEX
5
121
100
AcDbEntity
8
1
100
AcDbVertex
100
AcDb2dVertex
62
5
10
137.819231
20
-139.100000
0
VERTEX
5
122
100
AcDbEntity
8
1
100
AcDbVertex
100
AcDb2dVertex
62
5
10
137.819231
20
-139.800000
0
VERTEX
5
123
100
AcDbEntity
8
1
100
AcDbVertex
100
AcDb2dVertex
62
5
10
137.850000
20
-140.200000
0
VERTEX
5
124
100
AcDbEntity
8
1
100
AcDbVertex
100
AcDb2dVertex
62
5
10
137.850000
20
-141.800000
0
SEQEND
5
125
100
AcDbEntity
8
1
0
LINE
5
126
100
AcDbEntity
8
1
100
AcDbLine
6
CONTINUOUS
62
5
10
136.600000
20
-151.600000
11
134.600000
21
-151.600000
0
ARC
5
127
100
AcDbEntity
8
1
100
AcDbCircle
6
CONTINUOUS
62
5
10
134.000000
20
-151.200000
40
0.900000
100
AcDbArc
50
89.999999
51
-179.999998
0
LINE
5
128
100
AcDbEntity
8
1
100
AcDbLine
6
CONTINUOUS
62
5
10
133.100000
20
-151.200000
11
133.100000
21
-152.000000
0
LINE
5
129
100
AcDbEntity
8
1
100
AcDbLine
6
CONTINUOUS
62
5
10
138.100000
20
-152.000000
11
138.100000
21
-151.200000
0
ARC
5
12a
100
AcDbEntity
8
1
100
AcDbCircle
6
CONTINUOUS
62
5
10
137.200000
20
-151.200000
40
0.900000
100
AcDbArc
50
0.000000
51
89.999999
0
LINE
5
12b
100
AcDbEntity
8
1
100
AcDbLine
6
CONTINUOUS
62
5
10
137.200000
20
-150.300000
11
134.000000
21
-150.300000
0
LINE
5
12c
100
AcDbEntity
8
1
100
AcDbLine
6
CONTINUOUS
62
5
10
134.600000
20
-152.000000
11
134.600000
21
-151.600000
0
LINE
5
12d
100
AcDbEntity
8
1
100
AcDbLine
6
CONTINUOUS
62
5
10
136.600000
20
-152.000000
11
136.600000
21
-151.600000
0
CIRCLE
5
12e
100
AcDbEntity
8
1
100
AcDbCircle
6
CONTINUOUS
62
5
10
158.600000
20
-139.500000
40
3.000000
0
ARC
5
12f
100
AcDbEntity
8
1
100
AcDbCircle
6
CONTINUOUS
62
5
10
155.600000
20
-137.000000
40
1.000000
100
AcDbArc
50
89.999999
51
-179.999998
0
LINE
5
130
100
AcDbEntity
8
1
100
AcDbLine
6
CONTINUOUS
62
5
10
154.600000
20
-137.000000
11
154.600000
21
-142.000000
0
ARC
5
131
100
AcDbEntity
8
1
100
AcDbCircle
6
CONTINUOUS
62
5
10
155.600000
20
-142.000000
40
1.000000
100
AcDbArc
50
-179.999998
51
-89.999999
0
LINE
5
132
100
AcDbEntity
8
1
100
AcDbLine
6
CONTINUOUS
62
5
10
155.600000
20
-143.000000
11
161.600000
21
-143.000000
0
ARC
5
133
100
AcDbEntity
8
1
100
AcDbCircle
6
CONTINUOUS
62
5
10
161.600000
20
-142.000000
40
1.000000
100
AcDbArc
50
-89.999999
51
0.000000
0
LINE
5
134
100
AcDbEntity
8
1
100
AcDbLine
6
CONTINUOUS
62
5
10
162.600000
20
-142.000000
11
162.600000
21
-137.000000
0
ARC
5
135
100
AcDbEntity
8
1
100
AcDbCircle
6
CONTINUOUS
62
5
10
161.600000
20
-137.000000
40
1.000000
100
AcDbArc
50
0.000000
51
89.999999
0
LINE
5
136
100
AcDbEntity
8
1
100
AcDbLine
6
CONTINUOUS
62
5
10
161.600000
20
-136.000000
11
155.600000
21
-136.000000
0
ARC
5
137
100
AcDbEntity
8
1
100
AcDbCircle
6
CONTINUOUS
62
5
10
155.600000
20
-137.000000
40
1.500000
100
AcDbArc
50
89.999999
51
-179.999998
0
POLYLINE
5
138
100
AcDbEntity
8
1
6
CONTINUOUS
62
5
100
AcDb2dPolyline
66
1
10
0.0
20
0.0
30
0.0
70
0
0
VERTEX
5
139
100
AcDbEntity
8
1
100
AcDbVertex
100
AcDb2dVertex
62
5
10
154.100000
20
-137.000000
0
VERTEX
5
13a
100
AcDbEntity
8
1
100
AcDbVertex
100
AcDb2dVertex
62
5
10
154.100000
20
-137.000000
0
VERTEX
5
13b
100
AcDbEntity
8
1
100
AcDbVertex
100
AcDb2dVertex
62
5
10
154.100000
20
-142.000000
0
SEQEND
5
13c
100
AcDbEntity
8
1
0
ARC
5
13d
100
AcDbEntity
8
1
100
AcDbCircle
6
CONTINUOUS
62
5
10
155.600000
20
-142.000000
40
1.500000
100
AcDbArc
50
-179.999998
51
-89.999999
0
POLYLINE
5
13e
100
AcDbEntity
8
1
6
CONTINUOUS
62
5
100
AcDb2dPolyline
66
1
10
0.0
20
0.0
30
0.0
70
0
0
VERTEX
5
13f
100
AcDbEntity
8
1
100
AcDbVertex
100
AcDb2dVertex
62
5
10
155.600000
20
-143.500000
0
VERTEX
5
140
100
AcDbEntity
8
1
100
AcDbVertex
100
AcDb2dVertex
62
5
10
155.600000
20
-143.500000
0
VERTEX
5
141
100
AcDbEntity
8
1
100
AcDbVertex
100
AcDb2dVertex
62
5
10
161.600000
20
-143.500000
0
SEQEND
5
142
100
AcDbEntity
8
1
0
ARC
5
143
100
AcDbEntity
8
1
100
AcDbCircle
6
CONTINUOUS
62
5
10
161.600000
20
-142.000000
40
1.500000
100
AcDbArc
50
-89.999999
51
0.000000
0
POLYLINE
5
144
100
AcDbEntity
8
1
6
CONTINUOUS
62
5
100
AcDb2dPolyline
66
1
10
0.0
20
0.0
30
0.0
70
0
0
VERTEX
5
145
100
AcDbEntity
8
1
100
AcDbVertex
100
AcDb2dVertex
62
5
10
163.100000
20
-142.000000
0
VERTEX
5
146
100
AcDbEntity
8
1
100
AcDbVertex
100
AcDb2dVertex
62
5
10
163.100000
20
-142.000000
0
VERTEX
5
147
100
AcDbEntity
8
1
100
AcDbVertex
100
AcDb2dVertex
62
5
10
163.100000
20
-137.000000
0
SEQEND
5
148
100
AcDbEntity
8
1
0
ARC
5
149
100
AcDbEntity
8
1
100
AcDbCircle
6
CONTINUOUS
62
5
10
161.600000
20
-137.000000
40
1.500000
100
AcDbArc
50
0.000000
51
89.999999
0
LINE
5
14a
100
AcDbEntity
8
1
100
AcDbLine
6
CONTINUOUS
62
5
10
161.600000
20
-135.500000
11
161.600000
21
-135.500000
0
LINE
5
14b
100
AcDbEntity
8
1
100
AcDbLine
6
CONTINUOUS
62
5
10
161.600000
20
-135.500000
11
155.600000
21
-135.500000
0
CIRCLE
5
14c
100
AcDbEntity
8
1
100
AcDbCircle
6
CONTINUOUS
62
5
10
158.600000
20
-139.500000
40
1.300000
0
POLYLINE
5
14d
100
AcDbEntity
8
1
6
CONTINUOUS
62
5
100
AcDb2dPolyline
66
1
10
0.0
20
0.0
30
0.0
70
0
0
VERTEX
5
14e
100
AcDbEntity
8
1
100
AcDbVertex
100
AcDb2dVertex
62
5
10
82.500000
20
-12.250000
0
VERTEX
5
14f
100
AcDbEntity
8
1
100
AcDbVertex
100
AcDb2dVertex
62
5
10
82.500000
20
-17.875000
0
VERTEX
5
150
100
AcDbEntity
8
1
100
AcDbVertex
100
AcDb2dVertex
62
5
10
82.000000
20
-19.125000
0
VERTEX
5
151
100
AcDbEntity
8
1
100
AcDbVertex
100
AcDb2dVertex
62
5
10
81.500000
20
-20.062500
0
SEQEND
5
152
100
AcDbEntity
8
1
0
POLYLINE
5
153
100
AcDbEntity
8
1
6
CONTINUOUS
62
5
100
AcDb2dPolyline
66
1
10
0.0
20
0.0
30
0.0
70
0
0
VERTEX
5
154
100
AcDbEntity
8
1
100
AcDbVertex
100
AcDb2dVertex
62
5
10
86.500000
20
-19.750000
0
VERTEX
5
155
100
AcDbEntity
8
1
100
AcDbVertex
100
AcDb2dVertex
62
5
10
87.500000
20
-20.375000
0
VERTEX
5
156
100
AcDbEntity
8
1
100
AcDbVertex
100
AcDb2dVertex
62
5
10
87.500000
20
-12.250000
0
VERTEX
5
157
100
AcDbEntity
8
1
100
AcDbVertex
100
AcDb2dVertex
62
5
10
82.500000
20
-12.250000
0
SEQEND
5
158
100
AcDbEntity
8
1
0
LINE
5
159
100
AcDbEntity
8
1
100
AcDbLine
6
CONTINUOUS
62
5
10
82.500000
20
-14.750000
11
87.500000
21
-14.750000
0
LINE
5
15a
100
AcDbEntity
8
1
100
AcDbLine
6
CONTINUOUS
62
5
10
85.000000
20
-12.250000
11
85.000000
21
-20.375000
0
LINE
5
15b
100
AcDbEntity
8
1
100
AcDbLine
6
CONTINUOUS
62
5
10
82.500000
20
-17.250000
11
87.500000
21
-17.250000
0
LINE
5
15c
100
AcDbEntity
8
1
100
AcDbLine
6
CONTINUOUS
62
5
10
70.000000
20
-12.250000
11
70.000000
21
-19.750000
0
LINE
5
15d
100
AcDbEntity
8
1
100
AcDbLine
6
CONTINUOUS
62
5
10
68.750000
20
-19.750000
11
71.250000
21
-19.750000
0
POLYLINE
5
15e
100
AcDbEntity
8
1
6
CONTINUOUS
62
5
100
AcDb2dPolyline
66
1
10
0.0
20
0.0
30
0.0
70
0
0
VERTEX
5
15f
100
AcDbEntity
8
1
100
AcDbVertex
100
AcDb2dVertex
62
5
10
70.000000
20
-12.250000
0
VERTEX
5
160
100
AcDbEntity
8
1
100
AcDbVertex
100
AcDb2dVertex
62
5
10
66.500000
20
-17.875000
0
VERTEX
5
161
100
AcDbEntity
8
1
100
AcDbVertex
100
AcDb2dVertex
62
5
10
71.250000
20
-17.875000
0
SEQEND
5
162
100
AcDbEntity
8
1
0
LINE
5
163
100
AcDbEntity
8
1
100
AcDbLine
6
CONTINUOUS
62
5
10
44.250000
20
-11.937500
11
42.000000
21
-15.062500
0
LINE
5
164
100
AcDbEntity
8
1
100
AcDbLine
6
CONTINUOUS
62
5
10
41.500000
20
-15.062500
11
47.250000
21
-14.750000
0
LINE
5
165
100
AcDbEntity
8
1
100
AcDbLine
6
CONTINUOUS
62
5
10
46.000000
20
-13.187500
11
48.250000
21
-15.687500
0
POLYLINE
5
166
100
AcDbEntity
8
1
6
CONTINUOUS
62
5
100
AcDb2dPolyline
66
1
10
0.0
20
0.0
30
0.0
70
1
0
VERTEX
5
167
100
AcDbEntity
8
1
100
AcDbVertex
100
AcDb2dVertex
62
5
10
42.250000
20
-16.312500
0
VERTEX
5
168
100
AcDbEntity
8
1
100
AcDbVertex
100
AcDb2dVertex
62
5
10
47.250000
20
-16.312500
0
VERTEX
5
169
100
AcDbEntity
8
1
100
AcDbVertex
100
AcDb2dVertex
62
5
10
47.250000
20
-20.062500
0
VERTEX
5
16a
100
AcDbEntity
8
1
100
AcDbVertex
100
AcDb2dVertex
62
5
10
42.250000
20
-20.062500
0
VERTEX
5
16b
100
AcDbEntity
8
1
100
AcDbVertex
100
AcDb2dVertex
62
5
10
42.250000
20
-16.312500
0
SEQEND
5
16c
100
AcDbEntity
8
1
0
LINE
5
16d
100
AcDbEntity
8
1
100
AcDbLine
6
CONTINUOUS
62
5
10
53.250000
20
-11.625000
11
53.250000
21
-12.562500
0
POLYLINE
5
16e
100
AcDbEntity
8
1
6
CONTINUOUS
62
5
100
AcDb2dPolyline
66
1
10
0.0
20
0.0
30
0.0
70
0
0
VERTEX
5
16f
100
AcDbEntity
8
1
100
AcDbVertex
100
AcDb2dVertex
62
5
10
56.250000
20
-12.562500
0
VERTEX
5
170
100
AcDbEntity
8
1
100
AcDbVertex
100
AcDb2dVertex
62
5
10
50.000000
20
-12.562500
0
VERTEX
5
171
100
AcDbEntity
8
1
100
AcDbVertex
100
AcDb2dVertex
62
5
10
50.000000
20
-16.312500
0
VERTEX
5
172
100
AcDbEntity
8
1
100
AcDbVertex
100
AcDb2dVertex
62
5
10
49.750000
20
-18.500000
0
VERTEX
5
173
100
AcDbEntity
8
1
100
AcDbVertex
100
AcDb2dVertex
62
5
10
49.250000
20
-20.375000
0
SEQEND
5
174
100
AcDbEntity
8
1
0
POLYLINE
5
175
100
AcDbEntity
8
1
6
CONTINUOUS
62
5
100
AcDb2dPolyline
66
1
10
0.0
20
0.0
30
0.0
70
0
0
VERTEX
5
176
100
AcDbEntity
8
1
100
AcDbVertex
100
AcDb2dVertex
62
5
10
51.750000
20
-14.125000
0
VERTEX
5
177
100
AcDbEntity
8
1
100
AcDbVertex
100
AcDb2dVertex
62
5
10
51.500000
20
-15.687500
0
VERTEX
5
178
100
AcDbEntity
8
1
100
AcDbVertex
100
AcDb2dVertex
62
5
10
50.750000
20
-16.937500
0
SEQEND
5
179
100
AcDbEntity
8
1
0
LINE
5
17a
100
AcDbEntity
8
1
100
AcDbLine
6
CONTINUOUS
62
5
10
51.500000
20
-15.687500
11
52.500000
21
-16.625000
0
POLYLINE
5
17b
100
AcDbEntity
8
1
6
CONTINUOUS
62
5
100
AcDb2dPolyline
66
1
10
0.0
20
0.0
30
0.0
70
0
0
VERTEX
5
17c
100
AcDbEntity
8
1
100
AcDbVertex
100
AcDb2dVertex
62
5
10
55.000000
20
-14.125000
0
VERTEX
5
17d
100
AcDbEntity
8
1
100
AcDbVertex
100
AcDb2dVertex
62
5
10
54.750000
20
-15.687500
0
VERTEX
5
17e
100
AcDbEntity
8
1
100
AcDbVertex
100
AcDb2dVertex
62
5
10
54.000000
20
-16.937500
0
SEQEND
5
17f
100
AcDbEntity
8
1
0
LINE
5
180
100
AcDbEntity
8
1
100
AcDbLine
6
CONTINUOUS
62
5
10
54.750000
20
-15.687500
11
55.750000
21
-16.625000
0
LINE
5
181
100
AcDbEntity
8
1
100
AcDbLine
6
CONTINUOUS
62
5
10
53.250000
20
-13.500000
11
53.250000
21
-20.375000
0
LINE
5
182
100
AcDbEntity
8
1
100
AcDbLine
6
CONTINUOUS
62
5
10
51.500000
20
-18.187500
11
55.000000
21
-18.187500
0
LINE
5
183
100
AcDbEntity
8
1
100
AcDbLine
6
CONTINUOUS
62
5
10
50.500000
20
-20.375000
11
56.000000
21
-20.375000
0
LINE
5
184
100
AcDbEntity
8
1
100
AcDbLine
6
CONTINUOUS
62
5
10
73.750000
20
-12.250000
11
74.750000
21
-13.187500
0
POLYLINE
5
185
100
AcDbEntity
8
1
6
CONTINUOUS
62
5
100
AcDb2dPolyline
66
1
10
0.0
20
0.0
30
0.0
70
0
0
VERTEX
5
186
100
AcDbEntity
8
1
100
AcDbVertex
100
AcDb2dVertex
62
5
10
73.250000
20
-16.000000
0
VERTEX
5
187
100
AcDbEntity
8
1
100
AcDbVertex
100
AcDb2dVertex
62
5
10
74.500000
20
-16.000000
0
VERTEX
5
188
100
AcDbEntity
8
1
100
AcDbVertex
100
AcDb2dVertex
62
5
10
74.500000
20
-19.125000
0
VERTEX
5
189
100
AcDbEntity
8
1
100
AcDbVertex
100
AcDb2dVertex
62
5
10
73.250000
20
-20.062500
0
SEQEND
5
18a
100
AcDbEntity
8
1
0
POLYLINE
5
18b
100
AcDbEntity
8
1
6
CONTINUOUS
62
5
100
AcDb2dPolyline
66
1
10
0.0
20
0.0
30
0.0
70
0
0
VERTEX
5
18c
100
AcDbEntity
8
1
100
AcDbVertex
100
AcDb2dVertex
62
5
10
74.500000
20
-19.125000
0
VERTEX
5
18d
100
AcDbEntity
8
1
100
AcDbVertex
100
AcDb2dVertex
62
5
10
75.500000
20
-19.750000
0
VERTEX
5
18e
100
AcDbEntity
8
1
100
AcDbVertex
100
AcDb2dVertex
62
5
10
80.250000
20
-20.375000
0
SEQEND
5
18f
100
AcDbEntity
8
1
0
LINE
5
190
100
AcDbEntity
8
1
100
AcDbLine
6
CONTINUOUS
62
5
10
75.500000
20
-12.875000
11
80.250000
21
-12.875000
0
LINE
5
191
100
AcDbEntity
8
1
100
AcDbLine
6
CONTINUOUS
62
5
10
78.000000
20
-11.625000
11
78.000000
21
-19.125000
0
POLYLINE
5
192
100
AcDbEntity
8
1
6
CONTINUOUS
62
5
100
AcDb2dPolyline
66
1
10
0.0
20
0.0
30
0.0
70
1
0
VERTEX
5
193
100
AcDbEntity
8
1
100
AcDbVertex
100
AcDb2dVertex
62
5
10
76.000000
20
-14.125000
0
VERTEX
5
194
100
AcDbEntity
8
1
100
AcDbVertex
100
AcDb2dVertex
62
5
10
76.000000
20
-16.625000
0
VERTEX
5
195
100
AcDbEntity
8
1
100
AcDbVertex
100
AcDb2dVertex
62
5
10
79.750000
20
-16.625000
0
VERTEX
5
196
100
AcDbEntity
8
1
100
AcDbVertex
100
AcDb2dVertex
62
5
10
79.750000
20
-14.125000
0
VERTEX
5
197
100
AcDbEntity
8
1
100
AcDbVertex
100
AcDb2dVertex
62
5
10
76.000000
20
-14.125000
0
SEQEND
5
198
100
AcDbEntity
8
1
0
LINE
5
199
100
AcDbEntity
8
1
100
AcDbLine
6
CONTINUOUS
62
5
10
76.000000
20
-15.375000
11
79.750000
21
-15.375000
0
LINE
5
19a
100
AcDbEntity
8
1
100
AcDbLine
6
CONTINUOUS
62
5
10
75.000000
20
-17.875000
11
80.500000
21
-17.875000
0
POLYLINE
5
19b
100
AcDbEntity
8
1
6
CONTINUOUS
62
5
100
AcDb2dPolyline
66
1
10
0.0
20
0.0
30
0.0
70
0
0
VERTEX
5
19c
100
AcDbEntity
8
1
100
AcDbVertex
100
AcDb2dVertex
62
5
10
22.750000
20
-3.000000
0
VERTEX
5
19d
100
AcDbEntity
8
1
100
AcDbVertex
100
AcDb2dVertex
62
5
10
23.500000
20
-9.000000
0
VERTEX
5
19e
100
AcDbEntity
8
1
100
AcDbVertex
100
AcDb2dVertex
62
5
10
24.250000
20
-3.000000
0
VERTEX
5
19f
100
AcDbEntity
8
1
100
AcDbVertex
100
AcDb2dVertex
62
5
10
25.000000
20
-9.000000
0
VERTEX
5
1a0
100
AcDbEntity
8
1
100
AcDbVertex
100
AcDb2dVertex
62
5
10
25.750000
20
-3.000000
0
SEQEND
5
1a1
100
AcDbEntity
8
1
0
LINE
5
1a2
100
AcDbEntity
8
1
100
AcDbLine
6
CONTINUOUS
62
5
10
27.500000
20
-3.000000
11
29.000000
21
-3.000000
0
LINE
5
1a3
100
AcDbEntity
8
1
100
AcDbLine
6
CONTINUOUS
62
5
10
28.250000
20
-3.000000
11
28.250000
21
-9.000000
0
LINE
5
1a4
100
AcDbEntity
8
1
100
AcDbLine
6
CONTINUOUS
62
5
10
27.500000
20
-9.000000
11
29.000000
21
-9.000000
0
LINE
5
1a5
100
AcDbEntity
8
1
100
AcDbLine
6
CONTINUOUS
62
5
10
31.000000
20
-3.000000
11
31.000000
21
-9.000000
0
POLYLINE
5
1a6
100
AcDbEntity
8
1
6
CONTINUOUS
62
5
100
AcDb2dPolyline
66
1
10
0.0
20
0.0
30
0.0
70
0
0
VERTEX
5
1a7
100
AcDbEntity
8
1
100
AcDbVertex
100
AcDb2dVertex
62
5
10
31.000000
20
-3.000000
0
VERTEX
5
1a8
100
AcDbEntity
8
1
100
AcDbVertex
100
AcDb2dVertex
62
5
10
32.250000
20
-3.000000
0
VERTEX
5
1a9
100
AcDbEntity
8
1
100
AcDbVertex
100
AcDb2dVertex
62
5
10
32.750000
20
-3.250000
0
VERTEX
5
1aa
100
AcDbEntity
8
1
100
AcDbVertex
100
AcDb2dVertex
62
5
10
33.250000
20
-3.750000
0
VERTEX
5
1ab
100
AcDbEntity
8
1
100
AcDbVertex
100
AcDb2dVertex
62
5
10
33.500000
20
-4.750000
0
VERTEX
5
1ac
100
AcDbEntity
8
1
100
AcDbVertex
100
AcDb2dVertex
62
5
10
33.500000
20
-7.250000
0
VERTEX
5
1ad
100
AcDbEntity
8
1
100
AcDbVertex
100
AcDb2dVertex
62
5
10
33.250000
20
-8.250000
0
VERTEX
5
1ae
100
AcDbEntity
8
1
100
AcDbVertex
100
AcDb2dVertex
62
5
10
32.750000
20
-8.750000
0
VERTEX
5
1af
100
AcDbEntity
8
1
100
AcDbVertex
100
AcDb2dVertex
62
5
10
32.250000
20
-9.000000
0
VERTEX
5
1b0
100
AcDbEntity
8
1
100
AcDbVertex
100
AcDb2dVertex
62
5
10
31.000000
20
-9.000000
0
SEQEND
5
1b1
100
AcDbEntity
8
1
0
POLYLINE
5
1b2
100
AcDbEntity
8
1
6
CONTINUOUS
62
5
100
AcDb2dPolyline
66
1
10
0.0
20
0.0
30
0.0
70
0
0
VERTEX
5
1b3
100
AcDbEntity
8
1
100
AcDbVertex
100
AcDb2dVertex
62
5
10
37.500000
20
-3.000000
0
VERTEX
5
1b4
100
AcDbEntity
8
1
100
AcDbVertex
100
AcDb2dVertex
62
5
10
35.000000
20
-3.000000
0
VERTEX
5
1b5
100
AcDbEntity
8
1
100
AcDbVertex
100
AcDb2dVertex
62
5
10
35.000000
20
-9.000000
0
VERTEX
5
1b6
100
AcDbEntity
8
1
100
AcDbVertex
100
AcDb2dVertex
62
5
10
37.750000
20
-9.000000
0
SEQEND
5
1b7
100
AcDbEntity
8
1
0
LINE
5
1b8
100
AcDbEntity
8
1
100
AcDbLine
6
CONTINUOUS
62
5
10
35.000000
20
-6.000000
11
37.250000
21
-6.000000
0
POLYLINE
5
1b9
100
AcDbEntity
8
1
6
CONTINUOUS
62
5
100
AcDb2dPolyline
66
1
10
0.0
20
0.0
30
0.0
70
0
0
VERTEX
5
1ba
100
AcDbEntity
8
1
100
AcDbVertex
100
AcDb2dVertex
62
5
10
13.250000
20
-3.000000
0
VERTEX
5
1bb
100
AcDbEntity
8
1
100
AcDbVertex
100
AcDb2dVertex
62
5
10
13.250000
20
-7.500000
0
VERTEX
5
1bc
100
AcDbEntity
8
1
100
AcDbVertex
100
AcDb2dVertex
62
5
10
13.000000
20
-8.500000
0
VERTEX
5
1bd
100
AcDbEntity
8
1
100
AcDbVertex
100
AcDb2dVertex
62
5
10
12.500000
20
-9.000000
0
VERTEX
5
1be
100
AcDbEntity
8
1
100
AcDbVertex
100
AcDb2dVertex
62
5
10
11.750000
20
-9.000000
0
VERTEX
5
1bf
100
AcDbEntity
8
1
100
AcDbVertex
100
AcDb2dVertex
62
5
10
11.250000
20
-8.500000
0
VERTEX
5
1c0
100
AcDbEntity
8
1
100
AcDbVertex
100
AcDb2dVertex
62
5
10
11.000000
20
-7.500000
0
SEQEND
5
1c1
100
AcDbEntity
8
1
0
POLYLINE
5
1c2
100
AcDbEntity
8
1
6
CONTINUOUS
62
5
100
AcDb2dPolyline
66
1
10
0.0
20
0.0
30
0.0
70
0
0
VERTEX
5
1c3
100
AcDbEntity
8
1
100
AcDbVertex
100
AcDb2dVertex
62
5
10
17.250000
20
-6.000000
0
VERTEX
5
1c4
100
AcDbEntity
8
1
100
AcDbVertex
100
AcDb2dVertex
62
5
10
17.750000
20
-5.500000
0
VERTEX
5
1c5
100
AcDbEntity
8
1
100
AcDbVertex
100
AcDb2dVertex
62
5
10
18.000000
20
-5.500000
0
VERTEX
5
1c6
100
AcDbEntity
8
1
100
AcDbVertex
100
AcDb2dVertex
62
5
10
18.500000
20
-6.000000
0
VERTEX
5
1c7
100
AcDbEntity
8
1
100
AcDbVertex
100
AcDb2dVertex
62
5
10
18.500000
20
-6.250000
0
VERTEX
5
1c8
100
AcDbEntity
8
1
100
AcDbVertex
100
AcDb2dVertex
62
5
10
18.000000
20
-6.750000
0
VERTEX
5
1c9
100
AcDbEntity
8
1
100
AcDbVertex
100
AcDb2dVertex
62
5
10
17.750000
20
-6.750000
0
VERTEX
5
1ca
100
AcDbEntity
8
1
100
AcDbVertex
100
AcDb2dVertex
62
5
10
17.250000
20
-6.250000
0
VERTEX
5
1cb
100
AcDbEntity
8
1
100
AcDbVertex
100
AcDb2dVertex
62
5
10
17.250000
20
-6.000000
0
VERTEX
5
1cc
100
AcDbEntity
8
1
100
AcDbVertex
100
AcDb2dVertex
62
5
10
18.500000
20
-6.000000
0
SEQEND
5
1cd
100
AcDbEntity
8
1
0
LINE
5
1ce
100
AcDbEntity
8
1
100
AcDbLine
6
CONTINUOUS
62
5
10
18.500000
20
-6.250000
11
17.250000
21
-6.250000
0
LINE
5
1cf
100
AcDbEntity
8
1
100
AcDbLine
6
CONTINUOUS
62
5
10
17.500000
20
-6.500000
11
18.250000
21
-6.500000
0
LINE
5
1d0
100
AcDbEntity
8
1
100
AcDbLine
6
CONTINUOUS
62
5
10
18.250000
20
-5.750000
11
17.500000
21
-5.750000
0
LINE
5
1d1
100
AcDbEntity
8
1
100
AcDbLine
6
CONTINUOUS
62
5
10
25.500000
20
-12.250000
11
29.250000
21
-12.250000
0
LINE
5
1d2
100
AcDbEntity
8
1
100
AcDbLine
6
CONTINUOUS
62
5
10
26.250000
20
-12.250000
11
26.250000
21
-18.812500
0
LINE
5
1d3
100
AcDbEntity
8
1
100
AcDbLine
6
CONTINUOUS
62
5
10
28.250000
20
-12.250000
11
28.250000
21
-20.375000
0
LINE
5
1d4
100
AcDbEntity
8
1
100
AcDbLine
6
CONTINUOUS
62
5
10
26.250000
20
-14.437500
11
28.250000
21
-14.437500
0
LINE
5
1d5
100
AcDbEntity
8
1
100
AcDbLine
6
CONTINUOUS
62
5
10
26.250000
20
-16.312500
11
28.250000
21
-16.312500
0
LINE
5
1d6
100
AcDbEntity
8
1
100
AcDbLine
6
CONTINUOUS
62
5
10
25.250000
20
-19.125000
11
28.250000
21
-18.187500
0
POLYLINE
5
1d7
100
AcDbEntity
8
1
6
CONTINUOUS
62
5
100
AcDb2dPolyline
66
1
10
0.0
20
0.0
30
0.0
70
0
0
VERTEX
5
1d8
100
AcDbEntity
8
1
100
AcDbVertex
100
AcDb2dVertex
62
5
10
29.000000
20
-13.812500
0
VERTEX
5
1d9
100
AcDbEntity
8
1
100
AcDbVertex
100
AcDb2dVertex
62
5
10
32.250000
20
-13.812500
0
VERTEX
5
1da
100
AcDbEntity
8
1
100
AcDbVertex
100
AcDb2dVertex
62
5
10
31.750000
20
-16.000000
0
VERTEX
5
1db
100
AcDbEntity
8
1
100
AcDbVertex
100
AcDb2dVertex
62
5
10
31.250000
20
-17.250000
0
VERTEX
5
1dc
100
AcDbEntity
8
1
100
AcDbVertex
100
AcDb2dVertex
62
5
10
30.250000
20
-19.125000
0
VERTEX
5
1dd
100
AcDbEntity
8
1
100
AcDbVertex
100
AcDb2dVertex
62
5
10
29.000000
20
-20.375000
0
SEQEND
5
1de
100
AcDbEntity
8
1
0
POLYLINE
5
1df
100
AcDbEntity
8
1
6
CONTINUOUS
62
5
100
AcDb2dPolyline
66
1
10
0.0
20
0.0
30
0.0
70
0
0
VERTEX
5
1e0
100
AcDbEntity
8
1
100
AcDbVertex
100
AcDb2dVertex
62
5
10
29.250000
20
-15.062500
0
VERTEX
5
1e1
100
AcDbEntity
8
1
100
AcDbVertex
100
AcDb2dVertex
62
5
10
30.000000
20
-16.937500
0
VERTEX
5
1e2
100
AcDbEntity
8
1
100
AcDbVertex
100
AcDb2dVertex
62
5
10
31.000000
20
-18.812500
0
VERTEX
5
1e3
100
AcDbEntity
8
1
100
AcDbVertex
100
AcDb2dVertex
62
5
10
32.500000
20
-20.375000
0
SEQEND
5
1e4
100
AcDbEntity
8
1
0
LINE
5
1e5
100
AcDbEntity
8
1
100
AcDbLine
6
CONTINUOUS
62
5
10
0.000000
20
0.000000
11
0.000000
21
-32.000000
0
LINE
5
1e6
100
AcDbEntity
8
1
100
AcDbLine
6
CONTINUOUS
62
5
10
22.500000
20
-49.500000
11
22.500000
21
-57.000000
0
POLYLINE
5
1e7
100
AcDbEntity
8
1
6
CONTINUOUS
62
5
100
AcDb2dPolyline
66
1
10
0.0
20
0.0
30
0.0
70
0
0
VERTEX
5
1e8
100
AcDbEntity
8
1
100
AcDbVertex
100
AcDb2dVertex
62
5
10
22.500000
20
-49.500000
0
VERTEX
5
1e9
100
AcDbEntity
8
1
100
AcDbVertex
100
AcDb2dVertex
62
5
10
24.062500
20
-49.500000
0
VERTEX
5
1ea
100
AcDbEntity
8
1
100
AcDbVertex
100
AcDb2dVertex
62
5
10
24.687500
20
-49.812500
0
VERTEX
5
1eb
100
AcDbEntity
8
1
100
AcDbVertex
100
AcDb2dVertex
62
5
10
25.000000
20
-50.125000
0
VERTEX
5
1ec
100
AcDbEntity
8
1
100
AcDbVertex
100
AcDb2dVertex
62
5
10
25.312500
20
-50.750000
0
VERTEX
5
1ed
100
AcDbEntity
8
1
100
AcDbVertex
100
AcDb2dVertex
62
5
10
25.312500
20
-51.687500
0
VERTEX
5
1ee
100
AcDbEntity
8
1
100
AcDbVertex
100
AcDb2dVertex
62
5
10
25.000000
20
-52.312500
0
VERTEX
5
1ef
100
AcDbEntity
8
1
100
AcDbVertex
100
AcDb2dVertex
62
5
10
24.687500
20
-52.625000
0
VERTEX
5
1f0
100
AcDbEntity
8
1
100
AcDbVertex
100
AcDb2dVertex
62
5
10
24.062500
20
-52.937500
0
VERTEX
5
1f1
100
AcDbEntity
8
1
100
AcDbVertex
100
AcDb2dVertex
62
5
10
22.500000
20
-52.937500
0
SEQEND
5
1f2
100
AcDbEntity
8
1
0
POLYLINE
5
1f3
100
AcDbEntity
8
1
6
CONTINUOUS
62
5
100
AcDb2dPolyline
66
1
10
0.0
20
0.0
30
0.0
70
0
0
VERTEX
5
1f4
100
AcDbEntity
8
1
100
AcDbVertex
100
AcDb2dVertex
62
5
10
24.062500
20
-52.937500
0
VERTEX
5
1f5
100
AcDbEntity
8
1
100
AcDbVertex
100
AcDb2dVertex
62
5
10
24.687500
20
-53.250000
0
VERTEX
5
1f6
100
AcDbEntity
8
1
100
AcDbVertex
100
AcDb2dVertex
62
5
10
25.312500
20
-53.875000
0
VERTEX
5
1f7
100
AcDbEntity
8
1
100
AcDbVertex
100
AcDb2dVertex
62
5
10
25.625000
20
-54.500000
0
VERTEX
5
1f8
100
AcDbEntity
8
1
100
AcDbVertex
100
AcDb2dVertex
62
5
10
25.625000
20
-55.750000
0
VERTEX
5
1f9
100
AcDbEntity
8
1
100
AcDbVertex
100
AcDb2dVertex
62
5
10
25.312500
20
-56.375000
0
VERTEX
5
1fa
100
AcDbEntity
8
1
100
AcDbVertex
100
AcDb2dVertex
62
5
10
25.000000
20
-56.687500
0
VERTEX
5
1fb
100
AcDbEntity
8
1
100
AcDbVertex
100
AcDb2dVertex
62
5
10
24.375000
20
-57.000000
0
VERTEX
5
1fc
100
AcDbEntity
8
1
100
AcDbVertex
100
AcDb2dVertex
62
5
10
22.500000
20
-57.000000
0
SEQEND
5
1fd
100
AcDbEntity
8
1
0
LINE
5
1fe
100
AcDbEntity
8
1
100
AcDbLine
6
CONTINUOUS
62
5
10
27.500000
20
-53.250000
11
30.625000
21
-53.250000
0
POLYLINE
5
1ff
100
AcDbEntity
8
1
6
CONTINUOUS
62
5
100
AcDb2dPolyline
66
1
10
0.0
20
0.0
30
0.0
70
0
0
VERTEX
5
200
100
AcDbEntity
8
1
100
AcDbVertex
100
AcDb2dVertex
62
5
10
35.000000
20
-49.500000
0
VERTEX
5
201
100
AcDbEntity
8
1
100
AcDbVertex
100
AcDb2dVertex
62
5
10
32.187500
20
-55.125000
0
VERTEX
5
202
100
AcDbEntity
8
1
100
AcDbVertex
100
AcDb2dVertex
62
5
10
35.937500
20
-55.125000
0
SEQEND
5
203
100
AcDbEntity
8
1
0
LINE
5
204
100
AcDbEntity
8
1
100
AcDbLine
6
CONTINUOUS
62
5
10
35.000000
20
-49.500000
11
35.000000
21
-57.000000
0
LINE
5
205
100
AcDbEntity
8
1
100
AcDbLine
6
CONTINUOUS
62
5
10
34.375000
20
-57.000000
11
35.625000
21
-57.000000
0
POLYLINE
5
206
100
AcDbEntity
8
1
6
CONTINUOUS
62
5
100
AcDb2dPolyline
66
1
10
0.0
20
0.0
30
0.0
70
0
0
VERTEX
5
207
100
AcDbEntity
8
1
100
AcDbVertex
100
AcDb2dVertex
62
5
10
12.187500
20
-49.500000
0
VERTEX
5
208
100
AcDbEntity
8
1
100
AcDbVertex
100
AcDb2dVertex
62
5
10
13.125000
20
-57.000000
0
VERTEX
5
209
100
AcDbEntity
8
1
100
AcDbVertex
100
AcDb2dVertex
62
5
10
14.062500
20
-49.500000
0
VERTEX
5
20a
100
AcDbEntity
8
1
100
AcDbVertex
100
AcDb2dVertex
62
5
10
15.000000
20
-57.000000
0
VERTEX
5
20b
100
AcDbEntity
8
1
100
AcDbVertex
100
AcDb2dVertex
62
5
10
15.937500
20
-49.500000
0
SEQEND
5
20c
100
AcDbEntity
8
1
0
POLYLINE
5
20d
100
AcDbEntity
8
1
6
CONTINUOUS
62
5
100
AcDb2dPolyline
66
1
10
0.0
20
0.0
30
0.0
70
0
0
VERTEX
5
20e
100
AcDbEntity
8
1
100
AcDbVertex
100
AcDb2dVertex
62
5
10
20.312500
20
-49.500000
0
VERTEX
5
20f
100
AcDbEntity
8
1
100
AcDbVertex
100
AcDb2dVertex
62
5
10
20.312500
20
-55.125000
0
VERTEX
5
210
100
AcDbEntity
8
1
100
AcDbVertex
100
AcDb2dVertex
62
5
10
20.000000
20
-56.375000
0
VERTEX
5
211
100
AcDbEntity
8
1
100
AcDbVertex
100
AcDb2dVertex
62
5
10
19.375000
20
-57.000000
0
VERTEX
5
212
100
AcDbEntity
8
1
100
AcDbVertex
100
AcDb2dVertex
62
5
10
18.437500
20
-57.000000
0
VERTEX
5
213
100
AcDbEntity
8
1
100
AcDbVertex
100
AcDb2dVertex
62
5
10
17.812500
20
-56.375000
0
VERTEX
5
214
100
AcDbEntity
8
1
100
AcDbVertex
100
AcDb2dVertex
62
5
10
17.500000
20
-55.125000
0
SEQEND
5
215
100
AcDbEntity
8
1
0
POLYLINE
5
216
100
AcDbEntity
8
1
6
CONTINUOUS
62
5
100
AcDb2dPolyline
66
1
10
0.0
20
0.0
30
0.0
70
0
0
VERTEX
5
217
100
AcDbEntity
8
1
100
AcDbVertex
100
AcDb2dVertex
62
5
10
35.500000
20
-11.937500
0
VERTEX
5
218
100
AcDbEntity
8
1
100
AcDbVertex
100
AcDb2dVertex
62
5
10
34.500000
20
-14.750000
0
VERTEX
5
219
100
AcDbEntity
8
1
100
AcDbVertex
100
AcDb2dVertex
62
5
10
33.250000
20
-16.937500
0
SEQEND
5
21a
100
AcDbEntity
8
1
0
LINE
5
21b
100
AcDbEntity
8
1
100
AcDbLine
6
CONTINUOUS
62
5
10
34.500000
20
-14.750000
11
34.500000
21
-20.687500
0
LINE
5
21c
100
AcDbEntity
8
1
100
AcDbLine
6
CONTINUOUS
62
5
10
35.250000
20
-14.750000
11
40.500000
21
-14.750000
0
POLYLINE
5
21d
100
AcDbEntity
8
1
6
CONTINUOUS
62
5
100
AcDb2dPolyline
66
1
10
0.0
20
0.0
30
0.0
70
0
0
VERTEX
5
21e
100
AcDbEntity
8
1
100
AcDbVertex
100
AcDb2dVertex
62
5
10
38.750000
20
-11.937500
0
VERTEX
5
21f
100
AcDbEntity
8
1
100
AcDbVertex
100
AcDb2dVertex
62
5
10
38.750000
20
-20.375000
0
VERTEX
5
220
100
AcDbEntity
8
1
100
AcDbVertex
100
AcDb2dVertex
62
5
10
37.250000
20
-20.062500
0
SEQEND
5
221
100
AcDbEntity
8
1
0
LINE
5
222
100
AcDbEntity
8
1
100
AcDbLine
6
CONTINUOUS
62
5
10
36.250000
20
-16.000000
11
37.250000
21
-17.875000
0
LINE
5
223
100
AcDbEntity
8
1
100
AcDbLine
6
DOT2
62
5
10
93.975000
20
-107.125000
11
93.350000
21
-107.750000
0
POLYLINE
5
224
100
AcDbEntity
8
1
6
DOT2
62
5
100
AcDb2dPolyline
66
1
10
0.0
20
0.0
30
0.0
70
0
0
VERTEX
5
225
100
AcDbEntity
8
1
100
AcDbVertex
100
AcDb2dVertex
62
5
10
93.350000
20
-107.125000
0
VERTEX
5
226
100
AcDbEntity
8
1
100
AcDbVertex
100
AcDb2dVertex
62
5
10
93.975000
20
-107.750000
0
VERTEX
5
227
100
AcDbEntity
8
1
100
AcDbVertex
100
AcDb2dVertex
62
5
10
93.350000
20
-107.750000
0
VERTEX
5
228
100
AcDbEntity
8
1
100
AcDbVertex
100
AcDb2dVertex
62
5
10
93.350000
20
-107.125000
0
VERTEX
5
229
100
AcDbEntity
8
1
100
AcDbVertex
100
AcDb2dVertex
62
5
10
93.975000
20
-107.125000
0
VERTEX
5
22a
100
AcDbEntity
8
1
100
AcDbVertex
100
AcDb2dVertex
62
5
10
93.975000
20
-107.750000
0
SEQEND
5
22b
100
AcDbEntity
8
1
0
POLYLINE
5
22c
100
AcDbEntity
8
1
6
DOT2
62
5
100
AcDb2dPolyline
66
1
10
0.0
20
0.0
30
0.0
70
1
0
VERTEX
5
22d
100
AcDbEntity
8
1
100
AcDbVertex
100
AcDb2dVertex
62
5
10
84.600000
20
-100.250000
0
VERTEX
5
22e
100
AcDbEntity
8
1
100
AcDbVertex
100
AcDb2dVertex
62
5
10
85.225000
20
-100.250000
0
VERTEX
5
22f
100
AcDbEntity
8
1
100
AcDbVertex
100
AcDb2dVertex
62
5
10
85.537500
20
-100.562500
0
VERTEX
5
230
100
AcDbEntity
8
1
100
AcDbVertex
100
AcDb2dVertex
62
5
10
86.162500
20
-101.812500
0
VERTEX
5
231
100
AcDbEntity
8
1
100
AcDbVertex
100
AcDb2dVertex
62
5
10
86.475000
20
-103.062500
0
VERTEX
5
232
100
AcDbEntity
8
1
100
AcDbVertex
100
AcDb2dVertex
62
5
10
86.475000
20
-104.937500
0
VERTEX
5
233
100
AcDbEntity
8
1
100
AcDbVertex
100
AcDb2dVertex
62
5
10
86.162500
20
-106.187500
0
VERTEX
5
234
100
AcDbEntity
8
1
100
AcDbVertex
100
AcDb2dVertex
62
5
10
85.537500
20
-107.437500
0
VERTEX
5
235
100
AcDbEntity
8
1
100
AcDbVertex
100
AcDb2dVertex
62
5
10
85.225000
20
-107.750000
0
VERTEX
5
236
100
AcDbEntity
8
1
100
AcDbVertex
100
AcDb2dVertex
62
5
10
84.600000
20
-107.750000
0
VERTEX
5
237
100
AcDbEntity
8
1
100
AcDbVertex
100
AcDb2dVertex
62
5
10
84.287500
20
-107.437500
0
VERTEX
5
238
100
AcDbEntity
8
1
100
AcDbVertex
100
AcDb2dVertex
62
5
10
83.662500
20
-106.187500
0
VERTEX
5
239
100
AcDbEntity
8
1
100
AcDbVertex
100
AcDb2dVertex
62
5
10
83.350000
20
-104.937500
0
VERTEX
5
23a
100
AcDbEntity
8
1
100
AcDbVertex
100
AcDb2dVertex
62
5
10
83.350000
20
-103.062500
0
VERTEX
5
23b
100
AcDbEntity
8
1
100
AcDbVertex
100
AcDb2dVertex
62
5
10
83.662500
20
-101.812500
0
VERTEX
5
23c
100
AcDbEntity
8
1
100
AcDbVertex
100
AcDb2dVertex
62
5
10
84.287500
20
-100.562500
0
VERTEX
5
23d
100
AcDbEntity
8
1
100
AcDbVertex
100
AcDb2dVertex
62
5
10
84.600000
20
-100.250000
0
SEQEND
5
23e
100
AcDbEntity
8
1
0
POLYLINE
5
23f
100
AcDbEntity
8
1
6
DOT2
62
5
100
AcDb2dPolyline
66
1
10
0.0
20
0.0
30
0.0
70
0
0
VERTEX
5
240
100
AcDbEntity
8
1
100
AcDbVertex
100
AcDb2dVertex
62
5
10
88.350000
20
-102.437500
0
VERTEX
5
241
100
AcDbEntity
8
1
100
AcDbVertex
100
AcDb2dVertex
62
5
10
88.662500
20
-100.875000
0
VERTEX
5
242
100
AcDbEntity
8
1
100
AcDbVertex
100
AcDb2dVertex
62
5
10
89.600000
20
-100.250000
0
VERTEX
5
243
100
AcDbEntity
8
1
100
AcDbVertex
100
AcDb2dVertex
62
5
10
90.537500
20
-100.250000
0
VERTEX
5
244
100
AcDbEntity
8
1
100
AcDbVertex
100
AcDb2dVertex
62
5
10
91.162500
20
-100.562500
0
VERTEX
5
245
100
AcDbEntity
8
1
100
AcDbVertex
100
AcDb2dVertex
62
5
10
91.475000
20
-101.500000
0
VERTEX
5
246
100
AcDbEntity
8
1
100
AcDbVertex
100
AcDb2dVertex
62
5
10
91.475000
20
-102.437500
0
VERTEX
5
247
100
AcDbEntity
8
1
100
AcDbVertex
100
AcDb2dVertex
62
5
10
91.162500
20
-103.375000
0
VERTEX
5
248
100
AcDbEntity
8
1
100
AcDbVertex
100
AcDb2dVertex
62
5
10
88.350000
20
-107.750000
0
VERTEX
5
249
100
AcDbEntity
8
1
100
AcDbVertex
100
AcDb2dVertex
62
5
10
91.475000
20
-107.750000
0
VERTEX
5
24a
100
AcDbEntity
8
1
100
AcDbVertex
100
AcDb2dVertex
62
5
10
91.475000
20
-106.812500
0
SEQEND
5
24b
100
AcDbEntity
8
1
0
POLYLINE
5
24c
100
AcDbEntity
8
1
6
DOT2
62
5
100
AcDb2dPolyline
66
1
10
0.0
20
0.0
30
0.0
70
0
0
VERTEX
5
24d
100
AcDbEntity
8
1
100
AcDbVertex
100
AcDb2dVertex
62
5
10
100.850000
20
-100.250000
0
VERTEX
5
24e
100
AcDbEntity
8
1
100
AcDbVertex
100
AcDb2dVertex
62
5
10
98.037500
20
-105.875000
0
VERTEX
5
24f
100
AcDbEntity
8
1
100
AcDbVertex
100
AcDb2dVertex
62
5
10
101.787500
20
-105.875000
0
SEQEND
5
250
100
AcDbEntity
8
1
0
LINE
5
251
100
AcDbEntity
8
1
100
AcDbLine
6
DOT2
62
5
10
100.850000
20
-100.250000
11
100.850000
21
-107.750000
0
LINE
5
252
100
AcDbEntity
8
1
100
AcDbLine
6
DOT2
62
5
10
100.225000
20
-107.750000
11
101.475000
21
-107.750000
0
POLYLINE
5
253
100
AcDbEntity
8
1
6
DOT2
62
5
100
AcDb2dPolyline
66
1
10
0.0
20
0.0
30
0.0
70
0
0
VERTEX
5
254
100
AcDbEntity
8
1
100
AcDbVertex
100
AcDb2dVertex
62
5
10
78.350000
20
-102.437500
0
VERTEX
5
255
100
AcDbEntity
8
1
100
AcDbVertex
100
AcDb2dVertex
62
5
10
78.662500
20
-100.875000
0
VERTEX
5
256
100
AcDbEntity
8
1
100
AcDbVertex
100
AcDb2dVertex
62
5
10
79.600000
20
-100.250000
0
VERTEX
5
257
100
AcDbEntity
8
1
100
AcDbVertex
100
AcDb2dVertex
62
5
10
80.537500
20
-100.250000
0
VERTEX
5
258
100
AcDbEntity
8
1
100
AcDbVertex
100
AcDb2dVertex
62
5
10
81.162500
20
-100.562500
0
VERTEX
5
259
100
AcDbEntity
8
1
100
AcDbVertex
100
AcDb2dVertex
62
5
10
81.475000
20
-101.500000
0
VERTEX
5
25a
100
AcDbEntity
8
1
100
AcDbVertex
100
AcDb2dVertex
62
5
10
81.475000
20
-102.437500
0
VERTEX
5
25b
100
AcDbEntity
8
1
100
AcDbVertex
100
AcDb2dVertex
62
5
10
81.162500
20
-103.375000
0
VERTEX
5
25c
100
AcDbEntity
8
1
100
AcDbVertex
100
AcDb2dVertex
62
5
10
78.350000
20
-107.750000
0
VERTEX
5
25d
100
AcDbEntity
8
1
100
AcDbVertex
100
AcDb2dVertex
62
5
10
81.475000
20
-107.750000
0
VERTEX
5
25e
100
AcDbEntity
8
1
100
AcDbVertex
100
AcDb2dVertex
62
5
10
81.475000
20
-106.812500
0
SEQEND
5
25f
100
AcDbEntity
8
1
0
ARC
5
260
100
AcDbEntity
8
1
100
AcDbCircle
6
CONTINUOUS
62
5
10
109.600000
20
-137.000000
40
1.500000
100
AcDbArc
50
89.999999
51
-179.999998
0
POLYLINE
5
261
100
AcDbEntity
8
1
6
CONTINUOUS
62
5
100
AcDb2dPolyline
66
1
10
0.0
20
0.0
30
0.0
70
0
0
VERTEX
5
262
100
AcDbEntity
8
1
100
AcDbVertex
100
AcDb2dVertex
62
5
10
108.100000
20
-137.000000
0
VERTEX
5
263
100
AcDbEntity
8
1
100
AcDbVertex
100
AcDb2dVertex
62
5
10
108.100000
20
-137.000000
0
VERTEX
5
264
100
AcDbEntity
8
1
100
AcDbVertex
100
AcDb2dVertex
62
5
10
108.100000
20
-142.000000
0
SEQEND
5
265
100
AcDbEntity
8
1
0
ARC
5
266
100
AcDbEntity
8
1
100
AcDbCircle
6
CONTINUOUS
62
5
10
109.600000
20
-142.000000
40
1.500000
100
AcDbArc
50
-179.999998
51
-89.999999
0
POLYLINE
5
267
100
AcDbEntity
8
1
6
CONTINUOUS
62
5
100
AcDb2dPolyline
66
1
10
0.0
20
0.0
30
0.0
70
0
0
VERTEX
5
268
100
AcDbEntity
8
1
100
AcDbVertex
100
AcDb2dVertex
62
5
10
109.600000
20
-143.500000
0
VERTEX
5
269
100
AcDbEntity
8
1
100
AcDbVertex
100
AcDb2dVertex
62
5
10
109.600000
20
-143.500000
0
VERTEX
5
26a
100
AcDbEntity
8
1
100
AcDbVertex
100
AcDb2dVertex
62
5
10
115.600000
20
-143.500000
0
SEQEND
5
26b
100
AcDbEntity
8
1
0
ARC
5
26c
100
AcDbEntity
8
1
100
AcDbCircle
6
CONTINUOUS
62
5
10
115.600000
20
-142.000000
40
1.500000
100
AcDbArc
50
-89.999999
51
0.000000
0
POLYLINE
5
26d
100
AcDbEntity
8
1
6
CONTINUOUS
62
5
100
AcDb2dPolyline
66
1
10
0.0
20
0.0
30
0.0
70
0
0
VERTEX
5
26e
100
AcDbEntity
8
1
100
AcDbVertex
100
AcDb2dVertex
62
5
10
117.100000
20
-142.000000
0
VERTEX
5
26f
100
AcDbEntity
8
1
100
AcDbVertex
100
AcDb2dVertex
62
5
10
117.100000
20
-142.000000
0
VERTEX
5
270
100
AcDbEntity
8
1
100
AcDbVertex
100
AcDb2dVertex
62
5
10
117.100000
20
-137.000000
0
SEQEND
5
271
100
AcDbEntity
8
1
0
ARC
5
272
100
AcDbEntity
8
1
100
AcDbCircle
6
CONTINUOUS
62
5
10
115.600000
20
-137.000000
40
1.500000
100
AcDbArc
50
0.000000
51
89.999999
0
LINE
5
273
100
AcDbEntity
8
1
100
AcDbLine
6
CONTINUOUS
62
5
10
115.600000
20
-135.500000
11
115.600000
21
-135.500000
0
LINE
5
274
100
AcDbEntity
8
1
100
AcDbLine
6
CONTINUOUS
62
5
10
115.600000
20
-135.500000
11
109.600000
21
-135.500000
0
ARC
5
275
100
AcDbEntity
8
1
100
AcDbCircle
6
CONTINUOUS
62
5
10
109.600000
20
-137.000000
40
1.000000
100
AcDbArc
50
89.999999
51
-179.999998
0
LINE
5
276
100
AcDbEntity
8
1
100
AcDbLine
6
CONTINUOUS
62
5
10
108.600000
20
-137.000000
11
108.600000
21
-142.000000
0
ARC
5
277
100
AcDbEntity
8
1
100
AcDbCircle
6
CONTINUOUS
62
5
10
109.600000
20
-142.000000
40
1.000000
100
AcDbArc
50
-179.999998
51
-89.999999
0
LINE
5
278
100
AcDbEntity
8
1
100
AcDbLine
6
CONTINUOUS
62
5
10
109.600000
20
-143.000000
11
115.600000
21
-143.000000
0
ARC
5
279
100
AcDbEntity
8
1
100
AcDbCircle
6
CONTINUOUS
62
5
10
115.600000
20
-142.000000
40
1.000000
100
AcDbArc
50
-89.999999
51
0.000000
0
LINE
5
27a
100
AcDbEntity
8
1
100
AcDbLine
6
CONTINUOUS
62
5
10
116.600000
20
-142.000000
11
116.600000
21
-137.000000
0
ARC
5
27b
100
AcDbEntity
8
1
100
AcDbCircle
6
CONTINUOUS
62
5
10
115.600000
20
-137.000000
40
1.000000
100
AcDbArc
50
0.000000
51
89.999999
0
LINE
5
27c
100
AcDbEntity
8
1
100
AcDbLine
6
CONTINUOUS
62
5
10
115.600000
20
-136.000000
11
109.600000
21
-136.000000
0
CIRCLE
5
27d
100
AcDbEntity
8
1
100
AcDbCircle
6
CONTINUOUS
62
5
10
112.600000
20
-139.500000
40
3.000000
0
CIRCLE
5
27e
100
AcDbEntity
8
1
100
AcDbCircle
6
CONTINUOUS
62
5
10
112.600000
20
-139.500000
40
1.300000
0
ARC
5
27f
100
AcDbEntity
8
1
100
AcDbCircle
6
CONTINUOUS
62
5
10
92.350000
20
-140.800000
40
0.500000
100
AcDbArc
50
-89.999999
51
0.000000
0
LINE
5
280
100
AcDbEntity
8
1
100
AcDbLine
6
CONTINUOUS
62
5
10
92.850000
20
-140.800000
11
92.850000
21
-137.499999
0
ARC
5
281
100
AcDbEntity
8
1
100
AcDbCircle
6
CONTINUOUS
62
5
10
92.350000
20
-137.499999
40
0.500000
100
AcDbArc
50
0.000000
51
89.999999
0
LINE
5
282
100
AcDbEntity
8
1
100
AcDbLine
6
CONTINUOUS
62
5
10
92.350000
20
-136.999999
11
86.850000
21
-136.999999
0
ARC
5
283
100
AcDbEntity
8
1
100
AcDbCircle
6
CONTINUOUS
62
5
10
86.850000
20
-137.499999
40
0.500000
100
AcDbArc
50
89.999999
51
179.999998
0
LINE
5
284
100
AcDbEntity
8
1
100
AcDbLine
6
CONTINUOUS
62
5
10
86.350000
20
-137.499999
11
86.350000
21
-140.800000
0
ARC
5
285
100
AcDbEntity
8
1
100
AcDbCircle
6
CONTINUOUS
62
5
10
86.850000
20
-140.800000
40
0.500000
100
AcDbArc
50
179.999998
51
-89.999999
0
LINE
5
286
100
AcDbEntity
8
1
100
AcDbLine
6
CONTINUOUS
62
5
10
86.850000
20
-141.300000
11
87.350000
21
-141.300000
0
LINE
5
287
100
AcDbEntity
8
1
100
AcDbLine
6
CONTINUOUS
62
5
10
88.350000
20
-141.300000
11
90.850000
21
-141.300000
0
LINE
5
288
100
AcDbEntity
8
1
100
AcDbLine
6
CONTINUOUS
62
5
10
91.850000
20
-141.300000
11
92.350000
21
-141.300000
0
ARC
5
289
100
AcDbEntity
8
1
100
AcDbCircle
6
CONTINUOUS
62
5
10
92.350000
20
-140.800000
40
1.000000
100
AcDbArc
50
-89.999999
51
0.000000
0
LINE
5
28a
100
AcDbEntity
8
1
100
AcDbLine
6
CONTINUOUS
62
5
10
93.350000
20
-140.800000
11
93.350000
21
-137.499999
0
ARC
5
28b
100
AcDbEntity
8
1
100
AcDbCircle
6
CONTINUOUS
62
5
10
92.350000
20
-137.499999
40
1.000000
100
AcDbArc
50
0.000000
51
89.999999
0
POLYLINE
5
28c
100
AcDbEntity
8
1
6
CONTINUOUS
62
5
100
AcDb2dPolyline
66
1
10
0.0
20
0.0
30
0.0
70
0
0
VERTEX
5
28d
100
AcDbEntity
8
1
100
AcDbVertex
100
AcDb2dVertex
62
5
10
92.350000
20
-136.499999
0
VERTEX
5
28e
100
AcDbEntity
8
1
100
AcDbVertex
100
AcDb2dVertex
62
5
10
92.350000
20
-136.499999
0
VERTEX
5
28f
100
AcDbEntity
8
1
100
AcDbVertex
100
AcDb2dVertex
62
5
10
86.850000
20
-136.499999
0
SEQEND
5
290
100
AcDbEntity
8
1
0
ARC
5
291
100
AcDbEntity
8
1
100
AcDbCircle
6
CONTINUOUS
62
5
10
86.850000
20
-137.499999
40
1.000000
100
AcDbArc
50
89.999999
51
179.999998
0
POLYLINE
5
292
100
AcDbEntity
8
1
6
CONTINUOUS
62
5
100
AcDb2dPolyline
66
1
10
0.0
20
0.0
30
0.0
70
0
0
VERTEX
5
293
100
AcDbEntity
8
1
100
AcDbVertex
100
AcDb2dVertex
62
5
10
85.850000
20
-137.499999
0
VERTEX
5
294
100
AcDbEntity
8
1
100
AcDbVertex
100
AcDb2dVertex
62
5
10
85.850000
20
-137.499999
0
VERTEX
5
295
100
AcDbEntity
8
1
100
AcDbVertex
100
AcDb2dVertex
62
5
10
85.850000
20
-140.800000
0
SEQEND
5
296
100
AcDbEntity
8
1
0
ARC
5
297
100
AcDbEntity
8
1
100
AcDbCircle
6
CONTINUOUS
62
5
10
86.850000
20
-140.800000
40
1.000000
100
AcDbArc
50
179.999998
51
-89.999999
0
LINE
5
298
100
AcDbEntity
8
1
100
AcDbLine
6
CONTINUOUS
62
5
10
86.850000
20
-141.800000
11
87.350000
21
-141.800000
0
LINE
5
299
100
AcDbEntity
8
1
100
AcDbLine
6
CONTINUOUS
62
5
10
88.350000
20
-141.800000
11
90.850000
21
-141.800000
0
LINE
5
29a
100
AcDbEntity
8
1
100
AcDbLine
6
CONTINUOUS
62
5
10
91.850000
20
-141.800000
11
92.350000
21
-141.800000
0
LINE
5
29b
100
AcDbEntity
8
1
100
AcDbLine
6
CONTINUOUS
62
5
10
88.350000
20
-141.700000
11
90.850000
21
-141.700000
0
POLYLINE
5
29c
100
AcDbEntity
8
1
6
CONTINUOUS
62
5
100
AcDb2dPolyline
66
1
10
0.0
20
0.0
30
0.0
70
0
0
VERTEX
5
29d
100
AcDbEntity
8
1
100
AcDbVertex
100
AcDb2dVertex
62
5
10
90.850000
20
-141.800000
0
VERTEX
5
29e
100
AcDbEntity
8
1
100
AcDbVertex
100
AcDb2dVertex
62
5
10
90.850000
20
-141.117072
0
VERTEX
5
29f
100
AcDbEntity
8
1
100
AcDbVertex
100
AcDb2dVertex
62
5
10
91.850000
20
-141.117072
0
SEQEND
5
2a0
100
AcDbEntity
8
1
0
POLYLINE
5
2a1
100
AcDbEntity
8
1
6
CONTINUOUS
62
5
100
AcDb2dPolyline
66
1
10
0.0
20
0.0
30
0.0
70
1
0
VERTEX
5
2a2
100
AcDbEntity
8
1
100
AcDbVertex
100
AcDb2dVertex
62
5
10
91.850000
20
-141.800000
0
VERTEX
5
2a3
100
AcDbEntity
8
1
100
AcDbVertex
100
AcDb2dVertex
62
5
10
91.850000
20
-141.117072
0
VERTEX
5
2a4
100
AcDbEntity
8
1
100
AcDbVertex
100
AcDb2dVertex
62
5
10
91.750000
20
-140.800000
0
VERTEX
5
2a5
100
AcDbEntity
8
1
100
AcDbVertex
100
AcDb2dVertex
62
5
10
91.750000
20
-139.800000
0
VERTEX
5
2a6
100
AcDbEntity
8
1
100
AcDbVertex
100
AcDb2dVertex
62
5
10
91.776923
20
-139.100000
0
VERTEX
5
2a7
100
AcDbEntity
8
1
100
AcDbVertex
100
AcDb2dVertex
62
5
10
91.819231
20
-139.100000
0
VERTEX
5
2a8
100
AcDbEntity
8
1
100
AcDbVertex
100
AcDb2dVertex
62
5
10
91.819231
20
-139.800000
0
VERTEX
5
2a9
100
AcDbEntity
8
1
100
AcDbVertex
100
AcDb2dVertex
62
5
10
91.850000
20
-140.200000
0
VERTEX
5
2aa
100
AcDbEntity
8
1
100
AcDbVertex
100
AcDb2dVertex
62
5
10
91.850000
20
-141.800000
0
SEQEND
5
2ab
100
AcDbEntity
8
1
0
POLYLINE
5
2ac
100
AcDbEntity
8
1
6
CONTINUOUS
62
5
100
AcDb2dPolyline
66
1
10
0.0
20
0.0
30
0.0
70
1
0
VERTEX
5
2ad
100
AcDbEntity
8
1
100
AcDbVertex
100
AcDb2dVertex
62
5
10
87.350000
20
-141.800000
0
VERTEX
5
2ae
100
AcDbEntity
8
1
100
AcDbVertex
100
AcDb2dVertex
62
5
10
87.350000
20
-141.117072
0
VERTEX
5
2af
100
AcDbEntity
8
1
100
AcDbVertex
100
AcDb2dVertex
62
5
10
87.450000
20
-140.800000
0
VERTEX
5
2b0
100
AcDbEntity
8
1
100
AcDbVertex
100
AcDb2dVertex
62
5
10
87.450000
20
-139.800000
0
VERTEX
5
2b1
100
AcDbEntity
8
1
100
AcDbVertex
100
AcDb2dVertex
62
5
10
87.423077
20
-139.100000
0
VERTEX
5
2b2
100
AcDbEntity
8
1
100
AcDbVertex
100
AcDb2dVertex
62
5
10
87.380769
20
-139.100000
0
VERTEX
5
2b3
100
AcDbEntity
8
1
100
AcDbVertex
100
AcDb2dVertex
62
5
10
87.380769
20
-139.800000
0
VERTEX
5
2b4
100
AcDbEntity
8
1
100
AcDbVertex
100
AcDb2dVertex
62
5
10
87.350000
20
-140.200000
0
VERTEX
5
2b5
100
AcDbEntity
8
1
100
AcDbVertex
100
AcDb2dVertex
62
5
10
87.350000
20
-141.800000
0
SEQEND
5
2b6
100
AcDbEntity
8
1
0
LINE
5
2b7
100
AcDbEntity
8
1
100
AcDbLine
6
CONTINUOUS
62
5
10
91.750000
20
-139.800000
11
87.450000
21
-139.800000
0
POLYLINE
5
2b8
100
AcDbEntity
8
1
6
CONTINUOUS
62
5
100
AcDb2dPolyline
66
1
10
0.0
20
0.0
30
0.0
70
0
0
VERTEX
5
2b9
100
AcDbEntity
8
1
100
AcDbVertex
100
AcDb2dVertex
62
5
10
88.350000
20
-141.800000
0
VERTEX
5
2ba
100
AcDbEntity
8
1
100
AcDbVertex
100
AcDb2dVertex
62
5
10
88.350000
20
-141.117072
0
VERTEX
5
2bb
100
AcDbEntity
8
1
100
AcDbVertex
100
AcDb2dVertex
62
5
10
87.350000
20
-141.117072
0
SEQEND
5
2bc
100
AcDbEntity
8
1
0
LINE
5
2bd
100
AcDbEntity
8
1
100
AcDbLine
6
CONTINUOUS
62
5
10
91.750000
20
-140.800000
11
87.450000
21
-140.800000
0
LINE
5
2be
100
AcDbEntity
8
1
100
AcDbLine
6
CONTINUOUS
62
5
10
87.423077
20
-139.100000
11
91.776923
21
-139.100000
0
ARC
5
2bf
100
AcDbEntity
8
1
100
AcDbCircle
6
CONTINUOUS
62
5
10
105.100000
20
-147.200000
40
1.000000
100
AcDbArc
50
-89.999999
51
-0.000000
0
LINE
5
2c0
100
AcDbEntity
8
1
100
AcDbLine
6
CONTINUOUS
62
5
10
106.100000
20
-147.200000
11
106.100000
21
-145.700000
0
LINE
5
2c1
100
AcDbEntity
8
1
100
AcDbLine
6
CONTINUOUS
62
5
10
97.600000
20
-148.200000
11
105.100000
21
-148.200000
0
ARC
5
2c2
100
AcDbEntity
8
1
100
AcDbCircle
6
CONTINUOUS
62
5
10
88.000000
20
-151.200000
40
0.900000
100
AcDbArc
50
89.999999
51
-179.999998
0
LINE
5
2c3
100
AcDbEntity
8
1
100
AcDbLine
6
CONTINUOUS
62
5
10
87.100000
20
-151.200000
11
87.100000
21
-152.000000
0
LINE
5
2c4
100
AcDbEntity
8
1
100
AcDbLine
6
CONTINUOUS
62
5
10
92.100000
20
-152.000000
11
92.100000
21
-151.200000
0
ARC
5
2c5
100
AcDbEntity
8
1
100
AcDbCircle
6
CONTINUOUS
62
5
10
91.200000
20
-151.200000
40
0.900000
100
AcDbArc
50
0.000000
51
89.999999
0
LINE
5
2c6
100
AcDbEntity
8
1
100
AcDbLine
6
CONTINUOUS
62
5
10
91.200000
20
-150.300000
11
88.000000
21
-150.300000
0
LINE
5
2c7
100
AcDbEntity
8
1
100
AcDbLine
6
CONTINUOUS
62
5
10
88.600000
20
-152.000000
11
88.600000
21
-151.600000
0
LINE
5
2c8
100
AcDbEntity
8
1
100
AcDbLine
6
CONTINUOUS
62
5
10
90.600000
20
-152.000000
11
90.600000
21
-151.600000
0
LINE
5
2c9
100
AcDbEntity
8
1
100
AcDbLine
6
CONTINUOUS
62
5
10
90.600000
20
-151.600000
11
88.600000
21
-151.600000
0
CIRCLE
5
2ca
100
AcDbEntity
8
1
100
AcDbCircle
6
CONTINUOUS
62
5
10
66.600000
20
-139.500000
40
1.300000
0
CIRCLE
5
2cb
100
AcDbEntity
8
1
100
AcDbCircle
6
CONTINUOUS
62
5
10
66.600000
20
-139.500000
40
3.000000
0
ARC
5
2cc
100
AcDbEntity
8
1
100
AcDbCircle
6
CONTINUOUS
62
5
10
69.600000
20
-137.000000
40
1.500000
100
AcDbArc
50
0.000000
51
89.999999
0
POLYLINE
5
2cd
100
AcDbEntity
8
1
6
CONTINUOUS
62
5
100
AcDb2dPolyline
66
1
10
0.0
20
0.0
30
0.0
70
0
0
VERTEX
5
2ce
100
AcDbEntity
8
1
100
AcDbVertex
100
AcDb2dVertex
62
5
10
71.100000
20
-137.000000
0
VERTEX
5
2cf
100
AcDbEntity
8
1
100
AcDbVertex
100
AcDb2dVertex
62
5
10
71.100000
20
-137.000000
0
VERTEX
5
2d0
100
AcDbEntity
8
1
100
AcDbVertex
100
AcDb2dVertex
62
5
10
71.100000
20
-142.000000
0
SEQEND
5
2d1
100
AcDbEntity
8
1
0
ARC
5
2d2
100
AcDbEntity
8
1
100
AcDbCircle
6
CONTINUOUS
62
5
10
69.600000
20
-142.000000
40
1.500000
100
AcDbArc
50
-89.999999
51
-0.000000
0
POLYLINE
5
2d3
100
AcDbEntity
8
1
6
CONTINUOUS
62
5
100
AcDb2dPolyline
66
1
10
0.0
20
0.0
30
0.0
70
0
0
VERTEX
5
2d4
100
AcDbEntity
8
1
100
AcDbVertex
100
AcDb2dVertex
62
5
10
69.600000
20
-143.500000
0
VERTEX
5
2d5
100
AcDbEntity
8
1
100
AcDbVertex
100
AcDb2dVertex
62
5
10
69.600000
20
-143.500000
0
VERTEX
5
2d6
100
AcDbEntity
8
1
100
AcDbVertex
100
AcDb2dVertex
62
5
10
63.600000
20
-143.500000
0
SEQEND
5
2d7
100
AcDbEntity
8
1
0
ARC
5
2d8
100
AcDbEntity
8
1
100
AcDbCircle
6
CONTINUOUS
62
5
10
63.600000
20
-142.000000
40
1.500000
100
AcDbArc
50
179.999998
51
-89.999999
0
POLYLINE
5
2d9
100
AcDbEntity
8
1
6
CONTINUOUS
62
5
100
AcDb2dPolyline
66
1
10
0.0
20
0.0
30
0.0
70
0
0
VERTEX
5
2da
100
AcDbEntity
8
1
100
AcDbVertex
100
AcDb2dVertex
62
5
10
62.100000
20
-142.000000
0
VERTEX
5
2db
100
AcDbEntity
8
1
100
AcDbVertex
100
AcDb2dVertex
62
5
10
62.100000
20
-142.000000
0
VERTEX
5
2dc
100
AcDbEntity
8
1
100
AcDbVertex
100
AcDb2dVertex
62
5
10
62.100000
20
-137.000000
0
SEQEND
5
2dd
100
AcDbEntity
8
1
0
ARC
5
2de
100
AcDbEntity
8
1
100
AcDbCircle
6
CONTINUOUS
62
5
10
63.600000
20
-137.000000
40
1.500000
100
AcDbArc
50
89.999999
51
-179.999998
0
LINE
5
2df
100
AcDbEntity
8
1
100
AcDbLine
6
CONTINUOUS
62
5
10
63.600000
20
-135.500000
11
63.600000
21
-135.500000
0
LINE
5
2e0
100
AcDbEntity
8
1
100
AcDbLine
6
CONTINUOUS
62
5
10
63.600000
20
-135.500000
11
69.600000
21
-135.500000
0
ARC
5
2e1
100
AcDbEntity
8
1
100
AcDbCircle
6
CONTINUOUS
62
5
10
69.600000
20
-137.000000
40
1.000000
100
AcDbArc
50
0.000000
51
89.999999
0
LINE
5
2e2
100
AcDbEntity
8
1
100
AcDbLine
6
CONTINUOUS
62
5
10
70.600000
20
-137.000000
11
70.600000
21
-142.000000
0
ARC
5
2e3
100
AcDbEntity
8
1
100
AcDbCircle
6
CONTINUOUS
62
5
10
69.600000
20
-142.000000
40
1.000000
100
AcDbArc
50
-89.999999
51
0.000000
0
LINE
5
2e4
100
AcDbEntity
8
1
100
AcDbLine
6
CONTINUOUS
62
5
10
69.600000
20
-143.000000
11
63.600000
21
-143.000000
0
ARC
5
2e5
100
AcDbEntity
8
1
100
AcDbCircle
6
CONTINUOUS
62
5
10
63.600000
20
-142.000000
40
1.000000
100
AcDbArc
50
179.999998
51
-89.999999
0
LINE
5
2e6
100
AcDbEntity
8
1
100
AcDbLine
6
CONTINUOUS
62
5
10
62.600000
20
-142.000000
11
62.600000
21
-137.000000
0
ARC
5
2e7
100
AcDbEntity
8
1
100
AcDbCircle
6
CONTINUOUS
62
5
10
63.600000
20
-137.000000
40
1.000000
100
AcDbArc
50
89.999999
51
179.999998
0
LINE
5
2e8
100
AcDbEntity
8
1
100
AcDbLine
6
CONTINUOUS
62
5
10
63.600000
20
-136.000000
11
69.600000
21
-136.000000
0
POLYLINE
5
2e9
100
AcDbEntity
8
1
6
CONTINUOUS
62
5
100
AcDb2dPolyline
66
1
10
0.0
20
0.0
30
0.0
70
1
0
VERTEX
5
2ea
100
AcDbEntity
8
1
100
AcDbVertex
100
AcDb2dVertex
62
5
10
45.850000
20
-141.800000
0
VERTEX
5
2eb
100
AcDbEntity
8
1
100
AcDbVertex
100
AcDb2dVertex
62
5
10
45.850000
20
-141.117072
0
VERTEX
5
2ec
100
AcDbEntity
8
1
100
AcDbVertex
100
AcDb2dVertex
62
5
10
45.750000
20
-140.800000
0
VERTEX
5
2ed
100
AcDbEntity
8
1
100
AcDbVertex
100
AcDb2dVertex
62
5
10
45.750000
20
-139.800000
0
VERTEX
5
2ee
100
AcDbEntity
8
1
100
AcDbVertex
100
AcDb2dVertex
62
5
10
45.776923
20
-139.100000
0
VERTEX
5
2ef
100
AcDbEntity
8
1
100
AcDbVertex
100
AcDb2dVertex
62
5
10
45.819231
20
-139.100000
0
VERTEX
5
2f0
100
AcDbEntity
8
1
100
AcDbVertex
100
AcDb2dVertex
62
5
10
45.819231
20
-139.800000
0
VERTEX
5
2f1
100
AcDbEntity
8
1
100
AcDbVertex
100
AcDb2dVertex
62
5
10
45.850000
20
-140.200000
0
VERTEX
5
2f2
100
AcDbEntity
8
1
100
AcDbVertex
100
AcDb2dVertex
62
5
10
45.850000
20
-141.800000
0
SEQEND
5
2f3
100
AcDbEntity
8
1
0
POLYLINE
5
2f4
100
AcDbEntity
8
1
6
CONTINUOUS
62
5
100
AcDb2dPolyline
66
1
10
0.0
20
0.0
30
0.0
70
0
0
VERTEX
5
2f5
100
AcDbEntity
8
1
100
AcDbVertex
100
AcDb2dVertex
62
5
10
44.850000
20
-141.800000
0
VERTEX
5
2f6
100
AcDbEntity
8
1
100
AcDbVertex
100
AcDb2dVertex
62
5
10
44.850000
20
-141.117072
0
VERTEX
5
2f7
100
AcDbEntity
8
1
100
AcDbVertex
100
AcDb2dVertex
62
5
10
45.850000
20
-141.117072
0
SEQEND
5
2f8
100
AcDbEntity
8
1
0
POLYLINE
5
2f9
100
AcDbEntity
8
1
6
CONTINUOUS
62
5
100
AcDb2dPolyline
66
1
10
0.0
20
0.0
30
0.0
70
0
0
VERTEX
5
2fa
100
AcDbEntity
8
1
100
AcDbVertex
100
AcDb2dVertex
62
5
10
42.350000
20
-141.800000
0
VERTEX
5
2fb
100
AcDbEntity
8
1
100
AcDbVertex
100
AcDb2dVertex
62
5
10
42.350000
20
-141.117072
0
VERTEX
5
2fc
100
AcDbEntity
8
1
100
AcDbVertex
100
AcDb2dVertex
62
5
10
41.350000
20
-141.117072
0
SEQEND
5
2fd
100
AcDbEntity
8
1
0
POLYLINE
5
2fe
100
AcDbEntity
8
1
6
CONTINUOUS
62
5
100
AcDb2dPolyline
66
1
10
0.0
20
0.0
30
0.0
70
1
0
VERTEX
5
2ff
100
AcDbEntity
8
1
100
AcDbVertex
100
AcDb2dVertex
62
5
10
41.350000
20
-141.800000
0
VERTEX
5
300
100
AcDbEntity
8
1
100
AcDbVertex
100
AcDb2dVertex
62
5
10
41.350000
20
-141.117072
0
VERTEX
5
301
100
AcDbEntity
8
1
100
AcDbVertex
100
AcDb2dVertex
62
5
10
41.450000
20
-140.800000
0
VERTEX
5
302
100
AcDbEntity
8
1
100
AcDbVertex
100
AcDb2dVertex
62
5
10
41.450000
20
-139.800000
0
VERTEX
5
303
100
AcDbEntity
8
1
100
AcDbVertex
100
AcDb2dVertex
62
5
10
41.423077
20
-139.100000
0
VERTEX
5
304
100
AcDbEntity
8
1
100
AcDbVertex
100
AcDb2dVertex
62
5
10
41.380769
20
-139.100000
0
VERTEX
5
305
100
AcDbEntity
8
1
100
AcDbVertex
100
AcDb2dVertex
62
5
10
41.380769
20
-139.800000
0
VERTEX
5
306
100
AcDbEntity
8
1
100
AcDbVertex
100
AcDb2dVertex
62
5
10
41.350000
20
-140.200000
0
VERTEX
5
307
100
AcDbEntity
8
1
100
AcDbVertex
100
AcDb2dVertex
62
5
10
41.350000
20
-141.800000
0
SEQEND
5
308
100
AcDbEntity
8
1
0
ARC
5
309
100
AcDbEntity
8
1
100
AcDbCircle
6
CONTINUOUS
62
5
10
46.350000
20
-140.800000
40
0.500000
100
AcDbArc
50
-89.999999
51
0.000000
0
LINE
5
30a
100
AcDbEntity
8
1
100
AcDbLine
6
CONTINUOUS
62
5
10
46.850000
20
-140.800000
11
46.850000
21
-137.499999
0
ARC
5
30b
100
AcDbEntity
8
1
100
AcDbCircle
6
CONTINUOUS
62
5
10
46.350000
20
-137.499999
40
0.500000
100
AcDbArc
50
0.000000
51
89.999999
0
LINE
5
30c
100
AcDbEntity
8
1
100
AcDbLine
6
CONTINUOUS
62
5
10
46.350000
20
-136.999999
11
40.850000
21
-136.999999
0
ARC
5
30d
100
AcDbEntity
8
1
100
AcDbCircle
6
CONTINUOUS
62
5
10
40.850000
20
-137.499999
40
0.500000
100
AcDbArc
50
89.999999
51
179.999998
0
LINE
5
30e
100
AcDbEntity
8
1
100
AcDbLine
6
CONTINUOUS
62
5
10
40.350000
20
-137.499999
11
40.350000
21
-140.800000
0
ARC
5
30f
100
AcDbEntity
8
1
100
AcDbCircle
6
CONTINUOUS
62
5
10
40.850000
20
-140.800000
40
0.500000
100
AcDbArc
50
179.999998
51
-89.999999
0
LINE
5
310
100
AcDbEntity
8
1
100
AcDbLine
6
CONTINUOUS
62
5
10
40.850000
20
-141.300000
11
41.350000
21
-141.300000
0
LINE
5
311
100
AcDbEntity
8
1
100
AcDbLine
6
CONTINUOUS
62
5
10
42.350000
20
-141.300000
11
44.850000
21
-141.300000
0
LINE
5
312
100
AcDbEntity
8
1
100
AcDbLine
6
CONTINUOUS
62
5
10
45.850000
20
-141.300000
11
46.350000
21
-141.300000
0
LINE
5
313
100
AcDbEntity
8
1
100
AcDbLine
6
CONTINUOUS
62
5
10
41.423077
20
-139.100000
11
45.776923
21
-139.100000
0
LINE
5
314
100
AcDbEntity
8
1
100
AcDbLine
6
CONTINUOUS
62
5
10
45.750000
20
-140.800000
11
41.450000
21
-140.800000
0
LINE
5
315
100
AcDbEntity
8
1
100
AcDbLine
6
CONTINUOUS
62
5
10
45.750000
20
-139.800000
11
41.450000
21
-139.800000
0
LINE
5
316
100
AcDbEntity
8
1
100
AcDbLine
6
CONTINUOUS
62
5
10
42.350000
20
-141.700000
11
44.850000
21
-141.700000
0
ARC
5
317
100
AcDbEntity
8
1
100
AcDbCircle
6
CONTINUOUS
62
5
10
59.100000
20
-147.200000
40
1.000000
100
AcDbArc
50
-89.999999
51
-0.000000
0
LINE
5
318
100
AcDbEntity
8
1
100
AcDbLine
6
CONTINUOUS
62
5
10
60.100000
20
-147.200000
11
60.100000
21
-145.700000
0
LINE
5
319
100
AcDbEntity
8
1
100
AcDbLine
6
CONTINUOUS
62
5
10
51.600000
20
-148.200000
11
59.100000
21
-148.200000
0
LINE
5
31a
100
AcDbEntity
8
1
100
AcDbLine
6
CONTINUOUS
62
5
10
44.600000
20
-152.000000
11
44.600000
21
-151.600000
0
LINE
5
31b
100
AcDbEntity
8
1
100
AcDbLine
6
CONTINUOUS
62
5
10
42.600000
20
-152.000000
11
42.600000
21
-151.600000
0
ARC
5
31c
100
AcDbEntity
8
1
100
AcDbCircle
6
CONTINUOUS
62
5
10
45.200000
20
-151.200000
40
0.900000
100
AcDbArc
50
0.000000
51
89.999999
0
LINE
5
31d
100
AcDbEntity
8
1
100
AcDbLine
6
CONTINUOUS
62
5
10
46.100000
20
-151.200000
11
46.100000
21
-152.000000
0
LINE
5
31e
100
AcDbEntity
8
1
100
AcDbLine
6
CONTINUOUS
62
5
10
41.100000
20
-152.000000
11
41.100000
21
-151.200000
0
ARC
5
31f
100
AcDbEntity
8
1
100
AcDbCircle
6
CONTINUOUS
62
5
10
42.000000
20
-151.200000
40
0.900000
100
AcDbArc
50
89.999999
51
179.999998
0
LINE
5
320
100
AcDbEntity
8
1
100
AcDbLine
6
CONTINUOUS
62
5
10
42.000000
20
-150.300000
11
45.200000
21
-150.300000
0
LINE
5
321
100
AcDbEntity
8
1
100
AcDbLine
6
CONTINUOUS
62
5
10
42.600000
20
-151.600000
11
44.600000
21
-151.600000
0
ARC
5
322
100
AcDbEntity
8
1
100
AcDbCircle
6
CONTINUOUS
62
5
10
74.100000
20
-147.200000
40
1.000000
100
AcDbArc
50
179.999998
51
-89.999999
0
LINE
5
323
100
AcDbEntity
8
1
100
AcDbLine
6
CONTINUOUS
62
5
10
74.100000
20
-148.200000
11
81.600000
21
-148.200000
0
LINE
5
324
100
AcDbEntity
8
1
100
AcDbLine
6
CONTINUOUS
62
5
10
73.100000
20
-145.700000
11
73.100000
21
-147.200000
0
ARC
5
325
100
AcDbEntity
8
1
100
AcDbCircle
6
CONTINUOUS
62
5
10
28.100000
20
-147.200000
40
1.000000
100
AcDbArc
50
179.999998
51
-89.999999
0
LINE
5
326
100
AcDbEntity
8
1
100
AcDbLine
6
CONTINUOUS
62
5
10
28.100000
20
-148.200000
11
35.600000
21
-148.200000
0
LINE
5
327
100
AcDbEntity
8
1
100
AcDbLine
6
CONTINUOUS
62
5
10
27.100000
20
-145.700000
11
27.100000
21
-147.200000
0
ARC
5
328
100
AcDbEntity
8
1
100
AcDbCircle
6
CONTINUOUS
62
5
10
13.100000
20
-147.200000
40
1.000000
100
AcDbArc
50
-89.999999
51
-0.000000
0
LINE
5
329
100
AcDbEntity
8
1
100
AcDbLine
6
CONTINUOUS
62
5
10
14.100000
20
-147.200000
11
14.100000
21
-145.700000
0
LINE
5
32a
100
AcDbEntity
8
1
100
AcDbLine
6
CONTINUOUS
62
5
10
5.600000
20
-148.200000
11
13.100000
21
-148.200000
0
CIRCLE
5
32b
100
AcDbEntity
8
1
100
AcDbCircle
6
CONTINUOUS
62
5
10
20.600000
20
-139.500000
40
1.300000
0
CIRCLE
5
32c
100
AcDbEntity
8
1
100
AcDbCircle
6
CONTINUOUS
62
5
10
20.600000
20
-139.500000
40
3.000000
0
ARC
5
32d
100
AcDbEntity
8
1
100
AcDbCircle
6
CONTINUOUS
62
5
10
23.600000
20
-137.000000
40
1.500000
100
AcDbArc
50
0.000000
51
89.999999
0
POLYLINE
5
32e
100
AcDbEntity
8
1
6
CONTINUOUS
62
5
100
AcDb2dPolyline
66
1
10
0.0
20
0.0
30
0.0
70
0
0
VERTEX
5
32f
100
AcDbEntity
8
1
100
AcDbVertex
100
AcDb2dVertex
62
5
10
25.100000
20
-137.000000
0
VERTEX
5
330
100
AcDbEntity
8
1
100
AcDbVertex
100
AcDb2dVertex
62
5
10
25.100000
20
-137.000000
0
VERTEX
5
331
100
AcDbEntity
8
1
100
AcDbVertex
100
AcDb2dVertex
62
5
10
25.100000
20
-142.000000
0
SEQEND
5
332
100
AcDbEntity
8
1
0
ARC
5
333
100
AcDbEntity
8
1
100
AcDbCircle
6
CONTINUOUS
62
5
10
23.600000
20
-142.000000
40
1.500000
100
AcDbArc
50
-89.999999
51
-0.000000
0
POLYLINE
5
334
100
AcDbEntity
8
1
6
CONTINUOUS
62
5
100
AcDb2dPolyline
66
1
10
0.0
20
0.0
30
0.0
70
0
0
VERTEX
5
335
100
AcDbEntity
8
1
100
AcDbVertex
100
AcDb2dVertex
62
5
10
23.600000
20
-143.500000
0
VERTEX
5
336
100
AcDbEntity
8
1
100
AcDbVertex
100
AcDb2dVertex
62
5
10
23.600000
20
-143.500000
0
VERTEX
5
337
100
AcDbEntity
8
1
100
AcDbVertex
100
AcDb2dVertex
62
5
10
17.600000
20
-143.500000
0
SEQEND
5
338
100
AcDbEntity
8
1
0
ARC
5
339
100
AcDbEntity
8
1
100
AcDbCircle
6
CONTINUOUS
62
5
10
17.600000
20
-142.000000
40
1.500000
100
AcDbArc
50
179.999998
51
-89.999999
0
POLYLINE
5
33a
100
AcDbEntity
8
1
6
CONTINUOUS
62
5
100
AcDb2dPolyline
66
1
10
0.0
20
0.0
30
0.0
70
0
0
VERTEX
5
33b
100
AcDbEntity
8
1
100
AcDbVertex
100
AcDb2dVertex
62
5
10
16.100000
20
-142.000000
0
VERTEX
5
33c
100
AcDbEntity
8
1
100
AcDbVertex
100
AcDb2dVertex
62
5
10
16.100000
20
-142.000000
0
VERTEX
5
33d
100
AcDbEntity
8
1
100
AcDbVertex
100
AcDb2dVertex
62
5
10
16.100000
20
-137.000000
0
SEQEND
5
33e
100
AcDbEntity
8
1
0
ARC
5
33f
100
AcDbEntity
8
1
100
AcDbCircle
6
CONTINUOUS
62
5
10
17.600000
20
-137.000000
40
1.500000
100
AcDbArc
50
89.999999
51
-179.999998
0
LINE
5
340
100
AcDbEntity
8
1
100
AcDbLine
6
CONTINUOUS
62
5
10
17.600000
20
-135.500000
11
17.600000
21
-135.500000
0
LINE
5
341
100
AcDbEntity
8
1
100
AcDbLine
6
CONTINUOUS
62
5
10
17.600000
20
-135.500000
11
23.600000
21
-135.500000
0
ARC
5
342
100
AcDbEntity
8
1
100
AcDbCircle
6
CONTINUOUS
62
5
10
23.600000
20
-137.000000
40
1.000000
100
AcDbArc
50
0.000000
51
89.999999
0
LINE
5
343
100
AcDbEntity
8
1
100
AcDbLine
6
CONTINUOUS
62
5
10
24.600000
20
-137.000000
11
24.600000
21
-142.000000
0
ARC
5
344
100
AcDbEntity
8
1
100
AcDbCircle
6
CONTINUOUS
62
5
10
23.600000
20
-142.000000
40
1.000000
100
AcDbArc
50
-89.999999
51
0.000000
0
LINE
5
345
100
AcDbEntity
8
1
100
AcDbLine
6
CONTINUOUS
62
5
10
23.600000
20
-143.000000
11
17.600000
21
-143.000000
0
ARC
5
346
100
AcDbEntity
8
1
100
AcDbCircle
6
CONTINUOUS
62
5
10
17.600000
20
-142.000000
40
1.000000
100
AcDbArc
50
179.999998
51
-89.999999
0
LINE
5
347
100
AcDbEntity
8
1
100
AcDbLine
6
CONTINUOUS
62
5
10
16.600000
20
-142.000000
11
16.600000
21
-137.000000
0
ARC
5
348
100
AcDbEntity
8
1
100
AcDbCircle
6
CONTINUOUS
62
5
10
17.600000
20
-137.000000
40
1.000000
100
AcDbArc
50
89.999999
51
179.999998
0
LINE
5
349
100
AcDbEntity
8
1
100
AcDbLine
6
CONTINUOUS
62
5
10
17.600000
20
-136.000000
11
23.600000
21
-136.000000
0
ARC
5
34a
100
AcDbEntity
8
1
100
AcDbCircle
6
CONTINUOUS
62
5
10
-2.600000
20
-137.000000
40
0.500000
100
AcDbArc
50
0.000000
51
89.999999
0
LINE
5
34b
100
AcDbEntity
8
1
100
AcDbLine
6
CONTINUOUS
62
5
10
-2.600000
20
-136.500000
11
-4.700002
21
-136.500000
0
ARC
5
34c
100
AcDbEntity
8
1
100
AcDbCircle
6
CONTINUOUS
62
5
10
-4.700002
20
-137.500000
40
1.000000
100
AcDbArc
50
89.999999
51
179.999998
0
LINE
5
34d
100
AcDbEntity
8
1
100
AcDbLine
6
CONTINUOUS
62
5
10
-5.700002
20
-137.500000
11
-5.700002
21
-137.500000
0
LINE
5
34e
100
AcDbEntity
8
1
100
AcDbLine
6
CONTINUOUS
62
5
10
-2.100000
20
-137.100000
11
-2.100000
21
-137.000000
0
ARC
5
34f
100
AcDbEntity
8
1
100
AcDbCircle
6
CONTINUOUS
62
5
10
-5.200002
20
-142.000000
40
0.500000
100
AcDbArc
50
-179.999998
51
-89.999786
0
LINE
5
350
100
AcDbEntity
8
1
100
AcDbLine
6
CONTINUOUS
62
5
10
-5.700002
20
-142.000000
11
-5.700002
21
-135.560406
0
ARC
5
351
100
AcDbEntity
8
1
100
AcDbCircle
6
CONTINUOUS
62
5
10
-6.700002
20
-135.560406
40
1.000000
100
AcDbArc
50
0.000000
51
117.387130
0
ARC
5
352
100
AcDbEntity
8
1
100
AcDbCircle
6
CONTINUOUS
62
5
10
-4.400000
20
-140.000000
40
6.000000
100
AcDbArc
50
117.387130
51
131.568641
0
LINE
5
353
100
AcDbEntity
8
1
100
AcDbLine
6
CONTINUOUS
62
5
10
-3.200001
20
-142.500000
11
-5.200000
21
-142.500000
0
LINE
5
354
100
AcDbEntity
8
1
100
AcDbLine
6
CONTINUOUS
62
5
10
-8.300000
20
-154.500000
11
-8.300000
21
-162.500000
0
LINE
5
355
100
AcDbEntity
8
1
100
AcDbLine
6
CONTINUOUS
62
5
10
-8.300000
20
-162.500000
11
-8.300000
21
-154.500000
0
POLYLINE
5
356
100
AcDbEntity
8
1
6
CONTINUOUS
62
5
100
AcDb2dPolyline
66
1
10
0.0
20
0.0
30
0.0
70
0
0
VERTEX
5
357
100
AcDbEntity
8
1
100
AcDbVertex
100
AcDb2dVertex
62
5
10
-9.200000
20
-154.500000
0
VERTEX
5
358
100
AcDbEntity
8
1
100
AcDbVertex
100
AcDb2dVertex
62
5
10
-6.400000
20
-154.500000
0
VERTEX
5
359
100
AcDbEntity
8
1
100
AcDbVertex
100
AcDb2dVertex
62
5
10
-6.400000
20
-162.500000
0
VERTEX
5
35a
100
AcDbEntity
8
1
100
AcDbVertex
100
AcDb2dVertex
62
5
10
-9.200000
20
-162.500000
0
SEQEND
5
35b
100
AcDbEntity
8
1
0
LINE
5
35c
100
AcDbEntity
8
1
100
AcDbLine
6
CONTINUOUS
62
5
10
-9.100000
20
-162.500000
11
-9.100000
21
-154.500000
0
LINE
5
35d
100
AcDbEntity
8
1
100
AcDbLine
6
CONTINUOUS
62
5
10
-9.200000
20
-154.500000
11
-9.200000
21
-162.500000
0
LINE
5
35e
100
AcDbEntity
8
1
100
AcDbLine
6
CONTINUOUS
62
5
10
-1.400000
20
-151.600000
11
-3.400000
21
-151.600000
0
LINE
5
35f
100
AcDbEntity
8
1
100
AcDbLine
6
CONTINUOUS
62
5
10
-3.400000
20
-152.000000
11
-3.400000
21
-151.600000
0
LINE
5
360
100
AcDbEntity
8
1
100
AcDbLine
6
CONTINUOUS
62
5
10
-1.400000
20
-152.000000
11
-1.400000
21
-151.600000
0
ARC
5
361
100
AcDbEntity
8
1
100
AcDbCircle
6
CONTINUOUS
62
5
10
-0.800000
20
-151.200000
40
0.900000
100
AcDbArc
50
-0.000000
51
89.999999
0
LINE
5
362
100
AcDbEntity
8
1
100
AcDbLine
6
CONTINUOUS
62
5
10
0.100000
20
-151.200000
11
0.100000
21
-152.000000
0
LINE
5
363
100
AcDbEntity
8
1
100
AcDbLine
6
CONTINUOUS
62
5
10
-4.900000
20
-150.300000
11
-0.800000
21
-150.300000
0
ARC
5
364
100
AcDbEntity
8
1
100
AcDbCircle
6
CONTINUOUS
62
5
10
-2.700001
20
-137.642154
40
0.500000
100
AcDbArc
50
89.999999
51
-179.999998
0
POLYLINE
5
365
100
AcDbEntity
8
1
6
CONTINUOUS
62
5
100
AcDb2dPolyline
66
1
10
0.0
20
0.0
30
0.0
70
0
0
VERTEX
5
366
100
AcDbEntity
8
1
100
AcDbVertex
100
AcDb2dVertex
62
5
10
-3.200001
20
-137.642154
0
VERTEX
5
367
100
AcDbEntity
8
1
100
AcDbVertex
100
AcDb2dVertex
62
5
10
-3.200001
20
-142.645455
0
VERTEX
5
368
100
AcDbEntity
8
1
100
AcDbVertex
100
AcDb2dVertex
62
5
10
-2.500001
20
-142.900000
0
SEQEND
5
369
100
AcDbEntity
8
1
0
LINE
5
36a
100
AcDbEntity
8
1
100
AcDbLine
6
CONTINUOUS
62
5
10
-4.900000
20
-153.500000
11
-4.900000
21
-146.715504
0
ARC
5
36b
100
AcDbEntity
8
1
100
AcDbCircle
6
CONTINUOUS
62
5
10
-3.900000
20
-146.715504
40
1.000000
100
AcDbArc
50
108.824694
51
-179.999998
0
LINE
5
36c
100
AcDbEntity
8
1
100
AcDbLine
6
CONTINUOUS
62
5
10
-4.222674
20
-145.768994
11
-1.854649
21
-144.961713
0
ARC
5
36d
100
AcDbEntity
8
1
100
AcDbCircle
6
CONTINUOUS
62
5
10
-2.499996
20
-143.068692
40
2.000000
100
AcDbArc
50
-71.175304
51
0.000000
0
LINE
5
36e
100
AcDbEntity
8
1
100
AcDbLine
6
CONTINUOUS
62
5
10
-0.499996
20
-143.068692
11
-0.499996
21
-138.100000
0
ARC
5
36f
100
AcDbEntity
8
1
100
AcDbCircle
6
CONTINUOUS
62
5
10
-1.499996
20
-138.100000
40
1.000000
100
AcDbArc
50
0.000000
51
89.999999
0
POLYLINE
5
370
100
AcDbEntity
8
1
6
CONTINUOUS
62
5
100
AcDb2dPolyline
66
1
10
0.0
20
0.0
30
0.0
70
0
0
VERTEX
5
371
100
AcDbEntity
8
1
100
AcDbVertex
100
AcDb2dVertex
62
5
10
-1.499996
20
-137.100000
0
VERTEX
5
372
100
AcDbEntity
8
1
100
AcDbVertex
100
AcDb2dVertex
62
5
10
-2.100000
20
-137.100000
0
VERTEX
5
373
100
AcDbEntity
8
1
100
AcDbVertex
100
AcDb2dVertex
62
5
10
-2.100000
20
-137.142154
0
VERTEX
5
374
100
AcDbEntity
8
1
100
AcDbVertex
100
AcDb2dVertex
62
5
10
-2.700001
20
-137.142154
0
SEQEND
5
375
100
AcDbEntity
8
1
0
ARC
5
376
100
AcDbEntity
8
1
100
AcDbCircle
6
CONTINUOUS
62
5
10
46.350000
20
-140.800000
40
1.000000
100
AcDbArc
50
-89.999999
51
0.000000
0
LINE
5
377
100
AcDbEntity
8
1
100
AcDbLine
6
CONTINUOUS
62
5
10
47.350000
20
-140.800000
11
47.350000
21
-137.499999
0
ARC
5
378
100
AcDbEntity
8
1
100
AcDbCircle
6
CONTINUOUS
62
5
10
46.350000
20
-137.499999
40
1.000000
100
AcDbArc
50
0.000000
51
89.999999
0
POLYLINE
5
379
100
AcDbEntity
8
1
6
CONTINUOUS
62
5
100
AcDb2dPolyline
66
1
10
0.0
20
0.0
30
0.0
70
0
0
VERTEX
5
37a
100
AcDbEntity
8
1
100
AcDbVertex
100
AcDb2dVertex
62
5
10
46.350000
20
-136.499999
0
VERTEX
5
37b
100
AcDbEntity
8
1
100
AcDbVertex
100
AcDb2dVertex
62
5
10
46.350000
20
-136.499999
0
VERTEX
5
37c
100
AcDbEntity
8
1
100
AcDbVertex
100
AcDb2dVertex
62
5
10
40.850000
20
-136.499999
0
SEQEND
5
37d
100
AcDbEntity
8
1
0
ARC
5
37e
100
AcDbEntity
8
1
100
AcDbCircle
6
CONTINUOUS
62
5
10
40.850000
20
-137.499999
40
1.000000
100
AcDbArc
50
89.999999
51
179.999998
0
POLYLINE
5
37f
100
AcDbEntity
8
1
6
CONTINUOUS
62
5
100
AcDb2dPolyline
66
1
10
0.0
20
0.0
30
0.0
70
0
0
VERTEX
5
380
100
AcDbEntity
8
1
100
AcDbVertex
100
AcDb2dVertex
62
5
10
39.850000
20
-137.499999
0
VERTEX
5
381
100
AcDbEntity
8
1
100
AcDbVertex
100
AcDb2dVertex
62
5
10
39.850000
20
-137.499999
0
VERTEX
5
382
100
AcDbEntity
8
1
100
AcDbVertex
100
AcDb2dVertex
62
5
10
39.850000
20
-140.800000
0
SEQEND
5
383
100
AcDbEntity
8
1
0
ARC
5
384
100
AcDbEntity
8
1
100
AcDbCircle
6
CONTINUOUS
62
5
10
40.850000
20
-140.800000
40
1.000000
100
AcDbArc
50
179.999998
51
-89.999999
0
LINE
5
385
100
AcDbEntity
8
1
100
AcDbLine
6
CONTINUOUS
62
5
10
40.850000
20
-141.800000
11
41.350000
21
-141.800000
0
LINE
5
386
100
AcDbEntity
8
1
100
AcDbLine
6
CONTINUOUS
62
5
10
42.350000
20
-141.800000
11
44.850000
21
-141.800000
0
LINE
5
387
100
AcDbEntity
8
1
100
AcDbLine
6
CONTINUOUS
62
5
10
45.850000
20
-141.800000
11
46.350000
21
-141.800000
0
LINE
5
388
100
AcDbEntity
8
1
100
AcDbLine
6
CONTINUOUS
62
5
10
-11.600000
20
-143.907422
11
-11.600000
21
-107.000000
0
LINE
5
389
100
AcDbEntity
8
1
100
AcDbLine
6
CONTINUOUS
62
5
10
190.800000
20
-143.907422
11
190.800000
21
-107.000000
0
POLYLINE
5
38a
100
AcDbEntity
8
1
6
CONTINUOUS
62
5
100
AcDb2dPolyline
66
1
10
0.0
20
0.0
30
0.0
70
0
0
VERTEX
5
38b
100
AcDbEntity
8
1
100
AcDbVertex
100
AcDb2dVertex
62
5
10
89.600000
20
-109.000000
0
VERTEX
5
38c
100
AcDbEntity
8
1
100
AcDbVertex
100
AcDb2dVertex
62
5
10
-11.600000
20
-109.000000
0
VERTEX
5
38d
100
AcDbEntity
8
1
100
AcDbVertex
100
AcDb2dVertex
62
5
10
-5.600000
20
-108.000000
0
VERTEX
5
38e
100
AcDbEntity
8
1
100
AcDbVertex
100
AcDb2dVertex
62
5
10
-5.600000
20
-110.000000
0
VERTEX
5
38f
100
AcDbEntity
8
1
100
AcDbVertex
100
AcDb2dVertex
62
5
10
-11.600000
20
-109.000000
0
VERTEX
5
390
100
AcDbEntity
8
1
100
AcDbVertex
100
AcDb2dVertex
62
5
10
-5.600000
20
-108.500000
0
VERTEX
5
391
100
AcDbEntity
8
1
100
AcDbVertex
100
AcDb2dVertex
62
5
10
-5.600000
20
-109.500000
0
VERTEX
5
392
100
AcDbEntity
8
1
100
AcDbVertex
100
AcDb2dVertex
62
5
10
-11.600000
20
-109.000000
0
SEQEND
5
393
100
AcDbEntity
8
1
0
POLYLINE
5
394
100
AcDbEntity
8
1
6
CONTINUOUS
62
5
100
AcDb2dPolyline
66
1
10
0.0
20
0.0
30
0.0
70
0
0
VERTEX
5
395
100
AcDbEntity
8
1
100
AcDbVertex
100
AcDb2dVertex
62
5
10
89.600000
20
-109.000000
0
VERTEX
5
396
100
AcDbEntity
8
1
100
AcDbVertex
100
AcDb2dVertex
62
5
10
190.800000
20
-109.000000
0
VERTEX
5
397
100
AcDbEntity
8
1
100
AcDbVertex
100
AcDb2dVertex
62
5
10
184.800000
20
-110.000000
0
VERTEX
5
398
100
AcDbEntity
8
1
100
AcDbVertex
100
AcDb2dVertex
62
5
10
184.800000
20
-108.000000
0
VERTEX
5
399
100
AcDbEntity
8
1
100
AcDbVertex
100
AcDb2dVertex
62
5
10
190.800000
20
-109.000000
0
VERTEX
5
39a
100
AcDbEntity
8
1
100
AcDbVertex
100
AcDb2dVertex
62
5
10
184.800000
20
-109.500000
0
VERTEX
5
39b
100
AcDbEntity
8
1
100
AcDbVertex
100
AcDb2dVertex
62
5
10
184.800000
20
-108.500000
0
VERTEX
5
39c
100
AcDbEntity
8
1
100
AcDbVertex
100
AcDb2dVertex
62
5
10
190.800000
20
-109.000000
0
SEQEND
5
39d
100
AcDbEntity
8
1
0
ARC
5
39e
100
AcDbEntity
8
1
100
AcDbCircle
6
CONTINUOUS
62
5
10
120.100000
20
-147.200000
40
1.000000
100
AcDbArc
50
179.999998
51
-89.999999
0
LINE
5
39f
100
AcDbEntity
8
1
100
AcDbLine
6
CONTINUOUS
62
5
10
120.100000
20
-148.200000
11
127.600000
21
-148.200000
0
LINE
5
3a0
100
AcDbEntity
8
1
100
AcDbLine
6
CONTINUOUS
62
5
10
119.100000
20
-145.700000
11
119.100000
21
-147.200000
0
LINE
5
3a1
100
AcDbEntity
8
1
100
AcDbLine
6
CONTINUOUS
62
5
10
-40.000000
20
-32.000000
11
280.000000
21
-32.000000
0
POLYLINE
5
3a2
100
AcDbEntity
8
1
6
DOT2
62
5
100
AcDb2dPolyline
66
1
10
0.0
20
0.0
30
0.0
70
0
0
VERTEX
5
3a3
100
AcDbEntity
8
1
100
AcDbVertex
100
AcDb2dVertex
62
5
10
207.675000
20
-190.625000
0
VERTEX
5
3a4
100
AcDbEntity
8
1
100
AcDbVertex
100
AcDb2dVertex
62
5
10
207.050000
20
-189.687500
0
VERTEX
5
3a5
100
AcDbEntity
8
1
100
AcDbVertex
100
AcDb2dVertex
62
5
10
214.550000
20
-189.687500
0
SEQEND
5
3a6
100
AcDbEntity
8
1
0
LINE
5
3a7
100
AcDbEntity
8
1
100
AcDbLine
6
DOT2
62
5
10
214.550000
20
-190.312500
11
214.550000
21
-189.062500
0
POLYLINE
5
3a8
100
AcDbEntity
8
1
6
DOT2
62
5
100
AcDb2dPolyline
66
1
10
0.0
20
0.0
30
0.0
70
0
0
VERTEX
5
3a9
100
AcDbEntity
8
1
100
AcDbVertex
100
AcDb2dVertex
62
5
10
209.237500
20
-186.250000
0
VERTEX
5
3aa
100
AcDbEntity
8
1
100
AcDbVertex
100
AcDb2dVertex
62
5
10
207.675000
20
-185.937500
0
VERTEX
5
3ab
100
AcDbEntity
8
1
100
AcDbVertex
100
AcDb2dVertex
62
5
10
207.050000
20
-185.000000
0
VERTEX
5
3ac
100
AcDbEntity
8
1
100
AcDbVertex
100
AcDb2dVertex
62
5
10
207.050000
20
-184.062500
0
VERTEX
5
3ad
100
AcDbEntity
8
1
100
AcDbVertex
100
AcDb2dVertex
62
5
10
207.362500
20
-183.437500
0
VERTEX
5
3ae
100
AcDbEntity
8
1
100
AcDbVertex
100
AcDb2dVertex
62
5
10
208.300000
20
-183.125000
0
VERTEX
5
3af
100
AcDbEntity
8
1
100
AcDbVertex
100
AcDb2dVertex
62
5
10
209.237500
20
-183.125000
0
VERTEX
5
3b0
100
AcDbEntity
8
1
100
AcDbVertex
100
AcDb2dVertex
62
5
10
210.175000
20
-183.437500
0
VERTEX
5
3b1
100
AcDbEntity
8
1
100
AcDbVertex
100
AcDb2dVertex
62
5
10
214.550000
20
-186.250000
0
VERTEX
5
3b2
100
AcDbEntity
8
1
100
AcDbVertex
100
AcDb2dVertex
62
5
10
214.550000
20
-183.125000
0
VERTEX
5
3b3
100
AcDbEntity
8
1
100
AcDbVertex
100
AcDb2dVertex
62
5
10
213.612500
20
-183.125000
0
SEQEND
5
3b4
100
AcDbEntity
8
1
0
POLYLINE
5
3b5
100
AcDbEntity
8
1
6
DOT2
62
5
100
AcDb2dPolyline
66
1
10
0.0
20
0.0
30
0.0
70
0
0
VERTEX
5
3b6
100
AcDbEntity
8
1
100
AcDbVertex
100
AcDb2dVertex
62
5
10
207.675000
20
-195.625000
0
VERTEX
5
3b7
100
AcDbEntity
8
1
100
AcDbVertex
100
AcDb2dVertex
62
5
10
207.050000
20
-194.687500
0
VERTEX
5
3b8
100
AcDbEntity
8
1
100
AcDbVertex
100
AcDb2dVertex
62
5
10
214.550000
20
-194.687500
0
SEQEND
5
3b9
100
AcDbEntity
8
1
0
LINE
5
3ba
100
AcDbEntity
8
1
100
AcDbLine
6
DOT2
62
5
10
214.550000
20
-195.312500
11
214.550000
21
-194.062500
0
ARC
5
3bb
100
AcDbEntity
8
1
100
AcDbCircle
6
CONTINUOUS
62
5
10
246.300000
20
-237.000000
40
0.500000
100
AcDbArc
50
179.999998
51
-89.999999
0
LINE
5
3bc
100
AcDbEntity
8
1
100
AcDbLine
6
CONTINUOUS
62
5
10
246.300000
20
-237.500000
11
251.600000
21
-237.500000
0
ARC
5
3bd
100
AcDbEntity
8
1
100
AcDbCircle
6
CONTINUOUS
62
5
10
245.900000
20
-239.700000
40
0.500000
100
AcDbArc
50
101.536957
51
-179.999998
0
ARC
5
3be
100
AcDbEntity
8
1
100
AcDbCircle
6
CONTINUOUS
62
5
10
245.900000
20
-241.300000
40
0.500000
100
AcDbArc
50
179.999998
51
-101.536957
0
LINE
5
3bf
100
AcDbEntity
8
1
100
AcDbLine
6
CONTINUOUS
62
5
10
245.400000
20
-241.300000
11
245.400000
21
-239.700000
0
LINE
5
3c0
100
AcDbEntity
8
1
100
AcDbLine
6
CONTINUOUS
62
5
10
187.500000
20
-225.500000
11
187.500000
21
-217.500000
0
LINE
5
3c1
100
AcDbEntity
8
1
100
AcDbLine
6
CONTINUOUS
62
5
10
187.500000
20
-217.500000
11
187.500000
21
-225.500000
0
POLYLINE
5
3c2
100
AcDbEntity
8
1
6
CONTINUOUS
62
5
100
AcDb2dPolyline
66
1
10
0.0
20
0.0
30
0.0
70
0
0
VERTEX
5
3c3
100
AcDbEntity
8
1
100
AcDbVertex
100
AcDb2dVertex
62
5
10
188.400000
20
-217.500000
0
VERTEX
5
3c4
100
AcDbEntity
8
1
100
AcDbVertex
100
AcDb2dVertex
62
5
10
185.600000
20
-217.500000
0
VERTEX
5
3c5
100
AcDbEntity
8
1
100
AcDbVertex
100
AcDb2dVertex
62
5
10
185.600000
20
-225.500000
0
VERTEX
5
3c6
100
AcDbEntity
8
1
100
AcDbVertex
100
AcDb2dVertex
62
5
10
188.400000
20
-225.500000
0
SEQEND
5
3c7
100
AcDbEntity
8
1
0
LINE
5
3c8
100
AcDbEntity
8
1
100
AcDbLine
6
CONTINUOUS
62
5
10
188.300000
20
-225.500000
11
188.300000
21
-217.500000
0
LINE
5
3c9
100
AcDbEntity
8
1
100
AcDbLine
6
CONTINUOUS
62
5
10
188.400000
20
-217.500000
11
188.400000
21
-225.500000
0
LINE
5
3ca
100
AcDbEntity
8
1
100
AcDbLine
6
CONTINUOUS
62
5
10
182.600000
20
-228.000000
11
182.600000
21
-228.400000
0
LINE
5
3cb
100
AcDbEntity
8
1
100
AcDbLine
6
CONTINUOUS
62
5
10
180.600000
20
-228.400000
11
182.600000
21
-228.400000
0
LINE
5
3cc
100
AcDbEntity
8
1
100
AcDbLine
6
CONTINUOUS
62
5
10
180.600000
20
-228.000000
11
180.600000
21
-228.400000
0
ARC
5
3cd
100
AcDbEntity
8
1
100
AcDbCircle
6
CONTINUOUS
62
5
10
180.000000
20
-228.800000
40
0.900000
100
AcDbArc
50
-179.999998
51
-89.999999
0
LINE
5
3ce
100
AcDbEntity
8
1
100
AcDbLine
6
CONTINUOUS
62
5
10
179.100000
20
-228.800000
11
179.100000
21
-228.000000
0
LINE
5
3cf
100
AcDbEntity
8
1
100
AcDbLine
6
CONTINUOUS
62
5
10
184.100000
20
-229.700000
11
180.000000
21
-229.700000
0
ARC
5
3d0
100
AcDbEntity
8
1
100
AcDbCircle
6
CONTINUOUS
62
5
10
184.400002
20
-238.000000
40
0.500000
100
AcDbArc
50
0.000000
51
90.000212
0
LINE
5
3d1
100
AcDbEntity
8
1
100
AcDbLine
6
CONTINUOUS
62
5
10
184.900002
20
-238.000000
11
184.900002
21
-244.439594
0
ARC
5
3d2
100
AcDbEntity
8
1
100
AcDbCircle
6
CONTINUOUS
62
5
10
185.900002
20
-244.439594
40
1.000000
100
AcDbArc
50
-179.999998
51
-62.612868
0
ARC
5
3d3
100
AcDbEntity
8
1
100
AcDbCircle
6
CONTINUOUS
62
5
10
183.600000
20
-240.000000
40
6.000000
100
AcDbArc
50
-62.612868
51
-48.431357
0
LINE
5
3d4
100
AcDbEntity
8
1
100
AcDbLine
6
CONTINUOUS
62
5
10
182.400001
20
-237.500000
11
184.400000
21
-237.500000
0
ARC
5
3d5
100
AcDbEntity
8
1
100
AcDbCircle
6
CONTINUOUS
62
5
10
181.800000
20
-243.000000
40
0.500000
100
AcDbArc
50
179.999998
51
-89.999999
0
LINE
5
3d6
100
AcDbEntity
8
1
100
AcDbLine
6
CONTINUOUS
62
5
10
181.800000
20
-243.500000
11
183.900002
21
-243.500000
0
ARC
5
3d7
100
AcDbEntity
8
1
100
AcDbCircle
6
CONTINUOUS
62
5
10
183.900002
20
-242.500000
40
1.000000
100
AcDbArc
50
-89.999999
51
0.000000
0
LINE
5
3d8
100
AcDbEntity
8
1
100
AcDbLine
6
CONTINUOUS
62
5
10
184.900002
20
-242.500000
11
184.900002
21
-242.500000
0
LINE
5
3d9
100
AcDbEntity
8
1
100
AcDbLine
6
CONTINUOUS
62
5
10
181.300000
20
-242.900000
11
181.300000
21
-243.000000
0
ARC
5
3da
100
AcDbEntity
8
1
100
AcDbCircle
6
CONTINUOUS
62
5
10
166.100000
20
-232.800000
40
1.000000
100
AcDbArc
50
89.999999
51
-179.999998
0
LINE
5
3db
100
AcDbEntity
8
1
100
AcDbLine
6
CONTINUOUS
62
5
10
166.100000
20
-231.800000
11
173.600000
21
-231.800000
0
LINE
5
3dc
100
AcDbEntity
8
1
100
AcDbLine
6
CONTINUOUS
62
5
10
165.100000
20
-234.300000
11
165.100000
21
-232.800000
0
ARC
5
3dd
100
AcDbEntity
8
1
100
AcDbCircle
6
CONTINUOUS
62
5
10
181.900001
20
-242.357846
40
0.500000
100
AcDbArc
50
-89.999999
51
0.000000
0
POLYLINE
5
3de
100
AcDbEntity
8
1
6
CONTINUOUS
62
5
100
AcDb2dPolyline
66
1
10
0.0
20
0.0
30
0.0
70
0
0
VERTEX
5
3df
100
AcDbEntity
8
1
100
AcDbVertex
100
AcDb2dVertex
62
5
10
182.400001
20
-242.357846
0
VERTEX
5
3e0
100
AcDbEntity
8
1
100
AcDbVertex
100
AcDb2dVertex
62
5
10
182.400001
20
-237.354545
0
VERTEX
5
3e1
100
AcDbEntity
8
1
100
AcDbVertex
100
AcDb2dVertex
62
5
10
181.700001
20
-237.100000
0
SEQEND
5
3e2
100
AcDbEntity
8
1
0
LINE
5
3e3
100
AcDbEntity
8
1
100
AcDbLine
6
CONTINUOUS
62
5
10
184.100000
20
-226.500000
11
184.100000
21
-233.284496
0
ARC
5
3e4
100
AcDbEntity
8
1
100
AcDbCircle
6
CONTINUOUS
62
5
10
183.100000
20
-233.284496
40
1.000000
100
AcDbArc
50
-71.175304
51
0.000000
0
LINE
5
3e5
100
AcDbEntity
8
1
100
AcDbLine
6
CONTINUOUS
62
5
10
183.422674
20
-234.231007
11
181.054649
21
-235.038287
0
ARC
5
3e6
100
AcDbEntity
8
1
100
AcDbCircle
6
CONTINUOUS
62
5
10
181.699996
20
-236.931308
40
2.000000
100
AcDbArc
50
108.824694
51
-179.999998
0
LINE
5
3e7
100
AcDbEntity
8
1
100
AcDbLine
6
CONTINUOUS
62
5
10
179.699996
20
-236.931308
11
179.699996
21
-241.900000
0
ARC
5
3e8
100
AcDbEntity
8
1
100
AcDbCircle
6
CONTINUOUS
62
5
10
180.699996
20
-241.900000
40
1.000000
100
AcDbArc
50
-179.999998
51
-89.999999
0
POLYLINE
5
3e9
100
AcDbEntity
8
1
6
CONTINUOUS
62
5
100
AcDb2dPolyline
66
1
10
0.0
20
0.0
30
0.0
70
0
0
VERTEX
5
3ea
100
AcDbEntity
8
1
100
AcDbVertex
100
AcDb2dVertex
62
5
10
180.699996
20
-242.900000
0
VERTEX
5
3eb
100
AcDbEntity
8
1
100
AcDbVertex
100
AcDb2dVertex
62
5
10
181.300000
20
-242.900000
0
VERTEX
5
3ec
100
AcDbEntity
8
1
100
AcDbVertex
100
AcDb2dVertex
62
5
10
181.300000
20
-242.857846
0
VERTEX
5
3ed
100
AcDbEntity
8
1
100
AcDbVertex
100
AcDb2dVertex
62
5
10
181.900001
20
-242.857846
0
SEQEND
5
3ee
100
AcDbEntity
8
1
0
LINE
5
3ef
100
AcDbEntity
8
1
100
AcDbLine
6
CONTINUOUS
62
5
10
136.600000
20
-228.400000
11
134.600000
21
-228.400000
0
LINE
5
3f0
100
AcDbEntity
8
1
100
AcDbLine
6
CONTINUOUS
62
5
10
134.600000
20
-228.000000
11
134.600000
21
-228.400000
0
LINE
5
3f1
100
AcDbEntity
8
1
100
AcDbLine
6
CONTINUOUS
62
5
10
136.600000
20
-228.000000
11
136.600000
21
-228.400000
0
ARC
5
3f2
100
AcDbEntity
8
1
100
AcDbCircle
6
CONTINUOUS
62
5
10
134.000000
20
-228.800000
40
0.900000
100
AcDbArc
50
-179.999998
51
-89.999999
0
LINE
5
3f3
100
AcDbEntity
8
1
100
AcDbLine
6
CONTINUOUS
62
5
10
133.100000
20
-228.800000
11
133.100000
21
-228.000000
0
LINE
5
3f4
100
AcDbEntity
8
1
100
AcDbLine
6
CONTINUOUS
62
5
10
138.100000
20
-228.000000
11
138.100000
21
-228.800000
0
ARC
5
3f5
100
AcDbEntity
8
1
100
AcDbCircle
6
CONTINUOUS
62
5
10
137.200000
20
-228.800000
40
0.900000
100
AcDbArc
50
-89.999999
51
0.000000
0
LINE
5
3f6
100
AcDbEntity
8
1
100
AcDbLine
6
CONTINUOUS
62
5
10
137.200000
20
-229.700000
11
134.000000
21
-229.700000
0
ARC
5
3f7
100
AcDbEntity
8
1
100
AcDbCircle
6
CONTINUOUS
62
5
10
138.350000
20
-239.200000
40
0.500000
100
AcDbArc
50
-0.000000
51
89.999999
0
LINE
5
3f8
100
AcDbEntity
8
1
100
AcDbLine
6
CONTINUOUS
62
5
10
138.850000
20
-239.200000
11
138.850000
21
-242.500001
0
ARC
5
3f9
100
AcDbEntity
8
1
100
AcDbCircle
6
CONTINUOUS
62
5
10
138.350000
20
-242.500001
40
0.500000
100
AcDbArc
50
-89.999999
51
-0.000000
0
LINE
5
3fa
100
AcDbEntity
8
1
100
AcDbLine
6
CONTINUOUS
62
5
10
138.350000
20
-243.000001
11
132.850000
21
-243.000001
0
ARC
5
3fb
100
AcDbEntity
8
1
100
AcDbCircle
6
CONTINUOUS
62
5
10
132.850000
20
-242.500001
40
0.500000
100
AcDbArc
50
179.999998
51
-89.999999
0
LINE
5
3fc
100
AcDbEntity
8
1
100
AcDbLine
6
CONTINUOUS
62
5
10
132.350000
20
-242.500001
11
132.350000
21
-239.200000
0
ARC
5
3fd
100
AcDbEntity
8
1
100
AcDbCircle
6
CONTINUOUS
62
5
10
132.850000
20
-239.200000
40
0.500000
100
AcDbArc
50
89.999999
51
179.999998
0
LINE
5
3fe
100
AcDbEntity
8
1
100
AcDbLine
6
CONTINUOUS
62
5
10
132.850000
20
-238.700000
11
133.350000
21
-238.700000
0
LINE
5
3ff
100
AcDbEntity
8
1
100
AcDbLine
6
CONTINUOUS
62
5
10
134.350000
20
-238.700000
11
136.850000
21
-238.700000
0
LINE
5
400
100
AcDbEntity
8
1
100
AcDbLine
6
CONTINUOUS
62
5
10
137.850000
20
-238.700000
11
138.350000
21
-238.700000
0
ARC
5
401
100
AcDbEntity
8
1
100
AcDbCircle
6
CONTINUOUS
62
5
10
138.350000
20
-239.200000
40
1.000000
100
AcDbArc
50
-0.000000
51
89.999999
0
LINE
5
402
100
AcDbEntity
8
1
100
AcDbLine
6
CONTINUOUS
62
5
10
139.350000
20
-239.200000
11
139.350000
21
-242.500001
0
ARC
5
403
100
AcDbEntity
8
1
100
AcDbCircle
6
CONTINUOUS
62
5
10
138.350000
20
-242.500001
40
1.000000
100
AcDbArc
50
-89.999999
51
-0.000000
0
POLYLINE
5
404
100
AcDbEntity
8
1
6
CONTINUOUS
62
5
100
AcDb2dPolyline
66
1
10
0.0
20
0.0
30
0.0
70
0
0
VERTEX
5
405
100
AcDbEntity
8
1
100
AcDbVertex
100
AcDb2dVertex
62
5
10
138.350000
20
-243.500001
0
VERTEX
5
406
100
AcDbEntity
8
1
100
AcDbVertex
100
AcDb2dVertex
62
5
10
138.350000
20
-243.500001
0
VERTEX
5
407
100
AcDbEntity
8
1
100
AcDbVertex
100
AcDb2dVertex
62
5
10
132.850000
20
-243.500001
0
SEQEND
5
408
100
AcDbEntity
8
1
0
ARC
5
409
100
AcDbEntity
8
1
100
AcDbCircle
6
CONTINUOUS
62
5
10
132.850000
20
-242.500001
40
1.000000
100
AcDbArc
50
179.999998
51
-89.999999
0
POLYLINE
5
40a
100
AcDbEntity
8
1
6
CONTINUOUS
62
5
100
AcDb2dPolyline
66
1
10
0.0
20
0.0
30
0.0
70
0
0
VERTEX
5
40b
100
AcDbEntity
8
1
100
AcDbVertex
100
AcDb2dVertex
62
5
10
131.850000
20
-242.500001
0
VERTEX
5
40c
100
AcDbEntity
8
1
100
AcDbVertex
100
AcDb2dVertex
62
5
10
131.850000
20
-242.500001
0
VERTEX
5
40d
100
AcDbEntity
8
1
100
AcDbVertex
100
AcDb2dVertex
62
5
10
131.850000
20
-239.200000
0
SEQEND
5
40e
100
AcDbEntity
8
1
0
ARC
5
40f
100
AcDbEntity
8
1
100
AcDbCircle
6
CONTINUOUS
62
5
10
132.850000
20
-239.200000
40
1.000000
100
AcDbArc
50
89.999999
51
179.999998
0
LINE
5
410
100
AcDbEntity
8
1
100
AcDbLine
6
CONTINUOUS
62
5
10
132.850000
20
-238.200000
11
133.350000
21
-238.200000
0
LINE
5
411
100
AcDbEntity
8
1
100
AcDbLine
6
CONTINUOUS
62
5
10
134.350000
20
-238.200000
11
136.850000
21
-238.200000
0
LINE
5
412
100
AcDbEntity
8
1
100
AcDbLine
6
CONTINUOUS
62
5
10
137.850000
20
-238.200000
11
138.350000
21
-238.200000
0
LINE
5
413
100
AcDbEntity
8
1
100
AcDbLine
6
CONTINUOUS
62
5
10
133.423077
20
-240.900000
11
137.776923
21
-240.900000
0
LINE
5
414
100
AcDbEntity
8
1
100
AcDbLine
6
CONTINUOUS
62
5
10
137.750000
20
-240.200000
11
133.450000
21
-240.200000
0
LINE
5
415
100
AcDbEntity
8
1
100
AcDbLine
6
CONTINUOUS
62
5
10
134.350000
20
-238.300000
11
136.850000
21
-238.300000
0
LINE
5
416
100
AcDbEntity
8
1
100
AcDbLine
6
CONTINUOUS
62
5
10
137.750000
20
-239.200000
11
133.450000
21
-239.200000
0
POLYLINE
5
417
100
AcDbEntity
8
1
6
CONTINUOUS
62
5
100
AcDb2dPolyline
66
1
10
0.0
20
0.0
30
0.0
70
1
0
VERTEX
5
418
100
AcDbEntity
8
1
100
AcDbVertex
100
AcDb2dVertex
62
5
10
133.350000
20
-238.200000
0
VERTEX
5
419
100
AcDbEntity
8
1
100
AcDbVertex
100
AcDb2dVertex
62
5
10
133.350000
20
-238.882928
0
VERTEX
5
41a
100
AcDbEntity
8
1
100
AcDbVertex
100
AcDb2dVertex
62
5
10
133.450000
20
-239.200000
0
VERTEX
5
41b
100
AcDbEntity
8
1
100
AcDbVertex
100
AcDb2dVertex
62
5
10
133.450000
20
-240.200000
0
VERTEX
5
41c
100
AcDbEntity
8
1
100
AcDbVertex
100
AcDb2dVertex
62
5
10
133.423077
20
-240.900000
0
VERTEX
5
41d
100
AcDbEntity
8
1
100
AcDbVertex
100
AcDb2dVertex
62
5
10
133.380769
20
-240.900000
0
VERTEX
5
41e
100
AcDbEntity
8
1
100
AcDbVertex
100
AcDb2dVertex
62
5
10
133.380769
20
-240.200000
0
VERTEX
5
41f
100
AcDbEntity
8
1
100
AcDbVertex
100
AcDb2dVertex
62
5
10
133.350000
20
-239.800000
0
VERTEX
5
420
100
AcDbEntity
8
1
100
AcDbVertex
100
AcDb2dVertex
62
5
10
133.350000
20
-238.200000
0
SEQEND
5
421
100
AcDbEntity
8
1
0
POLYLINE
5
422
100
AcDbEntity
8
1
6
CONTINUOUS
62
5
100
AcDb2dPolyline
66
1
10
0.0
20
0.0
30
0.0
70
0
0
VERTEX
5
423
100
AcDbEntity
8
1
100
AcDbVertex
100
AcDb2dVertex
62
5
10
134.350000
20
-238.200000
0
VERTEX
5
424
100
AcDbEntity
8
1
100
AcDbVertex
100
AcDb2dVertex
62
5
10
134.350000
20
-238.882928
0
VERTEX
5
425
100
AcDbEntity
8
1
100
AcDbVertex
100
AcDb2dVertex
62
5
10
133.350000
20
-238.882928
0
SEQEND
5
426
100
AcDbEntity
8
1
0
POLYLINE
5
427
100
AcDbEntity
8
1
6
CONTINUOUS
62
5
100
AcDb2dPolyline
66
1
10
0.0
20
0.0
30
0.0
70
0
0
VERTEX
5
428
100
AcDbEntity
8
1
100
AcDbVertex
100
AcDb2dVertex
62
5
10
136.850000
20
-238.200000
0
VERTEX
5
429
100
AcDbEntity
8
1
100
AcDbVertex
100
AcDb2dVertex
62
5
10
136.850000
20
-238.882928
0
VERTEX
5
42a
100
AcDbEntity
8
1
100
AcDbVertex
100
AcDb2dVertex
62
5
10
137.850000
20
-238.882928
0
SEQEND
5
42b
100
AcDbEntity
8
1
0
POLYLINE
5
42c
100
AcDbEntity
8
1
6
CONTINUOUS
62
5
100
AcDb2dPolyline
66
1
10
0.0
20
0.0
30
0.0
70
1
0
VERTEX
5
42d
100
AcDbEntity
8
1
100
AcDbVertex
100
AcDb2dVertex
62
5
10
137.850000
20
-238.200000
0
VERTEX
5
42e
100
AcDbEntity
8
1
100
AcDbVertex
100
AcDb2dVertex
62
5
10
137.850000
20
-238.882928
0
VERTEX
5
42f
100
AcDbEntity
8
1
100
AcDbVertex
100
AcDb2dVertex
62
5
10
137.750000
20
-239.200000
0
VERTEX
5
430
100
AcDbEntity
8
1
100
AcDbVertex
100
AcDb2dVertex
62
5
10
137.750000
20
-240.200000
0
VERTEX
5
431
100
AcDbEntity
8
1
100
AcDbVertex
100
AcDb2dVertex
62
5
10
137.776923
20
-240.900000
0
VERTEX
5
432
100
AcDbEntity
8
1
100
AcDbVertex
100
AcDb2dVertex
62
5
10
137.819231
20
-240.900000
0
VERTEX
5
433
100
AcDbEntity
8
1
100
AcDbVertex
100
AcDb2dVertex
62
5
10
137.819231
20
-240.200000
0
VERTEX
5
434
100
AcDbEntity
8
1
100
AcDbVertex
100
AcDb2dVertex
62
5
10
137.850000
20
-239.800000
0
VERTEX
5
435
100
AcDbEntity
8
1
100
AcDbVertex
100
AcDb2dVertex
62
5
10
137.850000
20
-238.200000
0
SEQEND
5
436
100
AcDbEntity
8
1
0
ARC
5
437
100
AcDbEntity
8
1
100
AcDbCircle
6
CONTINUOUS
62
5
10
151.100000
20
-232.800000
40
1.000000
100
AcDbArc
50
0.000000
51
89.999999
0
LINE
5
438
100
AcDbEntity
8
1
100
AcDbLine
6
CONTINUOUS
62
5
10
152.100000
20
-232.800000
11
152.100000
21
-234.300000
0
LINE
5
439
100
AcDbEntity
8
1
100
AcDbLine
6
CONTINUOUS
62
5
10
143.600000
20
-231.800000
11
151.100000
21
-231.800000
0
CIRCLE
5
43a
100
AcDbEntity
8
1
100
AcDbCircle
6
CONTINUOUS
62
5
10
158.600000
20
-240.500000
40
3.000000
0
ARC
5
43b
100
AcDbEntity
8
1
100
AcDbCircle
6
CONTINUOUS
62
5
10
155.600000
20
-243.000000
40
1.500000
100
AcDbArc
50
-179.999998
51
-89.999999
0
POLYLINE
5
43c
100
AcDbEntity
8
1
6
CONTINUOUS
62
5
100
AcDb2dPolyline
66
1
10
0.0
20
0.0
30
0.0
70
0
0
VERTEX
5
43d
100
AcDbEntity
8
1
100
AcDbVertex
100
AcDb2dVertex
62
5
10
154.100000
20
-243.000000
0
VERTEX
5
43e
100
AcDbEntity
8
1
100
AcDbVertex
100
AcDb2dVertex
62
5
10
154.100000
20
-243.000000
0
VERTEX
5
43f
100
AcDbEntity
8
1
100
AcDbVertex
100
AcDb2dVertex
62
5
10
154.100000
20
-238.000000
0
SEQEND
5
440
100
AcDbEntity
8
1
0
ARC
5
441
100
AcDbEntity
8
1
100
AcDbCircle
6
CONTINUOUS
62
5
10
155.600000
20
-238.000000
40
1.500000
100
AcDbArc
50
89.999999
51
-179.999998
0
POLYLINE
5
442
100
AcDbEntity
8
1
6
CONTINUOUS
62
5
100
AcDb2dPolyline
66
1
10
0.0
20
0.0
30
0.0
70
0
0
VERTEX
5
443
100
AcDbEntity
8
1
100
AcDbVertex
100
AcDb2dVertex
62
5
10
155.600000
20
-236.500000
0
VERTEX
5
444
100
AcDbEntity
8
1
100
AcDbVertex
100
AcDb2dVertex
62
5
10
155.600000
20
-236.500000
0
VERTEX
5
445
100
AcDbEntity
8
1
100
AcDbVertex
100
AcDb2dVertex
62
5
10
161.600000
20
-236.500000
0
SEQEND
5
446
100
AcDbEntity
8
1
0
ARC
5
447
100
AcDbEntity
8
1
100
AcDbCircle
6
CONTINUOUS
62
5
10
161.600000
20
-238.000000
40
1.500000
100
AcDbArc
50
0.000000
51
89.999999
0
POLYLINE
5
448
100
AcDbEntity
8
1
6
CONTINUOUS
62
5
100
AcDb2dPolyline
66
1
10
0.0
20
0.0
30
0.0
70
0
0
VERTEX
5
449
100
AcDbEntity
8
1
100
AcDbVertex
100
AcDb2dVertex
62
5
10
163.100000
20
-238.000000
0
VERTEX
5
44a
100
AcDbEntity
8
1
100
AcDbVertex
100
AcDb2dVertex
62
5
10
163.100000
20
-238.000000
0
VERTEX
5
44b
100
AcDbEntity
8
1
100
AcDbVertex
100
AcDb2dVertex
62
5
10
163.100000
20
-243.000000
0
SEQEND
5
44c
100
AcDbEntity
8
1
0
ARC
5
44d
100
AcDbEntity
8
1
100
AcDbCircle
6
CONTINUOUS
62
5
10
161.600000
20
-243.000000
40
1.500000
100
AcDbArc
50
-89.999999
51
0.000000
0
LINE
5
44e
100
AcDbEntity
8
1
100
AcDbLine
6
CONTINUOUS
62
5
10
161.600000
20
-244.500000
11
161.600000
21
-244.500000
0
LINE
5
44f
100
AcDbEntity
8
1
100
AcDbLine
6
CONTINUOUS
62
5
10
161.600000
20
-244.500000
11
155.600000
21
-244.500000
0
ARC
5
450
100
AcDbEntity
8
1
100
AcDbCircle
6
CONTINUOUS
62
5
10
155.600000
20
-243.000000
40
1.000000
100
AcDbArc
50
-179.999998
51
-89.999999
0
LINE
5
451
100
AcDbEntity
8
1
100
AcDbLine
6
CONTINUOUS
62
5
10
154.600000
20
-243.000000
11
154.600000
21
-238.000000
0
ARC
5
452
100
AcDbEntity
8
1
100
AcDbCircle
6
CONTINUOUS
62
5
10
155.600000
20
-238.000000
40
1.000000
100
AcDbArc
50
89.999999
51
-179.999998
0
LINE
5
453
100
AcDbEntity
8
1
100
AcDbLine
6
CONTINUOUS
62
5
10
155.600000
20
-237.000000
11
161.600000
21
-237.000000
0
ARC
5
454
100
AcDbEntity
8
1
100
AcDbCircle
6
CONTINUOUS
62
5
10
161.600000
20
-238.000000
40
1.000000
100
AcDbArc
50
0.000000
51
89.999999
0
LINE
5
455
100
AcDbEntity
8
1
100
AcDbLine
6
CONTINUOUS
62
5
10
162.600000
20
-238.000000
11
162.600000
21
-243.000000
0
ARC
5
456
100
AcDbEntity
8
1
100
AcDbCircle
6
CONTINUOUS
62
5
10
161.600000
20
-243.000000
40
1.000000
100
AcDbArc
50
-89.999999
51
0.000000
0
LINE
5
457
100
AcDbEntity
8
1
100
AcDbLine
6
CONTINUOUS
62
5
10
161.600000
20
-244.000000
11
155.600000
21
-244.000000
0
CIRCLE
5
458
100
AcDbEntity
8
1
100
AcDbCircle
6
CONTINUOUS
62
5
10
158.600000
20
-240.500000
40
1.300000
0
ARC
5
459
100
AcDbEntity
8
1
100
AcDbCircle
6
CONTINUOUS
62
5
10
190.300000
20
-237.000000
40
0.500000
100
AcDbArc
50
-89.999999
51
0.000000
0
LINE
5
45a
100
AcDbEntity
8
1
100
AcDbLine
6
CONTINUOUS
62
5
10
190.800000
20
-237.000000
11
190.800000
21
-190.000000
0
LINE
5
45b
100
AcDbEntity
8
1
100
AcDbLine
6
CONTINUOUS
62
5
10
189.100000
20
-237.500000
11
190.300000
21
-237.500000
0
ARC
5
45c
100
AcDbEntity
8
1
100
AcDbCircle
6
CONTINUOUS
62
5
10
180.899996
20
-241.800000
40
1.000000
100
AcDbArc
50
-179.999998
51
-89.999999
0
LINE
5
45d
100
AcDbEntity
8
1
100
AcDbLine
6
CONTINUOUS
62
5
10
180.899996
20
-242.800000
11
181.200001
21
-242.800000
0
ARC
5
45e
100
AcDbEntity
8
1
100
AcDbCircle
6
CONTINUOUS
62
5
10
181.200001
20
-242.300000
40
0.500000
100
AcDbArc
50
-89.999999
51
0.000000
0
LINE
5
45f
100
AcDbEntity
8
1
100
AcDbLine
6
CONTINUOUS
62
5
10
181.700001
20
-242.300000
11
181.700001
21
-237.100000
0
LINE
5
460
100
AcDbEntity
8
1
100
AcDbLine
6
CONTINUOUS
62
5
10
181.700001
20
-237.100000
11
184.400002
21
-237.100000
0
ARC
5
461
100
AcDbEntity
8
1
100
AcDbCircle
6
CONTINUOUS
62
5
10
184.400002
20
-238.000000
40
0.900000
100
AcDbArc
50
0.000000
51
89.999999
0
LINE
5
462
100
AcDbEntity
8
1
100
AcDbLine
6
CONTINUOUS
62
5
10
185.300002
20
-238.000000
11
185.300002
21
-244.489988
0
ARC
5
463
100
AcDbEntity
8
1
100
AcDbCircle
6
CONTINUOUS
62
5
10
185.800002
20
-244.489988
40
0.500000
100
AcDbArc
50
-179.999998
51
-63.896095
0
ARC
5
464
100
AcDbEntity
8
1
100
AcDbCircle
6
CONTINUOUS
62
5
10
183.600000
20
-240.000000
40
5.500000
100
AcDbArc
50
-63.896095
51
-0.000000
0
LINE
5
465
100
AcDbEntity
8
1
100
AcDbLine
6
CONTINUOUS
62
5
10
189.100000
20
-240.000000
11
189.100000
21
-190.000000
0
LINE
5
466
100
AcDbEntity
8
1
100
AcDbLine
6
CONTINUOUS
62
5
10
184.300000
20
-190.000000
11
184.300000
21
-233.427617
0
ARC
5
467
100
AcDbEntity
8
1
100
AcDbCircle
6
CONTINUOUS
62
5
10
183.300000
20
-233.427617
40
1.000000
100
AcDbArc
50
-71.175304
51
0.000000
0
LINE
5
468
100
AcDbEntity
8
1
100
AcDbLine
6
CONTINUOUS
62
5
10
183.622674
20
-234.374127
11
181.254649
21
-235.181408
0
ARC
5
469
100
AcDbEntity
8
1
100
AcDbCircle
6
CONTINUOUS
62
5
10
181.899996
20
-237.074428
40
2.000000
100
AcDbArc
50
108.824694
51
-179.999998
0
LINE
5
46a
100
AcDbEntity
8
1
100
AcDbLine
6
CONTINUOUS
62
5
10
179.899996
20
-237.074428
11
179.899996
21
-241.800000
0
LINE
5
46b
100
AcDbEntity
8
1
100
AcDbLine
6
CONTINUOUS
62
5
10
61.216013
20
-173.649433
11
61.216104
21
-173.649433
0
LINE
5
46c
100
AcDbEntity
8
1
100
AcDbLine
6
CONTINUOUS
62
5
10
88.600000
20
-228.000000
11
88.600000
21
-228.400000
0
LINE
5
46d
100
AcDbEntity
8
1
100
AcDbLine
6
CONTINUOUS
62
5
10
90.600000
20
-228.400000
11
88.600000
21
-228.400000
0
LINE
5
46e
100
AcDbEntity
8
1
100
AcDbLine
6
CONTINUOUS
62
5
10
90.600000
20
-228.000000
11
90.600000
21
-228.400000
0
ARC
5
46f
100
AcDbEntity
8
1
100
AcDbCircle
6
CONTINUOUS
62
5
10
88.000000
20
-228.800000
40
0.900000
100
AcDbArc
50
-179.999998
51
-89.999999
0
LINE
5
470
100
AcDbEntity
8
1
100
AcDbLine
6
CONTINUOUS
62
5
10
87.100000
20
-228.800000
11
87.100000
21
-228.000000
0
LINE
5
471
100
AcDbEntity
8
1
100
AcDbLine
6
CONTINUOUS
62
5
10
92.100000
20
-228.000000
11
92.100000
21
-228.800000
0
ARC
5
472
100
AcDbEntity
8
1
100
AcDbCircle
6
CONTINUOUS
62
5
10
91.200000
20
-228.800000
40
0.900000
100
AcDbArc
50
-89.999999
51
0.000000
0
LINE
5
473
100
AcDbEntity
8
1
100
AcDbLine
6
CONTINUOUS
62
5
10
91.200000
20
-229.700000
11
88.000000
21
-229.700000
0
ARC
5
474
100
AcDbEntity
8
1
100
AcDbCircle
6
CONTINUOUS
62
5
10
109.600000
20
-243.000000
40
1.500000
100
AcDbArc
50
-179.999998
51
-89.999999
0
POLYLINE
5
475
100
AcDbEntity
8
1
6
CONTINUOUS
62
5
100
AcDb2dPolyline
66
1
10
0.0
20
0.0
30
0.0
70
0
0
VERTEX
5
476
100
AcDbEntity
8
1
100
AcDbVertex
100
AcDb2dVertex
62
5
10
108.100000
20
-243.000000
0
VERTEX
5
477
100
AcDbEntity
8
1
100
AcDbVertex
100
AcDb2dVertex
62
5
10
108.100000
20
-243.000000
0
VERTEX
5
478
100
AcDbEntity
8
1
100
AcDbVertex
100
AcDb2dVertex
62
5
10
108.100000
20
-238.000000
0
SEQEND
5
479
100
AcDbEntity
8
1
0
ARC
5
47a
100
AcDbEntity
8
1
100
AcDbCircle
6
CONTINUOUS
62
5
10
109.600000
20
-238.000000
40
1.500000
100
AcDbArc
50
89.999999
51
-179.999998
0
POLYLINE
5
47b
100
AcDbEntity
8
1
6
CONTINUOUS
62
5
100
AcDb2dPolyline
66
1
10
0.0
20
0.0
30
0.0
70
0
0
VERTEX
5
47c
100
AcDbEntity
8
1
100
AcDbVertex
100
AcDb2dVertex
62
5
10
109.600000
20
-236.500000
0
VERTEX
5
47d
100
AcDbEntity
8
1
100
AcDbVertex
100
AcDb2dVertex
62
5
10
109.600000
20
-236.500000
0
VERTEX
5
47e
100
AcDbEntity
8
1
100
AcDbVertex
100
AcDb2dVertex
62
5
10
115.600000
20
-236.500000
0
SEQEND
5
47f
100
AcDbEntity
8
1
0
ARC
5
480
100
AcDbEntity
8
1
100
AcDbCircle
6
CONTINUOUS
62
5
10
115.600000
20
-238.000000
40
1.500000
100
AcDbArc
50
0.000000
51
89.999999
0
POLYLINE
5
481
100
AcDbEntity
8
1
6
CONTINUOUS
62
5
100
AcDb2dPolyline
66
1
10
0.0
20
0.0
30
0.0
70
0
0
VERTEX
5
482
100
AcDbEntity
8
1
100
AcDbVertex
100
AcDb2dVertex
62
5
10
117.100000
20
-238.000000
0
VERTEX
5
483
100
AcDbEntity
8
1
100
AcDbVertex
100
AcDb2dVertex
62
5
10
117.100000
20
-238.000000
0
VERTEX
5
484
100
AcDbEntity
8
1
100
AcDbVertex
100
AcDb2dVertex
62
5
10
117.100000
20
-243.000000
0
SEQEND
5
485
100
AcDbEntity
8
1
0
ARC
5
486
100
AcDbEntity
8
1
100
AcDbCircle
6
CONTINUOUS
62
5
10
115.600000
20
-243.000000
40
1.500000
100
AcDbArc
50
-89.999999
51
0.000000
0
LINE
5
487
100
AcDbEntity
8
1
100
AcDbLine
6
CONTINUOUS
62
5
10
115.600000
20
-244.500000
11
115.600000
21
-244.500000
0
LINE
5
488
100
AcDbEntity
8
1
100
AcDbLine
6
CONTINUOUS
62
5
10
115.600000
20
-244.500000
11
109.600000
21
-244.500000
0
ARC
5
489
100
AcDbEntity
8
1
100
AcDbCircle
6
CONTINUOUS
62
5
10
109.600000
20
-243.000000
40
1.000000
100
AcDbArc
50
-179.999998
51
-89.999999
0
LINE
5
48a
100
AcDbEntity
8
1
100
AcDbLine
6
CONTINUOUS
62
5
10
108.600000
20
-243.000000
11
108.600000
21
-238.000000
0
ARC
5
48b
100
AcDbEntity
8
1
100
AcDbCircle
6
CONTINUOUS
62
5
10
109.600000
20
-238.000000
40
1.000000
100
AcDbArc
50
89.999999
51
-179.999998
0
LINE
5
48c
100
AcDbEntity
8
1
100
AcDbLine
6
CONTINUOUS
62
5
10
109.600000
20
-237.000000
11
115.600000
21
-237.000000
0
ARC
5
48d
100
AcDbEntity
8
1
100
AcDbCircle
6
CONTINUOUS
62
5
10
115.600000
20
-238.000000
40
1.000000
100
AcDbArc
50
0.000000
51
89.999999
0
LINE
5
48e
100
AcDbEntity
8
1
100
AcDbLine
6
CONTINUOUS
62
5
10
116.600000
20
-238.000000
11
116.600000
21
-243.000000
0
ARC
5
48f
100
AcDbEntity
8
1
100
AcDbCircle
6
CONTINUOUS
62
5
10
115.600000
20
-243.000000
40
1.000000
100
AcDbArc
50
-89.999999
51
0.000000
0
LINE
5
490
100
AcDbEntity
8
1
100
AcDbLine
6
CONTINUOUS
62
5
10
115.600000
20
-244.000000
11
109.600000
21
-244.000000
0
CIRCLE
5
491
100
AcDbEntity
8
1
100
AcDbCircle
6
CONTINUOUS
62
5
10
112.600000
20
-240.500000
40
3.000000
0
CIRCLE
5
492
100
AcDbEntity
8
1
100
AcDbCircle
6
CONTINUOUS
62
5
10
112.600000
20
-240.500000
40
1.300000
0
ARC
5
493
100
AcDbEntity
8
1
100
AcDbCircle
6
CONTINUOUS
62
5
10
92.350000
20
-239.200000
40
0.500000
100
AcDbArc
50
-0.000000
51
89.999999
0
LINE
5
494
100
AcDbEntity
8
1
100
AcDbLine
6
CONTINUOUS
62
5
10
92.850000
20
-239.200000
11
92.850000
21
-242.500001
0
ARC
5
495
100
AcDbEntity
8
1
100
AcDbCircle
6
CONTINUOUS
62
5
10
92.350000
20
-242.500001
40
0.500000
100
AcDbArc
50
-89.999999
51
-0.000000
0
LINE
5
496
100
AcDbEntity
8
1
100
AcDbLine
6
CONTINUOUS
62
5
10
92.350000
20
-243.000001
11
86.850000
21
-243.000001
0
ARC
5
497
100
AcDbEntity
8
1
100
AcDbCircle
6
CONTINUOUS
62
5
10
86.850000
20
-242.500001
40
0.500000
100
AcDbArc
50
179.999998
51
-89.999999
0
LINE
5
498
100
AcDbEntity
8
1
100
AcDbLine
6
CONTINUOUS
62
5
10
86.350000
20
-242.500001
11
86.350000
21
-239.200000
0
ARC
5
499
100
AcDbEntity
8
1
100
AcDbCircle
6
CONTINUOUS
62
5
10
86.850000
20
-239.200000
40
0.500000
100
AcDbArc
50
89.999999
51
179.999998
0
LINE
5
49a
100
AcDbEntity
8
1
100
AcDbLine
6
CONTINUOUS
62
5
10
86.850000
20
-238.700000
11
87.350000
21
-238.700000
0
LINE
5
49b
100
AcDbEntity
8
1
100
AcDbLine
6
CONTINUOUS
62
5
10
88.350000
20
-238.700000
11
90.850000
21
-238.700000
0
LINE
5
49c
100
AcDbEntity
8
1
100
AcDbLine
6
CONTINUOUS
62
5
10
91.850000
20
-238.700000
11
92.350000
21
-238.700000
0
ARC
5
49d
100
AcDbEntity
8
1
100
AcDbCircle
6
CONTINUOUS
62
5
10
92.350000
20
-239.200000
40
1.000000
100
AcDbArc
50
-0.000000
51
89.999999
0
LINE
5
49e
100
AcDbEntity
8
1
100
AcDbLine
6
CONTINUOUS
62
5
10
93.350000
20
-239.200000
11
93.350000
21
-242.500001
0
ARC
5
49f
100
AcDbEntity
8
1
100
AcDbCircle
6
CONTINUOUS
62
5
10
92.350000
20
-242.500001
40
1.000000
100
AcDbArc
50
-89.999999
51
-0.000000
0
POLYLINE
5
4a0
100
AcDbEntity
8
1
6
CONTINUOUS
62
5
100
AcDb2dPolyline
66
1
10
0.0
20
0.0
30
0.0
70
0
0
VERTEX
5
4a1
100
AcDbEntity
8
1
100
AcDbVertex
100
AcDb2dVertex
62
5
10
92.350000
20
-243.500001
0
VERTEX
5
4a2
100
AcDbEntity
8
1
100
AcDbVertex
100
AcDb2dVertex
62
5
10
92.350000
20
-243.500001
0
VERTEX
5
4a3
100
AcDbEntity
8
1
100
AcDbVertex
100
AcDb2dVertex
62
5
10
86.850000
20
-243.500001
0
SEQEND
5
4a4
100
AcDbEntity
8
1
0
ARC
5
4a5
100
AcDbEntity
8
1
100
AcDbCircle
6
CONTINUOUS
62
5
10
86.850000
20
-242.500001
40
1.000000
100
AcDbArc
50
179.999998
51
-89.999999
0
POLYLINE
5
4a6
100
AcDbEntity
8
1
6
CONTINUOUS
62
5
100
AcDb2dPolyline
66
1
10
0.0
20
0.0
30
0.0
70
0
0
VERTEX
5
4a7
100
AcDbEntity
8
1
100
AcDbVertex
100
AcDb2dVertex
62
5
10
85.850000
20
-242.500001
0
VERTEX
5
4a8
100
AcDbEntity
8
1
100
AcDbVertex
100
AcDb2dVertex
62
5
10
85.850000
20
-242.500001
0
VERTEX
5
4a9
100
AcDbEntity
8
1
100
AcDbVertex
100
AcDb2dVertex
62
5
10
85.850000
20
-239.200000
0
SEQEND
5
4aa
100
AcDbEntity
8
1
0
ARC
5
4ab
100
AcDbEntity
8
1
100
AcDbCircle
6
CONTINUOUS
62
5
10
86.850000
20
-239.200000
40
1.000000
100
AcDbArc
50
89.999999
51
179.999998
0
LINE
5
4ac
100
AcDbEntity
8
1
100
AcDbLine
6
CONTINUOUS
62
5
10
86.850000
20
-238.200000
11
87.350000
21
-238.200000
0
LINE
5
4ad
100
AcDbEntity
8
1
100
AcDbLine
6
CONTINUOUS
62
5
10
88.350000
20
-238.200000
11
90.850000
21
-238.200000
0
LINE
5
4ae
100
AcDbEntity
8
1
100
AcDbLine
6
CONTINUOUS
62
5
10
91.850000
20
-238.200000
11
92.350000
21
-238.200000
0
POLYLINE
5
4af
100
AcDbEntity
8
1
6
CONTINUOUS
62
5
100
AcDb2dPolyline
66
1
10
0.0
20
0.0
30
0.0
70
1
0
VERTEX
5
4b0
100
AcDbEntity
8
1
100
AcDbVertex
100
AcDb2dVertex
62
5
10
91.850000
20
-238.200000
0
VERTEX
5
4b1
100
AcDbEntity
8
1
100
AcDbVertex
100
AcDb2dVertex
62
5
10
91.850000
20
-238.882928
0
VERTEX
5
4b2
100
AcDbEntity
8
1
100
AcDbVertex
100
AcDb2dVertex
62
5
10
91.750000
20
-239.200000
0
VERTEX
5
4b3
100
AcDbEntity
8
1
100
AcDbVertex
100
AcDb2dVertex
62
5
10
91.750000
20
-240.200000
0
VERTEX
5
4b4
100
AcDbEntity
8
1
100
AcDbVertex
100
AcDb2dVertex
62
5
10
91.776923
20
-240.900000
0
VERTEX
5
4b5
100
AcDbEntity
8
1
100
AcDbVertex
100
AcDb2dVertex
62
5
10
91.819231
20
-240.900000
0
VERTEX
5
4b6
100
AcDbEntity
8
1
100
AcDbVertex
100
AcDb2dVertex
62
5
10
91.819231
20
-240.200000
0
VERTEX
5
4b7
100
AcDbEntity
8
1
100
AcDbVertex
100
AcDb2dVertex
62
5
10
91.850000
20
-239.800000
0
VERTEX
5
4b8
100
AcDbEntity
8
1
100
AcDbVertex
100
AcDb2dVertex
62
5
10
91.850000
20
-238.200000
0
SEQEND
5
4b9
100
AcDbEntity
8
1
0
POLYLINE
5
4ba
100
AcDbEntity
8
1
6
CONTINUOUS
62
5
100
AcDb2dPolyline
66
1
10
0.0
20
0.0
30
0.0
70
1
0
VERTEX
5
4bb
100
AcDbEntity
8
1
100
AcDbVertex
100
AcDb2dVertex
62
5
10
87.350000
20
-238.200000
0
VERTEX
5
4bc
100
AcDbEntity
8
1
100
AcDbVertex
100
AcDb2dVertex
62
5
10
87.350000
20
-238.882928
0
VERTEX
5
4bd
100
AcDbEntity
8
1
100
AcDbVertex
100
AcDb2dVertex
62
5
10
87.450000
20
-239.200000
0
VERTEX
5
4be
100
AcDbEntity
8
1
100
AcDbVertex
100
AcDb2dVertex
62
5
10
87.450000
20
-240.200000
0
VERTEX
5
4bf
100
AcDbEntity
8
1
100
AcDbVertex
100
AcDb2dVertex
62
5
10
87.423077
20
-240.900000
0
VERTEX
5
4c0
100
AcDbEntity
8
1
100
AcDbVertex
100
AcDb2dVertex
62
5
10
87.380769
20
-240.900000
0
VERTEX
5
4c1
100
AcDbEntity
8
1
100
AcDbVertex
100
AcDb2dVertex
62
5
10
87.380769
20
-240.200000
0
VERTEX
5
4c2
100
AcDbEntity
8
1
100
AcDbVertex
100
AcDb2dVertex
62
5
10
87.350000
20
-239.800000
0
VERTEX
5
4c3
100
AcDbEntity
8
1
100
AcDbVertex
100
AcDb2dVertex
62
5
10
87.350000
20
-238.200000
0
SEQEND
5
4c4
100
AcDbEntity
8
1
0
LINE
5
4c5
100
AcDbEntity
8
1
100
AcDbLine
6
CONTINUOUS
62
5
10
87.423077
20
-240.900000
11
91.776923
21
-240.900000
0
LINE
5
4c6
100
AcDbEntity
8
1
100
AcDbLine
6
CONTINUOUS
62
5
10
91.750000
20
-240.200000
11
87.450000
21
-240.200000
0
POLYLINE
5
4c7
100
AcDbEntity
8
1
6
CONTINUOUS
62
5
100
AcDb2dPolyline
66
1
10
0.0
20
0.0
30
0.0
70
0
0
VERTEX
5
4c8
100
AcDbEntity
8
1
100
AcDbVertex
100
AcDb2dVertex
62
5
10
90.850000
20
-238.200000
0
VERTEX
5
4c9
100
AcDbEntity
8
1
100
AcDbVertex
100
AcDb2dVertex
62
5
10
90.850000
20
-238.882928
0
VERTEX
5
4ca
100
AcDbEntity
8
1
100
AcDbVertex
100
AcDb2dVertex
62
5
10
91.850000
20
-238.882928
0
SEQEND
5
4cb
100
AcDbEntity
8
1
0
LINE
5
4cc
100
AcDbEntity
8
1
100
AcDbLine
6
CONTINUOUS
62
5
10
88.350000
20
-238.300000
11
90.850000
21
-238.300000
0
LINE
5
4cd
100
AcDbEntity
8
1
100
AcDbLine
6
CONTINUOUS
62
5
10
91.750000
20
-239.200000
11
87.450000
21
-239.200000
0
POLYLINE
5
4ce
100
AcDbEntity
8
1
6
CONTINUOUS
62
5
100
AcDb2dPolyline
66
1
10
0.0
20
0.0
30
0.0
70
0
0
VERTEX
5
4cf
100
AcDbEntity
8
1
100
AcDbVertex
100
AcDb2dVertex
62
5
10
88.350000
20
-238.200000
0
VERTEX
5
4d0
100
AcDbEntity
8
1
100
AcDbVertex
100
AcDb2dVertex
62
5
10
88.350000
20
-238.882928
0
VERTEX
5
4d1
100
AcDbEntity
8
1
100
AcDbVertex
100
AcDb2dVertex
62
5
10
87.350000
20
-238.882928
0
SEQEND
5
4d2
100
AcDbEntity
8
1
0
ARC
5
4d3
100
AcDbEntity
8
1
100
AcDbCircle
6
CONTINUOUS
62
5
10
105.100000
20
-232.800000
40
1.000000
100
AcDbArc
50
0.000000
51
89.999999
0
LINE
5
4d4
100
AcDbEntity
8
1
100
AcDbLine
6
CONTINUOUS
62
5
10
106.100000
20
-232.800000
11
106.100000
21
-234.300000
0
LINE
5
4d5
100
AcDbEntity
8
1
100
AcDbLine
6
CONTINUOUS
62
5
10
97.600000
20
-231.800000
11
105.100000
21
-231.800000
0
LINE
5
4d6
100
AcDbEntity
8
1
100
AcDbLine
6
CONTINUOUS
62
5
10
44.600000
20
-228.000000
11
44.600000
21
-228.400000
0
LINE
5
4d7
100
AcDbEntity
8
1
100
AcDbLine
6
CONTINUOUS
62
5
10
42.600000
20
-228.000000
11
42.600000
21
-228.400000
0
LINE
5
4d8
100
AcDbEntity
8
1
100
AcDbLine
6
CONTINUOUS
62
5
10
42.600000
20
-228.400000
11
44.600000
21
-228.400000
0
ARC
5
4d9
100
AcDbEntity
8
1
100
AcDbCircle
6
CONTINUOUS
62
5
10
45.200000
20
-228.800000
40
0.900000
100
AcDbArc
50
-89.999999
51
-0.000000
0
LINE
5
4da
100
AcDbEntity
8
1
100
AcDbLine
6
CONTINUOUS
62
5
10
46.100000
20
-228.800000
11
46.100000
21
-228.000000
0
LINE
5
4db
100
AcDbEntity
8
1
100
AcDbLine
6
CONTINUOUS
62
5
10
41.100000
20
-228.000000
11
41.100000
21
-228.800000
0
ARC
5
4dc
100
AcDbEntity
8
1
100
AcDbCircle
6
CONTINUOUS
62
5
10
42.000000
20
-228.800000
40
0.900000
100
AcDbArc
50
179.999998
51
-89.999999
0
LINE
5
4dd
100
AcDbEntity
8
1
100
AcDbLine
6
CONTINUOUS
62
5
10
42.000000
20
-229.700000
11
45.200000
21
-229.700000
0
CIRCLE
5
4de
100
AcDbEntity
8
1
100
AcDbCircle
6
CONTINUOUS
62
5
10
66.600000
20
-240.500000
40
1.300000
0
CIRCLE
5
4df
100
AcDbEntity
8
1
100
AcDbCircle
6
CONTINUOUS
62
5
10
66.600000
20
-240.500000
40
3.000000
0
ARC
5
4e0
100
AcDbEntity
8
1
100
AcDbCircle
6
CONTINUOUS
62
5
10
69.600000
20
-243.000000
40
1.500000
100
AcDbArc
50
-89.999999
51
0.000000
0
POLYLINE
5
4e1
100
AcDbEntity
8
1
6
CONTINUOUS
62
5
100
AcDb2dPolyline
66
1
10
0.0
20
0.0
30
0.0
70
0
0
VERTEX
5
4e2
100
AcDbEntity
8
1
100
AcDbVertex
100
AcDb2dVertex
62
5
10
71.100000
20
-243.000000
0
VERTEX
5
4e3
100
AcDbEntity
8
1
100
AcDbVertex
100
AcDb2dVertex
62
5
10
71.100000
20
-243.000000
0
VERTEX
5
4e4
100
AcDbEntity
8
1
100
AcDbVertex
100
AcDb2dVertex
62
5
10
71.100000
20
-238.000000
0
SEQEND
5
4e5
100
AcDbEntity
8
1
0
ARC
5
4e6
100
AcDbEntity
8
1
100
AcDbCircle
6
CONTINUOUS
62
5
10
69.600000
20
-238.000000
40
1.500000
100
AcDbArc
50
0.000000
51
89.999999
0
POLYLINE
5
4e7
100
AcDbEntity
8
1
6
CONTINUOUS
62
5
100
AcDb2dPolyline
66
1
10
0.0
20
0.0
30
0.0
70
0
0
VERTEX
5
4e8
100
AcDbEntity
8
1
100
AcDbVertex
100
AcDb2dVertex
62
5
10
69.600000
20
-236.500000
0
VERTEX
5
4e9
100
AcDbEntity
8
1
100
AcDbVertex
100
AcDb2dVertex
62
5
10
69.600000
20
-236.500000
0
VERTEX
5
4ea
100
AcDbEntity
8
1
100
AcDbVertex
100
AcDb2dVertex
62
5
10
63.600000
20
-236.500000
0
SEQEND
5
4eb
100
AcDbEntity
8
1
0
ARC
5
4ec
100
AcDbEntity
8
1
100
AcDbCircle
6
CONTINUOUS
62
5
10
63.600000
20
-238.000000
40
1.500000
100
AcDbArc
50
89.999999
51
179.999998
0
POLYLINE
5
4ed
100
AcDbEntity
8
1
6
CONTINUOUS
62
5
100
AcDb2dPolyline
66
1
10
0.0
20
0.0
30
0.0
70
0
0
VERTEX
5
4ee
100
AcDbEntity
8
1
100
AcDbVertex
100
AcDb2dVertex
62
5
10
62.100000
20
-238.000000
0
VERTEX
5
4ef
100
AcDbEntity
8
1
100
AcDbVertex
100
AcDb2dVertex
62
5
10
62.100000
20
-238.000000
0
VERTEX
5
4f0
100
AcDbEntity
8
1
100
AcDbVertex
100
AcDb2dVertex
62
5
10
62.100000
20
-243.000000
0
SEQEND
5
4f1
100
AcDbEntity
8
1
0
ARC
5
4f2
100
AcDbEntity
8
1
100
AcDbCircle
6
CONTINUOUS
62
5
10
63.600000
20
-243.000000
40
1.500000
100
AcDbArc
50
179.999998
51
-89.999999
0
LINE
5
4f3
100
AcDbEntity
8
1
100
AcDbLine
6
CONTINUOUS
62
5
10
63.600000
20
-244.500000
11
63.600000
21
-244.500000
0
LINE
5
4f4
100
AcDbEntity
8
1
100
AcDbLine
6
CONTINUOUS
62
5
10
63.600000
20
-244.500000
11
69.600000
21
-244.500000
0
ARC
5
4f5
100
AcDbEntity
8
1
100
AcDbCircle
6
CONTINUOUS
62
5
10
69.600000
20
-243.000000
40
1.000000
100
AcDbArc
50
-89.999999
51
0.000000
0
LINE
5
4f6
100
AcDbEntity
8
1
100
AcDbLine
6
CONTINUOUS
62
5
10
70.600000
20
-243.000000
11
70.600000
21
-238.000000
0
ARC
5
4f7
100
AcDbEntity
8
1
100
AcDbCircle
6
CONTINUOUS
62
5
10
69.600000
20
-238.000000
40
1.000000
100
AcDbArc
50
0.000000
51
89.999999
0
LINE
5
4f8
100
AcDbEntity
8
1
100
AcDbLine
6
CONTINUOUS
62
5
10
69.600000
20
-237.000000
11
63.600000
21
-237.000000
0
ARC
5
4f9
100
AcDbEntity
8
1
100
AcDbCircle
6
CONTINUOUS
62
5
10
63.600000
20
-238.000000
40
1.000000
100
AcDbArc
50
89.999999
51
179.999998
0
LINE
5
4fa
100
AcDbEntity
8
1
100
AcDbLine
6
CONTINUOUS
62
5
10
62.600000
20
-238.000000
11
62.600000
21
-243.000000
0
ARC
5
4fb
100
AcDbEntity
8
1
100
AcDbCircle
6
CONTINUOUS
62
5
10
63.600000
20
-243.000000
40
1.000000
100
AcDbArc
50
179.999998
51
-89.999999
0
LINE
5
4fc
100
AcDbEntity
8
1
100
AcDbLine
6
CONTINUOUS
62
5
10
63.600000
20
-244.000000
11
69.600000
21
-244.000000
0
POLYLINE
5
4fd
100
AcDbEntity
8
1
6
CONTINUOUS
62
5
100
AcDb2dPolyline
66
1
10
0.0
20
0.0
30
0.0
70
1
0
VERTEX
5
4fe
100
AcDbEntity
8
1
100
AcDbVertex
100
AcDb2dVertex
62
5
10
45.850000
20
-238.200000
0
VERTEX
5
4ff
100
AcDbEntity
8
1
100
AcDbVertex
100
AcDb2dVertex
62
5
10
45.850000
20
-238.882928
0
VERTEX
5
500
100
AcDbEntity
8
1
100
AcDbVertex
100
AcDb2dVertex
62
5
10
45.750000
20
-239.200000
0
VERTEX
5
501
100
AcDbEntity
8
1
100
AcDbVertex
100
AcDb2dVertex
62
5
10
45.750000
20
-240.200000
0
VERTEX
5
502
100
AcDbEntity
8
1
100
AcDbVertex
100
AcDb2dVertex
62
5
10
45.776923
20
-240.900000
0
VERTEX
5
503
100
AcDbEntity
8
1
100
AcDbVertex
100
AcDb2dVertex
62
5
10
45.819231
20
-240.900000
0
VERTEX
5
504
100
AcDbEntity
8
1
100
AcDbVertex
100
AcDb2dVertex
62
5
10
45.819231
20
-240.200000
0
VERTEX
5
505
100
AcDbEntity
8
1
100
AcDbVertex
100
AcDb2dVertex
62
5
10
45.850000
20
-239.800000
0
VERTEX
5
506
100
AcDbEntity
8
1
100
AcDbVertex
100
AcDb2dVertex
62
5
10
45.850000
20
-238.200000
0
SEQEND
5
507
100
AcDbEntity
8
1
0
POLYLINE
5
508
100
AcDbEntity
8
1
6
CONTINUOUS
62
5
100
AcDb2dPolyline
66
1
10
0.0
20
0.0
30
0.0
70
0
0
VERTEX
5
509
100
AcDbEntity
8
1
100
AcDbVertex
100
AcDb2dVertex
62
5
10
44.850000
20
-238.200000
0
VERTEX
5
50a
100
AcDbEntity
8
1
100
AcDbVertex
100
AcDb2dVertex
62
5
10
44.850000
20
-238.882928
0
VERTEX
5
50b
100
AcDbEntity
8
1
100
AcDbVertex
100
AcDb2dVertex
62
5
10
45.850000
20
-238.882928
0
SEQEND
5
50c
100
AcDbEntity
8
1
0
POLYLINE
5
50d
100
AcDbEntity
8
1
6
CONTINUOUS
62
5
100
AcDb2dPolyline
66
1
10
0.0
20
0.0
30
0.0
70
1
0
VERTEX
5
50e
100
AcDbEntity
8
1
100
AcDbVertex
100
AcDb2dVertex
62
5
10
41.350000
20
-238.200000
0
VERTEX
5
50f
100
AcDbEntity
8
1
100
AcDbVertex
100
AcDb2dVertex
62
5
10
41.350000
20
-238.882928
0
VERTEX
5
510
100
AcDbEntity
8
1
100
AcDbVertex
100
AcDb2dVertex
62
5
10
41.450000
20
-239.200000
0
VERTEX
5
511
100
AcDbEntity
8
1
100
AcDbVertex
100
AcDb2dVertex
62
5
10
41.450000
20
-240.200000
0
VERTEX
5
512
100
AcDbEntity
8
1
100
AcDbVertex
100
AcDb2dVertex
62
5
10
41.423077
20
-240.900000
0
VERTEX
5
513
100
AcDbEntity
8
1
100
AcDbVertex
100
AcDb2dVertex
62
5
10
41.380769
20
-240.900000
0
VERTEX
5
514
100
AcDbEntity
8
1
100
AcDbVertex
100
AcDb2dVertex
62
5
10
41.380769
20
-240.200000
0
VERTEX
5
515
100
AcDbEntity
8
1
100
AcDbVertex
100
AcDb2dVertex
62
5
10
41.350000
20
-239.800000
0
VERTEX
5
516
100
AcDbEntity
8
1
100
AcDbVertex
100
AcDb2dVertex
62
5
10
41.350000
20
-238.200000
0
SEQEND
5
517
100
AcDbEntity
8
1
0
POLYLINE
5
518
100
AcDbEntity
8
1
6
CONTINUOUS
62
5
100
AcDb2dPolyline
66
1
10
0.0
20
0.0
30
0.0
70
0
0
VERTEX
5
519
100
AcDbEntity
8
1
100
AcDbVertex
100
AcDb2dVertex
62
5
10
42.350000
20
-238.200000
0
VERTEX
5
51a
100
AcDbEntity
8
1
100
AcDbVertex
100
AcDb2dVertex
62
5
10
42.350000
20
-238.882928
0
VERTEX
5
51b
100
AcDbEntity
8
1
100
AcDbVertex
100
AcDb2dVertex
62
5
10
41.350000
20
-238.882928
0
SEQEND
5
51c
100
AcDbEntity
8
1
0
ARC
5
51d
100
AcDbEntity
8
1
100
AcDbCircle
6
CONTINUOUS
62
5
10
46.350000
20
-239.200000
40
0.500000
100
AcDbArc
50
-0.000000
51
89.999999
0
LINE
5
51e
100
AcDbEntity
8
1
100
AcDbLine
6
CONTINUOUS
62
5
10
46.850000
20
-239.200000
11
46.850000
21
-242.500001
0
ARC
5
51f
100
AcDbEntity
8
1
100
AcDbCircle
6
CONTINUOUS
62
5
10
46.350000
20
-242.500001
40
0.500000
100
AcDbArc
50
-89.999999
51
-0.000000
0
LINE
5
520
100
AcDbEntity
8
1
100
AcDbLine
6
CONTINUOUS
62
5
10
46.350000
20
-243.000001
11
40.850000
21
-243.000001
0
ARC
5
521
100
AcDbEntity
8
1
100
AcDbCircle
6
CONTINUOUS
62
5
10
40.850000
20
-242.500001
40
0.500000
100
AcDbArc
50
179.999998
51
-89.999999
0
LINE
5
522
100
AcDbEntity
8
1
100
AcDbLine
6
CONTINUOUS
62
5
10
40.350000
20
-242.500001
11
40.350000
21
-239.200000
0
ARC
5
523
100
AcDbEntity
8
1
100
AcDbCircle
6
CONTINUOUS
62
5
10
40.850000
20
-239.200000
40
0.500000
100
AcDbArc
50
89.999999
51
179.999998
0
LINE
5
524
100
AcDbEntity
8
1
100
AcDbLine
6
CONTINUOUS
62
5
10
40.850000
20
-238.700000
11
41.350000
21
-238.700000
0
LINE
5
525
100
AcDbEntity
8
1
100
AcDbLine
6
CONTINUOUS
62
5
10
42.350000
20
-238.700000
11
44.850000
21
-238.700000
0
LINE
5
526
100
AcDbEntity
8
1
100
AcDbLine
6
CONTINUOUS
62
5
10
45.850000
20
-238.700000
11
46.350000
21
-238.700000
0
LINE
5
527
100
AcDbEntity
8
1
100
AcDbLine
6
CONTINUOUS
62
5
10
45.750000
20
-240.200000
11
41.450000
21
-240.200000
0
LINE
5
528
100
AcDbEntity
8
1
100
AcDbLine
6
CONTINUOUS
62
5
10
41.423077
20
-240.900000
11
45.776923
21
-240.900000
0
LINE
5
529
100
AcDbEntity
8
1
100
AcDbLine
6
CONTINUOUS
62
5
10
45.750000
20
-239.200000
11
41.450000
21
-239.200000
0
LINE
5
52a
100
AcDbEntity
8
1
100
AcDbLine
6
CONTINUOUS
62
5
10
42.350000
20
-238.300000
11
44.850000
21
-238.300000
0
ARC
5
52b
100
AcDbEntity
8
1
100
AcDbCircle
6
CONTINUOUS
62
5
10
59.100000
20
-232.800000
40
1.000000
100
AcDbArc
50
0.000000
51
89.999999
0
LINE
5
52c
100
AcDbEntity
8
1
100
AcDbLine
6
CONTINUOUS
62
5
10
60.100000
20
-232.800000
11
60.100000
21
-234.300000
0
LINE
5
52d
100
AcDbEntity
8
1
100
AcDbLine
6
CONTINUOUS
62
5
10
51.600000
20
-231.800000
11
59.100000
21
-231.800000
0
ARC
5
52e
100
AcDbEntity
8
1
100
AcDbCircle
6
CONTINUOUS
62
5
10
74.100000
20
-232.800000
40
1.000000
100
AcDbArc
50
89.999999
51
179.999998
0
LINE
5
52f
100
AcDbEntity
8
1
100
AcDbLine
6
CONTINUOUS
62
5
10
74.100000
20
-231.800000
11
81.600000
21
-231.800000
0
LINE
5
530
100
AcDbEntity
8
1
100
AcDbLine
6
CONTINUOUS
62
5
10
73.100000
20
-234.300000
11
73.100000
21
-232.800000
0
CIRCLE
5
531
100
AcDbEntity
8
1
100
AcDbCircle
6
CONTINUOUS
62
5
10
20.600000
20
-240.500000
40
1.300000
0
CIRCLE
5
532
100
AcDbEntity
8
1
100
AcDbCircle
6
CONTINUOUS
62
5
10
20.600000
20
-240.500000
40
3.000000
0
ARC
5
533
100
AcDbEntity
8
1
100
AcDbCircle
6
CONTINUOUS
62
5
10
23.600000
20
-243.000000
40
1.000000
100
AcDbArc
50
-89.999999
51
0.000000
0
LINE
5
534
100
AcDbEntity
8
1
100
AcDbLine
6
CONTINUOUS
62
5
10
24.600000
20
-243.000000
11
24.600000
21
-238.000000
0
ARC
5
535
100
AcDbEntity
8
1
100
AcDbCircle
6
CONTINUOUS
62
5
10
23.600000
20
-238.000000
40
1.000000
100
AcDbArc
50
0.000000
51
89.999999
0
LINE
5
536
100
AcDbEntity
8
1
100
AcDbLine
6
CONTINUOUS
62
5
10
23.600000
20
-237.000000
11
17.600000
21
-237.000000
0
ARC
5
537
100
AcDbEntity
8
1
100
AcDbCircle
6
CONTINUOUS
62
5
10
17.600000
20
-238.000000
40
1.000000
100
AcDbArc
50
89.999999
51
179.999998
0
LINE
5
538
100
AcDbEntity
8
1
100
AcDbLine
6
CONTINUOUS
62
5
10
16.600000
20
-238.000000
11
16.600000
21
-243.000000
0
ARC
5
539
100
AcDbEntity
8
1
100
AcDbCircle
6
CONTINUOUS
62
5
10
17.600000
20
-243.000000
40
1.000000
100
AcDbArc
50
179.999998
51
-89.999999
0
LINE
5
53a
100
AcDbEntity
8
1
100
AcDbLine
6
CONTINUOUS
62
5
10
17.600000
20
-244.000000
11
23.600000
21
-244.000000
0
ARC
5
53b
100
AcDbEntity
8
1
100
AcDbCircle
6
CONTINUOUS
62
5
10
23.600000
20
-243.000000
40
1.500000
100
AcDbArc
50
-89.999999
51
0.000000
0
POLYLINE
5
53c
100
AcDbEntity
8
1
6
CONTINUOUS
62
5
100
AcDb2dPolyline
66
1
10
0.0
20
0.0
30
0.0
70
0
0
VERTEX
5
53d
100
AcDbEntity
8
1
100
AcDbVertex
100
AcDb2dVertex
62
5
10
25.100000
20
-243.000000
0
VERTEX
5
53e
100
AcDbEntity
8
1
100
AcDbVertex
100
AcDb2dVertex
62
5
10
25.100000
20
-243.000000
0
VERTEX
5
53f
100
AcDbEntity
8
1
100
AcDbVertex
100
AcDb2dVertex
62
5
10
25.100000
20
-238.000000
0
SEQEND
5
540
100
AcDbEntity
8
1
0
ARC
5
541
100
AcDbEntity
8
1
100
AcDbCircle
6
CONTINUOUS
62
5
10
23.600000
20
-238.000000
40
1.500000
100
AcDbArc
50
0.000000
51
89.999999
0
POLYLINE
5
542
100
AcDbEntity
8
1
6
CONTINUOUS
62
5
100
AcDb2dPolyline
66
1
10
0.0
20
0.0
30
0.0
70
0
0
VERTEX
5
543
100
AcDbEntity
8
1
100
AcDbVertex
100
AcDb2dVertex
62
5
10
23.600000
20
-236.500000
0
VERTEX
5
544
100
AcDbEntity
8
1
100
AcDbVertex
100
AcDb2dVertex
62
5
10
23.600000
20
-236.500000
0
VERTEX
5
545
100
AcDbEntity
8
1
100
AcDbVertex
100
AcDb2dVertex
62
5
10
17.600000
20
-236.500000
0
SEQEND
5
546
100
AcDbEntity
8
1
0
ARC
5
547
100
AcDbEntity
8
1
100
AcDbCircle
6
CONTINUOUS
62
5
10
17.600000
20
-238.000000
40
1.500000
100
AcDbArc
50
89.999999
51
179.999998
0
POLYLINE
5
548
100
AcDbEntity
8
1
6
CONTINUOUS
62
5
100
AcDb2dPolyline
66
1
10
0.0
20
0.0
30
0.0
70
0
0
VERTEX
5
549
100
AcDbEntity
8
1
100
AcDbVertex
100
AcDb2dVertex
62
5
10
16.100000
20
-238.000000
0
VERTEX
5
54a
100
AcDbEntity
8
1
100
AcDbVertex
100
AcDb2dVertex
62
5
10
16.100000
20
-238.000000
0
VERTEX
5
54b
100
AcDbEntity
8
1
100
AcDbVertex
100
AcDb2dVertex
62
5
10
16.100000
20
-243.000000
0
SEQEND
5
54c
100
AcDbEntity
8
1
0
ARC
5
54d
100
AcDbEntity
8
1
100
AcDbCircle
6
CONTINUOUS
62
5
10
17.600000
20
-243.000000
40
1.500000
100
AcDbArc
50
179.999998
51
-89.999999
0
LINE
5
54e
100
AcDbEntity
8
1
100
AcDbLine
6
CONTINUOUS
62
5
10
17.600000
20
-244.500000
11
17.600000
21
-244.500000
0
LINE
5
54f
100
AcDbEntity
8
1
100
AcDbLine
6
CONTINUOUS
62
5
10
17.600000
20
-244.500000
11
23.600000
21
-244.500000
0
ARC
5
550
100
AcDbEntity
8
1
100
AcDbCircle
6
CONTINUOUS
62
5
10
28.100000
20
-232.800000
40
1.000000
100
AcDbArc
50
89.999999
51
179.999998
0
LINE
5
551
100
AcDbEntity
8
1
100
AcDbLine
6
CONTINUOUS
62
5
10
28.100000
20
-231.800000
11
35.600000
21
-231.800000
0
LINE
5
552
100
AcDbEntity
8
1
100
AcDbLine
6
CONTINUOUS
62
5
10
27.100000
20
-234.300000
11
27.100000
21
-232.800000
0
ARC
5
553
100
AcDbEntity
8
1
100
AcDbCircle
6
CONTINUOUS
62
5
10
13.100000
20
-232.800000
40
1.000000
100
AcDbArc
50
0.000000
51
89.999999
0
LINE
5
554
100
AcDbEntity
8
1
100
AcDbLine
6
CONTINUOUS
62
5
10
14.100000
20
-232.800000
11
14.100000
21
-234.300000
0
LINE
5
555
100
AcDbEntity
8
1
100
AcDbLine
6
CONTINUOUS
62
5
10
5.600000
20
-231.800000
11
13.100000
21
-231.800000
0
LINE
5
556
100
AcDbEntity
8
1
100
AcDbLine
6
CONTINUOUS
62
5
10
-8.300000
20
-225.500000
11
-8.300000
21
-217.500000
0
LINE
5
557
100
AcDbEntity
8
1
100
AcDbLine
6
CONTINUOUS
62
5
10
-8.300000
20
-217.500000
11
-8.300000
21
-225.500000
0
POLYLINE
5
558
100
AcDbEntity
8
1
6
CONTINUOUS
62
5
100
AcDb2dPolyline
66
1
10
0.0
20
0.0
30
0.0
70
0
0
VERTEX
5
559
100
AcDbEntity
8
1
100
AcDbVertex
100
AcDb2dVertex
62
5
10
-9.200000
20
-217.500000
0
VERTEX
5
55a
100
AcDbEntity
8
1
100
AcDbVertex
100
AcDb2dVertex
62
5
10
-6.400000
20
-217.500000
0
VERTEX
5
55b
100
AcDbEntity
8
1
100
AcDbVertex
100
AcDb2dVertex
62
5
10
-6.400000
20
-225.500000
0
VERTEX
5
55c
100
AcDbEntity
8
1
100
AcDbVertex
100
AcDb2dVertex
62
5
10
-9.200000
20
-225.500000
0
SEQEND
5
55d
100
AcDbEntity
8
1
0
LINE
5
55e
100
AcDbEntity
8
1
100
AcDbLine
6
CONTINUOUS
62
5
10
-9.100000
20
-225.500000
11
-9.100000
21
-217.500000
0
LINE
5
55f
100
AcDbEntity
8
1
100
AcDbLine
6
CONTINUOUS
62
5
10
-9.200000
20
-217.500000
11
-9.200000
21
-225.500000
0
LINE
5
560
100
AcDbEntity
8
1
100
AcDbLine
6
CONTINUOUS
62
5
10
-1.400000
20
-228.400000
11
-3.400000
21
-228.400000
0
LINE
5
561
100
AcDbEntity
8
1
100
AcDbLine
6
CONTINUOUS
62
5
10
-3.400000
20
-228.000000
11
-3.400000
21
-228.400000
0
LINE
5
562
100
AcDbEntity
8
1
100
AcDbLine
6
CONTINUOUS
62
5
10
-1.400000
20
-228.000000
11
-1.400000
21
-228.400000
0
ARC
5
563
100
AcDbEntity
8
1
100
AcDbCircle
6
CONTINUOUS
62
5
10
-2.600000
20
-243.000000
40
0.500000
100
AcDbArc
50
-89.999999
51
0.000000
0
LINE
5
564
100
AcDbEntity
8
1
100
AcDbLine
6
CONTINUOUS
62
5
10
-2.600000
20
-243.500000
11
-4.700002
21
-243.500000
0
ARC
5
565
100
AcDbEntity
8
1
100
AcDbCircle
6
CONTINUOUS
62
5
10
-4.700002
20
-242.500000
40
1.000000
100
AcDbArc
50
179.999998
51
-89.999999
0
LINE
5
566
100
AcDbEntity
8
1
100
AcDbLine
6
CONTINUOUS
62
5
10
-5.700002
20
-242.500000
11
-5.700002
21
-242.500000
0
LINE
5
567
100
AcDbEntity
8
1
100
AcDbLine
6
CONTINUOUS
62
5
10
-2.100000
20
-242.900000
11
-2.100000
21
-243.000000
0
ARC
5
568
100
AcDbEntity
8
1
100
AcDbCircle
6
CONTINUOUS
62
5
10
-5.200002
20
-238.000000
40
0.500000
100
AcDbArc
50
89.999786
51
179.999998
0
LINE
5
569
100
AcDbEntity
8
1
100
AcDbLine
6
CONTINUOUS
62
5
10
-5.700002
20
-238.000000
11
-5.700002
21
-244.439594
0
ARC
5
56a
100
AcDbEntity
8
1
100
AcDbCircle
6
CONTINUOUS
62
5
10
-6.700002
20
-244.439594
40
1.000000
100
AcDbArc
50
-117.387130
51
-0.000000
0
ARC
5
56b
100
AcDbEntity
8
1
100
AcDbCircle
6
CONTINUOUS
62
5
10
-4.400000
20
-240.000000
40
6.000000
100
AcDbArc
50
-131.568641
51
-117.387130
0
LINE
5
56c
100
AcDbEntity
8
1
100
AcDbLine
6
CONTINUOUS
62
5
10
-3.200001
20
-237.500000
11
-5.200000
21
-237.500000
0
ARC
5
56d
100
AcDbEntity
8
1
100
AcDbCircle
6
CONTINUOUS
62
5
10
-0.800000
20
-228.800000
40
0.900000
100
AcDbArc
50
-89.999999
51
0.000000
0
LINE
5
56e
100
AcDbEntity
8
1
100
AcDbLine
6
CONTINUOUS
62
5
10
0.100000
20
-228.800000
11
0.100000
21
-228.000000
0
LINE
5
56f
100
AcDbEntity
8
1
100
AcDbLine
6
CONTINUOUS
62
5
10
-4.900000
20
-229.700000
11
-0.800000
21
-229.700000
0
ARC
5
570
100
AcDbEntity
8
1
100
AcDbCircle
6
CONTINUOUS
62
5
10
-2.700001
20
-242.357846
40
0.500000
100
AcDbArc
50
179.999998
51
-89.999999
0
POLYLINE
5
571
100
AcDbEntity
8
1
6
CONTINUOUS
62
5
100
AcDb2dPolyline
66
1
10
0.0
20
0.0
30
0.0
70
0
0
VERTEX
5
572
100
AcDbEntity
8
1
100
AcDbVertex
100
AcDb2dVertex
62
5
10
-3.200001
20
-242.357846
0
VERTEX
5
573
100
AcDbEntity
8
1
100
AcDbVertex
100
AcDb2dVertex
62
5
10
-3.200001
20
-237.354545
0
VERTEX
5
574
100
AcDbEntity
8
1
100
AcDbVertex
100
AcDb2dVertex
62
5
10
-2.500001
20
-237.100000
0
SEQEND
5
575
100
AcDbEntity
8
1
0
LINE
5
576
100
AcDbEntity
8
1
100
AcDbLine
6
CONTINUOUS
62
5
10
-4.900000
20
-226.500000
11
-4.900000
21
-233.284496
0
ARC
5
577
100
AcDbEntity
8
1
100
AcDbCircle
6
CONTINUOUS
62
5
10
-3.900000
20
-233.284496
40
1.000000
100
AcDbArc
50
179.999998
51
-108.824694
0
LINE
5
578
100
AcDbEntity
8
1
100
AcDbLine
6
CONTINUOUS
62
5
10
-4.222674
20
-234.231007
11
-1.854649
21
-235.038287
0
ARC
5
579
100
AcDbEntity
8
1
100
AcDbCircle
6
CONTINUOUS
62
5
10
-2.499996
20
-236.931308
40
2.000000
100
AcDbArc
50
-0.000000
51
71.175304
0
LINE
5
57a
100
AcDbEntity
8
1
100
AcDbLine
6
CONTINUOUS
62
5
10
-0.499996
20
-236.931308
11
-0.499996
21
-241.900000
0
ARC
5
57b
100
AcDbEntity
8
1
100
AcDbCircle
6
CONTINUOUS
62
5
10
-1.499996
20
-241.900000
40
1.000000
100
AcDbArc
50
-89.999999
51
-0.000000
0
POLYLINE
5
57c
100
AcDbEntity
8
1
6
CONTINUOUS
62
5
100
AcDb2dPolyline
66
1
10
0.0
20
0.0
30
0.0
70
0
0
VERTEX
5
57d
100
AcDbEntity
8
1
100
AcDbVertex
100
AcDb2dVertex
62
5
10
-1.499996
20
-242.900000
0
VERTEX
5
57e
100
AcDbEntity
8
1
100
AcDbVertex
100
AcDb2dVertex
62
5
10
-2.100000
20
-242.900000
0
VERTEX
5
57f
100
AcDbEntity
8
1
100
AcDbVertex
100
AcDb2dVertex
62
5
10
-2.100000
20
-242.857846
0
VERTEX
5
580
100
AcDbEntity
8
1
100
AcDbVertex
100
AcDb2dVertex
62
5
10
-2.700001
20
-242.857846
0
SEQEND
5
581
100
AcDbEntity
8
1
0
ARC
5
582
100
AcDbEntity
8
1
100
AcDbCircle
6
CONTINUOUS
62
5
10
-1.699996
20
-241.800000
40
1.000000
100
AcDbArc
50
-89.999999
51
-0.000000
0
LINE
5
583
100
AcDbEntity
8
1
100
AcDbLine
6
CONTINUOUS
62
5
10
-1.699996
20
-242.800000
11
-2.000001
21
-242.800000
0
ARC
5
584
100
AcDbEntity
8
1
100
AcDbCircle
6
CONTINUOUS
62
5
10
-2.000001
20
-242.300000
40
0.500000
100
AcDbArc
50
179.999998
51
-89.999999
0
LINE
5
585
100
AcDbEntity
8
1
100
AcDbLine
6
CONTINUOUS
62
5
10
-2.500001
20
-242.300000
11
-2.500001
21
-237.100000
0
LINE
5
586
100
AcDbEntity
8
1
100
AcDbLine
6
CONTINUOUS
62
5
10
-2.500001
20
-237.100000
11
-5.200002
21
-237.100000
0
ARC
5
587
100
AcDbEntity
8
1
100
AcDbCircle
6
CONTINUOUS
62
5
10
-5.200002
20
-238.000000
40
0.900000
100
AcDbArc
50
89.999999
51
179.999998
0
LINE
5
588
100
AcDbEntity
8
1
100
AcDbLine
6
CONTINUOUS
62
5
10
-6.100002
20
-238.000000
11
-6.100002
21
-244.489988
0
ARC
5
589
100
AcDbEntity
8
1
100
AcDbCircle
6
CONTINUOUS
62
5
10
-6.600002
20
-244.489988
40
0.500000
100
AcDbArc
50
-116.103904
51
-0.000000
0
ARC
5
58a
100
AcDbEntity
8
1
100
AcDbCircle
6
CONTINUOUS
62
5
10
-4.400000
20
-240.000000
40
5.500000
100
AcDbArc
50
-179.999998
51
-116.103904
0
LINE
5
58b
100
AcDbEntity
8
1
100
AcDbLine
6
CONTINUOUS
62
5
10
-9.900000
20
-240.000000
11
-9.900000
21
-190.000000
0
LINE
5
58c
100
AcDbEntity
8
1
100
AcDbLine
6
CONTINUOUS
62
5
10
-5.100000
20
-190.000000
11
-5.100000
21
-233.427617
0
ARC
5
58d
100
AcDbEntity
8
1
100
AcDbCircle
6
CONTINUOUS
62
5
10
-4.100000
20
-233.427617
40
1.000000
100
AcDbArc
50
179.999998
51
-108.824694
0
LINE
5
58e
100
AcDbEntity
8
1
100
AcDbLine
6
CONTINUOUS
62
5
10
-4.422674
20
-234.374127
11
-2.054649
21
-235.181408
0
ARC
5
58f
100
AcDbEntity
8
1
100
AcDbCircle
6
CONTINUOUS
62
5
10
-2.699996
20
-237.074428
40
2.000000
100
AcDbArc
50
-0.000000
51
71.175304
0
LINE
5
590
100
AcDbEntity
8
1
100
AcDbLine
6
CONTINUOUS
62
5
10
-0.699996
20
-237.074428
11
-0.699996
21
-241.800000
0
ARC
5
591
100
AcDbEntity
8
1
100
AcDbCircle
6
CONTINUOUS
62
5
10
-11.100000
20
-237.000000
40
0.500000
100
AcDbArc
50
179.999998
51
-89.999999
0
LINE
5
592
100
AcDbEntity
8
1
100
AcDbLine
6
CONTINUOUS
62
5
10
-11.600000
20
-237.000000
11
-11.600000
21
-190.000000
0
LINE
5
593
100
AcDbEntity
8
1
100
AcDbLine
6
CONTINUOUS
62
5
10
-9.900000
20
-237.500000
11
-11.100000
21
-237.500000
0
ARC
5
594
100
AcDbEntity
8
1
100
AcDbCircle
6
CONTINUOUS
62
5
10
46.350000
20
-239.200000
40
1.000000
100
AcDbArc
50
-0.000000
51
89.999999
0
LINE
5
595
100
AcDbEntity
8
1
100
AcDbLine
6
CONTINUOUS
62
5
10
47.350000
20
-239.200000
11
47.350000
21
-242.500001
0
ARC
5
596
100
AcDbEntity
8
1
100
AcDbCircle
6
CONTINUOUS
62
5
10
46.350000
20
-242.500001
40
1.000000
100
AcDbArc
50
-89.999999
51
-0.000000
0
POLYLINE
5
597
100
AcDbEntity
8
1
6
CONTINUOUS
62
5
100
AcDb2dPolyline
66
1
10
0.0
20
0.0
30
0.0
70
0
0
VERTEX
5
598
100
AcDbEntity
8
1
100
AcDbVertex
100
AcDb2dVertex
62
5
10
46.350000
20
-243.500001
0
VERTEX
5
599
100
AcDbEntity
8
1
100
AcDbVertex
100
AcDb2dVertex
62
5
10
46.350000
20
-243.500001
0
VERTEX
5
59a
100
AcDbEntity
8
1
100
AcDbVertex
100
AcDb2dVertex
62
5
10
40.850000
20
-243.500001
0
SEQEND
5
59b
100
AcDbEntity
8
1
0
ARC
5
59c
100
AcDbEntity
8
1
100
AcDbCircle
6
CONTINUOUS
62
5
10
40.850000
20
-242.500001
40
1.000000
100
AcDbArc
50
179.999998
51
-89.999999
0
POLYLINE
5
59d
100
AcDbEntity
8
1
6
CONTINUOUS
62
5
100
AcDb2dPolyline
66
1
10
0.0
20
0.0
30
0.0
70
0
0
VERTEX
5
59e
100
AcDbEntity
8
1
100
AcDbVertex
100
AcDb2dVertex
62
5
10
39.850000
20
-242.500001
0
VERTEX
5
59f
100
AcDbEntity
8
1
100
AcDbVertex
100
AcDb2dVertex
62
5
10
39.850000
20
-242.500001
0
VERTEX
5
5a0
100
AcDbEntity
8
1
100
AcDbVertex
100
AcDb2dVertex
62
5
10
39.850000
20
-239.200000
0
SEQEND
5
5a1
100
AcDbEntity
8
1
0
ARC
5
5a2
100
AcDbEntity
8
1
100
AcDbCircle
6
CONTINUOUS
62
5
10
40.850000
20
-239.200000
40
1.000000
100
AcDbArc
50
89.999999
51
179.999998
0
LINE
5
5a3
100
AcDbEntity
8
1
100
AcDbLine
6
CONTINUOUS
62
5
10
40.850000
20
-238.200000
11
41.350000
21
-238.200000
0
LINE
5
5a4
100
AcDbEntity
8
1
100
AcDbLine
6
CONTINUOUS
62
5
10
42.350000
20
-238.200000
11
44.850000
21
-238.200000
0
LINE
5
5a5
100
AcDbEntity
8
1
100
AcDbLine
6
CONTINUOUS
62
5
10
45.850000
20
-238.200000
11
46.350000
21
-238.200000
0
ARC
5
5a6
100
AcDbEntity
8
1
100
AcDbCircle
6
CONTINUOUS
62
5
10
120.100000
20
-232.800000
40
1.000000
100
AcDbArc
50
89.999999
51
-179.999998
0
LINE
5
5a7
100
AcDbEntity
8
1
100
AcDbLine
6
CONTINUOUS
62
5
10
120.100000
20
-231.800000
11
127.600000
21
-231.800000
0
LINE
5
5a8
100
AcDbEntity
8
1
100
AcDbLine
6
CONTINUOUS
62
5
10
119.100000
20
-234.300000
11
119.100000
21
-232.800000
0
ARC
5
5a9
100
AcDbEntity
8
1
100
AcDbCircle
6
CONTINUOUS
62
5
10
40.600000
20
-229.000000
40
1.000000
100
AcDbArc
50
89.999999
51
-179.999998
0
LINE
5
5aa
100
AcDbEntity
8
1
100
AcDbLine
6
CONTINUOUS
62
5
10
40.600000
20
-228.000000
11
46.600000
21
-228.000000
0
ARC
5
5ab
100
AcDbEntity
8
1
100
AcDbCircle
6
CONTINUOUS
62
5
10
46.600000
20
-229.000000
40
1.000000
100
AcDbArc
50
-0.000000
51
89.999999
0
POLYLINE
5
5ac
100
AcDbEntity
8
1
6
CONTINUOUS
62
5
100
AcDb2dPolyline
66
1
10
0.0
20
0.0
30
0.0
70
0
0
VERTEX
5
5ad
100
AcDbEntity
8
1
100
AcDbVertex
100
AcDb2dVertex
62
5
10
47.600000
20
-229.000000
0
VERTEX
5
5ae
100
AcDbEntity
8
1
100
AcDbVertex
100
AcDb2dVertex
62
5
10
55.171429
20
-234.300000
0
VERTEX
5
5af
100
AcDbEntity
8
1
100
AcDbVertex
100
AcDb2dVertex
62
5
10
78.028571
20
-234.300000
0
VERTEX
5
5b0
100
AcDbEntity
8
1
100
AcDbVertex
100
AcDb2dVertex
62
5
10
85.600000
20
-229.000000
0
SEQEND
5
5b1
100
AcDbEntity
8
1
0
ARC
5
5b2
100
AcDbEntity
8
1
100
AcDbCircle
6
CONTINUOUS
62
5
10
86.600000
20
-229.000000
40
1.000000
100
AcDbArc
50
89.999999
51
-179.999998
0
LINE
5
5b3
100
AcDbEntity
8
1
100
AcDbLine
6
CONTINUOUS
62
5
10
86.600000
20
-228.000000
11
92.600000
21
-228.000000
0
ARC
5
5b4
100
AcDbEntity
8
1
100
AcDbCircle
6
CONTINUOUS
62
5
10
92.600000
20
-229.000000
40
1.000000
100
AcDbArc
50
-0.000000
51
89.999999
0
POLYLINE
5
5b5
100
AcDbEntity
8
1
6
CONTINUOUS
62
5
100
AcDb2dPolyline
66
1
10
0.0
20
0.0
30
0.0
70
0
0
VERTEX
5
5b6
100
AcDbEntity
8
1
100
AcDbVertex
100
AcDb2dVertex
62
5
10
93.600000
20
-229.000000
0
VERTEX
5
5b7
100
AcDbEntity
8
1
100
AcDbVertex
100
AcDb2dVertex
62
5
10
101.171429
20
-234.300000
0
VERTEX
5
5b8
100
AcDbEntity
8
1
100
AcDbVertex
100
AcDb2dVertex
62
5
10
124.028571
20
-234.300000
0
VERTEX
5
5b9
100
AcDbEntity
8
1
100
AcDbVertex
100
AcDb2dVertex
62
5
10
131.600000
20
-229.000000
0
SEQEND
5
5ba
100
AcDbEntity
8
1
0
ARC
5
5bb
100
AcDbEntity
8
1
100
AcDbCircle
6
CONTINUOUS
62
5
10
132.600000
20
-229.000000
40
1.000000
100
AcDbArc
50
89.999999
51
-179.999998
0
LINE
5
5bc
100
AcDbEntity
8
1
100
AcDbLine
6
CONTINUOUS
62
5
10
132.600000
20
-228.000000
11
138.600000
21
-228.000000
0
ARC
5
5bd
100
AcDbEntity
8
1
100
AcDbCircle
6
CONTINUOUS
62
5
10
138.600000
20
-229.000000
40
1.000000
100
AcDbArc
50
-0.000000
51
89.999999
0
POLYLINE
5
5be
100
AcDbEntity
8
1
6
CONTINUOUS
62
5
100
AcDb2dPolyline
66
1
10
0.0
20
0.0
30
0.0
70
0
0
VERTEX
5
5bf
100
AcDbEntity
8
1
100
AcDbVertex
100
AcDb2dVertex
62
5
10
139.600000
20
-229.000000
0
VERTEX
5
5c0
100
AcDbEntity
8
1
100
AcDbVertex
100
AcDb2dVertex
62
5
10
147.171429
20
-234.300000
0
VERTEX
5
5c1
100
AcDbEntity
8
1
100
AcDbVertex
100
AcDb2dVertex
62
5
10
170.028571
20
-234.300000
0
VERTEX
5
5c2
100
AcDbEntity
8
1
100
AcDbVertex
100
AcDb2dVertex
62
5
10
177.600000
20
-229.000000
0
SEQEND
5
5c3
100
AcDbEntity
8
1
0
ARC
5
5c4
100
AcDbEntity
8
1
100
AcDbCircle
6
CONTINUOUS
62
5
10
178.600000
20
-229.000000
40
1.000000
100
AcDbArc
50
89.999999
51
-179.999998
0
LINE
5
5c5
100
AcDbEntity
8
1
100
AcDbLine
6
CONTINUOUS
62
5
10
178.600000
20
-228.000000
11
182.600000
21
-228.000000
0
ARC
5
5c6
100
AcDbEntity
8
1
100
AcDbCircle
6
CONTINUOUS
62
5
10
182.600000
20
-226.500000
40
1.500000
100
AcDbArc
50
-89.999999
51
0.000000
0
LINE
5
5c7
100
AcDbEntity
8
1
100
AcDbLine
6
CONTINUOUS
62
5
10
184.100000
20
-226.500000
11
184.100000
21
-190.000000
0
LINE
5
5c8
100
AcDbEntity
8
1
100
AcDbLine
6
CONTINUOUS
62
5
10
-4.900000
20
-190.000000
11
-4.900000
21
-226.500000
0
ARC
5
5c9
100
AcDbEntity
8
1
100
AcDbCircle
6
CONTINUOUS
62
5
10
-3.400000
20
-226.500000
40
1.500000
100
AcDbArc
50
179.999998
51
-89.999999
0
LINE
5
5ca
100
AcDbEntity
8
1
100
AcDbLine
6
CONTINUOUS
62
5
10
-3.400000
20
-228.000000
11
0.600000
21
-228.000000
0
ARC
5
5cb
100
AcDbEntity
8
1
100
AcDbCircle
6
CONTINUOUS
62
5
10
0.600000
20
-229.000000
40
1.000000
100
AcDbArc
50
-0.000000
51
89.999999
0
POLYLINE
5
5cc
100
AcDbEntity
8
1
6
CONTINUOUS
62
5
100
AcDb2dPolyline
66
1
10
0.0
20
0.0
30
0.0
70
0
0
VERTEX
5
5cd
100
AcDbEntity
8
1
100
AcDbVertex
100
AcDb2dVertex
62
5
10
1.600000
20
-229.000000
0
VERTEX
5
5ce
100
AcDbEntity
8
1
100
AcDbVertex
100
AcDb2dVertex
62
5
10
9.171429
20
-234.300000
0
VERTEX
5
5cf
100
AcDbEntity
8
1
100
AcDbVertex
100
AcDb2dVertex
62
5
10
32.028571
20
-234.300000
0
VERTEX
5
5d0
100
AcDbEntity
8
1
100
AcDbVertex
100
AcDb2dVertex
62
5
10
39.600000
20
-229.000000
0
SEQEND
5
5d1
100
AcDbEntity
8
1
0
LINE
5
5d2
100
AcDbEntity
8
1
100
AcDbLine
6
CONTINUOUS
62
5
10
182.300000
20
-134.000000
11
217.800000
21
-134.000000
0
LINE
5
5d3
100
AcDbEntity
8
1
100
AcDbLine
6
CONTINUOUS
62
5
10
182.300000
20
-246.000000
11
217.800000
21
-246.000000
0
POLYLINE
5
5d4
100
AcDbEntity
8
1
6
CONTINUOUS
62
5
100
AcDb2dPolyline
66
1
10
0.0
20
0.0
30
0.0
70
0
0
VERTEX
5
5d5
100
AcDbEntity
8
1
100
AcDbVertex
100
AcDb2dVertex
62
5
10
215.800000
20
-190.000000
0
VERTEX
5
5d6
100
AcDbEntity
8
1
100
AcDbVertex
100
AcDb2dVertex
62
5
10
215.800000
20
-246.000000
0
VERTEX
5
5d7
100
AcDbEntity
8
1
100
AcDbVertex
100
AcDb2dVertex
62
5
10
214.800000
20
-240.000000
0
VERTEX
5
5d8
100
AcDbEntity
8
1
100
AcDbVertex
100
AcDb2dVertex
62
5
10
216.800000
20
-240.000000
0
VERTEX
5
5d9
100
AcDbEntity
8
1
100
AcDbVertex
100
AcDb2dVertex
62
5
10
215.800000
20
-246.000000
0
VERTEX
5
5da
100
AcDbEntity
8
1
100
AcDbVertex
100
AcDb2dVertex
62
5
10
215.300000
20
-240.000000
0
VERTEX
5
5db
100
AcDbEntity
8
1
100
AcDbVertex
100
AcDb2dVertex
62
5
10
216.300000
20
-240.000000
0
VERTEX
5
5dc
100
AcDbEntity
8
1
100
AcDbVertex
100
AcDb2dVertex
62
5
10
215.800000
20
-246.000000
0
SEQEND
5
5dd
100
AcDbEntity
8
1
0
POLYLINE
5
5de
100
AcDbEntity
8
1
6
CONTINUOUS
62
5
100
AcDb2dPolyline
66
1
10
0.0
20
0.0
30
0.0
70
0
0
VERTEX
5
5df
100
AcDbEntity
8
1
100
AcDbVertex
100
AcDb2dVertex
62
5
10
215.800000
20
-190.000000
0
VERTEX
5
5e0
100
AcDbEntity
8
1
100
AcDbVertex
100
AcDb2dVertex
62
5
10
215.800000
20
-134.000000
0
VERTEX
5
5e1
100
AcDbEntity
8
1
100
AcDbVertex
100
AcDb2dVertex
62
5
10
216.800000
20
-140.000000
0
VERTEX
5
5e2
100
AcDbEntity
8
1
100
AcDbVertex
100
AcDb2dVertex
62
5
10
214.800000
20
-140.000000
0
VERTEX
5
5e3
100
AcDbEntity
8
1
100
AcDbVertex
100
AcDb2dVertex
62
5
10
215.800000
20
-134.000000
0
VERTEX
5
5e4
100
AcDbEntity
8
1
100
AcDbVertex
100
AcDb2dVertex
62
5
10
216.300000
20
-140.000000
0
VERTEX
5
5e5
100
AcDbEntity
8
1
100
AcDbVertex
100
AcDb2dVertex
62
5
10
215.300000
20
-140.000000
0
VERTEX
5
5e6
100
AcDbEntity
8
1
100
AcDbVertex
100
AcDb2dVertex
62
5
10
215.800000
20
-134.000000
0
SEQEND
5
5e7
100
AcDbEntity
8
1
0
ARC
5
5e8
100
AcDbEntity
8
1
100
AcDbCircle
6
CONTINUOUS
62
5
10
248.900000
20
-134.500000
40
0.500000
100
AcDbArc
50
89.999999
51
-179.999998
0
POLYLINE
5
5e9
100
AcDbEntity
8
1
6
CONTINUOUS
62
5
100
AcDb2dPolyline
66
1
10
0.0
20
0.0
30
0.0
70
0
0
VERTEX
5
5ea
100
AcDbEntity
8
1
100
AcDbVertex
100
AcDb2dVertex
62
5
10
248.400000
20
-134.500000
0
VERTEX
5
5eb
100
AcDbEntity
8
1
100
AcDbVertex
100
AcDb2dVertex
62
5
10
248.400000
20
-134.560406
0
VERTEX
5
5ec
100
AcDbEntity
8
1
100
AcDbVertex
100
AcDb2dVertex
62
5
10
246.214802
20
-134.938282
0
SEQEND
5
5ed
100
AcDbEntity
8
1
0
ARC
5
5ee
100
AcDbEntity
8
1
100
AcDbCircle
6
CONTINUOUS
62
5
10
246.300000
20
-135.430970
40
0.500000
100
AcDbArc
50
99.810862
51
179.999998
0
LINE
5
5ef
100
AcDbEntity
8
1
100
AcDbLine
6
CONTINUOUS
62
5
10
245.800000
20
-135.430970
11
245.800000
21
-244.569030
0
ARC
5
5f0
100
AcDbEntity
8
1
100
AcDbCircle
6
CONTINUOUS
62
5
10
246.300000
20
-244.569030
40
0.500000
100
AcDbArc
50
-179.999998
51
-99.810862
0
POLYLINE
5
5f1
100
AcDbEntity
8
1
6
CONTINUOUS
62
5
100
AcDb2dPolyline
66
1
10
0.0
20
0.0
30
0.0
70
0
0
VERTEX
5
5f2
100
AcDbEntity
8
1
100
AcDbVertex
100
AcDb2dVertex
62
5
10
246.214802
20
-245.061718
0
VERTEX
5
5f3
100
AcDbEntity
8
1
100
AcDbVertex
100
AcDb2dVertex
62
5
10
248.400000
20
-245.439594
0
VERTEX
5
5f4
100
AcDbEntity
8
1
100
AcDbVertex
100
AcDb2dVertex
62
5
10
248.400000
20
-245.500000
0
SEQEND
5
5f5
100
AcDbEntity
8
1
0
ARC
5
5f6
100
AcDbEntity
8
1
100
AcDbCircle
6
CONTINUOUS
62
5
10
248.900000
20
-245.500000
40
0.500000
100
AcDbArc
50
179.999998
51
-89.999999
0
POLYLINE
5
5f7
100
AcDbEntity
8
1
6
CONTINUOUS
62
5
100
AcDb2dPolyline
66
1
10
0.0
20
0.0
30
0.0
70
0
0
VERTEX
5
5f8
100
AcDbEntity
8
1
100
AcDbVertex
100
AcDb2dVertex
62
5
10
248.900000
20
-246.000000
0
VERTEX
5
5f9
100
AcDbEntity
8
1
100
AcDbVertex
100
AcDb2dVertex
62
5
10
251.600000
20
-246.000000
0
VERTEX
5
5fa
100
AcDbEntity
8
1
100
AcDbVertex
100
AcDb2dVertex
62
5
10
251.600000
20
-134.000000
0
VERTEX
5
5fb
100
AcDbEntity
8
1
100
AcDbVertex
100
AcDb2dVertex
62
5
10
248.900000
20
-134.000000
0
SEQEND
5
5fc
100
AcDbEntity
8
1
0
ARC
5
5fd
100
AcDbEntity
8
1
100
AcDbCircle
6
CONTINUOUS
62
5
10
40.600000
20
-151.000000
40
1.000000
100
AcDbArc
50
179.999998
51
-89.999999
0
LINE
5
5fe
100
AcDbEntity
8
1
100
AcDbLine
6
CONTINUOUS
62
5
10
40.600000
20
-152.000000
11
46.600000
21
-152.000000
0
ARC
5
5ff
100
AcDbEntity
8
1
100
AcDbCircle
6
CONTINUOUS
62
5
10
46.600000
20
-151.000000
40
1.000000
100
AcDbArc
50
-89.999999
51
0.000000
0
POLYLINE
5
600
100
AcDbEntity
8
1
6
CONTINUOUS
62
5
100
AcDb2dPolyline
66
1
10
0.0
20
0.0
30
0.0
70
0
0
VERTEX
5
601
100
AcDbEntity
8
1
100
AcDbVertex
100
AcDb2dVertex
62
5
10
47.600000
20
-151.000000
0
VERTEX
5
602
100
AcDbEntity
8
1
100
AcDbVertex
100
AcDb2dVertex
62
5
10
55.171429
20
-145.700000
0
VERTEX
5
603
100
AcDbEntity
8
1
100
AcDbVertex
100
AcDb2dVertex
62
5
10
78.028571
20
-145.700000
0
VERTEX
5
604
100
AcDbEntity
8
1
100
AcDbVertex
100
AcDb2dVertex
62
5
10
85.600000
20
-151.000000
0
SEQEND
5
605
100
AcDbEntity
8
1
0
ARC
5
606
100
AcDbEntity
8
1
100
AcDbCircle
6
CONTINUOUS
62
5
10
86.600000
20
-151.000000
40
1.000000
100
AcDbArc
50
179.999998
51
-89.999999
0
LINE
5
607
100
AcDbEntity
8
1
100
AcDbLine
6
CONTINUOUS
62
5
10
86.600000
20
-152.000000
11
92.600000
21
-152.000000
0
ARC
5
608
100
AcDbEntity
8
1
100
AcDbCircle
6
CONTINUOUS
62
5
10
92.600000
20
-151.000000
40
1.000000
100
AcDbArc
50
-89.999999
51
0.000000
0
POLYLINE
5
609
100
AcDbEntity
8
1
6
CONTINUOUS
62
5
100
AcDb2dPolyline
66
1
10
0.0
20
0.0
30
0.0
70
0
0
VERTEX
5
60a
100
AcDbEntity
8
1
100
AcDbVertex
100
AcDb2dVertex
62
5
10
93.600000
20
-151.000000
0
VERTEX
5
60b
100
AcDbEntity
8
1
100
AcDbVertex
100
AcDb2dVertex
62
5
10
101.171429
20
-145.700000
0
VERTEX
5
60c
100
AcDbEntity
8
1
100
AcDbVertex
100
AcDb2dVertex
62
5
10
124.028571
20
-145.700000
0
VERTEX
5
60d
100
AcDbEntity
8
1
100
AcDbVertex
100
AcDb2dVertex
62
5
10
131.600000
20
-151.000000
0
SEQEND
5
60e
100
AcDbEntity
8
1
0
ARC
5
60f
100
AcDbEntity
8
1
100
AcDbCircle
6
CONTINUOUS
62
5
10
132.600000
20
-151.000000
40
1.000000
100
AcDbArc
50
179.999998
51
-89.999999
0
LINE
5
610
100
AcDbEntity
8
1
100
AcDbLine
6
CONTINUOUS
62
5
10
132.600000
20
-152.000000
11
138.600000
21
-152.000000
0
ARC
5
611
100
AcDbEntity
8
1
100
AcDbCircle
6
CONTINUOUS
62
5
10
138.600000
20
-151.000000
40
1.000000
100
AcDbArc
50
-89.999999
51
0.000000
0
POLYLINE
5
612
100
AcDbEntity
8
1
6
CONTINUOUS
62
5
100
AcDb2dPolyline
66
1
10
0.0
20
0.0
30
0.0
70
0
0
VERTEX
5
613
100
AcDbEntity
8
1
100
AcDbVertex
100
AcDb2dVertex
62
5
10
139.600000
20
-151.000000
0
VERTEX
5
614
100
AcDbEntity
8
1
100
AcDbVertex
100
AcDb2dVertex
62
5
10
147.171429
20
-145.700000
0
VERTEX
5
615
100
AcDbEntity
8
1
100
AcDbVertex
100
AcDb2dVertex
62
5
10
170.028571
20
-145.700000
0
VERTEX
5
616
100
AcDbEntity
8
1
100
AcDbVertex
100
AcDb2dVertex
62
5
10
177.600000
20
-151.000000
0
SEQEND
5
617
100
AcDbEntity
8
1
0
ARC
5
618
100
AcDbEntity
8
1
100
AcDbCircle
6
CONTINUOUS
62
5
10
178.600000
20
-151.000000
40
1.000000
100
AcDbArc
50
179.999998
51
-89.999999
0
LINE
5
619
100
AcDbEntity
8
1
100
AcDbLine
6
CONTINUOUS
62
5
10
178.600000
20
-152.000000
11
182.600000
21
-152.000000
0
ARC
5
61a
100
AcDbEntity
8
1
100
AcDbCircle
6
CONTINUOUS
62
5
10
182.600000
20
-153.500000
40
1.500000
100
AcDbArc
50
-0.000000
51
89.999999
0
LINE
5
61b
100
AcDbEntity
8
1
100
AcDbLine
6
CONTINUOUS
62
5
10
184.100000
20
-153.500000
11
184.100000
21
-190.000000
0
LINE
5
61c
100
AcDbEntity
8
1
100
AcDbLine
6
CONTINUOUS
62
5
10
-4.900000
20
-190.000000
11
-4.900000
21
-153.500000
0
ARC
5
61d
100
AcDbEntity
8
1
100
AcDbCircle
6
CONTINUOUS
62
5
10
-3.400000
20
-153.500000
40
1.500000
100
AcDbArc
50
89.999999
51
179.999998
0
LINE
5
61e
100
AcDbEntity
8
1
100
AcDbLine
6
CONTINUOUS
62
5
10
-3.400000
20
-152.000000
11
0.600000
21
-152.000000
0
ARC
5
61f
100
AcDbEntity
8
1
100
AcDbCircle
6
CONTINUOUS
62
5
10
0.600000
20
-151.000000
40
1.000000
100
AcDbArc
50
-89.999999
51
0.000000
0
POLYLINE
5
620
100
AcDbEntity
8
1
6
CONTINUOUS
62
5
100
AcDb2dPolyline
66
1
10
0.0
20
0.0
30
0.0
70
0
0
VERTEX
5
621
100
AcDbEntity
8
1
100
AcDbVertex
100
AcDb2dVertex
62
5
10
1.600000
20
-151.000000
0
VERTEX
5
622
100
AcDbEntity
8
1
100
AcDbVertex
100
AcDb2dVertex
62
5
10
9.171429
20
-145.700000
0
VERTEX
5
623
100
AcDbEntity
8
1
100
AcDbVertex
100
AcDb2dVertex
62
5
10
32.028571
20
-145.700000
0
VERTEX
5
624
100
AcDbEntity
8
1
100
AcDbVertex
100
AcDb2dVertex
62
5
10
39.600000
20
-151.000000
0
SEQEND
5
625
100
AcDbEntity
8
1
0
ARC
5
626
100
AcDbEntity
8
1
100
AcDbCircle
6
CONTINUOUS
62
5
10
-4.400000
20
-240.000000
40
6.000000
100
AcDbArc
50
179.999998
51
-89.999999
0
LINE
5
627
100
AcDbEntity
8
1
100
AcDbLine
6
CONTINUOUS
62
5
10
-4.400000
20
-246.000000
11
183.600000
21
-246.000000
0
ARC
5
628
100
AcDbEntity
8
1
100
AcDbCircle
6
CONTINUOUS
62
5
10
183.600000
20
-240.000000
40
6.000000
100
AcDbArc
50
-89.999999
51
0.000000
0
LINE
5
629
100
AcDbEntity
8
1
100
AcDbLine
6
CONTINUOUS
62
5
10
189.600000
20
-240.000000
11
189.600000
21
-237.500000
0
LINE
5
62a
100
AcDbEntity
8
1
100
AcDbLine
6
CONTINUOUS
62
5
10
189.600000
20
-142.500000
11
189.600000
21
-140.000000
0
ARC
5
62b
100
AcDbEntity
8
1
100
AcDbCircle
6
CONTINUOUS
62
5
10
183.600000
20
-140.000000
40
6.000000
100
AcDbArc
50
0.000000
51
89.999999
0
LINE
5
62c
100
AcDbEntity
8
1
100
AcDbLine
6
CONTINUOUS
62
5
10
183.600000
20
-134.000000
11
-4.400000
21
-134.000000
0
ARC
5
62d
100
AcDbEntity
8
1
100
AcDbCircle
6
CONTINUOUS
62
5
10
-4.400000
20
-140.000000
40
6.000000
100
AcDbArc
50
89.999999
51
179.999998
0
LINE
5
62e
100
AcDbEntity
8
1
100
AcDbLine
6
CONTINUOUS
62
5
10
-10.400000
20
-140.000000
11
-10.400000
21
-142.500000
0
LINE
5
62f
100
AcDbEntity
8
1
100
AcDbLine
6
CONTINUOUS
62
5
10
-10.400000
20
-237.500000
11
-10.400000
21
-240.000000
0
ARC
5
630
100
AcDbEntity
8
1
100
AcDbCircle
6
CONTINUOUS
62
5
10
-11.100000
20
-143.000000
40
0.500000
100
AcDbArc
50
89.999999
51
-179.999998
0
LINE
5
631
100
AcDbEntity
8
1
100
AcDbLine
6
CONTINUOUS
62
5
10
-11.600000
20
-143.000000
11
-11.600000
21
-190.000000
0
LINE
5
632
100
AcDbEntity
8
1
100
AcDbLine
6
CONTINUOUS
62
5
10
-9.900000
20
-142.500000
11
-11.100000
21
-142.500000
0
ARC
5
633
100
AcDbEntity
8
1
100
AcDbCircle
6
CONTINUOUS
62
5
10
-1.699996
20
-138.200000
40
1.000000
100
AcDbArc
50
0.000000
51
89.999999
0
LINE
5
634
100
AcDbEntity
8
1
100
AcDbLine
6
CONTINUOUS
62
5
10
-1.699996
20
-137.200000
11
-2.000001
21
-137.200000
0
ARC
5
635
100
AcDbEntity
8
1
100
AcDbCircle
6
CONTINUOUS
62
5
10
-2.000001
20
-137.700000
40
0.500000
100
AcDbArc
50
89.999999
51
-179.999998
0
LINE
5
636
100
AcDbEntity
8
1
100
AcDbLine
6
CONTINUOUS
62
5
10
-2.500001
20
-137.700000
11
-2.500001
21
-142.900000
0
LINE
5
637
100
AcDbEntity
8
1
100
AcDbLine
6
CONTINUOUS
62
5
10
-2.500001
20
-142.900000
11
-5.200002
21
-142.900000
0
ARC
5
638
100
AcDbEntity
8
1
100
AcDbCircle
6
CONTINUOUS
62
5
10
-5.200002
20
-142.000000
40
0.900000
100
AcDbArc
50
-179.999998
51
-89.999999
0
LINE
5
639
100
AcDbEntity
8
1
100
AcDbLine
6
CONTINUOUS
62
5
10
-6.100002
20
-142.000000
11
-6.100002
21
-135.510012
0
ARC
5
63a
100
AcDbEntity
8
1
100
AcDbCircle
6
CONTINUOUS
62
5
10
-6.600002
20
-135.510012
40
0.500000
100
AcDbArc
50
0.000000
51
116.103904
0
ARC
5
63b
100
AcDbEntity
8
1
100
AcDbCircle
6
CONTINUOUS
62
5
10
-4.400000
20
-140.000000
40
5.500000
100
AcDbArc
50
116.103904
51
179.999998
0
LINE
5
63c
100
AcDbEntity
8
1
100
AcDbLine
6
CONTINUOUS
62
5
10
-9.900000
20
-140.000000
11
-9.900000
21
-190.000000
0
LINE
5
63d
100
AcDbEntity
8
1
100
AcDbLine
6
CONTINUOUS
62
5
10
-5.100000
20
-190.000000
11
-5.100000
21
-146.572383
0
ARC
5
63e
100
AcDbEntity
8
1
100
AcDbCircle
6
CONTINUOUS
62
5
10
-4.100000
20
-146.572383
40
1.000000
100
AcDbArc
50
108.824694
51
-179.999998
0
LINE
5
63f
100
AcDbEntity
8
1
100
AcDbLine
6
CONTINUOUS
62
5
10
-4.422674
20
-145.625873
11
-2.054649
21
-144.818592
0
ARC
5
640
100
AcDbEntity
8
1
100
AcDbCircle
6
CONTINUOUS
62
5
10
-2.699996
20
-142.925572
40
2.000000
100
AcDbArc
50
-71.175304
51
0.000000
0
LINE
5
641
100
AcDbEntity
8
1
100
AcDbLine
6
CONTINUOUS
62
5
10
-0.699996
20
-142.925572
11
-0.699996
21
-138.200000
0
ARC
5
642
100
AcDbEntity
8
1
100
AcDbCircle
6
CONTINUOUS
62
5
10
180.899996
20
-138.200000
40
1.000000
100
AcDbArc
50
89.999999
51
179.999998
0
LINE
5
643
100
AcDbEntity
8
1
100
AcDbLine
6
CONTINUOUS
62
5
10
180.899996
20
-137.200000
11
181.200001
21
-137.200000
0
ARC
5
644
100
AcDbEntity
8
1
100
AcDbCircle
6
CONTINUOUS
62
5
10
181.200001
20
-137.700000
40
0.500000
100
AcDbArc
50
-0.000000
51
89.999999
0
LINE
5
645
100
AcDbEntity
8
1
100
AcDbLine
6
CONTINUOUS
62
5
10
181.700001
20
-137.700000
11
181.700001
21
-142.900000
0
LINE
5
646
100
AcDbEntity
8
1
100
AcDbLine
6
CONTINUOUS
62
5
10
181.700001
20
-142.900000
11
184.400002
21
-142.900000
0
ARC
5
647
100
AcDbEntity
8
1
100
AcDbCircle
6
CONTINUOUS
62
5
10
184.400002
20
-142.000000
40
0.900000
100
AcDbArc
50
-89.999999
51
-0.000000
0
LINE
5
648
100
AcDbEntity
8
1
100
AcDbLine
6
CONTINUOUS
62
5
10
185.300002
20
-142.000000
11
185.300002
21
-135.510012
0
ARC
5
649
100
AcDbEntity
8
1
100
AcDbCircle
6
CONTINUOUS
62
5
10
185.800002
20
-135.510012
40
0.500000
100
AcDbArc
50
63.896095
51
179.999998
0
ARC
5
64a
100
AcDbEntity
8
1
100
AcDbCircle
6
CONTINUOUS
62
5
10
183.600000
20
-140.000000
40
5.500000
100
AcDbArc
50
0.000000
51
63.896095
0
LINE
5
64b
100
AcDbEntity
8
1
100
AcDbLine
6
CONTINUOUS
62
5
10
189.100000
20
-140.000000
11
189.100000
21
-190.000000
0
LINE
5
64c
100
AcDbEntity
8
1
100
AcDbLine
6
CONTINUOUS
62
5
10
184.300000
20
-190.000000
11
184.300000
21
-146.572383
0
ARC
5
64d
100
AcDbEntity
8
1
100
AcDbCircle
6
CONTINUOUS
62
5
10
183.300000
20
-146.572383
40
1.000000
100
AcDbArc
50
-0.000000
51
71.175304
0
LINE
5
64e
100
AcDbEntity
8
1
100
AcDbLine
6
CONTINUOUS
62
5
10
183.622674
20
-145.625873
11
181.254649
21
-144.818592
0
ARC
5
64f
100
AcDbEntity
8
1
100
AcDbCircle
6
CONTINUOUS
62
5
10
181.899996
20
-142.925572
40
2.000000
100
AcDbArc
50
179.999998
51
-108.824694
0
LINE
5
650
100
AcDbEntity
8
1
100
AcDbLine
6
CONTINUOUS
62
5
10
179.899996
20
-142.925572
11
179.899996
21
-138.200000
0
ARC
5
651
100
AcDbEntity
8
1
100
AcDbCircle
6
CONTINUOUS
62
5
10
190.300000
20
-143.000000
40
0.500000
100
AcDbArc
50
-0.000000
51
89.999999
0
LINE
5
652
100
AcDbEntity
8
1
100
AcDbLine
6
CONTINUOUS
62
5
10
190.800000
20
-143.000000
11
190.800000
21
-190.000000
0
LINE
5
653
100
AcDbEntity
8
1
100
AcDbLine
6
CONTINUOUS
62
5
10
189.100000
20
-142.500000
11
190.300000
21
-142.500000
0
POLYLINE
5
654
100
AcDbEntity
8
1
6
CONTINUOUS
62
5
100
AcDb2dPolyline
66
1
10
0.0
20
0.0
30
0.0
70
1
0
VERTEX
5
655
100
AcDbEntity
8
1
100
AcDbVertex
100
AcDb2dVertex
62
5
10
-40.000000
20
-340.000000
0
VERTEX
5
656
100
AcDbEntity
8
1
100
AcDbVertex
100
AcDb2dVertex
62
5
10
-40.000000
20
0.000000
0
VERTEX
5
657
100
AcDbEntity
8
1
100
AcDbVertex
100
AcDb2dVertex
62
5
10
280.000000
20
0.000000
0
VERTEX
5
658
100
AcDbEntity
8
1
100
AcDbVertex
100
AcDb2dVertex
62
5
10
280.000000
20
-340.000000
0
VERTEX
5
659
100
AcDbEntity
8
1
100
AcDbVertex
100
AcDb2dVertex
62
5
10
-40.000000
20
-340.000000
0
SEQEND
5
65a
100
AcDbEntity
8
1
0
ENDSEC
0
SECTION
2
OBJECTS
0
DICTIONARY
5
65b
100
AcDbDictionary
3
ACAD_GROUP
350
65c
3
ACAD_MLINESTYLE
350
65d
0
DICTIONARY
5
65c
102
{ACAD_REACTORS
330
65b
102
}
100
AcDbDictionary
0
DICTIONARY
5
65d
102
{ACAD_REACTORS
330
65b
102
}
100
AcDbDictionary
3
STANDARD
350
65e
0
MLINESTYLE
5
65e
102
{ACAD_REACTORS
330
65d
102
}
100
AcDbMlineStyle
2
STANDARD
70
0
3

62
0
51
90.0
52
90.0
71
2
49
0.5
62
256
6
BYLAYER
49
-0.5
62
256
6
BYLAYER
0
ENDSEC
0
EOF
