0
SECTION
2
HEADER
9
$ACADVER
1
AC1012
9
$EXTMIN
10
-21.480000
20
-13.760000
30
0.0
9
$EXTMAX
10
-8.860000
20
-0.360000
30
0.0
9
$LIMMIN
10
-545.592000
20
-349.504000
9
$LIMMAX
10
-225.044000
20
-9.144000
9
$DIMSCALE
40
1.000000
9
$PDMODE
70
2
9
$PDSIZE
40
0.0
  9
$HANDSEED
  5
46f
0
ENDSEC
0
SECTION
2
CLASSES
0
ENDSEC
0
SECTION
2
TABLES
0
TABLE
2
LTYPE
5
1e
100
AcDbSymbolTable
70
12
0
LTYPE
5
1f
100
AcDbSymbolTableRecord
100
AcDbLinetypeTableRecord
2
BYBLOCK
70
0
3

72
65
73
0
40
0.0
0
LTYPE
5
20
100
AcDbSymbolTableRecord
100
AcDbLinetypeTableRecord
2
BYLAYER
70
0
3

72
65
73
0
40
0.0
0
LTYPE
5
21
100
AcDbSymbolTableRecord
100
AcDbLinetypeTableRecord
2
CONTINUOUS
70
64
3
Solid line
72
65
73
0
40
0.0
0
LTYPE
5
22
100
AcDbSymbolTableRecord
100
AcDbLinetypeTableRecord
2
DASHED
70
64
3
__ __ __ __ __ __ __ __ __ __ __ __ __ __ __
72
65
73
2
40
0.75
49
0.5
74
0
49
-0.25
74
0
0
LTYPE
5
23
100
AcDbSymbolTableRecord
100
AcDbLinetypeTableRecord
2
DOT
70
64
3
...............................................
72
65
73
2
40
0.25
49
0.0
74
0
49
-0.25
74
0
0
LTYPE
5
24
100
AcDbSymbolTableRecord
100
AcDbLinetypeTableRecord
2
DASHDOT
70
64
3
__ . __ . __ . __ . __ . __ . __ . __ . __ . --
72
65
73
4
40
1.0
49
0.5
74
0
49
-0.25
74
0
49
0.0
74
0
49
-0.25
74
0
0
LTYPE
5
25
100
AcDbSymbolTableRecord
100
AcDbLinetypeTableRecord
2
CENTER
70
64
3
____ _ ____ _ ____ _ ____ _ ____ _ ____ _ ____
72
65
73
4
40
2.0
49
1.25
74
0
49
-0.25
74
0
49
0.25
74
0
49
-0.25
74
0
0
LTYPE
5
26
100
AcDbSymbolTableRecord
100
AcDbLinetypeTableRecord
2
PHANTOM
70
64
3
_____ _ _ _____ _ _ _____ _ _ _____ _ _ ____
72
65
73
6
40
2.5
49
1.25
74
0
49
-0.25
74
0
49
0.25
74
0
49
-0.25
74
0
49
0.25
74
0
49
-0.25
74
0
0
LTYPE
5
27
100
AcDbSymbolTableRecord
100
AcDbLinetypeTableRecord
2
HIDDEN
70
64
3
_ _ _ _ _ _ _ _ _ _ _ _ _ _ _ _ _ _ _ _ _ _ _
72
65
73
2
40
0.375
49
0.25
74
0
49
-0.125
74
0
0
LTYPE
5
28
100
AcDbSymbolTableRecord
100
AcDbLinetypeTableRecord
2
BORDER
70
64
3
__ __ . __ __ . __ __ . __ __ . __ __ . __ __
72
65
73
6
40
1.75
49
0.5
74
0
49
-0.25
74
0
49
0.5
74
0
49
-0.25
74
0
49
0.0
74
0
49
-0.25
74
0
0
LTYPE
5
29
100
AcDbSymbolTableRecord
100
AcDbLinetypeTableRecord
2
DIVIDE
70
64
3
__ . . __ . . __ . . __ . . __ . . __ . . __
72
65
73
6
40
1.25
49
0.5
74
0
49
-0.25
74
0
49
0.0
74
0
49
-0.25
74
0
49
0.0
74
0
49
-0.25
74
0
0
LTYPE
5
2a
100
AcDbSymbolTableRecord
100
AcDbLinetypeTableRecord
2
DOT2
70
64
3
...............................................
72
65
73
2
40
0.125
49
0.0
74
0
49
-0.125
74
0
0
ENDTAB
0
TABLE
2
STYLE
5
2b
100
AcDbSymbolTable
70
1
0
STYLE
5
2c
100
AcDbSymbolTableRecord
100
AcDbTextStyleTableRecord
2
STANDARD
70
64
40
0.0
41
1.0
50
0.0
71
0
42
5.0
3
txt
4
bigfont
0
ENDTAB
0
TABLE
2
LAYER
5
2d
100
AcDbSymbolTable
70
2
0
LAYER
5
2e
100
AcDbSymbolTableRecord
100
AcDbLayerTableRecord
2
0
70
0
62
7
6
CONTINUOUS
0
LAYER
5
2f
100
AcDbSymbolTableRecord
100
AcDbLayerTableRecord
2
1
70
0
62
7
6
CONTINUOUS
0
ENDTAB
0
TABLE
2
APPID
5
30
100
AcDbSymbolTable
70
1
0
APPID
5
31
100
AcDbSymbolTableRecord
100
AcDbRegAppTableRecord
2
ACAD
70
64
0
ENDTAB
0
TABLE
2
DIMSTYLE
5
32
100
AcDbSymbolTable
70
0
0
ENDTAB
0
TABLE
2
UCS
5
33
100
AcDbSymbolTable
70
0
0
ENDTAB
0
TABLE
2
VIEW
5
34
100
AcDbSymbolTable
70
0
0
ENDTAB
0
TABLE
2
VPORT
5
35
100
AcDbSymbolTable
70
0
0
ENDTAB
0
TABLE
2
BLOCK_RECORD
5
36
100
AcDbSymbolTable
70
0
0
BLOCK_RECORD
5
37
100
AcDbSymbolTableRecord
100
AcDbBlockTableRecord
2
*MODEL_SPACE
0
BLOCK_RECORD
5
38
100
AcDbSymbolTableRecord
100
AcDbBlockTableRecord
2
*PAPER_SPACE
0
BLOCK_RECORD
5
39
100
AcDbSymbolTableRecord
100
AcDbBlockTableRecord
2
OPEN
0
BLOCK_RECORD
5
3a
100
AcDbSymbolTableRecord
100
AcDbBlockTableRecord
2
HALF
0
BLOCK_RECORD
5
3b
100
AcDbSymbolTableRecord
100
AcDbBlockTableRecord
2
CLOSEDBLANK
0
BLOCK_RECORD
5
3c
100
AcDbSymbolTableRecord
100
AcDbBlockTableRecord
2
HALFCLOSE_R
0
BLOCK_RECORD
5
3d
100
AcDbSymbolTableRecord
100
AcDbBlockTableRecord
2
DOT
0
BLOCK_RECORD
5
3e
100
AcDbSymbolTableRecord
100
AcDbBlockTableRecord
2
HALFOPEN_R
0
BLOCK_RECORD
5
3f
100
AcDbSymbolTableRecord
100
AcDbBlockTableRecord
2
CLOSEDF
0
BLOCK_RECORD
5
40
100
AcDbSymbolTableRecord
100
AcDbBlockTableRecord
2
HALF_R
0
ENDTAB
0
ENDSEC
0
SECTION
2
BLOCKS
0
BLOCK
5
41
100
AcDbEntity
8
0
100
AcDbBlockBegin
2
*MODEL_SPACE
70
0
10
0.0
20
0.0
30
0.0
3
*MODEL_SPACE
1

0
ENDBLK
5
42
100
AcDbEntity
8
0
100
AcDbBlockEnd
0
BLOCK
5
43
100
AcDbEntity
67
1
8
0
100
AcDbBlockBegin
2
*PAPER_SPACE
70
0
10
0.0
20
0.0
30
0.0
3
*PAPER_SPACE
1

0
ENDBLK
5
44
100
AcDbEntity
67
1
8
0
100
AcDbBlockEnd
0
BLOCK
5
45
100
AcDbEntity
8
0
100
AcDbBlockBegin
2
OPEN
70
0
10
0.0
20
0.0
30
0.0
3
OPEN
1

0
LINE
5
46
100
AcDbEntity
8
0
6
BYBLOCK
62
0
100
AcDbLine
10
0.000000
20
0.000000
11
-1.000000
21
0.000000
0
LINE
5
47
100
AcDbEntity
8
0
6
BYBLOCK
62
0
100
AcDbLine
10
-1.000000
20
-0.166667
11
0.000000
21
0.000000
0
LINE
5
48
100
AcDbEntity
8
0
6
BYBLOCK
62
0
100
AcDbLine
10
-1.000000
20
0.166667
11
0.000000
21
0.000000
0
ENDBLK
5
49
100
AcDbEntity
8
0
100
AcDbBlockEnd
0
BLOCK
5
4a
100
AcDbEntity
8
0
100
AcDbBlockBegin
2
HALF
70
0
10
0.0
20
0.0
30
0.0
3
HALF
1

0
SOLID
5
4b
100
AcDbEntity
8
0
6
BYBLOCK
62
0
100
AcDbTrace
10
-1.000000
20
0.166667
11
-1.000000
21
-0.166667
12
0.000000
22
0.000000
13
0.000000
23
0.000000
0
ENDBLK
5
4c
100
AcDbEntity
8
0
100
AcDbBlockEnd
0
BLOCK
5
4d
100
AcDbEntity
8
0
100
AcDbBlockBegin
2
CLOSEDBLANK
70
0
10
0.0
20
0.0
30
0.0
3
CLOSEDBLANK
1

0
LINE
5
4e
100
AcDbEntity
8
0
6
BYBLOCK
62
0
100
AcDbLine
10
-1.000000
20
0.166667
11
-1.000000
21
-0.166667
0
LINE
5
4f
100
AcDbEntity
8
0
6
BYBLOCK
62
0
100
AcDbLine
10
0.000000
20
0.000000
11
-1.000000
21
-0.166667
0
LINE
5
50
100
AcDbEntity
8
0
6
BYBLOCK
62
0
100
AcDbLine
10
-1.000000
20
0.166667
11
0.000000
21
0.000000
0
ENDBLK
5
51
100
AcDbEntity
8
0
100
AcDbBlockEnd
0
BLOCK
5
52
100
AcDbEntity
8
0
100
AcDbBlockBegin
2
HALFCLOSE_R
70
0
10
0.0
20
0.0
30
0.0
3
HALFCLOSE_R
1

0
LINE
5
53
100
AcDbEntity
8
0
6
BYBLOCK
62
0
100
AcDbLine
10
-1.000000
20
-0.166667
11
-1.000000
21
0.000000
0
LINE
5
54
100
AcDbEntity
8
0
6
BYBLOCK
62
0
100
AcDbLine
10
-1.000000
20
-0.166667
11
0.000000
21
0.000000
0
LINE
5
55
100
AcDbEntity
8
0
6
BYBLOCK
62
0
100
AcDbLine
10
0.000000
20
0.000000
11
-1.000000
21
0.000000
0
ENDBLK
5
56
100
AcDbEntity
8
0
100
AcDbBlockEnd
0
BLOCK
5
57
100
AcDbEntity
8
0
100
AcDbBlockBegin
2
DOT
70
0
10
0.0
20
0.0
30
0.0
3
DOT
1

0
LINE
5
58
100
AcDbEntity
8
0
6
BYBLOCK
62
0
100
AcDbLine
10
0.000000
20
0.000000
11
-1.000000
21
0.000000
0
POLYLINE
5
59
100
AcDbEntity
8
0
6
BYBLOCK
62
0
100
AcDb2dPolyline
66
1
10
0.0
20
0.0
30
0.0
70
1
40
0.166667
41
0.166667
0
VERTEX
5
5a
100
AcDbEntity
8
0
100
AcDbVertex
100
AcDb2dVertex
62
10
10
-0.083333
20
0.000000
42
1.000000
0
VERTEX
5
5b
100
AcDbEntity
8
0
100
AcDbVertex
100
AcDb2dVertex
62
10
10
0.083333
20
0.000000
42
1.000000
0
SEQEND
5
5c
100
AcDbEntity
8
0
0
ENDBLK
5
5d
100
AcDbEntity
8
0
100
AcDbBlockEnd
0
BLOCK
5
5e
100
AcDbEntity
8
0
100
AcDbBlockBegin
2
HALFOPEN_R
70
0
10
0.0
20
0.0
30
0.0
3
HALFOPEN_R
1

0
LINE
5
5f
100
AcDbEntity
8
0
6
BYBLOCK
62
0
100
AcDbLine
10
-1.000000
20
-0.166667
11
0.000000
21
0.000000
0
LINE
5
60
100
AcDbEntity
8
0
6
BYBLOCK
62
0
100
AcDbLine
10
0.000000
20
0.000000
11
-1.000000
21
0.000000
0
ENDBLK
5
61
100
AcDbEntity
8
0
100
AcDbBlockEnd
0
BLOCK
5
62
100
AcDbEntity
8
0
100
AcDbBlockBegin
2
CLOSEDF
70
0
10
0.0
20
0.0
30
0.0
3
CLOSEDF
1

0
SOLID
5
63
100
AcDbEntity
8
0
6
BYBLOCK
62
0
100
AcDbTrace
10
-1.000000
20
0.166667
11
-1.000000
21
-0.166667
12
0.000000
22
0.000000
13
0.000000
23
0.000000
0
ENDBLK
5
64
100
AcDbEntity
8
0
100
AcDbBlockEnd
0
BLOCK
5
65
100
AcDbEntity
8
0
100
AcDbBlockBegin
2
HALF_R
70
0
10
0.0
20
0.0
30
0.0
3
HALF_R
1

0
SOLID
5
66
100
AcDbEntity
8
0
6
BYBLOCK
62
0
100
AcDbTrace
10
-1.000000
20
-0.166667
11
-1.000000
21
0.000000
12
0.000000
22
0.000000
13
0.000000
23
0.000000
0
ENDBLK
5
67
100
AcDbEntity
8
0
100
AcDbBlockEnd
0
ENDSEC
0
SECTION
2
ENTITIES
0
LINE
5
68
100
AcDbEntity
8
1
100
AcDbLine
6
DOT2
62
5
10
-284.612980
20
-105.711500
11
-281.800480
21
-105.711500
0
POLYLINE
5
69
100
AcDbEntity
8
1
6
DOT2
62
5
100
AcDb2dPolyline
66
1
10
0.0
20
0.0
30
0.0
70
0
0
VERTEX
5
6a
100
AcDbEntity
8
1
100
AcDbVertex
100
AcDb2dVertex
62
5
10
-284.612980
20
-105.711500
0
VERTEX
5
6b
100
AcDbEntity
8
1
100
AcDbVertex
100
AcDb2dVertex
62
5
10
-284.612980
20
-109.461500
0
VERTEX
5
6c
100
AcDbEntity
8
1
100
AcDbVertex
100
AcDb2dVertex
62
5
10
-283.987980
20
-108.836500
0
VERTEX
5
6d
100
AcDbEntity
8
1
100
AcDbVertex
100
AcDb2dVertex
62
5
10
-283.362980
20
-108.524000
0
VERTEX
5
6e
100
AcDbEntity
8
1
100
AcDbVertex
100
AcDb2dVertex
62
5
10
-282.425480
20
-108.524000
0
VERTEX
5
6f
100
AcDbEntity
8
1
100
AcDbVertex
100
AcDb2dVertex
62
5
10
-281.800480
20
-108.836500
0
VERTEX
5
70
100
AcDbEntity
8
1
100
AcDbVertex
100
AcDb2dVertex
62
5
10
-281.487980
20
-109.774000
0
VERTEX
5
71
100
AcDbEntity
8
1
100
AcDbVertex
100
AcDb2dVertex
62
5
10
-281.487980
20
-111.649000
0
VERTEX
5
72
100
AcDbEntity
8
1
100
AcDbVertex
100
AcDb2dVertex
62
5
10
-282.112980
20
-112.586500
0
VERTEX
5
73
100
AcDbEntity
8
1
100
AcDbVertex
100
AcDb2dVertex
62
5
10
-283.050480
20
-113.211500
0
VERTEX
5
74
100
AcDbEntity
8
1
100
AcDbVertex
100
AcDb2dVertex
62
5
10
-284.612980
20
-113.211500
0
SEQEND
5
75
100
AcDbEntity
8
1
0
POLYLINE
5
76
100
AcDbEntity
8
1
6
DOT2
62
5
100
AcDb2dPolyline
66
1
10
0.0
20
0.0
30
0.0
70
0
0
VERTEX
5
77
100
AcDbEntity
8
1
100
AcDbVertex
100
AcDb2dVertex
62
5
10
-298.987980
20
-106.336500
0
VERTEX
5
78
100
AcDbEntity
8
1
100
AcDbVertex
100
AcDb2dVertex
62
5
10
-298.050480
20
-105.711500
0
VERTEX
5
79
100
AcDbEntity
8
1
100
AcDbVertex
100
AcDb2dVertex
62
5
10
-298.050480
20
-113.211500
0
SEQEND
5
7a
100
AcDbEntity
8
1
0
LINE
5
7b
100
AcDbEntity
8
1
100
AcDbLine
6
DOT2
62
5
10
-298.675480
20
-113.211500
11
-297.425480
21
-113.211500
0
POLYLINE
5
7c
100
AcDbEntity
8
1
6
DOT2
62
5
100
AcDb2dPolyline
66
1
10
0.0
20
0.0
30
0.0
70
0
0
VERTEX
5
7d
100
AcDbEntity
8
1
100
AcDbVertex
100
AcDb2dVertex
62
5
10
-292.112980
20
-105.711500
0
VERTEX
5
7e
100
AcDbEntity
8
1
100
AcDbVertex
100
AcDb2dVertex
62
5
10
-294.925480
20
-111.336500
0
VERTEX
5
7f
100
AcDbEntity
8
1
100
AcDbVertex
100
AcDb2dVertex
62
5
10
-291.175480
20
-111.336500
0
SEQEND
5
80
100
AcDbEntity
8
1
0
LINE
5
81
100
AcDbEntity
8
1
100
AcDbLine
6
DOT2
62
5
10
-292.112980
20
-105.711500
11
-292.112980
21
-113.211500
0
LINE
5
82
100
AcDbEntity
8
1
100
AcDbLine
6
DOT2
62
5
10
-292.737980
20
-113.211500
11
-291.487980
21
-113.211500
0
LINE
5
83
100
AcDbEntity
8
1
100
AcDbLine
6
DOT2
62
5
10
-288.987980
20
-112.586500
11
-289.612980
21
-113.211500
0
POLYLINE
5
84
100
AcDbEntity
8
1
6
DOT2
62
5
100
AcDb2dPolyline
66
1
10
0.0
20
0.0
30
0.0
70
0
0
VERTEX
5
85
100
AcDbEntity
8
1
100
AcDbVertex
100
AcDb2dVertex
62
5
10
-289.612980
20
-112.586500
0
VERTEX
5
86
100
AcDbEntity
8
1
100
AcDbVertex
100
AcDb2dVertex
62
5
10
-288.987980
20
-113.211500
0
VERTEX
5
87
100
AcDbEntity
8
1
100
AcDbVertex
100
AcDb2dVertex
62
5
10
-289.612980
20
-113.211500
0
VERTEX
5
88
100
AcDbEntity
8
1
100
AcDbVertex
100
AcDb2dVertex
62
5
10
-289.612980
20
-112.586500
0
VERTEX
5
89
100
AcDbEntity
8
1
100
AcDbVertex
100
AcDb2dVertex
62
5
10
-288.987980
20
-112.586500
0
VERTEX
5
8a
100
AcDbEntity
8
1
100
AcDbVertex
100
AcDb2dVertex
62
5
10
-288.987980
20
-113.211500
0
SEQEND
5
8b
100
AcDbEntity
8
1
0
POLYLINE
5
8c
100
AcDbEntity
8
1
6
DOT2
62
5
100
AcDb2dPolyline
66
1
10
0.0
20
0.0
30
0.0
70
0
0
VERTEX
5
8d
100
AcDbEntity
8
1
100
AcDbVertex
100
AcDb2dVertex
62
5
10
-355.488023
20
-109.774000
0
VERTEX
5
8e
100
AcDbEntity
8
1
100
AcDbVertex
100
AcDb2dVertex
62
5
10
-355.488023
20
-109.774000
0
VERTEX
5
8f
100
AcDbEntity
8
1
100
AcDbVertex
100
AcDb2dVertex
62
5
10
-356.738023
20
-110.086500
0
VERTEX
5
90
100
AcDbEntity
8
1
100
AcDbVertex
100
AcDb2dVertex
62
5
10
-357.675523
20
-110.086500
0
VERTEX
5
91
100
AcDbEntity
8
1
100
AcDbVertex
100
AcDb2dVertex
62
5
10
-358.300523
20
-109.774000
0
VERTEX
5
92
100
AcDbEntity
8
1
100
AcDbVertex
100
AcDb2dVertex
62
5
10
-358.613023
20
-108.836500
0
VERTEX
5
93
100
AcDbEntity
8
1
100
AcDbVertex
100
AcDb2dVertex
62
5
10
-358.613023
20
-107.274000
0
VERTEX
5
94
100
AcDbEntity
8
1
100
AcDbVertex
100
AcDb2dVertex
62
5
10
-358.300523
20
-106.336500
0
VERTEX
5
95
100
AcDbEntity
8
1
100
AcDbVertex
100
AcDb2dVertex
62
5
10
-357.988023
20
-106.024000
0
VERTEX
5
96
100
AcDbEntity
8
1
100
AcDbVertex
100
AcDb2dVertex
62
5
10
-357.363023
20
-105.711500
0
VERTEX
5
97
100
AcDbEntity
8
1
100
AcDbVertex
100
AcDb2dVertex
62
5
10
-356.738023
20
-105.711500
0
VERTEX
5
98
100
AcDbEntity
8
1
100
AcDbVertex
100
AcDb2dVertex
62
5
10
-356.113023
20
-106.024000
0
VERTEX
5
99
100
AcDbEntity
8
1
100
AcDbVertex
100
AcDb2dVertex
62
5
10
-355.800523
20
-106.336500
0
VERTEX
5
9a
100
AcDbEntity
8
1
100
AcDbVertex
100
AcDb2dVertex
62
5
10
-355.488023
20
-107.274000
0
VERTEX
5
9b
100
AcDbEntity
8
1
100
AcDbVertex
100
AcDb2dVertex
62
5
10
-355.488023
20
-110.711500
0
VERTEX
5
9c
100
AcDbEntity
8
1
100
AcDbVertex
100
AcDb2dVertex
62
5
10
-355.800523
20
-112.274000
0
VERTEX
5
9d
100
AcDbEntity
8
1
100
AcDbVertex
100
AcDb2dVertex
62
5
10
-356.425523
20
-112.899000
0
VERTEX
5
9e
100
AcDbEntity
8
1
100
AcDbVertex
100
AcDb2dVertex
62
5
10
-357.363023
20
-113.211500
0
VERTEX
5
9f
100
AcDbEntity
8
1
100
AcDbVertex
100
AcDb2dVertex
62
5
10
-357.988023
20
-113.211500
0
SEQEND
5
a0
100
AcDbEntity
8
1
0
LINE
5
a1
100
AcDbEntity
8
1
100
AcDbLine
6
DOT2
62
5
10
-352.988023
20
-112.586500
11
-353.613023
21
-113.211500
0
POLYLINE
5
a2
100
AcDbEntity
8
1
6
DOT2
62
5
100
AcDb2dPolyline
66
1
10
0.0
20
0.0
30
0.0
70
0
0
VERTEX
5
a3
100
AcDbEntity
8
1
100
AcDbVertex
100
AcDb2dVertex
62
5
10
-353.613023
20
-112.586500
0
VERTEX
5
a4
100
AcDbEntity
8
1
100
AcDbVertex
100
AcDb2dVertex
62
5
10
-352.988023
20
-113.211500
0
VERTEX
5
a5
100
AcDbEntity
8
1
100
AcDbVertex
100
AcDb2dVertex
62
5
10
-353.613023
20
-113.211500
0
VERTEX
5
a6
100
AcDbEntity
8
1
100
AcDbVertex
100
AcDb2dVertex
62
5
10
-353.613023
20
-112.586500
0
VERTEX
5
a7
100
AcDbEntity
8
1
100
AcDbVertex
100
AcDb2dVertex
62
5
10
-352.988023
20
-112.586500
0
VERTEX
5
a8
100
AcDbEntity
8
1
100
AcDbVertex
100
AcDb2dVertex
62
5
10
-352.988023
20
-113.211500
0
SEQEND
5
a9
100
AcDbEntity
8
1
0
LINE
5
aa
100
AcDbEntity
8
1
100
AcDbLine
6
DOT2
62
5
10
-348.613023
20
-105.711500
11
-345.800523
21
-105.711500
0
POLYLINE
5
ab
100
AcDbEntity
8
1
6
DOT2
62
5
100
AcDb2dPolyline
66
1
10
0.0
20
0.0
30
0.0
70
0
0
VERTEX
5
ac
100
AcDbEntity
8
1
100
AcDbVertex
100
AcDb2dVertex
62
5
10
-348.613023
20
-105.711500
0
VERTEX
5
ad
100
AcDbEntity
8
1
100
AcDbVertex
100
AcDb2dVertex
62
5
10
-348.613023
20
-109.461500
0
VERTEX
5
ae
100
AcDbEntity
8
1
100
AcDbVertex
100
AcDb2dVertex
62
5
10
-347.988023
20
-108.836500
0
VERTEX
5
af
100
AcDbEntity
8
1
100
AcDbVertex
100
AcDb2dVertex
62
5
10
-347.363023
20
-108.524000
0
VERTEX
5
b0
100
AcDbEntity
8
1
100
AcDbVertex
100
AcDb2dVertex
62
5
10
-346.425523
20
-108.524000
0
VERTEX
5
b1
100
AcDbEntity
8
1
100
AcDbVertex
100
AcDb2dVertex
62
5
10
-345.800523
20
-108.836500
0
VERTEX
5
b2
100
AcDbEntity
8
1
100
AcDbVertex
100
AcDb2dVertex
62
5
10
-345.488023
20
-109.774000
0
VERTEX
5
b3
100
AcDbEntity
8
1
100
AcDbVertex
100
AcDb2dVertex
62
5
10
-345.488023
20
-111.649000
0
VERTEX
5
b4
100
AcDbEntity
8
1
100
AcDbVertex
100
AcDb2dVertex
62
5
10
-346.113023
20
-112.586500
0
VERTEX
5
b5
100
AcDbEntity
8
1
100
AcDbVertex
100
AcDb2dVertex
62
5
10
-347.050523
20
-113.211500
0
VERTEX
5
b6
100
AcDbEntity
8
1
100
AcDbVertex
100
AcDb2dVertex
62
5
10
-348.613023
20
-113.211500
0
SEQEND
5
b7
100
AcDbEntity
8
1
0
ARC
5
b8
100
AcDbEntity
8
1
100
AcDbCircle
6
CONTINUOUS
62
5
10
-313.557242
20
-169.211500
40
0.500000
100
AcDbArc
50
-155.608117
51
-89.999999
0
LINE
5
b9
100
AcDbEntity
8
1
100
AcDbLine
6
CONTINUOUS
62
5
10
-313.557242
20
-169.711500
11
-311.862980
21
-169.711500
0
ARC
5
ba
100
AcDbEntity
8
1
100
AcDbCircle
6
CONTINUOUS
62
5
10
-311.862980
20
-170.711500
40
1.000000
100
AcDbArc
50
0.000000
51
89.999999
0
LINE
5
bb
100
AcDbEntity
8
1
100
AcDbLine
6
CONTINUOUS
62
5
10
-310.862980
20
-170.711500
11
-310.862980
21
-173.211500
0
ARC
5
bc
100
AcDbEntity
8
1
100
AcDbCircle
6
CONTINUOUS
62
5
10
-311.862980
20
-173.211500
40
1.000000
100
AcDbArc
50
-89.999999
51
-0.000000
0
LINE
5
bd
100
AcDbEntity
8
1
100
AcDbLine
6
CONTINUOUS
62
5
10
-311.862980
20
-174.211500
11
-313.462980
21
-174.211500
0
ARC
5
be
100
AcDbEntity
8
1
100
AcDbCircle
6
CONTINUOUS
62
5
10
-313.462980
20
-174.711500
40
0.500000
100
AcDbArc
50
89.999999
51
-179.999998
0
ARC
5
bf
100
AcDbEntity
8
1
100
AcDbCircle
6
CONTINUOUS
62
5
10
-318.095045
20
-175.479983
40
1.200000
100
AcDbArc
50
-78.850804
51
-26.300000
0
LINE
5
c0
100
AcDbEntity
8
1
100
AcDbLine
6
CONTINUOUS
62
5
10
-317.019261
20
-176.011668
11
-316.002018
21
-173.953433
0
ARC
5
c1
100
AcDbEntity
8
1
100
AcDbCircle
6
CONTINUOUS
62
5
10
-316.450261
20
-173.731897
40
0.500000
100
AcDbArc
50
-26.300000
51
63.699999
0
LINE
5
c2
100
AcDbEntity
8
1
100
AcDbLine
6
CONTINUOUS
62
5
10
-316.228726
20
-173.283654
11
-317.663104
21
-172.574740
0
ARC
5
c3
100
AcDbEntity
8
1
100
AcDbCircle
6
CONTINUOUS
62
5
10
-318.372018
20
-174.009118
40
1.600000
100
AcDbArc
50
63.699999
51
71.450237
0
LINE
5
c4
100
AcDbEntity
8
1
100
AcDbLine
6
CONTINUOUS
62
5
10
-325.363023
20
-162.261508
11
-323.863023
21
-163.801521
0
ARC
5
c5
100
AcDbEntity
8
1
100
AcDbCircle
6
CONTINUOUS
62
5
10
-324.763023
20
-168.261500
40
0.700000
100
AcDbArc
50
-89.999999
51
-0.000000
0
LINE
5
c6
100
AcDbEntity
8
1
100
AcDbLine
6
CONTINUOUS
62
5
10
-324.063023
20
-168.261500
11
-324.063023
21
-167.946217
0
ARC
5
c7
100
AcDbEntity
8
1
100
AcDbCircle
6
CONTINUOUS
62
5
10
-325.063023
20
-167.946217
40
1.000000
100
AcDbArc
50
0.000000
51
89.118595
0
LINE
5
c8
100
AcDbEntity
8
1
100
AcDbLine
6
CONTINUOUS
62
5
10
-325.047640
20
-166.946336
11
-325.363023
21
-166.941484
0
LINE
5
c9
100
AcDbEntity
8
1
100
AcDbLine
6
CONTINUOUS
62
5
10
-325.363023
20
-168.961500
11
-324.763023
21
-168.961500
0
LINE
5
ca
100
AcDbEntity
8
1
100
AcDbLine
6
CONTINUOUS
62
5
10
-325.363023
20
-137.946059
11
-325.363023
21
-112.461500
0
LINE
5
cb
100
AcDbEntity
8
1
100
AcDbLine
6
CONTINUOUS
62
5
10
-334.863023
20
-154.157792
11
-334.863023
21
-112.461500
0
POLYLINE
5
cc
100
AcDbEntity
8
1
6
CONTINUOUS
62
5
100
AcDb2dPolyline
66
1
10
0.0
20
0.0
30
0.0
70
0
0
VERTEX
5
cd
100
AcDbEntity
8
1
100
AcDbVertex
100
AcDb2dVertex
62
5
10
-361.113023
20
-114.461500
0
VERTEX
5
ce
100
AcDbEntity
8
1
100
AcDbVertex
100
AcDb2dVertex
62
5
10
-334.863023
20
-114.461500
0
VERTEX
5
cf
100
AcDbEntity
8
1
100
AcDbVertex
100
AcDb2dVertex
62
5
10
-340.863023
20
-115.461500
0
VERTEX
5
d0
100
AcDbEntity
8
1
100
AcDbVertex
100
AcDb2dVertex
62
5
10
-340.863023
20
-113.461500
0
VERTEX
5
d1
100
AcDbEntity
8
1
100
AcDbVertex
100
AcDb2dVertex
62
5
10
-334.863023
20
-114.461500
0
VERTEX
5
d2
100
AcDbEntity
8
1
100
AcDbVertex
100
AcDb2dVertex
62
5
10
-340.863023
20
-114.961500
0
VERTEX
5
d3
100
AcDbEntity
8
1
100
AcDbVertex
100
AcDb2dVertex
62
5
10
-340.863023
20
-113.961500
0
VERTEX
5
d4
100
AcDbEntity
8
1
100
AcDbVertex
100
AcDb2dVertex
62
5
10
-334.863023
20
-114.461500
0
SEQEND
5
d5
100
AcDbEntity
8
1
0
LINE
5
d6
100
AcDbEntity
8
1
100
AcDbLine
6
CONTINUOUS
62
5
10
-334.863023
20
-114.461500
11
-325.363023
21
-114.461500
0
LINE
5
d7
100
AcDbEntity
8
1
100
AcDbLine
6
CONTINUOUS
62
5
10
-322.363023
20
-114.461500
11
-325.363023
21
-114.461500
0
LINE
5
d8
100
AcDbEntity
8
1
100
AcDbLine
6
CONTINUOUS
62
5
10
-325.363023
20
-137.946059
11
-325.363023
21
-112.461500
0
LINE
5
d9
100
AcDbEntity
8
1
100
AcDbLine
6
CONTINUOUS
62
5
10
-310.862980
20
-170.655738
11
-310.862980
21
-112.461500
0
POLYLINE
5
da
100
AcDbEntity
8
1
6
CONTINUOUS
62
5
100
AcDb2dPolyline
66
1
10
0.0
20
0.0
30
0.0
70
0
0
VERTEX
5
db
100
AcDbEntity
8
1
100
AcDbVertex
100
AcDb2dVertex
62
5
10
-279.612980
20
-114.461500
0
VERTEX
5
dc
100
AcDbEntity
8
1
100
AcDbVertex
100
AcDb2dVertex
62
5
10
-310.862980
20
-114.461500
0
VERTEX
5
dd
100
AcDbEntity
8
1
100
AcDbVertex
100
AcDb2dVertex
62
5
10
-304.862980
20
-113.461500
0
VERTEX
5
de
100
AcDbEntity
8
1
100
AcDbVertex
100
AcDb2dVertex
62
5
10
-304.862980
20
-115.461500
0
VERTEX
5
df
100
AcDbEntity
8
1
100
AcDbVertex
100
AcDb2dVertex
62
5
10
-310.862980
20
-114.461500
0
VERTEX
5
e0
100
AcDbEntity
8
1
100
AcDbVertex
100
AcDb2dVertex
62
5
10
-304.862980
20
-113.961500
0
VERTEX
5
e1
100
AcDbEntity
8
1
100
AcDbVertex
100
AcDb2dVertex
62
5
10
-304.862980
20
-114.961500
0
VERTEX
5
e2
100
AcDbEntity
8
1
100
AcDbVertex
100
AcDb2dVertex
62
5
10
-310.862980
20
-114.461500
0
SEQEND
5
e3
100
AcDbEntity
8
1
0
LINE
5
e4
100
AcDbEntity
8
1
100
AcDbLine
6
CONTINUOUS
62
5
10
-310.862980
20
-114.461500
11
-325.363023
21
-114.461500
0
LINE
5
e5
100
AcDbEntity
8
1
100
AcDbLine
6
CONTINUOUS
62
5
10
-330.363023
20
-114.461500
11
-325.363023
21
-114.461500
0
POLYLINE
5
e6
100
AcDbEntity
8
1
6
CONTINUOUS
62
5
100
AcDb2dPolyline
66
1
10
0.0
20
0.0
30
0.0
70
0
0
VERTEX
5
e7
100
AcDbEntity
8
1
100
AcDbVertex
100
AcDb2dVertex
62
5
10
-324.363023
20
-113.961500
0
VERTEX
5
e8
100
AcDbEntity
8
1
100
AcDbVertex
100
AcDb2dVertex
62
5
10
-324.363023
20
-114.961500
0
VERTEX
5
e9
100
AcDbEntity
8
1
100
AcDbVertex
100
AcDb2dVertex
62
5
10
-324.863023
20
-115.461500
0
VERTEX
5
ea
100
AcDbEntity
8
1
100
AcDbVertex
100
AcDb2dVertex
62
5
10
-325.863023
20
-115.461500
0
VERTEX
5
eb
100
AcDbEntity
8
1
100
AcDbVertex
100
AcDb2dVertex
62
5
10
-326.363023
20
-114.961500
0
VERTEX
5
ec
100
AcDbEntity
8
1
100
AcDbVertex
100
AcDb2dVertex
62
5
10
-326.363023
20
-113.961500
0
VERTEX
5
ed
100
AcDbEntity
8
1
100
AcDbVertex
100
AcDb2dVertex
62
5
10
-325.863023
20
-113.461500
0
VERTEX
5
ee
100
AcDbEntity
8
1
100
AcDbVertex
100
AcDb2dVertex
62
5
10
-324.863023
20
-113.461500
0
VERTEX
5
ef
100
AcDbEntity
8
1
100
AcDbVertex
100
AcDb2dVertex
62
5
10
-324.363023
20
-113.961500
0
VERTEX
5
f0
100
AcDbEntity
8
1
100
AcDbVertex
100
AcDb2dVertex
62
5
10
-326.363023
20
-114.961500
0
SEQEND
5
f1
100
AcDbEntity
8
1
0
LINE
5
f2
100
AcDbEntity
8
1
100
AcDbLine
6
CONTINUOUS
62
5
10
-326.363023
20
-113.961500
11
-324.363023
21
-114.961500
0
LINE
5
f3
100
AcDbEntity
8
1
100
AcDbLine
6
CONTINUOUS
62
5
10
-324.863023
20
-115.461500
11
-325.863023
21
-113.461500
0
LINE
5
f4
100
AcDbEntity
8
1
100
AcDbLine
6
CONTINUOUS
62
5
10
-324.863023
20
-113.461500
11
-325.863023
21
-115.461500
0
POLYLINE
5
f5
100
AcDbEntity
8
1
6
CONTINUOUS
62
5
100
AcDb2dPolyline
66
1
10
0.0
20
0.0
30
0.0
70
0
0
VERTEX
5
f6
100
AcDbEntity
8
1
100
AcDbVertex
100
AcDb2dVertex
62
5
10
-421.113001
20
-24.524000
0
VERTEX
5
f7
100
AcDbEntity
8
1
100
AcDbVertex
100
AcDb2dVertex
62
5
10
-420.863001
20
-24.524000
0
VERTEX
5
f8
100
AcDbEntity
8
1
100
AcDbVertex
100
AcDb2dVertex
62
5
10
-419.113001
20
-25.774000
0
SEQEND
5
f9
100
AcDbEntity
8
1
0
LINE
5
fa
100
AcDbEntity
8
1
100
AcDbLine
6
CONTINUOUS
62
5
10
-421.113001
20
-21.711500
11
-421.113001
21
-29.211500
0
POLYLINE
5
fb
100
AcDbEntity
8
1
6
CONTINUOUS
62
5
100
AcDb2dPolyline
66
1
10
0.0
20
0.0
30
0.0
70
0
0
VERTEX
5
fc
100
AcDbEntity
8
1
100
AcDbVertex
100
AcDb2dVertex
62
5
10
-421.113001
20
-31.086500
0
VERTEX
5
fd
100
AcDbEntity
8
1
100
AcDbVertex
100
AcDb2dVertex
62
5
10
-421.863001
20
-32.336500
0
VERTEX
5
fe
100
AcDbEntity
8
1
100
AcDbVertex
100
AcDb2dVertex
62
5
10
-422.613001
20
-33.274000
0
VERTEX
5
ff
100
AcDbEntity
8
1
100
AcDbVertex
100
AcDb2dVertex
62
5
10
-423.613001
20
-34.211500
0
SEQEND
5
100
100
AcDbEntity
8
1
0
POLYLINE
5
101
100
AcDbEntity
8
1
6
CONTINUOUS
62
5
100
AcDb2dPolyline
66
1
10
0.0
20
0.0
30
0.0
70
0
0
VERTEX
5
102
100
AcDbEntity
8
1
100
AcDbVertex
100
AcDb2dVertex
62
5
10
-421.363001
20
-31.711500
0
VERTEX
5
103
100
AcDbEntity
8
1
100
AcDbVertex
100
AcDb2dVertex
62
5
10
-419.113001
20
-31.711500
0
VERTEX
5
104
100
AcDbEntity
8
1
100
AcDbVertex
100
AcDb2dVertex
62
5
10
-420.363001
20
-33.586500
0
SEQEND
5
105
100
AcDbEntity
8
1
0
POLYLINE
5
106
100
AcDbEntity
8
1
6
CONTINUOUS
62
5
100
AcDb2dPolyline
66
1
10
0.0
20
0.0
30
0.0
70
0
0
VERTEX
5
107
100
AcDbEntity
8
1
100
AcDbVertex
100
AcDb2dVertex
62
5
10
-422.613001
20
-33.586500
0
VERTEX
5
108
100
AcDbEntity
8
1
100
AcDbVertex
100
AcDb2dVertex
62
5
10
-418.113001
20
-33.586500
0
VERTEX
5
109
100
AcDbEntity
8
1
100
AcDbVertex
100
AcDb2dVertex
62
5
10
-418.113001
20
-36.399000
0
VERTEX
5
10a
100
AcDbEntity
8
1
100
AcDbVertex
100
AcDb2dVertex
62
5
10
-422.613001
20
-36.399000
0
SEQEND
5
10b
100
AcDbEntity
8
1
0
LINE
5
10c
100
AcDbEntity
8
1
100
AcDbLine
6
CONTINUOUS
62
5
10
-420.363001
20
-33.586500
11
-420.363001
21
-36.399000
0
POLYLINE
5
10d
100
AcDbEntity
8
1
6
CONTINUOUS
62
5
100
AcDb2dPolyline
66
1
10
0.0
20
0.0
30
0.0
70
0
0
VERTEX
5
10e
100
AcDbEntity
8
1
100
AcDbVertex
100
AcDb2dVertex
62
5
10
-422.613001
20
-33.586500
0
VERTEX
5
10f
100
AcDbEntity
8
1
100
AcDbVertex
100
AcDb2dVertex
62
5
10
-422.613001
20
-38.899000
0
VERTEX
5
110
100
AcDbEntity
8
1
100
AcDbVertex
100
AcDb2dVertex
62
5
10
-422.113001
20
-39.524000
0
VERTEX
5
111
100
AcDbEntity
8
1
100
AcDbVertex
100
AcDb2dVertex
62
5
10
-417.113001
20
-39.524000
0
VERTEX
5
112
100
AcDbEntity
8
1
100
AcDbVertex
100
AcDb2dVertex
62
5
10
-417.113001
20
-38.274000
0
SEQEND
5
113
100
AcDbEntity
8
1
0
POLYLINE
5
114
100
AcDbEntity
8
1
6
CONTINUOUS
62
5
100
AcDb2dPolyline
66
1
10
0.0
20
0.0
30
0.0
70
0
0
VERTEX
5
115
100
AcDbEntity
8
1
100
AcDbVertex
100
AcDb2dVertex
62
5
10
-439.363001
20
-25.149000
0
VERTEX
5
116
100
AcDbEntity
8
1
100
AcDbVertex
100
AcDb2dVertex
62
5
10
-434.113001
20
-24.524000
0
VERTEX
5
117
100
AcDbEntity
8
1
100
AcDbVertex
100
AcDb2dVertex
62
5
10
-434.113001
20
-24.836500
0
VERTEX
5
118
100
AcDbEntity
8
1
100
AcDbVertex
100
AcDb2dVertex
62
5
10
-435.363001
20
-26.399000
0
SEQEND
5
119
100
AcDbEntity
8
1
0
POLYLINE
5
11a
100
AcDbEntity
8
1
6
CONTINUOUS
62
5
100
AcDb2dPolyline
66
1
10
0.0
20
0.0
30
0.0
70
0
0
VERTEX
5
11b
100
AcDbEntity
8
1
100
AcDbVertex
100
AcDb2dVertex
62
5
10
-437.363001
20
-22.336500
0
VERTEX
5
11c
100
AcDbEntity
8
1
100
AcDbVertex
100
AcDb2dVertex
62
5
10
-437.363001
20
-28.274000
0
VERTEX
5
11d
100
AcDbEntity
8
1
100
AcDbVertex
100
AcDb2dVertex
62
5
10
-436.863001
20
-28.899000
0
VERTEX
5
11e
100
AcDbEntity
8
1
100
AcDbVertex
100
AcDb2dVertex
62
5
10
-434.113001
20
-28.899000
0
SEQEND
5
11f
100
AcDbEntity
8
1
0
LINE
5
120
100
AcDbEntity
8
1
100
AcDbLine
6
CONTINUOUS
62
5
10
-430.613001
20
-23.274000
11
-429.613001
21
-24.524000
0
POLYLINE
5
121
100
AcDbEntity
8
1
6
CONTINUOUS
62
5
100
AcDb2dPolyline
66
1
10
0.0
20
0.0
30
0.0
70
0
0
VERTEX
5
122
100
AcDbEntity
8
1
100
AcDbVertex
100
AcDb2dVertex
62
5
10
-430.863001
20
-28.274000
0
VERTEX
5
123
100
AcDbEntity
8
1
100
AcDbVertex
100
AcDb2dVertex
62
5
10
-429.113001
20
-27.336500
0
VERTEX
5
124
100
AcDbEntity
8
1
100
AcDbVertex
100
AcDb2dVertex
62
5
10
-427.613001
20
-26.086500
0
VERTEX
5
125
100
AcDbEntity
8
1
100
AcDbVertex
100
AcDb2dVertex
62
5
10
-426.113001
20
-24.524000
0
SEQEND
5
126
100
AcDbEntity
8
1
0
POLYLINE
5
127
100
AcDbEntity
8
1
6
CONTINUOUS
62
5
100
AcDb2dPolyline
66
1
10
0.0
20
0.0
30
0.0
70
0
0
VERTEX
5
128
100
AcDbEntity
8
1
100
AcDbVertex
100
AcDb2dVertex
62
5
10
-461.863001
20
-22.649000
0
VERTEX
5
129
100
AcDbEntity
8
1
100
AcDbVertex
100
AcDb2dVertex
62
5
10
-461.863001
20
-24.524000
0
VERTEX
5
12a
100
AcDbEntity
8
1
100
AcDbVertex
100
AcDb2dVertex
62
5
10
-462.113001
20
-26.086500
0
VERTEX
5
12b
100
AcDbEntity
8
1
100
AcDbVertex
100
AcDb2dVertex
62
5
10
-462.613001
20
-27.336500
0
VERTEX
5
12c
100
AcDbEntity
8
1
100
AcDbVertex
100
AcDb2dVertex
62
5
10
-463.363001
20
-28.586500
0
VERTEX
5
12d
100
AcDbEntity
8
1
100
AcDbVertex
100
AcDb2dVertex
62
5
10
-463.613001
20
-28.899000
0
SEQEND
5
12e
100
AcDbEntity
8
1
0
POLYLINE
5
12f
100
AcDbEntity
8
1
6
CONTINUOUS
62
5
100
AcDb2dPolyline
66
1
10
0.0
20
0.0
30
0.0
70
0
0
VERTEX
5
130
100
AcDbEntity
8
1
100
AcDbVertex
100
AcDb2dVertex
62
5
10
-460.363001
20
-22.336500
0
VERTEX
5
131
100
AcDbEntity
8
1
100
AcDbVertex
100
AcDb2dVertex
62
5
10
-460.363001
20
-28.586500
0
VERTEX
5
132
100
AcDbEntity
8
1
100
AcDbVertex
100
AcDb2dVertex
62
5
10
-459.613001
20
-28.274000
0
VERTEX
5
133
100
AcDbEntity
8
1
100
AcDbVertex
100
AcDb2dVertex
62
5
10
-458.613001
20
-27.336500
0
VERTEX
5
134
100
AcDbEntity
8
1
100
AcDbVertex
100
AcDb2dVertex
62
5
10
-457.863001
20
-26.399000
0
VERTEX
5
135
100
AcDbEntity
8
1
100
AcDbVertex
100
AcDb2dVertex
62
5
10
-457.363001
20
-25.461500
0
SEQEND
5
136
100
AcDbEntity
8
1
0
POLYLINE
5
137
100
AcDbEntity
8
1
6
CONTINUOUS
62
5
100
AcDb2dPolyline
66
1
10
0.0
20
0.0
30
0.0
70
0
0
VERTEX
5
138
100
AcDbEntity
8
1
100
AcDbVertex
100
AcDb2dVertex
62
5
10
-454.613001
20
-23.586500
0
VERTEX
5
139
100
AcDbEntity
8
1
100
AcDbVertex
100
AcDb2dVertex
62
5
10
-450.613001
20
-23.586500
0
VERTEX
5
13a
100
AcDbEntity
8
1
100
AcDbVertex
100
AcDb2dVertex
62
5
10
-450.613001
20
-27.961500
0
VERTEX
5
13b
100
AcDbEntity
8
1
100
AcDbVertex
100
AcDb2dVertex
62
5
10
-454.613001
20
-27.961500
0
SEQEND
5
13c
100
AcDbEntity
8
1
0
LINE
5
13d
100
AcDbEntity
8
1
100
AcDbLine
6
CONTINUOUS
62
5
10
-446.613001
20
-23.274000
11
-445.613001
21
-24.524000
0
POLYLINE
5
13e
100
AcDbEntity
8
1
6
CONTINUOUS
62
5
100
AcDb2dPolyline
66
1
10
0.0
20
0.0
30
0.0
70
0
0
VERTEX
5
13f
100
AcDbEntity
8
1
100
AcDbVertex
100
AcDb2dVertex
62
5
10
-446.863001
20
-28.274000
0
VERTEX
5
140
100
AcDbEntity
8
1
100
AcDbVertex
100
AcDb2dVertex
62
5
10
-445.113001
20
-27.336500
0
VERTEX
5
141
100
AcDbEntity
8
1
100
AcDbVertex
100
AcDb2dVertex
62
5
10
-443.613001
20
-26.086500
0
VERTEX
5
142
100
AcDbEntity
8
1
100
AcDbVertex
100
AcDb2dVertex
62
5
10
-442.113001
20
-24.524000
0
SEQEND
5
143
100
AcDbEntity
8
1
0
POLYLINE
5
144
100
AcDbEntity
8
1
6
CONTINUOUS
62
5
100
AcDb2dPolyline
66
1
10
0.0
20
0.0
30
0.0
70
0
0
VERTEX
5
145
100
AcDbEntity
8
1
100
AcDbVertex
100
AcDb2dVertex
62
5
10
-434.613001
20
-32.024000
0
VERTEX
5
146
100
AcDbEntity
8
1
100
AcDbVertex
100
AcDb2dVertex
62
5
10
-436.613001
20
-34.524000
0
VERTEX
5
147
100
AcDbEntity
8
1
100
AcDbVertex
100
AcDb2dVertex
62
5
10
-438.863001
20
-36.086500
0
SEQEND
5
148
100
AcDbEntity
8
1
0
LINE
5
149
100
AcDbEntity
8
1
100
AcDbLine
6
CONTINUOUS
62
5
10
-436.113001
20
-33.899000
11
-436.113001
21
-39.211500
0
POLYLINE
5
14a
100
AcDbEntity
8
1
6
CONTINUOUS
62
5
100
AcDb2dPolyline
66
1
10
0.0
20
0.0
30
0.0
70
0
0
VERTEX
5
14b
100
AcDbEntity
8
1
100
AcDbVertex
100
AcDb2dVertex
62
5
10
-429.113001
20
-34.524000
0
VERTEX
5
14c
100
AcDbEntity
8
1
100
AcDbVertex
100
AcDb2dVertex
62
5
10
-428.863001
20
-34.524000
0
VERTEX
5
14d
100
AcDbEntity
8
1
100
AcDbVertex
100
AcDb2dVertex
62
5
10
-427.113001
20
-35.774000
0
SEQEND
5
14e
100
AcDbEntity
8
1
0
LINE
5
14f
100
AcDbEntity
8
1
100
AcDbLine
6
CONTINUOUS
62
5
10
-429.113001
20
-31.711500
11
-429.113001
21
-39.211500
0
POLYLINE
5
150
100
AcDbEntity
8
1
6
CONTINUOUS
62
5
100
AcDb2dPolyline
66
1
10
0.0
20
0.0
30
0.0
70
0
0
VERTEX
5
151
100
AcDbEntity
8
1
100
AcDbVertex
100
AcDb2dVertex
62
5
10
-463.363001
20
-33.274000
0
VERTEX
5
152
100
AcDbEntity
8
1
100
AcDbVertex
100
AcDb2dVertex
62
5
10
-458.113001
20
-33.274000
0
VERTEX
5
153
100
AcDbEntity
8
1
100
AcDbVertex
100
AcDb2dVertex
62
5
10
-458.113001
20
-33.586500
0
VERTEX
5
154
100
AcDbEntity
8
1
100
AcDbVertex
100
AcDb2dVertex
62
5
10
-459.863001
20
-35.461500
0
VERTEX
5
155
100
AcDbEntity
8
1
100
AcDbVertex
100
AcDb2dVertex
62
5
10
-460.613001
20
-35.461500
0
SEQEND
5
156
100
AcDbEntity
8
1
0
POLYLINE
5
157
100
AcDbEntity
8
1
6
CONTINUOUS
62
5
100
AcDb2dPolyline
66
1
10
0.0
20
0.0
30
0.0
70
0
0
VERTEX
5
158
100
AcDbEntity
8
1
100
AcDbVertex
100
AcDb2dVertex
62
5
10
-460.613001
20
-34.524000
0
VERTEX
5
159
100
AcDbEntity
8
1
100
AcDbVertex
100
AcDb2dVertex
62
5
10
-460.613001
20
-36.086500
0
VERTEX
5
15a
100
AcDbEntity
8
1
100
AcDbVertex
100
AcDb2dVertex
62
5
10
-461.363001
20
-37.961500
0
VERTEX
5
15b
100
AcDbEntity
8
1
100
AcDbVertex
100
AcDb2dVertex
62
5
10
-462.363001
20
-39.211500
0
SEQEND
5
15c
100
AcDbEntity
8
1
0
LINE
5
15d
100
AcDbEntity
8
1
100
AcDbLine
6
CONTINUOUS
62
5
10
-455.113001
20
-34.524000
11
-450.113001
21
-34.524000
0
POLYLINE
5
15e
100
AcDbEntity
8
1
6
CONTINUOUS
62
5
100
AcDb2dPolyline
66
1
10
0.0
20
0.0
30
0.0
70
0
0
VERTEX
5
15f
100
AcDbEntity
8
1
100
AcDbVertex
100
AcDb2dVertex
62
5
10
-452.613001
20
-32.649000
0
VERTEX
5
160
100
AcDbEntity
8
1
100
AcDbVertex
100
AcDb2dVertex
62
5
10
-452.613001
20
-38.899000
0
VERTEX
5
161
100
AcDbEntity
8
1
100
AcDbVertex
100
AcDb2dVertex
62
5
10
-453.113001
20
-38.899000
0
SEQEND
5
162
100
AcDbEntity
8
1
0
LINE
5
163
100
AcDbEntity
8
1
100
AcDbLine
6
CONTINUOUS
62
5
10
-453.863001
20
-36.086500
11
-455.113001
21
-37.961500
0
LINE
5
164
100
AcDbEntity
8
1
100
AcDbLine
6
CONTINUOUS
62
5
10
-451.113001
20
-36.086500
11
-449.863001
21
-37.649000
0
POLYLINE
5
165
100
AcDbEntity
8
1
6
CONTINUOUS
62
5
100
AcDb2dPolyline
66
1
10
0.0
20
0.0
30
0.0
70
0
0
VERTEX
5
166
100
AcDbEntity
8
1
100
AcDbVertex
100
AcDb2dVertex
62
5
10
-446.613001
20
-35.149000
0
VERTEX
5
167
100
AcDbEntity
8
1
100
AcDbVertex
100
AcDb2dVertex
62
5
10
-446.613001
20
-32.961500
0
VERTEX
5
168
100
AcDbEntity
8
1
100
AcDbVertex
100
AcDb2dVertex
62
5
10
-442.613001
20
-32.961500
0
VERTEX
5
169
100
AcDbEntity
8
1
100
AcDbVertex
100
AcDb2dVertex
62
5
10
-442.613001
20
-33.899000
0
VERTEX
5
16a
100
AcDbEntity
8
1
100
AcDbVertex
100
AcDb2dVertex
62
5
10
-442.863001
20
-35.461500
0
VERTEX
5
16b
100
AcDbEntity
8
1
100
AcDbVertex
100
AcDb2dVertex
62
5
10
-443.363001
20
-36.711500
0
VERTEX
5
16c
100
AcDbEntity
8
1
100
AcDbVertex
100
AcDb2dVertex
62
5
10
-443.863001
20
-37.649000
0
VERTEX
5
16d
100
AcDbEntity
8
1
100
AcDbVertex
100
AcDb2dVertex
62
5
10
-444.863001
20
-38.899000
0
SEQEND
5
16e
100
AcDbEntity
8
1
0
POLYLINE
5
16f
100
AcDbEntity
8
1
6
CONTINUOUS
62
5
100
AcDb2dPolyline
66
1
10
0.0
20
0.0
30
0.0
70
0
0
VERTEX
5
170
100
AcDbEntity
8
1
100
AcDbVertex
100
AcDb2dVertex
62
5
10
-462.238001
20
-59.586500
0
VERTEX
5
171
100
AcDbEntity
8
1
100
AcDbVertex
100
AcDb2dVertex
62
5
10
-461.300501
20
-58.961500
0
VERTEX
5
172
100
AcDbEntity
8
1
100
AcDbVertex
100
AcDb2dVertex
62
5
10
-461.300501
20
-66.461500
0
SEQEND
5
173
100
AcDbEntity
8
1
0
LINE
5
174
100
AcDbEntity
8
1
100
AcDbLine
6
CONTINUOUS
62
5
10
-461.925501
20
-66.461500
11
-460.675501
21
-66.461500
0
LINE
5
175
100
AcDbEntity
8
1
100
AcDbLine
6
CONTINUOUS
62
5
10
-452.863001
20
-58.961500
11
-452.863001
21
-66.461500
0
POLYLINE
5
176
100
AcDbEntity
8
1
6
CONTINUOUS
62
5
100
AcDb2dPolyline
66
1
10
0.0
20
0.0
30
0.0
70
0
0
VERTEX
5
177
100
AcDbEntity
8
1
100
AcDbVertex
100
AcDb2dVertex
62
5
10
-452.863001
20
-58.961500
0
VERTEX
5
178
100
AcDbEntity
8
1
100
AcDbVertex
100
AcDb2dVertex
62
5
10
-451.613001
20
-58.961500
0
VERTEX
5
179
100
AcDbEntity
8
1
100
AcDbVertex
100
AcDb2dVertex
62
5
10
-450.675501
20
-59.274000
0
VERTEX
5
17a
100
AcDbEntity
8
1
100
AcDbVertex
100
AcDb2dVertex
62
5
10
-450.050501
20
-59.899000
0
VERTEX
5
17b
100
AcDbEntity
8
1
100
AcDbVertex
100
AcDb2dVertex
62
5
10
-449.738001
20
-60.524000
0
VERTEX
5
17c
100
AcDbEntity
8
1
100
AcDbVertex
100
AcDb2dVertex
62
5
10
-449.738001
20
-61.461500
0
VERTEX
5
17d
100
AcDbEntity
8
1
100
AcDbVertex
100
AcDb2dVertex
62
5
10
-450.050501
20
-62.086500
0
VERTEX
5
17e
100
AcDbEntity
8
1
100
AcDbVertex
100
AcDb2dVertex
62
5
10
-450.675501
20
-62.711500
0
VERTEX
5
17f
100
AcDbEntity
8
1
100
AcDbVertex
100
AcDb2dVertex
62
5
10
-451.613001
20
-63.024000
0
VERTEX
5
180
100
AcDbEntity
8
1
100
AcDbVertex
100
AcDb2dVertex
62
5
10
-452.863001
20
-63.024000
0
SEQEND
5
181
100
AcDbEntity
8
1
0
POLYLINE
5
182
100
AcDbEntity
8
1
6
CONTINUOUS
62
5
100
AcDb2dPolyline
66
1
10
0.0
20
0.0
30
0.0
70
0
0
VERTEX
5
183
100
AcDbEntity
8
1
100
AcDbVertex
100
AcDb2dVertex
62
5
10
-448.175501
20
-58.961500
0
VERTEX
5
184
100
AcDbEntity
8
1
100
AcDbVertex
100
AcDb2dVertex
62
5
10
-447.238001
20
-66.461500
0
VERTEX
5
185
100
AcDbEntity
8
1
100
AcDbVertex
100
AcDb2dVertex
62
5
10
-446.300501
20
-58.961500
0
VERTEX
5
186
100
AcDbEntity
8
1
100
AcDbVertex
100
AcDb2dVertex
62
5
10
-445.363001
20
-66.461500
0
VERTEX
5
187
100
AcDbEntity
8
1
100
AcDbVertex
100
AcDb2dVertex
62
5
10
-444.425501
20
-58.961500
0
SEQEND
5
188
100
AcDbEntity
8
1
0
LINE
5
189
100
AcDbEntity
8
1
100
AcDbLine
6
CONTINUOUS
62
5
10
-477.113001
20
-23.586500
11
-474.613001
21
-23.586500
0
POLYLINE
5
18a
100
AcDbEntity
8
1
6
CONTINUOUS
62
5
100
AcDb2dPolyline
66
1
10
0.0
20
0.0
30
0.0
70
0
0
VERTEX
5
18b
100
AcDbEntity
8
1
100
AcDbVertex
100
AcDb2dVertex
62
5
10
-477.113001
20
-23.586500
0
VERTEX
5
18c
100
AcDbEntity
8
1
100
AcDbVertex
100
AcDb2dVertex
62
5
10
-477.863001
20
-24.836500
0
VERTEX
5
18d
100
AcDbEntity
8
1
100
AcDbVertex
100
AcDb2dVertex
62
5
10
-478.613001
20
-25.774000
0
SEQEND
5
18e
100
AcDbEntity
8
1
0
POLYLINE
5
18f
100
AcDbEntity
8
1
6
CONTINUOUS
62
5
100
AcDb2dPolyline
66
1
10
0.0
20
0.0
30
0.0
70
0
0
VERTEX
5
190
100
AcDbEntity
8
1
100
AcDbVertex
100
AcDb2dVertex
62
5
10
-474.613001
20
-23.586500
0
VERTEX
5
191
100
AcDbEntity
8
1
100
AcDbVertex
100
AcDb2dVertex
62
5
10
-474.363001
20
-23.899000
0
VERTEX
5
192
100
AcDbEntity
8
1
100
AcDbVertex
100
AcDb2dVertex
62
5
10
-474.863001
20
-24.836500
0
VERTEX
5
193
100
AcDbEntity
8
1
100
AcDbVertex
100
AcDb2dVertex
62
5
10
-475.613001
20
-26.399000
0
VERTEX
5
194
100
AcDbEntity
8
1
100
AcDbVertex
100
AcDb2dVertex
62
5
10
-476.863001
20
-27.961500
0
VERTEX
5
195
100
AcDbEntity
8
1
100
AcDbVertex
100
AcDb2dVertex
62
5
10
-478.363001
20
-29.211500
0
SEQEND
5
196
100
AcDbEntity
8
1
0
LINE
5
197
100
AcDbEntity
8
1
100
AcDbLine
6
CONTINUOUS
62
5
10
-477.113001
20
-25.461500
11
-476.113001
21
-27.024000
0
LINE
5
198
100
AcDbEntity
8
1
100
AcDbLine
6
CONTINUOUS
62
5
10
-474.613001
20
-22.024000
11
-473.863001
21
-22.961500
0
LINE
5
199
100
AcDbEntity
8
1
100
AcDbLine
6
CONTINUOUS
62
5
10
-473.863001
20
-21.399000
11
-473.113001
21
-22.336500
0
POLYLINE
5
19a
100
AcDbEntity
8
1
6
CONTINUOUS
62
5
100
AcDb2dPolyline
66
1
10
0.0
20
0.0
30
0.0
70
0
0
VERTEX
5
19b
100
AcDbEntity
8
1
100
AcDbVertex
100
AcDb2dVertex
62
5
10
-482.613001
20
-12.461500
0
VERTEX
5
19c
100
AcDbEntity
8
1
100
AcDbVertex
100
AcDb2dVertex
62
5
10
-481.863001
20
-18.461500
0
VERTEX
5
19d
100
AcDbEntity
8
1
100
AcDbVertex
100
AcDb2dVertex
62
5
10
-481.113001
20
-12.461500
0
VERTEX
5
19e
100
AcDbEntity
8
1
100
AcDbVertex
100
AcDb2dVertex
62
5
10
-480.363001
20
-18.461500
0
VERTEX
5
19f
100
AcDbEntity
8
1
100
AcDbVertex
100
AcDb2dVertex
62
5
10
-479.613001
20
-12.461500
0
SEQEND
5
1a0
100
AcDbEntity
8
1
0
LINE
5
1a1
100
AcDbEntity
8
1
100
AcDbLine
6
CONTINUOUS
62
5
10
-477.863001
20
-12.461500
11
-476.363001
21
-12.461500
0
LINE
5
1a2
100
AcDbEntity
8
1
100
AcDbLine
6
CONTINUOUS
62
5
10
-477.113001
20
-12.461500
11
-477.113001
21
-18.461500
0
LINE
5
1a3
100
AcDbEntity
8
1
100
AcDbLine
6
CONTINUOUS
62
5
10
-477.863001
20
-18.461500
11
-476.363001
21
-18.461500
0
LINE
5
1a4
100
AcDbEntity
8
1
100
AcDbLine
6
CONTINUOUS
62
5
10
-474.363001
20
-12.461500
11
-474.363001
21
-18.461500
0
POLYLINE
5
1a5
100
AcDbEntity
8
1
6
CONTINUOUS
62
5
100
AcDb2dPolyline
66
1
10
0.0
20
0.0
30
0.0
70
0
0
VERTEX
5
1a6
100
AcDbEntity
8
1
100
AcDbVertex
100
AcDb2dVertex
62
5
10
-474.363001
20
-12.461500
0
VERTEX
5
1a7
100
AcDbEntity
8
1
100
AcDbVertex
100
AcDb2dVertex
62
5
10
-473.113001
20
-12.461500
0
VERTEX
5
1a8
100
AcDbEntity
8
1
100
AcDbVertex
100
AcDb2dVertex
62
5
10
-472.613001
20
-12.711500
0
VERTEX
5
1a9
100
AcDbEntity
8
1
100
AcDbVertex
100
AcDb2dVertex
62
5
10
-472.113001
20
-13.211500
0
VERTEX
5
1aa
100
AcDbEntity
8
1
100
AcDbVertex
100
AcDb2dVertex
62
5
10
-471.863001
20
-14.211500
0
VERTEX
5
1ab
100
AcDbEntity
8
1
100
AcDbVertex
100
AcDb2dVertex
62
5
10
-471.863001
20
-16.711500
0
VERTEX
5
1ac
100
AcDbEntity
8
1
100
AcDbVertex
100
AcDb2dVertex
62
5
10
-472.113001
20
-17.711500
0
VERTEX
5
1ad
100
AcDbEntity
8
1
100
AcDbVertex
100
AcDb2dVertex
62
5
10
-472.613001
20
-18.211500
0
VERTEX
5
1ae
100
AcDbEntity
8
1
100
AcDbVertex
100
AcDb2dVertex
62
5
10
-473.113001
20
-18.461500
0
VERTEX
5
1af
100
AcDbEntity
8
1
100
AcDbVertex
100
AcDb2dVertex
62
5
10
-474.363001
20
-18.461500
0
SEQEND
5
1b0
100
AcDbEntity
8
1
0
POLYLINE
5
1b1
100
AcDbEntity
8
1
6
CONTINUOUS
62
5
100
AcDb2dPolyline
66
1
10
0.0
20
0.0
30
0.0
70
0
0
VERTEX
5
1b2
100
AcDbEntity
8
1
100
AcDbVertex
100
AcDb2dVertex
62
5
10
-467.863001
20
-12.461500
0
VERTEX
5
1b3
100
AcDbEntity
8
1
100
AcDbVertex
100
AcDb2dVertex
62
5
10
-470.363001
20
-12.461500
0
VERTEX
5
1b4
100
AcDbEntity
8
1
100
AcDbVertex
100
AcDb2dVertex
62
5
10
-470.363001
20
-18.461500
0
VERTEX
5
1b5
100
AcDbEntity
8
1
100
AcDbVertex
100
AcDb2dVertex
62
5
10
-467.613001
20
-18.461500
0
SEQEND
5
1b6
100
AcDbEntity
8
1
0
LINE
5
1b7
100
AcDbEntity
8
1
100
AcDbLine
6
CONTINUOUS
62
5
10
-470.363001
20
-15.461500
11
-468.113001
21
-15.461500
0
POLYLINE
5
1b8
100
AcDbEntity
8
1
6
CONTINUOUS
62
5
100
AcDb2dPolyline
66
1
10
0.0
20
0.0
30
0.0
70
0
0
VERTEX
5
1b9
100
AcDbEntity
8
1
100
AcDbVertex
100
AcDb2dVertex
62
5
10
-492.113001
20
-12.461500
0
VERTEX
5
1ba
100
AcDbEntity
8
1
100
AcDbVertex
100
AcDb2dVertex
62
5
10
-492.113001
20
-16.961500
0
VERTEX
5
1bb
100
AcDbEntity
8
1
100
AcDbVertex
100
AcDb2dVertex
62
5
10
-492.363001
20
-17.961500
0
VERTEX
5
1bc
100
AcDbEntity
8
1
100
AcDbVertex
100
AcDb2dVertex
62
5
10
-492.863001
20
-18.461500
0
VERTEX
5
1bd
100
AcDbEntity
8
1
100
AcDbVertex
100
AcDb2dVertex
62
5
10
-493.613001
20
-18.461500
0
VERTEX
5
1be
100
AcDbEntity
8
1
100
AcDbVertex
100
AcDb2dVertex
62
5
10
-494.113001
20
-17.961500
0
VERTEX
5
1bf
100
AcDbEntity
8
1
100
AcDbVertex
100
AcDb2dVertex
62
5
10
-494.363001
20
-16.961500
0
SEQEND
5
1c0
100
AcDbEntity
8
1
0
POLYLINE
5
1c1
100
AcDbEntity
8
1
6
CONTINUOUS
62
5
100
AcDb2dPolyline
66
1
10
0.0
20
0.0
30
0.0
70
0
0
VERTEX
5
1c2
100
AcDbEntity
8
1
100
AcDbVertex
100
AcDb2dVertex
62
5
10
-488.113001
20
-15.461500
0
VERTEX
5
1c3
100
AcDbEntity
8
1
100
AcDbVertex
100
AcDb2dVertex
62
5
10
-487.613001
20
-14.961500
0
VERTEX
5
1c4
100
AcDbEntity
8
1
100
AcDbVertex
100
AcDb2dVertex
62
5
10
-487.363001
20
-14.961500
0
VERTEX
5
1c5
100
AcDbEntity
8
1
100
AcDbVertex
100
AcDb2dVertex
62
5
10
-486.863001
20
-15.461500
0
VERTEX
5
1c6
100
AcDbEntity
8
1
100
AcDbVertex
100
AcDb2dVertex
62
5
10
-486.863001
20
-15.711500
0
VERTEX
5
1c7
100
AcDbEntity
8
1
100
AcDbVertex
100
AcDb2dVertex
62
5
10
-487.363001
20
-16.211500
0
VERTEX
5
1c8
100
AcDbEntity
8
1
100
AcDbVertex
100
AcDb2dVertex
62
5
10
-487.613001
20
-16.211500
0
VERTEX
5
1c9
100
AcDbEntity
8
1
100
AcDbVertex
100
AcDb2dVertex
62
5
10
-488.113001
20
-15.711500
0
VERTEX
5
1ca
100
AcDbEntity
8
1
100
AcDbVertex
100
AcDb2dVertex
62
5
10
-488.113001
20
-15.461500
0
VERTEX
5
1cb
100
AcDbEntity
8
1
100
AcDbVertex
100
AcDb2dVertex
62
5
10
-486.863001
20
-15.461500
0
SEQEND
5
1cc
100
AcDbEntity
8
1
0
LINE
5
1cd
100
AcDbEntity
8
1
100
AcDbLine
6
CONTINUOUS
62
5
10
-486.863001
20
-15.711500
11
-488.113001
21
-15.711500
0
LINE
5
1ce
100
AcDbEntity
8
1
100
AcDbLine
6
CONTINUOUS
62
5
10
-487.863001
20
-15.961500
11
-487.113001
21
-15.961500
0
LINE
5
1cf
100
AcDbEntity
8
1
100
AcDbLine
6
CONTINUOUS
62
5
10
-487.113001
20
-15.211500
11
-487.863001
21
-15.211500
0
POLYLINE
5
1d0
100
AcDbEntity
8
1
6
CONTINUOUS
62
5
100
AcDb2dPolyline
66
1
10
0.0
20
0.0
30
0.0
70
0
0
VERTEX
5
1d1
100
AcDbEntity
8
1
100
AcDbVertex
100
AcDb2dVertex
62
5
10
-478.613001
20
-32.961500
0
VERTEX
5
1d2
100
AcDbEntity
8
1
100
AcDbVertex
100
AcDb2dVertex
62
5
10
-478.613001
20
-38.274000
0
VERTEX
5
1d3
100
AcDbEntity
8
1
100
AcDbVertex
100
AcDb2dVertex
62
5
10
-478.113001
20
-38.899000
0
VERTEX
5
1d4
100
AcDbEntity
8
1
100
AcDbVertex
100
AcDb2dVertex
62
5
10
-474.613001
20
-38.899000
0
SEQEND
5
1d5
100
AcDbEntity
8
1
0
LINE
5
1d6
100
AcDbEntity
8
1
100
AcDbLine
6
CONTINUOUS
62
5
10
-475.113001
20
-34.836500
11
-478.613001
21
-35.774000
0
POLYLINE
5
1d7
100
AcDbEntity
8
1
6
CONTINUOUS
62
5
100
AcDb2dPolyline
66
1
10
0.0
20
0.0
30
0.0
70
1
0
VERTEX
5
1d8
100
AcDbEntity
8
1
100
AcDbVertex
100
AcDb2dVertex
62
5
10
-475.113001
20
-32.961500
0
VERTEX
5
1d9
100
AcDbEntity
8
1
100
AcDbVertex
100
AcDb2dVertex
62
5
10
-474.613001
20
-32.336500
0
VERTEX
5
1da
100
AcDbEntity
8
1
100
AcDbVertex
100
AcDb2dVertex
62
5
10
-474.363001
20
-32.336500
0
VERTEX
5
1db
100
AcDbEntity
8
1
100
AcDbVertex
100
AcDb2dVertex
62
5
10
-473.863001
20
-32.961500
0
VERTEX
5
1dc
100
AcDbEntity
8
1
100
AcDbVertex
100
AcDb2dVertex
62
5
10
-473.863001
20
-33.274000
0
VERTEX
5
1dd
100
AcDbEntity
8
1
100
AcDbVertex
100
AcDb2dVertex
62
5
10
-474.363001
20
-33.899000
0
VERTEX
5
1de
100
AcDbEntity
8
1
100
AcDbVertex
100
AcDb2dVertex
62
5
10
-474.613001
20
-33.899000
0
VERTEX
5
1df
100
AcDbEntity
8
1
100
AcDbVertex
100
AcDb2dVertex
62
5
10
-475.113001
20
-33.274000
0
VERTEX
5
1e0
100
AcDbEntity
8
1
100
AcDbVertex
100
AcDb2dVertex
62
5
10
-475.113001
20
-32.961500
0
SEQEND
5
1e1
100
AcDbEntity
8
1
0
POLYLINE
5
1e2
100
AcDbEntity
8
1
6
CONTINUOUS
62
5
100
AcDb2dPolyline
66
1
10
0.0
20
0.0
30
0.0
70
0
0
VERTEX
5
1e3
100
AcDbEntity
8
1
100
AcDbVertex
100
AcDb2dVertex
62
5
10
-469.863001
20
-35.149000
0
VERTEX
5
1e4
100
AcDbEntity
8
1
100
AcDbVertex
100
AcDb2dVertex
62
5
10
-467.863001
20
-35.149000
0
VERTEX
5
1e5
100
AcDbEntity
8
1
100
AcDbVertex
100
AcDb2dVertex
62
5
10
-468.113001
20
-38.274000
0
SEQEND
5
1e6
100
AcDbEntity
8
1
0
LINE
5
1e7
100
AcDbEntity
8
1
100
AcDbLine
6
CONTINUOUS
62
5
10
-470.613001
20
-38.274000
11
-466.363001
21
-38.274000
0
LINE
5
1e8
100
AcDbEntity
8
1
100
AcDbLine
6
CONTINUOUS
62
5
10
-505.363001
20
-9.461500
11
-505.363001
21
-41.461500
0
POLYLINE
5
1e9
100
AcDbEntity
8
1
6
CONTINUOUS
62
5
100
AcDb2dPolyline
66
1
10
0.0
20
0.0
30
0.0
70
1
0
VERTEX
5
1ea
100
AcDbEntity
8
1
100
AcDbVertex
100
AcDb2dVertex
62
5
10
-481.613001
20
-58.961500
0
VERTEX
5
1eb
100
AcDbEntity
8
1
100
AcDbVertex
100
AcDb2dVertex
62
5
10
-480.988001
20
-58.961500
0
VERTEX
5
1ec
100
AcDbEntity
8
1
100
AcDbVertex
100
AcDb2dVertex
62
5
10
-480.675501
20
-59.274000
0
VERTEX
5
1ed
100
AcDbEntity
8
1
100
AcDbVertex
100
AcDb2dVertex
62
5
10
-480.050501
20
-60.524000
0
VERTEX
5
1ee
100
AcDbEntity
8
1
100
AcDbVertex
100
AcDb2dVertex
62
5
10
-479.738001
20
-61.774000
0
VERTEX
5
1ef
100
AcDbEntity
8
1
100
AcDbVertex
100
AcDb2dVertex
62
5
10
-479.738001
20
-63.649000
0
VERTEX
5
1f0
100
AcDbEntity
8
1
100
AcDbVertex
100
AcDb2dVertex
62
5
10
-480.050501
20
-64.899000
0
VERTEX
5
1f1
100
AcDbEntity
8
1
100
AcDbVertex
100
AcDb2dVertex
62
5
10
-480.675501
20
-66.149000
0
VERTEX
5
1f2
100
AcDbEntity
8
1
100
AcDbVertex
100
AcDb2dVertex
62
5
10
-480.988001
20
-66.461500
0
VERTEX
5
1f3
100
AcDbEntity
8
1
100
AcDbVertex
100
AcDb2dVertex
62
5
10
-481.613001
20
-66.461500
0
VERTEX
5
1f4
100
AcDbEntity
8
1
100
AcDbVertex
100
AcDb2dVertex
62
5
10
-481.925501
20
-66.149000
0
VERTEX
5
1f5
100
AcDbEntity
8
1
100
AcDbVertex
100
AcDb2dVertex
62
5
10
-482.550501
20
-64.899000
0
VERTEX
5
1f6
100
AcDbEntity
8
1
100
AcDbVertex
100
AcDb2dVertex
62
5
10
-482.863001
20
-63.649000
0
VERTEX
5
1f7
100
AcDbEntity
8
1
100
AcDbVertex
100
AcDb2dVertex
62
5
10
-482.863001
20
-61.774000
0
VERTEX
5
1f8
100
AcDbEntity
8
1
100
AcDbVertex
100
AcDb2dVertex
62
5
10
-482.550501
20
-60.524000
0
VERTEX
5
1f9
100
AcDbEntity
8
1
100
AcDbVertex
100
AcDb2dVertex
62
5
10
-481.925501
20
-59.274000
0
VERTEX
5
1fa
100
AcDbEntity
8
1
100
AcDbVertex
100
AcDb2dVertex
62
5
10
-481.613001
20
-58.961500
0
SEQEND
5
1fb
100
AcDbEntity
8
1
0
POLYLINE
5
1fc
100
AcDbEntity
8
1
6
CONTINUOUS
62
5
100
AcDb2dPolyline
66
1
10
0.0
20
0.0
30
0.0
70
0
0
VERTEX
5
1fd
100
AcDbEntity
8
1
100
AcDbVertex
100
AcDb2dVertex
62
5
10
-477.863001
20
-60.836500
0
VERTEX
5
1fe
100
AcDbEntity
8
1
100
AcDbVertex
100
AcDb2dVertex
62
5
10
-477.550501
20
-59.586500
0
VERTEX
5
1ff
100
AcDbEntity
8
1
100
AcDbVertex
100
AcDb2dVertex
62
5
10
-476.925501
20
-58.961500
0
VERTEX
5
200
100
AcDbEntity
8
1
100
AcDbVertex
100
AcDb2dVertex
62
5
10
-475.988001
20
-58.961500
0
VERTEX
5
201
100
AcDbEntity
8
1
100
AcDbVertex
100
AcDb2dVertex
62
5
10
-475.363001
20
-59.274000
0
VERTEX
5
202
100
AcDbEntity
8
1
100
AcDbVertex
100
AcDb2dVertex
62
5
10
-475.050501
20
-60.211500
0
VERTEX
5
203
100
AcDbEntity
8
1
100
AcDbVertex
100
AcDb2dVertex
62
5
10
-475.050501
20
-61.461500
0
VERTEX
5
204
100
AcDbEntity
8
1
100
AcDbVertex
100
AcDb2dVertex
62
5
10
-475.363001
20
-62.086500
0
VERTEX
5
205
100
AcDbEntity
8
1
100
AcDbVertex
100
AcDb2dVertex
62
5
10
-475.988001
20
-62.711500
0
VERTEX
5
206
100
AcDbEntity
8
1
100
AcDbVertex
100
AcDb2dVertex
62
5
10
-476.925501
20
-62.711500
0
SEQEND
5
207
100
AcDbEntity
8
1
0
POLYLINE
5
208
100
AcDbEntity
8
1
6
CONTINUOUS
62
5
100
AcDb2dPolyline
66
1
10
0.0
20
0.0
30
0.0
70
0
0
VERTEX
5
209
100
AcDbEntity
8
1
100
AcDbVertex
100
AcDb2dVertex
62
5
10
-475.988001
20
-62.711500
0
VERTEX
5
20a
100
AcDbEntity
8
1
100
AcDbVertex
100
AcDb2dVertex
62
5
10
-475.050501
20
-63.336500
0
VERTEX
5
20b
100
AcDbEntity
8
1
100
AcDbVertex
100
AcDb2dVertex
62
5
10
-474.738001
20
-64.274000
0
VERTEX
5
20c
100
AcDbEntity
8
1
100
AcDbVertex
100
AcDb2dVertex
62
5
10
-474.738001
20
-65.211500
0
VERTEX
5
20d
100
AcDbEntity
8
1
100
AcDbVertex
100
AcDb2dVertex
62
5
10
-475.050501
20
-65.836500
0
VERTEX
5
20e
100
AcDbEntity
8
1
100
AcDbVertex
100
AcDb2dVertex
62
5
10
-475.988001
20
-66.461500
0
VERTEX
5
20f
100
AcDbEntity
8
1
100
AcDbVertex
100
AcDb2dVertex
62
5
10
-476.925501
20
-66.461500
0
VERTEX
5
210
100
AcDbEntity
8
1
100
AcDbVertex
100
AcDb2dVertex
62
5
10
-477.550501
20
-66.149000
0
VERTEX
5
211
100
AcDbEntity
8
1
100
AcDbVertex
100
AcDb2dVertex
62
5
10
-478.175501
20
-65.211500
0
SEQEND
5
212
100
AcDbEntity
8
1
0
POLYLINE
5
213
100
AcDbEntity
8
1
6
CONTINUOUS
62
5
100
AcDb2dPolyline
66
1
10
0.0
20
0.0
30
0.0
70
0
0
VERTEX
5
214
100
AcDbEntity
8
1
100
AcDbVertex
100
AcDb2dVertex
62
5
10
-470.363001
20
-58.961500
0
VERTEX
5
215
100
AcDbEntity
8
1
100
AcDbVertex
100
AcDb2dVertex
62
5
10
-473.175501
20
-64.586500
0
VERTEX
5
216
100
AcDbEntity
8
1
100
AcDbVertex
100
AcDb2dVertex
62
5
10
-469.425501
20
-64.586500
0
SEQEND
5
217
100
AcDbEntity
8
1
0
LINE
5
218
100
AcDbEntity
8
1
100
AcDbLine
6
CONTINUOUS
62
5
10
-470.363001
20
-58.961500
11
-470.363001
21
-66.461500
0
LINE
5
219
100
AcDbEntity
8
1
100
AcDbLine
6
CONTINUOUS
62
5
10
-470.988001
20
-66.461500
11
-469.738001
21
-66.461500
0
POLYLINE
5
21a
100
AcDbEntity
8
1
6
CONTINUOUS
62
5
100
AcDb2dPolyline
66
1
10
0.0
20
0.0
30
0.0
70
0
0
VERTEX
5
21b
100
AcDbEntity
8
1
100
AcDbVertex
100
AcDb2dVertex
62
5
10
-493.175501
20
-58.961500
0
VERTEX
5
21c
100
AcDbEntity
8
1
100
AcDbVertex
100
AcDb2dVertex
62
5
10
-492.238001
20
-66.461500
0
VERTEX
5
21d
100
AcDbEntity
8
1
100
AcDbVertex
100
AcDb2dVertex
62
5
10
-491.300501
20
-58.961500
0
VERTEX
5
21e
100
AcDbEntity
8
1
100
AcDbVertex
100
AcDb2dVertex
62
5
10
-490.363001
20
-66.461500
0
VERTEX
5
21f
100
AcDbEntity
8
1
100
AcDbVertex
100
AcDb2dVertex
62
5
10
-489.425501
20
-58.961500
0
SEQEND
5
220
100
AcDbEntity
8
1
0
POLYLINE
5
221
100
AcDbEntity
8
1
6
CONTINUOUS
62
5
100
AcDb2dPolyline
66
1
10
0.0
20
0.0
30
0.0
70
0
0
VERTEX
5
222
100
AcDbEntity
8
1
100
AcDbVertex
100
AcDb2dVertex
62
5
10
-485.050501
20
-58.961500
0
VERTEX
5
223
100
AcDbEntity
8
1
100
AcDbVertex
100
AcDb2dVertex
62
5
10
-485.050501
20
-64.586500
0
VERTEX
5
224
100
AcDbEntity
8
1
100
AcDbVertex
100
AcDb2dVertex
62
5
10
-485.363001
20
-65.836500
0
VERTEX
5
225
100
AcDbEntity
8
1
100
AcDbVertex
100
AcDb2dVertex
62
5
10
-485.988001
20
-66.461500
0
VERTEX
5
226
100
AcDbEntity
8
1
100
AcDbVertex
100
AcDb2dVertex
62
5
10
-486.925501
20
-66.461500
0
VERTEX
5
227
100
AcDbEntity
8
1
100
AcDbVertex
100
AcDb2dVertex
62
5
10
-487.550501
20
-65.836500
0
VERTEX
5
228
100
AcDbEntity
8
1
100
AcDbVertex
100
AcDb2dVertex
62
5
10
-487.863001
20
-64.586500
0
SEQEND
5
229
100
AcDbEntity
8
1
0
POLYLINE
5
22a
100
AcDbEntity
8
1
6
CONTINUOUS
62
5
100
AcDb2dPolyline
66
1
10
0.0
20
0.0
30
0.0
70
1
0
VERTEX
5
22b
100
AcDbEntity
8
1
100
AcDbVertex
100
AcDb2dVertex
62
5
10
-466.613001
20
-58.961500
0
VERTEX
5
22c
100
AcDbEntity
8
1
100
AcDbVertex
100
AcDb2dVertex
62
5
10
-465.988001
20
-58.961500
0
VERTEX
5
22d
100
AcDbEntity
8
1
100
AcDbVertex
100
AcDb2dVertex
62
5
10
-465.675501
20
-59.274000
0
VERTEX
5
22e
100
AcDbEntity
8
1
100
AcDbVertex
100
AcDb2dVertex
62
5
10
-465.050501
20
-60.524000
0
VERTEX
5
22f
100
AcDbEntity
8
1
100
AcDbVertex
100
AcDb2dVertex
62
5
10
-464.738001
20
-61.774000
0
VERTEX
5
230
100
AcDbEntity
8
1
100
AcDbVertex
100
AcDb2dVertex
62
5
10
-464.738001
20
-63.649000
0
VERTEX
5
231
100
AcDbEntity
8
1
100
AcDbVertex
100
AcDb2dVertex
62
5
10
-465.050501
20
-64.899000
0
VERTEX
5
232
100
AcDbEntity
8
1
100
AcDbVertex
100
AcDb2dVertex
62
5
10
-465.675501
20
-66.149000
0
VERTEX
5
233
100
AcDbEntity
8
1
100
AcDbVertex
100
AcDb2dVertex
62
5
10
-465.988001
20
-66.461500
0
VERTEX
5
234
100
AcDbEntity
8
1
100
AcDbVertex
100
AcDb2dVertex
62
5
10
-466.613001
20
-66.461500
0
VERTEX
5
235
100
AcDbEntity
8
1
100
AcDbVertex
100
AcDb2dVertex
62
5
10
-466.925501
20
-66.149000
0
VERTEX
5
236
100
AcDbEntity
8
1
100
AcDbVertex
100
AcDb2dVertex
62
5
10
-467.550501
20
-64.899000
0
VERTEX
5
237
100
AcDbEntity
8
1
100
AcDbVertex
100
AcDb2dVertex
62
5
10
-467.863001
20
-63.649000
0
VERTEX
5
238
100
AcDbEntity
8
1
100
AcDbVertex
100
AcDb2dVertex
62
5
10
-467.863001
20
-61.774000
0
VERTEX
5
239
100
AcDbEntity
8
1
100
AcDbVertex
100
AcDb2dVertex
62
5
10
-467.550501
20
-60.524000
0
VERTEX
5
23a
100
AcDbEntity
8
1
100
AcDbVertex
100
AcDb2dVertex
62
5
10
-466.925501
20
-59.274000
0
VERTEX
5
23b
100
AcDbEntity
8
1
100
AcDbVertex
100
AcDb2dVertex
62
5
10
-466.613001
20
-58.961500
0
SEQEND
5
23c
100
AcDbEntity
8
1
0
POLYLINE
5
23d
100
AcDbEntity
8
1
6
CONTINUOUS
62
5
100
AcDb2dPolyline
66
1
10
0.0
20
0.0
30
0.0
70
0
0
VERTEX
5
23e
100
AcDbEntity
8
1
100
AcDbVertex
100
AcDb2dVertex
62
5
10
-471.113001
20
-23.586500
0
VERTEX
5
23f
100
AcDbEntity
8
1
100
AcDbVertex
100
AcDb2dVertex
62
5
10
-467.363001
20
-23.586500
0
VERTEX
5
240
100
AcDbEntity
8
1
100
AcDbVertex
100
AcDb2dVertex
62
5
10
-467.363001
20
-24.524000
0
VERTEX
5
241
100
AcDbEntity
8
1
100
AcDbVertex
100
AcDb2dVertex
62
5
10
-467.613001
20
-25.774000
0
VERTEX
5
242
100
AcDbEntity
8
1
100
AcDbVertex
100
AcDb2dVertex
62
5
10
-468.113001
20
-26.711500
0
VERTEX
5
243
100
AcDbEntity
8
1
100
AcDbVertex
100
AcDb2dVertex
62
5
10
-468.613001
20
-27.649000
0
VERTEX
5
244
100
AcDbEntity
8
1
100
AcDbVertex
100
AcDb2dVertex
62
5
10
-470.113001
20
-28.899000
0
SEQEND
5
245
100
AcDbEntity
8
1
0
LINE
5
246
100
AcDbEntity
8
1
100
AcDbLine
6
CONTINUOUS
62
5
10
-466.863001
20
-22.336500
11
-466.113001
21
-23.274000
0
LINE
5
247
100
AcDbEntity
8
1
100
AcDbLine
6
CONTINUOUS
62
5
10
-465.863001
20
-21.711500
11
-465.363001
21
-22.649000
0
POLYLINE
5
248
100
AcDbEntity
8
1
6
DOT2
62
5
100
AcDb2dPolyline
66
1
10
0.0
20
0.0
30
0.0
70
1
0
VERTEX
5
249
100
AcDbEntity
8
1
100
AcDbVertex
100
AcDb2dVertex
62
5
10
-422.363023
20
-105.711500
0
VERTEX
5
24a
100
AcDbEntity
8
1
100
AcDbVertex
100
AcDb2dVertex
62
5
10
-421.738023
20
-105.711500
0
VERTEX
5
24b
100
AcDbEntity
8
1
100
AcDbVertex
100
AcDb2dVertex
62
5
10
-421.425523
20
-106.024000
0
VERTEX
5
24c
100
AcDbEntity
8
1
100
AcDbVertex
100
AcDb2dVertex
62
5
10
-420.800523
20
-107.274000
0
VERTEX
5
24d
100
AcDbEntity
8
1
100
AcDbVertex
100
AcDb2dVertex
62
5
10
-420.488023
20
-108.524000
0
VERTEX
5
24e
100
AcDbEntity
8
1
100
AcDbVertex
100
AcDb2dVertex
62
5
10
-420.488023
20
-110.399000
0
VERTEX
5
24f
100
AcDbEntity
8
1
100
AcDbVertex
100
AcDb2dVertex
62
5
10
-420.800523
20
-111.649000
0
VERTEX
5
250
100
AcDbEntity
8
1
100
AcDbVertex
100
AcDb2dVertex
62
5
10
-421.425523
20
-112.899000
0
VERTEX
5
251
100
AcDbEntity
8
1
100
AcDbVertex
100
AcDb2dVertex
62
5
10
-421.738023
20
-113.211500
0
VERTEX
5
252
100
AcDbEntity
8
1
100
AcDbVertex
100
AcDb2dVertex
62
5
10
-422.363023
20
-113.211500
0
VERTEX
5
253
100
AcDbEntity
8
1
100
AcDbVertex
100
AcDb2dVertex
62
5
10
-422.675523
20
-112.899000
0
VERTEX
5
254
100
AcDbEntity
8
1
100
AcDbVertex
100
AcDb2dVertex
62
5
10
-423.300523
20
-111.649000
0
VERTEX
5
255
100
AcDbEntity
8
1
100
AcDbVertex
100
AcDb2dVertex
62
5
10
-423.613023
20
-110.399000
0
VERTEX
5
256
100
AcDbEntity
8
1
100
AcDbVertex
100
AcDb2dVertex
62
5
10
-423.613023
20
-108.524000
0
VERTEX
5
257
100
AcDbEntity
8
1
100
AcDbVertex
100
AcDb2dVertex
62
5
10
-423.300523
20
-107.274000
0
VERTEX
5
258
100
AcDbEntity
8
1
100
AcDbVertex
100
AcDb2dVertex
62
5
10
-422.675523
20
-106.024000
0
VERTEX
5
259
100
AcDbEntity
8
1
100
AcDbVertex
100
AcDb2dVertex
62
5
10
-422.363023
20
-105.711500
0
SEQEND
5
25a
100
AcDbEntity
8
1
0
POLYLINE
5
25b
100
AcDbEntity
8
1
6
DOT2
62
5
100
AcDb2dPolyline
66
1
10
0.0
20
0.0
30
0.0
70
0
0
VERTEX
5
25c
100
AcDbEntity
8
1
100
AcDbVertex
100
AcDb2dVertex
62
5
10
-428.613023
20
-106.649000
0
VERTEX
5
25d
100
AcDbEntity
8
1
100
AcDbVertex
100
AcDb2dVertex
62
5
10
-428.613023
20
-105.711500
0
VERTEX
5
25e
100
AcDbEntity
8
1
100
AcDbVertex
100
AcDb2dVertex
62
5
10
-425.488023
20
-105.711500
0
VERTEX
5
25f
100
AcDbEntity
8
1
100
AcDbVertex
100
AcDb2dVertex
62
5
10
-425.488023
20
-106.336500
0
VERTEX
5
260
100
AcDbEntity
8
1
100
AcDbVertex
100
AcDb2dVertex
62
5
10
-426.113023
20
-107.899000
0
VERTEX
5
261
100
AcDbEntity
8
1
100
AcDbVertex
100
AcDb2dVertex
62
5
10
-426.738023
20
-110.086500
0
VERTEX
5
262
100
AcDbEntity
8
1
100
AcDbVertex
100
AcDb2dVertex
62
5
10
-427.363023
20
-113.211500
0
SEQEND
5
263
100
AcDbEntity
8
1
0
LINE
5
264
100
AcDbEntity
8
1
100
AcDbLine
6
CONTINUOUS
62
5
10
-417.513024
20
-178.961500
11
-416.513024
21
-177.961500
0
LINE
5
265
100
AcDbEntity
8
1
100
AcDbLine
6
CONTINUOUS
62
5
10
-419.513024
20
-178.961500
11
-420.513024
21
-177.961500
0
LINE
5
266
100
AcDbEntity
8
1
100
AcDbLine
6
CONTINUOUS
62
5
10
-432.213024
20
-178.211500
11
-433.213024
21
-177.211500
0
LINE
5
267
100
AcDbEntity
8
1
100
AcDbLine
6
CONTINUOUS
62
5
10
-430.213024
20
-178.211500
11
-429.213024
21
-177.211500
0
LINE
5
268
100
AcDbEntity
8
1
100
AcDbLine
6
CONTINUOUS
62
5
10
-459.863023
20
-147.961500
11
-459.863023
21
-112.461500
0
LINE
5
269
100
AcDbEntity
8
1
100
AcDbLine
6
CONTINUOUS
62
5
10
-389.863023
20
-147.961500
11
-389.863023
21
-112.461500
0
POLYLINE
5
26a
100
AcDbEntity
8
1
6
CONTINUOUS
62
5
100
AcDb2dPolyline
66
1
10
0.0
20
0.0
30
0.0
70
0
0
VERTEX
5
26b
100
AcDbEntity
8
1
100
AcDbVertex
100
AcDb2dVertex
62
5
10
-424.863023
20
-114.461500
0
VERTEX
5
26c
100
AcDbEntity
8
1
100
AcDbVertex
100
AcDb2dVertex
62
5
10
-459.863023
20
-114.461500
0
VERTEX
5
26d
100
AcDbEntity
8
1
100
AcDbVertex
100
AcDb2dVertex
62
5
10
-453.863023
20
-113.461500
0
VERTEX
5
26e
100
AcDbEntity
8
1
100
AcDbVertex
100
AcDb2dVertex
62
5
10
-453.863023
20
-115.461500
0
VERTEX
5
26f
100
AcDbEntity
8
1
100
AcDbVertex
100
AcDb2dVertex
62
5
10
-459.863023
20
-114.461500
0
VERTEX
5
270
100
AcDbEntity
8
1
100
AcDbVertex
100
AcDb2dVertex
62
5
10
-453.863023
20
-113.961500
0
VERTEX
5
271
100
AcDbEntity
8
1
100
AcDbVertex
100
AcDb2dVertex
62
5
10
-453.863023
20
-114.961500
0
VERTEX
5
272
100
AcDbEntity
8
1
100
AcDbVertex
100
AcDb2dVertex
62
5
10
-459.863023
20
-114.461500
0
SEQEND
5
273
100
AcDbEntity
8
1
0
POLYLINE
5
274
100
AcDbEntity
8
1
6
CONTINUOUS
62
5
100
AcDb2dPolyline
66
1
10
0.0
20
0.0
30
0.0
70
0
0
VERTEX
5
275
100
AcDbEntity
8
1
100
AcDbVertex
100
AcDb2dVertex
62
5
10
-424.863023
20
-114.461500
0
VERTEX
5
276
100
AcDbEntity
8
1
100
AcDbVertex
100
AcDb2dVertex
62
5
10
-389.863023
20
-114.461500
0
VERTEX
5
277
100
AcDbEntity
8
1
100
AcDbVertex
100
AcDb2dVertex
62
5
10
-395.863023
20
-115.461500
0
VERTEX
5
278
100
AcDbEntity
8
1
100
AcDbVertex
100
AcDb2dVertex
62
5
10
-395.863023
20
-113.461500
0
VERTEX
5
279
100
AcDbEntity
8
1
100
AcDbVertex
100
AcDb2dVertex
62
5
10
-389.863023
20
-114.461500
0
VERTEX
5
27a
100
AcDbEntity
8
1
100
AcDbVertex
100
AcDb2dVertex
62
5
10
-395.863023
20
-114.961500
0
VERTEX
5
27b
100
AcDbEntity
8
1
100
AcDbVertex
100
AcDb2dVertex
62
5
10
-395.863023
20
-113.961500
0
VERTEX
5
27c
100
AcDbEntity
8
1
100
AcDbVertex
100
AcDb2dVertex
62
5
10
-389.863023
20
-114.461500
0
SEQEND
5
27d
100
AcDbEntity
8
1
0
LINE
5
27e
100
AcDbEntity
8
1
100
AcDbLine
6
CONTINUOUS
62
5
10
-545.363001
20
-41.461500
11
-225.363001
21
-41.461500
0
ARC
5
27f
100
AcDbEntity
8
1
100
AcDbCircle
6
CONTINUOUS
62
5
10
-311.362980
20
-196.154727
40
0.500000
100
AcDbArc
50
-86.576259
51
0.000000
0
LINE
5
280
100
AcDbEntity
8
1
100
AcDbLine
6
CONTINUOUS
62
5
10
-313.962980
20
-196.811171
11
-311.333120
21
-196.653835
0
ARC
5
281
100
AcDbEntity
8
1
100
AcDbCircle
6
CONTINUOUS
62
5
10
-311.162980
20
-186.838280
40
0.300000
100
AcDbArc
50
0.000000
51
85.389350
0
LINE
5
282
100
AcDbEntity
8
1
100
AcDbLine
6
CONTINUOUS
62
5
10
-310.862980
20
-186.838280
11
-310.862980
21
-189.733897
0
LINE
5
283
100
AcDbEntity
8
1
100
AcDbLine
6
CONTINUOUS
62
5
10
-313.962980
20
-186.311500
11
-311.138865
21
-186.539251
0
ARC
5
284
100
AcDbEntity
8
1
100
AcDbCircle
6
CONTINUOUS
62
5
10
-324.763023
20
-190.772104
40
0.700000
100
AcDbArc
50
-89.999999
51
-0.000000
0
LINE
5
285
100
AcDbEntity
8
1
100
AcDbLine
6
CONTINUOUS
62
5
10
-324.063023
20
-190.772104
11
-324.063023
21
-190.661417
0
ARC
5
286
100
AcDbEntity
8
1
100
AcDbCircle
6
CONTINUOUS
62
5
10
-324.763023
20
-190.661417
40
0.700000
100
AcDbArc
50
0.000000
51
89.118595
0
LINE
5
287
100
AcDbEntity
8
1
100
AcDbLine
6
CONTINUOUS
62
5
10
-324.752255
20
-189.961500
11
-325.363023
21
-189.952104
0
LINE
5
288
100
AcDbEntity
8
1
100
AcDbLine
6
CONTINUOUS
62
5
10
-325.363023
20
-191.461500
11
-324.763023
21
-191.472104
0
ARC
5
289
100
AcDbEntity
8
1
100
AcDbCircle
6
CONTINUOUS
62
5
10
-324.763023
20
-185.272180
40
0.700000
100
AcDbArc
50
-89.118595
51
-0.000000
0
LINE
5
28a
100
AcDbEntity
8
1
100
AcDbLine
6
CONTINUOUS
62
5
10
-324.063023
20
-185.272180
11
-324.063023
21
-185.161500
0
ARC
5
28b
100
AcDbEntity
8
1
100
AcDbCircle
6
CONTINUOUS
62
5
10
-324.763023
20
-185.161500
40
0.700000
100
AcDbArc
50
0.000000
51
89.999999
0
LINE
5
28c
100
AcDbEntity
8
1
100
AcDbLine
6
CONTINUOUS
62
5
10
-324.763023
20
-184.461500
11
-325.363023
21
-184.461500
0
LINE
5
28d
100
AcDbEntity
8
1
100
AcDbLine
6
CONTINUOUS
62
5
10
-325.363023
20
-185.981493
11
-324.752255
21
-185.972097
0
ARC
5
28e
100
AcDbEntity
8
1
100
AcDbCircle
6
CONTINUOUS
62
5
10
-311.162980
20
-212.084720
40
0.300000
100
AcDbArc
50
-85.389350
51
0.000000
0
LINE
5
28f
100
AcDbEntity
8
1
100
AcDbLine
6
CONTINUOUS
62
5
10
-310.862980
20
-212.084720
11
-310.862980
21
-209.189103
0
LINE
5
290
100
AcDbEntity
8
1
100
AcDbLine
6
CONTINUOUS
62
5
10
-313.962980
20
-212.611500
11
-311.138865
21
-212.383749
0
ARC
5
291
100
AcDbEntity
8
1
100
AcDbCircle
6
CONTINUOUS
62
5
10
-311.362980
20
-202.768273
40
0.500000
100
AcDbArc
50
0.000000
51
86.576259
0
LINE
5
292
100
AcDbEntity
8
1
100
AcDbLine
6
CONTINUOUS
62
5
10
-313.962980
20
-202.111829
11
-311.333120
21
-202.269165
0
ARC
5
293
100
AcDbEntity
8
1
100
AcDbCircle
6
CONTINUOUS
62
5
10
-316.562980
20
-219.509006
40
0.500000
100
AcDbArc
50
-84.289406
51
-0.000000
0
LINE
5
294
100
AcDbEntity
8
1
100
AcDbLine
6
CONTINUOUS
62
5
10
-316.062980
20
-219.509006
11
-316.062980
21
-218.413994
0
ARC
5
295
100
AcDbEntity
8
1
100
AcDbCircle
6
CONTINUOUS
62
5
10
-316.562980
20
-218.413994
40
0.500000
100
AcDbArc
50
-0.000000
51
84.289406
0
LINE
5
296
100
AcDbEntity
8
1
100
AcDbLine
6
CONTINUOUS
62
5
10
-316.513228
20
-217.916475
11
-317.862916
21
-217.781506
0
LINE
5
297
100
AcDbEntity
8
1
100
AcDbLine
6
CONTINUOUS
62
5
10
-317.862913
20
-220.141493
11
-316.513228
21
-220.006525
0
ARC
5
298
100
AcDbEntity
8
1
100
AcDbCircle
6
CONTINUOUS
62
5
10
-324.763023
20
-208.261583
40
0.700000
100
AcDbArc
50
-89.118595
51
-0.000000
0
LINE
5
299
100
AcDbEntity
8
1
100
AcDbLine
6
CONTINUOUS
62
5
10
-324.063023
20
-208.261583
11
-324.063023
21
-208.150896
0
ARC
5
29a
100
AcDbEntity
8
1
100
AcDbCircle
6
CONTINUOUS
62
5
10
-324.763023
20
-208.150896
40
0.700000
100
AcDbArc
50
-0.000000
51
89.999999
0
LINE
5
29b
100
AcDbEntity
8
1
100
AcDbLine
6
CONTINUOUS
62
5
10
-324.763023
20
-207.450896
11
-325.363023
21
-207.461500
0
LINE
5
29c
100
AcDbEntity
8
1
100
AcDbLine
6
CONTINUOUS
62
5
10
-325.363023
20
-208.970896
11
-324.752255
21
-208.961500
0
ARC
5
29d
100
AcDbEntity
8
1
100
AcDbCircle
6
CONTINUOUS
62
5
10
-324.763023
20
-213.761500
40
0.700000
100
AcDbArc
50
-89.999999
51
-0.000000
0
LINE
5
29e
100
AcDbEntity
8
1
100
AcDbLine
6
CONTINUOUS
62
5
10
-324.063023
20
-213.761500
11
-324.063023
21
-213.650820
0
ARC
5
29f
100
AcDbEntity
8
1
100
AcDbCircle
6
CONTINUOUS
62
5
10
-324.763023
20
-213.650820
40
0.700000
100
AcDbArc
50
0.000000
51
89.118595
0
LINE
5
2a0
100
AcDbEntity
8
1
100
AcDbLine
6
CONTINUOUS
62
5
10
-324.752255
20
-212.950903
11
-325.363023
21
-212.941507
0
LINE
5
2a1
100
AcDbEntity
8
1
100
AcDbLine
6
CONTINUOUS
62
5
10
-325.363023
20
-214.461500
11
-324.763023
21
-214.461500
0
ARC
5
2a2
100
AcDbEntity
8
1
100
AcDbCircle
6
CONTINUOUS
62
5
10
-311.362980
20
-209.189103
40
0.500000
100
AcDbArc
50
-86.748054
51
-0.000000
0
LINE
5
2a3
100
AcDbEntity
8
1
100
AcDbLine
6
CONTINUOUS
62
5
10
-310.862980
20
-209.189103
11
-310.862980
21
-189.733897
0
ARC
5
2a4
100
AcDbEntity
8
1
100
AcDbCircle
6
CONTINUOUS
62
5
10
-311.362980
20
-189.733897
40
0.500000
100
AcDbArc
50
0.000000
51
86.748054
0
LINE
5
2a5
100
AcDbEntity
8
1
100
AcDbLine
6
CONTINUOUS
62
5
10
-311.334617
20
-189.234702
11
-313.962980
21
-189.085364
0
LINE
5
2a6
100
AcDbEntity
8
1
100
AcDbLine
6
CONTINUOUS
62
5
10
-313.962980
20
-209.837636
11
-311.334617
21
-209.688298
0
LINE
5
2a7
100
AcDbEntity
8
1
100
AcDbLine
6
CONTINUOUS
62
5
10
-324.063023
20
-208.150896
11
-324.063023
21
-190.772104
0
ARC
5
2a8
100
AcDbEntity
8
1
100
AcDbCircle
6
CONTINUOUS
62
5
10
-313.462980
20
-229.211500
40
0.500000
100
AcDbArc
50
89.999999
51
-179.999998
0
LINE
5
2a9
100
AcDbEntity
8
1
100
AcDbLine
6
CONTINUOUS
62
5
10
-313.462980
20
-228.711500
11
-311.862980
21
-228.711500
0
ARC
5
2aa
100
AcDbEntity
8
1
100
AcDbCircle
6
CONTINUOUS
62
5
10
-311.862980
20
-227.711500
40
1.000000
100
AcDbArc
50
-89.999999
51
-0.000000
0
LINE
5
2ab
100
AcDbEntity
8
1
100
AcDbLine
6
CONTINUOUS
62
5
10
-310.862980
20
-227.711500
11
-310.862980
21
-226.211500
0
ARC
5
2ac
100
AcDbEntity
8
1
100
AcDbCircle
6
CONTINUOUS
62
5
10
-311.862980
20
-226.211500
40
1.000000
100
AcDbArc
50
0.000000
51
89.999999
0
LINE
5
2ad
100
AcDbEntity
8
1
100
AcDbLine
6
CONTINUOUS
62
5
10
-311.862980
20
-225.211500
11
-313.462980
21
-225.211500
0
ARC
5
2ae
100
AcDbEntity
8
1
100
AcDbCircle
6
CONTINUOUS
62
5
10
-313.462980
20
-224.711500
40
0.500000
100
AcDbArc
50
-179.999998
51
-89.999999
0
ARC
5
2af
100
AcDbEntity
8
1
100
AcDbCircle
6
CONTINUOUS
62
5
10
-318.372018
20
-224.913882
40
1.600000
100
AcDbArc
50
-71.447775
51
-63.699999
0
LINE
5
2b0
100
AcDbEntity
8
1
100
AcDbLine
6
CONTINUOUS
62
5
10
-317.663104
20
-226.348260
11
-316.228726
21
-225.639346
0
ARC
5
2b1
100
AcDbEntity
8
1
100
AcDbCircle
6
CONTINUOUS
62
5
10
-316.450261
20
-225.191103
40
0.500000
100
AcDbArc
50
-63.699999
51
26.300000
0
LINE
5
2b2
100
AcDbEntity
8
1
100
AcDbLine
6
CONTINUOUS
62
5
10
-316.002018
20
-224.969567
11
-317.019261
21
-222.911332
0
ARC
5
2b3
100
AcDbEntity
8
1
100
AcDbCircle
6
CONTINUOUS
62
5
10
-318.095045
20
-223.443017
40
1.200000
100
AcDbArc
50
26.300000
51
78.848121
0
LINE
5
2b4
100
AcDbEntity
8
1
100
AcDbLine
6
CONTINUOUS
62
5
10
-325.363023
20
-236.661492
11
-323.863023
21
-235.121479
0
ARC
5
2b5
100
AcDbEntity
8
1
100
AcDbCircle
6
CONTINUOUS
62
5
10
-325.063023
20
-230.976783
40
1.000000
100
AcDbArc
50
-89.118595
51
-0.000000
0
LINE
5
2b6
100
AcDbEntity
8
1
100
AcDbLine
6
CONTINUOUS
62
5
10
-324.063023
20
-230.976783
11
-324.063023
21
-230.661500
0
ARC
5
2b7
100
AcDbEntity
8
1
100
AcDbCircle
6
CONTINUOUS
62
5
10
-324.763023
20
-230.661500
40
0.700000
100
AcDbArc
50
0.000000
51
89.999999
0
LINE
5
2b8
100
AcDbEntity
8
1
100
AcDbLine
6
CONTINUOUS
62
5
10
-324.763023
20
-229.961500
11
-325.363023
21
-229.961500
0
LINE
5
2b9
100
AcDbEntity
8
1
100
AcDbLine
6
CONTINUOUS
62
5
10
-325.363023
20
-231.981516
11
-325.047640
21
-231.976664
0
ARC
5
2ba
100
AcDbEntity
8
1
100
AcDbCircle
6
CONTINUOUS
62
5
10
-313.962980
20
-223.461500
40
1.000000
100
AcDbArc
50
179.999998
51
-89.999999
0
LINE
5
2bb
100
AcDbEntity
8
1
100
AcDbLine
6
CONTINUOUS
62
5
10
-313.962980
20
-224.461500
11
-313.962980
21
-224.461500
0
LINE
5
2bc
100
AcDbEntity
8
1
100
AcDbLine
6
CONTINUOUS
62
5
10
-313.962980
20
-220.461500
11
-313.962980
21
-220.461500
0
ARC
5
2bd
100
AcDbEntity
8
1
100
AcDbCircle
6
CONTINUOUS
62
5
10
-313.962980
20
-221.461500
40
1.000000
100
AcDbArc
50
89.999999
51
179.999998
0
LINE
5
2be
100
AcDbEntity
8
1
100
AcDbLine
6
CONTINUOUS
62
5
10
-314.962980
20
-221.461500
11
-314.962980
21
-223.461500
0
ARC
5
2bf
100
AcDbEntity
8
1
100
AcDbCircle
6
CONTINUOUS
62
5
10
-313.962980
20
-223.211500
40
0.500000
100
AcDbArc
50
179.999998
51
-89.999999
0
LINE
5
2c0
100
AcDbEntity
8
1
100
AcDbLine
6
CONTINUOUS
62
5
10
-313.962980
20
-223.711500
11
-313.962980
21
-223.711500
0
LINE
5
2c1
100
AcDbEntity
8
1
100
AcDbLine
6
CONTINUOUS
62
5
10
-313.962980
20
-221.211500
11
-313.962980
21
-221.211500
0
ARC
5
2c2
100
AcDbEntity
8
1
100
AcDbCircle
6
CONTINUOUS
62
5
10
-313.962980
20
-221.711500
40
0.500000
100
AcDbArc
50
89.999999
51
179.999998
0
LINE
5
2c3
100
AcDbEntity
8
1
100
AcDbLine
6
CONTINUOUS
62
5
10
-314.462980
20
-221.711500
11
-314.462980
21
-223.211500
0
LINE
5
2c4
100
AcDbEntity
8
1
100
AcDbLine
6
CONTINUOUS
62
5
10
-324.063023
20
-230.661500
11
-324.063023
21
-213.761500
0
LINE
5
2c5
100
AcDbEntity
8
1
100
AcDbLine
6
CONTINUOUS
62
5
10
-417.513024
20
-185.961500
11
-416.513024
21
-186.961500
0
LINE
5
2c6
100
AcDbEntity
8
1
100
AcDbLine
6
CONTINUOUS
62
5
10
-419.513024
20
-185.961500
11
-420.513024
21
-186.961500
0
LINE
5
2c7
100
AcDbEntity
8
1
100
AcDbLine
6
CONTINUOUS
62
5
10
-417.513024
20
-219.961500
11
-416.513024
21
-220.961500
0
LINE
5
2c8
100
AcDbEntity
8
1
100
AcDbLine
6
CONTINUOUS
62
5
10
-417.513024
20
-212.961500
11
-416.513024
21
-211.961500
0
LINE
5
2c9
100
AcDbEntity
8
1
100
AcDbLine
6
CONTINUOUS
62
5
10
-419.513024
20
-219.961500
11
-420.513024
21
-220.961500
0
LINE
5
2ca
100
AcDbEntity
8
1
100
AcDbLine
6
CONTINUOUS
62
5
10
-419.513024
20
-212.961500
11
-420.513024
21
-211.961500
0
POLYLINE
5
2cb
100
AcDbEntity
8
1
6
CONTINUOUS
62
5
100
AcDb2dPolyline
66
1
10
0.0
20
0.0
30
0.0
70
0
0
VERTEX
5
2cc
100
AcDbEntity
8
1
100
AcDbVertex
100
AcDb2dVertex
62
5
10
-418.526871
20
-219.961500
0
VERTEX
5
2cd
100
AcDbEntity
8
1
100
AcDbVertex
100
AcDb2dVertex
62
5
10
-418.813024
20
-213.961500
0
VERTEX
5
2ce
100
AcDbEntity
8
1
100
AcDbVertex
100
AcDb2dVertex
62
5
10
-419.513024
20
-213.993808
0
SEQEND
5
2cf
100
AcDbEntity
8
1
0
POLYLINE
5
2d0
100
AcDbEntity
8
1
6
CONTINUOUS
62
5
100
AcDb2dPolyline
66
1
10
0.0
20
0.0
30
0.0
70
0
0
VERTEX
5
2d1
100
AcDbEntity
8
1
100
AcDbVertex
100
AcDb2dVertex
62
5
10
-419.513024
20
-219.961500
0
VERTEX
5
2d2
100
AcDbEntity
8
1
100
AcDbVertex
100
AcDb2dVertex
62
5
10
-417.513024
20
-219.961500
0
VERTEX
5
2d3
100
AcDbEntity
8
1
100
AcDbVertex
100
AcDb2dVertex
62
5
10
-417.513024
20
-212.961500
0
VERTEX
5
2d4
100
AcDbEntity
8
1
100
AcDbVertex
100
AcDb2dVertex
62
5
10
-419.513024
20
-212.961500
0
VERTEX
5
2d5
100
AcDbEntity
8
1
100
AcDbVertex
100
AcDb2dVertex
62
5
10
-419.513024
20
-219.961500
0
SEQEND
5
2d6
100
AcDbEntity
8
1
0
POLYLINE
5
2d7
100
AcDbEntity
8
1
6
CONTINUOUS
62
5
100
AcDb2dPolyline
66
1
10
0.0
20
0.0
30
0.0
70
0
0
VERTEX
5
2d8
100
AcDbEntity
8
1
100
AcDbVertex
100
AcDb2dVertex
62
5
10
-419.513024
20
-219.961500
0
VERTEX
5
2d9
100
AcDbEntity
8
1
100
AcDbVertex
100
AcDb2dVertex
62
5
10
-417.513024
20
-219.961500
0
VERTEX
5
2da
100
AcDbEntity
8
1
100
AcDbVertex
100
AcDb2dVertex
62
5
10
-417.513024
20
-212.961500
0
VERTEX
5
2db
100
AcDbEntity
8
1
100
AcDbVertex
100
AcDb2dVertex
62
5
10
-419.513024
20
-212.961500
0
VERTEX
5
2dc
100
AcDbEntity
8
1
100
AcDbVertex
100
AcDb2dVertex
62
5
10
-419.513024
20
-219.961500
0
SEQEND
5
2dd
100
AcDbEntity
8
1
0
POLYLINE
5
2de
100
AcDbEntity
8
1
6
CONTINUOUS
62
5
100
AcDb2dPolyline
66
1
10
0.0
20
0.0
30
0.0
70
0
0
VERTEX
5
2df
100
AcDbEntity
8
1
100
AcDbVertex
100
AcDb2dVertex
62
5
10
-418.499178
20
-219.961500
0
VERTEX
5
2e0
100
AcDbEntity
8
1
100
AcDbVertex
100
AcDb2dVertex
62
5
10
-418.213024
20
-213.961500
0
VERTEX
5
2e1
100
AcDbEntity
8
1
100
AcDbVertex
100
AcDb2dVertex
62
5
10
-417.513024
20
-213.993808
0
SEQEND
5
2e2
100
AcDbEntity
8
1
0
LINE
5
2e3
100
AcDbEntity
8
1
100
AcDbLine
6
CONTINUOUS
62
5
10
-432.213024
20
-186.711500
11
-433.213024
21
-187.711500
0
LINE
5
2e4
100
AcDbEntity
8
1
100
AcDbLine
6
CONTINUOUS
62
5
10
-430.213024
20
-186.711500
11
-429.213024
21
-187.711500
0
POLYLINE
5
2e5
100
AcDbEntity
8
1
6
CONTINUOUS
62
5
100
AcDb2dPolyline
66
1
10
0.0
20
0.0
30
0.0
70
1
0
VERTEX
5
2e6
100
AcDbEntity
8
1
100
AcDbVertex
100
AcDb2dVertex
62
5
10
-432.213024
20
-220.711500
0
VERTEX
5
2e7
100
AcDbEntity
8
1
100
AcDbVertex
100
AcDb2dVertex
62
5
10
-430.213024
20
-220.711500
0
VERTEX
5
2e8
100
AcDbEntity
8
1
100
AcDbVertex
100
AcDb2dVertex
62
5
10
-430.213024
20
-212.211500
0
VERTEX
5
2e9
100
AcDbEntity
8
1
100
AcDbVertex
100
AcDb2dVertex
62
5
10
-432.213024
20
-212.211500
0
VERTEX
5
2ea
100
AcDbEntity
8
1
100
AcDbVertex
100
AcDb2dVertex
62
5
10
-432.213024
20
-220.711500
0
SEQEND
5
2eb
100
AcDbEntity
8
1
0
POLYLINE
5
2ec
100
AcDbEntity
8
1
6
CONTINUOUS
62
5
100
AcDb2dPolyline
66
1
10
0.0
20
0.0
30
0.0
70
0
0
VERTEX
5
2ed
100
AcDbEntity
8
1
100
AcDbVertex
100
AcDb2dVertex
62
5
10
-430.213024
20
-213.993808
0
VERTEX
5
2ee
100
AcDbEntity
8
1
100
AcDbVertex
100
AcDb2dVertex
62
5
10
-430.913024
20
-213.961500
0
VERTEX
5
2ef
100
AcDbEntity
8
1
100
AcDbVertex
100
AcDb2dVertex
62
5
10
-431.213024
20
-220.461500
0
VERTEX
5
2f0
100
AcDbEntity
8
1
100
AcDbVertex
100
AcDb2dVertex
62
5
10
-430.213024
20
-220.507654
0
SEQEND
5
2f1
100
AcDbEntity
8
1
0
POLYLINE
5
2f2
100
AcDbEntity
8
1
6
CONTINUOUS
62
5
100
AcDb2dPolyline
66
1
10
0.0
20
0.0
30
0.0
70
0
0
VERTEX
5
2f3
100
AcDbEntity
8
1
100
AcDbVertex
100
AcDb2dVertex
62
5
10
-432.213024
20
-213.993808
0
VERTEX
5
2f4
100
AcDbEntity
8
1
100
AcDbVertex
100
AcDb2dVertex
62
5
10
-431.513024
20
-213.961500
0
VERTEX
5
2f5
100
AcDbEntity
8
1
100
AcDbVertex
100
AcDb2dVertex
62
5
10
-431.213024
20
-220.461500
0
VERTEX
5
2f6
100
AcDbEntity
8
1
100
AcDbVertex
100
AcDb2dVertex
62
5
10
-432.213024
20
-220.507654
0
SEQEND
5
2f7
100
AcDbEntity
8
1
0
LINE
5
2f8
100
AcDbEntity
8
1
100
AcDbLine
6
CONTINUOUS
62
5
10
-432.213024
20
-212.211500
11
-433.213024
21
-211.211500
0
LINE
5
2f9
100
AcDbEntity
8
1
100
AcDbLine
6
CONTINUOUS
62
5
10
-430.213024
20
-212.211500
11
-429.213024
21
-211.211500
0
ARC
5
2fa
100
AcDbEntity
8
1
100
AcDbCircle
6
CONTINUOUS
62
5
10
-429.275904
20
-222.961500
40
1.000000
100
AcDbArc
50
-89.999999
51
-32.797168
0
ARC
5
2fb
100
AcDbEntity
8
1
100
AcDbCircle
6
CONTINUOUS
62
5
10
-439.363024
20
-216.461500
40
13.000000
100
AcDbArc
50
-32.797168
51
32.797168
0
ARC
5
2fc
100
AcDbEntity
8
1
100
AcDbCircle
6
CONTINUOUS
62
5
10
-429.275904
20
-209.961500
40
1.000000
100
AcDbArc
50
32.797168
51
89.999999
0
LINE
5
2fd
100
AcDbEntity
8
1
100
AcDbLine
6
CONTINUOUS
62
5
10
-429.275904
20
-208.961500
11
-434.863024
21
-208.961500
0
ARC
5
2fe
100
AcDbEntity
8
1
100
AcDbCircle
6
CONTINUOUS
62
5
10
-434.863024
20
-209.961500
40
1.000000
100
AcDbArc
50
89.999999
51
179.999998
0
LINE
5
2ff
100
AcDbEntity
8
1
100
AcDbLine
6
CONTINUOUS
62
5
10
-435.863024
20
-209.961500
11
-435.863024
21
-222.961500
0
ARC
5
300
100
AcDbEntity
8
1
100
AcDbCircle
6
CONTINUOUS
62
5
10
-434.863024
20
-222.961500
40
1.000000
100
AcDbArc
50
179.999998
51
-89.999999
0
LINE
5
301
100
AcDbEntity
8
1
100
AcDbLine
6
CONTINUOUS
62
5
10
-434.863024
20
-223.961500
11
-429.275904
21
-223.961500
0
ARC
5
302
100
AcDbEntity
8
1
100
AcDbCircle
6
CONTINUOUS
62
5
10
-420.450145
20
-222.961500
40
1.000000
100
AcDbArc
50
-147.202830
51
-89.999999
0
ARC
5
303
100
AcDbEntity
8
1
100
AcDbCircle
6
CONTINUOUS
62
5
10
-410.363024
20
-216.461500
40
13.000000
100
AcDbArc
50
147.202830
51
-147.202830
0
ARC
5
304
100
AcDbEntity
8
1
100
AcDbCircle
6
CONTINUOUS
62
5
10
-420.450145
20
-209.961500
40
1.000000
100
AcDbArc
50
89.999999
51
147.202830
0
LINE
5
305
100
AcDbEntity
8
1
100
AcDbLine
6
CONTINUOUS
62
5
10
-420.450145
20
-208.961500
11
-414.863024
21
-208.961500
0
ARC
5
306
100
AcDbEntity
8
1
100
AcDbCircle
6
CONTINUOUS
62
5
10
-414.863024
20
-209.961500
40
1.000000
100
AcDbArc
50
0.000000
51
89.999999
0
LINE
5
307
100
AcDbEntity
8
1
100
AcDbLine
6
CONTINUOUS
62
5
10
-413.863024
20
-209.961500
11
-413.863024
21
-222.961500
0
ARC
5
308
100
AcDbEntity
8
1
100
AcDbCircle
6
CONTINUOUS
62
5
10
-414.863024
20
-222.961500
40
1.000000
100
AcDbArc
50
-89.999999
51
0.000000
0
LINE
5
309
100
AcDbEntity
8
1
100
AcDbLine
6
CONTINUOUS
62
5
10
-414.863024
20
-223.961500
11
-420.450145
21
-223.961500
0
LINE
5
30a
100
AcDbEntity
8
1
100
AcDbLine
6
CONTINUOUS
62
5
10
-432.213024
20
-220.711500
11
-433.213024
21
-221.711500
0
LINE
5
30b
100
AcDbEntity
8
1
100
AcDbLine
6
CONTINUOUS
62
5
10
-430.213024
20
-220.711500
11
-429.213024
21
-221.711500
0
POLYLINE
5
30c
100
AcDbEntity
8
1
6
DOT2
62
5
100
AcDb2dPolyline
66
1
10
0.0
20
0.0
30
0.0
70
1
0
VERTEX
5
30d
100
AcDbEntity
8
1
100
AcDbVertex
100
AcDb2dVertex
62
5
10
-493.613023
20
-194.461500
0
VERTEX
5
30e
100
AcDbEntity
8
1
100
AcDbVertex
100
AcDb2dVertex
62
5
10
-493.613023
20
-193.836500
0
VERTEX
5
30f
100
AcDbEntity
8
1
100
AcDbVertex
100
AcDb2dVertex
62
5
10
-493.300523
20
-193.524000
0
VERTEX
5
310
100
AcDbEntity
8
1
100
AcDbVertex
100
AcDb2dVertex
62
5
10
-492.050523
20
-192.899000
0
VERTEX
5
311
100
AcDbEntity
8
1
100
AcDbVertex
100
AcDb2dVertex
62
5
10
-490.800523
20
-192.586500
0
VERTEX
5
312
100
AcDbEntity
8
1
100
AcDbVertex
100
AcDb2dVertex
62
5
10
-488.925523
20
-192.586500
0
VERTEX
5
313
100
AcDbEntity
8
1
100
AcDbVertex
100
AcDb2dVertex
62
5
10
-487.675523
20
-192.899000
0
VERTEX
5
314
100
AcDbEntity
8
1
100
AcDbVertex
100
AcDb2dVertex
62
5
10
-486.425523
20
-193.524000
0
VERTEX
5
315
100
AcDbEntity
8
1
100
AcDbVertex
100
AcDb2dVertex
62
5
10
-486.113023
20
-193.836500
0
VERTEX
5
316
100
AcDbEntity
8
1
100
AcDbVertex
100
AcDb2dVertex
62
5
10
-486.113023
20
-194.461500
0
VERTEX
5
317
100
AcDbEntity
8
1
100
AcDbVertex
100
AcDb2dVertex
62
5
10
-486.425523
20
-194.774000
0
VERTEX
5
318
100
AcDbEntity
8
1
100
AcDbVertex
100
AcDb2dVertex
62
5
10
-487.675523
20
-195.399000
0
VERTEX
5
319
100
AcDbEntity
8
1
100
AcDbVertex
100
AcDb2dVertex
62
5
10
-488.925523
20
-195.711500
0
VERTEX
5
31a
100
AcDbEntity
8
1
100
AcDbVertex
100
AcDb2dVertex
62
5
10
-490.800523
20
-195.711500
0
VERTEX
5
31b
100
AcDbEntity
8
1
100
AcDbVertex
100
AcDb2dVertex
62
5
10
-492.050523
20
-195.399000
0
VERTEX
5
31c
100
AcDbEntity
8
1
100
AcDbVertex
100
AcDb2dVertex
62
5
10
-493.300523
20
-194.774000
0
VERTEX
5
31d
100
AcDbEntity
8
1
100
AcDbVertex
100
AcDb2dVertex
62
5
10
-493.613023
20
-194.461500
0
SEQEND
5
31e
100
AcDbEntity
8
1
0
POLYLINE
5
31f
100
AcDbEntity
8
1
6
DOT2
62
5
100
AcDb2dPolyline
66
1
10
0.0
20
0.0
30
0.0
70
0
0
VERTEX
5
320
100
AcDbEntity
8
1
100
AcDbVertex
100
AcDb2dVertex
62
5
10
-492.988023
20
-205.086500
0
VERTEX
5
321
100
AcDbEntity
8
1
100
AcDbVertex
100
AcDb2dVertex
62
5
10
-493.613023
20
-204.149000
0
VERTEX
5
322
100
AcDbEntity
8
1
100
AcDbVertex
100
AcDb2dVertex
62
5
10
-486.113023
20
-204.149000
0
SEQEND
5
323
100
AcDbEntity
8
1
0
LINE
5
324
100
AcDbEntity
8
1
100
AcDbLine
6
DOT2
62
5
10
-486.113023
20
-204.774000
11
-486.113023
21
-203.524000
0
POLYLINE
5
325
100
AcDbEntity
8
1
6
DOT2
62
5
100
AcDb2dPolyline
66
1
10
0.0
20
0.0
30
0.0
70
0
0
VERTEX
5
326
100
AcDbEntity
8
1
100
AcDbVertex
100
AcDb2dVertex
62
5
10
-491.425523
20
-200.711500
0
VERTEX
5
327
100
AcDbEntity
8
1
100
AcDbVertex
100
AcDb2dVertex
62
5
10
-492.988023
20
-200.399000
0
VERTEX
5
328
100
AcDbEntity
8
1
100
AcDbVertex
100
AcDb2dVertex
62
5
10
-493.613023
20
-199.461500
0
VERTEX
5
329
100
AcDbEntity
8
1
100
AcDbVertex
100
AcDb2dVertex
62
5
10
-493.613023
20
-198.524000
0
VERTEX
5
32a
100
AcDbEntity
8
1
100
AcDbVertex
100
AcDb2dVertex
62
5
10
-493.300523
20
-197.899000
0
VERTEX
5
32b
100
AcDbEntity
8
1
100
AcDbVertex
100
AcDb2dVertex
62
5
10
-492.363023
20
-197.586500
0
VERTEX
5
32c
100
AcDbEntity
8
1
100
AcDbVertex
100
AcDb2dVertex
62
5
10
-491.425523
20
-197.586500
0
VERTEX
5
32d
100
AcDbEntity
8
1
100
AcDbVertex
100
AcDb2dVertex
62
5
10
-490.488023
20
-197.899000
0
VERTEX
5
32e
100
AcDbEntity
8
1
100
AcDbVertex
100
AcDb2dVertex
62
5
10
-486.113023
20
-200.711500
0
VERTEX
5
32f
100
AcDbEntity
8
1
100
AcDbVertex
100
AcDb2dVertex
62
5
10
-486.113023
20
-197.586500
0
VERTEX
5
330
100
AcDbEntity
8
1
100
AcDbVertex
100
AcDb2dVertex
62
5
10
-487.050523
20
-197.586500
0
SEQEND
5
331
100
AcDbEntity
8
1
0
POLYLINE
5
332
100
AcDbEntity
8
1
6
CONTINUOUS
62
5
100
AcDb2dPolyline
66
1
10
0.0
20
0.0
30
0.0
70
0
0
VERTEX
5
333
100
AcDbEntity
8
1
100
AcDbVertex
100
AcDb2dVertex
62
5
10
-397.863001
20
-321.211500
0
VERTEX
5
334
100
AcDbEntity
8
1
100
AcDbVertex
100
AcDb2dVertex
62
5
10
-396.300501
20
-313.711500
0
VERTEX
5
335
100
AcDbEntity
8
1
100
AcDbVertex
100
AcDb2dVertex
62
5
10
-394.738001
20
-321.211500
0
SEQEND
5
336
100
AcDbEntity
8
1
0
LINE
5
337
100
AcDbEntity
8
1
100
AcDbLine
6
CONTINUOUS
62
5
10
-397.238001
20
-318.711500
11
-395.363001
21
-318.711500
0
POLYLINE
5
338
100
AcDbEntity
8
1
6
CONTINUOUS
62
5
100
AcDb2dPolyline
66
1
10
0.0
20
0.0
30
0.0
70
0
0
VERTEX
5
339
100
AcDbEntity
8
1
100
AcDbVertex
100
AcDb2dVertex
62
5
10
-389.738001
20
-315.274000
0
VERTEX
5
33a
100
AcDbEntity
8
1
100
AcDbVertex
100
AcDb2dVertex
62
5
10
-390.050501
20
-314.336500
0
VERTEX
5
33b
100
AcDbEntity
8
1
100
AcDbVertex
100
AcDb2dVertex
62
5
10
-390.675501
20
-313.711500
0
VERTEX
5
33c
100
AcDbEntity
8
1
100
AcDbVertex
100
AcDb2dVertex
62
5
10
-391.613001
20
-313.711500
0
VERTEX
5
33d
100
AcDbEntity
8
1
100
AcDbVertex
100
AcDb2dVertex
62
5
10
-392.550501
20
-314.649000
0
VERTEX
5
33e
100
AcDbEntity
8
1
100
AcDbVertex
100
AcDb2dVertex
62
5
10
-392.863001
20
-316.211500
0
VERTEX
5
33f
100
AcDbEntity
8
1
100
AcDbVertex
100
AcDb2dVertex
62
5
10
-392.863001
20
-318.711500
0
VERTEX
5
340
100
AcDbEntity
8
1
100
AcDbVertex
100
AcDb2dVertex
62
5
10
-392.550501
20
-320.274000
0
VERTEX
5
341
100
AcDbEntity
8
1
100
AcDbVertex
100
AcDb2dVertex
62
5
10
-391.613001
20
-321.211500
0
VERTEX
5
342
100
AcDbEntity
8
1
100
AcDbVertex
100
AcDb2dVertex
62
5
10
-390.675501
20
-321.211500
0
VERTEX
5
343
100
AcDbEntity
8
1
100
AcDbVertex
100
AcDb2dVertex
62
5
10
-390.050501
20
-320.586500
0
VERTEX
5
344
100
AcDbEntity
8
1
100
AcDbVertex
100
AcDb2dVertex
62
5
10
-389.425501
20
-319.024000
0
SEQEND
5
345
100
AcDbEntity
8
1
0
POLYLINE
5
346
100
AcDbEntity
8
1
6
CONTINUOUS
62
5
100
AcDb2dPolyline
66
1
10
0.0
20
0.0
30
0.0
70
0
0
VERTEX
5
347
100
AcDbEntity
8
1
100
AcDbVertex
100
AcDb2dVertex
62
5
10
-422.238001
20
-314.336500
0
VERTEX
5
348
100
AcDbEntity
8
1
100
AcDbVertex
100
AcDb2dVertex
62
5
10
-421.300501
20
-313.711500
0
VERTEX
5
349
100
AcDbEntity
8
1
100
AcDbVertex
100
AcDb2dVertex
62
5
10
-421.300501
20
-321.211500
0
SEQEND
5
34a
100
AcDbEntity
8
1
0
LINE
5
34b
100
AcDbEntity
8
1
100
AcDbLine
6
CONTINUOUS
62
5
10
-421.925501
20
-321.211500
11
-420.675501
21
-321.211500
0
POLYLINE
5
34c
100
AcDbEntity
8
1
6
CONTINUOUS
62
5
100
AcDb2dPolyline
66
1
10
0.0
20
0.0
30
0.0
70
0
0
VERTEX
5
34d
100
AcDbEntity
8
1
100
AcDbVertex
100
AcDb2dVertex
62
5
10
-417.863001
20
-315.899000
0
VERTEX
5
34e
100
AcDbEntity
8
1
100
AcDbVertex
100
AcDb2dVertex
62
5
10
-417.550501
20
-314.336500
0
VERTEX
5
34f
100
AcDbEntity
8
1
100
AcDbVertex
100
AcDb2dVertex
62
5
10
-416.613001
20
-313.711500
0
VERTEX
5
350
100
AcDbEntity
8
1
100
AcDbVertex
100
AcDb2dVertex
62
5
10
-415.675501
20
-313.711500
0
VERTEX
5
351
100
AcDbEntity
8
1
100
AcDbVertex
100
AcDb2dVertex
62
5
10
-415.050501
20
-314.024000
0
VERTEX
5
352
100
AcDbEntity
8
1
100
AcDbVertex
100
AcDb2dVertex
62
5
10
-414.738001
20
-314.961500
0
VERTEX
5
353
100
AcDbEntity
8
1
100
AcDbVertex
100
AcDb2dVertex
62
5
10
-414.738001
20
-315.899000
0
VERTEX
5
354
100
AcDbEntity
8
1
100
AcDbVertex
100
AcDb2dVertex
62
5
10
-415.050501
20
-316.836500
0
VERTEX
5
355
100
AcDbEntity
8
1
100
AcDbVertex
100
AcDb2dVertex
62
5
10
-417.863001
20
-321.211500
0
VERTEX
5
356
100
AcDbEntity
8
1
100
AcDbVertex
100
AcDb2dVertex
62
5
10
-414.738001
20
-321.211500
0
VERTEX
5
357
100
AcDbEntity
8
1
100
AcDbVertex
100
AcDb2dVertex
62
5
10
-414.738001
20
-320.274000
0
SEQEND
5
358
100
AcDbEntity
8
1
0
LINE
5
359
100
AcDbEntity
8
1
100
AcDbLine
6
CONTINUOUS
62
5
10
-412.863001
20
-313.711500
11
-410.050501
21
-313.711500
0
POLYLINE
5
35a
100
AcDbEntity
8
1
6
CONTINUOUS
62
5
100
AcDb2dPolyline
66
1
10
0.0
20
0.0
30
0.0
70
0
0
VERTEX
5
35b
100
AcDbEntity
8
1
100
AcDbVertex
100
AcDb2dVertex
62
5
10
-412.863001
20
-313.711500
0
VERTEX
5
35c
100
AcDbEntity
8
1
100
AcDbVertex
100
AcDb2dVertex
62
5
10
-412.863001
20
-317.461500
0
VERTEX
5
35d
100
AcDbEntity
8
1
100
AcDbVertex
100
AcDb2dVertex
62
5
10
-412.238001
20
-316.836500
0
VERTEX
5
35e
100
AcDbEntity
8
1
100
AcDbVertex
100
AcDb2dVertex
62
5
10
-411.613001
20
-316.524000
0
VERTEX
5
35f
100
AcDbEntity
8
1
100
AcDbVertex
100
AcDb2dVertex
62
5
10
-410.675501
20
-316.524000
0
VERTEX
5
360
100
AcDbEntity
8
1
100
AcDbVertex
100
AcDb2dVertex
62
5
10
-410.050501
20
-316.836500
0
VERTEX
5
361
100
AcDbEntity
8
1
100
AcDbVertex
100
AcDb2dVertex
62
5
10
-409.738001
20
-317.774000
0
VERTEX
5
362
100
AcDbEntity
8
1
100
AcDbVertex
100
AcDb2dVertex
62
5
10
-409.738001
20
-319.649000
0
VERTEX
5
363
100
AcDbEntity
8
1
100
AcDbVertex
100
AcDb2dVertex
62
5
10
-410.363001
20
-320.586500
0
VERTEX
5
364
100
AcDbEntity
8
1
100
AcDbVertex
100
AcDb2dVertex
62
5
10
-411.300501
20
-321.211500
0
VERTEX
5
365
100
AcDbEntity
8
1
100
AcDbVertex
100
AcDb2dVertex
62
5
10
-412.863001
20
-321.211500
0
SEQEND
5
366
100
AcDbEntity
8
1
0
POLYLINE
5
367
100
AcDbEntity
8
1
6
CONTINUOUS
62
5
100
AcDb2dPolyline
66
1
10
0.0
20
0.0
30
0.0
70
0
0
VERTEX
5
368
100
AcDbEntity
8
1
100
AcDbVertex
100
AcDb2dVertex
62
5
10
-407.863001
20
-313.711500
0
VERTEX
5
369
100
AcDbEntity
8
1
100
AcDbVertex
100
AcDb2dVertex
62
5
10
-406.300501
20
-321.211500
0
VERTEX
5
36a
100
AcDbEntity
8
1
100
AcDbVertex
100
AcDb2dVertex
62
5
10
-404.738001
20
-313.711500
0
SEQEND
5
36b
100
AcDbEntity
8
1
0
POLYLINE
5
36c
100
AcDbEntity
8
1
6
CONTINUOUS
62
5
100
AcDb2dPolyline
66
1
10
0.0
20
0.0
30
0.0
70
0
0
VERTEX
5
36d
100
AcDbEntity
8
1
100
AcDbVertex
100
AcDb2dVertex
62
5
10
-442.238001
20
-314.336500
0
VERTEX
5
36e
100
AcDbEntity
8
1
100
AcDbVertex
100
AcDb2dVertex
62
5
10
-441.300501
20
-313.711500
0
VERTEX
5
36f
100
AcDbEntity
8
1
100
AcDbVertex
100
AcDb2dVertex
62
5
10
-441.300501
20
-321.211500
0
SEQEND
5
370
100
AcDbEntity
8
1
0
LINE
5
371
100
AcDbEntity
8
1
100
AcDbLine
6
CONTINUOUS
62
5
10
-441.925501
20
-321.211500
11
-440.675501
21
-321.211500
0
LINE
5
372
100
AcDbEntity
8
1
100
AcDbLine
6
CONTINUOUS
62
5
10
-437.863001
20
-313.711500
11
-435.050501
21
-313.711500
0
POLYLINE
5
373
100
AcDbEntity
8
1
6
CONTINUOUS
62
5
100
AcDb2dPolyline
66
1
10
0.0
20
0.0
30
0.0
70
0
0
VERTEX
5
374
100
AcDbEntity
8
1
100
AcDbVertex
100
AcDb2dVertex
62
5
10
-437.863001
20
-313.711500
0
VERTEX
5
375
100
AcDbEntity
8
1
100
AcDbVertex
100
AcDb2dVertex
62
5
10
-437.863001
20
-317.461500
0
VERTEX
5
376
100
AcDbEntity
8
1
100
AcDbVertex
100
AcDb2dVertex
62
5
10
-437.238001
20
-316.836500
0
VERTEX
5
377
100
AcDbEntity
8
1
100
AcDbVertex
100
AcDb2dVertex
62
5
10
-436.613001
20
-316.524000
0
VERTEX
5
378
100
AcDbEntity
8
1
100
AcDbVertex
100
AcDb2dVertex
62
5
10
-435.675501
20
-316.524000
0
VERTEX
5
379
100
AcDbEntity
8
1
100
AcDbVertex
100
AcDb2dVertex
62
5
10
-435.050501
20
-316.836500
0
VERTEX
5
37a
100
AcDbEntity
8
1
100
AcDbVertex
100
AcDb2dVertex
62
5
10
-434.738001
20
-317.774000
0
VERTEX
5
37b
100
AcDbEntity
8
1
100
AcDbVertex
100
AcDb2dVertex
62
5
10
-434.738001
20
-319.649000
0
VERTEX
5
37c
100
AcDbEntity
8
1
100
AcDbVertex
100
AcDb2dVertex
62
5
10
-435.363001
20
-320.586500
0
VERTEX
5
37d
100
AcDbEntity
8
1
100
AcDbVertex
100
AcDb2dVertex
62
5
10
-436.300501
20
-321.211500
0
VERTEX
5
37e
100
AcDbEntity
8
1
100
AcDbVertex
100
AcDb2dVertex
62
5
10
-437.863001
20
-321.211500
0
SEQEND
5
37f
100
AcDbEntity
8
1
0
POLYLINE
5
380
100
AcDbEntity
8
1
6
CONTINUOUS
62
5
100
AcDb2dPolyline
66
1
10
0.0
20
0.0
30
0.0
70
0
0
VERTEX
5
381
100
AcDbEntity
8
1
100
AcDbVertex
100
AcDb2dVertex
62
5
10
-432.863001
20
-321.211500
0
VERTEX
5
382
100
AcDbEntity
8
1
100
AcDbVertex
100
AcDb2dVertex
62
5
10
-431.300501
20
-313.711500
0
VERTEX
5
383
100
AcDbEntity
8
1
100
AcDbVertex
100
AcDb2dVertex
62
5
10
-429.738001
20
-321.211500
0
SEQEND
5
384
100
AcDbEntity
8
1
0
LINE
5
385
100
AcDbEntity
8
1
100
AcDbLine
6
CONTINUOUS
62
5
10
-432.238001
20
-318.711500
11
-430.363001
21
-318.711500
0
LINE
5
386
100
AcDbEntity
8
1
100
AcDbLine
6
CONTINUOUS
62
5
10
-427.863001
20
-317.461500
11
-424.738001
21
-317.461500
0
LINE
5
387
100
AcDbEntity
8
1
100
AcDbLine
6
CONTINUOUS
62
5
10
-455.363001
20
-305.461500
11
-455.363001
21
-329.461500
0
LINE
5
388
100
AcDbEntity
8
1
100
AcDbLine
6
CONTINUOUS
62
5
10
-490.675501
20
-313.086500
11
-490.675501
21
-314.024000
0
POLYLINE
5
389
100
AcDbEntity
8
1
6
CONTINUOUS
62
5
100
AcDb2dPolyline
66
1
10
0.0
20
0.0
30
0.0
70
0
0
VERTEX
5
38a
100
AcDbEntity
8
1
100
AcDbVertex
100
AcDb2dVertex
62
5
10
-494.425501
20
-316.211500
0
VERTEX
5
38b
100
AcDbEntity
8
1
100
AcDbVertex
100
AcDb2dVertex
62
5
10
-494.425501
20
-314.024000
0
VERTEX
5
38c
100
AcDbEntity
8
1
100
AcDbVertex
100
AcDb2dVertex
62
5
10
-486.925501
20
-314.024000
0
VERTEX
5
38d
100
AcDbEntity
8
1
100
AcDbVertex
100
AcDb2dVertex
62
5
10
-486.925501
20
-316.211500
0
SEQEND
5
38e
100
AcDbEntity
8
1
0
LINE
5
38f
100
AcDbEntity
8
1
100
AcDbLine
6
CONTINUOUS
62
5
10
-493.488001
20
-315.899000
11
-487.863001
21
-315.899000
0
LINE
5
390
100
AcDbEntity
8
1
100
AcDbLine
6
CONTINUOUS
62
5
10
-490.675501
20
-315.899000
11
-490.675501
21
-321.211500
0
LINE
5
391
100
AcDbEntity
8
1
100
AcDbLine
6
CONTINUOUS
62
5
10
-490.675501
20
-318.399000
11
-487.863001
21
-318.399000
0
POLYLINE
5
392
100
AcDbEntity
8
1
6
CONTINUOUS
62
5
100
AcDb2dPolyline
66
1
10
0.0
20
0.0
30
0.0
70
0
0
VERTEX
5
393
100
AcDbEntity
8
1
100
AcDbVertex
100
AcDb2dVertex
62
5
10
-492.863001
20
-317.774000
0
VERTEX
5
394
100
AcDbEntity
8
1
100
AcDbVertex
100
AcDb2dVertex
62
5
10
-493.175501
20
-319.649000
0
VERTEX
5
395
100
AcDbEntity
8
1
100
AcDbVertex
100
AcDb2dVertex
62
5
10
-493.800501
20
-320.899000
0
VERTEX
5
396
100
AcDbEntity
8
1
100
AcDbVertex
100
AcDb2dVertex
62
5
10
-494.738001
20
-321.836500
0
SEQEND
5
397
100
AcDbEntity
8
1
0
POLYLINE
5
398
100
AcDbEntity
8
1
6
CONTINUOUS
62
5
100
AcDb2dPolyline
66
1
10
0.0
20
0.0
30
0.0
70
0
0
VERTEX
5
399
100
AcDbEntity
8
1
100
AcDbVertex
100
AcDb2dVertex
62
5
10
-493.175501
20
-319.649000
0
VERTEX
5
39a
100
AcDbEntity
8
1
100
AcDbVertex
100
AcDb2dVertex
62
5
10
-490.675501
20
-321.211500
0
VERTEX
5
39b
100
AcDbEntity
8
1
100
AcDbVertex
100
AcDb2dVertex
62
5
10
-489.425501
20
-321.524000
0
VERTEX
5
39c
100
AcDbEntity
8
1
100
AcDbVertex
100
AcDb2dVertex
62
5
10
-486.300501
20
-321.836500
0
SEQEND
5
39d
100
AcDbEntity
8
1
0
LINE
5
39e
100
AcDbEntity
8
1
100
AcDbLine
6
CONTINUOUS
62
5
10
-474.738001
20
-315.274000
11
-471.613001
21
-315.274000
0
LINE
5
39f
100
AcDbEntity
8
1
100
AcDbLine
6
CONTINUOUS
62
5
10
-472.863001
20
-313.086500
11
-472.863001
21
-321.836500
0
POLYLINE
5
3a0
100
AcDbEntity
8
1
6
CONTINUOUS
62
5
100
AcDb2dPolyline
66
1
10
0.0
20
0.0
30
0.0
70
0
0
VERTEX
5
3a1
100
AcDbEntity
8
1
100
AcDbVertex
100
AcDb2dVertex
62
5
10
-472.863001
20
-315.274000
0
VERTEX
5
3a2
100
AcDbEntity
8
1
100
AcDbVertex
100
AcDb2dVertex
62
5
10
-473.800501
20
-317.461500
0
VERTEX
5
3a3
100
AcDbEntity
8
1
100
AcDbVertex
100
AcDb2dVertex
62
5
10
-474.738001
20
-318.711500
0
SEQEND
5
3a4
100
AcDbEntity
8
1
0
LINE
5
3a5
100
AcDbEntity
8
1
100
AcDbLine
6
CONTINUOUS
62
5
10
-472.863001
20
-316.211500
11
-471.925501
21
-317.461500
0
POLYLINE
5
3a6
100
AcDbEntity
8
1
6
CONTINUOUS
62
5
100
AcDb2dPolyline
66
1
10
0.0
20
0.0
30
0.0
70
0
0
VERTEX
5
3a7
100
AcDbEntity
8
1
100
AcDbVertex
100
AcDb2dVertex
62
5
10
-469.425501
20
-313.086500
0
VERTEX
5
3a8
100
AcDbEntity
8
1
100
AcDbVertex
100
AcDb2dVertex
62
5
10
-470.050501
20
-314.336500
0
VERTEX
5
3a9
100
AcDbEntity
8
1
100
AcDbVertex
100
AcDb2dVertex
62
5
10
-471.613001
20
-316.211500
0
SEQEND
5
3aa
100
AcDbEntity
8
1
0
POLYLINE
5
3ab
100
AcDbEntity
8
1
6
CONTINUOUS
62
5
100
AcDb2dPolyline
66
1
10
0.0
20
0.0
30
0.0
70
0
0
VERTEX
5
3ac
100
AcDbEntity
8
1
100
AcDbVertex
100
AcDb2dVertex
62
5
10
-470.050501
20
-314.336500
0
VERTEX
5
3ad
100
AcDbEntity
8
1
100
AcDbVertex
100
AcDb2dVertex
62
5
10
-466.925501
20
-314.336500
0
VERTEX
5
3ae
100
AcDbEntity
8
1
100
AcDbVertex
100
AcDb2dVertex
62
5
10
-467.863001
20
-315.899000
0
VERTEX
5
3af
100
AcDbEntity
8
1
100
AcDbVertex
100
AcDb2dVertex
62
5
10
-469.425501
20
-317.461500
0
VERTEX
5
3b0
100
AcDbEntity
8
1
100
AcDbVertex
100
AcDb2dVertex
62
5
10
-471.613001
20
-318.711500
0
SEQEND
5
3b1
100
AcDbEntity
8
1
0
POLYLINE
5
3b2
100
AcDbEntity
8
1
6
CONTINUOUS
62
5
100
AcDb2dPolyline
66
1
10
0.0
20
0.0
30
0.0
70
0
0
VERTEX
5
3b3
100
AcDbEntity
8
1
100
AcDbVertex
100
AcDb2dVertex
62
5
10
-470.050501
20
-314.336500
0
VERTEX
5
3b4
100
AcDbEntity
8
1
100
AcDbVertex
100
AcDb2dVertex
62
5
10
-469.425501
20
-315.899000
0
VERTEX
5
3b5
100
AcDbEntity
8
1
100
AcDbVertex
100
AcDb2dVertex
62
5
10
-468.175501
20
-317.461500
0
VERTEX
5
3b6
100
AcDbEntity
8
1
100
AcDbVertex
100
AcDb2dVertex
62
5
10
-467.238001
20
-318.086500
0
VERTEX
5
3b7
100
AcDbEntity
8
1
100
AcDbVertex
100
AcDb2dVertex
62
5
10
-465.988001
20
-318.711500
0
SEQEND
5
3b8
100
AcDbEntity
8
1
0
POLYLINE
5
3b9
100
AcDbEntity
8
1
6
CONTINUOUS
62
5
100
AcDb2dPolyline
66
1
10
0.0
20
0.0
30
0.0
70
1
0
VERTEX
5
3ba
100
AcDbEntity
8
1
100
AcDbVertex
100
AcDb2dVertex
62
5
10
-470.363001
20
-318.711500
0
VERTEX
5
3bb
100
AcDbEntity
8
1
100
AcDbVertex
100
AcDb2dVertex
62
5
10
-470.363001
20
-321.524000
0
VERTEX
5
3bc
100
AcDbEntity
8
1
100
AcDbVertex
100
AcDb2dVertex
62
5
10
-466.925501
20
-321.524000
0
VERTEX
5
3bd
100
AcDbEntity
8
1
100
AcDbVertex
100
AcDb2dVertex
62
5
10
-466.925501
20
-318.711500
0
VERTEX
5
3be
100
AcDbEntity
8
1
100
AcDbVertex
100
AcDb2dVertex
62
5
10
-470.363001
20
-318.711500
0
SEQEND
5
3bf
100
AcDbEntity
8
1
0
POLYLINE
5
3c0
100
AcDbEntity
8
1
6
CONTINUOUS
62
5
100
AcDb2dPolyline
66
1
10
0.0
20
0.0
30
0.0
70
1
0
VERTEX
5
3c1
100
AcDbEntity
8
1
100
AcDbVertex
100
AcDb2dVertex
62
5
10
-265.363001
20
-329.461500
0
VERTEX
5
3c2
100
AcDbEntity
8
1
100
AcDbVertex
100
AcDb2dVertex
62
5
10
-265.363001
20
-305.461500
0
VERTEX
5
3c3
100
AcDbEntity
8
1
100
AcDbVertex
100
AcDb2dVertex
62
5
10
-505.363001
20
-305.461500
0
VERTEX
5
3c4
100
AcDbEntity
8
1
100
AcDbVertex
100
AcDb2dVertex
62
5
10
-505.363001
20
-329.461500
0
VERTEX
5
3c5
100
AcDbEntity
8
1
100
AcDbVertex
100
AcDb2dVertex
62
5
10
-265.363001
20
-329.461500
0
SEQEND
5
3c6
100
AcDbEntity
8
1
0
LINE
5
3c7
100
AcDbEntity
8
1
100
AcDbLine
6
CONTINUOUS
62
5
10
-451.363023
20
-139.461500
11
-486.863023
21
-139.461500
0
LINE
5
3c8
100
AcDbEntity
8
1
100
AcDbLine
6
CONTINUOUS
62
5
10
-451.363023
20
-259.461500
11
-486.863023
21
-259.461500
0
POLYLINE
5
3c9
100
AcDbEntity
8
1
6
CONTINUOUS
62
5
100
AcDb2dPolyline
66
1
10
0.0
20
0.0
30
0.0
70
0
0
VERTEX
5
3ca
100
AcDbEntity
8
1
100
AcDbVertex
100
AcDb2dVertex
62
5
10
-484.863023
20
-199.461500
0
VERTEX
5
3cb
100
AcDbEntity
8
1
100
AcDbVertex
100
AcDb2dVertex
62
5
10
-484.863023
20
-259.461500
0
VERTEX
5
3cc
100
AcDbEntity
8
1
100
AcDbVertex
100
AcDb2dVertex
62
5
10
-485.863023
20
-253.461500
0
VERTEX
5
3cd
100
AcDbEntity
8
1
100
AcDbVertex
100
AcDb2dVertex
62
5
10
-483.863023
20
-253.461500
0
VERTEX
5
3ce
100
AcDbEntity
8
1
100
AcDbVertex
100
AcDb2dVertex
62
5
10
-484.863023
20
-259.461500
0
VERTEX
5
3cf
100
AcDbEntity
8
1
100
AcDbVertex
100
AcDb2dVertex
62
5
10
-485.363023
20
-253.461500
0
VERTEX
5
3d0
100
AcDbEntity
8
1
100
AcDbVertex
100
AcDb2dVertex
62
5
10
-484.363023
20
-253.461500
0
VERTEX
5
3d1
100
AcDbEntity
8
1
100
AcDbVertex
100
AcDb2dVertex
62
5
10
-484.863023
20
-259.461500
0
SEQEND
5
3d2
100
AcDbEntity
8
1
0
POLYLINE
5
3d3
100
AcDbEntity
8
1
6
CONTINUOUS
62
5
100
AcDb2dPolyline
66
1
10
0.0
20
0.0
30
0.0
70
0
0
VERTEX
5
3d4
100
AcDbEntity
8
1
100
AcDbVertex
100
AcDb2dVertex
62
5
10
-484.863023
20
-199.461500
0
VERTEX
5
3d5
100
AcDbEntity
8
1
100
AcDbVertex
100
AcDb2dVertex
62
5
10
-484.863023
20
-139.461500
0
VERTEX
5
3d6
100
AcDbEntity
8
1
100
AcDbVertex
100
AcDb2dVertex
62
5
10
-483.863023
20
-145.461500
0
VERTEX
5
3d7
100
AcDbEntity
8
1
100
AcDbVertex
100
AcDb2dVertex
62
5
10
-485.863023
20
-145.461500
0
VERTEX
5
3d8
100
AcDbEntity
8
1
100
AcDbVertex
100
AcDb2dVertex
62
5
10
-484.863023
20
-139.461500
0
VERTEX
5
3d9
100
AcDbEntity
8
1
100
AcDbVertex
100
AcDb2dVertex
62
5
10
-484.363023
20
-145.461500
0
VERTEX
5
3da
100
AcDbEntity
8
1
100
AcDbVertex
100
AcDb2dVertex
62
5
10
-485.363023
20
-145.461500
0
VERTEX
5
3db
100
AcDbEntity
8
1
100
AcDbVertex
100
AcDb2dVertex
62
5
10
-484.863023
20
-139.461500
0
SEQEND
5
3dc
100
AcDbEntity
8
1
0
ARC
5
3dd
100
AcDbEntity
8
1
100
AcDbCircle
6
CONTINUOUS
62
5
10
-315.462980
20
-229.122343
40
1.500000
100
AcDbArc
50
-58.448615
51
0.000000
0
LINE
5
3de
100
AcDbEntity
8
1
100
AcDbLine
6
CONTINUOUS
62
5
10
-313.962980
20
-229.122343
11
-313.962980
21
-169.800657
0
ARC
5
3df
100
AcDbEntity
8
1
100
AcDbCircle
6
CONTINUOUS
62
5
10
-315.462980
20
-169.800657
40
1.500000
100
AcDbArc
50
0.000000
51
58.448615
0
LINE
5
3e0
100
AcDbEntity
8
1
100
AcDbLine
6
CONTINUOUS
62
5
10
-314.678086
20
-168.522400
11
-317.863020
21
-166.566739
0
LINE
5
3e1
100
AcDbEntity
8
1
100
AcDbLine
6
CONTINUOUS
62
5
10
-317.862940
20
-232.356212
11
-314.678086
21
-230.400600
0
ARC
5
3e2
100
AcDbEntity
8
1
100
AcDbCircle
6
CONTINUOUS
62
5
10
-335.062980
20
-165.811500
40
0.700000
100
AcDbArc
50
89.999999
51
179.999998
0
LINE
5
3e3
100
AcDbEntity
8
1
100
AcDbLine
6
CONTINUOUS
62
5
10
-335.762980
20
-165.811500
11
-335.762980
21
-233.111500
0
ARC
5
3e4
100
AcDbEntity
8
1
100
AcDbCircle
6
CONTINUOUS
62
5
10
-335.062980
20
-233.111500
40
0.700000
100
AcDbArc
50
179.999998
51
-89.999999
0
LINE
5
3e5
100
AcDbEntity
8
1
100
AcDbLine
6
CONTINUOUS
62
5
10
-335.062980
20
-233.811500
11
-334.862980
21
-233.811500
0
LINE
5
3e6
100
AcDbEntity
8
1
100
AcDbLine
6
CONTINUOUS
62
5
10
-334.862980
20
-165.111500
11
-335.062980
21
-165.111500
0
ARC
5
3e7
100
AcDbEntity
8
1
100
AcDbCircle
6
CONTINUOUS
62
5
10
-335.062980
20
-165.811500
40
0.700000
100
AcDbArc
50
89.999999
51
179.999998
0
ARC
5
3e8
100
AcDbEntity
8
1
100
AcDbCircle
6
CONTINUOUS
62
5
10
-316.562980
20
-179.413994
40
0.500000
100
AcDbArc
50
0.000000
51
84.289406
0
LINE
5
3e9
100
AcDbEntity
8
1
100
AcDbLine
6
CONTINUOUS
62
5
10
-316.062980
20
-179.413994
11
-316.062980
21
-180.509006
0
ARC
5
3ea
100
AcDbEntity
8
1
100
AcDbCircle
6
CONTINUOUS
62
5
10
-316.562980
20
-180.509006
40
0.500000
100
AcDbArc
50
-84.289406
51
-0.000000
0
LINE
5
3eb
100
AcDbEntity
8
1
100
AcDbLine
6
CONTINUOUS
62
5
10
-316.513228
20
-181.006525
11
-317.862960
21
-181.141498
0
LINE
5
3ec
100
AcDbEntity
8
1
100
AcDbLine
6
CONTINUOUS
62
5
10
-317.862963
20
-178.781502
11
-316.513228
21
-178.916475
0
ARC
5
3ed
100
AcDbEntity
8
1
100
AcDbCircle
6
CONTINUOUS
62
5
10
-411.563024
20
-165.811500
40
0.700000
100
AcDbArc
50
0.000000
51
89.999999
0
LINE
5
3ee
100
AcDbEntity
8
1
100
AcDbLine
6
CONTINUOUS
62
5
10
-411.563024
20
-165.111500
11
-438.163024
21
-165.111500
0
ARC
5
3ef
100
AcDbEntity
8
1
100
AcDbCircle
6
CONTINUOUS
62
5
10
-438.163024
20
-165.811500
40
0.700000
100
AcDbArc
50
89.999999
51
179.999998
0
LINE
5
3f0
100
AcDbEntity
8
1
100
AcDbLine
6
CONTINUOUS
62
5
10
-438.863024
20
-165.811500
11
-438.863024
21
-233.111500
0
ARC
5
3f1
100
AcDbEntity
8
1
100
AcDbCircle
6
CONTINUOUS
62
5
10
-438.163024
20
-233.111500
40
0.700000
100
AcDbArc
50
179.999998
51
-89.999999
0
LINE
5
3f2
100
AcDbEntity
8
1
100
AcDbLine
6
CONTINUOUS
62
5
10
-438.163024
20
-233.811500
11
-411.563024
21
-233.811500
0
ARC
5
3f3
100
AcDbEntity
8
1
100
AcDbCircle
6
CONTINUOUS
62
5
10
-411.563024
20
-233.111500
40
0.700000
100
AcDbArc
50
-89.999999
51
0.000000
0
LINE
5
3f4
100
AcDbEntity
8
1
100
AcDbLine
6
CONTINUOUS
62
5
10
-410.863024
20
-233.111500
11
-410.863024
21
-165.811500
0
ARC
5
3f5
100
AcDbEntity
8
1
100
AcDbCircle
6
CONTINUOUS
62
5
10
-420.450145
20
-175.961500
40
1.000000
100
AcDbArc
50
89.999999
51
147.202830
0
ARC
5
3f6
100
AcDbEntity
8
1
100
AcDbCircle
6
CONTINUOUS
62
5
10
-410.363024
20
-182.461500
40
13.000000
100
AcDbArc
50
147.202830
51
-147.202830
0
ARC
5
3f7
100
AcDbEntity
8
1
100
AcDbCircle
6
CONTINUOUS
62
5
10
-420.450145
20
-188.961500
40
1.000000
100
AcDbArc
50
-147.202830
51
-89.999999
0
LINE
5
3f8
100
AcDbEntity
8
1
100
AcDbLine
6
CONTINUOUS
62
5
10
-420.450145
20
-189.961500
11
-414.863024
21
-189.961500
0
ARC
5
3f9
100
AcDbEntity
8
1
100
AcDbCircle
6
CONTINUOUS
62
5
10
-414.863024
20
-188.961500
40
1.000000
100
AcDbArc
50
-89.999999
51
0.000000
0
LINE
5
3fa
100
AcDbEntity
8
1
100
AcDbLine
6
CONTINUOUS
62
5
10
-413.863024
20
-188.961500
11
-413.863024
21
-175.961500
0
ARC
5
3fb
100
AcDbEntity
8
1
100
AcDbCircle
6
CONTINUOUS
62
5
10
-414.863024
20
-175.961500
40
1.000000
100
AcDbArc
50
0.000000
51
89.999999
0
LINE
5
3fc
100
AcDbEntity
8
1
100
AcDbLine
6
CONTINUOUS
62
5
10
-414.863024
20
-174.961500
11
-420.450145
21
-174.961500
0
POLYLINE
5
3fd
100
AcDbEntity
8
1
6
CONTINUOUS
62
5
100
AcDb2dPolyline
66
1
10
0.0
20
0.0
30
0.0
70
0
0
VERTEX
5
3fe
100
AcDbEntity
8
1
100
AcDbVertex
100
AcDb2dVertex
62
5
10
-419.513024
20
-178.961500
0
VERTEX
5
3ff
100
AcDbEntity
8
1
100
AcDbVertex
100
AcDb2dVertex
62
5
10
-417.513024
20
-178.961500
0
VERTEX
5
400
100
AcDbEntity
8
1
100
AcDbVertex
100
AcDb2dVertex
62
5
10
-417.513024
20
-185.961500
0
VERTEX
5
401
100
AcDbEntity
8
1
100
AcDbVertex
100
AcDb2dVertex
62
5
10
-419.513024
20
-185.961500
0
VERTEX
5
402
100
AcDbEntity
8
1
100
AcDbVertex
100
AcDb2dVertex
62
5
10
-419.513024
20
-178.961500
0
SEQEND
5
403
100
AcDbEntity
8
1
0
POLYLINE
5
404
100
AcDbEntity
8
1
6
CONTINUOUS
62
5
100
AcDb2dPolyline
66
1
10
0.0
20
0.0
30
0.0
70
0
0
VERTEX
5
405
100
AcDbEntity
8
1
100
AcDbVertex
100
AcDb2dVertex
62
5
10
-419.513024
20
-178.961500
0
VERTEX
5
406
100
AcDbEntity
8
1
100
AcDbVertex
100
AcDb2dVertex
62
5
10
-417.513024
20
-178.961500
0
VERTEX
5
407
100
AcDbEntity
8
1
100
AcDbVertex
100
AcDb2dVertex
62
5
10
-417.513024
20
-185.961500
0
VERTEX
5
408
100
AcDbEntity
8
1
100
AcDbVertex
100
AcDb2dVertex
62
5
10
-419.513024
20
-185.961500
0
VERTEX
5
409
100
AcDbEntity
8
1
100
AcDbVertex
100
AcDb2dVertex
62
5
10
-419.513024
20
-178.961500
0
SEQEND
5
40a
100
AcDbEntity
8
1
0
POLYLINE
5
40b
100
AcDbEntity
8
1
6
CONTINUOUS
62
5
100
AcDb2dPolyline
66
1
10
0.0
20
0.0
30
0.0
70
0
0
VERTEX
5
40c
100
AcDbEntity
8
1
100
AcDbVertex
100
AcDb2dVertex
62
5
10
-418.499178
20
-178.961500
0
VERTEX
5
40d
100
AcDbEntity
8
1
100
AcDbVertex
100
AcDb2dVertex
62
5
10
-418.213024
20
-184.961500
0
VERTEX
5
40e
100
AcDbEntity
8
1
100
AcDbVertex
100
AcDb2dVertex
62
5
10
-417.513024
20
-184.929192
0
SEQEND
5
40f
100
AcDbEntity
8
1
0
ARC
5
410
100
AcDbEntity
8
1
100
AcDbCircle
6
CONTINUOUS
62
5
10
-429.275904
20
-175.961500
40
1.000000
100
AcDbArc
50
32.797168
51
89.999999
0
ARC
5
411
100
AcDbEntity
8
1
100
AcDbCircle
6
CONTINUOUS
62
5
10
-439.363024
20
-182.461500
40
13.000000
100
AcDbArc
50
-32.797168
51
32.797168
0
ARC
5
412
100
AcDbEntity
8
1
100
AcDbCircle
6
CONTINUOUS
62
5
10
-429.275904
20
-188.961500
40
1.000000
100
AcDbArc
50
-89.999999
51
-32.797168
0
LINE
5
413
100
AcDbEntity
8
1
100
AcDbLine
6
CONTINUOUS
62
5
10
-429.275904
20
-189.961500
11
-434.863024
21
-189.961500
0
ARC
5
414
100
AcDbEntity
8
1
100
AcDbCircle
6
CONTINUOUS
62
5
10
-434.863024
20
-188.961500
40
1.000000
100
AcDbArc
50
179.999998
51
-89.999999
0
LINE
5
415
100
AcDbEntity
8
1
100
AcDbLine
6
CONTINUOUS
62
5
10
-435.863024
20
-188.961500
11
-435.863024
21
-175.961500
0
ARC
5
416
100
AcDbEntity
8
1
100
AcDbCircle
6
CONTINUOUS
62
5
10
-434.863024
20
-175.961500
40
1.000000
100
AcDbArc
50
89.999999
51
179.999998
0
LINE
5
417
100
AcDbEntity
8
1
100
AcDbLine
6
CONTINUOUS
62
5
10
-434.863024
20
-174.961500
11
-429.275904
21
-174.961500
0
POLYLINE
5
418
100
AcDbEntity
8
1
6
CONTINUOUS
62
5
100
AcDb2dPolyline
66
1
10
0.0
20
0.0
30
0.0
70
1
0
VERTEX
5
419
100
AcDbEntity
8
1
100
AcDbVertex
100
AcDb2dVertex
62
5
10
-432.213024
20
-178.211500
0
VERTEX
5
41a
100
AcDbEntity
8
1
100
AcDbVertex
100
AcDb2dVertex
62
5
10
-430.213024
20
-178.211500
0
VERTEX
5
41b
100
AcDbEntity
8
1
100
AcDbVertex
100
AcDb2dVertex
62
5
10
-430.213024
20
-186.711500
0
VERTEX
5
41c
100
AcDbEntity
8
1
100
AcDbVertex
100
AcDb2dVertex
62
5
10
-432.213024
20
-186.711500
0
VERTEX
5
41d
100
AcDbEntity
8
1
100
AcDbVertex
100
AcDb2dVertex
62
5
10
-432.213024
20
-178.211500
0
SEQEND
5
41e
100
AcDbEntity
8
1
0
POLYLINE
5
41f
100
AcDbEntity
8
1
6
CONTINUOUS
62
5
100
AcDb2dPolyline
66
1
10
0.0
20
0.0
30
0.0
70
0
0
VERTEX
5
420
100
AcDbEntity
8
1
100
AcDbVertex
100
AcDb2dVertex
62
5
10
-430.213024
20
-184.929192
0
VERTEX
5
421
100
AcDbEntity
8
1
100
AcDbVertex
100
AcDb2dVertex
62
5
10
-430.913024
20
-184.961500
0
VERTEX
5
422
100
AcDbEntity
8
1
100
AcDbVertex
100
AcDb2dVertex
62
5
10
-431.213024
20
-178.461500
0
VERTEX
5
423
100
AcDbEntity
8
1
100
AcDbVertex
100
AcDb2dVertex
62
5
10
-430.213024
20
-178.415346
0
SEQEND
5
424
100
AcDbEntity
8
1
0
POLYLINE
5
425
100
AcDbEntity
8
1
6
CONTINUOUS
62
5
100
AcDb2dPolyline
66
1
10
0.0
20
0.0
30
0.0
70
0
0
VERTEX
5
426
100
AcDbEntity
8
1
100
AcDbVertex
100
AcDb2dVertex
62
5
10
-432.213024
20
-184.929192
0
VERTEX
5
427
100
AcDbEntity
8
1
100
AcDbVertex
100
AcDb2dVertex
62
5
10
-431.513024
20
-184.961500
0
VERTEX
5
428
100
AcDbEntity
8
1
100
AcDbVertex
100
AcDb2dVertex
62
5
10
-431.213024
20
-178.461500
0
VERTEX
5
429
100
AcDbEntity
8
1
100
AcDbVertex
100
AcDb2dVertex
62
5
10
-432.213024
20
-178.415346
0
SEQEND
5
42a
100
AcDbEntity
8
1
0
POLYLINE
5
42b
100
AcDbEntity
8
1
6
CONTINUOUS
62
5
100
AcDb2dPolyline
66
1
10
0.0
20
0.0
30
0.0
70
0
0
VERTEX
5
42c
100
AcDbEntity
8
1
100
AcDbVertex
100
AcDb2dVertex
62
5
10
-418.526871
20
-178.961500
0
VERTEX
5
42d
100
AcDbEntity
8
1
100
AcDbVertex
100
AcDb2dVertex
62
5
10
-418.813024
20
-184.961500
0
VERTEX
5
42e
100
AcDbEntity
8
1
100
AcDbVertex
100
AcDb2dVertex
62
5
10
-419.513024
20
-184.929192
0
SEQEND
5
42f
100
AcDbEntity
8
1
0
ARC
5
430
100
AcDbEntity
8
1
100
AcDbCircle
6
CONTINUOUS
62
5
10
-304.863023
20
-153.161500
40
30.000000
100
AcDbArc
50
157.684855
51
179.999998
0
ARC
5
431
100
AcDbEntity
8
1
100
AcDbCircle
6
CONTINUOUS
62
5
10
-329.840976
20
-142.909582
40
3.000000
100
AcDbArc
50
94.594597
51
157.684855
0
LINE
5
432
100
AcDbEntity
8
1
100
AcDbLine
6
CONTINUOUS
62
5
10
-330.081291
20
-139.919222
11
-329.363023
21
-139.861500
0
ARC
5
433
100
AcDbEntity
8
1
100
AcDbCircle
6
CONTINUOUS
62
5
10
-328.972904
20
-139.949862
40
0.400000
100
AcDbArc
50
91.735704
51
167.237827
0
POLYLINE
5
434
100
AcDbEntity
8
1
6
CONTINUOUS
62
5
100
AcDb2dPolyline
66
1
10
0.0
20
0.0
30
0.0
70
0
0
VERTEX
5
435
100
AcDbEntity
8
1
100
AcDbVertex
100
AcDb2dVertex
62
5
10
-328.985020
20
-139.550045
0
VERTEX
5
436
100
AcDbEntity
8
1
100
AcDbVertex
100
AcDb2dVertex
62
5
10
-325.363023
20
-139.461500
0
VERTEX
5
437
100
AcDbEntity
8
1
100
AcDbVertex
100
AcDb2dVertex
62
5
10
-325.363023
20
-259.461500
0
VERTEX
5
438
100
AcDbEntity
8
1
100
AcDbVertex
100
AcDb2dVertex
62
5
10
-328.985020
20
-259.372955
0
SEQEND
5
439
100
AcDbEntity
8
1
0
ARC
5
43a
100
AcDbEntity
8
1
100
AcDbCircle
6
CONTINUOUS
62
5
10
-328.972904
20
-258.973138
40
0.400000
100
AcDbArc
50
-167.237827
51
-91.735704
0
LINE
5
43b
100
AcDbEntity
8
1
100
AcDbLine
6
CONTINUOUS
62
5
10
-329.363023
20
-259.061500
11
-330.081291
21
-259.003778
0
ARC
5
43c
100
AcDbEntity
8
1
100
AcDbCircle
6
CONTINUOUS
62
5
10
-329.840976
20
-256.013418
40
3.000000
100
AcDbArc
50
-157.684855
51
-94.594597
0
ARC
5
43d
100
AcDbEntity
8
1
100
AcDbCircle
6
CONTINUOUS
62
5
10
-304.863023
20
-245.761500
40
30.000000
100
AcDbArc
50
-179.999998
51
-157.684855
0
LINE
5
43e
100
AcDbEntity
8
1
100
AcDbLine
6
CONTINUOUS
62
5
10
-334.863023
20
-245.761500
11
-334.863023
21
-153.161500
0
POLYLINE
5
43f
100
AcDbEntity
8
1
6
CONTINUOUS
62
5
100
AcDb2dPolyline
66
1
10
0.0
20
0.0
30
0.0
70
1
0
VERTEX
5
440
100
AcDbEntity
8
1
100
AcDbVertex
100
AcDb2dVertex
62
5
10
-439.113024
20
-164.861500
0
VERTEX
5
441
100
AcDbEntity
8
1
100
AcDbVertex
100
AcDb2dVertex
62
5
10
-410.613024
20
-164.861500
0
VERTEX
5
442
100
AcDbEntity
8
1
100
AcDbVertex
100
AcDb2dVertex
62
5
10
-410.613024
20
-234.061500
0
VERTEX
5
443
100
AcDbEntity
8
1
100
AcDbVertex
100
AcDb2dVertex
62
5
10
-439.113024
20
-234.061500
0
VERTEX
5
444
100
AcDbEntity
8
1
100
AcDbVertex
100
AcDb2dVertex
62
5
10
-439.113024
20
-164.861500
0
SEQEND
5
445
100
AcDbEntity
8
1
0
LINE
5
446
100
AcDbEntity
8
1
100
AcDbLine
6
CONTINUOUS
62
5
10
-329.363023
20
-259.061500
11
-329.363023
21
-139.861500
0
ARC
5
447
100
AcDbEntity
8
1
100
AcDbCircle
6
CONTINUOUS
62
5
10
-318.163023
20
-234.669393
40
0.300000
100
AcDbArc
50
-88.472555
51
0.000000
0
LINE
5
448
100
AcDbEntity
8
1
100
AcDbLine
6
CONTINUOUS
62
5
10
-318.155026
20
-234.969286
11
-325.363023
21
-235.161489
0
LINE
5
449
100
AcDbEntity
8
1
100
AcDbLine
6
CONTINUOUS
62
5
10
-325.363023
20
-163.761500
11
-318.155025
21
-163.953713
0
ARC
5
44a
100
AcDbEntity
8
1
100
AcDbCircle
6
CONTINUOUS
62
5
10
-318.163023
20
-164.253607
40
0.300000
100
AcDbArc
50
0.000000
51
88.472474
0
LINE
5
44b
100
AcDbEntity
8
1
100
AcDbLine
6
CONTINUOUS
62
5
10
-317.863023
20
-164.253607
11
-317.863023
21
-234.669393
0
LINE
5
44c
100
AcDbEntity
8
1
100
AcDbLine
6
CONTINUOUS
62
5
10
-324.063023
20
-185.161500
11
-324.063023
21
-168.261500
0
ARC
5
44d
100
AcDbEntity
8
1
100
AcDbCircle
6
CONTINUOUS
62
5
10
-452.889493
20
-146.461500
40
6.600000
100
AcDbArc
50
89.999999
51
179.999998
0
LINE
5
44e
100
AcDbEntity
8
1
100
AcDbLine
6
CONTINUOUS
62
5
10
-452.889493
20
-139.861500
11
-396.889493
21
-139.861500
0
ARC
5
44f
100
AcDbEntity
8
1
100
AcDbCircle
6
CONTINUOUS
62
5
10
-396.889493
20
-146.461500
40
6.600000
100
AcDbArc
50
0.000000
51
89.999999
0
LINE
5
450
100
AcDbEntity
8
1
100
AcDbLine
6
CONTINUOUS
62
5
10
-390.289493
20
-146.461500
11
-390.289493
21
-252.461500
0
ARC
5
451
100
AcDbEntity
8
1
100
AcDbCircle
6
CONTINUOUS
62
5
10
-396.889493
20
-252.461500
40
6.600000
100
AcDbArc
50
-89.999999
51
0.000000
0
LINE
5
452
100
AcDbEntity
8
1
100
AcDbLine
6
CONTINUOUS
62
5
10
-396.889493
20
-259.061500
11
-452.889493
21
-259.061500
0
ARC
5
453
100
AcDbEntity
8
1
100
AcDbCircle
6
CONTINUOUS
62
5
10
-452.889493
20
-252.461500
40
6.600000
100
AcDbArc
50
179.999998
51
-89.999999
0
LINE
5
454
100
AcDbEntity
8
1
100
AcDbLine
6
CONTINUOUS
62
5
10
-459.489493
20
-252.461500
11
-459.489493
21
-146.461500
0
ARC
5
455
100
AcDbEntity
8
1
100
AcDbCircle
6
CONTINUOUS
62
5
10
-452.889493
20
-146.461500
40
7.000000
100
AcDbArc
50
89.999999
51
179.999998
0
LINE
5
456
100
AcDbEntity
8
1
100
AcDbLine
6
CONTINUOUS
62
5
10
-459.889493
20
-146.461500
11
-459.889493
21
-252.461500
0
ARC
5
457
100
AcDbEntity
8
1
100
AcDbCircle
6
CONTINUOUS
62
5
10
-452.889493
20
-252.461500
40
7.000000
100
AcDbArc
50
179.999998
51
-89.999999
0
POLYLINE
5
458
100
AcDbEntity
8
1
6
CONTINUOUS
62
5
100
AcDb2dPolyline
66
1
10
0.0
20
0.0
30
0.0
70
0
0
VERTEX
5
459
100
AcDbEntity
8
1
100
AcDbVertex
100
AcDb2dVertex
62
5
10
-452.889493
20
-259.461500
0
VERTEX
5
45a
100
AcDbEntity
8
1
100
AcDbVertex
100
AcDb2dVertex
62
5
10
-428.389493
20
-259.461500
0
VERTEX
5
45b
100
AcDbEntity
8
1
100
AcDbVertex
100
AcDb2dVertex
62
5
10
-428.389493
20
-259.429719
0
VERTEX
5
45c
100
AcDbEntity
8
1
100
AcDbVertex
100
AcDb2dVertex
62
5
10
-421.389493
20
-259.429719
0
VERTEX
5
45d
100
AcDbEntity
8
1
100
AcDbVertex
100
AcDb2dVertex
62
5
10
-421.389493
20
-259.461500
0
VERTEX
5
45e
100
AcDbEntity
8
1
100
AcDbVertex
100
AcDb2dVertex
62
5
10
-396.889493
20
-259.461500
0
SEQEND
5
45f
100
AcDbEntity
8
1
0
ARC
5
460
100
AcDbEntity
8
1
100
AcDbCircle
6
CONTINUOUS
62
5
10
-396.889493
20
-252.461500
40
7.000000
100
AcDbArc
50
-89.999999
51
0.000000
0
LINE
5
461
100
AcDbEntity
8
1
100
AcDbLine
6
CONTINUOUS
62
5
10
-389.889493
20
-252.461500
11
-389.889493
21
-146.461500
0
ARC
5
462
100
AcDbEntity
8
1
100
AcDbCircle
6
CONTINUOUS
62
5
10
-396.889493
20
-146.461500
40
7.000000
100
AcDbArc
50
0.000000
51
89.999999
0
LINE
5
463
100
AcDbEntity
8
1
100
AcDbLine
6
CONTINUOUS
62
5
10
-396.889493
20
-139.461500
11
-452.889493
21
-139.461500
0
POLYLINE
5
464
100
AcDbEntity
8
1
6
CONTINUOUS
62
5
100
AcDb2dPolyline
66
1
10
0.0
20
0.0
30
0.0
70
1
0
VERTEX
5
465
100
AcDbEntity
8
1
100
AcDbVertex
100
AcDb2dVertex
62
5
10
-545.363001
20
-349.461500
0
VERTEX
5
466
100
AcDbEntity
8
1
100
AcDbVertex
100
AcDb2dVertex
62
5
10
-545.363001
20
-9.461500
0
VERTEX
5
467
100
AcDbEntity
8
1
100
AcDbVertex
100
AcDb2dVertex
62
5
10
-225.363001
20
-9.461500
0
VERTEX
5
468
100
AcDbEntity
8
1
100
AcDbVertex
100
AcDb2dVertex
62
5
10
-225.363001
20
-349.461500
0
VERTEX
5
469
100
AcDbEntity
8
1
100
AcDbVertex
100
AcDb2dVertex
62
5
10
-545.363001
20
-349.461500
0
SEQEND
5
46a
100
AcDbEntity
8
1
0
ENDSEC
0
SECTION
2
OBJECTS
0
DICTIONARY
5
46b
100
AcDbDictionary
3
ACAD_GROUP
350
46c
3
ACAD_MLINESTYLE
350
46d
0
DICTIONARY
5
46c
102
{ACAD_REACTORS
330
46b
102
}
100
AcDbDictionary
0
DICTIONARY
5
46d
102
{ACAD_REACTORS
330
46b
102
}
100
AcDbDictionary
3
STANDARD
350
46e
0
MLINESTYLE
5
46e
102
{ACAD_REACTORS
330
46d
102
}
100
AcDbMlineStyle
2
STANDARD
70
0
3

62
0
51
90.0
52
90.0
71
2
49
0.5
62
256
6
BYLAYER
49
-0.5
62
256
6
BYLAYER
0
ENDSEC
0
EOF
