0
SECTION
2
HEADER
9
$ACADVER
1
AC1012
9
$EXTMIN
10
-6.300000
20
-4.830000
30
0.0
9
$EXTMAX
10
6.300000
20
8.570000
30
0.0
9
$LIMMIN
10
-160.020000
20
-122.682000
9
$LIMMAX
10
160.020000
20
217.678000
9
$DIMSCALE
40
1.000000
9
$PDMODE
70
2
9
$PDSIZE
40
0.0
  9
$HANDSEED
  5
6be
0
ENDSEC
0
SECTION
2
CLASSES
0
ENDSEC
0
SECTION
2
TABLES
0
TABLE
2
LTYPE
5
1e
100
AcDbSymbolTable
70
12
0
LTYPE
5
1f
100
AcDbSymbolTableRecord
100
AcDbLinetypeTableRecord
2
BYBLOCK
70
0
3

72
65
73
0
40
0.0
0
LTYPE
5
20
100
AcDbSymbolTableRecord
100
AcDbLinetypeTableRecord
2
BYLAYER
70
0
3

72
65
73
0
40
0.0
0
LTYPE
5
21
100
AcDbSymbolTableRecord
100
AcDbLinetypeTableRecord
2
CONTINUOUS
70
64
3
Solid line
72
65
73
0
40
0.0
0
LTYPE
5
22
100
AcDbSymbolTableRecord
100
AcDbLinetypeTableRecord
2
DASHED
70
64
3
__ __ __ __ __ __ __ __ __ __ __ __ __ __ __
72
65
73
2
40
0.75
49
0.5
74
0
49
-0.25
74
0
0
LTYPE
5
23
100
AcDbSymbolTableRecord
100
AcDbLinetypeTableRecord
2
DOT
70
64
3
...............................................
72
65
73
2
40
0.25
49
0.0
74
0
49
-0.25
74
0
0
LTYPE
5
24
100
AcDbSymbolTableRecord
100
AcDbLinetypeTableRecord
2
DASHDOT
70
64
3
__ . __ . __ . __ . __ . __ . __ . __ . __ . --
72
65
73
4
40
1.0
49
0.5
74
0
49
-0.25
74
0
49
0.0
74
0
49
-0.25
74
0
0
LTYPE
5
25
100
AcDbSymbolTableRecord
100
AcDbLinetypeTableRecord
2
CENTER
70
64
3
____ _ ____ _ ____ _ ____ _ ____ _ ____ _ ____
72
65
73
4
40
2.0
49
1.25
74
0
49
-0.25
74
0
49
0.25
74
0
49
-0.25
74
0
0
LTYPE
5
26
100
AcDbSymbolTableRecord
100
AcDbLinetypeTableRecord
2
PHANTOM
70
64
3
_____ _ _ _____ _ _ _____ _ _ _____ _ _ ____
72
65
73
6
40
2.5
49
1.25
74
0
49
-0.25
74
0
49
0.25
74
0
49
-0.25
74
0
49
0.25
74
0
49
-0.25
74
0
0
LTYPE
5
27
100
AcDbSymbolTableRecord
100
AcDbLinetypeTableRecord
2
HIDDEN
70
64
3
_ _ _ _ _ _ _ _ _ _ _ _ _ _ _ _ _ _ _ _ _ _ _
72
65
73
2
40
0.375
49
0.25
74
0
49
-0.125
74
0
0
LTYPE
5
28
100
AcDbSymbolTableRecord
100
AcDbLinetypeTableRecord
2
BORDER
70
64
3
__ __ . __ __ . __ __ . __ __ . __ __ . __ __
72
65
73
6
40
1.75
49
0.5
74
0
49
-0.25
74
0
49
0.5
74
0
49
-0.25
74
0
49
0.0
74
0
49
-0.25
74
0
0
LTYPE
5
29
100
AcDbSymbolTableRecord
100
AcDbLinetypeTableRecord
2
DIVIDE
70
64
3
__ . . __ . . __ . . __ . . __ . . __ . . __
72
65
73
6
40
1.25
49
0.5
74
0
49
-0.25
74
0
49
0.0
74
0
49
-0.25
74
0
49
0.0
74
0
49
-0.25
74
0
0
LTYPE
5
2a
100
AcDbSymbolTableRecord
100
AcDbLinetypeTableRecord
2
DOT2
70
64
3
...............................................
72
65
73
2
40
0.125
49
0.0
74
0
49
-0.125
74
0
0
ENDTAB
0
TABLE
2
STYLE
5
2b
100
AcDbSymbolTable
70
1
0
STYLE
5
2c
100
AcDbSymbolTableRecord
100
AcDbTextStyleTableRecord
2
STANDARD
70
64
40
0.0
41
1.0
50
0.0
71
0
42
5.0
3
txt
4
bigfont
0
ENDTAB
0
TABLE
2
LAYER
5
2d
100
AcDbSymbolTable
70
2
0
LAYER
5
2e
100
AcDbSymbolTableRecord
100
AcDbLayerTableRecord
2
0
70
0
62
7
6
CONTINUOUS
0
LAYER
5
2f
100
AcDbSymbolTableRecord
100
AcDbLayerTableRecord
2
1
70
0
62
7
6
CONTINUOUS
0
ENDTAB
0
TABLE
2
APPID
5
30
100
AcDbSymbolTable
70
1
0
APPID
5
31
100
AcDbSymbolTableRecord
100
AcDbRegAppTableRecord
2
ACAD
70
64
0
ENDTAB
0
TABLE
2
DIMSTYLE
5
32
100
AcDbSymbolTable
70
0
0
ENDTAB
0
TABLE
2
UCS
5
33
100
AcDbSymbolTable
70
0
0
ENDTAB
0
TABLE
2
VIEW
5
34
100
AcDbSymbolTable
70
0
0
ENDTAB
0
TABLE
2
VPORT
5
35
100
AcDbSymbolTable
70
0
0
ENDTAB
0
TABLE
2
BLOCK_RECORD
5
36
100
AcDbSymbolTable
70
0
0
BLOCK_RECORD
5
37
100
AcDbSymbolTableRecord
100
AcDbBlockTableRecord
2
*MODEL_SPACE
0
BLOCK_RECORD
5
38
100
AcDbSymbolTableRecord
100
AcDbBlockTableRecord
2
*PAPER_SPACE
0
BLOCK_RECORD
5
39
100
AcDbSymbolTableRecord
100
AcDbBlockTableRecord
2
OPEN
0
BLOCK_RECORD
5
3a
100
AcDbSymbolTableRecord
100
AcDbBlockTableRecord
2
HALF
0
BLOCK_RECORD
5
3b
100
AcDbSymbolTableRecord
100
AcDbBlockTableRecord
2
CLOSEDBLANK
0
BLOCK_RECORD
5
3c
100
AcDbSymbolTableRecord
100
AcDbBlockTableRecord
2
HALFCLOSE_R
0
BLOCK_RECORD
5
3d
100
AcDbSymbolTableRecord
100
AcDbBlockTableRecord
2
DOT
0
BLOCK_RECORD
5
3e
100
AcDbSymbolTableRecord
100
AcDbBlockTableRecord
2
HALFOPEN_R
0
BLOCK_RECORD
5
3f
100
AcDbSymbolTableRecord
100
AcDbBlockTableRecord
2
CLOSEDF
0
BLOCK_RECORD
5
40
100
AcDbSymbolTableRecord
100
AcDbBlockTableRecord
2
HALF_R
0
ENDTAB
0
ENDSEC
0
SECTION
2
BLOCKS
0
BLOCK
5
41
100
AcDbEntity
8
0
100
AcDbBlockBegin
2
*MODEL_SPACE
70
0
10
0.0
20
0.0
30
0.0
3
*MODEL_SPACE
1

0
ENDBLK
5
42
100
AcDbEntity
8
0
100
AcDbBlockEnd
0
BLOCK
5
43
100
AcDbEntity
67
1
8
0
100
AcDbBlockBegin
2
*PAPER_SPACE
70
0
10
0.0
20
0.0
30
0.0
3
*PAPER_SPACE
1

0
ENDBLK
5
44
100
AcDbEntity
67
1
8
0
100
AcDbBlockEnd
0
BLOCK
5
45
100
AcDbEntity
8
0
100
AcDbBlockBegin
2
OPEN
70
0
10
0.0
20
0.0
30
0.0
3
OPEN
1

0
LINE
5
46
100
AcDbEntity
8
0
6
BYBLOCK
62
0
100
AcDbLine
10
0.000000
20
0.000000
11
-1.000000
21
0.000000
0
LINE
5
47
100
AcDbEntity
8
0
6
BYBLOCK
62
0
100
AcDbLine
10
-1.000000
20
-0.166667
11
0.000000
21
0.000000
0
LINE
5
48
100
AcDbEntity
8
0
6
BYBLOCK
62
0
100
AcDbLine
10
-1.000000
20
0.166667
11
0.000000
21
0.000000
0
ENDBLK
5
49
100
AcDbEntity
8
0
100
AcDbBlockEnd
0
BLOCK
5
4a
100
AcDbEntity
8
0
100
AcDbBlockBegin
2
HALF
70
0
10
0.0
20
0.0
30
0.0
3
HALF
1

0
SOLID
5
4b
100
AcDbEntity
8
0
6
BYBLOCK
62
0
100
AcDbTrace
10
-1.000000
20
0.166667
11
-1.000000
21
-0.166667
12
0.000000
22
0.000000
13
0.000000
23
0.000000
0
ENDBLK
5
4c
100
AcDbEntity
8
0
100
AcDbBlockEnd
0
BLOCK
5
4d
100
AcDbEntity
8
0
100
AcDbBlockBegin
2
CLOSEDBLANK
70
0
10
0.0
20
0.0
30
0.0
3
CLOSEDBLANK
1

0
LINE
5
4e
100
AcDbEntity
8
0
6
BYBLOCK
62
0
100
AcDbLine
10
-1.000000
20
0.166667
11
-1.000000
21
-0.166667
0
LINE
5
4f
100
AcDbEntity
8
0
6
BYBLOCK
62
0
100
AcDbLine
10
0.000000
20
0.000000
11
-1.000000
21
-0.166667
0
LINE
5
50
100
AcDbEntity
8
0
6
BYBLOCK
62
0
100
AcDbLine
10
-1.000000
20
0.166667
11
0.000000
21
0.000000
0
ENDBLK
5
51
100
AcDbEntity
8
0
100
AcDbBlockEnd
0
BLOCK
5
52
100
AcDbEntity
8
0
100
AcDbBlockBegin
2
HALFCLOSE_R
70
0
10
0.0
20
0.0
30
0.0
3
HALFCLOSE_R
1

0
LINE
5
53
100
AcDbEntity
8
0
6
BYBLOCK
62
0
100
AcDbLine
10
-1.000000
20
-0.166667
11
-1.000000
21
0.000000
0
LINE
5
54
100
AcDbEntity
8
0
6
BYBLOCK
62
0
100
AcDbLine
10
-1.000000
20
-0.166667
11
0.000000
21
0.000000
0
LINE
5
55
100
AcDbEntity
8
0
6
BYBLOCK
62
0
100
AcDbLine
10
0.000000
20
0.000000
11
-1.000000
21
0.000000
0
ENDBLK
5
56
100
AcDbEntity
8
0
100
AcDbBlockEnd
0
BLOCK
5
57
100
AcDbEntity
8
0
100
AcDbBlockBegin
2
DOT
70
0
10
0.0
20
0.0
30
0.0
3
DOT
1

0
LINE
5
58
100
AcDbEntity
8
0
6
BYBLOCK
62
0
100
AcDbLine
10
0.000000
20
0.000000
11
-1.000000
21
0.000000
0
POLYLINE
5
59
100
AcDbEntity
8
0
6
BYBLOCK
62
0
100
AcDb2dPolyline
66
1
10
0.0
20
0.0
30
0.0
70
1
40
0.166667
41
0.166667
0
VERTEX
5
5a
100
AcDbEntity
8
0
100
AcDbVertex
100
AcDb2dVertex
62
10
10
-0.083333
20
0.000000
42
1.000000
0
VERTEX
5
5b
100
AcDbEntity
8
0
100
AcDbVertex
100
AcDb2dVertex
62
10
10
0.083333
20
0.000000
42
1.000000
0
SEQEND
5
5c
100
AcDbEntity
8
0
0
ENDBLK
5
5d
100
AcDbEntity
8
0
100
AcDbBlockEnd
0
BLOCK
5
5e
100
AcDbEntity
8
0
100
AcDbBlockBegin
2
HALFOPEN_R
70
0
10
0.0
20
0.0
30
0.0
3
HALFOPEN_R
1

0
LINE
5
5f
100
AcDbEntity
8
0
6
BYBLOCK
62
0
100
AcDbLine
10
-1.000000
20
-0.166667
11
0.000000
21
0.000000
0
LINE
5
60
100
AcDbEntity
8
0
6
BYBLOCK
62
0
100
AcDbLine
10
0.000000
20
0.000000
11
-1.000000
21
0.000000
0
ENDBLK
5
61
100
AcDbEntity
8
0
100
AcDbBlockEnd
0
BLOCK
5
62
100
AcDbEntity
8
0
100
AcDbBlockBegin
2
CLOSEDF
70
0
10
0.0
20
0.0
30
0.0
3
CLOSEDF
1

0
SOLID
5
63
100
AcDbEntity
8
0
6
BYBLOCK
62
0
100
AcDbTrace
10
-1.000000
20
0.166667
11
-1.000000
21
-0.166667
12
0.000000
22
0.000000
13
0.000000
23
0.000000
0
ENDBLK
5
64
100
AcDbEntity
8
0
100
AcDbBlockEnd
0
BLOCK
5
65
100
AcDbEntity
8
0
100
AcDbBlockBegin
2
HALF_R
70
0
10
0.0
20
0.0
30
0.0
3
HALF_R
1

0
SOLID
5
66
100
AcDbEntity
8
0
6
BYBLOCK
62
0
100
AcDbTrace
10
-1.000000
20
-0.166667
11
-1.000000
21
0.000000
12
0.000000
22
0.000000
13
0.000000
23
0.000000
0
ENDBLK
5
67
100
AcDbEntity
8
0
100
AcDbBlockEnd
0
ENDSEC
0
SECTION
2
ENTITIES
0
POLYLINE
5
68
100
AcDbEntity
8
1
6
CONTINUOUS
62
5
100
AcDb2dPolyline
66
1
10
0.0
20
0.0
30
0.0
70
0
0
VERTEX
5
69
100
AcDbEntity
8
1
100
AcDbVertex
100
AcDb2dVertex
62
5
10
68.250000
20
202.437500
0
VERTEX
5
6a
100
AcDbEntity
8
1
100
AcDbVertex
100
AcDb2dVertex
62
5
10
68.500000
20
202.437500
0
VERTEX
5
6b
100
AcDbEntity
8
1
100
AcDbVertex
100
AcDb2dVertex
62
5
10
70.250000
20
201.187500
0
SEQEND
5
6c
100
AcDbEntity
8
1
0
LINE
5
6d
100
AcDbEntity
8
1
100
AcDbLine
6
CONTINUOUS
62
5
10
68.250000
20
205.250000
11
68.250000
21
197.750000
0
POLYLINE
5
6e
100
AcDbEntity
8
1
6
CONTINUOUS
62
5
100
AcDb2dPolyline
66
1
10
0.0
20
0.0
30
0.0
70
0
0
VERTEX
5
6f
100
AcDbEntity
8
1
100
AcDbVertex
100
AcDb2dVertex
62
5
10
74.500000
20
205.250000
0
VERTEX
5
70
100
AcDbEntity
8
1
100
AcDbVertex
100
AcDb2dVertex
62
5
10
74.500000
20
199.625000
0
VERTEX
5
71
100
AcDbEntity
8
1
100
AcDbVertex
100
AcDb2dVertex
62
5
10
74.000000
20
198.375000
0
VERTEX
5
72
100
AcDbEntity
8
1
100
AcDbVertex
100
AcDb2dVertex
62
5
10
73.500000
20
197.437500
0
SEQEND
5
73
100
AcDbEntity
8
1
0
POLYLINE
5
74
100
AcDbEntity
8
1
6
CONTINUOUS
62
5
100
AcDb2dPolyline
66
1
10
0.0
20
0.0
30
0.0
70
0
0
VERTEX
5
75
100
AcDbEntity
8
1
100
AcDbVertex
100
AcDb2dVertex
62
5
10
78.500000
20
197.750000
0
VERTEX
5
76
100
AcDbEntity
8
1
100
AcDbVertex
100
AcDb2dVertex
62
5
10
79.500000
20
197.125000
0
VERTEX
5
77
100
AcDbEntity
8
1
100
AcDbVertex
100
AcDb2dVertex
62
5
10
79.500000
20
205.250000
0
VERTEX
5
78
100
AcDbEntity
8
1
100
AcDbVertex
100
AcDb2dVertex
62
5
10
74.500000
20
205.250000
0
SEQEND
5
79
100
AcDbEntity
8
1
0
LINE
5
7a
100
AcDbEntity
8
1
100
AcDbLine
6
CONTINUOUS
62
5
10
74.500000
20
202.750000
11
79.500000
21
202.750000
0
LINE
5
7b
100
AcDbEntity
8
1
100
AcDbLine
6
CONTINUOUS
62
5
10
77.000000
20
205.250000
11
77.000000
21
197.125000
0
LINE
5
7c
100
AcDbEntity
8
1
100
AcDbLine
6
CONTINUOUS
62
5
10
74.500000
20
200.250000
11
79.500000
21
200.250000
0
POLYLINE
5
7d
100
AcDbEntity
8
1
6
CONTINUOUS
62
5
100
AcDb2dPolyline
66
1
10
0.0
20
0.0
30
0.0
70
0
0
VERTEX
5
7e
100
AcDbEntity
8
1
100
AcDbVertex
100
AcDb2dVertex
62
5
10
42.750000
20
205.562500
0
VERTEX
5
7f
100
AcDbEntity
8
1
100
AcDbVertex
100
AcDb2dVertex
62
5
10
42.250000
20
203.375000
0
VERTEX
5
80
100
AcDbEntity
8
1
100
AcDbVertex
100
AcDb2dVertex
62
5
10
41.250000
20
200.875000
0
SEQEND
5
81
100
AcDbEntity
8
1
0
LINE
5
82
100
AcDbEntity
8
1
100
AcDbLine
6
CONTINUOUS
62
5
10
42.250000
20
203.375000
11
42.250000
21
197.125000
0
POLYLINE
5
83
100
AcDbEntity
8
1
6
CONTINUOUS
62
5
100
AcDb2dPolyline
66
1
10
0.0
20
0.0
30
0.0
70
0
0
VERTEX
5
84
100
AcDbEntity
8
1
100
AcDbVertex
100
AcDb2dVertex
62
5
10
47.500000
20
205.562500
0
VERTEX
5
85
100
AcDbEntity
8
1
100
AcDbVertex
100
AcDb2dVertex
62
5
10
43.750000
20
204.937500
0
VERTEX
5
86
100
AcDbEntity
8
1
100
AcDbVertex
100
AcDb2dVertex
62
5
10
43.750000
20
199.312500
0
SEQEND
5
87
100
AcDbEntity
8
1
0
LINE
5
88
100
AcDbEntity
8
1
100
AcDbLine
6
CONTINUOUS
62
5
10
43.000000
20
199.000000
11
45.750000
21
199.937500
0
LINE
5
89
100
AcDbEntity
8
1
100
AcDbLine
6
CONTINUOUS
62
5
10
43.750000
20
202.750000
11
48.000000
21
202.750000
0
POLYLINE
5
8a
100
AcDbEntity
8
1
6
CONTINUOUS
62
5
100
AcDb2dPolyline
66
1
10
0.0
20
0.0
30
0.0
70
0
0
VERTEX
5
8b
100
AcDbEntity
8
1
100
AcDbVertex
100
AcDb2dVertex
62
5
10
45.750000
20
205.250000
0
VERTEX
5
8c
100
AcDbEntity
8
1
100
AcDbVertex
100
AcDb2dVertex
62
5
10
45.750000
20
203.062500
0
VERTEX
5
8d
100
AcDbEntity
8
1
100
AcDbVertex
100
AcDb2dVertex
62
5
10
46.000000
20
201.187500
0
VERTEX
5
8e
100
AcDbEntity
8
1
100
AcDbVertex
100
AcDb2dVertex
62
5
10
46.250000
20
200.250000
0
VERTEX
5
8f
100
AcDbEntity
8
1
100
AcDbVertex
100
AcDb2dVertex
62
5
10
46.750000
20
199.000000
0
VERTEX
5
90
100
AcDbEntity
8
1
100
AcDbVertex
100
AcDb2dVertex
62
5
10
47.250000
20
198.375000
0
VERTEX
5
91
100
AcDbEntity
8
1
100
AcDbVertex
100
AcDb2dVertex
62
5
10
48.000000
20
198.062500
0
VERTEX
5
92
100
AcDbEntity
8
1
100
AcDbVertex
100
AcDb2dVertex
62
5
10
48.250000
20
199.937500
0
SEQEND
5
93
100
AcDbEntity
8
1
0
LINE
5
94
100
AcDbEntity
8
1
100
AcDbLine
6
CONTINUOUS
62
5
10
43.500000
20
198.062500
11
46.250000
21
198.062500
0
POLYLINE
5
95
100
AcDbEntity
8
1
6
CONTINUOUS
62
5
100
AcDb2dPolyline
66
1
10
0.0
20
0.0
30
0.0
70
0
0
VERTEX
5
96
100
AcDbEntity
8
1
100
AcDbVertex
100
AcDb2dVertex
62
5
10
50.750000
20
201.812500
0
VERTEX
5
97
100
AcDbEntity
8
1
100
AcDbVertex
100
AcDb2dVertex
62
5
10
50.750000
20
204.000000
0
VERTEX
5
98
100
AcDbEntity
8
1
100
AcDbVertex
100
AcDb2dVertex
62
5
10
54.750000
20
204.000000
0
VERTEX
5
99
100
AcDbEntity
8
1
100
AcDbVertex
100
AcDb2dVertex
62
5
10
54.750000
20
203.062500
0
VERTEX
5
9a
100
AcDbEntity
8
1
100
AcDbVertex
100
AcDb2dVertex
62
5
10
54.500000
20
201.500000
0
VERTEX
5
9b
100
AcDbEntity
8
1
100
AcDbVertex
100
AcDb2dVertex
62
5
10
54.000000
20
200.250000
0
VERTEX
5
9c
100
AcDbEntity
8
1
100
AcDbVertex
100
AcDb2dVertex
62
5
10
53.500000
20
199.312500
0
VERTEX
5
9d
100
AcDbEntity
8
1
100
AcDbVertex
100
AcDb2dVertex
62
5
10
52.500000
20
198.062500
0
SEQEND
5
9e
100
AcDbEntity
8
1
0
LINE
5
9f
100
AcDbEntity
8
1
100
AcDbLine
6
CONTINUOUS
62
5
10
59.250000
20
201.812500
11
59.500000
21
200.562500
0
LINE
5
a0
100
AcDbEntity
8
1
100
AcDbLine
6
CONTINUOUS
62
5
10
60.750000
20
202.125000
11
61.000000
21
200.875000
0
POLYLINE
5
a1
100
AcDbEntity
8
1
6
CONTINUOUS
62
5
100
AcDb2dPolyline
66
1
10
0.0
20
0.0
30
0.0
70
0
0
VERTEX
5
a2
100
AcDbEntity
8
1
100
AcDbVertex
100
AcDb2dVertex
62
5
10
62.750000
20
202.125000
0
VERTEX
5
a3
100
AcDbEntity
8
1
100
AcDbVertex
100
AcDb2dVertex
62
5
10
62.500000
20
200.562500
0
VERTEX
5
a4
100
AcDbEntity
8
1
100
AcDbVertex
100
AcDb2dVertex
62
5
10
61.250000
20
198.687500
0
VERTEX
5
a5
100
AcDbEntity
8
1
100
AcDbVertex
100
AcDb2dVertex
62
5
10
60.250000
20
197.750000
0
SEQEND
5
a6
100
AcDbEntity
8
1
0
LINE
5
a7
100
AcDbEntity
8
1
100
AcDbLine
6
CONTINUOUS
62
5
10
2.000000
20
205.250000
11
3.000000
21
204.000000
0
LINE
5
a8
100
AcDbEntity
8
1
100
AcDbLine
6
CONTINUOUS
62
5
10
1.500000
20
202.750000
11
2.750000
21
201.812500
0
POLYLINE
5
a9
100
AcDbEntity
8
1
6
CONTINUOUS
62
5
100
AcDb2dPolyline
66
1
10
0.0
20
0.0
30
0.0
70
0
0
VERTEX
5
aa
100
AcDbEntity
8
1
100
AcDbVertex
100
AcDb2dVertex
62
5
10
1.500000
20
197.437500
0
VERTEX
5
ab
100
AcDbEntity
8
1
100
AcDbVertex
100
AcDb2dVertex
62
5
10
2.500000
20
199.000000
0
VERTEX
5
ac
100
AcDbEntity
8
1
100
AcDbVertex
100
AcDb2dVertex
62
5
10
3.250000
20
200.875000
0
SEQEND
5
ad
100
AcDbEntity
8
1
0
LINE
5
ae
100
AcDbEntity
8
1
100
AcDbLine
6
CONTINUOUS
62
5
10
5.750000
20
205.875000
11
5.750000
21
204.625000
0
LINE
5
af
100
AcDbEntity
8
1
100
AcDbLine
6
CONTINUOUS
62
5
10
3.500000
20
204.625000
11
8.250000
21
204.625000
0
LINE
5
b0
100
AcDbEntity
8
1
100
AcDbLine
6
CONTINUOUS
62
5
10
5.750000
20
204.625000
11
4.500000
21
202.437500
0
POLYLINE
5
b1
100
AcDbEntity
8
1
6
CONTINUOUS
62
5
100
AcDb2dPolyline
66
1
10
0.0
20
0.0
30
0.0
70
0
0
VERTEX
5
b2
100
AcDbEntity
8
1
100
AcDbVertex
100
AcDb2dVertex
62
5
10
4.000000
20
202.437500
0
VERTEX
5
b3
100
AcDbEntity
8
1
100
AcDbVertex
100
AcDb2dVertex
62
5
10
4.500000
20
202.437500
0
VERTEX
5
b4
100
AcDbEntity
8
1
100
AcDbVertex
100
AcDb2dVertex
62
5
10
7.250000
20
202.750000
0
SEQEND
5
b5
100
AcDbEntity
8
1
0
LINE
5
b6
100
AcDbEntity
8
1
100
AcDbLine
6
CONTINUOUS
62
5
10
6.500000
20
203.687500
11
7.750000
21
202.125000
0
POLYLINE
5
b7
100
AcDbEntity
8
1
6
CONTINUOUS
62
5
100
AcDb2dPolyline
66
1
10
0.0
20
0.0
30
0.0
70
0
0
VERTEX
5
b8
100
AcDbEntity
8
1
100
AcDbVertex
100
AcDb2dVertex
62
5
10
4.500000
20
201.500000
0
VERTEX
5
b9
100
AcDbEntity
8
1
100
AcDbVertex
100
AcDb2dVertex
62
5
10
4.500000
20
199.625000
0
VERTEX
5
ba
100
AcDbEntity
8
1
100
AcDbVertex
100
AcDb2dVertex
62
5
10
4.250000
20
198.687500
0
VERTEX
5
bb
100
AcDbEntity
8
1
100
AcDbVertex
100
AcDb2dVertex
62
5
10
3.750000
20
197.750000
0
VERTEX
5
bc
100
AcDbEntity
8
1
100
AcDbVertex
100
AcDb2dVertex
62
5
10
3.500000
20
197.437500
0
SEQEND
5
bd
100
AcDbEntity
8
1
0
LINE
5
be
100
AcDbEntity
8
1
100
AcDbLine
6
CONTINUOUS
62
5
10
5.750000
20
201.500000
11
5.750000
21
197.437500
0
POLYLINE
5
bf
100
AcDbEntity
8
1
6
CONTINUOUS
62
5
100
AcDb2dPolyline
66
1
10
0.0
20
0.0
30
0.0
70
0
0
VERTEX
5
c0
100
AcDbEntity
8
1
100
AcDbVertex
100
AcDb2dVertex
62
5
10
7.000000
20
201.812500
0
VERTEX
5
c1
100
AcDbEntity
8
1
100
AcDbVertex
100
AcDb2dVertex
62
5
10
7.000000
20
197.750000
0
VERTEX
5
c2
100
AcDbEntity
8
1
100
AcDbVertex
100
AcDb2dVertex
62
5
10
7.250000
20
197.437500
0
VERTEX
5
c3
100
AcDbEntity
8
1
100
AcDbVertex
100
AcDb2dVertex
62
5
10
8.500000
20
197.437500
0
VERTEX
5
c4
100
AcDbEntity
8
1
100
AcDbVertex
100
AcDb2dVertex
62
5
10
8.500000
20
198.687500
0
SEQEND
5
c5
100
AcDbEntity
8
1
0
POLYLINE
5
c6
100
AcDbEntity
8
1
6
CONTINUOUS
62
5
100
AcDb2dPolyline
66
1
10
0.0
20
0.0
30
0.0
70
0
0
VERTEX
5
c7
100
AcDbEntity
8
1
100
AcDbVertex
100
AcDb2dVertex
62
5
10
18.750000
20
205.562500
0
VERTEX
5
c8
100
AcDbEntity
8
1
100
AcDbVertex
100
AcDb2dVertex
62
5
10
18.250000
20
204.000000
0
VERTEX
5
c9
100
AcDbEntity
8
1
100
AcDbVertex
100
AcDb2dVertex
62
5
10
17.500000
20
202.750000
0
SEQEND
5
ca
100
AcDbEntity
8
1
0
LINE
5
cb
100
AcDbEntity
8
1
100
AcDbLine
6
CONTINUOUS
62
5
10
18.250000
20
204.000000
11
20.500000
21
204.000000
0
POLYLINE
5
cc
100
AcDbEntity
8
1
6
CONTINUOUS
62
5
100
AcDb2dPolyline
66
1
10
0.0
20
0.0
30
0.0
70
0
0
VERTEX
5
cd
100
AcDbEntity
8
1
100
AcDbVertex
100
AcDb2dVertex
62
5
10
19.250000
20
204.000000
0
VERTEX
5
ce
100
AcDbEntity
8
1
100
AcDbVertex
100
AcDb2dVertex
62
5
10
19.250000
20
200.250000
0
VERTEX
5
cf
100
AcDbEntity
8
1
100
AcDbVertex
100
AcDb2dVertex
62
5
10
18.750000
20
199.000000
0
VERTEX
5
d0
100
AcDbEntity
8
1
100
AcDbVertex
100
AcDb2dVertex
62
5
10
18.000000
20
198.062500
0
VERTEX
5
d1
100
AcDbEntity
8
1
100
AcDbVertex
100
AcDb2dVertex
62
5
10
17.250000
20
197.437500
0
SEQEND
5
d2
100
AcDbEntity
8
1
0
LINE
5
d3
100
AcDbEntity
8
1
100
AcDbLine
6
CONTINUOUS
62
5
10
19.250000
20
200.250000
11
20.750000
21
198.687500
0
LINE
5
d4
100
AcDbEntity
8
1
100
AcDbLine
6
CONTINUOUS
62
5
10
17.500000
20
201.500000
11
20.750000
21
201.500000
0
POLYLINE
5
d5
100
AcDbEntity
8
1
6
CONTINUOUS
62
5
100
AcDb2dPolyline
66
1
10
0.0
20
0.0
30
0.0
70
1
0
VERTEX
5
d6
100
AcDbEntity
8
1
100
AcDbVertex
100
AcDb2dVertex
62
5
10
21.750000
20
204.000000
0
VERTEX
5
d7
100
AcDbEntity
8
1
100
AcDbVertex
100
AcDb2dVertex
62
5
10
21.750000
20
198.687500
0
VERTEX
5
d8
100
AcDbEntity
8
1
100
AcDbVertex
100
AcDb2dVertex
62
5
10
23.750000
20
198.687500
0
VERTEX
5
d9
100
AcDbEntity
8
1
100
AcDbVertex
100
AcDb2dVertex
62
5
10
23.750000
20
204.000000
0
VERTEX
5
da
100
AcDbEntity
8
1
100
AcDbVertex
100
AcDb2dVertex
62
5
10
21.750000
20
204.000000
0
SEQEND
5
db
100
AcDbEntity
8
1
0
LINE
5
dc
100
AcDbEntity
8
1
100
AcDbLine
6
CONTINUOUS
62
5
10
9.250000
20
203.375000
11
11.750000
21
203.375000
0
LINE
5
dd
100
AcDbEntity
8
1
100
AcDbLine
6
CONTINUOUS
62
5
10
10.750000
20
205.562500
11
10.750000
21
196.812500
0
POLYLINE
5
de
100
AcDbEntity
8
1
6
CONTINUOUS
62
5
100
AcDb2dPolyline
66
1
10
0.0
20
0.0
30
0.0
70
0
0
VERTEX
5
df
100
AcDbEntity
8
1
100
AcDbVertex
100
AcDb2dVertex
62
5
10
10.750000
20
203.375000
0
VERTEX
5
e0
100
AcDbEntity
8
1
100
AcDbVertex
100
AcDb2dVertex
62
5
10
10.250000
20
201.500000
0
VERTEX
5
e1
100
AcDbEntity
8
1
100
AcDbVertex
100
AcDb2dVertex
62
5
10
9.750000
20
200.250000
0
VERTEX
5
e2
100
AcDbEntity
8
1
100
AcDbVertex
100
AcDb2dVertex
62
5
10
9.250000
20
199.312500
0
SEQEND
5
e3
100
AcDbEntity
8
1
0
LINE
5
e4
100
AcDbEntity
8
1
100
AcDbLine
6
CONTINUOUS
62
5
10
10.750000
20
202.437500
11
11.750000
21
200.562500
0
POLYLINE
5
e5
100
AcDbEntity
8
1
6
CONTINUOUS
62
5
100
AcDb2dPolyline
66
1
10
0.0
20
0.0
30
0.0
70
0
0
VERTEX
5
e6
100
AcDbEntity
8
1
100
AcDbVertex
100
AcDb2dVertex
62
5
10
11.750000
20
202.750000
0
VERTEX
5
e7
100
AcDbEntity
8
1
100
AcDbVertex
100
AcDb2dVertex
62
5
10
12.750000
20
204.000000
0
VERTEX
5
e8
100
AcDbEntity
8
1
100
AcDbVertex
100
AcDb2dVertex
62
5
10
13.750000
20
205.562500
0
VERTEX
5
e9
100
AcDbEntity
8
1
100
AcDbVertex
100
AcDb2dVertex
62
5
10
14.750000
20
204.000000
0
VERTEX
5
ea
100
AcDbEntity
8
1
100
AcDbVertex
100
AcDb2dVertex
62
5
10
16.250000
20
202.750000
0
SEQEND
5
eb
100
AcDbEntity
8
1
0
LINE
5
ec
100
AcDbEntity
8
1
100
AcDbLine
6
CONTINUOUS
62
5
10
12.500000
20
203.062500
11
15.000000
21
203.062500
0
POLYLINE
5
ed
100
AcDbEntity
8
1
6
CONTINUOUS
62
5
100
AcDb2dPolyline
66
1
10
0.0
20
0.0
30
0.0
70
1
0
VERTEX
5
ee
100
AcDbEntity
8
1
100
AcDbVertex
100
AcDb2dVertex
62
5
10
12.250000
20
201.812500
0
VERTEX
5
ef
100
AcDbEntity
8
1
100
AcDbVertex
100
AcDb2dVertex
62
5
10
12.250000
20
200.250000
0
VERTEX
5
f0
100
AcDbEntity
8
1
100
AcDbVertex
100
AcDb2dVertex
62
5
10
15.250000
20
200.250000
0
VERTEX
5
f1
100
AcDbEntity
8
1
100
AcDbVertex
100
AcDb2dVertex
62
5
10
15.250000
20
201.812500
0
VERTEX
5
f2
100
AcDbEntity
8
1
100
AcDbVertex
100
AcDb2dVertex
62
5
10
12.250000
20
201.812500
0
SEQEND
5
f3
100
AcDbEntity
8
1
0
POLYLINE
5
f4
100
AcDbEntity
8
1
6
CONTINUOUS
62
5
100
AcDb2dPolyline
66
1
10
0.0
20
0.0
30
0.0
70
0
0
VERTEX
5
f5
100
AcDbEntity
8
1
100
AcDbVertex
100
AcDb2dVertex
62
5
10
13.750000
20
203.062500
0
VERTEX
5
f6
100
AcDbEntity
8
1
100
AcDbVertex
100
AcDb2dVertex
62
5
10
13.750000
20
200.250000
0
VERTEX
5
f7
100
AcDbEntity
8
1
100
AcDbVertex
100
AcDb2dVertex
62
5
10
13.250000
20
198.687500
0
VERTEX
5
f8
100
AcDbEntity
8
1
100
AcDbVertex
100
AcDb2dVertex
62
5
10
12.500000
20
197.750000
0
VERTEX
5
f9
100
AcDbEntity
8
1
100
AcDbVertex
100
AcDb2dVertex
62
5
10
11.750000
20
197.125000
0
SEQEND
5
fa
100
AcDbEntity
8
1
0
POLYLINE
5
fb
100
AcDbEntity
8
1
6
CONTINUOUS
62
5
100
AcDb2dPolyline
66
1
10
0.0
20
0.0
30
0.0
70
0
0
VERTEX
5
fc
100
AcDbEntity
8
1
100
AcDbVertex
100
AcDb2dVertex
62
5
10
13.750000
20
200.250000
0
VERTEX
5
fd
100
AcDbEntity
8
1
100
AcDbVertex
100
AcDb2dVertex
62
5
10
14.250000
20
198.687500
0
VERTEX
5
fe
100
AcDbEntity
8
1
100
AcDbVertex
100
AcDb2dVertex
62
5
10
15.000000
20
197.750000
0
VERTEX
5
ff
100
AcDbEntity
8
1
100
AcDbVertex
100
AcDb2dVertex
62
5
10
16.000000
20
197.125000
0
SEQEND
5
100
100
AcDbEntity
8
1
0
LINE
5
101
100
AcDbEntity
8
1
100
AcDbLine
6
CONTINUOUS
62
5
10
25.500000
20
205.250000
11
29.000000
21
205.250000
0
LINE
5
102
100
AcDbEntity
8
1
100
AcDbLine
6
CONTINUOUS
62
5
10
25.250000
20
202.125000
11
29.500000
21
202.125000
0
POLYLINE
5
103
100
AcDbEntity
8
1
6
CONTINUOUS
62
5
100
AcDb2dPolyline
66
1
10
0.0
20
0.0
30
0.0
70
0
0
VERTEX
5
104
100
AcDbEntity
8
1
100
AcDbVertex
100
AcDb2dVertex
62
5
10
26.500000
20
205.250000
0
VERTEX
5
105
100
AcDbEntity
8
1
100
AcDbVertex
100
AcDb2dVertex
62
5
10
26.500000
20
200.875000
0
VERTEX
5
106
100
AcDbEntity
8
1
100
AcDbVertex
100
AcDb2dVertex
62
5
10
26.250000
20
198.687500
0
VERTEX
5
107
100
AcDbEntity
8
1
100
AcDbVertex
100
AcDb2dVertex
62
5
10
25.500000
20
196.812500
0
SEQEND
5
108
100
AcDbEntity
8
1
0
LINE
5
109
100
AcDbEntity
8
1
100
AcDbLine
6
CONTINUOUS
62
5
10
28.000000
20
205.250000
11
28.000000
21
196.812500
0
POLYLINE
5
10a
100
AcDbEntity
8
1
6
CONTINUOUS
62
5
100
AcDb2dPolyline
66
1
10
0.0
20
0.0
30
0.0
70
0
0
VERTEX
5
10b
100
AcDbEntity
8
1
100
AcDbVertex
100
AcDb2dVertex
62
5
10
31.750000
20
205.562500
0
VERTEX
5
10c
100
AcDbEntity
8
1
100
AcDbVertex
100
AcDb2dVertex
62
5
10
30.250000
20
204.000000
0
VERTEX
5
10d
100
AcDbEntity
8
1
100
AcDbVertex
100
AcDb2dVertex
62
5
10
29.000000
20
203.062500
0
SEQEND
5
10e
100
AcDbEntity
8
1
0
POLYLINE
5
10f
100
AcDbEntity
8
1
6
CONTINUOUS
62
5
100
AcDb2dPolyline
66
1
10
0.0
20
0.0
30
0.0
70
0
0
VERTEX
5
110
100
AcDbEntity
8
1
100
AcDbVertex
100
AcDb2dVertex
62
5
10
32.000000
20
203.062500
0
VERTEX
5
111
100
AcDbEntity
8
1
100
AcDbVertex
100
AcDb2dVertex
62
5
10
31.000000
20
201.812500
0
VERTEX
5
112
100
AcDbEntity
8
1
100
AcDbVertex
100
AcDb2dVertex
62
5
10
30.250000
20
201.187500
0
VERTEX
5
113
100
AcDbEntity
8
1
100
AcDbVertex
100
AcDb2dVertex
62
5
10
29.500000
20
200.562500
0
SEQEND
5
114
100
AcDbEntity
8
1
0
POLYLINE
5
115
100
AcDbEntity
8
1
6
CONTINUOUS
62
5
100
AcDb2dPolyline
66
1
10
0.0
20
0.0
30
0.0
70
0
0
VERTEX
5
116
100
AcDbEntity
8
1
100
AcDbVertex
100
AcDb2dVertex
62
5
10
32.250000
20
200.250000
0
VERTEX
5
117
100
AcDbEntity
8
1
100
AcDbVertex
100
AcDb2dVertex
62
5
10
31.500000
20
199.312500
0
VERTEX
5
118
100
AcDbEntity
8
1
100
AcDbVertex
100
AcDb2dVertex
62
5
10
30.750000
20
198.375000
0
VERTEX
5
119
100
AcDbEntity
8
1
100
AcDbVertex
100
AcDb2dVertex
62
5
10
29.250000
20
197.125000
0
SEQEND
5
11a
100
AcDbEntity
8
1
0
LINE
5
11b
100
AcDbEntity
8
1
100
AcDbLine
6
DOT2
62
5
10
44.625000
20
101.425000
11
45.250000
21
100.800000
0
POLYLINE
5
11c
100
AcDbEntity
8
1
6
DOT2
62
5
100
AcDb2dPolyline
66
1
10
0.0
20
0.0
30
0.0
70
0
0
VERTEX
5
11d
100
AcDbEntity
8
1
100
AcDbVertex
100
AcDb2dVertex
62
5
10
44.625000
20
100.800000
0
VERTEX
5
11e
100
AcDbEntity
8
1
100
AcDbVertex
100
AcDb2dVertex
62
5
10
45.250000
20
101.425000
0
VERTEX
5
11f
100
AcDbEntity
8
1
100
AcDbVertex
100
AcDb2dVertex
62
5
10
45.250000
20
100.800000
0
VERTEX
5
120
100
AcDbEntity
8
1
100
AcDbVertex
100
AcDb2dVertex
62
5
10
44.625000
20
100.800000
0
VERTEX
5
121
100
AcDbEntity
8
1
100
AcDbVertex
100
AcDb2dVertex
62
5
10
44.625000
20
101.425000
0
VERTEX
5
122
100
AcDbEntity
8
1
100
AcDbVertex
100
AcDb2dVertex
62
5
10
45.250000
20
101.425000
0
SEQEND
5
123
100
AcDbEntity
8
1
0
POLYLINE
5
124
100
AcDbEntity
8
1
6
DOT2
62
5
100
AcDb2dPolyline
66
1
10
0.0
20
0.0
30
0.0
70
0
0
VERTEX
5
125
100
AcDbEntity
8
1
100
AcDbVertex
100
AcDb2dVertex
62
5
10
1.250000
20
111.425000
0
VERTEX
5
126
100
AcDbEntity
8
1
100
AcDbVertex
100
AcDb2dVertex
62
5
10
1.562500
20
112.675000
0
VERTEX
5
127
100
AcDbEntity
8
1
100
AcDbVertex
100
AcDb2dVertex
62
5
10
2.187500
20
113.300000
0
VERTEX
5
128
100
AcDbEntity
8
1
100
AcDbVertex
100
AcDb2dVertex
62
5
10
3.125000
20
113.300000
0
VERTEX
5
129
100
AcDbEntity
8
1
100
AcDbVertex
100
AcDb2dVertex
62
5
10
3.750000
20
112.987500
0
VERTEX
5
12a
100
AcDbEntity
8
1
100
AcDbVertex
100
AcDb2dVertex
62
5
10
4.062500
20
112.050000
0
VERTEX
5
12b
100
AcDbEntity
8
1
100
AcDbVertex
100
AcDb2dVertex
62
5
10
4.062500
20
110.800000
0
VERTEX
5
12c
100
AcDbEntity
8
1
100
AcDbVertex
100
AcDb2dVertex
62
5
10
3.750000
20
110.175000
0
VERTEX
5
12d
100
AcDbEntity
8
1
100
AcDbVertex
100
AcDb2dVertex
62
5
10
3.125000
20
109.550000
0
VERTEX
5
12e
100
AcDbEntity
8
1
100
AcDbVertex
100
AcDb2dVertex
62
5
10
2.187500
20
109.550000
0
SEQEND
5
12f
100
AcDbEntity
8
1
0
POLYLINE
5
130
100
AcDbEntity
8
1
6
DOT2
62
5
100
AcDb2dPolyline
66
1
10
0.0
20
0.0
30
0.0
70
0
0
VERTEX
5
131
100
AcDbEntity
8
1
100
AcDbVertex
100
AcDb2dVertex
62
5
10
3.125000
20
109.550000
0
VERTEX
5
132
100
AcDbEntity
8
1
100
AcDbVertex
100
AcDb2dVertex
62
5
10
4.062500
20
108.925000
0
VERTEX
5
133
100
AcDbEntity
8
1
100
AcDbVertex
100
AcDb2dVertex
62
5
10
4.375000
20
107.987500
0
VERTEX
5
134
100
AcDbEntity
8
1
100
AcDbVertex
100
AcDb2dVertex
62
5
10
4.375000
20
107.050000
0
VERTEX
5
135
100
AcDbEntity
8
1
100
AcDbVertex
100
AcDb2dVertex
62
5
10
4.062500
20
106.425000
0
VERTEX
5
136
100
AcDbEntity
8
1
100
AcDbVertex
100
AcDb2dVertex
62
5
10
3.125000
20
105.800000
0
VERTEX
5
137
100
AcDbEntity
8
1
100
AcDbVertex
100
AcDb2dVertex
62
5
10
2.187500
20
105.800000
0
VERTEX
5
138
100
AcDbEntity
8
1
100
AcDbVertex
100
AcDb2dVertex
62
5
10
1.562500
20
106.112500
0
VERTEX
5
139
100
AcDbEntity
8
1
100
AcDbVertex
100
AcDb2dVertex
62
5
10
0.937500
20
107.050000
0
SEQEND
5
13a
100
AcDbEntity
8
1
0
POLYLINE
5
13b
100
AcDbEntity
8
1
6
DOT2
62
5
100
AcDb2dPolyline
66
1
10
0.0
20
0.0
30
0.0
70
0
0
VERTEX
5
13c
100
AcDbEntity
8
1
100
AcDbVertex
100
AcDb2dVertex
62
5
10
39.937500
20
90.800000
0
VERTEX
5
13d
100
AcDbEntity
8
1
100
AcDbVertex
100
AcDb2dVertex
62
5
10
38.375000
20
91.112500
0
VERTEX
5
13e
100
AcDbEntity
8
1
100
AcDbVertex
100
AcDb2dVertex
62
5
10
37.750000
20
92.050000
0
VERTEX
5
13f
100
AcDbEntity
8
1
100
AcDbVertex
100
AcDb2dVertex
62
5
10
37.750000
20
92.987500
0
VERTEX
5
140
100
AcDbEntity
8
1
100
AcDbVertex
100
AcDb2dVertex
62
5
10
38.062500
20
93.612500
0
VERTEX
5
141
100
AcDbEntity
8
1
100
AcDbVertex
100
AcDb2dVertex
62
5
10
39.000000
20
93.925000
0
VERTEX
5
142
100
AcDbEntity
8
1
100
AcDbVertex
100
AcDb2dVertex
62
5
10
39.937500
20
93.925000
0
VERTEX
5
143
100
AcDbEntity
8
1
100
AcDbVertex
100
AcDb2dVertex
62
5
10
40.875000
20
93.612500
0
VERTEX
5
144
100
AcDbEntity
8
1
100
AcDbVertex
100
AcDb2dVertex
62
5
10
45.250000
20
90.800000
0
VERTEX
5
145
100
AcDbEntity
8
1
100
AcDbVertex
100
AcDb2dVertex
62
5
10
45.250000
20
93.925000
0
VERTEX
5
146
100
AcDbEntity
8
1
100
AcDbVertex
100
AcDb2dVertex
62
5
10
44.312500
20
93.925000
0
SEQEND
5
147
100
AcDbEntity
8
1
0
POLYLINE
5
148
100
AcDbEntity
8
1
6
DOT2
62
5
100
AcDb2dPolyline
66
1
10
0.0
20
0.0
30
0.0
70
0
0
VERTEX
5
149
100
AcDbEntity
8
1
100
AcDbVertex
100
AcDb2dVertex
62
5
10
39.937500
20
95.800000
0
VERTEX
5
14a
100
AcDbEntity
8
1
100
AcDbVertex
100
AcDb2dVertex
62
5
10
38.375000
20
96.112500
0
VERTEX
5
14b
100
AcDbEntity
8
1
100
AcDbVertex
100
AcDb2dVertex
62
5
10
37.750000
20
97.050000
0
VERTEX
5
14c
100
AcDbEntity
8
1
100
AcDbVertex
100
AcDb2dVertex
62
5
10
37.750000
20
97.987500
0
VERTEX
5
14d
100
AcDbEntity
8
1
100
AcDbVertex
100
AcDb2dVertex
62
5
10
38.062500
20
98.612500
0
VERTEX
5
14e
100
AcDbEntity
8
1
100
AcDbVertex
100
AcDb2dVertex
62
5
10
39.000000
20
98.925000
0
VERTEX
5
14f
100
AcDbEntity
8
1
100
AcDbVertex
100
AcDb2dVertex
62
5
10
39.937500
20
98.925000
0
VERTEX
5
150
100
AcDbEntity
8
1
100
AcDbVertex
100
AcDb2dVertex
62
5
10
40.875000
20
98.612500
0
VERTEX
5
151
100
AcDbEntity
8
1
100
AcDbVertex
100
AcDb2dVertex
62
5
10
45.250000
20
95.800000
0
VERTEX
5
152
100
AcDbEntity
8
1
100
AcDbVertex
100
AcDb2dVertex
62
5
10
45.250000
20
98.925000
0
VERTEX
5
153
100
AcDbEntity
8
1
100
AcDbVertex
100
AcDb2dVertex
62
5
10
44.312500
20
98.925000
0
SEQEND
5
154
100
AcDbEntity
8
1
0
POLYLINE
5
155
100
AcDbEntity
8
1
6
DOT2
62
5
100
AcDb2dPolyline
66
1
10
0.0
20
0.0
30
0.0
70
0
0
VERTEX
5
156
100
AcDbEntity
8
1
100
AcDbVertex
100
AcDb2dVertex
62
5
10
38.687500
20
105.800000
0
VERTEX
5
157
100
AcDbEntity
8
1
100
AcDbVertex
100
AcDb2dVertex
62
5
10
37.750000
20
105.800000
0
VERTEX
5
158
100
AcDbEntity
8
1
100
AcDbVertex
100
AcDb2dVertex
62
5
10
37.750000
20
108.925000
0
VERTEX
5
159
100
AcDbEntity
8
1
100
AcDbVertex
100
AcDb2dVertex
62
5
10
38.375000
20
108.925000
0
VERTEX
5
15a
100
AcDbEntity
8
1
100
AcDbVertex
100
AcDb2dVertex
62
5
10
39.937500
20
108.300000
0
VERTEX
5
15b
100
AcDbEntity
8
1
100
AcDbVertex
100
AcDb2dVertex
62
5
10
42.125000
20
107.675000
0
VERTEX
5
15c
100
AcDbEntity
8
1
100
AcDbVertex
100
AcDb2dVertex
62
5
10
45.250000
20
107.050000
0
SEQEND
5
15d
100
AcDbEntity
8
1
0
LINE
5
15e
100
AcDbEntity
8
1
100
AcDbLine
6
CONTINUOUS
62
5
10
17.500000
20
79.000000
11
17.000000
21
78.500000
0
LINE
5
15f
100
AcDbEntity
8
1
100
AcDbLine
6
CONTINUOUS
62
5
10
7.000000
20
71.700000
11
7.300000
21
72.000000
0
ARC
5
160
100
AcDbEntity
8
1
100
AcDbCircle
6
CONTINUOUS
62
5
10
9.700000
20
71.400000
40
0.500000
100
AcDbArc
50
179.999992
51
-89.999997
0
LINE
5
161
100
AcDbEntity
8
1
100
AcDbLine
6
CONTINUOUS
62
5
10
12.300000
20
70.900000
11
9.700000
21
70.900000
0
ARC
5
162
100
AcDbEntity
8
1
100
AcDbCircle
6
CONTINUOUS
62
5
10
9.700000
20
73.100000
40
0.500000
100
AcDbArc
50
179.999998
51
-89.999999
0
LINE
5
163
100
AcDbEntity
8
1
100
AcDbLine
6
CONTINUOUS
62
5
10
9.700000
20
72.600000
11
12.300000
21
72.600000
0
LINE
5
164
100
AcDbEntity
8
1
100
AcDbLine
6
CONTINUOUS
62
5
10
13.750000
20
72.550000
11
12.300000
21
73.050000
0
LINE
5
165
100
AcDbEntity
8
1
100
AcDbLine
6
CONTINUOUS
62
5
10
13.750000
20
72.550000
11
12.300000
21
73.050000
0
LINE
5
166
100
AcDbEntity
8
1
100
AcDbLine
6
CONTINUOUS
62
5
10
1.000000
20
70.200000
11
2.000000
21
69.200000
0
LINE
5
167
100
AcDbEntity
8
1
100
AcDbLine
6
CONTINUOUS
62
5
10
1.000000
20
69.200000
11
2.000000
21
70.200000
0
LINE
5
168
100
AcDbEntity
8
1
100
AcDbLine
6
CONTINUOUS
62
5
10
2.000000
20
70.200000
11
3.000000
21
69.200000
0
LINE
5
169
100
AcDbEntity
8
1
100
AcDbLine
6
CONTINUOUS
62
5
10
2.000000
20
69.200000
11
3.000000
21
70.200000
0
POLYLINE
5
16a
100
AcDbEntity
8
1
6
CONTINUOUS
62
5
100
AcDb2dPolyline
66
1
10
0.0
20
0.0
30
0.0
70
0
0
VERTEX
5
16b
100
AcDbEntity
8
1
100
AcDbVertex
100
AcDb2dVertex
62
5
10
4.000000
20
69.200000
0
VERTEX
5
16c
100
AcDbEntity
8
1
100
AcDbVertex
100
AcDb2dVertex
62
5
10
4.500000
20
69.700000
0
VERTEX
5
16d
100
AcDbEntity
8
1
100
AcDbVertex
100
AcDb2dVertex
62
5
10
4.000000
20
70.200000
0
SEQEND
5
16e
100
AcDbEntity
8
1
0
LINE
5
16f
100
AcDbEntity
8
1
100
AcDbLine
6
CONTINUOUS
62
5
10
3.000000
20
69.200000
11
4.000000
21
70.200000
0
LINE
5
170
100
AcDbEntity
8
1
100
AcDbLine
6
CONTINUOUS
62
5
10
3.000000
20
70.200000
11
4.000000
21
69.200000
0
LINE
5
171
100
AcDbEntity
8
1
100
AcDbLine
6
CONTINUOUS
62
5
10
20.000000
20
76.200000
11
19.500000
21
75.900000
0
ARC
5
172
100
AcDbEntity
8
1
100
AcDbCircle
6
CONTINUOUS
62
5
10
20.500000
20
78.500000
40
0.500000
100
AcDbArc
50
0.000000
51
89.999999
0
POLYLINE
5
173
100
AcDbEntity
8
1
6
CONTINUOUS
62
5
100
AcDb2dPolyline
66
1
10
0.0
20
0.0
30
0.0
70
0
0
VERTEX
5
174
100
AcDbEntity
8
1
100
AcDbVertex
100
AcDb2dVertex
62
5
10
20.500000
20
79.000000
0
VERTEX
5
175
100
AcDbEntity
8
1
100
AcDbVertex
100
AcDb2dVertex
62
5
10
17.500000
20
79.000000
0
VERTEX
5
176
100
AcDbEntity
8
1
100
AcDbVertex
100
AcDb2dVertex
62
5
10
17.500000
20
79.050000
0
SEQEND
5
177
100
AcDbEntity
8
1
0
ARC
5
178
100
AcDbEntity
8
1
100
AcDbCircle
6
CONTINUOUS
62
5
10
17.000000
20
79.050000
40
0.500000
100
AcDbArc
50
0.000000
51
89.999999
0
LINE
5
179
100
AcDbEntity
8
1
100
AcDbLine
6
CONTINUOUS
62
5
10
20.000000
20
72.800000
11
19.500000
21
73.100000
0
LINE
5
17a
100
AcDbEntity
8
1
100
AcDbLine
6
CONTINUOUS
62
5
10
21.500000
20
59.900000
11
21.500000
21
66.400000
0
LINE
5
17b
100
AcDbEntity
8
1
100
AcDbLine
6
CONTINUOUS
62
5
10
12.300000
20
65.500000
11
12.385819
21
65.360063
0
LINE
5
17c
100
AcDbEntity
8
1
100
AcDbLine
6
CONTINUOUS
62
5
10
12.300000
20
65.500000
11
12.385819
21
65.360063
0
LINE
5
17d
100
AcDbEntity
8
1
100
AcDbLine
6
CONTINUOUS
62
5
10
1.000000
20
68.200000
11
2.000000
21
67.200000
0
LINE
5
17e
100
AcDbEntity
8
1
100
AcDbLine
6
CONTINUOUS
62
5
10
1.000000
20
67.200000
11
2.000000
21
68.200000
0
LINE
5
17f
100
AcDbEntity
8
1
100
AcDbLine
6
CONTINUOUS
62
5
10
2.000000
20
68.200000
11
3.000000
21
67.200000
0
LINE
5
180
100
AcDbEntity
8
1
100
AcDbLine
6
CONTINUOUS
62
5
10
2.000000
20
67.200000
11
3.000000
21
68.200000
0
LINE
5
181
100
AcDbEntity
8
1
100
AcDbLine
6
CONTINUOUS
62
5
10
1.000000
20
66.200000
11
2.000000
21
67.200000
0
LINE
5
182
100
AcDbEntity
8
1
100
AcDbLine
6
CONTINUOUS
62
5
10
1.000000
20
67.200000
11
2.000000
21
66.200000
0
LINE
5
183
100
AcDbEntity
8
1
100
AcDbLine
6
CONTINUOUS
62
5
10
2.000000
20
66.200000
11
3.000000
21
67.200000
0
LINE
5
184
100
AcDbEntity
8
1
100
AcDbLine
6
CONTINUOUS
62
5
10
2.000000
20
67.200000
11
3.000000
21
66.200000
0
LINE
5
185
100
AcDbEntity
8
1
100
AcDbLine
6
CONTINUOUS
62
5
10
3.000000
20
67.200000
11
4.000000
21
68.200000
0
LINE
5
186
100
AcDbEntity
8
1
100
AcDbLine
6
CONTINUOUS
62
5
10
3.000000
20
68.200000
11
4.000000
21
67.200000
0
POLYLINE
5
187
100
AcDbEntity
8
1
6
CONTINUOUS
62
5
100
AcDb2dPolyline
66
1
10
0.0
20
0.0
30
0.0
70
0
0
VERTEX
5
188
100
AcDbEntity
8
1
100
AcDbVertex
100
AcDb2dVertex
62
5
10
4.000000
20
67.200000
0
VERTEX
5
189
100
AcDbEntity
8
1
100
AcDbVertex
100
AcDb2dVertex
62
5
10
4.500000
20
67.700000
0
VERTEX
5
18a
100
AcDbEntity
8
1
100
AcDbVertex
100
AcDb2dVertex
62
5
10
4.000000
20
68.200000
0
SEQEND
5
18b
100
AcDbEntity
8
1
0
POLYLINE
5
18c
100
AcDbEntity
8
1
6
CONTINUOUS
62
5
100
AcDb2dPolyline
66
1
10
0.0
20
0.0
30
0.0
70
0
0
VERTEX
5
18d
100
AcDbEntity
8
1
100
AcDbVertex
100
AcDb2dVertex
62
5
10
4.000000
20
66.200000
0
VERTEX
5
18e
100
AcDbEntity
8
1
100
AcDbVertex
100
AcDb2dVertex
62
5
10
4.500000
20
66.700000
0
VERTEX
5
18f
100
AcDbEntity
8
1
100
AcDbVertex
100
AcDb2dVertex
62
5
10
4.000000
20
67.200000
0
SEQEND
5
190
100
AcDbEntity
8
1
0
LINE
5
191
100
AcDbEntity
8
1
100
AcDbLine
6
CONTINUOUS
62
5
10
3.000000
20
67.200000
11
4.000000
21
66.200000
0
LINE
5
192
100
AcDbEntity
8
1
100
AcDbLine
6
CONTINUOUS
62
5
10
3.000000
20
66.200000
11
4.000000
21
67.200000
0
CIRCLE
5
193
100
AcDbEntity
8
1
100
AcDbCircle
6
CONTINUOUS
62
5
10
17.500000
20
61.900000
40
1.500000
0
LINE
5
194
100
AcDbEntity
8
1
100
AcDbLine
6
CONTINUOUS
62
5
10
17.500000
20
57.400000
11
17.000000
21
57.900000
0
LINE
5
195
100
AcDbEntity
8
1
100
AcDbLine
6
CONTINUOUS
62
5
10
7.000000
20
64.700000
11
7.300000
21
64.400000
0
LINE
5
196
100
AcDbEntity
8
1
100
AcDbLine
6
CONTINUOUS
62
5
10
13.750000
20
65.000000
11
13.911572
21
64.700000
0
LINE
5
197
100
AcDbEntity
8
1
100
AcDbLine
6
CONTINUOUS
62
5
10
13.750000
20
65.000000
11
13.911572
21
64.700000
0
LINE
5
198
100
AcDbEntity
8
1
100
AcDbLine
6
CONTINUOUS
62
5
10
20.000000
20
63.600000
11
19.500000
21
63.300000
0
LINE
5
199
100
AcDbEntity
8
1
100
AcDbLine
6
CONTINUOUS
62
5
10
20.000000
20
60.200000
11
19.500000
21
60.500000
0
ARC
5
19a
100
AcDbEntity
8
1
100
AcDbCircle
6
CONTINUOUS
62
5
10
20.500000
20
57.900000
40
0.500000
100
AcDbArc
50
-89.999999
51
0.000000
0
POLYLINE
5
19b
100
AcDbEntity
8
1
6
CONTINUOUS
62
5
100
AcDb2dPolyline
66
1
10
0.0
20
0.0
30
0.0
70
0
0
VERTEX
5
19c
100
AcDbEntity
8
1
100
AcDbVertex
100
AcDb2dVertex
62
5
10
20.500000
20
57.400000
0
VERTEX
5
19d
100
AcDbEntity
8
1
100
AcDbVertex
100
AcDb2dVertex
62
5
10
17.500000
20
57.400000
0
VERTEX
5
19e
100
AcDbEntity
8
1
100
AcDbVertex
100
AcDb2dVertex
62
5
10
17.500000
20
57.350000
0
SEQEND
5
19f
100
AcDbEntity
8
1
0
ARC
5
1a0
100
AcDbEntity
8
1
100
AcDbCircle
6
CONTINUOUS
62
5
10
17.000000
20
57.350000
40
0.500000
100
AcDbArc
50
-89.999999
51
0.000000
0
LINE
5
1a1
100
AcDbEntity
8
1
100
AcDbLine
6
CONTINUOUS
62
5
10
1.000000
20
69.200000
11
2.000000
21
68.200000
0
LINE
5
1a2
100
AcDbEntity
8
1
100
AcDbLine
6
CONTINUOUS
62
5
10
1.000000
20
68.200000
11
2.000000
21
69.200000
0
LINE
5
1a3
100
AcDbEntity
8
1
100
AcDbLine
6
CONTINUOUS
62
5
10
2.000000
20
69.200000
11
3.000000
21
68.200000
0
LINE
5
1a4
100
AcDbEntity
8
1
100
AcDbLine
6
CONTINUOUS
62
5
10
2.000000
20
68.200000
11
3.000000
21
69.200000
0
LINE
5
1a5
100
AcDbEntity
8
1
100
AcDbLine
6
CONTINUOUS
62
5
10
3.000000
20
68.200000
11
4.000000
21
69.200000
0
LINE
5
1a6
100
AcDbEntity
8
1
100
AcDbLine
6
CONTINUOUS
62
5
10
3.000000
20
69.200000
11
4.000000
21
68.200000
0
POLYLINE
5
1a7
100
AcDbEntity
8
1
6
CONTINUOUS
62
5
100
AcDb2dPolyline
66
1
10
0.0
20
0.0
30
0.0
70
0
0
VERTEX
5
1a8
100
AcDbEntity
8
1
100
AcDbVertex
100
AcDb2dVertex
62
5
10
4.000000
20
68.200000
0
VERTEX
5
1a9
100
AcDbEntity
8
1
100
AcDbVertex
100
AcDb2dVertex
62
5
10
4.500000
20
68.700000
0
VERTEX
5
1aa
100
AcDbEntity
8
1
100
AcDbVertex
100
AcDb2dVertex
62
5
10
4.000000
20
69.200000
0
SEQEND
5
1ab
100
AcDbEntity
8
1
0
POLYLINE
5
1ac
100
AcDbEntity
8
1
6
CONTINUOUS
62
5
100
AcDb2dPolyline
66
1
10
0.0
20
0.0
30
0.0
70
0
0
VERTEX
5
1ad
100
AcDbEntity
8
1
100
AcDbVertex
100
AcDb2dVertex
62
5
10
12.300000
20
69.900000
0
VERTEX
5
1ae
100
AcDbEntity
8
1
100
AcDbVertex
100
AcDb2dVertex
62
5
10
11.668981
20
69.900000
0
VERTEX
5
1af
100
AcDbEntity
8
1
100
AcDbVertex
100
AcDb2dVertex
62
5
10
11.668981
20
66.500000
0
VERTEX
5
1b0
100
AcDbEntity
8
1
100
AcDbVertex
100
AcDb2dVertex
62
5
10
12.300000
20
66.500000
0
SEQEND
5
1b1
100
AcDbEntity
8
1
0
CIRCLE
5
1b2
100
AcDbEntity
8
1
100
AcDbCircle
6
CONTINUOUS
62
5
10
17.500000
20
68.200000
40
1.500000
0
LINE
5
1b3
100
AcDbEntity
8
1
100
AcDbLine
6
CONTINUOUS
62
5
10
9.200000
20
71.400000
11
9.200000
21
65.000000
0
LINE
5
1b4
100
AcDbEntity
8
1
100
AcDbLine
6
CONTINUOUS
62
5
10
10.400000
20
70.900000
11
10.400000
21
65.500000
0
LINE
5
1b5
100
AcDbEntity
8
1
100
AcDbLine
6
CONTINUOUS
62
5
10
3.000000
20
66.200000
11
3.000000
21
70.200000
0
LINE
5
1b6
100
AcDbEntity
8
1
100
AcDbLine
6
CONTINUOUS
62
5
10
1.000000
20
66.200000
11
1.000000
21
70.200000
0
LINE
5
1b7
100
AcDbEntity
8
1
100
AcDbLine
6
CONTINUOUS
62
5
10
2.000000
20
66.200000
11
2.000000
21
70.200000
0
LINE
5
1b8
100
AcDbEntity
8
1
100
AcDbLine
6
CONTINUOUS
62
5
10
4.000000
20
66.200000
11
4.000000
21
70.200000
0
ARC
5
1b9
100
AcDbEntity
8
1
100
AcDbCircle
6
CONTINUOUS
62
5
10
14.037393
20
64.150000
40
0.300000
100
AcDbArc
50
-89.999999
51
-13.966015
0
LINE
5
1ba
100
AcDbEntity
8
1
100
AcDbLine
6
CONTINUOUS
62
5
10
14.328525
20
64.077596
11
14.520389
21
64.849071
0
ARC
5
1bb
100
AcDbEntity
8
1
100
AcDbCircle
6
CONTINUOUS
62
5
10
13.549998
20
65.090617
40
1.000002
100
AcDbArc
50
-13.977780
51
-0.000008
0
LINE
5
1bc
100
AcDbEntity
8
1
100
AcDbLine
6
CONTINUOUS
62
5
10
14.550000
20
65.090617
11
14.550000
21
72.250000
0
ARC
5
1bd
100
AcDbEntity
8
1
100
AcDbCircle
6
CONTINUOUS
62
5
10
14.250000
20
72.250000
40
0.300000
100
AcDbArc
50
0.000000
51
89.999999
0
LINE
5
1be
100
AcDbEntity
8
1
100
AcDbLine
6
CONTINUOUS
62
5
10
14.250000
20
72.550000
11
14.050000
21
72.550000
0
ARC
5
1bf
100
AcDbEntity
8
1
100
AcDbCircle
6
CONTINUOUS
62
5
10
14.050000
20
72.250000
40
0.300000
100
AcDbArc
50
89.999999
51
179.999998
0
POLYLINE
5
1c0
100
AcDbEntity
8
1
6
CONTINUOUS
62
5
100
AcDb2dPolyline
66
1
10
0.0
20
0.0
30
0.0
70
0
0
VERTEX
5
1c1
100
AcDbEntity
8
1
100
AcDbVertex
100
AcDb2dVertex
62
5
10
13.750000
20
72.250000
0
VERTEX
5
1c2
100
AcDbEntity
8
1
100
AcDbVertex
100
AcDb2dVertex
62
5
10
13.750000
20
65.000000
0
VERTEX
5
1c3
100
AcDbEntity
8
1
100
AcDbVertex
100
AcDb2dVertex
62
5
10
12.800000
20
65.000000
0
SEQEND
5
1c4
100
AcDbEntity
8
1
0
ARC
5
1c5
100
AcDbEntity
8
1
100
AcDbCircle
6
CONTINUOUS
62
5
10
12.800000
20
64.700000
40
0.300000
100
AcDbArc
50
89.999999
51
179.999998
0
LINE
5
1c6
100
AcDbEntity
8
1
100
AcDbLine
6
CONTINUOUS
62
5
10
12.500000
20
64.700000
11
12.500000
21
64.150000
0
ARC
5
1c7
100
AcDbEntity
8
1
100
AcDbCircle
6
CONTINUOUS
62
5
10
12.800000
20
64.150000
40
0.300000
100
AcDbArc
50
-179.999998
51
-89.999999
0
LINE
5
1c8
100
AcDbEntity
8
1
100
AcDbLine
6
CONTINUOUS
62
5
10
12.800000
20
63.850000
11
14.037393
21
63.850000
0
ARC
5
1c9
100
AcDbEntity
8
1
100
AcDbCircle
6
CONTINUOUS
62
5
10
9.700000
20
64.300000
40
0.500000
100
AcDbArc
50
-179.999998
51
-90.000000
0
ARC
5
1ca
100
AcDbEntity
8
1
100
AcDbCircle
6
CONTINUOUS
62
5
10
9.700000
20
65.000000
40
0.500000
100
AcDbArc
50
90.000000
51
179.999996
0
POLYLINE
5
1cb
100
AcDbEntity
8
1
6
CONTINUOUS
62
5
100
AcDb2dPolyline
66
1
10
0.0
20
0.0
30
0.0
70
0
0
VERTEX
5
1cc
100
AcDbEntity
8
1
100
AcDbVertex
100
AcDb2dVertex
62
5
10
9.700000
20
65.500000
0
VERTEX
5
1cd
100
AcDbEntity
8
1
100
AcDbVertex
100
AcDb2dVertex
62
5
10
12.300000
20
65.500000
0
VERTEX
5
1ce
100
AcDbEntity
8
1
100
AcDbVertex
100
AcDb2dVertex
62
5
10
12.300000
20
77.700000
0
SEQEND
5
1cf
100
AcDbEntity
8
1
0
ARC
5
1d0
100
AcDbEntity
8
1
100
AcDbCircle
6
CONTINUOUS
62
5
10
12.800000
20
77.700000
40
0.500000
100
AcDbArc
50
89.999999
51
179.999998
0
LINE
5
1d1
100
AcDbEntity
8
1
100
AcDbLine
6
CONTINUOUS
62
5
10
12.800000
20
78.200000
11
13.500000
21
78.200000
0
ARC
5
1d2
100
AcDbEntity
8
1
100
AcDbCircle
6
CONTINUOUS
62
5
10
13.500000
20
77.700000
40
0.500000
100
AcDbArc
50
-0.000000
51
89.999999
0
ARC
5
1d3
100
AcDbEntity
8
1
100
AcDbCircle
6
CONTINUOUS
62
5
10
13.500000
20
58.700000
40
0.500000
100
AcDbArc
50
-89.999999
51
0.000000
0
LINE
5
1d4
100
AcDbEntity
8
1
100
AcDbLine
6
CONTINUOUS
62
5
10
13.500000
20
58.200000
11
12.800000
21
58.200000
0
ARC
5
1d5
100
AcDbEntity
8
1
100
AcDbCircle
6
CONTINUOUS
62
5
10
12.800000
20
58.700000
40
0.500000
100
AcDbArc
50
179.999998
51
-89.999999
0
POLYLINE
5
1d6
100
AcDbEntity
8
1
6
CONTINUOUS
62
5
100
AcDb2dPolyline
66
1
10
0.0
20
0.0
30
0.0
70
0
0
VERTEX
5
1d7
100
AcDbEntity
8
1
100
AcDbVertex
100
AcDb2dVertex
62
5
10
12.300000
20
58.700000
0
VERTEX
5
1d8
100
AcDbEntity
8
1
100
AcDbVertex
100
AcDb2dVertex
62
5
10
12.300000
20
63.800000
0
VERTEX
5
1d9
100
AcDbEntity
8
1
100
AcDbVertex
100
AcDb2dVertex
62
5
10
9.700000
20
63.800000
0
SEQEND
5
1da
100
AcDbEntity
8
1
0
ARC
5
1db
100
AcDbEntity
8
1
100
AcDbCircle
6
CONTINUOUS
62
5
10
14.350000
20
72.750000
40
0.300000
100
AcDbArc
50
-0.000000
51
89.999999
0
LINE
5
1dc
100
AcDbEntity
8
1
100
AcDbLine
6
CONTINUOUS
62
5
10
14.650000
20
72.750000
11
14.650000
21
65.073106
0
ARC
5
1dd
100
AcDbEntity
8
1
100
AcDbCircle
6
CONTINUOUS
62
5
10
13.650000
20
65.073106
40
1.000000
100
AcDbArc
50
-14.036243
51
0.000000
0
LINE
5
1de
100
AcDbEntity
8
1
100
AcDbLine
6
CONTINUOUS
62
5
10
14.620142
20
64.830570
11
14.306810
21
63.577239
0
ARC
5
1df
100
AcDbEntity
8
1
100
AcDbCircle
6
CONTINUOUS
62
5
10
14.015767
20
63.650000
40
0.300000
100
AcDbArc
50
-89.999999
51
-14.036243
0
LINE
5
1e0
100
AcDbEntity
8
1
100
AcDbLine
6
CONTINUOUS
62
5
10
14.015767
20
63.350000
11
12.600000
21
63.350000
0
ARC
5
1e1
100
AcDbEntity
8
1
100
AcDbCircle
6
CONTINUOUS
62
5
10
12.600000
20
63.650000
40
0.300000
100
AcDbArc
50
-179.999998
51
-89.999999
0
LINE
5
1e2
100
AcDbEntity
8
1
100
AcDbLine
6
CONTINUOUS
62
5
10
12.300000
20
63.650000
11
12.300000
21
65.079217
0
ARC
5
1e3
100
AcDbEntity
8
1
100
AcDbCircle
6
CONTINUOUS
62
5
10
12.600000
20
65.079217
40
0.300000
100
AcDbArc
50
70.974394
51
-179.999998
0
LINE
5
1e4
100
AcDbEntity
8
1
100
AcDbLine
6
CONTINUOUS
62
5
10
12.697797
20
65.362829
11
13.750000
21
65.000000
0
LINE
5
1e5
100
AcDbEntity
8
1
100
AcDbLine
6
CONTINUOUS
62
5
10
12.300000
20
73.050000
11
14.350000
21
73.050000
0
ARC
5
1e6
100
AcDbEntity
8
1
100
AcDbCircle
6
CONTINUOUS
62
5
10
20.000000
20
78.550000
40
1.000000
100
AcDbArc
50
0.000000
51
89.999999
0
LINE
5
1e7
100
AcDbEntity
8
1
100
AcDbLine
6
CONTINUOUS
62
5
10
21.000000
20
78.550000
11
21.000000
21
57.850000
0
ARC
5
1e8
100
AcDbEntity
8
1
100
AcDbCircle
6
CONTINUOUS
62
5
10
20.000000
20
57.850000
40
1.000000
100
AcDbArc
50
-89.999999
51
-0.000000
0
LINE
5
1e9
100
AcDbEntity
8
1
100
AcDbLine
6
CONTINUOUS
62
5
10
20.000000
20
56.850000
11
13.300000
21
56.850000
0
LINE
5
1ea
100
AcDbEntity
8
1
100
AcDbLine
6
CONTINUOUS
62
5
10
13.300000
20
79.550000
11
20.000000
21
79.550000
0
ARC
5
1eb
100
AcDbEntity
8
1
100
AcDbCircle
6
CONTINUOUS
62
5
10
20.700000
20
63.300000
40
0.300000
100
AcDbArc
50
0.000000
51
89.999999
0
ARC
5
1ec
100
AcDbEntity
8
1
100
AcDbCircle
6
CONTINUOUS
62
5
10
20.700000
20
60.500000
40
0.300000
100
AcDbArc
50
-89.999999
51
-0.000000
0
POLYLINE
5
1ed
100
AcDbEntity
8
1
6
CONTINUOUS
62
5
100
AcDb2dPolyline
66
1
10
0.0
20
0.0
30
0.0
70
0
0
VERTEX
5
1ee
100
AcDbEntity
8
1
100
AcDbVertex
100
AcDb2dVertex
62
5
10
20.700000
20
60.200000
0
VERTEX
5
1ef
100
AcDbEntity
8
1
100
AcDbVertex
100
AcDb2dVertex
62
5
10
20.000000
20
60.200000
0
VERTEX
5
1f0
100
AcDbEntity
8
1
100
AcDbVertex
100
AcDb2dVertex
62
5
10
20.000000
20
57.900000
0
SEQEND
5
1f1
100
AcDbEntity
8
1
0
ARC
5
1f2
100
AcDbEntity
8
1
100
AcDbCircle
6
CONTINUOUS
62
5
10
19.500000
20
57.900000
40
0.500000
100
AcDbArc
50
-89.999999
51
-0.000000
0
ARC
5
1f3
100
AcDbEntity
8
1
100
AcDbCircle
6
CONTINUOUS
62
5
10
19.500000
20
78.500000
40
0.500000
100
AcDbArc
50
-0.000000
51
89.999999
0
POLYLINE
5
1f4
100
AcDbEntity
8
1
6
CONTINUOUS
62
5
100
AcDb2dPolyline
66
1
10
0.0
20
0.0
30
0.0
70
0
0
VERTEX
5
1f5
100
AcDbEntity
8
1
100
AcDbVertex
100
AcDb2dVertex
62
5
10
20.000000
20
78.500000
0
VERTEX
5
1f6
100
AcDbEntity
8
1
100
AcDbVertex
100
AcDb2dVertex
62
5
10
20.000000
20
76.200000
0
VERTEX
5
1f7
100
AcDbEntity
8
1
100
AcDbVertex
100
AcDb2dVertex
62
5
10
20.700000
20
76.200000
0
SEQEND
5
1f8
100
AcDbEntity
8
1
0
ARC
5
1f9
100
AcDbEntity
8
1
100
AcDbCircle
6
CONTINUOUS
62
5
10
20.700000
20
75.900000
40
0.300000
100
AcDbArc
50
-0.000000
51
89.999999
0
ARC
5
1fa
100
AcDbEntity
8
1
100
AcDbCircle
6
CONTINUOUS
62
5
10
20.700000
20
73.100000
40
0.300000
100
AcDbArc
50
-89.999999
51
-0.000000
0
POLYLINE
5
1fb
100
AcDbEntity
8
1
6
CONTINUOUS
62
5
100
AcDb2dPolyline
66
1
10
0.0
20
0.0
30
0.0
70
0
0
VERTEX
5
1fc
100
AcDbEntity
8
1
100
AcDbVertex
100
AcDb2dVertex
62
5
10
20.700000
20
72.800000
0
VERTEX
5
1fd
100
AcDbEntity
8
1
100
AcDbVertex
100
AcDb2dVertex
62
5
10
20.000000
20
72.800000
0
VERTEX
5
1fe
100
AcDbEntity
8
1
100
AcDbVertex
100
AcDb2dVertex
62
5
10
20.000000
20
63.600000
0
VERTEX
5
1ff
100
AcDbEntity
8
1
100
AcDbVertex
100
AcDb2dVertex
62
5
10
20.700000
20
63.600000
0
SEQEND
5
200
100
AcDbEntity
8
1
0
POLYLINE
5
201
100
AcDbEntity
8
1
6
CONTINUOUS
62
5
100
AcDb2dPolyline
66
1
10
0.0
20
0.0
30
0.0
70
0
0
VERTEX
5
202
100
AcDbEntity
8
1
100
AcDbVertex
100
AcDb2dVertex
62
5
10
-37.500000
20
202.125000
0
VERTEX
5
203
100
AcDbEntity
8
1
100
AcDbVertex
100
AcDb2dVertex
62
5
10
-32.750000
20
202.125000
0
VERTEX
5
204
100
AcDbEntity
8
1
100
AcDbVertex
100
AcDb2dVertex
62
5
10
-32.750000
20
201.812500
0
VERTEX
5
205
100
AcDbEntity
8
1
100
AcDbVertex
100
AcDb2dVertex
62
5
10
-34.000000
20
199.625000
0
VERTEX
5
206
100
AcDbEntity
8
1
100
AcDbVertex
100
AcDb2dVertex
62
5
10
-35.000000
20
198.687500
0
VERTEX
5
207
100
AcDbEntity
8
1
100
AcDbVertex
100
AcDb2dVertex
62
5
10
-36.000000
20
198.062500
0
SEQEND
5
208
100
AcDbEntity
8
1
0
LINE
5
209
100
AcDbEntity
8
1
100
AcDbLine
6
CONTINUOUS
62
5
10
-36.750000
20
204.312500
11
-33.250000
21
204.312500
0
LINE
5
20a
100
AcDbEntity
8
1
100
AcDbLine
6
CONTINUOUS
62
5
10
-29.250000
20
203.687500
11
-28.250000
21
202.437500
0
POLYLINE
5
20b
100
AcDbEntity
8
1
6
CONTINUOUS
62
5
100
AcDb2dPolyline
66
1
10
0.0
20
0.0
30
0.0
70
0
0
VERTEX
5
20c
100
AcDbEntity
8
1
100
AcDbVertex
100
AcDb2dVertex
62
5
10
-29.500000
20
198.687500
0
VERTEX
5
20d
100
AcDbEntity
8
1
100
AcDbVertex
100
AcDb2dVertex
62
5
10
-27.750000
20
199.625000
0
VERTEX
5
20e
100
AcDbEntity
8
1
100
AcDbVertex
100
AcDb2dVertex
62
5
10
-26.250000
20
200.875000
0
VERTEX
5
20f
100
AcDbEntity
8
1
100
AcDbVertex
100
AcDb2dVertex
62
5
10
-24.750000
20
202.437500
0
SEQEND
5
210
100
AcDbEntity
8
1
0
POLYLINE
5
211
100
AcDbEntity
8
1
6
CONTINUOUS
62
5
100
AcDb2dPolyline
66
1
10
0.0
20
0.0
30
0.0
70
0
0
VERTEX
5
212
100
AcDbEntity
8
1
100
AcDbVertex
100
AcDb2dVertex
62
5
10
-34.500000
20
213.250000
0
VERTEX
5
213
100
AcDbEntity
8
1
100
AcDbVertex
100
AcDb2dVertex
62
5
10
-35.000000
20
214.250000
0
VERTEX
5
214
100
AcDbEntity
8
1
100
AcDbVertex
100
AcDb2dVertex
62
5
10
-35.750000
20
214.500000
0
VERTEX
5
215
100
AcDbEntity
8
1
100
AcDbVertex
100
AcDb2dVertex
62
5
10
-36.250000
20
214.500000
0
VERTEX
5
216
100
AcDbEntity
8
1
100
AcDbVertex
100
AcDb2dVertex
62
5
10
-36.750000
20
214.250000
0
VERTEX
5
217
100
AcDbEntity
8
1
100
AcDbVertex
100
AcDb2dVertex
62
5
10
-37.250000
20
213.500000
0
VERTEX
5
218
100
AcDbEntity
8
1
100
AcDbVertex
100
AcDb2dVertex
62
5
10
-37.250000
20
212.750000
0
VERTEX
5
219
100
AcDbEntity
8
1
100
AcDbVertex
100
AcDb2dVertex
62
5
10
-36.750000
20
212.000000
0
VERTEX
5
21a
100
AcDbEntity
8
1
100
AcDbVertex
100
AcDb2dVertex
62
5
10
-35.000000
20
211.000000
0
VERTEX
5
21b
100
AcDbEntity
8
1
100
AcDbVertex
100
AcDb2dVertex
62
5
10
-34.500000
20
210.250000
0
VERTEX
5
21c
100
AcDbEntity
8
1
100
AcDbVertex
100
AcDb2dVertex
62
5
10
-34.500000
20
209.500000
0
VERTEX
5
21d
100
AcDbEntity
8
1
100
AcDbVertex
100
AcDb2dVertex
62
5
10
-35.000000
20
208.750000
0
VERTEX
5
21e
100
AcDbEntity
8
1
100
AcDbVertex
100
AcDb2dVertex
62
5
10
-35.750000
20
208.500000
0
VERTEX
5
21f
100
AcDbEntity
8
1
100
AcDbVertex
100
AcDb2dVertex
62
5
10
-36.250000
20
208.500000
0
VERTEX
5
220
100
AcDbEntity
8
1
100
AcDbVertex
100
AcDb2dVertex
62
5
10
-37.000000
20
209.000000
0
VERTEX
5
221
100
AcDbEntity
8
1
100
AcDbVertex
100
AcDb2dVertex
62
5
10
-37.250000
20
210.000000
0
SEQEND
5
222
100
AcDbEntity
8
1
0
POLYLINE
5
223
100
AcDbEntity
8
1
6
CONTINUOUS
62
5
100
AcDb2dPolyline
66
1
10
0.0
20
0.0
30
0.0
70
0
0
VERTEX
5
224
100
AcDbEntity
8
1
100
AcDbVertex
100
AcDb2dVertex
62
5
10
-33.000000
20
214.500000
0
VERTEX
5
225
100
AcDbEntity
8
1
100
AcDbVertex
100
AcDb2dVertex
62
5
10
-33.000000
20
208.500000
0
VERTEX
5
226
100
AcDbEntity
8
1
100
AcDbVertex
100
AcDb2dVertex
62
5
10
-30.500000
20
208.500000
0
SEQEND
5
227
100
AcDbEntity
8
1
0
LINE
5
228
100
AcDbEntity
8
1
100
AcDbLine
6
CONTINUOUS
62
5
10
-28.500000
20
214.500000
11
-27.000000
21
214.500000
0
LINE
5
229
100
AcDbEntity
8
1
100
AcDbLine
6
CONTINUOUS
62
5
10
-27.750000
20
214.500000
11
-27.750000
21
208.500000
0
LINE
5
22a
100
AcDbEntity
8
1
100
AcDbLine
6
CONTINUOUS
62
5
10
-28.500000
20
208.500000
11
-27.000000
21
208.500000
0
POLYLINE
5
22b
100
AcDbEntity
8
1
6
CONTINUOUS
62
5
100
AcDb2dPolyline
66
1
10
0.0
20
0.0
30
0.0
70
0
0
VERTEX
5
22c
100
AcDbEntity
8
1
100
AcDbVertex
100
AcDb2dVertex
62
5
10
-25.000000
20
208.500000
0
VERTEX
5
22d
100
AcDbEntity
8
1
100
AcDbVertex
100
AcDb2dVertex
62
5
10
-25.000000
20
214.500000
0
VERTEX
5
22e
100
AcDbEntity
8
1
100
AcDbVertex
100
AcDb2dVertex
62
5
10
-23.750000
20
208.500000
0
VERTEX
5
22f
100
AcDbEntity
8
1
100
AcDbVertex
100
AcDb2dVertex
62
5
10
-22.500000
20
214.500000
0
VERTEX
5
230
100
AcDbEntity
8
1
100
AcDbVertex
100
AcDb2dVertex
62
5
10
-22.500000
20
208.500000
0
SEQEND
5
231
100
AcDbEntity
8
1
0
POLYLINE
5
232
100
AcDbEntity
8
1
6
CONTINUOUS
62
5
100
AcDb2dPolyline
66
1
10
0.0
20
0.0
30
0.0
70
0
0
VERTEX
5
233
100
AcDbEntity
8
1
100
AcDbVertex
100
AcDb2dVertex
62
5
10
-22.000000
20
203.375000
0
VERTEX
5
234
100
AcDbEntity
8
1
100
AcDbVertex
100
AcDb2dVertex
62
5
10
-17.750000
20
203.375000
0
VERTEX
5
235
100
AcDbEntity
8
1
100
AcDbVertex
100
AcDb2dVertex
62
5
10
-17.750000
20
202.750000
0
VERTEX
5
236
100
AcDbEntity
8
1
100
AcDbVertex
100
AcDb2dVertex
62
5
10
-18.000000
20
201.812500
0
VERTEX
5
237
100
AcDbEntity
8
1
100
AcDbVertex
100
AcDb2dVertex
62
5
10
-18.500000
20
200.875000
0
VERTEX
5
238
100
AcDbEntity
8
1
100
AcDbVertex
100
AcDb2dVertex
62
5
10
-19.250000
20
199.625000
0
VERTEX
5
239
100
AcDbEntity
8
1
100
AcDbVertex
100
AcDb2dVertex
62
5
10
-20.000000
20
199.000000
0
VERTEX
5
23a
100
AcDbEntity
8
1
100
AcDbVertex
100
AcDb2dVertex
62
5
10
-21.250000
20
198.062500
0
SEQEND
5
23b
100
AcDbEntity
8
1
0
POLYLINE
5
23c
100
AcDbEntity
8
1
6
CONTINUOUS
62
5
100
AcDb2dPolyline
66
1
10
0.0
20
0.0
30
0.0
70
1
0
VERTEX
5
23d
100
AcDbEntity
8
1
100
AcDbVertex
100
AcDb2dVertex
62
5
10
-17.000000
20
204.937500
0
VERTEX
5
23e
100
AcDbEntity
8
1
100
AcDbVertex
100
AcDb2dVertex
62
5
10
-16.500000
20
204.937500
0
VERTEX
5
23f
100
AcDbEntity
8
1
100
AcDbVertex
100
AcDb2dVertex
62
5
10
-16.250000
20
204.625000
0
VERTEX
5
240
100
AcDbEntity
8
1
100
AcDbVertex
100
AcDb2dVertex
62
5
10
-16.250000
20
204.000000
0
VERTEX
5
241
100
AcDbEntity
8
1
100
AcDbVertex
100
AcDb2dVertex
62
5
10
-16.500000
20
203.687500
0
VERTEX
5
242
100
AcDbEntity
8
1
100
AcDbVertex
100
AcDb2dVertex
62
5
10
-17.000000
20
203.687500
0
VERTEX
5
243
100
AcDbEntity
8
1
100
AcDbVertex
100
AcDb2dVertex
62
5
10
-17.250000
20
204.000000
0
VERTEX
5
244
100
AcDbEntity
8
1
100
AcDbVertex
100
AcDb2dVertex
62
5
10
-17.250000
20
204.625000
0
VERTEX
5
245
100
AcDbEntity
8
1
100
AcDbVertex
100
AcDb2dVertex
62
5
10
-17.000000
20
204.937500
0
SEQEND
5
246
100
AcDbEntity
8
1
0
LINE
5
247
100
AcDbEntity
8
1
100
AcDbLine
6
CONTINUOUS
62
5
10
-52.750000
20
201.812500
11
-52.500000
21
200.562500
0
LINE
5
248
100
AcDbEntity
8
1
100
AcDbLine
6
CONTINUOUS
62
5
10
-51.250000
20
202.125000
11
-51.000000
21
200.875000
0
POLYLINE
5
249
100
AcDbEntity
8
1
6
CONTINUOUS
62
5
100
AcDb2dPolyline
66
1
10
0.0
20
0.0
30
0.0
70
0
0
VERTEX
5
24a
100
AcDbEntity
8
1
100
AcDbVertex
100
AcDb2dVertex
62
5
10
-49.250000
20
202.125000
0
VERTEX
5
24b
100
AcDbEntity
8
1
100
AcDbVertex
100
AcDb2dVertex
62
5
10
-49.500000
20
200.562500
0
VERTEX
5
24c
100
AcDbEntity
8
1
100
AcDbVertex
100
AcDb2dVertex
62
5
10
-50.750000
20
198.687500
0
VERTEX
5
24d
100
AcDbEntity
8
1
100
AcDbVertex
100
AcDb2dVertex
62
5
10
-51.750000
20
197.750000
0
SEQEND
5
24e
100
AcDbEntity
8
1
0
POLYLINE
5
24f
100
AcDbEntity
8
1
6
CONTINUOUS
62
5
100
AcDb2dPolyline
66
1
10
0.0
20
0.0
30
0.0
70
0
0
VERTEX
5
250
100
AcDbEntity
8
1
100
AcDbVertex
100
AcDb2dVertex
62
5
10
-43.750000
20
202.437500
0
VERTEX
5
251
100
AcDbEntity
8
1
100
AcDbVertex
100
AcDb2dVertex
62
5
10
-43.500000
20
202.437500
0
VERTEX
5
252
100
AcDbEntity
8
1
100
AcDbVertex
100
AcDb2dVertex
62
5
10
-41.750000
20
201.187500
0
SEQEND
5
253
100
AcDbEntity
8
1
0
LINE
5
254
100
AcDbEntity
8
1
100
AcDbLine
6
CONTINUOUS
62
5
10
-43.750000
20
205.250000
11
-43.750000
21
197.750000
0
POLYLINE
5
255
100
AcDbEntity
8
1
6
CONTINUOUS
62
5
100
AcDb2dPolyline
66
1
10
0.0
20
0.0
30
0.0
70
0
0
VERTEX
5
256
100
AcDbEntity
8
1
100
AcDbVertex
100
AcDb2dVertex
62
5
10
-57.250000
20
214.500000
0
VERTEX
5
257
100
AcDbEntity
8
1
100
AcDbVertex
100
AcDb2dVertex
62
5
10
-56.500000
20
208.500000
0
VERTEX
5
258
100
AcDbEntity
8
1
100
AcDbVertex
100
AcDb2dVertex
62
5
10
-55.750000
20
214.500000
0
VERTEX
5
259
100
AcDbEntity
8
1
100
AcDbVertex
100
AcDb2dVertex
62
5
10
-55.000000
20
208.500000
0
VERTEX
5
25a
100
AcDbEntity
8
1
100
AcDbVertex
100
AcDb2dVertex
62
5
10
-54.250000
20
214.500000
0
SEQEND
5
25b
100
AcDbEntity
8
1
0
LINE
5
25c
100
AcDbEntity
8
1
100
AcDbLine
6
CONTINUOUS
62
5
10
-52.500000
20
214.500000
11
-51.000000
21
214.500000
0
LINE
5
25d
100
AcDbEntity
8
1
100
AcDbLine
6
CONTINUOUS
62
5
10
-51.750000
20
214.500000
11
-51.750000
21
208.500000
0
LINE
5
25e
100
AcDbEntity
8
1
100
AcDbLine
6
CONTINUOUS
62
5
10
-52.500000
20
208.500000
11
-51.000000
21
208.500000
0
LINE
5
25f
100
AcDbEntity
8
1
100
AcDbLine
6
CONTINUOUS
62
5
10
-49.000000
20
214.500000
11
-49.000000
21
208.500000
0
POLYLINE
5
260
100
AcDbEntity
8
1
6
CONTINUOUS
62
5
100
AcDb2dPolyline
66
1
10
0.0
20
0.0
30
0.0
70
0
0
VERTEX
5
261
100
AcDbEntity
8
1
100
AcDbVertex
100
AcDb2dVertex
62
5
10
-49.000000
20
214.500000
0
VERTEX
5
262
100
AcDbEntity
8
1
100
AcDbVertex
100
AcDb2dVertex
62
5
10
-47.750000
20
214.500000
0
VERTEX
5
263
100
AcDbEntity
8
1
100
AcDbVertex
100
AcDb2dVertex
62
5
10
-47.250000
20
214.250000
0
VERTEX
5
264
100
AcDbEntity
8
1
100
AcDbVertex
100
AcDb2dVertex
62
5
10
-46.750000
20
213.750000
0
VERTEX
5
265
100
AcDbEntity
8
1
100
AcDbVertex
100
AcDb2dVertex
62
5
10
-46.500000
20
212.750000
0
VERTEX
5
266
100
AcDbEntity
8
1
100
AcDbVertex
100
AcDb2dVertex
62
5
10
-46.500000
20
210.250000
0
VERTEX
5
267
100
AcDbEntity
8
1
100
AcDbVertex
100
AcDb2dVertex
62
5
10
-46.750000
20
209.250000
0
VERTEX
5
268
100
AcDbEntity
8
1
100
AcDbVertex
100
AcDb2dVertex
62
5
10
-47.250000
20
208.750000
0
VERTEX
5
269
100
AcDbEntity
8
1
100
AcDbVertex
100
AcDb2dVertex
62
5
10
-47.750000
20
208.500000
0
VERTEX
5
26a
100
AcDbEntity
8
1
100
AcDbVertex
100
AcDb2dVertex
62
5
10
-49.000000
20
208.500000
0
SEQEND
5
26b
100
AcDbEntity
8
1
0
POLYLINE
5
26c
100
AcDbEntity
8
1
6
CONTINUOUS
62
5
100
AcDb2dPolyline
66
1
10
0.0
20
0.0
30
0.0
70
0
0
VERTEX
5
26d
100
AcDbEntity
8
1
100
AcDbVertex
100
AcDb2dVertex
62
5
10
-42.500000
20
214.500000
0
VERTEX
5
26e
100
AcDbEntity
8
1
100
AcDbVertex
100
AcDb2dVertex
62
5
10
-45.000000
20
214.500000
0
VERTEX
5
26f
100
AcDbEntity
8
1
100
AcDbVertex
100
AcDb2dVertex
62
5
10
-45.000000
20
208.500000
0
VERTEX
5
270
100
AcDbEntity
8
1
100
AcDbVertex
100
AcDb2dVertex
62
5
10
-42.250000
20
208.500000
0
SEQEND
5
271
100
AcDbEntity
8
1
0
LINE
5
272
100
AcDbEntity
8
1
100
AcDbLine
6
CONTINUOUS
62
5
10
-45.000000
20
211.500000
11
-42.750000
21
211.500000
0
POLYLINE
5
273
100
AcDbEntity
8
1
6
CONTINUOUS
62
5
100
AcDb2dPolyline
66
1
10
0.0
20
0.0
30
0.0
70
0
0
VERTEX
5
274
100
AcDbEntity
8
1
100
AcDbVertex
100
AcDb2dVertex
62
5
10
-76.250000
20
202.437500
0
VERTEX
5
275
100
AcDbEntity
8
1
100
AcDbVertex
100
AcDb2dVertex
62
5
10
-77.250000
20
200.250000
0
VERTEX
5
276
100
AcDbEntity
8
1
100
AcDbVertex
100
AcDb2dVertex
62
5
10
-78.250000
20
199.000000
0
SEQEND
5
277
100
AcDbEntity
8
1
0
POLYLINE
5
278
100
AcDbEntity
8
1
6
CONTINUOUS
62
5
100
AcDb2dPolyline
66
1
10
0.0
20
0.0
30
0.0
70
0
0
VERTEX
5
279
100
AcDbEntity
8
1
100
AcDbVertex
100
AcDb2dVertex
62
5
10
-74.250000
20
202.437500
0
VERTEX
5
27a
100
AcDbEntity
8
1
100
AcDbVertex
100
AcDb2dVertex
62
5
10
-73.000000
20
200.562500
0
VERTEX
5
27b
100
AcDbEntity
8
1
100
AcDbVertex
100
AcDb2dVertex
62
5
10
-72.500000
20
199.000000
0
SEQEND
5
27c
100
AcDbEntity
8
1
0
POLYLINE
5
27d
100
AcDbEntity
8
1
6
CONTINUOUS
62
5
100
AcDb2dPolyline
66
1
10
0.0
20
0.0
30
0.0
70
1
0
VERTEX
5
27e
100
AcDbEntity
8
1
100
AcDbVertex
100
AcDb2dVertex
62
5
10
-72.750000
20
204.312500
0
VERTEX
5
27f
100
AcDbEntity
8
1
100
AcDbVertex
100
AcDb2dVertex
62
5
10
-72.250000
20
204.312500
0
VERTEX
5
280
100
AcDbEntity
8
1
100
AcDbVertex
100
AcDb2dVertex
62
5
10
-72.000000
20
204.000000
0
VERTEX
5
281
100
AcDbEntity
8
1
100
AcDbVertex
100
AcDb2dVertex
62
5
10
-72.000000
20
203.375000
0
VERTEX
5
282
100
AcDbEntity
8
1
100
AcDbVertex
100
AcDb2dVertex
62
5
10
-72.250000
20
203.062500
0
VERTEX
5
283
100
AcDbEntity
8
1
100
AcDbVertex
100
AcDb2dVertex
62
5
10
-72.750000
20
203.062500
0
VERTEX
5
284
100
AcDbEntity
8
1
100
AcDbVertex
100
AcDb2dVertex
62
5
10
-73.000000
20
203.375000
0
VERTEX
5
285
100
AcDbEntity
8
1
100
AcDbVertex
100
AcDb2dVertex
62
5
10
-73.000000
20
204.000000
0
VERTEX
5
286
100
AcDbEntity
8
1
100
AcDbVertex
100
AcDb2dVertex
62
5
10
-72.750000
20
204.312500
0
SEQEND
5
287
100
AcDbEntity
8
1
0
POLYLINE
5
288
100
AcDbEntity
8
1
6
CONTINUOUS
62
5
100
AcDb2dPolyline
66
1
10
0.0
20
0.0
30
0.0
70
0
0
VERTEX
5
289
100
AcDbEntity
8
1
100
AcDbVertex
100
AcDb2dVertex
62
5
10
-65.250000
20
204.937500
0
VERTEX
5
28a
100
AcDbEntity
8
1
100
AcDbVertex
100
AcDb2dVertex
62
5
10
-67.250000
20
202.437500
0
VERTEX
5
28b
100
AcDbEntity
8
1
100
AcDbVertex
100
AcDb2dVertex
62
5
10
-69.500000
20
200.875000
0
SEQEND
5
28c
100
AcDbEntity
8
1
0
LINE
5
28d
100
AcDbEntity
8
1
100
AcDbLine
6
CONTINUOUS
62
5
10
-66.750000
20
203.062500
11
-66.750000
21
197.750000
0
LINE
5
28e
100
AcDbEntity
8
1
100
AcDbLine
6
CONTINUOUS
62
5
10
-74.500000
20
214.750000
11
-77.000000
21
208.250000
0
POLYLINE
5
28f
100
AcDbEntity
8
1
6
CONTINUOUS
62
5
100
AcDb2dPolyline
66
1
10
0.0
20
0.0
30
0.0
70
0
0
VERTEX
5
290
100
AcDbEntity
8
1
100
AcDbVertex
100
AcDb2dVertex
62
5
10
-66.750000
20
214.500000
0
VERTEX
5
291
100
AcDbEntity
8
1
100
AcDbVertex
100
AcDb2dVertex
62
5
10
-66.750000
20
210.000000
0
VERTEX
5
292
100
AcDbEntity
8
1
100
AcDbVertex
100
AcDb2dVertex
62
5
10
-67.000000
20
209.000000
0
VERTEX
5
293
100
AcDbEntity
8
1
100
AcDbVertex
100
AcDb2dVertex
62
5
10
-67.500000
20
208.500000
0
VERTEX
5
294
100
AcDbEntity
8
1
100
AcDbVertex
100
AcDb2dVertex
62
5
10
-68.250000
20
208.500000
0
VERTEX
5
295
100
AcDbEntity
8
1
100
AcDbVertex
100
AcDb2dVertex
62
5
10
-68.750000
20
209.000000
0
VERTEX
5
296
100
AcDbEntity
8
1
100
AcDbVertex
100
AcDb2dVertex
62
5
10
-69.000000
20
210.000000
0
SEQEND
5
297
100
AcDbEntity
8
1
0
POLYLINE
5
298
100
AcDbEntity
8
1
6
CONTINUOUS
62
5
100
AcDb2dPolyline
66
1
10
0.0
20
0.0
30
0.0
70
0
0
VERTEX
5
299
100
AcDbEntity
8
1
100
AcDbVertex
100
AcDb2dVertex
62
5
10
-62.750000
20
211.500000
0
VERTEX
5
29a
100
AcDbEntity
8
1
100
AcDbVertex
100
AcDb2dVertex
62
5
10
-62.250000
20
212.000000
0
VERTEX
5
29b
100
AcDbEntity
8
1
100
AcDbVertex
100
AcDb2dVertex
62
5
10
-62.000000
20
212.000000
0
VERTEX
5
29c
100
AcDbEntity
8
1
100
AcDbVertex
100
AcDb2dVertex
62
5
10
-61.500000
20
211.500000
0
VERTEX
5
29d
100
AcDbEntity
8
1
100
AcDbVertex
100
AcDb2dVertex
62
5
10
-61.500000
20
211.250000
0
VERTEX
5
29e
100
AcDbEntity
8
1
100
AcDbVertex
100
AcDb2dVertex
62
5
10
-62.000000
20
210.750000
0
VERTEX
5
29f
100
AcDbEntity
8
1
100
AcDbVertex
100
AcDb2dVertex
62
5
10
-62.250000
20
210.750000
0
VERTEX
5
2a0
100
AcDbEntity
8
1
100
AcDbVertex
100
AcDb2dVertex
62
5
10
-62.750000
20
211.250000
0
VERTEX
5
2a1
100
AcDbEntity
8
1
100
AcDbVertex
100
AcDb2dVertex
62
5
10
-62.750000
20
211.500000
0
VERTEX
5
2a2
100
AcDbEntity
8
1
100
AcDbVertex
100
AcDb2dVertex
62
5
10
-61.500000
20
211.500000
0
SEQEND
5
2a3
100
AcDbEntity
8
1
0
LINE
5
2a4
100
AcDbEntity
8
1
100
AcDbLine
6
CONTINUOUS
62
5
10
-61.500000
20
211.250000
11
-62.750000
21
211.250000
0
LINE
5
2a5
100
AcDbEntity
8
1
100
AcDbLine
6
CONTINUOUS
62
5
10
-62.500000
20
211.000000
11
-61.750000
21
211.000000
0
LINE
5
2a6
100
AcDbEntity
8
1
100
AcDbLine
6
CONTINUOUS
62
5
10
-61.750000
20
211.750000
11
-62.500000
21
211.750000
0
POLYLINE
5
2a7
100
AcDbEntity
8
1
6
CONTINUOUS
62
5
100
AcDb2dPolyline
66
1
10
0.0
20
0.0
30
0.0
70
1
0
VERTEX
5
2a8
100
AcDbEntity
8
1
100
AcDbVertex
100
AcDb2dVertex
62
5
10
-61.000000
20
199.000000
0
VERTEX
5
2a9
100
AcDbEntity
8
1
100
AcDbVertex
100
AcDb2dVertex
62
5
10
-61.000000
20
204.000000
0
VERTEX
5
2aa
100
AcDbEntity
8
1
100
AcDbVertex
100
AcDb2dVertex
62
5
10
-57.000000
20
204.000000
0
VERTEX
5
2ab
100
AcDbEntity
8
1
100
AcDbVertex
100
AcDb2dVertex
62
5
10
-57.000000
20
199.000000
0
VERTEX
5
2ac
100
AcDbEntity
8
1
100
AcDbVertex
100
AcDb2dVertex
62
5
10
-61.000000
20
199.000000
0
SEQEND
5
2ad
100
AcDbEntity
8
1
0
POLYLINE
5
2ae
100
AcDbEntity
8
1
6
CONTINUOUS
62
5
100
AcDb2dPolyline
66
1
10
0.0
20
0.0
30
0.0
70
0
0
VERTEX
5
2af
100
AcDbEntity
8
1
100
AcDbVertex
100
AcDb2dVertex
62
5
10
-59.500000
20
194.000000
0
VERTEX
5
2b0
100
AcDbEntity
8
1
100
AcDbVertex
100
AcDb2dVertex
62
5
10
-59.000000
20
194.000000
0
VERTEX
5
2b1
100
AcDbEntity
8
1
100
AcDbVertex
100
AcDb2dVertex
62
5
10
-59.000000
20
193.375000
0
VERTEX
5
2b2
100
AcDbEntity
8
1
100
AcDbVertex
100
AcDb2dVertex
62
5
10
-59.500000
20
193.375000
0
VERTEX
5
2b3
100
AcDbEntity
8
1
100
AcDbVertex
100
AcDb2dVertex
62
5
10
-59.500000
20
194.000000
0
VERTEX
5
2b4
100
AcDbEntity
8
1
100
AcDbVertex
100
AcDb2dVertex
62
5
10
-59.000000
20
193.375000
0
SEQEND
5
2b5
100
AcDbEntity
8
1
0
LINE
5
2b6
100
AcDbEntity
8
1
100
AcDbLine
6
CONTINUOUS
62
5
10
-59.000000
20
194.000000
11
-59.500000
21
193.375000
0
POLYLINE
5
2b7
100
AcDbEntity
8
1
6
CONTINUOUS
62
5
100
AcDb2dPolyline
66
1
10
0.0
20
0.0
30
0.0
70
0
0
VERTEX
5
2b8
100
AcDbEntity
8
1
100
AcDbVertex
100
AcDb2dVertex
62
5
10
-59.500000
20
189.312500
0
VERTEX
5
2b9
100
AcDbEntity
8
1
100
AcDbVertex
100
AcDb2dVertex
62
5
10
-59.000000
20
189.312500
0
VERTEX
5
2ba
100
AcDbEntity
8
1
100
AcDbVertex
100
AcDb2dVertex
62
5
10
-59.000000
20
188.687500
0
VERTEX
5
2bb
100
AcDbEntity
8
1
100
AcDbVertex
100
AcDb2dVertex
62
5
10
-59.500000
20
188.687500
0
VERTEX
5
2bc
100
AcDbEntity
8
1
100
AcDbVertex
100
AcDb2dVertex
62
5
10
-59.500000
20
189.312500
0
VERTEX
5
2bd
100
AcDbEntity
8
1
100
AcDbVertex
100
AcDb2dVertex
62
5
10
-59.000000
20
188.687500
0
SEQEND
5
2be
100
AcDbEntity
8
1
0
LINE
5
2bf
100
AcDbEntity
8
1
100
AcDbLine
6
CONTINUOUS
62
5
10
-59.000000
20
189.312500
11
-59.500000
21
188.687500
0
LINE
5
2c0
100
AcDbEntity
8
1
100
AcDbLine
6
CONTINUOUS
62
5
10
-53.750000
20
194.625000
11
-48.750000
21
194.625000
0
LINE
5
2c1
100
AcDbEntity
8
1
100
AcDbLine
6
CONTINUOUS
62
5
10
-54.500000
20
192.437500
11
-48.000000
21
192.437500
0
LINE
5
2c2
100
AcDbEntity
8
1
100
AcDbLine
6
CONTINUOUS
62
5
10
-51.250000
20
195.875000
11
-51.250000
21
192.437500
0
POLYLINE
5
2c3
100
AcDbEntity
8
1
6
CONTINUOUS
62
5
100
AcDb2dPolyline
66
1
10
0.0
20
0.0
30
0.0
70
0
0
VERTEX
5
2c4
100
AcDbEntity
8
1
100
AcDbVertex
100
AcDb2dVertex
62
5
10
-52.250000
20
192.437500
0
VERTEX
5
2c5
100
AcDbEntity
8
1
100
AcDbVertex
100
AcDb2dVertex
62
5
10
-52.250000
20
189.625000
0
VERTEX
5
2c6
100
AcDbEntity
8
1
100
AcDbVertex
100
AcDb2dVertex
62
5
10
-52.500000
20
188.687500
0
VERTEX
5
2c7
100
AcDbEntity
8
1
100
AcDbVertex
100
AcDb2dVertex
62
5
10
-53.000000
20
188.062500
0
VERTEX
5
2c8
100
AcDbEntity
8
1
100
AcDbVertex
100
AcDb2dVertex
62
5
10
-53.500000
20
187.437500
0
SEQEND
5
2c9
100
AcDbEntity
8
1
0
POLYLINE
5
2ca
100
AcDbEntity
8
1
6
CONTINUOUS
62
5
100
AcDb2dPolyline
66
1
10
0.0
20
0.0
30
0.0
70
0
0
VERTEX
5
2cb
100
AcDbEntity
8
1
100
AcDbVertex
100
AcDb2dVertex
62
5
10
-50.250000
20
192.437500
0
VERTEX
5
2cc
100
AcDbEntity
8
1
100
AcDbVertex
100
AcDb2dVertex
62
5
10
-50.250000
20
187.125000
0
VERTEX
5
2cd
100
AcDbEntity
8
1
100
AcDbVertex
100
AcDb2dVertex
62
5
10
-51.000000
20
188.062500
0
SEQEND
5
2ce
100
AcDbEntity
8
1
0
POLYLINE
5
2cf
100
AcDbEntity
8
1
6
CONTINUOUS
62
5
100
AcDb2dPolyline
66
1
10
0.0
20
0.0
30
0.0
70
0
0
VERTEX
5
2d0
100
AcDbEntity
8
1
100
AcDbVertex
100
AcDb2dVertex
62
5
10
-53.500000
20
191.500000
0
VERTEX
5
2d1
100
AcDbEntity
8
1
100
AcDbVertex
100
AcDb2dVertex
62
5
10
-54.000000
20
189.937500
0
VERTEX
5
2d2
100
AcDbEntity
8
1
100
AcDbVertex
100
AcDb2dVertex
62
5
10
-54.750000
20
189.000000
0
SEQEND
5
2d3
100
AcDbEntity
8
1
0
LINE
5
2d4
100
AcDbEntity
8
1
100
AcDbLine
6
CONTINUOUS
62
5
10
-49.500000
20
191.187500
11
-48.000000
21
189.312500
0
LINE
5
2d5
100
AcDbEntity
8
1
100
AcDbLine
6
CONTINUOUS
62
5
10
-78.500000
20
193.375000
11
-78.500000
21
190.875000
0
LINE
5
2d6
100
AcDbEntity
8
1
100
AcDbLine
6
CONTINUOUS
62
5
10
-76.000000
20
193.687500
11
-77.000000
21
192.125000
0
POLYLINE
5
2d7
100
AcDbEntity
8
1
6
CONTINUOUS
62
5
100
AcDb2dPolyline
66
1
10
0.0
20
0.0
30
0.0
70
0
0
VERTEX
5
2d8
100
AcDbEntity
8
1
100
AcDbVertex
100
AcDb2dVertex
62
5
10
-77.250000
20
195.250000
0
VERTEX
5
2d9
100
AcDbEntity
8
1
100
AcDbVertex
100
AcDb2dVertex
62
5
10
-77.250000
20
189.937500
0
VERTEX
5
2da
100
AcDbEntity
8
1
100
AcDbVertex
100
AcDb2dVertex
62
5
10
-78.000000
20
188.062500
0
VERTEX
5
2db
100
AcDbEntity
8
1
100
AcDbVertex
100
AcDb2dVertex
62
5
10
-78.750000
20
187.437500
0
SEQEND
5
2dc
100
AcDbEntity
8
1
0
LINE
5
2dd
100
AcDbEntity
8
1
100
AcDbLine
6
CONTINUOUS
62
5
10
-77.250000
20
189.937500
11
-76.000000
21
188.062500
0
LINE
5
2de
100
AcDbEntity
8
1
100
AcDbLine
6
CONTINUOUS
62
5
10
-76.000000
20
194.625000
11
-71.500000
21
194.625000
0
POLYLINE
5
2df
100
AcDbEntity
8
1
6
CONTINUOUS
62
5
100
AcDb2dPolyline
66
1
10
0.0
20
0.0
30
0.0
70
0
0
VERTEX
5
2e0
100
AcDbEntity
8
1
100
AcDbVertex
100
AcDb2dVertex
62
5
10
-73.500000
20
194.625000
0
VERTEX
5
2e1
100
AcDbEntity
8
1
100
AcDbVertex
100
AcDb2dVertex
62
5
10
-73.500000
20
187.750000
0
VERTEX
5
2e2
100
AcDbEntity
8
1
100
AcDbVertex
100
AcDb2dVertex
62
5
10
-74.000000
20
187.125000
0
VERTEX
5
2e3
100
AcDbEntity
8
1
100
AcDbVertex
100
AcDb2dVertex
62
5
10
-75.000000
20
187.125000
0
SEQEND
5
2e4
100
AcDbEntity
8
1
0
POLYLINE
5
2e5
100
AcDbEntity
8
1
6
CONTINUOUS
62
5
100
AcDb2dPolyline
66
1
10
0.0
20
0.0
30
0.0
70
0
0
VERTEX
5
2e6
100
AcDbEntity
8
1
100
AcDbVertex
100
AcDb2dVertex
62
5
10
-67.750000
20
195.875000
0
VERTEX
5
2e7
100
AcDbEntity
8
1
100
AcDbVertex
100
AcDb2dVertex
62
5
10
-68.500000
20
194.625000
0
VERTEX
5
2e8
100
AcDbEntity
8
1
100
AcDbVertex
100
AcDb2dVertex
62
5
10
-69.250000
20
193.687500
0
VERTEX
5
2e9
100
AcDbEntity
8
1
100
AcDbVertex
100
AcDb2dVertex
62
5
10
-70.250000
20
192.750000
0
SEQEND
5
2ea
100
AcDbEntity
8
1
0
POLYLINE
5
2eb
100
AcDbEntity
8
1
6
CONTINUOUS
62
5
100
AcDb2dPolyline
66
1
10
0.0
20
0.0
30
0.0
70
0
0
VERTEX
5
2ec
100
AcDbEntity
8
1
100
AcDbVertex
100
AcDb2dVertex
62
5
10
-68.000000
20
195.250000
0
VERTEX
5
2ed
100
AcDbEntity
8
1
100
AcDbVertex
100
AcDb2dVertex
62
5
10
-65.750000
20
195.250000
0
VERTEX
5
2ee
100
AcDbEntity
8
1
100
AcDbVertex
100
AcDb2dVertex
62
5
10
-67.000000
20
193.375000
0
SEQEND
5
2ef
100
AcDbEntity
8
1
0
POLYLINE
5
2f0
100
AcDbEntity
8
1
6
CONTINUOUS
62
5
100
AcDb2dPolyline
66
1
10
0.0
20
0.0
30
0.0
70
0
0
VERTEX
5
2f1
100
AcDbEntity
8
1
100
AcDbVertex
100
AcDb2dVertex
62
5
10
-69.250000
20
193.375000
0
VERTEX
5
2f2
100
AcDbEntity
8
1
100
AcDbVertex
100
AcDb2dVertex
62
5
10
-64.750000
20
193.375000
0
VERTEX
5
2f3
100
AcDbEntity
8
1
100
AcDbVertex
100
AcDb2dVertex
62
5
10
-64.750000
20
190.562500
0
VERTEX
5
2f4
100
AcDbEntity
8
1
100
AcDbVertex
100
AcDb2dVertex
62
5
10
-69.250000
20
190.562500
0
SEQEND
5
2f5
100
AcDbEntity
8
1
0
LINE
5
2f6
100
AcDbEntity
8
1
100
AcDbLine
6
CONTINUOUS
62
5
10
-67.000000
20
193.375000
11
-67.000000
21
190.562500
0
POLYLINE
5
2f7
100
AcDbEntity
8
1
6
CONTINUOUS
62
5
100
AcDb2dPolyline
66
1
10
0.0
20
0.0
30
0.0
70
0
0
VERTEX
5
2f8
100
AcDbEntity
8
1
100
AcDbVertex
100
AcDb2dVertex
62
5
10
-69.250000
20
193.375000
0
VERTEX
5
2f9
100
AcDbEntity
8
1
100
AcDbVertex
100
AcDb2dVertex
62
5
10
-69.250000
20
188.062500
0
VERTEX
5
2fa
100
AcDbEntity
8
1
100
AcDbVertex
100
AcDb2dVertex
62
5
10
-68.750000
20
187.437500
0
VERTEX
5
2fb
100
AcDbEntity
8
1
100
AcDbVertex
100
AcDb2dVertex
62
5
10
-63.750000
20
187.437500
0
VERTEX
5
2fc
100
AcDbEntity
8
1
100
AcDbVertex
100
AcDb2dVertex
62
5
10
-63.750000
20
188.687500
0
SEQEND
5
2fd
100
AcDbEntity
8
1
0
LINE
5
2fe
100
AcDbEntity
8
1
100
AcDbLine
6
CONTINUOUS
62
5
10
-94.500000
20
202.750000
11
-92.500000
21
202.750000
0
LINE
5
2ff
100
AcDbEntity
8
1
100
AcDbLine
6
CONTINUOUS
62
5
10
-94.750000
20
198.375000
11
-92.500000
21
199.625000
0
LINE
5
300
100
AcDbEntity
8
1
100
AcDbLine
6
CONTINUOUS
62
5
10
-93.500000
20
205.250000
11
-93.500000
21
199.000000
0
POLYLINE
5
301
100
AcDbEntity
8
1
6
CONTINUOUS
62
5
100
AcDb2dPolyline
66
1
10
0.0
20
0.0
30
0.0
70
1
0
VERTEX
5
302
100
AcDbEntity
8
1
100
AcDbVertex
100
AcDb2dVertex
62
5
10
-91.500000
20
204.937500
0
VERTEX
5
303
100
AcDbEntity
8
1
100
AcDbVertex
100
AcDb2dVertex
62
5
10
-91.500000
20
201.500000
0
VERTEX
5
304
100
AcDbEntity
8
1
100
AcDbVertex
100
AcDb2dVertex
62
5
10
-88.500000
20
201.500000
0
VERTEX
5
305
100
AcDbEntity
8
1
100
AcDbVertex
100
AcDb2dVertex
62
5
10
-88.500000
20
204.937500
0
VERTEX
5
306
100
AcDbEntity
8
1
100
AcDbVertex
100
AcDb2dVertex
62
5
10
-91.500000
20
204.937500
0
SEQEND
5
307
100
AcDbEntity
8
1
0
LINE
5
308
100
AcDbEntity
8
1
100
AcDbLine
6
CONTINUOUS
62
5
10
-91.500000
20
203.375000
11
-88.500000
21
203.375000
0
LINE
5
309
100
AcDbEntity
8
1
100
AcDbLine
6
CONTINUOUS
62
5
10
-90.000000
20
204.937500
11
-90.000000
21
197.750000
0
LINE
5
30a
100
AcDbEntity
8
1
100
AcDbLine
6
CONTINUOUS
62
5
10
-92.000000
20
199.937500
11
-88.000000
21
199.937500
0
LINE
5
30b
100
AcDbEntity
8
1
100
AcDbLine
6
CONTINUOUS
62
5
10
-92.750000
20
197.750000
11
-87.500000
21
197.750000
0
POLYLINE
5
30c
100
AcDbEntity
8
1
6
CONTINUOUS
62
5
100
AcDb2dPolyline
66
1
10
0.0
20
0.0
30
0.0
70
0
0
VERTEX
5
30d
100
AcDbEntity
8
1
100
AcDbVertex
100
AcDb2dVertex
62
5
10
-97.250000
20
214.500000
0
VERTEX
5
30e
100
AcDbEntity
8
1
100
AcDbVertex
100
AcDb2dVertex
62
5
10
-96.500000
20
208.500000
0
VERTEX
5
30f
100
AcDbEntity
8
1
100
AcDbVertex
100
AcDb2dVertex
62
5
10
-95.750000
20
214.500000
0
VERTEX
5
310
100
AcDbEntity
8
1
100
AcDbVertex
100
AcDb2dVertex
62
5
10
-95.000000
20
208.500000
0
VERTEX
5
311
100
AcDbEntity
8
1
100
AcDbVertex
100
AcDb2dVertex
62
5
10
-94.250000
20
214.500000
0
SEQEND
5
312
100
AcDbEntity
8
1
0
LINE
5
313
100
AcDbEntity
8
1
100
AcDbLine
6
CONTINUOUS
62
5
10
-92.500000
20
214.500000
11
-91.000000
21
214.500000
0
LINE
5
314
100
AcDbEntity
8
1
100
AcDbLine
6
CONTINUOUS
62
5
10
-91.750000
20
214.500000
11
-91.750000
21
208.500000
0
LINE
5
315
100
AcDbEntity
8
1
100
AcDbLine
6
CONTINUOUS
62
5
10
-92.500000
20
208.500000
11
-91.000000
21
208.500000
0
LINE
5
316
100
AcDbEntity
8
1
100
AcDbLine
6
CONTINUOUS
62
5
10
-89.000000
20
214.500000
11
-89.000000
21
208.500000
0
POLYLINE
5
317
100
AcDbEntity
8
1
6
CONTINUOUS
62
5
100
AcDb2dPolyline
66
1
10
0.0
20
0.0
30
0.0
70
0
0
VERTEX
5
318
100
AcDbEntity
8
1
100
AcDbVertex
100
AcDb2dVertex
62
5
10
-89.000000
20
214.500000
0
VERTEX
5
319
100
AcDbEntity
8
1
100
AcDbVertex
100
AcDb2dVertex
62
5
10
-87.750000
20
214.500000
0
VERTEX
5
31a
100
AcDbEntity
8
1
100
AcDbVertex
100
AcDb2dVertex
62
5
10
-87.250000
20
214.250000
0
VERTEX
5
31b
100
AcDbEntity
8
1
100
AcDbVertex
100
AcDb2dVertex
62
5
10
-86.750000
20
213.750000
0
VERTEX
5
31c
100
AcDbEntity
8
1
100
AcDbVertex
100
AcDb2dVertex
62
5
10
-86.500000
20
212.750000
0
VERTEX
5
31d
100
AcDbEntity
8
1
100
AcDbVertex
100
AcDb2dVertex
62
5
10
-86.500000
20
210.250000
0
VERTEX
5
31e
100
AcDbEntity
8
1
100
AcDbVertex
100
AcDb2dVertex
62
5
10
-86.750000
20
209.250000
0
VERTEX
5
31f
100
AcDbEntity
8
1
100
AcDbVertex
100
AcDb2dVertex
62
5
10
-87.250000
20
208.750000
0
VERTEX
5
320
100
AcDbEntity
8
1
100
AcDbVertex
100
AcDb2dVertex
62
5
10
-87.750000
20
208.500000
0
VERTEX
5
321
100
AcDbEntity
8
1
100
AcDbVertex
100
AcDb2dVertex
62
5
10
-89.000000
20
208.500000
0
SEQEND
5
322
100
AcDbEntity
8
1
0
POLYLINE
5
323
100
AcDbEntity
8
1
6
CONTINUOUS
62
5
100
AcDb2dPolyline
66
1
10
0.0
20
0.0
30
0.0
70
0
0
VERTEX
5
324
100
AcDbEntity
8
1
100
AcDbVertex
100
AcDb2dVertex
62
5
10
-82.500000
20
214.500000
0
VERTEX
5
325
100
AcDbEntity
8
1
100
AcDbVertex
100
AcDb2dVertex
62
5
10
-85.000000
20
214.500000
0
VERTEX
5
326
100
AcDbEntity
8
1
100
AcDbVertex
100
AcDb2dVertex
62
5
10
-85.000000
20
208.500000
0
VERTEX
5
327
100
AcDbEntity
8
1
100
AcDbVertex
100
AcDb2dVertex
62
5
10
-82.250000
20
208.500000
0
SEQEND
5
328
100
AcDbEntity
8
1
0
LINE
5
329
100
AcDbEntity
8
1
100
AcDbLine
6
CONTINUOUS
62
5
10
-85.000000
20
211.500000
11
-82.750000
21
211.500000
0
POLYLINE
5
32a
100
AcDbEntity
8
1
6
CONTINUOUS
62
5
100
AcDb2dPolyline
66
1
10
0.0
20
0.0
30
0.0
70
0
0
VERTEX
5
32b
100
AcDbEntity
8
1
100
AcDbVertex
100
AcDb2dVertex
62
5
10
-106.750000
20
214.500000
0
VERTEX
5
32c
100
AcDbEntity
8
1
100
AcDbVertex
100
AcDb2dVertex
62
5
10
-106.750000
20
210.000000
0
VERTEX
5
32d
100
AcDbEntity
8
1
100
AcDbVertex
100
AcDb2dVertex
62
5
10
-107.000000
20
209.000000
0
VERTEX
5
32e
100
AcDbEntity
8
1
100
AcDbVertex
100
AcDb2dVertex
62
5
10
-107.500000
20
208.500000
0
VERTEX
5
32f
100
AcDbEntity
8
1
100
AcDbVertex
100
AcDb2dVertex
62
5
10
-108.250000
20
208.500000
0
VERTEX
5
330
100
AcDbEntity
8
1
100
AcDbVertex
100
AcDb2dVertex
62
5
10
-108.750000
20
209.000000
0
VERTEX
5
331
100
AcDbEntity
8
1
100
AcDbVertex
100
AcDb2dVertex
62
5
10
-109.000000
20
210.000000
0
SEQEND
5
332
100
AcDbEntity
8
1
0
POLYLINE
5
333
100
AcDbEntity
8
1
6
CONTINUOUS
62
5
100
AcDb2dPolyline
66
1
10
0.0
20
0.0
30
0.0
70
0
0
VERTEX
5
334
100
AcDbEntity
8
1
100
AcDbVertex
100
AcDb2dVertex
62
5
10
-102.750000
20
211.500000
0
VERTEX
5
335
100
AcDbEntity
8
1
100
AcDbVertex
100
AcDb2dVertex
62
5
10
-102.250000
20
212.000000
0
VERTEX
5
336
100
AcDbEntity
8
1
100
AcDbVertex
100
AcDb2dVertex
62
5
10
-102.000000
20
212.000000
0
VERTEX
5
337
100
AcDbEntity
8
1
100
AcDbVertex
100
AcDb2dVertex
62
5
10
-101.500000
20
211.500000
0
VERTEX
5
338
100
AcDbEntity
8
1
100
AcDbVertex
100
AcDb2dVertex
62
5
10
-101.500000
20
211.250000
0
VERTEX
5
339
100
AcDbEntity
8
1
100
AcDbVertex
100
AcDb2dVertex
62
5
10
-102.000000
20
210.750000
0
VERTEX
5
33a
100
AcDbEntity
8
1
100
AcDbVertex
100
AcDb2dVertex
62
5
10
-102.250000
20
210.750000
0
VERTEX
5
33b
100
AcDbEntity
8
1
100
AcDbVertex
100
AcDb2dVertex
62
5
10
-102.750000
20
211.250000
0
VERTEX
5
33c
100
AcDbEntity
8
1
100
AcDbVertex
100
AcDb2dVertex
62
5
10
-102.750000
20
211.500000
0
VERTEX
5
33d
100
AcDbEntity
8
1
100
AcDbVertex
100
AcDb2dVertex
62
5
10
-101.500000
20
211.500000
0
SEQEND
5
33e
100
AcDbEntity
8
1
0
LINE
5
33f
100
AcDbEntity
8
1
100
AcDbLine
6
CONTINUOUS
62
5
10
-101.500000
20
211.250000
11
-102.750000
21
211.250000
0
LINE
5
340
100
AcDbEntity
8
1
100
AcDbLine
6
CONTINUOUS
62
5
10
-102.500000
20
211.000000
11
-101.750000
21
211.000000
0
LINE
5
341
100
AcDbEntity
8
1
100
AcDbLine
6
CONTINUOUS
62
5
10
-101.750000
20
211.750000
11
-102.500000
21
211.750000
0
LINE
5
342
100
AcDbEntity
8
1
100
AcDbLine
6
CONTINUOUS
62
5
10
-91.250000
20
195.875000
11
-91.250000
21
191.187500
0
LINE
5
343
100
AcDbEntity
8
1
100
AcDbLine
6
CONTINUOUS
62
5
10
-94.250000
20
194.312500
11
-88.250000
21
194.312500
0
LINE
5
344
100
AcDbEntity
8
1
100
AcDbLine
6
CONTINUOUS
62
5
10
-93.500000
20
192.750000
11
-88.750000
21
192.750000
0
LINE
5
345
100
AcDbEntity
8
1
100
AcDbLine
6
CONTINUOUS
62
5
10
-94.750000
20
191.187500
11
-87.500000
21
191.187500
0
POLYLINE
5
346
100
AcDbEntity
8
1
6
CONTINUOUS
62
5
100
AcDb2dPolyline
66
1
10
0.0
20
0.0
30
0.0
70
0
0
VERTEX
5
347
100
AcDbEntity
8
1
100
AcDbVertex
100
AcDb2dVertex
62
5
10
-91.250000
20
191.187500
0
VERTEX
5
348
100
AcDbEntity
8
1
100
AcDbVertex
100
AcDb2dVertex
62
5
10
-92.750000
20
189.625000
0
VERTEX
5
349
100
AcDbEntity
8
1
100
AcDbVertex
100
AcDb2dVertex
62
5
10
-94.750000
20
188.375000
0
SEQEND
5
34a
100
AcDbEntity
8
1
0
LINE
5
34b
100
AcDbEntity
8
1
100
AcDbLine
6
CONTINUOUS
62
5
10
-92.750000
20
189.625000
11
-92.750000
21
187.437500
0
POLYLINE
5
34c
100
AcDbEntity
8
1
6
CONTINUOUS
62
5
100
AcDb2dPolyline
66
1
10
0.0
20
0.0
30
0.0
70
0
0
VERTEX
5
34d
100
AcDbEntity
8
1
100
AcDbVertex
100
AcDb2dVertex
62
5
10
-94.000000
20
187.125000
0
VERTEX
5
34e
100
AcDbEntity
8
1
100
AcDbVertex
100
AcDb2dVertex
62
5
10
-92.750000
20
187.437500
0
VERTEX
5
34f
100
AcDbEntity
8
1
100
AcDbVertex
100
AcDb2dVertex
62
5
10
-91.750000
20
187.750000
0
VERTEX
5
350
100
AcDbEntity
8
1
100
AcDbVertex
100
AcDb2dVertex
62
5
10
-90.750000
20
188.375000
0
SEQEND
5
351
100
AcDbEntity
8
1
0
LINE
5
352
100
AcDbEntity
8
1
100
AcDbLine
6
CONTINUOUS
62
5
10
-88.500000
20
190.250000
11
-90.000000
21
189.000000
0
POLYLINE
5
353
100
AcDbEntity
8
1
6
CONTINUOUS
62
5
100
AcDb2dPolyline
66
1
10
0.0
20
0.0
30
0.0
70
0
0
VERTEX
5
354
100
AcDbEntity
8
1
100
AcDbVertex
100
AcDb2dVertex
62
5
10
-91.000000
20
190.562500
0
VERTEX
5
355
100
AcDbEntity
8
1
100
AcDbVertex
100
AcDb2dVertex
62
5
10
-90.000000
20
188.375000
0
VERTEX
5
356
100
AcDbEntity
8
1
100
AcDbVertex
100
AcDb2dVertex
62
5
10
-88.750000
20
187.437500
0
VERTEX
5
357
100
AcDbEntity
8
1
100
AcDbVertex
100
AcDb2dVertex
62
5
10
-87.750000
20
187.125000
0
SEQEND
5
358
100
AcDbEntity
8
1
0
LINE
5
359
100
AcDbEntity
8
1
100
AcDbLine
6
CONTINUOUS
62
5
10
-120.000000
20
217.500000
11
-120.000000
21
185.500000
0
LINE
5
35a
100
AcDbEntity
8
1
100
AcDbLine
6
CONTINUOUS
62
5
10
-97.500000
20
164.250000
11
-94.375000
21
164.250000
0
POLYLINE
5
35b
100
AcDbEntity
8
1
6
CONTINUOUS
62
5
100
AcDb2dPolyline
66
1
10
0.0
20
0.0
30
0.0
70
0
0
VERTEX
5
35c
100
AcDbEntity
8
1
100
AcDbVertex
100
AcDb2dVertex
62
5
10
-90.000000
20
168.000000
0
VERTEX
5
35d
100
AcDbEntity
8
1
100
AcDbVertex
100
AcDb2dVertex
62
5
10
-90.937500
20
168.000000
0
VERTEX
5
35e
100
AcDbEntity
8
1
100
AcDbVertex
100
AcDb2dVertex
62
5
10
-91.875000
20
167.687500
0
VERTEX
5
35f
100
AcDbEntity
8
1
100
AcDbVertex
100
AcDb2dVertex
62
5
10
-92.500000
20
166.437500
0
VERTEX
5
360
100
AcDbEntity
8
1
100
AcDbVertex
100
AcDb2dVertex
62
5
10
-92.500000
20
162.062500
0
VERTEX
5
361
100
AcDbEntity
8
1
100
AcDbVertex
100
AcDb2dVertex
62
5
10
-92.187500
20
161.125000
0
VERTEX
5
362
100
AcDbEntity
8
1
100
AcDbVertex
100
AcDb2dVertex
62
5
10
-91.875000
20
160.812500
0
VERTEX
5
363
100
AcDbEntity
8
1
100
AcDbVertex
100
AcDb2dVertex
62
5
10
-91.250000
20
160.500000
0
VERTEX
5
364
100
AcDbEntity
8
1
100
AcDbVertex
100
AcDb2dVertex
62
5
10
-90.625000
20
160.500000
0
VERTEX
5
365
100
AcDbEntity
8
1
100
AcDbVertex
100
AcDb2dVertex
62
5
10
-90.000000
20
160.812500
0
VERTEX
5
366
100
AcDbEntity
8
1
100
AcDbVertex
100
AcDb2dVertex
62
5
10
-89.687500
20
161.125000
0
VERTEX
5
367
100
AcDbEntity
8
1
100
AcDbVertex
100
AcDb2dVertex
62
5
10
-89.375000
20
162.062500
0
VERTEX
5
368
100
AcDbEntity
8
1
100
AcDbVertex
100
AcDb2dVertex
62
5
10
-89.375000
20
163.937500
0
VERTEX
5
369
100
AcDbEntity
8
1
100
AcDbVertex
100
AcDb2dVertex
62
5
10
-89.687500
20
164.562500
0
VERTEX
5
36a
100
AcDbEntity
8
1
100
AcDbVertex
100
AcDb2dVertex
62
5
10
-90.312500
20
164.875000
0
VERTEX
5
36b
100
AcDbEntity
8
1
100
AcDbVertex
100
AcDb2dVertex
62
5
10
-91.562500
20
164.875000
0
VERTEX
5
36c
100
AcDbEntity
8
1
100
AcDbVertex
100
AcDb2dVertex
62
5
10
-92.500000
20
164.562500
0
SEQEND
5
36d
100
AcDbEntity
8
1
0
POLYLINE
5
36e
100
AcDbEntity
8
1
6
CONTINUOUS
62
5
100
AcDb2dPolyline
66
1
10
0.0
20
0.0
30
0.0
70
0
0
VERTEX
5
36f
100
AcDbEntity
8
1
100
AcDbVertex
100
AcDb2dVertex
62
5
10
-84.375000
20
166.437500
0
VERTEX
5
370
100
AcDbEntity
8
1
100
AcDbVertex
100
AcDb2dVertex
62
5
10
-84.687500
20
167.375000
0
VERTEX
5
371
100
AcDbEntity
8
1
100
AcDbVertex
100
AcDb2dVertex
62
5
10
-85.312500
20
168.000000
0
VERTEX
5
372
100
AcDbEntity
8
1
100
AcDbVertex
100
AcDb2dVertex
62
5
10
-86.250000
20
168.000000
0
VERTEX
5
373
100
AcDbEntity
8
1
100
AcDbVertex
100
AcDb2dVertex
62
5
10
-87.187500
20
167.062500
0
VERTEX
5
374
100
AcDbEntity
8
1
100
AcDbVertex
100
AcDb2dVertex
62
5
10
-87.500000
20
165.500000
0
VERTEX
5
375
100
AcDbEntity
8
1
100
AcDbVertex
100
AcDb2dVertex
62
5
10
-87.500000
20
163.000000
0
VERTEX
5
376
100
AcDbEntity
8
1
100
AcDbVertex
100
AcDb2dVertex
62
5
10
-87.187500
20
161.437500
0
VERTEX
5
377
100
AcDbEntity
8
1
100
AcDbVertex
100
AcDb2dVertex
62
5
10
-86.250000
20
160.500000
0
VERTEX
5
378
100
AcDbEntity
8
1
100
AcDbVertex
100
AcDb2dVertex
62
5
10
-85.312500
20
160.500000
0
VERTEX
5
379
100
AcDbEntity
8
1
100
AcDbVertex
100
AcDb2dVertex
62
5
10
-84.687500
20
161.125000
0
VERTEX
5
37a
100
AcDbEntity
8
1
100
AcDbVertex
100
AcDb2dVertex
62
5
10
-84.062500
20
162.687500
0
SEQEND
5
37b
100
AcDbEntity
8
1
0
POLYLINE
5
37c
100
AcDbEntity
8
1
6
CONTINUOUS
62
5
100
AcDb2dPolyline
66
1
10
0.0
20
0.0
30
0.0
70
0
0
VERTEX
5
37d
100
AcDbEntity
8
1
100
AcDbVertex
100
AcDb2dVertex
62
5
10
-107.812500
20
168.000000
0
VERTEX
5
37e
100
AcDbEntity
8
1
100
AcDbVertex
100
AcDb2dVertex
62
5
10
-106.875000
20
160.500000
0
VERTEX
5
37f
100
AcDbEntity
8
1
100
AcDbVertex
100
AcDb2dVertex
62
5
10
-105.937500
20
168.000000
0
VERTEX
5
380
100
AcDbEntity
8
1
100
AcDbVertex
100
AcDb2dVertex
62
5
10
-105.000000
20
160.500000
0
VERTEX
5
381
100
AcDbEntity
8
1
100
AcDbVertex
100
AcDb2dVertex
62
5
10
-104.062500
20
168.000000
0
SEQEND
5
382
100
AcDbEntity
8
1
0
POLYLINE
5
383
100
AcDbEntity
8
1
6
CONTINUOUS
62
5
100
AcDb2dPolyline
66
1
10
0.0
20
0.0
30
0.0
70
0
0
VERTEX
5
384
100
AcDbEntity
8
1
100
AcDbVertex
100
AcDb2dVertex
62
5
10
-99.687500
20
168.000000
0
VERTEX
5
385
100
AcDbEntity
8
1
100
AcDbVertex
100
AcDb2dVertex
62
5
10
-99.687500
20
162.375000
0
VERTEX
5
386
100
AcDbEntity
8
1
100
AcDbVertex
100
AcDb2dVertex
62
5
10
-100.000000
20
161.125000
0
VERTEX
5
387
100
AcDbEntity
8
1
100
AcDbVertex
100
AcDb2dVertex
62
5
10
-100.625000
20
160.500000
0
VERTEX
5
388
100
AcDbEntity
8
1
100
AcDbVertex
100
AcDb2dVertex
62
5
10
-101.562500
20
160.500000
0
VERTEX
5
389
100
AcDbEntity
8
1
100
AcDbVertex
100
AcDb2dVertex
62
5
10
-102.187500
20
161.125000
0
VERTEX
5
38a
100
AcDbEntity
8
1
100
AcDbVertex
100
AcDb2dVertex
62
5
10
-102.500000
20
162.375000
0
SEQEND
5
38b
100
AcDbEntity
8
1
0
LINE
5
38c
100
AcDbEntity
8
1
100
AcDbLine
6
CONTINUOUS
62
5
10
-86.000000
20
205.250000
11
-85.000000
21
204.312500
0
POLYLINE
5
38d
100
AcDbEntity
8
1
6
CONTINUOUS
62
5
100
AcDb2dPolyline
66
1
10
0.0
20
0.0
30
0.0
70
0
0
VERTEX
5
38e
100
AcDbEntity
8
1
100
AcDbVertex
100
AcDb2dVertex
62
5
10
-86.250000
20
202.125000
0
VERTEX
5
38f
100
AcDbEntity
8
1
100
AcDbVertex
100
AcDb2dVertex
62
5
10
-85.000000
20
202.125000
0
VERTEX
5
390
100
AcDbEntity
8
1
100
AcDbVertex
100
AcDb2dVertex
62
5
10
-85.000000
20
199.000000
0
VERTEX
5
391
100
AcDbEntity
8
1
100
AcDbVertex
100
AcDb2dVertex
62
5
10
-86.250000
20
197.437500
0
SEQEND
5
392
100
AcDbEntity
8
1
0
POLYLINE
5
393
100
AcDbEntity
8
1
6
CONTINUOUS
62
5
100
AcDb2dPolyline
66
1
10
0.0
20
0.0
30
0.0
70
0
0
VERTEX
5
394
100
AcDbEntity
8
1
100
AcDbVertex
100
AcDb2dVertex
62
5
10
-85.000000
20
199.000000
0
VERTEX
5
395
100
AcDbEntity
8
1
100
AcDbVertex
100
AcDb2dVertex
62
5
10
-84.250000
20
197.750000
0
VERTEX
5
396
100
AcDbEntity
8
1
100
AcDbVertex
100
AcDb2dVertex
62
5
10
-83.250000
20
197.437500
0
VERTEX
5
397
100
AcDbEntity
8
1
100
AcDbVertex
100
AcDb2dVertex
62
5
10
-79.500000
20
197.437500
0
SEQEND
5
398
100
AcDbEntity
8
1
0
POLYLINE
5
399
100
AcDbEntity
8
1
6
CONTINUOUS
62
5
100
AcDb2dPolyline
66
1
10
0.0
20
0.0
30
0.0
70
0
0
VERTEX
5
39a
100
AcDbEntity
8
1
100
AcDbVertex
100
AcDb2dVertex
62
5
10
-82.250000
20
202.750000
0
VERTEX
5
39b
100
AcDbEntity
8
1
100
AcDbVertex
100
AcDb2dVertex
62
5
10
-83.000000
20
200.875000
0
VERTEX
5
39c
100
AcDbEntity
8
1
100
AcDbVertex
100
AcDb2dVertex
62
5
10
-83.750000
20
199.625000
0
VERTEX
5
39d
100
AcDbEntity
8
1
100
AcDbVertex
100
AcDb2dVertex
62
5
10
-84.250000
20
199.000000
0
SEQEND
5
39e
100
AcDbEntity
8
1
0
POLYLINE
5
39f
100
AcDbEntity
8
1
6
CONTINUOUS
62
5
100
AcDb2dPolyline
66
1
10
0.0
20
0.0
30
0.0
70
0
0
VERTEX
5
3a0
100
AcDbEntity
8
1
100
AcDbVertex
100
AcDb2dVertex
62
5
10
-83.500000
20
205.562500
0
VERTEX
5
3a1
100
AcDbEntity
8
1
100
AcDbVertex
100
AcDb2dVertex
62
5
10
-82.250000
20
205.562500
0
VERTEX
5
3a2
100
AcDbEntity
8
1
100
AcDbVertex
100
AcDb2dVertex
62
5
10
-82.250000
20
202.750000
0
VERTEX
5
3a3
100
AcDbEntity
8
1
100
AcDbVertex
100
AcDb2dVertex
62
5
10
-81.500000
20
200.875000
0
VERTEX
5
3a4
100
AcDbEntity
8
1
100
AcDbVertex
100
AcDb2dVertex
62
5
10
-80.500000
20
199.625000
0
VERTEX
5
3a5
100
AcDbEntity
8
1
100
AcDbVertex
100
AcDb2dVertex
62
5
10
-79.750000
20
199.000000
0
SEQEND
5
3a6
100
AcDbEntity
8
1
0
POLYLINE
5
3a7
100
AcDbEntity
8
1
6
CONTINUOUS
62
5
100
AcDb2dPolyline
66
1
10
0.0
20
0.0
30
0.0
70
0
0
VERTEX
5
3a8
100
AcDbEntity
8
1
100
AcDbVertex
100
AcDb2dVertex
62
5
10
-82.500000
20
168.000000
0
VERTEX
5
3a9
100
AcDbEntity
8
1
100
AcDbVertex
100
AcDb2dVertex
62
5
10
-82.500000
20
160.500000
0
VERTEX
5
3aa
100
AcDbEntity
8
1
100
AcDbVertex
100
AcDb2dVertex
62
5
10
-79.375000
20
160.500000
0
SEQEND
5
3ab
100
AcDbEntity
8
1
0
LINE
5
3ac
100
AcDbEntity
8
1
100
AcDbLine
6
CONTINUOUS
62
5
10
-85.500000
20
195.250000
11
-81.000000
21
195.250000
0
LINE
5
3ad
100
AcDbEntity
8
1
100
AcDbLine
6
CONTINUOUS
62
5
10
-86.750000
20
193.062500
11
-79.750000
21
193.062500
0
POLYLINE
5
3ae
100
AcDbEntity
8
1
6
CONTINUOUS
62
5
100
AcDb2dPolyline
66
1
10
0.0
20
0.0
30
0.0
70
0
0
VERTEX
5
3af
100
AcDbEntity
8
1
100
AcDbVertex
100
AcDb2dVertex
62
5
10
-83.250000
20
193.062500
0
VERTEX
5
3b0
100
AcDbEntity
8
1
100
AcDbVertex
100
AcDb2dVertex
62
5
10
-83.250000
20
187.437500
0
VERTEX
5
3b1
100
AcDbEntity
8
1
100
AcDbVertex
100
AcDb2dVertex
62
5
10
-83.750000
20
186.812500
0
VERTEX
5
3b2
100
AcDbEntity
8
1
100
AcDbVertex
100
AcDb2dVertex
62
5
10
-84.250000
20
186.812500
0
SEQEND
5
3b3
100
AcDbEntity
8
1
0
POLYLINE
5
3b4
100
AcDbEntity
8
1
6
CONTINUOUS
62
5
100
AcDb2dPolyline
66
1
10
0.0
20
0.0
30
0.0
70
0
0
VERTEX
5
3b5
100
AcDbEntity
8
1
100
AcDbVertex
100
AcDb2dVertex
62
5
10
-85.000000
20
190.562500
0
VERTEX
5
3b6
100
AcDbEntity
8
1
100
AcDbVertex
100
AcDb2dVertex
62
5
10
-85.500000
20
189.312500
0
VERTEX
5
3b7
100
AcDbEntity
8
1
100
AcDbVertex
100
AcDb2dVertex
62
5
10
-86.500000
20
188.062500
0
SEQEND
5
3b8
100
AcDbEntity
8
1
0
POLYLINE
5
3b9
100
AcDbEntity
8
1
6
CONTINUOUS
62
5
100
AcDb2dPolyline
66
1
10
0.0
20
0.0
30
0.0
70
0
0
VERTEX
5
3ba
100
AcDbEntity
8
1
100
AcDbVertex
100
AcDb2dVertex
62
5
10
-81.750000
20
190.562500
0
VERTEX
5
3bb
100
AcDbEntity
8
1
100
AcDbVertex
100
AcDb2dVertex
62
5
10
-80.750000
20
189.625000
0
VERTEX
5
3bc
100
AcDbEntity
8
1
100
AcDbVertex
100
AcDb2dVertex
62
5
10
-80.000000
20
188.062500
0
SEQEND
5
3bd
100
AcDbEntity
8
1
0
LINE
5
3be
100
AcDbEntity
8
1
100
AcDbLine
6
CONTINUOUS
62
5
10
-17.500000
20
79.000000
11
-17.000000
21
78.500000
0
LINE
5
3bf
100
AcDbEntity
8
1
100
AcDbLine
6
CONTINUOUS
62
5
10
-17.500000
20
79.000000
11
-17.000000
21
78.500000
0
LINE
5
3c0
100
AcDbEntity
8
1
100
AcDbLine
6
CONTINUOUS
62
5
10
-7.300000
20
72.000000
11
-7.000000
21
71.700000
0
ARC
5
3c1
100
AcDbEntity
8
1
100
AcDbCircle
6
CONTINUOUS
62
5
10
-9.700000
20
71.400000
40
0.500000
100
AcDbArc
50
-89.999999
51
-0.023401
0
LINE
5
3c2
100
AcDbEntity
8
1
100
AcDbLine
6
CONTINUOUS
62
5
10
-12.300000
20
70.900000
11
-9.700000
21
70.900000
0
ARC
5
3c3
100
AcDbEntity
8
1
100
AcDbCircle
6
CONTINUOUS
62
5
10
-9.700000
20
73.100000
40
0.500000
100
AcDbArc
50
-89.999999
51
0.000000
0
LINE
5
3c4
100
AcDbEntity
8
1
100
AcDbLine
6
CONTINUOUS
62
5
10
-9.700000
20
72.600000
11
-12.300000
21
72.600000
0
LINE
5
3c5
100
AcDbEntity
8
1
100
AcDbLine
6
CONTINUOUS
62
5
10
-13.750000
20
72.550000
11
-12.300000
21
73.050000
0
LINE
5
3c6
100
AcDbEntity
8
1
100
AcDbLine
6
CONTINUOUS
62
5
10
-13.750000
20
72.550000
11
-12.300000
21
73.050000
0
LINE
5
3c7
100
AcDbEntity
8
1
100
AcDbLine
6
CONTINUOUS
62
5
10
-2.000000
20
70.200000
11
-1.000000
21
69.200000
0
LINE
5
3c8
100
AcDbEntity
8
1
100
AcDbLine
6
CONTINUOUS
62
5
10
-2.000000
20
69.200000
11
-1.000000
21
70.200000
0
LINE
5
3c9
100
AcDbEntity
8
1
100
AcDbLine
6
CONTINUOUS
62
5
10
-3.000000
20
70.200000
11
-2.000000
21
69.200000
0
LINE
5
3ca
100
AcDbEntity
8
1
100
AcDbLine
6
CONTINUOUS
62
5
10
-3.000000
20
69.200000
11
-2.000000
21
70.200000
0
POLYLINE
5
3cb
100
AcDbEntity
8
1
6
CONTINUOUS
62
5
100
AcDb2dPolyline
66
1
10
0.0
20
0.0
30
0.0
70
0
0
VERTEX
5
3cc
100
AcDbEntity
8
1
100
AcDbVertex
100
AcDb2dVertex
62
5
10
-4.000000
20
70.200000
0
VERTEX
5
3cd
100
AcDbEntity
8
1
100
AcDbVertex
100
AcDb2dVertex
62
5
10
-4.500000
20
69.700000
0
VERTEX
5
3ce
100
AcDbEntity
8
1
100
AcDbVertex
100
AcDb2dVertex
62
5
10
-4.000000
20
69.200000
0
SEQEND
5
3cf
100
AcDbEntity
8
1
0
LINE
5
3d0
100
AcDbEntity
8
1
100
AcDbLine
6
CONTINUOUS
62
5
10
-4.000000
20
70.200000
11
-3.000000
21
69.200000
0
LINE
5
3d1
100
AcDbEntity
8
1
100
AcDbLine
6
CONTINUOUS
62
5
10
-4.000000
20
69.200000
11
-3.000000
21
70.200000
0
LINE
5
3d2
100
AcDbEntity
8
1
100
AcDbLine
6
CONTINUOUS
62
5
10
-20.000000
20
76.200000
11
-19.500000
21
75.900000
0
ARC
5
3d3
100
AcDbEntity
8
1
100
AcDbCircle
6
CONTINUOUS
62
5
10
-20.500000
20
78.500000
40
0.500000
100
AcDbArc
50
89.999999
51
179.999998
0
POLYLINE
5
3d4
100
AcDbEntity
8
1
6
CONTINUOUS
62
5
100
AcDb2dPolyline
66
1
10
0.0
20
0.0
30
0.0
70
0
0
VERTEX
5
3d5
100
AcDbEntity
8
1
100
AcDbVertex
100
AcDb2dVertex
62
5
10
-20.500000
20
79.000000
0
VERTEX
5
3d6
100
AcDbEntity
8
1
100
AcDbVertex
100
AcDb2dVertex
62
5
10
-17.500000
20
79.000000
0
VERTEX
5
3d7
100
AcDbEntity
8
1
100
AcDbVertex
100
AcDb2dVertex
62
5
10
-17.500000
20
79.050000
0
SEQEND
5
3d8
100
AcDbEntity
8
1
0
ARC
5
3d9
100
AcDbEntity
8
1
100
AcDbCircle
6
CONTINUOUS
62
5
10
-17.000000
20
79.050000
40
0.500000
100
AcDbArc
50
89.999999
51
179.999998
0
LINE
5
3da
100
AcDbEntity
8
1
100
AcDbLine
6
CONTINUOUS
62
5
10
-20.000000
20
72.800000
11
-19.500000
21
73.100000
0
LINE
5
3db
100
AcDbEntity
8
1
100
AcDbLine
6
CONTINUOUS
62
5
10
-2.000000
20
68.200000
11
-1.000000
21
67.200000
0
LINE
5
3dc
100
AcDbEntity
8
1
100
AcDbLine
6
CONTINUOUS
62
5
10
-2.000000
20
67.200000
11
-1.000000
21
68.200000
0
LINE
5
3dd
100
AcDbEntity
8
1
100
AcDbLine
6
CONTINUOUS
62
5
10
-3.000000
20
68.200000
11
-2.000000
21
67.200000
0
LINE
5
3de
100
AcDbEntity
8
1
100
AcDbLine
6
CONTINUOUS
62
5
10
-3.000000
20
67.200000
11
-2.000000
21
68.200000
0
POLYLINE
5
3df
100
AcDbEntity
8
1
6
CONTINUOUS
62
5
100
AcDb2dPolyline
66
1
10
0.0
20
0.0
30
0.0
70
0
0
VERTEX
5
3e0
100
AcDbEntity
8
1
100
AcDbVertex
100
AcDb2dVertex
62
5
10
-4.000000
20
68.200000
0
VERTEX
5
3e1
100
AcDbEntity
8
1
100
AcDbVertex
100
AcDb2dVertex
62
5
10
-4.500000
20
67.700000
0
VERTEX
5
3e2
100
AcDbEntity
8
1
100
AcDbVertex
100
AcDb2dVertex
62
5
10
-4.000000
20
67.200000
0
SEQEND
5
3e3
100
AcDbEntity
8
1
0
LINE
5
3e4
100
AcDbEntity
8
1
100
AcDbLine
6
CONTINUOUS
62
5
10
-4.000000
20
68.200000
11
-3.000000
21
67.200000
0
LINE
5
3e5
100
AcDbEntity
8
1
100
AcDbLine
6
CONTINUOUS
62
5
10
-4.000000
20
67.200000
11
-3.000000
21
68.200000
0
LINE
5
3e6
100
AcDbEntity
8
1
100
AcDbLine
6
CONTINUOUS
62
5
10
-2.000000
20
66.200000
11
-1.000000
21
67.200000
0
LINE
5
3e7
100
AcDbEntity
8
1
100
AcDbLine
6
CONTINUOUS
62
5
10
-2.000000
20
67.200000
11
-1.000000
21
66.200000
0
LINE
5
3e8
100
AcDbEntity
8
1
100
AcDbLine
6
CONTINUOUS
62
5
10
-12.300000
20
65.500000
11
-12.385819
21
65.360063
0
LINE
5
3e9
100
AcDbEntity
8
1
100
AcDbLine
6
CONTINUOUS
62
5
10
-12.300000
20
65.500000
11
-12.385819
21
65.360063
0
LINE
5
3ea
100
AcDbEntity
8
1
100
AcDbLine
6
CONTINUOUS
62
5
10
-12.300000
20
65.500000
11
-12.385819
21
65.360063
0
LINE
5
3eb
100
AcDbEntity
8
1
100
AcDbLine
6
CONTINUOUS
62
5
10
-12.300000
20
65.500000
11
-12.385819
21
65.360063
0
LINE
5
3ec
100
AcDbEntity
8
1
100
AcDbLine
6
CONTINUOUS
62
5
10
-3.000000
20
66.200000
11
-2.000000
21
67.200000
0
LINE
5
3ed
100
AcDbEntity
8
1
100
AcDbLine
6
CONTINUOUS
62
5
10
-3.000000
20
67.200000
11
-2.000000
21
66.200000
0
POLYLINE
5
3ee
100
AcDbEntity
8
1
6
CONTINUOUS
62
5
100
AcDb2dPolyline
66
1
10
0.0
20
0.0
30
0.0
70
0
0
VERTEX
5
3ef
100
AcDbEntity
8
1
100
AcDbVertex
100
AcDb2dVertex
62
5
10
-4.000000
20
67.200000
0
VERTEX
5
3f0
100
AcDbEntity
8
1
100
AcDbVertex
100
AcDb2dVertex
62
5
10
-4.500000
20
66.700000
0
VERTEX
5
3f1
100
AcDbEntity
8
1
100
AcDbVertex
100
AcDb2dVertex
62
5
10
-4.000000
20
66.200000
0
SEQEND
5
3f2
100
AcDbEntity
8
1
0
LINE
5
3f3
100
AcDbEntity
8
1
100
AcDbLine
6
CONTINUOUS
62
5
10
-4.000000
20
66.200000
11
-3.000000
21
67.200000
0
LINE
5
3f4
100
AcDbEntity
8
1
100
AcDbLine
6
CONTINUOUS
62
5
10
-4.000000
20
67.200000
11
-3.000000
21
66.200000
0
LINE
5
3f5
100
AcDbEntity
8
1
100
AcDbLine
6
CONTINUOUS
62
5
10
-17.500000
20
57.400000
11
-17.000000
21
57.900000
0
LINE
5
3f6
100
AcDbEntity
8
1
100
AcDbLine
6
CONTINUOUS
62
5
10
-13.750000
20
65.000000
11
-13.911572
21
64.700000
0
LINE
5
3f7
100
AcDbEntity
8
1
100
AcDbLine
6
CONTINUOUS
62
5
10
-13.750000
20
65.000000
11
-13.911572
21
64.700000
0
LINE
5
3f8
100
AcDbEntity
8
1
100
AcDbLine
6
CONTINUOUS
62
5
10
-13.750000
20
65.000000
11
-13.911572
21
64.700000
0
LINE
5
3f9
100
AcDbEntity
8
1
100
AcDbLine
6
CONTINUOUS
62
5
10
-13.750000
20
65.000000
11
-13.911572
21
64.700000
0
LINE
5
3fa
100
AcDbEntity
8
1
100
AcDbLine
6
CONTINUOUS
62
5
10
-7.000000
20
64.700000
11
-7.300000
21
64.400000
0
LINE
5
3fb
100
AcDbEntity
8
1
100
AcDbLine
6
CONTINUOUS
62
5
10
-20.000000
20
63.600000
11
-19.500000
21
63.300000
0
LINE
5
3fc
100
AcDbEntity
8
1
100
AcDbLine
6
CONTINUOUS
62
5
10
-20.000000
20
60.200000
11
-19.500000
21
60.500000
0
ARC
5
3fd
100
AcDbEntity
8
1
100
AcDbCircle
6
CONTINUOUS
62
5
10
-20.500000
20
57.900000
40
0.500000
100
AcDbArc
50
179.999998
51
-89.999999
0
POLYLINE
5
3fe
100
AcDbEntity
8
1
6
CONTINUOUS
62
5
100
AcDb2dPolyline
66
1
10
0.0
20
0.0
30
0.0
70
0
0
VERTEX
5
3ff
100
AcDbEntity
8
1
100
AcDbVertex
100
AcDb2dVertex
62
5
10
-20.500000
20
57.400000
0
VERTEX
5
400
100
AcDbEntity
8
1
100
AcDbVertex
100
AcDb2dVertex
62
5
10
-17.500000
20
57.400000
0
VERTEX
5
401
100
AcDbEntity
8
1
100
AcDbVertex
100
AcDb2dVertex
62
5
10
-17.500000
20
57.350000
0
SEQEND
5
402
100
AcDbEntity
8
1
0
ARC
5
403
100
AcDbEntity
8
1
100
AcDbCircle
6
CONTINUOUS
62
5
10
-17.000000
20
57.350000
40
0.500000
100
AcDbArc
50
179.999998
51
-89.999999
0
LINE
5
404
100
AcDbEntity
8
1
100
AcDbLine
6
CONTINUOUS
62
5
10
-2.000000
20
69.200000
11
-1.000000
21
68.200000
0
LINE
5
405
100
AcDbEntity
8
1
100
AcDbLine
6
CONTINUOUS
62
5
10
-2.000000
20
68.200000
11
-1.000000
21
69.200000
0
LINE
5
406
100
AcDbEntity
8
1
100
AcDbLine
6
CONTINUOUS
62
5
10
-3.000000
20
69.200000
11
-2.000000
21
68.200000
0
LINE
5
407
100
AcDbEntity
8
1
100
AcDbLine
6
CONTINUOUS
62
5
10
-3.000000
20
68.200000
11
-2.000000
21
69.200000
0
POLYLINE
5
408
100
AcDbEntity
8
1
6
CONTINUOUS
62
5
100
AcDb2dPolyline
66
1
10
0.0
20
0.0
30
0.0
70
0
0
VERTEX
5
409
100
AcDbEntity
8
1
100
AcDbVertex
100
AcDb2dVertex
62
5
10
-4.000000
20
69.200000
0
VERTEX
5
40a
100
AcDbEntity
8
1
100
AcDbVertex
100
AcDb2dVertex
62
5
10
-4.500000
20
68.700000
0
VERTEX
5
40b
100
AcDbEntity
8
1
100
AcDbVertex
100
AcDb2dVertex
62
5
10
-4.000000
20
68.200000
0
SEQEND
5
40c
100
AcDbEntity
8
1
0
LINE
5
40d
100
AcDbEntity
8
1
100
AcDbLine
6
CONTINUOUS
62
5
10
-4.000000
20
69.200000
11
-3.000000
21
68.200000
0
LINE
5
40e
100
AcDbEntity
8
1
100
AcDbLine
6
CONTINUOUS
62
5
10
-4.000000
20
68.200000
11
-3.000000
21
69.200000
0
POLYLINE
5
40f
100
AcDbEntity
8
1
6
CONTINUOUS
62
5
100
AcDb2dPolyline
66
1
10
0.0
20
0.0
30
0.0
70
0
0
VERTEX
5
410
100
AcDbEntity
8
1
100
AcDbVertex
100
AcDb2dVertex
62
5
10
-12.300000
20
69.900000
0
VERTEX
5
411
100
AcDbEntity
8
1
100
AcDbVertex
100
AcDb2dVertex
62
5
10
-11.668981
20
69.900000
0
VERTEX
5
412
100
AcDbEntity
8
1
100
AcDbVertex
100
AcDb2dVertex
62
5
10
-11.668981
20
66.500000
0
VERTEX
5
413
100
AcDbEntity
8
1
100
AcDbVertex
100
AcDb2dVertex
62
5
10
-12.300000
20
66.500000
0
SEQEND
5
414
100
AcDbEntity
8
1
0
LINE
5
415
100
AcDbEntity
8
1
100
AcDbLine
6
CONTINUOUS
62
5
10
-9.200000
20
71.400000
11
-9.200000
21
65.000000
0
LINE
5
416
100
AcDbEntity
8
1
100
AcDbLine
6
CONTINUOUS
62
5
10
-10.400000
20
70.900000
11
-10.400000
21
65.500000
0
LINE
5
417
100
AcDbEntity
8
1
100
AcDbLine
6
CONTINUOUS
62
5
10
-2.000000
20
66.200000
11
-2.000000
21
70.200000
0
LINE
5
418
100
AcDbEntity
8
1
100
AcDbLine
6
CONTINUOUS
62
5
10
-3.000000
20
66.200000
11
-3.000000
21
70.200000
0
LINE
5
419
100
AcDbEntity
8
1
100
AcDbLine
6
CONTINUOUS
62
5
10
-4.000000
20
66.200000
11
-4.000000
21
70.200000
0
LINE
5
41a
100
AcDbEntity
8
1
100
AcDbLine
6
CONTINUOUS
62
5
10
-1.000000
20
66.200000
11
-1.000000
21
70.200000
0
ARC
5
41b
100
AcDbEntity
8
1
100
AcDbCircle
6
CONTINUOUS
62
5
10
-14.037393
20
64.150000
40
0.300000
100
AcDbArc
50
-166.033983
51
-89.999999
0
LINE
5
41c
100
AcDbEntity
8
1
100
AcDbLine
6
CONTINUOUS
62
5
10
-14.328525
20
64.077596
11
-14.520389
21
64.849071
0
ARC
5
41d
100
AcDbEntity
8
1
100
AcDbCircle
6
CONTINUOUS
62
5
10
-13.549998
20
65.090617
40
1.000002
100
AcDbArc
50
-179.999990
51
-166.022218
0
LINE
5
41e
100
AcDbEntity
8
1
100
AcDbLine
6
CONTINUOUS
62
5
10
-14.550000
20
65.090617
11
-14.550000
21
72.250000
0
ARC
5
41f
100
AcDbEntity
8
1
100
AcDbCircle
6
CONTINUOUS
62
5
10
-14.250000
20
72.250000
40
0.300000
100
AcDbArc
50
89.999999
51
179.999998
0
LINE
5
420
100
AcDbEntity
8
1
100
AcDbLine
6
CONTINUOUS
62
5
10
-14.250000
20
72.550000
11
-14.050000
21
72.550000
0
ARC
5
421
100
AcDbEntity
8
1
100
AcDbCircle
6
CONTINUOUS
62
5
10
-14.050000
20
72.250000
40
0.300000
100
AcDbArc
50
0.000000
51
89.999999
0
POLYLINE
5
422
100
AcDbEntity
8
1
6
CONTINUOUS
62
5
100
AcDb2dPolyline
66
1
10
0.0
20
0.0
30
0.0
70
0
0
VERTEX
5
423
100
AcDbEntity
8
1
100
AcDbVertex
100
AcDb2dVertex
62
5
10
-13.750000
20
72.250000
0
VERTEX
5
424
100
AcDbEntity
8
1
100
AcDbVertex
100
AcDb2dVertex
62
5
10
-13.750000
20
65.000000
0
VERTEX
5
425
100
AcDbEntity
8
1
100
AcDbVertex
100
AcDb2dVertex
62
5
10
-12.800000
20
65.000000
0
SEQEND
5
426
100
AcDbEntity
8
1
0
ARC
5
427
100
AcDbEntity
8
1
100
AcDbCircle
6
CONTINUOUS
62
5
10
-12.800000
20
64.700000
40
0.300000
100
AcDbArc
50
0.000000
51
89.999999
0
LINE
5
428
100
AcDbEntity
8
1
100
AcDbLine
6
CONTINUOUS
62
5
10
-12.500000
20
64.700000
11
-12.500000
21
64.150000
0
ARC
5
429
100
AcDbEntity
8
1
100
AcDbCircle
6
CONTINUOUS
62
5
10
-12.800000
20
64.150000
40
0.300000
100
AcDbArc
50
-89.999999
51
-0.000000
0
LINE
5
42a
100
AcDbEntity
8
1
100
AcDbLine
6
CONTINUOUS
62
5
10
-12.800000
20
63.850000
11
-14.037393
21
63.850000
0
ARC
5
42b
100
AcDbEntity
8
1
100
AcDbCircle
6
CONTINUOUS
62
5
10
-14.350000
20
72.750000
40
0.300000
100
AcDbArc
50
89.999999
51
-179.999998
0
LINE
5
42c
100
AcDbEntity
8
1
100
AcDbLine
6
CONTINUOUS
62
5
10
-14.650000
20
72.750000
11
-14.650000
21
65.073106
0
ARC
5
42d
100
AcDbEntity
8
1
100
AcDbCircle
6
CONTINUOUS
62
5
10
-13.650000
20
65.073106
40
1.000000
100
AcDbArc
50
179.999998
51
-165.963755
0
LINE
5
42e
100
AcDbEntity
8
1
100
AcDbLine
6
CONTINUOUS
62
5
10
-14.620143
20
64.830570
11
-14.306810
21
63.577239
0
ARC
5
42f
100
AcDbEntity
8
1
100
AcDbCircle
6
CONTINUOUS
62
5
10
-14.015767
20
63.650000
40
0.300000
100
AcDbArc
50
-165.963755
51
-89.999999
0
LINE
5
430
100
AcDbEntity
8
1
100
AcDbLine
6
CONTINUOUS
62
5
10
-14.015767
20
63.350000
11
-12.600000
21
63.350000
0
ARC
5
431
100
AcDbEntity
8
1
100
AcDbCircle
6
CONTINUOUS
62
5
10
-12.600000
20
63.650000
40
0.300000
100
AcDbArc
50
-89.999999
51
-0.000000
0
LINE
5
432
100
AcDbEntity
8
1
100
AcDbLine
6
CONTINUOUS
62
5
10
-12.300000
20
63.650000
11
-12.300000
21
65.079217
0
ARC
5
433
100
AcDbEntity
8
1
100
AcDbCircle
6
CONTINUOUS
62
5
10
-12.600000
20
65.079217
40
0.300000
100
AcDbArc
50
-0.000000
51
109.025605
0
LINE
5
434
100
AcDbEntity
8
1
100
AcDbLine
6
CONTINUOUS
62
5
10
-12.697797
20
65.362829
11
-13.750000
21
65.000000
0
LINE
5
435
100
AcDbEntity
8
1
100
AcDbLine
6
CONTINUOUS
62
5
10
-12.300000
20
73.050000
11
-14.350000
21
73.050000
0
ARC
5
436
100
AcDbEntity
8
1
100
AcDbCircle
6
CONTINUOUS
62
5
10
-9.700000
20
64.300000
40
0.500000
100
AcDbArc
50
-89.999998
51
-0.000000
0
ARC
5
437
100
AcDbEntity
8
1
100
AcDbCircle
6
CONTINUOUS
62
5
10
-9.700000
20
65.000000
40
0.500000
100
AcDbArc
50
0.000002
51
89.999999
0
POLYLINE
5
438
100
AcDbEntity
8
1
6
CONTINUOUS
62
5
100
AcDb2dPolyline
66
1
10
0.0
20
0.0
30
0.0
70
0
0
VERTEX
5
439
100
AcDbEntity
8
1
100
AcDbVertex
100
AcDb2dVertex
62
5
10
-9.700000
20
65.500000
0
VERTEX
5
43a
100
AcDbEntity
8
1
100
AcDbVertex
100
AcDb2dVertex
62
5
10
-12.300000
20
65.500000
0
VERTEX
5
43b
100
AcDbEntity
8
1
100
AcDbVertex
100
AcDb2dVertex
62
5
10
-12.300000
20
77.700000
0
SEQEND
5
43c
100
AcDbEntity
8
1
0
ARC
5
43d
100
AcDbEntity
8
1
100
AcDbCircle
6
CONTINUOUS
62
5
10
-12.800000
20
77.700000
40
0.500000
100
AcDbArc
50
0.000000
51
89.999999
0
LINE
5
43e
100
AcDbEntity
8
1
100
AcDbLine
6
CONTINUOUS
62
5
10
-12.800000
20
78.200000
11
-13.500000
21
78.200000
0
ARC
5
43f
100
AcDbEntity
8
1
100
AcDbCircle
6
CONTINUOUS
62
5
10
-13.500000
20
77.700000
40
0.500000
100
AcDbArc
50
89.999999
51
-179.999998
0
ARC
5
440
100
AcDbEntity
8
1
100
AcDbCircle
6
CONTINUOUS
62
5
10
-13.500000
20
58.700000
40
0.500000
100
AcDbArc
50
179.999998
51
-89.999999
0
LINE
5
441
100
AcDbEntity
8
1
100
AcDbLine
6
CONTINUOUS
62
5
10
-13.500000
20
58.200000
11
-12.800000
21
58.200000
0
ARC
5
442
100
AcDbEntity
8
1
100
AcDbCircle
6
CONTINUOUS
62
5
10
-12.800000
20
58.700000
40
0.500000
100
AcDbArc
50
-89.999999
51
0.000000
0
POLYLINE
5
443
100
AcDbEntity
8
1
6
CONTINUOUS
62
5
100
AcDb2dPolyline
66
1
10
0.0
20
0.0
30
0.0
70
0
0
VERTEX
5
444
100
AcDbEntity
8
1
100
AcDbVertex
100
AcDb2dVertex
62
5
10
-12.300000
20
58.700000
0
VERTEX
5
445
100
AcDbEntity
8
1
100
AcDbVertex
100
AcDb2dVertex
62
5
10
-12.300000
20
63.800000
0
VERTEX
5
446
100
AcDbEntity
8
1
100
AcDbVertex
100
AcDb2dVertex
62
5
10
-9.700000
20
63.800000
0
SEQEND
5
447
100
AcDbEntity
8
1
0
ARC
5
448
100
AcDbEntity
8
1
100
AcDbCircle
6
CONTINUOUS
62
5
10
-20.000000
20
78.550000
40
1.000000
100
AcDbArc
50
89.999999
51
-179.999998
0
LINE
5
449
100
AcDbEntity
8
1
100
AcDbLine
6
CONTINUOUS
62
5
10
-21.000000
20
78.550000
11
-21.000000
21
57.850000
0
ARC
5
44a
100
AcDbEntity
8
1
100
AcDbCircle
6
CONTINUOUS
62
5
10
-20.000000
20
57.850000
40
1.000000
100
AcDbArc
50
-179.999998
51
-89.999999
0
LINE
5
44b
100
AcDbEntity
8
1
100
AcDbLine
6
CONTINUOUS
62
5
10
-20.000000
20
56.850000
11
-13.300000
21
56.850000
0
LINE
5
44c
100
AcDbEntity
8
1
100
AcDbLine
6
CONTINUOUS
62
5
10
-13.300000
20
79.550000
11
-20.000000
21
79.550000
0
ARC
5
44d
100
AcDbEntity
8
1
100
AcDbCircle
6
CONTINUOUS
62
5
10
-20.700000
20
63.300000
40
0.300000
100
AcDbArc
50
89.999999
51
179.999998
0
ARC
5
44e
100
AcDbEntity
8
1
100
AcDbCircle
6
CONTINUOUS
62
5
10
-20.700000
20
60.500000
40
0.300000
100
AcDbArc
50
-179.999998
51
-89.999999
0
POLYLINE
5
44f
100
AcDbEntity
8
1
6
CONTINUOUS
62
5
100
AcDb2dPolyline
66
1
10
0.0
20
0.0
30
0.0
70
0
0
VERTEX
5
450
100
AcDbEntity
8
1
100
AcDbVertex
100
AcDb2dVertex
62
5
10
-20.700000
20
60.200000
0
VERTEX
5
451
100
AcDbEntity
8
1
100
AcDbVertex
100
AcDb2dVertex
62
5
10
-20.000000
20
60.200000
0
VERTEX
5
452
100
AcDbEntity
8
1
100
AcDbVertex
100
AcDb2dVertex
62
5
10
-20.000000
20
57.900000
0
SEQEND
5
453
100
AcDbEntity
8
1
0
ARC
5
454
100
AcDbEntity
8
1
100
AcDbCircle
6
CONTINUOUS
62
5
10
-19.500000
20
57.900000
40
0.500000
100
AcDbArc
50
-179.999998
51
-89.999999
0
ARC
5
455
100
AcDbEntity
8
1
100
AcDbCircle
6
CONTINUOUS
62
5
10
-19.500000
20
78.500000
40
0.500000
100
AcDbArc
50
89.999999
51
-179.999998
0
POLYLINE
5
456
100
AcDbEntity
8
1
6
CONTINUOUS
62
5
100
AcDb2dPolyline
66
1
10
0.0
20
0.0
30
0.0
70
0
0
VERTEX
5
457
100
AcDbEntity
8
1
100
AcDbVertex
100
AcDb2dVertex
62
5
10
-20.000000
20
78.500000
0
VERTEX
5
458
100
AcDbEntity
8
1
100
AcDbVertex
100
AcDb2dVertex
62
5
10
-20.000000
20
76.200000
0
VERTEX
5
459
100
AcDbEntity
8
1
100
AcDbVertex
100
AcDb2dVertex
62
5
10
-20.700000
20
76.200000
0
SEQEND
5
45a
100
AcDbEntity
8
1
0
ARC
5
45b
100
AcDbEntity
8
1
100
AcDbCircle
6
CONTINUOUS
62
5
10
-20.700000
20
75.900000
40
0.300000
100
AcDbArc
50
89.999999
51
-179.999998
0
ARC
5
45c
100
AcDbEntity
8
1
100
AcDbCircle
6
CONTINUOUS
62
5
10
-20.700000
20
73.100000
40
0.300000
100
AcDbArc
50
-179.999998
51
-89.999999
0
POLYLINE
5
45d
100
AcDbEntity
8
1
6
CONTINUOUS
62
5
100
AcDb2dPolyline
66
1
10
0.0
20
0.0
30
0.0
70
0
0
VERTEX
5
45e
100
AcDbEntity
8
1
100
AcDbVertex
100
AcDb2dVertex
62
5
10
-20.700000
20
72.800000
0
VERTEX
5
45f
100
AcDbEntity
8
1
100
AcDbVertex
100
AcDb2dVertex
62
5
10
-20.000000
20
72.800000
0
VERTEX
5
460
100
AcDbEntity
8
1
100
AcDbVertex
100
AcDb2dVertex
62
5
10
-20.000000
20
63.600000
0
VERTEX
5
461
100
AcDbEntity
8
1
100
AcDbVertex
100
AcDb2dVertex
62
5
10
-20.700000
20
63.600000
0
SEQEND
5
462
100
AcDbEntity
8
1
0
POLYLINE
5
463
100
AcDbEntity
8
1
6
DOT2
62
5
100
AcDb2dPolyline
66
1
10
0.0
20
0.0
30
0.0
70
0
0
VERTEX
5
464
100
AcDbEntity
8
1
100
AcDbVertex
100
AcDb2dVertex
62
5
10
-1.250000
20
113.300000
0
VERTEX
5
465
100
AcDbEntity
8
1
100
AcDbVertex
100
AcDb2dVertex
62
5
10
-4.062500
20
107.675000
0
VERTEX
5
466
100
AcDbEntity
8
1
100
AcDbVertex
100
AcDb2dVertex
62
5
10
-0.312500
20
107.675000
0
SEQEND
5
467
100
AcDbEntity
8
1
0
LINE
5
468
100
AcDbEntity
8
1
100
AcDbLine
6
DOT2
62
5
10
-1.250000
20
113.300000
11
-1.250000
21
105.800000
0
LINE
5
469
100
AcDbEntity
8
1
100
AcDbLine
6
DOT2
62
5
10
-1.875000
20
105.800000
11
-0.625000
21
105.800000
0
LINE
5
46a
100
AcDbEntity
8
1
100
AcDbLine
6
CONTINUOUS
62
5
10
-21.500000
20
69.700000
11
-21.500000
21
106.550000
0
LINE
5
46b
100
AcDbEntity
8
1
100
AcDbLine
6
CONTINUOUS
62
5
10
21.500000
20
69.700000
11
21.500000
21
106.550000
0
POLYLINE
5
46c
100
AcDbEntity
8
1
6
CONTINUOUS
62
5
100
AcDb2dPolyline
66
1
10
0.0
20
0.0
30
0.0
70
0
0
VERTEX
5
46d
100
AcDbEntity
8
1
100
AcDbVertex
100
AcDb2dVertex
62
5
10
0.000000
20
104.550000
0
VERTEX
5
46e
100
AcDbEntity
8
1
100
AcDbVertex
100
AcDb2dVertex
62
5
10
-21.500000
20
104.550000
0
VERTEX
5
46f
100
AcDbEntity
8
1
100
AcDbVertex
100
AcDb2dVertex
62
5
10
-15.500000
20
105.550000
0
VERTEX
5
470
100
AcDbEntity
8
1
100
AcDbVertex
100
AcDb2dVertex
62
5
10
-15.500000
20
103.550000
0
VERTEX
5
471
100
AcDbEntity
8
1
100
AcDbVertex
100
AcDb2dVertex
62
5
10
-21.500000
20
104.550000
0
VERTEX
5
472
100
AcDbEntity
8
1
100
AcDbVertex
100
AcDb2dVertex
62
5
10
-15.500000
20
105.050000
0
VERTEX
5
473
100
AcDbEntity
8
1
100
AcDbVertex
100
AcDb2dVertex
62
5
10
-15.500000
20
104.050000
0
VERTEX
5
474
100
AcDbEntity
8
1
100
AcDbVertex
100
AcDb2dVertex
62
5
10
-21.500000
20
104.550000
0
VERTEX
5
475
100
AcDbEntity
8
1
100
AcDbVertex
100
AcDb2dVertex
62
5
10
-15.500000
20
105.300000
0
SEQEND
5
476
100
AcDbEntity
8
1
0
POLYLINE
5
477
100
AcDbEntity
8
1
6
CONTINUOUS
62
5
100
AcDb2dPolyline
66
1
10
0.0
20
0.0
30
0.0
70
0
0
VERTEX
5
478
100
AcDbEntity
8
1
100
AcDbVertex
100
AcDb2dVertex
62
5
10
-15.500000
20
104.800000
0
VERTEX
5
479
100
AcDbEntity
8
1
100
AcDbVertex
100
AcDb2dVertex
62
5
10
-21.500000
20
104.550000
0
VERTEX
5
47a
100
AcDbEntity
8
1
100
AcDbVertex
100
AcDb2dVertex
62
5
10
-15.500000
20
104.300000
0
SEQEND
5
47b
100
AcDbEntity
8
1
0
LINE
5
47c
100
AcDbEntity
8
1
100
AcDbLine
6
CONTINUOUS
62
5
10
-15.500000
20
103.800000
11
-21.500000
21
104.550000
0
POLYLINE
5
47d
100
AcDbEntity
8
1
6
CONTINUOUS
62
5
100
AcDb2dPolyline
66
1
10
0.0
20
0.0
30
0.0
70
0
0
VERTEX
5
47e
100
AcDbEntity
8
1
100
AcDbVertex
100
AcDb2dVertex
62
5
10
0.000000
20
104.550000
0
VERTEX
5
47f
100
AcDbEntity
8
1
100
AcDbVertex
100
AcDb2dVertex
62
5
10
21.500000
20
104.550000
0
VERTEX
5
480
100
AcDbEntity
8
1
100
AcDbVertex
100
AcDb2dVertex
62
5
10
15.500000
20
103.550000
0
VERTEX
5
481
100
AcDbEntity
8
1
100
AcDbVertex
100
AcDb2dVertex
62
5
10
15.500000
20
105.550000
0
VERTEX
5
482
100
AcDbEntity
8
1
100
AcDbVertex
100
AcDb2dVertex
62
5
10
21.500000
20
104.550000
0
VERTEX
5
483
100
AcDbEntity
8
1
100
AcDbVertex
100
AcDb2dVertex
62
5
10
15.500000
20
104.050000
0
VERTEX
5
484
100
AcDbEntity
8
1
100
AcDbVertex
100
AcDb2dVertex
62
5
10
15.500000
20
105.050000
0
VERTEX
5
485
100
AcDbEntity
8
1
100
AcDbVertex
100
AcDb2dVertex
62
5
10
21.500000
20
104.550000
0
VERTEX
5
486
100
AcDbEntity
8
1
100
AcDbVertex
100
AcDb2dVertex
62
5
10
15.500000
20
103.800000
0
SEQEND
5
487
100
AcDbEntity
8
1
0
POLYLINE
5
488
100
AcDbEntity
8
1
6
CONTINUOUS
62
5
100
AcDb2dPolyline
66
1
10
0.0
20
0.0
30
0.0
70
0
0
VERTEX
5
489
100
AcDbEntity
8
1
100
AcDbVertex
100
AcDb2dVertex
62
5
10
15.500000
20
104.300000
0
VERTEX
5
48a
100
AcDbEntity
8
1
100
AcDbVertex
100
AcDb2dVertex
62
5
10
21.500000
20
104.550000
0
VERTEX
5
48b
100
AcDbEntity
8
1
100
AcDbVertex
100
AcDb2dVertex
62
5
10
15.500000
20
104.800000
0
SEQEND
5
48c
100
AcDbEntity
8
1
0
LINE
5
48d
100
AcDbEntity
8
1
100
AcDbLine
6
CONTINUOUS
62
5
10
15.500000
20
105.300000
11
21.500000
21
104.550000
0
LINE
5
48e
100
AcDbEntity
8
1
100
AcDbLine
6
CONTINUOUS
62
5
10
-6.250000
20
205.562500
11
0.000000
21
205.562500
0
POLYLINE
5
48f
100
AcDbEntity
8
1
6
CONTINUOUS
62
5
100
AcDb2dPolyline
66
1
10
0.0
20
0.0
30
0.0
70
0
0
VERTEX
5
490
100
AcDbEntity
8
1
100
AcDbVertex
100
AcDb2dVertex
62
5
10
-6.500000
20
202.750000
0
VERTEX
5
491
100
AcDbEntity
8
1
100
AcDbVertex
100
AcDb2dVertex
62
5
10
-6.500000
20
204.625000
0
VERTEX
5
492
100
AcDbEntity
8
1
100
AcDbVertex
100
AcDb2dVertex
62
5
10
0.250000
20
204.625000
0
VERTEX
5
493
100
AcDbEntity
8
1
100
AcDbVertex
100
AcDb2dVertex
62
5
10
0.250000
20
202.750000
0
SEQEND
5
494
100
AcDbEntity
8
1
0
LINE
5
495
100
AcDbEntity
8
1
100
AcDbLine
6
CONTINUOUS
62
5
10
-3.250000
20
205.562500
11
-3.250000
21
201.812500
0
LINE
5
496
100
AcDbEntity
8
1
100
AcDbLine
6
CONTINUOUS
62
5
10
-5.750000
20
203.375000
11
-4.000000
21
203.375000
0
LINE
5
497
100
AcDbEntity
8
1
100
AcDbLine
6
CONTINUOUS
62
5
10
-5.750000
20
202.125000
11
-4.000000
21
202.125000
0
LINE
5
498
100
AcDbEntity
8
1
100
AcDbLine
6
CONTINUOUS
62
5
10
-2.500000
20
203.375000
11
-0.500000
21
203.375000
0
LINE
5
499
100
AcDbEntity
8
1
100
AcDbLine
6
CONTINUOUS
62
5
10
-2.500000
20
202.125000
11
-0.500000
21
202.125000
0
POLYLINE
5
49a
100
AcDbEntity
8
1
6
CONTINUOUS
62
5
100
AcDb2dPolyline
66
1
10
0.0
20
0.0
30
0.0
70
1
0
VERTEX
5
49b
100
AcDbEntity
8
1
100
AcDbVertex
100
AcDb2dVertex
62
5
10
-6.000000
20
200.875000
0
VERTEX
5
49c
100
AcDbEntity
8
1
100
AcDbVertex
100
AcDb2dVertex
62
5
10
-6.000000
20
198.375000
0
VERTEX
5
49d
100
AcDbEntity
8
1
100
AcDbVertex
100
AcDb2dVertex
62
5
10
-0.500000
20
198.375000
0
VERTEX
5
49e
100
AcDbEntity
8
1
100
AcDbVertex
100
AcDb2dVertex
62
5
10
-0.500000
20
200.875000
0
VERTEX
5
49f
100
AcDbEntity
8
1
100
AcDbVertex
100
AcDb2dVertex
62
5
10
-6.000000
20
200.875000
0
SEQEND
5
4a0
100
AcDbEntity
8
1
0
LINE
5
4a1
100
AcDbEntity
8
1
100
AcDbLine
6
CONTINUOUS
62
5
10
-6.000000
20
199.625000
11
-0.500000
21
199.625000
0
POLYLINE
5
4a2
100
AcDbEntity
8
1
6
CONTINUOUS
62
5
100
AcDb2dPolyline
66
1
10
0.0
20
0.0
30
0.0
70
0
0
VERTEX
5
4a3
100
AcDbEntity
8
1
100
AcDbVertex
100
AcDb2dVertex
62
5
10
-3.250000
20
200.875000
0
VERTEX
5
4a4
100
AcDbEntity
8
1
100
AcDbVertex
100
AcDb2dVertex
62
5
10
-3.250000
20
198.375000
0
VERTEX
5
4a5
100
AcDbEntity
8
1
100
AcDbVertex
100
AcDb2dVertex
62
5
10
-3.000000
20
197.437500
0
VERTEX
5
4a6
100
AcDbEntity
8
1
100
AcDbVertex
100
AcDb2dVertex
62
5
10
-2.250000
20
197.125000
0
VERTEX
5
4a7
100
AcDbEntity
8
1
100
AcDbVertex
100
AcDb2dVertex
62
5
10
0.250000
20
197.125000
0
VERTEX
5
4a8
100
AcDbEntity
8
1
100
AcDbVertex
100
AcDb2dVertex
62
5
10
0.500000
20
198.062500
0
SEQEND
5
4a9
100
AcDbEntity
8
1
0
LINE
5
4aa
100
AcDbEntity
8
1
100
AcDbLine
6
CONTINUOUS
62
5
10
-0.000000
20
66.200000
11
-0.000000
21
70.200000
0
LINE
5
4ab
100
AcDbEntity
8
1
100
AcDbLine
6
CONTINUOUS
62
5
10
-0.000000
20
69.200000
11
1.000000
21
68.200000
0
LINE
5
4ac
100
AcDbEntity
8
1
100
AcDbLine
6
CONTINUOUS
62
5
10
-0.000000
20
68.200000
11
1.000000
21
69.200000
0
LINE
5
4ad
100
AcDbEntity
8
1
100
AcDbLine
6
CONTINUOUS
62
5
10
-1.000000
20
69.200000
11
-0.000000
21
68.200000
0
LINE
5
4ae
100
AcDbEntity
8
1
100
AcDbLine
6
CONTINUOUS
62
5
10
-1.000000
20
68.200000
11
-0.000000
21
69.200000
0
LINE
5
4af
100
AcDbEntity
8
1
100
AcDbLine
6
CONTINUOUS
62
5
10
-0.000000
20
68.200000
11
1.000000
21
67.200000
0
LINE
5
4b0
100
AcDbEntity
8
1
100
AcDbLine
6
CONTINUOUS
62
5
10
-0.000000
20
67.200000
11
1.000000
21
68.200000
0
LINE
5
4b1
100
AcDbEntity
8
1
100
AcDbLine
6
CONTINUOUS
62
5
10
-1.000000
20
68.200000
11
-0.000000
21
67.200000
0
LINE
5
4b2
100
AcDbEntity
8
1
100
AcDbLine
6
CONTINUOUS
62
5
10
-1.000000
20
67.200000
11
-0.000000
21
68.200000
0
LINE
5
4b3
100
AcDbEntity
8
1
100
AcDbLine
6
CONTINUOUS
62
5
10
-0.000000
20
66.200000
11
1.000000
21
67.200000
0
LINE
5
4b4
100
AcDbEntity
8
1
100
AcDbLine
6
CONTINUOUS
62
5
10
-0.000000
20
67.200000
11
1.000000
21
66.200000
0
LINE
5
4b5
100
AcDbEntity
8
1
100
AcDbLine
6
CONTINUOUS
62
5
10
-1.000000
20
66.200000
11
-0.000000
21
67.200000
0
LINE
5
4b6
100
AcDbEntity
8
1
100
AcDbLine
6
CONTINUOUS
62
5
10
-1.000000
20
67.200000
11
-0.000000
21
66.200000
0
LINE
5
4b7
100
AcDbEntity
8
1
100
AcDbLine
6
CONTINUOUS
62
5
10
-0.000000
20
70.200000
11
1.000000
21
69.200000
0
LINE
5
4b8
100
AcDbEntity
8
1
100
AcDbLine
6
CONTINUOUS
62
5
10
-0.000000
20
69.200000
11
1.000000
21
70.200000
0
LINE
5
4b9
100
AcDbEntity
8
1
100
AcDbLine
6
CONTINUOUS
62
5
10
-1.000000
20
70.200000
11
-0.000000
21
69.200000
0
LINE
5
4ba
100
AcDbEntity
8
1
100
AcDbLine
6
CONTINUOUS
62
5
10
-1.000000
20
69.200000
11
-0.000000
21
70.200000
0
ARC
5
4bb
100
AcDbEntity
8
1
100
AcDbCircle
6
CONTINUOUS
62
5
10
20.000000
20
59.900000
40
1.500000
100
AcDbArc
50
-48.189685
51
48.189685
0
ARC
5
4bc
100
AcDbEntity
8
1
100
AcDbCircle
6
CONTINUOUS
62
5
10
20.000000
20
66.400000
40
1.500000
100
AcDbArc
50
-48.189685
51
0.000000
0
LINE
5
4bd
100
AcDbEntity
8
1
100
AcDbLine
6
CONTINUOUS
62
5
10
21.500000
20
66.400000
11
21.500000
21
76.500000
0
ARC
5
4be
100
AcDbEntity
8
1
100
AcDbCircle
6
CONTINUOUS
62
5
10
20.000000
20
76.500000
40
1.500000
100
AcDbArc
50
0.000000
51
48.189685
0
ARC
5
4bf
100
AcDbEntity
8
1
100
AcDbCircle
6
CONTINUOUS
62
5
10
-20.000000
20
76.500000
40
1.500000
100
AcDbArc
50
131.810314
51
179.999998
0
LINE
5
4c0
100
AcDbEntity
8
1
100
AcDbLine
6
CONTINUOUS
62
5
10
-21.500000
20
76.500000
11
-21.500000
21
59.900000
0
ARC
5
4c1
100
AcDbEntity
8
1
100
AcDbCircle
6
CONTINUOUS
62
5
10
-20.000000
20
59.900000
40
1.500000
100
AcDbArc
50
-179.999998
51
-131.810314
0
ARC
5
4c2
100
AcDbEntity
8
1
100
AcDbCircle
6
CONTINUOUS
62
5
10
-13.300000
20
78.850000
40
0.700000
100
AcDbArc
50
89.999999
51
179.999998
0
LINE
5
4c3
100
AcDbEntity
8
1
100
AcDbLine
6
CONTINUOUS
62
5
10
-13.300000
20
79.550000
11
13.300000
21
79.550000
0
ARC
5
4c4
100
AcDbEntity
8
1
100
AcDbCircle
6
CONTINUOUS
62
5
10
13.300000
20
78.850000
40
0.700000
100
AcDbArc
50
0.000000
51
89.999999
0
LINE
5
4c5
100
AcDbEntity
8
1
100
AcDbLine
6
CONTINUOUS
62
5
10
14.000000
20
78.850000
11
14.000000
21
73.050000
0
LINE
5
4c6
100
AcDbEntity
8
1
100
AcDbLine
6
CONTINUOUS
62
5
10
14.000000
20
63.350000
11
14.000000
21
57.550000
0
ARC
5
4c7
100
AcDbEntity
8
1
100
AcDbCircle
6
CONTINUOUS
62
5
10
13.300000
20
57.550000
40
0.700000
100
AcDbArc
50
-89.999999
51
0.000000
0
LINE
5
4c8
100
AcDbEntity
8
1
100
AcDbLine
6
CONTINUOUS
62
5
10
13.300000
20
56.850000
11
-13.300000
21
56.850000
0
ARC
5
4c9
100
AcDbEntity
8
1
100
AcDbCircle
6
CONTINUOUS
62
5
10
-13.300000
20
57.550000
40
0.700000
100
AcDbArc
50
179.999998
51
-89.999999
0
LINE
5
4ca
100
AcDbEntity
8
1
100
AcDbLine
6
CONTINUOUS
62
5
10
-14.000000
20
57.550000
11
-14.000000
21
63.350000
0
LINE
5
4cb
100
AcDbEntity
8
1
100
AcDbLine
6
CONTINUOUS
62
5
10
-14.000000
20
73.050000
11
-14.000000
21
78.850000
0
ARC
5
4cc
100
AcDbEntity
8
1
100
AcDbCircle
6
CONTINUOUS
62
5
10
-8.700000
20
73.500000
40
0.500000
100
AcDbArc
50
89.999999
51
-179.999998
0
LINE
5
4cd
100
AcDbEntity
8
1
100
AcDbLine
6
CONTINUOUS
62
5
10
-8.700000
20
74.000000
11
8.700000
21
74.000000
0
ARC
5
4ce
100
AcDbEntity
8
1
100
AcDbCircle
6
CONTINUOUS
62
5
10
8.700000
20
73.500000
40
0.500000
100
AcDbArc
50
0.000000
51
89.999999
0
LINE
5
4cf
100
AcDbEntity
8
1
100
AcDbLine
6
CONTINUOUS
62
5
10
9.200000
20
73.500000
11
9.200000
21
62.900000
0
ARC
5
4d0
100
AcDbEntity
8
1
100
AcDbCircle
6
CONTINUOUS
62
5
10
8.700000
20
62.900000
40
0.500000
100
AcDbArc
50
-89.999999
51
0.000000
0
LINE
5
4d1
100
AcDbEntity
8
1
100
AcDbLine
6
CONTINUOUS
62
5
10
8.700000
20
62.400000
11
-8.700000
21
62.400000
0
ARC
5
4d2
100
AcDbEntity
8
1
100
AcDbCircle
6
CONTINUOUS
62
5
10
-8.700000
20
62.900000
40
0.500000
100
AcDbArc
50
179.999998
51
-89.999999
0
LINE
5
4d3
100
AcDbEntity
8
1
100
AcDbLine
6
CONTINUOUS
62
5
10
-9.200000
20
62.900000
11
-9.200000
21
73.500000
0
ARC
5
4d4
100
AcDbEntity
8
1
100
AcDbCircle
6
CONTINUOUS
62
5
10
-6.400000
20
71.100000
40
0.500000
100
AcDbArc
50
89.999999
51
179.999998
0
LINE
5
4d5
100
AcDbEntity
8
1
100
AcDbLine
6
CONTINUOUS
62
5
10
-6.900000
20
71.100000
11
-6.900000
21
65.300000
0
ARC
5
4d6
100
AcDbEntity
8
1
100
AcDbCircle
6
CONTINUOUS
62
5
10
-6.400000
20
65.300000
40
0.500000
100
AcDbArc
50
179.999998
51
-89.999999
0
LINE
5
4d7
100
AcDbEntity
8
1
100
AcDbLine
6
CONTINUOUS
62
5
10
-6.400000
20
64.800000
11
6.400000
21
64.800000
0
ARC
5
4d8
100
AcDbEntity
8
1
100
AcDbCircle
6
CONTINUOUS
62
5
10
6.400000
20
65.300000
40
0.500000
100
AcDbArc
50
-89.999999
51
0.000000
0
LINE
5
4d9
100
AcDbEntity
8
1
100
AcDbLine
6
CONTINUOUS
62
5
10
6.900000
20
65.300000
11
6.900000
21
71.100000
0
ARC
5
4da
100
AcDbEntity
8
1
100
AcDbCircle
6
CONTINUOUS
62
5
10
6.400000
20
71.100000
40
0.500000
100
AcDbArc
50
0.000000
51
89.999999
0
LINE
5
4db
100
AcDbEntity
8
1
100
AcDbLine
6
CONTINUOUS
62
5
10
6.400000
20
71.600000
11
-6.400000
21
71.600000
0
POLYLINE
5
4dc
100
AcDbEntity
8
1
6
CONTINUOUS
62
5
100
AcDb2dPolyline
66
1
10
0.0
20
0.0
30
0.0
70
1
0
VERTEX
5
4dd
100
AcDbEntity
8
1
100
AcDbVertex
100
AcDb2dVertex
62
5
10
7.300000
20
64.400000
0
VERTEX
5
4de
100
AcDbEntity
8
1
100
AcDbVertex
100
AcDb2dVertex
62
5
10
7.300000
20
72.000000
0
VERTEX
5
4df
100
AcDbEntity
8
1
100
AcDbVertex
100
AcDb2dVertex
62
5
10
-7.300000
20
72.000000
0
VERTEX
5
4e0
100
AcDbEntity
8
1
100
AcDbVertex
100
AcDb2dVertex
62
5
10
-7.300000
20
64.400000
0
VERTEX
5
4e1
100
AcDbEntity
8
1
100
AcDbVertex
100
AcDb2dVertex
62
5
10
7.300000
20
64.400000
0
SEQEND
5
4e2
100
AcDbEntity
8
1
0
POLYLINE
5
4e3
100
AcDbEntity
8
1
6
CONTINUOUS
62
5
100
AcDb2dPolyline
66
1
10
0.0
20
0.0
30
0.0
70
1
0
VERTEX
5
4e4
100
AcDbEntity
8
1
100
AcDbVertex
100
AcDb2dVertex
62
5
10
7.000000
20
71.700000
0
VERTEX
5
4e5
100
AcDbEntity
8
1
100
AcDbVertex
100
AcDb2dVertex
62
5
10
-7.000000
20
71.700000
0
VERTEX
5
4e6
100
AcDbEntity
8
1
100
AcDbVertex
100
AcDb2dVertex
62
5
10
-7.000000
20
64.700000
0
VERTEX
5
4e7
100
AcDbEntity
8
1
100
AcDbVertex
100
AcDb2dVertex
62
5
10
7.000000
20
64.700000
0
SEQEND
5
4e8
100
AcDbEntity
8
1
0
POLYLINE
5
4e9
100
AcDbEntity
8
1
6
CONTINUOUS
62
5
100
AcDb2dPolyline
66
1
10
0.0
20
0.0
30
0.0
70
1
0
VERTEX
5
4ea
100
AcDbEntity
8
1
100
AcDbVertex
100
AcDb2dVertex
62
5
10
4.500000
20
70.200000
0
VERTEX
5
4eb
100
AcDbEntity
8
1
100
AcDbVertex
100
AcDb2dVertex
62
5
10
-4.500000
20
70.200000
0
VERTEX
5
4ec
100
AcDbEntity
8
1
100
AcDbVertex
100
AcDb2dVertex
62
5
10
-4.500000
20
66.200000
0
VERTEX
5
4ed
100
AcDbEntity
8
1
100
AcDbVertex
100
AcDb2dVertex
62
5
10
4.500000
20
66.200000
0
SEQEND
5
4ee
100
AcDbEntity
8
1
0
LINE
5
4ef
100
AcDbEntity
8
1
100
AcDbLine
6
CONTINUOUS
62
5
10
-4.500000
20
68.200000
11
4.500000
21
68.200000
0
LINE
5
4f0
100
AcDbEntity
8
1
100
AcDbLine
6
CONTINUOUS
62
5
10
-4.500000
20
67.200000
11
4.500000
21
67.200000
0
LINE
5
4f1
100
AcDbEntity
8
1
100
AcDbLine
6
CONTINUOUS
62
5
10
-4.500000
20
69.200000
11
4.500000
21
69.200000
0
LINE
5
4f2
100
AcDbEntity
8
1
100
AcDbLine
6
CONTINUOUS
62
5
10
-160.000000
20
185.500000
11
160.000000
21
185.500000
0
ARC
5
4f3
100
AcDbEntity
8
1
100
AcDbCircle
6
CONTINUOUS
62
5
10
9.700000
20
1.850000
40
0.500000
100
AcDbArc
50
104.470293
51
179.999998
0
LINE
5
4f4
100
AcDbEntity
8
1
100
AcDbLine
6
CONTINUOUS
62
5
10
12.675061
20
3.134139
11
9.575061
21
2.334139
0
LINE
5
4f5
100
AcDbEntity
8
1
100
AcDbLine
6
CONTINUOUS
62
5
10
14.000000
20
-0.850000
11
13.300000
21
-1.350000
0
LINE
5
4f6
100
AcDbEntity
8
1
100
AcDbLine
6
CONTINUOUS
62
5
10
14.700000
20
-12.350000
11
17.300000
21
-12.350000
0
ARC
5
4f7
100
AcDbEntity
8
1
100
AcDbCircle
6
CONTINUOUS
62
5
10
11.332223
20
-9.850000
40
0.500000
100
AcDbArc
50
3.814075
51
89.999999
0
POLYLINE
5
4f8
100
AcDbEntity
8
1
6
CONTINUOUS
62
5
100
AcDb2dPolyline
66
1
10
0.0
20
0.0
30
0.0
70
0
0
VERTEX
5
4f9
100
AcDbEntity
8
1
100
AcDbVertex
100
AcDb2dVertex
62
5
10
12.000000
20
-12.383296
0
VERTEX
5
4fa
100
AcDbEntity
8
1
100
AcDbVertex
100
AcDb2dVertex
62
5
10
11.998126
20
-12.322104
0
VERTEX
5
4fb
100
AcDbEntity
8
1
100
AcDbVertex
100
AcDb2dVertex
62
5
10
11.997785
20
-12.316777
0
VERTEX
5
4fc
100
AcDbEntity
8
1
100
AcDbVertex
100
AcDb2dVertex
62
5
10
11.831116
20
-9.816740
0
SEQEND
5
4fd
100
AcDbEntity
8
1
0
POLYLINE
5
4fe
100
AcDbEntity
8
1
6
CONTINUOUS
62
5
100
AcDb2dPolyline
66
1
10
0.0
20
0.0
30
0.0
70
1
0
VERTEX
5
4ff
100
AcDbEntity
8
1
100
AcDbVertex
100
AcDb2dVertex
62
5
10
17.500000
20
-14.350000
0
VERTEX
5
500
100
AcDbEntity
8
1
100
AcDbVertex
100
AcDb2dVertex
62
5
10
14.500000
20
-14.350000
0
VERTEX
5
501
100
AcDbEntity
8
1
100
AcDbVertex
100
AcDb2dVertex
62
5
10
14.500000
20
-9.350000
0
VERTEX
5
502
100
AcDbEntity
8
1
100
AcDbVertex
100
AcDb2dVertex
62
5
10
17.500000
20
-9.350000
0
SEQEND
5
503
100
AcDbEntity
8
1
0
ARC
5
504
100
AcDbEntity
8
1
100
AcDbCircle
6
CONTINUOUS
62
5
10
17.100000
20
-10.150000
40
0.200000
100
AcDbArc
50
0.000000
51
89.999999
0
LINE
5
505
100
AcDbEntity
8
1
100
AcDbLine
6
CONTINUOUS
62
5
10
17.300000
20
-10.150000
11
17.300000
21
-13.850000
0
ARC
5
506
100
AcDbEntity
8
1
100
AcDbCircle
6
CONTINUOUS
62
5
10
16.800000
20
-13.850000
40
0.500000
100
AcDbArc
50
-89.999999
51
0.000000
0
LINE
5
507
100
AcDbEntity
8
1
100
AcDbLine
6
CONTINUOUS
62
5
10
16.800000
20
-14.350000
11
15.200000
21
-14.350000
0
ARC
5
508
100
AcDbEntity
8
1
100
AcDbCircle
6
CONTINUOUS
62
5
10
15.200000
20
-13.850000
40
0.500000
100
AcDbArc
50
179.999998
51
-89.999999
0
LINE
5
509
100
AcDbEntity
8
1
100
AcDbLine
6
CONTINUOUS
62
5
10
14.700000
20
-13.850000
11
14.700000
21
-10.150000
0
ARC
5
50a
100
AcDbEntity
8
1
100
AcDbCircle
6
CONTINUOUS
62
5
10
14.900000
20
-10.150000
40
0.200000
100
AcDbArc
50
89.999999
51
179.999998
0
LINE
5
50b
100
AcDbEntity
8
1
100
AcDbLine
6
CONTINUOUS
62
5
10
14.900000
20
-9.950000
11
17.100000
21
-9.950000
0
LINE
5
50c
100
AcDbEntity
8
1
100
AcDbLine
6
CONTINUOUS
62
5
10
6.500000
20
-15.850000
11
5.537722
21
-14.850000
0
ARC
5
50d
100
AcDbEntity
8
1
100
AcDbCircle
6
CONTINUOUS
62
5
10
10.500000
20
-15.350000
40
0.500000
100
AcDbArc
50
179.999998
51
-89.999999
0
LINE
5
50e
100
AcDbEntity
8
1
100
AcDbLine
6
CONTINUOUS
62
5
10
10.000000
20
-14.850000
11
10.000000
21
-15.350000
0
ARC
5
50f
100
AcDbEntity
8
1
100
AcDbCircle
6
CONTINUOUS
62
5
10
20.500000
20
-5.550000
40
0.500000
100
AcDbArc
50
0.000000
51
89.999999
0
POLYLINE
5
510
100
AcDbEntity
8
1
6
CONTINUOUS
62
5
100
AcDb2dPolyline
66
1
10
0.0
20
0.0
30
0.0
70
0
0
VERTEX
5
511
100
AcDbEntity
8
1
100
AcDbVertex
100
AcDb2dVertex
62
5
10
20.500000
20
-5.050000
0
VERTEX
5
512
100
AcDbEntity
8
1
100
AcDbVertex
100
AcDb2dVertex
62
5
10
17.500000
20
-5.050000
0
VERTEX
5
513
100
AcDbEntity
8
1
100
AcDbVertex
100
AcDb2dVertex
62
5
10
17.500000
20
-1.350000
0
SEQEND
5
514
100
AcDbEntity
8
1
0
ARC
5
515
100
AcDbEntity
8
1
100
AcDbCircle
6
CONTINUOUS
62
5
10
17.000000
20
-1.350000
40
0.500000
100
AcDbArc
50
-0.000002
51
90.000003
0
ARC
5
516
100
AcDbEntity
8
1
100
AcDbCircle
6
CONTINUOUS
62
5
10
20.500000
20
-2.057107
40
0.500000
100
AcDbArc
50
-0.000000
51
44.999999
0
LINE
5
517
100
AcDbEntity
8
1
100
AcDbLine
6
CONTINUOUS
62
5
10
20.853553
20
-1.703553
11
20.146447
21
-0.996447
0
ARC
5
518
100
AcDbEntity
8
1
100
AcDbCircle
6
CONTINUOUS
62
5
10
19.792893
20
-1.350000
40
0.500000
100
AcDbArc
50
44.999999
51
89.999999
0
ARC
5
519
100
AcDbEntity
8
1
100
AcDbCircle
6
CONTINUOUS
62
5
10
20.500000
20
-4.850000
40
0.500000
100
AcDbArc
50
-0.000000
51
89.999999
0
LINE
5
51a
100
AcDbEntity
8
1
100
AcDbLine
6
CONTINUOUS
62
5
10
17.500000
20
-4.350000
11
20.500000
21
-4.350000
0
LINE
5
51b
100
AcDbEntity
8
1
100
AcDbLine
6
CONTINUOUS
62
5
10
9.300000
20
-24.550000
11
5.144921
21
-24.550000
0
ARC
5
51c
100
AcDbEntity
8
1
100
AcDbCircle
6
CONTINUOUS
62
5
10
7.900000
20
-22.750000
40
1.000000
100
AcDbArc
50
-0.000000
51
89.999999
0
LINE
5
51d
100
AcDbEntity
8
1
100
AcDbLine
6
CONTINUOUS
62
5
10
8.900000
20
-22.750000
11
8.900000
21
-23.750000
0
ARC
5
51e
100
AcDbEntity
8
1
100
AcDbCircle
6
CONTINUOUS
62
5
10
9.900000
20
-23.750000
40
1.000000
100
AcDbArc
50
-179.999998
51
-89.999999
0
LINE
5
51f
100
AcDbEntity
8
1
100
AcDbLine
6
CONTINUOUS
62
5
10
9.900000
20
-24.750000
11
16.955099
21
-24.750000
0
ARC
5
520
100
AcDbEntity
8
1
100
AcDbCircle
6
CONTINUOUS
62
5
10
17.183142
20
-23.729435
40
1.045733
100
AcDbArc
50
-102.595682
51
-2.690608
0
LINE
5
521
100
AcDbEntity
8
1
100
AcDbLine
6
CONTINUOUS
62
5
10
18.227722
20
-23.778524
11
18.375753
21
-17.825143
0
ARC
5
522
100
AcDbEntity
8
1
100
AcDbCircle
6
CONTINUOUS
62
5
10
19.375444
20
-17.850000
40
1.000000
100
AcDbArc
50
89.999999
51
178.575629
0
LINE
5
523
100
AcDbEntity
8
1
100
AcDbLine
6
CONTINUOUS
62
5
10
19.375444
20
-16.850000
11
20.433864
21
-16.850000
0
ARC
5
524
100
AcDbEntity
8
1
100
AcDbCircle
6
CONTINUOUS
62
5
10
20.433864
20
-15.850000
40
1.000000
100
AcDbArc
50
-89.999999
51
-1.507436
0
LINE
5
525
100
AcDbEntity
8
1
100
AcDbLine
6
CONTINUOUS
62
5
10
6.228736
20
-21.750000
11
7.900000
21
-21.750000
0
ARC
5
526
100
AcDbEntity
8
1
100
AcDbCircle
6
CONTINUOUS
62
5
10
13.000000
20
-15.850000
40
1.000000
100
AcDbArc
50
179.999998
51
-89.999999
0
LINE
5
527
100
AcDbEntity
8
1
100
AcDbLine
6
CONTINUOUS
62
5
10
12.000000
20
-15.850000
11
12.000000
21
-9.350000
0
LINE
5
528
100
AcDbEntity
8
1
100
AcDbLine
6
CONTINUOUS
62
5
10
20.000000
20
-9.350000
11
20.000000
21
-15.850000
0
ARC
5
529
100
AcDbEntity
8
1
100
AcDbCircle
6
CONTINUOUS
62
5
10
19.000000
20
-15.850000
40
1.000000
100
AcDbArc
50
-89.999999
51
0.000000
0
LINE
5
52a
100
AcDbEntity
8
1
100
AcDbLine
6
CONTINUOUS
62
5
10
19.000000
20
-16.850000
11
13.000000
21
-16.850000
0
ARC
5
52b
100
AcDbEntity
8
1
100
AcDbCircle
6
CONTINUOUS
62
5
10
14.067538
20
4.150000
40
0.500000
100
AcDbArc
50
2.045408
51
89.999999
0
LINE
5
52c
100
AcDbEntity
8
1
100
AcDbLine
6
CONTINUOUS
62
5
10
14.067538
20
4.650000
11
12.771151
21
4.650000
0
ARC
5
52d
100
AcDbEntity
8
1
100
AcDbCircle
6
CONTINUOUS
62
5
10
12.771151
20
4.350000
40
0.300000
100
AcDbArc
50
89.999999
51
174.216864
0
LINE
5
52e
100
AcDbEntity
8
1
100
AcDbLine
6
CONTINUOUS
62
5
10
12.472678
20
4.380229
11
12.337657
21
3.047067
0
POLYLINE
5
52f
100
AcDbEntity
8
1
6
CONTINUOUS
62
5
100
AcDb2dPolyline
66
1
10
0.0
20
0.0
30
0.0
70
0
0
VERTEX
5
530
100
AcDbEntity
8
1
100
AcDbVertex
100
AcDb2dVertex
62
5
10
14.650000
20
-0.850000
0
VERTEX
5
531
100
AcDbEntity
8
1
100
AcDbVertex
100
AcDb2dVertex
62
5
10
14.650000
20
1.850000
0
VERTEX
5
532
100
AcDbEntity
8
1
100
AcDbVertex
100
AcDb2dVertex
62
5
10
14.567220
20
4.167846
0
SEQEND
5
533
100
AcDbEntity
8
1
0
ARC
5
534
100
AcDbEntity
8
1
100
AcDbCircle
6
CONTINUOUS
62
5
10
13.750012
20
4.150000
40
0.500000
100
AcDbArc
50
-0.392506
51
89.999999
0
POLYLINE
5
535
100
AcDbEntity
8
1
6
CONTINUOUS
62
5
100
AcDb2dPolyline
66
1
10
0.0
20
0.0
30
0.0
70
0
0
VERTEX
5
536
100
AcDbEntity
8
1
100
AcDbVertex
100
AcDb2dVertex
62
5
10
14.250000
20
4.146575
0
VERTEX
5
537
100
AcDbEntity
8
1
100
AcDbVertex
100
AcDb2dVertex
62
5
10
14.250000
20
1.850000
0
VERTEX
5
538
100
AcDbEntity
8
1
100
AcDbVertex
100
AcDb2dVertex
62
5
10
14.250000
20
-0.850000
0
SEQEND
5
539
100
AcDbEntity
8
1
0
LINE
5
53a
100
AcDbEntity
8
1
100
AcDbLine
6
CONTINUOUS
62
5
10
12.951918
20
4.650000
11
13.750012
21
4.650000
0
ARC
5
53b
100
AcDbEntity
8
1
100
AcDbCircle
6
CONTINUOUS
62
5
10
-9.700000
20
1.850000
40
0.500000
100
AcDbArc
50
0.000000
51
75.529705
0
LINE
5
53c
100
AcDbEntity
8
1
100
AcDbLine
6
CONTINUOUS
62
5
10
-12.675061
20
3.134139
11
-9.575061
21
2.334139
0
LINE
5
53d
100
AcDbEntity
8
1
100
AcDbLine
6
CONTINUOUS
62
5
10
-14.000000
20
-0.850000
11
-13.300000
21
-1.350000
0
LINE
5
53e
100
AcDbEntity
8
1
100
AcDbLine
6
CONTINUOUS
62
5
10
-14.700000
20
-12.350000
11
-17.300000
21
-12.350000
0
POLYLINE
5
53f
100
AcDbEntity
8
1
6
CONTINUOUS
62
5
100
AcDb2dPolyline
66
1
10
0.0
20
0.0
30
0.0
70
1
0
VERTEX
5
540
100
AcDbEntity
8
1
100
AcDbVertex
100
AcDb2dVertex
62
5
10
-17.500000
20
-14.350000
0
VERTEX
5
541
100
AcDbEntity
8
1
100
AcDbVertex
100
AcDb2dVertex
62
5
10
-14.500000
20
-14.350000
0
VERTEX
5
542
100
AcDbEntity
8
1
100
AcDbVertex
100
AcDb2dVertex
62
5
10
-14.500000
20
-9.350000
0
VERTEX
5
543
100
AcDbEntity
8
1
100
AcDbVertex
100
AcDb2dVertex
62
5
10
-17.500000
20
-9.350000
0
SEQEND
5
544
100
AcDbEntity
8
1
0
ARC
5
545
100
AcDbEntity
8
1
100
AcDbCircle
6
CONTINUOUS
62
5
10
-17.100000
20
-10.150000
40
0.200000
100
AcDbArc
50
89.999999
51
179.999998
0
LINE
5
546
100
AcDbEntity
8
1
100
AcDbLine
6
CONTINUOUS
62
5
10
-17.300000
20
-10.150000
11
-17.300000
21
-13.850000
0
ARC
5
547
100
AcDbEntity
8
1
100
AcDbCircle
6
CONTINUOUS
62
5
10
-16.800000
20
-13.850000
40
0.500000
100
AcDbArc
50
179.999998
51
-89.999999
0
LINE
5
548
100
AcDbEntity
8
1
100
AcDbLine
6
CONTINUOUS
62
5
10
-16.800000
20
-14.350000
11
-15.200000
21
-14.350000
0
ARC
5
549
100
AcDbEntity
8
1
100
AcDbCircle
6
CONTINUOUS
62
5
10
-15.200000
20
-13.850000
40
0.500000
100
AcDbArc
50
-89.999999
51
0.000000
0
LINE
5
54a
100
AcDbEntity
8
1
100
AcDbLine
6
CONTINUOUS
62
5
10
-14.700000
20
-13.850000
11
-14.700000
21
-10.150000
0
ARC
5
54b
100
AcDbEntity
8
1
100
AcDbCircle
6
CONTINUOUS
62
5
10
-14.900000
20
-10.150000
40
0.200000
100
AcDbArc
50
0.000000
51
89.999999
0
LINE
5
54c
100
AcDbEntity
8
1
100
AcDbLine
6
CONTINUOUS
62
5
10
-14.900000
20
-9.950000
11
-17.100000
21
-9.950000
0
ARC
5
54d
100
AcDbEntity
8
1
100
AcDbCircle
6
CONTINUOUS
62
5
10
-11.332223
20
-9.850000
40
0.500000
100
AcDbArc
50
89.999999
51
176.185924
0
LINE
5
54e
100
AcDbEntity
8
1
100
AcDbLine
6
CONTINUOUS
62
5
10
-11.831116
20
-9.816740
11
-11.997785
21
-12.316777
0
ARC
5
54f
100
AcDbEntity
8
1
100
AcDbCircle
6
CONTINUOUS
62
5
10
-11.000000
20
-12.383296
40
1.000000
100
AcDbArc
50
176.185924
51
-179.999998
0
LINE
5
550
100
AcDbEntity
8
1
100
AcDbLine
6
CONTINUOUS
62
5
10
-9.300000
20
-15.850000
11
-8.336684
21
-14.845825
0
ARC
5
551
100
AcDbEntity
8
1
100
AcDbCircle
6
CONTINUOUS
62
5
10
-10.500000
20
-15.350000
40
0.500000
100
AcDbArc
50
-89.999999
51
0.000000
0
LINE
5
552
100
AcDbEntity
8
1
100
AcDbLine
6
CONTINUOUS
62
5
10
-10.000000
20
-15.350000
11
-10.000000
21
-14.850000
0
ARC
5
553
100
AcDbEntity
8
1
100
AcDbCircle
6
CONTINUOUS
62
5
10
-17.000000
20
-1.350000
40
0.500000
100
AcDbArc
50
89.999999
51
179.999998
0
POLYLINE
5
554
100
AcDbEntity
8
1
6
CONTINUOUS
62
5
100
AcDb2dPolyline
66
1
10
0.0
20
0.0
30
0.0
70
0
0
VERTEX
5
555
100
AcDbEntity
8
1
100
AcDbVertex
100
AcDb2dVertex
62
5
10
-17.500000
20
-1.350000
0
VERTEX
5
556
100
AcDbEntity
8
1
100
AcDbVertex
100
AcDb2dVertex
62
5
10
-17.500000
20
-5.050000
0
VERTEX
5
557
100
AcDbEntity
8
1
100
AcDbVertex
100
AcDb2dVertex
62
5
10
-20.500000
20
-5.050000
0
SEQEND
5
558
100
AcDbEntity
8
1
0
ARC
5
559
100
AcDbEntity
8
1
100
AcDbCircle
6
CONTINUOUS
62
5
10
-20.500000
20
-5.550000
40
0.500000
100
AcDbArc
50
89.999999
51
179.999998
0
ARC
5
55a
100
AcDbEntity
8
1
100
AcDbCircle
6
CONTINUOUS
62
5
10
-20.500000
20
-2.057107
40
0.500000
100
AcDbArc
50
134.999998
51
179.999998
0
LINE
5
55b
100
AcDbEntity
8
1
100
AcDbLine
6
CONTINUOUS
62
5
10
-20.853553
20
-1.703553
11
-20.146447
21
-0.996447
0
ARC
5
55c
100
AcDbEntity
8
1
100
AcDbCircle
6
CONTINUOUS
62
5
10
-19.792893
20
-1.350000
40
0.500000
100
AcDbArc
50
89.999999
51
134.999998
0
ARC
5
55d
100
AcDbEntity
8
1
100
AcDbCircle
6
CONTINUOUS
62
5
10
-20.500000
20
-4.850000
40
0.500000
100
AcDbArc
50
89.999999
51
179.999998
0
LINE
5
55e
100
AcDbEntity
8
1
100
AcDbLine
6
CONTINUOUS
62
5
10
-17.500000
20
-4.350000
11
-20.500000
21
-4.350000
0
POLYLINE
5
55f
100
AcDbEntity
8
1
6
CONTINUOUS
62
5
100
AcDb2dPolyline
66
1
10
0.0
20
0.0
30
0.0
70
0
0
VERTEX
5
560
100
AcDbEntity
8
1
100
AcDbVertex
100
AcDb2dVertex
62
5
10
-7.947591
20
-24.050000
0
VERTEX
5
561
100
AcDbEntity
8
1
100
AcDbVertex
100
AcDb2dVertex
62
5
10
-8.900000
20
-24.050000
0
VERTEX
5
562
100
AcDbEntity
8
1
100
AcDbVertex
100
AcDb2dVertex
62
5
10
-8.900000
20
-24.550000
0
SEQEND
5
563
100
AcDbEntity
8
1
0
LINE
5
564
100
AcDbEntity
8
1
100
AcDbLine
6
CONTINUOUS
62
5
10
-6.900000
20
-24.050000
11
-6.400000
21
-23.550000
0
ARC
5
565
100
AcDbEntity
8
1
100
AcDbCircle
6
CONTINUOUS
62
5
10
-13.000000
20
-15.850000
40
1.000000
100
AcDbArc
50
-89.999999
51
0.000000
0
LINE
5
566
100
AcDbEntity
8
1
100
AcDbLine
6
CONTINUOUS
62
5
10
-12.000000
20
-15.850000
11
-12.000000
21
-9.350000
0
LINE
5
567
100
AcDbEntity
8
1
100
AcDbLine
6
CONTINUOUS
62
5
10
-20.000000
20
-9.350000
11
-20.000000
21
-15.850000
0
ARC
5
568
100
AcDbEntity
8
1
100
AcDbCircle
6
CONTINUOUS
62
5
10
-19.000000
20
-15.850000
40
1.000000
100
AcDbArc
50
179.999998
51
-89.999999
0
LINE
5
569
100
AcDbEntity
8
1
100
AcDbLine
6
CONTINUOUS
62
5
10
-19.000000
20
-16.850000
11
-13.000000
21
-16.850000
0
ARC
5
56a
100
AcDbEntity
8
1
100
AcDbCircle
6
CONTINUOUS
62
5
10
-14.067538
20
4.150000
40
0.500000
100
AcDbArc
50
89.999999
51
177.954590
0
POLYLINE
5
56b
100
AcDbEntity
8
1
6
CONTINUOUS
62
5
100
AcDb2dPolyline
66
1
10
0.0
20
0.0
30
0.0
70
0
0
VERTEX
5
56c
100
AcDbEntity
8
1
100
AcDbVertex
100
AcDb2dVertex
62
5
10
-14.567220
20
4.167846
0
VERTEX
5
56d
100
AcDbEntity
8
1
100
AcDbVertex
100
AcDb2dVertex
62
5
10
-14.650000
20
1.850000
0
VERTEX
5
56e
100
AcDbEntity
8
1
100
AcDbVertex
100
AcDb2dVertex
62
5
10
-14.650000
20
-0.850000
0
SEQEND
5
56f
100
AcDbEntity
8
1
0
LINE
5
570
100
AcDbEntity
8
1
100
AcDbLine
6
CONTINUOUS
62
5
10
-12.337657
20
3.047067
11
-12.472678
21
4.380229
0
ARC
5
571
100
AcDbEntity
8
1
100
AcDbCircle
6
CONTINUOUS
62
5
10
-12.771151
20
4.350000
40
0.300000
100
AcDbArc
50
5.783134
51
89.999999
0
LINE
5
572
100
AcDbEntity
8
1
100
AcDbLine
6
CONTINUOUS
62
5
10
-12.771151
20
4.650000
11
-14.067538
21
4.650000
0
ARC
5
573
100
AcDbEntity
8
1
100
AcDbCircle
6
CONTINUOUS
62
5
10
-13.750012
20
4.150000
40
0.500000
100
AcDbArc
50
89.999999
51
-179.607493
0
POLYLINE
5
574
100
AcDbEntity
8
1
6
CONTINUOUS
62
5
100
AcDb2dPolyline
66
1
10
0.0
20
0.0
30
0.0
70
0
0
VERTEX
5
575
100
AcDbEntity
8
1
100
AcDbVertex
100
AcDb2dVertex
62
5
10
-14.250000
20
4.146575
0
VERTEX
5
576
100
AcDbEntity
8
1
100
AcDbVertex
100
AcDb2dVertex
62
5
10
-14.250000
20
1.850000
0
VERTEX
5
577
100
AcDbEntity
8
1
100
AcDbVertex
100
AcDb2dVertex
62
5
10
-14.250000
20
-0.850000
0
SEQEND
5
578
100
AcDbEntity
8
1
0
LINE
5
579
100
AcDbEntity
8
1
100
AcDbLine
6
CONTINUOUS
62
5
10
-12.951918
20
4.650000
11
-13.750012
21
4.650000
0
POLYLINE
5
57a
100
AcDbEntity
8
1
6
CONTINUOUS
62
5
100
AcDb2dPolyline
66
1
10
0.0
20
0.0
30
0.0
70
0
0
VERTEX
5
57b
100
AcDbEntity
8
1
100
AcDbVertex
100
AcDb2dVertex
62
5
10
-17.500000
20
-86.750000
0
VERTEX
5
57c
100
AcDbEntity
8
1
100
AcDbVertex
100
AcDb2dVertex
62
5
10
-15.937500
20
-94.250000
0
VERTEX
5
57d
100
AcDbEntity
8
1
100
AcDbVertex
100
AcDb2dVertex
62
5
10
-14.375000
20
-86.750000
0
SEQEND
5
57e
100
AcDbEntity
8
1
0
POLYLINE
5
57f
100
AcDbEntity
8
1
6
CONTINUOUS
62
5
100
AcDb2dPolyline
66
1
10
0.0
20
0.0
30
0.0
70
0
0
VERTEX
5
580
100
AcDbEntity
8
1
100
AcDbVertex
100
AcDb2dVertex
62
5
10
-7.500000
20
-94.250000
0
VERTEX
5
581
100
AcDbEntity
8
1
100
AcDbVertex
100
AcDb2dVertex
62
5
10
-5.937500
20
-86.750000
0
VERTEX
5
582
100
AcDbEntity
8
1
100
AcDbVertex
100
AcDb2dVertex
62
5
10
-4.375000
20
-94.250000
0
SEQEND
5
583
100
AcDbEntity
8
1
0
LINE
5
584
100
AcDbEntity
8
1
100
AcDbLine
6
CONTINUOUS
62
5
10
-6.875000
20
-91.750000
11
-5.000000
21
-91.750000
0
LINE
5
585
100
AcDbEntity
8
1
100
AcDbLine
6
CONTINUOUS
62
5
10
-37.500000
20
-90.500000
11
-34.375000
21
-90.500000
0
POLYLINE
5
586
100
AcDbEntity
8
1
6
CONTINUOUS
62
5
100
AcDb2dPolyline
66
1
10
0.0
20
0.0
30
0.0
70
0
0
VERTEX
5
587
100
AcDbEntity
8
1
100
AcDbVertex
100
AcDb2dVertex
62
5
10
-32.500000
20
-88.625000
0
VERTEX
5
588
100
AcDbEntity
8
1
100
AcDbVertex
100
AcDb2dVertex
62
5
10
-32.187500
20
-87.375000
0
VERTEX
5
589
100
AcDbEntity
8
1
100
AcDbVertex
100
AcDb2dVertex
62
5
10
-31.562500
20
-86.750000
0
VERTEX
5
58a
100
AcDbEntity
8
1
100
AcDbVertex
100
AcDb2dVertex
62
5
10
-30.625000
20
-86.750000
0
VERTEX
5
58b
100
AcDbEntity
8
1
100
AcDbVertex
100
AcDb2dVertex
62
5
10
-30.000000
20
-87.062500
0
VERTEX
5
58c
100
AcDbEntity
8
1
100
AcDbVertex
100
AcDb2dVertex
62
5
10
-29.687500
20
-88.000000
0
VERTEX
5
58d
100
AcDbEntity
8
1
100
AcDbVertex
100
AcDb2dVertex
62
5
10
-29.687500
20
-89.250000
0
VERTEX
5
58e
100
AcDbEntity
8
1
100
AcDbVertex
100
AcDb2dVertex
62
5
10
-30.000000
20
-89.875000
0
VERTEX
5
58f
100
AcDbEntity
8
1
100
AcDbVertex
100
AcDb2dVertex
62
5
10
-30.625000
20
-90.500000
0
VERTEX
5
590
100
AcDbEntity
8
1
100
AcDbVertex
100
AcDb2dVertex
62
5
10
-31.562500
20
-90.500000
0
SEQEND
5
591
100
AcDbEntity
8
1
0
POLYLINE
5
592
100
AcDbEntity
8
1
6
CONTINUOUS
62
5
100
AcDb2dPolyline
66
1
10
0.0
20
0.0
30
0.0
70
0
0
VERTEX
5
593
100
AcDbEntity
8
1
100
AcDbVertex
100
AcDb2dVertex
62
5
10
-30.625000
20
-90.500000
0
VERTEX
5
594
100
AcDbEntity
8
1
100
AcDbVertex
100
AcDb2dVertex
62
5
10
-29.687500
20
-91.125000
0
VERTEX
5
595
100
AcDbEntity
8
1
100
AcDbVertex
100
AcDb2dVertex
62
5
10
-29.375000
20
-92.062500
0
VERTEX
5
596
100
AcDbEntity
8
1
100
AcDbVertex
100
AcDb2dVertex
62
5
10
-29.375000
20
-93.000000
0
VERTEX
5
597
100
AcDbEntity
8
1
100
AcDbVertex
100
AcDb2dVertex
62
5
10
-29.687500
20
-93.625000
0
VERTEX
5
598
100
AcDbEntity
8
1
100
AcDbVertex
100
AcDb2dVertex
62
5
10
-30.625000
20
-94.250000
0
VERTEX
5
599
100
AcDbEntity
8
1
100
AcDbVertex
100
AcDb2dVertex
62
5
10
-31.562500
20
-94.250000
0
VERTEX
5
59a
100
AcDbEntity
8
1
100
AcDbVertex
100
AcDb2dVertex
62
5
10
-32.187500
20
-93.937500
0
VERTEX
5
59b
100
AcDbEntity
8
1
100
AcDbVertex
100
AcDb2dVertex
62
5
10
-32.812500
20
-93.000000
0
SEQEND
5
59c
100
AcDbEntity
8
1
0
POLYLINE
5
59d
100
AcDbEntity
8
1
6
CONTINUOUS
62
5
100
AcDb2dPolyline
66
1
10
0.0
20
0.0
30
0.0
70
1
0
VERTEX
5
59e
100
AcDbEntity
8
1
100
AcDbVertex
100
AcDb2dVertex
62
5
10
-26.250000
20
-86.750000
0
VERTEX
5
59f
100
AcDbEntity
8
1
100
AcDbVertex
100
AcDb2dVertex
62
5
10
-25.625000
20
-86.750000
0
VERTEX
5
5a0
100
AcDbEntity
8
1
100
AcDbVertex
100
AcDb2dVertex
62
5
10
-25.312500
20
-87.062500
0
VERTEX
5
5a1
100
AcDbEntity
8
1
100
AcDbVertex
100
AcDb2dVertex
62
5
10
-24.687500
20
-88.312500
0
VERTEX
5
5a2
100
AcDbEntity
8
1
100
AcDbVertex
100
AcDb2dVertex
62
5
10
-24.375000
20
-89.562500
0
VERTEX
5
5a3
100
AcDbEntity
8
1
100
AcDbVertex
100
AcDb2dVertex
62
5
10
-24.375000
20
-91.437500
0
VERTEX
5
5a4
100
AcDbEntity
8
1
100
AcDbVertex
100
AcDb2dVertex
62
5
10
-24.687500
20
-92.687500
0
VERTEX
5
5a5
100
AcDbEntity
8
1
100
AcDbVertex
100
AcDb2dVertex
62
5
10
-25.312500
20
-93.937500
0
VERTEX
5
5a6
100
AcDbEntity
8
1
100
AcDbVertex
100
AcDb2dVertex
62
5
10
-25.625000
20
-94.250000
0
VERTEX
5
5a7
100
AcDbEntity
8
1
100
AcDbVertex
100
AcDb2dVertex
62
5
10
-26.250000
20
-94.250000
0
VERTEX
5
5a8
100
AcDbEntity
8
1
100
AcDbVertex
100
AcDb2dVertex
62
5
10
-26.562500
20
-93.937500
0
VERTEX
5
5a9
100
AcDbEntity
8
1
100
AcDbVertex
100
AcDb2dVertex
62
5
10
-27.187500
20
-92.687500
0
VERTEX
5
5aa
100
AcDbEntity
8
1
100
AcDbVertex
100
AcDb2dVertex
62
5
10
-27.500000
20
-91.437500
0
VERTEX
5
5ab
100
AcDbEntity
8
1
100
AcDbVertex
100
AcDb2dVertex
62
5
10
-27.500000
20
-89.562500
0
VERTEX
5
5ac
100
AcDbEntity
8
1
100
AcDbVertex
100
AcDb2dVertex
62
5
10
-27.187500
20
-88.312500
0
VERTEX
5
5ad
100
AcDbEntity
8
1
100
AcDbVertex
100
AcDb2dVertex
62
5
10
-26.562500
20
-87.062500
0
VERTEX
5
5ae
100
AcDbEntity
8
1
100
AcDbVertex
100
AcDb2dVertex
62
5
10
-26.250000
20
-86.750000
0
SEQEND
5
5af
100
AcDbEntity
8
1
0
POLYLINE
5
5b0
100
AcDbEntity
8
1
6
CONTINUOUS
62
5
100
AcDb2dPolyline
66
1
10
0.0
20
0.0
30
0.0
70
1
0
VERTEX
5
5b1
100
AcDbEntity
8
1
100
AcDbVertex
100
AcDb2dVertex
62
5
10
-21.250000
20
-86.750000
0
VERTEX
5
5b2
100
AcDbEntity
8
1
100
AcDbVertex
100
AcDb2dVertex
62
5
10
-20.625000
20
-86.750000
0
VERTEX
5
5b3
100
AcDbEntity
8
1
100
AcDbVertex
100
AcDb2dVertex
62
5
10
-20.312500
20
-87.062500
0
VERTEX
5
5b4
100
AcDbEntity
8
1
100
AcDbVertex
100
AcDb2dVertex
62
5
10
-19.687500
20
-88.312500
0
VERTEX
5
5b5
100
AcDbEntity
8
1
100
AcDbVertex
100
AcDb2dVertex
62
5
10
-19.375000
20
-89.562500
0
VERTEX
5
5b6
100
AcDbEntity
8
1
100
AcDbVertex
100
AcDb2dVertex
62
5
10
-19.375000
20
-91.437500
0
VERTEX
5
5b7
100
AcDbEntity
8
1
100
AcDbVertex
100
AcDb2dVertex
62
5
10
-19.687500
20
-92.687500
0
VERTEX
5
5b8
100
AcDbEntity
8
1
100
AcDbVertex
100
AcDb2dVertex
62
5
10
-20.312500
20
-93.937500
0
VERTEX
5
5b9
100
AcDbEntity
8
1
100
AcDbVertex
100
AcDb2dVertex
62
5
10
-20.625000
20
-94.250000
0
VERTEX
5
5ba
100
AcDbEntity
8
1
100
AcDbVertex
100
AcDb2dVertex
62
5
10
-21.250000
20
-94.250000
0
VERTEX
5
5bb
100
AcDbEntity
8
1
100
AcDbVertex
100
AcDb2dVertex
62
5
10
-21.562500
20
-93.937500
0
VERTEX
5
5bc
100
AcDbEntity
8
1
100
AcDbVertex
100
AcDb2dVertex
62
5
10
-22.187500
20
-92.687500
0
VERTEX
5
5bd
100
AcDbEntity
8
1
100
AcDbVertex
100
AcDb2dVertex
62
5
10
-22.500000
20
-91.437500
0
VERTEX
5
5be
100
AcDbEntity
8
1
100
AcDbVertex
100
AcDb2dVertex
62
5
10
-22.500000
20
-89.562500
0
VERTEX
5
5bf
100
AcDbEntity
8
1
100
AcDbVertex
100
AcDb2dVertex
62
5
10
-22.187500
20
-88.312500
0
VERTEX
5
5c0
100
AcDbEntity
8
1
100
AcDbVertex
100
AcDb2dVertex
62
5
10
-21.562500
20
-87.062500
0
VERTEX
5
5c1
100
AcDbEntity
8
1
100
AcDbVertex
100
AcDb2dVertex
62
5
10
-21.250000
20
-86.750000
0
SEQEND
5
5c2
100
AcDbEntity
8
1
0
POLYLINE
5
5c3
100
AcDbEntity
8
1
6
CONTINUOUS
62
5
100
AcDb2dPolyline
66
1
10
0.0
20
0.0
30
0.0
70
1
0
VERTEX
5
5c4
100
AcDbEntity
8
1
100
AcDbVertex
100
AcDb2dVertex
62
5
10
-56.250000
20
-86.750000
0
VERTEX
5
5c5
100
AcDbEntity
8
1
100
AcDbVertex
100
AcDb2dVertex
62
5
10
-55.625000
20
-86.750000
0
VERTEX
5
5c6
100
AcDbEntity
8
1
100
AcDbVertex
100
AcDb2dVertex
62
5
10
-55.312500
20
-87.062500
0
VERTEX
5
5c7
100
AcDbEntity
8
1
100
AcDbVertex
100
AcDb2dVertex
62
5
10
-54.687500
20
-88.312500
0
VERTEX
5
5c8
100
AcDbEntity
8
1
100
AcDbVertex
100
AcDb2dVertex
62
5
10
-54.375000
20
-89.562500
0
VERTEX
5
5c9
100
AcDbEntity
8
1
100
AcDbVertex
100
AcDb2dVertex
62
5
10
-54.375000
20
-91.437500
0
VERTEX
5
5ca
100
AcDbEntity
8
1
100
AcDbVertex
100
AcDb2dVertex
62
5
10
-54.687500
20
-92.687500
0
VERTEX
5
5cb
100
AcDbEntity
8
1
100
AcDbVertex
100
AcDb2dVertex
62
5
10
-55.312500
20
-93.937500
0
VERTEX
5
5cc
100
AcDbEntity
8
1
100
AcDbVertex
100
AcDb2dVertex
62
5
10
-55.625000
20
-94.250000
0
VERTEX
5
5cd
100
AcDbEntity
8
1
100
AcDbVertex
100
AcDb2dVertex
62
5
10
-56.250000
20
-94.250000
0
VERTEX
5
5ce
100
AcDbEntity
8
1
100
AcDbVertex
100
AcDb2dVertex
62
5
10
-56.562500
20
-93.937500
0
VERTEX
5
5cf
100
AcDbEntity
8
1
100
AcDbVertex
100
AcDb2dVertex
62
5
10
-57.187500
20
-92.687500
0
VERTEX
5
5d0
100
AcDbEntity
8
1
100
AcDbVertex
100
AcDb2dVertex
62
5
10
-57.500000
20
-91.437500
0
VERTEX
5
5d1
100
AcDbEntity
8
1
100
AcDbVertex
100
AcDb2dVertex
62
5
10
-57.500000
20
-89.562500
0
VERTEX
5
5d2
100
AcDbEntity
8
1
100
AcDbVertex
100
AcDb2dVertex
62
5
10
-57.187500
20
-88.312500
0
VERTEX
5
5d3
100
AcDbEntity
8
1
100
AcDbVertex
100
AcDb2dVertex
62
5
10
-56.562500
20
-87.062500
0
VERTEX
5
5d4
100
AcDbEntity
8
1
100
AcDbVertex
100
AcDb2dVertex
62
5
10
-56.250000
20
-86.750000
0
SEQEND
5
5d5
100
AcDbEntity
8
1
0
LINE
5
5d6
100
AcDbEntity
8
1
100
AcDbLine
6
CONTINUOUS
62
5
10
-51.875000
20
-93.625000
11
-52.500000
21
-94.250000
0
POLYLINE
5
5d7
100
AcDbEntity
8
1
6
CONTINUOUS
62
5
100
AcDb2dPolyline
66
1
10
0.0
20
0.0
30
0.0
70
0
0
VERTEX
5
5d8
100
AcDbEntity
8
1
100
AcDbVertex
100
AcDb2dVertex
62
5
10
-52.500000
20
-93.625000
0
VERTEX
5
5d9
100
AcDbEntity
8
1
100
AcDbVertex
100
AcDb2dVertex
62
5
10
-51.875000
20
-94.250000
0
VERTEX
5
5da
100
AcDbEntity
8
1
100
AcDbVertex
100
AcDb2dVertex
62
5
10
-52.500000
20
-94.250000
0
VERTEX
5
5db
100
AcDbEntity
8
1
100
AcDbVertex
100
AcDb2dVertex
62
5
10
-52.500000
20
-93.625000
0
VERTEX
5
5dc
100
AcDbEntity
8
1
100
AcDbVertex
100
AcDb2dVertex
62
5
10
-51.875000
20
-93.625000
0
VERTEX
5
5dd
100
AcDbEntity
8
1
100
AcDbVertex
100
AcDb2dVertex
62
5
10
-51.875000
20
-94.250000
0
SEQEND
5
5de
100
AcDbEntity
8
1
0
LINE
5
5df
100
AcDbEntity
8
1
100
AcDbLine
6
CONTINUOUS
62
5
10
-47.500000
20
-86.750000
11
-44.687500
21
-86.750000
0
POLYLINE
5
5e0
100
AcDbEntity
8
1
6
CONTINUOUS
62
5
100
AcDb2dPolyline
66
1
10
0.0
20
0.0
30
0.0
70
0
0
VERTEX
5
5e1
100
AcDbEntity
8
1
100
AcDbVertex
100
AcDb2dVertex
62
5
10
-47.500000
20
-86.750000
0
VERTEX
5
5e2
100
AcDbEntity
8
1
100
AcDbVertex
100
AcDb2dVertex
62
5
10
-47.500000
20
-90.500000
0
VERTEX
5
5e3
100
AcDbEntity
8
1
100
AcDbVertex
100
AcDb2dVertex
62
5
10
-46.875000
20
-89.875000
0
VERTEX
5
5e4
100
AcDbEntity
8
1
100
AcDbVertex
100
AcDb2dVertex
62
5
10
-46.250000
20
-89.562500
0
VERTEX
5
5e5
100
AcDbEntity
8
1
100
AcDbVertex
100
AcDb2dVertex
62
5
10
-45.312500
20
-89.562500
0
VERTEX
5
5e6
100
AcDbEntity
8
1
100
AcDbVertex
100
AcDb2dVertex
62
5
10
-44.687500
20
-89.875000
0
VERTEX
5
5e7
100
AcDbEntity
8
1
100
AcDbVertex
100
AcDb2dVertex
62
5
10
-44.375000
20
-90.812500
0
VERTEX
5
5e8
100
AcDbEntity
8
1
100
AcDbVertex
100
AcDb2dVertex
62
5
10
-44.375000
20
-92.687500
0
VERTEX
5
5e9
100
AcDbEntity
8
1
100
AcDbVertex
100
AcDb2dVertex
62
5
10
-45.000000
20
-93.625000
0
VERTEX
5
5ea
100
AcDbEntity
8
1
100
AcDbVertex
100
AcDb2dVertex
62
5
10
-45.937500
20
-94.250000
0
VERTEX
5
5eb
100
AcDbEntity
8
1
100
AcDbVertex
100
AcDb2dVertex
62
5
10
-47.500000
20
-94.250000
0
SEQEND
5
5ec
100
AcDbEntity
8
1
0
POLYLINE
5
5ed
100
AcDbEntity
8
1
6
CONTINUOUS
62
5
100
AcDb2dPolyline
66
1
10
0.0
20
0.0
30
0.0
70
0
0
VERTEX
5
5ee
100
AcDbEntity
8
1
100
AcDbVertex
100
AcDb2dVertex
62
5
10
-42.500000
20
-94.250000
0
VERTEX
5
5ef
100
AcDbEntity
8
1
100
AcDbVertex
100
AcDb2dVertex
62
5
10
-40.937500
20
-86.750000
0
VERTEX
5
5f0
100
AcDbEntity
8
1
100
AcDbVertex
100
AcDb2dVertex
62
5
10
-39.375000
20
-94.250000
0
SEQEND
5
5f1
100
AcDbEntity
8
1
0
LINE
5
5f2
100
AcDbEntity
8
1
100
AcDbLine
6
CONTINUOUS
62
5
10
-41.875000
20
-91.750000
11
-40.000000
21
-91.750000
0
LINE
5
5f3
100
AcDbEntity
8
1
100
AcDbLine
6
CONTINUOUS
62
5
10
-70.000000
20
-78.500000
11
-70.000000
21
-102.500000
0
LINE
5
5f4
100
AcDbEntity
8
1
100
AcDbLine
6
CONTINUOUS
62
5
10
-89.375000
20
-88.312500
11
-86.250000
21
-88.312500
0
LINE
5
5f5
100
AcDbEntity
8
1
100
AcDbLine
6
CONTINUOUS
62
5
10
-87.500000
20
-86.125000
11
-87.500000
21
-94.875000
0
POLYLINE
5
5f6
100
AcDbEntity
8
1
6
CONTINUOUS
62
5
100
AcDb2dPolyline
66
1
10
0.0
20
0.0
30
0.0
70
0
0
VERTEX
5
5f7
100
AcDbEntity
8
1
100
AcDbVertex
100
AcDb2dVertex
62
5
10
-87.500000
20
-88.312500
0
VERTEX
5
5f8
100
AcDbEntity
8
1
100
AcDbVertex
100
AcDb2dVertex
62
5
10
-88.437500
20
-90.500000
0
VERTEX
5
5f9
100
AcDbEntity
8
1
100
AcDbVertex
100
AcDb2dVertex
62
5
10
-89.375000
20
-91.750000
0
SEQEND
5
5fa
100
AcDbEntity
8
1
0
LINE
5
5fb
100
AcDbEntity
8
1
100
AcDbLine
6
CONTINUOUS
62
5
10
-87.500000
20
-89.250000
11
-86.562500
21
-90.500000
0
POLYLINE
5
5fc
100
AcDbEntity
8
1
6
CONTINUOUS
62
5
100
AcDb2dPolyline
66
1
10
0.0
20
0.0
30
0.0
70
0
0
VERTEX
5
5fd
100
AcDbEntity
8
1
100
AcDbVertex
100
AcDb2dVertex
62
5
10
-84.062500
20
-86.125000
0
VERTEX
5
5fe
100
AcDbEntity
8
1
100
AcDbVertex
100
AcDb2dVertex
62
5
10
-84.687500
20
-87.375000
0
VERTEX
5
5ff
100
AcDbEntity
8
1
100
AcDbVertex
100
AcDb2dVertex
62
5
10
-86.250000
20
-89.250000
0
SEQEND
5
600
100
AcDbEntity
8
1
0
POLYLINE
5
601
100
AcDbEntity
8
1
6
CONTINUOUS
62
5
100
AcDb2dPolyline
66
1
10
0.0
20
0.0
30
0.0
70
0
0
VERTEX
5
602
100
AcDbEntity
8
1
100
AcDbVertex
100
AcDb2dVertex
62
5
10
-84.687500
20
-87.375000
0
VERTEX
5
603
100
AcDbEntity
8
1
100
AcDbVertex
100
AcDb2dVertex
62
5
10
-81.562500
20
-87.375000
0
VERTEX
5
604
100
AcDbEntity
8
1
100
AcDbVertex
100
AcDb2dVertex
62
5
10
-82.500000
20
-88.937500
0
VERTEX
5
605
100
AcDbEntity
8
1
100
AcDbVertex
100
AcDb2dVertex
62
5
10
-84.062500
20
-90.500000
0
VERTEX
5
606
100
AcDbEntity
8
1
100
AcDbVertex
100
AcDb2dVertex
62
5
10
-86.250000
20
-91.750000
0
SEQEND
5
607
100
AcDbEntity
8
1
0
POLYLINE
5
608
100
AcDbEntity
8
1
6
CONTINUOUS
62
5
100
AcDb2dPolyline
66
1
10
0.0
20
0.0
30
0.0
70
0
0
VERTEX
5
609
100
AcDbEntity
8
1
100
AcDbVertex
100
AcDb2dVertex
62
5
10
-84.687500
20
-87.375000
0
VERTEX
5
60a
100
AcDbEntity
8
1
100
AcDbVertex
100
AcDb2dVertex
62
5
10
-84.062500
20
-88.937500
0
VERTEX
5
60b
100
AcDbEntity
8
1
100
AcDbVertex
100
AcDb2dVertex
62
5
10
-82.812500
20
-90.500000
0
VERTEX
5
60c
100
AcDbEntity
8
1
100
AcDbVertex
100
AcDb2dVertex
62
5
10
-81.875000
20
-91.125000
0
VERTEX
5
60d
100
AcDbEntity
8
1
100
AcDbVertex
100
AcDb2dVertex
62
5
10
-80.625000
20
-91.750000
0
SEQEND
5
60e
100
AcDbEntity
8
1
0
POLYLINE
5
60f
100
AcDbEntity
8
1
6
CONTINUOUS
62
5
100
AcDb2dPolyline
66
1
10
0.0
20
0.0
30
0.0
70
1
0
VERTEX
5
610
100
AcDbEntity
8
1
100
AcDbVertex
100
AcDb2dVertex
62
5
10
-85.000000
20
-91.750000
0
VERTEX
5
611
100
AcDbEntity
8
1
100
AcDbVertex
100
AcDb2dVertex
62
5
10
-85.000000
20
-94.562500
0
VERTEX
5
612
100
AcDbEntity
8
1
100
AcDbVertex
100
AcDb2dVertex
62
5
10
-81.562500
20
-94.562500
0
VERTEX
5
613
100
AcDbEntity
8
1
100
AcDbVertex
100
AcDb2dVertex
62
5
10
-81.562500
20
-91.750000
0
VERTEX
5
614
100
AcDbEntity
8
1
100
AcDbVertex
100
AcDb2dVertex
62
5
10
-85.000000
20
-91.750000
0
SEQEND
5
615
100
AcDbEntity
8
1
0
LINE
5
616
100
AcDbEntity
8
1
100
AcDbLine
6
CONTINUOUS
62
5
10
-105.312500
20
-86.125000
11
-105.312500
21
-87.062500
0
POLYLINE
5
617
100
AcDbEntity
8
1
6
CONTINUOUS
62
5
100
AcDb2dPolyline
66
1
10
0.0
20
0.0
30
0.0
70
0
0
VERTEX
5
618
100
AcDbEntity
8
1
100
AcDbVertex
100
AcDb2dVertex
62
5
10
-109.062500
20
-89.250000
0
VERTEX
5
619
100
AcDbEntity
8
1
100
AcDbVertex
100
AcDb2dVertex
62
5
10
-109.062500
20
-87.062500
0
VERTEX
5
61a
100
AcDbEntity
8
1
100
AcDbVertex
100
AcDb2dVertex
62
5
10
-101.562500
20
-87.062500
0
VERTEX
5
61b
100
AcDbEntity
8
1
100
AcDbVertex
100
AcDb2dVertex
62
5
10
-101.562500
20
-89.250000
0
SEQEND
5
61c
100
AcDbEntity
8
1
0
LINE
5
61d
100
AcDbEntity
8
1
100
AcDbLine
6
CONTINUOUS
62
5
10
-108.125000
20
-88.937500
11
-102.500000
21
-88.937500
0
LINE
5
61e
100
AcDbEntity
8
1
100
AcDbLine
6
CONTINUOUS
62
5
10
-105.312500
20
-88.937500
11
-105.312500
21
-94.250000
0
LINE
5
61f
100
AcDbEntity
8
1
100
AcDbLine
6
CONTINUOUS
62
5
10
-105.312500
20
-91.437500
11
-102.500000
21
-91.437500
0
POLYLINE
5
620
100
AcDbEntity
8
1
6
CONTINUOUS
62
5
100
AcDb2dPolyline
66
1
10
0.0
20
0.0
30
0.0
70
0
0
VERTEX
5
621
100
AcDbEntity
8
1
100
AcDbVertex
100
AcDb2dVertex
62
5
10
-107.500000
20
-90.812500
0
VERTEX
5
622
100
AcDbEntity
8
1
100
AcDbVertex
100
AcDb2dVertex
62
5
10
-107.812500
20
-92.687500
0
VERTEX
5
623
100
AcDbEntity
8
1
100
AcDbVertex
100
AcDb2dVertex
62
5
10
-108.437500
20
-93.937500
0
VERTEX
5
624
100
AcDbEntity
8
1
100
AcDbVertex
100
AcDb2dVertex
62
5
10
-109.375000
20
-94.875000
0
SEQEND
5
625
100
AcDbEntity
8
1
0
POLYLINE
5
626
100
AcDbEntity
8
1
6
CONTINUOUS
62
5
100
AcDb2dPolyline
66
1
10
0.0
20
0.0
30
0.0
70
0
0
VERTEX
5
627
100
AcDbEntity
8
1
100
AcDbVertex
100
AcDb2dVertex
62
5
10
-107.812500
20
-92.687500
0
VERTEX
5
628
100
AcDbEntity
8
1
100
AcDbVertex
100
AcDb2dVertex
62
5
10
-105.312500
20
-94.250000
0
VERTEX
5
629
100
AcDbEntity
8
1
100
AcDbVertex
100
AcDb2dVertex
62
5
10
-104.062500
20
-94.562500
0
VERTEX
5
62a
100
AcDbEntity
8
1
100
AcDbVertex
100
AcDb2dVertex
62
5
10
-100.937500
20
-94.875000
0
SEQEND
5
62b
100
AcDbEntity
8
1
0
POLYLINE
5
62c
100
AcDbEntity
8
1
6
CONTINUOUS
62
5
100
AcDb2dPolyline
66
1
10
0.0
20
0.0
30
0.0
70
0
0
VERTEX
5
62d
100
AcDbEntity
8
1
100
AcDbVertex
100
AcDb2dVertex
62
5
10
0.625000
20
-88.312500
0
VERTEX
5
62e
100
AcDbEntity
8
1
100
AcDbVertex
100
AcDb2dVertex
62
5
10
0.312500
20
-87.375000
0
VERTEX
5
62f
100
AcDbEntity
8
1
100
AcDbVertex
100
AcDb2dVertex
62
5
10
-0.312500
20
-86.750000
0
VERTEX
5
630
100
AcDbEntity
8
1
100
AcDbVertex
100
AcDb2dVertex
62
5
10
-1.250000
20
-86.750000
0
VERTEX
5
631
100
AcDbEntity
8
1
100
AcDbVertex
100
AcDb2dVertex
62
5
10
-2.187500
20
-87.687500
0
VERTEX
5
632
100
AcDbEntity
8
1
100
AcDbVertex
100
AcDb2dVertex
62
5
10
-2.500000
20
-89.250000
0
VERTEX
5
633
100
AcDbEntity
8
1
100
AcDbVertex
100
AcDb2dVertex
62
5
10
-2.500000
20
-91.750000
0
VERTEX
5
634
100
AcDbEntity
8
1
100
AcDbVertex
100
AcDb2dVertex
62
5
10
-2.187500
20
-93.312500
0
VERTEX
5
635
100
AcDbEntity
8
1
100
AcDbVertex
100
AcDb2dVertex
62
5
10
-1.250000
20
-94.250000
0
VERTEX
5
636
100
AcDbEntity
8
1
100
AcDbVertex
100
AcDb2dVertex
62
5
10
-0.312500
20
-94.250000
0
VERTEX
5
637
100
AcDbEntity
8
1
100
AcDbVertex
100
AcDb2dVertex
62
5
10
0.312500
20
-93.625000
0
VERTEX
5
638
100
AcDbEntity
8
1
100
AcDbVertex
100
AcDb2dVertex
62
5
10
0.937500
20
-92.062500
0
SEQEND
5
639
100
AcDbEntity
8
1
0
ARC
5
63a
100
AcDbEntity
8
1
100
AcDbCircle
6
CONTINUOUS
62
5
10
20.225970
20
-23.750000
40
1.000000
100
AcDbArc
50
-89.999999
51
-1.507436
0
POLYLINE
5
63b
100
AcDbEntity
8
1
6
CONTINUOUS
62
5
100
AcDb2dPolyline
66
1
10
0.0
20
0.0
30
0.0
70
0
0
VERTEX
5
63c
100
AcDbEntity
8
1
100
AcDbVertex
100
AcDb2dVertex
62
5
10
21.225624
20
-23.776307
0
VERTEX
5
63d
100
AcDbEntity
8
1
100
AcDbVertex
100
AcDb2dVertex
62
5
10
21.500000
20
-13.350000
0
VERTEX
5
63e
100
AcDbEntity
8
1
100
AcDbVertex
100
AcDb2dVertex
62
5
10
21.500000
20
-9.550000
0
SEQEND
5
63f
100
AcDbEntity
8
1
0
ARC
5
640
100
AcDbEntity
8
1
100
AcDbCircle
6
CONTINUOUS
62
5
10
21.300000
20
-9.550000
40
0.200000
100
AcDbArc
50
-0.000000
51
89.999999
0
LINE
5
641
100
AcDbEntity
8
1
100
AcDbLine
6
CONTINUOUS
62
5
10
21.300000
20
-9.350000
11
-21.300000
21
-9.350000
0
ARC
5
642
100
AcDbEntity
8
1
100
AcDbCircle
6
CONTINUOUS
62
5
10
-21.300000
20
-9.550000
40
0.200000
100
AcDbArc
50
89.999999
51
-179.999998
0
POLYLINE
5
643
100
AcDbEntity
8
1
6
CONTINUOUS
62
5
100
AcDb2dPolyline
66
1
10
0.0
20
0.0
30
0.0
70
0
0
VERTEX
5
644
100
AcDbEntity
8
1
100
AcDbVertex
100
AcDb2dVertex
62
5
10
-21.500000
20
-9.550000
0
VERTEX
5
645
100
AcDbEntity
8
1
100
AcDbVertex
100
AcDb2dVertex
62
5
10
-21.500000
20
-13.350000
0
VERTEX
5
646
100
AcDbEntity
8
1
100
AcDbVertex
100
AcDb2dVertex
62
5
10
-21.500000
20
-13.350000
0
VERTEX
5
647
100
AcDbEntity
8
1
100
AcDbVertex
100
AcDb2dVertex
62
5
10
-21.225624
20
-23.776307
0
SEQEND
5
648
100
AcDbEntity
8
1
0
ARC
5
649
100
AcDbEntity
8
1
100
AcDbCircle
6
CONTINUOUS
62
5
10
-20.225970
20
-23.750000
40
1.000000
100
AcDbArc
50
-178.492563
51
-89.999999
0
LINE
5
64a
100
AcDbEntity
8
1
100
AcDbLine
6
CONTINUOUS
62
5
10
-20.225970
20
-24.750000
11
-9.100000
21
-24.750000
0
ARC
5
64b
100
AcDbEntity
8
1
100
AcDbCircle
6
CONTINUOUS
62
5
10
-9.100000
20
-24.550000
40
0.200000
100
AcDbArc
50
-89.999999
51
0.000017
0
LINE
5
64c
100
AcDbEntity
8
1
100
AcDbLine
6
CONTINUOUS
62
5
10
-8.900000
20
-24.550000
11
-6.400000
21
-24.550000
0
LINE
5
64d
100
AcDbEntity
8
1
100
AcDbLine
6
CONTINUOUS
62
5
10
17.228129
20
-24.750000
11
20.225970
21
-24.750000
0
LINE
5
64e
100
AcDbEntity
8
1
100
AcDbLine
6
CONTINUOUS
62
5
10
20.000000
20
-13.350000
11
21.500000
21
-13.350000
0
LINE
5
64f
100
AcDbEntity
8
1
100
AcDbLine
6
CONTINUOUS
62
5
10
-21.500000
20
-13.350000
11
-20.000000
21
-13.350000
0
LINE
5
650
100
AcDbEntity
8
1
100
AcDbLine
6
CONTINUOUS
62
5
10
-17.500000
20
-13.350000
11
-14.500000
21
-13.350000
0
LINE
5
651
100
AcDbEntity
8
1
100
AcDbLine
6
CONTINUOUS
62
5
10
-12.000000
20
-13.350000
11
12.000000
21
-13.350000
0
LINE
5
652
100
AcDbEntity
8
1
100
AcDbLine
6
CONTINUOUS
62
5
10
14.500000
20
-13.350000
11
17.500000
21
-13.350000
0
ARC
5
653
100
AcDbEntity
8
1
100
AcDbCircle
6
CONTINUOUS
62
5
10
-11.500000
20
-15.350000
40
0.500000
100
AcDbArc
50
179.999998
51
-89.999999
0
POLYLINE
5
654
100
AcDbEntity
8
1
6
CONTINUOUS
62
5
100
AcDb2dPolyline
66
1
10
0.0
20
0.0
30
0.0
70
0
0
VERTEX
5
655
100
AcDbEntity
8
1
100
AcDbVertex
100
AcDb2dVertex
62
5
10
-11.500000
20
-15.850000
0
VERTEX
5
656
100
AcDbEntity
8
1
100
AcDbVertex
100
AcDb2dVertex
62
5
10
-9.300000
20
-15.850000
0
VERTEX
5
657
100
AcDbEntity
8
1
100
AcDbVertex
100
AcDb2dVertex
62
5
10
-8.946404
20
-23.098723
0
SEQEND
5
658
100
AcDbEntity
8
1
0
ARC
5
659
100
AcDbEntity
8
1
100
AcDbCircle
6
CONTINUOUS
62
5
10
-7.947591
20
-23.050000
40
1.000000
100
AcDbArc
50
-177.207296
51
-89.999999
0
LINE
5
65a
100
AcDbEntity
8
1
100
AcDbLine
6
CONTINUOUS
62
5
10
-7.947591
20
-24.050000
11
-6.900000
21
-24.050000
0
ARC
5
65b
100
AcDbEntity
8
1
100
AcDbCircle
6
CONTINUOUS
62
5
10
-6.400000
20
-24.050000
40
0.500000
100
AcDbArc
50
179.999998
51
-89.999999
0
LINE
5
65c
100
AcDbEntity
8
1
100
AcDbLine
6
CONTINUOUS
62
5
10
-6.400000
20
-24.550000
11
5.144921
21
-24.550000
0
ARC
5
65d
100
AcDbEntity
8
1
100
AcDbCircle
6
CONTINUOUS
62
5
10
5.144921
20
-23.550000
40
1.000000
100
AcDbArc
50
-89.999999
51
-2.632435
0
POLYLINE
5
65e
100
AcDbEntity
8
1
6
CONTINUOUS
62
5
100
AcDb2dPolyline
66
1
10
0.0
20
0.0
30
0.0
70
0
0
VERTEX
5
65f
100
AcDbEntity
8
1
100
AcDbVertex
100
AcDb2dVertex
62
5
10
6.143865
20
-23.595928
0
VERTEX
5
660
100
AcDbEntity
8
1
100
AcDbVertex
100
AcDb2dVertex
62
5
10
6.500000
20
-15.850000
0
VERTEX
5
661
100
AcDbEntity
8
1
100
AcDbVertex
100
AcDb2dVertex
62
5
10
11.500000
20
-15.850000
0
SEQEND
5
662
100
AcDbEntity
8
1
0
ARC
5
663
100
AcDbEntity
8
1
100
AcDbCircle
6
CONTINUOUS
62
5
10
11.500000
20
-15.350000
40
0.500000
100
AcDbArc
50
-89.999999
51
0.000000
0
ARC
5
664
100
AcDbEntity
8
1
100
AcDbCircle
6
CONTINUOUS
62
5
10
12.800000
20
2.650000
40
0.500000
100
AcDbArc
50
89.999999
51
-179.999998
0
LINE
5
665
100
AcDbEntity
8
1
100
AcDbLine
6
CONTINUOUS
62
5
10
12.800000
20
3.150000
11
13.500000
21
3.150000
0
ARC
5
666
100
AcDbEntity
8
1
100
AcDbCircle
6
CONTINUOUS
62
5
10
13.500000
20
2.650000
40
0.500000
100
AcDbArc
50
0.000000
51
89.999999
0
POLYLINE
5
667
100
AcDbEntity
8
1
6
CONTINUOUS
62
5
100
AcDb2dPolyline
66
1
10
0.0
20
0.0
30
0.0
70
0
0
VERTEX
5
668
100
AcDbEntity
8
1
100
AcDbVertex
100
AcDb2dVertex
62
5
10
14.000000
20
2.650000
0
VERTEX
5
669
100
AcDbEntity
8
1
100
AcDbVertex
100
AcDb2dVertex
62
5
10
14.000000
20
-0.850000
0
VERTEX
5
66a
100
AcDbEntity
8
1
100
AcDbVertex
100
AcDb2dVertex
62
5
10
20.500000
20
-0.850000
0
SEQEND
5
66b
100
AcDbEntity
8
1
0
ARC
5
66c
100
AcDbEntity
8
1
100
AcDbCircle
6
CONTINUOUS
62
5
10
20.500000
20
-1.350000
40
0.500000
100
AcDbArc
50
0.000000
51
89.999999
0
POLYLINE
5
66d
100
AcDbEntity
8
1
6
CONTINUOUS
62
5
100
AcDb2dPolyline
66
1
10
0.0
20
0.0
30
0.0
70
0
0
VERTEX
5
66e
100
AcDbEntity
8
1
100
AcDbVertex
100
AcDb2dVertex
62
5
10
21.000000
20
-1.350000
0
VERTEX
5
66f
100
AcDbEntity
8
1
100
AcDbVertex
100
AcDb2dVertex
62
5
10
21.000000
20
-9.350000
0
VERTEX
5
670
100
AcDbEntity
8
1
100
AcDbVertex
100
AcDb2dVertex
62
5
10
-21.000000
20
-9.350000
0
SEQEND
5
671
100
AcDbEntity
8
1
0
LINE
5
672
100
AcDbEntity
8
1
100
AcDbLine
6
CONTINUOUS
62
5
10
-21.000000
20
-9.350000
11
-21.000000
21
-1.350000
0
ARC
5
673
100
AcDbEntity
8
1
100
AcDbCircle
6
CONTINUOUS
62
5
10
-20.500000
20
-1.350000
40
0.500000
100
AcDbArc
50
89.999999
51
179.999998
0
POLYLINE
5
674
100
AcDbEntity
8
1
6
CONTINUOUS
62
5
100
AcDb2dPolyline
66
1
10
0.0
20
0.0
30
0.0
70
0
0
VERTEX
5
675
100
AcDbEntity
8
1
100
AcDbVertex
100
AcDb2dVertex
62
5
10
-20.500000
20
-0.850000
0
VERTEX
5
676
100
AcDbEntity
8
1
100
AcDbVertex
100
AcDb2dVertex
62
5
10
-14.000000
20
-0.850000
0
VERTEX
5
677
100
AcDbEntity
8
1
100
AcDbVertex
100
AcDb2dVertex
62
5
10
-14.000000
20
2.650000
0
SEQEND
5
678
100
AcDbEntity
8
1
0
ARC
5
679
100
AcDbEntity
8
1
100
AcDbCircle
6
CONTINUOUS
62
5
10
-13.500000
20
2.650000
40
0.500000
100
AcDbArc
50
89.999999
51
179.999998
0
LINE
5
67a
100
AcDbEntity
8
1
100
AcDbLine
6
CONTINUOUS
62
5
10
-13.500000
20
3.150000
11
-12.800000
21
3.150000
0
ARC
5
67b
100
AcDbEntity
8
1
100
AcDbCircle
6
CONTINUOUS
62
5
10
-12.800000
20
2.650000
40
0.500000
100
AcDbArc
50
-0.000000
51
89.999999
0
POLYLINE
5
67c
100
AcDbEntity
8
1
6
CONTINUOUS
62
5
100
AcDb2dPolyline
66
1
10
0.0
20
0.0
30
0.0
70
0
0
VERTEX
5
67d
100
AcDbEntity
8
1
100
AcDbVertex
100
AcDb2dVertex
62
5
10
-12.300000
20
2.650000
0
VERTEX
5
67e
100
AcDbEntity
8
1
100
AcDbVertex
100
AcDb2dVertex
62
5
10
-12.300000
20
1.850000
0
VERTEX
5
67f
100
AcDbEntity
8
1
100
AcDbVertex
100
AcDb2dVertex
62
5
10
12.300000
20
1.850000
0
VERTEX
5
680
100
AcDbEntity
8
1
100
AcDbVertex
100
AcDb2dVertex
62
5
10
12.300000
20
2.650000
0
SEQEND
5
681
100
AcDbEntity
8
1
0
ARC
5
682
100
AcDbEntity
8
1
100
AcDbCircle
6
CONTINUOUS
62
5
10
13.500000
20
1.350000
40
0.500000
100
AcDbArc
50
0.000000
51
89.999999
0
LINE
5
683
100
AcDbEntity
8
1
100
AcDbLine
6
CONTINUOUS
62
5
10
14.000000
20
1.350000
11
14.000000
21
-0.850000
0
LINE
5
684
100
AcDbEntity
8
1
100
AcDbLine
6
CONTINUOUS
62
5
10
-14.000000
20
-0.850000
11
-14.000000
21
1.350000
0
ARC
5
685
100
AcDbEntity
8
1
100
AcDbCircle
6
CONTINUOUS
62
5
10
-13.500000
20
1.350000
40
0.500000
100
AcDbArc
50
89.999999
51
179.999998
0
LINE
5
686
100
AcDbEntity
8
1
100
AcDbLine
6
CONTINUOUS
62
5
10
-13.500000
20
1.850000
11
13.500000
21
1.850000
0
POLYLINE
5
687
100
AcDbEntity
8
1
6
CONTINUOUS
62
5
100
AcDb2dPolyline
66
1
10
0.0
20
0.0
30
0.0
70
1
0
VERTEX
5
688
100
AcDbEntity
8
1
100
AcDbVertex
100
AcDb2dVertex
62
5
10
120.000000
20
-102.500000
0
VERTEX
5
689
100
AcDbEntity
8
1
100
AcDbVertex
100
AcDb2dVertex
62
5
10
120.000000
20
-78.500000
0
VERTEX
5
68a
100
AcDbEntity
8
1
100
AcDbVertex
100
AcDb2dVertex
62
5
10
-120.000000
20
-78.500000
0
VERTEX
5
68b
100
AcDbEntity
8
1
100
AcDbVertex
100
AcDb2dVertex
62
5
10
-120.000000
20
-102.500000
0
VERTEX
5
68c
100
AcDbEntity
8
1
100
AcDbVertex
100
AcDb2dVertex
62
5
10
120.000000
20
-102.500000
0
SEQEND
5
68d
100
AcDbEntity
8
1
0
LINE
5
68e
100
AcDbEntity
8
1
100
AcDbLine
6
CONTINUOUS
62
5
10
1.500000
20
79.550000
11
48.500000
21
79.550000
0
LINE
5
68f
100
AcDbEntity
8
1
100
AcDbLine
6
CONTINUOUS
62
5
10
1.500000
20
56.850000
11
48.500000
21
56.850000
0
POLYLINE
5
690
100
AcDbEntity
8
1
6
CONTINUOUS
62
5
100
AcDb2dPolyline
66
1
10
0.0
20
0.0
30
0.0
70
0
0
VERTEX
5
691
100
AcDbEntity
8
1
100
AcDbVertex
100
AcDb2dVertex
62
5
10
46.500000
20
110.800000
0
VERTEX
5
692
100
AcDbEntity
8
1
100
AcDbVertex
100
AcDb2dVertex
62
5
10
46.500000
20
79.550000
0
VERTEX
5
693
100
AcDbEntity
8
1
100
AcDbVertex
100
AcDb2dVertex
62
5
10
45.500000
20
85.550000
0
VERTEX
5
694
100
AcDbEntity
8
1
100
AcDbVertex
100
AcDb2dVertex
62
5
10
47.500000
20
85.550000
0
VERTEX
5
695
100
AcDbEntity
8
1
100
AcDbVertex
100
AcDb2dVertex
62
5
10
46.500000
20
79.550000
0
VERTEX
5
696
100
AcDbEntity
8
1
100
AcDbVertex
100
AcDb2dVertex
62
5
10
46.000000
20
85.550000
0
VERTEX
5
697
100
AcDbEntity
8
1
100
AcDbVertex
100
AcDb2dVertex
62
5
10
47.000000
20
85.550000
0
VERTEX
5
698
100
AcDbEntity
8
1
100
AcDbVertex
100
AcDb2dVertex
62
5
10
46.500000
20
79.550000
0
VERTEX
5
699
100
AcDbEntity
8
1
100
AcDbVertex
100
AcDb2dVertex
62
5
10
45.750000
20
85.550000
0
SEQEND
5
69a
100
AcDbEntity
8
1
0
POLYLINE
5
69b
100
AcDbEntity
8
1
6
CONTINUOUS
62
5
100
AcDb2dPolyline
66
1
10
0.0
20
0.0
30
0.0
70
0
0
VERTEX
5
69c
100
AcDbEntity
8
1
100
AcDbVertex
100
AcDb2dVertex
62
5
10
46.250000
20
85.550000
0
VERTEX
5
69d
100
AcDbEntity
8
1
100
AcDbVertex
100
AcDb2dVertex
62
5
10
46.500000
20
79.550000
0
VERTEX
5
69e
100
AcDbEntity
8
1
100
AcDbVertex
100
AcDb2dVertex
62
5
10
46.750000
20
85.550000
0
SEQEND
5
69f
100
AcDbEntity
8
1
0
LINE
5
6a0
100
AcDbEntity
8
1
100
AcDbLine
6
CONTINUOUS
62
5
10
47.250000
20
85.550000
11
46.500000
21
79.550000
0
LINE
5
6a1
100
AcDbEntity
8
1
100
AcDbLine
6
CONTINUOUS
62
5
10
46.500000
20
56.850000
11
46.500000
21
79.550000
0
POLYLINE
5
6a2
100
AcDbEntity
8
1
6
CONTINUOUS
62
5
100
AcDb2dPolyline
66
1
10
0.0
20
0.0
30
0.0
70
0
0
VERTEX
5
6a3
100
AcDbEntity
8
1
100
AcDbVertex
100
AcDb2dVertex
62
5
10
46.500000
20
47.850000
0
VERTEX
5
6a4
100
AcDbEntity
8
1
100
AcDbVertex
100
AcDb2dVertex
62
5
10
46.500000
20
56.850000
0
VERTEX
5
6a5
100
AcDbEntity
8
1
100
AcDbVertex
100
AcDb2dVertex
62
5
10
47.500000
20
50.850000
0
VERTEX
5
6a6
100
AcDbEntity
8
1
100
AcDbVertex
100
AcDb2dVertex
62
5
10
45.500000
20
50.850000
0
VERTEX
5
6a7
100
AcDbEntity
8
1
100
AcDbVertex
100
AcDb2dVertex
62
5
10
46.500000
20
56.850000
0
VERTEX
5
6a8
100
AcDbEntity
8
1
100
AcDbVertex
100
AcDb2dVertex
62
5
10
47.000000
20
50.850000
0
VERTEX
5
6a9
100
AcDbEntity
8
1
100
AcDbVertex
100
AcDb2dVertex
62
5
10
46.000000
20
50.850000
0
VERTEX
5
6aa
100
AcDbEntity
8
1
100
AcDbVertex
100
AcDb2dVertex
62
5
10
46.500000
20
56.850000
0
VERTEX
5
6ab
100
AcDbEntity
8
1
100
AcDbVertex
100
AcDb2dVertex
62
5
10
47.250000
20
50.850000
0
SEQEND
5
6ac
100
AcDbEntity
8
1
0
POLYLINE
5
6ad
100
AcDbEntity
8
1
6
CONTINUOUS
62
5
100
AcDb2dPolyline
66
1
10
0.0
20
0.0
30
0.0
70
0
0
VERTEX
5
6ae
100
AcDbEntity
8
1
100
AcDbVertex
100
AcDb2dVertex
62
5
10
46.750000
20
50.850000
0
VERTEX
5
6af
100
AcDbEntity
8
1
100
AcDbVertex
100
AcDb2dVertex
62
5
10
46.500000
20
56.850000
0
VERTEX
5
6b0
100
AcDbEntity
8
1
100
AcDbVertex
100
AcDb2dVertex
62
5
10
46.250000
20
50.850000
0
SEQEND
5
6b1
100
AcDbEntity
8
1
0
LINE
5
6b2
100
AcDbEntity
8
1
100
AcDbLine
6
CONTINUOUS
62
5
10
45.750000
20
50.850000
11
46.500000
21
56.850000
0
POLYLINE
5
6b3
100
AcDbEntity
8
1
6
CONTINUOUS
62
5
100
AcDb2dPolyline
66
1
10
0.0
20
0.0
30
0.0
70
1
0
VERTEX
5
6b4
100
AcDbEntity
8
1
100
AcDbVertex
100
AcDb2dVertex
62
5
10
-160.000000
20
-122.500000
0
VERTEX
5
6b5
100
AcDbEntity
8
1
100
AcDbVertex
100
AcDb2dVertex
62
5
10
-160.000000
20
217.500000
0
VERTEX
5
6b6
100
AcDbEntity
8
1
100
AcDbVertex
100
AcDb2dVertex
62
5
10
160.000000
20
217.500000
0
VERTEX
5
6b7
100
AcDbEntity
8
1
100
AcDbVertex
100
AcDb2dVertex
62
5
10
160.000000
20
-122.500000
0
VERTEX
5
6b8
100
AcDbEntity
8
1
100
AcDbVertex
100
AcDb2dVertex
62
5
10
-160.000000
20
-122.500000
0
SEQEND
5
6b9
100
AcDbEntity
8
1
0
ENDSEC
0
SECTION
2
OBJECTS
0
DICTIONARY
5
6ba
100
AcDbDictionary
3
ACAD_GROUP
350
6bb
3
ACAD_MLINESTYLE
350
6bc
0
DICTIONARY
5
6bb
102
{ACAD_REACTORS
330
6ba
102
}
100
AcDbDictionary
0
DICTIONARY
5
6bc
102
{ACAD_REACTORS
330
6ba
102
}
100
AcDbDictionary
3
STANDARD
350
6bd
0
MLINESTYLE
5
6bd
102
{ACAD_REACTORS
330
6bc
102
}
100
AcDbMlineStyle
2
STANDARD
70
0
3

62
0
51
90.0
52
90.0
71
2
49
0.5
62
256
6
BYLAYER
49
-0.5
62
256
6
BYLAYER
0
ENDSEC
0
EOF
