0
SECTION
2
HEADER
9
$ACADVER
1
AC1012
9
$EXTMIN
10
-6.250000
20
-3.680000
30
0.0
9
$EXTMAX
10
6.360000
20
9.720000
30
0.0
9
$LIMMIN
10
-158.750000
20
-93.472000
9
$LIMMAX
10
161.544000
20
246.888000
9
$DIMSCALE
40
1.000000
9
$PDMODE
70
2
9
$PDSIZE
40
0.0
  9
$HANDSEED
  5
8a3
0
ENDSEC
0
SECTION
2
CLASSES
0
ENDSEC
0
SECTION
2
TABLES
0
TABLE
2
LTYPE
5
1e
100
AcDbSymbolTable
70
12
0
LTYPE
5
1f
100
AcDbSymbolTableRecord
100
AcDbLinetypeTableRecord
2
BYBLOCK
70
0
3

72
65
73
0
40
0.0
0
LTYPE
5
20
100
AcDbSymbolTableRecord
100
AcDbLinetypeTableRecord
2
BYLAYER
70
0
3

72
65
73
0
40
0.0
0
LTYPE
5
21
100
AcDbSymbolTableRecord
100
AcDbLinetypeTableRecord
2
CONTINUOUS
70
64
3
Solid line
72
65
73
0
40
0.0
0
LTYPE
5
22
100
AcDbSymbolTableRecord
100
AcDbLinetypeTableRecord
2
DASHED
70
64
3
__ __ __ __ __ __ __ __ __ __ __ __ __ __ __
72
65
73
2
40
0.75
49
0.5
74
0
49
-0.25
74
0
0
LTYPE
5
23
100
AcDbSymbolTableRecord
100
AcDbLinetypeTableRecord
2
DOT
70
64
3
...............................................
72
65
73
2
40
0.25
49
0.0
74
0
49
-0.25
74
0
0
LTYPE
5
24
100
AcDbSymbolTableRecord
100
AcDbLinetypeTableRecord
2
DASHDOT
70
64
3
__ . __ . __ . __ . __ . __ . __ . __ . __ . --
72
65
73
4
40
1.0
49
0.5
74
0
49
-0.25
74
0
49
0.0
74
0
49
-0.25
74
0
0
LTYPE
5
25
100
AcDbSymbolTableRecord
100
AcDbLinetypeTableRecord
2
CENTER
70
64
3
____ _ ____ _ ____ _ ____ _ ____ _ ____ _ ____
72
65
73
4
40
2.0
49
1.25
74
0
49
-0.25
74
0
49
0.25
74
0
49
-0.25
74
0
0
LTYPE
5
26
100
AcDbSymbolTableRecord
100
AcDbLinetypeTableRecord
2
PHANTOM
70
64
3
_____ _ _ _____ _ _ _____ _ _ _____ _ _ ____
72
65
73
6
40
2.5
49
1.25
74
0
49
-0.25
74
0
49
0.25
74
0
49
-0.25
74
0
49
0.25
74
0
49
-0.25
74
0
0
LTYPE
5
27
100
AcDbSymbolTableRecord
100
AcDbLinetypeTableRecord
2
HIDDEN
70
64
3
_ _ _ _ _ _ _ _ _ _ _ _ _ _ _ _ _ _ _ _ _ _ _
72
65
73
2
40
0.375
49
0.25
74
0
49
-0.125
74
0
0
LTYPE
5
28
100
AcDbSymbolTableRecord
100
AcDbLinetypeTableRecord
2
BORDER
70
64
3
__ __ . __ __ . __ __ . __ __ . __ __ . __ __
72
65
73
6
40
1.75
49
0.5
74
0
49
-0.25
74
0
49
0.5
74
0
49
-0.25
74
0
49
0.0
74
0
49
-0.25
74
0
0
LTYPE
5
29
100
AcDbSymbolTableRecord
100
AcDbLinetypeTableRecord
2
DIVIDE
70
64
3
__ . . __ . . __ . . __ . . __ . . __ . . __
72
65
73
6
40
1.25
49
0.5
74
0
49
-0.25
74
0
49
0.0
74
0
49
-0.25
74
0
49
0.0
74
0
49
-0.25
74
0
0
LTYPE
5
2a
100
AcDbSymbolTableRecord
100
AcDbLinetypeTableRecord
2
DOT2
70
64
3
...............................................
72
65
73
2
40
0.125
49
0.0
74
0
49
-0.125
74
0
0
ENDTAB
0
TABLE
2
STYLE
5
2b
100
AcDbSymbolTable
70
1
0
STYLE
5
2c
100
AcDbSymbolTableRecord
100
AcDbTextStyleTableRecord
2
STANDARD
70
64
40
0.0
41
1.0
50
0.0
71
0
42
5.0
3
txt
4
bigfont
0
ENDTAB
0
TABLE
2
LAYER
5
2d
100
AcDbSymbolTable
70
2
0
LAYER
5
2e
100
AcDbSymbolTableRecord
100
AcDbLayerTableRecord
2
0
70
0
62
7
6
CONTINUOUS
0
LAYER
5
2f
100
AcDbSymbolTableRecord
100
AcDbLayerTableRecord
2
1
70
0
62
7
6
CONTINUOUS
0
ENDTAB
0
TABLE
2
APPID
5
30
100
AcDbSymbolTable
70
1
0
APPID
5
31
100
AcDbSymbolTableRecord
100
AcDbRegAppTableRecord
2
ACAD
70
64
0
ENDTAB
0
TABLE
2
DIMSTYLE
5
32
100
AcDbSymbolTable
70
0
0
ENDTAB
0
TABLE
2
UCS
5
33
100
AcDbSymbolTable
70
0
0
ENDTAB
0
TABLE
2
VIEW
5
34
100
AcDbSymbolTable
70
0
0
ENDTAB
0
TABLE
2
VPORT
5
35
100
AcDbSymbolTable
70
0
0
ENDTAB
0
TABLE
2
BLOCK_RECORD
5
36
100
AcDbSymbolTable
70
0
0
BLOCK_RECORD
5
37
100
AcDbSymbolTableRecord
100
AcDbBlockTableRecord
2
*MODEL_SPACE
0
BLOCK_RECORD
5
38
100
AcDbSymbolTableRecord
100
AcDbBlockTableRecord
2
*PAPER_SPACE
0
BLOCK_RECORD
5
39
100
AcDbSymbolTableRecord
100
AcDbBlockTableRecord
2
OPEN
0
BLOCK_RECORD
5
3a
100
AcDbSymbolTableRecord
100
AcDbBlockTableRecord
2
HALF
0
BLOCK_RECORD
5
3b
100
AcDbSymbolTableRecord
100
AcDbBlockTableRecord
2
CLOSEDBLANK
0
BLOCK_RECORD
5
3c
100
AcDbSymbolTableRecord
100
AcDbBlockTableRecord
2
HALFCLOSE_R
0
BLOCK_RECORD
5
3d
100
AcDbSymbolTableRecord
100
AcDbBlockTableRecord
2
DOT
0
BLOCK_RECORD
5
3e
100
AcDbSymbolTableRecord
100
AcDbBlockTableRecord
2
HALFOPEN_R
0
BLOCK_RECORD
5
3f
100
AcDbSymbolTableRecord
100
AcDbBlockTableRecord
2
CLOSEDF
0
BLOCK_RECORD
5
40
100
AcDbSymbolTableRecord
100
AcDbBlockTableRecord
2
HALF_R
0
ENDTAB
0
ENDSEC
0
SECTION
2
BLOCKS
0
BLOCK
5
41
100
AcDbEntity
8
0
100
AcDbBlockBegin
2
*MODEL_SPACE
70
0
10
0.0
20
0.0
30
0.0
3
*MODEL_SPACE
1

0
ENDBLK
5
42
100
AcDbEntity
8
0
100
AcDbBlockEnd
0
BLOCK
5
43
100
AcDbEntity
67
1
8
0
100
AcDbBlockBegin
2
*PAPER_SPACE
70
0
10
0.0
20
0.0
30
0.0
3
*PAPER_SPACE
1

0
ENDBLK
5
44
100
AcDbEntity
67
1
8
0
100
AcDbBlockEnd
0
BLOCK
5
45
100
AcDbEntity
8
0
100
AcDbBlockBegin
2
OPEN
70
0
10
0.0
20
0.0
30
0.0
3
OPEN
1

0
LINE
5
46
100
AcDbEntity
8
0
6
BYBLOCK
62
0
100
AcDbLine
10
0.000000
20
0.000000
11
-1.000000
21
0.000000
0
LINE
5
47
100
AcDbEntity
8
0
6
BYBLOCK
62
0
100
AcDbLine
10
-1.000000
20
-0.166667
11
0.000000
21
0.000000
0
LINE
5
48
100
AcDbEntity
8
0
6
BYBLOCK
62
0
100
AcDbLine
10
-1.000000
20
0.166667
11
0.000000
21
0.000000
0
ENDBLK
5
49
100
AcDbEntity
8
0
100
AcDbBlockEnd
0
BLOCK
5
4a
100
AcDbEntity
8
0
100
AcDbBlockBegin
2
HALF
70
0
10
0.0
20
0.0
30
0.0
3
HALF
1

0
SOLID
5
4b
100
AcDbEntity
8
0
6
BYBLOCK
62
0
100
AcDbTrace
10
-1.000000
20
0.166667
11
-1.000000
21
-0.166667
12
0.000000
22
0.000000
13
0.000000
23
0.000000
0
ENDBLK
5
4c
100
AcDbEntity
8
0
100
AcDbBlockEnd
0
BLOCK
5
4d
100
AcDbEntity
8
0
100
AcDbBlockBegin
2
CLOSEDBLANK
70
0
10
0.0
20
0.0
30
0.0
3
CLOSEDBLANK
1

0
LINE
5
4e
100
AcDbEntity
8
0
6
BYBLOCK
62
0
100
AcDbLine
10
-1.000000
20
0.166667
11
-1.000000
21
-0.166667
0
LINE
5
4f
100
AcDbEntity
8
0
6
BYBLOCK
62
0
100
AcDbLine
10
0.000000
20
0.000000
11
-1.000000
21
-0.166667
0
LINE
5
50
100
AcDbEntity
8
0
6
BYBLOCK
62
0
100
AcDbLine
10
-1.000000
20
0.166667
11
0.000000
21
0.000000
0
ENDBLK
5
51
100
AcDbEntity
8
0
100
AcDbBlockEnd
0
BLOCK
5
52
100
AcDbEntity
8
0
100
AcDbBlockBegin
2
HALFCLOSE_R
70
0
10
0.0
20
0.0
30
0.0
3
HALFCLOSE_R
1

0
LINE
5
53
100
AcDbEntity
8
0
6
BYBLOCK
62
0
100
AcDbLine
10
-1.000000
20
-0.166667
11
-1.000000
21
0.000000
0
LINE
5
54
100
AcDbEntity
8
0
6
BYBLOCK
62
0
100
AcDbLine
10
-1.000000
20
-0.166667
11
0.000000
21
0.000000
0
LINE
5
55
100
AcDbEntity
8
0
6
BYBLOCK
62
0
100
AcDbLine
10
0.000000
20
0.000000
11
-1.000000
21
0.000000
0
ENDBLK
5
56
100
AcDbEntity
8
0
100
AcDbBlockEnd
0
BLOCK
5
57
100
AcDbEntity
8
0
100
AcDbBlockBegin
2
DOT
70
0
10
0.0
20
0.0
30
0.0
3
DOT
1

0
LINE
5
58
100
AcDbEntity
8
0
6
BYBLOCK
62
0
100
AcDbLine
10
0.000000
20
0.000000
11
-1.000000
21
0.000000
0
POLYLINE
5
59
100
AcDbEntity
8
0
6
BYBLOCK
62
0
100
AcDb2dPolyline
66
1
10
0.0
20
0.0
30
0.0
70
1
40
0.166667
41
0.166667
0
VERTEX
5
5a
100
AcDbEntity
8
0
100
AcDbVertex
100
AcDb2dVertex
62
10
10
-0.083333
20
0.000000
42
1.000000
0
VERTEX
5
5b
100
AcDbEntity
8
0
100
AcDbVertex
100
AcDb2dVertex
62
10
10
0.083333
20
0.000000
42
1.000000
0
SEQEND
5
5c
100
AcDbEntity
8
0
0
ENDBLK
5
5d
100
AcDbEntity
8
0
100
AcDbBlockEnd
0
BLOCK
5
5e
100
AcDbEntity
8
0
100
AcDbBlockBegin
2
HALFOPEN_R
70
0
10
0.0
20
0.0
30
0.0
3
HALFOPEN_R
1

0
LINE
5
5f
100
AcDbEntity
8
0
6
BYBLOCK
62
0
100
AcDbLine
10
-1.000000
20
-0.166667
11
0.000000
21
0.000000
0
LINE
5
60
100
AcDbEntity
8
0
6
BYBLOCK
62
0
100
AcDbLine
10
0.000000
20
0.000000
11
-1.000000
21
0.000000
0
ENDBLK
5
61
100
AcDbEntity
8
0
100
AcDbBlockEnd
0
BLOCK
5
62
100
AcDbEntity
8
0
100
AcDbBlockBegin
2
CLOSEDF
70
0
10
0.0
20
0.0
30
0.0
3
CLOSEDF
1

0
SOLID
5
63
100
AcDbEntity
8
0
6
BYBLOCK
62
0
100
AcDbTrace
10
-1.000000
20
0.166667
11
-1.000000
21
-0.166667
12
0.000000
22
0.000000
13
0.000000
23
0.000000
0
ENDBLK
5
64
100
AcDbEntity
8
0
100
AcDbBlockEnd
0
BLOCK
5
65
100
AcDbEntity
8
0
100
AcDbBlockBegin
2
HALF_R
70
0
10
0.0
20
0.0
30
0.0
3
HALF_R
1

0
SOLID
5
66
100
AcDbEntity
8
0
6
BYBLOCK
62
0
100
AcDbTrace
10
-1.000000
20
-0.166667
11
-1.000000
21
0.000000
12
0.000000
22
0.000000
13
0.000000
23
0.000000
0
ENDBLK
5
67
100
AcDbEntity
8
0
100
AcDbBlockEnd
0
ENDSEC
0
SECTION
2
ENTITIES
0
POLYLINE
5
68
100
AcDbEntity
8
1
6
CONTINUOUS
62
5
100
AcDb2dPolyline
66
1
10
0.0
20
0.0
30
0.0
70
0
0
VERTEX
5
69
100
AcDbEntity
8
1
100
AcDbVertex
100
AcDb2dVertex
62
5
10
124.900000
20
233.511895
0
VERTEX
5
6a
100
AcDbEntity
8
1
100
AcDbVertex
100
AcDb2dVertex
62
5
10
124.900000
20
231.636895
0
VERTEX
5
6b
100
AcDbEntity
8
1
100
AcDbVertex
100
AcDb2dVertex
62
5
10
124.650000
20
230.074395
0
VERTEX
5
6c
100
AcDbEntity
8
1
100
AcDbVertex
100
AcDb2dVertex
62
5
10
124.150000
20
228.824395
0
VERTEX
5
6d
100
AcDbEntity
8
1
100
AcDbVertex
100
AcDb2dVertex
62
5
10
123.400000
20
227.574395
0
VERTEX
5
6e
100
AcDbEntity
8
1
100
AcDbVertex
100
AcDb2dVertex
62
5
10
123.150000
20
227.261895
0
SEQEND
5
6f
100
AcDbEntity
8
1
0
POLYLINE
5
70
100
AcDbEntity
8
1
6
CONTINUOUS
62
5
100
AcDb2dPolyline
66
1
10
0.0
20
0.0
30
0.0
70
0
0
VERTEX
5
71
100
AcDbEntity
8
1
100
AcDbVertex
100
AcDb2dVertex
62
5
10
126.400000
20
233.824395
0
VERTEX
5
72
100
AcDbEntity
8
1
100
AcDbVertex
100
AcDb2dVertex
62
5
10
126.400000
20
227.574395
0
VERTEX
5
73
100
AcDbEntity
8
1
100
AcDbVertex
100
AcDb2dVertex
62
5
10
127.150000
20
227.886895
0
VERTEX
5
74
100
AcDbEntity
8
1
100
AcDbVertex
100
AcDb2dVertex
62
5
10
128.150000
20
228.824395
0
VERTEX
5
75
100
AcDbEntity
8
1
100
AcDbVertex
100
AcDb2dVertex
62
5
10
128.900000
20
229.761895
0
VERTEX
5
76
100
AcDbEntity
8
1
100
AcDbVertex
100
AcDb2dVertex
62
5
10
129.400000
20
230.699395
0
SEQEND
5
77
100
AcDbEntity
8
1
0
POLYLINE
5
78
100
AcDbEntity
8
1
6
CONTINUOUS
62
5
100
AcDb2dPolyline
66
1
10
0.0
20
0.0
30
0.0
70
0
0
VERTEX
5
79
100
AcDbEntity
8
1
100
AcDbVertex
100
AcDb2dVertex
62
5
10
108.900000
20
231.011895
0
VERTEX
5
7a
100
AcDbEntity
8
1
100
AcDbVertex
100
AcDb2dVertex
62
5
10
110.900000
20
231.011895
0
VERTEX
5
7b
100
AcDbEntity
8
1
100
AcDbVertex
100
AcDb2dVertex
62
5
10
110.650000
20
227.886895
0
SEQEND
5
7c
100
AcDbEntity
8
1
0
LINE
5
7d
100
AcDbEntity
8
1
100
AcDbLine
6
CONTINUOUS
62
5
10
108.150000
20
227.886895
11
112.400000
21
227.886895
0
POLYLINE
5
7e
100
AcDbEntity
8
1
6
CONTINUOUS
62
5
100
AcDb2dPolyline
66
1
10
0.0
20
0.0
30
0.0
70
0
0
VERTEX
5
7f
100
AcDbEntity
8
1
100
AcDbVertex
100
AcDb2dVertex
62
5
10
84.150000
20
232.574395
0
VERTEX
5
80
100
AcDbEntity
8
1
100
AcDbVertex
100
AcDb2dVertex
62
5
10
88.150000
20
232.574395
0
VERTEX
5
81
100
AcDbEntity
8
1
100
AcDbVertex
100
AcDb2dVertex
62
5
10
88.150000
20
228.199395
0
VERTEX
5
82
100
AcDbEntity
8
1
100
AcDbVertex
100
AcDb2dVertex
62
5
10
84.150000
20
228.199395
0
SEQEND
5
83
100
AcDbEntity
8
1
0
LINE
5
84
100
AcDbEntity
8
1
100
AcDbLine
6
CONTINUOUS
62
5
10
92.650000
20
233.199395
11
96.400000
21
233.199395
0
LINE
5
85
100
AcDbEntity
8
1
100
AcDbLine
6
CONTINUOUS
62
5
10
91.650000
20
231.011895
11
97.150000
21
231.011895
0
POLYLINE
5
86
100
AcDbEntity
8
1
6
CONTINUOUS
62
5
100
AcDb2dPolyline
66
1
10
0.0
20
0.0
30
0.0
70
0
0
VERTEX
5
87
100
AcDbEntity
8
1
100
AcDbVertex
100
AcDb2dVertex
62
5
10
93.900000
20
233.199395
0
VERTEX
5
88
100
AcDbEntity
8
1
100
AcDbVertex
100
AcDb2dVertex
62
5
10
93.900000
20
228.199395
0
VERTEX
5
89
100
AcDbEntity
8
1
100
AcDbVertex
100
AcDb2dVertex
62
5
10
94.400000
20
227.886895
0
VERTEX
5
8a
100
AcDbEntity
8
1
100
AcDbVertex
100
AcDb2dVertex
62
5
10
96.650000
20
227.886895
0
SEQEND
5
8b
100
AcDbEntity
8
1
0
LINE
5
8c
100
AcDbEntity
8
1
100
AcDbLine
6
CONTINUOUS
62
5
10
100.650000
20
233.511895
11
101.650000
21
232.261895
0
LINE
5
8d
100
AcDbEntity
8
1
100
AcDbLine
6
CONTINUOUS
62
5
10
99.400000
20
231.636895
11
100.400000
21
230.386895
0
POLYLINE
5
8e
100
AcDbEntity
8
1
6
CONTINUOUS
62
5
100
AcDb2dPolyline
66
1
10
0.0
20
0.0
30
0.0
70
0
0
VERTEX
5
8f
100
AcDbEntity
8
1
100
AcDbVertex
100
AcDb2dVertex
62
5
10
99.650000
20
227.574395
0
VERTEX
5
90
100
AcDbEntity
8
1
100
AcDbVertex
100
AcDb2dVertex
62
5
10
101.400000
20
228.199395
0
VERTEX
5
91
100
AcDbEntity
8
1
100
AcDbVertex
100
AcDb2dVertex
62
5
10
102.900000
20
229.136895
0
VERTEX
5
92
100
AcDbEntity
8
1
100
AcDbVertex
100
AcDb2dVertex
62
5
10
104.900000
20
231.011895
0
SEQEND
5
93
100
AcDbEntity
8
1
0
LINE
5
94
100
AcDbEntity
8
1
100
AcDbLine
6
CONTINUOUS
62
5
10
103.400000
20
232.574395
11
103.900000
21
231.949395
0
LINE
5
95
100
AcDbEntity
8
1
100
AcDbLine
6
CONTINUOUS
62
5
10
103.900000
20
233.511895
11
104.400000
21
232.886895
0
POLYLINE
5
96
100
AcDbEntity
8
1
6
CONTINUOUS
62
5
100
AcDb2dPolyline
66
1
10
0.0
20
0.0
30
0.0
70
0
0
VERTEX
5
97
100
AcDbEntity
8
1
100
AcDbVertex
100
AcDb2dVertex
62
5
10
115.150000
20
231.011895
0
VERTEX
5
98
100
AcDbEntity
8
1
100
AcDbVertex
100
AcDb2dVertex
62
5
10
115.400000
20
230.699395
0
VERTEX
5
99
100
AcDbEntity
8
1
100
AcDbVertex
100
AcDb2dVertex
62
5
10
122.150000
20
230.699395
0
SEQEND
5
9a
100
AcDbEntity
8
1
0
POLYLINE
5
9b
100
AcDbEntity
8
1
6
CONTINUOUS
62
5
100
AcDb2dPolyline
66
1
10
0.0
20
0.0
30
0.0
70
0
0
VERTEX
5
9c
100
AcDbEntity
8
1
100
AcDbVertex
100
AcDb2dVertex
62
5
10
63.900000
20
234.449395
0
VERTEX
5
9d
100
AcDbEntity
8
1
100
AcDbVertex
100
AcDb2dVertex
62
5
10
63.900000
20
228.824395
0
VERTEX
5
9e
100
AcDbEntity
8
1
100
AcDbVertex
100
AcDb2dVertex
62
5
10
63.400000
20
227.574395
0
VERTEX
5
9f
100
AcDbEntity
8
1
100
AcDbVertex
100
AcDb2dVertex
62
5
10
62.900000
20
226.636895
0
SEQEND
5
a0
100
AcDbEntity
8
1
0
POLYLINE
5
a1
100
AcDbEntity
8
1
6
CONTINUOUS
62
5
100
AcDb2dPolyline
66
1
10
0.0
20
0.0
30
0.0
70
0
0
VERTEX
5
a2
100
AcDbEntity
8
1
100
AcDbVertex
100
AcDb2dVertex
62
5
10
67.900000
20
226.949395
0
VERTEX
5
a3
100
AcDbEntity
8
1
100
AcDbVertex
100
AcDb2dVertex
62
5
10
68.900000
20
226.324395
0
VERTEX
5
a4
100
AcDbEntity
8
1
100
AcDbVertex
100
AcDb2dVertex
62
5
10
68.900000
20
234.449395
0
VERTEX
5
a5
100
AcDbEntity
8
1
100
AcDbVertex
100
AcDb2dVertex
62
5
10
63.900000
20
234.449395
0
SEQEND
5
a6
100
AcDbEntity
8
1
0
LINE
5
a7
100
AcDbEntity
8
1
100
AcDbLine
6
CONTINUOUS
62
5
10
63.900000
20
231.949395
11
68.900000
21
231.949395
0
LINE
5
a8
100
AcDbEntity
8
1
100
AcDbLine
6
CONTINUOUS
62
5
10
66.400000
20
234.449395
11
66.400000
21
226.324395
0
LINE
5
a9
100
AcDbEntity
8
1
100
AcDbLine
6
CONTINUOUS
62
5
10
63.900000
20
229.449395
11
68.900000
21
229.449395
0
LINE
5
aa
100
AcDbEntity
8
1
100
AcDbLine
6
CONTINUOUS
62
5
10
48.650000
20
231.011895
11
48.900000
21
229.761895
0
LINE
5
ab
100
AcDbEntity
8
1
100
AcDbLine
6
CONTINUOUS
62
5
10
50.150000
20
231.324395
11
50.400000
21
230.074395
0
POLYLINE
5
ac
100
AcDbEntity
8
1
6
CONTINUOUS
62
5
100
AcDb2dPolyline
66
1
10
0.0
20
0.0
30
0.0
70
0
0
VERTEX
5
ad
100
AcDbEntity
8
1
100
AcDbVertex
100
AcDb2dVertex
62
5
10
52.150000
20
231.324395
0
VERTEX
5
ae
100
AcDbEntity
8
1
100
AcDbVertex
100
AcDb2dVertex
62
5
10
51.900000
20
229.761895
0
VERTEX
5
af
100
AcDbEntity
8
1
100
AcDbVertex
100
AcDb2dVertex
62
5
10
50.650000
20
227.886895
0
VERTEX
5
b0
100
AcDbEntity
8
1
100
AcDbVertex
100
AcDb2dVertex
62
5
10
49.650000
20
226.949395
0
SEQEND
5
b1
100
AcDbEntity
8
1
0
POLYLINE
5
b2
100
AcDbEntity
8
1
6
CONTINUOUS
62
5
100
AcDb2dPolyline
66
1
10
0.0
20
0.0
30
0.0
70
0
0
VERTEX
5
b3
100
AcDbEntity
8
1
100
AcDbVertex
100
AcDb2dVertex
62
5
10
57.650000
20
231.636895
0
VERTEX
5
b4
100
AcDbEntity
8
1
100
AcDbVertex
100
AcDb2dVertex
62
5
10
57.900000
20
231.636895
0
VERTEX
5
b5
100
AcDbEntity
8
1
100
AcDbVertex
100
AcDb2dVertex
62
5
10
59.650000
20
230.386895
0
SEQEND
5
b6
100
AcDbEntity
8
1
0
LINE
5
b7
100
AcDbEntity
8
1
100
AcDbLine
6
CONTINUOUS
62
5
10
57.650000
20
234.449395
11
57.650000
21
226.949395
0
POLYLINE
5
b8
100
AcDbEntity
8
1
6
CONTINUOUS
62
5
100
AcDb2dPolyline
66
1
10
0.0
20
0.0
30
0.0
70
0
0
VERTEX
5
b9
100
AcDbEntity
8
1
100
AcDbVertex
100
AcDb2dVertex
62
5
10
32.150000
20
234.761895
0
VERTEX
5
ba
100
AcDbEntity
8
1
100
AcDbVertex
100
AcDb2dVertex
62
5
10
31.650000
20
232.574395
0
VERTEX
5
bb
100
AcDbEntity
8
1
100
AcDbVertex
100
AcDb2dVertex
62
5
10
30.650000
20
230.074395
0
SEQEND
5
bc
100
AcDbEntity
8
1
0
LINE
5
bd
100
AcDbEntity
8
1
100
AcDbLine
6
CONTINUOUS
62
5
10
31.650000
20
232.574395
11
31.650000
21
226.324395
0
POLYLINE
5
be
100
AcDbEntity
8
1
6
CONTINUOUS
62
5
100
AcDb2dPolyline
66
1
10
0.0
20
0.0
30
0.0
70
0
0
VERTEX
5
bf
100
AcDbEntity
8
1
100
AcDbVertex
100
AcDb2dVertex
62
5
10
36.900000
20
234.761895
0
VERTEX
5
c0
100
AcDbEntity
8
1
100
AcDbVertex
100
AcDb2dVertex
62
5
10
33.150000
20
234.136895
0
VERTEX
5
c1
100
AcDbEntity
8
1
100
AcDbVertex
100
AcDb2dVertex
62
5
10
33.150000
20
228.511895
0
SEQEND
5
c2
100
AcDbEntity
8
1
0
LINE
5
c3
100
AcDbEntity
8
1
100
AcDbLine
6
CONTINUOUS
62
5
10
32.400000
20
228.199395
11
35.150000
21
229.136895
0
LINE
5
c4
100
AcDbEntity
8
1
100
AcDbLine
6
CONTINUOUS
62
5
10
33.150000
20
231.949395
11
37.400000
21
231.949395
0
POLYLINE
5
c5
100
AcDbEntity
8
1
6
CONTINUOUS
62
5
100
AcDb2dPolyline
66
1
10
0.0
20
0.0
30
0.0
70
0
0
VERTEX
5
c6
100
AcDbEntity
8
1
100
AcDbVertex
100
AcDb2dVertex
62
5
10
35.150000
20
234.449395
0
VERTEX
5
c7
100
AcDbEntity
8
1
100
AcDbVertex
100
AcDb2dVertex
62
5
10
35.150000
20
232.261895
0
VERTEX
5
c8
100
AcDbEntity
8
1
100
AcDbVertex
100
AcDb2dVertex
62
5
10
35.400000
20
230.386895
0
VERTEX
5
c9
100
AcDbEntity
8
1
100
AcDbVertex
100
AcDb2dVertex
62
5
10
35.650000
20
229.449395
0
VERTEX
5
ca
100
AcDbEntity
8
1
100
AcDbVertex
100
AcDb2dVertex
62
5
10
36.150000
20
228.199395
0
VERTEX
5
cb
100
AcDbEntity
8
1
100
AcDbVertex
100
AcDb2dVertex
62
5
10
36.650000
20
227.574395
0
VERTEX
5
cc
100
AcDbEntity
8
1
100
AcDbVertex
100
AcDb2dVertex
62
5
10
37.400000
20
227.261895
0
VERTEX
5
cd
100
AcDbEntity
8
1
100
AcDbVertex
100
AcDb2dVertex
62
5
10
37.650000
20
229.136895
0
SEQEND
5
ce
100
AcDbEntity
8
1
0
LINE
5
cf
100
AcDbEntity
8
1
100
AcDbLine
6
CONTINUOUS
62
5
10
32.900000
20
227.261895
11
35.650000
21
227.261895
0
POLYLINE
5
d0
100
AcDbEntity
8
1
6
CONTINUOUS
62
5
100
AcDb2dPolyline
66
1
10
0.0
20
0.0
30
0.0
70
0
0
VERTEX
5
d1
100
AcDbEntity
8
1
100
AcDbVertex
100
AcDb2dVertex
62
5
10
8.150000
20
230.699395
0
VERTEX
5
d2
100
AcDbEntity
8
1
100
AcDbVertex
100
AcDb2dVertex
62
5
10
9.150000
20
231.949395
0
VERTEX
5
d3
100
AcDbEntity
8
1
100
AcDbVertex
100
AcDb2dVertex
62
5
10
9.650000
20
232.886895
0
VERTEX
5
d4
100
AcDbEntity
8
1
100
AcDbVertex
100
AcDb2dVertex
62
5
10
12.150000
20
232.886895
0
VERTEX
5
d5
100
AcDbEntity
8
1
100
AcDbVertex
100
AcDb2dVertex
62
5
10
12.150000
20
232.574395
0
VERTEX
5
d6
100
AcDbEntity
8
1
100
AcDbVertex
100
AcDb2dVertex
62
5
10
11.400000
20
230.699395
0
VERTEX
5
d7
100
AcDbEntity
8
1
100
AcDbVertex
100
AcDb2dVertex
62
5
10
10.150000
20
228.824395
0
VERTEX
5
d8
100
AcDbEntity
8
1
100
AcDbVertex
100
AcDb2dVertex
62
5
10
8.650000
20
227.261895
0
SEQEND
5
d9
100
AcDbEntity
8
1
0
POLYLINE
5
da
100
AcDbEntity
8
1
6
CONTINUOUS
62
5
100
AcDb2dPolyline
66
1
10
0.0
20
0.0
30
0.0
70
0
0
VERTEX
5
db
100
AcDbEntity
8
1
100
AcDbVertex
100
AcDb2dVertex
62
5
10
15.900000
20
234.449395
0
VERTEX
5
dc
100
AcDbEntity
8
1
100
AcDbVertex
100
AcDb2dVertex
62
5
10
15.900000
20
228.824395
0
VERTEX
5
dd
100
AcDbEntity
8
1
100
AcDbVertex
100
AcDb2dVertex
62
5
10
15.400000
20
227.574395
0
VERTEX
5
de
100
AcDbEntity
8
1
100
AcDbVertex
100
AcDb2dVertex
62
5
10
14.900000
20
226.636895
0
SEQEND
5
df
100
AcDbEntity
8
1
0
POLYLINE
5
e0
100
AcDbEntity
8
1
6
CONTINUOUS
62
5
100
AcDb2dPolyline
66
1
10
0.0
20
0.0
30
0.0
70
0
0
VERTEX
5
e1
100
AcDbEntity
8
1
100
AcDbVertex
100
AcDb2dVertex
62
5
10
19.900000
20
226.949395
0
VERTEX
5
e2
100
AcDbEntity
8
1
100
AcDbVertex
100
AcDb2dVertex
62
5
10
20.900000
20
226.324395
0
VERTEX
5
e3
100
AcDbEntity
8
1
100
AcDbVertex
100
AcDb2dVertex
62
5
10
20.900000
20
234.449395
0
VERTEX
5
e4
100
AcDbEntity
8
1
100
AcDbVertex
100
AcDb2dVertex
62
5
10
15.900000
20
234.449395
0
SEQEND
5
e5
100
AcDbEntity
8
1
0
LINE
5
e6
100
AcDbEntity
8
1
100
AcDbLine
6
CONTINUOUS
62
5
10
15.900000
20
231.949395
11
20.900000
21
231.949395
0
LINE
5
e7
100
AcDbEntity
8
1
100
AcDbLine
6
CONTINUOUS
62
5
10
18.400000
20
234.449395
11
18.400000
21
226.324395
0
LINE
5
e8
100
AcDbEntity
8
1
100
AcDbLine
6
CONTINUOUS
62
5
10
15.900000
20
229.449395
11
20.900000
21
229.449395
0
POLYLINE
5
e9
100
AcDbEntity
8
1
6
CONTINUOUS
62
5
100
AcDb2dPolyline
66
1
10
0.0
20
0.0
30
0.0
70
0
0
VERTEX
5
ea
100
AcDbEntity
8
1
100
AcDbVertex
100
AcDb2dVertex
62
5
10
40.150000
20
231.011895
0
VERTEX
5
eb
100
AcDbEntity
8
1
100
AcDbVertex
100
AcDb2dVertex
62
5
10
40.150000
20
233.199395
0
VERTEX
5
ec
100
AcDbEntity
8
1
100
AcDbVertex
100
AcDb2dVertex
62
5
10
44.150000
20
233.199395
0
VERTEX
5
ed
100
AcDbEntity
8
1
100
AcDbVertex
100
AcDb2dVertex
62
5
10
44.150000
20
232.261895
0
VERTEX
5
ee
100
AcDbEntity
8
1
100
AcDbVertex
100
AcDb2dVertex
62
5
10
43.900000
20
230.699395
0
VERTEX
5
ef
100
AcDbEntity
8
1
100
AcDbVertex
100
AcDb2dVertex
62
5
10
43.400000
20
229.449395
0
VERTEX
5
f0
100
AcDbEntity
8
1
100
AcDbVertex
100
AcDb2dVertex
62
5
10
42.900000
20
228.511895
0
VERTEX
5
f1
100
AcDbEntity
8
1
100
AcDbVertex
100
AcDb2dVertex
62
5
10
41.900000
20
227.261895
0
SEQEND
5
f2
100
AcDbEntity
8
1
0
POLYLINE
5
f3
100
AcDbEntity
8
1
6
CONTINUOUS
62
5
100
AcDb2dPolyline
66
1
10
0.0
20
0.0
30
0.0
70
0
0
VERTEX
5
f4
100
AcDbEntity
8
1
100
AcDbVertex
100
AcDb2dVertex
62
5
10
79.400000
20
232.261895
0
VERTEX
5
f5
100
AcDbEntity
8
1
100
AcDbVertex
100
AcDb2dVertex
62
5
10
79.650000
20
233.824395
0
VERTEX
5
f6
100
AcDbEntity
8
1
100
AcDbVertex
100
AcDb2dVertex
62
5
10
80.400000
20
234.449395
0
VERTEX
5
f7
100
AcDbEntity
8
1
100
AcDbVertex
100
AcDb2dVertex
62
5
10
81.150000
20
234.449395
0
VERTEX
5
f8
100
AcDbEntity
8
1
100
AcDbVertex
100
AcDb2dVertex
62
5
10
81.650000
20
234.136895
0
VERTEX
5
f9
100
AcDbEntity
8
1
100
AcDbVertex
100
AcDb2dVertex
62
5
10
81.900000
20
233.199395
0
VERTEX
5
fa
100
AcDbEntity
8
1
100
AcDbVertex
100
AcDb2dVertex
62
5
10
81.900000
20
232.261895
0
VERTEX
5
fb
100
AcDbEntity
8
1
100
AcDbVertex
100
AcDb2dVertex
62
5
10
81.650000
20
231.324395
0
VERTEX
5
fc
100
AcDbEntity
8
1
100
AcDbVertex
100
AcDb2dVertex
62
5
10
79.400000
20
226.949395
0
VERTEX
5
fd
100
AcDbEntity
8
1
100
AcDbVertex
100
AcDb2dVertex
62
5
10
81.900000
20
226.949395
0
VERTEX
5
fe
100
AcDbEntity
8
1
100
AcDbVertex
100
AcDb2dVertex
62
5
10
81.900000
20
227.886895
0
SEQEND
5
ff
100
AcDbEntity
8
1
0
POLYLINE
5
100
100
AcDbEntity
8
1
6
DOT2
62
5
100
AcDb2dPolyline
66
1
10
0.0
20
0.0
30
0.0
70
0
0
VERTEX
5
101
100
AcDbEntity
8
1
100
AcDbVertex
100
AcDb2dVertex
62
5
10
2.650000
20
156.474395
0
VERTEX
5
102
100
AcDbEntity
8
1
100
AcDbVertex
100
AcDb2dVertex
62
5
10
2.962500
20
157.724395
0
VERTEX
5
103
100
AcDbEntity
8
1
100
AcDbVertex
100
AcDb2dVertex
62
5
10
3.587500
20
158.349395
0
VERTEX
5
104
100
AcDbEntity
8
1
100
AcDbVertex
100
AcDb2dVertex
62
5
10
4.525000
20
158.349395
0
VERTEX
5
105
100
AcDbEntity
8
1
100
AcDbVertex
100
AcDb2dVertex
62
5
10
5.150000
20
158.036895
0
VERTEX
5
106
100
AcDbEntity
8
1
100
AcDbVertex
100
AcDb2dVertex
62
5
10
5.462500
20
157.099395
0
VERTEX
5
107
100
AcDbEntity
8
1
100
AcDbVertex
100
AcDb2dVertex
62
5
10
5.462500
20
155.849395
0
VERTEX
5
108
100
AcDbEntity
8
1
100
AcDbVertex
100
AcDb2dVertex
62
5
10
5.150000
20
155.224395
0
VERTEX
5
109
100
AcDbEntity
8
1
100
AcDbVertex
100
AcDb2dVertex
62
5
10
4.525000
20
154.599395
0
VERTEX
5
10a
100
AcDbEntity
8
1
100
AcDbVertex
100
AcDb2dVertex
62
5
10
3.587500
20
154.599395
0
SEQEND
5
10b
100
AcDbEntity
8
1
0
POLYLINE
5
10c
100
AcDbEntity
8
1
6
DOT2
62
5
100
AcDb2dPolyline
66
1
10
0.0
20
0.0
30
0.0
70
0
0
VERTEX
5
10d
100
AcDbEntity
8
1
100
AcDbVertex
100
AcDb2dVertex
62
5
10
4.525000
20
154.599395
0
VERTEX
5
10e
100
AcDbEntity
8
1
100
AcDbVertex
100
AcDb2dVertex
62
5
10
5.462500
20
153.974395
0
VERTEX
5
10f
100
AcDbEntity
8
1
100
AcDbVertex
100
AcDb2dVertex
62
5
10
5.775000
20
153.036895
0
VERTEX
5
110
100
AcDbEntity
8
1
100
AcDbVertex
100
AcDb2dVertex
62
5
10
5.775000
20
152.099395
0
VERTEX
5
111
100
AcDbEntity
8
1
100
AcDbVertex
100
AcDb2dVertex
62
5
10
5.462500
20
151.474395
0
VERTEX
5
112
100
AcDbEntity
8
1
100
AcDbVertex
100
AcDb2dVertex
62
5
10
4.525000
20
150.849395
0
VERTEX
5
113
100
AcDbEntity
8
1
100
AcDbVertex
100
AcDb2dVertex
62
5
10
3.587500
20
150.849395
0
VERTEX
5
114
100
AcDbEntity
8
1
100
AcDbVertex
100
AcDb2dVertex
62
5
10
2.962500
20
151.161895
0
VERTEX
5
115
100
AcDbEntity
8
1
100
AcDbVertex
100
AcDb2dVertex
62
5
10
2.337500
20
152.099395
0
SEQEND
5
116
100
AcDbEntity
8
1
0
CIRCLE
5
117
100
AcDbEntity
8
1
100
AcDbCircle
6
CONTINUOUS
62
5
10
19.400000
20
122.499395
40
0.500000
0
LINE
5
118
100
AcDbEntity
8
1
100
AcDbLine
6
CONTINUOUS
62
5
10
9.614116
20
119.744332
11
10.876348
21
119.649395
0
LINE
5
119
100
AcDbEntity
8
1
100
AcDbLine
6
CONTINUOUS
62
5
10
14.400000
20
120.849395
11
14.900000
21
121.149395
0
ARC
5
11a
100
AcDbEntity
8
1
100
AcDbCircle
6
CONTINUOUS
62
5
10
21.400000
20
123.599395
40
1.000000
100
AcDbArc
50
0.000000
51
89.999999
0
LINE
5
11b
100
AcDbEntity
8
1
100
AcDbLine
6
CONTINUOUS
62
5
10
21.400000
20
124.599395
11
18.401945
21
124.599391
0
LINE
5
11c
100
AcDbEntity
8
1
100
AcDbLine
6
CONTINUOUS
62
5
10
22.400000
20
123.549395
11
22.400000
21
123.599395
0
LINE
5
11d
100
AcDbEntity
8
1
100
AcDbLine
6
DOT2
62
5
10
46.025000
20
103.624395
11
46.650000
21
102.999395
0
POLYLINE
5
11e
100
AcDbEntity
8
1
6
DOT2
62
5
100
AcDb2dPolyline
66
1
10
0.0
20
0.0
30
0.0
70
0
0
VERTEX
5
11f
100
AcDbEntity
8
1
100
AcDbVertex
100
AcDb2dVertex
62
5
10
46.025000
20
102.999395
0
VERTEX
5
120
100
AcDbEntity
8
1
100
AcDbVertex
100
AcDb2dVertex
62
5
10
46.650000
20
103.624395
0
VERTEX
5
121
100
AcDbEntity
8
1
100
AcDbVertex
100
AcDb2dVertex
62
5
10
46.650000
20
102.999395
0
VERTEX
5
122
100
AcDbEntity
8
1
100
AcDbVertex
100
AcDb2dVertex
62
5
10
46.025000
20
102.999395
0
VERTEX
5
123
100
AcDbEntity
8
1
100
AcDbVertex
100
AcDb2dVertex
62
5
10
46.025000
20
103.624395
0
VERTEX
5
124
100
AcDbEntity
8
1
100
AcDbVertex
100
AcDb2dVertex
62
5
10
46.650000
20
103.624395
0
SEQEND
5
125
100
AcDbEntity
8
1
0
ARC
5
126
100
AcDbEntity
8
1
100
AcDbCircle
6
CONTINUOUS
62
5
10
13.093622
20
116.099395
40
0.300000
100
AcDbArc
50
-89.999999
51
-2.925299
0
LINE
5
127
100
AcDbEntity
8
1
100
AcDbLine
6
CONTINUOUS
62
5
10
13.393231
20
116.084085
11
13.429001
21
116.784085
0
POLYLINE
5
128
100
AcDbEntity
8
1
6
CONTINUOUS
62
5
100
AcDb2dPolyline
66
1
10
0.0
20
0.0
30
0.0
70
0
0
VERTEX
5
129
100
AcDbEntity
8
1
100
AcDbVertex
100
AcDb2dVertex
62
5
10
10.876348
20
116.499395
0
VERTEX
5
12a
100
AcDbEntity
8
1
100
AcDbVertex
100
AcDb2dVertex
62
5
10
11.479751
20
115.799395
0
VERTEX
5
12b
100
AcDbEntity
8
1
100
AcDbVertex
100
AcDb2dVertex
62
5
10
13.093622
20
115.799395
0
SEQEND
5
12c
100
AcDbEntity
8
1
0
ARC
5
12d
100
AcDbEntity
8
1
100
AcDbCircle
6
CONTINUOUS
62
5
10
13.178683
20
114.699395
40
0.200000
100
AcDbArc
50
-89.999999
51
0.000000
0
LINE
5
12e
100
AcDbEntity
8
1
100
AcDbLine
6
CONTINUOUS
62
5
10
13.378683
20
114.699395
11
13.378683
21
116.005906
0
LINE
5
12f
100
AcDbEntity
8
1
100
AcDbLine
6
CONTINUOUS
62
5
10
11.961710
20
115.799395
11
11.961710
21
115.749395
0
LINE
5
130
100
AcDbEntity
8
1
100
AcDbLine
6
CONTINUOUS
62
5
10
12.485036
20
114.499395
11
13.178683
21
114.499395
0
ARC
5
131
100
AcDbEntity
8
1
100
AcDbCircle
6
CONTINUOUS
62
5
10
13.093622
20
117.999395
40
0.300000
100
AcDbArc
50
2.925299
51
89.999999
0
LINE
5
132
100
AcDbEntity
8
1
100
AcDbLine
6
CONTINUOUS
62
5
10
13.393231
20
118.014705
11
13.429001
21
117.314705
0
LINE
5
133
100
AcDbEntity
8
1
100
AcDbLine
6
CONTINUOUS
62
5
10
11.934455
20
118.299395
11
13.093622
21
118.299395
0
POLYLINE
5
134
100
AcDbEntity
8
1
6
CONTINUOUS
62
5
100
AcDb2dPolyline
66
1
10
0.0
20
0.0
30
0.0
70
0
0
VERTEX
5
135
100
AcDbEntity
8
1
100
AcDbVertex
100
AcDb2dVertex
62
5
10
12.485036
20
115.628412
0
VERTEX
5
136
100
AcDbEntity
8
1
100
AcDbVertex
100
AcDb2dVertex
62
5
10
12.449980
20
115.599966
0
VERTEX
5
137
100
AcDbEntity
8
1
100
AcDbVertex
100
AcDb2dVertex
62
5
10
12.344813
20
115.577841
0
VERTEX
5
138
100
AcDbEntity
8
1
100
AcDbVertex
100
AcDb2dVertex
62
5
10
12.169536
20
115.562038
0
VERTEX
5
139
100
AcDbEntity
8
1
100
AcDbVertex
100
AcDb2dVertex
62
5
10
11.924147
20
115.552555
0
VERTEX
5
13a
100
AcDbEntity
8
1
100
AcDbVertex
100
AcDb2dVertex
62
5
10
11.608647
20
115.549395
0
SEQEND
5
13b
100
AcDbEntity
8
1
0
POLYLINE
5
13c
100
AcDbEntity
8
1
6
CONTINUOUS
62
5
100
AcDb2dPolyline
66
1
10
0.0
20
0.0
30
0.0
70
0
0
VERTEX
5
13d
100
AcDbEntity
8
1
100
AcDbVertex
100
AcDb2dVertex
62
5
10
11.688276
20
115.749395
0
VERTEX
5
13e
100
AcDbEntity
8
1
100
AcDbVertex
100
AcDb2dVertex
62
5
10
11.867109
20
115.744555
0
VERTEX
5
13f
100
AcDbEntity
8
1
100
AcDbVertex
100
AcDb2dVertex
62
5
10
12.006202
20
115.730038
0
VERTEX
5
140
100
AcDbEntity
8
1
100
AcDbVertex
100
AcDb2dVertex
62
5
10
12.105553
20
115.705841
0
VERTEX
5
141
100
AcDbEntity
8
1
100
AcDbVertex
100
AcDb2dVertex
62
5
10
12.165164
20
115.671966
0
VERTEX
5
142
100
AcDbEntity
8
1
100
AcDbVertex
100
AcDb2dVertex
62
5
10
12.185035
20
115.628412
0
SEQEND
5
143
100
AcDbEntity
8
1
0
POLYLINE
5
144
100
AcDbEntity
8
1
6
CONTINUOUS
62
5
100
AcDb2dPolyline
66
1
10
0.0
20
0.0
30
0.0
70
0
0
VERTEX
5
145
100
AcDbEntity
8
1
100
AcDbVertex
100
AcDb2dVertex
62
5
10
12.185035
20
115.628412
0
VERTEX
5
146
100
AcDbEntity
8
1
100
AcDbVertex
100
AcDb2dVertex
62
5
10
12.165164
20
115.599966
0
VERTEX
5
147
100
AcDbEntity
8
1
100
AcDbVertex
100
AcDb2dVertex
62
5
10
12.105553
20
115.577841
0
VERTEX
5
148
100
AcDbEntity
8
1
100
AcDbVertex
100
AcDb2dVertex
62
5
10
12.006202
20
115.562038
0
VERTEX
5
149
100
AcDbEntity
8
1
100
AcDbVertex
100
AcDb2dVertex
62
5
10
11.867109
20
115.552555
0
VERTEX
5
14a
100
AcDbEntity
8
1
100
AcDbVertex
100
AcDb2dVertex
62
5
10
11.791853
20
115.551225
0
SEQEND
5
14b
100
AcDbEntity
8
1
0
POLYLINE
5
14c
100
AcDbEntity
8
1
6
CONTINUOUS
62
5
100
AcDb2dPolyline
66
1
10
0.0
20
0.0
30
0.0
70
0
0
VERTEX
5
14d
100
AcDbEntity
8
1
100
AcDbVertex
100
AcDb2dVertex
62
5
10
11.987865
20
115.749395
0
VERTEX
5
14e
100
AcDbEntity
8
1
100
AcDbVertex
100
AcDb2dVertex
62
5
10
12.166846
20
115.744555
0
VERTEX
5
14f
100
AcDbEntity
8
1
100
AcDbVertex
100
AcDb2dVertex
62
5
10
12.306054
20
115.730038
0
VERTEX
5
150
100
AcDbEntity
8
1
100
AcDbVertex
100
AcDb2dVertex
62
5
10
12.405488
20
115.705841
0
VERTEX
5
151
100
AcDbEntity
8
1
100
AcDbVertex
100
AcDb2dVertex
62
5
10
12.465149
20
115.671966
0
VERTEX
5
152
100
AcDbEntity
8
1
100
AcDbVertex
100
AcDb2dVertex
62
5
10
12.485036
20
115.628412
0
SEQEND
5
153
100
AcDbEntity
8
1
0
LINE
5
154
100
AcDbEntity
8
1
100
AcDbLine
6
CONTINUOUS
62
5
10
6.351278
20
116.749395
11
6.351278
21
115.249395
0
ARC
5
155
100
AcDbEntity
8
1
100
AcDbCircle
6
CONTINUOUS
62
5
10
6.902915
20
116.849395
40
0.300000
100
AcDbArc
50
89.999999
51
179.999998
0
LINE
5
156
100
AcDbEntity
8
1
100
AcDbLine
6
CONTINUOUS
62
5
10
6.602915
20
116.849395
11
6.602915
21
115.749395
0
LINE
5
157
100
AcDbEntity
8
1
100
AcDbLine
6
CONTINUOUS
62
5
10
7.784260
20
116.849395
11
7.784260
21
116.849395
0
ARC
5
158
100
AcDbEntity
8
1
100
AcDbCircle
6
CONTINUOUS
62
5
10
7.484260
20
116.849395
40
0.300000
100
AcDbArc
50
0.000000
51
89.999999
0
LINE
5
159
100
AcDbEntity
8
1
100
AcDbLine
6
CONTINUOUS
62
5
10
7.484260
20
117.149395
11
6.902915
21
117.149395
0
LINE
5
15a
100
AcDbEntity
8
1
100
AcDbLine
6
CONTINUOUS
62
5
10
6.351278
20
118.249395
11
6.351278
21
116.749395
0
LINE
5
15b
100
AcDbEntity
8
1
100
AcDbLine
6
CONTINUOUS
62
5
10
15.100000
20
116.499395
11
15.261572
21
116.799395
0
LINE
5
15c
100
AcDbEntity
8
1
100
AcDbLine
6
CONTINUOUS
62
5
10
2.000000
20
115.349395
11
2.300000
21
115.649395
0
ARC
5
15d
100
AcDbEntity
8
1
100
AcDbCircle
6
CONTINUOUS
62
5
10
6.863893
20
115.449395
40
0.300000
100
AcDbArc
50
89.999999
51
172.041706
0
POLYLINE
5
15e
100
AcDbEntity
8
1
6
CONTINUOUS
62
5
100
AcDb2dPolyline
66
1
10
0.0
20
0.0
30
0.0
70
0
0
VERTEX
5
15f
100
AcDbEntity
8
1
100
AcDbVertex
100
AcDb2dVertex
62
5
10
6.566782
20
115.490930
0
VERTEX
5
160
100
AcDbEntity
8
1
100
AcDbVertex
100
AcDb2dVertex
62
5
10
6.351278
20
113.949395
0
VERTEX
5
161
100
AcDbEntity
8
1
100
AcDbVertex
100
AcDb2dVertex
62
5
10
7.784260
20
113.949395
0
VERTEX
5
162
100
AcDbEntity
8
1
100
AcDbVertex
100
AcDb2dVertex
62
5
10
7.784260
20
115.449395
0
SEQEND
5
163
100
AcDbEntity
8
1
0
ARC
5
164
100
AcDbEntity
8
1
100
AcDbCircle
6
CONTINUOUS
62
5
10
7.484260
20
115.449395
40
0.300000
100
AcDbArc
50
0.000000
51
89.999999
0
LINE
5
165
100
AcDbEntity
8
1
100
AcDbLine
6
CONTINUOUS
62
5
10
7.484260
20
115.749395
11
6.863893
21
115.749395
0
LINE
5
166
100
AcDbEntity
8
1
100
AcDbLine
6
CONTINUOUS
62
5
10
6.351278
20
112.549395
11
6.351278
21
113.949395
0
ARC
5
167
100
AcDbEntity
8
1
100
AcDbCircle
6
CONTINUOUS
62
5
10
10.839684
20
114.799395
40
0.300000
100
AcDbArc
50
-89.999999
51
0.000000
0
LINE
5
168
100
AcDbEntity
8
1
100
AcDbLine
6
CONTINUOUS
62
5
10
10.839684
20
114.499395
11
10.324799
21
114.499395
0
ARC
5
169
100
AcDbEntity
8
1
100
AcDbCircle
6
CONTINUOUS
62
5
10
10.324799
20
114.799395
40
0.300000
100
AcDbArc
50
179.999998
51
-89.999999
0
POLYLINE
5
16a
100
AcDbEntity
8
1
6
CONTINUOUS
62
5
100
AcDb2dPolyline
66
1
10
0.0
20
0.0
30
0.0
70
0
0
VERTEX
5
16b
100
AcDbEntity
8
1
100
AcDbVertex
100
AcDb2dVertex
62
5
10
10.024799
20
114.799395
0
VERTEX
5
16c
100
AcDbEntity
8
1
100
AcDbVertex
100
AcDb2dVertex
62
5
10
10.024799
20
114.799395
0
VERTEX
5
16d
100
AcDbEntity
8
1
100
AcDbVertex
100
AcDb2dVertex
62
5
10
10.024799
20
111.699395
0
VERTEX
5
16e
100
AcDbEntity
8
1
100
AcDbVertex
100
AcDb2dVertex
62
5
10
10.024799
20
111.699395
0
SEQEND
5
16f
100
AcDbEntity
8
1
0
ARC
5
170
100
AcDbEntity
8
1
100
AcDbCircle
6
CONTINUOUS
62
5
10
10.324799
20
111.699395
40
0.300000
100
AcDbArc
50
89.999999
51
179.999998
0
LINE
5
171
100
AcDbEntity
8
1
100
AcDbLine
6
CONTINUOUS
62
5
10
10.324799
20
111.999395
11
10.839684
21
111.999395
0
ARC
5
172
100
AcDbEntity
8
1
100
AcDbCircle
6
CONTINUOUS
62
5
10
10.839684
20
111.699395
40
0.300000
100
AcDbArc
50
0.000000
51
89.999999
0
POLYLINE
5
173
100
AcDbEntity
8
1
6
CONTINUOUS
62
5
100
AcDb2dPolyline
66
1
10
0.0
20
0.0
30
0.0
70
0
0
VERTEX
5
174
100
AcDbEntity
8
1
100
AcDbVertex
100
AcDb2dVertex
62
5
10
11.139684
20
111.699395
0
VERTEX
5
175
100
AcDbEntity
8
1
100
AcDbVertex
100
AcDb2dVertex
62
5
10
11.139684
20
111.699395
0
VERTEX
5
176
100
AcDbEntity
8
1
100
AcDbVertex
100
AcDb2dVertex
62
5
10
11.139684
20
114.799395
0
VERTEX
5
177
100
AcDbEntity
8
1
100
AcDbVertex
100
AcDb2dVertex
62
5
10
11.139684
20
114.799395
0
SEQEND
5
178
100
AcDbEntity
8
1
0
ARC
5
179
100
AcDbEntity
8
1
100
AcDbCircle
6
CONTINUOUS
62
5
10
11.611778
20
106.999395
40
0.300000
100
AcDbArc
50
-89.999999
51
-8.596736
0
LINE
5
17a
100
AcDbEntity
8
1
100
AcDbLine
6
CONTINUOUS
62
5
10
11.611778
20
106.699395
11
12.678683
21
106.699395
0
ARC
5
17b
100
AcDbEntity
8
1
100
AcDbCircle
6
CONTINUOUS
62
5
10
12.678683
20
107.399395
40
0.700000
100
AcDbArc
50
-90.000001
51
0.000002
0
LINE
5
17c
100
AcDbEntity
8
1
100
AcDbLine
6
CONTINUOUS
62
5
10
11.931084
20
107.104551
11
11.908408
21
106.954551
0
LINE
5
17d
100
AcDbEntity
8
1
100
AcDbLine
6
CONTINUOUS
62
5
10
13.650000
20
105.349395
11
13.650000
21
107.049395
0
LINE
5
17e
100
AcDbEntity
8
1
100
AcDbLine
6
CONTINUOUS
62
5
10
9.614116
20
106.754458
11
10.876348
21
106.849395
0
LINE
5
17f
100
AcDbEntity
8
1
100
AcDbLine
6
CONTINUOUS
62
5
10
14.400000
20
105.649395
11
14.900000
21
105.349395
0
ARC
5
180
100
AcDbEntity
8
1
100
AcDbCircle
6
CONTINUOUS
62
5
10
13.093622
20
108.499395
40
0.300000
100
AcDbArc
50
-89.999999
51
-2.925299
0
LINE
5
181
100
AcDbEntity
8
1
100
AcDbLine
6
CONTINUOUS
62
5
10
13.393231
20
108.484085
11
13.429001
21
109.184085
0
LINE
5
182
100
AcDbEntity
8
1
100
AcDbLine
6
CONTINUOUS
62
5
10
11.934455
20
108.199395
11
13.093622
21
108.199395
0
LINE
5
183
100
AcDbEntity
8
1
100
AcDbLine
6
CONTINUOUS
62
5
10
6.351278
20
109.749395
11
6.351278
21
108.249395
0
LINE
5
184
100
AcDbEntity
8
1
100
AcDbLine
6
CONTINUOUS
62
5
10
15.100000
20
109.999395
11
15.261572
21
109.699395
0
ARC
5
185
100
AcDbEntity
8
1
100
AcDbCircle
6
CONTINUOUS
62
5
10
13.950000
20
105.349395
40
0.300000
100
AcDbArc
50
89.999999
51
179.999998
0
LINE
5
186
100
AcDbEntity
8
1
100
AcDbLine
6
CONTINUOUS
62
5
10
13.650000
20
105.349395
11
13.650000
21
103.749395
0
ARC
5
187
100
AcDbEntity
8
1
100
AcDbCircle
6
CONTINUOUS
62
5
10
14.150000
20
103.749395
40
0.500000
100
AcDbArc
50
179.999998
51
-89.999999
0
LINE
5
188
100
AcDbEntity
8
1
100
AcDbLine
6
CONTINUOUS
62
5
10
14.150000
20
103.249395
11
14.900000
21
103.249395
0
ARC
5
189
100
AcDbEntity
8
1
100
AcDbCircle
6
CONTINUOUS
62
5
10
14.900000
20
103.749395
40
0.500000
100
AcDbArc
50
-89.999999
51
0.000000
0
LINE
5
18a
100
AcDbEntity
8
1
100
AcDbLine
6
CONTINUOUS
62
5
10
15.400000
20
103.749395
11
15.400000
21
108.401354
0
POLYLINE
5
18b
100
AcDbEntity
8
1
6
CONTINUOUS
62
5
100
AcDb2dPolyline
66
1
10
0.0
20
0.0
30
0.0
70
0
0
VERTEX
5
18c
100
AcDbEntity
8
1
100
AcDbVertex
100
AcDb2dVertex
62
5
10
14.400000
20
108.399395
0
VERTEX
5
18d
100
AcDbEntity
8
1
100
AcDbVertex
100
AcDb2dVertex
62
5
10
14.400000
20
105.649395
0
VERTEX
5
18e
100
AcDbEntity
8
1
100
AcDbVertex
100
AcDb2dVertex
62
5
10
13.950000
20
105.649395
0
SEQEND
5
18f
100
AcDbEntity
8
1
0
CIRCLE
5
190
100
AcDbEntity
8
1
100
AcDbCircle
6
CONTINUOUS
62
5
10
19.400000
20
103.999395
40
0.500000
0
CIRCLE
5
191
100
AcDbEntity
8
1
100
AcDbCircle
6
CONTINUOUS
62
5
10
19.400000
20
99.499395
40
0.500000
0
ARC
5
192
100
AcDbEntity
8
1
100
AcDbCircle
6
CONTINUOUS
62
5
10
13.093622
20
110.399395
40
0.300000
100
AcDbArc
50
2.925299
51
89.999999
0
LINE
5
193
100
AcDbEntity
8
1
100
AcDbLine
6
CONTINUOUS
62
5
10
13.393231
20
110.414705
11
13.429001
21
109.714705
0
POLYLINE
5
194
100
AcDbEntity
8
1
6
CONTINUOUS
62
5
100
AcDb2dPolyline
66
1
10
0.0
20
0.0
30
0.0
70
0
0
VERTEX
5
195
100
AcDbEntity
8
1
100
AcDbVertex
100
AcDb2dVertex
62
5
10
10.876348
20
109.999395
0
VERTEX
5
196
100
AcDbEntity
8
1
100
AcDbVertex
100
AcDb2dVertex
62
5
10
11.479751
20
110.699395
0
VERTEX
5
197
100
AcDbEntity
8
1
100
AcDbVertex
100
AcDb2dVertex
62
5
10
13.093622
20
110.699395
0
SEQEND
5
198
100
AcDbEntity
8
1
0
POLYLINE
5
199
100
AcDbEntity
8
1
6
CONTINUOUS
62
5
100
AcDb2dPolyline
66
1
10
0.0
20
0.0
30
0.0
70
0
0
VERTEX
5
19a
100
AcDbEntity
8
1
100
AcDbVertex
100
AcDb2dVertex
62
5
10
11.688276
20
110.749395
0
VERTEX
5
19b
100
AcDbEntity
8
1
100
AcDbVertex
100
AcDb2dVertex
62
5
10
11.867109
20
110.754234
0
VERTEX
5
19c
100
AcDbEntity
8
1
100
AcDbVertex
100
AcDb2dVertex
62
5
10
12.006202
20
110.768752
0
VERTEX
5
19d
100
AcDbEntity
8
1
100
AcDbVertex
100
AcDb2dVertex
62
5
10
12.105553
20
110.792949
0
VERTEX
5
19e
100
AcDbEntity
8
1
100
AcDbVertex
100
AcDb2dVertex
62
5
10
12.165164
20
110.826824
0
VERTEX
5
19f
100
AcDbEntity
8
1
100
AcDbVertex
100
AcDb2dVertex
62
5
10
12.185035
20
110.870378
0
SEQEND
5
1a0
100
AcDbEntity
8
1
0
POLYLINE
5
1a1
100
AcDbEntity
8
1
6
CONTINUOUS
62
5
100
AcDb2dPolyline
66
1
10
0.0
20
0.0
30
0.0
70
0
0
VERTEX
5
1a2
100
AcDbEntity
8
1
100
AcDbVertex
100
AcDb2dVertex
62
5
10
11.987865
20
110.749395
0
VERTEX
5
1a3
100
AcDbEntity
8
1
100
AcDbVertex
100
AcDb2dVertex
62
5
10
12.166846
20
110.754234
0
VERTEX
5
1a4
100
AcDbEntity
8
1
100
AcDbVertex
100
AcDb2dVertex
62
5
10
12.306054
20
110.768752
0
VERTEX
5
1a5
100
AcDbEntity
8
1
100
AcDbVertex
100
AcDb2dVertex
62
5
10
12.405488
20
110.792949
0
VERTEX
5
1a6
100
AcDbEntity
8
1
100
AcDbVertex
100
AcDb2dVertex
62
5
10
12.465149
20
110.826824
0
VERTEX
5
1a7
100
AcDbEntity
8
1
100
AcDbVertex
100
AcDb2dVertex
62
5
10
12.485036
20
110.870378
0
SEQEND
5
1a8
100
AcDbEntity
8
1
0
ARC
5
1a9
100
AcDbEntity
8
1
100
AcDbCircle
6
CONTINUOUS
62
5
10
6.902915
20
109.649395
40
0.300000
100
AcDbArc
50
179.999998
51
-89.999999
0
LINE
5
1aa
100
AcDbEntity
8
1
100
AcDbLine
6
CONTINUOUS
62
5
10
6.902915
20
109.349395
11
7.484260
21
109.349395
0
ARC
5
1ab
100
AcDbEntity
8
1
100
AcDbCircle
6
CONTINUOUS
62
5
10
7.484260
20
109.649395
40
0.300000
100
AcDbArc
50
-89.999999
51
0.000000
0
LINE
5
1ac
100
AcDbEntity
8
1
100
AcDbLine
6
CONTINUOUS
62
5
10
7.784260
20
109.649395
11
7.784260
21
109.649395
0
LINE
5
1ad
100
AcDbEntity
8
1
100
AcDbLine
6
CONTINUOUS
62
5
10
6.602915
20
110.749395
11
6.602915
21
109.649395
0
ARC
5
1ae
100
AcDbEntity
8
1
100
AcDbCircle
6
CONTINUOUS
62
5
10
11.634455
20
107.149395
40
0.300000
100
AcDbArc
50
-89.999999
51
0.000000
0
LINE
5
1af
100
AcDbEntity
8
1
100
AcDbLine
6
CONTINUOUS
62
5
10
11.634455
20
106.849395
11
11.176348
21
106.849395
0
ARC
5
1b0
100
AcDbEntity
8
1
100
AcDbCircle
6
CONTINUOUS
62
5
10
11.176348
20
107.149395
40
0.300000
100
AcDbArc
50
-179.999998
51
-89.999999
0
LINE
5
1b1
100
AcDbEntity
8
1
100
AcDbLine
6
CONTINUOUS
62
5
10
10.876348
20
107.149395
11
10.876348
21
111.699395
0
LINE
5
1b2
100
AcDbEntity
8
1
100
AcDbLine
6
CONTINUOUS
62
5
10
10.876348
20
109.999395
11
13.129392
21
109.999395
0
ARC
5
1b3
100
AcDbEntity
8
1
100
AcDbCircle
6
CONTINUOUS
62
5
10
13.129392
20
109.699395
40
0.300000
100
AcDbArc
50
0.000000
51
89.999999
0
LINE
5
1b4
100
AcDbEntity
8
1
100
AcDbLine
6
CONTINUOUS
62
5
10
13.429392
20
109.699395
11
13.429392
21
109.199395
0
ARC
5
1b5
100
AcDbEntity
8
1
100
AcDbCircle
6
CONTINUOUS
62
5
10
13.129392
20
109.199395
40
0.300000
100
AcDbArc
50
-89.999999
51
0.000000
0
POLYLINE
5
1b6
100
AcDbEntity
8
1
6
CONTINUOUS
62
5
100
AcDb2dPolyline
66
1
10
0.0
20
0.0
30
0.0
70
0
0
VERTEX
5
1b7
100
AcDbEntity
8
1
100
AcDbVertex
100
AcDb2dVertex
62
5
10
13.129392
20
108.899395
0
VERTEX
5
1b8
100
AcDbEntity
8
1
100
AcDbVertex
100
AcDb2dVertex
62
5
10
11.934455
20
108.899395
0
VERTEX
5
1b9
100
AcDbEntity
8
1
100
AcDbVertex
100
AcDb2dVertex
62
5
10
11.934455
20
107.149395
0
SEQEND
5
1ba
100
AcDbEntity
8
1
0
ARC
5
1bb
100
AcDbEntity
8
1
100
AcDbCircle
6
CONTINUOUS
62
5
10
13.178683
20
111.799395
40
0.200000
100
AcDbArc
50
0.000000
51
89.999999
0
LINE
5
1bc
100
AcDbEntity
8
1
100
AcDbLine
6
CONTINUOUS
62
5
10
13.178683
20
111.999395
11
12.485036
21
111.999395
0
LINE
5
1bd
100
AcDbEntity
8
1
100
AcDbLine
6
CONTINUOUS
62
5
10
11.961710
20
110.749395
11
11.961710
21
110.699395
0
LINE
5
1be
100
AcDbEntity
8
1
100
AcDbLine
6
CONTINUOUS
62
5
10
13.378683
20
110.492883
11
13.378683
21
111.799395
0
POLYLINE
5
1bf
100
AcDbEntity
8
1
6
CONTINUOUS
62
5
100
AcDb2dPolyline
66
1
10
0.0
20
0.0
30
0.0
70
0
0
VERTEX
5
1c0
100
AcDbEntity
8
1
100
AcDbVertex
100
AcDb2dVertex
62
5
10
12.485036
20
110.870378
0
VERTEX
5
1c1
100
AcDbEntity
8
1
100
AcDbVertex
100
AcDb2dVertex
62
5
10
12.449980
20
110.898824
0
VERTEX
5
1c2
100
AcDbEntity
8
1
100
AcDbVertex
100
AcDb2dVertex
62
5
10
12.344813
20
110.920949
0
VERTEX
5
1c3
100
AcDbEntity
8
1
100
AcDbVertex
100
AcDb2dVertex
62
5
10
12.169536
20
110.936752
0
VERTEX
5
1c4
100
AcDbEntity
8
1
100
AcDbVertex
100
AcDb2dVertex
62
5
10
11.924147
20
110.946234
0
VERTEX
5
1c5
100
AcDbEntity
8
1
100
AcDbVertex
100
AcDb2dVertex
62
5
10
11.608647
20
110.949395
0
SEQEND
5
1c6
100
AcDbEntity
8
1
0
POLYLINE
5
1c7
100
AcDbEntity
8
1
6
CONTINUOUS
62
5
100
AcDb2dPolyline
66
1
10
0.0
20
0.0
30
0.0
70
0
0
VERTEX
5
1c8
100
AcDbEntity
8
1
100
AcDbVertex
100
AcDb2dVertex
62
5
10
12.185035
20
110.870378
0
VERTEX
5
1c9
100
AcDbEntity
8
1
100
AcDbVertex
100
AcDb2dVertex
62
5
10
12.165164
20
110.898824
0
VERTEX
5
1ca
100
AcDbEntity
8
1
100
AcDbVertex
100
AcDb2dVertex
62
5
10
12.105553
20
110.920949
0
VERTEX
5
1cb
100
AcDbEntity
8
1
100
AcDbVertex
100
AcDb2dVertex
62
5
10
12.006202
20
110.936752
0
VERTEX
5
1cc
100
AcDbEntity
8
1
100
AcDbVertex
100
AcDb2dVertex
62
5
10
11.867109
20
110.946234
0
VERTEX
5
1cd
100
AcDbEntity
8
1
100
AcDbVertex
100
AcDb2dVertex
62
5
10
11.792986
20
110.947544
0
SEQEND
5
1ce
100
AcDbEntity
8
1
0
ARC
5
1cf
100
AcDbEntity
8
1
100
AcDbCircle
6
CONTINUOUS
62
5
10
6.863893
20
111.049395
40
0.300000
100
AcDbArc
50
-172.041706
51
-89.999999
0
LINE
5
1d0
100
AcDbEntity
8
1
100
AcDbLine
6
CONTINUOUS
62
5
10
6.863893
20
110.749395
11
7.484260
21
110.749395
0
ARC
5
1d1
100
AcDbEntity
8
1
100
AcDbCircle
6
CONTINUOUS
62
5
10
7.484260
20
111.049395
40
0.300000
100
AcDbArc
50
-89.999999
51
0.000000
0
POLYLINE
5
1d2
100
AcDbEntity
8
1
6
CONTINUOUS
62
5
100
AcDb2dPolyline
66
1
10
0.0
20
0.0
30
0.0
70
0
0
VERTEX
5
1d3
100
AcDbEntity
8
1
100
AcDbVertex
100
AcDb2dVertex
62
5
10
7.784260
20
111.049395
0
VERTEX
5
1d4
100
AcDbEntity
8
1
100
AcDbVertex
100
AcDb2dVertex
62
5
10
7.784260
20
112.549395
0
VERTEX
5
1d5
100
AcDbEntity
8
1
100
AcDbVertex
100
AcDb2dVertex
62
5
10
6.351278
20
112.549395
0
VERTEX
5
1d6
100
AcDbEntity
8
1
100
AcDbVertex
100
AcDb2dVertex
62
5
10
6.566782
20
111.007859
0
SEQEND
5
1d7
100
AcDbEntity
8
1
0
LINE
5
1d8
100
AcDbEntity
8
1
100
AcDbLine
6
CONTINUOUS
62
5
10
6.351278
20
109.749395
11
6.351278
21
111.249395
0
LINE
5
1d9
100
AcDbEntity
8
1
100
AcDbLine
6
CONTINUOUS
62
5
10
2.000000
20
111.149395
11
2.300000
21
110.849395
0
ARC
5
1da
100
AcDbEntity
8
1
100
AcDbCircle
6
CONTINUOUS
62
5
10
13.950000
20
110.199395
40
0.300000
100
AcDbArc
50
65.241368
51
179.999998
0
LINE
5
1db
100
AcDbEntity
8
1
100
AcDbLine
6
CONTINUOUS
62
5
10
13.650000
20
110.199395
11
13.650000
21
108.699395
0
ARC
5
1dc
100
AcDbEntity
8
1
100
AcDbCircle
6
CONTINUOUS
62
5
10
13.950000
20
108.699395
40
0.300000
100
AcDbArc
50
179.999998
51
-89.999999
0
LINE
5
1dd
100
AcDbEntity
8
1
100
AcDbLine
6
CONTINUOUS
62
5
10
13.950000
20
108.399395
11
15.365767
21
108.399395
0
ARC
5
1de
100
AcDbEntity
8
1
100
AcDbCircle
6
CONTINUOUS
62
5
10
15.365767
20
108.699395
40
0.300000
100
AcDbArc
50
-89.999999
51
-14.036243
0
LINE
5
1df
100
AcDbEntity
8
1
100
AcDbLine
6
CONTINUOUS
62
5
10
15.656810
20
108.626634
11
15.970142
21
109.879965
0
ARC
5
1e0
100
AcDbEntity
8
1
100
AcDbCircle
6
CONTINUOUS
62
5
10
15.000000
20
110.122500
40
1.000000
100
AcDbArc
50
-14.036243
51
0.000000
0
LINE
5
1e1
100
AcDbEntity
8
1
100
AcDbLine
6
CONTINUOUS
62
5
10
16.000000
20
110.122500
11
16.000000
21
116.376289
0
ARC
5
1e2
100
AcDbEntity
8
1
100
AcDbCircle
6
CONTINUOUS
62
5
10
15.000000
20
116.376289
40
1.000000
100
AcDbArc
50
0.000000
51
14.036243
0
LINE
5
1e3
100
AcDbEntity
8
1
100
AcDbLine
6
CONTINUOUS
62
5
10
15.970142
20
116.618825
11
15.656810
21
117.872155
0
ARC
5
1e4
100
AcDbEntity
8
1
100
AcDbCircle
6
CONTINUOUS
62
5
10
15.365767
20
117.799395
40
0.300000
100
AcDbArc
50
14.036243
51
89.999999
0
LINE
5
1e5
100
AcDbEntity
8
1
100
AcDbLine
6
CONTINUOUS
62
5
10
15.365767
20
118.099395
11
13.950000
21
118.099395
0
ARC
5
1e6
100
AcDbEntity
8
1
100
AcDbCircle
6
CONTINUOUS
62
5
10
13.950000
20
117.799395
40
0.300000
100
AcDbArc
50
89.999999
51
179.999998
0
LINE
5
1e7
100
AcDbEntity
8
1
100
AcDbLine
6
CONTINUOUS
62
5
10
13.650000
20
117.799395
11
13.650000
21
116.299395
0
ARC
5
1e8
100
AcDbEntity
8
1
100
AcDbCircle
6
CONTINUOUS
62
5
10
13.950000
20
116.299395
40
0.300000
100
AcDbArc
50
-179.999998
51
-65.241368
0
LINE
5
1e9
100
AcDbEntity
8
1
100
AcDbLine
6
CONTINUOUS
62
5
10
14.075639
20
116.026971
11
15.100000
21
116.499395
0
LINE
5
1ea
100
AcDbEntity
8
1
100
AcDbLine
6
CONTINUOUS
62
5
10
15.100000
20
109.999395
11
14.075639
21
110.471819
0
LINE
5
1eb
100
AcDbEntity
8
1
100
AcDbLine
6
CONTINUOUS
62
5
10
11.608647
20
115.549395
11
11.608647
21
110.949395
0
LINE
5
1ec
100
AcDbEntity
8
1
100
AcDbLine
6
CONTINUOUS
62
5
10
12.485036
20
110.870378
11
12.485036
21
115.628412
0
POLYLINE
5
1ed
100
AcDbEntity
8
1
6
CONTINUOUS
62
5
100
AcDb2dPolyline
66
1
10
0.0
20
0.0
30
0.0
70
0
0
VERTEX
5
1ee
100
AcDbEntity
8
1
100
AcDbVertex
100
AcDb2dVertex
62
5
10
11.987865
20
115.749395
0
VERTEX
5
1ef
100
AcDbEntity
8
1
100
AcDbVertex
100
AcDb2dVertex
62
5
10
11.688276
20
115.749395
0
VERTEX
5
1f0
100
AcDbEntity
8
1
100
AcDbVertex
100
AcDb2dVertex
62
5
10
11.688276
20
115.550192
0
SEQEND
5
1f1
100
AcDbEntity
8
1
0
POLYLINE
5
1f2
100
AcDbEntity
8
1
6
CONTINUOUS
62
5
100
AcDb2dPolyline
66
1
10
0.0
20
0.0
30
0.0
70
0
0
VERTEX
5
1f3
100
AcDbEntity
8
1
100
AcDbVertex
100
AcDb2dVertex
62
5
10
11.688276
20
110.948597
0
VERTEX
5
1f4
100
AcDbEntity
8
1
100
AcDbVertex
100
AcDb2dVertex
62
5
10
11.688276
20
110.749395
0
VERTEX
5
1f5
100
AcDbEntity
8
1
100
AcDbVertex
100
AcDb2dVertex
62
5
10
11.987865
20
110.749395
0
SEQEND
5
1f6
100
AcDbEntity
8
1
0
LINE
5
1f7
100
AcDbEntity
8
1
100
AcDbLine
6
CONTINUOUS
62
5
10
4.400000
20
111.249395
11
4.400000
21
115.249395
0
POLYLINE
5
1f8
100
AcDbEntity
8
1
6
CONTINUOUS
62
5
100
AcDb2dPolyline
66
1
10
0.0
20
0.0
30
0.0
70
0
0
VERTEX
5
1f9
100
AcDbEntity
8
1
100
AcDbVertex
100
AcDb2dVertex
62
5
10
7.784260
20
109.604567
0
VERTEX
5
1fa
100
AcDbEntity
8
1
100
AcDbVertex
100
AcDb2dVertex
62
5
10
7.784260
20
108.249395
0
VERTEX
5
1fb
100
AcDbEntity
8
1
100
AcDbVertex
100
AcDb2dVertex
62
5
10
9.964835
20
108.249395
0
VERTEX
5
1fc
100
AcDbEntity
8
1
100
AcDbVertex
100
AcDb2dVertex
62
5
10
9.964835
20
118.249395
0
VERTEX
5
1fd
100
AcDbEntity
8
1
100
AcDbVertex
100
AcDb2dVertex
62
5
10
7.784260
20
118.249395
0
VERTEX
5
1fe
100
AcDbEntity
8
1
100
AcDbVertex
100
AcDb2dVertex
62
5
10
7.784260
20
116.894223
0
SEQEND
5
1ff
100
AcDbEntity
8
1
0
LINE
5
200
100
AcDbEntity
8
1
100
AcDbLine
6
CONTINUOUS
62
5
10
9.646756
20
118.249395
11
9.646756
21
108.249395
0
LINE
5
201
100
AcDbEntity
8
1
100
AcDbLine
6
CONTINUOUS
62
5
10
11.643668
20
110.949044
11
11.643668
21
115.549746
0
LINE
5
202
100
AcDbEntity
8
1
100
AcDbLine
6
CONTINUOUS
62
5
10
11.772356
20
110.947755
11
11.772356
21
115.551035
0
ARC
5
203
100
AcDbEntity
8
1
100
AcDbCircle
6
CONTINUOUS
62
5
10
14.150000
20
109.699395
40
0.300000
100
AcDbArc
50
89.999999
51
179.999998
0
LINE
5
204
100
AcDbEntity
8
1
100
AcDbLine
6
CONTINUOUS
62
5
10
13.850000
20
109.699395
11
13.850000
21
109.199395
0
ARC
5
205
100
AcDbEntity
8
1
100
AcDbCircle
6
CONTINUOUS
62
5
10
14.150000
20
109.199395
40
0.300000
100
AcDbArc
50
179.999998
51
-89.999999
0
LINE
5
206
100
AcDbEntity
8
1
100
AcDbLine
6
CONTINUOUS
62
5
10
14.150000
20
108.899395
11
15.387393
21
108.899395
0
ARC
5
207
100
AcDbEntity
8
1
100
AcDbCircle
6
CONTINUOUS
62
5
10
15.387393
20
109.199395
40
0.300000
100
AcDbArc
50
-89.999999
51
-13.966015
0
LINE
5
208
100
AcDbEntity
8
1
100
AcDbLine
6
CONTINUOUS
62
5
10
15.678525
20
109.126991
11
15.870439
21
109.898665
0
ARC
5
209
100
AcDbEntity
8
1
100
AcDbCircle
6
CONTINUOUS
62
5
10
14.900000
20
110.140012
40
1.000000
100
AcDbArc
50
-13.966015
51
0.000000
0
LINE
5
20a
100
AcDbEntity
8
1
100
AcDbLine
6
CONTINUOUS
62
5
10
15.900000
20
110.140012
11
15.900000
21
116.358778
0
ARC
5
20b
100
AcDbEntity
8
1
100
AcDbCircle
6
CONTINUOUS
62
5
10
14.900000
20
116.358778
40
1.000000
100
AcDbArc
50
0.000000
51
13.966015
0
LINE
5
20c
100
AcDbEntity
8
1
100
AcDbLine
6
CONTINUOUS
62
5
10
15.870439
20
116.600124
11
15.678525
21
117.371799
0
ARC
5
20d
100
AcDbEntity
8
1
100
AcDbCircle
6
CONTINUOUS
62
5
10
15.387393
20
117.299395
40
0.300000
100
AcDbArc
50
13.966015
51
89.999999
0
LINE
5
20e
100
AcDbEntity
8
1
100
AcDbLine
6
CONTINUOUS
62
5
10
15.387393
20
117.599395
11
14.150000
21
117.599395
0
ARC
5
20f
100
AcDbEntity
8
1
100
AcDbCircle
6
CONTINUOUS
62
5
10
14.150000
20
117.299395
40
0.300000
100
AcDbArc
50
89.999999
51
-179.999998
0
LINE
5
210
100
AcDbEntity
8
1
100
AcDbLine
6
CONTINUOUS
62
5
10
13.850000
20
117.299395
11
13.850000
21
116.799395
0
ARC
5
211
100
AcDbEntity
8
1
100
AcDbCircle
6
CONTINUOUS
62
5
10
14.150000
20
116.799395
40
0.300000
100
AcDbArc
50
-179.999998
51
-89.999999
0
POLYLINE
5
212
100
AcDbEntity
8
1
6
CONTINUOUS
62
5
100
AcDb2dPolyline
66
1
10
0.0
20
0.0
30
0.0
70
0
0
VERTEX
5
213
100
AcDbEntity
8
1
100
AcDbVertex
100
AcDb2dVertex
62
5
10
14.150000
20
116.499395
0
VERTEX
5
214
100
AcDbEntity
8
1
100
AcDbVertex
100
AcDb2dVertex
62
5
10
15.100000
20
116.499395
0
VERTEX
5
215
100
AcDbEntity
8
1
100
AcDbVertex
100
AcDb2dVertex
62
5
10
15.100000
20
109.999395
0
VERTEX
5
216
100
AcDbEntity
8
1
100
AcDbVertex
100
AcDb2dVertex
62
5
10
14.150000
20
109.999395
0
SEQEND
5
217
100
AcDbEntity
8
1
0
LINE
5
218
100
AcDbEntity
8
1
100
AcDbLine
6
CONTINUOUS
62
5
10
2.400000
20
111.249395
11
2.400000
21
115.249395
0
LINE
5
219
100
AcDbEntity
8
1
100
AcDbLine
6
CONTINUOUS
62
5
10
3.400000
20
111.249395
11
3.400000
21
115.249395
0
LINE
5
21a
100
AcDbEntity
8
1
100
AcDbLine
6
CONTINUOUS
62
5
10
21.400000
20
100.749395
11
21.400000
21
102.749395
0
CIRCLE
5
21b
100
AcDbEntity
8
1
100
AcDbCircle
6
CONTINUOUS
62
5
10
19.400000
20
80.999395
40
0.500000
0
ARC
5
21c
100
AcDbEntity
8
1
100
AcDbCircle
6
CONTINUOUS
62
5
10
21.400000
20
79.899395
40
1.000000
100
AcDbArc
50
-89.999999
51
-0.000000
0
LINE
5
21d
100
AcDbEntity
8
1
100
AcDbLine
6
CONTINUOUS
62
5
10
22.400000
20
79.899395
11
22.400000
21
79.949395
0
LINE
5
21e
100
AcDbEntity
8
1
100
AcDbLine
6
CONTINUOUS
62
5
10
18.400000
20
78.899395
11
21.400000
21
78.899395
0
ARC
5
21f
100
AcDbEntity
8
1
100
AcDbCircle
6
CONTINUOUS
62
5
10
21.900000
20
79.949395
40
0.500000
100
AcDbArc
50
-89.999999
51
0.000000
0
LINE
5
220
100
AcDbEntity
8
1
100
AcDbLine
6
CONTINUOUS
62
5
10
22.400000
20
79.949395
11
22.400000
21
100.249395
0
ARC
5
221
100
AcDbEntity
8
1
100
AcDbCircle
6
CONTINUOUS
62
5
10
21.900000
20
100.249395
40
0.500000
100
AcDbArc
50
-0.000003
51
90.000001
0
LINE
5
222
100
AcDbEntity
8
1
100
AcDbLine
6
CONTINUOUS
62
5
10
21.900000
20
100.749395
11
20.900000
21
100.749395
0
LINE
5
223
100
AcDbEntity
8
1
100
AcDbLine
6
CONTINUOUS
62
5
10
20.900000
20
79.449395
11
21.900000
21
79.449395
0
POLYLINE
5
224
100
AcDbEntity
8
1
6
DOT2
62
5
100
AcDb2dPolyline
66
1
10
0.0
20
0.0
30
0.0
70
0
0
VERTEX
5
225
100
AcDbEntity
8
1
100
AcDbVertex
100
AcDb2dVertex
62
5
10
39.150000
20
95.499395
0
VERTEX
5
226
100
AcDbEntity
8
1
100
AcDbVertex
100
AcDb2dVertex
62
5
10
44.775000
20
92.686895
0
VERTEX
5
227
100
AcDbEntity
8
1
100
AcDbVertex
100
AcDb2dVertex
62
5
10
44.775000
20
96.436895
0
SEQEND
5
228
100
AcDbEntity
8
1
0
LINE
5
229
100
AcDbEntity
8
1
100
AcDbLine
6
DOT2
62
5
10
39.150000
20
95.499395
11
46.650000
21
95.499395
0
LINE
5
22a
100
AcDbEntity
8
1
100
AcDbLine
6
DOT2
62
5
10
46.650000
20
94.874395
11
46.650000
21
96.124395
0
LINE
5
22b
100
AcDbEntity
8
1
100
AcDbLine
6
DOT2
62
5
10
39.150000
20
97.999395
11
39.150000
21
100.811895
0
POLYLINE
5
22c
100
AcDbEntity
8
1
6
DOT2
62
5
100
AcDb2dPolyline
66
1
10
0.0
20
0.0
30
0.0
70
0
0
VERTEX
5
22d
100
AcDbEntity
8
1
100
AcDbVertex
100
AcDb2dVertex
62
5
10
39.150000
20
97.999395
0
VERTEX
5
22e
100
AcDbEntity
8
1
100
AcDbVertex
100
AcDb2dVertex
62
5
10
42.900000
20
97.999395
0
VERTEX
5
22f
100
AcDbEntity
8
1
100
AcDbVertex
100
AcDb2dVertex
62
5
10
42.275000
20
98.624395
0
VERTEX
5
230
100
AcDbEntity
8
1
100
AcDbVertex
100
AcDb2dVertex
62
5
10
41.962500
20
99.249395
0
VERTEX
5
231
100
AcDbEntity
8
1
100
AcDbVertex
100
AcDb2dVertex
62
5
10
41.962500
20
100.186895
0
VERTEX
5
232
100
AcDbEntity
8
1
100
AcDbVertex
100
AcDb2dVertex
62
5
10
42.275000
20
100.811895
0
VERTEX
5
233
100
AcDbEntity
8
1
100
AcDbVertex
100
AcDb2dVertex
62
5
10
43.212500
20
101.124395
0
VERTEX
5
234
100
AcDbEntity
8
1
100
AcDbVertex
100
AcDb2dVertex
62
5
10
45.087500
20
101.124395
0
VERTEX
5
235
100
AcDbEntity
8
1
100
AcDbVertex
100
AcDb2dVertex
62
5
10
46.025000
20
100.499395
0
VERTEX
5
236
100
AcDbEntity
8
1
100
AcDbVertex
100
AcDb2dVertex
62
5
10
46.650000
20
99.561895
0
VERTEX
5
237
100
AcDbEntity
8
1
100
AcDbVertex
100
AcDb2dVertex
62
5
10
46.650000
20
97.999395
0
SEQEND
5
238
100
AcDbEntity
8
1
0
POLYLINE
5
239
100
AcDbEntity
8
1
6
DOT2
62
5
100
AcDb2dPolyline
66
1
10
0.0
20
0.0
30
0.0
70
0
0
VERTEX
5
23a
100
AcDbEntity
8
1
100
AcDbVertex
100
AcDb2dVertex
62
5
10
40.087500
20
107.999395
0
VERTEX
5
23b
100
AcDbEntity
8
1
100
AcDbVertex
100
AcDb2dVertex
62
5
10
39.150000
20
107.999395
0
VERTEX
5
23c
100
AcDbEntity
8
1
100
AcDbVertex
100
AcDb2dVertex
62
5
10
39.150000
20
111.124395
0
VERTEX
5
23d
100
AcDbEntity
8
1
100
AcDbVertex
100
AcDb2dVertex
62
5
10
39.775000
20
111.124395
0
VERTEX
5
23e
100
AcDbEntity
8
1
100
AcDbVertex
100
AcDb2dVertex
62
5
10
41.337500
20
110.499395
0
VERTEX
5
23f
100
AcDbEntity
8
1
100
AcDbVertex
100
AcDb2dVertex
62
5
10
43.525000
20
109.874395
0
VERTEX
5
240
100
AcDbEntity
8
1
100
AcDbVertex
100
AcDb2dVertex
62
5
10
46.650000
20
109.249395
0
SEQEND
5
241
100
AcDbEntity
8
1
0
LINE
5
242
100
AcDbEntity
8
1
100
AcDbLine
6
CONTINUOUS
62
5
10
2.900000
20
124.599395
11
49.900000
21
124.599395
0
LINE
5
243
100
AcDbEntity
8
1
100
AcDbLine
6
CONTINUOUS
62
5
10
2.900000
20
78.899395
11
49.900000
21
78.899395
0
POLYLINE
5
244
100
AcDbEntity
8
1
6
CONTINUOUS
62
5
100
AcDb2dPolyline
66
1
10
0.0
20
0.0
30
0.0
70
0
0
VERTEX
5
245
100
AcDbEntity
8
1
100
AcDbVertex
100
AcDb2dVertex
62
5
10
47.900000
20
101.749395
0
VERTEX
5
246
100
AcDbEntity
8
1
100
AcDbVertex
100
AcDb2dVertex
62
5
10
47.900000
20
78.899395
0
VERTEX
5
247
100
AcDbEntity
8
1
100
AcDbVertex
100
AcDb2dVertex
62
5
10
46.900000
20
84.899395
0
VERTEX
5
248
100
AcDbEntity
8
1
100
AcDbVertex
100
AcDb2dVertex
62
5
10
48.900000
20
84.899395
0
VERTEX
5
249
100
AcDbEntity
8
1
100
AcDbVertex
100
AcDb2dVertex
62
5
10
47.900000
20
78.899395
0
VERTEX
5
24a
100
AcDbEntity
8
1
100
AcDbVertex
100
AcDb2dVertex
62
5
10
47.400000
20
84.899395
0
VERTEX
5
24b
100
AcDbEntity
8
1
100
AcDbVertex
100
AcDb2dVertex
62
5
10
48.400000
20
84.899395
0
VERTEX
5
24c
100
AcDbEntity
8
1
100
AcDbVertex
100
AcDb2dVertex
62
5
10
47.900000
20
78.899395
0
VERTEX
5
24d
100
AcDbEntity
8
1
100
AcDbVertex
100
AcDb2dVertex
62
5
10
47.150000
20
84.899395
0
SEQEND
5
24e
100
AcDbEntity
8
1
0
POLYLINE
5
24f
100
AcDbEntity
8
1
6
CONTINUOUS
62
5
100
AcDb2dPolyline
66
1
10
0.0
20
0.0
30
0.0
70
0
0
VERTEX
5
250
100
AcDbEntity
8
1
100
AcDbVertex
100
AcDb2dVertex
62
5
10
47.650000
20
84.899395
0
VERTEX
5
251
100
AcDbEntity
8
1
100
AcDbVertex
100
AcDb2dVertex
62
5
10
47.900000
20
78.899395
0
VERTEX
5
252
100
AcDbEntity
8
1
100
AcDbVertex
100
AcDb2dVertex
62
5
10
48.150000
20
84.899395
0
SEQEND
5
253
100
AcDbEntity
8
1
0
LINE
5
254
100
AcDbEntity
8
1
100
AcDbLine
6
CONTINUOUS
62
5
10
48.650000
20
84.899395
11
47.900000
21
78.899395
0
POLYLINE
5
255
100
AcDbEntity
8
1
6
CONTINUOUS
62
5
100
AcDb2dPolyline
66
1
10
0.0
20
0.0
30
0.0
70
0
0
VERTEX
5
256
100
AcDbEntity
8
1
100
AcDbVertex
100
AcDb2dVertex
62
5
10
47.900000
20
101.749395
0
VERTEX
5
257
100
AcDbEntity
8
1
100
AcDbVertex
100
AcDb2dVertex
62
5
10
47.900000
20
124.599395
0
VERTEX
5
258
100
AcDbEntity
8
1
100
AcDbVertex
100
AcDb2dVertex
62
5
10
48.900000
20
118.599395
0
VERTEX
5
259
100
AcDbEntity
8
1
100
AcDbVertex
100
AcDb2dVertex
62
5
10
46.900000
20
118.599395
0
VERTEX
5
25a
100
AcDbEntity
8
1
100
AcDbVertex
100
AcDb2dVertex
62
5
10
47.900000
20
124.599395
0
VERTEX
5
25b
100
AcDbEntity
8
1
100
AcDbVertex
100
AcDb2dVertex
62
5
10
48.400000
20
118.599395
0
VERTEX
5
25c
100
AcDbEntity
8
1
100
AcDbVertex
100
AcDb2dVertex
62
5
10
47.400000
20
118.599395
0
VERTEX
5
25d
100
AcDbEntity
8
1
100
AcDbVertex
100
AcDb2dVertex
62
5
10
47.900000
20
124.599395
0
VERTEX
5
25e
100
AcDbEntity
8
1
100
AcDbVertex
100
AcDb2dVertex
62
5
10
48.650000
20
118.599395
0
SEQEND
5
25f
100
AcDbEntity
8
1
0
POLYLINE
5
260
100
AcDbEntity
8
1
6
CONTINUOUS
62
5
100
AcDb2dPolyline
66
1
10
0.0
20
0.0
30
0.0
70
0
0
VERTEX
5
261
100
AcDbEntity
8
1
100
AcDbVertex
100
AcDb2dVertex
62
5
10
48.150000
20
118.599395
0
VERTEX
5
262
100
AcDbEntity
8
1
100
AcDbVertex
100
AcDb2dVertex
62
5
10
47.900000
20
124.599395
0
VERTEX
5
263
100
AcDbEntity
8
1
100
AcDbVertex
100
AcDb2dVertex
62
5
10
47.650000
20
118.599395
0
SEQEND
5
264
100
AcDbEntity
8
1
0
LINE
5
265
100
AcDbEntity
8
1
100
AcDbLine
6
CONTINUOUS
62
5
10
47.150000
20
118.599395
11
47.900000
21
124.599395
0
LINE
5
266
100
AcDbEntity
8
1
100
AcDbLine
6
CONTINUOUS
62
5
10
13.650000
20
119.449395
11
13.650000
21
121.149395
0
ARC
5
267
100
AcDbEntity
8
1
100
AcDbCircle
6
CONTINUOUS
62
5
10
11.634455
20
119.349395
40
0.300000
100
AcDbArc
50
0.000000
51
89.999999
0
LINE
5
268
100
AcDbEntity
8
1
100
AcDbLine
6
CONTINUOUS
62
5
10
11.634455
20
119.649395
11
11.176348
21
119.649395
0
ARC
5
269
100
AcDbEntity
8
1
100
AcDbCircle
6
CONTINUOUS
62
5
10
11.176348
20
119.349395
40
0.300000
100
AcDbArc
50
89.999999
51
179.999998
0
LINE
5
26a
100
AcDbEntity
8
1
100
AcDbLine
6
CONTINUOUS
62
5
10
10.876348
20
119.349395
11
10.876348
21
114.799395
0
LINE
5
26b
100
AcDbEntity
8
1
100
AcDbLine
6
CONTINUOUS
62
5
10
10.876348
20
116.499395
11
13.129392
21
116.499395
0
ARC
5
26c
100
AcDbEntity
8
1
100
AcDbCircle
6
CONTINUOUS
62
5
10
13.129392
20
116.799395
40
0.300000
100
AcDbArc
50
-89.999999
51
0.000000
0
LINE
5
26d
100
AcDbEntity
8
1
100
AcDbLine
6
CONTINUOUS
62
5
10
13.429392
20
116.799395
11
13.429392
21
117.299395
0
ARC
5
26e
100
AcDbEntity
8
1
100
AcDbCircle
6
CONTINUOUS
62
5
10
13.129392
20
117.299395
40
0.300000
100
AcDbArc
50
0.000000
51
89.999999
0
POLYLINE
5
26f
100
AcDbEntity
8
1
6
CONTINUOUS
62
5
100
AcDb2dPolyline
66
1
10
0.0
20
0.0
30
0.0
70
0
0
VERTEX
5
270
100
AcDbEntity
8
1
100
AcDbVertex
100
AcDb2dVertex
62
5
10
13.129392
20
117.599395
0
VERTEX
5
271
100
AcDbEntity
8
1
100
AcDbVertex
100
AcDb2dVertex
62
5
10
11.934455
20
117.599395
0
VERTEX
5
272
100
AcDbEntity
8
1
100
AcDbVertex
100
AcDb2dVertex
62
5
10
11.934455
20
119.349395
0
SEQEND
5
273
100
AcDbEntity
8
1
0
ARC
5
274
100
AcDbEntity
8
1
100
AcDbCircle
6
CONTINUOUS
62
5
10
11.611778
20
119.499395
40
0.300000
100
AcDbArc
50
8.596736
51
89.999999
0
LINE
5
275
100
AcDbEntity
8
1
100
AcDbLine
6
CONTINUOUS
62
5
10
11.611778
20
119.799395
11
12.678683
21
119.799395
0
ARC
5
276
100
AcDbEntity
8
1
100
AcDbCircle
6
CONTINUOUS
62
5
10
12.678683
20
119.099395
40
0.700000
100
AcDbArc
50
-0.000002
51
90.000001
0
LINE
5
277
100
AcDbEntity
8
1
100
AcDbLine
6
CONTINUOUS
62
5
10
11.931084
20
119.394238
11
11.908408
21
119.544238
0
ARC
5
278
100
AcDbEntity
8
1
100
AcDbCircle
6
CONTINUOUS
62
5
10
14.900000
20
122.749395
40
0.500000
100
AcDbArc
50
0.000000
51
89.999999
0
LINE
5
279
100
AcDbEntity
8
1
100
AcDbLine
6
CONTINUOUS
62
5
10
14.900000
20
123.249395
11
14.150000
21
123.249395
0
ARC
5
27a
100
AcDbEntity
8
1
100
AcDbCircle
6
CONTINUOUS
62
5
10
14.150000
20
122.749395
40
0.500000
100
AcDbArc
50
89.999999
51
-179.999998
0
LINE
5
27b
100
AcDbEntity
8
1
100
AcDbLine
6
CONTINUOUS
62
5
10
13.650000
20
122.749395
11
13.650000
21
121.149395
0
ARC
5
27c
100
AcDbEntity
8
1
100
AcDbCircle
6
CONTINUOUS
62
5
10
13.950000
20
121.149395
40
0.300000
100
AcDbArc
50
-179.999998
51
-89.999999
0
POLYLINE
5
27d
100
AcDbEntity
8
1
6
CONTINUOUS
62
5
100
AcDb2dPolyline
66
1
10
0.0
20
0.0
30
0.0
70
0
0
VERTEX
5
27e
100
AcDbEntity
8
1
100
AcDbVertex
100
AcDb2dVertex
62
5
10
13.950000
20
120.849395
0
VERTEX
5
27f
100
AcDbEntity
8
1
100
AcDbVertex
100
AcDb2dVertex
62
5
10
14.400000
20
120.849395
0
VERTEX
5
280
100
AcDbEntity
8
1
100
AcDbVertex
100
AcDb2dVertex
62
5
10
14.400000
20
118.099395
0
SEQEND
5
281
100
AcDbEntity
8
1
0
LINE
5
282
100
AcDbEntity
8
1
100
AcDbLine
6
CONTINUOUS
62
5
10
15.400000
20
118.097435
11
15.400000
21
122.749395
0
ARC
5
283
100
AcDbEntity
8
1
100
AcDbCircle
6
CONTINUOUS
62
5
10
21.900000
20
103.249395
40
0.500000
100
AcDbArc
50
-90.000000
51
-0.000000
0
LINE
5
284
100
AcDbEntity
8
1
100
AcDbLine
6
CONTINUOUS
62
5
10
22.400000
20
103.249395
11
22.400000
21
123.549395
0
ARC
5
285
100
AcDbEntity
8
1
100
AcDbCircle
6
CONTINUOUS
62
5
10
21.900000
20
123.549395
40
0.500000
100
AcDbArc
50
0.000001
51
89.999999
0
LINE
5
286
100
AcDbEntity
8
1
100
AcDbLine
6
CONTINUOUS
62
5
10
21.900000
20
124.049395
11
20.900000
21
124.049395
0
LINE
5
287
100
AcDbEntity
8
1
100
AcDbLine
6
CONTINUOUS
62
5
10
20.900000
20
102.749395
11
21.900000
21
102.749395
0
LINE
5
288
100
AcDbEntity
8
1
100
AcDbLine
6
CONTINUOUS
62
5
10
-15.600000
20
232.886895
11
-11.850000
21
233.511895
0
LINE
5
289
100
AcDbEntity
8
1
100
AcDbLine
6
CONTINUOUS
62
5
10
-16.850000
20
231.011895
11
-10.850000
21
231.011895
0
POLYLINE
5
28a
100
AcDbEntity
8
1
6
CONTINUOUS
62
5
100
AcDb2dPolyline
66
1
10
0.0
20
0.0
30
0.0
70
0
0
VERTEX
5
28b
100
AcDbEntity
8
1
100
AcDbVertex
100
AcDb2dVertex
62
5
10
-13.600000
20
233.199395
0
VERTEX
5
28c
100
AcDbEntity
8
1
100
AcDbVertex
100
AcDb2dVertex
62
5
10
-13.600000
20
231.011895
0
VERTEX
5
28d
100
AcDbEntity
8
1
100
AcDbVertex
100
AcDb2dVertex
62
5
10
-13.850000
20
229.449395
0
VERTEX
5
28e
100
AcDbEntity
8
1
100
AcDbVertex
100
AcDb2dVertex
62
5
10
-14.600000
20
228.199395
0
VERTEX
5
28f
100
AcDbEntity
8
1
100
AcDbVertex
100
AcDb2dVertex
62
5
10
-15.350000
20
227.261895
0
SEQEND
5
290
100
AcDbEntity
8
1
0
LINE
5
291
100
AcDbEntity
8
1
100
AcDbLine
6
CONTINUOUS
62
5
10
-7.350000
20
230.699395
11
-4.350000
21
230.699395
0
LINE
5
292
100
AcDbEntity
8
1
100
AcDbLine
6
CONTINUOUS
62
5
10
-7.850000
20
227.886895
11
-3.850000
21
227.886895
0
LINE
5
293
100
AcDbEntity
8
1
100
AcDbLine
6
CONTINUOUS
62
5
10
-5.850000
20
230.699395
11
-5.850000
21
227.886895
0
POLYLINE
5
294
100
AcDbEntity
8
1
6
CONTINUOUS
62
5
100
AcDb2dPolyline
66
1
10
0.0
20
0.0
30
0.0
70
0
0
VERTEX
5
295
100
AcDbEntity
8
1
100
AcDbVertex
100
AcDb2dVertex
62
5
10
-34.600000
20
234.449395
0
VERTEX
5
296
100
AcDbEntity
8
1
100
AcDbVertex
100
AcDb2dVertex
62
5
10
-36.850000
20
228.824395
0
VERTEX
5
297
100
AcDbEntity
8
1
100
AcDbVertex
100
AcDb2dVertex
62
5
10
-33.850000
20
228.824395
0
SEQEND
5
298
100
AcDbEntity
8
1
0
LINE
5
299
100
AcDbEntity
8
1
100
AcDbLine
6
CONTINUOUS
62
5
10
-34.600000
20
234.449395
11
-34.600000
21
226.949395
0
LINE
5
29a
100
AcDbEntity
8
1
100
AcDbLine
6
CONTINUOUS
62
5
10
-35.100000
20
226.949395
11
-34.100000
21
226.949395
0
POLYLINE
5
29b
100
AcDbEntity
8
1
6
CONTINUOUS
62
5
100
AcDb2dPolyline
66
1
10
0.0
20
0.0
30
0.0
70
1
0
VERTEX
5
29c
100
AcDbEntity
8
1
100
AcDbVertex
100
AcDb2dVertex
62
5
10
-32.600000
20
234.761895
0
VERTEX
5
29d
100
AcDbEntity
8
1
100
AcDbVertex
100
AcDb2dVertex
62
5
10
-32.600000
20
231.949395
0
VERTEX
5
29e
100
AcDbEntity
8
1
100
AcDbVertex
100
AcDb2dVertex
62
5
10
-30.600000
20
231.949395
0
VERTEX
5
29f
100
AcDbEntity
8
1
100
AcDbVertex
100
AcDb2dVertex
62
5
10
-30.600000
20
234.761895
0
VERTEX
5
2a0
100
AcDbEntity
8
1
100
AcDbVertex
100
AcDb2dVertex
62
5
10
-32.600000
20
234.761895
0
SEQEND
5
2a1
100
AcDbEntity
8
1
0
LINE
5
2a2
100
AcDbEntity
8
1
100
AcDbLine
6
CONTINUOUS
62
5
10
-31.600000
20
231.949395
11
-31.600000
21
227.261895
0
LINE
5
2a3
100
AcDbEntity
8
1
100
AcDbLine
6
CONTINUOUS
62
5
10
-31.600000
20
230.074395
11
-30.600000
21
230.074395
0
LINE
5
2a4
100
AcDbEntity
8
1
100
AcDbLine
6
CONTINUOUS
62
5
10
-32.600000
20
230.386895
11
-32.600000
21
226.949395
0
LINE
5
2a5
100
AcDbEntity
8
1
100
AcDbLine
6
CONTINUOUS
62
5
10
-33.100000
20
226.636895
11
-30.350000
21
227.574395
0
POLYLINE
5
2a6
100
AcDbEntity
8
1
6
CONTINUOUS
62
5
100
AcDb2dPolyline
66
1
10
0.0
20
0.0
30
0.0
70
0
0
VERTEX
5
2a7
100
AcDbEntity
8
1
100
AcDbVertex
100
AcDb2dVertex
62
5
10
-28.600000
20
235.074395
0
VERTEX
5
2a8
100
AcDbEntity
8
1
100
AcDbVertex
100
AcDb2dVertex
62
5
10
-28.850000
20
234.136895
0
VERTEX
5
2a9
100
AcDbEntity
8
1
100
AcDbVertex
100
AcDb2dVertex
62
5
10
-29.350000
20
233.199395
0
VERTEX
5
2aa
100
AcDbEntity
8
1
100
AcDbVertex
100
AcDb2dVertex
62
5
10
-30.100000
20
232.261895
0
SEQEND
5
2ab
100
AcDbEntity
8
1
0
POLYLINE
5
2ac
100
AcDbEntity
8
1
6
CONTINUOUS
62
5
100
AcDb2dPolyline
66
1
10
0.0
20
0.0
30
0.0
70
0
0
VERTEX
5
2ad
100
AcDbEntity
8
1
100
AcDbVertex
100
AcDb2dVertex
62
5
10
-28.850000
20
234.136895
0
VERTEX
5
2ae
100
AcDbEntity
8
1
100
AcDbVertex
100
AcDb2dVertex
62
5
10
-26.850000
20
234.136895
0
VERTEX
5
2af
100
AcDbEntity
8
1
100
AcDbVertex
100
AcDb2dVertex
62
5
10
-27.600000
20
232.261895
0
VERTEX
5
2b0
100
AcDbEntity
8
1
100
AcDbVertex
100
AcDb2dVertex
62
5
10
-28.350000
20
231.011895
0
VERTEX
5
2b1
100
AcDbEntity
8
1
100
AcDbVertex
100
AcDb2dVertex
62
5
10
-29.100000
20
230.074395
0
VERTEX
5
2b2
100
AcDbEntity
8
1
100
AcDbVertex
100
AcDb2dVertex
62
5
10
-30.100000
20
229.136895
0
SEQEND
5
2b3
100
AcDbEntity
8
1
0
POLYLINE
5
2b4
100
AcDbEntity
8
1
6
CONTINUOUS
62
5
100
AcDb2dPolyline
66
1
10
0.0
20
0.0
30
0.0
70
0
0
VERTEX
5
2b5
100
AcDbEntity
8
1
100
AcDbVertex
100
AcDb2dVertex
62
5
10
-29.100000
20
233.511895
0
VERTEX
5
2b6
100
AcDbEntity
8
1
100
AcDbVertex
100
AcDb2dVertex
62
5
10
-28.350000
20
232.261895
0
VERTEX
5
2b7
100
AcDbEntity
8
1
100
AcDbVertex
100
AcDb2dVertex
62
5
10
-27.350000
20
231.011895
0
VERTEX
5
2b8
100
AcDbEntity
8
1
100
AcDbVertex
100
AcDb2dVertex
62
5
10
-26.100000
20
229.761895
0
SEQEND
5
2b9
100
AcDbEntity
8
1
0
POLYLINE
5
2ba
100
AcDbEntity
8
1
6
CONTINUOUS
62
5
100
AcDb2dPolyline
66
1
10
0.0
20
0.0
30
0.0
70
1
0
VERTEX
5
2bb
100
AcDbEntity
8
1
100
AcDbVertex
100
AcDb2dVertex
62
5
10
-29.350000
20
229.761895
0
VERTEX
5
2bc
100
AcDbEntity
8
1
100
AcDbVertex
100
AcDb2dVertex
62
5
10
-29.350000
20
226.636895
0
VERTEX
5
2bd
100
AcDbEntity
8
1
100
AcDbVertex
100
AcDb2dVertex
62
5
10
-26.600000
20
226.636895
0
VERTEX
5
2be
100
AcDbEntity
8
1
100
AcDbVertex
100
AcDb2dVertex
62
5
10
-26.600000
20
229.761895
0
VERTEX
5
2bf
100
AcDbEntity
8
1
100
AcDbVertex
100
AcDb2dVertex
62
5
10
-29.350000
20
229.761895
0
SEQEND
5
2c0
100
AcDbEntity
8
1
0
POLYLINE
5
2c1
100
AcDbEntity
8
1
6
CONTINUOUS
62
5
100
AcDb2dPolyline
66
1
10
0.0
20
0.0
30
0.0
70
0
0
VERTEX
5
2c2
100
AcDbEntity
8
1
100
AcDbVertex
100
AcDb2dVertex
62
5
10
-33.100000
20
242.449395
0
VERTEX
5
2c3
100
AcDbEntity
8
1
100
AcDbVertex
100
AcDb2dVertex
62
5
10
-33.600000
20
243.449395
0
VERTEX
5
2c4
100
AcDbEntity
8
1
100
AcDbVertex
100
AcDb2dVertex
62
5
10
-34.350000
20
243.699395
0
VERTEX
5
2c5
100
AcDbEntity
8
1
100
AcDbVertex
100
AcDb2dVertex
62
5
10
-34.850000
20
243.699395
0
VERTEX
5
2c6
100
AcDbEntity
8
1
100
AcDbVertex
100
AcDb2dVertex
62
5
10
-35.350000
20
243.449395
0
VERTEX
5
2c7
100
AcDbEntity
8
1
100
AcDbVertex
100
AcDb2dVertex
62
5
10
-35.850000
20
242.699395
0
VERTEX
5
2c8
100
AcDbEntity
8
1
100
AcDbVertex
100
AcDb2dVertex
62
5
10
-35.850000
20
241.949395
0
VERTEX
5
2c9
100
AcDbEntity
8
1
100
AcDbVertex
100
AcDb2dVertex
62
5
10
-35.350000
20
241.199395
0
VERTEX
5
2ca
100
AcDbEntity
8
1
100
AcDbVertex
100
AcDb2dVertex
62
5
10
-33.600000
20
240.199395
0
VERTEX
5
2cb
100
AcDbEntity
8
1
100
AcDbVertex
100
AcDb2dVertex
62
5
10
-33.100000
20
239.449395
0
VERTEX
5
2cc
100
AcDbEntity
8
1
100
AcDbVertex
100
AcDb2dVertex
62
5
10
-33.100000
20
238.699395
0
VERTEX
5
2cd
100
AcDbEntity
8
1
100
AcDbVertex
100
AcDb2dVertex
62
5
10
-33.600000
20
237.949395
0
VERTEX
5
2ce
100
AcDbEntity
8
1
100
AcDbVertex
100
AcDb2dVertex
62
5
10
-34.350000
20
237.699395
0
VERTEX
5
2cf
100
AcDbEntity
8
1
100
AcDbVertex
100
AcDb2dVertex
62
5
10
-34.850000
20
237.699395
0
VERTEX
5
2d0
100
AcDbEntity
8
1
100
AcDbVertex
100
AcDb2dVertex
62
5
10
-35.600000
20
238.199395
0
VERTEX
5
2d1
100
AcDbEntity
8
1
100
AcDbVertex
100
AcDb2dVertex
62
5
10
-35.850000
20
239.199395
0
SEQEND
5
2d2
100
AcDbEntity
8
1
0
POLYLINE
5
2d3
100
AcDbEntity
8
1
6
CONTINUOUS
62
5
100
AcDb2dPolyline
66
1
10
0.0
20
0.0
30
0.0
70
0
0
VERTEX
5
2d4
100
AcDbEntity
8
1
100
AcDbVertex
100
AcDb2dVertex
62
5
10
-31.600000
20
243.699395
0
VERTEX
5
2d5
100
AcDbEntity
8
1
100
AcDbVertex
100
AcDb2dVertex
62
5
10
-31.600000
20
237.699395
0
VERTEX
5
2d6
100
AcDbEntity
8
1
100
AcDbVertex
100
AcDb2dVertex
62
5
10
-29.100000
20
237.699395
0
SEQEND
5
2d7
100
AcDbEntity
8
1
0
LINE
5
2d8
100
AcDbEntity
8
1
100
AcDbLine
6
CONTINUOUS
62
5
10
-27.100000
20
243.699395
11
-25.600000
21
243.699395
0
LINE
5
2d9
100
AcDbEntity
8
1
100
AcDbLine
6
CONTINUOUS
62
5
10
-26.350000
20
243.699395
11
-26.350000
21
237.699395
0
LINE
5
2da
100
AcDbEntity
8
1
100
AcDbLine
6
CONTINUOUS
62
5
10
-27.100000
20
237.699395
11
-25.600000
21
237.699395
0
POLYLINE
5
2db
100
AcDbEntity
8
1
6
CONTINUOUS
62
5
100
AcDb2dPolyline
66
1
10
0.0
20
0.0
30
0.0
70
0
0
VERTEX
5
2dc
100
AcDbEntity
8
1
100
AcDbVertex
100
AcDb2dVertex
62
5
10
-23.600000
20
237.699395
0
VERTEX
5
2dd
100
AcDbEntity
8
1
100
AcDbVertex
100
AcDb2dVertex
62
5
10
-23.600000
20
243.699395
0
VERTEX
5
2de
100
AcDbEntity
8
1
100
AcDbVertex
100
AcDb2dVertex
62
5
10
-22.350000
20
237.699395
0
VERTEX
5
2df
100
AcDbEntity
8
1
100
AcDbVertex
100
AcDb2dVertex
62
5
10
-21.100000
20
243.699395
0
VERTEX
5
2e0
100
AcDbEntity
8
1
100
AcDbVertex
100
AcDb2dVertex
62
5
10
-21.100000
20
237.699395
0
SEQEND
5
2e1
100
AcDbEntity
8
1
0
LINE
5
2e2
100
AcDbEntity
8
1
100
AcDbLine
6
CONTINUOUS
62
5
10
-51.600000
20
232.886895
11
-47.850000
21
233.511895
0
LINE
5
2e3
100
AcDbEntity
8
1
100
AcDbLine
6
CONTINUOUS
62
5
10
-52.850000
20
231.011895
11
-46.850000
21
231.011895
0
POLYLINE
5
2e4
100
AcDbEntity
8
1
6
CONTINUOUS
62
5
100
AcDb2dPolyline
66
1
10
0.0
20
0.0
30
0.0
70
0
0
VERTEX
5
2e5
100
AcDbEntity
8
1
100
AcDbVertex
100
AcDb2dVertex
62
5
10
-49.600000
20
233.199395
0
VERTEX
5
2e6
100
AcDbEntity
8
1
100
AcDbVertex
100
AcDb2dVertex
62
5
10
-49.600000
20
231.011895
0
VERTEX
5
2e7
100
AcDbEntity
8
1
100
AcDbVertex
100
AcDb2dVertex
62
5
10
-49.850000
20
229.449395
0
VERTEX
5
2e8
100
AcDbEntity
8
1
100
AcDbVertex
100
AcDb2dVertex
62
5
10
-50.600000
20
228.199395
0
VERTEX
5
2e9
100
AcDbEntity
8
1
100
AcDbVertex
100
AcDb2dVertex
62
5
10
-51.350000
20
227.261895
0
SEQEND
5
2ea
100
AcDbEntity
8
1
0
POLYLINE
5
2eb
100
AcDbEntity
8
1
6
CONTINUOUS
62
5
100
AcDb2dPolyline
66
1
10
0.0
20
0.0
30
0.0
70
0
0
VERTEX
5
2ec
100
AcDbEntity
8
1
100
AcDbVertex
100
AcDb2dVertex
62
5
10
-55.850000
20
243.699395
0
VERTEX
5
2ed
100
AcDbEntity
8
1
100
AcDbVertex
100
AcDb2dVertex
62
5
10
-55.100000
20
237.699395
0
VERTEX
5
2ee
100
AcDbEntity
8
1
100
AcDbVertex
100
AcDb2dVertex
62
5
10
-54.350000
20
243.699395
0
VERTEX
5
2ef
100
AcDbEntity
8
1
100
AcDbVertex
100
AcDb2dVertex
62
5
10
-53.600000
20
237.699395
0
VERTEX
5
2f0
100
AcDbEntity
8
1
100
AcDbVertex
100
AcDb2dVertex
62
5
10
-52.850000
20
243.699395
0
SEQEND
5
2f1
100
AcDbEntity
8
1
0
LINE
5
2f2
100
AcDbEntity
8
1
100
AcDbLine
6
CONTINUOUS
62
5
10
-51.100000
20
243.699395
11
-49.600000
21
243.699395
0
LINE
5
2f3
100
AcDbEntity
8
1
100
AcDbLine
6
CONTINUOUS
62
5
10
-50.350000
20
243.699395
11
-50.350000
21
237.699395
0
LINE
5
2f4
100
AcDbEntity
8
1
100
AcDbLine
6
CONTINUOUS
62
5
10
-51.100000
20
237.699395
11
-49.600000
21
237.699395
0
LINE
5
2f5
100
AcDbEntity
8
1
100
AcDbLine
6
CONTINUOUS
62
5
10
-47.600000
20
243.699395
11
-47.600000
21
237.699395
0
POLYLINE
5
2f6
100
AcDbEntity
8
1
6
CONTINUOUS
62
5
100
AcDb2dPolyline
66
1
10
0.0
20
0.0
30
0.0
70
0
0
VERTEX
5
2f7
100
AcDbEntity
8
1
100
AcDbVertex
100
AcDb2dVertex
62
5
10
-47.600000
20
243.699395
0
VERTEX
5
2f8
100
AcDbEntity
8
1
100
AcDbVertex
100
AcDb2dVertex
62
5
10
-46.350000
20
243.699395
0
VERTEX
5
2f9
100
AcDbEntity
8
1
100
AcDbVertex
100
AcDb2dVertex
62
5
10
-45.850000
20
243.449395
0
VERTEX
5
2fa
100
AcDbEntity
8
1
100
AcDbVertex
100
AcDb2dVertex
62
5
10
-45.350000
20
242.949395
0
VERTEX
5
2fb
100
AcDbEntity
8
1
100
AcDbVertex
100
AcDb2dVertex
62
5
10
-45.100000
20
241.949395
0
VERTEX
5
2fc
100
AcDbEntity
8
1
100
AcDbVertex
100
AcDb2dVertex
62
5
10
-45.100000
20
239.449395
0
VERTEX
5
2fd
100
AcDbEntity
8
1
100
AcDbVertex
100
AcDb2dVertex
62
5
10
-45.350000
20
238.449395
0
VERTEX
5
2fe
100
AcDbEntity
8
1
100
AcDbVertex
100
AcDb2dVertex
62
5
10
-45.850000
20
237.949395
0
VERTEX
5
2ff
100
AcDbEntity
8
1
100
AcDbVertex
100
AcDb2dVertex
62
5
10
-46.350000
20
237.699395
0
VERTEX
5
300
100
AcDbEntity
8
1
100
AcDbVertex
100
AcDb2dVertex
62
5
10
-47.600000
20
237.699395
0
SEQEND
5
301
100
AcDbEntity
8
1
0
POLYLINE
5
302
100
AcDbEntity
8
1
6
CONTINUOUS
62
5
100
AcDb2dPolyline
66
1
10
0.0
20
0.0
30
0.0
70
0
0
VERTEX
5
303
100
AcDbEntity
8
1
100
AcDbVertex
100
AcDb2dVertex
62
5
10
-41.100000
20
243.699395
0
VERTEX
5
304
100
AcDbEntity
8
1
100
AcDbVertex
100
AcDb2dVertex
62
5
10
-43.600000
20
243.699395
0
VERTEX
5
305
100
AcDbEntity
8
1
100
AcDbVertex
100
AcDb2dVertex
62
5
10
-43.600000
20
237.699395
0
VERTEX
5
306
100
AcDbEntity
8
1
100
AcDbVertex
100
AcDb2dVertex
62
5
10
-40.850000
20
237.699395
0
SEQEND
5
307
100
AcDbEntity
8
1
0
LINE
5
308
100
AcDbEntity
8
1
100
AcDbLine
6
CONTINUOUS
62
5
10
-43.600000
20
240.699395
11
-41.350000
21
240.699395
0
POLYLINE
5
309
100
AcDbEntity
8
1
6
CONTINUOUS
62
5
100
AcDb2dPolyline
66
1
10
0.0
20
0.0
30
0.0
70
0
0
VERTEX
5
30a
100
AcDbEntity
8
1
100
AcDbVertex
100
AcDb2dVertex
62
5
10
-75.600000
20
232.574395
0
VERTEX
5
30b
100
AcDbEntity
8
1
100
AcDbVertex
100
AcDb2dVertex
62
5
10
-72.350000
20
232.574395
0
VERTEX
5
30c
100
AcDbEntity
8
1
100
AcDbVertex
100
AcDb2dVertex
62
5
10
-72.350000
20
232.261895
0
VERTEX
5
30d
100
AcDbEntity
8
1
100
AcDbVertex
100
AcDb2dVertex
62
5
10
-72.850000
20
231.011895
0
VERTEX
5
30e
100
AcDbEntity
8
1
100
AcDbVertex
100
AcDb2dVertex
62
5
10
-73.350000
20
230.074395
0
VERTEX
5
30f
100
AcDbEntity
8
1
100
AcDbVertex
100
AcDb2dVertex
62
5
10
-74.350000
20
228.824395
0
VERTEX
5
310
100
AcDbEntity
8
1
100
AcDbVertex
100
AcDb2dVertex
62
5
10
-76.100000
20
227.261895
0
SEQEND
5
311
100
AcDbEntity
8
1
0
LINE
5
312
100
AcDbEntity
8
1
100
AcDbLine
6
CONTINUOUS
62
5
10
-73.350000
20
230.074395
11
-71.350000
21
227.261895
0
POLYLINE
5
313
100
AcDbEntity
8
1
6
CONTINUOUS
62
5
100
AcDb2dPolyline
66
1
10
0.0
20
0.0
30
0.0
70
0
0
VERTEX
5
314
100
AcDbEntity
8
1
100
AcDbVertex
100
AcDb2dVertex
62
5
10
-63.850000
20
234.136895
0
VERTEX
5
315
100
AcDbEntity
8
1
100
AcDbVertex
100
AcDb2dVertex
62
5
10
-65.850000
20
231.636895
0
VERTEX
5
316
100
AcDbEntity
8
1
100
AcDbVertex
100
AcDb2dVertex
62
5
10
-68.100000
20
230.074395
0
SEQEND
5
317
100
AcDbEntity
8
1
0
LINE
5
318
100
AcDbEntity
8
1
100
AcDbLine
6
CONTINUOUS
62
5
10
-65.350000
20
232.261895
11
-65.350000
21
226.949395
0
LINE
5
319
100
AcDbEntity
8
1
100
AcDbLine
6
CONTINUOUS
62
5
10
-73.100000
20
243.949395
11
-75.600000
21
237.449395
0
POLYLINE
5
31a
100
AcDbEntity
8
1
6
CONTINUOUS
62
5
100
AcDb2dPolyline
66
1
10
0.0
20
0.0
30
0.0
70
0
0
VERTEX
5
31b
100
AcDbEntity
8
1
100
AcDbVertex
100
AcDb2dVertex
62
5
10
-65.350000
20
243.699395
0
VERTEX
5
31c
100
AcDbEntity
8
1
100
AcDbVertex
100
AcDb2dVertex
62
5
10
-65.350000
20
239.199395
0
VERTEX
5
31d
100
AcDbEntity
8
1
100
AcDbVertex
100
AcDb2dVertex
62
5
10
-65.600000
20
238.199395
0
VERTEX
5
31e
100
AcDbEntity
8
1
100
AcDbVertex
100
AcDb2dVertex
62
5
10
-66.100000
20
237.699395
0
VERTEX
5
31f
100
AcDbEntity
8
1
100
AcDbVertex
100
AcDb2dVertex
62
5
10
-66.850000
20
237.699395
0
VERTEX
5
320
100
AcDbEntity
8
1
100
AcDbVertex
100
AcDb2dVertex
62
5
10
-67.350000
20
238.199395
0
VERTEX
5
321
100
AcDbEntity
8
1
100
AcDbVertex
100
AcDb2dVertex
62
5
10
-67.600000
20
239.199395
0
SEQEND
5
322
100
AcDbEntity
8
1
0
POLYLINE
5
323
100
AcDbEntity
8
1
6
CONTINUOUS
62
5
100
AcDb2dPolyline
66
1
10
0.0
20
0.0
30
0.0
70
0
0
VERTEX
5
324
100
AcDbEntity
8
1
100
AcDbVertex
100
AcDb2dVertex
62
5
10
-61.350000
20
240.699395
0
VERTEX
5
325
100
AcDbEntity
8
1
100
AcDbVertex
100
AcDb2dVertex
62
5
10
-60.850000
20
241.199395
0
VERTEX
5
326
100
AcDbEntity
8
1
100
AcDbVertex
100
AcDb2dVertex
62
5
10
-60.600000
20
241.199395
0
VERTEX
5
327
100
AcDbEntity
8
1
100
AcDbVertex
100
AcDb2dVertex
62
5
10
-60.100000
20
240.699395
0
VERTEX
5
328
100
AcDbEntity
8
1
100
AcDbVertex
100
AcDb2dVertex
62
5
10
-60.100000
20
240.449395
0
VERTEX
5
329
100
AcDbEntity
8
1
100
AcDbVertex
100
AcDb2dVertex
62
5
10
-60.600000
20
239.949395
0
VERTEX
5
32a
100
AcDbEntity
8
1
100
AcDbVertex
100
AcDb2dVertex
62
5
10
-60.850000
20
239.949395
0
VERTEX
5
32b
100
AcDbEntity
8
1
100
AcDbVertex
100
AcDb2dVertex
62
5
10
-61.350000
20
240.449395
0
VERTEX
5
32c
100
AcDbEntity
8
1
100
AcDbVertex
100
AcDb2dVertex
62
5
10
-61.350000
20
240.699395
0
VERTEX
5
32d
100
AcDbEntity
8
1
100
AcDbVertex
100
AcDb2dVertex
62
5
10
-60.100000
20
240.699395
0
SEQEND
5
32e
100
AcDbEntity
8
1
0
LINE
5
32f
100
AcDbEntity
8
1
100
AcDbLine
6
CONTINUOUS
62
5
10
-60.100000
20
240.449395
11
-61.350000
21
240.449395
0
LINE
5
330
100
AcDbEntity
8
1
100
AcDbLine
6
CONTINUOUS
62
5
10
-61.100000
20
240.199395
11
-60.350000
21
240.199395
0
LINE
5
331
100
AcDbEntity
8
1
100
AcDbLine
6
CONTINUOUS
62
5
10
-60.350000
20
240.949395
11
-61.100000
21
240.949395
0
LINE
5
332
100
AcDbEntity
8
1
100
AcDbLine
6
CONTINUOUS
62
5
10
-59.350000
20
231.011895
11
-59.100000
21
229.761895
0
LINE
5
333
100
AcDbEntity
8
1
100
AcDbLine
6
CONTINUOUS
62
5
10
-57.850000
20
231.324395
11
-57.600000
21
230.074395
0
POLYLINE
5
334
100
AcDbEntity
8
1
6
CONTINUOUS
62
5
100
AcDb2dPolyline
66
1
10
0.0
20
0.0
30
0.0
70
0
0
VERTEX
5
335
100
AcDbEntity
8
1
100
AcDbVertex
100
AcDb2dVertex
62
5
10
-55.850000
20
231.324395
0
VERTEX
5
336
100
AcDbEntity
8
1
100
AcDbVertex
100
AcDb2dVertex
62
5
10
-56.100000
20
229.761895
0
VERTEX
5
337
100
AcDbEntity
8
1
100
AcDbVertex
100
AcDb2dVertex
62
5
10
-57.350000
20
227.886895
0
VERTEX
5
338
100
AcDbEntity
8
1
100
AcDbVertex
100
AcDb2dVertex
62
5
10
-58.350000
20
226.949395
0
SEQEND
5
339
100
AcDbEntity
8
1
0
LINE
5
33a
100
AcDbEntity
8
1
100
AcDbLine
6
CONTINUOUS
62
5
10
-93.100000
20
231.949395
11
-91.100000
21
231.949395
0
LINE
5
33b
100
AcDbEntity
8
1
100
AcDbLine
6
CONTINUOUS
62
5
10
-93.350000
20
227.574395
11
-91.100000
21
228.824395
0
LINE
5
33c
100
AcDbEntity
8
1
100
AcDbLine
6
CONTINUOUS
62
5
10
-92.100000
20
234.449395
11
-92.100000
21
228.199395
0
POLYLINE
5
33d
100
AcDbEntity
8
1
6
CONTINUOUS
62
5
100
AcDb2dPolyline
66
1
10
0.0
20
0.0
30
0.0
70
1
0
VERTEX
5
33e
100
AcDbEntity
8
1
100
AcDbVertex
100
AcDb2dVertex
62
5
10
-90.100000
20
234.136895
0
VERTEX
5
33f
100
AcDbEntity
8
1
100
AcDbVertex
100
AcDb2dVertex
62
5
10
-90.100000
20
230.699395
0
VERTEX
5
340
100
AcDbEntity
8
1
100
AcDbVertex
100
AcDb2dVertex
62
5
10
-87.100000
20
230.699395
0
VERTEX
5
341
100
AcDbEntity
8
1
100
AcDbVertex
100
AcDb2dVertex
62
5
10
-87.100000
20
234.136895
0
VERTEX
5
342
100
AcDbEntity
8
1
100
AcDbVertex
100
AcDb2dVertex
62
5
10
-90.100000
20
234.136895
0
SEQEND
5
343
100
AcDbEntity
8
1
0
LINE
5
344
100
AcDbEntity
8
1
100
AcDbLine
6
CONTINUOUS
62
5
10
-90.100000
20
232.574395
11
-87.100000
21
232.574395
0
LINE
5
345
100
AcDbEntity
8
1
100
AcDbLine
6
CONTINUOUS
62
5
10
-88.600000
20
234.136895
11
-88.600000
21
226.949395
0
LINE
5
346
100
AcDbEntity
8
1
100
AcDbLine
6
CONTINUOUS
62
5
10
-90.600000
20
229.136895
11
-86.600000
21
229.136895
0
LINE
5
347
100
AcDbEntity
8
1
100
AcDbLine
6
CONTINUOUS
62
5
10
-91.350000
20
226.949395
11
-86.100000
21
226.949395
0
POLYLINE
5
348
100
AcDbEntity
8
1
6
CONTINUOUS
62
5
100
AcDb2dPolyline
66
1
10
0.0
20
0.0
30
0.0
70
0
0
VERTEX
5
349
100
AcDbEntity
8
1
100
AcDbVertex
100
AcDb2dVertex
62
5
10
-95.850000
20
243.699395
0
VERTEX
5
34a
100
AcDbEntity
8
1
100
AcDbVertex
100
AcDb2dVertex
62
5
10
-95.100000
20
237.699395
0
VERTEX
5
34b
100
AcDbEntity
8
1
100
AcDbVertex
100
AcDb2dVertex
62
5
10
-94.350000
20
243.699395
0
VERTEX
5
34c
100
AcDbEntity
8
1
100
AcDbVertex
100
AcDb2dVertex
62
5
10
-93.600000
20
237.699395
0
VERTEX
5
34d
100
AcDbEntity
8
1
100
AcDbVertex
100
AcDb2dVertex
62
5
10
-92.850000
20
243.699395
0
SEQEND
5
34e
100
AcDbEntity
8
1
0
LINE
5
34f
100
AcDbEntity
8
1
100
AcDbLine
6
CONTINUOUS
62
5
10
-91.100000
20
243.699395
11
-89.600000
21
243.699395
0
LINE
5
350
100
AcDbEntity
8
1
100
AcDbLine
6
CONTINUOUS
62
5
10
-90.350000
20
243.699395
11
-90.350000
21
237.699395
0
LINE
5
351
100
AcDbEntity
8
1
100
AcDbLine
6
CONTINUOUS
62
5
10
-91.100000
20
237.699395
11
-89.600000
21
237.699395
0
LINE
5
352
100
AcDbEntity
8
1
100
AcDbLine
6
CONTINUOUS
62
5
10
-87.600000
20
243.699395
11
-87.600000
21
237.699395
0
POLYLINE
5
353
100
AcDbEntity
8
1
6
CONTINUOUS
62
5
100
AcDb2dPolyline
66
1
10
0.0
20
0.0
30
0.0
70
0
0
VERTEX
5
354
100
AcDbEntity
8
1
100
AcDbVertex
100
AcDb2dVertex
62
5
10
-87.600000
20
243.699395
0
VERTEX
5
355
100
AcDbEntity
8
1
100
AcDbVertex
100
AcDb2dVertex
62
5
10
-86.350000
20
243.699395
0
VERTEX
5
356
100
AcDbEntity
8
1
100
AcDbVertex
100
AcDb2dVertex
62
5
10
-85.850000
20
243.449395
0
VERTEX
5
357
100
AcDbEntity
8
1
100
AcDbVertex
100
AcDb2dVertex
62
5
10
-85.350000
20
242.949395
0
VERTEX
5
358
100
AcDbEntity
8
1
100
AcDbVertex
100
AcDb2dVertex
62
5
10
-85.100000
20
241.949395
0
VERTEX
5
359
100
AcDbEntity
8
1
100
AcDbVertex
100
AcDb2dVertex
62
5
10
-85.100000
20
239.449395
0
VERTEX
5
35a
100
AcDbEntity
8
1
100
AcDbVertex
100
AcDb2dVertex
62
5
10
-85.350000
20
238.449395
0
VERTEX
5
35b
100
AcDbEntity
8
1
100
AcDbVertex
100
AcDb2dVertex
62
5
10
-85.850000
20
237.949395
0
VERTEX
5
35c
100
AcDbEntity
8
1
100
AcDbVertex
100
AcDb2dVertex
62
5
10
-86.350000
20
237.699395
0
VERTEX
5
35d
100
AcDbEntity
8
1
100
AcDbVertex
100
AcDb2dVertex
62
5
10
-87.600000
20
237.699395
0
SEQEND
5
35e
100
AcDbEntity
8
1
0
POLYLINE
5
35f
100
AcDbEntity
8
1
6
CONTINUOUS
62
5
100
AcDb2dPolyline
66
1
10
0.0
20
0.0
30
0.0
70
0
0
VERTEX
5
360
100
AcDbEntity
8
1
100
AcDbVertex
100
AcDb2dVertex
62
5
10
-81.100000
20
243.699395
0
VERTEX
5
361
100
AcDbEntity
8
1
100
AcDbVertex
100
AcDb2dVertex
62
5
10
-83.600000
20
243.699395
0
VERTEX
5
362
100
AcDbEntity
8
1
100
AcDbVertex
100
AcDb2dVertex
62
5
10
-83.600000
20
237.699395
0
VERTEX
5
363
100
AcDbEntity
8
1
100
AcDbVertex
100
AcDb2dVertex
62
5
10
-80.850000
20
237.699395
0
SEQEND
5
364
100
AcDbEntity
8
1
0
LINE
5
365
100
AcDbEntity
8
1
100
AcDbLine
6
CONTINUOUS
62
5
10
-83.600000
20
240.699395
11
-81.350000
21
240.699395
0
POLYLINE
5
366
100
AcDbEntity
8
1
6
CONTINUOUS
62
5
100
AcDb2dPolyline
66
1
10
0.0
20
0.0
30
0.0
70
0
0
VERTEX
5
367
100
AcDbEntity
8
1
100
AcDbVertex
100
AcDb2dVertex
62
5
10
-105.350000
20
243.699395
0
VERTEX
5
368
100
AcDbEntity
8
1
100
AcDbVertex
100
AcDb2dVertex
62
5
10
-105.350000
20
239.199395
0
VERTEX
5
369
100
AcDbEntity
8
1
100
AcDbVertex
100
AcDb2dVertex
62
5
10
-105.600000
20
238.199395
0
VERTEX
5
36a
100
AcDbEntity
8
1
100
AcDbVertex
100
AcDb2dVertex
62
5
10
-106.100000
20
237.699395
0
VERTEX
5
36b
100
AcDbEntity
8
1
100
AcDbVertex
100
AcDb2dVertex
62
5
10
-106.850000
20
237.699395
0
VERTEX
5
36c
100
AcDbEntity
8
1
100
AcDbVertex
100
AcDb2dVertex
62
5
10
-107.350000
20
238.199395
0
VERTEX
5
36d
100
AcDbEntity
8
1
100
AcDbVertex
100
AcDb2dVertex
62
5
10
-107.600000
20
239.199395
0
SEQEND
5
36e
100
AcDbEntity
8
1
0
POLYLINE
5
36f
100
AcDbEntity
8
1
6
CONTINUOUS
62
5
100
AcDb2dPolyline
66
1
10
0.0
20
0.0
30
0.0
70
0
0
VERTEX
5
370
100
AcDbEntity
8
1
100
AcDbVertex
100
AcDb2dVertex
62
5
10
-101.350000
20
240.699395
0
VERTEX
5
371
100
AcDbEntity
8
1
100
AcDbVertex
100
AcDb2dVertex
62
5
10
-100.850000
20
241.199395
0
VERTEX
5
372
100
AcDbEntity
8
1
100
AcDbVertex
100
AcDb2dVertex
62
5
10
-100.600000
20
241.199395
0
VERTEX
5
373
100
AcDbEntity
8
1
100
AcDbVertex
100
AcDb2dVertex
62
5
10
-100.100000
20
240.699395
0
VERTEX
5
374
100
AcDbEntity
8
1
100
AcDbVertex
100
AcDb2dVertex
62
5
10
-100.100000
20
240.449395
0
VERTEX
5
375
100
AcDbEntity
8
1
100
AcDbVertex
100
AcDb2dVertex
62
5
10
-100.600000
20
239.949395
0
VERTEX
5
376
100
AcDbEntity
8
1
100
AcDbVertex
100
AcDb2dVertex
62
5
10
-100.850000
20
239.949395
0
VERTEX
5
377
100
AcDbEntity
8
1
100
AcDbVertex
100
AcDb2dVertex
62
5
10
-101.350000
20
240.449395
0
VERTEX
5
378
100
AcDbEntity
8
1
100
AcDbVertex
100
AcDb2dVertex
62
5
10
-101.350000
20
240.699395
0
VERTEX
5
379
100
AcDbEntity
8
1
100
AcDbVertex
100
AcDb2dVertex
62
5
10
-100.100000
20
240.699395
0
SEQEND
5
37a
100
AcDbEntity
8
1
0
LINE
5
37b
100
AcDbEntity
8
1
100
AcDbLine
6
CONTINUOUS
62
5
10
-100.100000
20
240.449395
11
-101.350000
21
240.449395
0
LINE
5
37c
100
AcDbEntity
8
1
100
AcDbLine
6
CONTINUOUS
62
5
10
-101.100000
20
240.199395
11
-100.350000
21
240.199395
0
LINE
5
37d
100
AcDbEntity
8
1
100
AcDbLine
6
CONTINUOUS
62
5
10
-100.350000
20
240.949395
11
-101.100000
21
240.949395
0
LINE
5
37e
100
AcDbEntity
8
1
100
AcDbLine
6
CONTINUOUS
62
5
10
-118.600000
20
246.699395
11
-118.600000
21
214.699395
0
LINE
5
37f
100
AcDbEntity
8
1
100
AcDbLine
6
CONTINUOUS
62
5
10
-96.100000
20
193.449395
11
-92.975000
21
193.449395
0
POLYLINE
5
380
100
AcDbEntity
8
1
6
CONTINUOUS
62
5
100
AcDb2dPolyline
66
1
10
0.0
20
0.0
30
0.0
70
0
0
VERTEX
5
381
100
AcDbEntity
8
1
100
AcDbVertex
100
AcDb2dVertex
62
5
10
-88.600000
20
197.199395
0
VERTEX
5
382
100
AcDbEntity
8
1
100
AcDbVertex
100
AcDb2dVertex
62
5
10
-91.412500
20
191.574395
0
VERTEX
5
383
100
AcDbEntity
8
1
100
AcDbVertex
100
AcDb2dVertex
62
5
10
-87.662500
20
191.574395
0
SEQEND
5
384
100
AcDbEntity
8
1
0
LINE
5
385
100
AcDbEntity
8
1
100
AcDbLine
6
CONTINUOUS
62
5
10
-88.600000
20
197.199395
11
-88.600000
21
189.699395
0
LINE
5
386
100
AcDbEntity
8
1
100
AcDbLine
6
CONTINUOUS
62
5
10
-89.225000
20
189.699395
11
-87.975000
21
189.699395
0
POLYLINE
5
387
100
AcDbEntity
8
1
6
CONTINUOUS
62
5
100
AcDb2dPolyline
66
1
10
0.0
20
0.0
30
0.0
70
0
0
VERTEX
5
388
100
AcDbEntity
8
1
100
AcDbVertex
100
AcDb2dVertex
62
5
10
-82.975000
20
195.636895
0
VERTEX
5
389
100
AcDbEntity
8
1
100
AcDbVertex
100
AcDb2dVertex
62
5
10
-83.287500
20
196.574395
0
VERTEX
5
38a
100
AcDbEntity
8
1
100
AcDbVertex
100
AcDb2dVertex
62
5
10
-83.912500
20
197.199395
0
VERTEX
5
38b
100
AcDbEntity
8
1
100
AcDbVertex
100
AcDb2dVertex
62
5
10
-84.850000
20
197.199395
0
VERTEX
5
38c
100
AcDbEntity
8
1
100
AcDbVertex
100
AcDb2dVertex
62
5
10
-85.787500
20
196.261895
0
VERTEX
5
38d
100
AcDbEntity
8
1
100
AcDbVertex
100
AcDb2dVertex
62
5
10
-86.100000
20
194.699395
0
VERTEX
5
38e
100
AcDbEntity
8
1
100
AcDbVertex
100
AcDb2dVertex
62
5
10
-86.100000
20
192.199395
0
VERTEX
5
38f
100
AcDbEntity
8
1
100
AcDbVertex
100
AcDb2dVertex
62
5
10
-85.787500
20
190.636895
0
VERTEX
5
390
100
AcDbEntity
8
1
100
AcDbVertex
100
AcDb2dVertex
62
5
10
-84.850000
20
189.699395
0
VERTEX
5
391
100
AcDbEntity
8
1
100
AcDbVertex
100
AcDb2dVertex
62
5
10
-83.912500
20
189.699395
0
VERTEX
5
392
100
AcDbEntity
8
1
100
AcDbVertex
100
AcDb2dVertex
62
5
10
-83.287500
20
190.324395
0
VERTEX
5
393
100
AcDbEntity
8
1
100
AcDbVertex
100
AcDb2dVertex
62
5
10
-82.662500
20
191.886895
0
SEQEND
5
394
100
AcDbEntity
8
1
0
POLYLINE
5
395
100
AcDbEntity
8
1
6
CONTINUOUS
62
5
100
AcDb2dPolyline
66
1
10
0.0
20
0.0
30
0.0
70
0
0
VERTEX
5
396
100
AcDbEntity
8
1
100
AcDbVertex
100
AcDb2dVertex
62
5
10
-106.412500
20
197.199395
0
VERTEX
5
397
100
AcDbEntity
8
1
100
AcDbVertex
100
AcDb2dVertex
62
5
10
-105.475000
20
189.699395
0
VERTEX
5
398
100
AcDbEntity
8
1
100
AcDbVertex
100
AcDb2dVertex
62
5
10
-104.537500
20
197.199395
0
VERTEX
5
399
100
AcDbEntity
8
1
100
AcDbVertex
100
AcDb2dVertex
62
5
10
-103.600000
20
189.699395
0
VERTEX
5
39a
100
AcDbEntity
8
1
100
AcDbVertex
100
AcDb2dVertex
62
5
10
-102.662500
20
197.199395
0
SEQEND
5
39b
100
AcDbEntity
8
1
0
POLYLINE
5
39c
100
AcDbEntity
8
1
6
CONTINUOUS
62
5
100
AcDb2dPolyline
66
1
10
0.0
20
0.0
30
0.0
70
0
0
VERTEX
5
39d
100
AcDbEntity
8
1
100
AcDbVertex
100
AcDb2dVertex
62
5
10
-98.287500
20
197.199395
0
VERTEX
5
39e
100
AcDbEntity
8
1
100
AcDbVertex
100
AcDb2dVertex
62
5
10
-98.287500
20
191.574395
0
VERTEX
5
39f
100
AcDbEntity
8
1
100
AcDbVertex
100
AcDb2dVertex
62
5
10
-98.600000
20
190.324395
0
VERTEX
5
3a0
100
AcDbEntity
8
1
100
AcDbVertex
100
AcDb2dVertex
62
5
10
-99.225000
20
189.699395
0
VERTEX
5
3a1
100
AcDbEntity
8
1
100
AcDbVertex
100
AcDb2dVertex
62
5
10
-100.162500
20
189.699395
0
VERTEX
5
3a2
100
AcDbEntity
8
1
100
AcDbVertex
100
AcDb2dVertex
62
5
10
-100.787500
20
190.324395
0
VERTEX
5
3a3
100
AcDbEntity
8
1
100
AcDbVertex
100
AcDb2dVertex
62
5
10
-101.100000
20
191.574395
0
SEQEND
5
3a4
100
AcDbEntity
8
1
0
LINE
5
3a5
100
AcDbEntity
8
1
100
AcDbLine
6
CONTINUOUS
62
5
10
-84.600000
20
234.449395
11
-83.600000
21
233.511895
0
POLYLINE
5
3a6
100
AcDbEntity
8
1
6
CONTINUOUS
62
5
100
AcDb2dPolyline
66
1
10
0.0
20
0.0
30
0.0
70
0
0
VERTEX
5
3a7
100
AcDbEntity
8
1
100
AcDbVertex
100
AcDb2dVertex
62
5
10
-84.850000
20
231.324395
0
VERTEX
5
3a8
100
AcDbEntity
8
1
100
AcDbVertex
100
AcDb2dVertex
62
5
10
-83.600000
20
231.324395
0
VERTEX
5
3a9
100
AcDbEntity
8
1
100
AcDbVertex
100
AcDb2dVertex
62
5
10
-83.600000
20
228.199395
0
VERTEX
5
3aa
100
AcDbEntity
8
1
100
AcDbVertex
100
AcDb2dVertex
62
5
10
-84.850000
20
226.636895
0
SEQEND
5
3ab
100
AcDbEntity
8
1
0
POLYLINE
5
3ac
100
AcDbEntity
8
1
6
CONTINUOUS
62
5
100
AcDb2dPolyline
66
1
10
0.0
20
0.0
30
0.0
70
0
0
VERTEX
5
3ad
100
AcDbEntity
8
1
100
AcDbVertex
100
AcDb2dVertex
62
5
10
-83.600000
20
228.199395
0
VERTEX
5
3ae
100
AcDbEntity
8
1
100
AcDbVertex
100
AcDb2dVertex
62
5
10
-82.850000
20
226.949395
0
VERTEX
5
3af
100
AcDbEntity
8
1
100
AcDbVertex
100
AcDb2dVertex
62
5
10
-81.850000
20
226.636895
0
VERTEX
5
3b0
100
AcDbEntity
8
1
100
AcDbVertex
100
AcDb2dVertex
62
5
10
-78.100000
20
226.636895
0
SEQEND
5
3b1
100
AcDbEntity
8
1
0
POLYLINE
5
3b2
100
AcDbEntity
8
1
6
CONTINUOUS
62
5
100
AcDb2dPolyline
66
1
10
0.0
20
0.0
30
0.0
70
0
0
VERTEX
5
3b3
100
AcDbEntity
8
1
100
AcDbVertex
100
AcDb2dVertex
62
5
10
-80.850000
20
231.949395
0
VERTEX
5
3b4
100
AcDbEntity
8
1
100
AcDbVertex
100
AcDb2dVertex
62
5
10
-81.600000
20
230.074395
0
VERTEX
5
3b5
100
AcDbEntity
8
1
100
AcDbVertex
100
AcDb2dVertex
62
5
10
-82.350000
20
228.824395
0
VERTEX
5
3b6
100
AcDbEntity
8
1
100
AcDbVertex
100
AcDb2dVertex
62
5
10
-82.850000
20
228.199395
0
SEQEND
5
3b7
100
AcDbEntity
8
1
0
POLYLINE
5
3b8
100
AcDbEntity
8
1
6
CONTINUOUS
62
5
100
AcDb2dPolyline
66
1
10
0.0
20
0.0
30
0.0
70
0
0
VERTEX
5
3b9
100
AcDbEntity
8
1
100
AcDbVertex
100
AcDb2dVertex
62
5
10
-82.100000
20
234.761895
0
VERTEX
5
3ba
100
AcDbEntity
8
1
100
AcDbVertex
100
AcDb2dVertex
62
5
10
-80.850000
20
234.761895
0
VERTEX
5
3bb
100
AcDbEntity
8
1
100
AcDbVertex
100
AcDb2dVertex
62
5
10
-80.850000
20
231.949395
0
VERTEX
5
3bc
100
AcDbEntity
8
1
100
AcDbVertex
100
AcDb2dVertex
62
5
10
-80.100000
20
230.074395
0
VERTEX
5
3bd
100
AcDbEntity
8
1
100
AcDbVertex
100
AcDb2dVertex
62
5
10
-79.100000
20
228.824395
0
VERTEX
5
3be
100
AcDbEntity
8
1
100
AcDbVertex
100
AcDb2dVertex
62
5
10
-78.350000
20
228.199395
0
SEQEND
5
3bf
100
AcDbEntity
8
1
0
POLYLINE
5
3c0
100
AcDbEntity
8
1
6
CONTINUOUS
62
5
100
AcDb2dPolyline
66
1
10
0.0
20
0.0
30
0.0
70
0
0
VERTEX
5
3c1
100
AcDbEntity
8
1
100
AcDbVertex
100
AcDb2dVertex
62
5
10
-81.100000
20
197.199395
0
VERTEX
5
3c2
100
AcDbEntity
8
1
100
AcDbVertex
100
AcDb2dVertex
62
5
10
-81.100000
20
189.699395
0
VERTEX
5
3c3
100
AcDbEntity
8
1
100
AcDbVertex
100
AcDb2dVertex
62
5
10
-77.975000
20
189.699395
0
SEQEND
5
3c4
100
AcDbEntity
8
1
0
CIRCLE
5
3c5
100
AcDbEntity
8
1
100
AcDbCircle
6
CONTINUOUS
62
5
10
-16.600000
20
122.499395
40
0.500000
0
LINE
5
3c6
100
AcDbEntity
8
1
100
AcDbLine
6
CONTINUOUS
62
5
10
-11.600000
20
120.849395
11
-12.100000
21
121.149395
0
LINE
5
3c7
100
AcDbEntity
8
1
100
AcDbLine
6
CONTINUOUS
62
5
10
-7.726861
20
119.649395
11
-6.626495
21
119.747025
0
ARC
5
3c8
100
AcDbEntity
8
1
100
AcDbCircle
6
CONTINUOUS
62
5
10
-18.600000
20
123.599395
40
1.000000
100
AcDbArc
50
89.999999
51
-179.999998
0
LINE
5
3c9
100
AcDbEntity
8
1
100
AcDbLine
6
CONTINUOUS
62
5
10
-19.600000
20
123.599395
11
-19.600000
21
123.549395
0
LINE
5
3ca
100
AcDbEntity
8
1
100
AcDbLine
6
CONTINUOUS
62
5
10
-15.600000
20
124.599395
11
-18.600000
21
124.599395
0
LINE
5
3cb
100
AcDbEntity
8
1
100
AcDbLine
6
CONTINUOUS
62
5
10
0.800000
20
115.349395
11
0.500000
21
115.649395
0
LINE
5
3cc
100
AcDbEntity
8
1
100
AcDbLine
6
CONTINUOUS
62
5
10
-12.300000
20
116.499395
11
-12.461572
21
116.799395
0
ARC
5
3cd
100
AcDbEntity
8
1
100
AcDbCircle
6
CONTINUOUS
62
5
10
-4.631924
20
116.894222
40
0.300000
100
AcDbArc
50
89.999999
51
179.999998
0
LINE
5
3ce
100
AcDbEntity
8
1
100
AcDbLine
6
CONTINUOUS
62
5
10
-4.631924
20
117.194222
11
-3.900115
21
117.194222
0
ARC
5
3cf
100
AcDbEntity
8
1
100
AcDbCircle
6
CONTINUOUS
62
5
10
-3.900115
20
116.894222
40
0.300000
100
AcDbArc
50
0.000000
51
89.999999
0
LINE
5
3d0
100
AcDbEntity
8
1
100
AcDbLine
6
CONTINUOUS
62
5
10
-3.600115
20
116.894222
11
-3.600115
21
115.449395
0
POLYLINE
5
3d1
100
AcDbEntity
8
1
6
CONTINUOUS
62
5
100
AcDb2dPolyline
66
1
10
0.0
20
0.0
30
0.0
70
0
0
VERTEX
5
3d2
100
AcDbEntity
8
1
100
AcDbVertex
100
AcDb2dVertex
62
5
10
-6.976425
20
114.799395
0
VERTEX
5
3d3
100
AcDbEntity
8
1
100
AcDbVertex
100
AcDb2dVertex
62
5
10
-6.976425
20
118.249395
0
VERTEX
5
3d4
100
AcDbEntity
8
1
100
AcDbVertex
100
AcDb2dVertex
62
5
10
-4.931924
20
118.249395
0
VERTEX
5
3d5
100
AcDbEntity
8
1
100
AcDbVertex
100
AcDb2dVertex
62
5
10
-4.931924
20
116.894222
0
SEQEND
5
3d6
100
AcDbEntity
8
1
0
POLYLINE
5
3d7
100
AcDbEntity
8
1
6
CONTINUOUS
62
5
100
AcDb2dPolyline
66
1
10
0.0
20
0.0
30
0.0
70
0
0
VERTEX
5
3d8
100
AcDbEntity
8
1
100
AcDbVertex
100
AcDb2dVertex
62
5
10
-9.124663
20
115.799395
0
VERTEX
5
3d9
100
AcDbEntity
8
1
100
AcDbVertex
100
AcDb2dVertex
62
5
10
-8.627415
20
115.799395
0
VERTEX
5
3da
100
AcDbEntity
8
1
100
AcDbVertex
100
AcDb2dVertex
62
5
10
-7.726861
20
116.499395
0
SEQEND
5
3db
100
AcDbEntity
8
1
0
POLYLINE
5
3dc
100
AcDbEntity
8
1
6
CONTINUOUS
62
5
100
AcDb2dPolyline
66
1
10
0.0
20
0.0
30
0.0
70
0
0
VERTEX
5
3dd
100
AcDbEntity
8
1
100
AcDbVertex
100
AcDb2dVertex
62
5
10
-9.486184
20
115.628412
0
VERTEX
5
3de
100
AcDbEntity
8
1
100
AcDbVertex
100
AcDb2dVertex
62
5
10
-9.449284
20
115.599966
0
VERTEX
5
3df
100
AcDbEntity
8
1
100
AcDbVertex
100
AcDb2dVertex
62
5
10
-9.338582
20
115.577841
0
VERTEX
5
3e0
100
AcDbEntity
8
1
100
AcDbVertex
100
AcDb2dVertex
62
5
10
-9.154079
20
115.562038
0
VERTEX
5
3e1
100
AcDbEntity
8
1
100
AcDbVertex
100
AcDb2dVertex
62
5
10
-8.895775
20
115.552555
0
VERTEX
5
3e2
100
AcDbEntity
8
1
100
AcDbVertex
100
AcDb2dVertex
62
5
10
-8.563669
20
115.549395
0
SEQEND
5
3e3
100
AcDbEntity
8
1
0
POLYLINE
5
3e4
100
AcDbEntity
8
1
6
CONTINUOUS
62
5
100
AcDb2dPolyline
66
1
10
0.0
20
0.0
30
0.0
70
0
0
VERTEX
5
3e5
100
AcDbEntity
8
1
100
AcDbVertex
100
AcDb2dVertex
62
5
10
-9.186182
20
115.628412
0
VERTEX
5
3e6
100
AcDbEntity
8
1
100
AcDbVertex
100
AcDb2dVertex
62
5
10
-9.161282
20
115.599966
0
VERTEX
5
3e7
100
AcDbEntity
8
1
100
AcDbVertex
100
AcDb2dVertex
62
5
10
-9.086580
20
115.577841
0
VERTEX
5
3e8
100
AcDbEntity
8
1
100
AcDbVertex
100
AcDb2dVertex
62
5
10
-8.962078
20
115.562038
0
VERTEX
5
3e9
100
AcDbEntity
8
1
100
AcDbVertex
100
AcDb2dVertex
62
5
10
-8.787774
20
115.552555
0
VERTEX
5
3ea
100
AcDbEntity
8
1
100
AcDbVertex
100
AcDb2dVertex
62
5
10
-8.563669
20
115.549395
0
SEQEND
5
3eb
100
AcDbEntity
8
1
0
ARC
5
3ec
100
AcDbEntity
8
1
100
AcDbCircle
6
CONTINUOUS
62
5
10
-10.332421
20
114.699395
40
0.200000
100
AcDbArc
50
179.999998
51
-89.999999
0
LINE
5
3ed
100
AcDbEntity
8
1
100
AcDbLine
6
CONTINUOUS
62
5
10
-10.332421
20
114.499395
11
-9.486184
21
114.499395
0
POLYLINE
5
3ee
100
AcDbEntity
8
1
6
CONTINUOUS
62
5
100
AcDb2dPolyline
66
1
10
0.0
20
0.0
30
0.0
70
0
0
VERTEX
5
3ef
100
AcDbEntity
8
1
100
AcDbVertex
100
AcDb2dVertex
62
5
10
-9.124663
20
115.737550
0
VERTEX
5
3f0
100
AcDbEntity
8
1
100
AcDbVertex
100
AcDb2dVertex
62
5
10
-9.124663
20
115.799395
0
VERTEX
5
3f1
100
AcDbEntity
8
1
100
AcDbVertex
100
AcDb2dVertex
62
5
10
-10.232421
20
115.799395
0
SEQEND
5
3f2
100
AcDbEntity
8
1
0
ARC
5
3f3
100
AcDbEntity
8
1
100
AcDbCircle
6
CONTINUOUS
62
5
10
-10.232421
20
116.099395
40
0.300000
100
AcDbArc
50
179.999998
51
-89.999999
0
POLYLINE
5
3f4
100
AcDbEntity
8
1
6
CONTINUOUS
62
5
100
AcDb2dPolyline
66
1
10
0.0
20
0.0
30
0.0
70
0
0
VERTEX
5
3f5
100
AcDbEntity
8
1
100
AcDbVertex
100
AcDb2dVertex
62
5
10
-10.532421
20
116.099395
0
VERTEX
5
3f6
100
AcDbEntity
8
1
100
AcDbVertex
100
AcDb2dVertex
62
5
10
-10.532421
20
116.099395
0
VERTEX
5
3f7
100
AcDbEntity
8
1
100
AcDbVertex
100
AcDb2dVertex
62
5
10
-10.532421
20
114.699395
0
SEQEND
5
3f8
100
AcDbEntity
8
1
0
POLYLINE
5
3f9
100
AcDbEntity
8
1
6
CONTINUOUS
62
5
100
AcDb2dPolyline
66
1
10
0.0
20
0.0
30
0.0
70
0
0
VERTEX
5
3fa
100
AcDbEntity
8
1
100
AcDbVertex
100
AcDb2dVertex
62
5
10
-8.770133
20
115.749395
0
VERTEX
5
3fb
100
AcDbEntity
8
1
100
AcDbVertex
100
AcDb2dVertex
62
5
10
-9.027911
20
115.744555
0
VERTEX
5
3fc
100
AcDbEntity
8
1
100
AcDbVertex
100
AcDb2dVertex
62
5
10
-9.228406
20
115.730038
0
VERTEX
5
3fd
100
AcDbEntity
8
1
100
AcDbVertex
100
AcDb2dVertex
62
5
10
-9.371616
20
115.705841
0
VERTEX
5
3fe
100
AcDbEntity
8
1
100
AcDbVertex
100
AcDb2dVertex
62
5
10
-9.457542
20
115.671966
0
VERTEX
5
3ff
100
AcDbEntity
8
1
100
AcDbVertex
100
AcDb2dVertex
62
5
10
-9.486184
20
115.628412
0
SEQEND
5
400
100
AcDbEntity
8
1
0
POLYLINE
5
401
100
AcDbEntity
8
1
6
CONTINUOUS
62
5
100
AcDb2dPolyline
66
1
10
0.0
20
0.0
30
0.0
70
0
0
VERTEX
5
402
100
AcDbEntity
8
1
100
AcDbVertex
100
AcDb2dVertex
62
5
10
-8.770133
20
115.749395
0
VERTEX
5
403
100
AcDbEntity
8
1
100
AcDbVertex
100
AcDb2dVertex
62
5
10
-8.919911
20
115.744555
0
VERTEX
5
404
100
AcDbEntity
8
1
100
AcDbVertex
100
AcDb2dVertex
62
5
10
-9.036404
20
115.730038
0
VERTEX
5
405
100
AcDbEntity
8
1
100
AcDbVertex
100
AcDb2dVertex
62
5
10
-9.119614
20
115.705841
0
VERTEX
5
406
100
AcDbEntity
8
1
100
AcDbVertex
100
AcDb2dVertex
62
5
10
-9.169540
20
115.671966
0
VERTEX
5
407
100
AcDbEntity
8
1
100
AcDbVertex
100
AcDb2dVertex
62
5
10
-9.186182
20
115.628412
0
SEQEND
5
408
100
AcDbEntity
8
1
0
LINE
5
409
100
AcDbEntity
8
1
100
AcDbLine
6
CONTINUOUS
62
5
10
-9.059442
20
118.299395
11
-8.833973
21
117.599395
0
ARC
5
40a
100
AcDbEntity
8
1
100
AcDbCircle
6
CONTINUOUS
62
5
10
-4.481460
20
116.849395
40
0.300000
100
AcDbArc
50
89.999999
51
179.999998
0
LINE
5
40b
100
AcDbEntity
8
1
100
AcDbLine
6
CONTINUOUS
62
5
10
-4.781460
20
116.849395
11
-4.781460
21
115.749395
0
LINE
5
40c
100
AcDbEntity
8
1
100
AcDbLine
6
CONTINUOUS
62
5
10
-3.600115
20
116.849395
11
-3.600115
21
116.849395
0
ARC
5
40d
100
AcDbEntity
8
1
100
AcDbCircle
6
CONTINUOUS
62
5
10
-3.900115
20
116.849395
40
0.300000
100
AcDbArc
50
0.000000
51
89.999999
0
LINE
5
40e
100
AcDbEntity
8
1
100
AcDbLine
6
CONTINUOUS
62
5
10
-3.900115
20
117.149395
11
-4.481460
21
117.149395
0
LINE
5
40f
100
AcDbEntity
8
1
100
AcDbLine
6
CONTINUOUS
62
5
10
-5.033097
20
113.949397
11
-5.033097
21
118.249395
0
ARC
5
410
100
AcDbEntity
8
1
100
AcDbCircle
6
CONTINUOUS
62
5
10
-3.900115
20
115.449395
40
0.300000
100
AcDbArc
50
0.000000
51
89.999999
0
LINE
5
411
100
AcDbEntity
8
1
100
AcDbLine
6
CONTINUOUS
62
5
10
-3.900115
20
115.749395
11
-4.520482
21
115.749395
0
ARC
5
412
100
AcDbEntity
8
1
100
AcDbCircle
6
CONTINUOUS
62
5
10
-4.520482
20
115.449395
40
0.300000
100
AcDbArc
50
89.999999
51
172.041714
0
POLYLINE
5
413
100
AcDbEntity
8
1
6
CONTINUOUS
62
5
100
AcDb2dPolyline
66
1
10
0.0
20
0.0
30
0.0
70
0
0
VERTEX
5
414
100
AcDbEntity
8
1
100
AcDbVertex
100
AcDb2dVertex
62
5
10
-4.817593
20
115.490930
0
VERTEX
5
415
100
AcDbEntity
8
1
100
AcDbVertex
100
AcDb2dVertex
62
5
10
-5.033097
20
113.949395
0
VERTEX
5
416
100
AcDbEntity
8
1
100
AcDbVertex
100
AcDb2dVertex
62
5
10
-3.600115
20
113.949395
0
VERTEX
5
417
100
AcDbEntity
8
1
100
AcDbVertex
100
AcDb2dVertex
62
5
10
-3.600115
20
115.449395
0
SEQEND
5
418
100
AcDbEntity
8
1
0
ARC
5
419
100
AcDbEntity
8
1
100
AcDbCircle
6
CONTINUOUS
62
5
10
-7.819873
20
111.699395
40
0.300000
100
AcDbArc
50
89.999999
51
179.999998
0
LINE
5
41a
100
AcDbEntity
8
1
100
AcDbLine
6
CONTINUOUS
62
5
10
-7.819873
20
111.999395
11
-7.276425
21
111.999395
0
ARC
5
41b
100
AcDbEntity
8
1
100
AcDbCircle
6
CONTINUOUS
62
5
10
-7.276425
20
111.699395
40
0.300000
100
AcDbArc
50
0.000000
51
89.999999
0
POLYLINE
5
41c
100
AcDbEntity
8
1
6
CONTINUOUS
62
5
100
AcDb2dPolyline
66
1
10
0.0
20
0.0
30
0.0
70
0
0
VERTEX
5
41d
100
AcDbEntity
8
1
100
AcDbVertex
100
AcDb2dVertex
62
5
10
-6.976425
20
111.699395
0
VERTEX
5
41e
100
AcDbEntity
8
1
100
AcDbVertex
100
AcDb2dVertex
62
5
10
-6.976425
20
111.699395
0
VERTEX
5
41f
100
AcDbEntity
8
1
100
AcDbVertex
100
AcDb2dVertex
62
5
10
-6.976425
20
114.799395
0
VERTEX
5
420
100
AcDbEntity
8
1
100
AcDbVertex
100
AcDb2dVertex
62
5
10
-6.976425
20
114.799395
0
SEQEND
5
421
100
AcDbEntity
8
1
0
ARC
5
422
100
AcDbEntity
8
1
100
AcDbCircle
6
CONTINUOUS
62
5
10
-7.276425
20
114.799395
40
0.300000
100
AcDbArc
50
-89.999999
51
0.000000
0
LINE
5
423
100
AcDbEntity
8
1
100
AcDbLine
6
CONTINUOUS
62
5
10
-7.276425
20
114.499395
11
-7.819873
21
114.499395
0
ARC
5
424
100
AcDbEntity
8
1
100
AcDbCircle
6
CONTINUOUS
62
5
10
-7.819873
20
114.799395
40
0.300000
100
AcDbArc
50
179.999998
51
-89.999999
0
POLYLINE
5
425
100
AcDbEntity
8
1
6
CONTINUOUS
62
5
100
AcDb2dPolyline
66
1
10
0.0
20
0.0
30
0.0
70
0
0
VERTEX
5
426
100
AcDbEntity
8
1
100
AcDbVertex
100
AcDb2dVertex
62
5
10
-8.119873
20
114.799395
0
VERTEX
5
427
100
AcDbEntity
8
1
100
AcDbVertex
100
AcDb2dVertex
62
5
10
-8.119873
20
114.799395
0
VERTEX
5
428
100
AcDbEntity
8
1
100
AcDbVertex
100
AcDb2dVertex
62
5
10
-8.119873
20
111.699395
0
VERTEX
5
429
100
AcDbEntity
8
1
100
AcDbVertex
100
AcDb2dVertex
62
5
10
-8.119873
20
111.699395
0
SEQEND
5
42a
100
AcDbEntity
8
1
0
ARC
5
42b
100
AcDbEntity
8
1
100
AcDbCircle
6
CONTINUOUS
62
5
10
-10.435890
20
111.799395
40
0.200000
100
AcDbArc
50
89.999999
51
179.999998
0
LINE
5
42c
100
AcDbEntity
8
1
100
AcDbLine
6
CONTINUOUS
62
5
10
-10.435890
20
111.999395
11
-10.332421
21
111.999395
0
LINE
5
42d
100
AcDbEntity
8
1
100
AcDbLine
6
CONTINUOUS
62
5
10
-10.332421
20
114.499395
11
-10.435890
21
114.499395
0
ARC
5
42e
100
AcDbEntity
8
1
100
AcDbCircle
6
CONTINUOUS
62
5
10
-10.435890
20
114.699395
40
0.200000
100
AcDbArc
50
179.999998
51
-89.999999
0
POLYLINE
5
42f
100
AcDbEntity
8
1
6
CONTINUOUS
62
5
100
AcDb2dPolyline
66
1
10
0.0
20
0.0
30
0.0
70
0
0
VERTEX
5
430
100
AcDbEntity
8
1
100
AcDbVertex
100
AcDb2dVertex
62
5
10
-10.635890
20
114.699395
0
VERTEX
5
431
100
AcDbEntity
8
1
100
AcDbVertex
100
AcDb2dVertex
62
5
10
-10.635890
20
114.699395
0
VERTEX
5
432
100
AcDbEntity
8
1
100
AcDbVertex
100
AcDb2dVertex
62
5
10
-10.635890
20
111.799395
0
VERTEX
5
433
100
AcDbEntity
8
1
100
AcDbVertex
100
AcDb2dVertex
62
5
10
-10.635890
20
111.799395
0
SEQEND
5
434
100
AcDbEntity
8
1
0
LINE
5
435
100
AcDbEntity
8
1
100
AcDbLine
6
CONTINUOUS
62
5
10
-3.600115
20
112.549395
11
-3.600115
21
113.949395
0
ARC
5
436
100
AcDbEntity
8
1
100
AcDbCircle
6
CONTINUOUS
62
5
10
-9.832421
20
107.399395
40
0.700000
100
AcDbArc
50
-179.999998
51
-89.999999
0
POLYLINE
5
437
100
AcDbEntity
8
1
6
CONTINUOUS
62
5
100
AcDb2dPolyline
66
1
10
0.0
20
0.0
30
0.0
70
0
0
VERTEX
5
438
100
AcDbEntity
8
1
100
AcDbVertex
100
AcDb2dVertex
62
5
10
-10.532421
20
107.399395
0
VERTEX
5
439
100
AcDbEntity
8
1
100
AcDbVertex
100
AcDb2dVertex
62
5
10
-10.532421
20
108.499395
0
VERTEX
5
43a
100
AcDbEntity
8
1
100
AcDbVertex
100
AcDb2dVertex
62
5
10
-10.532421
20
108.499395
0
SEQEND
5
43b
100
AcDbEntity
8
1
0
ARC
5
43c
100
AcDbEntity
8
1
100
AcDbCircle
6
CONTINUOUS
62
5
10
-10.232421
20
108.499395
40
0.300000
100
AcDbArc
50
179.999998
51
-89.999999
0
POLYLINE
5
43d
100
AcDbEntity
8
1
6
CONTINUOUS
62
5
100
AcDb2dPolyline
66
1
10
0.0
20
0.0
30
0.0
70
0
0
VERTEX
5
43e
100
AcDbEntity
8
1
100
AcDbVertex
100
AcDb2dVertex
62
5
10
-10.232421
20
108.199395
0
VERTEX
5
43f
100
AcDbEntity
8
1
100
AcDbVertex
100
AcDb2dVertex
62
5
10
-9.059442
20
108.199395
0
VERTEX
5
440
100
AcDbEntity
8
1
100
AcDbVertex
100
AcDb2dVertex
62
5
10
-9.059442
20
106.999395
0
SEQEND
5
441
100
AcDbEntity
8
1
0
ARC
5
442
100
AcDbEntity
8
1
100
AcDbCircle
6
CONTINUOUS
62
5
10
-8.759442
20
106.999395
40
0.300000
100
AcDbArc
50
179.999998
51
-89.999999
0
POLYLINE
5
443
100
AcDbEntity
8
1
6
CONTINUOUS
62
5
100
AcDb2dPolyline
66
1
10
0.0
20
0.0
30
0.0
70
0
0
VERTEX
5
444
100
AcDbEntity
8
1
100
AcDbVertex
100
AcDb2dVertex
62
5
10
-8.759442
20
106.699395
0
VERTEX
5
445
100
AcDbEntity
8
1
100
AcDbVertex
100
AcDb2dVertex
62
5
10
-8.759442
20
106.699395
0
VERTEX
5
446
100
AcDbEntity
8
1
100
AcDbVertex
100
AcDb2dVertex
62
5
10
-9.832421
20
106.699395
0
SEQEND
5
447
100
AcDbEntity
8
1
0
LINE
5
448
100
AcDbEntity
8
1
100
AcDbLine
6
CONTINUOUS
62
5
10
-10.850000
20
105.349395
11
-10.850000
21
107.049395
0
LINE
5
449
100
AcDbEntity
8
1
100
AcDbLine
6
CONTINUOUS
62
5
10
-7.726861
20
106.849395
11
-6.626495
21
106.751764
0
LINE
5
44a
100
AcDbEntity
8
1
100
AcDbLine
6
CONTINUOUS
62
5
10
-11.600000
20
105.649395
11
-12.100000
21
105.349395
0
LINE
5
44b
100
AcDbEntity
8
1
100
AcDbLine
6
CONTINUOUS
62
5
10
-12.300000
20
109.999395
11
-12.461572
21
109.699395
0
LINE
5
44c
100
AcDbEntity
8
1
100
AcDbLine
6
CONTINUOUS
62
5
10
-9.059442
20
108.199395
11
-8.833973
21
108.899395
0
ARC
5
44d
100
AcDbEntity
8
1
100
AcDbCircle
6
CONTINUOUS
62
5
10
-12.100000
20
103.749395
40
0.500000
100
AcDbArc
50
-179.999998
51
-89.999999
0
LINE
5
44e
100
AcDbEntity
8
1
100
AcDbLine
6
CONTINUOUS
62
5
10
-12.100000
20
103.249395
11
-11.350000
21
103.249395
0
ARC
5
44f
100
AcDbEntity
8
1
100
AcDbCircle
6
CONTINUOUS
62
5
10
-11.350000
20
103.749395
40
0.500000
100
AcDbArc
50
-89.999999
51
-0.000000
0
LINE
5
450
100
AcDbEntity
8
1
100
AcDbLine
6
CONTINUOUS
62
5
10
-10.850000
20
103.749395
11
-10.850000
21
105.349395
0
ARC
5
451
100
AcDbEntity
8
1
100
AcDbCircle
6
CONTINUOUS
62
5
10
-11.150000
20
105.349395
40
0.300000
100
AcDbArc
50
0.000000
51
89.999999
0
POLYLINE
5
452
100
AcDbEntity
8
1
6
CONTINUOUS
62
5
100
AcDb2dPolyline
66
1
10
0.0
20
0.0
30
0.0
70
0
0
VERTEX
5
453
100
AcDbEntity
8
1
100
AcDbVertex
100
AcDb2dVertex
62
5
10
-11.150000
20
105.649395
0
VERTEX
5
454
100
AcDbEntity
8
1
100
AcDbVertex
100
AcDb2dVertex
62
5
10
-11.600000
20
105.649395
0
VERTEX
5
455
100
AcDbEntity
8
1
100
AcDbVertex
100
AcDb2dVertex
62
5
10
-11.600000
20
108.399395
0
SEQEND
5
456
100
AcDbEntity
8
1
0
LINE
5
457
100
AcDbEntity
8
1
100
AcDbLine
6
CONTINUOUS
62
5
10
-12.600000
20
108.401354
11
-12.600000
21
103.749395
0
CIRCLE
5
458
100
AcDbEntity
8
1
100
AcDbCircle
6
CONTINUOUS
62
5
10
-16.600000
20
103.999395
40
0.500000
0
CIRCLE
5
459
100
AcDbEntity
8
1
100
AcDbCircle
6
CONTINUOUS
62
5
10
-16.600000
20
99.499395
40
0.500000
0
POLYLINE
5
45a
100
AcDbEntity
8
1
6
CONTINUOUS
62
5
100
AcDb2dPolyline
66
1
10
0.0
20
0.0
30
0.0
70
0
0
VERTEX
5
45b
100
AcDbEntity
8
1
100
AcDbVertex
100
AcDb2dVertex
62
5
10
-9.124663
20
110.699395
0
VERTEX
5
45c
100
AcDbEntity
8
1
100
AcDbVertex
100
AcDb2dVertex
62
5
10
-8.627415
20
110.699395
0
VERTEX
5
45d
100
AcDbEntity
8
1
100
AcDbVertex
100
AcDb2dVertex
62
5
10
-7.726861
20
109.999395
0
SEQEND
5
45e
100
AcDbEntity
8
1
0
POLYLINE
5
45f
100
AcDbEntity
8
1
6
CONTINUOUS
62
5
100
AcDb2dPolyline
66
1
10
0.0
20
0.0
30
0.0
70
0
0
VERTEX
5
460
100
AcDbEntity
8
1
100
AcDbVertex
100
AcDb2dVertex
62
5
10
-8.770133
20
110.749395
0
VERTEX
5
461
100
AcDbEntity
8
1
100
AcDbVertex
100
AcDb2dVertex
62
5
10
-9.027911
20
110.754234
0
VERTEX
5
462
100
AcDbEntity
8
1
100
AcDbVertex
100
AcDb2dVertex
62
5
10
-9.228406
20
110.768752
0
VERTEX
5
463
100
AcDbEntity
8
1
100
AcDbVertex
100
AcDb2dVertex
62
5
10
-9.371616
20
110.792949
0
VERTEX
5
464
100
AcDbEntity
8
1
100
AcDbVertex
100
AcDb2dVertex
62
5
10
-9.457542
20
110.826824
0
VERTEX
5
465
100
AcDbEntity
8
1
100
AcDbVertex
100
AcDb2dVertex
62
5
10
-9.486184
20
110.870378
0
SEQEND
5
466
100
AcDbEntity
8
1
0
POLYLINE
5
467
100
AcDbEntity
8
1
6
CONTINUOUS
62
5
100
AcDb2dPolyline
66
1
10
0.0
20
0.0
30
0.0
70
0
0
VERTEX
5
468
100
AcDbEntity
8
1
100
AcDbVertex
100
AcDb2dVertex
62
5
10
-8.770133
20
110.749395
0
VERTEX
5
469
100
AcDbEntity
8
1
100
AcDbVertex
100
AcDb2dVertex
62
5
10
-8.919911
20
110.754234
0
VERTEX
5
46a
100
AcDbEntity
8
1
100
AcDbVertex
100
AcDb2dVertex
62
5
10
-9.036404
20
110.768752
0
VERTEX
5
46b
100
AcDbEntity
8
1
100
AcDbVertex
100
AcDb2dVertex
62
5
10
-9.119614
20
110.792949
0
VERTEX
5
46c
100
AcDbEntity
8
1
100
AcDbVertex
100
AcDb2dVertex
62
5
10
-9.169540
20
110.826824
0
VERTEX
5
46d
100
AcDbEntity
8
1
100
AcDbVertex
100
AcDb2dVertex
62
5
10
-9.186182
20
110.870378
0
SEQEND
5
46e
100
AcDbEntity
8
1
0
ARC
5
46f
100
AcDbEntity
8
1
100
AcDbCircle
6
CONTINUOUS
62
5
10
-4.481460
20
109.649395
40
0.300000
100
AcDbArc
50
179.999998
51
-89.999999
0
LINE
5
470
100
AcDbEntity
8
1
100
AcDbLine
6
CONTINUOUS
62
5
10
-4.481460
20
109.349395
11
-3.900115
21
109.349395
0
ARC
5
471
100
AcDbEntity
8
1
100
AcDbCircle
6
CONTINUOUS
62
5
10
-3.900115
20
109.649395
40
0.300000
100
AcDbArc
50
-89.999999
51
0.000000
0
LINE
5
472
100
AcDbEntity
8
1
100
AcDbLine
6
CONTINUOUS
62
5
10
-4.781460
20
110.749395
11
-4.781460
21
109.649395
0
LINE
5
473
100
AcDbEntity
8
1
100
AcDbLine
6
CONTINUOUS
62
5
10
0.800000
20
111.149395
11
0.500000
21
110.849395
0
ARC
5
474
100
AcDbEntity
8
1
100
AcDbCircle
6
CONTINUOUS
62
5
10
-10.031917
20
109.199395
40
0.300000
100
AcDbArc
50
179.999998
51
-89.999999
0
LINE
5
475
100
AcDbEntity
8
1
100
AcDbLine
6
CONTINUOUS
62
5
10
-10.331917
20
109.199395
11
-10.331917
21
109.699395
0
ARC
5
476
100
AcDbEntity
8
1
100
AcDbCircle
6
CONTINUOUS
62
5
10
-10.031917
20
109.699395
40
0.300000
100
AcDbArc
50
89.999999
51
179.999998
0
LINE
5
477
100
AcDbEntity
8
1
100
AcDbLine
6
CONTINUOUS
62
5
10
-10.031917
20
109.999395
11
-7.726861
21
109.999395
0
LINE
5
478
100
AcDbEntity
8
1
100
AcDbLine
6
CONTINUOUS
62
5
10
-7.726861
20
111.699395
11
-7.726861
21
107.149395
0
ARC
5
479
100
AcDbEntity
8
1
100
AcDbCircle
6
CONTINUOUS
62
5
10
-8.026861
20
107.149395
40
0.300000
100
AcDbArc
50
-89.999999
51
0.000000
0
LINE
5
47a
100
AcDbEntity
8
1
100
AcDbLine
6
CONTINUOUS
62
5
10
-8.026861
20
106.849395
11
-8.533973
21
106.849395
0
ARC
5
47b
100
AcDbEntity
8
1
100
AcDbCircle
6
CONTINUOUS
62
5
10
-8.533973
20
107.149395
40
0.300000
100
AcDbArc
50
179.999998
51
-89.999999
0
POLYLINE
5
47c
100
AcDbEntity
8
1
6
CONTINUOUS
62
5
100
AcDb2dPolyline
66
1
10
0.0
20
0.0
30
0.0
70
0
0
VERTEX
5
47d
100
AcDbEntity
8
1
100
AcDbVertex
100
AcDb2dVertex
62
5
10
-8.833973
20
107.149395
0
VERTEX
5
47e
100
AcDbEntity
8
1
100
AcDbVertex
100
AcDb2dVertex
62
5
10
-8.833973
20
108.899395
0
VERTEX
5
47f
100
AcDbEntity
8
1
100
AcDbVertex
100
AcDb2dVertex
62
5
10
-10.031917
20
108.899395
0
SEQEND
5
480
100
AcDbEntity
8
1
0
LINE
5
481
100
AcDbEntity
8
1
100
AcDbLine
6
CONTINUOUS
62
5
10
-5.033097
20
108.249395
11
-5.033097
21
112.549395
0
ARC
5
482
100
AcDbEntity
8
1
100
AcDbCircle
6
CONTINUOUS
62
5
10
-3.900115
20
111.049395
40
0.300000
100
AcDbArc
50
-89.999999
51
0.000000
0
POLYLINE
5
483
100
AcDbEntity
8
1
6
CONTINUOUS
62
5
100
AcDb2dPolyline
66
1
10
0.0
20
0.0
30
0.0
70
0
0
VERTEX
5
484
100
AcDbEntity
8
1
100
AcDbVertex
100
AcDb2dVertex
62
5
10
-3.600115
20
111.049395
0
VERTEX
5
485
100
AcDbEntity
8
1
100
AcDbVertex
100
AcDb2dVertex
62
5
10
-3.600115
20
112.549395
0
VERTEX
5
486
100
AcDbEntity
8
1
100
AcDbVertex
100
AcDb2dVertex
62
5
10
-5.033097
20
112.549395
0
VERTEX
5
487
100
AcDbEntity
8
1
100
AcDbVertex
100
AcDb2dVertex
62
5
10
-4.817593
20
111.007859
0
SEQEND
5
488
100
AcDbEntity
8
1
0
ARC
5
489
100
AcDbEntity
8
1
100
AcDbCircle
6
CONTINUOUS
62
5
10
-4.520482
20
111.049395
40
0.300000
100
AcDbArc
50
-172.041714
51
-89.999999
0
LINE
5
48a
100
AcDbEntity
8
1
100
AcDbLine
6
CONTINUOUS
62
5
10
-4.520482
20
110.749395
11
-3.900115
21
110.749395
0
ARC
5
48b
100
AcDbEntity
8
1
100
AcDbCircle
6
CONTINUOUS
62
5
10
-4.631924
20
109.604567
40
0.300000
100
AcDbArc
50
-179.999998
51
-89.999999
0
LINE
5
48c
100
AcDbEntity
8
1
100
AcDbLine
6
CONTINUOUS
62
5
10
-4.631924
20
109.304567
11
-3.900115
21
109.304567
0
ARC
5
48d
100
AcDbEntity
8
1
100
AcDbCircle
6
CONTINUOUS
62
5
10
-3.900115
20
109.604567
40
0.300000
100
AcDbArc
50
-89.999999
51
0.000000
0
LINE
5
48e
100
AcDbEntity
8
1
100
AcDbLine
6
CONTINUOUS
62
5
10
-3.600115
20
109.604567
11
-3.600115
21
111.049395
0
POLYLINE
5
48f
100
AcDbEntity
8
1
6
CONTINUOUS
62
5
100
AcDb2dPolyline
66
1
10
0.0
20
0.0
30
0.0
70
0
0
VERTEX
5
490
100
AcDbEntity
8
1
100
AcDbVertex
100
AcDb2dVertex
62
5
10
-6.976425
20
111.699395
0
VERTEX
5
491
100
AcDbEntity
8
1
100
AcDbVertex
100
AcDb2dVertex
62
5
10
-6.976425
20
108.249395
0
VERTEX
5
492
100
AcDbEntity
8
1
100
AcDbVertex
100
AcDb2dVertex
62
5
10
-4.931924
20
108.249395
0
VERTEX
5
493
100
AcDbEntity
8
1
100
AcDbVertex
100
AcDb2dVertex
62
5
10
-4.931924
20
109.604567
0
SEQEND
5
494
100
AcDbEntity
8
1
0
ARC
5
495
100
AcDbEntity
8
1
100
AcDbCircle
6
CONTINUOUS
62
5
10
-10.332421
20
111.799395
40
0.200000
100
AcDbArc
50
89.999999
51
-179.999998
0
POLYLINE
5
496
100
AcDbEntity
8
1
6
CONTINUOUS
62
5
100
AcDb2dPolyline
66
1
10
0.0
20
0.0
30
0.0
70
0
0
VERTEX
5
497
100
AcDbEntity
8
1
100
AcDbVertex
100
AcDb2dVertex
62
5
10
-10.532421
20
111.799395
0
VERTEX
5
498
100
AcDbEntity
8
1
100
AcDbVertex
100
AcDb2dVertex
62
5
10
-10.532421
20
110.399395
0
VERTEX
5
499
100
AcDbEntity
8
1
100
AcDbVertex
100
AcDb2dVertex
62
5
10
-10.532421
20
110.399395
0
SEQEND
5
49a
100
AcDbEntity
8
1
0
ARC
5
49b
100
AcDbEntity
8
1
100
AcDbCircle
6
CONTINUOUS
62
5
10
-10.232421
20
110.399395
40
0.300000
100
AcDbArc
50
89.999999
51
179.999998
0
POLYLINE
5
49c
100
AcDbEntity
8
1
6
CONTINUOUS
62
5
100
AcDb2dPolyline
66
1
10
0.0
20
0.0
30
0.0
70
0
0
VERTEX
5
49d
100
AcDbEntity
8
1
100
AcDbVertex
100
AcDb2dVertex
62
5
10
-10.232421
20
110.699395
0
VERTEX
5
49e
100
AcDbEntity
8
1
100
AcDbVertex
100
AcDb2dVertex
62
5
10
-9.124663
20
110.699395
0
VERTEX
5
49f
100
AcDbEntity
8
1
100
AcDbVertex
100
AcDb2dVertex
62
5
10
-9.124663
20
110.761240
0
SEQEND
5
4a0
100
AcDbEntity
8
1
0
LINE
5
4a1
100
AcDbEntity
8
1
100
AcDbLine
6
CONTINUOUS
62
5
10
-9.486184
20
111.999395
11
-10.332421
21
111.999395
0
POLYLINE
5
4a2
100
AcDbEntity
8
1
6
CONTINUOUS
62
5
100
AcDb2dPolyline
66
1
10
0.0
20
0.0
30
0.0
70
0
0
VERTEX
5
4a3
100
AcDbEntity
8
1
100
AcDbVertex
100
AcDb2dVertex
62
5
10
-9.486184
20
110.870378
0
VERTEX
5
4a4
100
AcDbEntity
8
1
100
AcDbVertex
100
AcDb2dVertex
62
5
10
-9.449284
20
110.898824
0
VERTEX
5
4a5
100
AcDbEntity
8
1
100
AcDbVertex
100
AcDb2dVertex
62
5
10
-9.338582
20
110.920949
0
VERTEX
5
4a6
100
AcDbEntity
8
1
100
AcDbVertex
100
AcDb2dVertex
62
5
10
-9.154079
20
110.936752
0
VERTEX
5
4a7
100
AcDbEntity
8
1
100
AcDbVertex
100
AcDb2dVertex
62
5
10
-8.895775
20
110.946234
0
VERTEX
5
4a8
100
AcDbEntity
8
1
100
AcDbVertex
100
AcDb2dVertex
62
5
10
-8.563669
20
110.949395
0
SEQEND
5
4a9
100
AcDbEntity
8
1
0
POLYLINE
5
4aa
100
AcDbEntity
8
1
6
CONTINUOUS
62
5
100
AcDb2dPolyline
66
1
10
0.0
20
0.0
30
0.0
70
0
0
VERTEX
5
4ab
100
AcDbEntity
8
1
100
AcDbVertex
100
AcDb2dVertex
62
5
10
-9.186182
20
110.870378
0
VERTEX
5
4ac
100
AcDbEntity
8
1
100
AcDbVertex
100
AcDb2dVertex
62
5
10
-9.161282
20
110.898824
0
VERTEX
5
4ad
100
AcDbEntity
8
1
100
AcDbVertex
100
AcDb2dVertex
62
5
10
-9.086580
20
110.920949
0
VERTEX
5
4ae
100
AcDbEntity
8
1
100
AcDbVertex
100
AcDb2dVertex
62
5
10
-8.962078
20
110.936752
0
VERTEX
5
4af
100
AcDbEntity
8
1
100
AcDbVertex
100
AcDb2dVertex
62
5
10
-8.787774
20
110.946234
0
VERTEX
5
4b0
100
AcDbEntity
8
1
100
AcDbVertex
100
AcDb2dVertex
62
5
10
-8.563669
20
110.949395
0
SEQEND
5
4b1
100
AcDbEntity
8
1
0
LINE
5
4b2
100
AcDbEntity
8
1
100
AcDbLine
6
CONTINUOUS
62
5
10
0.400000
20
111.249395
11
0.400000
21
115.249395
0
ARC
5
4b3
100
AcDbEntity
8
1
100
AcDbCircle
6
CONTINUOUS
62
5
10
-11.150000
20
116.299395
40
0.300000
100
AcDbArc
50
-114.758630
51
-0.000000
0
LINE
5
4b4
100
AcDbEntity
8
1
100
AcDbLine
6
CONTINUOUS
62
5
10
-10.850000
20
116.299395
11
-10.850000
21
117.799395
0
ARC
5
4b5
100
AcDbEntity
8
1
100
AcDbCircle
6
CONTINUOUS
62
5
10
-11.150000
20
117.799395
40
0.300000
100
AcDbArc
50
0.000000
51
89.999999
0
LINE
5
4b6
100
AcDbEntity
8
1
100
AcDbLine
6
CONTINUOUS
62
5
10
-11.150000
20
118.099395
11
-12.565767
21
118.099395
0
ARC
5
4b7
100
AcDbEntity
8
1
100
AcDbCircle
6
CONTINUOUS
62
5
10
-12.565767
20
117.799395
40
0.300000
100
AcDbArc
50
89.999999
51
165.963755
0
LINE
5
4b8
100
AcDbEntity
8
1
100
AcDbLine
6
CONTINUOUS
62
5
10
-12.856810
20
117.872155
11
-13.170143
21
116.618825
0
ARC
5
4b9
100
AcDbEntity
8
1
100
AcDbCircle
6
CONTINUOUS
62
5
10
-12.200000
20
116.376289
40
1.000000
100
AcDbArc
50
165.963755
51
179.999998
0
LINE
5
4ba
100
AcDbEntity
8
1
100
AcDbLine
6
CONTINUOUS
62
5
10
-13.200000
20
116.376289
11
-13.200000
21
110.122500
0
ARC
5
4bb
100
AcDbEntity
8
1
100
AcDbCircle
6
CONTINUOUS
62
5
10
-12.200000
20
110.122500
40
1.000000
100
AcDbArc
50
179.999998
51
-165.963755
0
LINE
5
4bc
100
AcDbEntity
8
1
100
AcDbLine
6
CONTINUOUS
62
5
10
-13.170143
20
109.879965
11
-12.856810
21
108.626634
0
ARC
5
4bd
100
AcDbEntity
8
1
100
AcDbCircle
6
CONTINUOUS
62
5
10
-12.565767
20
108.699395
40
0.300000
100
AcDbArc
50
-165.963755
51
-89.999999
0
LINE
5
4be
100
AcDbEntity
8
1
100
AcDbLine
6
CONTINUOUS
62
5
10
-12.565767
20
108.399395
11
-11.150000
21
108.399395
0
ARC
5
4bf
100
AcDbEntity
8
1
100
AcDbCircle
6
CONTINUOUS
62
5
10
-11.150000
20
108.699395
40
0.300000
100
AcDbArc
50
-89.999999
51
0.000000
0
LINE
5
4c0
100
AcDbEntity
8
1
100
AcDbLine
6
CONTINUOUS
62
5
10
-10.850000
20
108.699395
11
-10.850000
21
110.199395
0
ARC
5
4c1
100
AcDbEntity
8
1
100
AcDbCircle
6
CONTINUOUS
62
5
10
-11.150000
20
110.199395
40
0.300000
100
AcDbArc
50
0.000000
51
114.758630
0
LINE
5
4c2
100
AcDbEntity
8
1
100
AcDbLine
6
CONTINUOUS
62
5
10
-11.275639
20
110.471819
11
-12.300000
21
109.999395
0
LINE
5
4c3
100
AcDbEntity
8
1
100
AcDbLine
6
CONTINUOUS
62
5
10
-12.300000
20
116.499395
11
-11.275639
21
116.026971
0
ARC
5
4c4
100
AcDbEntity
8
1
100
AcDbCircle
6
CONTINUOUS
62
5
10
-11.350000
20
116.799395
40
0.300000
100
AcDbArc
50
-89.999999
51
-0.000000
0
LINE
5
4c5
100
AcDbEntity
8
1
100
AcDbLine
6
CONTINUOUS
62
5
10
-11.050000
20
116.799395
11
-11.050000
21
117.299395
0
ARC
5
4c6
100
AcDbEntity
8
1
100
AcDbCircle
6
CONTINUOUS
62
5
10
-11.350000
20
117.299395
40
0.300000
100
AcDbArc
50
-0.000000
51
89.999999
0
LINE
5
4c7
100
AcDbEntity
8
1
100
AcDbLine
6
CONTINUOUS
62
5
10
-11.350000
20
117.599395
11
-12.587393
21
117.599395
0
ARC
5
4c8
100
AcDbEntity
8
1
100
AcDbCircle
6
CONTINUOUS
62
5
10
-12.587393
20
117.299395
40
0.300000
100
AcDbArc
50
89.999999
51
166.033983
0
LINE
5
4c9
100
AcDbEntity
8
1
100
AcDbLine
6
CONTINUOUS
62
5
10
-12.878525
20
117.371799
11
-13.070439
21
116.600124
0
ARC
5
4ca
100
AcDbEntity
8
1
100
AcDbCircle
6
CONTINUOUS
62
5
10
-12.100000
20
116.358778
40
1.000000
100
AcDbArc
50
166.033983
51
179.999998
0
LINE
5
4cb
100
AcDbEntity
8
1
100
AcDbLine
6
CONTINUOUS
62
5
10
-13.100000
20
116.358778
11
-13.100000
21
110.140012
0
ARC
5
4cc
100
AcDbEntity
8
1
100
AcDbCircle
6
CONTINUOUS
62
5
10
-12.100000
20
110.140012
40
1.000000
100
AcDbArc
50
179.999998
51
-166.033983
0
LINE
5
4cd
100
AcDbEntity
8
1
100
AcDbLine
6
CONTINUOUS
62
5
10
-13.070439
20
109.898665
11
-12.878525
21
109.126991
0
ARC
5
4ce
100
AcDbEntity
8
1
100
AcDbCircle
6
CONTINUOUS
62
5
10
-12.587393
20
109.199395
40
0.300000
100
AcDbArc
50
-166.033983
51
-89.999999
0
LINE
5
4cf
100
AcDbEntity
8
1
100
AcDbLine
6
CONTINUOUS
62
5
10
-12.587393
20
108.899395
11
-11.350000
21
108.899395
0
ARC
5
4d0
100
AcDbEntity
8
1
100
AcDbCircle
6
CONTINUOUS
62
5
10
-11.350000
20
109.199395
40
0.300000
100
AcDbArc
50
-89.999999
51
0.000000
0
LINE
5
4d1
100
AcDbEntity
8
1
100
AcDbLine
6
CONTINUOUS
62
5
10
-11.050000
20
109.199395
11
-11.050000
21
109.699395
0
ARC
5
4d2
100
AcDbEntity
8
1
100
AcDbCircle
6
CONTINUOUS
62
5
10
-11.350000
20
109.699395
40
0.300000
100
AcDbArc
50
0.000000
51
89.999999
0
POLYLINE
5
4d3
100
AcDbEntity
8
1
6
CONTINUOUS
62
5
100
AcDb2dPolyline
66
1
10
0.0
20
0.0
30
0.0
70
0
0
VERTEX
5
4d4
100
AcDbEntity
8
1
100
AcDbVertex
100
AcDb2dVertex
62
5
10
-11.350000
20
109.999395
0
VERTEX
5
4d5
100
AcDbEntity
8
1
100
AcDbVertex
100
AcDb2dVertex
62
5
10
-12.300000
20
109.999395
0
VERTEX
5
4d6
100
AcDbEntity
8
1
100
AcDbVertex
100
AcDb2dVertex
62
5
10
-12.300000
20
116.499395
0
VERTEX
5
4d7
100
AcDbEntity
8
1
100
AcDbVertex
100
AcDb2dVertex
62
5
10
-11.350000
20
116.499395
0
SEQEND
5
4d8
100
AcDbEntity
8
1
0
LINE
5
4d9
100
AcDbEntity
8
1
100
AcDbLine
6
CONTINUOUS
62
5
10
-9.486184
20
115.628412
11
-9.486184
21
110.870378
0
LINE
5
4da
100
AcDbEntity
8
1
100
AcDbLine
6
CONTINUOUS
62
5
10
-8.563669
20
110.949395
11
-8.563669
21
115.549395
0
LINE
5
4db
100
AcDbEntity
8
1
100
AcDbLine
6
CONTINUOUS
62
5
10
-8.588707
20
110.949156
11
-8.588707
21
115.549633
0
LINE
5
4dc
100
AcDbEntity
8
1
100
AcDbLine
6
CONTINUOUS
62
5
10
-8.770133
20
115.552307
11
-8.770133
21
115.749395
0
LINE
5
4dd
100
AcDbEntity
8
1
100
AcDbLine
6
CONTINUOUS
62
5
10
-8.770133
20
110.749395
11
-8.770133
21
110.946483
0
LINE
5
4de
100
AcDbEntity
8
1
100
AcDbLine
6
CONTINUOUS
62
5
10
-8.710560
20
110.947997
11
-8.710560
21
115.550793
0
LINE
5
4df
100
AcDbEntity
8
1
100
AcDbLine
6
CONTINUOUS
62
5
10
-8.786021
20
110.749693
11
-8.786021
21
110.699395
0
LINE
5
4e0
100
AcDbEntity
8
1
100
AcDbLine
6
CONTINUOUS
62
5
10
-8.786021
20
115.799395
11
-8.786021
21
115.749096
0
LINE
5
4e1
100
AcDbEntity
8
1
100
AcDbLine
6
CONTINUOUS
62
5
10
-6.930494
20
118.249395
11
-6.930494
21
108.249395
0
LINE
5
4e2
100
AcDbEntity
8
1
100
AcDbLine
6
CONTINUOUS
62
5
10
-1.600000
20
111.249395
11
-1.600000
21
115.249395
0
LINE
5
4e3
100
AcDbEntity
8
1
100
AcDbLine
6
CONTINUOUS
62
5
10
-0.600000
20
111.249395
11
-0.600000
21
115.249395
0
LINE
5
4e4
100
AcDbEntity
8
1
100
AcDbLine
6
CONTINUOUS
62
5
10
-18.600000
20
100.749395
11
-18.600000
21
102.749395
0
CIRCLE
5
4e5
100
AcDbEntity
8
1
100
AcDbCircle
6
CONTINUOUS
62
5
10
-16.600000
20
80.999395
40
0.500000
0
ARC
5
4e6
100
AcDbEntity
8
1
100
AcDbCircle
6
CONTINUOUS
62
5
10
-18.600000
20
79.899395
40
1.000000
100
AcDbArc
50
-179.999998
51
-89.999999
0
LINE
5
4e7
100
AcDbEntity
8
1
100
AcDbLine
6
CONTINUOUS
62
5
10
-18.600000
20
78.899395
11
-15.600000
21
78.899395
0
LINE
5
4e8
100
AcDbEntity
8
1
100
AcDbLine
6
CONTINUOUS
62
5
10
-19.600000
20
79.949395
11
-19.600000
21
79.899395
0
ARC
5
4e9
100
AcDbEntity
8
1
100
AcDbCircle
6
CONTINUOUS
62
5
10
-19.100000
20
100.249395
40
0.500000
100
AcDbArc
50
89.999999
51
-179.999998
0
LINE
5
4ea
100
AcDbEntity
8
1
100
AcDbLine
6
CONTINUOUS
62
5
10
-19.600000
20
100.249395
11
-19.600000
21
79.949395
0
ARC
5
4eb
100
AcDbEntity
8
1
100
AcDbCircle
6
CONTINUOUS
62
5
10
-19.100000
20
79.949395
40
0.500000
100
AcDbArc
50
179.999998
51
-89.999999
0
LINE
5
4ec
100
AcDbEntity
8
1
100
AcDbLine
6
CONTINUOUS
62
5
10
-19.100000
20
79.449395
11
-18.100000
21
79.449395
0
LINE
5
4ed
100
AcDbEntity
8
1
100
AcDbLine
6
CONTINUOUS
62
5
10
-18.100000
20
100.749395
11
-19.100000
21
100.749395
0
LINE
5
4ee
100
AcDbEntity
8
1
100
AcDbLine
6
CONTINUOUS
62
5
10
-10.850000
20
119.449395
11
-10.850000
21
121.149395
0
ARC
5
4ef
100
AcDbEntity
8
1
100
AcDbCircle
6
CONTINUOUS
62
5
10
-10.031917
20
117.299395
40
0.300000
100
AcDbArc
50
89.999999
51
179.999998
0
LINE
5
4f0
100
AcDbEntity
8
1
100
AcDbLine
6
CONTINUOUS
62
5
10
-10.331917
20
117.299395
11
-10.331917
21
116.799395
0
ARC
5
4f1
100
AcDbEntity
8
1
100
AcDbCircle
6
CONTINUOUS
62
5
10
-10.031917
20
116.799395
40
0.300000
100
AcDbArc
50
179.999998
51
-89.999999
0
LINE
5
4f2
100
AcDbEntity
8
1
100
AcDbLine
6
CONTINUOUS
62
5
10
-10.031917
20
116.499395
11
-7.726861
21
116.499395
0
LINE
5
4f3
100
AcDbEntity
8
1
100
AcDbLine
6
CONTINUOUS
62
5
10
-7.726861
20
114.799395
11
-7.726861
21
119.349395
0
ARC
5
4f4
100
AcDbEntity
8
1
100
AcDbCircle
6
CONTINUOUS
62
5
10
-8.026861
20
119.349395
40
0.300000
100
AcDbArc
50
0.000000
51
89.999999
0
LINE
5
4f5
100
AcDbEntity
8
1
100
AcDbLine
6
CONTINUOUS
62
5
10
-8.026861
20
119.649395
11
-8.533973
21
119.649395
0
ARC
5
4f6
100
AcDbEntity
8
1
100
AcDbCircle
6
CONTINUOUS
62
5
10
-8.533973
20
119.349395
40
0.300000
100
AcDbArc
50
89.999999
51
179.999998
0
POLYLINE
5
4f7
100
AcDbEntity
8
1
6
CONTINUOUS
62
5
100
AcDb2dPolyline
66
1
10
0.0
20
0.0
30
0.0
70
0
0
VERTEX
5
4f8
100
AcDbEntity
8
1
100
AcDbVertex
100
AcDb2dVertex
62
5
10
-8.833973
20
119.349395
0
VERTEX
5
4f9
100
AcDbEntity
8
1
100
AcDbVertex
100
AcDb2dVertex
62
5
10
-8.833973
20
117.599395
0
VERTEX
5
4fa
100
AcDbEntity
8
1
100
AcDbVertex
100
AcDb2dVertex
62
5
10
-10.031917
20
117.599395
0
SEQEND
5
4fb
100
AcDbEntity
8
1
0
ARC
5
4fc
100
AcDbEntity
8
1
100
AcDbCircle
6
CONTINUOUS
62
5
10
-9.832421
20
119.099395
40
0.700000
100
AcDbArc
50
89.999999
51
179.999998
0
POLYLINE
5
4fd
100
AcDbEntity
8
1
6
CONTINUOUS
62
5
100
AcDb2dPolyline
66
1
10
0.0
20
0.0
30
0.0
70
0
0
VERTEX
5
4fe
100
AcDbEntity
8
1
100
AcDbVertex
100
AcDb2dVertex
62
5
10
-10.532421
20
119.099395
0
VERTEX
5
4ff
100
AcDbEntity
8
1
100
AcDbVertex
100
AcDb2dVertex
62
5
10
-10.532421
20
117.999395
0
VERTEX
5
500
100
AcDbEntity
8
1
100
AcDbVertex
100
AcDb2dVertex
62
5
10
-10.532421
20
117.999395
0
SEQEND
5
501
100
AcDbEntity
8
1
0
ARC
5
502
100
AcDbEntity
8
1
100
AcDbCircle
6
CONTINUOUS
62
5
10
-10.232421
20
117.999395
40
0.300000
100
AcDbArc
50
89.999999
51
179.999998
0
POLYLINE
5
503
100
AcDbEntity
8
1
6
CONTINUOUS
62
5
100
AcDb2dPolyline
66
1
10
0.0
20
0.0
30
0.0
70
0
0
VERTEX
5
504
100
AcDbEntity
8
1
100
AcDbVertex
100
AcDb2dVertex
62
5
10
-10.232421
20
118.299395
0
VERTEX
5
505
100
AcDbEntity
8
1
100
AcDbVertex
100
AcDb2dVertex
62
5
10
-9.059442
20
118.299395
0
VERTEX
5
506
100
AcDbEntity
8
1
100
AcDbVertex
100
AcDb2dVertex
62
5
10
-9.059442
20
119.499395
0
SEQEND
5
507
100
AcDbEntity
8
1
0
ARC
5
508
100
AcDbEntity
8
1
100
AcDbCircle
6
CONTINUOUS
62
5
10
-8.759442
20
119.499395
40
0.300000
100
AcDbArc
50
89.999999
51
179.999998
0
POLYLINE
5
509
100
AcDbEntity
8
1
6
CONTINUOUS
62
5
100
AcDb2dPolyline
66
1
10
0.0
20
0.0
30
0.0
70
0
0
VERTEX
5
50a
100
AcDbEntity
8
1
100
AcDbVertex
100
AcDb2dVertex
62
5
10
-8.759442
20
119.799395
0
VERTEX
5
50b
100
AcDbEntity
8
1
100
AcDbVertex
100
AcDb2dVertex
62
5
10
-8.759442
20
119.799395
0
VERTEX
5
50c
100
AcDbEntity
8
1
100
AcDbVertex
100
AcDb2dVertex
62
5
10
-9.832421
20
119.799395
0
SEQEND
5
50d
100
AcDbEntity
8
1
0
ARC
5
50e
100
AcDbEntity
8
1
100
AcDbCircle
6
CONTINUOUS
62
5
10
-11.150000
20
121.149395
40
0.300000
100
AcDbArc
50
-89.999999
51
-0.000000
0
LINE
5
50f
100
AcDbEntity
8
1
100
AcDbLine
6
CONTINUOUS
62
5
10
-10.850000
20
121.149395
11
-10.850000
21
122.749395
0
ARC
5
510
100
AcDbEntity
8
1
100
AcDbCircle
6
CONTINUOUS
62
5
10
-11.350000
20
122.749395
40
0.500000
100
AcDbArc
50
-0.000000
51
89.999999
0
LINE
5
511
100
AcDbEntity
8
1
100
AcDbLine
6
CONTINUOUS
62
5
10
-11.350000
20
123.249395
11
-12.100000
21
123.249395
0
ARC
5
512
100
AcDbEntity
8
1
100
AcDbCircle
6
CONTINUOUS
62
5
10
-12.100000
20
122.749395
40
0.500000
100
AcDbArc
50
89.999999
51
-179.999998
0
LINE
5
513
100
AcDbEntity
8
1
100
AcDbLine
6
CONTINUOUS
62
5
10
-12.600000
20
122.749395
11
-12.600000
21
118.097435
0
POLYLINE
5
514
100
AcDbEntity
8
1
6
CONTINUOUS
62
5
100
AcDb2dPolyline
66
1
10
0.0
20
0.0
30
0.0
70
0
0
VERTEX
5
515
100
AcDbEntity
8
1
100
AcDbVertex
100
AcDb2dVertex
62
5
10
-11.600000
20
118.099395
0
VERTEX
5
516
100
AcDbEntity
8
1
100
AcDbVertex
100
AcDb2dVertex
62
5
10
-11.600000
20
120.849395
0
VERTEX
5
517
100
AcDbEntity
8
1
100
AcDbVertex
100
AcDb2dVertex
62
5
10
-11.150000
20
120.849395
0
SEQEND
5
518
100
AcDbEntity
8
1
0
ARC
5
519
100
AcDbEntity
8
1
100
AcDbCircle
6
CONTINUOUS
62
5
10
-19.100000
20
123.549395
40
0.500000
100
AcDbArc
50
89.999998
51
-179.999997
0
LINE
5
51a
100
AcDbEntity
8
1
100
AcDbLine
6
CONTINUOUS
62
5
10
-19.600000
20
123.549395
11
-19.600000
21
103.249395
0
ARC
5
51b
100
AcDbEntity
8
1
100
AcDbCircle
6
CONTINUOUS
62
5
10
-19.100000
20
103.249395
40
0.500000
100
AcDbArc
50
-179.999998
51
-89.999999
0
LINE
5
51c
100
AcDbEntity
8
1
100
AcDbLine
6
CONTINUOUS
62
5
10
-19.100000
20
102.749395
11
-18.100000
21
102.749395
0
LINE
5
51d
100
AcDbEntity
8
1
100
AcDbLine
6
CONTINUOUS
62
5
10
-18.100000
20
124.049395
11
-19.100000
21
124.049395
0
POLYLINE
5
51e
100
AcDbEntity
8
1
6
DOT2
62
5
100
AcDb2dPolyline
66
1
10
0.0
20
0.0
30
0.0
70
0
0
VERTEX
5
51f
100
AcDbEntity
8
1
100
AcDbVertex
100
AcDb2dVertex
62
5
10
0.150000
20
158.349395
0
VERTEX
5
520
100
AcDbEntity
8
1
100
AcDbVertex
100
AcDb2dVertex
62
5
10
-2.662500
20
152.724395
0
VERTEX
5
521
100
AcDbEntity
8
1
100
AcDbVertex
100
AcDb2dVertex
62
5
10
1.087500
20
152.724395
0
SEQEND
5
522
100
AcDbEntity
8
1
0
LINE
5
523
100
AcDbEntity
8
1
100
AcDbLine
6
DOT2
62
5
10
0.150000
20
158.349395
11
0.150000
21
150.849395
0
LINE
5
524
100
AcDbEntity
8
1
100
AcDbLine
6
DOT2
62
5
10
-0.475000
20
150.849395
11
0.775000
21
150.849395
0
LINE
5
525
100
AcDbEntity
8
1
100
AcDbLine
6
CONTINUOUS
62
5
10
-20.100000
20
114.749395
11
-20.100000
21
151.599395
0
LINE
5
526
100
AcDbEntity
8
1
100
AcDbLine
6
CONTINUOUS
62
5
10
22.900000
20
114.749395
11
22.900000
21
151.599395
0
POLYLINE
5
527
100
AcDbEntity
8
1
6
CONTINUOUS
62
5
100
AcDb2dPolyline
66
1
10
0.0
20
0.0
30
0.0
70
0
0
VERTEX
5
528
100
AcDbEntity
8
1
100
AcDbVertex
100
AcDb2dVertex
62
5
10
1.400000
20
149.599395
0
VERTEX
5
529
100
AcDbEntity
8
1
100
AcDbVertex
100
AcDb2dVertex
62
5
10
-20.100000
20
149.599395
0
VERTEX
5
52a
100
AcDbEntity
8
1
100
AcDbVertex
100
AcDb2dVertex
62
5
10
-14.100000
20
150.599395
0
VERTEX
5
52b
100
AcDbEntity
8
1
100
AcDbVertex
100
AcDb2dVertex
62
5
10
-14.100000
20
148.599395
0
VERTEX
5
52c
100
AcDbEntity
8
1
100
AcDbVertex
100
AcDb2dVertex
62
5
10
-20.100000
20
149.599395
0
VERTEX
5
52d
100
AcDbEntity
8
1
100
AcDbVertex
100
AcDb2dVertex
62
5
10
-14.100000
20
150.099395
0
VERTEX
5
52e
100
AcDbEntity
8
1
100
AcDbVertex
100
AcDb2dVertex
62
5
10
-14.100000
20
149.099395
0
VERTEX
5
52f
100
AcDbEntity
8
1
100
AcDbVertex
100
AcDb2dVertex
62
5
10
-20.100000
20
149.599395
0
VERTEX
5
530
100
AcDbEntity
8
1
100
AcDbVertex
100
AcDb2dVertex
62
5
10
-14.100000
20
150.349395
0
SEQEND
5
531
100
AcDbEntity
8
1
0
POLYLINE
5
532
100
AcDbEntity
8
1
6
CONTINUOUS
62
5
100
AcDb2dPolyline
66
1
10
0.0
20
0.0
30
0.0
70
0
0
VERTEX
5
533
100
AcDbEntity
8
1
100
AcDbVertex
100
AcDb2dVertex
62
5
10
-14.100000
20
149.849395
0
VERTEX
5
534
100
AcDbEntity
8
1
100
AcDbVertex
100
AcDb2dVertex
62
5
10
-20.100000
20
149.599395
0
VERTEX
5
535
100
AcDbEntity
8
1
100
AcDbVertex
100
AcDb2dVertex
62
5
10
-14.100000
20
149.349395
0
SEQEND
5
536
100
AcDbEntity
8
1
0
LINE
5
537
100
AcDbEntity
8
1
100
AcDbLine
6
CONTINUOUS
62
5
10
-14.100000
20
148.849395
11
-20.100000
21
149.599395
0
POLYLINE
5
538
100
AcDbEntity
8
1
6
CONTINUOUS
62
5
100
AcDb2dPolyline
66
1
10
0.0
20
0.0
30
0.0
70
0
0
VERTEX
5
539
100
AcDbEntity
8
1
100
AcDbVertex
100
AcDb2dVertex
62
5
10
1.400000
20
149.599395
0
VERTEX
5
53a
100
AcDbEntity
8
1
100
AcDbVertex
100
AcDb2dVertex
62
5
10
22.900000
20
149.599395
0
VERTEX
5
53b
100
AcDbEntity
8
1
100
AcDbVertex
100
AcDb2dVertex
62
5
10
16.900000
20
148.599395
0
VERTEX
5
53c
100
AcDbEntity
8
1
100
AcDbVertex
100
AcDb2dVertex
62
5
10
16.900000
20
150.599395
0
VERTEX
5
53d
100
AcDbEntity
8
1
100
AcDbVertex
100
AcDb2dVertex
62
5
10
22.900000
20
149.599395
0
VERTEX
5
53e
100
AcDbEntity
8
1
100
AcDbVertex
100
AcDb2dVertex
62
5
10
16.900000
20
149.099395
0
VERTEX
5
53f
100
AcDbEntity
8
1
100
AcDbVertex
100
AcDb2dVertex
62
5
10
16.900000
20
150.099395
0
VERTEX
5
540
100
AcDbEntity
8
1
100
AcDbVertex
100
AcDb2dVertex
62
5
10
22.900000
20
149.599395
0
VERTEX
5
541
100
AcDbEntity
8
1
100
AcDbVertex
100
AcDb2dVertex
62
5
10
16.900000
20
148.849395
0
SEQEND
5
542
100
AcDbEntity
8
1
0
POLYLINE
5
543
100
AcDbEntity
8
1
6
CONTINUOUS
62
5
100
AcDb2dPolyline
66
1
10
0.0
20
0.0
30
0.0
70
0
0
VERTEX
5
544
100
AcDbEntity
8
1
100
AcDbVertex
100
AcDb2dVertex
62
5
10
16.900000
20
149.349395
0
VERTEX
5
545
100
AcDbEntity
8
1
100
AcDbVertex
100
AcDb2dVertex
62
5
10
22.900000
20
149.599395
0
VERTEX
5
546
100
AcDbEntity
8
1
100
AcDbVertex
100
AcDb2dVertex
62
5
10
16.900000
20
149.849395
0
SEQEND
5
547
100
AcDbEntity
8
1
0
LINE
5
548
100
AcDbEntity
8
1
100
AcDbLine
6
CONTINUOUS
62
5
10
16.900000
20
150.349395
11
22.900000
21
149.599395
0
LINE
5
549
100
AcDbEntity
8
1
100
AcDbLine
6
CONTINUOUS
62
5
10
0.650000
20
231.011895
11
0.900000
21
229.761895
0
LINE
5
54a
100
AcDbEntity
8
1
100
AcDbLine
6
CONTINUOUS
62
5
10
2.150000
20
231.324395
11
2.400000
21
230.074395
0
POLYLINE
5
54b
100
AcDbEntity
8
1
6
CONTINUOUS
62
5
100
AcDb2dPolyline
66
1
10
0.0
20
0.0
30
0.0
70
0
0
VERTEX
5
54c
100
AcDbEntity
8
1
100
AcDbVertex
100
AcDb2dVertex
62
5
10
4.150000
20
231.324395
0
VERTEX
5
54d
100
AcDbEntity
8
1
100
AcDbVertex
100
AcDb2dVertex
62
5
10
3.900000
20
229.761895
0
VERTEX
5
54e
100
AcDbEntity
8
1
100
AcDbVertex
100
AcDb2dVertex
62
5
10
2.650000
20
227.886895
0
VERTEX
5
54f
100
AcDbEntity
8
1
100
AcDbVertex
100
AcDb2dVertex
62
5
10
1.650000
20
226.949395
0
SEQEND
5
550
100
AcDbEntity
8
1
0
ARC
5
551
100
AcDbEntity
8
1
100
AcDbCircle
6
CONTINUOUS
62
5
10
0.643788
20
122.549395
40
0.700000
100
AcDbArc
50
89.999999
51
179.999998
0
LINE
5
552
100
AcDbEntity
8
1
100
AcDbLine
6
CONTINUOUS
62
5
10
-0.056212
20
122.549395
11
-0.056212
21
120.149395
0
ARC
5
553
100
AcDbEntity
8
1
100
AcDbCircle
6
CONTINUOUS
62
5
10
0.143788
20
120.149395
40
0.200000
100
AcDbArc
50
179.999998
51
-89.999999
0
LINE
5
554
100
AcDbEntity
8
1
100
AcDbLine
6
CONTINUOUS
62
5
10
0.143788
20
119.949395
11
2.656212
21
119.949395
0
ARC
5
555
100
AcDbEntity
8
1
100
AcDbCircle
6
CONTINUOUS
62
5
10
2.656212
20
120.149395
40
0.200000
100
AcDbArc
50
-89.999999
51
0.000000
0
LINE
5
556
100
AcDbEntity
8
1
100
AcDbLine
6
CONTINUOUS
62
5
10
2.856212
20
120.149395
11
2.856212
21
122.549395
0
ARC
5
557
100
AcDbEntity
8
1
100
AcDbCircle
6
CONTINUOUS
62
5
10
2.156212
20
122.549395
40
0.700000
100
AcDbArc
50
0.000000
51
89.999999
0
LINE
5
558
100
AcDbEntity
8
1
100
AcDbLine
6
CONTINUOUS
62
5
10
2.156212
20
123.249395
11
0.643788
21
123.249395
0
LINE
5
559
100
AcDbEntity
8
1
100
AcDbLine
6
CONTINUOUS
62
5
10
0.500000
20
115.749395
11
-0.129620
21
115.749395
0
LINE
5
55a
100
AcDbEntity
8
1
100
AcDbLine
6
CONTINUOUS
62
5
10
2.882929
20
115.749395
11
2.300000
21
115.749395
0
ARC
5
55b
100
AcDbEntity
8
1
100
AcDbCircle
6
CONTINUOUS
62
5
10
0.643788
20
103.949395
40
0.700000
100
AcDbArc
50
179.999998
51
-89.999999
0
LINE
5
55c
100
AcDbEntity
8
1
100
AcDbLine
6
CONTINUOUS
62
5
10
-0.056212
20
103.949395
11
-0.056212
21
106.349395
0
ARC
5
55d
100
AcDbEntity
8
1
100
AcDbCircle
6
CONTINUOUS
62
5
10
0.143788
20
106.349395
40
0.200000
100
AcDbArc
50
89.999999
51
179.999998
0
LINE
5
55e
100
AcDbEntity
8
1
100
AcDbLine
6
CONTINUOUS
62
5
10
0.143788
20
106.549395
11
2.656212
21
106.549395
0
ARC
5
55f
100
AcDbEntity
8
1
100
AcDbCircle
6
CONTINUOUS
62
5
10
2.656212
20
106.349395
40
0.200000
100
AcDbArc
50
0.000000
51
89.999999
0
LINE
5
560
100
AcDbEntity
8
1
100
AcDbLine
6
CONTINUOUS
62
5
10
2.856212
20
106.349395
11
2.856212
21
103.949395
0
ARC
5
561
100
AcDbEntity
8
1
100
AcDbCircle
6
CONTINUOUS
62
5
10
2.156212
20
103.949395
40
0.700000
100
AcDbArc
50
-89.999999
51
0.000000
0
LINE
5
562
100
AcDbEntity
8
1
100
AcDbLine
6
CONTINUOUS
62
5
10
2.156212
20
103.249395
11
0.643788
21
103.249395
0
LINE
5
563
100
AcDbEntity
8
1
100
AcDbLine
6
CONTINUOUS
62
5
10
1.400000
20
111.249395
11
1.400000
21
115.249395
0
LINE
5
564
100
AcDbEntity
8
1
100
AcDbLine
6
CONTINUOUS
62
5
10
0.500000
20
110.749395
11
-0.129620
21
110.749395
0
LINE
5
565
100
AcDbEntity
8
1
100
AcDbLine
6
CONTINUOUS
62
5
10
2.882929
20
110.749395
11
2.300000
21
110.749395
0
ARC
5
566
100
AcDbEntity
8
1
100
AcDbCircle
6
CONTINUOUS
62
5
10
14.700000
20
123.899395
40
0.700000
100
AcDbArc
50
0.000000
51
89.999999
0
LINE
5
567
100
AcDbEntity
8
1
100
AcDbLine
6
CONTINUOUS
62
5
10
14.700000
20
124.599395
11
-11.900000
21
124.599395
0
ARC
5
568
100
AcDbEntity
8
1
100
AcDbCircle
6
CONTINUOUS
62
5
10
-11.900000
20
123.899395
40
0.700000
100
AcDbArc
50
89.999999
51
179.999998
0
LINE
5
569
100
AcDbEntity
8
1
100
AcDbLine
6
CONTINUOUS
62
5
10
-12.600000
20
123.899395
11
-12.600000
21
122.749395
0
LINE
5
56a
100
AcDbEntity
8
1
100
AcDbLine
6
CONTINUOUS
62
5
10
-12.600000
20
103.749395
11
-12.600000
21
102.599395
0
ARC
5
56b
100
AcDbEntity
8
1
100
AcDbCircle
6
CONTINUOUS
62
5
10
-11.900000
20
102.599395
40
0.700000
100
AcDbArc
50
179.999998
51
-89.999999
0
LINE
5
56c
100
AcDbEntity
8
1
100
AcDbLine
6
CONTINUOUS
62
5
10
-11.900000
20
101.899395
11
14.700000
21
101.899395
0
ARC
5
56d
100
AcDbEntity
8
1
100
AcDbCircle
6
CONTINUOUS
62
5
10
14.700000
20
102.599395
40
0.700000
100
AcDbArc
50
-89.999999
51
0.000000
0
LINE
5
56e
100
AcDbEntity
8
1
100
AcDbLine
6
CONTINUOUS
62
5
10
15.400000
20
102.599395
11
15.400000
21
103.749395
0
LINE
5
56f
100
AcDbEntity
8
1
100
AcDbLine
6
CONTINUOUS
62
5
10
15.400000
20
122.749395
11
15.400000
21
123.899395
0
ARC
5
570
100
AcDbEntity
8
1
100
AcDbCircle
6
CONTINUOUS
62
5
10
-10.350000
20
119.449395
40
0.500000
100
AcDbArc
50
89.999999
51
179.999998
0
LINE
5
571
100
AcDbEntity
8
1
100
AcDbLine
6
CONTINUOUS
62
5
10
-10.850000
20
119.449395
11
-10.850000
21
107.049395
0
ARC
5
572
100
AcDbEntity
8
1
100
AcDbCircle
6
CONTINUOUS
62
5
10
-10.350000
20
107.049395
40
0.500000
100
AcDbArc
50
179.999998
51
-89.999999
0
LINE
5
573
100
AcDbEntity
8
1
100
AcDbLine
6
CONTINUOUS
62
5
10
-10.350000
20
106.549395
11
13.150000
21
106.549395
0
ARC
5
574
100
AcDbEntity
8
1
100
AcDbCircle
6
CONTINUOUS
62
5
10
13.150000
20
107.049395
40
0.500000
100
AcDbArc
50
-89.999999
51
-0.000000
0
LINE
5
575
100
AcDbEntity
8
1
100
AcDbLine
6
CONTINUOUS
62
5
10
13.650000
20
107.049395
11
13.650000
21
119.449395
0
ARC
5
576
100
AcDbEntity
8
1
100
AcDbCircle
6
CONTINUOUS
62
5
10
13.150000
20
119.449395
40
0.500000
100
AcDbArc
50
-0.000000
51
89.999999
0
LINE
5
577
100
AcDbEntity
8
1
100
AcDbLine
6
CONTINUOUS
62
5
10
13.150000
20
119.949395
11
-10.350000
21
119.949395
0
ARC
5
578
100
AcDbEntity
8
1
100
AcDbCircle
6
CONTINUOUS
62
5
10
-10.014394
20
107.349395
40
0.700000
100
AcDbArc
50
179.999998
51
-89.999999
0
LINE
5
579
100
AcDbEntity
8
1
100
AcDbLine
6
CONTINUOUS
62
5
10
-10.014394
20
106.649395
11
12.678683
21
106.649395
0
ARC
5
57a
100
AcDbEntity
8
1
100
AcDbCircle
6
CONTINUOUS
62
5
10
12.678683
20
107.349395
40
0.700000
100
AcDbArc
50
-89.999999
51
0.000000
0
LINE
5
57b
100
AcDbEntity
8
1
100
AcDbLine
6
CONTINUOUS
62
5
10
13.378683
20
107.349395
11
13.378683
21
108.405906
0
LINE
5
57c
100
AcDbEntity
8
1
100
AcDbLine
6
CONTINUOUS
62
5
10
13.378683
20
110.492883
11
13.378683
21
116.005906
0
LINE
5
57d
100
AcDbEntity
8
1
100
AcDbLine
6
CONTINUOUS
62
5
10
13.378683
20
118.092883
11
13.378683
21
119.149395
0
ARC
5
57e
100
AcDbEntity
8
1
100
AcDbCircle
6
CONTINUOUS
62
5
10
12.678683
20
119.149395
40
0.700000
100
AcDbArc
50
0.000000
51
89.999999
0
LINE
5
57f
100
AcDbEntity
8
1
100
AcDbLine
6
CONTINUOUS
62
5
10
12.678683
20
119.849395
11
-10.014394
21
119.849395
0
ARC
5
580
100
AcDbEntity
8
1
100
AcDbCircle
6
CONTINUOUS
62
5
10
-10.014394
20
119.149395
40
0.700000
100
AcDbArc
50
89.999999
51
179.999998
0
LINE
5
581
100
AcDbEntity
8
1
100
AcDbLine
6
CONTINUOUS
62
5
10
-10.714394
20
119.149395
11
-10.714394
21
107.349395
0
ARC
5
582
100
AcDbEntity
8
1
100
AcDbCircle
6
CONTINUOUS
62
5
10
-6.547579
20
107.018145
40
0.300000
100
AcDbArc
50
-89.999999
51
0.000000
0
LINE
5
583
100
AcDbEntity
8
1
100
AcDbLine
6
CONTINUOUS
62
5
10
-6.247579
20
107.018145
11
-6.247579
21
107.949395
0
ARC
5
584
100
AcDbEntity
8
1
100
AcDbCircle
6
CONTINUOUS
62
5
10
-6.547579
20
107.949395
40
0.300000
100
AcDbArc
50
0.000000
51
89.999999
0
LINE
5
585
100
AcDbEntity
8
1
100
AcDbLine
6
CONTINUOUS
62
5
10
-6.547579
20
108.249395
11
-6.547579
21
108.249395
0
LINE
5
586
100
AcDbEntity
8
1
100
AcDbLine
6
CONTINUOUS
62
5
10
9.431316
20
108.249395
11
9.431316
21
108.249395
0
ARC
5
587
100
AcDbEntity
8
1
100
AcDbCircle
6
CONTINUOUS
62
5
10
9.431316
20
107.949395
40
0.300000
100
AcDbArc
50
89.999999
51
-179.999998
0
LINE
5
588
100
AcDbEntity
8
1
100
AcDbLine
6
CONTINUOUS
62
5
10
9.131316
20
107.949395
11
9.131316
21
107.018145
0
ARC
5
589
100
AcDbEntity
8
1
100
AcDbCircle
6
CONTINUOUS
62
5
10
9.431316
20
107.018145
40
0.300000
100
AcDbArc
50
179.999998
51
-89.999999
0
POLYLINE
5
58a
100
AcDbEntity
8
1
6
CONTINUOUS
62
5
100
AcDb2dPolyline
66
1
10
0.0
20
0.0
30
0.0
70
0
0
VERTEX
5
58b
100
AcDbEntity
8
1
100
AcDbVertex
100
AcDb2dVertex
62
5
10
9.431316
20
106.718145
0
VERTEX
5
58c
100
AcDbEntity
8
1
100
AcDbVertex
100
AcDb2dVertex
62
5
10
9.431316
20
106.718145
0
VERTEX
5
58d
100
AcDbEntity
8
1
100
AcDbVertex
100
AcDb2dVertex
62
5
10
-6.547579
20
106.718145
0
VERTEX
5
58e
100
AcDbEntity
8
1
100
AcDbVertex
100
AcDb2dVertex
62
5
10
-6.547579
20
106.718145
0
SEQEND
5
58f
100
AcDbEntity
8
1
0
ARC
5
590
100
AcDbEntity
8
1
100
AcDbCircle
6
CONTINUOUS
62
5
10
-1.300000
20
106.349395
40
0.200000
100
AcDbArc
50
89.999999
51
179.999998
0
LINE
5
591
100
AcDbEntity
8
1
100
AcDbLine
6
CONTINUOUS
62
5
10
-1.500000
20
106.349395
11
-1.500000
21
103.949395
0
ARC
5
592
100
AcDbEntity
8
1
100
AcDbCircle
6
CONTINUOUS
62
5
10
-0.800000
20
103.949395
40
0.700000
100
AcDbArc
50
179.999998
51
-89.999999
0
LINE
5
593
100
AcDbEntity
8
1
100
AcDbLine
6
CONTINUOUS
62
5
10
-0.800000
20
103.249395
11
3.600000
21
103.249395
0
ARC
5
594
100
AcDbEntity
8
1
100
AcDbCircle
6
CONTINUOUS
62
5
10
3.600000
20
103.949395
40
0.700000
100
AcDbArc
50
-89.999999
51
0.000000
0
LINE
5
595
100
AcDbEntity
8
1
100
AcDbLine
6
CONTINUOUS
62
5
10
4.300000
20
103.949395
11
4.300000
21
106.349395
0
ARC
5
596
100
AcDbEntity
8
1
100
AcDbCircle
6
CONTINUOUS
62
5
10
4.100000
20
106.349395
40
0.200000
100
AcDbArc
50
0.000000
51
89.999999
0
LINE
5
597
100
AcDbEntity
8
1
100
AcDbLine
6
CONTINUOUS
62
5
10
4.100000
20
106.549395
11
-1.300000
21
106.549395
0
ARC
5
598
100
AcDbEntity
8
1
100
AcDbCircle
6
CONTINUOUS
62
5
10
-6.547579
20
119.480645
40
0.300000
100
AcDbArc
50
0.000000
51
89.999999
0
LINE
5
599
100
AcDbEntity
8
1
100
AcDbLine
6
CONTINUOUS
62
5
10
-6.247579
20
119.480645
11
-6.247579
21
118.549395
0
ARC
5
59a
100
AcDbEntity
8
1
100
AcDbCircle
6
CONTINUOUS
62
5
10
-6.547579
20
118.549395
40
0.300000
100
AcDbArc
50
-89.999999
51
0.000000
0
LINE
5
59b
100
AcDbEntity
8
1
100
AcDbLine
6
CONTINUOUS
62
5
10
-6.547579
20
118.249395
11
-6.547579
21
118.249395
0
LINE
5
59c
100
AcDbEntity
8
1
100
AcDbLine
6
CONTINUOUS
62
5
10
9.431316
20
118.249395
11
9.431316
21
118.249395
0
ARC
5
59d
100
AcDbEntity
8
1
100
AcDbCircle
6
CONTINUOUS
62
5
10
9.431316
20
118.549395
40
0.300000
100
AcDbArc
50
179.999998
51
-89.999999
0
LINE
5
59e
100
AcDbEntity
8
1
100
AcDbLine
6
CONTINUOUS
62
5
10
9.131316
20
118.549395
11
9.131316
21
119.480645
0
ARC
5
59f
100
AcDbEntity
8
1
100
AcDbCircle
6
CONTINUOUS
62
5
10
9.431316
20
119.480645
40
0.300000
100
AcDbArc
50
89.999999
51
179.999998
0
POLYLINE
5
5a0
100
AcDbEntity
8
1
6
CONTINUOUS
62
5
100
AcDb2dPolyline
66
1
10
0.0
20
0.0
30
0.0
70
0
0
VERTEX
5
5a1
100
AcDbEntity
8
1
100
AcDbVertex
100
AcDb2dVertex
62
5
10
9.431316
20
119.780645
0
VERTEX
5
5a2
100
AcDbEntity
8
1
100
AcDbVertex
100
AcDb2dVertex
62
5
10
9.431316
20
119.780645
0
VERTEX
5
5a3
100
AcDbEntity
8
1
100
AcDbVertex
100
AcDb2dVertex
62
5
10
-6.547579
20
119.780645
0
VERTEX
5
5a4
100
AcDbEntity
8
1
100
AcDbVertex
100
AcDb2dVertex
62
5
10
-6.547579
20
119.780645
0
SEQEND
5
5a5
100
AcDbEntity
8
1
0
ARC
5
5a6
100
AcDbEntity
8
1
100
AcDbCircle
6
CONTINUOUS
62
5
10
-0.129620
20
116.249395
40
0.500000
100
AcDbArc
50
-89.999999
51
0.000000
0
LINE
5
5a7
100
AcDbEntity
8
1
100
AcDbLine
6
CONTINUOUS
62
5
10
-0.129620
20
115.749395
11
-3.100115
21
115.749395
0
ARC
5
5a8
100
AcDbEntity
8
1
100
AcDbCircle
6
CONTINUOUS
62
5
10
-3.100115
20
115.249395
40
0.500000
100
AcDbArc
50
89.999999
51
179.999998
0
LINE
5
5a9
100
AcDbEntity
8
1
100
AcDbLine
6
CONTINUOUS
62
5
10
-3.600115
20
115.249395
11
-3.600115
21
111.249395
0
ARC
5
5aa
100
AcDbEntity
8
1
100
AcDbCircle
6
CONTINUOUS
62
5
10
-3.100115
20
111.249395
40
0.500000
100
AcDbArc
50
179.999998
51
-89.999999
0
LINE
5
5ab
100
AcDbEntity
8
1
100
AcDbLine
6
CONTINUOUS
62
5
10
-3.100115
20
110.749395
11
-0.129620
21
110.749395
0
ARC
5
5ac
100
AcDbEntity
8
1
100
AcDbCircle
6
CONTINUOUS
62
5
10
-0.129620
20
110.249395
40
0.500000
100
AcDbArc
50
0.000000
51
89.999999
0
POLYLINE
5
5ad
100
AcDbEntity
8
1
6
CONTINUOUS
62
5
100
AcDb2dPolyline
66
1
10
0.0
20
0.0
30
0.0
70
0
0
VERTEX
5
5ae
100
AcDbEntity
8
1
100
AcDbVertex
100
AcDb2dVertex
62
5
10
0.370380
20
110.249395
0
VERTEX
5
5af
100
AcDbEntity
8
1
100
AcDbVertex
100
AcDb2dVertex
62
5
10
0.370380
20
109.749395
0
VERTEX
5
5b0
100
AcDbEntity
8
1
100
AcDbVertex
100
AcDb2dVertex
62
5
10
2.382929
20
109.749395
0
VERTEX
5
5b1
100
AcDbEntity
8
1
100
AcDbVertex
100
AcDb2dVertex
62
5
10
2.382929
20
110.249395
0
SEQEND
5
5b2
100
AcDbEntity
8
1
0
ARC
5
5b3
100
AcDbEntity
8
1
100
AcDbCircle
6
CONTINUOUS
62
5
10
2.882929
20
110.249395
40
0.500000
100
AcDbArc
50
89.999999
51
179.999998
0
LINE
5
5b4
100
AcDbEntity
8
1
100
AcDbLine
6
CONTINUOUS
62
5
10
2.882929
20
110.749395
11
5.851278
21
110.749395
0
ARC
5
5b5
100
AcDbEntity
8
1
100
AcDbCircle
6
CONTINUOUS
62
5
10
5.851278
20
111.249395
40
0.500000
100
AcDbArc
50
-89.999999
51
0.000000
0
LINE
5
5b6
100
AcDbEntity
8
1
100
AcDbLine
6
CONTINUOUS
62
5
10
6.351278
20
111.249395
11
6.351278
21
115.249395
0
ARC
5
5b7
100
AcDbEntity
8
1
100
AcDbCircle
6
CONTINUOUS
62
5
10
5.851278
20
115.249395
40
0.500000
100
AcDbArc
50
0.000000
51
89.999999
0
LINE
5
5b8
100
AcDbEntity
8
1
100
AcDbLine
6
CONTINUOUS
62
5
10
5.851278
20
115.749395
11
2.882929
21
115.749395
0
ARC
5
5b9
100
AcDbEntity
8
1
100
AcDbCircle
6
CONTINUOUS
62
5
10
2.882929
20
116.249395
40
0.500000
100
AcDbArc
50
179.999998
51
-89.999999
0
POLYLINE
5
5ba
100
AcDbEntity
8
1
6
CONTINUOUS
62
5
100
AcDb2dPolyline
66
1
10
0.0
20
0.0
30
0.0
70
0
0
VERTEX
5
5bb
100
AcDbEntity
8
1
100
AcDbVertex
100
AcDb2dVertex
62
5
10
2.382929
20
116.249395
0
VERTEX
5
5bc
100
AcDbEntity
8
1
100
AcDbVertex
100
AcDb2dVertex
62
5
10
2.382929
20
116.749395
0
VERTEX
5
5bd
100
AcDbEntity
8
1
100
AcDbVertex
100
AcDb2dVertex
62
5
10
0.370380
20
116.749395
0
VERTEX
5
5be
100
AcDbEntity
8
1
100
AcDbVertex
100
AcDb2dVertex
62
5
10
0.370380
20
116.249395
0
SEQEND
5
5bf
100
AcDbEntity
8
1
0
ARC
5
5c0
100
AcDbEntity
8
1
100
AcDbCircle
6
CONTINUOUS
62
5
10
-3.100000
20
111.249395
40
0.400000
100
AcDbArc
50
179.999998
51
-89.999999
0
LINE
5
5c1
100
AcDbEntity
8
1
100
AcDbLine
6
CONTINUOUS
62
5
10
-3.500000
20
111.249395
11
-3.500000
21
115.249395
0
ARC
5
5c2
100
AcDbEntity
8
1
100
AcDbCircle
6
CONTINUOUS
62
5
10
-3.100000
20
115.249395
40
0.400000
100
AcDbArc
50
89.999999
51
179.999998
0
POLYLINE
5
5c3
100
AcDbEntity
8
1
6
CONTINUOUS
62
5
100
AcDb2dPolyline
66
1
10
0.0
20
0.0
30
0.0
70
0
0
VERTEX
5
5c4
100
AcDbEntity
8
1
100
AcDbVertex
100
AcDb2dVertex
62
5
10
-3.100000
20
115.649395
0
VERTEX
5
5c5
100
AcDbEntity
8
1
100
AcDbVertex
100
AcDb2dVertex
62
5
10
0.500000
20
115.649395
0
VERTEX
5
5c6
100
AcDbEntity
8
1
100
AcDbVertex
100
AcDb2dVertex
62
5
10
0.500000
20
116.149395
0
SEQEND
5
5c7
100
AcDbEntity
8
1
0
ARC
5
5c8
100
AcDbEntity
8
1
100
AcDbCircle
6
CONTINUOUS
62
5
10
1.000000
20
116.149395
40
0.500000
100
AcDbArc
50
89.999999
51
179.999998
0
LINE
5
5c9
100
AcDbEntity
8
1
100
AcDbLine
6
CONTINUOUS
62
5
10
1.000000
20
116.649395
11
1.800000
21
116.649395
0
ARC
5
5ca
100
AcDbEntity
8
1
100
AcDbCircle
6
CONTINUOUS
62
5
10
1.800000
20
116.149395
40
0.500000
100
AcDbArc
50
-0.000000
51
89.999999
0
POLYLINE
5
5cb
100
AcDbEntity
8
1
6
CONTINUOUS
62
5
100
AcDb2dPolyline
66
1
10
0.0
20
0.0
30
0.0
70
0
0
VERTEX
5
5cc
100
AcDbEntity
8
1
100
AcDbVertex
100
AcDb2dVertex
62
5
10
2.300000
20
116.149395
0
VERTEX
5
5cd
100
AcDbEntity
8
1
100
AcDbVertex
100
AcDb2dVertex
62
5
10
2.300000
20
115.649395
0
VERTEX
5
5ce
100
AcDbEntity
8
1
100
AcDbVertex
100
AcDb2dVertex
62
5
10
5.900000
20
115.649395
0
SEQEND
5
5cf
100
AcDbEntity
8
1
0
ARC
5
5d0
100
AcDbEntity
8
1
100
AcDbCircle
6
CONTINUOUS
62
5
10
5.900000
20
115.249395
40
0.400000
100
AcDbArc
50
-0.000000
51
89.999999
0
POLYLINE
5
5d1
100
AcDbEntity
8
1
6
CONTINUOUS
62
5
100
AcDb2dPolyline
66
1
10
0.0
20
0.0
30
0.0
70
0
0
VERTEX
5
5d2
100
AcDbEntity
8
1
100
AcDbVertex
100
AcDb2dVertex
62
5
10
6.300000
20
115.249395
0
VERTEX
5
5d3
100
AcDbEntity
8
1
100
AcDbVertex
100
AcDb2dVertex
62
5
10
6.300000
20
115.249395
0
VERTEX
5
5d4
100
AcDbEntity
8
1
100
AcDbVertex
100
AcDb2dVertex
62
5
10
6.300000
20
111.249395
0
SEQEND
5
5d5
100
AcDbEntity
8
1
0
ARC
5
5d6
100
AcDbEntity
8
1
100
AcDbCircle
6
CONTINUOUS
62
5
10
5.900000
20
111.249395
40
0.400000
100
AcDbArc
50
-89.999999
51
-0.000000
0
POLYLINE
5
5d7
100
AcDbEntity
8
1
6
CONTINUOUS
62
5
100
AcDb2dPolyline
66
1
10
0.0
20
0.0
30
0.0
70
0
0
VERTEX
5
5d8
100
AcDbEntity
8
1
100
AcDbVertex
100
AcDb2dVertex
62
5
10
5.900000
20
110.849395
0
VERTEX
5
5d9
100
AcDbEntity
8
1
100
AcDbVertex
100
AcDb2dVertex
62
5
10
2.300000
20
110.849395
0
VERTEX
5
5da
100
AcDbEntity
8
1
100
AcDbVertex
100
AcDb2dVertex
62
5
10
2.300000
20
110.349395
0
SEQEND
5
5db
100
AcDbEntity
8
1
0
ARC
5
5dc
100
AcDbEntity
8
1
100
AcDbCircle
6
CONTINUOUS
62
5
10
1.800000
20
110.349395
40
0.500000
100
AcDbArc
50
-89.999999
51
-0.000000
0
LINE
5
5dd
100
AcDbEntity
8
1
100
AcDbLine
6
CONTINUOUS
62
5
10
1.800000
20
109.849395
11
1.000000
21
109.849395
0
ARC
5
5de
100
AcDbEntity
8
1
100
AcDbCircle
6
CONTINUOUS
62
5
10
1.000000
20
110.349395
40
0.500000
100
AcDbArc
50
179.999998
51
-89.999999
0
POLYLINE
5
5df
100
AcDbEntity
8
1
6
CONTINUOUS
62
5
100
AcDb2dPolyline
66
1
10
0.0
20
0.0
30
0.0
70
0
0
VERTEX
5
5e0
100
AcDbEntity
8
1
100
AcDbVertex
100
AcDb2dVertex
62
5
10
0.500000
20
110.349395
0
VERTEX
5
5e1
100
AcDbEntity
8
1
100
AcDbVertex
100
AcDb2dVertex
62
5
10
0.500000
20
110.849395
0
VERTEX
5
5e2
100
AcDbEntity
8
1
100
AcDbVertex
100
AcDb2dVertex
62
5
10
-3.100000
20
110.849395
0
SEQEND
5
5e3
100
AcDbEntity
8
1
0
POLYLINE
5
5e4
100
AcDbEntity
8
1
6
CONTINUOUS
62
5
100
AcDb2dPolyline
66
1
10
0.0
20
0.0
30
0.0
70
0
0
VERTEX
5
5e5
100
AcDbEntity
8
1
100
AcDbVertex
100
AcDb2dVertex
62
5
10
-2.600000
20
111.249395
0
VERTEX
5
5e6
100
AcDbEntity
8
1
100
AcDbVertex
100
AcDb2dVertex
62
5
10
1.400000
20
115.249395
0
VERTEX
5
5e7
100
AcDbEntity
8
1
100
AcDbVertex
100
AcDb2dVertex
62
5
10
5.400000
20
111.249395
0
SEQEND
5
5e8
100
AcDbEntity
8
1
0
POLYLINE
5
5e9
100
AcDbEntity
8
1
6
CONTINUOUS
62
5
100
AcDb2dPolyline
66
1
10
0.0
20
0.0
30
0.0
70
0
0
VERTEX
5
5ea
100
AcDbEntity
8
1
100
AcDbVertex
100
AcDb2dVertex
62
5
10
5.400000
20
115.249395
0
VERTEX
5
5eb
100
AcDbEntity
8
1
100
AcDbVertex
100
AcDb2dVertex
62
5
10
1.400000
20
111.249395
0
VERTEX
5
5ec
100
AcDbEntity
8
1
100
AcDbVertex
100
AcDb2dVertex
62
5
10
-2.600000
20
115.249395
0
SEQEND
5
5ed
100
AcDbEntity
8
1
0
POLYLINE
5
5ee
100
AcDbEntity
8
1
6
CONTINUOUS
62
5
100
AcDb2dPolyline
66
1
10
0.0
20
0.0
30
0.0
70
1
0
VERTEX
5
5ef
100
AcDbEntity
8
1
100
AcDbVertex
100
AcDb2dVertex
62
5
10
-2.600000
20
114.249395
0
VERTEX
5
5f0
100
AcDbEntity
8
1
100
AcDbVertex
100
AcDb2dVertex
62
5
10
0.400000
20
111.249395
0
VERTEX
5
5f1
100
AcDbEntity
8
1
100
AcDbVertex
100
AcDb2dVertex
62
5
10
4.400000
20
115.249395
0
VERTEX
5
5f2
100
AcDbEntity
8
1
100
AcDbVertex
100
AcDb2dVertex
62
5
10
5.400000
20
114.249395
0
VERTEX
5
5f3
100
AcDbEntity
8
1
100
AcDbVertex
100
AcDb2dVertex
62
5
10
2.400000
20
111.249395
0
VERTEX
5
5f4
100
AcDbEntity
8
1
100
AcDbVertex
100
AcDb2dVertex
62
5
10
-1.600000
20
115.249395
0
VERTEX
5
5f5
100
AcDbEntity
8
1
100
AcDbVertex
100
AcDb2dVertex
62
5
10
-2.600000
20
114.249395
0
SEQEND
5
5f6
100
AcDbEntity
8
1
0
POLYLINE
5
5f7
100
AcDbEntity
8
1
6
CONTINUOUS
62
5
100
AcDb2dPolyline
66
1
10
0.0
20
0.0
30
0.0
70
1
0
VERTEX
5
5f8
100
AcDbEntity
8
1
100
AcDbVertex
100
AcDb2dVertex
62
5
10
-2.600000
20
113.249395
0
VERTEX
5
5f9
100
AcDbEntity
8
1
100
AcDbVertex
100
AcDb2dVertex
62
5
10
-0.600000
20
111.249395
0
VERTEX
5
5fa
100
AcDbEntity
8
1
100
AcDbVertex
100
AcDb2dVertex
62
5
10
3.400000
20
115.249395
0
VERTEX
5
5fb
100
AcDbEntity
8
1
100
AcDbVertex
100
AcDb2dVertex
62
5
10
5.400000
20
113.249395
0
VERTEX
5
5fc
100
AcDbEntity
8
1
100
AcDbVertex
100
AcDb2dVertex
62
5
10
3.400000
20
111.249395
0
VERTEX
5
5fd
100
AcDbEntity
8
1
100
AcDbVertex
100
AcDb2dVertex
62
5
10
-0.600000
20
115.249395
0
VERTEX
5
5fe
100
AcDbEntity
8
1
100
AcDbVertex
100
AcDb2dVertex
62
5
10
-2.600000
20
113.249395
0
SEQEND
5
5ff
100
AcDbEntity
8
1
0
POLYLINE
5
600
100
AcDbEntity
8
1
6
CONTINUOUS
62
5
100
AcDb2dPolyline
66
1
10
0.0
20
0.0
30
0.0
70
1
0
VERTEX
5
601
100
AcDbEntity
8
1
100
AcDbVertex
100
AcDb2dVertex
62
5
10
-2.600000
20
112.249395
0
VERTEX
5
602
100
AcDbEntity
8
1
100
AcDbVertex
100
AcDb2dVertex
62
5
10
-1.600000
20
111.249395
0
VERTEX
5
603
100
AcDbEntity
8
1
100
AcDbVertex
100
AcDb2dVertex
62
5
10
2.400000
20
115.249395
0
VERTEX
5
604
100
AcDbEntity
8
1
100
AcDbVertex
100
AcDb2dVertex
62
5
10
5.400000
20
112.249395
0
VERTEX
5
605
100
AcDbEntity
8
1
100
AcDbVertex
100
AcDb2dVertex
62
5
10
4.400000
20
111.249395
0
VERTEX
5
606
100
AcDbEntity
8
1
100
AcDbVertex
100
AcDb2dVertex
62
5
10
0.400000
20
115.249395
0
VERTEX
5
607
100
AcDbEntity
8
1
100
AcDbVertex
100
AcDb2dVertex
62
5
10
-2.600000
20
112.249395
0
SEQEND
5
608
100
AcDbEntity
8
1
0
POLYLINE
5
609
100
AcDbEntity
8
1
6
CONTINUOUS
62
5
100
AcDb2dPolyline
66
1
10
0.0
20
0.0
30
0.0
70
1
0
VERTEX
5
60a
100
AcDbEntity
8
1
100
AcDbVertex
100
AcDb2dVertex
62
5
10
5.400000
20
115.249395
0
VERTEX
5
60b
100
AcDbEntity
8
1
100
AcDbVertex
100
AcDb2dVertex
62
5
10
5.400000
20
111.249395
0
VERTEX
5
60c
100
AcDbEntity
8
1
100
AcDbVertex
100
AcDb2dVertex
62
5
10
-2.600000
20
111.249395
0
VERTEX
5
60d
100
AcDbEntity
8
1
100
AcDbVertex
100
AcDb2dVertex
62
5
10
-2.600000
20
115.249395
0
SEQEND
5
60e
100
AcDbEntity
8
1
0
LINE
5
60f
100
AcDbEntity
8
1
100
AcDbLine
6
CONTINUOUS
62
5
10
-2.600000
20
112.249395
11
5.400000
21
112.249395
0
ARC
5
610
100
AcDbEntity
8
1
100
AcDbCircle
6
CONTINUOUS
62
5
10
6.752451
20
109.604567
40
0.300000
100
AcDbArc
50
179.999998
51
-89.999999
0
POLYLINE
5
611
100
AcDbEntity
8
1
6
CONTINUOUS
62
5
100
AcDb2dPolyline
66
1
10
0.0
20
0.0
30
0.0
70
0
0
VERTEX
5
612
100
AcDbEntity
8
1
100
AcDbVertex
100
AcDb2dVertex
62
5
10
6.752451
20
109.304567
0
VERTEX
5
613
100
AcDbEntity
8
1
100
AcDbVertex
100
AcDb2dVertex
62
5
10
6.752451
20
109.304567
0
VERTEX
5
614
100
AcDbEntity
8
1
100
AcDbVertex
100
AcDb2dVertex
62
5
10
7.484260
20
109.304567
0
SEQEND
5
615
100
AcDbEntity
8
1
0
ARC
5
616
100
AcDbEntity
8
1
100
AcDbCircle
6
CONTINUOUS
62
5
10
7.484260
20
109.604567
40
0.300000
100
AcDbArc
50
-89.999999
51
0.000000
0
LINE
5
617
100
AcDbEntity
8
1
100
AcDbLine
6
CONTINUOUS
62
5
10
7.784260
20
109.604567
11
7.784260
21
111.049395
0
POLYLINE
5
618
100
AcDbEntity
8
1
6
CONTINUOUS
62
5
100
AcDb2dPolyline
66
1
10
0.0
20
0.0
30
0.0
70
0
0
VERTEX
5
619
100
AcDbEntity
8
1
100
AcDbVertex
100
AcDb2dVertex
62
5
10
-3.600115
20
109.749395
0
VERTEX
5
61a
100
AcDbEntity
8
1
100
AcDbVertex
100
AcDb2dVertex
62
5
10
-3.600115
20
108.249395
0
VERTEX
5
61b
100
AcDbEntity
8
1
100
AcDbVertex
100
AcDb2dVertex
62
5
10
6.452451
20
108.249395
0
VERTEX
5
61c
100
AcDbEntity
8
1
100
AcDbVertex
100
AcDb2dVertex
62
5
10
6.452451
20
109.604567
0
VERTEX
5
61d
100
AcDbEntity
8
1
100
AcDbVertex
100
AcDb2dVertex
62
5
10
6.452451
20
109.604567
0
SEQEND
5
61e
100
AcDbEntity
8
1
0
ARC
5
61f
100
AcDbEntity
8
1
100
AcDbCircle
6
CONTINUOUS
62
5
10
7.484260
20
116.894223
40
0.300000
100
AcDbArc
50
0.000000
51
89.999999
0
LINE
5
620
100
AcDbEntity
8
1
100
AcDbLine
6
CONTINUOUS
62
5
10
7.784260
20
116.894223
11
7.784260
21
115.449395
0
POLYLINE
5
621
100
AcDbEntity
8
1
6
CONTINUOUS
62
5
100
AcDb2dPolyline
66
1
10
0.0
20
0.0
30
0.0
70
0
0
VERTEX
5
622
100
AcDbEntity
8
1
100
AcDbVertex
100
AcDb2dVertex
62
5
10
-3.600115
20
116.749395
0
VERTEX
5
623
100
AcDbEntity
8
1
100
AcDbVertex
100
AcDb2dVertex
62
5
10
-3.600115
20
118.249395
0
VERTEX
5
624
100
AcDbEntity
8
1
100
AcDbVertex
100
AcDb2dVertex
62
5
10
6.452451
20
118.249395
0
VERTEX
5
625
100
AcDbEntity
8
1
100
AcDbVertex
100
AcDb2dVertex
62
5
10
6.452451
20
116.894222
0
VERTEX
5
626
100
AcDbEntity
8
1
100
AcDbVertex
100
AcDb2dVertex
62
5
10
6.452451
20
116.894223
0
SEQEND
5
627
100
AcDbEntity
8
1
0
ARC
5
628
100
AcDbEntity
8
1
100
AcDbCircle
6
CONTINUOUS
62
5
10
6.752451
20
116.894223
40
0.300000
100
AcDbArc
50
89.999999
51
179.999998
0
POLYLINE
5
629
100
AcDbEntity
8
1
6
CONTINUOUS
62
5
100
AcDb2dPolyline
66
1
10
0.0
20
0.0
30
0.0
70
0
0
VERTEX
5
62a
100
AcDbEntity
8
1
100
AcDbVertex
100
AcDb2dVertex
62
5
10
6.752451
20
117.194223
0
VERTEX
5
62b
100
AcDbEntity
8
1
100
AcDbVertex
100
AcDb2dVertex
62
5
10
6.752451
20
117.194223
0
VERTEX
5
62c
100
AcDbEntity
8
1
100
AcDbVertex
100
AcDb2dVertex
62
5
10
7.484260
20
117.194223
0
SEQEND
5
62d
100
AcDbEntity
8
1
0
LINE
5
62e
100
AcDbEntity
8
1
100
AcDbLine
6
CONTINUOUS
62
5
10
-2.600000
20
114.249395
11
5.400000
21
114.249395
0
LINE
5
62f
100
AcDbEntity
8
1
100
AcDbLine
6
CONTINUOUS
62
5
10
5.400000
20
113.249395
11
-2.600000
21
113.249395
0
ARC
5
630
100
AcDbEntity
8
1
100
AcDbCircle
6
CONTINUOUS
62
5
10
-1.300000
20
120.149395
40
0.200000
100
AcDbArc
50
179.999998
51
-89.999999
0
LINE
5
631
100
AcDbEntity
8
1
100
AcDbLine
6
CONTINUOUS
62
5
10
-1.500000
20
120.149395
11
-1.500000
21
122.549395
0
ARC
5
632
100
AcDbEntity
8
1
100
AcDbCircle
6
CONTINUOUS
62
5
10
-0.800000
20
122.549395
40
0.700000
100
AcDbArc
50
89.999999
51
179.999998
0
LINE
5
633
100
AcDbEntity
8
1
100
AcDbLine
6
CONTINUOUS
62
5
10
-0.800000
20
123.249395
11
3.600000
21
123.249395
0
ARC
5
634
100
AcDbEntity
8
1
100
AcDbCircle
6
CONTINUOUS
62
5
10
3.600000
20
122.549395
40
0.700000
100
AcDbArc
50
0.000000
51
89.999999
0
LINE
5
635
100
AcDbEntity
8
1
100
AcDbLine
6
CONTINUOUS
62
5
10
4.300000
20
122.549395
11
4.300000
21
120.149395
0
ARC
5
636
100
AcDbEntity
8
1
100
AcDbCircle
6
CONTINUOUS
62
5
10
4.100000
20
120.149395
40
0.200000
100
AcDbArc
50
-89.999999
51
0.000000
0
LINE
5
637
100
AcDbEntity
8
1
100
AcDbLine
6
CONTINUOUS
62
5
10
4.100000
20
119.949395
11
-1.300000
21
119.949395
0
ARC
5
638
100
AcDbEntity
8
1
100
AcDbCircle
6
CONTINUOUS
62
5
10
22.100000
20
108.349395
40
0.300000
100
AcDbArc
50
0.000002
51
89.999998
0
POLYLINE
5
639
100
AcDbEntity
8
1
6
CONTINUOUS
62
5
100
AcDb2dPolyline
66
1
10
0.0
20
0.0
30
0.0
70
0
0
VERTEX
5
63a
100
AcDbEntity
8
1
100
AcDbVertex
100
AcDb2dVertex
62
5
10
22.100000
20
108.649395
0
VERTEX
5
63b
100
AcDbEntity
8
1
100
AcDbVertex
100
AcDb2dVertex
62
5
10
21.400000
20
108.649395
0
VERTEX
5
63c
100
AcDbEntity
8
1
100
AcDbVertex
100
AcDb2dVertex
62
5
10
21.400000
20
117.849395
0
VERTEX
5
63d
100
AcDbEntity
8
1
100
AcDbVertex
100
AcDb2dVertex
62
5
10
22.100000
20
117.849395
0
SEQEND
5
63e
100
AcDbEntity
8
1
0
ARC
5
63f
100
AcDbEntity
8
1
100
AcDbCircle
6
CONTINUOUS
62
5
10
22.100000
20
118.149395
40
0.300000
100
AcDbArc
50
-89.999998
51
-0.000002
0
LINE
5
640
100
AcDbEntity
8
1
100
AcDbLine
6
CONTINUOUS
62
5
10
22.400000
20
118.149395
11
22.400000
21
120.949395
0
ARC
5
641
100
AcDbEntity
8
1
100
AcDbCircle
6
CONTINUOUS
62
5
10
22.100000
20
120.949395
40
0.300000
100
AcDbArc
50
0.000002
51
89.999998
0
POLYLINE
5
642
100
AcDbEntity
8
1
6
CONTINUOUS
62
5
100
AcDb2dPolyline
66
1
10
0.0
20
0.0
30
0.0
70
0
0
VERTEX
5
643
100
AcDbEntity
8
1
100
AcDbVertex
100
AcDb2dVertex
62
5
10
22.100000
20
121.249395
0
VERTEX
5
644
100
AcDbEntity
8
1
100
AcDbVertex
100
AcDb2dVertex
62
5
10
21.400000
20
121.249395
0
VERTEX
5
645
100
AcDbEntity
8
1
100
AcDbVertex
100
AcDb2dVertex
62
5
10
21.400000
20
123.549395
0
SEQEND
5
646
100
AcDbEntity
8
1
0
ARC
5
647
100
AcDbEntity
8
1
100
AcDbCircle
6
CONTINUOUS
62
5
10
20.900000
20
123.549395
40
0.500000
100
AcDbArc
50
-0.000000
51
90.000000
0
POLYLINE
5
648
100
AcDbEntity
8
1
6
CONTINUOUS
62
5
100
AcDb2dPolyline
66
1
10
0.0
20
0.0
30
0.0
70
0
0
VERTEX
5
649
100
AcDbEntity
8
1
100
AcDbVertex
100
AcDb2dVertex
62
5
10
20.900000
20
124.049395
0
VERTEX
5
64a
100
AcDbEntity
8
1
100
AcDbVertex
100
AcDb2dVertex
62
5
10
18.900000
20
124.049395
0
VERTEX
5
64b
100
AcDbEntity
8
1
100
AcDbVertex
100
AcDb2dVertex
62
5
10
18.900000
20
124.099395
0
SEQEND
5
64c
100
AcDbEntity
8
1
0
ARC
5
64d
100
AcDbEntity
8
1
100
AcDbCircle
6
CONTINUOUS
62
5
10
18.400000
20
124.099395
40
0.500000
100
AcDbArc
50
0.000001
51
89.999998
0
LINE
5
64e
100
AcDbEntity
8
1
100
AcDbLine
6
CONTINUOUS
62
5
10
18.400000
20
124.599395
11
-15.600000
21
124.599395
0
ARC
5
64f
100
AcDbEntity
8
1
100
AcDbCircle
6
CONTINUOUS
62
5
10
-15.600000
20
124.099395
40
0.500000
100
AcDbArc
50
89.999999
51
179.994767
0
POLYLINE
5
650
100
AcDbEntity
8
1
6
CONTINUOUS
62
5
100
AcDb2dPolyline
66
1
10
0.0
20
0.0
30
0.0
70
0
0
VERTEX
5
651
100
AcDbEntity
8
1
100
AcDbVertex
100
AcDb2dVertex
62
5
10
-16.100000
20
124.099440
0
VERTEX
5
652
100
AcDbEntity
8
1
100
AcDbVertex
100
AcDb2dVertex
62
5
10
-16.100000
20
124.049395
0
VERTEX
5
653
100
AcDbEntity
8
1
100
AcDbVertex
100
AcDb2dVertex
62
5
10
-18.100000
20
124.049395
0
SEQEND
5
654
100
AcDbEntity
8
1
0
ARC
5
655
100
AcDbEntity
8
1
100
AcDbCircle
6
CONTINUOUS
62
5
10
-18.100000
20
123.549395
40
0.500000
100
AcDbArc
50
89.999999
51
-179.999998
0
POLYLINE
5
656
100
AcDbEntity
8
1
6
CONTINUOUS
62
5
100
AcDb2dPolyline
66
1
10
0.0
20
0.0
30
0.0
70
0
0
VERTEX
5
657
100
AcDbEntity
8
1
100
AcDbVertex
100
AcDb2dVertex
62
5
10
-18.600000
20
123.549395
0
VERTEX
5
658
100
AcDbEntity
8
1
100
AcDbVertex
100
AcDb2dVertex
62
5
10
-18.600000
20
121.249395
0
VERTEX
5
659
100
AcDbEntity
8
1
100
AcDbVertex
100
AcDb2dVertex
62
5
10
-19.300000
20
121.249395
0
SEQEND
5
65a
100
AcDbEntity
8
1
0
ARC
5
65b
100
AcDbEntity
8
1
100
AcDbCircle
6
CONTINUOUS
62
5
10
-19.300000
20
120.949395
40
0.300000
100
AcDbArc
50
89.999999
51
179.999998
0
LINE
5
65c
100
AcDbEntity
8
1
100
AcDbLine
6
CONTINUOUS
62
5
10
-19.600000
20
120.949395
11
-19.600000
21
118.149395
0
ARC
5
65d
100
AcDbEntity
8
1
100
AcDbCircle
6
CONTINUOUS
62
5
10
-19.300000
20
118.149395
40
0.300000
100
AcDbArc
50
179.999997
51
-89.999999
0
POLYLINE
5
65e
100
AcDbEntity
8
1
6
CONTINUOUS
62
5
100
AcDb2dPolyline
66
1
10
0.0
20
0.0
30
0.0
70
0
0
VERTEX
5
65f
100
AcDbEntity
8
1
100
AcDbVertex
100
AcDb2dVertex
62
5
10
-19.300000
20
117.849395
0
VERTEX
5
660
100
AcDbEntity
8
1
100
AcDbVertex
100
AcDb2dVertex
62
5
10
-18.600000
20
117.849395
0
VERTEX
5
661
100
AcDbEntity
8
1
100
AcDbVertex
100
AcDb2dVertex
62
5
10
-18.600000
20
108.649395
0
VERTEX
5
662
100
AcDbEntity
8
1
100
AcDbVertex
100
AcDb2dVertex
62
5
10
-19.300000
20
108.649395
0
SEQEND
5
663
100
AcDbEntity
8
1
0
ARC
5
664
100
AcDbEntity
8
1
100
AcDbCircle
6
CONTINUOUS
62
5
10
-19.300000
20
108.349395
40
0.300000
100
AcDbArc
50
89.999999
51
-179.999997
0
LINE
5
665
100
AcDbEntity
8
1
100
AcDbLine
6
CONTINUOUS
62
5
10
-19.600000
20
108.349395
11
-19.600000
21
105.549395
0
ARC
5
666
100
AcDbEntity
8
1
100
AcDbCircle
6
CONTINUOUS
62
5
10
-19.300000
20
105.549395
40
0.300000
100
AcDbArc
50
-179.999998
51
-89.999999
0
POLYLINE
5
667
100
AcDbEntity
8
1
6
CONTINUOUS
62
5
100
AcDb2dPolyline
66
1
10
0.0
20
0.0
30
0.0
70
0
0
VERTEX
5
668
100
AcDbEntity
8
1
100
AcDbVertex
100
AcDb2dVertex
62
5
10
-19.300000
20
105.249395
0
VERTEX
5
669
100
AcDbEntity
8
1
100
AcDbVertex
100
AcDb2dVertex
62
5
10
-18.600000
20
105.249395
0
VERTEX
5
66a
100
AcDbEntity
8
1
100
AcDbVertex
100
AcDb2dVertex
62
5
10
-18.600000
20
103.249395
0
SEQEND
5
66b
100
AcDbEntity
8
1
0
ARC
5
66c
100
AcDbEntity
8
1
100
AcDbCircle
6
CONTINUOUS
62
5
10
-18.100000
20
103.249395
40
0.500000
100
AcDbArc
50
-179.999998
51
-90.000000
0
LINE
5
66d
100
AcDbEntity
8
1
100
AcDbLine
6
CONTINUOUS
62
5
10
-18.100000
20
102.749395
11
-17.100000
21
102.749395
0
ARC
5
66e
100
AcDbEntity
8
1
100
AcDbCircle
6
CONTINUOUS
62
5
10
-17.100000
20
101.749395
40
1.000000
100
AcDbArc
50
0.000000
51
89.999999
0
LINE
5
66f
100
AcDbEntity
8
1
100
AcDbLine
6
CONTINUOUS
62
5
10
-16.100000
20
101.749395
11
-16.100000
21
101.749395
0
ARC
5
670
100
AcDbEntity
8
1
100
AcDbCircle
6
CONTINUOUS
62
5
10
-17.100000
20
101.749395
40
1.000000
100
AcDbArc
50
-89.999999
51
0.000000
0
LINE
5
671
100
AcDbEntity
8
1
100
AcDbLine
6
CONTINUOUS
62
5
10
-17.100000
20
100.749395
11
-18.100000
21
100.749395
0
ARC
5
672
100
AcDbEntity
8
1
100
AcDbCircle
6
CONTINUOUS
62
5
10
-18.100000
20
100.249395
40
0.500000
100
AcDbArc
50
89.999999
51
179.999998
0
POLYLINE
5
673
100
AcDbEntity
8
1
6
CONTINUOUS
62
5
100
AcDb2dPolyline
66
1
10
0.0
20
0.0
30
0.0
70
0
0
VERTEX
5
674
100
AcDbEntity
8
1
100
AcDbVertex
100
AcDb2dVertex
62
5
10
-18.600000
20
100.249395
0
VERTEX
5
675
100
AcDbEntity
8
1
100
AcDbVertex
100
AcDb2dVertex
62
5
10
-18.600000
20
98.249395
0
VERTEX
5
676
100
AcDbEntity
8
1
100
AcDbVertex
100
AcDb2dVertex
62
5
10
-19.300000
20
98.249395
0
SEQEND
5
677
100
AcDbEntity
8
1
0
ARC
5
678
100
AcDbEntity
8
1
100
AcDbCircle
6
CONTINUOUS
62
5
10
-19.300000
20
97.949395
40
0.300000
100
AcDbArc
50
89.999999
51
179.999998
0
LINE
5
679
100
AcDbEntity
8
1
100
AcDbLine
6
CONTINUOUS
62
5
10
-19.600000
20
97.949395
11
-19.600000
21
95.149395
0
ARC
5
67a
100
AcDbEntity
8
1
100
AcDbCircle
6
CONTINUOUS
62
5
10
-19.300000
20
95.149395
40
0.300000
100
AcDbArc
50
179.999996
51
-89.999998
0
POLYLINE
5
67b
100
AcDbEntity
8
1
6
CONTINUOUS
62
5
100
AcDb2dPolyline
66
1
10
0.0
20
0.0
30
0.0
70
0
0
VERTEX
5
67c
100
AcDbEntity
8
1
100
AcDbVertex
100
AcDb2dVertex
62
5
10
-19.300000
20
94.849395
0
VERTEX
5
67d
100
AcDbEntity
8
1
100
AcDbVertex
100
AcDb2dVertex
62
5
10
-18.600000
20
94.849395
0
VERTEX
5
67e
100
AcDbEntity
8
1
100
AcDbVertex
100
AcDb2dVertex
62
5
10
-18.600000
20
85.649395
0
VERTEX
5
67f
100
AcDbEntity
8
1
100
AcDbVertex
100
AcDb2dVertex
62
5
10
-19.300000
20
85.649395
0
SEQEND
5
680
100
AcDbEntity
8
1
0
ARC
5
681
100
AcDbEntity
8
1
100
AcDbCircle
6
CONTINUOUS
62
5
10
-19.300000
20
85.349395
40
0.300000
100
AcDbArc
50
89.999999
51
-179.999997
0
LINE
5
682
100
AcDbEntity
8
1
100
AcDbLine
6
CONTINUOUS
62
5
10
-19.600000
20
85.349395
11
-19.600000
21
82.549395
0
ARC
5
683
100
AcDbEntity
8
1
100
AcDbCircle
6
CONTINUOUS
62
5
10
-19.300000
20
82.549395
40
0.300000
100
AcDbArc
50
-179.999998
51
-89.999999
0
POLYLINE
5
684
100
AcDbEntity
8
1
6
CONTINUOUS
62
5
100
AcDb2dPolyline
66
1
10
0.0
20
0.0
30
0.0
70
0
0
VERTEX
5
685
100
AcDbEntity
8
1
100
AcDbVertex
100
AcDb2dVertex
62
5
10
-19.300000
20
82.249395
0
VERTEX
5
686
100
AcDbEntity
8
1
100
AcDbVertex
100
AcDb2dVertex
62
5
10
-18.600000
20
82.249395
0
VERTEX
5
687
100
AcDbEntity
8
1
100
AcDbVertex
100
AcDb2dVertex
62
5
10
-18.600000
20
79.949395
0
SEQEND
5
688
100
AcDbEntity
8
1
0
ARC
5
689
100
AcDbEntity
8
1
100
AcDbCircle
6
CONTINUOUS
62
5
10
-18.100000
20
79.949395
40
0.500000
100
AcDbArc
50
-179.999998
51
-89.999999
0
POLYLINE
5
68a
100
AcDbEntity
8
1
6
CONTINUOUS
62
5
100
AcDb2dPolyline
66
1
10
0.0
20
0.0
30
0.0
70
0
0
VERTEX
5
68b
100
AcDbEntity
8
1
100
AcDbVertex
100
AcDb2dVertex
62
5
10
-18.100000
20
79.449395
0
VERTEX
5
68c
100
AcDbEntity
8
1
100
AcDbVertex
100
AcDb2dVertex
62
5
10
-16.100000
20
79.449395
0
VERTEX
5
68d
100
AcDbEntity
8
1
100
AcDbVertex
100
AcDb2dVertex
62
5
10
-16.100000
20
79.399395
0
SEQEND
5
68e
100
AcDbEntity
8
1
0
ARC
5
68f
100
AcDbEntity
8
1
100
AcDbCircle
6
CONTINUOUS
62
5
10
-15.600000
20
79.399395
40
0.500000
100
AcDbArc
50
-179.999998
51
-90.000000
0
LINE
5
690
100
AcDbEntity
8
1
100
AcDbLine
6
CONTINUOUS
62
5
10
-15.600000
20
78.899395
11
18.400000
21
78.899395
0
ARC
5
691
100
AcDbEntity
8
1
100
AcDbCircle
6
CONTINUOUS
62
5
10
18.400000
20
79.399395
40
0.500000
100
AcDbArc
50
-89.999999
51
0.000000
0
POLYLINE
5
692
100
AcDbEntity
8
1
6
CONTINUOUS
62
5
100
AcDb2dPolyline
66
1
10
0.0
20
0.0
30
0.0
70
0
0
VERTEX
5
693
100
AcDbEntity
8
1
100
AcDbVertex
100
AcDb2dVertex
62
5
10
18.900000
20
79.399395
0
VERTEX
5
694
100
AcDbEntity
8
1
100
AcDbVertex
100
AcDb2dVertex
62
5
10
18.900000
20
79.449395
0
VERTEX
5
695
100
AcDbEntity
8
1
100
AcDbVertex
100
AcDb2dVertex
62
5
10
20.900000
20
79.449395
0
SEQEND
5
696
100
AcDbEntity
8
1
0
ARC
5
697
100
AcDbEntity
8
1
100
AcDbCircle
6
CONTINUOUS
62
5
10
20.900000
20
79.949395
40
0.500000
100
AcDbArc
50
-89.999999
51
0.000000
0
POLYLINE
5
698
100
AcDbEntity
8
1
6
CONTINUOUS
62
5
100
AcDb2dPolyline
66
1
10
0.0
20
0.0
30
0.0
70
0
0
VERTEX
5
699
100
AcDbEntity
8
1
100
AcDbVertex
100
AcDb2dVertex
62
5
10
21.400000
20
79.949395
0
VERTEX
5
69a
100
AcDbEntity
8
1
100
AcDbVertex
100
AcDb2dVertex
62
5
10
21.400000
20
82.249395
0
VERTEX
5
69b
100
AcDbEntity
8
1
100
AcDbVertex
100
AcDb2dVertex
62
5
10
22.100000
20
82.249395
0
SEQEND
5
69c
100
AcDbEntity
8
1
0
ARC
5
69d
100
AcDbEntity
8
1
100
AcDbCircle
6
CONTINUOUS
62
5
10
22.100000
20
82.549395
40
0.300000
100
AcDbArc
50
-89.999999
51
0.000000
0
LINE
5
69e
100
AcDbEntity
8
1
100
AcDbLine
6
CONTINUOUS
62
5
10
22.400000
20
82.549395
11
22.400000
21
85.349395
0
ARC
5
69f
100
AcDbEntity
8
1
100
AcDbCircle
6
CONTINUOUS
62
5
10
22.100000
20
85.349395
40
0.300000
100
AcDbArc
50
-0.000000
51
89.999999
0
POLYLINE
5
6a0
100
AcDbEntity
8
1
6
CONTINUOUS
62
5
100
AcDb2dPolyline
66
1
10
0.0
20
0.0
30
0.0
70
0
0
VERTEX
5
6a1
100
AcDbEntity
8
1
100
AcDbVertex
100
AcDb2dVertex
62
5
10
22.100000
20
85.649395
0
VERTEX
5
6a2
100
AcDbEntity
8
1
100
AcDbVertex
100
AcDb2dVertex
62
5
10
21.400000
20
85.649395
0
VERTEX
5
6a3
100
AcDbEntity
8
1
100
AcDbVertex
100
AcDb2dVertex
62
5
10
21.400000
20
94.849395
0
VERTEX
5
6a4
100
AcDbEntity
8
1
100
AcDbVertex
100
AcDb2dVertex
62
5
10
22.100000
20
94.849395
0
SEQEND
5
6a5
100
AcDbEntity
8
1
0
ARC
5
6a6
100
AcDbEntity
8
1
100
AcDbCircle
6
CONTINUOUS
62
5
10
22.100000
20
95.149395
40
0.300000
100
AcDbArc
50
-89.999999
51
0.000000
0
LINE
5
6a7
100
AcDbEntity
8
1
100
AcDbLine
6
CONTINUOUS
62
5
10
22.400000
20
95.149395
11
22.400000
21
97.949395
0
ARC
5
6a8
100
AcDbEntity
8
1
100
AcDbCircle
6
CONTINUOUS
62
5
10
22.100000
20
97.949395
40
0.300000
100
AcDbArc
50
0.000002
51
89.999999
0
POLYLINE
5
6a9
100
AcDbEntity
8
1
6
CONTINUOUS
62
5
100
AcDb2dPolyline
66
1
10
0.0
20
0.0
30
0.0
70
0
0
VERTEX
5
6aa
100
AcDbEntity
8
1
100
AcDbVertex
100
AcDb2dVertex
62
5
10
22.100000
20
98.249395
0
VERTEX
5
6ab
100
AcDbEntity
8
1
100
AcDbVertex
100
AcDb2dVertex
62
5
10
21.400000
20
98.249395
0
VERTEX
5
6ac
100
AcDbEntity
8
1
100
AcDbVertex
100
AcDb2dVertex
62
5
10
21.400000
20
100.249395
0
SEQEND
5
6ad
100
AcDbEntity
8
1
0
ARC
5
6ae
100
AcDbEntity
8
1
100
AcDbCircle
6
CONTINUOUS
62
5
10
20.900000
20
100.249395
40
0.500000
100
AcDbArc
50
0.000000
51
89.999999
0
LINE
5
6af
100
AcDbEntity
8
1
100
AcDbLine
6
CONTINUOUS
62
5
10
20.900000
20
100.749395
11
19.900000
21
100.749395
0
ARC
5
6b0
100
AcDbEntity
8
1
100
AcDbCircle
6
CONTINUOUS
62
5
10
19.900000
20
101.749395
40
1.000000
100
AcDbArc
50
179.999998
51
-89.999999
0
LINE
5
6b1
100
AcDbEntity
8
1
100
AcDbLine
6
CONTINUOUS
62
5
10
18.900000
20
101.749395
11
18.900000
21
101.749395
0
ARC
5
6b2
100
AcDbEntity
8
1
100
AcDbCircle
6
CONTINUOUS
62
5
10
19.900000
20
101.749395
40
1.000000
100
AcDbArc
50
89.999999
51
179.999998
0
LINE
5
6b3
100
AcDbEntity
8
1
100
AcDbLine
6
CONTINUOUS
62
5
10
19.900000
20
102.749395
11
20.900000
21
102.749395
0
ARC
5
6b4
100
AcDbEntity
8
1
100
AcDbCircle
6
CONTINUOUS
62
5
10
20.900000
20
103.249395
40
0.500000
100
AcDbArc
50
-89.999999
51
-0.000000
0
POLYLINE
5
6b5
100
AcDbEntity
8
1
6
CONTINUOUS
62
5
100
AcDb2dPolyline
66
1
10
0.0
20
0.0
30
0.0
70
0
0
VERTEX
5
6b6
100
AcDbEntity
8
1
100
AcDbVertex
100
AcDb2dVertex
62
5
10
21.400000
20
103.249395
0
VERTEX
5
6b7
100
AcDbEntity
8
1
100
AcDbVertex
100
AcDb2dVertex
62
5
10
21.400000
20
105.249395
0
VERTEX
5
6b8
100
AcDbEntity
8
1
100
AcDbVertex
100
AcDb2dVertex
62
5
10
22.100000
20
105.249395
0
SEQEND
5
6b9
100
AcDbEntity
8
1
0
ARC
5
6ba
100
AcDbEntity
8
1
100
AcDbCircle
6
CONTINUOUS
62
5
10
22.100000
20
105.549395
40
0.300000
100
AcDbArc
50
-89.999999
51
-0.000002
0
LINE
5
6bb
100
AcDbEntity
8
1
100
AcDbLine
6
CONTINUOUS
62
5
10
22.400000
20
105.549395
11
22.400000
21
108.349395
0
ARC
5
6bc
100
AcDbEntity
8
1
100
AcDbCircle
6
CONTINUOUS
62
5
10
-18.600000
20
121.549395
40
1.500000
100
AcDbArc
50
131.810314
51
-179.999998
0
LINE
5
6bd
100
AcDbEntity
8
1
100
AcDbLine
6
CONTINUOUS
62
5
10
-20.100000
20
121.549395
11
-20.100000
21
81.949395
0
ARC
5
6be
100
AcDbEntity
8
1
100
AcDbCircle
6
CONTINUOUS
62
5
10
-18.600000
20
81.949395
40
1.500000
100
AcDbArc
50
179.999998
51
-131.810314
0
ARC
5
6bf
100
AcDbEntity
8
1
100
AcDbCircle
6
CONTINUOUS
62
5
10
21.400000
20
81.949395
40
1.500000
100
AcDbArc
50
-48.189685
51
-0.000000
0
LINE
5
6c0
100
AcDbEntity
8
1
100
AcDbLine
6
CONTINUOUS
62
5
10
22.900000
20
81.949395
11
22.900000
21
121.549395
0
ARC
5
6c1
100
AcDbEntity
8
1
100
AcDbCircle
6
CONTINUOUS
62
5
10
21.400000
20
121.549395
40
1.500000
100
AcDbArc
50
-0.000000
51
48.189685
0
ARC
5
6c2
100
AcDbEntity
8
1
100
AcDbCircle
6
CONTINUOUS
62
5
10
14.700000
20
88.389344
40
0.700000
100
AcDbArc
50
-45.000000
51
0.000000
0
LINE
5
6c3
100
AcDbEntity
8
1
100
AcDbLine
6
CONTINUOUS
62
5
10
15.400000
20
88.389344
11
15.400000
21
102.599395
0
LINE
5
6c4
100
AcDbEntity
8
1
100
AcDbLine
6
CONTINUOUS
62
5
10
-12.600000
20
102.599395
11
-12.600000
21
88.389344
0
ARC
5
6c5
100
AcDbEntity
8
1
100
AcDbCircle
6
CONTINUOUS
62
5
10
-11.900000
20
88.389344
40
0.700000
100
AcDbArc
50
179.999998
51
-134.999999
0
LINE
5
6c6
100
AcDbEntity
8
1
100
AcDbLine
6
CONTINUOUS
62
5
10
-12.394975
20
87.894370
11
-3.605025
21
79.104420
0
ARC
5
6c7
100
AcDbEntity
8
1
100
AcDbCircle
6
CONTINUOUS
62
5
10
-3.110051
20
79.599395
40
0.700000
100
AcDbArc
50
-134.999999
51
-89.999999
0
LINE
5
6c8
100
AcDbEntity
8
1
100
AcDbLine
6
CONTINUOUS
62
5
10
-3.110051
20
78.899395
11
5.910051
21
78.899395
0
ARC
5
6c9
100
AcDbEntity
8
1
100
AcDbCircle
6
CONTINUOUS
62
5
10
5.910051
20
79.599395
40
0.700000
100
AcDbArc
50
-89.999999
51
-45.000000
0
LINE
5
6ca
100
AcDbEntity
8
1
100
AcDbLine
6
CONTINUOUS
62
5
10
6.405025
20
79.104420
11
15.194975
21
87.894370
0
LINE
5
6cb
100
AcDbEntity
8
1
100
AcDbLine
6
CONTINUOUS
62
5
10
-158.600000
20
214.699395
11
161.400000
21
214.699395
0
ARC
5
6cc
100
AcDbEntity
8
1
100
AcDbCircle
6
CONTINUOUS
62
5
10
13.128943
20
23.888251
40
0.300000
100
AcDbArc
50
-1.210089
51
86.999999
0
LINE
5
6cd
100
AcDbEntity
8
1
100
AcDbLine
6
CONTINUOUS
62
5
10
13.144644
20
24.187840
11
11.649707
21
24.266187
0
LINE
5
6ce
100
AcDbEntity
8
1
100
AcDbLine
6
CONTINUOUS
62
5
10
13.370101
20
21.099395
11
13.428876
21
23.881916
0
ARC
5
6cf
100
AcDbEntity
8
1
100
AcDbCircle
6
CONTINUOUS
62
5
10
13.112040
20
23.088039
40
0.300000
100
AcDbArc
50
-1.210089
51
86.999999
0
LINE
5
6d0
100
AcDbEntity
8
1
100
AcDbLine
6
CONTINUOUS
62
5
10
11.928492
20
23.450478
11
13.127741
21
23.387628
0
ARC
5
6d1
100
AcDbEntity
8
1
100
AcDbCircle
6
CONTINUOUS
62
5
10
14.150000
20
21.799395
40
0.500000
100
AcDbArc
50
89.999999
51
179.999998
0
LINE
5
6d2
100
AcDbEntity
8
1
100
AcDbLine
6
CONTINUOUS
62
5
10
14.150000
20
22.299395
11
14.900000
21
22.299395
0
ARC
5
6d3
100
AcDbEntity
8
1
100
AcDbCircle
6
CONTINUOUS
62
5
10
14.900000
20
21.799395
40
0.500000
100
AcDbArc
50
-0.000002
51
89.999999
0
LINE
5
6d4
100
AcDbEntity
8
1
100
AcDbLine
6
CONTINUOUS
62
5
10
15.400000
20
21.799395
11
15.400000
21
20.599395
0
LINE
5
6d5
100
AcDbEntity
8
1
100
AcDbLine
6
CONTINUOUS
62
5
10
13.650000
20
21.099395
11
13.650000
21
21.799395
0
LINE
5
6d6
100
AcDbEntity
8
1
100
AcDbLine
6
CONTINUOUS
62
5
10
4.066788
20
21.459199
11
10.932264
21
21.099395
0
LINE
5
6d7
100
AcDbEntity
8
1
100
AcDbLine
6
CONTINUOUS
62
5
10
6.200000
20
18.399395
11
5.700000
21
17.899395
0
ARC
5
6d8
100
AcDbEntity
8
1
100
AcDbCircle
6
CONTINUOUS
62
5
10
7.498204
20
23.382272
40
0.300000
100
AcDbArc
50
-0.614056
51
86.999999
0
LINE
5
6d9
100
AcDbEntity
8
1
100
AcDbLine
6
CONTINUOUS
62
5
10
7.513905
20
23.681860
11
6.890281
21
23.714543
0
ARC
5
6da
100
AcDbEntity
8
1
100
AcDbCircle
6
CONTINUOUS
62
5
10
6.874581
20
23.414954
40
0.300000
100
AcDbArc
50
86.999999
51
174.614054
0
POLYLINE
5
6db
100
AcDbEntity
8
1
6
CONTINUOUS
62
5
100
AcDb2dPolyline
66
1
10
0.0
20
0.0
30
0.0
70
0
0
VERTEX
5
6dc
100
AcDbEntity
8
1
100
AcDbVertex
100
AcDb2dVertex
62
5
10
6.575905
20
23.443114
0
VERTEX
5
6dd
100
AcDbEntity
8
1
100
AcDbVertex
100
AcDb2dVertex
62
5
10
6.480784
20
22.434197
0
VERTEX
5
6de
100
AcDbEntity
8
1
100
AcDbVertex
100
AcDb2dVertex
62
5
10
6.480784
20
22.434197
0
SEQEND
5
6df
100
AcDbEntity
8
1
0
LINE
5
6e0
100
AcDbEntity
8
1
100
AcDbLine
6
CONTINUOUS
62
5
10
7.787326
20
22.365724
11
7.798187
21
23.379056
0
LINE
5
6e1
100
AcDbEntity
8
1
100
AcDbLine
6
CONTINUOUS
62
5
10
11.911329
20
21.849182
11
11.608263
21
21.564653
0
ARC
5
6e2
100
AcDbEntity
8
1
100
AcDbCircle
6
CONTINUOUS
62
5
10
15.415381
20
23.799395
40
0.500000
100
AcDbArc
50
1.789911
51
89.999999
0
LINE
5
6e3
100
AcDbEntity
8
1
100
AcDbLine
6
CONTINUOUS
62
5
10
15.415381
20
24.299395
11
14.131835
21
24.299395
0
ARC
5
6e4
100
AcDbEntity
8
1
100
AcDbCircle
6
CONTINUOUS
62
5
10
14.131835
20
23.999395
40
0.300000
100
AcDbArc
50
89.999999
51
176.423664
0
LINE
5
6e5
100
AcDbEntity
8
1
100
AcDbLine
6
CONTINUOUS
62
5
10
13.832420
20
24.018108
11
13.708407
21
22.033906
0
POLYLINE
5
6e6
100
AcDbEntity
8
1
6
CONTINUOUS
62
5
100
AcDb2dPolyline
66
1
10
0.0
20
0.0
30
0.0
70
0
0
VERTEX
5
6e7
100
AcDbEntity
8
1
100
AcDbVertex
100
AcDb2dVertex
62
5
10
16.000000
20
18.399395
0
VERTEX
5
6e8
100
AcDbEntity
8
1
100
AcDbVertex
100
AcDb2dVertex
62
5
10
16.000000
20
21.099395
0
VERTEX
5
6e9
100
AcDbEntity
8
1
100
AcDbVertex
100
AcDb2dVertex
62
5
10
15.915137
20
23.815012
0
SEQEND
5
6ea
100
AcDbEntity
8
1
0
ARC
5
6eb
100
AcDbEntity
8
1
100
AcDbCircle
6
CONTINUOUS
62
5
10
15.118485
20
23.799395
40
0.500000
100
AcDbArc
50
-0.392506
51
89.999999
0
POLYLINE
5
6ec
100
AcDbEntity
8
1
6
CONTINUOUS
62
5
100
AcDb2dPolyline
66
1
10
0.0
20
0.0
30
0.0
70
0
0
VERTEX
5
6ed
100
AcDbEntity
8
1
100
AcDbVertex
100
AcDb2dVertex
62
5
10
15.618473
20
23.795970
0
VERTEX
5
6ee
100
AcDbEntity
8
1
100
AcDbVertex
100
AcDb2dVertex
62
5
10
15.600000
20
21.099395
0
VERTEX
5
6ef
100
AcDbEntity
8
1
100
AcDbVertex
100
AcDb2dVertex
62
5
10
15.600000
20
18.399395
0
SEQEND
5
6f0
100
AcDbEntity
8
1
0
LINE
5
6f1
100
AcDbEntity
8
1
100
AcDbLine
6
CONTINUOUS
62
5
10
14.128844
20
24.299395
11
15.118485
21
24.299395
0
ARC
5
6f2
100
AcDbEntity
8
1
100
AcDbCircle
6
CONTINUOUS
62
5
10
15.118485
20
23.799395
40
0.500000
100
AcDbArc
50
-0.392506
51
89.999999
0
POLYLINE
5
6f3
100
AcDbEntity
8
1
6
CONTINUOUS
62
5
100
AcDb2dPolyline
66
1
10
0.0
20
0.0
30
0.0
70
0
0
VERTEX
5
6f4
100
AcDbEntity
8
1
100
AcDbVertex
100
AcDb2dVertex
62
5
10
15.600000
20
18.399395
0
VERTEX
5
6f5
100
AcDbEntity
8
1
100
AcDbVertex
100
AcDb2dVertex
62
5
10
15.600000
20
21.099395
0
VERTEX
5
6f6
100
AcDbEntity
8
1
100
AcDbVertex
100
AcDb2dVertex
62
5
10
15.618473
20
23.795970
0
SEQEND
5
6f7
100
AcDbEntity
8
1
0
LINE
5
6f8
100
AcDbEntity
8
1
100
AcDbLine
6
CONTINUOUS
62
5
10
15.400264
20
21.099395
11
16.000000
21
21.099395
0
LINE
5
6f9
100
AcDbEntity
8
1
100
AcDbLine
6
CONTINUOUS
62
5
10
15.400264
20
21.099395
11
16.000000
21
21.099395
0
LINE
5
6fa
100
AcDbEntity
8
1
100
AcDbLine
6
CONTINUOUS
62
5
10
15.400264
20
21.099395
11
16.000000
21
21.099395
0
LINE
5
6fb
100
AcDbEntity
8
1
100
AcDbLine
6
CONTINUOUS
62
5
10
15.400264
20
21.099395
11
16.000000
21
21.099395
0
ARC
5
6fc
100
AcDbEntity
8
1
100
AcDbCircle
6
CONTINUOUS
62
5
10
19.400000
20
17.461895
40
1.062500
100
AcDbArc
50
61.927513
51
118.072486
0
ARC
5
6fd
100
AcDbEntity
8
1
100
AcDbCircle
6
CONTINUOUS
62
5
10
13.078234
20
21.487615
40
0.300000
100
AcDbArc
50
-1.210089
51
86.999999
0
POLYLINE
5
6fe
100
AcDbEntity
8
1
6
CONTINUOUS
62
5
100
AcDb2dPolyline
66
1
10
0.0
20
0.0
30
0.0
70
0
0
VERTEX
5
6ff
100
AcDbEntity
8
1
100
AcDbVertex
100
AcDb2dVertex
62
5
10
13.093935
20
21.787204
0
VERTEX
5
700
100
AcDbEntity
8
1
100
AcDbVertex
100
AcDb2dVertex
62
5
10
11.911329
20
21.849182
0
VERTEX
5
701
100
AcDbEntity
8
1
100
AcDbVertex
100
AcDb2dVertex
62
5
10
11.933989
20
23.963383
0
SEQEND
5
702
100
AcDbEntity
8
1
0
ARC
5
703
100
AcDbEntity
8
1
100
AcDbCircle
6
CONTINUOUS
62
5
10
11.634006
20
23.966598
40
0.300000
100
AcDbArc
50
-0.614056
51
86.999999
0
LINE
5
704
100
AcDbEntity
8
1
100
AcDbLine
6
CONTINUOUS
62
5
10
11.649707
20
24.266187
11
10.738717
21
24.313930
0
ARC
5
705
100
AcDbEntity
8
1
100
AcDbCircle
6
CONTINUOUS
62
5
10
10.723017
20
24.014341
40
0.300000
100
AcDbArc
50
86.999999
51
144.550593
0
LINE
5
706
100
AcDbEntity
8
1
100
AcDbLine
6
CONTINUOUS
62
5
10
10.478628
20
24.188336
11
9.767914
21
23.190088
0
ARC
5
707
100
AcDbEntity
8
1
100
AcDbCircle
6
CONTINUOUS
62
5
10
8.138658
20
24.350056
40
2.000000
100
AcDbArc
50
-92.999999
51
-35.449405
0
LINE
5
708
100
AcDbEntity
8
1
100
AcDbLine
6
CONTINUOUS
62
5
10
8.033986
20
22.352797
11
3.329195
21
22.599364
0
ARC
5
709
100
AcDbEntity
8
1
100
AcDbCircle
6
CONTINUOUS
62
5
10
21.900000
20
17.899395
40
0.500000
100
AcDbArc
50
0.000000
51
89.999999
0
LINE
5
70a
100
AcDbEntity
8
1
100
AcDbLine
6
CONTINUOUS
62
5
10
21.900000
20
18.399395
11
21.192893
21
18.399395
0
LINE
5
70b
100
AcDbEntity
8
1
100
AcDbLine
6
CONTINUOUS
62
5
10
22.400000
20
17.192288
11
22.400000
21
17.899395
0
LINE
5
70c
100
AcDbEntity
8
1
100
AcDbLine
6
CONTINUOUS
62
5
10
13.400000
20
9.399395
11
15.900000
21
9.399395
0
LINE
5
70d
100
AcDbEntity
8
1
100
AcDbLine
6
CONTINUOUS
62
5
10
18.700000
20
6.899395
11
16.100000
21
6.899395
0
ARC
5
70e
100
AcDbEntity
8
1
100
AcDbCircle
6
CONTINUOUS
62
5
10
3.700000
20
-6.000605
40
1.000000
100
AcDbArc
50
-179.999998
51
-89.999999
0
LINE
5
70f
100
AcDbEntity
8
1
100
AcDbLine
6
CONTINUOUS
62
5
10
3.700000
20
-7.000605
11
11.800000
21
-7.000605
0
ARC
5
710
100
AcDbEntity
8
1
100
AcDbCircle
6
CONTINUOUS
62
5
10
11.800000
20
-6.000605
40
1.000000
100
AcDbArc
50
-89.999999
51
-0.000000
0
LINE
5
711
100
AcDbEntity
8
1
100
AcDbLine
6
CONTINUOUS
62
5
10
12.800000
20
-6.000605
11
12.800000
21
-5.300605
0
LINE
5
712
100
AcDbEntity
8
1
100
AcDbLine
6
CONTINUOUS
62
5
10
2.700000
20
-5.300605
11
2.700000
21
-6.000605
0
POLYLINE
5
713
100
AcDbEntity
8
1
6
CONTINUOUS
62
5
100
AcDb2dPolyline
66
1
10
0.0
20
0.0
30
0.0
70
1
0
VERTEX
5
714
100
AcDbEntity
8
1
100
AcDbVertex
100
AcDb2dVertex
62
5
10
18.900000
20
4.899395
0
VERTEX
5
715
100
AcDbEntity
8
1
100
AcDbVertex
100
AcDb2dVertex
62
5
10
15.900000
20
4.899395
0
VERTEX
5
716
100
AcDbEntity
8
1
100
AcDbVertex
100
AcDb2dVertex
62
5
10
15.900000
20
9.899395
0
VERTEX
5
717
100
AcDbEntity
8
1
100
AcDbVertex
100
AcDb2dVertex
62
5
10
18.900000
20
9.899395
0
SEQEND
5
718
100
AcDbEntity
8
1
0
ARC
5
719
100
AcDbEntity
8
1
100
AcDbCircle
6
CONTINUOUS
62
5
10
18.500000
20
9.099395
40
0.200000
100
AcDbArc
50
0.000000
51
89.999999
0
LINE
5
71a
100
AcDbEntity
8
1
100
AcDbLine
6
CONTINUOUS
62
5
10
18.700000
20
9.099395
11
18.700000
21
5.399395
0
ARC
5
71b
100
AcDbEntity
8
1
100
AcDbCircle
6
CONTINUOUS
62
5
10
18.200000
20
5.399395
40
0.500000
100
AcDbArc
50
-89.999999
51
0.000000
0
LINE
5
71c
100
AcDbEntity
8
1
100
AcDbLine
6
CONTINUOUS
62
5
10
18.200000
20
4.899395
11
16.600000
21
4.899395
0
ARC
5
71d
100
AcDbEntity
8
1
100
AcDbCircle
6
CONTINUOUS
62
5
10
16.600000
20
5.399395
40
0.500000
100
AcDbArc
50
179.999998
51
-89.999999
0
LINE
5
71e
100
AcDbEntity
8
1
100
AcDbLine
6
CONTINUOUS
62
5
10
16.100000
20
5.399395
11
16.100000
21
9.099395
0
ARC
5
71f
100
AcDbEntity
8
1
100
AcDbCircle
6
CONTINUOUS
62
5
10
16.300000
20
9.099395
40
0.200000
100
AcDbArc
50
89.999999
51
179.999998
0
LINE
5
720
100
AcDbEntity
8
1
100
AcDbLine
6
CONTINUOUS
62
5
10
16.300000
20
9.299395
11
18.500000
21
9.299395
0
LINE
5
721
100
AcDbEntity
8
1
100
AcDbLine
6
CONTINUOUS
62
5
10
18.900000
20
9.399395
11
21.400000
21
9.399395
0
ARC
5
722
100
AcDbEntity
8
1
100
AcDbCircle
6
CONTINUOUS
62
5
10
21.625970
20
-4.500605
40
1.000000
100
AcDbArc
50
-89.999999
51
-1.507436
0
LINE
5
723
100
AcDbEntity
8
1
100
AcDbLine
6
CONTINUOUS
62
5
10
22.625624
20
-4.526912
11
22.630887
21
-4.326912
0
LINE
5
724
100
AcDbEntity
8
1
100
AcDbLine
6
CONTINUOUS
62
5
10
12.800000
20
-5.500605
11
21.625970
21
-5.500605
0
ARC
5
725
100
AcDbEntity
8
1
100
AcDbCircle
6
CONTINUOUS
62
5
10
14.400000
20
3.399395
40
1.000000
100
AcDbArc
50
179.999998
51
-89.999999
0
LINE
5
726
100
AcDbEntity
8
1
100
AcDbLine
6
CONTINUOUS
62
5
10
13.400000
20
3.399395
11
13.400000
21
9.899395
0
LINE
5
727
100
AcDbEntity
8
1
100
AcDbLine
6
CONTINUOUS
62
5
10
21.400000
20
9.899395
11
21.400000
21
3.399395
0
ARC
5
728
100
AcDbEntity
8
1
100
AcDbCircle
6
CONTINUOUS
62
5
10
20.400000
20
3.399395
40
1.000000
100
AcDbArc
50
-89.999999
51
0.000000
0
LINE
5
729
100
AcDbEntity
8
1
100
AcDbLine
6
CONTINUOUS
62
5
10
20.400000
20
2.399395
11
14.400000
21
2.399395
0
LINE
5
72a
100
AcDbEntity
8
1
100
AcDbLine
6
CONTINUOUS
62
5
10
18.900000
20
12.299395
11
22.400000
21
12.299395
0
ARC
5
72b
100
AcDbEntity
8
1
100
AcDbCircle
6
CONTINUOUS
62
5
10
21.900000
20
17.192288
40
0.500000
100
AcDbArc
50
0.000000
51
44.999999
0
LINE
5
72c
100
AcDbEntity
8
1
100
AcDbLine
6
CONTINUOUS
62
5
10
22.253553
20
17.545841
11
21.546447
21
18.252948
0
ARC
5
72d
100
AcDbEntity
8
1
100
AcDbCircle
6
CONTINUOUS
62
5
10
21.192893
20
17.899395
40
0.500000
100
AcDbArc
50
44.999999
51
89.999999
0
LINE
5
72e
100
AcDbEntity
8
1
100
AcDbLine
6
CONTINUOUS
62
5
10
21.192893
20
18.399395
11
18.400000
21
18.399395
0
LINE
5
72f
100
AcDbEntity
8
1
100
AcDbLine
6
CONTINUOUS
62
5
10
22.400000
20
11.599395
11
22.400000
21
17.192288
0
ARC
5
730
100
AcDbEntity
8
1
100
AcDbCircle
6
CONTINUOUS
62
5
10
-11.331835
20
23.999395
40
0.300000
100
AcDbArc
50
3.576334
51
89.999999
0
LINE
5
731
100
AcDbEntity
8
1
100
AcDbLine
6
CONTINUOUS
62
5
10
-11.331835
20
24.299395
11
-12.615381
21
24.299395
0
ARC
5
732
100
AcDbEntity
8
1
100
AcDbCircle
6
CONTINUOUS
62
5
10
-12.615381
20
23.799395
40
0.500000
100
AcDbArc
50
89.999999
51
178.210088
0
POLYLINE
5
733
100
AcDbEntity
8
1
6
CONTINUOUS
62
5
100
AcDb2dPolyline
66
1
10
0.0
20
0.0
30
0.0
70
0
0
VERTEX
5
734
100
AcDbEntity
8
1
100
AcDbVertex
100
AcDb2dVertex
62
5
10
-13.115137
20
23.815012
0
VERTEX
5
735
100
AcDbEntity
8
1
100
AcDbVertex
100
AcDb2dVertex
62
5
10
-13.200000
20
21.099395
0
VERTEX
5
736
100
AcDbEntity
8
1
100
AcDbVertex
100
AcDb2dVertex
62
5
10
-13.200000
20
18.399395
0
SEQEND
5
737
100
AcDbEntity
8
1
0
LINE
5
738
100
AcDbEntity
8
1
100
AcDbLine
6
CONTINUOUS
62
5
10
-10.908407
20
22.033906
11
-11.032420
21
24.018108
0
ARC
5
739
100
AcDbEntity
8
1
100
AcDbCircle
6
CONTINUOUS
62
5
10
-12.318485
20
23.799395
40
0.500000
100
AcDbArc
50
89.999999
51
-179.607493
0
POLYLINE
5
73a
100
AcDbEntity
8
1
6
CONTINUOUS
62
5
100
AcDb2dPolyline
66
1
10
0.0
20
0.0
30
0.0
70
0
0
VERTEX
5
73b
100
AcDbEntity
8
1
100
AcDbVertex
100
AcDb2dVertex
62
5
10
-12.800000
20
18.399395
0
VERTEX
5
73c
100
AcDbEntity
8
1
100
AcDbVertex
100
AcDb2dVertex
62
5
10
-12.809242
20
21.099395
0
VERTEX
5
73d
100
AcDbEntity
8
1
100
AcDbVertex
100
AcDb2dVertex
62
5
10
-12.818473
20
23.795970
0
SEQEND
5
73e
100
AcDbEntity
8
1
0
LINE
5
73f
100
AcDbEntity
8
1
100
AcDbLine
6
CONTINUOUS
62
5
10
-12.600264
20
21.099395
11
-13.200000
21
21.099395
0
LINE
5
740
100
AcDbEntity
8
1
100
AcDbLine
6
CONTINUOUS
62
5
10
-12.600264
20
21.099395
11
-13.200000
21
21.099395
0
LINE
5
741
100
AcDbEntity
8
1
100
AcDbLine
6
CONTINUOUS
62
5
10
-12.600264
20
21.099395
11
-13.200000
21
21.099395
0
LINE
5
742
100
AcDbEntity
8
1
100
AcDbLine
6
CONTINUOUS
62
5
10
-12.600264
20
21.099395
11
-13.200000
21
21.099395
0
LINE
5
743
100
AcDbEntity
8
1
100
AcDbLine
6
CONTINUOUS
62
5
10
-12.600264
20
21.099395
11
-13.200000
21
21.099395
0
LINE
5
744
100
AcDbEntity
8
1
100
AcDbLine
6
CONTINUOUS
62
5
10
-12.600264
20
21.099395
11
-13.200000
21
21.099395
0
LINE
5
745
100
AcDbEntity
8
1
100
AcDbLine
6
CONTINUOUS
62
5
10
-12.600264
20
21.099395
11
-13.200000
21
21.099395
0
LINE
5
746
100
AcDbEntity
8
1
100
AcDbLine
6
CONTINUOUS
62
5
10
-12.600264
20
21.099395
11
-13.200000
21
21.099395
0
ARC
5
747
100
AcDbEntity
8
1
100
AcDbCircle
6
CONTINUOUS
62
5
10
-11.350000
20
21.799395
40
0.500000
100
AcDbArc
50
0.000000
51
89.999999
0
LINE
5
748
100
AcDbEntity
8
1
100
AcDbLine
6
CONTINUOUS
62
5
10
-11.350000
20
22.299395
11
-12.100000
21
22.299395
0
ARC
5
749
100
AcDbEntity
8
1
100
AcDbCircle
6
CONTINUOUS
62
5
10
-12.100000
20
21.799395
40
0.500000
100
AcDbArc
50
89.999999
51
-179.999997
0
LINE
5
74a
100
AcDbEntity
8
1
100
AcDbLine
6
CONTINUOUS
62
5
10
-12.600000
20
21.799395
11
-12.600000
21
20.599395
0
LINE
5
74b
100
AcDbEntity
8
1
100
AcDbLine
6
CONTINUOUS
62
5
10
-10.850000
20
21.099395
11
-10.850000
21
21.799395
0
LINE
5
74c
100
AcDbEntity
8
1
100
AcDbLine
6
CONTINUOUS
62
5
10
-10.599704
20
22.227837
11
-1.092468
21
21.729584
0
ARC
5
74d
100
AcDbEntity
8
1
100
AcDbCircle
6
CONTINUOUS
62
5
10
-4.509795
20
24.011584
40
0.300000
100
AcDbArc
50
86.999999
51
174.614054
0
LINE
5
74e
100
AcDbEntity
8
1
100
AcDbLine
6
CONTINUOUS
62
5
10
-4.494094
20
24.311173
11
-3.870470
21
24.278490
0
ARC
5
74f
100
AcDbEntity
8
1
100
AcDbCircle
6
CONTINUOUS
62
5
10
-3.886171
20
23.978901
40
0.300000
100
AcDbArc
50
-0.614056
51
86.999999
0
LINE
5
750
100
AcDbEntity
8
1
100
AcDbLine
6
CONTINUOUS
62
5
10
-3.586188
20
23.975686
11
-3.597049
21
22.962353
0
LINE
5
751
100
AcDbEntity
8
1
100
AcDbLine
6
CONTINUOUS
62
5
10
-4.903591
20
23.030826
11
-4.808470
21
24.039743
0
ARC
5
752
100
AcDbEntity
8
1
100
AcDbCircle
6
CONTINUOUS
62
5
10
-10.057694
20
25.103412
40
0.300000
100
AcDbArc
50
86.999999
51
175.210088
0
LINE
5
753
100
AcDbEntity
8
1
100
AcDbLine
6
CONTINUOUS
62
5
10
-10.041993
20
25.403000
11
-8.547056
21
25.324654
0
POLYLINE
5
754
100
AcDbEntity
8
1
6
CONTINUOUS
62
5
100
AcDb2dPolyline
66
1
10
0.0
20
0.0
30
0.0
70
0
0
VERTEX
5
755
100
AcDbEntity
8
1
100
AcDbVertex
100
AcDb2dVertex
62
5
10
-10.658843
20
21.099395
0
VERTEX
5
756
100
AcDbEntity
8
1
100
AcDbVertex
100
AcDb2dVertex
62
5
10
-10.599704
20
22.227837
0
VERTEX
5
757
100
AcDbEntity
8
1
100
AcDbVertex
100
AcDb2dVertex
62
5
10
-10.356646
20
25.128462
0
SEQEND
5
758
100
AcDbEntity
8
1
0
LINE
5
759
100
AcDbEntity
8
1
100
AcDbLine
6
CONTINUOUS
62
5
10
-9.059891
20
22.948237
11
-8.788226
21
22.633588
0
ARC
5
75a
100
AcDbEntity
8
1
100
AcDbCircle
6
CONTINUOUS
62
5
10
-10.124528
20
24.305816
40
0.300000
100
AcDbArc
50
86.999999
51
175.210088
0
LINE
5
75b
100
AcDbEntity
8
1
100
AcDbLine
6
CONTINUOUS
62
5
10
-8.909578
20
24.542555
11
-10.108827
21
24.605405
0
LINE
5
75c
100
AcDbEntity
8
1
100
AcDbLine
6
CONTINUOUS
62
5
10
-3.400000
20
18.399395
11
-2.900000
21
17.899395
0
ARC
5
75d
100
AcDbEntity
8
1
100
AcDbCircle
6
CONTINUOUS
62
5
10
-10.258197
20
22.710626
40
0.300000
100
AcDbArc
50
86.999999
51
175.210088
0
POLYLINE
5
75e
100
AcDbEntity
8
1
6
CONTINUOUS
62
5
100
AcDb2dPolyline
66
1
10
0.0
20
0.0
30
0.0
70
0
0
VERTEX
5
75f
100
AcDbEntity
8
1
100
AcDbVertex
100
AcDb2dVertex
62
5
10
-10.242496
20
23.010215
0
VERTEX
5
760
100
AcDbEntity
8
1
100
AcDbVertex
100
AcDb2dVertex
62
5
10
-9.059891
20
22.948237
0
VERTEX
5
761
100
AcDbEntity
8
1
100
AcDbVertex
100
AcDb2dVertex
62
5
10
-8.861432
20
25.053225
0
SEQEND
5
762
100
AcDbEntity
8
1
0
ARC
5
763
100
AcDbEntity
8
1
100
AcDbCircle
6
CONTINUOUS
62
5
10
-8.562756
20
25.025065
40
0.300000
100
AcDbArc
50
86.999999
51
174.614055
0
LINE
5
764
100
AcDbEntity
8
1
100
AcDbLine
6
CONTINUOUS
62
5
10
-8.547056
20
25.324654
11
-7.636066
21
25.276911
0
ARC
5
765
100
AcDbEntity
8
1
100
AcDbCircle
6
CONTINUOUS
62
5
10
-7.651767
20
24.977322
40
0.300000
100
AcDbArc
50
29.449405
51
86.999999
0
LINE
5
766
100
AcDbEntity
8
1
100
AcDbLine
6
CONTINUOUS
62
5
10
-7.390530
20
25.124819
11
-6.788054
21
24.057750
0
ARC
5
767
100
AcDbEntity
8
1
100
AcDbCircle
6
CONTINUOUS
62
5
10
-5.046474
20
25.041059
40
2.000000
100
AcDbArc
50
-150.550593
51
-92.999999
0
LINE
5
768
100
AcDbEntity
8
1
100
AcDbLine
6
CONTINUOUS
62
5
10
-5.151146
20
23.043800
11
-0.402760
21
22.794948
0
ARC
5
769
100
AcDbEntity
8
1
100
AcDbCircle
6
CONTINUOUS
62
5
10
-16.600000
20
17.461895
40
1.062500
100
AcDbArc
50
61.927513
51
118.072486
0
ARC
5
76a
100
AcDbEntity
8
1
100
AcDbCircle
6
CONTINUOUS
62
5
10
-19.100000
20
17.899395
40
0.500000
100
AcDbArc
50
89.999999
51
179.999998
0
LINE
5
76b
100
AcDbEntity
8
1
100
AcDbLine
6
CONTINUOUS
62
5
10
-19.600000
20
17.899395
11
-19.600000
21
17.192288
0
LINE
5
76c
100
AcDbEntity
8
1
100
AcDbLine
6
CONTINUOUS
62
5
10
-18.392893
20
18.399395
11
-19.100000
21
18.399395
0
LINE
5
76d
100
AcDbEntity
8
1
100
AcDbLine
6
CONTINUOUS
62
5
10
-10.600000
20
9.399395
11
-13.100000
21
9.399395
0
LINE
5
76e
100
AcDbEntity
8
1
100
AcDbLine
6
CONTINUOUS
62
5
10
-13.300000
20
6.899395
11
-15.900000
21
6.899395
0
POLYLINE
5
76f
100
AcDbEntity
8
1
6
CONTINUOUS
62
5
100
AcDb2dPolyline
66
1
10
0.0
20
0.0
30
0.0
70
1
0
VERTEX
5
770
100
AcDbEntity
8
1
100
AcDbVertex
100
AcDb2dVertex
62
5
10
-16.100000
20
4.899395
0
VERTEX
5
771
100
AcDbEntity
8
1
100
AcDbVertex
100
AcDb2dVertex
62
5
10
-13.100000
20
4.899395
0
VERTEX
5
772
100
AcDbEntity
8
1
100
AcDbVertex
100
AcDb2dVertex
62
5
10
-13.100000
20
9.899395
0
VERTEX
5
773
100
AcDbEntity
8
1
100
AcDbVertex
100
AcDb2dVertex
62
5
10
-16.100000
20
9.899395
0
SEQEND
5
774
100
AcDbEntity
8
1
0
ARC
5
775
100
AcDbEntity
8
1
100
AcDbCircle
6
CONTINUOUS
62
5
10
-15.700000
20
9.099395
40
0.200000
100
AcDbArc
50
89.999999
51
179.999998
0
LINE
5
776
100
AcDbEntity
8
1
100
AcDbLine
6
CONTINUOUS
62
5
10
-15.900000
20
9.099395
11
-15.900000
21
5.399395
0
ARC
5
777
100
AcDbEntity
8
1
100
AcDbCircle
6
CONTINUOUS
62
5
10
-15.400000
20
5.399395
40
0.500000
100
AcDbArc
50
179.999998
51
-89.999999
0
LINE
5
778
100
AcDbEntity
8
1
100
AcDbLine
6
CONTINUOUS
62
5
10
-15.400000
20
4.899395
11
-13.800000
21
4.899395
0
ARC
5
779
100
AcDbEntity
8
1
100
AcDbCircle
6
CONTINUOUS
62
5
10
-13.800000
20
5.399395
40
0.500000
100
AcDbArc
50
-89.999999
51
0.000000
0
LINE
5
77a
100
AcDbEntity
8
1
100
AcDbLine
6
CONTINUOUS
62
5
10
-13.300000
20
5.399395
11
-13.300000
21
9.099395
0
ARC
5
77b
100
AcDbEntity
8
1
100
AcDbCircle
6
CONTINUOUS
62
5
10
-13.500000
20
9.099395
40
0.200000
100
AcDbArc
50
0.000000
51
89.999999
0
LINE
5
77c
100
AcDbEntity
8
1
100
AcDbLine
6
CONTINUOUS
62
5
10
-13.500000
20
9.299395
11
-15.700000
21
9.299395
0
LINE
5
77d
100
AcDbEntity
8
1
100
AcDbLine
6
CONTINUOUS
62
5
10
-16.100000
20
9.399395
11
-18.600000
21
9.399395
0
ARC
5
77e
100
AcDbEntity
8
1
100
AcDbCircle
6
CONTINUOUS
62
5
10
-11.600000
20
3.399395
40
1.000000
100
AcDbArc
50
-89.999999
51
0.000000
0
LINE
5
77f
100
AcDbEntity
8
1
100
AcDbLine
6
CONTINUOUS
62
5
10
-10.600000
20
3.399395
11
-10.600000
21
9.899395
0
LINE
5
780
100
AcDbEntity
8
1
100
AcDbLine
6
CONTINUOUS
62
5
10
-18.600000
20
9.899395
11
-18.600000
21
3.399395
0
ARC
5
781
100
AcDbEntity
8
1
100
AcDbCircle
6
CONTINUOUS
62
5
10
-17.600000
20
3.399395
40
1.000000
100
AcDbArc
50
179.999998
51
-89.999999
0
LINE
5
782
100
AcDbEntity
8
1
100
AcDbLine
6
CONTINUOUS
62
5
10
-17.600000
20
2.399395
11
-11.600000
21
2.399395
0
LINE
5
783
100
AcDbEntity
8
1
100
AcDbLine
6
CONTINUOUS
62
5
10
-16.100000
20
12.299395
11
-19.600000
21
12.299395
0
ARC
5
784
100
AcDbEntity
8
1
100
AcDbCircle
6
CONTINUOUS
62
5
10
-18.392893
20
17.899395
40
0.500000
100
AcDbArc
50
89.999999
51
134.999998
0
LINE
5
785
100
AcDbEntity
8
1
100
AcDbLine
6
CONTINUOUS
62
5
10
-18.746447
20
18.252948
11
-19.453553
21
17.545841
0
ARC
5
786
100
AcDbEntity
8
1
100
AcDbCircle
6
CONTINUOUS
62
5
10
-19.100000
20
17.192288
40
0.500000
100
AcDbArc
50
134.999998
51
-179.999998
0
LINE
5
787
100
AcDbEntity
8
1
100
AcDbLine
6
CONTINUOUS
62
5
10
-19.600000
20
17.192288
11
-19.600000
21
11.599395
0
LINE
5
788
100
AcDbEntity
8
1
100
AcDbLine
6
CONTINUOUS
62
5
10
-15.600000
20
18.399395
11
-18.392893
21
18.399395
0
POLYLINE
5
789
100
AcDbEntity
8
1
6
CONTINUOUS
62
5
100
AcDb2dPolyline
66
1
10
0.0
20
0.0
30
0.0
70
0
0
VERTEX
5
78a
100
AcDbEntity
8
1
100
AcDbVertex
100
AcDb2dVertex
62
5
10
-16.100000
20
-57.550605
0
VERTEX
5
78b
100
AcDbEntity
8
1
100
AcDbVertex
100
AcDb2dVertex
62
5
10
-14.537500
20
-65.050605
0
VERTEX
5
78c
100
AcDbEntity
8
1
100
AcDbVertex
100
AcDb2dVertex
62
5
10
-12.975000
20
-57.550605
0
SEQEND
5
78d
100
AcDbEntity
8
1
0
POLYLINE
5
78e
100
AcDbEntity
8
1
6
CONTINUOUS
62
5
100
AcDb2dPolyline
66
1
10
0.0
20
0.0
30
0.0
70
0
0
VERTEX
5
78f
100
AcDbEntity
8
1
100
AcDbVertex
100
AcDb2dVertex
62
5
10
-6.100000
20
-65.050605
0
VERTEX
5
790
100
AcDbEntity
8
1
100
AcDbVertex
100
AcDb2dVertex
62
5
10
-4.537500
20
-57.550605
0
VERTEX
5
791
100
AcDbEntity
8
1
100
AcDbVertex
100
AcDb2dVertex
62
5
10
-2.975000
20
-65.050605
0
SEQEND
5
792
100
AcDbEntity
8
1
0
LINE
5
793
100
AcDbEntity
8
1
100
AcDbLine
6
CONTINUOUS
62
5
10
-5.475000
20
-62.550605
11
-3.600000
21
-62.550605
0
LINE
5
794
100
AcDbEntity
8
1
100
AcDbLine
6
CONTINUOUS
62
5
10
-36.100000
20
-61.300605
11
-32.975000
21
-61.300605
0
POLYLINE
5
795
100
AcDbEntity
8
1
6
CONTINUOUS
62
5
100
AcDb2dPolyline
66
1
10
0.0
20
0.0
30
0.0
70
0
0
VERTEX
5
796
100
AcDbEntity
8
1
100
AcDbVertex
100
AcDb2dVertex
62
5
10
-31.100000
20
-59.425605
0
VERTEX
5
797
100
AcDbEntity
8
1
100
AcDbVertex
100
AcDb2dVertex
62
5
10
-30.787500
20
-58.175605
0
VERTEX
5
798
100
AcDbEntity
8
1
100
AcDbVertex
100
AcDb2dVertex
62
5
10
-30.162500
20
-57.550605
0
VERTEX
5
799
100
AcDbEntity
8
1
100
AcDbVertex
100
AcDb2dVertex
62
5
10
-29.225000
20
-57.550605
0
VERTEX
5
79a
100
AcDbEntity
8
1
100
AcDbVertex
100
AcDb2dVertex
62
5
10
-28.600000
20
-57.863105
0
VERTEX
5
79b
100
AcDbEntity
8
1
100
AcDbVertex
100
AcDb2dVertex
62
5
10
-28.287500
20
-58.800605
0
VERTEX
5
79c
100
AcDbEntity
8
1
100
AcDbVertex
100
AcDb2dVertex
62
5
10
-28.287500
20
-60.050605
0
VERTEX
5
79d
100
AcDbEntity
8
1
100
AcDbVertex
100
AcDb2dVertex
62
5
10
-28.600000
20
-60.675605
0
VERTEX
5
79e
100
AcDbEntity
8
1
100
AcDbVertex
100
AcDb2dVertex
62
5
10
-29.225000
20
-61.300605
0
VERTEX
5
79f
100
AcDbEntity
8
1
100
AcDbVertex
100
AcDb2dVertex
62
5
10
-30.162500
20
-61.300605
0
SEQEND
5
7a0
100
AcDbEntity
8
1
0
POLYLINE
5
7a1
100
AcDbEntity
8
1
6
CONTINUOUS
62
5
100
AcDb2dPolyline
66
1
10
0.0
20
0.0
30
0.0
70
0
0
VERTEX
5
7a2
100
AcDbEntity
8
1
100
AcDbVertex
100
AcDb2dVertex
62
5
10
-29.225000
20
-61.300605
0
VERTEX
5
7a3
100
AcDbEntity
8
1
100
AcDbVertex
100
AcDb2dVertex
62
5
10
-28.287500
20
-61.925605
0
VERTEX
5
7a4
100
AcDbEntity
8
1
100
AcDbVertex
100
AcDb2dVertex
62
5
10
-27.975000
20
-62.863105
0
VERTEX
5
7a5
100
AcDbEntity
8
1
100
AcDbVertex
100
AcDb2dVertex
62
5
10
-27.975000
20
-63.800605
0
VERTEX
5
7a6
100
AcDbEntity
8
1
100
AcDbVertex
100
AcDb2dVertex
62
5
10
-28.287500
20
-64.425605
0
VERTEX
5
7a7
100
AcDbEntity
8
1
100
AcDbVertex
100
AcDb2dVertex
62
5
10
-29.225000
20
-65.050605
0
VERTEX
5
7a8
100
AcDbEntity
8
1
100
AcDbVertex
100
AcDb2dVertex
62
5
10
-30.162500
20
-65.050605
0
VERTEX
5
7a9
100
AcDbEntity
8
1
100
AcDbVertex
100
AcDb2dVertex
62
5
10
-30.787500
20
-64.738105
0
VERTEX
5
7aa
100
AcDbEntity
8
1
100
AcDbVertex
100
AcDb2dVertex
62
5
10
-31.412500
20
-63.800605
0
SEQEND
5
7ab
100
AcDbEntity
8
1
0
POLYLINE
5
7ac
100
AcDbEntity
8
1
6
CONTINUOUS
62
5
100
AcDb2dPolyline
66
1
10
0.0
20
0.0
30
0.0
70
1
0
VERTEX
5
7ad
100
AcDbEntity
8
1
100
AcDbVertex
100
AcDb2dVertex
62
5
10
-24.850000
20
-57.550605
0
VERTEX
5
7ae
100
AcDbEntity
8
1
100
AcDbVertex
100
AcDb2dVertex
62
5
10
-24.225000
20
-57.550605
0
VERTEX
5
7af
100
AcDbEntity
8
1
100
AcDbVertex
100
AcDb2dVertex
62
5
10
-23.912500
20
-57.863105
0
VERTEX
5
7b0
100
AcDbEntity
8
1
100
AcDbVertex
100
AcDb2dVertex
62
5
10
-23.287500
20
-59.113105
0
VERTEX
5
7b1
100
AcDbEntity
8
1
100
AcDbVertex
100
AcDb2dVertex
62
5
10
-22.975000
20
-60.363105
0
VERTEX
5
7b2
100
AcDbEntity
8
1
100
AcDbVertex
100
AcDb2dVertex
62
5
10
-22.975000
20
-62.238105
0
VERTEX
5
7b3
100
AcDbEntity
8
1
100
AcDbVertex
100
AcDb2dVertex
62
5
10
-23.287500
20
-63.488105
0
VERTEX
5
7b4
100
AcDbEntity
8
1
100
AcDbVertex
100
AcDb2dVertex
62
5
10
-23.912500
20
-64.738105
0
VERTEX
5
7b5
100
AcDbEntity
8
1
100
AcDbVertex
100
AcDb2dVertex
62
5
10
-24.225000
20
-65.050605
0
VERTEX
5
7b6
100
AcDbEntity
8
1
100
AcDbVertex
100
AcDb2dVertex
62
5
10
-24.850000
20
-65.050605
0
VERTEX
5
7b7
100
AcDbEntity
8
1
100
AcDbVertex
100
AcDb2dVertex
62
5
10
-25.162500
20
-64.738105
0
VERTEX
5
7b8
100
AcDbEntity
8
1
100
AcDbVertex
100
AcDb2dVertex
62
5
10
-25.787500
20
-63.488105
0
VERTEX
5
7b9
100
AcDbEntity
8
1
100
AcDbVertex
100
AcDb2dVertex
62
5
10
-26.100000
20
-62.238105
0
VERTEX
5
7ba
100
AcDbEntity
8
1
100
AcDbVertex
100
AcDb2dVertex
62
5
10
-26.100000
20
-60.363105
0
VERTEX
5
7bb
100
AcDbEntity
8
1
100
AcDbVertex
100
AcDb2dVertex
62
5
10
-25.787500
20
-59.113105
0
VERTEX
5
7bc
100
AcDbEntity
8
1
100
AcDbVertex
100
AcDb2dVertex
62
5
10
-25.162500
20
-57.863105
0
VERTEX
5
7bd
100
AcDbEntity
8
1
100
AcDbVertex
100
AcDb2dVertex
62
5
10
-24.850000
20
-57.550605
0
SEQEND
5
7be
100
AcDbEntity
8
1
0
POLYLINE
5
7bf
100
AcDbEntity
8
1
6
CONTINUOUS
62
5
100
AcDb2dPolyline
66
1
10
0.0
20
0.0
30
0.0
70
1
0
VERTEX
5
7c0
100
AcDbEntity
8
1
100
AcDbVertex
100
AcDb2dVertex
62
5
10
-19.850000
20
-57.550605
0
VERTEX
5
7c1
100
AcDbEntity
8
1
100
AcDbVertex
100
AcDb2dVertex
62
5
10
-19.225000
20
-57.550605
0
VERTEX
5
7c2
100
AcDbEntity
8
1
100
AcDbVertex
100
AcDb2dVertex
62
5
10
-18.912500
20
-57.863105
0
VERTEX
5
7c3
100
AcDbEntity
8
1
100
AcDbVertex
100
AcDb2dVertex
62
5
10
-18.287500
20
-59.113105
0
VERTEX
5
7c4
100
AcDbEntity
8
1
100
AcDbVertex
100
AcDb2dVertex
62
5
10
-17.975000
20
-60.363105
0
VERTEX
5
7c5
100
AcDbEntity
8
1
100
AcDbVertex
100
AcDb2dVertex
62
5
10
-17.975000
20
-62.238105
0
VERTEX
5
7c6
100
AcDbEntity
8
1
100
AcDbVertex
100
AcDb2dVertex
62
5
10
-18.287500
20
-63.488105
0
VERTEX
5
7c7
100
AcDbEntity
8
1
100
AcDbVertex
100
AcDb2dVertex
62
5
10
-18.912500
20
-64.738105
0
VERTEX
5
7c8
100
AcDbEntity
8
1
100
AcDbVertex
100
AcDb2dVertex
62
5
10
-19.225000
20
-65.050605
0
VERTEX
5
7c9
100
AcDbEntity
8
1
100
AcDbVertex
100
AcDb2dVertex
62
5
10
-19.850000
20
-65.050605
0
VERTEX
5
7ca
100
AcDbEntity
8
1
100
AcDbVertex
100
AcDb2dVertex
62
5
10
-20.162500
20
-64.738105
0
VERTEX
5
7cb
100
AcDbEntity
8
1
100
AcDbVertex
100
AcDb2dVertex
62
5
10
-20.787500
20
-63.488105
0
VERTEX
5
7cc
100
AcDbEntity
8
1
100
AcDbVertex
100
AcDb2dVertex
62
5
10
-21.100000
20
-62.238105
0
VERTEX
5
7cd
100
AcDbEntity
8
1
100
AcDbVertex
100
AcDb2dVertex
62
5
10
-21.100000
20
-60.363105
0
VERTEX
5
7ce
100
AcDbEntity
8
1
100
AcDbVertex
100
AcDb2dVertex
62
5
10
-20.787500
20
-59.113105
0
VERTEX
5
7cf
100
AcDbEntity
8
1
100
AcDbVertex
100
AcDb2dVertex
62
5
10
-20.162500
20
-57.863105
0
VERTEX
5
7d0
100
AcDbEntity
8
1
100
AcDbVertex
100
AcDb2dVertex
62
5
10
-19.850000
20
-57.550605
0
SEQEND
5
7d1
100
AcDbEntity
8
1
0
POLYLINE
5
7d2
100
AcDbEntity
8
1
6
CONTINUOUS
62
5
100
AcDb2dPolyline
66
1
10
0.0
20
0.0
30
0.0
70
1
0
VERTEX
5
7d3
100
AcDbEntity
8
1
100
AcDbVertex
100
AcDb2dVertex
62
5
10
-54.850000
20
-57.550605
0
VERTEX
5
7d4
100
AcDbEntity
8
1
100
AcDbVertex
100
AcDb2dVertex
62
5
10
-54.225000
20
-57.550605
0
VERTEX
5
7d5
100
AcDbEntity
8
1
100
AcDbVertex
100
AcDb2dVertex
62
5
10
-53.912500
20
-57.863105
0
VERTEX
5
7d6
100
AcDbEntity
8
1
100
AcDbVertex
100
AcDb2dVertex
62
5
10
-53.287500
20
-59.113105
0
VERTEX
5
7d7
100
AcDbEntity
8
1
100
AcDbVertex
100
AcDb2dVertex
62
5
10
-52.975000
20
-60.363105
0
VERTEX
5
7d8
100
AcDbEntity
8
1
100
AcDbVertex
100
AcDb2dVertex
62
5
10
-52.975000
20
-62.238105
0
VERTEX
5
7d9
100
AcDbEntity
8
1
100
AcDbVertex
100
AcDb2dVertex
62
5
10
-53.287500
20
-63.488105
0
VERTEX
5
7da
100
AcDbEntity
8
1
100
AcDbVertex
100
AcDb2dVertex
62
5
10
-53.912500
20
-64.738105
0
VERTEX
5
7db
100
AcDbEntity
8
1
100
AcDbVertex
100
AcDb2dVertex
62
5
10
-54.225000
20
-65.050605
0
VERTEX
5
7dc
100
AcDbEntity
8
1
100
AcDbVertex
100
AcDb2dVertex
62
5
10
-54.850000
20
-65.050605
0
VERTEX
5
7dd
100
AcDbEntity
8
1
100
AcDbVertex
100
AcDb2dVertex
62
5
10
-55.162500
20
-64.738105
0
VERTEX
5
7de
100
AcDbEntity
8
1
100
AcDbVertex
100
AcDb2dVertex
62
5
10
-55.787500
20
-63.488105
0
VERTEX
5
7df
100
AcDbEntity
8
1
100
AcDbVertex
100
AcDb2dVertex
62
5
10
-56.100000
20
-62.238105
0
VERTEX
5
7e0
100
AcDbEntity
8
1
100
AcDbVertex
100
AcDb2dVertex
62
5
10
-56.100000
20
-60.363105
0
VERTEX
5
7e1
100
AcDbEntity
8
1
100
AcDbVertex
100
AcDb2dVertex
62
5
10
-55.787500
20
-59.113105
0
VERTEX
5
7e2
100
AcDbEntity
8
1
100
AcDbVertex
100
AcDb2dVertex
62
5
10
-55.162500
20
-57.863105
0
VERTEX
5
7e3
100
AcDbEntity
8
1
100
AcDbVertex
100
AcDb2dVertex
62
5
10
-54.850000
20
-57.550605
0
SEQEND
5
7e4
100
AcDbEntity
8
1
0
LINE
5
7e5
100
AcDbEntity
8
1
100
AcDbLine
6
CONTINUOUS
62
5
10
-50.475000
20
-64.425605
11
-51.100000
21
-65.050605
0
POLYLINE
5
7e6
100
AcDbEntity
8
1
6
CONTINUOUS
62
5
100
AcDb2dPolyline
66
1
10
0.0
20
0.0
30
0.0
70
0
0
VERTEX
5
7e7
100
AcDbEntity
8
1
100
AcDbVertex
100
AcDb2dVertex
62
5
10
-51.100000
20
-64.425605
0
VERTEX
5
7e8
100
AcDbEntity
8
1
100
AcDbVertex
100
AcDb2dVertex
62
5
10
-50.475000
20
-65.050605
0
VERTEX
5
7e9
100
AcDbEntity
8
1
100
AcDbVertex
100
AcDb2dVertex
62
5
10
-51.100000
20
-65.050605
0
VERTEX
5
7ea
100
AcDbEntity
8
1
100
AcDbVertex
100
AcDb2dVertex
62
5
10
-51.100000
20
-64.425605
0
VERTEX
5
7eb
100
AcDbEntity
8
1
100
AcDbVertex
100
AcDb2dVertex
62
5
10
-50.475000
20
-64.425605
0
VERTEX
5
7ec
100
AcDbEntity
8
1
100
AcDbVertex
100
AcDb2dVertex
62
5
10
-50.475000
20
-65.050605
0
SEQEND
5
7ed
100
AcDbEntity
8
1
0
LINE
5
7ee
100
AcDbEntity
8
1
100
AcDbLine
6
CONTINUOUS
62
5
10
-46.100000
20
-57.550605
11
-43.287500
21
-57.550605
0
POLYLINE
5
7ef
100
AcDbEntity
8
1
6
CONTINUOUS
62
5
100
AcDb2dPolyline
66
1
10
0.0
20
0.0
30
0.0
70
0
0
VERTEX
5
7f0
100
AcDbEntity
8
1
100
AcDbVertex
100
AcDb2dVertex
62
5
10
-46.100000
20
-57.550605
0
VERTEX
5
7f1
100
AcDbEntity
8
1
100
AcDbVertex
100
AcDb2dVertex
62
5
10
-46.100000
20
-61.300605
0
VERTEX
5
7f2
100
AcDbEntity
8
1
100
AcDbVertex
100
AcDb2dVertex
62
5
10
-45.475000
20
-60.675605
0
VERTEX
5
7f3
100
AcDbEntity
8
1
100
AcDbVertex
100
AcDb2dVertex
62
5
10
-44.850000
20
-60.363105
0
VERTEX
5
7f4
100
AcDbEntity
8
1
100
AcDbVertex
100
AcDb2dVertex
62
5
10
-43.912500
20
-60.363105
0
VERTEX
5
7f5
100
AcDbEntity
8
1
100
AcDbVertex
100
AcDb2dVertex
62
5
10
-43.287500
20
-60.675605
0
VERTEX
5
7f6
100
AcDbEntity
8
1
100
AcDbVertex
100
AcDb2dVertex
62
5
10
-42.975000
20
-61.613105
0
VERTEX
5
7f7
100
AcDbEntity
8
1
100
AcDbVertex
100
AcDb2dVertex
62
5
10
-42.975000
20
-63.488105
0
VERTEX
5
7f8
100
AcDbEntity
8
1
100
AcDbVertex
100
AcDb2dVertex
62
5
10
-43.600000
20
-64.425605
0
VERTEX
5
7f9
100
AcDbEntity
8
1
100
AcDbVertex
100
AcDb2dVertex
62
5
10
-44.537500
20
-65.050605
0
VERTEX
5
7fa
100
AcDbEntity
8
1
100
AcDbVertex
100
AcDb2dVertex
62
5
10
-46.100000
20
-65.050605
0
SEQEND
5
7fb
100
AcDbEntity
8
1
0
POLYLINE
5
7fc
100
AcDbEntity
8
1
6
CONTINUOUS
62
5
100
AcDb2dPolyline
66
1
10
0.0
20
0.0
30
0.0
70
0
0
VERTEX
5
7fd
100
AcDbEntity
8
1
100
AcDbVertex
100
AcDb2dVertex
62
5
10
-41.100000
20
-65.050605
0
VERTEX
5
7fe
100
AcDbEntity
8
1
100
AcDbVertex
100
AcDb2dVertex
62
5
10
-39.537500
20
-57.550605
0
VERTEX
5
7ff
100
AcDbEntity
8
1
100
AcDbVertex
100
AcDb2dVertex
62
5
10
-37.975000
20
-65.050605
0
SEQEND
5
800
100
AcDbEntity
8
1
0
LINE
5
801
100
AcDbEntity
8
1
100
AcDbLine
6
CONTINUOUS
62
5
10
-40.475000
20
-62.550605
11
-38.600000
21
-62.550605
0
LINE
5
802
100
AcDbEntity
8
1
100
AcDbLine
6
CONTINUOUS
62
5
10
-68.600000
20
-49.300605
11
-68.600000
21
-73.300605
0
LINE
5
803
100
AcDbEntity
8
1
100
AcDbLine
6
CONTINUOUS
62
5
10
-103.912500
20
-56.925605
11
-103.912500
21
-57.863105
0
POLYLINE
5
804
100
AcDbEntity
8
1
6
CONTINUOUS
62
5
100
AcDb2dPolyline
66
1
10
0.0
20
0.0
30
0.0
70
0
0
VERTEX
5
805
100
AcDbEntity
8
1
100
AcDbVertex
100
AcDb2dVertex
62
5
10
-107.662500
20
-60.050605
0
VERTEX
5
806
100
AcDbEntity
8
1
100
AcDbVertex
100
AcDb2dVertex
62
5
10
-107.662500
20
-57.863105
0
VERTEX
5
807
100
AcDbEntity
8
1
100
AcDbVertex
100
AcDb2dVertex
62
5
10
-100.162500
20
-57.863105
0
VERTEX
5
808
100
AcDbEntity
8
1
100
AcDbVertex
100
AcDb2dVertex
62
5
10
-100.162500
20
-60.050605
0
SEQEND
5
809
100
AcDbEntity
8
1
0
LINE
5
80a
100
AcDbEntity
8
1
100
AcDbLine
6
CONTINUOUS
62
5
10
-106.725000
20
-59.738105
11
-101.100000
21
-59.738105
0
LINE
5
80b
100
AcDbEntity
8
1
100
AcDbLine
6
CONTINUOUS
62
5
10
-103.912500
20
-59.738105
11
-103.912500
21
-65.050605
0
LINE
5
80c
100
AcDbEntity
8
1
100
AcDbLine
6
CONTINUOUS
62
5
10
-103.912500
20
-62.238105
11
-101.100000
21
-62.238105
0
POLYLINE
5
80d
100
AcDbEntity
8
1
6
CONTINUOUS
62
5
100
AcDb2dPolyline
66
1
10
0.0
20
0.0
30
0.0
70
0
0
VERTEX
5
80e
100
AcDbEntity
8
1
100
AcDbVertex
100
AcDb2dVertex
62
5
10
-106.100000
20
-61.613105
0
VERTEX
5
80f
100
AcDbEntity
8
1
100
AcDbVertex
100
AcDb2dVertex
62
5
10
-106.412500
20
-63.488105
0
VERTEX
5
810
100
AcDbEntity
8
1
100
AcDbVertex
100
AcDb2dVertex
62
5
10
-107.037500
20
-64.738105
0
VERTEX
5
811
100
AcDbEntity
8
1
100
AcDbVertex
100
AcDb2dVertex
62
5
10
-107.975000
20
-65.675605
0
SEQEND
5
812
100
AcDbEntity
8
1
0
POLYLINE
5
813
100
AcDbEntity
8
1
6
CONTINUOUS
62
5
100
AcDb2dPolyline
66
1
10
0.0
20
0.0
30
0.0
70
0
0
VERTEX
5
814
100
AcDbEntity
8
1
100
AcDbVertex
100
AcDb2dVertex
62
5
10
-106.412500
20
-63.488105
0
VERTEX
5
815
100
AcDbEntity
8
1
100
AcDbVertex
100
AcDb2dVertex
62
5
10
-103.912500
20
-65.050605
0
VERTEX
5
816
100
AcDbEntity
8
1
100
AcDbVertex
100
AcDb2dVertex
62
5
10
-102.662500
20
-65.363105
0
VERTEX
5
817
100
AcDbEntity
8
1
100
AcDbVertex
100
AcDb2dVertex
62
5
10
-99.537500
20
-65.675605
0
SEQEND
5
818
100
AcDbEntity
8
1
0
LINE
5
819
100
AcDbEntity
8
1
100
AcDbLine
6
CONTINUOUS
62
5
10
-87.975000
20
-59.113105
11
-84.850000
21
-59.113105
0
LINE
5
81a
100
AcDbEntity
8
1
100
AcDbLine
6
CONTINUOUS
62
5
10
-86.100000
20
-56.925605
11
-86.100000
21
-65.675605
0
POLYLINE
5
81b
100
AcDbEntity
8
1
6
CONTINUOUS
62
5
100
AcDb2dPolyline
66
1
10
0.0
20
0.0
30
0.0
70
0
0
VERTEX
5
81c
100
AcDbEntity
8
1
100
AcDbVertex
100
AcDb2dVertex
62
5
10
-86.100000
20
-59.113105
0
VERTEX
5
81d
100
AcDbEntity
8
1
100
AcDbVertex
100
AcDb2dVertex
62
5
10
-87.037500
20
-61.300605
0
VERTEX
5
81e
100
AcDbEntity
8
1
100
AcDbVertex
100
AcDb2dVertex
62
5
10
-87.975000
20
-62.550605
0
SEQEND
5
81f
100
AcDbEntity
8
1
0
LINE
5
820
100
AcDbEntity
8
1
100
AcDbLine
6
CONTINUOUS
62
5
10
-86.100000
20
-60.050605
11
-85.162500
21
-61.300605
0
POLYLINE
5
821
100
AcDbEntity
8
1
6
CONTINUOUS
62
5
100
AcDb2dPolyline
66
1
10
0.0
20
0.0
30
0.0
70
0
0
VERTEX
5
822
100
AcDbEntity
8
1
100
AcDbVertex
100
AcDb2dVertex
62
5
10
-82.662500
20
-56.925605
0
VERTEX
5
823
100
AcDbEntity
8
1
100
AcDbVertex
100
AcDb2dVertex
62
5
10
-83.287500
20
-58.175605
0
VERTEX
5
824
100
AcDbEntity
8
1
100
AcDbVertex
100
AcDb2dVertex
62
5
10
-84.850000
20
-60.050605
0
SEQEND
5
825
100
AcDbEntity
8
1
0
POLYLINE
5
826
100
AcDbEntity
8
1
6
CONTINUOUS
62
5
100
AcDb2dPolyline
66
1
10
0.0
20
0.0
30
0.0
70
0
0
VERTEX
5
827
100
AcDbEntity
8
1
100
AcDbVertex
100
AcDb2dVertex
62
5
10
-83.287500
20
-58.175605
0
VERTEX
5
828
100
AcDbEntity
8
1
100
AcDbVertex
100
AcDb2dVertex
62
5
10
-80.162500
20
-58.175605
0
VERTEX
5
829
100
AcDbEntity
8
1
100
AcDbVertex
100
AcDb2dVertex
62
5
10
-81.100000
20
-59.738105
0
VERTEX
5
82a
100
AcDbEntity
8
1
100
AcDbVertex
100
AcDb2dVertex
62
5
10
-82.662500
20
-61.300605
0
VERTEX
5
82b
100
AcDbEntity
8
1
100
AcDbVertex
100
AcDb2dVertex
62
5
10
-84.850000
20
-62.550605
0
SEQEND
5
82c
100
AcDbEntity
8
1
0
POLYLINE
5
82d
100
AcDbEntity
8
1
6
CONTINUOUS
62
5
100
AcDb2dPolyline
66
1
10
0.0
20
0.0
30
0.0
70
0
0
VERTEX
5
82e
100
AcDbEntity
8
1
100
AcDbVertex
100
AcDb2dVertex
62
5
10
-83.287500
20
-58.175605
0
VERTEX
5
82f
100
AcDbEntity
8
1
100
AcDbVertex
100
AcDb2dVertex
62
5
10
-82.662500
20
-59.738105
0
VERTEX
5
830
100
AcDbEntity
8
1
100
AcDbVertex
100
AcDb2dVertex
62
5
10
-81.412500
20
-61.300605
0
VERTEX
5
831
100
AcDbEntity
8
1
100
AcDbVertex
100
AcDb2dVertex
62
5
10
-80.475000
20
-61.925605
0
VERTEX
5
832
100
AcDbEntity
8
1
100
AcDbVertex
100
AcDb2dVertex
62
5
10
-79.225000
20
-62.550605
0
SEQEND
5
833
100
AcDbEntity
8
1
0
POLYLINE
5
834
100
AcDbEntity
8
1
6
CONTINUOUS
62
5
100
AcDb2dPolyline
66
1
10
0.0
20
0.0
30
0.0
70
1
0
VERTEX
5
835
100
AcDbEntity
8
1
100
AcDbVertex
100
AcDb2dVertex
62
5
10
-83.600000
20
-62.550605
0
VERTEX
5
836
100
AcDbEntity
8
1
100
AcDbVertex
100
AcDb2dVertex
62
5
10
-83.600000
20
-65.363105
0
VERTEX
5
837
100
AcDbEntity
8
1
100
AcDbVertex
100
AcDb2dVertex
62
5
10
-80.162500
20
-65.363105
0
VERTEX
5
838
100
AcDbEntity
8
1
100
AcDbVertex
100
AcDb2dVertex
62
5
10
-80.162500
20
-62.550605
0
VERTEX
5
839
100
AcDbEntity
8
1
100
AcDbVertex
100
AcDb2dVertex
62
5
10
-83.600000
20
-62.550605
0
SEQEND
5
83a
100
AcDbEntity
8
1
0
POLYLINE
5
83b
100
AcDbEntity
8
1
6
CONTINUOUS
62
5
100
AcDb2dPolyline
66
1
10
0.0
20
0.0
30
0.0
70
0
0
VERTEX
5
83c
100
AcDbEntity
8
1
100
AcDbVertex
100
AcDb2dVertex
62
5
10
2.025000
20
-59.113105
0
VERTEX
5
83d
100
AcDbEntity
8
1
100
AcDbVertex
100
AcDb2dVertex
62
5
10
1.712500
20
-58.175605
0
VERTEX
5
83e
100
AcDbEntity
8
1
100
AcDbVertex
100
AcDb2dVertex
62
5
10
1.087500
20
-57.550605
0
VERTEX
5
83f
100
AcDbEntity
8
1
100
AcDbVertex
100
AcDb2dVertex
62
5
10
0.150000
20
-57.550605
0
VERTEX
5
840
100
AcDbEntity
8
1
100
AcDbVertex
100
AcDb2dVertex
62
5
10
-0.787500
20
-58.488105
0
VERTEX
5
841
100
AcDbEntity
8
1
100
AcDbVertex
100
AcDb2dVertex
62
5
10
-1.100000
20
-60.050605
0
VERTEX
5
842
100
AcDbEntity
8
1
100
AcDbVertex
100
AcDb2dVertex
62
5
10
-1.100000
20
-62.550605
0
VERTEX
5
843
100
AcDbEntity
8
1
100
AcDbVertex
100
AcDb2dVertex
62
5
10
-0.787500
20
-64.113105
0
VERTEX
5
844
100
AcDbEntity
8
1
100
AcDbVertex
100
AcDb2dVertex
62
5
10
0.150000
20
-65.050605
0
VERTEX
5
845
100
AcDbEntity
8
1
100
AcDbVertex
100
AcDb2dVertex
62
5
10
1.087500
20
-65.050605
0
VERTEX
5
846
100
AcDbEntity
8
1
100
AcDbVertex
100
AcDb2dVertex
62
5
10
1.712500
20
-64.425605
0
VERTEX
5
847
100
AcDbEntity
8
1
100
AcDbVertex
100
AcDb2dVertex
62
5
10
2.337500
20
-62.863105
0
SEQEND
5
848
100
AcDbEntity
8
1
0
LINE
5
849
100
AcDbEntity
8
1
100
AcDbLine
6
CONTINUOUS
62
5
10
-0.000000
20
-5.700605
11
2.700000
21
-5.700605
0
ARC
5
84a
100
AcDbEntity
8
1
100
AcDbCircle
6
CONTINUOUS
62
5
10
22.700000
20
9.699395
40
0.200000
100
AcDbArc
50
0.000000
51
89.999999
0
LINE
5
84b
100
AcDbEntity
8
1
100
AcDbLine
6
CONTINUOUS
62
5
10
22.700000
20
9.899395
11
-19.900000
21
9.899395
0
ARC
5
84c
100
AcDbEntity
8
1
100
AcDbCircle
6
CONTINUOUS
62
5
10
-19.900000
20
9.699395
40
0.200000
100
AcDbArc
50
89.999999
51
179.999998
0
POLYLINE
5
84d
100
AcDbEntity
8
1
6
CONTINUOUS
62
5
100
AcDb2dPolyline
66
1
10
0.0
20
0.0
30
0.0
70
0
0
VERTEX
5
84e
100
AcDbEntity
8
1
100
AcDbVertex
100
AcDb2dVertex
62
5
10
-20.100000
20
9.699395
0
VERTEX
5
84f
100
AcDbEntity
8
1
100
AcDbVertex
100
AcDb2dVertex
62
5
10
-20.100000
20
5.899395
0
VERTEX
5
850
100
AcDbEntity
8
1
100
AcDbVertex
100
AcDb2dVertex
62
5
10
-19.675624
20
-10.226912
0
SEQEND
5
851
100
AcDbEntity
8
1
0
ARC
5
852
100
AcDbEntity
8
1
100
AcDbCircle
6
CONTINUOUS
62
5
10
-18.675970
20
-10.200605
40
1.000000
100
AcDbArc
50
-178.492563
51
-89.999999
0
LINE
5
853
100
AcDbEntity
8
1
100
AcDbLine
6
CONTINUOUS
62
5
10
-18.675970
20
-11.200605
11
-1.000000
21
-11.200605
0
ARC
5
854
100
AcDbEntity
8
1
100
AcDbCircle
6
CONTINUOUS
62
5
10
-1.000000
20
-10.200605
40
1.000000
100
AcDbArc
50
-89.999999
51
0.000000
0
LINE
5
855
100
AcDbEntity
8
1
100
AcDbLine
6
CONTINUOUS
62
5
10
-0.000000
20
-10.200605
11
-0.000000
21
-5.300605
0
LINE
5
856
100
AcDbEntity
8
1
100
AcDbLine
6
CONTINUOUS
62
5
10
12.132105
20
-5.300605
11
21.631233
21
-5.300605
0
ARC
5
857
100
AcDbEntity
8
1
100
AcDbCircle
6
CONTINUOUS
62
5
10
21.631233
20
-4.300605
40
1.000000
100
AcDbArc
50
-89.999999
51
-1.507436
0
LINE
5
858
100
AcDbEntity
8
1
100
AcDbLine
6
CONTINUOUS
62
5
10
22.630887
20
-4.326912
11
22.900000
21
5.899395
0
LINE
5
859
100
AcDbEntity
8
1
100
AcDbLine
6
CONTINUOUS
62
5
10
22.900000
20
5.899395
11
22.900000
21
9.699395
0
ARC
5
85a
100
AcDbEntity
8
1
100
AcDbCircle
6
CONTINUOUS
62
5
10
-9.333888
20
-4.300605
40
1.000000
100
AcDbArc
50
-178.025064
51
-89.999999
0
LINE
5
85b
100
AcDbEntity
8
1
100
AcDbLine
6
CONTINUOUS
62
5
10
-9.333888
20
-5.300605
11
12.133888
21
-5.300605
0
ARC
5
85c
100
AcDbEntity
8
1
100
AcDbCircle
6
CONTINUOUS
62
5
10
12.133888
20
-4.300605
40
1.000000
100
AcDbArc
50
-89.999999
51
-1.974934
0
POLYLINE
5
85d
100
AcDbEntity
8
1
6
CONTINUOUS
62
5
100
AcDb2dPolyline
66
1
10
0.0
20
0.0
30
0.0
70
0
0
VERTEX
5
85e
100
AcDbEntity
8
1
100
AcDbVertex
100
AcDb2dVertex
62
5
10
13.133294
20
-4.335067
0
VERTEX
5
85f
100
AcDbEntity
8
1
100
AcDbVertex
100
AcDb2dVertex
62
5
10
13.400000
20
3.399395
0
VERTEX
5
860
100
AcDbEntity
8
1
100
AcDbVertex
100
AcDb2dVertex
62
5
10
13.400000
20
6.899395
0
VERTEX
5
861
100
AcDbEntity
8
1
100
AcDbVertex
100
AcDb2dVertex
62
5
10
13.231116
20
9.432654
0
SEQEND
5
862
100
AcDbEntity
8
1
0
ARC
5
863
100
AcDbEntity
8
1
100
AcDbCircle
6
CONTINUOUS
62
5
10
12.732223
20
9.399395
40
0.500000
100
AcDbArc
50
3.814075
51
89.999999
0
ARC
5
864
100
AcDbEntity
8
1
100
AcDbCircle
6
CONTINUOUS
62
5
10
-9.932223
20
9.399395
40
0.500000
100
AcDbArc
50
89.999999
51
176.185924
0
POLYLINE
5
865
100
AcDbEntity
8
1
6
CONTINUOUS
62
5
100
AcDb2dPolyline
66
1
10
0.0
20
0.0
30
0.0
70
0
0
VERTEX
5
866
100
AcDbEntity
8
1
100
AcDbVertex
100
AcDb2dVertex
62
5
10
-10.431116
20
9.432654
0
VERTEX
5
867
100
AcDbEntity
8
1
100
AcDbVertex
100
AcDb2dVertex
62
5
10
-10.600000
20
6.899395
0
VERTEX
5
868
100
AcDbEntity
8
1
100
AcDbVertex
100
AcDb2dVertex
62
5
10
-10.600000
20
3.399395
0
VERTEX
5
869
100
AcDbEntity
8
1
100
AcDbVertex
100
AcDb2dVertex
62
5
10
-10.333294
20
-4.335067
0
SEQEND
5
86a
100
AcDbEntity
8
1
0
ARC
5
86b
100
AcDbEntity
8
1
100
AcDbCircle
6
CONTINUOUS
62
5
10
18.400000
20
17.899395
40
0.500000
100
AcDbArc
50
0.000000
51
89.999999
0
LINE
5
86c
100
AcDbEntity
8
1
100
AcDbLine
6
CONTINUOUS
62
5
10
18.400000
20
18.399395
11
6.200000
21
18.399395
0
LINE
5
86d
100
AcDbEntity
8
1
100
AcDbLine
6
CONTINUOUS
62
5
10
-3.400000
20
18.399395
11
-15.600000
21
18.399395
0
ARC
5
86e
100
AcDbEntity
8
1
100
AcDbCircle
6
CONTINUOUS
62
5
10
-15.600000
20
17.899395
40
0.500000
100
AcDbArc
50
90.000001
51
179.999998
0
POLYLINE
5
86f
100
AcDbEntity
8
1
6
CONTINUOUS
62
5
100
AcDb2dPolyline
66
1
10
0.0
20
0.0
30
0.0
70
0
0
VERTEX
5
870
100
AcDbEntity
8
1
100
AcDbVertex
100
AcDb2dVertex
62
5
10
-16.100000
20
17.899395
0
VERTEX
5
871
100
AcDbEntity
8
1
100
AcDbVertex
100
AcDb2dVertex
62
5
10
-16.100000
20
11.599395
0
VERTEX
5
872
100
AcDbEntity
8
1
100
AcDbVertex
100
AcDb2dVertex
62
5
10
-19.600000
20
11.599395
0
VERTEX
5
873
100
AcDbEntity
8
1
100
AcDbVertex
100
AcDb2dVertex
62
5
10
-19.600000
20
9.899395
0
VERTEX
5
874
100
AcDbEntity
8
1
100
AcDbVertex
100
AcDb2dVertex
62
5
10
22.400000
20
9.899395
0
VERTEX
5
875
100
AcDbEntity
8
1
100
AcDbVertex
100
AcDb2dVertex
62
5
10
22.400000
20
11.599395
0
VERTEX
5
876
100
AcDbEntity
8
1
100
AcDbVertex
100
AcDb2dVertex
62
5
10
18.900000
20
11.599395
0
VERTEX
5
877
100
AcDbEntity
8
1
100
AcDbVertex
100
AcDb2dVertex
62
5
10
18.900000
20
17.899395
0
SEQEND
5
878
100
AcDbEntity
8
1
0
LINE
5
879
100
AcDbEntity
8
1
100
AcDbLine
6
CONTINUOUS
62
5
10
21.400000
20
5.899395
11
22.900000
21
5.899395
0
LINE
5
87a
100
AcDbEntity
8
1
100
AcDbLine
6
CONTINUOUS
62
5
10
-20.100000
20
5.899395
11
-18.600000
21
5.899395
0
LINE
5
87b
100
AcDbEntity
8
1
100
AcDbLine
6
CONTINUOUS
62
5
10
-16.100000
20
5.899395
11
-13.100000
21
5.899395
0
LINE
5
87c
100
AcDbEntity
8
1
100
AcDbLine
6
CONTINUOUS
62
5
10
-10.600000
20
5.899395
11
13.400000
21
5.899395
0
LINE
5
87d
100
AcDbEntity
8
1
100
AcDbLine
6
CONTINUOUS
62
5
10
15.900000
20
5.899395
11
18.900000
21
5.899395
0
ARC
5
87e
100
AcDbEntity
8
1
100
AcDbCircle
6
CONTINUOUS
62
5
10
14.900000
20
20.599395
40
0.500000
100
AcDbArc
50
0.000000
51
89.999999
0
LINE
5
87f
100
AcDbEntity
8
1
100
AcDbLine
6
CONTINUOUS
62
5
10
14.900000
20
21.099395
11
-12.100000
21
21.099395
0
ARC
5
880
100
AcDbEntity
8
1
100
AcDbCircle
6
CONTINUOUS
62
5
10
-12.100000
20
20.599395
40
0.500000
100
AcDbArc
50
89.999999
51
179.999998
0
LINE
5
881
100
AcDbEntity
8
1
100
AcDbLine
6
CONTINUOUS
62
5
10
-12.600000
20
20.599395
11
-12.600000
21
19.999395
0
LINE
5
882
100
AcDbEntity
8
1
100
AcDbLine
6
CONTINUOUS
62
5
10
15.400000
20
19.999395
11
15.400000
21
20.599395
0
ARC
5
883
100
AcDbEntity
8
1
100
AcDbCircle
6
CONTINUOUS
62
5
10
-12.100000
20
19.999395
40
0.500000
100
AcDbArc
50
89.999999
51
179.999998
0
LINE
5
884
100
AcDbEntity
8
1
100
AcDbLine
6
CONTINUOUS
62
5
10
-12.600000
20
19.999395
11
-12.600000
21
18.399395
0
LINE
5
885
100
AcDbEntity
8
1
100
AcDbLine
6
CONTINUOUS
62
5
10
15.400000
20
18.399395
11
15.400000
21
19.999395
0
ARC
5
886
100
AcDbEntity
8
1
100
AcDbCircle
6
CONTINUOUS
62
5
10
14.900000
20
19.999395
40
0.500000
100
AcDbArc
50
0.000000
51
89.999999
0
LINE
5
887
100
AcDbEntity
8
1
100
AcDbLine
6
CONTINUOUS
62
5
10
14.900000
20
20.499395
11
5.700000
21
20.499395
0
LINE
5
888
100
AcDbEntity
8
1
100
AcDbLine
6
CONTINUOUS
62
5
10
-2.900000
20
20.499395
11
-12.100000
21
20.499395
0
ARC
5
889
100
AcDbEntity
8
1
100
AcDbCircle
6
CONTINUOUS
62
5
10
-2.900000
20
19.999395
40
0.500000
100
AcDbArc
50
89.999999
51
179.999998
0
LINE
5
88a
100
AcDbEntity
8
1
100
AcDbLine
6
CONTINUOUS
62
5
10
-3.400000
20
19.999395
11
-3.400000
21
18.399395
0
LINE
5
88b
100
AcDbEntity
8
1
100
AcDbLine
6
CONTINUOUS
62
5
10
6.200000
20
18.399395
11
6.200000
21
19.999395
0
ARC
5
88c
100
AcDbEntity
8
1
100
AcDbCircle
6
CONTINUOUS
62
5
10
5.700000
20
19.999395
40
0.500000
100
AcDbArc
50
0.000000
51
89.999999
0
LINE
5
88d
100
AcDbEntity
8
1
100
AcDbLine
6
CONTINUOUS
62
5
10
5.700000
20
20.499395
11
-2.900000
21
20.499395
0
ARC
5
88e
100
AcDbEntity
8
1
100
AcDbCircle
6
CONTINUOUS
62
5
10
1.400000
20
21.899395
40
2.000000
100
AcDbArc
50
32.909130
51
147.090868
0
LINE
5
88f
100
AcDbEntity
8
1
100
AcDbLine
6
CONTINUOUS
62
5
10
-0.279067
20
22.986011
11
-1.500000
21
21.099395
0
LINE
5
890
100
AcDbEntity
8
1
100
AcDbLine
6
CONTINUOUS
62
5
10
4.300000
20
21.099395
11
3.079067
21
22.986011
0
POLYLINE
5
891
100
AcDbEntity
8
1
6
CONTINUOUS
62
5
100
AcDb2dPolyline
66
1
10
0.0
20
0.0
30
0.0
70
1
0
VERTEX
5
892
100
AcDbEntity
8
1
100
AcDbVertex
100
AcDb2dVertex
62
5
10
121.400000
20
-73.300605
0
VERTEX
5
893
100
AcDbEntity
8
1
100
AcDbVertex
100
AcDb2dVertex
62
5
10
121.400000
20
-49.300605
0
VERTEX
5
894
100
AcDbEntity
8
1
100
AcDbVertex
100
AcDb2dVertex
62
5
10
-118.600000
20
-49.300605
0
VERTEX
5
895
100
AcDbEntity
8
1
100
AcDbVertex
100
AcDb2dVertex
62
5
10
-118.600000
20
-73.300605
0
VERTEX
5
896
100
AcDbEntity
8
1
100
AcDbVertex
100
AcDb2dVertex
62
5
10
121.400000
20
-73.300605
0
SEQEND
5
897
100
AcDbEntity
8
1
0
POLYLINE
5
898
100
AcDbEntity
8
1
6
CONTINUOUS
62
5
100
AcDb2dPolyline
66
1
10
0.0
20
0.0
30
0.0
70
1
0
VERTEX
5
899
100
AcDbEntity
8
1
100
AcDbVertex
100
AcDb2dVertex
62
5
10
-158.600000
20
-93.300605
0
VERTEX
5
89a
100
AcDbEntity
8
1
100
AcDbVertex
100
AcDb2dVertex
62
5
10
-158.600000
20
246.699395
0
VERTEX
5
89b
100
AcDbEntity
8
1
100
AcDbVertex
100
AcDb2dVertex
62
5
10
161.400000
20
246.699395
0
VERTEX
5
89c
100
AcDbEntity
8
1
100
AcDbVertex
100
AcDb2dVertex
62
5
10
161.400000
20
-93.300605
0
VERTEX
5
89d
100
AcDbEntity
8
1
100
AcDbVertex
100
AcDb2dVertex
62
5
10
-158.600000
20
-93.300605
0
SEQEND
5
89e
100
AcDbEntity
8
1
0
ENDSEC
0
SECTION
2
OBJECTS
0
DICTIONARY
5
89f
100
AcDbDictionary
3
ACAD_GROUP
350
8a0
3
ACAD_MLINESTYLE
350
8a1
0
DICTIONARY
5
8a0
102
{ACAD_REACTORS
330
89f
102
}
100
AcDbDictionary
0
DICTIONARY
5
8a1
102
{ACAD_REACTORS
330
89f
102
}
100
AcDbDictionary
3
STANDARD
350
8a2
0
MLINESTYLE
5
8a2
102
{ACAD_REACTORS
330
8a1
102
}
100
AcDbMlineStyle
2
STANDARD
70
0
3

62
0
51
90.0
52
90.0
71
2
49
0.5
62
256
6
BYLAYER
49
-0.5
62
256
6
BYLAYER
0
ENDSEC
0
EOF
