0
SECTION
2
HEADER
9
$ACADVER
1
AC1012
9
$EXTMIN
10
-0.010000
20
-0.010000
30
0.0
9
$EXTMAX
10
12.600000
20
13.390000
30
0.0
9
$LIMMIN
10
-0.254000
20
-0.254000
9
$LIMMAX
10
320.040000
20
340.106000
9
$DIMSCALE
40
1.000000
9
$PDMODE
70
2
9
$PDSIZE
40
0.0
  9
$HANDSEED
  5
88c
0
ENDSEC
0
SECTION
2
CLASSES
0
ENDSEC
0
SECTION
2
TABLES
0
TABLE
2
LTYPE
5
1e
100
AcDbSymbolTable
70
12
0
LTYPE
5
1f
100
AcDbSymbolTableRecord
100
AcDbLinetypeTableRecord
2
BYBLOCK
70
0
3

72
65
73
0
40
0.0
0
LTYPE
5
20
100
AcDbSymbolTableRecord
100
AcDbLinetypeTableRecord
2
BYLAYER
70
0
3

72
65
73
0
40
0.0
0
LTYPE
5
21
100
AcDbSymbolTableRecord
100
AcDbLinetypeTableRecord
2
CONTINUOUS
70
64
3
Solid line
72
65
73
0
40
0.0
0
LTYPE
5
22
100
AcDbSymbolTableRecord
100
AcDbLinetypeTableRecord
2
DASHED
70
64
3
__ __ __ __ __ __ __ __ __ __ __ __ __ __ __
72
65
73
2
40
0.75
49
0.5
74
0
49
-0.25
74
0
0
LTYPE
5
23
100
AcDbSymbolTableRecord
100
AcDbLinetypeTableRecord
2
DOT
70
64
3
...............................................
72
65
73
2
40
0.25
49
0.0
74
0
49
-0.25
74
0
0
LTYPE
5
24
100
AcDbSymbolTableRecord
100
AcDbLinetypeTableRecord
2
DASHDOT
70
64
3
__ . __ . __ . __ . __ . __ . __ . __ . __ . --
72
65
73
4
40
1.0
49
0.5
74
0
49
-0.25
74
0
49
0.0
74
0
49
-0.25
74
0
0
LTYPE
5
25
100
AcDbSymbolTableRecord
100
AcDbLinetypeTableRecord
2
CENTER
70
64
3
____ _ ____ _ ____ _ ____ _ ____ _ ____ _ ____
72
65
73
4
40
2.0
49
1.25
74
0
49
-0.25
74
0
49
0.25
74
0
49
-0.25
74
0
0
LTYPE
5
26
100
AcDbSymbolTableRecord
100
AcDbLinetypeTableRecord
2
PHANTOM
70
64
3
_____ _ _ _____ _ _ _____ _ _ _____ _ _ ____
72
65
73
6
40
2.5
49
1.25
74
0
49
-0.25
74
0
49
0.25
74
0
49
-0.25
74
0
49
0.25
74
0
49
-0.25
74
0
0
LTYPE
5
27
100
AcDbSymbolTableRecord
100
AcDbLinetypeTableRecord
2
HIDDEN
70
64
3
_ _ _ _ _ _ _ _ _ _ _ _ _ _ _ _ _ _ _ _ _ _ _
72
65
73
2
40
0.375
49
0.25
74
0
49
-0.125
74
0
0
LTYPE
5
28
100
AcDbSymbolTableRecord
100
AcDbLinetypeTableRecord
2
BORDER
70
64
3
__ __ . __ __ . __ __ . __ __ . __ __ . __ __
72
65
73
6
40
1.75
49
0.5
74
0
49
-0.25
74
0
49
0.5
74
0
49
-0.25
74
0
49
0.0
74
0
49
-0.25
74
0
0
LTYPE
5
29
100
AcDbSymbolTableRecord
100
AcDbLinetypeTableRecord
2
DIVIDE
70
64
3
__ . . __ . . __ . . __ . . __ . . __ . . __
72
65
73
6
40
1.25
49
0.5
74
0
49
-0.25
74
0
49
0.0
74
0
49
-0.25
74
0
49
0.0
74
0
49
-0.25
74
0
0
LTYPE
5
2a
100
AcDbSymbolTableRecord
100
AcDbLinetypeTableRecord
2
DOT2
70
64
3
...............................................
72
65
73
2
40
0.125
49
0.0
74
0
49
-0.125
74
0
0
ENDTAB
0
TABLE
2
STYLE
5
2b
100
AcDbSymbolTable
70
1
0
STYLE
5
2c
100
AcDbSymbolTableRecord
100
AcDbTextStyleTableRecord
2
STANDARD
70
64
40
0.0
41
1.0
50
0.0
71
0
42
5.0
3
txt
4
bigfont
0
ENDTAB
0
TABLE
2
LAYER
5
2d
100
AcDbSymbolTable
70
2
0
LAYER
5
2e
100
AcDbSymbolTableRecord
100
AcDbLayerTableRecord
2
0
70
0
62
7
6
CONTINUOUS
0
LAYER
5
2f
100
AcDbSymbolTableRecord
100
AcDbLayerTableRecord
2
1
70
0
62
7
6
CONTINUOUS
0
ENDTAB
0
TABLE
2
APPID
5
30
100
AcDbSymbolTable
70
1
0
APPID
5
31
100
AcDbSymbolTableRecord
100
AcDbRegAppTableRecord
2
ACAD
70
64
0
ENDTAB
0
TABLE
2
DIMSTYLE
5
32
100
AcDbSymbolTable
70
0
0
ENDTAB
0
TABLE
2
UCS
5
33
100
AcDbSymbolTable
70
0
0
ENDTAB
0
TABLE
2
VIEW
5
34
100
AcDbSymbolTable
70
0
0
ENDTAB
0
TABLE
2
VPORT
5
35
100
AcDbSymbolTable
70
0
0
ENDTAB
0
TABLE
2
BLOCK_RECORD
5
36
100
AcDbSymbolTable
70
0
0
BLOCK_RECORD
5
37
100
AcDbSymbolTableRecord
100
AcDbBlockTableRecord
2
*MODEL_SPACE
0
BLOCK_RECORD
5
38
100
AcDbSymbolTableRecord
100
AcDbBlockTableRecord
2
*PAPER_SPACE
0
BLOCK_RECORD
5
39
100
AcDbSymbolTableRecord
100
AcDbBlockTableRecord
2
OPEN
0
BLOCK_RECORD
5
3a
100
AcDbSymbolTableRecord
100
AcDbBlockTableRecord
2
HALF
0
BLOCK_RECORD
5
3b
100
AcDbSymbolTableRecord
100
AcDbBlockTableRecord
2
CLOSEDBLANK
0
BLOCK_RECORD
5
3c
100
AcDbSymbolTableRecord
100
AcDbBlockTableRecord
2
HALFCLOSE_R
0
BLOCK_RECORD
5
3d
100
AcDbSymbolTableRecord
100
AcDbBlockTableRecord
2
DOT
0
BLOCK_RECORD
5
3e
100
AcDbSymbolTableRecord
100
AcDbBlockTableRecord
2
HALFOPEN_R
0
BLOCK_RECORD
5
3f
100
AcDbSymbolTableRecord
100
AcDbBlockTableRecord
2
CLOSEDF
0
BLOCK_RECORD
5
40
100
AcDbSymbolTableRecord
100
AcDbBlockTableRecord
2
HALF_R
0
ENDTAB
0
ENDSEC
0
SECTION
2
BLOCKS
0
BLOCK
5
41
100
AcDbEntity
8
0
100
AcDbBlockBegin
2
*MODEL_SPACE
70
0
10
0.0
20
0.0
30
0.0
3
*MODEL_SPACE
1

0
ENDBLK
5
42
100
AcDbEntity
8
0
100
AcDbBlockEnd
0
BLOCK
5
43
100
AcDbEntity
67
1
8
0
100
AcDbBlockBegin
2
*PAPER_SPACE
70
0
10
0.0
20
0.0
30
0.0
3
*PAPER_SPACE
1

0
ENDBLK
5
44
100
AcDbEntity
67
1
8
0
100
AcDbBlockEnd
0
BLOCK
5
45
100
AcDbEntity
8
0
100
AcDbBlockBegin
2
OPEN
70
0
10
0.0
20
0.0
30
0.0
3
OPEN
1

0
LINE
5
46
100
AcDbEntity
8
0
6
BYBLOCK
62
0
100
AcDbLine
10
0.000000
20
0.000000
11
-1.000000
21
0.000000
0
LINE
5
47
100
AcDbEntity
8
0
6
BYBLOCK
62
0
100
AcDbLine
10
-1.000000
20
-0.166667
11
0.000000
21
0.000000
0
LINE
5
48
100
AcDbEntity
8
0
6
BYBLOCK
62
0
100
AcDbLine
10
-1.000000
20
0.166667
11
0.000000
21
0.000000
0
ENDBLK
5
49
100
AcDbEntity
8
0
100
AcDbBlockEnd
0
BLOCK
5
4a
100
AcDbEntity
8
0
100
AcDbBlockBegin
2
HALF
70
0
10
0.0
20
0.0
30
0.0
3
HALF
1

0
SOLID
5
4b
100
AcDbEntity
8
0
6
BYBLOCK
62
0
100
AcDbTrace
10
-1.000000
20
0.166667
11
-1.000000
21
-0.166667
12
0.000000
22
0.000000
13
0.000000
23
0.000000
0
ENDBLK
5
4c
100
AcDbEntity
8
0
100
AcDbBlockEnd
0
BLOCK
5
4d
100
AcDbEntity
8
0
100
AcDbBlockBegin
2
CLOSEDBLANK
70
0
10
0.0
20
0.0
30
0.0
3
CLOSEDBLANK
1

0
LINE
5
4e
100
AcDbEntity
8
0
6
BYBLOCK
62
0
100
AcDbLine
10
-1.000000
20
0.166667
11
-1.000000
21
-0.166667
0
LINE
5
4f
100
AcDbEntity
8
0
6
BYBLOCK
62
0
100
AcDbLine
10
0.000000
20
0.000000
11
-1.000000
21
-0.166667
0
LINE
5
50
100
AcDbEntity
8
0
6
BYBLOCK
62
0
100
AcDbLine
10
-1.000000
20
0.166667
11
0.000000
21
0.000000
0
ENDBLK
5
51
100
AcDbEntity
8
0
100
AcDbBlockEnd
0
BLOCK
5
52
100
AcDbEntity
8
0
100
AcDbBlockBegin
2
HALFCLOSE_R
70
0
10
0.0
20
0.0
30
0.0
3
HALFCLOSE_R
1

0
LINE
5
53
100
AcDbEntity
8
0
6
BYBLOCK
62
0
100
AcDbLine
10
-1.000000
20
-0.166667
11
-1.000000
21
0.000000
0
LINE
5
54
100
AcDbEntity
8
0
6
BYBLOCK
62
0
100
AcDbLine
10
-1.000000
20
-0.166667
11
0.000000
21
0.000000
0
LINE
5
55
100
AcDbEntity
8
0
6
BYBLOCK
62
0
100
AcDbLine
10
0.000000
20
0.000000
11
-1.000000
21
0.000000
0
ENDBLK
5
56
100
AcDbEntity
8
0
100
AcDbBlockEnd
0
BLOCK
5
57
100
AcDbEntity
8
0
100
AcDbBlockBegin
2
DOT
70
0
10
0.0
20
0.0
30
0.0
3
DOT
1

0
LINE
5
58
100
AcDbEntity
8
0
6
BYBLOCK
62
0
100
AcDbLine
10
0.000000
20
0.000000
11
-1.000000
21
0.000000
0
POLYLINE
5
59
100
AcDbEntity
8
0
6
BYBLOCK
62
0
100
AcDb2dPolyline
66
1
10
0.0
20
0.0
30
0.0
70
1
40
0.166667
41
0.166667
0
VERTEX
5
5a
100
AcDbEntity
8
0
100
AcDbVertex
100
AcDb2dVertex
62
10
10
-0.083333
20
0.000000
42
1.000000
0
VERTEX
5
5b
100
AcDbEntity
8
0
100
AcDbVertex
100
AcDb2dVertex
62
10
10
0.083333
20
0.000000
42
1.000000
0
SEQEND
5
5c
100
AcDbEntity
8
0
0
ENDBLK
5
5d
100
AcDbEntity
8
0
100
AcDbBlockEnd
0
BLOCK
5
5e
100
AcDbEntity
8
0
100
AcDbBlockBegin
2
HALFOPEN_R
70
0
10
0.0
20
0.0
30
0.0
3
HALFOPEN_R
1

0
LINE
5
5f
100
AcDbEntity
8
0
6
BYBLOCK
62
0
100
AcDbLine
10
-1.000000
20
-0.166667
11
0.000000
21
0.000000
0
LINE
5
60
100
AcDbEntity
8
0
6
BYBLOCK
62
0
100
AcDbLine
10
0.000000
20
0.000000
11
-1.000000
21
0.000000
0
ENDBLK
5
61
100
AcDbEntity
8
0
100
AcDbBlockEnd
0
BLOCK
5
62
100
AcDbEntity
8
0
100
AcDbBlockBegin
2
CLOSEDF
70
0
10
0.0
20
0.0
30
0.0
3
CLOSEDF
1

0
SOLID
5
63
100
AcDbEntity
8
0
6
BYBLOCK
62
0
100
AcDbTrace
10
-1.000000
20
0.166667
11
-1.000000
21
-0.166667
12
0.000000
22
0.000000
13
0.000000
23
0.000000
0
ENDBLK
5
64
100
AcDbEntity
8
0
100
AcDbBlockEnd
0
BLOCK
5
65
100
AcDbEntity
8
0
100
AcDbBlockBegin
2
HALF_R
70
0
10
0.0
20
0.0
30
0.0
3
HALF_R
1

0
SOLID
5
66
100
AcDbEntity
8
0
6
BYBLOCK
62
0
100
AcDbTrace
10
-1.000000
20
-0.166667
11
-1.000000
21
0.000000
12
0.000000
22
0.000000
13
0.000000
23
0.000000
0
ENDBLK
5
67
100
AcDbEntity
8
0
100
AcDbBlockEnd
0
ENDSEC
0
SECTION
2
ENTITIES
0
POLYLINE
5
68
100
AcDbEntity
8
1
6
CONTINUOUS
62
5
100
AcDb2dPolyline
66
1
10
0.0
20
0.0
30
0.0
70
0
0
VERTEX
5
69
100
AcDbEntity
8
1
100
AcDbVertex
100
AcDb2dVertex
62
5
10
166.500000
20
327.750000
0
VERTEX
5
6a
100
AcDbEntity
8
1
100
AcDbVertex
100
AcDb2dVertex
62
5
10
166.500000
20
322.125000
0
VERTEX
5
6b
100
AcDbEntity
8
1
100
AcDbVertex
100
AcDb2dVertex
62
5
10
166.000000
20
320.875000
0
VERTEX
5
6c
100
AcDbEntity
8
1
100
AcDbVertex
100
AcDb2dVertex
62
5
10
165.500000
20
319.937500
0
SEQEND
5
6d
100
AcDbEntity
8
1
0
POLYLINE
5
6e
100
AcDbEntity
8
1
6
CONTINUOUS
62
5
100
AcDb2dPolyline
66
1
10
0.0
20
0.0
30
0.0
70
0
0
VERTEX
5
6f
100
AcDbEntity
8
1
100
AcDbVertex
100
AcDb2dVertex
62
5
10
170.500000
20
320.250000
0
VERTEX
5
70
100
AcDbEntity
8
1
100
AcDbVertex
100
AcDb2dVertex
62
5
10
171.500000
20
319.625000
0
VERTEX
5
71
100
AcDbEntity
8
1
100
AcDbVertex
100
AcDb2dVertex
62
5
10
171.500000
20
327.750000
0
VERTEX
5
72
100
AcDbEntity
8
1
100
AcDbVertex
100
AcDb2dVertex
62
5
10
166.500000
20
327.750000
0
SEQEND
5
73
100
AcDbEntity
8
1
0
LINE
5
74
100
AcDbEntity
8
1
100
AcDbLine
6
CONTINUOUS
62
5
10
166.500000
20
325.250000
11
171.500000
21
325.250000
0
LINE
5
75
100
AcDbEntity
8
1
100
AcDbLine
6
CONTINUOUS
62
5
10
169.000000
20
327.750000
11
169.000000
21
319.625000
0
LINE
5
76
100
AcDbEntity
8
1
100
AcDbLine
6
CONTINUOUS
62
5
10
166.500000
20
322.750000
11
171.500000
21
322.750000
0
LINE
5
77
100
AcDbEntity
8
1
100
AcDbLine
6
DOT2
62
5
10
204.625000
20
225.325000
11
205.250000
21
224.700000
0
POLYLINE
5
78
100
AcDbEntity
8
1
6
DOT2
62
5
100
AcDb2dPolyline
66
1
10
0.0
20
0.0
30
0.0
70
0
0
VERTEX
5
79
100
AcDbEntity
8
1
100
AcDbVertex
100
AcDb2dVertex
62
5
10
204.625000
20
224.700000
0
VERTEX
5
7a
100
AcDbEntity
8
1
100
AcDbVertex
100
AcDb2dVertex
62
5
10
205.250000
20
225.325000
0
VERTEX
5
7b
100
AcDbEntity
8
1
100
AcDbVertex
100
AcDb2dVertex
62
5
10
205.250000
20
224.700000
0
VERTEX
5
7c
100
AcDbEntity
8
1
100
AcDbVertex
100
AcDb2dVertex
62
5
10
204.625000
20
224.700000
0
VERTEX
5
7d
100
AcDbEntity
8
1
100
AcDbVertex
100
AcDb2dVertex
62
5
10
204.625000
20
225.325000
0
VERTEX
5
7e
100
AcDbEntity
8
1
100
AcDbVertex
100
AcDb2dVertex
62
5
10
205.250000
20
225.325000
0
SEQEND
5
7f
100
AcDbEntity
8
1
0
POLYLINE
5
80
100
AcDbEntity
8
1
6
DOT2
62
5
100
AcDb2dPolyline
66
1
10
0.0
20
0.0
30
0.0
70
0
0
VERTEX
5
81
100
AcDbEntity
8
1
100
AcDbVertex
100
AcDb2dVertex
62
5
10
161.250000
20
235.325000
0
VERTEX
5
82
100
AcDbEntity
8
1
100
AcDbVertex
100
AcDb2dVertex
62
5
10
161.562500
20
236.575000
0
VERTEX
5
83
100
AcDbEntity
8
1
100
AcDbVertex
100
AcDb2dVertex
62
5
10
162.187500
20
237.200000
0
VERTEX
5
84
100
AcDbEntity
8
1
100
AcDbVertex
100
AcDb2dVertex
62
5
10
163.125000
20
237.200000
0
VERTEX
5
85
100
AcDbEntity
8
1
100
AcDbVertex
100
AcDb2dVertex
62
5
10
163.750000
20
236.887500
0
VERTEX
5
86
100
AcDbEntity
8
1
100
AcDbVertex
100
AcDb2dVertex
62
5
10
164.062500
20
235.950000
0
VERTEX
5
87
100
AcDbEntity
8
1
100
AcDbVertex
100
AcDb2dVertex
62
5
10
164.062500
20
234.700000
0
VERTEX
5
88
100
AcDbEntity
8
1
100
AcDbVertex
100
AcDb2dVertex
62
5
10
163.750000
20
234.075000
0
VERTEX
5
89
100
AcDbEntity
8
1
100
AcDbVertex
100
AcDb2dVertex
62
5
10
163.125000
20
233.450000
0
VERTEX
5
8a
100
AcDbEntity
8
1
100
AcDbVertex
100
AcDb2dVertex
62
5
10
162.187500
20
233.450000
0
SEQEND
5
8b
100
AcDbEntity
8
1
0
POLYLINE
5
8c
100
AcDbEntity
8
1
6
DOT2
62
5
100
AcDb2dPolyline
66
1
10
0.0
20
0.0
30
0.0
70
0
0
VERTEX
5
8d
100
AcDbEntity
8
1
100
AcDbVertex
100
AcDb2dVertex
62
5
10
163.125000
20
233.450000
0
VERTEX
5
8e
100
AcDbEntity
8
1
100
AcDbVertex
100
AcDb2dVertex
62
5
10
164.062500
20
232.825000
0
VERTEX
5
8f
100
AcDbEntity
8
1
100
AcDbVertex
100
AcDb2dVertex
62
5
10
164.375000
20
231.887500
0
VERTEX
5
90
100
AcDbEntity
8
1
100
AcDbVertex
100
AcDb2dVertex
62
5
10
164.375000
20
230.950000
0
VERTEX
5
91
100
AcDbEntity
8
1
100
AcDbVertex
100
AcDb2dVertex
62
5
10
164.062500
20
230.325000
0
VERTEX
5
92
100
AcDbEntity
8
1
100
AcDbVertex
100
AcDb2dVertex
62
5
10
163.125000
20
229.700000
0
VERTEX
5
93
100
AcDbEntity
8
1
100
AcDbVertex
100
AcDb2dVertex
62
5
10
162.187500
20
229.700000
0
VERTEX
5
94
100
AcDbEntity
8
1
100
AcDbVertex
100
AcDb2dVertex
62
5
10
161.562500
20
230.012500
0
VERTEX
5
95
100
AcDbEntity
8
1
100
AcDbVertex
100
AcDb2dVertex
62
5
10
160.937500
20
230.950000
0
SEQEND
5
96
100
AcDbEntity
8
1
0
POLYLINE
5
97
100
AcDbEntity
8
1
6
DOT2
62
5
100
AcDb2dPolyline
66
1
10
0.0
20
0.0
30
0.0
70
0
0
VERTEX
5
98
100
AcDbEntity
8
1
100
AcDbVertex
100
AcDb2dVertex
62
5
10
199.937500
20
214.700000
0
VERTEX
5
99
100
AcDbEntity
8
1
100
AcDbVertex
100
AcDb2dVertex
62
5
10
198.375000
20
215.012500
0
VERTEX
5
9a
100
AcDbEntity
8
1
100
AcDbVertex
100
AcDb2dVertex
62
5
10
197.750000
20
215.950000
0
VERTEX
5
9b
100
AcDbEntity
8
1
100
AcDbVertex
100
AcDb2dVertex
62
5
10
197.750000
20
216.887500
0
VERTEX
5
9c
100
AcDbEntity
8
1
100
AcDbVertex
100
AcDb2dVertex
62
5
10
198.062500
20
217.512500
0
VERTEX
5
9d
100
AcDbEntity
8
1
100
AcDbVertex
100
AcDb2dVertex
62
5
10
199.000000
20
217.825000
0
VERTEX
5
9e
100
AcDbEntity
8
1
100
AcDbVertex
100
AcDb2dVertex
62
5
10
199.937500
20
217.825000
0
VERTEX
5
9f
100
AcDbEntity
8
1
100
AcDbVertex
100
AcDb2dVertex
62
5
10
200.875000
20
217.512500
0
VERTEX
5
a0
100
AcDbEntity
8
1
100
AcDbVertex
100
AcDb2dVertex
62
5
10
205.250000
20
214.700000
0
VERTEX
5
a1
100
AcDbEntity
8
1
100
AcDbVertex
100
AcDb2dVertex
62
5
10
205.250000
20
217.825000
0
VERTEX
5
a2
100
AcDbEntity
8
1
100
AcDbVertex
100
AcDb2dVertex
62
5
10
204.312500
20
217.825000
0
SEQEND
5
a3
100
AcDbEntity
8
1
0
POLYLINE
5
a4
100
AcDbEntity
8
1
6
DOT2
62
5
100
AcDb2dPolyline
66
1
10
0.0
20
0.0
30
0.0
70
0
0
VERTEX
5
a5
100
AcDbEntity
8
1
100
AcDbVertex
100
AcDb2dVertex
62
5
10
199.937500
20
219.700000
0
VERTEX
5
a6
100
AcDbEntity
8
1
100
AcDbVertex
100
AcDb2dVertex
62
5
10
198.375000
20
220.012500
0
VERTEX
5
a7
100
AcDbEntity
8
1
100
AcDbVertex
100
AcDb2dVertex
62
5
10
197.750000
20
220.950000
0
VERTEX
5
a8
100
AcDbEntity
8
1
100
AcDbVertex
100
AcDb2dVertex
62
5
10
197.750000
20
221.887500
0
VERTEX
5
a9
100
AcDbEntity
8
1
100
AcDbVertex
100
AcDb2dVertex
62
5
10
198.062500
20
222.512500
0
VERTEX
5
aa
100
AcDbEntity
8
1
100
AcDbVertex
100
AcDb2dVertex
62
5
10
199.000000
20
222.825000
0
VERTEX
5
ab
100
AcDbEntity
8
1
100
AcDbVertex
100
AcDb2dVertex
62
5
10
199.937500
20
222.825000
0
VERTEX
5
ac
100
AcDbEntity
8
1
100
AcDbVertex
100
AcDb2dVertex
62
5
10
200.875000
20
222.512500
0
VERTEX
5
ad
100
AcDbEntity
8
1
100
AcDbVertex
100
AcDb2dVertex
62
5
10
205.250000
20
219.700000
0
VERTEX
5
ae
100
AcDbEntity
8
1
100
AcDbVertex
100
AcDb2dVertex
62
5
10
205.250000
20
222.825000
0
VERTEX
5
af
100
AcDbEntity
8
1
100
AcDbVertex
100
AcDb2dVertex
62
5
10
204.312500
20
222.825000
0
SEQEND
5
b0
100
AcDbEntity
8
1
0
POLYLINE
5
b1
100
AcDbEntity
8
1
6
DOT2
62
5
100
AcDb2dPolyline
66
1
10
0.0
20
0.0
30
0.0
70
0
0
VERTEX
5
b2
100
AcDbEntity
8
1
100
AcDbVertex
100
AcDb2dVertex
62
5
10
198.687500
20
229.700000
0
VERTEX
5
b3
100
AcDbEntity
8
1
100
AcDbVertex
100
AcDb2dVertex
62
5
10
197.750000
20
229.700000
0
VERTEX
5
b4
100
AcDbEntity
8
1
100
AcDbVertex
100
AcDb2dVertex
62
5
10
197.750000
20
232.825000
0
VERTEX
5
b5
100
AcDbEntity
8
1
100
AcDbVertex
100
AcDb2dVertex
62
5
10
198.375000
20
232.825000
0
VERTEX
5
b6
100
AcDbEntity
8
1
100
AcDbVertex
100
AcDb2dVertex
62
5
10
199.937500
20
232.200000
0
VERTEX
5
b7
100
AcDbEntity
8
1
100
AcDbVertex
100
AcDb2dVertex
62
5
10
202.125000
20
231.575000
0
VERTEX
5
b8
100
AcDbEntity
8
1
100
AcDbVertex
100
AcDb2dVertex
62
5
10
205.250000
20
230.950000
0
SEQEND
5
b9
100
AcDbEntity
8
1
0
LINE
5
ba
100
AcDbEntity
8
1
100
AcDbLine
6
CONTINUOUS
62
5
10
164.951278
20
197.100000
11
164.951278
21
195.600000
0
ARC
5
bb
100
AcDbEntity
8
1
100
AcDbCircle
6
CONTINUOUS
62
5
10
171.693622
20
196.850000
40
0.300000
100
AcDbArc
50
2.925299
51
89.999999
0
LINE
5
bc
100
AcDbEntity
8
1
100
AcDbLine
6
CONTINUOUS
62
5
10
171.993231
20
196.865310
11
172.029001
21
196.165310
0
LINE
5
bd
100
AcDbEntity
8
1
100
AcDbLine
6
CONTINUOUS
62
5
10
170.534455
20
197.150000
11
171.693622
21
197.150000
0
LINE
5
be
100
AcDbEntity
8
1
100
AcDbLine
6
CONTINUOUS
62
5
10
173.700000
20
195.350000
11
173.861572
21
195.650000
0
ARC
5
bf
100
AcDbEntity
8
1
100
AcDbCircle
6
CONTINUOUS
62
5
10
170.211778
20
198.350000
40
0.300000
100
AcDbArc
50
8.596736
51
89.999999
0
LINE
5
c0
100
AcDbEntity
8
1
100
AcDbLine
6
CONTINUOUS
62
5
10
170.211778
20
198.650000
11
171.278683
21
198.650000
0
ARC
5
c1
100
AcDbEntity
8
1
100
AcDbCircle
6
CONTINUOUS
62
5
10
171.278683
20
197.950000
40
0.700000
100
AcDbArc
50
-0.000002
51
90.000001
0
LINE
5
c2
100
AcDbEntity
8
1
100
AcDbLine
6
CONTINUOUS
62
5
10
170.531084
20
198.244844
11
170.508408
21
198.394844
0
ARC
5
c3
100
AcDbEntity
8
1
100
AcDbCircle
6
CONTINUOUS
62
5
10
160.756212
20
201.400000
40
0.700000
100
AcDbArc
50
-0.000000
51
89.999999
0
LINE
5
c4
100
AcDbEntity
8
1
100
AcDbLine
6
CONTINUOUS
62
5
10
161.456212
20
201.400000
11
161.456212
21
199.000000
0
ARC
5
c5
100
AcDbEntity
8
1
100
AcDbCircle
6
CONTINUOUS
62
5
10
161.256212
20
199.000000
40
0.200000
100
AcDbArc
50
-89.999999
51
-0.000000
0
LINE
5
c6
100
AcDbEntity
8
1
100
AcDbLine
6
CONTINUOUS
62
5
10
168.214116
20
198.594937
11
169.476348
21
198.500000
0
CIRCLE
5
c7
100
AcDbEntity
8
1
100
AcDbCircle
6
CONTINUOUS
62
5
10
178.000000
20
201.350000
40
0.500000
0
LINE
5
c8
100
AcDbEntity
8
1
100
AcDbLine
6
CONTINUOUS
62
5
10
173.000000
20
199.700000
11
173.500000
21
200.000000
0
LINE
5
c9
100
AcDbEntity
8
1
100
AcDbLine
6
CONTINUOUS
62
5
10
177.500000
20
202.900000
11
177.000000
21
202.400000
0
ARC
5
ca
100
AcDbEntity
8
1
100
AcDbCircle
6
CONTINUOUS
62
5
10
165.352451
20
195.744828
40
0.300000
100
AcDbArc
50
89.999999
51
-179.999920
0
LINE
5
cb
100
AcDbEntity
8
1
100
AcDbLine
6
CONTINUOUS
62
5
10
165.352451
20
196.044828
11
166.084260
21
196.044828
0
ARC
5
cc
100
AcDbEntity
8
1
100
AcDbCircle
6
CONTINUOUS
62
5
10
166.084260
20
195.744828
40
0.300000
100
AcDbArc
50
0.000001
51
89.999999
0
LINE
5
cd
100
AcDbEntity
8
1
100
AcDbLine
6
CONTINUOUS
62
5
10
166.384260
20
195.744828
11
166.384260
21
194.300052
0
POLYLINE
5
ce
100
AcDbEntity
8
1
6
CONTINUOUS
62
5
100
AcDb2dPolyline
66
1
10
0.0
20
0.0
30
0.0
70
0
0
VERTEX
5
cf
100
AcDbEntity
8
1
100
AcDbVertex
100
AcDb2dVertex
62
5
10
161.539813
20
197.100000
0
VERTEX
5
d0
100
AcDbEntity
8
1
100
AcDbVertex
100
AcDb2dVertex
62
5
10
165.052451
20
197.100000
0
VERTEX
5
d1
100
AcDbEntity
8
1
100
AcDbVertex
100
AcDb2dVertex
62
5
10
165.052451
20
195.744828
0
SEQEND
5
d2
100
AcDbEntity
8
1
0
ARC
5
d3
100
AcDbEntity
8
1
100
AcDbCircle
6
CONTINUOUS
62
5
10
170.234455
20
198.200000
40
0.300000
100
AcDbArc
50
0.000000
51
89.999999
0
LINE
5
d4
100
AcDbEntity
8
1
100
AcDbLine
6
CONTINUOUS
62
5
10
170.234455
20
198.500000
11
169.776348
21
198.500000
0
ARC
5
d5
100
AcDbEntity
8
1
100
AcDbCircle
6
CONTINUOUS
62
5
10
169.776348
20
198.200000
40
0.300000
100
AcDbArc
50
89.999999
51
179.999998
0
LINE
5
d6
100
AcDbEntity
8
1
100
AcDbLine
6
CONTINUOUS
62
5
10
169.476348
20
198.200000
11
169.476348
21
193.650000
0
LINE
5
d7
100
AcDbEntity
8
1
100
AcDbLine
6
CONTINUOUS
62
5
10
169.476348
20
195.350000
11
171.729392
21
195.350000
0
ARC
5
d8
100
AcDbEntity
8
1
100
AcDbCircle
6
CONTINUOUS
62
5
10
171.729392
20
195.650000
40
0.300000
100
AcDbArc
50
-89.999999
51
0.000000
0
LINE
5
d9
100
AcDbEntity
8
1
100
AcDbLine
6
CONTINUOUS
62
5
10
172.029392
20
195.650000
11
172.029392
21
196.150000
0
ARC
5
da
100
AcDbEntity
8
1
100
AcDbCircle
6
CONTINUOUS
62
5
10
171.729392
20
196.150000
40
0.300000
100
AcDbArc
50
0.000000
51
89.999999
0
POLYLINE
5
db
100
AcDbEntity
8
1
6
CONTINUOUS
62
5
100
AcDb2dPolyline
66
1
10
0.0
20
0.0
30
0.0
70
0
0
VERTEX
5
dc
100
AcDbEntity
8
1
100
AcDbVertex
100
AcDb2dVertex
62
5
10
171.729392
20
196.450000
0
VERTEX
5
dd
100
AcDbEntity
8
1
100
AcDbVertex
100
AcDb2dVertex
62
5
10
170.534455
20
196.450000
0
VERTEX
5
de
100
AcDbEntity
8
1
100
AcDbVertex
100
AcDb2dVertex
62
5
10
170.534455
20
198.200000
0
SEQEND
5
df
100
AcDbEntity
8
1
0
ARC
5
e0
100
AcDbEntity
8
1
100
AcDbCircle
6
CONTINUOUS
62
5
10
171.693622
20
194.950000
40
0.300000
100
AcDbArc
50
-89.999999
51
-2.925299
0
LINE
5
e1
100
AcDbEntity
8
1
100
AcDbLine
6
CONTINUOUS
62
5
10
171.993231
20
194.934690
11
172.029001
21
195.634690
0
POLYLINE
5
e2
100
AcDbEntity
8
1
6
CONTINUOUS
62
5
100
AcDb2dPolyline
66
1
10
0.0
20
0.0
30
0.0
70
0
0
VERTEX
5
e3
100
AcDbEntity
8
1
100
AcDbVertex
100
AcDb2dVertex
62
5
10
169.476348
20
195.350000
0
VERTEX
5
e4
100
AcDbEntity
8
1
100
AcDbVertex
100
AcDb2dVertex
62
5
10
170.079751
20
194.650000
0
VERTEX
5
e5
100
AcDbEntity
8
1
100
AcDbVertex
100
AcDb2dVertex
62
5
10
171.693622
20
194.650000
0
SEQEND
5
e6
100
AcDbEntity
8
1
0
ARC
5
e7
100
AcDbEntity
8
1
100
AcDbCircle
6
CONTINUOUS
62
5
10
171.778683
20
193.550000
40
0.200000
100
AcDbArc
50
-89.999999
51
0.000000
0
LINE
5
e8
100
AcDbEntity
8
1
100
AcDbLine
6
CONTINUOUS
62
5
10
171.978683
20
193.550000
11
171.978683
21
194.856512
0
LINE
5
e9
100
AcDbEntity
8
1
100
AcDbLine
6
CONTINUOUS
62
5
10
170.561710
20
194.650000
11
170.561710
21
194.600000
0
LINE
5
ea
100
AcDbEntity
8
1
100
AcDbLine
6
CONTINUOUS
62
5
10
171.085036
20
193.350000
11
171.778683
21
193.350000
0
ARC
5
eb
100
AcDbEntity
8
1
100
AcDbCircle
6
CONTINUOUS
62
5
10
165.463893
20
194.300000
40
0.300000
100
AcDbArc
50
89.999999
51
172.041706
0
POLYLINE
5
ec
100
AcDbEntity
8
1
6
CONTINUOUS
62
5
100
AcDb2dPolyline
66
1
10
0.0
20
0.0
30
0.0
70
0
0
VERTEX
5
ed
100
AcDbEntity
8
1
100
AcDbVertex
100
AcDb2dVertex
62
5
10
165.166782
20
194.341536
0
VERTEX
5
ee
100
AcDbEntity
8
1
100
AcDbVertex
100
AcDb2dVertex
62
5
10
164.951278
20
192.800000
0
VERTEX
5
ef
100
AcDbEntity
8
1
100
AcDbVertex
100
AcDb2dVertex
62
5
10
166.384260
20
192.800000
0
VERTEX
5
f0
100
AcDbEntity
8
1
100
AcDbVertex
100
AcDb2dVertex
62
5
10
166.384260
20
194.300000
0
SEQEND
5
f1
100
AcDbEntity
8
1
0
ARC
5
f2
100
AcDbEntity
8
1
100
AcDbCircle
6
CONTINUOUS
62
5
10
166.084260
20
194.300000
40
0.300000
100
AcDbArc
50
0.000000
51
89.999999
0
LINE
5
f3
100
AcDbEntity
8
1
100
AcDbLine
6
CONTINUOUS
62
5
10
166.084260
20
194.600000
11
165.463893
21
194.600000
0
LINE
5
f4
100
AcDbEntity
8
1
100
AcDbLine
6
CONTINUOUS
62
5
10
164.951278
20
195.600000
11
164.951278
21
194.100000
0
LINE
5
f5
100
AcDbEntity
8
1
100
AcDbLine
6
CONTINUOUS
62
5
10
160.600000
20
194.200000
11
160.900000
21
194.500000
0
POLYLINE
5
f6
100
AcDbEntity
8
1
6
CONTINUOUS
62
5
100
AcDb2dPolyline
66
1
10
0.0
20
0.0
30
0.0
70
0
0
VERTEX
5
f7
100
AcDbEntity
8
1
100
AcDbVertex
100
AcDb2dVertex
62
5
10
171.085036
20
194.479017
0
VERTEX
5
f8
100
AcDbEntity
8
1
100
AcDbVertex
100
AcDb2dVertex
62
5
10
171.049980
20
194.450571
0
VERTEX
5
f9
100
AcDbEntity
8
1
100
AcDbVertex
100
AcDb2dVertex
62
5
10
170.944813
20
194.428446
0
VERTEX
5
fa
100
AcDbEntity
8
1
100
AcDbVertex
100
AcDb2dVertex
62
5
10
170.769536
20
194.412643
0
VERTEX
5
fb
100
AcDbEntity
8
1
100
AcDbVertex
100
AcDb2dVertex
62
5
10
170.524147
20
194.403161
0
VERTEX
5
fc
100
AcDbEntity
8
1
100
AcDbVertex
100
AcDb2dVertex
62
5
10
170.208647
20
194.400000
0
SEQEND
5
fd
100
AcDbEntity
8
1
0
POLYLINE
5
fe
100
AcDbEntity
8
1
6
CONTINUOUS
62
5
100
AcDb2dPolyline
66
1
10
0.0
20
0.0
30
0.0
70
0
0
VERTEX
5
ff
100
AcDbEntity
8
1
100
AcDbVertex
100
AcDb2dVertex
62
5
10
170.288276
20
194.600000
0
VERTEX
5
100
100
AcDbEntity
8
1
100
AcDbVertex
100
AcDb2dVertex
62
5
10
170.467109
20
194.595161
0
VERTEX
5
101
100
AcDbEntity
8
1
100
AcDbVertex
100
AcDb2dVertex
62
5
10
170.606202
20
194.580643
0
VERTEX
5
102
100
AcDbEntity
8
1
100
AcDbVertex
100
AcDb2dVertex
62
5
10
170.705553
20
194.556446
0
VERTEX
5
103
100
AcDbEntity
8
1
100
AcDbVertex
100
AcDb2dVertex
62
5
10
170.765164
20
194.522571
0
VERTEX
5
104
100
AcDbEntity
8
1
100
AcDbVertex
100
AcDb2dVertex
62
5
10
170.785035
20
194.479017
0
SEQEND
5
105
100
AcDbEntity
8
1
0
POLYLINE
5
106
100
AcDbEntity
8
1
6
CONTINUOUS
62
5
100
AcDb2dPolyline
66
1
10
0.0
20
0.0
30
0.0
70
0
0
VERTEX
5
107
100
AcDbEntity
8
1
100
AcDbVertex
100
AcDb2dVertex
62
5
10
170.785035
20
194.479017
0
VERTEX
5
108
100
AcDbEntity
8
1
100
AcDbVertex
100
AcDb2dVertex
62
5
10
170.765164
20
194.450571
0
VERTEX
5
109
100
AcDbEntity
8
1
100
AcDbVertex
100
AcDb2dVertex
62
5
10
170.705553
20
194.428446
0
VERTEX
5
10a
100
AcDbEntity
8
1
100
AcDbVertex
100
AcDb2dVertex
62
5
10
170.606202
20
194.412643
0
VERTEX
5
10b
100
AcDbEntity
8
1
100
AcDbVertex
100
AcDb2dVertex
62
5
10
170.467109
20
194.403161
0
VERTEX
5
10c
100
AcDbEntity
8
1
100
AcDbVertex
100
AcDb2dVertex
62
5
10
170.391853
20
194.401831
0
SEQEND
5
10d
100
AcDbEntity
8
1
0
ARC
5
10e
100
AcDbEntity
8
1
100
AcDbCircle
6
CONTINUOUS
62
5
10
165.502915
20
195.700000
40
0.300000
100
AcDbArc
50
89.999999
51
179.999998
0
LINE
5
10f
100
AcDbEntity
8
1
100
AcDbLine
6
CONTINUOUS
62
5
10
165.202915
20
195.700000
11
165.202915
21
194.600000
0
LINE
5
110
100
AcDbEntity
8
1
100
AcDbLine
6
CONTINUOUS
62
5
10
166.384260
20
195.700000
11
166.384260
21
195.700000
0
ARC
5
111
100
AcDbEntity
8
1
100
AcDbCircle
6
CONTINUOUS
62
5
10
166.084260
20
195.700000
40
0.300000
100
AcDbArc
50
0.000000
51
89.999999
0
LINE
5
112
100
AcDbEntity
8
1
100
AcDbLine
6
CONTINUOUS
62
5
10
166.084260
20
196.000000
11
165.502915
21
196.000000
0
POLYLINE
5
113
100
AcDbEntity
8
1
6
CONTINUOUS
62
5
100
AcDb2dPolyline
66
1
10
0.0
20
0.0
30
0.0
70
0
0
VERTEX
5
114
100
AcDbEntity
8
1
100
AcDbVertex
100
AcDb2dVertex
62
5
10
170.587865
20
194.600000
0
VERTEX
5
115
100
AcDbEntity
8
1
100
AcDbVertex
100
AcDb2dVertex
62
5
10
170.766846
20
194.595161
0
VERTEX
5
116
100
AcDbEntity
8
1
100
AcDbVertex
100
AcDb2dVertex
62
5
10
170.906054
20
194.580643
0
VERTEX
5
117
100
AcDbEntity
8
1
100
AcDbVertex
100
AcDb2dVertex
62
5
10
171.005488
20
194.556446
0
VERTEX
5
118
100
AcDbEntity
8
1
100
AcDbVertex
100
AcDb2dVertex
62
5
10
171.065149
20
194.522571
0
VERTEX
5
119
100
AcDbEntity
8
1
100
AcDbVertex
100
AcDb2dVertex
62
5
10
171.085036
20
194.479017
0
SEQEND
5
11a
100
AcDbEntity
8
1
0
LINE
5
11b
100
AcDbEntity
8
1
100
AcDbLine
6
CONTINUOUS
62
5
10
180.000000
20
196.700000
11
179.500000
21
197.000000
0
ARC
5
11c
100
AcDbEntity
8
1
100
AcDbCircle
6
CONTINUOUS
62
5
10
180.500000
20
202.400000
40
0.500000
100
AcDbArc
50
0.000000
51
89.999999
0
LINE
5
11d
100
AcDbEntity
8
1
100
AcDbLine
6
CONTINUOUS
62
5
10
179.500000
20
202.900000
11
180.500000
21
202.900000
0
LINE
5
11e
100
AcDbEntity
8
1
100
AcDbLine
6
CONTINUOUS
62
5
10
180.000000
20
200.100000
11
179.500000
21
199.800000
0
LINE
5
11f
100
AcDbEntity
8
1
100
AcDbLine
6
CONTINUOUS
62
5
10
181.500000
20
183.800000
11
181.500000
21
190.300000
0
ARC
5
120
100
AcDbEntity
8
1
100
AcDbCircle
6
CONTINUOUS
62
5
10
170.234455
20
186.000000
40
0.300000
100
AcDbArc
50
-89.999999
51
0.000000
0
LINE
5
121
100
AcDbEntity
8
1
100
AcDbLine
6
CONTINUOUS
62
5
10
170.234455
20
185.700000
11
169.776348
21
185.700000
0
ARC
5
122
100
AcDbEntity
8
1
100
AcDbCircle
6
CONTINUOUS
62
5
10
169.776348
20
186.000000
40
0.300000
100
AcDbArc
50
179.999998
51
-89.999999
0
LINE
5
123
100
AcDbEntity
8
1
100
AcDbLine
6
CONTINUOUS
62
5
10
169.476348
20
186.000000
11
169.476348
21
190.550000
0
LINE
5
124
100
AcDbEntity
8
1
100
AcDbLine
6
CONTINUOUS
62
5
10
169.476348
20
188.850000
11
171.729392
21
188.850000
0
ARC
5
125
100
AcDbEntity
8
1
100
AcDbCircle
6
CONTINUOUS
62
5
10
171.729392
20
188.550000
40
0.300000
100
AcDbArc
50
0.000000
51
89.999999
0
LINE
5
126
100
AcDbEntity
8
1
100
AcDbLine
6
CONTINUOUS
62
5
10
172.029392
20
188.550000
11
172.029392
21
188.050000
0
ARC
5
127
100
AcDbEntity
8
1
100
AcDbCircle
6
CONTINUOUS
62
5
10
171.729392
20
188.050000
40
0.300000
100
AcDbArc
50
-89.999999
51
0.000000
0
POLYLINE
5
128
100
AcDbEntity
8
1
6
CONTINUOUS
62
5
100
AcDb2dPolyline
66
1
10
0.0
20
0.0
30
0.0
70
0
0
VERTEX
5
129
100
AcDbEntity
8
1
100
AcDbVertex
100
AcDb2dVertex
62
5
10
171.729392
20
187.750000
0
VERTEX
5
12a
100
AcDbEntity
8
1
100
AcDbVertex
100
AcDb2dVertex
62
5
10
170.534455
20
187.750000
0
VERTEX
5
12b
100
AcDbEntity
8
1
100
AcDbVertex
100
AcDb2dVertex
62
5
10
170.534455
20
186.000000
0
SEQEND
5
12c
100
AcDbEntity
8
1
0
ARC
5
12d
100
AcDbEntity
8
1
100
AcDbCircle
6
CONTINUOUS
62
5
10
170.211778
20
185.850000
40
0.300000
100
AcDbArc
50
-89.999999
51
-8.596736
0
LINE
5
12e
100
AcDbEntity
8
1
100
AcDbLine
6
CONTINUOUS
62
5
10
170.211778
20
185.550000
11
171.278683
21
185.550000
0
ARC
5
12f
100
AcDbEntity
8
1
100
AcDbCircle
6
CONTINUOUS
62
5
10
171.278683
20
186.250000
40
0.700000
100
AcDbArc
50
-90.000001
51
0.000002
0
LINE
5
130
100
AcDbEntity
8
1
100
AcDbLine
6
CONTINUOUS
62
5
10
170.531084
20
185.955156
11
170.508408
21
185.805156
0
ARC
5
131
100
AcDbEntity
8
1
100
AcDbCircle
6
CONTINUOUS
62
5
10
171.693622
20
189.250000
40
0.300000
100
AcDbArc
50
2.925299
51
89.999999
0
LINE
5
132
100
AcDbEntity
8
1
100
AcDbLine
6
CONTINUOUS
62
5
10
171.993231
20
189.265310
11
172.029001
21
188.565310
0
POLYLINE
5
133
100
AcDbEntity
8
1
6
CONTINUOUS
62
5
100
AcDb2dPolyline
66
1
10
0.0
20
0.0
30
0.0
70
0
0
VERTEX
5
134
100
AcDbEntity
8
1
100
AcDbVertex
100
AcDb2dVertex
62
5
10
169.476348
20
188.850000
0
VERTEX
5
135
100
AcDbEntity
8
1
100
AcDbVertex
100
AcDb2dVertex
62
5
10
170.079751
20
189.550000
0
VERTEX
5
136
100
AcDbEntity
8
1
100
AcDbVertex
100
AcDb2dVertex
62
5
10
171.693622
20
189.550000
0
SEQEND
5
137
100
AcDbEntity
8
1
0
ARC
5
138
100
AcDbEntity
8
1
100
AcDbCircle
6
CONTINUOUS
62
5
10
171.693622
20
187.350000
40
0.300000
100
AcDbArc
50
-89.999999
51
-2.925299
0
LINE
5
139
100
AcDbEntity
8
1
100
AcDbLine
6
CONTINUOUS
62
5
10
171.993231
20
187.334690
11
172.029001
21
188.034690
0
LINE
5
13a
100
AcDbEntity
8
1
100
AcDbLine
6
CONTINUOUS
62
5
10
170.534455
20
187.050000
11
171.693622
21
187.050000
0
ARC
5
13b
100
AcDbEntity
8
1
100
AcDbCircle
6
CONTINUOUS
62
5
10
165.352451
20
188.455172
40
0.300000
100
AcDbArc
50
-179.999998
51
-89.999999
0
LINE
5
13c
100
AcDbEntity
8
1
100
AcDbLine
6
CONTINUOUS
62
5
10
165.352451
20
188.155172
11
166.084260
21
188.155172
0
ARC
5
13d
100
AcDbEntity
8
1
100
AcDbCircle
6
CONTINUOUS
62
5
10
166.084260
20
188.455172
40
0.300000
100
AcDbArc
50
-89.999999
51
0.000000
0
LINE
5
13e
100
AcDbEntity
8
1
100
AcDbLine
6
CONTINUOUS
62
5
10
166.384260
20
188.455172
11
166.384260
21
189.900000
0
POLYLINE
5
13f
100
AcDbEntity
8
1
6
CONTINUOUS
62
5
100
AcDb2dPolyline
66
1
10
0.0
20
0.0
30
0.0
70
0
0
VERTEX
5
140
100
AcDbEntity
8
1
100
AcDbVertex
100
AcDb2dVertex
62
5
10
161.539813
20
187.100000
0
VERTEX
5
141
100
AcDbEntity
8
1
100
AcDbVertex
100
AcDb2dVertex
62
5
10
165.052451
20
187.100000
0
VERTEX
5
142
100
AcDbEntity
8
1
100
AcDbVertex
100
AcDb2dVertex
62
5
10
165.052451
20
188.455172
0
SEQEND
5
143
100
AcDbEntity
8
1
0
LINE
5
144
100
AcDbEntity
8
1
100
AcDbLine
6
CONTINUOUS
62
5
10
164.951278
20
188.600000
11
164.951278
21
187.100000
0
ARC
5
145
100
AcDbEntity
8
1
100
AcDbCircle
6
CONTINUOUS
62
5
10
160.756212
20
182.800000
40
0.700000
100
AcDbArc
50
-89.999999
51
-0.000000
0
LINE
5
146
100
AcDbEntity
8
1
100
AcDbLine
6
CONTINUOUS
62
5
10
161.456212
20
182.800000
11
161.456212
21
185.200000
0
ARC
5
147
100
AcDbEntity
8
1
100
AcDbCircle
6
CONTINUOUS
62
5
10
161.256212
20
185.200000
40
0.200000
100
AcDbArc
50
0.000000
51
89.999999
0
LINE
5
148
100
AcDbEntity
8
1
100
AcDbLine
6
CONTINUOUS
62
5
10
168.214116
20
185.605063
11
169.476348
21
185.700000
0
LINE
5
149
100
AcDbEntity
8
1
100
AcDbLine
6
CONTINUOUS
62
5
10
164.951278
20
188.600000
11
164.951278
21
190.100000
0
LINE
5
14a
100
AcDbEntity
8
1
100
AcDbLine
6
CONTINUOUS
62
5
10
160.600000
20
190.000000
11
160.900000
21
189.700000
0
POLYLINE
5
14b
100
AcDbEntity
8
1
6
CONTINUOUS
62
5
100
AcDb2dPolyline
66
1
10
0.0
20
0.0
30
0.0
70
0
0
VERTEX
5
14c
100
AcDbEntity
8
1
100
AcDbVertex
100
AcDb2dVertex
62
5
10
171.085036
20
189.720983
0
VERTEX
5
14d
100
AcDbEntity
8
1
100
AcDbVertex
100
AcDb2dVertex
62
5
10
171.049980
20
189.749429
0
VERTEX
5
14e
100
AcDbEntity
8
1
100
AcDbVertex
100
AcDb2dVertex
62
5
10
170.944813
20
189.771554
0
VERTEX
5
14f
100
AcDbEntity
8
1
100
AcDbVertex
100
AcDb2dVertex
62
5
10
170.769536
20
189.787357
0
VERTEX
5
150
100
AcDbEntity
8
1
100
AcDbVertex
100
AcDb2dVertex
62
5
10
170.524147
20
189.796839
0
VERTEX
5
151
100
AcDbEntity
8
1
100
AcDbVertex
100
AcDb2dVertex
62
5
10
170.208647
20
189.800000
0
SEQEND
5
152
100
AcDbEntity
8
1
0
POLYLINE
5
153
100
AcDbEntity
8
1
6
CONTINUOUS
62
5
100
AcDb2dPolyline
66
1
10
0.0
20
0.0
30
0.0
70
0
0
VERTEX
5
154
100
AcDbEntity
8
1
100
AcDbVertex
100
AcDb2dVertex
62
5
10
170.288276
20
189.600000
0
VERTEX
5
155
100
AcDbEntity
8
1
100
AcDbVertex
100
AcDb2dVertex
62
5
10
170.467109
20
189.604839
0
VERTEX
5
156
100
AcDbEntity
8
1
100
AcDbVertex
100
AcDb2dVertex
62
5
10
170.606202
20
189.619357
0
VERTEX
5
157
100
AcDbEntity
8
1
100
AcDbVertex
100
AcDb2dVertex
62
5
10
170.705553
20
189.643554
0
VERTEX
5
158
100
AcDbEntity
8
1
100
AcDbVertex
100
AcDb2dVertex
62
5
10
170.765164
20
189.677429
0
VERTEX
5
159
100
AcDbEntity
8
1
100
AcDbVertex
100
AcDb2dVertex
62
5
10
170.785035
20
189.720983
0
SEQEND
5
15a
100
AcDbEntity
8
1
0
POLYLINE
5
15b
100
AcDbEntity
8
1
6
CONTINUOUS
62
5
100
AcDb2dPolyline
66
1
10
0.0
20
0.0
30
0.0
70
0
0
VERTEX
5
15c
100
AcDbEntity
8
1
100
AcDbVertex
100
AcDb2dVertex
62
5
10
170.785035
20
189.720983
0
VERTEX
5
15d
100
AcDbEntity
8
1
100
AcDbVertex
100
AcDb2dVertex
62
5
10
170.765164
20
189.749429
0
VERTEX
5
15e
100
AcDbEntity
8
1
100
AcDbVertex
100
AcDb2dVertex
62
5
10
170.705553
20
189.771554
0
VERTEX
5
15f
100
AcDbEntity
8
1
100
AcDbVertex
100
AcDb2dVertex
62
5
10
170.606202
20
189.787357
0
VERTEX
5
160
100
AcDbEntity
8
1
100
AcDbVertex
100
AcDb2dVertex
62
5
10
170.467109
20
189.796839
0
VERTEX
5
161
100
AcDbEntity
8
1
100
AcDbVertex
100
AcDb2dVertex
62
5
10
170.392986
20
189.798149
0
SEQEND
5
162
100
AcDbEntity
8
1
0
ARC
5
163
100
AcDbEntity
8
1
100
AcDbCircle
6
CONTINUOUS
62
5
10
165.502915
20
188.500000
40
0.300000
100
AcDbArc
50
179.999998
51
-89.999999
0
LINE
5
164
100
AcDbEntity
8
1
100
AcDbLine
6
CONTINUOUS
62
5
10
165.502915
20
188.200000
11
166.084260
21
188.200000
0
ARC
5
165
100
AcDbEntity
8
1
100
AcDbCircle
6
CONTINUOUS
62
5
10
166.084260
20
188.500000
40
0.300000
100
AcDbArc
50
-89.999999
51
0.000000
0
LINE
5
166
100
AcDbEntity
8
1
100
AcDbLine
6
CONTINUOUS
62
5
10
166.384260
20
188.500000
11
166.384260
21
188.500000
0
LINE
5
167
100
AcDbEntity
8
1
100
AcDbLine
6
CONTINUOUS
62
5
10
165.202915
20
189.600000
11
165.202915
21
188.500000
0
POLYLINE
5
168
100
AcDbEntity
8
1
6
CONTINUOUS
62
5
100
AcDb2dPolyline
66
1
10
0.0
20
0.0
30
0.0
70
0
0
VERTEX
5
169
100
AcDbEntity
8
1
100
AcDbVertex
100
AcDb2dVertex
62
5
10
170.587865
20
189.600000
0
VERTEX
5
16a
100
AcDbEntity
8
1
100
AcDbVertex
100
AcDb2dVertex
62
5
10
170.766846
20
189.604839
0
VERTEX
5
16b
100
AcDbEntity
8
1
100
AcDbVertex
100
AcDb2dVertex
62
5
10
170.906054
20
189.619357
0
VERTEX
5
16c
100
AcDbEntity
8
1
100
AcDbVertex
100
AcDb2dVertex
62
5
10
171.005488
20
189.643554
0
VERTEX
5
16d
100
AcDbEntity
8
1
100
AcDbVertex
100
AcDb2dVertex
62
5
10
171.065149
20
189.677429
0
VERTEX
5
16e
100
AcDbEntity
8
1
100
AcDbVertex
100
AcDb2dVertex
62
5
10
171.085036
20
189.720983
0
SEQEND
5
16f
100
AcDbEntity
8
1
0
CIRCLE
5
170
100
AcDbEntity
8
1
100
AcDbCircle
6
CONTINUOUS
62
5
10
178.000000
20
182.850000
40
0.500000
0
LINE
5
171
100
AcDbEntity
8
1
100
AcDbLine
6
CONTINUOUS
62
5
10
173.000000
20
184.500000
11
173.500000
21
184.200000
0
LINE
5
172
100
AcDbEntity
8
1
100
AcDbLine
6
CONTINUOUS
62
5
10
177.500000
20
181.300000
11
177.000000
21
181.800000
0
LINE
5
173
100
AcDbEntity
8
1
100
AcDbLine
6
CONTINUOUS
62
5
10
173.700000
20
188.850000
11
173.861572
21
188.550000
0
ARC
5
174
100
AcDbEntity
8
1
100
AcDbCircle
6
CONTINUOUS
62
5
10
180.500000
20
181.800000
40
0.500000
100
AcDbArc
50
-89.999999
51
0.000001
0
LINE
5
175
100
AcDbEntity
8
1
100
AcDbLine
6
CONTINUOUS
62
5
10
179.500000
20
181.300000
11
180.500000
21
181.300000
0
LINE
5
176
100
AcDbEntity
8
1
100
AcDbLine
6
CONTINUOUS
62
5
10
180.000000
20
184.100000
11
179.500000
21
184.400000
0
LINE
5
177
100
AcDbEntity
8
1
100
AcDbLine
6
CONTINUOUS
62
5
10
180.000000
20
187.500000
11
179.500000
21
187.200000
0
ARC
5
178
100
AcDbEntity
8
1
100
AcDbCircle
6
CONTINUOUS
62
5
10
171.778683
20
190.650000
40
0.200000
100
AcDbArc
50
0.000000
51
89.999999
0
LINE
5
179
100
AcDbEntity
8
1
100
AcDbLine
6
CONTINUOUS
62
5
10
171.778683
20
190.850000
11
171.085036
21
190.850000
0
LINE
5
17a
100
AcDbEntity
8
1
100
AcDbLine
6
CONTINUOUS
62
5
10
170.561710
20
189.600000
11
170.561710
21
189.550000
0
LINE
5
17b
100
AcDbEntity
8
1
100
AcDbLine
6
CONTINUOUS
62
5
10
171.978683
20
189.343488
11
171.978683
21
190.650000
0
ARC
5
17c
100
AcDbEntity
8
1
100
AcDbCircle
6
CONTINUOUS
62
5
10
165.463893
20
189.900000
40
0.300000
100
AcDbArc
50
-172.041706
51
-89.999999
0
LINE
5
17d
100
AcDbEntity
8
1
100
AcDbLine
6
CONTINUOUS
62
5
10
165.463893
20
189.600000
11
166.084260
21
189.600000
0
ARC
5
17e
100
AcDbEntity
8
1
100
AcDbCircle
6
CONTINUOUS
62
5
10
166.084260
20
189.900000
40
0.300000
100
AcDbArc
50
-89.999999
51
0.000000
0
POLYLINE
5
17f
100
AcDbEntity
8
1
6
CONTINUOUS
62
5
100
AcDb2dPolyline
66
1
10
0.0
20
0.0
30
0.0
70
0
0
VERTEX
5
180
100
AcDbEntity
8
1
100
AcDbVertex
100
AcDb2dVertex
62
5
10
166.384260
20
189.900000
0
VERTEX
5
181
100
AcDbEntity
8
1
100
AcDbVertex
100
AcDb2dVertex
62
5
10
166.384260
20
191.400000
0
VERTEX
5
182
100
AcDbEntity
8
1
100
AcDbVertex
100
AcDb2dVertex
62
5
10
164.951278
20
191.400000
0
VERTEX
5
183
100
AcDbEntity
8
1
100
AcDbVertex
100
AcDb2dVertex
62
5
10
165.166782
20
189.858464
0
SEQEND
5
184
100
AcDbEntity
8
1
0
LINE
5
185
100
AcDbEntity
8
1
100
AcDbLine
6
CONTINUOUS
62
5
10
164.951278
20
191.400000
11
164.951278
21
192.800000
0
ARC
5
186
100
AcDbEntity
8
1
100
AcDbCircle
6
CONTINUOUS
62
5
10
169.439684
20
193.650000
40
0.300000
100
AcDbArc
50
-89.999999
51
0.000000
0
LINE
5
187
100
AcDbEntity
8
1
100
AcDbLine
6
CONTINUOUS
62
5
10
169.439684
20
193.350000
11
168.924799
21
193.350000
0
ARC
5
188
100
AcDbEntity
8
1
100
AcDbCircle
6
CONTINUOUS
62
5
10
168.924799
20
193.650000
40
0.300000
100
AcDbArc
50
179.999998
51
-89.999999
0
POLYLINE
5
189
100
AcDbEntity
8
1
6
CONTINUOUS
62
5
100
AcDb2dPolyline
66
1
10
0.0
20
0.0
30
0.0
70
0
0
VERTEX
5
18a
100
AcDbEntity
8
1
100
AcDbVertex
100
AcDb2dVertex
62
5
10
168.624799
20
193.650000
0
VERTEX
5
18b
100
AcDbEntity
8
1
100
AcDbVertex
100
AcDb2dVertex
62
5
10
168.624799
20
193.650000
0
VERTEX
5
18c
100
AcDbEntity
8
1
100
AcDbVertex
100
AcDb2dVertex
62
5
10
168.624799
20
190.550000
0
VERTEX
5
18d
100
AcDbEntity
8
1
100
AcDbVertex
100
AcDb2dVertex
62
5
10
168.624799
20
190.550000
0
SEQEND
5
18e
100
AcDbEntity
8
1
0
ARC
5
18f
100
AcDbEntity
8
1
100
AcDbCircle
6
CONTINUOUS
62
5
10
168.924799
20
190.550000
40
0.300000
100
AcDbArc
50
89.999999
51
179.999998
0
LINE
5
190
100
AcDbEntity
8
1
100
AcDbLine
6
CONTINUOUS
62
5
10
168.924799
20
190.850000
11
169.439684
21
190.850000
0
ARC
5
191
100
AcDbEntity
8
1
100
AcDbCircle
6
CONTINUOUS
62
5
10
169.439684
20
190.550000
40
0.300000
100
AcDbArc
50
0.000000
51
89.999999
0
POLYLINE
5
192
100
AcDbEntity
8
1
6
CONTINUOUS
62
5
100
AcDb2dPolyline
66
1
10
0.0
20
0.0
30
0.0
70
0
0
VERTEX
5
193
100
AcDbEntity
8
1
100
AcDbVertex
100
AcDb2dVertex
62
5
10
169.739684
20
190.550000
0
VERTEX
5
194
100
AcDbEntity
8
1
100
AcDbVertex
100
AcDb2dVertex
62
5
10
169.739684
20
190.550000
0
VERTEX
5
195
100
AcDbEntity
8
1
100
AcDbVertex
100
AcDb2dVertex
62
5
10
169.739684
20
193.650000
0
VERTEX
5
196
100
AcDbEntity
8
1
100
AcDbVertex
100
AcDb2dVertex
62
5
10
169.739684
20
193.650000
0
SEQEND
5
197
100
AcDbEntity
8
1
0
CIRCLE
5
198
100
AcDbEntity
8
1
100
AcDbCircle
6
CONTINUOUS
62
5
10
177.500000
20
192.100000
40
1.500000
0
ARC
5
199
100
AcDbEntity
8
1
100
AcDbCircle
6
CONTINUOUS
62
5
10
177.000000
20
181.250000
40
0.500000
100
AcDbArc
50
-89.999999
51
0.000000
0
POLYLINE
5
19a
100
AcDbEntity
8
1
6
CONTINUOUS
62
5
100
AcDb2dPolyline
66
1
10
0.0
20
0.0
30
0.0
70
0
0
VERTEX
5
19b
100
AcDbEntity
8
1
100
AcDbVertex
100
AcDb2dVertex
62
5
10
177.500000
20
181.250000
0
VERTEX
5
19c
100
AcDbEntity
8
1
100
AcDbVertex
100
AcDb2dVertex
62
5
10
177.500000
20
181.300000
0
VERTEX
5
19d
100
AcDbEntity
8
1
100
AcDbVertex
100
AcDb2dVertex
62
5
10
179.500000
20
181.300000
0
SEQEND
5
19e
100
AcDbEntity
8
1
0
ARC
5
19f
100
AcDbEntity
8
1
100
AcDbCircle
6
CONTINUOUS
62
5
10
179.500000
20
181.800000
40
0.500000
100
AcDbArc
50
-89.999999
51
-0.000000
0
POLYLINE
5
1a0
100
AcDbEntity
8
1
6
CONTINUOUS
62
5
100
AcDb2dPolyline
66
1
10
0.0
20
0.0
30
0.0
70
0
0
VERTEX
5
1a1
100
AcDbEntity
8
1
100
AcDbVertex
100
AcDb2dVertex
62
5
10
180.000000
20
181.800000
0
VERTEX
5
1a2
100
AcDbEntity
8
1
100
AcDbVertex
100
AcDb2dVertex
62
5
10
180.000000
20
184.100000
0
VERTEX
5
1a3
100
AcDbEntity
8
1
100
AcDbVertex
100
AcDb2dVertex
62
5
10
180.700000
20
184.100000
0
SEQEND
5
1a4
100
AcDbEntity
8
1
0
ARC
5
1a5
100
AcDbEntity
8
1
100
AcDbCircle
6
CONTINUOUS
62
5
10
180.700000
20
184.400000
40
0.300000
100
AcDbArc
50
-89.999999
51
0.000000
0
LINE
5
1a6
100
AcDbEntity
8
1
100
AcDbLine
6
CONTINUOUS
62
5
10
181.000000
20
184.400000
11
181.000000
21
187.200000
0
ARC
5
1a7
100
AcDbEntity
8
1
100
AcDbCircle
6
CONTINUOUS
62
5
10
180.700000
20
187.200000
40
0.300000
100
AcDbArc
50
-0.000000
51
89.999999
0
POLYLINE
5
1a8
100
AcDbEntity
8
1
6
CONTINUOUS
62
5
100
AcDb2dPolyline
66
1
10
0.0
20
0.0
30
0.0
70
0
0
VERTEX
5
1a9
100
AcDbEntity
8
1
100
AcDbVertex
100
AcDb2dVertex
62
5
10
180.700000
20
187.500000
0
VERTEX
5
1aa
100
AcDbEntity
8
1
100
AcDbVertex
100
AcDb2dVertex
62
5
10
180.000000
20
187.500000
0
VERTEX
5
1ab
100
AcDbEntity
8
1
100
AcDbVertex
100
AcDb2dVertex
62
5
10
180.000000
20
196.700000
0
VERTEX
5
1ac
100
AcDbEntity
8
1
100
AcDbVertex
100
AcDb2dVertex
62
5
10
180.700000
20
196.700000
0
SEQEND
5
1ad
100
AcDbEntity
8
1
0
ARC
5
1ae
100
AcDbEntity
8
1
100
AcDbCircle
6
CONTINUOUS
62
5
10
180.700000
20
197.000000
40
0.300000
100
AcDbArc
50
-89.999999
51
-0.000000
0
LINE
5
1af
100
AcDbEntity
8
1
100
AcDbLine
6
CONTINUOUS
62
5
10
181.000000
20
197.000000
11
181.000000
21
199.800000
0
ARC
5
1b0
100
AcDbEntity
8
1
100
AcDbCircle
6
CONTINUOUS
62
5
10
180.700000
20
199.800000
40
0.300000
100
AcDbArc
50
0.000000
51
89.999999
0
POLYLINE
5
1b1
100
AcDbEntity
8
1
6
CONTINUOUS
62
5
100
AcDb2dPolyline
66
1
10
0.0
20
0.0
30
0.0
70
0
0
VERTEX
5
1b2
100
AcDbEntity
8
1
100
AcDbVertex
100
AcDb2dVertex
62
5
10
180.700000
20
200.100000
0
VERTEX
5
1b3
100
AcDbEntity
8
1
100
AcDbVertex
100
AcDb2dVertex
62
5
10
180.000000
20
200.100000
0
VERTEX
5
1b4
100
AcDbEntity
8
1
100
AcDbVertex
100
AcDb2dVertex
62
5
10
180.000000
20
202.400000
0
SEQEND
5
1b5
100
AcDbEntity
8
1
0
ARC
5
1b6
100
AcDbEntity
8
1
100
AcDbCircle
6
CONTINUOUS
62
5
10
179.500000
20
202.400000
40
0.500000
100
AcDbArc
50
0.000000
51
89.999999
0
POLYLINE
5
1b7
100
AcDbEntity
8
1
6
CONTINUOUS
62
5
100
AcDb2dPolyline
66
1
10
0.0
20
0.0
30
0.0
70
0
0
VERTEX
5
1b8
100
AcDbEntity
8
1
100
AcDbVertex
100
AcDb2dVertex
62
5
10
179.500000
20
202.900000
0
VERTEX
5
1b9
100
AcDbEntity
8
1
100
AcDbVertex
100
AcDb2dVertex
62
5
10
177.500000
20
202.900000
0
VERTEX
5
1ba
100
AcDbEntity
8
1
100
AcDbVertex
100
AcDb2dVertex
62
5
10
177.500000
20
202.950000
0
SEQEND
5
1bb
100
AcDbEntity
8
1
0
ARC
5
1bc
100
AcDbEntity
8
1
100
AcDbCircle
6
CONTINUOUS
62
5
10
177.000000
20
202.950000
40
0.500000
100
AcDbArc
50
-0.000000
51
89.999999
0
LINE
5
1bd
100
AcDbEntity
8
1
100
AcDbLine
6
CONTINUOUS
62
5
10
177.000000
20
203.450000
11
173.300000
21
203.450000
0
LINE
5
1be
100
AcDbEntity
8
1
100
AcDbLine
6
CONTINUOUS
62
5
10
173.300000
20
180.750000
11
177.000000
21
180.750000
0
ARC
5
1bf
100
AcDbEntity
8
1
100
AcDbCircle
6
CONTINUOUS
62
5
10
173.500000
20
201.600000
40
0.500000
100
AcDbArc
50
-0.000000
51
89.999999
0
LINE
5
1c0
100
AcDbEntity
8
1
100
AcDbLine
6
CONTINUOUS
62
5
10
173.500000
20
202.100000
11
172.750000
21
202.100000
0
ARC
5
1c1
100
AcDbEntity
8
1
100
AcDbCircle
6
CONTINUOUS
62
5
10
172.750000
20
201.600000
40
0.500000
100
AcDbArc
50
89.999999
51
179.999998
0
LINE
5
1c2
100
AcDbEntity
8
1
100
AcDbLine
6
CONTINUOUS
62
5
10
172.250000
20
201.600000
11
172.250000
21
200.000000
0
ARC
5
1c3
100
AcDbEntity
8
1
100
AcDbCircle
6
CONTINUOUS
62
5
10
172.550000
20
200.000000
40
0.300000
100
AcDbArc
50
179.999998
51
-89.999999
0
POLYLINE
5
1c4
100
AcDbEntity
8
1
6
CONTINUOUS
62
5
100
AcDb2dPolyline
66
1
10
0.0
20
0.0
30
0.0
70
0
0
VERTEX
5
1c5
100
AcDbEntity
8
1
100
AcDbVertex
100
AcDb2dVertex
62
5
10
172.550000
20
199.700000
0
VERTEX
5
1c6
100
AcDbEntity
8
1
100
AcDbVertex
100
AcDb2dVertex
62
5
10
173.000000
20
199.700000
0
VERTEX
5
1c7
100
AcDbEntity
8
1
100
AcDbVertex
100
AcDb2dVertex
62
5
10
173.000000
20
196.950000
0
SEQEND
5
1c8
100
AcDbEntity
8
1
0
POLYLINE
5
1c9
100
AcDbEntity
8
1
6
CONTINUOUS
62
5
100
AcDb2dPolyline
66
1
10
0.0
20
0.0
30
0.0
70
0
0
VERTEX
5
1ca
100
AcDbEntity
8
1
100
AcDbVertex
100
AcDb2dVertex
62
5
10
173.000000
20
187.250000
0
VERTEX
5
1cb
100
AcDbEntity
8
1
100
AcDbVertex
100
AcDb2dVertex
62
5
10
173.000000
20
184.500000
0
VERTEX
5
1cc
100
AcDbEntity
8
1
100
AcDbVertex
100
AcDb2dVertex
62
5
10
172.550000
20
184.500000
0
SEQEND
5
1cd
100
AcDbEntity
8
1
0
ARC
5
1ce
100
AcDbEntity
8
1
100
AcDbCircle
6
CONTINUOUS
62
5
10
172.550000
20
184.200000
40
0.300000
100
AcDbArc
50
89.999999
51
-179.999998
0
LINE
5
1cf
100
AcDbEntity
8
1
100
AcDbLine
6
CONTINUOUS
62
5
10
172.250000
20
184.200000
11
172.250000
21
182.600000
0
ARC
5
1d0
100
AcDbEntity
8
1
100
AcDbCircle
6
CONTINUOUS
62
5
10
172.750000
20
182.600000
40
0.500000
100
AcDbArc
50
179.999998
51
-89.999999
0
LINE
5
1d1
100
AcDbEntity
8
1
100
AcDbLine
6
CONTINUOUS
62
5
10
172.750000
20
182.100000
11
173.500000
21
182.100000
0
ARC
5
1d2
100
AcDbEntity
8
1
100
AcDbCircle
6
CONTINUOUS
62
5
10
173.500000
20
182.600000
40
0.500000
100
AcDbArc
50
-89.999999
51
-0.000000
0
LINE
5
1d3
100
AcDbEntity
8
1
100
AcDbLine
6
CONTINUOUS
62
5
10
174.000000
20
182.600000
11
174.000000
21
187.251960
0
LINE
5
1d4
100
AcDbEntity
8
1
100
AcDbLine
6
CONTINUOUS
62
5
10
174.000000
20
196.948040
11
174.000000
21
201.600000
0
ARC
5
1d5
100
AcDbEntity
8
1
100
AcDbCircle
6
CONTINUOUS
62
5
10
172.550000
20
189.050000
40
0.300000
100
AcDbArc
50
65.241368
51
179.999998
0
LINE
5
1d6
100
AcDbEntity
8
1
100
AcDbLine
6
CONTINUOUS
62
5
10
172.250000
20
189.050000
11
172.250000
21
187.550000
0
ARC
5
1d7
100
AcDbEntity
8
1
100
AcDbCircle
6
CONTINUOUS
62
5
10
172.550000
20
187.550000
40
0.300000
100
AcDbArc
50
179.999998
51
-89.999999
0
LINE
5
1d8
100
AcDbEntity
8
1
100
AcDbLine
6
CONTINUOUS
62
5
10
172.550000
20
187.250000
11
173.965767
21
187.250000
0
ARC
5
1d9
100
AcDbEntity
8
1
100
AcDbCircle
6
CONTINUOUS
62
5
10
173.965767
20
187.550000
40
0.300000
100
AcDbArc
50
-89.999999
51
-14.036243
0
LINE
5
1da
100
AcDbEntity
8
1
100
AcDbLine
6
CONTINUOUS
62
5
10
174.256810
20
187.477239
11
174.570143
21
188.730570
0
ARC
5
1db
100
AcDbEntity
8
1
100
AcDbCircle
6
CONTINUOUS
62
5
10
173.600000
20
188.973106
40
1.000000
100
AcDbArc
50
-14.036243
51
0.000000
0
LINE
5
1dc
100
AcDbEntity
8
1
100
AcDbLine
6
CONTINUOUS
62
5
10
174.600000
20
188.973106
11
174.600000
21
195.226894
0
ARC
5
1dd
100
AcDbEntity
8
1
100
AcDbCircle
6
CONTINUOUS
62
5
10
173.600000
20
195.226894
40
1.000000
100
AcDbArc
50
0.000000
51
14.036243
0
LINE
5
1de
100
AcDbEntity
8
1
100
AcDbLine
6
CONTINUOUS
62
5
10
174.570143
20
195.469430
11
174.256810
21
196.722761
0
ARC
5
1df
100
AcDbEntity
8
1
100
AcDbCircle
6
CONTINUOUS
62
5
10
173.965767
20
196.650000
40
0.300000
100
AcDbArc
50
14.036243
51
89.999999
0
LINE
5
1e0
100
AcDbEntity
8
1
100
AcDbLine
6
CONTINUOUS
62
5
10
173.965767
20
196.950000
11
172.550000
21
196.950000
0
ARC
5
1e1
100
AcDbEntity
8
1
100
AcDbCircle
6
CONTINUOUS
62
5
10
172.550000
20
196.650000
40
0.300000
100
AcDbArc
50
89.999999
51
179.999998
0
LINE
5
1e2
100
AcDbEntity
8
1
100
AcDbLine
6
CONTINUOUS
62
5
10
172.250000
20
196.650000
11
172.250000
21
195.150000
0
ARC
5
1e3
100
AcDbEntity
8
1
100
AcDbCircle
6
CONTINUOUS
62
5
10
172.550000
20
195.150000
40
0.300000
100
AcDbArc
50
-179.999998
51
-65.241368
0
LINE
5
1e4
100
AcDbEntity
8
1
100
AcDbLine
6
CONTINUOUS
62
5
10
172.675639
20
194.877576
11
173.700000
21
195.350000
0
LINE
5
1e5
100
AcDbEntity
8
1
100
AcDbLine
6
CONTINUOUS
62
5
10
173.700000
20
188.850000
11
172.675639
21
189.322424
0
LINE
5
1e6
100
AcDbEntity
8
1
100
AcDbLine
6
CONTINUOUS
62
5
10
168.246756
20
197.100000
11
168.246756
21
187.100000
0
POLYLINE
5
1e7
100
AcDbEntity
8
1
6
CONTINUOUS
62
5
100
AcDb2dPolyline
66
1
10
0.0
20
0.0
30
0.0
70
0
0
VERTEX
5
1e8
100
AcDbEntity
8
1
100
AcDbVertex
100
AcDb2dVertex
62
5
10
166.384260
20
195.744828
0
VERTEX
5
1e9
100
AcDbEntity
8
1
100
AcDbVertex
100
AcDb2dVertex
62
5
10
166.384260
20
197.100000
0
VERTEX
5
1ea
100
AcDbEntity
8
1
100
AcDbVertex
100
AcDb2dVertex
62
5
10
168.564835
20
197.100000
0
VERTEX
5
1eb
100
AcDbEntity
8
1
100
AcDbVertex
100
AcDb2dVertex
62
5
10
168.564835
20
187.100000
0
VERTEX
5
1ec
100
AcDbEntity
8
1
100
AcDbVertex
100
AcDb2dVertex
62
5
10
166.384260
20
187.100000
0
VERTEX
5
1ed
100
AcDbEntity
8
1
100
AcDbVertex
100
AcDb2dVertex
62
5
10
166.384260
20
188.455172
0
SEQEND
5
1ee
100
AcDbEntity
8
1
0
LINE
5
1ef
100
AcDbEntity
8
1
100
AcDbLine
6
CONTINUOUS
62
5
10
172.250000
20
187.550000
11
172.250000
21
184.200000
0
LINE
5
1f0
100
AcDbEntity
8
1
100
AcDbLine
6
CONTINUOUS
62
5
10
172.250000
20
200.000000
11
172.250000
21
196.650000
0
ARC
5
1f1
100
AcDbEntity
8
1
100
AcDbCircle
6
CONTINUOUS
62
5
10
180.000000
20
181.750000
40
1.000000
100
AcDbArc
50
-89.999999
51
-0.000000
0
LINE
5
1f2
100
AcDbEntity
8
1
100
AcDbLine
6
CONTINUOUS
62
5
10
181.000000
20
181.750000
11
181.000000
21
181.800000
0
LINE
5
1f3
100
AcDbEntity
8
1
100
AcDbLine
6
CONTINUOUS
62
5
10
181.000000
20
202.400000
11
181.000000
21
202.450000
0
ARC
5
1f4
100
AcDbEntity
8
1
100
AcDbCircle
6
CONTINUOUS
62
5
10
180.000000
20
202.450000
40
1.000000
100
AcDbArc
50
0.000000
51
89.999999
0
LINE
5
1f5
100
AcDbEntity
8
1
100
AcDbLine
6
CONTINUOUS
62
5
10
180.000000
20
203.450000
11
177.000000
21
203.450000
0
LINE
5
1f6
100
AcDbEntity
8
1
100
AcDbLine
6
CONTINUOUS
62
5
10
177.000000
20
180.750000
11
180.000000
21
180.750000
0
ARC
5
1f7
100
AcDbEntity
8
1
100
AcDbCircle
6
CONTINUOUS
62
5
10
180.000000
20
202.450000
40
1.000000
100
AcDbArc
50
0.000000
51
89.999999
0
LINE
5
1f8
100
AcDbEntity
8
1
100
AcDbLine
6
CONTINUOUS
62
5
10
181.000000
20
202.450000
11
181.000000
21
181.750000
0
ARC
5
1f9
100
AcDbEntity
8
1
100
AcDbCircle
6
CONTINUOUS
62
5
10
180.000000
20
181.750000
40
1.000000
100
AcDbArc
50
-89.999999
51
0.000001
0
LINE
5
1fa
100
AcDbEntity
8
1
100
AcDbLine
6
CONTINUOUS
62
5
10
180.000000
20
180.750000
11
177.000000
21
180.750000
0
LINE
5
1fb
100
AcDbEntity
8
1
100
AcDbLine
6
CONTINUOUS
62
5
10
177.000000
20
203.450000
11
180.000000
21
203.450000
0
LINE
5
1fc
100
AcDbEntity
8
1
100
AcDbLine
6
CONTINUOUS
62
5
10
161.000000
20
190.100000
11
161.000000
21
194.100000
0
LINE
5
1fd
100
AcDbEntity
8
1
100
AcDbLine
6
CONTINUOUS
62
5
10
162.000000
20
190.100000
11
162.000000
21
194.100000
0
LINE
5
1fe
100
AcDbEntity
8
1
100
AcDbLine
6
CONTINUOUS
62
5
10
163.000000
20
190.100000
11
163.000000
21
194.100000
0
LINE
5
1ff
100
AcDbEntity
8
1
100
AcDbLine
6
CONTINUOUS
62
5
10
170.208647
20
194.400000
11
170.208647
21
189.800000
0
LINE
5
200
100
AcDbEntity
8
1
100
AcDbLine
6
CONTINUOUS
62
5
10
171.085036
20
189.720983
11
171.085036
21
194.479017
0
POLYLINE
5
201
100
AcDbEntity
8
1
6
CONTINUOUS
62
5
100
AcDb2dPolyline
66
1
10
0.0
20
0.0
30
0.0
70
0
0
VERTEX
5
202
100
AcDbEntity
8
1
100
AcDbVertex
100
AcDb2dVertex
62
5
10
170.587865
20
194.600000
0
VERTEX
5
203
100
AcDbEntity
8
1
100
AcDbVertex
100
AcDb2dVertex
62
5
10
170.288276
20
194.600000
0
VERTEX
5
204
100
AcDbEntity
8
1
100
AcDbVertex
100
AcDb2dVertex
62
5
10
170.288276
20
194.400798
0
SEQEND
5
205
100
AcDbEntity
8
1
0
POLYLINE
5
206
100
AcDbEntity
8
1
6
CONTINUOUS
62
5
100
AcDb2dPolyline
66
1
10
0.0
20
0.0
30
0.0
70
0
0
VERTEX
5
207
100
AcDbEntity
8
1
100
AcDbVertex
100
AcDb2dVertex
62
5
10
170.288276
20
189.799202
0
VERTEX
5
208
100
AcDbEntity
8
1
100
AcDbVertex
100
AcDb2dVertex
62
5
10
170.288276
20
189.600000
0
VERTEX
5
209
100
AcDbEntity
8
1
100
AcDbVertex
100
AcDb2dVertex
62
5
10
170.587865
20
189.600000
0
SEQEND
5
20a
100
AcDbEntity
8
1
0
LINE
5
20b
100
AcDbEntity
8
1
100
AcDbLine
6
CONTINUOUS
62
5
10
170.372356
20
189.798360
11
170.372356
21
194.401640
0
LINE
5
20c
100
AcDbEntity
8
1
100
AcDbLine
6
CONTINUOUS
62
5
10
170.243668
20
189.799649
11
170.243668
21
194.400351
0
ARC
5
20d
100
AcDbEntity
8
1
100
AcDbCircle
6
CONTINUOUS
62
5
10
173.500000
20
188.990617
40
1.000000
100
AcDbArc
50
-13.966015
51
0.000000
0
LINE
5
20e
100
AcDbEntity
8
1
100
AcDbLine
6
CONTINUOUS
62
5
10
174.500000
20
188.990617
11
174.500000
21
195.209383
0
ARC
5
20f
100
AcDbEntity
8
1
100
AcDbCircle
6
CONTINUOUS
62
5
10
173.500000
20
195.209383
40
1.000000
100
AcDbArc
50
0.000000
51
13.966015
0
LINE
5
210
100
AcDbEntity
8
1
100
AcDbLine
6
CONTINUOUS
62
5
10
174.470439
20
195.450729
11
174.278525
21
196.222404
0
ARC
5
211
100
AcDbEntity
8
1
100
AcDbCircle
6
CONTINUOUS
62
5
10
173.987393
20
196.150000
40
0.300000
100
AcDbArc
50
13.966015
51
89.999999
0
LINE
5
212
100
AcDbEntity
8
1
100
AcDbLine
6
CONTINUOUS
62
5
10
173.987393
20
196.450000
11
172.750000
21
196.450000
0
ARC
5
213
100
AcDbEntity
8
1
100
AcDbCircle
6
CONTINUOUS
62
5
10
172.750000
20
196.150000
40
0.300000
100
AcDbArc
50
89.999999
51
-179.999998
0
LINE
5
214
100
AcDbEntity
8
1
100
AcDbLine
6
CONTINUOUS
62
5
10
172.450000
20
196.150000
11
172.450000
21
195.650000
0
ARC
5
215
100
AcDbEntity
8
1
100
AcDbCircle
6
CONTINUOUS
62
5
10
172.750000
20
195.650000
40
0.300000
100
AcDbArc
50
-179.999998
51
-89.999999
0
POLYLINE
5
216
100
AcDbEntity
8
1
6
CONTINUOUS
62
5
100
AcDb2dPolyline
66
1
10
0.0
20
0.0
30
0.0
70
0
0
VERTEX
5
217
100
AcDbEntity
8
1
100
AcDbVertex
100
AcDb2dVertex
62
5
10
172.750000
20
195.350000
0
VERTEX
5
218
100
AcDbEntity
8
1
100
AcDbVertex
100
AcDb2dVertex
62
5
10
173.700000
20
195.350000
0
VERTEX
5
219
100
AcDbEntity
8
1
100
AcDbVertex
100
AcDb2dVertex
62
5
10
173.700000
20
188.850000
0
VERTEX
5
21a
100
AcDbEntity
8
1
100
AcDbVertex
100
AcDb2dVertex
62
5
10
172.750000
20
188.850000
0
SEQEND
5
21b
100
AcDbEntity
8
1
0
ARC
5
21c
100
AcDbEntity
8
1
100
AcDbCircle
6
CONTINUOUS
62
5
10
172.750000
20
188.550000
40
0.300000
100
AcDbArc
50
89.999999
51
179.999998
0
LINE
5
21d
100
AcDbEntity
8
1
100
AcDbLine
6
CONTINUOUS
62
5
10
172.450000
20
188.550000
11
172.450000
21
188.050000
0
ARC
5
21e
100
AcDbEntity
8
1
100
AcDbCircle
6
CONTINUOUS
62
5
10
172.750000
20
188.050000
40
0.300000
100
AcDbArc
50
179.999998
51
-89.999999
0
LINE
5
21f
100
AcDbEntity
8
1
100
AcDbLine
6
CONTINUOUS
62
5
10
172.750000
20
187.750000
11
173.987393
21
187.750000
0
ARC
5
220
100
AcDbEntity
8
1
100
AcDbCircle
6
CONTINUOUS
62
5
10
173.987393
20
188.050000
40
0.300000
100
AcDbArc
50
-89.999999
51
-13.966015
0
LINE
5
221
100
AcDbEntity
8
1
100
AcDbLine
6
CONTINUOUS
62
5
10
174.278525
20
187.977596
11
174.470439
21
188.749271
0
LINE
5
222
100
AcDbEntity
8
1
100
AcDbLine
6
CONTINUOUS
62
5
10
161.500000
20
203.450000
11
208.500000
21
203.450000
0
LINE
5
223
100
AcDbEntity
8
1
100
AcDbLine
6
CONTINUOUS
62
5
10
161.500000
20
180.750000
11
208.500000
21
180.750000
0
POLYLINE
5
224
100
AcDbEntity
8
1
6
CONTINUOUS
62
5
100
AcDb2dPolyline
66
1
10
0.0
20
0.0
30
0.0
70
0
0
VERTEX
5
225
100
AcDbEntity
8
1
100
AcDbVertex
100
AcDb2dVertex
62
5
10
206.500000
20
234.700000
0
VERTEX
5
226
100
AcDbEntity
8
1
100
AcDbVertex
100
AcDb2dVertex
62
5
10
206.500000
20
203.450000
0
VERTEX
5
227
100
AcDbEntity
8
1
100
AcDbVertex
100
AcDb2dVertex
62
5
10
205.500000
20
209.450000
0
VERTEX
5
228
100
AcDbEntity
8
1
100
AcDbVertex
100
AcDb2dVertex
62
5
10
207.500000
20
209.450000
0
VERTEX
5
229
100
AcDbEntity
8
1
100
AcDbVertex
100
AcDb2dVertex
62
5
10
206.500000
20
203.450000
0
VERTEX
5
22a
100
AcDbEntity
8
1
100
AcDbVertex
100
AcDb2dVertex
62
5
10
206.000000
20
209.450000
0
VERTEX
5
22b
100
AcDbEntity
8
1
100
AcDbVertex
100
AcDb2dVertex
62
5
10
207.000000
20
209.450000
0
VERTEX
5
22c
100
AcDbEntity
8
1
100
AcDbVertex
100
AcDb2dVertex
62
5
10
206.500000
20
203.450000
0
VERTEX
5
22d
100
AcDbEntity
8
1
100
AcDbVertex
100
AcDb2dVertex
62
5
10
205.750000
20
209.450000
0
SEQEND
5
22e
100
AcDbEntity
8
1
0
POLYLINE
5
22f
100
AcDbEntity
8
1
6
CONTINUOUS
62
5
100
AcDb2dPolyline
66
1
10
0.0
20
0.0
30
0.0
70
0
0
VERTEX
5
230
100
AcDbEntity
8
1
100
AcDbVertex
100
AcDb2dVertex
62
5
10
206.250000
20
209.450000
0
VERTEX
5
231
100
AcDbEntity
8
1
100
AcDbVertex
100
AcDb2dVertex
62
5
10
206.500000
20
203.450000
0
VERTEX
5
232
100
AcDbEntity
8
1
100
AcDbVertex
100
AcDb2dVertex
62
5
10
206.750000
20
209.450000
0
SEQEND
5
233
100
AcDbEntity
8
1
0
LINE
5
234
100
AcDbEntity
8
1
100
AcDbLine
6
CONTINUOUS
62
5
10
207.250000
20
209.450000
11
206.500000
21
203.450000
0
LINE
5
235
100
AcDbEntity
8
1
100
AcDbLine
6
CONTINUOUS
62
5
10
206.500000
20
180.750000
11
206.500000
21
203.450000
0
POLYLINE
5
236
100
AcDbEntity
8
1
6
CONTINUOUS
62
5
100
AcDb2dPolyline
66
1
10
0.0
20
0.0
30
0.0
70
0
0
VERTEX
5
237
100
AcDbEntity
8
1
100
AcDbVertex
100
AcDb2dVertex
62
5
10
206.500000
20
171.750000
0
VERTEX
5
238
100
AcDbEntity
8
1
100
AcDbVertex
100
AcDb2dVertex
62
5
10
206.500000
20
180.750000
0
VERTEX
5
239
100
AcDbEntity
8
1
100
AcDbVertex
100
AcDb2dVertex
62
5
10
207.500000
20
174.750000
0
VERTEX
5
23a
100
AcDbEntity
8
1
100
AcDbVertex
100
AcDb2dVertex
62
5
10
205.500000
20
174.750000
0
VERTEX
5
23b
100
AcDbEntity
8
1
100
AcDbVertex
100
AcDb2dVertex
62
5
10
206.500000
20
180.750000
0
VERTEX
5
23c
100
AcDbEntity
8
1
100
AcDbVertex
100
AcDb2dVertex
62
5
10
207.000000
20
174.750000
0
VERTEX
5
23d
100
AcDbEntity
8
1
100
AcDbVertex
100
AcDb2dVertex
62
5
10
206.000000
20
174.750000
0
VERTEX
5
23e
100
AcDbEntity
8
1
100
AcDbVertex
100
AcDb2dVertex
62
5
10
206.500000
20
180.750000
0
VERTEX
5
23f
100
AcDbEntity
8
1
100
AcDbVertex
100
AcDb2dVertex
62
5
10
207.250000
20
174.750000
0
SEQEND
5
240
100
AcDbEntity
8
1
0
POLYLINE
5
241
100
AcDbEntity
8
1
6
CONTINUOUS
62
5
100
AcDb2dPolyline
66
1
10
0.0
20
0.0
30
0.0
70
0
0
VERTEX
5
242
100
AcDbEntity
8
1
100
AcDbVertex
100
AcDb2dVertex
62
5
10
206.750000
20
174.750000
0
VERTEX
5
243
100
AcDbEntity
8
1
100
AcDbVertex
100
AcDb2dVertex
62
5
10
206.500000
20
180.750000
0
VERTEX
5
244
100
AcDbEntity
8
1
100
AcDbVertex
100
AcDb2dVertex
62
5
10
206.250000
20
174.750000
0
SEQEND
5
245
100
AcDbEntity
8
1
0
LINE
5
246
100
AcDbEntity
8
1
100
AcDbLine
6
CONTINUOUS
62
5
10
205.750000
20
174.750000
11
206.500000
21
180.750000
0
POLYLINE
5
247
100
AcDbEntity
8
1
6
CONTINUOUS
62
5
100
AcDb2dPolyline
66
1
10
0.0
20
0.0
30
0.0
70
0
0
VERTEX
5
248
100
AcDbEntity
8
1
100
AcDbVertex
100
AcDb2dVertex
62
5
10
141.750000
20
325.562500
0
VERTEX
5
249
100
AcDbEntity
8
1
100
AcDbVertex
100
AcDb2dVertex
62
5
10
146.500000
20
325.562500
0
VERTEX
5
24a
100
AcDbEntity
8
1
100
AcDbVertex
100
AcDb2dVertex
62
5
10
146.500000
20
324.000000
0
VERTEX
5
24b
100
AcDbEntity
8
1
100
AcDbVertex
100
AcDb2dVertex
62
5
10
146.000000
20
321.812500
0
VERTEX
5
24c
100
AcDbEntity
8
1
100
AcDbVertex
100
AcDb2dVertex
62
5
10
145.500000
20
320.875000
0
VERTEX
5
24d
100
AcDbEntity
8
1
100
AcDbVertex
100
AcDb2dVertex
62
5
10
144.750000
20
320.875000
0
SEQEND
5
24e
100
AcDbEntity
8
1
0
POLYLINE
5
24f
100
AcDbEntity
8
1
6
CONTINUOUS
62
5
100
AcDb2dPolyline
66
1
10
0.0
20
0.0
30
0.0
70
0
0
VERTEX
5
250
100
AcDbEntity
8
1
100
AcDbVertex
100
AcDb2dVertex
62
5
10
144.500000
20
327.437500
0
VERTEX
5
251
100
AcDbEntity
8
1
100
AcDbVertex
100
AcDb2dVertex
62
5
10
144.000000
20
324.625000
0
VERTEX
5
252
100
AcDbEntity
8
1
100
AcDbVertex
100
AcDb2dVertex
62
5
10
143.750000
20
323.375000
0
VERTEX
5
253
100
AcDbEntity
8
1
100
AcDbVertex
100
AcDb2dVertex
62
5
10
143.250000
20
322.437500
0
VERTEX
5
254
100
AcDbEntity
8
1
100
AcDbVertex
100
AcDb2dVertex
62
5
10
142.250000
20
321.187500
0
SEQEND
5
255
100
AcDbEntity
8
1
0
LINE
5
256
100
AcDbEntity
8
1
100
AcDbLine
6
CONTINUOUS
62
5
10
146.250000
20
327.437500
11
147.000000
21
326.500000
0
LINE
5
257
100
AcDbEntity
8
1
100
AcDbLine
6
CONTINUOUS
62
5
10
147.000000
20
328.062500
11
147.750000
21
327.125000
0
POLYLINE
5
258
100
AcDbEntity
8
1
6
CONTINUOUS
62
5
100
AcDb2dPolyline
66
1
10
0.0
20
0.0
30
0.0
70
0
0
VERTEX
5
259
100
AcDbEntity
8
1
100
AcDbVertex
100
AcDb2dVertex
62
5
10
154.750000
20
327.437500
0
VERTEX
5
25a
100
AcDbEntity
8
1
100
AcDbVertex
100
AcDb2dVertex
62
5
10
152.750000
20
324.937500
0
VERTEX
5
25b
100
AcDbEntity
8
1
100
AcDbVertex
100
AcDb2dVertex
62
5
10
150.500000
20
323.375000
0
SEQEND
5
25c
100
AcDbEntity
8
1
0
LINE
5
25d
100
AcDbEntity
8
1
100
AcDbLine
6
CONTINUOUS
62
5
10
153.250000
20
325.562500
11
153.250000
21
320.250000
0
POLYLINE
5
25e
100
AcDbEntity
8
1
6
CONTINUOUS
62
5
100
AcDb2dPolyline
66
1
10
0.0
20
0.0
30
0.0
70
0
0
VERTEX
5
25f
100
AcDbEntity
8
1
100
AcDbVertex
100
AcDb2dVertex
62
5
10
122.000000
20
325.875000
0
VERTEX
5
260
100
AcDbEntity
8
1
100
AcDbVertex
100
AcDb2dVertex
62
5
10
122.250000
20
327.125000
0
VERTEX
5
261
100
AcDbEntity
8
1
100
AcDbVertex
100
AcDb2dVertex
62
5
10
122.750000
20
327.750000
0
VERTEX
5
262
100
AcDbEntity
8
1
100
AcDbVertex
100
AcDb2dVertex
62
5
10
123.500000
20
327.750000
0
VERTEX
5
263
100
AcDbEntity
8
1
100
AcDbVertex
100
AcDb2dVertex
62
5
10
124.000000
20
327.437500
0
VERTEX
5
264
100
AcDbEntity
8
1
100
AcDbVertex
100
AcDb2dVertex
62
5
10
124.250000
20
326.500000
0
VERTEX
5
265
100
AcDbEntity
8
1
100
AcDbVertex
100
AcDb2dVertex
62
5
10
124.250000
20
325.250000
0
VERTEX
5
266
100
AcDbEntity
8
1
100
AcDbVertex
100
AcDb2dVertex
62
5
10
124.000000
20
324.625000
0
VERTEX
5
267
100
AcDbEntity
8
1
100
AcDbVertex
100
AcDb2dVertex
62
5
10
123.500000
20
324.000000
0
VERTEX
5
268
100
AcDbEntity
8
1
100
AcDbVertex
100
AcDb2dVertex
62
5
10
122.750000
20
324.000000
0
SEQEND
5
269
100
AcDbEntity
8
1
0
POLYLINE
5
26a
100
AcDbEntity
8
1
6
CONTINUOUS
62
5
100
AcDb2dPolyline
66
1
10
0.0
20
0.0
30
0.0
70
0
0
VERTEX
5
26b
100
AcDbEntity
8
1
100
AcDbVertex
100
AcDb2dVertex
62
5
10
123.500000
20
324.000000
0
VERTEX
5
26c
100
AcDbEntity
8
1
100
AcDbVertex
100
AcDb2dVertex
62
5
10
124.250000
20
323.375000
0
VERTEX
5
26d
100
AcDbEntity
8
1
100
AcDbVertex
100
AcDb2dVertex
62
5
10
124.500000
20
322.437500
0
VERTEX
5
26e
100
AcDbEntity
8
1
100
AcDbVertex
100
AcDb2dVertex
62
5
10
124.500000
20
321.500000
0
VERTEX
5
26f
100
AcDbEntity
8
1
100
AcDbVertex
100
AcDb2dVertex
62
5
10
124.250000
20
320.875000
0
VERTEX
5
270
100
AcDbEntity
8
1
100
AcDbVertex
100
AcDb2dVertex
62
5
10
123.500000
20
320.250000
0
VERTEX
5
271
100
AcDbEntity
8
1
100
AcDbVertex
100
AcDb2dVertex
62
5
10
122.750000
20
320.250000
0
VERTEX
5
272
100
AcDbEntity
8
1
100
AcDbVertex
100
AcDb2dVertex
62
5
10
122.250000
20
320.562500
0
VERTEX
5
273
100
AcDbEntity
8
1
100
AcDbVertex
100
AcDb2dVertex
62
5
10
121.750000
20
321.500000
0
SEQEND
5
274
100
AcDbEntity
8
1
0
POLYLINE
5
275
100
AcDbEntity
8
1
6
CONTINUOUS
62
5
100
AcDb2dPolyline
66
1
10
0.0
20
0.0
30
0.0
70
1
0
VERTEX
5
276
100
AcDbEntity
8
1
100
AcDbVertex
100
AcDb2dVertex
62
5
10
126.000000
20
328.062500
0
VERTEX
5
277
100
AcDbEntity
8
1
100
AcDbVertex
100
AcDb2dVertex
62
5
10
126.000000
20
325.250000
0
VERTEX
5
278
100
AcDbEntity
8
1
100
AcDbVertex
100
AcDb2dVertex
62
5
10
128.000000
20
325.250000
0
VERTEX
5
279
100
AcDbEntity
8
1
100
AcDbVertex
100
AcDb2dVertex
62
5
10
128.000000
20
328.062500
0
VERTEX
5
27a
100
AcDbEntity
8
1
100
AcDbVertex
100
AcDb2dVertex
62
5
10
126.000000
20
328.062500
0
SEQEND
5
27b
100
AcDbEntity
8
1
0
LINE
5
27c
100
AcDbEntity
8
1
100
AcDbLine
6
CONTINUOUS
62
5
10
127.000000
20
325.250000
11
127.000000
21
320.562500
0
LINE
5
27d
100
AcDbEntity
8
1
100
AcDbLine
6
CONTINUOUS
62
5
10
127.000000
20
323.375000
11
128.000000
21
323.375000
0
LINE
5
27e
100
AcDbEntity
8
1
100
AcDbLine
6
CONTINUOUS
62
5
10
126.000000
20
323.687500
11
126.000000
21
320.250000
0
LINE
5
27f
100
AcDbEntity
8
1
100
AcDbLine
6
CONTINUOUS
62
5
10
125.500000
20
319.937500
11
128.250000
21
320.875000
0
POLYLINE
5
280
100
AcDbEntity
8
1
6
CONTINUOUS
62
5
100
AcDb2dPolyline
66
1
10
0.0
20
0.0
30
0.0
70
0
0
VERTEX
5
281
100
AcDbEntity
8
1
100
AcDbVertex
100
AcDb2dVertex
62
5
10
130.000000
20
328.375000
0
VERTEX
5
282
100
AcDbEntity
8
1
100
AcDbVertex
100
AcDb2dVertex
62
5
10
129.750000
20
327.437500
0
VERTEX
5
283
100
AcDbEntity
8
1
100
AcDbVertex
100
AcDb2dVertex
62
5
10
129.250000
20
326.500000
0
VERTEX
5
284
100
AcDbEntity
8
1
100
AcDbVertex
100
AcDb2dVertex
62
5
10
128.500000
20
325.562500
0
SEQEND
5
285
100
AcDbEntity
8
1
0
POLYLINE
5
286
100
AcDbEntity
8
1
6
CONTINUOUS
62
5
100
AcDb2dPolyline
66
1
10
0.0
20
0.0
30
0.0
70
0
0
VERTEX
5
287
100
AcDbEntity
8
1
100
AcDbVertex
100
AcDb2dVertex
62
5
10
129.750000
20
327.437500
0
VERTEX
5
288
100
AcDbEntity
8
1
100
AcDbVertex
100
AcDb2dVertex
62
5
10
131.750000
20
327.437500
0
VERTEX
5
289
100
AcDbEntity
8
1
100
AcDbVertex
100
AcDb2dVertex
62
5
10
131.000000
20
325.562500
0
VERTEX
5
28a
100
AcDbEntity
8
1
100
AcDbVertex
100
AcDb2dVertex
62
5
10
130.250000
20
324.312500
0
VERTEX
5
28b
100
AcDbEntity
8
1
100
AcDbVertex
100
AcDb2dVertex
62
5
10
129.500000
20
323.375000
0
VERTEX
5
28c
100
AcDbEntity
8
1
100
AcDbVertex
100
AcDb2dVertex
62
5
10
128.500000
20
322.437500
0
SEQEND
5
28d
100
AcDbEntity
8
1
0
POLYLINE
5
28e
100
AcDbEntity
8
1
6
CONTINUOUS
62
5
100
AcDb2dPolyline
66
1
10
0.0
20
0.0
30
0.0
70
0
0
VERTEX
5
28f
100
AcDbEntity
8
1
100
AcDbVertex
100
AcDb2dVertex
62
5
10
129.500000
20
326.812500
0
VERTEX
5
290
100
AcDbEntity
8
1
100
AcDbVertex
100
AcDb2dVertex
62
5
10
130.250000
20
325.562500
0
VERTEX
5
291
100
AcDbEntity
8
1
100
AcDbVertex
100
AcDb2dVertex
62
5
10
131.250000
20
324.312500
0
VERTEX
5
292
100
AcDbEntity
8
1
100
AcDbVertex
100
AcDb2dVertex
62
5
10
132.500000
20
323.062500
0
SEQEND
5
293
100
AcDbEntity
8
1
0
POLYLINE
5
294
100
AcDbEntity
8
1
6
CONTINUOUS
62
5
100
AcDb2dPolyline
66
1
10
0.0
20
0.0
30
0.0
70
1
0
VERTEX
5
295
100
AcDbEntity
8
1
100
AcDbVertex
100
AcDb2dVertex
62
5
10
129.250000
20
323.062500
0
VERTEX
5
296
100
AcDbEntity
8
1
100
AcDbVertex
100
AcDb2dVertex
62
5
10
129.250000
20
319.937500
0
VERTEX
5
297
100
AcDbEntity
8
1
100
AcDbVertex
100
AcDb2dVertex
62
5
10
132.000000
20
319.937500
0
VERTEX
5
298
100
AcDbEntity
8
1
100
AcDbVertex
100
AcDb2dVertex
62
5
10
132.000000
20
323.062500
0
VERTEX
5
299
100
AcDbEntity
8
1
100
AcDbVertex
100
AcDb2dVertex
62
5
10
129.250000
20
323.062500
0
SEQEND
5
29a
100
AcDbEntity
8
1
0
POLYLINE
5
29b
100
AcDbEntity
8
1
6
CONTINUOUS
62
5
100
AcDb2dPolyline
66
1
10
0.0
20
0.0
30
0.0
70
0
0
VERTEX
5
29c
100
AcDbEntity
8
1
100
AcDbVertex
100
AcDb2dVertex
62
5
10
125.500000
20
335.750000
0
VERTEX
5
29d
100
AcDbEntity
8
1
100
AcDbVertex
100
AcDb2dVertex
62
5
10
125.000000
20
336.750000
0
VERTEX
5
29e
100
AcDbEntity
8
1
100
AcDbVertex
100
AcDb2dVertex
62
5
10
124.250000
20
337.000000
0
VERTEX
5
29f
100
AcDbEntity
8
1
100
AcDbVertex
100
AcDb2dVertex
62
5
10
123.750000
20
337.000000
0
VERTEX
5
2a0
100
AcDbEntity
8
1
100
AcDbVertex
100
AcDb2dVertex
62
5
10
123.250000
20
336.750000
0
VERTEX
5
2a1
100
AcDbEntity
8
1
100
AcDbVertex
100
AcDb2dVertex
62
5
10
122.750000
20
336.000000
0
VERTEX
5
2a2
100
AcDbEntity
8
1
100
AcDbVertex
100
AcDb2dVertex
62
5
10
122.750000
20
335.250000
0
VERTEX
5
2a3
100
AcDbEntity
8
1
100
AcDbVertex
100
AcDb2dVertex
62
5
10
123.250000
20
334.500000
0
VERTEX
5
2a4
100
AcDbEntity
8
1
100
AcDbVertex
100
AcDb2dVertex
62
5
10
125.000000
20
333.500000
0
VERTEX
5
2a5
100
AcDbEntity
8
1
100
AcDbVertex
100
AcDb2dVertex
62
5
10
125.500000
20
332.750000
0
VERTEX
5
2a6
100
AcDbEntity
8
1
100
AcDbVertex
100
AcDb2dVertex
62
5
10
125.500000
20
332.000000
0
VERTEX
5
2a7
100
AcDbEntity
8
1
100
AcDbVertex
100
AcDb2dVertex
62
5
10
125.000000
20
331.250000
0
VERTEX
5
2a8
100
AcDbEntity
8
1
100
AcDbVertex
100
AcDb2dVertex
62
5
10
124.250000
20
331.000000
0
VERTEX
5
2a9
100
AcDbEntity
8
1
100
AcDbVertex
100
AcDb2dVertex
62
5
10
123.750000
20
331.000000
0
VERTEX
5
2aa
100
AcDbEntity
8
1
100
AcDbVertex
100
AcDb2dVertex
62
5
10
123.000000
20
331.500000
0
VERTEX
5
2ab
100
AcDbEntity
8
1
100
AcDbVertex
100
AcDb2dVertex
62
5
10
122.750000
20
332.500000
0
SEQEND
5
2ac
100
AcDbEntity
8
1
0
POLYLINE
5
2ad
100
AcDbEntity
8
1
6
CONTINUOUS
62
5
100
AcDb2dPolyline
66
1
10
0.0
20
0.0
30
0.0
70
0
0
VERTEX
5
2ae
100
AcDbEntity
8
1
100
AcDbVertex
100
AcDb2dVertex
62
5
10
127.000000
20
337.000000
0
VERTEX
5
2af
100
AcDbEntity
8
1
100
AcDbVertex
100
AcDb2dVertex
62
5
10
127.000000
20
331.000000
0
VERTEX
5
2b0
100
AcDbEntity
8
1
100
AcDbVertex
100
AcDb2dVertex
62
5
10
129.500000
20
331.000000
0
SEQEND
5
2b1
100
AcDbEntity
8
1
0
LINE
5
2b2
100
AcDbEntity
8
1
100
AcDbLine
6
CONTINUOUS
62
5
10
131.500000
20
337.000000
11
133.000000
21
337.000000
0
LINE
5
2b3
100
AcDbEntity
8
1
100
AcDbLine
6
CONTINUOUS
62
5
10
132.250000
20
337.000000
11
132.250000
21
331.000000
0
LINE
5
2b4
100
AcDbEntity
8
1
100
AcDbLine
6
CONTINUOUS
62
5
10
131.500000
20
331.000000
11
133.000000
21
331.000000
0
POLYLINE
5
2b5
100
AcDbEntity
8
1
6
CONTINUOUS
62
5
100
AcDb2dPolyline
66
1
10
0.0
20
0.0
30
0.0
70
0
0
VERTEX
5
2b6
100
AcDbEntity
8
1
100
AcDbVertex
100
AcDb2dVertex
62
5
10
135.000000
20
331.000000
0
VERTEX
5
2b7
100
AcDbEntity
8
1
100
AcDbVertex
100
AcDb2dVertex
62
5
10
135.000000
20
337.000000
0
VERTEX
5
2b8
100
AcDbEntity
8
1
100
AcDbVertex
100
AcDb2dVertex
62
5
10
136.250000
20
331.000000
0
VERTEX
5
2b9
100
AcDbEntity
8
1
100
AcDbVertex
100
AcDb2dVertex
62
5
10
137.500000
20
337.000000
0
VERTEX
5
2ba
100
AcDbEntity
8
1
100
AcDbVertex
100
AcDb2dVertex
62
5
10
137.500000
20
331.000000
0
SEQEND
5
2bb
100
AcDbEntity
8
1
0
LINE
5
2bc
100
AcDbEntity
8
1
100
AcDbLine
6
CONTINUOUS
62
5
10
107.000000
20
326.187500
11
110.750000
21
326.812500
0
LINE
5
2bd
100
AcDbEntity
8
1
100
AcDbLine
6
CONTINUOUS
62
5
10
105.750000
20
324.312500
11
111.750000
21
324.312500
0
POLYLINE
5
2be
100
AcDbEntity
8
1
6
CONTINUOUS
62
5
100
AcDb2dPolyline
66
1
10
0.0
20
0.0
30
0.0
70
0
0
VERTEX
5
2bf
100
AcDbEntity
8
1
100
AcDbVertex
100
AcDb2dVertex
62
5
10
109.000000
20
326.500000
0
VERTEX
5
2c0
100
AcDbEntity
8
1
100
AcDbVertex
100
AcDb2dVertex
62
5
10
109.000000
20
324.312500
0
VERTEX
5
2c1
100
AcDbEntity
8
1
100
AcDbVertex
100
AcDb2dVertex
62
5
10
108.750000
20
322.750000
0
VERTEX
5
2c2
100
AcDbEntity
8
1
100
AcDbVertex
100
AcDb2dVertex
62
5
10
108.000000
20
321.500000
0
VERTEX
5
2c3
100
AcDbEntity
8
1
100
AcDbVertex
100
AcDb2dVertex
62
5
10
107.250000
20
320.562500
0
SEQEND
5
2c4
100
AcDbEntity
8
1
0
POLYLINE
5
2c5
100
AcDbEntity
8
1
6
CONTINUOUS
62
5
100
AcDb2dPolyline
66
1
10
0.0
20
0.0
30
0.0
70
0
0
VERTEX
5
2c6
100
AcDbEntity
8
1
100
AcDbVertex
100
AcDb2dVertex
62
5
10
102.750000
20
337.000000
0
VERTEX
5
2c7
100
AcDbEntity
8
1
100
AcDbVertex
100
AcDb2dVertex
62
5
10
103.500000
20
331.000000
0
VERTEX
5
2c8
100
AcDbEntity
8
1
100
AcDbVertex
100
AcDb2dVertex
62
5
10
104.250000
20
337.000000
0
VERTEX
5
2c9
100
AcDbEntity
8
1
100
AcDbVertex
100
AcDb2dVertex
62
5
10
105.000000
20
331.000000
0
VERTEX
5
2ca
100
AcDbEntity
8
1
100
AcDbVertex
100
AcDb2dVertex
62
5
10
105.750000
20
337.000000
0
SEQEND
5
2cb
100
AcDbEntity
8
1
0
LINE
5
2cc
100
AcDbEntity
8
1
100
AcDbLine
6
CONTINUOUS
62
5
10
107.500000
20
337.000000
11
109.000000
21
337.000000
0
LINE
5
2cd
100
AcDbEntity
8
1
100
AcDbLine
6
CONTINUOUS
62
5
10
108.250000
20
337.000000
11
108.250000
21
331.000000
0
LINE
5
2ce
100
AcDbEntity
8
1
100
AcDbLine
6
CONTINUOUS
62
5
10
107.500000
20
331.000000
11
109.000000
21
331.000000
0
LINE
5
2cf
100
AcDbEntity
8
1
100
AcDbLine
6
CONTINUOUS
62
5
10
111.000000
20
337.000000
11
111.000000
21
331.000000
0
POLYLINE
5
2d0
100
AcDbEntity
8
1
6
CONTINUOUS
62
5
100
AcDb2dPolyline
66
1
10
0.0
20
0.0
30
0.0
70
0
0
VERTEX
5
2d1
100
AcDbEntity
8
1
100
AcDbVertex
100
AcDb2dVertex
62
5
10
111.000000
20
337.000000
0
VERTEX
5
2d2
100
AcDbEntity
8
1
100
AcDbVertex
100
AcDb2dVertex
62
5
10
112.250000
20
337.000000
0
VERTEX
5
2d3
100
AcDbEntity
8
1
100
AcDbVertex
100
AcDb2dVertex
62
5
10
112.750000
20
336.750000
0
VERTEX
5
2d4
100
AcDbEntity
8
1
100
AcDbVertex
100
AcDb2dVertex
62
5
10
113.250000
20
336.250000
0
VERTEX
5
2d5
100
AcDbEntity
8
1
100
AcDbVertex
100
AcDb2dVertex
62
5
10
113.500000
20
335.250000
0
VERTEX
5
2d6
100
AcDbEntity
8
1
100
AcDbVertex
100
AcDb2dVertex
62
5
10
113.500000
20
332.750000
0
VERTEX
5
2d7
100
AcDbEntity
8
1
100
AcDbVertex
100
AcDb2dVertex
62
5
10
113.250000
20
331.750000
0
VERTEX
5
2d8
100
AcDbEntity
8
1
100
AcDbVertex
100
AcDb2dVertex
62
5
10
112.750000
20
331.250000
0
VERTEX
5
2d9
100
AcDbEntity
8
1
100
AcDbVertex
100
AcDb2dVertex
62
5
10
112.250000
20
331.000000
0
VERTEX
5
2da
100
AcDbEntity
8
1
100
AcDbVertex
100
AcDb2dVertex
62
5
10
111.000000
20
331.000000
0
SEQEND
5
2db
100
AcDbEntity
8
1
0
POLYLINE
5
2dc
100
AcDbEntity
8
1
6
CONTINUOUS
62
5
100
AcDb2dPolyline
66
1
10
0.0
20
0.0
30
0.0
70
0
0
VERTEX
5
2dd
100
AcDbEntity
8
1
100
AcDbVertex
100
AcDb2dVertex
62
5
10
117.500000
20
337.000000
0
VERTEX
5
2de
100
AcDbEntity
8
1
100
AcDbVertex
100
AcDb2dVertex
62
5
10
115.000000
20
337.000000
0
VERTEX
5
2df
100
AcDbEntity
8
1
100
AcDbVertex
100
AcDb2dVertex
62
5
10
115.000000
20
331.000000
0
VERTEX
5
2e0
100
AcDbEntity
8
1
100
AcDbVertex
100
AcDb2dVertex
62
5
10
117.750000
20
331.000000
0
SEQEND
5
2e1
100
AcDbEntity
8
1
0
LINE
5
2e2
100
AcDbEntity
8
1
100
AcDbLine
6
CONTINUOUS
62
5
10
115.000000
20
334.000000
11
117.250000
21
334.000000
0
POLYLINE
5
2e3
100
AcDbEntity
8
1
6
CONTINUOUS
62
5
100
AcDb2dPolyline
66
1
10
0.0
20
0.0
30
0.0
70
0
0
VERTEX
5
2e4
100
AcDbEntity
8
1
100
AcDbVertex
100
AcDb2dVertex
62
5
10
83.000000
20
325.875000
0
VERTEX
5
2e5
100
AcDbEntity
8
1
100
AcDbVertex
100
AcDb2dVertex
62
5
10
86.250000
20
325.875000
0
VERTEX
5
2e6
100
AcDbEntity
8
1
100
AcDbVertex
100
AcDb2dVertex
62
5
10
86.250000
20
325.562500
0
VERTEX
5
2e7
100
AcDbEntity
8
1
100
AcDbVertex
100
AcDb2dVertex
62
5
10
85.750000
20
324.312500
0
VERTEX
5
2e8
100
AcDbEntity
8
1
100
AcDbVertex
100
AcDb2dVertex
62
5
10
85.250000
20
323.375000
0
VERTEX
5
2e9
100
AcDbEntity
8
1
100
AcDbVertex
100
AcDb2dVertex
62
5
10
84.250000
20
322.125000
0
VERTEX
5
2ea
100
AcDbEntity
8
1
100
AcDbVertex
100
AcDb2dVertex
62
5
10
82.500000
20
320.562500
0
SEQEND
5
2eb
100
AcDbEntity
8
1
0
LINE
5
2ec
100
AcDbEntity
8
1
100
AcDbLine
6
CONTINUOUS
62
5
10
85.250000
20
323.375000
11
87.250000
21
320.562500
0
POLYLINE
5
2ed
100
AcDbEntity
8
1
6
CONTINUOUS
62
5
100
AcDb2dPolyline
66
1
10
0.0
20
0.0
30
0.0
70
0
0
VERTEX
5
2ee
100
AcDbEntity
8
1
100
AcDbVertex
100
AcDb2dVertex
62
5
10
94.750000
20
327.437500
0
VERTEX
5
2ef
100
AcDbEntity
8
1
100
AcDbVertex
100
AcDb2dVertex
62
5
10
92.750000
20
324.937500
0
VERTEX
5
2f0
100
AcDbEntity
8
1
100
AcDbVertex
100
AcDb2dVertex
62
5
10
90.500000
20
323.375000
0
SEQEND
5
2f1
100
AcDbEntity
8
1
0
LINE
5
2f2
100
AcDbEntity
8
1
100
AcDbLine
6
CONTINUOUS
62
5
10
93.250000
20
325.562500
11
93.250000
21
320.250000
0
LINE
5
2f3
100
AcDbEntity
8
1
100
AcDbLine
6
CONTINUOUS
62
5
10
85.500000
20
337.250000
11
83.000000
21
330.750000
0
POLYLINE
5
2f4
100
AcDbEntity
8
1
6
CONTINUOUS
62
5
100
AcDb2dPolyline
66
1
10
0.0
20
0.0
30
0.0
70
0
0
VERTEX
5
2f5
100
AcDbEntity
8
1
100
AcDbVertex
100
AcDb2dVertex
62
5
10
93.250000
20
337.000000
0
VERTEX
5
2f6
100
AcDbEntity
8
1
100
AcDbVertex
100
AcDb2dVertex
62
5
10
93.250000
20
332.500000
0
VERTEX
5
2f7
100
AcDbEntity
8
1
100
AcDbVertex
100
AcDb2dVertex
62
5
10
93.000000
20
331.500000
0
VERTEX
5
2f8
100
AcDbEntity
8
1
100
AcDbVertex
100
AcDb2dVertex
62
5
10
92.500000
20
331.000000
0
VERTEX
5
2f9
100
AcDbEntity
8
1
100
AcDbVertex
100
AcDb2dVertex
62
5
10
91.750000
20
331.000000
0
VERTEX
5
2fa
100
AcDbEntity
8
1
100
AcDbVertex
100
AcDb2dVertex
62
5
10
91.250000
20
331.500000
0
VERTEX
5
2fb
100
AcDbEntity
8
1
100
AcDbVertex
100
AcDb2dVertex
62
5
10
91.000000
20
332.500000
0
SEQEND
5
2fc
100
AcDbEntity
8
1
0
POLYLINE
5
2fd
100
AcDbEntity
8
1
6
CONTINUOUS
62
5
100
AcDb2dPolyline
66
1
10
0.0
20
0.0
30
0.0
70
0
0
VERTEX
5
2fe
100
AcDbEntity
8
1
100
AcDbVertex
100
AcDb2dVertex
62
5
10
97.250000
20
334.000000
0
VERTEX
5
2ff
100
AcDbEntity
8
1
100
AcDbVertex
100
AcDb2dVertex
62
5
10
97.750000
20
334.500000
0
VERTEX
5
300
100
AcDbEntity
8
1
100
AcDbVertex
100
AcDb2dVertex
62
5
10
98.000000
20
334.500000
0
VERTEX
5
301
100
AcDbEntity
8
1
100
AcDbVertex
100
AcDb2dVertex
62
5
10
98.500000
20
334.000000
0
VERTEX
5
302
100
AcDbEntity
8
1
100
AcDbVertex
100
AcDb2dVertex
62
5
10
98.500000
20
333.750000
0
VERTEX
5
303
100
AcDbEntity
8
1
100
AcDbVertex
100
AcDb2dVertex
62
5
10
98.000000
20
333.250000
0
VERTEX
5
304
100
AcDbEntity
8
1
100
AcDbVertex
100
AcDb2dVertex
62
5
10
97.750000
20
333.250000
0
VERTEX
5
305
100
AcDbEntity
8
1
100
AcDbVertex
100
AcDb2dVertex
62
5
10
97.250000
20
333.750000
0
VERTEX
5
306
100
AcDbEntity
8
1
100
AcDbVertex
100
AcDb2dVertex
62
5
10
97.250000
20
334.000000
0
VERTEX
5
307
100
AcDbEntity
8
1
100
AcDbVertex
100
AcDb2dVertex
62
5
10
98.500000
20
334.000000
0
SEQEND
5
308
100
AcDbEntity
8
1
0
LINE
5
309
100
AcDbEntity
8
1
100
AcDbLine
6
CONTINUOUS
62
5
10
98.500000
20
333.750000
11
97.250000
21
333.750000
0
LINE
5
30a
100
AcDbEntity
8
1
100
AcDbLine
6
CONTINUOUS
62
5
10
97.500000
20
333.500000
11
98.250000
21
333.500000
0
LINE
5
30b
100
AcDbEntity
8
1
100
AcDbLine
6
CONTINUOUS
62
5
10
98.250000
20
334.250000
11
97.500000
21
334.250000
0
LINE
5
30c
100
AcDbEntity
8
1
100
AcDbLine
6
CONTINUOUS
62
5
10
99.250000
20
324.312500
11
99.500000
21
323.062500
0
LINE
5
30d
100
AcDbEntity
8
1
100
AcDbLine
6
CONTINUOUS
62
5
10
100.750000
20
324.625000
11
101.000000
21
323.375000
0
POLYLINE
5
30e
100
AcDbEntity
8
1
6
CONTINUOUS
62
5
100
AcDb2dPolyline
66
1
10
0.0
20
0.0
30
0.0
70
0
0
VERTEX
5
30f
100
AcDbEntity
8
1
100
AcDbVertex
100
AcDb2dVertex
62
5
10
102.750000
20
324.625000
0
VERTEX
5
310
100
AcDbEntity
8
1
100
AcDbVertex
100
AcDb2dVertex
62
5
10
102.500000
20
323.062500
0
VERTEX
5
311
100
AcDbEntity
8
1
100
AcDbVertex
100
AcDb2dVertex
62
5
10
101.250000
20
321.187500
0
VERTEX
5
312
100
AcDbEntity
8
1
100
AcDbVertex
100
AcDb2dVertex
62
5
10
100.250000
20
320.250000
0
SEQEND
5
313
100
AcDbEntity
8
1
0
LINE
5
314
100
AcDbEntity
8
1
100
AcDbLine
6
CONTINUOUS
62
5
10
65.500000
20
325.250000
11
67.500000
21
325.250000
0
LINE
5
315
100
AcDbEntity
8
1
100
AcDbLine
6
CONTINUOUS
62
5
10
65.250000
20
320.875000
11
67.500000
21
322.125000
0
LINE
5
316
100
AcDbEntity
8
1
100
AcDbLine
6
CONTINUOUS
62
5
10
66.500000
20
327.750000
11
66.500000
21
321.500000
0
POLYLINE
5
317
100
AcDbEntity
8
1
6
CONTINUOUS
62
5
100
AcDb2dPolyline
66
1
10
0.0
20
0.0
30
0.0
70
1
0
VERTEX
5
318
100
AcDbEntity
8
1
100
AcDbVertex
100
AcDb2dVertex
62
5
10
68.500000
20
327.437500
0
VERTEX
5
319
100
AcDbEntity
8
1
100
AcDbVertex
100
AcDb2dVertex
62
5
10
68.500000
20
324.000000
0
VERTEX
5
31a
100
AcDbEntity
8
1
100
AcDbVertex
100
AcDb2dVertex
62
5
10
71.500000
20
324.000000
0
VERTEX
5
31b
100
AcDbEntity
8
1
100
AcDbVertex
100
AcDb2dVertex
62
5
10
71.500000
20
327.437500
0
VERTEX
5
31c
100
AcDbEntity
8
1
100
AcDbVertex
100
AcDb2dVertex
62
5
10
68.500000
20
327.437500
0
SEQEND
5
31d
100
AcDbEntity
8
1
0
LINE
5
31e
100
AcDbEntity
8
1
100
AcDbLine
6
CONTINUOUS
62
5
10
68.500000
20
325.875000
11
71.500000
21
325.875000
0
LINE
5
31f
100
AcDbEntity
8
1
100
AcDbLine
6
CONTINUOUS
62
5
10
70.000000
20
327.437500
11
70.000000
21
320.250000
0
LINE
5
320
100
AcDbEntity
8
1
100
AcDbLine
6
CONTINUOUS
62
5
10
68.000000
20
322.437500
11
72.000000
21
322.437500
0
LINE
5
321
100
AcDbEntity
8
1
100
AcDbLine
6
CONTINUOUS
62
5
10
67.250000
20
320.250000
11
72.500000
21
320.250000
0
POLYLINE
5
322
100
AcDbEntity
8
1
6
CONTINUOUS
62
5
100
AcDb2dPolyline
66
1
10
0.0
20
0.0
30
0.0
70
0
0
VERTEX
5
323
100
AcDbEntity
8
1
100
AcDbVertex
100
AcDb2dVertex
62
5
10
62.750000
20
337.000000
0
VERTEX
5
324
100
AcDbEntity
8
1
100
AcDbVertex
100
AcDb2dVertex
62
5
10
63.500000
20
331.000000
0
VERTEX
5
325
100
AcDbEntity
8
1
100
AcDbVertex
100
AcDb2dVertex
62
5
10
64.250000
20
337.000000
0
VERTEX
5
326
100
AcDbEntity
8
1
100
AcDbVertex
100
AcDb2dVertex
62
5
10
65.000000
20
331.000000
0
VERTEX
5
327
100
AcDbEntity
8
1
100
AcDbVertex
100
AcDb2dVertex
62
5
10
65.750000
20
337.000000
0
SEQEND
5
328
100
AcDbEntity
8
1
0
LINE
5
329
100
AcDbEntity
8
1
100
AcDbLine
6
CONTINUOUS
62
5
10
67.500000
20
337.000000
11
69.000000
21
337.000000
0
LINE
5
32a
100
AcDbEntity
8
1
100
AcDbLine
6
CONTINUOUS
62
5
10
68.250000
20
337.000000
11
68.250000
21
331.000000
0
LINE
5
32b
100
AcDbEntity
8
1
100
AcDbLine
6
CONTINUOUS
62
5
10
67.500000
20
331.000000
11
69.000000
21
331.000000
0
LINE
5
32c
100
AcDbEntity
8
1
100
AcDbLine
6
CONTINUOUS
62
5
10
71.000000
20
337.000000
11
71.000000
21
331.000000
0
POLYLINE
5
32d
100
AcDbEntity
8
1
6
CONTINUOUS
62
5
100
AcDb2dPolyline
66
1
10
0.0
20
0.0
30
0.0
70
0
0
VERTEX
5
32e
100
AcDbEntity
8
1
100
AcDbVertex
100
AcDb2dVertex
62
5
10
71.000000
20
337.000000
0
VERTEX
5
32f
100
AcDbEntity
8
1
100
AcDbVertex
100
AcDb2dVertex
62
5
10
72.250000
20
337.000000
0
VERTEX
5
330
100
AcDbEntity
8
1
100
AcDbVertex
100
AcDb2dVertex
62
5
10
72.750000
20
336.750000
0
VERTEX
5
331
100
AcDbEntity
8
1
100
AcDbVertex
100
AcDb2dVertex
62
5
10
73.250000
20
336.250000
0
VERTEX
5
332
100
AcDbEntity
8
1
100
AcDbVertex
100
AcDb2dVertex
62
5
10
73.500000
20
335.250000
0
VERTEX
5
333
100
AcDbEntity
8
1
100
AcDbVertex
100
AcDb2dVertex
62
5
10
73.500000
20
332.750000
0
VERTEX
5
334
100
AcDbEntity
8
1
100
AcDbVertex
100
AcDb2dVertex
62
5
10
73.250000
20
331.750000
0
VERTEX
5
335
100
AcDbEntity
8
1
100
AcDbVertex
100
AcDb2dVertex
62
5
10
72.750000
20
331.250000
0
VERTEX
5
336
100
AcDbEntity
8
1
100
AcDbVertex
100
AcDb2dVertex
62
5
10
72.250000
20
331.000000
0
VERTEX
5
337
100
AcDbEntity
8
1
100
AcDbVertex
100
AcDb2dVertex
62
5
10
71.000000
20
331.000000
0
SEQEND
5
338
100
AcDbEntity
8
1
0
POLYLINE
5
339
100
AcDbEntity
8
1
6
CONTINUOUS
62
5
100
AcDb2dPolyline
66
1
10
0.0
20
0.0
30
0.0
70
0
0
VERTEX
5
33a
100
AcDbEntity
8
1
100
AcDbVertex
100
AcDb2dVertex
62
5
10
77.500000
20
337.000000
0
VERTEX
5
33b
100
AcDbEntity
8
1
100
AcDbVertex
100
AcDb2dVertex
62
5
10
75.000000
20
337.000000
0
VERTEX
5
33c
100
AcDbEntity
8
1
100
AcDbVertex
100
AcDb2dVertex
62
5
10
75.000000
20
331.000000
0
VERTEX
5
33d
100
AcDbEntity
8
1
100
AcDbVertex
100
AcDb2dVertex
62
5
10
77.750000
20
331.000000
0
SEQEND
5
33e
100
AcDbEntity
8
1
0
LINE
5
33f
100
AcDbEntity
8
1
100
AcDbLine
6
CONTINUOUS
62
5
10
75.000000
20
334.000000
11
77.250000
21
334.000000
0
POLYLINE
5
340
100
AcDbEntity
8
1
6
CONTINUOUS
62
5
100
AcDb2dPolyline
66
1
10
0.0
20
0.0
30
0.0
70
0
0
VERTEX
5
341
100
AcDbEntity
8
1
100
AcDbVertex
100
AcDb2dVertex
62
5
10
53.250000
20
337.000000
0
VERTEX
5
342
100
AcDbEntity
8
1
100
AcDbVertex
100
AcDb2dVertex
62
5
10
53.250000
20
332.500000
0
VERTEX
5
343
100
AcDbEntity
8
1
100
AcDbVertex
100
AcDb2dVertex
62
5
10
53.000000
20
331.500000
0
VERTEX
5
344
100
AcDbEntity
8
1
100
AcDbVertex
100
AcDb2dVertex
62
5
10
52.500000
20
331.000000
0
VERTEX
5
345
100
AcDbEntity
8
1
100
AcDbVertex
100
AcDb2dVertex
62
5
10
51.750000
20
331.000000
0
VERTEX
5
346
100
AcDbEntity
8
1
100
AcDbVertex
100
AcDb2dVertex
62
5
10
51.250000
20
331.500000
0
VERTEX
5
347
100
AcDbEntity
8
1
100
AcDbVertex
100
AcDb2dVertex
62
5
10
51.000000
20
332.500000
0
SEQEND
5
348
100
AcDbEntity
8
1
0
POLYLINE
5
349
100
AcDbEntity
8
1
6
CONTINUOUS
62
5
100
AcDb2dPolyline
66
1
10
0.0
20
0.0
30
0.0
70
0
0
VERTEX
5
34a
100
AcDbEntity
8
1
100
AcDbVertex
100
AcDb2dVertex
62
5
10
57.250000
20
334.000000
0
VERTEX
5
34b
100
AcDbEntity
8
1
100
AcDbVertex
100
AcDb2dVertex
62
5
10
57.750000
20
334.500000
0
VERTEX
5
34c
100
AcDbEntity
8
1
100
AcDbVertex
100
AcDb2dVertex
62
5
10
58.000000
20
334.500000
0
VERTEX
5
34d
100
AcDbEntity
8
1
100
AcDbVertex
100
AcDb2dVertex
62
5
10
58.500000
20
334.000000
0
VERTEX
5
34e
100
AcDbEntity
8
1
100
AcDbVertex
100
AcDb2dVertex
62
5
10
58.500000
20
333.750000
0
VERTEX
5
34f
100
AcDbEntity
8
1
100
AcDbVertex
100
AcDb2dVertex
62
5
10
58.000000
20
333.250000
0
VERTEX
5
350
100
AcDbEntity
8
1
100
AcDbVertex
100
AcDb2dVertex
62
5
10
57.750000
20
333.250000
0
VERTEX
5
351
100
AcDbEntity
8
1
100
AcDbVertex
100
AcDb2dVertex
62
5
10
57.250000
20
333.750000
0
VERTEX
5
352
100
AcDbEntity
8
1
100
AcDbVertex
100
AcDb2dVertex
62
5
10
57.250000
20
334.000000
0
VERTEX
5
353
100
AcDbEntity
8
1
100
AcDbVertex
100
AcDb2dVertex
62
5
10
58.500000
20
334.000000
0
SEQEND
5
354
100
AcDbEntity
8
1
0
LINE
5
355
100
AcDbEntity
8
1
100
AcDbLine
6
CONTINUOUS
62
5
10
58.500000
20
333.750000
11
57.250000
21
333.750000
0
LINE
5
356
100
AcDbEntity
8
1
100
AcDbLine
6
CONTINUOUS
62
5
10
57.500000
20
333.500000
11
58.250000
21
333.500000
0
LINE
5
357
100
AcDbEntity
8
1
100
AcDbLine
6
CONTINUOUS
62
5
10
58.250000
20
334.250000
11
57.500000
21
334.250000
0
LINE
5
358
100
AcDbEntity
8
1
100
AcDbLine
6
CONTINUOUS
62
5
10
40.000000
20
340.000000
11
40.000000
21
308.000000
0
LINE
5
359
100
AcDbEntity
8
1
100
AcDbLine
6
CONTINUOUS
62
5
10
62.500000
20
286.750000
11
65.625000
21
286.750000
0
POLYLINE
5
35a
100
AcDbEntity
8
1
6
CONTINUOUS
62
5
100
AcDb2dPolyline
66
1
10
0.0
20
0.0
30
0.0
70
0
0
VERTEX
5
35b
100
AcDbEntity
8
1
100
AcDbVertex
100
AcDb2dVertex
62
5
10
67.500000
20
288.625000
0
VERTEX
5
35c
100
AcDbEntity
8
1
100
AcDbVertex
100
AcDb2dVertex
62
5
10
67.812500
20
289.875000
0
VERTEX
5
35d
100
AcDbEntity
8
1
100
AcDbVertex
100
AcDb2dVertex
62
5
10
68.437500
20
290.500000
0
VERTEX
5
35e
100
AcDbEntity
8
1
100
AcDbVertex
100
AcDb2dVertex
62
5
10
69.375000
20
290.500000
0
VERTEX
5
35f
100
AcDbEntity
8
1
100
AcDbVertex
100
AcDb2dVertex
62
5
10
70.000000
20
290.187500
0
VERTEX
5
360
100
AcDbEntity
8
1
100
AcDbVertex
100
AcDb2dVertex
62
5
10
70.312500
20
289.250000
0
VERTEX
5
361
100
AcDbEntity
8
1
100
AcDbVertex
100
AcDb2dVertex
62
5
10
70.312500
20
288.000000
0
VERTEX
5
362
100
AcDbEntity
8
1
100
AcDbVertex
100
AcDb2dVertex
62
5
10
70.000000
20
287.375000
0
VERTEX
5
363
100
AcDbEntity
8
1
100
AcDbVertex
100
AcDb2dVertex
62
5
10
69.375000
20
286.750000
0
VERTEX
5
364
100
AcDbEntity
8
1
100
AcDbVertex
100
AcDb2dVertex
62
5
10
68.437500
20
286.750000
0
SEQEND
5
365
100
AcDbEntity
8
1
0
POLYLINE
5
366
100
AcDbEntity
8
1
6
CONTINUOUS
62
5
100
AcDb2dPolyline
66
1
10
0.0
20
0.0
30
0.0
70
0
0
VERTEX
5
367
100
AcDbEntity
8
1
100
AcDbVertex
100
AcDb2dVertex
62
5
10
69.375000
20
286.750000
0
VERTEX
5
368
100
AcDbEntity
8
1
100
AcDbVertex
100
AcDb2dVertex
62
5
10
70.312500
20
286.125000
0
VERTEX
5
369
100
AcDbEntity
8
1
100
AcDbVertex
100
AcDb2dVertex
62
5
10
70.625000
20
285.187500
0
VERTEX
5
36a
100
AcDbEntity
8
1
100
AcDbVertex
100
AcDb2dVertex
62
5
10
70.625000
20
284.250000
0
VERTEX
5
36b
100
AcDbEntity
8
1
100
AcDbVertex
100
AcDb2dVertex
62
5
10
70.312500
20
283.625000
0
VERTEX
5
36c
100
AcDbEntity
8
1
100
AcDbVertex
100
AcDb2dVertex
62
5
10
69.375000
20
283.000000
0
VERTEX
5
36d
100
AcDbEntity
8
1
100
AcDbVertex
100
AcDb2dVertex
62
5
10
68.437500
20
283.000000
0
VERTEX
5
36e
100
AcDbEntity
8
1
100
AcDbVertex
100
AcDb2dVertex
62
5
10
67.812500
20
283.312500
0
VERTEX
5
36f
100
AcDbEntity
8
1
100
AcDbVertex
100
AcDb2dVertex
62
5
10
67.187500
20
284.250000
0
SEQEND
5
370
100
AcDbEntity
8
1
0
POLYLINE
5
371
100
AcDbEntity
8
1
6
CONTINUOUS
62
5
100
AcDb2dPolyline
66
1
10
0.0
20
0.0
30
0.0
70
0
0
VERTEX
5
372
100
AcDbEntity
8
1
100
AcDbVertex
100
AcDb2dVertex
62
5
10
75.312500
20
288.937500
0
VERTEX
5
373
100
AcDbEntity
8
1
100
AcDbVertex
100
AcDb2dVertex
62
5
10
75.000000
20
289.875000
0
VERTEX
5
374
100
AcDbEntity
8
1
100
AcDbVertex
100
AcDb2dVertex
62
5
10
74.375000
20
290.500000
0
VERTEX
5
375
100
AcDbEntity
8
1
100
AcDbVertex
100
AcDb2dVertex
62
5
10
73.437500
20
290.500000
0
VERTEX
5
376
100
AcDbEntity
8
1
100
AcDbVertex
100
AcDb2dVertex
62
5
10
72.812500
20
289.875000
0
VERTEX
5
377
100
AcDbEntity
8
1
100
AcDbVertex
100
AcDb2dVertex
62
5
10
72.500000
20
289.250000
0
VERTEX
5
378
100
AcDbEntity
8
1
100
AcDbVertex
100
AcDb2dVertex
62
5
10
72.187500
20
287.687500
0
VERTEX
5
379
100
AcDbEntity
8
1
100
AcDbVertex
100
AcDb2dVertex
62
5
10
72.187500
20
285.812500
0
VERTEX
5
37a
100
AcDbEntity
8
1
100
AcDbVertex
100
AcDb2dVertex
62
5
10
72.500000
20
284.250000
0
VERTEX
5
37b
100
AcDbEntity
8
1
100
AcDbVertex
100
AcDb2dVertex
62
5
10
72.812500
20
283.625000
0
VERTEX
5
37c
100
AcDbEntity
8
1
100
AcDbVertex
100
AcDb2dVertex
62
5
10
73.437500
20
283.000000
0
VERTEX
5
37d
100
AcDbEntity
8
1
100
AcDbVertex
100
AcDb2dVertex
62
5
10
74.375000
20
283.000000
0
VERTEX
5
37e
100
AcDbEntity
8
1
100
AcDbVertex
100
AcDb2dVertex
62
5
10
75.000000
20
283.625000
0
VERTEX
5
37f
100
AcDbEntity
8
1
100
AcDbVertex
100
AcDb2dVertex
62
5
10
75.312500
20
284.250000
0
SEQEND
5
380
100
AcDbEntity
8
1
0
LINE
5
381
100
AcDbEntity
8
1
100
AcDbLine
6
CONTINUOUS
62
5
10
74.687500
20
286.437500
11
75.937500
21
286.437500
0
LINE
5
382
100
AcDbEntity
8
1
100
AcDbLine
6
CONTINUOUS
62
5
10
75.312500
20
286.437500
11
75.312500
21
283.000000
0
POLYLINE
5
383
100
AcDbEntity
8
1
6
CONTINUOUS
62
5
100
AcDb2dPolyline
66
1
10
0.0
20
0.0
30
0.0
70
0
0
VERTEX
5
384
100
AcDbEntity
8
1
100
AcDbVertex
100
AcDb2dVertex
62
5
10
52.187500
20
290.500000
0
VERTEX
5
385
100
AcDbEntity
8
1
100
AcDbVertex
100
AcDb2dVertex
62
5
10
53.125000
20
283.000000
0
VERTEX
5
386
100
AcDbEntity
8
1
100
AcDbVertex
100
AcDb2dVertex
62
5
10
54.062500
20
290.500000
0
VERTEX
5
387
100
AcDbEntity
8
1
100
AcDbVertex
100
AcDb2dVertex
62
5
10
55.000000
20
283.000000
0
VERTEX
5
388
100
AcDbEntity
8
1
100
AcDbVertex
100
AcDb2dVertex
62
5
10
55.937500
20
290.500000
0
SEQEND
5
389
100
AcDbEntity
8
1
0
POLYLINE
5
38a
100
AcDbEntity
8
1
6
CONTINUOUS
62
5
100
AcDb2dPolyline
66
1
10
0.0
20
0.0
30
0.0
70
0
0
VERTEX
5
38b
100
AcDbEntity
8
1
100
AcDbVertex
100
AcDb2dVertex
62
5
10
60.312500
20
290.500000
0
VERTEX
5
38c
100
AcDbEntity
8
1
100
AcDbVertex
100
AcDb2dVertex
62
5
10
60.312500
20
284.875000
0
VERTEX
5
38d
100
AcDbEntity
8
1
100
AcDbVertex
100
AcDb2dVertex
62
5
10
60.000000
20
283.625000
0
VERTEX
5
38e
100
AcDbEntity
8
1
100
AcDbVertex
100
AcDb2dVertex
62
5
10
59.375000
20
283.000000
0
VERTEX
5
38f
100
AcDbEntity
8
1
100
AcDbVertex
100
AcDb2dVertex
62
5
10
58.437500
20
283.000000
0
VERTEX
5
390
100
AcDbEntity
8
1
100
AcDbVertex
100
AcDb2dVertex
62
5
10
57.812500
20
283.625000
0
VERTEX
5
391
100
AcDbEntity
8
1
100
AcDbVertex
100
AcDb2dVertex
62
5
10
57.500000
20
284.875000
0
SEQEND
5
392
100
AcDbEntity
8
1
0
LINE
5
393
100
AcDbEntity
8
1
100
AcDbLine
6
CONTINUOUS
62
5
10
74.000000
20
327.750000
11
75.000000
21
326.812500
0
POLYLINE
5
394
100
AcDbEntity
8
1
6
CONTINUOUS
62
5
100
AcDb2dPolyline
66
1
10
0.0
20
0.0
30
0.0
70
0
0
VERTEX
5
395
100
AcDbEntity
8
1
100
AcDbVertex
100
AcDb2dVertex
62
5
10
73.750000
20
324.625000
0
VERTEX
5
396
100
AcDbEntity
8
1
100
AcDbVertex
100
AcDb2dVertex
62
5
10
75.000000
20
324.625000
0
VERTEX
5
397
100
AcDbEntity
8
1
100
AcDbVertex
100
AcDb2dVertex
62
5
10
75.000000
20
321.500000
0
VERTEX
5
398
100
AcDbEntity
8
1
100
AcDbVertex
100
AcDb2dVertex
62
5
10
73.750000
20
319.937500
0
SEQEND
5
399
100
AcDbEntity
8
1
0
POLYLINE
5
39a
100
AcDbEntity
8
1
6
CONTINUOUS
62
5
100
AcDb2dPolyline
66
1
10
0.0
20
0.0
30
0.0
70
0
0
VERTEX
5
39b
100
AcDbEntity
8
1
100
AcDbVertex
100
AcDb2dVertex
62
5
10
75.000000
20
321.500000
0
VERTEX
5
39c
100
AcDbEntity
8
1
100
AcDbVertex
100
AcDb2dVertex
62
5
10
75.750000
20
320.250000
0
VERTEX
5
39d
100
AcDbEntity
8
1
100
AcDbVertex
100
AcDb2dVertex
62
5
10
76.750000
20
319.937500
0
VERTEX
5
39e
100
AcDbEntity
8
1
100
AcDbVertex
100
AcDb2dVertex
62
5
10
80.500000
20
319.937500
0
SEQEND
5
39f
100
AcDbEntity
8
1
0
POLYLINE
5
3a0
100
AcDbEntity
8
1
6
CONTINUOUS
62
5
100
AcDb2dPolyline
66
1
10
0.0
20
0.0
30
0.0
70
0
0
VERTEX
5
3a1
100
AcDbEntity
8
1
100
AcDbVertex
100
AcDb2dVertex
62
5
10
77.750000
20
325.250000
0
VERTEX
5
3a2
100
AcDbEntity
8
1
100
AcDbVertex
100
AcDb2dVertex
62
5
10
77.000000
20
323.375000
0
VERTEX
5
3a3
100
AcDbEntity
8
1
100
AcDbVertex
100
AcDb2dVertex
62
5
10
76.250000
20
322.125000
0
VERTEX
5
3a4
100
AcDbEntity
8
1
100
AcDbVertex
100
AcDb2dVertex
62
5
10
75.750000
20
321.500000
0
SEQEND
5
3a5
100
AcDbEntity
8
1
0
POLYLINE
5
3a6
100
AcDbEntity
8
1
6
CONTINUOUS
62
5
100
AcDb2dPolyline
66
1
10
0.0
20
0.0
30
0.0
70
0
0
VERTEX
5
3a7
100
AcDbEntity
8
1
100
AcDbVertex
100
AcDb2dVertex
62
5
10
76.500000
20
328.062500
0
VERTEX
5
3a8
100
AcDbEntity
8
1
100
AcDbVertex
100
AcDb2dVertex
62
5
10
77.750000
20
328.062500
0
VERTEX
5
3a9
100
AcDbEntity
8
1
100
AcDbVertex
100
AcDb2dVertex
62
5
10
77.750000
20
325.250000
0
VERTEX
5
3aa
100
AcDbEntity
8
1
100
AcDbVertex
100
AcDb2dVertex
62
5
10
78.500000
20
323.375000
0
VERTEX
5
3ab
100
AcDbEntity
8
1
100
AcDbVertex
100
AcDb2dVertex
62
5
10
79.500000
20
322.125000
0
VERTEX
5
3ac
100
AcDbEntity
8
1
100
AcDbVertex
100
AcDb2dVertex
62
5
10
80.250000
20
321.500000
0
SEQEND
5
3ad
100
AcDbEntity
8
1
0
ARC
5
3ae
100
AcDbEntity
8
1
100
AcDbCircle
6
CONTINUOUS
62
5
10
158.743788
20
199.000000
40
0.200000
100
AcDbArc
50
179.999998
51
-89.999999
0
LINE
5
3af
100
AcDbEntity
8
1
100
AcDbLine
6
CONTINUOUS
62
5
10
158.543788
20
199.000000
11
158.543788
21
201.400000
0
ARC
5
3b0
100
AcDbEntity
8
1
100
AcDbCircle
6
CONTINUOUS
62
5
10
159.243788
20
201.400000
40
0.700000
100
AcDbArc
50
89.999999
51
-179.999998
0
CIRCLE
5
3b1
100
AcDbEntity
8
1
100
AcDbCircle
6
CONTINUOUS
62
5
10
142.000000
20
201.350000
40
0.500000
0
LINE
5
3b2
100
AcDbEntity
8
1
100
AcDbLine
6
CONTINUOUS
62
5
10
142.500000
20
202.900000
11
143.000000
21
202.400000
0
LINE
5
3b3
100
AcDbEntity
8
1
100
AcDbLine
6
CONTINUOUS
62
5
10
142.500000
20
202.900000
11
143.000000
21
202.400000
0
ARC
5
3b4
100
AcDbEntity
8
1
100
AcDbCircle
6
CONTINUOUS
62
5
10
148.767579
20
197.950000
40
0.700000
100
AcDbArc
50
89.999999
51
179.999998
0
POLYLINE
5
3b5
100
AcDbEntity
8
1
6
CONTINUOUS
62
5
100
AcDb2dPolyline
66
1
10
0.0
20
0.0
30
0.0
70
0
0
VERTEX
5
3b6
100
AcDbEntity
8
1
100
AcDbVertex
100
AcDb2dVertex
62
5
10
148.067579
20
197.950000
0
VERTEX
5
3b7
100
AcDbEntity
8
1
100
AcDbVertex
100
AcDb2dVertex
62
5
10
148.067579
20
196.850000
0
VERTEX
5
3b8
100
AcDbEntity
8
1
100
AcDbVertex
100
AcDb2dVertex
62
5
10
148.067579
20
196.850000
0
SEQEND
5
3b9
100
AcDbEntity
8
1
0
ARC
5
3ba
100
AcDbEntity
8
1
100
AcDbCircle
6
CONTINUOUS
62
5
10
148.367579
20
196.850000
40
0.300000
100
AcDbArc
50
89.999999
51
179.999998
0
POLYLINE
5
3bb
100
AcDbEntity
8
1
6
CONTINUOUS
62
5
100
AcDb2dPolyline
66
1
10
0.0
20
0.0
30
0.0
70
0
0
VERTEX
5
3bc
100
AcDbEntity
8
1
100
AcDbVertex
100
AcDb2dVertex
62
5
10
148.367579
20
197.150000
0
VERTEX
5
3bd
100
AcDbEntity
8
1
100
AcDbVertex
100
AcDb2dVertex
62
5
10
149.540558
20
197.150000
0
VERTEX
5
3be
100
AcDbEntity
8
1
100
AcDbVertex
100
AcDb2dVertex
62
5
10
149.540558
20
198.350000
0
SEQEND
5
3bf
100
AcDbEntity
8
1
0
ARC
5
3c0
100
AcDbEntity
8
1
100
AcDbCircle
6
CONTINUOUS
62
5
10
149.840558
20
198.350000
40
0.300000
100
AcDbArc
50
89.999999
51
179.999998
0
POLYLINE
5
3c1
100
AcDbEntity
8
1
6
CONTINUOUS
62
5
100
AcDb2dPolyline
66
1
10
0.0
20
0.0
30
0.0
70
0
0
VERTEX
5
3c2
100
AcDbEntity
8
1
100
AcDbVertex
100
AcDb2dVertex
62
5
10
149.840558
20
198.650000
0
VERTEX
5
3c3
100
AcDbEntity
8
1
100
AcDbVertex
100
AcDb2dVertex
62
5
10
149.840558
20
198.650000
0
VERTEX
5
3c4
100
AcDbEntity
8
1
100
AcDbVertex
100
AcDb2dVertex
62
5
10
148.767579
20
198.650000
0
SEQEND
5
3c5
100
AcDbEntity
8
1
0
LINE
5
3c6
100
AcDbEntity
8
1
100
AcDbLine
6
CONTINUOUS
62
5
10
149.540558
20
197.150000
11
149.766027
21
196.450000
0
LINE
5
3c7
100
AcDbEntity
8
1
100
AcDbLine
6
CONTINUOUS
62
5
10
146.300000
20
195.350000
11
146.138428
21
195.650000
0
LINE
5
3c8
100
AcDbEntity
8
1
100
AcDbLine
6
CONTINUOUS
62
5
10
150.873139
20
198.500000
11
151.973505
21
198.597631
0
LINE
5
3c9
100
AcDbEntity
8
1
100
AcDbLine
6
CONTINUOUS
62
5
10
147.000000
20
199.700000
11
146.500000
21
200.000000
0
POLYLINE
5
3ca
100
AcDbEntity
8
1
6
CONTINUOUS
62
5
100
AcDb2dPolyline
66
1
10
0.0
20
0.0
30
0.0
70
0
0
VERTEX
5
3cb
100
AcDbEntity
8
1
100
AcDbVertex
100
AcDb2dVertex
62
5
10
154.999885
20
195.700000
0
VERTEX
5
3cc
100
AcDbEntity
8
1
100
AcDbVertex
100
AcDb2dVertex
62
5
10
154.999885
20
197.100000
0
VERTEX
5
3cd
100
AcDbEntity
8
1
100
AcDbVertex
100
AcDb2dVertex
62
5
10
158.537876
20
197.100000
0
SEQEND
5
3ce
100
AcDbEntity
8
1
0
LINE
5
3cf
100
AcDbEntity
8
1
100
AcDbLine
6
CONTINUOUS
62
5
10
159.400000
20
194.200000
11
159.100000
21
194.500000
0
ARC
5
3d0
100
AcDbEntity
8
1
100
AcDbCircle
6
CONTINUOUS
62
5
10
148.568083
20
196.150000
40
0.300000
100
AcDbArc
50
89.999999
51
179.999998
0
LINE
5
3d1
100
AcDbEntity
8
1
100
AcDbLine
6
CONTINUOUS
62
5
10
148.268083
20
196.150000
11
148.268083
21
195.650000
0
ARC
5
3d2
100
AcDbEntity
8
1
100
AcDbCircle
6
CONTINUOUS
62
5
10
148.568083
20
195.650000
40
0.300000
100
AcDbArc
50
179.999998
51
-89.999999
0
LINE
5
3d3
100
AcDbEntity
8
1
100
AcDbLine
6
CONTINUOUS
62
5
10
148.568083
20
195.350000
11
150.873139
21
195.350000
0
LINE
5
3d4
100
AcDbEntity
8
1
100
AcDbLine
6
CONTINUOUS
62
5
10
150.873139
20
193.650000
11
150.873139
21
198.200000
0
ARC
5
3d5
100
AcDbEntity
8
1
100
AcDbCircle
6
CONTINUOUS
62
5
10
150.573139
20
198.200000
40
0.300000
100
AcDbArc
50
0.000000
51
89.999999
0
LINE
5
3d6
100
AcDbEntity
8
1
100
AcDbLine
6
CONTINUOUS
62
5
10
150.573139
20
198.500000
11
150.066027
21
198.500000
0
ARC
5
3d7
100
AcDbEntity
8
1
100
AcDbCircle
6
CONTINUOUS
62
5
10
150.066027
20
198.200000
40
0.300000
100
AcDbArc
50
89.999999
51
179.999998
0
POLYLINE
5
3d8
100
AcDbEntity
8
1
6
CONTINUOUS
62
5
100
AcDb2dPolyline
66
1
10
0.0
20
0.0
30
0.0
70
0
0
VERTEX
5
3d9
100
AcDbEntity
8
1
100
AcDbVertex
100
AcDb2dVertex
62
5
10
149.766027
20
198.200000
0
VERTEX
5
3da
100
AcDbEntity
8
1
100
AcDbVertex
100
AcDb2dVertex
62
5
10
149.766027
20
196.450000
0
VERTEX
5
3db
100
AcDbEntity
8
1
100
AcDbVertex
100
AcDb2dVertex
62
5
10
148.568083
20
196.450000
0
SEQEND
5
3dc
100
AcDbEntity
8
1
0
LINE
5
3dd
100
AcDbEntity
8
1
100
AcDbLine
6
CONTINUOUS
62
5
10
153.566903
20
192.800000
11
153.566903
21
197.100000
0
ARC
5
3de
100
AcDbEntity
8
1
100
AcDbCircle
6
CONTINUOUS
62
5
10
148.367579
20
194.950000
40
0.300000
100
AcDbArc
50
-179.999998
51
-89.999999
0
LINE
5
3df
100
AcDbEntity
8
1
100
AcDbLine
6
CONTINUOUS
62
5
10
148.067579
20
194.950000
11
148.067579
21
193.550000
0
ARC
5
3e0
100
AcDbEntity
8
1
100
AcDbCircle
6
CONTINUOUS
62
5
10
148.267579
20
193.550000
40
0.200000
100
AcDbArc
50
-179.999998
51
-89.999999
0
LINE
5
3e1
100
AcDbEntity
8
1
100
AcDbLine
6
CONTINUOUS
62
5
10
148.267579
20
193.350000
11
149.113816
21
193.350000
0
POLYLINE
5
3e2
100
AcDbEntity
8
1
6
CONTINUOUS
62
5
100
AcDb2dPolyline
66
1
10
0.0
20
0.0
30
0.0
70
0
0
VERTEX
5
3e3
100
AcDbEntity
8
1
100
AcDbVertex
100
AcDb2dVertex
62
5
10
150.873139
20
195.350000
0
VERTEX
5
3e4
100
AcDbEntity
8
1
100
AcDbVertex
100
AcDb2dVertex
62
5
10
149.972585
20
194.650000
0
VERTEX
5
3e5
100
AcDbEntity
8
1
100
AcDbVertex
100
AcDb2dVertex
62
5
10
148.367579
20
194.650000
0
SEQEND
5
3e6
100
AcDbEntity
8
1
0
POLYLINE
5
3e7
100
AcDbEntity
8
1
6
CONTINUOUS
62
5
100
AcDb2dPolyline
66
1
10
0.0
20
0.0
30
0.0
70
0
0
VERTEX
5
3e8
100
AcDbEntity
8
1
100
AcDbVertex
100
AcDb2dVertex
62
5
10
149.113816
20
194.479017
0
VERTEX
5
3e9
100
AcDbEntity
8
1
100
AcDbVertex
100
AcDb2dVertex
62
5
10
149.150716
20
194.450571
0
VERTEX
5
3ea
100
AcDbEntity
8
1
100
AcDbVertex
100
AcDb2dVertex
62
5
10
149.261418
20
194.428446
0
VERTEX
5
3eb
100
AcDbEntity
8
1
100
AcDbVertex
100
AcDb2dVertex
62
5
10
149.445921
20
194.412643
0
VERTEX
5
3ec
100
AcDbEntity
8
1
100
AcDbVertex
100
AcDb2dVertex
62
5
10
149.704225
20
194.403161
0
VERTEX
5
3ed
100
AcDbEntity
8
1
100
AcDbVertex
100
AcDb2dVertex
62
5
10
150.036331
20
194.400000
0
SEQEND
5
3ee
100
AcDbEntity
8
1
0
POLYLINE
5
3ef
100
AcDbEntity
8
1
6
CONTINUOUS
62
5
100
AcDb2dPolyline
66
1
10
0.0
20
0.0
30
0.0
70
0
0
VERTEX
5
3f0
100
AcDbEntity
8
1
100
AcDbVertex
100
AcDb2dVertex
62
5
10
149.829867
20
194.600000
0
VERTEX
5
3f1
100
AcDbEntity
8
1
100
AcDbVertex
100
AcDb2dVertex
62
5
10
149.572089
20
194.595161
0
VERTEX
5
3f2
100
AcDbEntity
8
1
100
AcDbVertex
100
AcDb2dVertex
62
5
10
149.371594
20
194.580643
0
VERTEX
5
3f3
100
AcDbEntity
8
1
100
AcDbVertex
100
AcDb2dVertex
62
5
10
149.228384
20
194.556446
0
VERTEX
5
3f4
100
AcDbEntity
8
1
100
AcDbVertex
100
AcDb2dVertex
62
5
10
149.142458
20
194.522571
0
VERTEX
5
3f5
100
AcDbEntity
8
1
100
AcDbVertex
100
AcDb2dVertex
62
5
10
149.113816
20
194.479017
0
SEQEND
5
3f6
100
AcDbEntity
8
1
0
POLYLINE
5
3f7
100
AcDbEntity
8
1
6
CONTINUOUS
62
5
100
AcDb2dPolyline
66
1
10
0.0
20
0.0
30
0.0
70
0
0
VERTEX
5
3f8
100
AcDbEntity
8
1
100
AcDbVertex
100
AcDb2dVertex
62
5
10
149.413818
20
194.479017
0
VERTEX
5
3f9
100
AcDbEntity
8
1
100
AcDbVertex
100
AcDb2dVertex
62
5
10
149.438718
20
194.450571
0
VERTEX
5
3fa
100
AcDbEntity
8
1
100
AcDbVertex
100
AcDb2dVertex
62
5
10
149.513420
20
194.428446
0
VERTEX
5
3fb
100
AcDbEntity
8
1
100
AcDbVertex
100
AcDb2dVertex
62
5
10
149.637922
20
194.412643
0
VERTEX
5
3fc
100
AcDbEntity
8
1
100
AcDbVertex
100
AcDb2dVertex
62
5
10
149.812226
20
194.403161
0
VERTEX
5
3fd
100
AcDbEntity
8
1
100
AcDbVertex
100
AcDb2dVertex
62
5
10
150.036331
20
194.400000
0
SEQEND
5
3fe
100
AcDbEntity
8
1
0
POLYLINE
5
3ff
100
AcDbEntity
8
1
6
CONTINUOUS
62
5
100
AcDb2dPolyline
66
1
10
0.0
20
0.0
30
0.0
70
0
0
VERTEX
5
400
100
AcDbEntity
8
1
100
AcDbVertex
100
AcDb2dVertex
62
5
10
149.829867
20
194.600000
0
VERTEX
5
401
100
AcDbEntity
8
1
100
AcDbVertex
100
AcDb2dVertex
62
5
10
149.680089
20
194.595161
0
VERTEX
5
402
100
AcDbEntity
8
1
100
AcDbVertex
100
AcDb2dVertex
62
5
10
149.563596
20
194.580643
0
VERTEX
5
403
100
AcDbEntity
8
1
100
AcDbVertex
100
AcDb2dVertex
62
5
10
149.480386
20
194.556446
0
VERTEX
5
404
100
AcDbEntity
8
1
100
AcDbVertex
100
AcDb2dVertex
62
5
10
149.430460
20
194.522571
0
VERTEX
5
405
100
AcDbEntity
8
1
100
AcDbVertex
100
AcDb2dVertex
62
5
10
149.413818
20
194.479017
0
SEQEND
5
406
100
AcDbEntity
8
1
0
LINE
5
407
100
AcDbEntity
8
1
100
AcDbLine
6
CONTINUOUS
62
5
10
149.475337
20
194.650000
11
149.475337
21
194.588155
0
ARC
5
408
100
AcDbEntity
8
1
100
AcDbCircle
6
CONTINUOUS
62
5
10
153.968076
20
195.744828
40
0.300000
100
AcDbArc
50
89.999999
51
179.999998
0
LINE
5
409
100
AcDbEntity
8
1
100
AcDbLine
6
CONTINUOUS
62
5
10
153.968076
20
196.044828
11
154.699885
21
196.044828
0
ARC
5
40a
100
AcDbEntity
8
1
100
AcDbCircle
6
CONTINUOUS
62
5
10
154.699885
20
195.744828
40
0.300000
100
AcDbArc
50
0.000000
51
89.999999
0
LINE
5
40b
100
AcDbEntity
8
1
100
AcDbLine
6
CONTINUOUS
62
5
10
154.999885
20
195.744828
11
154.999885
21
194.300000
0
POLYLINE
5
40c
100
AcDbEntity
8
1
6
CONTINUOUS
62
5
100
AcDb2dPolyline
66
1
10
0.0
20
0.0
30
0.0
70
0
0
VERTEX
5
40d
100
AcDbEntity
8
1
100
AcDbVertex
100
AcDb2dVertex
62
5
10
151.623575
20
193.650000
0
VERTEX
5
40e
100
AcDbEntity
8
1
100
AcDbVertex
100
AcDb2dVertex
62
5
10
151.623575
20
197.100000
0
VERTEX
5
40f
100
AcDbEntity
8
1
100
AcDbVertex
100
AcDb2dVertex
62
5
10
153.668076
20
197.100000
0
VERTEX
5
410
100
AcDbEntity
8
1
100
AcDbVertex
100
AcDb2dVertex
62
5
10
153.668076
20
195.744828
0
SEQEND
5
411
100
AcDbEntity
8
1
0
ARC
5
412
100
AcDbEntity
8
1
100
AcDbCircle
6
CONTINUOUS
62
5
10
154.699885
20
194.300000
40
0.300000
100
AcDbArc
50
0.000000
51
89.999999
0
LINE
5
413
100
AcDbEntity
8
1
100
AcDbLine
6
CONTINUOUS
62
5
10
154.699885
20
194.600000
11
154.079518
21
194.600000
0
ARC
5
414
100
AcDbEntity
8
1
100
AcDbCircle
6
CONTINUOUS
62
5
10
154.079518
20
194.300000
40
0.300000
100
AcDbArc
50
89.999999
51
172.041714
0
POLYLINE
5
415
100
AcDbEntity
8
1
6
CONTINUOUS
62
5
100
AcDb2dPolyline
66
1
10
0.0
20
0.0
30
0.0
70
0
0
VERTEX
5
416
100
AcDbEntity
8
1
100
AcDbVertex
100
AcDb2dVertex
62
5
10
153.782407
20
194.341536
0
VERTEX
5
417
100
AcDbEntity
8
1
100
AcDbVertex
100
AcDb2dVertex
62
5
10
153.566903
20
192.800000
0
VERTEX
5
418
100
AcDbEntity
8
1
100
AcDbVertex
100
AcDb2dVertex
62
5
10
154.999885
20
192.800000
0
VERTEX
5
419
100
AcDbEntity
8
1
100
AcDbVertex
100
AcDb2dVertex
62
5
10
154.999885
20
194.300000
0
SEQEND
5
41a
100
AcDbEntity
8
1
0
ARC
5
41b
100
AcDbEntity
8
1
100
AcDbCircle
6
CONTINUOUS
62
5
10
154.118540
20
195.700000
40
0.300000
100
AcDbArc
50
89.999999
51
179.999998
0
LINE
5
41c
100
AcDbEntity
8
1
100
AcDbLine
6
CONTINUOUS
62
5
10
153.818540
20
195.700000
11
153.818540
21
194.600000
0
LINE
5
41d
100
AcDbEntity
8
1
100
AcDbLine
6
CONTINUOUS
62
5
10
154.999885
20
195.700000
11
154.999885
21
195.700000
0
ARC
5
41e
100
AcDbEntity
8
1
100
AcDbCircle
6
CONTINUOUS
62
5
10
154.699885
20
195.700000
40
0.300000
100
AcDbArc
50
0.000000
51
89.999999
0
LINE
5
41f
100
AcDbEntity
8
1
100
AcDbLine
6
CONTINUOUS
62
5
10
154.699885
20
196.000000
11
154.118540
21
196.000000
0
LINE
5
420
100
AcDbEntity
8
1
100
AcDbLine
6
CONTINUOUS
62
5
10
140.000000
20
196.700000
11
140.500000
21
197.000000
0
ARC
5
421
100
AcDbEntity
8
1
100
AcDbCircle
6
CONTINUOUS
62
5
10
139.500000
20
202.400000
40
0.500000
100
AcDbArc
50
89.999999
51
-179.999997
0
LINE
5
422
100
AcDbEntity
8
1
100
AcDbLine
6
CONTINUOUS
62
5
10
140.500000
20
202.900000
11
139.500000
21
202.900000
0
LINE
5
423
100
AcDbEntity
8
1
100
AcDbLine
6
CONTINUOUS
62
5
10
140.000000
20
200.100000
11
140.500000
21
199.800000
0
ARC
5
424
100
AcDbEntity
8
1
100
AcDbCircle
6
CONTINUOUS
62
5
10
158.743788
20
185.200000
40
0.200000
100
AcDbArc
50
89.999999
51
179.999998
0
LINE
5
425
100
AcDbEntity
8
1
100
AcDbLine
6
CONTINUOUS
62
5
10
158.543788
20
185.200000
11
158.543788
21
182.800000
0
ARC
5
426
100
AcDbEntity
8
1
100
AcDbCircle
6
CONTINUOUS
62
5
10
159.243788
20
182.800000
40
0.700000
100
AcDbArc
50
-179.999998
51
-89.999999
0
LINE
5
427
100
AcDbEntity
8
1
100
AcDbLine
6
CONTINUOUS
62
5
10
159.400000
20
190.000000
11
159.100000
21
189.700000
0
CIRCLE
5
428
100
AcDbEntity
8
1
100
AcDbCircle
6
CONTINUOUS
62
5
10
142.000000
20
182.850000
40
0.500000
0
LINE
5
429
100
AcDbEntity
8
1
100
AcDbLine
6
CONTINUOUS
62
5
10
142.500000
20
181.300000
11
143.000000
21
181.800000
0
ARC
5
42a
100
AcDbEntity
8
1
100
AcDbCircle
6
CONTINUOUS
62
5
10
148.568083
20
188.050000
40
0.300000
100
AcDbArc
50
-179.999998
51
-89.999999
0
LINE
5
42b
100
AcDbEntity
8
1
100
AcDbLine
6
CONTINUOUS
62
5
10
148.268083
20
188.050000
11
148.268083
21
188.550000
0
ARC
5
42c
100
AcDbEntity
8
1
100
AcDbCircle
6
CONTINUOUS
62
5
10
148.568083
20
188.550000
40
0.300000
100
AcDbArc
50
89.999999
51
179.999998
0
LINE
5
42d
100
AcDbEntity
8
1
100
AcDbLine
6
CONTINUOUS
62
5
10
148.568083
20
188.850000
11
150.873139
21
188.850000
0
LINE
5
42e
100
AcDbEntity
8
1
100
AcDbLine
6
CONTINUOUS
62
5
10
150.873139
20
190.550000
11
150.873139
21
186.000000
0
ARC
5
42f
100
AcDbEntity
8
1
100
AcDbCircle
6
CONTINUOUS
62
5
10
150.573139
20
186.000000
40
0.300000
100
AcDbArc
50
-89.999999
51
0.000000
0
LINE
5
430
100
AcDbEntity
8
1
100
AcDbLine
6
CONTINUOUS
62
5
10
150.573139
20
185.700000
11
150.066027
21
185.700000
0
ARC
5
431
100
AcDbEntity
8
1
100
AcDbCircle
6
CONTINUOUS
62
5
10
150.066027
20
186.000000
40
0.300000
100
AcDbArc
50
179.999998
51
-89.999999
0
POLYLINE
5
432
100
AcDbEntity
8
1
6
CONTINUOUS
62
5
100
AcDb2dPolyline
66
1
10
0.0
20
0.0
30
0.0
70
0
0
VERTEX
5
433
100
AcDbEntity
8
1
100
AcDbVertex
100
AcDb2dVertex
62
5
10
149.766027
20
186.000000
0
VERTEX
5
434
100
AcDbEntity
8
1
100
AcDbVertex
100
AcDb2dVertex
62
5
10
149.766027
20
187.750000
0
VERTEX
5
435
100
AcDbEntity
8
1
100
AcDbVertex
100
AcDb2dVertex
62
5
10
148.568083
20
187.750000
0
SEQEND
5
436
100
AcDbEntity
8
1
0
LINE
5
437
100
AcDbEntity
8
1
100
AcDbLine
6
CONTINUOUS
62
5
10
149.540558
20
187.050000
11
149.766027
21
187.750000
0
LINE
5
438
100
AcDbEntity
8
1
100
AcDbLine
6
CONTINUOUS
62
5
10
150.873139
20
185.700000
11
151.973505
21
185.602370
0
ARC
5
439
100
AcDbEntity
8
1
100
AcDbCircle
6
CONTINUOUS
62
5
10
148.767579
20
186.250000
40
0.700000
100
AcDbArc
50
-179.999998
51
-89.999999
0
POLYLINE
5
43a
100
AcDbEntity
8
1
6
CONTINUOUS
62
5
100
AcDb2dPolyline
66
1
10
0.0
20
0.0
30
0.0
70
0
0
VERTEX
5
43b
100
AcDbEntity
8
1
100
AcDbVertex
100
AcDb2dVertex
62
5
10
148.067579
20
186.250000
0
VERTEX
5
43c
100
AcDbEntity
8
1
100
AcDbVertex
100
AcDb2dVertex
62
5
10
148.067579
20
187.350000
0
VERTEX
5
43d
100
AcDbEntity
8
1
100
AcDbVertex
100
AcDb2dVertex
62
5
10
148.067579
20
187.350000
0
SEQEND
5
43e
100
AcDbEntity
8
1
0
ARC
5
43f
100
AcDbEntity
8
1
100
AcDbCircle
6
CONTINUOUS
62
5
10
148.367579
20
187.350000
40
0.300000
100
AcDbArc
50
-179.999998
51
-89.999999
0
POLYLINE
5
440
100
AcDbEntity
8
1
6
CONTINUOUS
62
5
100
AcDb2dPolyline
66
1
10
0.0
20
0.0
30
0.0
70
0
0
VERTEX
5
441
100
AcDbEntity
8
1
100
AcDbVertex
100
AcDb2dVertex
62
5
10
148.367579
20
187.050000
0
VERTEX
5
442
100
AcDbEntity
8
1
100
AcDbVertex
100
AcDb2dVertex
62
5
10
149.540558
20
187.050000
0
VERTEX
5
443
100
AcDbEntity
8
1
100
AcDbVertex
100
AcDb2dVertex
62
5
10
149.540558
20
185.850000
0
SEQEND
5
444
100
AcDbEntity
8
1
0
ARC
5
445
100
AcDbEntity
8
1
100
AcDbCircle
6
CONTINUOUS
62
5
10
149.840558
20
185.850000
40
0.300000
100
AcDbArc
50
179.999998
51
-89.999999
0
POLYLINE
5
446
100
AcDbEntity
8
1
6
CONTINUOUS
62
5
100
AcDb2dPolyline
66
1
10
0.0
20
0.0
30
0.0
70
0
0
VERTEX
5
447
100
AcDbEntity
8
1
100
AcDbVertex
100
AcDb2dVertex
62
5
10
149.840558
20
185.550000
0
VERTEX
5
448
100
AcDbEntity
8
1
100
AcDbVertex
100
AcDb2dVertex
62
5
10
149.840558
20
185.550000
0
VERTEX
5
449
100
AcDbEntity
8
1
100
AcDbVertex
100
AcDb2dVertex
62
5
10
148.767579
20
185.550000
0
SEQEND
5
44a
100
AcDbEntity
8
1
0
LINE
5
44b
100
AcDbEntity
8
1
100
AcDbLine
6
CONTINUOUS
62
5
10
147.000000
20
184.500000
11
146.500000
21
184.200000
0
POLYLINE
5
44c
100
AcDbEntity
8
1
6
CONTINUOUS
62
5
100
AcDb2dPolyline
66
1
10
0.0
20
0.0
30
0.0
70
0
0
VERTEX
5
44d
100
AcDbEntity
8
1
100
AcDbVertex
100
AcDb2dVertex
62
5
10
149.113816
20
189.720983
0
VERTEX
5
44e
100
AcDbEntity
8
1
100
AcDbVertex
100
AcDb2dVertex
62
5
10
149.150716
20
189.749429
0
VERTEX
5
44f
100
AcDbEntity
8
1
100
AcDbVertex
100
AcDb2dVertex
62
5
10
149.261418
20
189.771554
0
VERTEX
5
450
100
AcDbEntity
8
1
100
AcDbVertex
100
AcDb2dVertex
62
5
10
149.445921
20
189.787357
0
VERTEX
5
451
100
AcDbEntity
8
1
100
AcDbVertex
100
AcDb2dVertex
62
5
10
149.704225
20
189.796839
0
VERTEX
5
452
100
AcDbEntity
8
1
100
AcDbVertex
100
AcDb2dVertex
62
5
10
150.036331
20
189.800000
0
SEQEND
5
453
100
AcDbEntity
8
1
0
POLYLINE
5
454
100
AcDbEntity
8
1
6
CONTINUOUS
62
5
100
AcDb2dPolyline
66
1
10
0.0
20
0.0
30
0.0
70
0
0
VERTEX
5
455
100
AcDbEntity
8
1
100
AcDbVertex
100
AcDb2dVertex
62
5
10
149.829867
20
189.600000
0
VERTEX
5
456
100
AcDbEntity
8
1
100
AcDbVertex
100
AcDb2dVertex
62
5
10
149.572089
20
189.604839
0
VERTEX
5
457
100
AcDbEntity
8
1
100
AcDbVertex
100
AcDb2dVertex
62
5
10
149.371594
20
189.619357
0
VERTEX
5
458
100
AcDbEntity
8
1
100
AcDbVertex
100
AcDb2dVertex
62
5
10
149.228384
20
189.643554
0
VERTEX
5
459
100
AcDbEntity
8
1
100
AcDbVertex
100
AcDb2dVertex
62
5
10
149.142458
20
189.677429
0
VERTEX
5
45a
100
AcDbEntity
8
1
100
AcDbVertex
100
AcDb2dVertex
62
5
10
149.113816
20
189.720983
0
SEQEND
5
45b
100
AcDbEntity
8
1
0
LINE
5
45c
100
AcDbEntity
8
1
100
AcDbLine
6
CONTINUOUS
62
5
10
146.300000
20
188.850000
11
146.138428
21
188.550000
0
POLYLINE
5
45d
100
AcDbEntity
8
1
6
CONTINUOUS
62
5
100
AcDb2dPolyline
66
1
10
0.0
20
0.0
30
0.0
70
0
0
VERTEX
5
45e
100
AcDbEntity
8
1
100
AcDbVertex
100
AcDb2dVertex
62
5
10
149.413818
20
189.720983
0
VERTEX
5
45f
100
AcDbEntity
8
1
100
AcDbVertex
100
AcDb2dVertex
62
5
10
149.438718
20
189.749429
0
VERTEX
5
460
100
AcDbEntity
8
1
100
AcDbVertex
100
AcDb2dVertex
62
5
10
149.513420
20
189.771554
0
VERTEX
5
461
100
AcDbEntity
8
1
100
AcDbVertex
100
AcDb2dVertex
62
5
10
149.637922
20
189.787357
0
VERTEX
5
462
100
AcDbEntity
8
1
100
AcDbVertex
100
AcDb2dVertex
62
5
10
149.812226
20
189.796839
0
VERTEX
5
463
100
AcDbEntity
8
1
100
AcDbVertex
100
AcDb2dVertex
62
5
10
150.036331
20
189.800000
0
SEQEND
5
464
100
AcDbEntity
8
1
0
POLYLINE
5
465
100
AcDbEntity
8
1
6
CONTINUOUS
62
5
100
AcDb2dPolyline
66
1
10
0.0
20
0.0
30
0.0
70
0
0
VERTEX
5
466
100
AcDbEntity
8
1
100
AcDbVertex
100
AcDb2dVertex
62
5
10
149.829867
20
189.600000
0
VERTEX
5
467
100
AcDbEntity
8
1
100
AcDbVertex
100
AcDb2dVertex
62
5
10
149.680089
20
189.604839
0
VERTEX
5
468
100
AcDbEntity
8
1
100
AcDbVertex
100
AcDb2dVertex
62
5
10
149.563596
20
189.619357
0
VERTEX
5
469
100
AcDbEntity
8
1
100
AcDbVertex
100
AcDb2dVertex
62
5
10
149.480386
20
189.643554
0
VERTEX
5
46a
100
AcDbEntity
8
1
100
AcDbVertex
100
AcDb2dVertex
62
5
10
149.430460
20
189.677429
0
VERTEX
5
46b
100
AcDbEntity
8
1
100
AcDbVertex
100
AcDb2dVertex
62
5
10
149.413818
20
189.720983
0
SEQEND
5
46c
100
AcDbEntity
8
1
0
LINE
5
46d
100
AcDbEntity
8
1
100
AcDbLine
6
CONTINUOUS
62
5
10
149.475337
20
189.611845
11
149.475337
21
189.550000
0
POLYLINE
5
46e
100
AcDbEntity
8
1
6
CONTINUOUS
62
5
100
AcDb2dPolyline
66
1
10
0.0
20
0.0
30
0.0
70
0
0
VERTEX
5
46f
100
AcDbEntity
8
1
100
AcDbVertex
100
AcDb2dVertex
62
5
10
154.999885
20
188.455172
0
VERTEX
5
470
100
AcDbEntity
8
1
100
AcDbVertex
100
AcDb2dVertex
62
5
10
154.999885
20
187.100000
0
VERTEX
5
471
100
AcDbEntity
8
1
100
AcDbVertex
100
AcDb2dVertex
62
5
10
158.537876
20
187.100000
0
SEQEND
5
472
100
AcDbEntity
8
1
0
ARC
5
473
100
AcDbEntity
8
1
100
AcDbCircle
6
CONTINUOUS
62
5
10
153.968076
20
188.455172
40
0.300000
100
AcDbArc
50
179.999998
51
-89.999999
0
LINE
5
474
100
AcDbEntity
8
1
100
AcDbLine
6
CONTINUOUS
62
5
10
153.968076
20
188.155172
11
154.699885
21
188.155172
0
ARC
5
475
100
AcDbEntity
8
1
100
AcDbCircle
6
CONTINUOUS
62
5
10
154.699885
20
188.455172
40
0.300000
100
AcDbArc
50
-89.999999
51
0.000000
0
LINE
5
476
100
AcDbEntity
8
1
100
AcDbLine
6
CONTINUOUS
62
5
10
154.999885
20
188.455172
11
154.999885
21
189.900000
0
POLYLINE
5
477
100
AcDbEntity
8
1
6
CONTINUOUS
62
5
100
AcDb2dPolyline
66
1
10
0.0
20
0.0
30
0.0
70
0
0
VERTEX
5
478
100
AcDbEntity
8
1
100
AcDbVertex
100
AcDb2dVertex
62
5
10
151.623575
20
190.550000
0
VERTEX
5
479
100
AcDbEntity
8
1
100
AcDbVertex
100
AcDb2dVertex
62
5
10
151.623575
20
187.100000
0
VERTEX
5
47a
100
AcDbEntity
8
1
100
AcDbVertex
100
AcDb2dVertex
62
5
10
153.668076
20
187.100000
0
VERTEX
5
47b
100
AcDbEntity
8
1
100
AcDbVertex
100
AcDb2dVertex
62
5
10
153.668076
20
188.455172
0
SEQEND
5
47c
100
AcDbEntity
8
1
0
ARC
5
47d
100
AcDbEntity
8
1
100
AcDbCircle
6
CONTINUOUS
62
5
10
154.118540
20
188.500000
40
0.300000
100
AcDbArc
50
179.999998
51
-89.999999
0
LINE
5
47e
100
AcDbEntity
8
1
100
AcDbLine
6
CONTINUOUS
62
5
10
154.118540
20
188.200000
11
154.699885
21
188.200000
0
ARC
5
47f
100
AcDbEntity
8
1
100
AcDbCircle
6
CONTINUOUS
62
5
10
154.699885
20
188.500000
40
0.300000
100
AcDbArc
50
-89.999999
51
0.000000
0
LINE
5
480
100
AcDbEntity
8
1
100
AcDbLine
6
CONTINUOUS
62
5
10
153.818540
20
189.600000
11
153.818540
21
188.500000
0
ARC
5
481
100
AcDbEntity
8
1
100
AcDbCircle
6
CONTINUOUS
62
5
10
139.500000
20
181.800000
40
0.500000
100
AcDbArc
50
179.999998
51
-89.999999
0
LINE
5
482
100
AcDbEntity
8
1
100
AcDbLine
6
CONTINUOUS
62
5
10
139.500000
20
181.300000
11
140.500000
21
181.300000
0
LINE
5
483
100
AcDbEntity
8
1
100
AcDbLine
6
CONTINUOUS
62
5
10
140.000000
20
184.100000
11
140.500000
21
184.400000
0
LINE
5
484
100
AcDbEntity
8
1
100
AcDbLine
6
CONTINUOUS
62
5
10
140.000000
20
187.500000
11
140.500000
21
187.200000
0
ARC
5
485
100
AcDbEntity
8
1
100
AcDbCircle
6
CONTINUOUS
62
5
10
148.367579
20
189.250000
40
0.300000
100
AcDbArc
50
89.999999
51
179.999998
0
LINE
5
486
100
AcDbEntity
8
1
100
AcDbLine
6
CONTINUOUS
62
5
10
148.067579
20
189.250000
11
148.067579
21
190.650000
0
ARC
5
487
100
AcDbEntity
8
1
100
AcDbCircle
6
CONTINUOUS
62
5
10
148.267579
20
190.650000
40
0.200000
100
AcDbArc
50
89.999999
51
-179.999998
0
LINE
5
488
100
AcDbEntity
8
1
100
AcDbLine
6
CONTINUOUS
62
5
10
148.267579
20
190.850000
11
149.113816
21
190.850000
0
POLYLINE
5
489
100
AcDbEntity
8
1
6
CONTINUOUS
62
5
100
AcDb2dPolyline
66
1
10
0.0
20
0.0
30
0.0
70
0
0
VERTEX
5
48a
100
AcDbEntity
8
1
100
AcDbVertex
100
AcDb2dVertex
62
5
10
150.873139
20
188.850000
0
VERTEX
5
48b
100
AcDbEntity
8
1
100
AcDbVertex
100
AcDb2dVertex
62
5
10
149.972585
20
189.550000
0
VERTEX
5
48c
100
AcDbEntity
8
1
100
AcDbVertex
100
AcDb2dVertex
62
5
10
148.367579
20
189.550000
0
SEQEND
5
48d
100
AcDbEntity
8
1
0
LINE
5
48e
100
AcDbEntity
8
1
100
AcDbLine
6
CONTINUOUS
62
5
10
153.566903
20
191.399998
11
153.566903
21
187.100000
0
ARC
5
48f
100
AcDbEntity
8
1
100
AcDbCircle
6
CONTINUOUS
62
5
10
150.780127
20
190.550000
40
0.300000
100
AcDbArc
50
89.999999
51
179.999998
0
LINE
5
490
100
AcDbEntity
8
1
100
AcDbLine
6
CONTINUOUS
62
5
10
150.780127
20
190.850000
11
151.323575
21
190.850000
0
ARC
5
491
100
AcDbEntity
8
1
100
AcDbCircle
6
CONTINUOUS
62
5
10
151.323575
20
190.550000
40
0.300000
100
AcDbArc
50
0.000000
51
89.999999
0
POLYLINE
5
492
100
AcDbEntity
8
1
6
CONTINUOUS
62
5
100
AcDb2dPolyline
66
1
10
0.0
20
0.0
30
0.0
70
0
0
VERTEX
5
493
100
AcDbEntity
8
1
100
AcDbVertex
100
AcDb2dVertex
62
5
10
151.623575
20
190.550000
0
VERTEX
5
494
100
AcDbEntity
8
1
100
AcDbVertex
100
AcDb2dVertex
62
5
10
151.623575
20
190.550000
0
VERTEX
5
495
100
AcDbEntity
8
1
100
AcDbVertex
100
AcDb2dVertex
62
5
10
151.623575
20
193.650000
0
VERTEX
5
496
100
AcDbEntity
8
1
100
AcDbVertex
100
AcDb2dVertex
62
5
10
151.623575
20
193.650000
0
SEQEND
5
497
100
AcDbEntity
8
1
0
ARC
5
498
100
AcDbEntity
8
1
100
AcDbCircle
6
CONTINUOUS
62
5
10
151.323575
20
193.650000
40
0.300000
100
AcDbArc
50
-89.999999
51
0.000000
0
LINE
5
499
100
AcDbEntity
8
1
100
AcDbLine
6
CONTINUOUS
62
5
10
151.323575
20
193.350000
11
150.780127
21
193.350000
0
ARC
5
49a
100
AcDbEntity
8
1
100
AcDbCircle
6
CONTINUOUS
62
5
10
150.780127
20
193.650000
40
0.300000
100
AcDbArc
50
179.999998
51
-89.999999
0
POLYLINE
5
49b
100
AcDbEntity
8
1
6
CONTINUOUS
62
5
100
AcDb2dPolyline
66
1
10
0.0
20
0.0
30
0.0
70
0
0
VERTEX
5
49c
100
AcDbEntity
8
1
100
AcDbVertex
100
AcDb2dVertex
62
5
10
150.480127
20
193.650000
0
VERTEX
5
49d
100
AcDbEntity
8
1
100
AcDbVertex
100
AcDb2dVertex
62
5
10
150.480127
20
193.650000
0
VERTEX
5
49e
100
AcDbEntity
8
1
100
AcDbVertex
100
AcDb2dVertex
62
5
10
150.480127
20
190.550000
0
VERTEX
5
49f
100
AcDbEntity
8
1
100
AcDbVertex
100
AcDb2dVertex
62
5
10
150.480127
20
190.550000
0
SEQEND
5
4a0
100
AcDbEntity
8
1
0
ARC
5
4a1
100
AcDbEntity
8
1
100
AcDbCircle
6
CONTINUOUS
62
5
10
148.164110
20
190.650000
40
0.200000
100
AcDbArc
50
89.999999
51
179.999998
0
LINE
5
4a2
100
AcDbEntity
8
1
100
AcDbLine
6
CONTINUOUS
62
5
10
148.164110
20
190.850000
11
148.267579
21
190.850000
0
LINE
5
4a3
100
AcDbEntity
8
1
100
AcDbLine
6
CONTINUOUS
62
5
10
148.267579
20
193.350000
11
148.164110
21
193.350000
0
ARC
5
4a4
100
AcDbEntity
8
1
100
AcDbCircle
6
CONTINUOUS
62
5
10
148.164110
20
193.550000
40
0.200000
100
AcDbArc
50
179.999998
51
-89.999999
0
POLYLINE
5
4a5
100
AcDbEntity
8
1
6
CONTINUOUS
62
5
100
AcDb2dPolyline
66
1
10
0.0
20
0.0
30
0.0
70
0
0
VERTEX
5
4a6
100
AcDbEntity
8
1
100
AcDbVertex
100
AcDb2dVertex
62
5
10
147.964110
20
193.550000
0
VERTEX
5
4a7
100
AcDbEntity
8
1
100
AcDbVertex
100
AcDb2dVertex
62
5
10
147.964110
20
193.550000
0
VERTEX
5
4a8
100
AcDbEntity
8
1
100
AcDbVertex
100
AcDb2dVertex
62
5
10
147.964110
20
190.650000
0
VERTEX
5
4a9
100
AcDbEntity
8
1
100
AcDbVertex
100
AcDb2dVertex
62
5
10
147.964110
20
190.650000
0
SEQEND
5
4aa
100
AcDbEntity
8
1
0
ARC
5
4ab
100
AcDbEntity
8
1
100
AcDbCircle
6
CONTINUOUS
62
5
10
154.699885
20
189.900000
40
0.300000
100
AcDbArc
50
-89.999999
51
0.000000
0
POLYLINE
5
4ac
100
AcDbEntity
8
1
6
CONTINUOUS
62
5
100
AcDb2dPolyline
66
1
10
0.0
20
0.0
30
0.0
70
0
0
VERTEX
5
4ad
100
AcDbEntity
8
1
100
AcDbVertex
100
AcDb2dVertex
62
5
10
154.999885
20
189.900000
0
VERTEX
5
4ae
100
AcDbEntity
8
1
100
AcDbVertex
100
AcDb2dVertex
62
5
10
154.999885
20
191.400000
0
VERTEX
5
4af
100
AcDbEntity
8
1
100
AcDbVertex
100
AcDb2dVertex
62
5
10
153.566903
20
191.400000
0
VERTEX
5
4b0
100
AcDbEntity
8
1
100
AcDbVertex
100
AcDb2dVertex
62
5
10
153.782407
20
189.858464
0
SEQEND
5
4b1
100
AcDbEntity
8
1
0
ARC
5
4b2
100
AcDbEntity
8
1
100
AcDbCircle
6
CONTINUOUS
62
5
10
154.079518
20
189.900000
40
0.300000
100
AcDbArc
50
-172.041714
51
-89.999999
0
LINE
5
4b3
100
AcDbEntity
8
1
100
AcDbLine
6
CONTINUOUS
62
5
10
154.079518
20
189.600000
11
154.699885
21
189.600000
0
LINE
5
4b4
100
AcDbEntity
8
1
100
AcDbLine
6
CONTINUOUS
62
5
10
154.999885
20
191.400000
11
154.999885
21
192.800000
0
LINE
5
4b5
100
AcDbEntity
8
1
100
AcDbLine
6
CONTINUOUS
62
5
10
158.000000
20
190.100000
11
158.000000
21
194.100000
0
LINE
5
4b6
100
AcDbEntity
8
1
100
AcDbLine
6
CONTINUOUS
62
5
10
157.000000
20
190.100000
11
157.000000
21
194.100000
0
LINE
5
4b7
100
AcDbEntity
8
1
100
AcDbLine
6
CONTINUOUS
62
5
10
159.000000
20
190.100000
11
159.000000
21
194.100000
0
ARC
5
4b8
100
AcDbEntity
8
1
100
AcDbCircle
6
CONTINUOUS
62
5
10
143.000000
20
202.950000
40
0.500000
100
AcDbArc
50
89.999999
51
-179.999998
0
POLYLINE
5
4b9
100
AcDbEntity
8
1
6
CONTINUOUS
62
5
100
AcDb2dPolyline
66
1
10
0.0
20
0.0
30
0.0
70
0
0
VERTEX
5
4ba
100
AcDbEntity
8
1
100
AcDbVertex
100
AcDb2dVertex
62
5
10
142.500000
20
202.950000
0
VERTEX
5
4bb
100
AcDbEntity
8
1
100
AcDbVertex
100
AcDb2dVertex
62
5
10
142.500000
20
202.900000
0
VERTEX
5
4bc
100
AcDbEntity
8
1
100
AcDbVertex
100
AcDb2dVertex
62
5
10
140.500000
20
202.900000
0
SEQEND
5
4bd
100
AcDbEntity
8
1
0
ARC
5
4be
100
AcDbEntity
8
1
100
AcDbCircle
6
CONTINUOUS
62
5
10
140.500000
20
202.400000
40
0.500000
100
AcDbArc
50
89.999999
51
179.999998
0
POLYLINE
5
4bf
100
AcDbEntity
8
1
6
CONTINUOUS
62
5
100
AcDb2dPolyline
66
1
10
0.0
20
0.0
30
0.0
70
0
0
VERTEX
5
4c0
100
AcDbEntity
8
1
100
AcDbVertex
100
AcDb2dVertex
62
5
10
140.000000
20
202.400000
0
VERTEX
5
4c1
100
AcDbEntity
8
1
100
AcDbVertex
100
AcDb2dVertex
62
5
10
140.000000
20
200.100000
0
VERTEX
5
4c2
100
AcDbEntity
8
1
100
AcDbVertex
100
AcDb2dVertex
62
5
10
139.300000
20
200.100000
0
SEQEND
5
4c3
100
AcDbEntity
8
1
0
ARC
5
4c4
100
AcDbEntity
8
1
100
AcDbCircle
6
CONTINUOUS
62
5
10
139.300000
20
199.800000
40
0.300000
100
AcDbArc
50
89.999999
51
-179.999998
0
LINE
5
4c5
100
AcDbEntity
8
1
100
AcDbLine
6
CONTINUOUS
62
5
10
139.000000
20
199.800000
11
139.000000
21
197.000000
0
ARC
5
4c6
100
AcDbEntity
8
1
100
AcDbCircle
6
CONTINUOUS
62
5
10
139.300000
20
197.000000
40
0.300000
100
AcDbArc
50
179.999998
51
-89.999999
0
POLYLINE
5
4c7
100
AcDbEntity
8
1
6
CONTINUOUS
62
5
100
AcDb2dPolyline
66
1
10
0.0
20
0.0
30
0.0
70
0
0
VERTEX
5
4c8
100
AcDbEntity
8
1
100
AcDbVertex
100
AcDb2dVertex
62
5
10
139.300000
20
196.700000
0
VERTEX
5
4c9
100
AcDbEntity
8
1
100
AcDbVertex
100
AcDb2dVertex
62
5
10
140.000000
20
196.700000
0
VERTEX
5
4ca
100
AcDbEntity
8
1
100
AcDbVertex
100
AcDb2dVertex
62
5
10
140.000000
20
187.500000
0
VERTEX
5
4cb
100
AcDbEntity
8
1
100
AcDbVertex
100
AcDb2dVertex
62
5
10
139.300000
20
187.500000
0
SEQEND
5
4cc
100
AcDbEntity
8
1
0
ARC
5
4cd
100
AcDbEntity
8
1
100
AcDbCircle
6
CONTINUOUS
62
5
10
139.300000
20
187.200000
40
0.300000
100
AcDbArc
50
89.999999
51
179.999998
0
LINE
5
4ce
100
AcDbEntity
8
1
100
AcDbLine
6
CONTINUOUS
62
5
10
139.000000
20
187.200000
11
139.000000
21
184.400000
0
ARC
5
4cf
100
AcDbEntity
8
1
100
AcDbCircle
6
CONTINUOUS
62
5
10
139.300000
20
184.400000
40
0.300000
100
AcDbArc
50
-179.999998
51
-89.999999
0
POLYLINE
5
4d0
100
AcDbEntity
8
1
6
CONTINUOUS
62
5
100
AcDb2dPolyline
66
1
10
0.0
20
0.0
30
0.0
70
0
0
VERTEX
5
4d1
100
AcDbEntity
8
1
100
AcDbVertex
100
AcDb2dVertex
62
5
10
139.300000
20
184.100000
0
VERTEX
5
4d2
100
AcDbEntity
8
1
100
AcDbVertex
100
AcDb2dVertex
62
5
10
140.000000
20
184.100000
0
VERTEX
5
4d3
100
AcDbEntity
8
1
100
AcDbVertex
100
AcDb2dVertex
62
5
10
140.000000
20
181.800000
0
SEQEND
5
4d4
100
AcDbEntity
8
1
0
ARC
5
4d5
100
AcDbEntity
8
1
100
AcDbCircle
6
CONTINUOUS
62
5
10
140.500000
20
181.800000
40
0.500000
100
AcDbArc
50
-179.999998
51
-89.999999
0
POLYLINE
5
4d6
100
AcDbEntity
8
1
6
CONTINUOUS
62
5
100
AcDb2dPolyline
66
1
10
0.0
20
0.0
30
0.0
70
0
0
VERTEX
5
4d7
100
AcDbEntity
8
1
100
AcDbVertex
100
AcDb2dVertex
62
5
10
140.500000
20
181.300000
0
VERTEX
5
4d8
100
AcDbEntity
8
1
100
AcDbVertex
100
AcDb2dVertex
62
5
10
142.500000
20
181.300000
0
VERTEX
5
4d9
100
AcDbEntity
8
1
100
AcDbVertex
100
AcDb2dVertex
62
5
10
142.500000
20
181.250000
0
SEQEND
5
4da
100
AcDbEntity
8
1
0
ARC
5
4db
100
AcDbEntity
8
1
100
AcDbCircle
6
CONTINUOUS
62
5
10
143.000000
20
181.250000
40
0.500000
100
AcDbArc
50
179.999998
51
-89.999999
0
LINE
5
4dc
100
AcDbEntity
8
1
100
AcDbLine
6
CONTINUOUS
62
5
10
143.000000
20
180.750000
11
146.700000
21
180.750000
0
LINE
5
4dd
100
AcDbEntity
8
1
100
AcDbLine
6
CONTINUOUS
62
5
10
146.700000
20
203.450000
11
143.000000
21
203.450000
0
ARC
5
4de
100
AcDbEntity
8
1
100
AcDbCircle
6
CONTINUOUS
62
5
10
147.450000
20
195.150000
40
0.300000
100
AcDbArc
50
-114.758630
51
-0.000000
0
LINE
5
4df
100
AcDbEntity
8
1
100
AcDbLine
6
CONTINUOUS
62
5
10
147.750000
20
195.150000
11
147.750000
21
196.650000
0
ARC
5
4e0
100
AcDbEntity
8
1
100
AcDbCircle
6
CONTINUOUS
62
5
10
147.450000
20
196.650000
40
0.300000
100
AcDbArc
50
0.000000
51
89.999999
0
LINE
5
4e1
100
AcDbEntity
8
1
100
AcDbLine
6
CONTINUOUS
62
5
10
147.450000
20
196.950000
11
146.034233
21
196.950000
0
ARC
5
4e2
100
AcDbEntity
8
1
100
AcDbCircle
6
CONTINUOUS
62
5
10
146.034233
20
196.650000
40
0.300000
100
AcDbArc
50
89.999999
51
165.963755
0
LINE
5
4e3
100
AcDbEntity
8
1
100
AcDbLine
6
CONTINUOUS
62
5
10
145.743190
20
196.722761
11
145.429858
21
195.469430
0
ARC
5
4e4
100
AcDbEntity
8
1
100
AcDbCircle
6
CONTINUOUS
62
5
10
146.400000
20
195.226894
40
1.000000
100
AcDbArc
50
165.963755
51
179.999998
0
LINE
5
4e5
100
AcDbEntity
8
1
100
AcDbLine
6
CONTINUOUS
62
5
10
145.400000
20
195.226894
11
145.400000
21
188.973106
0
ARC
5
4e6
100
AcDbEntity
8
1
100
AcDbCircle
6
CONTINUOUS
62
5
10
146.400000
20
188.973106
40
1.000000
100
AcDbArc
50
179.999998
51
-165.963755
0
LINE
5
4e7
100
AcDbEntity
8
1
100
AcDbLine
6
CONTINUOUS
62
5
10
145.429858
20
188.730570
11
145.743190
21
187.477239
0
ARC
5
4e8
100
AcDbEntity
8
1
100
AcDbCircle
6
CONTINUOUS
62
5
10
146.034233
20
187.550000
40
0.300000
100
AcDbArc
50
-165.963755
51
-89.999999
0
LINE
5
4e9
100
AcDbEntity
8
1
100
AcDbLine
6
CONTINUOUS
62
5
10
146.034233
20
187.250000
11
147.450000
21
187.250000
0
ARC
5
4ea
100
AcDbEntity
8
1
100
AcDbCircle
6
CONTINUOUS
62
5
10
147.450000
20
187.550000
40
0.300000
100
AcDbArc
50
-89.999999
51
0.000000
0
LINE
5
4eb
100
AcDbEntity
8
1
100
AcDbLine
6
CONTINUOUS
62
5
10
147.750000
20
187.550000
11
147.750000
21
189.050000
0
ARC
5
4ec
100
AcDbEntity
8
1
100
AcDbCircle
6
CONTINUOUS
62
5
10
147.450000
20
189.050000
40
0.300000
100
AcDbArc
50
0.000000
51
114.758630
0
LINE
5
4ed
100
AcDbEntity
8
1
100
AcDbLine
6
CONTINUOUS
62
5
10
147.324361
20
189.322424
11
146.300000
21
188.850000
0
LINE
5
4ee
100
AcDbEntity
8
1
100
AcDbLine
6
CONTINUOUS
62
5
10
146.300000
20
195.350000
11
147.324361
21
194.877576
0
ARC
5
4ef
100
AcDbEntity
8
1
100
AcDbCircle
6
CONTINUOUS
62
5
10
147.250000
20
195.650000
40
0.300000
100
AcDbArc
50
-89.999999
51
-0.000000
0
LINE
5
4f0
100
AcDbEntity
8
1
100
AcDbLine
6
CONTINUOUS
62
5
10
147.550000
20
195.650000
11
147.550000
21
196.150000
0
ARC
5
4f1
100
AcDbEntity
8
1
100
AcDbCircle
6
CONTINUOUS
62
5
10
147.250000
20
196.150000
40
0.300000
100
AcDbArc
50
0.000000
51
89.999999
0
LINE
5
4f2
100
AcDbEntity
8
1
100
AcDbLine
6
CONTINUOUS
62
5
10
147.250000
20
196.450000
11
146.012607
21
196.450000
0
ARC
5
4f3
100
AcDbEntity
8
1
100
AcDbCircle
6
CONTINUOUS
62
5
10
146.012607
20
196.150000
40
0.300000
100
AcDbArc
50
89.999999
51
166.033983
0
LINE
5
4f4
100
AcDbEntity
8
1
100
AcDbLine
6
CONTINUOUS
62
5
10
145.721475
20
196.222404
11
145.529561
21
195.450729
0
ARC
5
4f5
100
AcDbEntity
8
1
100
AcDbCircle
6
CONTINUOUS
62
5
10
146.500000
20
195.209383
40
1.000000
100
AcDbArc
50
166.033983
51
179.999998
0
LINE
5
4f6
100
AcDbEntity
8
1
100
AcDbLine
6
CONTINUOUS
62
5
10
145.500000
20
195.209383
11
145.500000
21
188.990617
0
ARC
5
4f7
100
AcDbEntity
8
1
100
AcDbCircle
6
CONTINUOUS
62
5
10
146.500000
20
188.990617
40
1.000000
100
AcDbArc
50
179.999998
51
-166.033983
0
LINE
5
4f8
100
AcDbEntity
8
1
100
AcDbLine
6
CONTINUOUS
62
5
10
145.529561
20
188.749271
11
145.721475
21
187.977596
0
ARC
5
4f9
100
AcDbEntity
8
1
100
AcDbCircle
6
CONTINUOUS
62
5
10
146.012607
20
188.050000
40
0.300000
100
AcDbArc
50
-166.033983
51
-89.999999
0
LINE
5
4fa
100
AcDbEntity
8
1
100
AcDbLine
6
CONTINUOUS
62
5
10
146.012607
20
187.750000
11
147.250000
21
187.750000
0
ARC
5
4fb
100
AcDbEntity
8
1
100
AcDbCircle
6
CONTINUOUS
62
5
10
147.250000
20
188.050000
40
0.300000
100
AcDbArc
50
-89.999999
51
0.000000
0
LINE
5
4fc
100
AcDbEntity
8
1
100
AcDbLine
6
CONTINUOUS
62
5
10
147.550000
20
188.050000
11
147.550000
21
188.550000
0
ARC
5
4fd
100
AcDbEntity
8
1
100
AcDbCircle
6
CONTINUOUS
62
5
10
147.250000
20
188.550000
40
0.300000
100
AcDbArc
50
0.000000
51
89.999999
0
POLYLINE
5
4fe
100
AcDbEntity
8
1
6
CONTINUOUS
62
5
100
AcDb2dPolyline
66
1
10
0.0
20
0.0
30
0.0
70
0
0
VERTEX
5
4ff
100
AcDbEntity
8
1
100
AcDbVertex
100
AcDb2dVertex
62
5
10
147.250000
20
188.850000
0
VERTEX
5
500
100
AcDbEntity
8
1
100
AcDbVertex
100
AcDb2dVertex
62
5
10
146.300000
20
188.850000
0
VERTEX
5
501
100
AcDbEntity
8
1
100
AcDbVertex
100
AcDb2dVertex
62
5
10
146.300000
20
195.350000
0
VERTEX
5
502
100
AcDbEntity
8
1
100
AcDbVertex
100
AcDb2dVertex
62
5
10
147.250000
20
195.350000
0
SEQEND
5
503
100
AcDbEntity
8
1
0
ARC
5
504
100
AcDbEntity
8
1
100
AcDbCircle
6
CONTINUOUS
62
5
10
140.000000
20
202.450000
40
1.000000
100
AcDbArc
50
89.999999
51
-179.999997
0
LINE
5
505
100
AcDbEntity
8
1
100
AcDbLine
6
CONTINUOUS
62
5
10
139.000000
20
202.450000
11
139.000000
21
181.750000
0
ARC
5
506
100
AcDbEntity
8
1
100
AcDbCircle
6
CONTINUOUS
62
5
10
140.000000
20
181.750000
40
1.000000
100
AcDbArc
50
-179.999998
51
-89.999999
0
LINE
5
507
100
AcDbEntity
8
1
100
AcDbLine
6
CONTINUOUS
62
5
10
140.000000
20
180.750000
11
143.000000
21
180.750000
0
LINE
5
508
100
AcDbEntity
8
1
100
AcDbLine
6
CONTINUOUS
62
5
10
143.000000
20
203.450000
11
140.000000
21
203.450000
0
ARC
5
509
100
AcDbEntity
8
1
100
AcDbCircle
6
CONTINUOUS
62
5
10
146.500000
20
182.600000
40
0.500000
100
AcDbArc
50
179.999998
51
-89.999999
0
LINE
5
50a
100
AcDbEntity
8
1
100
AcDbLine
6
CONTINUOUS
62
5
10
146.500000
20
182.100000
11
147.250000
21
182.100000
0
ARC
5
50b
100
AcDbEntity
8
1
100
AcDbCircle
6
CONTINUOUS
62
5
10
147.250000
20
182.600000
40
0.500000
100
AcDbArc
50
-89.999999
51
-0.000000
0
LINE
5
50c
100
AcDbEntity
8
1
100
AcDbLine
6
CONTINUOUS
62
5
10
147.750000
20
182.600000
11
147.750000
21
184.200000
0
ARC
5
50d
100
AcDbEntity
8
1
100
AcDbCircle
6
CONTINUOUS
62
5
10
147.450000
20
184.200000
40
0.300000
100
AcDbArc
50
-0.000000
51
89.999999
0
POLYLINE
5
50e
100
AcDbEntity
8
1
6
CONTINUOUS
62
5
100
AcDb2dPolyline
66
1
10
0.0
20
0.0
30
0.0
70
0
0
VERTEX
5
50f
100
AcDbEntity
8
1
100
AcDbVertex
100
AcDb2dVertex
62
5
10
147.450000
20
184.500000
0
VERTEX
5
510
100
AcDbEntity
8
1
100
AcDbVertex
100
AcDb2dVertex
62
5
10
147.000000
20
184.500000
0
VERTEX
5
511
100
AcDbEntity
8
1
100
AcDbVertex
100
AcDb2dVertex
62
5
10
147.000000
20
187.250000
0
SEQEND
5
512
100
AcDbEntity
8
1
0
POLYLINE
5
513
100
AcDbEntity
8
1
6
CONTINUOUS
62
5
100
AcDb2dPolyline
66
1
10
0.0
20
0.0
30
0.0
70
0
0
VERTEX
5
514
100
AcDbEntity
8
1
100
AcDbVertex
100
AcDb2dVertex
62
5
10
147.000000
20
196.950000
0
VERTEX
5
515
100
AcDbEntity
8
1
100
AcDbVertex
100
AcDb2dVertex
62
5
10
147.000000
20
199.700000
0
VERTEX
5
516
100
AcDbEntity
8
1
100
AcDbVertex
100
AcDb2dVertex
62
5
10
147.450000
20
199.700000
0
SEQEND
5
517
100
AcDbEntity
8
1
0
ARC
5
518
100
AcDbEntity
8
1
100
AcDbCircle
6
CONTINUOUS
62
5
10
147.450000
20
200.000000
40
0.300000
100
AcDbArc
50
-89.999999
51
0.000000
0
LINE
5
519
100
AcDbEntity
8
1
100
AcDbLine
6
CONTINUOUS
62
5
10
147.750000
20
200.000000
11
147.750000
21
201.600000
0
ARC
5
51a
100
AcDbEntity
8
1
100
AcDbCircle
6
CONTINUOUS
62
5
10
147.250000
20
201.600000
40
0.500000
100
AcDbArc
50
-0.000000
51
89.999999
0
LINE
5
51b
100
AcDbEntity
8
1
100
AcDbLine
6
CONTINUOUS
62
5
10
147.250000
20
202.100000
11
146.500000
21
202.100000
0
ARC
5
51c
100
AcDbEntity
8
1
100
AcDbCircle
6
CONTINUOUS
62
5
10
146.500000
20
201.600000
40
0.500000
100
AcDbArc
50
89.999999
51
179.999998
0
LINE
5
51d
100
AcDbEntity
8
1
100
AcDbLine
6
CONTINUOUS
62
5
10
146.000000
20
201.600000
11
146.000000
21
196.948040
0
LINE
5
51e
100
AcDbEntity
8
1
100
AcDbLine
6
CONTINUOUS
62
5
10
146.000000
20
187.251960
11
146.000000
21
182.600000
0
LINE
5
51f
100
AcDbEntity
8
1
100
AcDbLine
6
CONTINUOUS
62
5
10
147.750000
20
196.650000
11
147.750000
21
200.000000
0
LINE
5
520
100
AcDbEntity
8
1
100
AcDbLine
6
CONTINUOUS
62
5
10
147.750000
20
184.200000
11
147.750000
21
187.550000
0
LINE
5
521
100
AcDbEntity
8
1
100
AcDbLine
6
CONTINUOUS
62
5
10
151.669506
20
197.100000
11
151.669506
21
187.100000
0
LINE
5
522
100
AcDbEntity
8
1
100
AcDbLine
6
CONTINUOUS
62
5
10
149.113816
20
194.479017
11
149.113816
21
189.720983
0
LINE
5
523
100
AcDbEntity
8
1
100
AcDbLine
6
CONTINUOUS
62
5
10
150.036331
20
189.800000
11
150.036331
21
194.400000
0
LINE
5
524
100
AcDbEntity
8
1
100
AcDbLine
6
CONTINUOUS
62
5
10
149.829867
20
194.402912
11
149.829867
21
194.600000
0
LINE
5
525
100
AcDbEntity
8
1
100
AcDbLine
6
CONTINUOUS
62
5
10
149.829867
20
189.600000
11
149.829867
21
189.797088
0
LINE
5
526
100
AcDbEntity
8
1
100
AcDbLine
6
CONTINUOUS
62
5
10
149.889440
20
189.798602
11
149.889440
21
194.401398
0
LINE
5
527
100
AcDbEntity
8
1
100
AcDbLine
6
CONTINUOUS
62
5
10
149.813979
20
189.600298
11
149.813979
21
189.550000
0
LINE
5
528
100
AcDbEntity
8
1
100
AcDbLine
6
CONTINUOUS
62
5
10
149.813979
20
194.650000
11
149.813979
21
194.599702
0
LINE
5
529
100
AcDbEntity
8
1
100
AcDbLine
6
CONTINUOUS
62
5
10
150.011293
20
189.799762
11
150.011293
21
194.400238
0
POLYLINE
5
52a
100
AcDbEntity
8
1
6
DOT2
62
5
100
AcDb2dPolyline
66
1
10
0.0
20
0.0
30
0.0
70
0
0
VERTEX
5
52b
100
AcDbEntity
8
1
100
AcDbVertex
100
AcDb2dVertex
62
5
10
158.750000
20
237.200000
0
VERTEX
5
52c
100
AcDbEntity
8
1
100
AcDbVertex
100
AcDb2dVertex
62
5
10
155.937500
20
231.575000
0
VERTEX
5
52d
100
AcDbEntity
8
1
100
AcDbVertex
100
AcDb2dVertex
62
5
10
159.687500
20
231.575000
0
SEQEND
5
52e
100
AcDbEntity
8
1
0
LINE
5
52f
100
AcDbEntity
8
1
100
AcDbLine
6
DOT2
62
5
10
158.750000
20
237.200000
11
158.750000
21
229.700000
0
LINE
5
530
100
AcDbEntity
8
1
100
AcDbLine
6
DOT2
62
5
10
158.125000
20
229.700000
11
159.375000
21
229.700000
0
LINE
5
531
100
AcDbEntity
8
1
100
AcDbLine
6
CONTINUOUS
62
5
10
138.500000
20
193.600000
11
138.500000
21
230.450000
0
LINE
5
532
100
AcDbEntity
8
1
100
AcDbLine
6
CONTINUOUS
62
5
10
181.500000
20
193.600000
11
181.500000
21
230.450000
0
POLYLINE
5
533
100
AcDbEntity
8
1
6
CONTINUOUS
62
5
100
AcDb2dPolyline
66
1
10
0.0
20
0.0
30
0.0
70
0
0
VERTEX
5
534
100
AcDbEntity
8
1
100
AcDbVertex
100
AcDb2dVertex
62
5
10
160.000000
20
228.450000
0
VERTEX
5
535
100
AcDbEntity
8
1
100
AcDbVertex
100
AcDb2dVertex
62
5
10
138.500000
20
228.450000
0
VERTEX
5
536
100
AcDbEntity
8
1
100
AcDbVertex
100
AcDb2dVertex
62
5
10
144.500000
20
229.450000
0
VERTEX
5
537
100
AcDbEntity
8
1
100
AcDbVertex
100
AcDb2dVertex
62
5
10
144.500000
20
227.450000
0
VERTEX
5
538
100
AcDbEntity
8
1
100
AcDbVertex
100
AcDb2dVertex
62
5
10
138.500000
20
228.450000
0
VERTEX
5
539
100
AcDbEntity
8
1
100
AcDbVertex
100
AcDb2dVertex
62
5
10
144.500000
20
228.950000
0
VERTEX
5
53a
100
AcDbEntity
8
1
100
AcDbVertex
100
AcDb2dVertex
62
5
10
144.500000
20
227.950000
0
VERTEX
5
53b
100
AcDbEntity
8
1
100
AcDbVertex
100
AcDb2dVertex
62
5
10
138.500000
20
228.450000
0
VERTEX
5
53c
100
AcDbEntity
8
1
100
AcDbVertex
100
AcDb2dVertex
62
5
10
144.500000
20
229.200000
0
SEQEND
5
53d
100
AcDbEntity
8
1
0
POLYLINE
5
53e
100
AcDbEntity
8
1
6
CONTINUOUS
62
5
100
AcDb2dPolyline
66
1
10
0.0
20
0.0
30
0.0
70
0
0
VERTEX
5
53f
100
AcDbEntity
8
1
100
AcDbVertex
100
AcDb2dVertex
62
5
10
144.500000
20
228.700000
0
VERTEX
5
540
100
AcDbEntity
8
1
100
AcDbVertex
100
AcDb2dVertex
62
5
10
138.500000
20
228.450000
0
VERTEX
5
541
100
AcDbEntity
8
1
100
AcDbVertex
100
AcDb2dVertex
62
5
10
144.500000
20
228.200000
0
SEQEND
5
542
100
AcDbEntity
8
1
0
LINE
5
543
100
AcDbEntity
8
1
100
AcDbLine
6
CONTINUOUS
62
5
10
144.500000
20
227.700000
11
138.500000
21
228.450000
0
POLYLINE
5
544
100
AcDbEntity
8
1
6
CONTINUOUS
62
5
100
AcDb2dPolyline
66
1
10
0.0
20
0.0
30
0.0
70
0
0
VERTEX
5
545
100
AcDbEntity
8
1
100
AcDbVertex
100
AcDb2dVertex
62
5
10
160.000000
20
228.450000
0
VERTEX
5
546
100
AcDbEntity
8
1
100
AcDbVertex
100
AcDb2dVertex
62
5
10
181.500000
20
228.450000
0
VERTEX
5
547
100
AcDbEntity
8
1
100
AcDbVertex
100
AcDb2dVertex
62
5
10
175.500000
20
227.450000
0
VERTEX
5
548
100
AcDbEntity
8
1
100
AcDbVertex
100
AcDb2dVertex
62
5
10
175.500000
20
229.450000
0
VERTEX
5
549
100
AcDbEntity
8
1
100
AcDbVertex
100
AcDb2dVertex
62
5
10
181.500000
20
228.450000
0
VERTEX
5
54a
100
AcDbEntity
8
1
100
AcDbVertex
100
AcDb2dVertex
62
5
10
175.500000
20
227.950000
0
VERTEX
5
54b
100
AcDbEntity
8
1
100
AcDbVertex
100
AcDb2dVertex
62
5
10
175.500000
20
228.950000
0
VERTEX
5
54c
100
AcDbEntity
8
1
100
AcDbVertex
100
AcDb2dVertex
62
5
10
181.500000
20
228.450000
0
VERTEX
5
54d
100
AcDbEntity
8
1
100
AcDbVertex
100
AcDb2dVertex
62
5
10
175.500000
20
227.700000
0
SEQEND
5
54e
100
AcDbEntity
8
1
0
POLYLINE
5
54f
100
AcDbEntity
8
1
6
CONTINUOUS
62
5
100
AcDb2dPolyline
66
1
10
0.0
20
0.0
30
0.0
70
0
0
VERTEX
5
550
100
AcDbEntity
8
1
100
AcDbVertex
100
AcDb2dVertex
62
5
10
175.500000
20
228.200000
0
VERTEX
5
551
100
AcDbEntity
8
1
100
AcDbVertex
100
AcDb2dVertex
62
5
10
181.500000
20
228.450000
0
VERTEX
5
552
100
AcDbEntity
8
1
100
AcDbVertex
100
AcDb2dVertex
62
5
10
175.500000
20
228.700000
0
SEQEND
5
553
100
AcDbEntity
8
1
0
LINE
5
554
100
AcDbEntity
8
1
100
AcDbLine
6
CONTINUOUS
62
5
10
175.500000
20
229.200000
11
181.500000
21
228.450000
0
LINE
5
555
100
AcDbEntity
8
1
100
AcDbLine
6
CONTINUOUS
62
5
10
160.250000
20
327.437500
11
160.250000
21
320.250000
0
POLYLINE
5
556
100
AcDbEntity
8
1
6
CONTINUOUS
62
5
100
AcDb2dPolyline
66
1
10
0.0
20
0.0
30
0.0
70
0
0
VERTEX
5
557
100
AcDbEntity
8
1
100
AcDbVertex
100
AcDb2dVertex
62
5
10
160.250000
20
324.625000
0
VERTEX
5
558
100
AcDbEntity
8
1
100
AcDbVertex
100
AcDb2dVertex
62
5
10
160.500000
20
324.625000
0
VERTEX
5
559
100
AcDbEntity
8
1
100
AcDbVertex
100
AcDb2dVertex
62
5
10
162.000000
20
323.687500
0
SEQEND
5
55a
100
AcDbEntity
8
1
0
LINE
5
55b
100
AcDbEntity
8
1
100
AcDbLine
6
CONTINUOUS
62
5
10
162.250000
20
326.812500
11
162.750000
21
326.187500
0
LINE
5
55c
100
AcDbEntity
8
1
100
AcDbLine
6
CONTINUOUS
62
5
10
163.250000
20
327.437500
11
163.750000
21
326.812500
0
POLYLINE
5
55d
100
AcDbEntity
8
1
6
CONTINUOUS
62
5
100
AcDb2dPolyline
66
1
10
0.0
20
0.0
30
0.0
70
1
0
VERTEX
5
55e
100
AcDbEntity
8
1
100
AcDbVertex
100
AcDb2dVertex
62
5
10
158.537876
20
197.100000
0
VERTEX
5
55f
100
AcDbEntity
8
1
100
AcDbVertex
100
AcDb2dVertex
62
5
10
158.543924
20
197.100000
0
VERTEX
5
560
100
AcDbEntity
8
1
100
AcDbVertex
100
AcDb2dVertex
62
5
10
158.543924
20
198.100000
0
VERTEX
5
561
100
AcDbEntity
8
1
100
AcDbVertex
100
AcDb2dVertex
62
5
10
161.539813
20
198.100000
0
VERTEX
5
562
100
AcDbEntity
8
1
100
AcDbVertex
100
AcDb2dVertex
62
5
10
161.539813
20
197.100000
0
VERTEX
5
563
100
AcDbEntity
8
1
100
AcDbVertex
100
AcDb2dVertex
62
5
10
161.398599
20
197.100000
0
VERTEX
5
564
100
AcDbEntity
8
1
100
AcDbVertex
100
AcDb2dVertex
62
5
10
161.398599
20
196.600000
0
VERTEX
5
565
100
AcDbEntity
8
1
100
AcDbVertex
100
AcDb2dVertex
62
5
10
158.537876
20
196.600000
0
SEQEND
5
566
100
AcDbEntity
8
1
0
POLYLINE
5
567
100
AcDbEntity
8
1
6
CONTINUOUS
62
5
100
AcDb2dPolyline
66
1
10
0.0
20
0.0
30
0.0
70
0
0
VERTEX
5
568
100
AcDbEntity
8
1
100
AcDbVertex
100
AcDb2dVertex
62
5
10
156.000000
20
190.100000
0
VERTEX
5
569
100
AcDbEntity
8
1
100
AcDbVertex
100
AcDb2dVertex
62
5
10
160.000000
20
194.100000
0
VERTEX
5
56a
100
AcDbEntity
8
1
100
AcDbVertex
100
AcDb2dVertex
62
5
10
164.000000
20
190.100000
0
SEQEND
5
56b
100
AcDbEntity
8
1
0
POLYLINE
5
56c
100
AcDbEntity
8
1
6
CONTINUOUS
62
5
100
AcDb2dPolyline
66
1
10
0.0
20
0.0
30
0.0
70
0
0
VERTEX
5
56d
100
AcDbEntity
8
1
100
AcDbVertex
100
AcDb2dVertex
62
5
10
164.000000
20
194.100000
0
VERTEX
5
56e
100
AcDbEntity
8
1
100
AcDbVertex
100
AcDb2dVertex
62
5
10
160.000000
20
190.100000
0
VERTEX
5
56f
100
AcDbEntity
8
1
100
AcDbVertex
100
AcDb2dVertex
62
5
10
156.000000
20
194.100000
0
SEQEND
5
570
100
AcDbEntity
8
1
0
POLYLINE
5
571
100
AcDbEntity
8
1
6
CONTINUOUS
62
5
100
AcDb2dPolyline
66
1
10
0.0
20
0.0
30
0.0
70
1
0
VERTEX
5
572
100
AcDbEntity
8
1
100
AcDbVertex
100
AcDb2dVertex
62
5
10
156.000000
20
193.100000
0
VERTEX
5
573
100
AcDbEntity
8
1
100
AcDbVertex
100
AcDb2dVertex
62
5
10
159.000000
20
190.100000
0
VERTEX
5
574
100
AcDbEntity
8
1
100
AcDbVertex
100
AcDb2dVertex
62
5
10
163.000000
20
194.100000
0
VERTEX
5
575
100
AcDbEntity
8
1
100
AcDbVertex
100
AcDb2dVertex
62
5
10
164.000000
20
193.100000
0
VERTEX
5
576
100
AcDbEntity
8
1
100
AcDbVertex
100
AcDb2dVertex
62
5
10
161.000000
20
190.100000
0
VERTEX
5
577
100
AcDbEntity
8
1
100
AcDbVertex
100
AcDb2dVertex
62
5
10
157.000000
20
194.100000
0
VERTEX
5
578
100
AcDbEntity
8
1
100
AcDbVertex
100
AcDb2dVertex
62
5
10
156.000000
20
193.100000
0
SEQEND
5
579
100
AcDbEntity
8
1
0
POLYLINE
5
57a
100
AcDbEntity
8
1
6
CONTINUOUS
62
5
100
AcDb2dPolyline
66
1
10
0.0
20
0.0
30
0.0
70
1
0
VERTEX
5
57b
100
AcDbEntity
8
1
100
AcDbVertex
100
AcDb2dVertex
62
5
10
156.000000
20
192.100000
0
VERTEX
5
57c
100
AcDbEntity
8
1
100
AcDbVertex
100
AcDb2dVertex
62
5
10
158.000000
20
190.100000
0
VERTEX
5
57d
100
AcDbEntity
8
1
100
AcDbVertex
100
AcDb2dVertex
62
5
10
162.000000
20
194.100000
0
VERTEX
5
57e
100
AcDbEntity
8
1
100
AcDbVertex
100
AcDb2dVertex
62
5
10
164.000000
20
192.100000
0
VERTEX
5
57f
100
AcDbEntity
8
1
100
AcDbVertex
100
AcDb2dVertex
62
5
10
162.000000
20
190.100000
0
VERTEX
5
580
100
AcDbEntity
8
1
100
AcDbVertex
100
AcDb2dVertex
62
5
10
158.000000
20
194.100000
0
VERTEX
5
581
100
AcDbEntity
8
1
100
AcDbVertex
100
AcDb2dVertex
62
5
10
156.000000
20
192.100000
0
SEQEND
5
582
100
AcDbEntity
8
1
0
POLYLINE
5
583
100
AcDbEntity
8
1
6
CONTINUOUS
62
5
100
AcDb2dPolyline
66
1
10
0.0
20
0.0
30
0.0
70
1
0
VERTEX
5
584
100
AcDbEntity
8
1
100
AcDbVertex
100
AcDb2dVertex
62
5
10
156.000000
20
191.100000
0
VERTEX
5
585
100
AcDbEntity
8
1
100
AcDbVertex
100
AcDb2dVertex
62
5
10
157.000000
20
190.100000
0
VERTEX
5
586
100
AcDbEntity
8
1
100
AcDbVertex
100
AcDb2dVertex
62
5
10
161.000000
20
194.100000
0
VERTEX
5
587
100
AcDbEntity
8
1
100
AcDbVertex
100
AcDb2dVertex
62
5
10
164.000000
20
191.100000
0
VERTEX
5
588
100
AcDbEntity
8
1
100
AcDbVertex
100
AcDb2dVertex
62
5
10
163.000000
20
190.100000
0
VERTEX
5
589
100
AcDbEntity
8
1
100
AcDbVertex
100
AcDb2dVertex
62
5
10
159.000000
20
194.100000
0
VERTEX
5
58a
100
AcDbEntity
8
1
100
AcDbVertex
100
AcDb2dVertex
62
5
10
156.000000
20
191.100000
0
SEQEND
5
58b
100
AcDbEntity
8
1
0
POLYLINE
5
58c
100
AcDbEntity
8
1
6
CONTINUOUS
62
5
100
AcDb2dPolyline
66
1
10
0.0
20
0.0
30
0.0
70
1
0
VERTEX
5
58d
100
AcDbEntity
8
1
100
AcDbVertex
100
AcDb2dVertex
62
5
10
164.000000
20
194.100000
0
VERTEX
5
58e
100
AcDbEntity
8
1
100
AcDbVertex
100
AcDb2dVertex
62
5
10
164.000000
20
190.100000
0
VERTEX
5
58f
100
AcDbEntity
8
1
100
AcDbVertex
100
AcDb2dVertex
62
5
10
156.000000
20
190.100000
0
VERTEX
5
590
100
AcDbEntity
8
1
100
AcDbVertex
100
AcDb2dVertex
62
5
10
156.000000
20
194.100000
0
SEQEND
5
591
100
AcDbEntity
8
1
0
LINE
5
592
100
AcDbEntity
8
1
100
AcDbLine
6
CONTINUOUS
62
5
10
156.000000
20
193.100000
11
164.000000
21
193.100000
0
LINE
5
593
100
AcDbEntity
8
1
100
AcDbLine
6
CONTINUOUS
62
5
10
156.000000
20
191.100000
11
164.000000
21
191.100000
0
LINE
5
594
100
AcDbEntity
8
1
100
AcDbLine
6
CONTINUOUS
62
5
10
164.000000
20
192.100000
11
156.000000
21
192.100000
0
ARC
5
595
100
AcDbEntity
8
1
100
AcDbCircle
6
CONTINUOUS
62
5
10
157.300000
20
185.200000
40
0.200000
100
AcDbArc
50
89.999999
51
179.999998
0
LINE
5
596
100
AcDbEntity
8
1
100
AcDbLine
6
CONTINUOUS
62
5
10
157.100000
20
185.200000
11
157.100000
21
182.800000
0
ARC
5
597
100
AcDbEntity
8
1
100
AcDbCircle
6
CONTINUOUS
62
5
10
157.800000
20
182.800000
40
0.700000
100
AcDbArc
50
179.999998
51
-89.999999
0
LINE
5
598
100
AcDbEntity
8
1
100
AcDbLine
6
CONTINUOUS
62
5
10
157.800000
20
182.100000
11
162.200000
21
182.100000
0
ARC
5
599
100
AcDbEntity
8
1
100
AcDbCircle
6
CONTINUOUS
62
5
10
162.200000
20
182.800000
40
0.700000
100
AcDbArc
50
-89.999999
51
0.000000
0
LINE
5
59a
100
AcDbEntity
8
1
100
AcDbLine
6
CONTINUOUS
62
5
10
162.900000
20
182.800000
11
162.900000
21
185.200000
0
ARC
5
59b
100
AcDbEntity
8
1
100
AcDbCircle
6
CONTINUOUS
62
5
10
162.700000
20
185.200000
40
0.200000
100
AcDbArc
50
0.000000
51
89.999999
0
LINE
5
59c
100
AcDbEntity
8
1
100
AcDbLine
6
CONTINUOUS
62
5
10
162.700000
20
185.400000
11
157.300000
21
185.400000
0
LINE
5
59d
100
AcDbEntity
8
1
100
AcDbLine
6
CONTINUOUS
62
5
10
159.100000
20
189.600000
11
158.470380
21
189.600000
0
LINE
5
59e
100
AcDbEntity
8
1
100
AcDbLine
6
CONTINUOUS
62
5
10
161.482929
20
189.600000
11
160.900000
21
189.600000
0
LINE
5
59f
100
AcDbEntity
8
1
100
AcDbLine
6
CONTINUOUS
62
5
10
159.100000
20
194.600000
11
158.470380
21
194.600000
0
LINE
5
5a0
100
AcDbEntity
8
1
100
AcDbLine
6
CONTINUOUS
62
5
10
161.482929
20
194.600000
11
160.900000
21
194.600000
0
ARC
5
5a1
100
AcDbEntity
8
1
100
AcDbCircle
6
CONTINUOUS
62
5
10
160.041869
20
178.695543
40
7.554457
100
AcDbArc
50
78.563243
51
101.436755
0
ARC
5
5a2
100
AcDbEntity
8
1
100
AcDbCircle
6
CONTINUOUS
62
5
10
159.968237
20
194.344784
40
6.894784
100
AcDbArc
50
-101.973288
51
-78.026711
0
POLYLINE
5
5a3
100
AcDbEntity
8
1
6
CONTINUOUS
62
5
100
AcDb2dPolyline
66
1
10
0.0
20
0.0
30
0.0
70
1
0
VERTEX
5
5a4
100
AcDbEntity
8
1
100
AcDbVertex
100
AcDb2dVertex
62
5
10
158.537876
20
187.100000
0
VERTEX
5
5a5
100
AcDbEntity
8
1
100
AcDbVertex
100
AcDb2dVertex
62
5
10
158.543924
20
187.100000
0
VERTEX
5
5a6
100
AcDbEntity
8
1
100
AcDbVertex
100
AcDb2dVertex
62
5
10
158.543924
20
186.100000
0
VERTEX
5
5a7
100
AcDbEntity
8
1
100
AcDbVertex
100
AcDb2dVertex
62
5
10
161.539813
20
186.100000
0
VERTEX
5
5a8
100
AcDbEntity
8
1
100
AcDbVertex
100
AcDb2dVertex
62
5
10
161.539813
20
187.100000
0
VERTEX
5
5a9
100
AcDbEntity
8
1
100
AcDbVertex
100
AcDb2dVertex
62
5
10
161.398599
20
187.100000
0
VERTEX
5
5aa
100
AcDbEntity
8
1
100
AcDbVertex
100
AcDb2dVertex
62
5
10
161.398599
20
187.600000
0
VERTEX
5
5ab
100
AcDbEntity
8
1
100
AcDbVertex
100
AcDb2dVertex
62
5
10
158.537876
20
187.600000
0
SEQEND
5
5ac
100
AcDbEntity
8
1
0
LINE
5
5ad
100
AcDbEntity
8
1
100
AcDbLine
6
CONTINUOUS
62
5
10
160.000000
20
190.100000
11
160.000000
21
194.100000
0
ARC
5
5ae
100
AcDbEntity
8
1
100
AcDbCircle
6
CONTINUOUS
62
5
10
159.968237
20
189.855216
40
6.894784
100
AcDbArc
50
78.026711
51
101.973288
0
ARC
5
5af
100
AcDbEntity
8
1
100
AcDbCircle
6
CONTINUOUS
62
5
10
157.300000
20
199.000000
40
0.200000
100
AcDbArc
50
179.999998
51
-89.999999
0
LINE
5
5b0
100
AcDbEntity
8
1
100
AcDbLine
6
CONTINUOUS
62
5
10
157.100000
20
199.000000
11
157.100000
21
201.400000
0
ARC
5
5b1
100
AcDbEntity
8
1
100
AcDbCircle
6
CONTINUOUS
62
5
10
157.800000
20
201.400000
40
0.700000
100
AcDbArc
50
89.999999
51
179.999998
0
LINE
5
5b2
100
AcDbEntity
8
1
100
AcDbLine
6
CONTINUOUS
62
5
10
157.800000
20
202.100000
11
162.200000
21
202.100000
0
ARC
5
5b3
100
AcDbEntity
8
1
100
AcDbCircle
6
CONTINUOUS
62
5
10
162.200000
20
201.400000
40
0.700000
100
AcDbArc
50
0.000000
51
89.999999
0
LINE
5
5b4
100
AcDbEntity
8
1
100
AcDbLine
6
CONTINUOUS
62
5
10
162.900000
20
201.400000
11
162.900000
21
199.000000
0
ARC
5
5b5
100
AcDbEntity
8
1
100
AcDbCircle
6
CONTINUOUS
62
5
10
162.700000
20
199.000000
40
0.200000
100
AcDbArc
50
-89.999999
51
0.000000
0
LINE
5
5b6
100
AcDbEntity
8
1
100
AcDbLine
6
CONTINUOUS
62
5
10
162.700000
20
198.800000
11
157.300000
21
198.800000
0
ARC
5
5b7
100
AcDbEntity
8
1
100
AcDbCircle
6
CONTINUOUS
62
5
10
160.041869
20
205.504457
40
7.554457
100
AcDbArc
50
-101.436755
51
-78.563243
0
ARC
5
5b8
100
AcDbEntity
8
1
100
AcDbCircle
6
CONTINUOUS
62
5
10
180.000000
20
183.800000
40
1.500000
100
AcDbArc
50
-48.189685
51
-0.000000
0
ARC
5
5b9
100
AcDbEntity
8
1
100
AcDbCircle
6
CONTINUOUS
62
5
10
180.000000
20
183.800000
40
1.500000
100
AcDbArc
50
0.000000
51
48.189685
0
ARC
5
5ba
100
AcDbEntity
8
1
100
AcDbCircle
6
CONTINUOUS
62
5
10
180.000000
20
190.300000
40
1.500000
100
AcDbArc
50
-48.189685
51
-0.000000
0
LINE
5
5bb
100
AcDbEntity
8
1
100
AcDbLine
6
CONTINUOUS
62
5
10
181.500000
20
190.300000
11
181.500000
21
200.400000
0
ARC
5
5bc
100
AcDbEntity
8
1
100
AcDbCircle
6
CONTINUOUS
62
5
10
180.000000
20
200.400000
40
1.500000
100
AcDbArc
50
0.000000
51
48.189685
0
ARC
5
5bd
100
AcDbEntity
8
1
100
AcDbCircle
6
CONTINUOUS
62
5
10
140.000000
20
200.400000
40
1.500000
100
AcDbArc
50
131.810314
51
-179.999998
0
LINE
5
5be
100
AcDbEntity
8
1
100
AcDbLine
6
CONTINUOUS
62
5
10
138.500000
20
200.400000
11
138.500000
21
183.800000
0
ARC
5
5bf
100
AcDbEntity
8
1
100
AcDbCircle
6
CONTINUOUS
62
5
10
140.000000
20
183.800000
40
1.500000
100
AcDbArc
50
-179.999998
51
-131.810314
0
ARC
5
5c0
100
AcDbEntity
8
1
100
AcDbCircle
6
CONTINUOUS
62
5
10
173.300000
20
181.450000
40
0.700000
100
AcDbArc
50
-89.999999
51
0.000000
0
LINE
5
5c1
100
AcDbEntity
8
1
100
AcDbLine
6
CONTINUOUS
62
5
10
173.300000
20
180.750000
11
146.700000
21
180.750000
0
ARC
5
5c2
100
AcDbEntity
8
1
100
AcDbCircle
6
CONTINUOUS
62
5
10
146.700000
20
181.450000
40
0.700000
100
AcDbArc
50
179.999998
51
-89.999999
0
LINE
5
5c3
100
AcDbEntity
8
1
100
AcDbLine
6
CONTINUOUS
62
5
10
146.000000
20
181.450000
11
146.000000
21
187.251960
0
LINE
5
5c4
100
AcDbEntity
8
1
100
AcDbLine
6
CONTINUOUS
62
5
10
146.000000
20
196.948040
11
146.000000
21
202.750000
0
ARC
5
5c5
100
AcDbEntity
8
1
100
AcDbCircle
6
CONTINUOUS
62
5
10
146.700000
20
202.750000
40
0.700000
100
AcDbArc
50
89.999999
51
179.999998
0
LINE
5
5c6
100
AcDbEntity
8
1
100
AcDbLine
6
CONTINUOUS
62
5
10
146.700000
20
203.450000
11
173.300000
21
203.450000
0
ARC
5
5c7
100
AcDbEntity
8
1
100
AcDbCircle
6
CONTINUOUS
62
5
10
173.300000
20
202.750000
40
0.700000
100
AcDbArc
50
0.000000
51
89.999999
0
LINE
5
5c8
100
AcDbEntity
8
1
100
AcDbLine
6
CONTINUOUS
62
5
10
174.000000
20
202.750000
11
174.000000
21
196.948040
0
LINE
5
5c9
100
AcDbEntity
8
1
100
AcDbLine
6
CONTINUOUS
62
5
10
174.000000
20
187.251960
11
174.000000
21
181.450000
0
ARC
5
5ca
100
AcDbEntity
8
1
100
AcDbCircle
6
CONTINUOUS
62
5
10
171.750000
20
185.900000
40
0.500000
100
AcDbArc
50
-89.999999
51
-0.000000
0
LINE
5
5cb
100
AcDbEntity
8
1
100
AcDbLine
6
CONTINUOUS
62
5
10
172.250000
20
185.900000
11
172.250000
21
198.300000
0
ARC
5
5cc
100
AcDbEntity
8
1
100
AcDbCircle
6
CONTINUOUS
62
5
10
171.750000
20
198.300000
40
0.500000
100
AcDbArc
50
-0.000000
51
89.999999
0
LINE
5
5cd
100
AcDbEntity
8
1
100
AcDbLine
6
CONTINUOUS
62
5
10
171.750000
20
198.800000
11
148.250000
21
198.800000
0
ARC
5
5ce
100
AcDbEntity
8
1
100
AcDbCircle
6
CONTINUOUS
62
5
10
148.250000
20
198.300000
40
0.500000
100
AcDbArc
50
89.999999
51
-179.999998
0
LINE
5
5cf
100
AcDbEntity
8
1
100
AcDbLine
6
CONTINUOUS
62
5
10
147.750000
20
198.300000
11
147.750000
21
185.900000
0
ARC
5
5d0
100
AcDbEntity
8
1
100
AcDbCircle
6
CONTINUOUS
62
5
10
148.250000
20
185.900000
40
0.500000
100
AcDbArc
50
-179.999998
51
-89.999999
0
LINE
5
5d1
100
AcDbEntity
8
1
100
AcDbLine
6
CONTINUOUS
62
5
10
148.250000
20
185.400000
11
171.750000
21
185.400000
0
ARC
5
5d2
100
AcDbEntity
8
1
100
AcDbCircle
6
CONTINUOUS
62
5
10
148.585606
20
186.200000
40
0.700000
100
AcDbArc
50
179.999998
51
-89.999999
0
LINE
5
5d3
100
AcDbEntity
8
1
100
AcDbLine
6
CONTINUOUS
62
5
10
148.585606
20
185.500000
11
171.278683
21
185.500000
0
ARC
5
5d4
100
AcDbEntity
8
1
100
AcDbCircle
6
CONTINUOUS
62
5
10
171.278683
20
186.200000
40
0.700000
100
AcDbArc
50
-89.999999
51
0.000000
0
LINE
5
5d5
100
AcDbEntity
8
1
100
AcDbLine
6
CONTINUOUS
62
5
10
171.978683
20
186.200000
11
171.978683
21
187.256512
0
LINE
5
5d6
100
AcDbEntity
8
1
100
AcDbLine
6
CONTINUOUS
62
5
10
171.978683
20
189.343488
11
171.978683
21
194.856512
0
LINE
5
5d7
100
AcDbEntity
8
1
100
AcDbLine
6
CONTINUOUS
62
5
10
171.978683
20
196.943488
11
171.978683
21
198.000000
0
ARC
5
5d8
100
AcDbEntity
8
1
100
AcDbCircle
6
CONTINUOUS
62
5
10
171.278683
20
198.000000
40
0.700000
100
AcDbArc
50
0.000000
51
89.999999
0
LINE
5
5d9
100
AcDbEntity
8
1
100
AcDbLine
6
CONTINUOUS
62
5
10
171.278683
20
198.700000
11
148.585606
21
198.700000
0
ARC
5
5da
100
AcDbEntity
8
1
100
AcDbCircle
6
CONTINUOUS
62
5
10
148.585606
20
198.000000
40
0.700000
100
AcDbArc
50
89.999999
51
179.999998
0
LINE
5
5db
100
AcDbEntity
8
1
100
AcDbLine
6
CONTINUOUS
62
5
10
147.885606
20
198.000000
11
147.885606
21
186.200000
0
ARC
5
5dc
100
AcDbEntity
8
1
100
AcDbCircle
6
CONTINUOUS
62
5
10
152.052421
20
198.331250
40
0.300000
100
AcDbArc
50
0.000000
51
89.999999
0
LINE
5
5dd
100
AcDbEntity
8
1
100
AcDbLine
6
CONTINUOUS
62
5
10
152.352421
20
198.331250
11
152.352421
21
197.400000
0
ARC
5
5de
100
AcDbEntity
8
1
100
AcDbCircle
6
CONTINUOUS
62
5
10
152.052421
20
197.400000
40
0.300000
100
AcDbArc
50
-89.999999
51
0.000000
0
LINE
5
5df
100
AcDbEntity
8
1
100
AcDbLine
6
CONTINUOUS
62
5
10
152.052421
20
197.100000
11
152.052421
21
197.100000
0
LINE
5
5e0
100
AcDbEntity
8
1
100
AcDbLine
6
CONTINUOUS
62
5
10
168.031316
20
197.100000
11
168.031316
21
197.100000
0
ARC
5
5e1
100
AcDbEntity
8
1
100
AcDbCircle
6
CONTINUOUS
62
5
10
168.031316
20
197.400000
40
0.300000
100
AcDbArc
50
179.999998
51
-89.999999
0
LINE
5
5e2
100
AcDbEntity
8
1
100
AcDbLine
6
CONTINUOUS
62
5
10
167.731316
20
197.400000
11
167.731316
21
198.331250
0
ARC
5
5e3
100
AcDbEntity
8
1
100
AcDbCircle
6
CONTINUOUS
62
5
10
168.031316
20
198.331250
40
0.300000
100
AcDbArc
50
89.999999
51
179.999998
0
POLYLINE
5
5e4
100
AcDbEntity
8
1
6
CONTINUOUS
62
5
100
AcDb2dPolyline
66
1
10
0.0
20
0.0
30
0.0
70
0
0
VERTEX
5
5e5
100
AcDbEntity
8
1
100
AcDbVertex
100
AcDb2dVertex
62
5
10
168.031316
20
198.631250
0
VERTEX
5
5e6
100
AcDbEntity
8
1
100
AcDbVertex
100
AcDb2dVertex
62
5
10
168.031316
20
198.631250
0
VERTEX
5
5e7
100
AcDbEntity
8
1
100
AcDbVertex
100
AcDb2dVertex
62
5
10
152.052421
20
198.631250
0
VERTEX
5
5e8
100
AcDbEntity
8
1
100
AcDbVertex
100
AcDb2dVertex
62
5
10
152.052421
20
198.631250
0
SEQEND
5
5e9
100
AcDbEntity
8
1
0
ARC
5
5ea
100
AcDbEntity
8
1
100
AcDbCircle
6
CONTINUOUS
62
5
10
152.052421
20
185.868750
40
0.300000
100
AcDbArc
50
-89.999999
51
0.000000
0
LINE
5
5eb
100
AcDbEntity
8
1
100
AcDbLine
6
CONTINUOUS
62
5
10
152.352421
20
185.868750
11
152.352421
21
186.800000
0
ARC
5
5ec
100
AcDbEntity
8
1
100
AcDbCircle
6
CONTINUOUS
62
5
10
152.052421
20
186.800000
40
0.300000
100
AcDbArc
50
0.000000
51
89.999999
0
LINE
5
5ed
100
AcDbEntity
8
1
100
AcDbLine
6
CONTINUOUS
62
5
10
152.052421
20
187.100000
11
152.052421
21
187.100000
0
LINE
5
5ee
100
AcDbEntity
8
1
100
AcDbLine
6
CONTINUOUS
62
5
10
168.031316
20
187.100000
11
168.031316
21
187.100000
0
ARC
5
5ef
100
AcDbEntity
8
1
100
AcDbCircle
6
CONTINUOUS
62
5
10
168.031316
20
186.800000
40
0.300000
100
AcDbArc
50
89.999999
51
-179.999998
0
LINE
5
5f0
100
AcDbEntity
8
1
100
AcDbLine
6
CONTINUOUS
62
5
10
167.731316
20
186.800000
11
167.731316
21
185.868750
0
ARC
5
5f1
100
AcDbEntity
8
1
100
AcDbCircle
6
CONTINUOUS
62
5
10
168.031316
20
185.868750
40
0.300000
100
AcDbArc
50
179.999998
51
-89.999999
0
POLYLINE
5
5f2
100
AcDbEntity
8
1
6
CONTINUOUS
62
5
100
AcDb2dPolyline
66
1
10
0.0
20
0.0
30
0.0
70
0
0
VERTEX
5
5f3
100
AcDbEntity
8
1
100
AcDbVertex
100
AcDb2dVertex
62
5
10
168.031316
20
185.568750
0
VERTEX
5
5f4
100
AcDbEntity
8
1
100
AcDbVertex
100
AcDb2dVertex
62
5
10
168.031316
20
185.568750
0
VERTEX
5
5f5
100
AcDbEntity
8
1
100
AcDbVertex
100
AcDb2dVertex
62
5
10
152.052421
20
185.568750
0
VERTEX
5
5f6
100
AcDbEntity
8
1
100
AcDbVertex
100
AcDb2dVertex
62
5
10
152.052421
20
185.568750
0
SEQEND
5
5f7
100
AcDbEntity
8
1
0
ARC
5
5f8
100
AcDbEntity
8
1
100
AcDbCircle
6
CONTINUOUS
62
5
10
155.500000
20
190.100000
40
0.400000
100
AcDbArc
50
179.999998
51
-89.999999
0
LINE
5
5f9
100
AcDbEntity
8
1
100
AcDbLine
6
CONTINUOUS
62
5
10
155.100000
20
190.100000
11
155.100000
21
194.100000
0
ARC
5
5fa
100
AcDbEntity
8
1
100
AcDbCircle
6
CONTINUOUS
62
5
10
155.500000
20
194.100000
40
0.400000
100
AcDbArc
50
89.999999
51
179.999998
0
POLYLINE
5
5fb
100
AcDbEntity
8
1
6
CONTINUOUS
62
5
100
AcDb2dPolyline
66
1
10
0.0
20
0.0
30
0.0
70
0
0
VERTEX
5
5fc
100
AcDbEntity
8
1
100
AcDbVertex
100
AcDb2dVertex
62
5
10
155.500000
20
194.500000
0
VERTEX
5
5fd
100
AcDbEntity
8
1
100
AcDbVertex
100
AcDb2dVertex
62
5
10
159.100000
20
194.500000
0
VERTEX
5
5fe
100
AcDbEntity
8
1
100
AcDbVertex
100
AcDb2dVertex
62
5
10
159.100000
20
195.000000
0
SEQEND
5
5ff
100
AcDbEntity
8
1
0
ARC
5
600
100
AcDbEntity
8
1
100
AcDbCircle
6
CONTINUOUS
62
5
10
159.600000
20
195.000000
40
0.500000
100
AcDbArc
50
89.999999
51
179.999998
0
LINE
5
601
100
AcDbEntity
8
1
100
AcDbLine
6
CONTINUOUS
62
5
10
159.600000
20
195.500000
11
160.400000
21
195.500000
0
ARC
5
602
100
AcDbEntity
8
1
100
AcDbCircle
6
CONTINUOUS
62
5
10
160.400000
20
195.000000
40
0.500000
100
AcDbArc
50
-0.000000
51
89.999999
0
POLYLINE
5
603
100
AcDbEntity
8
1
6
CONTINUOUS
62
5
100
AcDb2dPolyline
66
1
10
0.0
20
0.0
30
0.0
70
0
0
VERTEX
5
604
100
AcDbEntity
8
1
100
AcDbVertex
100
AcDb2dVertex
62
5
10
160.900000
20
195.000000
0
VERTEX
5
605
100
AcDbEntity
8
1
100
AcDbVertex
100
AcDb2dVertex
62
5
10
160.900000
20
194.500000
0
VERTEX
5
606
100
AcDbEntity
8
1
100
AcDbVertex
100
AcDb2dVertex
62
5
10
164.500000
20
194.500000
0
SEQEND
5
607
100
AcDbEntity
8
1
0
ARC
5
608
100
AcDbEntity
8
1
100
AcDbCircle
6
CONTINUOUS
62
5
10
164.500000
20
194.100000
40
0.400000
100
AcDbArc
50
-0.000000
51
89.999999
0
POLYLINE
5
609
100
AcDbEntity
8
1
6
CONTINUOUS
62
5
100
AcDb2dPolyline
66
1
10
0.0
20
0.0
30
0.0
70
0
0
VERTEX
5
60a
100
AcDbEntity
8
1
100
AcDbVertex
100
AcDb2dVertex
62
5
10
164.900000
20
194.100000
0
VERTEX
5
60b
100
AcDbEntity
8
1
100
AcDbVertex
100
AcDb2dVertex
62
5
10
164.900000
20
194.100000
0
VERTEX
5
60c
100
AcDbEntity
8
1
100
AcDbVertex
100
AcDb2dVertex
62
5
10
164.900000
20
190.100000
0
SEQEND
5
60d
100
AcDbEntity
8
1
0
ARC
5
60e
100
AcDbEntity
8
1
100
AcDbCircle
6
CONTINUOUS
62
5
10
164.500000
20
190.100000
40
0.400000
100
AcDbArc
50
-89.999999
51
-0.000000
0
POLYLINE
5
60f
100
AcDbEntity
8
1
6
CONTINUOUS
62
5
100
AcDb2dPolyline
66
1
10
0.0
20
0.0
30
0.0
70
0
0
VERTEX
5
610
100
AcDbEntity
8
1
100
AcDbVertex
100
AcDb2dVertex
62
5
10
164.500000
20
189.700000
0
VERTEX
5
611
100
AcDbEntity
8
1
100
AcDbVertex
100
AcDb2dVertex
62
5
10
160.900000
20
189.700000
0
VERTEX
5
612
100
AcDbEntity
8
1
100
AcDbVertex
100
AcDb2dVertex
62
5
10
160.900000
20
189.200000
0
SEQEND
5
613
100
AcDbEntity
8
1
0
ARC
5
614
100
AcDbEntity
8
1
100
AcDbCircle
6
CONTINUOUS
62
5
10
160.400000
20
189.200000
40
0.500000
100
AcDbArc
50
-89.999999
51
-0.000000
0
LINE
5
615
100
AcDbEntity
8
1
100
AcDbLine
6
CONTINUOUS
62
5
10
160.400000
20
188.700000
11
159.600000
21
188.700000
0
ARC
5
616
100
AcDbEntity
8
1
100
AcDbCircle
6
CONTINUOUS
62
5
10
159.600000
20
189.200000
40
0.500000
100
AcDbArc
50
179.999998
51
-89.999999
0
POLYLINE
5
617
100
AcDbEntity
8
1
6
CONTINUOUS
62
5
100
AcDb2dPolyline
66
1
10
0.0
20
0.0
30
0.0
70
0
0
VERTEX
5
618
100
AcDbEntity
8
1
100
AcDbVertex
100
AcDb2dVertex
62
5
10
159.100000
20
189.200000
0
VERTEX
5
619
100
AcDbEntity
8
1
100
AcDbVertex
100
AcDb2dVertex
62
5
10
159.100000
20
189.700000
0
VERTEX
5
61a
100
AcDbEntity
8
1
100
AcDbVertex
100
AcDb2dVertex
62
5
10
155.500000
20
189.700000
0
SEQEND
5
61b
100
AcDbEntity
8
1
0
ARC
5
61c
100
AcDbEntity
8
1
100
AcDbCircle
6
CONTINUOUS
62
5
10
158.470380
20
195.100000
40
0.500000
100
AcDbArc
50
-89.999999
51
0.000000
0
LINE
5
61d
100
AcDbEntity
8
1
100
AcDbLine
6
CONTINUOUS
62
5
10
158.470380
20
194.600000
11
155.499885
21
194.600000
0
ARC
5
61e
100
AcDbEntity
8
1
100
AcDbCircle
6
CONTINUOUS
62
5
10
155.499885
20
194.100000
40
0.500000
100
AcDbArc
50
89.999999
51
179.999998
0
LINE
5
61f
100
AcDbEntity
8
1
100
AcDbLine
6
CONTINUOUS
62
5
10
154.999885
20
194.100000
11
154.999885
21
190.100000
0
ARC
5
620
100
AcDbEntity
8
1
100
AcDbCircle
6
CONTINUOUS
62
5
10
155.499885
20
190.100000
40
0.500000
100
AcDbArc
50
179.999998
51
-89.999999
0
LINE
5
621
100
AcDbEntity
8
1
100
AcDbLine
6
CONTINUOUS
62
5
10
155.499885
20
189.600000
11
158.470380
21
189.600000
0
ARC
5
622
100
AcDbEntity
8
1
100
AcDbCircle
6
CONTINUOUS
62
5
10
158.470380
20
189.100000
40
0.500000
100
AcDbArc
50
0.000000
51
89.999999
0
POLYLINE
5
623
100
AcDbEntity
8
1
6
CONTINUOUS
62
5
100
AcDb2dPolyline
66
1
10
0.0
20
0.0
30
0.0
70
0
0
VERTEX
5
624
100
AcDbEntity
8
1
100
AcDbVertex
100
AcDb2dVertex
62
5
10
158.970380
20
189.100000
0
VERTEX
5
625
100
AcDbEntity
8
1
100
AcDbVertex
100
AcDb2dVertex
62
5
10
158.970380
20
188.600000
0
VERTEX
5
626
100
AcDbEntity
8
1
100
AcDbVertex
100
AcDb2dVertex
62
5
10
160.982929
20
188.600000
0
VERTEX
5
627
100
AcDbEntity
8
1
100
AcDbVertex
100
AcDb2dVertex
62
5
10
160.982929
20
189.100000
0
SEQEND
5
628
100
AcDbEntity
8
1
0
ARC
5
629
100
AcDbEntity
8
1
100
AcDbCircle
6
CONTINUOUS
62
5
10
161.482929
20
189.100000
40
0.500000
100
AcDbArc
50
89.999999
51
179.999998
0
LINE
5
62a
100
AcDbEntity
8
1
100
AcDbLine
6
CONTINUOUS
62
5
10
161.482929
20
189.600000
11
164.451278
21
189.600000
0
ARC
5
62b
100
AcDbEntity
8
1
100
AcDbCircle
6
CONTINUOUS
62
5
10
164.451278
20
190.100000
40
0.500000
100
AcDbArc
50
-89.999999
51
0.000000
0
LINE
5
62c
100
AcDbEntity
8
1
100
AcDbLine
6
CONTINUOUS
62
5
10
164.951278
20
190.100000
11
164.951278
21
194.100000
0
ARC
5
62d
100
AcDbEntity
8
1
100
AcDbCircle
6
CONTINUOUS
62
5
10
164.451278
20
194.100000
40
0.500000
100
AcDbArc
50
0.000000
51
89.999999
0
LINE
5
62e
100
AcDbEntity
8
1
100
AcDbLine
6
CONTINUOUS
62
5
10
164.451278
20
194.600000
11
161.482929
21
194.600000
0
ARC
5
62f
100
AcDbEntity
8
1
100
AcDbCircle
6
CONTINUOUS
62
5
10
161.482929
20
195.100000
40
0.500000
100
AcDbArc
50
179.999998
51
-89.999999
0
POLYLINE
5
630
100
AcDbEntity
8
1
6
CONTINUOUS
62
5
100
AcDb2dPolyline
66
1
10
0.0
20
0.0
30
0.0
70
0
0
VERTEX
5
631
100
AcDbEntity
8
1
100
AcDbVertex
100
AcDb2dVertex
62
5
10
160.982929
20
195.100000
0
VERTEX
5
632
100
AcDbEntity
8
1
100
AcDbVertex
100
AcDb2dVertex
62
5
10
160.982929
20
195.600000
0
VERTEX
5
633
100
AcDbEntity
8
1
100
AcDbVertex
100
AcDb2dVertex
62
5
10
158.970380
20
195.600000
0
VERTEX
5
634
100
AcDbEntity
8
1
100
AcDbVertex
100
AcDb2dVertex
62
5
10
158.970380
20
195.100000
0
SEQEND
5
635
100
AcDbEntity
8
1
0
LINE
5
636
100
AcDbEntity
8
1
100
AcDbLine
6
CONTINUOUS
62
5
10
0.000000
20
308.000000
11
320.000000
21
308.000000
0
LINE
5
637
100
AcDbEntity
8
1
100
AcDbLine
6
CONTINUOUS
62
5
10
172.000000
20
111.250000
11
174.500000
21
111.250000
0
ARC
5
638
100
AcDbEntity
8
1
100
AcDbCircle
6
CONTINUOUS
62
5
10
171.678234
20
123.338221
40
0.300000
100
AcDbArc
50
-1.210089
51
86.999999
0
POLYLINE
5
639
100
AcDbEntity
8
1
6
CONTINUOUS
62
5
100
AcDb2dPolyline
66
1
10
0.0
20
0.0
30
0.0
70
0
0
VERTEX
5
63a
100
AcDbEntity
8
1
100
AcDbVertex
100
AcDb2dVertex
62
5
10
171.693935
20
123.637809
0
VERTEX
5
63b
100
AcDbEntity
8
1
100
AcDbVertex
100
AcDb2dVertex
62
5
10
170.511329
20
123.699787
0
VERTEX
5
63c
100
AcDbEntity
8
1
100
AcDbVertex
100
AcDb2dVertex
62
5
10
170.533989
20
125.813988
0
SEQEND
5
63d
100
AcDbEntity
8
1
0
ARC
5
63e
100
AcDbEntity
8
1
100
AcDbCircle
6
CONTINUOUS
62
5
10
170.234006
20
125.817203
40
0.300000
100
AcDbArc
50
-0.614056
51
86.999999
0
LINE
5
63f
100
AcDbEntity
8
1
100
AcDbLine
6
CONTINUOUS
62
5
10
170.249707
20
126.116792
11
169.338717
21
126.164535
0
ARC
5
640
100
AcDbEntity
8
1
100
AcDbCircle
6
CONTINUOUS
62
5
10
169.323017
20
125.864946
40
0.300000
100
AcDbArc
50
86.999999
51
144.550593
0
LINE
5
641
100
AcDbEntity
8
1
100
AcDbLine
6
CONTINUOUS
62
5
10
169.078628
20
126.038941
11
168.367914
21
125.040693
0
ARC
5
642
100
AcDbEntity
8
1
100
AcDbCircle
6
CONTINUOUS
62
5
10
166.738658
20
126.200661
40
2.000000
100
AcDbArc
50
-92.999999
51
-35.449405
0
LINE
5
643
100
AcDbEntity
8
1
100
AcDbLine
6
CONTINUOUS
62
5
10
166.633986
20
124.203402
11
161.929195
21
124.449970
0
ARC
5
644
100
AcDbEntity
8
1
100
AcDbCircle
6
CONTINUOUS
62
5
10
171.712040
20
124.938645
40
0.300000
100
AcDbArc
50
-1.210089
51
86.999999
0
LINE
5
645
100
AcDbEntity
8
1
100
AcDbLine
6
CONTINUOUS
62
5
10
171.727741
20
125.238234
11
170.528492
21
125.301084
0
ARC
5
646
100
AcDbEntity
8
1
100
AcDbCircle
6
CONTINUOUS
62
5
10
171.728943
20
125.738857
40
0.300000
100
AcDbArc
50
-1.210089
51
86.999999
0
LINE
5
647
100
AcDbEntity
8
1
100
AcDbLine
6
CONTINUOUS
62
5
10
172.028876
20
125.732521
11
171.970101
21
122.950000
0
LINE
5
648
100
AcDbEntity
8
1
100
AcDbLine
6
CONTINUOUS
62
5
10
170.249707
20
126.116792
11
171.744644
21
126.038446
0
LINE
5
649
100
AcDbEntity
8
1
100
AcDbLine
6
CONTINUOUS
62
5
10
170.511329
20
123.699787
11
170.208263
21
123.415259
0
LINE
5
64a
100
AcDbEntity
8
1
100
AcDbLine
6
CONTINUOUS
62
5
10
162.666788
20
123.309804
11
169.532264
21
122.950000
0
ARC
5
64b
100
AcDbEntity
8
1
100
AcDbCircle
6
CONTINUOUS
62
5
10
166.098204
20
125.232877
40
0.300000
100
AcDbArc
50
-0.614056
51
86.999999
0
LINE
5
64c
100
AcDbEntity
8
1
100
AcDbLine
6
CONTINUOUS
62
5
10
166.113905
20
125.532466
11
165.490281
21
125.565148
0
ARC
5
64d
100
AcDbEntity
8
1
100
AcDbCircle
6
CONTINUOUS
62
5
10
165.474581
20
125.265560
40
0.300000
100
AcDbArc
50
86.999999
51
174.614054
0
POLYLINE
5
64e
100
AcDbEntity
8
1
6
CONTINUOUS
62
5
100
AcDb2dPolyline
66
1
10
0.0
20
0.0
30
0.0
70
0
0
VERTEX
5
64f
100
AcDbEntity
8
1
100
AcDbVertex
100
AcDb2dVertex
62
5
10
165.175905
20
125.293719
0
VERTEX
5
650
100
AcDbEntity
8
1
100
AcDbVertex
100
AcDb2dVertex
62
5
10
165.080784
20
124.284802
0
VERTEX
5
651
100
AcDbEntity
8
1
100
AcDbVertex
100
AcDb2dVertex
62
5
10
165.080784
20
124.284802
0
SEQEND
5
652
100
AcDbEntity
8
1
0
LINE
5
653
100
AcDbEntity
8
1
100
AcDbLine
6
CONTINUOUS
62
5
10
166.387326
20
124.216329
11
166.398187
21
125.229662
0
ARC
5
654
100
AcDbEntity
8
1
100
AcDbCircle
6
CONTINUOUS
62
5
10
173.718036
20
125.650000
40
0.500000
100
AcDbArc
50
-0.392506
51
89.999999
0
POLYLINE
5
655
100
AcDbEntity
8
1
6
CONTINUOUS
62
5
100
AcDb2dPolyline
66
1
10
0.0
20
0.0
30
0.0
70
0
0
VERTEX
5
656
100
AcDbEntity
8
1
100
AcDbVertex
100
AcDb2dVertex
62
5
10
174.199551
20
120.250000
0
VERTEX
5
657
100
AcDbEntity
8
1
100
AcDbVertex
100
AcDb2dVertex
62
5
10
174.199551
20
122.950000
0
VERTEX
5
658
100
AcDbEntity
8
1
100
AcDbVertex
100
AcDb2dVertex
62
5
10
174.218025
20
125.646575
0
SEQEND
5
659
100
AcDbEntity
8
1
0
ARC
5
65a
100
AcDbEntity
8
1
100
AcDbCircle
6
CONTINUOUS
62
5
10
174.014932
20
125.650000
40
0.500000
100
AcDbArc
50
1.789911
51
89.999999
0
LINE
5
65b
100
AcDbEntity
8
1
100
AcDbLine
6
CONTINUOUS
62
5
10
174.014932
20
126.150000
11
172.731387
21
126.150000
0
ARC
5
65c
100
AcDbEntity
8
1
100
AcDbCircle
6
CONTINUOUS
62
5
10
172.731387
20
125.850000
40
0.300000
100
AcDbArc
50
89.999999
51
176.423664
0
LINE
5
65d
100
AcDbEntity
8
1
100
AcDbLine
6
CONTINUOUS
62
5
10
172.431971
20
125.868713
11
172.307958
21
123.884511
0
POLYLINE
5
65e
100
AcDbEntity
8
1
6
CONTINUOUS
62
5
100
AcDb2dPolyline
66
1
10
0.0
20
0.0
30
0.0
70
0
0
VERTEX
5
65f
100
AcDbEntity
8
1
100
AcDbVertex
100
AcDb2dVertex
62
5
10
174.599551
20
120.250000
0
VERTEX
5
660
100
AcDbEntity
8
1
100
AcDbVertex
100
AcDb2dVertex
62
5
10
174.599551
20
122.950000
0
VERTEX
5
661
100
AcDbEntity
8
1
100
AcDbVertex
100
AcDb2dVertex
62
5
10
174.514688
20
125.665617
0
SEQEND
5
662
100
AcDbEntity
8
1
0
ARC
5
663
100
AcDbEntity
8
1
100
AcDbCircle
6
CONTINUOUS
62
5
10
172.749551
20
123.650000
40
0.500000
100
AcDbArc
50
89.999999
51
179.999998
0
LINE
5
664
100
AcDbEntity
8
1
100
AcDbLine
6
CONTINUOUS
62
5
10
172.749551
20
124.150000
11
173.499868
21
124.150000
0
ARC
5
665
100
AcDbEntity
8
1
100
AcDbCircle
6
CONTINUOUS
62
5
10
173.499868
20
123.650000
40
0.500000
100
AcDbArc
50
-0.015120
51
89.999999
0
LINE
5
666
100
AcDbEntity
8
1
100
AcDbLine
6
CONTINUOUS
62
5
10
173.999868
20
123.649868
11
173.999551
21
122.450000
0
LINE
5
667
100
AcDbEntity
8
1
100
AcDbLine
6
CONTINUOUS
62
5
10
172.249551
20
122.950000
11
172.249551
21
123.650000
0
ARC
5
668
100
AcDbEntity
8
1
100
AcDbCircle
6
CONTINUOUS
62
5
10
177.999551
20
118.620833
40
1.704167
100
AcDbArc
50
72.938468
51
107.061530
0
LINE
5
669
100
AcDbEntity
8
1
100
AcDbLine
6
CONTINUOUS
62
5
10
173.999815
20
122.950000
11
174.599551
21
122.950000
0
LINE
5
66a
100
AcDbEntity
8
1
100
AcDbLine
6
CONTINUOUS
62
5
10
174.700000
20
108.750000
11
177.300000
21
108.750000
0
ARC
5
66b
100
AcDbEntity
8
1
100
AcDbCircle
6
CONTINUOUS
62
5
10
171.332223
20
111.250000
40
0.500000
100
AcDbArc
50
3.814075
51
89.999999
0
LINE
5
66c
100
AcDbEntity
8
1
100
AcDbLine
6
CONTINUOUS
62
5
10
171.831116
20
111.283259
11
171.997785
21
108.783223
0
ARC
5
66d
100
AcDbEntity
8
1
100
AcDbCircle
6
CONTINUOUS
62
5
10
171.000000
20
108.716704
40
1.000000
100
AcDbArc
50
0.000000
51
3.814075
0
ARC
5
66e
100
AcDbEntity
8
1
100
AcDbCircle
6
CONTINUOUS
62
5
10
177.100000
20
110.950000
40
0.200000
100
AcDbArc
50
0.000000
51
89.999999
0
LINE
5
66f
100
AcDbEntity
8
1
100
AcDbLine
6
CONTINUOUS
62
5
10
177.300000
20
110.950000
11
177.300000
21
107.250000
0
ARC
5
670
100
AcDbEntity
8
1
100
AcDbCircle
6
CONTINUOUS
62
5
10
176.800000
20
107.250000
40
0.500000
100
AcDbArc
50
-89.999999
51
0.000000
0
LINE
5
671
100
AcDbEntity
8
1
100
AcDbLine
6
CONTINUOUS
62
5
10
176.800000
20
106.750000
11
175.200000
21
106.750000
0
ARC
5
672
100
AcDbEntity
8
1
100
AcDbCircle
6
CONTINUOUS
62
5
10
175.200000
20
107.250000
40
0.500000
100
AcDbArc
50
179.999998
51
-89.999999
0
LINE
5
673
100
AcDbEntity
8
1
100
AcDbLine
6
CONTINUOUS
62
5
10
174.700000
20
107.250000
11
174.700000
21
110.950000
0
ARC
5
674
100
AcDbEntity
8
1
100
AcDbCircle
6
CONTINUOUS
62
5
10
174.900000
20
110.950000
40
0.200000
100
AcDbArc
50
89.999999
51
179.999998
0
LINE
5
675
100
AcDbEntity
8
1
100
AcDbLine
6
CONTINUOUS
62
5
10
174.900000
20
111.150000
11
177.100000
21
111.150000
0
POLYLINE
5
676
100
AcDbEntity
8
1
6
CONTINUOUS
62
5
100
AcDb2dPolyline
66
1
10
0.0
20
0.0
30
0.0
70
1
0
VERTEX
5
677
100
AcDbEntity
8
1
100
AcDbVertex
100
AcDb2dVertex
62
5
10
177.500000
20
106.750000
0
VERTEX
5
678
100
AcDbEntity
8
1
100
AcDbVertex
100
AcDb2dVertex
62
5
10
174.500000
20
106.750000
0
VERTEX
5
679
100
AcDbEntity
8
1
100
AcDbVertex
100
AcDb2dVertex
62
5
10
174.500000
20
111.750000
0
VERTEX
5
67a
100
AcDbEntity
8
1
100
AcDbVertex
100
AcDb2dVertex
62
5
10
177.500000
20
111.750000
0
SEQEND
5
67b
100
AcDbEntity
8
1
0
ARC
5
67c
100
AcDbEntity
8
1
100
AcDbCircle
6
CONTINUOUS
62
5
10
176.999551
20
119.750000
40
0.500000
100
AcDbArc
50
0.000000
51
89.999999
0
POLYLINE
5
67d
100
AcDbEntity
8
1
6
CONTINUOUS
62
5
100
AcDb2dPolyline
66
1
10
0.0
20
0.0
30
0.0
70
0
0
VERTEX
5
67e
100
AcDbEntity
8
1
100
AcDbVertex
100
AcDb2dVertex
62
5
10
177.499551
20
119.750000
0
VERTEX
5
67f
100
AcDbEntity
8
1
100
AcDbVertex
100
AcDb2dVertex
62
5
10
177.499551
20
113.450000
0
VERTEX
5
680
100
AcDbEntity
8
1
100
AcDbVertex
100
AcDb2dVertex
62
5
10
180.499551
20
113.450000
0
SEQEND
5
681
100
AcDbEntity
8
1
0
ARC
5
682
100
AcDbEntity
8
1
100
AcDbCircle
6
CONTINUOUS
62
5
10
180.499551
20
112.950000
40
0.500000
100
AcDbArc
50
0.000000
51
89.999999
0
LINE
5
683
100
AcDbEntity
8
1
100
AcDbLine
6
CONTINUOUS
62
5
10
180.999551
20
112.950000
11
180.999551
21
111.750000
0
ARC
5
684
100
AcDbEntity
8
1
100
AcDbCircle
6
CONTINUOUS
62
5
10
180.499551
20
113.650000
40
0.500000
100
AcDbArc
50
0.000000
51
89.999999
0
LINE
5
685
100
AcDbEntity
8
1
100
AcDbLine
6
CONTINUOUS
62
5
10
180.999551
20
113.650000
11
180.999551
21
111.750000
0
LINE
5
686
100
AcDbEntity
8
1
100
AcDbLine
6
CONTINUOUS
62
5
10
177.499551
20
114.150000
11
180.499551
21
114.150000
0
LINE
5
687
100
AcDbEntity
8
1
100
AcDbLine
6
CONTINUOUS
62
5
10
177.500000
20
111.250000
11
180.000000
21
111.250000
0
ARC
5
688
100
AcDbEntity
8
1
100
AcDbCircle
6
CONTINUOUS
62
5
10
180.499551
20
119.042893
40
0.500000
100
AcDbArc
50
-0.000000
51
44.999999
0
LINE
5
689
100
AcDbEntity
8
1
100
AcDbLine
6
CONTINUOUS
62
5
10
180.853105
20
119.396447
11
180.145998
21
120.103553
0
ARC
5
68a
100
AcDbEntity
8
1
100
AcDbCircle
6
CONTINUOUS
62
5
10
179.792445
20
119.750000
40
0.500000
100
AcDbArc
50
44.999999
51
89.999999
0
ARC
5
68b
100
AcDbEntity
8
1
100
AcDbCircle
6
CONTINUOUS
62
5
10
167.900000
20
98.350000
40
1.000000
100
AcDbArc
50
-0.000000
51
89.999999
0
LINE
5
68c
100
AcDbEntity
8
1
100
AcDbLine
6
CONTINUOUS
62
5
10
167.900000
20
99.350000
11
166.500000
21
99.350000
0
ARC
5
68d
100
AcDbEntity
8
1
100
AcDbCircle
6
CONTINUOUS
62
5
10
166.500000
20
98.350000
40
1.000000
100
AcDbArc
50
89.999999
51
-179.999998
0
LINE
5
68e
100
AcDbEntity
8
1
100
AcDbLine
6
CONTINUOUS
62
5
10
165.500000
20
98.350000
11
165.500000
21
97.550000
0
ARC
5
68f
100
AcDbEntity
8
1
100
AcDbCircle
6
CONTINUOUS
62
5
10
164.500000
20
97.550000
40
1.000000
100
AcDbArc
50
-89.999999
51
-0.000000
0
ARC
5
690
100
AcDbEntity
8
1
100
AcDbCircle
6
CONTINUOUS
62
5
10
180.224217
20
97.350000
40
1.000000
100
AcDbArc
50
-89.999999
51
-1.517059
0
LINE
5
691
100
AcDbEntity
8
1
100
AcDbLine
6
CONTINUOUS
62
5
10
181.223867
20
97.323525
11
181.433089
21
105.223525
0
LINE
5
692
100
AcDbEntity
8
1
100
AcDbLine
6
CONTINUOUS
62
5
10
177.224361
20
96.350000
11
180.224217
21
96.350000
0
LINE
5
693
100
AcDbEntity
8
1
100
AcDbLine
6
CONTINUOUS
62
5
10
166.000000
20
105.250000
11
164.592519
21
106.750000
0
ARC
5
694
100
AcDbEntity
8
1
100
AcDbCircle
6
CONTINUOUS
62
5
10
170.500000
20
105.750000
40
0.500000
100
AcDbArc
50
179.999998
51
-89.999999
0
LINE
5
695
100
AcDbEntity
8
1
100
AcDbLine
6
CONTINUOUS
62
5
10
170.000000
20
105.750000
11
170.000000
21
106.750000
0
ARC
5
696
100
AcDbEntity
8
1
100
AcDbCircle
6
CONTINUOUS
62
5
10
173.000000
20
105.250000
40
1.000000
100
AcDbArc
50
179.999998
51
-89.999999
0
LINE
5
697
100
AcDbEntity
8
1
100
AcDbLine
6
CONTINUOUS
62
5
10
172.000000
20
105.250000
11
172.000000
21
111.750000
0
LINE
5
698
100
AcDbEntity
8
1
100
AcDbLine
6
CONTINUOUS
62
5
10
180.000000
20
111.750000
11
180.000000
21
105.250000
0
ARC
5
699
100
AcDbEntity
8
1
100
AcDbCircle
6
CONTINUOUS
62
5
10
179.000000
20
105.250000
40
1.000000
100
AcDbArc
50
-89.999999
51
0.000000
0
LINE
5
69a
100
AcDbEntity
8
1
100
AcDbLine
6
CONTINUOUS
62
5
10
179.000000
20
104.250000
11
173.000000
21
104.250000
0
POLYLINE
5
69b
100
AcDbEntity
8
1
6
CONTINUOUS
62
5
100
AcDb2dPolyline
66
1
10
0.0
20
0.0
30
0.0
70
0
0
VERTEX
5
69c
100
AcDbEntity
8
1
100
AcDbVertex
100
AcDb2dVertex
62
5
10
222.187500
20
36.062500
0
VERTEX
5
69d
100
AcDbEntity
8
1
100
AcDbVertex
100
AcDb2dVertex
62
5
10
223.125000
20
34.812500
0
VERTEX
5
69e
100
AcDbEntity
8
1
100
AcDbVertex
100
AcDb2dVertex
62
5
10
223.750000
20
32.937500
0
VERTEX
5
69f
100
AcDbEntity
8
1
100
AcDbVertex
100
AcDb2dVertex
62
5
10
223.750000
20
31.062500
0
VERTEX
5
6a0
100
AcDbEntity
8
1
100
AcDbVertex
100
AcDb2dVertex
62
5
10
223.125000
20
29.187500
0
VERTEX
5
6a1
100
AcDbEntity
8
1
100
AcDbVertex
100
AcDb2dVertex
62
5
10
222.187500
20
27.937500
0
SEQEND
5
6a2
100
AcDbEntity
8
1
0
POLYLINE
5
6a3
100
AcDbEntity
8
1
6
CONTINUOUS
62
5
100
AcDb2dPolyline
66
1
10
0.0
20
0.0
30
0.0
70
1
0
VERTEX
5
6a4
100
AcDbEntity
8
1
100
AcDbVertex
100
AcDb2dVertex
62
5
10
203.750000
20
35.750000
0
VERTEX
5
6a5
100
AcDbEntity
8
1
100
AcDbVertex
100
AcDb2dVertex
62
5
10
204.375000
20
35.750000
0
VERTEX
5
6a6
100
AcDbEntity
8
1
100
AcDbVertex
100
AcDb2dVertex
62
5
10
204.687500
20
35.437500
0
VERTEX
5
6a7
100
AcDbEntity
8
1
100
AcDbVertex
100
AcDb2dVertex
62
5
10
205.312500
20
34.187500
0
VERTEX
5
6a8
100
AcDbEntity
8
1
100
AcDbVertex
100
AcDb2dVertex
62
5
10
205.625000
20
32.937500
0
VERTEX
5
6a9
100
AcDbEntity
8
1
100
AcDbVertex
100
AcDb2dVertex
62
5
10
205.625000
20
31.062500
0
VERTEX
5
6aa
100
AcDbEntity
8
1
100
AcDbVertex
100
AcDb2dVertex
62
5
10
205.312500
20
29.812500
0
VERTEX
5
6ab
100
AcDbEntity
8
1
100
AcDbVertex
100
AcDb2dVertex
62
5
10
204.687500
20
28.562500
0
VERTEX
5
6ac
100
AcDbEntity
8
1
100
AcDbVertex
100
AcDb2dVertex
62
5
10
204.375000
20
28.250000
0
VERTEX
5
6ad
100
AcDbEntity
8
1
100
AcDbVertex
100
AcDb2dVertex
62
5
10
203.750000
20
28.250000
0
VERTEX
5
6ae
100
AcDbEntity
8
1
100
AcDbVertex
100
AcDb2dVertex
62
5
10
203.437500
20
28.562500
0
VERTEX
5
6af
100
AcDbEntity
8
1
100
AcDbVertex
100
AcDb2dVertex
62
5
10
202.812500
20
29.812500
0
VERTEX
5
6b0
100
AcDbEntity
8
1
100
AcDbVertex
100
AcDb2dVertex
62
5
10
202.500000
20
31.062500
0
VERTEX
5
6b1
100
AcDbEntity
8
1
100
AcDbVertex
100
AcDb2dVertex
62
5
10
202.500000
20
32.937500
0
VERTEX
5
6b2
100
AcDbEntity
8
1
100
AcDbVertex
100
AcDb2dVertex
62
5
10
202.812500
20
34.187500
0
VERTEX
5
6b3
100
AcDbEntity
8
1
100
AcDbVertex
100
AcDb2dVertex
62
5
10
203.437500
20
35.437500
0
VERTEX
5
6b4
100
AcDbEntity
8
1
100
AcDbVertex
100
AcDb2dVertex
62
5
10
203.750000
20
35.750000
0
SEQEND
5
6b5
100
AcDbEntity
8
1
0
POLYLINE
5
6b6
100
AcDbEntity
8
1
6
CONTINUOUS
62
5
100
AcDb2dPolyline
66
1
10
0.0
20
0.0
30
0.0
70
0
0
VERTEX
5
6b7
100
AcDbEntity
8
1
100
AcDbVertex
100
AcDb2dVertex
62
5
10
207.500000
20
35.750000
0
VERTEX
5
6b8
100
AcDbEntity
8
1
100
AcDbVertex
100
AcDb2dVertex
62
5
10
209.062500
20
28.250000
0
VERTEX
5
6b9
100
AcDbEntity
8
1
100
AcDbVertex
100
AcDb2dVertex
62
5
10
210.625000
20
35.750000
0
SEQEND
5
6ba
100
AcDbEntity
8
1
0
POLYLINE
5
6bb
100
AcDbEntity
8
1
6
CONTINUOUS
62
5
100
AcDb2dPolyline
66
1
10
0.0
20
0.0
30
0.0
70
0
0
VERTEX
5
6bc
100
AcDbEntity
8
1
100
AcDbVertex
100
AcDb2dVertex
62
5
10
213.125000
20
35.750000
0
VERTEX
5
6bd
100
AcDbEntity
8
1
100
AcDbVertex
100
AcDb2dVertex
62
5
10
213.125000
20
30.125000
0
VERTEX
5
6be
100
AcDbEntity
8
1
100
AcDbVertex
100
AcDb2dVertex
62
5
10
212.500000
20
28.875000
0
VERTEX
5
6bf
100
AcDbEntity
8
1
100
AcDbVertex
100
AcDb2dVertex
62
5
10
211.875000
20
27.937500
0
SEQEND
5
6c0
100
AcDbEntity
8
1
0
POLYLINE
5
6c1
100
AcDbEntity
8
1
6
CONTINUOUS
62
5
100
AcDb2dPolyline
66
1
10
0.0
20
0.0
30
0.0
70
0
0
VERTEX
5
6c2
100
AcDbEntity
8
1
100
AcDbVertex
100
AcDb2dVertex
62
5
10
218.125000
20
28.250000
0
VERTEX
5
6c3
100
AcDbEntity
8
1
100
AcDbVertex
100
AcDb2dVertex
62
5
10
219.375000
20
27.625000
0
VERTEX
5
6c4
100
AcDbEntity
8
1
100
AcDbVertex
100
AcDb2dVertex
62
5
10
219.375000
20
35.750000
0
VERTEX
5
6c5
100
AcDbEntity
8
1
100
AcDbVertex
100
AcDb2dVertex
62
5
10
213.125000
20
35.750000
0
SEQEND
5
6c6
100
AcDbEntity
8
1
0
LINE
5
6c7
100
AcDbEntity
8
1
100
AcDbLine
6
CONTINUOUS
62
5
10
213.125000
20
33.250000
11
219.375000
21
33.250000
0
LINE
5
6c8
100
AcDbEntity
8
1
100
AcDbLine
6
CONTINUOUS
62
5
10
216.250000
20
35.750000
11
216.250000
21
27.625000
0
LINE
5
6c9
100
AcDbEntity
8
1
100
AcDbLine
6
CONTINUOUS
62
5
10
213.125000
20
30.750000
11
219.375000
21
30.750000
0
LINE
5
6ca
100
AcDbEntity
8
1
100
AcDbLine
6
CONTINUOUS
62
5
10
181.875000
20
33.875000
11
181.875000
21
31.375000
0
LINE
5
6cb
100
AcDbEntity
8
1
100
AcDbLine
6
CONTINUOUS
62
5
10
185.000000
20
34.187500
11
183.750000
21
32.625000
0
POLYLINE
5
6cc
100
AcDbEntity
8
1
6
CONTINUOUS
62
5
100
AcDb2dPolyline
66
1
10
0.0
20
0.0
30
0.0
70
0
0
VERTEX
5
6cd
100
AcDbEntity
8
1
100
AcDbVertex
100
AcDb2dVertex
62
5
10
183.437500
20
35.750000
0
VERTEX
5
6ce
100
AcDbEntity
8
1
100
AcDbVertex
100
AcDb2dVertex
62
5
10
183.437500
20
30.437500
0
VERTEX
5
6cf
100
AcDbEntity
8
1
100
AcDbVertex
100
AcDb2dVertex
62
5
10
182.500000
20
28.562500
0
VERTEX
5
6d0
100
AcDbEntity
8
1
100
AcDbVertex
100
AcDb2dVertex
62
5
10
181.562500
20
27.937500
0
SEQEND
5
6d1
100
AcDbEntity
8
1
0
LINE
5
6d2
100
AcDbEntity
8
1
100
AcDbLine
6
CONTINUOUS
62
5
10
183.437500
20
30.437500
11
185.000000
21
28.562500
0
LINE
5
6d3
100
AcDbEntity
8
1
100
AcDbLine
6
CONTINUOUS
62
5
10
185.000000
20
35.125000
11
190.625000
21
35.125000
0
POLYLINE
5
6d4
100
AcDbEntity
8
1
6
CONTINUOUS
62
5
100
AcDb2dPolyline
66
1
10
0.0
20
0.0
30
0.0
70
0
0
VERTEX
5
6d5
100
AcDbEntity
8
1
100
AcDbVertex
100
AcDb2dVertex
62
5
10
188.125000
20
35.125000
0
VERTEX
5
6d6
100
AcDbEntity
8
1
100
AcDbVertex
100
AcDb2dVertex
62
5
10
188.125000
20
28.250000
0
VERTEX
5
6d7
100
AcDbEntity
8
1
100
AcDbVertex
100
AcDb2dVertex
62
5
10
187.500000
20
27.625000
0
VERTEX
5
6d8
100
AcDbEntity
8
1
100
AcDbVertex
100
AcDb2dVertex
62
5
10
186.250000
20
27.625000
0
SEQEND
5
6d9
100
AcDbEntity
8
1
0
POLYLINE
5
6da
100
AcDbEntity
8
1
6
CONTINUOUS
62
5
100
AcDb2dPolyline
66
1
10
0.0
20
0.0
30
0.0
70
0
0
VERTEX
5
6db
100
AcDbEntity
8
1
100
AcDbVertex
100
AcDb2dVertex
62
5
10
193.125000
20
35.125000
0
VERTEX
5
6dc
100
AcDbEntity
8
1
100
AcDbVertex
100
AcDb2dVertex
62
5
10
194.062500
20
35.750000
0
VERTEX
5
6dd
100
AcDbEntity
8
1
100
AcDbVertex
100
AcDb2dVertex
62
5
10
194.062500
20
28.250000
0
SEQEND
5
6de
100
AcDbEntity
8
1
0
LINE
5
6df
100
AcDbEntity
8
1
100
AcDbLine
6
CONTINUOUS
62
5
10
193.437500
20
28.250000
11
194.687500
21
28.250000
0
LINE
5
6e0
100
AcDbEntity
8
1
100
AcDbLine
6
CONTINUOUS
62
5
10
165.937500
20
36.375000
11
165.937500
21
31.687500
0
LINE
5
6e1
100
AcDbEntity
8
1
100
AcDbLine
6
CONTINUOUS
62
5
10
162.187500
20
34.812500
11
169.687500
21
34.812500
0
LINE
5
6e2
100
AcDbEntity
8
1
100
AcDbLine
6
CONTINUOUS
62
5
10
163.125000
20
33.250000
11
169.062500
21
33.250000
0
LINE
5
6e3
100
AcDbEntity
8
1
100
AcDbLine
6
CONTINUOUS
62
5
10
161.562500
20
31.687500
11
170.625000
21
31.687500
0
POLYLINE
5
6e4
100
AcDbEntity
8
1
6
CONTINUOUS
62
5
100
AcDb2dPolyline
66
1
10
0.0
20
0.0
30
0.0
70
0
0
VERTEX
5
6e5
100
AcDbEntity
8
1
100
AcDbVertex
100
AcDb2dVertex
62
5
10
165.937500
20
31.687500
0
VERTEX
5
6e6
100
AcDbEntity
8
1
100
AcDbVertex
100
AcDb2dVertex
62
5
10
164.062500
20
30.125000
0
VERTEX
5
6e7
100
AcDbEntity
8
1
100
AcDbVertex
100
AcDb2dVertex
62
5
10
161.562500
20
28.875000
0
SEQEND
5
6e8
100
AcDbEntity
8
1
0
LINE
5
6e9
100
AcDbEntity
8
1
100
AcDbLine
6
CONTINUOUS
62
5
10
164.062500
20
30.125000
11
164.062500
21
27.937500
0
POLYLINE
5
6ea
100
AcDbEntity
8
1
6
CONTINUOUS
62
5
100
AcDb2dPolyline
66
1
10
0.0
20
0.0
30
0.0
70
0
0
VERTEX
5
6eb
100
AcDbEntity
8
1
100
AcDbVertex
100
AcDb2dVertex
62
5
10
162.500000
20
27.625000
0
VERTEX
5
6ec
100
AcDbEntity
8
1
100
AcDbVertex
100
AcDb2dVertex
62
5
10
164.062500
20
27.937500
0
VERTEX
5
6ed
100
AcDbEntity
8
1
100
AcDbVertex
100
AcDb2dVertex
62
5
10
165.312500
20
28.250000
0
VERTEX
5
6ee
100
AcDbEntity
8
1
100
AcDbVertex
100
AcDb2dVertex
62
5
10
166.562500
20
28.875000
0
SEQEND
5
6ef
100
AcDbEntity
8
1
0
LINE
5
6f0
100
AcDbEntity
8
1
100
AcDbLine
6
CONTINUOUS
62
5
10
169.375000
20
30.750000
11
167.500000
21
29.500000
0
POLYLINE
5
6f1
100
AcDbEntity
8
1
6
CONTINUOUS
62
5
100
AcDb2dPolyline
66
1
10
0.0
20
0.0
30
0.0
70
0
0
VERTEX
5
6f2
100
AcDbEntity
8
1
100
AcDbVertex
100
AcDb2dVertex
62
5
10
166.250000
20
31.062500
0
VERTEX
5
6f3
100
AcDbEntity
8
1
100
AcDbVertex
100
AcDb2dVertex
62
5
10
167.500000
20
28.875000
0
VERTEX
5
6f4
100
AcDbEntity
8
1
100
AcDbVertex
100
AcDb2dVertex
62
5
10
169.062500
20
27.937500
0
VERTEX
5
6f5
100
AcDbEntity
8
1
100
AcDbVertex
100
AcDb2dVertex
62
5
10
170.312500
20
27.625000
0
SEQEND
5
6f6
100
AcDbEntity
8
1
0
LINE
5
6f7
100
AcDbEntity
8
1
100
AcDbLine
6
CONTINUOUS
62
5
10
173.125000
20
35.750000
11
178.750000
21
35.750000
0
LINE
5
6f8
100
AcDbEntity
8
1
100
AcDbLine
6
CONTINUOUS
62
5
10
171.562500
20
33.562500
11
180.312500
21
33.562500
0
POLYLINE
5
6f9
100
AcDbEntity
8
1
6
CONTINUOUS
62
5
100
AcDb2dPolyline
66
1
10
0.0
20
0.0
30
0.0
70
0
0
VERTEX
5
6fa
100
AcDbEntity
8
1
100
AcDbVertex
100
AcDb2dVertex
62
5
10
175.937500
20
33.562500
0
VERTEX
5
6fb
100
AcDbEntity
8
1
100
AcDbVertex
100
AcDb2dVertex
62
5
10
175.937500
20
27.937500
0
VERTEX
5
6fc
100
AcDbEntity
8
1
100
AcDbVertex
100
AcDb2dVertex
62
5
10
175.312500
20
27.312500
0
VERTEX
5
6fd
100
AcDbEntity
8
1
100
AcDbVertex
100
AcDb2dVertex
62
5
10
174.687500
20
27.312500
0
SEQEND
5
6fe
100
AcDbEntity
8
1
0
POLYLINE
5
6ff
100
AcDbEntity
8
1
6
CONTINUOUS
62
5
100
AcDb2dPolyline
66
1
10
0.0
20
0.0
30
0.0
70
0
0
VERTEX
5
700
100
AcDbEntity
8
1
100
AcDbVertex
100
AcDb2dVertex
62
5
10
173.750000
20
31.062500
0
VERTEX
5
701
100
AcDbEntity
8
1
100
AcDbVertex
100
AcDb2dVertex
62
5
10
173.125000
20
29.812500
0
VERTEX
5
702
100
AcDbEntity
8
1
100
AcDbVertex
100
AcDb2dVertex
62
5
10
171.875000
20
28.562500
0
SEQEND
5
703
100
AcDbEntity
8
1
0
POLYLINE
5
704
100
AcDbEntity
8
1
6
CONTINUOUS
62
5
100
AcDb2dPolyline
66
1
10
0.0
20
0.0
30
0.0
70
0
0
VERTEX
5
705
100
AcDbEntity
8
1
100
AcDbVertex
100
AcDb2dVertex
62
5
10
177.812500
20
31.062500
0
VERTEX
5
706
100
AcDbEntity
8
1
100
AcDbVertex
100
AcDb2dVertex
62
5
10
179.062500
20
30.125000
0
VERTEX
5
707
100
AcDbEntity
8
1
100
AcDbVertex
100
AcDb2dVertex
62
5
10
180.000000
20
28.562500
0
SEQEND
5
708
100
AcDbEntity
8
1
0
POLYLINE
5
709
100
AcDbEntity
8
1
6
CONTINUOUS
62
5
100
AcDb2dPolyline
66
1
10
0.0
20
0.0
30
0.0
70
1
0
VERTEX
5
70a
100
AcDbEntity
8
1
100
AcDbVertex
100
AcDb2dVertex
62
5
10
198.750000
20
35.750000
0
VERTEX
5
70b
100
AcDbEntity
8
1
100
AcDbVertex
100
AcDb2dVertex
62
5
10
199.375000
20
35.750000
0
VERTEX
5
70c
100
AcDbEntity
8
1
100
AcDbVertex
100
AcDb2dVertex
62
5
10
199.687500
20
35.437500
0
VERTEX
5
70d
100
AcDbEntity
8
1
100
AcDbVertex
100
AcDb2dVertex
62
5
10
200.312500
20
34.187500
0
VERTEX
5
70e
100
AcDbEntity
8
1
100
AcDbVertex
100
AcDb2dVertex
62
5
10
200.625000
20
32.937500
0
VERTEX
5
70f
100
AcDbEntity
8
1
100
AcDbVertex
100
AcDb2dVertex
62
5
10
200.625000
20
31.062500
0
VERTEX
5
710
100
AcDbEntity
8
1
100
AcDbVertex
100
AcDb2dVertex
62
5
10
200.312500
20
29.812500
0
VERTEX
5
711
100
AcDbEntity
8
1
100
AcDbVertex
100
AcDb2dVertex
62
5
10
199.687500
20
28.562500
0
VERTEX
5
712
100
AcDbEntity
8
1
100
AcDbVertex
100
AcDb2dVertex
62
5
10
199.375000
20
28.250000
0
VERTEX
5
713
100
AcDbEntity
8
1
100
AcDbVertex
100
AcDb2dVertex
62
5
10
198.750000
20
28.250000
0
VERTEX
5
714
100
AcDbEntity
8
1
100
AcDbVertex
100
AcDb2dVertex
62
5
10
198.437500
20
28.562500
0
VERTEX
5
715
100
AcDbEntity
8
1
100
AcDbVertex
100
AcDb2dVertex
62
5
10
197.812500
20
29.812500
0
VERTEX
5
716
100
AcDbEntity
8
1
100
AcDbVertex
100
AcDb2dVertex
62
5
10
197.500000
20
31.062500
0
VERTEX
5
717
100
AcDbEntity
8
1
100
AcDbVertex
100
AcDb2dVertex
62
5
10
197.500000
20
32.937500
0
VERTEX
5
718
100
AcDbEntity
8
1
100
AcDbVertex
100
AcDb2dVertex
62
5
10
197.812500
20
34.187500
0
VERTEX
5
719
100
AcDbEntity
8
1
100
AcDbVertex
100
AcDb2dVertex
62
5
10
198.437500
20
35.437500
0
VERTEX
5
71a
100
AcDbEntity
8
1
100
AcDbVertex
100
AcDb2dVertex
62
5
10
198.750000
20
35.750000
0
SEQEND
5
71b
100
AcDbEntity
8
1
0
LINE
5
71c
100
AcDbEntity
8
1
100
AcDbLine
6
CONTINUOUS
62
5
10
148.000000
20
111.250000
11
145.500000
21
111.250000
0
ARC
5
71d
100
AcDbEntity
8
1
100
AcDbCircle
6
CONTINUOUS
62
5
10
145.984170
20
125.650000
40
0.500000
100
AcDbArc
50
89.999999
51
178.210088
0
LINE
5
71e
100
AcDbEntity
8
1
100
AcDbLine
6
CONTINUOUS
62
5
10
145.984170
20
126.150000
11
147.267716
21
126.150000
0
ARC
5
71f
100
AcDbEntity
8
1
100
AcDbCircle
6
CONTINUOUS
62
5
10
147.267716
20
125.850000
40
0.300000
100
AcDbArc
50
3.576334
51
89.999999
0
LINE
5
720
100
AcDbEntity
8
1
100
AcDbLine
6
CONTINUOUS
62
5
10
147.567132
20
125.868713
11
147.691144
21
123.884511
0
POLYLINE
5
721
100
AcDbEntity
8
1
6
CONTINUOUS
62
5
100
AcDb2dPolyline
66
1
10
0.0
20
0.0
30
0.0
70
0
0
VERTEX
5
722
100
AcDbEntity
8
1
100
AcDbVertex
100
AcDb2dVertex
62
5
10
145.399551
20
120.250000
0
VERTEX
5
723
100
AcDbEntity
8
1
100
AcDbVertex
100
AcDb2dVertex
62
5
10
145.399551
20
122.950000
0
VERTEX
5
724
100
AcDbEntity
8
1
100
AcDbVertex
100
AcDb2dVertex
62
5
10
145.484414
20
125.665617
0
SEQEND
5
725
100
AcDbEntity
8
1
0
LINE
5
726
100
AcDbEntity
8
1
100
AcDbLine
6
CONTINUOUS
62
5
10
145.999288
20
122.950000
11
145.399551
21
122.950000
0
ARC
5
727
100
AcDbEntity
8
1
100
AcDbCircle
6
CONTINUOUS
62
5
10
141.999551
20
118.620833
40
1.704167
100
AcDbArc
50
72.938468
51
107.061530
0
ARC
5
728
100
AcDbEntity
8
1
100
AcDbCircle
6
CONTINUOUS
62
5
10
146.281066
20
125.650000
40
0.500000
100
AcDbArc
50
89.999999
51
-179.607493
0
POLYLINE
5
729
100
AcDbEntity
8
1
6
CONTINUOUS
62
5
100
AcDb2dPolyline
66
1
10
0.0
20
0.0
30
0.0
70
0
0
VERTEX
5
72a
100
AcDbEntity
8
1
100
AcDbVertex
100
AcDb2dVertex
62
5
10
145.799551
20
120.250000
0
VERTEX
5
72b
100
AcDbEntity
8
1
100
AcDbVertex
100
AcDb2dVertex
62
5
10
145.799551
20
122.950000
0
VERTEX
5
72c
100
AcDbEntity
8
1
100
AcDbVertex
100
AcDb2dVertex
62
5
10
145.781078
20
125.646575
0
SEQEND
5
72d
100
AcDbEntity
8
1
0
ARC
5
72e
100
AcDbEntity
8
1
100
AcDbCircle
6
CONTINUOUS
62
5
10
147.249551
20
123.650000
40
0.500000
100
AcDbArc
50
0.000000
51
89.999999
0
LINE
5
72f
100
AcDbEntity
8
1
100
AcDbLine
6
CONTINUOUS
62
5
10
147.249551
20
124.150000
11
146.499235
21
124.150000
0
ARC
5
730
100
AcDbEntity
8
1
100
AcDbCircle
6
CONTINUOUS
62
5
10
146.499235
20
123.650000
40
0.500000
100
AcDbArc
50
89.999999
51
-179.984878
0
LINE
5
731
100
AcDbEntity
8
1
100
AcDbLine
6
CONTINUOUS
62
5
10
145.999235
20
123.649868
11
145.999551
21
122.450000
0
LINE
5
732
100
AcDbEntity
8
1
100
AcDbLine
6
CONTINUOUS
62
5
10
147.749551
20
122.950000
11
147.749551
21
123.650000
0
ARC
5
733
100
AcDbEntity
8
1
100
AcDbCircle
6
CONTINUOUS
62
5
10
148.475472
20
126.156422
40
0.300000
100
AcDbArc
50
86.999999
51
175.210088
0
LINE
5
734
100
AcDbEntity
8
1
100
AcDbLine
6
CONTINUOUS
62
5
10
149.690422
20
126.393161
11
148.491173
21
126.456011
0
LINE
5
735
100
AcDbEntity
8
1
100
AcDbLine
6
CONTINUOUS
62
5
10
149.540109
20
124.798842
11
149.811774
21
124.484193
0
LINE
5
736
100
AcDbEntity
8
1
100
AcDbLine
6
CONTINUOUS
62
5
10
148.000296
20
124.078443
11
157.507532
21
123.580190
0
ARC
5
737
100
AcDbEntity
8
1
100
AcDbCircle
6
CONTINUOUS
62
5
10
154.090205
20
125.862189
40
0.300000
100
AcDbArc
50
86.999999
51
174.614054
0
LINE
5
738
100
AcDbEntity
8
1
100
AcDbLine
6
CONTINUOUS
62
5
10
154.105906
20
126.161778
11
154.729530
21
126.129096
0
ARC
5
739
100
AcDbEntity
8
1
100
AcDbCircle
6
CONTINUOUS
62
5
10
154.713829
20
125.829507
40
0.300000
100
AcDbArc
50
-0.614056
51
86.999999
0
LINE
5
73a
100
AcDbEntity
8
1
100
AcDbLine
6
CONTINUOUS
62
5
10
155.013812
20
125.826292
11
155.002951
21
124.812959
0
LINE
5
73b
100
AcDbEntity
8
1
100
AcDbLine
6
CONTINUOUS
62
5
10
153.696409
20
124.881432
11
153.791530
21
125.890349
0
LINE
5
73c
100
AcDbEntity
8
1
100
AcDbLine
6
CONTINUOUS
62
5
10
142.700000
20
108.750000
11
145.300000
21
108.750000
0
ARC
5
73d
100
AcDbEntity
8
1
100
AcDbCircle
6
CONTINUOUS
62
5
10
149.000000
20
108.716704
40
1.000000
100
AcDbArc
50
176.185924
51
-179.999998
0
LINE
5
73e
100
AcDbEntity
8
1
100
AcDbLine
6
CONTINUOUS
62
5
10
148.002215
20
108.783223
11
148.168884
21
111.283259
0
ARC
5
73f
100
AcDbEntity
8
1
100
AcDbCircle
6
CONTINUOUS
62
5
10
148.667777
20
111.250000
40
0.500000
100
AcDbArc
50
89.999999
51
176.185924
0
ARC
5
740
100
AcDbEntity
8
1
100
AcDbCircle
6
CONTINUOUS
62
5
10
142.900000
20
110.950000
40
0.200000
100
AcDbArc
50
89.999999
51
179.999998
0
LINE
5
741
100
AcDbEntity
8
1
100
AcDbLine
6
CONTINUOUS
62
5
10
142.700000
20
110.950000
11
142.700000
21
107.250000
0
ARC
5
742
100
AcDbEntity
8
1
100
AcDbCircle
6
CONTINUOUS
62
5
10
143.200000
20
107.250000
40
0.500000
100
AcDbArc
50
179.999998
51
-89.999999
0
LINE
5
743
100
AcDbEntity
8
1
100
AcDbLine
6
CONTINUOUS
62
5
10
143.200000
20
106.750000
11
144.800000
21
106.750000
0
ARC
5
744
100
AcDbEntity
8
1
100
AcDbCircle
6
CONTINUOUS
62
5
10
144.800000
20
107.250000
40
0.500000
100
AcDbArc
50
-89.999999
51
0.000000
0
LINE
5
745
100
AcDbEntity
8
1
100
AcDbLine
6
CONTINUOUS
62
5
10
145.300000
20
107.250000
11
145.300000
21
110.950000
0
ARC
5
746
100
AcDbEntity
8
1
100
AcDbCircle
6
CONTINUOUS
62
5
10
145.100000
20
110.950000
40
0.200000
100
AcDbArc
50
0.000000
51
89.999999
0
LINE
5
747
100
AcDbEntity
8
1
100
AcDbLine
6
CONTINUOUS
62
5
10
145.100000
20
111.150000
11
142.900000
21
111.150000
0
POLYLINE
5
748
100
AcDbEntity
8
1
6
CONTINUOUS
62
5
100
AcDb2dPolyline
66
1
10
0.0
20
0.0
30
0.0
70
1
0
VERTEX
5
749
100
AcDbEntity
8
1
100
AcDbVertex
100
AcDb2dVertex
62
5
10
142.500000
20
106.750000
0
VERTEX
5
74a
100
AcDbEntity
8
1
100
AcDbVertex
100
AcDb2dVertex
62
5
10
145.500000
20
106.750000
0
VERTEX
5
74b
100
AcDbEntity
8
1
100
AcDbVertex
100
AcDb2dVertex
62
5
10
145.500000
20
111.750000
0
VERTEX
5
74c
100
AcDbEntity
8
1
100
AcDbVertex
100
AcDb2dVertex
62
5
10
142.500000
20
111.750000
0
SEQEND
5
74d
100
AcDbEntity
8
1
0
ARC
5
74e
100
AcDbEntity
8
1
100
AcDbCircle
6
CONTINUOUS
62
5
10
139.499551
20
112.950000
40
0.500000
100
AcDbArc
50
89.999999
51
179.999998
0
LINE
5
74f
100
AcDbEntity
8
1
100
AcDbLine
6
CONTINUOUS
62
5
10
138.999551
20
112.950000
11
138.999551
21
111.750000
0
ARC
5
750
100
AcDbEntity
8
1
100
AcDbCircle
6
CONTINUOUS
62
5
10
142.999551
20
119.750000
40
0.500000
100
AcDbArc
50
89.999999
51
179.999998
0
POLYLINE
5
751
100
AcDbEntity
8
1
6
CONTINUOUS
62
5
100
AcDb2dPolyline
66
1
10
0.0
20
0.0
30
0.0
70
0
0
VERTEX
5
752
100
AcDbEntity
8
1
100
AcDbVertex
100
AcDb2dVertex
62
5
10
142.499551
20
119.750000
0
VERTEX
5
753
100
AcDbEntity
8
1
100
AcDbVertex
100
AcDb2dVertex
62
5
10
142.499551
20
113.450000
0
VERTEX
5
754
100
AcDbEntity
8
1
100
AcDbVertex
100
AcDb2dVertex
62
5
10
139.499551
20
113.450000
0
SEQEND
5
755
100
AcDbEntity
8
1
0
ARC
5
756
100
AcDbEntity
8
1
100
AcDbCircle
6
CONTINUOUS
62
5
10
139.499551
20
113.650000
40
0.500000
100
AcDbArc
50
89.999999
51
179.999998
0
LINE
5
757
100
AcDbEntity
8
1
100
AcDbLine
6
CONTINUOUS
62
5
10
138.999551
20
113.650000
11
138.999551
21
111.750000
0
LINE
5
758
100
AcDbEntity
8
1
100
AcDbLine
6
CONTINUOUS
62
5
10
142.499551
20
114.150000
11
139.499551
21
114.150000
0
LINE
5
759
100
AcDbEntity
8
1
100
AcDbLine
6
CONTINUOUS
62
5
10
142.500000
20
111.250000
11
140.000000
21
111.250000
0
ARC
5
75a
100
AcDbEntity
8
1
100
AcDbCircle
6
CONTINUOUS
62
5
10
140.206658
20
119.750000
40
0.500000
100
AcDbArc
50
89.999999
51
134.999998
0
LINE
5
75b
100
AcDbEntity
8
1
100
AcDbLine
6
CONTINUOUS
62
5
10
139.853105
20
120.103553
11
139.145998
21
119.396447
0
ARC
5
75c
100
AcDbEntity
8
1
100
AcDbCircle
6
CONTINUOUS
62
5
10
139.499551
20
119.042893
40
0.500000
100
AcDbArc
50
134.999998
51
-179.999998
0
ARC
5
75d
100
AcDbEntity
8
1
100
AcDbCircle
6
CONTINUOUS
62
5
10
153.600000
20
97.050000
40
0.500000
100
AcDbArc
50
-179.999998
51
-89.999999
0
LINE
5
75e
100
AcDbEntity
8
1
100
AcDbLine
6
CONTINUOUS
62
5
10
151.100000
20
97.050000
11
153.100000
21
97.050000
0
ARC
5
75f
100
AcDbEntity
8
1
100
AcDbCircle
6
CONTINUOUS
62
5
10
149.500000
20
105.750000
40
0.500000
100
AcDbArc
50
-89.999999
51
0.000000
0
LINE
5
760
100
AcDbEntity
8
1
100
AcDbLine
6
CONTINUOUS
62
5
10
150.000000
20
105.750000
11
150.000000
21
106.750000
0
LINE
5
761
100
AcDbEntity
8
1
100
AcDbLine
6
CONTINUOUS
62
5
10
154.000000
20
105.250000
11
155.407481
21
106.750000
0
ARC
5
762
100
AcDbEntity
8
1
100
AcDbCircle
6
CONTINUOUS
62
5
10
147.000000
20
105.250000
40
1.000000
100
AcDbArc
50
-89.999999
51
0.000000
0
LINE
5
763
100
AcDbEntity
8
1
100
AcDbLine
6
CONTINUOUS
62
5
10
148.000000
20
105.250000
11
148.000000
21
111.750000
0
LINE
5
764
100
AcDbEntity
8
1
100
AcDbLine
6
CONTINUOUS
62
5
10
140.000000
20
111.750000
11
140.000000
21
105.250000
0
ARC
5
765
100
AcDbEntity
8
1
100
AcDbCircle
6
CONTINUOUS
62
5
10
141.000000
20
105.250000
40
1.000000
100
AcDbArc
50
179.999998
51
-89.999999
0
LINE
5
766
100
AcDbEntity
8
1
100
AcDbLine
6
CONTINUOUS
62
5
10
141.000000
20
104.250000
11
147.000000
21
104.250000
0
ARC
5
767
100
AcDbEntity
8
1
100
AcDbCircle
6
CONTINUOUS
62
5
10
148.542306
20
126.954017
40
0.300000
100
AcDbArc
50
86.999999
51
175.210088
0
POLYLINE
5
768
100
AcDbEntity
8
1
6
CONTINUOUS
62
5
100
AcDb2dPolyline
66
1
10
0.0
20
0.0
30
0.0
70
0
0
VERTEX
5
769
100
AcDbEntity
8
1
100
AcDbVertex
100
AcDb2dVertex
62
5
10
148.243354
20
126.979068
0
VERTEX
5
76a
100
AcDbEntity
8
1
100
AcDbVertex
100
AcDb2dVertex
62
5
10
148.000296
20
124.078443
0
VERTEX
5
76b
100
AcDbEntity
8
1
100
AcDbVertex
100
AcDb2dVertex
62
5
10
147.941157
20
122.950000
0
SEQEND
5
76c
100
AcDbEntity
8
1
0
LINE
5
76d
100
AcDbEntity
8
1
100
AcDbLine
6
CONTINUOUS
62
5
10
150.052944
20
127.175259
11
148.558007
21
127.253606
0
ARC
5
76e
100
AcDbEntity
8
1
100
AcDbCircle
6
CONTINUOUS
62
5
10
153.553526
20
126.891664
40
2.000000
100
AcDbArc
50
-150.550593
51
-92.999999
0
LINE
5
76f
100
AcDbEntity
8
1
100
AcDbLine
6
CONTINUOUS
62
5
10
151.811946
20
125.908355
11
151.209470
21
126.975424
0
ARC
5
770
100
AcDbEntity
8
1
100
AcDbCircle
6
CONTINUOUS
62
5
10
150.948233
20
126.827928
40
0.300000
100
AcDbArc
50
29.449405
51
86.999999
0
LINE
5
771
100
AcDbEntity
8
1
100
AcDbLine
6
CONTINUOUS
62
5
10
150.963934
20
127.127516
11
150.052944
21
127.175259
0
ARC
5
772
100
AcDbEntity
8
1
100
AcDbCircle
6
CONTINUOUS
62
5
10
150.037244
20
126.875671
40
0.300000
100
AcDbArc
50
86.999999
51
174.614055
0
POLYLINE
5
773
100
AcDbEntity
8
1
6
CONTINUOUS
62
5
100
AcDb2dPolyline
66
1
10
0.0
20
0.0
30
0.0
70
0
0
VERTEX
5
774
100
AcDbEntity
8
1
100
AcDbVertex
100
AcDb2dVertex
62
5
10
149.738568
20
126.903830
0
VERTEX
5
775
100
AcDbEntity
8
1
100
AcDbVertex
100
AcDb2dVertex
62
5
10
149.540109
20
124.798842
0
VERTEX
5
776
100
AcDbEntity
8
1
100
AcDbVertex
100
AcDb2dVertex
62
5
10
148.357504
20
124.860820
0
SEQEND
5
777
100
AcDbEntity
8
1
0
ARC
5
778
100
AcDbEntity
8
1
100
AcDbCircle
6
CONTINUOUS
62
5
10
148.341803
20
124.561231
40
0.300000
100
AcDbArc
50
86.999999
51
175.210088
0
LINE
5
779
100
AcDbEntity
8
1
100
AcDbLine
6
CONTINUOUS
62
5
10
158.197240
20
124.645553
11
153.448854
21
124.894405
0
POLYLINE
5
77a
100
AcDbEntity
8
1
6
CONTINUOUS
62
5
100
AcDb2dPolyline
66
1
10
0.0
20
0.0
30
0.0
70
0
0
VERTEX
5
77b
100
AcDbEntity
8
1
100
AcDbVertex
100
AcDb2dVertex
62
5
10
147.500000
20
28.250000
0
VERTEX
5
77c
100
AcDbEntity
8
1
100
AcDbVertex
100
AcDb2dVertex
62
5
10
149.062500
20
35.750000
0
VERTEX
5
77d
100
AcDbEntity
8
1
100
AcDbVertex
100
AcDb2dVertex
62
5
10
150.625000
20
28.250000
0
SEQEND
5
77e
100
AcDbEntity
8
1
0
LINE
5
77f
100
AcDbEntity
8
1
100
AcDbLine
6
CONTINUOUS
62
5
10
148.125000
20
30.750000
11
150.000000
21
30.750000
0
POLYLINE
5
780
100
AcDbEntity
8
1
6
CONTINUOUS
62
5
100
AcDb2dPolyline
66
1
10
0.0
20
0.0
30
0.0
70
0
0
VERTEX
5
781
100
AcDbEntity
8
1
100
AcDbVertex
100
AcDb2dVertex
62
5
10
155.625000
20
34.187500
0
VERTEX
5
782
100
AcDbEntity
8
1
100
AcDbVertex
100
AcDb2dVertex
62
5
10
155.312500
20
35.125000
0
VERTEX
5
783
100
AcDbEntity
8
1
100
AcDbVertex
100
AcDb2dVertex
62
5
10
154.687500
20
35.750000
0
VERTEX
5
784
100
AcDbEntity
8
1
100
AcDbVertex
100
AcDb2dVertex
62
5
10
153.750000
20
35.750000
0
VERTEX
5
785
100
AcDbEntity
8
1
100
AcDbVertex
100
AcDb2dVertex
62
5
10
152.812500
20
34.812500
0
VERTEX
5
786
100
AcDbEntity
8
1
100
AcDbVertex
100
AcDb2dVertex
62
5
10
152.500000
20
33.250000
0
VERTEX
5
787
100
AcDbEntity
8
1
100
AcDbVertex
100
AcDb2dVertex
62
5
10
152.500000
20
30.750000
0
VERTEX
5
788
100
AcDbEntity
8
1
100
AcDbVertex
100
AcDb2dVertex
62
5
10
152.812500
20
29.187500
0
VERTEX
5
789
100
AcDbEntity
8
1
100
AcDbVertex
100
AcDb2dVertex
62
5
10
153.750000
20
28.250000
0
VERTEX
5
78a
100
AcDbEntity
8
1
100
AcDbVertex
100
AcDb2dVertex
62
5
10
154.687500
20
28.250000
0
VERTEX
5
78b
100
AcDbEntity
8
1
100
AcDbVertex
100
AcDb2dVertex
62
5
10
155.312500
20
28.875000
0
VERTEX
5
78c
100
AcDbEntity
8
1
100
AcDbVertex
100
AcDb2dVertex
62
5
10
155.937500
20
30.437500
0
SEQEND
5
78d
100
AcDbEntity
8
1
0
POLYLINE
5
78e
100
AcDbEntity
8
1
6
CONTINUOUS
62
5
100
AcDb2dPolyline
66
1
10
0.0
20
0.0
30
0.0
70
0
0
VERTEX
5
78f
100
AcDbEntity
8
1
100
AcDbVertex
100
AcDb2dVertex
62
5
10
122.500000
20
33.875000
0
VERTEX
5
790
100
AcDbEntity
8
1
100
AcDbVertex
100
AcDb2dVertex
62
5
10
122.812500
20
35.125000
0
VERTEX
5
791
100
AcDbEntity
8
1
100
AcDbVertex
100
AcDb2dVertex
62
5
10
123.437500
20
35.750000
0
VERTEX
5
792
100
AcDbEntity
8
1
100
AcDbVertex
100
AcDb2dVertex
62
5
10
124.375000
20
35.750000
0
VERTEX
5
793
100
AcDbEntity
8
1
100
AcDbVertex
100
AcDb2dVertex
62
5
10
125.000000
20
35.437500
0
VERTEX
5
794
100
AcDbEntity
8
1
100
AcDbVertex
100
AcDb2dVertex
62
5
10
125.312500
20
34.500000
0
VERTEX
5
795
100
AcDbEntity
8
1
100
AcDbVertex
100
AcDb2dVertex
62
5
10
125.312500
20
33.250000
0
VERTEX
5
796
100
AcDbEntity
8
1
100
AcDbVertex
100
AcDb2dVertex
62
5
10
125.000000
20
32.625000
0
VERTEX
5
797
100
AcDbEntity
8
1
100
AcDbVertex
100
AcDb2dVertex
62
5
10
124.375000
20
32.000000
0
VERTEX
5
798
100
AcDbEntity
8
1
100
AcDbVertex
100
AcDb2dVertex
62
5
10
123.437500
20
32.000000
0
SEQEND
5
799
100
AcDbEntity
8
1
0
POLYLINE
5
79a
100
AcDbEntity
8
1
6
CONTINUOUS
62
5
100
AcDb2dPolyline
66
1
10
0.0
20
0.0
30
0.0
70
0
0
VERTEX
5
79b
100
AcDbEntity
8
1
100
AcDbVertex
100
AcDb2dVertex
62
5
10
124.375000
20
32.000000
0
VERTEX
5
79c
100
AcDbEntity
8
1
100
AcDbVertex
100
AcDb2dVertex
62
5
10
125.312500
20
31.375000
0
VERTEX
5
79d
100
AcDbEntity
8
1
100
AcDbVertex
100
AcDb2dVertex
62
5
10
125.625000
20
30.437500
0
VERTEX
5
79e
100
AcDbEntity
8
1
100
AcDbVertex
100
AcDb2dVertex
62
5
10
125.625000
20
29.500000
0
VERTEX
5
79f
100
AcDbEntity
8
1
100
AcDbVertex
100
AcDb2dVertex
62
5
10
125.312500
20
28.875000
0
VERTEX
5
7a0
100
AcDbEntity
8
1
100
AcDbVertex
100
AcDb2dVertex
62
5
10
124.375000
20
28.250000
0
VERTEX
5
7a1
100
AcDbEntity
8
1
100
AcDbVertex
100
AcDb2dVertex
62
5
10
123.437500
20
28.250000
0
VERTEX
5
7a2
100
AcDbEntity
8
1
100
AcDbVertex
100
AcDb2dVertex
62
5
10
122.812500
20
28.562500
0
VERTEX
5
7a3
100
AcDbEntity
8
1
100
AcDbVertex
100
AcDb2dVertex
62
5
10
122.187500
20
29.500000
0
SEQEND
5
7a4
100
AcDbEntity
8
1
0
POLYLINE
5
7a5
100
AcDbEntity
8
1
6
CONTINUOUS
62
5
100
AcDb2dPolyline
66
1
10
0.0
20
0.0
30
0.0
70
1
0
VERTEX
5
7a6
100
AcDbEntity
8
1
100
AcDbVertex
100
AcDb2dVertex
62
5
10
128.750000
20
35.750000
0
VERTEX
5
7a7
100
AcDbEntity
8
1
100
AcDbVertex
100
AcDb2dVertex
62
5
10
129.375000
20
35.750000
0
VERTEX
5
7a8
100
AcDbEntity
8
1
100
AcDbVertex
100
AcDb2dVertex
62
5
10
129.687500
20
35.437500
0
VERTEX
5
7a9
100
AcDbEntity
8
1
100
AcDbVertex
100
AcDb2dVertex
62
5
10
130.312500
20
34.187500
0
VERTEX
5
7aa
100
AcDbEntity
8
1
100
AcDbVertex
100
AcDb2dVertex
62
5
10
130.625000
20
32.937500
0
VERTEX
5
7ab
100
AcDbEntity
8
1
100
AcDbVertex
100
AcDb2dVertex
62
5
10
130.625000
20
31.062500
0
VERTEX
5
7ac
100
AcDbEntity
8
1
100
AcDbVertex
100
AcDb2dVertex
62
5
10
130.312500
20
29.812500
0
VERTEX
5
7ad
100
AcDbEntity
8
1
100
AcDbVertex
100
AcDb2dVertex
62
5
10
129.687500
20
28.562500
0
VERTEX
5
7ae
100
AcDbEntity
8
1
100
AcDbVertex
100
AcDb2dVertex
62
5
10
129.375000
20
28.250000
0
VERTEX
5
7af
100
AcDbEntity
8
1
100
AcDbVertex
100
AcDb2dVertex
62
5
10
128.750000
20
28.250000
0
VERTEX
5
7b0
100
AcDbEntity
8
1
100
AcDbVertex
100
AcDb2dVertex
62
5
10
128.437500
20
28.562500
0
VERTEX
5
7b1
100
AcDbEntity
8
1
100
AcDbVertex
100
AcDb2dVertex
62
5
10
127.812500
20
29.812500
0
VERTEX
5
7b2
100
AcDbEntity
8
1
100
AcDbVertex
100
AcDb2dVertex
62
5
10
127.500000
20
31.062500
0
VERTEX
5
7b3
100
AcDbEntity
8
1
100
AcDbVertex
100
AcDb2dVertex
62
5
10
127.500000
20
32.937500
0
VERTEX
5
7b4
100
AcDbEntity
8
1
100
AcDbVertex
100
AcDb2dVertex
62
5
10
127.812500
20
34.187500
0
VERTEX
5
7b5
100
AcDbEntity
8
1
100
AcDbVertex
100
AcDb2dVertex
62
5
10
128.437500
20
35.437500
0
VERTEX
5
7b6
100
AcDbEntity
8
1
100
AcDbVertex
100
AcDb2dVertex
62
5
10
128.750000
20
35.750000
0
SEQEND
5
7b7
100
AcDbEntity
8
1
0
POLYLINE
5
7b8
100
AcDbEntity
8
1
6
CONTINUOUS
62
5
100
AcDb2dPolyline
66
1
10
0.0
20
0.0
30
0.0
70
1
0
VERTEX
5
7b9
100
AcDbEntity
8
1
100
AcDbVertex
100
AcDb2dVertex
62
5
10
133.750000
20
35.750000
0
VERTEX
5
7ba
100
AcDbEntity
8
1
100
AcDbVertex
100
AcDb2dVertex
62
5
10
134.375000
20
35.750000
0
VERTEX
5
7bb
100
AcDbEntity
8
1
100
AcDbVertex
100
AcDb2dVertex
62
5
10
134.687500
20
35.437500
0
VERTEX
5
7bc
100
AcDbEntity
8
1
100
AcDbVertex
100
AcDb2dVertex
62
5
10
135.312500
20
34.187500
0
VERTEX
5
7bd
100
AcDbEntity
8
1
100
AcDbVertex
100
AcDb2dVertex
62
5
10
135.625000
20
32.937500
0
VERTEX
5
7be
100
AcDbEntity
8
1
100
AcDbVertex
100
AcDb2dVertex
62
5
10
135.625000
20
31.062500
0
VERTEX
5
7bf
100
AcDbEntity
8
1
100
AcDbVertex
100
AcDb2dVertex
62
5
10
135.312500
20
29.812500
0
VERTEX
5
7c0
100
AcDbEntity
8
1
100
AcDbVertex
100
AcDb2dVertex
62
5
10
134.687500
20
28.562500
0
VERTEX
5
7c1
100
AcDbEntity
8
1
100
AcDbVertex
100
AcDb2dVertex
62
5
10
134.375000
20
28.250000
0
VERTEX
5
7c2
100
AcDbEntity
8
1
100
AcDbVertex
100
AcDb2dVertex
62
5
10
133.750000
20
28.250000
0
VERTEX
5
7c3
100
AcDbEntity
8
1
100
AcDbVertex
100
AcDb2dVertex
62
5
10
133.437500
20
28.562500
0
VERTEX
5
7c4
100
AcDbEntity
8
1
100
AcDbVertex
100
AcDb2dVertex
62
5
10
132.812500
20
29.812500
0
VERTEX
5
7c5
100
AcDbEntity
8
1
100
AcDbVertex
100
AcDb2dVertex
62
5
10
132.500000
20
31.062500
0
VERTEX
5
7c6
100
AcDbEntity
8
1
100
AcDbVertex
100
AcDb2dVertex
62
5
10
132.500000
20
32.937500
0
VERTEX
5
7c7
100
AcDbEntity
8
1
100
AcDbVertex
100
AcDb2dVertex
62
5
10
132.812500
20
34.187500
0
VERTEX
5
7c8
100
AcDbEntity
8
1
100
AcDbVertex
100
AcDb2dVertex
62
5
10
133.437500
20
35.437500
0
VERTEX
5
7c9
100
AcDbEntity
8
1
100
AcDbVertex
100
AcDb2dVertex
62
5
10
133.750000
20
35.750000
0
SEQEND
5
7ca
100
AcDbEntity
8
1
0
POLYLINE
5
7cb
100
AcDbEntity
8
1
6
CONTINUOUS
62
5
100
AcDb2dPolyline
66
1
10
0.0
20
0.0
30
0.0
70
0
0
VERTEX
5
7cc
100
AcDbEntity
8
1
100
AcDbVertex
100
AcDb2dVertex
62
5
10
137.500000
20
35.750000
0
VERTEX
5
7cd
100
AcDbEntity
8
1
100
AcDbVertex
100
AcDb2dVertex
62
5
10
139.062500
20
28.250000
0
VERTEX
5
7ce
100
AcDbEntity
8
1
100
AcDbVertex
100
AcDb2dVertex
62
5
10
140.625000
20
35.750000
0
SEQEND
5
7cf
100
AcDbEntity
8
1
0
POLYLINE
5
7d0
100
AcDbEntity
8
1
6
CONTINUOUS
62
5
100
AcDb2dPolyline
66
1
10
0.0
20
0.0
30
0.0
70
0
0
VERTEX
5
7d1
100
AcDbEntity
8
1
100
AcDbVertex
100
AcDb2dVertex
62
5
10
103.125000
20
35.125000
0
VERTEX
5
7d2
100
AcDbEntity
8
1
100
AcDbVertex
100
AcDb2dVertex
62
5
10
104.062500
20
35.750000
0
VERTEX
5
7d3
100
AcDbEntity
8
1
100
AcDbVertex
100
AcDb2dVertex
62
5
10
104.062500
20
28.250000
0
SEQEND
5
7d4
100
AcDbEntity
8
1
0
LINE
5
7d5
100
AcDbEntity
8
1
100
AcDbLine
6
CONTINUOUS
62
5
10
103.437500
20
28.250000
11
104.687500
21
28.250000
0
LINE
5
7d6
100
AcDbEntity
8
1
100
AcDbLine
6
CONTINUOUS
62
5
10
107.500000
20
35.750000
11
110.312500
21
35.750000
0
POLYLINE
5
7d7
100
AcDbEntity
8
1
6
CONTINUOUS
62
5
100
AcDb2dPolyline
66
1
10
0.0
20
0.0
30
0.0
70
0
0
VERTEX
5
7d8
100
AcDbEntity
8
1
100
AcDbVertex
100
AcDb2dVertex
62
5
10
107.500000
20
35.750000
0
VERTEX
5
7d9
100
AcDbEntity
8
1
100
AcDbVertex
100
AcDb2dVertex
62
5
10
107.500000
20
32.000000
0
VERTEX
5
7da
100
AcDbEntity
8
1
100
AcDbVertex
100
AcDb2dVertex
62
5
10
108.125000
20
32.625000
0
VERTEX
5
7db
100
AcDbEntity
8
1
100
AcDbVertex
100
AcDb2dVertex
62
5
10
108.750000
20
32.937500
0
VERTEX
5
7dc
100
AcDbEntity
8
1
100
AcDbVertex
100
AcDb2dVertex
62
5
10
109.687500
20
32.937500
0
VERTEX
5
7dd
100
AcDbEntity
8
1
100
AcDbVertex
100
AcDb2dVertex
62
5
10
110.312500
20
32.625000
0
VERTEX
5
7de
100
AcDbEntity
8
1
100
AcDbVertex
100
AcDb2dVertex
62
5
10
110.625000
20
31.687500
0
VERTEX
5
7df
100
AcDbEntity
8
1
100
AcDbVertex
100
AcDb2dVertex
62
5
10
110.625000
20
29.812500
0
VERTEX
5
7e0
100
AcDbEntity
8
1
100
AcDbVertex
100
AcDb2dVertex
62
5
10
110.000000
20
28.875000
0
VERTEX
5
7e1
100
AcDbEntity
8
1
100
AcDbVertex
100
AcDb2dVertex
62
5
10
109.062500
20
28.250000
0
VERTEX
5
7e2
100
AcDbEntity
8
1
100
AcDbVertex
100
AcDb2dVertex
62
5
10
107.500000
20
28.250000
0
SEQEND
5
7e3
100
AcDbEntity
8
1
0
POLYLINE
5
7e4
100
AcDbEntity
8
1
6
CONTINUOUS
62
5
100
AcDb2dPolyline
66
1
10
0.0
20
0.0
30
0.0
70
0
0
VERTEX
5
7e5
100
AcDbEntity
8
1
100
AcDbVertex
100
AcDb2dVertex
62
5
10
112.500000
20
28.250000
0
VERTEX
5
7e6
100
AcDbEntity
8
1
100
AcDbVertex
100
AcDb2dVertex
62
5
10
114.062500
20
35.750000
0
VERTEX
5
7e7
100
AcDbEntity
8
1
100
AcDbVertex
100
AcDb2dVertex
62
5
10
115.625000
20
28.250000
0
SEQEND
5
7e8
100
AcDbEntity
8
1
0
LINE
5
7e9
100
AcDbEntity
8
1
100
AcDbLine
6
CONTINUOUS
62
5
10
113.125000
20
30.750000
11
115.000000
21
30.750000
0
LINE
5
7ea
100
AcDbEntity
8
1
100
AcDbLine
6
CONTINUOUS
62
5
10
117.500000
20
32.000000
11
120.625000
21
32.000000
0
LINE
5
7eb
100
AcDbEntity
8
1
100
AcDbLine
6
CONTINUOUS
62
5
10
90.000000
20
44.000000
11
90.000000
21
20.000000
0
LINE
5
7ec
100
AcDbEntity
8
1
100
AcDbLine
6
CONTINUOUS
62
5
10
54.687500
20
36.375000
11
54.687500
21
35.437500
0
POLYLINE
5
7ed
100
AcDbEntity
8
1
6
CONTINUOUS
62
5
100
AcDb2dPolyline
66
1
10
0.0
20
0.0
30
0.0
70
0
0
VERTEX
5
7ee
100
AcDbEntity
8
1
100
AcDbVertex
100
AcDb2dVertex
62
5
10
50.937500
20
33.250000
0
VERTEX
5
7ef
100
AcDbEntity
8
1
100
AcDbVertex
100
AcDb2dVertex
62
5
10
50.937500
20
35.437500
0
VERTEX
5
7f0
100
AcDbEntity
8
1
100
AcDbVertex
100
AcDb2dVertex
62
5
10
58.437500
20
35.437500
0
VERTEX
5
7f1
100
AcDbEntity
8
1
100
AcDbVertex
100
AcDb2dVertex
62
5
10
58.437500
20
33.250000
0
SEQEND
5
7f2
100
AcDbEntity
8
1
0
LINE
5
7f3
100
AcDbEntity
8
1
100
AcDbLine
6
CONTINUOUS
62
5
10
51.875000
20
33.562500
11
57.500000
21
33.562500
0
LINE
5
7f4
100
AcDbEntity
8
1
100
AcDbLine
6
CONTINUOUS
62
5
10
54.687500
20
33.562500
11
54.687500
21
28.250000
0
LINE
5
7f5
100
AcDbEntity
8
1
100
AcDbLine
6
CONTINUOUS
62
5
10
54.687500
20
31.062500
11
57.500000
21
31.062500
0
POLYLINE
5
7f6
100
AcDbEntity
8
1
6
CONTINUOUS
62
5
100
AcDb2dPolyline
66
1
10
0.0
20
0.0
30
0.0
70
0
0
VERTEX
5
7f7
100
AcDbEntity
8
1
100
AcDbVertex
100
AcDb2dVertex
62
5
10
52.500000
20
31.687500
0
VERTEX
5
7f8
100
AcDbEntity
8
1
100
AcDbVertex
100
AcDb2dVertex
62
5
10
52.187500
20
29.812500
0
VERTEX
5
7f9
100
AcDbEntity
8
1
100
AcDbVertex
100
AcDb2dVertex
62
5
10
51.562500
20
28.562500
0
VERTEX
5
7fa
100
AcDbEntity
8
1
100
AcDbVertex
100
AcDb2dVertex
62
5
10
50.625000
20
27.625000
0
SEQEND
5
7fb
100
AcDbEntity
8
1
0
POLYLINE
5
7fc
100
AcDbEntity
8
1
6
CONTINUOUS
62
5
100
AcDb2dPolyline
66
1
10
0.0
20
0.0
30
0.0
70
0
0
VERTEX
5
7fd
100
AcDbEntity
8
1
100
AcDbVertex
100
AcDb2dVertex
62
5
10
52.187500
20
29.812500
0
VERTEX
5
7fe
100
AcDbEntity
8
1
100
AcDbVertex
100
AcDb2dVertex
62
5
10
54.687500
20
28.250000
0
VERTEX
5
7ff
100
AcDbEntity
8
1
100
AcDbVertex
100
AcDb2dVertex
62
5
10
55.937500
20
27.937500
0
VERTEX
5
800
100
AcDbEntity
8
1
100
AcDbVertex
100
AcDb2dVertex
62
5
10
59.062500
20
27.625000
0
SEQEND
5
801
100
AcDbEntity
8
1
0
LINE
5
802
100
AcDbEntity
8
1
100
AcDbLine
6
CONTINUOUS
62
5
10
70.625000
20
34.187500
11
73.750000
21
34.187500
0
LINE
5
803
100
AcDbEntity
8
1
100
AcDbLine
6
CONTINUOUS
62
5
10
72.500000
20
36.375000
11
72.500000
21
27.625000
0
POLYLINE
5
804
100
AcDbEntity
8
1
6
CONTINUOUS
62
5
100
AcDb2dPolyline
66
1
10
0.0
20
0.0
30
0.0
70
0
0
VERTEX
5
805
100
AcDbEntity
8
1
100
AcDbVertex
100
AcDb2dVertex
62
5
10
72.500000
20
34.187500
0
VERTEX
5
806
100
AcDbEntity
8
1
100
AcDbVertex
100
AcDb2dVertex
62
5
10
71.562500
20
32.000000
0
VERTEX
5
807
100
AcDbEntity
8
1
100
AcDbVertex
100
AcDb2dVertex
62
5
10
70.625000
20
30.750000
0
SEQEND
5
808
100
AcDbEntity
8
1
0
LINE
5
809
100
AcDbEntity
8
1
100
AcDbLine
6
CONTINUOUS
62
5
10
72.500000
20
33.250000
11
73.437500
21
32.000000
0
POLYLINE
5
80a
100
AcDbEntity
8
1
6
CONTINUOUS
62
5
100
AcDb2dPolyline
66
1
10
0.0
20
0.0
30
0.0
70
0
0
VERTEX
5
80b
100
AcDbEntity
8
1
100
AcDbVertex
100
AcDb2dVertex
62
5
10
75.937500
20
36.375000
0
VERTEX
5
80c
100
AcDbEntity
8
1
100
AcDbVertex
100
AcDb2dVertex
62
5
10
75.312500
20
35.125000
0
VERTEX
5
80d
100
AcDbEntity
8
1
100
AcDbVertex
100
AcDb2dVertex
62
5
10
73.750000
20
33.250000
0
SEQEND
5
80e
100
AcDbEntity
8
1
0
POLYLINE
5
80f
100
AcDbEntity
8
1
6
CONTINUOUS
62
5
100
AcDb2dPolyline
66
1
10
0.0
20
0.0
30
0.0
70
0
0
VERTEX
5
810
100
AcDbEntity
8
1
100
AcDbVertex
100
AcDb2dVertex
62
5
10
75.312500
20
35.125000
0
VERTEX
5
811
100
AcDbEntity
8
1
100
AcDbVertex
100
AcDb2dVertex
62
5
10
78.437500
20
35.125000
0
VERTEX
5
812
100
AcDbEntity
8
1
100
AcDbVertex
100
AcDb2dVertex
62
5
10
77.500000
20
33.562500
0
VERTEX
5
813
100
AcDbEntity
8
1
100
AcDbVertex
100
AcDb2dVertex
62
5
10
75.937500
20
32.000000
0
VERTEX
5
814
100
AcDbEntity
8
1
100
AcDbVertex
100
AcDb2dVertex
62
5
10
73.750000
20
30.750000
0
SEQEND
5
815
100
AcDbEntity
8
1
0
POLYLINE
5
816
100
AcDbEntity
8
1
6
CONTINUOUS
62
5
100
AcDb2dPolyline
66
1
10
0.0
20
0.0
30
0.0
70
0
0
VERTEX
5
817
100
AcDbEntity
8
1
100
AcDbVertex
100
AcDb2dVertex
62
5
10
75.312500
20
35.125000
0
VERTEX
5
818
100
AcDbEntity
8
1
100
AcDbVertex
100
AcDb2dVertex
62
5
10
75.937500
20
33.562500
0
VERTEX
5
819
100
AcDbEntity
8
1
100
AcDbVertex
100
AcDb2dVertex
62
5
10
77.187500
20
32.000000
0
VERTEX
5
81a
100
AcDbEntity
8
1
100
AcDbVertex
100
AcDb2dVertex
62
5
10
78.125000
20
31.375000
0
VERTEX
5
81b
100
AcDbEntity
8
1
100
AcDbVertex
100
AcDb2dVertex
62
5
10
79.375000
20
30.750000
0
SEQEND
5
81c
100
AcDbEntity
8
1
0
POLYLINE
5
81d
100
AcDbEntity
8
1
6
CONTINUOUS
62
5
100
AcDb2dPolyline
66
1
10
0.0
20
0.0
30
0.0
70
1
0
VERTEX
5
81e
100
AcDbEntity
8
1
100
AcDbVertex
100
AcDb2dVertex
62
5
10
75.000000
20
30.750000
0
VERTEX
5
81f
100
AcDbEntity
8
1
100
AcDbVertex
100
AcDb2dVertex
62
5
10
75.000000
20
27.937500
0
VERTEX
5
820
100
AcDbEntity
8
1
100
AcDbVertex
100
AcDb2dVertex
62
5
10
78.437500
20
27.937500
0
VERTEX
5
821
100
AcDbEntity
8
1
100
AcDbVertex
100
AcDb2dVertex
62
5
10
78.437500
20
30.750000
0
VERTEX
5
822
100
AcDbEntity
8
1
100
AcDbVertex
100
AcDb2dVertex
62
5
10
75.000000
20
30.750000
0
SEQEND
5
823
100
AcDbEntity
8
1
0
POLYLINE
5
824
100
AcDbEntity
8
1
6
CONTINUOUS
62
5
100
AcDb2dPolyline
66
1
10
0.0
20
0.0
30
0.0
70
0
0
VERTEX
5
825
100
AcDbEntity
8
1
100
AcDbVertex
100
AcDb2dVertex
62
5
10
160.625000
20
36.062500
0
VERTEX
5
826
100
AcDbEntity
8
1
100
AcDbVertex
100
AcDb2dVertex
62
5
10
159.687500
20
34.812500
0
VERTEX
5
827
100
AcDbEntity
8
1
100
AcDbVertex
100
AcDb2dVertex
62
5
10
159.062500
20
32.937500
0
VERTEX
5
828
100
AcDbEntity
8
1
100
AcDbVertex
100
AcDb2dVertex
62
5
10
159.062500
20
31.062500
0
VERTEX
5
829
100
AcDbEntity
8
1
100
AcDbVertex
100
AcDb2dVertex
62
5
10
159.687500
20
29.187500
0
VERTEX
5
82a
100
AcDbEntity
8
1
100
AcDbVertex
100
AcDb2dVertex
62
5
10
160.625000
20
27.937500
0
SEQEND
5
82b
100
AcDbEntity
8
1
0
LINE
5
82c
100
AcDbEntity
8
1
100
AcDbLine
6
CONTINUOUS
62
5
10
157.099551
20
122.950000
11
162.899551
21
122.950000
0
ARC
5
82d
100
AcDbEntity
8
1
100
AcDbCircle
6
CONTINUOUS
62
5
10
146.499551
20
122.450000
40
0.500000
100
AcDbArc
50
89.999999
51
179.999998
0
POLYLINE
5
82e
100
AcDbEntity
8
1
6
CONTINUOUS
62
5
100
AcDb2dPolyline
66
1
10
0.0
20
0.0
30
0.0
70
0
0
VERTEX
5
82f
100
AcDbEntity
8
1
100
AcDbVertex
100
AcDb2dVertex
62
5
10
146.499551
20
122.950000
0
VERTEX
5
830
100
AcDbEntity
8
1
100
AcDbVertex
100
AcDb2dVertex
62
5
10
157.099551
20
122.950000
0
VERTEX
5
831
100
AcDbEntity
8
1
100
AcDbVertex
100
AcDb2dVertex
62
5
10
158.321115
20
124.836898
0
SEQEND
5
832
100
AcDbEntity
8
1
0
ARC
5
833
100
AcDbEntity
8
1
100
AcDbCircle
6
CONTINUOUS
62
5
10
160.000000
20
123.750000
40
2.000000
100
AcDbArc
50
32.899525
51
147.081269
0
POLYLINE
5
834
100
AcDbEntity
8
1
6
CONTINUOUS
62
5
100
AcDb2dPolyline
66
1
10
0.0
20
0.0
30
0.0
70
0
0
VERTEX
5
835
100
AcDbEntity
8
1
100
AcDbVertex
100
AcDb2dVertex
62
5
10
161.679249
20
124.836335
0
VERTEX
5
836
100
AcDbEntity
8
1
100
AcDbVertex
100
AcDb2dVertex
62
5
10
162.899551
20
122.950000
0
VERTEX
5
837
100
AcDbEntity
8
1
100
AcDbVertex
100
AcDb2dVertex
62
5
10
173.499551
20
122.950000
0
SEQEND
5
838
100
AcDbEntity
8
1
0
ARC
5
839
100
AcDbEntity
8
1
100
AcDbCircle
6
CONTINUOUS
62
5
10
173.499551
20
122.450000
40
0.500000
100
AcDbArc
50
0.000000
51
89.999999
0
POLYLINE
5
83a
100
AcDbEntity
8
1
6
CONTINUOUS
62
5
100
AcDb2dPolyline
66
1
10
0.0
20
0.0
30
0.0
70
0
0
VERTEX
5
83b
100
AcDbEntity
8
1
100
AcDbVertex
100
AcDb2dVertex
62
5
10
173.999551
20
122.450000
0
VERTEX
5
83c
100
AcDbEntity
8
1
100
AcDbVertex
100
AcDb2dVertex
62
5
10
173.999551
20
120.250000
0
VERTEX
5
83d
100
AcDbEntity
8
1
100
AcDbVertex
100
AcDb2dVertex
62
5
10
180.499551
20
120.250000
0
SEQEND
5
83e
100
AcDbEntity
8
1
0
ARC
5
83f
100
AcDbEntity
8
1
100
AcDbCircle
6
CONTINUOUS
62
5
10
180.499551
20
119.750000
40
0.500000
100
AcDbArc
50
0.000000
51
89.999999
0
POLYLINE
5
840
100
AcDbEntity
8
1
6
CONTINUOUS
62
5
100
AcDb2dPolyline
66
1
10
0.0
20
0.0
30
0.0
70
0
0
VERTEX
5
841
100
AcDbEntity
8
1
100
AcDbVertex
100
AcDb2dVertex
62
5
10
180.999551
20
119.750000
0
VERTEX
5
842
100
AcDbEntity
8
1
100
AcDbVertex
100
AcDb2dVertex
62
5
10
180.999551
20
111.750000
0
VERTEX
5
843
100
AcDbEntity
8
1
100
AcDbVertex
100
AcDb2dVertex
62
5
10
138.999551
20
111.750000
0
SEQEND
5
844
100
AcDbEntity
8
1
0
LINE
5
845
100
AcDbEntity
8
1
100
AcDbLine
6
CONTINUOUS
62
5
10
138.999551
20
111.750000
11
138.999551
21
119.750000
0
ARC
5
846
100
AcDbEntity
8
1
100
AcDbCircle
6
CONTINUOUS
62
5
10
139.499551
20
119.750000
40
0.500000
100
AcDbArc
50
89.999999
51
179.999998
0
POLYLINE
5
847
100
AcDbEntity
8
1
6
CONTINUOUS
62
5
100
AcDb2dPolyline
66
1
10
0.0
20
0.0
30
0.0
70
0
0
VERTEX
5
848
100
AcDbEntity
8
1
100
AcDbVertex
100
AcDb2dVertex
62
5
10
139.499551
20
120.250000
0
VERTEX
5
849
100
AcDbEntity
8
1
100
AcDbVertex
100
AcDb2dVertex
62
5
10
145.999551
20
120.250000
0
VERTEX
5
84a
100
AcDbEntity
8
1
100
AcDbVertex
100
AcDb2dVertex
62
5
10
145.999551
20
122.450000
0
SEQEND
5
84b
100
AcDbEntity
8
1
0
LINE
5
84c
100
AcDbEntity
8
1
100
AcDbLine
6
CONTINUOUS
62
5
10
180.000000
20
107.750000
11
181.500000
21
107.750000
0
LINE
5
84d
100
AcDbEntity
8
1
100
AcDbLine
6
CONTINUOUS
62
5
10
138.500000
20
107.750000
11
140.000000
21
107.750000
0
LINE
5
84e
100
AcDbEntity
8
1
100
AcDbLine
6
CONTINUOUS
62
5
10
142.500000
20
107.750000
11
145.500000
21
107.750000
0
LINE
5
84f
100
AcDbEntity
8
1
100
AcDbLine
6
CONTINUOUS
62
5
10
148.000000
20
107.750000
11
172.000000
21
107.750000
0
LINE
5
850
100
AcDbEntity
8
1
100
AcDbLine
6
CONTINUOUS
62
5
10
174.500000
20
107.750000
11
177.500000
21
107.750000
0
LINE
5
851
100
AcDbEntity
8
1
100
AcDbLine
6
CONTINUOUS
62
5
10
169.300000
20
96.550000
11
151.100000
21
96.550000
0
ARC
5
852
100
AcDbEntity
8
1
100
AcDbCircle
6
CONTINUOUS
62
5
10
181.300000
20
111.550000
40
0.200000
100
AcDbArc
50
0.000000
51
89.999999
0
LINE
5
853
100
AcDbEntity
8
1
100
AcDbLine
6
CONTINUOUS
62
5
10
181.300000
20
111.750000
11
138.700000
21
111.750000
0
ARC
5
854
100
AcDbEntity
8
1
100
AcDbCircle
6
CONTINUOUS
62
5
10
138.700000
20
111.550000
40
0.200000
100
AcDbArc
50
89.999999
51
179.999998
0
POLYLINE
5
855
100
AcDbEntity
8
1
6
CONTINUOUS
62
5
100
AcDb2dPolyline
66
1
10
0.0
20
0.0
30
0.0
70
0
0
VERTEX
5
856
100
AcDbEntity
8
1
100
AcDbVertex
100
AcDb2dVertex
62
5
10
138.500000
20
111.550000
0
VERTEX
5
857
100
AcDbEntity
8
1
100
AcDbVertex
100
AcDb2dVertex
62
5
10
138.500000
20
107.750000
0
VERTEX
5
858
100
AcDbEntity
8
1
100
AcDbVertex
100
AcDb2dVertex
62
5
10
138.774376
20
97.323693
0
SEQEND
5
859
100
AcDbEntity
8
1
0
ARC
5
85a
100
AcDbEntity
8
1
100
AcDbCircle
6
CONTINUOUS
62
5
10
139.774030
20
97.350000
40
1.000000
100
AcDbArc
50
-178.492563
51
-89.999999
0
LINE
5
85b
100
AcDbEntity
8
1
100
AcDbLine
6
CONTINUOUS
62
5
10
139.774030
20
96.350000
11
150.900000
21
96.350000
0
ARC
5
85c
100
AcDbEntity
8
1
100
AcDbCircle
6
CONTINUOUS
62
5
10
150.900000
20
96.550000
40
0.200000
100
AcDbArc
50
-89.999999
51
0.000000
0
LINE
5
85d
100
AcDbEntity
8
1
100
AcDbLine
6
CONTINUOUS
62
5
10
151.100000
20
96.550000
11
151.100000
21
105.250000
0
LINE
5
85e
100
AcDbEntity
8
1
100
AcDbLine
6
CONTINUOUS
62
5
10
168.900000
20
105.250000
11
168.900000
21
97.350000
0
ARC
5
85f
100
AcDbEntity
8
1
100
AcDbCircle
6
CONTINUOUS
62
5
10
169.900000
20
97.350000
40
1.000000
100
AcDbArc
50
179.999998
51
-89.999999
0
LINE
5
860
100
AcDbEntity
8
1
100
AcDbLine
6
CONTINUOUS
62
5
10
169.900000
20
96.350000
11
177.224361
21
96.350000
0
ARC
5
861
100
AcDbEntity
8
1
100
AcDbCircle
6
CONTINUOUS
62
5
10
177.224361
20
97.350000
40
1.000000
100
AcDbArc
50
-89.999999
51
-1.640516
0
LINE
5
862
100
AcDbEntity
8
1
100
AcDbLine
6
CONTINUOUS
62
5
10
178.223951
20
97.321371
11
178.394568
21
103.278628
0
ARC
5
863
100
AcDbEntity
8
1
100
AcDbCircle
6
CONTINUOUS
62
5
10
179.394158
20
103.250000
40
1.000000
100
AcDbArc
50
89.999999
51
178.359483
0
LINE
5
864
100
AcDbEntity
8
1
100
AcDbLine
6
CONTINUOUS
62
5
10
179.394158
20
104.250000
11
180.433440
21
104.250000
0
ARC
5
865
100
AcDbEntity
8
1
100
AcDbCircle
6
CONTINUOUS
62
5
10
180.433440
20
105.250000
40
1.000000
100
AcDbArc
50
-89.999999
51
-1.517059
0
POLYLINE
5
866
100
AcDbEntity
8
1
6
CONTINUOUS
62
5
100
AcDb2dPolyline
66
1
10
0.0
20
0.0
30
0.0
70
0
0
VERTEX
5
867
100
AcDbEntity
8
1
100
AcDbVertex
100
AcDb2dVertex
62
5
10
181.433089
20
105.223525
0
VERTEX
5
868
100
AcDbEntity
8
1
100
AcDbVertex
100
AcDb2dVertex
62
5
10
181.500000
20
107.750000
0
VERTEX
5
869
100
AcDbEntity
8
1
100
AcDbVertex
100
AcDb2dVertex
62
5
10
181.500000
20
111.550000
0
SEQEND
5
86a
100
AcDbEntity
8
1
0
ARC
5
86b
100
AcDbEntity
8
1
100
AcDbCircle
6
CONTINUOUS
62
5
10
171.500000
20
105.750000
40
0.500000
100
AcDbArc
50
-89.999999
51
0.000000
0
POLYLINE
5
86c
100
AcDbEntity
8
1
6
CONTINUOUS
62
5
100
AcDb2dPolyline
66
1
10
0.0
20
0.0
30
0.0
70
0
0
VERTEX
5
86d
100
AcDbEntity
8
1
100
AcDbVertex
100
AcDb2dVertex
62
5
10
171.500000
20
105.250000
0
VERTEX
5
86e
100
AcDbEntity
8
1
100
AcDbVertex
100
AcDb2dVertex
62
5
10
166.000000
20
105.250000
0
VERTEX
5
86f
100
AcDbEntity
8
1
100
AcDbVertex
100
AcDb2dVertex
62
5
10
165.885074
20
104.100744
0
SEQEND
5
870
100
AcDbEntity
8
1
0
ARC
5
871
100
AcDbEntity
8
1
100
AcDbCircle
6
CONTINUOUS
62
5
10
164.392519
20
104.250000
40
1.500000
100
AcDbArc
50
-89.999999
51
-5.710593
0
LINE
5
872
100
AcDbEntity
8
1
100
AcDbLine
6
CONTINUOUS
62
5
10
164.392519
20
102.750000
11
155.607481
21
102.750000
0
ARC
5
873
100
AcDbEntity
8
1
100
AcDbCircle
6
CONTINUOUS
62
5
10
155.607481
20
104.250000
40
1.500000
100
AcDbArc
50
-174.289405
51
-89.999999
0
POLYLINE
5
874
100
AcDbEntity
8
1
6
CONTINUOUS
62
5
100
AcDb2dPolyline
66
1
10
0.0
20
0.0
30
0.0
70
0
0
VERTEX
5
875
100
AcDbEntity
8
1
100
AcDbVertex
100
AcDb2dVertex
62
5
10
154.114926
20
104.100744
0
VERTEX
5
876
100
AcDbEntity
8
1
100
AcDbVertex
100
AcDb2dVertex
62
5
10
154.000000
20
105.250000
0
VERTEX
5
877
100
AcDbEntity
8
1
100
AcDbVertex
100
AcDb2dVertex
62
5
10
148.500000
20
105.250000
0
SEQEND
5
878
100
AcDbEntity
8
1
0
ARC
5
879
100
AcDbEntity
8
1
100
AcDbCircle
6
CONTINUOUS
62
5
10
148.500000
20
105.750000
40
0.500000
100
AcDbArc
50
-179.999998
51
-89.999999
0
POLYLINE
5
87a
100
AcDbEntity
8
1
6
CONTINUOUS
62
5
100
AcDb2dPolyline
66
1
10
0.0
20
0.0
30
0.0
70
1
0
VERTEX
5
87b
100
AcDbEntity
8
1
100
AcDbVertex
100
AcDb2dVertex
62
5
10
280.000000
20
20.000000
0
VERTEX
5
87c
100
AcDbEntity
8
1
100
AcDbVertex
100
AcDb2dVertex
62
5
10
280.000000
20
44.000000
0
VERTEX
5
87d
100
AcDbEntity
8
1
100
AcDbVertex
100
AcDb2dVertex
62
5
10
40.000000
20
44.000000
0
VERTEX
5
87e
100
AcDbEntity
8
1
100
AcDbVertex
100
AcDb2dVertex
62
5
10
40.000000
20
20.000000
0
VERTEX
5
87f
100
AcDbEntity
8
1
100
AcDbVertex
100
AcDb2dVertex
62
5
10
280.000000
20
20.000000
0
SEQEND
5
880
100
AcDbEntity
8
1
0
POLYLINE
5
881
100
AcDbEntity
8
1
6
CONTINUOUS
62
5
100
AcDb2dPolyline
66
1
10
0.0
20
0.0
30
0.0
70
1
0
VERTEX
5
882
100
AcDbEntity
8
1
100
AcDbVertex
100
AcDb2dVertex
62
5
10
0.000000
20
0.000000
0
VERTEX
5
883
100
AcDbEntity
8
1
100
AcDbVertex
100
AcDb2dVertex
62
5
10
0.000000
20
340.000000
0
VERTEX
5
884
100
AcDbEntity
8
1
100
AcDbVertex
100
AcDb2dVertex
62
5
10
320.000000
20
340.000000
0
VERTEX
5
885
100
AcDbEntity
8
1
100
AcDbVertex
100
AcDb2dVertex
62
5
10
320.000000
20
0.000000
0
VERTEX
5
886
100
AcDbEntity
8
1
100
AcDbVertex
100
AcDb2dVertex
62
5
10
0.000000
20
0.000000
0
SEQEND
5
887
100
AcDbEntity
8
1
0
ENDSEC
0
SECTION
2
OBJECTS
0
DICTIONARY
5
888
100
AcDbDictionary
3
ACAD_GROUP
350
889
3
ACAD_MLINESTYLE
350
88a
0
DICTIONARY
5
889
102
{ACAD_REACTORS
330
888
102
}
100
AcDbDictionary
0
DICTIONARY
5
88a
102
{ACAD_REACTORS
330
888
102
}
100
AcDbDictionary
3
STANDARD
350
88b
0
MLINESTYLE
5
88b
102
{ACAD_REACTORS
330
88a
102
}
100
AcDbMlineStyle
2
STANDARD
70
0
3

62
0
51
90.0
52
90.0
71
2
49
0.5
62
256
6
BYLAYER
49
-0.5
62
256
6
BYLAYER
0
ENDSEC
0
EOF
