0
SECTION
2
HEADER
9
$ACADVER
1
AC1012
9
$EXTMIN
10
-6.670000
20
-4.040000
30
0.0
9
$EXTMAX
10
5.930000
20
9.360000
30
0.0
9
$LIMMIN
10
-169.418000
20
-102.616000
9
$LIMMAX
10
150.622000
20
237.744000
9
$DIMSCALE
40
1.000000
9
$PDMODE
70
2
9
$PDSIZE
40
0.0
  9
$HANDSEED
  5
909
0
ENDSEC
0
SECTION
2
CLASSES
0
ENDSEC
0
SECTION
2
TABLES
0
TABLE
2
LTYPE
5
1e
100
AcDbSymbolTable
70
12
0
LTYPE
5
1f
100
AcDbSymbolTableRecord
100
AcDbLinetypeTableRecord
2
BYBLOCK
70
0
3

72
65
73
0
40
0.0
0
LTYPE
5
20
100
AcDbSymbolTableRecord
100
AcDbLinetypeTableRecord
2
BYLAYER
70
0
3

72
65
73
0
40
0.0
0
LTYPE
5
21
100
AcDbSymbolTableRecord
100
AcDbLinetypeTableRecord
2
CONTINUOUS
70
64
3
Solid line
72
65
73
0
40
0.0
0
LTYPE
5
22
100
AcDbSymbolTableRecord
100
AcDbLinetypeTableRecord
2
DASHED
70
64
3
__ __ __ __ __ __ __ __ __ __ __ __ __ __ __
72
65
73
2
40
0.75
49
0.5
74
0
49
-0.25
74
0
0
LTYPE
5
23
100
AcDbSymbolTableRecord
100
AcDbLinetypeTableRecord
2
DOT
70
64
3
...............................................
72
65
73
2
40
0.25
49
0.0
74
0
49
-0.25
74
0
0
LTYPE
5
24
100
AcDbSymbolTableRecord
100
AcDbLinetypeTableRecord
2
DASHDOT
70
64
3
__ . __ . __ . __ . __ . __ . __ . __ . __ . --
72
65
73
4
40
1.0
49
0.5
74
0
49
-0.25
74
0
49
0.0
74
0
49
-0.25
74
0
0
LTYPE
5
25
100
AcDbSymbolTableRecord
100
AcDbLinetypeTableRecord
2
CENTER
70
64
3
____ _ ____ _ ____ _ ____ _ ____ _ ____ _ ____
72
65
73
4
40
2.0
49
1.25
74
0
49
-0.25
74
0
49
0.25
74
0
49
-0.25
74
0
0
LTYPE
5
26
100
AcDbSymbolTableRecord
100
AcDbLinetypeTableRecord
2
PHANTOM
70
64
3
_____ _ _ _____ _ _ _____ _ _ _____ _ _ ____
72
65
73
6
40
2.5
49
1.25
74
0
49
-0.25
74
0
49
0.25
74
0
49
-0.25
74
0
49
0.25
74
0
49
-0.25
74
0
0
LTYPE
5
27
100
AcDbSymbolTableRecord
100
AcDbLinetypeTableRecord
2
HIDDEN
70
64
3
_ _ _ _ _ _ _ _ _ _ _ _ _ _ _ _ _ _ _ _ _ _ _
72
65
73
2
40
0.375
49
0.25
74
0
49
-0.125
74
0
0
LTYPE
5
28
100
AcDbSymbolTableRecord
100
AcDbLinetypeTableRecord
2
BORDER
70
64
3
__ __ . __ __ . __ __ . __ __ . __ __ . __ __
72
65
73
6
40
1.75
49
0.5
74
0
49
-0.25
74
0
49
0.5
74
0
49
-0.25
74
0
49
0.0
74
0
49
-0.25
74
0
0
LTYPE
5
29
100
AcDbSymbolTableRecord
100
AcDbLinetypeTableRecord
2
DIVIDE
70
64
3
__ . . __ . . __ . . __ . . __ . . __ . . __
72
65
73
6
40
1.25
49
0.5
74
0
49
-0.25
74
0
49
0.0
74
0
49
-0.25
74
0
49
0.0
74
0
49
-0.25
74
0
0
LTYPE
5
2a
100
AcDbSymbolTableRecord
100
AcDbLinetypeTableRecord
2
DOT2
70
64
3
...............................................
72
65
73
2
40
0.125
49
0.0
74
0
49
-0.125
74
0
0
ENDTAB
0
TABLE
2
STYLE
5
2b
100
AcDbSymbolTable
70
1
0
STYLE
5
2c
100
AcDbSymbolTableRecord
100
AcDbTextStyleTableRecord
2
STANDARD
70
64
40
0.0
41
1.0
50
0.0
71
0
42
5.0
3
txt
4
bigfont
0
ENDTAB
0
TABLE
2
LAYER
5
2d
100
AcDbSymbolTable
70
2
0
LAYER
5
2e
100
AcDbSymbolTableRecord
100
AcDbLayerTableRecord
2
0
70
0
62
7
6
CONTINUOUS
0
LAYER
5
2f
100
AcDbSymbolTableRecord
100
AcDbLayerTableRecord
2
1
70
0
62
7
6
CONTINUOUS
0
ENDTAB
0
TABLE
2
APPID
5
30
100
AcDbSymbolTable
70
1
0
APPID
5
31
100
AcDbSymbolTableRecord
100
AcDbRegAppTableRecord
2
ACAD
70
64
0
ENDTAB
0
TABLE
2
DIMSTYLE
5
32
100
AcDbSymbolTable
70
0
0
ENDTAB
0
TABLE
2
UCS
5
33
100
AcDbSymbolTable
70
0
0
ENDTAB
0
TABLE
2
VIEW
5
34
100
AcDbSymbolTable
70
0
0
ENDTAB
0
TABLE
2
VPORT
5
35
100
AcDbSymbolTable
70
0
0
ENDTAB
0
TABLE
2
BLOCK_RECORD
5
36
100
AcDbSymbolTable
70
0
0
BLOCK_RECORD
5
37
100
AcDbSymbolTableRecord
100
AcDbBlockTableRecord
2
*MODEL_SPACE
0
BLOCK_RECORD
5
38
100
AcDbSymbolTableRecord
100
AcDbBlockTableRecord
2
*PAPER_SPACE
0
BLOCK_RECORD
5
39
100
AcDbSymbolTableRecord
100
AcDbBlockTableRecord
2
OPEN
0
BLOCK_RECORD
5
3a
100
AcDbSymbolTableRecord
100
AcDbBlockTableRecord
2
HALF
0
BLOCK_RECORD
5
3b
100
AcDbSymbolTableRecord
100
AcDbBlockTableRecord
2
CLOSEDBLANK
0
BLOCK_RECORD
5
3c
100
AcDbSymbolTableRecord
100
AcDbBlockTableRecord
2
HALFCLOSE_R
0
BLOCK_RECORD
5
3d
100
AcDbSymbolTableRecord
100
AcDbBlockTableRecord
2
DOT
0
BLOCK_RECORD
5
3e
100
AcDbSymbolTableRecord
100
AcDbBlockTableRecord
2
HALFOPEN_R
0
BLOCK_RECORD
5
3f
100
AcDbSymbolTableRecord
100
AcDbBlockTableRecord
2
CLOSEDF
0
BLOCK_RECORD
5
40
100
AcDbSymbolTableRecord
100
AcDbBlockTableRecord
2
HALF_R
0
ENDTAB
0
ENDSEC
0
SECTION
2
BLOCKS
0
BLOCK
5
41
100
AcDbEntity
8
0
100
AcDbBlockBegin
2
*MODEL_SPACE
70
0
10
0.0
20
0.0
30
0.0
3
*MODEL_SPACE
1

0
ENDBLK
5
42
100
AcDbEntity
8
0
100
AcDbBlockEnd
0
BLOCK
5
43
100
AcDbEntity
67
1
8
0
100
AcDbBlockBegin
2
*PAPER_SPACE
70
0
10
0.0
20
0.0
30
0.0
3
*PAPER_SPACE
1

0
ENDBLK
5
44
100
AcDbEntity
67
1
8
0
100
AcDbBlockEnd
0
BLOCK
5
45
100
AcDbEntity
8
0
100
AcDbBlockBegin
2
OPEN
70
0
10
0.0
20
0.0
30
0.0
3
OPEN
1

0
LINE
5
46
100
AcDbEntity
8
0
6
BYBLOCK
62
0
100
AcDbLine
10
0.000000
20
0.000000
11
-1.000000
21
0.000000
0
LINE
5
47
100
AcDbEntity
8
0
6
BYBLOCK
62
0
100
AcDbLine
10
-1.000000
20
-0.166667
11
0.000000
21
0.000000
0
LINE
5
48
100
AcDbEntity
8
0
6
BYBLOCK
62
0
100
AcDbLine
10
-1.000000
20
0.166667
11
0.000000
21
0.000000
0
ENDBLK
5
49
100
AcDbEntity
8
0
100
AcDbBlockEnd
0
BLOCK
5
4a
100
AcDbEntity
8
0
100
AcDbBlockBegin
2
HALF
70
0
10
0.0
20
0.0
30
0.0
3
HALF
1

0
SOLID
5
4b
100
AcDbEntity
8
0
6
BYBLOCK
62
0
100
AcDbTrace
10
-1.000000
20
0.166667
11
-1.000000
21
-0.166667
12
0.000000
22
0.000000
13
0.000000
23
0.000000
0
ENDBLK
5
4c
100
AcDbEntity
8
0
100
AcDbBlockEnd
0
BLOCK
5
4d
100
AcDbEntity
8
0
100
AcDbBlockBegin
2
CLOSEDBLANK
70
0
10
0.0
20
0.0
30
0.0
3
CLOSEDBLANK
1

0
LINE
5
4e
100
AcDbEntity
8
0
6
BYBLOCK
62
0
100
AcDbLine
10
-1.000000
20
0.166667
11
-1.000000
21
-0.166667
0
LINE
5
4f
100
AcDbEntity
8
0
6
BYBLOCK
62
0
100
AcDbLine
10
0.000000
20
0.000000
11
-1.000000
21
-0.166667
0
LINE
5
50
100
AcDbEntity
8
0
6
BYBLOCK
62
0
100
AcDbLine
10
-1.000000
20
0.166667
11
0.000000
21
0.000000
0
ENDBLK
5
51
100
AcDbEntity
8
0
100
AcDbBlockEnd
0
BLOCK
5
52
100
AcDbEntity
8
0
100
AcDbBlockBegin
2
HALFCLOSE_R
70
0
10
0.0
20
0.0
30
0.0
3
HALFCLOSE_R
1

0
LINE
5
53
100
AcDbEntity
8
0
6
BYBLOCK
62
0
100
AcDbLine
10
-1.000000
20
-0.166667
11
-1.000000
21
0.000000
0
LINE
5
54
100
AcDbEntity
8
0
6
BYBLOCK
62
0
100
AcDbLine
10
-1.000000
20
-0.166667
11
0.000000
21
0.000000
0
LINE
5
55
100
AcDbEntity
8
0
6
BYBLOCK
62
0
100
AcDbLine
10
0.000000
20
0.000000
11
-1.000000
21
0.000000
0
ENDBLK
5
56
100
AcDbEntity
8
0
100
AcDbBlockEnd
0
BLOCK
5
57
100
AcDbEntity
8
0
100
AcDbBlockBegin
2
DOT
70
0
10
0.0
20
0.0
30
0.0
3
DOT
1

0
LINE
5
58
100
AcDbEntity
8
0
6
BYBLOCK
62
0
100
AcDbLine
10
0.000000
20
0.000000
11
-1.000000
21
0.000000
0
POLYLINE
5
59
100
AcDbEntity
8
0
6
BYBLOCK
62
0
100
AcDb2dPolyline
66
1
10
0.0
20
0.0
30
0.0
70
1
40
0.166667
41
0.166667
0
VERTEX
5
5a
100
AcDbEntity
8
0
100
AcDbVertex
100
AcDb2dVertex
62
10
10
-0.083333
20
0.000000
42
1.000000
0
VERTEX
5
5b
100
AcDbEntity
8
0
100
AcDbVertex
100
AcDb2dVertex
62
10
10
0.083333
20
0.000000
42
1.000000
0
SEQEND
5
5c
100
AcDbEntity
8
0
0
ENDBLK
5
5d
100
AcDbEntity
8
0
100
AcDbBlockEnd
0
BLOCK
5
5e
100
AcDbEntity
8
0
100
AcDbBlockBegin
2
HALFOPEN_R
70
0
10
0.0
20
0.0
30
0.0
3
HALFOPEN_R
1

0
LINE
5
5f
100
AcDbEntity
8
0
6
BYBLOCK
62
0
100
AcDbLine
10
-1.000000
20
-0.166667
11
0.000000
21
0.000000
0
LINE
5
60
100
AcDbEntity
8
0
6
BYBLOCK
62
0
100
AcDbLine
10
0.000000
20
0.000000
11
-1.000000
21
0.000000
0
ENDBLK
5
61
100
AcDbEntity
8
0
100
AcDbBlockEnd
0
BLOCK
5
62
100
AcDbEntity
8
0
100
AcDbBlockBegin
2
CLOSEDF
70
0
10
0.0
20
0.0
30
0.0
3
CLOSEDF
1

0
SOLID
5
63
100
AcDbEntity
8
0
6
BYBLOCK
62
0
100
AcDbTrace
10
-1.000000
20
0.166667
11
-1.000000
21
-0.166667
12
0.000000
22
0.000000
13
0.000000
23
0.000000
0
ENDBLK
5
64
100
AcDbEntity
8
0
100
AcDbBlockEnd
0
BLOCK
5
65
100
AcDbEntity
8
0
100
AcDbBlockBegin
2
HALF_R
70
0
10
0.0
20
0.0
30
0.0
3
HALF_R
1

0
SOLID
5
66
100
AcDbEntity
8
0
6
BYBLOCK
62
0
100
AcDbTrace
10
-1.000000
20
-0.166667
11
-1.000000
21
0.000000
12
0.000000
22
0.000000
13
0.000000
23
0.000000
0
ENDBLK
5
67
100
AcDbEntity
8
0
100
AcDbBlockEnd
0
ENDSEC
0
SECTION
2
ENTITIES
0
POLYLINE
5
68
100
AcDbEntity
8
1
6
CONTINUOUS
62
5
100
AcDb2dPolyline
66
1
10
0.0
20
0.0
30
0.0
70
0
0
VERTEX
5
69
100
AcDbEntity
8
1
100
AcDbVertex
100
AcDb2dVertex
62
5
10
37.086497
20
225.249954
0
VERTEX
5
6a
100
AcDbEntity
8
1
100
AcDbVertex
100
AcDb2dVertex
62
5
10
37.086497
20
219.624954
0
VERTEX
5
6b
100
AcDbEntity
8
1
100
AcDbVertex
100
AcDb2dVertex
62
5
10
36.586497
20
218.374954
0
VERTEX
5
6c
100
AcDbEntity
8
1
100
AcDbVertex
100
AcDb2dVertex
62
5
10
36.086497
20
217.437454
0
SEQEND
5
6d
100
AcDbEntity
8
1
0
POLYLINE
5
6e
100
AcDbEntity
8
1
6
CONTINUOUS
62
5
100
AcDb2dPolyline
66
1
10
0.0
20
0.0
30
0.0
70
0
0
VERTEX
5
6f
100
AcDbEntity
8
1
100
AcDbVertex
100
AcDb2dVertex
62
5
10
41.086497
20
217.749954
0
VERTEX
5
70
100
AcDbEntity
8
1
100
AcDbVertex
100
AcDb2dVertex
62
5
10
42.086497
20
217.124954
0
VERTEX
5
71
100
AcDbEntity
8
1
100
AcDbVertex
100
AcDb2dVertex
62
5
10
42.086497
20
225.249954
0
VERTEX
5
72
100
AcDbEntity
8
1
100
AcDbVertex
100
AcDb2dVertex
62
5
10
37.086497
20
225.249954
0
SEQEND
5
73
100
AcDbEntity
8
1
0
LINE
5
74
100
AcDbEntity
8
1
100
AcDbLine
6
CONTINUOUS
62
5
10
37.086497
20
222.749954
11
42.086497
21
222.749954
0
LINE
5
75
100
AcDbEntity
8
1
100
AcDbLine
6
CONTINUOUS
62
5
10
39.586497
20
225.249954
11
39.586497
21
217.124954
0
LINE
5
76
100
AcDbEntity
8
1
100
AcDbLine
6
CONTINUOUS
62
5
10
37.086497
20
220.249954
11
42.086497
21
220.249954
0
LINE
5
77
100
AcDbEntity
8
1
100
AcDbLine
6
CONTINUOUS
62
5
10
13.836497
20
221.499954
11
16.836497
21
221.499954
0
LINE
5
78
100
AcDbEntity
8
1
100
AcDbLine
6
CONTINUOUS
62
5
10
13.336497
20
218.687454
11
17.336497
21
218.687454
0
LINE
5
79
100
AcDbEntity
8
1
100
AcDbLine
6
CONTINUOUS
62
5
10
15.336497
20
221.499954
11
15.336497
21
218.687454
0
LINE
5
7a
100
AcDbEntity
8
1
100
AcDbLine
6
CONTINUOUS
62
5
10
21.836497
20
221.812454
11
22.086497
21
220.562454
0
LINE
5
7b
100
AcDbEntity
8
1
100
AcDbLine
6
CONTINUOUS
62
5
10
23.336497
20
222.124954
11
23.586497
21
220.874954
0
POLYLINE
5
7c
100
AcDbEntity
8
1
6
CONTINUOUS
62
5
100
AcDb2dPolyline
66
1
10
0.0
20
0.0
30
0.0
70
0
0
VERTEX
5
7d
100
AcDbEntity
8
1
100
AcDbVertex
100
AcDb2dVertex
62
5
10
25.336497
20
222.124954
0
VERTEX
5
7e
100
AcDbEntity
8
1
100
AcDbVertex
100
AcDb2dVertex
62
5
10
25.086497
20
220.562454
0
VERTEX
5
7f
100
AcDbEntity
8
1
100
AcDbVertex
100
AcDb2dVertex
62
5
10
23.836497
20
218.687454
0
VERTEX
5
80
100
AcDbEntity
8
1
100
AcDbVertex
100
AcDb2dVertex
62
5
10
22.836497
20
217.749954
0
SEQEND
5
81
100
AcDbEntity
8
1
0
POLYLINE
5
82
100
AcDbEntity
8
1
6
CONTINUOUS
62
5
100
AcDb2dPolyline
66
1
10
0.0
20
0.0
30
0.0
70
0
0
VERTEX
5
83
100
AcDbEntity
8
1
100
AcDbVertex
100
AcDb2dVertex
62
5
10
-1.163503
20
221.499954
0
VERTEX
5
84
100
AcDbEntity
8
1
100
AcDbVertex
100
AcDb2dVertex
62
5
10
-0.663503
20
222.124954
0
VERTEX
5
85
100
AcDbEntity
8
1
100
AcDbVertex
100
AcDb2dVertex
62
5
10
-0.413503
20
222.124954
0
VERTEX
5
86
100
AcDbEntity
8
1
100
AcDbVertex
100
AcDb2dVertex
62
5
10
0.086497
20
221.499954
0
VERTEX
5
87
100
AcDbEntity
8
1
100
AcDbVertex
100
AcDb2dVertex
62
5
10
0.086497
20
221.187454
0
VERTEX
5
88
100
AcDbEntity
8
1
100
AcDbVertex
100
AcDb2dVertex
62
5
10
-0.413503
20
220.562454
0
VERTEX
5
89
100
AcDbEntity
8
1
100
AcDbVertex
100
AcDb2dVertex
62
5
10
-0.663503
20
220.562454
0
VERTEX
5
8a
100
AcDbEntity
8
1
100
AcDbVertex
100
AcDb2dVertex
62
5
10
-1.163503
20
221.187454
0
VERTEX
5
8b
100
AcDbEntity
8
1
100
AcDbVertex
100
AcDb2dVertex
62
5
10
-1.163503
20
221.499954
0
VERTEX
5
8c
100
AcDbEntity
8
1
100
AcDbVertex
100
AcDb2dVertex
62
5
10
0.086497
20
221.499954
0
SEQEND
5
8d
100
AcDbEntity
8
1
0
LINE
5
8e
100
AcDbEntity
8
1
100
AcDbLine
6
CONTINUOUS
62
5
10
0.086497
20
221.187454
11
-1.163503
21
221.187454
0
LINE
5
8f
100
AcDbEntity
8
1
100
AcDbLine
6
CONTINUOUS
62
5
10
-0.913503
20
220.874954
11
-0.163503
21
220.874954
0
LINE
5
90
100
AcDbEntity
8
1
100
AcDbLine
6
CONTINUOUS
62
5
10
-0.163503
20
221.812454
11
-0.913503
21
221.812454
0
LINE
5
91
100
AcDbEntity
8
1
100
AcDbLine
6
CONTINUOUS
62
5
10
5.586497
20
223.687454
11
9.336497
21
224.312454
0
LINE
5
92
100
AcDbEntity
8
1
100
AcDbLine
6
CONTINUOUS
62
5
10
4.336497
20
221.812454
11
10.336497
21
221.812454
0
POLYLINE
5
93
100
AcDbEntity
8
1
6
CONTINUOUS
62
5
100
AcDb2dPolyline
66
1
10
0.0
20
0.0
30
0.0
70
0
0
VERTEX
5
94
100
AcDbEntity
8
1
100
AcDbVertex
100
AcDb2dVertex
62
5
10
7.586497
20
223.999954
0
VERTEX
5
95
100
AcDbEntity
8
1
100
AcDbVertex
100
AcDb2dVertex
62
5
10
7.586497
20
221.812454
0
VERTEX
5
96
100
AcDbEntity
8
1
100
AcDbVertex
100
AcDb2dVertex
62
5
10
7.336497
20
220.249954
0
VERTEX
5
97
100
AcDbEntity
8
1
100
AcDbVertex
100
AcDb2dVertex
62
5
10
6.586497
20
218.999954
0
VERTEX
5
98
100
AcDbEntity
8
1
100
AcDbVertex
100
AcDb2dVertex
62
5
10
5.836497
20
218.062454
0
SEQEND
5
99
100
AcDbEntity
8
1
0
POLYLINE
5
9a
100
AcDbEntity
8
1
6
CONTINUOUS
62
5
100
AcDb2dPolyline
66
1
10
0.0
20
0.0
30
0.0
70
0
0
VERTEX
5
9b
100
AcDbEntity
8
1
100
AcDbVertex
100
AcDb2dVertex
62
5
10
29.336497
20
221.499954
0
VERTEX
5
9c
100
AcDbEntity
8
1
100
AcDbVertex
100
AcDb2dVertex
62
5
10
30.336497
20
222.749954
0
VERTEX
5
9d
100
AcDbEntity
8
1
100
AcDbVertex
100
AcDb2dVertex
62
5
10
30.836497
20
223.687454
0
VERTEX
5
9e
100
AcDbEntity
8
1
100
AcDbVertex
100
AcDb2dVertex
62
5
10
33.336497
20
223.687454
0
VERTEX
5
9f
100
AcDbEntity
8
1
100
AcDbVertex
100
AcDb2dVertex
62
5
10
33.336497
20
223.374954
0
VERTEX
5
a0
100
AcDbEntity
8
1
100
AcDbVertex
100
AcDb2dVertex
62
5
10
32.586497
20
221.499954
0
VERTEX
5
a1
100
AcDbEntity
8
1
100
AcDbVertex
100
AcDb2dVertex
62
5
10
31.336497
20
219.624954
0
VERTEX
5
a2
100
AcDbEntity
8
1
100
AcDbVertex
100
AcDb2dVertex
62
5
10
29.836497
20
218.062454
0
SEQEND
5
a3
100
AcDbEntity
8
1
0
LINE
5
a4
100
AcDbEntity
8
1
100
AcDbLine
6
DOT2
62
5
10
35.211497
20
127.224954
11
35.836497
21
126.599954
0
POLYLINE
5
a5
100
AcDbEntity
8
1
6
DOT2
62
5
100
AcDb2dPolyline
66
1
10
0.0
20
0.0
30
0.0
70
0
0
VERTEX
5
a6
100
AcDbEntity
8
1
100
AcDbVertex
100
AcDb2dVertex
62
5
10
35.211497
20
126.599954
0
VERTEX
5
a7
100
AcDbEntity
8
1
100
AcDbVertex
100
AcDb2dVertex
62
5
10
35.836497
20
127.224954
0
VERTEX
5
a8
100
AcDbEntity
8
1
100
AcDbVertex
100
AcDb2dVertex
62
5
10
35.836497
20
126.599954
0
VERTEX
5
a9
100
AcDbEntity
8
1
100
AcDbVertex
100
AcDb2dVertex
62
5
10
35.211497
20
126.599954
0
VERTEX
5
aa
100
AcDbEntity
8
1
100
AcDbVertex
100
AcDb2dVertex
62
5
10
35.211497
20
127.224954
0
VERTEX
5
ab
100
AcDbEntity
8
1
100
AcDbVertex
100
AcDb2dVertex
62
5
10
35.836497
20
127.224954
0
SEQEND
5
ac
100
AcDbEntity
8
1
0
POLYLINE
5
ad
100
AcDbEntity
8
1
6
DOT2
62
5
100
AcDb2dPolyline
66
1
10
0.0
20
0.0
30
0.0
70
0
0
VERTEX
5
ae
100
AcDbEntity
8
1
100
AcDbVertex
100
AcDb2dVertex
62
5
10
-8.163503
20
137.224954
0
VERTEX
5
af
100
AcDbEntity
8
1
100
AcDbVertex
100
AcDb2dVertex
62
5
10
-7.851003
20
138.474954
0
VERTEX
5
b0
100
AcDbEntity
8
1
100
AcDbVertex
100
AcDb2dVertex
62
5
10
-7.226003
20
139.099954
0
VERTEX
5
b1
100
AcDbEntity
8
1
100
AcDbVertex
100
AcDb2dVertex
62
5
10
-6.288503
20
139.099954
0
VERTEX
5
b2
100
AcDbEntity
8
1
100
AcDbVertex
100
AcDb2dVertex
62
5
10
-5.663503
20
138.787454
0
VERTEX
5
b3
100
AcDbEntity
8
1
100
AcDbVertex
100
AcDb2dVertex
62
5
10
-5.351003
20
137.849954
0
VERTEX
5
b4
100
AcDbEntity
8
1
100
AcDbVertex
100
AcDb2dVertex
62
5
10
-5.351003
20
136.599954
0
VERTEX
5
b5
100
AcDbEntity
8
1
100
AcDbVertex
100
AcDb2dVertex
62
5
10
-5.663503
20
135.974954
0
VERTEX
5
b6
100
AcDbEntity
8
1
100
AcDbVertex
100
AcDb2dVertex
62
5
10
-6.288503
20
135.349954
0
VERTEX
5
b7
100
AcDbEntity
8
1
100
AcDbVertex
100
AcDb2dVertex
62
5
10
-7.226003
20
135.349954
0
SEQEND
5
b8
100
AcDbEntity
8
1
0
POLYLINE
5
b9
100
AcDbEntity
8
1
6
DOT2
62
5
100
AcDb2dPolyline
66
1
10
0.0
20
0.0
30
0.0
70
0
0
VERTEX
5
ba
100
AcDbEntity
8
1
100
AcDbVertex
100
AcDb2dVertex
62
5
10
-6.288503
20
135.349954
0
VERTEX
5
bb
100
AcDbEntity
8
1
100
AcDbVertex
100
AcDb2dVertex
62
5
10
-5.351003
20
134.724954
0
VERTEX
5
bc
100
AcDbEntity
8
1
100
AcDbVertex
100
AcDb2dVertex
62
5
10
-5.038503
20
133.787454
0
VERTEX
5
bd
100
AcDbEntity
8
1
100
AcDbVertex
100
AcDb2dVertex
62
5
10
-5.038503
20
132.849954
0
VERTEX
5
be
100
AcDbEntity
8
1
100
AcDbVertex
100
AcDb2dVertex
62
5
10
-5.351003
20
132.224954
0
VERTEX
5
bf
100
AcDbEntity
8
1
100
AcDbVertex
100
AcDb2dVertex
62
5
10
-6.288503
20
131.599954
0
VERTEX
5
c0
100
AcDbEntity
8
1
100
AcDbVertex
100
AcDb2dVertex
62
5
10
-7.226003
20
131.599954
0
VERTEX
5
c1
100
AcDbEntity
8
1
100
AcDbVertex
100
AcDb2dVertex
62
5
10
-7.851003
20
131.912454
0
VERTEX
5
c2
100
AcDbEntity
8
1
100
AcDbVertex
100
AcDb2dVertex
62
5
10
-8.476003
20
132.849954
0
SEQEND
5
c3
100
AcDbEntity
8
1
0
POLYLINE
5
c4
100
AcDbEntity
8
1
6
DOT2
62
5
100
AcDb2dPolyline
66
1
10
0.0
20
0.0
30
0.0
70
0
0
VERTEX
5
c5
100
AcDbEntity
8
1
100
AcDbVertex
100
AcDb2dVertex
62
5
10
30.523997
20
116.599954
0
VERTEX
5
c6
100
AcDbEntity
8
1
100
AcDbVertex
100
AcDb2dVertex
62
5
10
28.961497
20
116.912454
0
VERTEX
5
c7
100
AcDbEntity
8
1
100
AcDbVertex
100
AcDb2dVertex
62
5
10
28.336497
20
117.849954
0
VERTEX
5
c8
100
AcDbEntity
8
1
100
AcDbVertex
100
AcDb2dVertex
62
5
10
28.336497
20
118.787454
0
VERTEX
5
c9
100
AcDbEntity
8
1
100
AcDbVertex
100
AcDb2dVertex
62
5
10
28.648997
20
119.412454
0
VERTEX
5
ca
100
AcDbEntity
8
1
100
AcDbVertex
100
AcDb2dVertex
62
5
10
29.586497
20
119.724954
0
VERTEX
5
cb
100
AcDbEntity
8
1
100
AcDbVertex
100
AcDb2dVertex
62
5
10
30.523997
20
119.724954
0
VERTEX
5
cc
100
AcDbEntity
8
1
100
AcDbVertex
100
AcDb2dVertex
62
5
10
31.461497
20
119.412454
0
VERTEX
5
cd
100
AcDbEntity
8
1
100
AcDbVertex
100
AcDb2dVertex
62
5
10
35.836497
20
116.599954
0
VERTEX
5
ce
100
AcDbEntity
8
1
100
AcDbVertex
100
AcDb2dVertex
62
5
10
35.836497
20
119.724954
0
VERTEX
5
cf
100
AcDbEntity
8
1
100
AcDbVertex
100
AcDb2dVertex
62
5
10
34.898997
20
119.724954
0
SEQEND
5
d0
100
AcDbEntity
8
1
0
POLYLINE
5
d1
100
AcDbEntity
8
1
6
DOT2
62
5
100
AcDb2dPolyline
66
1
10
0.0
20
0.0
30
0.0
70
0
0
VERTEX
5
d2
100
AcDbEntity
8
1
100
AcDbVertex
100
AcDb2dVertex
62
5
10
30.523997
20
121.599954
0
VERTEX
5
d3
100
AcDbEntity
8
1
100
AcDbVertex
100
AcDb2dVertex
62
5
10
28.961497
20
121.912454
0
VERTEX
5
d4
100
AcDbEntity
8
1
100
AcDbVertex
100
AcDb2dVertex
62
5
10
28.336497
20
122.849954
0
VERTEX
5
d5
100
AcDbEntity
8
1
100
AcDbVertex
100
AcDb2dVertex
62
5
10
28.336497
20
123.787454
0
VERTEX
5
d6
100
AcDbEntity
8
1
100
AcDbVertex
100
AcDb2dVertex
62
5
10
28.648997
20
124.412454
0
VERTEX
5
d7
100
AcDbEntity
8
1
100
AcDbVertex
100
AcDb2dVertex
62
5
10
29.586497
20
124.724954
0
VERTEX
5
d8
100
AcDbEntity
8
1
100
AcDbVertex
100
AcDb2dVertex
62
5
10
30.523997
20
124.724954
0
VERTEX
5
d9
100
AcDbEntity
8
1
100
AcDbVertex
100
AcDb2dVertex
62
5
10
31.461497
20
124.412454
0
VERTEX
5
da
100
AcDbEntity
8
1
100
AcDbVertex
100
AcDb2dVertex
62
5
10
35.836497
20
121.599954
0
VERTEX
5
db
100
AcDbEntity
8
1
100
AcDbVertex
100
AcDb2dVertex
62
5
10
35.836497
20
124.724954
0
VERTEX
5
dc
100
AcDbEntity
8
1
100
AcDbVertex
100
AcDb2dVertex
62
5
10
34.898997
20
124.724954
0
SEQEND
5
dd
100
AcDbEntity
8
1
0
POLYLINE
5
de
100
AcDbEntity
8
1
6
DOT2
62
5
100
AcDb2dPolyline
66
1
10
0.0
20
0.0
30
0.0
70
0
0
VERTEX
5
df
100
AcDbEntity
8
1
100
AcDbVertex
100
AcDb2dVertex
62
5
10
29.273997
20
131.599954
0
VERTEX
5
e0
100
AcDbEntity
8
1
100
AcDbVertex
100
AcDb2dVertex
62
5
10
28.336497
20
131.599954
0
VERTEX
5
e1
100
AcDbEntity
8
1
100
AcDbVertex
100
AcDb2dVertex
62
5
10
28.336497
20
134.724954
0
VERTEX
5
e2
100
AcDbEntity
8
1
100
AcDbVertex
100
AcDb2dVertex
62
5
10
28.961497
20
134.724954
0
VERTEX
5
e3
100
AcDbEntity
8
1
100
AcDbVertex
100
AcDb2dVertex
62
5
10
30.523997
20
134.099954
0
VERTEX
5
e4
100
AcDbEntity
8
1
100
AcDbVertex
100
AcDb2dVertex
62
5
10
32.711497
20
133.474954
0
VERTEX
5
e5
100
AcDbEntity
8
1
100
AcDbVertex
100
AcDb2dVertex
62
5
10
35.836497
20
132.849954
0
SEQEND
5
e6
100
AcDbEntity
8
1
0
ARC
5
e7
100
AcDbEntity
8
1
100
AcDbCircle
6
CONTINUOUS
62
5
10
2.280118
20
98.749954
40
0.300000
100
AcDbArc
50
2.925299
51
89.999999
0
LINE
5
e8
100
AcDbEntity
8
1
100
AcDbLine
6
CONTINUOUS
62
5
10
2.579728
20
98.765264
11
2.615498
21
98.065264
0
LINE
5
e9
100
AcDbEntity
8
1
100
AcDbLine
6
CONTINUOUS
62
5
10
1.120952
20
99.049954
11
2.280118
21
99.049954
0
ARC
5
ea
100
AcDbEntity
8
1
100
AcDbCircle
6
CONTINUOUS
62
5
10
0.798275
20
100.249954
40
0.300000
100
AcDbArc
50
8.596736
51
89.999999
0
LINE
5
eb
100
AcDbEntity
8
1
100
AcDbLine
6
CONTINUOUS
62
5
10
0.798275
20
100.549954
11
1.865180
21
100.549954
0
ARC
5
ec
100
AcDbEntity
8
1
100
AcDbCircle
6
CONTINUOUS
62
5
10
1.865180
20
99.849954
40
0.700000
100
AcDbArc
50
-0.000002
51
90.000001
0
LINE
5
ed
100
AcDbEntity
8
1
100
AcDbLine
6
CONTINUOUS
62
5
10
1.117581
20
100.144798
11
1.094904
21
100.294798
0
LINE
5
ee
100
AcDbEntity
8
1
100
AcDbLine
6
CONTINUOUS
62
5
10
-4.462225
20
98.999954
11
-4.462225
21
97.499954
0
LINE
5
ef
100
AcDbEntity
8
1
100
AcDbLine
6
CONTINUOUS
62
5
10
-1.199387
20
100.494891
11
0.062845
21
100.399954
0
LINE
5
f0
100
AcDbEntity
8
1
100
AcDbLine
6
CONTINUOUS
62
5
10
4.286497
20
97.249954
11
4.448069
21
97.549954
0
LINE
5
f1
100
AcDbEntity
8
1
100
AcDbLine
6
CONTINUOUS
62
5
10
3.586497
20
101.599954
11
4.086497
21
101.899954
0
CIRCLE
5
f2
100
AcDbEntity
8
1
100
AcDbCircle
6
CONTINUOUS
62
5
10
8.586497
20
103.249954
40
0.500000
0
LINE
5
f3
100
AcDbEntity
8
1
100
AcDbLine
6
CONTINUOUS
62
5
10
8.086497
20
104.799954
11
7.586497
21
104.299954
0
ARC
5
f4
100
AcDbEntity
8
1
100
AcDbCircle
6
CONTINUOUS
62
5
10
2.365180
20
95.449954
40
0.200000
100
AcDbArc
50
-89.999999
51
0.000000
0
LINE
5
f5
100
AcDbEntity
8
1
100
AcDbLine
6
CONTINUOUS
62
5
10
2.565180
20
95.449954
11
2.565180
21
96.756466
0
LINE
5
f6
100
AcDbEntity
8
1
100
AcDbLine
6
CONTINUOUS
62
5
10
1.148206
20
96.549954
11
1.148206
21
96.499954
0
LINE
5
f7
100
AcDbEntity
8
1
100
AcDbLine
6
CONTINUOUS
62
5
10
1.671532
20
95.249954
11
2.365180
21
95.249954
0
ARC
5
f8
100
AcDbEntity
8
1
100
AcDbCircle
6
CONTINUOUS
62
5
10
2.280118
20
96.849954
40
0.300000
100
AcDbArc
50
-89.999999
51
-2.925299
0
LINE
5
f9
100
AcDbEntity
8
1
100
AcDbLine
6
CONTINUOUS
62
5
10
2.579728
20
96.834644
11
2.615498
21
97.534644
0
POLYLINE
5
fa
100
AcDbEntity
8
1
6
CONTINUOUS
62
5
100
AcDb2dPolyline
66
1
10
0.0
20
0.0
30
0.0
70
0
0
VERTEX
5
fb
100
AcDbEntity
8
1
100
AcDbVertex
100
AcDb2dVertex
62
5
10
0.062845
20
97.249954
0
VERTEX
5
fc
100
AcDbEntity
8
1
100
AcDbVertex
100
AcDb2dVertex
62
5
10
0.666247
20
96.549954
0
VERTEX
5
fd
100
AcDbEntity
8
1
100
AcDbVertex
100
AcDb2dVertex
62
5
10
2.280118
20
96.549954
0
SEQEND
5
fe
100
AcDbEntity
8
1
0
ARC
5
ff
100
AcDbEntity
8
1
100
AcDbCircle
6
CONTINUOUS
62
5
10
0.820952
20
100.099954
40
0.300000
100
AcDbArc
50
0.000000
51
89.999999
0
LINE
5
100
100
AcDbEntity
8
1
100
AcDbLine
6
CONTINUOUS
62
5
10
0.820952
20
100.399954
11
0.362845
21
100.399954
0
ARC
5
101
100
AcDbEntity
8
1
100
AcDbCircle
6
CONTINUOUS
62
5
10
0.362845
20
100.099954
40
0.300000
100
AcDbArc
50
89.999999
51
179.999998
0
LINE
5
102
100
AcDbEntity
8
1
100
AcDbLine
6
CONTINUOUS
62
5
10
0.062845
20
100.099954
11
0.062845
21
95.549954
0
LINE
5
103
100
AcDbEntity
8
1
100
AcDbLine
6
CONTINUOUS
62
5
10
0.062845
20
97.249954
11
2.315889
21
97.249954
0
ARC
5
104
100
AcDbEntity
8
1
100
AcDbCircle
6
CONTINUOUS
62
5
10
2.315889
20
97.549954
40
0.300000
100
AcDbArc
50
-89.999999
51
0.000000
0
LINE
5
105
100
AcDbEntity
8
1
100
AcDbLine
6
CONTINUOUS
62
5
10
2.615889
20
97.549954
11
2.615889
21
98.049954
0
ARC
5
106
100
AcDbEntity
8
1
100
AcDbCircle
6
CONTINUOUS
62
5
10
2.315889
20
98.049954
40
0.300000
100
AcDbArc
50
0.000000
51
89.999999
0
POLYLINE
5
107
100
AcDbEntity
8
1
6
CONTINUOUS
62
5
100
AcDb2dPolyline
66
1
10
0.0
20
0.0
30
0.0
70
0
0
VERTEX
5
108
100
AcDbEntity
8
1
100
AcDbVertex
100
AcDb2dVertex
62
5
10
2.315889
20
98.349954
0
VERTEX
5
109
100
AcDbEntity
8
1
100
AcDbVertex
100
AcDb2dVertex
62
5
10
1.120952
20
98.349954
0
VERTEX
5
10a
100
AcDbEntity
8
1
100
AcDbVertex
100
AcDb2dVertex
62
5
10
1.120952
20
100.099954
0
SEQEND
5
10b
100
AcDbEntity
8
1
0
ARC
5
10c
100
AcDbEntity
8
1
100
AcDbCircle
6
CONTINUOUS
62
5
10
-3.949610
20
96.199954
40
0.300000
100
AcDbArc
50
89.999999
51
172.041706
0
POLYLINE
5
10d
100
AcDbEntity
8
1
6
CONTINUOUS
62
5
100
AcDb2dPolyline
66
1
10
0.0
20
0.0
30
0.0
70
0
0
VERTEX
5
10e
100
AcDbEntity
8
1
100
AcDbVertex
100
AcDb2dVertex
62
5
10
-4.246721
20
96.241490
0
VERTEX
5
10f
100
AcDbEntity
8
1
100
AcDbVertex
100
AcDb2dVertex
62
5
10
-4.462225
20
94.699954
0
VERTEX
5
110
100
AcDbEntity
8
1
100
AcDbVertex
100
AcDb2dVertex
62
5
10
-3.029244
20
94.699954
0
VERTEX
5
111
100
AcDbEntity
8
1
100
AcDbVertex
100
AcDb2dVertex
62
5
10
-3.029244
20
96.199954
0
SEQEND
5
112
100
AcDbEntity
8
1
0
ARC
5
113
100
AcDbEntity
8
1
100
AcDbCircle
6
CONTINUOUS
62
5
10
-3.329244
20
96.199954
40
0.300000
100
AcDbArc
50
0.000000
51
89.999999
0
LINE
5
114
100
AcDbEntity
8
1
100
AcDbLine
6
CONTINUOUS
62
5
10
-3.329244
20
96.499954
11
-3.949610
21
96.499954
0
LINE
5
115
100
AcDbEntity
8
1
100
AcDbLine
6
CONTINUOUS
62
5
10
-4.462225
20
97.499954
11
-4.462225
21
95.999954
0
LINE
5
116
100
AcDbEntity
8
1
100
AcDbLine
6
CONTINUOUS
62
5
10
-8.813503
20
96.099954
11
-8.513503
21
96.399954
0
ARC
5
117
100
AcDbEntity
8
1
100
AcDbCircle
6
CONTINUOUS
62
5
10
-3.910588
20
97.599954
40
0.300000
100
AcDbArc
50
89.999999
51
179.999998
0
LINE
5
118
100
AcDbEntity
8
1
100
AcDbLine
6
CONTINUOUS
62
5
10
-4.210588
20
97.599954
11
-4.210588
21
96.499954
0
LINE
5
119
100
AcDbEntity
8
1
100
AcDbLine
6
CONTINUOUS
62
5
10
-3.029244
20
97.599954
11
-3.029244
21
97.599954
0
ARC
5
11a
100
AcDbEntity
8
1
100
AcDbCircle
6
CONTINUOUS
62
5
10
-3.329244
20
97.599954
40
0.300000
100
AcDbArc
50
0.000000
51
89.999999
0
LINE
5
11b
100
AcDbEntity
8
1
100
AcDbLine
6
CONTINUOUS
62
5
10
-3.329244
20
97.899954
11
-3.910588
21
97.899954
0
POLYLINE
5
11c
100
AcDbEntity
8
1
6
CONTINUOUS
62
5
100
AcDb2dPolyline
66
1
10
0.0
20
0.0
30
0.0
70
0
0
VERTEX
5
11d
100
AcDbEntity
8
1
100
AcDbVertex
100
AcDb2dVertex
62
5
10
1.174361
20
96.499954
0
VERTEX
5
11e
100
AcDbEntity
8
1
100
AcDbVertex
100
AcDb2dVertex
62
5
10
1.353343
20
96.495115
0
VERTEX
5
11f
100
AcDbEntity
8
1
100
AcDbVertex
100
AcDb2dVertex
62
5
10
1.492551
20
96.480597
0
VERTEX
5
120
100
AcDbEntity
8
1
100
AcDbVertex
100
AcDb2dVertex
62
5
10
1.591985
20
96.456400
0
VERTEX
5
121
100
AcDbEntity
8
1
100
AcDbVertex
100
AcDb2dVertex
62
5
10
1.651646
20
96.422525
0
VERTEX
5
122
100
AcDbEntity
8
1
100
AcDbVertex
100
AcDb2dVertex
62
5
10
1.671532
20
96.378971
0
SEQEND
5
123
100
AcDbEntity
8
1
0
POLYLINE
5
124
100
AcDbEntity
8
1
6
CONTINUOUS
62
5
100
AcDb2dPolyline
66
1
10
0.0
20
0.0
30
0.0
70
0
0
VERTEX
5
125
100
AcDbEntity
8
1
100
AcDbVertex
100
AcDb2dVertex
62
5
10
1.371532
20
96.378971
0
VERTEX
5
126
100
AcDbEntity
8
1
100
AcDbVertex
100
AcDb2dVertex
62
5
10
1.351661
20
96.350525
0
VERTEX
5
127
100
AcDbEntity
8
1
100
AcDbVertex
100
AcDb2dVertex
62
5
10
1.292050
20
96.328400
0
VERTEX
5
128
100
AcDbEntity
8
1
100
AcDbVertex
100
AcDb2dVertex
62
5
10
1.192698
20
96.312597
0
VERTEX
5
129
100
AcDbEntity
8
1
100
AcDbVertex
100
AcDb2dVertex
62
5
10
1.053606
20
96.303115
0
VERTEX
5
12a
100
AcDbEntity
8
1
100
AcDbVertex
100
AcDb2dVertex
62
5
10
0.978350
20
96.301785
0
SEQEND
5
12b
100
AcDbEntity
8
1
0
POLYLINE
5
12c
100
AcDbEntity
8
1
6
CONTINUOUS
62
5
100
AcDb2dPolyline
66
1
10
0.0
20
0.0
30
0.0
70
0
0
VERTEX
5
12d
100
AcDbEntity
8
1
100
AcDbVertex
100
AcDb2dVertex
62
5
10
0.874773
20
96.499954
0
VERTEX
5
12e
100
AcDbEntity
8
1
100
AcDbVertex
100
AcDb2dVertex
62
5
10
1.053606
20
96.495115
0
VERTEX
5
12f
100
AcDbEntity
8
1
100
AcDbVertex
100
AcDb2dVertex
62
5
10
1.192698
20
96.480597
0
VERTEX
5
130
100
AcDbEntity
8
1
100
AcDbVertex
100
AcDb2dVertex
62
5
10
1.292050
20
96.456400
0
VERTEX
5
131
100
AcDbEntity
8
1
100
AcDbVertex
100
AcDb2dVertex
62
5
10
1.351661
20
96.422525
0
VERTEX
5
132
100
AcDbEntity
8
1
100
AcDbVertex
100
AcDb2dVertex
62
5
10
1.371532
20
96.378971
0
SEQEND
5
133
100
AcDbEntity
8
1
0
POLYLINE
5
134
100
AcDbEntity
8
1
6
CONTINUOUS
62
5
100
AcDb2dPolyline
66
1
10
0.0
20
0.0
30
0.0
70
0
0
VERTEX
5
135
100
AcDbEntity
8
1
100
AcDbVertex
100
AcDb2dVertex
62
5
10
1.671532
20
96.378971
0
VERTEX
5
136
100
AcDbEntity
8
1
100
AcDbVertex
100
AcDb2dVertex
62
5
10
1.636477
20
96.350525
0
VERTEX
5
137
100
AcDbEntity
8
1
100
AcDbVertex
100
AcDb2dVertex
62
5
10
1.531310
20
96.328400
0
VERTEX
5
138
100
AcDbEntity
8
1
100
AcDbVertex
100
AcDb2dVertex
62
5
10
1.356033
20
96.312597
0
VERTEX
5
139
100
AcDbEntity
8
1
100
AcDbVertex
100
AcDb2dVertex
62
5
10
1.110644
20
96.303115
0
VERTEX
5
13a
100
AcDbEntity
8
1
100
AcDbVertex
100
AcDb2dVertex
62
5
10
0.795144
20
96.299954
0
SEQEND
5
13b
100
AcDbEntity
8
1
0
ARC
5
13c
100
AcDbEntity
8
1
100
AcDbCircle
6
CONTINUOUS
62
5
10
-3.949610
20
91.799954
40
0.300000
100
AcDbArc
50
-172.041706
51
-89.999999
0
LINE
5
13d
100
AcDbEntity
8
1
100
AcDbLine
6
CONTINUOUS
62
5
10
-3.949610
20
91.499954
11
-3.329244
21
91.499954
0
ARC
5
13e
100
AcDbEntity
8
1
100
AcDbCircle
6
CONTINUOUS
62
5
10
-3.329244
20
91.799954
40
0.300000
100
AcDbArc
50
-89.999999
51
0.000000
0
POLYLINE
5
13f
100
AcDbEntity
8
1
6
CONTINUOUS
62
5
100
AcDb2dPolyline
66
1
10
0.0
20
0.0
30
0.0
70
0
0
VERTEX
5
140
100
AcDbEntity
8
1
100
AcDbVertex
100
AcDb2dVertex
62
5
10
-3.029244
20
91.799954
0
VERTEX
5
141
100
AcDbEntity
8
1
100
AcDbVertex
100
AcDb2dVertex
62
5
10
-3.029244
20
93.299954
0
VERTEX
5
142
100
AcDbEntity
8
1
100
AcDbVertex
100
AcDb2dVertex
62
5
10
-4.462225
20
93.299954
0
VERTEX
5
143
100
AcDbEntity
8
1
100
AcDbVertex
100
AcDb2dVertex
62
5
10
-4.246721
20
91.758419
0
SEQEND
5
144
100
AcDbEntity
8
1
0
LINE
5
145
100
AcDbEntity
8
1
100
AcDbLine
6
CONTINUOUS
62
5
10
-8.813503
20
91.899954
11
-8.513503
21
91.599954
0
LINE
5
146
100
AcDbEntity
8
1
100
AcDbLine
6
CONTINUOUS
62
5
10
-4.462225
20
90.499954
11
-4.462225
21
91.999954
0
ARC
5
147
100
AcDbEntity
8
1
100
AcDbCircle
6
CONTINUOUS
62
5
10
2.365180
20
92.549954
40
0.200000
100
AcDbArc
50
0.000000
51
89.999999
0
LINE
5
148
100
AcDbEntity
8
1
100
AcDbLine
6
CONTINUOUS
62
5
10
2.365180
20
92.749954
11
1.671532
21
92.749954
0
LINE
5
149
100
AcDbEntity
8
1
100
AcDbLine
6
CONTINUOUS
62
5
10
1.148206
20
91.499954
11
1.148206
21
91.449954
0
LINE
5
14a
100
AcDbEntity
8
1
100
AcDbLine
6
CONTINUOUS
62
5
10
2.565180
20
91.243443
11
2.565180
21
92.549954
0
ARC
5
14b
100
AcDbEntity
8
1
100
AcDbCircle
6
CONTINUOUS
62
5
10
2.280118
20
91.149954
40
0.300000
100
AcDbArc
50
2.925299
51
89.999999
0
LINE
5
14c
100
AcDbEntity
8
1
100
AcDbLine
6
CONTINUOUS
62
5
10
2.579728
20
91.165264
11
2.615498
21
90.465264
0
POLYLINE
5
14d
100
AcDbEntity
8
1
6
CONTINUOUS
62
5
100
AcDb2dPolyline
66
1
10
0.0
20
0.0
30
0.0
70
0
0
VERTEX
5
14e
100
AcDbEntity
8
1
100
AcDbVertex
100
AcDb2dVertex
62
5
10
0.062845
20
90.749954
0
VERTEX
5
14f
100
AcDbEntity
8
1
100
AcDbVertex
100
AcDb2dVertex
62
5
10
0.666247
20
91.449954
0
VERTEX
5
150
100
AcDbEntity
8
1
100
AcDbVertex
100
AcDb2dVertex
62
5
10
2.280118
20
91.449954
0
SEQEND
5
151
100
AcDbEntity
8
1
0
ARC
5
152
100
AcDbEntity
8
1
100
AcDbCircle
6
CONTINUOUS
62
5
10
-3.910588
20
90.399954
40
0.300000
100
AcDbArc
50
179.999998
51
-89.999999
0
LINE
5
153
100
AcDbEntity
8
1
100
AcDbLine
6
CONTINUOUS
62
5
10
-3.910588
20
90.099954
11
-3.329244
21
90.099954
0
ARC
5
154
100
AcDbEntity
8
1
100
AcDbCircle
6
CONTINUOUS
62
5
10
-3.329244
20
90.399954
40
0.300000
100
AcDbArc
50
-89.999999
51
0.000000
0
LINE
5
155
100
AcDbEntity
8
1
100
AcDbLine
6
CONTINUOUS
62
5
10
-3.029244
20
90.399954
11
-3.029244
21
90.399954
0
LINE
5
156
100
AcDbEntity
8
1
100
AcDbLine
6
CONTINUOUS
62
5
10
-4.210588
20
91.499954
11
-4.210588
21
90.399954
0
POLYLINE
5
157
100
AcDbEntity
8
1
6
CONTINUOUS
62
5
100
AcDb2dPolyline
66
1
10
0.0
20
0.0
30
0.0
70
0
0
VERTEX
5
158
100
AcDbEntity
8
1
100
AcDbVertex
100
AcDb2dVertex
62
5
10
1.174361
20
91.499954
0
VERTEX
5
159
100
AcDbEntity
8
1
100
AcDbVertex
100
AcDb2dVertex
62
5
10
1.353343
20
91.504794
0
VERTEX
5
15a
100
AcDbEntity
8
1
100
AcDbVertex
100
AcDb2dVertex
62
5
10
1.492551
20
91.519311
0
VERTEX
5
15b
100
AcDbEntity
8
1
100
AcDbVertex
100
AcDb2dVertex
62
5
10
1.591985
20
91.543508
0
VERTEX
5
15c
100
AcDbEntity
8
1
100
AcDbVertex
100
AcDb2dVertex
62
5
10
1.651646
20
91.577383
0
VERTEX
5
15d
100
AcDbEntity
8
1
100
AcDbVertex
100
AcDb2dVertex
62
5
10
1.671532
20
91.620937
0
SEQEND
5
15e
100
AcDbEntity
8
1
0
POLYLINE
5
15f
100
AcDbEntity
8
1
6
CONTINUOUS
62
5
100
AcDb2dPolyline
66
1
10
0.0
20
0.0
30
0.0
70
0
0
VERTEX
5
160
100
AcDbEntity
8
1
100
AcDbVertex
100
AcDb2dVertex
62
5
10
1.371532
20
91.620937
0
VERTEX
5
161
100
AcDbEntity
8
1
100
AcDbVertex
100
AcDb2dVertex
62
5
10
1.351661
20
91.649383
0
VERTEX
5
162
100
AcDbEntity
8
1
100
AcDbVertex
100
AcDb2dVertex
62
5
10
1.292050
20
91.671508
0
VERTEX
5
163
100
AcDbEntity
8
1
100
AcDbVertex
100
AcDb2dVertex
62
5
10
1.192698
20
91.687311
0
VERTEX
5
164
100
AcDbEntity
8
1
100
AcDbVertex
100
AcDb2dVertex
62
5
10
1.053606
20
91.696794
0
VERTEX
5
165
100
AcDbEntity
8
1
100
AcDbVertex
100
AcDb2dVertex
62
5
10
0.979482
20
91.698104
0
SEQEND
5
166
100
AcDbEntity
8
1
0
POLYLINE
5
167
100
AcDbEntity
8
1
6
CONTINUOUS
62
5
100
AcDb2dPolyline
66
1
10
0.0
20
0.0
30
0.0
70
0
0
VERTEX
5
168
100
AcDbEntity
8
1
100
AcDbVertex
100
AcDb2dVertex
62
5
10
1.671532
20
91.620937
0
VERTEX
5
169
100
AcDbEntity
8
1
100
AcDbVertex
100
AcDb2dVertex
62
5
10
1.636477
20
91.649383
0
VERTEX
5
16a
100
AcDbEntity
8
1
100
AcDbVertex
100
AcDb2dVertex
62
5
10
1.531310
20
91.671508
0
VERTEX
5
16b
100
AcDbEntity
8
1
100
AcDbVertex
100
AcDb2dVertex
62
5
10
1.356033
20
91.687311
0
VERTEX
5
16c
100
AcDbEntity
8
1
100
AcDbVertex
100
AcDb2dVertex
62
5
10
1.110644
20
91.696794
0
VERTEX
5
16d
100
AcDbEntity
8
1
100
AcDbVertex
100
AcDb2dVertex
62
5
10
0.795144
20
91.699954
0
SEQEND
5
16e
100
AcDbEntity
8
1
0
POLYLINE
5
16f
100
AcDbEntity
8
1
6
CONTINUOUS
62
5
100
AcDb2dPolyline
66
1
10
0.0
20
0.0
30
0.0
70
0
0
VERTEX
5
170
100
AcDbEntity
8
1
100
AcDbVertex
100
AcDb2dVertex
62
5
10
0.874773
20
91.499954
0
VERTEX
5
171
100
AcDbEntity
8
1
100
AcDbVertex
100
AcDb2dVertex
62
5
10
1.053606
20
91.504794
0
VERTEX
5
172
100
AcDbEntity
8
1
100
AcDbVertex
100
AcDb2dVertex
62
5
10
1.192698
20
91.519311
0
VERTEX
5
173
100
AcDbEntity
8
1
100
AcDbVertex
100
AcDb2dVertex
62
5
10
1.292050
20
91.543508
0
VERTEX
5
174
100
AcDbEntity
8
1
100
AcDbVertex
100
AcDb2dVertex
62
5
10
1.351661
20
91.577383
0
VERTEX
5
175
100
AcDbEntity
8
1
100
AcDbVertex
100
AcDb2dVertex
62
5
10
1.371532
20
91.620937
0
SEQEND
5
176
100
AcDbEntity
8
1
0
LINE
5
177
100
AcDbEntity
8
1
100
AcDbLine
6
CONTINUOUS
62
5
10
4.286497
20
90.749954
11
4.448069
21
90.449954
0
LINE
5
178
100
AcDbEntity
8
1
100
AcDbLine
6
CONTINUOUS
62
5
10
-4.462225
20
93.299954
11
-4.462225
21
94.699954
0
ARC
5
179
100
AcDbEntity
8
1
100
AcDbCircle
6
CONTINUOUS
62
5
10
0.026181
20
95.549954
40
0.300000
100
AcDbArc
50
-89.999999
51
0.000000
0
LINE
5
17a
100
AcDbEntity
8
1
100
AcDbLine
6
CONTINUOUS
62
5
10
0.026181
20
95.249954
11
-0.488705
21
95.249954
0
ARC
5
17b
100
AcDbEntity
8
1
100
AcDbCircle
6
CONTINUOUS
62
5
10
-0.488705
20
95.549954
40
0.300000
100
AcDbArc
50
179.999998
51
-89.999999
0
POLYLINE
5
17c
100
AcDbEntity
8
1
6
CONTINUOUS
62
5
100
AcDb2dPolyline
66
1
10
0.0
20
0.0
30
0.0
70
0
0
VERTEX
5
17d
100
AcDbEntity
8
1
100
AcDbVertex
100
AcDb2dVertex
62
5
10
-0.788705
20
95.549954
0
VERTEX
5
17e
100
AcDbEntity
8
1
100
AcDbVertex
100
AcDb2dVertex
62
5
10
-0.788705
20
95.549954
0
VERTEX
5
17f
100
AcDbEntity
8
1
100
AcDbVertex
100
AcDb2dVertex
62
5
10
-0.788705
20
92.449954
0
VERTEX
5
180
100
AcDbEntity
8
1
100
AcDbVertex
100
AcDb2dVertex
62
5
10
-0.788705
20
92.449954
0
SEQEND
5
181
100
AcDbEntity
8
1
0
ARC
5
182
100
AcDbEntity
8
1
100
AcDbCircle
6
CONTINUOUS
62
5
10
-0.488705
20
92.449954
40
0.300000
100
AcDbArc
50
89.999999
51
179.999998
0
LINE
5
183
100
AcDbEntity
8
1
100
AcDbLine
6
CONTINUOUS
62
5
10
-0.488705
20
92.749954
11
0.026181
21
92.749954
0
ARC
5
184
100
AcDbEntity
8
1
100
AcDbCircle
6
CONTINUOUS
62
5
10
0.026181
20
92.449954
40
0.300000
100
AcDbArc
50
0.000000
51
89.999999
0
POLYLINE
5
185
100
AcDbEntity
8
1
6
CONTINUOUS
62
5
100
AcDb2dPolyline
66
1
10
0.0
20
0.0
30
0.0
70
0
0
VERTEX
5
186
100
AcDbEntity
8
1
100
AcDbVertex
100
AcDb2dVertex
62
5
10
0.326181
20
92.449954
0
VERTEX
5
187
100
AcDbEntity
8
1
100
AcDbVertex
100
AcDb2dVertex
62
5
10
0.326181
20
92.449954
0
VERTEX
5
188
100
AcDbEntity
8
1
100
AcDbVertex
100
AcDb2dVertex
62
5
10
0.326181
20
95.549954
0
VERTEX
5
189
100
AcDbEntity
8
1
100
AcDbVertex
100
AcDb2dVertex
62
5
10
0.326181
20
95.549954
0
SEQEND
5
18a
100
AcDbEntity
8
1
0
LINE
5
18b
100
AcDbEntity
8
1
100
AcDbLine
6
CONTINUOUS
62
5
10
-6.413503
20
91.999954
11
-6.413503
21
95.999954
0
LINE
5
18c
100
AcDbEntity
8
1
100
AcDbLine
6
CONTINUOUS
62
5
10
-7.413503
20
91.999954
11
-7.413503
21
95.999954
0
LINE
5
18d
100
AcDbEntity
8
1
100
AcDbLine
6
CONTINUOUS
62
5
10
-8.413503
20
91.999954
11
-8.413503
21
95.999954
0
CIRCLE
5
18e
100
AcDbEntity
8
1
100
AcDbCircle
6
CONTINUOUS
62
5
10
8.086497
20
93.999954
40
1.500000
0
LINE
5
18f
100
AcDbEntity
8
1
100
AcDbLine
6
CONTINUOUS
62
5
10
0.958853
20
91.698314
11
0.958853
21
96.301594
0
LINE
5
190
100
AcDbEntity
8
1
100
AcDbLine
6
CONTINUOUS
62
5
10
0.830165
20
91.699603
11
0.830165
21
96.300305
0
POLYLINE
5
191
100
AcDbEntity
8
1
6
CONTINUOUS
62
5
100
AcDb2dPolyline
66
1
10
0.0
20
0.0
30
0.0
70
0
0
VERTEX
5
192
100
AcDbEntity
8
1
100
AcDbVertex
100
AcDb2dVertex
62
5
10
1.174361
20
96.499954
0
VERTEX
5
193
100
AcDbEntity
8
1
100
AcDbVertex
100
AcDb2dVertex
62
5
10
0.874773
20
96.499954
0
VERTEX
5
194
100
AcDbEntity
8
1
100
AcDbVertex
100
AcDb2dVertex
62
5
10
0.874773
20
96.300752
0
SEQEND
5
195
100
AcDbEntity
8
1
0
POLYLINE
5
196
100
AcDbEntity
8
1
6
CONTINUOUS
62
5
100
AcDb2dPolyline
66
1
10
0.0
20
0.0
30
0.0
70
0
0
VERTEX
5
197
100
AcDbEntity
8
1
100
AcDbVertex
100
AcDb2dVertex
62
5
10
0.874773
20
91.699156
0
VERTEX
5
198
100
AcDbEntity
8
1
100
AcDbVertex
100
AcDb2dVertex
62
5
10
0.874773
20
91.499954
0
VERTEX
5
199
100
AcDbEntity
8
1
100
AcDbVertex
100
AcDb2dVertex
62
5
10
1.174361
20
91.499954
0
SEQEND
5
19a
100
AcDbEntity
8
1
0
LINE
5
19b
100
AcDbEntity
8
1
100
AcDbLine
6
CONTINUOUS
62
5
10
0.795144
20
96.299954
11
0.795144
21
91.699954
0
LINE
5
19c
100
AcDbEntity
8
1
100
AcDbLine
6
CONTINUOUS
62
5
10
1.671532
20
91.620937
11
1.671532
21
96.378971
0
ARC
5
19d
100
AcDbEntity
8
1
100
AcDbCircle
6
CONTINUOUS
62
5
10
4.086497
20
90.890571
40
1.000000
100
AcDbArc
50
-13.966015
51
0.000000
0
LINE
5
19e
100
AcDbEntity
8
1
100
AcDbLine
6
CONTINUOUS
62
5
10
5.086497
20
90.890571
11
5.086497
21
97.109337
0
ARC
5
19f
100
AcDbEntity
8
1
100
AcDbCircle
6
CONTINUOUS
62
5
10
4.086497
20
97.109337
40
1.000000
100
AcDbArc
50
0.000000
51
13.966015
0
LINE
5
1a0
100
AcDbEntity
8
1
100
AcDbLine
6
CONTINUOUS
62
5
10
5.056936
20
97.350684
11
4.865022
21
98.122358
0
ARC
5
1a1
100
AcDbEntity
8
1
100
AcDbCircle
6
CONTINUOUS
62
5
10
4.573890
20
98.049954
40
0.300000
100
AcDbArc
50
13.966015
51
89.999999
0
LINE
5
1a2
100
AcDbEntity
8
1
100
AcDbLine
6
CONTINUOUS
62
5
10
4.573890
20
98.349954
11
3.336497
21
98.349954
0
ARC
5
1a3
100
AcDbEntity
8
1
100
AcDbCircle
6
CONTINUOUS
62
5
10
3.336497
20
98.049954
40
0.300000
100
AcDbArc
50
89.999999
51
-179.999998
0
LINE
5
1a4
100
AcDbEntity
8
1
100
AcDbLine
6
CONTINUOUS
62
5
10
3.036497
20
98.049954
11
3.036497
21
97.549954
0
ARC
5
1a5
100
AcDbEntity
8
1
100
AcDbCircle
6
CONTINUOUS
62
5
10
3.336497
20
97.549954
40
0.300000
100
AcDbArc
50
-179.999998
51
-89.999999
0
POLYLINE
5
1a6
100
AcDbEntity
8
1
6
CONTINUOUS
62
5
100
AcDb2dPolyline
66
1
10
0.0
20
0.0
30
0.0
70
0
0
VERTEX
5
1a7
100
AcDbEntity
8
1
100
AcDbVertex
100
AcDb2dVertex
62
5
10
3.336497
20
97.249954
0
VERTEX
5
1a8
100
AcDbEntity
8
1
100
AcDbVertex
100
AcDb2dVertex
62
5
10
4.286497
20
97.249954
0
VERTEX
5
1a9
100
AcDbEntity
8
1
100
AcDbVertex
100
AcDb2dVertex
62
5
10
4.286497
20
90.749954
0
VERTEX
5
1aa
100
AcDbEntity
8
1
100
AcDbVertex
100
AcDb2dVertex
62
5
10
3.336497
20
90.749954
0
SEQEND
5
1ab
100
AcDbEntity
8
1
0
ARC
5
1ac
100
AcDbEntity
8
1
100
AcDbCircle
6
CONTINUOUS
62
5
10
3.336497
20
90.449954
40
0.300000
100
AcDbArc
50
89.999999
51
179.999998
0
LINE
5
1ad
100
AcDbEntity
8
1
100
AcDbLine
6
CONTINUOUS
62
5
10
3.036497
20
90.449954
11
3.036497
21
89.949954
0
ARC
5
1ae
100
AcDbEntity
8
1
100
AcDbCircle
6
CONTINUOUS
62
5
10
3.336497
20
89.949954
40
0.300000
100
AcDbArc
50
179.999998
51
-89.999999
0
LINE
5
1af
100
AcDbEntity
8
1
100
AcDbLine
6
CONTINUOUS
62
5
10
3.336497
20
89.649954
11
4.573890
21
89.649954
0
ARC
5
1b0
100
AcDbEntity
8
1
100
AcDbCircle
6
CONTINUOUS
62
5
10
4.573890
20
89.949954
40
0.300000
100
AcDbArc
50
-89.999999
51
-13.966015
0
LINE
5
1b1
100
AcDbEntity
8
1
100
AcDbLine
6
CONTINUOUS
62
5
10
4.865022
20
89.877550
11
5.056936
21
90.649225
0
LINE
5
1b2
100
AcDbEntity
8
1
100
AcDbLine
6
CONTINUOUS
62
5
10
10.586497
20
98.599954
11
10.086497
21
98.899954
0
LINE
5
1b3
100
AcDbEntity
8
1
100
AcDbLine
6
CONTINUOUS
62
5
10
10.586497
20
101.999954
11
10.086497
21
101.699954
0
ARC
5
1b4
100
AcDbEntity
8
1
100
AcDbCircle
6
CONTINUOUS
62
5
10
0.798275
20
87.749954
40
0.300000
100
AcDbArc
50
-89.999999
51
-8.596736
0
LINE
5
1b5
100
AcDbEntity
8
1
100
AcDbLine
6
CONTINUOUS
62
5
10
0.798275
20
87.449954
11
1.865180
21
87.449954
0
ARC
5
1b6
100
AcDbEntity
8
1
100
AcDbCircle
6
CONTINUOUS
62
5
10
1.865180
20
88.149954
40
0.700000
100
AcDbArc
50
-90.000001
51
0.000002
0
LINE
5
1b7
100
AcDbEntity
8
1
100
AcDbLine
6
CONTINUOUS
62
5
10
1.117581
20
87.855111
11
1.094904
21
87.705111
0
LINE
5
1b8
100
AcDbEntity
8
1
100
AcDbLine
6
CONTINUOUS
62
5
10
-1.199387
20
87.505017
11
0.062845
21
87.599954
0
LINE
5
1b9
100
AcDbEntity
8
1
100
AcDbLine
6
CONTINUOUS
62
5
10
3.586497
20
86.399954
11
4.086497
21
86.099954
0
CIRCLE
5
1ba
100
AcDbEntity
8
1
100
AcDbCircle
6
CONTINUOUS
62
5
10
8.586497
20
84.749954
40
0.500000
0
LINE
5
1bb
100
AcDbEntity
8
1
100
AcDbLine
6
CONTINUOUS
62
5
10
8.086497
20
83.199954
11
7.586497
21
83.699954
0
LINE
5
1bc
100
AcDbEntity
8
1
100
AcDbLine
6
CONTINUOUS
62
5
10
10.586497
20
85.999954
11
10.086497
21
86.299954
0
LINE
5
1bd
100
AcDbEntity
8
1
100
AcDbLine
6
CONTINUOUS
62
5
10
12.086497
20
85.699954
11
12.086497
21
92.199954
0
ARC
5
1be
100
AcDbEntity
8
1
100
AcDbCircle
6
CONTINUOUS
62
5
10
0.820952
20
87.899954
40
0.300000
100
AcDbArc
50
-89.999999
51
0.000000
0
LINE
5
1bf
100
AcDbEntity
8
1
100
AcDbLine
6
CONTINUOUS
62
5
10
0.820952
20
87.599954
11
0.362845
21
87.599954
0
ARC
5
1c0
100
AcDbEntity
8
1
100
AcDbCircle
6
CONTINUOUS
62
5
10
0.362845
20
87.899954
40
0.300000
100
AcDbArc
50
179.999998
51
-89.999999
0
LINE
5
1c1
100
AcDbEntity
8
1
100
AcDbLine
6
CONTINUOUS
62
5
10
0.062845
20
87.899954
11
0.062845
21
92.449954
0
LINE
5
1c2
100
AcDbEntity
8
1
100
AcDbLine
6
CONTINUOUS
62
5
10
0.062845
20
90.749954
11
2.315889
21
90.749954
0
ARC
5
1c3
100
AcDbEntity
8
1
100
AcDbCircle
6
CONTINUOUS
62
5
10
2.315889
20
90.449954
40
0.300000
100
AcDbArc
50
0.000000
51
89.999999
0
LINE
5
1c4
100
AcDbEntity
8
1
100
AcDbLine
6
CONTINUOUS
62
5
10
2.615889
20
90.449954
11
2.615889
21
89.949954
0
ARC
5
1c5
100
AcDbEntity
8
1
100
AcDbCircle
6
CONTINUOUS
62
5
10
2.315889
20
89.949954
40
0.300000
100
AcDbArc
50
-89.999999
51
0.000000
0
POLYLINE
5
1c6
100
AcDbEntity
8
1
6
CONTINUOUS
62
5
100
AcDb2dPolyline
66
1
10
0.0
20
0.0
30
0.0
70
0
0
VERTEX
5
1c7
100
AcDbEntity
8
1
100
AcDbVertex
100
AcDb2dVertex
62
5
10
2.315889
20
89.649954
0
VERTEX
5
1c8
100
AcDbEntity
8
1
100
AcDbVertex
100
AcDb2dVertex
62
5
10
1.120952
20
89.649954
0
VERTEX
5
1c9
100
AcDbEntity
8
1
100
AcDbVertex
100
AcDb2dVertex
62
5
10
1.120952
20
87.899954
0
SEQEND
5
1ca
100
AcDbEntity
8
1
0
ARC
5
1cb
100
AcDbEntity
8
1
100
AcDbCircle
6
CONTINUOUS
62
5
10
2.280118
20
89.249954
40
0.300000
100
AcDbArc
50
-89.999999
51
-2.925299
0
LINE
5
1cc
100
AcDbEntity
8
1
100
AcDbLine
6
CONTINUOUS
62
5
10
2.579728
20
89.234644
11
2.615498
21
89.934644
0
LINE
5
1cd
100
AcDbEntity
8
1
100
AcDbLine
6
CONTINUOUS
62
5
10
1.120952
20
88.949954
11
2.280118
21
88.949954
0
LINE
5
1ce
100
AcDbEntity
8
1
100
AcDbLine
6
CONTINUOUS
62
5
10
-4.462225
20
90.499954
11
-4.462225
21
88.999954
0
LINE
5
1cf
100
AcDbEntity
8
1
100
AcDbLine
6
CONTINUOUS
62
5
10
10.586497
20
89.399954
11
10.086497
21
89.099954
0
ARC
5
1d0
100
AcDbEntity
8
1
100
AcDbCircle
6
CONTINUOUS
62
5
10
11.086497
20
83.699954
40
0.500000
100
AcDbArc
50
-89.999999
51
-0.000000
0
LINE
5
1d1
100
AcDbEntity
8
1
100
AcDbLine
6
CONTINUOUS
62
5
10
11.586497
20
83.699954
11
11.586497
21
104.299954
0
ARC
5
1d2
100
AcDbEntity
8
1
100
AcDbCircle
6
CONTINUOUS
62
5
10
11.086497
20
104.299954
40
0.500000
100
AcDbArc
50
-0.000000
51
89.999999
0
LINE
5
1d3
100
AcDbEntity
8
1
100
AcDbLine
6
CONTINUOUS
62
5
10
11.086497
20
104.799954
11
10.086497
21
104.799954
0
LINE
5
1d4
100
AcDbEntity
8
1
100
AcDbLine
6
CONTINUOUS
62
5
10
10.086497
20
83.199954
11
11.086497
21
83.199954
0
LINE
5
1d5
100
AcDbEntity
8
1
100
AcDbLine
6
CONTINUOUS
62
5
10
-1.166747
20
98.999954
11
-1.166747
21
88.999954
0
POLYLINE
5
1d6
100
AcDbEntity
8
1
6
CONTINUOUS
62
5
100
AcDb2dPolyline
66
1
10
0.0
20
0.0
30
0.0
70
0
0
VERTEX
5
1d7
100
AcDbEntity
8
1
100
AcDbVertex
100
AcDb2dVertex
62
5
10
-3.029244
20
90.355126
0
VERTEX
5
1d8
100
AcDbEntity
8
1
100
AcDbVertex
100
AcDb2dVertex
62
5
10
-3.029244
20
88.999954
0
VERTEX
5
1d9
100
AcDbEntity
8
1
100
AcDbVertex
100
AcDb2dVertex
62
5
10
-0.848668
20
88.999954
0
VERTEX
5
1da
100
AcDbEntity
8
1
100
AcDbVertex
100
AcDb2dVertex
62
5
10
-0.848668
20
98.999954
0
VERTEX
5
1db
100
AcDbEntity
8
1
100
AcDbVertex
100
AcDb2dVertex
62
5
10
-3.029244
20
98.999954
0
VERTEX
5
1dc
100
AcDbEntity
8
1
100
AcDbVertex
100
AcDb2dVertex
62
5
10
-3.029244
20
97.644782
0
SEQEND
5
1dd
100
AcDbEntity
8
1
0
ARC
5
1de
100
AcDbEntity
8
1
100
AcDbCircle
6
CONTINUOUS
62
5
10
3.136497
20
90.949954
40
0.300000
100
AcDbArc
50
65.241368
51
179.999998
0
LINE
5
1df
100
AcDbEntity
8
1
100
AcDbLine
6
CONTINUOUS
62
5
10
2.836497
20
90.949954
11
2.836497
21
89.449954
0
ARC
5
1e0
100
AcDbEntity
8
1
100
AcDbCircle
6
CONTINUOUS
62
5
10
3.136497
20
89.449954
40
0.300000
100
AcDbArc
50
179.999998
51
-89.999999
0
LINE
5
1e1
100
AcDbEntity
8
1
100
AcDbLine
6
CONTINUOUS
62
5
10
3.136497
20
89.149954
11
4.552264
21
89.149954
0
ARC
5
1e2
100
AcDbEntity
8
1
100
AcDbCircle
6
CONTINUOUS
62
5
10
4.552264
20
89.449954
40
0.300000
100
AcDbArc
50
-89.999999
51
-14.036243
0
LINE
5
1e3
100
AcDbEntity
8
1
100
AcDbLine
6
CONTINUOUS
62
5
10
4.843307
20
89.377194
11
5.156639
21
90.630524
0
ARC
5
1e4
100
AcDbEntity
8
1
100
AcDbCircle
6
CONTINUOUS
62
5
10
4.186497
20
90.873060
40
1.000000
100
AcDbArc
50
-14.036243
51
0.000000
0
LINE
5
1e5
100
AcDbEntity
8
1
100
AcDbLine
6
CONTINUOUS
62
5
10
5.186497
20
90.873060
11
5.186497
21
97.126849
0
ARC
5
1e6
100
AcDbEntity
8
1
100
AcDbCircle
6
CONTINUOUS
62
5
10
4.186497
20
97.126849
40
1.000000
100
AcDbArc
50
0.000000
51
14.036243
0
LINE
5
1e7
100
AcDbEntity
8
1
100
AcDbLine
6
CONTINUOUS
62
5
10
5.156639
20
97.369384
11
4.843307
21
98.622715
0
ARC
5
1e8
100
AcDbEntity
8
1
100
AcDbCircle
6
CONTINUOUS
62
5
10
4.552264
20
98.549954
40
0.300000
100
AcDbArc
50
14.036243
51
89.999999
0
LINE
5
1e9
100
AcDbEntity
8
1
100
AcDbLine
6
CONTINUOUS
62
5
10
4.552264
20
98.849954
11
3.136497
21
98.849954
0
ARC
5
1ea
100
AcDbEntity
8
1
100
AcDbCircle
6
CONTINUOUS
62
5
10
3.136497
20
98.549954
40
0.300000
100
AcDbArc
50
89.999999
51
179.999998
0
LINE
5
1eb
100
AcDbEntity
8
1
100
AcDbLine
6
CONTINUOUS
62
5
10
2.836497
20
98.549954
11
2.836497
21
97.049954
0
ARC
5
1ec
100
AcDbEntity
8
1
100
AcDbCircle
6
CONTINUOUS
62
5
10
3.136497
20
97.049954
40
0.300000
100
AcDbArc
50
-179.999998
51
-65.241368
0
LINE
5
1ed
100
AcDbEntity
8
1
100
AcDbLine
6
CONTINUOUS
62
5
10
3.262136
20
96.777530
11
4.286497
21
97.249954
0
LINE
5
1ee
100
AcDbEntity
8
1
100
AcDbLine
6
CONTINUOUS
62
5
10
4.286497
20
90.749954
11
3.262136
21
91.222378
0
LINE
5
1ef
100
AcDbEntity
8
1
100
AcDbLine
6
CONTINUOUS
62
5
10
2.836497
20
89.449954
11
2.836497
21
86.099954
0
LINE
5
1f0
100
AcDbEntity
8
1
100
AcDbLine
6
CONTINUOUS
62
5
10
2.836497
20
101.899954
11
2.836497
21
98.549954
0
ARC
5
1f1
100
AcDbEntity
8
1
100
AcDbCircle
6
CONTINUOUS
62
5
10
4.086497
20
103.499954
40
0.500000
100
AcDbArc
50
-0.000000
51
89.999999
0
LINE
5
1f2
100
AcDbEntity
8
1
100
AcDbLine
6
CONTINUOUS
62
5
10
4.086497
20
103.999954
11
3.336497
21
103.999954
0
ARC
5
1f3
100
AcDbEntity
8
1
100
AcDbCircle
6
CONTINUOUS
62
5
10
3.336497
20
103.499954
40
0.500000
100
AcDbArc
50
89.999999
51
179.999998
0
LINE
5
1f4
100
AcDbEntity
8
1
100
AcDbLine
6
CONTINUOUS
62
5
10
2.836497
20
103.499954
11
2.836497
21
101.899954
0
ARC
5
1f5
100
AcDbEntity
8
1
100
AcDbCircle
6
CONTINUOUS
62
5
10
3.136497
20
101.899954
40
0.300000
100
AcDbArc
50
179.999998
51
-89.999999
0
POLYLINE
5
1f6
100
AcDbEntity
8
1
6
CONTINUOUS
62
5
100
AcDb2dPolyline
66
1
10
0.0
20
0.0
30
0.0
70
0
0
VERTEX
5
1f7
100
AcDbEntity
8
1
100
AcDbVertex
100
AcDb2dVertex
62
5
10
3.136497
20
101.599954
0
VERTEX
5
1f8
100
AcDbEntity
8
1
100
AcDbVertex
100
AcDb2dVertex
62
5
10
3.586497
20
101.599954
0
VERTEX
5
1f9
100
AcDbEntity
8
1
100
AcDbVertex
100
AcDb2dVertex
62
5
10
3.586497
20
98.849954
0
SEQEND
5
1fa
100
AcDbEntity
8
1
0
POLYLINE
5
1fb
100
AcDbEntity
8
1
6
CONTINUOUS
62
5
100
AcDb2dPolyline
66
1
10
0.0
20
0.0
30
0.0
70
0
0
VERTEX
5
1fc
100
AcDbEntity
8
1
100
AcDbVertex
100
AcDb2dVertex
62
5
10
3.586497
20
89.149954
0
VERTEX
5
1fd
100
AcDbEntity
8
1
100
AcDbVertex
100
AcDb2dVertex
62
5
10
3.586497
20
86.399954
0
VERTEX
5
1fe
100
AcDbEntity
8
1
100
AcDbVertex
100
AcDb2dVertex
62
5
10
3.136497
20
86.399954
0
SEQEND
5
1ff
100
AcDbEntity
8
1
0
ARC
5
200
100
AcDbEntity
8
1
100
AcDbCircle
6
CONTINUOUS
62
5
10
3.136497
20
86.099954
40
0.300000
100
AcDbArc
50
89.999999
51
-179.999998
0
LINE
5
201
100
AcDbEntity
8
1
100
AcDbLine
6
CONTINUOUS
62
5
10
2.836497
20
86.099954
11
2.836497
21
84.499954
0
ARC
5
202
100
AcDbEntity
8
1
100
AcDbCircle
6
CONTINUOUS
62
5
10
3.336497
20
84.499954
40
0.500000
100
AcDbArc
50
179.999998
51
-89.999999
0
LINE
5
203
100
AcDbEntity
8
1
100
AcDbLine
6
CONTINUOUS
62
5
10
3.336497
20
83.999954
11
4.086497
21
83.999954
0
ARC
5
204
100
AcDbEntity
8
1
100
AcDbCircle
6
CONTINUOUS
62
5
10
4.086497
20
84.499954
40
0.500000
100
AcDbArc
50
-89.999999
51
-0.000000
0
LINE
5
205
100
AcDbEntity
8
1
100
AcDbLine
6
CONTINUOUS
62
5
10
4.586497
20
84.499954
11
4.586497
21
89.151914
0
LINE
5
206
100
AcDbEntity
8
1
100
AcDbLine
6
CONTINUOUS
62
5
10
4.586497
20
98.847995
11
4.586497
21
103.499954
0
ARC
5
207
100
AcDbEntity
8
1
100
AcDbCircle
6
CONTINUOUS
62
5
10
10.586497
20
83.649954
40
1.000000
100
AcDbArc
50
-89.999999
51
-0.000000
0
LINE
5
208
100
AcDbEntity
8
1
100
AcDbLine
6
CONTINUOUS
62
5
10
11.586497
20
83.649954
11
11.586497
21
83.699954
0
LINE
5
209
100
AcDbEntity
8
1
100
AcDbLine
6
CONTINUOUS
62
5
10
11.586497
20
104.299954
11
11.586497
21
104.349954
0
ARC
5
20a
100
AcDbEntity
8
1
100
AcDbCircle
6
CONTINUOUS
62
5
10
10.586497
20
104.349954
40
1.000000
100
AcDbArc
50
0.000000
51
89.999999
0
LINE
5
20b
100
AcDbEntity
8
1
100
AcDbLine
6
CONTINUOUS
62
5
10
10.586497
20
105.349954
11
7.586497
21
105.349954
0
LINE
5
20c
100
AcDbEntity
8
1
100
AcDbLine
6
CONTINUOUS
62
5
10
7.586497
20
82.649954
11
10.586497
21
82.649954
0
ARC
5
20d
100
AcDbEntity
8
1
100
AcDbCircle
6
CONTINUOUS
62
5
10
7.586497
20
83.149954
40
0.500000
100
AcDbArc
50
-89.999999
51
0.000000
0
POLYLINE
5
20e
100
AcDbEntity
8
1
6
CONTINUOUS
62
5
100
AcDb2dPolyline
66
1
10
0.0
20
0.0
30
0.0
70
0
0
VERTEX
5
20f
100
AcDbEntity
8
1
100
AcDbVertex
100
AcDb2dVertex
62
5
10
8.086497
20
83.149954
0
VERTEX
5
210
100
AcDbEntity
8
1
100
AcDbVertex
100
AcDb2dVertex
62
5
10
8.086497
20
83.199954
0
VERTEX
5
211
100
AcDbEntity
8
1
100
AcDbVertex
100
AcDb2dVertex
62
5
10
10.086497
20
83.199954
0
SEQEND
5
212
100
AcDbEntity
8
1
0
ARC
5
213
100
AcDbEntity
8
1
100
AcDbCircle
6
CONTINUOUS
62
5
10
10.086497
20
83.699954
40
0.500000
100
AcDbArc
50
-89.999999
51
-0.000000
0
POLYLINE
5
214
100
AcDbEntity
8
1
6
CONTINUOUS
62
5
100
AcDb2dPolyline
66
1
10
0.0
20
0.0
30
0.0
70
0
0
VERTEX
5
215
100
AcDbEntity
8
1
100
AcDbVertex
100
AcDb2dVertex
62
5
10
10.586497
20
83.699954
0
VERTEX
5
216
100
AcDbEntity
8
1
100
AcDbVertex
100
AcDb2dVertex
62
5
10
10.586497
20
85.999954
0
VERTEX
5
217
100
AcDbEntity
8
1
100
AcDbVertex
100
AcDb2dVertex
62
5
10
11.286497
20
85.999954
0
SEQEND
5
218
100
AcDbEntity
8
1
0
ARC
5
219
100
AcDbEntity
8
1
100
AcDbCircle
6
CONTINUOUS
62
5
10
11.286497
20
86.299954
40
0.300000
100
AcDbArc
50
-89.999999
51
0.000000
0
LINE
5
21a
100
AcDbEntity
8
1
100
AcDbLine
6
CONTINUOUS
62
5
10
11.586497
20
86.299954
11
11.586497
21
89.099954
0
ARC
5
21b
100
AcDbEntity
8
1
100
AcDbCircle
6
CONTINUOUS
62
5
10
11.286497
20
89.099954
40
0.300000
100
AcDbArc
50
-0.000000
51
89.999999
0
POLYLINE
5
21c
100
AcDbEntity
8
1
6
CONTINUOUS
62
5
100
AcDb2dPolyline
66
1
10
0.0
20
0.0
30
0.0
70
0
0
VERTEX
5
21d
100
AcDbEntity
8
1
100
AcDbVertex
100
AcDb2dVertex
62
5
10
11.286497
20
89.399954
0
VERTEX
5
21e
100
AcDbEntity
8
1
100
AcDbVertex
100
AcDb2dVertex
62
5
10
10.586497
20
89.399954
0
VERTEX
5
21f
100
AcDbEntity
8
1
100
AcDbVertex
100
AcDb2dVertex
62
5
10
10.586497
20
98.599954
0
VERTEX
5
220
100
AcDbEntity
8
1
100
AcDbVertex
100
AcDb2dVertex
62
5
10
11.286497
20
98.599954
0
SEQEND
5
221
100
AcDbEntity
8
1
0
ARC
5
222
100
AcDbEntity
8
1
100
AcDbCircle
6
CONTINUOUS
62
5
10
11.286497
20
98.899954
40
0.300000
100
AcDbArc
50
-89.999999
51
-0.000000
0
LINE
5
223
100
AcDbEntity
8
1
100
AcDbLine
6
CONTINUOUS
62
5
10
11.586497
20
98.899954
11
11.586497
21
101.699954
0
ARC
5
224
100
AcDbEntity
8
1
100
AcDbCircle
6
CONTINUOUS
62
5
10
11.286497
20
101.699954
40
0.300000
100
AcDbArc
50
0.000000
51
89.999999
0
POLYLINE
5
225
100
AcDbEntity
8
1
6
CONTINUOUS
62
5
100
AcDb2dPolyline
66
1
10
0.0
20
0.0
30
0.0
70
0
0
VERTEX
5
226
100
AcDbEntity
8
1
100
AcDbVertex
100
AcDb2dVertex
62
5
10
11.286497
20
101.999954
0
VERTEX
5
227
100
AcDbEntity
8
1
100
AcDbVertex
100
AcDb2dVertex
62
5
10
10.586497
20
101.999954
0
VERTEX
5
228
100
AcDbEntity
8
1
100
AcDbVertex
100
AcDb2dVertex
62
5
10
10.586497
20
104.299954
0
SEQEND
5
229
100
AcDbEntity
8
1
0
ARC
5
22a
100
AcDbEntity
8
1
100
AcDbCircle
6
CONTINUOUS
62
5
10
10.086497
20
104.299954
40
0.500000
100
AcDbArc
50
0.000000
51
89.999999
0
POLYLINE
5
22b
100
AcDbEntity
8
1
6
CONTINUOUS
62
5
100
AcDb2dPolyline
66
1
10
0.0
20
0.0
30
0.0
70
0
0
VERTEX
5
22c
100
AcDbEntity
8
1
100
AcDbVertex
100
AcDb2dVertex
62
5
10
10.086497
20
104.799954
0
VERTEX
5
22d
100
AcDbEntity
8
1
100
AcDbVertex
100
AcDb2dVertex
62
5
10
8.086497
20
104.799954
0
VERTEX
5
22e
100
AcDbEntity
8
1
100
AcDbVertex
100
AcDb2dVertex
62
5
10
8.086497
20
104.849954
0
SEQEND
5
22f
100
AcDbEntity
8
1
0
ARC
5
230
100
AcDbEntity
8
1
100
AcDbCircle
6
CONTINUOUS
62
5
10
7.586497
20
104.849954
40
0.500000
100
AcDbArc
50
-0.000000
51
89.999999
0
LINE
5
231
100
AcDbEntity
8
1
100
AcDbLine
6
CONTINUOUS
62
5
10
7.586497
20
105.349954
11
3.886497
21
105.349954
0
LINE
5
232
100
AcDbEntity
8
1
100
AcDbLine
6
CONTINUOUS
62
5
10
3.886497
20
82.649954
11
7.586497
21
82.649954
0
LINE
5
233
100
AcDbEntity
8
1
100
AcDbLine
6
CONTINUOUS
62
5
10
-7.913503
20
105.349954
11
39.086497
21
105.349954
0
LINE
5
234
100
AcDbEntity
8
1
100
AcDbLine
6
CONTINUOUS
62
5
10
-7.913503
20
82.649954
11
39.086497
21
82.649954
0
POLYLINE
5
235
100
AcDbEntity
8
1
6
CONTINUOUS
62
5
100
AcDb2dPolyline
66
1
10
0.0
20
0.0
30
0.0
70
0
0
VERTEX
5
236
100
AcDbEntity
8
1
100
AcDbVertex
100
AcDb2dVertex
62
5
10
37.086497
20
136.599954
0
VERTEX
5
237
100
AcDbEntity
8
1
100
AcDbVertex
100
AcDb2dVertex
62
5
10
37.086497
20
105.349954
0
VERTEX
5
238
100
AcDbEntity
8
1
100
AcDbVertex
100
AcDb2dVertex
62
5
10
36.086497
20
111.349954
0
VERTEX
5
239
100
AcDbEntity
8
1
100
AcDbVertex
100
AcDb2dVertex
62
5
10
38.086497
20
111.349954
0
VERTEX
5
23a
100
AcDbEntity
8
1
100
AcDbVertex
100
AcDb2dVertex
62
5
10
37.086497
20
105.349954
0
VERTEX
5
23b
100
AcDbEntity
8
1
100
AcDbVertex
100
AcDb2dVertex
62
5
10
36.586497
20
111.349954
0
VERTEX
5
23c
100
AcDbEntity
8
1
100
AcDbVertex
100
AcDb2dVertex
62
5
10
37.586497
20
111.349954
0
VERTEX
5
23d
100
AcDbEntity
8
1
100
AcDbVertex
100
AcDb2dVertex
62
5
10
37.086497
20
105.349954
0
VERTEX
5
23e
100
AcDbEntity
8
1
100
AcDbVertex
100
AcDb2dVertex
62
5
10
36.336497
20
111.349954
0
SEQEND
5
23f
100
AcDbEntity
8
1
0
POLYLINE
5
240
100
AcDbEntity
8
1
6
CONTINUOUS
62
5
100
AcDb2dPolyline
66
1
10
0.0
20
0.0
30
0.0
70
0
0
VERTEX
5
241
100
AcDbEntity
8
1
100
AcDbVertex
100
AcDb2dVertex
62
5
10
36.836497
20
111.349954
0
VERTEX
5
242
100
AcDbEntity
8
1
100
AcDbVertex
100
AcDb2dVertex
62
5
10
37.086497
20
105.349954
0
VERTEX
5
243
100
AcDbEntity
8
1
100
AcDbVertex
100
AcDb2dVertex
62
5
10
37.336497
20
111.349954
0
SEQEND
5
244
100
AcDbEntity
8
1
0
LINE
5
245
100
AcDbEntity
8
1
100
AcDbLine
6
CONTINUOUS
62
5
10
37.836497
20
111.349954
11
37.086497
21
105.349954
0
LINE
5
246
100
AcDbEntity
8
1
100
AcDbLine
6
CONTINUOUS
62
5
10
37.086497
20
82.649954
11
37.086497
21
105.349954
0
POLYLINE
5
247
100
AcDbEntity
8
1
6
CONTINUOUS
62
5
100
AcDb2dPolyline
66
1
10
0.0
20
0.0
30
0.0
70
0
0
VERTEX
5
248
100
AcDbEntity
8
1
100
AcDbVertex
100
AcDb2dVertex
62
5
10
37.086497
20
73.649954
0
VERTEX
5
249
100
AcDbEntity
8
1
100
AcDbVertex
100
AcDb2dVertex
62
5
10
37.086497
20
82.649954
0
VERTEX
5
24a
100
AcDbEntity
8
1
100
AcDbVertex
100
AcDb2dVertex
62
5
10
38.086497
20
76.649954
0
VERTEX
5
24b
100
AcDbEntity
8
1
100
AcDbVertex
100
AcDb2dVertex
62
5
10
36.086497
20
76.649954
0
VERTEX
5
24c
100
AcDbEntity
8
1
100
AcDbVertex
100
AcDb2dVertex
62
5
10
37.086497
20
82.649954
0
VERTEX
5
24d
100
AcDbEntity
8
1
100
AcDbVertex
100
AcDb2dVertex
62
5
10
37.586497
20
76.649954
0
VERTEX
5
24e
100
AcDbEntity
8
1
100
AcDbVertex
100
AcDb2dVertex
62
5
10
36.586497
20
76.649954
0
VERTEX
5
24f
100
AcDbEntity
8
1
100
AcDbVertex
100
AcDb2dVertex
62
5
10
37.086497
20
82.649954
0
VERTEX
5
250
100
AcDbEntity
8
1
100
AcDbVertex
100
AcDb2dVertex
62
5
10
37.836497
20
76.649954
0
SEQEND
5
251
100
AcDbEntity
8
1
0
POLYLINE
5
252
100
AcDbEntity
8
1
6
CONTINUOUS
62
5
100
AcDb2dPolyline
66
1
10
0.0
20
0.0
30
0.0
70
0
0
VERTEX
5
253
100
AcDbEntity
8
1
100
AcDbVertex
100
AcDb2dVertex
62
5
10
37.336497
20
76.649954
0
VERTEX
5
254
100
AcDbEntity
8
1
100
AcDbVertex
100
AcDb2dVertex
62
5
10
37.086497
20
82.649954
0
VERTEX
5
255
100
AcDbEntity
8
1
100
AcDbVertex
100
AcDb2dVertex
62
5
10
36.836497
20
76.649954
0
SEQEND
5
256
100
AcDbEntity
8
1
0
LINE
5
257
100
AcDbEntity
8
1
100
AcDbLine
6
CONTINUOUS
62
5
10
36.336497
20
76.649954
11
37.086497
21
82.649954
0
POLYLINE
5
258
100
AcDbEntity
8
1
6
CONTINUOUS
62
5
100
AcDb2dPolyline
66
1
10
0.0
20
0.0
30
0.0
70
0
0
VERTEX
5
259
100
AcDbEntity
8
1
100
AcDbVertex
100
AcDb2dVertex
62
5
10
-27.663503
20
223.062454
0
VERTEX
5
25a
100
AcDbEntity
8
1
100
AcDbVertex
100
AcDb2dVertex
62
5
10
-22.913503
20
223.062454
0
VERTEX
5
25b
100
AcDbEntity
8
1
100
AcDbVertex
100
AcDb2dVertex
62
5
10
-22.913503
20
221.499954
0
VERTEX
5
25c
100
AcDbEntity
8
1
100
AcDbVertex
100
AcDb2dVertex
62
5
10
-23.413503
20
219.312454
0
VERTEX
5
25d
100
AcDbEntity
8
1
100
AcDbVertex
100
AcDb2dVertex
62
5
10
-23.913503
20
218.374954
0
VERTEX
5
25e
100
AcDbEntity
8
1
100
AcDbVertex
100
AcDb2dVertex
62
5
10
-24.663503
20
218.374954
0
SEQEND
5
25f
100
AcDbEntity
8
1
0
POLYLINE
5
260
100
AcDbEntity
8
1
6
CONTINUOUS
62
5
100
AcDb2dPolyline
66
1
10
0.0
20
0.0
30
0.0
70
0
0
VERTEX
5
261
100
AcDbEntity
8
1
100
AcDbVertex
100
AcDb2dVertex
62
5
10
-24.913503
20
224.937454
0
VERTEX
5
262
100
AcDbEntity
8
1
100
AcDbVertex
100
AcDb2dVertex
62
5
10
-25.413503
20
222.124954
0
VERTEX
5
263
100
AcDbEntity
8
1
100
AcDbVertex
100
AcDb2dVertex
62
5
10
-25.663503
20
220.874954
0
VERTEX
5
264
100
AcDbEntity
8
1
100
AcDbVertex
100
AcDb2dVertex
62
5
10
-26.163503
20
219.937454
0
VERTEX
5
265
100
AcDbEntity
8
1
100
AcDbVertex
100
AcDb2dVertex
62
5
10
-27.163503
20
218.687454
0
SEQEND
5
266
100
AcDbEntity
8
1
0
LINE
5
267
100
AcDbEntity
8
1
100
AcDbLine
6
CONTINUOUS
62
5
10
-23.163503
20
224.937454
11
-22.413503
21
223.999954
0
LINE
5
268
100
AcDbEntity
8
1
100
AcDbLine
6
CONTINUOUS
62
5
10
-22.413503
20
225.562454
11
-21.663503
21
224.624954
0
POLYLINE
5
269
100
AcDbEntity
8
1
6
CONTINUOUS
62
5
100
AcDb2dPolyline
66
1
10
0.0
20
0.0
30
0.0
70
0
0
VERTEX
5
26a
100
AcDbEntity
8
1
100
AcDbVertex
100
AcDb2dVertex
62
5
10
-14.663503
20
224.937454
0
VERTEX
5
26b
100
AcDbEntity
8
1
100
AcDbVertex
100
AcDb2dVertex
62
5
10
-16.663503
20
222.437454
0
VERTEX
5
26c
100
AcDbEntity
8
1
100
AcDbVertex
100
AcDb2dVertex
62
5
10
-18.913503
20
220.874954
0
SEQEND
5
26d
100
AcDbEntity
8
1
0
LINE
5
26e
100
AcDbEntity
8
1
100
AcDbLine
6
CONTINUOUS
62
5
10
-16.163503
20
223.062454
11
-16.163503
21
217.749954
0
POLYLINE
5
26f
100
AcDbEntity
8
1
6
CONTINUOUS
62
5
100
AcDb2dPolyline
66
1
10
0.0
20
0.0
30
0.0
70
0
0
VERTEX
5
270
100
AcDbEntity
8
1
100
AcDbVertex
100
AcDb2dVertex
62
5
10
-47.413503
20
223.374954
0
VERTEX
5
271
100
AcDbEntity
8
1
100
AcDbVertex
100
AcDb2dVertex
62
5
10
-47.163503
20
224.624954
0
VERTEX
5
272
100
AcDbEntity
8
1
100
AcDbVertex
100
AcDb2dVertex
62
5
10
-46.663503
20
225.249954
0
VERTEX
5
273
100
AcDbEntity
8
1
100
AcDbVertex
100
AcDb2dVertex
62
5
10
-45.913503
20
225.249954
0
VERTEX
5
274
100
AcDbEntity
8
1
100
AcDbVertex
100
AcDb2dVertex
62
5
10
-45.413503
20
224.937454
0
VERTEX
5
275
100
AcDbEntity
8
1
100
AcDbVertex
100
AcDb2dVertex
62
5
10
-45.163503
20
223.999954
0
VERTEX
5
276
100
AcDbEntity
8
1
100
AcDbVertex
100
AcDb2dVertex
62
5
10
-45.163503
20
222.749954
0
VERTEX
5
277
100
AcDbEntity
8
1
100
AcDbVertex
100
AcDb2dVertex
62
5
10
-45.413503
20
222.124954
0
VERTEX
5
278
100
AcDbEntity
8
1
100
AcDbVertex
100
AcDb2dVertex
62
5
10
-45.913503
20
221.499954
0
VERTEX
5
279
100
AcDbEntity
8
1
100
AcDbVertex
100
AcDb2dVertex
62
5
10
-46.663503
20
221.499954
0
SEQEND
5
27a
100
AcDbEntity
8
1
0
POLYLINE
5
27b
100
AcDbEntity
8
1
6
CONTINUOUS
62
5
100
AcDb2dPolyline
66
1
10
0.0
20
0.0
30
0.0
70
0
0
VERTEX
5
27c
100
AcDbEntity
8
1
100
AcDbVertex
100
AcDb2dVertex
62
5
10
-45.913503
20
221.499954
0
VERTEX
5
27d
100
AcDbEntity
8
1
100
AcDbVertex
100
AcDb2dVertex
62
5
10
-45.163503
20
220.874954
0
VERTEX
5
27e
100
AcDbEntity
8
1
100
AcDbVertex
100
AcDb2dVertex
62
5
10
-44.913503
20
219.937454
0
VERTEX
5
27f
100
AcDbEntity
8
1
100
AcDbVertex
100
AcDb2dVertex
62
5
10
-44.913503
20
218.999954
0
VERTEX
5
280
100
AcDbEntity
8
1
100
AcDbVertex
100
AcDb2dVertex
62
5
10
-45.163503
20
218.374954
0
VERTEX
5
281
100
AcDbEntity
8
1
100
AcDbVertex
100
AcDb2dVertex
62
5
10
-45.913503
20
217.749954
0
VERTEX
5
282
100
AcDbEntity
8
1
100
AcDbVertex
100
AcDb2dVertex
62
5
10
-46.663503
20
217.749954
0
VERTEX
5
283
100
AcDbEntity
8
1
100
AcDbVertex
100
AcDb2dVertex
62
5
10
-47.163503
20
218.062454
0
VERTEX
5
284
100
AcDbEntity
8
1
100
AcDbVertex
100
AcDb2dVertex
62
5
10
-47.663503
20
218.999954
0
SEQEND
5
285
100
AcDbEntity
8
1
0
POLYLINE
5
286
100
AcDbEntity
8
1
6
CONTINUOUS
62
5
100
AcDb2dPolyline
66
1
10
0.0
20
0.0
30
0.0
70
1
0
VERTEX
5
287
100
AcDbEntity
8
1
100
AcDbVertex
100
AcDb2dVertex
62
5
10
-43.413503
20
225.562454
0
VERTEX
5
288
100
AcDbEntity
8
1
100
AcDbVertex
100
AcDb2dVertex
62
5
10
-43.413503
20
222.749954
0
VERTEX
5
289
100
AcDbEntity
8
1
100
AcDbVertex
100
AcDb2dVertex
62
5
10
-41.413503
20
222.749954
0
VERTEX
5
28a
100
AcDbEntity
8
1
100
AcDbVertex
100
AcDb2dVertex
62
5
10
-41.413503
20
225.562454
0
VERTEX
5
28b
100
AcDbEntity
8
1
100
AcDbVertex
100
AcDb2dVertex
62
5
10
-43.413503
20
225.562454
0
SEQEND
5
28c
100
AcDbEntity
8
1
0
LINE
5
28d
100
AcDbEntity
8
1
100
AcDbLine
6
CONTINUOUS
62
5
10
-42.413503
20
222.749954
11
-42.413503
21
218.062454
0
LINE
5
28e
100
AcDbEntity
8
1
100
AcDbLine
6
CONTINUOUS
62
5
10
-42.413503
20
220.874954
11
-41.413503
21
220.874954
0
LINE
5
28f
100
AcDbEntity
8
1
100
AcDbLine
6
CONTINUOUS
62
5
10
-43.413503
20
221.187454
11
-43.413503
21
217.749954
0
LINE
5
290
100
AcDbEntity
8
1
100
AcDbLine
6
CONTINUOUS
62
5
10
-43.913503
20
217.437454
11
-41.163503
21
218.374954
0
POLYLINE
5
291
100
AcDbEntity
8
1
6
CONTINUOUS
62
5
100
AcDb2dPolyline
66
1
10
0.0
20
0.0
30
0.0
70
0
0
VERTEX
5
292
100
AcDbEntity
8
1
100
AcDbVertex
100
AcDb2dVertex
62
5
10
-39.413503
20
225.874954
0
VERTEX
5
293
100
AcDbEntity
8
1
100
AcDbVertex
100
AcDb2dVertex
62
5
10
-39.663503
20
224.937454
0
VERTEX
5
294
100
AcDbEntity
8
1
100
AcDbVertex
100
AcDb2dVertex
62
5
10
-40.163503
20
223.999954
0
VERTEX
5
295
100
AcDbEntity
8
1
100
AcDbVertex
100
AcDb2dVertex
62
5
10
-40.913503
20
223.062454
0
SEQEND
5
296
100
AcDbEntity
8
1
0
POLYLINE
5
297
100
AcDbEntity
8
1
6
CONTINUOUS
62
5
100
AcDb2dPolyline
66
1
10
0.0
20
0.0
30
0.0
70
0
0
VERTEX
5
298
100
AcDbEntity
8
1
100
AcDbVertex
100
AcDb2dVertex
62
5
10
-39.663503
20
224.937454
0
VERTEX
5
299
100
AcDbEntity
8
1
100
AcDbVertex
100
AcDb2dVertex
62
5
10
-37.663503
20
224.937454
0
VERTEX
5
29a
100
AcDbEntity
8
1
100
AcDbVertex
100
AcDb2dVertex
62
5
10
-38.413503
20
223.062454
0
VERTEX
5
29b
100
AcDbEntity
8
1
100
AcDbVertex
100
AcDb2dVertex
62
5
10
-39.163503
20
221.812454
0
VERTEX
5
29c
100
AcDbEntity
8
1
100
AcDbVertex
100
AcDb2dVertex
62
5
10
-39.913503
20
220.874954
0
VERTEX
5
29d
100
AcDbEntity
8
1
100
AcDbVertex
100
AcDb2dVertex
62
5
10
-40.913503
20
219.937454
0
SEQEND
5
29e
100
AcDbEntity
8
1
0
POLYLINE
5
29f
100
AcDbEntity
8
1
6
CONTINUOUS
62
5
100
AcDb2dPolyline
66
1
10
0.0
20
0.0
30
0.0
70
0
0
VERTEX
5
2a0
100
AcDbEntity
8
1
100
AcDbVertex
100
AcDb2dVertex
62
5
10
-39.913503
20
224.312454
0
VERTEX
5
2a1
100
AcDbEntity
8
1
100
AcDbVertex
100
AcDb2dVertex
62
5
10
-39.163503
20
223.062454
0
VERTEX
5
2a2
100
AcDbEntity
8
1
100
AcDbVertex
100
AcDb2dVertex
62
5
10
-38.163503
20
221.812454
0
VERTEX
5
2a3
100
AcDbEntity
8
1
100
AcDbVertex
100
AcDb2dVertex
62
5
10
-36.913503
20
220.562454
0
SEQEND
5
2a4
100
AcDbEntity
8
1
0
POLYLINE
5
2a5
100
AcDbEntity
8
1
6
CONTINUOUS
62
5
100
AcDb2dPolyline
66
1
10
0.0
20
0.0
30
0.0
70
1
0
VERTEX
5
2a6
100
AcDbEntity
8
1
100
AcDbVertex
100
AcDb2dVertex
62
5
10
-40.163503
20
220.562454
0
VERTEX
5
2a7
100
AcDbEntity
8
1
100
AcDbVertex
100
AcDb2dVertex
62
5
10
-40.163503
20
217.437454
0
VERTEX
5
2a8
100
AcDbEntity
8
1
100
AcDbVertex
100
AcDb2dVertex
62
5
10
-37.413503
20
217.437454
0
VERTEX
5
2a9
100
AcDbEntity
8
1
100
AcDbVertex
100
AcDb2dVertex
62
5
10
-37.413503
20
220.562454
0
VERTEX
5
2aa
100
AcDbEntity
8
1
100
AcDbVertex
100
AcDb2dVertex
62
5
10
-40.163503
20
220.562454
0
SEQEND
5
2ab
100
AcDbEntity
8
1
0
POLYLINE
5
2ac
100
AcDbEntity
8
1
6
CONTINUOUS
62
5
100
AcDb2dPolyline
66
1
10
0.0
20
0.0
30
0.0
70
0
0
VERTEX
5
2ad
100
AcDbEntity
8
1
100
AcDbVertex
100
AcDb2dVertex
62
5
10
-43.913503
20
233.249954
0
VERTEX
5
2ae
100
AcDbEntity
8
1
100
AcDbVertex
100
AcDb2dVertex
62
5
10
-44.413503
20
234.249954
0
VERTEX
5
2af
100
AcDbEntity
8
1
100
AcDbVertex
100
AcDb2dVertex
62
5
10
-45.163503
20
234.499954
0
VERTEX
5
2b0
100
AcDbEntity
8
1
100
AcDbVertex
100
AcDb2dVertex
62
5
10
-45.663503
20
234.499954
0
VERTEX
5
2b1
100
AcDbEntity
8
1
100
AcDbVertex
100
AcDb2dVertex
62
5
10
-46.163503
20
234.249954
0
VERTEX
5
2b2
100
AcDbEntity
8
1
100
AcDbVertex
100
AcDb2dVertex
62
5
10
-46.663503
20
233.499954
0
VERTEX
5
2b3
100
AcDbEntity
8
1
100
AcDbVertex
100
AcDb2dVertex
62
5
10
-46.663503
20
232.749954
0
VERTEX
5
2b4
100
AcDbEntity
8
1
100
AcDbVertex
100
AcDb2dVertex
62
5
10
-46.163503
20
231.999954
0
VERTEX
5
2b5
100
AcDbEntity
8
1
100
AcDbVertex
100
AcDb2dVertex
62
5
10
-44.413503
20
230.999954
0
VERTEX
5
2b6
100
AcDbEntity
8
1
100
AcDbVertex
100
AcDb2dVertex
62
5
10
-43.913503
20
230.249954
0
VERTEX
5
2b7
100
AcDbEntity
8
1
100
AcDbVertex
100
AcDb2dVertex
62
5
10
-43.913503
20
229.499954
0
VERTEX
5
2b8
100
AcDbEntity
8
1
100
AcDbVertex
100
AcDb2dVertex
62
5
10
-44.413503
20
228.749954
0
VERTEX
5
2b9
100
AcDbEntity
8
1
100
AcDbVertex
100
AcDb2dVertex
62
5
10
-45.163503
20
228.499954
0
VERTEX
5
2ba
100
AcDbEntity
8
1
100
AcDbVertex
100
AcDb2dVertex
62
5
10
-45.663503
20
228.499954
0
VERTEX
5
2bb
100
AcDbEntity
8
1
100
AcDbVertex
100
AcDb2dVertex
62
5
10
-46.413503
20
228.999954
0
VERTEX
5
2bc
100
AcDbEntity
8
1
100
AcDbVertex
100
AcDb2dVertex
62
5
10
-46.663503
20
229.999954
0
SEQEND
5
2bd
100
AcDbEntity
8
1
0
POLYLINE
5
2be
100
AcDbEntity
8
1
6
CONTINUOUS
62
5
100
AcDb2dPolyline
66
1
10
0.0
20
0.0
30
0.0
70
0
0
VERTEX
5
2bf
100
AcDbEntity
8
1
100
AcDbVertex
100
AcDb2dVertex
62
5
10
-42.413503
20
234.499954
0
VERTEX
5
2c0
100
AcDbEntity
8
1
100
AcDbVertex
100
AcDb2dVertex
62
5
10
-42.413503
20
228.499954
0
VERTEX
5
2c1
100
AcDbEntity
8
1
100
AcDbVertex
100
AcDb2dVertex
62
5
10
-39.913503
20
228.499954
0
SEQEND
5
2c2
100
AcDbEntity
8
1
0
LINE
5
2c3
100
AcDbEntity
8
1
100
AcDbLine
6
CONTINUOUS
62
5
10
-37.913503
20
234.499954
11
-36.413503
21
234.499954
0
LINE
5
2c4
100
AcDbEntity
8
1
100
AcDbLine
6
CONTINUOUS
62
5
10
-37.163503
20
234.499954
11
-37.163503
21
228.499954
0
LINE
5
2c5
100
AcDbEntity
8
1
100
AcDbLine
6
CONTINUOUS
62
5
10
-37.913503
20
228.499954
11
-36.413503
21
228.499954
0
POLYLINE
5
2c6
100
AcDbEntity
8
1
6
CONTINUOUS
62
5
100
AcDb2dPolyline
66
1
10
0.0
20
0.0
30
0.0
70
0
0
VERTEX
5
2c7
100
AcDbEntity
8
1
100
AcDbVertex
100
AcDb2dVertex
62
5
10
-34.413503
20
228.499954
0
VERTEX
5
2c8
100
AcDbEntity
8
1
100
AcDbVertex
100
AcDb2dVertex
62
5
10
-34.413503
20
234.499954
0
VERTEX
5
2c9
100
AcDbEntity
8
1
100
AcDbVertex
100
AcDb2dVertex
62
5
10
-33.163503
20
228.499954
0
VERTEX
5
2ca
100
AcDbEntity
8
1
100
AcDbVertex
100
AcDb2dVertex
62
5
10
-31.913503
20
234.499954
0
VERTEX
5
2cb
100
AcDbEntity
8
1
100
AcDbVertex
100
AcDb2dVertex
62
5
10
-31.913503
20
228.499954
0
SEQEND
5
2cc
100
AcDbEntity
8
1
0
LINE
5
2cd
100
AcDbEntity
8
1
100
AcDbLine
6
CONTINUOUS
62
5
10
-62.413503
20
223.687454
11
-58.663503
21
224.312454
0
LINE
5
2ce
100
AcDbEntity
8
1
100
AcDbLine
6
CONTINUOUS
62
5
10
-63.663503
20
221.812454
11
-57.663503
21
221.812454
0
POLYLINE
5
2cf
100
AcDbEntity
8
1
6
CONTINUOUS
62
5
100
AcDb2dPolyline
66
1
10
0.0
20
0.0
30
0.0
70
0
0
VERTEX
5
2d0
100
AcDbEntity
8
1
100
AcDbVertex
100
AcDb2dVertex
62
5
10
-60.413503
20
223.999954
0
VERTEX
5
2d1
100
AcDbEntity
8
1
100
AcDbVertex
100
AcDb2dVertex
62
5
10
-60.413503
20
221.812454
0
VERTEX
5
2d2
100
AcDbEntity
8
1
100
AcDbVertex
100
AcDb2dVertex
62
5
10
-60.663503
20
220.249954
0
VERTEX
5
2d3
100
AcDbEntity
8
1
100
AcDbVertex
100
AcDb2dVertex
62
5
10
-61.413503
20
218.999954
0
VERTEX
5
2d4
100
AcDbEntity
8
1
100
AcDbVertex
100
AcDb2dVertex
62
5
10
-62.163503
20
218.062454
0
SEQEND
5
2d5
100
AcDbEntity
8
1
0
POLYLINE
5
2d6
100
AcDbEntity
8
1
6
CONTINUOUS
62
5
100
AcDb2dPolyline
66
1
10
0.0
20
0.0
30
0.0
70
0
0
VERTEX
5
2d7
100
AcDbEntity
8
1
100
AcDbVertex
100
AcDb2dVertex
62
5
10
-66.663503
20
234.499954
0
VERTEX
5
2d8
100
AcDbEntity
8
1
100
AcDbVertex
100
AcDb2dVertex
62
5
10
-65.913503
20
228.499954
0
VERTEX
5
2d9
100
AcDbEntity
8
1
100
AcDbVertex
100
AcDb2dVertex
62
5
10
-65.163503
20
234.499954
0
VERTEX
5
2da
100
AcDbEntity
8
1
100
AcDbVertex
100
AcDb2dVertex
62
5
10
-64.413503
20
228.499954
0
VERTEX
5
2db
100
AcDbEntity
8
1
100
AcDbVertex
100
AcDb2dVertex
62
5
10
-63.663503
20
234.499954
0
SEQEND
5
2dc
100
AcDbEntity
8
1
0
LINE
5
2dd
100
AcDbEntity
8
1
100
AcDbLine
6
CONTINUOUS
62
5
10
-61.913503
20
234.499954
11
-60.413503
21
234.499954
0
LINE
5
2de
100
AcDbEntity
8
1
100
AcDbLine
6
CONTINUOUS
62
5
10
-61.163503
20
234.499954
11
-61.163503
21
228.499954
0
LINE
5
2df
100
AcDbEntity
8
1
100
AcDbLine
6
CONTINUOUS
62
5
10
-61.913503
20
228.499954
11
-60.413503
21
228.499954
0
LINE
5
2e0
100
AcDbEntity
8
1
100
AcDbLine
6
CONTINUOUS
62
5
10
-58.413503
20
234.499954
11
-58.413503
21
228.499954
0
POLYLINE
5
2e1
100
AcDbEntity
8
1
6
CONTINUOUS
62
5
100
AcDb2dPolyline
66
1
10
0.0
20
0.0
30
0.0
70
0
0
VERTEX
5
2e2
100
AcDbEntity
8
1
100
AcDbVertex
100
AcDb2dVertex
62
5
10
-58.413503
20
234.499954
0
VERTEX
5
2e3
100
AcDbEntity
8
1
100
AcDbVertex
100
AcDb2dVertex
62
5
10
-57.163503
20
234.499954
0
VERTEX
5
2e4
100
AcDbEntity
8
1
100
AcDbVertex
100
AcDb2dVertex
62
5
10
-56.663503
20
234.249954
0
VERTEX
5
2e5
100
AcDbEntity
8
1
100
AcDbVertex
100
AcDb2dVertex
62
5
10
-56.163503
20
233.749954
0
VERTEX
5
2e6
100
AcDbEntity
8
1
100
AcDbVertex
100
AcDb2dVertex
62
5
10
-55.913503
20
232.749954
0
VERTEX
5
2e7
100
AcDbEntity
8
1
100
AcDbVertex
100
AcDb2dVertex
62
5
10
-55.913503
20
230.249954
0
VERTEX
5
2e8
100
AcDbEntity
8
1
100
AcDbVertex
100
AcDb2dVertex
62
5
10
-56.163503
20
229.249954
0
VERTEX
5
2e9
100
AcDbEntity
8
1
100
AcDbVertex
100
AcDb2dVertex
62
5
10
-56.663503
20
228.749954
0
VERTEX
5
2ea
100
AcDbEntity
8
1
100
AcDbVertex
100
AcDb2dVertex
62
5
10
-57.163503
20
228.499954
0
VERTEX
5
2eb
100
AcDbEntity
8
1
100
AcDbVertex
100
AcDb2dVertex
62
5
10
-58.413503
20
228.499954
0
SEQEND
5
2ec
100
AcDbEntity
8
1
0
POLYLINE
5
2ed
100
AcDbEntity
8
1
6
CONTINUOUS
62
5
100
AcDb2dPolyline
66
1
10
0.0
20
0.0
30
0.0
70
0
0
VERTEX
5
2ee
100
AcDbEntity
8
1
100
AcDbVertex
100
AcDb2dVertex
62
5
10
-51.913503
20
234.499954
0
VERTEX
5
2ef
100
AcDbEntity
8
1
100
AcDbVertex
100
AcDb2dVertex
62
5
10
-54.413503
20
234.499954
0
VERTEX
5
2f0
100
AcDbEntity
8
1
100
AcDbVertex
100
AcDb2dVertex
62
5
10
-54.413503
20
228.499954
0
VERTEX
5
2f1
100
AcDbEntity
8
1
100
AcDbVertex
100
AcDb2dVertex
62
5
10
-51.663503
20
228.499954
0
SEQEND
5
2f2
100
AcDbEntity
8
1
0
LINE
5
2f3
100
AcDbEntity
8
1
100
AcDbLine
6
CONTINUOUS
62
5
10
-54.413503
20
231.499954
11
-52.163503
21
231.499954
0
POLYLINE
5
2f4
100
AcDbEntity
8
1
6
CONTINUOUS
62
5
100
AcDb2dPolyline
66
1
10
0.0
20
0.0
30
0.0
70
0
0
VERTEX
5
2f5
100
AcDbEntity
8
1
100
AcDbVertex
100
AcDb2dVertex
62
5
10
-86.413503
20
223.374954
0
VERTEX
5
2f6
100
AcDbEntity
8
1
100
AcDbVertex
100
AcDb2dVertex
62
5
10
-83.163503
20
223.374954
0
VERTEX
5
2f7
100
AcDbEntity
8
1
100
AcDbVertex
100
AcDb2dVertex
62
5
10
-83.163503
20
223.062454
0
VERTEX
5
2f8
100
AcDbEntity
8
1
100
AcDbVertex
100
AcDb2dVertex
62
5
10
-83.663503
20
221.812454
0
VERTEX
5
2f9
100
AcDbEntity
8
1
100
AcDbVertex
100
AcDb2dVertex
62
5
10
-84.163503
20
220.874954
0
VERTEX
5
2fa
100
AcDbEntity
8
1
100
AcDbVertex
100
AcDb2dVertex
62
5
10
-85.163503
20
219.624954
0
VERTEX
5
2fb
100
AcDbEntity
8
1
100
AcDbVertex
100
AcDb2dVertex
62
5
10
-86.913503
20
218.062454
0
SEQEND
5
2fc
100
AcDbEntity
8
1
0
LINE
5
2fd
100
AcDbEntity
8
1
100
AcDbLine
6
CONTINUOUS
62
5
10
-84.163503
20
220.874954
11
-82.163503
21
218.062454
0
POLYLINE
5
2fe
100
AcDbEntity
8
1
6
CONTINUOUS
62
5
100
AcDb2dPolyline
66
1
10
0.0
20
0.0
30
0.0
70
0
0
VERTEX
5
2ff
100
AcDbEntity
8
1
100
AcDbVertex
100
AcDb2dVertex
62
5
10
-74.663503
20
224.937454
0
VERTEX
5
300
100
AcDbEntity
8
1
100
AcDbVertex
100
AcDb2dVertex
62
5
10
-76.663503
20
222.437454
0
VERTEX
5
301
100
AcDbEntity
8
1
100
AcDbVertex
100
AcDb2dVertex
62
5
10
-78.913503
20
220.874954
0
SEQEND
5
302
100
AcDbEntity
8
1
0
LINE
5
303
100
AcDbEntity
8
1
100
AcDbLine
6
CONTINUOUS
62
5
10
-76.163503
20
223.062454
11
-76.163503
21
217.749954
0
LINE
5
304
100
AcDbEntity
8
1
100
AcDbLine
6
CONTINUOUS
62
5
10
-83.913503
20
234.749954
11
-86.413503
21
228.249954
0
POLYLINE
5
305
100
AcDbEntity
8
1
6
CONTINUOUS
62
5
100
AcDb2dPolyline
66
1
10
0.0
20
0.0
30
0.0
70
0
0
VERTEX
5
306
100
AcDbEntity
8
1
100
AcDbVertex
100
AcDb2dVertex
62
5
10
-76.163503
20
234.499954
0
VERTEX
5
307
100
AcDbEntity
8
1
100
AcDbVertex
100
AcDb2dVertex
62
5
10
-76.163503
20
229.999954
0
VERTEX
5
308
100
AcDbEntity
8
1
100
AcDbVertex
100
AcDb2dVertex
62
5
10
-76.413503
20
228.999954
0
VERTEX
5
309
100
AcDbEntity
8
1
100
AcDbVertex
100
AcDb2dVertex
62
5
10
-76.913503
20
228.499954
0
VERTEX
5
30a
100
AcDbEntity
8
1
100
AcDbVertex
100
AcDb2dVertex
62
5
10
-77.663503
20
228.499954
0
VERTEX
5
30b
100
AcDbEntity
8
1
100
AcDbVertex
100
AcDb2dVertex
62
5
10
-78.163503
20
228.999954
0
VERTEX
5
30c
100
AcDbEntity
8
1
100
AcDbVertex
100
AcDb2dVertex
62
5
10
-78.413503
20
229.999954
0
SEQEND
5
30d
100
AcDbEntity
8
1
0
POLYLINE
5
30e
100
AcDbEntity
8
1
6
CONTINUOUS
62
5
100
AcDb2dPolyline
66
1
10
0.0
20
0.0
30
0.0
70
0
0
VERTEX
5
30f
100
AcDbEntity
8
1
100
AcDbVertex
100
AcDb2dVertex
62
5
10
-72.163503
20
231.499954
0
VERTEX
5
310
100
AcDbEntity
8
1
100
AcDbVertex
100
AcDb2dVertex
62
5
10
-71.663503
20
231.999954
0
VERTEX
5
311
100
AcDbEntity
8
1
100
AcDbVertex
100
AcDb2dVertex
62
5
10
-71.413503
20
231.999954
0
VERTEX
5
312
100
AcDbEntity
8
1
100
AcDbVertex
100
AcDb2dVertex
62
5
10
-70.913503
20
231.499954
0
VERTEX
5
313
100
AcDbEntity
8
1
100
AcDbVertex
100
AcDb2dVertex
62
5
10
-70.913503
20
231.249954
0
VERTEX
5
314
100
AcDbEntity
8
1
100
AcDbVertex
100
AcDb2dVertex
62
5
10
-71.413503
20
230.749954
0
VERTEX
5
315
100
AcDbEntity
8
1
100
AcDbVertex
100
AcDb2dVertex
62
5
10
-71.663503
20
230.749954
0
VERTEX
5
316
100
AcDbEntity
8
1
100
AcDbVertex
100
AcDb2dVertex
62
5
10
-72.163503
20
231.249954
0
VERTEX
5
317
100
AcDbEntity
8
1
100
AcDbVertex
100
AcDb2dVertex
62
5
10
-72.163503
20
231.499954
0
VERTEX
5
318
100
AcDbEntity
8
1
100
AcDbVertex
100
AcDb2dVertex
62
5
10
-70.913503
20
231.499954
0
SEQEND
5
319
100
AcDbEntity
8
1
0
LINE
5
31a
100
AcDbEntity
8
1
100
AcDbLine
6
CONTINUOUS
62
5
10
-70.913503
20
231.249954
11
-72.163503
21
231.249954
0
LINE
5
31b
100
AcDbEntity
8
1
100
AcDbLine
6
CONTINUOUS
62
5
10
-71.913503
20
230.999954
11
-71.163503
21
230.999954
0
LINE
5
31c
100
AcDbEntity
8
1
100
AcDbLine
6
CONTINUOUS
62
5
10
-71.163503
20
231.749954
11
-71.913503
21
231.749954
0
LINE
5
31d
100
AcDbEntity
8
1
100
AcDbLine
6
CONTINUOUS
62
5
10
-70.163503
20
221.812454
11
-69.913503
21
220.562454
0
LINE
5
31e
100
AcDbEntity
8
1
100
AcDbLine
6
CONTINUOUS
62
5
10
-68.663503
20
222.124954
11
-68.413503
21
220.874954
0
POLYLINE
5
31f
100
AcDbEntity
8
1
6
CONTINUOUS
62
5
100
AcDb2dPolyline
66
1
10
0.0
20
0.0
30
0.0
70
0
0
VERTEX
5
320
100
AcDbEntity
8
1
100
AcDbVertex
100
AcDb2dVertex
62
5
10
-66.663503
20
222.124954
0
VERTEX
5
321
100
AcDbEntity
8
1
100
AcDbVertex
100
AcDb2dVertex
62
5
10
-66.913503
20
220.562454
0
VERTEX
5
322
100
AcDbEntity
8
1
100
AcDbVertex
100
AcDb2dVertex
62
5
10
-68.163503
20
218.687454
0
VERTEX
5
323
100
AcDbEntity
8
1
100
AcDbVertex
100
AcDb2dVertex
62
5
10
-69.163503
20
217.749954
0
SEQEND
5
324
100
AcDbEntity
8
1
0
POLYLINE
5
325
100
AcDbEntity
8
1
6
CONTINUOUS
62
5
100
AcDb2dPolyline
66
1
10
0.0
20
0.0
30
0.0
70
1
0
VERTEX
5
326
100
AcDbEntity
8
1
100
AcDbVertex
100
AcDb2dVertex
62
5
10
-65.663503
20
187.999954
0
VERTEX
5
327
100
AcDbEntity
8
1
100
AcDbVertex
100
AcDb2dVertex
62
5
10
-65.038503
20
187.999954
0
VERTEX
5
328
100
AcDbEntity
8
1
100
AcDbVertex
100
AcDb2dVertex
62
5
10
-64.726003
20
187.687454
0
VERTEX
5
329
100
AcDbEntity
8
1
100
AcDbVertex
100
AcDb2dVertex
62
5
10
-64.101003
20
186.437454
0
VERTEX
5
32a
100
AcDbEntity
8
1
100
AcDbVertex
100
AcDb2dVertex
62
5
10
-63.788503
20
185.187454
0
VERTEX
5
32b
100
AcDbEntity
8
1
100
AcDbVertex
100
AcDb2dVertex
62
5
10
-63.788503
20
183.312454
0
VERTEX
5
32c
100
AcDbEntity
8
1
100
AcDbVertex
100
AcDb2dVertex
62
5
10
-64.101003
20
182.062454
0
VERTEX
5
32d
100
AcDbEntity
8
1
100
AcDbVertex
100
AcDb2dVertex
62
5
10
-64.726003
20
180.812454
0
VERTEX
5
32e
100
AcDbEntity
8
1
100
AcDbVertex
100
AcDb2dVertex
62
5
10
-65.038503
20
180.499954
0
VERTEX
5
32f
100
AcDbEntity
8
1
100
AcDbVertex
100
AcDb2dVertex
62
5
10
-65.663503
20
180.499954
0
VERTEX
5
330
100
AcDbEntity
8
1
100
AcDbVertex
100
AcDb2dVertex
62
5
10
-65.976003
20
180.812454
0
VERTEX
5
331
100
AcDbEntity
8
1
100
AcDbVertex
100
AcDb2dVertex
62
5
10
-66.601003
20
182.062454
0
VERTEX
5
332
100
AcDbEntity
8
1
100
AcDbVertex
100
AcDb2dVertex
62
5
10
-66.913503
20
183.312454
0
VERTEX
5
333
100
AcDbEntity
8
1
100
AcDbVertex
100
AcDb2dVertex
62
5
10
-66.913503
20
185.187454
0
VERTEX
5
334
100
AcDbEntity
8
1
100
AcDbVertex
100
AcDb2dVertex
62
5
10
-66.601003
20
186.437454
0
VERTEX
5
335
100
AcDbEntity
8
1
100
AcDbVertex
100
AcDb2dVertex
62
5
10
-65.976003
20
187.687454
0
VERTEX
5
336
100
AcDbEntity
8
1
100
AcDbVertex
100
AcDb2dVertex
62
5
10
-65.663503
20
187.999954
0
SEQEND
5
337
100
AcDbEntity
8
1
0
POLYLINE
5
338
100
AcDbEntity
8
1
6
CONTINUOUS
62
5
100
AcDb2dPolyline
66
1
10
0.0
20
0.0
30
0.0
70
0
0
VERTEX
5
339
100
AcDbEntity
8
1
100
AcDbVertex
100
AcDb2dVertex
62
5
10
-61.913503
20
187.999954
0
VERTEX
5
33a
100
AcDbEntity
8
1
100
AcDbVertex
100
AcDb2dVertex
62
5
10
-60.351003
20
180.499954
0
VERTEX
5
33b
100
AcDbEntity
8
1
100
AcDbVertex
100
AcDb2dVertex
62
5
10
-58.788503
20
187.999954
0
SEQEND
5
33c
100
AcDbEntity
8
1
0
POLYLINE
5
33d
100
AcDbEntity
8
1
6
CONTINUOUS
62
5
100
AcDb2dPolyline
66
1
10
0.0
20
0.0
30
0.0
70
0
0
VERTEX
5
33e
100
AcDbEntity
8
1
100
AcDbVertex
100
AcDb2dVertex
62
5
10
-56.288503
20
187.999954
0
VERTEX
5
33f
100
AcDbEntity
8
1
100
AcDbVertex
100
AcDb2dVertex
62
5
10
-56.288503
20
182.374954
0
VERTEX
5
340
100
AcDbEntity
8
1
100
AcDbVertex
100
AcDb2dVertex
62
5
10
-56.913503
20
181.124954
0
VERTEX
5
341
100
AcDbEntity
8
1
100
AcDbVertex
100
AcDb2dVertex
62
5
10
-57.538503
20
180.187454
0
SEQEND
5
342
100
AcDbEntity
8
1
0
POLYLINE
5
343
100
AcDbEntity
8
1
6
CONTINUOUS
62
5
100
AcDb2dPolyline
66
1
10
0.0
20
0.0
30
0.0
70
0
0
VERTEX
5
344
100
AcDbEntity
8
1
100
AcDbVertex
100
AcDb2dVertex
62
5
10
-51.288503
20
180.499954
0
VERTEX
5
345
100
AcDbEntity
8
1
100
AcDbVertex
100
AcDb2dVertex
62
5
10
-50.038503
20
179.874954
0
VERTEX
5
346
100
AcDbEntity
8
1
100
AcDbVertex
100
AcDb2dVertex
62
5
10
-50.038503
20
187.999954
0
VERTEX
5
347
100
AcDbEntity
8
1
100
AcDbVertex
100
AcDb2dVertex
62
5
10
-56.288503
20
187.999954
0
SEQEND
5
348
100
AcDbEntity
8
1
0
LINE
5
349
100
AcDbEntity
8
1
100
AcDbLine
6
CONTINUOUS
62
5
10
-56.288503
20
185.499954
11
-50.038503
21
185.499954
0
LINE
5
34a
100
AcDbEntity
8
1
100
AcDbLine
6
CONTINUOUS
62
5
10
-53.163503
20
187.999954
11
-53.163503
21
179.874954
0
LINE
5
34b
100
AcDbEntity
8
1
100
AcDbLine
6
CONTINUOUS
62
5
10
-56.288503
20
182.999954
11
-50.038503
21
182.999954
0
LINE
5
34c
100
AcDbEntity
8
1
100
AcDbLine
6
CONTINUOUS
62
5
10
-86.913503
20
187.999954
11
-86.913503
21
180.499954
0
POLYLINE
5
34d
100
AcDbEntity
8
1
6
CONTINUOUS
62
5
100
AcDb2dPolyline
66
1
10
0.0
20
0.0
30
0.0
70
0
0
VERTEX
5
34e
100
AcDbEntity
8
1
100
AcDbVertex
100
AcDb2dVertex
62
5
10
-86.913503
20
187.999954
0
VERTEX
5
34f
100
AcDbEntity
8
1
100
AcDbVertex
100
AcDb2dVertex
62
5
10
-85.663503
20
187.999954
0
VERTEX
5
350
100
AcDbEntity
8
1
100
AcDbVertex
100
AcDb2dVertex
62
5
10
-84.726003
20
187.687454
0
VERTEX
5
351
100
AcDbEntity
8
1
100
AcDbVertex
100
AcDb2dVertex
62
5
10
-84.413503
20
187.374954
0
VERTEX
5
352
100
AcDbEntity
8
1
100
AcDbVertex
100
AcDb2dVertex
62
5
10
-84.101003
20
186.437454
0
VERTEX
5
353
100
AcDbEntity
8
1
100
AcDbVertex
100
AcDb2dVertex
62
5
10
-84.101003
20
185.499954
0
VERTEX
5
354
100
AcDbEntity
8
1
100
AcDbVertex
100
AcDb2dVertex
62
5
10
-84.413503
20
184.874954
0
VERTEX
5
355
100
AcDbEntity
8
1
100
AcDbVertex
100
AcDb2dVertex
62
5
10
-85.351003
20
184.249954
0
VERTEX
5
356
100
AcDbEntity
8
1
100
AcDbVertex
100
AcDb2dVertex
62
5
10
-86.913503
20
184.249954
0
SEQEND
5
357
100
AcDbEntity
8
1
0
POLYLINE
5
358
100
AcDbEntity
8
1
6
CONTINUOUS
62
5
100
AcDb2dPolyline
66
1
10
0.0
20
0.0
30
0.0
70
0
0
VERTEX
5
359
100
AcDbEntity
8
1
100
AcDbVertex
100
AcDb2dVertex
62
5
10
-85.351003
20
184.249954
0
VERTEX
5
35a
100
AcDbEntity
8
1
100
AcDbVertex
100
AcDb2dVertex
62
5
10
-84.726003
20
183.937454
0
VERTEX
5
35b
100
AcDbEntity
8
1
100
AcDbVertex
100
AcDb2dVertex
62
5
10
-84.413503
20
183.312454
0
VERTEX
5
35c
100
AcDbEntity
8
1
100
AcDbVertex
100
AcDb2dVertex
62
5
10
-84.413503
20
181.124954
0
VERTEX
5
35d
100
AcDbEntity
8
1
100
AcDbVertex
100
AcDb2dVertex
62
5
10
-84.101003
20
180.499954
0
VERTEX
5
35e
100
AcDbEntity
8
1
100
AcDbVertex
100
AcDb2dVertex
62
5
10
-83.788503
20
180.499954
0
VERTEX
5
35f
100
AcDbEntity
8
1
100
AcDbVertex
100
AcDb2dVertex
62
5
10
-83.476003
20
181.124954
0
SEQEND
5
360
100
AcDbEntity
8
1
0
POLYLINE
5
361
100
AcDbEntity
8
1
6
CONTINUOUS
62
5
100
AcDb2dPolyline
66
1
10
0.0
20
0.0
30
0.0
70
0
0
VERTEX
5
362
100
AcDbEntity
8
1
100
AcDbVertex
100
AcDb2dVertex
62
5
10
-76.913503
20
185.812454
0
VERTEX
5
363
100
AcDbEntity
8
1
100
AcDbVertex
100
AcDb2dVertex
62
5
10
-76.601003
20
187.374954
0
VERTEX
5
364
100
AcDbEntity
8
1
100
AcDbVertex
100
AcDb2dVertex
62
5
10
-75.663503
20
187.999954
0
VERTEX
5
365
100
AcDbEntity
8
1
100
AcDbVertex
100
AcDb2dVertex
62
5
10
-74.726003
20
187.999954
0
VERTEX
5
366
100
AcDbEntity
8
1
100
AcDbVertex
100
AcDb2dVertex
62
5
10
-74.101003
20
187.687454
0
VERTEX
5
367
100
AcDbEntity
8
1
100
AcDbVertex
100
AcDb2dVertex
62
5
10
-73.788503
20
186.749954
0
VERTEX
5
368
100
AcDbEntity
8
1
100
AcDbVertex
100
AcDb2dVertex
62
5
10
-73.788503
20
185.812454
0
VERTEX
5
369
100
AcDbEntity
8
1
100
AcDbVertex
100
AcDb2dVertex
62
5
10
-74.101003
20
184.874954
0
VERTEX
5
36a
100
AcDbEntity
8
1
100
AcDbVertex
100
AcDb2dVertex
62
5
10
-76.913503
20
180.499954
0
VERTEX
5
36b
100
AcDbEntity
8
1
100
AcDbVertex
100
AcDb2dVertex
62
5
10
-73.788503
20
180.499954
0
VERTEX
5
36c
100
AcDbEntity
8
1
100
AcDbVertex
100
AcDb2dVertex
62
5
10
-73.788503
20
181.437454
0
SEQEND
5
36d
100
AcDbEntity
8
1
0
POLYLINE
5
36e
100
AcDbEntity
8
1
6
CONTINUOUS
62
5
100
AcDb2dPolyline
66
1
10
0.0
20
0.0
30
0.0
70
1
0
VERTEX
5
36f
100
AcDbEntity
8
1
100
AcDbVertex
100
AcDb2dVertex
62
5
10
-70.663503
20
187.999954
0
VERTEX
5
370
100
AcDbEntity
8
1
100
AcDbVertex
100
AcDb2dVertex
62
5
10
-70.038503
20
187.999954
0
VERTEX
5
371
100
AcDbEntity
8
1
100
AcDbVertex
100
AcDb2dVertex
62
5
10
-69.726003
20
187.687454
0
VERTEX
5
372
100
AcDbEntity
8
1
100
AcDbVertex
100
AcDb2dVertex
62
5
10
-69.101003
20
186.437454
0
VERTEX
5
373
100
AcDbEntity
8
1
100
AcDbVertex
100
AcDb2dVertex
62
5
10
-68.788503
20
185.187454
0
VERTEX
5
374
100
AcDbEntity
8
1
100
AcDbVertex
100
AcDb2dVertex
62
5
10
-68.788503
20
183.312454
0
VERTEX
5
375
100
AcDbEntity
8
1
100
AcDbVertex
100
AcDb2dVertex
62
5
10
-69.101003
20
182.062454
0
VERTEX
5
376
100
AcDbEntity
8
1
100
AcDbVertex
100
AcDb2dVertex
62
5
10
-69.726003
20
180.812454
0
VERTEX
5
377
100
AcDbEntity
8
1
100
AcDbVertex
100
AcDb2dVertex
62
5
10
-70.038503
20
180.499954
0
VERTEX
5
378
100
AcDbEntity
8
1
100
AcDbVertex
100
AcDb2dVertex
62
5
10
-70.663503
20
180.499954
0
VERTEX
5
379
100
AcDbEntity
8
1
100
AcDbVertex
100
AcDb2dVertex
62
5
10
-70.976003
20
180.812454
0
VERTEX
5
37a
100
AcDbEntity
8
1
100
AcDbVertex
100
AcDb2dVertex
62
5
10
-71.601003
20
182.062454
0
VERTEX
5
37b
100
AcDbEntity
8
1
100
AcDbVertex
100
AcDb2dVertex
62
5
10
-71.913503
20
183.312454
0
VERTEX
5
37c
100
AcDbEntity
8
1
100
AcDbVertex
100
AcDb2dVertex
62
5
10
-71.913503
20
185.187454
0
VERTEX
5
37d
100
AcDbEntity
8
1
100
AcDbVertex
100
AcDb2dVertex
62
5
10
-71.601003
20
186.437454
0
VERTEX
5
37e
100
AcDbEntity
8
1
100
AcDbVertex
100
AcDb2dVertex
62
5
10
-70.976003
20
187.687454
0
VERTEX
5
37f
100
AcDbEntity
8
1
100
AcDbVertex
100
AcDb2dVertex
62
5
10
-70.663503
20
187.999954
0
SEQEND
5
380
100
AcDbEntity
8
1
0
LINE
5
381
100
AcDbEntity
8
1
100
AcDbLine
6
CONTINUOUS
62
5
10
-103.913503
20
222.749954
11
-101.913503
21
222.749954
0
LINE
5
382
100
AcDbEntity
8
1
100
AcDbLine
6
CONTINUOUS
62
5
10
-104.163503
20
218.374954
11
-101.913503
21
219.624954
0
LINE
5
383
100
AcDbEntity
8
1
100
AcDbLine
6
CONTINUOUS
62
5
10
-102.913503
20
225.249954
11
-102.913503
21
218.999954
0
POLYLINE
5
384
100
AcDbEntity
8
1
6
CONTINUOUS
62
5
100
AcDb2dPolyline
66
1
10
0.0
20
0.0
30
0.0
70
1
0
VERTEX
5
385
100
AcDbEntity
8
1
100
AcDbVertex
100
AcDb2dVertex
62
5
10
-100.913503
20
224.937454
0
VERTEX
5
386
100
AcDbEntity
8
1
100
AcDbVertex
100
AcDb2dVertex
62
5
10
-100.913503
20
221.499954
0
VERTEX
5
387
100
AcDbEntity
8
1
100
AcDbVertex
100
AcDb2dVertex
62
5
10
-97.913503
20
221.499954
0
VERTEX
5
388
100
AcDbEntity
8
1
100
AcDbVertex
100
AcDb2dVertex
62
5
10
-97.913503
20
224.937454
0
VERTEX
5
389
100
AcDbEntity
8
1
100
AcDbVertex
100
AcDb2dVertex
62
5
10
-100.913503
20
224.937454
0
SEQEND
5
38a
100
AcDbEntity
8
1
0
LINE
5
38b
100
AcDbEntity
8
1
100
AcDbLine
6
CONTINUOUS
62
5
10
-100.913503
20
223.374954
11
-97.913503
21
223.374954
0
LINE
5
38c
100
AcDbEntity
8
1
100
AcDbLine
6
CONTINUOUS
62
5
10
-99.413503
20
224.937454
11
-99.413503
21
217.749954
0
LINE
5
38d
100
AcDbEntity
8
1
100
AcDbLine
6
CONTINUOUS
62
5
10
-101.413503
20
219.937454
11
-97.413503
21
219.937454
0
LINE
5
38e
100
AcDbEntity
8
1
100
AcDbLine
6
CONTINUOUS
62
5
10
-102.163503
20
217.749954
11
-96.913503
21
217.749954
0
POLYLINE
5
38f
100
AcDbEntity
8
1
6
CONTINUOUS
62
5
100
AcDb2dPolyline
66
1
10
0.0
20
0.0
30
0.0
70
0
0
VERTEX
5
390
100
AcDbEntity
8
1
100
AcDbVertex
100
AcDb2dVertex
62
5
10
-106.663503
20
234.499954
0
VERTEX
5
391
100
AcDbEntity
8
1
100
AcDbVertex
100
AcDb2dVertex
62
5
10
-105.913503
20
228.499954
0
VERTEX
5
392
100
AcDbEntity
8
1
100
AcDbVertex
100
AcDb2dVertex
62
5
10
-105.163503
20
234.499954
0
VERTEX
5
393
100
AcDbEntity
8
1
100
AcDbVertex
100
AcDb2dVertex
62
5
10
-104.413503
20
228.499954
0
VERTEX
5
394
100
AcDbEntity
8
1
100
AcDbVertex
100
AcDb2dVertex
62
5
10
-103.663503
20
234.499954
0
SEQEND
5
395
100
AcDbEntity
8
1
0
LINE
5
396
100
AcDbEntity
8
1
100
AcDbLine
6
CONTINUOUS
62
5
10
-101.913503
20
234.499954
11
-100.413503
21
234.499954
0
LINE
5
397
100
AcDbEntity
8
1
100
AcDbLine
6
CONTINUOUS
62
5
10
-101.163503
20
234.499954
11
-101.163503
21
228.499954
0
LINE
5
398
100
AcDbEntity
8
1
100
AcDbLine
6
CONTINUOUS
62
5
10
-101.913503
20
228.499954
11
-100.413503
21
228.499954
0
LINE
5
399
100
AcDbEntity
8
1
100
AcDbLine
6
CONTINUOUS
62
5
10
-98.413503
20
234.499954
11
-98.413503
21
228.499954
0
POLYLINE
5
39a
100
AcDbEntity
8
1
6
CONTINUOUS
62
5
100
AcDb2dPolyline
66
1
10
0.0
20
0.0
30
0.0
70
0
0
VERTEX
5
39b
100
AcDbEntity
8
1
100
AcDbVertex
100
AcDb2dVertex
62
5
10
-98.413503
20
234.499954
0
VERTEX
5
39c
100
AcDbEntity
8
1
100
AcDbVertex
100
AcDb2dVertex
62
5
10
-97.163503
20
234.499954
0
VERTEX
5
39d
100
AcDbEntity
8
1
100
AcDbVertex
100
AcDb2dVertex
62
5
10
-96.663503
20
234.249954
0
VERTEX
5
39e
100
AcDbEntity
8
1
100
AcDbVertex
100
AcDb2dVertex
62
5
10
-96.163503
20
233.749954
0
VERTEX
5
39f
100
AcDbEntity
8
1
100
AcDbVertex
100
AcDb2dVertex
62
5
10
-95.913503
20
232.749954
0
VERTEX
5
3a0
100
AcDbEntity
8
1
100
AcDbVertex
100
AcDb2dVertex
62
5
10
-95.913503
20
230.249954
0
VERTEX
5
3a1
100
AcDbEntity
8
1
100
AcDbVertex
100
AcDb2dVertex
62
5
10
-96.163503
20
229.249954
0
VERTEX
5
3a2
100
AcDbEntity
8
1
100
AcDbVertex
100
AcDb2dVertex
62
5
10
-96.663503
20
228.749954
0
VERTEX
5
3a3
100
AcDbEntity
8
1
100
AcDbVertex
100
AcDb2dVertex
62
5
10
-97.163503
20
228.499954
0
VERTEX
5
3a4
100
AcDbEntity
8
1
100
AcDbVertex
100
AcDb2dVertex
62
5
10
-98.413503
20
228.499954
0
SEQEND
5
3a5
100
AcDbEntity
8
1
0
POLYLINE
5
3a6
100
AcDbEntity
8
1
6
CONTINUOUS
62
5
100
AcDb2dPolyline
66
1
10
0.0
20
0.0
30
0.0
70
0
0
VERTEX
5
3a7
100
AcDbEntity
8
1
100
AcDbVertex
100
AcDb2dVertex
62
5
10
-91.913503
20
234.499954
0
VERTEX
5
3a8
100
AcDbEntity
8
1
100
AcDbVertex
100
AcDb2dVertex
62
5
10
-94.413503
20
234.499954
0
VERTEX
5
3a9
100
AcDbEntity
8
1
100
AcDbVertex
100
AcDb2dVertex
62
5
10
-94.413503
20
228.499954
0
VERTEX
5
3aa
100
AcDbEntity
8
1
100
AcDbVertex
100
AcDb2dVertex
62
5
10
-91.663503
20
228.499954
0
SEQEND
5
3ab
100
AcDbEntity
8
1
0
LINE
5
3ac
100
AcDbEntity
8
1
100
AcDbLine
6
CONTINUOUS
62
5
10
-94.413503
20
231.499954
11
-92.163503
21
231.499954
0
POLYLINE
5
3ad
100
AcDbEntity
8
1
6
CONTINUOUS
62
5
100
AcDb2dPolyline
66
1
10
0.0
20
0.0
30
0.0
70
0
0
VERTEX
5
3ae
100
AcDbEntity
8
1
100
AcDbVertex
100
AcDb2dVertex
62
5
10
-116.163503
20
234.499954
0
VERTEX
5
3af
100
AcDbEntity
8
1
100
AcDbVertex
100
AcDb2dVertex
62
5
10
-116.163503
20
229.999954
0
VERTEX
5
3b0
100
AcDbEntity
8
1
100
AcDbVertex
100
AcDb2dVertex
62
5
10
-116.413503
20
228.999954
0
VERTEX
5
3b1
100
AcDbEntity
8
1
100
AcDbVertex
100
AcDb2dVertex
62
5
10
-116.913503
20
228.499954
0
VERTEX
5
3b2
100
AcDbEntity
8
1
100
AcDbVertex
100
AcDb2dVertex
62
5
10
-117.663503
20
228.499954
0
VERTEX
5
3b3
100
AcDbEntity
8
1
100
AcDbVertex
100
AcDb2dVertex
62
5
10
-118.163503
20
228.999954
0
VERTEX
5
3b4
100
AcDbEntity
8
1
100
AcDbVertex
100
AcDb2dVertex
62
5
10
-118.413503
20
229.999954
0
SEQEND
5
3b5
100
AcDbEntity
8
1
0
POLYLINE
5
3b6
100
AcDbEntity
8
1
6
CONTINUOUS
62
5
100
AcDb2dPolyline
66
1
10
0.0
20
0.0
30
0.0
70
0
0
VERTEX
5
3b7
100
AcDbEntity
8
1
100
AcDbVertex
100
AcDb2dVertex
62
5
10
-112.163503
20
231.499954
0
VERTEX
5
3b8
100
AcDbEntity
8
1
100
AcDbVertex
100
AcDb2dVertex
62
5
10
-111.663503
20
231.999954
0
VERTEX
5
3b9
100
AcDbEntity
8
1
100
AcDbVertex
100
AcDb2dVertex
62
5
10
-111.413503
20
231.999954
0
VERTEX
5
3ba
100
AcDbEntity
8
1
100
AcDbVertex
100
AcDb2dVertex
62
5
10
-110.913503
20
231.499954
0
VERTEX
5
3bb
100
AcDbEntity
8
1
100
AcDbVertex
100
AcDb2dVertex
62
5
10
-110.913503
20
231.249954
0
VERTEX
5
3bc
100
AcDbEntity
8
1
100
AcDbVertex
100
AcDb2dVertex
62
5
10
-111.413503
20
230.749954
0
VERTEX
5
3bd
100
AcDbEntity
8
1
100
AcDbVertex
100
AcDb2dVertex
62
5
10
-111.663503
20
230.749954
0
VERTEX
5
3be
100
AcDbEntity
8
1
100
AcDbVertex
100
AcDb2dVertex
62
5
10
-112.163503
20
231.249954
0
VERTEX
5
3bf
100
AcDbEntity
8
1
100
AcDbVertex
100
AcDb2dVertex
62
5
10
-112.163503
20
231.499954
0
VERTEX
5
3c0
100
AcDbEntity
8
1
100
AcDbVertex
100
AcDb2dVertex
62
5
10
-110.913503
20
231.499954
0
SEQEND
5
3c1
100
AcDbEntity
8
1
0
LINE
5
3c2
100
AcDbEntity
8
1
100
AcDbLine
6
CONTINUOUS
62
5
10
-110.913503
20
231.249954
11
-112.163503
21
231.249954
0
LINE
5
3c3
100
AcDbEntity
8
1
100
AcDbLine
6
CONTINUOUS
62
5
10
-111.913503
20
230.999954
11
-111.163503
21
230.999954
0
LINE
5
3c4
100
AcDbEntity
8
1
100
AcDbLine
6
CONTINUOUS
62
5
10
-111.163503
20
231.749954
11
-111.913503
21
231.749954
0
LINE
5
3c5
100
AcDbEntity
8
1
100
AcDbLine
6
CONTINUOUS
62
5
10
-129.413503
20
237.499954
11
-129.413503
21
205.499954
0
LINE
5
3c6
100
AcDbEntity
8
1
100
AcDbLine
6
CONTINUOUS
62
5
10
-106.913503
20
184.249954
11
-103.788503
21
184.249954
0
POLYLINE
5
3c7
100
AcDbEntity
8
1
6
CONTINUOUS
62
5
100
AcDb2dPolyline
66
1
10
0.0
20
0.0
30
0.0
70
0
0
VERTEX
5
3c8
100
AcDbEntity
8
1
100
AcDbVertex
100
AcDb2dVertex
62
5
10
-101.913503
20
186.124954
0
VERTEX
5
3c9
100
AcDbEntity
8
1
100
AcDbVertex
100
AcDb2dVertex
62
5
10
-101.601003
20
187.374954
0
VERTEX
5
3ca
100
AcDbEntity
8
1
100
AcDbVertex
100
AcDb2dVertex
62
5
10
-100.976003
20
187.999954
0
VERTEX
5
3cb
100
AcDbEntity
8
1
100
AcDbVertex
100
AcDb2dVertex
62
5
10
-100.038503
20
187.999954
0
VERTEX
5
3cc
100
AcDbEntity
8
1
100
AcDbVertex
100
AcDb2dVertex
62
5
10
-99.413503
20
187.687454
0
VERTEX
5
3cd
100
AcDbEntity
8
1
100
AcDbVertex
100
AcDb2dVertex
62
5
10
-99.101003
20
186.749954
0
VERTEX
5
3ce
100
AcDbEntity
8
1
100
AcDbVertex
100
AcDb2dVertex
62
5
10
-99.101003
20
185.499954
0
VERTEX
5
3cf
100
AcDbEntity
8
1
100
AcDbVertex
100
AcDb2dVertex
62
5
10
-99.413503
20
184.874954
0
VERTEX
5
3d0
100
AcDbEntity
8
1
100
AcDbVertex
100
AcDb2dVertex
62
5
10
-100.038503
20
184.249954
0
VERTEX
5
3d1
100
AcDbEntity
8
1
100
AcDbVertex
100
AcDb2dVertex
62
5
10
-100.976003
20
184.249954
0
SEQEND
5
3d2
100
AcDbEntity
8
1
0
POLYLINE
5
3d3
100
AcDbEntity
8
1
6
CONTINUOUS
62
5
100
AcDb2dPolyline
66
1
10
0.0
20
0.0
30
0.0
70
0
0
VERTEX
5
3d4
100
AcDbEntity
8
1
100
AcDbVertex
100
AcDb2dVertex
62
5
10
-100.038503
20
184.249954
0
VERTEX
5
3d5
100
AcDbEntity
8
1
100
AcDbVertex
100
AcDb2dVertex
62
5
10
-99.101003
20
183.624954
0
VERTEX
5
3d6
100
AcDbEntity
8
1
100
AcDbVertex
100
AcDb2dVertex
62
5
10
-98.788503
20
182.687454
0
VERTEX
5
3d7
100
AcDbEntity
8
1
100
AcDbVertex
100
AcDb2dVertex
62
5
10
-98.788503
20
181.749954
0
VERTEX
5
3d8
100
AcDbEntity
8
1
100
AcDbVertex
100
AcDb2dVertex
62
5
10
-99.101003
20
181.124954
0
VERTEX
5
3d9
100
AcDbEntity
8
1
100
AcDbVertex
100
AcDb2dVertex
62
5
10
-100.038503
20
180.499954
0
VERTEX
5
3da
100
AcDbEntity
8
1
100
AcDbVertex
100
AcDb2dVertex
62
5
10
-100.976003
20
180.499954
0
VERTEX
5
3db
100
AcDbEntity
8
1
100
AcDbVertex
100
AcDb2dVertex
62
5
10
-101.601003
20
180.812454
0
VERTEX
5
3dc
100
AcDbEntity
8
1
100
AcDbVertex
100
AcDb2dVertex
62
5
10
-102.226003
20
181.749954
0
SEQEND
5
3dd
100
AcDbEntity
8
1
0
POLYLINE
5
3de
100
AcDbEntity
8
1
6
CONTINUOUS
62
5
100
AcDb2dPolyline
66
1
10
0.0
20
0.0
30
0.0
70
0
0
VERTEX
5
3df
100
AcDbEntity
8
1
100
AcDbVertex
100
AcDb2dVertex
62
5
10
-94.101003
20
186.437454
0
VERTEX
5
3e0
100
AcDbEntity
8
1
100
AcDbVertex
100
AcDb2dVertex
62
5
10
-94.413503
20
187.374954
0
VERTEX
5
3e1
100
AcDbEntity
8
1
100
AcDbVertex
100
AcDb2dVertex
62
5
10
-95.038503
20
187.999954
0
VERTEX
5
3e2
100
AcDbEntity
8
1
100
AcDbVertex
100
AcDb2dVertex
62
5
10
-95.976003
20
187.999954
0
VERTEX
5
3e3
100
AcDbEntity
8
1
100
AcDbVertex
100
AcDb2dVertex
62
5
10
-96.601003
20
187.374954
0
VERTEX
5
3e4
100
AcDbEntity
8
1
100
AcDbVertex
100
AcDb2dVertex
62
5
10
-96.913503
20
186.749954
0
VERTEX
5
3e5
100
AcDbEntity
8
1
100
AcDbVertex
100
AcDb2dVertex
62
5
10
-97.226003
20
185.187454
0
VERTEX
5
3e6
100
AcDbEntity
8
1
100
AcDbVertex
100
AcDb2dVertex
62
5
10
-97.226003
20
183.312454
0
VERTEX
5
3e7
100
AcDbEntity
8
1
100
AcDbVertex
100
AcDb2dVertex
62
5
10
-96.913503
20
181.749954
0
VERTEX
5
3e8
100
AcDbEntity
8
1
100
AcDbVertex
100
AcDb2dVertex
62
5
10
-96.601003
20
181.124954
0
VERTEX
5
3e9
100
AcDbEntity
8
1
100
AcDbVertex
100
AcDb2dVertex
62
5
10
-95.976003
20
180.499954
0
VERTEX
5
3ea
100
AcDbEntity
8
1
100
AcDbVertex
100
AcDb2dVertex
62
5
10
-95.038503
20
180.499954
0
VERTEX
5
3eb
100
AcDbEntity
8
1
100
AcDbVertex
100
AcDb2dVertex
62
5
10
-94.413503
20
181.124954
0
VERTEX
5
3ec
100
AcDbEntity
8
1
100
AcDbVertex
100
AcDb2dVertex
62
5
10
-94.101003
20
181.749954
0
SEQEND
5
3ed
100
AcDbEntity
8
1
0
LINE
5
3ee
100
AcDbEntity
8
1
100
AcDbLine
6
CONTINUOUS
62
5
10
-94.726003
20
183.937454
11
-93.476003
21
183.937454
0
LINE
5
3ef
100
AcDbEntity
8
1
100
AcDbLine
6
CONTINUOUS
62
5
10
-94.101003
20
183.937454
11
-94.101003
21
180.499954
0
POLYLINE
5
3f0
100
AcDbEntity
8
1
6
CONTINUOUS
62
5
100
AcDb2dPolyline
66
1
10
0.0
20
0.0
30
0.0
70
0
0
VERTEX
5
3f1
100
AcDbEntity
8
1
100
AcDbVertex
100
AcDb2dVertex
62
5
10
-117.226003
20
187.999954
0
VERTEX
5
3f2
100
AcDbEntity
8
1
100
AcDbVertex
100
AcDb2dVertex
62
5
10
-116.288503
20
180.499954
0
VERTEX
5
3f3
100
AcDbEntity
8
1
100
AcDbVertex
100
AcDb2dVertex
62
5
10
-115.351003
20
187.999954
0
VERTEX
5
3f4
100
AcDbEntity
8
1
100
AcDbVertex
100
AcDb2dVertex
62
5
10
-114.413503
20
180.499954
0
VERTEX
5
3f5
100
AcDbEntity
8
1
100
AcDbVertex
100
AcDb2dVertex
62
5
10
-113.476003
20
187.999954
0
SEQEND
5
3f6
100
AcDbEntity
8
1
0
POLYLINE
5
3f7
100
AcDbEntity
8
1
6
CONTINUOUS
62
5
100
AcDb2dPolyline
66
1
10
0.0
20
0.0
30
0.0
70
0
0
VERTEX
5
3f8
100
AcDbEntity
8
1
100
AcDbVertex
100
AcDb2dVertex
62
5
10
-109.101003
20
187.999954
0
VERTEX
5
3f9
100
AcDbEntity
8
1
100
AcDbVertex
100
AcDb2dVertex
62
5
10
-109.101003
20
182.374954
0
VERTEX
5
3fa
100
AcDbEntity
8
1
100
AcDbVertex
100
AcDb2dVertex
62
5
10
-109.413503
20
181.124954
0
VERTEX
5
3fb
100
AcDbEntity
8
1
100
AcDbVertex
100
AcDb2dVertex
62
5
10
-110.038503
20
180.499954
0
VERTEX
5
3fc
100
AcDbEntity
8
1
100
AcDbVertex
100
AcDb2dVertex
62
5
10
-110.976003
20
180.499954
0
VERTEX
5
3fd
100
AcDbEntity
8
1
100
AcDbVertex
100
AcDb2dVertex
62
5
10
-111.601003
20
181.124954
0
VERTEX
5
3fe
100
AcDbEntity
8
1
100
AcDbVertex
100
AcDb2dVertex
62
5
10
-111.913503
20
182.374954
0
SEQEND
5
3ff
100
AcDbEntity
8
1
0
LINE
5
400
100
AcDbEntity
8
1
100
AcDbLine
6
CONTINUOUS
62
5
10
-95.413503
20
225.249954
11
-94.413503
21
224.312454
0
POLYLINE
5
401
100
AcDbEntity
8
1
6
CONTINUOUS
62
5
100
AcDb2dPolyline
66
1
10
0.0
20
0.0
30
0.0
70
0
0
VERTEX
5
402
100
AcDbEntity
8
1
100
AcDbVertex
100
AcDb2dVertex
62
5
10
-95.663503
20
222.124954
0
VERTEX
5
403
100
AcDbEntity
8
1
100
AcDbVertex
100
AcDb2dVertex
62
5
10
-94.413503
20
222.124954
0
VERTEX
5
404
100
AcDbEntity
8
1
100
AcDbVertex
100
AcDb2dVertex
62
5
10
-94.413503
20
218.999954
0
VERTEX
5
405
100
AcDbEntity
8
1
100
AcDbVertex
100
AcDb2dVertex
62
5
10
-95.663503
20
217.437454
0
SEQEND
5
406
100
AcDbEntity
8
1
0
POLYLINE
5
407
100
AcDbEntity
8
1
6
CONTINUOUS
62
5
100
AcDb2dPolyline
66
1
10
0.0
20
0.0
30
0.0
70
0
0
VERTEX
5
408
100
AcDbEntity
8
1
100
AcDbVertex
100
AcDb2dVertex
62
5
10
-94.413503
20
218.999954
0
VERTEX
5
409
100
AcDbEntity
8
1
100
AcDbVertex
100
AcDb2dVertex
62
5
10
-93.663503
20
217.749954
0
VERTEX
5
40a
100
AcDbEntity
8
1
100
AcDbVertex
100
AcDb2dVertex
62
5
10
-92.663503
20
217.437454
0
VERTEX
5
40b
100
AcDbEntity
8
1
100
AcDbVertex
100
AcDb2dVertex
62
5
10
-88.913503
20
217.437454
0
SEQEND
5
40c
100
AcDbEntity
8
1
0
POLYLINE
5
40d
100
AcDbEntity
8
1
6
CONTINUOUS
62
5
100
AcDb2dPolyline
66
1
10
0.0
20
0.0
30
0.0
70
0
0
VERTEX
5
40e
100
AcDbEntity
8
1
100
AcDbVertex
100
AcDb2dVertex
62
5
10
-91.663503
20
222.749954
0
VERTEX
5
40f
100
AcDbEntity
8
1
100
AcDbVertex
100
AcDb2dVertex
62
5
10
-92.413503
20
220.874954
0
VERTEX
5
410
100
AcDbEntity
8
1
100
AcDbVertex
100
AcDb2dVertex
62
5
10
-93.163503
20
219.624954
0
VERTEX
5
411
100
AcDbEntity
8
1
100
AcDbVertex
100
AcDb2dVertex
62
5
10
-93.663503
20
218.999954
0
SEQEND
5
412
100
AcDbEntity
8
1
0
POLYLINE
5
413
100
AcDbEntity
8
1
6
CONTINUOUS
62
5
100
AcDb2dPolyline
66
1
10
0.0
20
0.0
30
0.0
70
0
0
VERTEX
5
414
100
AcDbEntity
8
1
100
AcDbVertex
100
AcDb2dVertex
62
5
10
-92.913503
20
225.562454
0
VERTEX
5
415
100
AcDbEntity
8
1
100
AcDbVertex
100
AcDb2dVertex
62
5
10
-91.663503
20
225.562454
0
VERTEX
5
416
100
AcDbEntity
8
1
100
AcDbVertex
100
AcDb2dVertex
62
5
10
-91.663503
20
222.749954
0
VERTEX
5
417
100
AcDbEntity
8
1
100
AcDbVertex
100
AcDb2dVertex
62
5
10
-90.913503
20
220.874954
0
VERTEX
5
418
100
AcDbEntity
8
1
100
AcDbVertex
100
AcDb2dVertex
62
5
10
-89.913503
20
219.624954
0
VERTEX
5
419
100
AcDbEntity
8
1
100
AcDbVertex
100
AcDb2dVertex
62
5
10
-89.163503
20
218.999954
0
SEQEND
5
41a
100
AcDbEntity
8
1
0
POLYLINE
5
41b
100
AcDbEntity
8
1
6
CONTINUOUS
62
5
100
AcDb2dPolyline
66
1
10
0.0
20
0.0
30
0.0
70
0
0
VERTEX
5
41c
100
AcDbEntity
8
1
100
AcDbVertex
100
AcDb2dVertex
62
5
10
-88.788503
20
186.437454
0
VERTEX
5
41d
100
AcDbEntity
8
1
100
AcDbVertex
100
AcDb2dVertex
62
5
10
-89.101003
20
187.374954
0
VERTEX
5
41e
100
AcDbEntity
8
1
100
AcDbVertex
100
AcDb2dVertex
62
5
10
-89.726003
20
187.999954
0
VERTEX
5
41f
100
AcDbEntity
8
1
100
AcDbVertex
100
AcDb2dVertex
62
5
10
-90.663503
20
187.999954
0
VERTEX
5
420
100
AcDbEntity
8
1
100
AcDbVertex
100
AcDb2dVertex
62
5
10
-91.601003
20
187.062454
0
VERTEX
5
421
100
AcDbEntity
8
1
100
AcDbVertex
100
AcDb2dVertex
62
5
10
-91.913503
20
185.499954
0
VERTEX
5
422
100
AcDbEntity
8
1
100
AcDbVertex
100
AcDb2dVertex
62
5
10
-91.913503
20
182.999954
0
VERTEX
5
423
100
AcDbEntity
8
1
100
AcDbVertex
100
AcDb2dVertex
62
5
10
-91.601003
20
181.437454
0
VERTEX
5
424
100
AcDbEntity
8
1
100
AcDbVertex
100
AcDb2dVertex
62
5
10
-90.663503
20
180.499954
0
VERTEX
5
425
100
AcDbEntity
8
1
100
AcDbVertex
100
AcDb2dVertex
62
5
10
-89.726003
20
180.499954
0
VERTEX
5
426
100
AcDbEntity
8
1
100
AcDbVertex
100
AcDb2dVertex
62
5
10
-89.101003
20
181.124954
0
VERTEX
5
427
100
AcDbEntity
8
1
100
AcDbVertex
100
AcDb2dVertex
62
5
10
-88.476003
20
182.687454
0
SEQEND
5
428
100
AcDbEntity
8
1
0
LINE
5
429
100
AcDbEntity
8
1
100
AcDbLine
6
CONTINUOUS
62
5
10
-18.540364
20
100.399954
11
-17.439998
21
100.497585
0
LINE
5
42a
100
AcDbEntity
8
1
100
AcDbLine
6
CONTINUOUS
62
5
10
-19.872945
20
99.049954
11
-19.647476
21
98.349954
0
CIRCLE
5
42b
100
AcDbEntity
8
1
100
AcDbCircle
6
CONTINUOUS
62
5
10
-27.413503
20
103.249954
40
0.500000
0
LINE
5
42c
100
AcDbEntity
8
1
100
AcDbLine
6
CONTINUOUS
62
5
10
-26.913503
20
104.799954
11
-26.413503
21
104.299954
0
LINE
5
42d
100
AcDbEntity
8
1
100
AcDbLine
6
CONTINUOUS
62
5
10
-26.913503
20
104.799954
11
-26.413503
21
104.299954
0
LINE
5
42e
100
AcDbEntity
8
1
100
AcDbLine
6
CONTINUOUS
62
5
10
-23.113503
20
97.249954
11
-23.275075
21
97.549954
0
LINE
5
42f
100
AcDbEntity
8
1
100
AcDbLine
6
CONTINUOUS
62
5
10
-22.413503
20
101.599954
11
-22.913503
21
101.899954
0
ARC
5
430
100
AcDbEntity
8
1
100
AcDbCircle
6
CONTINUOUS
62
5
10
-20.645924
20
99.849954
40
0.700000
100
AcDbArc
50
89.999999
51
179.999998
0
POLYLINE
5
431
100
AcDbEntity
8
1
6
CONTINUOUS
62
5
100
AcDb2dPolyline
66
1
10
0.0
20
0.0
30
0.0
70
0
0
VERTEX
5
432
100
AcDbEntity
8
1
100
AcDbVertex
100
AcDb2dVertex
62
5
10
-21.345924
20
99.849954
0
VERTEX
5
433
100
AcDbEntity
8
1
100
AcDbVertex
100
AcDb2dVertex
62
5
10
-21.345924
20
98.749954
0
VERTEX
5
434
100
AcDbEntity
8
1
100
AcDbVertex
100
AcDb2dVertex
62
5
10
-21.345924
20
98.749954
0
SEQEND
5
435
100
AcDbEntity
8
1
0
ARC
5
436
100
AcDbEntity
8
1
100
AcDbCircle
6
CONTINUOUS
62
5
10
-21.045924
20
98.749954
40
0.300000
100
AcDbArc
50
89.999999
51
179.999998
0
POLYLINE
5
437
100
AcDbEntity
8
1
6
CONTINUOUS
62
5
100
AcDb2dPolyline
66
1
10
0.0
20
0.0
30
0.0
70
0
0
VERTEX
5
438
100
AcDbEntity
8
1
100
AcDbVertex
100
AcDb2dVertex
62
5
10
-21.045924
20
99.049954
0
VERTEX
5
439
100
AcDbEntity
8
1
100
AcDbVertex
100
AcDb2dVertex
62
5
10
-19.872945
20
99.049954
0
VERTEX
5
43a
100
AcDbEntity
8
1
100
AcDbVertex
100
AcDb2dVertex
62
5
10
-19.872945
20
100.249954
0
SEQEND
5
43b
100
AcDbEntity
8
1
0
ARC
5
43c
100
AcDbEntity
8
1
100
AcDbCircle
6
CONTINUOUS
62
5
10
-19.572945
20
100.249954
40
0.300000
100
AcDbArc
50
89.999999
51
179.999998
0
POLYLINE
5
43d
100
AcDbEntity
8
1
6
CONTINUOUS
62
5
100
AcDb2dPolyline
66
1
10
0.0
20
0.0
30
0.0
70
0
0
VERTEX
5
43e
100
AcDbEntity
8
1
100
AcDbVertex
100
AcDb2dVertex
62
5
10
-19.572945
20
100.549954
0
VERTEX
5
43f
100
AcDbEntity
8
1
100
AcDbVertex
100
AcDb2dVertex
62
5
10
-19.572945
20
100.549954
0
VERTEX
5
440
100
AcDbEntity
8
1
100
AcDbVertex
100
AcDb2dVertex
62
5
10
-20.645924
20
100.549954
0
SEQEND
5
441
100
AcDbEntity
8
1
0
ARC
5
442
100
AcDbEntity
8
1
100
AcDbCircle
6
CONTINUOUS
62
5
10
-15.445427
20
97.644782
40
0.300000
100
AcDbArc
50
89.999999
51
179.999998
0
LINE
5
443
100
AcDbEntity
8
1
100
AcDbLine
6
CONTINUOUS
62
5
10
-15.445427
20
97.944782
11
-14.713618
21
97.944782
0
ARC
5
444
100
AcDbEntity
8
1
100
AcDbCircle
6
CONTINUOUS
62
5
10
-14.713618
20
97.644782
40
0.300000
100
AcDbArc
50
0.000000
51
89.999999
0
LINE
5
445
100
AcDbEntity
8
1
100
AcDbLine
6
CONTINUOUS
62
5
10
-14.413618
20
97.644782
11
-14.413618
21
96.199954
0
POLYLINE
5
446
100
AcDbEntity
8
1
6
CONTINUOUS
62
5
100
AcDb2dPolyline
66
1
10
0.0
20
0.0
30
0.0
70
0
0
VERTEX
5
447
100
AcDbEntity
8
1
100
AcDbVertex
100
AcDb2dVertex
62
5
10
-17.789928
20
95.549954
0
VERTEX
5
448
100
AcDbEntity
8
1
100
AcDbVertex
100
AcDb2dVertex
62
5
10
-17.789928
20
98.999954
0
VERTEX
5
449
100
AcDbEntity
8
1
100
AcDbVertex
100
AcDb2dVertex
62
5
10
-15.745427
20
98.999954
0
VERTEX
5
44a
100
AcDbEntity
8
1
100
AcDbVertex
100
AcDb2dVertex
62
5
10
-15.745427
20
97.644782
0
SEQEND
5
44b
100
AcDbEntity
8
1
0
POLYLINE
5
44c
100
AcDbEntity
8
1
6
CONTINUOUS
62
5
100
AcDb2dPolyline
66
1
10
0.0
20
0.0
30
0.0
70
0
0
VERTEX
5
44d
100
AcDbEntity
8
1
100
AcDbVertex
100
AcDb2dVertex
62
5
10
-19.999685
20
96.378971
0
VERTEX
5
44e
100
AcDbEntity
8
1
100
AcDbVertex
100
AcDb2dVertex
62
5
10
-19.974785
20
96.350525
0
VERTEX
5
44f
100
AcDbEntity
8
1
100
AcDbVertex
100
AcDb2dVertex
62
5
10
-19.900083
20
96.328400
0
VERTEX
5
450
100
AcDbEntity
8
1
100
AcDbVertex
100
AcDb2dVertex
62
5
10
-19.775581
20
96.312597
0
VERTEX
5
451
100
AcDbEntity
8
1
100
AcDbVertex
100
AcDb2dVertex
62
5
10
-19.601277
20
96.303115
0
VERTEX
5
452
100
AcDbEntity
8
1
100
AcDbVertex
100
AcDb2dVertex
62
5
10
-19.377172
20
96.299954
0
SEQEND
5
453
100
AcDbEntity
8
1
0
POLYLINE
5
454
100
AcDbEntity
8
1
6
CONTINUOUS
62
5
100
AcDb2dPolyline
66
1
10
0.0
20
0.0
30
0.0
70
0
0
VERTEX
5
455
100
AcDbEntity
8
1
100
AcDbVertex
100
AcDb2dVertex
62
5
10
-19.938166
20
96.549954
0
VERTEX
5
456
100
AcDbEntity
8
1
100
AcDbVertex
100
AcDb2dVertex
62
5
10
-19.440918
20
96.549954
0
VERTEX
5
457
100
AcDbEntity
8
1
100
AcDbVertex
100
AcDb2dVertex
62
5
10
-18.540364
20
97.249954
0
SEQEND
5
458
100
AcDbEntity
8
1
0
POLYLINE
5
459
100
AcDbEntity
8
1
6
CONTINUOUS
62
5
100
AcDb2dPolyline
66
1
10
0.0
20
0.0
30
0.0
70
0
0
VERTEX
5
45a
100
AcDbEntity
8
1
100
AcDbVertex
100
AcDb2dVertex
62
5
10
-20.299687
20
96.378971
0
VERTEX
5
45b
100
AcDbEntity
8
1
100
AcDbVertex
100
AcDb2dVertex
62
5
10
-20.262787
20
96.350525
0
VERTEX
5
45c
100
AcDbEntity
8
1
100
AcDbVertex
100
AcDb2dVertex
62
5
10
-20.152085
20
96.328400
0
VERTEX
5
45d
100
AcDbEntity
8
1
100
AcDbVertex
100
AcDb2dVertex
62
5
10
-19.967582
20
96.312597
0
VERTEX
5
45e
100
AcDbEntity
8
1
100
AcDbVertex
100
AcDb2dVertex
62
5
10
-19.709278
20
96.303115
0
VERTEX
5
45f
100
AcDbEntity
8
1
100
AcDbVertex
100
AcDb2dVertex
62
5
10
-19.377172
20
96.299954
0
SEQEND
5
460
100
AcDbEntity
8
1
0
POLYLINE
5
461
100
AcDbEntity
8
1
6
CONTINUOUS
62
5
100
AcDb2dPolyline
66
1
10
0.0
20
0.0
30
0.0
70
0
0
VERTEX
5
462
100
AcDbEntity
8
1
100
AcDbVertex
100
AcDb2dVertex
62
5
10
-19.583636
20
96.499954
0
VERTEX
5
463
100
AcDbEntity
8
1
100
AcDbVertex
100
AcDb2dVertex
62
5
10
-19.733414
20
96.495115
0
VERTEX
5
464
100
AcDbEntity
8
1
100
AcDbVertex
100
AcDb2dVertex
62
5
10
-19.849908
20
96.480597
0
VERTEX
5
465
100
AcDbEntity
8
1
100
AcDbVertex
100
AcDb2dVertex
62
5
10
-19.933118
20
96.456400
0
VERTEX
5
466
100
AcDbEntity
8
1
100
AcDbVertex
100
AcDb2dVertex
62
5
10
-19.983043
20
96.422525
0
VERTEX
5
467
100
AcDbEntity
8
1
100
AcDbVertex
100
AcDb2dVertex
62
5
10
-19.999685
20
96.378971
0
SEQEND
5
468
100
AcDbEntity
8
1
0
POLYLINE
5
469
100
AcDbEntity
8
1
6
CONTINUOUS
62
5
100
AcDb2dPolyline
66
1
10
0.0
20
0.0
30
0.0
70
0
0
VERTEX
5
46a
100
AcDbEntity
8
1
100
AcDbVertex
100
AcDb2dVertex
62
5
10
-19.583636
20
96.499954
0
VERTEX
5
46b
100
AcDbEntity
8
1
100
AcDbVertex
100
AcDb2dVertex
62
5
10
-19.841414
20
96.495115
0
VERTEX
5
46c
100
AcDbEntity
8
1
100
AcDbVertex
100
AcDb2dVertex
62
5
10
-20.041909
20
96.480597
0
VERTEX
5
46d
100
AcDbEntity
8
1
100
AcDbVertex
100
AcDb2dVertex
62
5
10
-20.185119
20
96.456400
0
VERTEX
5
46e
100
AcDbEntity
8
1
100
AcDbVertex
100
AcDb2dVertex
62
5
10
-20.271045
20
96.422525
0
VERTEX
5
46f
100
AcDbEntity
8
1
100
AcDbVertex
100
AcDb2dVertex
62
5
10
-20.299687
20
96.378971
0
SEQEND
5
470
100
AcDbEntity
8
1
0
ARC
5
471
100
AcDbEntity
8
1
100
AcDbCircle
6
CONTINUOUS
62
5
10
-14.713618
20
96.199954
40
0.300000
100
AcDbArc
50
0.000000
51
89.999999
0
LINE
5
472
100
AcDbEntity
8
1
100
AcDbLine
6
CONTINUOUS
62
5
10
-14.713618
20
96.499954
11
-15.333985
21
96.499954
0
ARC
5
473
100
AcDbEntity
8
1
100
AcDbCircle
6
CONTINUOUS
62
5
10
-15.333985
20
96.199954
40
0.300000
100
AcDbArc
50
89.999999
51
172.041714
0
POLYLINE
5
474
100
AcDbEntity
8
1
6
CONTINUOUS
62
5
100
AcDb2dPolyline
66
1
10
0.0
20
0.0
30
0.0
70
0
0
VERTEX
5
475
100
AcDbEntity
8
1
100
AcDbVertex
100
AcDb2dVertex
62
5
10
-15.631096
20
96.241490
0
VERTEX
5
476
100
AcDbEntity
8
1
100
AcDbVertex
100
AcDb2dVertex
62
5
10
-15.846600
20
94.699954
0
VERTEX
5
477
100
AcDbEntity
8
1
100
AcDbVertex
100
AcDb2dVertex
62
5
10
-14.413618
20
94.699954
0
VERTEX
5
478
100
AcDbEntity
8
1
100
AcDbVertex
100
AcDb2dVertex
62
5
10
-14.413618
20
96.199954
0
SEQEND
5
479
100
AcDbEntity
8
1
0
LINE
5
47a
100
AcDbEntity
8
1
100
AcDbLine
6
CONTINUOUS
62
5
10
-15.846600
20
94.699956
11
-15.846600
21
98.999954
0
ARC
5
47b
100
AcDbEntity
8
1
100
AcDbCircle
6
CONTINUOUS
62
5
10
-15.294963
20
97.599954
40
0.300000
100
AcDbArc
50
89.999999
51
179.999998
0
LINE
5
47c
100
AcDbEntity
8
1
100
AcDbLine
6
CONTINUOUS
62
5
10
-15.594963
20
97.599954
11
-15.594963
21
96.499954
0
LINE
5
47d
100
AcDbEntity
8
1
100
AcDbLine
6
CONTINUOUS
62
5
10
-14.413618
20
97.599954
11
-14.413618
21
97.599954
0
ARC
5
47e
100
AcDbEntity
8
1
100
AcDbCircle
6
CONTINUOUS
62
5
10
-14.713618
20
97.599954
40
0.300000
100
AcDbArc
50
0.000000
51
89.999999
0
LINE
5
47f
100
AcDbEntity
8
1
100
AcDbLine
6
CONTINUOUS
62
5
10
-14.713618
20
97.899954
11
-15.294963
21
97.899954
0
LINE
5
480
100
AcDbEntity
8
1
100
AcDbLine
6
CONTINUOUS
62
5
10
-10.013503
20
96.099954
11
-10.313503
21
96.399954
0
ARC
5
481
100
AcDbEntity
8
1
100
AcDbCircle
6
CONTINUOUS
62
5
10
-20.845420
20
98.049954
40
0.300000
100
AcDbArc
50
89.999999
51
179.999998
0
LINE
5
482
100
AcDbEntity
8
1
100
AcDbLine
6
CONTINUOUS
62
5
10
-21.145420
20
98.049954
11
-21.145420
21
97.549954
0
ARC
5
483
100
AcDbEntity
8
1
100
AcDbCircle
6
CONTINUOUS
62
5
10
-20.845420
20
97.549954
40
0.300000
100
AcDbArc
50
179.999998
51
-89.999999
0
LINE
5
484
100
AcDbEntity
8
1
100
AcDbLine
6
CONTINUOUS
62
5
10
-20.845420
20
97.249954
11
-18.540364
21
97.249954
0
LINE
5
485
100
AcDbEntity
8
1
100
AcDbLine
6
CONTINUOUS
62
5
10
-18.540364
20
95.549954
11
-18.540364
21
100.099954
0
ARC
5
486
100
AcDbEntity
8
1
100
AcDbCircle
6
CONTINUOUS
62
5
10
-18.840364
20
100.099954
40
0.300000
100
AcDbArc
50
0.000000
51
89.999999
0
LINE
5
487
100
AcDbEntity
8
1
100
AcDbLine
6
CONTINUOUS
62
5
10
-18.840364
20
100.399954
11
-19.347476
21
100.399954
0
ARC
5
488
100
AcDbEntity
8
1
100
AcDbCircle
6
CONTINUOUS
62
5
10
-19.347476
20
100.099954
40
0.300000
100
AcDbArc
50
89.999999
51
179.999998
0
POLYLINE
5
489
100
AcDbEntity
8
1
6
CONTINUOUS
62
5
100
AcDb2dPolyline
66
1
10
0.0
20
0.0
30
0.0
70
0
0
VERTEX
5
48a
100
AcDbEntity
8
1
100
AcDbVertex
100
AcDb2dVertex
62
5
10
-19.647476
20
100.099954
0
VERTEX
5
48b
100
AcDbEntity
8
1
100
AcDbVertex
100
AcDb2dVertex
62
5
10
-19.647476
20
98.349954
0
VERTEX
5
48c
100
AcDbEntity
8
1
100
AcDbVertex
100
AcDb2dVertex
62
5
10
-20.845420
20
98.349954
0
SEQEND
5
48d
100
AcDbEntity
8
1
0
ARC
5
48e
100
AcDbEntity
8
1
100
AcDbCircle
6
CONTINUOUS
62
5
10
-21.145924
20
95.449954
40
0.200000
100
AcDbArc
50
179.999998
51
-89.999999
0
LINE
5
48f
100
AcDbEntity
8
1
100
AcDbLine
6
CONTINUOUS
62
5
10
-21.145924
20
95.249954
11
-20.299687
21
95.249954
0
POLYLINE
5
490
100
AcDbEntity
8
1
6
CONTINUOUS
62
5
100
AcDb2dPolyline
66
1
10
0.0
20
0.0
30
0.0
70
0
0
VERTEX
5
491
100
AcDbEntity
8
1
100
AcDbVertex
100
AcDb2dVertex
62
5
10
-19.938166
20
96.488109
0
VERTEX
5
492
100
AcDbEntity
8
1
100
AcDbVertex
100
AcDb2dVertex
62
5
10
-19.938166
20
96.549954
0
VERTEX
5
493
100
AcDbEntity
8
1
100
AcDbVertex
100
AcDb2dVertex
62
5
10
-21.045924
20
96.549954
0
SEQEND
5
494
100
AcDbEntity
8
1
0
ARC
5
495
100
AcDbEntity
8
1
100
AcDbCircle
6
CONTINUOUS
62
5
10
-21.045924
20
96.849954
40
0.300000
100
AcDbArc
50
179.999998
51
-89.999999
0
POLYLINE
5
496
100
AcDbEntity
8
1
6
CONTINUOUS
62
5
100
AcDb2dPolyline
66
1
10
0.0
20
0.0
30
0.0
70
0
0
VERTEX
5
497
100
AcDbEntity
8
1
100
AcDbVertex
100
AcDb2dVertex
62
5
10
-21.345924
20
96.849954
0
VERTEX
5
498
100
AcDbEntity
8
1
100
AcDbVertex
100
AcDb2dVertex
62
5
10
-21.345924
20
96.849954
0
VERTEX
5
499
100
AcDbEntity
8
1
100
AcDbVertex
100
AcDb2dVertex
62
5
10
-21.345924
20
95.449954
0
SEQEND
5
49a
100
AcDbEntity
8
1
0
ARC
5
49b
100
AcDbEntity
8
1
100
AcDbCircle
6
CONTINUOUS
62
5
10
-14.713618
20
91.799954
40
0.300000
100
AcDbArc
50
-89.999999
51
0.000000
0
POLYLINE
5
49c
100
AcDbEntity
8
1
6
CONTINUOUS
62
5
100
AcDb2dPolyline
66
1
10
0.0
20
0.0
30
0.0
70
0
0
VERTEX
5
49d
100
AcDbEntity
8
1
100
AcDbVertex
100
AcDb2dVertex
62
5
10
-14.413618
20
91.799954
0
VERTEX
5
49e
100
AcDbEntity
8
1
100
AcDbVertex
100
AcDb2dVertex
62
5
10
-14.413618
20
93.299954
0
VERTEX
5
49f
100
AcDbEntity
8
1
100
AcDbVertex
100
AcDb2dVertex
62
5
10
-15.846600
20
93.299954
0
VERTEX
5
4a0
100
AcDbEntity
8
1
100
AcDbVertex
100
AcDb2dVertex
62
5
10
-15.631096
20
91.758419
0
SEQEND
5
4a1
100
AcDbEntity
8
1
0
ARC
5
4a2
100
AcDbEntity
8
1
100
AcDbCircle
6
CONTINUOUS
62
5
10
-15.333985
20
91.799954
40
0.300000
100
AcDbArc
50
-172.041714
51
-89.999999
0
LINE
5
4a3
100
AcDbEntity
8
1
100
AcDbLine
6
CONTINUOUS
62
5
10
-15.333985
20
91.499954
11
-14.713618
21
91.499954
0
LINE
5
4a4
100
AcDbEntity
8
1
100
AcDbLine
6
CONTINUOUS
62
5
10
-10.013503
20
91.899954
11
-10.313503
21
91.599954
0
POLYLINE
5
4a5
100
AcDbEntity
8
1
6
CONTINUOUS
62
5
100
AcDb2dPolyline
66
1
10
0.0
20
0.0
30
0.0
70
0
0
VERTEX
5
4a6
100
AcDbEntity
8
1
100
AcDbVertex
100
AcDb2dVertex
62
5
10
-19.999685
20
91.620937
0
VERTEX
5
4a7
100
AcDbEntity
8
1
100
AcDbVertex
100
AcDb2dVertex
62
5
10
-19.974785
20
91.649383
0
VERTEX
5
4a8
100
AcDbEntity
8
1
100
AcDbVertex
100
AcDb2dVertex
62
5
10
-19.900083
20
91.671508
0
VERTEX
5
4a9
100
AcDbEntity
8
1
100
AcDbVertex
100
AcDb2dVertex
62
5
10
-19.775581
20
91.687311
0
VERTEX
5
4aa
100
AcDbEntity
8
1
100
AcDbVertex
100
AcDb2dVertex
62
5
10
-19.601277
20
91.696794
0
VERTEX
5
4ab
100
AcDbEntity
8
1
100
AcDbVertex
100
AcDb2dVertex
62
5
10
-19.377172
20
91.699954
0
SEQEND
5
4ac
100
AcDbEntity
8
1
0
POLYLINE
5
4ad
100
AcDbEntity
8
1
6
CONTINUOUS
62
5
100
AcDb2dPolyline
66
1
10
0.0
20
0.0
30
0.0
70
0
0
VERTEX
5
4ae
100
AcDbEntity
8
1
100
AcDbVertex
100
AcDb2dVertex
62
5
10
-19.938166
20
91.449954
0
VERTEX
5
4af
100
AcDbEntity
8
1
100
AcDbVertex
100
AcDb2dVertex
62
5
10
-19.440918
20
91.449954
0
VERTEX
5
4b0
100
AcDbEntity
8
1
100
AcDbVertex
100
AcDb2dVertex
62
5
10
-18.540364
20
90.749954
0
SEQEND
5
4b1
100
AcDbEntity
8
1
0
POLYLINE
5
4b2
100
AcDbEntity
8
1
6
CONTINUOUS
62
5
100
AcDb2dPolyline
66
1
10
0.0
20
0.0
30
0.0
70
0
0
VERTEX
5
4b3
100
AcDbEntity
8
1
100
AcDbVertex
100
AcDb2dVertex
62
5
10
-20.299687
20
91.620937
0
VERTEX
5
4b4
100
AcDbEntity
8
1
100
AcDbVertex
100
AcDb2dVertex
62
5
10
-20.262787
20
91.649383
0
VERTEX
5
4b5
100
AcDbEntity
8
1
100
AcDbVertex
100
AcDb2dVertex
62
5
10
-20.152085
20
91.671508
0
VERTEX
5
4b6
100
AcDbEntity
8
1
100
AcDbVertex
100
AcDb2dVertex
62
5
10
-19.967582
20
91.687311
0
VERTEX
5
4b7
100
AcDbEntity
8
1
100
AcDbVertex
100
AcDb2dVertex
62
5
10
-19.709278
20
91.696794
0
VERTEX
5
4b8
100
AcDbEntity
8
1
100
AcDbVertex
100
AcDb2dVertex
62
5
10
-19.377172
20
91.699954
0
SEQEND
5
4b9
100
AcDbEntity
8
1
0
POLYLINE
5
4ba
100
AcDbEntity
8
1
6
CONTINUOUS
62
5
100
AcDb2dPolyline
66
1
10
0.0
20
0.0
30
0.0
70
0
0
VERTEX
5
4bb
100
AcDbEntity
8
1
100
AcDbVertex
100
AcDb2dVertex
62
5
10
-19.583636
20
91.499954
0
VERTEX
5
4bc
100
AcDbEntity
8
1
100
AcDbVertex
100
AcDb2dVertex
62
5
10
-19.733414
20
91.504794
0
VERTEX
5
4bd
100
AcDbEntity
8
1
100
AcDbVertex
100
AcDb2dVertex
62
5
10
-19.849908
20
91.519311
0
VERTEX
5
4be
100
AcDbEntity
8
1
100
AcDbVertex
100
AcDb2dVertex
62
5
10
-19.933118
20
91.543508
0
VERTEX
5
4bf
100
AcDbEntity
8
1
100
AcDbVertex
100
AcDb2dVertex
62
5
10
-19.983043
20
91.577383
0
VERTEX
5
4c0
100
AcDbEntity
8
1
100
AcDbVertex
100
AcDb2dVertex
62
5
10
-19.999685
20
91.620937
0
SEQEND
5
4c1
100
AcDbEntity
8
1
0
POLYLINE
5
4c2
100
AcDbEntity
8
1
6
CONTINUOUS
62
5
100
AcDb2dPolyline
66
1
10
0.0
20
0.0
30
0.0
70
0
0
VERTEX
5
4c3
100
AcDbEntity
8
1
100
AcDbVertex
100
AcDb2dVertex
62
5
10
-19.583636
20
91.499954
0
VERTEX
5
4c4
100
AcDbEntity
8
1
100
AcDbVertex
100
AcDb2dVertex
62
5
10
-19.841414
20
91.504794
0
VERTEX
5
4c5
100
AcDbEntity
8
1
100
AcDbVertex
100
AcDb2dVertex
62
5
10
-20.041909
20
91.519311
0
VERTEX
5
4c6
100
AcDbEntity
8
1
100
AcDbVertex
100
AcDb2dVertex
62
5
10
-20.185119
20
91.543508
0
VERTEX
5
4c7
100
AcDbEntity
8
1
100
AcDbVertex
100
AcDb2dVertex
62
5
10
-20.271045
20
91.577383
0
VERTEX
5
4c8
100
AcDbEntity
8
1
100
AcDbVertex
100
AcDb2dVertex
62
5
10
-20.299687
20
91.620937
0
SEQEND
5
4c9
100
AcDbEntity
8
1
0
ARC
5
4ca
100
AcDbEntity
8
1
100
AcDbCircle
6
CONTINUOUS
62
5
10
-15.294963
20
90.399954
40
0.300000
100
AcDbArc
50
179.999998
51
-89.999999
0
LINE
5
4cb
100
AcDbEntity
8
1
100
AcDbLine
6
CONTINUOUS
62
5
10
-15.294963
20
90.099954
11
-14.713618
21
90.099954
0
ARC
5
4cc
100
AcDbEntity
8
1
100
AcDbCircle
6
CONTINUOUS
62
5
10
-14.713618
20
90.399954
40
0.300000
100
AcDbArc
50
-89.999999
51
0.000000
0
LINE
5
4cd
100
AcDbEntity
8
1
100
AcDbLine
6
CONTINUOUS
62
5
10
-15.594963
20
91.499954
11
-15.594963
21
90.399954
0
LINE
5
4ce
100
AcDbEntity
8
1
100
AcDbLine
6
CONTINUOUS
62
5
10
-23.113503
20
90.749954
11
-23.275075
21
90.449954
0
ARC
5
4cf
100
AcDbEntity
8
1
100
AcDbCircle
6
CONTINUOUS
62
5
10
-21.145924
20
92.549954
40
0.200000
100
AcDbArc
50
89.999999
51
179.999998
0
POLYLINE
5
4d0
100
AcDbEntity
8
1
6
CONTINUOUS
62
5
100
AcDb2dPolyline
66
1
10
0.0
20
0.0
30
0.0
70
0
0
VERTEX
5
4d1
100
AcDbEntity
8
1
100
AcDbVertex
100
AcDb2dVertex
62
5
10
-21.345924
20
92.549954
0
VERTEX
5
4d2
100
AcDbEntity
8
1
100
AcDbVertex
100
AcDb2dVertex
62
5
10
-21.345924
20
91.149954
0
VERTEX
5
4d3
100
AcDbEntity
8
1
100
AcDbVertex
100
AcDb2dVertex
62
5
10
-21.345924
20
91.149954
0
SEQEND
5
4d4
100
AcDbEntity
8
1
0
ARC
5
4d5
100
AcDbEntity
8
1
100
AcDbCircle
6
CONTINUOUS
62
5
10
-21.045924
20
91.149954
40
0.300000
100
AcDbArc
50
89.999999
51
-179.999998
0
POLYLINE
5
4d6
100
AcDbEntity
8
1
6
CONTINUOUS
62
5
100
AcDb2dPolyline
66
1
10
0.0
20
0.0
30
0.0
70
0
0
VERTEX
5
4d7
100
AcDbEntity
8
1
100
AcDbVertex
100
AcDb2dVertex
62
5
10
-21.045924
20
91.449954
0
VERTEX
5
4d8
100
AcDbEntity
8
1
100
AcDbVertex
100
AcDb2dVertex
62
5
10
-19.938166
20
91.449954
0
VERTEX
5
4d9
100
AcDbEntity
8
1
100
AcDbVertex
100
AcDb2dVertex
62
5
10
-19.938166
20
91.511799
0
SEQEND
5
4da
100
AcDbEntity
8
1
0
LINE
5
4db
100
AcDbEntity
8
1
100
AcDbLine
6
CONTINUOUS
62
5
10
-20.299687
20
92.749954
11
-21.145924
21
92.749954
0
ARC
5
4dc
100
AcDbEntity
8
1
100
AcDbCircle
6
CONTINUOUS
62
5
10
-18.633376
20
92.449954
40
0.300000
100
AcDbArc
50
89.999999
51
179.999998
0
LINE
5
4dd
100
AcDbEntity
8
1
100
AcDbLine
6
CONTINUOUS
62
5
10
-18.633376
20
92.749954
11
-18.089928
21
92.749954
0
ARC
5
4de
100
AcDbEntity
8
1
100
AcDbCircle
6
CONTINUOUS
62
5
10
-18.089928
20
92.449954
40
0.300000
100
AcDbArc
50
0.000000
51
89.999999
0
POLYLINE
5
4df
100
AcDbEntity
8
1
6
CONTINUOUS
62
5
100
AcDb2dPolyline
66
1
10
0.0
20
0.0
30
0.0
70
0
0
VERTEX
5
4e0
100
AcDbEntity
8
1
100
AcDbVertex
100
AcDb2dVertex
62
5
10
-17.789928
20
92.449954
0
VERTEX
5
4e1
100
AcDbEntity
8
1
100
AcDbVertex
100
AcDb2dVertex
62
5
10
-17.789928
20
92.449954
0
VERTEX
5
4e2
100
AcDbEntity
8
1
100
AcDbVertex
100
AcDb2dVertex
62
5
10
-17.789928
20
95.549954
0
VERTEX
5
4e3
100
AcDbEntity
8
1
100
AcDbVertex
100
AcDb2dVertex
62
5
10
-17.789928
20
95.549954
0
SEQEND
5
4e4
100
AcDbEntity
8
1
0
ARC
5
4e5
100
AcDbEntity
8
1
100
AcDbCircle
6
CONTINUOUS
62
5
10
-18.089928
20
95.549954
40
0.300000
100
AcDbArc
50
-89.999999
51
0.000000
0
LINE
5
4e6
100
AcDbEntity
8
1
100
AcDbLine
6
CONTINUOUS
62
5
10
-18.089928
20
95.249954
11
-18.633376
21
95.249954
0
ARC
5
4e7
100
AcDbEntity
8
1
100
AcDbCircle
6
CONTINUOUS
62
5
10
-18.633376
20
95.549954
40
0.300000
100
AcDbArc
50
179.999998
51
-89.999999
0
POLYLINE
5
4e8
100
AcDbEntity
8
1
6
CONTINUOUS
62
5
100
AcDb2dPolyline
66
1
10
0.0
20
0.0
30
0.0
70
0
0
VERTEX
5
4e9
100
AcDbEntity
8
1
100
AcDbVertex
100
AcDb2dVertex
62
5
10
-18.933376
20
95.549954
0
VERTEX
5
4ea
100
AcDbEntity
8
1
100
AcDbVertex
100
AcDb2dVertex
62
5
10
-18.933376
20
95.549954
0
VERTEX
5
4eb
100
AcDbEntity
8
1
100
AcDbVertex
100
AcDb2dVertex
62
5
10
-18.933376
20
92.449954
0
VERTEX
5
4ec
100
AcDbEntity
8
1
100
AcDbVertex
100
AcDb2dVertex
62
5
10
-18.933376
20
92.449954
0
SEQEND
5
4ed
100
AcDbEntity
8
1
0
LINE
5
4ee
100
AcDbEntity
8
1
100
AcDbLine
6
CONTINUOUS
62
5
10
-14.413618
20
93.299954
11
-14.413618
21
94.699954
0
LINE
5
4ef
100
AcDbEntity
8
1
100
AcDbLine
6
CONTINUOUS
62
5
10
-11.413503
20
91.999954
11
-11.413503
21
95.999954
0
LINE
5
4f0
100
AcDbEntity
8
1
100
AcDbLine
6
CONTINUOUS
62
5
10
-12.413503
20
91.999954
11
-12.413503
21
95.999954
0
LINE
5
4f1
100
AcDbEntity
8
1
100
AcDbLine
6
CONTINUOUS
62
5
10
-10.413503
20
91.999954
11
-10.413503
21
95.999954
0
ARC
5
4f2
100
AcDbEntity
8
1
100
AcDbCircle
6
CONTINUOUS
62
5
10
-21.249394
20
92.549954
40
0.200000
100
AcDbArc
50
89.999999
51
179.999998
0
LINE
5
4f3
100
AcDbEntity
8
1
100
AcDbLine
6
CONTINUOUS
62
5
10
-21.249394
20
92.749954
11
-21.145924
21
92.749954
0
LINE
5
4f4
100
AcDbEntity
8
1
100
AcDbLine
6
CONTINUOUS
62
5
10
-21.145924
20
95.249954
11
-21.249394
21
95.249954
0
ARC
5
4f5
100
AcDbEntity
8
1
100
AcDbCircle
6
CONTINUOUS
62
5
10
-21.249394
20
95.449954
40
0.200000
100
AcDbArc
50
179.999998
51
-89.999999
0
POLYLINE
5
4f6
100
AcDbEntity
8
1
6
CONTINUOUS
62
5
100
AcDb2dPolyline
66
1
10
0.0
20
0.0
30
0.0
70
0
0
VERTEX
5
4f7
100
AcDbEntity
8
1
100
AcDbVertex
100
AcDb2dVertex
62
5
10
-21.449394
20
95.449954
0
VERTEX
5
4f8
100
AcDbEntity
8
1
100
AcDbVertex
100
AcDb2dVertex
62
5
10
-21.449394
20
95.449954
0
VERTEX
5
4f9
100
AcDbEntity
8
1
100
AcDbVertex
100
AcDb2dVertex
62
5
10
-21.449394
20
92.549954
0
VERTEX
5
4fa
100
AcDbEntity
8
1
100
AcDbVertex
100
AcDb2dVertex
62
5
10
-21.449394
20
92.549954
0
SEQEND
5
4fb
100
AcDbEntity
8
1
0
LINE
5
4fc
100
AcDbEntity
8
1
100
AcDbLine
6
CONTINUOUS
62
5
10
-19.524063
20
91.698556
11
-19.524063
21
96.301352
0
LINE
5
4fd
100
AcDbEntity
8
1
100
AcDbLine
6
CONTINUOUS
62
5
10
-19.402210
20
91.699716
11
-19.402210
21
96.300193
0
LINE
5
4fe
100
AcDbEntity
8
1
100
AcDbLine
6
CONTINUOUS
62
5
10
-19.599524
20
91.500253
11
-19.599524
21
91.449954
0
LINE
5
4ff
100
AcDbEntity
8
1
100
AcDbLine
6
CONTINUOUS
62
5
10
-19.599524
20
96.549954
11
-19.599524
21
96.499656
0
LINE
5
500
100
AcDbEntity
8
1
100
AcDbLine
6
CONTINUOUS
62
5
10
-19.583636
20
96.302866
11
-19.583636
21
96.499954
0
LINE
5
501
100
AcDbEntity
8
1
100
AcDbLine
6
CONTINUOUS
62
5
10
-19.583636
20
91.499954
11
-19.583636
21
91.697042
0
LINE
5
502
100
AcDbEntity
8
1
100
AcDbLine
6
CONTINUOUS
62
5
10
-20.299687
20
96.378971
11
-20.299687
21
91.620937
0
LINE
5
503
100
AcDbEntity
8
1
100
AcDbLine
6
CONTINUOUS
62
5
10
-19.377172
20
91.699954
11
-19.377172
21
96.299954
0
ARC
5
504
100
AcDbEntity
8
1
100
AcDbCircle
6
CONTINUOUS
62
5
10
-22.163503
20
97.549954
40
0.300000
100
AcDbArc
50
-89.999999
51
-0.000000
0
LINE
5
505
100
AcDbEntity
8
1
100
AcDbLine
6
CONTINUOUS
62
5
10
-21.863503
20
97.549954
11
-21.863503
21
98.049954
0
ARC
5
506
100
AcDbEntity
8
1
100
AcDbCircle
6
CONTINUOUS
62
5
10
-22.163503
20
98.049954
40
0.300000
100
AcDbArc
50
-0.000000
51
89.999999
0
LINE
5
507
100
AcDbEntity
8
1
100
AcDbLine
6
CONTINUOUS
62
5
10
-22.163503
20
98.349954
11
-23.400897
21
98.349954
0
ARC
5
508
100
AcDbEntity
8
1
100
AcDbCircle
6
CONTINUOUS
62
5
10
-23.400897
20
98.049954
40
0.300000
100
AcDbArc
50
89.999999
51
166.033983
0
LINE
5
509
100
AcDbEntity
8
1
100
AcDbLine
6
CONTINUOUS
62
5
10
-23.692028
20
98.122358
11
-23.883942
21
97.350684
0
ARC
5
50a
100
AcDbEntity
8
1
100
AcDbCircle
6
CONTINUOUS
62
5
10
-22.913503
20
97.109337
40
1.000000
100
AcDbArc
50
166.033983
51
179.999998
0
LINE
5
50b
100
AcDbEntity
8
1
100
AcDbLine
6
CONTINUOUS
62
5
10
-23.913503
20
97.109337
11
-23.913503
21
90.890571
0
ARC
5
50c
100
AcDbEntity
8
1
100
AcDbCircle
6
CONTINUOUS
62
5
10
-22.913503
20
90.890571
40
1.000000
100
AcDbArc
50
179.999998
51
-166.033983
0
LINE
5
50d
100
AcDbEntity
8
1
100
AcDbLine
6
CONTINUOUS
62
5
10
-23.883942
20
90.649225
11
-23.692028
21
89.877550
0
ARC
5
50e
100
AcDbEntity
8
1
100
AcDbCircle
6
CONTINUOUS
62
5
10
-23.400897
20
89.949954
40
0.300000
100
AcDbArc
50
-166.033983
51
-89.999999
0
LINE
5
50f
100
AcDbEntity
8
1
100
AcDbLine
6
CONTINUOUS
62
5
10
-23.400897
20
89.649954
11
-22.163503
21
89.649954
0
ARC
5
510
100
AcDbEntity
8
1
100
AcDbCircle
6
CONTINUOUS
62
5
10
-22.163503
20
89.949954
40
0.300000
100
AcDbArc
50
-89.999999
51
0.000000
0
LINE
5
511
100
AcDbEntity
8
1
100
AcDbLine
6
CONTINUOUS
62
5
10
-21.863503
20
89.949954
11
-21.863503
21
90.449954
0
ARC
5
512
100
AcDbEntity
8
1
100
AcDbCircle
6
CONTINUOUS
62
5
10
-22.163503
20
90.449954
40
0.300000
100
AcDbArc
50
0.000000
51
89.999999
0
POLYLINE
5
513
100
AcDbEntity
8
1
6
CONTINUOUS
62
5
100
AcDb2dPolyline
66
1
10
0.0
20
0.0
30
0.0
70
0
0
VERTEX
5
514
100
AcDbEntity
8
1
100
AcDbVertex
100
AcDb2dVertex
62
5
10
-22.163503
20
90.749954
0
VERTEX
5
515
100
AcDbEntity
8
1
100
AcDbVertex
100
AcDb2dVertex
62
5
10
-23.113503
20
90.749954
0
VERTEX
5
516
100
AcDbEntity
8
1
100
AcDbVertex
100
AcDb2dVertex
62
5
10
-23.113503
20
97.249954
0
VERTEX
5
517
100
AcDbEntity
8
1
100
AcDbVertex
100
AcDb2dVertex
62
5
10
-22.163503
20
97.249954
0
SEQEND
5
518
100
AcDbEntity
8
1
0
LINE
5
519
100
AcDbEntity
8
1
100
AcDbLine
6
CONTINUOUS
62
5
10
-29.413503
20
98.599954
11
-28.913503
21
98.899954
0
LINE
5
51a
100
AcDbEntity
8
1
100
AcDbLine
6
CONTINUOUS
62
5
10
-29.413503
20
101.999954
11
-28.913503
21
101.699954
0
LINE
5
51b
100
AcDbEntity
8
1
100
AcDbLine
6
CONTINUOUS
62
5
10
-18.540364
20
87.599954
11
-17.439998
21
87.502324
0
CIRCLE
5
51c
100
AcDbEntity
8
1
100
AcDbCircle
6
CONTINUOUS
62
5
10
-27.413503
20
84.749954
40
0.500000
0
LINE
5
51d
100
AcDbEntity
8
1
100
AcDbLine
6
CONTINUOUS
62
5
10
-26.913503
20
83.199954
11
-26.413503
21
83.699954
0
LINE
5
51e
100
AcDbEntity
8
1
100
AcDbLine
6
CONTINUOUS
62
5
10
-22.413503
20
86.399954
11
-22.913503
21
86.099954
0
LINE
5
51f
100
AcDbEntity
8
1
100
AcDbLine
6
CONTINUOUS
62
5
10
-29.413503
20
85.999954
11
-28.913503
21
86.299954
0
ARC
5
520
100
AcDbEntity
8
1
100
AcDbCircle
6
CONTINUOUS
62
5
10
-15.445427
20
90.355127
40
0.300000
100
AcDbArc
50
-179.999998
51
-89.999999
0
LINE
5
521
100
AcDbEntity
8
1
100
AcDbLine
6
CONTINUOUS
62
5
10
-15.445427
20
90.055127
11
-14.713618
21
90.055127
0
ARC
5
522
100
AcDbEntity
8
1
100
AcDbCircle
6
CONTINUOUS
62
5
10
-14.713618
20
90.355127
40
0.300000
100
AcDbArc
50
-89.999999
51
0.000000
0
LINE
5
523
100
AcDbEntity
8
1
100
AcDbLine
6
CONTINUOUS
62
5
10
-14.413618
20
90.355127
11
-14.413618
21
91.799954
0
POLYLINE
5
524
100
AcDbEntity
8
1
6
CONTINUOUS
62
5
100
AcDb2dPolyline
66
1
10
0.0
20
0.0
30
0.0
70
0
0
VERTEX
5
525
100
AcDbEntity
8
1
100
AcDbVertex
100
AcDb2dVertex
62
5
10
-17.789928
20
92.449954
0
VERTEX
5
526
100
AcDbEntity
8
1
100
AcDbVertex
100
AcDb2dVertex
62
5
10
-17.789928
20
88.999954
0
VERTEX
5
527
100
AcDbEntity
8
1
100
AcDbVertex
100
AcDb2dVertex
62
5
10
-15.745427
20
88.999954
0
VERTEX
5
528
100
AcDbEntity
8
1
100
AcDbVertex
100
AcDb2dVertex
62
5
10
-15.745427
20
90.355127
0
SEQEND
5
529
100
AcDbEntity
8
1
0
LINE
5
52a
100
AcDbEntity
8
1
100
AcDbLine
6
CONTINUOUS
62
5
10
-15.846600
20
88.999954
11
-15.846600
21
93.299954
0
LINE
5
52b
100
AcDbEntity
8
1
100
AcDbLine
6
CONTINUOUS
62
5
10
-19.872945
20
88.949954
11
-19.647476
21
89.649954
0
ARC
5
52c
100
AcDbEntity
8
1
100
AcDbCircle
6
CONTINUOUS
62
5
10
-20.845420
20
89.949954
40
0.300000
100
AcDbArc
50
179.999998
51
-89.999999
0
LINE
5
52d
100
AcDbEntity
8
1
100
AcDbLine
6
CONTINUOUS
62
5
10
-21.145420
20
89.949954
11
-21.145420
21
90.449954
0
ARC
5
52e
100
AcDbEntity
8
1
100
AcDbCircle
6
CONTINUOUS
62
5
10
-20.845420
20
90.449954
40
0.300000
100
AcDbArc
50
89.999999
51
179.999998
0
LINE
5
52f
100
AcDbEntity
8
1
100
AcDbLine
6
CONTINUOUS
62
5
10
-20.845420
20
90.749954
11
-18.540364
21
90.749954
0
LINE
5
530
100
AcDbEntity
8
1
100
AcDbLine
6
CONTINUOUS
62
5
10
-18.540364
20
92.449954
11
-18.540364
21
87.899954
0
ARC
5
531
100
AcDbEntity
8
1
100
AcDbCircle
6
CONTINUOUS
62
5
10
-18.840364
20
87.899954
40
0.300000
100
AcDbArc
50
-89.999999
51
0.000000
0
LINE
5
532
100
AcDbEntity
8
1
100
AcDbLine
6
CONTINUOUS
62
5
10
-18.840364
20
87.599954
11
-19.347476
21
87.599954
0
ARC
5
533
100
AcDbEntity
8
1
100
AcDbCircle
6
CONTINUOUS
62
5
10
-19.347476
20
87.899954
40
0.300000
100
AcDbArc
50
179.999998
51
-89.999999
0
POLYLINE
5
534
100
AcDbEntity
8
1
6
CONTINUOUS
62
5
100
AcDb2dPolyline
66
1
10
0.0
20
0.0
30
0.0
70
0
0
VERTEX
5
535
100
AcDbEntity
8
1
100
AcDbVertex
100
AcDb2dVertex
62
5
10
-19.647476
20
87.899954
0
VERTEX
5
536
100
AcDbEntity
8
1
100
AcDbVertex
100
AcDb2dVertex
62
5
10
-19.647476
20
89.649954
0
VERTEX
5
537
100
AcDbEntity
8
1
100
AcDbVertex
100
AcDb2dVertex
62
5
10
-20.845420
20
89.649954
0
SEQEND
5
538
100
AcDbEntity
8
1
0
ARC
5
539
100
AcDbEntity
8
1
100
AcDbCircle
6
CONTINUOUS
62
5
10
-20.645924
20
88.149954
40
0.700000
100
AcDbArc
50
-179.999998
51
-89.999999
0
POLYLINE
5
53a
100
AcDbEntity
8
1
6
CONTINUOUS
62
5
100
AcDb2dPolyline
66
1
10
0.0
20
0.0
30
0.0
70
0
0
VERTEX
5
53b
100
AcDbEntity
8
1
100
AcDbVertex
100
AcDb2dVertex
62
5
10
-21.345924
20
88.149954
0
VERTEX
5
53c
100
AcDbEntity
8
1
100
AcDbVertex
100
AcDb2dVertex
62
5
10
-21.345924
20
89.249954
0
VERTEX
5
53d
100
AcDbEntity
8
1
100
AcDbVertex
100
AcDb2dVertex
62
5
10
-21.345924
20
89.249954
0
SEQEND
5
53e
100
AcDbEntity
8
1
0
ARC
5
53f
100
AcDbEntity
8
1
100
AcDbCircle
6
CONTINUOUS
62
5
10
-21.045924
20
89.249954
40
0.300000
100
AcDbArc
50
179.999998
51
-89.999999
0
POLYLINE
5
540
100
AcDbEntity
8
1
6
CONTINUOUS
62
5
100
AcDb2dPolyline
66
1
10
0.0
20
0.0
30
0.0
70
0
0
VERTEX
5
541
100
AcDbEntity
8
1
100
AcDbVertex
100
AcDb2dVertex
62
5
10
-21.045924
20
88.949954
0
VERTEX
5
542
100
AcDbEntity
8
1
100
AcDbVertex
100
AcDb2dVertex
62
5
10
-19.872945
20
88.949954
0
VERTEX
5
543
100
AcDbEntity
8
1
100
AcDbVertex
100
AcDb2dVertex
62
5
10
-19.872945
20
87.749954
0
SEQEND
5
544
100
AcDbEntity
8
1
0
ARC
5
545
100
AcDbEntity
8
1
100
AcDbCircle
6
CONTINUOUS
62
5
10
-19.572945
20
87.749954
40
0.300000
100
AcDbArc
50
179.999998
51
-89.999999
0
POLYLINE
5
546
100
AcDbEntity
8
1
6
CONTINUOUS
62
5
100
AcDb2dPolyline
66
1
10
0.0
20
0.0
30
0.0
70
0
0
VERTEX
5
547
100
AcDbEntity
8
1
100
AcDbVertex
100
AcDb2dVertex
62
5
10
-19.572945
20
87.449954
0
VERTEX
5
548
100
AcDbEntity
8
1
100
AcDbVertex
100
AcDb2dVertex
62
5
10
-19.572945
20
87.449954
0
VERTEX
5
549
100
AcDbEntity
8
1
100
AcDbVertex
100
AcDb2dVertex
62
5
10
-20.645924
20
87.449954
0
SEQEND
5
54a
100
AcDbEntity
8
1
0
LINE
5
54b
100
AcDbEntity
8
1
100
AcDbLine
6
CONTINUOUS
62
5
10
-29.413503
20
89.399954
11
-28.913503
21
89.099954
0
LINE
5
54c
100
AcDbEntity
8
1
100
AcDbLine
6
CONTINUOUS
62
5
10
-17.743997
20
98.999954
11
-17.743997
21
88.999954
0
ARC
5
54d
100
AcDbEntity
8
1
100
AcDbCircle
6
CONTINUOUS
62
5
10
-29.913503
20
104.299954
40
0.500000
100
AcDbArc
50
89.999999
51
179.999998
0
LINE
5
54e
100
AcDbEntity
8
1
100
AcDbLine
6
CONTINUOUS
62
5
10
-30.413503
20
104.299954
11
-30.413503
21
83.699954
0
ARC
5
54f
100
AcDbEntity
8
1
100
AcDbCircle
6
CONTINUOUS
62
5
10
-29.913503
20
83.699954
40
0.500000
100
AcDbArc
50
179.999998
51
-89.999999
0
LINE
5
550
100
AcDbEntity
8
1
100
AcDbLine
6
CONTINUOUS
62
5
10
-29.913503
20
83.199954
11
-28.913503
21
83.199954
0
LINE
5
551
100
AcDbEntity
8
1
100
AcDbLine
6
CONTINUOUS
62
5
10
-28.913503
20
104.799954
11
-29.913503
21
104.799954
0
ARC
5
552
100
AcDbEntity
8
1
100
AcDbCircle
6
CONTINUOUS
62
5
10
-26.413503
20
104.849954
40
0.500000
100
AcDbArc
50
89.999999
51
-179.999998
0
POLYLINE
5
553
100
AcDbEntity
8
1
6
CONTINUOUS
62
5
100
AcDb2dPolyline
66
1
10
0.0
20
0.0
30
0.0
70
0
0
VERTEX
5
554
100
AcDbEntity
8
1
100
AcDbVertex
100
AcDb2dVertex
62
5
10
-26.913503
20
104.849954
0
VERTEX
5
555
100
AcDbEntity
8
1
100
AcDbVertex
100
AcDb2dVertex
62
5
10
-26.913503
20
104.799954
0
VERTEX
5
556
100
AcDbEntity
8
1
100
AcDbVertex
100
AcDb2dVertex
62
5
10
-28.913503
20
104.799954
0
SEQEND
5
557
100
AcDbEntity
8
1
0
ARC
5
558
100
AcDbEntity
8
1
100
AcDbCircle
6
CONTINUOUS
62
5
10
-28.913503
20
104.299954
40
0.500000
100
AcDbArc
50
89.999999
51
179.999998
0
POLYLINE
5
559
100
AcDbEntity
8
1
6
CONTINUOUS
62
5
100
AcDb2dPolyline
66
1
10
0.0
20
0.0
30
0.0
70
0
0
VERTEX
5
55a
100
AcDbEntity
8
1
100
AcDbVertex
100
AcDb2dVertex
62
5
10
-29.413503
20
104.299954
0
VERTEX
5
55b
100
AcDbEntity
8
1
100
AcDbVertex
100
AcDb2dVertex
62
5
10
-29.413503
20
101.999954
0
VERTEX
5
55c
100
AcDbEntity
8
1
100
AcDbVertex
100
AcDb2dVertex
62
5
10
-30.113503
20
101.999954
0
SEQEND
5
55d
100
AcDbEntity
8
1
0
ARC
5
55e
100
AcDbEntity
8
1
100
AcDbCircle
6
CONTINUOUS
62
5
10
-30.113503
20
101.699954
40
0.300000
100
AcDbArc
50
89.999999
51
-179.999998
0
LINE
5
55f
100
AcDbEntity
8
1
100
AcDbLine
6
CONTINUOUS
62
5
10
-30.413503
20
101.699954
11
-30.413503
21
98.899954
0
ARC
5
560
100
AcDbEntity
8
1
100
AcDbCircle
6
CONTINUOUS
62
5
10
-30.113503
20
98.899954
40
0.300000
100
AcDbArc
50
179.999998
51
-89.999999
0
POLYLINE
5
561
100
AcDbEntity
8
1
6
CONTINUOUS
62
5
100
AcDb2dPolyline
66
1
10
0.0
20
0.0
30
0.0
70
0
0
VERTEX
5
562
100
AcDbEntity
8
1
100
AcDbVertex
100
AcDb2dVertex
62
5
10
-30.113503
20
98.599954
0
VERTEX
5
563
100
AcDbEntity
8
1
100
AcDbVertex
100
AcDb2dVertex
62
5
10
-29.413503
20
98.599954
0
VERTEX
5
564
100
AcDbEntity
8
1
100
AcDbVertex
100
AcDb2dVertex
62
5
10
-29.413503
20
89.399954
0
VERTEX
5
565
100
AcDbEntity
8
1
100
AcDbVertex
100
AcDb2dVertex
62
5
10
-30.113503
20
89.399954
0
SEQEND
5
566
100
AcDbEntity
8
1
0
ARC
5
567
100
AcDbEntity
8
1
100
AcDbCircle
6
CONTINUOUS
62
5
10
-30.113503
20
89.099954
40
0.300000
100
AcDbArc
50
89.999999
51
179.999998
0
LINE
5
568
100
AcDbEntity
8
1
100
AcDbLine
6
CONTINUOUS
62
5
10
-30.413503
20
89.099954
11
-30.413503
21
86.299954
0
ARC
5
569
100
AcDbEntity
8
1
100
AcDbCircle
6
CONTINUOUS
62
5
10
-30.113503
20
86.299954
40
0.300000
100
AcDbArc
50
-179.999998
51
-89.999999
0
POLYLINE
5
56a
100
AcDbEntity
8
1
6
CONTINUOUS
62
5
100
AcDb2dPolyline
66
1
10
0.0
20
0.0
30
0.0
70
0
0
VERTEX
5
56b
100
AcDbEntity
8
1
100
AcDbVertex
100
AcDb2dVertex
62
5
10
-30.113503
20
85.999954
0
VERTEX
5
56c
100
AcDbEntity
8
1
100
AcDbVertex
100
AcDb2dVertex
62
5
10
-29.413503
20
85.999954
0
VERTEX
5
56d
100
AcDbEntity
8
1
100
AcDbVertex
100
AcDb2dVertex
62
5
10
-29.413503
20
83.699954
0
SEQEND
5
56e
100
AcDbEntity
8
1
0
ARC
5
56f
100
AcDbEntity
8
1
100
AcDbCircle
6
CONTINUOUS
62
5
10
-28.913503
20
83.699954
40
0.500000
100
AcDbArc
50
-179.999998
51
-89.999999
0
POLYLINE
5
570
100
AcDbEntity
8
1
6
CONTINUOUS
62
5
100
AcDb2dPolyline
66
1
10
0.0
20
0.0
30
0.0
70
0
0
VERTEX
5
571
100
AcDbEntity
8
1
100
AcDbVertex
100
AcDb2dVertex
62
5
10
-28.913503
20
83.199954
0
VERTEX
5
572
100
AcDbEntity
8
1
100
AcDbVertex
100
AcDb2dVertex
62
5
10
-26.913503
20
83.199954
0
VERTEX
5
573
100
AcDbEntity
8
1
100
AcDbVertex
100
AcDb2dVertex
62
5
10
-26.913503
20
83.149954
0
SEQEND
5
574
100
AcDbEntity
8
1
0
ARC
5
575
100
AcDbEntity
8
1
100
AcDbCircle
6
CONTINUOUS
62
5
10
-26.413503
20
83.149954
40
0.500000
100
AcDbArc
50
179.999998
51
-89.999999
0
LINE
5
576
100
AcDbEntity
8
1
100
AcDbLine
6
CONTINUOUS
62
5
10
-26.413503
20
82.649954
11
-22.713503
21
82.649954
0
LINE
5
577
100
AcDbEntity
8
1
100
AcDbLine
6
CONTINUOUS
62
5
10
-22.713503
20
105.349954
11
-26.413503
21
105.349954
0
ARC
5
578
100
AcDbEntity
8
1
100
AcDbCircle
6
CONTINUOUS
62
5
10
-29.413503
20
104.349954
40
1.000000
100
AcDbArc
50
89.999999
51
179.999998
0
LINE
5
579
100
AcDbEntity
8
1
100
AcDbLine
6
CONTINUOUS
62
5
10
-30.413503
20
104.349954
11
-30.413503
21
104.299954
0
LINE
5
57a
100
AcDbEntity
8
1
100
AcDbLine
6
CONTINUOUS
62
5
10
-30.413503
20
83.699954
11
-30.413503
21
83.649954
0
ARC
5
57b
100
AcDbEntity
8
1
100
AcDbCircle
6
CONTINUOUS
62
5
10
-29.413503
20
83.649954
40
1.000000
100
AcDbArc
50
179.999998
51
-89.999999
0
LINE
5
57c
100
AcDbEntity
8
1
100
AcDbLine
6
CONTINUOUS
62
5
10
-29.413503
20
82.649954
11
-26.413503
21
82.649954
0
LINE
5
57d
100
AcDbEntity
8
1
100
AcDbLine
6
CONTINUOUS
62
5
10
-26.413503
20
105.349954
11
-29.413503
21
105.349954
0
ARC
5
57e
100
AcDbEntity
8
1
100
AcDbCircle
6
CONTINUOUS
62
5
10
-21.963503
20
97.049954
40
0.300000
100
AcDbArc
50
-114.758630
51
-0.000000
0
LINE
5
57f
100
AcDbEntity
8
1
100
AcDbLine
6
CONTINUOUS
62
5
10
-21.663503
20
97.049954
11
-21.663503
21
98.549954
0
ARC
5
580
100
AcDbEntity
8
1
100
AcDbCircle
6
CONTINUOUS
62
5
10
-21.963503
20
98.549954
40
0.300000
100
AcDbArc
50
0.000000
51
89.999999
0
LINE
5
581
100
AcDbEntity
8
1
100
AcDbLine
6
CONTINUOUS
62
5
10
-21.963503
20
98.849954
11
-23.379270
21
98.849954
0
ARC
5
582
100
AcDbEntity
8
1
100
AcDbCircle
6
CONTINUOUS
62
5
10
-23.379270
20
98.549954
40
0.300000
100
AcDbArc
50
89.999999
51
165.963755
0
LINE
5
583
100
AcDbEntity
8
1
100
AcDbLine
6
CONTINUOUS
62
5
10
-23.670313
20
98.622715
11
-23.983646
21
97.369384
0
ARC
5
584
100
AcDbEntity
8
1
100
AcDbCircle
6
CONTINUOUS
62
5
10
-23.013503
20
97.126849
40
1.000000
100
AcDbArc
50
165.963755
51
179.999998
0
LINE
5
585
100
AcDbEntity
8
1
100
AcDbLine
6
CONTINUOUS
62
5
10
-24.013503
20
97.126849
11
-24.013503
21
90.873060
0
ARC
5
586
100
AcDbEntity
8
1
100
AcDbCircle
6
CONTINUOUS
62
5
10
-23.013503
20
90.873060
40
1.000000
100
AcDbArc
50
179.999998
51
-165.963755
0
LINE
5
587
100
AcDbEntity
8
1
100
AcDbLine
6
CONTINUOUS
62
5
10
-23.983646
20
90.630524
11
-23.670313
21
89.377194
0
ARC
5
588
100
AcDbEntity
8
1
100
AcDbCircle
6
CONTINUOUS
62
5
10
-23.379270
20
89.449954
40
0.300000
100
AcDbArc
50
-165.963755
51
-89.999999
0
LINE
5
589
100
AcDbEntity
8
1
100
AcDbLine
6
CONTINUOUS
62
5
10
-23.379270
20
89.149954
11
-21.963503
21
89.149954
0
ARC
5
58a
100
AcDbEntity
8
1
100
AcDbCircle
6
CONTINUOUS
62
5
10
-21.963503
20
89.449954
40
0.300000
100
AcDbArc
50
-89.999999
51
0.000000
0
LINE
5
58b
100
AcDbEntity
8
1
100
AcDbLine
6
CONTINUOUS
62
5
10
-21.663503
20
89.449954
11
-21.663503
21
90.949954
0
ARC
5
58c
100
AcDbEntity
8
1
100
AcDbCircle
6
CONTINUOUS
62
5
10
-21.963503
20
90.949954
40
0.300000
100
AcDbArc
50
0.000000
51
114.758630
0
LINE
5
58d
100
AcDbEntity
8
1
100
AcDbLine
6
CONTINUOUS
62
5
10
-22.089142
20
91.222378
11
-23.113503
21
90.749954
0
LINE
5
58e
100
AcDbEntity
8
1
100
AcDbLine
6
CONTINUOUS
62
5
10
-23.113503
20
97.249954
11
-22.089142
21
96.777530
0
ARC
5
58f
100
AcDbEntity
8
1
100
AcDbCircle
6
CONTINUOUS
62
5
10
-22.913503
20
84.499954
40
0.500000
100
AcDbArc
50
179.999998
51
-89.999999
0
LINE
5
590
100
AcDbEntity
8
1
100
AcDbLine
6
CONTINUOUS
62
5
10
-22.913503
20
83.999954
11
-22.163503
21
83.999954
0
ARC
5
591
100
AcDbEntity
8
1
100
AcDbCircle
6
CONTINUOUS
62
5
10
-22.163503
20
84.499954
40
0.500000
100
AcDbArc
50
-89.999999
51
-0.000000
0
LINE
5
592
100
AcDbEntity
8
1
100
AcDbLine
6
CONTINUOUS
62
5
10
-21.663503
20
84.499954
11
-21.663503
21
86.099954
0
ARC
5
593
100
AcDbEntity
8
1
100
AcDbCircle
6
CONTINUOUS
62
5
10
-21.963503
20
86.099954
40
0.300000
100
AcDbArc
50
-0.000000
51
89.999999
0
POLYLINE
5
594
100
AcDbEntity
8
1
6
CONTINUOUS
62
5
100
AcDb2dPolyline
66
1
10
0.0
20
0.0
30
0.0
70
0
0
VERTEX
5
595
100
AcDbEntity
8
1
100
AcDbVertex
100
AcDb2dVertex
62
5
10
-21.963503
20
86.399954
0
VERTEX
5
596
100
AcDbEntity
8
1
100
AcDbVertex
100
AcDb2dVertex
62
5
10
-22.413503
20
86.399954
0
VERTEX
5
597
100
AcDbEntity
8
1
100
AcDbVertex
100
AcDb2dVertex
62
5
10
-22.413503
20
89.149954
0
SEQEND
5
598
100
AcDbEntity
8
1
0
POLYLINE
5
599
100
AcDbEntity
8
1
6
CONTINUOUS
62
5
100
AcDb2dPolyline
66
1
10
0.0
20
0.0
30
0.0
70
0
0
VERTEX
5
59a
100
AcDbEntity
8
1
100
AcDbVertex
100
AcDb2dVertex
62
5
10
-22.413503
20
98.849954
0
VERTEX
5
59b
100
AcDbEntity
8
1
100
AcDbVertex
100
AcDb2dVertex
62
5
10
-22.413503
20
101.599954
0
VERTEX
5
59c
100
AcDbEntity
8
1
100
AcDbVertex
100
AcDb2dVertex
62
5
10
-21.963503
20
101.599954
0
SEQEND
5
59d
100
AcDbEntity
8
1
0
ARC
5
59e
100
AcDbEntity
8
1
100
AcDbCircle
6
CONTINUOUS
62
5
10
-21.963503
20
101.899954
40
0.300000
100
AcDbArc
50
-89.999999
51
0.000000
0
LINE
5
59f
100
AcDbEntity
8
1
100
AcDbLine
6
CONTINUOUS
62
5
10
-21.663503
20
101.899954
11
-21.663503
21
103.499954
0
ARC
5
5a0
100
AcDbEntity
8
1
100
AcDbCircle
6
CONTINUOUS
62
5
10
-22.163503
20
103.499954
40
0.500000
100
AcDbArc
50
-0.000000
51
89.999999
0
LINE
5
5a1
100
AcDbEntity
8
1
100
AcDbLine
6
CONTINUOUS
62
5
10
-22.163503
20
103.999954
11
-22.913503
21
103.999954
0
ARC
5
5a2
100
AcDbEntity
8
1
100
AcDbCircle
6
CONTINUOUS
62
5
10
-22.913503
20
103.499954
40
0.500000
100
AcDbArc
50
89.999999
51
179.999998
0
LINE
5
5a3
100
AcDbEntity
8
1
100
AcDbLine
6
CONTINUOUS
62
5
10
-23.413503
20
103.499954
11
-23.413503
21
98.847995
0
LINE
5
5a4
100
AcDbEntity
8
1
100
AcDbLine
6
CONTINUOUS
62
5
10
-23.413503
20
89.151914
11
-23.413503
21
84.499954
0
LINE
5
5a5
100
AcDbEntity
8
1
100
AcDbLine
6
CONTINUOUS
62
5
10
-21.663503
20
98.549954
11
-21.663503
21
101.899954
0
LINE
5
5a6
100
AcDbEntity
8
1
100
AcDbLine
6
CONTINUOUS
62
5
10
-21.663503
20
86.099954
11
-21.663503
21
89.449954
0
POLYLINE
5
5a7
100
AcDbEntity
8
1
6
DOT2
62
5
100
AcDb2dPolyline
66
1
10
0.0
20
0.0
30
0.0
70
0
0
VERTEX
5
5a8
100
AcDbEntity
8
1
100
AcDbVertex
100
AcDb2dVertex
62
5
10
-10.663503
20
139.099954
0
VERTEX
5
5a9
100
AcDbEntity
8
1
100
AcDbVertex
100
AcDb2dVertex
62
5
10
-13.476003
20
133.474954
0
VERTEX
5
5aa
100
AcDbEntity
8
1
100
AcDbVertex
100
AcDb2dVertex
62
5
10
-9.726003
20
133.474954
0
SEQEND
5
5ab
100
AcDbEntity
8
1
0
LINE
5
5ac
100
AcDbEntity
8
1
100
AcDbLine
6
DOT2
62
5
10
-10.663503
20
139.099954
11
-10.663503
21
131.599954
0
LINE
5
5ad
100
AcDbEntity
8
1
100
AcDbLine
6
DOT2
62
5
10
-11.288503
20
131.599954
11
-10.038503
21
131.599954
0
LINE
5
5ae
100
AcDbEntity
8
1
100
AcDbLine
6
CONTINUOUS
62
5
10
-30.913503
20
95.499954
11
-30.913503
21
132.349954
0
LINE
5
5af
100
AcDbEntity
8
1
100
AcDbLine
6
CONTINUOUS
62
5
10
12.086497
20
95.499954
11
12.086497
21
132.349954
0
POLYLINE
5
5b0
100
AcDbEntity
8
1
6
CONTINUOUS
62
5
100
AcDb2dPolyline
66
1
10
0.0
20
0.0
30
0.0
70
0
0
VERTEX
5
5b1
100
AcDbEntity
8
1
100
AcDbVertex
100
AcDb2dVertex
62
5
10
-9.413503
20
130.349954
0
VERTEX
5
5b2
100
AcDbEntity
8
1
100
AcDbVertex
100
AcDb2dVertex
62
5
10
-30.913503
20
130.349954
0
VERTEX
5
5b3
100
AcDbEntity
8
1
100
AcDbVertex
100
AcDb2dVertex
62
5
10
-24.913503
20
131.349954
0
VERTEX
5
5b4
100
AcDbEntity
8
1
100
AcDbVertex
100
AcDb2dVertex
62
5
10
-24.913503
20
129.349954
0
VERTEX
5
5b5
100
AcDbEntity
8
1
100
AcDbVertex
100
AcDb2dVertex
62
5
10
-30.913503
20
130.349954
0
VERTEX
5
5b6
100
AcDbEntity
8
1
100
AcDbVertex
100
AcDb2dVertex
62
5
10
-24.913503
20
130.849954
0
VERTEX
5
5b7
100
AcDbEntity
8
1
100
AcDbVertex
100
AcDb2dVertex
62
5
10
-24.913503
20
129.849954
0
VERTEX
5
5b8
100
AcDbEntity
8
1
100
AcDbVertex
100
AcDb2dVertex
62
5
10
-30.913503
20
130.349954
0
VERTEX
5
5b9
100
AcDbEntity
8
1
100
AcDbVertex
100
AcDb2dVertex
62
5
10
-24.913503
20
131.099954
0
SEQEND
5
5ba
100
AcDbEntity
8
1
0
POLYLINE
5
5bb
100
AcDbEntity
8
1
6
CONTINUOUS
62
5
100
AcDb2dPolyline
66
1
10
0.0
20
0.0
30
0.0
70
0
0
VERTEX
5
5bc
100
AcDbEntity
8
1
100
AcDbVertex
100
AcDb2dVertex
62
5
10
-24.913503
20
130.599954
0
VERTEX
5
5bd
100
AcDbEntity
8
1
100
AcDbVertex
100
AcDb2dVertex
62
5
10
-30.913503
20
130.349954
0
VERTEX
5
5be
100
AcDbEntity
8
1
100
AcDbVertex
100
AcDb2dVertex
62
5
10
-24.913503
20
130.099954
0
SEQEND
5
5bf
100
AcDbEntity
8
1
0
LINE
5
5c0
100
AcDbEntity
8
1
100
AcDbLine
6
CONTINUOUS
62
5
10
-24.913503
20
129.599954
11
-30.913503
21
130.349954
0
POLYLINE
5
5c1
100
AcDbEntity
8
1
6
CONTINUOUS
62
5
100
AcDb2dPolyline
66
1
10
0.0
20
0.0
30
0.0
70
0
0
VERTEX
5
5c2
100
AcDbEntity
8
1
100
AcDbVertex
100
AcDb2dVertex
62
5
10
-9.413503
20
130.349954
0
VERTEX
5
5c3
100
AcDbEntity
8
1
100
AcDbVertex
100
AcDb2dVertex
62
5
10
12.086497
20
130.349954
0
VERTEX
5
5c4
100
AcDbEntity
8
1
100
AcDbVertex
100
AcDb2dVertex
62
5
10
6.086497
20
129.349954
0
VERTEX
5
5c5
100
AcDbEntity
8
1
100
AcDbVertex
100
AcDb2dVertex
62
5
10
6.086497
20
131.349954
0
VERTEX
5
5c6
100
AcDbEntity
8
1
100
AcDbVertex
100
AcDb2dVertex
62
5
10
12.086497
20
130.349954
0
VERTEX
5
5c7
100
AcDbEntity
8
1
100
AcDbVertex
100
AcDb2dVertex
62
5
10
6.086497
20
129.849954
0
VERTEX
5
5c8
100
AcDbEntity
8
1
100
AcDbVertex
100
AcDb2dVertex
62
5
10
6.086497
20
130.849954
0
VERTEX
5
5c9
100
AcDbEntity
8
1
100
AcDbVertex
100
AcDb2dVertex
62
5
10
12.086497
20
130.349954
0
VERTEX
5
5ca
100
AcDbEntity
8
1
100
AcDbVertex
100
AcDb2dVertex
62
5
10
6.086497
20
129.599954
0
SEQEND
5
5cb
100
AcDbEntity
8
1
0
POLYLINE
5
5cc
100
AcDbEntity
8
1
6
CONTINUOUS
62
5
100
AcDb2dPolyline
66
1
10
0.0
20
0.0
30
0.0
70
0
0
VERTEX
5
5cd
100
AcDbEntity
8
1
100
AcDbVertex
100
AcDb2dVertex
62
5
10
6.086497
20
130.099954
0
VERTEX
5
5ce
100
AcDbEntity
8
1
100
AcDbVertex
100
AcDb2dVertex
62
5
10
12.086497
20
130.349954
0
VERTEX
5
5cf
100
AcDbEntity
8
1
100
AcDbVertex
100
AcDb2dVertex
62
5
10
6.086497
20
130.599954
0
SEQEND
5
5d0
100
AcDbEntity
8
1
0
LINE
5
5d1
100
AcDbEntity
8
1
100
AcDbLine
6
CONTINUOUS
62
5
10
6.086497
20
131.099954
11
12.086497
21
130.349954
0
LINE
5
5d2
100
AcDbEntity
8
1
100
AcDbLine
6
CONTINUOUS
62
5
10
-9.163503
20
224.937454
11
-9.163503
21
217.749954
0
POLYLINE
5
5d3
100
AcDbEntity
8
1
6
CONTINUOUS
62
5
100
AcDb2dPolyline
66
1
10
0.0
20
0.0
30
0.0
70
0
0
VERTEX
5
5d4
100
AcDbEntity
8
1
100
AcDbVertex
100
AcDb2dVertex
62
5
10
-9.163503
20
222.124954
0
VERTEX
5
5d5
100
AcDbEntity
8
1
100
AcDbVertex
100
AcDb2dVertex
62
5
10
-8.913503
20
222.124954
0
VERTEX
5
5d6
100
AcDbEntity
8
1
100
AcDbVertex
100
AcDb2dVertex
62
5
10
-7.413503
20
221.187454
0
SEQEND
5
5d7
100
AcDbEntity
8
1
0
LINE
5
5d8
100
AcDbEntity
8
1
100
AcDbLine
6
CONTINUOUS
62
5
10
-7.163503
20
224.312454
11
-6.663503
21
223.687454
0
LINE
5
5d9
100
AcDbEntity
8
1
100
AcDbLine
6
CONTINUOUS
62
5
10
-6.163503
20
224.937454
11
-5.663503
21
224.312454
0
POLYLINE
5
5da
100
AcDbEntity
8
1
6
CONTINUOUS
62
5
100
AcDb2dPolyline
66
1
10
0.0
20
0.0
30
0.0
70
1
0
VERTEX
5
5db
100
AcDbEntity
8
1
100
AcDbVertex
100
AcDb2dVertex
62
5
10
-5.413503
20
95.999954
0
VERTEX
5
5dc
100
AcDbEntity
8
1
100
AcDbVertex
100
AcDb2dVertex
62
5
10
-5.413503
20
91.999954
0
VERTEX
5
5dd
100
AcDbEntity
8
1
100
AcDbVertex
100
AcDb2dVertex
62
5
10
-13.413503
20
91.999954
0
VERTEX
5
5de
100
AcDbEntity
8
1
100
AcDbVertex
100
AcDb2dVertex
62
5
10
-13.413503
20
95.999954
0
SEQEND
5
5df
100
AcDbEntity
8
1
0
POLYLINE
5
5e0
100
AcDbEntity
8
1
6
CONTINUOUS
62
5
100
AcDb2dPolyline
66
1
10
0.0
20
0.0
30
0.0
70
1
0
VERTEX
5
5e1
100
AcDbEntity
8
1
100
AcDbVertex
100
AcDb2dVertex
62
5
10
-13.413503
20
92.999954
0
VERTEX
5
5e2
100
AcDbEntity
8
1
100
AcDbVertex
100
AcDb2dVertex
62
5
10
-12.413503
20
91.999954
0
VERTEX
5
5e3
100
AcDbEntity
8
1
100
AcDbVertex
100
AcDb2dVertex
62
5
10
-8.413503
20
95.999954
0
VERTEX
5
5e4
100
AcDbEntity
8
1
100
AcDbVertex
100
AcDb2dVertex
62
5
10
-5.413503
20
92.999954
0
VERTEX
5
5e5
100
AcDbEntity
8
1
100
AcDbVertex
100
AcDb2dVertex
62
5
10
-6.413503
20
91.999954
0
VERTEX
5
5e6
100
AcDbEntity
8
1
100
AcDbVertex
100
AcDb2dVertex
62
5
10
-10.413503
20
95.999954
0
VERTEX
5
5e7
100
AcDbEntity
8
1
100
AcDbVertex
100
AcDb2dVertex
62
5
10
-13.413503
20
92.999954
0
SEQEND
5
5e8
100
AcDbEntity
8
1
0
POLYLINE
5
5e9
100
AcDbEntity
8
1
6
CONTINUOUS
62
5
100
AcDb2dPolyline
66
1
10
0.0
20
0.0
30
0.0
70
1
0
VERTEX
5
5ea
100
AcDbEntity
8
1
100
AcDbVertex
100
AcDb2dVertex
62
5
10
-13.413503
20
93.999954
0
VERTEX
5
5eb
100
AcDbEntity
8
1
100
AcDbVertex
100
AcDb2dVertex
62
5
10
-11.413503
20
91.999954
0
VERTEX
5
5ec
100
AcDbEntity
8
1
100
AcDbVertex
100
AcDb2dVertex
62
5
10
-7.413503
20
95.999954
0
VERTEX
5
5ed
100
AcDbEntity
8
1
100
AcDbVertex
100
AcDb2dVertex
62
5
10
-5.413503
20
93.999954
0
VERTEX
5
5ee
100
AcDbEntity
8
1
100
AcDbVertex
100
AcDb2dVertex
62
5
10
-7.413503
20
91.999954
0
VERTEX
5
5ef
100
AcDbEntity
8
1
100
AcDbVertex
100
AcDb2dVertex
62
5
10
-11.413503
20
95.999954
0
VERTEX
5
5f0
100
AcDbEntity
8
1
100
AcDbVertex
100
AcDb2dVertex
62
5
10
-13.413503
20
93.999954
0
SEQEND
5
5f1
100
AcDbEntity
8
1
0
POLYLINE
5
5f2
100
AcDbEntity
8
1
6
CONTINUOUS
62
5
100
AcDb2dPolyline
66
1
10
0.0
20
0.0
30
0.0
70
1
0
VERTEX
5
5f3
100
AcDbEntity
8
1
100
AcDbVertex
100
AcDb2dVertex
62
5
10
-13.413503
20
94.999954
0
VERTEX
5
5f4
100
AcDbEntity
8
1
100
AcDbVertex
100
AcDb2dVertex
62
5
10
-10.413503
20
91.999954
0
VERTEX
5
5f5
100
AcDbEntity
8
1
100
AcDbVertex
100
AcDb2dVertex
62
5
10
-6.413503
20
95.999954
0
VERTEX
5
5f6
100
AcDbEntity
8
1
100
AcDbVertex
100
AcDb2dVertex
62
5
10
-5.413503
20
94.999954
0
VERTEX
5
5f7
100
AcDbEntity
8
1
100
AcDbVertex
100
AcDb2dVertex
62
5
10
-8.413503
20
91.999954
0
VERTEX
5
5f8
100
AcDbEntity
8
1
100
AcDbVertex
100
AcDb2dVertex
62
5
10
-12.413503
20
95.999954
0
VERTEX
5
5f9
100
AcDbEntity
8
1
100
AcDbVertex
100
AcDb2dVertex
62
5
10
-13.413503
20
94.999954
0
SEQEND
5
5fa
100
AcDbEntity
8
1
0
POLYLINE
5
5fb
100
AcDbEntity
8
1
6
CONTINUOUS
62
5
100
AcDb2dPolyline
66
1
10
0.0
20
0.0
30
0.0
70
0
0
VERTEX
5
5fc
100
AcDbEntity
8
1
100
AcDbVertex
100
AcDb2dVertex
62
5
10
-5.413503
20
95.999954
0
VERTEX
5
5fd
100
AcDbEntity
8
1
100
AcDbVertex
100
AcDb2dVertex
62
5
10
-9.413503
20
91.999954
0
VERTEX
5
5fe
100
AcDbEntity
8
1
100
AcDbVertex
100
AcDb2dVertex
62
5
10
-13.413503
20
95.999954
0
SEQEND
5
5ff
100
AcDbEntity
8
1
0
POLYLINE
5
600
100
AcDbEntity
8
1
6
CONTINUOUS
62
5
100
AcDb2dPolyline
66
1
10
0.0
20
0.0
30
0.0
70
0
0
VERTEX
5
601
100
AcDbEntity
8
1
100
AcDbVertex
100
AcDb2dVertex
62
5
10
-13.413503
20
91.999954
0
VERTEX
5
602
100
AcDbEntity
8
1
100
AcDbVertex
100
AcDb2dVertex
62
5
10
-9.413503
20
95.999954
0
VERTEX
5
603
100
AcDbEntity
8
1
100
AcDbVertex
100
AcDb2dVertex
62
5
10
-5.413503
20
91.999954
0
SEQEND
5
604
100
AcDbEntity
8
1
0
ARC
5
605
100
AcDbEntity
8
1
100
AcDbCircle
6
CONTINUOUS
62
5
10
-10.943123
20
96.999954
40
0.500000
100
AcDbArc
50
-89.999999
51
0.000000
0
LINE
5
606
100
AcDbEntity
8
1
100
AcDbLine
6
CONTINUOUS
62
5
10
-10.943123
20
96.499954
11
-13.913618
21
96.499954
0
ARC
5
607
100
AcDbEntity
8
1
100
AcDbCircle
6
CONTINUOUS
62
5
10
-13.913618
20
95.999954
40
0.500000
100
AcDbArc
50
89.999999
51
179.999998
0
LINE
5
608
100
AcDbEntity
8
1
100
AcDbLine
6
CONTINUOUS
62
5
10
-14.413618
20
95.999954
11
-14.413618
21
91.999954
0
ARC
5
609
100
AcDbEntity
8
1
100
AcDbCircle
6
CONTINUOUS
62
5
10
-13.913618
20
91.999954
40
0.500000
100
AcDbArc
50
179.999998
51
-89.999999
0
LINE
5
60a
100
AcDbEntity
8
1
100
AcDbLine
6
CONTINUOUS
62
5
10
-13.913618
20
91.499954
11
-10.943123
21
91.499954
0
ARC
5
60b
100
AcDbEntity
8
1
100
AcDbCircle
6
CONTINUOUS
62
5
10
-10.943123
20
90.999954
40
0.500000
100
AcDbArc
50
0.000000
51
89.999999
0
POLYLINE
5
60c
100
AcDbEntity
8
1
6
CONTINUOUS
62
5
100
AcDb2dPolyline
66
1
10
0.0
20
0.0
30
0.0
70
0
0
VERTEX
5
60d
100
AcDbEntity
8
1
100
AcDbVertex
100
AcDb2dVertex
62
5
10
-10.443123
20
90.999954
0
VERTEX
5
60e
100
AcDbEntity
8
1
100
AcDbVertex
100
AcDb2dVertex
62
5
10
-10.443123
20
90.499954
0
VERTEX
5
60f
100
AcDbEntity
8
1
100
AcDbVertex
100
AcDb2dVertex
62
5
10
-8.430574
20
90.499954
0
VERTEX
5
610
100
AcDbEntity
8
1
100
AcDbVertex
100
AcDb2dVertex
62
5
10
-8.430574
20
90.999954
0
SEQEND
5
611
100
AcDbEntity
8
1
0
ARC
5
612
100
AcDbEntity
8
1
100
AcDbCircle
6
CONTINUOUS
62
5
10
-7.930574
20
90.999954
40
0.500000
100
AcDbArc
50
89.999999
51
179.999998
0
LINE
5
613
100
AcDbEntity
8
1
100
AcDbLine
6
CONTINUOUS
62
5
10
-7.930574
20
91.499954
11
-4.962225
21
91.499954
0
ARC
5
614
100
AcDbEntity
8
1
100
AcDbCircle
6
CONTINUOUS
62
5
10
-4.962225
20
91.999954
40
0.500000
100
AcDbArc
50
-89.999999
51
0.000000
0
LINE
5
615
100
AcDbEntity
8
1
100
AcDbLine
6
CONTINUOUS
62
5
10
-4.462225
20
91.999954
11
-4.462225
21
95.999954
0
ARC
5
616
100
AcDbEntity
8
1
100
AcDbCircle
6
CONTINUOUS
62
5
10
-4.962225
20
95.999954
40
0.500000
100
AcDbArc
50
0.000000
51
89.999999
0
LINE
5
617
100
AcDbEntity
8
1
100
AcDbLine
6
CONTINUOUS
62
5
10
-4.962225
20
96.499954
11
-7.930574
21
96.499954
0
ARC
5
618
100
AcDbEntity
8
1
100
AcDbCircle
6
CONTINUOUS
62
5
10
-7.930574
20
96.999954
40
0.500000
100
AcDbArc
50
179.999998
51
-89.999999
0
POLYLINE
5
619
100
AcDbEntity
8
1
6
CONTINUOUS
62
5
100
AcDb2dPolyline
66
1
10
0.0
20
0.0
30
0.0
70
0
0
VERTEX
5
61a
100
AcDbEntity
8
1
100
AcDbVertex
100
AcDb2dVertex
62
5
10
-8.430574
20
96.999954
0
VERTEX
5
61b
100
AcDbEntity
8
1
100
AcDbVertex
100
AcDb2dVertex
62
5
10
-8.430574
20
97.499954
0
VERTEX
5
61c
100
AcDbEntity
8
1
100
AcDbVertex
100
AcDb2dVertex
62
5
10
-10.443123
20
97.499954
0
VERTEX
5
61d
100
AcDbEntity
8
1
100
AcDbVertex
100
AcDb2dVertex
62
5
10
-10.443123
20
96.999954
0
SEQEND
5
61e
100
AcDbEntity
8
1
0
ARC
5
61f
100
AcDbEntity
8
1
100
AcDbCircle
6
CONTINUOUS
62
5
10
-13.913503
20
91.999954
40
0.400000
100
AcDbArc
50
179.999998
51
-89.999999
0
LINE
5
620
100
AcDbEntity
8
1
100
AcDbLine
6
CONTINUOUS
62
5
10
-14.313503
20
91.999954
11
-14.313503
21
95.999954
0
ARC
5
621
100
AcDbEntity
8
1
100
AcDbCircle
6
CONTINUOUS
62
5
10
-13.913503
20
95.999954
40
0.400000
100
AcDbArc
50
89.999999
51
179.999998
0
POLYLINE
5
622
100
AcDbEntity
8
1
6
CONTINUOUS
62
5
100
AcDb2dPolyline
66
1
10
0.0
20
0.0
30
0.0
70
0
0
VERTEX
5
623
100
AcDbEntity
8
1
100
AcDbVertex
100
AcDb2dVertex
62
5
10
-13.913503
20
96.399954
0
VERTEX
5
624
100
AcDbEntity
8
1
100
AcDbVertex
100
AcDb2dVertex
62
5
10
-10.313503
20
96.399954
0
VERTEX
5
625
100
AcDbEntity
8
1
100
AcDbVertex
100
AcDb2dVertex
62
5
10
-10.313503
20
96.899954
0
SEQEND
5
626
100
AcDbEntity
8
1
0
ARC
5
627
100
AcDbEntity
8
1
100
AcDbCircle
6
CONTINUOUS
62
5
10
-9.813503
20
96.899954
40
0.500000
100
AcDbArc
50
89.999999
51
179.999998
0
LINE
5
628
100
AcDbEntity
8
1
100
AcDbLine
6
CONTINUOUS
62
5
10
-9.813503
20
97.399954
11
-9.013503
21
97.399954
0
ARC
5
629
100
AcDbEntity
8
1
100
AcDbCircle
6
CONTINUOUS
62
5
10
-9.013503
20
96.899954
40
0.500000
100
AcDbArc
50
-0.000000
51
89.999999
0
POLYLINE
5
62a
100
AcDbEntity
8
1
6
CONTINUOUS
62
5
100
AcDb2dPolyline
66
1
10
0.0
20
0.0
30
0.0
70
0
0
VERTEX
5
62b
100
AcDbEntity
8
1
100
AcDbVertex
100
AcDb2dVertex
62
5
10
-8.513503
20
96.899954
0
VERTEX
5
62c
100
AcDbEntity
8
1
100
AcDbVertex
100
AcDb2dVertex
62
5
10
-8.513503
20
96.399954
0
VERTEX
5
62d
100
AcDbEntity
8
1
100
AcDbVertex
100
AcDb2dVertex
62
5
10
-4.913503
20
96.399954
0
SEQEND
5
62e
100
AcDbEntity
8
1
0
ARC
5
62f
100
AcDbEntity
8
1
100
AcDbCircle
6
CONTINUOUS
62
5
10
-4.913503
20
95.999954
40
0.400000
100
AcDbArc
50
-0.000000
51
89.999999
0
POLYLINE
5
630
100
AcDbEntity
8
1
6
CONTINUOUS
62
5
100
AcDb2dPolyline
66
1
10
0.0
20
0.0
30
0.0
70
0
0
VERTEX
5
631
100
AcDbEntity
8
1
100
AcDbVertex
100
AcDb2dVertex
62
5
10
-4.513503
20
95.999954
0
VERTEX
5
632
100
AcDbEntity
8
1
100
AcDbVertex
100
AcDb2dVertex
62
5
10
-4.513503
20
95.999954
0
VERTEX
5
633
100
AcDbEntity
8
1
100
AcDbVertex
100
AcDb2dVertex
62
5
10
-4.513503
20
91.999954
0
SEQEND
5
634
100
AcDbEntity
8
1
0
ARC
5
635
100
AcDbEntity
8
1
100
AcDbCircle
6
CONTINUOUS
62
5
10
-4.913503
20
91.999954
40
0.400000
100
AcDbArc
50
-89.999999
51
-0.000000
0
POLYLINE
5
636
100
AcDbEntity
8
1
6
CONTINUOUS
62
5
100
AcDb2dPolyline
66
1
10
0.0
20
0.0
30
0.0
70
0
0
VERTEX
5
637
100
AcDbEntity
8
1
100
AcDbVertex
100
AcDb2dVertex
62
5
10
-4.913503
20
91.599954
0
VERTEX
5
638
100
AcDbEntity
8
1
100
AcDbVertex
100
AcDb2dVertex
62
5
10
-8.513503
20
91.599954
0
VERTEX
5
639
100
AcDbEntity
8
1
100
AcDbVertex
100
AcDb2dVertex
62
5
10
-8.513503
20
91.099954
0
SEQEND
5
63a
100
AcDbEntity
8
1
0
ARC
5
63b
100
AcDbEntity
8
1
100
AcDbCircle
6
CONTINUOUS
62
5
10
-9.013503
20
91.099954
40
0.500000
100
AcDbArc
50
-89.999999
51
-0.000000
0
LINE
5
63c
100
AcDbEntity
8
1
100
AcDbLine
6
CONTINUOUS
62
5
10
-9.013503
20
90.599954
11
-9.813503
21
90.599954
0
ARC
5
63d
100
AcDbEntity
8
1
100
AcDbCircle
6
CONTINUOUS
62
5
10
-9.813503
20
91.099954
40
0.500000
100
AcDbArc
50
179.999998
51
-89.999999
0
POLYLINE
5
63e
100
AcDbEntity
8
1
6
CONTINUOUS
62
5
100
AcDb2dPolyline
66
1
10
0.0
20
0.0
30
0.0
70
0
0
VERTEX
5
63f
100
AcDbEntity
8
1
100
AcDbVertex
100
AcDb2dVertex
62
5
10
-10.313503
20
91.099954
0
VERTEX
5
640
100
AcDbEntity
8
1
100
AcDbVertex
100
AcDb2dVertex
62
5
10
-10.313503
20
91.599954
0
VERTEX
5
641
100
AcDbEntity
8
1
100
AcDbVertex
100
AcDb2dVertex
62
5
10
-13.913503
20
91.599954
0
SEQEND
5
642
100
AcDbEntity
8
1
0
LINE
5
643
100
AcDbEntity
8
1
100
AcDbLine
6
CONTINUOUS
62
5
10
-9.413503
20
91.999954
11
-9.413503
21
95.999954
0
ARC
5
644
100
AcDbEntity
8
1
100
AcDbCircle
6
CONTINUOUS
62
5
10
-4.061052
20
90.355126
40
0.300000
100
AcDbArc
50
179.999998
51
-89.999999
0
POLYLINE
5
645
100
AcDbEntity
8
1
6
CONTINUOUS
62
5
100
AcDb2dPolyline
66
1
10
0.0
20
0.0
30
0.0
70
0
0
VERTEX
5
646
100
AcDbEntity
8
1
100
AcDbVertex
100
AcDb2dVertex
62
5
10
-4.061052
20
90.055126
0
VERTEX
5
647
100
AcDbEntity
8
1
100
AcDbVertex
100
AcDb2dVertex
62
5
10
-4.061052
20
90.055126
0
VERTEX
5
648
100
AcDbEntity
8
1
100
AcDbVertex
100
AcDb2dVertex
62
5
10
-3.329244
20
90.055126
0
SEQEND
5
649
100
AcDbEntity
8
1
0
ARC
5
64a
100
AcDbEntity
8
1
100
AcDbCircle
6
CONTINUOUS
62
5
10
-3.329244
20
90.355126
40
0.300000
100
AcDbArc
50
-89.999999
51
0.000000
0
LINE
5
64b
100
AcDbEntity
8
1
100
AcDbLine
6
CONTINUOUS
62
5
10
-3.029244
20
90.355126
11
-3.029244
21
91.799954
0
POLYLINE
5
64c
100
AcDbEntity
8
1
6
CONTINUOUS
62
5
100
AcDb2dPolyline
66
1
10
0.0
20
0.0
30
0.0
70
0
0
VERTEX
5
64d
100
AcDbEntity
8
1
100
AcDbVertex
100
AcDb2dVertex
62
5
10
-14.413618
20
90.499954
0
VERTEX
5
64e
100
AcDbEntity
8
1
100
AcDbVertex
100
AcDb2dVertex
62
5
10
-14.413618
20
88.999954
0
VERTEX
5
64f
100
AcDbEntity
8
1
100
AcDbVertex
100
AcDb2dVertex
62
5
10
-4.361052
20
88.999954
0
VERTEX
5
650
100
AcDbEntity
8
1
100
AcDbVertex
100
AcDb2dVertex
62
5
10
-4.361052
20
90.355127
0
VERTEX
5
651
100
AcDbEntity
8
1
100
AcDbVertex
100
AcDb2dVertex
62
5
10
-4.361052
20
90.355126
0
SEQEND
5
652
100
AcDbEntity
8
1
0
ARC
5
653
100
AcDbEntity
8
1
100
AcDbCircle
6
CONTINUOUS
62
5
10
-17.361082
20
87.768704
40
0.300000
100
AcDbArc
50
-89.999999
51
0.000000
0
LINE
5
654
100
AcDbEntity
8
1
100
AcDbLine
6
CONTINUOUS
62
5
10
-17.061082
20
87.768704
11
-17.061082
21
88.699954
0
ARC
5
655
100
AcDbEntity
8
1
100
AcDbCircle
6
CONTINUOUS
62
5
10
-17.361082
20
88.699954
40
0.300000
100
AcDbArc
50
0.000000
51
89.999999
0
LINE
5
656
100
AcDbEntity
8
1
100
AcDbLine
6
CONTINUOUS
62
5
10
-17.361082
20
88.999954
11
-17.361082
21
88.999954
0
LINE
5
657
100
AcDbEntity
8
1
100
AcDbLine
6
CONTINUOUS
62
5
10
-1.382187
20
88.999954
11
-1.382187
21
88.999954
0
ARC
5
658
100
AcDbEntity
8
1
100
AcDbCircle
6
CONTINUOUS
62
5
10
-1.382187
20
88.699954
40
0.300000
100
AcDbArc
50
89.999999
51
-179.999998
0
LINE
5
659
100
AcDbEntity
8
1
100
AcDbLine
6
CONTINUOUS
62
5
10
-1.682187
20
88.699954
11
-1.682187
21
87.768704
0
ARC
5
65a
100
AcDbEntity
8
1
100
AcDbCircle
6
CONTINUOUS
62
5
10
-1.382187
20
87.768704
40
0.300000
100
AcDbArc
50
179.999998
51
-89.999999
0
POLYLINE
5
65b
100
AcDbEntity
8
1
6
CONTINUOUS
62
5
100
AcDb2dPolyline
66
1
10
0.0
20
0.0
30
0.0
70
0
0
VERTEX
5
65c
100
AcDbEntity
8
1
100
AcDbVertex
100
AcDb2dVertex
62
5
10
-1.382187
20
87.468704
0
VERTEX
5
65d
100
AcDbEntity
8
1
100
AcDbVertex
100
AcDb2dVertex
62
5
10
-1.382187
20
87.468704
0
VERTEX
5
65e
100
AcDbEntity
8
1
100
AcDbVertex
100
AcDb2dVertex
62
5
10
-17.361082
20
87.468704
0
VERTEX
5
65f
100
AcDbEntity
8
1
100
AcDbVertex
100
AcDb2dVertex
62
5
10
-17.361082
20
87.468704
0
SEQEND
5
660
100
AcDbEntity
8
1
0
ARC
5
661
100
AcDbEntity
8
1
100
AcDbCircle
6
CONTINUOUS
62
5
10
-12.113503
20
87.099954
40
0.200000
100
AcDbArc
50
89.999999
51
179.999998
0
LINE
5
662
100
AcDbEntity
8
1
100
AcDbLine
6
CONTINUOUS
62
5
10
-12.313503
20
87.099954
11
-12.313503
21
84.699954
0
ARC
5
663
100
AcDbEntity
8
1
100
AcDbCircle
6
CONTINUOUS
62
5
10
-11.613503
20
84.699954
40
0.700000
100
AcDbArc
50
179.999998
51
-89.999999
0
LINE
5
664
100
AcDbEntity
8
1
100
AcDbLine
6
CONTINUOUS
62
5
10
-11.613503
20
83.999954
11
-7.213503
21
83.999954
0
ARC
5
665
100
AcDbEntity
8
1
100
AcDbCircle
6
CONTINUOUS
62
5
10
-7.213503
20
84.699954
40
0.700000
100
AcDbArc
50
-89.999999
51
0.000000
0
LINE
5
666
100
AcDbEntity
8
1
100
AcDbLine
6
CONTINUOUS
62
5
10
-6.513503
20
84.699954
11
-6.513503
21
87.099954
0
ARC
5
667
100
AcDbEntity
8
1
100
AcDbCircle
6
CONTINUOUS
62
5
10
-6.713503
20
87.099954
40
0.200000
100
AcDbArc
50
0.000000
51
89.999999
0
LINE
5
668
100
AcDbEntity
8
1
100
AcDbLine
6
CONTINUOUS
62
5
10
-6.713503
20
87.299954
11
-12.113503
21
87.299954
0
LINE
5
669
100
AcDbEntity
8
1
100
AcDbLine
6
CONTINUOUS
62
5
10
-10.313503
20
91.499954
11
-10.943123
21
91.499954
0
LINE
5
66a
100
AcDbEntity
8
1
100
AcDbLine
6
CONTINUOUS
62
5
10
-7.930574
20
91.499954
11
-8.513503
21
91.499954
0
ARC
5
66b
100
AcDbEntity
8
1
100
AcDbCircle
6
CONTINUOUS
62
5
10
-10.169715
20
84.699954
40
0.700000
100
AcDbArc
50
179.999998
51
-89.999999
0
LINE
5
66c
100
AcDbEntity
8
1
100
AcDbLine
6
CONTINUOUS
62
5
10
-10.869715
20
84.699954
11
-10.869715
21
87.099954
0
ARC
5
66d
100
AcDbEntity
8
1
100
AcDbCircle
6
CONTINUOUS
62
5
10
-10.669715
20
87.099954
40
0.200000
100
AcDbArc
50
89.999999
51
179.999998
0
LINE
5
66e
100
AcDbEntity
8
1
100
AcDbLine
6
CONTINUOUS
62
5
10
-10.669715
20
87.299954
11
-8.157291
21
87.299954
0
ARC
5
66f
100
AcDbEntity
8
1
100
AcDbCircle
6
CONTINUOUS
62
5
10
-8.157291
20
87.099954
40
0.200000
100
AcDbArc
50
0.000000
51
89.999999
0
LINE
5
670
100
AcDbEntity
8
1
100
AcDbLine
6
CONTINUOUS
62
5
10
-7.957291
20
87.099954
11
-7.957291
21
84.699954
0
ARC
5
671
100
AcDbEntity
8
1
100
AcDbCircle
6
CONTINUOUS
62
5
10
-8.657291
20
84.699954
40
0.700000
100
AcDbArc
50
-89.999999
51
0.000000
0
LINE
5
672
100
AcDbEntity
8
1
100
AcDbLine
6
CONTINUOUS
62
5
10
-8.657291
20
83.999954
11
-10.169715
21
83.999954
0
ARC
5
673
100
AcDbEntity
8
1
100
AcDbCircle
6
CONTINUOUS
62
5
10
-3.329244
20
97.644782
40
0.300000
100
AcDbArc
50
0.000000
51
89.999999
0
LINE
5
674
100
AcDbEntity
8
1
100
AcDbLine
6
CONTINUOUS
62
5
10
-3.029244
20
97.644782
11
-3.029244
21
96.199954
0
POLYLINE
5
675
100
AcDbEntity
8
1
6
CONTINUOUS
62
5
100
AcDb2dPolyline
66
1
10
0.0
20
0.0
30
0.0
70
0
0
VERTEX
5
676
100
AcDbEntity
8
1
100
AcDbVertex
100
AcDb2dVertex
62
5
10
-14.413618
20
97.499954
0
VERTEX
5
677
100
AcDbEntity
8
1
100
AcDbVertex
100
AcDb2dVertex
62
5
10
-14.413618
20
98.999954
0
VERTEX
5
678
100
AcDbEntity
8
1
100
AcDbVertex
100
AcDb2dVertex
62
5
10
-4.361052
20
98.999954
0
VERTEX
5
679
100
AcDbEntity
8
1
100
AcDbVertex
100
AcDb2dVertex
62
5
10
-4.361052
20
97.644782
0
VERTEX
5
67a
100
AcDbEntity
8
1
100
AcDbVertex
100
AcDb2dVertex
62
5
10
-4.361052
20
97.644782
0
SEQEND
5
67b
100
AcDbEntity
8
1
0
ARC
5
67c
100
AcDbEntity
8
1
100
AcDbCircle
6
CONTINUOUS
62
5
10
-4.061052
20
97.644782
40
0.300000
100
AcDbArc
50
89.999999
51
179.999998
0
POLYLINE
5
67d
100
AcDbEntity
8
1
6
CONTINUOUS
62
5
100
AcDb2dPolyline
66
1
10
0.0
20
0.0
30
0.0
70
0
0
VERTEX
5
67e
100
AcDbEntity
8
1
100
AcDbVertex
100
AcDb2dVertex
62
5
10
-4.061052
20
97.944782
0
VERTEX
5
67f
100
AcDbEntity
8
1
100
AcDbVertex
100
AcDb2dVertex
62
5
10
-4.061052
20
97.944782
0
VERTEX
5
680
100
AcDbEntity
8
1
100
AcDbVertex
100
AcDb2dVertex
62
5
10
-3.329244
20
97.944782
0
SEQEND
5
681
100
AcDbEntity
8
1
0
ARC
5
682
100
AcDbEntity
8
1
100
AcDbCircle
6
CONTINUOUS
62
5
10
-17.361082
20
100.231204
40
0.300000
100
AcDbArc
50
0.000000
51
89.999999
0
LINE
5
683
100
AcDbEntity
8
1
100
AcDbLine
6
CONTINUOUS
62
5
10
-17.061082
20
100.231204
11
-17.061082
21
99.299954
0
ARC
5
684
100
AcDbEntity
8
1
100
AcDbCircle
6
CONTINUOUS
62
5
10
-17.361082
20
99.299954
40
0.300000
100
AcDbArc
50
-89.999999
51
0.000000
0
LINE
5
685
100
AcDbEntity
8
1
100
AcDbLine
6
CONTINUOUS
62
5
10
-17.361082
20
98.999954
11
-17.361082
21
98.999954
0
LINE
5
686
100
AcDbEntity
8
1
100
AcDbLine
6
CONTINUOUS
62
5
10
-1.382187
20
98.999954
11
-1.382187
21
98.999954
0
ARC
5
687
100
AcDbEntity
8
1
100
AcDbCircle
6
CONTINUOUS
62
5
10
-1.382187
20
99.299954
40
0.300000
100
AcDbArc
50
179.999998
51
-89.999999
0
LINE
5
688
100
AcDbEntity
8
1
100
AcDbLine
6
CONTINUOUS
62
5
10
-1.682187
20
99.299954
11
-1.682187
21
100.231204
0
ARC
5
689
100
AcDbEntity
8
1
100
AcDbCircle
6
CONTINUOUS
62
5
10
-1.382187
20
100.231204
40
0.300000
100
AcDbArc
50
89.999999
51
179.999998
0
POLYLINE
5
68a
100
AcDbEntity
8
1
6
CONTINUOUS
62
5
100
AcDb2dPolyline
66
1
10
0.0
20
0.0
30
0.0
70
0
0
VERTEX
5
68b
100
AcDbEntity
8
1
100
AcDbVertex
100
AcDb2dVertex
62
5
10
-1.382187
20
100.531204
0
VERTEX
5
68c
100
AcDbEntity
8
1
100
AcDbVertex
100
AcDb2dVertex
62
5
10
-1.382187
20
100.531204
0
VERTEX
5
68d
100
AcDbEntity
8
1
100
AcDbVertex
100
AcDb2dVertex
62
5
10
-17.361082
20
100.531204
0
VERTEX
5
68e
100
AcDbEntity
8
1
100
AcDbVertex
100
AcDb2dVertex
62
5
10
-17.361082
20
100.531204
0
SEQEND
5
68f
100
AcDbEntity
8
1
0
LINE
5
690
100
AcDbEntity
8
1
100
AcDbLine
6
CONTINUOUS
62
5
10
-13.413503
20
94.999954
11
-5.413503
21
94.999954
0
LINE
5
691
100
AcDbEntity
8
1
100
AcDbLine
6
CONTINUOUS
62
5
10
-5.413503
20
93.999954
11
-13.413503
21
93.999954
0
ARC
5
692
100
AcDbEntity
8
1
100
AcDbCircle
6
CONTINUOUS
62
5
10
-12.113503
20
100.899954
40
0.200000
100
AcDbArc
50
179.999998
51
-89.999999
0
LINE
5
693
100
AcDbEntity
8
1
100
AcDbLine
6
CONTINUOUS
62
5
10
-12.313503
20
100.899954
11
-12.313503
21
103.299954
0
ARC
5
694
100
AcDbEntity
8
1
100
AcDbCircle
6
CONTINUOUS
62
5
10
-11.613503
20
103.299954
40
0.700000
100
AcDbArc
50
89.999999
51
179.999998
0
LINE
5
695
100
AcDbEntity
8
1
100
AcDbLine
6
CONTINUOUS
62
5
10
-11.613503
20
103.999954
11
-7.213503
21
103.999954
0
ARC
5
696
100
AcDbEntity
8
1
100
AcDbCircle
6
CONTINUOUS
62
5
10
-7.213503
20
103.299954
40
0.700000
100
AcDbArc
50
0.000000
51
89.999999
0
LINE
5
697
100
AcDbEntity
8
1
100
AcDbLine
6
CONTINUOUS
62
5
10
-6.513503
20
103.299954
11
-6.513503
21
100.899954
0
ARC
5
698
100
AcDbEntity
8
1
100
AcDbCircle
6
CONTINUOUS
62
5
10
-6.713503
20
100.899954
40
0.200000
100
AcDbArc
50
-89.999999
51
0.000000
0
LINE
5
699
100
AcDbEntity
8
1
100
AcDbLine
6
CONTINUOUS
62
5
10
-6.713503
20
100.699954
11
-12.113503
21
100.699954
0
LINE
5
69a
100
AcDbEntity
8
1
100
AcDbLine
6
CONTINUOUS
62
5
10
-13.413503
20
92.999954
11
-5.413503
21
92.999954
0
LINE
5
69b
100
AcDbEntity
8
1
100
AcDbLine
6
CONTINUOUS
62
5
10
-10.313503
20
96.499954
11
-10.943123
21
96.499954
0
LINE
5
69c
100
AcDbEntity
8
1
100
AcDbLine
6
CONTINUOUS
62
5
10
-7.930574
20
96.499954
11
-8.513503
21
96.499954
0
ARC
5
69d
100
AcDbEntity
8
1
100
AcDbCircle
6
CONTINUOUS
62
5
10
-10.169715
20
103.299954
40
0.700000
100
AcDbArc
50
89.999999
51
179.999998
0
LINE
5
69e
100
AcDbEntity
8
1
100
AcDbLine
6
CONTINUOUS
62
5
10
-10.869715
20
103.299954
11
-10.869715
21
100.899954
0
ARC
5
69f
100
AcDbEntity
8
1
100
AcDbCircle
6
CONTINUOUS
62
5
10
-10.669715
20
100.899954
40
0.200000
100
AcDbArc
50
179.999998
51
-89.999999
0
LINE
5
6a0
100
AcDbEntity
8
1
100
AcDbLine
6
CONTINUOUS
62
5
10
-10.669715
20
100.699954
11
-8.157291
21
100.699954
0
ARC
5
6a1
100
AcDbEntity
8
1
100
AcDbCircle
6
CONTINUOUS
62
5
10
-8.157291
20
100.899954
40
0.200000
100
AcDbArc
50
-89.999999
51
0.000000
0
LINE
5
6a2
100
AcDbEntity
8
1
100
AcDbLine
6
CONTINUOUS
62
5
10
-7.957291
20
100.899954
11
-7.957291
21
103.299954
0
ARC
5
6a3
100
AcDbEntity
8
1
100
AcDbCircle
6
CONTINUOUS
62
5
10
-8.657291
20
103.299954
40
0.700000
100
AcDbArc
50
0.000000
51
89.999999
0
LINE
5
6a4
100
AcDbEntity
8
1
100
AcDbLine
6
CONTINUOUS
62
5
10
-8.657291
20
103.999954
11
-10.169715
21
103.999954
0
ARC
5
6a5
100
AcDbEntity
8
1
100
AcDbCircle
6
CONTINUOUS
62
5
10
3.886497
20
83.349954
40
0.700000
100
AcDbArc
50
-89.999999
51
0.000000
0
LINE
5
6a6
100
AcDbEntity
8
1
100
AcDbLine
6
CONTINUOUS
62
5
10
3.886497
20
82.649954
11
-22.713503
21
82.649954
0
ARC
5
6a7
100
AcDbEntity
8
1
100
AcDbCircle
6
CONTINUOUS
62
5
10
-22.713503
20
83.349954
40
0.700000
100
AcDbArc
50
179.999998
51
-89.999999
0
LINE
5
6a8
100
AcDbEntity
8
1
100
AcDbLine
6
CONTINUOUS
62
5
10
-23.413503
20
83.349954
11
-23.413503
21
89.151914
0
LINE
5
6a9
100
AcDbEntity
8
1
100
AcDbLine
6
CONTINUOUS
62
5
10
-23.413503
20
98.847995
11
-23.413503
21
104.649954
0
ARC
5
6aa
100
AcDbEntity
8
1
100
AcDbCircle
6
CONTINUOUS
62
5
10
-22.713503
20
104.649954
40
0.700000
100
AcDbArc
50
89.999999
51
179.999998
0
LINE
5
6ab
100
AcDbEntity
8
1
100
AcDbLine
6
CONTINUOUS
62
5
10
-22.713503
20
105.349954
11
3.886497
21
105.349954
0
ARC
5
6ac
100
AcDbEntity
8
1
100
AcDbCircle
6
CONTINUOUS
62
5
10
3.886497
20
104.649954
40
0.700000
100
AcDbArc
50
0.000000
51
89.999999
0
LINE
5
6ad
100
AcDbEntity
8
1
100
AcDbLine
6
CONTINUOUS
62
5
10
4.586497
20
104.649954
11
4.586497
21
98.847995
0
LINE
5
6ae
100
AcDbEntity
8
1
100
AcDbLine
6
CONTINUOUS
62
5
10
4.586497
20
89.151914
11
4.586497
21
83.349954
0
ARC
5
6af
100
AcDbEntity
8
1
100
AcDbCircle
6
CONTINUOUS
62
5
10
-20.827897
20
88.099954
40
0.700000
100
AcDbArc
50
179.999998
51
-89.999999
0
LINE
5
6b0
100
AcDbEntity
8
1
100
AcDbLine
6
CONTINUOUS
62
5
10
-20.827897
20
87.399954
11
1.865180
21
87.399954
0
ARC
5
6b1
100
AcDbEntity
8
1
100
AcDbCircle
6
CONTINUOUS
62
5
10
1.865180
20
88.099954
40
0.700000
100
AcDbArc
50
-89.999999
51
0.000000
0
LINE
5
6b2
100
AcDbEntity
8
1
100
AcDbLine
6
CONTINUOUS
62
5
10
2.565180
20
88.099954
11
2.565180
21
89.156466
0
LINE
5
6b3
100
AcDbEntity
8
1
100
AcDbLine
6
CONTINUOUS
62
5
10
2.565180
20
91.243443
11
2.565180
21
96.756466
0
LINE
5
6b4
100
AcDbEntity
8
1
100
AcDbLine
6
CONTINUOUS
62
5
10
2.565180
20
98.843443
11
2.565180
21
99.899954
0
ARC
5
6b5
100
AcDbEntity
8
1
100
AcDbCircle
6
CONTINUOUS
62
5
10
1.865180
20
99.899954
40
0.700000
100
AcDbArc
50
0.000000
51
89.999999
0
LINE
5
6b6
100
AcDbEntity
8
1
100
AcDbLine
6
CONTINUOUS
62
5
10
1.865180
20
100.599954
11
-20.827897
21
100.599954
0
ARC
5
6b7
100
AcDbEntity
8
1
100
AcDbCircle
6
CONTINUOUS
62
5
10
-20.827897
20
99.899954
40
0.700000
100
AcDbArc
50
89.999999
51
179.999998
0
LINE
5
6b8
100
AcDbEntity
8
1
100
AcDbLine
6
CONTINUOUS
62
5
10
-21.527897
20
99.899954
11
-21.527897
21
88.099954
0
ARC
5
6b9
100
AcDbEntity
8
1
100
AcDbCircle
6
CONTINUOUS
62
5
10
2.336497
20
87.799954
40
0.500000
100
AcDbArc
50
-89.999999
51
-0.000000
0
LINE
5
6ba
100
AcDbEntity
8
1
100
AcDbLine
6
CONTINUOUS
62
5
10
2.836497
20
87.799954
11
2.836497
21
100.199954
0
ARC
5
6bb
100
AcDbEntity
8
1
100
AcDbCircle
6
CONTINUOUS
62
5
10
2.336497
20
100.199954
40
0.500000
100
AcDbArc
50
-0.000000
51
89.999999
0
LINE
5
6bc
100
AcDbEntity
8
1
100
AcDbLine
6
CONTINUOUS
62
5
10
2.336497
20
100.699954
11
-21.163503
21
100.699954
0
ARC
5
6bd
100
AcDbEntity
8
1
100
AcDbCircle
6
CONTINUOUS
62
5
10
-21.163503
20
100.199954
40
0.500000
100
AcDbArc
50
89.999999
51
-179.999998
0
LINE
5
6be
100
AcDbEntity
8
1
100
AcDbLine
6
CONTINUOUS
62
5
10
-21.663503
20
100.199954
11
-21.663503
21
87.799954
0
ARC
5
6bf
100
AcDbEntity
8
1
100
AcDbCircle
6
CONTINUOUS
62
5
10
-21.163503
20
87.799954
40
0.500000
100
AcDbArc
50
-179.999998
51
-89.999999
0
LINE
5
6c0
100
AcDbEntity
8
1
100
AcDbLine
6
CONTINUOUS
62
5
10
-21.163503
20
87.299954
11
2.336497
21
87.299954
0
ARC
5
6c1
100
AcDbEntity
8
1
100
AcDbCircle
6
CONTINUOUS
62
5
10
10.586497
20
85.699954
40
1.500000
100
AcDbArc
50
-48.189685
51
48.189685
0
ARC
5
6c2
100
AcDbEntity
8
1
100
AcDbCircle
6
CONTINUOUS
62
5
10
10.586497
20
92.199954
40
1.500000
100
AcDbArc
50
-48.189685
51
0.000000
0
LINE
5
6c3
100
AcDbEntity
8
1
100
AcDbLine
6
CONTINUOUS
62
5
10
12.086497
20
92.199954
11
12.086497
21
102.299954
0
ARC
5
6c4
100
AcDbEntity
8
1
100
AcDbCircle
6
CONTINUOUS
62
5
10
10.586497
20
102.299954
40
1.500000
100
AcDbArc
50
0.000000
51
48.189685
0
ARC
5
6c5
100
AcDbEntity
8
1
100
AcDbCircle
6
CONTINUOUS
62
5
10
-29.413503
20
102.299954
40
1.500000
100
AcDbArc
50
131.810314
51
-179.999998
0
LINE
5
6c6
100
AcDbEntity
8
1
100
AcDbLine
6
CONTINUOUS
62
5
10
-30.913503
20
102.299954
11
-30.913503
21
85.699954
0
ARC
5
6c7
100
AcDbEntity
8
1
100
AcDbCircle
6
CONTINUOUS
62
5
10
-29.413503
20
85.699954
40
1.500000
100
AcDbArc
50
179.999998
51
-131.810314
0
LINE
5
6c8
100
AcDbEntity
8
1
100
AcDbLine
6
CONTINUOUS
62
5
10
-169.413503
20
205.499954
11
150.586497
21
205.499954
0
ARC
5
6c9
100
AcDbEntity
8
1
100
AcDbCircle
6
CONTINUOUS
62
5
10
2.298537
20
26.838599
40
0.300000
100
AcDbArc
50
-1.210089
51
86.999999
0
LINE
5
6ca
100
AcDbEntity
8
1
100
AcDbLine
6
CONTINUOUS
62
5
10
1.114989
20
27.201038
11
2.314238
21
27.138188
0
ARC
5
6cb
100
AcDbEntity
8
1
100
AcDbCircle
6
CONTINUOUS
62
5
10
-3.315299
20
27.132831
40
0.300000
100
AcDbArc
50
-0.614056
51
86.999999
0
LINE
5
6cc
100
AcDbEntity
8
1
100
AcDbLine
6
CONTINUOUS
62
5
10
-3.299598
20
27.432420
11
-3.923222
21
27.465103
0
ARC
5
6cd
100
AcDbEntity
8
1
100
AcDbCircle
6
CONTINUOUS
62
5
10
-3.938923
20
27.165514
40
0.300000
100
AcDbArc
50
86.999999
51
174.614054
0
POLYLINE
5
6ce
100
AcDbEntity
8
1
6
CONTINUOUS
62
5
100
AcDb2dPolyline
66
1
10
0.0
20
0.0
30
0.0
70
0
0
VERTEX
5
6cf
100
AcDbEntity
8
1
100
AcDbVertex
100
AcDb2dVertex
62
5
10
-4.237598
20
27.193673
0
VERTEX
5
6d0
100
AcDbEntity
8
1
100
AcDbVertex
100
AcDb2dVertex
62
5
10
-4.332719
20
26.184756
0
VERTEX
5
6d1
100
AcDbEntity
8
1
100
AcDbVertex
100
AcDb2dVertex
62
5
10
-4.332719
20
26.184756
0
SEQEND
5
6d2
100
AcDbEntity
8
1
0
LINE
5
6d3
100
AcDbEntity
8
1
100
AcDbLine
6
CONTINUOUS
62
5
10
-3.026177
20
26.116283
11
-3.015316
21
27.129616
0
LINE
5
6d4
100
AcDbEntity
8
1
100
AcDbLine
6
CONTINUOUS
62
5
10
2.586497
20
13.149954
11
5.086497
21
13.149954
0
ARC
5
6d5
100
AcDbEntity
8
1
100
AcDbCircle
6
CONTINUOUS
62
5
10
8.586048
20
20.520788
40
1.704167
100
AcDbArc
50
72.938468
51
107.061530
0
LINE
5
6d6
100
AcDbEntity
8
1
100
AcDbLine
6
CONTINUOUS
62
5
10
5.286497
20
10.649954
11
7.886497
21
10.649954
0
LINE
5
6d7
100
AcDbEntity
8
1
100
AcDbLine
6
CONTINUOUS
62
5
10
0.986497
20
7.149954
11
0.000000
21
7.649954
0
ARC
5
6d8
100
AcDbEntity
8
1
100
AcDbCircle
6
CONTINUOUS
62
5
10
1.918720
20
13.149954
40
0.500000
100
AcDbArc
50
3.814075
51
89.999999
0
LINE
5
6d9
100
AcDbEntity
8
1
100
AcDbLine
6
CONTINUOUS
62
5
10
0.986497
20
7.149954
11
2.086497
21
7.149954
0
ARC
5
6da
100
AcDbEntity
8
1
100
AcDbCircle
6
CONTINUOUS
62
5
10
2.086497
20
7.649954
40
0.500000
100
AcDbArc
50
-89.999999
51
0.000000
0
LINE
5
6db
100
AcDbEntity
8
1
100
AcDbLine
6
CONTINUOUS
62
5
10
2.586497
20
7.649954
11
2.586497
21
10.616658
0
ARC
5
6dc
100
AcDbEntity
8
1
100
AcDbCircle
6
CONTINUOUS
62
5
10
1.586497
20
10.616658
40
1.000000
100
AcDbArc
50
0.000000
51
3.814075
0
LINE
5
6dd
100
AcDbEntity
8
1
100
AcDbLine
6
CONTINUOUS
62
5
10
2.584282
20
10.683177
11
2.417613
21
13.183214
0
ARC
5
6de
100
AcDbEntity
8
1
100
AcDbCircle
6
CONTINUOUS
62
5
10
7.686497
20
12.849954
40
0.200000
100
AcDbArc
50
0.000000
51
89.999999
0
LINE
5
6df
100
AcDbEntity
8
1
100
AcDbLine
6
CONTINUOUS
62
5
10
7.886497
20
12.849954
11
7.886497
21
9.149954
0
ARC
5
6e0
100
AcDbEntity
8
1
100
AcDbCircle
6
CONTINUOUS
62
5
10
7.386497
20
9.149954
40
0.500000
100
AcDbArc
50
-89.999999
51
0.000000
0
LINE
5
6e1
100
AcDbEntity
8
1
100
AcDbLine
6
CONTINUOUS
62
5
10
7.386497
20
8.649954
11
5.786497
21
8.649954
0
ARC
5
6e2
100
AcDbEntity
8
1
100
AcDbCircle
6
CONTINUOUS
62
5
10
5.786497
20
9.149954
40
0.500000
100
AcDbArc
50
179.999998
51
-89.999999
0
LINE
5
6e3
100
AcDbEntity
8
1
100
AcDbLine
6
CONTINUOUS
62
5
10
5.286497
20
9.149954
11
5.286497
21
12.849954
0
ARC
5
6e4
100
AcDbEntity
8
1
100
AcDbCircle
6
CONTINUOUS
62
5
10
5.486497
20
12.849954
40
0.200000
100
AcDbArc
50
89.999999
51
179.999998
0
LINE
5
6e5
100
AcDbEntity
8
1
100
AcDbLine
6
CONTINUOUS
62
5
10
5.486497
20
13.049954
11
7.686497
21
13.049954
0
POLYLINE
5
6e6
100
AcDbEntity
8
1
6
CONTINUOUS
62
5
100
AcDb2dPolyline
66
1
10
0.0
20
0.0
30
0.0
70
1
0
VERTEX
5
6e7
100
AcDbEntity
8
1
100
AcDbVertex
100
AcDb2dVertex
62
5
10
8.086497
20
8.649954
0
VERTEX
5
6e8
100
AcDbEntity
8
1
100
AcDbVertex
100
AcDb2dVertex
62
5
10
5.086497
20
8.649954
0
VERTEX
5
6e9
100
AcDbEntity
8
1
100
AcDbVertex
100
AcDb2dVertex
62
5
10
5.086497
20
13.649954
0
VERTEX
5
6ea
100
AcDbEntity
8
1
100
AcDbVertex
100
AcDb2dVertex
62
5
10
8.086497
20
13.649954
0
SEQEND
5
6eb
100
AcDbEntity
8
1
0
ARC
5
6ec
100
AcDbEntity
8
1
100
AcDbCircle
6
CONTINUOUS
62
5
10
11.086048
20
20.942847
40
0.500000
100
AcDbArc
50
0.000000
51
44.999999
0
LINE
5
6ed
100
AcDbEntity
8
1
100
AcDbLine
6
CONTINUOUS
62
5
10
11.586048
20
20.942847
11
11.586048
21
20.711998
0
LINE
5
6ee
100
AcDbEntity
8
1
100
AcDbLine
6
CONTINUOUS
62
5
10
9.812206
20
22.149954
11
10.378941
21
22.149954
0
ARC
5
6ef
100
AcDbEntity
8
1
100
AcDbCircle
6
CONTINUOUS
62
5
10
10.378941
20
21.649954
40
0.500000
100
AcDbArc
50
44.999999
51
89.999999
0
LINE
5
6f0
100
AcDbEntity
8
1
100
AcDbLine
6
CONTINUOUS
62
5
10
10.732495
20
22.003508
11
11.439602
21
21.296401
0
ARC
5
6f1
100
AcDbEntity
8
1
100
AcDbCircle
6
CONTINUOUS
62
5
10
7.586048
20
21.649954
40
0.500000
100
AcDbArc
50
0.000000
51
89.999999
0
POLYLINE
5
6f2
100
AcDbEntity
8
1
6
CONTINUOUS
62
5
100
AcDb2dPolyline
66
1
10
0.0
20
0.0
30
0.0
70
0
0
VERTEX
5
6f3
100
AcDbEntity
8
1
100
AcDbVertex
100
AcDb2dVertex
62
5
10
8.086048
20
21.649954
0
VERTEX
5
6f4
100
AcDbEntity
8
1
100
AcDbVertex
100
AcDb2dVertex
62
5
10
8.086048
20
15.349954
0
VERTEX
5
6f5
100
AcDbEntity
8
1
100
AcDbVertex
100
AcDb2dVertex
62
5
10
11.086048
20
15.349954
0
SEQEND
5
6f6
100
AcDbEntity
8
1
0
ARC
5
6f7
100
AcDbEntity
8
1
100
AcDbCircle
6
CONTINUOUS
62
5
10
11.086048
20
14.849954
40
0.500000
100
AcDbArc
50
0.000000
51
89.999999
0
LINE
5
6f8
100
AcDbEntity
8
1
100
AcDbLine
6
CONTINUOUS
62
5
10
11.586048
20
14.849954
11
11.586048
21
13.649954
0
ARC
5
6f9
100
AcDbEntity
8
1
100
AcDbCircle
6
CONTINUOUS
62
5
10
11.086048
20
15.549954
40
0.500000
100
AcDbArc
50
0.000000
51
89.999999
0
LINE
5
6fa
100
AcDbEntity
8
1
100
AcDbLine
6
CONTINUOUS
62
5
10
11.586048
20
15.549954
11
11.586048
21
13.649954
0
LINE
5
6fb
100
AcDbEntity
8
1
100
AcDbLine
6
CONTINUOUS
62
5
10
8.086048
20
16.049954
11
11.086048
21
16.049954
0
LINE
5
6fc
100
AcDbEntity
8
1
100
AcDbLine
6
CONTINUOUS
62
5
10
8.086497
20
13.149954
11
10.586497
21
13.149954
0
ARC
5
6fd
100
AcDbEntity
8
1
100
AcDbCircle
6
CONTINUOUS
62
5
10
3.586497
20
7.149954
40
1.000000
100
AcDbArc
50
179.999998
51
-89.999999
0
LINE
5
6fe
100
AcDbEntity
8
1
100
AcDbLine
6
CONTINUOUS
62
5
10
2.586497
20
7.149954
11
2.586497
21
13.649954
0
LINE
5
6ff
100
AcDbEntity
8
1
100
AcDbLine
6
CONTINUOUS
62
5
10
10.586497
20
13.649954
11
10.586497
21
7.149954
0
ARC
5
700
100
AcDbEntity
8
1
100
AcDbCircle
6
CONTINUOUS
62
5
10
9.586497
20
7.149954
40
1.000000
100
AcDbArc
50
-89.999999
51
0.000000
0
LINE
5
701
100
AcDbEntity
8
1
100
AcDbLine
6
CONTINUOUS
62
5
10
9.586497
20
6.149954
11
3.586497
21
6.149954
0
ARC
5
702
100
AcDbEntity
8
1
100
AcDbCircle
6
CONTINUOUS
62
5
10
11.020361
20
7.149954
40
1.000000
100
AcDbArc
50
-89.999999
51
-1.507436
0
LINE
5
703
100
AcDbEntity
8
1
100
AcDbLine
6
CONTINUOUS
62
5
10
11.020361
20
6.149954
11
9.961941
21
6.149954
0
ARC
5
704
100
AcDbEntity
8
1
100
AcDbCircle
6
CONTINUOUS
62
5
10
9.961941
20
5.149954
40
1.000000
100
AcDbArc
50
89.999999
51
178.575629
0
LINE
5
705
100
AcDbEntity
8
1
100
AcDbLine
6
CONTINUOUS
62
5
10
8.962250
20
5.174812
11
8.814219
21
-0.778570
0
ARC
5
706
100
AcDbEntity
8
1
100
AcDbCircle
6
CONTINUOUS
62
5
10
7.814626
20
-0.750046
40
1.000000
100
AcDbArc
50
-89.999999
51
-1.634536
0
LINE
5
707
100
AcDbEntity
8
1
100
AcDbLine
6
CONTINUOUS
62
5
10
4.586312
20
24.849954
11
5.186048
21
24.849954
0
ARC
5
708
100
AcDbEntity
8
1
100
AcDbCircle
6
CONTINUOUS
62
5
10
2.264731
20
25.238175
40
0.300000
100
AcDbArc
50
-1.210089
51
86.999999
0
POLYLINE
5
709
100
AcDbEntity
8
1
6
CONTINUOUS
62
5
100
AcDb2dPolyline
66
1
10
0.0
20
0.0
30
0.0
70
0
0
VERTEX
5
70a
100
AcDbEntity
8
1
100
AcDbVertex
100
AcDb2dVertex
62
5
10
2.280432
20
25.537764
0
VERTEX
5
70b
100
AcDbEntity
8
1
100
AcDbVertex
100
AcDb2dVertex
62
5
10
1.097826
20
25.599741
0
VERTEX
5
70c
100
AcDbEntity
8
1
100
AcDbVertex
100
AcDb2dVertex
62
5
10
1.120486
20
27.713942
0
SEQEND
5
70d
100
AcDbEntity
8
1
0
ARC
5
70e
100
AcDbEntity
8
1
100
AcDbCircle
6
CONTINUOUS
62
5
10
0.820503
20
27.717157
40
0.300000
100
AcDbArc
50
-0.614056
51
86.999999
0
LINE
5
70f
100
AcDbEntity
8
1
100
AcDbLine
6
CONTINUOUS
62
5
10
0.836204
20
28.016746
11
-0.074786
21
28.064489
0
ARC
5
710
100
AcDbEntity
8
1
100
AcDbCircle
6
CONTINUOUS
62
5
10
-0.090487
20
27.764900
40
0.300000
100
AcDbArc
50
86.999999
51
144.550593
0
LINE
5
711
100
AcDbEntity
8
1
100
AcDbLine
6
CONTINUOUS
62
5
10
-0.334875
20
27.938895
11
-1.045589
21
26.940647
0
ARC
5
712
100
AcDbEntity
8
1
100
AcDbCircle
6
CONTINUOUS
62
5
10
-2.674845
20
28.100615
40
2.000000
100
AcDbArc
50
-92.999999
51
-35.449405
0
LINE
5
713
100
AcDbEntity
8
1
100
AcDbLine
6
CONTINUOUS
62
5
10
-2.779517
20
26.103356
11
-7.484308
21
26.349924
0
ARC
5
714
100
AcDbEntity
8
1
100
AcDbCircle
6
CONTINUOUS
62
5
10
2.315440
20
27.638811
40
0.300000
100
AcDbArc
50
-1.210089
51
86.999999
0
LINE
5
715
100
AcDbEntity
8
1
100
AcDbLine
6
CONTINUOUS
62
5
10
2.615373
20
27.632475
11
2.556598
21
24.849954
0
LINE
5
716
100
AcDbEntity
8
1
100
AcDbLine
6
CONTINUOUS
62
5
10
0.836204
20
28.016746
11
2.331141
21
27.938400
0
LINE
5
717
100
AcDbEntity
8
1
100
AcDbLine
6
CONTINUOUS
62
5
10
-6.746715
20
25.209759
11
0.118761
21
24.849954
0
LINE
5
718
100
AcDbEntity
8
1
100
AcDbLine
6
CONTINUOUS
62
5
10
1.097826
20
25.599741
11
0.794760
21
25.315213
0
ARC
5
719
100
AcDbEntity
8
1
100
AcDbCircle
6
CONTINUOUS
62
5
10
4.304533
20
27.549954
40
0.500000
100
AcDbArc
50
-0.392506
51
89.999999
0
POLYLINE
5
71a
100
AcDbEntity
8
1
6
CONTINUOUS
62
5
100
AcDb2dPolyline
66
1
10
0.0
20
0.0
30
0.0
70
0
0
VERTEX
5
71b
100
AcDbEntity
8
1
100
AcDbVertex
100
AcDb2dVertex
62
5
10
4.804521
20
27.546529
0
VERTEX
5
71c
100
AcDbEntity
8
1
100
AcDbVertex
100
AcDb2dVertex
62
5
10
4.786048
20
24.849954
0
VERTEX
5
71d
100
AcDbEntity
8
1
100
AcDbVertex
100
AcDb2dVertex
62
5
10
4.786048
20
22.149954
0
SEQEND
5
71e
100
AcDbEntity
8
1
0
ARC
5
71f
100
AcDbEntity
8
1
100
AcDbCircle
6
CONTINUOUS
62
5
10
4.601429
20
27.549954
40
0.500000
100
AcDbArc
50
1.789911
51
89.999999
0
LINE
5
720
100
AcDbEntity
8
1
100
AcDbLine
6
CONTINUOUS
62
5
10
4.601429
20
28.049954
11
3.317884
21
28.049954
0
ARC
5
721
100
AcDbEntity
8
1
100
AcDbCircle
6
CONTINUOUS
62
5
10
3.317884
20
27.749954
40
0.300000
100
AcDbArc
50
89.999999
51
176.423664
0
LINE
5
722
100
AcDbEntity
8
1
100
AcDbLine
6
CONTINUOUS
62
5
10
3.018468
20
27.768668
11
2.894455
21
25.784466
0
POLYLINE
5
723
100
AcDbEntity
8
1
6
CONTINUOUS
62
5
100
AcDb2dPolyline
66
1
10
0.0
20
0.0
30
0.0
70
0
0
VERTEX
5
724
100
AcDbEntity
8
1
100
AcDbVertex
100
AcDb2dVertex
62
5
10
5.186048
20
22.149954
0
VERTEX
5
725
100
AcDbEntity
8
1
100
AcDbVertex
100
AcDb2dVertex
62
5
10
5.186048
20
24.849954
0
VERTEX
5
726
100
AcDbEntity
8
1
100
AcDbVertex
100
AcDb2dVertex
62
5
10
5.101185
20
27.565572
0
SEQEND
5
727
100
AcDbEntity
8
1
0
ARC
5
728
100
AcDbEntity
8
1
100
AcDbCircle
6
CONTINUOUS
62
5
10
3.336048
20
25.549954
40
0.500000
100
AcDbArc
50
89.999999
51
179.999998
0
LINE
5
729
100
AcDbEntity
8
1
100
AcDbLine
6
CONTINUOUS
62
5
10
3.336048
20
26.049954
11
4.086365
21
26.049954
0
ARC
5
72a
100
AcDbEntity
8
1
100
AcDbCircle
6
CONTINUOUS
62
5
10
4.086365
20
25.549954
40
0.500000
100
AcDbArc
50
-0.015120
51
89.999999
0
LINE
5
72b
100
AcDbEntity
8
1
100
AcDbLine
6
CONTINUOUS
62
5
10
4.586365
20
25.549822
11
4.586048
21
24.349954
0
LINE
5
72c
100
AcDbEntity
8
1
100
AcDbLine
6
CONTINUOUS
62
5
10
2.836048
20
24.849954
11
2.836048
21
25.549954
0
POLYLINE
5
72d
100
AcDbEntity
8
1
6
CONTINUOUS
62
5
100
AcDb2dPolyline
66
1
10
0.0
20
0.0
30
0.0
70
0
0
VERTEX
5
72e
100
AcDbEntity
8
1
100
AcDbVertex
100
AcDb2dVertex
62
5
10
33.086497
20
-66.750046
0
VERTEX
5
72f
100
AcDbEntity
8
1
100
AcDbVertex
100
AcDb2dVertex
62
5
10
34.648997
20
-74.250046
0
VERTEX
5
730
100
AcDbEntity
8
1
100
AcDbVertex
100
AcDb2dVertex
62
5
10
36.211497
20
-66.750046
0
SEQEND
5
731
100
AcDbEntity
8
1
0
POLYLINE
5
732
100
AcDbEntity
8
1
6
CONTINUOUS
62
5
100
AcDb2dPolyline
66
1
10
0.0
20
0.0
30
0.0
70
0
0
VERTEX
5
733
100
AcDbEntity
8
1
100
AcDbVertex
100
AcDb2dVertex
62
5
10
38.711497
20
-66.750046
0
VERTEX
5
734
100
AcDbEntity
8
1
100
AcDbVertex
100
AcDb2dVertex
62
5
10
38.711497
20
-72.375046
0
VERTEX
5
735
100
AcDbEntity
8
1
100
AcDbVertex
100
AcDb2dVertex
62
5
10
38.086497
20
-73.625046
0
VERTEX
5
736
100
AcDbEntity
8
1
100
AcDbVertex
100
AcDb2dVertex
62
5
10
37.461497
20
-74.562546
0
SEQEND
5
737
100
AcDbEntity
8
1
0
POLYLINE
5
738
100
AcDbEntity
8
1
6
CONTINUOUS
62
5
100
AcDb2dPolyline
66
1
10
0.0
20
0.0
30
0.0
70
0
0
VERTEX
5
739
100
AcDbEntity
8
1
100
AcDbVertex
100
AcDb2dVertex
62
5
10
43.711497
20
-74.250046
0
VERTEX
5
73a
100
AcDbEntity
8
1
100
AcDbVertex
100
AcDb2dVertex
62
5
10
44.961497
20
-74.875046
0
VERTEX
5
73b
100
AcDbEntity
8
1
100
AcDbVertex
100
AcDb2dVertex
62
5
10
44.961497
20
-66.750046
0
VERTEX
5
73c
100
AcDbEntity
8
1
100
AcDbVertex
100
AcDb2dVertex
62
5
10
38.711497
20
-66.750046
0
SEQEND
5
73d
100
AcDbEntity
8
1
0
LINE
5
73e
100
AcDbEntity
8
1
100
AcDbLine
6
CONTINUOUS
62
5
10
38.711497
20
-69.250046
11
44.961497
21
-69.250046
0
LINE
5
73f
100
AcDbEntity
8
1
100
AcDbLine
6
CONTINUOUS
62
5
10
41.836497
20
-66.750046
11
41.836497
21
-74.875046
0
LINE
5
740
100
AcDbEntity
8
1
100
AcDbLine
6
CONTINUOUS
62
5
10
38.711497
20
-71.750046
11
44.961497
21
-71.750046
0
POLYLINE
5
741
100
AcDbEntity
8
1
6
CONTINUOUS
62
5
100
AcDb2dPolyline
66
1
10
0.0
20
0.0
30
0.0
70
0
0
VERTEX
5
742
100
AcDbEntity
8
1
100
AcDbVertex
100
AcDb2dVertex
62
5
10
47.773997
20
-66.437546
0
VERTEX
5
743
100
AcDbEntity
8
1
100
AcDbVertex
100
AcDb2dVertex
62
5
10
48.711497
20
-67.687546
0
VERTEX
5
744
100
AcDbEntity
8
1
100
AcDbVertex
100
AcDb2dVertex
62
5
10
49.336497
20
-69.562546
0
VERTEX
5
745
100
AcDbEntity
8
1
100
AcDbVertex
100
AcDb2dVertex
62
5
10
49.336497
20
-71.437546
0
VERTEX
5
746
100
AcDbEntity
8
1
100
AcDbVertex
100
AcDb2dVertex
62
5
10
48.711497
20
-73.312546
0
VERTEX
5
747
100
AcDbEntity
8
1
100
AcDbVertex
100
AcDb2dVertex
62
5
10
47.773997
20
-74.562546
0
SEQEND
5
748
100
AcDbEntity
8
1
0
POLYLINE
5
749
100
AcDbEntity
8
1
6
CONTINUOUS
62
5
100
AcDb2dPolyline
66
1
10
0.0
20
0.0
30
0.0
70
0
0
VERTEX
5
74a
100
AcDbEntity
8
1
100
AcDbVertex
100
AcDb2dVertex
62
5
10
18.086497
20
-68.937546
0
VERTEX
5
74b
100
AcDbEntity
8
1
100
AcDbVertex
100
AcDb2dVertex
62
5
10
18.398997
20
-67.375046
0
VERTEX
5
74c
100
AcDbEntity
8
1
100
AcDbVertex
100
AcDb2dVertex
62
5
10
19.336497
20
-66.750046
0
VERTEX
5
74d
100
AcDbEntity
8
1
100
AcDbVertex
100
AcDb2dVertex
62
5
10
20.273997
20
-66.750046
0
VERTEX
5
74e
100
AcDbEntity
8
1
100
AcDbVertex
100
AcDb2dVertex
62
5
10
20.898997
20
-67.062546
0
VERTEX
5
74f
100
AcDbEntity
8
1
100
AcDbVertex
100
AcDb2dVertex
62
5
10
21.211497
20
-68.000046
0
VERTEX
5
750
100
AcDbEntity
8
1
100
AcDbVertex
100
AcDb2dVertex
62
5
10
21.211497
20
-68.937546
0
VERTEX
5
751
100
AcDbEntity
8
1
100
AcDbVertex
100
AcDb2dVertex
62
5
10
20.898997
20
-69.875046
0
VERTEX
5
752
100
AcDbEntity
8
1
100
AcDbVertex
100
AcDb2dVertex
62
5
10
18.086497
20
-74.250046
0
VERTEX
5
753
100
AcDbEntity
8
1
100
AcDbVertex
100
AcDb2dVertex
62
5
10
21.211497
20
-74.250046
0
VERTEX
5
754
100
AcDbEntity
8
1
100
AcDbVertex
100
AcDb2dVertex
62
5
10
21.211497
20
-73.312546
0
SEQEND
5
755
100
AcDbEntity
8
1
0
POLYLINE
5
756
100
AcDbEntity
8
1
6
CONTINUOUS
62
5
100
AcDb2dPolyline
66
1
10
0.0
20
0.0
30
0.0
70
1
0
VERTEX
5
757
100
AcDbEntity
8
1
100
AcDbVertex
100
AcDb2dVertex
62
5
10
24.336497
20
-66.750046
0
VERTEX
5
758
100
AcDbEntity
8
1
100
AcDbVertex
100
AcDb2dVertex
62
5
10
24.961497
20
-66.750046
0
VERTEX
5
759
100
AcDbEntity
8
1
100
AcDbVertex
100
AcDb2dVertex
62
5
10
25.273997
20
-67.062546
0
VERTEX
5
75a
100
AcDbEntity
8
1
100
AcDbVertex
100
AcDb2dVertex
62
5
10
25.898997
20
-68.312546
0
VERTEX
5
75b
100
AcDbEntity
8
1
100
AcDbVertex
100
AcDb2dVertex
62
5
10
26.211497
20
-69.562546
0
VERTEX
5
75c
100
AcDbEntity
8
1
100
AcDbVertex
100
AcDb2dVertex
62
5
10
26.211497
20
-71.437546
0
VERTEX
5
75d
100
AcDbEntity
8
1
100
AcDbVertex
100
AcDb2dVertex
62
5
10
25.898997
20
-72.687546
0
VERTEX
5
75e
100
AcDbEntity
8
1
100
AcDbVertex
100
AcDb2dVertex
62
5
10
25.273997
20
-73.937546
0
VERTEX
5
75f
100
AcDbEntity
8
1
100
AcDbVertex
100
AcDb2dVertex
62
5
10
24.961497
20
-74.250046
0
VERTEX
5
760
100
AcDbEntity
8
1
100
AcDbVertex
100
AcDb2dVertex
62
5
10
24.336497
20
-74.250046
0
VERTEX
5
761
100
AcDbEntity
8
1
100
AcDbVertex
100
AcDb2dVertex
62
5
10
24.023997
20
-73.937546
0
VERTEX
5
762
100
AcDbEntity
8
1
100
AcDbVertex
100
AcDb2dVertex
62
5
10
23.398997
20
-72.687546
0
VERTEX
5
763
100
AcDbEntity
8
1
100
AcDbVertex
100
AcDb2dVertex
62
5
10
23.086497
20
-71.437546
0
VERTEX
5
764
100
AcDbEntity
8
1
100
AcDbVertex
100
AcDb2dVertex
62
5
10
23.086497
20
-69.562546
0
VERTEX
5
765
100
AcDbEntity
8
1
100
AcDbVertex
100
AcDb2dVertex
62
5
10
23.398997
20
-68.312546
0
VERTEX
5
766
100
AcDbEntity
8
1
100
AcDbVertex
100
AcDb2dVertex
62
5
10
24.023997
20
-67.062546
0
VERTEX
5
767
100
AcDbEntity
8
1
100
AcDbVertex
100
AcDb2dVertex
62
5
10
24.336497
20
-66.750046
0
SEQEND
5
768
100
AcDbEntity
8
1
0
LINE
5
769
100
AcDbEntity
8
1
100
AcDbLine
6
CONTINUOUS
62
5
10
-1.288503
20
-66.750046
11
4.336497
21
-66.750046
0
LINE
5
76a
100
AcDbEntity
8
1
100
AcDbLine
6
CONTINUOUS
62
5
10
-2.851003
20
-68.937546
11
5.898997
21
-68.937546
0
POLYLINE
5
76b
100
AcDbEntity
8
1
6
CONTINUOUS
62
5
100
AcDb2dPolyline
66
1
10
0.0
20
0.0
30
0.0
70
0
0
VERTEX
5
76c
100
AcDbEntity
8
1
100
AcDbVertex
100
AcDb2dVertex
62
5
10
1.523997
20
-68.937546
0
VERTEX
5
76d
100
AcDbEntity
8
1
100
AcDbVertex
100
AcDb2dVertex
62
5
10
1.523997
20
-74.562546
0
VERTEX
5
76e
100
AcDbEntity
8
1
100
AcDbVertex
100
AcDb2dVertex
62
5
10
0.898997
20
-75.187546
0
VERTEX
5
76f
100
AcDbEntity
8
1
100
AcDbVertex
100
AcDb2dVertex
62
5
10
0.273997
20
-75.187546
0
SEQEND
5
770
100
AcDbEntity
8
1
0
POLYLINE
5
771
100
AcDbEntity
8
1
6
CONTINUOUS
62
5
100
AcDb2dPolyline
66
1
10
0.0
20
0.0
30
0.0
70
0
0
VERTEX
5
772
100
AcDbEntity
8
1
100
AcDbVertex
100
AcDb2dVertex
62
5
10
-0.663503
20
-71.437546
0
VERTEX
5
773
100
AcDbEntity
8
1
100
AcDbVertex
100
AcDb2dVertex
62
5
10
-1.288503
20
-72.687546
0
VERTEX
5
774
100
AcDbEntity
8
1
100
AcDbVertex
100
AcDb2dVertex
62
5
10
-2.538503
20
-73.937546
0
SEQEND
5
775
100
AcDbEntity
8
1
0
POLYLINE
5
776
100
AcDbEntity
8
1
6
CONTINUOUS
62
5
100
AcDb2dPolyline
66
1
10
0.0
20
0.0
30
0.0
70
0
0
VERTEX
5
777
100
AcDbEntity
8
1
100
AcDbVertex
100
AcDb2dVertex
62
5
10
3.398997
20
-71.437546
0
VERTEX
5
778
100
AcDbEntity
8
1
100
AcDbVertex
100
AcDb2dVertex
62
5
10
4.648997
20
-72.375046
0
VERTEX
5
779
100
AcDbEntity
8
1
100
AcDbVertex
100
AcDb2dVertex
62
5
10
5.586497
20
-73.937546
0
SEQEND
5
77a
100
AcDbEntity
8
1
0
LINE
5
77b
100
AcDbEntity
8
1
100
AcDbLine
6
CONTINUOUS
62
5
10
7.461497
20
-68.625046
11
7.461497
21
-71.125046
0
LINE
5
77c
100
AcDbEntity
8
1
100
AcDbLine
6
CONTINUOUS
62
5
10
10.586497
20
-68.312546
11
9.336497
21
-69.875046
0
POLYLINE
5
77d
100
AcDbEntity
8
1
6
CONTINUOUS
62
5
100
AcDb2dPolyline
66
1
10
0.0
20
0.0
30
0.0
70
0
0
VERTEX
5
77e
100
AcDbEntity
8
1
100
AcDbVertex
100
AcDb2dVertex
62
5
10
9.023997
20
-66.750046
0
VERTEX
5
77f
100
AcDbEntity
8
1
100
AcDbVertex
100
AcDb2dVertex
62
5
10
9.023997
20
-72.062546
0
VERTEX
5
780
100
AcDbEntity
8
1
100
AcDbVertex
100
AcDb2dVertex
62
5
10
8.086497
20
-73.937546
0
VERTEX
5
781
100
AcDbEntity
8
1
100
AcDbVertex
100
AcDb2dVertex
62
5
10
7.148997
20
-74.562546
0
SEQEND
5
782
100
AcDbEntity
8
1
0
LINE
5
783
100
AcDbEntity
8
1
100
AcDbLine
6
CONTINUOUS
62
5
10
9.023997
20
-72.062546
11
10.586497
21
-73.937546
0
LINE
5
784
100
AcDbEntity
8
1
100
AcDbLine
6
CONTINUOUS
62
5
10
10.586497
20
-67.375046
11
16.211497
21
-67.375046
0
POLYLINE
5
785
100
AcDbEntity
8
1
6
CONTINUOUS
62
5
100
AcDb2dPolyline
66
1
10
0.0
20
0.0
30
0.0
70
0
0
VERTEX
5
786
100
AcDbEntity
8
1
100
AcDbVertex
100
AcDb2dVertex
62
5
10
13.711497
20
-67.375046
0
VERTEX
5
787
100
AcDbEntity
8
1
100
AcDbVertex
100
AcDb2dVertex
62
5
10
13.711497
20
-74.250046
0
VERTEX
5
788
100
AcDbEntity
8
1
100
AcDbVertex
100
AcDb2dVertex
62
5
10
13.086497
20
-74.875046
0
VERTEX
5
789
100
AcDbEntity
8
1
100
AcDbVertex
100
AcDb2dVertex
62
5
10
11.836497
20
-74.875046
0
SEQEND
5
78a
100
AcDbEntity
8
1
0
POLYLINE
5
78b
100
AcDbEntity
8
1
6
CONTINUOUS
62
5
100
AcDb2dPolyline
66
1
10
0.0
20
0.0
30
0.0
70
1
0
VERTEX
5
78c
100
AcDbEntity
8
1
100
AcDbVertex
100
AcDb2dVertex
62
5
10
29.336497
20
-66.750046
0
VERTEX
5
78d
100
AcDbEntity
8
1
100
AcDbVertex
100
AcDb2dVertex
62
5
10
29.961497
20
-66.750046
0
VERTEX
5
78e
100
AcDbEntity
8
1
100
AcDbVertex
100
AcDb2dVertex
62
5
10
30.273997
20
-67.062546
0
VERTEX
5
78f
100
AcDbEntity
8
1
100
AcDbVertex
100
AcDb2dVertex
62
5
10
30.898997
20
-68.312546
0
VERTEX
5
790
100
AcDbEntity
8
1
100
AcDbVertex
100
AcDb2dVertex
62
5
10
31.211497
20
-69.562546
0
VERTEX
5
791
100
AcDbEntity
8
1
100
AcDbVertex
100
AcDb2dVertex
62
5
10
31.211497
20
-71.437546
0
VERTEX
5
792
100
AcDbEntity
8
1
100
AcDbVertex
100
AcDb2dVertex
62
5
10
30.898997
20
-72.687546
0
VERTEX
5
793
100
AcDbEntity
8
1
100
AcDbVertex
100
AcDb2dVertex
62
5
10
30.273997
20
-73.937546
0
VERTEX
5
794
100
AcDbEntity
8
1
100
AcDbVertex
100
AcDb2dVertex
62
5
10
29.961497
20
-74.250046
0
VERTEX
5
795
100
AcDbEntity
8
1
100
AcDbVertex
100
AcDb2dVertex
62
5
10
29.336497
20
-74.250046
0
VERTEX
5
796
100
AcDbEntity
8
1
100
AcDbVertex
100
AcDb2dVertex
62
5
10
29.023997
20
-73.937546
0
VERTEX
5
797
100
AcDbEntity
8
1
100
AcDbVertex
100
AcDb2dVertex
62
5
10
28.398997
20
-72.687546
0
VERTEX
5
798
100
AcDbEntity
8
1
100
AcDbVertex
100
AcDb2dVertex
62
5
10
28.086497
20
-71.437546
0
VERTEX
5
799
100
AcDbEntity
8
1
100
AcDbVertex
100
AcDb2dVertex
62
5
10
28.086497
20
-69.562546
0
VERTEX
5
79a
100
AcDbEntity
8
1
100
AcDbVertex
100
AcDb2dVertex
62
5
10
28.398997
20
-68.312546
0
VERTEX
5
79b
100
AcDbEntity
8
1
100
AcDbVertex
100
AcDb2dVertex
62
5
10
29.023997
20
-67.062546
0
VERTEX
5
79c
100
AcDbEntity
8
1
100
AcDbVertex
100
AcDb2dVertex
62
5
10
29.336497
20
-66.750046
0
SEQEND
5
79d
100
AcDbEntity
8
1
0
ARC
5
79e
100
AcDbEntity
8
1
100
AcDbCircle
6
CONTINUOUS
62
5
10
-15.323298
20
27.762144
40
0.300000
100
AcDbArc
50
86.999999
51
174.614054
0
LINE
5
79f
100
AcDbEntity
8
1
100
AcDbLine
6
CONTINUOUS
62
5
10
-15.307597
20
28.061732
11
-14.683974
21
28.029050
0
ARC
5
7a0
100
AcDbEntity
8
1
100
AcDbCircle
6
CONTINUOUS
62
5
10
-14.699674
20
27.729461
40
0.300000
100
AcDbArc
50
-0.614056
51
86.999999
0
LINE
5
7a1
100
AcDbEntity
8
1
100
AcDbLine
6
CONTINUOUS
62
5
10
-14.399692
20
27.726246
11
-14.410552
21
26.712913
0
LINE
5
7a2
100
AcDbEntity
8
1
100
AcDbLine
6
CONTINUOUS
62
5
10
-15.717094
20
26.781386
11
-15.621973
21
27.790303
0
LINE
5
7a3
100
AcDbEntity
8
1
100
AcDbLine
6
CONTINUOUS
62
5
10
-19.873394
20
26.698797
11
-19.601729
21
26.384147
0
ARC
5
7a4
100
AcDbEntity
8
1
100
AcDbCircle
6
CONTINUOUS
62
5
10
-15.859977
20
28.791619
40
2.000000
100
AcDbArc
50
-150.550593
51
-92.999999
0
LINE
5
7a5
100
AcDbEntity
8
1
100
AcDbLine
6
CONTINUOUS
62
5
10
-17.601558
20
27.808309
11
-18.204033
21
28.875378
0
ARC
5
7a6
100
AcDbEntity
8
1
100
AcDbCircle
6
CONTINUOUS
62
5
10
-18.465270
20
28.727882
40
0.300000
100
AcDbArc
50
29.449405
51
86.999999
0
LINE
5
7a7
100
AcDbEntity
8
1
100
AcDbLine
6
CONTINUOUS
62
5
10
-18.449569
20
29.027471
11
-19.360559
21
29.075214
0
ARC
5
7a8
100
AcDbEntity
8
1
100
AcDbCircle
6
CONTINUOUS
62
5
10
-19.376260
20
28.775625
40
0.300000
100
AcDbArc
50
86.999999
51
174.614055
0
POLYLINE
5
7a9
100
AcDbEntity
8
1
6
CONTINUOUS
62
5
100
AcDb2dPolyline
66
1
10
0.0
20
0.0
30
0.0
70
0
0
VERTEX
5
7aa
100
AcDbEntity
8
1
100
AcDbVertex
100
AcDb2dVertex
62
5
10
-19.674935
20
28.803784
0
VERTEX
5
7ab
100
AcDbEntity
8
1
100
AcDbVertex
100
AcDb2dVertex
62
5
10
-19.873394
20
26.698797
0
VERTEX
5
7ac
100
AcDbEntity
8
1
100
AcDbVertex
100
AcDb2dVertex
62
5
10
-21.056000
20
26.760774
0
SEQEND
5
7ad
100
AcDbEntity
8
1
0
ARC
5
7ae
100
AcDbEntity
8
1
100
AcDbCircle
6
CONTINUOUS
62
5
10
-21.071700
20
26.461185
40
0.300000
100
AcDbArc
50
86.999999
51
175.210088
0
LINE
5
7af
100
AcDbEntity
8
1
100
AcDbLine
6
CONTINUOUS
62
5
10
-11.216263
20
26.545507
11
-15.964649
21
26.794360
0
ARC
5
7b0
100
AcDbEntity
8
1
100
AcDbCircle
6
CONTINUOUS
62
5
10
-20.938031
20
28.056376
40
0.300000
100
AcDbArc
50
86.999999
51
175.210088
0
LINE
5
7b1
100
AcDbEntity
8
1
100
AcDbLine
6
CONTINUOUS
62
5
10
-20.922330
20
28.355965
11
-19.723081
21
28.293115
0
LINE
5
7b2
100
AcDbEntity
8
1
100
AcDbLine
6
CONTINUOUS
62
5
10
-21.413207
20
25.978397
11
-11.905972
21
25.480144
0
ARC
5
7b3
100
AcDbEntity
8
1
100
AcDbCircle
6
CONTINUOUS
62
5
10
-27.413952
20
20.520788
40
1.704167
100
AcDbArc
50
72.938468
51
107.061530
0
LINE
5
7b4
100
AcDbEntity
8
1
100
AcDbLine
6
CONTINUOUS
62
5
10
-21.413503
20
13.149954
11
-23.913503
21
13.149954
0
LINE
5
7b5
100
AcDbEntity
8
1
100
AcDbLine
6
CONTINUOUS
62
5
10
-24.113503
20
10.649954
11
-26.713503
21
10.649954
0
LINE
5
7b6
100
AcDbEntity
8
1
100
AcDbLine
6
CONTINUOUS
62
5
10
-19.813503
20
7.149954
11
-18.827006
21
7.649954
0
ARC
5
7b7
100
AcDbEntity
8
1
100
AcDbCircle
6
CONTINUOUS
62
5
10
-26.513503
20
12.849954
40
0.200000
100
AcDbArc
50
89.999999
51
179.999998
0
LINE
5
7b8
100
AcDbEntity
8
1
100
AcDbLine
6
CONTINUOUS
62
5
10
-26.713503
20
12.849954
11
-26.713503
21
9.149954
0
ARC
5
7b9
100
AcDbEntity
8
1
100
AcDbCircle
6
CONTINUOUS
62
5
10
-26.213503
20
9.149954
40
0.500000
100
AcDbArc
50
179.999998
51
-89.999999
0
LINE
5
7ba
100
AcDbEntity
8
1
100
AcDbLine
6
CONTINUOUS
62
5
10
-26.213503
20
8.649954
11
-24.613503
21
8.649954
0
ARC
5
7bb
100
AcDbEntity
8
1
100
AcDbCircle
6
CONTINUOUS
62
5
10
-24.613503
20
9.149954
40
0.500000
100
AcDbArc
50
-89.999999
51
0.000000
0
LINE
5
7bc
100
AcDbEntity
8
1
100
AcDbLine
6
CONTINUOUS
62
5
10
-24.113503
20
9.149954
11
-24.113503
21
12.849954
0
ARC
5
7bd
100
AcDbEntity
8
1
100
AcDbCircle
6
CONTINUOUS
62
5
10
-24.313503
20
12.849954
40
0.200000
100
AcDbArc
50
0.000000
51
89.999999
0
LINE
5
7be
100
AcDbEntity
8
1
100
AcDbLine
6
CONTINUOUS
62
5
10
-24.313503
20
13.049954
11
-26.513503
21
13.049954
0
POLYLINE
5
7bf
100
AcDbEntity
8
1
6
CONTINUOUS
62
5
100
AcDb2dPolyline
66
1
10
0.0
20
0.0
30
0.0
70
1
0
VERTEX
5
7c0
100
AcDbEntity
8
1
100
AcDbVertex
100
AcDb2dVertex
62
5
10
-26.913503
20
8.649954
0
VERTEX
5
7c1
100
AcDbEntity
8
1
100
AcDbVertex
100
AcDb2dVertex
62
5
10
-23.913503
20
8.649954
0
VERTEX
5
7c2
100
AcDbEntity
8
1
100
AcDbVertex
100
AcDb2dVertex
62
5
10
-23.913503
20
13.649954
0
VERTEX
5
7c3
100
AcDbEntity
8
1
100
AcDbVertex
100
AcDb2dVertex
62
5
10
-26.913503
20
13.649954
0
SEQEND
5
7c4
100
AcDbEntity
8
1
0
ARC
5
7c5
100
AcDbEntity
8
1
100
AcDbCircle
6
CONTINUOUS
62
5
10
-20.745727
20
13.149954
40
0.500000
100
AcDbArc
50
89.999999
51
176.185924
0
LINE
5
7c6
100
AcDbEntity
8
1
100
AcDbLine
6
CONTINUOUS
62
5
10
-19.813503
20
7.149954
11
-20.913503
21
7.149954
0
ARC
5
7c7
100
AcDbEntity
8
1
100
AcDbCircle
6
CONTINUOUS
62
5
10
-20.913503
20
7.649954
40
0.500000
100
AcDbArc
50
179.999998
51
-89.999999
0
LINE
5
7c8
100
AcDbEntity
8
1
100
AcDbLine
6
CONTINUOUS
62
5
10
-21.413503
20
7.649954
11
-21.413503
21
10.616658
0
ARC
5
7c9
100
AcDbEntity
8
1
100
AcDbCircle
6
CONTINUOUS
62
5
10
-20.413503
20
10.616658
40
1.000000
100
AcDbArc
50
176.185924
51
-179.999998
0
LINE
5
7ca
100
AcDbEntity
8
1
100
AcDbLine
6
CONTINUOUS
62
5
10
-21.411288
20
10.683177
11
-21.244619
21
13.183214
0
ARC
5
7cb
100
AcDbEntity
8
1
100
AcDbCircle
6
CONTINUOUS
62
5
10
-29.206845
20
21.649954
40
0.500000
100
AcDbArc
50
89.999999
51
134.999998
0
LINE
5
7cc
100
AcDbEntity
8
1
100
AcDbLine
6
CONTINUOUS
62
5
10
-29.560398
20
22.003508
11
-30.267505
21
21.296401
0
ARC
5
7cd
100
AcDbEntity
8
1
100
AcDbCircle
6
CONTINUOUS
62
5
10
-29.913952
20
20.942847
40
0.500000
100
AcDbArc
50
134.999998
51
179.999998
0
LINE
5
7ce
100
AcDbEntity
8
1
100
AcDbLine
6
CONTINUOUS
62
5
10
-30.413952
20
20.942847
11
-30.413952
21
20.846150
0
LINE
5
7cf
100
AcDbEntity
8
1
100
AcDbLine
6
CONTINUOUS
62
5
10
-29.037209
20
22.149954
11
-29.206845
21
22.149954
0
ARC
5
7d0
100
AcDbEntity
8
1
100
AcDbCircle
6
CONTINUOUS
62
5
10
-29.913952
20
14.849954
40
0.500000
100
AcDbArc
50
89.999999
51
179.999998
0
LINE
5
7d1
100
AcDbEntity
8
1
100
AcDbLine
6
CONTINUOUS
62
5
10
-30.413952
20
14.849954
11
-30.413952
21
13.649954
0
ARC
5
7d2
100
AcDbEntity
8
1
100
AcDbCircle
6
CONTINUOUS
62
5
10
-26.413952
20
21.649954
40
0.500000
100
AcDbArc
50
89.999999
51
179.999998
0
POLYLINE
5
7d3
100
AcDbEntity
8
1
6
CONTINUOUS
62
5
100
AcDb2dPolyline
66
1
10
0.0
20
0.0
30
0.0
70
0
0
VERTEX
5
7d4
100
AcDbEntity
8
1
100
AcDbVertex
100
AcDb2dVertex
62
5
10
-26.913952
20
21.649954
0
VERTEX
5
7d5
100
AcDbEntity
8
1
100
AcDbVertex
100
AcDb2dVertex
62
5
10
-26.913952
20
15.349954
0
VERTEX
5
7d6
100
AcDbEntity
8
1
100
AcDbVertex
100
AcDb2dVertex
62
5
10
-29.913952
20
15.349954
0
SEQEND
5
7d7
100
AcDbEntity
8
1
0
LINE
5
7d8
100
AcDbEntity
8
1
100
AcDbLine
6
CONTINUOUS
62
5
10
-26.913503
20
13.149954
11
-29.413503
21
13.149954
0
ARC
5
7d9
100
AcDbEntity
8
1
100
AcDbCircle
6
CONTINUOUS
62
5
10
-29.913952
20
15.549954
40
0.500000
100
AcDbArc
50
89.999999
51
179.999998
0
LINE
5
7da
100
AcDbEntity
8
1
100
AcDbLine
6
CONTINUOUS
62
5
10
-30.413952
20
15.549954
11
-30.413952
21
13.649954
0
LINE
5
7db
100
AcDbEntity
8
1
100
AcDbLine
6
CONTINUOUS
62
5
10
-26.913952
20
16.049954
11
-29.913952
21
16.049954
0
ARC
5
7dc
100
AcDbEntity
8
1
100
AcDbCircle
6
CONTINUOUS
62
5
10
-22.413503
20
7.149954
40
1.000000
100
AcDbArc
50
-89.999999
51
0.000000
0
LINE
5
7dd
100
AcDbEntity
8
1
100
AcDbLine
6
CONTINUOUS
62
5
10
-21.413503
20
7.149954
11
-21.413503
21
13.649954
0
LINE
5
7de
100
AcDbEntity
8
1
100
AcDbLine
6
CONTINUOUS
62
5
10
-29.413503
20
13.649954
11
-29.413503
21
7.149954
0
ARC
5
7df
100
AcDbEntity
8
1
100
AcDbCircle
6
CONTINUOUS
62
5
10
-28.413503
20
7.149954
40
1.000000
100
AcDbArc
50
179.999998
51
-89.999999
0
LINE
5
7e0
100
AcDbEntity
8
1
100
AcDbLine
6
CONTINUOUS
62
5
10
-28.413503
20
6.149954
11
-22.413503
21
6.149954
0
ARC
5
7e1
100
AcDbEntity
8
1
100
AcDbCircle
6
CONTINUOUS
62
5
10
-20.241667
20
-7.750046
40
1.000000
100
AcDbArc
50
-178.363421
51
-89.999999
0
LINE
5
7e2
100
AcDbEntity
8
1
100
AcDbLine
6
CONTINUOUS
62
5
10
-20.241667
20
-8.750046
11
-19.359217
21
-8.750046
0
LINE
5
7e3
100
AcDbEntity
8
1
100
AcDbLine
6
CONTINUOUS
62
5
10
-21.413503
20
-1.750046
11
-21.241259
21
-7.778606
0
LINE
5
7e4
100
AcDbEntity
8
1
100
AcDbLine
6
CONTINUOUS
62
5
10
-23.414216
20
24.849954
11
-24.013952
21
24.849954
0
ARC
5
7e5
100
AcDbEntity
8
1
100
AcDbCircle
6
CONTINUOUS
62
5
10
-23.429333
20
27.549954
40
0.500000
100
AcDbArc
50
89.999999
51
178.210088
0
LINE
5
7e6
100
AcDbEntity
8
1
100
AcDbLine
6
CONTINUOUS
62
5
10
-23.429333
20
28.049954
11
-22.145787
21
28.049954
0
ARC
5
7e7
100
AcDbEntity
8
1
100
AcDbCircle
6
CONTINUOUS
62
5
10
-22.145787
20
27.749954
40
0.300000
100
AcDbArc
50
3.576334
51
89.999999
0
LINE
5
7e8
100
AcDbEntity
8
1
100
AcDbLine
6
CONTINUOUS
62
5
10
-21.846371
20
27.768668
11
-21.722359
21
25.784466
0
POLYLINE
5
7e9
100
AcDbEntity
8
1
6
CONTINUOUS
62
5
100
AcDb2dPolyline
66
1
10
0.0
20
0.0
30
0.0
70
0
0
VERTEX
5
7ea
100
AcDbEntity
8
1
100
AcDbVertex
100
AcDb2dVertex
62
5
10
-24.013952
20
22.149954
0
VERTEX
5
7eb
100
AcDbEntity
8
1
100
AcDbVertex
100
AcDb2dVertex
62
5
10
-24.013952
20
24.849954
0
VERTEX
5
7ec
100
AcDbEntity
8
1
100
AcDbVertex
100
AcDb2dVertex
62
5
10
-23.929089
20
27.565572
0
SEQEND
5
7ed
100
AcDbEntity
8
1
0
ARC
5
7ee
100
AcDbEntity
8
1
100
AcDbCircle
6
CONTINUOUS
62
5
10
-20.871197
20
28.853971
40
0.300000
100
AcDbArc
50
86.999999
51
175.210088
0
POLYLINE
5
7ef
100
AcDbEntity
8
1
6
CONTINUOUS
62
5
100
AcDb2dPolyline
66
1
10
0.0
20
0.0
30
0.0
70
0
0
VERTEX
5
7f0
100
AcDbEntity
8
1
100
AcDbVertex
100
AcDb2dVertex
62
5
10
-21.170149
20
28.879022
0
VERTEX
5
7f1
100
AcDbEntity
8
1
100
AcDbVertex
100
AcDb2dVertex
62
5
10
-21.413207
20
25.978397
0
VERTEX
5
7f2
100
AcDbEntity
8
1
100
AcDbVertex
100
AcDb2dVertex
62
5
10
-21.472346
20
24.849954
0
SEQEND
5
7f3
100
AcDbEntity
8
1
0
LINE
5
7f4
100
AcDbEntity
8
1
100
AcDbLine
6
CONTINUOUS
62
5
10
-19.360559
20
29.075214
11
-20.855496
21
29.153560
0
ARC
5
7f5
100
AcDbEntity
8
1
100
AcDbCircle
6
CONTINUOUS
62
5
10
-23.132437
20
27.549954
40
0.500000
100
AcDbArc
50
89.999999
51
-179.607493
0
POLYLINE
5
7f6
100
AcDbEntity
8
1
6
CONTINUOUS
62
5
100
AcDb2dPolyline
66
1
10
0.0
20
0.0
30
0.0
70
0
0
VERTEX
5
7f7
100
AcDbEntity
8
1
100
AcDbVertex
100
AcDb2dVertex
62
5
10
-23.613952
20
22.149954
0
VERTEX
5
7f8
100
AcDbEntity
8
1
100
AcDbVertex
100
AcDb2dVertex
62
5
10
-23.613952
20
24.849954
0
VERTEX
5
7f9
100
AcDbEntity
8
1
100
AcDbVertex
100
AcDb2dVertex
62
5
10
-23.632425
20
27.546529
0
SEQEND
5
7fa
100
AcDbEntity
8
1
0
ARC
5
7fb
100
AcDbEntity
8
1
100
AcDbCircle
6
CONTINUOUS
62
5
10
-22.163952
20
25.549954
40
0.500000
100
AcDbArc
50
0.000000
51
89.999999
0
LINE
5
7fc
100
AcDbEntity
8
1
100
AcDbLine
6
CONTINUOUS
62
5
10
-22.163952
20
26.049954
11
-22.914268
21
26.049954
0
ARC
5
7fd
100
AcDbEntity
8
1
100
AcDbCircle
6
CONTINUOUS
62
5
10
-22.914268
20
25.549954
40
0.500000
100
AcDbArc
50
89.999999
51
-179.984878
0
LINE
5
7fe
100
AcDbEntity
8
1
100
AcDbLine
6
CONTINUOUS
62
5
10
-23.414268
20
25.549822
11
-23.413952
21
24.349954
0
LINE
5
7ff
100
AcDbEntity
8
1
100
AcDbLine
6
CONTINUOUS
62
5
10
-21.663952
20
24.849954
11
-21.663952
21
25.549954
0
POLYLINE
5
800
100
AcDbEntity
8
1
6
CONTINUOUS
62
5
100
AcDb2dPolyline
66
1
10
0.0
20
0.0
30
0.0
70
0
0
VERTEX
5
801
100
AcDbEntity
8
1
100
AcDbVertex
100
AcDb2dVertex
62
5
10
-26.913503
20
-74.250046
0
VERTEX
5
802
100
AcDbEntity
8
1
100
AcDbVertex
100
AcDb2dVertex
62
5
10
-25.351003
20
-66.750046
0
VERTEX
5
803
100
AcDbEntity
8
1
100
AcDbVertex
100
AcDb2dVertex
62
5
10
-23.788503
20
-74.250046
0
SEQEND
5
804
100
AcDbEntity
8
1
0
LINE
5
805
100
AcDbEntity
8
1
100
AcDbLine
6
CONTINUOUS
62
5
10
-26.288503
20
-71.750046
11
-24.413503
21
-71.750046
0
POLYLINE
5
806
100
AcDbEntity
8
1
6
CONTINUOUS
62
5
100
AcDb2dPolyline
66
1
10
0.0
20
0.0
30
0.0
70
0
0
VERTEX
5
807
100
AcDbEntity
8
1
100
AcDbVertex
100
AcDb2dVertex
62
5
10
-18.788503
20
-68.312546
0
VERTEX
5
808
100
AcDbEntity
8
1
100
AcDbVertex
100
AcDb2dVertex
62
5
10
-19.101003
20
-67.375046
0
VERTEX
5
809
100
AcDbEntity
8
1
100
AcDbVertex
100
AcDb2dVertex
62
5
10
-19.726003
20
-66.750046
0
VERTEX
5
80a
100
AcDbEntity
8
1
100
AcDbVertex
100
AcDb2dVertex
62
5
10
-20.663503
20
-66.750046
0
VERTEX
5
80b
100
AcDbEntity
8
1
100
AcDbVertex
100
AcDb2dVertex
62
5
10
-21.601003
20
-67.687546
0
VERTEX
5
80c
100
AcDbEntity
8
1
100
AcDbVertex
100
AcDb2dVertex
62
5
10
-21.913503
20
-69.250046
0
VERTEX
5
80d
100
AcDbEntity
8
1
100
AcDbVertex
100
AcDb2dVertex
62
5
10
-21.913503
20
-71.750046
0
VERTEX
5
80e
100
AcDbEntity
8
1
100
AcDbVertex
100
AcDb2dVertex
62
5
10
-21.601003
20
-73.312546
0
VERTEX
5
80f
100
AcDbEntity
8
1
100
AcDbVertex
100
AcDb2dVertex
62
5
10
-20.663503
20
-74.250046
0
VERTEX
5
810
100
AcDbEntity
8
1
100
AcDbVertex
100
AcDb2dVertex
62
5
10
-19.726003
20
-74.250046
0
VERTEX
5
811
100
AcDbEntity
8
1
100
AcDbVertex
100
AcDb2dVertex
62
5
10
-19.101003
20
-73.625046
0
VERTEX
5
812
100
AcDbEntity
8
1
100
AcDbVertex
100
AcDb2dVertex
62
5
10
-18.476003
20
-72.062546
0
SEQEND
5
813
100
AcDbEntity
8
1
0
POLYLINE
5
814
100
AcDbEntity
8
1
6
CONTINUOUS
62
5
100
AcDb2dPolyline
66
1
10
0.0
20
0.0
30
0.0
70
0
0
VERTEX
5
815
100
AcDbEntity
8
1
100
AcDbVertex
100
AcDb2dVertex
62
5
10
-13.788503
20
-66.437546
0
VERTEX
5
816
100
AcDbEntity
8
1
100
AcDbVertex
100
AcDb2dVertex
62
5
10
-14.726003
20
-67.687546
0
VERTEX
5
817
100
AcDbEntity
8
1
100
AcDbVertex
100
AcDb2dVertex
62
5
10
-15.351003
20
-69.562546
0
VERTEX
5
818
100
AcDbEntity
8
1
100
AcDbVertex
100
AcDb2dVertex
62
5
10
-15.351003
20
-71.437546
0
VERTEX
5
819
100
AcDbEntity
8
1
100
AcDbVertex
100
AcDb2dVertex
62
5
10
-14.726003
20
-73.312546
0
VERTEX
5
81a
100
AcDbEntity
8
1
100
AcDbVertex
100
AcDb2dVertex
62
5
10
-13.788503
20
-74.562546
0
SEQEND
5
81b
100
AcDbEntity
8
1
0
POLYLINE
5
81c
100
AcDbEntity
8
1
6
CONTINUOUS
62
5
100
AcDb2dPolyline
66
1
10
0.0
20
0.0
30
0.0
70
1
0
VERTEX
5
81d
100
AcDbEntity
8
1
100
AcDbVertex
100
AcDb2dVertex
62
5
10
-45.663503
20
-66.750046
0
VERTEX
5
81e
100
AcDbEntity
8
1
100
AcDbVertex
100
AcDb2dVertex
62
5
10
-45.038503
20
-66.750046
0
VERTEX
5
81f
100
AcDbEntity
8
1
100
AcDbVertex
100
AcDb2dVertex
62
5
10
-44.726003
20
-67.062546
0
VERTEX
5
820
100
AcDbEntity
8
1
100
AcDbVertex
100
AcDb2dVertex
62
5
10
-44.101003
20
-68.312546
0
VERTEX
5
821
100
AcDbEntity
8
1
100
AcDbVertex
100
AcDb2dVertex
62
5
10
-43.788503
20
-69.562546
0
VERTEX
5
822
100
AcDbEntity
8
1
100
AcDbVertex
100
AcDb2dVertex
62
5
10
-43.788503
20
-71.437546
0
VERTEX
5
823
100
AcDbEntity
8
1
100
AcDbVertex
100
AcDb2dVertex
62
5
10
-44.101003
20
-72.687546
0
VERTEX
5
824
100
AcDbEntity
8
1
100
AcDbVertex
100
AcDb2dVertex
62
5
10
-44.726003
20
-73.937546
0
VERTEX
5
825
100
AcDbEntity
8
1
100
AcDbVertex
100
AcDb2dVertex
62
5
10
-45.038503
20
-74.250046
0
VERTEX
5
826
100
AcDbEntity
8
1
100
AcDbVertex
100
AcDb2dVertex
62
5
10
-45.663503
20
-74.250046
0
VERTEX
5
827
100
AcDbEntity
8
1
100
AcDbVertex
100
AcDb2dVertex
62
5
10
-45.976003
20
-73.937546
0
VERTEX
5
828
100
AcDbEntity
8
1
100
AcDbVertex
100
AcDb2dVertex
62
5
10
-46.601003
20
-72.687546
0
VERTEX
5
829
100
AcDbEntity
8
1
100
AcDbVertex
100
AcDb2dVertex
62
5
10
-46.913503
20
-71.437546
0
VERTEX
5
82a
100
AcDbEntity
8
1
100
AcDbVertex
100
AcDb2dVertex
62
5
10
-46.913503
20
-69.562546
0
VERTEX
5
82b
100
AcDbEntity
8
1
100
AcDbVertex
100
AcDb2dVertex
62
5
10
-46.601003
20
-68.312546
0
VERTEX
5
82c
100
AcDbEntity
8
1
100
AcDbVertex
100
AcDb2dVertex
62
5
10
-45.976003
20
-67.062546
0
VERTEX
5
82d
100
AcDbEntity
8
1
100
AcDbVertex
100
AcDb2dVertex
62
5
10
-45.663503
20
-66.750046
0
SEQEND
5
82e
100
AcDbEntity
8
1
0
POLYLINE
5
82f
100
AcDbEntity
8
1
6
CONTINUOUS
62
5
100
AcDb2dPolyline
66
1
10
0.0
20
0.0
30
0.0
70
1
0
VERTEX
5
830
100
AcDbEntity
8
1
100
AcDbVertex
100
AcDb2dVertex
62
5
10
-40.663503
20
-66.750046
0
VERTEX
5
831
100
AcDbEntity
8
1
100
AcDbVertex
100
AcDb2dVertex
62
5
10
-40.038503
20
-66.750046
0
VERTEX
5
832
100
AcDbEntity
8
1
100
AcDbVertex
100
AcDb2dVertex
62
5
10
-39.726003
20
-67.062546
0
VERTEX
5
833
100
AcDbEntity
8
1
100
AcDbVertex
100
AcDb2dVertex
62
5
10
-39.101003
20
-68.312546
0
VERTEX
5
834
100
AcDbEntity
8
1
100
AcDbVertex
100
AcDb2dVertex
62
5
10
-38.788503
20
-69.562546
0
VERTEX
5
835
100
AcDbEntity
8
1
100
AcDbVertex
100
AcDb2dVertex
62
5
10
-38.788503
20
-71.437546
0
VERTEX
5
836
100
AcDbEntity
8
1
100
AcDbVertex
100
AcDb2dVertex
62
5
10
-39.101003
20
-72.687546
0
VERTEX
5
837
100
AcDbEntity
8
1
100
AcDbVertex
100
AcDb2dVertex
62
5
10
-39.726003
20
-73.937546
0
VERTEX
5
838
100
AcDbEntity
8
1
100
AcDbVertex
100
AcDb2dVertex
62
5
10
-40.038503
20
-74.250046
0
VERTEX
5
839
100
AcDbEntity
8
1
100
AcDbVertex
100
AcDb2dVertex
62
5
10
-40.663503
20
-74.250046
0
VERTEX
5
83a
100
AcDbEntity
8
1
100
AcDbVertex
100
AcDb2dVertex
62
5
10
-40.976003
20
-73.937546
0
VERTEX
5
83b
100
AcDbEntity
8
1
100
AcDbVertex
100
AcDb2dVertex
62
5
10
-41.601003
20
-72.687546
0
VERTEX
5
83c
100
AcDbEntity
8
1
100
AcDbVertex
100
AcDb2dVertex
62
5
10
-41.913503
20
-71.437546
0
VERTEX
5
83d
100
AcDbEntity
8
1
100
AcDbVertex
100
AcDb2dVertex
62
5
10
-41.913503
20
-69.562546
0
VERTEX
5
83e
100
AcDbEntity
8
1
100
AcDbVertex
100
AcDb2dVertex
62
5
10
-41.601003
20
-68.312546
0
VERTEX
5
83f
100
AcDbEntity
8
1
100
AcDbVertex
100
AcDb2dVertex
62
5
10
-40.976003
20
-67.062546
0
VERTEX
5
840
100
AcDbEntity
8
1
100
AcDbVertex
100
AcDb2dVertex
62
5
10
-40.663503
20
-66.750046
0
SEQEND
5
841
100
AcDbEntity
8
1
0
POLYLINE
5
842
100
AcDbEntity
8
1
6
CONTINUOUS
62
5
100
AcDb2dPolyline
66
1
10
0.0
20
0.0
30
0.0
70
0
0
VERTEX
5
843
100
AcDbEntity
8
1
100
AcDbVertex
100
AcDb2dVertex
62
5
10
-36.913503
20
-66.750046
0
VERTEX
5
844
100
AcDbEntity
8
1
100
AcDbVertex
100
AcDb2dVertex
62
5
10
-35.351003
20
-74.250046
0
VERTEX
5
845
100
AcDbEntity
8
1
100
AcDbVertex
100
AcDb2dVertex
62
5
10
-33.788503
20
-66.750046
0
SEQEND
5
846
100
AcDbEntity
8
1
0
POLYLINE
5
847
100
AcDbEntity
8
1
6
CONTINUOUS
62
5
100
AcDb2dPolyline
66
1
10
0.0
20
0.0
30
0.0
70
0
0
VERTEX
5
848
100
AcDbEntity
8
1
100
AcDbVertex
100
AcDb2dVertex
62
5
10
-64.413503
20
-66.750046
0
VERTEX
5
849
100
AcDbEntity
8
1
100
AcDbVertex
100
AcDb2dVertex
62
5
10
-67.226003
20
-72.375046
0
VERTEX
5
84a
100
AcDbEntity
8
1
100
AcDbVertex
100
AcDb2dVertex
62
5
10
-63.476003
20
-72.375046
0
SEQEND
5
84b
100
AcDbEntity
8
1
0
LINE
5
84c
100
AcDbEntity
8
1
100
AcDbLine
6
CONTINUOUS
62
5
10
-64.413503
20
-66.750046
11
-64.413503
21
-74.250046
0
LINE
5
84d
100
AcDbEntity
8
1
100
AcDbLine
6
CONTINUOUS
62
5
10
-65.038503
20
-74.250046
11
-63.788503
21
-74.250046
0
POLYLINE
5
84e
100
AcDbEntity
8
1
6
CONTINUOUS
62
5
100
AcDb2dPolyline
66
1
10
0.0
20
0.0
30
0.0
70
0
0
VERTEX
5
84f
100
AcDbEntity
8
1
100
AcDbVertex
100
AcDb2dVertex
62
5
10
-61.913503
20
-74.250046
0
VERTEX
5
850
100
AcDbEntity
8
1
100
AcDbVertex
100
AcDb2dVertex
62
5
10
-60.351003
20
-66.750046
0
VERTEX
5
851
100
AcDbEntity
8
1
100
AcDbVertex
100
AcDb2dVertex
62
5
10
-58.788503
20
-74.250046
0
SEQEND
5
852
100
AcDbEntity
8
1
0
LINE
5
853
100
AcDbEntity
8
1
100
AcDbLine
6
CONTINUOUS
62
5
10
-61.288503
20
-71.750046
11
-59.413503
21
-71.750046
0
LINE
5
854
100
AcDbEntity
8
1
100
AcDbLine
6
CONTINUOUS
62
5
10
-56.913503
20
-70.500046
11
-53.788503
21
-70.500046
0
POLYLINE
5
855
100
AcDbEntity
8
1
6
CONTINUOUS
62
5
100
AcDb2dPolyline
66
1
10
0.0
20
0.0
30
0.0
70
0
0
VERTEX
5
856
100
AcDbEntity
8
1
100
AcDbVertex
100
AcDb2dVertex
62
5
10
-51.913503
20
-68.625046
0
VERTEX
5
857
100
AcDbEntity
8
1
100
AcDbVertex
100
AcDb2dVertex
62
5
10
-51.601003
20
-67.375046
0
VERTEX
5
858
100
AcDbEntity
8
1
100
AcDbVertex
100
AcDb2dVertex
62
5
10
-50.976003
20
-66.750046
0
VERTEX
5
859
100
AcDbEntity
8
1
100
AcDbVertex
100
AcDb2dVertex
62
5
10
-50.038503
20
-66.750046
0
VERTEX
5
85a
100
AcDbEntity
8
1
100
AcDbVertex
100
AcDb2dVertex
62
5
10
-49.413503
20
-67.062546
0
VERTEX
5
85b
100
AcDbEntity
8
1
100
AcDbVertex
100
AcDb2dVertex
62
5
10
-49.101003
20
-68.000046
0
VERTEX
5
85c
100
AcDbEntity
8
1
100
AcDbVertex
100
AcDb2dVertex
62
5
10
-49.101003
20
-69.250046
0
VERTEX
5
85d
100
AcDbEntity
8
1
100
AcDbVertex
100
AcDb2dVertex
62
5
10
-49.413503
20
-69.875046
0
VERTEX
5
85e
100
AcDbEntity
8
1
100
AcDbVertex
100
AcDb2dVertex
62
5
10
-50.038503
20
-70.500046
0
VERTEX
5
85f
100
AcDbEntity
8
1
100
AcDbVertex
100
AcDb2dVertex
62
5
10
-50.976003
20
-70.500046
0
SEQEND
5
860
100
AcDbEntity
8
1
0
POLYLINE
5
861
100
AcDbEntity
8
1
6
CONTINUOUS
62
5
100
AcDb2dPolyline
66
1
10
0.0
20
0.0
30
0.0
70
0
0
VERTEX
5
862
100
AcDbEntity
8
1
100
AcDbVertex
100
AcDb2dVertex
62
5
10
-50.038503
20
-70.500046
0
VERTEX
5
863
100
AcDbEntity
8
1
100
AcDbVertex
100
AcDb2dVertex
62
5
10
-49.101003
20
-71.125046
0
VERTEX
5
864
100
AcDbEntity
8
1
100
AcDbVertex
100
AcDb2dVertex
62
5
10
-48.788503
20
-72.062546
0
VERTEX
5
865
100
AcDbEntity
8
1
100
AcDbVertex
100
AcDb2dVertex
62
5
10
-48.788503
20
-73.000046
0
VERTEX
5
866
100
AcDbEntity
8
1
100
AcDbVertex
100
AcDb2dVertex
62
5
10
-49.101003
20
-73.625046
0
VERTEX
5
867
100
AcDbEntity
8
1
100
AcDbVertex
100
AcDb2dVertex
62
5
10
-50.038503
20
-74.250046
0
VERTEX
5
868
100
AcDbEntity
8
1
100
AcDbVertex
100
AcDb2dVertex
62
5
10
-50.976003
20
-74.250046
0
VERTEX
5
869
100
AcDbEntity
8
1
100
AcDbVertex
100
AcDb2dVertex
62
5
10
-51.601003
20
-73.937546
0
VERTEX
5
86a
100
AcDbEntity
8
1
100
AcDbVertex
100
AcDb2dVertex
62
5
10
-52.226003
20
-73.000046
0
SEQEND
5
86b
100
AcDbEntity
8
1
0
LINE
5
86c
100
AcDbEntity
8
1
100
AcDbLine
6
CONTINUOUS
62
5
10
-79.413503
20
-58.500046
11
-79.413503
21
-82.500046
0
LINE
5
86d
100
AcDbEntity
8
1
100
AcDbLine
6
CONTINUOUS
62
5
10
-98.788503
20
-68.312546
11
-95.663503
21
-68.312546
0
LINE
5
86e
100
AcDbEntity
8
1
100
AcDbLine
6
CONTINUOUS
62
5
10
-96.913503
20
-66.125046
11
-96.913503
21
-74.875046
0
POLYLINE
5
86f
100
AcDbEntity
8
1
6
CONTINUOUS
62
5
100
AcDb2dPolyline
66
1
10
0.0
20
0.0
30
0.0
70
0
0
VERTEX
5
870
100
AcDbEntity
8
1
100
AcDbVertex
100
AcDb2dVertex
62
5
10
-96.913503
20
-68.312546
0
VERTEX
5
871
100
AcDbEntity
8
1
100
AcDbVertex
100
AcDb2dVertex
62
5
10
-97.851003
20
-70.500046
0
VERTEX
5
872
100
AcDbEntity
8
1
100
AcDbVertex
100
AcDb2dVertex
62
5
10
-98.788503
20
-71.750046
0
SEQEND
5
873
100
AcDbEntity
8
1
0
LINE
5
874
100
AcDbEntity
8
1
100
AcDbLine
6
CONTINUOUS
62
5
10
-96.913503
20
-69.250046
11
-95.976003
21
-70.500046
0
POLYLINE
5
875
100
AcDbEntity
8
1
6
CONTINUOUS
62
5
100
AcDb2dPolyline
66
1
10
0.0
20
0.0
30
0.0
70
0
0
VERTEX
5
876
100
AcDbEntity
8
1
100
AcDbVertex
100
AcDb2dVertex
62
5
10
-93.476003
20
-66.125046
0
VERTEX
5
877
100
AcDbEntity
8
1
100
AcDbVertex
100
AcDb2dVertex
62
5
10
-94.101003
20
-67.375046
0
VERTEX
5
878
100
AcDbEntity
8
1
100
AcDbVertex
100
AcDb2dVertex
62
5
10
-95.663503
20
-69.250046
0
SEQEND
5
879
100
AcDbEntity
8
1
0
POLYLINE
5
87a
100
AcDbEntity
8
1
6
CONTINUOUS
62
5
100
AcDb2dPolyline
66
1
10
0.0
20
0.0
30
0.0
70
0
0
VERTEX
5
87b
100
AcDbEntity
8
1
100
AcDbVertex
100
AcDb2dVertex
62
5
10
-94.101003
20
-67.375046
0
VERTEX
5
87c
100
AcDbEntity
8
1
100
AcDbVertex
100
AcDb2dVertex
62
5
10
-90.976003
20
-67.375046
0
VERTEX
5
87d
100
AcDbEntity
8
1
100
AcDbVertex
100
AcDb2dVertex
62
5
10
-91.913503
20
-68.937546
0
VERTEX
5
87e
100
AcDbEntity
8
1
100
AcDbVertex
100
AcDb2dVertex
62
5
10
-93.476003
20
-70.500046
0
VERTEX
5
87f
100
AcDbEntity
8
1
100
AcDbVertex
100
AcDb2dVertex
62
5
10
-95.663503
20
-71.750046
0
SEQEND
5
880
100
AcDbEntity
8
1
0
POLYLINE
5
881
100
AcDbEntity
8
1
6
CONTINUOUS
62
5
100
AcDb2dPolyline
66
1
10
0.0
20
0.0
30
0.0
70
0
0
VERTEX
5
882
100
AcDbEntity
8
1
100
AcDbVertex
100
AcDb2dVertex
62
5
10
-94.101003
20
-67.375046
0
VERTEX
5
883
100
AcDbEntity
8
1
100
AcDbVertex
100
AcDb2dVertex
62
5
10
-93.476003
20
-68.937546
0
VERTEX
5
884
100
AcDbEntity
8
1
100
AcDbVertex
100
AcDb2dVertex
62
5
10
-92.226003
20
-70.500046
0
VERTEX
5
885
100
AcDbEntity
8
1
100
AcDbVertex
100
AcDb2dVertex
62
5
10
-91.288503
20
-71.125046
0
VERTEX
5
886
100
AcDbEntity
8
1
100
AcDbVertex
100
AcDb2dVertex
62
5
10
-90.038503
20
-71.750046
0
SEQEND
5
887
100
AcDbEntity
8
1
0
POLYLINE
5
888
100
AcDbEntity
8
1
6
CONTINUOUS
62
5
100
AcDb2dPolyline
66
1
10
0.0
20
0.0
30
0.0
70
1
0
VERTEX
5
889
100
AcDbEntity
8
1
100
AcDbVertex
100
AcDb2dVertex
62
5
10
-94.413503
20
-71.750046
0
VERTEX
5
88a
100
AcDbEntity
8
1
100
AcDbVertex
100
AcDb2dVertex
62
5
10
-94.413503
20
-74.562546
0
VERTEX
5
88b
100
AcDbEntity
8
1
100
AcDbVertex
100
AcDb2dVertex
62
5
10
-90.976003
20
-74.562546
0
VERTEX
5
88c
100
AcDbEntity
8
1
100
AcDbVertex
100
AcDb2dVertex
62
5
10
-90.976003
20
-71.750046
0
VERTEX
5
88d
100
AcDbEntity
8
1
100
AcDbVertex
100
AcDb2dVertex
62
5
10
-94.413503
20
-71.750046
0
SEQEND
5
88e
100
AcDbEntity
8
1
0
LINE
5
88f
100
AcDbEntity
8
1
100
AcDbLine
6
CONTINUOUS
62
5
10
-114.726003
20
-66.125046
11
-114.726003
21
-67.062546
0
POLYLINE
5
890
100
AcDbEntity
8
1
6
CONTINUOUS
62
5
100
AcDb2dPolyline
66
1
10
0.0
20
0.0
30
0.0
70
0
0
VERTEX
5
891
100
AcDbEntity
8
1
100
AcDbVertex
100
AcDb2dVertex
62
5
10
-118.476003
20
-69.250046
0
VERTEX
5
892
100
AcDbEntity
8
1
100
AcDbVertex
100
AcDb2dVertex
62
5
10
-118.476003
20
-67.062546
0
VERTEX
5
893
100
AcDbEntity
8
1
100
AcDbVertex
100
AcDb2dVertex
62
5
10
-110.976003
20
-67.062546
0
VERTEX
5
894
100
AcDbEntity
8
1
100
AcDbVertex
100
AcDb2dVertex
62
5
10
-110.976003
20
-69.250046
0
SEQEND
5
895
100
AcDbEntity
8
1
0
LINE
5
896
100
AcDbEntity
8
1
100
AcDbLine
6
CONTINUOUS
62
5
10
-117.538503
20
-68.937546
11
-111.913503
21
-68.937546
0
LINE
5
897
100
AcDbEntity
8
1
100
AcDbLine
6
CONTINUOUS
62
5
10
-114.726003
20
-68.937546
11
-114.726003
21
-74.250046
0
LINE
5
898
100
AcDbEntity
8
1
100
AcDbLine
6
CONTINUOUS
62
5
10
-114.726003
20
-71.437546
11
-111.913503
21
-71.437546
0
POLYLINE
5
899
100
AcDbEntity
8
1
6
CONTINUOUS
62
5
100
AcDb2dPolyline
66
1
10
0.0
20
0.0
30
0.0
70
0
0
VERTEX
5
89a
100
AcDbEntity
8
1
100
AcDbVertex
100
AcDb2dVertex
62
5
10
-116.913503
20
-70.812546
0
VERTEX
5
89b
100
AcDbEntity
8
1
100
AcDbVertex
100
AcDb2dVertex
62
5
10
-117.226003
20
-72.687546
0
VERTEX
5
89c
100
AcDbEntity
8
1
100
AcDbVertex
100
AcDb2dVertex
62
5
10
-117.851003
20
-73.937546
0
VERTEX
5
89d
100
AcDbEntity
8
1
100
AcDbVertex
100
AcDb2dVertex
62
5
10
-118.788503
20
-74.875046
0
SEQEND
5
89e
100
AcDbEntity
8
1
0
POLYLINE
5
89f
100
AcDbEntity
8
1
6
CONTINUOUS
62
5
100
AcDb2dPolyline
66
1
10
0.0
20
0.0
30
0.0
70
0
0
VERTEX
5
8a0
100
AcDbEntity
8
1
100
AcDbVertex
100
AcDb2dVertex
62
5
10
-117.226003
20
-72.687546
0
VERTEX
5
8a1
100
AcDbEntity
8
1
100
AcDbVertex
100
AcDb2dVertex
62
5
10
-114.726003
20
-74.250046
0
VERTEX
5
8a2
100
AcDbEntity
8
1
100
AcDbVertex
100
AcDb2dVertex
62
5
10
-113.476003
20
-74.562546
0
VERTEX
5
8a3
100
AcDbEntity
8
1
100
AcDbVertex
100
AcDb2dVertex
62
5
10
-110.351003
20
-74.875046
0
SEQEND
5
8a4
100
AcDbEntity
8
1
0
LINE
5
8a5
100
AcDbEntity
8
1
100
AcDbLine
6
CONTINUOUS
62
5
10
-8.476003
20
-66.125046
11
-8.476003
21
-70.812546
0
LINE
5
8a6
100
AcDbEntity
8
1
100
AcDbLine
6
CONTINUOUS
62
5
10
-12.226003
20
-67.687546
11
-4.726003
21
-67.687546
0
LINE
5
8a7
100
AcDbEntity
8
1
100
AcDbLine
6
CONTINUOUS
62
5
10
-11.288503
20
-69.250046
11
-5.351003
21
-69.250046
0
LINE
5
8a8
100
AcDbEntity
8
1
100
AcDbLine
6
CONTINUOUS
62
5
10
-12.851003
20
-70.812546
11
-3.788503
21
-70.812546
0
POLYLINE
5
8a9
100
AcDbEntity
8
1
6
CONTINUOUS
62
5
100
AcDb2dPolyline
66
1
10
0.0
20
0.0
30
0.0
70
0
0
VERTEX
5
8aa
100
AcDbEntity
8
1
100
AcDbVertex
100
AcDb2dVertex
62
5
10
-8.476003
20
-70.812546
0
VERTEX
5
8ab
100
AcDbEntity
8
1
100
AcDbVertex
100
AcDb2dVertex
62
5
10
-10.351003
20
-72.375046
0
VERTEX
5
8ac
100
AcDbEntity
8
1
100
AcDbVertex
100
AcDb2dVertex
62
5
10
-12.851003
20
-73.625046
0
SEQEND
5
8ad
100
AcDbEntity
8
1
0
LINE
5
8ae
100
AcDbEntity
8
1
100
AcDbLine
6
CONTINUOUS
62
5
10
-10.351003
20
-72.375046
11
-10.351003
21
-74.562546
0
POLYLINE
5
8af
100
AcDbEntity
8
1
6
CONTINUOUS
62
5
100
AcDb2dPolyline
66
1
10
0.0
20
0.0
30
0.0
70
0
0
VERTEX
5
8b0
100
AcDbEntity
8
1
100
AcDbVertex
100
AcDb2dVertex
62
5
10
-11.913503
20
-74.875046
0
VERTEX
5
8b1
100
AcDbEntity
8
1
100
AcDbVertex
100
AcDb2dVertex
62
5
10
-10.351003
20
-74.562546
0
VERTEX
5
8b2
100
AcDbEntity
8
1
100
AcDbVertex
100
AcDb2dVertex
62
5
10
-9.101003
20
-74.250046
0
VERTEX
5
8b3
100
AcDbEntity
8
1
100
AcDbVertex
100
AcDb2dVertex
62
5
10
-7.851003
20
-73.625046
0
SEQEND
5
8b4
100
AcDbEntity
8
1
0
LINE
5
8b5
100
AcDbEntity
8
1
100
AcDbLine
6
CONTINUOUS
62
5
10
-5.038503
20
-71.750046
11
-6.913503
21
-73.000046
0
POLYLINE
5
8b6
100
AcDbEntity
8
1
6
CONTINUOUS
62
5
100
AcDb2dPolyline
66
1
10
0.0
20
0.0
30
0.0
70
0
0
VERTEX
5
8b7
100
AcDbEntity
8
1
100
AcDbVertex
100
AcDb2dVertex
62
5
10
-8.163503
20
-71.437546
0
VERTEX
5
8b8
100
AcDbEntity
8
1
100
AcDbVertex
100
AcDb2dVertex
62
5
10
-6.913503
20
-73.625046
0
VERTEX
5
8b9
100
AcDbEntity
8
1
100
AcDbVertex
100
AcDb2dVertex
62
5
10
-5.351003
20
-74.562546
0
VERTEX
5
8ba
100
AcDbEntity
8
1
100
AcDbVertex
100
AcDb2dVertex
62
5
10
-4.101003
20
-74.875046
0
SEQEND
5
8bb
100
AcDbEntity
8
1
0
ARC
5
8bc
100
AcDbEntity
8
1
100
AcDbCircle
6
CONTINUOUS
62
5
10
-0.485340
20
-9.350046
40
1.000000
100
AcDbArc
50
-89.999999
51
-1.636577
0
LINE
5
8bd
100
AcDbEntity
8
1
100
AcDbLine
6
CONTINUOUS
62
5
10
0.514252
20
-9.378606
11
0.986497
21
7.149954
0
LINE
5
8be
100
AcDbEntity
8
1
100
AcDbLine
6
CONTINUOUS
62
5
10
-19.813503
20
7.149954
11
-19.341259
21
-9.378606
0
ARC
5
8bf
100
AcDbEntity
8
1
100
AcDbCircle
6
CONTINUOUS
62
5
10
-18.341667
20
-9.350046
40
1.000000
100
AcDbArc
50
-178.363421
51
-89.999999
0
LINE
5
8c0
100
AcDbEntity
8
1
100
AcDbLine
6
CONTINUOUS
62
5
10
-18.341667
20
-10.350046
11
-0.485340
21
-10.350046
0
LINE
5
8c1
100
AcDbEntity
8
1
100
AcDbLine
6
CONTINUOUS
62
5
10
-12.313952
20
24.849954
11
-6.513952
21
24.849954
0
ARC
5
8c2
100
AcDbEntity
8
1
100
AcDbCircle
6
CONTINUOUS
62
5
10
10.812466
20
-0.750046
40
1.000000
100
AcDbArc
50
-89.999999
51
-1.507436
0
POLYLINE
5
8c3
100
AcDbEntity
8
1
6
CONTINUOUS
62
5
100
AcDb2dPolyline
66
1
10
0.0
20
0.0
30
0.0
70
0
0
VERTEX
5
8c4
100
AcDbEntity
8
1
100
AcDbVertex
100
AcDb2dVertex
62
5
10
11.812120
20
-0.776353
0
VERTEX
5
8c5
100
AcDbEntity
8
1
100
AcDbVertex
100
AcDb2dVertex
62
5
10
12.086497
20
9.649954
0
VERTEX
5
8c6
100
AcDbEntity
8
1
100
AcDbVertex
100
AcDb2dVertex
62
5
10
12.086497
20
13.449954
0
SEQEND
5
8c7
100
AcDbEntity
8
1
0
ARC
5
8c8
100
AcDbEntity
8
1
100
AcDbCircle
6
CONTINUOUS
62
5
10
11.886497
20
13.449954
40
0.200000
100
AcDbArc
50
-0.000000
51
89.999999
0
LINE
5
8c9
100
AcDbEntity
8
1
100
AcDbLine
6
CONTINUOUS
62
5
10
11.886497
20
13.649954
11
-30.713503
21
13.649954
0
ARC
5
8ca
100
AcDbEntity
8
1
100
AcDbCircle
6
CONTINUOUS
62
5
10
-30.713503
20
13.449954
40
0.200000
100
AcDbArc
50
89.999999
51
179.999998
0
POLYLINE
5
8cb
100
AcDbEntity
8
1
6
CONTINUOUS
62
5
100
AcDb2dPolyline
66
1
10
0.0
20
0.0
30
0.0
70
0
0
VERTEX
5
8cc
100
AcDbEntity
8
1
100
AcDbVertex
100
AcDb2dVertex
62
5
10
-30.913503
20
13.449954
0
VERTEX
5
8cd
100
AcDbEntity
8
1
100
AcDbVertex
100
AcDb2dVertex
62
5
10
-30.913503
20
9.649954
0
VERTEX
5
8ce
100
AcDbEntity
8
1
100
AcDbVertex
100
AcDb2dVertex
62
5
10
-30.639127
20
-0.776353
0
SEQEND
5
8cf
100
AcDbEntity
8
1
0
ARC
5
8d0
100
AcDbEntity
8
1
100
AcDbCircle
6
CONTINUOUS
62
5
10
-29.639473
20
-0.750046
40
1.000000
100
AcDbArc
50
-178.492563
51
-89.999999
0
LINE
5
8d1
100
AcDbEntity
8
1
100
AcDbLine
6
CONTINUOUS
62
5
10
-29.639473
20
-1.750046
11
-19.559217
21
-1.750046
0
LINE
5
8d2
100
AcDbEntity
8
1
100
AcDbLine
6
CONTINUOUS
62
5
10
0.732211
20
-1.750046
11
10.812466
21
-1.750046
0
LINE
5
8d3
100
AcDbEntity
8
1
100
AcDbLine
6
CONTINUOUS
62
5
10
10.586497
20
9.649954
11
12.086497
21
9.649954
0
LINE
5
8d4
100
AcDbEntity
8
1
100
AcDbLine
6
CONTINUOUS
62
5
10
-30.913503
20
9.649954
11
-29.413503
21
9.649954
0
LINE
5
8d5
100
AcDbEntity
8
1
100
AcDbLine
6
CONTINUOUS
62
5
10
-26.913503
20
9.649954
11
-23.913503
21
9.649954
0
LINE
5
8d6
100
AcDbEntity
8
1
100
AcDbLine
6
CONTINUOUS
62
5
10
-21.413503
20
9.649954
11
2.586497
21
9.649954
0
LINE
5
8d7
100
AcDbEntity
8
1
100
AcDbLine
6
CONTINUOUS
62
5
10
5.086497
20
9.649954
11
8.086497
21
9.649954
0
ARC
5
8d8
100
AcDbEntity
8
1
100
AcDbCircle
6
CONTINUOUS
62
5
10
-22.913952
20
24.349954
40
0.500000
100
AcDbArc
50
89.999999
51
179.999998
0
POLYLINE
5
8d9
100
AcDbEntity
8
1
6
CONTINUOUS
62
5
100
AcDb2dPolyline
66
1
10
0.0
20
0.0
30
0.0
70
0
0
VERTEX
5
8da
100
AcDbEntity
8
1
100
AcDbVertex
100
AcDb2dVertex
62
5
10
-22.913952
20
24.849954
0
VERTEX
5
8db
100
AcDbEntity
8
1
100
AcDbVertex
100
AcDb2dVertex
62
5
10
-12.313952
20
24.849954
0
VERTEX
5
8dc
100
AcDbEntity
8
1
100
AcDbVertex
100
AcDb2dVertex
62
5
10
-11.092388
20
26.736852
0
SEQEND
5
8dd
100
AcDbEntity
8
1
0
ARC
5
8de
100
AcDbEntity
8
1
100
AcDbCircle
6
CONTINUOUS
62
5
10
-9.413503
20
25.649954
40
2.000000
100
AcDbArc
50
32.899525
51
147.081269
0
POLYLINE
5
8df
100
AcDbEntity
8
1
6
CONTINUOUS
62
5
100
AcDb2dPolyline
66
1
10
0.0
20
0.0
30
0.0
70
0
0
VERTEX
5
8e0
100
AcDbEntity
8
1
100
AcDbVertex
100
AcDb2dVertex
62
5
10
-7.734254
20
26.736289
0
VERTEX
5
8e1
100
AcDbEntity
8
1
100
AcDbVertex
100
AcDb2dVertex
62
5
10
-6.513952
20
24.849954
0
VERTEX
5
8e2
100
AcDbEntity
8
1
100
AcDbVertex
100
AcDb2dVertex
62
5
10
4.086048
20
24.849954
0
SEQEND
5
8e3
100
AcDbEntity
8
1
0
ARC
5
8e4
100
AcDbEntity
8
1
100
AcDbCircle
6
CONTINUOUS
62
5
10
4.086048
20
24.349954
40
0.500000
100
AcDbArc
50
0.000000
51
89.999999
0
POLYLINE
5
8e5
100
AcDbEntity
8
1
6
CONTINUOUS
62
5
100
AcDb2dPolyline
66
1
10
0.0
20
0.0
30
0.0
70
0
0
VERTEX
5
8e6
100
AcDbEntity
8
1
100
AcDbVertex
100
AcDb2dVertex
62
5
10
4.586048
20
24.349954
0
VERTEX
5
8e7
100
AcDbEntity
8
1
100
AcDbVertex
100
AcDb2dVertex
62
5
10
4.586048
20
22.149954
0
VERTEX
5
8e8
100
AcDbEntity
8
1
100
AcDbVertex
100
AcDb2dVertex
62
5
10
11.086048
20
22.149954
0
SEQEND
5
8e9
100
AcDbEntity
8
1
0
ARC
5
8ea
100
AcDbEntity
8
1
100
AcDbCircle
6
CONTINUOUS
62
5
10
11.086048
20
21.649954
40
0.500000
100
AcDbArc
50
0.000000
51
89.999999
0
POLYLINE
5
8eb
100
AcDbEntity
8
1
6
CONTINUOUS
62
5
100
AcDb2dPolyline
66
1
10
0.0
20
0.0
30
0.0
70
0
0
VERTEX
5
8ec
100
AcDbEntity
8
1
100
AcDbVertex
100
AcDb2dVertex
62
5
10
11.586048
20
21.649954
0
VERTEX
5
8ed
100
AcDbEntity
8
1
100
AcDbVertex
100
AcDb2dVertex
62
5
10
11.586048
20
13.649954
0
VERTEX
5
8ee
100
AcDbEntity
8
1
100
AcDbVertex
100
AcDb2dVertex
62
5
10
-30.413952
20
13.649954
0
SEQEND
5
8ef
100
AcDbEntity
8
1
0
LINE
5
8f0
100
AcDbEntity
8
1
100
AcDbLine
6
CONTINUOUS
62
5
10
-30.413952
20
13.649954
11
-30.413952
21
21.649954
0
ARC
5
8f1
100
AcDbEntity
8
1
100
AcDbCircle
6
CONTINUOUS
62
5
10
-29.913952
20
21.649954
40
0.500000
100
AcDbArc
50
89.999999
51
179.999998
0
POLYLINE
5
8f2
100
AcDbEntity
8
1
6
CONTINUOUS
62
5
100
AcDb2dPolyline
66
1
10
0.0
20
0.0
30
0.0
70
0
0
VERTEX
5
8f3
100
AcDbEntity
8
1
100
AcDbVertex
100
AcDb2dVertex
62
5
10
-29.913952
20
22.149954
0
VERTEX
5
8f4
100
AcDbEntity
8
1
100
AcDbVertex
100
AcDb2dVertex
62
5
10
-23.413952
20
22.149954
0
VERTEX
5
8f5
100
AcDbEntity
8
1
100
AcDbVertex
100
AcDb2dVertex
62
5
10
-23.413952
20
24.349954
0
SEQEND
5
8f6
100
AcDbEntity
8
1
0
POLYLINE
5
8f7
100
AcDbEntity
8
1
6
CONTINUOUS
62
5
100
AcDb2dPolyline
66
1
10
0.0
20
0.0
30
0.0
70
1
0
VERTEX
5
8f8
100
AcDbEntity
8
1
100
AcDbVertex
100
AcDb2dVertex
62
5
10
110.586497
20
-82.500046
0
VERTEX
5
8f9
100
AcDbEntity
8
1
100
AcDbVertex
100
AcDb2dVertex
62
5
10
110.586497
20
-58.500046
0
VERTEX
5
8fa
100
AcDbEntity
8
1
100
AcDbVertex
100
AcDb2dVertex
62
5
10
-129.413503
20
-58.500046
0
VERTEX
5
8fb
100
AcDbEntity
8
1
100
AcDbVertex
100
AcDb2dVertex
62
5
10
-129.413503
20
-82.500046
0
VERTEX
5
8fc
100
AcDbEntity
8
1
100
AcDbVertex
100
AcDb2dVertex
62
5
10
110.586497
20
-82.500046
0
SEQEND
5
8fd
100
AcDbEntity
8
1
0
POLYLINE
5
8fe
100
AcDbEntity
8
1
6
CONTINUOUS
62
5
100
AcDb2dPolyline
66
1
10
0.0
20
0.0
30
0.0
70
1
0
VERTEX
5
8ff
100
AcDbEntity
8
1
100
AcDbVertex
100
AcDb2dVertex
62
5
10
-169.413503
20
-102.500046
0
VERTEX
5
900
100
AcDbEntity
8
1
100
AcDbVertex
100
AcDb2dVertex
62
5
10
-169.413503
20
237.499954
0
VERTEX
5
901
100
AcDbEntity
8
1
100
AcDbVertex
100
AcDb2dVertex
62
5
10
150.586497
20
237.499954
0
VERTEX
5
902
100
AcDbEntity
8
1
100
AcDbVertex
100
AcDb2dVertex
62
5
10
150.586497
20
-102.500046
0
VERTEX
5
903
100
AcDbEntity
8
1
100
AcDbVertex
100
AcDb2dVertex
62
5
10
-169.413503
20
-102.500046
0
SEQEND
5
904
100
AcDbEntity
8
1
0
ENDSEC
0
SECTION
2
OBJECTS
0
DICTIONARY
5
905
100
AcDbDictionary
3
ACAD_GROUP
350
906
3
ACAD_MLINESTYLE
350
907
0
DICTIONARY
5
906
102
{ACAD_REACTORS
330
905
102
}
100
AcDbDictionary
0
DICTIONARY
5
907
102
{ACAD_REACTORS
330
905
102
}
100
AcDbDictionary
3
STANDARD
350
908
0
MLINESTYLE
5
908
102
{ACAD_REACTORS
330
907
102
}
100
AcDbMlineStyle
2
STANDARD
70
0
3

62
0
51
90.0
52
90.0
71
2
49
0.5
62
256
6
BYLAYER
49
-0.5
62
256
6
BYLAYER
0
ENDSEC
0
EOF
