0
SECTION
2
HEADER
9
$ACADVER
1
AC1012
9
$EXTMIN
10
-4.790000
20
-5.500000
30
0.0
9
$EXTMAX
10
7.820000
20
7.890000
30
0.0
9
$LIMMIN
10
-121.666000
20
-139.700000
9
$LIMMAX
10
198.628000
20
200.406000
9
$DIMSCALE
40
1.000000
9
$PDMODE
70
2
9
$PDSIZE
40
0.0
  9
$HANDSEED
  5
cac
0
ENDSEC
0
SECTION
2
CLASSES
0
ENDSEC
0
SECTION
2
TABLES
0
TABLE
2
LTYPE
5
1e
100
AcDbSymbolTable
70
12
0
LTYPE
5
1f
100
AcDbSymbolTableRecord
100
AcDbLinetypeTableRecord
2
BYBLOCK
70
0
3

72
65
73
0
40
0.0
0
LTYPE
5
20
100
AcDbSymbolTableRecord
100
AcDbLinetypeTableRecord
2
BYLAYER
70
0
3

72
65
73
0
40
0.0
0
LTYPE
5
21
100
AcDbSymbolTableRecord
100
AcDbLinetypeTableRecord
2
CONTINUOUS
70
64
3
Solid line
72
65
73
0
40
0.0
0
LTYPE
5
22
100
AcDbSymbolTableRecord
100
AcDbLinetypeTableRecord
2
DASHED
70
64
3
__ __ __ __ __ __ __ __ __ __ __ __ __ __ __
72
65
73
2
40
0.75
49
0.5
74
0
49
-0.25
74
0
0
LTYPE
5
23
100
AcDbSymbolTableRecord
100
AcDbLinetypeTableRecord
2
DOT
70
64
3
...............................................
72
65
73
2
40
0.25
49
0.0
74
0
49
-0.25
74
0
0
LTYPE
5
24
100
AcDbSymbolTableRecord
100
AcDbLinetypeTableRecord
2
DASHDOT
70
64
3
__ . __ . __ . __ . __ . __ . __ . __ . __ . --
72
65
73
4
40
1.0
49
0.5
74
0
49
-0.25
74
0
49
0.0
74
0
49
-0.25
74
0
0
LTYPE
5
25
100
AcDbSymbolTableRecord
100
AcDbLinetypeTableRecord
2
CENTER
70
64
3
____ _ ____ _ ____ _ ____ _ ____ _ ____ _ ____
72
65
73
4
40
2.0
49
1.25
74
0
49
-0.25
74
0
49
0.25
74
0
49
-0.25
74
0
0
LTYPE
5
26
100
AcDbSymbolTableRecord
100
AcDbLinetypeTableRecord
2
PHANTOM
70
64
3
_____ _ _ _____ _ _ _____ _ _ _____ _ _ ____
72
65
73
6
40
2.5
49
1.25
74
0
49
-0.25
74
0
49
0.25
74
0
49
-0.25
74
0
49
0.25
74
0
49
-0.25
74
0
0
LTYPE
5
27
100
AcDbSymbolTableRecord
100
AcDbLinetypeTableRecord
2
HIDDEN
70
64
3
_ _ _ _ _ _ _ _ _ _ _ _ _ _ _ _ _ _ _ _ _ _ _
72
65
73
2
40
0.375
49
0.25
74
0
49
-0.125
74
0
0
LTYPE
5
28
100
AcDbSymbolTableRecord
100
AcDbLinetypeTableRecord
2
BORDER
70
64
3
__ __ . __ __ . __ __ . __ __ . __ __ . __ __
72
65
73
6
40
1.75
49
0.5
74
0
49
-0.25
74
0
49
0.5
74
0
49
-0.25
74
0
49
0.0
74
0
49
-0.25
74
0
0
LTYPE
5
29
100
AcDbSymbolTableRecord
100
AcDbLinetypeTableRecord
2
DIVIDE
70
64
3
__ . . __ . . __ . . __ . . __ . . __ . . __
72
65
73
6
40
1.25
49
0.5
74
0
49
-0.25
74
0
49
0.0
74
0
49
-0.25
74
0
49
0.0
74
0
49
-0.25
74
0
0
LTYPE
5
2a
100
AcDbSymbolTableRecord
100
AcDbLinetypeTableRecord
2
DOT2
70
64
3
...............................................
72
65
73
2
40
0.125
49
0.0
74
0
49
-0.125
74
0
0
ENDTAB
0
TABLE
2
STYLE
5
2b
100
AcDbSymbolTable
70
1
0
STYLE
5
2c
100
AcDbSymbolTableRecord
100
AcDbTextStyleTableRecord
2
STANDARD
70
64
40
0.0
41
1.0
50
0.0
71
0
42
5.0
3
txt
4
bigfont
0
ENDTAB
0
TABLE
2
LAYER
5
2d
100
AcDbSymbolTable
70
2
0
LAYER
5
2e
100
AcDbSymbolTableRecord
100
AcDbLayerTableRecord
2
0
70
0
62
7
6
CONTINUOUS
0
LAYER
5
2f
100
AcDbSymbolTableRecord
100
AcDbLayerTableRecord
2
1
70
0
62
7
6
CONTINUOUS
0
ENDTAB
0
TABLE
2
APPID
5
30
100
AcDbSymbolTable
70
1
0
APPID
5
31
100
AcDbSymbolTableRecord
100
AcDbRegAppTableRecord
2
ACAD
70
64
0
ENDTAB
0
TABLE
2
DIMSTYLE
5
32
100
AcDbSymbolTable
70
0
0
ENDTAB
0
TABLE
2
UCS
5
33
100
AcDbSymbolTable
70
0
0
ENDTAB
0
TABLE
2
VIEW
5
34
100
AcDbSymbolTable
70
0
0
ENDTAB
0
TABLE
2
VPORT
5
35
100
AcDbSymbolTable
70
0
0
ENDTAB
0
TABLE
2
BLOCK_RECORD
5
36
100
AcDbSymbolTable
70
0
0
BLOCK_RECORD
5
37
100
AcDbSymbolTableRecord
100
AcDbBlockTableRecord
2
*MODEL_SPACE
0
BLOCK_RECORD
5
38
100
AcDbSymbolTableRecord
100
AcDbBlockTableRecord
2
*PAPER_SPACE
0
BLOCK_RECORD
5
39
100
AcDbSymbolTableRecord
100
AcDbBlockTableRecord
2
OPEN
0
BLOCK_RECORD
5
3a
100
AcDbSymbolTableRecord
100
AcDbBlockTableRecord
2
HALF
0
BLOCK_RECORD
5
3b
100
AcDbSymbolTableRecord
100
AcDbBlockTableRecord
2
CLOSEDBLANK
0
BLOCK_RECORD
5
3c
100
AcDbSymbolTableRecord
100
AcDbBlockTableRecord
2
HALFCLOSE_R
0
BLOCK_RECORD
5
3d
100
AcDbSymbolTableRecord
100
AcDbBlockTableRecord
2
DOT
0
BLOCK_RECORD
5
3e
100
AcDbSymbolTableRecord
100
AcDbBlockTableRecord
2
HALFOPEN_R
0
BLOCK_RECORD
5
3f
100
AcDbSymbolTableRecord
100
AcDbBlockTableRecord
2
CLOSEDF
0
BLOCK_RECORD
5
40
100
AcDbSymbolTableRecord
100
AcDbBlockTableRecord
2
HALF_R
0
ENDTAB
0
ENDSEC
0
SECTION
2
BLOCKS
0
BLOCK
5
41
100
AcDbEntity
8
0
100
AcDbBlockBegin
2
*MODEL_SPACE
70
0
10
0.0
20
0.0
30
0.0
3
*MODEL_SPACE
1

0
ENDBLK
5
42
100
AcDbEntity
8
0
100
AcDbBlockEnd
0
BLOCK
5
43
100
AcDbEntity
67
1
8
0
100
AcDbBlockBegin
2
*PAPER_SPACE
70
0
10
0.0
20
0.0
30
0.0
3
*PAPER_SPACE
1

0
ENDBLK
5
44
100
AcDbEntity
67
1
8
0
100
AcDbBlockEnd
0
BLOCK
5
45
100
AcDbEntity
8
0
100
AcDbBlockBegin
2
OPEN
70
0
10
0.0
20
0.0
30
0.0
3
OPEN
1

0
LINE
5
46
100
AcDbEntity
8
0
6
BYBLOCK
62
0
100
AcDbLine
10
0.000000
20
0.000000
11
-1.000000
21
0.000000
0
LINE
5
47
100
AcDbEntity
8
0
6
BYBLOCK
62
0
100
AcDbLine
10
-1.000000
20
-0.166667
11
0.000000
21
0.000000
0
LINE
5
48
100
AcDbEntity
8
0
6
BYBLOCK
62
0
100
AcDbLine
10
-1.000000
20
0.166667
11
0.000000
21
0.000000
0
ENDBLK
5
49
100
AcDbEntity
8
0
100
AcDbBlockEnd
0
BLOCK
5
4a
100
AcDbEntity
8
0
100
AcDbBlockBegin
2
HALF
70
0
10
0.0
20
0.0
30
0.0
3
HALF
1

0
SOLID
5
4b
100
AcDbEntity
8
0
6
BYBLOCK
62
0
100
AcDbTrace
10
-1.000000
20
0.166667
11
-1.000000
21
-0.166667
12
0.000000
22
0.000000
13
0.000000
23
0.000000
0
ENDBLK
5
4c
100
AcDbEntity
8
0
100
AcDbBlockEnd
0
BLOCK
5
4d
100
AcDbEntity
8
0
100
AcDbBlockBegin
2
CLOSEDBLANK
70
0
10
0.0
20
0.0
30
0.0
3
CLOSEDBLANK
1

0
LINE
5
4e
100
AcDbEntity
8
0
6
BYBLOCK
62
0
100
AcDbLine
10
-1.000000
20
0.166667
11
-1.000000
21
-0.166667
0
LINE
5
4f
100
AcDbEntity
8
0
6
BYBLOCK
62
0
100
AcDbLine
10
0.000000
20
0.000000
11
-1.000000
21
-0.166667
0
LINE
5
50
100
AcDbEntity
8
0
6
BYBLOCK
62
0
100
AcDbLine
10
-1.000000
20
0.166667
11
0.000000
21
0.000000
0
ENDBLK
5
51
100
AcDbEntity
8
0
100
AcDbBlockEnd
0
BLOCK
5
52
100
AcDbEntity
8
0
100
AcDbBlockBegin
2
HALFCLOSE_R
70
0
10
0.0
20
0.0
30
0.0
3
HALFCLOSE_R
1

0
LINE
5
53
100
AcDbEntity
8
0
6
BYBLOCK
62
0
100
AcDbLine
10
-1.000000
20
-0.166667
11
-1.000000
21
0.000000
0
LINE
5
54
100
AcDbEntity
8
0
6
BYBLOCK
62
0
100
AcDbLine
10
-1.000000
20
-0.166667
11
0.000000
21
0.000000
0
LINE
5
55
100
AcDbEntity
8
0
6
BYBLOCK
62
0
100
AcDbLine
10
0.000000
20
0.000000
11
-1.000000
21
0.000000
0
ENDBLK
5
56
100
AcDbEntity
8
0
100
AcDbBlockEnd
0
BLOCK
5
57
100
AcDbEntity
8
0
100
AcDbBlockBegin
2
DOT
70
0
10
0.0
20
0.0
30
0.0
3
DOT
1

0
LINE
5
58
100
AcDbEntity
8
0
6
BYBLOCK
62
0
100
AcDbLine
10
0.000000
20
0.000000
11
-1.000000
21
0.000000
0
POLYLINE
5
59
100
AcDbEntity
8
0
6
BYBLOCK
62
0
100
AcDb2dPolyline
66
1
10
0.0
20
0.0
30
0.0
70
1
40
0.166667
41
0.166667
0
VERTEX
5
5a
100
AcDbEntity
8
0
100
AcDbVertex
100
AcDb2dVertex
62
10
10
-0.083333
20
0.000000
42
1.000000
0
VERTEX
5
5b
100
AcDbEntity
8
0
100
AcDbVertex
100
AcDb2dVertex
62
10
10
0.083333
20
0.000000
42
1.000000
0
SEQEND
5
5c
100
AcDbEntity
8
0
0
ENDBLK
5
5d
100
AcDbEntity
8
0
100
AcDbBlockEnd
0
BLOCK
5
5e
100
AcDbEntity
8
0
100
AcDbBlockBegin
2
HALFOPEN_R
70
0
10
0.0
20
0.0
30
0.0
3
HALFOPEN_R
1

0
LINE
5
5f
100
AcDbEntity
8
0
6
BYBLOCK
62
0
100
AcDbLine
10
-1.000000
20
-0.166667
11
0.000000
21
0.000000
0
LINE
5
60
100
AcDbEntity
8
0
6
BYBLOCK
62
0
100
AcDbLine
10
0.000000
20
0.000000
11
-1.000000
21
0.000000
0
ENDBLK
5
61
100
AcDbEntity
8
0
100
AcDbBlockEnd
0
BLOCK
5
62
100
AcDbEntity
8
0
100
AcDbBlockBegin
2
CLOSEDF
70
0
10
0.0
20
0.0
30
0.0
3
CLOSEDF
1

0
SOLID
5
63
100
AcDbEntity
8
0
6
BYBLOCK
62
0
100
AcDbTrace
10
-1.000000
20
0.166667
11
-1.000000
21
-0.166667
12
0.000000
22
0.000000
13
0.000000
23
0.000000
0
ENDBLK
5
64
100
AcDbEntity
8
0
100
AcDbBlockEnd
0
BLOCK
5
65
100
AcDbEntity
8
0
100
AcDbBlockBegin
2
HALF_R
70
0
10
0.0
20
0.0
30
0.0
3
HALF_R
1

0
SOLID
5
66
100
AcDbEntity
8
0
6
BYBLOCK
62
0
100
AcDbTrace
10
-1.000000
20
-0.166667
11
-1.000000
21
0.000000
12
0.000000
22
0.000000
13
0.000000
23
0.000000
0
ENDBLK
5
67
100
AcDbEntity
8
0
100
AcDbBlockEnd
0
ENDSEC
0
SECTION
2
ENTITIES
0
POLYLINE
5
68
100
AcDbEntity
8
1
6
CONTINUOUS
62
5
100
AcDb2dPolyline
66
1
10
0.0
20
0.0
30
0.0
70
0
0
VERTEX
5
69
100
AcDbEntity
8
1
100
AcDbVertex
100
AcDb2dVertex
62
5
10
161.276468
20
184.323869
0
VERTEX
5
6a
100
AcDbEntity
8
1
100
AcDbVertex
100
AcDb2dVertex
62
5
10
162.276468
20
185.573869
0
VERTEX
5
6b
100
AcDbEntity
8
1
100
AcDbVertex
100
AcDb2dVertex
62
5
10
162.776468
20
186.511369
0
VERTEX
5
6c
100
AcDbEntity
8
1
100
AcDbVertex
100
AcDb2dVertex
62
5
10
165.276468
20
186.511369
0
VERTEX
5
6d
100
AcDbEntity
8
1
100
AcDbVertex
100
AcDb2dVertex
62
5
10
165.276468
20
186.198869
0
VERTEX
5
6e
100
AcDbEntity
8
1
100
AcDbVertex
100
AcDb2dVertex
62
5
10
164.526468
20
184.323869
0
VERTEX
5
6f
100
AcDbEntity
8
1
100
AcDbVertex
100
AcDb2dVertex
62
5
10
163.276468
20
182.448869
0
VERTEX
5
70
100
AcDbEntity
8
1
100
AcDbVertex
100
AcDb2dVertex
62
5
10
161.776468
20
180.886369
0
SEQEND
5
71
100
AcDbEntity
8
1
0
POLYLINE
5
72
100
AcDbEntity
8
1
6
CONTINUOUS
62
5
100
AcDb2dPolyline
66
1
10
0.0
20
0.0
30
0.0
70
0
0
VERTEX
5
73
100
AcDbEntity
8
1
100
AcDbVertex
100
AcDb2dVertex
62
5
10
169.026468
20
188.073869
0
VERTEX
5
74
100
AcDbEntity
8
1
100
AcDbVertex
100
AcDb2dVertex
62
5
10
169.026468
20
182.448869
0
VERTEX
5
75
100
AcDbEntity
8
1
100
AcDbVertex
100
AcDb2dVertex
62
5
10
168.526468
20
181.198869
0
VERTEX
5
76
100
AcDbEntity
8
1
100
AcDbVertex
100
AcDb2dVertex
62
5
10
168.026468
20
180.261369
0
SEQEND
5
77
100
AcDbEntity
8
1
0
POLYLINE
5
78
100
AcDbEntity
8
1
6
CONTINUOUS
62
5
100
AcDb2dPolyline
66
1
10
0.0
20
0.0
30
0.0
70
0
0
VERTEX
5
79
100
AcDbEntity
8
1
100
AcDbVertex
100
AcDb2dVertex
62
5
10
173.026468
20
180.573869
0
VERTEX
5
7a
100
AcDbEntity
8
1
100
AcDbVertex
100
AcDb2dVertex
62
5
10
174.026468
20
179.948869
0
VERTEX
5
7b
100
AcDbEntity
8
1
100
AcDbVertex
100
AcDb2dVertex
62
5
10
174.026468
20
188.073869
0
VERTEX
5
7c
100
AcDbEntity
8
1
100
AcDbVertex
100
AcDb2dVertex
62
5
10
169.026468
20
188.073869
0
SEQEND
5
7d
100
AcDbEntity
8
1
0
LINE
5
7e
100
AcDbEntity
8
1
100
AcDbLine
6
CONTINUOUS
62
5
10
169.026468
20
185.573869
11
174.026468
21
185.573869
0
LINE
5
7f
100
AcDbEntity
8
1
100
AcDbLine
6
CONTINUOUS
62
5
10
171.526468
20
188.073869
11
171.526468
21
179.948869
0
LINE
5
80
100
AcDbEntity
8
1
100
AcDbLine
6
CONTINUOUS
62
5
10
169.026468
20
183.073869
11
174.026468
21
183.073869
0
LINE
5
81
100
AcDbEntity
8
1
100
AcDbLine
6
CONTINUOUS
62
5
10
145.776468
20
184.323869
11
148.776468
21
184.323869
0
LINE
5
82
100
AcDbEntity
8
1
100
AcDbLine
6
CONTINUOUS
62
5
10
145.276468
20
181.511369
11
149.276468
21
181.511369
0
LINE
5
83
100
AcDbEntity
8
1
100
AcDbLine
6
CONTINUOUS
62
5
10
147.276468
20
184.323869
11
147.276468
21
181.511369
0
LINE
5
84
100
AcDbEntity
8
1
100
AcDbLine
6
CONTINUOUS
62
5
10
153.776468
20
184.636369
11
154.026468
21
183.386369
0
LINE
5
85
100
AcDbEntity
8
1
100
AcDbLine
6
CONTINUOUS
62
5
10
155.276468
20
184.948869
11
155.526468
21
183.698869
0
POLYLINE
5
86
100
AcDbEntity
8
1
6
CONTINUOUS
62
5
100
AcDb2dPolyline
66
1
10
0.0
20
0.0
30
0.0
70
0
0
VERTEX
5
87
100
AcDbEntity
8
1
100
AcDbVertex
100
AcDb2dVertex
62
5
10
157.276468
20
184.948869
0
VERTEX
5
88
100
AcDbEntity
8
1
100
AcDbVertex
100
AcDb2dVertex
62
5
10
157.026468
20
183.386369
0
VERTEX
5
89
100
AcDbEntity
8
1
100
AcDbVertex
100
AcDb2dVertex
62
5
10
155.776468
20
181.511369
0
VERTEX
5
8a
100
AcDbEntity
8
1
100
AcDbVertex
100
AcDb2dVertex
62
5
10
154.776468
20
180.573869
0
SEQEND
5
8b
100
AcDbEntity
8
1
0
LINE
5
8c
100
AcDbEntity
8
1
100
AcDbLine
6
CONTINUOUS
62
5
10
121.776468
20
184.636369
11
122.026468
21
183.386369
0
LINE
5
8d
100
AcDbEntity
8
1
100
AcDbLine
6
CONTINUOUS
62
5
10
123.276468
20
184.948869
11
123.526468
21
183.698869
0
POLYLINE
5
8e
100
AcDbEntity
8
1
6
CONTINUOUS
62
5
100
AcDb2dPolyline
66
1
10
0.0
20
0.0
30
0.0
70
0
0
VERTEX
5
8f
100
AcDbEntity
8
1
100
AcDbVertex
100
AcDb2dVertex
62
5
10
125.276468
20
184.948869
0
VERTEX
5
90
100
AcDbEntity
8
1
100
AcDbVertex
100
AcDb2dVertex
62
5
10
125.026468
20
183.386369
0
VERTEX
5
91
100
AcDbEntity
8
1
100
AcDbVertex
100
AcDb2dVertex
62
5
10
123.776468
20
181.511369
0
VERTEX
5
92
100
AcDbEntity
8
1
100
AcDbVertex
100
AcDb2dVertex
62
5
10
122.776468
20
180.573869
0
SEQEND
5
93
100
AcDbEntity
8
1
0
POLYLINE
5
94
100
AcDbEntity
8
1
6
CONTINUOUS
62
5
100
AcDb2dPolyline
66
1
10
0.0
20
0.0
30
0.0
70
0
0
VERTEX
5
95
100
AcDbEntity
8
1
100
AcDbVertex
100
AcDb2dVertex
62
5
10
130.776468
20
185.261369
0
VERTEX
5
96
100
AcDbEntity
8
1
100
AcDbVertex
100
AcDb2dVertex
62
5
10
131.026468
20
185.261369
0
VERTEX
5
97
100
AcDbEntity
8
1
100
AcDbVertex
100
AcDb2dVertex
62
5
10
132.776468
20
184.011369
0
SEQEND
5
98
100
AcDbEntity
8
1
0
LINE
5
99
100
AcDbEntity
8
1
100
AcDbLine
6
CONTINUOUS
62
5
10
130.776468
20
188.073869
11
130.776468
21
180.573869
0
LINE
5
9a
100
AcDbEntity
8
1
100
AcDbLine
6
CONTINUOUS
62
5
10
137.526468
20
186.511369
11
141.276468
21
187.136369
0
LINE
5
9b
100
AcDbEntity
8
1
100
AcDbLine
6
CONTINUOUS
62
5
10
136.276468
20
184.636369
11
142.276468
21
184.636369
0
POLYLINE
5
9c
100
AcDbEntity
8
1
6
CONTINUOUS
62
5
100
AcDb2dPolyline
66
1
10
0.0
20
0.0
30
0.0
70
0
0
VERTEX
5
9d
100
AcDbEntity
8
1
100
AcDbVertex
100
AcDb2dVertex
62
5
10
139.526468
20
186.823869
0
VERTEX
5
9e
100
AcDbEntity
8
1
100
AcDbVertex
100
AcDb2dVertex
62
5
10
139.526468
20
184.636369
0
VERTEX
5
9f
100
AcDbEntity
8
1
100
AcDbVertex
100
AcDb2dVertex
62
5
10
139.276468
20
183.073869
0
VERTEX
5
a0
100
AcDbEntity
8
1
100
AcDbVertex
100
AcDb2dVertex
62
5
10
138.526468
20
181.823869
0
VERTEX
5
a1
100
AcDbEntity
8
1
100
AcDbVertex
100
AcDb2dVertex
62
5
10
137.776468
20
180.886369
0
SEQEND
5
a2
100
AcDbEntity
8
1
0
POLYLINE
5
a3
100
AcDbEntity
8
1
6
CONTINUOUS
62
5
100
AcDb2dPolyline
66
1
10
0.0
20
0.0
30
0.0
70
0
0
VERTEX
5
a4
100
AcDbEntity
8
1
100
AcDbVertex
100
AcDb2dVertex
62
5
10
105.276468
20
188.386369
0
VERTEX
5
a5
100
AcDbEntity
8
1
100
AcDbVertex
100
AcDb2dVertex
62
5
10
104.776468
20
186.198869
0
VERTEX
5
a6
100
AcDbEntity
8
1
100
AcDbVertex
100
AcDb2dVertex
62
5
10
103.776468
20
183.698869
0
SEQEND
5
a7
100
AcDbEntity
8
1
0
LINE
5
a8
100
AcDbEntity
8
1
100
AcDbLine
6
CONTINUOUS
62
5
10
104.776468
20
186.198869
11
104.776468
21
179.948869
0
POLYLINE
5
a9
100
AcDbEntity
8
1
6
CONTINUOUS
62
5
100
AcDb2dPolyline
66
1
10
0.0
20
0.0
30
0.0
70
0
0
VERTEX
5
aa
100
AcDbEntity
8
1
100
AcDbVertex
100
AcDb2dVertex
62
5
10
110.026468
20
188.386369
0
VERTEX
5
ab
100
AcDbEntity
8
1
100
AcDbVertex
100
AcDb2dVertex
62
5
10
106.276468
20
187.761369
0
VERTEX
5
ac
100
AcDbEntity
8
1
100
AcDbVertex
100
AcDb2dVertex
62
5
10
106.276468
20
182.136369
0
SEQEND
5
ad
100
AcDbEntity
8
1
0
LINE
5
ae
100
AcDbEntity
8
1
100
AcDbLine
6
CONTINUOUS
62
5
10
105.526468
20
181.823869
11
108.276468
21
182.761369
0
LINE
5
af
100
AcDbEntity
8
1
100
AcDbLine
6
CONTINUOUS
62
5
10
106.276468
20
185.573869
11
110.526468
21
185.573869
0
POLYLINE
5
b0
100
AcDbEntity
8
1
6
CONTINUOUS
62
5
100
AcDb2dPolyline
66
1
10
0.0
20
0.0
30
0.0
70
0
0
VERTEX
5
b1
100
AcDbEntity
8
1
100
AcDbVertex
100
AcDb2dVertex
62
5
10
108.276468
20
188.073869
0
VERTEX
5
b2
100
AcDbEntity
8
1
100
AcDbVertex
100
AcDb2dVertex
62
5
10
108.276468
20
185.886369
0
VERTEX
5
b3
100
AcDbEntity
8
1
100
AcDbVertex
100
AcDb2dVertex
62
5
10
108.526468
20
184.011369
0
VERTEX
5
b4
100
AcDbEntity
8
1
100
AcDbVertex
100
AcDb2dVertex
62
5
10
108.776468
20
183.073869
0
VERTEX
5
b5
100
AcDbEntity
8
1
100
AcDbVertex
100
AcDb2dVertex
62
5
10
109.276468
20
181.823869
0
VERTEX
5
b6
100
AcDbEntity
8
1
100
AcDbVertex
100
AcDb2dVertex
62
5
10
109.776468
20
181.198869
0
VERTEX
5
b7
100
AcDbEntity
8
1
100
AcDbVertex
100
AcDb2dVertex
62
5
10
110.526468
20
180.886369
0
VERTEX
5
b8
100
AcDbEntity
8
1
100
AcDbVertex
100
AcDb2dVertex
62
5
10
110.776468
20
182.761369
0
SEQEND
5
b9
100
AcDbEntity
8
1
0
LINE
5
ba
100
AcDbEntity
8
1
100
AcDbLine
6
CONTINUOUS
62
5
10
106.026468
20
180.886369
11
108.776468
21
180.886369
0
POLYLINE
5
bb
100
AcDbEntity
8
1
6
CONTINUOUS
62
5
100
AcDb2dPolyline
66
1
10
0.0
20
0.0
30
0.0
70
0
0
VERTEX
5
bc
100
AcDbEntity
8
1
100
AcDbVertex
100
AcDb2dVertex
62
5
10
113.276468
20
184.636369
0
VERTEX
5
bd
100
AcDbEntity
8
1
100
AcDbVertex
100
AcDb2dVertex
62
5
10
113.276468
20
186.823869
0
VERTEX
5
be
100
AcDbEntity
8
1
100
AcDbVertex
100
AcDb2dVertex
62
5
10
117.276468
20
186.823869
0
VERTEX
5
bf
100
AcDbEntity
8
1
100
AcDbVertex
100
AcDb2dVertex
62
5
10
117.276468
20
185.886369
0
VERTEX
5
c0
100
AcDbEntity
8
1
100
AcDbVertex
100
AcDb2dVertex
62
5
10
117.026468
20
184.323869
0
VERTEX
5
c1
100
AcDbEntity
8
1
100
AcDbVertex
100
AcDb2dVertex
62
5
10
116.526468
20
183.073869
0
VERTEX
5
c2
100
AcDbEntity
8
1
100
AcDbVertex
100
AcDb2dVertex
62
5
10
116.026468
20
182.136369
0
VERTEX
5
c3
100
AcDbEntity
8
1
100
AcDbVertex
100
AcDb2dVertex
62
5
10
115.026468
20
180.886369
0
SEQEND
5
c4
100
AcDbEntity
8
1
0
POLYLINE
5
c5
100
AcDbEntity
8
1
6
CONTINUOUS
62
5
100
AcDb2dPolyline
66
1
10
0.0
20
0.0
30
0.0
70
0
0
VERTEX
5
c6
100
AcDbEntity
8
1
100
AcDbVertex
100
AcDb2dVertex
62
5
10
95.776468
20
185.573869
0
VERTEX
5
c7
100
AcDbEntity
8
1
100
AcDbVertex
100
AcDb2dVertex
62
5
10
97.276468
20
185.886369
0
VERTEX
5
c8
100
AcDbEntity
8
1
100
AcDbVertex
100
AcDb2dVertex
62
5
10
98.526468
20
186.511369
0
SEQEND
5
c9
100
AcDbEntity
8
1
0
POLYLINE
5
ca
100
AcDbEntity
8
1
6
CONTINUOUS
62
5
100
AcDb2dPolyline
66
1
10
0.0
20
0.0
30
0.0
70
0
0
VERTEX
5
cb
100
AcDbEntity
8
1
100
AcDbVertex
100
AcDb2dVertex
62
5
10
96.776468
20
188.386369
0
VERTEX
5
cc
100
AcDbEntity
8
1
100
AcDbVertex
100
AcDb2dVertex
62
5
10
96.776468
20
182.761369
0
VERTEX
5
cd
100
AcDbEntity
8
1
100
AcDbVertex
100
AcDb2dVertex
62
5
10
97.276468
20
182.136369
0
VERTEX
5
ce
100
AcDbEntity
8
1
100
AcDbVertex
100
AcDb2dVertex
62
5
10
98.526468
20
182.136369
0
VERTEX
5
cf
100
AcDbEntity
8
1
100
AcDbVertex
100
AcDb2dVertex
62
5
10
98.776468
20
183.386369
0
SEQEND
5
d0
100
AcDbEntity
8
1
0
POLYLINE
5
d1
100
AcDbEntity
8
1
6
CONTINUOUS
62
5
100
AcDb2dPolyline
66
1
10
0.0
20
0.0
30
0.0
70
0
0
VERTEX
5
d2
100
AcDbEntity
8
1
100
AcDbVertex
100
AcDb2dVertex
62
5
10
100.026468
20
187.448869
0
VERTEX
5
d3
100
AcDbEntity
8
1
100
AcDbVertex
100
AcDb2dVertex
62
5
10
100.026468
20
183.698869
0
VERTEX
5
d4
100
AcDbEntity
8
1
100
AcDbVertex
100
AcDb2dVertex
62
5
10
99.526468
20
182.136369
0
VERTEX
5
d5
100
AcDbEntity
8
1
100
AcDbVertex
100
AcDb2dVertex
62
5
10
98.776468
20
180.886369
0
VERTEX
5
d6
100
AcDbEntity
8
1
100
AcDbVertex
100
AcDb2dVertex
62
5
10
97.526468
20
179.948869
0
SEQEND
5
d7
100
AcDbEntity
8
1
0
POLYLINE
5
d8
100
AcDbEntity
8
1
6
CONTINUOUS
62
5
100
AcDb2dPolyline
66
1
10
0.0
20
0.0
30
0.0
70
0
0
VERTEX
5
d9
100
AcDbEntity
8
1
100
AcDbVertex
100
AcDb2dVertex
62
5
10
98.526468
20
187.448869
0
VERTEX
5
da
100
AcDbEntity
8
1
100
AcDbVertex
100
AcDb2dVertex
62
5
10
102.276468
20
187.448869
0
VERTEX
5
db
100
AcDbEntity
8
1
100
AcDbVertex
100
AcDb2dVertex
62
5
10
102.276468
20
182.136369
0
VERTEX
5
dc
100
AcDbEntity
8
1
100
AcDbVertex
100
AcDb2dVertex
62
5
10
102.026468
20
181.198869
0
VERTEX
5
dd
100
AcDbEntity
8
1
100
AcDbVertex
100
AcDb2dVertex
62
5
10
101.526468
20
180.886369
0
VERTEX
5
de
100
AcDbEntity
8
1
100
AcDbVertex
100
AcDb2dVertex
62
5
10
100.526468
20
180.886369
0
SEQEND
5
df
100
AcDbEntity
8
1
0
POLYLINE
5
e0
100
AcDbEntity
8
1
6
CONTINUOUS
62
5
100
AcDb2dPolyline
66
1
10
0.0
20
0.0
30
0.0
70
0
0
VERTEX
5
e1
100
AcDbEntity
8
1
100
AcDbVertex
100
AcDb2dVertex
62
5
10
82.776468
20
178.698869
0
VERTEX
5
e2
100
AcDbEntity
8
1
100
AcDbVertex
100
AcDb2dVertex
62
5
10
82.026468
20
177.448869
0
VERTEX
5
e3
100
AcDbEntity
8
1
100
AcDbVertex
100
AcDb2dVertex
62
5
10
81.276468
20
176.511369
0
VERTEX
5
e4
100
AcDbEntity
8
1
100
AcDbVertex
100
AcDb2dVertex
62
5
10
80.276468
20
175.573869
0
SEQEND
5
e5
100
AcDbEntity
8
1
0
POLYLINE
5
e6
100
AcDbEntity
8
1
6
CONTINUOUS
62
5
100
AcDb2dPolyline
66
1
10
0.0
20
0.0
30
0.0
70
0
0
VERTEX
5
e7
100
AcDbEntity
8
1
100
AcDbVertex
100
AcDb2dVertex
62
5
10
82.526468
20
178.073869
0
VERTEX
5
e8
100
AcDbEntity
8
1
100
AcDbVertex
100
AcDb2dVertex
62
5
10
84.776468
20
178.073869
0
VERTEX
5
e9
100
AcDbEntity
8
1
100
AcDbVertex
100
AcDb2dVertex
62
5
10
83.526468
20
176.198869
0
SEQEND
5
ea
100
AcDbEntity
8
1
0
POLYLINE
5
eb
100
AcDbEntity
8
1
6
CONTINUOUS
62
5
100
AcDb2dPolyline
66
1
10
0.0
20
0.0
30
0.0
70
0
0
VERTEX
5
ec
100
AcDbEntity
8
1
100
AcDbVertex
100
AcDb2dVertex
62
5
10
81.276468
20
176.198869
0
VERTEX
5
ed
100
AcDbEntity
8
1
100
AcDbVertex
100
AcDb2dVertex
62
5
10
85.776468
20
176.198869
0
VERTEX
5
ee
100
AcDbEntity
8
1
100
AcDbVertex
100
AcDb2dVertex
62
5
10
85.776468
20
173.386369
0
VERTEX
5
ef
100
AcDbEntity
8
1
100
AcDbVertex
100
AcDb2dVertex
62
5
10
81.276468
20
173.386369
0
SEQEND
5
f0
100
AcDbEntity
8
1
0
LINE
5
f1
100
AcDbEntity
8
1
100
AcDbLine
6
CONTINUOUS
62
5
10
83.526468
20
176.198869
11
83.526468
21
173.386369
0
POLYLINE
5
f2
100
AcDbEntity
8
1
6
CONTINUOUS
62
5
100
AcDb2dPolyline
66
1
10
0.0
20
0.0
30
0.0
70
0
0
VERTEX
5
f3
100
AcDbEntity
8
1
100
AcDbVertex
100
AcDb2dVertex
62
5
10
81.276468
20
176.198869
0
VERTEX
5
f4
100
AcDbEntity
8
1
100
AcDbVertex
100
AcDb2dVertex
62
5
10
81.276468
20
170.886369
0
VERTEX
5
f5
100
AcDbEntity
8
1
100
AcDbVertex
100
AcDb2dVertex
62
5
10
81.776468
20
170.261369
0
VERTEX
5
f6
100
AcDbEntity
8
1
100
AcDbVertex
100
AcDb2dVertex
62
5
10
86.776468
20
170.261369
0
VERTEX
5
f7
100
AcDbEntity
8
1
100
AcDbVertex
100
AcDb2dVertex
62
5
10
86.776468
20
171.511369
0
SEQEND
5
f8
100
AcDbEntity
8
1
0
POLYLINE
5
f9
100
AcDbEntity
8
1
6
CONTINUOUS
62
5
100
AcDb2dPolyline
66
1
10
0.0
20
0.0
30
0.0
70
0
0
VERTEX
5
fa
100
AcDbEntity
8
1
100
AcDbVertex
100
AcDb2dVertex
62
5
10
89.276468
20
188.386369
0
VERTEX
5
fb
100
AcDbEntity
8
1
100
AcDbVertex
100
AcDb2dVertex
62
5
10
89.276468
20
183.073869
0
VERTEX
5
fc
100
AcDbEntity
8
1
100
AcDbVertex
100
AcDb2dVertex
62
5
10
88.776468
20
181.198869
0
VERTEX
5
fd
100
AcDbEntity
8
1
100
AcDbVertex
100
AcDb2dVertex
62
5
10
88.026468
20
179.948869
0
SEQEND
5
fe
100
AcDbEntity
8
1
0
LINE
5
ff
100
AcDbEntity
8
1
100
AcDbLine
6
CONTINUOUS
62
5
10
89.276468
20
186.198869
11
94.776468
21
186.198869
0
LINE
5
100
100
AcDbEntity
8
1
100
AcDbLine
6
CONTINUOUS
62
5
10
92.026468
20
188.698869
11
92.026468
21
186.198869
0
POLYLINE
5
101
100
AcDbEntity
8
1
6
CONTINUOUS
62
5
100
AcDb2dPolyline
66
1
10
0.0
20
0.0
30
0.0
70
0
0
VERTEX
5
102
100
AcDbEntity
8
1
100
AcDbVertex
100
AcDb2dVertex
62
5
10
89.276468
20
183.698869
0
VERTEX
5
103
100
AcDbEntity
8
1
100
AcDbVertex
100
AcDb2dVertex
62
5
10
92.776468
20
183.698869
0
VERTEX
5
104
100
AcDbEntity
8
1
100
AcDbVertex
100
AcDb2dVertex
62
5
10
92.776468
20
179.636369
0
SEQEND
5
105
100
AcDbEntity
8
1
0
LINE
5
106
100
AcDbEntity
8
1
100
AcDbLine
6
CONTINUOUS
62
5
10
73.776468
20
186.198869
11
76.526468
21
186.823869
0
LINE
5
107
100
AcDbEntity
8
1
100
AcDbLine
6
CONTINUOUS
62
5
10
73.776468
20
184.323869
11
77.276468
21
185.261369
0
POLYLINE
5
108
100
AcDbEntity
8
1
6
CONTINUOUS
62
5
100
AcDb2dPolyline
66
1
10
0.0
20
0.0
30
0.0
70
0
0
VERTEX
5
109
100
AcDbEntity
8
1
100
AcDbVertex
100
AcDb2dVertex
62
5
10
74.776468
20
187.761369
0
VERTEX
5
10a
100
AcDbEntity
8
1
100
AcDbVertex
100
AcDb2dVertex
62
5
10
77.026468
20
182.761369
0
VERTEX
5
10b
100
AcDbEntity
8
1
100
AcDbVertex
100
AcDb2dVertex
62
5
10
76.526468
20
182.761369
0
VERTEX
5
10c
100
AcDbEntity
8
1
100
AcDbVertex
100
AcDb2dVertex
62
5
10
75.026468
20
183.386369
0
VERTEX
5
10d
100
AcDbEntity
8
1
100
AcDbVertex
100
AcDb2dVertex
62
5
10
74.276468
20
183.386369
0
VERTEX
5
10e
100
AcDbEntity
8
1
100
AcDbVertex
100
AcDb2dVertex
62
5
10
73.276468
20
182.448869
0
VERTEX
5
10f
100
AcDbEntity
8
1
100
AcDbVertex
100
AcDb2dVertex
62
5
10
73.276468
20
181.823869
0
VERTEX
5
110
100
AcDbEntity
8
1
100
AcDbVertex
100
AcDb2dVertex
62
5
10
73.776468
20
181.198869
0
VERTEX
5
111
100
AcDbEntity
8
1
100
AcDbVertex
100
AcDb2dVertex
62
5
10
74.276468
20
180.886369
0
VERTEX
5
112
100
AcDbEntity
8
1
100
AcDbVertex
100
AcDb2dVertex
62
5
10
75.776468
20
180.886369
0
SEQEND
5
113
100
AcDbEntity
8
1
0
LINE
5
114
100
AcDbEntity
8
1
100
AcDbLine
6
CONTINUOUS
62
5
10
41.526468
20
186.511369
11
45.276468
21
187.136369
0
LINE
5
115
100
AcDbEntity
8
1
100
AcDbLine
6
CONTINUOUS
62
5
10
40.276468
20
184.636369
11
46.276468
21
184.636369
0
POLYLINE
5
116
100
AcDbEntity
8
1
6
CONTINUOUS
62
5
100
AcDb2dPolyline
66
1
10
0.0
20
0.0
30
0.0
70
0
0
VERTEX
5
117
100
AcDbEntity
8
1
100
AcDbVertex
100
AcDb2dVertex
62
5
10
43.526468
20
186.823869
0
VERTEX
5
118
100
AcDbEntity
8
1
100
AcDbVertex
100
AcDb2dVertex
62
5
10
43.526468
20
184.636369
0
VERTEX
5
119
100
AcDbEntity
8
1
100
AcDbVertex
100
AcDb2dVertex
62
5
10
43.276468
20
183.073869
0
VERTEX
5
11a
100
AcDbEntity
8
1
100
AcDbVertex
100
AcDb2dVertex
62
5
10
42.526468
20
181.823869
0
VERTEX
5
11b
100
AcDbEntity
8
1
100
AcDbVertex
100
AcDb2dVertex
62
5
10
41.776468
20
180.886369
0
SEQEND
5
11c
100
AcDbEntity
8
1
0
LINE
5
11d
100
AcDbEntity
8
1
100
AcDbLine
6
CONTINUOUS
62
5
10
56.776468
20
188.073869
11
62.526468
21
188.073869
0
POLYLINE
5
11e
100
AcDbEntity
8
1
6
CONTINUOUS
62
5
100
AcDb2dPolyline
66
1
10
0.0
20
0.0
30
0.0
70
0
0
VERTEX
5
11f
100
AcDbEntity
8
1
100
AcDbVertex
100
AcDb2dVertex
62
5
10
57.276468
20
187.136369
0
VERTEX
5
120
100
AcDbEntity
8
1
100
AcDbVertex
100
AcDb2dVertex
62
5
10
62.026468
20
187.136369
0
VERTEX
5
121
100
AcDbEntity
8
1
100
AcDbVertex
100
AcDb2dVertex
62
5
10
62.026468
20
185.573869
0
VERTEX
5
122
100
AcDbEntity
8
1
100
AcDbVertex
100
AcDb2dVertex
62
5
10
57.276468
20
185.573869
0
SEQEND
5
123
100
AcDbEntity
8
1
0
POLYLINE
5
124
100
AcDbEntity
8
1
6
CONTINUOUS
62
5
100
AcDb2dPolyline
66
1
10
0.0
20
0.0
30
0.0
70
0
0
VERTEX
5
125
100
AcDbEntity
8
1
100
AcDbVertex
100
AcDb2dVertex
62
5
10
57.276468
20
187.136369
0
VERTEX
5
126
100
AcDbEntity
8
1
100
AcDbVertex
100
AcDb2dVertex
62
5
10
57.276468
20
184.011369
0
VERTEX
5
127
100
AcDbEntity
8
1
100
AcDbVertex
100
AcDb2dVertex
62
5
10
57.026468
20
182.448869
0
VERTEX
5
128
100
AcDbEntity
8
1
100
AcDbVertex
100
AcDb2dVertex
62
5
10
56.526468
20
181.511369
0
VERTEX
5
129
100
AcDbEntity
8
1
100
AcDbVertex
100
AcDb2dVertex
62
5
10
55.776468
20
180.886369
0
SEQEND
5
12a
100
AcDbEntity
8
1
0
POLYLINE
5
12b
100
AcDbEntity
8
1
6
CONTINUOUS
62
5
100
AcDb2dPolyline
66
1
10
0.0
20
0.0
30
0.0
70
0
0
VERTEX
5
12c
100
AcDbEntity
8
1
100
AcDbVertex
100
AcDb2dVertex
62
5
10
59.276468
20
185.261369
0
VERTEX
5
12d
100
AcDbEntity
8
1
100
AcDbVertex
100
AcDb2dVertex
62
5
10
59.276468
20
182.136369
0
VERTEX
5
12e
100
AcDbEntity
8
1
100
AcDbVertex
100
AcDb2dVertex
62
5
10
59.026468
20
181.198869
0
VERTEX
5
12f
100
AcDbEntity
8
1
100
AcDbVertex
100
AcDb2dVertex
62
5
10
58.526468
20
180.573869
0
VERTEX
5
130
100
AcDbEntity
8
1
100
AcDbVertex
100
AcDb2dVertex
62
5
10
57.776468
20
180.261369
0
SEQEND
5
131
100
AcDbEntity
8
1
0
LINE
5
132
100
AcDbEntity
8
1
100
AcDbLine
6
CONTINUOUS
62
5
10
57.526468
20
184.636369
11
59.276468
21
184.636369
0
LINE
5
133
100
AcDbEntity
8
1
100
AcDbLine
6
CONTINUOUS
62
5
10
57.776468
20
183.386369
11
59.276468
21
183.386369
0
LINE
5
134
100
AcDbEntity
8
1
100
AcDbLine
6
CONTINUOUS
62
5
10
57.276468
20
181.511369
11
59.776468
21
182.448869
0
LINE
5
135
100
AcDbEntity
8
1
100
AcDbLine
6
CONTINUOUS
62
5
10
60.526468
20
185.261369
11
60.526468
21
180.261369
0
LINE
5
136
100
AcDbEntity
8
1
100
AcDbLine
6
CONTINUOUS
62
5
10
60.526468
20
184.636369
11
62.276468
21
184.636369
0
LINE
5
137
100
AcDbEntity
8
1
100
AcDbLine
6
CONTINUOUS
62
5
10
60.526468
20
183.386369
11
62.026468
21
183.386369
0
POLYLINE
5
138
100
AcDbEntity
8
1
6
CONTINUOUS
62
5
100
AcDb2dPolyline
66
1
10
0.0
20
0.0
30
0.0
70
0
0
VERTEX
5
139
100
AcDbEntity
8
1
100
AcDbVertex
100
AcDb2dVertex
62
5
10
60.526468
20
182.136369
0
VERTEX
5
13a
100
AcDbEntity
8
1
100
AcDbVertex
100
AcDb2dVertex
62
5
10
60.526468
20
182.136369
0
VERTEX
5
13b
100
AcDbEntity
8
1
100
AcDbVertex
100
AcDb2dVertex
62
5
10
62.526468
20
182.136369
0
SEQEND
5
13c
100
AcDbEntity
8
1
0
POLYLINE
5
13d
100
AcDbEntity
8
1
6
CONTINUOUS
62
5
100
AcDb2dPolyline
66
1
10
0.0
20
0.0
30
0.0
70
0
0
VERTEX
5
13e
100
AcDbEntity
8
1
100
AcDbVertex
100
AcDb2dVertex
62
5
10
69.276468
20
177.761369
0
VERTEX
5
13f
100
AcDbEntity
8
1
100
AcDbVertex
100
AcDb2dVertex
62
5
10
67.276468
20
175.261369
0
VERTEX
5
140
100
AcDbEntity
8
1
100
AcDbVertex
100
AcDb2dVertex
62
5
10
65.026468
20
173.698869
0
SEQEND
5
141
100
AcDbEntity
8
1
0
LINE
5
142
100
AcDbEntity
8
1
100
AcDbLine
6
CONTINUOUS
62
5
10
67.776468
20
175.886369
11
67.776468
21
170.573869
0
POLYLINE
5
143
100
AcDbEntity
8
1
6
CONTINUOUS
62
5
100
AcDb2dPolyline
66
1
10
0.0
20
0.0
30
0.0
70
0
0
VERTEX
5
144
100
AcDbEntity
8
1
100
AcDbVertex
100
AcDb2dVertex
62
5
10
74.776468
20
175.261369
0
VERTEX
5
145
100
AcDbEntity
8
1
100
AcDbVertex
100
AcDb2dVertex
62
5
10
75.026468
20
175.261369
0
VERTEX
5
146
100
AcDbEntity
8
1
100
AcDbVertex
100
AcDb2dVertex
62
5
10
76.776468
20
174.011369
0
SEQEND
5
147
100
AcDbEntity
8
1
0
LINE
5
148
100
AcDbEntity
8
1
100
AcDbLine
6
CONTINUOUS
62
5
10
74.776468
20
178.073869
11
74.776468
21
170.573869
0
POLYLINE
5
149
100
AcDbEntity
8
1
6
CONTINUOUS
62
5
100
AcDb2dPolyline
66
1
10
0.0
20
0.0
30
0.0
70
0
0
VERTEX
5
14a
100
AcDbEntity
8
1
100
AcDbVertex
100
AcDb2dVertex
62
5
10
40.526468
20
176.511369
0
VERTEX
5
14b
100
AcDbEntity
8
1
100
AcDbVertex
100
AcDb2dVertex
62
5
10
45.776468
20
176.511369
0
VERTEX
5
14c
100
AcDbEntity
8
1
100
AcDbVertex
100
AcDb2dVertex
62
5
10
45.776468
20
176.198869
0
VERTEX
5
14d
100
AcDbEntity
8
1
100
AcDbVertex
100
AcDb2dVertex
62
5
10
44.026468
20
174.323869
0
VERTEX
5
14e
100
AcDbEntity
8
1
100
AcDbVertex
100
AcDb2dVertex
62
5
10
43.276468
20
174.323869
0
SEQEND
5
14f
100
AcDbEntity
8
1
0
POLYLINE
5
150
100
AcDbEntity
8
1
6
CONTINUOUS
62
5
100
AcDb2dPolyline
66
1
10
0.0
20
0.0
30
0.0
70
0
0
VERTEX
5
151
100
AcDbEntity
8
1
100
AcDbVertex
100
AcDb2dVertex
62
5
10
43.276468
20
175.261369
0
VERTEX
5
152
100
AcDbEntity
8
1
100
AcDbVertex
100
AcDb2dVertex
62
5
10
43.276468
20
173.698869
0
VERTEX
5
153
100
AcDbEntity
8
1
100
AcDbVertex
100
AcDb2dVertex
62
5
10
42.526468
20
171.823869
0
VERTEX
5
154
100
AcDbEntity
8
1
100
AcDbVertex
100
AcDb2dVertex
62
5
10
41.526468
20
170.573869
0
SEQEND
5
155
100
AcDbEntity
8
1
0
LINE
5
156
100
AcDbEntity
8
1
100
AcDbLine
6
CONTINUOUS
62
5
10
48.776468
20
175.261369
11
53.776468
21
175.261369
0
POLYLINE
5
157
100
AcDbEntity
8
1
6
CONTINUOUS
62
5
100
AcDb2dPolyline
66
1
10
0.0
20
0.0
30
0.0
70
0
0
VERTEX
5
158
100
AcDbEntity
8
1
100
AcDbVertex
100
AcDb2dVertex
62
5
10
51.276468
20
177.136369
0
VERTEX
5
159
100
AcDbEntity
8
1
100
AcDbVertex
100
AcDb2dVertex
62
5
10
51.276468
20
170.886369
0
VERTEX
5
15a
100
AcDbEntity
8
1
100
AcDbVertex
100
AcDb2dVertex
62
5
10
50.776468
20
170.886369
0
SEQEND
5
15b
100
AcDbEntity
8
1
0
LINE
5
15c
100
AcDbEntity
8
1
100
AcDbLine
6
CONTINUOUS
62
5
10
50.026468
20
173.698869
11
48.776468
21
171.823869
0
LINE
5
15d
100
AcDbEntity
8
1
100
AcDbLine
6
CONTINUOUS
62
5
10
52.776468
20
173.698869
11
54.026468
21
172.136369
0
POLYLINE
5
15e
100
AcDbEntity
8
1
6
CONTINUOUS
62
5
100
AcDb2dPolyline
66
1
10
0.0
20
0.0
30
0.0
70
0
0
VERTEX
5
15f
100
AcDbEntity
8
1
100
AcDbVertex
100
AcDb2dVertex
62
5
10
57.276468
20
174.636369
0
VERTEX
5
160
100
AcDbEntity
8
1
100
AcDbVertex
100
AcDb2dVertex
62
5
10
57.276468
20
176.823869
0
VERTEX
5
161
100
AcDbEntity
8
1
100
AcDbVertex
100
AcDb2dVertex
62
5
10
61.276468
20
176.823869
0
VERTEX
5
162
100
AcDbEntity
8
1
100
AcDbVertex
100
AcDb2dVertex
62
5
10
61.276468
20
175.886369
0
VERTEX
5
163
100
AcDbEntity
8
1
100
AcDbVertex
100
AcDb2dVertex
62
5
10
61.026468
20
174.323869
0
VERTEX
5
164
100
AcDbEntity
8
1
100
AcDbVertex
100
AcDb2dVertex
62
5
10
60.526468
20
173.073869
0
VERTEX
5
165
100
AcDbEntity
8
1
100
AcDbVertex
100
AcDb2dVertex
62
5
10
60.026468
20
172.136369
0
VERTEX
5
166
100
AcDbEntity
8
1
100
AcDbVertex
100
AcDb2dVertex
62
5
10
59.026468
20
170.886369
0
SEQEND
5
167
100
AcDbEntity
8
1
0
POLYLINE
5
168
100
AcDbEntity
8
1
6
CONTINUOUS
62
5
100
AcDb2dPolyline
66
1
10
0.0
20
0.0
30
0.0
70
0
0
VERTEX
5
169
100
AcDbEntity
8
1
100
AcDbVertex
100
AcDb2dVertex
62
5
10
66.026468
20
188.386369
0
VERTEX
5
16a
100
AcDbEntity
8
1
100
AcDbVertex
100
AcDb2dVertex
62
5
10
65.026468
20
185.573869
0
VERTEX
5
16b
100
AcDbEntity
8
1
100
AcDbVertex
100
AcDb2dVertex
62
5
10
63.776468
20
183.386369
0
SEQEND
5
16c
100
AcDbEntity
8
1
0
LINE
5
16d
100
AcDbEntity
8
1
100
AcDbLine
6
CONTINUOUS
62
5
10
65.026468
20
185.573869
11
65.026468
21
179.636369
0
LINE
5
16e
100
AcDbEntity
8
1
100
AcDbLine
6
CONTINUOUS
62
5
10
65.776468
20
185.573869
11
71.026468
21
185.573869
0
POLYLINE
5
16f
100
AcDbEntity
8
1
6
CONTINUOUS
62
5
100
AcDb2dPolyline
66
1
10
0.0
20
0.0
30
0.0
70
0
0
VERTEX
5
170
100
AcDbEntity
8
1
100
AcDbVertex
100
AcDb2dVertex
62
5
10
69.276468
20
188.386369
0
VERTEX
5
171
100
AcDbEntity
8
1
100
AcDbVertex
100
AcDb2dVertex
62
5
10
69.276468
20
179.948869
0
VERTEX
5
172
100
AcDbEntity
8
1
100
AcDbVertex
100
AcDb2dVertex
62
5
10
67.776468
20
180.261369
0
SEQEND
5
173
100
AcDbEntity
8
1
0
LINE
5
174
100
AcDbEntity
8
1
100
AcDbLine
6
CONTINUOUS
62
5
10
66.776468
20
184.323869
11
67.776468
21
182.448869
0
LINE
5
175
100
AcDbEntity
8
1
100
AcDbLine
6
DOT2
62
5
10
130.301465
20
93.198869
11
129.676465
21
92.573869
0
POLYLINE
5
176
100
AcDbEntity
8
1
6
DOT2
62
5
100
AcDb2dPolyline
66
1
10
0.0
20
0.0
30
0.0
70
0
0
VERTEX
5
177
100
AcDbEntity
8
1
100
AcDbVertex
100
AcDb2dVertex
62
5
10
129.676465
20
93.198869
0
VERTEX
5
178
100
AcDbEntity
8
1
100
AcDbVertex
100
AcDb2dVertex
62
5
10
130.301465
20
92.573869
0
VERTEX
5
179
100
AcDbEntity
8
1
100
AcDbVertex
100
AcDb2dVertex
62
5
10
129.676465
20
92.573869
0
VERTEX
5
17a
100
AcDbEntity
8
1
100
AcDbVertex
100
AcDb2dVertex
62
5
10
129.676465
20
93.198869
0
VERTEX
5
17b
100
AcDbEntity
8
1
100
AcDbVertex
100
AcDb2dVertex
62
5
10
130.301465
20
93.198869
0
VERTEX
5
17c
100
AcDbEntity
8
1
100
AcDbVertex
100
AcDb2dVertex
62
5
10
130.301465
20
92.573869
0
SEQEND
5
17d
100
AcDbEntity
8
1
0
POLYLINE
5
17e
100
AcDbEntity
8
1
6
DOT2
62
5
100
AcDb2dPolyline
66
1
10
0.0
20
0.0
30
0.0
70
0
0
VERTEX
5
17f
100
AcDbEntity
8
1
100
AcDbVertex
100
AcDb2dVertex
62
5
10
119.676465
20
97.886369
0
VERTEX
5
180
100
AcDbEntity
8
1
100
AcDbVertex
100
AcDb2dVertex
62
5
10
119.988965
20
99.448869
0
VERTEX
5
181
100
AcDbEntity
8
1
100
AcDbVertex
100
AcDb2dVertex
62
5
10
120.926465
20
100.073869
0
VERTEX
5
182
100
AcDbEntity
8
1
100
AcDbVertex
100
AcDb2dVertex
62
5
10
121.863965
20
100.073869
0
VERTEX
5
183
100
AcDbEntity
8
1
100
AcDbVertex
100
AcDb2dVertex
62
5
10
122.488965
20
99.761369
0
VERTEX
5
184
100
AcDbEntity
8
1
100
AcDbVertex
100
AcDb2dVertex
62
5
10
122.801465
20
98.823869
0
VERTEX
5
185
100
AcDbEntity
8
1
100
AcDbVertex
100
AcDb2dVertex
62
5
10
122.801465
20
97.886369
0
VERTEX
5
186
100
AcDbEntity
8
1
100
AcDbVertex
100
AcDb2dVertex
62
5
10
122.488965
20
96.948869
0
VERTEX
5
187
100
AcDbEntity
8
1
100
AcDbVertex
100
AcDb2dVertex
62
5
10
119.676465
20
92.573869
0
VERTEX
5
188
100
AcDbEntity
8
1
100
AcDbVertex
100
AcDb2dVertex
62
5
10
122.801465
20
92.573869
0
VERTEX
5
189
100
AcDbEntity
8
1
100
AcDbVertex
100
AcDb2dVertex
62
5
10
122.801465
20
93.511369
0
SEQEND
5
18a
100
AcDbEntity
8
1
0
POLYLINE
5
18b
100
AcDbEntity
8
1
6
DOT2
62
5
100
AcDb2dPolyline
66
1
10
0.0
20
0.0
30
0.0
70
0
0
VERTEX
5
18c
100
AcDbEntity
8
1
100
AcDbVertex
100
AcDb2dVertex
62
5
10
127.176465
20
100.073869
0
VERTEX
5
18d
100
AcDbEntity
8
1
100
AcDbVertex
100
AcDb2dVertex
62
5
10
124.363965
20
94.448869
0
VERTEX
5
18e
100
AcDbEntity
8
1
100
AcDbVertex
100
AcDb2dVertex
62
5
10
128.113965
20
94.448869
0
SEQEND
5
18f
100
AcDbEntity
8
1
0
LINE
5
190
100
AcDbEntity
8
1
100
AcDbLine
6
DOT2
62
5
10
127.176465
20
100.073869
11
127.176465
21
92.573869
0
LINE
5
191
100
AcDbEntity
8
1
100
AcDbLine
6
DOT2
62
5
10
126.551465
20
92.573869
11
127.801465
21
92.573869
0
POLYLINE
5
192
100
AcDbEntity
8
1
6
DOT2
62
5
100
AcDb2dPolyline
66
1
10
0.0
20
0.0
30
0.0
70
0
0
VERTEX
5
193
100
AcDbEntity
8
1
100
AcDbVertex
100
AcDb2dVertex
62
5
10
135.301465
20
99.448869
0
VERTEX
5
194
100
AcDbEntity
8
1
100
AcDbVertex
100
AcDb2dVertex
62
5
10
136.238965
20
100.073869
0
VERTEX
5
195
100
AcDbEntity
8
1
100
AcDbVertex
100
AcDb2dVertex
62
5
10
136.238965
20
92.573869
0
SEQEND
5
196
100
AcDbEntity
8
1
0
LINE
5
197
100
AcDbEntity
8
1
100
AcDbLine
6
DOT2
62
5
10
135.613965
20
92.573869
11
136.863965
21
92.573869
0
LINE
5
198
100
AcDbEntity
8
1
100
AcDbLine
6
DOT2
62
5
10
51.801468
20
93.198869
11
51.176468
21
92.573869
0
POLYLINE
5
199
100
AcDbEntity
8
1
6
DOT2
62
5
100
AcDb2dPolyline
66
1
10
0.0
20
0.0
30
0.0
70
0
0
VERTEX
5
19a
100
AcDbEntity
8
1
100
AcDbVertex
100
AcDb2dVertex
62
5
10
51.176468
20
93.198869
0
VERTEX
5
19b
100
AcDbEntity
8
1
100
AcDbVertex
100
AcDb2dVertex
62
5
10
51.801468
20
92.573869
0
VERTEX
5
19c
100
AcDbEntity
8
1
100
AcDbVertex
100
AcDb2dVertex
62
5
10
51.176468
20
92.573869
0
VERTEX
5
19d
100
AcDbEntity
8
1
100
AcDbVertex
100
AcDb2dVertex
62
5
10
51.176468
20
93.198869
0
VERTEX
5
19e
100
AcDbEntity
8
1
100
AcDbVertex
100
AcDb2dVertex
62
5
10
51.801468
20
93.198869
0
VERTEX
5
19f
100
AcDbEntity
8
1
100
AcDbVertex
100
AcDb2dVertex
62
5
10
51.801468
20
92.573869
0
SEQEND
5
1a0
100
AcDbEntity
8
1
0
POLYLINE
5
1a1
100
AcDbEntity
8
1
6
DOT2
62
5
100
AcDb2dPolyline
66
1
10
0.0
20
0.0
30
0.0
70
0
0
VERTEX
5
1a2
100
AcDbEntity
8
1
100
AcDbVertex
100
AcDb2dVertex
62
5
10
41.801468
20
99.448869
0
VERTEX
5
1a3
100
AcDbEntity
8
1
100
AcDbVertex
100
AcDb2dVertex
62
5
10
42.738968
20
100.073869
0
VERTEX
5
1a4
100
AcDbEntity
8
1
100
AcDbVertex
100
AcDb2dVertex
62
5
10
42.738968
20
92.573869
0
SEQEND
5
1a5
100
AcDbEntity
8
1
0
LINE
5
1a6
100
AcDbEntity
8
1
100
AcDbLine
6
DOT2
62
5
10
42.113968
20
92.573869
11
43.363968
21
92.573869
0
POLYLINE
5
1a7
100
AcDbEntity
8
1
6
DOT2
62
5
100
AcDb2dPolyline
66
1
10
0.0
20
0.0
30
0.0
70
0
0
VERTEX
5
1a8
100
AcDbEntity
8
1
100
AcDbVertex
100
AcDb2dVertex
62
5
10
48.676468
20
100.073869
0
VERTEX
5
1a9
100
AcDbEntity
8
1
100
AcDbVertex
100
AcDb2dVertex
62
5
10
45.863968
20
94.448869
0
VERTEX
5
1aa
100
AcDbEntity
8
1
100
AcDbVertex
100
AcDb2dVertex
62
5
10
49.613968
20
94.448869
0
SEQEND
5
1ab
100
AcDbEntity
8
1
0
LINE
5
1ac
100
AcDbEntity
8
1
100
AcDbLine
6
DOT2
62
5
10
48.676468
20
100.073869
11
48.676468
21
92.573869
0
LINE
5
1ad
100
AcDbEntity
8
1
100
AcDbLine
6
DOT2
62
5
10
48.051468
20
92.573869
11
49.301468
21
92.573869
0
POLYLINE
5
1ae
100
AcDbEntity
8
1
6
DOT2
62
5
100
AcDb2dPolyline
66
1
10
0.0
20
0.0
30
0.0
70
0
0
VERTEX
5
1af
100
AcDbEntity
8
1
100
AcDbVertex
100
AcDb2dVertex
62
5
10
58.676468
20
100.073869
0
VERTEX
5
1b0
100
AcDbEntity
8
1
100
AcDbVertex
100
AcDb2dVertex
62
5
10
55.863968
20
94.448869
0
VERTEX
5
1b1
100
AcDbEntity
8
1
100
AcDbVertex
100
AcDb2dVertex
62
5
10
59.613968
20
94.448869
0
SEQEND
5
1b2
100
AcDbEntity
8
1
0
LINE
5
1b3
100
AcDbEntity
8
1
100
AcDbLine
6
DOT2
62
5
10
58.676468
20
100.073869
11
58.676468
21
92.573869
0
LINE
5
1b4
100
AcDbEntity
8
1
100
AcDbLine
6
DOT2
62
5
10
58.051468
20
92.573869
11
59.301468
21
92.573869
0
POLYLINE
5
1b5
100
AcDbEntity
8
1
6
CONTINUOUS
62
5
100
AcDb2dPolyline
66
1
10
0.0
20
0.0
30
0.0
70
0
0
VERTEX
5
1b6
100
AcDbEntity
8
1
100
AcDbVertex
100
AcDb2dVertex
62
5
10
84.326465
20
66.323869
0
VERTEX
5
1b7
100
AcDbEntity
8
1
100
AcDbVertex
100
AcDb2dVertex
62
5
10
84.526465
20
66.323869
0
VERTEX
5
1b8
100
AcDbEntity
8
1
100
AcDbVertex
100
AcDb2dVertex
62
5
10
84.326465
20
64.823869
0
SEQEND
5
1b9
100
AcDbEntity
8
1
0
ARC
5
1ba
100
AcDbEntity
8
1
100
AcDbCircle
6
CONTINUOUS
62
5
10
83.026465
20
61.423869
40
0.100000
100
AcDbArc
50
179.999998
51
-89.999999
0
LINE
5
1bb
100
AcDbEntity
8
1
100
AcDbLine
6
CONTINUOUS
62
5
10
83.026465
20
61.323869
11
84.326465
21
61.323869
0
ARC
5
1bc
100
AcDbEntity
8
1
100
AcDbCircle
6
CONTINUOUS
62
5
10
83.026465
20
63.673869
40
0.100000
100
AcDbArc
50
179.999998
51
-89.999999
0
LINE
5
1bd
100
AcDbEntity
8
1
100
AcDbLine
6
CONTINUOUS
62
5
10
84.326465
20
63.573869
11
83.026465
21
63.573869
0
ARC
5
1be
100
AcDbEntity
8
1
100
AcDbCircle
6
CONTINUOUS
62
5
10
82.026465
20
57.673855
40
0.100000
100
AcDbArc
50
179.999998
51
-89.999999
0
LINE
5
1bf
100
AcDbEntity
8
1
100
AcDbLine
6
CONTINUOUS
62
5
10
82.026465
20
57.573855
11
82.426465
21
57.573855
0
LINE
5
1c0
100
AcDbEntity
8
1
100
AcDbLine
6
CONTINUOUS
62
5
10
82.926465
20
64.073853
11
82.026465
21
64.073853
0
ARC
5
1c1
100
AcDbEntity
8
1
100
AcDbCircle
6
CONTINUOUS
62
5
10
82.026465
20
63.973853
40
0.100000
100
AcDbArc
50
89.999999
51
179.999998
0
LINE
5
1c2
100
AcDbEntity
8
1
100
AcDbLine
6
CONTINUOUS
62
5
10
81.926465
20
63.973853
11
81.926465
21
57.673855
0
ARC
5
1c3
100
AcDbEntity
8
1
100
AcDbCircle
6
CONTINUOUS
62
5
10
83.676465
20
63.073853
40
1.250000
100
AcDbArc
50
126.869897
51
179.999998
0
LINE
5
1c4
100
AcDbEntity
8
1
100
AcDbLine
6
CONTINUOUS
62
5
10
82.426465
20
63.073853
11
82.426465
21
56.323869
0
LINE
5
1c5
100
AcDbEntity
8
1
100
AcDbLine
6
CONTINUOUS
62
5
10
94.426465
20
37.323869
11
95.226465
21
37.323869
0
LINE
5
1c6
100
AcDbEntity
8
1
100
AcDbLine
6
CONTINUOUS
62
5
10
93.513977
20
33.323869
11
95.226465
21
33.323869
0
LINE
5
1c7
100
AcDbEntity
8
1
100
AcDbLine
6
CONTINUOUS
62
5
10
94.636465
20
34.843304
11
94.636465
21
31.796462
0
ARC
5
1c8
100
AcDbEntity
8
1
100
AcDbCircle
6
CONTINUOUS
62
5
10
94.868739
20
34.423869
40
0.550000
100
AcDbArc
50
89.999999
51
135.790136
0
LINE
5
1c9
100
AcDbEntity
8
1
100
AcDbLine
6
CONTINUOUS
62
5
10
94.474504
20
34.807378
11
93.709675
21
34.021158
0
ARC
5
1ca
100
AcDbEntity
8
1
100
AcDbCircle
6
CONTINUOUS
62
5
10
94.426465
20
33.323869
40
1.000000
100
AcDbArc
50
135.790136
51
-135.790136
0
LINE
5
1cb
100
AcDbEntity
8
1
100
AcDbLine
6
CONTINUOUS
62
5
10
93.709675
20
32.626581
11
94.474504
21
31.840360
0
ARC
5
1cc
100
AcDbEntity
8
1
100
AcDbCircle
6
CONTINUOUS
62
5
10
94.868739
20
32.223869
40
0.550000
100
AcDbArc
50
-135.790136
51
-89.999999
0
LINE
5
1cd
100
AcDbEntity
8
1
100
AcDbLine
6
CONTINUOUS
62
5
10
94.868739
20
31.673869
11
95.213068
21
31.673869
0
LINE
5
1ce
100
AcDbEntity
8
1
100
AcDbLine
6
CONTINUOUS
62
5
10
95.213068
20
34.973869
11
94.868739
21
34.973869
0
LINE
5
1cf
100
AcDbEntity
8
1
100
AcDbLine
6
CONTINUOUS
62
5
10
95.226465
20
31.723869
11
95.226465
21
34.923869
0
LINE
5
1d0
100
AcDbEntity
8
1
100
AcDbLine
6
CONTINUOUS
62
5
10
94.426465
20
41.523869
11
94.426465
21
37.323869
0
ARC
5
1d1
100
AcDbEntity
8
1
100
AcDbCircle
6
CONTINUOUS
62
5
10
94.676465
20
41.323869
40
0.200000
100
AcDbArc
50
-0.000000
51
89.999999
0
LINE
5
1d2
100
AcDbEntity
8
1
100
AcDbLine
6
CONTINUOUS
62
5
10
94.876465
20
41.323869
11
94.876465
21
37.323869
0
POLYLINE
5
1d3
100
AcDbEntity
8
1
6
CONTINUOUS
62
5
100
AcDb2dPolyline
66
1
10
0.0
20
0.0
30
0.0
70
0
0
VERTEX
5
1d4
100
AcDbEntity
8
1
100
AcDbVertex
100
AcDb2dVertex
62
5
10
94.426465
20
41.623869
0
VERTEX
5
1d5
100
AcDbEntity
8
1
100
AcDbVertex
100
AcDb2dVertex
62
5
10
94.426465
20
41.523869
0
VERTEX
5
1d6
100
AcDbEntity
8
1
100
AcDbVertex
100
AcDb2dVertex
62
5
10
94.676465
20
41.523869
0
SEQEND
5
1d7
100
AcDbEntity
8
1
0
ARC
5
1d8
100
AcDbEntity
8
1
100
AcDbCircle
6
CONTINUOUS
62
5
10
94.826465
20
41.323869
40
0.200000
100
AcDbArc
50
-0.000000
51
89.999999
0
LINE
5
1d9
100
AcDbEntity
8
1
100
AcDbLine
6
CONTINUOUS
62
5
10
94.826465
20
41.523869
11
94.676465
21
41.523869
0
LINE
5
1da
100
AcDbEntity
8
1
100
AcDbLine
6
CONTINUOUS
62
5
10
95.026465
20
37.323869
11
95.026465
21
41.323869
0
LINE
5
1db
100
AcDbEntity
8
1
100
AcDbLine
6
CONTINUOUS
62
5
10
83.326465
20
48.123869
11
83.326465
21
45.323869
0
LINE
5
1dc
100
AcDbEntity
8
1
100
AcDbLine
6
CONTINUOUS
62
5
10
84.126465
20
48.123869
11
84.126465
21
45.323869
0
ARC
5
1dd
100
AcDbEntity
8
1
100
AcDbCircle
6
CONTINUOUS
62
5
10
86.326465
20
44.386369
40
1.087500
100
AcDbArc
50
59.549685
51
120.450313
0
LINE
5
1de
100
AcDbEntity
8
1
100
AcDbLine
6
CONTINUOUS
62
5
10
83.726465
20
49.730607
11
83.819727
21
49.823869
0
LINE
5
1df
100
AcDbEntity
8
1
100
AcDbLine
6
CONTINUOUS
62
5
10
83.726465
20
48.316394
11
83.976465
21
48.566394
0
LINE
5
1e0
100
AcDbEntity
8
1
100
AcDbLine
6
CONTINUOUS
62
5
10
83.726465
20
49.023500
11
83.976465
21
49.273500
0
LINE
5
1e1
100
AcDbEntity
8
1
100
AcDbLine
6
CONTINUOUS
62
5
10
83.476465
20
49.844849
11
83.476465
21
48.123869
0
LINE
5
1e2
100
AcDbEntity
8
1
100
AcDbLine
6
CONTINUOUS
62
5
10
83.976465
20
48.499627
11
83.726465
21
48.749627
0
LINE
5
1e3
100
AcDbEntity
8
1
100
AcDbLine
6
CONTINUOUS
62
5
10
83.976465
20
49.206734
11
83.726465
21
49.456734
0
LINE
5
1e4
100
AcDbEntity
8
1
100
AcDbLine
6
CONTINUOUS
62
5
10
83.726465
20
48.123869
11
83.726465
21
49.823869
0
ARC
5
1e5
100
AcDbEntity
8
1
100
AcDbCircle
6
CONTINUOUS
62
5
10
82.926465
20
46.523869
40
1.400000
100
AcDbArc
50
-31.002719
51
0.000000
0
LINE
5
1e6
100
AcDbEntity
8
1
100
AcDbLine
6
CONTINUOUS
62
5
10
84.326465
20
46.523869
11
84.326465
21
48.123869
0
LINE
5
1e7
100
AcDbEntity
8
1
100
AcDbLine
6
CONTINUOUS
62
5
10
83.976465
20
49.823869
11
83.976465
21
48.123869
0
LINE
5
1e8
100
AcDbEntity
8
1
100
AcDbLine
6
CONTINUOUS
62
5
10
86.126465
20
47.914122
11
86.126465
21
45.465143
0
LINE
5
1e9
100
AcDbEntity
8
1
100
AcDbLine
6
CONTINUOUS
62
5
10
87.826465
20
47.914122
11
87.826465
21
45.429064
0
LINE
5
1ea
100
AcDbEntity
8
1
100
AcDbLine
6
CONTINUOUS
62
5
10
79.626432
20
43.523869
11
79.626432
21
49.523869
0
LINE
5
1eb
100
AcDbEntity
8
1
100
AcDbLine
6
CONTINUOUS
62
5
10
80.426432
20
49.523869
11
80.426432
21
43.523869
0
LINE
5
1ec
100
AcDbEntity
8
1
100
AcDbLine
6
CONTINUOUS
62
5
10
81.926465
20
46.523869
11
81.526468
21
46.523869
0
LINE
5
1ed
100
AcDbEntity
8
1
100
AcDbLine
6
CONTINUOUS
62
5
10
81.526468
20
45.123869
11
81.926465
21
45.123869
0
ARC
5
1ee
100
AcDbEntity
8
1
100
AcDbCircle
6
CONTINUOUS
62
5
10
81.826468
20
41.976951
40
0.400000
100
AcDbArc
50
75.522913
51
81.869897
0
LINE
5
1ef
100
AcDbEntity
8
1
100
AcDbLine
6
CONTINUOUS
62
5
10
81.883037
20
42.372931
11
81.526468
21
42.423869
0
ARC
5
1f0
100
AcDbEntity
8
1
100
AcDbCircle
6
CONTINUOUS
62
5
10
84.616465
20
38.223869
40
0.300000
100
AcDbArc
50
89.999999
51
179.999998
0
POLYLINE
5
1f1
100
AcDbEntity
8
1
6
CONTINUOUS
62
5
100
AcDb2dPolyline
66
1
10
0.0
20
0.0
30
0.0
70
0
0
VERTEX
5
1f2
100
AcDbEntity
8
1
100
AcDbVertex
100
AcDb2dVertex
62
5
10
88.026465
20
37.773869
0
VERTEX
5
1f3
100
AcDbEntity
8
1
100
AcDbVertex
100
AcDb2dVertex
62
5
10
86.526465
20
37.773869
0
VERTEX
5
1f4
100
AcDbEntity
8
1
100
AcDbVertex
100
AcDb2dVertex
62
5
10
86.526465
20
34.773869
0
VERTEX
5
1f5
100
AcDbEntity
8
1
100
AcDbVertex
100
AcDb2dVertex
62
5
10
88.026465
20
34.773869
0
SEQEND
5
1f6
100
AcDbEntity
8
1
0
POLYLINE
5
1f7
100
AcDbEntity
8
1
6
CONTINUOUS
62
5
100
AcDb2dPolyline
66
1
10
0.0
20
0.0
30
0.0
70
0
0
VERTEX
5
1f8
100
AcDbEntity
8
1
100
AcDbVertex
100
AcDb2dVertex
62
5
10
86.526465
20
37.773869
0
VERTEX
5
1f9
100
AcDbEntity
8
1
100
AcDbVertex
100
AcDb2dVertex
62
5
10
85.966465
20
37.773869
0
VERTEX
5
1fa
100
AcDbEntity
8
1
100
AcDbVertex
100
AcDb2dVertex
62
5
10
85.966465
20
34.773869
0
VERTEX
5
1fb
100
AcDbEntity
8
1
100
AcDbVertex
100
AcDb2dVertex
62
5
10
86.526465
20
34.773869
0
SEQEND
5
1fc
100
AcDbEntity
8
1
0
LINE
5
1fd
100
AcDbEntity
8
1
100
AcDbLine
6
CONTINUOUS
62
5
10
88.026465
20
37.509446
11
88.026465
21
35.086855
0
LINE
5
1fe
100
AcDbEntity
8
1
100
AcDbLine
6
CONTINUOUS
62
5
10
81.926465
20
35.523869
11
81.526468
21
35.523869
0
LINE
5
1ff
100
AcDbEntity
8
1
100
AcDbLine
6
CONTINUOUS
62
5
10
81.526468
20
36.323869
11
81.926465
21
36.323869
0
POLYLINE
5
200
100
AcDbEntity
8
1
6
CONTINUOUS
62
5
100
AcDb2dPolyline
66
1
10
0.0
20
0.0
30
0.0
70
0
0
VERTEX
5
201
100
AcDbEntity
8
1
100
AcDbVertex
100
AcDb2dVertex
62
5
10
81.526468
20
39.423869
0
VERTEX
5
202
100
AcDbEntity
8
1
100
AcDbVertex
100
AcDb2dVertex
62
5
10
81.883037
20
39.474807
0
VERTEX
5
203
100
AcDbEntity
8
1
100
AcDbVertex
100
AcDb2dVertex
62
5
10
81.908322
20
39.479252
0
VERTEX
5
204
100
AcDbEntity
8
1
100
AcDbVertex
100
AcDb2dVertex
62
5
10
81.926465
20
39.483488
0
SEQEND
5
205
100
AcDbEntity
8
1
0
ARC
5
206
100
AcDbEntity
8
1
100
AcDbCircle
6
CONTINUOUS
62
5
10
82.026465
20
37.423869
40
0.100000
100
AcDbArc
50
179.999998
51
-89.999999
0
ARC
5
207
100
AcDbEntity
8
1
100
AcDbCircle
6
CONTINUOUS
62
5
10
82.026465
20
37.423869
40
0.100000
100
AcDbArc
50
-179.999998
51
-89.999999
0
LINE
5
208
100
AcDbEntity
8
1
100
AcDbLine
6
CONTINUOUS
62
5
10
83.326465
20
37.323869
11
82.026465
21
37.323869
0
LINE
5
209
100
AcDbEntity
8
1
100
AcDbLine
6
CONTINUOUS
62
5
10
83.326465
20
37.323869
11
82.026465
21
37.323869
0
LINE
5
20a
100
AcDbEntity
8
1
100
AcDbLine
6
CONTINUOUS
62
5
10
88.026465
20
34.632986
11
88.026465
21
32.022364
0
ARC
5
20b
100
AcDbEntity
8
1
100
AcDbCircle
6
CONTINUOUS
62
5
10
84.362374
20
31.323869
40
1.145909
100
AcDbArc
50
154.689784
51
-154.689784
0
LINE
5
20c
100
AcDbEntity
8
1
100
AcDbLine
6
CONTINUOUS
62
5
10
81.526468
20
31.123869
11
81.540325
21
31.123869
0
LINE
5
20d
100
AcDbEntity
8
1
100
AcDbLine
6
CONTINUOUS
62
5
10
81.526468
20
31.123869
11
81.540325
21
31.123869
0
ARC
5
20e
100
AcDbEntity
8
1
100
AcDbCircle
6
CONTINUOUS
62
5
10
82.962374
20
31.323869
40
1.145909
100
AcDbArc
50
154.689784
51
-154.689784
0
LINE
5
20f
100
AcDbEntity
8
1
100
AcDbLine
6
CONTINUOUS
62
5
10
84.376465
20
38.519673
11
84.376465
21
41.623869
0
LINE
5
210
100
AcDbEntity
8
1
100
AcDbLine
6
CONTINUOUS
62
5
10
86.526465
20
38.024346
11
86.526465
21
40.823869
0
LINE
5
211
100
AcDbEntity
8
1
100
AcDbLine
6
CONTINUOUS
62
5
10
88.026465
20
40.823869
11
88.026465
21
37.960382
0
ARC
5
212
100
AcDbEntity
8
1
100
AcDbCircle
6
CONTINUOUS
62
5
10
84.426479
20
38.223839
40
0.300030
100
AcDbArc
50
90.002586
51
179.404744
0
POLYLINE
5
213
100
AcDbEntity
8
1
6
CONTINUOUS
62
5
100
AcDb2dPolyline
66
1
10
0.0
20
0.0
30
0.0
70
0
0
VERTEX
5
214
100
AcDbEntity
8
1
100
AcDbVertex
100
AcDb2dVertex
62
5
10
84.426465
20
38.523869
0
VERTEX
5
215
100
AcDbEntity
8
1
100
AcDbVertex
100
AcDb2dVertex
62
5
10
85.326465
20
38.523869
0
VERTEX
5
216
100
AcDbEntity
8
1
100
AcDbVertex
100
AcDb2dVertex
62
5
10
85.326465
20
40.523869
0
SEQEND
5
217
100
AcDbEntity
8
1
0
ARC
5
218
100
AcDbEntity
8
1
100
AcDbCircle
6
CONTINUOUS
62
5
10
85.626465
20
40.523869
40
0.300000
100
AcDbArc
50
89.999999
51
-179.999998
0
LINE
5
219
100
AcDbEntity
8
1
100
AcDbLine
6
CONTINUOUS
62
5
10
85.626465
20
40.823869
11
90.826465
21
40.823869
0
ARC
5
21a
100
AcDbEntity
8
1
100
AcDbCircle
6
CONTINUOUS
62
5
10
90.826465
20
41.323869
40
0.500000
100
AcDbArc
50
-89.999999
51
36.869897
0
LINE
5
21b
100
AcDbEntity
8
1
100
AcDbLine
6
CONTINUOUS
62
5
10
89.426465
20
46.073869
11
91.126465
21
46.073869
0
LINE
5
21c
100
AcDbEntity
8
1
100
AcDbLine
6
CONTINUOUS
62
5
10
91.126465
20
45.823869
11
89.426465
21
45.823869
0
LINE
5
21d
100
AcDbEntity
8
1
100
AcDbLine
6
CONTINUOUS
62
5
10
89.426465
20
45.573869
11
91.193453
21
45.573869
0
ARC
5
21e
100
AcDbEntity
8
1
100
AcDbCircle
6
CONTINUOUS
62
5
10
89.326465
20
45.423869
40
0.100000
100
AcDbArc
50
-89.999999
51
0.000000
0
POLYLINE
5
21f
100
AcDbEntity
8
1
6
CONTINUOUS
62
5
100
AcDb2dPolyline
66
1
10
0.0
20
0.0
30
0.0
70
0
0
VERTEX
5
220
100
AcDbEntity
8
1
100
AcDbVertex
100
AcDb2dVertex
62
5
10
89.426465
20
45.423869
0
VERTEX
5
221
100
AcDbEntity
8
1
100
AcDbVertex
100
AcDb2dVertex
62
5
10
89.426465
20
47.123869
0
VERTEX
5
222
100
AcDbEntity
8
1
100
AcDbVertex
100
AcDb2dVertex
62
5
10
88.426465
20
48.123869
0
VERTEX
5
223
100
AcDbEntity
8
1
100
AcDbVertex
100
AcDb2dVertex
62
5
10
81.926465
20
48.123869
0
SEQEND
5
224
100
AcDbEntity
8
1
0
LINE
5
225
100
AcDbEntity
8
1
100
AcDbLine
6
CONTINUOUS
62
5
10
81.926465
20
45.323869
11
89.326465
21
45.323869
0
ARC
5
226
100
AcDbEntity
8
1
100
AcDbCircle
6
CONTINUOUS
62
5
10
89.326465
20
45.423869
40
0.100000
100
AcDbArc
50
-89.999999
51
-0.000000
0
LINE
5
227
100
AcDbEntity
8
1
100
AcDbLine
6
CONTINUOUS
62
5
10
89.326465
20
45.323869
11
81.926465
21
45.323869
0
POLYLINE
5
228
100
AcDbEntity
8
1
6
CONTINUOUS
62
5
100
AcDb2dPolyline
66
1
10
0.0
20
0.0
30
0.0
70
0
0
VERTEX
5
229
100
AcDbEntity
8
1
100
AcDbVertex
100
AcDb2dVertex
62
5
10
81.926465
20
48.123869
0
VERTEX
5
22a
100
AcDbEntity
8
1
100
AcDbVertex
100
AcDb2dVertex
62
5
10
88.426465
20
48.123869
0
VERTEX
5
22b
100
AcDbEntity
8
1
100
AcDbVertex
100
AcDb2dVertex
62
5
10
89.426465
20
47.123869
0
VERTEX
5
22c
100
AcDbEntity
8
1
100
AcDbVertex
100
AcDb2dVertex
62
5
10
89.426465
20
45.423869
0
SEQEND
5
22d
100
AcDbEntity
8
1
0
LINE
5
22e
100
AcDbEntity
8
1
100
AcDbLine
6
CONTINUOUS
62
5
10
83.626465
20
51.323869
11
82.226465
21
51.323869
0
LINE
5
22f
100
AcDbEntity
8
1
100
AcDbLine
6
CONTINUOUS
62
5
10
81.958100
20
49.982041
11
82.198932
21
51.186205
0
ARC
5
230
100
AcDbEntity
8
1
100
AcDbCircle
6
CONTINUOUS
62
5
10
86.551455
20
51.990530
40
3.000000
100
AcDbArc
50
-167.160527
51
-133.761906
0
LINE
5
231
100
AcDbEntity
8
1
100
AcDbLine
6
CONTINUOUS
62
5
10
83.626465
20
51.323869
11
83.626465
21
54.323869
0
ARC
5
232
100
AcDbEntity
8
1
100
AcDbCircle
6
CONTINUOUS
62
5
10
78.395909
20
54.080975
40
5.236193
100
AcDbArc
50
2.658762
51
19.672882
0
LINE
5
233
100
AcDbEntity
8
1
100
AcDbLine
6
CONTINUOUS
62
5
10
83.326465
20
55.843737
11
83.326465
21
56.323869
0
LINE
5
234
100
AcDbEntity
8
1
100
AcDbLine
6
CONTINUOUS
62
5
10
84.326465
20
49.978212
11
84.326465
21
57.573855
0
ARC
5
235
100
AcDbEntity
8
1
100
AcDbCircle
6
CONTINUOUS
62
5
10
91.526465
20
54.987599
40
10.000000
100
AcDbArc
50
-179.999998
51
-172.405355
0
LINE
5
236
100
AcDbEntity
8
1
100
AcDbLine
6
CONTINUOUS
62
5
10
81.526465
20
54.987599
11
81.526465
21
56.223869
0
ARC
5
237
100
AcDbEntity
8
1
100
AcDbCircle
6
CONTINUOUS
62
5
10
81.626465
20
56.223869
40
0.100000
100
AcDbArc
50
89.999999
51
179.999998
0
LINE
5
238
100
AcDbEntity
8
1
100
AcDbLine
6
CONTINUOUS
62
5
10
81.626465
20
56.323869
11
82.026465
21
56.323869
0
LINE
5
239
100
AcDbEntity
8
1
100
AcDbLine
6
CONTINUOUS
62
5
10
81.926465
20
51.323869
11
81.614186
21
53.665962
0
ARC
5
23a
100
AcDbEntity
8
1
100
AcDbCircle
6
CONTINUOUS
62
5
10
84.126465
20
56.852745
40
1.400000
100
AcDbArc
50
148.997280
51
-179.999998
0
LINE
5
23b
100
AcDbEntity
8
1
100
AcDbLine
6
CONTINUOUS
62
5
10
82.926465
20
57.573855
11
82.926465
21
66.223869
0
ARC
5
23c
100
AcDbEntity
8
1
100
AcDbCircle
6
CONTINUOUS
62
5
10
83.026465
20
66.223869
40
0.100000
100
AcDbArc
50
89.999999
51
179.999998
0
POLYLINE
5
23d
100
AcDbEntity
8
1
6
CONTINUOUS
62
5
100
AcDb2dPolyline
66
1
10
0.0
20
0.0
30
0.0
70
0
0
VERTEX
5
23e
100
AcDbEntity
8
1
100
AcDbVertex
100
AcDb2dVertex
62
5
10
83.026465
20
66.323869
0
VERTEX
5
23f
100
AcDbEntity
8
1
100
AcDbVertex
100
AcDb2dVertex
62
5
10
84.326465
20
66.323869
0
VERTEX
5
240
100
AcDbEntity
8
1
100
AcDbVertex
100
AcDb2dVertex
62
5
10
84.326465
20
57.573855
0
SEQEND
5
241
100
AcDbEntity
8
1
0
ARC
5
242
100
AcDbEntity
8
1
100
AcDbCircle
6
CONTINUOUS
62
5
10
82.926465
20
57.573855
40
1.400000
100
AcDbArc
50
-31.002719
51
0.000000
0
LINE
5
243
100
AcDbEntity
8
1
100
AcDbLine
6
CONTINUOUS
62
5
10
84.126465
20
56.852745
11
84.126465
21
50.224340
0
LINE
5
244
100
AcDbEntity
8
1
100
AcDbLine
6
CONTINUOUS
62
5
10
82.726465
20
56.323869
11
82.726465
21
56.852745
0
LINE
5
245
100
AcDbEntity
8
1
100
AcDbLine
6
CONTINUOUS
62
5
10
77.849172
20
42.645564
11
77.926468
21
42.642051
0
LINE
5
246
100
AcDbEntity
8
1
100
AcDbLine
6
CONTINUOUS
62
5
10
73.926468
20
38.676630
11
73.897023
21
38.632033
0
POLYLINE
5
247
100
AcDbEntity
8
1
6
CONTINUOUS
62
5
100
AcDb2dPolyline
66
1
10
0.0
20
0.0
30
0.0
70
0
0
VERTEX
5
248
100
AcDbEntity
8
1
100
AcDbVertex
100
AcDb2dVertex
62
5
10
77.926382
20
38.723869
0
VERTEX
5
249
100
AcDbEntity
8
1
100
AcDbVertex
100
AcDb2dVertex
62
5
10
76.426382
20
39.223869
0
VERTEX
5
24a
100
AcDbEntity
8
1
100
AcDbVertex
100
AcDb2dVertex
62
5
10
76.427333
20
42.423869
0
SEQEND
5
24b
100
AcDbEntity
8
1
0
LINE
5
24c
100
AcDbEntity
8
1
100
AcDbLine
6
CONTINUOUS
62
5
10
77.926468
20
56.223869
11
77.926468
21
43.133089
0
POLYLINE
5
24d
100
AcDbEntity
8
1
6
CONTINUOUS
62
5
100
AcDb2dPolyline
66
1
10
0.0
20
0.0
30
0.0
70
1
0
VERTEX
5
24e
100
AcDbEntity
8
1
100
AcDbVertex
100
AcDb2dVertex
62
5
10
78.926468
20
49.523869
0
VERTEX
5
24f
100
AcDbEntity
8
1
100
AcDbVertex
100
AcDb2dVertex
62
5
10
78.926468
20
50.423869
0
VERTEX
5
250
100
AcDbEntity
8
1
100
AcDbVertex
100
AcDb2dVertex
62
5
10
81.526468
20
50.423869
0
VERTEX
5
251
100
AcDbEntity
8
1
100
AcDbVertex
100
AcDb2dVertex
62
5
10
81.526468
20
42.623869
0
VERTEX
5
252
100
AcDbEntity
8
1
100
AcDbVertex
100
AcDb2dVertex
62
5
10
78.926468
20
42.623869
0
VERTEX
5
253
100
AcDbEntity
8
1
100
AcDbVertex
100
AcDb2dVertex
62
5
10
78.926468
20
43.523869
0
VERTEX
5
254
100
AcDbEntity
8
1
100
AcDbVertex
100
AcDb2dVertex
62
5
10
81.526468
20
43.523869
0
VERTEX
5
255
100
AcDbEntity
8
1
100
AcDbVertex
100
AcDb2dVertex
62
5
10
81.526468
20
49.523869
0
SEQEND
5
256
100
AcDbEntity
8
1
0
LINE
5
257
100
AcDbEntity
8
1
100
AcDbLine
6
CONTINUOUS
62
5
10
77.926468
20
43.523869
11
78.926468
21
43.523869
0
LINE
5
258
100
AcDbEntity
8
1
100
AcDbLine
6
CONTINUOUS
62
5
10
77.926468
20
49.523869
11
78.926468
21
49.523869
0
ARC
5
259
100
AcDbEntity
8
1
100
AcDbCircle
6
CONTINUOUS
62
5
10
77.248249
20
55.653553
40
0.500000
100
AcDbArc
50
95.710592
51
153.047820
0
LINE
5
25a
100
AcDbEntity
8
1
100
AcDbLine
6
CONTINUOUS
62
5
10
76.802557
20
55.880177
11
74.143698
21
50.651088
0
ARC
5
25b
100
AcDbEntity
8
1
100
AcDbCircle
6
CONTINUOUS
62
5
10
75.926468
20
49.744594
40
2.000000
100
AcDbArc
50
153.047820
51
179.999998
0
LINE
5
25c
100
AcDbEntity
8
1
100
AcDbLine
6
CONTINUOUS
62
5
10
73.926468
20
49.744594
11
73.926468
21
43.588331
0
ARC
5
25d
100
AcDbEntity
8
1
100
AcDbCircle
6
CONTINUOUS
62
5
10
74.726468
20
43.588331
40
0.800000
100
AcDbArc
50
179.999998
51
-92.602561
0
LINE
5
25e
100
AcDbEntity
8
1
100
AcDbLine
6
CONTINUOUS
62
5
10
74.690142
20
42.789157
11
77.849172
21
42.645564
0
ARC
5
25f
100
AcDbEntity
8
1
100
AcDbCircle
6
CONTINUOUS
62
5
10
77.826468
20
42.146080
40
0.500000
100
AcDbArc
50
78.463040
51
87.397437
0
POLYLINE
5
260
100
AcDbEntity
8
1
6
CONTINUOUS
62
5
100
AcDb2dPolyline
66
1
10
0.0
20
0.0
30
0.0
70
0
0
VERTEX
5
261
100
AcDbEntity
8
1
100
AcDbVertex
100
AcDb2dVertex
62
5
10
81.526468
20
50.423869
0
VERTEX
5
262
100
AcDbEntity
8
1
100
AcDbVertex
100
AcDb2dVertex
62
5
10
81.526468
20
56.123869
0
VERTEX
5
263
100
AcDbEntity
8
1
100
AcDbVertex
100
AcDb2dVertex
62
5
10
77.926468
20
56.223869
0
VERTEX
5
264
100
AcDbEntity
8
1
100
AcDbVertex
100
AcDb2dVertex
62
5
10
77.198497
20
56.151072
0
SEQEND
5
265
100
AcDbEntity
8
1
0
POLYLINE
5
266
100
AcDbEntity
8
1
6
CONTINUOUS
62
5
100
AcDb2dPolyline
66
1
10
0.0
20
0.0
30
0.0
70
0
0
VERTEX
5
267
100
AcDbEntity
8
1
100
AcDbVertex
100
AcDb2dVertex
62
5
10
78.326468
20
35.723869
0
VERTEX
5
268
100
AcDbEntity
8
1
100
AcDbVertex
100
AcDb2dVertex
62
5
10
78.326468
20
35.323869
0
VERTEX
5
269
100
AcDbEntity
8
1
100
AcDbVertex
100
AcDb2dVertex
62
5
10
77.926468
20
35.323869
0
SEQEND
5
26a
100
AcDbEntity
8
1
0
LINE
5
26b
100
AcDbEntity
8
1
100
AcDbLine
6
CONTINUOUS
62
5
10
77.926468
20
36.823869
11
78.326468
21
36.823869
0
LINE
5
26c
100
AcDbEntity
8
1
100
AcDbLine
6
CONTINUOUS
62
5
10
77.926468
20
39.623869
11
78.326468
21
39.623869
0
ARC
5
26d
100
AcDbEntity
8
1
100
AcDbCircle
6
CONTINUOUS
62
5
10
78.826468
20
40.609655
40
1.000000
100
AcDbArc
50
134.999999
51
154.722056
0
LINE
5
26e
100
AcDbEntity
8
1
100
AcDbLine
6
CONTINUOUS
62
5
10
78.119361
20
41.316762
11
78.326468
21
41.523869
0
LINE
5
26f
100
AcDbEntity
8
1
100
AcDbLine
6
CONTINUOUS
62
5
10
77.922221
20
41.036665
11
77.922221
21
41.036665
0
POLYLINE
5
270
100
AcDbEntity
8
1
6
CONTINUOUS
62
5
100
AcDb2dPolyline
66
1
10
0.0
20
0.0
30
0.0
70
0
0
VERTEX
5
271
100
AcDbEntity
8
1
100
AcDbVertex
100
AcDb2dVertex
62
5
10
29.276468
20
187.761369
0
VERTEX
5
272
100
AcDbEntity
8
1
100
AcDbVertex
100
AcDb2dVertex
62
5
10
27.276468
20
185.261369
0
VERTEX
5
273
100
AcDbEntity
8
1
100
AcDbVertex
100
AcDb2dVertex
62
5
10
25.026468
20
183.698869
0
SEQEND
5
274
100
AcDbEntity
8
1
0
LINE
5
275
100
AcDbEntity
8
1
100
AcDbLine
6
CONTINUOUS
62
5
10
27.776468
20
185.886369
11
27.776468
21
180.573869
0
LINE
5
276
100
AcDbEntity
8
1
100
AcDbLine
6
CONTINUOUS
62
5
10
33.776468
20
184.636369
11
34.026468
21
183.386369
0
LINE
5
277
100
AcDbEntity
8
1
100
AcDbLine
6
CONTINUOUS
62
5
10
35.276468
20
184.948869
11
35.526468
21
183.698869
0
POLYLINE
5
278
100
AcDbEntity
8
1
6
CONTINUOUS
62
5
100
AcDb2dPolyline
66
1
10
0.0
20
0.0
30
0.0
70
0
0
VERTEX
5
279
100
AcDbEntity
8
1
100
AcDbVertex
100
AcDb2dVertex
62
5
10
37.276468
20
184.948869
0
VERTEX
5
27a
100
AcDbEntity
8
1
100
AcDbVertex
100
AcDb2dVertex
62
5
10
37.026468
20
183.386369
0
VERTEX
5
27b
100
AcDbEntity
8
1
100
AcDbVertex
100
AcDb2dVertex
62
5
10
35.776468
20
181.511369
0
VERTEX
5
27c
100
AcDbEntity
8
1
100
AcDbVertex
100
AcDb2dVertex
62
5
10
34.776468
20
180.573869
0
SEQEND
5
27d
100
AcDbEntity
8
1
0
POLYLINE
5
27e
100
AcDbEntity
8
1
6
CONTINUOUS
62
5
100
AcDb2dPolyline
66
1
10
0.0
20
0.0
30
0.0
70
0
0
VERTEX
5
27f
100
AcDbEntity
8
1
100
AcDbVertex
100
AcDb2dVertex
62
5
10
5.276468
20
187.761369
0
VERTEX
5
280
100
AcDbEntity
8
1
100
AcDbVertex
100
AcDb2dVertex
62
5
10
3.276468
20
185.261369
0
VERTEX
5
281
100
AcDbEntity
8
1
100
AcDbVertex
100
AcDb2dVertex
62
5
10
1.026468
20
183.698869
0
SEQEND
5
282
100
AcDbEntity
8
1
0
LINE
5
283
100
AcDbEntity
8
1
100
AcDbLine
6
CONTINUOUS
62
5
10
3.776468
20
185.886369
11
3.776468
21
180.573869
0
LINE
5
284
100
AcDbEntity
8
1
100
AcDbLine
6
CONTINUOUS
62
5
10
9.276468
20
186.511369
11
10.276468
21
185.261369
0
POLYLINE
5
285
100
AcDbEntity
8
1
6
CONTINUOUS
62
5
100
AcDb2dPolyline
66
1
10
0.0
20
0.0
30
0.0
70
0
0
VERTEX
5
286
100
AcDbEntity
8
1
100
AcDbVertex
100
AcDb2dVertex
62
5
10
9.026468
20
181.511369
0
VERTEX
5
287
100
AcDbEntity
8
1
100
AcDbVertex
100
AcDb2dVertex
62
5
10
10.776468
20
182.448869
0
VERTEX
5
288
100
AcDbEntity
8
1
100
AcDbVertex
100
AcDb2dVertex
62
5
10
12.276468
20
183.698869
0
VERTEX
5
289
100
AcDbEntity
8
1
100
AcDbVertex
100
AcDb2dVertex
62
5
10
13.776468
20
185.261369
0
SEQEND
5
28a
100
AcDbEntity
8
1
0
POLYLINE
5
28b
100
AcDbEntity
8
1
6
CONTINUOUS
62
5
100
AcDb2dPolyline
66
1
10
0.0
20
0.0
30
0.0
70
0
0
VERTEX
5
28c
100
AcDbEntity
8
1
100
AcDbVertex
100
AcDb2dVertex
62
5
10
17.526468
20
186.198869
0
VERTEX
5
28d
100
AcDbEntity
8
1
100
AcDbVertex
100
AcDb2dVertex
62
5
10
20.776468
20
186.198869
0
VERTEX
5
28e
100
AcDbEntity
8
1
100
AcDbVertex
100
AcDb2dVertex
62
5
10
20.776468
20
185.886369
0
VERTEX
5
28f
100
AcDbEntity
8
1
100
AcDbVertex
100
AcDb2dVertex
62
5
10
20.276468
20
184.636369
0
VERTEX
5
290
100
AcDbEntity
8
1
100
AcDbVertex
100
AcDb2dVertex
62
5
10
19.776468
20
183.698869
0
VERTEX
5
291
100
AcDbEntity
8
1
100
AcDbVertex
100
AcDb2dVertex
62
5
10
18.776468
20
182.448869
0
VERTEX
5
292
100
AcDbEntity
8
1
100
AcDbVertex
100
AcDb2dVertex
62
5
10
17.026468
20
180.886369
0
SEQEND
5
293
100
AcDbEntity
8
1
0
LINE
5
294
100
AcDbEntity
8
1
100
AcDbLine
6
CONTINUOUS
62
5
10
19.776468
20
183.698869
11
21.776468
21
180.886369
0
POLYLINE
5
295
100
AcDbEntity
8
1
6
CONTINUOUS
62
5
100
AcDb2dPolyline
66
1
10
0.0
20
0.0
30
0.0
70
0
0
VERTEX
5
296
100
AcDbEntity
8
1
100
AcDbVertex
100
AcDb2dVertex
62
5
10
25.276468
20
176.823869
0
VERTEX
5
297
100
AcDbEntity
8
1
100
AcDbVertex
100
AcDb2dVertex
62
5
10
25.276468
20
171.511369
0
VERTEX
5
298
100
AcDbEntity
8
1
100
AcDbVertex
100
AcDb2dVertex
62
5
10
25.776468
20
170.886369
0
VERTEX
5
299
100
AcDbEntity
8
1
100
AcDbVertex
100
AcDb2dVertex
62
5
10
29.276468
20
170.886369
0
SEQEND
5
29a
100
AcDbEntity
8
1
0
LINE
5
29b
100
AcDbEntity
8
1
100
AcDbLine
6
CONTINUOUS
62
5
10
28.776468
20
174.948869
11
25.276468
21
174.011369
0
POLYLINE
5
29c
100
AcDbEntity
8
1
6
CONTINUOUS
62
5
100
AcDb2dPolyline
66
1
10
0.0
20
0.0
30
0.0
70
1
0
VERTEX
5
29d
100
AcDbEntity
8
1
100
AcDbVertex
100
AcDb2dVertex
62
5
10
28.776468
20
176.823869
0
VERTEX
5
29e
100
AcDbEntity
8
1
100
AcDbVertex
100
AcDb2dVertex
62
5
10
29.276468
20
177.448869
0
VERTEX
5
29f
100
AcDbEntity
8
1
100
AcDbVertex
100
AcDb2dVertex
62
5
10
29.526468
20
177.448869
0
VERTEX
5
2a0
100
AcDbEntity
8
1
100
AcDbVertex
100
AcDb2dVertex
62
5
10
30.026468
20
176.823869
0
VERTEX
5
2a1
100
AcDbEntity
8
1
100
AcDbVertex
100
AcDb2dVertex
62
5
10
30.026468
20
176.511369
0
VERTEX
5
2a2
100
AcDbEntity
8
1
100
AcDbVertex
100
AcDb2dVertex
62
5
10
29.526468
20
175.886369
0
VERTEX
5
2a3
100
AcDbEntity
8
1
100
AcDbVertex
100
AcDb2dVertex
62
5
10
29.276468
20
175.886369
0
VERTEX
5
2a4
100
AcDbEntity
8
1
100
AcDbVertex
100
AcDb2dVertex
62
5
10
28.776468
20
176.511369
0
VERTEX
5
2a5
100
AcDbEntity
8
1
100
AcDbVertex
100
AcDb2dVertex
62
5
10
28.776468
20
176.823869
0
SEQEND
5
2a6
100
AcDbEntity
8
1
0
POLYLINE
5
2a7
100
AcDbEntity
8
1
6
CONTINUOUS
62
5
100
AcDb2dPolyline
66
1
10
0.0
20
0.0
30
0.0
70
0
0
VERTEX
5
2a8
100
AcDbEntity
8
1
100
AcDbVertex
100
AcDb2dVertex
62
5
10
34.026468
20
174.636369
0
VERTEX
5
2a9
100
AcDbEntity
8
1
100
AcDbVertex
100
AcDb2dVertex
62
5
10
36.026468
20
174.636369
0
VERTEX
5
2aa
100
AcDbEntity
8
1
100
AcDbVertex
100
AcDb2dVertex
62
5
10
35.776468
20
171.511369
0
SEQEND
5
2ab
100
AcDbEntity
8
1
0
LINE
5
2ac
100
AcDbEntity
8
1
100
AcDbLine
6
CONTINUOUS
62
5
10
33.276468
20
171.511369
11
37.526468
21
171.511369
0
POLYLINE
5
2ad
100
AcDbEntity
8
1
6
CONTINUOUS
62
5
100
AcDb2dPolyline
66
1
10
0.0
20
0.0
30
0.0
70
0
0
VERTEX
5
2ae
100
AcDbEntity
8
1
100
AcDbVertex
100
AcDb2dVertex
62
5
10
2.026468
20
178.386369
0
VERTEX
5
2af
100
AcDbEntity
8
1
100
AcDbVertex
100
AcDb2dVertex
62
5
10
1.026468
20
175.573869
0
VERTEX
5
2b0
100
AcDbEntity
8
1
100
AcDbVertex
100
AcDb2dVertex
62
5
10
-0.223532
20
173.386369
0
SEQEND
5
2b1
100
AcDbEntity
8
1
0
LINE
5
2b2
100
AcDbEntity
8
1
100
AcDbLine
6
CONTINUOUS
62
5
10
1.026468
20
175.573869
11
1.026468
21
169.636369
0
LINE
5
2b3
100
AcDbEntity
8
1
100
AcDbLine
6
CONTINUOUS
62
5
10
1.776468
20
175.573869
11
7.026468
21
175.573869
0
POLYLINE
5
2b4
100
AcDbEntity
8
1
6
CONTINUOUS
62
5
100
AcDb2dPolyline
66
1
10
0.0
20
0.0
30
0.0
70
0
0
VERTEX
5
2b5
100
AcDbEntity
8
1
100
AcDbVertex
100
AcDb2dVertex
62
5
10
5.276468
20
178.386369
0
VERTEX
5
2b6
100
AcDbEntity
8
1
100
AcDbVertex
100
AcDb2dVertex
62
5
10
5.276468
20
169.948869
0
VERTEX
5
2b7
100
AcDbEntity
8
1
100
AcDbVertex
100
AcDb2dVertex
62
5
10
3.776468
20
170.261369
0
SEQEND
5
2b8
100
AcDbEntity
8
1
0
LINE
5
2b9
100
AcDbEntity
8
1
100
AcDbLine
6
CONTINUOUS
62
5
10
2.776468
20
174.323869
11
3.776468
21
172.448869
0
LINE
5
2ba
100
AcDbEntity
8
1
100
AcDbLine
6
CONTINUOUS
62
5
10
9.776468
20
176.198869
11
12.526468
21
176.823869
0
LINE
5
2bb
100
AcDbEntity
8
1
100
AcDbLine
6
CONTINUOUS
62
5
10
9.776468
20
174.323869
11
13.276468
21
175.261369
0
POLYLINE
5
2bc
100
AcDbEntity
8
1
6
CONTINUOUS
62
5
100
AcDb2dPolyline
66
1
10
0.0
20
0.0
30
0.0
70
0
0
VERTEX
5
2bd
100
AcDbEntity
8
1
100
AcDbVertex
100
AcDb2dVertex
62
5
10
10.776468
20
177.761369
0
VERTEX
5
2be
100
AcDbEntity
8
1
100
AcDbVertex
100
AcDb2dVertex
62
5
10
13.026468
20
172.761369
0
VERTEX
5
2bf
100
AcDbEntity
8
1
100
AcDbVertex
100
AcDb2dVertex
62
5
10
12.526468
20
172.761369
0
VERTEX
5
2c0
100
AcDbEntity
8
1
100
AcDbVertex
100
AcDb2dVertex
62
5
10
11.026468
20
173.386369
0
VERTEX
5
2c1
100
AcDbEntity
8
1
100
AcDbVertex
100
AcDb2dVertex
62
5
10
10.276468
20
173.386369
0
VERTEX
5
2c2
100
AcDbEntity
8
1
100
AcDbVertex
100
AcDb2dVertex
62
5
10
9.276468
20
172.448869
0
VERTEX
5
2c3
100
AcDbEntity
8
1
100
AcDbVertex
100
AcDb2dVertex
62
5
10
9.276468
20
171.823869
0
VERTEX
5
2c4
100
AcDbEntity
8
1
100
AcDbVertex
100
AcDb2dVertex
62
5
10
9.776468
20
171.198869
0
VERTEX
5
2c5
100
AcDbEntity
8
1
100
AcDbVertex
100
AcDb2dVertex
62
5
10
10.276468
20
170.886369
0
VERTEX
5
2c6
100
AcDbEntity
8
1
100
AcDbVertex
100
AcDb2dVertex
62
5
10
11.776468
20
170.886369
0
SEQEND
5
2c7
100
AcDbEntity
8
1
0
POLYLINE
5
2c8
100
AcDbEntity
8
1
6
CONTINUOUS
62
5
100
AcDb2dPolyline
66
1
10
0.0
20
0.0
30
0.0
70
0
0
VERTEX
5
2c9
100
AcDbEntity
8
1
100
AcDbVertex
100
AcDb2dVertex
62
5
10
-14.973532
20
188.073869
0
VERTEX
5
2ca
100
AcDbEntity
8
1
100
AcDbVertex
100
AcDb2dVertex
62
5
10
-14.973532
20
182.448869
0
VERTEX
5
2cb
100
AcDbEntity
8
1
100
AcDbVertex
100
AcDb2dVertex
62
5
10
-15.473532
20
181.198869
0
VERTEX
5
2cc
100
AcDbEntity
8
1
100
AcDbVertex
100
AcDb2dVertex
62
5
10
-15.973532
20
180.261369
0
SEQEND
5
2cd
100
AcDbEntity
8
1
0
POLYLINE
5
2ce
100
AcDbEntity
8
1
6
CONTINUOUS
62
5
100
AcDb2dPolyline
66
1
10
0.0
20
0.0
30
0.0
70
0
0
VERTEX
5
2cf
100
AcDbEntity
8
1
100
AcDbVertex
100
AcDb2dVertex
62
5
10
-10.973532
20
180.573869
0
VERTEX
5
2d0
100
AcDbEntity
8
1
100
AcDbVertex
100
AcDb2dVertex
62
5
10
-9.973532
20
179.948869
0
VERTEX
5
2d1
100
AcDbEntity
8
1
100
AcDbVertex
100
AcDb2dVertex
62
5
10
-9.973532
20
188.073869
0
VERTEX
5
2d2
100
AcDbEntity
8
1
100
AcDbVertex
100
AcDb2dVertex
62
5
10
-14.973532
20
188.073869
0
SEQEND
5
2d3
100
AcDbEntity
8
1
0
LINE
5
2d4
100
AcDbEntity
8
1
100
AcDbLine
6
CONTINUOUS
62
5
10
-14.973532
20
185.573869
11
-9.973532
21
185.573869
0
LINE
5
2d5
100
AcDbEntity
8
1
100
AcDbLine
6
CONTINUOUS
62
5
10
-12.473532
20
188.073869
11
-12.473532
21
179.948869
0
LINE
5
2d6
100
AcDbEntity
8
1
100
AcDbLine
6
CONTINUOUS
62
5
10
-14.973532
20
183.073869
11
-9.973532
21
183.073869
0
POLYLINE
5
2d7
100
AcDbEntity
8
1
6
CONTINUOUS
62
5
100
AcDb2dPolyline
66
1
10
0.0
20
0.0
30
0.0
70
0
0
VERTEX
5
2d8
100
AcDbEntity
8
1
100
AcDbVertex
100
AcDb2dVertex
62
5
10
-2.973532
20
187.136369
0
VERTEX
5
2d9
100
AcDbEntity
8
1
100
AcDbVertex
100
AcDb2dVertex
62
5
10
-3.723532
20
184.948869
0
VERTEX
5
2da
100
AcDbEntity
8
1
100
AcDbVertex
100
AcDb2dVertex
62
5
10
-4.473532
20
183.698869
0
VERTEX
5
2db
100
AcDbEntity
8
1
100
AcDbVertex
100
AcDb2dVertex
62
5
10
-5.723532
20
182.136369
0
VERTEX
5
2dc
100
AcDbEntity
8
1
100
AcDbVertex
100
AcDb2dVertex
62
5
10
-6.973532
20
181.198869
0
SEQEND
5
2dd
100
AcDbEntity
8
1
0
POLYLINE
5
2de
100
AcDbEntity
8
1
6
CONTINUOUS
62
5
100
AcDb2dPolyline
66
1
10
0.0
20
0.0
30
0.0
70
0
0
VERTEX
5
2df
100
AcDbEntity
8
1
100
AcDbVertex
100
AcDb2dVertex
62
5
10
-5.473532
20
185.261369
0
VERTEX
5
2e0
100
AcDbEntity
8
1
100
AcDbVertex
100
AcDb2dVertex
62
5
10
-3.973532
20
184.011369
0
VERTEX
5
2e1
100
AcDbEntity
8
1
100
AcDbVertex
100
AcDb2dVertex
62
5
10
-2.973532
20
183.073869
0
SEQEND
5
2e2
100
AcDbEntity
8
1
0
POLYLINE
5
2e3
100
AcDbEntity
8
1
6
CONTINUOUS
62
5
100
AcDb2dPolyline
66
1
10
0.0
20
0.0
30
0.0
70
0
0
VERTEX
5
2e4
100
AcDbEntity
8
1
100
AcDbVertex
100
AcDb2dVertex
62
5
10
-35.973532
20
196.606688
0
VERTEX
5
2e5
100
AcDbEntity
8
1
100
AcDbVertex
100
AcDb2dVertex
62
5
10
-36.473532
20
197.606688
0
VERTEX
5
2e6
100
AcDbEntity
8
1
100
AcDbVertex
100
AcDb2dVertex
62
5
10
-37.223532
20
197.856688
0
VERTEX
5
2e7
100
AcDbEntity
8
1
100
AcDbVertex
100
AcDb2dVertex
62
5
10
-37.723532
20
197.856688
0
VERTEX
5
2e8
100
AcDbEntity
8
1
100
AcDbVertex
100
AcDb2dVertex
62
5
10
-38.223532
20
197.606688
0
VERTEX
5
2e9
100
AcDbEntity
8
1
100
AcDbVertex
100
AcDb2dVertex
62
5
10
-38.723532
20
196.856688
0
VERTEX
5
2ea
100
AcDbEntity
8
1
100
AcDbVertex
100
AcDb2dVertex
62
5
10
-38.723532
20
196.106688
0
VERTEX
5
2eb
100
AcDbEntity
8
1
100
AcDbVertex
100
AcDb2dVertex
62
5
10
-38.223532
20
195.356688
0
VERTEX
5
2ec
100
AcDbEntity
8
1
100
AcDbVertex
100
AcDb2dVertex
62
5
10
-36.473532
20
194.356688
0
VERTEX
5
2ed
100
AcDbEntity
8
1
100
AcDbVertex
100
AcDb2dVertex
62
5
10
-35.973532
20
193.606688
0
VERTEX
5
2ee
100
AcDbEntity
8
1
100
AcDbVertex
100
AcDb2dVertex
62
5
10
-35.973532
20
192.856688
0
VERTEX
5
2ef
100
AcDbEntity
8
1
100
AcDbVertex
100
AcDb2dVertex
62
5
10
-36.473532
20
192.106688
0
VERTEX
5
2f0
100
AcDbEntity
8
1
100
AcDbVertex
100
AcDb2dVertex
62
5
10
-37.223532
20
191.856688
0
VERTEX
5
2f1
100
AcDbEntity
8
1
100
AcDbVertex
100
AcDb2dVertex
62
5
10
-37.723532
20
191.856688
0
VERTEX
5
2f2
100
AcDbEntity
8
1
100
AcDbVertex
100
AcDb2dVertex
62
5
10
-38.473532
20
192.356688
0
VERTEX
5
2f3
100
AcDbEntity
8
1
100
AcDbVertex
100
AcDb2dVertex
62
5
10
-38.723532
20
193.356688
0
SEQEND
5
2f4
100
AcDbEntity
8
1
0
POLYLINE
5
2f5
100
AcDbEntity
8
1
6
CONTINUOUS
62
5
100
AcDb2dPolyline
66
1
10
0.0
20
0.0
30
0.0
70
0
0
VERTEX
5
2f6
100
AcDbEntity
8
1
100
AcDbVertex
100
AcDb2dVertex
62
5
10
-34.473532
20
197.856688
0
VERTEX
5
2f7
100
AcDbEntity
8
1
100
AcDbVertex
100
AcDb2dVertex
62
5
10
-34.473532
20
191.856688
0
VERTEX
5
2f8
100
AcDbEntity
8
1
100
AcDbVertex
100
AcDb2dVertex
62
5
10
-31.973532
20
191.856688
0
SEQEND
5
2f9
100
AcDbEntity
8
1
0
LINE
5
2fa
100
AcDbEntity
8
1
100
AcDbLine
6
CONTINUOUS
62
5
10
-29.973532
20
197.856688
11
-28.473532
21
197.856688
0
LINE
5
2fb
100
AcDbEntity
8
1
100
AcDbLine
6
CONTINUOUS
62
5
10
-29.223532
20
197.856688
11
-29.223532
21
191.856688
0
LINE
5
2fc
100
AcDbEntity
8
1
100
AcDbLine
6
CONTINUOUS
62
5
10
-29.973532
20
191.856688
11
-28.473532
21
191.856688
0
POLYLINE
5
2fd
100
AcDbEntity
8
1
6
CONTINUOUS
62
5
100
AcDb2dPolyline
66
1
10
0.0
20
0.0
30
0.0
70
0
0
VERTEX
5
2fe
100
AcDbEntity
8
1
100
AcDbVertex
100
AcDb2dVertex
62
5
10
-26.473532
20
191.856688
0
VERTEX
5
2ff
100
AcDbEntity
8
1
100
AcDbVertex
100
AcDb2dVertex
62
5
10
-26.473532
20
197.856688
0
VERTEX
5
300
100
AcDbEntity
8
1
100
AcDbVertex
100
AcDb2dVertex
62
5
10
-25.223532
20
191.856688
0
VERTEX
5
301
100
AcDbEntity
8
1
100
AcDbVertex
100
AcDb2dVertex
62
5
10
-23.973532
20
197.856688
0
VERTEX
5
302
100
AcDbEntity
8
1
100
AcDbVertex
100
AcDb2dVertex
62
5
10
-23.973532
20
191.856688
0
SEQEND
5
303
100
AcDbEntity
8
1
0
POLYLINE
5
304
100
AcDbEntity
8
1
6
CONTINUOUS
62
5
100
AcDb2dPolyline
66
1
10
0.0
20
0.0
30
0.0
70
0
0
VERTEX
5
305
100
AcDbEntity
8
1
100
AcDbVertex
100
AcDb2dVertex
62
5
10
-23.973532
20
185.886369
0
VERTEX
5
306
100
AcDbEntity
8
1
100
AcDbVertex
100
AcDb2dVertex
62
5
10
-23.223532
20
186.511369
0
VERTEX
5
307
100
AcDbEntity
8
1
100
AcDbVertex
100
AcDb2dVertex
62
5
10
-22.473532
20
187.761369
0
VERTEX
5
308
100
AcDbEntity
8
1
100
AcDbVertex
100
AcDb2dVertex
62
5
10
-21.973532
20
188.698869
0
SEQEND
5
309
100
AcDbEntity
8
1
0
LINE
5
30a
100
AcDbEntity
8
1
100
AcDbLine
6
CONTINUOUS
62
5
10
-22.473532
20
187.761369
11
-17.723532
21
187.761369
0
LINE
5
30b
100
AcDbEntity
8
1
100
AcDbLine
6
CONTINUOUS
62
5
10
-22.223532
20
186.198869
11
-18.473532
21
186.198869
0
POLYLINE
5
30c
100
AcDbEntity
8
1
6
CONTINUOUS
62
5
100
AcDb2dPolyline
66
1
10
0.0
20
0.0
30
0.0
70
0
0
VERTEX
5
30d
100
AcDbEntity
8
1
100
AcDbVertex
100
AcDb2dVertex
62
5
10
-23.223532
20
184.948869
0
VERTEX
5
30e
100
AcDbEntity
8
1
100
AcDbVertex
100
AcDb2dVertex
62
5
10
-18.473532
20
184.948869
0
VERTEX
5
30f
100
AcDbEntity
8
1
100
AcDbVertex
100
AcDb2dVertex
62
5
10
-18.473532
20
181.823869
0
VERTEX
5
310
100
AcDbEntity
8
1
100
AcDbVertex
100
AcDb2dVertex
62
5
10
-18.223532
20
180.886369
0
VERTEX
5
311
100
AcDbEntity
8
1
100
AcDbVertex
100
AcDb2dVertex
62
5
10
-17.723532
20
179.948869
0
VERTEX
5
312
100
AcDbEntity
8
1
100
AcDbVertex
100
AcDb2dVertex
62
5
10
-17.223532
20
181.823869
0
SEQEND
5
313
100
AcDbEntity
8
1
0
POLYLINE
5
314
100
AcDbEntity
8
1
6
CONTINUOUS
62
5
100
AcDb2dPolyline
66
1
10
0.0
20
0.0
30
0.0
70
0
0
VERTEX
5
315
100
AcDbEntity
8
1
100
AcDbVertex
100
AcDb2dVertex
62
5
10
-22.223532
20
183.073869
0
VERTEX
5
316
100
AcDbEntity
8
1
100
AcDbVertex
100
AcDb2dVertex
62
5
10
-20.973532
20
182.136369
0
VERTEX
5
317
100
AcDbEntity
8
1
100
AcDbVertex
100
AcDb2dVertex
62
5
10
-19.973532
20
181.198869
0
SEQEND
5
318
100
AcDbEntity
8
1
0
POLYLINE
5
319
100
AcDbEntity
8
1
6
CONTINUOUS
62
5
100
AcDb2dPolyline
66
1
10
0.0
20
0.0
30
0.0
70
0
0
VERTEX
5
31a
100
AcDbEntity
8
1
100
AcDbVertex
100
AcDb2dVertex
62
5
10
-19.973532
20
183.698869
0
VERTEX
5
31b
100
AcDbEntity
8
1
100
AcDbVertex
100
AcDb2dVertex
62
5
10
-21.473532
20
181.823869
0
VERTEX
5
31c
100
AcDbEntity
8
1
100
AcDbVertex
100
AcDb2dVertex
62
5
10
-22.723532
20
180.886369
0
VERTEX
5
31d
100
AcDbEntity
8
1
100
AcDbVertex
100
AcDb2dVertex
62
5
10
-23.973532
20
180.261369
0
SEQEND
5
31e
100
AcDbEntity
8
1
0
LINE
5
31f
100
AcDbEntity
8
1
100
AcDbLine
6
CONTINUOUS
62
5
10
-14.223532
20
174.636369
11
-13.973532
21
173.386369
0
LINE
5
320
100
AcDbEntity
8
1
100
AcDbLine
6
CONTINUOUS
62
5
10
-12.723532
20
174.948869
11
-12.473532
21
173.698869
0
POLYLINE
5
321
100
AcDbEntity
8
1
6
CONTINUOUS
62
5
100
AcDb2dPolyline
66
1
10
0.0
20
0.0
30
0.0
70
0
0
VERTEX
5
322
100
AcDbEntity
8
1
100
AcDbVertex
100
AcDb2dVertex
62
5
10
-10.723532
20
174.948869
0
VERTEX
5
323
100
AcDbEntity
8
1
100
AcDbVertex
100
AcDb2dVertex
62
5
10
-10.973532
20
173.386369
0
VERTEX
5
324
100
AcDbEntity
8
1
100
AcDbVertex
100
AcDb2dVertex
62
5
10
-12.223532
20
171.511369
0
VERTEX
5
325
100
AcDbEntity
8
1
100
AcDbVertex
100
AcDb2dVertex
62
5
10
-13.223532
20
170.573869
0
SEQEND
5
326
100
AcDbEntity
8
1
0
LINE
5
327
100
AcDbEntity
8
1
100
AcDbLine
6
CONTINUOUS
62
5
10
-38.723532
20
176.511369
11
-37.723532
21
175.261369
0
POLYLINE
5
328
100
AcDbEntity
8
1
6
CONTINUOUS
62
5
100
AcDb2dPolyline
66
1
10
0.0
20
0.0
30
0.0
70
0
0
VERTEX
5
329
100
AcDbEntity
8
1
100
AcDbVertex
100
AcDb2dVertex
62
5
10
-38.973532
20
171.511369
0
VERTEX
5
32a
100
AcDbEntity
8
1
100
AcDbVertex
100
AcDb2dVertex
62
5
10
-37.223532
20
172.448869
0
VERTEX
5
32b
100
AcDbEntity
8
1
100
AcDbVertex
100
AcDb2dVertex
62
5
10
-35.723532
20
173.698869
0
VERTEX
5
32c
100
AcDbEntity
8
1
100
AcDbVertex
100
AcDb2dVertex
62
5
10
-34.223532
20
175.261369
0
SEQEND
5
32d
100
AcDbEntity
8
1
0
POLYLINE
5
32e
100
AcDbEntity
8
1
6
CONTINUOUS
62
5
100
AcDb2dPolyline
66
1
10
0.0
20
0.0
30
0.0
70
0
0
VERTEX
5
32f
100
AcDbEntity
8
1
100
AcDbVertex
100
AcDb2dVertex
62
5
10
-30.723532
20
174.323869
0
VERTEX
5
330
100
AcDbEntity
8
1
100
AcDbVertex
100
AcDb2dVertex
62
5
10
-29.723532
20
175.573869
0
VERTEX
5
331
100
AcDbEntity
8
1
100
AcDbVertex
100
AcDb2dVertex
62
5
10
-29.223532
20
176.511369
0
VERTEX
5
332
100
AcDbEntity
8
1
100
AcDbVertex
100
AcDb2dVertex
62
5
10
-26.723532
20
176.511369
0
VERTEX
5
333
100
AcDbEntity
8
1
100
AcDbVertex
100
AcDb2dVertex
62
5
10
-26.723532
20
176.198869
0
VERTEX
5
334
100
AcDbEntity
8
1
100
AcDbVertex
100
AcDb2dVertex
62
5
10
-27.473532
20
174.323869
0
VERTEX
5
335
100
AcDbEntity
8
1
100
AcDbVertex
100
AcDb2dVertex
62
5
10
-28.723532
20
172.448869
0
VERTEX
5
336
100
AcDbEntity
8
1
100
AcDbVertex
100
AcDb2dVertex
62
5
10
-30.223532
20
170.886369
0
SEQEND
5
337
100
AcDbEntity
8
1
0
LINE
5
338
100
AcDbEntity
8
1
100
AcDbLine
6
CONTINUOUS
62
5
10
-22.473532
20
176.511369
11
-18.723532
21
177.136369
0
LINE
5
339
100
AcDbEntity
8
1
100
AcDbLine
6
CONTINUOUS
62
5
10
-23.723532
20
174.636369
11
-17.723532
21
174.636369
0
POLYLINE
5
33a
100
AcDbEntity
8
1
6
CONTINUOUS
62
5
100
AcDb2dPolyline
66
1
10
0.0
20
0.0
30
0.0
70
0
0
VERTEX
5
33b
100
AcDbEntity
8
1
100
AcDbVertex
100
AcDb2dVertex
62
5
10
-20.473532
20
176.823869
0
VERTEX
5
33c
100
AcDbEntity
8
1
100
AcDbVertex
100
AcDb2dVertex
62
5
10
-20.473532
20
174.636369
0
VERTEX
5
33d
100
AcDbEntity
8
1
100
AcDbVertex
100
AcDb2dVertex
62
5
10
-20.723532
20
173.073869
0
VERTEX
5
33e
100
AcDbEntity
8
1
100
AcDbVertex
100
AcDb2dVertex
62
5
10
-21.473532
20
171.823869
0
VERTEX
5
33f
100
AcDbEntity
8
1
100
AcDbVertex
100
AcDb2dVertex
62
5
10
-22.223532
20
170.886369
0
SEQEND
5
340
100
AcDbEntity
8
1
0
POLYLINE
5
341
100
AcDbEntity
8
1
6
CONTINUOUS
62
5
100
AcDb2dPolyline
66
1
10
0.0
20
0.0
30
0.0
70
0
0
VERTEX
5
342
100
AcDbEntity
8
1
100
AcDbVertex
100
AcDb2dVertex
62
5
10
-39.973532
20
179.636369
0
VERTEX
5
343
100
AcDbEntity
8
1
100
AcDbVertex
100
AcDb2dVertex
62
5
10
-39.973532
20
188.386369
0
VERTEX
5
344
100
AcDbEntity
8
1
100
AcDbVertex
100
AcDb2dVertex
62
5
10
-37.223532
20
188.386369
0
VERTEX
5
345
100
AcDbEntity
8
1
100
AcDbVertex
100
AcDb2dVertex
62
5
10
-37.223532
20
185.261369
0
VERTEX
5
346
100
AcDbEntity
8
1
100
AcDbVertex
100
AcDb2dVertex
62
5
10
-39.973532
20
185.261369
0
SEQEND
5
347
100
AcDbEntity
8
1
0
LINE
5
348
100
AcDbEntity
8
1
100
AcDbLine
6
CONTINUOUS
62
5
10
-39.973532
20
186.823869
11
-37.223532
21
186.823869
0
POLYLINE
5
349
100
AcDbEntity
8
1
6
CONTINUOUS
62
5
100
AcDb2dPolyline
66
1
10
0.0
20
0.0
30
0.0
70
0
0
VERTEX
5
34a
100
AcDbEntity
8
1
100
AcDbVertex
100
AcDb2dVertex
62
5
10
-33.223532
20
185.261369
0
VERTEX
5
34b
100
AcDbEntity
8
1
100
AcDbVertex
100
AcDb2dVertex
62
5
10
-36.223532
20
185.261369
0
VERTEX
5
34c
100
AcDbEntity
8
1
100
AcDbVertex
100
AcDb2dVertex
62
5
10
-36.223532
20
188.386369
0
VERTEX
5
34d
100
AcDbEntity
8
1
100
AcDbVertex
100
AcDb2dVertex
62
5
10
-33.223532
20
188.386369
0
VERTEX
5
34e
100
AcDbEntity
8
1
100
AcDbVertex
100
AcDb2dVertex
62
5
10
-33.223532
20
179.636369
0
VERTEX
5
34f
100
AcDbEntity
8
1
100
AcDbVertex
100
AcDb2dVertex
62
5
10
-33.973532
20
179.636369
0
SEQEND
5
350
100
AcDbEntity
8
1
0
LINE
5
351
100
AcDbEntity
8
1
100
AcDbLine
6
CONTINUOUS
62
5
10
-33.223532
20
186.823869
11
-36.223532
21
186.823869
0
POLYLINE
5
352
100
AcDbEntity
8
1
6
CONTINUOUS
62
5
100
AcDb2dPolyline
66
1
10
0.0
20
0.0
30
0.0
70
1
0
VERTEX
5
353
100
AcDbEntity
8
1
100
AcDbVertex
100
AcDb2dVertex
62
5
10
-38.223532
20
183.698869
0
VERTEX
5
354
100
AcDbEntity
8
1
100
AcDbVertex
100
AcDb2dVertex
62
5
10
-34.973532
20
183.698869
0
VERTEX
5
355
100
AcDbEntity
8
1
100
AcDbVertex
100
AcDb2dVertex
62
5
10
-34.973532
20
180.573869
0
VERTEX
5
356
100
AcDbEntity
8
1
100
AcDbVertex
100
AcDb2dVertex
62
5
10
-38.223532
20
180.573869
0
VERTEX
5
357
100
AcDbEntity
8
1
100
AcDbVertex
100
AcDb2dVertex
62
5
10
-38.223532
20
183.698869
0
SEQEND
5
358
100
AcDbEntity
8
1
0
LINE
5
359
100
AcDbEntity
8
1
100
AcDbLine
6
CONTINUOUS
62
5
10
-38.223532
20
182.136369
11
-34.973532
21
182.136369
0
LINE
5
35a
100
AcDbEntity
8
1
100
AcDbLine
6
CONTINUOUS
62
5
10
-32.223532
20
186.198869
11
-30.223532
21
186.198869
0
LINE
5
35b
100
AcDbEntity
8
1
100
AcDbLine
6
CONTINUOUS
62
5
10
-32.223532
20
183.073869
11
-30.223532
21
184.636369
0
POLYLINE
5
35c
100
AcDbEntity
8
1
6
CONTINUOUS
62
5
100
AcDb2dPolyline
66
1
10
0.0
20
0.0
30
0.0
70
0
0
VERTEX
5
35d
100
AcDbEntity
8
1
100
AcDbVertex
100
AcDb2dVertex
62
5
10
-31.223532
20
188.386369
0
VERTEX
5
35e
100
AcDbEntity
8
1
100
AcDbVertex
100
AcDb2dVertex
62
5
10
-31.223532
20
179.948869
0
VERTEX
5
35f
100
AcDbEntity
8
1
100
AcDbVertex
100
AcDb2dVertex
62
5
10
-31.723532
20
179.948869
0
SEQEND
5
360
100
AcDbEntity
8
1
0
LINE
5
361
100
AcDbEntity
8
1
100
AcDbLine
6
CONTINUOUS
62
5
10
-29.723532
20
186.823869
11
-28.723532
21
188.698869
0
POLYLINE
5
362
100
AcDbEntity
8
1
6
CONTINUOUS
62
5
100
AcDb2dPolyline
66
1
10
0.0
20
0.0
30
0.0
70
0
0
VERTEX
5
363
100
AcDbEntity
8
1
100
AcDbVertex
100
AcDb2dVertex
62
5
10
-28.973532
20
188.073869
0
VERTEX
5
364
100
AcDbEntity
8
1
100
AcDbVertex
100
AcDb2dVertex
62
5
10
-26.973532
20
188.073869
0
VERTEX
5
365
100
AcDbEntity
8
1
100
AcDbVertex
100
AcDb2dVertex
62
5
10
-27.973532
20
186.198869
0
SEQEND
5
366
100
AcDbEntity
8
1
0
POLYLINE
5
367
100
AcDbEntity
8
1
6
CONTINUOUS
62
5
100
AcDb2dPolyline
66
1
10
0.0
20
0.0
30
0.0
70
0
0
VERTEX
5
368
100
AcDbEntity
8
1
100
AcDbVertex
100
AcDb2dVertex
62
5
10
-29.473532
20
183.386369
0
VERTEX
5
369
100
AcDbEntity
8
1
100
AcDbVertex
100
AcDb2dVertex
62
5
10
-29.473532
20
186.198869
0
VERTEX
5
36a
100
AcDbEntity
8
1
100
AcDbVertex
100
AcDb2dVertex
62
5
10
-25.973532
20
186.198869
0
VERTEX
5
36b
100
AcDbEntity
8
1
100
AcDbVertex
100
AcDb2dVertex
62
5
10
-25.973532
20
183.386369
0
SEQEND
5
36c
100
AcDbEntity
8
1
0
POLYLINE
5
36d
100
AcDbEntity
8
1
6
CONTINUOUS
62
5
100
AcDb2dPolyline
66
1
10
0.0
20
0.0
30
0.0
70
0
0
VERTEX
5
36e
100
AcDbEntity
8
1
100
AcDbVertex
100
AcDb2dVertex
62
5
10
-28.223532
20
186.198869
0
VERTEX
5
36f
100
AcDbEntity
8
1
100
AcDbVertex
100
AcDb2dVertex
62
5
10
-28.223532
20
184.948869
0
VERTEX
5
370
100
AcDbEntity
8
1
100
AcDbVertex
100
AcDb2dVertex
62
5
10
-28.973532
20
184.011369
0
SEQEND
5
371
100
AcDbEntity
8
1
0
POLYLINE
5
372
100
AcDbEntity
8
1
6
CONTINUOUS
62
5
100
AcDb2dPolyline
66
1
10
0.0
20
0.0
30
0.0
70
0
0
VERTEX
5
373
100
AcDbEntity
8
1
100
AcDbVertex
100
AcDb2dVertex
62
5
10
-27.223532
20
186.198869
0
VERTEX
5
374
100
AcDbEntity
8
1
100
AcDbVertex
100
AcDb2dVertex
62
5
10
-27.223532
20
184.011369
0
VERTEX
5
375
100
AcDbEntity
8
1
100
AcDbVertex
100
AcDb2dVertex
62
5
10
-26.223532
20
184.011369
0
SEQEND
5
376
100
AcDbEntity
8
1
0
LINE
5
377
100
AcDbEntity
8
1
100
AcDbLine
6
CONTINUOUS
62
5
10
-30.473532
20
182.448869
11
-24.973532
21
182.448869
0
POLYLINE
5
378
100
AcDbEntity
8
1
6
CONTINUOUS
62
5
100
AcDb2dPolyline
66
1
10
0.0
20
0.0
30
0.0
70
0
0
VERTEX
5
379
100
AcDbEntity
8
1
100
AcDbVertex
100
AcDb2dVertex
62
5
10
-27.973532
20
183.698869
0
VERTEX
5
37a
100
AcDbEntity
8
1
100
AcDbVertex
100
AcDb2dVertex
62
5
10
-27.973532
20
182.448869
0
VERTEX
5
37b
100
AcDbEntity
8
1
100
AcDbVertex
100
AcDb2dVertex
62
5
10
-28.473532
20
181.198869
0
VERTEX
5
37c
100
AcDbEntity
8
1
100
AcDbVertex
100
AcDb2dVertex
62
5
10
-29.223532
20
180.261369
0
VERTEX
5
37d
100
AcDbEntity
8
1
100
AcDbVertex
100
AcDb2dVertex
62
5
10
-30.473532
20
179.636369
0
SEQEND
5
37e
100
AcDbEntity
8
1
0
POLYLINE
5
37f
100
AcDbEntity
8
1
6
CONTINUOUS
62
5
100
AcDb2dPolyline
66
1
10
0.0
20
0.0
30
0.0
70
0
0
VERTEX
5
380
100
AcDbEntity
8
1
100
AcDbVertex
100
AcDb2dVertex
62
5
10
-27.973532
20
182.448869
0
VERTEX
5
381
100
AcDbEntity
8
1
100
AcDbVertex
100
AcDb2dVertex
62
5
10
-27.223532
20
181.198869
0
VERTEX
5
382
100
AcDbEntity
8
1
100
AcDbVertex
100
AcDb2dVertex
62
5
10
-26.223532
20
180.261369
0
VERTEX
5
383
100
AcDbEntity
8
1
100
AcDbVertex
100
AcDb2dVertex
62
5
10
-25.223532
20
179.636369
0
SEQEND
5
384
100
AcDbEntity
8
1
0
POLYLINE
5
385
100
AcDbEntity
8
1
6
CONTINUOUS
62
5
100
AcDb2dPolyline
66
1
10
0.0
20
0.0
30
0.0
70
0
0
VERTEX
5
386
100
AcDbEntity
8
1
100
AcDbVertex
100
AcDb2dVertex
62
5
10
-7.473532
20
176.198869
0
VERTEX
5
387
100
AcDbEntity
8
1
100
AcDbVertex
100
AcDb2dVertex
62
5
10
-3.223532
20
176.198869
0
VERTEX
5
388
100
AcDbEntity
8
1
100
AcDbVertex
100
AcDb2dVertex
62
5
10
-3.223532
20
175.573869
0
VERTEX
5
389
100
AcDbEntity
8
1
100
AcDbVertex
100
AcDb2dVertex
62
5
10
-3.473532
20
174.636369
0
VERTEX
5
38a
100
AcDbEntity
8
1
100
AcDbVertex
100
AcDb2dVertex
62
5
10
-3.973532
20
173.698869
0
VERTEX
5
38b
100
AcDbEntity
8
1
100
AcDbVertex
100
AcDb2dVertex
62
5
10
-4.723532
20
172.448869
0
VERTEX
5
38c
100
AcDbEntity
8
1
100
AcDbVertex
100
AcDb2dVertex
62
5
10
-5.473532
20
171.823869
0
VERTEX
5
38d
100
AcDbEntity
8
1
100
AcDbVertex
100
AcDb2dVertex
62
5
10
-6.723532
20
170.886369
0
SEQEND
5
38e
100
AcDbEntity
8
1
0
POLYLINE
5
38f
100
AcDbEntity
8
1
6
CONTINUOUS
62
5
100
AcDb2dPolyline
66
1
10
0.0
20
0.0
30
0.0
70
1
0
VERTEX
5
390
100
AcDbEntity
8
1
100
AcDbVertex
100
AcDb2dVertex
62
5
10
-2.473532
20
177.761369
0
VERTEX
5
391
100
AcDbEntity
8
1
100
AcDbVertex
100
AcDb2dVertex
62
5
10
-1.973532
20
177.761369
0
VERTEX
5
392
100
AcDbEntity
8
1
100
AcDbVertex
100
AcDb2dVertex
62
5
10
-1.723532
20
177.448869
0
VERTEX
5
393
100
AcDbEntity
8
1
100
AcDbVertex
100
AcDb2dVertex
62
5
10
-1.723532
20
176.823869
0
VERTEX
5
394
100
AcDbEntity
8
1
100
AcDbVertex
100
AcDb2dVertex
62
5
10
-1.973532
20
176.511369
0
VERTEX
5
395
100
AcDbEntity
8
1
100
AcDbVertex
100
AcDb2dVertex
62
5
10
-2.473532
20
176.511369
0
VERTEX
5
396
100
AcDbEntity
8
1
100
AcDbVertex
100
AcDb2dVertex
62
5
10
-2.723532
20
176.823869
0
VERTEX
5
397
100
AcDbEntity
8
1
100
AcDbVertex
100
AcDb2dVertex
62
5
10
-2.723532
20
177.448869
0
VERTEX
5
398
100
AcDbEntity
8
1
100
AcDbVertex
100
AcDb2dVertex
62
5
10
-2.473532
20
177.761369
0
SEQEND
5
399
100
AcDbEntity
8
1
0
POLYLINE
5
39a
100
AcDbEntity
8
1
6
CONTINUOUS
62
5
100
AcDb2dPolyline
66
1
10
0.0
20
0.0
30
0.0
70
0
0
VERTEX
5
39b
100
AcDbEntity
8
1
100
AcDbVertex
100
AcDb2dVertex
62
5
10
-55.473532
20
185.886369
0
VERTEX
5
39c
100
AcDbEntity
8
1
100
AcDbVertex
100
AcDb2dVertex
62
5
10
-55.223532
20
187.448869
0
VERTEX
5
39d
100
AcDbEntity
8
1
100
AcDbVertex
100
AcDb2dVertex
62
5
10
-54.473532
20
188.073869
0
VERTEX
5
39e
100
AcDbEntity
8
1
100
AcDbVertex
100
AcDb2dVertex
62
5
10
-53.723532
20
188.073869
0
VERTEX
5
39f
100
AcDbEntity
8
1
100
AcDbVertex
100
AcDb2dVertex
62
5
10
-53.223532
20
187.761369
0
VERTEX
5
3a0
100
AcDbEntity
8
1
100
AcDbVertex
100
AcDb2dVertex
62
5
10
-52.973532
20
186.823869
0
VERTEX
5
3a1
100
AcDbEntity
8
1
100
AcDbVertex
100
AcDb2dVertex
62
5
10
-52.973532
20
185.886369
0
VERTEX
5
3a2
100
AcDbEntity
8
1
100
AcDbVertex
100
AcDb2dVertex
62
5
10
-53.223532
20
184.948869
0
VERTEX
5
3a3
100
AcDbEntity
8
1
100
AcDbVertex
100
AcDb2dVertex
62
5
10
-55.473532
20
180.573869
0
VERTEX
5
3a4
100
AcDbEntity
8
1
100
AcDbVertex
100
AcDb2dVertex
62
5
10
-52.973532
20
180.573869
0
VERTEX
5
3a5
100
AcDbEntity
8
1
100
AcDbVertex
100
AcDb2dVertex
62
5
10
-52.973532
20
181.511369
0
SEQEND
5
3a6
100
AcDbEntity
8
1
0
POLYLINE
5
3a7
100
AcDbEntity
8
1
6
CONTINUOUS
62
5
100
AcDb2dPolyline
66
1
10
0.0
20
0.0
30
0.0
70
0
0
VERTEX
5
3a8
100
AcDbEntity
8
1
100
AcDbVertex
100
AcDb2dVertex
62
5
10
-49.473532
20
188.073869
0
VERTEX
5
3a9
100
AcDbEntity
8
1
100
AcDbVertex
100
AcDb2dVertex
62
5
10
-51.723532
20
182.448869
0
VERTEX
5
3aa
100
AcDbEntity
8
1
100
AcDbVertex
100
AcDb2dVertex
62
5
10
-48.723532
20
182.448869
0
SEQEND
5
3ab
100
AcDbEntity
8
1
0
LINE
5
3ac
100
AcDbEntity
8
1
100
AcDbLine
6
CONTINUOUS
62
5
10
-49.473532
20
188.073869
11
-49.473532
21
180.573869
0
LINE
5
3ad
100
AcDbEntity
8
1
100
AcDbLine
6
CONTINUOUS
62
5
10
-49.973532
20
180.573869
11
-48.973532
21
180.573869
0
POLYLINE
5
3ae
100
AcDbEntity
8
1
6
CONTINUOUS
62
5
100
AcDb2dPolyline
66
1
10
0.0
20
0.0
30
0.0
70
0
0
VERTEX
5
3af
100
AcDbEntity
8
1
100
AcDbVertex
100
AcDb2dVertex
62
5
10
-58.723532
20
197.856688
0
VERTEX
5
3b0
100
AcDbEntity
8
1
100
AcDbVertex
100
AcDb2dVertex
62
5
10
-57.973532
20
191.856688
0
VERTEX
5
3b1
100
AcDbEntity
8
1
100
AcDbVertex
100
AcDb2dVertex
62
5
10
-57.223532
20
197.856688
0
VERTEX
5
3b2
100
AcDbEntity
8
1
100
AcDbVertex
100
AcDb2dVertex
62
5
10
-56.473532
20
191.856688
0
VERTEX
5
3b3
100
AcDbEntity
8
1
100
AcDbVertex
100
AcDb2dVertex
62
5
10
-55.723532
20
197.856688
0
SEQEND
5
3b4
100
AcDbEntity
8
1
0
LINE
5
3b5
100
AcDbEntity
8
1
100
AcDbLine
6
CONTINUOUS
62
5
10
-53.973532
20
197.856688
11
-52.473532
21
197.856688
0
LINE
5
3b6
100
AcDbEntity
8
1
100
AcDbLine
6
CONTINUOUS
62
5
10
-53.223532
20
197.856688
11
-53.223532
21
191.856688
0
LINE
5
3b7
100
AcDbEntity
8
1
100
AcDbLine
6
CONTINUOUS
62
5
10
-53.973532
20
191.856688
11
-52.473532
21
191.856688
0
LINE
5
3b8
100
AcDbEntity
8
1
100
AcDbLine
6
CONTINUOUS
62
5
10
-50.473532
20
197.856688
11
-50.473532
21
191.856688
0
POLYLINE
5
3b9
100
AcDbEntity
8
1
6
CONTINUOUS
62
5
100
AcDb2dPolyline
66
1
10
0.0
20
0.0
30
0.0
70
0
0
VERTEX
5
3ba
100
AcDbEntity
8
1
100
AcDbVertex
100
AcDb2dVertex
62
5
10
-50.473532
20
197.856688
0
VERTEX
5
3bb
100
AcDbEntity
8
1
100
AcDbVertex
100
AcDb2dVertex
62
5
10
-49.223532
20
197.856688
0
VERTEX
5
3bc
100
AcDbEntity
8
1
100
AcDbVertex
100
AcDb2dVertex
62
5
10
-48.723532
20
197.606688
0
VERTEX
5
3bd
100
AcDbEntity
8
1
100
AcDbVertex
100
AcDb2dVertex
62
5
10
-48.223532
20
197.106688
0
VERTEX
5
3be
100
AcDbEntity
8
1
100
AcDbVertex
100
AcDb2dVertex
62
5
10
-47.973532
20
196.106688
0
VERTEX
5
3bf
100
AcDbEntity
8
1
100
AcDbVertex
100
AcDb2dVertex
62
5
10
-47.973532
20
193.606688
0
VERTEX
5
3c0
100
AcDbEntity
8
1
100
AcDbVertex
100
AcDb2dVertex
62
5
10
-48.223532
20
192.606688
0
VERTEX
5
3c1
100
AcDbEntity
8
1
100
AcDbVertex
100
AcDb2dVertex
62
5
10
-48.723532
20
192.106688
0
VERTEX
5
3c2
100
AcDbEntity
8
1
100
AcDbVertex
100
AcDb2dVertex
62
5
10
-49.223532
20
191.856688
0
VERTEX
5
3c3
100
AcDbEntity
8
1
100
AcDbVertex
100
AcDb2dVertex
62
5
10
-50.473532
20
191.856688
0
SEQEND
5
3c4
100
AcDbEntity
8
1
0
POLYLINE
5
3c5
100
AcDbEntity
8
1
6
CONTINUOUS
62
5
100
AcDb2dPolyline
66
1
10
0.0
20
0.0
30
0.0
70
0
0
VERTEX
5
3c6
100
AcDbEntity
8
1
100
AcDbVertex
100
AcDb2dVertex
62
5
10
-43.973532
20
197.856688
0
VERTEX
5
3c7
100
AcDbEntity
8
1
100
AcDbVertex
100
AcDb2dVertex
62
5
10
-46.473532
20
197.856688
0
VERTEX
5
3c8
100
AcDbEntity
8
1
100
AcDbVertex
100
AcDb2dVertex
62
5
10
-46.473532
20
191.856688
0
VERTEX
5
3c9
100
AcDbEntity
8
1
100
AcDbVertex
100
AcDb2dVertex
62
5
10
-43.723532
20
191.856688
0
SEQEND
5
3ca
100
AcDbEntity
8
1
0
LINE
5
3cb
100
AcDbEntity
8
1
100
AcDbLine
6
CONTINUOUS
62
5
10
-46.473532
20
194.856688
11
-44.223532
21
194.856688
0
POLYLINE
5
3cc
100
AcDbEntity
8
1
6
CONTINUOUS
62
5
100
AcDb2dPolyline
66
1
10
0.0
20
0.0
30
0.0
70
0
0
VERTEX
5
3cd
100
AcDbEntity
8
1
100
AcDbVertex
100
AcDb2dVertex
62
5
10
-68.223532
20
197.856688
0
VERTEX
5
3ce
100
AcDbEntity
8
1
100
AcDbVertex
100
AcDb2dVertex
62
5
10
-68.223532
20
193.356688
0
VERTEX
5
3cf
100
AcDbEntity
8
1
100
AcDbVertex
100
AcDb2dVertex
62
5
10
-68.473532
20
192.356688
0
VERTEX
5
3d0
100
AcDbEntity
8
1
100
AcDbVertex
100
AcDb2dVertex
62
5
10
-68.973532
20
191.856688
0
VERTEX
5
3d1
100
AcDbEntity
8
1
100
AcDbVertex
100
AcDb2dVertex
62
5
10
-69.723532
20
191.856688
0
VERTEX
5
3d2
100
AcDbEntity
8
1
100
AcDbVertex
100
AcDb2dVertex
62
5
10
-70.223532
20
192.356688
0
VERTEX
5
3d3
100
AcDbEntity
8
1
100
AcDbVertex
100
AcDb2dVertex
62
5
10
-70.473532
20
193.356688
0
SEQEND
5
3d4
100
AcDbEntity
8
1
0
POLYLINE
5
3d5
100
AcDbEntity
8
1
6
CONTINUOUS
62
5
100
AcDb2dPolyline
66
1
10
0.0
20
0.0
30
0.0
70
0
0
VERTEX
5
3d6
100
AcDbEntity
8
1
100
AcDbVertex
100
AcDb2dVertex
62
5
10
-64.223532
20
194.856688
0
VERTEX
5
3d7
100
AcDbEntity
8
1
100
AcDbVertex
100
AcDb2dVertex
62
5
10
-63.723532
20
195.356688
0
VERTEX
5
3d8
100
AcDbEntity
8
1
100
AcDbVertex
100
AcDb2dVertex
62
5
10
-63.473532
20
195.356688
0
VERTEX
5
3d9
100
AcDbEntity
8
1
100
AcDbVertex
100
AcDb2dVertex
62
5
10
-62.973532
20
194.856688
0
VERTEX
5
3da
100
AcDbEntity
8
1
100
AcDbVertex
100
AcDb2dVertex
62
5
10
-62.973532
20
194.606688
0
VERTEX
5
3db
100
AcDbEntity
8
1
100
AcDbVertex
100
AcDb2dVertex
62
5
10
-63.473532
20
194.106688
0
VERTEX
5
3dc
100
AcDbEntity
8
1
100
AcDbVertex
100
AcDb2dVertex
62
5
10
-63.723532
20
194.106688
0
VERTEX
5
3dd
100
AcDbEntity
8
1
100
AcDbVertex
100
AcDb2dVertex
62
5
10
-64.223532
20
194.606688
0
VERTEX
5
3de
100
AcDbEntity
8
1
100
AcDbVertex
100
AcDb2dVertex
62
5
10
-64.223532
20
194.856688
0
VERTEX
5
3df
100
AcDbEntity
8
1
100
AcDbVertex
100
AcDb2dVertex
62
5
10
-62.973532
20
194.856688
0
SEQEND
5
3e0
100
AcDbEntity
8
1
0
LINE
5
3e1
100
AcDbEntity
8
1
100
AcDbLine
6
CONTINUOUS
62
5
10
-62.973532
20
194.606688
11
-64.223532
21
194.606688
0
LINE
5
3e2
100
AcDbEntity
8
1
100
AcDbLine
6
CONTINUOUS
62
5
10
-63.973532
20
194.356688
11
-63.223532
21
194.356688
0
LINE
5
3e3
100
AcDbEntity
8
1
100
AcDbLine
6
CONTINUOUS
62
5
10
-63.223532
20
195.106688
11
-63.973532
21
195.106688
0
POLYLINE
5
3e4
100
AcDbEntity
8
1
6
CONTINUOUS
62
5
100
AcDb2dPolyline
66
1
10
0.0
20
0.0
30
0.0
70
0
0
VERTEX
5
3e5
100
AcDbEntity
8
1
100
AcDbVertex
100
AcDb2dVertex
62
5
10
-55.223532
20
176.198869
0
VERTEX
5
3e6
100
AcDbEntity
8
1
100
AcDbVertex
100
AcDb2dVertex
62
5
10
-51.473532
20
176.198869
0
VERTEX
5
3e7
100
AcDbEntity
8
1
100
AcDbVertex
100
AcDb2dVertex
62
5
10
-51.473532
20
175.261369
0
VERTEX
5
3e8
100
AcDbEntity
8
1
100
AcDbVertex
100
AcDb2dVertex
62
5
10
-51.723532
20
174.011369
0
VERTEX
5
3e9
100
AcDbEntity
8
1
100
AcDbVertex
100
AcDb2dVertex
62
5
10
-52.223532
20
173.073869
0
VERTEX
5
3ea
100
AcDbEntity
8
1
100
AcDbVertex
100
AcDb2dVertex
62
5
10
-52.723532
20
172.136369
0
VERTEX
5
3eb
100
AcDbEntity
8
1
100
AcDbVertex
100
AcDb2dVertex
62
5
10
-54.223532
20
170.886369
0
SEQEND
5
3ec
100
AcDbEntity
8
1
0
LINE
5
3ed
100
AcDbEntity
8
1
100
AcDbLine
6
CONTINUOUS
62
5
10
-50.973532
20
177.448869
11
-50.223532
21
176.511369
0
LINE
5
3ee
100
AcDbEntity
8
1
100
AcDbLine
6
CONTINUOUS
62
5
10
-49.973532
20
178.073869
11
-49.473532
21
177.136369
0
POLYLINE
5
3ef
100
AcDbEntity
8
1
6
CONTINUOUS
62
5
100
AcDb2dPolyline
66
1
10
0.0
20
0.0
30
0.0
70
0
0
VERTEX
5
3f0
100
AcDbEntity
8
1
100
AcDbVertex
100
AcDb2dVertex
62
5
10
-46.973532
20
174.948869
0
VERTEX
5
3f1
100
AcDbEntity
8
1
100
AcDbVertex
100
AcDb2dVertex
62
5
10
-42.223532
20
174.948869
0
VERTEX
5
3f2
100
AcDbEntity
8
1
100
AcDbVertex
100
AcDb2dVertex
62
5
10
-42.223532
20
174.636369
0
VERTEX
5
3f3
100
AcDbEntity
8
1
100
AcDbVertex
100
AcDb2dVertex
62
5
10
-43.473532
20
172.448869
0
VERTEX
5
3f4
100
AcDbEntity
8
1
100
AcDbVertex
100
AcDb2dVertex
62
5
10
-44.473532
20
171.511369
0
VERTEX
5
3f5
100
AcDbEntity
8
1
100
AcDbVertex
100
AcDb2dVertex
62
5
10
-45.473532
20
170.886369
0
SEQEND
5
3f6
100
AcDbEntity
8
1
0
LINE
5
3f7
100
AcDbEntity
8
1
100
AcDbLine
6
CONTINUOUS
62
5
10
-46.223532
20
177.136369
11
-42.723532
21
177.136369
0
LINE
5
3f8
100
AcDbEntity
8
1
100
AcDbLine
6
CONTINUOUS
62
5
10
-81.473532
20
200.323869
11
-81.473532
21
168.323869
0
POLYLINE
5
3f9
100
AcDbEntity
8
1
6
CONTINUOUS
62
5
100
AcDb2dPolyline
66
1
10
0.0
20
0.0
30
0.0
70
0
0
VERTEX
5
3fa
100
AcDbEntity
8
1
100
AcDbVertex
100
AcDb2dVertex
62
5
10
-55.848532
20
149.261369
0
VERTEX
5
3fb
100
AcDbEntity
8
1
100
AcDbVertex
100
AcDb2dVertex
62
5
10
-56.473532
20
150.511369
0
VERTEX
5
3fc
100
AcDbEntity
8
1
100
AcDbVertex
100
AcDb2dVertex
62
5
10
-57.411032
20
150.823869
0
VERTEX
5
3fd
100
AcDbEntity
8
1
100
AcDbVertex
100
AcDb2dVertex
62
5
10
-58.036032
20
150.823869
0
VERTEX
5
3fe
100
AcDbEntity
8
1
100
AcDbVertex
100
AcDb2dVertex
62
5
10
-58.661032
20
150.511369
0
VERTEX
5
3ff
100
AcDbEntity
8
1
100
AcDbVertex
100
AcDb2dVertex
62
5
10
-59.286032
20
149.573869
0
VERTEX
5
400
100
AcDbEntity
8
1
100
AcDbVertex
100
AcDb2dVertex
62
5
10
-59.286032
20
148.636369
0
VERTEX
5
401
100
AcDbEntity
8
1
100
AcDbVertex
100
AcDb2dVertex
62
5
10
-58.661032
20
147.698869
0
VERTEX
5
402
100
AcDbEntity
8
1
100
AcDbVertex
100
AcDb2dVertex
62
5
10
-56.473532
20
146.448869
0
VERTEX
5
403
100
AcDbEntity
8
1
100
AcDbVertex
100
AcDb2dVertex
62
5
10
-55.848532
20
145.511369
0
VERTEX
5
404
100
AcDbEntity
8
1
100
AcDbVertex
100
AcDb2dVertex
62
5
10
-55.848532
20
144.573869
0
VERTEX
5
405
100
AcDbEntity
8
1
100
AcDbVertex
100
AcDb2dVertex
62
5
10
-56.473532
20
143.636369
0
VERTEX
5
406
100
AcDbEntity
8
1
100
AcDbVertex
100
AcDb2dVertex
62
5
10
-57.411032
20
143.323869
0
VERTEX
5
407
100
AcDbEntity
8
1
100
AcDbVertex
100
AcDb2dVertex
62
5
10
-58.036032
20
143.323869
0
VERTEX
5
408
100
AcDbEntity
8
1
100
AcDbVertex
100
AcDb2dVertex
62
5
10
-58.973532
20
143.948869
0
VERTEX
5
409
100
AcDbEntity
8
1
100
AcDbVertex
100
AcDb2dVertex
62
5
10
-59.286032
20
145.198869
0
SEQEND
5
40a
100
AcDbEntity
8
1
0
POLYLINE
5
40b
100
AcDbEntity
8
1
6
CONTINUOUS
62
5
100
AcDb2dPolyline
66
1
10
0.0
20
0.0
30
0.0
70
0
0
VERTEX
5
40c
100
AcDbEntity
8
1
100
AcDbVertex
100
AcDb2dVertex
62
5
10
-53.973532
20
143.323869
0
VERTEX
5
40d
100
AcDbEntity
8
1
100
AcDbVertex
100
AcDb2dVertex
62
5
10
-53.973532
20
150.823869
0
VERTEX
5
40e
100
AcDbEntity
8
1
100
AcDbVertex
100
AcDb2dVertex
62
5
10
-50.848532
20
143.323869
0
VERTEX
5
40f
100
AcDbEntity
8
1
100
AcDbVertex
100
AcDb2dVertex
62
5
10
-50.848532
20
150.823869
0
SEQEND
5
410
100
AcDbEntity
8
1
0
LINE
5
411
100
AcDbEntity
8
1
100
AcDbLine
6
CONTINUOUS
62
5
10
-48.973532
20
147.073869
11
-45.848532
21
147.073869
0
POLYLINE
5
412
100
AcDbEntity
8
1
6
CONTINUOUS
62
5
100
AcDb2dPolyline
66
1
10
0.0
20
0.0
30
0.0
70
0
0
VERTEX
5
413
100
AcDbEntity
8
1
100
AcDbVertex
100
AcDb2dVertex
62
5
10
-68.973532
20
150.823869
0
VERTEX
5
414
100
AcDbEntity
8
1
100
AcDbVertex
100
AcDb2dVertex
62
5
10
-67.411032
20
143.323869
0
VERTEX
5
415
100
AcDbEntity
8
1
100
AcDbVertex
100
AcDb2dVertex
62
5
10
-65.848532
20
150.823869
0
SEQEND
5
416
100
AcDbEntity
8
1
0
POLYLINE
5
417
100
AcDbEntity
8
1
6
CONTINUOUS
62
5
100
AcDb2dPolyline
66
1
10
0.0
20
0.0
30
0.0
70
0
0
VERTEX
5
418
100
AcDbEntity
8
1
100
AcDbVertex
100
AcDb2dVertex
62
5
10
-61.161032
20
150.823869
0
VERTEX
5
419
100
AcDbEntity
8
1
100
AcDbVertex
100
AcDb2dVertex
62
5
10
-61.161032
20
145.198869
0
VERTEX
5
41a
100
AcDbEntity
8
1
100
AcDbVertex
100
AcDb2dVertex
62
5
10
-61.473532
20
143.948869
0
VERTEX
5
41b
100
AcDbEntity
8
1
100
AcDbVertex
100
AcDb2dVertex
62
5
10
-62.098532
20
143.323869
0
VERTEX
5
41c
100
AcDbEntity
8
1
100
AcDbVertex
100
AcDb2dVertex
62
5
10
-63.036032
20
143.323869
0
VERTEX
5
41d
100
AcDbEntity
8
1
100
AcDbVertex
100
AcDb2dVertex
62
5
10
-63.661032
20
143.948869
0
VERTEX
5
41e
100
AcDbEntity
8
1
100
AcDbVertex
100
AcDb2dVertex
62
5
10
-63.973532
20
145.198869
0
SEQEND
5
41f
100
AcDbEntity
8
1
0
POLYLINE
5
420
100
AcDbEntity
8
1
6
CONTINUOUS
62
5
100
AcDb2dPolyline
66
1
10
0.0
20
0.0
30
0.0
70
1
0
VERTEX
5
421
100
AcDbEntity
8
1
100
AcDbVertex
100
AcDb2dVertex
62
5
10
-47.973532
20
187.761369
0
VERTEX
5
422
100
AcDbEntity
8
1
100
AcDbVertex
100
AcDb2dVertex
62
5
10
-47.973532
20
181.511369
0
VERTEX
5
423
100
AcDbEntity
8
1
100
AcDbVertex
100
AcDb2dVertex
62
5
10
-46.223532
20
181.511369
0
VERTEX
5
424
100
AcDbEntity
8
1
100
AcDbVertex
100
AcDb2dVertex
62
5
10
-46.223532
20
187.761369
0
VERTEX
5
425
100
AcDbEntity
8
1
100
AcDbVertex
100
AcDb2dVertex
62
5
10
-47.973532
20
187.761369
0
SEQEND
5
426
100
AcDbEntity
8
1
0
LINE
5
427
100
AcDbEntity
8
1
100
AcDbLine
6
CONTINUOUS
62
5
10
-47.973532
20
184.636369
11
-46.223532
21
184.636369
0
LINE
5
428
100
AcDbEntity
8
1
100
AcDbLine
6
CONTINUOUS
62
5
10
-45.223532
20
187.136369
11
-41.473532
21
187.136369
0
LINE
5
429
100
AcDbEntity
8
1
100
AcDbLine
6
CONTINUOUS
62
5
10
-45.723532
20
185.261369
11
-40.973532
21
185.261369
0
LINE
5
42a
100
AcDbEntity
8
1
100
AcDbLine
6
CONTINUOUS
62
5
10
-43.473532
20
188.698869
11
-43.473532
21
185.261369
0
LINE
5
42b
100
AcDbEntity
8
1
100
AcDbLine
6
CONTINUOUS
62
5
10
-45.473532
20
183.386369
11
-41.223532
21
183.386369
0
POLYLINE
5
42c
100
AcDbEntity
8
1
6
CONTINUOUS
62
5
100
AcDb2dPolyline
66
1
10
0.0
20
0.0
30
0.0
70
0
0
VERTEX
5
42d
100
AcDbEntity
8
1
100
AcDbVertex
100
AcDb2dVertex
62
5
10
-42.473532
20
184.636369
0
VERTEX
5
42e
100
AcDbEntity
8
1
100
AcDbVertex
100
AcDb2dVertex
62
5
10
-42.473532
20
180.573869
0
VERTEX
5
42f
100
AcDbEntity
8
1
100
AcDbVertex
100
AcDb2dVertex
62
5
10
-42.973532
20
179.948869
0
VERTEX
5
430
100
AcDbEntity
8
1
100
AcDbVertex
100
AcDb2dVertex
62
5
10
-43.473532
20
179.948869
0
SEQEND
5
431
100
AcDbEntity
8
1
0
LINE
5
432
100
AcDbEntity
8
1
100
AcDbLine
6
CONTINUOUS
62
5
10
-44.723532
20
182.136369
11
-44.223532
21
181.198869
0
POLYLINE
5
433
100
AcDbEntity
8
1
6
CONTINUOUS
62
5
100
AcDb2dPolyline
66
1
10
0.0
20
0.0
30
0.0
70
0
0
VERTEX
5
434
100
AcDbEntity
8
1
100
AcDbVertex
100
AcDb2dVertex
62
5
10
-43.348532
20
150.198869
0
VERTEX
5
435
100
AcDbEntity
8
1
100
AcDbVertex
100
AcDb2dVertex
62
5
10
-42.411032
20
150.823869
0
VERTEX
5
436
100
AcDbEntity
8
1
100
AcDbVertex
100
AcDb2dVertex
62
5
10
-42.411032
20
143.323869
0
SEQEND
5
437
100
AcDbEntity
8
1
0
LINE
5
438
100
AcDbEntity
8
1
100
AcDbLine
6
CONTINUOUS
62
5
10
-43.036032
20
143.323869
11
-41.786032
21
143.323869
0
LINE
5
439
100
AcDbEntity
8
1
100
AcDbLine
6
DOT2
62
5
10
-6.348532
20
93.198869
11
-6.973532
21
92.573869
0
POLYLINE
5
43a
100
AcDbEntity
8
1
6
DOT2
62
5
100
AcDb2dPolyline
66
1
10
0.0
20
0.0
30
0.0
70
0
0
VERTEX
5
43b
100
AcDbEntity
8
1
100
AcDbVertex
100
AcDb2dVertex
62
5
10
-6.973532
20
93.198869
0
VERTEX
5
43c
100
AcDbEntity
8
1
100
AcDbVertex
100
AcDb2dVertex
62
5
10
-6.348532
20
92.573869
0
VERTEX
5
43d
100
AcDbEntity
8
1
100
AcDbVertex
100
AcDb2dVertex
62
5
10
-6.973532
20
92.573869
0
VERTEX
5
43e
100
AcDbEntity
8
1
100
AcDbVertex
100
AcDb2dVertex
62
5
10
-6.973532
20
93.198869
0
VERTEX
5
43f
100
AcDbEntity
8
1
100
AcDbVertex
100
AcDb2dVertex
62
5
10
-6.348532
20
93.198869
0
VERTEX
5
440
100
AcDbEntity
8
1
100
AcDbVertex
100
AcDb2dVertex
62
5
10
-6.348532
20
92.573869
0
SEQEND
5
441
100
AcDbEntity
8
1
0
POLYLINE
5
442
100
AcDbEntity
8
1
6
DOT2
62
5
100
AcDb2dPolyline
66
1
10
0.0
20
0.0
30
0.0
70
0
0
VERTEX
5
443
100
AcDbEntity
8
1
100
AcDbVertex
100
AcDb2dVertex
62
5
10
-14.473532
20
100.073869
0
VERTEX
5
444
100
AcDbEntity
8
1
100
AcDbVertex
100
AcDb2dVertex
62
5
10
-17.286032
20
94.448869
0
VERTEX
5
445
100
AcDbEntity
8
1
100
AcDbVertex
100
AcDb2dVertex
62
5
10
-13.536032
20
94.448869
0
SEQEND
5
446
100
AcDbEntity
8
1
0
LINE
5
447
100
AcDbEntity
8
1
100
AcDbLine
6
DOT2
62
5
10
-14.473532
20
100.073869
11
-14.473532
21
92.573869
0
LINE
5
448
100
AcDbEntity
8
1
100
AcDbLine
6
DOT2
62
5
10
-15.098532
20
92.573869
11
-13.848532
21
92.573869
0
POLYLINE
5
449
100
AcDbEntity
8
1
6
DOT2
62
5
100
AcDb2dPolyline
66
1
10
0.0
20
0.0
30
0.0
70
0
0
VERTEX
5
44a
100
AcDbEntity
8
1
100
AcDbVertex
100
AcDb2dVertex
62
5
10
-9.473532
20
100.073869
0
VERTEX
5
44b
100
AcDbEntity
8
1
100
AcDbVertex
100
AcDb2dVertex
62
5
10
-10.411032
20
100.073869
0
VERTEX
5
44c
100
AcDbEntity
8
1
100
AcDbVertex
100
AcDb2dVertex
62
5
10
-11.348532
20
99.761369
0
VERTEX
5
44d
100
AcDbEntity
8
1
100
AcDbVertex
100
AcDb2dVertex
62
5
10
-11.973532
20
98.511369
0
VERTEX
5
44e
100
AcDbEntity
8
1
100
AcDbVertex
100
AcDb2dVertex
62
5
10
-11.973532
20
94.136369
0
VERTEX
5
44f
100
AcDbEntity
8
1
100
AcDbVertex
100
AcDb2dVertex
62
5
10
-11.661032
20
93.198869
0
VERTEX
5
450
100
AcDbEntity
8
1
100
AcDbVertex
100
AcDb2dVertex
62
5
10
-11.348532
20
92.886369
0
VERTEX
5
451
100
AcDbEntity
8
1
100
AcDbVertex
100
AcDb2dVertex
62
5
10
-10.723532
20
92.573869
0
VERTEX
5
452
100
AcDbEntity
8
1
100
AcDbVertex
100
AcDb2dVertex
62
5
10
-10.098532
20
92.573869
0
VERTEX
5
453
100
AcDbEntity
8
1
100
AcDbVertex
100
AcDb2dVertex
62
5
10
-9.473532
20
92.886369
0
VERTEX
5
454
100
AcDbEntity
8
1
100
AcDbVertex
100
AcDb2dVertex
62
5
10
-9.161032
20
93.198869
0
VERTEX
5
455
100
AcDbEntity
8
1
100
AcDbVertex
100
AcDb2dVertex
62
5
10
-8.848532
20
94.136369
0
VERTEX
5
456
100
AcDbEntity
8
1
100
AcDbVertex
100
AcDb2dVertex
62
5
10
-8.848532
20
96.011369
0
VERTEX
5
457
100
AcDbEntity
8
1
100
AcDbVertex
100
AcDb2dVertex
62
5
10
-9.161032
20
96.636369
0
VERTEX
5
458
100
AcDbEntity
8
1
100
AcDbVertex
100
AcDb2dVertex
62
5
10
-9.786032
20
96.948869
0
VERTEX
5
459
100
AcDbEntity
8
1
100
AcDbVertex
100
AcDb2dVertex
62
5
10
-11.036032
20
96.948869
0
VERTEX
5
45a
100
AcDbEntity
8
1
100
AcDbVertex
100
AcDb2dVertex
62
5
10
-11.973532
20
96.636369
0
SEQEND
5
45b
100
AcDbEntity
8
1
0
POLYLINE
5
45c
100
AcDbEntity
8
1
6
DOT2
62
5
100
AcDb2dPolyline
66
1
10
0.0
20
0.0
30
0.0
70
0
0
VERTEX
5
45d
100
AcDbEntity
8
1
100
AcDbVertex
100
AcDb2dVertex
62
5
10
-1.973532
20
98.198869
0
VERTEX
5
45e
100
AcDbEntity
8
1
100
AcDbVertex
100
AcDb2dVertex
62
5
10
-1.661032
20
99.448869
0
VERTEX
5
45f
100
AcDbEntity
8
1
100
AcDbVertex
100
AcDb2dVertex
62
5
10
-1.036032
20
100.073869
0
VERTEX
5
460
100
AcDbEntity
8
1
100
AcDbVertex
100
AcDb2dVertex
62
5
10
-0.098532
20
100.073869
0
VERTEX
5
461
100
AcDbEntity
8
1
100
AcDbVertex
100
AcDb2dVertex
62
5
10
0.526468
20
99.761369
0
VERTEX
5
462
100
AcDbEntity
8
1
100
AcDbVertex
100
AcDb2dVertex
62
5
10
0.838968
20
98.823869
0
VERTEX
5
463
100
AcDbEntity
8
1
100
AcDbVertex
100
AcDb2dVertex
62
5
10
0.838968
20
97.573869
0
VERTEX
5
464
100
AcDbEntity
8
1
100
AcDbVertex
100
AcDb2dVertex
62
5
10
0.526468
20
96.948869
0
VERTEX
5
465
100
AcDbEntity
8
1
100
AcDbVertex
100
AcDb2dVertex
62
5
10
-0.098532
20
96.323869
0
VERTEX
5
466
100
AcDbEntity
8
1
100
AcDbVertex
100
AcDb2dVertex
62
5
10
-1.036032
20
96.323869
0
SEQEND
5
467
100
AcDbEntity
8
1
0
POLYLINE
5
468
100
AcDbEntity
8
1
6
DOT2
62
5
100
AcDb2dPolyline
66
1
10
0.0
20
0.0
30
0.0
70
0
0
VERTEX
5
469
100
AcDbEntity
8
1
100
AcDbVertex
100
AcDb2dVertex
62
5
10
-0.098532
20
96.323869
0
VERTEX
5
46a
100
AcDbEntity
8
1
100
AcDbVertex
100
AcDb2dVertex
62
5
10
0.838968
20
95.698869
0
VERTEX
5
46b
100
AcDbEntity
8
1
100
AcDbVertex
100
AcDb2dVertex
62
5
10
1.151468
20
94.761369
0
VERTEX
5
46c
100
AcDbEntity
8
1
100
AcDbVertex
100
AcDb2dVertex
62
5
10
1.151468
20
93.823869
0
VERTEX
5
46d
100
AcDbEntity
8
1
100
AcDbVertex
100
AcDb2dVertex
62
5
10
0.838968
20
93.198869
0
VERTEX
5
46e
100
AcDbEntity
8
1
100
AcDbVertex
100
AcDb2dVertex
62
5
10
-0.098532
20
92.573869
0
VERTEX
5
46f
100
AcDbEntity
8
1
100
AcDbVertex
100
AcDb2dVertex
62
5
10
-1.036032
20
92.573869
0
VERTEX
5
470
100
AcDbEntity
8
1
100
AcDbVertex
100
AcDb2dVertex
62
5
10
-1.661032
20
92.886369
0
VERTEX
5
471
100
AcDbEntity
8
1
100
AcDbVertex
100
AcDb2dVertex
62
5
10
-2.286032
20
93.823869
0
SEQEND
5
472
100
AcDbEntity
8
1
0
LINE
5
473
100
AcDbEntity
8
1
100
AcDbLine
6
CONTINUOUS
62
5
10
6.526468
20
57.573855
11
-0.873532
21
57.573855
0
LINE
5
474
100
AcDbEntity
8
1
100
AcDbLine
6
CONTINUOUS
62
5
10
8.726468
20
56.323869
11
8.726468
21
56.223869
0
ARC
5
475
100
AcDbEntity
8
1
100
AcDbCircle
6
CONTINUOUS
62
5
10
0.626468
20
54.423869
40
1.900000
100
AcDbArc
50
71.328279
51
108.671719
0
LINE
5
476
100
AcDbEntity
8
1
100
AcDbLine
6
CONTINUOUS
62
5
10
9.676468
20
66.323869
11
9.676468
21
63.550839
0
LINE
5
477
100
AcDbEntity
8
1
100
AcDbLine
6
CONTINUOUS
62
5
10
10.176468
20
66.323869
11
10.176468
21
63.573869
0
LINE
5
478
100
AcDbEntity
8
1
100
AcDbLine
6
CONTINUOUS
62
5
10
9.926468
20
66.323869
11
9.926468
21
63.573869
0
POLYLINE
5
479
100
AcDbEntity
8
1
6
CONTINUOUS
62
5
100
AcDb2dPolyline
66
1
10
0.0
20
0.0
30
0.0
70
0
0
VERTEX
5
47a
100
AcDbEntity
8
1
100
AcDbVertex
100
AcDb2dVertex
62
5
10
10.926468
20
43.523869
0
VERTEX
5
47b
100
AcDbEntity
8
1
100
AcDbVertex
100
AcDb2dVertex
62
5
10
11.626468
20
43.523869
0
VERTEX
5
47c
100
AcDbEntity
8
1
100
AcDbVertex
100
AcDb2dVertex
62
5
10
11.626468
20
49.523869
0
VERTEX
5
47d
100
AcDbEntity
8
1
100
AcDbVertex
100
AcDb2dVertex
62
5
10
10.926468
20
49.523869
0
SEQEND
5
47e
100
AcDbEntity
8
1
0
ARC
5
47f
100
AcDbEntity
8
1
100
AcDbCircle
6
CONTINUOUS
62
5
10
12.226468
20
41.723869
40
0.100000
100
AcDbArc
50
-89.999999
51
-0.000000
0
LINE
5
480
100
AcDbEntity
8
1
100
AcDbLine
6
CONTINUOUS
62
5
10
10.918135
20
41.623869
11
12.226468
21
41.623869
0
LINE
5
481
100
AcDbEntity
8
1
100
AcDbLine
6
CONTINUOUS
62
5
10
10.926468
20
41.623869
11
10.926468
21
41.923868
0
ARC
5
482
100
AcDbEntity
8
1
100
AcDbCircle
6
CONTINUOUS
62
5
10
12.226468
20
48.223869
40
0.100000
100
AcDbArc
50
-89.999999
51
0.000000
0
ARC
5
483
100
AcDbEntity
8
1
100
AcDbCircle
6
CONTINUOUS
62
5
10
12.226468
20
45.223869
40
0.100000
100
AcDbArc
50
0.000000
51
89.999999
0
LINE
5
484
100
AcDbEntity
8
1
100
AcDbLine
6
CONTINUOUS
62
5
10
12.226468
20
45.323869
11
11.626468
21
45.323869
0
LINE
5
485
100
AcDbEntity
8
1
100
AcDbLine
6
CONTINUOUS
62
5
10
11.626468
20
48.123869
11
12.226468
21
48.123869
0
LINE
5
486
100
AcDbEntity
8
1
100
AcDbLine
6
CONTINUOUS
62
5
10
9.526468
20
42.660800
11
9.526468
21
42.423869
0
ARC
5
487
100
AcDbEntity
8
1
100
AcDbCircle
6
CONTINUOUS
62
5
10
12.226468
20
35.123869
40
0.100000
100
AcDbArc
50
-89.999999
51
-0.000000
0
LINE
5
488
100
AcDbEntity
8
1
100
AcDbLine
6
CONTINUOUS
62
5
10
10.926468
20
35.023869
11
12.226468
21
35.023869
0
ARC
5
489
100
AcDbEntity
8
1
100
AcDbCircle
6
CONTINUOUS
62
5
10
12.226468
20
36.923869
40
0.100000
100
AcDbArc
50
0.000000
51
89.999999
0
LINE
5
48a
100
AcDbEntity
8
1
100
AcDbLine
6
CONTINUOUS
62
5
10
12.226468
20
37.023869
11
10.926468
21
37.023869
0
LINE
5
48b
100
AcDbEntity
8
1
100
AcDbLine
6
CONTINUOUS
62
5
10
10.926468
20
33.323869
11
11.926468
21
33.323869
0
LINE
5
48c
100
AcDbEntity
8
1
100
AcDbLine
6
CONTINUOUS
62
5
10
10.576468
20
35.323869
11
10.926468
21
35.323869
0
LINE
5
48d
100
AcDbEntity
8
1
100
AcDbLine
6
CONTINUOUS
62
5
10
10.576468
20
35.723869
11
10.915357
21
35.723869
0
ARC
5
48e
100
AcDbEntity
8
1
100
AcDbCircle
6
CONTINUOUS
62
5
10
12.226468
20
31.523869
40
0.100000
100
AcDbArc
50
0.000000
51
89.999999
0
LINE
5
48f
100
AcDbEntity
8
1
100
AcDbLine
6
CONTINUOUS
62
5
10
12.226468
20
31.623869
11
10.926468
21
31.623869
0
ARC
5
490
100
AcDbEntity
8
1
100
AcDbCircle
6
CONTINUOUS
62
5
10
11.426468
20
31.673869
40
0.500000
100
AcDbArc
50
129.529084
51
-179.999998
0
LINE
5
491
100
AcDbEntity
8
1
100
AcDbLine
6
CONTINUOUS
62
5
10
11.108233
20
32.059520
11
11.472055
21
32.359742
0
ARC
5
492
100
AcDbEntity
8
1
100
AcDbCircle
6
CONTINUOUS
62
5
10
10.676468
20
33.323869
40
1.250000
100
AcDbArc
50
-50.470914
51
50.470914
0
LINE
5
493
100
AcDbEntity
8
1
100
AcDbLine
6
CONTINUOUS
62
5
10
11.472055
20
34.287996
11
11.108233
21
34.588218
0
ARC
5
494
100
AcDbEntity
8
1
100
AcDbCircle
6
CONTINUOUS
62
5
10
11.426468
20
34.973869
40
0.500000
100
AcDbArc
50
179.999998
51
-129.529084
0
LINE
5
495
100
AcDbEntity
8
1
100
AcDbLine
6
CONTINUOUS
62
5
10
10.926468
20
41.623869
11
10.926468
21
35.323870
0
ARC
5
496
100
AcDbEntity
8
1
100
AcDbCircle
6
CONTINUOUS
62
5
10
11.026468
20
41.323869
40
0.200000
100
AcDbArc
50
0.000000
51
89.999999
0
POLYLINE
5
497
100
AcDbEntity
8
1
6
CONTINUOUS
62
5
100
AcDb2dPolyline
66
1
10
0.0
20
0.0
30
0.0
70
0
0
VERTEX
5
498
100
AcDbEntity
8
1
100
AcDbVertex
100
AcDb2dVertex
62
5
10
11.226468
20
41.323869
0
VERTEX
5
499
100
AcDbEntity
8
1
100
AcDbVertex
100
AcDb2dVertex
62
5
10
11.226468
20
37.323869
0
VERTEX
5
49a
100
AcDbEntity
8
1
100
AcDbVertex
100
AcDb2dVertex
62
5
10
10.926468
20
37.323869
0
SEQEND
5
49b
100
AcDbEntity
8
1
0
LINE
5
49c
100
AcDbEntity
8
1
100
AcDbLine
6
CONTINUOUS
62
5
10
10.926468
20
41.523869
11
11.026468
21
41.523869
0
LINE
5
49d
100
AcDbEntity
8
1
100
AcDbLine
6
CONTINUOUS
62
5
10
10.915357
20
40.823869
11
10.926468
21
40.823869
0
ARC
5
49e
100
AcDbEntity
8
1
100
AcDbCircle
6
CONTINUOUS
62
5
10
9.626568
20
51.343823
40
2.000000
100
AcDbArc
50
-49.462150
51
-0.571637
0
ARC
5
49f
100
AcDbEntity
8
1
100
AcDbCircle
6
CONTINUOUS
62
5
10
10.076468
20
55.723869
40
0.500000
100
AcDbArc
50
0.000000
51
89.999999
0
LINE
5
4a0
100
AcDbEntity
8
1
100
AcDbLine
6
CONTINUOUS
62
5
10
10.576468
20
55.723869
11
10.576468
21
43.160800
0
LINE
5
4a1
100
AcDbEntity
8
1
100
AcDbLine
6
CONTINUOUS
62
5
10
-4.873532
20
64.823869
11
-3.373532
21
66.323869
0
LINE
5
4a2
100
AcDbEntity
8
1
100
AcDbLine
6
CONTINUOUS
62
5
10
-18.373532
20
66.323869
11
-16.873532
21
64.823869
0
CIRCLE
5
4a3
100
AcDbEntity
8
1
100
AcDbCircle
6
CONTINUOUS
62
5
10
-10.873532
20
60.823854
40
1.549999
0
CIRCLE
5
4a4
100
AcDbEntity
8
1
100
AcDbCircle
6
CONTINUOUS
62
5
10
-10.873532
20
60.823854
40
2.249999
0
LINE
5
4a5
100
AcDbEntity
8
1
100
AcDbLine
6
CONTINUOUS
62
5
10
-6.873532
20
57.573855
11
-6.873532
21
64.073853
0
LINE
5
4a6
100
AcDbEntity
8
1
100
AcDbLine
6
CONTINUOUS
62
5
10
-14.873532
20
64.073853
11
-14.873532
21
57.573855
0
POLYLINE
5
4a7
100
AcDbEntity
8
1
6
CONTINUOUS
62
5
100
AcDb2dPolyline
66
1
10
0.0
20
0.0
30
0.0
70
0
0
VERTEX
5
4a8
100
AcDbEntity
8
1
100
AcDbVertex
100
AcDb2dVertex
62
5
10
-4.873532
20
64.573853
0
VERTEX
5
4a9
100
AcDbEntity
8
1
100
AcDbVertex
100
AcDb2dVertex
62
5
10
-4.873532
20
57.573855
0
VERTEX
5
4aa
100
AcDbEntity
8
1
100
AcDbVertex
100
AcDb2dVertex
62
5
10
-16.873532
20
57.573855
0
VERTEX
5
4ab
100
AcDbEntity
8
1
100
AcDbVertex
100
AcDb2dVertex
62
5
10
-16.873532
20
64.573853
0
SEQEND
5
4ac
100
AcDbEntity
8
1
0
ARC
5
4ad
100
AcDbEntity
8
1
100
AcDbCircle
6
CONTINUOUS
62
5
10
-21.373532
20
57.083957
40
0.700000
100
AcDbArc
50
-0.000000
51
44.415308
0
LINE
5
4ae
100
AcDbEntity
8
1
100
AcDbLine
6
CONTINUOUS
62
5
10
-20.873532
20
57.573855
11
-20.873532
21
63.073853
0
ARC
5
4af
100
AcDbEntity
8
1
100
AcDbCircle
6
CONTINUOUS
62
5
10
-19.873532
20
63.073853
40
1.000000
100
AcDbArc
50
0.000000
51
179.999998
0
LINE
5
4b0
100
AcDbEntity
8
1
100
AcDbLine
6
CONTINUOUS
62
5
10
-18.873532
20
63.073853
11
-18.873532
21
56.223869
0
LINE
5
4b1
100
AcDbEntity
8
1
100
AcDbLine
6
CONTINUOUS
62
5
10
-20.673532
20
56.223869
11
-20.673532
21
57.083957
0
LINE
5
4b2
100
AcDbEntity
8
1
100
AcDbLine
6
CONTINUOUS
62
5
10
-30.273532
20
56.323869
11
-30.273532
21
56.223869
0
LINE
5
4b3
100
AcDbEntity
8
1
100
AcDbLine
6
CONTINUOUS
62
5
10
-28.273532
20
57.573855
11
-20.873532
21
57.573855
0
ARC
5
4b4
100
AcDbEntity
8
1
100
AcDbCircle
6
CONTINUOUS
62
5
10
-22.373532
20
54.423869
40
1.900000
100
AcDbArc
50
71.328279
51
108.671719
0
LINE
5
4b5
100
AcDbEntity
8
1
100
AcDbLine
6
CONTINUOUS
62
5
10
-7.097028
20
47.448869
11
-6.039885
21
47.448869
0
LINE
5
4b6
100
AcDbEntity
8
1
100
AcDbLine
6
CONTINUOUS
62
5
10
-7.097028
20
46.127440
11
-6.039885
21
46.788155
0
POLYLINE
5
4b7
100
AcDbEntity
8
1
6
CONTINUOUS
62
5
100
AcDb2dPolyline
66
1
10
0.0
20
0.0
30
0.0
70
0
0
VERTEX
5
4b8
100
AcDbEntity
8
1
100
AcDbVertex
100
AcDb2dVertex
62
5
10
-6.568457
20
48.373869
0
VERTEX
5
4b9
100
AcDbEntity
8
1
100
AcDbVertex
100
AcDb2dVertex
62
5
10
-6.568457
20
44.806012
0
VERTEX
5
4ba
100
AcDbEntity
8
1
100
AcDbVertex
100
AcDb2dVertex
62
5
10
-6.832742
20
44.806012
0
SEQEND
5
4bb
100
AcDbEntity
8
1
0
LINE
5
4bc
100
AcDbEntity
8
1
100
AcDbLine
6
CONTINUOUS
62
5
10
-5.775600
20
47.713155
11
-5.247028
21
48.506012
0
POLYLINE
5
4bd
100
AcDbEntity
8
1
6
CONTINUOUS
62
5
100
AcDb2dPolyline
66
1
10
0.0
20
0.0
30
0.0
70
0
0
VERTEX
5
4be
100
AcDbEntity
8
1
100
AcDbVertex
100
AcDb2dVertex
62
5
10
-5.379171
20
48.241726
0
VERTEX
5
4bf
100
AcDbEntity
8
1
100
AcDbVertex
100
AcDb2dVertex
62
5
10
-4.322028
20
48.241726
0
VERTEX
5
4c0
100
AcDbEntity
8
1
100
AcDbVertex
100
AcDb2dVertex
62
5
10
-4.850600
20
47.448869
0
SEQEND
5
4c1
100
AcDbEntity
8
1
0
POLYLINE
5
4c2
100
AcDbEntity
8
1
6
CONTINUOUS
62
5
100
AcDb2dPolyline
66
1
10
0.0
20
0.0
30
0.0
70
0
0
VERTEX
5
4c3
100
AcDbEntity
8
1
100
AcDbVertex
100
AcDb2dVertex
62
5
10
-5.643457
20
46.259583
0
VERTEX
5
4c4
100
AcDbEntity
8
1
100
AcDbVertex
100
AcDb2dVertex
62
5
10
-5.643457
20
47.448869
0
VERTEX
5
4c5
100
AcDbEntity
8
1
100
AcDbVertex
100
AcDb2dVertex
62
5
10
-3.793457
20
47.448869
0
VERTEX
5
4c6
100
AcDbEntity
8
1
100
AcDbVertex
100
AcDb2dVertex
62
5
10
-3.793457
20
46.259583
0
SEQEND
5
4c7
100
AcDbEntity
8
1
0
POLYLINE
5
4c8
100
AcDbEntity
8
1
6
CONTINUOUS
62
5
100
AcDb2dPolyline
66
1
10
0.0
20
0.0
30
0.0
70
0
0
VERTEX
5
4c9
100
AcDbEntity
8
1
100
AcDbVertex
100
AcDb2dVertex
62
5
10
-4.982742
20
47.448869
0
VERTEX
5
4ca
100
AcDbEntity
8
1
100
AcDbVertex
100
AcDb2dVertex
62
5
10
-4.982742
20
46.920298
0
VERTEX
5
4cb
100
AcDbEntity
8
1
100
AcDbVertex
100
AcDb2dVertex
62
5
10
-5.379171
20
46.523869
0
SEQEND
5
4cc
100
AcDbEntity
8
1
0
POLYLINE
5
4cd
100
AcDbEntity
8
1
6
CONTINUOUS
62
5
100
AcDb2dPolyline
66
1
10
0.0
20
0.0
30
0.0
70
0
0
VERTEX
5
4ce
100
AcDbEntity
8
1
100
AcDbVertex
100
AcDb2dVertex
62
5
10
-4.454171
20
47.448869
0
VERTEX
5
4cf
100
AcDbEntity
8
1
100
AcDbVertex
100
AcDb2dVertex
62
5
10
-4.454171
20
46.523869
0
VERTEX
5
4d0
100
AcDbEntity
8
1
100
AcDbVertex
100
AcDb2dVertex
62
5
10
-3.925600
20
46.523869
0
SEQEND
5
4d1
100
AcDbEntity
8
1
0
LINE
5
4d2
100
AcDbEntity
8
1
100
AcDbLine
6
CONTINUOUS
62
5
10
-6.172028
20
45.863155
11
-3.264885
21
45.863155
0
POLYLINE
5
4d3
100
AcDbEntity
8
1
6
CONTINUOUS
62
5
100
AcDb2dPolyline
66
1
10
0.0
20
0.0
30
0.0
70
0
0
VERTEX
5
4d4
100
AcDbEntity
8
1
100
AcDbVertex
100
AcDb2dVertex
62
5
10
-4.850600
20
46.391726
0
VERTEX
5
4d5
100
AcDbEntity
8
1
100
AcDbVertex
100
AcDb2dVertex
62
5
10
-4.850600
20
45.863155
0
VERTEX
5
4d6
100
AcDbEntity
8
1
100
AcDbVertex
100
AcDb2dVertex
62
5
10
-5.114885
20
45.334583
0
VERTEX
5
4d7
100
AcDbEntity
8
1
100
AcDbVertex
100
AcDb2dVertex
62
5
10
-5.511314
20
44.938155
0
VERTEX
5
4d8
100
AcDbEntity
8
1
100
AcDbVertex
100
AcDb2dVertex
62
5
10
-6.172028
20
44.673869
0
SEQEND
5
4d9
100
AcDbEntity
8
1
0
POLYLINE
5
4da
100
AcDbEntity
8
1
6
CONTINUOUS
62
5
100
AcDb2dPolyline
66
1
10
0.0
20
0.0
30
0.0
70
0
0
VERTEX
5
4db
100
AcDbEntity
8
1
100
AcDbVertex
100
AcDb2dVertex
62
5
10
-4.850600
20
45.863155
0
VERTEX
5
4dc
100
AcDbEntity
8
1
100
AcDbVertex
100
AcDb2dVertex
62
5
10
-4.454171
20
45.334583
0
VERTEX
5
4dd
100
AcDbEntity
8
1
100
AcDbVertex
100
AcDb2dVertex
62
5
10
-3.925600
20
44.938155
0
VERTEX
5
4de
100
AcDbEntity
8
1
100
AcDbVertex
100
AcDb2dVertex
62
5
10
-3.397028
20
44.673869
0
SEQEND
5
4df
100
AcDbEntity
8
1
0
POLYLINE
5
4e0
100
AcDbEntity
8
1
6
CONTINUOUS
62
5
100
AcDb2dPolyline
66
1
10
0.0
20
0.0
30
0.0
70
0
0
VERTEX
5
4e1
100
AcDbEntity
8
1
100
AcDbVertex
100
AcDb2dVertex
62
5
10
-4.873532
20
42.423869
0
VERTEX
5
4e2
100
AcDbEntity
8
1
100
AcDbVertex
100
AcDb2dVertex
62
5
10
-4.873532
20
42.646596
0
VERTEX
5
4e3
100
AcDbEntity
8
1
100
AcDbVertex
100
AcDb2dVertex
62
5
10
-4.373532
20
42.646596
0
VERTEX
5
4e4
100
AcDbEntity
8
1
100
AcDbVertex
100
AcDb2dVertex
62
5
10
-4.373532
20
42.423869
0
SEQEND
5
4e5
100
AcDbEntity
8
1
0
POLYLINE
5
4e6
100
AcDbEntity
8
1
6
CONTINUOUS
62
5
100
AcDb2dPolyline
66
1
10
0.0
20
0.0
30
0.0
70
1
0
VERTEX
5
4e7
100
AcDbEntity
8
1
100
AcDbVertex
100
AcDb2dVertex
62
5
10
-15.811502
20
48.109583
0
VERTEX
5
4e8
100
AcDbEntity
8
1
100
AcDbVertex
100
AcDb2dVertex
62
5
10
-15.811502
20
45.466726
0
VERTEX
5
4e9
100
AcDbEntity
8
1
100
AcDbVertex
100
AcDb2dVertex
62
5
10
-14.886502
20
45.466726
0
VERTEX
5
4ea
100
AcDbEntity
8
1
100
AcDbVertex
100
AcDb2dVertex
62
5
10
-14.886502
20
48.109583
0
VERTEX
5
4eb
100
AcDbEntity
8
1
100
AcDbVertex
100
AcDb2dVertex
62
5
10
-15.811502
20
48.109583
0
SEQEND
5
4ec
100
AcDbEntity
8
1
0
LINE
5
4ed
100
AcDbEntity
8
1
100
AcDbLine
6
CONTINUOUS
62
5
10
-15.811502
20
46.788155
11
-14.886502
21
46.788155
0
LINE
5
4ee
100
AcDbEntity
8
1
100
AcDbLine
6
CONTINUOUS
62
5
10
-14.357930
20
47.845298
11
-12.375787
21
47.845298
0
LINE
5
4ef
100
AcDbEntity
8
1
100
AcDbLine
6
CONTINUOUS
62
5
10
-14.622216
20
47.052440
11
-12.111502
21
47.052440
0
LINE
5
4f0
100
AcDbEntity
8
1
100
AcDbLine
6
CONTINUOUS
62
5
10
-13.432930
20
48.506012
11
-13.432930
21
47.052440
0
LINE
5
4f1
100
AcDbEntity
8
1
100
AcDbLine
6
CONTINUOUS
62
5
10
-14.490073
20
46.259583
11
-12.243645
21
46.259583
0
POLYLINE
5
4f2
100
AcDbEntity
8
1
6
CONTINUOUS
62
5
100
AcDb2dPolyline
66
1
10
0.0
20
0.0
30
0.0
70
0
0
VERTEX
5
4f3
100
AcDbEntity
8
1
100
AcDbVertex
100
AcDb2dVertex
62
5
10
-12.904359
20
46.788155
0
VERTEX
5
4f4
100
AcDbEntity
8
1
100
AcDbVertex
100
AcDb2dVertex
62
5
10
-12.904359
20
45.070298
0
VERTEX
5
4f5
100
AcDbEntity
8
1
100
AcDbVertex
100
AcDb2dVertex
62
5
10
-13.168645
20
44.806012
0
VERTEX
5
4f6
100
AcDbEntity
8
1
100
AcDbVertex
100
AcDb2dVertex
62
5
10
-13.432930
20
44.806012
0
SEQEND
5
4f7
100
AcDbEntity
8
1
0
LINE
5
4f8
100
AcDbEntity
8
1
100
AcDbLine
6
CONTINUOUS
62
5
10
-14.093645
20
45.731012
11
-13.829359
21
45.334583
0
POLYLINE
5
4f9
100
AcDbEntity
8
1
6
CONTINUOUS
62
5
100
AcDb2dPolyline
66
1
10
0.0
20
0.0
30
0.0
70
0
0
VERTEX
5
4fa
100
AcDbEntity
8
1
100
AcDbVertex
100
AcDb2dVertex
62
5
10
-17.373532
20
42.423869
0
VERTEX
5
4fb
100
AcDbEntity
8
1
100
AcDbVertex
100
AcDb2dVertex
62
5
10
-17.373532
20
42.646596
0
VERTEX
5
4fc
100
AcDbEntity
8
1
100
AcDbVertex
100
AcDb2dVertex
62
5
10
-16.873532
20
42.646596
0
VERTEX
5
4fd
100
AcDbEntity
8
1
100
AcDbVertex
100
AcDb2dVertex
62
5
10
-16.873532
20
42.423869
0
SEQEND
5
4fe
100
AcDbEntity
8
1
0
POLYLINE
5
4ff
100
AcDbEntity
8
1
6
CONTINUOUS
62
5
100
AcDb2dPolyline
66
1
10
0.0
20
0.0
30
0.0
70
0
0
VERTEX
5
500
100
AcDbEntity
8
1
100
AcDbVertex
100
AcDb2dVertex
62
5
10
-11.485562
20
44.673869
0
VERTEX
5
501
100
AcDbEntity
8
1
100
AcDbVertex
100
AcDb2dVertex
62
5
10
-11.485562
20
48.373869
0
VERTEX
5
502
100
AcDbEntity
8
1
100
AcDbVertex
100
AcDb2dVertex
62
5
10
-10.031991
20
48.373869
0
VERTEX
5
503
100
AcDbEntity
8
1
100
AcDbVertex
100
AcDb2dVertex
62
5
10
-10.031991
20
47.052440
0
VERTEX
5
504
100
AcDbEntity
8
1
100
AcDbVertex
100
AcDb2dVertex
62
5
10
-11.485562
20
47.052440
0
SEQEND
5
505
100
AcDbEntity
8
1
0
LINE
5
506
100
AcDbEntity
8
1
100
AcDbLine
6
CONTINUOUS
62
5
10
-11.485562
20
47.713155
11
-10.031991
21
47.713155
0
POLYLINE
5
507
100
AcDbEntity
8
1
6
CONTINUOUS
62
5
100
AcDb2dPolyline
66
1
10
0.0
20
0.0
30
0.0
70
0
0
VERTEX
5
508
100
AcDbEntity
8
1
100
AcDbVertex
100
AcDb2dVertex
62
5
10
-7.917705
20
47.052440
0
VERTEX
5
509
100
AcDbEntity
8
1
100
AcDbVertex
100
AcDb2dVertex
62
5
10
-9.503419
20
47.052440
0
VERTEX
5
50a
100
AcDbEntity
8
1
100
AcDbVertex
100
AcDb2dVertex
62
5
10
-9.503419
20
48.373869
0
VERTEX
5
50b
100
AcDbEntity
8
1
100
AcDbVertex
100
AcDb2dVertex
62
5
10
-7.917705
20
48.373869
0
VERTEX
5
50c
100
AcDbEntity
8
1
100
AcDbVertex
100
AcDb2dVertex
62
5
10
-7.917705
20
44.673869
0
VERTEX
5
50d
100
AcDbEntity
8
1
100
AcDbVertex
100
AcDb2dVertex
62
5
10
-8.314133
20
44.673869
0
SEQEND
5
50e
100
AcDbEntity
8
1
0
LINE
5
50f
100
AcDbEntity
8
1
100
AcDbLine
6
CONTINUOUS
62
5
10
-7.917705
20
47.713155
11
-9.503419
21
47.713155
0
POLYLINE
5
510
100
AcDbEntity
8
1
6
CONTINUOUS
62
5
100
AcDb2dPolyline
66
1
10
0.0
20
0.0
30
0.0
70
1
0
VERTEX
5
511
100
AcDbEntity
8
1
100
AcDbVertex
100
AcDb2dVertex
62
5
10
-10.560562
20
46.391726
0
VERTEX
5
512
100
AcDbEntity
8
1
100
AcDbVertex
100
AcDb2dVertex
62
5
10
-8.842705
20
46.391726
0
VERTEX
5
513
100
AcDbEntity
8
1
100
AcDbVertex
100
AcDb2dVertex
62
5
10
-8.842705
20
45.070298
0
VERTEX
5
514
100
AcDbEntity
8
1
100
AcDbVertex
100
AcDb2dVertex
62
5
10
-10.560562
20
45.070298
0
VERTEX
5
515
100
AcDbEntity
8
1
100
AcDbVertex
100
AcDb2dVertex
62
5
10
-10.560562
20
46.391726
0
SEQEND
5
516
100
AcDbEntity
8
1
0
LINE
5
517
100
AcDbEntity
8
1
100
AcDbLine
6
CONTINUOUS
62
5
10
-10.560562
20
45.731012
11
-8.842705
21
45.731012
0
POLYLINE
5
518
100
AcDbEntity
8
1
6
CONTINUOUS
62
5
100
AcDb2dPolyline
66
1
10
0.0
20
0.0
30
0.0
70
0
0
VERTEX
5
519
100
AcDbEntity
8
1
100
AcDbVertex
100
AcDb2dVertex
62
5
10
-17.466765
20
48.241726
0
VERTEX
5
51a
100
AcDbEntity
8
1
100
AcDbVertex
100
AcDb2dVertex
62
5
10
-19.316765
20
45.863155
0
VERTEX
5
51b
100
AcDbEntity
8
1
100
AcDbVertex
100
AcDb2dVertex
62
5
10
-16.806051
20
45.863155
0
SEQEND
5
51c
100
AcDbEntity
8
1
0
LINE
5
51d
100
AcDbEntity
8
1
100
AcDbLine
6
CONTINUOUS
62
5
10
-17.466765
20
48.241726
11
-17.466765
21
44.925320
0
POLYLINE
5
51e
100
AcDbEntity
8
1
6
CONTINUOUS
62
5
100
AcDb2dPolyline
66
1
10
0.0
20
0.0
30
0.0
70
0
0
VERTEX
5
51f
100
AcDbEntity
8
1
100
AcDbVertex
100
AcDb2dVertex
62
5
10
-32.673532
20
43.523869
0
VERTEX
5
520
100
AcDbEntity
8
1
100
AcDbVertex
100
AcDb2dVertex
62
5
10
-33.373532
20
43.523869
0
VERTEX
5
521
100
AcDbEntity
8
1
100
AcDbVertex
100
AcDb2dVertex
62
5
10
-33.373532
20
49.523869
0
VERTEX
5
522
100
AcDbEntity
8
1
100
AcDbVertex
100
AcDb2dVertex
62
5
10
-32.673532
20
49.523869
0
SEQEND
5
523
100
AcDbEntity
8
1
0
LINE
5
524
100
AcDbEntity
8
1
100
AcDbLine
6
CONTINUOUS
62
5
10
-32.662421
20
41.523869
11
-32.117282
21
41.523869
0
LINE
5
525
100
AcDbEntity
8
1
100
AcDbLine
6
CONTINUOUS
62
5
10
-32.117282
20
41.923869
11
-32.673532
21
41.923869
0
LINE
5
526
100
AcDbEntity
8
1
100
AcDbLine
6
CONTINUOUS
62
5
10
-31.273532
20
42.660800
11
-31.273532
21
42.423869
0
ARC
5
527
100
AcDbEntity
8
1
100
AcDbCircle
6
CONTINUOUS
62
5
10
-33.473532
20
45.223869
40
0.100000
100
AcDbArc
50
89.999999
51
-179.999998
0
ARC
5
528
100
AcDbEntity
8
1
100
AcDbCircle
6
CONTINUOUS
62
5
10
-33.473532
20
48.223869
40
0.100000
100
AcDbArc
50
179.999998
51
-89.999999
0
LINE
5
529
100
AcDbEntity
8
1
100
AcDbLine
6
CONTINUOUS
62
5
10
-33.473532
20
48.123869
11
-33.373532
21
48.123869
0
LINE
5
52a
100
AcDbEntity
8
1
100
AcDbLine
6
CONTINUOUS
62
5
10
-33.373532
20
45.323869
11
-33.473532
21
45.323869
0
ARC
5
52b
100
AcDbEntity
8
1
100
AcDbCircle
6
CONTINUOUS
62
5
10
-33.473532
20
41.723869
40
0.100000
100
AcDbArc
50
179.999998
51
-89.999999
0
LINE
5
52c
100
AcDbEntity
8
1
100
AcDbLine
6
CONTINUOUS
62
5
10
-33.473532
20
41.623869
11
-32.665199
21
41.623869
0
LINE
5
52d
100
AcDbEntity
8
1
100
AcDbLine
6
CONTINUOUS
62
5
10
-32.773532
20
35.523869
11
-33.473532
21
35.523869
0
LINE
5
52e
100
AcDbEntity
8
1
100
AcDbLine
6
CONTINUOUS
62
5
10
-32.773532
20
35.523869
11
-32.667976
21
35.523869
0
ARC
5
52f
100
AcDbEntity
8
1
100
AcDbCircle
6
CONTINUOUS
62
5
10
-31.923532
20
33.323869
40
1.000000
100
AcDbArc
50
161.384857
51
-161.384857
0
ARC
5
530
100
AcDbEntity
8
1
100
AcDbCircle
6
CONTINUOUS
62
5
10
-31.923532
20
33.323869
40
1.250000
100
AcDbArc
50
138.370695
51
-138.370695
0
ARC
5
531
100
AcDbEntity
8
1
100
AcDbCircle
6
CONTINUOUS
62
5
10
-72.973532
20
37.173869
40
40.000000
100
AcDbArc
50
-2.190679
51
2.190679
0
ARC
5
532
100
AcDbEntity
8
1
100
AcDbCircle
6
CONTINUOUS
62
5
10
-33.102693
20
35.648682
40
0.100000
100
AcDbArc
50
-86.999999
51
-2.190679
0
LINE
5
533
100
AcDbEntity
8
1
100
AcDbLine
6
CONTINUOUS
62
5
10
-33.097459
20
35.548819
11
-33.478765
21
35.528836
0
ARC
5
534
100
AcDbEntity
8
1
100
AcDbCircle
6
CONTINUOUS
62
5
10
-33.473532
20
35.428973
40
0.100000
100
AcDbArc
50
92.999999
51
179.999998
0
LINE
5
535
100
AcDbEntity
8
1
100
AcDbLine
6
CONTINUOUS
62
5
10
-33.573532
20
35.428973
11
-33.573532
21
35.423869
0
LINE
5
536
100
AcDbEntity
8
1
100
AcDbLine
6
CONTINUOUS
62
5
10
-33.573532
20
38.923869
11
-33.573532
21
38.918765
0
ARC
5
537
100
AcDbEntity
8
1
100
AcDbCircle
6
CONTINUOUS
62
5
10
-33.473532
20
38.918765
40
0.100000
100
AcDbArc
50
179.999998
51
-92.999999
0
LINE
5
538
100
AcDbEntity
8
1
100
AcDbLine
6
CONTINUOUS
62
5
10
-33.478765
20
38.818903
11
-33.097459
21
38.798919
0
ARC
5
539
100
AcDbEntity
8
1
100
AcDbCircle
6
CONTINUOUS
62
5
10
-33.102693
20
38.699056
40
0.100000
100
AcDbArc
50
2.190679
51
86.999999
0
LINE
5
53a
100
AcDbEntity
8
1
100
AcDbLine
6
CONTINUOUS
62
5
10
-32.773532
20
31.123869
11
-33.473532
21
31.123869
0
LINE
5
53b
100
AcDbEntity
8
1
100
AcDbLine
6
CONTINUOUS
62
5
10
-32.763255
20
31.123869
11
-32.673532
21
31.123869
0
LINE
5
53c
100
AcDbEntity
8
1
100
AcDbLine
6
CONTINUOUS
62
5
10
-33.573532
20
35.428973
11
-33.573532
21
31.218765
0
POLYLINE
5
53d
100
AcDbEntity
8
1
6
CONTINUOUS
62
5
100
AcDb2dPolyline
66
1
10
0.0
20
0.0
30
0.0
70
0
0
VERTEX
5
53e
100
AcDbEntity
8
1
100
AcDbVertex
100
AcDb2dVertex
62
5
10
-22.557742
20
47.448869
0
VERTEX
5
53f
100
AcDbEntity
8
1
100
AcDbVertex
100
AcDb2dVertex
62
5
10
-22.293457
20
47.845298
0
VERTEX
5
540
100
AcDbEntity
8
1
100
AcDbVertex
100
AcDb2dVertex
62
5
10
-21.764885
20
48.241726
0
VERTEX
5
541
100
AcDbEntity
8
1
100
AcDbVertex
100
AcDb2dVertex
62
5
10
-21.104171
20
48.241726
0
VERTEX
5
542
100
AcDbEntity
8
1
100
AcDbVertex
100
AcDb2dVertex
62
5
10
-20.575600
20
47.977440
0
VERTEX
5
543
100
AcDbEntity
8
1
100
AcDbVertex
100
AcDb2dVertex
62
5
10
-20.443457
20
47.713155
0
VERTEX
5
544
100
AcDbEntity
8
1
100
AcDbVertex
100
AcDb2dVertex
62
5
10
-20.443457
20
47.316726
0
VERTEX
5
545
100
AcDbEntity
8
1
100
AcDbVertex
100
AcDb2dVertex
62
5
10
-20.575600
20
47.052440
0
VERTEX
5
546
100
AcDbEntity
8
1
100
AcDbVertex
100
AcDb2dVertex
62
5
10
-22.425600
20
44.925320
0
VERTEX
5
547
100
AcDbEntity
8
1
100
AcDbVertex
100
AcDb2dVertex
62
5
10
-20.443457
20
44.925320
0
SEQEND
5
548
100
AcDbEntity
8
1
0
ARC
5
549
100
AcDbEntity
8
1
100
AcDbCircle
6
CONTINUOUS
62
5
10
-30.873631
20
51.343823
40
2.000000
100
AcDbArc
50
-179.428362
51
-154.151524
0
ARC
5
54a
100
AcDbEntity
8
1
100
AcDbCircle
6
CONTINUOUS
62
5
10
-31.823532
20
55.723869
40
0.500000
100
AcDbArc
50
89.999999
51
179.999998
0
LINE
5
54b
100
AcDbEntity
8
1
100
AcDbLine
6
CONTINUOUS
62
5
10
-32.323532
20
55.723869
11
-32.323532
21
43.160800
0
POLYLINE
5
54c
100
AcDbEntity
8
1
6
CONTINUOUS
62
5
100
AcDb2dPolyline
66
1
10
0.0
20
0.0
30
0.0
70
0
0
VERTEX
5
54d
100
AcDbEntity
8
1
100
AcDbVertex
100
AcDb2dVertex
62
5
10
-2.736314
20
47.316726
0
VERTEX
5
54e
100
AcDbEntity
8
1
100
AcDbVertex
100
AcDb2dVertex
62
5
10
-2.339885
20
47.581012
0
VERTEX
5
54f
100
AcDbEntity
8
1
100
AcDbVertex
100
AcDb2dVertex
62
5
10
-1.943457
20
48.109583
0
VERTEX
5
550
100
AcDbEntity
8
1
100
AcDbVertex
100
AcDb2dVertex
62
5
10
-1.679171
20
48.506012
0
SEQEND
5
551
100
AcDbEntity
8
1
0
LINE
5
552
100
AcDbEntity
8
1
100
AcDbLine
6
CONTINUOUS
62
5
10
-1.943457
20
48.109583
11
0.567258
21
48.109583
0
LINE
5
553
100
AcDbEntity
8
1
100
AcDbLine
6
CONTINUOUS
62
5
10
-1.811314
20
47.448869
11
0.170829
21
47.448869
0
POLYLINE
5
554
100
AcDbEntity
8
1
6
CONTINUOUS
62
5
100
AcDb2dPolyline
66
1
10
0.0
20
0.0
30
0.0
70
0
0
VERTEX
5
555
100
AcDbEntity
8
1
100
AcDbVertex
100
AcDb2dVertex
62
5
10
-2.339885
20
46.920298
0
VERTEX
5
556
100
AcDbEntity
8
1
100
AcDbVertex
100
AcDb2dVertex
62
5
10
0.170829
20
46.920298
0
VERTEX
5
557
100
AcDbEntity
8
1
100
AcDbVertex
100
AcDb2dVertex
62
5
10
0.170829
20
45.598869
0
VERTEX
5
558
100
AcDbEntity
8
1
100
AcDbVertex
100
AcDb2dVertex
62
5
10
0.302972
20
45.202440
0
VERTEX
5
559
100
AcDbEntity
8
1
100
AcDbVertex
100
AcDb2dVertex
62
5
10
0.567258
20
44.806012
0
VERTEX
5
55a
100
AcDbEntity
8
1
100
AcDbVertex
100
AcDb2dVertex
62
5
10
0.831543
20
45.598869
0
SEQEND
5
55b
100
AcDbEntity
8
1
0
POLYLINE
5
55c
100
AcDbEntity
8
1
6
CONTINUOUS
62
5
100
AcDb2dPolyline
66
1
10
0.0
20
0.0
30
0.0
70
0
0
VERTEX
5
55d
100
AcDbEntity
8
1
100
AcDbVertex
100
AcDb2dVertex
62
5
10
-1.811314
20
46.127440
0
VERTEX
5
55e
100
AcDbEntity
8
1
100
AcDbVertex
100
AcDb2dVertex
62
5
10
-1.150600
20
45.731012
0
VERTEX
5
55f
100
AcDbEntity
8
1
100
AcDbVertex
100
AcDb2dVertex
62
5
10
-0.622028
20
45.334583
0
SEQEND
5
560
100
AcDbEntity
8
1
0
POLYLINE
5
561
100
AcDbEntity
8
1
6
CONTINUOUS
62
5
100
AcDb2dPolyline
66
1
10
0.0
20
0.0
30
0.0
70
0
0
VERTEX
5
562
100
AcDbEntity
8
1
100
AcDbVertex
100
AcDb2dVertex
62
5
10
-0.622028
20
46.391726
0
VERTEX
5
563
100
AcDbEntity
8
1
100
AcDbVertex
100
AcDb2dVertex
62
5
10
-1.414885
20
45.598869
0
VERTEX
5
564
100
AcDbEntity
8
1
100
AcDbVertex
100
AcDb2dVertex
62
5
10
-2.075600
20
45.202440
0
VERTEX
5
565
100
AcDbEntity
8
1
100
AcDbVertex
100
AcDb2dVertex
62
5
10
-2.736314
20
44.938155
0
SEQEND
5
566
100
AcDbEntity
8
1
0
ARC
5
567
100
AcDbEntity
8
1
100
AcDbCircle
6
CONTINUOUS
62
5
10
-0.373532
20
57.083957
40
0.700000
100
AcDbArc
50
135.584690
51
-179.999998
0
LINE
5
568
100
AcDbEntity
8
1
100
AcDbLine
6
CONTINUOUS
62
5
10
-0.873532
20
57.573855
11
-0.873532
21
63.073853
0
ARC
5
569
100
AcDbEntity
8
1
100
AcDbCircle
6
CONTINUOUS
62
5
10
-1.873532
20
63.073853
40
1.000000
100
AcDbArc
50
0.000000
51
179.999998
0
LINE
5
56a
100
AcDbEntity
8
1
100
AcDbLine
6
CONTINUOUS
62
5
10
-2.873532
20
63.073853
11
-2.873532
21
56.223869
0
LINE
5
56b
100
AcDbEntity
8
1
100
AcDbLine
6
CONTINUOUS
62
5
10
-1.073532
20
56.223869
11
-1.073532
21
57.083957
0
LINE
5
56c
100
AcDbEntity
8
1
100
AcDbLine
6
CONTINUOUS
62
5
10
9.026468
20
50.223869
11
-30.773532
21
50.223869
0
ARC
5
56d
100
AcDbEntity
8
1
100
AcDbCircle
6
CONTINUOUS
62
5
10
-31.823532
20
43.160800
40
0.500000
100
AcDbArc
50
-179.999998
51
-89.999999
0
ARC
5
56e
100
AcDbEntity
8
1
100
AcDbCircle
6
CONTINUOUS
62
5
10
10.076468
20
43.160800
40
0.500000
100
AcDbArc
50
-89.999999
51
-0.000000
0
POLYLINE
5
56f
100
AcDbEntity
8
1
6
CONTINUOUS
62
5
100
AcDb2dPolyline
66
1
10
0.0
20
0.0
30
0.0
70
0
0
VERTEX
5
570
100
AcDbEntity
8
1
100
AcDbVertex
100
AcDb2dVertex
62
5
10
10.076468
20
42.660800
0
VERTEX
5
571
100
AcDbEntity
8
1
100
AcDbVertex
100
AcDb2dVertex
62
5
10
9.526468
20
42.660800
0
VERTEX
5
572
100
AcDbEntity
8
1
100
AcDbVertex
100
AcDb2dVertex
62
5
10
9.526468
20
42.623869
0
VERTEX
5
573
100
AcDbEntity
8
1
100
AcDbVertex
100
AcDb2dVertex
62
5
10
-4.373532
20
42.623869
0
SEQEND
5
574
100
AcDbEntity
8
1
0
LINE
5
575
100
AcDbEntity
8
1
100
AcDbLine
6
CONTINUOUS
62
5
10
-4.873532
20
42.623869
11
-16.873532
21
42.623869
0
POLYLINE
5
576
100
AcDbEntity
8
1
6
CONTINUOUS
62
5
100
AcDb2dPolyline
66
1
10
0.0
20
0.0
30
0.0
70
0
0
VERTEX
5
577
100
AcDbEntity
8
1
100
AcDbVertex
100
AcDb2dVertex
62
5
10
-17.373532
20
42.623869
0
VERTEX
5
578
100
AcDbEntity
8
1
100
AcDbVertex
100
AcDb2dVertex
62
5
10
-31.273532
20
42.623869
0
VERTEX
5
579
100
AcDbEntity
8
1
100
AcDbVertex
100
AcDb2dVertex
62
5
10
-31.273532
20
42.660800
0
VERTEX
5
57a
100
AcDbEntity
8
1
100
AcDbVertex
100
AcDb2dVertex
62
5
10
-31.823532
20
42.660800
0
SEQEND
5
57b
100
AcDbEntity
8
1
0
ARC
5
57c
100
AcDbEntity
8
1
100
AcDbCircle
6
CONTINUOUS
62
5
10
9.526468
20
43.323869
40
0.500000
100
AcDbArc
50
-89.999999
51
-0.000000
0
LINE
5
57d
100
AcDbEntity
8
1
100
AcDbLine
6
CONTINUOUS
62
5
10
10.026468
20
43.323869
11
10.026468
21
50.122524
0
ARC
5
57e
100
AcDbEntity
8
1
100
AcDbCircle
6
CONTINUOUS
62
5
10
12.026468
20
50.122524
40
2.000000
100
AcDbArc
50
174.198313
51
179.999998
0
LINE
5
57f
100
AcDbEntity
8
1
100
AcDbLine
6
CONTINUOUS
62
5
10
10.036713
20
50.324695
11
10.558893
21
55.463959
0
ARC
5
580
100
AcDbEntity
8
1
100
AcDbCircle
6
CONTINUOUS
62
5
10
10.062495
20
55.523869
40
0.500000
100
AcDbArc
50
-6.881724
51
89.999999
0
LINE
5
581
100
AcDbEntity
8
1
100
AcDbLine
6
CONTINUOUS
62
5
10
10.062495
20
56.023869
11
-31.819139
21
56.023869
0
ARC
5
582
100
AcDbEntity
8
1
100
AcDbCircle
6
CONTINUOUS
62
5
10
-31.819139
20
55.523869
40
0.500000
100
AcDbArc
50
89.999999
51
-174.093857
0
LINE
5
583
100
AcDbEntity
8
1
100
AcDbLine
6
CONTINUOUS
62
5
10
-32.316485
20
55.472419
11
-31.784148
21
50.326494
0
ARC
5
584
100
AcDbEntity
8
1
100
AcDbCircle
6
CONTINUOUS
62
5
10
-33.773532
20
50.120696
40
2.000000
100
AcDbArc
50
0.000000
51
5.906141
0
LINE
5
585
100
AcDbEntity
8
1
100
AcDbLine
6
CONTINUOUS
62
5
10
-31.773532
20
50.120696
11
-31.773532
21
43.323869
0
ARC
5
586
100
AcDbEntity
8
1
100
AcDbCircle
6
CONTINUOUS
62
5
10
-31.273532
20
43.323869
40
0.500000
100
AcDbArc
50
-179.999998
51
-89.999999
0
LINE
5
587
100
AcDbEntity
8
1
100
AcDbLine
6
CONTINUOUS
62
5
10
-31.273532
20
42.823869
11
9.526468
21
42.823869
0
LINE
5
588
100
AcDbEntity
8
1
100
AcDbLine
6
CONTINUOUS
62
5
10
-31.373532
20
63.437403
11
-31.373532
21
93.323869
0
LINE
5
589
100
AcDbEntity
8
1
100
AcDbLine
6
CONTINUOUS
62
5
10
14.926468
20
65.823869
11
14.926468
21
93.323869
0
POLYLINE
5
58a
100
AcDbEntity
8
1
6
CONTINUOUS
62
5
100
AcDb2dPolyline
66
1
10
0.0
20
0.0
30
0.0
70
0
0
VERTEX
5
58b
100
AcDbEntity
8
1
100
AcDbVertex
100
AcDb2dVertex
62
5
10
-8.223532
20
91.323869
0
VERTEX
5
58c
100
AcDbEntity
8
1
100
AcDbVertex
100
AcDb2dVertex
62
5
10
-31.373532
20
91.323869
0
VERTEX
5
58d
100
AcDbEntity
8
1
100
AcDbVertex
100
AcDb2dVertex
62
5
10
-25.373532
20
92.323869
0
VERTEX
5
58e
100
AcDbEntity
8
1
100
AcDbVertex
100
AcDb2dVertex
62
5
10
-25.373532
20
90.323869
0
VERTEX
5
58f
100
AcDbEntity
8
1
100
AcDbVertex
100
AcDb2dVertex
62
5
10
-31.373532
20
91.323869
0
VERTEX
5
590
100
AcDbEntity
8
1
100
AcDbVertex
100
AcDb2dVertex
62
5
10
-25.373532
20
91.823869
0
VERTEX
5
591
100
AcDbEntity
8
1
100
AcDbVertex
100
AcDb2dVertex
62
5
10
-25.373532
20
90.823869
0
VERTEX
5
592
100
AcDbEntity
8
1
100
AcDbVertex
100
AcDb2dVertex
62
5
10
-31.373532
20
91.323869
0
SEQEND
5
593
100
AcDbEntity
8
1
0
POLYLINE
5
594
100
AcDbEntity
8
1
6
CONTINUOUS
62
5
100
AcDb2dPolyline
66
1
10
0.0
20
0.0
30
0.0
70
0
0
VERTEX
5
595
100
AcDbEntity
8
1
100
AcDbVertex
100
AcDb2dVertex
62
5
10
-8.223532
20
91.323869
0
VERTEX
5
596
100
AcDbEntity
8
1
100
AcDbVertex
100
AcDb2dVertex
62
5
10
14.926468
20
91.323869
0
VERTEX
5
597
100
AcDbEntity
8
1
100
AcDbVertex
100
AcDb2dVertex
62
5
10
8.926468
20
90.323869
0
VERTEX
5
598
100
AcDbEntity
8
1
100
AcDbVertex
100
AcDb2dVertex
62
5
10
8.926468
20
92.323869
0
VERTEX
5
599
100
AcDbEntity
8
1
100
AcDbVertex
100
AcDb2dVertex
62
5
10
14.926468
20
91.323869
0
VERTEX
5
59a
100
AcDbEntity
8
1
100
AcDbVertex
100
AcDb2dVertex
62
5
10
8.926468
20
90.823869
0
VERTEX
5
59b
100
AcDbEntity
8
1
100
AcDbVertex
100
AcDb2dVertex
62
5
10
8.926468
20
91.823869
0
VERTEX
5
59c
100
AcDbEntity
8
1
100
AcDbVertex
100
AcDb2dVertex
62
5
10
14.926468
20
91.323869
0
SEQEND
5
59d
100
AcDbEntity
8
1
0
LINE
5
59e
100
AcDbEntity
8
1
100
AcDbLine
6
CONTINUOUS
62
5
10
-121.473532
20
168.323869
11
198.526468
21
168.323869
0
POLYLINE
5
59f
100
AcDbEntity
8
1
6
CONTINUOUS
62
5
100
AcDb2dPolyline
66
1
10
0.0
20
0.0
30
0.0
70
0
0
VERTEX
5
5a0
100
AcDbEntity
8
1
100
AcDbVertex
100
AcDb2dVertex
62
5
10
94.876465
20
29.323869
0
VERTEX
5
5a1
100
AcDbEntity
8
1
100
AcDbVertex
100
AcDb2dVertex
62
5
10
94.876465
20
25.323869
0
VERTEX
5
5a2
100
AcDbEntity
8
1
100
AcDbVertex
100
AcDb2dVertex
62
5
10
94.830918
20
25.196809
0
VERTEX
5
5a3
100
AcDbEntity
8
1
100
AcDbVertex
100
AcDb2dVertex
62
5
10
94.676465
20
25.123869
0
VERTEX
5
5a4
100
AcDbEntity
8
1
100
AcDbVertex
100
AcDb2dVertex
62
5
10
94.426465
20
25.123869
0
VERTEX
5
5a5
100
AcDbEntity
8
1
100
AcDbVertex
100
AcDb2dVertex
62
5
10
94.426465
20
25.023869
0
SEQEND
5
5a6
100
AcDbEntity
8
1
0
LINE
5
5a7
100
AcDbEntity
8
1
100
AcDbLine
6
CONTINUOUS
62
5
10
94.426465
20
29.323869
11
94.426465
21
25.123869
0
ARC
5
5a8
100
AcDbEntity
8
1
100
AcDbCircle
6
CONTINUOUS
62
5
10
94.826465
20
25.323869
40
0.200000
100
AcDbArc
50
-89.999999
51
-0.000000
0
LINE
5
5a9
100
AcDbEntity
8
1
100
AcDbLine
6
CONTINUOUS
62
5
10
95.026465
20
25.323869
11
95.026465
21
29.323869
0
LINE
5
5aa
100
AcDbEntity
8
1
100
AcDbLine
6
CONTINUOUS
62
5
10
94.676465
20
25.123869
11
94.826465
21
25.123869
0
LINE
5
5ab
100
AcDbEntity
8
1
100
AcDbLine
6
CONTINUOUS
62
5
10
94.426465
20
29.323869
11
95.226465
21
29.323869
0
LINE
5
5ac
100
AcDbEntity
8
1
100
AcDbLine
6
CONTINUOUS
62
5
10
84.376465
20
25.023869
11
84.376465
21
28.128065
0
LINE
5
5ad
100
AcDbEntity
8
1
100
AcDbLine
6
CONTINUOUS
62
5
10
86.526465
20
28.623392
11
86.526465
21
25.823869
0
LINE
5
5ae
100
AcDbEntity
8
1
100
AcDbLine
6
CONTINUOUS
62
5
10
88.026465
20
28.683490
11
88.026465
21
25.823869
0
ARC
5
5af
100
AcDbEntity
8
1
100
AcDbCircle
6
CONTINUOUS
62
5
10
84.616465
20
28.423869
40
0.300000
100
AcDbArc
50
179.999998
51
-89.999999
0
ARC
5
5b0
100
AcDbEntity
8
1
100
AcDbCircle
6
CONTINUOUS
62
5
10
81.726468
20
22.262720
40
0.400000
100
AcDbArc
50
-80.537677
51
-60.000476
0
LINE
5
5b1
100
AcDbEntity
8
1
100
AcDbLine
6
CONTINUOUS
62
5
10
81.526468
20
21.823869
11
81.792228
21
21.868162
0
ARC
5
5b2
100
AcDbEntity
8
1
100
AcDbCircle
6
CONTINUOUS
62
5
10
81.726468
20
24.385018
40
0.400000
100
AcDbArc
50
60.000476
51
80.537677
0
LINE
5
5b3
100
AcDbEntity
8
1
100
AcDbLine
6
CONTINUOUS
62
5
10
81.526468
20
24.823869
11
81.792228
21
24.779576
0
ARC
5
5b4
100
AcDbEntity
8
1
100
AcDbCircle
6
CONTINUOUS
62
5
10
82.026465
20
26.552089
40
0.100000
100
AcDbArc
50
179.999998
51
-89.999999
0
LINE
5
5b5
100
AcDbEntity
8
1
100
AcDbLine
6
CONTINUOUS
62
5
10
82.026465
20
26.452089
11
83.326465
21
26.452089
0
ARC
5
5b6
100
AcDbEntity
8
1
100
AcDbCircle
6
CONTINUOUS
62
5
10
82.026465
20
28.095649
40
0.100000
100
AcDbArc
50
89.999999
51
179.999998
0
LINE
5
5b7
100
AcDbEntity
8
1
100
AcDbLine
6
CONTINUOUS
62
5
10
83.326465
20
28.195649
11
82.026465
21
28.195649
0
ARC
5
5b8
100
AcDbEntity
8
1
100
AcDbCircle
6
CONTINUOUS
62
5
10
82.026465
20
29.223869
40
0.100000
100
AcDbArc
50
89.999999
51
179.999998
0
LINE
5
5b9
100
AcDbEntity
8
1
100
AcDbLine
6
CONTINUOUS
62
5
10
82.026465
20
29.323869
11
83.326465
21
29.323869
0
LINE
5
5ba
100
AcDbEntity
8
1
100
AcDbLine
6
CONTINUOUS
62
5
10
81.526468
20
20.323869
11
81.926465
21
20.323869
0
ARC
5
5bb
100
AcDbEntity
8
1
100
AcDbCircle
6
CONTINUOUS
62
5
10
84.426465
20
28.423869
40
0.300000
100
AcDbArc
50
-179.999998
51
-99.594067
0
POLYLINE
5
5bc
100
AcDbEntity
8
1
6
CONTINUOUS
62
5
100
AcDb2dPolyline
66
1
10
0.0
20
0.0
30
0.0
70
0
0
VERTEX
5
5bd
100
AcDbEntity
8
1
100
AcDbVertex
100
AcDb2dVertex
62
5
10
84.376465
20
28.128065
0
VERTEX
5
5be
100
AcDbEntity
8
1
100
AcDbVertex
100
AcDb2dVertex
62
5
10
85.326465
20
28.123869
0
VERTEX
5
5bf
100
AcDbEntity
8
1
100
AcDbVertex
100
AcDb2dVertex
62
5
10
85.326465
20
26.145232
0
SEQEND
5
5c0
100
AcDbEntity
8
1
0
ARC
5
5c1
100
AcDbEntity
8
1
100
AcDbCircle
6
CONTINUOUS
62
5
10
85.626660
20
26.124761
40
0.300892
100
AcDbArc
50
176.098913
51
-90.037057
0
LINE
5
5c2
100
AcDbEntity
8
1
100
AcDbLine
6
CONTINUOUS
62
5
10
85.626465
20
25.823869
11
90.826465
21
25.823869
0
ARC
5
5c3
100
AcDbEntity
8
1
100
AcDbCircle
6
CONTINUOUS
62
5
10
90.826465
20
25.323869
40
0.500000
100
AcDbArc
50
-36.869897
51
89.999999
0
LINE
5
5c4
100
AcDbEntity
8
1
100
AcDbLine
6
CONTINUOUS
62
5
10
95.226465
20
14.323869
11
94.426465
21
14.323869
0
LINE
5
5c5
100
AcDbEntity
8
1
100
AcDbLine
6
CONTINUOUS
62
5
10
93.513977
20
10.323869
11
95.226465
21
10.323869
0
ARC
5
5c6
100
AcDbEntity
8
1
100
AcDbCircle
6
CONTINUOUS
62
5
10
84.616465
20
15.223869
40
0.300000
100
AcDbArc
50
89.999999
51
179.999998
0
LINE
5
5c7
100
AcDbEntity
8
1
100
AcDbLine
6
CONTINUOUS
62
5
10
86.526465
20
15.024346
11
86.526465
21
17.823869
0
LINE
5
5c8
100
AcDbEntity
8
1
100
AcDbLine
6
CONTINUOUS
62
5
10
88.026465
20
17.823869
11
88.026465
21
14.960382
0
POLYLINE
5
5c9
100
AcDbEntity
8
1
6
CONTINUOUS
62
5
100
AcDb2dPolyline
66
1
10
0.0
20
0.0
30
0.0
70
0
0
VERTEX
5
5ca
100
AcDbEntity
8
1
100
AcDbVertex
100
AcDb2dVertex
62
5
10
81.526468
20
15.126994
0
VERTEX
5
5cb
100
AcDbEntity
8
1
100
AcDbVertex
100
AcDb2dVertex
62
5
10
81.826465
20
15.173869
0
VERTEX
5
5cc
100
AcDbEntity
8
1
100
AcDbVertex
100
AcDb2dVertex
62
5
10
81.926465
20
15.173869
0
SEQEND
5
5cd
100
AcDbEntity
8
1
0
POLYLINE
5
5ce
100
AcDbEntity
8
1
6
CONTINUOUS
62
5
100
AcDb2dPolyline
66
1
10
0.0
20
0.0
30
0.0
70
0
0
VERTEX
5
5cf
100
AcDbEntity
8
1
100
AcDbVertex
100
AcDb2dVertex
62
5
10
81.926465
20
13.573869
0
VERTEX
5
5d0
100
AcDbEntity
8
1
100
AcDbVertex
100
AcDb2dVertex
62
5
10
81.826465
20
13.573869
0
VERTEX
5
5d1
100
AcDbEntity
8
1
100
AcDbVertex
100
AcDb2dVertex
62
5
10
81.526468
20
13.566627
0
SEQEND
5
5d2
100
AcDbEntity
8
1
0
ARC
5
5d3
100
AcDbEntity
8
1
100
AcDbCircle
6
CONTINUOUS
62
5
10
82.026465
20
14.423869
40
0.100000
100
AcDbArc
50
-179.999998
51
-89.999999
0
LINE
5
5d4
100
AcDbEntity
8
1
100
AcDbLine
6
CONTINUOUS
62
5
10
83.326465
20
14.323869
11
82.026465
21
14.323869
0
ARC
5
5d5
100
AcDbEntity
8
1
100
AcDbCircle
6
CONTINUOUS
62
5
10
84.362374
20
10.323869
40
1.145909
100
AcDbArc
50
154.689784
51
-154.689784
0
ARC
5
5d6
100
AcDbEntity
8
1
100
AcDbCircle
6
CONTINUOUS
62
5
10
82.962374
20
10.323869
40
1.145909
100
AcDbArc
50
154.689784
51
-154.689784
0
POLYLINE
5
5d7
100
AcDbEntity
8
1
6
CONTINUOUS
62
5
100
AcDb2dPolyline
66
1
10
0.0
20
0.0
30
0.0
70
0
0
VERTEX
5
5d8
100
AcDbEntity
8
1
100
AcDbVertex
100
AcDb2dVertex
62
5
10
88.026465
20
11.773869
0
VERTEX
5
5d9
100
AcDbEntity
8
1
100
AcDbVertex
100
AcDb2dVertex
62
5
10
86.526465
20
11.773869
0
VERTEX
5
5da
100
AcDbEntity
8
1
100
AcDbVertex
100
AcDb2dVertex
62
5
10
86.526465
20
14.773869
0
VERTEX
5
5db
100
AcDbEntity
8
1
100
AcDbVertex
100
AcDb2dVertex
62
5
10
88.026465
20
14.773869
0
SEQEND
5
5dc
100
AcDbEntity
8
1
0
POLYLINE
5
5dd
100
AcDbEntity
8
1
6
CONTINUOUS
62
5
100
AcDb2dPolyline
66
1
10
0.0
20
0.0
30
0.0
70
0
0
VERTEX
5
5de
100
AcDbEntity
8
1
100
AcDbVertex
100
AcDb2dVertex
62
5
10
86.526465
20
14.773869
0
VERTEX
5
5df
100
AcDbEntity
8
1
100
AcDbVertex
100
AcDb2dVertex
62
5
10
85.966465
20
14.773869
0
VERTEX
5
5e0
100
AcDbEntity
8
1
100
AcDbVertex
100
AcDb2dVertex
62
5
10
85.966465
20
11.773869
0
VERTEX
5
5e1
100
AcDbEntity
8
1
100
AcDbVertex
100
AcDb2dVertex
62
5
10
86.526465
20
11.773869
0
SEQEND
5
5e2
100
AcDbEntity
8
1
0
LINE
5
5e3
100
AcDbEntity
8
1
100
AcDbLine
6
CONTINUOUS
62
5
10
88.026465
20
14.509446
11
88.026465
21
12.086855
0
ARC
5
5e4
100
AcDbEntity
8
1
100
AcDbCircle
6
CONTINUOUS
62
5
10
84.426473
20
15.223845
40
0.300024
100
AcDbArc
50
90.001520
51
179.405811
0
POLYLINE
5
5e5
100
AcDbEntity
8
1
6
CONTINUOUS
62
5
100
AcDb2dPolyline
66
1
10
0.0
20
0.0
30
0.0
70
0
0
VERTEX
5
5e6
100
AcDbEntity
8
1
100
AcDbVertex
100
AcDb2dVertex
62
5
10
84.426465
20
15.523869
0
VERTEX
5
5e7
100
AcDbEntity
8
1
100
AcDbVertex
100
AcDb2dVertex
62
5
10
85.326465
20
15.523869
0
VERTEX
5
5e8
100
AcDbEntity
8
1
100
AcDbVertex
100
AcDb2dVertex
62
5
10
85.326465
20
17.523869
0
SEQEND
5
5e9
100
AcDbEntity
8
1
0
ARC
5
5ea
100
AcDbEntity
8
1
100
AcDbCircle
6
CONTINUOUS
62
5
10
85.626465
20
17.523869
40
0.300000
100
AcDbArc
50
89.999999
51
-179.999998
0
LINE
5
5eb
100
AcDbEntity
8
1
100
AcDbLine
6
CONTINUOUS
62
5
10
85.626465
20
17.823869
11
90.826465
21
17.823869
0
ARC
5
5ec
100
AcDbEntity
8
1
100
AcDbCircle
6
CONTINUOUS
62
5
10
90.826465
20
18.323869
40
0.500000
100
AcDbArc
50
-89.999999
51
36.869897
0
LINE
5
5ed
100
AcDbEntity
8
1
100
AcDbLine
6
CONTINUOUS
62
5
10
84.376465
20
15.519673
11
84.376465
21
18.623869
0
LINE
5
5ee
100
AcDbEntity
8
1
100
AcDbLine
6
CONTINUOUS
62
5
10
94.426465
20
18.523869
11
94.426465
21
14.323869
0
ARC
5
5ef
100
AcDbEntity
8
1
100
AcDbCircle
6
CONTINUOUS
62
5
10
94.826465
20
18.323869
40
0.200000
100
AcDbArc
50
0.000000
51
89.999999
0
POLYLINE
5
5f0
100
AcDbEntity
8
1
6
CONTINUOUS
62
5
100
AcDb2dPolyline
66
1
10
0.0
20
0.0
30
0.0
70
0
0
VERTEX
5
5f1
100
AcDbEntity
8
1
100
AcDbVertex
100
AcDb2dVertex
62
5
10
94.826465
20
18.523869
0
VERTEX
5
5f2
100
AcDbEntity
8
1
100
AcDbVertex
100
AcDb2dVertex
62
5
10
94.426465
20
18.523869
0
VERTEX
5
5f3
100
AcDbEntity
8
1
100
AcDbVertex
100
AcDb2dVertex
62
5
10
94.426465
20
18.623869
0
SEQEND
5
5f4
100
AcDbEntity
8
1
0
LINE
5
5f5
100
AcDbEntity
8
1
100
AcDbLine
6
CONTINUOUS
62
5
10
95.026465
20
14.323869
11
95.026465
21
18.323869
0
ARC
5
5f6
100
AcDbEntity
8
1
100
AcDbCircle
6
CONTINUOUS
62
5
10
94.676465
20
18.323869
40
0.200000
100
AcDbArc
50
-0.000000
51
89.999999
0
LINE
5
5f7
100
AcDbEntity
8
1
100
AcDbLine
6
CONTINUOUS
62
5
10
94.876465
20
18.323869
11
94.876465
21
14.323869
0
LINE
5
5f8
100
AcDbEntity
8
1
100
AcDbLine
6
CONTINUOUS
62
5
10
79.626432
20
13.823869
11
79.626432
21
19.823869
0
LINE
5
5f9
100
AcDbEntity
8
1
100
AcDbLine
6
CONTINUOUS
62
5
10
80.426432
20
19.823869
11
80.426432
21
13.823869
0
POLYLINE
5
5fa
100
AcDbEntity
8
1
6
CONTINUOUS
62
5
100
AcDb2dPolyline
66
1
10
0.0
20
0.0
30
0.0
70
0
0
VERTEX
5
5fb
100
AcDbEntity
8
1
100
AcDbVertex
100
AcDb2dVertex
62
5
10
97.226465
20
20.311869
0
VERTEX
5
5fc
100
AcDbEntity
8
1
100
AcDbVertex
100
AcDb2dVertex
62
5
10
99.526465
20
20.250536
0
VERTEX
5
5fd
100
AcDbEntity
8
1
100
AcDbVertex
100
AcDb2dVertex
62
5
10
100.526465
20
20.550536
0
VERTEX
5
5fe
100
AcDbEntity
8
1
100
AcDbVertex
100
AcDb2dVertex
62
5
10
100.526465
20
21.423869
0
VERTEX
5
5ff
100
AcDbEntity
8
1
100
AcDbVertex
100
AcDb2dVertex
62
5
10
97.226465
20
21.467869
0
SEQEND
5
600
100
AcDbEntity
8
1
0
ARC
5
601
100
AcDbEntity
8
1
100
AcDbCircle
6
CONTINUOUS
62
5
10
107.426465
20
4.898873
40
1.000000
100
AcDbArc
50
-88.549783
51
-0.000000
0
LINE
5
602
100
AcDbEntity
8
1
100
AcDbLine
6
CONTINUOUS
62
5
10
107.451774
20
3.899193
11
101.501157
21
3.748545
0
ARC
5
603
100
AcDbEntity
8
1
100
AcDbCircle
6
CONTINUOUS
62
5
10
101.526466
20
2.748865
40
1.000000
100
AcDbArc
50
91.450216
51
-179.999998
0
LINE
5
604
100
AcDbEntity
8
1
100
AcDbLine
6
CONTINUOUS
62
5
10
100.526466
20
2.748865
11
100.526466
21
1.590005
0
ARC
5
605
100
AcDbEntity
8
1
100
AcDbCircle
6
CONTINUOUS
62
5
10
99.526466
20
1.590005
40
1.000000
100
AcDbArc
50
-88.492563
51
0.000000
0
LINE
5
606
100
AcDbEntity
8
1
100
AcDbLine
6
CONTINUOUS
62
5
10
95.226465
20
6.323869
11
94.426465
21
6.323869
0
LINE
5
607
100
AcDbEntity
8
1
100
AcDbLine
6
CONTINUOUS
62
5
10
94.426465
20
6.323869
11
94.426465
21
2.123869
0
ARC
5
608
100
AcDbEntity
8
1
100
AcDbCircle
6
CONTINUOUS
62
5
10
94.676465
20
2.323869
40
0.200000
100
AcDbArc
50
-89.999999
51
0.000000
0
POLYLINE
5
609
100
AcDbEntity
8
1
6
CONTINUOUS
62
5
100
AcDb2dPolyline
66
1
10
0.0
20
0.0
30
0.0
70
0
0
VERTEX
5
60a
100
AcDbEntity
8
1
100
AcDbVertex
100
AcDb2dVertex
62
5
10
94.676465
20
2.123869
0
VERTEX
5
60b
100
AcDbEntity
8
1
100
AcDbVertex
100
AcDb2dVertex
62
5
10
94.426465
20
2.123869
0
VERTEX
5
60c
100
AcDbEntity
8
1
100
AcDbVertex
100
AcDb2dVertex
62
5
10
94.426465
20
2.023869
0
SEQEND
5
60d
100
AcDbEntity
8
1
0
LINE
5
60e
100
AcDbEntity
8
1
100
AcDbLine
6
CONTINUOUS
62
5
10
94.876465
20
6.323869
11
94.876465
21
2.323869
0
ARC
5
60f
100
AcDbEntity
8
1
100
AcDbCircle
6
CONTINUOUS
62
5
10
94.826465
20
2.323869
40
0.200000
100
AcDbArc
50
-89.999999
51
-0.000000
0
LINE
5
610
100
AcDbEntity
8
1
100
AcDbLine
6
CONTINUOUS
62
5
10
95.026465
20
2.323869
11
95.026465
21
6.323869
0
LINE
5
611
100
AcDbEntity
8
1
100
AcDbLine
6
CONTINUOUS
62
5
10
94.676465
20
2.123869
11
94.826465
21
2.123869
0
LINE
5
612
100
AcDbEntity
8
1
100
AcDbLine
6
CONTINUOUS
62
5
10
95.226465
20
-8.676131
11
94.426465
21
-8.676131
0
LINE
5
613
100
AcDbEntity
8
1
100
AcDbLine
6
CONTINUOUS
62
5
10
94.426465
20
-4.476131
11
94.426465
21
-8.676131
0
ARC
5
614
100
AcDbEntity
8
1
100
AcDbCircle
6
CONTINUOUS
62
5
10
94.826465
20
-4.676131
40
0.200000
100
AcDbArc
50
0.000000
51
89.999999
0
POLYLINE
5
615
100
AcDbEntity
8
1
6
CONTINUOUS
62
5
100
AcDb2dPolyline
66
1
10
0.0
20
0.0
30
0.0
70
0
0
VERTEX
5
616
100
AcDbEntity
8
1
100
AcDbVertex
100
AcDb2dVertex
62
5
10
94.826465
20
-4.476131
0
VERTEX
5
617
100
AcDbEntity
8
1
100
AcDbVertex
100
AcDb2dVertex
62
5
10
94.426465
20
-4.476131
0
VERTEX
5
618
100
AcDbEntity
8
1
100
AcDbVertex
100
AcDb2dVertex
62
5
10
94.426465
20
-4.376131
0
SEQEND
5
619
100
AcDbEntity
8
1
0
LINE
5
61a
100
AcDbEntity
8
1
100
AcDbLine
6
CONTINUOUS
62
5
10
95.026465
20
-8.676131
11
95.026465
21
-4.676131
0
ARC
5
61b
100
AcDbEntity
8
1
100
AcDbCircle
6
CONTINUOUS
62
5
10
94.676465
20
-4.676131
40
0.200000
100
AcDbArc
50
0.000000
51
89.999999
0
LINE
5
61c
100
AcDbEntity
8
1
100
AcDbLine
6
CONTINUOUS
62
5
10
94.876465
20
-4.676131
11
94.876465
21
-8.676131
0
ARC
5
61d
100
AcDbEntity
8
1
100
AcDbCircle
6
CONTINUOUS
62
5
10
84.616465
20
5.423869
40
0.300000
100
AcDbArc
50
179.999998
51
-89.999999
0
LINE
5
61e
100
AcDbEntity
8
1
100
AcDbLine
6
CONTINUOUS
62
5
10
84.376465
20
2.023869
11
84.376465
21
5.128065
0
LINE
5
61f
100
AcDbEntity
8
1
100
AcDbLine
6
CONTINUOUS
62
5
10
86.526465
20
5.623392
11
86.526465
21
2.823869
0
LINE
5
620
100
AcDbEntity
8
1
100
AcDbLine
6
CONTINUOUS
62
5
10
88.026465
20
5.683490
11
88.026465
21
2.823869
0
LINE
5
621
100
AcDbEntity
8
1
100
AcDbLine
6
CONTINUOUS
62
5
10
81.526468
20
0.323869
11
81.926465
21
0.323869
0
POLYLINE
5
622
100
AcDbEntity
8
1
6
CONTINUOUS
62
5
100
AcDb2dPolyline
66
1
10
0.0
20
0.0
30
0.0
70
0
0
VERTEX
5
623
100
AcDbEntity
8
1
100
AcDbVertex
100
AcDb2dVertex
62
5
10
81.526468
20
5.520744
0
VERTEX
5
624
100
AcDbEntity
8
1
100
AcDbVertex
100
AcDb2dVertex
62
5
10
81.826465
20
5.473869
0
VERTEX
5
625
100
AcDbEntity
8
1
100
AcDbVertex
100
AcDb2dVertex
62
5
10
81.926465
20
5.473869
0
SEQEND
5
626
100
AcDbEntity
8
1
0
ARC
5
627
100
AcDbEntity
8
1
100
AcDbCircle
6
CONTINUOUS
62
5
10
82.026465
20
6.223869
40
0.100000
100
AcDbArc
50
89.999999
51
179.999998
0
LINE
5
628
100
AcDbEntity
8
1
100
AcDbLine
6
CONTINUOUS
62
5
10
82.026465
20
6.323869
11
83.326465
21
6.323869
0
LINE
5
629
100
AcDbEntity
8
1
100
AcDbLine
6
CONTINUOUS
62
5
10
88.026465
20
8.556421
11
88.026465
21
6.207931
0
LINE
5
62a
100
AcDbEntity
8
1
100
AcDbLine
6
CONTINUOUS
62
5
10
79.626432
20
0.823869
11
79.626432
21
6.823869
0
LINE
5
62b
100
AcDbEntity
8
1
100
AcDbLine
6
CONTINUOUS
62
5
10
80.426432
20
6.823869
11
80.426432
21
0.823869
0
POLYLINE
5
62c
100
AcDbEntity
8
1
6
CONTINUOUS
62
5
100
AcDb2dPolyline
66
1
10
0.0
20
0.0
30
0.0
70
0
0
VERTEX
5
62d
100
AcDbEntity
8
1
100
AcDbVertex
100
AcDb2dVertex
62
5
10
81.526468
20
7.075569
0
VERTEX
5
62e
100
AcDbEntity
8
1
100
AcDbVertex
100
AcDb2dVertex
62
5
10
81.826465
20
7.073869
0
VERTEX
5
62f
100
AcDbEntity
8
1
100
AcDbVertex
100
AcDb2dVertex
62
5
10
81.926465
20
7.073869
0
SEQEND
5
630
100
AcDbEntity
8
1
0
ARC
5
631
100
AcDbEntity
8
1
100
AcDbCircle
6
CONTINUOUS
62
5
10
84.616465
20
-7.776131
40
0.300000
100
AcDbArc
50
89.999999
51
179.999998
0
LINE
5
632
100
AcDbEntity
8
1
100
AcDbLine
6
CONTINUOUS
62
5
10
79.626465
20
-6.076146
11
79.626465
21
-5.076146
0
ARC
5
633
100
AcDbEntity
8
1
100
AcDbCircle
6
CONTINUOUS
62
5
10
82.026465
20
-7.447911
40
0.100000
100
AcDbArc
50
179.999998
51
-89.999999
0
LINE
5
634
100
AcDbEntity
8
1
100
AcDbLine
6
CONTINUOUS
62
5
10
83.326465
20
-7.547911
11
82.026465
21
-7.547911
0
ARC
5
635
100
AcDbEntity
8
1
100
AcDbCircle
6
CONTINUOUS
62
5
10
82.026465
20
-5.904351
40
0.100000
100
AcDbArc
50
89.999999
51
179.999998
0
LINE
5
636
100
AcDbEntity
8
1
100
AcDbLine
6
CONTINUOUS
62
5
10
82.026465
20
-5.804351
11
83.326465
21
-5.804351
0
ARC
5
637
100
AcDbEntity
8
1
100
AcDbCircle
6
CONTINUOUS
62
5
10
84.362374
20
-10.676131
40
1.145909
100
AcDbArc
50
154.689784
51
-154.689784
0
LINE
5
638
100
AcDbEntity
8
1
100
AcDbLine
6
CONTINUOUS
62
5
10
79.626465
20
-10.559479
11
79.626465
21
-9.976146
0
ARC
5
639
100
AcDbEntity
8
1
100
AcDbCircle
6
CONTINUOUS
62
5
10
82.962374
20
-10.676131
40
1.145909
100
AcDbArc
50
154.689784
51
-154.689784
0
LINE
5
63a
100
AcDbEntity
8
1
100
AcDbLine
6
CONTINUOUS
62
5
10
79.826465
20
-6.076146
11
79.826465
21
-9.976146
0
POLYLINE
5
63b
100
AcDbEntity
8
1
6
CONTINUOUS
62
5
100
AcDb2dPolyline
66
1
10
0.0
20
0.0
30
0.0
70
0
0
VERTEX
5
63c
100
AcDbEntity
8
1
100
AcDbVertex
100
AcDb2dVertex
62
5
10
88.026465
20
-11.226131
0
VERTEX
5
63d
100
AcDbEntity
8
1
100
AcDbVertex
100
AcDb2dVertex
62
5
10
86.526465
20
-11.226131
0
VERTEX
5
63e
100
AcDbEntity
8
1
100
AcDbVertex
100
AcDb2dVertex
62
5
10
86.526465
20
-8.226131
0
VERTEX
5
63f
100
AcDbEntity
8
1
100
AcDbVertex
100
AcDb2dVertex
62
5
10
88.026465
20
-8.226131
0
SEQEND
5
640
100
AcDbEntity
8
1
0
POLYLINE
5
641
100
AcDbEntity
8
1
6
CONTINUOUS
62
5
100
AcDb2dPolyline
66
1
10
0.0
20
0.0
30
0.0
70
0
0
VERTEX
5
642
100
AcDbEntity
8
1
100
AcDbVertex
100
AcDb2dVertex
62
5
10
86.526465
20
-8.226131
0
VERTEX
5
643
100
AcDbEntity
8
1
100
AcDbVertex
100
AcDb2dVertex
62
5
10
85.966465
20
-8.226131
0
VERTEX
5
644
100
AcDbEntity
8
1
100
AcDbVertex
100
AcDb2dVertex
62
5
10
85.966465
20
-11.226131
0
VERTEX
5
645
100
AcDbEntity
8
1
100
AcDbVertex
100
AcDb2dVertex
62
5
10
86.526465
20
-11.226131
0
SEQEND
5
646
100
AcDbEntity
8
1
0
LINE
5
647
100
AcDbEntity
8
1
100
AcDbLine
6
CONTINUOUS
62
5
10
88.026465
20
-8.490554
11
88.026465
21
-10.913145
0
ARC
5
648
100
AcDbEntity
8
1
100
AcDbCircle
6
CONTINUOUS
62
5
10
82.026465
20
-8.576131
40
0.100000
100
AcDbArc
50
-179.999998
51
-89.999999
0
LINE
5
649
100
AcDbEntity
8
1
100
AcDbLine
6
CONTINUOUS
62
5
10
83.326465
20
-8.676131
11
82.026465
21
-8.676131
0
LINE
5
64a
100
AcDbEntity
8
1
100
AcDbLine
6
CONTINUOUS
62
5
10
86.526465
20
-7.975654
11
86.526465
21
-5.176131
0
LINE
5
64b
100
AcDbEntity
8
1
100
AcDbLine
6
CONTINUOUS
62
5
10
88.026465
20
-5.176131
11
88.026465
21
-8.039618
0
ARC
5
64c
100
AcDbEntity
8
1
100
AcDbCircle
6
CONTINUOUS
62
5
10
82.976465
20
-10.676131
40
1.450000
100
AcDbArc
50
136.397180
51
-136.397180
0
LINE
5
64d
100
AcDbEntity
8
1
100
AcDbLine
6
CONTINUOUS
62
5
10
84.376465
20
-7.480327
11
84.376465
21
-4.376131
0
POLYLINE
5
64e
100
AcDbEntity
8
1
6
CONTINUOUS
62
5
100
AcDb2dPolyline
66
1
10
0.0
20
0.0
30
0.0
70
0
0
VERTEX
5
64f
100
AcDbEntity
8
1
100
AcDbVertex
100
AcDb2dVertex
62
5
10
81.126468
20
-0.976131
0
VERTEX
5
650
100
AcDbEntity
8
1
100
AcDbVertex
100
AcDb2dVertex
62
5
10
81.126468
20
-4.876131
0
VERTEX
5
651
100
AcDbEntity
8
1
100
AcDbVertex
100
AcDb2dVertex
62
5
10
81.526468
20
-4.876131
0
VERTEX
5
652
100
AcDbEntity
8
1
100
AcDbVertex
100
AcDb2dVertex
62
5
10
81.526468
20
-2.876131
0
VERTEX
5
653
100
AcDbEntity
8
1
100
AcDbVertex
100
AcDb2dVertex
62
5
10
81.126468
20
-2.876131
0
SEQEND
5
654
100
AcDbEntity
8
1
0
ARC
5
655
100
AcDbEntity
8
1
100
AcDbCircle
6
CONTINUOUS
62
5
10
90.826465
20
-4.676131
40
0.500000
100
AcDbArc
50
-89.999999
51
36.869897
0
LINE
5
656
100
AcDbEntity
8
1
100
AcDbLine
6
CONTINUOUS
62
5
10
90.826465
20
-5.176131
11
85.626465
21
-5.176131
0
ARC
5
657
100
AcDbEntity
8
1
100
AcDbCircle
6
CONTINUOUS
62
5
10
85.626465
20
-5.476131
40
0.300000
100
AcDbArc
50
89.999999
51
-179.999998
0
POLYLINE
5
658
100
AcDbEntity
8
1
6
CONTINUOUS
62
5
100
AcDb2dPolyline
66
1
10
0.0
20
0.0
30
0.0
70
0
0
VERTEX
5
659
100
AcDbEntity
8
1
100
AcDbVertex
100
AcDb2dVertex
62
5
10
85.326465
20
-5.476131
0
VERTEX
5
65a
100
AcDbEntity
8
1
100
AcDbVertex
100
AcDb2dVertex
62
5
10
85.326465
20
-7.476131
0
VERTEX
5
65b
100
AcDbEntity
8
1
100
AcDbVertex
100
AcDb2dVertex
62
5
10
84.426465
20
-7.476131
0
SEQEND
5
65c
100
AcDbEntity
8
1
0
ARC
5
65d
100
AcDbEntity
8
1
100
AcDbCircle
6
CONTINUOUS
62
5
10
84.426473
20
-7.776155
40
0.300024
100
AcDbArc
50
90.001497
51
179.405833
0
ARC
5
65e
100
AcDbEntity
8
1
100
AcDbCircle
6
CONTINUOUS
62
5
10
84.426465
20
5.423869
40
0.300000
100
AcDbArc
50
179.999998
51
-89.999999
0
POLYLINE
5
65f
100
AcDbEntity
8
1
6
CONTINUOUS
62
5
100
AcDb2dPolyline
66
1
10
0.0
20
0.0
30
0.0
70
0
0
VERTEX
5
660
100
AcDbEntity
8
1
100
AcDbVertex
100
AcDb2dVertex
62
5
10
84.426465
20
5.123869
0
VERTEX
5
661
100
AcDbEntity
8
1
100
AcDbVertex
100
AcDb2dVertex
62
5
10
85.326465
20
5.123869
0
VERTEX
5
662
100
AcDbEntity
8
1
100
AcDbVertex
100
AcDb2dVertex
62
5
10
85.326465
20
3.123869
0
SEQEND
5
663
100
AcDbEntity
8
1
0
ARC
5
664
100
AcDbEntity
8
1
100
AcDbCircle
6
CONTINUOUS
62
5
10
85.626465
20
3.123869
40
0.300000
100
AcDbArc
50
179.999998
51
-89.999999
0
LINE
5
665
100
AcDbEntity
8
1
100
AcDbLine
6
CONTINUOUS
62
5
10
85.626465
20
2.823869
11
90.826465
21
2.823869
0
ARC
5
666
100
AcDbEntity
8
1
100
AcDbCircle
6
CONTINUOUS
62
5
10
90.826465
20
2.323869
40
0.500000
100
AcDbArc
50
-36.869897
51
89.999999
0
POLYLINE
5
667
100
AcDbEntity
8
1
6
CONTINUOUS
62
5
100
AcDb2dPolyline
66
1
10
0.0
20
0.0
30
0.0
70
0
0
VERTEX
5
668
100
AcDbEntity
8
1
100
AcDbVertex
100
AcDb2dVertex
62
5
10
97.226465
20
-0.820131
0
VERTEX
5
669
100
AcDbEntity
8
1
100
AcDbVertex
100
AcDb2dVertex
62
5
10
100.526465
20
-0.776131
0
VERTEX
5
66a
100
AcDbEntity
8
1
100
AcDbVertex
100
AcDb2dVertex
62
5
10
100.526465
20
0.097202
0
VERTEX
5
66b
100
AcDbEntity
8
1
100
AcDbVertex
100
AcDb2dVertex
62
5
10
99.526465
20
0.397202
0
VERTEX
5
66c
100
AcDbEntity
8
1
100
AcDbVertex
100
AcDb2dVertex
62
5
10
97.226465
20
0.335869
0
SEQEND
5
66d
100
AcDbEntity
8
1
0
ARC
5
66e
100
AcDbEntity
8
1
100
AcDbCircle
6
CONTINUOUS
62
5
10
94.868739
20
11.423869
40
0.550000
100
AcDbArc
50
89.999999
51
135.790136
0
LINE
5
66f
100
AcDbEntity
8
1
100
AcDbLine
6
CONTINUOUS
62
5
10
94.474504
20
11.807378
11
93.709675
21
11.021158
0
ARC
5
670
100
AcDbEntity
8
1
100
AcDbCircle
6
CONTINUOUS
62
5
10
94.426465
20
10.323869
40
1.000000
100
AcDbArc
50
135.790136
51
-135.790136
0
LINE
5
671
100
AcDbEntity
8
1
100
AcDbLine
6
CONTINUOUS
62
5
10
93.709675
20
9.626581
11
94.474504
21
8.840360
0
ARC
5
672
100
AcDbEntity
8
1
100
AcDbCircle
6
CONTINUOUS
62
5
10
94.868739
20
9.223869
40
0.550000
100
AcDbArc
50
-135.790136
51
-89.999999
0
LINE
5
673
100
AcDbEntity
8
1
100
AcDbLine
6
CONTINUOUS
62
5
10
94.868739
20
8.673869
11
95.213068
21
8.673869
0
LINE
5
674
100
AcDbEntity
8
1
100
AcDbLine
6
CONTINUOUS
62
5
10
95.213068
20
11.973869
11
94.868739
21
11.973869
0
LINE
5
675
100
AcDbEntity
8
1
100
AcDbLine
6
CONTINUOUS
62
5
10
95.226465
20
8.723869
11
95.226465
21
11.923869
0
LINE
5
676
100
AcDbEntity
8
1
100
AcDbLine
6
CONTINUOUS
62
5
10
94.636465
20
11.843304
11
94.636465
21
8.796462
0
POLYLINE
5
677
100
AcDbEntity
8
1
6
CONTINUOUS
62
5
100
AcDb2dPolyline
66
1
10
0.0
20
0.0
30
0.0
70
0
0
VERTEX
5
678
100
AcDbEntity
8
1
100
AcDbVertex
100
AcDb2dVertex
62
5
10
86.526465
20
11.773869
0
VERTEX
5
679
100
AcDbEntity
8
1
100
AcDbVertex
100
AcDb2dVertex
62
5
10
86.526465
20
11.773869
0
VERTEX
5
67a
100
AcDbEntity
8
1
100
AcDbVertex
100
AcDb2dVertex
62
5
10
86.526465
20
8.873869
0
SEQEND
5
67b
100
AcDbEntity
8
1
0
LINE
5
67c
100
AcDbEntity
8
1
100
AcDbLine
6
CONTINUOUS
62
5
10
88.026465
20
11.632986
11
88.026465
21
9.022364
0
ARC
5
67d
100
AcDbEntity
8
1
100
AcDbCircle
6
CONTINUOUS
62
5
10
82.976465
20
10.323869
40
1.450000
100
AcDbArc
50
136.397180
51
-136.397180
0
POLYLINE
5
67e
100
AcDbEntity
8
1
6
CONTINUOUS
62
5
100
AcDb2dPolyline
66
1
10
0.0
20
0.0
30
0.0
70
0
0
VERTEX
5
67f
100
AcDbEntity
8
1
100
AcDbVertex
100
AcDb2dVertex
62
5
10
88.026465
20
5.873869
0
VERTEX
5
680
100
AcDbEntity
8
1
100
AcDbVertex
100
AcDb2dVertex
62
5
10
86.526465
20
5.873869
0
VERTEX
5
681
100
AcDbEntity
8
1
100
AcDbVertex
100
AcDb2dVertex
62
5
10
86.526465
20
8.873869
0
VERTEX
5
682
100
AcDbEntity
8
1
100
AcDbVertex
100
AcDb2dVertex
62
5
10
88.026465
20
8.873869
0
SEQEND
5
683
100
AcDbEntity
8
1
0
POLYLINE
5
684
100
AcDbEntity
8
1
6
CONTINUOUS
62
5
100
AcDb2dPolyline
66
1
10
0.0
20
0.0
30
0.0
70
0
0
VERTEX
5
685
100
AcDbEntity
8
1
100
AcDbVertex
100
AcDb2dVertex
62
5
10
86.526465
20
5.873869
0
VERTEX
5
686
100
AcDbEntity
8
1
100
AcDbVertex
100
AcDb2dVertex
62
5
10
85.966465
20
5.873869
0
VERTEX
5
687
100
AcDbEntity
8
1
100
AcDbVertex
100
AcDb2dVertex
62
5
10
85.966465
20
8.873869
0
VERTEX
5
688
100
AcDbEntity
8
1
100
AcDbVertex
100
AcDb2dVertex
62
5
10
86.526465
20
8.873869
0
SEQEND
5
689
100
AcDbEntity
8
1
0
LINE
5
68a
100
AcDbEntity
8
1
100
AcDbLine
6
CONTINUOUS
62
5
10
84.316465
20
15.223869
11
84.316465
21
5.423869
0
LINE
5
68b
100
AcDbEntity
8
1
100
AcDbLine
6
CONTINUOUS
62
5
10
84.126465
20
15.223869
11
84.126465
21
5.570580
0
LINE
5
68c
100
AcDbEntity
8
1
100
AcDbLine
6
CONTINUOUS
62
5
10
84.926465
20
15.323869
11
84.926465
21
5.323869
0
LINE
5
68d
100
AcDbEntity
8
1
100
AcDbLine
6
CONTINUOUS
62
5
10
81.826465
20
5.473869
11
81.826465
21
9.440693
0
LINE
5
68e
100
AcDbEntity
8
1
100
AcDbLine
6
CONTINUOUS
62
5
10
81.826465
20
11.207045
11
81.826465
21
15.173869
0
LINE
5
68f
100
AcDbEntity
8
1
100
AcDbLine
6
CONTINUOUS
62
5
10
83.326465
20
18.623869
11
83.326465
21
2.023869
0
LINE
5
690
100
AcDbEntity
8
1
100
AcDbLine
6
CONTINUOUS
62
5
10
84.126465
20
18.623869
11
84.126465
21
2.023869
0
ARC
5
691
100
AcDbEntity
8
1
100
AcDbCircle
6
CONTINUOUS
62
5
10
82.026465
20
18.723869
40
0.100000
100
AcDbArc
50
-179.999998
51
-89.999999
0
LINE
5
692
100
AcDbEntity
8
1
100
AcDbLine
6
CONTINUOUS
62
5
10
82.026465
20
18.623869
11
95.126465
21
18.623869
0
ARC
5
693
100
AcDbEntity
8
1
100
AcDbCircle
6
CONTINUOUS
62
5
10
95.126465
20
18.523869
40
0.100000
100
AcDbArc
50
0.000000
51
89.999999
0
LINE
5
694
100
AcDbEntity
8
1
100
AcDbLine
6
CONTINUOUS
62
5
10
95.226465
20
18.523869
11
95.226465
21
14.123869
0
ARC
5
695
100
AcDbEntity
8
1
100
AcDbCircle
6
CONTINUOUS
62
5
10
95.126465
20
14.123869
40
0.100000
100
AcDbArc
50
-89.999999
51
-0.000000
0
LINE
5
696
100
AcDbEntity
8
1
100
AcDbLine
6
CONTINUOUS
62
5
10
95.126465
20
14.023869
11
94.226465
21
14.023869
0
ARC
5
697
100
AcDbEntity
8
1
100
AcDbCircle
6
CONTINUOUS
62
5
10
94.226465
20
13.523869
40
0.500000
100
AcDbArc
50
89.999999
51
-179.999998
0
LINE
5
698
100
AcDbEntity
8
1
100
AcDbLine
6
CONTINUOUS
62
5
10
93.726465
20
13.523869
11
93.726465
21
12.523869
0
ARC
5
699
100
AcDbEntity
8
1
100
AcDbCircle
6
CONTINUOUS
62
5
10
94.226465
20
12.523869
40
0.500000
100
AcDbArc
50
179.999998
51
-89.999999
0
LINE
5
69a
100
AcDbEntity
8
1
100
AcDbLine
6
CONTINUOUS
62
5
10
94.226465
20
12.023869
11
95.126465
21
12.023869
0
ARC
5
69b
100
AcDbEntity
8
1
100
AcDbCircle
6
CONTINUOUS
62
5
10
95.126465
20
11.923869
40
0.100000
100
AcDbArc
50
0.000000
51
89.999999
0
LINE
5
69c
100
AcDbEntity
8
1
100
AcDbLine
6
CONTINUOUS
62
5
10
95.226465
20
11.923869
11
95.226465
21
8.723869
0
ARC
5
69d
100
AcDbEntity
8
1
100
AcDbCircle
6
CONTINUOUS
62
5
10
95.126465
20
8.723869
40
0.100000
100
AcDbArc
50
-89.999999
51
-0.000000
0
LINE
5
69e
100
AcDbEntity
8
1
100
AcDbLine
6
CONTINUOUS
62
5
10
95.126465
20
8.623869
11
94.226465
21
8.623869
0
ARC
5
69f
100
AcDbEntity
8
1
100
AcDbCircle
6
CONTINUOUS
62
5
10
94.226465
20
8.123869
40
0.500000
100
AcDbArc
50
89.999999
51
-179.999998
0
LINE
5
6a0
100
AcDbEntity
8
1
100
AcDbLine
6
CONTINUOUS
62
5
10
93.726465
20
8.123869
11
93.726465
21
7.123869
0
ARC
5
6a1
100
AcDbEntity
8
1
100
AcDbCircle
6
CONTINUOUS
62
5
10
94.226465
20
7.123869
40
0.500000
100
AcDbArc
50
-179.999998
51
-89.999999
0
LINE
5
6a2
100
AcDbEntity
8
1
100
AcDbLine
6
CONTINUOUS
62
5
10
94.226465
20
6.623869
11
95.126465
21
6.623869
0
ARC
5
6a3
100
AcDbEntity
8
1
100
AcDbCircle
6
CONTINUOUS
62
5
10
95.126465
20
6.523869
40
0.100000
100
AcDbArc
50
0.000000
51
89.999999
0
LINE
5
6a4
100
AcDbEntity
8
1
100
AcDbLine
6
CONTINUOUS
62
5
10
95.226465
20
6.523869
11
95.226465
21
2.123869
0
ARC
5
6a5
100
AcDbEntity
8
1
100
AcDbCircle
6
CONTINUOUS
62
5
10
95.126465
20
2.123869
40
0.100000
100
AcDbArc
50
-89.999999
51
0.000000
0
LINE
5
6a6
100
AcDbEntity
8
1
100
AcDbLine
6
CONTINUOUS
62
5
10
95.126465
20
2.023869
11
82.026465
21
2.023869
0
ARC
5
6a7
100
AcDbEntity
8
1
100
AcDbCircle
6
CONTINUOUS
62
5
10
82.026465
20
1.923869
40
0.100000
100
AcDbArc
50
89.999999
51
179.999998
0
ARC
5
6a8
100
AcDbEntity
8
1
100
AcDbCircle
6
CONTINUOUS
62
5
10
107.426465
20
18.849839
40
1.000000
100
AcDbArc
50
-0.000000
51
88.492563
0
LINE
5
6a9
100
AcDbEntity
8
1
100
AcDbLine
6
CONTINUOUS
62
5
10
108.426465
20
18.849839
11
108.426465
21
1.797899
0
ARC
5
6aa
100
AcDbEntity
8
1
100
AcDbCircle
6
CONTINUOUS
62
5
10
107.426465
20
1.797899
40
1.000000
100
AcDbArc
50
-88.492563
51
0.000000
0
LINE
5
6ab
100
AcDbEntity
8
1
100
AcDbLine
6
CONTINUOUS
62
5
10
107.452772
20
0.798246
11
97.226465
21
0.529132
0
LINE
5
6ac
100
AcDbEntity
8
1
100
AcDbLine
6
CONTINUOUS
62
5
10
97.226465
20
20.118606
11
107.452772
21
19.849493
0
ARC
5
6ad
100
AcDbEntity
8
1
100
AcDbCircle
6
CONTINUOUS
62
5
10
73.976468
20
10.823869
40
0.300000
100
AcDbArc
50
99.594066
51
-179.999998
0
LINE
5
6ae
100
AcDbEntity
8
1
100
AcDbLine
6
CONTINUOUS
62
5
10
73.676468
20
10.823869
11
73.676468
21
9.823869
0
ARC
5
6af
100
AcDbEntity
8
1
100
AcDbCircle
6
CONTINUOUS
62
5
10
73.976468
20
9.823869
40
0.300000
100
AcDbArc
50
-179.999998
51
-99.594066
0
ARC
5
6b0
100
AcDbEntity
8
1
100
AcDbCircle
6
CONTINUOUS
62
5
10
72.926468
20
0.251678
40
1.000000
100
AcDbArc
50
-85.710846
51
-0.000000
0
LINE
5
6b1
100
AcDbEntity
8
1
100
AcDbLine
6
CONTINUOUS
62
5
10
73.001258
20
-0.745522
11
70.389073
21
-0.941436
0
ARC
5
6b2
100
AcDbEntity
8
1
100
AcDbCircle
6
CONTINUOUS
62
5
10
70.426468
20
-1.440035
40
0.500000
100
AcDbArc
50
94.289152
51
179.999998
0
LINE
5
6b3
100
AcDbEntity
8
1
100
AcDbLine
6
CONTINUOUS
62
5
10
69.926468
20
-1.440035
11
69.926468
21
-2.112227
0
ARC
5
6b4
100
AcDbEntity
8
1
100
AcDbCircle
6
CONTINUOUS
62
5
10
70.426468
20
-2.112227
40
0.500000
100
AcDbArc
50
179.999998
51
-94.289152
0
LINE
5
6b5
100
AcDbEntity
8
1
100
AcDbLine
6
CONTINUOUS
62
5
10
70.389073
20
-2.610826
11
73.085407
21
-2.813051
0
ARC
5
6b6
100
AcDbEntity
8
1
100
AcDbCircle
6
CONTINUOUS
62
5
10
73.010617
20
-3.810251
40
1.000000
100
AcDbArc
50
14.616809
51
85.710846
0
POLYLINE
5
6b7
100
AcDbEntity
8
1
6
CONTINUOUS
62
5
100
AcDb2dPolyline
66
1
10
0.0
20
0.0
30
0.0
70
1
0
VERTEX
5
6b8
100
AcDbEntity
8
1
100
AcDbVertex
100
AcDb2dVertex
62
5
10
78.926468
20
20.723869
0
VERTEX
5
6b9
100
AcDbEntity
8
1
100
AcDbVertex
100
AcDb2dVertex
62
5
10
81.526468
20
20.723869
0
VERTEX
5
6ba
100
AcDbEntity
8
1
100
AcDbVertex
100
AcDb2dVertex
62
5
10
81.526468
20
12.923869
0
VERTEX
5
6bb
100
AcDbEntity
8
1
100
AcDbVertex
100
AcDb2dVertex
62
5
10
78.926468
20
12.923869
0
VERTEX
5
6bc
100
AcDbEntity
8
1
100
AcDbVertex
100
AcDb2dVertex
62
5
10
78.926468
20
13.823869
0
VERTEX
5
6bd
100
AcDbEntity
8
1
100
AcDbVertex
100
AcDb2dVertex
62
5
10
81.526468
20
13.823869
0
VERTEX
5
6be
100
AcDbEntity
8
1
100
AcDbVertex
100
AcDb2dVertex
62
5
10
81.526468
20
19.823869
0
VERTEX
5
6bf
100
AcDbEntity
8
1
100
AcDbVertex
100
AcDb2dVertex
62
5
10
78.926468
20
19.823869
0
SEQEND
5
6c0
100
AcDbEntity
8
1
0
POLYLINE
5
6c1
100
AcDbEntity
8
1
6
CONTINUOUS
62
5
100
AcDb2dPolyline
66
1
10
0.0
20
0.0
30
0.0
70
1
0
VERTEX
5
6c2
100
AcDbEntity
8
1
100
AcDbVertex
100
AcDb2dVertex
62
5
10
81.526468
20
-0.976131
0
VERTEX
5
6c3
100
AcDbEntity
8
1
100
AcDbVertex
100
AcDb2dVertex
62
5
10
81.126468
20
-0.976131
0
VERTEX
5
6c4
100
AcDbEntity
8
1
100
AcDbVertex
100
AcDb2dVertex
62
5
10
81.126468
20
-0.076131
0
VERTEX
5
6c5
100
AcDbEntity
8
1
100
AcDbVertex
100
AcDb2dVertex
62
5
10
78.926468
20
-0.076131
0
VERTEX
5
6c6
100
AcDbEntity
8
1
100
AcDbVertex
100
AcDb2dVertex
62
5
10
78.926468
20
0.823869
0
VERTEX
5
6c7
100
AcDbEntity
8
1
100
AcDbVertex
100
AcDb2dVertex
62
5
10
81.526468
20
0.823869
0
VERTEX
5
6c8
100
AcDbEntity
8
1
100
AcDbVertex
100
AcDb2dVertex
62
5
10
81.526468
20
6.823869
0
VERTEX
5
6c9
100
AcDbEntity
8
1
100
AcDbVertex
100
AcDb2dVertex
62
5
10
78.926468
20
6.823869
0
VERTEX
5
6ca
100
AcDbEntity
8
1
100
AcDbVertex
100
AcDb2dVertex
62
5
10
78.926468
20
7.723869
0
VERTEX
5
6cb
100
AcDbEntity
8
1
100
AcDbVertex
100
AcDb2dVertex
62
5
10
81.526468
20
7.723869
0
SEQEND
5
6cc
100
AcDbEntity
8
1
0
ARC
5
6cd
100
AcDbEntity
8
1
100
AcDbCircle
6
CONTINUOUS
62
5
10
79.633883
20
-5.876146
40
1.000000
100
AcDbArc
50
68.198590
51
89.999999
0
LINE
5
6ce
100
AcDbEntity
8
1
100
AcDbLine
6
CONTINUOUS
62
5
10
80.005274
20
-4.947669
11
80.326465
21
-5.076146
0
POLYLINE
5
6cf
100
AcDbEntity
8
1
6
CONTINUOUS
62
5
100
AcDb2dPolyline
66
1
10
0.0
20
0.0
30
0.0
70
0
0
VERTEX
5
6d0
100
AcDbEntity
8
1
100
AcDbVertex
100
AcDb2dVertex
62
5
10
78.826465
20
-5.076146
0
VERTEX
5
6d1
100
AcDbEntity
8
1
100
AcDbVertex
100
AcDb2dVertex
62
5
10
78.826465
20
-4.876146
0
VERTEX
5
6d2
100
AcDbEntity
8
1
100
AcDbVertex
100
AcDb2dVertex
62
5
10
79.633883
20
-4.876146
0
SEQEND
5
6d3
100
AcDbEntity
8
1
0
POLYLINE
5
6d4
100
AcDbEntity
8
1
6
CONTINUOUS
62
5
100
AcDb2dPolyline
66
1
10
0.0
20
0.0
30
0.0
70
1
0
VERTEX
5
6d5
100
AcDbEntity
8
1
100
AcDbVertex
100
AcDb2dVertex
62
5
10
78.826465
20
-6.076146
0
VERTEX
5
6d6
100
AcDbEntity
8
1
100
AcDbVertex
100
AcDb2dVertex
62
5
10
80.326465
20
-6.076146
0
VERTEX
5
6d7
100
AcDbEntity
8
1
100
AcDbVertex
100
AcDb2dVertex
62
5
10
80.326465
20
-9.976146
0
VERTEX
5
6d8
100
AcDbEntity
8
1
100
AcDbVertex
100
AcDb2dVertex
62
5
10
78.826465
20
-9.976146
0
SEQEND
5
6d9
100
AcDbEntity
8
1
0
LINE
5
6da
100
AcDbEntity
8
1
100
AcDbLine
6
CONTINUOUS
62
5
10
77.926468
20
19.823869
11
78.926468
21
19.823869
0
LINE
5
6db
100
AcDbEntity
8
1
100
AcDbLine
6
CONTINUOUS
62
5
10
77.926468
20
13.823869
11
78.926468
21
13.823869
0
LINE
5
6dc
100
AcDbEntity
8
1
100
AcDbLine
6
CONTINUOUS
62
5
10
77.926468
20
0.823869
11
78.926468
21
0.823869
0
LINE
5
6dd
100
AcDbEntity
8
1
100
AcDbLine
6
CONTINUOUS
62
5
10
77.926468
20
6.823869
11
78.926468
21
6.823869
0
LINE
5
6de
100
AcDbEntity
8
1
100
AcDbLine
6
CONTINUOUS
62
5
10
95.226465
20
-16.676131
11
94.426465
21
-16.676131
0
LINE
5
6df
100
AcDbEntity
8
1
100
AcDbLine
6
CONTINUOUS
62
5
10
94.426465
20
-16.676131
11
94.426465
21
-20.876131
0
ARC
5
6e0
100
AcDbEntity
8
1
100
AcDbCircle
6
CONTINUOUS
62
5
10
94.676465
20
-20.676131
40
0.200000
100
AcDbArc
50
-89.999999
51
0.000000
0
LINE
5
6e1
100
AcDbEntity
8
1
100
AcDbLine
6
CONTINUOUS
62
5
10
94.876465
20
-20.676131
11
94.876465
21
-16.676131
0
ARC
5
6e2
100
AcDbEntity
8
1
100
AcDbCircle
6
CONTINUOUS
62
5
10
94.826465
20
-20.676131
40
0.200000
100
AcDbArc
50
-89.999999
51
0.000000
0
LINE
5
6e3
100
AcDbEntity
8
1
100
AcDbLine
6
CONTINUOUS
62
5
10
95.026465
20
-20.676131
11
95.026465
21
-16.676131
0
POLYLINE
5
6e4
100
AcDbEntity
8
1
6
CONTINUOUS
62
5
100
AcDb2dPolyline
66
1
10
0.0
20
0.0
30
0.0
70
0
0
VERTEX
5
6e5
100
AcDbEntity
8
1
100
AcDbVertex
100
AcDb2dVertex
62
5
10
94.426465
20
-20.976131
0
VERTEX
5
6e6
100
AcDbEntity
8
1
100
AcDbVertex
100
AcDb2dVertex
62
5
10
94.426465
20
-20.876131
0
VERTEX
5
6e7
100
AcDbEntity
8
1
100
AcDbVertex
100
AcDb2dVertex
62
5
10
94.826465
20
-20.876131
0
SEQEND
5
6e8
100
AcDbEntity
8
1
0
POLYLINE
5
6e9
100
AcDbEntity
8
1
6
CONTINUOUS
62
5
100
AcDb2dPolyline
66
1
10
0.0
20
0.0
30
0.0
70
0
0
VERTEX
5
6ea
100
AcDbEntity
8
1
100
AcDbVertex
100
AcDb2dVertex
62
5
10
88.026465
20
-14.126131
0
VERTEX
5
6eb
100
AcDbEntity
8
1
100
AcDbVertex
100
AcDb2dVertex
62
5
10
86.526465
20
-14.126131
0
VERTEX
5
6ec
100
AcDbEntity
8
1
100
AcDbVertex
100
AcDb2dVertex
62
5
10
86.526465
20
-17.126131
0
VERTEX
5
6ed
100
AcDbEntity
8
1
100
AcDbVertex
100
AcDb2dVertex
62
5
10
88.026465
20
-17.126131
0
SEQEND
5
6ee
100
AcDbEntity
8
1
0
POLYLINE
5
6ef
100
AcDbEntity
8
1
6
CONTINUOUS
62
5
100
AcDb2dPolyline
66
1
10
0.0
20
0.0
30
0.0
70
0
0
VERTEX
5
6f0
100
AcDbEntity
8
1
100
AcDbVertex
100
AcDb2dVertex
62
5
10
86.526465
20
-17.126131
0
VERTEX
5
6f1
100
AcDbEntity
8
1
100
AcDbVertex
100
AcDb2dVertex
62
5
10
85.966465
20
-17.126131
0
VERTEX
5
6f2
100
AcDbEntity
8
1
100
AcDbVertex
100
AcDb2dVertex
62
5
10
85.966465
20
-14.126131
0
VERTEX
5
6f3
100
AcDbEntity
8
1
100
AcDbVertex
100
AcDb2dVertex
62
5
10
86.526465
20
-14.126131
0
SEQEND
5
6f4
100
AcDbEntity
8
1
0
LINE
5
6f5
100
AcDbEntity
8
1
100
AcDbLine
6
CONTINUOUS
62
5
10
88.026465
20
-14.443579
11
88.026465
21
-16.792069
0
ARC
5
6f6
100
AcDbEntity
8
1
100
AcDbCircle
6
CONTINUOUS
62
5
10
82.026465
20
-16.776131
40
0.100000
100
AcDbArc
50
89.999999
51
179.999998
0
LINE
5
6f7
100
AcDbEntity
8
1
100
AcDbLine
6
CONTINUOUS
62
5
10
82.026465
20
-16.676131
11
83.326465
21
-16.676131
0
ARC
5
6f8
100
AcDbEntity
8
1
100
AcDbCircle
6
CONTINUOUS
62
5
10
86.326465
20
-23.738631
40
1.087500
100
AcDbArc
50
-120.450313
51
-59.549685
0
LINE
5
6f9
100
AcDbEntity
8
1
100
AcDbLine
6
CONTINUOUS
62
5
10
81.326465
20
-24.476131
11
81.326465
21
-25.876131
0
LINE
5
6fa
100
AcDbEntity
8
1
100
AcDbLine
6
CONTINUOUS
62
5
10
79.626465
20
-19.276146
11
79.626465
21
-18.692813
0
LINE
5
6fb
100
AcDbEntity
8
1
100
AcDbLine
6
CONTINUOUS
62
5
10
81.926465
20
-25.876131
11
81.226465
21
-25.876131
0
LINE
5
6fc
100
AcDbEntity
8
1
100
AcDbLine
6
CONTINUOUS
62
5
10
81.226465
20
-24.476131
11
81.926465
21
-24.476131
0
ARC
5
6fd
100
AcDbEntity
8
1
100
AcDbCircle
6
CONTINUOUS
62
5
10
84.616465
20
-17.576131
40
0.300000
100
AcDbArc
50
179.999998
51
-89.999999
0
LINE
5
6fe
100
AcDbEntity
8
1
100
AcDbLine
6
CONTINUOUS
62
5
10
84.376465
20
-20.976131
11
84.376465
21
-17.871935
0
LINE
5
6ff
100
AcDbEntity
8
1
100
AcDbLine
6
CONTINUOUS
62
5
10
88.026465
20
-17.316510
11
88.026465
21
-20.176131
0
LINE
5
700
100
AcDbEntity
8
1
100
AcDbLine
6
CONTINUOUS
62
5
10
86.526465
20
-17.376608
11
86.526465
21
-20.176131
0
LINE
5
701
100
AcDbEntity
8
1
100
AcDbLine
6
CONTINUOUS
62
5
10
89.426465
20
-25.426131
11
91.126465
21
-25.426131
0
LINE
5
702
100
AcDbEntity
8
1
100
AcDbLine
6
CONTINUOUS
62
5
10
91.126465
20
-25.176131
11
89.426465
21
-25.176131
0
LINE
5
703
100
AcDbEntity
8
1
100
AcDbLine
6
CONTINUOUS
62
5
10
89.426465
20
-24.926131
11
91.193453
21
-24.926131
0
ARC
5
704
100
AcDbEntity
8
1
100
AcDbCircle
6
CONTINUOUS
62
5
10
84.426465
20
-17.576131
40
0.300000
100
AcDbArc
50
179.999998
51
-89.999999
0
POLYLINE
5
705
100
AcDbEntity
8
1
6
CONTINUOUS
62
5
100
AcDb2dPolyline
66
1
10
0.0
20
0.0
30
0.0
70
0
0
VERTEX
5
706
100
AcDbEntity
8
1
100
AcDbVertex
100
AcDb2dVertex
62
5
10
84.426465
20
-17.876131
0
VERTEX
5
707
100
AcDbEntity
8
1
100
AcDbVertex
100
AcDb2dVertex
62
5
10
85.326465
20
-17.876131
0
VERTEX
5
708
100
AcDbEntity
8
1
100
AcDbVertex
100
AcDb2dVertex
62
5
10
85.326465
20
-19.876131
0
SEQEND
5
709
100
AcDbEntity
8
1
0
ARC
5
70a
100
AcDbEntity
8
1
100
AcDbCircle
6
CONTINUOUS
62
5
10
85.626465
20
-19.876131
40
0.300000
100
AcDbArc
50
179.999998
51
-89.999999
0
LINE
5
70b
100
AcDbEntity
8
1
100
AcDbLine
6
CONTINUOUS
62
5
10
85.626465
20
-20.176131
11
90.826465
21
-20.176131
0
ARC
5
70c
100
AcDbEntity
8
1
100
AcDbCircle
6
CONTINUOUS
62
5
10
90.826465
20
-20.676131
40
0.500000
100
AcDbArc
50
-36.869897
51
89.999999
0
LINE
5
70d
100
AcDbEntity
8
1
100
AcDbLine
6
CONTINUOUS
62
5
10
83.726465
20
-28.051139
11
83.976465
21
-27.801139
0
LINE
5
70e
100
AcDbEntity
8
1
100
AcDbLine
6
CONTINUOUS
62
5
10
83.726465
20
-28.758246
11
83.976465
21
-28.508246
0
LINE
5
70f
100
AcDbEntity
8
1
100
AcDbLine
6
CONTINUOUS
62
5
10
81.226465
20
-30.628146
11
81.926465
21
-30.614146
0
LINE
5
710
100
AcDbEntity
8
1
100
AcDbLine
6
CONTINUOUS
62
5
10
83.626465
20
-30.676131
11
82.226465
21
-30.676131
0
LINE
5
711
100
AcDbEntity
8
1
100
AcDbLine
6
CONTINUOUS
62
5
10
81.958100
20
-29.334303
11
82.198932
21
-30.538467
0
LINE
5
712
100
AcDbEntity
8
1
100
AcDbLine
6
CONTINUOUS
62
5
10
83.870477
20
-29.176131
11
83.726465
21
-29.032119
0
LINE
5
713
100
AcDbEntity
8
1
100
AcDbLine
6
CONTINUOUS
62
5
10
83.976465
20
-27.867905
11
83.726465
21
-27.617905
0
LINE
5
714
100
AcDbEntity
8
1
100
AcDbLine
6
CONTINUOUS
62
5
10
83.976465
20
-28.575012
11
83.726465
21
-28.325012
0
LINE
5
715
100
AcDbEntity
8
1
100
AcDbLine
6
CONTINUOUS
62
5
10
83.476465
20
-29.197111
11
83.476465
21
-27.476131
0
LINE
5
716
100
AcDbEntity
8
1
100
AcDbLine
6
CONTINUOUS
62
5
10
83.726465
20
-27.476131
11
83.726465
21
-29.176131
0
LINE
5
717
100
AcDbEntity
8
1
100
AcDbLine
6
CONTINUOUS
62
5
10
83.976465
20
-29.176131
11
83.976465
21
-27.476131
0
LINE
5
718
100
AcDbEntity
8
1
100
AcDbLine
6
CONTINUOUS
62
5
10
83.326465
20
-27.476131
11
83.326465
21
-24.676131
0
ARC
5
719
100
AcDbEntity
8
1
100
AcDbCircle
6
CONTINUOUS
62
5
10
82.926465
20
-25.876131
40
1.400000
100
AcDbArc
50
0.000000
51
31.002719
0
LINE
5
71a
100
AcDbEntity
8
1
100
AcDbLine
6
CONTINUOUS
62
5
10
84.326465
20
-25.876131
11
84.326465
21
-27.476131
0
LINE
5
71b
100
AcDbEntity
8
1
100
AcDbLine
6
CONTINUOUS
62
5
10
84.126465
20
-27.476131
11
84.126465
21
-24.676131
0
LINE
5
71c
100
AcDbEntity
8
1
100
AcDbLine
6
CONTINUOUS
62
5
10
86.126465
20
-27.266384
11
86.126465
21
-24.817405
0
LINE
5
71d
100
AcDbEntity
8
1
100
AcDbLine
6
CONTINUOUS
62
5
10
87.826465
20
-27.266384
11
87.826465
21
-24.781326
0
ARC
5
71e
100
AcDbEntity
8
1
100
AcDbCircle
6
CONTINUOUS
62
5
10
89.326465
20
-24.776131
40
0.100000
100
AcDbArc
50
0.000000
51
89.999999
0
LINE
5
71f
100
AcDbEntity
8
1
100
AcDbLine
6
CONTINUOUS
62
5
10
89.326465
20
-24.676131
11
81.926465
21
-24.676131
0
POLYLINE
5
720
100
AcDbEntity
8
1
6
CONTINUOUS
62
5
100
AcDb2dPolyline
66
1
10
0.0
20
0.0
30
0.0
70
0
0
VERTEX
5
721
100
AcDbEntity
8
1
100
AcDbVertex
100
AcDb2dVertex
62
5
10
81.926465
20
-27.476131
0
VERTEX
5
722
100
AcDbEntity
8
1
100
AcDbVertex
100
AcDb2dVertex
62
5
10
88.426465
20
-27.476131
0
VERTEX
5
723
100
AcDbEntity
8
1
100
AcDbVertex
100
AcDb2dVertex
62
5
10
89.426465
20
-26.476131
0
VERTEX
5
724
100
AcDbEntity
8
1
100
AcDbVertex
100
AcDb2dVertex
62
5
10
89.426465
20
-24.776131
0
SEQEND
5
725
100
AcDbEntity
8
1
0
POLYLINE
5
726
100
AcDbEntity
8
1
6
CONTINUOUS
62
5
100
AcDb2dPolyline
66
1
10
0.0
20
0.0
30
0.0
70
0
0
VERTEX
5
727
100
AcDbEntity
8
1
100
AcDbVertex
100
AcDb2dVertex
62
5
10
81.926465
20
-26.476130
0
VERTEX
5
728
100
AcDbEntity
8
1
100
AcDbVertex
100
AcDb2dVertex
62
5
10
81.626489
20
-26.476130
0
VERTEX
5
729
100
AcDbEntity
8
1
100
AcDbVertex
100
AcDb2dVertex
62
5
10
81.626489
20
-29.476138
0
VERTEX
5
72a
100
AcDbEntity
8
1
100
AcDbVertex
100
AcDb2dVertex
62
5
10
81.926489
20
-29.476138
0
SEQEND
5
72b
100
AcDbEntity
8
1
0
ARC
5
72c
100
AcDbEntity
8
1
100
AcDbCircle
6
CONTINUOUS
62
5
10
83.026465
20
-40.776131
40
0.100000
100
AcDbArc
50
89.999999
51
-179.999998
0
LINE
5
72d
100
AcDbEntity
8
1
100
AcDbLine
6
CONTINUOUS
62
5
10
84.326465
20
-40.676131
11
83.026465
21
-40.676131
0
ARC
5
72e
100
AcDbEntity
8
1
100
AcDbCircle
6
CONTINUOUS
62
5
10
80.368855
20
-35.676146
40
0.499999
100
AcDbArc
50
-89.999999
51
-55.007979
0
LINE
5
72f
100
AcDbEntity
8
1
100
AcDbLine
6
CONTINUOUS
62
5
10
80.655586
20
-36.085762
11
81.313197
21
-35.625434
0
ARC
5
730
100
AcDbEntity
8
1
100
AcDbCircle
6
CONTINUOUS
62
5
10
81.026466
20
-35.215819
40
0.499999
100
AcDbArc
50
-55.007979
51
-31.376223
0
POLYLINE
5
731
100
AcDbEntity
8
1
6
CONTINUOUS
62
5
100
AcDb2dPolyline
66
1
10
0.0
20
0.0
30
0.0
70
0
0
VERTEX
5
732
100
AcDbEntity
8
1
100
AcDbVertex
100
AcDb2dVertex
62
5
10
79.626465
20
-35.576146
0
VERTEX
5
733
100
AcDbEntity
8
1
100
AcDbVertex
100
AcDb2dVertex
62
5
10
80.326466
20
-35.576146
0
VERTEX
5
734
100
AcDbEntity
8
1
100
AcDbVertex
100
AcDb2dVertex
62
5
10
80.126467
20
-36.176146
0
VERTEX
5
735
100
AcDbEntity
8
1
100
AcDbVertex
100
AcDb2dVertex
62
5
10
80.368855
20
-36.176146
0
SEQEND
5
736
100
AcDbEntity
8
1
0
LINE
5
737
100
AcDbEntity
8
1
100
AcDbLine
6
CONTINUOUS
62
5
10
81.226465
20
-35.476146
11
81.526465
21
-35.476146
0
LINE
5
738
100
AcDbEntity
8
1
100
AcDbLine
6
CONTINUOUS
62
5
10
79.626465
20
-35.576146
11
79.626465
21
-34.576146
0
ARC
5
739
100
AcDbEntity
8
1
100
AcDbCircle
6
CONTINUOUS
62
5
10
83.026465
20
-43.026131
40
0.100000
100
AcDbArc
50
89.999999
51
-179.999998
0
LINE
5
73a
100
AcDbEntity
8
1
100
AcDbLine
6
CONTINUOUS
62
5
10
83.026465
20
-42.926131
11
84.326465
21
-42.926131
0
POLYLINE
5
73b
100
AcDbEntity
8
1
6
CONTINUOUS
62
5
100
AcDb2dPolyline
66
1
10
0.0
20
0.0
30
0.0
70
0
0
VERTEX
5
73c
100
AcDbEntity
8
1
100
AcDbVertex
100
AcDb2dVertex
62
5
10
84.326465
20
-45.676131
0
VERTEX
5
73d
100
AcDbEntity
8
1
100
AcDbVertex
100
AcDb2dVertex
62
5
10
84.526465
20
-45.676131
0
VERTEX
5
73e
100
AcDbEntity
8
1
100
AcDbVertex
100
AcDb2dVertex
62
5
10
84.326465
20
-44.176131
0
SEQEND
5
73f
100
AcDbEntity
8
1
0
POLYLINE
5
740
100
AcDbEntity
8
1
6
CONTINUOUS
62
5
100
AcDb2dPolyline
66
1
10
0.0
20
0.0
30
0.0
70
0
0
VERTEX
5
741
100
AcDbEntity
8
1
100
AcDbVertex
100
AcDb2dVertex
62
5
10
84.326465
20
-45.676131
0
VERTEX
5
742
100
AcDbEntity
8
1
100
AcDbVertex
100
AcDb2dVertex
62
5
10
84.526465
20
-45.676131
0
VERTEX
5
743
100
AcDbEntity
8
1
100
AcDbVertex
100
AcDb2dVertex
62
5
10
84.326465
20
-44.176131
0
SEQEND
5
744
100
AcDbEntity
8
1
0
ARC
5
745
100
AcDbEntity
8
1
100
AcDbCircle
6
CONTINUOUS
62
5
10
82.026465
20
-37.026117
40
0.100000
100
AcDbArc
50
89.999999
51
179.999998
0
LINE
5
746
100
AcDbEntity
8
1
100
AcDbLine
6
CONTINUOUS
62
5
10
82.026465
20
-36.926117
11
82.426465
21
-36.926117
0
LINE
5
747
100
AcDbEntity
8
1
100
AcDbLine
6
CONTINUOUS
62
5
10
82.926465
20
-43.426115
11
82.026465
21
-43.426115
0
ARC
5
748
100
AcDbEntity
8
1
100
AcDbCircle
6
CONTINUOUS
62
5
10
82.026465
20
-43.326115
40
0.100000
100
AcDbArc
50
179.999998
51
-89.999999
0
LINE
5
749
100
AcDbEntity
8
1
100
AcDbLine
6
CONTINUOUS
62
5
10
81.926465
20
-43.326115
11
81.926465
21
-37.026117
0
ARC
5
74a
100
AcDbEntity
8
1
100
AcDbCircle
6
CONTINUOUS
62
5
10
83.676465
20
-42.426115
40
1.250000
100
AcDbArc
50
-179.999998
51
-126.869897
0
LINE
5
74b
100
AcDbEntity
8
1
100
AcDbLine
6
CONTINUOUS
62
5
10
82.426465
20
-42.426115
11
82.426465
21
-35.676131
0
LINE
5
74c
100
AcDbEntity
8
1
100
AcDbLine
6
CONTINUOUS
62
5
10
81.226465
20
-33.876146
11
81.226465
21
-35.476146
0
LINE
5
74d
100
AcDbEntity
8
1
100
AcDbLine
6
CONTINUOUS
62
5
10
81.226465
20
-33.876146
11
81.537223
21
-33.876146
0
ARC
5
74e
100
AcDbEntity
8
1
100
AcDbCircle
6
CONTINUOUS
62
5
10
81.626465
20
-35.576131
40
0.100000
100
AcDbArc
50
-179.999998
51
-89.999999
0
LINE
5
74f
100
AcDbEntity
8
1
100
AcDbLine
6
CONTINUOUS
62
5
10
81.526465
20
-35.576131
11
81.526465
21
-34.339861
0
ARC
5
750
100
AcDbEntity
8
1
100
AcDbCircle
6
CONTINUOUS
62
5
10
91.526465
20
-34.339861
40
10.000000
100
AcDbArc
50
172.405355
51
179.999998
0
LINE
5
751
100
AcDbEntity
8
1
100
AcDbLine
6
CONTINUOUS
62
5
10
81.614186
20
-33.018224
11
81.926465
21
-30.676131
0
LINE
5
752
100
AcDbEntity
8
1
100
AcDbLine
6
CONTINUOUS
62
5
10
82.026465
20
-35.676131
11
81.626465
21
-35.676131
0
ARC
5
753
100
AcDbEntity
8
1
100
AcDbCircle
6
CONTINUOUS
62
5
10
86.551455
20
-31.342792
40
3.000000
100
AcDbArc
50
133.761906
51
167.160527
0
LINE
5
754
100
AcDbEntity
8
1
100
AcDbLine
6
CONTINUOUS
62
5
10
83.626465
20
-30.676131
11
83.626465
21
-33.676131
0
ARC
5
755
100
AcDbEntity
8
1
100
AcDbCircle
6
CONTINUOUS
62
5
10
78.395909
20
-33.433237
40
5.236193
100
AcDbArc
50
-19.672882
51
-2.658762
0
LINE
5
756
100
AcDbEntity
8
1
100
AcDbLine
6
CONTINUOUS
62
5
10
83.326465
20
-35.195999
11
83.326465
21
-35.676131
0
LINE
5
757
100
AcDbEntity
8
1
100
AcDbLine
6
CONTINUOUS
62
5
10
84.326465
20
-36.849605
11
84.326465
21
-29.330474
0
ARC
5
758
100
AcDbEntity
8
1
100
AcDbCircle
6
CONTINUOUS
62
5
10
82.875514
20
-36.946466
40
1.454181
100
AcDbArc
50
3.819213
51
30.655929
0
POLYLINE
5
759
100
AcDbEntity
8
1
6
CONTINUOUS
62
5
100
AcDb2dPolyline
66
1
10
0.0
20
0.0
30
0.0
70
0
0
VERTEX
5
75a
100
AcDbEntity
8
1
100
AcDbVertex
100
AcDb2dVertex
62
5
10
84.326465
20
-36.849605
0
VERTEX
5
75b
100
AcDbEntity
8
1
100
AcDbVertex
100
AcDb2dVertex
62
5
10
84.326465
20
-45.676131
0
VERTEX
5
75c
100
AcDbEntity
8
1
100
AcDbVertex
100
AcDb2dVertex
62
5
10
83.026465
20
-45.676131
0
SEQEND
5
75d
100
AcDbEntity
8
1
0
ARC
5
75e
100
AcDbEntity
8
1
100
AcDbCircle
6
CONTINUOUS
62
5
10
83.026465
20
-45.576131
40
0.100000
100
AcDbArc
50
179.999998
51
-89.999999
0
LINE
5
75f
100
AcDbEntity
8
1
100
AcDbLine
6
CONTINUOUS
62
5
10
82.926465
20
-45.576131
11
82.926465
21
-36.926117
0
ARC
5
760
100
AcDbEntity
8
1
100
AcDbCircle
6
CONTINUOUS
62
5
10
84.126465
20
-36.205007
40
1.400000
100
AcDbArc
50
179.999998
51
-148.997280
0
LINE
5
761
100
AcDbEntity
8
1
100
AcDbLine
6
CONTINUOUS
62
5
10
82.726465
20
-36.205007
11
82.726465
21
-35.676131
0
LINE
5
762
100
AcDbEntity
8
1
100
AcDbLine
6
CONTINUOUS
62
5
10
84.126465
20
-29.576602
11
84.126465
21
-36.205007
0
LINE
5
763
100
AcDbEntity
8
1
100
AcDbLine
6
CONTINUOUS
62
5
10
79.826465
20
-19.276146
11
79.826465
21
-34.576146
0
POLYLINE
5
764
100
AcDbEntity
8
1
6
CONTINUOUS
62
5
100
AcDb2dPolyline
66
1
10
0.0
20
0.0
30
0.0
70
1
0
VERTEX
5
765
100
AcDbEntity
8
1
100
AcDbVertex
100
AcDb2dVertex
62
5
10
78.826465
20
-19.276146
0
VERTEX
5
766
100
AcDbEntity
8
1
100
AcDbVertex
100
AcDb2dVertex
62
5
10
80.326465
20
-19.276146
0
VERTEX
5
767
100
AcDbEntity
8
1
100
AcDbVertex
100
AcDb2dVertex
62
5
10
80.326465
20
-34.576146
0
VERTEX
5
768
100
AcDbEntity
8
1
100
AcDbVertex
100
AcDb2dVertex
62
5
10
78.826465
20
-34.576146
0
SEQEND
5
769
100
AcDbEntity
8
1
0
LINE
5
76a
100
AcDbEntity
8
1
100
AcDbLine
6
CONTINUOUS
62
5
10
93.513977
20
-12.676131
11
95.226465
21
-12.676131
0
ARC
5
76b
100
AcDbEntity
8
1
100
AcDbCircle
6
CONTINUOUS
62
5
10
94.868739
20
-11.576131
40
0.550000
100
AcDbArc
50
89.999999
51
135.790136
0
LINE
5
76c
100
AcDbEntity
8
1
100
AcDbLine
6
CONTINUOUS
62
5
10
94.474504
20
-11.192622
11
93.709675
21
-11.978842
0
ARC
5
76d
100
AcDbEntity
8
1
100
AcDbCircle
6
CONTINUOUS
62
5
10
94.426465
20
-12.676131
40
1.000000
100
AcDbArc
50
135.790136
51
-135.790136
0
LINE
5
76e
100
AcDbEntity
8
1
100
AcDbLine
6
CONTINUOUS
62
5
10
93.709675
20
-13.373419
11
94.474504
21
-14.159640
0
ARC
5
76f
100
AcDbEntity
8
1
100
AcDbCircle
6
CONTINUOUS
62
5
10
94.868739
20
-13.776131
40
0.550000
100
AcDbArc
50
-135.790136
51
-89.999999
0
LINE
5
770
100
AcDbEntity
8
1
100
AcDbLine
6
CONTINUOUS
62
5
10
94.868739
20
-14.326131
11
95.213068
21
-14.326131
0
LINE
5
771
100
AcDbEntity
8
1
100
AcDbLine
6
CONTINUOUS
62
5
10
95.213068
20
-11.026131
11
94.868739
21
-11.026131
0
LINE
5
772
100
AcDbEntity
8
1
100
AcDbLine
6
CONTINUOUS
62
5
10
95.226465
20
-11.076131
11
95.226465
21
-14.276131
0
LINE
5
773
100
AcDbEntity
8
1
100
AcDbLine
6
CONTINUOUS
62
5
10
94.636465
20
-11.156696
11
94.636465
21
-14.203538
0
POLYLINE
5
774
100
AcDbEntity
8
1
6
CONTINUOUS
62
5
100
AcDb2dPolyline
66
1
10
0.0
20
0.0
30
0.0
70
0
0
VERTEX
5
775
100
AcDbEntity
8
1
100
AcDbVertex
100
AcDb2dVertex
62
5
10
86.526465
20
-11.226131
0
VERTEX
5
776
100
AcDbEntity
8
1
100
AcDbVertex
100
AcDb2dVertex
62
5
10
86.526465
20
-11.226131
0
VERTEX
5
777
100
AcDbEntity
8
1
100
AcDbVertex
100
AcDb2dVertex
62
5
10
86.526465
20
-14.126131
0
SEQEND
5
778
100
AcDbEntity
8
1
0
LINE
5
779
100
AcDbEntity
8
1
100
AcDbLine
6
CONTINUOUS
62
5
10
88.026465
20
-11.367014
11
88.026465
21
-13.977636
0
LINE
5
77a
100
AcDbEntity
8
1
100
AcDbLine
6
CONTINUOUS
62
5
10
79.626465
20
-11.726146
11
79.626465
21
-17.526146
0
POLYLINE
5
77b
100
AcDbEntity
8
1
6
CONTINUOUS
62
5
100
AcDb2dPolyline
66
1
10
0.0
20
0.0
30
0.0
70
0
0
VERTEX
5
77c
100
AcDbEntity
8
1
100
AcDbVertex
100
AcDb2dVertex
62
5
10
78.826465
20
-17.526146
0
VERTEX
5
77d
100
AcDbEntity
8
1
100
AcDbVertex
100
AcDb2dVertex
62
5
10
81.126465
20
-17.526146
0
VERTEX
5
77e
100
AcDbEntity
8
1
100
AcDbVertex
100
AcDb2dVertex
62
5
10
81.126465
20
-11.726146
0
VERTEX
5
77f
100
AcDbEntity
8
1
100
AcDbVertex
100
AcDb2dVertex
62
5
10
78.826465
20
-11.726146
0
SEQEND
5
780
100
AcDbEntity
8
1
0
LINE
5
781
100
AcDbEntity
8
1
100
AcDbLine
6
CONTINUOUS
62
5
10
84.926465
20
-7.676131
11
84.926465
21
-17.676131
0
LINE
5
782
100
AcDbEntity
8
1
100
AcDbLine
6
CONTINUOUS
62
5
10
84.316465
20
-7.776131
11
84.316465
21
-17.576131
0
LINE
5
783
100
AcDbEntity
8
1
100
AcDbLine
6
CONTINUOUS
62
5
10
84.126465
20
-7.776131
11
84.126465
21
-17.429420
0
LINE
5
784
100
AcDbEntity
8
1
100
AcDbLine
6
CONTINUOUS
62
5
10
83.326465
20
-20.976131
11
83.326465
21
-4.376131
0
LINE
5
785
100
AcDbEntity
8
1
100
AcDbLine
6
CONTINUOUS
62
5
10
84.126465
20
-4.376131
11
84.126465
21
-20.976131
0
ARC
5
786
100
AcDbEntity
8
1
100
AcDbCircle
6
CONTINUOUS
62
5
10
82.026465
20
-4.276131
40
0.100000
100
AcDbArc
50
-179.999998
51
-89.999999
0
LINE
5
787
100
AcDbEntity
8
1
100
AcDbLine
6
CONTINUOUS
62
5
10
82.026465
20
-4.376131
11
95.126465
21
-4.376131
0
ARC
5
788
100
AcDbEntity
8
1
100
AcDbCircle
6
CONTINUOUS
62
5
10
95.126465
20
-4.476131
40
0.100000
100
AcDbArc
50
0.000000
51
89.999999
0
LINE
5
789
100
AcDbEntity
8
1
100
AcDbLine
6
CONTINUOUS
62
5
10
95.226465
20
-4.476131
11
95.226465
21
-8.876131
0
ARC
5
78a
100
AcDbEntity
8
1
100
AcDbCircle
6
CONTINUOUS
62
5
10
95.126465
20
-8.876131
40
0.100000
100
AcDbArc
50
-89.999999
51
0.000000
0
LINE
5
78b
100
AcDbEntity
8
1
100
AcDbLine
6
CONTINUOUS
62
5
10
95.126465
20
-8.976131
11
94.226465
21
-8.976131
0
ARC
5
78c
100
AcDbEntity
8
1
100
AcDbCircle
6
CONTINUOUS
62
5
10
94.226465
20
-9.476131
40
0.500000
100
AcDbArc
50
89.999999
51
-179.999998
0
LINE
5
78d
100
AcDbEntity
8
1
100
AcDbLine
6
CONTINUOUS
62
5
10
93.726465
20
-9.476131
11
93.726465
21
-10.476131
0
ARC
5
78e
100
AcDbEntity
8
1
100
AcDbCircle
6
CONTINUOUS
62
5
10
94.226465
20
-10.476131
40
0.500000
100
AcDbArc
50
179.999998
51
-89.999999
0
LINE
5
78f
100
AcDbEntity
8
1
100
AcDbLine
6
CONTINUOUS
62
5
10
94.226465
20
-10.976131
11
95.126465
21
-10.976131
0
ARC
5
790
100
AcDbEntity
8
1
100
AcDbCircle
6
CONTINUOUS
62
5
10
95.126465
20
-11.076131
40
0.100000
100
AcDbArc
50
0.000000
51
89.999999
0
LINE
5
791
100
AcDbEntity
8
1
100
AcDbLine
6
CONTINUOUS
62
5
10
95.226465
20
-11.076131
11
95.226465
21
-14.276131
0
ARC
5
792
100
AcDbEntity
8
1
100
AcDbCircle
6
CONTINUOUS
62
5
10
95.126465
20
-14.276131
40
0.100000
100
AcDbArc
50
-89.999999
51
0.000000
0
LINE
5
793
100
AcDbEntity
8
1
100
AcDbLine
6
CONTINUOUS
62
5
10
95.126465
20
-14.376131
11
94.226465
21
-14.376131
0
ARC
5
794
100
AcDbEntity
8
1
100
AcDbCircle
6
CONTINUOUS
62
5
10
94.226465
20
-14.876131
40
0.500000
100
AcDbArc
50
89.999999
51
-179.999998
0
LINE
5
795
100
AcDbEntity
8
1
100
AcDbLine
6
CONTINUOUS
62
5
10
93.726465
20
-14.876131
11
93.726465
21
-15.876131
0
ARC
5
796
100
AcDbEntity
8
1
100
AcDbCircle
6
CONTINUOUS
62
5
10
94.226465
20
-15.876131
40
0.500000
100
AcDbArc
50
-179.999998
51
-89.999999
0
LINE
5
797
100
AcDbEntity
8
1
100
AcDbLine
6
CONTINUOUS
62
5
10
94.226465
20
-16.376131
11
95.126465
21
-16.376131
0
ARC
5
798
100
AcDbEntity
8
1
100
AcDbCircle
6
CONTINUOUS
62
5
10
95.126465
20
-16.476131
40
0.100000
100
AcDbArc
50
0.000000
51
89.999999
0
LINE
5
799
100
AcDbEntity
8
1
100
AcDbLine
6
CONTINUOUS
62
5
10
95.226465
20
-16.476131
11
95.226465
21
-20.876131
0
ARC
5
79a
100
AcDbEntity
8
1
100
AcDbCircle
6
CONTINUOUS
62
5
10
95.126465
20
-20.876131
40
0.100000
100
AcDbArc
50
-89.999999
51
0.000000
0
LINE
5
79b
100
AcDbEntity
8
1
100
AcDbLine
6
CONTINUOUS
62
5
10
95.126465
20
-20.976131
11
82.026465
21
-20.976131
0
ARC
5
79c
100
AcDbEntity
8
1
100
AcDbCircle
6
CONTINUOUS
62
5
10
82.026465
20
-21.076131
40
0.100000
100
AcDbArc
50
89.999999
51
179.999998
0
ARC
5
79d
100
AcDbEntity
8
1
100
AcDbCircle
6
CONTINUOUS
62
5
10
77.826465
20
-35.008370
40
0.500000
100
AcDbArc
50
-179.999998
51
-93.814074
0
LINE
5
79e
100
AcDbEntity
8
1
100
AcDbLine
6
CONTINUOUS
62
5
10
77.326465
20
-35.008370
11
77.326465
21
-5.643923
0
ARC
5
79f
100
AcDbEntity
8
1
100
AcDbCircle
6
CONTINUOUS
62
5
10
77.826465
20
-5.643923
40
0.500000
100
AcDbArc
50
93.814074
51
179.999998
0
POLYLINE
5
7a0
100
AcDbEntity
8
1
6
CONTINUOUS
62
5
100
AcDb2dPolyline
66
1
10
0.0
20
0.0
30
0.0
70
0
0
VERTEX
5
7a1
100
AcDbEntity
8
1
100
AcDbVertex
100
AcDb2dVertex
62
5
10
77.793206
20
-5.145030
0
VERTEX
5
7a2
100
AcDbEntity
8
1
100
AcDbVertex
100
AcDb2dVertex
62
5
10
78.826465
20
-5.076146
0
VERTEX
5
7a3
100
AcDbEntity
8
1
100
AcDbVertex
100
AcDb2dVertex
62
5
10
81.526465
20
-5.076146
0
VERTEX
5
7a4
100
AcDbEntity
8
1
100
AcDbVertex
100
AcDb2dVertex
62
5
10
81.526465
20
-7.217889
0
SEQEND
5
7a5
100
AcDbEntity
8
1
0
ARC
5
7a6
100
AcDbEntity
8
1
100
AcDbCircle
6
CONTINUOUS
62
5
10
81.026465
20
-7.217889
40
0.500000
100
AcDbArc
50
-66.421819
51
0.000000
0
LINE
5
7a7
100
AcDbEntity
8
1
100
AcDbLine
6
CONTINUOUS
62
5
10
81.226465
20
-7.676146
11
81.226465
21
-9.966080
0
ARC
5
7a8
100
AcDbEntity
8
1
100
AcDbCircle
6
CONTINUOUS
62
5
10
80.726465
20
-9.966080
40
0.500000
100
AcDbArc
50
-85.236358
51
0.000000
0
POLYLINE
5
7a9
100
AcDbEntity
8
1
6
CONTINUOUS
62
5
100
AcDb2dPolyline
66
1
10
0.0
20
0.0
30
0.0
70
0
0
VERTEX
5
7aa
100
AcDbEntity
8
1
100
AcDbVertex
100
AcDb2dVertex
62
5
10
80.767988
20
-10.464353
0
VERTEX
5
7ab
100
AcDbEntity
8
1
100
AcDbVertex
100
AcDb2dVertex
62
5
10
78.826465
20
-10.626146
0
VERTEX
5
7ac
100
AcDbEntity
8
1
100
AcDbVertex
100
AcDb2dVertex
62
5
10
78.826465
20
-11.726146
0
SEQEND
5
7ad
100
AcDbEntity
8
1
0
POLYLINE
5
7ae
100
AcDbEntity
8
1
6
CONTINUOUS
62
5
100
AcDb2dPolyline
66
1
10
0.0
20
0.0
30
0.0
70
0
0
VERTEX
5
7af
100
AcDbEntity
8
1
100
AcDbVertex
100
AcDb2dVertex
62
5
10
78.826465
20
-17.526146
0
VERTEX
5
7b0
100
AcDbEntity
8
1
100
AcDbVertex
100
AcDb2dVertex
62
5
10
78.826465
20
-18.626146
0
VERTEX
5
7b1
100
AcDbEntity
8
1
100
AcDbVertex
100
AcDb2dVertex
62
5
10
80.767988
20
-18.787940
0
SEQEND
5
7b2
100
AcDbEntity
8
1
0
ARC
5
7b3
100
AcDbEntity
8
1
100
AcDbCircle
6
CONTINUOUS
62
5
10
80.726465
20
-19.286213
40
0.500000
100
AcDbArc
50
0.000000
51
85.236358
0
LINE
5
7b4
100
AcDbEntity
8
1
100
AcDbLine
6
CONTINUOUS
62
5
10
81.226465
20
-19.286213
11
81.226465
21
-33.876146
0
POLYLINE
5
7b5
100
AcDbEntity
8
1
6
CONTINUOUS
62
5
100
AcDb2dPolyline
66
1
10
0.0
20
0.0
30
0.0
70
0
0
VERTEX
5
7b6
100
AcDbEntity
8
1
100
AcDbVertex
100
AcDb2dVertex
62
5
10
81.226465
20
-35.476146
0
VERTEX
5
7b7
100
AcDbEntity
8
1
100
AcDbVertex
100
AcDb2dVertex
62
5
10
81.226465
20
-35.476146
0
VERTEX
5
7b8
100
AcDbEntity
8
1
100
AcDbVertex
100
AcDb2dVertex
62
5
10
79.626465
20
-35.576146
0
VERTEX
5
7b9
100
AcDbEntity
8
1
100
AcDbVertex
100
AcDb2dVertex
62
5
10
78.826465
20
-35.576146
0
VERTEX
5
7ba
100
AcDbEntity
8
1
100
AcDbVertex
100
AcDb2dVertex
62
5
10
77.793206
20
-35.507262
0
SEQEND
5
7bb
100
AcDbEntity
8
1
0
LINE
5
7bc
100
AcDbEntity
8
1
100
AcDbLine
6
CONTINUOUS
62
5
10
78.826465
20
-5.076146
11
78.826465
21
-17.526146
0
LINE
5
7bd
100
AcDbEntity
8
1
100
AcDbLine
6
CONTINUOUS
62
5
10
78.826465
20
-17.526146
11
78.826465
21
-32.776146
0
LINE
5
7be
100
AcDbEntity
8
1
100
AcDbLine
6
CONTINUOUS
62
5
10
78.826465
20
-33.576146
11
78.826465
21
-35.576146
0
ARC
5
7bf
100
AcDbEntity
8
1
100
AcDbCircle
6
CONTINUOUS
62
5
10
11.026468
20
25.323869
40
0.200000
100
AcDbArc
50
-89.999999
51
0.000000
0
POLYLINE
5
7c0
100
AcDbEntity
8
1
6
CONTINUOUS
62
5
100
AcDb2dPolyline
66
1
10
0.0
20
0.0
30
0.0
70
0
0
VERTEX
5
7c1
100
AcDbEntity
8
1
100
AcDbVertex
100
AcDb2dVertex
62
5
10
11.226468
20
25.323869
0
VERTEX
5
7c2
100
AcDbEntity
8
1
100
AcDbVertex
100
AcDb2dVertex
62
5
10
11.226468
20
29.323869
0
VERTEX
5
7c3
100
AcDbEntity
8
1
100
AcDbVertex
100
AcDb2dVertex
62
5
10
10.926468
20
29.323869
0
SEQEND
5
7c4
100
AcDbEntity
8
1
0
LINE
5
7c5
100
AcDbEntity
8
1
100
AcDbLine
6
CONTINUOUS
62
5
10
10.926468
20
25.123869
11
11.026468
21
25.123869
0
ARC
5
7c6
100
AcDbEntity
8
1
100
AcDbCircle
6
CONTINUOUS
62
5
10
9.026468
20
27.323869
40
2.000000
100
AcDbArc
50
-18.194871
51
18.194871
0
ARC
5
7c7
100
AcDbEntity
8
1
100
AcDbCircle
6
CONTINUOUS
62
5
10
12.226468
20
24.923869
40
0.100000
100
AcDbArc
50
0.000000
51
89.999999
0
LINE
5
7c8
100
AcDbEntity
8
1
100
AcDbLine
6
CONTINUOUS
62
5
10
12.226468
20
25.023869
11
10.926468
21
25.023869
0
ARC
5
7c9
100
AcDbEntity
8
1
100
AcDbCircle
6
CONTINUOUS
62
5
10
12.226468
20
29.723869
40
0.100000
100
AcDbArc
50
-89.999999
51
-0.000000
0
LINE
5
7ca
100
AcDbEntity
8
1
100
AcDbLine
6
CONTINUOUS
62
5
10
10.926468
20
29.623869
11
12.226468
21
29.623869
0
ARC
5
7cb
100
AcDbEntity
8
1
100
AcDbCircle
6
CONTINUOUS
62
5
10
12.226468
20
13.923869
40
0.100000
100
AcDbArc
50
0.000000
51
89.999999
0
LINE
5
7cc
100
AcDbEntity
8
1
100
AcDbLine
6
CONTINUOUS
62
5
10
11.626468
20
14.023869
11
12.226468
21
14.023869
0
LINE
5
7cd
100
AcDbEntity
8
1
100
AcDbLine
6
CONTINUOUS
62
5
10
10.926468
20
10.323869
11
11.926468
21
10.323869
0
ARC
5
7ce
100
AcDbEntity
8
1
100
AcDbCircle
6
CONTINUOUS
62
5
10
12.226468
20
12.123869
40
0.100000
100
AcDbArc
50
-89.999999
51
-0.000000
0
LINE
5
7cf
100
AcDbEntity
8
1
100
AcDbLine
6
CONTINUOUS
62
5
10
10.926468
20
12.023869
11
12.226468
21
12.023869
0
POLYLINE
5
7d0
100
AcDbEntity
8
1
6
CONTINUOUS
62
5
100
AcDb2dPolyline
66
1
10
0.0
20
0.0
30
0.0
70
0
0
VERTEX
5
7d1
100
AcDbEntity
8
1
100
AcDbVertex
100
AcDb2dVertex
62
5
10
10.926468
20
13.823869
0
VERTEX
5
7d2
100
AcDbEntity
8
1
100
AcDbVertex
100
AcDb2dVertex
62
5
10
11.626468
20
13.823869
0
VERTEX
5
7d3
100
AcDbEntity
8
1
100
AcDbVertex
100
AcDb2dVertex
62
5
10
11.626468
20
19.823869
0
VERTEX
5
7d4
100
AcDbEntity
8
1
100
AcDbVertex
100
AcDb2dVertex
62
5
10
10.926468
20
19.823869
0
SEQEND
5
7d5
100
AcDbEntity
8
1
0
ARC
5
7d6
100
AcDbEntity
8
1
100
AcDbCircle
6
CONTINUOUS
62
5
10
12.226468
20
18.723869
40
0.100000
100
AcDbArc
50
-89.999999
51
-0.000000
0
LINE
5
7d7
100
AcDbEntity
8
1
100
AcDbLine
6
CONTINUOUS
62
5
10
12.226468
20
18.623869
11
11.626468
21
18.623869
0
ARC
5
7d8
100
AcDbEntity
8
1
100
AcDbCircle
6
CONTINUOUS
62
5
10
12.226468
20
8.523869
40
0.100000
100
AcDbArc
50
0.000000
51
89.999999
0
LINE
5
7d9
100
AcDbEntity
8
1
100
AcDbLine
6
CONTINUOUS
62
5
10
10.926468
20
8.623869
11
12.226468
21
8.623869
0
ARC
5
7da
100
AcDbEntity
8
1
100
AcDbCircle
6
CONTINUOUS
62
5
10
12.226468
20
1.923869
40
0.100000
100
AcDbArc
50
0.000000
51
89.999999
0
LINE
5
7db
100
AcDbEntity
8
1
100
AcDbLine
6
CONTINUOUS
62
5
10
11.626468
20
2.023869
11
12.226468
21
2.023869
0
POLYLINE
5
7dc
100
AcDbEntity
8
1
6
CONTINUOUS
62
5
100
AcDb2dPolyline
66
1
10
0.0
20
0.0
30
0.0
70
0
0
VERTEX
5
7dd
100
AcDbEntity
8
1
100
AcDbVertex
100
AcDb2dVertex
62
5
10
10.926468
20
0.823869
0
VERTEX
5
7de
100
AcDbEntity
8
1
100
AcDbVertex
100
AcDb2dVertex
62
5
10
11.626468
20
0.823869
0
VERTEX
5
7df
100
AcDbEntity
8
1
100
AcDbVertex
100
AcDb2dVertex
62
5
10
11.626468
20
6.823869
0
VERTEX
5
7e0
100
AcDbEntity
8
1
100
AcDbVertex
100
AcDb2dVertex
62
5
10
10.926468
20
6.823869
0
SEQEND
5
7e1
100
AcDbEntity
8
1
0
ARC
5
7e2
100
AcDbEntity
8
1
100
AcDbCircle
6
CONTINUOUS
62
5
10
12.226468
20
6.723869
40
0.100000
100
AcDbArc
50
-89.999999
51
-0.000000
0
LINE
5
7e3
100
AcDbEntity
8
1
100
AcDbLine
6
CONTINUOUS
62
5
10
12.226468
20
6.623869
11
11.626468
21
6.623869
0
POLYLINE
5
7e4
100
AcDbEntity
8
1
6
CONTINUOUS
62
5
100
AcDb2dPolyline
66
1
10
0.0
20
0.0
30
0.0
70
1
0
VERTEX
5
7e5
100
AcDbEntity
8
1
100
AcDbVertex
100
AcDb2dVertex
62
5
10
11.126468
20
-7.776146
0
VERTEX
5
7e6
100
AcDbEntity
8
1
100
AcDbVertex
100
AcDb2dVertex
62
5
10
10.892023
20
-7.776146
0
VERTEX
5
7e7
100
AcDbEntity
8
1
100
AcDbVertex
100
AcDb2dVertex
62
5
10
10.892023
20
-6.976146
0
VERTEX
5
7e8
100
AcDbEntity
8
1
100
AcDbVertex
100
AcDb2dVertex
62
5
10
11.126468
20
-6.976146
0
SEQEND
5
7e9
100
AcDbEntity
8
1
0
POLYLINE
5
7ea
100
AcDbEntity
8
1
6
CONTINUOUS
62
5
100
AcDb2dPolyline
66
1
10
0.0
20
0.0
30
0.0
70
0
0
VERTEX
5
7eb
100
AcDbEntity
8
1
100
AcDbVertex
100
AcDb2dVertex
62
5
10
10.926468
20
-5.976146
0
VERTEX
5
7ec
100
AcDbEntity
8
1
100
AcDbVertex
100
AcDb2dVertex
62
5
10
11.101468
20
-5.976146
0
VERTEX
5
7ed
100
AcDbEntity
8
1
100
AcDbVertex
100
AcDb2dVertex
62
5
10
11.101468
20
-6.976146
0
SEQEND
5
7ee
100
AcDbEntity
8
1
0
LINE
5
7ef
100
AcDbEntity
8
1
100
AcDbLine
6
CONTINUOUS
62
5
10
10.826468
20
-5.176131
11
10.926468
21
-5.176131
0
LINE
5
7f0
100
AcDbEntity
8
1
100
AcDbLine
6
CONTINUOUS
62
5
10
11.101468
20
-10.976131
11
12.226468
21
-10.976131
0
ARC
5
7f1
100
AcDbEntity
8
1
100
AcDbCircle
6
CONTINUOUS
62
5
10
12.226468
20
-10.876131
40
0.100000
100
AcDbArc
50
-89.999999
51
0.000000
0
LINE
5
7f2
100
AcDbEntity
8
1
100
AcDbLine
6
CONTINUOUS
62
5
10
11.101468
20
-8.976131
11
12.226468
21
-8.976131
0
ARC
5
7f3
100
AcDbEntity
8
1
100
AcDbCircle
6
CONTINUOUS
62
5
10
12.226468
20
-9.076131
40
0.100000
100
AcDbArc
50
0.000000
51
89.999999
0
LINE
5
7f4
100
AcDbEntity
8
1
100
AcDbLine
6
CONTINUOUS
62
5
10
8.906468
20
-4.876131
11
8.986474
21
-5.076146
0
LINE
5
7f5
100
AcDbEntity
8
1
100
AcDbLine
6
CONTINUOUS
62
5
10
5.326468
20
-4.876131
11
5.326468
21
-5.076146
0
LINE
5
7f6
100
AcDbEntity
8
1
100
AcDbLine
6
CONTINUOUS
62
5
10
10.026468
20
-4.876131
11
10.026468
21
-5.076146
0
LINE
5
7f7
100
AcDbEntity
8
1
100
AcDbLine
6
CONTINUOUS
62
5
10
10.926468
20
2.023869
11
10.926468
21
-4.376131
0
ARC
5
7f8
100
AcDbEntity
8
1
100
AcDbCircle
6
CONTINUOUS
62
5
10
12.226468
20
-4.276131
40
0.100000
100
AcDbArc
50
-89.999999
51
-0.000000
0
POLYLINE
5
7f9
100
AcDbEntity
8
1
6
CONTINUOUS
62
5
100
AcDb2dPolyline
66
1
10
0.0
20
0.0
30
0.0
70
0
0
VERTEX
5
7fa
100
AcDbEntity
8
1
100
AcDbVertex
100
AcDb2dVertex
62
5
10
10.826468
20
-5.276146
0
VERTEX
5
7fb
100
AcDbEntity
8
1
100
AcDbVertex
100
AcDb2dVertex
62
5
10
10.826468
20
-4.676131
0
VERTEX
5
7fc
100
AcDbEntity
8
1
100
AcDbVertex
100
AcDb2dVertex
62
5
10
10.826468
20
-4.676131
0
SEQEND
5
7fd
100
AcDbEntity
8
1
0
LINE
5
7fe
100
AcDbEntity
8
1
100
AcDbLine
6
CONTINUOUS
62
5
10
10.926468
20
-4.376131
11
12.226468
21
-4.376131
0
LINE
5
7ff
100
AcDbEntity
8
1
100
AcDbLine
6
CONTINUOUS
62
5
10
10.926468
20
-5.576146
11
10.924844
21
-4.416394
0
ARC
5
800
100
AcDbEntity
8
1
100
AcDbCircle
6
CONTINUOUS
62
5
10
11.026468
20
-4.676131
40
0.200000
100
AcDbArc
50
0.000000
51
89.999999
0
POLYLINE
5
801
100
AcDbEntity
8
1
6
CONTINUOUS
62
5
100
AcDb2dPolyline
66
1
10
0.0
20
0.0
30
0.0
70
0
0
VERTEX
5
802
100
AcDbEntity
8
1
100
AcDbVertex
100
AcDb2dVertex
62
5
10
11.226468
20
-4.676131
0
VERTEX
5
803
100
AcDbEntity
8
1
100
AcDbVertex
100
AcDb2dVertex
62
5
10
11.226468
20
-8.676131
0
VERTEX
5
804
100
AcDbEntity
8
1
100
AcDbVertex
100
AcDb2dVertex
62
5
10
11.101468
20
-8.676131
0
SEQEND
5
805
100
AcDbEntity
8
1
0
LINE
5
806
100
AcDbEntity
8
1
100
AcDbLine
6
CONTINUOUS
62
5
10
10.926468
20
-4.476131
11
11.026468
21
-4.476131
0
ARC
5
807
100
AcDbEntity
8
1
100
AcDbCircle
6
CONTINUOUS
62
5
10
11.426468
20
8.673869
40
0.500000
100
AcDbArc
50
129.529084
51
179.999998
0
LINE
5
808
100
AcDbEntity
8
1
100
AcDbLine
6
CONTINUOUS
62
5
10
11.108233
20
9.059520
11
11.472055
21
9.359742
0
ARC
5
809
100
AcDbEntity
8
1
100
AcDbCircle
6
CONTINUOUS
62
5
10
10.676468
20
10.323869
40
1.250000
100
AcDbArc
50
-50.470914
51
50.470914
0
LINE
5
80a
100
AcDbEntity
8
1
100
AcDbLine
6
CONTINUOUS
62
5
10
11.472055
20
11.287996
11
11.108233
21
11.588218
0
ARC
5
80b
100
AcDbEntity
8
1
100
AcDbCircle
6
CONTINUOUS
62
5
10
11.426468
20
11.973869
40
0.500000
100
AcDbArc
50
-179.999998
51
-129.529084
0
POLYLINE
5
80c
100
AcDbEntity
8
1
6
CONTINUOUS
62
5
100
AcDb2dPolyline
66
1
10
0.0
20
0.0
30
0.0
70
1
0
VERTEX
5
80d
100
AcDbEntity
8
1
100
AcDbVertex
100
AcDb2dVertex
62
5
10
-8.086063
20
15.948843
0
VERTEX
5
80e
100
AcDbEntity
8
1
100
AcDbVertex
100
AcDb2dVertex
62
5
10
-5.487313
20
15.948843
0
VERTEX
5
80f
100
AcDbEntity
8
1
100
AcDbVertex
100
AcDb2dVertex
62
5
10
-5.487313
20
14.649468
0
VERTEX
5
810
100
AcDbEntity
8
1
100
AcDbVertex
100
AcDb2dVertex
62
5
10
-8.086063
20
14.649468
0
VERTEX
5
811
100
AcDbEntity
8
1
100
AcDbVertex
100
AcDb2dVertex
62
5
10
-8.086063
20
15.948843
0
SEQEND
5
812
100
AcDbEntity
8
1
0
LINE
5
813
100
AcDbEntity
8
1
100
AcDbLine
6
CONTINUOUS
62
5
10
-6.786688
20
16.598530
11
-6.786688
21
13.566655
0
LINE
5
814
100
AcDbEntity
8
1
100
AcDbLine
6
CONTINUOUS
62
5
10
-16.098876
20
16.490249
11
-15.774032
21
16.165405
0
POLYLINE
5
815
100
AcDbEntity
8
1
6
CONTINUOUS
62
5
100
AcDb2dPolyline
66
1
10
0.0
20
0.0
30
0.0
70
0
0
VERTEX
5
816
100
AcDbEntity
8
1
100
AcDbVertex
100
AcDb2dVertex
62
5
10
-16.315438
20
15.407437
0
VERTEX
5
817
100
AcDbEntity
8
1
100
AcDbVertex
100
AcDb2dVertex
62
5
10
-15.774032
20
15.407437
0
VERTEX
5
818
100
AcDbEntity
8
1
100
AcDbVertex
100
AcDb2dVertex
62
5
10
-15.774032
20
14.324624
0
VERTEX
5
819
100
AcDbEntity
8
1
100
AcDbVertex
100
AcDb2dVertex
62
5
10
-16.315438
20
13.783218
0
SEQEND
5
81a
100
AcDbEntity
8
1
0
POLYLINE
5
81b
100
AcDbEntity
8
1
6
CONTINUOUS
62
5
100
AcDb2dPolyline
66
1
10
0.0
20
0.0
30
0.0
70
0
0
VERTEX
5
81c
100
AcDbEntity
8
1
100
AcDbVertex
100
AcDb2dVertex
62
5
10
-15.774032
20
14.324624
0
VERTEX
5
81d
100
AcDbEntity
8
1
100
AcDbVertex
100
AcDb2dVertex
62
5
10
-15.340907
20
13.891499
0
VERTEX
5
81e
100
AcDbEntity
8
1
100
AcDbVertex
100
AcDb2dVertex
62
5
10
-14.907782
20
13.783218
0
VERTEX
5
81f
100
AcDbEntity
8
1
100
AcDbVertex
100
AcDb2dVertex
62
5
10
-13.175282
20
13.674937
0
SEQEND
5
820
100
AcDbEntity
8
1
0
POLYLINE
5
821
100
AcDbEntity
8
1
6
CONTINUOUS
62
5
100
AcDb2dPolyline
66
1
10
0.0
20
0.0
30
0.0
70
0
0
VERTEX
5
822
100
AcDbEntity
8
1
100
AcDbVertex
100
AcDb2dVertex
62
5
10
-15.449188
20
16.057124
0
VERTEX
5
823
100
AcDbEntity
8
1
100
AcDbVertex
100
AcDb2dVertex
62
5
10
-15.449188
20
16.598530
0
VERTEX
5
824
100
AcDbEntity
8
1
100
AcDbVertex
100
AcDb2dVertex
62
5
10
-13.283563
20
16.598530
0
VERTEX
5
825
100
AcDbEntity
8
1
100
AcDbVertex
100
AcDb2dVertex
62
5
10
-13.283563
20
16.165405
0
SEQEND
5
826
100
AcDbEntity
8
1
0
LINE
5
827
100
AcDbEntity
8
1
100
AcDbLine
6
CONTINUOUS
62
5
10
-15.124344
20
16.057124
11
-13.608407
21
16.057124
0
POLYLINE
5
828
100
AcDbEntity
8
1
6
CONTINUOUS
62
5
100
AcDb2dPolyline
66
1
10
0.0
20
0.0
30
0.0
70
1
0
VERTEX
5
829
100
AcDbEntity
8
1
100
AcDbVertex
100
AcDb2dVertex
62
5
10
-15.124344
20
14.866030
0
VERTEX
5
82a
100
AcDbEntity
8
1
100
AcDbVertex
100
AcDb2dVertex
62
5
10
-15.124344
20
15.732280
0
VERTEX
5
82b
100
AcDbEntity
8
1
100
AcDbVertex
100
AcDb2dVertex
62
5
10
-13.608407
20
15.732280
0
VERTEX
5
82c
100
AcDbEntity
8
1
100
AcDbVertex
100
AcDb2dVertex
62
5
10
-13.608407
20
14.866030
0
VERTEX
5
82d
100
AcDbEntity
8
1
100
AcDbVertex
100
AcDb2dVertex
62
5
10
-15.124344
20
14.866030
0
SEQEND
5
82e
100
AcDbEntity
8
1
0
LINE
5
82f
100
AcDbEntity
8
1
100
AcDbLine
6
CONTINUOUS
62
5
10
-15.124344
20
15.299155
11
-13.608407
21
15.299155
0
LINE
5
830
100
AcDbEntity
8
1
100
AcDbLine
6
CONTINUOUS
62
5
10
-14.366376
20
16.381968
11
-14.366376
21
13.999780
0
LINE
5
831
100
AcDbEntity
8
1
100
AcDbLine
6
CONTINUOUS
62
5
10
-15.449188
20
14.541187
11
-13.175282
21
14.541187
0
LINE
5
832
100
AcDbEntity
8
1
100
AcDbLine
6
CONTINUOUS
62
5
10
-10.793094
20
16.165405
11
-9.385438
21
16.165405
0
LINE
5
833
100
AcDbEntity
8
1
100
AcDbLine
6
CONTINUOUS
62
5
10
-10.035126
20
15.407437
11
-10.901376
21
13.783218
0
LINE
5
834
100
AcDbEntity
8
1
100
AcDbLine
6
CONTINUOUS
62
5
10
-9.710282
20
14.649468
11
-9.168876
21
13.674937
0
LINE
5
835
100
AcDbEntity
8
1
100
AcDbLine
6
CONTINUOUS
62
5
10
-11.117938
20
13.783218
11
-9.385438
21
13.999780
0
LINE
5
836
100
AcDbEntity
8
1
100
AcDbLine
6
CONTINUOUS
62
5
10
-12.309032
20
16.273687
11
-11.117938
21
16.273687
0
POLYLINE
5
837
100
AcDbEntity
8
1
6
CONTINUOUS
62
5
100
AcDb2dPolyline
66
1
10
0.0
20
0.0
30
0.0
70
1
0
VERTEX
5
838
100
AcDbEntity
8
1
100
AcDbVertex
100
AcDb2dVertex
62
5
10
-12.309032
20
15.840562
0
VERTEX
5
839
100
AcDbEntity
8
1
100
AcDbVertex
100
AcDb2dVertex
62
5
10
-12.309032
20
14.757749
0
VERTEX
5
83a
100
AcDbEntity
8
1
100
AcDbVertex
100
AcDb2dVertex
62
5
10
-11.226219
20
14.757749
0
VERTEX
5
83b
100
AcDbEntity
8
1
100
AcDbVertex
100
AcDb2dVertex
62
5
10
-11.226219
20
15.840562
0
VERTEX
5
83c
100
AcDbEntity
8
1
100
AcDbVertex
100
AcDb2dVertex
62
5
10
-12.309032
20
15.840562
0
SEQEND
5
83d
100
AcDbEntity
8
1
0
LINE
5
83e
100
AcDbEntity
8
1
100
AcDbLine
6
CONTINUOUS
62
5
10
-12.309032
20
15.299155
11
-11.226219
21
15.299155
0
LINE
5
83f
100
AcDbEntity
8
1
100
AcDbLine
6
CONTINUOUS
62
5
10
-12.309032
20
14.324624
11
-11.009657
21
14.324624
0
LINE
5
840
100
AcDbEntity
8
1
100
AcDbLine
6
CONTINUOUS
62
5
10
-11.767626
20
16.706812
11
-11.767626
21
13.566655
0
LINE
5
841
100
AcDbEntity
8
1
100
AcDbLine
6
CONTINUOUS
62
5
10
-11.009657
20
15.407437
11
-9.168876
21
15.407437
0
ARC
5
842
100
AcDbEntity
8
1
100
AcDbCircle
6
CONTINUOUS
62
5
10
-7.489233
20
10.323869
40
0.800000
100
AcDbArc
50
-89.999999
51
89.999999
0
POLYLINE
5
843
100
AcDbEntity
8
1
6
CONTINUOUS
62
5
100
AcDb2dPolyline
66
1
10
0.0
20
0.0
30
0.0
70
0
0
VERTEX
5
844
100
AcDbEntity
8
1
100
AcDbVertex
100
AcDb2dVertex
62
5
10
-7.489233
20
9.523869
0
VERTEX
5
845
100
AcDbEntity
8
1
100
AcDbVertex
100
AcDb2dVertex
62
5
10
-7.489233
20
9.523869
0
VERTEX
5
846
100
AcDbEntity
8
1
100
AcDbVertex
100
AcDb2dVertex
62
5
10
-14.289233
20
9.523869
0
SEQEND
5
847
100
AcDbEntity
8
1
0
ARC
5
848
100
AcDbEntity
8
1
100
AcDbCircle
6
CONTINUOUS
62
5
10
-14.289233
20
10.323869
40
0.800000
100
AcDbArc
50
89.999999
51
-89.999999
0
POLYLINE
5
849
100
AcDbEntity
8
1
6
CONTINUOUS
62
5
100
AcDb2dPolyline
66
1
10
0.0
20
0.0
30
0.0
70
0
0
VERTEX
5
84a
100
AcDbEntity
8
1
100
AcDbVertex
100
AcDb2dVertex
62
5
10
-14.289233
20
11.123869
0
VERTEX
5
84b
100
AcDbEntity
8
1
100
AcDbVertex
100
AcDb2dVertex
62
5
10
-14.289233
20
11.123869
0
VERTEX
5
84c
100
AcDbEntity
8
1
100
AcDbVertex
100
AcDb2dVertex
62
5
10
-7.489233
20
11.123869
0
SEQEND
5
84d
100
AcDbEntity
8
1
0
ARC
5
84e
100
AcDbEntity
8
1
100
AcDbCircle
6
CONTINUOUS
62
5
10
-33.473532
20
24.923869
40
0.100000
100
AcDbArc
50
89.999999
51
-179.999998
0
LINE
5
84f
100
AcDbEntity
8
1
100
AcDbLine
6
CONTINUOUS
62
5
10
-33.473532
20
25.023869
11
-32.673532
21
25.023869
0
LINE
5
850
100
AcDbEntity
8
1
100
AcDbLine
6
CONTINUOUS
62
5
10
-32.773532
20
12.523869
11
-33.473532
21
12.523869
0
LINE
5
851
100
AcDbEntity
8
1
100
AcDbLine
6
CONTINUOUS
62
5
10
-32.773532
20
12.523869
11
-32.673532
21
12.523869
0
ARC
5
852
100
AcDbEntity
8
1
100
AcDbCircle
6
CONTINUOUS
62
5
10
-31.923532
20
10.323869
40
1.250000
100
AcDbArc
50
138.370695
51
-138.370695
0
ARC
5
853
100
AcDbEntity
8
1
100
AcDbCircle
6
CONTINUOUS
62
5
10
-31.923532
20
10.323869
40
1.000000
100
AcDbArc
50
161.384857
51
-161.384857
0
ARC
5
854
100
AcDbEntity
8
1
100
AcDbCircle
6
CONTINUOUS
62
5
10
-33.473532
20
15.918765
40
0.100000
100
AcDbArc
50
179.999998
51
-92.999999
0
LINE
5
855
100
AcDbEntity
8
1
100
AcDbLine
6
CONTINUOUS
62
5
10
-33.573532
20
15.918765
11
-33.573532
21
15.923869
0
LINE
5
856
100
AcDbEntity
8
1
100
AcDbLine
6
CONTINUOUS
62
5
10
-33.573532
20
12.423869
11
-33.573532
21
12.428973
0
ARC
5
857
100
AcDbEntity
8
1
100
AcDbCircle
6
CONTINUOUS
62
5
10
-33.473532
20
12.428973
40
0.100000
100
AcDbArc
50
92.999999
51
179.999998
0
LINE
5
858
100
AcDbEntity
8
1
100
AcDbLine
6
CONTINUOUS
62
5
10
-33.478765
20
12.528836
11
-33.097459
21
12.548819
0
ARC
5
859
100
AcDbEntity
8
1
100
AcDbCircle
6
CONTINUOUS
62
5
10
-33.102693
20
12.648682
40
0.100000
100
AcDbArc
50
-86.999999
51
-2.190679
0
ARC
5
85a
100
AcDbEntity
8
1
100
AcDbCircle
6
CONTINUOUS
62
5
10
-72.973532
20
14.173869
40
40.000000
100
AcDbArc
50
-2.190679
51
-0.501344
0
LINE
5
85b
100
AcDbEntity
8
1
100
AcDbLine
6
CONTINUOUS
62
5
10
-32.975063
20
13.823869
11
-32.975063
21
13.823869
0
POLYLINE
5
85c
100
AcDbEntity
8
1
6
CONTINUOUS
62
5
100
AcDb2dPolyline
66
1
10
0.0
20
0.0
30
0.0
70
0
0
VERTEX
5
85d
100
AcDbEntity
8
1
100
AcDbVertex
100
AcDb2dVertex
62
5
10
-33.373532
20
15.813387
0
VERTEX
5
85e
100
AcDbEntity
8
1
100
AcDbVertex
100
AcDb2dVertex
62
5
10
-33.373532
20
15.813387
0
VERTEX
5
85f
100
AcDbEntity
8
1
100
AcDbVertex
100
AcDb2dVertex
62
5
10
-33.478765
20
15.818903
0
SEQEND
5
860
100
AcDbEntity
8
1
0
POLYLINE
5
861
100
AcDbEntity
8
1
6
CONTINUOUS
62
5
100
AcDb2dPolyline
66
1
10
0.0
20
0.0
30
0.0
70
0
0
VERTEX
5
862
100
AcDbEntity
8
1
100
AcDbVertex
100
AcDb2dVertex
62
5
10
-32.673532
20
13.823869
0
VERTEX
5
863
100
AcDbEntity
8
1
100
AcDbVertex
100
AcDb2dVertex
62
5
10
-33.373532
20
13.823869
0
VERTEX
5
864
100
AcDbEntity
8
1
100
AcDbVertex
100
AcDb2dVertex
62
5
10
-33.373532
20
19.823869
0
VERTEX
5
865
100
AcDbEntity
8
1
100
AcDbVertex
100
AcDb2dVertex
62
5
10
-32.673532
20
19.823869
0
SEQEND
5
866
100
AcDbEntity
8
1
0
LINE
5
867
100
AcDbEntity
8
1
100
AcDbLine
6
CONTINUOUS
62
5
10
-33.573532
20
15.918765
11
-33.573532
21
27.728973
0
ARC
5
868
100
AcDbEntity
8
1
100
AcDbCircle
6
CONTINUOUS
62
5
10
-33.473532
20
18.723869
40
0.100000
100
AcDbArc
50
-179.999998
51
-89.999999
0
LINE
5
869
100
AcDbEntity
8
1
100
AcDbLine
6
CONTINUOUS
62
5
10
-33.473532
20
18.623869
11
-33.373532
21
18.623869
0
POLYLINE
5
86a
100
AcDbEntity
8
1
6
CONTINUOUS
62
5
100
AcDb2dPolyline
66
1
10
0.0
20
0.0
30
0.0
70
0
0
VERTEX
5
86b
100
AcDbEntity
8
1
100
AcDbVertex
100
AcDb2dVertex
62
5
10
-6.088494
20
-2.576131
0
VERTEX
5
86c
100
AcDbEntity
8
1
100
AcDbVertex
100
AcDb2dVertex
62
5
10
-5.569652
20
-2.582439
0
VERTEX
5
86d
100
AcDbEntity
8
1
100
AcDbVertex
100
AcDb2dVertex
62
5
10
-5.099108
20
-2.601362
0
VERTEX
5
86e
100
AcDbEntity
8
1
100
AcDbVertex
100
AcDb2dVertex
62
5
10
-4.676864
20
-2.632901
0
VERTEX
5
86f
100
AcDbEntity
8
1
100
AcDbVertex
100
AcDb2dVertex
62
5
10
-4.302918
20
-2.677055
0
VERTEX
5
870
100
AcDbEntity
8
1
100
AcDbVertex
100
AcDb2dVertex
62
5
10
-3.977272
20
-2.733825
0
VERTEX
5
871
100
AcDbEntity
8
1
100
AcDbVertex
100
AcDb2dVertex
62
5
10
-3.699926
20
-2.803210
0
VERTEX
5
872
100
AcDbEntity
8
1
100
AcDbVertex
100
AcDb2dVertex
62
5
10
-3.470878
20
-2.885211
0
VERTEX
5
873
100
AcDbEntity
8
1
100
AcDbVertex
100
AcDb2dVertex
62
5
10
-3.290130
20
-2.979827
0
VERTEX
5
874
100
AcDbEntity
8
1
100
AcDbVertex
100
AcDb2dVertex
62
5
10
-3.157681
20
-3.087059
0
VERTEX
5
875
100
AcDbEntity
8
1
100
AcDbVertex
100
AcDb2dVertex
62
5
10
-3.103681
20
-3.144059
0
VERTEX
5
876
100
AcDbEntity
8
1
100
AcDbVertex
100
AcDb2dVertex
62
5
10
-3.073532
20
-3.206907
0
SEQEND
5
877
100
AcDbEntity
8
1
0
POLYLINE
5
878
100
AcDbEntity
8
1
6
CONTINUOUS
62
5
100
AcDb2dPolyline
66
1
10
0.0
20
0.0
30
0.0
70
0
0
VERTEX
5
879
100
AcDbEntity
8
1
100
AcDbVertex
100
AcDb2dVertex
62
5
10
-6.088494
20
-2.576131
0
VERTEX
5
87a
100
AcDbEntity
8
1
100
AcDbVertex
100
AcDb2dVertex
62
5
10
-5.569652
20
-2.582439
0
VERTEX
5
87b
100
AcDbEntity
8
1
100
AcDbVertex
100
AcDb2dVertex
62
5
10
-5.099108
20
-2.601362
0
VERTEX
5
87c
100
AcDbEntity
8
1
100
AcDbVertex
100
AcDb2dVertex
62
5
10
-4.676864
20
-2.632901
0
VERTEX
5
87d
100
AcDbEntity
8
1
100
AcDbVertex
100
AcDb2dVertex
62
5
10
-4.302918
20
-2.677055
0
VERTEX
5
87e
100
AcDbEntity
8
1
100
AcDbVertex
100
AcDb2dVertex
62
5
10
-3.977272
20
-2.733825
0
VERTEX
5
87f
100
AcDbEntity
8
1
100
AcDbVertex
100
AcDb2dVertex
62
5
10
-3.699926
20
-2.803210
0
VERTEX
5
880
100
AcDbEntity
8
1
100
AcDbVertex
100
AcDb2dVertex
62
5
10
-3.470878
20
-2.885211
0
VERTEX
5
881
100
AcDbEntity
8
1
100
AcDbVertex
100
AcDb2dVertex
62
5
10
-3.290130
20
-2.979827
0
VERTEX
5
882
100
AcDbEntity
8
1
100
AcDbVertex
100
AcDb2dVertex
62
5
10
-3.157681
20
-3.087059
0
VERTEX
5
883
100
AcDbEntity
8
1
100
AcDbVertex
100
AcDb2dVertex
62
5
10
-3.103681
20
-3.144059
0
VERTEX
5
884
100
AcDbEntity
8
1
100
AcDbVertex
100
AcDb2dVertex
62
5
10
-3.073532
20
-3.206907
0
SEQEND
5
885
100
AcDbEntity
8
1
0
POLYLINE
5
886
100
AcDbEntity
8
1
6
CONTINUOUS
62
5
100
AcDb2dPolyline
66
1
10
0.0
20
0.0
30
0.0
70
0
0
VERTEX
5
887
100
AcDbEntity
8
1
100
AcDbVertex
100
AcDb2dVertex
62
5
10
-3.073532
20
-3.557897
0
VERTEX
5
888
100
AcDbEntity
8
1
100
AcDbVertex
100
AcDb2dVertex
62
5
10
-3.073532
20
-3.206907
0
VERTEX
5
889
100
AcDbEntity
8
1
100
AcDbVertex
100
AcDb2dVertex
62
5
10
-3.103681
20
-3.144059
0
VERTEX
5
88a
100
AcDbEntity
8
1
100
AcDbVertex
100
AcDb2dVertex
62
5
10
-3.194130
20
-3.087827
0
VERTEX
5
88b
100
AcDbEntity
8
1
100
AcDbVertex
100
AcDb2dVertex
62
5
10
-3.344878
20
-3.038211
0
VERTEX
5
88c
100
AcDbEntity
8
1
100
AcDbVertex
100
AcDb2dVertex
62
5
10
-3.555926
20
-2.995210
0
VERTEX
5
88d
100
AcDbEntity
8
1
100
AcDbVertex
100
AcDb2dVertex
62
5
10
-3.827272
20
-2.958825
0
VERTEX
5
88e
100
AcDbEntity
8
1
100
AcDbVertex
100
AcDb2dVertex
62
5
10
-4.158918
20
-2.929055
0
VERTEX
5
88f
100
AcDbEntity
8
1
100
AcDbVertex
100
AcDb2dVertex
62
5
10
-4.550864
20
-2.905901
0
VERTEX
5
890
100
AcDbEntity
8
1
100
AcDbVertex
100
AcDb2dVertex
62
5
10
-5.003108
20
-2.889362
0
VERTEX
5
891
100
AcDbEntity
8
1
100
AcDbVertex
100
AcDb2dVertex
62
5
10
-5.073532
20
-2.882190
0
SEQEND
5
892
100
AcDbEntity
8
1
0
POLYLINE
5
893
100
AcDbEntity
8
1
6
CONTINUOUS
62
5
100
AcDb2dPolyline
66
1
10
0.0
20
0.0
30
0.0
70
0
0
VERTEX
5
894
100
AcDbEntity
8
1
100
AcDbVertex
100
AcDb2dVertex
62
5
10
-3.073532
20
-3.557897
0
VERTEX
5
895
100
AcDbEntity
8
1
100
AcDbVertex
100
AcDb2dVertex
62
5
10
-3.073532
20
-3.206907
0
VERTEX
5
896
100
AcDbEntity
8
1
100
AcDbVertex
100
AcDb2dVertex
62
5
10
-3.103681
20
-3.144059
0
VERTEX
5
897
100
AcDbEntity
8
1
100
AcDbVertex
100
AcDb2dVertex
62
5
10
-3.194130
20
-3.087827
0
VERTEX
5
898
100
AcDbEntity
8
1
100
AcDbVertex
100
AcDb2dVertex
62
5
10
-3.344878
20
-3.038211
0
VERTEX
5
899
100
AcDbEntity
8
1
100
AcDbVertex
100
AcDb2dVertex
62
5
10
-3.555926
20
-2.995210
0
VERTEX
5
89a
100
AcDbEntity
8
1
100
AcDbVertex
100
AcDb2dVertex
62
5
10
-3.827272
20
-2.958825
0
VERTEX
5
89b
100
AcDbEntity
8
1
100
AcDbVertex
100
AcDb2dVertex
62
5
10
-4.158918
20
-2.929055
0
VERTEX
5
89c
100
AcDbEntity
8
1
100
AcDbVertex
100
AcDb2dVertex
62
5
10
-4.550864
20
-2.905901
0
VERTEX
5
89d
100
AcDbEntity
8
1
100
AcDbVertex
100
AcDb2dVertex
62
5
10
-5.003108
20
-2.889362
0
VERTEX
5
89e
100
AcDbEntity
8
1
100
AcDbVertex
100
AcDb2dVertex
62
5
10
-5.073532
20
-2.882190
0
SEQEND
5
89f
100
AcDbEntity
8
1
0
LINE
5
8a0
100
AcDbEntity
8
1
100
AcDbLine
6
CONTINUOUS
62
5
10
-3.073532
20
-0.345355
11
-3.073532
21
-3.206907
0
LINE
5
8a1
100
AcDbEntity
8
1
100
AcDbLine
6
CONTINUOUS
62
5
10
-3.073532
20
-0.345355
11
-3.073532
21
-3.206907
0
POLYLINE
5
8a2
100
AcDbEntity
8
1
6
CONTINUOUS
62
5
100
AcDb2dPolyline
66
1
10
0.0
20
0.0
30
0.0
70
0
0
VERTEX
5
8a3
100
AcDbEntity
8
1
100
AcDbVertex
100
AcDb2dVertex
62
5
10
-6.088494
20
-0.976131
0
VERTEX
5
8a4
100
AcDbEntity
8
1
100
AcDbVertex
100
AcDb2dVertex
62
5
10
-5.569652
20
-0.969823
0
VERTEX
5
8a5
100
AcDbEntity
8
1
100
AcDbVertex
100
AcDb2dVertex
62
5
10
-5.099108
20
-0.950900
0
VERTEX
5
8a6
100
AcDbEntity
8
1
100
AcDbVertex
100
AcDb2dVertex
62
5
10
-4.676864
20
-0.919361
0
VERTEX
5
8a7
100
AcDbEntity
8
1
100
AcDbVertex
100
AcDb2dVertex
62
5
10
-4.302918
20
-0.875207
0
VERTEX
5
8a8
100
AcDbEntity
8
1
100
AcDbVertex
100
AcDb2dVertex
62
5
10
-3.977272
20
-0.818437
0
VERTEX
5
8a9
100
AcDbEntity
8
1
100
AcDbVertex
100
AcDb2dVertex
62
5
10
-3.699926
20
-0.749052
0
VERTEX
5
8aa
100
AcDbEntity
8
1
100
AcDbVertex
100
AcDb2dVertex
62
5
10
-3.470878
20
-0.667051
0
VERTEX
5
8ab
100
AcDbEntity
8
1
100
AcDbVertex
100
AcDb2dVertex
62
5
10
-3.290130
20
-0.572435
0
VERTEX
5
8ac
100
AcDbEntity
8
1
100
AcDbVertex
100
AcDb2dVertex
62
5
10
-3.157681
20
-0.465203
0
VERTEX
5
8ad
100
AcDbEntity
8
1
100
AcDbVertex
100
AcDb2dVertex
62
5
10
-3.103681
20
-0.408203
0
VERTEX
5
8ae
100
AcDbEntity
8
1
100
AcDbVertex
100
AcDb2dVertex
62
5
10
-3.073532
20
-0.345355
0
SEQEND
5
8af
100
AcDbEntity
8
1
0
POLYLINE
5
8b0
100
AcDbEntity
8
1
6
CONTINUOUS
62
5
100
AcDb2dPolyline
66
1
10
0.0
20
0.0
30
0.0
70
0
0
VERTEX
5
8b1
100
AcDbEntity
8
1
100
AcDbVertex
100
AcDb2dVertex
62
5
10
-6.088494
20
-0.976131
0
VERTEX
5
8b2
100
AcDbEntity
8
1
100
AcDbVertex
100
AcDb2dVertex
62
5
10
-5.569652
20
-0.969823
0
VERTEX
5
8b3
100
AcDbEntity
8
1
100
AcDbVertex
100
AcDb2dVertex
62
5
10
-5.099108
20
-0.950900
0
VERTEX
5
8b4
100
AcDbEntity
8
1
100
AcDbVertex
100
AcDb2dVertex
62
5
10
-4.676864
20
-0.919361
0
VERTEX
5
8b5
100
AcDbEntity
8
1
100
AcDbVertex
100
AcDb2dVertex
62
5
10
-4.302918
20
-0.875207
0
VERTEX
5
8b6
100
AcDbEntity
8
1
100
AcDbVertex
100
AcDb2dVertex
62
5
10
-3.977272
20
-0.818437
0
VERTEX
5
8b7
100
AcDbEntity
8
1
100
AcDbVertex
100
AcDb2dVertex
62
5
10
-3.699926
20
-0.749052
0
VERTEX
5
8b8
100
AcDbEntity
8
1
100
AcDbVertex
100
AcDb2dVertex
62
5
10
-3.470878
20
-0.667051
0
VERTEX
5
8b9
100
AcDbEntity
8
1
100
AcDbVertex
100
AcDb2dVertex
62
5
10
-3.290130
20
-0.572435
0
VERTEX
5
8ba
100
AcDbEntity
8
1
100
AcDbVertex
100
AcDb2dVertex
62
5
10
-3.157681
20
-0.465203
0
VERTEX
5
8bb
100
AcDbEntity
8
1
100
AcDbVertex
100
AcDb2dVertex
62
5
10
-3.103681
20
-0.408203
0
VERTEX
5
8bc
100
AcDbEntity
8
1
100
AcDbVertex
100
AcDb2dVertex
62
5
10
-3.073532
20
-0.345355
0
SEQEND
5
8bd
100
AcDbEntity
8
1
0
POLYLINE
5
8be
100
AcDbEntity
8
1
6
CONTINUOUS
62
5
100
AcDb2dPolyline
66
1
10
0.0
20
0.0
30
0.0
70
0
0
VERTEX
5
8bf
100
AcDbEntity
8
1
100
AcDbVertex
100
AcDb2dVertex
62
5
10
-6.088494
20
-0.676131
0
VERTEX
5
8c0
100
AcDbEntity
8
1
100
AcDbVertex
100
AcDb2dVertex
62
5
10
-5.515652
20
-0.672823
0
VERTEX
5
8c1
100
AcDbEntity
8
1
100
AcDbVertex
100
AcDb2dVertex
62
5
10
-5.003108
20
-0.662900
0
VERTEX
5
8c2
100
AcDbEntity
8
1
100
AcDbVertex
100
AcDb2dVertex
62
5
10
-4.550864
20
-0.646361
0
VERTEX
5
8c3
100
AcDbEntity
8
1
100
AcDbVertex
100
AcDb2dVertex
62
5
10
-4.158918
20
-0.623207
0
VERTEX
5
8c4
100
AcDbEntity
8
1
100
AcDbVertex
100
AcDb2dVertex
62
5
10
-3.827272
20
-0.593437
0
VERTEX
5
8c5
100
AcDbEntity
8
1
100
AcDbVertex
100
AcDb2dVertex
62
5
10
-3.555926
20
-0.557052
0
VERTEX
5
8c6
100
AcDbEntity
8
1
100
AcDbVertex
100
AcDb2dVertex
62
5
10
-3.344878
20
-0.514051
0
VERTEX
5
8c7
100
AcDbEntity
8
1
100
AcDbVertex
100
AcDb2dVertex
62
5
10
-3.194130
20
-0.464435
0
VERTEX
5
8c8
100
AcDbEntity
8
1
100
AcDbVertex
100
AcDb2dVertex
62
5
10
-3.103681
20
-0.408203
0
VERTEX
5
8c9
100
AcDbEntity
8
1
100
AcDbVertex
100
AcDb2dVertex
62
5
10
-3.073532
20
-0.345355
0
VERTEX
5
8ca
100
AcDbEntity
8
1
100
AcDbVertex
100
AcDb2dVertex
62
5
10
-3.073532
20
-0.000000
0
SEQEND
5
8cb
100
AcDbEntity
8
1
0
POLYLINE
5
8cc
100
AcDbEntity
8
1
6
CONTINUOUS
62
5
100
AcDb2dPolyline
66
1
10
0.0
20
0.0
30
0.0
70
0
0
VERTEX
5
8cd
100
AcDbEntity
8
1
100
AcDbVertex
100
AcDb2dVertex
62
5
10
-6.088494
20
-0.676131
0
VERTEX
5
8ce
100
AcDbEntity
8
1
100
AcDbVertex
100
AcDb2dVertex
62
5
10
-5.515652
20
-0.672823
0
VERTEX
5
8cf
100
AcDbEntity
8
1
100
AcDbVertex
100
AcDb2dVertex
62
5
10
-5.003108
20
-0.662900
0
VERTEX
5
8d0
100
AcDbEntity
8
1
100
AcDbVertex
100
AcDb2dVertex
62
5
10
-4.550864
20
-0.646361
0
VERTEX
5
8d1
100
AcDbEntity
8
1
100
AcDbVertex
100
AcDb2dVertex
62
5
10
-4.158918
20
-0.623207
0
VERTEX
5
8d2
100
AcDbEntity
8
1
100
AcDbVertex
100
AcDb2dVertex
62
5
10
-3.827272
20
-0.593437
0
VERTEX
5
8d3
100
AcDbEntity
8
1
100
AcDbVertex
100
AcDb2dVertex
62
5
10
-3.555926
20
-0.557052
0
VERTEX
5
8d4
100
AcDbEntity
8
1
100
AcDbVertex
100
AcDb2dVertex
62
5
10
-3.344878
20
-0.514051
0
VERTEX
5
8d5
100
AcDbEntity
8
1
100
AcDbVertex
100
AcDb2dVertex
62
5
10
-3.194130
20
-0.464435
0
VERTEX
5
8d6
100
AcDbEntity
8
1
100
AcDbVertex
100
AcDb2dVertex
62
5
10
-3.103681
20
-0.408203
0
VERTEX
5
8d7
100
AcDbEntity
8
1
100
AcDbVertex
100
AcDb2dVertex
62
5
10
-3.073532
20
-0.345355
0
VERTEX
5
8d8
100
AcDbEntity
8
1
100
AcDbVertex
100
AcDb2dVertex
62
5
10
-3.073532
20
-0.000000
0
SEQEND
5
8d9
100
AcDbEntity
8
1
0
LINE
5
8da
100
AcDbEntity
8
1
100
AcDbLine
6
CONTINUOUS
62
5
10
-3.373532
20
-0.976131
11
-3.373532
21
-2.576131
0
LINE
5
8db
100
AcDbEntity
8
1
100
AcDbLine
6
CONTINUOUS
62
5
10
-3.373532
20
-0.976131
11
-3.373532
21
-2.576131
0
LINE
5
8dc
100
AcDbEntity
8
1
100
AcDbLine
6
CONTINUOUS
62
5
10
-18.673532
20
-0.345355
11
-18.673532
21
-3.206907
0
LINE
5
8dd
100
AcDbEntity
8
1
100
AcDbLine
6
CONTINUOUS
62
5
10
-18.673532
20
-0.345355
11
-18.673532
21
-3.206907
0
LINE
5
8de
100
AcDbEntity
8
1
100
AcDbLine
6
CONTINUOUS
62
5
10
-18.373532
20
-0.976131
11
-18.373532
21
-2.576131
0
LINE
5
8df
100
AcDbEntity
8
1
100
AcDbLine
6
CONTINUOUS
62
5
10
-18.373532
20
-0.976131
11
-18.373532
21
-2.576131
0
POLYLINE
5
8e0
100
AcDbEntity
8
1
6
CONTINUOUS
62
5
100
AcDb2dPolyline
66
1
10
0.0
20
0.0
30
0.0
70
0
0
VERTEX
5
8e1
100
AcDbEntity
8
1
100
AcDbVertex
100
AcDb2dVertex
62
5
10
-15.658569
20
-2.576131
0
VERTEX
5
8e2
100
AcDbEntity
8
1
100
AcDbVertex
100
AcDb2dVertex
62
5
10
-16.177412
20
-2.582439
0
VERTEX
5
8e3
100
AcDbEntity
8
1
100
AcDbVertex
100
AcDb2dVertex
62
5
10
-16.647956
20
-2.601362
0
VERTEX
5
8e4
100
AcDbEntity
8
1
100
AcDbVertex
100
AcDb2dVertex
62
5
10
-17.070200
20
-2.632901
0
VERTEX
5
8e5
100
AcDbEntity
8
1
100
AcDbVertex
100
AcDb2dVertex
62
5
10
-17.444145
20
-2.677055
0
VERTEX
5
8e6
100
AcDbEntity
8
1
100
AcDbVertex
100
AcDb2dVertex
62
5
10
-17.769791
20
-2.733825
0
VERTEX
5
8e7
100
AcDbEntity
8
1
100
AcDbVertex
100
AcDb2dVertex
62
5
10
-18.047138
20
-2.803210
0
VERTEX
5
8e8
100
AcDbEntity
8
1
100
AcDbVertex
100
AcDb2dVertex
62
5
10
-18.276185
20
-2.885211
0
VERTEX
5
8e9
100
AcDbEntity
8
1
100
AcDbVertex
100
AcDb2dVertex
62
5
10
-18.456933
20
-2.979827
0
VERTEX
5
8ea
100
AcDbEntity
8
1
100
AcDbVertex
100
AcDb2dVertex
62
5
10
-18.589382
20
-3.087059
0
VERTEX
5
8eb
100
AcDbEntity
8
1
100
AcDbVertex
100
AcDb2dVertex
62
5
10
-18.643382
20
-3.144059
0
VERTEX
5
8ec
100
AcDbEntity
8
1
100
AcDbVertex
100
AcDb2dVertex
62
5
10
-18.673532
20
-3.206907
0
SEQEND
5
8ed
100
AcDbEntity
8
1
0
POLYLINE
5
8ee
100
AcDbEntity
8
1
6
CONTINUOUS
62
5
100
AcDb2dPolyline
66
1
10
0.0
20
0.0
30
0.0
70
0
0
VERTEX
5
8ef
100
AcDbEntity
8
1
100
AcDbVertex
100
AcDb2dVertex
62
5
10
-15.658569
20
-2.576131
0
VERTEX
5
8f0
100
AcDbEntity
8
1
100
AcDbVertex
100
AcDb2dVertex
62
5
10
-16.177412
20
-2.582439
0
VERTEX
5
8f1
100
AcDbEntity
8
1
100
AcDbVertex
100
AcDb2dVertex
62
5
10
-16.647956
20
-2.601362
0
VERTEX
5
8f2
100
AcDbEntity
8
1
100
AcDbVertex
100
AcDb2dVertex
62
5
10
-17.070200
20
-2.632901
0
VERTEX
5
8f3
100
AcDbEntity
8
1
100
AcDbVertex
100
AcDb2dVertex
62
5
10
-17.444145
20
-2.677055
0
VERTEX
5
8f4
100
AcDbEntity
8
1
100
AcDbVertex
100
AcDb2dVertex
62
5
10
-17.769791
20
-2.733825
0
VERTEX
5
8f5
100
AcDbEntity
8
1
100
AcDbVertex
100
AcDb2dVertex
62
5
10
-18.047138
20
-2.803210
0
VERTEX
5
8f6
100
AcDbEntity
8
1
100
AcDbVertex
100
AcDb2dVertex
62
5
10
-18.276185
20
-2.885211
0
VERTEX
5
8f7
100
AcDbEntity
8
1
100
AcDbVertex
100
AcDb2dVertex
62
5
10
-18.456933
20
-2.979827
0
VERTEX
5
8f8
100
AcDbEntity
8
1
100
AcDbVertex
100
AcDb2dVertex
62
5
10
-18.589382
20
-3.087059
0
VERTEX
5
8f9
100
AcDbEntity
8
1
100
AcDbVertex
100
AcDb2dVertex
62
5
10
-18.643382
20
-3.144059
0
VERTEX
5
8fa
100
AcDbEntity
8
1
100
AcDbVertex
100
AcDb2dVertex
62
5
10
-18.673532
20
-3.206907
0
SEQEND
5
8fb
100
AcDbEntity
8
1
0
POLYLINE
5
8fc
100
AcDbEntity
8
1
6
CONTINUOUS
62
5
100
AcDb2dPolyline
66
1
10
0.0
20
0.0
30
0.0
70
0
0
VERTEX
5
8fd
100
AcDbEntity
8
1
100
AcDbVertex
100
AcDb2dVertex
62
5
10
-15.658569
20
-0.676131
0
VERTEX
5
8fe
100
AcDbEntity
8
1
100
AcDbVertex
100
AcDb2dVertex
62
5
10
-16.231412
20
-0.672823
0
VERTEX
5
8ff
100
AcDbEntity
8
1
100
AcDbVertex
100
AcDb2dVertex
62
5
10
-16.743956
20
-0.662900
0
VERTEX
5
900
100
AcDbEntity
8
1
100
AcDbVertex
100
AcDb2dVertex
62
5
10
-17.196200
20
-0.646361
0
VERTEX
5
901
100
AcDbEntity
8
1
100
AcDbVertex
100
AcDb2dVertex
62
5
10
-17.588145
20
-0.623207
0
VERTEX
5
902
100
AcDbEntity
8
1
100
AcDbVertex
100
AcDb2dVertex
62
5
10
-17.919791
20
-0.593437
0
VERTEX
5
903
100
AcDbEntity
8
1
100
AcDbVertex
100
AcDb2dVertex
62
5
10
-18.191138
20
-0.557052
0
VERTEX
5
904
100
AcDbEntity
8
1
100
AcDbVertex
100
AcDb2dVertex
62
5
10
-18.402185
20
-0.514051
0
VERTEX
5
905
100
AcDbEntity
8
1
100
AcDbVertex
100
AcDb2dVertex
62
5
10
-18.552933
20
-0.464435
0
VERTEX
5
906
100
AcDbEntity
8
1
100
AcDbVertex
100
AcDb2dVertex
62
5
10
-18.643382
20
-0.408203
0
VERTEX
5
907
100
AcDbEntity
8
1
100
AcDbVertex
100
AcDb2dVertex
62
5
10
-18.673532
20
-0.345355
0
VERTEX
5
908
100
AcDbEntity
8
1
100
AcDbVertex
100
AcDb2dVertex
62
5
10
-18.673532
20
-0.000000
0
SEQEND
5
909
100
AcDbEntity
8
1
0
POLYLINE
5
90a
100
AcDbEntity
8
1
6
CONTINUOUS
62
5
100
AcDb2dPolyline
66
1
10
0.0
20
0.0
30
0.0
70
0
0
VERTEX
5
90b
100
AcDbEntity
8
1
100
AcDbVertex
100
AcDb2dVertex
62
5
10
-15.658569
20
-0.976131
0
VERTEX
5
90c
100
AcDbEntity
8
1
100
AcDbVertex
100
AcDb2dVertex
62
5
10
-16.177412
20
-0.969823
0
VERTEX
5
90d
100
AcDbEntity
8
1
100
AcDbVertex
100
AcDb2dVertex
62
5
10
-16.647956
20
-0.950900
0
VERTEX
5
90e
100
AcDbEntity
8
1
100
AcDbVertex
100
AcDb2dVertex
62
5
10
-17.070200
20
-0.919361
0
VERTEX
5
90f
100
AcDbEntity
8
1
100
AcDbVertex
100
AcDb2dVertex
62
5
10
-17.444145
20
-0.875207
0
VERTEX
5
910
100
AcDbEntity
8
1
100
AcDbVertex
100
AcDb2dVertex
62
5
10
-17.769791
20
-0.818437
0
VERTEX
5
911
100
AcDbEntity
8
1
100
AcDbVertex
100
AcDb2dVertex
62
5
10
-18.047138
20
-0.749052
0
VERTEX
5
912
100
AcDbEntity
8
1
100
AcDbVertex
100
AcDb2dVertex
62
5
10
-18.276185
20
-0.667051
0
VERTEX
5
913
100
AcDbEntity
8
1
100
AcDbVertex
100
AcDb2dVertex
62
5
10
-18.456933
20
-0.572435
0
VERTEX
5
914
100
AcDbEntity
8
1
100
AcDbVertex
100
AcDb2dVertex
62
5
10
-18.589382
20
-0.465203
0
VERTEX
5
915
100
AcDbEntity
8
1
100
AcDbVertex
100
AcDb2dVertex
62
5
10
-18.643382
20
-0.408203
0
VERTEX
5
916
100
AcDbEntity
8
1
100
AcDbVertex
100
AcDb2dVertex
62
5
10
-18.673532
20
-0.345355
0
SEQEND
5
917
100
AcDbEntity
8
1
0
POLYLINE
5
918
100
AcDbEntity
8
1
6
CONTINUOUS
62
5
100
AcDb2dPolyline
66
1
10
0.0
20
0.0
30
0.0
70
0
0
VERTEX
5
919
100
AcDbEntity
8
1
100
AcDbVertex
100
AcDb2dVertex
62
5
10
-15.658569
20
-0.676131
0
VERTEX
5
91a
100
AcDbEntity
8
1
100
AcDbVertex
100
AcDb2dVertex
62
5
10
-16.231412
20
-0.672823
0
VERTEX
5
91b
100
AcDbEntity
8
1
100
AcDbVertex
100
AcDb2dVertex
62
5
10
-16.743956
20
-0.662900
0
VERTEX
5
91c
100
AcDbEntity
8
1
100
AcDbVertex
100
AcDb2dVertex
62
5
10
-17.196200
20
-0.646361
0
VERTEX
5
91d
100
AcDbEntity
8
1
100
AcDbVertex
100
AcDb2dVertex
62
5
10
-17.588145
20
-0.623207
0
VERTEX
5
91e
100
AcDbEntity
8
1
100
AcDbVertex
100
AcDb2dVertex
62
5
10
-17.919791
20
-0.593437
0
VERTEX
5
91f
100
AcDbEntity
8
1
100
AcDbVertex
100
AcDb2dVertex
62
5
10
-18.191138
20
-0.557052
0
VERTEX
5
920
100
AcDbEntity
8
1
100
AcDbVertex
100
AcDb2dVertex
62
5
10
-18.402185
20
-0.514051
0
VERTEX
5
921
100
AcDbEntity
8
1
100
AcDbVertex
100
AcDb2dVertex
62
5
10
-18.552933
20
-0.464435
0
VERTEX
5
922
100
AcDbEntity
8
1
100
AcDbVertex
100
AcDb2dVertex
62
5
10
-18.643382
20
-0.408203
0
VERTEX
5
923
100
AcDbEntity
8
1
100
AcDbVertex
100
AcDb2dVertex
62
5
10
-18.673532
20
-0.345355
0
VERTEX
5
924
100
AcDbEntity
8
1
100
AcDbVertex
100
AcDb2dVertex
62
5
10
-18.673532
20
-0.000000
0
SEQEND
5
925
100
AcDbEntity
8
1
0
POLYLINE
5
926
100
AcDbEntity
8
1
6
CONTINUOUS
62
5
100
AcDb2dPolyline
66
1
10
0.0
20
0.0
30
0.0
70
0
0
VERTEX
5
927
100
AcDbEntity
8
1
100
AcDbVertex
100
AcDb2dVertex
62
5
10
-15.658569
20
-0.976131
0
VERTEX
5
928
100
AcDbEntity
8
1
100
AcDbVertex
100
AcDb2dVertex
62
5
10
-16.177412
20
-0.969823
0
VERTEX
5
929
100
AcDbEntity
8
1
100
AcDbVertex
100
AcDb2dVertex
62
5
10
-16.647956
20
-0.950900
0
VERTEX
5
92a
100
AcDbEntity
8
1
100
AcDbVertex
100
AcDb2dVertex
62
5
10
-17.070200
20
-0.919361
0
VERTEX
5
92b
100
AcDbEntity
8
1
100
AcDbVertex
100
AcDb2dVertex
62
5
10
-17.444145
20
-0.875207
0
VERTEX
5
92c
100
AcDbEntity
8
1
100
AcDbVertex
100
AcDb2dVertex
62
5
10
-17.769791
20
-0.818437
0
VERTEX
5
92d
100
AcDbEntity
8
1
100
AcDbVertex
100
AcDb2dVertex
62
5
10
-18.047138
20
-0.749052
0
VERTEX
5
92e
100
AcDbEntity
8
1
100
AcDbVertex
100
AcDb2dVertex
62
5
10
-18.276185
20
-0.667051
0
VERTEX
5
92f
100
AcDbEntity
8
1
100
AcDbVertex
100
AcDb2dVertex
62
5
10
-18.456933
20
-0.572435
0
VERTEX
5
930
100
AcDbEntity
8
1
100
AcDbVertex
100
AcDb2dVertex
62
5
10
-18.589382
20
-0.465203
0
VERTEX
5
931
100
AcDbEntity
8
1
100
AcDbVertex
100
AcDb2dVertex
62
5
10
-18.643382
20
-0.408203
0
VERTEX
5
932
100
AcDbEntity
8
1
100
AcDbVertex
100
AcDb2dVertex
62
5
10
-18.673532
20
-0.345355
0
SEQEND
5
933
100
AcDbEntity
8
1
0
POLYLINE
5
934
100
AcDbEntity
8
1
6
CONTINUOUS
62
5
100
AcDb2dPolyline
66
1
10
0.0
20
0.0
30
0.0
70
0
0
VERTEX
5
935
100
AcDbEntity
8
1
100
AcDbVertex
100
AcDb2dVertex
62
5
10
-18.673532
20
-3.557897
0
VERTEX
5
936
100
AcDbEntity
8
1
100
AcDbVertex
100
AcDb2dVertex
62
5
10
-18.673532
20
-3.206907
0
VERTEX
5
937
100
AcDbEntity
8
1
100
AcDbVertex
100
AcDb2dVertex
62
5
10
-18.643382
20
-3.144059
0
VERTEX
5
938
100
AcDbEntity
8
1
100
AcDbVertex
100
AcDb2dVertex
62
5
10
-18.552933
20
-3.087827
0
VERTEX
5
939
100
AcDbEntity
8
1
100
AcDbVertex
100
AcDb2dVertex
62
5
10
-18.402185
20
-3.038211
0
VERTEX
5
93a
100
AcDbEntity
8
1
100
AcDbVertex
100
AcDb2dVertex
62
5
10
-18.191138
20
-2.995210
0
VERTEX
5
93b
100
AcDbEntity
8
1
100
AcDbVertex
100
AcDb2dVertex
62
5
10
-17.919791
20
-2.958825
0
VERTEX
5
93c
100
AcDbEntity
8
1
100
AcDbVertex
100
AcDb2dVertex
62
5
10
-17.588145
20
-2.929055
0
VERTEX
5
93d
100
AcDbEntity
8
1
100
AcDbVertex
100
AcDb2dVertex
62
5
10
-17.196200
20
-2.905901
0
VERTEX
5
93e
100
AcDbEntity
8
1
100
AcDbVertex
100
AcDb2dVertex
62
5
10
-16.743956
20
-2.889362
0
VERTEX
5
93f
100
AcDbEntity
8
1
100
AcDbVertex
100
AcDb2dVertex
62
5
10
-16.673532
20
-2.882190
0
SEQEND
5
940
100
AcDbEntity
8
1
0
POLYLINE
5
941
100
AcDbEntity
8
1
6
CONTINUOUS
62
5
100
AcDb2dPolyline
66
1
10
0.0
20
0.0
30
0.0
70
0
0
VERTEX
5
942
100
AcDbEntity
8
1
100
AcDbVertex
100
AcDb2dVertex
62
5
10
-18.673532
20
-3.557897
0
VERTEX
5
943
100
AcDbEntity
8
1
100
AcDbVertex
100
AcDb2dVertex
62
5
10
-18.673532
20
-3.206907
0
VERTEX
5
944
100
AcDbEntity
8
1
100
AcDbVertex
100
AcDb2dVertex
62
5
10
-18.643382
20
-3.144059
0
VERTEX
5
945
100
AcDbEntity
8
1
100
AcDbVertex
100
AcDb2dVertex
62
5
10
-18.552933
20
-3.087827
0
VERTEX
5
946
100
AcDbEntity
8
1
100
AcDbVertex
100
AcDb2dVertex
62
5
10
-18.402185
20
-3.038211
0
VERTEX
5
947
100
AcDbEntity
8
1
100
AcDbVertex
100
AcDb2dVertex
62
5
10
-18.191138
20
-2.995210
0
VERTEX
5
948
100
AcDbEntity
8
1
100
AcDbVertex
100
AcDb2dVertex
62
5
10
-17.919791
20
-2.958825
0
VERTEX
5
949
100
AcDbEntity
8
1
100
AcDbVertex
100
AcDb2dVertex
62
5
10
-17.588145
20
-2.929055
0
VERTEX
5
94a
100
AcDbEntity
8
1
100
AcDbVertex
100
AcDb2dVertex
62
5
10
-17.196200
20
-2.905901
0
VERTEX
5
94b
100
AcDbEntity
8
1
100
AcDbVertex
100
AcDb2dVertex
62
5
10
-16.743956
20
-2.889362
0
VERTEX
5
94c
100
AcDbEntity
8
1
100
AcDbVertex
100
AcDb2dVertex
62
5
10
-16.673532
20
-2.882190
0
SEQEND
5
94d
100
AcDbEntity
8
1
0
POLYLINE
5
94e
100
AcDbEntity
8
1
6
CONTINUOUS
62
5
100
AcDb2dPolyline
66
1
10
0.0
20
0.0
30
0.0
70
0
0
VERTEX
5
94f
100
AcDbEntity
8
1
100
AcDbVertex
100
AcDb2dVertex
62
5
10
-5.073532
20
-3.557897
0
VERTEX
5
950
100
AcDbEntity
8
1
100
AcDbVertex
100
AcDb2dVertex
62
5
10
-5.073532
20
-2.825194
0
VERTEX
5
951
100
AcDbEntity
8
1
100
AcDbVertex
100
AcDb2dVertex
62
5
10
-5.088532
20
-2.790900
0
VERTEX
5
952
100
AcDbEntity
8
1
100
AcDbVertex
100
AcDb2dVertex
62
5
10
-5.133532
20
-2.760217
0
VERTEX
5
953
100
AcDbEntity
8
1
100
AcDbVertex
100
AcDb2dVertex
62
5
10
-5.208532
20
-2.733143
0
VERTEX
5
954
100
AcDbEntity
8
1
100
AcDbVertex
100
AcDb2dVertex
62
5
10
-5.313532
20
-2.709679
0
VERTEX
5
955
100
AcDbEntity
8
1
100
AcDbVertex
100
AcDb2dVertex
62
5
10
-5.448532
20
-2.689825
0
VERTEX
5
956
100
AcDbEntity
8
1
100
AcDbVertex
100
AcDb2dVertex
62
5
10
-5.613532
20
-2.673581
0
VERTEX
5
957
100
AcDbEntity
8
1
100
AcDbVertex
100
AcDb2dVertex
62
5
10
-5.808532
20
-2.660947
0
VERTEX
5
958
100
AcDbEntity
8
1
100
AcDbVertex
100
AcDb2dVertex
62
5
10
-6.033532
20
-2.651922
0
VERTEX
5
959
100
AcDbEntity
8
1
100
AcDbVertex
100
AcDb2dVertex
62
5
10
-6.288532
20
-2.646507
0
VERTEX
5
95a
100
AcDbEntity
8
1
100
AcDbVertex
100
AcDb2dVertex
62
5
10
-6.573532
20
-2.644702
0
VERTEX
5
95b
100
AcDbEntity
8
1
100
AcDbVertex
100
AcDb2dVertex
62
5
10
-15.173532
20
-2.644702
0
VERTEX
5
95c
100
AcDbEntity
8
1
100
AcDbVertex
100
AcDb2dVertex
62
5
10
-15.458532
20
-2.646507
0
VERTEX
5
95d
100
AcDbEntity
8
1
100
AcDbVertex
100
AcDb2dVertex
62
5
10
-15.713532
20
-2.651922
0
VERTEX
5
95e
100
AcDbEntity
8
1
100
AcDbVertex
100
AcDb2dVertex
62
5
10
-15.938532
20
-2.660947
0
VERTEX
5
95f
100
AcDbEntity
8
1
100
AcDbVertex
100
AcDb2dVertex
62
5
10
-16.133532
20
-2.673581
0
VERTEX
5
960
100
AcDbEntity
8
1
100
AcDbVertex
100
AcDb2dVertex
62
5
10
-16.298532
20
-2.689825
0
VERTEX
5
961
100
AcDbEntity
8
1
100
AcDbVertex
100
AcDb2dVertex
62
5
10
-16.433532
20
-2.709679
0
VERTEX
5
962
100
AcDbEntity
8
1
100
AcDbVertex
100
AcDb2dVertex
62
5
10
-16.526438
20
-2.730441
0
VERTEX
5
963
100
AcDbEntity
8
1
100
AcDbVertex
100
AcDb2dVertex
62
5
10
-16.613532
20
-2.760217
0
VERTEX
5
964
100
AcDbEntity
8
1
100
AcDbVertex
100
AcDb2dVertex
62
5
10
-16.658532
20
-2.790900
0
VERTEX
5
965
100
AcDbEntity
8
1
100
AcDbVertex
100
AcDb2dVertex
62
5
10
-16.673532
20
-2.825194
0
VERTEX
5
966
100
AcDbEntity
8
1
100
AcDbVertex
100
AcDb2dVertex
62
5
10
-16.673532
20
-3.557897
0
SEQEND
5
967
100
AcDbEntity
8
1
0
LINE
5
968
100
AcDbEntity
8
1
100
AcDbLine
6
CONTINUOUS
62
5
10
-15.658569
20
-2.576131
11
-6.088494
21
-2.576131
0
LINE
5
969
100
AcDbEntity
8
1
100
AcDbLine
6
CONTINUOUS
62
5
10
-15.658569
20
-2.576131
11
-6.088494
21
-2.576131
0
LINE
5
96a
100
AcDbEntity
8
1
100
AcDbLine
6
CONTINUOUS
62
5
10
-15.658569
20
-0.676131
11
-6.088494
21
-0.676131
0
LINE
5
96b
100
AcDbEntity
8
1
100
AcDbLine
6
CONTINUOUS
62
5
10
-6.088494
20
-0.976131
11
-15.658569
21
-0.976131
0
LINE
5
96c
100
AcDbEntity
8
1
100
AcDbLine
6
CONTINUOUS
62
5
10
-6.088494
20
-0.976131
11
-15.658569
21
-0.976131
0
LINE
5
96d
100
AcDbEntity
8
1
100
AcDbLine
6
CONTINUOUS
62
5
10
-15.658569
20
-0.676131
11
-6.088494
21
-0.676131
0
LINE
5
96e
100
AcDbEntity
8
1
100
AcDbLine
6
CONTINUOUS
62
5
10
-3.373532
20
-5.076146
11
-3.373532
21
-4.876131
0
LINE
5
96f
100
AcDbEntity
8
1
100
AcDbLine
6
CONTINUOUS
62
5
10
-5.373532
20
-4.876131
11
-5.373532
21
-5.076146
0
LINE
5
970
100
AcDbEntity
8
1
100
AcDbLine
6
CONTINUOUS
62
5
10
-3.373532
20
-5.076146
11
-3.373532
21
-4.876131
0
LINE
5
971
100
AcDbEntity
8
1
100
AcDbLine
6
CONTINUOUS
62
5
10
-5.373532
20
-4.876131
11
-5.373532
21
-5.076146
0
LINE
5
972
100
AcDbEntity
8
1
100
AcDbLine
6
CONTINUOUS
62
5
10
-16.373532
20
-5.076146
11
-16.373532
21
-4.876131
0
LINE
5
973
100
AcDbEntity
8
1
100
AcDbLine
6
CONTINUOUS
62
5
10
-18.373532
20
-4.876131
11
-18.373532
21
-5.076146
0
LINE
5
974
100
AcDbEntity
8
1
100
AcDbLine
6
CONTINUOUS
62
5
10
-32.773532
20
8.123869
11
-33.473532
21
8.123869
0
LINE
5
975
100
AcDbEntity
8
1
100
AcDbLine
6
CONTINUOUS
62
5
10
-32.763255
20
8.123869
11
-32.673532
21
8.123869
0
ARC
5
976
100
AcDbEntity
8
1
100
AcDbCircle
6
CONTINUOUS
62
5
10
-33.473532
20
1.923869
40
0.100000
100
AcDbArc
50
89.999999
51
-179.999998
0
LINE
5
977
100
AcDbEntity
8
1
100
AcDbLine
6
CONTINUOUS
62
5
10
-33.473532
20
2.023869
11
-33.373532
21
2.023869
0
POLYLINE
5
978
100
AcDbEntity
8
1
6
CONTINUOUS
62
5
100
AcDb2dPolyline
66
1
10
0.0
20
0.0
30
0.0
70
0
0
VERTEX
5
979
100
AcDbEntity
8
1
100
AcDbVertex
100
AcDb2dVertex
62
5
10
-32.673532
20
0.823869
0
VERTEX
5
97a
100
AcDbEntity
8
1
100
AcDbVertex
100
AcDb2dVertex
62
5
10
-33.373532
20
0.823869
0
VERTEX
5
97b
100
AcDbEntity
8
1
100
AcDbVertex
100
AcDb2dVertex
62
5
10
-33.373532
20
6.823869
0
VERTEX
5
97c
100
AcDbEntity
8
1
100
AcDbVertex
100
AcDb2dVertex
62
5
10
-32.673532
20
6.823869
0
SEQEND
5
97d
100
AcDbEntity
8
1
0
ARC
5
97e
100
AcDbEntity
8
1
100
AcDbCircle
6
CONTINUOUS
62
5
10
-33.473532
20
4.728973
40
0.100000
100
AcDbArc
50
92.999999
51
179.999998
0
LINE
5
97f
100
AcDbEntity
8
1
100
AcDbLine
6
CONTINUOUS
62
5
10
-33.573532
20
4.728973
11
-33.573532
21
4.723869
0
LINE
5
980
100
AcDbEntity
8
1
100
AcDbLine
6
CONTINUOUS
62
5
10
-33.573532
20
8.223869
11
-33.573532
21
8.218765
0
ARC
5
981
100
AcDbEntity
8
1
100
AcDbCircle
6
CONTINUOUS
62
5
10
-33.473532
20
8.218765
40
0.100000
100
AcDbArc
50
179.999998
51
-92.999999
0
LINE
5
982
100
AcDbEntity
8
1
100
AcDbLine
6
CONTINUOUS
62
5
10
-33.478765
20
8.118903
11
-33.097459
21
8.098919
0
ARC
5
983
100
AcDbEntity
8
1
100
AcDbCircle
6
CONTINUOUS
62
5
10
-33.102693
20
7.999056
40
0.100000
100
AcDbArc
50
2.190679
51
86.999999
0
ARC
5
984
100
AcDbEntity
8
1
100
AcDbCircle
6
CONTINUOUS
62
5
10
-72.973532
20
6.473869
40
40.000000
100
AcDbArc
50
0.501344
51
2.190679
0
LINE
5
985
100
AcDbEntity
8
1
100
AcDbLine
6
CONTINUOUS
62
5
10
-32.975063
20
6.823869
11
-32.975063
21
6.823869
0
POLYLINE
5
986
100
AcDbEntity
8
1
6
CONTINUOUS
62
5
100
AcDb2dPolyline
66
1
10
0.0
20
0.0
30
0.0
70
0
0
VERTEX
5
987
100
AcDbEntity
8
1
100
AcDbVertex
100
AcDb2dVertex
62
5
10
-33.373532
20
4.834351
0
VERTEX
5
988
100
AcDbEntity
8
1
100
AcDbVertex
100
AcDb2dVertex
62
5
10
-33.373532
20
4.834351
0
VERTEX
5
989
100
AcDbEntity
8
1
100
AcDbVertex
100
AcDb2dVertex
62
5
10
-33.478765
20
4.828836
0
SEQEND
5
98a
100
AcDbEntity
8
1
0
POLYLINE
5
98b
100
AcDbEntity
8
1
6
CONTINUOUS
62
5
100
AcDb2dPolyline
66
1
10
0.0
20
0.0
30
0.0
70
1
0
VERTEX
5
98c
100
AcDbEntity
8
1
100
AcDbVertex
100
AcDb2dVertex
62
5
10
-32.873532
20
-7.776146
0
VERTEX
5
98d
100
AcDbEntity
8
1
100
AcDbVertex
100
AcDb2dVertex
62
5
10
-32.639087
20
-7.776146
0
VERTEX
5
98e
100
AcDbEntity
8
1
100
AcDbVertex
100
AcDb2dVertex
62
5
10
-32.639087
20
-6.976146
0
VERTEX
5
98f
100
AcDbEntity
8
1
100
AcDbVertex
100
AcDb2dVertex
62
5
10
-32.873532
20
-6.976146
0
SEQEND
5
990
100
AcDbEntity
8
1
0
POLYLINE
5
991
100
AcDbEntity
8
1
6
CONTINUOUS
62
5
100
AcDb2dPolyline
66
1
10
0.0
20
0.0
30
0.0
70
0
0
VERTEX
5
992
100
AcDbEntity
8
1
100
AcDbVertex
100
AcDb2dVertex
62
5
10
-32.848532
20
-6.976146
0
VERTEX
5
993
100
AcDbEntity
8
1
100
AcDbVertex
100
AcDb2dVertex
62
5
10
-32.848532
20
-5.976146
0
VERTEX
5
994
100
AcDbEntity
8
1
100
AcDbVertex
100
AcDb2dVertex
62
5
10
-32.673532
20
-5.976146
0
SEQEND
5
995
100
AcDbEntity
8
1
0
LINE
5
996
100
AcDbEntity
8
1
100
AcDbLine
6
CONTINUOUS
62
5
10
-32.173532
20
-4.876131
11
-32.173532
21
-5.076146
0
ARC
5
997
100
AcDbEntity
8
1
100
AcDbCircle
6
CONTINUOUS
62
5
10
-26.373532
20
-5.026131
40
0.500000
100
AcDbArc
50
162.542399
51
179.999998
0
LINE
5
998
100
AcDbEntity
8
1
100
AcDbLine
6
CONTINUOUS
62
5
10
-26.873532
20
-5.076146
11
-26.873532
21
-5.026131
0
LINE
5
999
100
AcDbEntity
8
1
100
AcDbLine
6
CONTINUOUS
62
5
10
-32.848532
20
-10.476131
11
-33.473532
21
-10.476131
0
ARC
5
99a
100
AcDbEntity
8
1
100
AcDbCircle
6
CONTINUOUS
62
5
10
-72.973532
20
-8.826131
40
40.000000
100
AcDbArc
50
-2.190679
51
2.190679
0
ARC
5
99b
100
AcDbEntity
8
1
100
AcDbCircle
6
CONTINUOUS
62
5
10
-33.102693
20
-10.351318
40
0.100000
100
AcDbArc
50
-86.999999
51
-2.190679
0
LINE
5
99c
100
AcDbEntity
8
1
100
AcDbLine
6
CONTINUOUS
62
5
10
-33.097459
20
-10.451181
11
-33.478765
21
-10.471164
0
ARC
5
99d
100
AcDbEntity
8
1
100
AcDbCircle
6
CONTINUOUS
62
5
10
-33.473532
20
-10.571027
40
0.100000
100
AcDbArc
50
92.999999
51
179.999998
0
LINE
5
99e
100
AcDbEntity
8
1
100
AcDbLine
6
CONTINUOUS
62
5
10
-33.573532
20
-10.571027
11
-33.573532
21
-10.576131
0
LINE
5
99f
100
AcDbEntity
8
1
100
AcDbLine
6
CONTINUOUS
62
5
10
-33.573532
20
-7.076131
11
-33.573532
21
-7.081235
0
ARC
5
9a0
100
AcDbEntity
8
1
100
AcDbCircle
6
CONTINUOUS
62
5
10
-33.473532
20
-7.081235
40
0.100000
100
AcDbArc
50
179.999998
51
-92.999999
0
LINE
5
9a1
100
AcDbEntity
8
1
100
AcDbLine
6
CONTINUOUS
62
5
10
-33.478765
20
-7.181097
11
-33.097459
21
-7.201081
0
ARC
5
9a2
100
AcDbEntity
8
1
100
AcDbCircle
6
CONTINUOUS
62
5
10
-33.102693
20
-7.300944
40
0.100000
100
AcDbArc
50
2.190679
51
86.999999
0
LINE
5
9a3
100
AcDbEntity
8
1
100
AcDbLine
6
CONTINUOUS
62
5
10
-33.573532
20
4.728973
11
-33.573532
21
-7.081235
0
ARC
5
9a4
100
AcDbEntity
8
1
100
AcDbCircle
6
CONTINUOUS
62
5
10
-33.473532
20
-4.276131
40
0.100000
100
AcDbArc
50
179.999998
51
-89.999999
0
LINE
5
9a5
100
AcDbEntity
8
1
100
AcDbLine
6
CONTINUOUS
62
5
10
-33.473532
20
-4.376131
11
-32.673532
21
-4.376131
0
LINE
5
9a6
100
AcDbEntity
8
1
100
AcDbLine
6
CONTINUOUS
62
5
10
-32.073532
20
-4.876131
11
-32.073532
21
-5.076146
0
LINE
5
9a7
100
AcDbEntity
8
1
100
AcDbLine
6
CONTINUOUS
62
5
10
-33.573532
20
12.423869
11
-33.573532
21
8.218765
0
LINE
5
9a8
100
AcDbEntity
8
1
100
AcDbLine
6
CONTINUOUS
62
5
10
-32.773532
20
13.823869
11
-32.773532
21
6.823869
0
POLYLINE
5
9a9
100
AcDbEntity
8
1
6
CONTINUOUS
62
5
100
AcDb2dPolyline
66
1
10
0.0
20
0.0
30
0.0
70
0
0
VERTEX
5
9aa
100
AcDbEntity
8
1
100
AcDbVertex
100
AcDb2dVertex
62
5
10
7.576468
20
-4.876131
0
VERTEX
5
9ab
100
AcDbEntity
8
1
100
AcDbVertex
100
AcDb2dVertex
62
5
10
7.176156
20
-4.776131
0
VERTEX
5
9ac
100
AcDbEntity
8
1
100
AcDbVertex
100
AcDb2dVertex
62
5
10
-28.923220
20
-4.776131
0
VERTEX
5
9ad
100
AcDbEntity
8
1
100
AcDbVertex
100
AcDb2dVertex
62
5
10
-29.323532
20
-4.876131
0
SEQEND
5
9ae
100
AcDbEntity
8
1
0
LINE
5
9af
100
AcDbEntity
8
1
100
AcDbLine
6
CONTINUOUS
62
5
10
11.101468
20
-16.376131
11
12.226468
21
-16.376131
0
LINE
5
9b0
100
AcDbEntity
8
1
100
AcDbLine
6
CONTINUOUS
62
5
10
11.101468
20
-14.376131
11
12.226468
21
-14.376131
0
ARC
5
9b1
100
AcDbEntity
8
1
100
AcDbCircle
6
CONTINUOUS
62
5
10
12.226468
20
-16.276131
40
0.100000
100
AcDbArc
50
-89.999999
51
0.000000
0
ARC
5
9b2
100
AcDbEntity
8
1
100
AcDbCircle
6
CONTINUOUS
62
5
10
12.226468
20
-14.476131
40
0.100000
100
AcDbArc
50
0.000000
51
89.999999
0
ARC
5
9b3
100
AcDbEntity
8
1
100
AcDbCircle
6
CONTINUOUS
62
5
10
12.226468
20
-21.076131
40
0.100000
100
AcDbArc
50
0.000000
51
89.999999
0
LINE
5
9b4
100
AcDbEntity
8
1
100
AcDbLine
6
CONTINUOUS
62
5
10
11.101468
20
-20.976131
11
12.226468
21
-20.976131
0
ARC
5
9b5
100
AcDbEntity
8
1
100
AcDbCircle
6
CONTINUOUS
62
5
10
11.026468
20
-20.676131
40
0.200000
100
AcDbArc
50
-67.975694
51
-0.000000
0
POLYLINE
5
9b6
100
AcDbEntity
8
1
6
CONTINUOUS
62
5
100
AcDb2dPolyline
66
1
10
0.0
20
0.0
30
0.0
70
0
0
VERTEX
5
9b7
100
AcDbEntity
8
1
100
AcDbVertex
100
AcDb2dVertex
62
5
10
11.226468
20
-20.676131
0
VERTEX
5
9b8
100
AcDbEntity
8
1
100
AcDbVertex
100
AcDb2dVertex
62
5
10
11.226468
20
-16.676131
0
VERTEX
5
9b9
100
AcDbEntity
8
1
100
AcDbVertex
100
AcDb2dVertex
62
5
10
11.101468
20
-16.676131
0
SEQEND
5
9ba
100
AcDbEntity
8
1
0
ARC
5
9bb
100
AcDbEntity
8
1
100
AcDbCircle
6
CONTINUOUS
62
5
10
9.626568
20
-30.696085
40
2.000000
100
AcDbArc
50
0.571637
51
49.462150
0
POLYLINE
5
9bc
100
AcDbEntity
8
1
6
CONTINUOUS
62
5
100
AcDb2dPolyline
66
1
10
0.0
20
0.0
30
0.0
70
0
0
VERTEX
5
9bd
100
AcDbEntity
8
1
100
AcDbVertex
100
AcDb2dVertex
62
5
10
10.926468
20
-23.126146
0
VERTEX
5
9be
100
AcDbEntity
8
1
100
AcDbVertex
100
AcDb2dVertex
62
5
10
11.626468
20
-23.126146
0
VERTEX
5
9bf
100
AcDbEntity
8
1
100
AcDbVertex
100
AcDb2dVertex
62
5
10
11.626468
20
-28.926146
0
VERTEX
5
9c0
100
AcDbEntity
8
1
100
AcDbVertex
100
AcDb2dVertex
62
5
10
10.926468
20
-28.926146
0
SEQEND
5
9c1
100
AcDbEntity
8
1
0
LINE
5
9c2
100
AcDbEntity
8
1
100
AcDbLine
6
CONTINUOUS
62
5
10
10.926468
20
-27.476131
11
10.926468
21
-29.176131
0
ARC
5
9c3
100
AcDbEntity
8
1
100
AcDbCircle
6
CONTINUOUS
62
5
10
12.226468
20
-27.576131
40
0.100000
100
AcDbArc
50
-0.000000
51
89.999999
0
ARC
5
9c4
100
AcDbEntity
8
1
100
AcDbCircle
6
CONTINUOUS
62
5
10
12.226468
20
-24.576131
40
0.100000
100
AcDbArc
50
-89.999999
51
0.000000
0
LINE
5
9c5
100
AcDbEntity
8
1
100
AcDbLine
6
CONTINUOUS
62
5
10
12.226468
20
-24.676131
11
11.626468
21
-24.676131
0
LINE
5
9c6
100
AcDbEntity
8
1
100
AcDbLine
6
CONTINUOUS
62
5
10
11.626468
20
-27.476131
11
12.226468
21
-27.476131
0
LINE
5
9c7
100
AcDbEntity
8
1
100
AcDbLine
6
CONTINUOUS
62
5
10
8.726468
20
-35.676131
11
8.726468
21
-35.576146
0
POLYLINE
5
9c8
100
AcDbEntity
8
1
6
CONTINUOUS
62
5
100
AcDb2dPolyline
66
1
10
0.0
20
0.0
30
0.0
70
1
0
VERTEX
5
9c9
100
AcDbEntity
8
1
100
AcDbVertex
100
AcDb2dVertex
62
5
10
8.426468
20
-35.541701
0
VERTEX
5
9ca
100
AcDbEntity
8
1
100
AcDbVertex
100
AcDb2dVertex
62
5
10
8.426468
20
-35.776146
0
VERTEX
5
9cb
100
AcDbEntity
8
1
100
AcDbVertex
100
AcDb2dVertex
62
5
10
7.626468
20
-35.776146
0
VERTEX
5
9cc
100
AcDbEntity
8
1
100
AcDbVertex
100
AcDb2dVertex
62
5
10
7.626468
20
-35.541701
0
SEQEND
5
9cd
100
AcDbEntity
8
1
0
LINE
5
9ce
100
AcDbEntity
8
1
100
AcDbLine
6
CONTINUOUS
62
5
10
6.526468
20
-36.926117
11
-0.873532
21
-36.926117
0
LINE
5
9cf
100
AcDbEntity
8
1
100
AcDbLine
6
CONTINUOUS
62
5
10
9.676468
20
-42.903101
11
9.676468
21
-45.676131
0
LINE
5
9d0
100
AcDbEntity
8
1
100
AcDbLine
6
CONTINUOUS
62
5
10
10.176468
20
-42.926131
11
10.176468
21
-45.676131
0
LINE
5
9d1
100
AcDbEntity
8
1
100
AcDbLine
6
CONTINUOUS
62
5
10
9.926468
20
-42.926131
11
9.926468
21
-45.676131
0
POLYLINE
5
9d2
100
AcDbEntity
8
1
6
CONTINUOUS
62
5
100
AcDb2dPolyline
66
1
10
0.0
20
0.0
30
0.0
70
0
0
VERTEX
5
9d3
100
AcDbEntity
8
1
100
AcDbVertex
100
AcDb2dVertex
62
5
10
10.926468
20
-30.576146
0
VERTEX
5
9d4
100
AcDbEntity
8
1
100
AcDbVertex
100
AcDb2dVertex
62
5
10
11.101468
20
-30.576146
0
VERTEX
5
9d5
100
AcDbEntity
8
1
100
AcDbVertex
100
AcDb2dVertex
62
5
10
11.101468
20
-34.576146
0
VERTEX
5
9d6
100
AcDbEntity
8
1
100
AcDbVertex
100
AcDb2dVertex
62
5
10
10.926468
20
-34.576146
0
SEQEND
5
9d7
100
AcDbEntity
8
1
0
LINE
5
9d8
100
AcDbEntity
8
1
100
AcDbLine
6
CONTINUOUS
62
5
10
10.926468
20
-29.405626
11
10.926468
21
-34.946205
0
LINE
5
9d9
100
AcDbEntity
8
1
100
AcDbLine
6
CONTINUOUS
62
5
10
-32.848532
20
-14.876131
11
-33.473532
21
-14.876131
0
ARC
5
9da
100
AcDbEntity
8
1
100
AcDbCircle
6
CONTINUOUS
62
5
10
-33.473532
20
-21.076131
40
0.100000
100
AcDbArc
50
89.999999
51
179.999998
0
LINE
5
9db
100
AcDbEntity
8
1
100
AcDbLine
6
CONTINUOUS
62
5
10
-33.473532
20
-20.976131
11
-32.848532
21
-20.976131
0
ARC
5
9dc
100
AcDbEntity
8
1
100
AcDbCircle
6
CONTINUOUS
62
5
10
-72.973532
20
-16.526131
40
40.000000
100
AcDbArc
50
-2.190679
51
2.190679
0
ARC
5
9dd
100
AcDbEntity
8
1
100
AcDbCircle
6
CONTINUOUS
62
5
10
-33.102693
20
-18.051318
40
0.100000
100
AcDbArc
50
-86.999999
51
-2.190679
0
LINE
5
9de
100
AcDbEntity
8
1
100
AcDbLine
6
CONTINUOUS
62
5
10
-33.097459
20
-18.151181
11
-33.478765
21
-18.171164
0
ARC
5
9df
100
AcDbEntity
8
1
100
AcDbCircle
6
CONTINUOUS
62
5
10
-33.473532
20
-18.271027
40
0.100000
100
AcDbArc
50
92.999999
51
179.999998
0
LINE
5
9e0
100
AcDbEntity
8
1
100
AcDbLine
6
CONTINUOUS
62
5
10
-33.573532
20
-18.271027
11
-33.573532
21
-18.276131
0
LINE
5
9e1
100
AcDbEntity
8
1
100
AcDbLine
6
CONTINUOUS
62
5
10
-33.573532
20
-14.776131
11
-33.573532
21
-14.781235
0
ARC
5
9e2
100
AcDbEntity
8
1
100
AcDbCircle
6
CONTINUOUS
62
5
10
-33.473532
20
-14.781235
40
0.100000
100
AcDbArc
50
179.999998
51
-92.999999
0
LINE
5
9e3
100
AcDbEntity
8
1
100
AcDbLine
6
CONTINUOUS
62
5
10
-33.478765
20
-14.881097
11
-33.097459
21
-14.901081
0
ARC
5
9e4
100
AcDbEntity
8
1
100
AcDbCircle
6
CONTINUOUS
62
5
10
-33.102693
20
-15.000944
40
0.100000
100
AcDbArc
50
2.190679
51
86.999999
0
ARC
5
9e5
100
AcDbEntity
8
1
100
AcDbCircle
6
CONTINUOUS
62
5
10
-30.873631
20
-30.696085
40
2.000000
100
AcDbArc
50
154.151526
51
179.428362
0
POLYLINE
5
9e6
100
AcDbEntity
8
1
6
CONTINUOUS
62
5
100
AcDb2dPolyline
66
1
10
0.0
20
0.0
30
0.0
70
0
0
VERTEX
5
9e7
100
AcDbEntity
8
1
100
AcDbVertex
100
AcDb2dVertex
62
5
10
-32.673532
20
-23.126146
0
VERTEX
5
9e8
100
AcDbEntity
8
1
100
AcDbVertex
100
AcDb2dVertex
62
5
10
-33.373532
20
-23.126146
0
VERTEX
5
9e9
100
AcDbEntity
8
1
100
AcDbVertex
100
AcDb2dVertex
62
5
10
-33.373532
20
-28.926146
0
VERTEX
5
9ea
100
AcDbEntity
8
1
100
AcDbVertex
100
AcDb2dVertex
62
5
10
-32.673532
20
-28.926146
0
SEQEND
5
9eb
100
AcDbEntity
8
1
0
ARC
5
9ec
100
AcDbEntity
8
1
100
AcDbCircle
6
CONTINUOUS
62
5
10
-33.473532
20
-27.576131
40
0.100000
100
AcDbArc
50
89.999999
51
-179.999998
0
ARC
5
9ed
100
AcDbEntity
8
1
100
AcDbCircle
6
CONTINUOUS
62
5
10
-33.473532
20
-24.576131
40
0.100000
100
AcDbArc
50
-179.999998
51
-89.999999
0
LINE
5
9ee
100
AcDbEntity
8
1
100
AcDbLine
6
CONTINUOUS
62
5
10
-33.473532
20
-24.676131
11
-33.373532
21
-24.676131
0
LINE
5
9ef
100
AcDbEntity
8
1
100
AcDbLine
6
CONTINUOUS
62
5
10
-33.373532
20
-27.476131
11
-33.473532
21
-27.476131
0
LINE
5
9f0
100
AcDbEntity
8
1
100
AcDbLine
6
CONTINUOUS
62
5
10
-4.873532
20
-44.176131
11
-3.373532
21
-45.676131
0
LINE
5
9f1
100
AcDbEntity
8
1
100
AcDbLine
6
CONTINUOUS
62
5
10
-18.373532
20
-45.676131
11
-16.873532
21
-44.176131
0
CIRCLE
5
9f2
100
AcDbEntity
8
1
100
AcDbCircle
6
CONTINUOUS
62
5
10
-10.873532
20
-40.176116
40
2.249999
0
CIRCLE
5
9f3
100
AcDbEntity
8
1
100
AcDbCircle
6
CONTINUOUS
62
5
10
-10.873532
20
-40.176116
40
1.549999
0
LINE
5
9f4
100
AcDbEntity
8
1
100
AcDbLine
6
CONTINUOUS
62
5
10
-14.873532
20
-43.426115
11
-14.873532
21
-36.926117
0
LINE
5
9f5
100
AcDbEntity
8
1
100
AcDbLine
6
CONTINUOUS
62
5
10
-6.873532
20
-36.926117
11
-6.873532
21
-43.426115
0
POLYLINE
5
9f6
100
AcDbEntity
8
1
6
CONTINUOUS
62
5
100
AcDb2dPolyline
66
1
10
0.0
20
0.0
30
0.0
70
0
0
VERTEX
5
9f7
100
AcDbEntity
8
1
100
AcDbVertex
100
AcDb2dVertex
62
5
10
-4.873532
20
-43.926115
0
VERTEX
5
9f8
100
AcDbEntity
8
1
100
AcDbVertex
100
AcDb2dVertex
62
5
10
-4.873532
20
-36.926117
0
VERTEX
5
9f9
100
AcDbEntity
8
1
100
AcDbVertex
100
AcDb2dVertex
62
5
10
-16.873532
20
-36.926117
0
VERTEX
5
9fa
100
AcDbEntity
8
1
100
AcDbVertex
100
AcDb2dVertex
62
5
10
-16.873532
20
-43.926115
0
SEQEND
5
9fb
100
AcDbEntity
8
1
0
ARC
5
9fc
100
AcDbEntity
8
1
100
AcDbCircle
6
CONTINUOUS
62
5
10
-21.373532
20
-36.436219
40
0.700000
100
AcDbArc
50
-44.415308
51
0.000000
0
LINE
5
9fd
100
AcDbEntity
8
1
100
AcDbLine
6
CONTINUOUS
62
5
10
-20.873532
20
-36.926117
11
-20.873532
21
-42.426115
0
ARC
5
9fe
100
AcDbEntity
8
1
100
AcDbCircle
6
CONTINUOUS
62
5
10
-19.873532
20
-42.426115
40
1.000000
100
AcDbArc
50
-179.999998
51
0.000000
0
LINE
5
9ff
100
AcDbEntity
8
1
100
AcDbLine
6
CONTINUOUS
62
5
10
-18.873532
20
-42.426115
11
-18.873532
21
-35.576146
0
LINE
5
a00
100
AcDbEntity
8
1
100
AcDbLine
6
CONTINUOUS
62
5
10
-20.673532
20
-35.576146
11
-20.673532
21
-36.436219
0
POLYLINE
5
a01
100
AcDbEntity
8
1
6
CONTINUOUS
62
5
100
AcDb2dPolyline
66
1
10
0.0
20
0.0
30
0.0
70
1
0
VERTEX
5
a02
100
AcDbEntity
8
1
100
AcDbVertex
100
AcDb2dVertex
62
5
10
-30.173532
20
-35.541701
0
VERTEX
5
a03
100
AcDbEntity
8
1
100
AcDbVertex
100
AcDb2dVertex
62
5
10
-30.173532
20
-35.776146
0
VERTEX
5
a04
100
AcDbEntity
8
1
100
AcDbVertex
100
AcDb2dVertex
62
5
10
-29.373532
20
-35.776146
0
VERTEX
5
a05
100
AcDbEntity
8
1
100
AcDbVertex
100
AcDb2dVertex
62
5
10
-29.373532
20
-35.541701
0
SEQEND
5
a06
100
AcDbEntity
8
1
0
LINE
5
a07
100
AcDbEntity
8
1
100
AcDbLine
6
CONTINUOUS
62
5
10
-30.273532
20
-35.576146
11
-30.273532
21
-35.676131
0
LINE
5
a08
100
AcDbEntity
8
1
100
AcDbLine
6
CONTINUOUS
62
5
10
-28.273532
20
-36.926117
11
-20.873532
21
-36.926117
0
POLYLINE
5
a09
100
AcDbEntity
8
1
6
CONTINUOUS
62
5
100
AcDb2dPolyline
66
1
10
0.0
20
0.0
30
0.0
70
0
0
VERTEX
5
a0a
100
AcDbEntity
8
1
100
AcDbVertex
100
AcDb2dVertex
62
5
10
-32.673532
20
-34.576146
0
VERTEX
5
a0b
100
AcDbEntity
8
1
100
AcDbVertex
100
AcDb2dVertex
62
5
10
-32.848532
20
-34.576146
0
VERTEX
5
a0c
100
AcDbEntity
8
1
100
AcDbVertex
100
AcDb2dVertex
62
5
10
-32.848532
20
-30.576146
0
VERTEX
5
a0d
100
AcDbEntity
8
1
100
AcDbVertex
100
AcDb2dVertex
62
5
10
-32.673532
20
-30.576146
0
SEQEND
5
a0e
100
AcDbEntity
8
1
0
ARC
5
a0f
100
AcDbEntity
8
1
100
AcDbCircle
6
CONTINUOUS
62
5
10
-0.373532
20
-36.436219
40
0.700000
100
AcDbArc
50
179.999998
51
-135.584690
0
LINE
5
a10
100
AcDbEntity
8
1
100
AcDbLine
6
CONTINUOUS
62
5
10
-0.873532
20
-36.926117
11
-0.873532
21
-42.426115
0
ARC
5
a11
100
AcDbEntity
8
1
100
AcDbCircle
6
CONTINUOUS
62
5
10
-1.873532
20
-42.426115
40
1.000000
100
AcDbArc
50
179.999998
51
-0.000000
0
LINE
5
a12
100
AcDbEntity
8
1
100
AcDbLine
6
CONTINUOUS
62
5
10
-2.873532
20
-42.426115
11
-2.873532
21
-35.576146
0
LINE
5
a13
100
AcDbEntity
8
1
100
AcDbLine
6
CONTINUOUS
62
5
10
-1.073532
20
-35.576146
11
-1.073532
21
-36.436219
0
LINE
5
a14
100
AcDbEntity
8
1
100
AcDbLine
6
CONTINUOUS
62
5
10
11.101468
20
-12.676131
11
11.926468
21
-12.676131
0
ARC
5
a15
100
AcDbEntity
8
1
100
AcDbCircle
6
CONTINUOUS
62
5
10
10.676468
20
-12.676131
40
1.250000
100
AcDbArc
50
-50.470914
51
50.470914
0
POLYLINE
5
a16
100
AcDbEntity
8
1
6
CONTINUOUS
62
5
100
AcDb2dPolyline
66
1
10
0.0
20
0.0
30
0.0
70
0
0
VERTEX
5
a17
100
AcDbEntity
8
1
100
AcDbVertex
100
AcDb2dVertex
62
5
10
11.472055
20
-13.640258
0
VERTEX
5
a18
100
AcDbEntity
8
1
100
AcDbVertex
100
AcDb2dVertex
62
5
10
11.108233
20
-13.940480
0
VERTEX
5
a19
100
AcDbEntity
8
1
100
AcDbVertex
100
AcDb2dVertex
62
5
10
11.104680
20
-13.943440
0
VERTEX
5
a1a
100
AcDbEntity
8
1
100
AcDbVertex
100
AcDb2dVertex
62
5
10
11.101468
20
-13.946164
0
SEQEND
5
a1b
100
AcDbEntity
8
1
0
POLYLINE
5
a1c
100
AcDbEntity
8
1
6
CONTINUOUS
62
5
100
AcDb2dPolyline
66
1
10
0.0
20
0.0
30
0.0
70
0
0
VERTEX
5
a1d
100
AcDbEntity
8
1
100
AcDbVertex
100
AcDb2dVertex
62
5
10
11.101468
20
-11.406098
0
VERTEX
5
a1e
100
AcDbEntity
8
1
100
AcDbVertex
100
AcDb2dVertex
62
5
10
11.105399
20
-11.409425
0
VERTEX
5
a1f
100
AcDbEntity
8
1
100
AcDbVertex
100
AcDb2dVertex
62
5
10
11.108233
20
-11.411782
0
VERTEX
5
a20
100
AcDbEntity
8
1
100
AcDbVertex
100
AcDb2dVertex
62
5
10
11.472055
20
-11.712004
0
SEQEND
5
a21
100
AcDbEntity
8
1
0
POLYLINE
5
a22
100
AcDbEntity
8
1
6
CONTINUOUS
62
5
100
AcDb2dPolyline
66
1
10
0.0
20
0.0
30
0.0
70
0
0
VERTEX
5
a23
100
AcDbEntity
8
1
100
AcDbVertex
100
AcDb2dVertex
62
5
10
11.101468
20
-7.776146
0
VERTEX
5
a24
100
AcDbEntity
8
1
100
AcDbVertex
100
AcDb2dVertex
62
5
10
11.101468
20
-21.276146
0
VERTEX
5
a25
100
AcDbEntity
8
1
100
AcDbVertex
100
AcDb2dVertex
62
5
10
10.926468
20
-21.276146
0
SEQEND
5
a26
100
AcDbEntity
8
1
0
ARC
5
a27
100
AcDbEntity
8
1
100
AcDbCircle
6
CONTINUOUS
62
5
10
-31.923532
20
-12.676131
40
1.000000
100
AcDbArc
50
161.384857
51
-161.384857
0
LINE
5
a28
100
AcDbEntity
8
1
100
AcDbLine
6
CONTINUOUS
62
5
10
-33.573532
20
-10.571027
11
-33.573532
21
-14.781235
0
ARC
5
a29
100
AcDbEntity
8
1
100
AcDbCircle
6
CONTINUOUS
62
5
10
-31.923532
20
-12.676131
40
1.250000
100
AcDbArc
50
138.370695
51
-138.370695
0
POLYLINE
5
a2a
100
AcDbEntity
8
1
6
CONTINUOUS
62
5
100
AcDb2dPolyline
66
1
10
0.0
20
0.0
30
0.0
70
0
0
VERTEX
5
a2b
100
AcDbEntity
8
1
100
AcDbVertex
100
AcDb2dVertex
62
5
10
-32.673532
20
-21.276146
0
VERTEX
5
a2c
100
AcDbEntity
8
1
100
AcDbVertex
100
AcDb2dVertex
62
5
10
-32.848532
20
-21.276146
0
VERTEX
5
a2d
100
AcDbEntity
8
1
100
AcDbVertex
100
AcDb2dVertex
62
5
10
-32.848532
20
-7.776146
0
SEQEND
5
a2e
100
AcDbEntity
8
1
0
ARC
5
a2f
100
AcDbEntity
8
1
100
AcDbCircle
6
CONTINUOUS
62
5
10
10.326468
20
-34.976146
40
0.500000
100
AcDbArc
50
-89.999999
51
0.000000
0
POLYLINE
5
a30
100
AcDbEntity
8
1
6
CONTINUOUS
62
5
100
AcDb2dPolyline
66
1
10
0.0
20
0.0
30
0.0
70
0
0
VERTEX
5
a31
100
AcDbEntity
8
1
100
AcDbVertex
100
AcDb2dVertex
62
5
10
10.826468
20
-34.976146
0
VERTEX
5
a32
100
AcDbEntity
8
1
100
AcDbVertex
100
AcDb2dVertex
62
5
10
10.826468
20
-34.976146
0
VERTEX
5
a33
100
AcDbEntity
8
1
100
AcDbVertex
100
AcDb2dVertex
62
5
10
10.826468
20
-5.676146
0
SEQEND
5
a34
100
AcDbEntity
8
1
0
ARC
5
a35
100
AcDbEntity
8
1
100
AcDbCircle
6
CONTINUOUS
62
5
10
10.326468
20
-5.676146
40
0.500000
100
AcDbArc
50
0.000000
51
89.999999
0
LINE
5
a36
100
AcDbEntity
8
1
100
AcDbLine
6
CONTINUOUS
62
5
10
10.326468
20
-5.176146
11
-32.073532
21
-5.176146
0
ARC
5
a37
100
AcDbEntity
8
1
100
AcDbCircle
6
CONTINUOUS
62
5
10
-32.073532
20
-5.676146
40
0.500000
100
AcDbArc
50
89.999999
51
-179.999998
0
POLYLINE
5
a38
100
AcDbEntity
8
1
6
CONTINUOUS
62
5
100
AcDb2dPolyline
66
1
10
0.0
20
0.0
30
0.0
70
0
0
VERTEX
5
a39
100
AcDbEntity
8
1
100
AcDbVertex
100
AcDb2dVertex
62
5
10
-32.573532
20
-5.676146
0
VERTEX
5
a3a
100
AcDbEntity
8
1
100
AcDbVertex
100
AcDb2dVertex
62
5
10
-32.573532
20
-5.676146
0
VERTEX
5
a3b
100
AcDbEntity
8
1
100
AcDbVertex
100
AcDb2dVertex
62
5
10
-32.573532
20
-34.976146
0
SEQEND
5
a3c
100
AcDbEntity
8
1
0
ARC
5
a3d
100
AcDbEntity
8
1
100
AcDbCircle
6
CONTINUOUS
62
5
10
-32.073532
20
-34.976146
40
0.500000
100
AcDbArc
50
-179.999998
51
-89.999999
0
LINE
5
a3e
100
AcDbEntity
8
1
100
AcDbLine
6
CONTINUOUS
62
5
10
-32.073532
20
-35.476146
11
-32.073532
21
-35.476146
0
LINE
5
a3f
100
AcDbEntity
8
1
100
AcDbLine
6
CONTINUOUS
62
5
10
-32.073532
20
-35.476146
11
10.326468
21
-35.476146
0
ARC
5
a40
100
AcDbEntity
8
1
100
AcDbCircle
6
CONTINUOUS
62
5
10
-32.173532
20
-35.076146
40
0.500000
100
AcDbArc
50
179.999998
51
-89.999999
0
LINE
5
a41
100
AcDbEntity
8
1
100
AcDbLine
6
CONTINUOUS
62
5
10
-32.673532
20
-35.076146
11
-32.673532
21
-7.776146
0
LINE
5
a42
100
AcDbEntity
8
1
100
AcDbLine
6
CONTINUOUS
62
5
10
-32.673532
20
-6.976146
11
-32.673532
21
-5.576146
0
ARC
5
a43
100
AcDbEntity
8
1
100
AcDbCircle
6
CONTINUOUS
62
5
10
-32.173532
20
-5.576146
40
0.500000
100
AcDbArc
50
89.999999
51
179.999998
0
LINE
5
a44
100
AcDbEntity
8
1
100
AcDbLine
6
CONTINUOUS
62
5
10
-32.173532
20
-5.076146
11
10.426468
21
-5.076146
0
ARC
5
a45
100
AcDbEntity
8
1
100
AcDbCircle
6
CONTINUOUS
62
5
10
10.426468
20
-5.576146
40
0.500000
100
AcDbArc
50
0.000000
51
89.999999
0
LINE
5
a46
100
AcDbEntity
8
1
100
AcDbLine
6
CONTINUOUS
62
5
10
10.926468
20
-5.576146
11
10.926468
21
-6.976146
0
LINE
5
a47
100
AcDbEntity
8
1
100
AcDbLine
6
CONTINUOUS
62
5
10
10.926468
20
-7.776146
11
10.926468
21
-35.076146
0
ARC
5
a48
100
AcDbEntity
8
1
100
AcDbCircle
6
CONTINUOUS
62
5
10
10.426468
20
-35.076146
40
0.500000
100
AcDbArc
50
-89.999999
51
0.000000
0
LINE
5
a49
100
AcDbEntity
8
1
100
AcDbLine
6
CONTINUOUS
62
5
10
10.426468
20
-35.576146
11
8.426468
21
-35.576146
0
POLYLINE
5
a4a
100
AcDbEntity
8
1
6
CONTINUOUS
62
5
100
AcDb2dPolyline
66
1
10
0.0
20
0.0
30
0.0
70
0
0
VERTEX
5
a4b
100
AcDbEntity
8
1
100
AcDbVertex
100
AcDb2dVertex
62
5
10
7.626468
20
-35.576146
0
VERTEX
5
a4c
100
AcDbEntity
8
1
100
AcDbVertex
100
AcDb2dVertex
62
5
10
-7.373532
20
-35.576146
0
VERTEX
5
a4d
100
AcDbEntity
8
1
100
AcDbVertex
100
AcDb2dVertex
62
5
10
-7.373532
20
-35.509479
0
VERTEX
5
a4e
100
AcDbEntity
8
1
100
AcDbVertex
100
AcDb2dVertex
62
5
10
-14.373532
20
-35.509479
0
VERTEX
5
a4f
100
AcDbEntity
8
1
100
AcDbVertex
100
AcDb2dVertex
62
5
10
-14.373532
20
-35.576146
0
VERTEX
5
a50
100
AcDbEntity
8
1
100
AcDbVertex
100
AcDb2dVertex
62
5
10
-29.373532
20
-35.576146
0
SEQEND
5
a51
100
AcDbEntity
8
1
0
LINE
5
a52
100
AcDbEntity
8
1
100
AcDbLine
6
CONTINUOUS
62
5
10
-30.173532
20
-35.576146
11
-32.173532
21
-35.576146
0
POLYLINE
5
a53
100
AcDbEntity
8
1
6
DOT2
62
5
100
AcDb2dPolyline
66
1
10
0.0
20
0.0
30
0.0
70
0
0
VERTEX
5
a54
100
AcDbEntity
8
1
100
AcDbVertex
100
AcDb2dVertex
62
5
10
-64.498532
20
9.698869
0
VERTEX
5
a55
100
AcDbEntity
8
1
100
AcDbVertex
100
AcDb2dVertex
62
5
10
-65.123532
20
10.636369
0
VERTEX
5
a56
100
AcDbEntity
8
1
100
AcDbVertex
100
AcDb2dVertex
62
5
10
-57.623532
20
10.636369
0
SEQEND
5
a57
100
AcDbEntity
8
1
0
LINE
5
a58
100
AcDbEntity
8
1
100
AcDbLine
6
DOT2
62
5
10
-57.623532
20
10.011369
11
-57.623532
21
11.261369
0
POLYLINE
5
a59
100
AcDbEntity
8
1
6
DOT2
62
5
100
AcDb2dPolyline
66
1
10
0.0
20
0.0
30
0.0
70
0
0
VERTEX
5
a5a
100
AcDbEntity
8
1
100
AcDbVertex
100
AcDb2dVertex
62
5
10
-62.936032
20
14.073869
0
VERTEX
5
a5b
100
AcDbEntity
8
1
100
AcDbVertex
100
AcDb2dVertex
62
5
10
-64.498532
20
14.386369
0
VERTEX
5
a5c
100
AcDbEntity
8
1
100
AcDbVertex
100
AcDb2dVertex
62
5
10
-65.123532
20
15.323869
0
VERTEX
5
a5d
100
AcDbEntity
8
1
100
AcDbVertex
100
AcDb2dVertex
62
5
10
-65.123532
20
16.261369
0
VERTEX
5
a5e
100
AcDbEntity
8
1
100
AcDbVertex
100
AcDb2dVertex
62
5
10
-64.811032
20
16.886369
0
VERTEX
5
a5f
100
AcDbEntity
8
1
100
AcDbVertex
100
AcDb2dVertex
62
5
10
-63.873532
20
17.198869
0
VERTEX
5
a60
100
AcDbEntity
8
1
100
AcDbVertex
100
AcDb2dVertex
62
5
10
-62.936032
20
17.198869
0
VERTEX
5
a61
100
AcDbEntity
8
1
100
AcDbVertex
100
AcDb2dVertex
62
5
10
-61.998532
20
16.886369
0
VERTEX
5
a62
100
AcDbEntity
8
1
100
AcDbVertex
100
AcDb2dVertex
62
5
10
-57.623532
20
14.073869
0
VERTEX
5
a63
100
AcDbEntity
8
1
100
AcDbVertex
100
AcDb2dVertex
62
5
10
-57.623532
20
17.198869
0
VERTEX
5
a64
100
AcDbEntity
8
1
100
AcDbVertex
100
AcDb2dVertex
62
5
10
-58.561032
20
17.198869
0
SEQEND
5
a65
100
AcDbEntity
8
1
0
POLYLINE
5
a66
100
AcDbEntity
8
1
6
DOT2
62
5
100
AcDb2dPolyline
66
1
10
0.0
20
0.0
30
0.0
70
0
0
VERTEX
5
a67
100
AcDbEntity
8
1
100
AcDbVertex
100
AcDb2dVertex
62
5
10
-64.498532
20
4.698869
0
VERTEX
5
a68
100
AcDbEntity
8
1
100
AcDbVertex
100
AcDb2dVertex
62
5
10
-65.123532
20
5.636369
0
VERTEX
5
a69
100
AcDbEntity
8
1
100
AcDbVertex
100
AcDb2dVertex
62
5
10
-57.623532
20
5.636369
0
SEQEND
5
a6a
100
AcDbEntity
8
1
0
LINE
5
a6b
100
AcDbEntity
8
1
100
AcDbLine
6
DOT2
62
5
10
-57.623532
20
5.011369
11
-57.623532
21
6.261369
0
POLYLINE
5
a6c
100
AcDbEntity
8
1
6
CONTINUOUS
62
5
100
AcDb2dPolyline
66
1
10
0.0
20
0.0
30
0.0
70
0
0
VERTEX
5
a6d
100
AcDbEntity
8
1
100
AcDbVertex
100
AcDb2dVertex
62
5
10
21.026468
20
-103.926131
0
VERTEX
5
a6e
100
AcDbEntity
8
1
100
AcDbVertex
100
AcDb2dVertex
62
5
10
22.588968
20
-111.426131
0
VERTEX
5
a6f
100
AcDbEntity
8
1
100
AcDbVertex
100
AcDb2dVertex
62
5
10
24.151468
20
-103.926131
0
SEQEND
5
a70
100
AcDbEntity
8
1
0
POLYLINE
5
a71
100
AcDbEntity
8
1
6
CONTINUOUS
62
5
100
AcDb2dPolyline
66
1
10
0.0
20
0.0
30
0.0
70
0
0
VERTEX
5
a72
100
AcDbEntity
8
1
100
AcDbVertex
100
AcDb2dVertex
62
5
10
31.026468
20
-111.426131
0
VERTEX
5
a73
100
AcDbEntity
8
1
100
AcDbVertex
100
AcDb2dVertex
62
5
10
32.588968
20
-103.926131
0
VERTEX
5
a74
100
AcDbEntity
8
1
100
AcDbVertex
100
AcDb2dVertex
62
5
10
34.151468
20
-111.426131
0
SEQEND
5
a75
100
AcDbEntity
8
1
0
LINE
5
a76
100
AcDbEntity
8
1
100
AcDbLine
6
CONTINUOUS
62
5
10
31.651468
20
-108.926131
11
33.526468
21
-108.926131
0
LINE
5
a77
100
AcDbEntity
8
1
100
AcDbLine
6
CONTINUOUS
62
5
10
1.026468
20
-107.676131
11
4.151468
21
-107.676131
0
POLYLINE
5
a78
100
AcDbEntity
8
1
6
CONTINUOUS
62
5
100
AcDb2dPolyline
66
1
10
0.0
20
0.0
30
0.0
70
0
0
VERTEX
5
a79
100
AcDbEntity
8
1
100
AcDbVertex
100
AcDb2dVertex
62
5
10
6.026468
20
-105.801131
0
VERTEX
5
a7a
100
AcDbEntity
8
1
100
AcDbVertex
100
AcDb2dVertex
62
5
10
6.338968
20
-104.551131
0
VERTEX
5
a7b
100
AcDbEntity
8
1
100
AcDbVertex
100
AcDb2dVertex
62
5
10
6.963968
20
-103.926131
0
VERTEX
5
a7c
100
AcDbEntity
8
1
100
AcDbVertex
100
AcDb2dVertex
62
5
10
7.901468
20
-103.926131
0
VERTEX
5
a7d
100
AcDbEntity
8
1
100
AcDbVertex
100
AcDb2dVertex
62
5
10
8.526468
20
-104.238631
0
VERTEX
5
a7e
100
AcDbEntity
8
1
100
AcDbVertex
100
AcDb2dVertex
62
5
10
8.838968
20
-105.176131
0
VERTEX
5
a7f
100
AcDbEntity
8
1
100
AcDbVertex
100
AcDb2dVertex
62
5
10
8.838968
20
-106.426131
0
VERTEX
5
a80
100
AcDbEntity
8
1
100
AcDbVertex
100
AcDb2dVertex
62
5
10
8.526468
20
-107.051131
0
VERTEX
5
a81
100
AcDbEntity
8
1
100
AcDbVertex
100
AcDb2dVertex
62
5
10
7.901468
20
-107.676131
0
VERTEX
5
a82
100
AcDbEntity
8
1
100
AcDbVertex
100
AcDb2dVertex
62
5
10
6.963968
20
-107.676131
0
SEQEND
5
a83
100
AcDbEntity
8
1
0
POLYLINE
5
a84
100
AcDbEntity
8
1
6
CONTINUOUS
62
5
100
AcDb2dPolyline
66
1
10
0.0
20
0.0
30
0.0
70
0
0
VERTEX
5
a85
100
AcDbEntity
8
1
100
AcDbVertex
100
AcDb2dVertex
62
5
10
7.901468
20
-107.676131
0
VERTEX
5
a86
100
AcDbEntity
8
1
100
AcDbVertex
100
AcDb2dVertex
62
5
10
8.838968
20
-108.301131
0
VERTEX
5
a87
100
AcDbEntity
8
1
100
AcDbVertex
100
AcDb2dVertex
62
5
10
9.151468
20
-109.238631
0
VERTEX
5
a88
100
AcDbEntity
8
1
100
AcDbVertex
100
AcDb2dVertex
62
5
10
9.151468
20
-110.176131
0
VERTEX
5
a89
100
AcDbEntity
8
1
100
AcDbVertex
100
AcDb2dVertex
62
5
10
8.838968
20
-110.801131
0
VERTEX
5
a8a
100
AcDbEntity
8
1
100
AcDbVertex
100
AcDb2dVertex
62
5
10
7.901468
20
-111.426131
0
VERTEX
5
a8b
100
AcDbEntity
8
1
100
AcDbVertex
100
AcDb2dVertex
62
5
10
6.963968
20
-111.426131
0
VERTEX
5
a8c
100
AcDbEntity
8
1
100
AcDbVertex
100
AcDb2dVertex
62
5
10
6.338968
20
-111.113631
0
VERTEX
5
a8d
100
AcDbEntity
8
1
100
AcDbVertex
100
AcDb2dVertex
62
5
10
5.713968
20
-110.176131
0
SEQEND
5
a8e
100
AcDbEntity
8
1
0
POLYLINE
5
a8f
100
AcDbEntity
8
1
6
CONTINUOUS
62
5
100
AcDb2dPolyline
66
1
10
0.0
20
0.0
30
0.0
70
1
0
VERTEX
5
a90
100
AcDbEntity
8
1
100
AcDbVertex
100
AcDb2dVertex
62
5
10
12.276468
20
-103.926131
0
VERTEX
5
a91
100
AcDbEntity
8
1
100
AcDbVertex
100
AcDb2dVertex
62
5
10
12.901468
20
-103.926131
0
VERTEX
5
a92
100
AcDbEntity
8
1
100
AcDbVertex
100
AcDb2dVertex
62
5
10
13.213968
20
-104.238631
0
VERTEX
5
a93
100
AcDbEntity
8
1
100
AcDbVertex
100
AcDb2dVertex
62
5
10
13.838968
20
-105.488631
0
VERTEX
5
a94
100
AcDbEntity
8
1
100
AcDbVertex
100
AcDb2dVertex
62
5
10
14.151468
20
-106.738631
0
VERTEX
5
a95
100
AcDbEntity
8
1
100
AcDbVertex
100
AcDb2dVertex
62
5
10
14.151468
20
-108.613631
0
VERTEX
5
a96
100
AcDbEntity
8
1
100
AcDbVertex
100
AcDb2dVertex
62
5
10
13.838968
20
-109.863631
0
VERTEX
5
a97
100
AcDbEntity
8
1
100
AcDbVertex
100
AcDb2dVertex
62
5
10
13.213968
20
-111.113631
0
VERTEX
5
a98
100
AcDbEntity
8
1
100
AcDbVertex
100
AcDb2dVertex
62
5
10
12.901468
20
-111.426131
0
VERTEX
5
a99
100
AcDbEntity
8
1
100
AcDbVertex
100
AcDb2dVertex
62
5
10
12.276468
20
-111.426131
0
VERTEX
5
a9a
100
AcDbEntity
8
1
100
AcDbVertex
100
AcDb2dVertex
62
5
10
11.963968
20
-111.113631
0
VERTEX
5
a9b
100
AcDbEntity
8
1
100
AcDbVertex
100
AcDb2dVertex
62
5
10
11.338968
20
-109.863631
0
VERTEX
5
a9c
100
AcDbEntity
8
1
100
AcDbVertex
100
AcDb2dVertex
62
5
10
11.026468
20
-108.613631
0
VERTEX
5
a9d
100
AcDbEntity
8
1
100
AcDbVertex
100
AcDb2dVertex
62
5
10
11.026468
20
-106.738631
0
VERTEX
5
a9e
100
AcDbEntity
8
1
100
AcDbVertex
100
AcDb2dVertex
62
5
10
11.338968
20
-105.488631
0
VERTEX
5
a9f
100
AcDbEntity
8
1
100
AcDbVertex
100
AcDb2dVertex
62
5
10
11.963968
20
-104.238631
0
VERTEX
5
aa0
100
AcDbEntity
8
1
100
AcDbVertex
100
AcDb2dVertex
62
5
10
12.276468
20
-103.926131
0
SEQEND
5
aa1
100
AcDbEntity
8
1
0
POLYLINE
5
aa2
100
AcDbEntity
8
1
6
CONTINUOUS
62
5
100
AcDb2dPolyline
66
1
10
0.0
20
0.0
30
0.0
70
1
0
VERTEX
5
aa3
100
AcDbEntity
8
1
100
AcDbVertex
100
AcDb2dVertex
62
5
10
17.276468
20
-103.926131
0
VERTEX
5
aa4
100
AcDbEntity
8
1
100
AcDbVertex
100
AcDb2dVertex
62
5
10
17.901468
20
-103.926131
0
VERTEX
5
aa5
100
AcDbEntity
8
1
100
AcDbVertex
100
AcDb2dVertex
62
5
10
18.213968
20
-104.238631
0
VERTEX
5
aa6
100
AcDbEntity
8
1
100
AcDbVertex
100
AcDb2dVertex
62
5
10
18.838968
20
-105.488631
0
VERTEX
5
aa7
100
AcDbEntity
8
1
100
AcDbVertex
100
AcDb2dVertex
62
5
10
19.151468
20
-106.738631
0
VERTEX
5
aa8
100
AcDbEntity
8
1
100
AcDbVertex
100
AcDb2dVertex
62
5
10
19.151468
20
-108.613631
0
VERTEX
5
aa9
100
AcDbEntity
8
1
100
AcDbVertex
100
AcDb2dVertex
62
5
10
18.838968
20
-109.863631
0
VERTEX
5
aaa
100
AcDbEntity
8
1
100
AcDbVertex
100
AcDb2dVertex
62
5
10
18.213968
20
-111.113631
0
VERTEX
5
aab
100
AcDbEntity
8
1
100
AcDbVertex
100
AcDb2dVertex
62
5
10
17.901468
20
-111.426131
0
VERTEX
5
aac
100
AcDbEntity
8
1
100
AcDbVertex
100
AcDb2dVertex
62
5
10
17.276468
20
-111.426131
0
VERTEX
5
aad
100
AcDbEntity
8
1
100
AcDbVertex
100
AcDb2dVertex
62
5
10
16.963968
20
-111.113631
0
VERTEX
5
aae
100
AcDbEntity
8
1
100
AcDbVertex
100
AcDb2dVertex
62
5
10
16.338968
20
-109.863631
0
VERTEX
5
aaf
100
AcDbEntity
8
1
100
AcDbVertex
100
AcDb2dVertex
62
5
10
16.026468
20
-108.613631
0
VERTEX
5
ab0
100
AcDbEntity
8
1
100
AcDbVertex
100
AcDb2dVertex
62
5
10
16.026468
20
-106.738631
0
VERTEX
5
ab1
100
AcDbEntity
8
1
100
AcDbVertex
100
AcDb2dVertex
62
5
10
16.338968
20
-105.488631
0
VERTEX
5
ab2
100
AcDbEntity
8
1
100
AcDbVertex
100
AcDb2dVertex
62
5
10
16.963968
20
-104.238631
0
VERTEX
5
ab3
100
AcDbEntity
8
1
100
AcDbVertex
100
AcDb2dVertex
62
5
10
17.276468
20
-103.926131
0
SEQEND
5
ab4
100
AcDbEntity
8
1
0
POLYLINE
5
ab5
100
AcDbEntity
8
1
6
CONTINUOUS
62
5
100
AcDb2dPolyline
66
1
10
0.0
20
0.0
30
0.0
70
1
0
VERTEX
5
ab6
100
AcDbEntity
8
1
100
AcDbVertex
100
AcDb2dVertex
62
5
10
-17.723532
20
-103.926131
0
VERTEX
5
ab7
100
AcDbEntity
8
1
100
AcDbVertex
100
AcDb2dVertex
62
5
10
-17.098532
20
-103.926131
0
VERTEX
5
ab8
100
AcDbEntity
8
1
100
AcDbVertex
100
AcDb2dVertex
62
5
10
-16.786032
20
-104.238631
0
VERTEX
5
ab9
100
AcDbEntity
8
1
100
AcDbVertex
100
AcDb2dVertex
62
5
10
-16.161032
20
-105.488631
0
VERTEX
5
aba
100
AcDbEntity
8
1
100
AcDbVertex
100
AcDb2dVertex
62
5
10
-15.848532
20
-106.738631
0
VERTEX
5
abb
100
AcDbEntity
8
1
100
AcDbVertex
100
AcDb2dVertex
62
5
10
-15.848532
20
-108.613631
0
VERTEX
5
abc
100
AcDbEntity
8
1
100
AcDbVertex
100
AcDb2dVertex
62
5
10
-16.161032
20
-109.863631
0
VERTEX
5
abd
100
AcDbEntity
8
1
100
AcDbVertex
100
AcDb2dVertex
62
5
10
-16.786032
20
-111.113631
0
VERTEX
5
abe
100
AcDbEntity
8
1
100
AcDbVertex
100
AcDb2dVertex
62
5
10
-17.098532
20
-111.426131
0
VERTEX
5
abf
100
AcDbEntity
8
1
100
AcDbVertex
100
AcDb2dVertex
62
5
10
-17.723532
20
-111.426131
0
VERTEX
5
ac0
100
AcDbEntity
8
1
100
AcDbVertex
100
AcDb2dVertex
62
5
10
-18.036032
20
-111.113631
0
VERTEX
5
ac1
100
AcDbEntity
8
1
100
AcDbVertex
100
AcDb2dVertex
62
5
10
-18.661032
20
-109.863631
0
VERTEX
5
ac2
100
AcDbEntity
8
1
100
AcDbVertex
100
AcDb2dVertex
62
5
10
-18.973532
20
-108.613631
0
VERTEX
5
ac3
100
AcDbEntity
8
1
100
AcDbVertex
100
AcDb2dVertex
62
5
10
-18.973532
20
-106.738631
0
VERTEX
5
ac4
100
AcDbEntity
8
1
100
AcDbVertex
100
AcDb2dVertex
62
5
10
-18.661032
20
-105.488631
0
VERTEX
5
ac5
100
AcDbEntity
8
1
100
AcDbVertex
100
AcDb2dVertex
62
5
10
-18.036032
20
-104.238631
0
VERTEX
5
ac6
100
AcDbEntity
8
1
100
AcDbVertex
100
AcDb2dVertex
62
5
10
-17.723532
20
-103.926131
0
SEQEND
5
ac7
100
AcDbEntity
8
1
0
LINE
5
ac8
100
AcDbEntity
8
1
100
AcDbLine
6
CONTINUOUS
62
5
10
-13.348532
20
-110.801131
11
-13.973532
21
-111.426131
0
POLYLINE
5
ac9
100
AcDbEntity
8
1
6
CONTINUOUS
62
5
100
AcDb2dPolyline
66
1
10
0.0
20
0.0
30
0.0
70
0
0
VERTEX
5
aca
100
AcDbEntity
8
1
100
AcDbVertex
100
AcDb2dVertex
62
5
10
-13.973532
20
-110.801131
0
VERTEX
5
acb
100
AcDbEntity
8
1
100
AcDbVertex
100
AcDb2dVertex
62
5
10
-13.348532
20
-111.426131
0
VERTEX
5
acc
100
AcDbEntity
8
1
100
AcDbVertex
100
AcDb2dVertex
62
5
10
-13.973532
20
-111.426131
0
VERTEX
5
acd
100
AcDbEntity
8
1
100
AcDbVertex
100
AcDb2dVertex
62
5
10
-13.973532
20
-110.801131
0
VERTEX
5
ace
100
AcDbEntity
8
1
100
AcDbVertex
100
AcDb2dVertex
62
5
10
-13.348532
20
-110.801131
0
VERTEX
5
acf
100
AcDbEntity
8
1
100
AcDbVertex
100
AcDb2dVertex
62
5
10
-13.348532
20
-111.426131
0
SEQEND
5
ad0
100
AcDbEntity
8
1
0
LINE
5
ad1
100
AcDbEntity
8
1
100
AcDbLine
6
CONTINUOUS
62
5
10
-8.973532
20
-103.926131
11
-6.161032
21
-103.926131
0
POLYLINE
5
ad2
100
AcDbEntity
8
1
6
CONTINUOUS
62
5
100
AcDb2dPolyline
66
1
10
0.0
20
0.0
30
0.0
70
0
0
VERTEX
5
ad3
100
AcDbEntity
8
1
100
AcDbVertex
100
AcDb2dVertex
62
5
10
-8.973532
20
-103.926131
0
VERTEX
5
ad4
100
AcDbEntity
8
1
100
AcDbVertex
100
AcDb2dVertex
62
5
10
-8.973532
20
-107.676131
0
VERTEX
5
ad5
100
AcDbEntity
8
1
100
AcDbVertex
100
AcDb2dVertex
62
5
10
-8.348532
20
-107.051131
0
VERTEX
5
ad6
100
AcDbEntity
8
1
100
AcDbVertex
100
AcDb2dVertex
62
5
10
-7.723532
20
-106.738631
0
VERTEX
5
ad7
100
AcDbEntity
8
1
100
AcDbVertex
100
AcDb2dVertex
62
5
10
-6.786032
20
-106.738631
0
VERTEX
5
ad8
100
AcDbEntity
8
1
100
AcDbVertex
100
AcDb2dVertex
62
5
10
-6.161032
20
-107.051131
0
VERTEX
5
ad9
100
AcDbEntity
8
1
100
AcDbVertex
100
AcDb2dVertex
62
5
10
-5.848532
20
-107.988631
0
VERTEX
5
ada
100
AcDbEntity
8
1
100
AcDbVertex
100
AcDb2dVertex
62
5
10
-5.848532
20
-109.863631
0
VERTEX
5
adb
100
AcDbEntity
8
1
100
AcDbVertex
100
AcDb2dVertex
62
5
10
-6.473532
20
-110.801131
0
VERTEX
5
adc
100
AcDbEntity
8
1
100
AcDbVertex
100
AcDb2dVertex
62
5
10
-7.411032
20
-111.426131
0
VERTEX
5
add
100
AcDbEntity
8
1
100
AcDbVertex
100
AcDb2dVertex
62
5
10
-8.973532
20
-111.426131
0
SEQEND
5
ade
100
AcDbEntity
8
1
0
POLYLINE
5
adf
100
AcDbEntity
8
1
6
CONTINUOUS
62
5
100
AcDb2dPolyline
66
1
10
0.0
20
0.0
30
0.0
70
0
0
VERTEX
5
ae0
100
AcDbEntity
8
1
100
AcDbVertex
100
AcDb2dVertex
62
5
10
-3.973532
20
-111.426131
0
VERTEX
5
ae1
100
AcDbEntity
8
1
100
AcDbVertex
100
AcDb2dVertex
62
5
10
-2.411032
20
-103.926131
0
VERTEX
5
ae2
100
AcDbEntity
8
1
100
AcDbVertex
100
AcDb2dVertex
62
5
10
-0.848532
20
-111.426131
0
SEQEND
5
ae3
100
AcDbEntity
8
1
0
LINE
5
ae4
100
AcDbEntity
8
1
100
AcDbLine
6
CONTINUOUS
62
5
10
-3.348532
20
-108.926131
11
-1.473532
21
-108.926131
0
LINE
5
ae5
100
AcDbEntity
8
1
100
AcDbLine
6
CONTINUOUS
62
5
10
-31.473532
20
-95.676131
11
-31.473532
21
-119.676131
0
LINE
5
ae6
100
AcDbEntity
8
1
100
AcDbLine
6
CONTINUOUS
62
5
10
-66.786032
20
-103.301131
11
-66.786032
21
-104.238631
0
POLYLINE
5
ae7
100
AcDbEntity
8
1
6
CONTINUOUS
62
5
100
AcDb2dPolyline
66
1
10
0.0
20
0.0
30
0.0
70
0
0
VERTEX
5
ae8
100
AcDbEntity
8
1
100
AcDbVertex
100
AcDb2dVertex
62
5
10
-70.536032
20
-106.426131
0
VERTEX
5
ae9
100
AcDbEntity
8
1
100
AcDbVertex
100
AcDb2dVertex
62
5
10
-70.536032
20
-104.238631
0
VERTEX
5
aea
100
AcDbEntity
8
1
100
AcDbVertex
100
AcDb2dVertex
62
5
10
-63.036032
20
-104.238631
0
VERTEX
5
aeb
100
AcDbEntity
8
1
100
AcDbVertex
100
AcDb2dVertex
62
5
10
-63.036032
20
-106.426131
0
SEQEND
5
aec
100
AcDbEntity
8
1
0
LINE
5
aed
100
AcDbEntity
8
1
100
AcDbLine
6
CONTINUOUS
62
5
10
-69.598532
20
-106.113631
11
-63.973532
21
-106.113631
0
LINE
5
aee
100
AcDbEntity
8
1
100
AcDbLine
6
CONTINUOUS
62
5
10
-66.786032
20
-106.113631
11
-66.786032
21
-111.426131
0
LINE
5
aef
100
AcDbEntity
8
1
100
AcDbLine
6
CONTINUOUS
62
5
10
-66.786032
20
-108.613631
11
-63.973532
21
-108.613631
0
POLYLINE
5
af0
100
AcDbEntity
8
1
6
CONTINUOUS
62
5
100
AcDb2dPolyline
66
1
10
0.0
20
0.0
30
0.0
70
0
0
VERTEX
5
af1
100
AcDbEntity
8
1
100
AcDbVertex
100
AcDb2dVertex
62
5
10
-68.973532
20
-107.988631
0
VERTEX
5
af2
100
AcDbEntity
8
1
100
AcDbVertex
100
AcDb2dVertex
62
5
10
-69.286032
20
-109.863631
0
VERTEX
5
af3
100
AcDbEntity
8
1
100
AcDbVertex
100
AcDb2dVertex
62
5
10
-69.911032
20
-111.113631
0
VERTEX
5
af4
100
AcDbEntity
8
1
100
AcDbVertex
100
AcDb2dVertex
62
5
10
-70.848532
20
-112.051131
0
SEQEND
5
af5
100
AcDbEntity
8
1
0
POLYLINE
5
af6
100
AcDbEntity
8
1
6
CONTINUOUS
62
5
100
AcDb2dPolyline
66
1
10
0.0
20
0.0
30
0.0
70
0
0
VERTEX
5
af7
100
AcDbEntity
8
1
100
AcDbVertex
100
AcDb2dVertex
62
5
10
-69.286032
20
-109.863631
0
VERTEX
5
af8
100
AcDbEntity
8
1
100
AcDbVertex
100
AcDb2dVertex
62
5
10
-66.786032
20
-111.426131
0
VERTEX
5
af9
100
AcDbEntity
8
1
100
AcDbVertex
100
AcDb2dVertex
62
5
10
-65.536032
20
-111.738631
0
VERTEX
5
afa
100
AcDbEntity
8
1
100
AcDbVertex
100
AcDb2dVertex
62
5
10
-62.411032
20
-112.051131
0
SEQEND
5
afb
100
AcDbEntity
8
1
0
LINE
5
afc
100
AcDbEntity
8
1
100
AcDbLine
6
CONTINUOUS
62
5
10
-50.848532
20
-105.488631
11
-47.723532
21
-105.488631
0
LINE
5
afd
100
AcDbEntity
8
1
100
AcDbLine
6
CONTINUOUS
62
5
10
-48.973532
20
-103.301131
11
-48.973532
21
-112.051131
0
POLYLINE
5
afe
100
AcDbEntity
8
1
6
CONTINUOUS
62
5
100
AcDb2dPolyline
66
1
10
0.0
20
0.0
30
0.0
70
0
0
VERTEX
5
aff
100
AcDbEntity
8
1
100
AcDbVertex
100
AcDb2dVertex
62
5
10
-48.973532
20
-105.488631
0
VERTEX
5
b00
100
AcDbEntity
8
1
100
AcDbVertex
100
AcDb2dVertex
62
5
10
-49.911032
20
-107.676131
0
VERTEX
5
b01
100
AcDbEntity
8
1
100
AcDbVertex
100
AcDb2dVertex
62
5
10
-50.848532
20
-108.926131
0
SEQEND
5
b02
100
AcDbEntity
8
1
0
LINE
5
b03
100
AcDbEntity
8
1
100
AcDbLine
6
CONTINUOUS
62
5
10
-48.973532
20
-106.426131
11
-48.036032
21
-107.676131
0
POLYLINE
5
b04
100
AcDbEntity
8
1
6
CONTINUOUS
62
5
100
AcDb2dPolyline
66
1
10
0.0
20
0.0
30
0.0
70
0
0
VERTEX
5
b05
100
AcDbEntity
8
1
100
AcDbVertex
100
AcDb2dVertex
62
5
10
-45.536032
20
-103.301131
0
VERTEX
5
b06
100
AcDbEntity
8
1
100
AcDbVertex
100
AcDb2dVertex
62
5
10
-46.161032
20
-104.551131
0
VERTEX
5
b07
100
AcDbEntity
8
1
100
AcDbVertex
100
AcDb2dVertex
62
5
10
-47.723532
20
-106.426131
0
SEQEND
5
b08
100
AcDbEntity
8
1
0
POLYLINE
5
b09
100
AcDbEntity
8
1
6
CONTINUOUS
62
5
100
AcDb2dPolyline
66
1
10
0.0
20
0.0
30
0.0
70
0
0
VERTEX
5
b0a
100
AcDbEntity
8
1
100
AcDbVertex
100
AcDb2dVertex
62
5
10
-46.161032
20
-104.551131
0
VERTEX
5
b0b
100
AcDbEntity
8
1
100
AcDbVertex
100
AcDb2dVertex
62
5
10
-43.036032
20
-104.551131
0
VERTEX
5
b0c
100
AcDbEntity
8
1
100
AcDbVertex
100
AcDb2dVertex
62
5
10
-43.973532
20
-106.113631
0
VERTEX
5
b0d
100
AcDbEntity
8
1
100
AcDbVertex
100
AcDb2dVertex
62
5
10
-45.536032
20
-107.676131
0
VERTEX
5
b0e
100
AcDbEntity
8
1
100
AcDbVertex
100
AcDb2dVertex
62
5
10
-47.723532
20
-108.926131
0
SEQEND
5
b0f
100
AcDbEntity
8
1
0
POLYLINE
5
b10
100
AcDbEntity
8
1
6
CONTINUOUS
62
5
100
AcDb2dPolyline
66
1
10
0.0
20
0.0
30
0.0
70
0
0
VERTEX
5
b11
100
AcDbEntity
8
1
100
AcDbVertex
100
AcDb2dVertex
62
5
10
-46.161032
20
-104.551131
0
VERTEX
5
b12
100
AcDbEntity
8
1
100
AcDbVertex
100
AcDb2dVertex
62
5
10
-45.536032
20
-106.113631
0
VERTEX
5
b13
100
AcDbEntity
8
1
100
AcDbVertex
100
AcDb2dVertex
62
5
10
-44.286032
20
-107.676131
0
VERTEX
5
b14
100
AcDbEntity
8
1
100
AcDbVertex
100
AcDb2dVertex
62
5
10
-43.348532
20
-108.301131
0
VERTEX
5
b15
100
AcDbEntity
8
1
100
AcDbVertex
100
AcDb2dVertex
62
5
10
-42.098532
20
-108.926131
0
SEQEND
5
b16
100
AcDbEntity
8
1
0
POLYLINE
5
b17
100
AcDbEntity
8
1
6
CONTINUOUS
62
5
100
AcDb2dPolyline
66
1
10
0.0
20
0.0
30
0.0
70
1
0
VERTEX
5
b18
100
AcDbEntity
8
1
100
AcDbVertex
100
AcDb2dVertex
62
5
10
-46.473532
20
-108.926131
0
VERTEX
5
b19
100
AcDbEntity
8
1
100
AcDbVertex
100
AcDb2dVertex
62
5
10
-46.473532
20
-111.738631
0
VERTEX
5
b1a
100
AcDbEntity
8
1
100
AcDbVertex
100
AcDb2dVertex
62
5
10
-43.036032
20
-111.738631
0
VERTEX
5
b1b
100
AcDbEntity
8
1
100
AcDbVertex
100
AcDb2dVertex
62
5
10
-43.036032
20
-108.926131
0
VERTEX
5
b1c
100
AcDbEntity
8
1
100
AcDbVertex
100
AcDb2dVertex
62
5
10
-46.473532
20
-108.926131
0
SEQEND
5
b1d
100
AcDbEntity
8
1
0
POLYLINE
5
b1e
100
AcDbEntity
8
1
6
CONTINUOUS
62
5
100
AcDb2dPolyline
66
1
10
0.0
20
0.0
30
0.0
70
0
0
VERTEX
5
b1f
100
AcDbEntity
8
1
100
AcDbVertex
100
AcDb2dVertex
62
5
10
39.151468
20
-105.488631
0
VERTEX
5
b20
100
AcDbEntity
8
1
100
AcDbVertex
100
AcDb2dVertex
62
5
10
38.838968
20
-104.551131
0
VERTEX
5
b21
100
AcDbEntity
8
1
100
AcDbVertex
100
AcDb2dVertex
62
5
10
38.213968
20
-103.926131
0
VERTEX
5
b22
100
AcDbEntity
8
1
100
AcDbVertex
100
AcDb2dVertex
62
5
10
37.276468
20
-103.926131
0
VERTEX
5
b23
100
AcDbEntity
8
1
100
AcDbVertex
100
AcDb2dVertex
62
5
10
36.338968
20
-104.863631
0
VERTEX
5
b24
100
AcDbEntity
8
1
100
AcDbVertex
100
AcDb2dVertex
62
5
10
36.026468
20
-106.426131
0
VERTEX
5
b25
100
AcDbEntity
8
1
100
AcDbVertex
100
AcDb2dVertex
62
5
10
36.026468
20
-108.926131
0
VERTEX
5
b26
100
AcDbEntity
8
1
100
AcDbVertex
100
AcDb2dVertex
62
5
10
36.338968
20
-110.488631
0
VERTEX
5
b27
100
AcDbEntity
8
1
100
AcDbVertex
100
AcDb2dVertex
62
5
10
37.276468
20
-111.426131
0
VERTEX
5
b28
100
AcDbEntity
8
1
100
AcDbVertex
100
AcDb2dVertex
62
5
10
38.213968
20
-111.426131
0
VERTEX
5
b29
100
AcDbEntity
8
1
100
AcDbVertex
100
AcDb2dVertex
62
5
10
38.838968
20
-110.801131
0
VERTEX
5
b2a
100
AcDbEntity
8
1
100
AcDbVertex
100
AcDb2dVertex
62
5
10
39.463968
20
-109.238631
0
SEQEND
5
b2b
100
AcDbEntity
8
1
0
POLYLINE
5
b2c
100
AcDbEntity
8
1
6
CONTINUOUS
62
5
100
AcDb2dPolyline
66
1
10
0.0
20
0.0
30
0.0
70
1
0
VERTEX
5
b2d
100
AcDbEntity
8
1
100
AcDbVertex
100
AcDb2dVertex
62
5
10
158.526468
20
-119.676131
0
VERTEX
5
b2e
100
AcDbEntity
8
1
100
AcDbVertex
100
AcDb2dVertex
62
5
10
158.526468
20
-95.676131
0
VERTEX
5
b2f
100
AcDbEntity
8
1
100
AcDbVertex
100
AcDb2dVertex
62
5
10
-81.473532
20
-95.676131
0
VERTEX
5
b30
100
AcDbEntity
8
1
100
AcDbVertex
100
AcDb2dVertex
62
5
10
-81.473532
20
-119.676131
0
VERTEX
5
b31
100
AcDbEntity
8
1
100
AcDbVertex
100
AcDb2dVertex
62
5
10
158.526468
20
-119.676131
0
SEQEND
5
b32
100
AcDbEntity
8
1
0
LINE
5
b33
100
AcDbEntity
8
1
100
AcDbLine
6
CONTINUOUS
62
5
10
84.326465
20
65.306035
11
84.326465
21
93.323869
0
LINE
5
b34
100
AcDbEntity
8
1
100
AcDbLine
6
CONTINUOUS
62
5
10
69.926468
20
-0.612227
11
69.926468
21
93.323869
0
POLYLINE
5
b35
100
AcDbEntity
8
1
6
CONTINUOUS
62
5
100
AcDb2dPolyline
66
1
10
0.0
20
0.0
30
0.0
70
0
0
VERTEX
5
b36
100
AcDbEntity
8
1
100
AcDbVertex
100
AcDb2dVertex
62
5
10
38.676468
20
91.323869
0
VERTEX
5
b37
100
AcDbEntity
8
1
100
AcDbVertex
100
AcDb2dVertex
62
5
10
69.926468
20
91.323869
0
VERTEX
5
b38
100
AcDbEntity
8
1
100
AcDbVertex
100
AcDb2dVertex
62
5
10
63.926468
20
90.323869
0
VERTEX
5
b39
100
AcDbEntity
8
1
100
AcDbVertex
100
AcDb2dVertex
62
5
10
63.926468
20
92.323869
0
VERTEX
5
b3a
100
AcDbEntity
8
1
100
AcDbVertex
100
AcDb2dVertex
62
5
10
69.926468
20
91.323869
0
VERTEX
5
b3b
100
AcDbEntity
8
1
100
AcDbVertex
100
AcDb2dVertex
62
5
10
63.926468
20
90.823869
0
VERTEX
5
b3c
100
AcDbEntity
8
1
100
AcDbVertex
100
AcDb2dVertex
62
5
10
63.926468
20
91.823869
0
VERTEX
5
b3d
100
AcDbEntity
8
1
100
AcDbVertex
100
AcDb2dVertex
62
5
10
69.926468
20
91.323869
0
SEQEND
5
b3e
100
AcDbEntity
8
1
0
LINE
5
b3f
100
AcDbEntity
8
1
100
AcDbLine
6
CONTINUOUS
62
5
10
69.926468
20
91.323869
11
84.326465
21
91.323869
0
LINE
5
b40
100
AcDbEntity
8
1
100
AcDbLine
6
CONTINUOUS
62
5
10
89.326465
20
91.323869
11
84.326465
21
91.323869
0
POLYLINE
5
b41
100
AcDbEntity
8
1
6
CONTINUOUS
62
5
100
AcDb2dPolyline
66
1
10
0.0
20
0.0
30
0.0
70
0
0
VERTEX
5
b42
100
AcDbEntity
8
1
100
AcDbVertex
100
AcDb2dVertex
62
5
10
83.326465
20
90.823869
0
VERTEX
5
b43
100
AcDbEntity
8
1
100
AcDbVertex
100
AcDb2dVertex
62
5
10
83.326465
20
91.823869
0
VERTEX
5
b44
100
AcDbEntity
8
1
100
AcDbVertex
100
AcDb2dVertex
62
5
10
83.826465
20
92.323869
0
VERTEX
5
b45
100
AcDbEntity
8
1
100
AcDbVertex
100
AcDb2dVertex
62
5
10
84.826465
20
92.323869
0
VERTEX
5
b46
100
AcDbEntity
8
1
100
AcDbVertex
100
AcDb2dVertex
62
5
10
85.326465
20
91.823869
0
VERTEX
5
b47
100
AcDbEntity
8
1
100
AcDbVertex
100
AcDb2dVertex
62
5
10
85.326465
20
90.823869
0
VERTEX
5
b48
100
AcDbEntity
8
1
100
AcDbVertex
100
AcDb2dVertex
62
5
10
84.826465
20
90.323869
0
VERTEX
5
b49
100
AcDbEntity
8
1
100
AcDbVertex
100
AcDb2dVertex
62
5
10
83.826465
20
90.323869
0
VERTEX
5
b4a
100
AcDbEntity
8
1
100
AcDbVertex
100
AcDb2dVertex
62
5
10
83.326465
20
90.823869
0
VERTEX
5
b4b
100
AcDbEntity
8
1
100
AcDbVertex
100
AcDb2dVertex
62
5
10
85.326465
20
91.823869
0
SEQEND
5
b4c
100
AcDbEntity
8
1
0
LINE
5
b4d
100
AcDbEntity
8
1
100
AcDbLine
6
CONTINUOUS
62
5
10
85.326465
20
90.823869
11
83.326465
21
91.823869
0
LINE
5
b4e
100
AcDbEntity
8
1
100
AcDbLine
6
CONTINUOUS
62
5
10
83.826465
20
92.323869
11
84.826465
21
90.323869
0
LINE
5
b4f
100
AcDbEntity
8
1
100
AcDbLine
6
CONTINUOUS
62
5
10
83.826465
20
90.323869
11
84.826465
21
92.323869
0
LINE
5
b50
100
AcDbEntity
8
1
100
AcDbLine
6
CONTINUOUS
62
5
10
-22.873532
20
66.323869
11
-58.373532
21
66.323869
0
LINE
5
b51
100
AcDbEntity
8
1
100
AcDbLine
6
CONTINUOUS
62
5
10
-22.873532
20
-45.676131
11
-58.373532
21
-45.676131
0
POLYLINE
5
b52
100
AcDbEntity
8
1
6
CONTINUOUS
62
5
100
AcDb2dPolyline
66
1
10
0.0
20
0.0
30
0.0
70
0
0
VERTEX
5
b53
100
AcDbEntity
8
1
100
AcDbVertex
100
AcDb2dVertex
62
5
10
-56.373532
20
10.323869
0
VERTEX
5
b54
100
AcDbEntity
8
1
100
AcDbVertex
100
AcDb2dVertex
62
5
10
-56.373532
20
-45.676131
0
VERTEX
5
b55
100
AcDbEntity
8
1
100
AcDbVertex
100
AcDb2dVertex
62
5
10
-57.373532
20
-39.676131
0
VERTEX
5
b56
100
AcDbEntity
8
1
100
AcDbVertex
100
AcDb2dVertex
62
5
10
-55.373532
20
-39.676131
0
VERTEX
5
b57
100
AcDbEntity
8
1
100
AcDbVertex
100
AcDb2dVertex
62
5
10
-56.373532
20
-45.676131
0
VERTEX
5
b58
100
AcDbEntity
8
1
100
AcDbVertex
100
AcDb2dVertex
62
5
10
-56.873532
20
-39.676131
0
VERTEX
5
b59
100
AcDbEntity
8
1
100
AcDbVertex
100
AcDb2dVertex
62
5
10
-55.873532
20
-39.676131
0
VERTEX
5
b5a
100
AcDbEntity
8
1
100
AcDbVertex
100
AcDb2dVertex
62
5
10
-56.373532
20
-45.676131
0
SEQEND
5
b5b
100
AcDbEntity
8
1
0
POLYLINE
5
b5c
100
AcDbEntity
8
1
6
CONTINUOUS
62
5
100
AcDb2dPolyline
66
1
10
0.0
20
0.0
30
0.0
70
0
0
VERTEX
5
b5d
100
AcDbEntity
8
1
100
AcDbVertex
100
AcDb2dVertex
62
5
10
-56.373532
20
10.323869
0
VERTEX
5
b5e
100
AcDbEntity
8
1
100
AcDbVertex
100
AcDb2dVertex
62
5
10
-56.373532
20
66.323869
0
VERTEX
5
b5f
100
AcDbEntity
8
1
100
AcDbVertex
100
AcDb2dVertex
62
5
10
-55.373532
20
60.323869
0
VERTEX
5
b60
100
AcDbEntity
8
1
100
AcDbVertex
100
AcDb2dVertex
62
5
10
-57.373532
20
60.323869
0
VERTEX
5
b61
100
AcDbEntity
8
1
100
AcDbVertex
100
AcDb2dVertex
62
5
10
-56.373532
20
66.323869
0
VERTEX
5
b62
100
AcDbEntity
8
1
100
AcDbVertex
100
AcDb2dVertex
62
5
10
-55.873532
20
60.323869
0
VERTEX
5
b63
100
AcDbEntity
8
1
100
AcDbVertex
100
AcDb2dVertex
62
5
10
-56.873532
20
60.323869
0
VERTEX
5
b64
100
AcDbEntity
8
1
100
AcDbVertex
100
AcDb2dVertex
62
5
10
-56.373532
20
66.323869
0
SEQEND
5
b65
100
AcDbEntity
8
1
0
LINE
5
b66
100
AcDbEntity
8
1
100
AcDbLine
6
CONTINUOUS
62
5
10
84.326465
20
66.316884
11
84.326465
21
93.323869
0
LINE
5
b67
100
AcDbEntity
8
1
100
AcDbLine
6
CONTINUOUS
62
5
10
108.426465
20
18.997051
11
108.426465
21
93.323869
0
POLYLINE
5
b68
100
AcDbEntity
8
1
6
CONTINUOUS
62
5
100
AcDb2dPolyline
66
1
10
0.0
20
0.0
30
0.0
70
0
0
VERTEX
5
b69
100
AcDbEntity
8
1
100
AcDbVertex
100
AcDb2dVertex
62
5
10
139.676465
20
91.323869
0
VERTEX
5
b6a
100
AcDbEntity
8
1
100
AcDbVertex
100
AcDb2dVertex
62
5
10
108.426465
20
91.323869
0
VERTEX
5
b6b
100
AcDbEntity
8
1
100
AcDbVertex
100
AcDb2dVertex
62
5
10
114.426465
20
92.323869
0
VERTEX
5
b6c
100
AcDbEntity
8
1
100
AcDbVertex
100
AcDb2dVertex
62
5
10
114.426465
20
90.323869
0
VERTEX
5
b6d
100
AcDbEntity
8
1
100
AcDbVertex
100
AcDb2dVertex
62
5
10
108.426465
20
91.323869
0
VERTEX
5
b6e
100
AcDbEntity
8
1
100
AcDbVertex
100
AcDb2dVertex
62
5
10
114.426465
20
91.823869
0
VERTEX
5
b6f
100
AcDbEntity
8
1
100
AcDbVertex
100
AcDb2dVertex
62
5
10
114.426465
20
90.823869
0
VERTEX
5
b70
100
AcDbEntity
8
1
100
AcDbVertex
100
AcDb2dVertex
62
5
10
108.426465
20
91.323869
0
SEQEND
5
b71
100
AcDbEntity
8
1
0
LINE
5
b72
100
AcDbEntity
8
1
100
AcDbLine
6
CONTINUOUS
62
5
10
108.426465
20
91.323869
11
84.326465
21
91.323869
0
LINE
5
b73
100
AcDbEntity
8
1
100
AcDbLine
6
CONTINUOUS
62
5
10
81.326465
20
91.323869
11
84.326465
21
91.323869
0
LINE
5
b74
100
AcDbEntity
8
1
100
AcDbLine
6
CONTINUOUS
62
5
10
81.526468
20
30.323869
11
81.926465
21
30.323869
0
POLYLINE
5
b75
100
AcDbEntity
8
1
6
CONTINUOUS
62
5
100
AcDb2dPolyline
66
1
10
0.0
20
0.0
30
0.0
70
0
0
VERTEX
5
b76
100
AcDbEntity
8
1
100
AcDbVertex
100
AcDb2dVertex
62
5
10
88.026465
20
28.873869
0
VERTEX
5
b77
100
AcDbEntity
8
1
100
AcDbVertex
100
AcDb2dVertex
62
5
10
86.526465
20
28.873869
0
VERTEX
5
b78
100
AcDbEntity
8
1
100
AcDbVertex
100
AcDb2dVertex
62
5
10
86.526465
20
31.873869
0
VERTEX
5
b79
100
AcDbEntity
8
1
100
AcDbVertex
100
AcDb2dVertex
62
5
10
88.026465
20
31.873869
0
SEQEND
5
b7a
100
AcDbEntity
8
1
0
POLYLINE
5
b7b
100
AcDbEntity
8
1
6
CONTINUOUS
62
5
100
AcDb2dPolyline
66
1
10
0.0
20
0.0
30
0.0
70
0
0
VERTEX
5
b7c
100
AcDbEntity
8
1
100
AcDbVertex
100
AcDb2dVertex
62
5
10
86.526465
20
31.873869
0
VERTEX
5
b7d
100
AcDbEntity
8
1
100
AcDbVertex
100
AcDb2dVertex
62
5
10
85.966465
20
31.873869
0
VERTEX
5
b7e
100
AcDbEntity
8
1
100
AcDbVertex
100
AcDb2dVertex
62
5
10
85.966465
20
28.873869
0
VERTEX
5
b7f
100
AcDbEntity
8
1
100
AcDbVertex
100
AcDb2dVertex
62
5
10
86.526465
20
28.873869
0
SEQEND
5
b80
100
AcDbEntity
8
1
0
LINE
5
b81
100
AcDbEntity
8
1
100
AcDbLine
6
CONTINUOUS
62
5
10
88.026465
20
31.556421
11
88.026465
21
29.207931
0
ARC
5
b82
100
AcDbEntity
8
1
100
AcDbCircle
6
CONTINUOUS
62
5
10
82.976465
20
31.323869
40
1.450000
100
AcDbArc
50
136.397180
51
-136.397180
0
LINE
5
b83
100
AcDbEntity
8
1
100
AcDbLine
6
CONTINUOUS
62
5
10
84.316465
20
38.223869
11
84.316465
21
28.423869
0
LINE
5
b84
100
AcDbEntity
8
1
100
AcDbLine
6
CONTINUOUS
62
5
10
84.126465
20
38.223869
11
84.126465
21
28.570580
0
LINE
5
b85
100
AcDbEntity
8
1
100
AcDbLine
6
CONTINUOUS
62
5
10
84.926465
20
38.323869
11
84.926465
21
28.323869
0
LINE
5
b86
100
AcDbEntity
8
1
100
AcDbLine
6
CONTINUOUS
62
5
10
83.326465
20
41.623869
11
83.326465
21
25.023869
0
LINE
5
b87
100
AcDbEntity
8
1
100
AcDbLine
6
CONTINUOUS
62
5
10
84.126465
20
41.623869
11
84.126465
21
25.023869
0
ARC
5
b88
100
AcDbEntity
8
1
100
AcDbCircle
6
CONTINUOUS
62
5
10
82.026465
20
41.723869
40
0.100000
100
AcDbArc
50
-179.999998
51
-89.999999
0
LINE
5
b89
100
AcDbEntity
8
1
100
AcDbLine
6
CONTINUOUS
62
5
10
82.026465
20
41.623869
11
95.126465
21
41.623869
0
ARC
5
b8a
100
AcDbEntity
8
1
100
AcDbCircle
6
CONTINUOUS
62
5
10
95.126465
20
41.523869
40
0.100000
100
AcDbArc
50
0.000000
51
89.999999
0
LINE
5
b8b
100
AcDbEntity
8
1
100
AcDbLine
6
CONTINUOUS
62
5
10
95.226465
20
41.523869
11
95.226465
21
37.123869
0
ARC
5
b8c
100
AcDbEntity
8
1
100
AcDbCircle
6
CONTINUOUS
62
5
10
95.126465
20
37.123869
40
0.100000
100
AcDbArc
50
-89.999999
51
-0.000000
0
LINE
5
b8d
100
AcDbEntity
8
1
100
AcDbLine
6
CONTINUOUS
62
5
10
95.126465
20
37.023869
11
94.226465
21
37.023869
0
ARC
5
b8e
100
AcDbEntity
8
1
100
AcDbCircle
6
CONTINUOUS
62
5
10
94.226465
20
36.523869
40
0.500000
100
AcDbArc
50
89.999999
51
-179.999998
0
LINE
5
b8f
100
AcDbEntity
8
1
100
AcDbLine
6
CONTINUOUS
62
5
10
93.726465
20
36.523869
11
93.726465
21
35.523869
0
ARC
5
b90
100
AcDbEntity
8
1
100
AcDbCircle
6
CONTINUOUS
62
5
10
94.226465
20
35.523869
40
0.500000
100
AcDbArc
50
179.999998
51
-89.999999
0
LINE
5
b91
100
AcDbEntity
8
1
100
AcDbLine
6
CONTINUOUS
62
5
10
94.226465
20
35.023869
11
95.126465
21
35.023869
0
ARC
5
b92
100
AcDbEntity
8
1
100
AcDbCircle
6
CONTINUOUS
62
5
10
95.126465
20
34.923869
40
0.100000
100
AcDbArc
50
0.000000
51
89.999999
0
LINE
5
b93
100
AcDbEntity
8
1
100
AcDbLine
6
CONTINUOUS
62
5
10
95.226465
20
34.923869
11
95.226465
21
31.723869
0
ARC
5
b94
100
AcDbEntity
8
1
100
AcDbCircle
6
CONTINUOUS
62
5
10
95.126465
20
31.723869
40
0.100000
100
AcDbArc
50
-89.999999
51
-0.000000
0
LINE
5
b95
100
AcDbEntity
8
1
100
AcDbLine
6
CONTINUOUS
62
5
10
95.126465
20
31.623869
11
94.226465
21
31.623869
0
ARC
5
b96
100
AcDbEntity
8
1
100
AcDbCircle
6
CONTINUOUS
62
5
10
94.226465
20
31.123869
40
0.500000
100
AcDbArc
50
89.999999
51
-179.999998
0
LINE
5
b97
100
AcDbEntity
8
1
100
AcDbLine
6
CONTINUOUS
62
5
10
93.726465
20
31.123869
11
93.726465
21
30.123869
0
ARC
5
b98
100
AcDbEntity
8
1
100
AcDbCircle
6
CONTINUOUS
62
5
10
94.226465
20
30.123869
40
0.500000
100
AcDbArc
50
-179.999998
51
-89.999999
0
LINE
5
b99
100
AcDbEntity
8
1
100
AcDbLine
6
CONTINUOUS
62
5
10
94.226465
20
29.623869
11
95.126465
21
29.623869
0
ARC
5
b9a
100
AcDbEntity
8
1
100
AcDbCircle
6
CONTINUOUS
62
5
10
95.126465
20
29.523869
40
0.100000
100
AcDbArc
50
0.000000
51
89.999999
0
LINE
5
b9b
100
AcDbEntity
8
1
100
AcDbLine
6
CONTINUOUS
62
5
10
95.226465
20
29.523869
11
95.226465
21
25.123869
0
ARC
5
b9c
100
AcDbEntity
8
1
100
AcDbCircle
6
CONTINUOUS
62
5
10
95.126465
20
25.123869
40
0.100000
100
AcDbArc
50
-89.999999
51
0.000000
0
LINE
5
b9d
100
AcDbEntity
8
1
100
AcDbLine
6
CONTINUOUS
62
5
10
95.126465
20
25.023869
11
82.026465
21
25.023869
0
ARC
5
b9e
100
AcDbEntity
8
1
100
AcDbCircle
6
CONTINUOUS
62
5
10
82.026465
20
24.923869
40
0.100000
100
AcDbArc
50
89.999999
51
179.999998
0
ARC
5
b9f
100
AcDbEntity
8
1
100
AcDbCircle
6
CONTINUOUS
62
5
10
-32.473532
20
39.523869
40
0.300000
100
AcDbArc
50
129.022797
51
-179.999998
0
LINE
5
ba0
100
AcDbEntity
8
1
100
AcDbLine
6
CONTINUOUS
62
5
10
-32.773532
20
39.523869
11
-32.773532
21
27.123869
0
ARC
5
ba1
100
AcDbEntity
8
1
100
AcDbCircle
6
CONTINUOUS
62
5
10
-32.473532
20
27.123869
40
0.300000
100
AcDbArc
50
179.999998
51
-131.810310
0
ARC
5
ba2
100
AcDbEntity
8
1
100
AcDbCircle
6
CONTINUOUS
62
5
10
-72.973532
20
29.473869
40
40.000000
100
AcDbArc
50
-2.190679
51
2.190679
0
ARC
5
ba3
100
AcDbEntity
8
1
100
AcDbCircle
6
CONTINUOUS
62
5
10
-33.102693
20
27.948682
40
0.100000
100
AcDbArc
50
-86.999999
51
-2.190679
0
LINE
5
ba4
100
AcDbEntity
8
1
100
AcDbLine
6
CONTINUOUS
62
5
10
-33.097459
20
27.848819
11
-33.478765
21
27.828836
0
ARC
5
ba5
100
AcDbEntity
8
1
100
AcDbCircle
6
CONTINUOUS
62
5
10
-33.473532
20
27.728973
40
0.100000
100
AcDbArc
50
92.999999
51
179.999998
0
LINE
5
ba6
100
AcDbEntity
8
1
100
AcDbLine
6
CONTINUOUS
62
5
10
-33.573532
20
27.728973
11
-33.573532
21
27.723869
0
LINE
5
ba7
100
AcDbEntity
8
1
100
AcDbLine
6
CONTINUOUS
62
5
10
-33.573532
20
31.223869
11
-33.573532
21
31.218765
0
ARC
5
ba8
100
AcDbEntity
8
1
100
AcDbCircle
6
CONTINUOUS
62
5
10
-33.473532
20
31.218765
40
0.100000
100
AcDbArc
50
179.999998
51
-92.999999
0
LINE
5
ba9
100
AcDbEntity
8
1
100
AcDbLine
6
CONTINUOUS
62
5
10
-33.478765
20
31.118903
11
-33.097459
21
31.098919
0
ARC
5
baa
100
AcDbEntity
8
1
100
AcDbCircle
6
CONTINUOUS
62
5
10
-33.102693
20
30.999056
40
0.100000
100
AcDbArc
50
2.190679
51
86.999999
0
POLYLINE
5
bab
100
AcDbEntity
8
1
6
CONTINUOUS
62
5
100
AcDb2dPolyline
66
1
10
0.0
20
0.0
30
0.0
70
0
0
VERTEX
5
bac
100
AcDbEntity
8
1
100
AcDbVertex
100
AcDb2dVertex
62
5
10
77.926468
20
-4.876131
0
VERTEX
5
bad
100
AcDbEntity
8
1
100
AcDbVertex
100
AcDb2dVertex
62
5
10
81.526468
20
-4.876131
0
VERTEX
5
bae
100
AcDbEntity
8
1
100
AcDbVertex
100
AcDb2dVertex
62
5
10
81.526468
20
-2.876131
0
SEQEND
5
baf
100
AcDbEntity
8
1
0
LINE
5
bb0
100
AcDbEntity
8
1
100
AcDbLine
6
CONTINUOUS
62
5
10
81.526468
20
-0.976131
11
81.526468
21
43.523869
0
POLYLINE
5
bb1
100
AcDbEntity
8
1
6
CONTINUOUS
62
5
100
AcDb2dPolyline
66
1
10
0.0
20
0.0
30
0.0
70
0
0
VERTEX
5
bb2
100
AcDbEntity
8
1
100
AcDbVertex
100
AcDb2dVertex
62
5
10
77.926468
20
43.133089
0
VERTEX
5
bb3
100
AcDbEntity
8
1
100
AcDbVertex
100
AcDb2dVertex
62
5
10
77.926468
20
41.923869
0
VERTEX
5
bb4
100
AcDbEntity
8
1
100
AcDbVertex
100
AcDb2dVertex
62
5
10
78.326468
20
41.523869
0
VERTEX
5
bb5
100
AcDbEntity
8
1
100
AcDbVertex
100
AcDb2dVertex
62
5
10
78.326468
20
35.723869
0
VERTEX
5
bb6
100
AcDbEntity
8
1
100
AcDbVertex
100
AcDb2dVertex
62
5
10
77.926468
20
35.323869
0
VERTEX
5
bb7
100
AcDbEntity
8
1
100
AcDbVertex
100
AcDb2dVertex
62
5
10
77.926468
20
35.323869
0
VERTEX
5
bb8
100
AcDbEntity
8
1
100
AcDbVertex
100
AcDb2dVertex
62
5
10
77.926468
20
35.323869
0
SEQEND
5
bb9
100
AcDbEntity
8
1
0
ARC
5
bba
100
AcDbEntity
8
1
100
AcDbCircle
6
CONTINUOUS
62
5
10
76.426468
20
40.923869
40
1.500000
100
AcDbArc
50
-0.000000
51
105.000545
0
POLYLINE
5
bbb
100
AcDbEntity
8
1
6
CONTINUOUS
62
5
100
AcDb2dPolyline
66
1
10
0.0
20
0.0
30
0.0
70
0
0
VERTEX
5
bbc
100
AcDbEntity
8
1
100
AcDbVertex
100
AcDb2dVertex
62
5
10
77.926468
20
40.923869
0
VERTEX
5
bbd
100
AcDbEntity
8
1
100
AcDbVertex
100
AcDb2dVertex
62
5
10
77.926468
20
-4.876131
0
VERTEX
5
bbe
100
AcDbEntity
8
1
100
AcDbVertex
100
AcDb2dVertex
62
5
10
75.446568
20
-4.752136
0
SEQEND
5
bbf
100
AcDbEntity
8
1
0
ARC
5
bc0
100
AcDbEntity
8
1
100
AcDbCircle
6
CONTINUOUS
62
5
10
75.526468
20
-3.154132
40
1.600000
100
AcDbArc
50
-179.999998
51
-92.862404
0
LINE
5
bc1
100
AcDbEntity
8
1
100
AcDbLine
6
CONTINUOUS
62
5
10
73.926468
20
-3.154132
11
73.926468
21
41.039569
0
ARC
5
bc2
100
AcDbEntity
8
1
100
AcDbCircle
6
CONTINUOUS
62
5
10
74.926468
20
41.039569
40
1.000000
100
AcDbArc
50
105.000545
51
-179.999998
0
LINE
5
bc3
100
AcDbEntity
8
1
100
AcDbLine
6
CONTINUOUS
62
5
10
74.667640
20
42.005493
11
76.038226
21
42.372754
0
ARC
5
bc4
100
AcDbEntity
8
1
100
AcDbCircle
6
CONTINUOUS
62
5
10
-31.823532
20
-4.376131
40
0.500000
100
AcDbArc
50
-179.999998
51
-90.000002
0
POLYLINE
5
bc5
100
AcDbEntity
8
1
6
CONTINUOUS
62
5
100
AcDb2dPolyline
66
1
10
0.0
20
0.0
30
0.0
70
0
0
VERTEX
5
bc6
100
AcDbEntity
8
1
100
AcDbVertex
100
AcDb2dVertex
62
5
10
-32.323532
20
-4.376131
0
VERTEX
5
bc7
100
AcDbEntity
8
1
100
AcDbVertex
100
AcDb2dVertex
62
5
10
-32.323532
20
38.723869
0
VERTEX
5
bc8
100
AcDbEntity
8
1
100
AcDbVertex
100
AcDb2dVertex
62
5
10
-32.117282
20
39.223869
0
VERTEX
5
bc9
100
AcDbEntity
8
1
100
AcDbVertex
100
AcDb2dVertex
62
5
10
-32.117282
20
41.923869
0
SEQEND
5
bca
100
AcDbEntity
8
1
0
ARC
5
bcb
100
AcDbEntity
8
1
100
AcDbCircle
6
CONTINUOUS
62
5
10
-31.617282
20
41.923869
40
0.500000
100
AcDbArc
50
89.999999
51
179.999998
0
POLYLINE
5
bcc
100
AcDbEntity
8
1
6
CONTINUOUS
62
5
100
AcDb2dPolyline
66
1
10
0.0
20
0.0
30
0.0
70
0
0
VERTEX
5
bcd
100
AcDbEntity
8
1
100
AcDbVertex
100
AcDb2dVertex
62
5
10
-31.617282
20
42.423869
0
VERTEX
5
bce
100
AcDbEntity
8
1
100
AcDbVertex
100
AcDb2dVertex
62
5
10
-29.373532
20
42.423869
0
VERTEX
5
bcf
100
AcDbEntity
8
1
100
AcDbVertex
100
AcDb2dVertex
62
5
10
-29.373532
20
42.235628
0
VERTEX
5
bd0
100
AcDbEntity
8
1
100
AcDbVertex
100
AcDb2dVertex
62
5
10
-23.873532
20
42.235628
0
VERTEX
5
bd1
100
AcDbEntity
8
1
100
AcDbVertex
100
AcDb2dVertex
62
5
10
-23.873532
20
42.423869
0
VERTEX
5
bd2
100
AcDbEntity
8
1
100
AcDbVertex
100
AcDb2dVertex
62
5
10
2.126468
20
42.423869
0
VERTEX
5
bd3
100
AcDbEntity
8
1
100
AcDbVertex
100
AcDb2dVertex
62
5
10
2.126468
20
42.235628
0
VERTEX
5
bd4
100
AcDbEntity
8
1
100
AcDbVertex
100
AcDb2dVertex
62
5
10
7.626468
20
42.235628
0
VERTEX
5
bd5
100
AcDbEntity
8
1
100
AcDbVertex
100
AcDb2dVertex
62
5
10
7.626468
20
42.423869
0
VERTEX
5
bd6
100
AcDbEntity
8
1
100
AcDbVertex
100
AcDb2dVertex
62
5
10
9.870218
20
42.423869
0
SEQEND
5
bd7
100
AcDbEntity
8
1
0
ARC
5
bd8
100
AcDbEntity
8
1
100
AcDbCircle
6
CONTINUOUS
62
5
10
9.870218
20
41.923869
40
0.500000
100
AcDbArc
50
-0.000000
51
89.999999
0
POLYLINE
5
bd9
100
AcDbEntity
8
1
6
CONTINUOUS
62
5
100
AcDb2dPolyline
66
1
10
0.0
20
0.0
30
0.0
70
0
0
VERTEX
5
bda
100
AcDbEntity
8
1
100
AcDbVertex
100
AcDb2dVertex
62
5
10
10.370218
20
41.923869
0
VERTEX
5
bdb
100
AcDbEntity
8
1
100
AcDbVertex
100
AcDb2dVertex
62
5
10
10.370218
20
39.223869
0
VERTEX
5
bdc
100
AcDbEntity
8
1
100
AcDbVertex
100
AcDb2dVertex
62
5
10
10.576468
20
38.723869
0
VERTEX
5
bdd
100
AcDbEntity
8
1
100
AcDbVertex
100
AcDb2dVertex
62
5
10
10.576468
20
-4.376131
0
SEQEND
5
bde
100
AcDbEntity
8
1
0
ARC
5
bdf
100
AcDbEntity
8
1
100
AcDbCircle
6
CONTINUOUS
62
5
10
10.076468
20
-4.376131
40
0.500000
100
AcDbArc
50
-89.999995
51
-0.000002
0
ARC
5
be0
100
AcDbEntity
8
1
100
AcDbCircle
6
CONTINUOUS
62
5
10
-31.273532
20
41.269469
40
0.500000
100
AcDbArc
50
89.999999
51
179.999998
0
LINE
5
be1
100
AcDbEntity
8
1
100
AcDbLine
6
CONTINUOUS
62
5
10
-31.273532
20
41.769469
11
9.526468
21
41.769469
0
ARC
5
be2
100
AcDbEntity
8
1
100
AcDbCircle
6
CONTINUOUS
62
5
10
9.526468
20
41.269469
40
0.500000
100
AcDbArc
50
0.000000
51
89.999999
0
LINE
5
be3
100
AcDbEntity
8
1
100
AcDbLine
6
CONTINUOUS
62
5
10
10.026468
20
41.269469
11
10.026468
21
-4.176131
0
ARC
5
be4
100
AcDbEntity
8
1
100
AcDbCircle
6
CONTINUOUS
62
5
10
9.526468
20
-4.176131
40
0.500000
100
AcDbArc
50
-89.999999
51
0.000000
0
LINE
5
be5
100
AcDbEntity
8
1
100
AcDbLine
6
CONTINUOUS
62
5
10
9.526468
20
-4.676131
11
-31.273532
21
-4.676131
0
ARC
5
be6
100
AcDbEntity
8
1
100
AcDbCircle
6
CONTINUOUS
62
5
10
-31.273532
20
-4.176131
40
0.500000
100
AcDbArc
50
179.999998
51
-89.999999
0
LINE
5
be7
100
AcDbEntity
8
1
100
AcDbLine
6
CONTINUOUS
62
5
10
-31.773532
20
-4.176131
11
-31.773532
21
41.269469
0
ARC
5
be8
100
AcDbEntity
8
1
100
AcDbCircle
6
CONTINUOUS
62
5
10
77.418973
20
-33.516744
40
4.810134
100
AcDbArc
50
-20.432759
51
-1.898885
0
LINE
5
be9
100
AcDbEntity
8
1
100
AcDbLine
6
CONTINUOUS
62
5
10
82.226465
20
-33.676131
11
82.226465
21
-30.676131
0
ARC
5
bea
100
AcDbEntity
8
1
100
AcDbCircle
6
CONTINUOUS
62
5
10
83.726465
20
-30.676131
40
1.500000
100
AcDbArc
50
89.999999
51
179.999998
0
LINE
5
beb
100
AcDbEntity
8
1
100
AcDbLine
6
CONTINUOUS
62
5
10
83.726465
20
-29.176131
11
90.126465
21
-29.176131
0
ARC
5
bec
100
AcDbEntity
8
1
100
AcDbCircle
6
CONTINUOUS
62
5
10
90.126465
20
-28.176131
40
1.000000
100
AcDbArc
50
-89.999999
51
-0.000000
0
LINE
5
bed
100
AcDbEntity
8
1
100
AcDbLine
6
CONTINUOUS
62
5
10
91.126465
20
-28.176131
11
91.126465
21
-25.176131
0
ARC
5
bee
100
AcDbEntity
8
1
100
AcDbCircle
6
CONTINUOUS
62
5
10
91.626465
20
-25.176131
40
0.500000
100
AcDbArc
50
89.999999
51
-179.999998
0
LINE
5
bef
100
AcDbEntity
8
1
100
AcDbLine
6
CONTINUOUS
62
5
10
91.626465
20
-24.676131
11
95.226465
21
-24.676131
0
ARC
5
bf0
100
AcDbEntity
8
1
100
AcDbCircle
6
CONTINUOUS
62
5
10
95.226465
20
-22.676131
40
2.000000
100
AcDbArc
50
-89.999999
51
-0.000000
0
LINE
5
bf1
100
AcDbEntity
8
1
100
AcDbLine
6
CONTINUOUS
62
5
10
97.226465
20
-22.676131
11
97.226465
21
43.323869
0
ARC
5
bf2
100
AcDbEntity
8
1
100
AcDbCircle
6
CONTINUOUS
62
5
10
95.226465
20
43.323869
40
2.000000
100
AcDbArc
50
0.000000
51
89.999999
0
LINE
5
bf3
100
AcDbEntity
8
1
100
AcDbLine
6
CONTINUOUS
62
5
10
95.226465
20
45.323869
11
91.626465
21
45.323869
0
ARC
5
bf4
100
AcDbEntity
8
1
100
AcDbCircle
6
CONTINUOUS
62
5
10
91.626465
20
45.823869
40
0.500000
100
AcDbArc
50
179.999998
51
-89.999999
0
LINE
5
bf5
100
AcDbEntity
8
1
100
AcDbLine
6
CONTINUOUS
62
5
10
91.126465
20
45.823869
11
91.126465
21
48.823869
0
ARC
5
bf6
100
AcDbEntity
8
1
100
AcDbCircle
6
CONTINUOUS
62
5
10
90.126465
20
48.823869
40
1.000000
100
AcDbArc
50
0.000000
51
89.999999
0
LINE
5
bf7
100
AcDbEntity
8
1
100
AcDbLine
6
CONTINUOUS
62
5
10
90.126465
20
49.823869
11
83.726465
21
49.823869
0
ARC
5
bf8
100
AcDbEntity
8
1
100
AcDbCircle
6
CONTINUOUS
62
5
10
83.726465
20
51.323869
40
1.500000
100
AcDbArc
50
179.999998
51
-89.999999
0
LINE
5
bf9
100
AcDbEntity
8
1
100
AcDbLine
6
CONTINUOUS
62
5
10
82.226465
20
51.323869
11
82.226465
21
54.323869
0
ARC
5
bfa
100
AcDbEntity
8
1
100
AcDbCircle
6
CONTINUOUS
62
5
10
77.418973
20
54.164482
40
4.810134
100
AcDbArc
50
1.898885
51
20.432759
0
ARC
5
bfb
100
AcDbEntity
8
1
100
AcDbCircle
6
CONTINUOUS
62
5
10
82.026465
20
-35.576131
40
0.100000
100
AcDbArc
50
179.999998
51
-89.999999
0
LINE
5
bfc
100
AcDbEntity
8
1
100
AcDbLine
6
CONTINUOUS
62
5
10
81.926465
20
-35.576131
11
81.926465
21
56.223869
0
ARC
5
bfd
100
AcDbEntity
8
1
100
AcDbCircle
6
CONTINUOUS
62
5
10
82.026465
20
56.223869
40
0.100000
100
AcDbArc
50
89.999999
51
179.999998
0
LINE
5
bfe
100
AcDbEntity
8
1
100
AcDbLine
6
CONTINUOUS
62
5
10
82.026465
20
56.323869
11
84.126465
21
56.323869
0
LINE
5
bff
100
AcDbEntity
8
1
100
AcDbLine
6
CONTINUOUS
62
5
10
84.126465
20
-35.676131
11
82.026465
21
-35.676131
0
ARC
5
c00
100
AcDbEntity
8
1
100
AcDbCircle
6
CONTINUOUS
62
5
10
10.426468
20
-4.376131
40
0.500000
100
AcDbArc
50
-89.999999
51
0.000000
0
LINE
5
c01
100
AcDbEntity
8
1
100
AcDbLine
6
CONTINUOUS
62
5
10
10.426468
20
-4.876131
11
-32.173532
21
-4.876131
0
ARC
5
c02
100
AcDbEntity
8
1
100
AcDbCircle
6
CONTINUOUS
62
5
10
-32.173532
20
-4.376131
40
0.500000
100
AcDbArc
50
179.999998
51
-89.999999
0
POLYLINE
5
c03
100
AcDbEntity
8
1
6
CONTINUOUS
62
5
100
AcDb2dPolyline
66
1
10
0.0
20
0.0
30
0.0
70
0
0
VERTEX
5
c04
100
AcDbEntity
8
1
100
AcDbVertex
100
AcDb2dVertex
62
5
10
-32.673532
20
-4.376131
0
VERTEX
5
c05
100
AcDbEntity
8
1
100
AcDbVertex
100
AcDb2dVertex
62
5
10
-32.673532
20
35.323869
0
VERTEX
5
c06
100
AcDbEntity
8
1
100
AcDbVertex
100
AcDb2dVertex
62
5
10
-32.662421
20
35.723869
0
VERTEX
5
c07
100
AcDbEntity
8
1
100
AcDbVertex
100
AcDb2dVertex
62
5
10
-32.662421
20
41.523869
0
VERTEX
5
c08
100
AcDbEntity
8
1
100
AcDbVertex
100
AcDb2dVertex
62
5
10
-32.673532
20
41.923869
0
VERTEX
5
c09
100
AcDbEntity
8
1
100
AcDbVertex
100
AcDb2dVertex
62
5
10
-32.673532
20
55.723869
0
SEQEND
5
c0a
100
AcDbEntity
8
1
0
ARC
5
c0b
100
AcDbEntity
8
1
100
AcDbCircle
6
CONTINUOUS
62
5
10
-32.173532
20
55.723869
40
0.500000
100
AcDbArc
50
89.999999
51
179.999998
0
LINE
5
c0c
100
AcDbEntity
8
1
100
AcDbLine
6
CONTINUOUS
62
5
10
-32.173532
20
56.223869
11
10.426468
21
56.223869
0
ARC
5
c0d
100
AcDbEntity
8
1
100
AcDbCircle
6
CONTINUOUS
62
5
10
10.426468
20
55.723869
40
0.500000
100
AcDbArc
50
0.000000
51
89.999999
0
POLYLINE
5
c0e
100
AcDbEntity
8
1
6
CONTINUOUS
62
5
100
AcDb2dPolyline
66
1
10
0.0
20
0.0
30
0.0
70
0
0
VERTEX
5
c0f
100
AcDbEntity
8
1
100
AcDbVertex
100
AcDb2dVertex
62
5
10
10.926468
20
55.723869
0
VERTEX
5
c10
100
AcDbEntity
8
1
100
AcDbVertex
100
AcDb2dVertex
62
5
10
10.926468
20
41.923869
0
VERTEX
5
c11
100
AcDbEntity
8
1
100
AcDbVertex
100
AcDb2dVertex
62
5
10
10.915357
20
41.523869
0
VERTEX
5
c12
100
AcDbEntity
8
1
100
AcDbVertex
100
AcDb2dVertex
62
5
10
10.915357
20
35.723869
0
VERTEX
5
c13
100
AcDbEntity
8
1
100
AcDbVertex
100
AcDb2dVertex
62
5
10
10.926468
20
35.323869
0
VERTEX
5
c14
100
AcDbEntity
8
1
100
AcDbVertex
100
AcDb2dVertex
62
5
10
10.926468
20
35.323869
0
VERTEX
5
c15
100
AcDbEntity
8
1
100
AcDbVertex
100
AcDb2dVertex
62
5
10
10.926468
20
-4.376131
0
SEQEND
5
c16
100
AcDbEntity
8
1
0
LINE
5
c17
100
AcDbEntity
8
1
100
AcDbLine
6
CONTINUOUS
62
5
10
-30.088443
20
56.323869
11
-30.088443
21
56.223869
0
LINE
5
c18
100
AcDbEntity
8
1
100
AcDbLine
6
CONTINUOUS
62
5
10
-30.088443
20
-4.876131
11
-30.088443
21
-5.076146
0
LINE
5
c19
100
AcDbEntity
8
1
100
AcDbLine
6
CONTINUOUS
62
5
10
8.541379
20
56.323869
11
8.541379
21
56.223869
0
LINE
5
c1a
100
AcDbEntity
8
1
100
AcDbLine
6
CONTINUOUS
62
5
10
8.541379
20
-4.876131
11
8.541379
21
-5.076146
0
ARC
5
c1b
100
AcDbEntity
8
1
100
AcDbCircle
6
CONTINUOUS
62
5
10
9.626468
20
-33.676131
40
2.000000
100
AcDbArc
50
-89.999999
51
-71.806517
0
LINE
5
c1c
100
AcDbEntity
8
1
100
AcDbLine
6
CONTINUOUS
62
5
10
10.907699
20
-35.211855
11
10.907699
21
-35.211855
0
ARC
5
c1d
100
AcDbEntity
8
1
100
AcDbCircle
6
CONTINUOUS
62
5
10
9.626468
20
-33.676131
40
2.000000
100
AcDbArc
50
-50.162273
51
-0.000000
0
LINE
5
c1e
100
AcDbEntity
8
1
100
AcDbLine
6
CONTINUOUS
62
5
10
11.626468
20
-33.676131
11
11.626468
21
-30.676131
0
ARC
5
c1f
100
AcDbEntity
8
1
100
AcDbCircle
6
CONTINUOUS
62
5
10
10.326568
20
-29.156177
40
2.000000
100
AcDbArc
50
-49.462150
51
-0.571637
0
POLYLINE
5
c20
100
AcDbEntity
8
1
6
CONTINUOUS
62
5
100
AcDb2dPolyline
66
1
10
0.0
20
0.0
30
0.0
70
0
0
VERTEX
5
c21
100
AcDbEntity
8
1
100
AcDbVertex
100
AcDb2dVertex
62
5
10
12.326468
20
-29.176131
0
VERTEX
5
c22
100
AcDbEntity
8
1
100
AcDbVertex
100
AcDb2dVertex
62
5
10
12.326468
20
-25.426131
0
VERTEX
5
c23
100
AcDbEntity
8
1
100
AcDbVertex
100
AcDb2dVertex
62
5
10
12.026468
20
-25.176131
0
VERTEX
5
c24
100
AcDbEntity
8
1
100
AcDbVertex
100
AcDb2dVertex
62
5
10
12.326468
20
-24.926131
0
VERTEX
5
c25
100
AcDbEntity
8
1
100
AcDbVertex
100
AcDb2dVertex
62
5
10
12.326468
20
45.573869
0
VERTEX
5
c26
100
AcDbEntity
8
1
100
AcDbVertex
100
AcDb2dVertex
62
5
10
12.026468
20
45.823869
0
VERTEX
5
c27
100
AcDbEntity
8
1
100
AcDbVertex
100
AcDb2dVertex
62
5
10
12.326468
20
46.073869
0
VERTEX
5
c28
100
AcDbEntity
8
1
100
AcDbVertex
100
AcDb2dVertex
62
5
10
12.326468
20
49.823869
0
SEQEND
5
c29
100
AcDbEntity
8
1
0
ARC
5
c2a
100
AcDbEntity
8
1
100
AcDbCircle
6
CONTINUOUS
62
5
10
10.326568
20
49.803915
40
2.000000
100
AcDbArc
50
0.571637
51
49.462150
0
LINE
5
c2b
100
AcDbEntity
8
1
100
AcDbLine
6
CONTINUOUS
62
5
10
11.626468
20
51.323869
11
11.626468
21
54.323869
0
ARC
5
c2c
100
AcDbEntity
8
1
100
AcDbCircle
6
CONTINUOUS
62
5
10
9.626468
20
54.323869
40
2.000000
100
AcDbArc
50
-0.000000
51
50.162480
0
LINE
5
c2d
100
AcDbEntity
8
1
100
AcDbLine
6
CONTINUOUS
62
5
10
10.907693
20
55.859597
11
10.907693
21
55.859597
0
LINE
5
c2e
100
AcDbEntity
8
1
100
AcDbLine
6
CONTINUOUS
62
5
10
10.250968
20
56.223869
11
10.250968
21
56.223869
0
ARC
5
c2f
100
AcDbEntity
8
1
100
AcDbCircle
6
CONTINUOUS
62
5
10
9.626468
20
54.323869
40
2.000000
100
AcDbArc
50
71.805125
51
89.999999
0
LINE
5
c30
100
AcDbEntity
8
1
100
AcDbLine
6
CONTINUOUS
62
5
10
9.626468
20
56.323869
11
7.026468
21
56.323869
0
ARC
5
c31
100
AcDbEntity
8
1
100
AcDbCircle
6
CONTINUOUS
62
5
10
7.026468
20
56.823869
40
0.500000
100
AcDbArc
50
179.999998
51
-89.999999
0
LINE
5
c32
100
AcDbEntity
8
1
100
AcDbLine
6
CONTINUOUS
62
5
10
6.526468
20
56.823869
11
6.526468
21
60.823869
0
ARC
5
c33
100
AcDbEntity
8
1
100
AcDbCircle
6
CONTINUOUS
62
5
10
7.026468
20
60.823869
40
0.500000
100
AcDbArc
50
89.999999
51
-179.999998
0
LINE
5
c34
100
AcDbEntity
8
1
100
AcDbLine
6
CONTINUOUS
62
5
10
7.026468
20
61.323869
11
8.826468
21
61.323869
0
ARC
5
c35
100
AcDbEntity
8
1
100
AcDbCircle
6
CONTINUOUS
62
5
10
8.826468
20
61.823869
40
0.500000
100
AcDbArc
50
-89.999999
51
-0.000000
0
LINE
5
c36
100
AcDbEntity
8
1
100
AcDbLine
6
CONTINUOUS
62
5
10
9.326468
20
61.823869
11
9.326468
21
63.073869
0
ARC
5
c37
100
AcDbEntity
8
1
100
AcDbCircle
6
CONTINUOUS
62
5
10
9.826468
20
63.073869
40
0.500000
100
AcDbArc
50
89.999999
51
179.999998
0
LINE
5
c38
100
AcDbEntity
8
1
100
AcDbLine
6
CONTINUOUS
62
5
10
9.826468
20
63.573869
11
14.426468
21
63.573869
0
ARC
5
c39
100
AcDbEntity
8
1
100
AcDbCircle
6
CONTINUOUS
62
5
10
14.426468
20
64.073869
40
0.500000
100
AcDbArc
50
-89.999999
51
0.000000
0
LINE
5
c3a
100
AcDbEntity
8
1
100
AcDbLine
6
CONTINUOUS
62
5
10
14.926468
20
64.073869
11
14.926468
21
65.823869
0
ARC
5
c3b
100
AcDbEntity
8
1
100
AcDbCircle
6
CONTINUOUS
62
5
10
14.426468
20
65.823869
40
0.500000
100
AcDbArc
50
0.000000
51
89.999999
0
POLYLINE
5
c3c
100
AcDbEntity
8
1
6
CONTINUOUS
62
5
100
AcDb2dPolyline
66
1
10
0.0
20
0.0
30
0.0
70
0
0
VERTEX
5
c3d
100
AcDbEntity
8
1
100
AcDbVertex
100
AcDb2dVertex
62
5
10
14.426468
20
66.323869
0
VERTEX
5
c3e
100
AcDbEntity
8
1
100
AcDbVertex
100
AcDb2dVertex
62
5
10
-4.873532
20
66.323869
0
VERTEX
5
c3f
100
AcDbEntity
8
1
100
AcDbVertex
100
AcDb2dVertex
62
5
10
-4.873532
20
64.573853
0
SEQEND
5
c40
100
AcDbEntity
8
1
0
ARC
5
c41
100
AcDbEntity
8
1
100
AcDbCircle
6
CONTINUOUS
62
5
10
-5.373532
20
64.573853
40
0.500000
100
AcDbArc
50
-89.999999
51
-0.000000
0
LINE
5
c42
100
AcDbEntity
8
1
100
AcDbLine
6
CONTINUOUS
62
5
10
-5.373532
20
64.073853
11
-16.373532
21
64.073853
0
ARC
5
c43
100
AcDbEntity
8
1
100
AcDbCircle
6
CONTINUOUS
62
5
10
-16.373532
20
64.573853
40
0.500000
100
AcDbArc
50
-179.999998
51
-89.999999
0
POLYLINE
5
c44
100
AcDbEntity
8
1
6
CONTINUOUS
62
5
100
AcDb2dPolyline
66
1
10
0.0
20
0.0
30
0.0
70
0
0
VERTEX
5
c45
100
AcDbEntity
8
1
100
AcDbVertex
100
AcDb2dVertex
62
5
10
-16.873532
20
64.573853
0
VERTEX
5
c46
100
AcDbEntity
8
1
100
AcDbVertex
100
AcDb2dVertex
62
5
10
-16.873532
20
66.323869
0
VERTEX
5
c47
100
AcDbEntity
8
1
100
AcDbVertex
100
AcDb2dVertex
62
5
10
-30.573532
20
66.323869
0
SEQEND
5
c48
100
AcDbEntity
8
1
0
ARC
5
c49
100
AcDbEntity
8
1
100
AcDbCircle
6
CONTINUOUS
62
5
10
-30.573532
20
65.823869
40
0.500000
100
AcDbArc
50
89.999999
51
179.999998
0
LINE
5
c4a
100
AcDbEntity
8
1
100
AcDbLine
6
CONTINUOUS
62
5
10
-31.073532
20
65.823869
11
-31.073532
21
63.773869
0
ARC
5
c4b
100
AcDbEntity
8
1
100
AcDbCircle
6
CONTINUOUS
62
5
10
-31.373532
20
63.773869
40
0.300000
100
AcDbArc
50
-89.999999
51
-0.000000
0
LINE
5
c4c
100
AcDbEntity
8
1
100
AcDbLine
6
CONTINUOUS
62
5
10
-31.373532
20
63.473869
11
-31.373532
21
61.823869
0
ARC
5
c4d
100
AcDbEntity
8
1
100
AcDbCircle
6
CONTINUOUS
62
5
10
-30.873532
20
61.823869
40
0.500000
100
AcDbArc
50
-179.999998
51
-89.999999
0
LINE
5
c4e
100
AcDbEntity
8
1
100
AcDbLine
6
CONTINUOUS
62
5
10
-30.873532
20
61.323869
11
-28.773532
21
61.323869
0
ARC
5
c4f
100
AcDbEntity
8
1
100
AcDbCircle
6
CONTINUOUS
62
5
10
-28.773532
20
60.823869
40
0.500000
100
AcDbArc
50
0.000000
51
89.999999
0
LINE
5
c50
100
AcDbEntity
8
1
100
AcDbLine
6
CONTINUOUS
62
5
10
-28.273532
20
60.823869
11
-28.273532
21
56.823869
0
ARC
5
c51
100
AcDbEntity
8
1
100
AcDbCircle
6
CONTINUOUS
62
5
10
-28.773532
20
56.823869
40
0.500000
100
AcDbArc
50
-89.999999
51
-0.000000
0
LINE
5
c52
100
AcDbEntity
8
1
100
AcDbLine
6
CONTINUOUS
62
5
10
-28.773532
20
56.323869
11
-30.873532
21
56.323869
0
ARC
5
c53
100
AcDbEntity
8
1
100
AcDbCircle
6
CONTINUOUS
62
5
10
-30.873532
20
54.323869
40
2.000000
100
AcDbArc
50
89.999999
51
108.194873
0
LINE
5
c54
100
AcDbEntity
8
1
100
AcDbLine
6
CONTINUOUS
62
5
10
-32.673532
20
55.195649
11
-32.673532
21
55.195649
0
ARC
5
c55
100
AcDbEntity
8
1
100
AcDbCircle
6
CONTINUOUS
62
5
10
-30.873532
20
54.323869
40
2.000000
100
AcDbArc
50
154.158065
51
179.999998
0
LINE
5
c56
100
AcDbEntity
8
1
100
AcDbLine
6
CONTINUOUS
62
5
10
-32.873532
20
54.323869
11
-32.873532
21
51.323869
0
ARC
5
c57
100
AcDbEntity
8
1
100
AcDbCircle
6
CONTINUOUS
62
5
10
-31.573631
20
49.803915
40
2.000000
100
AcDbArc
50
130.537848
51
179.428362
0
POLYLINE
5
c58
100
AcDbEntity
8
1
6
CONTINUOUS
62
5
100
AcDb2dPolyline
66
1
10
0.0
20
0.0
30
0.0
70
0
0
VERTEX
5
c59
100
AcDbEntity
8
1
100
AcDbVertex
100
AcDb2dVertex
62
5
10
-33.573532
20
49.823869
0
VERTEX
5
c5a
100
AcDbEntity
8
1
100
AcDbVertex
100
AcDb2dVertex
62
5
10
-33.573532
20
46.073869
0
VERTEX
5
c5b
100
AcDbEntity
8
1
100
AcDbVertex
100
AcDb2dVertex
62
5
10
-33.373532
20
45.907202
0
SEQEND
5
c5c
100
AcDbEntity
8
1
0
POLYLINE
5
c5d
100
AcDbEntity
8
1
6
CONTINUOUS
62
5
100
AcDb2dPolyline
66
1
10
0.0
20
0.0
30
0.0
70
0
0
VERTEX
5
c5e
100
AcDbEntity
8
1
100
AcDbVertex
100
AcDb2dVertex
62
5
10
-33.373532
20
45.740536
0
VERTEX
5
c5f
100
AcDbEntity
8
1
100
AcDbVertex
100
AcDb2dVertex
62
5
10
-33.573532
20
45.573869
0
VERTEX
5
c60
100
AcDbEntity
8
1
100
AcDbVertex
100
AcDb2dVertex
62
5
10
-33.573532
20
38.918765
0
SEQEND
5
c61
100
AcDbEntity
8
1
0
POLYLINE
5
c62
100
AcDbEntity
8
1
6
CONTINUOUS
62
5
100
AcDb2dPolyline
66
1
10
0.0
20
0.0
30
0.0
70
0
0
VERTEX
5
c63
100
AcDbEntity
8
1
100
AcDbVertex
100
AcDb2dVertex
62
5
10
-33.573532
20
-18.271027
0
VERTEX
5
c64
100
AcDbEntity
8
1
100
AcDbVertex
100
AcDb2dVertex
62
5
10
-33.573532
20
-24.926131
0
VERTEX
5
c65
100
AcDbEntity
8
1
100
AcDbVertex
100
AcDb2dVertex
62
5
10
-33.373532
20
-25.092798
0
SEQEND
5
c66
100
AcDbEntity
8
1
0
POLYLINE
5
c67
100
AcDbEntity
8
1
6
CONTINUOUS
62
5
100
AcDb2dPolyline
66
1
10
0.0
20
0.0
30
0.0
70
0
0
VERTEX
5
c68
100
AcDbEntity
8
1
100
AcDbVertex
100
AcDb2dVertex
62
5
10
-33.373532
20
-25.259464
0
VERTEX
5
c69
100
AcDbEntity
8
1
100
AcDbVertex
100
AcDb2dVertex
62
5
10
-33.573532
20
-25.426131
0
VERTEX
5
c6a
100
AcDbEntity
8
1
100
AcDbVertex
100
AcDb2dVertex
62
5
10
-33.573532
20
-29.176131
0
SEQEND
5
c6b
100
AcDbEntity
8
1
0
ARC
5
c6c
100
AcDbEntity
8
1
100
AcDbCircle
6
CONTINUOUS
62
5
10
-31.573631
20
-29.156177
40
2.000000
100
AcDbArc
50
-179.428362
51
-130.537848
0
LINE
5
c6d
100
AcDbEntity
8
1
100
AcDbLine
6
CONTINUOUS
62
5
10
-32.873532
20
-30.676131
11
-32.873532
21
-33.676131
0
ARC
5
c6e
100
AcDbEntity
8
1
100
AcDbCircle
6
CONTINUOUS
62
5
10
-30.873532
20
-33.676131
40
2.000000
100
AcDbArc
50
179.999998
51
-170.931276
0
LINE
5
c6f
100
AcDbEntity
8
1
100
AcDbLine
6
CONTINUOUS
62
5
10
-32.848532
20
-33.991369
11
-32.673532
21
-34.196720
0
LINE
5
c70
100
AcDbEntity
8
1
100
AcDbLine
6
CONTINUOUS
62
5
10
-31.497986
20
-35.576146
11
-31.497986
21
-35.576146
0
ARC
5
c71
100
AcDbEntity
8
1
100
AcDbCircle
6
CONTINUOUS
62
5
10
-30.873532
20
-33.676131
40
2.000000
100
AcDbArc
50
-108.193481
51
-89.999999
0
LINE
5
c72
100
AcDbEntity
8
1
100
AcDbLine
6
CONTINUOUS
62
5
10
-30.873532
20
-35.676131
11
-30.173532
21
-35.676131
0
LINE
5
c73
100
AcDbEntity
8
1
100
AcDbLine
6
CONTINUOUS
62
5
10
-29.373532
20
-35.676131
11
-28.773532
21
-35.676131
0
ARC
5
c74
100
AcDbEntity
8
1
100
AcDbCircle
6
CONTINUOUS
62
5
10
-28.782782
20
-36.185381
40
0.509334
100
AcDbArc
50
1.040587
51
88.959412
0
LINE
5
c75
100
AcDbEntity
8
1
100
AcDbLine
6
CONTINUOUS
62
5
10
-28.273532
20
-36.176131
11
-28.273532
21
-40.176131
0
ARC
5
c76
100
AcDbEntity
8
1
100
AcDbCircle
6
CONTINUOUS
62
5
10
-28.773532
20
-40.176131
40
0.500000
100
AcDbArc
50
-89.999999
51
0.000000
0
LINE
5
c77
100
AcDbEntity
8
1
100
AcDbLine
6
CONTINUOUS
62
5
10
-28.773532
20
-40.676131
11
-30.873532
21
-40.676131
0
ARC
5
c78
100
AcDbEntity
8
1
100
AcDbCircle
6
CONTINUOUS
62
5
10
-30.873532
20
-41.176131
40
0.500000
100
AcDbArc
50
89.999999
51
179.999998
0
LINE
5
c79
100
AcDbEntity
8
1
100
AcDbLine
6
CONTINUOUS
62
5
10
-31.373532
20
-41.176131
11
-31.373532
21
-42.826131
0
ARC
5
c7a
100
AcDbEntity
8
1
100
AcDbCircle
6
CONTINUOUS
62
5
10
-31.373532
20
-43.126131
40
0.300000
100
AcDbArc
50
0.000000
51
89.999999
0
LINE
5
c7b
100
AcDbEntity
8
1
100
AcDbLine
6
CONTINUOUS
62
5
10
-31.073532
20
-43.126131
11
-31.073532
21
-45.176131
0
ARC
5
c7c
100
AcDbEntity
8
1
100
AcDbCircle
6
CONTINUOUS
62
5
10
-30.573532
20
-45.176131
40
0.500000
100
AcDbArc
50
-179.999998
51
-89.999999
0
POLYLINE
5
c7d
100
AcDbEntity
8
1
6
CONTINUOUS
62
5
100
AcDb2dPolyline
66
1
10
0.0
20
0.0
30
0.0
70
0
0
VERTEX
5
c7e
100
AcDbEntity
8
1
100
AcDbVertex
100
AcDb2dVertex
62
5
10
-30.573532
20
-45.676131
0
VERTEX
5
c7f
100
AcDbEntity
8
1
100
AcDbVertex
100
AcDb2dVertex
62
5
10
-16.873532
20
-45.676131
0
VERTEX
5
c80
100
AcDbEntity
8
1
100
AcDbVertex
100
AcDb2dVertex
62
5
10
-16.873532
20
-43.926115
0
SEQEND
5
c81
100
AcDbEntity
8
1
0
ARC
5
c82
100
AcDbEntity
8
1
100
AcDbCircle
6
CONTINUOUS
62
5
10
-16.373532
20
-43.926115
40
0.500000
100
AcDbArc
50
89.999999
51
179.999998
0
LINE
5
c83
100
AcDbEntity
8
1
100
AcDbLine
6
CONTINUOUS
62
5
10
-16.373532
20
-43.426115
11
-5.373532
21
-43.426115
0
ARC
5
c84
100
AcDbEntity
8
1
100
AcDbCircle
6
CONTINUOUS
62
5
10
-5.373532
20
-43.926115
40
0.500000
100
AcDbArc
50
-0.000000
51
89.999999
0
POLYLINE
5
c85
100
AcDbEntity
8
1
6
CONTINUOUS
62
5
100
AcDb2dPolyline
66
1
10
0.0
20
0.0
30
0.0
70
0
0
VERTEX
5
c86
100
AcDbEntity
8
1
100
AcDbVertex
100
AcDb2dVertex
62
5
10
-4.873532
20
-43.926115
0
VERTEX
5
c87
100
AcDbEntity
8
1
100
AcDbVertex
100
AcDb2dVertex
62
5
10
-4.873532
20
-45.676131
0
VERTEX
5
c88
100
AcDbEntity
8
1
100
AcDbVertex
100
AcDb2dVertex
62
5
10
14.426468
20
-45.676131
0
SEQEND
5
c89
100
AcDbEntity
8
1
0
ARC
5
c8a
100
AcDbEntity
8
1
100
AcDbCircle
6
CONTINUOUS
62
5
10
14.426468
20
-45.176131
40
0.500000
100
AcDbArc
50
-89.999999
51
0.000000
0
LINE
5
c8b
100
AcDbEntity
8
1
100
AcDbLine
6
CONTINUOUS
62
5
10
14.926468
20
-45.176131
11
14.926468
21
-43.426131
0
ARC
5
c8c
100
AcDbEntity
8
1
100
AcDbCircle
6
CONTINUOUS
62
5
10
14.426468
20
-43.426131
40
0.500000
100
AcDbArc
50
0.000000
51
89.999999
0
LINE
5
c8d
100
AcDbEntity
8
1
100
AcDbLine
6
CONTINUOUS
62
5
10
14.426468
20
-42.926131
11
9.826468
21
-42.926131
0
ARC
5
c8e
100
AcDbEntity
8
1
100
AcDbCircle
6
CONTINUOUS
62
5
10
9.826468
20
-42.426131
40
0.500000
100
AcDbArc
50
179.999998
51
-89.999999
0
LINE
5
c8f
100
AcDbEntity
8
1
100
AcDbLine
6
CONTINUOUS
62
5
10
9.326468
20
-42.426131
11
9.326468
21
-41.176131
0
ARC
5
c90
100
AcDbEntity
8
1
100
AcDbCircle
6
CONTINUOUS
62
5
10
8.826468
20
-41.176131
40
0.500000
100
AcDbArc
50
0.000000
51
89.999999
0
LINE
5
c91
100
AcDbEntity
8
1
100
AcDbLine
6
CONTINUOUS
62
5
10
8.826468
20
-40.676131
11
7.026468
21
-40.676131
0
ARC
5
c92
100
AcDbEntity
8
1
100
AcDbCircle
6
CONTINUOUS
62
5
10
7.026468
20
-40.176131
40
0.500000
100
AcDbArc
50
-179.999998
51
-89.999999
0
LINE
5
c93
100
AcDbEntity
8
1
100
AcDbLine
6
CONTINUOUS
62
5
10
6.526468
20
-40.176131
11
6.526468
21
-36.176131
0
ARC
5
c94
100
AcDbEntity
8
1
100
AcDbCircle
6
CONTINUOUS
62
5
10
7.026468
20
-36.176131
40
0.500000
100
AcDbArc
50
89.999999
51
-179.999998
0
LINE
5
c95
100
AcDbEntity
8
1
100
AcDbLine
6
CONTINUOUS
62
5
10
7.026468
20
-35.676131
11
7.626468
21
-35.676131
0
LINE
5
c96
100
AcDbEntity
8
1
100
AcDbLine
6
CONTINUOUS
62
5
10
8.426468
20
-35.676131
11
9.626468
21
-35.676131
0
ARC
5
c97
100
AcDbEntity
8
1
100
AcDbCircle
6
CONTINUOUS
62
5
10
-28.923532
20
-35.576131
40
0.100000
100
AcDbArc
50
-89.999999
51
-0.000000
0
ARC
5
c98
100
AcDbEntity
8
1
100
AcDbCircle
6
CONTINUOUS
62
5
10
-28.923532
20
56.223869
40
0.100000
100
AcDbArc
50
-0.000000
51
89.999999
0
LINE
5
c99
100
AcDbEntity
8
1
100
AcDbLine
6
CONTINUOUS
62
5
10
-28.823532
20
56.223869
11
-28.823532
21
56.223869
0
LINE
5
c9a
100
AcDbEntity
8
1
100
AcDbLine
6
CONTINUOUS
62
5
10
-28.823532
20
-4.876131
11
-28.823532
21
-5.076146
0
LINE
5
c9b
100
AcDbEntity
8
1
100
AcDbLine
6
CONTINUOUS
62
5
10
-28.823532
20
-35.576146
11
-28.823532
21
-35.576131
0
ARC
5
c9c
100
AcDbEntity
8
1
100
AcDbCircle
6
CONTINUOUS
62
5
10
7.376468
20
-35.576131
40
0.100000
100
AcDbArc
50
-179.999998
51
-89.999999
0
ARC
5
c9d
100
AcDbEntity
8
1
100
AcDbCircle
6
CONTINUOUS
62
5
10
7.376468
20
56.223869
40
0.100000
100
AcDbArc
50
89.999999
51
-179.999998
0
LINE
5
c9e
100
AcDbEntity
8
1
100
AcDbLine
6
CONTINUOUS
62
5
10
7.276468
20
56.223869
11
7.276468
21
56.223869
0
LINE
5
c9f
100
AcDbEntity
8
1
100
AcDbLine
6
CONTINUOUS
62
5
10
7.276468
20
-4.876131
11
7.276468
21
-5.076146
0
LINE
5
ca0
100
AcDbEntity
8
1
100
AcDbLine
6
CONTINUOUS
62
5
10
7.276468
20
-35.576146
11
7.276468
21
-35.576131
0
POLYLINE
5
ca1
100
AcDbEntity
8
1
6
CONTINUOUS
62
5
100
AcDb2dPolyline
66
1
10
0.0
20
0.0
30
0.0
70
1
0
VERTEX
5
ca2
100
AcDbEntity
8
1
100
AcDbVertex
100
AcDb2dVertex
62
5
10
-121.473532
20
-139.676131
0
VERTEX
5
ca3
100
AcDbEntity
8
1
100
AcDbVertex
100
AcDb2dVertex
62
5
10
-121.473532
20
200.323869
0
VERTEX
5
ca4
100
AcDbEntity
8
1
100
AcDbVertex
100
AcDb2dVertex
62
5
10
198.526468
20
200.323869
0
VERTEX
5
ca5
100
AcDbEntity
8
1
100
AcDbVertex
100
AcDb2dVertex
62
5
10
198.526468
20
-139.676131
0
VERTEX
5
ca6
100
AcDbEntity
8
1
100
AcDbVertex
100
AcDb2dVertex
62
5
10
-121.473532
20
-139.676131
0
SEQEND
5
ca7
100
AcDbEntity
8
1
0
ENDSEC
0
SECTION
2
OBJECTS
0
DICTIONARY
5
ca8
100
AcDbDictionary
3
ACAD_GROUP
350
ca9
3
ACAD_MLINESTYLE
350
caa
0
DICTIONARY
5
ca9
102
{ACAD_REACTORS
330
ca8
102
}
100
AcDbDictionary
0
DICTIONARY
5
caa
102
{ACAD_REACTORS
330
ca8
102
}
100
AcDbDictionary
3
STANDARD
350
cab
0
MLINESTYLE
5
cab
102
{ACAD_REACTORS
330
caa
102
}
100
AcDbMlineStyle
2
STANDARD
70
0
3

62
0
51
90.0
52
90.0
71
2
49
0.5
62
256
6
BYLAYER
49
-0.5
62
256
6
BYLAYER
0
ENDSEC
0
EOF
