0
SECTION
2
HEADER
9
$ACADVER
1
AC1012
9
$EXTMIN
10
-0.013701
20
-0.013701
30
0.0
9
$EXTMAX
10
12.606299
20
13.386299
30
0.0
9
$LIMMIN
10
-0.348005
20
-0.348005
9
$LIMMAX
10
320.199995
20
340.011995
9
$DIMSCALE
40
1.000000
9
$PDMODE
70
2
9
$PDSIZE
40
0.0
  9
$HANDSEED
  5
8f3
0
ENDSEC
0
SECTION
2
CLASSES
0
ENDSEC
0
SECTION
2
TABLES
0
TABLE
2
LTYPE
5
1e
100
AcDbSymbolTable
70
12
0
LTYPE
5
1f
100
AcDbSymbolTableRecord
100
AcDbLinetypeTableRecord
2
BYBLOCK
70
0
3

72
65
73
0
40
0.0
0
LTYPE
5
20
100
AcDbSymbolTableRecord
100
AcDbLinetypeTableRecord
2
BYLAYER
70
0
3

72
65
73
0
40
0.0
0
LTYPE
5
21
100
AcDbSymbolTableRecord
100
AcDbLinetypeTableRecord
2
CONTINUOUS
70
64
3
Solid line
72
65
73
0
40
0.0
0
LTYPE
5
22
100
AcDbSymbolTableRecord
100
AcDbLinetypeTableRecord
2
DASHED
70
64
3
__ __ __ __ __ __ __ __ __ __ __ __ __ __ __
72
65
73
2
40
0.75
49
0.5
74
0
49
-0.25
74
0
0
LTYPE
5
23
100
AcDbSymbolTableRecord
100
AcDbLinetypeTableRecord
2
DOT
70
64
3
...............................................
72
65
73
2
40
0.25
49
0.0
74
0
49
-0.25
74
0
0
LTYPE
5
24
100
AcDbSymbolTableRecord
100
AcDbLinetypeTableRecord
2
DASHDOT
70
64
3
__ . __ . __ . __ . __ . __ . __ . __ . __ . --
72
65
73
4
40
1.0
49
0.5
74
0
49
-0.25
74
0
49
0.0
74
0
49
-0.25
74
0
0
LTYPE
5
25
100
AcDbSymbolTableRecord
100
AcDbLinetypeTableRecord
2
CENTER
70
64
3
____ _ ____ _ ____ _ ____ _ ____ _ ____ _ ____
72
65
73
4
40
2.0
49
1.25
74
0
49
-0.25
74
0
49
0.25
74
0
49
-0.25
74
0
0
LTYPE
5
26
100
AcDbSymbolTableRecord
100
AcDbLinetypeTableRecord
2
PHANTOM
70
64
3
_____ _ _ _____ _ _ _____ _ _ _____ _ _ ____
72
65
73
6
40
2.5
49
1.25
74
0
49
-0.25
74
0
49
0.25
74
0
49
-0.25
74
0
49
0.25
74
0
49
-0.25
74
0
0
LTYPE
5
27
100
AcDbSymbolTableRecord
100
AcDbLinetypeTableRecord
2
HIDDEN
70
64
3
_ _ _ _ _ _ _ _ _ _ _ _ _ _ _ _ _ _ _ _ _ _ _
72
65
73
2
40
0.375
49
0.25
74
0
49
-0.125
74
0
0
LTYPE
5
28
100
AcDbSymbolTableRecord
100
AcDbLinetypeTableRecord
2
BORDER
70
64
3
__ __ . __ __ . __ __ . __ __ . __ __ . __ __
72
65
73
6
40
1.75
49
0.5
74
0
49
-0.25
74
0
49
0.5
74
0
49
-0.25
74
0
49
0.0
74
0
49
-0.25
74
0
0
LTYPE
5
29
100
AcDbSymbolTableRecord
100
AcDbLinetypeTableRecord
2
DIVIDE
70
64
3
__ . . __ . . __ . . __ . . __ . . __ . . __
72
65
73
6
40
1.25
49
0.5
74
0
49
-0.25
74
0
49
0.0
74
0
49
-0.25
74
0
49
0.0
74
0
49
-0.25
74
0
0
LTYPE
5
2a
100
AcDbSymbolTableRecord
100
AcDbLinetypeTableRecord
2
DOT2
70
64
3
...............................................
72
65
73
2
40
0.125
49
0.0
74
0
49
-0.125
74
0
0
ENDTAB
0
TABLE
2
STYLE
5
2b
100
AcDbSymbolTable
70
1
0
STYLE
5
2c
100
AcDbSymbolTableRecord
100
AcDbTextStyleTableRecord
2
STANDARD
70
64
40
0.0
41
1.0
50
0.0
71
0
42
5.0
3
txt
4
bigfont
0
ENDTAB
0
TABLE
2
LAYER
5
2d
100
AcDbSymbolTable
70
2
0
LAYER
5
2e
100
AcDbSymbolTableRecord
100
AcDbLayerTableRecord
2
0
70
0
62
7
6
CONTINUOUS
0
LAYER
5
2f
100
AcDbSymbolTableRecord
100
AcDbLayerTableRecord
2
1
70
0
62
7
6
CONTINUOUS
0
ENDTAB
0
TABLE
2
APPID
5
30
100
AcDbSymbolTable
70
1
0
APPID
5
31
100
AcDbSymbolTableRecord
100
AcDbRegAppTableRecord
2
ACAD
70
64
0
ENDTAB
0
TABLE
2
DIMSTYLE
5
32
100
AcDbSymbolTable
70
0
0
ENDTAB
0
TABLE
2
UCS
5
33
100
AcDbSymbolTable
70
0
0
ENDTAB
0
TABLE
2
VIEW
5
34
100
AcDbSymbolTable
70
0
0
ENDTAB
0
TABLE
2
VPORT
5
35
100
AcDbSymbolTable
70
0
0
ENDTAB
0
TABLE
2
BLOCK_RECORD
5
36
100
AcDbSymbolTable
70
0
0
BLOCK_RECORD
5
37
100
AcDbSymbolTableRecord
100
AcDbBlockTableRecord
2
*MODEL_SPACE
0
BLOCK_RECORD
5
38
100
AcDbSymbolTableRecord
100
AcDbBlockTableRecord
2
*PAPER_SPACE
0
BLOCK_RECORD
5
39
100
AcDbSymbolTableRecord
100
AcDbBlockTableRecord
2
OPEN
0
BLOCK_RECORD
5
3a
100
AcDbSymbolTableRecord
100
AcDbBlockTableRecord
2
HALF
0
BLOCK_RECORD
5
3b
100
AcDbSymbolTableRecord
100
AcDbBlockTableRecord
2
CLOSEDBLANK
0
BLOCK_RECORD
5
3c
100
AcDbSymbolTableRecord
100
AcDbBlockTableRecord
2
HALFCLOSE_R
0
BLOCK_RECORD
5
3d
100
AcDbSymbolTableRecord
100
AcDbBlockTableRecord
2
DOT
0
BLOCK_RECORD
5
3e
100
AcDbSymbolTableRecord
100
AcDbBlockTableRecord
2
HALFOPEN_R
0
BLOCK_RECORD
5
3f
100
AcDbSymbolTableRecord
100
AcDbBlockTableRecord
2
CLOSEDF
0
BLOCK_RECORD
5
40
100
AcDbSymbolTableRecord
100
AcDbBlockTableRecord
2
HALF_R
0
ENDTAB
0
ENDSEC
0
SECTION
2
BLOCKS
0
BLOCK
5
41
100
AcDbEntity
8
0
100
AcDbBlockBegin
2
*MODEL_SPACE
70
0
10
0.0
20
0.0
30
0.0
3
*MODEL_SPACE
1

0
ENDBLK
5
42
100
AcDbEntity
8
0
100
AcDbBlockEnd
0
BLOCK
5
43
100
AcDbEntity
67
1
8
0
100
AcDbBlockBegin
2
*PAPER_SPACE
70
0
10
0.0
20
0.0
30
0.0
3
*PAPER_SPACE
1

0
ENDBLK
5
44
100
AcDbEntity
67
1
8
0
100
AcDbBlockEnd
0
BLOCK
5
45
100
AcDbEntity
8
0
100
AcDbBlockBegin
2
OPEN
70
0
10
0.0
20
0.0
30
0.0
3
OPEN
1

0
LINE
5
46
100
AcDbEntity
8
0
6
BYBLOCK
62
0
100
AcDbLine
10
0.000000
20
0.000000
11
-1.000000
21
0.000000
0
LINE
5
47
100
AcDbEntity
8
0
6
BYBLOCK
62
0
100
AcDbLine
10
-1.000000
20
-0.166667
11
0.000000
21
0.000000
0
LINE
5
48
100
AcDbEntity
8
0
6
BYBLOCK
62
0
100
AcDbLine
10
-1.000000
20
0.166667
11
0.000000
21
0.000000
0
ENDBLK
5
49
100
AcDbEntity
8
0
100
AcDbBlockEnd
0
BLOCK
5
4a
100
AcDbEntity
8
0
100
AcDbBlockBegin
2
HALF
70
0
10
0.0
20
0.0
30
0.0
3
HALF
1

0
SOLID
5
4b
100
AcDbEntity
8
0
6
BYBLOCK
62
0
100
AcDbTrace
10
-1.000000
20
0.166667
11
-1.000000
21
-0.166667
12
0.000000
22
0.000000
13
0.000000
23
0.000000
0
ENDBLK
5
4c
100
AcDbEntity
8
0
100
AcDbBlockEnd
0
BLOCK
5
4d
100
AcDbEntity
8
0
100
AcDbBlockBegin
2
CLOSEDBLANK
70
0
10
0.0
20
0.0
30
0.0
3
CLOSEDBLANK
1

0
LINE
5
4e
100
AcDbEntity
8
0
6
BYBLOCK
62
0
100
AcDbLine
10
-1.000000
20
0.166667
11
-1.000000
21
-0.166667
0
LINE
5
4f
100
AcDbEntity
8
0
6
BYBLOCK
62
0
100
AcDbLine
10
0.000000
20
0.000000
11
-1.000000
21
-0.166667
0
LINE
5
50
100
AcDbEntity
8
0
6
BYBLOCK
62
0
100
AcDbLine
10
-1.000000
20
0.166667
11
0.000000
21
0.000000
0
ENDBLK
5
51
100
AcDbEntity
8
0
100
AcDbBlockEnd
0
BLOCK
5
52
100
AcDbEntity
8
0
100
AcDbBlockBegin
2
HALFCLOSE_R
70
0
10
0.0
20
0.0
30
0.0
3
HALFCLOSE_R
1

0
LINE
5
53
100
AcDbEntity
8
0
6
BYBLOCK
62
0
100
AcDbLine
10
-1.000000
20
-0.166667
11
-1.000000
21
0.000000
0
LINE
5
54
100
AcDbEntity
8
0
6
BYBLOCK
62
0
100
AcDbLine
10
-1.000000
20
-0.166667
11
0.000000
21
0.000000
0
LINE
5
55
100
AcDbEntity
8
0
6
BYBLOCK
62
0
100
AcDbLine
10
0.000000
20
0.000000
11
-1.000000
21
0.000000
0
ENDBLK
5
56
100
AcDbEntity
8
0
100
AcDbBlockEnd
0
BLOCK
5
57
100
AcDbEntity
8
0
100
AcDbBlockBegin
2
DOT
70
0
10
0.0
20
0.0
30
0.0
3
DOT
1

0
LINE
5
58
100
AcDbEntity
8
0
6
BYBLOCK
62
0
100
AcDbLine
10
0.000000
20
0.000000
11
-1.000000
21
0.000000
0
POLYLINE
5
59
100
AcDbEntity
8
0
6
BYBLOCK
62
0
100
AcDb2dPolyline
66
1
10
0.0
20
0.0
30
0.0
70
1
40
0.166667
41
0.166667
0
VERTEX
5
5a
100
AcDbEntity
8
0
100
AcDbVertex
100
AcDb2dVertex
62
10
10
-0.083333
20
0.000000
42
1.000000
0
VERTEX
5
5b
100
AcDbEntity
8
0
100
AcDbVertex
100
AcDb2dVertex
62
10
10
0.083333
20
0.000000
42
1.000000
0
SEQEND
5
5c
100
AcDbEntity
8
0
0
ENDBLK
5
5d
100
AcDbEntity
8
0
100
AcDbBlockEnd
0
BLOCK
5
5e
100
AcDbEntity
8
0
100
AcDbBlockBegin
2
HALFOPEN_R
70
0
10
0.0
20
0.0
30
0.0
3
HALFOPEN_R
1

0
LINE
5
5f
100
AcDbEntity
8
0
6
BYBLOCK
62
0
100
AcDbLine
10
-1.000000
20
-0.166667
11
0.000000
21
0.000000
0
LINE
5
60
100
AcDbEntity
8
0
6
BYBLOCK
62
0
100
AcDbLine
10
0.000000
20
0.000000
11
-1.000000
21
0.000000
0
ENDBLK
5
61
100
AcDbEntity
8
0
100
AcDbBlockEnd
0
BLOCK
5
62
100
AcDbEntity
8
0
100
AcDbBlockBegin
2
CLOSEDF
70
0
10
0.0
20
0.0
30
0.0
3
CLOSEDF
1

0
SOLID
5
63
100
AcDbEntity
8
0
6
BYBLOCK
62
0
100
AcDbTrace
10
-1.000000
20
0.166667
11
-1.000000
21
-0.166667
12
0.000000
22
0.000000
13
0.000000
23
0.000000
0
ENDBLK
5
64
100
AcDbEntity
8
0
100
AcDbBlockEnd
0
BLOCK
5
65
100
AcDbEntity
8
0
100
AcDbBlockBegin
2
HALF_R
70
0
10
0.0
20
0.0
30
0.0
3
HALF_R
1

0
SOLID
5
66
100
AcDbEntity
8
0
6
BYBLOCK
62
0
100
AcDbTrace
10
-1.000000
20
-0.166667
11
-1.000000
21
0.000000
12
0.000000
22
0.000000
13
0.000000
23
0.000000
0
ENDBLK
5
67
100
AcDbEntity
8
0
100
AcDbBlockEnd
0
ENDSEC
0
SECTION
2
ENTITIES
0
LINE
5
68
100
AcDbEntity
8
1
100
AcDbLine
6
CONTINUOUS
62
5
10
292.250000
20
325.562500
11
292.500000
21
324.312500
0
LINE
5
69
100
AcDbEntity
8
1
100
AcDbLine
6
CONTINUOUS
62
5
10
293.750000
20
325.875000
11
294.000000
21
324.625000
0
POLYLINE
5
6a
100
AcDbEntity
8
1
6
CONTINUOUS
62
5
100
AcDb2dPolyline
66
1
10
0.0
20
0.0
30
0.0
70
0
0
VERTEX
5
6b
100
AcDbEntity
8
1
100
AcDbVertex
100
AcDb2dVertex
62
5
10
295.750000
20
325.875000
0
VERTEX
5
6c
100
AcDbEntity
8
1
100
AcDbVertex
100
AcDb2dVertex
62
5
10
295.500000
20
324.312500
0
VERTEX
5
6d
100
AcDbEntity
8
1
100
AcDbVertex
100
AcDb2dVertex
62
5
10
294.250000
20
322.437500
0
VERTEX
5
6e
100
AcDbEntity
8
1
100
AcDbVertex
100
AcDb2dVertex
62
5
10
293.250000
20
321.500000
0
SEQEND
5
6f
100
AcDbEntity
8
1
0
LINE
5
70
100
AcDbEntity
8
1
100
AcDbLine
6
CONTINUOUS
62
5
10
300.000000
20
327.437500
11
303.750000
21
328.062500
0
LINE
5
71
100
AcDbEntity
8
1
100
AcDbLine
6
CONTINUOUS
62
5
10
298.750000
20
325.562500
11
304.750000
21
325.562500
0
POLYLINE
5
72
100
AcDbEntity
8
1
6
CONTINUOUS
62
5
100
AcDb2dPolyline
66
1
10
0.0
20
0.0
30
0.0
70
0
0
VERTEX
5
73
100
AcDbEntity
8
1
100
AcDbVertex
100
AcDb2dVertex
62
5
10
302.000000
20
327.750000
0
VERTEX
5
74
100
AcDbEntity
8
1
100
AcDbVertex
100
AcDb2dVertex
62
5
10
302.000000
20
325.562500
0
VERTEX
5
75
100
AcDbEntity
8
1
100
AcDbVertex
100
AcDb2dVertex
62
5
10
301.750000
20
324.000000
0
VERTEX
5
76
100
AcDbEntity
8
1
100
AcDbVertex
100
AcDb2dVertex
62
5
10
301.000000
20
322.750000
0
VERTEX
5
77
100
AcDbEntity
8
1
100
AcDbVertex
100
AcDb2dVertex
62
5
10
300.250000
20
321.812500
0
SEQEND
5
78
100
AcDbEntity
8
1
0
POLYLINE
5
79
100
AcDbEntity
8
1
6
CONTINUOUS
62
5
100
AcDb2dPolyline
66
1
10
0.0
20
0.0
30
0.0
70
0
0
VERTEX
5
7a
100
AcDbEntity
8
1
100
AcDbVertex
100
AcDb2dVertex
62
5
10
287.750000
20
328.687500
0
VERTEX
5
7b
100
AcDbEntity
8
1
100
AcDbVertex
100
AcDb2dVertex
62
5
10
285.750000
20
326.187500
0
VERTEX
5
7c
100
AcDbEntity
8
1
100
AcDbVertex
100
AcDb2dVertex
62
5
10
283.500000
20
324.625000
0
SEQEND
5
7d
100
AcDbEntity
8
1
0
LINE
5
7e
100
AcDbEntity
8
1
100
AcDbLine
6
CONTINUOUS
62
5
10
286.250000
20
326.812500
11
286.250000
21
321.500000
0
POLYLINE
5
7f
100
AcDbEntity
8
1
6
CONTINUOUS
62
5
100
AcDb2dPolyline
66
1
10
0.0
20
0.0
30
0.0
70
0
0
VERTEX
5
80
100
AcDbEntity
8
1
100
AcDbVertex
100
AcDb2dVertex
62
5
10
276.000000
20
327.125000
0
VERTEX
5
81
100
AcDbEntity
8
1
100
AcDbVertex
100
AcDb2dVertex
62
5
10
279.250000
20
327.125000
0
VERTEX
5
82
100
AcDbEntity
8
1
100
AcDbVertex
100
AcDb2dVertex
62
5
10
279.250000
20
326.812500
0
VERTEX
5
83
100
AcDbEntity
8
1
100
AcDbVertex
100
AcDb2dVertex
62
5
10
278.750000
20
325.562500
0
VERTEX
5
84
100
AcDbEntity
8
1
100
AcDbVertex
100
AcDb2dVertex
62
5
10
278.250000
20
324.625000
0
VERTEX
5
85
100
AcDbEntity
8
1
100
AcDbVertex
100
AcDb2dVertex
62
5
10
277.250000
20
323.375000
0
VERTEX
5
86
100
AcDbEntity
8
1
100
AcDbVertex
100
AcDb2dVertex
62
5
10
275.500000
20
321.812500
0
SEQEND
5
87
100
AcDbEntity
8
1
0
LINE
5
88
100
AcDbEntity
8
1
100
AcDbLine
6
CONTINUOUS
62
5
10
278.250000
20
324.625000
11
280.250000
21
321.812500
0
POLYLINE
5
89
100
AcDbEntity
8
1
6
CONTINUOUS
62
5
100
AcDb2dPolyline
66
1
10
0.0
20
0.0
30
0.0
70
0
0
VERTEX
5
8a
100
AcDbEntity
8
1
100
AcDbVertex
100
AcDb2dVertex
62
5
10
258.250000
20
326.500000
0
VERTEX
5
8b
100
AcDbEntity
8
1
100
AcDbVertex
100
AcDb2dVertex
62
5
10
259.750000
20
326.812500
0
VERTEX
5
8c
100
AcDbEntity
8
1
100
AcDbVertex
100
AcDb2dVertex
62
5
10
261.000000
20
327.437500
0
SEQEND
5
8d
100
AcDbEntity
8
1
0
POLYLINE
5
8e
100
AcDbEntity
8
1
6
CONTINUOUS
62
5
100
AcDb2dPolyline
66
1
10
0.0
20
0.0
30
0.0
70
0
0
VERTEX
5
8f
100
AcDbEntity
8
1
100
AcDbVertex
100
AcDb2dVertex
62
5
10
259.250000
20
329.312500
0
VERTEX
5
90
100
AcDbEntity
8
1
100
AcDbVertex
100
AcDb2dVertex
62
5
10
259.250000
20
323.687500
0
VERTEX
5
91
100
AcDbEntity
8
1
100
AcDbVertex
100
AcDb2dVertex
62
5
10
259.750000
20
323.062500
0
VERTEX
5
92
100
AcDbEntity
8
1
100
AcDbVertex
100
AcDb2dVertex
62
5
10
261.000000
20
323.062500
0
VERTEX
5
93
100
AcDbEntity
8
1
100
AcDbVertex
100
AcDb2dVertex
62
5
10
261.250000
20
324.312500
0
SEQEND
5
94
100
AcDbEntity
8
1
0
POLYLINE
5
95
100
AcDbEntity
8
1
6
CONTINUOUS
62
5
100
AcDb2dPolyline
66
1
10
0.0
20
0.0
30
0.0
70
0
0
VERTEX
5
96
100
AcDbEntity
8
1
100
AcDbVertex
100
AcDb2dVertex
62
5
10
262.500000
20
328.375000
0
VERTEX
5
97
100
AcDbEntity
8
1
100
AcDbVertex
100
AcDb2dVertex
62
5
10
262.500000
20
324.625000
0
VERTEX
5
98
100
AcDbEntity
8
1
100
AcDbVertex
100
AcDb2dVertex
62
5
10
262.000000
20
323.062500
0
VERTEX
5
99
100
AcDbEntity
8
1
100
AcDbVertex
100
AcDb2dVertex
62
5
10
261.250000
20
321.812500
0
VERTEX
5
9a
100
AcDbEntity
8
1
100
AcDbVertex
100
AcDb2dVertex
62
5
10
260.000000
20
320.875000
0
SEQEND
5
9b
100
AcDbEntity
8
1
0
POLYLINE
5
9c
100
AcDbEntity
8
1
6
CONTINUOUS
62
5
100
AcDb2dPolyline
66
1
10
0.0
20
0.0
30
0.0
70
0
0
VERTEX
5
9d
100
AcDbEntity
8
1
100
AcDbVertex
100
AcDb2dVertex
62
5
10
261.000000
20
328.375000
0
VERTEX
5
9e
100
AcDbEntity
8
1
100
AcDbVertex
100
AcDb2dVertex
62
5
10
264.750000
20
328.375000
0
VERTEX
5
9f
100
AcDbEntity
8
1
100
AcDbVertex
100
AcDb2dVertex
62
5
10
264.750000
20
323.062500
0
VERTEX
5
a0
100
AcDbEntity
8
1
100
AcDbVertex
100
AcDb2dVertex
62
5
10
264.500000
20
322.125000
0
VERTEX
5
a1
100
AcDbEntity
8
1
100
AcDbVertex
100
AcDb2dVertex
62
5
10
264.000000
20
321.812500
0
VERTEX
5
a2
100
AcDbEntity
8
1
100
AcDbVertex
100
AcDb2dVertex
62
5
10
263.000000
20
321.812500
0
SEQEND
5
a3
100
AcDbEntity
8
1
0
POLYLINE
5
a4
100
AcDbEntity
8
1
6
CONTINUOUS
62
5
100
AcDb2dPolyline
66
1
10
0.0
20
0.0
30
0.0
70
0
0
VERTEX
5
a5
100
AcDbEntity
8
1
100
AcDbVertex
100
AcDb2dVertex
62
5
10
253.250000
20
319.625000
0
VERTEX
5
a6
100
AcDbEntity
8
1
100
AcDbVertex
100
AcDb2dVertex
62
5
10
252.500000
20
318.375000
0
VERTEX
5
a7
100
AcDbEntity
8
1
100
AcDbVertex
100
AcDb2dVertex
62
5
10
251.750000
20
317.437500
0
VERTEX
5
a8
100
AcDbEntity
8
1
100
AcDbVertex
100
AcDb2dVertex
62
5
10
250.750000
20
316.500000
0
SEQEND
5
a9
100
AcDbEntity
8
1
0
POLYLINE
5
aa
100
AcDbEntity
8
1
6
CONTINUOUS
62
5
100
AcDb2dPolyline
66
1
10
0.0
20
0.0
30
0.0
70
0
0
VERTEX
5
ab
100
AcDbEntity
8
1
100
AcDbVertex
100
AcDb2dVertex
62
5
10
253.000000
20
319.000000
0
VERTEX
5
ac
100
AcDbEntity
8
1
100
AcDbVertex
100
AcDb2dVertex
62
5
10
255.250000
20
319.000000
0
VERTEX
5
ad
100
AcDbEntity
8
1
100
AcDbVertex
100
AcDb2dVertex
62
5
10
254.000000
20
317.125000
0
SEQEND
5
ae
100
AcDbEntity
8
1
0
POLYLINE
5
af
100
AcDbEntity
8
1
6
CONTINUOUS
62
5
100
AcDb2dPolyline
66
1
10
0.0
20
0.0
30
0.0
70
0
0
VERTEX
5
b0
100
AcDbEntity
8
1
100
AcDbVertex
100
AcDb2dVertex
62
5
10
251.750000
20
317.125000
0
VERTEX
5
b1
100
AcDbEntity
8
1
100
AcDbVertex
100
AcDb2dVertex
62
5
10
256.250000
20
317.125000
0
VERTEX
5
b2
100
AcDbEntity
8
1
100
AcDbVertex
100
AcDb2dVertex
62
5
10
256.250000
20
314.312500
0
VERTEX
5
b3
100
AcDbEntity
8
1
100
AcDbVertex
100
AcDb2dVertex
62
5
10
251.750000
20
314.312500
0
SEQEND
5
b4
100
AcDbEntity
8
1
0
LINE
5
b5
100
AcDbEntity
8
1
100
AcDbLine
6
CONTINUOUS
62
5
10
254.000000
20
317.125000
11
254.000000
21
314.312500
0
POLYLINE
5
b6
100
AcDbEntity
8
1
6
CONTINUOUS
62
5
100
AcDb2dPolyline
66
1
10
0.0
20
0.0
30
0.0
70
0
0
VERTEX
5
b7
100
AcDbEntity
8
1
100
AcDbVertex
100
AcDb2dVertex
62
5
10
251.750000
20
317.125000
0
VERTEX
5
b8
100
AcDbEntity
8
1
100
AcDbVertex
100
AcDb2dVertex
62
5
10
251.750000
20
311.812500
0
VERTEX
5
b9
100
AcDbEntity
8
1
100
AcDbVertex
100
AcDb2dVertex
62
5
10
252.250000
20
311.187500
0
VERTEX
5
ba
100
AcDbEntity
8
1
100
AcDbVertex
100
AcDb2dVertex
62
5
10
257.250000
20
311.187500
0
VERTEX
5
bb
100
AcDbEntity
8
1
100
AcDbVertex
100
AcDb2dVertex
62
5
10
257.250000
20
312.437500
0
SEQEND
5
bc
100
AcDbEntity
8
1
0
POLYLINE
5
bd
100
AcDbEntity
8
1
6
CONTINUOUS
62
5
100
AcDb2dPolyline
66
1
10
0.0
20
0.0
30
0.0
70
0
0
VERTEX
5
be
100
AcDbEntity
8
1
100
AcDbVertex
100
AcDb2dVertex
62
5
10
243.000000
20
329.000000
0
VERTEX
5
bf
100
AcDbEntity
8
1
100
AcDbVertex
100
AcDb2dVertex
62
5
10
243.000000
20
323.062500
0
VERTEX
5
c0
100
AcDbEntity
8
1
100
AcDbVertex
100
AcDb2dVertex
62
5
10
242.750000
20
321.500000
0
VERTEX
5
c1
100
AcDbEntity
8
1
100
AcDbVertex
100
AcDb2dVertex
62
5
10
242.250000
20
320.875000
0
SEQEND
5
c2
100
AcDbEntity
8
1
0
POLYLINE
5
c3
100
AcDbEntity
8
1
6
CONTINUOUS
62
5
100
AcDb2dPolyline
66
1
10
0.0
20
0.0
30
0.0
70
0
0
VERTEX
5
c4
100
AcDbEntity
8
1
100
AcDbVertex
100
AcDb2dVertex
62
5
10
243.000000
20
329.000000
0
VERTEX
5
c5
100
AcDbEntity
8
1
100
AcDbVertex
100
AcDb2dVertex
62
5
10
248.000000
20
329.000000
0
VERTEX
5
c6
100
AcDbEntity
8
1
100
AcDbVertex
100
AcDb2dVertex
62
5
10
248.000000
20
323.062500
0
VERTEX
5
c7
100
AcDbEntity
8
1
100
AcDbVertex
100
AcDb2dVertex
62
5
10
248.500000
20
321.812500
0
VERTEX
5
c8
100
AcDbEntity
8
1
100
AcDbVertex
100
AcDb2dVertex
62
5
10
249.000000
20
321.187500
0
VERTEX
5
c9
100
AcDbEntity
8
1
100
AcDbVertex
100
AcDb2dVertex
62
5
10
249.500000
20
322.750000
0
SEQEND
5
ca
100
AcDbEntity
8
1
0
LINE
5
cb
100
AcDbEntity
8
1
100
AcDbLine
6
CONTINUOUS
62
5
10
247.250000
20
327.750000
11
244.000000
21
327.125000
0
POLYLINE
5
cc
100
AcDbEntity
8
1
6
CONTINUOUS
62
5
100
AcDb2dPolyline
66
1
10
0.0
20
0.0
30
0.0
70
1
0
VERTEX
5
cd
100
AcDbEntity
8
1
100
AcDbVertex
100
AcDb2dVertex
62
5
10
244.000000
20
326.187500
0
VERTEX
5
ce
100
AcDbEntity
8
1
100
AcDbVertex
100
AcDb2dVertex
62
5
10
244.000000
20
324.312500
0
VERTEX
5
cf
100
AcDbEntity
8
1
100
AcDbVertex
100
AcDb2dVertex
62
5
10
247.000000
20
324.312500
0
VERTEX
5
d0
100
AcDbEntity
8
1
100
AcDbVertex
100
AcDb2dVertex
62
5
10
247.000000
20
326.187500
0
VERTEX
5
d1
100
AcDbEntity
8
1
100
AcDbVertex
100
AcDb2dVertex
62
5
10
244.000000
20
326.187500
0
SEQEND
5
d2
100
AcDbEntity
8
1
0
LINE
5
d3
100
AcDbEntity
8
1
100
AcDbLine
6
CONTINUOUS
62
5
10
245.500000
20
327.437500
11
245.500000
21
322.437500
0
LINE
5
d4
100
AcDbEntity
8
1
100
AcDbLine
6
CONTINUOUS
62
5
10
243.500000
20
321.812500
11
247.000000
21
322.750000
0
LINE
5
d5
100
AcDbEntity
8
1
100
AcDbLine
6
CONTINUOUS
62
5
10
246.500000
20
323.375000
11
247.500000
21
321.812500
0
POLYLINE
5
d6
100
AcDbEntity
8
1
6
CONTINUOUS
62
5
100
AcDb2dPolyline
66
1
10
0.0
20
0.0
30
0.0
70
0
0
VERTEX
5
d7
100
AcDbEntity
8
1
100
AcDbVertex
100
AcDb2dVertex
62
5
10
245.250000
20
316.187500
0
VERTEX
5
d8
100
AcDbEntity
8
1
100
AcDbVertex
100
AcDb2dVertex
62
5
10
245.500000
20
316.187500
0
VERTEX
5
d9
100
AcDbEntity
8
1
100
AcDbVertex
100
AcDb2dVertex
62
5
10
247.250000
20
314.937500
0
SEQEND
5
da
100
AcDbEntity
8
1
0
LINE
5
db
100
AcDbEntity
8
1
100
AcDbLine
6
CONTINUOUS
62
5
10
245.250000
20
319.000000
11
245.250000
21
311.500000
0
POLYLINE
5
dc
100
AcDbEntity
8
1
6
CONTINUOUS
62
5
100
AcDb2dPolyline
66
1
10
0.0
20
0.0
30
0.0
70
0
0
VERTEX
5
dd
100
AcDbEntity
8
1
100
AcDbVertex
100
AcDb2dVertex
62
5
10
239.750000
20
318.687500
0
VERTEX
5
de
100
AcDbEntity
8
1
100
AcDbVertex
100
AcDb2dVertex
62
5
10
237.750000
20
316.187500
0
VERTEX
5
df
100
AcDbEntity
8
1
100
AcDbVertex
100
AcDb2dVertex
62
5
10
235.500000
20
314.625000
0
SEQEND
5
e0
100
AcDbEntity
8
1
0
LINE
5
e1
100
AcDbEntity
8
1
100
AcDbLine
6
CONTINUOUS
62
5
10
238.250000
20
316.812500
11
238.250000
21
311.500000
0
LINE
5
e2
100
AcDbEntity
8
1
100
AcDbLine
6
CONTINUOUS
62
5
10
235.500000
20
324.937500
11
240.500000
21
324.937500
0
LINE
5
e3
100
AcDbEntity
8
1
100
AcDbLine
6
CONTINUOUS
62
5
10
238.000000
20
327.750000
11
238.000000
21
322.125000
0
POLYLINE
5
e4
100
AcDbEntity
8
1
6
CONTINUOUS
62
5
100
AcDb2dPolyline
66
1
10
0.0
20
0.0
30
0.0
70
1
0
VERTEX
5
e5
100
AcDbEntity
8
1
100
AcDbVertex
100
AcDb2dVertex
62
5
10
251.750000
20
329.625000
0
VERTEX
5
e6
100
AcDbEntity
8
1
100
AcDbVertex
100
AcDb2dVertex
62
5
10
251.750000
20
327.125000
0
VERTEX
5
e7
100
AcDbEntity
8
1
100
AcDbVertex
100
AcDb2dVertex
62
5
10
256.000000
20
327.125000
0
VERTEX
5
e8
100
AcDbEntity
8
1
100
AcDbVertex
100
AcDb2dVertex
62
5
10
256.000000
20
329.625000
0
VERTEX
5
e9
100
AcDbEntity
8
1
100
AcDbVertex
100
AcDb2dVertex
62
5
10
251.750000
20
329.625000
0
SEQEND
5
ea
100
AcDbEntity
8
1
0
LINE
5
eb
100
AcDbEntity
8
1
100
AcDbLine
6
CONTINUOUS
62
5
10
251.750000
20
328.375000
11
256.000000
21
328.375000
0
LINE
5
ec
100
AcDbEntity
8
1
100
AcDbLine
6
CONTINUOUS
62
5
10
250.250000
20
326.187500
11
257.500000
21
326.187500
0
POLYLINE
5
ed
100
AcDbEntity
8
1
6
CONTINUOUS
62
5
100
AcDb2dPolyline
66
1
10
0.0
20
0.0
30
0.0
70
1
0
VERTEX
5
ee
100
AcDbEntity
8
1
100
AcDbVertex
100
AcDb2dVertex
62
5
10
251.500000
20
325.250000
0
VERTEX
5
ef
100
AcDbEntity
8
1
100
AcDbVertex
100
AcDb2dVertex
62
5
10
251.500000
20
322.750000
0
VERTEX
5
f0
100
AcDbEntity
8
1
100
AcDbVertex
100
AcDb2dVertex
62
5
10
256.250000
20
322.750000
0
VERTEX
5
f1
100
AcDbEntity
8
1
100
AcDbVertex
100
AcDb2dVertex
62
5
10
256.250000
20
325.250000
0
VERTEX
5
f2
100
AcDbEntity
8
1
100
AcDbVertex
100
AcDb2dVertex
62
5
10
251.500000
20
325.250000
0
SEQEND
5
f3
100
AcDbEntity
8
1
0
LINE
5
f4
100
AcDbEntity
8
1
100
AcDbLine
6
CONTINUOUS
62
5
10
251.500000
20
324.000000
11
256.250000
21
324.000000
0
LINE
5
f5
100
AcDbEntity
8
1
100
AcDbLine
6
CONTINUOUS
62
5
10
253.750000
20
325.250000
11
253.750000
21
320.562500
0
LINE
5
f6
100
AcDbEntity
8
1
100
AcDbLine
6
CONTINUOUS
62
5
10
251.250000
20
321.812500
11
256.500000
21
321.812500
0
LINE
5
f7
100
AcDbEntity
8
1
100
AcDbLine
6
CONTINUOUS
62
5
10
250.250000
20
320.562500
11
257.500000
21
320.562500
0
LINE
5
f8
100
AcDbEntity
8
1
100
AcDbLine
6
CONTINUOUS
62
5
10
266.750000
20
328.687500
11
269.500000
21
328.687500
0
LINE
5
f9
100
AcDbEntity
8
1
100
AcDbLine
6
CONTINUOUS
62
5
10
268.250000
20
329.625000
11
268.250000
21
327.125000
0
LINE
5
fa
100
AcDbEntity
8
1
100
AcDbLine
6
CONTINUOUS
62
5
10
266.500000
20
327.125000
11
269.500000
21
327.125000
0
POLYLINE
5
fb
100
AcDbEntity
8
1
6
CONTINUOUS
62
5
100
AcDb2dPolyline
66
1
10
0.0
20
0.0
30
0.0
70
0
0
VERTEX
5
fc
100
AcDbEntity
8
1
100
AcDbVertex
100
AcDb2dVertex
62
5
10
268.250000
20
327.125000
0
VERTEX
5
fd
100
AcDbEntity
8
1
100
AcDbVertex
100
AcDb2dVertex
62
5
10
267.250000
20
325.250000
0
VERTEX
5
fe
100
AcDbEntity
8
1
100
AcDbVertex
100
AcDb2dVertex
62
5
10
266.750000
20
324.625000
0
SEQEND
5
ff
100
AcDbEntity
8
1
0
POLYLINE
5
100
100
AcDbEntity
8
1
6
CONTINUOUS
62
5
100
AcDb2dPolyline
66
1
10
0.0
20
0.0
30
0.0
70
0
0
VERTEX
5
101
100
AcDbEntity
8
1
100
AcDbVertex
100
AcDb2dVertex
62
5
10
268.250000
20
326.812500
0
VERTEX
5
102
100
AcDbEntity
8
1
100
AcDbVertex
100
AcDb2dVertex
62
5
10
268.750000
20
325.875000
0
VERTEX
5
103
100
AcDbEntity
8
1
100
AcDbVertex
100
AcDb2dVertex
62
5
10
269.250000
20
325.562500
0
SEQEND
5
104
100
AcDbEntity
8
1
0
LINE
5
105
100
AcDbEntity
8
1
100
AcDbLine
6
CONTINUOUS
62
5
10
270.000000
20
328.687500
11
273.000000
21
328.687500
0
LINE
5
106
100
AcDbEntity
8
1
100
AcDbLine
6
CONTINUOUS
62
5
10
270.000000
20
327.125000
11
273.250000
21
327.125000
0
POLYLINE
5
107
100
AcDbEntity
8
1
6
CONTINUOUS
62
5
100
AcDb2dPolyline
66
1
10
0.0
20
0.0
30
0.0
70
0
0
VERTEX
5
108
100
AcDbEntity
8
1
100
AcDbVertex
100
AcDb2dVertex
62
5
10
271.500000
20
329.625000
0
VERTEX
5
109
100
AcDbEntity
8
1
100
AcDbVertex
100
AcDb2dVertex
62
5
10
271.500000
20
326.812500
0
VERTEX
5
10a
100
AcDbEntity
8
1
100
AcDbVertex
100
AcDb2dVertex
62
5
10
270.500000
20
325.562500
0
VERTEX
5
10b
100
AcDbEntity
8
1
100
AcDbVertex
100
AcDb2dVertex
62
5
10
269.750000
20
324.937500
0
SEQEND
5
10c
100
AcDbEntity
8
1
0
POLYLINE
5
10d
100
AcDbEntity
8
1
6
CONTINUOUS
62
5
100
AcDb2dPolyline
66
1
10
0.0
20
0.0
30
0.0
70
0
0
VERTEX
5
10e
100
AcDbEntity
8
1
100
AcDbVertex
100
AcDb2dVertex
62
5
10
271.500000
20
326.812500
0
VERTEX
5
10f
100
AcDbEntity
8
1
100
AcDbVertex
100
AcDb2dVertex
62
5
10
272.500000
20
325.562500
0
VERTEX
5
110
100
AcDbEntity
8
1
100
AcDbVertex
100
AcDb2dVertex
62
5
10
273.250000
20
324.937500
0
SEQEND
5
111
100
AcDbEntity
8
1
0
POLYLINE
5
112
100
AcDbEntity
8
1
6
CONTINUOUS
62
5
100
AcDb2dPolyline
66
1
10
0.0
20
0.0
30
0.0
70
1
0
VERTEX
5
113
100
AcDbEntity
8
1
100
AcDbVertex
100
AcDb2dVertex
62
5
10
267.500000
20
324.625000
0
VERTEX
5
114
100
AcDbEntity
8
1
100
AcDbVertex
100
AcDb2dVertex
62
5
10
272.250000
20
324.625000
0
VERTEX
5
115
100
AcDbEntity
8
1
100
AcDbVertex
100
AcDb2dVertex
62
5
10
272.250000
20
320.562500
0
VERTEX
5
116
100
AcDbEntity
8
1
100
AcDbVertex
100
AcDb2dVertex
62
5
10
267.500000
20
320.562500
0
VERTEX
5
117
100
AcDbEntity
8
1
100
AcDbVertex
100
AcDb2dVertex
62
5
10
267.500000
20
324.625000
0
SEQEND
5
118
100
AcDbEntity
8
1
0
LINE
5
119
100
AcDbEntity
8
1
100
AcDbLine
6
CONTINUOUS
62
5
10
267.500000
20
322.750000
11
272.250000
21
322.750000
0
POLYLINE
5
11a
100
AcDbEntity
8
1
6
CONTINUOUS
62
5
100
AcDb2dPolyline
66
1
10
0.0
20
0.0
30
0.0
70
0
0
VERTEX
5
11b
100
AcDbEntity
8
1
100
AcDbVertex
100
AcDb2dVertex
62
5
10
215.750000
20
328.687500
0
VERTEX
5
11c
100
AcDbEntity
8
1
100
AcDbVertex
100
AcDb2dVertex
62
5
10
213.750000
20
326.187500
0
VERTEX
5
11d
100
AcDbEntity
8
1
100
AcDbVertex
100
AcDb2dVertex
62
5
10
211.500000
20
324.625000
0
SEQEND
5
11e
100
AcDbEntity
8
1
0
LINE
5
11f
100
AcDbEntity
8
1
100
AcDbLine
6
CONTINUOUS
62
5
10
214.250000
20
326.812500
11
214.250000
21
321.500000
0
LINE
5
120
100
AcDbEntity
8
1
100
AcDbLine
6
CONTINUOUS
62
5
10
220.250000
20
325.562500
11
220.500000
21
324.312500
0
LINE
5
121
100
AcDbEntity
8
1
100
AcDbLine
6
CONTINUOUS
62
5
10
221.750000
20
325.875000
11
222.000000
21
324.625000
0
POLYLINE
5
122
100
AcDbEntity
8
1
6
CONTINUOUS
62
5
100
AcDb2dPolyline
66
1
10
0.0
20
0.0
30
0.0
70
0
0
VERTEX
5
123
100
AcDbEntity
8
1
100
AcDbVertex
100
AcDb2dVertex
62
5
10
223.750000
20
325.875000
0
VERTEX
5
124
100
AcDbEntity
8
1
100
AcDbVertex
100
AcDb2dVertex
62
5
10
223.500000
20
324.312500
0
VERTEX
5
125
100
AcDbEntity
8
1
100
AcDbVertex
100
AcDb2dVertex
62
5
10
222.250000
20
322.437500
0
VERTEX
5
126
100
AcDbEntity
8
1
100
AcDbVertex
100
AcDb2dVertex
62
5
10
221.250000
20
321.500000
0
SEQEND
5
127
100
AcDbEntity
8
1
0
POLYLINE
5
128
100
AcDbEntity
8
1
6
CONTINUOUS
62
5
100
AcDb2dPolyline
66
1
10
0.0
20
0.0
30
0.0
70
0
0
VERTEX
5
129
100
AcDbEntity
8
1
100
AcDbVertex
100
AcDb2dVertex
62
5
10
211.000000
20
317.437500
0
VERTEX
5
12a
100
AcDbEntity
8
1
100
AcDbVertex
100
AcDb2dVertex
62
5
10
216.250000
20
317.437500
0
VERTEX
5
12b
100
AcDbEntity
8
1
100
AcDbVertex
100
AcDb2dVertex
62
5
10
216.250000
20
317.125000
0
VERTEX
5
12c
100
AcDbEntity
8
1
100
AcDbVertex
100
AcDb2dVertex
62
5
10
214.500000
20
315.250000
0
VERTEX
5
12d
100
AcDbEntity
8
1
100
AcDbVertex
100
AcDb2dVertex
62
5
10
213.750000
20
315.250000
0
SEQEND
5
12e
100
AcDbEntity
8
1
0
POLYLINE
5
12f
100
AcDbEntity
8
1
6
CONTINUOUS
62
5
100
AcDb2dPolyline
66
1
10
0.0
20
0.0
30
0.0
70
0
0
VERTEX
5
130
100
AcDbEntity
8
1
100
AcDbVertex
100
AcDb2dVertex
62
5
10
213.750000
20
316.187500
0
VERTEX
5
131
100
AcDbEntity
8
1
100
AcDbVertex
100
AcDb2dVertex
62
5
10
213.750000
20
314.625000
0
VERTEX
5
132
100
AcDbEntity
8
1
100
AcDbVertex
100
AcDb2dVertex
62
5
10
213.000000
20
312.750000
0
VERTEX
5
133
100
AcDbEntity
8
1
100
AcDbVertex
100
AcDb2dVertex
62
5
10
212.000000
20
311.500000
0
SEQEND
5
134
100
AcDbEntity
8
1
0
LINE
5
135
100
AcDbEntity
8
1
100
AcDbLine
6
CONTINUOUS
62
5
10
219.250000
20
316.187500
11
224.250000
21
316.187500
0
POLYLINE
5
136
100
AcDbEntity
8
1
6
CONTINUOUS
62
5
100
AcDb2dPolyline
66
1
10
0.0
20
0.0
30
0.0
70
0
0
VERTEX
5
137
100
AcDbEntity
8
1
100
AcDbVertex
100
AcDb2dVertex
62
5
10
221.750000
20
318.062500
0
VERTEX
5
138
100
AcDbEntity
8
1
100
AcDbVertex
100
AcDb2dVertex
62
5
10
221.750000
20
311.812500
0
VERTEX
5
139
100
AcDbEntity
8
1
100
AcDbVertex
100
AcDb2dVertex
62
5
10
221.250000
20
311.812500
0
SEQEND
5
13a
100
AcDbEntity
8
1
0
LINE
5
13b
100
AcDbEntity
8
1
100
AcDbLine
6
CONTINUOUS
62
5
10
220.500000
20
314.625000
11
219.250000
21
312.750000
0
LINE
5
13c
100
AcDbEntity
8
1
100
AcDbLine
6
CONTINUOUS
62
5
10
223.250000
20
314.625000
11
224.500000
21
313.062500
0
POLYLINE
5
13d
100
AcDbEntity
8
1
6
CONTINUOUS
62
5
100
AcDb2dPolyline
66
1
10
0.0
20
0.0
30
0.0
70
0
0
VERTEX
5
13e
100
AcDbEntity
8
1
100
AcDbVertex
100
AcDb2dVertex
62
5
10
204.000000
20
327.125000
0
VERTEX
5
13f
100
AcDbEntity
8
1
100
AcDbVertex
100
AcDb2dVertex
62
5
10
207.250000
20
327.125000
0
VERTEX
5
140
100
AcDbEntity
8
1
100
AcDbVertex
100
AcDb2dVertex
62
5
10
207.250000
20
326.812500
0
VERTEX
5
141
100
AcDbEntity
8
1
100
AcDbVertex
100
AcDb2dVertex
62
5
10
206.750000
20
325.562500
0
VERTEX
5
142
100
AcDbEntity
8
1
100
AcDbVertex
100
AcDb2dVertex
62
5
10
206.250000
20
324.625000
0
VERTEX
5
143
100
AcDbEntity
8
1
100
AcDbVertex
100
AcDb2dVertex
62
5
10
205.250000
20
323.375000
0
VERTEX
5
144
100
AcDbEntity
8
1
100
AcDbVertex
100
AcDb2dVertex
62
5
10
203.500000
20
321.812500
0
SEQEND
5
145
100
AcDbEntity
8
1
0
LINE
5
146
100
AcDbEntity
8
1
100
AcDbLine
6
CONTINUOUS
62
5
10
206.250000
20
324.625000
11
208.250000
21
321.812500
0
POLYLINE
5
147
100
AcDbEntity
8
1
6
CONTINUOUS
62
5
100
AcDb2dPolyline
66
1
10
0.0
20
0.0
30
0.0
70
0
0
VERTEX
5
148
100
AcDbEntity
8
1
100
AcDbVertex
100
AcDb2dVertex
62
5
10
204.500000
20
315.562500
0
VERTEX
5
149
100
AcDbEntity
8
1
100
AcDbVertex
100
AcDb2dVertex
62
5
10
206.500000
20
315.562500
0
VERTEX
5
14a
100
AcDbEntity
8
1
100
AcDbVertex
100
AcDb2dVertex
62
5
10
206.250000
20
312.437500
0
SEQEND
5
14b
100
AcDbEntity
8
1
0
LINE
5
14c
100
AcDbEntity
8
1
100
AcDbLine
6
CONTINUOUS
62
5
10
203.750000
20
312.437500
11
208.000000
21
312.437500
0
LINE
5
14d
100
AcDbEntity
8
1
100
AcDbLine
6
CONTINUOUS
62
5
10
195.000000
20
329.000000
11
201.000000
21
329.000000
0
POLYLINE
5
14e
100
AcDbEntity
8
1
6
CONTINUOUS
62
5
100
AcDb2dPolyline
66
1
10
0.0
20
0.0
30
0.0
70
0
0
VERTEX
5
14f
100
AcDbEntity
8
1
100
AcDbVertex
100
AcDb2dVertex
62
5
10
194.500000
20
321.187500
0
VERTEX
5
150
100
AcDbEntity
8
1
100
AcDbVertex
100
AcDb2dVertex
62
5
10
195.250000
20
323.375000
0
VERTEX
5
151
100
AcDbEntity
8
1
100
AcDbVertex
100
AcDb2dVertex
62
5
10
195.500000
20
326.187500
0
VERTEX
5
152
100
AcDbEntity
8
1
100
AcDbVertex
100
AcDb2dVertex
62
5
10
195.500000
20
328.062500
0
VERTEX
5
153
100
AcDbEntity
8
1
100
AcDbVertex
100
AcDb2dVertex
62
5
10
200.750000
20
328.062500
0
VERTEX
5
154
100
AcDbEntity
8
1
100
AcDbVertex
100
AcDb2dVertex
62
5
10
200.750000
20
326.187500
0
VERTEX
5
155
100
AcDbEntity
8
1
100
AcDbVertex
100
AcDb2dVertex
62
5
10
195.500000
20
326.187500
0
SEQEND
5
156
100
AcDbEntity
8
1
0
POLYLINE
5
157
100
AcDbEntity
8
1
6
CONTINUOUS
62
5
100
AcDb2dPolyline
66
1
10
0.0
20
0.0
30
0.0
70
0
0
VERTEX
5
158
100
AcDbEntity
8
1
100
AcDbVertex
100
AcDb2dVertex
62
5
10
196.000000
20
325.250000
0
VERTEX
5
159
100
AcDbEntity
8
1
100
AcDbVertex
100
AcDb2dVertex
62
5
10
198.000000
20
325.250000
0
VERTEX
5
15a
100
AcDbEntity
8
1
100
AcDbVertex
100
AcDb2dVertex
62
5
10
198.000000
20
321.812500
0
VERTEX
5
15b
100
AcDbEntity
8
1
100
AcDbVertex
100
AcDb2dVertex
62
5
10
197.500000
20
321.187500
0
VERTEX
5
15c
100
AcDbEntity
8
1
100
AcDbVertex
100
AcDb2dVertex
62
5
10
197.000000
20
321.187500
0
SEQEND
5
15d
100
AcDbEntity
8
1
0
LINE
5
15e
100
AcDbEntity
8
1
100
AcDbLine
6
CONTINUOUS
62
5
10
196.250000
20
324.312500
11
197.000000
21
323.687500
0
LINE
5
15f
100
AcDbEntity
8
1
100
AcDbLine
6
CONTINUOUS
62
5
10
197.250000
20
323.062500
11
195.750000
21
321.812500
0
POLYLINE
5
160
100
AcDbEntity
8
1
6
CONTINUOUS
62
5
100
AcDb2dPolyline
66
1
10
0.0
20
0.0
30
0.0
70
0
0
VERTEX
5
161
100
AcDbEntity
8
1
100
AcDbVertex
100
AcDb2dVertex
62
5
10
198.750000
20
325.250000
0
VERTEX
5
162
100
AcDbEntity
8
1
100
AcDbVertex
100
AcDb2dVertex
62
5
10
201.000000
20
325.250000
0
VERTEX
5
163
100
AcDbEntity
8
1
100
AcDbVertex
100
AcDb2dVertex
62
5
10
201.000000
20
321.812500
0
VERTEX
5
164
100
AcDbEntity
8
1
100
AcDbVertex
100
AcDb2dVertex
62
5
10
200.500000
20
321.187500
0
VERTEX
5
165
100
AcDbEntity
8
1
100
AcDbVertex
100
AcDb2dVertex
62
5
10
200.000000
20
321.187500
0
SEQEND
5
166
100
AcDbEntity
8
1
0
LINE
5
167
100
AcDbEntity
8
1
100
AcDbLine
6
CONTINUOUS
62
5
10
199.000000
20
324.312500
11
199.750000
21
323.687500
0
LINE
5
168
100
AcDbEntity
8
1
100
AcDbLine
6
CONTINUOUS
62
5
10
200.250000
20
323.062500
11
198.750000
21
321.812500
0
POLYLINE
5
169
100
AcDbEntity
8
1
6
CONTINUOUS
62
5
100
AcDb2dPolyline
66
1
10
0.0
20
0.0
30
0.0
70
0
0
VERTEX
5
16a
100
AcDbEntity
8
1
100
AcDbVertex
100
AcDb2dVertex
62
5
10
195.750000
20
317.750000
0
VERTEX
5
16b
100
AcDbEntity
8
1
100
AcDbVertex
100
AcDb2dVertex
62
5
10
195.750000
20
312.437500
0
VERTEX
5
16c
100
AcDbEntity
8
1
100
AcDbVertex
100
AcDb2dVertex
62
5
10
196.250000
20
311.812500
0
VERTEX
5
16d
100
AcDbEntity
8
1
100
AcDbVertex
100
AcDb2dVertex
62
5
10
199.750000
20
311.812500
0
SEQEND
5
16e
100
AcDbEntity
8
1
0
LINE
5
16f
100
AcDbEntity
8
1
100
AcDbLine
6
CONTINUOUS
62
5
10
199.250000
20
315.875000
11
195.750000
21
314.937500
0
POLYLINE
5
170
100
AcDbEntity
8
1
6
CONTINUOUS
62
5
100
AcDb2dPolyline
66
1
10
0.0
20
0.0
30
0.0
70
1
0
VERTEX
5
171
100
AcDbEntity
8
1
100
AcDbVertex
100
AcDb2dVertex
62
5
10
199.250000
20
317.750000
0
VERTEX
5
172
100
AcDbEntity
8
1
100
AcDbVertex
100
AcDb2dVertex
62
5
10
199.750000
20
318.375000
0
VERTEX
5
173
100
AcDbEntity
8
1
100
AcDbVertex
100
AcDb2dVertex
62
5
10
200.000000
20
318.375000
0
VERTEX
5
174
100
AcDbEntity
8
1
100
AcDbVertex
100
AcDb2dVertex
62
5
10
200.500000
20
317.750000
0
VERTEX
5
175
100
AcDbEntity
8
1
100
AcDbVertex
100
AcDb2dVertex
62
5
10
200.500000
20
317.437500
0
VERTEX
5
176
100
AcDbEntity
8
1
100
AcDbVertex
100
AcDb2dVertex
62
5
10
200.000000
20
316.812500
0
VERTEX
5
177
100
AcDbEntity
8
1
100
AcDbVertex
100
AcDb2dVertex
62
5
10
199.750000
20
316.812500
0
VERTEX
5
178
100
AcDbEntity
8
1
100
AcDbVertex
100
AcDb2dVertex
62
5
10
199.250000
20
317.437500
0
VERTEX
5
179
100
AcDbEntity
8
1
100
AcDbVertex
100
AcDb2dVertex
62
5
10
199.250000
20
317.750000
0
SEQEND
5
17a
100
AcDbEntity
8
1
0
LINE
5
17b
100
AcDbEntity
8
1
100
AcDbLine
6
CONTINUOUS
62
5
10
178.250000
20
327.125000
11
180.250000
21
327.125000
0
LINE
5
17c
100
AcDbEntity
8
1
100
AcDbLine
6
CONTINUOUS
62
5
10
178.250000
20
324.000000
11
180.250000
21
325.562500
0
POLYLINE
5
17d
100
AcDbEntity
8
1
6
CONTINUOUS
62
5
100
AcDb2dPolyline
66
1
10
0.0
20
0.0
30
0.0
70
0
0
VERTEX
5
17e
100
AcDbEntity
8
1
100
AcDbVertex
100
AcDb2dVertex
62
5
10
179.250000
20
329.312500
0
VERTEX
5
17f
100
AcDbEntity
8
1
100
AcDbVertex
100
AcDb2dVertex
62
5
10
179.250000
20
320.875000
0
VERTEX
5
180
100
AcDbEntity
8
1
100
AcDbVertex
100
AcDb2dVertex
62
5
10
178.750000
20
320.875000
0
SEQEND
5
181
100
AcDbEntity
8
1
0
LINE
5
182
100
AcDbEntity
8
1
100
AcDbLine
6
CONTINUOUS
62
5
10
180.750000
20
327.750000
11
181.750000
21
329.625000
0
POLYLINE
5
183
100
AcDbEntity
8
1
6
CONTINUOUS
62
5
100
AcDb2dPolyline
66
1
10
0.0
20
0.0
30
0.0
70
0
0
VERTEX
5
184
100
AcDbEntity
8
1
100
AcDbVertex
100
AcDb2dVertex
62
5
10
181.500000
20
329.000000
0
VERTEX
5
185
100
AcDbEntity
8
1
100
AcDbVertex
100
AcDb2dVertex
62
5
10
183.500000
20
329.000000
0
VERTEX
5
186
100
AcDbEntity
8
1
100
AcDbVertex
100
AcDb2dVertex
62
5
10
182.500000
20
327.125000
0
SEQEND
5
187
100
AcDbEntity
8
1
0
POLYLINE
5
188
100
AcDbEntity
8
1
6
CONTINUOUS
62
5
100
AcDb2dPolyline
66
1
10
0.0
20
0.0
30
0.0
70
0
0
VERTEX
5
189
100
AcDbEntity
8
1
100
AcDbVertex
100
AcDb2dVertex
62
5
10
181.000000
20
324.312500
0
VERTEX
5
18a
100
AcDbEntity
8
1
100
AcDbVertex
100
AcDb2dVertex
62
5
10
181.000000
20
327.125000
0
VERTEX
5
18b
100
AcDbEntity
8
1
100
AcDbVertex
100
AcDb2dVertex
62
5
10
184.500000
20
327.125000
0
VERTEX
5
18c
100
AcDbEntity
8
1
100
AcDbVertex
100
AcDb2dVertex
62
5
10
184.500000
20
324.312500
0
SEQEND
5
18d
100
AcDbEntity
8
1
0
POLYLINE
5
18e
100
AcDbEntity
8
1
6
CONTINUOUS
62
5
100
AcDb2dPolyline
66
1
10
0.0
20
0.0
30
0.0
70
0
0
VERTEX
5
18f
100
AcDbEntity
8
1
100
AcDbVertex
100
AcDb2dVertex
62
5
10
182.250000
20
327.125000
0
VERTEX
5
190
100
AcDbEntity
8
1
100
AcDbVertex
100
AcDb2dVertex
62
5
10
182.250000
20
325.875000
0
VERTEX
5
191
100
AcDbEntity
8
1
100
AcDbVertex
100
AcDb2dVertex
62
5
10
181.500000
20
324.937500
0
SEQEND
5
192
100
AcDbEntity
8
1
0
POLYLINE
5
193
100
AcDbEntity
8
1
6
CONTINUOUS
62
5
100
AcDb2dPolyline
66
1
10
0.0
20
0.0
30
0.0
70
0
0
VERTEX
5
194
100
AcDbEntity
8
1
100
AcDbVertex
100
AcDb2dVertex
62
5
10
183.250000
20
327.125000
0
VERTEX
5
195
100
AcDbEntity
8
1
100
AcDbVertex
100
AcDb2dVertex
62
5
10
183.250000
20
324.937500
0
VERTEX
5
196
100
AcDbEntity
8
1
100
AcDbVertex
100
AcDb2dVertex
62
5
10
184.250000
20
324.937500
0
SEQEND
5
197
100
AcDbEntity
8
1
0
LINE
5
198
100
AcDbEntity
8
1
100
AcDbLine
6
CONTINUOUS
62
5
10
180.000000
20
323.375000
11
185.500000
21
323.375000
0
POLYLINE
5
199
100
AcDbEntity
8
1
6
CONTINUOUS
62
5
100
AcDb2dPolyline
66
1
10
0.0
20
0.0
30
0.0
70
0
0
VERTEX
5
19a
100
AcDbEntity
8
1
100
AcDbVertex
100
AcDb2dVertex
62
5
10
182.500000
20
324.625000
0
VERTEX
5
19b
100
AcDbEntity
8
1
100
AcDbVertex
100
AcDb2dVertex
62
5
10
182.500000
20
323.375000
0
VERTEX
5
19c
100
AcDbEntity
8
1
100
AcDbVertex
100
AcDb2dVertex
62
5
10
182.000000
20
322.125000
0
VERTEX
5
19d
100
AcDbEntity
8
1
100
AcDbVertex
100
AcDb2dVertex
62
5
10
181.250000
20
321.187500
0
VERTEX
5
19e
100
AcDbEntity
8
1
100
AcDbVertex
100
AcDb2dVertex
62
5
10
180.000000
20
320.562500
0
SEQEND
5
19f
100
AcDbEntity
8
1
0
POLYLINE
5
1a0
100
AcDbEntity
8
1
6
CONTINUOUS
62
5
100
AcDb2dPolyline
66
1
10
0.0
20
0.0
30
0.0
70
0
0
VERTEX
5
1a1
100
AcDbEntity
8
1
100
AcDbVertex
100
AcDb2dVertex
62
5
10
182.500000
20
323.375000
0
VERTEX
5
1a2
100
AcDbEntity
8
1
100
AcDbVertex
100
AcDb2dVertex
62
5
10
183.250000
20
322.125000
0
VERTEX
5
1a3
100
AcDbEntity
8
1
100
AcDbVertex
100
AcDb2dVertex
62
5
10
184.250000
20
321.187500
0
VERTEX
5
1a4
100
AcDbEntity
8
1
100
AcDbVertex
100
AcDb2dVertex
62
5
10
185.250000
20
320.562500
0
SEQEND
5
1a5
100
AcDbEntity
8
1
0
POLYLINE
5
1a6
100
AcDbEntity
8
1
6
CONTINUOUS
62
5
100
AcDb2dPolyline
66
1
10
0.0
20
0.0
30
0.0
70
0
0
VERTEX
5
1a7
100
AcDbEntity
8
1
100
AcDbVertex
100
AcDb2dVertex
62
5
10
171.750000
20
315.250000
0
VERTEX
5
1a8
100
AcDbEntity
8
1
100
AcDbVertex
100
AcDb2dVertex
62
5
10
172.750000
20
316.500000
0
VERTEX
5
1a9
100
AcDbEntity
8
1
100
AcDbVertex
100
AcDb2dVertex
62
5
10
173.250000
20
317.437500
0
VERTEX
5
1aa
100
AcDbEntity
8
1
100
AcDbVertex
100
AcDb2dVertex
62
5
10
175.750000
20
317.437500
0
VERTEX
5
1ab
100
AcDbEntity
8
1
100
AcDbVertex
100
AcDb2dVertex
62
5
10
175.750000
20
317.125000
0
VERTEX
5
1ac
100
AcDbEntity
8
1
100
AcDbVertex
100
AcDb2dVertex
62
5
10
175.000000
20
315.250000
0
VERTEX
5
1ad
100
AcDbEntity
8
1
100
AcDbVertex
100
AcDb2dVertex
62
5
10
173.750000
20
313.375000
0
VERTEX
5
1ae
100
AcDbEntity
8
1
100
AcDbVertex
100
AcDb2dVertex
62
5
10
172.250000
20
311.812500
0
SEQEND
5
1af
100
AcDbEntity
8
1
0
POLYLINE
5
1b0
100
AcDbEntity
8
1
6
CONTINUOUS
62
5
100
AcDb2dPolyline
66
1
10
0.0
20
0.0
30
0.0
70
0
0
VERTEX
5
1b1
100
AcDbEntity
8
1
100
AcDbVertex
100
AcDb2dVertex
62
5
10
179.500000
20
319.000000
0
VERTEX
5
1b2
100
AcDbEntity
8
1
100
AcDbVertex
100
AcDb2dVertex
62
5
10
179.500000
20
313.375000
0
VERTEX
5
1b3
100
AcDbEntity
8
1
100
AcDbVertex
100
AcDb2dVertex
62
5
10
179.000000
20
312.125000
0
VERTEX
5
1b4
100
AcDbEntity
8
1
100
AcDbVertex
100
AcDb2dVertex
62
5
10
178.500000
20
311.187500
0
SEQEND
5
1b5
100
AcDbEntity
8
1
0
POLYLINE
5
1b6
100
AcDbEntity
8
1
6
CONTINUOUS
62
5
100
AcDb2dPolyline
66
1
10
0.0
20
0.0
30
0.0
70
0
0
VERTEX
5
1b7
100
AcDbEntity
8
1
100
AcDbVertex
100
AcDb2dVertex
62
5
10
183.500000
20
311.500000
0
VERTEX
5
1b8
100
AcDbEntity
8
1
100
AcDbVertex
100
AcDb2dVertex
62
5
10
184.500000
20
310.875000
0
VERTEX
5
1b9
100
AcDbEntity
8
1
100
AcDbVertex
100
AcDb2dVertex
62
5
10
184.500000
20
319.000000
0
VERTEX
5
1ba
100
AcDbEntity
8
1
100
AcDbVertex
100
AcDb2dVertex
62
5
10
179.500000
20
319.000000
0
SEQEND
5
1bb
100
AcDbEntity
8
1
0
LINE
5
1bc
100
AcDbEntity
8
1
100
AcDbLine
6
CONTINUOUS
62
5
10
179.500000
20
316.500000
11
184.500000
21
316.500000
0
LINE
5
1bd
100
AcDbEntity
8
1
100
AcDbLine
6
CONTINUOUS
62
5
10
182.000000
20
319.000000
11
182.000000
21
310.875000
0
LINE
5
1be
100
AcDbEntity
8
1
100
AcDbLine
6
CONTINUOUS
62
5
10
179.500000
20
314.000000
11
184.500000
21
314.000000
0
LINE
5
1bf
100
AcDbEntity
8
1
100
AcDbLine
6
CONTINUOUS
62
5
10
164.000000
20
327.437500
11
167.750000
21
328.062500
0
LINE
5
1c0
100
AcDbEntity
8
1
100
AcDbLine
6
CONTINUOUS
62
5
10
162.750000
20
325.562500
11
168.750000
21
325.562500
0
POLYLINE
5
1c1
100
AcDbEntity
8
1
6
CONTINUOUS
62
5
100
AcDb2dPolyline
66
1
10
0.0
20
0.0
30
0.0
70
0
0
VERTEX
5
1c2
100
AcDbEntity
8
1
100
AcDbVertex
100
AcDb2dVertex
62
5
10
166.000000
20
327.750000
0
VERTEX
5
1c3
100
AcDbEntity
8
1
100
AcDbVertex
100
AcDb2dVertex
62
5
10
166.000000
20
325.562500
0
VERTEX
5
1c4
100
AcDbEntity
8
1
100
AcDbVertex
100
AcDb2dVertex
62
5
10
165.750000
20
324.000000
0
VERTEX
5
1c5
100
AcDbEntity
8
1
100
AcDbVertex
100
AcDb2dVertex
62
5
10
165.000000
20
322.750000
0
VERTEX
5
1c6
100
AcDbEntity
8
1
100
AcDbVertex
100
AcDb2dVertex
62
5
10
164.250000
20
321.812500
0
SEQEND
5
1c7
100
AcDbEntity
8
1
0
LINE
5
1c8
100
AcDbEntity
8
1
100
AcDbLine
6
CONTINUOUS
62
5
10
164.250000
20
315.562500
11
164.500000
21
314.312500
0
LINE
5
1c9
100
AcDbEntity
8
1
100
AcDbLine
6
CONTINUOUS
62
5
10
165.750000
20
315.875000
11
166.000000
21
314.625000
0
POLYLINE
5
1ca
100
AcDbEntity
8
1
6
CONTINUOUS
62
5
100
AcDb2dPolyline
66
1
10
0.0
20
0.0
30
0.0
70
0
0
VERTEX
5
1cb
100
AcDbEntity
8
1
100
AcDbVertex
100
AcDb2dVertex
62
5
10
167.750000
20
315.875000
0
VERTEX
5
1cc
100
AcDbEntity
8
1
100
AcDbVertex
100
AcDb2dVertex
62
5
10
167.500000
20
314.312500
0
VERTEX
5
1cd
100
AcDbEntity
8
1
100
AcDbVertex
100
AcDb2dVertex
62
5
10
166.250000
20
312.437500
0
VERTEX
5
1ce
100
AcDbEntity
8
1
100
AcDbVertex
100
AcDb2dVertex
62
5
10
165.250000
20
311.500000
0
SEQEND
5
1cf
100
AcDbEntity
8
1
0
LINE
5
1d0
100
AcDbEntity
8
1
100
AcDbLine
6
CONTINUOUS
62
5
10
156.250000
20
325.562500
11
156.500000
21
324.312500
0
LINE
5
1d1
100
AcDbEntity
8
1
100
AcDbLine
6
CONTINUOUS
62
5
10
157.750000
20
325.875000
11
158.000000
21
324.625000
0
POLYLINE
5
1d2
100
AcDbEntity
8
1
6
CONTINUOUS
62
5
100
AcDb2dPolyline
66
1
10
0.0
20
0.0
30
0.0
70
0
0
VERTEX
5
1d3
100
AcDbEntity
8
1
100
AcDbVertex
100
AcDb2dVertex
62
5
10
159.750000
20
325.875000
0
VERTEX
5
1d4
100
AcDbEntity
8
1
100
AcDbVertex
100
AcDb2dVertex
62
5
10
159.500000
20
324.312500
0
VERTEX
5
1d5
100
AcDbEntity
8
1
100
AcDbVertex
100
AcDb2dVertex
62
5
10
158.250000
20
322.437500
0
VERTEX
5
1d6
100
AcDbEntity
8
1
100
AcDbVertex
100
AcDb2dVertex
62
5
10
157.250000
20
321.500000
0
SEQEND
5
1d7
100
AcDbEntity
8
1
0
LINE
5
1d8
100
AcDbEntity
8
1
100
AcDbLine
6
CONTINUOUS
62
5
10
156.250000
20
315.250000
11
159.250000
21
315.250000
0
LINE
5
1d9
100
AcDbEntity
8
1
100
AcDbLine
6
CONTINUOUS
62
5
10
155.750000
20
312.437500
11
159.750000
21
312.437500
0
LINE
5
1da
100
AcDbEntity
8
1
100
AcDbLine
6
CONTINUOUS
62
5
10
157.750000
20
315.250000
11
157.750000
21
312.437500
0
POLYLINE
5
1db
100
AcDbEntity
8
1
6
CONTINUOUS
62
5
100
AcDb2dPolyline
66
1
10
0.0
20
0.0
30
0.0
70
0
0
VERTEX
5
1dc
100
AcDbEntity
8
1
100
AcDbVertex
100
AcDb2dVertex
62
5
10
186.500000
20
326.812500
0
VERTEX
5
1dd
100
AcDbEntity
8
1
100
AcDbVertex
100
AcDb2dVertex
62
5
10
187.250000
20
327.437500
0
VERTEX
5
1de
100
AcDbEntity
8
1
100
AcDbVertex
100
AcDb2dVertex
62
5
10
188.000000
20
328.687500
0
VERTEX
5
1df
100
AcDbEntity
8
1
100
AcDbVertex
100
AcDb2dVertex
62
5
10
188.500000
20
329.625000
0
SEQEND
5
1e0
100
AcDbEntity
8
1
0
LINE
5
1e1
100
AcDbEntity
8
1
100
AcDbLine
6
CONTINUOUS
62
5
10
188.000000
20
328.687500
11
192.750000
21
328.687500
0
LINE
5
1e2
100
AcDbEntity
8
1
100
AcDbLine
6
CONTINUOUS
62
5
10
188.250000
20
327.125000
11
192.000000
21
327.125000
0
POLYLINE
5
1e3
100
AcDbEntity
8
1
6
CONTINUOUS
62
5
100
AcDb2dPolyline
66
1
10
0.0
20
0.0
30
0.0
70
0
0
VERTEX
5
1e4
100
AcDbEntity
8
1
100
AcDbVertex
100
AcDb2dVertex
62
5
10
187.250000
20
325.875000
0
VERTEX
5
1e5
100
AcDbEntity
8
1
100
AcDbVertex
100
AcDb2dVertex
62
5
10
192.000000
20
325.875000
0
VERTEX
5
1e6
100
AcDbEntity
8
1
100
AcDbVertex
100
AcDb2dVertex
62
5
10
192.000000
20
322.750000
0
VERTEX
5
1e7
100
AcDbEntity
8
1
100
AcDbVertex
100
AcDb2dVertex
62
5
10
192.250000
20
321.812500
0
VERTEX
5
1e8
100
AcDbEntity
8
1
100
AcDbVertex
100
AcDb2dVertex
62
5
10
192.750000
20
320.875000
0
VERTEX
5
1e9
100
AcDbEntity
8
1
100
AcDbVertex
100
AcDb2dVertex
62
5
10
193.250000
20
322.750000
0
SEQEND
5
1ea
100
AcDbEntity
8
1
0
POLYLINE
5
1eb
100
AcDbEntity
8
1
6
CONTINUOUS
62
5
100
AcDb2dPolyline
66
1
10
0.0
20
0.0
30
0.0
70
0
0
VERTEX
5
1ec
100
AcDbEntity
8
1
100
AcDbVertex
100
AcDb2dVertex
62
5
10
188.250000
20
324.000000
0
VERTEX
5
1ed
100
AcDbEntity
8
1
100
AcDbVertex
100
AcDb2dVertex
62
5
10
189.500000
20
323.062500
0
VERTEX
5
1ee
100
AcDbEntity
8
1
100
AcDbVertex
100
AcDb2dVertex
62
5
10
190.500000
20
322.125000
0
SEQEND
5
1ef
100
AcDbEntity
8
1
0
POLYLINE
5
1f0
100
AcDbEntity
8
1
6
CONTINUOUS
62
5
100
AcDb2dPolyline
66
1
10
0.0
20
0.0
30
0.0
70
0
0
VERTEX
5
1f1
100
AcDbEntity
8
1
100
AcDbVertex
100
AcDb2dVertex
62
5
10
190.500000
20
324.625000
0
VERTEX
5
1f2
100
AcDbEntity
8
1
100
AcDbVertex
100
AcDb2dVertex
62
5
10
189.000000
20
322.750000
0
VERTEX
5
1f3
100
AcDbEntity
8
1
100
AcDbVertex
100
AcDb2dVertex
62
5
10
187.750000
20
321.812500
0
VERTEX
5
1f4
100
AcDbEntity
8
1
100
AcDbVertex
100
AcDb2dVertex
62
5
10
186.500000
20
321.187500
0
SEQEND
5
1f5
100
AcDbEntity
8
1
0
LINE
5
1f6
100
AcDbEntity
8
1
100
AcDbLine
6
CONTINUOUS
62
5
10
228.000000
20
327.437500
11
231.750000
21
328.062500
0
LINE
5
1f7
100
AcDbEntity
8
1
100
AcDbLine
6
CONTINUOUS
62
5
10
226.750000
20
325.562500
11
232.750000
21
325.562500
0
POLYLINE
5
1f8
100
AcDbEntity
8
1
6
CONTINUOUS
62
5
100
AcDb2dPolyline
66
1
10
0.0
20
0.0
30
0.0
70
0
0
VERTEX
5
1f9
100
AcDbEntity
8
1
100
AcDbVertex
100
AcDb2dVertex
62
5
10
230.000000
20
327.750000
0
VERTEX
5
1fa
100
AcDbEntity
8
1
100
AcDbVertex
100
AcDb2dVertex
62
5
10
230.000000
20
325.562500
0
VERTEX
5
1fb
100
AcDbEntity
8
1
100
AcDbVertex
100
AcDb2dVertex
62
5
10
229.750000
20
324.000000
0
VERTEX
5
1fc
100
AcDbEntity
8
1
100
AcDbVertex
100
AcDb2dVertex
62
5
10
229.000000
20
322.750000
0
VERTEX
5
1fd
100
AcDbEntity
8
1
100
AcDbVertex
100
AcDb2dVertex
62
5
10
228.250000
20
321.812500
0
SEQEND
5
1fe
100
AcDbEntity
8
1
0
POLYLINE
5
1ff
100
AcDbEntity
8
1
6
CONTINUOUS
62
5
100
AcDb2dPolyline
66
1
10
0.0
20
0.0
30
0.0
70
0
0
VERTEX
5
200
100
AcDbEntity
8
1
100
AcDbVertex
100
AcDb2dVertex
62
5
10
227.750000
20
315.562500
0
VERTEX
5
201
100
AcDbEntity
8
1
100
AcDbVertex
100
AcDb2dVertex
62
5
10
227.750000
20
317.750000
0
VERTEX
5
202
100
AcDbEntity
8
1
100
AcDbVertex
100
AcDb2dVertex
62
5
10
231.750000
20
317.750000
0
VERTEX
5
203
100
AcDbEntity
8
1
100
AcDbVertex
100
AcDb2dVertex
62
5
10
231.750000
20
316.812500
0
VERTEX
5
204
100
AcDbEntity
8
1
100
AcDbVertex
100
AcDb2dVertex
62
5
10
231.500000
20
315.250000
0
VERTEX
5
205
100
AcDbEntity
8
1
100
AcDbVertex
100
AcDb2dVertex
62
5
10
231.000000
20
314.000000
0
VERTEX
5
206
100
AcDbEntity
8
1
100
AcDbVertex
100
AcDb2dVertex
62
5
10
230.500000
20
313.062500
0
VERTEX
5
207
100
AcDbEntity
8
1
100
AcDbVertex
100
AcDb2dVertex
62
5
10
229.500000
20
311.812500
0
SEQEND
5
208
100
AcDbEntity
8
1
0
POLYLINE
5
209
100
AcDbEntity
8
1
6
DOT2
62
5
100
AcDb2dPolyline
66
1
10
0.0
20
0.0
30
0.0
70
1
0
VERTEX
5
20a
100
AcDbEntity
8
1
100
AcDbVertex
100
AcDb2dVertex
62
5
10
213.175000
20
243.750000
0
VERTEX
5
20b
100
AcDbEntity
8
1
100
AcDbVertex
100
AcDb2dVertex
62
5
10
213.800000
20
243.750000
0
VERTEX
5
20c
100
AcDbEntity
8
1
100
AcDbVertex
100
AcDb2dVertex
62
5
10
214.112500
20
243.437500
0
VERTEX
5
20d
100
AcDbEntity
8
1
100
AcDbVertex
100
AcDb2dVertex
62
5
10
214.737500
20
242.187500
0
VERTEX
5
20e
100
AcDbEntity
8
1
100
AcDbVertex
100
AcDb2dVertex
62
5
10
215.050000
20
240.937500
0
VERTEX
5
20f
100
AcDbEntity
8
1
100
AcDbVertex
100
AcDb2dVertex
62
5
10
215.050000
20
239.062500
0
VERTEX
5
210
100
AcDbEntity
8
1
100
AcDbVertex
100
AcDb2dVertex
62
5
10
214.737500
20
237.812500
0
VERTEX
5
211
100
AcDbEntity
8
1
100
AcDbVertex
100
AcDb2dVertex
62
5
10
214.112500
20
236.562500
0
VERTEX
5
212
100
AcDbEntity
8
1
100
AcDbVertex
100
AcDb2dVertex
62
5
10
213.800000
20
236.250000
0
VERTEX
5
213
100
AcDbEntity
8
1
100
AcDbVertex
100
AcDb2dVertex
62
5
10
213.175000
20
236.250000
0
VERTEX
5
214
100
AcDbEntity
8
1
100
AcDbVertex
100
AcDb2dVertex
62
5
10
212.862500
20
236.562500
0
VERTEX
5
215
100
AcDbEntity
8
1
100
AcDbVertex
100
AcDb2dVertex
62
5
10
212.237500
20
237.812500
0
VERTEX
5
216
100
AcDbEntity
8
1
100
AcDbVertex
100
AcDb2dVertex
62
5
10
211.925000
20
239.062500
0
VERTEX
5
217
100
AcDbEntity
8
1
100
AcDbVertex
100
AcDb2dVertex
62
5
10
211.925000
20
240.937500
0
VERTEX
5
218
100
AcDbEntity
8
1
100
AcDbVertex
100
AcDb2dVertex
62
5
10
212.237500
20
242.187500
0
VERTEX
5
219
100
AcDbEntity
8
1
100
AcDbVertex
100
AcDb2dVertex
62
5
10
212.862500
20
243.437500
0
VERTEX
5
21a
100
AcDbEntity
8
1
100
AcDbVertex
100
AcDb2dVertex
62
5
10
213.175000
20
243.750000
0
SEQEND
5
21b
100
AcDbEntity
8
1
0
POLYLINE
5
21c
100
AcDbEntity
8
1
6
DOT2
62
5
100
AcDb2dPolyline
66
1
10
0.0
20
0.0
30
0.0
70
0
0
VERTEX
5
21d
100
AcDbEntity
8
1
100
AcDbVertex
100
AcDb2dVertex
62
5
10
206.925000
20
242.812500
0
VERTEX
5
21e
100
AcDbEntity
8
1
100
AcDbVertex
100
AcDb2dVertex
62
5
10
206.925000
20
243.750000
0
VERTEX
5
21f
100
AcDbEntity
8
1
100
AcDbVertex
100
AcDb2dVertex
62
5
10
210.050000
20
243.750000
0
VERTEX
5
220
100
AcDbEntity
8
1
100
AcDbVertex
100
AcDb2dVertex
62
5
10
210.050000
20
243.125000
0
VERTEX
5
221
100
AcDbEntity
8
1
100
AcDbVertex
100
AcDb2dVertex
62
5
10
209.425000
20
241.562500
0
VERTEX
5
222
100
AcDbEntity
8
1
100
AcDbVertex
100
AcDb2dVertex
62
5
10
208.800000
20
239.375000
0
VERTEX
5
223
100
AcDbEntity
8
1
100
AcDbVertex
100
AcDb2dVertex
62
5
10
208.175000
20
236.250000
0
SEQEND
5
224
100
AcDbEntity
8
1
0
LINE
5
225
100
AcDbEntity
8
1
100
AcDbLine
6
CONTINUOUS
62
5
10
226.925000
20
183.250000
11
226.674999
21
182.650000
0
LINE
5
226
100
AcDbEntity
8
1
100
AcDbLine
6
CONTINUOUS
62
5
10
226.925000
20
183.250000
11
228.825000
21
183.250000
0
POLYLINE
5
227
100
AcDbEntity
8
1
6
CONTINUOUS
62
5
100
AcDb2dPolyline
66
1
10
0.0
20
0.0
30
0.0
70
1
0
VERTEX
5
228
100
AcDbEntity
8
1
100
AcDbVertex
100
AcDb2dVertex
62
5
10
226.674999
20
182.650000
0
VERTEX
5
229
100
AcDbEntity
8
1
100
AcDbVertex
100
AcDb2dVertex
62
5
10
226.925000
20
183.250000
0
VERTEX
5
22a
100
AcDbEntity
8
1
100
AcDbVertex
100
AcDb2dVertex
62
5
10
228.825000
20
183.250000
0
VERTEX
5
22b
100
AcDbEntity
8
1
100
AcDbVertex
100
AcDb2dVertex
62
5
10
229.075001
20
182.650000
0
VERTEX
5
22c
100
AcDbEntity
8
1
100
AcDbVertex
100
AcDb2dVertex
62
5
10
226.674999
20
182.650000
0
SEQEND
5
22d
100
AcDbEntity
8
1
0
LINE
5
22e
100
AcDbEntity
8
1
100
AcDbLine
6
CONTINUOUS
62
5
10
228.825000
20
183.250000
11
228.825000
21
183.700000
0
LINE
5
22f
100
AcDbEntity
8
1
100
AcDbLine
6
CONTINUOUS
62
5
10
226.925000
20
183.700000
11
226.925000
21
183.250000
0
LINE
5
230
100
AcDbEntity
8
1
100
AcDbLine
6
CONTINUOUS
62
5
10
214.757707
20
193.881486
11
215.900564
21
193.881486
0
LINE
5
231
100
AcDbEntity
8
1
100
AcDbLine
6
CONTINUOUS
62
5
10
214.757707
20
192.452915
11
215.900564
21
193.167201
0
POLYLINE
5
232
100
AcDbEntity
8
1
6
CONTINUOUS
62
5
100
AcDb2dPolyline
66
1
10
0.0
20
0.0
30
0.0
70
0
0
VERTEX
5
233
100
AcDbEntity
8
1
100
AcDbVertex
100
AcDb2dVertex
62
5
10
215.329135
20
194.881486
0
VERTEX
5
234
100
AcDbEntity
8
1
100
AcDbVertex
100
AcDb2dVertex
62
5
10
215.329135
20
191.024344
0
VERTEX
5
235
100
AcDbEntity
8
1
100
AcDbVertex
100
AcDb2dVertex
62
5
10
215.043421
20
191.024344
0
SEQEND
5
236
100
AcDbEntity
8
1
0
LINE
5
237
100
AcDbEntity
8
1
100
AcDbLine
6
CONTINUOUS
62
5
10
216.186278
20
194.167201
11
216.757707
21
195.024344
0
POLYLINE
5
238
100
AcDbEntity
8
1
6
CONTINUOUS
62
5
100
AcDb2dPolyline
66
1
10
0.0
20
0.0
30
0.0
70
0
0
VERTEX
5
239
100
AcDbEntity
8
1
100
AcDbVertex
100
AcDb2dVertex
62
5
10
216.614850
20
194.738629
0
VERTEX
5
23a
100
AcDbEntity
8
1
100
AcDbVertex
100
AcDb2dVertex
62
5
10
217.757707
20
194.738629
0
VERTEX
5
23b
100
AcDbEntity
8
1
100
AcDbVertex
100
AcDb2dVertex
62
5
10
217.186278
20
193.881486
0
SEQEND
5
23c
100
AcDbEntity
8
1
0
POLYLINE
5
23d
100
AcDbEntity
8
1
6
CONTINUOUS
62
5
100
AcDb2dPolyline
66
1
10
0.0
20
0.0
30
0.0
70
0
0
VERTEX
5
23e
100
AcDbEntity
8
1
100
AcDbVertex
100
AcDb2dVertex
62
5
10
216.329135
20
192.595772
0
VERTEX
5
23f
100
AcDbEntity
8
1
100
AcDbVertex
100
AcDb2dVertex
62
5
10
216.329135
20
193.881486
0
VERTEX
5
240
100
AcDbEntity
8
1
100
AcDbVertex
100
AcDb2dVertex
62
5
10
218.329135
20
193.881486
0
VERTEX
5
241
100
AcDbEntity
8
1
100
AcDbVertex
100
AcDb2dVertex
62
5
10
218.329135
20
192.595772
0
SEQEND
5
242
100
AcDbEntity
8
1
0
POLYLINE
5
243
100
AcDbEntity
8
1
6
CONTINUOUS
62
5
100
AcDb2dPolyline
66
1
10
0.0
20
0.0
30
0.0
70
0
0
VERTEX
5
244
100
AcDbEntity
8
1
100
AcDbVertex
100
AcDb2dVertex
62
5
10
217.043421
20
193.881486
0
VERTEX
5
245
100
AcDbEntity
8
1
100
AcDbVertex
100
AcDb2dVertex
62
5
10
217.043421
20
193.310058
0
VERTEX
5
246
100
AcDbEntity
8
1
100
AcDbVertex
100
AcDb2dVertex
62
5
10
216.614850
20
192.881486
0
SEQEND
5
247
100
AcDbEntity
8
1
0
POLYLINE
5
248
100
AcDbEntity
8
1
6
CONTINUOUS
62
5
100
AcDb2dPolyline
66
1
10
0.0
20
0.0
30
0.0
70
0
0
VERTEX
5
249
100
AcDbEntity
8
1
100
AcDbVertex
100
AcDb2dVertex
62
5
10
217.614850
20
193.881486
0
VERTEX
5
24a
100
AcDbEntity
8
1
100
AcDbVertex
100
AcDb2dVertex
62
5
10
217.614850
20
192.881486
0
VERTEX
5
24b
100
AcDbEntity
8
1
100
AcDbVertex
100
AcDb2dVertex
62
5
10
218.186278
20
192.881486
0
SEQEND
5
24c
100
AcDbEntity
8
1
0
LINE
5
24d
100
AcDbEntity
8
1
100
AcDbLine
6
CONTINUOUS
62
5
10
215.757707
20
192.167201
11
218.900564
21
192.167201
0
POLYLINE
5
24e
100
AcDbEntity
8
1
6
CONTINUOUS
62
5
100
AcDb2dPolyline
66
1
10
0.0
20
0.0
30
0.0
70
0
0
VERTEX
5
24f
100
AcDbEntity
8
1
100
AcDbVertex
100
AcDb2dVertex
62
5
10
217.186278
20
192.738629
0
VERTEX
5
250
100
AcDbEntity
8
1
100
AcDbVertex
100
AcDb2dVertex
62
5
10
217.186278
20
192.167201
0
VERTEX
5
251
100
AcDbEntity
8
1
100
AcDbVertex
100
AcDb2dVertex
62
5
10
216.900564
20
191.595772
0
VERTEX
5
252
100
AcDbEntity
8
1
100
AcDbVertex
100
AcDb2dVertex
62
5
10
216.471992
20
191.167201
0
VERTEX
5
253
100
AcDbEntity
8
1
100
AcDbVertex
100
AcDb2dVertex
62
5
10
215.757707
20
190.881486
0
SEQEND
5
254
100
AcDbEntity
8
1
0
POLYLINE
5
255
100
AcDbEntity
8
1
6
CONTINUOUS
62
5
100
AcDb2dPolyline
66
1
10
0.0
20
0.0
30
0.0
70
0
0
VERTEX
5
256
100
AcDbEntity
8
1
100
AcDbVertex
100
AcDb2dVertex
62
5
10
217.186278
20
192.167201
0
VERTEX
5
257
100
AcDbEntity
8
1
100
AcDbVertex
100
AcDb2dVertex
62
5
10
217.614850
20
191.595772
0
VERTEX
5
258
100
AcDbEntity
8
1
100
AcDbVertex
100
AcDb2dVertex
62
5
10
218.186278
20
191.167201
0
VERTEX
5
259
100
AcDbEntity
8
1
100
AcDbVertex
100
AcDb2dVertex
62
5
10
218.757707
20
190.881486
0
SEQEND
5
25a
100
AcDbEntity
8
1
0
POLYLINE
5
25b
100
AcDbEntity
8
1
6
CONTINUOUS
62
5
100
AcDb2dPolyline
66
1
10
0.0
20
0.0
30
0.0
70
0
0
VERTEX
5
25c
100
AcDbEntity
8
1
100
AcDbVertex
100
AcDb2dVertex
62
5
10
219.471992
20
193.738629
0
VERTEX
5
25d
100
AcDbEntity
8
1
100
AcDbVertex
100
AcDb2dVertex
62
5
10
219.900564
20
194.024344
0
VERTEX
5
25e
100
AcDbEntity
8
1
100
AcDbVertex
100
AcDb2dVertex
62
5
10
220.329135
20
194.595772
0
VERTEX
5
25f
100
AcDbEntity
8
1
100
AcDbVertex
100
AcDb2dVertex
62
5
10
220.614850
20
195.024344
0
SEQEND
5
260
100
AcDbEntity
8
1
0
LINE
5
261
100
AcDbEntity
8
1
100
AcDbLine
6
CONTINUOUS
62
5
10
220.329135
20
194.595772
11
223.043421
21
194.595772
0
LINE
5
262
100
AcDbEntity
8
1
100
AcDbLine
6
CONTINUOUS
62
5
10
220.471992
20
193.881486
11
222.614850
21
193.881486
0
POLYLINE
5
263
100
AcDbEntity
8
1
6
CONTINUOUS
62
5
100
AcDb2dPolyline
66
1
10
0.0
20
0.0
30
0.0
70
0
0
VERTEX
5
264
100
AcDbEntity
8
1
100
AcDbVertex
100
AcDb2dVertex
62
5
10
219.900564
20
193.310058
0
VERTEX
5
265
100
AcDbEntity
8
1
100
AcDbVertex
100
AcDb2dVertex
62
5
10
222.614850
20
193.310058
0
VERTEX
5
266
100
AcDbEntity
8
1
100
AcDbVertex
100
AcDb2dVertex
62
5
10
222.614850
20
191.881486
0
VERTEX
5
267
100
AcDbEntity
8
1
100
AcDbVertex
100
AcDb2dVertex
62
5
10
222.757707
20
191.452915
0
VERTEX
5
268
100
AcDbEntity
8
1
100
AcDbVertex
100
AcDb2dVertex
62
5
10
223.043421
20
191.024344
0
VERTEX
5
269
100
AcDbEntity
8
1
100
AcDbVertex
100
AcDb2dVertex
62
5
10
223.329135
20
191.881486
0
SEQEND
5
26a
100
AcDbEntity
8
1
0
POLYLINE
5
26b
100
AcDbEntity
8
1
6
CONTINUOUS
62
5
100
AcDb2dPolyline
66
1
10
0.0
20
0.0
30
0.0
70
0
0
VERTEX
5
26c
100
AcDbEntity
8
1
100
AcDbVertex
100
AcDb2dVertex
62
5
10
220.471992
20
192.452915
0
VERTEX
5
26d
100
AcDbEntity
8
1
100
AcDbVertex
100
AcDb2dVertex
62
5
10
221.186278
20
192.024344
0
VERTEX
5
26e
100
AcDbEntity
8
1
100
AcDbVertex
100
AcDb2dVertex
62
5
10
221.757707
20
191.595772
0
SEQEND
5
26f
100
AcDbEntity
8
1
0
POLYLINE
5
270
100
AcDbEntity
8
1
6
CONTINUOUS
62
5
100
AcDb2dPolyline
66
1
10
0.0
20
0.0
30
0.0
70
0
0
VERTEX
5
271
100
AcDbEntity
8
1
100
AcDbVertex
100
AcDb2dVertex
62
5
10
221.757707
20
192.738629
0
VERTEX
5
272
100
AcDbEntity
8
1
100
AcDbVertex
100
AcDb2dVertex
62
5
10
220.900564
20
191.881486
0
VERTEX
5
273
100
AcDbEntity
8
1
100
AcDbVertex
100
AcDb2dVertex
62
5
10
220.186278
20
191.452915
0
VERTEX
5
274
100
AcDbEntity
8
1
100
AcDbVertex
100
AcDb2dVertex
62
5
10
219.471992
20
191.167201
0
SEQEND
5
275
100
AcDbEntity
8
1
0
POLYLINE
5
276
100
AcDbEntity
8
1
6
CONTINUOUS
62
5
100
AcDb2dPolyline
66
1
10
0.0
20
0.0
30
0.0
70
1
0
VERTEX
5
277
100
AcDbEntity
8
1
100
AcDbVertex
100
AcDb2dVertex
62
5
10
205.336654
20
194.595772
0
VERTEX
5
278
100
AcDbEntity
8
1
100
AcDbVertex
100
AcDb2dVertex
62
5
10
205.336654
20
191.738629
0
VERTEX
5
279
100
AcDbEntity
8
1
100
AcDbVertex
100
AcDb2dVertex
62
5
10
206.336654
20
191.738629
0
VERTEX
5
27a
100
AcDbEntity
8
1
100
AcDbVertex
100
AcDb2dVertex
62
5
10
206.336654
20
194.595772
0
VERTEX
5
27b
100
AcDbEntity
8
1
100
AcDbVertex
100
AcDb2dVertex
62
5
10
205.336654
20
194.595772
0
SEQEND
5
27c
100
AcDbEntity
8
1
0
LINE
5
27d
100
AcDbEntity
8
1
100
AcDbLine
6
CONTINUOUS
62
5
10
205.336654
20
193.167201
11
206.336654
21
193.167201
0
LINE
5
27e
100
AcDbEntity
8
1
100
AcDbLine
6
CONTINUOUS
62
5
10
206.908083
20
194.310058
11
209.050940
21
194.310058
0
LINE
5
27f
100
AcDbEntity
8
1
100
AcDbLine
6
CONTINUOUS
62
5
10
206.622368
20
193.452915
11
209.336654
21
193.452915
0
LINE
5
280
100
AcDbEntity
8
1
100
AcDbLine
6
CONTINUOUS
62
5
10
207.908083
20
195.024344
11
207.908083
21
193.452915
0
LINE
5
281
100
AcDbEntity
8
1
100
AcDbLine
6
CONTINUOUS
62
5
10
206.765226
20
192.595772
11
209.193797
21
192.595772
0
POLYLINE
5
282
100
AcDbEntity
8
1
6
CONTINUOUS
62
5
100
AcDb2dPolyline
66
1
10
0.0
20
0.0
30
0.0
70
0
0
VERTEX
5
283
100
AcDbEntity
8
1
100
AcDbVertex
100
AcDb2dVertex
62
5
10
208.479511
20
193.167201
0
VERTEX
5
284
100
AcDbEntity
8
1
100
AcDbVertex
100
AcDb2dVertex
62
5
10
208.479511
20
191.310058
0
VERTEX
5
285
100
AcDbEntity
8
1
100
AcDbVertex
100
AcDb2dVertex
62
5
10
208.193797
20
191.024344
0
VERTEX
5
286
100
AcDbEntity
8
1
100
AcDbVertex
100
AcDb2dVertex
62
5
10
207.908083
20
191.024344
0
SEQEND
5
287
100
AcDbEntity
8
1
0
LINE
5
288
100
AcDbEntity
8
1
100
AcDbLine
6
CONTINUOUS
62
5
10
207.193797
20
192.024344
11
207.479511
21
191.595772
0
POLYLINE
5
289
100
AcDbEntity
8
1
6
CONTINUOUS
62
5
100
AcDb2dPolyline
66
1
10
0.0
20
0.0
30
0.0
70
0
0
VERTEX
5
28a
100
AcDbEntity
8
1
100
AcDbVertex
100
AcDb2dVertex
62
5
10
203.547180
20
194.738629
0
VERTEX
5
28b
100
AcDbEntity
8
1
100
AcDbVertex
100
AcDb2dVertex
62
5
10
201.547180
20
192.167201
0
VERTEX
5
28c
100
AcDbEntity
8
1
100
AcDbVertex
100
AcDb2dVertex
62
5
10
204.261466
20
192.167201
0
SEQEND
5
28d
100
AcDbEntity
8
1
0
LINE
5
28e
100
AcDbEntity
8
1
100
AcDbLine
6
CONTINUOUS
62
5
10
203.547180
20
194.738629
11
203.547180
21
191.153326
0
POLYLINE
5
28f
100
AcDbEntity
8
1
6
CONTINUOUS
62
5
100
AcDb2dPolyline
66
1
10
0.0
20
0.0
30
0.0
70
0
0
VERTEX
5
290
100
AcDbEntity
8
1
100
AcDbVertex
100
AcDb2dVertex
62
5
10
198.043421
20
193.881486
0
VERTEX
5
291
100
AcDbEntity
8
1
100
AcDbVertex
100
AcDb2dVertex
62
5
10
198.329135
20
194.310058
0
VERTEX
5
292
100
AcDbEntity
8
1
100
AcDbVertex
100
AcDb2dVertex
62
5
10
198.900564
20
194.738629
0
VERTEX
5
293
100
AcDbEntity
8
1
100
AcDbVertex
100
AcDb2dVertex
62
5
10
199.614850
20
194.738629
0
VERTEX
5
294
100
AcDbEntity
8
1
100
AcDbVertex
100
AcDb2dVertex
62
5
10
200.186278
20
194.452915
0
VERTEX
5
295
100
AcDbEntity
8
1
100
AcDbVertex
100
AcDb2dVertex
62
5
10
200.329135
20
194.167201
0
VERTEX
5
296
100
AcDbEntity
8
1
100
AcDbVertex
100
AcDb2dVertex
62
5
10
200.329135
20
193.738629
0
VERTEX
5
297
100
AcDbEntity
8
1
100
AcDbVertex
100
AcDb2dVertex
62
5
10
200.186278
20
193.452915
0
VERTEX
5
298
100
AcDbEntity
8
1
100
AcDbVertex
100
AcDb2dVertex
62
5
10
198.186278
20
191.153326
0
VERTEX
5
299
100
AcDbEntity
8
1
100
AcDbVertex
100
AcDb2dVertex
62
5
10
200.329135
20
191.153326
0
SEQEND
5
29a
100
AcDbEntity
8
1
0
POLYLINE
5
29b
100
AcDbEntity
8
1
6
CONTINUOUS
62
5
100
AcDb2dPolyline
66
1
10
0.0
20
0.0
30
0.0
70
0
0
VERTEX
5
29c
100
AcDbEntity
8
1
100
AcDbVertex
100
AcDb2dVertex
62
5
10
210.013346
20
190.881486
0
VERTEX
5
29d
100
AcDbEntity
8
1
100
AcDbVertex
100
AcDb2dVertex
62
5
10
210.013346
20
194.881486
0
VERTEX
5
29e
100
AcDbEntity
8
1
100
AcDbVertex
100
AcDb2dVertex
62
5
10
211.584774
20
194.881486
0
VERTEX
5
29f
100
AcDbEntity
8
1
100
AcDbVertex
100
AcDb2dVertex
62
5
10
211.584774
20
193.452915
0
VERTEX
5
2a0
100
AcDbEntity
8
1
100
AcDbVertex
100
AcDb2dVertex
62
5
10
210.013346
20
193.452915
0
SEQEND
5
2a1
100
AcDbEntity
8
1
0
LINE
5
2a2
100
AcDbEntity
8
1
100
AcDbLine
6
CONTINUOUS
62
5
10
210.013346
20
194.167201
11
211.584774
21
194.167201
0
POLYLINE
5
2a3
100
AcDbEntity
8
1
6
CONTINUOUS
62
5
100
AcDb2dPolyline
66
1
10
0.0
20
0.0
30
0.0
70
0
0
VERTEX
5
2a4
100
AcDbEntity
8
1
100
AcDbVertex
100
AcDb2dVertex
62
5
10
213.870489
20
193.452915
0
VERTEX
5
2a5
100
AcDbEntity
8
1
100
AcDbVertex
100
AcDb2dVertex
62
5
10
212.156203
20
193.452915
0
VERTEX
5
2a6
100
AcDbEntity
8
1
100
AcDbVertex
100
AcDb2dVertex
62
5
10
212.156203
20
194.881486
0
VERTEX
5
2a7
100
AcDbEntity
8
1
100
AcDbVertex
100
AcDb2dVertex
62
5
10
213.870489
20
194.881486
0
VERTEX
5
2a8
100
AcDbEntity
8
1
100
AcDbVertex
100
AcDb2dVertex
62
5
10
213.870489
20
190.881486
0
VERTEX
5
2a9
100
AcDbEntity
8
1
100
AcDbVertex
100
AcDb2dVertex
62
5
10
213.441917
20
190.881486
0
SEQEND
5
2aa
100
AcDbEntity
8
1
0
LINE
5
2ab
100
AcDbEntity
8
1
100
AcDbLine
6
CONTINUOUS
62
5
10
213.870489
20
194.167201
11
212.156203
21
194.167201
0
POLYLINE
5
2ac
100
AcDbEntity
8
1
6
CONTINUOUS
62
5
100
AcDb2dPolyline
66
1
10
0.0
20
0.0
30
0.0
70
1
0
VERTEX
5
2ad
100
AcDbEntity
8
1
100
AcDbVertex
100
AcDb2dVertex
62
5
10
211.013346
20
192.738629
0
VERTEX
5
2ae
100
AcDbEntity
8
1
100
AcDbVertex
100
AcDb2dVertex
62
5
10
212.870489
20
192.738629
0
VERTEX
5
2af
100
AcDbEntity
8
1
100
AcDbVertex
100
AcDb2dVertex
62
5
10
212.870489
20
191.310058
0
VERTEX
5
2b0
100
AcDbEntity
8
1
100
AcDbVertex
100
AcDb2dVertex
62
5
10
211.013346
20
191.310058
0
VERTEX
5
2b1
100
AcDbEntity
8
1
100
AcDbVertex
100
AcDb2dVertex
62
5
10
211.013346
20
192.738629
0
SEQEND
5
2b2
100
AcDbEntity
8
1
0
LINE
5
2b3
100
AcDbEntity
8
1
100
AcDbLine
6
CONTINUOUS
62
5
10
211.013346
20
192.024344
11
212.870489
21
192.024344
0
ARC
5
2b4
100
AcDbEntity
8
1
100
AcDbCircle
6
CONTINUOUS
62
5
10
192.675000
20
181.700000
40
1.000000
100
AcDbArc
50
89.999999
51
107.914792
0
LINE
5
2b5
100
AcDbEntity
8
1
100
AcDbLine
6
CONTINUOUS
62
5
10
192.675000
20
182.700000
11
226.695832
21
182.700000
0
POLYLINE
5
2b6
100
AcDbEntity
8
1
6
CONTINUOUS
62
5
100
AcDb2dPolyline
66
1
10
0.0
20
0.0
30
0.0
70
1
0
VERTEX
5
2b7
100
AcDbEntity
8
1
100
AcDbVertex
100
AcDb2dVertex
62
5
10
213.490625
20
171.265625
0
VERTEX
5
2b8
100
AcDbEntity
8
1
100
AcDbVertex
100
AcDb2dVertex
62
5
10
216.115625
20
171.265625
0
VERTEX
5
2b9
100
AcDbEntity
8
1
100
AcDbVertex
100
AcDb2dVertex
62
5
10
216.115625
20
169.953125
0
VERTEX
5
2ba
100
AcDbEntity
8
1
100
AcDbVertex
100
AcDb2dVertex
62
5
10
213.490625
20
169.953125
0
VERTEX
5
2bb
100
AcDbEntity
8
1
100
AcDbVertex
100
AcDb2dVertex
62
5
10
213.490625
20
171.265625
0
SEQEND
5
2bc
100
AcDbEntity
8
1
0
LINE
5
2bd
100
AcDbEntity
8
1
100
AcDbLine
6
CONTINUOUS
62
5
10
214.803125
20
171.921875
11
214.803125
21
168.859375
0
LINE
5
2be
100
AcDbEntity
8
1
100
AcDbLine
6
CONTINUOUS
62
5
10
205.396875
20
171.812500
11
205.725000
21
171.484375
0
POLYLINE
5
2bf
100
AcDbEntity
8
1
6
CONTINUOUS
62
5
100
AcDb2dPolyline
66
1
10
0.0
20
0.0
30
0.0
70
0
0
VERTEX
5
2c0
100
AcDbEntity
8
1
100
AcDbVertex
100
AcDb2dVertex
62
5
10
205.178125
20
170.718750
0
VERTEX
5
2c1
100
AcDbEntity
8
1
100
AcDbVertex
100
AcDb2dVertex
62
5
10
205.725000
20
170.718750
0
VERTEX
5
2c2
100
AcDbEntity
8
1
100
AcDbVertex
100
AcDb2dVertex
62
5
10
205.725000
20
169.625000
0
VERTEX
5
2c3
100
AcDbEntity
8
1
100
AcDbVertex
100
AcDb2dVertex
62
5
10
205.178125
20
169.078125
0
SEQEND
5
2c4
100
AcDbEntity
8
1
0
POLYLINE
5
2c5
100
AcDbEntity
8
1
6
CONTINUOUS
62
5
100
AcDb2dPolyline
66
1
10
0.0
20
0.0
30
0.0
70
0
0
VERTEX
5
2c6
100
AcDbEntity
8
1
100
AcDbVertex
100
AcDb2dVertex
62
5
10
205.725000
20
169.625000
0
VERTEX
5
2c7
100
AcDbEntity
8
1
100
AcDbVertex
100
AcDb2dVertex
62
5
10
206.162500
20
169.187500
0
VERTEX
5
2c8
100
AcDbEntity
8
1
100
AcDbVertex
100
AcDb2dVertex
62
5
10
206.600000
20
169.078125
0
VERTEX
5
2c9
100
AcDbEntity
8
1
100
AcDbVertex
100
AcDb2dVertex
62
5
10
208.350000
20
168.968750
0
SEQEND
5
2ca
100
AcDbEntity
8
1
0
POLYLINE
5
2cb
100
AcDbEntity
8
1
6
CONTINUOUS
62
5
100
AcDb2dPolyline
66
1
10
0.0
20
0.0
30
0.0
70
0
0
VERTEX
5
2cc
100
AcDbEntity
8
1
100
AcDbVertex
100
AcDb2dVertex
62
5
10
206.053125
20
171.375000
0
VERTEX
5
2cd
100
AcDbEntity
8
1
100
AcDbVertex
100
AcDb2dVertex
62
5
10
206.053125
20
171.921875
0
VERTEX
5
2ce
100
AcDbEntity
8
1
100
AcDbVertex
100
AcDb2dVertex
62
5
10
208.240625
20
171.921875
0
VERTEX
5
2cf
100
AcDbEntity
8
1
100
AcDbVertex
100
AcDb2dVertex
62
5
10
208.240625
20
171.484375
0
SEQEND
5
2d0
100
AcDbEntity
8
1
0
LINE
5
2d1
100
AcDbEntity
8
1
100
AcDbLine
6
CONTINUOUS
62
5
10
206.381250
20
171.375000
11
207.912500
21
171.375000
0
POLYLINE
5
2d2
100
AcDbEntity
8
1
6
CONTINUOUS
62
5
100
AcDb2dPolyline
66
1
10
0.0
20
0.0
30
0.0
70
1
0
VERTEX
5
2d3
100
AcDbEntity
8
1
100
AcDbVertex
100
AcDb2dVertex
62
5
10
206.381250
20
170.171875
0
VERTEX
5
2d4
100
AcDbEntity
8
1
100
AcDbVertex
100
AcDb2dVertex
62
5
10
206.381250
20
171.046875
0
VERTEX
5
2d5
100
AcDbEntity
8
1
100
AcDbVertex
100
AcDb2dVertex
62
5
10
207.912500
20
171.046875
0
VERTEX
5
2d6
100
AcDbEntity
8
1
100
AcDbVertex
100
AcDb2dVertex
62
5
10
207.912500
20
170.171875
0
VERTEX
5
2d7
100
AcDbEntity
8
1
100
AcDbVertex
100
AcDb2dVertex
62
5
10
206.381250
20
170.171875
0
SEQEND
5
2d8
100
AcDbEntity
8
1
0
LINE
5
2d9
100
AcDbEntity
8
1
100
AcDbLine
6
CONTINUOUS
62
5
10
206.381250
20
170.609375
11
207.912500
21
170.609375
0
LINE
5
2da
100
AcDbEntity
8
1
100
AcDbLine
6
CONTINUOUS
62
5
10
207.146875
20
171.703125
11
207.146875
21
169.296875
0
LINE
5
2db
100
AcDbEntity
8
1
100
AcDbLine
6
CONTINUOUS
62
5
10
206.053125
20
169.843750
11
208.350000
21
169.843750
0
ARC
5
2dc
100
AcDbEntity
8
1
100
AcDbCircle
6
CONTINUOUS
62
5
10
205.425000
20
165.500000
40
0.500000
100
AcDbArc
50
89.999999
51
179.999998
0
LINE
5
2dd
100
AcDbEntity
8
1
100
AcDbLine
6
CONTINUOUS
62
5
10
204.925000
20
165.500000
11
204.925000
21
164.500000
0
ARC
5
2de
100
AcDbEntity
8
1
100
AcDbCircle
6
CONTINUOUS
62
5
10
205.425000
20
164.500000
40
0.500000
100
AcDbArc
50
179.999998
51
-89.999999
0
LINE
5
2df
100
AcDbEntity
8
1
100
AcDbLine
6
CONTINUOUS
62
5
10
205.425000
20
164.000000
11
215.925000
21
164.000000
0
ARC
5
2e0
100
AcDbEntity
8
1
100
AcDbCircle
6
CONTINUOUS
62
5
10
215.925000
20
164.500000
40
0.500000
100
AcDbArc
50
-89.999999
51
0.000000
0
LINE
5
2e1
100
AcDbEntity
8
1
100
AcDbLine
6
CONTINUOUS
62
5
10
216.425000
20
164.500000
11
216.425000
21
165.500000
0
ARC
5
2e2
100
AcDbEntity
8
1
100
AcDbCircle
6
CONTINUOUS
62
5
10
215.925000
20
165.500000
40
0.500000
100
AcDbArc
50
0.000000
51
89.999999
0
LINE
5
2e3
100
AcDbEntity
8
1
100
AcDbLine
6
CONTINUOUS
62
5
10
215.925000
20
166.000000
11
205.425000
21
166.000000
0
ARC
5
2e4
100
AcDbEntity
8
1
100
AcDbCircle
6
CONTINUOUS
62
5
10
215.925000
20
164.500000
40
0.500000
100
AcDbArc
50
-89.999999
51
0.000000
0
LINE
5
2e5
100
AcDbEntity
8
1
100
AcDbLine
6
CONTINUOUS
62
5
10
216.425000
20
164.500000
11
216.425000
21
165.500000
0
ARC
5
2e6
100
AcDbEntity
8
1
100
AcDbCircle
6
CONTINUOUS
62
5
10
215.925000
20
165.500000
40
0.500000
100
AcDbArc
50
-0.000000
51
89.999999
0
LINE
5
2e7
100
AcDbEntity
8
1
100
AcDbLine
6
CONTINUOUS
62
5
10
215.925000
20
166.000000
11
205.425000
21
166.000000
0
ARC
5
2e8
100
AcDbEntity
8
1
100
AcDbCircle
6
CONTINUOUS
62
5
10
205.425000
20
165.500000
40
0.500000
100
AcDbArc
50
89.999999
51
179.999998
0
LINE
5
2e9
100
AcDbEntity
8
1
100
AcDbLine
6
CONTINUOUS
62
5
10
204.925000
20
165.500000
11
204.925000
21
164.500000
0
ARC
5
2ea
100
AcDbEntity
8
1
100
AcDbCircle
6
CONTINUOUS
62
5
10
205.425000
20
164.500000
40
0.500000
100
AcDbArc
50
179.999998
51
-89.999999
0
LINE
5
2eb
100
AcDbEntity
8
1
100
AcDbLine
6
CONTINUOUS
62
5
10
205.425000
20
164.000000
11
215.925000
21
164.000000
0
LINE
5
2ec
100
AcDbEntity
8
1
100
AcDbLine
6
CONTINUOUS
62
5
10
210.756250
20
171.484375
11
212.178125
21
171.484375
0
LINE
5
2ed
100
AcDbEntity
8
1
100
AcDbLine
6
CONTINUOUS
62
5
10
211.521875
20
170.718750
11
210.646875
21
169.078125
0
LINE
5
2ee
100
AcDbEntity
8
1
100
AcDbLine
6
CONTINUOUS
62
5
10
211.850000
20
169.953125
11
212.396875
21
168.968750
0
LINE
5
2ef
100
AcDbEntity
8
1
100
AcDbLine
6
CONTINUOUS
62
5
10
210.428125
20
169.078125
11
212.178125
21
169.296875
0
LINE
5
2f0
100
AcDbEntity
8
1
100
AcDbLine
6
CONTINUOUS
62
5
10
209.225000
20
171.593750
11
210.428125
21
171.593750
0
POLYLINE
5
2f1
100
AcDbEntity
8
1
6
CONTINUOUS
62
5
100
AcDb2dPolyline
66
1
10
0.0
20
0.0
30
0.0
70
1
0
VERTEX
5
2f2
100
AcDbEntity
8
1
100
AcDbVertex
100
AcDb2dVertex
62
5
10
209.225000
20
171.156250
0
VERTEX
5
2f3
100
AcDbEntity
8
1
100
AcDbVertex
100
AcDb2dVertex
62
5
10
209.225000
20
170.062500
0
VERTEX
5
2f4
100
AcDbEntity
8
1
100
AcDbVertex
100
AcDb2dVertex
62
5
10
210.318750
20
170.062500
0
VERTEX
5
2f5
100
AcDbEntity
8
1
100
AcDbVertex
100
AcDb2dVertex
62
5
10
210.318750
20
171.156250
0
VERTEX
5
2f6
100
AcDbEntity
8
1
100
AcDbVertex
100
AcDb2dVertex
62
5
10
209.225000
20
171.156250
0
SEQEND
5
2f7
100
AcDbEntity
8
1
0
LINE
5
2f8
100
AcDbEntity
8
1
100
AcDbLine
6
CONTINUOUS
62
5
10
209.225000
20
170.609375
11
210.318750
21
170.609375
0
LINE
5
2f9
100
AcDbEntity
8
1
100
AcDbLine
6
CONTINUOUS
62
5
10
209.225000
20
169.625000
11
210.537500
21
169.625000
0
LINE
5
2fa
100
AcDbEntity
8
1
100
AcDbLine
6
CONTINUOUS
62
5
10
209.771875
20
172.031250
11
209.771875
21
168.859375
0
LINE
5
2fb
100
AcDbEntity
8
1
100
AcDbLine
6
CONTINUOUS
62
5
10
210.537500
20
170.718750
11
212.396875
21
170.718750
0
POLYLINE
5
2fc
100
AcDbEntity
8
1
6
CONTINUOUS
62
5
100
AcDb2dPolyline
66
1
10
0.0
20
0.0
30
0.0
70
0
0
VERTEX
5
2fd
100
AcDbEntity
8
1
100
AcDbVertex
100
AcDb2dVertex
62
5
10
225.875000
20
182.900000
0
VERTEX
5
2fe
100
AcDbEntity
8
1
100
AcDbVertex
100
AcDb2dVertex
62
5
10
225.875000
20
183.700000
0
VERTEX
5
2ff
100
AcDbEntity
8
1
100
AcDbVertex
100
AcDb2dVertex
62
5
10
229.875000
20
183.700000
0
VERTEX
5
300
100
AcDbEntity
8
1
100
AcDbVertex
100
AcDb2dVertex
62
5
10
229.875000
20
182.900000
0
SEQEND
5
301
100
AcDbEntity
8
1
0
LINE
5
302
100
AcDbEntity
8
1
100
AcDbLine
6
CONTINUOUS
62
5
10
175.675000
20
204.500000
11
175.675000
21
237.000000
0
LINE
5
303
100
AcDbEntity
8
1
100
AcDbLine
6
CONTINUOUS
62
5
10
245.675000
20
204.500000
11
245.675000
21
237.000000
0
POLYLINE
5
304
100
AcDbEntity
8
1
6
CONTINUOUS
62
5
100
AcDb2dPolyline
66
1
10
0.0
20
0.0
30
0.0
70
0
0
VERTEX
5
305
100
AcDbEntity
8
1
100
AcDbVertex
100
AcDb2dVertex
62
5
10
210.675000
20
235.000000
0
VERTEX
5
306
100
AcDbEntity
8
1
100
AcDbVertex
100
AcDb2dVertex
62
5
10
175.675000
20
235.000000
0
VERTEX
5
307
100
AcDbEntity
8
1
100
AcDbVertex
100
AcDb2dVertex
62
5
10
181.675000
20
236.000000
0
VERTEX
5
308
100
AcDbEntity
8
1
100
AcDbVertex
100
AcDb2dVertex
62
5
10
181.675000
20
234.000000
0
VERTEX
5
309
100
AcDbEntity
8
1
100
AcDbVertex
100
AcDb2dVertex
62
5
10
175.675000
20
235.000000
0
VERTEX
5
30a
100
AcDbEntity
8
1
100
AcDbVertex
100
AcDb2dVertex
62
5
10
181.675000
20
235.500000
0
VERTEX
5
30b
100
AcDbEntity
8
1
100
AcDbVertex
100
AcDb2dVertex
62
5
10
181.675000
20
234.500000
0
VERTEX
5
30c
100
AcDbEntity
8
1
100
AcDbVertex
100
AcDb2dVertex
62
5
10
175.675000
20
235.000000
0
SEQEND
5
30d
100
AcDbEntity
8
1
0
POLYLINE
5
30e
100
AcDbEntity
8
1
6
CONTINUOUS
62
5
100
AcDb2dPolyline
66
1
10
0.0
20
0.0
30
0.0
70
0
0
VERTEX
5
30f
100
AcDbEntity
8
1
100
AcDbVertex
100
AcDb2dVertex
62
5
10
210.675000
20
235.000000
0
VERTEX
5
310
100
AcDbEntity
8
1
100
AcDbVertex
100
AcDb2dVertex
62
5
10
245.675000
20
235.000000
0
VERTEX
5
311
100
AcDbEntity
8
1
100
AcDbVertex
100
AcDb2dVertex
62
5
10
239.675000
20
234.000000
0
VERTEX
5
312
100
AcDbEntity
8
1
100
AcDbVertex
100
AcDb2dVertex
62
5
10
239.675000
20
236.000000
0
VERTEX
5
313
100
AcDbEntity
8
1
100
AcDbVertex
100
AcDb2dVertex
62
5
10
245.675000
20
235.000000
0
VERTEX
5
314
100
AcDbEntity
8
1
100
AcDbVertex
100
AcDb2dVertex
62
5
10
239.675000
20
234.500000
0
VERTEX
5
315
100
AcDbEntity
8
1
100
AcDbVertex
100
AcDb2dVertex
62
5
10
239.675000
20
235.500000
0
VERTEX
5
316
100
AcDbEntity
8
1
100
AcDbVertex
100
AcDb2dVertex
62
5
10
245.675000
20
235.000000
0
SEQEND
5
317
100
AcDbEntity
8
1
0
LINE
5
318
100
AcDbEntity
8
1
100
AcDbLine
6
CONTINUOUS
62
5
10
131.750000
20
327.437500
11
132.750000
21
326.187500
0
POLYLINE
5
319
100
AcDbEntity
8
1
6
CONTINUOUS
62
5
100
AcDb2dPolyline
66
1
10
0.0
20
0.0
30
0.0
70
0
0
VERTEX
5
31a
100
AcDbEntity
8
1
100
AcDbVertex
100
AcDb2dVertex
62
5
10
131.500000
20
322.437500
0
VERTEX
5
31b
100
AcDbEntity
8
1
100
AcDbVertex
100
AcDb2dVertex
62
5
10
133.250000
20
323.375000
0
VERTEX
5
31c
100
AcDbEntity
8
1
100
AcDbVertex
100
AcDb2dVertex
62
5
10
134.750000
20
324.625000
0
VERTEX
5
31d
100
AcDbEntity
8
1
100
AcDbVertex
100
AcDb2dVertex
62
5
10
136.250000
20
326.187500
0
SEQEND
5
31e
100
AcDbEntity
8
1
0
POLYLINE
5
31f
100
AcDbEntity
8
1
6
CONTINUOUS
62
5
100
AcDb2dPolyline
66
1
10
0.0
20
0.0
30
0.0
70
0
0
VERTEX
5
320
100
AcDbEntity
8
1
100
AcDbVertex
100
AcDb2dVertex
62
5
10
140.000000
20
327.125000
0
VERTEX
5
321
100
AcDbEntity
8
1
100
AcDbVertex
100
AcDb2dVertex
62
5
10
143.250000
20
327.125000
0
VERTEX
5
322
100
AcDbEntity
8
1
100
AcDbVertex
100
AcDb2dVertex
62
5
10
143.250000
20
326.812500
0
VERTEX
5
323
100
AcDbEntity
8
1
100
AcDbVertex
100
AcDb2dVertex
62
5
10
142.750000
20
325.562500
0
VERTEX
5
324
100
AcDbEntity
8
1
100
AcDbVertex
100
AcDb2dVertex
62
5
10
142.250000
20
324.625000
0
VERTEX
5
325
100
AcDbEntity
8
1
100
AcDbVertex
100
AcDb2dVertex
62
5
10
141.250000
20
323.375000
0
VERTEX
5
326
100
AcDbEntity
8
1
100
AcDbVertex
100
AcDb2dVertex
62
5
10
139.500000
20
321.812500
0
SEQEND
5
327
100
AcDbEntity
8
1
0
LINE
5
328
100
AcDbEntity
8
1
100
AcDbLine
6
CONTINUOUS
62
5
10
142.250000
20
324.625000
11
144.250000
21
321.812500
0
LINE
5
329
100
AcDbEntity
8
1
100
AcDbLine
6
CONTINUOUS
62
5
10
132.250000
20
315.562500
11
132.500000
21
314.312500
0
LINE
5
32a
100
AcDbEntity
8
1
100
AcDbLine
6
CONTINUOUS
62
5
10
133.750000
20
315.875000
11
134.000000
21
314.625000
0
POLYLINE
5
32b
100
AcDbEntity
8
1
6
CONTINUOUS
62
5
100
AcDb2dPolyline
66
1
10
0.0
20
0.0
30
0.0
70
0
0
VERTEX
5
32c
100
AcDbEntity
8
1
100
AcDbVertex
100
AcDb2dVertex
62
5
10
135.750000
20
315.875000
0
VERTEX
5
32d
100
AcDbEntity
8
1
100
AcDbVertex
100
AcDb2dVertex
62
5
10
135.500000
20
314.312500
0
VERTEX
5
32e
100
AcDbEntity
8
1
100
AcDbVertex
100
AcDb2dVertex
62
5
10
134.250000
20
312.437500
0
VERTEX
5
32f
100
AcDbEntity
8
1
100
AcDbVertex
100
AcDb2dVertex
62
5
10
133.250000
20
311.500000
0
SEQEND
5
330
100
AcDbEntity
8
1
0
POLYLINE
5
331
100
AcDbEntity
8
1
6
CONTINUOUS
62
5
100
AcDb2dPolyline
66
1
10
0.0
20
0.0
30
0.0
70
0
0
VERTEX
5
332
100
AcDbEntity
8
1
100
AcDbVertex
100
AcDb2dVertex
62
5
10
141.250000
20
316.187500
0
VERTEX
5
333
100
AcDbEntity
8
1
100
AcDbVertex
100
AcDb2dVertex
62
5
10
141.500000
20
316.187500
0
VERTEX
5
334
100
AcDbEntity
8
1
100
AcDbVertex
100
AcDb2dVertex
62
5
10
143.250000
20
314.937500
0
SEQEND
5
335
100
AcDbEntity
8
1
0
LINE
5
336
100
AcDbEntity
8
1
100
AcDbLine
6
CONTINUOUS
62
5
10
141.250000
20
319.000000
11
141.250000
21
311.500000
0
POLYLINE
5
337
100
AcDbEntity
8
1
6
CONTINUOUS
62
5
100
AcDb2dPolyline
66
1
10
0.0
20
0.0
30
0.0
70
0
0
VERTEX
5
338
100
AcDbEntity
8
1
100
AcDbVertex
100
AcDb2dVertex
62
5
10
127.750000
20
328.687500
0
VERTEX
5
339
100
AcDbEntity
8
1
100
AcDbVertex
100
AcDb2dVertex
62
5
10
125.750000
20
326.187500
0
VERTEX
5
33a
100
AcDbEntity
8
1
100
AcDbVertex
100
AcDb2dVertex
62
5
10
123.500000
20
324.625000
0
SEQEND
5
33b
100
AcDbEntity
8
1
0
LINE
5
33c
100
AcDbEntity
8
1
100
AcDbLine
6
CONTINUOUS
62
5
10
126.250000
20
326.812500
11
126.250000
21
321.500000
0
POLYLINE
5
33d
100
AcDbEntity
8
1
6
CONTINUOUS
62
5
100
AcDb2dPolyline
66
1
10
0.0
20
0.0
30
0.0
70
0
0
VERTEX
5
33e
100
AcDbEntity
8
1
100
AcDbVertex
100
AcDb2dVertex
62
5
10
123.750000
20
315.562500
0
VERTEX
5
33f
100
AcDbEntity
8
1
100
AcDbVertex
100
AcDb2dVertex
62
5
10
123.750000
20
317.750000
0
VERTEX
5
340
100
AcDbEntity
8
1
100
AcDbVertex
100
AcDb2dVertex
62
5
10
127.750000
20
317.750000
0
VERTEX
5
341
100
AcDbEntity
8
1
100
AcDbVertex
100
AcDb2dVertex
62
5
10
127.750000
20
316.812500
0
VERTEX
5
342
100
AcDbEntity
8
1
100
AcDbVertex
100
AcDb2dVertex
62
5
10
127.500000
20
315.250000
0
VERTEX
5
343
100
AcDbEntity
8
1
100
AcDbVertex
100
AcDb2dVertex
62
5
10
127.000000
20
314.000000
0
VERTEX
5
344
100
AcDbEntity
8
1
100
AcDbVertex
100
AcDb2dVertex
62
5
10
126.500000
20
313.062500
0
VERTEX
5
345
100
AcDbEntity
8
1
100
AcDbVertex
100
AcDb2dVertex
62
5
10
125.500000
20
311.812500
0
SEQEND
5
346
100
AcDbEntity
8
1
0
POLYLINE
5
347
100
AcDbEntity
8
1
6
CONTINUOUS
62
5
100
AcDb2dPolyline
66
1
10
0.0
20
0.0
30
0.0
70
0
0
VERTEX
5
348
100
AcDbEntity
8
1
100
AcDbVertex
100
AcDb2dVertex
62
5
10
119.500000
20
328.062500
0
VERTEX
5
349
100
AcDbEntity
8
1
100
AcDbVertex
100
AcDb2dVertex
62
5
10
118.750000
20
325.875000
0
VERTEX
5
34a
100
AcDbEntity
8
1
100
AcDbVertex
100
AcDb2dVertex
62
5
10
118.000000
20
324.625000
0
VERTEX
5
34b
100
AcDbEntity
8
1
100
AcDbVertex
100
AcDb2dVertex
62
5
10
116.750000
20
323.062500
0
VERTEX
5
34c
100
AcDbEntity
8
1
100
AcDbVertex
100
AcDb2dVertex
62
5
10
115.500000
20
322.125000
0
SEQEND
5
34d
100
AcDbEntity
8
1
0
POLYLINE
5
34e
100
AcDbEntity
8
1
6
CONTINUOUS
62
5
100
AcDb2dPolyline
66
1
10
0.0
20
0.0
30
0.0
70
0
0
VERTEX
5
34f
100
AcDbEntity
8
1
100
AcDbVertex
100
AcDb2dVertex
62
5
10
117.000000
20
326.187500
0
VERTEX
5
350
100
AcDbEntity
8
1
100
AcDbVertex
100
AcDb2dVertex
62
5
10
118.500000
20
324.937500
0
VERTEX
5
351
100
AcDbEntity
8
1
100
AcDbVertex
100
AcDb2dVertex
62
5
10
119.500000
20
324.000000
0
SEQEND
5
352
100
AcDbEntity
8
1
0
POLYLINE
5
353
100
AcDbEntity
8
1
6
CONTINUOUS
62
5
100
AcDb2dPolyline
66
1
10
0.0
20
0.0
30
0.0
70
0
0
VERTEX
5
354
100
AcDbEntity
8
1
100
AcDbVertex
100
AcDb2dVertex
62
5
10
115.750000
20
319.312500
0
VERTEX
5
355
100
AcDbEntity
8
1
100
AcDbVertex
100
AcDb2dVertex
62
5
10
115.250000
20
317.125000
0
VERTEX
5
356
100
AcDbEntity
8
1
100
AcDbVertex
100
AcDb2dVertex
62
5
10
114.250000
20
314.625000
0
SEQEND
5
357
100
AcDbEntity
8
1
0
LINE
5
358
100
AcDbEntity
8
1
100
AcDbLine
6
CONTINUOUS
62
5
10
115.250000
20
317.125000
11
115.250000
21
310.875000
0
POLYLINE
5
359
100
AcDbEntity
8
1
6
CONTINUOUS
62
5
100
AcDb2dPolyline
66
1
10
0.0
20
0.0
30
0.0
70
0
0
VERTEX
5
35a
100
AcDbEntity
8
1
100
AcDbVertex
100
AcDb2dVertex
62
5
10
120.500000
20
319.312500
0
VERTEX
5
35b
100
AcDbEntity
8
1
100
AcDbVertex
100
AcDb2dVertex
62
5
10
116.750000
20
318.687500
0
VERTEX
5
35c
100
AcDbEntity
8
1
100
AcDbVertex
100
AcDb2dVertex
62
5
10
116.750000
20
313.062500
0
SEQEND
5
35d
100
AcDbEntity
8
1
0
LINE
5
35e
100
AcDbEntity
8
1
100
AcDbLine
6
CONTINUOUS
62
5
10
116.000000
20
312.750000
11
118.750000
21
313.687500
0
LINE
5
35f
100
AcDbEntity
8
1
100
AcDbLine
6
CONTINUOUS
62
5
10
116.750000
20
316.500000
11
121.000000
21
316.500000
0
POLYLINE
5
360
100
AcDbEntity
8
1
6
CONTINUOUS
62
5
100
AcDb2dPolyline
66
1
10
0.0
20
0.0
30
0.0
70
0
0
VERTEX
5
361
100
AcDbEntity
8
1
100
AcDbVertex
100
AcDb2dVertex
62
5
10
118.750000
20
319.000000
0
VERTEX
5
362
100
AcDbEntity
8
1
100
AcDbVertex
100
AcDb2dVertex
62
5
10
118.750000
20
316.812500
0
VERTEX
5
363
100
AcDbEntity
8
1
100
AcDbVertex
100
AcDb2dVertex
62
5
10
119.000000
20
314.937500
0
VERTEX
5
364
100
AcDbEntity
8
1
100
AcDbVertex
100
AcDb2dVertex
62
5
10
119.250000
20
314.000000
0
VERTEX
5
365
100
AcDbEntity
8
1
100
AcDbVertex
100
AcDb2dVertex
62
5
10
119.750000
20
312.750000
0
VERTEX
5
366
100
AcDbEntity
8
1
100
AcDbVertex
100
AcDb2dVertex
62
5
10
120.250000
20
312.125000
0
VERTEX
5
367
100
AcDbEntity
8
1
100
AcDbVertex
100
AcDb2dVertex
62
5
10
121.000000
20
311.812500
0
VERTEX
5
368
100
AcDbEntity
8
1
100
AcDbVertex
100
AcDb2dVertex
62
5
10
121.250000
20
313.687500
0
SEQEND
5
369
100
AcDbEntity
8
1
0
LINE
5
36a
100
AcDbEntity
8
1
100
AcDbLine
6
CONTINUOUS
62
5
10
116.500000
20
311.812500
11
119.250000
21
311.812500
0
LINE
5
36b
100
AcDbEntity
8
1
100
AcDbLine
6
CONTINUOUS
62
5
10
90.250000
20
327.125000
11
92.250000
21
327.125000
0
LINE
5
36c
100
AcDbEntity
8
1
100
AcDbLine
6
CONTINUOUS
62
5
10
90.250000
20
324.000000
11
92.250000
21
325.562500
0
POLYLINE
5
36d
100
AcDbEntity
8
1
6
CONTINUOUS
62
5
100
AcDb2dPolyline
66
1
10
0.0
20
0.0
30
0.0
70
0
0
VERTEX
5
36e
100
AcDbEntity
8
1
100
AcDbVertex
100
AcDb2dVertex
62
5
10
91.250000
20
329.312500
0
VERTEX
5
36f
100
AcDbEntity
8
1
100
AcDbVertex
100
AcDb2dVertex
62
5
10
91.250000
20
320.875000
0
VERTEX
5
370
100
AcDbEntity
8
1
100
AcDbVertex
100
AcDb2dVertex
62
5
10
90.750000
20
320.875000
0
SEQEND
5
371
100
AcDbEntity
8
1
0
LINE
5
372
100
AcDbEntity
8
1
100
AcDbLine
6
CONTINUOUS
62
5
10
92.750000
20
327.750000
11
93.750000
21
329.625000
0
POLYLINE
5
373
100
AcDbEntity
8
1
6
CONTINUOUS
62
5
100
AcDb2dPolyline
66
1
10
0.0
20
0.0
30
0.0
70
0
0
VERTEX
5
374
100
AcDbEntity
8
1
100
AcDbVertex
100
AcDb2dVertex
62
5
10
93.500000
20
329.000000
0
VERTEX
5
375
100
AcDbEntity
8
1
100
AcDbVertex
100
AcDb2dVertex
62
5
10
95.500000
20
329.000000
0
VERTEX
5
376
100
AcDbEntity
8
1
100
AcDbVertex
100
AcDb2dVertex
62
5
10
94.500000
20
327.125000
0
SEQEND
5
377
100
AcDbEntity
8
1
0
POLYLINE
5
378
100
AcDbEntity
8
1
6
CONTINUOUS
62
5
100
AcDb2dPolyline
66
1
10
0.0
20
0.0
30
0.0
70
0
0
VERTEX
5
379
100
AcDbEntity
8
1
100
AcDbVertex
100
AcDb2dVertex
62
5
10
93.000000
20
324.312500
0
VERTEX
5
37a
100
AcDbEntity
8
1
100
AcDbVertex
100
AcDb2dVertex
62
5
10
93.000000
20
327.125000
0
VERTEX
5
37b
100
AcDbEntity
8
1
100
AcDbVertex
100
AcDb2dVertex
62
5
10
96.500000
20
327.125000
0
VERTEX
5
37c
100
AcDbEntity
8
1
100
AcDbVertex
100
AcDb2dVertex
62
5
10
96.500000
20
324.312500
0
SEQEND
5
37d
100
AcDbEntity
8
1
0
POLYLINE
5
37e
100
AcDbEntity
8
1
6
CONTINUOUS
62
5
100
AcDb2dPolyline
66
1
10
0.0
20
0.0
30
0.0
70
0
0
VERTEX
5
37f
100
AcDbEntity
8
1
100
AcDbVertex
100
AcDb2dVertex
62
5
10
94.250000
20
327.125000
0
VERTEX
5
380
100
AcDbEntity
8
1
100
AcDbVertex
100
AcDb2dVertex
62
5
10
94.250000
20
325.875000
0
VERTEX
5
381
100
AcDbEntity
8
1
100
AcDbVertex
100
AcDb2dVertex
62
5
10
93.500000
20
324.937500
0
SEQEND
5
382
100
AcDbEntity
8
1
0
POLYLINE
5
383
100
AcDbEntity
8
1
6
CONTINUOUS
62
5
100
AcDb2dPolyline
66
1
10
0.0
20
0.0
30
0.0
70
0
0
VERTEX
5
384
100
AcDbEntity
8
1
100
AcDbVertex
100
AcDb2dVertex
62
5
10
95.250000
20
327.125000
0
VERTEX
5
385
100
AcDbEntity
8
1
100
AcDbVertex
100
AcDb2dVertex
62
5
10
95.250000
20
324.937500
0
VERTEX
5
386
100
AcDbEntity
8
1
100
AcDbVertex
100
AcDb2dVertex
62
5
10
96.250000
20
324.937500
0
SEQEND
5
387
100
AcDbEntity
8
1
0
LINE
5
388
100
AcDbEntity
8
1
100
AcDbLine
6
CONTINUOUS
62
5
10
92.000000
20
323.375000
11
97.500000
21
323.375000
0
POLYLINE
5
389
100
AcDbEntity
8
1
6
CONTINUOUS
62
5
100
AcDb2dPolyline
66
1
10
0.0
20
0.0
30
0.0
70
0
0
VERTEX
5
38a
100
AcDbEntity
8
1
100
AcDbVertex
100
AcDb2dVertex
62
5
10
94.500000
20
324.625000
0
VERTEX
5
38b
100
AcDbEntity
8
1
100
AcDbVertex
100
AcDb2dVertex
62
5
10
94.500000
20
323.375000
0
VERTEX
5
38c
100
AcDbEntity
8
1
100
AcDbVertex
100
AcDb2dVertex
62
5
10
94.000000
20
322.125000
0
VERTEX
5
38d
100
AcDbEntity
8
1
100
AcDbVertex
100
AcDb2dVertex
62
5
10
93.250000
20
321.187500
0
VERTEX
5
38e
100
AcDbEntity
8
1
100
AcDbVertex
100
AcDb2dVertex
62
5
10
92.000000
20
320.562500
0
SEQEND
5
38f
100
AcDbEntity
8
1
0
POLYLINE
5
390
100
AcDbEntity
8
1
6
CONTINUOUS
62
5
100
AcDb2dPolyline
66
1
10
0.0
20
0.0
30
0.0
70
0
0
VERTEX
5
391
100
AcDbEntity
8
1
100
AcDbVertex
100
AcDb2dVertex
62
5
10
94.500000
20
323.375000
0
VERTEX
5
392
100
AcDbEntity
8
1
100
AcDbVertex
100
AcDb2dVertex
62
5
10
95.250000
20
322.125000
0
VERTEX
5
393
100
AcDbEntity
8
1
100
AcDbVertex
100
AcDb2dVertex
62
5
10
96.250000
20
321.187500
0
VERTEX
5
394
100
AcDbEntity
8
1
100
AcDbVertex
100
AcDb2dVertex
62
5
10
97.250000
20
320.562500
0
SEQEND
5
395
100
AcDbEntity
8
1
0
POLYLINE
5
396
100
AcDbEntity
8
1
6
CONTINUOUS
62
5
100
AcDb2dPolyline
66
1
10
0.0
20
0.0
30
0.0
70
0
0
VERTEX
5
397
100
AcDbEntity
8
1
100
AcDbVertex
100
AcDb2dVertex
62
5
10
98.500000
20
326.812500
0
VERTEX
5
398
100
AcDbEntity
8
1
100
AcDbVertex
100
AcDb2dVertex
62
5
10
99.250000
20
327.437500
0
VERTEX
5
399
100
AcDbEntity
8
1
100
AcDbVertex
100
AcDb2dVertex
62
5
10
100.000000
20
328.687500
0
VERTEX
5
39a
100
AcDbEntity
8
1
100
AcDbVertex
100
AcDb2dVertex
62
5
10
100.500000
20
329.625000
0
SEQEND
5
39b
100
AcDbEntity
8
1
0
LINE
5
39c
100
AcDbEntity
8
1
100
AcDbLine
6
CONTINUOUS
62
5
10
100.000000
20
328.687500
11
104.750000
21
328.687500
0
LINE
5
39d
100
AcDbEntity
8
1
100
AcDbLine
6
CONTINUOUS
62
5
10
100.250000
20
327.125000
11
104.000000
21
327.125000
0
POLYLINE
5
39e
100
AcDbEntity
8
1
6
CONTINUOUS
62
5
100
AcDb2dPolyline
66
1
10
0.0
20
0.0
30
0.0
70
0
0
VERTEX
5
39f
100
AcDbEntity
8
1
100
AcDbVertex
100
AcDb2dVertex
62
5
10
99.250000
20
325.875000
0
VERTEX
5
3a0
100
AcDbEntity
8
1
100
AcDbVertex
100
AcDb2dVertex
62
5
10
104.000000
20
325.875000
0
VERTEX
5
3a1
100
AcDbEntity
8
1
100
AcDbVertex
100
AcDb2dVertex
62
5
10
104.000000
20
322.750000
0
VERTEX
5
3a2
100
AcDbEntity
8
1
100
AcDbVertex
100
AcDb2dVertex
62
5
10
104.250000
20
321.812500
0
VERTEX
5
3a3
100
AcDbEntity
8
1
100
AcDbVertex
100
AcDb2dVertex
62
5
10
104.750000
20
320.875000
0
VERTEX
5
3a4
100
AcDbEntity
8
1
100
AcDbVertex
100
AcDb2dVertex
62
5
10
105.250000
20
322.750000
0
SEQEND
5
3a5
100
AcDbEntity
8
1
0
POLYLINE
5
3a6
100
AcDbEntity
8
1
6
CONTINUOUS
62
5
100
AcDb2dPolyline
66
1
10
0.0
20
0.0
30
0.0
70
0
0
VERTEX
5
3a7
100
AcDbEntity
8
1
100
AcDbVertex
100
AcDb2dVertex
62
5
10
100.250000
20
324.000000
0
VERTEX
5
3a8
100
AcDbEntity
8
1
100
AcDbVertex
100
AcDb2dVertex
62
5
10
101.500000
20
323.062500
0
VERTEX
5
3a9
100
AcDbEntity
8
1
100
AcDbVertex
100
AcDb2dVertex
62
5
10
102.500000
20
322.125000
0
SEQEND
5
3aa
100
AcDbEntity
8
1
0
POLYLINE
5
3ab
100
AcDbEntity
8
1
6
CONTINUOUS
62
5
100
AcDb2dPolyline
66
1
10
0.0
20
0.0
30
0.0
70
0
0
VERTEX
5
3ac
100
AcDbEntity
8
1
100
AcDbVertex
100
AcDb2dVertex
62
5
10
102.500000
20
324.625000
0
VERTEX
5
3ad
100
AcDbEntity
8
1
100
AcDbVertex
100
AcDb2dVertex
62
5
10
101.000000
20
322.750000
0
VERTEX
5
3ae
100
AcDbEntity
8
1
100
AcDbVertex
100
AcDb2dVertex
62
5
10
99.750000
20
321.812500
0
VERTEX
5
3af
100
AcDbEntity
8
1
100
AcDbVertex
100
AcDb2dVertex
62
5
10
98.500000
20
321.187500
0
SEQEND
5
3b0
100
AcDbEntity
8
1
0
POLYLINE
5
3b1
100
AcDbEntity
8
1
6
CONTINUOUS
62
5
100
AcDb2dPolyline
66
1
10
0.0
20
0.0
30
0.0
70
0
0
VERTEX
5
3b2
100
AcDbEntity
8
1
100
AcDbVertex
100
AcDb2dVertex
62
5
10
99.750000
20
319.312500
0
VERTEX
5
3b3
100
AcDbEntity
8
1
100
AcDbVertex
100
AcDb2dVertex
62
5
10
99.750000
20
314.000000
0
VERTEX
5
3b4
100
AcDbEntity
8
1
100
AcDbVertex
100
AcDb2dVertex
62
5
10
99.250000
20
312.125000
0
VERTEX
5
3b5
100
AcDbEntity
8
1
100
AcDbVertex
100
AcDb2dVertex
62
5
10
98.500000
20
310.875000
0
SEQEND
5
3b6
100
AcDbEntity
8
1
0
LINE
5
3b7
100
AcDbEntity
8
1
100
AcDbLine
6
CONTINUOUS
62
5
10
99.750000
20
317.125000
11
105.250000
21
317.125000
0
LINE
5
3b8
100
AcDbEntity
8
1
100
AcDbLine
6
CONTINUOUS
62
5
10
102.500000
20
319.625000
11
102.500000
21
317.125000
0
POLYLINE
5
3b9
100
AcDbEntity
8
1
6
CONTINUOUS
62
5
100
AcDb2dPolyline
66
1
10
0.0
20
0.0
30
0.0
70
0
0
VERTEX
5
3ba
100
AcDbEntity
8
1
100
AcDbVertex
100
AcDb2dVertex
62
5
10
99.750000
20
314.625000
0
VERTEX
5
3bb
100
AcDbEntity
8
1
100
AcDbVertex
100
AcDb2dVertex
62
5
10
103.250000
20
314.625000
0
VERTEX
5
3bc
100
AcDbEntity
8
1
100
AcDbVertex
100
AcDb2dVertex
62
5
10
103.250000
20
310.562500
0
SEQEND
5
3bd
100
AcDbEntity
8
1
0
POLYLINE
5
3be
100
AcDbEntity
8
1
6
CONTINUOUS
62
5
100
AcDb2dPolyline
66
1
10
0.0
20
0.0
30
0.0
70
0
0
VERTEX
5
3bf
100
AcDbEntity
8
1
100
AcDbVertex
100
AcDb2dVertex
62
5
10
82.500000
20
320.562500
0
VERTEX
5
3c0
100
AcDbEntity
8
1
100
AcDbVertex
100
AcDb2dVertex
62
5
10
82.500000
20
329.312500
0
VERTEX
5
3c1
100
AcDbEntity
8
1
100
AcDbVertex
100
AcDb2dVertex
62
5
10
85.250000
20
329.312500
0
VERTEX
5
3c2
100
AcDbEntity
8
1
100
AcDbVertex
100
AcDb2dVertex
62
5
10
85.250000
20
326.187500
0
VERTEX
5
3c3
100
AcDbEntity
8
1
100
AcDbVertex
100
AcDb2dVertex
62
5
10
82.500000
20
326.187500
0
SEQEND
5
3c4
100
AcDbEntity
8
1
0
LINE
5
3c5
100
AcDbEntity
8
1
100
AcDbLine
6
CONTINUOUS
62
5
10
82.500000
20
327.750000
11
85.250000
21
327.750000
0
POLYLINE
5
3c6
100
AcDbEntity
8
1
6
CONTINUOUS
62
5
100
AcDb2dPolyline
66
1
10
0.0
20
0.0
30
0.0
70
0
0
VERTEX
5
3c7
100
AcDbEntity
8
1
100
AcDbVertex
100
AcDb2dVertex
62
5
10
89.250000
20
326.187500
0
VERTEX
5
3c8
100
AcDbEntity
8
1
100
AcDbVertex
100
AcDb2dVertex
62
5
10
86.250000
20
326.187500
0
VERTEX
5
3c9
100
AcDbEntity
8
1
100
AcDbVertex
100
AcDb2dVertex
62
5
10
86.250000
20
329.312500
0
VERTEX
5
3ca
100
AcDbEntity
8
1
100
AcDbVertex
100
AcDb2dVertex
62
5
10
89.250000
20
329.312500
0
VERTEX
5
3cb
100
AcDbEntity
8
1
100
AcDbVertex
100
AcDb2dVertex
62
5
10
89.250000
20
320.562500
0
VERTEX
5
3cc
100
AcDbEntity
8
1
100
AcDbVertex
100
AcDb2dVertex
62
5
10
88.500000
20
320.562500
0
SEQEND
5
3cd
100
AcDbEntity
8
1
0
LINE
5
3ce
100
AcDbEntity
8
1
100
AcDbLine
6
CONTINUOUS
62
5
10
89.250000
20
327.750000
11
86.250000
21
327.750000
0
POLYLINE
5
3cf
100
AcDbEntity
8
1
6
CONTINUOUS
62
5
100
AcDb2dPolyline
66
1
10
0.0
20
0.0
30
0.0
70
1
0
VERTEX
5
3d0
100
AcDbEntity
8
1
100
AcDbVertex
100
AcDb2dVertex
62
5
10
84.250000
20
324.625000
0
VERTEX
5
3d1
100
AcDbEntity
8
1
100
AcDbVertex
100
AcDb2dVertex
62
5
10
87.500000
20
324.625000
0
VERTEX
5
3d2
100
AcDbEntity
8
1
100
AcDbVertex
100
AcDb2dVertex
62
5
10
87.500000
20
321.500000
0
VERTEX
5
3d3
100
AcDbEntity
8
1
100
AcDbVertex
100
AcDb2dVertex
62
5
10
84.250000
20
321.500000
0
VERTEX
5
3d4
100
AcDbEntity
8
1
100
AcDbVertex
100
AcDb2dVertex
62
5
10
84.250000
20
324.625000
0
SEQEND
5
3d5
100
AcDbEntity
8
1
0
LINE
5
3d6
100
AcDbEntity
8
1
100
AcDbLine
6
CONTINUOUS
62
5
10
84.250000
20
323.062500
11
87.500000
21
323.062500
0
LINE
5
3d7
100
AcDbEntity
8
1
100
AcDbLine
6
CONTINUOUS
62
5
10
84.250000
20
317.125000
11
87.000000
21
317.750000
0
LINE
5
3d8
100
AcDbEntity
8
1
100
AcDbLine
6
CONTINUOUS
62
5
10
84.250000
20
315.250000
11
87.750000
21
316.187500
0
POLYLINE
5
3d9
100
AcDbEntity
8
1
6
CONTINUOUS
62
5
100
AcDb2dPolyline
66
1
10
0.0
20
0.0
30
0.0
70
0
0
VERTEX
5
3da
100
AcDbEntity
8
1
100
AcDbVertex
100
AcDb2dVertex
62
5
10
85.250000
20
318.687500
0
VERTEX
5
3db
100
AcDbEntity
8
1
100
AcDbVertex
100
AcDb2dVertex
62
5
10
87.500000
20
313.687500
0
VERTEX
5
3dc
100
AcDbEntity
8
1
100
AcDbVertex
100
AcDb2dVertex
62
5
10
87.000000
20
313.687500
0
VERTEX
5
3dd
100
AcDbEntity
8
1
100
AcDbVertex
100
AcDb2dVertex
62
5
10
85.500000
20
314.312500
0
VERTEX
5
3de
100
AcDbEntity
8
1
100
AcDbVertex
100
AcDb2dVertex
62
5
10
84.750000
20
314.312500
0
VERTEX
5
3df
100
AcDbEntity
8
1
100
AcDbVertex
100
AcDb2dVertex
62
5
10
83.750000
20
313.375000
0
VERTEX
5
3e0
100
AcDbEntity
8
1
100
AcDbVertex
100
AcDb2dVertex
62
5
10
83.750000
20
312.750000
0
VERTEX
5
3e1
100
AcDbEntity
8
1
100
AcDbVertex
100
AcDb2dVertex
62
5
10
84.250000
20
312.125000
0
VERTEX
5
3e2
100
AcDbEntity
8
1
100
AcDbVertex
100
AcDb2dVertex
62
5
10
84.750000
20
311.812500
0
VERTEX
5
3e3
100
AcDbEntity
8
1
100
AcDbVertex
100
AcDb2dVertex
62
5
10
86.250000
20
311.812500
0
SEQEND
5
3e4
100
AcDbEntity
8
1
0
POLYLINE
5
3e5
100
AcDbEntity
8
1
6
CONTINUOUS
62
5
100
AcDb2dPolyline
66
1
10
0.0
20
0.0
30
0.0
70
0
0
VERTEX
5
3e6
100
AcDbEntity
8
1
100
AcDbVertex
100
AcDb2dVertex
62
5
10
73.000000
20
329.000000
0
VERTEX
5
3e7
100
AcDbEntity
8
1
100
AcDbVertex
100
AcDb2dVertex
62
5
10
70.750000
20
323.375000
0
VERTEX
5
3e8
100
AcDbEntity
8
1
100
AcDbVertex
100
AcDb2dVertex
62
5
10
73.750000
20
323.375000
0
SEQEND
5
3e9
100
AcDbEntity
8
1
0
LINE
5
3ea
100
AcDbEntity
8
1
100
AcDbLine
6
CONTINUOUS
62
5
10
73.000000
20
329.000000
11
73.000000
21
321.500000
0
LINE
5
3eb
100
AcDbEntity
8
1
100
AcDbLine
6
CONTINUOUS
62
5
10
72.500000
20
321.500000
11
73.500000
21
321.500000
0
POLYLINE
5
3ec
100
AcDbEntity
8
1
6
CONTINUOUS
62
5
100
AcDb2dPolyline
66
1
10
0.0
20
0.0
30
0.0
70
1
0
VERTEX
5
3ed
100
AcDbEntity
8
1
100
AcDbVertex
100
AcDb2dVertex
62
5
10
74.500000
20
328.687500
0
VERTEX
5
3ee
100
AcDbEntity
8
1
100
AcDbVertex
100
AcDb2dVertex
62
5
10
74.500000
20
322.437500
0
VERTEX
5
3ef
100
AcDbEntity
8
1
100
AcDbVertex
100
AcDb2dVertex
62
5
10
76.250000
20
322.437500
0
VERTEX
5
3f0
100
AcDbEntity
8
1
100
AcDbVertex
100
AcDb2dVertex
62
5
10
76.250000
20
328.687500
0
VERTEX
5
3f1
100
AcDbEntity
8
1
100
AcDbVertex
100
AcDb2dVertex
62
5
10
74.500000
20
328.687500
0
SEQEND
5
3f2
100
AcDbEntity
8
1
0
LINE
5
3f3
100
AcDbEntity
8
1
100
AcDbLine
6
CONTINUOUS
62
5
10
74.500000
20
325.562500
11
76.250000
21
325.562500
0
LINE
5
3f4
100
AcDbEntity
8
1
100
AcDbLine
6
CONTINUOUS
62
5
10
77.250000
20
328.062500
11
81.000000
21
328.062500
0
LINE
5
3f5
100
AcDbEntity
8
1
100
AcDbLine
6
CONTINUOUS
62
5
10
76.750000
20
326.187500
11
81.500000
21
326.187500
0
LINE
5
3f6
100
AcDbEntity
8
1
100
AcDbLine
6
CONTINUOUS
62
5
10
79.000000
20
329.625000
11
79.000000
21
326.187500
0
LINE
5
3f7
100
AcDbEntity
8
1
100
AcDbLine
6
CONTINUOUS
62
5
10
77.000000
20
324.312500
11
81.250000
21
324.312500
0
POLYLINE
5
3f8
100
AcDbEntity
8
1
6
CONTINUOUS
62
5
100
AcDb2dPolyline
66
1
10
0.0
20
0.0
30
0.0
70
0
0
VERTEX
5
3f9
100
AcDbEntity
8
1
100
AcDbVertex
100
AcDb2dVertex
62
5
10
80.000000
20
325.562500
0
VERTEX
5
3fa
100
AcDbEntity
8
1
100
AcDbVertex
100
AcDb2dVertex
62
5
10
80.000000
20
321.500000
0
VERTEX
5
3fb
100
AcDbEntity
8
1
100
AcDbVertex
100
AcDb2dVertex
62
5
10
79.500000
20
320.875000
0
VERTEX
5
3fc
100
AcDbEntity
8
1
100
AcDbVertex
100
AcDb2dVertex
62
5
10
79.000000
20
320.875000
0
SEQEND
5
3fd
100
AcDbEntity
8
1
0
LINE
5
3fe
100
AcDbEntity
8
1
100
AcDbLine
6
CONTINUOUS
62
5
10
77.750000
20
323.062500
11
78.250000
21
322.125000
0
POLYLINE
5
3ff
100
AcDbEntity
8
1
6
CONTINUOUS
62
5
100
AcDb2dPolyline
66
1
10
0.0
20
0.0
30
0.0
70
0
0
VERTEX
5
400
100
AcDbEntity
8
1
100
AcDbVertex
100
AcDb2dVertex
62
5
10
76.500000
20
319.312500
0
VERTEX
5
401
100
AcDbEntity
8
1
100
AcDbVertex
100
AcDb2dVertex
62
5
10
75.500000
20
316.500000
0
VERTEX
5
402
100
AcDbEntity
8
1
100
AcDbVertex
100
AcDb2dVertex
62
5
10
74.250000
20
314.312500
0
SEQEND
5
403
100
AcDbEntity
8
1
0
LINE
5
404
100
AcDbEntity
8
1
100
AcDbLine
6
CONTINUOUS
62
5
10
75.500000
20
316.500000
11
75.500000
21
310.562500
0
LINE
5
405
100
AcDbEntity
8
1
100
AcDbLine
6
CONTINUOUS
62
5
10
76.250000
20
316.500000
11
81.500000
21
316.500000
0
POLYLINE
5
406
100
AcDbEntity
8
1
6
CONTINUOUS
62
5
100
AcDb2dPolyline
66
1
10
0.0
20
0.0
30
0.0
70
0
0
VERTEX
5
407
100
AcDbEntity
8
1
100
AcDbVertex
100
AcDb2dVertex
62
5
10
79.750000
20
319.312500
0
VERTEX
5
408
100
AcDbEntity
8
1
100
AcDbVertex
100
AcDb2dVertex
62
5
10
79.750000
20
310.875000
0
VERTEX
5
409
100
AcDbEntity
8
1
100
AcDbVertex
100
AcDb2dVertex
62
5
10
78.250000
20
311.187500
0
SEQEND
5
40a
100
AcDbEntity
8
1
0
LINE
5
40b
100
AcDbEntity
8
1
100
AcDbLine
6
CONTINUOUS
62
5
10
77.250000
20
315.250000
11
78.250000
21
313.375000
0
POLYLINE
5
40c
100
AcDbEntity
8
1
6
CONTINUOUS
62
5
100
AcDb2dPolyline
66
1
10
0.0
20
0.0
30
0.0
70
0
0
VERTEX
5
40d
100
AcDbEntity
8
1
100
AcDbVertex
100
AcDb2dVertex
62
5
10
107.500000
20
329.000000
0
VERTEX
5
40e
100
AcDbEntity
8
1
100
AcDbVertex
100
AcDb2dVertex
62
5
10
107.500000
20
323.375000
0
VERTEX
5
40f
100
AcDbEntity
8
1
100
AcDbVertex
100
AcDb2dVertex
62
5
10
107.000000
20
322.125000
0
VERTEX
5
410
100
AcDbEntity
8
1
100
AcDbVertex
100
AcDb2dVertex
62
5
10
106.500000
20
321.187500
0
SEQEND
5
411
100
AcDbEntity
8
1
0
POLYLINE
5
412
100
AcDbEntity
8
1
6
CONTINUOUS
62
5
100
AcDb2dPolyline
66
1
10
0.0
20
0.0
30
0.0
70
0
0
VERTEX
5
413
100
AcDbEntity
8
1
100
AcDbVertex
100
AcDb2dVertex
62
5
10
111.500000
20
321.500000
0
VERTEX
5
414
100
AcDbEntity
8
1
100
AcDbVertex
100
AcDb2dVertex
62
5
10
112.500000
20
320.875000
0
VERTEX
5
415
100
AcDbEntity
8
1
100
AcDbVertex
100
AcDb2dVertex
62
5
10
112.500000
20
329.000000
0
VERTEX
5
416
100
AcDbEntity
8
1
100
AcDbVertex
100
AcDb2dVertex
62
5
10
107.500000
20
329.000000
0
SEQEND
5
417
100
AcDbEntity
8
1
0
LINE
5
418
100
AcDbEntity
8
1
100
AcDbLine
6
CONTINUOUS
62
5
10
107.500000
20
326.500000
11
112.500000
21
326.500000
0
LINE
5
419
100
AcDbEntity
8
1
100
AcDbLine
6
CONTINUOUS
62
5
10
110.000000
20
329.000000
11
110.000000
21
320.875000
0
LINE
5
41a
100
AcDbEntity
8
1
100
AcDbLine
6
CONTINUOUS
62
5
10
107.500000
20
324.000000
11
112.500000
21
324.000000
0
POLYLINE
5
41b
100
AcDbEntity
8
1
6
CONTINUOUS
62
5
100
AcDb2dPolyline
66
1
10
0.0
20
0.0
30
0.0
70
0
0
VERTEX
5
41c
100
AcDbEntity
8
1
100
AcDbVertex
100
AcDb2dVertex
62
5
10
106.250000
20
316.500000
0
VERTEX
5
41d
100
AcDbEntity
8
1
100
AcDbVertex
100
AcDb2dVertex
62
5
10
107.750000
20
316.812500
0
VERTEX
5
41e
100
AcDbEntity
8
1
100
AcDbVertex
100
AcDb2dVertex
62
5
10
109.000000
20
317.437500
0
SEQEND
5
41f
100
AcDbEntity
8
1
0
POLYLINE
5
420
100
AcDbEntity
8
1
6
CONTINUOUS
62
5
100
AcDb2dPolyline
66
1
10
0.0
20
0.0
30
0.0
70
0
0
VERTEX
5
421
100
AcDbEntity
8
1
100
AcDbVertex
100
AcDb2dVertex
62
5
10
107.250000
20
319.312500
0
VERTEX
5
422
100
AcDbEntity
8
1
100
AcDbVertex
100
AcDb2dVertex
62
5
10
107.250000
20
313.687500
0
VERTEX
5
423
100
AcDbEntity
8
1
100
AcDbVertex
100
AcDb2dVertex
62
5
10
107.750000
20
313.062500
0
VERTEX
5
424
100
AcDbEntity
8
1
100
AcDbVertex
100
AcDb2dVertex
62
5
10
109.000000
20
313.062500
0
VERTEX
5
425
100
AcDbEntity
8
1
100
AcDbVertex
100
AcDb2dVertex
62
5
10
109.250000
20
314.312500
0
SEQEND
5
426
100
AcDbEntity
8
1
0
POLYLINE
5
427
100
AcDbEntity
8
1
6
CONTINUOUS
62
5
100
AcDb2dPolyline
66
1
10
0.0
20
0.0
30
0.0
70
0
0
VERTEX
5
428
100
AcDbEntity
8
1
100
AcDbVertex
100
AcDb2dVertex
62
5
10
110.500000
20
318.375000
0
VERTEX
5
429
100
AcDbEntity
8
1
100
AcDbVertex
100
AcDb2dVertex
62
5
10
110.500000
20
314.625000
0
VERTEX
5
42a
100
AcDbEntity
8
1
100
AcDbVertex
100
AcDb2dVertex
62
5
10
110.000000
20
313.062500
0
VERTEX
5
42b
100
AcDbEntity
8
1
100
AcDbVertex
100
AcDb2dVertex
62
5
10
109.250000
20
311.812500
0
VERTEX
5
42c
100
AcDbEntity
8
1
100
AcDbVertex
100
AcDb2dVertex
62
5
10
108.000000
20
310.875000
0
SEQEND
5
42d
100
AcDbEntity
8
1
0
POLYLINE
5
42e
100
AcDbEntity
8
1
6
CONTINUOUS
62
5
100
AcDb2dPolyline
66
1
10
0.0
20
0.0
30
0.0
70
0
0
VERTEX
5
42f
100
AcDbEntity
8
1
100
AcDbVertex
100
AcDb2dVertex
62
5
10
109.000000
20
318.375000
0
VERTEX
5
430
100
AcDbEntity
8
1
100
AcDbVertex
100
AcDb2dVertex
62
5
10
112.750000
20
318.375000
0
VERTEX
5
431
100
AcDbEntity
8
1
100
AcDbVertex
100
AcDb2dVertex
62
5
10
112.750000
20
313.062500
0
VERTEX
5
432
100
AcDbEntity
8
1
100
AcDbVertex
100
AcDb2dVertex
62
5
10
112.500000
20
312.125000
0
VERTEX
5
433
100
AcDbEntity
8
1
100
AcDbVertex
100
AcDb2dVertex
62
5
10
112.000000
20
311.812500
0
VERTEX
5
434
100
AcDbEntity
8
1
100
AcDbVertex
100
AcDb2dVertex
62
5
10
111.000000
20
311.812500
0
SEQEND
5
435
100
AcDbEntity
8
1
0
POLYLINE
5
436
100
AcDbEntity
8
1
6
CONTINUOUS
62
5
100
AcDb2dPolyline
66
1
10
0.0
20
0.0
30
0.0
70
0
0
VERTEX
5
437
100
AcDbEntity
8
1
100
AcDbVertex
100
AcDb2dVertex
62
5
10
82.500000
20
290.500000
0
VERTEX
5
438
100
AcDbEntity
8
1
100
AcDbVertex
100
AcDb2dVertex
62
5
10
82.500000
20
283.000000
0
VERTEX
5
439
100
AcDbEntity
8
1
100
AcDbVertex
100
AcDb2dVertex
62
5
10
85.625000
20
283.000000
0
SEQEND
5
43a
100
AcDbEntity
8
1
0
LINE
5
43b
100
AcDbEntity
8
1
100
AcDbLine
6
CONTINUOUS
62
5
10
92.500000
20
290.500000
11
92.500000
21
283.000000
0
POLYLINE
5
43c
100
AcDbEntity
8
1
6
CONTINUOUS
62
5
100
AcDb2dPolyline
66
1
10
0.0
20
0.0
30
0.0
70
0
0
VERTEX
5
43d
100
AcDbEntity
8
1
100
AcDbVertex
100
AcDb2dVertex
62
5
10
92.500000
20
290.500000
0
VERTEX
5
43e
100
AcDbEntity
8
1
100
AcDbVertex
100
AcDb2dVertex
62
5
10
93.750000
20
290.500000
0
VERTEX
5
43f
100
AcDbEntity
8
1
100
AcDbVertex
100
AcDb2dVertex
62
5
10
94.687500
20
290.187500
0
VERTEX
5
440
100
AcDbEntity
8
1
100
AcDbVertex
100
AcDb2dVertex
62
5
10
95.312500
20
289.562500
0
VERTEX
5
441
100
AcDbEntity
8
1
100
AcDbVertex
100
AcDb2dVertex
62
5
10
95.625000
20
288.937500
0
VERTEX
5
442
100
AcDbEntity
8
1
100
AcDbVertex
100
AcDb2dVertex
62
5
10
95.625000
20
288.000000
0
VERTEX
5
443
100
AcDbEntity
8
1
100
AcDbVertex
100
AcDb2dVertex
62
5
10
95.312500
20
287.375000
0
VERTEX
5
444
100
AcDbEntity
8
1
100
AcDbVertex
100
AcDb2dVertex
62
5
10
94.687500
20
286.750000
0
VERTEX
5
445
100
AcDbEntity
8
1
100
AcDbVertex
100
AcDb2dVertex
62
5
10
93.750000
20
286.437500
0
VERTEX
5
446
100
AcDbEntity
8
1
100
AcDbVertex
100
AcDb2dVertex
62
5
10
92.500000
20
286.437500
0
SEQEND
5
447
100
AcDbEntity
8
1
0
POLYLINE
5
448
100
AcDbEntity
8
1
6
CONTINUOUS
62
5
100
AcDb2dPolyline
66
1
10
0.0
20
0.0
30
0.0
70
0
0
VERTEX
5
449
100
AcDbEntity
8
1
100
AcDbVertex
100
AcDb2dVertex
62
5
10
97.187500
20
290.500000
0
VERTEX
5
44a
100
AcDbEntity
8
1
100
AcDbVertex
100
AcDb2dVertex
62
5
10
98.125000
20
283.000000
0
VERTEX
5
44b
100
AcDbEntity
8
1
100
AcDbVertex
100
AcDb2dVertex
62
5
10
99.062500
20
290.500000
0
VERTEX
5
44c
100
AcDbEntity
8
1
100
AcDbVertex
100
AcDb2dVertex
62
5
10
100.000000
20
283.000000
0
VERTEX
5
44d
100
AcDbEntity
8
1
100
AcDbVertex
100
AcDb2dVertex
62
5
10
100.937500
20
290.500000
0
SEQEND
5
44e
100
AcDbEntity
8
1
0
POLYLINE
5
44f
100
AcDbEntity
8
1
6
CONTINUOUS
62
5
100
AcDb2dPolyline
66
1
10
0.0
20
0.0
30
0.0
70
0
0
VERTEX
5
450
100
AcDbEntity
8
1
100
AcDbVertex
100
AcDb2dVertex
62
5
10
73.125000
20
289.875000
0
VERTEX
5
451
100
AcDbEntity
8
1
100
AcDbVertex
100
AcDb2dVertex
62
5
10
74.062500
20
290.500000
0
VERTEX
5
452
100
AcDbEntity
8
1
100
AcDbVertex
100
AcDb2dVertex
62
5
10
74.062500
20
283.000000
0
SEQEND
5
453
100
AcDbEntity
8
1
0
LINE
5
454
100
AcDbEntity
8
1
100
AcDbLine
6
CONTINUOUS
62
5
10
73.437500
20
283.000000
11
74.687500
21
283.000000
0
POLYLINE
5
455
100
AcDbEntity
8
1
6
CONTINUOUS
62
5
100
AcDb2dPolyline
66
1
10
0.0
20
0.0
30
0.0
70
0
0
VERTEX
5
456
100
AcDbEntity
8
1
100
AcDbVertex
100
AcDb2dVertex
62
5
10
77.500000
20
288.625000
0
VERTEX
5
457
100
AcDbEntity
8
1
100
AcDbVertex
100
AcDb2dVertex
62
5
10
77.812500
20
289.875000
0
VERTEX
5
458
100
AcDbEntity
8
1
100
AcDbVertex
100
AcDb2dVertex
62
5
10
78.437500
20
290.500000
0
VERTEX
5
459
100
AcDbEntity
8
1
100
AcDbVertex
100
AcDb2dVertex
62
5
10
79.375000
20
290.500000
0
VERTEX
5
45a
100
AcDbEntity
8
1
100
AcDbVertex
100
AcDb2dVertex
62
5
10
80.000000
20
290.187500
0
VERTEX
5
45b
100
AcDbEntity
8
1
100
AcDbVertex
100
AcDb2dVertex
62
5
10
80.312500
20
289.250000
0
VERTEX
5
45c
100
AcDbEntity
8
1
100
AcDbVertex
100
AcDb2dVertex
62
5
10
80.312500
20
288.000000
0
VERTEX
5
45d
100
AcDbEntity
8
1
100
AcDbVertex
100
AcDb2dVertex
62
5
10
80.000000
20
287.375000
0
VERTEX
5
45e
100
AcDbEntity
8
1
100
AcDbVertex
100
AcDb2dVertex
62
5
10
79.375000
20
286.750000
0
VERTEX
5
45f
100
AcDbEntity
8
1
100
AcDbVertex
100
AcDb2dVertex
62
5
10
78.437500
20
286.750000
0
SEQEND
5
460
100
AcDbEntity
8
1
0
POLYLINE
5
461
100
AcDbEntity
8
1
6
CONTINUOUS
62
5
100
AcDb2dPolyline
66
1
10
0.0
20
0.0
30
0.0
70
0
0
VERTEX
5
462
100
AcDbEntity
8
1
100
AcDbVertex
100
AcDb2dVertex
62
5
10
79.375000
20
286.750000
0
VERTEX
5
463
100
AcDbEntity
8
1
100
AcDbVertex
100
AcDb2dVertex
62
5
10
80.312500
20
286.125000
0
VERTEX
5
464
100
AcDbEntity
8
1
100
AcDbVertex
100
AcDb2dVertex
62
5
10
80.625000
20
285.187500
0
VERTEX
5
465
100
AcDbEntity
8
1
100
AcDbVertex
100
AcDb2dVertex
62
5
10
80.625000
20
284.250000
0
VERTEX
5
466
100
AcDbEntity
8
1
100
AcDbVertex
100
AcDb2dVertex
62
5
10
80.312500
20
283.625000
0
VERTEX
5
467
100
AcDbEntity
8
1
100
AcDbVertex
100
AcDb2dVertex
62
5
10
79.375000
20
283.000000
0
VERTEX
5
468
100
AcDbEntity
8
1
100
AcDbVertex
100
AcDb2dVertex
62
5
10
78.437500
20
283.000000
0
VERTEX
5
469
100
AcDbEntity
8
1
100
AcDbVertex
100
AcDb2dVertex
62
5
10
77.812500
20
283.312500
0
VERTEX
5
46a
100
AcDbEntity
8
1
100
AcDbVertex
100
AcDb2dVertex
62
5
10
77.187500
20
284.250000
0
SEQEND
5
46b
100
AcDbEntity
8
1
0
POLYLINE
5
46c
100
AcDbEntity
8
1
6
CONTINUOUS
62
5
100
AcDb2dPolyline
66
1
10
0.0
20
0.0
30
0.0
70
0
0
VERTEX
5
46d
100
AcDbEntity
8
1
100
AcDbVertex
100
AcDb2dVertex
62
5
10
62.500000
20
283.000000
0
VERTEX
5
46e
100
AcDbEntity
8
1
100
AcDbVertex
100
AcDb2dVertex
62
5
10
62.500000
20
290.500000
0
VERTEX
5
46f
100
AcDbEntity
8
1
100
AcDbVertex
100
AcDb2dVertex
62
5
10
65.625000
20
283.000000
0
VERTEX
5
470
100
AcDbEntity
8
1
100
AcDbVertex
100
AcDb2dVertex
62
5
10
65.625000
20
290.500000
0
SEQEND
5
471
100
AcDbEntity
8
1
0
POLYLINE
5
472
100
AcDbEntity
8
1
6
CONTINUOUS
62
5
100
AcDb2dPolyline
66
1
10
0.0
20
0.0
30
0.0
70
0
0
VERTEX
5
473
100
AcDbEntity
8
1
100
AcDbVertex
100
AcDb2dVertex
62
5
10
52.500000
20
290.500000
0
VERTEX
5
474
100
AcDbEntity
8
1
100
AcDbVertex
100
AcDb2dVertex
62
5
10
54.062500
20
283.000000
0
VERTEX
5
475
100
AcDbEntity
8
1
100
AcDbVertex
100
AcDb2dVertex
62
5
10
55.625000
20
290.500000
0
SEQEND
5
476
100
AcDbEntity
8
1
0
LINE
5
477
100
AcDbEntity
8
1
100
AcDbLine
6
CONTINUOUS
62
5
10
57.500000
20
290.500000
11
57.500000
21
283.000000
0
POLYLINE
5
478
100
AcDbEntity
8
1
6
CONTINUOUS
62
5
100
AcDb2dPolyline
66
1
10
0.0
20
0.0
30
0.0
70
0
0
VERTEX
5
479
100
AcDbEntity
8
1
100
AcDbVertex
100
AcDb2dVertex
62
5
10
57.500000
20
290.500000
0
VERTEX
5
47a
100
AcDbEntity
8
1
100
AcDbVertex
100
AcDb2dVertex
62
5
10
59.062500
20
290.500000
0
VERTEX
5
47b
100
AcDbEntity
8
1
100
AcDbVertex
100
AcDb2dVertex
62
5
10
59.687500
20
290.187500
0
VERTEX
5
47c
100
AcDbEntity
8
1
100
AcDbVertex
100
AcDb2dVertex
62
5
10
60.000000
20
289.875000
0
VERTEX
5
47d
100
AcDbEntity
8
1
100
AcDbVertex
100
AcDb2dVertex
62
5
10
60.312500
20
289.250000
0
VERTEX
5
47e
100
AcDbEntity
8
1
100
AcDbVertex
100
AcDb2dVertex
62
5
10
60.312500
20
288.312500
0
VERTEX
5
47f
100
AcDbEntity
8
1
100
AcDbVertex
100
AcDb2dVertex
62
5
10
60.000000
20
287.687500
0
VERTEX
5
480
100
AcDbEntity
8
1
100
AcDbVertex
100
AcDb2dVertex
62
5
10
59.687500
20
287.375000
0
VERTEX
5
481
100
AcDbEntity
8
1
100
AcDbVertex
100
AcDb2dVertex
62
5
10
59.062500
20
287.062500
0
VERTEX
5
482
100
AcDbEntity
8
1
100
AcDbVertex
100
AcDb2dVertex
62
5
10
57.500000
20
287.062500
0
SEQEND
5
483
100
AcDbEntity
8
1
0
POLYLINE
5
484
100
AcDbEntity
8
1
6
CONTINUOUS
62
5
100
AcDb2dPolyline
66
1
10
0.0
20
0.0
30
0.0
70
0
0
VERTEX
5
485
100
AcDbEntity
8
1
100
AcDbVertex
100
AcDb2dVertex
62
5
10
59.062500
20
287.062500
0
VERTEX
5
486
100
AcDbEntity
8
1
100
AcDbVertex
100
AcDb2dVertex
62
5
10
59.687500
20
286.750000
0
VERTEX
5
487
100
AcDbEntity
8
1
100
AcDbVertex
100
AcDb2dVertex
62
5
10
60.312500
20
286.125000
0
VERTEX
5
488
100
AcDbEntity
8
1
100
AcDbVertex
100
AcDb2dVertex
62
5
10
60.625000
20
285.500000
0
VERTEX
5
489
100
AcDbEntity
8
1
100
AcDbVertex
100
AcDb2dVertex
62
5
10
60.625000
20
284.250000
0
VERTEX
5
48a
100
AcDbEntity
8
1
100
AcDbVertex
100
AcDb2dVertex
62
5
10
60.312500
20
283.625000
0
VERTEX
5
48b
100
AcDbEntity
8
1
100
AcDbVertex
100
AcDb2dVertex
62
5
10
60.000000
20
283.312500
0
VERTEX
5
48c
100
AcDbEntity
8
1
100
AcDbVertex
100
AcDb2dVertex
62
5
10
59.375000
20
283.000000
0
VERTEX
5
48d
100
AcDbEntity
8
1
100
AcDbVertex
100
AcDb2dVertex
62
5
10
57.500000
20
283.000000
0
SEQEND
5
48e
100
AcDbEntity
8
1
0
POLYLINE
5
48f
100
AcDbEntity
8
1
6
CONTINUOUS
62
5
100
AcDb2dPolyline
66
1
10
0.0
20
0.0
30
0.0
70
0
0
VERTEX
5
490
100
AcDbEntity
8
1
100
AcDbVertex
100
AcDb2dVertex
62
5
10
67.000000
20
326.812500
0
VERTEX
5
491
100
AcDbEntity
8
1
100
AcDbVertex
100
AcDb2dVertex
62
5
10
67.250000
20
328.375000
0
VERTEX
5
492
100
AcDbEntity
8
1
100
AcDbVertex
100
AcDb2dVertex
62
5
10
68.000000
20
329.000000
0
VERTEX
5
493
100
AcDbEntity
8
1
100
AcDbVertex
100
AcDb2dVertex
62
5
10
68.750000
20
329.000000
0
VERTEX
5
494
100
AcDbEntity
8
1
100
AcDbVertex
100
AcDb2dVertex
62
5
10
69.250000
20
328.687500
0
VERTEX
5
495
100
AcDbEntity
8
1
100
AcDbVertex
100
AcDb2dVertex
62
5
10
69.500000
20
327.750000
0
VERTEX
5
496
100
AcDbEntity
8
1
100
AcDbVertex
100
AcDb2dVertex
62
5
10
69.500000
20
326.812500
0
VERTEX
5
497
100
AcDbEntity
8
1
100
AcDbVertex
100
AcDb2dVertex
62
5
10
69.250000
20
325.875000
0
VERTEX
5
498
100
AcDbEntity
8
1
100
AcDbVertex
100
AcDb2dVertex
62
5
10
67.000000
20
321.500000
0
VERTEX
5
499
100
AcDbEntity
8
1
100
AcDbVertex
100
AcDb2dVertex
62
5
10
69.500000
20
321.500000
0
VERTEX
5
49a
100
AcDbEntity
8
1
100
AcDbVertex
100
AcDb2dVertex
62
5
10
69.500000
20
322.437500
0
SEQEND
5
49b
100
AcDbEntity
8
1
0
LINE
5
49c
100
AcDbEntity
8
1
100
AcDbLine
6
CONTINUOUS
62
5
10
67.250000
20
319.000000
11
73.000000
21
319.000000
0
POLYLINE
5
49d
100
AcDbEntity
8
1
6
CONTINUOUS
62
5
100
AcDb2dPolyline
66
1
10
0.0
20
0.0
30
0.0
70
0
0
VERTEX
5
49e
100
AcDbEntity
8
1
100
AcDbVertex
100
AcDb2dVertex
62
5
10
67.750000
20
318.062500
0
VERTEX
5
49f
100
AcDbEntity
8
1
100
AcDbVertex
100
AcDb2dVertex
62
5
10
72.500000
20
318.062500
0
VERTEX
5
4a0
100
AcDbEntity
8
1
100
AcDbVertex
100
AcDb2dVertex
62
5
10
72.500000
20
316.500000
0
VERTEX
5
4a1
100
AcDbEntity
8
1
100
AcDbVertex
100
AcDb2dVertex
62
5
10
67.750000
20
316.500000
0
SEQEND
5
4a2
100
AcDbEntity
8
1
0
POLYLINE
5
4a3
100
AcDbEntity
8
1
6
CONTINUOUS
62
5
100
AcDb2dPolyline
66
1
10
0.0
20
0.0
30
0.0
70
0
0
VERTEX
5
4a4
100
AcDbEntity
8
1
100
AcDbVertex
100
AcDb2dVertex
62
5
10
67.750000
20
318.062500
0
VERTEX
5
4a5
100
AcDbEntity
8
1
100
AcDbVertex
100
AcDb2dVertex
62
5
10
67.750000
20
314.937500
0
VERTEX
5
4a6
100
AcDbEntity
8
1
100
AcDbVertex
100
AcDb2dVertex
62
5
10
67.500000
20
313.375000
0
VERTEX
5
4a7
100
AcDbEntity
8
1
100
AcDbVertex
100
AcDb2dVertex
62
5
10
67.000000
20
312.437500
0
VERTEX
5
4a8
100
AcDbEntity
8
1
100
AcDbVertex
100
AcDb2dVertex
62
5
10
66.250000
20
311.812500
0
SEQEND
5
4a9
100
AcDbEntity
8
1
0
POLYLINE
5
4aa
100
AcDbEntity
8
1
6
CONTINUOUS
62
5
100
AcDb2dPolyline
66
1
10
0.0
20
0.0
30
0.0
70
0
0
VERTEX
5
4ab
100
AcDbEntity
8
1
100
AcDbVertex
100
AcDb2dVertex
62
5
10
69.750000
20
316.187500
0
VERTEX
5
4ac
100
AcDbEntity
8
1
100
AcDbVertex
100
AcDb2dVertex
62
5
10
69.750000
20
313.062500
0
VERTEX
5
4ad
100
AcDbEntity
8
1
100
AcDbVertex
100
AcDb2dVertex
62
5
10
69.500000
20
312.125000
0
VERTEX
5
4ae
100
AcDbEntity
8
1
100
AcDbVertex
100
AcDb2dVertex
62
5
10
69.000000
20
311.500000
0
VERTEX
5
4af
100
AcDbEntity
8
1
100
AcDbVertex
100
AcDb2dVertex
62
5
10
68.250000
20
311.187500
0
SEQEND
5
4b0
100
AcDbEntity
8
1
0
LINE
5
4b1
100
AcDbEntity
8
1
100
AcDbLine
6
CONTINUOUS
62
5
10
68.000000
20
315.562500
11
69.750000
21
315.562500
0
LINE
5
4b2
100
AcDbEntity
8
1
100
AcDbLine
6
CONTINUOUS
62
5
10
68.250000
20
314.312500
11
69.750000
21
314.312500
0
LINE
5
4b3
100
AcDbEntity
8
1
100
AcDbLine
6
CONTINUOUS
62
5
10
67.750000
20
312.437500
11
70.250000
21
313.375000
0
LINE
5
4b4
100
AcDbEntity
8
1
100
AcDbLine
6
CONTINUOUS
62
5
10
71.000000
20
316.187500
11
71.000000
21
311.187500
0
LINE
5
4b5
100
AcDbEntity
8
1
100
AcDbLine
6
CONTINUOUS
62
5
10
71.000000
20
315.562500
11
72.750000
21
315.562500
0
LINE
5
4b6
100
AcDbEntity
8
1
100
AcDbLine
6
CONTINUOUS
62
5
10
71.000000
20
314.312500
11
72.500000
21
314.312500
0
POLYLINE
5
4b7
100
AcDbEntity
8
1
6
CONTINUOUS
62
5
100
AcDb2dPolyline
66
1
10
0.0
20
0.0
30
0.0
70
0
0
VERTEX
5
4b8
100
AcDbEntity
8
1
100
AcDbVertex
100
AcDb2dVertex
62
5
10
71.000000
20
313.062500
0
VERTEX
5
4b9
100
AcDbEntity
8
1
100
AcDbVertex
100
AcDb2dVertex
62
5
10
71.000000
20
313.062500
0
VERTEX
5
4ba
100
AcDbEntity
8
1
100
AcDbVertex
100
AcDb2dVertex
62
5
10
73.000000
20
313.062500
0
SEQEND
5
4bb
100
AcDbEntity
8
1
0
LINE
5
4bc
100
AcDbEntity
8
1
100
AcDbLine
6
CONTINUOUS
62
5
10
67.500000
20
286.750000
11
70.625000
21
286.750000
0
POLYLINE
5
4bd
100
AcDbEntity
8
1
6
DOT2
62
5
100
AcDb2dPolyline
66
1
10
0.0
20
0.0
30
0.0
70
0
0
VERTEX
5
4be
100
AcDbEntity
8
1
100
AcDbVertex
100
AcDb2dVertex
62
5
10
132.550000
20
243.125000
0
VERTEX
5
4bf
100
AcDbEntity
8
1
100
AcDbVertex
100
AcDb2dVertex
62
5
10
133.487500
20
243.750000
0
VERTEX
5
4c0
100
AcDbEntity
8
1
100
AcDbVertex
100
AcDb2dVertex
62
5
10
133.487500
20
236.250000
0
SEQEND
5
4c1
100
AcDbEntity
8
1
0
LINE
5
4c2
100
AcDbEntity
8
1
100
AcDbLine
6
DOT2
62
5
10
132.862500
20
236.250000
11
134.112500
21
236.250000
0
POLYLINE
5
4c3
100
AcDbEntity
8
1
6
DOT2
62
5
100
AcDb2dPolyline
66
1
10
0.0
20
0.0
30
0.0
70
1
0
VERTEX
5
4c4
100
AcDbEntity
8
1
100
AcDbVertex
100
AcDb2dVertex
62
5
10
138.175000
20
243.750000
0
VERTEX
5
4c5
100
AcDbEntity
8
1
100
AcDbVertex
100
AcDb2dVertex
62
5
10
138.800000
20
243.750000
0
VERTEX
5
4c6
100
AcDbEntity
8
1
100
AcDbVertex
100
AcDb2dVertex
62
5
10
139.112500
20
243.437500
0
VERTEX
5
4c7
100
AcDbEntity
8
1
100
AcDbVertex
100
AcDb2dVertex
62
5
10
139.737500
20
242.187500
0
VERTEX
5
4c8
100
AcDbEntity
8
1
100
AcDbVertex
100
AcDb2dVertex
62
5
10
140.050000
20
240.937500
0
VERTEX
5
4c9
100
AcDbEntity
8
1
100
AcDbVertex
100
AcDb2dVertex
62
5
10
140.050000
20
239.062500
0
VERTEX
5
4ca
100
AcDbEntity
8
1
100
AcDbVertex
100
AcDb2dVertex
62
5
10
139.737500
20
237.812500
0
VERTEX
5
4cb
100
AcDbEntity
8
1
100
AcDbVertex
100
AcDb2dVertex
62
5
10
139.112500
20
236.562500
0
VERTEX
5
4cc
100
AcDbEntity
8
1
100
AcDbVertex
100
AcDb2dVertex
62
5
10
138.800000
20
236.250000
0
VERTEX
5
4cd
100
AcDbEntity
8
1
100
AcDbVertex
100
AcDb2dVertex
62
5
10
138.175000
20
236.250000
0
VERTEX
5
4ce
100
AcDbEntity
8
1
100
AcDbVertex
100
AcDb2dVertex
62
5
10
137.862500
20
236.562500
0
VERTEX
5
4cf
100
AcDbEntity
8
1
100
AcDbVertex
100
AcDb2dVertex
62
5
10
137.237500
20
237.812500
0
VERTEX
5
4d0
100
AcDbEntity
8
1
100
AcDbVertex
100
AcDb2dVertex
62
5
10
136.925000
20
239.062500
0
VERTEX
5
4d1
100
AcDbEntity
8
1
100
AcDbVertex
100
AcDb2dVertex
62
5
10
136.925000
20
240.937500
0
VERTEX
5
4d2
100
AcDbEntity
8
1
100
AcDbVertex
100
AcDb2dVertex
62
5
10
137.237500
20
242.187500
0
VERTEX
5
4d3
100
AcDbEntity
8
1
100
AcDbVertex
100
AcDb2dVertex
62
5
10
137.862500
20
243.437500
0
VERTEX
5
4d4
100
AcDbEntity
8
1
100
AcDbVertex
100
AcDb2dVertex
62
5
10
138.175000
20
243.750000
0
SEQEND
5
4d5
100
AcDbEntity
8
1
0
ARC
5
4d6
100
AcDbEntity
8
1
100
AcDbCircle
6
CONTINUOUS
62
5
10
118.075000
20
165.800000
40
0.200000
100
AcDbArc
50
0.000000
51
89.999999
0
LINE
5
4d7
100
AcDbEntity
8
1
100
AcDbLine
6
CONTINUOUS
62
5
10
118.275000
20
165.800000
11
118.275000
21
164.200000
0
ARC
5
4d8
100
AcDbEntity
8
1
100
AcDbCircle
6
CONTINUOUS
62
5
10
118.075000
20
164.200000
40
0.200000
100
AcDbArc
50
-89.999999
51
0.000000
0
LINE
5
4d9
100
AcDbEntity
8
1
100
AcDbLine
6
CONTINUOUS
62
5
10
118.075000
20
164.000000
11
117.842333
21
164.000000
0
LINE
5
4da
100
AcDbEntity
8
1
100
AcDbLine
6
CONTINUOUS
62
5
10
117.832333
20
166.000000
11
118.075000
21
166.000000
0
LINE
5
4db
100
AcDbEntity
8
1
100
AcDbLine
6
CONTINUOUS
62
5
10
104.675000
20
178.961638
11
104.675000
21
176.000000
0
ARC
5
4dc
100
AcDbEntity
8
1
100
AcDbCircle
6
CONTINUOUS
62
5
10
103.675000
20
179.125103
40
1.000000
100
AcDbArc
50
-82.378530
51
0.000000
0
LINE
5
4dd
100
AcDbEntity
8
1
100
AcDbLine
6
CONTINUOUS
62
5
10
103.807628
20
178.133937
11
102.034603
21
177.896689
0
LINE
5
4de
100
AcDbEntity
8
1
100
AcDbLine
6
CONTINUOUS
62
5
10
98.325000
20
175.965937
11
98.325000
21
175.700000
0
POLYLINE
5
4df
100
AcDbEntity
8
1
6
CONTINUOUS
62
5
100
AcDb2dPolyline
66
1
10
0.0
20
0.0
30
0.0
70
0
0
VERTEX
5
4e0
100
AcDbEntity
8
1
100
AcDbVertex
100
AcDb2dVertex
62
5
10
94.385514
20
175.614712
0
VERTEX
5
4e1
100
AcDbEntity
8
1
100
AcDbVertex
100
AcDb2dVertex
62
5
10
93.172327
20
175.506551
0
VERTEX
5
4e2
100
AcDbEntity
8
1
100
AcDbVertex
100
AcDb2dVertex
62
5
10
93.243916
20
174.703578
0
VERTEX
5
4e3
100
AcDbEntity
8
1
100
AcDbVertex
100
AcDb2dVertex
62
5
10
94.510678
20
174.817808
0
SEQEND
5
4e4
100
AcDbEntity
8
1
0
LINE
5
4e5
100
AcDbEntity
8
1
100
AcDbLine
6
CONTINUOUS
62
5
10
100.174952
20
175.700000
11
98.325000
21
175.700000
0
LINE
5
4e6
100
AcDbEntity
8
1
100
AcDbLine
6
CONTINUOUS
62
5
10
100.174952
20
175.700000
11
98.325000
21
175.700000
0
POLYLINE
5
4e7
100
AcDbEntity
8
1
6
CONTINUOUS
62
5
100
AcDb2dPolyline
66
1
10
0.0
20
0.0
30
0.0
70
0
0
VERTEX
5
4e8
100
AcDbEntity
8
1
100
AcDbVertex
100
AcDb2dVertex
62
5
10
100.174972
20
176.051546
0
VERTEX
5
4e9
100
AcDbEntity
8
1
100
AcDbVertex
100
AcDb2dVertex
62
5
10
99.265644
20
176.049986
0
VERTEX
5
4ea
100
AcDbEntity
8
1
100
AcDbVertex
100
AcDb2dVertex
62
5
10
98.325000
20
175.965937
0
SEQEND
5
4eb
100
AcDbEntity
8
1
0
ARC
5
4ec
100
AcDbEntity
8
1
100
AcDbCircle
6
CONTINUOUS
62
5
10
103.674975
20
179.135219
40
1.000000
100
AcDbArc
50
-83.031742
51
-0.000000
0
POLYLINE
5
4ed
100
AcDbEntity
8
1
6
CONTINUOUS
62
5
100
AcDb2dPolyline
66
1
10
0.0
20
0.0
30
0.0
70
0
0
VERTEX
5
4ee
100
AcDbEntity
8
1
100
AcDbVertex
100
AcDb2dVertex
62
5
10
103.796295
20
178.142606
0
VERTEX
5
4ef
100
AcDbEntity
8
1
100
AcDbVertex
100
AcDb2dVertex
62
5
10
100.174975
20
177.700000
0
VERTEX
5
4f0
100
AcDbEntity
8
1
100
AcDbVertex
100
AcDb2dVertex
62
5
10
99.124975
20
177.699998
0
SEQEND
5
4f1
100
AcDbEntity
8
1
0
ARC
5
4f2
100
AcDbEntity
8
1
100
AcDbCircle
6
CONTINUOUS
62
5
10
99.124975
20
177.199998
40
0.500000
100
AcDbArc
50
89.999999
51
-89.999934
0
LINE
5
4f3
100
AcDbEntity
8
1
100
AcDbLine
6
CONTINUOUS
62
5
10
99.124975
20
176.699998
11
100.174951
21
176.699999
0
ARC
5
4f4
100
AcDbEntity
8
1
100
AcDbCircle
6
CONTINUOUS
62
5
10
96.175000
20
177.200000
40
0.500000
100
AcDbArc
50
-179.999998
51
-89.999999
0
LINE
5
4f5
100
AcDbEntity
8
1
100
AcDbLine
6
CONTINUOUS
62
5
10
96.175000
20
176.700000
11
100.175000
21
176.700000
0
ARC
5
4f6
100
AcDbEntity
8
1
100
AcDbCircle
6
CONTINUOUS
62
5
10
96.175000
20
177.215225
40
0.500000
100
AcDbArc
50
91.771469
51
179.999998
0
POLYLINE
5
4f7
100
AcDbEntity
8
1
6
CONTINUOUS
62
5
100
AcDb2dPolyline
66
1
10
0.0
20
0.0
30
0.0
70
0
0
VERTEX
5
4f8
100
AcDbEntity
8
1
100
AcDbVertex
100
AcDb2dVertex
62
5
10
96.159543
20
177.714986
0
VERTEX
5
4f9
100
AcDbEntity
8
1
100
AcDbVertex
100
AcDb2dVertex
62
5
10
102.034603
20
177.896689
0
VERTEX
5
4fa
100
AcDbEntity
8
1
100
AcDbVertex
100
AcDb2dVertex
62
5
10
103.714097
20
177.962403
0
SEQEND
5
4fb
100
AcDbEntity
8
1
0
ARC
5
4fc
100
AcDbEntity
8
1
100
AcDbCircle
6
CONTINUOUS
62
5
10
103.675000
20
178.961638
40
1.000000
100
AcDbArc
50
-87.759322
51
0.000000
0
LINE
5
4fd
100
AcDbEntity
8
1
100
AcDbLine
6
CONTINUOUS
62
5
10
104.675000
20
178.961638
11
104.675000
21
180.791736
0
ARC
5
4fe
100
AcDbEntity
8
1
100
AcDbCircle
6
CONTINUOUS
62
5
10
110.175000
20
180.791736
40
5.500000
100
AcDbArc
50
94.411725
51
179.999998
0
ARC
5
4ff
100
AcDbEntity
8
1
100
AcDbCircle
6
CONTINUOUS
62
5
10
109.675000
20
187.272477
40
1.000000
100
AcDbArc
50
-85.588273
51
-0.000000
0
LINE
5
500
100
AcDbEntity
8
1
100
AcDbLine
6
CONTINUOUS
62
5
10
95.675255
20
176.000000
11
95.675000
21
177.215225
0
LINE
5
501
100
AcDbEntity
8
1
100
AcDbLine
6
CONTINUOUS
62
5
10
110.675000
20
211.500000
11
110.675000
21
237.000000
0
LINE
5
502
100
AcDbEntity
8
1
100
AcDbLine
6
CONTINUOUS
62
5
10
120.675000
20
160.245216
11
120.675000
21
237.000000
0
POLYLINE
5
503
100
AcDbEntity
8
1
6
CONTINUOUS
62
5
100
AcDb2dPolyline
66
1
10
0.0
20
0.0
30
0.0
70
0
0
VERTEX
5
504
100
AcDbEntity
8
1
100
AcDbVertex
100
AcDb2dVertex
62
5
10
141.925000
20
235.000000
0
VERTEX
5
505
100
AcDbEntity
8
1
100
AcDbVertex
100
AcDb2dVertex
62
5
10
120.675000
20
235.000000
0
VERTEX
5
506
100
AcDbEntity
8
1
100
AcDbVertex
100
AcDb2dVertex
62
5
10
126.675000
20
236.000000
0
VERTEX
5
507
100
AcDbEntity
8
1
100
AcDbVertex
100
AcDb2dVertex
62
5
10
126.675000
20
234.000000
0
VERTEX
5
508
100
AcDbEntity
8
1
100
AcDbVertex
100
AcDb2dVertex
62
5
10
120.675000
20
235.000000
0
VERTEX
5
509
100
AcDbEntity
8
1
100
AcDbVertex
100
AcDb2dVertex
62
5
10
126.675000
20
235.500000
0
VERTEX
5
50a
100
AcDbEntity
8
1
100
AcDbVertex
100
AcDb2dVertex
62
5
10
126.675000
20
234.500000
0
VERTEX
5
50b
100
AcDbEntity
8
1
100
AcDbVertex
100
AcDb2dVertex
62
5
10
120.675000
20
235.000000
0
SEQEND
5
50c
100
AcDbEntity
8
1
0
LINE
5
50d
100
AcDbEntity
8
1
100
AcDbLine
6
CONTINUOUS
62
5
10
120.675000
20
235.000000
11
110.675000
21
235.000000
0
LINE
5
50e
100
AcDbEntity
8
1
100
AcDbLine
6
CONTINUOUS
62
5
10
105.675000
20
235.000000
11
110.675000
21
235.000000
0
POLYLINE
5
50f
100
AcDbEntity
8
1
6
CONTINUOUS
62
5
100
AcDb2dPolyline
66
1
10
0.0
20
0.0
30
0.0
70
0
0
VERTEX
5
510
100
AcDbEntity
8
1
100
AcDbVertex
100
AcDb2dVertex
62
5
10
111.675000
20
235.500000
0
VERTEX
5
511
100
AcDbEntity
8
1
100
AcDbVertex
100
AcDb2dVertex
62
5
10
111.675000
20
234.500000
0
VERTEX
5
512
100
AcDbEntity
8
1
100
AcDbVertex
100
AcDb2dVertex
62
5
10
111.175000
20
234.000000
0
VERTEX
5
513
100
AcDbEntity
8
1
100
AcDbVertex
100
AcDb2dVertex
62
5
10
110.175000
20
234.000000
0
VERTEX
5
514
100
AcDbEntity
8
1
100
AcDbVertex
100
AcDb2dVertex
62
5
10
109.675000
20
234.500000
0
VERTEX
5
515
100
AcDbEntity
8
1
100
AcDbVertex
100
AcDb2dVertex
62
5
10
109.675000
20
235.500000
0
VERTEX
5
516
100
AcDbEntity
8
1
100
AcDbVertex
100
AcDb2dVertex
62
5
10
110.175000
20
236.000000
0
VERTEX
5
517
100
AcDbEntity
8
1
100
AcDbVertex
100
AcDb2dVertex
62
5
10
111.175000
20
236.000000
0
VERTEX
5
518
100
AcDbEntity
8
1
100
AcDbVertex
100
AcDb2dVertex
62
5
10
111.675000
20
235.500000
0
VERTEX
5
519
100
AcDbEntity
8
1
100
AcDbVertex
100
AcDb2dVertex
62
5
10
109.675000
20
234.500000
0
SEQEND
5
51a
100
AcDbEntity
8
1
0
LINE
5
51b
100
AcDbEntity
8
1
100
AcDbLine
6
CONTINUOUS
62
5
10
109.675000
20
235.500000
11
111.675000
21
234.500000
0
LINE
5
51c
100
AcDbEntity
8
1
100
AcDbLine
6
CONTINUOUS
62
5
10
111.175000
20
234.000000
11
110.175000
21
236.000000
0
LINE
5
51d
100
AcDbEntity
8
1
100
AcDbLine
6
CONTINUOUS
62
5
10
111.175000
20
236.000000
11
110.175000
21
234.000000
0
LINE
5
51e
100
AcDbEntity
8
1
100
AcDbLine
6
DOT2
62
5
10
63.800000
20
236.875000
11
63.175000
21
236.250000
0
POLYLINE
5
51f
100
AcDbEntity
8
1
6
DOT2
62
5
100
AcDb2dPolyline
66
1
10
0.0
20
0.0
30
0.0
70
0
0
VERTEX
5
520
100
AcDbEntity
8
1
100
AcDbVertex
100
AcDb2dVertex
62
5
10
63.175000
20
236.875000
0
VERTEX
5
521
100
AcDbEntity
8
1
100
AcDbVertex
100
AcDb2dVertex
62
5
10
63.800000
20
236.250000
0
VERTEX
5
522
100
AcDbEntity
8
1
100
AcDbVertex
100
AcDb2dVertex
62
5
10
63.175000
20
236.250000
0
VERTEX
5
523
100
AcDbEntity
8
1
100
AcDbVertex
100
AcDb2dVertex
62
5
10
63.175000
20
236.875000
0
VERTEX
5
524
100
AcDbEntity
8
1
100
AcDbVertex
100
AcDb2dVertex
62
5
10
63.800000
20
236.875000
0
VERTEX
5
525
100
AcDbEntity
8
1
100
AcDbVertex
100
AcDb2dVertex
62
5
10
63.800000
20
236.250000
0
SEQEND
5
526
100
AcDbEntity
8
1
0
POLYLINE
5
527
100
AcDbEntity
8
1
6
DOT2
62
5
100
AcDb2dPolyline
66
1
10
0.0
20
0.0
30
0.0
70
0
0
VERTEX
5
528
100
AcDbEntity
8
1
100
AcDbVertex
100
AcDb2dVertex
62
5
10
53.175000
20
241.562500
0
VERTEX
5
529
100
AcDbEntity
8
1
100
AcDbVertex
100
AcDb2dVertex
62
5
10
53.487500
20
243.125000
0
VERTEX
5
52a
100
AcDbEntity
8
1
100
AcDbVertex
100
AcDb2dVertex
62
5
10
54.425000
20
243.750000
0
VERTEX
5
52b
100
AcDbEntity
8
1
100
AcDbVertex
100
AcDb2dVertex
62
5
10
55.362500
20
243.750000
0
VERTEX
5
52c
100
AcDbEntity
8
1
100
AcDbVertex
100
AcDb2dVertex
62
5
10
55.987500
20
243.437500
0
VERTEX
5
52d
100
AcDbEntity
8
1
100
AcDbVertex
100
AcDb2dVertex
62
5
10
56.300000
20
242.500000
0
VERTEX
5
52e
100
AcDbEntity
8
1
100
AcDbVertex
100
AcDb2dVertex
62
5
10
56.300000
20
241.562500
0
VERTEX
5
52f
100
AcDbEntity
8
1
100
AcDbVertex
100
AcDb2dVertex
62
5
10
55.987500
20
240.625000
0
VERTEX
5
530
100
AcDbEntity
8
1
100
AcDbVertex
100
AcDb2dVertex
62
5
10
53.175000
20
236.250000
0
VERTEX
5
531
100
AcDbEntity
8
1
100
AcDbVertex
100
AcDb2dVertex
62
5
10
56.300000
20
236.250000
0
VERTEX
5
532
100
AcDbEntity
8
1
100
AcDbVertex
100
AcDb2dVertex
62
5
10
56.300000
20
237.187500
0
SEQEND
5
533
100
AcDbEntity
8
1
0
POLYLINE
5
534
100
AcDbEntity
8
1
6
DOT2
62
5
100
AcDb2dPolyline
66
1
10
0.0
20
0.0
30
0.0
70
1
0
VERTEX
5
535
100
AcDbEntity
8
1
100
AcDbVertex
100
AcDb2dVertex
62
5
10
59.425000
20
243.750000
0
VERTEX
5
536
100
AcDbEntity
8
1
100
AcDbVertex
100
AcDb2dVertex
62
5
10
60.050000
20
243.750000
0
VERTEX
5
537
100
AcDbEntity
8
1
100
AcDbVertex
100
AcDb2dVertex
62
5
10
60.675000
20
243.437500
0
VERTEX
5
538
100
AcDbEntity
8
1
100
AcDbVertex
100
AcDb2dVertex
62
5
10
60.987500
20
242.812500
0
VERTEX
5
539
100
AcDbEntity
8
1
100
AcDbVertex
100
AcDb2dVertex
62
5
10
60.987500
20
241.562500
0
VERTEX
5
53a
100
AcDbEntity
8
1
100
AcDbVertex
100
AcDb2dVertex
62
5
10
60.675000
20
240.937500
0
VERTEX
5
53b
100
AcDbEntity
8
1
100
AcDbVertex
100
AcDb2dVertex
62
5
10
58.800000
20
239.687500
0
VERTEX
5
53c
100
AcDbEntity
8
1
100
AcDbVertex
100
AcDb2dVertex
62
5
10
58.175000
20
238.750000
0
VERTEX
5
53d
100
AcDbEntity
8
1
100
AcDbVertex
100
AcDb2dVertex
62
5
10
58.175000
20
237.500000
0
VERTEX
5
53e
100
AcDbEntity
8
1
100
AcDbVertex
100
AcDb2dVertex
62
5
10
58.487500
20
236.875000
0
VERTEX
5
53f
100
AcDbEntity
8
1
100
AcDbVertex
100
AcDb2dVertex
62
5
10
58.800000
20
236.562500
0
VERTEX
5
540
100
AcDbEntity
8
1
100
AcDbVertex
100
AcDb2dVertex
62
5
10
59.425000
20
236.250000
0
VERTEX
5
541
100
AcDbEntity
8
1
100
AcDbVertex
100
AcDb2dVertex
62
5
10
60.050000
20
236.250000
0
VERTEX
5
542
100
AcDbEntity
8
1
100
AcDbVertex
100
AcDb2dVertex
62
5
10
60.675000
20
236.562500
0
VERTEX
5
543
100
AcDbEntity
8
1
100
AcDbVertex
100
AcDb2dVertex
62
5
10
60.987500
20
236.875000
0
VERTEX
5
544
100
AcDbEntity
8
1
100
AcDbVertex
100
AcDb2dVertex
62
5
10
61.300000
20
237.500000
0
VERTEX
5
545
100
AcDbEntity
8
1
100
AcDbVertex
100
AcDb2dVertex
62
5
10
61.300000
20
238.750000
0
VERTEX
5
546
100
AcDbEntity
8
1
100
AcDbVertex
100
AcDb2dVertex
62
5
10
60.675000
20
239.687500
0
VERTEX
5
547
100
AcDbEntity
8
1
100
AcDbVertex
100
AcDb2dVertex
62
5
10
58.800000
20
240.937500
0
VERTEX
5
548
100
AcDbEntity
8
1
100
AcDbVertex
100
AcDb2dVertex
62
5
10
58.487500
20
241.562500
0
VERTEX
5
549
100
AcDbEntity
8
1
100
AcDbVertex
100
AcDb2dVertex
62
5
10
58.487500
20
242.812500
0
VERTEX
5
54a
100
AcDbEntity
8
1
100
AcDbVertex
100
AcDb2dVertex
62
5
10
58.800000
20
243.437500
0
VERTEX
5
54b
100
AcDbEntity
8
1
100
AcDbVertex
100
AcDb2dVertex
62
5
10
59.425000
20
243.750000
0
SEQEND
5
54c
100
AcDbEntity
8
1
0
POLYLINE
5
54d
100
AcDbEntity
8
1
6
DOT2
62
5
100
AcDb2dPolyline
66
1
10
0.0
20
0.0
30
0.0
70
1
0
VERTEX
5
54e
100
AcDbEntity
8
1
100
AcDbVertex
100
AcDb2dVertex
62
5
10
69.425000
20
243.750000
0
VERTEX
5
54f
100
AcDbEntity
8
1
100
AcDbVertex
100
AcDb2dVertex
62
5
10
70.050000
20
243.750000
0
VERTEX
5
550
100
AcDbEntity
8
1
100
AcDbVertex
100
AcDb2dVertex
62
5
10
70.675000
20
243.437500
0
VERTEX
5
551
100
AcDbEntity
8
1
100
AcDbVertex
100
AcDb2dVertex
62
5
10
70.987500
20
242.812500
0
VERTEX
5
552
100
AcDbEntity
8
1
100
AcDbVertex
100
AcDb2dVertex
62
5
10
70.987500
20
241.562500
0
VERTEX
5
553
100
AcDbEntity
8
1
100
AcDbVertex
100
AcDb2dVertex
62
5
10
70.675000
20
240.937500
0
VERTEX
5
554
100
AcDbEntity
8
1
100
AcDbVertex
100
AcDb2dVertex
62
5
10
68.800000
20
239.687500
0
VERTEX
5
555
100
AcDbEntity
8
1
100
AcDbVertex
100
AcDb2dVertex
62
5
10
68.175000
20
238.750000
0
VERTEX
5
556
100
AcDbEntity
8
1
100
AcDbVertex
100
AcDb2dVertex
62
5
10
68.175000
20
237.500000
0
VERTEX
5
557
100
AcDbEntity
8
1
100
AcDbVertex
100
AcDb2dVertex
62
5
10
68.487500
20
236.875000
0
VERTEX
5
558
100
AcDbEntity
8
1
100
AcDbVertex
100
AcDb2dVertex
62
5
10
68.800000
20
236.562500
0
VERTEX
5
559
100
AcDbEntity
8
1
100
AcDbVertex
100
AcDb2dVertex
62
5
10
69.425000
20
236.250000
0
VERTEX
5
55a
100
AcDbEntity
8
1
100
AcDbVertex
100
AcDb2dVertex
62
5
10
70.050000
20
236.250000
0
VERTEX
5
55b
100
AcDbEntity
8
1
100
AcDbVertex
100
AcDb2dVertex
62
5
10
70.675000
20
236.562500
0
VERTEX
5
55c
100
AcDbEntity
8
1
100
AcDbVertex
100
AcDb2dVertex
62
5
10
70.987500
20
236.875000
0
VERTEX
5
55d
100
AcDbEntity
8
1
100
AcDbVertex
100
AcDb2dVertex
62
5
10
71.300000
20
237.500000
0
VERTEX
5
55e
100
AcDbEntity
8
1
100
AcDbVertex
100
AcDb2dVertex
62
5
10
71.300000
20
238.750000
0
VERTEX
5
55f
100
AcDbEntity
8
1
100
AcDbVertex
100
AcDb2dVertex
62
5
10
70.675000
20
239.687500
0
VERTEX
5
560
100
AcDbEntity
8
1
100
AcDbVertex
100
AcDb2dVertex
62
5
10
68.800000
20
240.937500
0
VERTEX
5
561
100
AcDbEntity
8
1
100
AcDbVertex
100
AcDb2dVertex
62
5
10
68.487500
20
241.562500
0
VERTEX
5
562
100
AcDbEntity
8
1
100
AcDbVertex
100
AcDb2dVertex
62
5
10
68.487500
20
242.812500
0
VERTEX
5
563
100
AcDbEntity
8
1
100
AcDbVertex
100
AcDb2dVertex
62
5
10
68.800000
20
243.437500
0
VERTEX
5
564
100
AcDbEntity
8
1
100
AcDbVertex
100
AcDb2dVertex
62
5
10
69.425000
20
243.750000
0
SEQEND
5
565
100
AcDbEntity
8
1
0
LINE
5
566
100
AcDbEntity
8
1
100
AcDbLine
6
CONTINUOUS
62
5
10
81.875000
20
175.017824
11
81.875000
21
237.000000
0
LINE
5
567
100
AcDbEntity
8
1
100
AcDbLine
6
CONTINUOUS
62
5
10
110.675000
20
211.500000
11
110.675000
21
237.000000
0
POLYLINE
5
568
100
AcDbEntity
8
1
6
CONTINUOUS
62
5
100
AcDb2dPolyline
66
1
10
0.0
20
0.0
30
0.0
70
0
0
VERTEX
5
569
100
AcDbEntity
8
1
100
AcDbVertex
100
AcDb2dVertex
62
5
10
50.675000
20
235.000000
0
VERTEX
5
56a
100
AcDbEntity
8
1
100
AcDbVertex
100
AcDb2dVertex
62
5
10
81.875000
20
235.000000
0
VERTEX
5
56b
100
AcDbEntity
8
1
100
AcDbVertex
100
AcDb2dVertex
62
5
10
75.875000
20
234.000000
0
VERTEX
5
56c
100
AcDbEntity
8
1
100
AcDbVertex
100
AcDb2dVertex
62
5
10
75.875000
20
236.000000
0
VERTEX
5
56d
100
AcDbEntity
8
1
100
AcDbVertex
100
AcDb2dVertex
62
5
10
81.875000
20
235.000000
0
VERTEX
5
56e
100
AcDbEntity
8
1
100
AcDbVertex
100
AcDb2dVertex
62
5
10
75.875000
20
234.500000
0
VERTEX
5
56f
100
AcDbEntity
8
1
100
AcDbVertex
100
AcDb2dVertex
62
5
10
75.875000
20
235.500000
0
VERTEX
5
570
100
AcDbEntity
8
1
100
AcDbVertex
100
AcDb2dVertex
62
5
10
81.875000
20
235.000000
0
SEQEND
5
571
100
AcDbEntity
8
1
0
LINE
5
572
100
AcDbEntity
8
1
100
AcDbLine
6
CONTINUOUS
62
5
10
81.875000
20
235.000000
11
110.675000
21
235.000000
0
LINE
5
573
100
AcDbEntity
8
1
100
AcDbLine
6
CONTINUOUS
62
5
10
113.675000
20
235.000000
11
110.675000
21
235.000000
0
POLYLINE
5
574
100
AcDbEntity
8
1
6
CONTINUOUS
62
5
100
AcDb2dPolyline
66
1
10
0.0
20
0.0
30
0.0
70
0
0
VERTEX
5
575
100
AcDbEntity
8
1
100
AcDbVertex
100
AcDb2dVertex
62
5
10
151.750000
20
328.687500
0
VERTEX
5
576
100
AcDbEntity
8
1
100
AcDbVertex
100
AcDb2dVertex
62
5
10
149.750000
20
326.187500
0
VERTEX
5
577
100
AcDbEntity
8
1
100
AcDbVertex
100
AcDb2dVertex
62
5
10
147.500000
20
324.625000
0
SEQEND
5
578
100
AcDbEntity
8
1
0
LINE
5
579
100
AcDbEntity
8
1
100
AcDbLine
6
CONTINUOUS
62
5
10
150.250000
20
326.812500
11
150.250000
21
321.500000
0
LINE
5
57a
100
AcDbEntity
8
1
100
AcDbLine
6
CONTINUOUS
62
5
10
148.000000
20
317.437500
11
151.750000
21
318.062500
0
LINE
5
57b
100
AcDbEntity
8
1
100
AcDbLine
6
CONTINUOUS
62
5
10
146.750000
20
315.562500
11
152.750000
21
315.562500
0
POLYLINE
5
57c
100
AcDbEntity
8
1
6
CONTINUOUS
62
5
100
AcDb2dPolyline
66
1
10
0.0
20
0.0
30
0.0
70
0
0
VERTEX
5
57d
100
AcDbEntity
8
1
100
AcDbVertex
100
AcDb2dVertex
62
5
10
150.000000
20
317.750000
0
VERTEX
5
57e
100
AcDbEntity
8
1
100
AcDbVertex
100
AcDb2dVertex
62
5
10
150.000000
20
315.562500
0
VERTEX
5
57f
100
AcDbEntity
8
1
100
AcDbVertex
100
AcDb2dVertex
62
5
10
149.750000
20
314.000000
0
VERTEX
5
580
100
AcDbEntity
8
1
100
AcDbVertex
100
AcDb2dVertex
62
5
10
149.000000
20
312.750000
0
VERTEX
5
581
100
AcDbEntity
8
1
100
AcDbVertex
100
AcDb2dVertex
62
5
10
148.250000
20
311.812500
0
SEQEND
5
582
100
AcDbEntity
8
1
0
POLYLINE
5
583
100
AcDbEntity
8
1
6
DOT2
62
5
100
AcDb2dPolyline
66
1
10
0.0
20
0.0
30
0.0
70
1
0
VERTEX
5
584
100
AcDbEntity
8
1
100
AcDbVertex
100
AcDb2dVertex
62
5
10
261.925000
20
155.000000
0
VERTEX
5
585
100
AcDbEntity
8
1
100
AcDbVertex
100
AcDb2dVertex
62
5
10
261.925000
20
155.625000
0
VERTEX
5
586
100
AcDbEntity
8
1
100
AcDbVertex
100
AcDb2dVertex
62
5
10
262.237500
20
155.937500
0
VERTEX
5
587
100
AcDbEntity
8
1
100
AcDbVertex
100
AcDb2dVertex
62
5
10
263.487500
20
156.562500
0
VERTEX
5
588
100
AcDbEntity
8
1
100
AcDbVertex
100
AcDb2dVertex
62
5
10
264.737500
20
156.875000
0
VERTEX
5
589
100
AcDbEntity
8
1
100
AcDbVertex
100
AcDb2dVertex
62
5
10
266.612500
20
156.875000
0
VERTEX
5
58a
100
AcDbEntity
8
1
100
AcDbVertex
100
AcDb2dVertex
62
5
10
267.862500
20
156.562500
0
VERTEX
5
58b
100
AcDbEntity
8
1
100
AcDbVertex
100
AcDb2dVertex
62
5
10
269.112500
20
155.937500
0
VERTEX
5
58c
100
AcDbEntity
8
1
100
AcDbVertex
100
AcDb2dVertex
62
5
10
269.425000
20
155.625000
0
VERTEX
5
58d
100
AcDbEntity
8
1
100
AcDbVertex
100
AcDb2dVertex
62
5
10
269.425000
20
155.000000
0
VERTEX
5
58e
100
AcDbEntity
8
1
100
AcDbVertex
100
AcDb2dVertex
62
5
10
269.112500
20
154.687500
0
VERTEX
5
58f
100
AcDbEntity
8
1
100
AcDbVertex
100
AcDb2dVertex
62
5
10
267.862500
20
154.062500
0
VERTEX
5
590
100
AcDbEntity
8
1
100
AcDbVertex
100
AcDb2dVertex
62
5
10
266.612500
20
153.750000
0
VERTEX
5
591
100
AcDbEntity
8
1
100
AcDbVertex
100
AcDb2dVertex
62
5
10
264.737500
20
153.750000
0
VERTEX
5
592
100
AcDbEntity
8
1
100
AcDbVertex
100
AcDb2dVertex
62
5
10
263.487500
20
154.062500
0
VERTEX
5
593
100
AcDbEntity
8
1
100
AcDbVertex
100
AcDb2dVertex
62
5
10
262.237500
20
154.687500
0
VERTEX
5
594
100
AcDbEntity
8
1
100
AcDbVertex
100
AcDb2dVertex
62
5
10
261.925000
20
155.000000
0
SEQEND
5
595
100
AcDbEntity
8
1
0
POLYLINE
5
596
100
AcDbEntity
8
1
6
DOT2
62
5
100
AcDb2dPolyline
66
1
10
0.0
20
0.0
30
0.0
70
0
0
VERTEX
5
597
100
AcDbEntity
8
1
100
AcDbVertex
100
AcDb2dVertex
62
5
10
262.550000
20
144.375000
0
VERTEX
5
598
100
AcDbEntity
8
1
100
AcDbVertex
100
AcDb2dVertex
62
5
10
261.925000
20
145.312500
0
VERTEX
5
599
100
AcDbEntity
8
1
100
AcDbVertex
100
AcDb2dVertex
62
5
10
269.425000
20
145.312500
0
SEQEND
5
59a
100
AcDbEntity
8
1
0
LINE
5
59b
100
AcDbEntity
8
1
100
AcDbLine
6
DOT2
62
5
10
269.425000
20
144.687500
11
269.425000
21
145.937500
0
POLYLINE
5
59c
100
AcDbEntity
8
1
6
DOT2
62
5
100
AcDb2dPolyline
66
1
10
0.0
20
0.0
30
0.0
70
0
0
VERTEX
5
59d
100
AcDbEntity
8
1
100
AcDbVertex
100
AcDb2dVertex
62
5
10
264.112500
20
148.750000
0
VERTEX
5
59e
100
AcDbEntity
8
1
100
AcDbVertex
100
AcDb2dVertex
62
5
10
262.550000
20
149.062500
0
VERTEX
5
59f
100
AcDbEntity
8
1
100
AcDbVertex
100
AcDb2dVertex
62
5
10
261.925000
20
150.000000
0
VERTEX
5
5a0
100
AcDbEntity
8
1
100
AcDbVertex
100
AcDb2dVertex
62
5
10
261.925000
20
150.937500
0
VERTEX
5
5a1
100
AcDbEntity
8
1
100
AcDbVertex
100
AcDb2dVertex
62
5
10
262.237500
20
151.562500
0
VERTEX
5
5a2
100
AcDbEntity
8
1
100
AcDbVertex
100
AcDb2dVertex
62
5
10
263.175000
20
151.875000
0
VERTEX
5
5a3
100
AcDbEntity
8
1
100
AcDbVertex
100
AcDb2dVertex
62
5
10
264.112500
20
151.875000
0
VERTEX
5
5a4
100
AcDbEntity
8
1
100
AcDbVertex
100
AcDb2dVertex
62
5
10
265.050000
20
151.562500
0
VERTEX
5
5a5
100
AcDbEntity
8
1
100
AcDbVertex
100
AcDb2dVertex
62
5
10
269.425000
20
148.750000
0
VERTEX
5
5a6
100
AcDbEntity
8
1
100
AcDbVertex
100
AcDb2dVertex
62
5
10
269.425000
20
151.875000
0
VERTEX
5
5a7
100
AcDbEntity
8
1
100
AcDbVertex
100
AcDb2dVertex
62
5
10
268.487500
20
151.875000
0
SEQEND
5
5a8
100
AcDbEntity
8
1
0
POLYLINE
5
5a9
100
AcDbEntity
8
1
6
CONTINUOUS
62
5
100
AcDb2dPolyline
66
1
10
0.0
20
0.0
30
0.0
70
0
0
VERTEX
5
5aa
100
AcDbEntity
8
1
100
AcDbVertex
100
AcDb2dVertex
62
5
10
226.841813
20
110.735500
0
VERTEX
5
5ab
100
AcDbEntity
8
1
100
AcDbVertex
100
AcDb2dVertex
62
5
10
226.841813
20
110.300500
0
VERTEX
5
5ac
100
AcDbEntity
8
1
100
AcDbVertex
100
AcDb2dVertex
62
5
10
226.743938
20
109.865500
0
VERTEX
5
5ad
100
AcDbEntity
8
1
100
AcDbVertex
100
AcDb2dVertex
62
5
10
226.743938
20
108.886750
0
VERTEX
5
5ae
100
AcDbEntity
8
1
100
AcDbVertex
100
AcDb2dVertex
62
5
10
226.841813
20
108.451750
0
SEQEND
5
5af
100
AcDbEntity
8
1
0
LINE
5
5b0
100
AcDbEntity
8
1
100
AcDbLine
6
CONTINUOUS
62
5
10
227.331188
20
110.083000
11
228.701438
21
110.083000
0
POLYLINE
5
5b1
100
AcDbEntity
8
1
6
CONTINUOUS
62
5
100
AcDb2dPolyline
66
1
10
0.0
20
0.0
30
0.0
70
0
0
VERTEX
5
5b2
100
AcDbEntity
8
1
100
AcDbVertex
100
AcDb2dVertex
62
5
10
228.212063
20
110.735500
0
VERTEX
5
5b3
100
AcDbEntity
8
1
100
AcDbVertex
100
AcDb2dVertex
62
5
10
228.212063
20
110.300500
0
VERTEX
5
5b4
100
AcDbEntity
8
1
100
AcDbVertex
100
AcDb2dVertex
62
5
10
228.212063
20
108.995500
0
VERTEX
5
5b5
100
AcDbEntity
8
1
100
AcDbVertex
100
AcDb2dVertex
62
5
10
228.114188
20
108.560500
0
VERTEX
5
5b6
100
AcDbEntity
8
1
100
AcDbVertex
100
AcDb2dVertex
62
5
10
227.918438
20
108.451750
0
VERTEX
5
5b7
100
AcDbEntity
8
1
100
AcDbVertex
100
AcDb2dVertex
62
5
10
227.624813
20
108.451750
0
VERTEX
5
5b8
100
AcDbEntity
8
1
100
AcDbVertex
100
AcDb2dVertex
62
5
10
227.429063
20
108.560500
0
VERTEX
5
5b9
100
AcDbEntity
8
1
100
AcDbVertex
100
AcDb2dVertex
62
5
10
227.429063
20
108.886750
0
VERTEX
5
5ba
100
AcDbEntity
8
1
100
AcDbVertex
100
AcDb2dVertex
62
5
10
227.722688
20
109.104250
0
VERTEX
5
5bb
100
AcDbEntity
8
1
100
AcDbVertex
100
AcDb2dVertex
62
5
10
228.016313
20
109.104250
0
VERTEX
5
5bc
100
AcDbEntity
8
1
100
AcDbVertex
100
AcDb2dVertex
62
5
10
228.212063
20
108.995500
0
VERTEX
5
5bd
100
AcDbEntity
8
1
100
AcDbVertex
100
AcDb2dVertex
62
5
10
228.407813
20
108.886750
0
VERTEX
5
5be
100
AcDbEntity
8
1
100
AcDbVertex
100
AcDb2dVertex
62
5
10
228.701438
20
108.669250
0
SEQEND
5
5bf
100
AcDbEntity
8
1
0
POLYLINE
5
5c0
100
AcDbEntity
8
1
6
CONTINUOUS
62
5
100
AcDb2dPolyline
66
1
10
0.0
20
0.0
30
0.0
70
0
0
VERTEX
5
5c1
100
AcDbEntity
8
1
100
AcDbVertex
100
AcDb2dVertex
62
5
10
223.905563
20
111.061750
0
VERTEX
5
5c2
100
AcDbEntity
8
1
100
AcDbVertex
100
AcDb2dVertex
62
5
10
223.709813
20
110.300500
0
VERTEX
5
5c3
100
AcDbEntity
8
1
100
AcDbVertex
100
AcDb2dVertex
62
5
10
223.514063
20
109.756750
0
VERTEX
5
5c4
100
AcDbEntity
8
1
100
AcDbVertex
100
AcDb2dVertex
62
5
10
223.220438
20
109.430500
0
SEQEND
5
5c5
100
AcDbEntity
8
1
0
POLYLINE
5
5c6
100
AcDbEntity
8
1
6
CONTINUOUS
62
5
100
AcDb2dPolyline
66
1
10
0.0
20
0.0
30
0.0
70
0
0
VERTEX
5
5c7
100
AcDbEntity
8
1
100
AcDbVertex
100
AcDb2dVertex
62
5
10
223.807688
20
110.518000
0
VERTEX
5
5c8
100
AcDbEntity
8
1
100
AcDbVertex
100
AcDb2dVertex
62
5
10
224.492813
20
110.518000
0
VERTEX
5
5c9
100
AcDbEntity
8
1
100
AcDbVertex
100
AcDb2dVertex
62
5
10
224.394938
20
109.756750
0
VERTEX
5
5ca
100
AcDbEntity
8
1
100
AcDbVertex
100
AcDb2dVertex
62
5
10
224.199188
20
109.213000
0
VERTEX
5
5cb
100
AcDbEntity
8
1
100
AcDbVertex
100
AcDb2dVertex
62
5
10
223.905563
20
108.669250
0
VERTEX
5
5cc
100
AcDbEntity
8
1
100
AcDbVertex
100
AcDb2dVertex
62
5
10
223.416188
20
108.016750
0
SEQEND
5
5cd
100
AcDbEntity
8
1
0
LINE
5
5ce
100
AcDbEntity
8
1
100
AcDbLine
6
CONTINUOUS
62
5
10
223.807688
20
109.756750
11
224.199188
21
109.213000
0
POLYLINE
5
5cf
100
AcDbEntity
8
1
6
CONTINUOUS
62
5
100
AcDb2dPolyline
66
1
10
0.0
20
0.0
30
0.0
70
0
0
VERTEX
5
5d0
100
AcDbEntity
8
1
100
AcDbVertex
100
AcDb2dVertex
62
5
10
224.786438
20
110.409250
0
VERTEX
5
5d1
100
AcDbEntity
8
1
100
AcDbVertex
100
AcDb2dVertex
62
5
10
225.080063
20
109.865500
0
VERTEX
5
5d2
100
AcDbEntity
8
1
100
AcDbVertex
100
AcDb2dVertex
62
5
10
225.471563
20
109.430500
0
VERTEX
5
5d3
100
AcDbEntity
8
1
100
AcDbVertex
100
AcDb2dVertex
62
5
10
225.960938
20
109.104250
0
SEQEND
5
5d4
100
AcDbEntity
8
1
0
LINE
5
5d5
100
AcDbEntity
8
1
100
AcDbLine
6
CONTINUOUS
62
5
10
225.177938
20
111.061750
11
225.177938
21
108.016750
0
LINE
5
5d6
100
AcDbEntity
8
1
100
AcDbLine
6
CONTINUOUS
62
5
10
217.935188
20
110.300500
11
219.011813
21
110.518000
0
LINE
5
5d7
100
AcDbEntity
8
1
100
AcDbLine
6
CONTINUOUS
62
5
10
217.935188
20
109.648000
11
219.305438
21
109.974250
0
POLYLINE
5
5d8
100
AcDbEntity
8
1
6
CONTINUOUS
62
5
100
AcDb2dPolyline
66
1
10
0.0
20
0.0
30
0.0
70
0
0
VERTEX
5
5d9
100
AcDbEntity
8
1
100
AcDbVertex
100
AcDb2dVertex
62
5
10
218.326688
20
110.844250
0
VERTEX
5
5da
100
AcDbEntity
8
1
100
AcDbVertex
100
AcDb2dVertex
62
5
10
219.207563
20
109.104250
0
VERTEX
5
5db
100
AcDbEntity
8
1
100
AcDbVertex
100
AcDb2dVertex
62
5
10
219.011813
20
109.104250
0
VERTEX
5
5dc
100
AcDbEntity
8
1
100
AcDbVertex
100
AcDb2dVertex
62
5
10
218.424563
20
109.321750
0
VERTEX
5
5dd
100
AcDbEntity
8
1
100
AcDbVertex
100
AcDb2dVertex
62
5
10
218.130938
20
109.321750
0
VERTEX
5
5de
100
AcDbEntity
8
1
100
AcDbVertex
100
AcDb2dVertex
62
5
10
217.739438
20
108.995500
0
VERTEX
5
5df
100
AcDbEntity
8
1
100
AcDbVertex
100
AcDb2dVertex
62
5
10
217.739438
20
108.778000
0
VERTEX
5
5e0
100
AcDbEntity
8
1
100
AcDbVertex
100
AcDb2dVertex
62
5
10
217.935188
20
108.560500
0
VERTEX
5
5e1
100
AcDbEntity
8
1
100
AcDbVertex
100
AcDb2dVertex
62
5
10
218.130938
20
108.451750
0
VERTEX
5
5e2
100
AcDbEntity
8
1
100
AcDbVertex
100
AcDb2dVertex
62
5
10
218.718188
20
108.451750
0
SEQEND
5
5e3
100
AcDbEntity
8
1
0
LINE
5
5e4
100
AcDbEntity
8
1
100
AcDbLine
6
CONTINUOUS
62
5
10
214.901063
20
110.735500
11
215.292563
21
109.865500
0
POLYLINE
5
5e5
100
AcDbEntity
8
1
6
CONTINUOUS
62
5
100
AcDb2dPolyline
66
1
10
0.0
20
0.0
30
0.0
70
0
0
VERTEX
5
5e6
100
AcDbEntity
8
1
100
AcDbVertex
100
AcDb2dVertex
62
5
10
216.173438
20
110.191750
0
VERTEX
5
5e7
100
AcDbEntity
8
1
100
AcDbVertex
100
AcDb2dVertex
62
5
10
215.684063
20
110.083000
0
VERTEX
5
5e8
100
AcDbEntity
8
1
100
AcDbVertex
100
AcDb2dVertex
62
5
10
215.292563
20
109.865500
0
VERTEX
5
5e9
100
AcDbEntity
8
1
100
AcDbVertex
100
AcDb2dVertex
62
5
10
214.901063
20
109.539250
0
VERTEX
5
5ea
100
AcDbEntity
8
1
100
AcDbVertex
100
AcDb2dVertex
62
5
10
214.705313
20
109.213000
0
VERTEX
5
5eb
100
AcDbEntity
8
1
100
AcDbVertex
100
AcDb2dVertex
62
5
10
214.705313
20
108.778000
0
VERTEX
5
5ec
100
AcDbEntity
8
1
100
AcDbVertex
100
AcDb2dVertex
62
5
10
214.998938
20
108.560500
0
VERTEX
5
5ed
100
AcDbEntity
8
1
100
AcDbVertex
100
AcDb2dVertex
62
5
10
215.390438
20
108.451750
0
VERTEX
5
5ee
100
AcDbEntity
8
1
100
AcDbVertex
100
AcDb2dVertex
62
5
10
216.075563
20
108.451750
0
SEQEND
5
5ef
100
AcDbEntity
8
1
0
POLYLINE
5
5f0
100
AcDbEntity
8
1
6
CONTINUOUS
62
5
100
AcDb2dPolyline
66
1
10
0.0
20
0.0
30
0.0
70
0
0
VERTEX
5
5f1
100
AcDbEntity
8
1
100
AcDbVertex
100
AcDb2dVertex
62
5
10
212.552063
20
110.626750
0
VERTEX
5
5f2
100
AcDbEntity
8
1
100
AcDbVertex
100
AcDb2dVertex
62
5
10
212.552063
20
109.974250
0
VERTEX
5
5f3
100
AcDbEntity
8
1
100
AcDbVertex
100
AcDb2dVertex
62
5
10
212.454188
20
109.648000
0
VERTEX
5
5f4
100
AcDbEntity
8
1
100
AcDbVertex
100
AcDb2dVertex
62
5
10
212.258438
20
109.213000
0
VERTEX
5
5f5
100
AcDbEntity
8
1
100
AcDbVertex
100
AcDb2dVertex
62
5
10
211.866938
20
108.669250
0
VERTEX
5
5f6
100
AcDbEntity
8
1
100
AcDbVertex
100
AcDb2dVertex
62
5
10
211.573313
20
108.886750
0
VERTEX
5
5f7
100
AcDbEntity
8
1
100
AcDbVertex
100
AcDb2dVertex
62
5
10
211.377563
20
109.321750
0
VERTEX
5
5f8
100
AcDbEntity
8
1
100
AcDbVertex
100
AcDb2dVertex
62
5
10
211.377563
20
109.648000
0
VERTEX
5
5f9
100
AcDbEntity
8
1
100
AcDbVertex
100
AcDb2dVertex
62
5
10
211.671188
20
110.083000
0
VERTEX
5
5fa
100
AcDbEntity
8
1
100
AcDbVertex
100
AcDb2dVertex
62
5
10
211.964813
20
110.409250
0
VERTEX
5
5fb
100
AcDbEntity
8
1
100
AcDbVertex
100
AcDb2dVertex
62
5
10
212.356313
20
110.626750
0
VERTEX
5
5fc
100
AcDbEntity
8
1
100
AcDbVertex
100
AcDb2dVertex
62
5
10
212.943563
20
110.626750
0
VERTEX
5
5fd
100
AcDbEntity
8
1
100
AcDbVertex
100
AcDb2dVertex
62
5
10
213.237188
20
110.409250
0
VERTEX
5
5fe
100
AcDbEntity
8
1
100
AcDbVertex
100
AcDb2dVertex
62
5
10
213.432938
20
110.191750
0
VERTEX
5
5ff
100
AcDbEntity
8
1
100
AcDbVertex
100
AcDb2dVertex
62
5
10
213.628688
20
109.756750
0
VERTEX
5
600
100
AcDbEntity
8
1
100
AcDbVertex
100
AcDb2dVertex
62
5
10
213.628688
20
109.430500
0
VERTEX
5
601
100
AcDbEntity
8
1
100
AcDbVertex
100
AcDb2dVertex
62
5
10
213.432938
20
108.995500
0
VERTEX
5
602
100
AcDbEntity
8
1
100
AcDbVertex
100
AcDb2dVertex
62
5
10
213.237188
20
108.778000
0
VERTEX
5
603
100
AcDbEntity
8
1
100
AcDbVertex
100
AcDb2dVertex
62
5
10
212.943563
20
108.560500
0
SEQEND
5
604
100
AcDbEntity
8
1
0
LINE
5
605
100
AcDbEntity
8
1
100
AcDbLine
6
CONTINUOUS
62
5
10
220.675688
20
110.953000
11
220.675688
21
108.669250
0
POLYLINE
5
606
100
AcDbEntity
8
1
6
CONTINUOUS
62
5
100
AcDb2dPolyline
66
1
10
0.0
20
0.0
30
0.0
70
0
0
VERTEX
5
607
100
AcDbEntity
8
1
100
AcDbVertex
100
AcDb2dVertex
62
5
10
220.186313
20
108.451750
0
VERTEX
5
608
100
AcDbEntity
8
1
100
AcDbVertex
100
AcDb2dVertex
62
5
10
221.067188
20
108.886750
0
VERTEX
5
609
100
AcDbEntity
8
1
100
AcDbVertex
100
AcDb2dVertex
62
5
10
221.850188
20
109.539250
0
SEQEND
5
60a
100
AcDbEntity
8
1
0
LINE
5
60b
100
AcDbEntity
8
1
100
AcDbLine
6
CONTINUOUS
62
5
10
221.360813
20
110.844250
11
221.654438
21
110.409250
0
POLYLINE
5
60c
100
AcDbEntity
8
1
6
CONTINUOUS
62
5
100
AcDb2dPolyline
66
1
10
0.0
20
0.0
30
0.0
70
0
0
VERTEX
5
60d
100
AcDbEntity
8
1
100
AcDbVertex
100
AcDb2dVertex
62
5
10
222.633188
20
110.953000
0
VERTEX
5
60e
100
AcDbEntity
8
1
100
AcDbVertex
100
AcDb2dVertex
62
5
10
222.633188
20
110.083000
0
VERTEX
5
60f
100
AcDbEntity
8
1
100
AcDbVertex
100
AcDb2dVertex
62
5
10
222.535313
20
109.539250
0
VERTEX
5
610
100
AcDbEntity
8
1
100
AcDbVertex
100
AcDb2dVertex
62
5
10
222.339563
20
108.995500
0
VERTEX
5
611
100
AcDbEntity
8
1
100
AcDbVertex
100
AcDb2dVertex
62
5
10
221.948063
20
108.560500
0
VERTEX
5
612
100
AcDbEntity
8
1
100
AcDbVertex
100
AcDb2dVertex
62
5
10
221.556563
20
108.343000
0
VERTEX
5
613
100
AcDbEntity
8
1
100
AcDbVertex
100
AcDb2dVertex
62
5
10
221.067188
20
108.125500
0
SEQEND
5
614
100
AcDbEntity
8
1
0
LINE
5
615
100
AcDbEntity
8
1
100
AcDbLine
6
CONTINUOUS
62
5
10
222.339563
20
108.995500
11
222.828938
21
108.343000
0
POLYLINE
5
616
100
AcDbEntity
8
1
6
CONTINUOUS
62
5
100
AcDb2dPolyline
66
1
10
0.0
20
0.0
30
0.0
70
1
0
VERTEX
5
617
100
AcDbEntity
8
1
100
AcDbVertex
100
AcDb2dVertex
62
5
10
226.450313
20
104.863000
0
VERTEX
5
618
100
AcDbEntity
8
1
100
AcDbVertex
100
AcDb2dVertex
62
5
10
226.743938
20
105.189250
0
VERTEX
5
619
100
AcDbEntity
8
1
100
AcDbVertex
100
AcDb2dVertex
62
5
10
226.939688
20
105.189250
0
VERTEX
5
61a
100
AcDbEntity
8
1
100
AcDbVertex
100
AcDb2dVertex
62
5
10
227.233313
20
104.863000
0
VERTEX
5
61b
100
AcDbEntity
8
1
100
AcDbVertex
100
AcDb2dVertex
62
5
10
227.233313
20
104.645500
0
VERTEX
5
61c
100
AcDbEntity
8
1
100
AcDbVertex
100
AcDb2dVertex
62
5
10
226.939688
20
104.319250
0
VERTEX
5
61d
100
AcDbEntity
8
1
100
AcDbVertex
100
AcDb2dVertex
62
5
10
226.743938
20
104.319250
0
VERTEX
5
61e
100
AcDbEntity
8
1
100
AcDbVertex
100
AcDb2dVertex
62
5
10
226.450313
20
104.645500
0
VERTEX
5
61f
100
AcDbEntity
8
1
100
AcDbVertex
100
AcDb2dVertex
62
5
10
226.450313
20
104.863000
0
SEQEND
5
620
100
AcDbEntity
8
1
0
POLYLINE
5
621
100
AcDbEntity
8
1
6
CONTINUOUS
62
5
100
AcDb2dPolyline
66
1
10
0.0
20
0.0
30
0.0
70
0
0
VERTEX
5
622
100
AcDbEntity
8
1
100
AcDbVertex
100
AcDb2dVertex
62
5
10
220.871438
20
106.059250
0
VERTEX
5
623
100
AcDbEntity
8
1
100
AcDbVertex
100
AcDb2dVertex
62
5
10
222.045938
20
106.276750
0
VERTEX
5
624
100
AcDbEntity
8
1
100
AcDbVertex
100
AcDb2dVertex
62
5
10
222.339563
20
106.385500
0
SEQEND
5
625
100
AcDbEntity
8
1
0
POLYLINE
5
626
100
AcDbEntity
8
1
6
CONTINUOUS
62
5
100
AcDb2dPolyline
66
1
10
0.0
20
0.0
30
0.0
70
0
0
VERTEX
5
627
100
AcDbEntity
8
1
100
AcDbVertex
100
AcDb2dVertex
62
5
10
221.458688
20
106.929250
0
VERTEX
5
628
100
AcDbEntity
8
1
100
AcDbVertex
100
AcDb2dVertex
62
5
10
221.850188
20
106.059250
0
VERTEX
5
629
100
AcDbEntity
8
1
100
AcDbVertex
100
AcDb2dVertex
62
5
10
222.339563
20
105.298000
0
VERTEX
5
62a
100
AcDbEntity
8
1
100
AcDbVertex
100
AcDb2dVertex
62
5
10
221.654438
20
105.515500
0
VERTEX
5
62b
100
AcDbEntity
8
1
100
AcDbVertex
100
AcDb2dVertex
62
5
10
221.165063
20
105.515500
0
VERTEX
5
62c
100
AcDbEntity
8
1
100
AcDbVertex
100
AcDb2dVertex
62
5
10
220.871438
20
105.298000
0
VERTEX
5
62d
100
AcDbEntity
8
1
100
AcDbVertex
100
AcDb2dVertex
62
5
10
220.773563
20
105.080500
0
VERTEX
5
62e
100
AcDbEntity
8
1
100
AcDbVertex
100
AcDb2dVertex
62
5
10
220.773563
20
104.971750
0
VERTEX
5
62f
100
AcDbEntity
8
1
100
AcDbVertex
100
AcDb2dVertex
62
5
10
220.969313
20
104.754250
0
VERTEX
5
630
100
AcDbEntity
8
1
100
AcDbVertex
100
AcDb2dVertex
62
5
10
221.262938
20
104.645500
0
VERTEX
5
631
100
AcDbEntity
8
1
100
AcDbVertex
100
AcDb2dVertex
62
5
10
221.948063
20
104.536750
0
SEQEND
5
632
100
AcDbEntity
8
1
0
LINE
5
633
100
AcDbEntity
8
1
100
AcDbLine
6
CONTINUOUS
62
5
10
217.543688
20
106.168000
11
218.718188
21
106.276750
0
POLYLINE
5
634
100
AcDbEntity
8
1
6
CONTINUOUS
62
5
100
AcDb2dPolyline
66
1
10
0.0
20
0.0
30
0.0
70
0
0
VERTEX
5
635
100
AcDbEntity
8
1
100
AcDbVertex
100
AcDb2dVertex
62
5
10
218.228813
20
106.820500
0
VERTEX
5
636
100
AcDbEntity
8
1
100
AcDbVertex
100
AcDb2dVertex
62
5
10
218.228813
20
106.494250
0
VERTEX
5
637
100
AcDbEntity
8
1
100
AcDbVertex
100
AcDb2dVertex
62
5
10
217.837313
20
105.189250
0
VERTEX
5
638
100
AcDbEntity
8
1
100
AcDbVertex
100
AcDb2dVertex
62
5
10
217.445813
20
104.428000
0
SEQEND
5
639
100
AcDbEntity
8
1
0
POLYLINE
5
63a
100
AcDbEntity
8
1
6
CONTINUOUS
62
5
100
AcDb2dPolyline
66
1
10
0.0
20
0.0
30
0.0
70
0
0
VERTEX
5
63b
100
AcDbEntity
8
1
100
AcDbVertex
100
AcDb2dVertex
62
5
10
218.718188
20
105.841750
0
VERTEX
5
63c
100
AcDbEntity
8
1
100
AcDbVertex
100
AcDb2dVertex
62
5
10
219.207563
20
105.841750
0
VERTEX
5
63d
100
AcDbEntity
8
1
100
AcDbVertex
100
AcDb2dVertex
62
5
10
219.403313
20
105.733000
0
SEQEND
5
63e
100
AcDbEntity
8
1
0
POLYLINE
5
63f
100
AcDbEntity
8
1
6
CONTINUOUS
62
5
100
AcDb2dPolyline
66
1
10
0.0
20
0.0
30
0.0
70
0
0
VERTEX
5
640
100
AcDbEntity
8
1
100
AcDbVertex
100
AcDb2dVertex
62
5
10
218.424563
20
104.863000
0
VERTEX
5
641
100
AcDbEntity
8
1
100
AcDbVertex
100
AcDb2dVertex
62
5
10
218.522438
20
104.754250
0
VERTEX
5
642
100
AcDbEntity
8
1
100
AcDbVertex
100
AcDb2dVertex
62
5
10
218.913938
20
104.645500
0
VERTEX
5
643
100
AcDbEntity
8
1
100
AcDbVertex
100
AcDb2dVertex
62
5
10
219.501188
20
104.645500
0
SEQEND
5
644
100
AcDbEntity
8
1
0
LINE
5
645
100
AcDbEntity
8
1
100
AcDbLine
6
CONTINUOUS
62
5
10
219.305438
20
106.603000
11
219.501188
21
106.385500
0
LINE
5
646
100
AcDbEntity
8
1
100
AcDbLine
6
CONTINUOUS
62
5
10
219.599063
20
106.820500
11
219.794813
21
106.603000
0
POLYLINE
5
647
100
AcDbEntity
8
1
6
CONTINUOUS
62
5
100
AcDb2dPolyline
66
1
10
0.0
20
0.0
30
0.0
70
0
0
VERTEX
5
648
100
AcDbEntity
8
1
100
AcDbVertex
100
AcDb2dVertex
62
5
10
215.684063
20
107.038000
0
VERTEX
5
649
100
AcDbEntity
8
1
100
AcDbVertex
100
AcDb2dVertex
62
5
10
214.901063
20
105.733000
0
VERTEX
5
64a
100
AcDbEntity
8
1
100
AcDbVertex
100
AcDb2dVertex
62
5
10
215.684063
20
104.536750
0
SEQEND
5
64b
100
AcDbEntity
8
1
0
LINE
5
64c
100
AcDbEntity
8
1
100
AcDbLine
6
CONTINUOUS
62
5
10
211.377563
20
106.276750
11
213.237188
21
106.711750
0
POLYLINE
5
64d
100
AcDbEntity
8
1
6
CONTINUOUS
62
5
100
AcDb2dPolyline
66
1
10
0.0
20
0.0
30
0.0
70
0
0
VERTEX
5
64e
100
AcDbEntity
8
1
100
AcDbVertex
100
AcDb2dVertex
62
5
10
212.747813
20
106.603000
0
VERTEX
5
64f
100
AcDbEntity
8
1
100
AcDbVertex
100
AcDb2dVertex
62
5
10
212.454188
20
106.168000
0
VERTEX
5
650
100
AcDbEntity
8
1
100
AcDbVertex
100
AcDb2dVertex
62
5
10
212.258438
20
105.624250
0
VERTEX
5
651
100
AcDbEntity
8
1
100
AcDbVertex
100
AcDb2dVertex
62
5
10
212.258438
20
105.189250
0
VERTEX
5
652
100
AcDbEntity
8
1
100
AcDbVertex
100
AcDb2dVertex
62
5
10
212.454188
20
104.863000
0
VERTEX
5
653
100
AcDbEntity
8
1
100
AcDbVertex
100
AcDb2dVertex
62
5
10
212.747813
20
104.645500
0
VERTEX
5
654
100
AcDbEntity
8
1
100
AcDbVertex
100
AcDb2dVertex
62
5
10
213.237188
20
104.536750
0
SEQEND
5
655
100
AcDbEntity
8
1
0
LINE
5
656
100
AcDbEntity
8
1
100
AcDbLine
6
CONTINUOUS
62
5
10
213.335063
20
106.276750
11
213.530813
21
106.059250
0
LINE
5
657
100
AcDbEntity
8
1
100
AcDbLine
6
CONTINUOUS
62
5
10
213.628688
20
106.494250
11
213.824438
21
106.276750
0
POLYLINE
5
658
100
AcDbEntity
8
1
6
CONTINUOUS
62
5
100
AcDb2dPolyline
66
1
10
0.0
20
0.0
30
0.0
70
0
0
VERTEX
5
659
100
AcDbEntity
8
1
100
AcDbVertex
100
AcDb2dVertex
62
5
10
223.611938
20
106.385500
0
VERTEX
5
65a
100
AcDbEntity
8
1
100
AcDbVertex
100
AcDb2dVertex
62
5
10
223.611938
20
106.059250
0
VERTEX
5
65b
100
AcDbEntity
8
1
100
AcDbVertex
100
AcDb2dVertex
62
5
10
223.807688
20
105.298000
0
VERTEX
5
65c
100
AcDbEntity
8
1
100
AcDbVertex
100
AcDb2dVertex
62
5
10
223.905563
20
104.971750
0
VERTEX
5
65d
100
AcDbEntity
8
1
100
AcDbVertex
100
AcDb2dVertex
62
5
10
224.101313
20
104.754250
0
VERTEX
5
65e
100
AcDbEntity
8
1
100
AcDbVertex
100
AcDb2dVertex
62
5
10
224.297063
20
104.754250
0
VERTEX
5
65f
100
AcDbEntity
8
1
100
AcDbVertex
100
AcDb2dVertex
62
5
10
224.590688
20
105.080500
0
SEQEND
5
660
100
AcDbEntity
8
1
0
POLYLINE
5
661
100
AcDbEntity
8
1
6
CONTINUOUS
62
5
100
AcDb2dPolyline
66
1
10
0.0
20
0.0
30
0.0
70
0
0
VERTEX
5
662
100
AcDbEntity
8
1
100
AcDbVertex
100
AcDb2dVertex
62
5
10
225.275813
20
106.276750
0
VERTEX
5
663
100
AcDbEntity
8
1
100
AcDbVertex
100
AcDb2dVertex
62
5
10
225.569438
20
105.733000
0
VERTEX
5
664
100
AcDbEntity
8
1
100
AcDbVertex
100
AcDb2dVertex
62
5
10
225.667313
20
105.298000
0
SEQEND
5
665
100
AcDbEntity
8
1
0
LINE
5
666
100
AcDbEntity
8
1
100
AcDbLine
6
CONTINUOUS
62
5
10
205.602938
20
110.409250
11
205.994438
21
109.974250
0
POLYLINE
5
667
100
AcDbEntity
8
1
6
CONTINUOUS
62
5
100
AcDb2dPolyline
66
1
10
0.0
20
0.0
30
0.0
70
0
0
VERTEX
5
668
100
AcDbEntity
8
1
100
AcDbVertex
100
AcDb2dVertex
62
5
10
205.505063
20
108.669250
0
VERTEX
5
669
100
AcDbEntity
8
1
100
AcDbVertex
100
AcDb2dVertex
62
5
10
206.190188
20
108.995500
0
VERTEX
5
66a
100
AcDbEntity
8
1
100
AcDbVertex
100
AcDb2dVertex
62
5
10
206.777438
20
109.430500
0
VERTEX
5
66b
100
AcDbEntity
8
1
100
AcDbVertex
100
AcDb2dVertex
62
5
10
207.364688
20
109.974250
0
SEQEND
5
66c
100
AcDbEntity
8
1
0
LINE
5
66d
100
AcDbEntity
8
1
100
AcDbLine
6
CONTINUOUS
62
5
10
202.275188
20
109.974250
11
204.624188
21
109.974250
0
POLYLINE
5
66e
100
AcDbEntity
8
1
6
CONTINUOUS
62
5
100
AcDb2dPolyline
66
1
10
0.0
20
0.0
30
0.0
70
0
0
VERTEX
5
66f
100
AcDbEntity
8
1
100
AcDbVertex
100
AcDb2dVertex
62
5
10
203.547563
20
110.735500
0
VERTEX
5
670
100
AcDbEntity
8
1
100
AcDbVertex
100
AcDb2dVertex
62
5
10
203.547563
20
109.648000
0
VERTEX
5
671
100
AcDbEntity
8
1
100
AcDbVertex
100
AcDb2dVertex
62
5
10
203.351813
20
109.104250
0
VERTEX
5
672
100
AcDbEntity
8
1
100
AcDbVertex
100
AcDb2dVertex
62
5
10
203.058188
20
108.669250
0
VERTEX
5
673
100
AcDbEntity
8
1
100
AcDbVertex
100
AcDb2dVertex
62
5
10
202.764563
20
108.451750
0
SEQEND
5
674
100
AcDbEntity
8
1
0
LINE
5
675
100
AcDbEntity
8
1
100
AcDbLine
6
CONTINUOUS
62
5
10
205.505063
20
106.385500
11
206.581688
21
106.494250
0
POLYLINE
5
676
100
AcDbEntity
8
1
6
CONTINUOUS
62
5
100
AcDb2dPolyline
66
1
10
0.0
20
0.0
30
0.0
70
0
0
VERTEX
5
677
100
AcDbEntity
8
1
100
AcDbVertex
100
AcDb2dVertex
62
5
10
206.092313
20
107.038000
0
VERTEX
5
678
100
AcDbEntity
8
1
100
AcDbVertex
100
AcDb2dVertex
62
5
10
206.092313
20
106.494250
0
VERTEX
5
679
100
AcDbEntity
8
1
100
AcDbVertex
100
AcDb2dVertex
62
5
10
205.994438
20
106.059250
0
VERTEX
5
67a
100
AcDbEntity
8
1
100
AcDbVertex
100
AcDb2dVertex
62
5
10
205.505063
20
104.971750
0
SEQEND
5
67b
100
AcDbEntity
8
1
0
POLYLINE
5
67c
100
AcDbEntity
8
1
6
CONTINUOUS
62
5
100
AcDb2dPolyline
66
1
10
0.0
20
0.0
30
0.0
70
0
0
VERTEX
5
67d
100
AcDbEntity
8
1
100
AcDbVertex
100
AcDb2dVertex
62
5
10
206.777438
20
106.059250
0
VERTEX
5
67e
100
AcDbEntity
8
1
100
AcDbVertex
100
AcDb2dVertex
62
5
10
206.777438
20
104.754250
0
VERTEX
5
67f
100
AcDbEntity
8
1
100
AcDbVertex
100
AcDb2dVertex
62
5
10
206.581688
20
104.536750
0
VERTEX
5
680
100
AcDbEntity
8
1
100
AcDbVertex
100
AcDb2dVertex
62
5
10
206.288063
20
104.536750
0
VERTEX
5
681
100
AcDbEntity
8
1
100
AcDbVertex
100
AcDb2dVertex
62
5
10
206.092313
20
104.754250
0
VERTEX
5
682
100
AcDbEntity
8
1
100
AcDbVertex
100
AcDb2dVertex
62
5
10
206.092313
20
104.971750
0
VERTEX
5
683
100
AcDbEntity
8
1
100
AcDbVertex
100
AcDb2dVertex
62
5
10
206.190188
20
105.080500
0
VERTEX
5
684
100
AcDbEntity
8
1
100
AcDbVertex
100
AcDb2dVertex
62
5
10
206.385938
20
105.189250
0
VERTEX
5
685
100
AcDbEntity
8
1
100
AcDbVertex
100
AcDb2dVertex
62
5
10
206.875313
20
105.189250
0
VERTEX
5
686
100
AcDbEntity
8
1
100
AcDbVertex
100
AcDb2dVertex
62
5
10
207.364688
20
104.863000
0
SEQEND
5
687
100
AcDbEntity
8
1
0
LINE
5
688
100
AcDbEntity
8
1
100
AcDbLine
6
CONTINUOUS
62
5
10
207.071063
20
106.494250
11
207.462563
21
106.059250
0
LINE
5
689
100
AcDbEntity
8
1
100
AcDbLine
6
CONTINUOUS
62
5
10
202.177313
20
105.950500
11
204.526313
21
106.168000
0
POLYLINE
5
68a
100
AcDbEntity
8
1
6
CONTINUOUS
62
5
100
AcDb2dPolyline
66
1
10
0.0
20
0.0
30
0.0
70
0
0
VERTEX
5
68b
100
AcDbEntity
8
1
100
AcDbVertex
100
AcDb2dVertex
62
5
10
202.960313
20
106.603000
0
VERTEX
5
68c
100
AcDbEntity
8
1
100
AcDbVertex
100
AcDb2dVertex
62
5
10
202.960313
20
105.189250
0
VERTEX
5
68d
100
AcDbEntity
8
1
100
AcDbVertex
100
AcDb2dVertex
62
5
10
203.058188
20
104.754250
0
VERTEX
5
68e
100
AcDbEntity
8
1
100
AcDbVertex
100
AcDb2dVertex
62
5
10
203.351813
20
104.645500
0
VERTEX
5
68f
100
AcDbEntity
8
1
100
AcDbVertex
100
AcDb2dVertex
62
5
10
204.134813
20
104.645500
0
SEQEND
5
690
100
AcDbEntity
8
1
0
POLYLINE
5
691
100
AcDbEntity
8
1
6
CONTINUOUS
62
5
100
AcDb2dPolyline
66
1
10
0.0
20
0.0
30
0.0
70
0
0
VERTEX
5
692
100
AcDbEntity
8
1
100
AcDbVertex
100
AcDb2dVertex
62
5
10
204.036938
20
106.820500
0
VERTEX
5
693
100
AcDbEntity
8
1
100
AcDbVertex
100
AcDb2dVertex
62
5
10
203.939063
20
105.733000
0
VERTEX
5
694
100
AcDbEntity
8
1
100
AcDbVertex
100
AcDb2dVertex
62
5
10
203.841188
20
105.406750
0
VERTEX
5
695
100
AcDbEntity
8
1
100
AcDbVertex
100
AcDb2dVertex
62
5
10
203.645438
20
105.298000
0
SEQEND
5
696
100
AcDbEntity
8
1
0
LINE
5
697
100
AcDbEntity
8
1
100
AcDbLine
6
CONTINUOUS
62
5
10
196.500563
20
110.409250
11
196.892063
21
109.974250
0
POLYLINE
5
698
100
AcDbEntity
8
1
6
CONTINUOUS
62
5
100
AcDb2dPolyline
66
1
10
0.0
20
0.0
30
0.0
70
0
0
VERTEX
5
699
100
AcDbEntity
8
1
100
AcDbVertex
100
AcDb2dVertex
62
5
10
196.402688
20
108.669250
0
VERTEX
5
69a
100
AcDbEntity
8
1
100
AcDbVertex
100
AcDb2dVertex
62
5
10
197.087813
20
108.995500
0
VERTEX
5
69b
100
AcDbEntity
8
1
100
AcDbVertex
100
AcDb2dVertex
62
5
10
197.675063
20
109.430500
0
VERTEX
5
69c
100
AcDbEntity
8
1
100
AcDbVertex
100
AcDb2dVertex
62
5
10
198.262313
20
109.974250
0
SEQEND
5
69d
100
AcDbEntity
8
1
0
POLYLINE
5
69e
100
AcDbEntity
8
1
6
CONTINUOUS
62
5
100
AcDb2dPolyline
66
1
10
0.0
20
0.0
30
0.0
70
0
0
VERTEX
5
69f
100
AcDbEntity
8
1
100
AcDbVertex
100
AcDb2dVertex
62
5
10
194.934563
20
110.626750
0
VERTEX
5
6a0
100
AcDbEntity
8
1
100
AcDbVertex
100
AcDb2dVertex
62
5
10
194.640938
20
109.865500
0
VERTEX
5
6a1
100
AcDbEntity
8
1
100
AcDbVertex
100
AcDb2dVertex
62
5
10
194.347313
20
109.430500
0
VERTEX
5
6a2
100
AcDbEntity
8
1
100
AcDbVertex
100
AcDb2dVertex
62
5
10
193.857938
20
108.886750
0
VERTEX
5
6a3
100
AcDbEntity
8
1
100
AcDbVertex
100
AcDb2dVertex
62
5
10
193.368563
20
108.560500
0
SEQEND
5
6a4
100
AcDbEntity
8
1
0
POLYLINE
5
6a5
100
AcDbEntity
8
1
6
CONTINUOUS
62
5
100
AcDb2dPolyline
66
1
10
0.0
20
0.0
30
0.0
70
0
0
VERTEX
5
6a6
100
AcDbEntity
8
1
100
AcDbVertex
100
AcDb2dVertex
62
5
10
193.955813
20
109.974250
0
VERTEX
5
6a7
100
AcDbEntity
8
1
100
AcDbVertex
100
AcDb2dVertex
62
5
10
194.543063
20
109.539250
0
VERTEX
5
6a8
100
AcDbEntity
8
1
100
AcDbVertex
100
AcDb2dVertex
62
5
10
194.934563
20
109.213000
0
SEQEND
5
6a9
100
AcDbEntity
8
1
0
LINE
5
6aa
100
AcDbEntity
8
1
100
AcDbLine
6
CONTINUOUS
62
5
10
198.360188
20
105.950500
11
197.381438
21
105.950500
0
LINE
5
6ab
100
AcDbEntity
8
1
100
AcDbLine
6
CONTINUOUS
62
5
10
197.381438
20
107.146750
11
197.381438
21
104.428000
0
LINE
5
6ac
100
AcDbEntity
8
1
100
AcDbLine
6
CONTINUOUS
62
5
10
196.598438
20
106.385500
11
196.598438
21
104.428000
0
LINE
5
6ad
100
AcDbEntity
8
1
100
AcDbLine
6
CONTINUOUS
62
5
10
195.913313
20
104.428000
11
198.751688
21
104.428000
0
POLYLINE
5
6ae
100
AcDbEntity
8
1
6
CONTINUOUS
62
5
100
AcDb2dPolyline
66
1
10
0.0
20
0.0
30
0.0
70
0
0
VERTEX
5
6af
100
AcDbEntity
8
1
100
AcDbVertex
100
AcDb2dVertex
62
5
10
193.564313
20
107.146750
0
VERTEX
5
6b0
100
AcDbEntity
8
1
100
AcDbVertex
100
AcDb2dVertex
62
5
10
193.270688
20
106.168000
0
VERTEX
5
6b1
100
AcDbEntity
8
1
100
AcDbVertex
100
AcDb2dVertex
62
5
10
192.879188
20
105.406750
0
SEQEND
5
6b2
100
AcDbEntity
8
1
0
LINE
5
6b3
100
AcDbEntity
8
1
100
AcDbLine
6
CONTINUOUS
62
5
10
193.270688
20
106.168000
11
193.270688
21
104.101750
0
LINE
5
6b4
100
AcDbEntity
8
1
100
AcDbLine
6
CONTINUOUS
62
5
10
194.640938
20
107.255500
11
194.640938
21
106.820500
0
LINE
5
6b5
100
AcDbEntity
8
1
100
AcDbLine
6
CONTINUOUS
62
5
10
193.662188
20
106.820500
11
195.717563
21
106.820500
0
POLYLINE
5
6b6
100
AcDbEntity
8
1
6
CONTINUOUS
62
5
100
AcDb2dPolyline
66
1
10
0.0
20
0.0
30
0.0
70
1
0
VERTEX
5
6b7
100
AcDbEntity
8
1
100
AcDbVertex
100
AcDb2dVertex
62
5
10
193.955813
20
106.494250
0
VERTEX
5
6b8
100
AcDbEntity
8
1
100
AcDbVertex
100
AcDb2dVertex
62
5
10
193.955813
20
106.059250
0
VERTEX
5
6b9
100
AcDbEntity
8
1
100
AcDbVertex
100
AcDb2dVertex
62
5
10
195.326063
20
106.059250
0
VERTEX
5
6ba
100
AcDbEntity
8
1
100
AcDbVertex
100
AcDb2dVertex
62
5
10
195.326063
20
106.494250
0
VERTEX
5
6bb
100
AcDbEntity
8
1
100
AcDbVertex
100
AcDb2dVertex
62
5
10
193.955813
20
106.494250
0
SEQEND
5
6bc
100
AcDbEntity
8
1
0
POLYLINE
5
6bd
100
AcDbEntity
8
1
6
CONTINUOUS
62
5
100
AcDb2dPolyline
66
1
10
0.0
20
0.0
30
0.0
70
0
0
VERTEX
5
6be
100
AcDbEntity
8
1
100
AcDbVertex
100
AcDb2dVertex
62
5
10
193.662188
20
105.080500
0
VERTEX
5
6bf
100
AcDbEntity
8
1
100
AcDbVertex
100
AcDb2dVertex
62
5
10
193.662188
20
105.733000
0
VERTEX
5
6c0
100
AcDbEntity
8
1
100
AcDbVertex
100
AcDb2dVertex
62
5
10
195.619688
20
105.733000
0
VERTEX
5
6c1
100
AcDbEntity
8
1
100
AcDbVertex
100
AcDb2dVertex
62
5
10
195.619688
20
105.080500
0
SEQEND
5
6c2
100
AcDbEntity
8
1
0
LINE
5
6c3
100
AcDbEntity
8
1
100
AcDbLine
6
CONTINUOUS
62
5
10
193.955813
20
105.406750
11
195.326063
21
105.406750
0
POLYLINE
5
6c4
100
AcDbEntity
8
1
6
CONTINUOUS
62
5
100
AcDb2dPolyline
66
1
10
0.0
20
0.0
30
0.0
70
0
0
VERTEX
5
6c5
100
AcDbEntity
8
1
100
AcDbVertex
100
AcDb2dVertex
62
5
10
194.738813
20
105.406750
0
VERTEX
5
6c6
100
AcDbEntity
8
1
100
AcDbVertex
100
AcDb2dVertex
62
5
10
194.738813
20
104.428000
0
VERTEX
5
6c7
100
AcDbEntity
8
1
100
AcDbVertex
100
AcDb2dVertex
62
5
10
194.543063
20
104.210500
0
VERTEX
5
6c8
100
AcDbEntity
8
1
100
AcDbVertex
100
AcDb2dVertex
62
5
10
194.151563
20
104.210500
0
SEQEND
5
6c9
100
AcDbEntity
8
1
0
LINE
5
6ca
100
AcDbEntity
8
1
100
AcDbLine
6
CONTINUOUS
62
5
10
200.513438
20
109.539250
11
200.317688
21
108.995500
0
LINE
5
6cb
100
AcDbEntity
8
1
100
AcDbLine
6
CONTINUOUS
62
5
10
199.730438
20
110.626750
11
201.100688
21
110.626750
0
LINE
5
6cc
100
AcDbEntity
8
1
100
AcDbLine
6
CONTINUOUS
62
5
10
199.241063
20
109.865500
11
201.492188
21
109.865500
0
POLYLINE
5
6cd
100
AcDbEntity
8
1
6
CONTINUOUS
62
5
100
AcDb2dPolyline
66
1
10
0.0
20
0.0
30
0.0
70
0
0
VERTEX
5
6ce
100
AcDbEntity
8
1
100
AcDbVertex
100
AcDb2dVertex
62
5
10
200.317688
20
108.995500
0
VERTEX
5
6cf
100
AcDbEntity
8
1
100
AcDbVertex
100
AcDb2dVertex
62
5
10
200.024063
20
108.669250
0
VERTEX
5
6d0
100
AcDbEntity
8
1
100
AcDbVertex
100
AcDb2dVertex
62
5
10
199.632563
20
108.343000
0
SEQEND
5
6d1
100
AcDbEntity
8
1
0
LINE
5
6d2
100
AcDbEntity
8
1
100
AcDbLine
6
CONTINUOUS
62
5
10
200.513438
20
109.865500
11
200.513438
21
109.539250
0
POLYLINE
5
6d3
100
AcDbEntity
8
1
6
CONTINUOUS
62
5
100
AcDb2dPolyline
66
1
10
0.0
20
0.0
30
0.0
70
0
0
VERTEX
5
6d4
100
AcDbEntity
8
1
100
AcDbVertex
100
AcDb2dVertex
62
5
10
199.632563
20
106.059250
0
VERTEX
5
6d5
100
AcDbEntity
8
1
100
AcDbVertex
100
AcDb2dVertex
62
5
10
200.807063
20
106.276750
0
VERTEX
5
6d6
100
AcDbEntity
8
1
100
AcDbVertex
100
AcDb2dVertex
62
5
10
201.100688
20
106.385500
0
SEQEND
5
6d7
100
AcDbEntity
8
1
0
POLYLINE
5
6d8
100
AcDbEntity
8
1
6
CONTINUOUS
62
5
100
AcDb2dPolyline
66
1
10
0.0
20
0.0
30
0.0
70
0
0
VERTEX
5
6d9
100
AcDbEntity
8
1
100
AcDbVertex
100
AcDb2dVertex
62
5
10
200.219813
20
106.929250
0
VERTEX
5
6da
100
AcDbEntity
8
1
100
AcDbVertex
100
AcDb2dVertex
62
5
10
200.611313
20
106.059250
0
VERTEX
5
6db
100
AcDbEntity
8
1
100
AcDbVertex
100
AcDb2dVertex
62
5
10
201.100688
20
105.298000
0
VERTEX
5
6dc
100
AcDbEntity
8
1
100
AcDbVertex
100
AcDb2dVertex
62
5
10
200.415563
20
105.515500
0
VERTEX
5
6dd
100
AcDbEntity
8
1
100
AcDbVertex
100
AcDb2dVertex
62
5
10
199.926188
20
105.515500
0
VERTEX
5
6de
100
AcDbEntity
8
1
100
AcDbVertex
100
AcDb2dVertex
62
5
10
199.632563
20
105.298000
0
VERTEX
5
6df
100
AcDbEntity
8
1
100
AcDbVertex
100
AcDb2dVertex
62
5
10
199.534688
20
105.080500
0
VERTEX
5
6e0
100
AcDbEntity
8
1
100
AcDbVertex
100
AcDb2dVertex
62
5
10
199.534688
20
104.971750
0
VERTEX
5
6e1
100
AcDbEntity
8
1
100
AcDbVertex
100
AcDb2dVertex
62
5
10
199.730438
20
104.754250
0
VERTEX
5
6e2
100
AcDbEntity
8
1
100
AcDbVertex
100
AcDb2dVertex
62
5
10
200.024063
20
104.645500
0
VERTEX
5
6e3
100
AcDbEntity
8
1
100
AcDbVertex
100
AcDb2dVertex
62
5
10
200.709188
20
104.536750
0
SEQEND
5
6e4
100
AcDbEntity
8
1
0
POLYLINE
5
6e5
100
AcDbEntity
8
1
6
CONTINUOUS
62
5
100
AcDb2dPolyline
66
1
10
0.0
20
0.0
30
0.0
70
0
0
VERTEX
5
6e6
100
AcDbEntity
8
1
100
AcDbVertex
100
AcDb2dVertex
62
5
10
208.734938
20
110.300500
0
VERTEX
5
6e7
100
AcDbEntity
8
1
100
AcDbVertex
100
AcDb2dVertex
62
5
10
210.007313
20
110.300500
0
VERTEX
5
6e8
100
AcDbEntity
8
1
100
AcDbVertex
100
AcDb2dVertex
62
5
10
210.007313
20
110.191750
0
VERTEX
5
6e9
100
AcDbEntity
8
1
100
AcDbVertex
100
AcDb2dVertex
62
5
10
209.811563
20
109.756750
0
VERTEX
5
6ea
100
AcDbEntity
8
1
100
AcDbVertex
100
AcDb2dVertex
62
5
10
209.615813
20
109.430500
0
VERTEX
5
6eb
100
AcDbEntity
8
1
100
AcDbVertex
100
AcDb2dVertex
62
5
10
209.224313
20
108.995500
0
VERTEX
5
6ec
100
AcDbEntity
8
1
100
AcDbVertex
100
AcDb2dVertex
62
5
10
208.539188
20
108.451750
0
SEQEND
5
6ed
100
AcDbEntity
8
1
0
LINE
5
6ee
100
AcDbEntity
8
1
100
AcDbLine
6
CONTINUOUS
62
5
10
209.615813
20
109.430500
11
210.398813
21
108.451750
0
POLYLINE
5
6ef
100
AcDbEntity
8
1
6
CONTINUOUS
62
5
100
AcDb2dPolyline
66
1
10
0.0
20
0.0
30
0.0
70
0
0
VERTEX
5
6f0
100
AcDbEntity
8
1
100
AcDbVertex
100
AcDb2dVertex
62
5
10
208.441313
20
106.385500
0
VERTEX
5
6f1
100
AcDbEntity
8
1
100
AcDbVertex
100
AcDb2dVertex
62
5
10
208.441313
20
106.059250
0
VERTEX
5
6f2
100
AcDbEntity
8
1
100
AcDbVertex
100
AcDb2dVertex
62
5
10
208.637063
20
105.298000
0
VERTEX
5
6f3
100
AcDbEntity
8
1
100
AcDbVertex
100
AcDb2dVertex
62
5
10
208.734938
20
104.971750
0
VERTEX
5
6f4
100
AcDbEntity
8
1
100
AcDbVertex
100
AcDb2dVertex
62
5
10
208.930688
20
104.754250
0
VERTEX
5
6f5
100
AcDbEntity
8
1
100
AcDbVertex
100
AcDb2dVertex
62
5
10
209.126438
20
104.754250
0
VERTEX
5
6f6
100
AcDbEntity
8
1
100
AcDbVertex
100
AcDb2dVertex
62
5
10
209.420063
20
105.080500
0
SEQEND
5
6f7
100
AcDbEntity
8
1
0
POLYLINE
5
6f8
100
AcDbEntity
8
1
6
CONTINUOUS
62
5
100
AcDb2dPolyline
66
1
10
0.0
20
0.0
30
0.0
70
0
0
VERTEX
5
6f9
100
AcDbEntity
8
1
100
AcDbVertex
100
AcDb2dVertex
62
5
10
210.105188
20
106.276750
0
VERTEX
5
6fa
100
AcDbEntity
8
1
100
AcDbVertex
100
AcDb2dVertex
62
5
10
210.398813
20
105.733000
0
VERTEX
5
6fb
100
AcDbEntity
8
1
100
AcDbVertex
100
AcDb2dVertex
62
5
10
210.496688
20
105.298000
0
SEQEND
5
6fc
100
AcDbEntity
8
1
0
POLYLINE
5
6fd
100
AcDbEntity
8
1
6
CONTINUOUS
62
5
100
AcDb2dPolyline
66
1
10
0.0
20
0.0
30
0.0
70
0
0
VERTEX
5
6fe
100
AcDbEntity
8
1
100
AcDbVertex
100
AcDb2dVertex
62
5
10
228.825000
20
116.300000
0
VERTEX
5
6ff
100
AcDbEntity
8
1
100
AcDbVertex
100
AcDb2dVertex
62
5
10
228.825000
20
116.750000
0
VERTEX
5
700
100
AcDbEntity
8
1
100
AcDbVertex
100
AcDb2dVertex
62
5
10
229.075001
20
117.250000
0
SEQEND
5
701
100
AcDbEntity
8
1
0
POLYLINE
5
702
100
AcDbEntity
8
1
6
CONTINUOUS
62
5
100
AcDb2dPolyline
66
1
10
0.0
20
0.0
30
0.0
70
0
0
VERTEX
5
703
100
AcDbEntity
8
1
100
AcDbVertex
100
AcDb2dVertex
62
5
10
226.925000
20
116.300000
0
VERTEX
5
704
100
AcDbEntity
8
1
100
AcDbVertex
100
AcDb2dVertex
62
5
10
226.925000
20
116.750000
0
VERTEX
5
705
100
AcDbEntity
8
1
100
AcDbVertex
100
AcDb2dVertex
62
5
10
226.674999
20
117.250000
0
SEQEND
5
706
100
AcDbEntity
8
1
0
LINE
5
707
100
AcDbEntity
8
1
100
AcDbLine
6
CONTINUOUS
62
5
10
226.925000
20
116.750000
11
228.825000
21
116.750000
0
POLYLINE
5
708
100
AcDbEntity
8
1
6
CONTINUOUS
62
5
100
AcDb2dPolyline
66
1
10
0.0
20
0.0
30
0.0
70
0
0
VERTEX
5
709
100
AcDbEntity
8
1
100
AcDbVertex
100
AcDb2dVertex
62
5
10
226.375000
20
117.350000
0
VERTEX
5
70a
100
AcDbEntity
8
1
100
AcDbVertex
100
AcDb2dVertex
62
5
10
226.375000
20
117.250000
0
VERTEX
5
70b
100
AcDbEntity
8
1
100
AcDbVertex
100
AcDb2dVertex
62
5
10
229.375000
20
117.250000
0
VERTEX
5
70c
100
AcDbEntity
8
1
100
AcDbVertex
100
AcDb2dVertex
62
5
10
229.375000
20
117.350000
0
SEQEND
5
70d
100
AcDbEntity
8
1
0
ARC
5
70e
100
AcDbEntity
8
1
100
AcDbCircle
6
CONTINUOUS
62
5
10
192.675000
20
118.300000
40
1.000000
100
AcDbArc
50
-108.194871
51
-89.999999
0
LINE
5
70f
100
AcDbEntity
8
1
100
AcDbLine
6
CONTINUOUS
62
5
10
226.375000
20
117.300000
11
192.675000
21
117.300000
0
POLYLINE
5
710
100
AcDbEntity
8
1
6
CONTINUOUS
62
5
100
AcDb2dPolyline
66
1
10
0.0
20
0.0
30
0.0
70
0
0
VERTEX
5
711
100
AcDbEntity
8
1
100
AcDbVertex
100
AcDb2dVertex
62
5
10
225.875000
20
117.100000
0
VERTEX
5
712
100
AcDbEntity
8
1
100
AcDbVertex
100
AcDb2dVertex
62
5
10
225.875000
20
116.300000
0
VERTEX
5
713
100
AcDbEntity
8
1
100
AcDbVertex
100
AcDb2dVertex
62
5
10
229.875000
20
116.300000
0
VERTEX
5
714
100
AcDbEntity
8
1
100
AcDbVertex
100
AcDb2dVertex
62
5
10
229.875000
20
117.100000
0
SEQEND
5
715
100
AcDbEntity
8
1
0
POLYLINE
5
716
100
AcDbEntity
8
1
6
CONTINUOUS
62
5
100
AcDb2dPolyline
66
1
10
0.0
20
0.0
30
0.0
70
0
0
VERTEX
5
717
100
AcDbEntity
8
1
100
AcDbVertex
100
AcDb2dVertex
62
5
10
152.500000
20
28.250000
0
VERTEX
5
718
100
AcDbEntity
8
1
100
AcDbVertex
100
AcDb2dVertex
62
5
10
154.062500
20
35.750000
0
VERTEX
5
719
100
AcDbEntity
8
1
100
AcDbVertex
100
AcDb2dVertex
62
5
10
155.625000
20
28.250000
0
SEQEND
5
71a
100
AcDbEntity
8
1
0
LINE
5
71b
100
AcDbEntity
8
1
100
AcDbLine
6
CONTINUOUS
62
5
10
153.125000
20
30.750000
11
155.000000
21
30.750000
0
POLYLINE
5
71c
100
AcDbEntity
8
1
6
CONTINUOUS
62
5
100
AcDb2dPolyline
66
1
10
0.0
20
0.0
30
0.0
70
0
0
VERTEX
5
71d
100
AcDbEntity
8
1
100
AcDbVertex
100
AcDb2dVertex
62
5
10
160.625000
20
34.187500
0
VERTEX
5
71e
100
AcDbEntity
8
1
100
AcDbVertex
100
AcDb2dVertex
62
5
10
160.312500
20
35.125000
0
VERTEX
5
71f
100
AcDbEntity
8
1
100
AcDbVertex
100
AcDb2dVertex
62
5
10
159.687500
20
35.750000
0
VERTEX
5
720
100
AcDbEntity
8
1
100
AcDbVertex
100
AcDb2dVertex
62
5
10
158.750000
20
35.750000
0
VERTEX
5
721
100
AcDbEntity
8
1
100
AcDbVertex
100
AcDb2dVertex
62
5
10
157.812500
20
34.812500
0
VERTEX
5
722
100
AcDbEntity
8
1
100
AcDbVertex
100
AcDb2dVertex
62
5
10
157.500000
20
33.250000
0
VERTEX
5
723
100
AcDbEntity
8
1
100
AcDbVertex
100
AcDb2dVertex
62
5
10
157.500000
20
30.750000
0
VERTEX
5
724
100
AcDbEntity
8
1
100
AcDbVertex
100
AcDb2dVertex
62
5
10
157.812500
20
29.187500
0
VERTEX
5
725
100
AcDbEntity
8
1
100
AcDbVertex
100
AcDb2dVertex
62
5
10
158.750000
20
28.250000
0
VERTEX
5
726
100
AcDbEntity
8
1
100
AcDbVertex
100
AcDb2dVertex
62
5
10
159.687500
20
28.250000
0
VERTEX
5
727
100
AcDbEntity
8
1
100
AcDbVertex
100
AcDb2dVertex
62
5
10
160.312500
20
28.875000
0
VERTEX
5
728
100
AcDbEntity
8
1
100
AcDbVertex
100
AcDb2dVertex
62
5
10
160.937500
20
30.437500
0
SEQEND
5
729
100
AcDbEntity
8
1
0
POLYLINE
5
72a
100
AcDbEntity
8
1
6
CONTINUOUS
62
5
100
AcDb2dPolyline
66
1
10
0.0
20
0.0
30
0.0
70
0
0
VERTEX
5
72b
100
AcDbEntity
8
1
100
AcDbVertex
100
AcDb2dVertex
62
5
10
119.475000
20
157.500000
0
VERTEX
5
72c
100
AcDbEntity
8
1
100
AcDbVertex
100
AcDb2dVertex
62
5
10
119.875000
20
157.500000
0
VERTEX
5
72d
100
AcDbEntity
8
1
100
AcDbVertex
100
AcDb2dVertex
62
5
10
119.875000
20
142.500000
0
VERTEX
5
72e
100
AcDbEntity
8
1
100
AcDbVertex
100
AcDb2dVertex
62
5
10
119.475000
20
142.500000
0
SEQEND
5
72f
100
AcDbEntity
8
1
0
POLYLINE
5
730
100
AcDbEntity
8
1
6
CONTINUOUS
62
5
100
AcDb2dPolyline
66
1
10
0.0
20
0.0
30
0.0
70
0
0
VERTEX
5
731
100
AcDbEntity
8
1
100
AcDbVertex
100
AcDb2dVertex
62
5
10
94.385514
20
154.385288
0
VERTEX
5
732
100
AcDbEntity
8
1
100
AcDbVertex
100
AcDb2dVertex
62
5
10
93.172327
20
154.493449
0
VERTEX
5
733
100
AcDbEntity
8
1
100
AcDbVertex
100
AcDb2dVertex
62
5
10
93.243916
20
155.296422
0
VERTEX
5
734
100
AcDbEntity
8
1
100
AcDbVertex
100
AcDb2dVertex
62
5
10
94.510678
20
155.182192
0
SEQEND
5
735
100
AcDbEntity
8
1
0
ARC
5
736
100
AcDbEntity
8
1
100
AcDbCircle
6
CONTINUOUS
62
5
10
91.325000
20
154.593378
40
0.500000
100
AcDbArc
50
179.999998
51
-90.763898
0
LINE
5
737
100
AcDbEntity
8
1
100
AcDbLine
6
CONTINUOUS
62
5
10
91.318334
20
154.093422
11
94.424333
21
154.052009
0
LINE
5
738
100
AcDbEntity
8
1
100
AcDbLine
6
CONTINUOUS
62
5
10
90.825000
20
155.339928
11
90.825000
21
154.593378
0
POLYLINE
5
739
100
AcDbEntity
8
1
6
CONTINUOUS
62
5
100
AcDb2dPolyline
66
1
10
0.0
20
0.0
30
0.0
70
0
0
VERTEX
5
73a
100
AcDbEntity
8
1
100
AcDbVertex
100
AcDb2dVertex
62
5
10
100.174972
20
153.949744
0
VERTEX
5
73b
100
AcDbEntity
8
1
100
AcDbVertex
100
AcDb2dVertex
62
5
10
99.265584
20
153.950016
0
VERTEX
5
73c
100
AcDbEntity
8
1
100
AcDbVertex
100
AcDb2dVertex
62
5
10
98.325000
20
154.034063
0
SEQEND
5
73d
100
AcDbEntity
8
1
0
LINE
5
73e
100
AcDbEntity
8
1
100
AcDbLine
6
CONTINUOUS
62
5
10
98.325000
20
154.300000
11
100.174971
21
154.300000
0
LINE
5
73f
100
AcDbEntity
8
1
100
AcDbLine
6
CONTINUOUS
62
5
10
98.325000
20
146.000000
11
98.325000
21
145.700000
0
POLYLINE
5
740
100
AcDbEntity
8
1
6
CONTINUOUS
62
5
100
AcDb2dPolyline
66
1
10
0.0
20
0.0
30
0.0
70
0
0
VERTEX
5
741
100
AcDbEntity
8
1
100
AcDbVertex
100
AcDb2dVertex
62
5
10
94.385514
20
145.614712
0
VERTEX
5
742
100
AcDbEntity
8
1
100
AcDbVertex
100
AcDb2dVertex
62
5
10
93.172327
20
145.506551
0
VERTEX
5
743
100
AcDbEntity
8
1
100
AcDbVertex
100
AcDb2dVertex
62
5
10
93.243916
20
144.703578
0
VERTEX
5
744
100
AcDbEntity
8
1
100
AcDbVertex
100
AcDb2dVertex
62
5
10
94.510678
20
144.817808
0
SEQEND
5
745
100
AcDbEntity
8
1
0
ARC
5
746
100
AcDbEntity
8
1
100
AcDbCircle
6
CONTINUOUS
62
5
10
92.325000
20
145.407633
40
0.500000
100
AcDbArc
50
90.881403
51
179.999998
0
LINE
5
747
100
AcDbEntity
8
1
100
AcDbLine
6
CONTINUOUS
62
5
10
92.317309
20
145.907574
11
94.415899
21
145.939860
0
LINE
5
748
100
AcDbEntity
8
1
100
AcDbLine
6
CONTINUOUS
62
5
10
91.825000
20
144.678058
11
91.825000
21
145.407633
0
LINE
5
749
100
AcDbEntity
8
1
100
AcDbLine
6
CONTINUOUS
62
5
10
100.174979
20
145.700000
11
98.325000
21
145.700000
0
LINE
5
74a
100
AcDbEntity
8
1
100
AcDbLine
6
CONTINUOUS
62
5
10
95.675000
20
154.000000
11
95.675000
21
146.000000
0
LINE
5
74b
100
AcDbEntity
8
1
100
AcDbLine
6
CONTINUOUS
62
5
10
104.675000
20
121.038362
11
104.675000
21
124.000000
0
ARC
5
74c
100
AcDbEntity
8
1
100
AcDbCircle
6
CONTINUOUS
62
5
10
103.675000
20
120.874897
40
1.000000
100
AcDbArc
50
-0.000000
51
82.378530
0
LINE
5
74d
100
AcDbEntity
8
1
100
AcDbLine
6
CONTINUOUS
62
5
10
103.807628
20
121.866063
11
102.034603
21
122.103311
0
LINE
5
74e
100
AcDbEntity
8
1
100
AcDbLine
6
CONTINUOUS
62
5
10
98.325000
20
124.034063
11
98.325000
21
124.300000
0
ARC
5
74f
100
AcDbEntity
8
1
100
AcDbCircle
6
CONTINUOUS
62
5
10
96.175000
20
123.600000
40
0.500000
100
AcDbArc
50
126.869906
51
179.999998
0
POLYLINE
5
750
100
AcDbEntity
8
1
6
CONTINUOUS
62
5
100
AcDb2dPolyline
66
1
10
0.0
20
0.0
30
0.0
70
0
0
VERTEX
5
751
100
AcDbEntity
8
1
100
AcDbVertex
100
AcDb2dVertex
62
5
10
94.385514
20
124.385288
0
VERTEX
5
752
100
AcDbEntity
8
1
100
AcDbVertex
100
AcDb2dVertex
62
5
10
93.172327
20
124.493449
0
VERTEX
5
753
100
AcDbEntity
8
1
100
AcDbVertex
100
AcDb2dVertex
62
5
10
93.243916
20
125.296422
0
VERTEX
5
754
100
AcDbEntity
8
1
100
AcDbVertex
100
AcDb2dVertex
62
5
10
94.510678
20
125.182192
0
SEQEND
5
755
100
AcDbEntity
8
1
0
ARC
5
756
100
AcDbEntity
8
1
100
AcDbCircle
6
CONTINUOUS
62
5
10
92.325000
20
124.592367
40
0.500000
100
AcDbArc
50
179.999998
51
-90.881403
0
LINE
5
757
100
AcDbEntity
8
1
100
AcDbLine
6
CONTINUOUS
62
5
10
92.317309
20
124.092426
11
94.415899
21
124.060140
0
LINE
5
758
100
AcDbEntity
8
1
100
AcDbLine
6
CONTINUOUS
62
5
10
91.825000
20
125.321942
11
91.825000
21
124.592367
0
LINE
5
759
100
AcDbEntity
8
1
100
AcDbLine
6
CONTINUOUS
62
5
10
98.325000
20
124.300000
11
100.174999
21
124.300000
0
ARC
5
75a
100
AcDbEntity
8
1
100
AcDbCircle
6
CONTINUOUS
62
5
10
103.674975
20
120.864781
40
1.000000
100
AcDbArc
50
0.000000
51
83.031743
0
POLYLINE
5
75b
100
AcDbEntity
8
1
6
CONTINUOUS
62
5
100
AcDb2dPolyline
66
1
10
0.0
20
0.0
30
0.0
70
0
0
VERTEX
5
75c
100
AcDbEntity
8
1
100
AcDbVertex
100
AcDb2dVertex
62
5
10
103.796295
20
121.857394
0
VERTEX
5
75d
100
AcDbEntity
8
1
100
AcDbVertex
100
AcDb2dVertex
62
5
10
100.174975
20
122.300000
0
VERTEX
5
75e
100
AcDbEntity
8
1
100
AcDbVertex
100
AcDb2dVertex
62
5
10
99.124975
20
122.300002
0
SEQEND
5
75f
100
AcDbEntity
8
1
0
ARC
5
760
100
AcDbEntity
8
1
100
AcDbCircle
6
CONTINUOUS
62
5
10
99.124975
20
122.800002
40
0.500000
100
AcDbArc
50
89.999934
51
-89.999999
0
LINE
5
761
100
AcDbEntity
8
1
100
AcDbLine
6
CONTINUOUS
62
5
10
99.124976
20
123.300002
11
100.174951
21
123.300001
0
ARC
5
762
100
AcDbEntity
8
1
100
AcDbCircle
6
CONTINUOUS
62
5
10
96.175000
20
122.800000
40
0.500000
100
AcDbArc
50
89.999999
51
179.999998
0
LINE
5
763
100
AcDbEntity
8
1
100
AcDbLine
6
CONTINUOUS
62
5
10
96.175000
20
123.300000
11
100.175000
21
123.300000
0
LINE
5
764
100
AcDbEntity
8
1
100
AcDbLine
6
CONTINUOUS
62
5
10
100.174984
20
140.000000
11
98.325000
21
140.000000
0
LINE
5
765
100
AcDbEntity
8
1
100
AcDbLine
6
CONTINUOUS
62
5
10
98.325000
20
130.000000
11
100.174993
21
130.000000
0
POLYLINE
5
766
100
AcDbEntity
8
1
6
CONTINUOUS
62
5
100
AcDb2dPolyline
66
1
10
0.0
20
0.0
30
0.0
70
0
0
VERTEX
5
767
100
AcDbEntity
8
1
100
AcDbVertex
100
AcDb2dVertex
62
5
10
100.174979
20
146.050256
0
VERTEX
5
768
100
AcDbEntity
8
1
100
AcDbVertex
100
AcDb2dVertex
62
5
10
99.265584
20
146.049984
0
VERTEX
5
769
100
AcDbEntity
8
1
100
AcDbVertex
100
AcDb2dVertex
62
5
10
98.325000
20
145.965937
0
SEQEND
5
76a
100
AcDbEntity
8
1
0
POLYLINE
5
76b
100
AcDbEntity
8
1
6
CONTINUOUS
62
5
100
AcDb2dPolyline
66
1
10
0.0
20
0.0
30
0.0
70
0
0
VERTEX
5
76c
100
AcDbEntity
8
1
100
AcDbVertex
100
AcDb2dVertex
62
5
10
98.325000
20
124.034063
0
VERTEX
5
76d
100
AcDbEntity
8
1
100
AcDbVertex
100
AcDb2dVertex
62
5
10
99.265644
20
123.950014
0
VERTEX
5
76e
100
AcDbEntity
8
1
100
AcDbVertex
100
AcDb2dVertex
62
5
10
100.174999
20
123.949742
0
SEQEND
5
76f
100
AcDbEntity
8
1
0
POLYLINE
5
770
100
AcDbEntity
8
1
6
CONTINUOUS
62
5
100
AcDb2dPolyline
66
1
10
0.0
20
0.0
30
0.0
70
0
0
VERTEX
5
771
100
AcDbEntity
8
1
100
AcDbVertex
100
AcDb2dVertex
62
5
10
100.174999
20
123.650000
0
VERTEX
5
772
100
AcDbEntity
8
1
100
AcDbVertex
100
AcDb2dVertex
62
5
10
98.325000
20
123.650000
0
VERTEX
5
773
100
AcDbEntity
8
1
100
AcDbVertex
100
AcDb2dVertex
62
5
10
98.325000
20
146.350000
0
VERTEX
5
774
100
AcDbEntity
8
1
100
AcDbVertex
100
AcDb2dVertex
62
5
10
100.174979
20
146.350000
0
SEQEND
5
775
100
AcDbEntity
8
1
0
ARC
5
776
100
AcDbEntity
8
1
100
AcDbCircle
6
CONTINUOUS
62
5
10
94.558864
20
124.200000
40
0.200000
100
AcDbArc
50
171.073921
51
-89.999999
0
POLYLINE
5
777
100
AcDbEntity
8
1
6
CONTINUOUS
62
5
100
AcDb2dPolyline
66
1
10
0.0
20
0.0
30
0.0
70
0
0
VERTEX
5
778
100
AcDbEntity
8
1
100
AcDbVertex
100
AcDb2dVertex
62
5
10
94.361286
20
124.231032
0
VERTEX
5
779
100
AcDbEntity
8
1
100
AcDbVertex
100
AcDb2dVertex
62
5
10
94.525000
20
125.273381
0
VERTEX
5
77a
100
AcDbEntity
8
1
100
AcDbVertex
100
AcDb2dVertex
62
5
10
82.907017
20
125.482338
0
SEQEND
5
77b
100
AcDbEntity
8
1
0
ARC
5
77c
100
AcDbEntity
8
1
100
AcDbCircle
6
CONTINUOUS
62
5
10
82.925000
20
126.482176
40
1.000000
100
AcDbArc
50
-179.999998
51
-91.030388
0
LINE
5
77d
100
AcDbEntity
8
1
100
AcDbLine
6
CONTINUOUS
62
5
10
81.925000
20
126.482176
11
81.925000
21
143.517824
0
ARC
5
77e
100
AcDbEntity
8
1
100
AcDbCircle
6
CONTINUOUS
62
5
10
82.925000
20
143.517824
40
1.000000
100
AcDbArc
50
91.030388
51
179.999998
0
POLYLINE
5
77f
100
AcDbEntity
8
1
6
CONTINUOUS
62
5
100
AcDb2dPolyline
66
1
10
0.0
20
0.0
30
0.0
70
0
0
VERTEX
5
780
100
AcDbEntity
8
1
100
AcDbVertex
100
AcDb2dVertex
62
5
10
82.907017
20
144.517662
0
VERTEX
5
781
100
AcDbEntity
8
1
100
AcDbVertex
100
AcDb2dVertex
62
5
10
94.525000
20
144.726619
0
VERTEX
5
782
100
AcDbEntity
8
1
100
AcDbVertex
100
AcDb2dVertex
62
5
10
94.361286
20
145.768968
0
SEQEND
5
783
100
AcDbEntity
8
1
0
ARC
5
784
100
AcDbEntity
8
1
100
AcDbCircle
6
CONTINUOUS
62
5
10
94.558864
20
145.800000
40
0.200000
100
AcDbArc
50
89.999999
51
-171.073921
0
LINE
5
785
100
AcDbEntity
8
1
100
AcDbLine
6
CONTINUOUS
62
5
10
94.558864
20
146.000000
11
98.325000
21
146.000000
0
LINE
5
786
100
AcDbEntity
8
1
100
AcDbLine
6
CONTINUOUS
62
5
10
98.325000
20
124.000000
11
94.558864
21
124.000000
0
ARC
5
787
100
AcDbEntity
8
1
100
AcDbCircle
6
CONTINUOUS
62
5
10
109.675000
20
112.727523
40
1.000000
100
AcDbArc
50
-0.000000
51
85.588273
0
ARC
5
788
100
AcDbEntity
8
1
100
AcDbCircle
6
CONTINUOUS
62
5
10
110.175000
20
119.208264
40
5.500000
100
AcDbArc
50
179.999998
51
-94.411725
0
LINE
5
789
100
AcDbEntity
8
1
100
AcDbLine
6
CONTINUOUS
62
5
10
104.675000
20
119.208264
11
104.675000
21
121.038362
0
ARC
5
78a
100
AcDbEntity
8
1
100
AcDbCircle
6
CONTINUOUS
62
5
10
103.675000
20
121.038362
40
1.000000
100
AcDbArc
50
0.000000
51
87.759322
0
POLYLINE
5
78b
100
AcDbEntity
8
1
6
CONTINUOUS
62
5
100
AcDb2dPolyline
66
1
10
0.0
20
0.0
30
0.0
70
0
0
VERTEX
5
78c
100
AcDbEntity
8
1
100
AcDbVertex
100
AcDb2dVertex
62
5
10
103.714097
20
122.037597
0
VERTEX
5
78d
100
AcDbEntity
8
1
100
AcDbVertex
100
AcDb2dVertex
62
5
10
102.034603
20
122.103311
0
VERTEX
5
78e
100
AcDbEntity
8
1
100
AcDbVertex
100
AcDb2dVertex
62
5
10
96.159543
20
122.285014
0
SEQEND
5
78f
100
AcDbEntity
8
1
0
ARC
5
790
100
AcDbEntity
8
1
100
AcDbCircle
6
CONTINUOUS
62
5
10
96.175000
20
122.784775
40
0.500000
100
AcDbArc
50
179.999998
51
-91.771469
0
LINE
5
791
100
AcDbEntity
8
1
100
AcDbLine
6
CONTINUOUS
62
5
10
95.675000
20
122.784775
11
95.675000
21
124.000000
0
LINE
5
792
100
AcDbEntity
8
1
100
AcDbLine
6
CONTINUOUS
62
5
10
108.125000
20
28.875000
11
107.500000
21
28.250000
0
POLYLINE
5
793
100
AcDbEntity
8
1
6
CONTINUOUS
62
5
100
AcDb2dPolyline
66
1
10
0.0
20
0.0
30
0.0
70
0
0
VERTEX
5
794
100
AcDbEntity
8
1
100
AcDbVertex
100
AcDb2dVertex
62
5
10
107.500000
20
28.875000
0
VERTEX
5
795
100
AcDbEntity
8
1
100
AcDbVertex
100
AcDb2dVertex
62
5
10
108.125000
20
28.250000
0
VERTEX
5
796
100
AcDbEntity
8
1
100
AcDbVertex
100
AcDb2dVertex
62
5
10
107.500000
20
28.250000
0
VERTEX
5
797
100
AcDbEntity
8
1
100
AcDbVertex
100
AcDb2dVertex
62
5
10
107.500000
20
28.875000
0
VERTEX
5
798
100
AcDbEntity
8
1
100
AcDbVertex
100
AcDb2dVertex
62
5
10
108.125000
20
28.875000
0
VERTEX
5
799
100
AcDbEntity
8
1
100
AcDbVertex
100
AcDb2dVertex
62
5
10
108.125000
20
28.250000
0
SEQEND
5
79a
100
AcDbEntity
8
1
0
POLYLINE
5
79b
100
AcDbEntity
8
1
6
CONTINUOUS
62
5
100
AcDb2dPolyline
66
1
10
0.0
20
0.0
30
0.0
70
0
0
VERTEX
5
79c
100
AcDbEntity
8
1
100
AcDbVertex
100
AcDb2dVertex
62
5
10
142.500000
20
35.750000
0
VERTEX
5
79d
100
AcDbEntity
8
1
100
AcDbVertex
100
AcDb2dVertex
62
5
10
144.062500
20
28.250000
0
VERTEX
5
79e
100
AcDbEntity
8
1
100
AcDbVertex
100
AcDb2dVertex
62
5
10
145.625000
20
35.750000
0
SEQEND
5
79f
100
AcDbEntity
8
1
0
LINE
5
7a0
100
AcDbEntity
8
1
100
AcDbLine
6
CONTINUOUS
62
5
10
122.500000
20
32.000000
11
125.625000
21
32.000000
0
POLYLINE
5
7a1
100
AcDbEntity
8
1
6
CONTINUOUS
62
5
100
AcDb2dPolyline
66
1
10
0.0
20
0.0
30
0.0
70
0
0
VERTEX
5
7a2
100
AcDbEntity
8
1
100
AcDbVertex
100
AcDb2dVertex
62
5
10
127.500000
20
33.875000
0
VERTEX
5
7a3
100
AcDbEntity
8
1
100
AcDbVertex
100
AcDb2dVertex
62
5
10
127.812500
20
35.125000
0
VERTEX
5
7a4
100
AcDbEntity
8
1
100
AcDbVertex
100
AcDb2dVertex
62
5
10
128.437500
20
35.750000
0
VERTEX
5
7a5
100
AcDbEntity
8
1
100
AcDbVertex
100
AcDb2dVertex
62
5
10
129.375000
20
35.750000
0
VERTEX
5
7a6
100
AcDbEntity
8
1
100
AcDbVertex
100
AcDb2dVertex
62
5
10
130.000000
20
35.437500
0
VERTEX
5
7a7
100
AcDbEntity
8
1
100
AcDbVertex
100
AcDb2dVertex
62
5
10
130.312500
20
34.500000
0
VERTEX
5
7a8
100
AcDbEntity
8
1
100
AcDbVertex
100
AcDb2dVertex
62
5
10
130.312500
20
33.250000
0
VERTEX
5
7a9
100
AcDbEntity
8
1
100
AcDbVertex
100
AcDb2dVertex
62
5
10
130.000000
20
32.625000
0
VERTEX
5
7aa
100
AcDbEntity
8
1
100
AcDbVertex
100
AcDb2dVertex
62
5
10
129.375000
20
32.000000
0
VERTEX
5
7ab
100
AcDbEntity
8
1
100
AcDbVertex
100
AcDb2dVertex
62
5
10
128.437500
20
32.000000
0
SEQEND
5
7ac
100
AcDbEntity
8
1
0
POLYLINE
5
7ad
100
AcDbEntity
8
1
6
CONTINUOUS
62
5
100
AcDb2dPolyline
66
1
10
0.0
20
0.0
30
0.0
70
0
0
VERTEX
5
7ae
100
AcDbEntity
8
1
100
AcDbVertex
100
AcDb2dVertex
62
5
10
129.375000
20
32.000000
0
VERTEX
5
7af
100
AcDbEntity
8
1
100
AcDbVertex
100
AcDb2dVertex
62
5
10
130.312500
20
31.375000
0
VERTEX
5
7b0
100
AcDbEntity
8
1
100
AcDbVertex
100
AcDb2dVertex
62
5
10
130.625000
20
30.437500
0
VERTEX
5
7b1
100
AcDbEntity
8
1
100
AcDbVertex
100
AcDb2dVertex
62
5
10
130.625000
20
29.500000
0
VERTEX
5
7b2
100
AcDbEntity
8
1
100
AcDbVertex
100
AcDb2dVertex
62
5
10
130.312500
20
28.875000
0
VERTEX
5
7b3
100
AcDbEntity
8
1
100
AcDbVertex
100
AcDb2dVertex
62
5
10
129.375000
20
28.250000
0
VERTEX
5
7b4
100
AcDbEntity
8
1
100
AcDbVertex
100
AcDb2dVertex
62
5
10
128.437500
20
28.250000
0
VERTEX
5
7b5
100
AcDbEntity
8
1
100
AcDbVertex
100
AcDb2dVertex
62
5
10
127.812500
20
28.562500
0
VERTEX
5
7b6
100
AcDbEntity
8
1
100
AcDbVertex
100
AcDb2dVertex
62
5
10
127.187500
20
29.500000
0
SEQEND
5
7b7
100
AcDbEntity
8
1
0
POLYLINE
5
7b8
100
AcDbEntity
8
1
6
CONTINUOUS
62
5
100
AcDb2dPolyline
66
1
10
0.0
20
0.0
30
0.0
70
1
0
VERTEX
5
7b9
100
AcDbEntity
8
1
100
AcDbVertex
100
AcDb2dVertex
62
5
10
133.750000
20
35.750000
0
VERTEX
5
7ba
100
AcDbEntity
8
1
100
AcDbVertex
100
AcDb2dVertex
62
5
10
134.375000
20
35.750000
0
VERTEX
5
7bb
100
AcDbEntity
8
1
100
AcDbVertex
100
AcDb2dVertex
62
5
10
134.687500
20
35.437500
0
VERTEX
5
7bc
100
AcDbEntity
8
1
100
AcDbVertex
100
AcDb2dVertex
62
5
10
135.312500
20
34.187500
0
VERTEX
5
7bd
100
AcDbEntity
8
1
100
AcDbVertex
100
AcDb2dVertex
62
5
10
135.625000
20
32.937500
0
VERTEX
5
7be
100
AcDbEntity
8
1
100
AcDbVertex
100
AcDb2dVertex
62
5
10
135.625000
20
31.062500
0
VERTEX
5
7bf
100
AcDbEntity
8
1
100
AcDbVertex
100
AcDb2dVertex
62
5
10
135.312500
20
29.812500
0
VERTEX
5
7c0
100
AcDbEntity
8
1
100
AcDbVertex
100
AcDb2dVertex
62
5
10
134.687500
20
28.562500
0
VERTEX
5
7c1
100
AcDbEntity
8
1
100
AcDbVertex
100
AcDb2dVertex
62
5
10
134.375000
20
28.250000
0
VERTEX
5
7c2
100
AcDbEntity
8
1
100
AcDbVertex
100
AcDb2dVertex
62
5
10
133.750000
20
28.250000
0
VERTEX
5
7c3
100
AcDbEntity
8
1
100
AcDbVertex
100
AcDb2dVertex
62
5
10
133.437500
20
28.562500
0
VERTEX
5
7c4
100
AcDbEntity
8
1
100
AcDbVertex
100
AcDb2dVertex
62
5
10
132.812500
20
29.812500
0
VERTEX
5
7c5
100
AcDbEntity
8
1
100
AcDbVertex
100
AcDb2dVertex
62
5
10
132.500000
20
31.062500
0
VERTEX
5
7c6
100
AcDbEntity
8
1
100
AcDbVertex
100
AcDb2dVertex
62
5
10
132.500000
20
32.937500
0
VERTEX
5
7c7
100
AcDbEntity
8
1
100
AcDbVertex
100
AcDb2dVertex
62
5
10
132.812500
20
34.187500
0
VERTEX
5
7c8
100
AcDbEntity
8
1
100
AcDbVertex
100
AcDb2dVertex
62
5
10
133.437500
20
35.437500
0
VERTEX
5
7c9
100
AcDbEntity
8
1
100
AcDbVertex
100
AcDb2dVertex
62
5
10
133.750000
20
35.750000
0
SEQEND
5
7ca
100
AcDbEntity
8
1
0
POLYLINE
5
7cb
100
AcDbEntity
8
1
6
CONTINUOUS
62
5
100
AcDb2dPolyline
66
1
10
0.0
20
0.0
30
0.0
70
1
0
VERTEX
5
7cc
100
AcDbEntity
8
1
100
AcDbVertex
100
AcDb2dVertex
62
5
10
138.750000
20
35.750000
0
VERTEX
5
7cd
100
AcDbEntity
8
1
100
AcDbVertex
100
AcDb2dVertex
62
5
10
139.375000
20
35.750000
0
VERTEX
5
7ce
100
AcDbEntity
8
1
100
AcDbVertex
100
AcDb2dVertex
62
5
10
139.687500
20
35.437500
0
VERTEX
5
7cf
100
AcDbEntity
8
1
100
AcDbVertex
100
AcDb2dVertex
62
5
10
140.312500
20
34.187500
0
VERTEX
5
7d0
100
AcDbEntity
8
1
100
AcDbVertex
100
AcDb2dVertex
62
5
10
140.625000
20
32.937500
0
VERTEX
5
7d1
100
AcDbEntity
8
1
100
AcDbVertex
100
AcDb2dVertex
62
5
10
140.625000
20
31.062500
0
VERTEX
5
7d2
100
AcDbEntity
8
1
100
AcDbVertex
100
AcDb2dVertex
62
5
10
140.312500
20
29.812500
0
VERTEX
5
7d3
100
AcDbEntity
8
1
100
AcDbVertex
100
AcDb2dVertex
62
5
10
139.687500
20
28.562500
0
VERTEX
5
7d4
100
AcDbEntity
8
1
100
AcDbVertex
100
AcDb2dVertex
62
5
10
139.375000
20
28.250000
0
VERTEX
5
7d5
100
AcDbEntity
8
1
100
AcDbVertex
100
AcDb2dVertex
62
5
10
138.750000
20
28.250000
0
VERTEX
5
7d6
100
AcDbEntity
8
1
100
AcDbVertex
100
AcDb2dVertex
62
5
10
138.437500
20
28.562500
0
VERTEX
5
7d7
100
AcDbEntity
8
1
100
AcDbVertex
100
AcDb2dVertex
62
5
10
137.812500
20
29.812500
0
VERTEX
5
7d8
100
AcDbEntity
8
1
100
AcDbVertex
100
AcDb2dVertex
62
5
10
137.500000
20
31.062500
0
VERTEX
5
7d9
100
AcDbEntity
8
1
100
AcDbVertex
100
AcDb2dVertex
62
5
10
137.500000
20
32.937500
0
VERTEX
5
7da
100
AcDbEntity
8
1
100
AcDbVertex
100
AcDb2dVertex
62
5
10
137.812500
20
34.187500
0
VERTEX
5
7db
100
AcDbEntity
8
1
100
AcDbVertex
100
AcDb2dVertex
62
5
10
138.437500
20
35.437500
0
VERTEX
5
7dc
100
AcDbEntity
8
1
100
AcDbVertex
100
AcDb2dVertex
62
5
10
138.750000
20
35.750000
0
SEQEND
5
7dd
100
AcDbEntity
8
1
0
POLYLINE
5
7de
100
AcDbEntity
8
1
6
CONTINUOUS
62
5
100
AcDb2dPolyline
66
1
10
0.0
20
0.0
30
0.0
70
1
0
VERTEX
5
7df
100
AcDbEntity
8
1
100
AcDbVertex
100
AcDb2dVertex
62
5
10
103.750000
20
35.750000
0
VERTEX
5
7e0
100
AcDbEntity
8
1
100
AcDbVertex
100
AcDb2dVertex
62
5
10
104.375000
20
35.750000
0
VERTEX
5
7e1
100
AcDbEntity
8
1
100
AcDbVertex
100
AcDb2dVertex
62
5
10
104.687500
20
35.437500
0
VERTEX
5
7e2
100
AcDbEntity
8
1
100
AcDbVertex
100
AcDb2dVertex
62
5
10
105.312500
20
34.187500
0
VERTEX
5
7e3
100
AcDbEntity
8
1
100
AcDbVertex
100
AcDb2dVertex
62
5
10
105.625000
20
32.937500
0
VERTEX
5
7e4
100
AcDbEntity
8
1
100
AcDbVertex
100
AcDb2dVertex
62
5
10
105.625000
20
31.062500
0
VERTEX
5
7e5
100
AcDbEntity
8
1
100
AcDbVertex
100
AcDb2dVertex
62
5
10
105.312500
20
29.812500
0
VERTEX
5
7e6
100
AcDbEntity
8
1
100
AcDbVertex
100
AcDb2dVertex
62
5
10
104.687500
20
28.562500
0
VERTEX
5
7e7
100
AcDbEntity
8
1
100
AcDbVertex
100
AcDb2dVertex
62
5
10
104.375000
20
28.250000
0
VERTEX
5
7e8
100
AcDbEntity
8
1
100
AcDbVertex
100
AcDb2dVertex
62
5
10
103.750000
20
28.250000
0
VERTEX
5
7e9
100
AcDbEntity
8
1
100
AcDbVertex
100
AcDb2dVertex
62
5
10
103.437500
20
28.562500
0
VERTEX
5
7ea
100
AcDbEntity
8
1
100
AcDbVertex
100
AcDb2dVertex
62
5
10
102.812500
20
29.812500
0
VERTEX
5
7eb
100
AcDbEntity
8
1
100
AcDbVertex
100
AcDb2dVertex
62
5
10
102.500000
20
31.062500
0
VERTEX
5
7ec
100
AcDbEntity
8
1
100
AcDbVertex
100
AcDb2dVertex
62
5
10
102.500000
20
32.937500
0
VERTEX
5
7ed
100
AcDbEntity
8
1
100
AcDbVertex
100
AcDb2dVertex
62
5
10
102.812500
20
34.187500
0
VERTEX
5
7ee
100
AcDbEntity
8
1
100
AcDbVertex
100
AcDb2dVertex
62
5
10
103.437500
20
35.437500
0
VERTEX
5
7ef
100
AcDbEntity
8
1
100
AcDbVertex
100
AcDb2dVertex
62
5
10
103.750000
20
35.750000
0
SEQEND
5
7f0
100
AcDbEntity
8
1
0
LINE
5
7f1
100
AcDbEntity
8
1
100
AcDbLine
6
CONTINUOUS
62
5
10
112.500000
20
35.750000
11
115.312500
21
35.750000
0
POLYLINE
5
7f2
100
AcDbEntity
8
1
6
CONTINUOUS
62
5
100
AcDb2dPolyline
66
1
10
0.0
20
0.0
30
0.0
70
0
0
VERTEX
5
7f3
100
AcDbEntity
8
1
100
AcDbVertex
100
AcDb2dVertex
62
5
10
112.500000
20
35.750000
0
VERTEX
5
7f4
100
AcDbEntity
8
1
100
AcDbVertex
100
AcDb2dVertex
62
5
10
112.500000
20
32.000000
0
VERTEX
5
7f5
100
AcDbEntity
8
1
100
AcDbVertex
100
AcDb2dVertex
62
5
10
113.125000
20
32.625000
0
VERTEX
5
7f6
100
AcDbEntity
8
1
100
AcDbVertex
100
AcDb2dVertex
62
5
10
113.750000
20
32.937500
0
VERTEX
5
7f7
100
AcDbEntity
8
1
100
AcDbVertex
100
AcDb2dVertex
62
5
10
114.687500
20
32.937500
0
VERTEX
5
7f8
100
AcDbEntity
8
1
100
AcDbVertex
100
AcDb2dVertex
62
5
10
115.312500
20
32.625000
0
VERTEX
5
7f9
100
AcDbEntity
8
1
100
AcDbVertex
100
AcDb2dVertex
62
5
10
115.625000
20
31.687500
0
VERTEX
5
7fa
100
AcDbEntity
8
1
100
AcDbVertex
100
AcDb2dVertex
62
5
10
115.625000
20
29.812500
0
VERTEX
5
7fb
100
AcDbEntity
8
1
100
AcDbVertex
100
AcDb2dVertex
62
5
10
115.000000
20
28.875000
0
VERTEX
5
7fc
100
AcDbEntity
8
1
100
AcDbVertex
100
AcDb2dVertex
62
5
10
114.062500
20
28.250000
0
VERTEX
5
7fd
100
AcDbEntity
8
1
100
AcDbVertex
100
AcDb2dVertex
62
5
10
112.500000
20
28.250000
0
SEQEND
5
7fe
100
AcDbEntity
8
1
0
POLYLINE
5
7ff
100
AcDbEntity
8
1
6
CONTINUOUS
62
5
100
AcDb2dPolyline
66
1
10
0.0
20
0.0
30
0.0
70
0
0
VERTEX
5
800
100
AcDbEntity
8
1
100
AcDbVertex
100
AcDb2dVertex
62
5
10
117.500000
20
28.250000
0
VERTEX
5
801
100
AcDbEntity
8
1
100
AcDbVertex
100
AcDb2dVertex
62
5
10
119.062500
20
35.750000
0
VERTEX
5
802
100
AcDbEntity
8
1
100
AcDbVertex
100
AcDb2dVertex
62
5
10
120.625000
20
28.250000
0
SEQEND
5
803
100
AcDbEntity
8
1
0
LINE
5
804
100
AcDbEntity
8
1
100
AcDbLine
6
CONTINUOUS
62
5
10
118.125000
20
30.750000
11
120.000000
21
30.750000
0
LINE
5
805
100
AcDbEntity
8
1
100
AcDbLine
6
CONTINUOUS
62
5
10
90.000000
20
44.000000
11
90.000000
21
20.000000
0
LINE
5
806
100
AcDbEntity
8
1
100
AcDbLine
6
CONTINUOUS
62
5
10
70.625000
20
34.187500
11
73.750000
21
34.187500
0
LINE
5
807
100
AcDbEntity
8
1
100
AcDbLine
6
CONTINUOUS
62
5
10
72.500000
20
36.375000
11
72.500000
21
27.625000
0
POLYLINE
5
808
100
AcDbEntity
8
1
6
CONTINUOUS
62
5
100
AcDb2dPolyline
66
1
10
0.0
20
0.0
30
0.0
70
0
0
VERTEX
5
809
100
AcDbEntity
8
1
100
AcDbVertex
100
AcDb2dVertex
62
5
10
72.500000
20
34.187500
0
VERTEX
5
80a
100
AcDbEntity
8
1
100
AcDbVertex
100
AcDb2dVertex
62
5
10
71.562500
20
32.000000
0
VERTEX
5
80b
100
AcDbEntity
8
1
100
AcDbVertex
100
AcDb2dVertex
62
5
10
70.625000
20
30.750000
0
SEQEND
5
80c
100
AcDbEntity
8
1
0
LINE
5
80d
100
AcDbEntity
8
1
100
AcDbLine
6
CONTINUOUS
62
5
10
72.500000
20
33.250000
11
73.437500
21
32.000000
0
POLYLINE
5
80e
100
AcDbEntity
8
1
6
CONTINUOUS
62
5
100
AcDb2dPolyline
66
1
10
0.0
20
0.0
30
0.0
70
0
0
VERTEX
5
80f
100
AcDbEntity
8
1
100
AcDbVertex
100
AcDb2dVertex
62
5
10
75.937500
20
36.375000
0
VERTEX
5
810
100
AcDbEntity
8
1
100
AcDbVertex
100
AcDb2dVertex
62
5
10
75.312500
20
35.125000
0
VERTEX
5
811
100
AcDbEntity
8
1
100
AcDbVertex
100
AcDb2dVertex
62
5
10
73.750000
20
33.250000
0
SEQEND
5
812
100
AcDbEntity
8
1
0
POLYLINE
5
813
100
AcDbEntity
8
1
6
CONTINUOUS
62
5
100
AcDb2dPolyline
66
1
10
0.0
20
0.0
30
0.0
70
0
0
VERTEX
5
814
100
AcDbEntity
8
1
100
AcDbVertex
100
AcDb2dVertex
62
5
10
75.312500
20
35.125000
0
VERTEX
5
815
100
AcDbEntity
8
1
100
AcDbVertex
100
AcDb2dVertex
62
5
10
78.437500
20
35.125000
0
VERTEX
5
816
100
AcDbEntity
8
1
100
AcDbVertex
100
AcDb2dVertex
62
5
10
77.500000
20
33.562500
0
VERTEX
5
817
100
AcDbEntity
8
1
100
AcDbVertex
100
AcDb2dVertex
62
5
10
75.937500
20
32.000000
0
VERTEX
5
818
100
AcDbEntity
8
1
100
AcDbVertex
100
AcDb2dVertex
62
5
10
73.750000
20
30.750000
0
SEQEND
5
819
100
AcDbEntity
8
1
0
POLYLINE
5
81a
100
AcDbEntity
8
1
6
CONTINUOUS
62
5
100
AcDb2dPolyline
66
1
10
0.0
20
0.0
30
0.0
70
0
0
VERTEX
5
81b
100
AcDbEntity
8
1
100
AcDbVertex
100
AcDb2dVertex
62
5
10
75.312500
20
35.125000
0
VERTEX
5
81c
100
AcDbEntity
8
1
100
AcDbVertex
100
AcDb2dVertex
62
5
10
75.937500
20
33.562500
0
VERTEX
5
81d
100
AcDbEntity
8
1
100
AcDbVertex
100
AcDb2dVertex
62
5
10
77.187500
20
32.000000
0
VERTEX
5
81e
100
AcDbEntity
8
1
100
AcDbVertex
100
AcDb2dVertex
62
5
10
78.125000
20
31.375000
0
VERTEX
5
81f
100
AcDbEntity
8
1
100
AcDbVertex
100
AcDb2dVertex
62
5
10
79.375000
20
30.750000
0
SEQEND
5
820
100
AcDbEntity
8
1
0
POLYLINE
5
821
100
AcDbEntity
8
1
6
CONTINUOUS
62
5
100
AcDb2dPolyline
66
1
10
0.0
20
0.0
30
0.0
70
1
0
VERTEX
5
822
100
AcDbEntity
8
1
100
AcDbVertex
100
AcDb2dVertex
62
5
10
75.000000
20
30.750000
0
VERTEX
5
823
100
AcDbEntity
8
1
100
AcDbVertex
100
AcDb2dVertex
62
5
10
75.000000
20
27.937500
0
VERTEX
5
824
100
AcDbEntity
8
1
100
AcDbVertex
100
AcDb2dVertex
62
5
10
78.437500
20
27.937500
0
VERTEX
5
825
100
AcDbEntity
8
1
100
AcDbVertex
100
AcDb2dVertex
62
5
10
78.437500
20
30.750000
0
VERTEX
5
826
100
AcDbEntity
8
1
100
AcDbVertex
100
AcDb2dVertex
62
5
10
75.000000
20
30.750000
0
SEQEND
5
827
100
AcDbEntity
8
1
0
LINE
5
828
100
AcDbEntity
8
1
100
AcDbLine
6
CONTINUOUS
62
5
10
54.687500
20
36.375000
11
54.687500
21
35.437500
0
POLYLINE
5
829
100
AcDbEntity
8
1
6
CONTINUOUS
62
5
100
AcDb2dPolyline
66
1
10
0.0
20
0.0
30
0.0
70
0
0
VERTEX
5
82a
100
AcDbEntity
8
1
100
AcDbVertex
100
AcDb2dVertex
62
5
10
50.937500
20
33.250000
0
VERTEX
5
82b
100
AcDbEntity
8
1
100
AcDbVertex
100
AcDb2dVertex
62
5
10
50.937500
20
35.437500
0
VERTEX
5
82c
100
AcDbEntity
8
1
100
AcDbVertex
100
AcDb2dVertex
62
5
10
58.437500
20
35.437500
0
VERTEX
5
82d
100
AcDbEntity
8
1
100
AcDbVertex
100
AcDb2dVertex
62
5
10
58.437500
20
33.250000
0
SEQEND
5
82e
100
AcDbEntity
8
1
0
LINE
5
82f
100
AcDbEntity
8
1
100
AcDbLine
6
CONTINUOUS
62
5
10
51.875000
20
33.562500
11
57.500000
21
33.562500
0
LINE
5
830
100
AcDbEntity
8
1
100
AcDbLine
6
CONTINUOUS
62
5
10
54.687500
20
33.562500
11
54.687500
21
28.250000
0
LINE
5
831
100
AcDbEntity
8
1
100
AcDbLine
6
CONTINUOUS
62
5
10
54.687500
20
31.062500
11
57.500000
21
31.062500
0
POLYLINE
5
832
100
AcDbEntity
8
1
6
CONTINUOUS
62
5
100
AcDb2dPolyline
66
1
10
0.0
20
0.0
30
0.0
70
0
0
VERTEX
5
833
100
AcDbEntity
8
1
100
AcDbVertex
100
AcDb2dVertex
62
5
10
52.500000
20
31.687500
0
VERTEX
5
834
100
AcDbEntity
8
1
100
AcDbVertex
100
AcDb2dVertex
62
5
10
52.187500
20
29.812500
0
VERTEX
5
835
100
AcDbEntity
8
1
100
AcDbVertex
100
AcDb2dVertex
62
5
10
51.562500
20
28.562500
0
VERTEX
5
836
100
AcDbEntity
8
1
100
AcDbVertex
100
AcDb2dVertex
62
5
10
50.625000
20
27.625000
0
SEQEND
5
837
100
AcDbEntity
8
1
0
POLYLINE
5
838
100
AcDbEntity
8
1
6
CONTINUOUS
62
5
100
AcDb2dPolyline
66
1
10
0.0
20
0.0
30
0.0
70
0
0
VERTEX
5
839
100
AcDbEntity
8
1
100
AcDbVertex
100
AcDb2dVertex
62
5
10
52.187500
20
29.812500
0
VERTEX
5
83a
100
AcDbEntity
8
1
100
AcDbVertex
100
AcDb2dVertex
62
5
10
54.687500
20
28.250000
0
VERTEX
5
83b
100
AcDbEntity
8
1
100
AcDbVertex
100
AcDb2dVertex
62
5
10
55.937500
20
27.937500
0
VERTEX
5
83c
100
AcDbEntity
8
1
100
AcDbVertex
100
AcDb2dVertex
62
5
10
59.062500
20
27.625000
0
SEQEND
5
83d
100
AcDbEntity
8
1
0
POLYLINE
5
83e
100
AcDbEntity
8
1
6
CONTINUOUS
62
5
100
AcDb2dPolyline
66
1
10
0.0
20
0.0
30
0.0
70
1
0
VERTEX
5
83f
100
AcDbEntity
8
1
100
AcDbVertex
100
AcDb2dVertex
62
5
10
280.000000
20
20.000000
0
VERTEX
5
840
100
AcDbEntity
8
1
100
AcDbVertex
100
AcDb2dVertex
62
5
10
280.000000
20
44.000000
0
VERTEX
5
841
100
AcDbEntity
8
1
100
AcDbVertex
100
AcDb2dVertex
62
5
10
40.000000
20
44.000000
0
VERTEX
5
842
100
AcDbEntity
8
1
100
AcDbVertex
100
AcDb2dVertex
62
5
10
40.000000
20
20.000000
0
VERTEX
5
843
100
AcDbEntity
8
1
100
AcDbVertex
100
AcDb2dVertex
62
5
10
280.000000
20
20.000000
0
SEQEND
5
844
100
AcDbEntity
8
1
0
LINE
5
845
100
AcDbEntity
8
1
100
AcDbLine
6
CONTINUOUS
62
5
10
40.000000
20
340.000000
11
40.000000
21
308.000000
0
LINE
5
846
100
AcDbEntity
8
1
100
AcDbLine
6
CONTINUOUS
62
5
10
0.000000
20
308.000000
11
320.000000
21
308.000000
0
ARC
5
847
100
AcDbEntity
8
1
100
AcDbCircle
6
CONTINUOUS
62
5
10
194.331410
20
150.000000
40
11.656410
100
AcDbArc
50
118.617203
51
-118.617202
0
ARC
5
848
100
AcDbEntity
8
1
100
AcDbCircle
6
CONTINUOUS
62
5
10
190.875000
20
142.000000
40
3.000000
100
AcDbArc
50
-179.999998
51
0.000000
0
LINE
5
849
100
AcDbEntity
8
1
100
AcDbLine
6
CONTINUOUS
62
5
10
193.875000
20
142.000000
11
193.875000
21
158.000000
0
ARC
5
84a
100
AcDbEntity
8
1
100
AcDbCircle
6
CONTINUOUS
62
5
10
190.875000
20
158.000000
40
3.000000
100
AcDbArc
50
0.000000
51
-179.999998
0
LINE
5
84b
100
AcDbEntity
8
1
100
AcDbLine
6
CONTINUOUS
62
5
10
187.875000
20
158.000000
11
187.875000
21
142.000000
0
ARC
5
84c
100
AcDbEntity
8
1
100
AcDbCircle
6
CONTINUOUS
62
5
10
191.875000
20
143.500000
40
7.000000
100
AcDbArc
50
-89.999999
51
0.000000
0
LINE
5
84d
100
AcDbEntity
8
1
100
AcDbLine
6
CONTINUOUS
62
5
10
198.875000
20
143.500000
11
198.875000
21
156.500000
0
ARC
5
84e
100
AcDbEntity
8
1
100
AcDbCircle
6
CONTINUOUS
62
5
10
191.875000
20
156.500000
40
7.000000
100
AcDbArc
50
0.000000
51
89.999999
0
POLYLINE
5
84f
100
AcDbEntity
8
1
6
CONTINUOUS
62
5
100
AcDb2dPolyline
66
1
10
0.0
20
0.0
30
0.0
70
0
0
VERTEX
5
850
100
AcDbEntity
8
1
100
AcDbVertex
100
AcDb2dVertex
62
5
10
191.875000
20
163.500000
0
VERTEX
5
851
100
AcDbEntity
8
1
100
AcDbVertex
100
AcDb2dVertex
62
5
10
190.875000
20
163.500000
0
VERTEX
5
852
100
AcDbEntity
8
1
100
AcDbVertex
100
AcDb2dVertex
62
5
10
188.360579
20
159.636364
0
SEQEND
5
853
100
AcDbEntity
8
1
0
POLYLINE
5
854
100
AcDbEntity
8
1
6
CONTINUOUS
62
5
100
AcDb2dPolyline
66
1
10
0.0
20
0.0
30
0.0
70
0
0
VERTEX
5
855
100
AcDbEntity
8
1
100
AcDbVertex
100
AcDb2dVertex
62
5
10
188.360579
20
140.363636
0
VERTEX
5
856
100
AcDbEntity
8
1
100
AcDbVertex
100
AcDb2dVertex
62
5
10
190.875000
20
136.500000
0
VERTEX
5
857
100
AcDbEntity
8
1
100
AcDbVertex
100
AcDb2dVertex
62
5
10
191.875000
20
136.500000
0
SEQEND
5
858
100
AcDbEntity
8
1
0
ARC
5
859
100
AcDbEntity
8
1
100
AcDbCircle
6
CONTINUOUS
62
5
10
115.675000
20
158.611459
40
3.800000
100
AcDbArc
50
0.000000
51
52.853313
0
LINE
5
85a
100
AcDbEntity
8
1
100
AcDbLine
6
CONTINUOUS
62
5
10
119.475000
20
158.611459
11
119.475000
21
141.388540
0
ARC
5
85b
100
AcDbEntity
8
1
100
AcDbCircle
6
CONTINUOUS
62
5
10
115.675000
20
141.388540
40
3.800000
100
AcDbArc
50
-52.853313
51
0.000000
0
LINE
5
85c
100
AcDbEntity
8
1
100
AcDbLine
6
CONTINUOUS
62
5
10
117.969659
20
138.359590
11
117.651472
21
138.118539
0
LINE
5
85d
100
AcDbEntity
8
1
100
AcDbLine
6
CONTINUOUS
62
5
10
117.651472
20
161.881461
11
117.969659
21
161.640410
0
ARC
5
85e
100
AcDbEntity
8
1
100
AcDbCircle
6
CONTINUOUS
62
5
10
118.343603
20
163.726381
40
0.500000
100
AcDbArc
50
-179.748202
51
-131.453359
0
LINE
5
85f
100
AcDbEntity
8
1
100
AcDbLine
6
CONTINUOUS
62
5
10
118.012598
20
163.351634
11
118.985051
21
162.492690
0
ARC
5
860
100
AcDbEntity
8
1
100
AcDbCircle
6
CONTINUOUS
62
5
10
115.675000
20
158.745216
40
5.000000
100
AcDbArc
50
0.000000
51
48.546639
0
LINE
5
861
100
AcDbEntity
8
1
100
AcDbLine
6
CONTINUOUS
62
5
10
120.675000
20
158.745216
11
120.675000
21
141.254784
0
ARC
5
862
100
AcDbEntity
8
1
100
AcDbCircle
6
CONTINUOUS
62
5
10
115.675000
20
141.254784
40
5.000000
100
AcDbArc
50
-48.546639
51
0.000000
0
LINE
5
863
100
AcDbEntity
8
1
100
AcDbLine
6
CONTINUOUS
62
5
10
118.985051
20
137.507310
11
118.012598
21
136.648366
0
ARC
5
864
100
AcDbEntity
8
1
100
AcDbCircle
6
CONTINUOUS
62
5
10
118.343603
20
136.273619
40
0.500000
100
AcDbArc
50
131.453359
51
179.482955
0
ARC
5
865
100
AcDbEntity
8
1
100
AcDbCircle
6
CONTINUOUS
62
5
10
78.525000
20
142.600000
40
1.000000
100
AcDbArc
50
-179.999998
51
-89.999999
0
POLYLINE
5
866
100
AcDbEntity
8
1
6
CONTINUOUS
62
5
100
AcDb2dPolyline
66
1
10
0.0
20
0.0
30
0.0
70
0
0
VERTEX
5
867
100
AcDbEntity
8
1
100
AcDbVertex
100
AcDb2dVertex
62
5
10
78.525000
20
141.600000
0
VERTEX
5
868
100
AcDbEntity
8
1
100
AcDbVertex
100
AcDb2dVertex
62
5
10
81.925000
20
141.600000
0
VERTEX
5
869
100
AcDbEntity
8
1
100
AcDbVertex
100
AcDb2dVertex
62
5
10
81.925000
20
138.400000
0
VERTEX
5
86a
100
AcDbEntity
8
1
100
AcDbVertex
100
AcDb2dVertex
62
5
10
78.525000
20
138.400000
0
SEQEND
5
86b
100
AcDbEntity
8
1
0
ARC
5
86c
100
AcDbEntity
8
1
100
AcDbCircle
6
CONTINUOUS
62
5
10
78.525000
20
142.600000
40
4.200000
100
AcDbArc
50
-179.999998
51
-89.999999
0
LINE
5
86d
100
AcDbEntity
8
1
100
AcDbLine
6
CONTINUOUS
62
5
10
74.325000
20
142.600000
11
74.325000
21
157.650000
0
ARC
5
86e
100
AcDbEntity
8
1
100
AcDbCircle
6
CONTINUOUS
62
5
10
78.525000
20
157.650000
40
4.200000
100
AcDbArc
50
148.997280
51
-179.999998
0
ARC
5
86f
100
AcDbEntity
8
1
100
AcDbCircle
6
CONTINUOUS
62
5
10
78.525000
20
157.650000
40
4.200000
100
AcDbArc
50
89.999999
51
148.997280
0
POLYLINE
5
870
100
AcDbEntity
8
1
6
CONTINUOUS
62
5
100
AcDb2dPolyline
66
1
10
0.0
20
0.0
30
0.0
70
0
0
VERTEX
5
871
100
AcDbEntity
8
1
100
AcDbVertex
100
AcDb2dVertex
62
5
10
78.525000
20
161.850000
0
VERTEX
5
872
100
AcDbEntity
8
1
100
AcDbVertex
100
AcDb2dVertex
62
5
10
81.925000
20
161.850000
0
VERTEX
5
873
100
AcDbEntity
8
1
100
AcDbVertex
100
AcDb2dVertex
62
5
10
81.925000
20
158.650000
0
VERTEX
5
874
100
AcDbEntity
8
1
100
AcDbVertex
100
AcDb2dVertex
62
5
10
78.525000
20
158.650000
0
SEQEND
5
875
100
AcDbEntity
8
1
0
ARC
5
876
100
AcDbEntity
8
1
100
AcDbCircle
6
CONTINUOUS
62
5
10
78.525000
20
157.650000
40
1.000000
100
AcDbArc
50
89.999999
51
-179.999998
0
LINE
5
877
100
AcDbEntity
8
1
100
AcDbLine
6
CONTINUOUS
62
5
10
77.525000
20
157.650000
11
77.525000
21
142.600000
0
LINE
5
878
100
AcDbEntity
8
1
100
AcDbLine
6
CONTINUOUS
62
5
10
240.175000
20
210.000000
11
272.675000
21
210.000000
0
LINE
5
879
100
AcDbEntity
8
1
100
AcDbLine
6
CONTINUOUS
62
5
10
240.175000
20
90.000000
11
272.675000
21
90.000000
0
POLYLINE
5
87a
100
AcDbEntity
8
1
6
CONTINUOUS
62
5
100
AcDb2dPolyline
66
1
10
0.0
20
0.0
30
0.0
70
0
0
VERTEX
5
87b
100
AcDbEntity
8
1
100
AcDbVertex
100
AcDb2dVertex
62
5
10
270.675000
20
150.000000
0
VERTEX
5
87c
100
AcDbEntity
8
1
100
AcDbVertex
100
AcDb2dVertex
62
5
10
270.675000
20
90.000000
0
VERTEX
5
87d
100
AcDbEntity
8
1
100
AcDbVertex
100
AcDb2dVertex
62
5
10
269.675000
20
96.000000
0
VERTEX
5
87e
100
AcDbEntity
8
1
100
AcDbVertex
100
AcDb2dVertex
62
5
10
271.675000
20
96.000000
0
VERTEX
5
87f
100
AcDbEntity
8
1
100
AcDbVertex
100
AcDb2dVertex
62
5
10
270.675000
20
90.000000
0
VERTEX
5
880
100
AcDbEntity
8
1
100
AcDbVertex
100
AcDb2dVertex
62
5
10
270.175000
20
96.000000
0
VERTEX
5
881
100
AcDbEntity
8
1
100
AcDbVertex
100
AcDb2dVertex
62
5
10
271.175000
20
96.000000
0
VERTEX
5
882
100
AcDbEntity
8
1
100
AcDbVertex
100
AcDb2dVertex
62
5
10
270.675000
20
90.000000
0
SEQEND
5
883
100
AcDbEntity
8
1
0
POLYLINE
5
884
100
AcDbEntity
8
1
6
CONTINUOUS
62
5
100
AcDb2dPolyline
66
1
10
0.0
20
0.0
30
0.0
70
0
0
VERTEX
5
885
100
AcDbEntity
8
1
100
AcDbVertex
100
AcDb2dVertex
62
5
10
270.675000
20
150.000000
0
VERTEX
5
886
100
AcDbEntity
8
1
100
AcDbVertex
100
AcDb2dVertex
62
5
10
270.675000
20
210.000000
0
VERTEX
5
887
100
AcDbEntity
8
1
100
AcDbVertex
100
AcDb2dVertex
62
5
10
271.675000
20
204.000000
0
VERTEX
5
888
100
AcDbEntity
8
1
100
AcDbVertex
100
AcDb2dVertex
62
5
10
269.675000
20
204.000000
0
VERTEX
5
889
100
AcDbEntity
8
1
100
AcDbVertex
100
AcDb2dVertex
62
5
10
270.675000
20
210.000000
0
VERTEX
5
88a
100
AcDbEntity
8
1
100
AcDbVertex
100
AcDb2dVertex
62
5
10
271.175000
20
204.000000
0
VERTEX
5
88b
100
AcDbEntity
8
1
100
AcDbVertex
100
AcDb2dVertex
62
5
10
270.175000
20
204.000000
0
VERTEX
5
88c
100
AcDbEntity
8
1
100
AcDbVertex
100
AcDb2dVertex
62
5
10
270.675000
20
210.000000
0
SEQEND
5
88d
100
AcDbEntity
8
1
0
ARC
5
88e
100
AcDbEntity
8
1
100
AcDbCircle
6
CONTINUOUS
62
5
10
230.175000
20
181.700000
40
1.000000
100
AcDbArc
50
0.000000
51
89.999999
0
LINE
5
88f
100
AcDbEntity
8
1
100
AcDbLine
6
CONTINUOUS
62
5
10
231.175000
20
181.700000
11
231.175000
21
118.300000
0
ARC
5
890
100
AcDbEntity
8
1
100
AcDbCircle
6
CONTINUOUS
62
5
10
230.175000
20
118.300000
40
1.000000
100
AcDbArc
50
-89.999999
51
-0.000000
0
LINE
5
891
100
AcDbEntity
8
1
100
AcDbLine
6
CONTINUOUS
62
5
10
230.175000
20
117.300000
11
229.375000
21
117.300000
0
LINE
5
892
100
AcDbEntity
8
1
100
AcDbLine
6
CONTINUOUS
62
5
10
229.054168
20
182.700000
11
230.175000
21
182.700000
0
ARC
5
893
100
AcDbEntity
8
1
100
AcDbCircle
6
CONTINUOUS
62
5
10
229.975000
20
118.050000
40
0.700000
100
AcDbArc
50
-89.999999
51
0.000000
0
LINE
5
894
100
AcDbEntity
8
1
100
AcDbLine
6
CONTINUOUS
62
5
10
230.675000
20
118.050000
11
230.675000
21
181.950000
0
ARC
5
895
100
AcDbEntity
8
1
100
AcDbCircle
6
CONTINUOUS
62
5
10
229.975000
20
181.950000
40
0.700000
100
AcDbArc
50
0.000000
51
89.999999
0
LINE
5
896
100
AcDbEntity
8
1
100
AcDbLine
6
CONTINUOUS
62
5
10
230.175000
20
117.350000
11
229.975000
21
117.350000
0
LINE
5
897
100
AcDbEntity
8
1
100
AcDbLine
6
CONTINUOUS
62
5
10
98.325000
20
170.000000
11
100.174957
21
170.000000
0
LINE
5
898
100
AcDbEntity
8
1
100
AcDbLine
6
CONTINUOUS
62
5
10
100.174966
20
160.000000
11
98.325000
21
160.000000
0
ARC
5
899
100
AcDbEntity
8
1
100
AcDbCircle
6
CONTINUOUS
62
5
10
192.475000
20
181.900000
40
1.000000
100
AcDbArc
50
89.999999
51
131.409613
0
ARC
5
89a
100
AcDbEntity
8
1
100
AcDbCircle
6
CONTINUOUS
62
5
10
192.475000
20
118.100000
40
1.000000
100
AcDbArc
50
-131.409613
51
-89.999999
0
ARC
5
89b
100
AcDbEntity
8
1
100
AcDbCircle
6
CONTINUOUS
62
5
10
94.558864
20
175.800000
40
0.200000
100
AcDbArc
50
89.999999
51
-171.073921
0
POLYLINE
5
89c
100
AcDbEntity
8
1
6
CONTINUOUS
62
5
100
AcDb2dPolyline
66
1
10
0.0
20
0.0
30
0.0
70
0
0
VERTEX
5
89d
100
AcDbEntity
8
1
100
AcDbVertex
100
AcDb2dVertex
62
5
10
94.361286
20
175.768968
0
VERTEX
5
89e
100
AcDbEntity
8
1
100
AcDbVertex
100
AcDb2dVertex
62
5
10
94.525000
20
174.726619
0
VERTEX
5
89f
100
AcDbEntity
8
1
100
AcDbVertex
100
AcDb2dVertex
62
5
10
82.907017
20
174.517662
0
SEQEND
5
8a0
100
AcDbEntity
8
1
0
ARC
5
8a1
100
AcDbEntity
8
1
100
AcDbCircle
6
CONTINUOUS
62
5
10
82.925000
20
173.517824
40
1.000000
100
AcDbArc
50
91.030388
51
-179.999998
0
LINE
5
8a2
100
AcDbEntity
8
1
100
AcDbLine
6
CONTINUOUS
62
5
10
81.925000
20
173.517824
11
81.925000
21
156.482176
0
ARC
5
8a3
100
AcDbEntity
8
1
100
AcDbCircle
6
CONTINUOUS
62
5
10
82.925000
20
156.482176
40
1.000000
100
AcDbArc
50
-179.999998
51
-91.030388
0
POLYLINE
5
8a4
100
AcDbEntity
8
1
6
CONTINUOUS
62
5
100
AcDb2dPolyline
66
1
10
0.0
20
0.0
30
0.0
70
0
0
VERTEX
5
8a5
100
AcDbEntity
8
1
100
AcDbVertex
100
AcDb2dVertex
62
5
10
82.907017
20
155.482338
0
VERTEX
5
8a6
100
AcDbEntity
8
1
100
AcDbVertex
100
AcDb2dVertex
62
5
10
94.525000
20
155.273381
0
VERTEX
5
8a7
100
AcDbEntity
8
1
100
AcDbVertex
100
AcDb2dVertex
62
5
10
94.361286
20
154.231032
0
SEQEND
5
8a8
100
AcDbEntity
8
1
0
ARC
5
8a9
100
AcDbEntity
8
1
100
AcDbCircle
6
CONTINUOUS
62
5
10
94.558864
20
154.200000
40
0.200000
100
AcDbArc
50
171.073921
51
-89.999999
0
LINE
5
8aa
100
AcDbEntity
8
1
100
AcDbLine
6
CONTINUOUS
62
5
10
94.558864
20
154.000000
11
98.325000
21
154.000000
0
LINE
5
8ab
100
AcDbEntity
8
1
100
AcDbLine
6
CONTINUOUS
62
5
10
98.325000
20
176.000000
11
94.558864
21
176.000000
0
POLYLINE
5
8ac
100
AcDbEntity
8
1
6
CONTINUOUS
62
5
100
AcDb2dPolyline
66
1
10
0.0
20
0.0
30
0.0
70
0
0
VERTEX
5
8ad
100
AcDbEntity
8
1
100
AcDbVertex
100
AcDb2dVertex
62
5
10
100.174972
20
153.650000
0
VERTEX
5
8ae
100
AcDbEntity
8
1
100
AcDbVertex
100
AcDb2dVertex
62
5
10
98.325000
20
153.650000
0
VERTEX
5
8af
100
AcDbEntity
8
1
100
AcDbVertex
100
AcDb2dVertex
62
5
10
98.325000
20
176.350000
0
VERTEX
5
8b0
100
AcDbEntity
8
1
100
AcDbVertex
100
AcDb2dVertex
62
5
10
100.174951
20
176.350000
0
SEQEND
5
8b1
100
AcDbEntity
8
1
0
ARC
5
8b2
100
AcDbEntity
8
1
100
AcDbCircle
6
CONTINUOUS
62
5
10
117.400557
20
117.650000
40
0.300000
100
AcDbArc
50
-71.146996
51
-0.617913
0
ARC
5
8b3
100
AcDbEntity
8
1
100
AcDbCircle
6
CONTINUOUS
62
5
10
-2882.125002
20
150.000000
40
3000.000002
100
AcDbArc
50
-0.617913
51
0.617913
0
ARC
5
8b4
100
AcDbEntity
8
1
100
AcDbCircle
6
CONTINUOUS
62
5
10
117.400557
20
182.350000
40
0.300000
100
AcDbArc
50
0.617913
51
71.146996
0
ARC
5
8b5
100
AcDbEntity
8
1
100
AcDbCircle
6
CONTINUOUS
62
5
10
103.675000
20
121.065420
40
1.000000
100
AcDbArc
50
-0.055777
51
86.126409
0
LINE
5
8b6
100
AcDbEntity
8
1
100
AcDbLine
6
CONTINUOUS
62
5
10
103.742555
20
122.063136
11
100.641222
21
122.273127
0
ARC
5
8b7
100
AcDbEntity
8
1
100
AcDbCircle
6
CONTINUOUS
62
5
10
100.675000
20
122.771985
40
0.500000
100
AcDbArc
50
179.999998
51
-93.873589
0
LINE
5
8b8
100
AcDbEntity
8
1
100
AcDbLine
6
CONTINUOUS
62
5
10
100.175000
20
122.771985
11
100.174950
21
177.227143
0
ARC
5
8b9
100
AcDbEntity
8
1
100
AcDbCircle
6
CONTINUOUS
62
5
10
100.674949
20
177.228060
40
0.500000
100
AcDbArc
50
93.872902
51
-179.894920
0
LINE
5
8ba
100
AcDbEntity
8
1
100
AcDbLine
6
CONTINUOUS
62
5
10
100.641178
20
177.726918
11
103.742543
21
177.936875
0
ARC
5
8bb
100
AcDbEntity
8
1
100
AcDbCircle
6
CONTINUOUS
62
5
10
103.675000
20
178.934591
40
1.000000
100
AcDbArc
50
-86.127096
51
0.000000
0
ARC
5
8bc
100
AcDbEntity
8
1
100
AcDbCircle
6
CONTINUOUS
62
5
10
113.155427
20
94.205635
40
4.000000
100
AcDbArc
50
-85.539712
51
-1.067078
0
ARC
5
8bd
100
AcDbEntity
8
1
100
AcDbCircle
6
CONTINUOUS
62
5
10
-2882.325002
20
150.000000
40
3000.000002
100
AcDbArc
50
-1.067078
51
1.067078
0
ARC
5
8be
100
AcDbEntity
8
1
100
AcDbCircle
6
CONTINUOUS
62
5
10
113.155427
20
205.794365
40
4.000000
100
AcDbArc
50
1.067078
51
85.539712
0
POLYLINE
5
8bf
100
AcDbEntity
8
1
6
CONTINUOUS
62
5
100
AcDb2dPolyline
66
1
10
0.0
20
0.0
30
0.0
70
0
0
VERTEX
5
8c0
100
AcDbEntity
8
1
100
AcDbVertex
100
AcDb2dVertex
62
5
10
113.466499
20
209.782251
0
VERTEX
5
8c1
100
AcDbEntity
8
1
100
AcDbVertex
100
AcDb2dVertex
62
5
10
110.675000
20
210.000000
0
VERTEX
5
8c2
100
AcDbEntity
8
1
100
AcDbVertex
100
AcDb2dVertex
62
5
10
110.675000
20
90.000000
0
VERTEX
5
8c3
100
AcDbEntity
8
1
100
AcDbVertex
100
AcDb2dVertex
62
5
10
113.466499
20
90.217749
0
SEQEND
5
8c4
100
AcDbEntity
8
1
0
ARC
5
8c5
100
AcDbEntity
8
1
100
AcDbCircle
6
CONTINUOUS
62
5
10
191.575000
20
118.050000
40
0.700000
100
AcDbArc
50
179.999998
51
-89.999999
0
LINE
5
8c6
100
AcDbEntity
8
1
100
AcDbLine
6
CONTINUOUS
62
5
10
191.575000
20
117.350000
11
230.275000
21
117.350000
0
ARC
5
8c7
100
AcDbEntity
8
1
100
AcDbCircle
6
CONTINUOUS
62
5
10
230.275000
20
118.050000
40
0.700000
100
AcDbArc
50
-89.999999
51
-0.000000
0
LINE
5
8c8
100
AcDbEntity
8
1
100
AcDbLine
6
CONTINUOUS
62
5
10
230.975000
20
118.050000
11
230.975000
21
181.950000
0
ARC
5
8c9
100
AcDbEntity
8
1
100
AcDbCircle
6
CONTINUOUS
62
5
10
230.275000
20
181.950000
40
0.700000
100
AcDbArc
50
-0.000000
51
89.999999
0
LINE
5
8ca
100
AcDbEntity
8
1
100
AcDbLine
6
CONTINUOUS
62
5
10
230.275000
20
182.650000
11
191.575000
21
182.650000
0
ARC
5
8cb
100
AcDbEntity
8
1
100
AcDbCircle
6
CONTINUOUS
62
5
10
191.575000
20
181.950000
40
0.700000
100
AcDbArc
50
89.999999
51
179.999998
0
LINE
5
8cc
100
AcDbEntity
8
1
100
AcDbLine
6
CONTINUOUS
62
5
10
190.875000
20
181.950000
11
190.875000
21
163.500000
0
LINE
5
8cd
100
AcDbEntity
8
1
100
AcDbLine
6
CONTINUOUS
62
5
10
190.875000
20
136.500000
11
190.875000
21
118.050000
0
ARC
5
8ce
100
AcDbEntity
8
1
100
AcDbCircle
6
CONTINUOUS
62
5
10
230.375000
20
181.900000
40
1.000000
100
AcDbArc
50
0.000000
51
89.999999
0
LINE
5
8cf
100
AcDbEntity
8
1
100
AcDbLine
6
CONTINUOUS
62
5
10
231.375000
20
181.900000
11
231.375000
21
118.100000
0
ARC
5
8d0
100
AcDbEntity
8
1
100
AcDbCircle
6
CONTINUOUS
62
5
10
230.375000
20
118.100000
40
1.000000
100
AcDbArc
50
-89.999999
51
0.000000
0
LINE
5
8d1
100
AcDbEntity
8
1
100
AcDbLine
6
CONTINUOUS
62
5
10
230.375000
20
117.100000
11
229.000001
21
117.100000
0
LINE
5
8d2
100
AcDbEntity
8
1
100
AcDbLine
6
CONTINUOUS
62
5
10
226.749999
20
117.100000
11
191.474999
21
117.100000
0
ARC
5
8d3
100
AcDbEntity
8
1
100
AcDbCircle
6
CONTINUOUS
62
5
10
191.474999
20
118.100000
40
1.000000
100
AcDbArc
50
179.999998
51
-89.999999
0
LINE
5
8d4
100
AcDbEntity
8
1
100
AcDbLine
6
CONTINUOUS
62
5
10
190.474999
20
118.100000
11
190.475000
21
137.114637
0
LINE
5
8d5
100
AcDbEntity
8
1
100
AcDbLine
6
CONTINUOUS
62
5
10
190.474999
20
162.885363
11
190.474999
21
181.900000
0
ARC
5
8d6
100
AcDbEntity
8
1
100
AcDbCircle
6
CONTINUOUS
62
5
10
191.474999
20
181.900000
40
1.000000
100
AcDbArc
50
89.999999
51
179.999998
0
LINE
5
8d7
100
AcDbEntity
8
1
100
AcDbLine
6
CONTINUOUS
62
5
10
191.474999
20
182.900000
11
226.779166
21
182.900000
0
LINE
5
8d8
100
AcDbEntity
8
1
100
AcDbLine
6
CONTINUOUS
62
5
10
228.970834
20
182.900000
11
230.375000
21
182.900000
0
ARC
5
8d9
100
AcDbEntity
8
1
100
AcDbCircle
6
CONTINUOUS
62
5
10
182.675000
20
203.000000
40
7.000000
100
AcDbArc
50
89.999999
51
179.999998
0
LINE
5
8da
100
AcDbEntity
8
1
100
AcDbLine
6
CONTINUOUS
62
5
10
182.675000
20
210.000000
11
238.675000
21
210.000000
0
ARC
5
8db
100
AcDbEntity
8
1
100
AcDbCircle
6
CONTINUOUS
62
5
10
238.675000
20
203.000000
40
7.000000
100
AcDbArc
50
0.000000
51
89.999999
0
LINE
5
8dc
100
AcDbEntity
8
1
100
AcDbLine
6
CONTINUOUS
62
5
10
245.675000
20
203.000000
11
245.675000
21
97.000000
0
ARC
5
8dd
100
AcDbEntity
8
1
100
AcDbCircle
6
CONTINUOUS
62
5
10
238.675000
20
97.000000
40
7.000000
100
AcDbArc
50
-89.999999
51
-0.000000
0
POLYLINE
5
8de
100
AcDbEntity
8
1
6
CONTINUOUS
62
5
100
AcDb2dPolyline
66
1
10
0.0
20
0.0
30
0.0
70
0
0
VERTEX
5
8df
100
AcDbEntity
8
1
100
AcDbVertex
100
AcDb2dVertex
62
5
10
238.675000
20
90.000000
0
VERTEX
5
8e0
100
AcDbEntity
8
1
100
AcDbVertex
100
AcDb2dVertex
62
5
10
214.175000
20
90.000000
0
VERTEX
5
8e1
100
AcDbEntity
8
1
100
AcDbVertex
100
AcDb2dVertex
62
5
10
214.175000
20
90.071429
0
VERTEX
5
8e2
100
AcDbEntity
8
1
100
AcDbVertex
100
AcDb2dVertex
62
5
10
207.175000
20
90.071429
0
VERTEX
5
8e3
100
AcDbEntity
8
1
100
AcDbVertex
100
AcDb2dVertex
62
5
10
207.175000
20
90.000000
0
VERTEX
5
8e4
100
AcDbEntity
8
1
100
AcDbVertex
100
AcDb2dVertex
62
5
10
182.675000
20
90.000000
0
SEQEND
5
8e5
100
AcDbEntity
8
1
0
ARC
5
8e6
100
AcDbEntity
8
1
100
AcDbCircle
6
CONTINUOUS
62
5
10
182.675000
20
97.000000
40
7.000000
100
AcDbArc
50
-179.999998
51
-89.999999
0
LINE
5
8e7
100
AcDbEntity
8
1
100
AcDbLine
6
CONTINUOUS
62
5
10
175.675000
20
97.000000
11
175.675000
21
203.000000
0
POLYLINE
5
8e8
100
AcDbEntity
8
1
6
CONTINUOUS
62
5
100
AcDb2dPolyline
66
1
10
0.0
20
0.0
30
0.0
70
1
0
VERTEX
5
8e9
100
AcDbEntity
8
1
100
AcDbVertex
100
AcDb2dVertex
62
5
10
0.000000
20
0.000000
0
VERTEX
5
8ea
100
AcDbEntity
8
1
100
AcDbVertex
100
AcDb2dVertex
62
5
10
0.000000
20
340.000000
0
VERTEX
5
8eb
100
AcDbEntity
8
1
100
AcDbVertex
100
AcDb2dVertex
62
5
10
320.000000
20
340.000000
0
VERTEX
5
8ec
100
AcDbEntity
8
1
100
AcDbVertex
100
AcDb2dVertex
62
5
10
320.000000
20
0.000000
0
VERTEX
5
8ed
100
AcDbEntity
8
1
100
AcDbVertex
100
AcDb2dVertex
62
5
10
0.000000
20
0.000000
0
SEQEND
5
8ee
100
AcDbEntity
8
1
0
ENDSEC
0
SECTION
2
OBJECTS
0
DICTIONARY
5
8ef
100
AcDbDictionary
3
ACAD_GROUP
350
8f0
3
ACAD_MLINESTYLE
350
8f1
0
DICTIONARY
5
8f0
102
{ACAD_REACTORS
330
8ef
102
}
100
AcDbDictionary
0
DICTIONARY
5
8f1
102
{ACAD_REACTORS
330
8ef
102
}
100
AcDbDictionary
3
STANDARD
350
8f2
0
MLINESTYLE
5
8f2
102
{ACAD_REACTORS
330
8f1
102
}
100
AcDbMlineStyle
2
STANDARD
70
0
3

62
0
51
90.0
52
90.0
71
2
49
0.5
62
256
6
BYLAYER
49
-0.5
62
256
6
BYLAYER
0
ENDSEC
0
EOF
