0
SECTION
2
HEADER
9
$ACADVER
1
AC1012
9
$EXTMIN
10
-0.013701
20
-0.013701
30
0.0
9
$EXTMAX
10
12.606299
20
13.386299
30
0.0
9
$LIMMIN
10
-0.348005
20
-0.348005
9
$LIMMAX
10
320.199995
20
340.011995
9
$DIMSCALE
40
1.000000
9
$PDMODE
70
2
9
$PDSIZE
40
0.0
  9
$HANDSEED
  5
c48
0
ENDSEC
0
SECTION
2
CLASSES
0
ENDSEC
0
SECTION
2
TABLES
0
TABLE
2
LTYPE
5
1e
100
AcDbSymbolTable
70
12
0
LTYPE
5
1f
100
AcDbSymbolTableRecord
100
AcDbLinetypeTableRecord
2
BYBLOCK
70
0
3

72
65
73
0
40
0.0
0
LTYPE
5
20
100
AcDbSymbolTableRecord
100
AcDbLinetypeTableRecord
2
BYLAYER
70
0
3

72
65
73
0
40
0.0
0
LTYPE
5
21
100
AcDbSymbolTableRecord
100
AcDbLinetypeTableRecord
2
CONTINUOUS
70
64
3
Solid line
72
65
73
0
40
0.0
0
LTYPE
5
22
100
AcDbSymbolTableRecord
100
AcDbLinetypeTableRecord
2
DASHED
70
64
3
__ __ __ __ __ __ __ __ __ __ __ __ __ __ __
72
65
73
2
40
0.75
49
0.5
74
0
49
-0.25
74
0
0
LTYPE
5
23
100
AcDbSymbolTableRecord
100
AcDbLinetypeTableRecord
2
DOT
70
64
3
...............................................
72
65
73
2
40
0.25
49
0.0
74
0
49
-0.25
74
0
0
LTYPE
5
24
100
AcDbSymbolTableRecord
100
AcDbLinetypeTableRecord
2
DASHDOT
70
64
3
__ . __ . __ . __ . __ . __ . __ . __ . __ . --
72
65
73
4
40
1.0
49
0.5
74
0
49
-0.25
74
0
49
0.0
74
0
49
-0.25
74
0
0
LTYPE
5
25
100
AcDbSymbolTableRecord
100
AcDbLinetypeTableRecord
2
CENTER
70
64
3
____ _ ____ _ ____ _ ____ _ ____ _ ____ _ ____
72
65
73
4
40
2.0
49
1.25
74
0
49
-0.25
74
0
49
0.25
74
0
49
-0.25
74
0
0
LTYPE
5
26
100
AcDbSymbolTableRecord
100
AcDbLinetypeTableRecord
2
PHANTOM
70
64
3
_____ _ _ _____ _ _ _____ _ _ _____ _ _ ____
72
65
73
6
40
2.5
49
1.25
74
0
49
-0.25
74
0
49
0.25
74
0
49
-0.25
74
0
49
0.25
74
0
49
-0.25
74
0
0
LTYPE
5
27
100
AcDbSymbolTableRecord
100
AcDbLinetypeTableRecord
2
HIDDEN
70
64
3
_ _ _ _ _ _ _ _ _ _ _ _ _ _ _ _ _ _ _ _ _ _ _
72
65
73
2
40
0.375
49
0.25
74
0
49
-0.125
74
0
0
LTYPE
5
28
100
AcDbSymbolTableRecord
100
AcDbLinetypeTableRecord
2
BORDER
70
64
3
__ __ . __ __ . __ __ . __ __ . __ __ . __ __
72
65
73
6
40
1.75
49
0.5
74
0
49
-0.25
74
0
49
0.5
74
0
49
-0.25
74
0
49
0.0
74
0
49
-0.25
74
0
0
LTYPE
5
29
100
AcDbSymbolTableRecord
100
AcDbLinetypeTableRecord
2
DIVIDE
70
64
3
__ . . __ . . __ . . __ . . __ . . __ . . __
72
65
73
6
40
1.25
49
0.5
74
0
49
-0.25
74
0
49
0.0
74
0
49
-0.25
74
0
49
0.0
74
0
49
-0.25
74
0
0
LTYPE
5
2a
100
AcDbSymbolTableRecord
100
AcDbLinetypeTableRecord
2
DOT2
70
64
3
...............................................
72
65
73
2
40
0.125
49
0.0
74
0
49
-0.125
74
0
0
ENDTAB
0
TABLE
2
STYLE
5
2b
100
AcDbSymbolTable
70
1
0
STYLE
5
2c
100
AcDbSymbolTableRecord
100
AcDbTextStyleTableRecord
2
STANDARD
70
64
40
0.0
41
1.0
50
0.0
71
0
42
5.0
3
txt
4
bigfont
0
ENDTAB
0
TABLE
2
LAYER
5
2d
100
AcDbSymbolTable
70
3
0
LAYER
5
2e
100
AcDbSymbolTableRecord
100
AcDbLayerTableRecord
2
0
70
0
62
7
6
CONTINUOUS
0
LAYER
5
2f
100
AcDbSymbolTableRecord
100
AcDbLayerTableRecord
2
1
70
0
62
7
6
CONTINUOUS
0
LAYER
5
30
100
AcDbSymbolTableRecord
100
AcDbLayerTableRecord
2
0
70
0
62
7
6
CONTINUOUS
0
ENDTAB
0
TABLE
2
APPID
5
31
100
AcDbSymbolTable
70
1
0
APPID
5
32
100
AcDbSymbolTableRecord
100
AcDbRegAppTableRecord
2
ACAD
70
64
0
ENDTAB
0
TABLE
2
DIMSTYLE
5
33
100
AcDbSymbolTable
70
0
0
ENDTAB
0
TABLE
2
UCS
5
34
100
AcDbSymbolTable
70
0
0
ENDTAB
0
TABLE
2
VIEW
5
35
100
AcDbSymbolTable
70
0
0
ENDTAB
0
TABLE
2
VPORT
5
36
100
AcDbSymbolTable
70
0
0
ENDTAB
0
TABLE
2
BLOCK_RECORD
5
37
100
AcDbSymbolTable
70
0
0
BLOCK_RECORD
5
38
100
AcDbSymbolTableRecord
100
AcDbBlockTableRecord
2
*MODEL_SPACE
0
BLOCK_RECORD
5
39
100
AcDbSymbolTableRecord
100
AcDbBlockTableRecord
2
*PAPER_SPACE
0
BLOCK_RECORD
5
3a
100
AcDbSymbolTableRecord
100
AcDbBlockTableRecord
2
OPEN
0
BLOCK_RECORD
5
3b
100
AcDbSymbolTableRecord
100
AcDbBlockTableRecord
2
HALF
0
BLOCK_RECORD
5
3c
100
AcDbSymbolTableRecord
100
AcDbBlockTableRecord
2
CLOSEDBLANK
0
BLOCK_RECORD
5
3d
100
AcDbSymbolTableRecord
100
AcDbBlockTableRecord
2
HALFCLOSE_R
0
BLOCK_RECORD
5
3e
100
AcDbSymbolTableRecord
100
AcDbBlockTableRecord
2
DOT
0
BLOCK_RECORD
5
3f
100
AcDbSymbolTableRecord
100
AcDbBlockTableRecord
2
HALFOPEN_R
0
BLOCK_RECORD
5
40
100
AcDbSymbolTableRecord
100
AcDbBlockTableRecord
2
CLOSEDF
0
BLOCK_RECORD
5
41
100
AcDbSymbolTableRecord
100
AcDbBlockTableRecord
2
HALF_R
0
ENDTAB
0
ENDSEC
0
SECTION
2
BLOCKS
0
BLOCK
5
42
100
AcDbEntity
8
0
100
AcDbBlockBegin
2
*MODEL_SPACE
70
0
10
0.0
20
0.0
30
0.0
3
*MODEL_SPACE
1

0
ENDBLK
5
43
100
AcDbEntity
8
0
100
AcDbBlockEnd
0
BLOCK
5
44
100
AcDbEntity
67
1
8
0
100
AcDbBlockBegin
2
*PAPER_SPACE
70
0
10
0.0
20
0.0
30
0.0
3
*PAPER_SPACE
1

0
ENDBLK
5
45
100
AcDbEntity
67
1
8
0
100
AcDbBlockEnd
0
BLOCK
5
46
100
AcDbEntity
8
0
100
AcDbBlockBegin
2
OPEN
70
0
10
0.0
20
0.0
30
0.0
3
OPEN
1

0
LINE
5
47
100
AcDbEntity
8
0
6
BYBLOCK
62
0
100
AcDbLine
10
0.000000
20
0.000000
11
-1.000000
21
0.000000
0
LINE
5
48
100
AcDbEntity
8
0
6
BYBLOCK
62
0
100
AcDbLine
10
-1.000000
20
-0.166667
11
0.000000
21
0.000000
0
LINE
5
49
100
AcDbEntity
8
0
6
BYBLOCK
62
0
100
AcDbLine
10
-1.000000
20
0.166667
11
0.000000
21
0.000000
0
ENDBLK
5
4a
100
AcDbEntity
8
0
100
AcDbBlockEnd
0
BLOCK
5
4b
100
AcDbEntity
8
0
100
AcDbBlockBegin
2
HALF
70
0
10
0.0
20
0.0
30
0.0
3
HALF
1

0
SOLID
5
4c
100
AcDbEntity
8
0
6
BYBLOCK
62
0
100
AcDbTrace
10
-1.000000
20
0.166667
11
-1.000000
21
-0.166667
12
0.000000
22
0.000000
13
0.000000
23
0.000000
0
ENDBLK
5
4d
100
AcDbEntity
8
0
100
AcDbBlockEnd
0
BLOCK
5
4e
100
AcDbEntity
8
0
100
AcDbBlockBegin
2
CLOSEDBLANK
70
0
10
0.0
20
0.0
30
0.0
3
CLOSEDBLANK
1

0
LINE
5
4f
100
AcDbEntity
8
0
6
BYBLOCK
62
0
100
AcDbLine
10
-1.000000
20
0.166667
11
-1.000000
21
-0.166667
0
LINE
5
50
100
AcDbEntity
8
0
6
BYBLOCK
62
0
100
AcDbLine
10
0.000000
20
0.000000
11
-1.000000
21
-0.166667
0
LINE
5
51
100
AcDbEntity
8
0
6
BYBLOCK
62
0
100
AcDbLine
10
-1.000000
20
0.166667
11
0.000000
21
0.000000
0
ENDBLK
5
52
100
AcDbEntity
8
0
100
AcDbBlockEnd
0
BLOCK
5
53
100
AcDbEntity
8
0
100
AcDbBlockBegin
2
HALFCLOSE_R
70
0
10
0.0
20
0.0
30
0.0
3
HALFCLOSE_R
1

0
LINE
5
54
100
AcDbEntity
8
0
6
BYBLOCK
62
0
100
AcDbLine
10
-1.000000
20
-0.166667
11
-1.000000
21
0.000000
0
LINE
5
55
100
AcDbEntity
8
0
6
BYBLOCK
62
0
100
AcDbLine
10
-1.000000
20
-0.166667
11
0.000000
21
0.000000
0
LINE
5
56
100
AcDbEntity
8
0
6
BYBLOCK
62
0
100
AcDbLine
10
0.000000
20
0.000000
11
-1.000000
21
0.000000
0
ENDBLK
5
57
100
AcDbEntity
8
0
100
AcDbBlockEnd
0
BLOCK
5
58
100
AcDbEntity
8
0
100
AcDbBlockBegin
2
DOT
70
0
10
0.0
20
0.0
30
0.0
3
DOT
1

0
LINE
5
59
100
AcDbEntity
8
0
6
BYBLOCK
62
0
100
AcDbLine
10
0.000000
20
0.000000
11
-1.000000
21
0.000000
0
POLYLINE
5
5a
100
AcDbEntity
8
0
6
BYBLOCK
62
0
100
AcDb2dPolyline
66
1
10
0.0
20
0.0
30
0.0
70
1
40
0.166667
41
0.166667
0
VERTEX
5
5b
100
AcDbEntity
8
0
100
AcDbVertex
100
AcDb2dVertex
62
10
10
-0.083333
20
0.000000
42
1.000000
0
VERTEX
5
5c
100
AcDbEntity
8
0
100
AcDbVertex
100
AcDb2dVertex
62
10
10
0.083333
20
0.000000
42
1.000000
0
SEQEND
5
5d
100
AcDbEntity
8
0
0
ENDBLK
5
5e
100
AcDbEntity
8
0
100
AcDbBlockEnd
0
BLOCK
5
5f
100
AcDbEntity
8
0
100
AcDbBlockBegin
2
HALFOPEN_R
70
0
10
0.0
20
0.0
30
0.0
3
HALFOPEN_R
1

0
LINE
5
60
100
AcDbEntity
8
0
6
BYBLOCK
62
0
100
AcDbLine
10
-1.000000
20
-0.166667
11
0.000000
21
0.000000
0
LINE
5
61
100
AcDbEntity
8
0
6
BYBLOCK
62
0
100
AcDbLine
10
0.000000
20
0.000000
11
-1.000000
21
0.000000
0
ENDBLK
5
62
100
AcDbEntity
8
0
100
AcDbBlockEnd
0
BLOCK
5
63
100
AcDbEntity
8
0
100
AcDbBlockBegin
2
CLOSEDF
70
0
10
0.0
20
0.0
30
0.0
3
CLOSEDF
1

0
SOLID
5
64
100
AcDbEntity
8
0
6
BYBLOCK
62
0
100
AcDbTrace
10
-1.000000
20
0.166667
11
-1.000000
21
-0.166667
12
0.000000
22
0.000000
13
0.000000
23
0.000000
0
ENDBLK
5
65
100
AcDbEntity
8
0
100
AcDbBlockEnd
0
BLOCK
5
66
100
AcDbEntity
8
0
100
AcDbBlockBegin
2
HALF_R
70
0
10
0.0
20
0.0
30
0.0
3
HALF_R
1

0
SOLID
5
67
100
AcDbEntity
8
0
6
BYBLOCK
62
0
100
AcDbTrace
10
-1.000000
20
-0.166667
11
-1.000000
21
0.000000
12
0.000000
22
0.000000
13
0.000000
23
0.000000
0
ENDBLK
5
68
100
AcDbEntity
8
0
100
AcDbBlockEnd
0
ENDSEC
0
SECTION
2
ENTITIES
0
POLYLINE
5
69
100
AcDbEntity
8
1
6
CONTINUOUS
62
5
100
AcDb2dPolyline
66
1
10
0.0
20
0.0
30
0.0
70
0
0
VERTEX
5
6a
100
AcDbEntity
8
1
100
AcDbVertex
100
AcDb2dVertex
62
5
10
293.984375
20
326.187500
0
VERTEX
5
6b
100
AcDbEntity
8
1
100
AcDbVertex
100
AcDb2dVertex
62
5
10
294.218750
20
326.187500
0
VERTEX
5
6c
100
AcDbEntity
8
1
100
AcDbVertex
100
AcDb2dVertex
62
5
10
295.859375
20
324.937500
0
SEQEND
5
6d
100
AcDbEntity
8
1
0
LINE
5
6e
100
AcDbEntity
8
1
100
AcDbLine
6
CONTINUOUS
62
5
10
293.984375
20
329.000000
11
293.984375
21
321.500000
0
LINE
5
6f
100
AcDbEntity
8
1
100
AcDbLine
6
CONTINUOUS
62
5
10
285.546875
20
325.562500
11
285.781250
21
324.312500
0
LINE
5
70
100
AcDbEntity
8
1
100
AcDbLine
6
CONTINUOUS
62
5
10
286.953125
20
325.875000
11
287.187500
21
324.625000
0
POLYLINE
5
71
100
AcDbEntity
8
1
6
CONTINUOUS
62
5
100
AcDb2dPolyline
66
1
10
0.0
20
0.0
30
0.0
70
0
0
VERTEX
5
72
100
AcDbEntity
8
1
100
AcDbVertex
100
AcDb2dVertex
62
5
10
288.828125
20
325.875000
0
VERTEX
5
73
100
AcDbEntity
8
1
100
AcDbVertex
100
AcDb2dVertex
62
5
10
288.593750
20
324.312500
0
VERTEX
5
74
100
AcDbEntity
8
1
100
AcDbVertex
100
AcDb2dVertex
62
5
10
287.421875
20
322.437500
0
VERTEX
5
75
100
AcDbEntity
8
1
100
AcDbVertex
100
AcDb2dVertex
62
5
10
286.484375
20
321.500000
0
SEQEND
5
76
100
AcDbEntity
8
1
0
POLYLINE
5
77
100
AcDbEntity
8
1
6
CONTINUOUS
62
5
100
AcDb2dPolyline
66
1
10
0.0
20
0.0
30
0.0
70
0
0
VERTEX
5
78
100
AcDbEntity
8
1
100
AcDbVertex
100
AcDb2dVertex
62
5
10
276.875000
20
325.562500
0
VERTEX
5
79
100
AcDbEntity
8
1
100
AcDbVertex
100
AcDb2dVertex
62
5
10
281.796875
20
326.187500
0
VERTEX
5
7a
100
AcDbEntity
8
1
100
AcDbVertex
100
AcDb2dVertex
62
5
10
281.796875
20
325.875000
0
VERTEX
5
7b
100
AcDbEntity
8
1
100
AcDbVertex
100
AcDb2dVertex
62
5
10
280.625000
20
324.312500
0
SEQEND
5
7c
100
AcDbEntity
8
1
0
POLYLINE
5
7d
100
AcDbEntity
8
1
6
CONTINUOUS
62
5
100
AcDb2dPolyline
66
1
10
0.0
20
0.0
30
0.0
70
0
0
VERTEX
5
7e
100
AcDbEntity
8
1
100
AcDbVertex
100
AcDb2dVertex
62
5
10
278.750000
20
328.375000
0
VERTEX
5
7f
100
AcDbEntity
8
1
100
AcDbVertex
100
AcDb2dVertex
62
5
10
278.750000
20
322.437500
0
VERTEX
5
80
100
AcDbEntity
8
1
100
AcDbVertex
100
AcDb2dVertex
62
5
10
279.218750
20
321.812500
0
VERTEX
5
81
100
AcDbEntity
8
1
100
AcDbVertex
100
AcDb2dVertex
62
5
10
281.796875
20
321.812500
0
SEQEND
5
82
100
AcDbEntity
8
1
0
POLYLINE
5
83
100
AcDbEntity
8
1
6
CONTINUOUS
62
5
100
AcDb2dPolyline
66
1
10
0.0
20
0.0
30
0.0
70
0
0
VERTEX
5
84
100
AcDbEntity
8
1
100
AcDbVertex
100
AcDb2dVertex
62
5
10
263.515625
20
326.187500
0
VERTEX
5
85
100
AcDbEntity
8
1
100
AcDbVertex
100
AcDb2dVertex
62
5
10
262.812500
20
324.625000
0
VERTEX
5
86
100
AcDbEntity
8
1
100
AcDbVertex
100
AcDb2dVertex
62
5
10
261.640625
20
323.062500
0
SEQEND
5
87
100
AcDbEntity
8
1
0
POLYLINE
5
88
100
AcDbEntity
8
1
6
CONTINUOUS
62
5
100
AcDb2dPolyline
66
1
10
0.0
20
0.0
30
0.0
70
0
0
VERTEX
5
89
100
AcDbEntity
8
1
100
AcDbVertex
100
AcDb2dVertex
62
5
10
265.390625
20
326.187500
0
VERTEX
5
8a
100
AcDbEntity
8
1
100
AcDbVertex
100
AcDb2dVertex
62
5
10
266.328125
20
324.625000
0
VERTEX
5
8b
100
AcDbEntity
8
1
100
AcDbVertex
100
AcDb2dVertex
62
5
10
267.031250
20
323.062500
0
SEQEND
5
8c
100
AcDbEntity
8
1
0
LINE
5
8d
100
AcDbEntity
8
1
100
AcDbLine
6
CONTINUOUS
62
5
10
266.093750
20
327.437500
11
266.562500
21
326.812500
0
LINE
5
8e
100
AcDbEntity
8
1
100
AcDbLine
6
CONTINUOUS
62
5
10
266.796875
20
328.062500
11
267.265625
21
327.437500
0
POLYLINE
5
8f
100
AcDbEntity
8
1
6
CONTINUOUS
62
5
100
AcDb2dPolyline
66
1
10
0.0
20
0.0
30
0.0
70
0
0
VERTEX
5
90
100
AcDbEntity
8
1
100
AcDbVertex
100
AcDb2dVertex
62
5
10
254.843750
20
326.500000
0
VERTEX
5
91
100
AcDbEntity
8
1
100
AcDbVertex
100
AcDb2dVertex
62
5
10
259.296875
20
326.500000
0
VERTEX
5
92
100
AcDbEntity
8
1
100
AcDbVertex
100
AcDb2dVertex
62
5
10
259.296875
20
324.937500
0
VERTEX
5
93
100
AcDbEntity
8
1
100
AcDbVertex
100
AcDb2dVertex
62
5
10
259.062500
20
323.375000
0
VERTEX
5
94
100
AcDbEntity
8
1
100
AcDbVertex
100
AcDb2dVertex
62
5
10
258.359375
20
322.125000
0
VERTEX
5
95
100
AcDbEntity
8
1
100
AcDbVertex
100
AcDb2dVertex
62
5
10
257.656250
20
322.125000
0
SEQEND
5
96
100
AcDbEntity
8
1
0
POLYLINE
5
97
100
AcDbEntity
8
1
6
CONTINUOUS
62
5
100
AcDb2dPolyline
66
1
10
0.0
20
0.0
30
0.0
70
0
0
VERTEX
5
98
100
AcDbEntity
8
1
100
AcDbVertex
100
AcDb2dVertex
62
5
10
257.187500
20
328.375000
0
VERTEX
5
99
100
AcDbEntity
8
1
100
AcDbVertex
100
AcDb2dVertex
62
5
10
256.718750
20
324.625000
0
VERTEX
5
9a
100
AcDbEntity
8
1
100
AcDbVertex
100
AcDb2dVertex
62
5
10
256.015625
20
323.375000
0
VERTEX
5
9b
100
AcDbEntity
8
1
100
AcDbVertex
100
AcDb2dVertex
62
5
10
255.078125
20
322.125000
0
SEQEND
5
9c
100
AcDbEntity
8
1
0
LINE
5
9d
100
AcDbEntity
8
1
100
AcDbLine
6
CONTINUOUS
62
5
10
234.921875
20
324.937500
11
234.453125
21
323.375000
0
LINE
5
9e
100
AcDbEntity
8
1
100
AcDbLine
6
CONTINUOUS
62
5
10
233.046875
20
328.062500
11
236.328125
21
328.062500
0
LINE
5
9f
100
AcDbEntity
8
1
100
AcDbLine
6
CONTINUOUS
62
5
10
231.875000
20
325.875000
11
237.265625
21
325.875000
0
POLYLINE
5
a0
100
AcDbEntity
8
1
6
CONTINUOUS
62
5
100
AcDb2dPolyline
66
1
10
0.0
20
0.0
30
0.0
70
0
0
VERTEX
5
a1
100
AcDbEntity
8
1
100
AcDbVertex
100
AcDb2dVertex
62
5
10
234.453125
20
323.375000
0
VERTEX
5
a2
100
AcDbEntity
8
1
100
AcDbVertex
100
AcDb2dVertex
62
5
10
233.750000
20
322.437500
0
VERTEX
5
a3
100
AcDbEntity
8
1
100
AcDbVertex
100
AcDb2dVertex
62
5
10
232.812500
20
321.500000
0
SEQEND
5
a4
100
AcDbEntity
8
1
0
LINE
5
a5
100
AcDbEntity
8
1
100
AcDbLine
6
CONTINUOUS
62
5
10
234.921875
20
325.875000
11
234.921875
21
324.937500
0
POLYLINE
5
a6
100
AcDbEntity
8
1
6
CONTINUOUS
62
5
100
AcDb2dPolyline
66
1
10
0.0
20
0.0
30
0.0
70
0
0
VERTEX
5
a7
100
AcDbEntity
8
1
100
AcDbVertex
100
AcDb2dVertex
62
5
10
243.359375
20
326.812500
0
VERTEX
5
a8
100
AcDbEntity
8
1
100
AcDbVertex
100
AcDb2dVertex
62
5
10
242.187500
20
325.250000
0
VERTEX
5
a9
100
AcDbEntity
8
1
100
AcDbVertex
100
AcDb2dVertex
62
5
10
240.546875
20
324.000000
0
SEQEND
5
aa
100
AcDbEntity
8
1
0
POLYLINE
5
ab
100
AcDbEntity
8
1
6
CONTINUOUS
62
5
100
AcDb2dPolyline
66
1
10
0.0
20
0.0
30
0.0
70
0
0
VERTEX
5
ac
100
AcDbEntity
8
1
100
AcDbVertex
100
AcDb2dVertex
62
5
10
242.187500
20
325.250000
0
VERTEX
5
ad
100
AcDbEntity
8
1
100
AcDbVertex
100
AcDb2dVertex
62
5
10
242.421875
20
324.625000
0
VERTEX
5
ae
100
AcDbEntity
8
1
100
AcDbVertex
100
AcDb2dVertex
62
5
10
242.421875
20
321.500000
0
SEQEND
5
af
100
AcDbEntity
8
1
0
POLYLINE
5
b0
100
AcDbEntity
8
1
6
CONTINUOUS
62
5
100
AcDb2dPolyline
66
1
10
0.0
20
0.0
30
0.0
70
0
0
VERTEX
5
b1
100
AcDbEntity
8
1
100
AcDbVertex
100
AcDb2dVertex
62
5
10
237.250000
20
319.625000
0
VERTEX
5
b2
100
AcDbEntity
8
1
100
AcDbVertex
100
AcDb2dVertex
62
5
10
236.500000
20
318.375000
0
VERTEX
5
b3
100
AcDbEntity
8
1
100
AcDbVertex
100
AcDb2dVertex
62
5
10
235.750000
20
317.437500
0
VERTEX
5
b4
100
AcDbEntity
8
1
100
AcDbVertex
100
AcDb2dVertex
62
5
10
234.750000
20
316.500000
0
SEQEND
5
b5
100
AcDbEntity
8
1
0
POLYLINE
5
b6
100
AcDbEntity
8
1
6
CONTINUOUS
62
5
100
AcDb2dPolyline
66
1
10
0.0
20
0.0
30
0.0
70
0
0
VERTEX
5
b7
100
AcDbEntity
8
1
100
AcDbVertex
100
AcDb2dVertex
62
5
10
237.000000
20
319.000000
0
VERTEX
5
b8
100
AcDbEntity
8
1
100
AcDbVertex
100
AcDb2dVertex
62
5
10
239.250000
20
319.000000
0
VERTEX
5
b9
100
AcDbEntity
8
1
100
AcDbVertex
100
AcDb2dVertex
62
5
10
238.000000
20
317.125000
0
SEQEND
5
ba
100
AcDbEntity
8
1
0
POLYLINE
5
bb
100
AcDbEntity
8
1
6
CONTINUOUS
62
5
100
AcDb2dPolyline
66
1
10
0.0
20
0.0
30
0.0
70
0
0
VERTEX
5
bc
100
AcDbEntity
8
1
100
AcDbVertex
100
AcDb2dVertex
62
5
10
235.750000
20
317.125000
0
VERTEX
5
bd
100
AcDbEntity
8
1
100
AcDbVertex
100
AcDb2dVertex
62
5
10
240.250000
20
317.125000
0
VERTEX
5
be
100
AcDbEntity
8
1
100
AcDbVertex
100
AcDb2dVertex
62
5
10
240.250000
20
314.312500
0
VERTEX
5
bf
100
AcDbEntity
8
1
100
AcDbVertex
100
AcDb2dVertex
62
5
10
235.750000
20
314.312500
0
SEQEND
5
c0
100
AcDbEntity
8
1
0
LINE
5
c1
100
AcDbEntity
8
1
100
AcDbLine
6
CONTINUOUS
62
5
10
238.000000
20
317.125000
11
238.000000
21
314.312500
0
POLYLINE
5
c2
100
AcDbEntity
8
1
6
CONTINUOUS
62
5
100
AcDb2dPolyline
66
1
10
0.0
20
0.0
30
0.0
70
0
0
VERTEX
5
c3
100
AcDbEntity
8
1
100
AcDbVertex
100
AcDb2dVertex
62
5
10
235.750000
20
317.125000
0
VERTEX
5
c4
100
AcDbEntity
8
1
100
AcDbVertex
100
AcDb2dVertex
62
5
10
235.750000
20
311.812500
0
VERTEX
5
c5
100
AcDbEntity
8
1
100
AcDbVertex
100
AcDb2dVertex
62
5
10
236.250000
20
311.187500
0
VERTEX
5
c6
100
AcDbEntity
8
1
100
AcDbVertex
100
AcDb2dVertex
62
5
10
241.250000
20
311.187500
0
VERTEX
5
c7
100
AcDbEntity
8
1
100
AcDbVertex
100
AcDb2dVertex
62
5
10
241.250000
20
312.437500
0
SEQEND
5
c8
100
AcDbEntity
8
1
0
POLYLINE
5
c9
100
AcDbEntity
8
1
6
CONTINUOUS
62
5
100
AcDb2dPolyline
66
1
10
0.0
20
0.0
30
0.0
70
0
0
VERTEX
5
ca
100
AcDbEntity
8
1
100
AcDbVertex
100
AcDb2dVertex
62
5
10
246.640625
20
325.562500
0
VERTEX
5
cb
100
AcDbEntity
8
1
100
AcDbVertex
100
AcDb2dVertex
62
5
10
246.875000
20
325.250000
0
VERTEX
5
cc
100
AcDbEntity
8
1
100
AcDbVertex
100
AcDb2dVertex
62
5
10
253.203125
20
325.250000
0
SEQEND
5
cd
100
AcDbEntity
8
1
0
POLYLINE
5
ce
100
AcDbEntity
8
1
6
CONTINUOUS
62
5
100
AcDb2dPolyline
66
1
10
0.0
20
0.0
30
0.0
70
0
0
VERTEX
5
cf
100
AcDbEntity
8
1
100
AcDbVertex
100
AcDb2dVertex
62
5
10
269.140625
20
325.562500
0
VERTEX
5
d0
100
AcDbEntity
8
1
100
AcDbVertex
100
AcDb2dVertex
62
5
10
269.375000
20
325.250000
0
VERTEX
5
d1
100
AcDbEntity
8
1
100
AcDbVertex
100
AcDb2dVertex
62
5
10
275.703125
20
325.250000
0
SEQEND
5
d2
100
AcDbEntity
8
1
0
LINE
5
d3
100
AcDbEntity
8
1
100
AcDbLine
6
CONTINUOUS
62
5
10
225.546875
20
328.375000
11
225.546875
21
324.625000
0
POLYLINE
5
d4
100
AcDbEntity
8
1
6
CONTINUOUS
62
5
100
AcDb2dPolyline
66
1
10
0.0
20
0.0
30
0.0
70
0
0
VERTEX
5
d5
100
AcDbEntity
8
1
100
AcDbVertex
100
AcDb2dVertex
62
5
10
228.125000
20
328.687500
0
VERTEX
5
d6
100
AcDbEntity
8
1
100
AcDbVertex
100
AcDb2dVertex
62
5
10
228.125000
20
324.937500
0
VERTEX
5
d7
100
AcDbEntity
8
1
100
AcDbVertex
100
AcDb2dVertex
62
5
10
227.890625
20
323.687500
0
VERTEX
5
d8
100
AcDbEntity
8
1
100
AcDbVertex
100
AcDb2dVertex
62
5
10
227.421875
20
322.437500
0
VERTEX
5
d9
100
AcDbEntity
8
1
100
AcDbVertex
100
AcDb2dVertex
62
5
10
226.718750
20
321.500000
0
SEQEND
5
da
100
AcDbEntity
8
1
0
POLYLINE
5
db
100
AcDbEntity
8
1
6
CONTINUOUS
62
5
100
AcDb2dPolyline
66
1
10
0.0
20
0.0
30
0.0
70
0
0
VERTEX
5
dc
100
AcDbEntity
8
1
100
AcDbVertex
100
AcDb2dVertex
62
5
10
218.281250
20
325.562500
0
VERTEX
5
dd
100
AcDbEntity
8
1
100
AcDbVertex
100
AcDb2dVertex
62
5
10
220.156250
20
325.562500
0
VERTEX
5
de
100
AcDbEntity
8
1
100
AcDbVertex
100
AcDb2dVertex
62
5
10
219.921875
20
322.437500
0
SEQEND
5
df
100
AcDbEntity
8
1
0
LINE
5
e0
100
AcDbEntity
8
1
100
AcDbLine
6
CONTINUOUS
62
5
10
217.578125
20
322.437500
11
221.562500
21
322.437500
0
POLYLINE
5
e1
100
AcDbEntity
8
1
6
CONTINUOUS
62
5
100
AcDb2dPolyline
66
1
10
0.0
20
0.0
30
0.0
70
0
0
VERTEX
5
e2
100
AcDbEntity
8
1
100
AcDbVertex
100
AcDb2dVertex
62
5
10
212.500000
20
318.062500
0
VERTEX
5
e3
100
AcDbEntity
8
1
100
AcDbVertex
100
AcDb2dVertex
62
5
10
212.500000
20
316.187500
0
VERTEX
5
e4
100
AcDbEntity
8
1
100
AcDbVertex
100
AcDb2dVertex
62
5
10
212.250000
20
314.625000
0
VERTEX
5
e5
100
AcDbEntity
8
1
100
AcDbVertex
100
AcDb2dVertex
62
5
10
211.750000
20
313.375000
0
VERTEX
5
e6
100
AcDbEntity
8
1
100
AcDbVertex
100
AcDb2dVertex
62
5
10
211.000000
20
312.125000
0
VERTEX
5
e7
100
AcDbEntity
8
1
100
AcDbVertex
100
AcDb2dVertex
62
5
10
210.750000
20
311.812500
0
SEQEND
5
e8
100
AcDbEntity
8
1
0
POLYLINE
5
e9
100
AcDbEntity
8
1
6
CONTINUOUS
62
5
100
AcDb2dPolyline
66
1
10
0.0
20
0.0
30
0.0
70
0
0
VERTEX
5
ea
100
AcDbEntity
8
1
100
AcDbVertex
100
AcDb2dVertex
62
5
10
214.000000
20
318.375000
0
VERTEX
5
eb
100
AcDbEntity
8
1
100
AcDbVertex
100
AcDb2dVertex
62
5
10
214.000000
20
312.125000
0
VERTEX
5
ec
100
AcDbEntity
8
1
100
AcDbVertex
100
AcDb2dVertex
62
5
10
214.750000
20
312.437500
0
VERTEX
5
ed
100
AcDbEntity
8
1
100
AcDbVertex
100
AcDb2dVertex
62
5
10
215.750000
20
313.375000
0
VERTEX
5
ee
100
AcDbEntity
8
1
100
AcDbVertex
100
AcDb2dVertex
62
5
10
216.500000
20
314.312500
0
VERTEX
5
ef
100
AcDbEntity
8
1
100
AcDbVertex
100
AcDb2dVertex
62
5
10
217.000000
20
315.250000
0
SEQEND
5
f0
100
AcDbEntity
8
1
0
POLYLINE
5
f1
100
AcDbEntity
8
1
6
CONTINUOUS
62
5
100
AcDb2dPolyline
66
1
10
0.0
20
0.0
30
0.0
70
0
0
VERTEX
5
f2
100
AcDbEntity
8
1
100
AcDbVertex
100
AcDb2dVertex
62
5
10
220.750000
20
316.187500
0
VERTEX
5
f3
100
AcDbEntity
8
1
100
AcDbVertex
100
AcDb2dVertex
62
5
10
220.000000
20
314.625000
0
VERTEX
5
f4
100
AcDbEntity
8
1
100
AcDbVertex
100
AcDb2dVertex
62
5
10
218.750000
20
313.062500
0
SEQEND
5
f5
100
AcDbEntity
8
1
0
POLYLINE
5
f6
100
AcDbEntity
8
1
6
CONTINUOUS
62
5
100
AcDb2dPolyline
66
1
10
0.0
20
0.0
30
0.0
70
0
0
VERTEX
5
f7
100
AcDbEntity
8
1
100
AcDbVertex
100
AcDb2dVertex
62
5
10
222.750000
20
316.187500
0
VERTEX
5
f8
100
AcDbEntity
8
1
100
AcDbVertex
100
AcDb2dVertex
62
5
10
223.750000
20
314.625000
0
VERTEX
5
f9
100
AcDbEntity
8
1
100
AcDbVertex
100
AcDb2dVertex
62
5
10
224.500000
20
313.062500
0
SEQEND
5
fa
100
AcDbEntity
8
1
0
LINE
5
fb
100
AcDbEntity
8
1
100
AcDbLine
6
CONTINUOUS
62
5
10
223.500000
20
317.437500
11
224.000000
21
316.812500
0
LINE
5
fc
100
AcDbEntity
8
1
100
AcDbLine
6
CONTINUOUS
62
5
10
224.250000
20
318.062500
11
224.750000
21
317.437500
0
POLYLINE
5
fd
100
AcDbEntity
8
1
6
CONTINUOUS
62
5
100
AcDb2dPolyline
66
1
10
0.0
20
0.0
30
0.0
70
0
0
VERTEX
5
fe
100
AcDbEntity
8
1
100
AcDbVertex
100
AcDb2dVertex
62
5
10
201.875000
20
325.562500
0
VERTEX
5
ff
100
AcDbEntity
8
1
100
AcDbVertex
100
AcDb2dVertex
62
5
10
206.796875
20
326.187500
0
VERTEX
5
100
100
AcDbEntity
8
1
100
AcDbVertex
100
AcDb2dVertex
62
5
10
206.796875
20
325.875000
0
VERTEX
5
101
100
AcDbEntity
8
1
100
AcDbVertex
100
AcDb2dVertex
62
5
10
205.625000
20
324.312500
0
SEQEND
5
102
100
AcDbEntity
8
1
0
POLYLINE
5
103
100
AcDbEntity
8
1
6
CONTINUOUS
62
5
100
AcDb2dPolyline
66
1
10
0.0
20
0.0
30
0.0
70
0
0
VERTEX
5
104
100
AcDbEntity
8
1
100
AcDbVertex
100
AcDb2dVertex
62
5
10
203.750000
20
328.375000
0
VERTEX
5
105
100
AcDbEntity
8
1
100
AcDbVertex
100
AcDb2dVertex
62
5
10
203.750000
20
322.437500
0
VERTEX
5
106
100
AcDbEntity
8
1
100
AcDbVertex
100
AcDb2dVertex
62
5
10
204.218750
20
321.812500
0
VERTEX
5
107
100
AcDbEntity
8
1
100
AcDbVertex
100
AcDb2dVertex
62
5
10
206.796875
20
321.812500
0
SEQEND
5
108
100
AcDbEntity
8
1
0
LINE
5
109
100
AcDbEntity
8
1
100
AcDbLine
6
CONTINUOUS
62
5
10
204.500000
20
318.062500
11
205.750000
21
316.812500
0
LINE
5
10a
100
AcDbEntity
8
1
100
AcDbLine
6
CONTINUOUS
62
5
10
203.500000
20
316.187500
11
204.500000
21
314.937500
0
POLYLINE
5
10b
100
AcDbEntity
8
1
6
CONTINUOUS
62
5
100
AcDb2dPolyline
66
1
10
0.0
20
0.0
30
0.0
70
0
0
VERTEX
5
10c
100
AcDbEntity
8
1
100
AcDbVertex
100
AcDb2dVertex
62
5
10
204.000000
20
311.812500
0
VERTEX
5
10d
100
AcDbEntity
8
1
100
AcDbVertex
100
AcDb2dVertex
62
5
10
205.250000
20
312.437500
0
VERTEX
5
10e
100
AcDbEntity
8
1
100
AcDbVertex
100
AcDb2dVertex
62
5
10
207.250000
20
314.000000
0
VERTEX
5
10f
100
AcDbEntity
8
1
100
AcDbVertex
100
AcDb2dVertex
62
5
10
209.000000
20
315.875000
0
SEQEND
5
110
100
AcDbEntity
8
1
0
LINE
5
111
100
AcDbEntity
8
1
100
AcDbLine
6
CONTINUOUS
62
5
10
195.546875
20
327.125000
11
198.125000
21
327.750000
0
LINE
5
112
100
AcDbEntity
8
1
100
AcDbLine
6
CONTINUOUS
62
5
10
195.546875
20
325.250000
11
198.828125
21
326.187500
0
POLYLINE
5
113
100
AcDbEntity
8
1
6
CONTINUOUS
62
5
100
AcDb2dPolyline
66
1
10
0.0
20
0.0
30
0.0
70
0
0
VERTEX
5
114
100
AcDbEntity
8
1
100
AcDbVertex
100
AcDb2dVertex
62
5
10
196.484375
20
328.687500
0
VERTEX
5
115
100
AcDbEntity
8
1
100
AcDbVertex
100
AcDb2dVertex
62
5
10
198.593750
20
323.687500
0
VERTEX
5
116
100
AcDbEntity
8
1
100
AcDbVertex
100
AcDb2dVertex
62
5
10
198.125000
20
323.687500
0
VERTEX
5
117
100
AcDbEntity
8
1
100
AcDbVertex
100
AcDb2dVertex
62
5
10
196.718750
20
324.312500
0
VERTEX
5
118
100
AcDbEntity
8
1
100
AcDbVertex
100
AcDb2dVertex
62
5
10
196.015625
20
324.312500
0
VERTEX
5
119
100
AcDbEntity
8
1
100
AcDbVertex
100
AcDb2dVertex
62
5
10
195.078125
20
323.375000
0
VERTEX
5
11a
100
AcDbEntity
8
1
100
AcDbVertex
100
AcDb2dVertex
62
5
10
195.078125
20
322.750000
0
VERTEX
5
11b
100
AcDbEntity
8
1
100
AcDbVertex
100
AcDb2dVertex
62
5
10
195.546875
20
322.125000
0
VERTEX
5
11c
100
AcDbEntity
8
1
100
AcDbVertex
100
AcDb2dVertex
62
5
10
196.015625
20
321.812500
0
VERTEX
5
11d
100
AcDbEntity
8
1
100
AcDbVertex
100
AcDb2dVertex
62
5
10
197.421875
20
321.812500
0
SEQEND
5
11e
100
AcDbEntity
8
1
0
LINE
5
11f
100
AcDbEntity
8
1
100
AcDbLine
6
CONTINUOUS
62
5
10
209.843750
20
326.500000
11
213.828125
21
327.125000
0
LINE
5
120
100
AcDbEntity
8
1
100
AcDbLine
6
CONTINUOUS
62
5
10
209.375000
20
324.312500
11
214.531250
21
324.937500
0
LINE
5
121
100
AcDbEntity
8
1
100
AcDbLine
6
CONTINUOUS
62
5
10
211.484375
20
329.000000
11
212.187500
21
321.500000
0
POLYLINE
5
122
100
AcDbEntity
8
1
6
CONTINUOUS
62
5
100
AcDb2dPolyline
66
1
10
0.0
20
0.0
30
0.0
70
0
0
VERTEX
5
123
100
AcDbEntity
8
1
100
AcDbVertex
100
AcDb2dVertex
62
5
10
179.140625
20
327.125000
0
VERTEX
5
124
100
AcDbEntity
8
1
100
AcDbVertex
100
AcDb2dVertex
62
5
10
179.609375
20
327.750000
0
VERTEX
5
125
100
AcDbEntity
8
1
100
AcDbVertex
100
AcDb2dVertex
62
5
10
180.312500
20
329.312500
0
VERTEX
5
126
100
AcDbEntity
8
1
100
AcDbVertex
100
AcDb2dVertex
62
5
10
181.015625
20
328.375000
0
VERTEX
5
127
100
AcDbEntity
8
1
100
AcDbVertex
100
AcDb2dVertex
62
5
10
181.250000
20
327.750000
0
SEQEND
5
128
100
AcDbEntity
8
1
0
LINE
5
129
100
AcDbEntity
8
1
100
AcDbLine
6
CONTINUOUS
62
5
10
179.609375
20
326.812500
11
181.015625
21
326.812500
0
LINE
5
12a
100
AcDbEntity
8
1
100
AcDbLine
6
CONTINUOUS
62
5
10
179.140625
20
324.937500
11
181.250000
21
324.937500
0
LINE
5
12b
100
AcDbEntity
8
1
100
AcDbLine
6
CONTINUOUS
62
5
10
180.312500
20
326.812500
11
180.312500
21
322.125000
0
LINE
5
12c
100
AcDbEntity
8
1
100
AcDbLine
6
CONTINUOUS
62
5
10
179.140625
20
324.000000
11
179.609375
21
322.750000
0
LINE
5
12d
100
AcDbEntity
8
1
100
AcDbLine
6
CONTINUOUS
62
5
10
181.250000
20
324.312500
11
180.781250
21
323.062500
0
LINE
5
12e
100
AcDbEntity
8
1
100
AcDbLine
6
CONTINUOUS
62
5
10
179.140625
20
321.500000
11
181.250000
21
322.437500
0
POLYLINE
5
12f
100
AcDbEntity
8
1
6
CONTINUOUS
62
5
100
AcDb2dPolyline
66
1
10
0.0
20
0.0
30
0.0
70
0
0
VERTEX
5
130
100
AcDbEntity
8
1
100
AcDbVertex
100
AcDb2dVertex
62
5
10
181.484375
20
328.687500
0
VERTEX
5
131
100
AcDbEntity
8
1
100
AcDbVertex
100
AcDb2dVertex
62
5
10
182.656250
20
328.687500
0
VERTEX
5
132
100
AcDbEntity
8
1
100
AcDbVertex
100
AcDb2dVertex
62
5
10
181.484375
20
325.875000
0
VERTEX
5
133
100
AcDbEntity
8
1
100
AcDbVertex
100
AcDb2dVertex
62
5
10
182.656250
20
325.875000
0
VERTEX
5
134
100
AcDbEntity
8
1
100
AcDbVertex
100
AcDb2dVertex
62
5
10
182.656250
20
324.937500
0
VERTEX
5
135
100
AcDbEntity
8
1
100
AcDbVertex
100
AcDb2dVertex
62
5
10
182.187500
20
323.062500
0
VERTEX
5
136
100
AcDbEntity
8
1
100
AcDbVertex
100
AcDb2dVertex
62
5
10
181.718750
20
321.812500
0
VERTEX
5
137
100
AcDbEntity
8
1
100
AcDbVertex
100
AcDb2dVertex
62
5
10
181.250000
20
321.187500
0
SEQEND
5
138
100
AcDbEntity
8
1
0
POLYLINE
5
139
100
AcDbEntity
8
1
6
CONTINUOUS
62
5
100
AcDb2dPolyline
66
1
10
0.0
20
0.0
30
0.0
70
0
0
VERTEX
5
13a
100
AcDbEntity
8
1
100
AcDbVertex
100
AcDb2dVertex
62
5
10
181.484375
20
324.000000
0
VERTEX
5
13b
100
AcDbEntity
8
1
100
AcDbVertex
100
AcDb2dVertex
62
5
10
181.718750
20
324.937500
0
VERTEX
5
13c
100
AcDbEntity
8
1
100
AcDbVertex
100
AcDb2dVertex
62
5
10
182.187500
20
322.750000
0
VERTEX
5
13d
100
AcDbEntity
8
1
100
AcDbVertex
100
AcDb2dVertex
62
5
10
182.656250
20
321.812500
0
VERTEX
5
13e
100
AcDbEntity
8
1
100
AcDbVertex
100
AcDb2dVertex
62
5
10
183.359375
20
321.187500
0
VERTEX
5
13f
100
AcDbEntity
8
1
100
AcDbVertex
100
AcDb2dVertex
62
5
10
185.468750
20
320.875000
0
SEQEND
5
140
100
AcDbEntity
8
1
0
POLYLINE
5
141
100
AcDbEntity
8
1
6
CONTINUOUS
62
5
100
AcDb2dPolyline
66
1
10
0.0
20
0.0
30
0.0
70
0
0
VERTEX
5
142
100
AcDbEntity
8
1
100
AcDbVertex
100
AcDb2dVertex
62
5
10
183.125000
20
328.375000
0
VERTEX
5
143
100
AcDbEntity
8
1
100
AcDbVertex
100
AcDb2dVertex
62
5
10
185.000000
20
328.375000
0
VERTEX
5
144
100
AcDbEntity
8
1
100
AcDbVertex
100
AcDb2dVertex
62
5
10
185.000000
20
325.875000
0
VERTEX
5
145
100
AcDbEntity
8
1
100
AcDbVertex
100
AcDb2dVertex
62
5
10
183.125000
20
325.875000
0
SEQEND
5
146
100
AcDbEntity
8
1
0
LINE
5
147
100
AcDbEntity
8
1
100
AcDbLine
6
CONTINUOUS
62
5
10
182.656250
20
327.125000
11
185.468750
21
327.125000
0
LINE
5
148
100
AcDbEntity
8
1
100
AcDbLine
6
CONTINUOUS
62
5
10
184.062500
20
329.312500
11
184.062500
21
321.812500
0
LINE
5
149
100
AcDbEntity
8
1
100
AcDbLine
6
CONTINUOUS
62
5
10
183.125000
20
324.625000
11
185.000000
21
324.625000
0
LINE
5
14a
100
AcDbEntity
8
1
100
AcDbLine
6
CONTINUOUS
62
5
10
182.890625
20
323.375000
11
185.234375
21
323.375000
0
POLYLINE
5
14b
100
AcDbEntity
8
1
6
CONTINUOUS
62
5
100
AcDb2dPolyline
66
1
10
0.0
20
0.0
30
0.0
70
0
0
VERTEX
5
14c
100
AcDbEntity
8
1
100
AcDbVertex
100
AcDb2dVertex
62
5
10
175.500000
20
318.375000
0
VERTEX
5
14d
100
AcDbEntity
8
1
100
AcDbVertex
100
AcDb2dVertex
62
5
10
176.250000
20
319.000000
0
VERTEX
5
14e
100
AcDbEntity
8
1
100
AcDbVertex
100
AcDb2dVertex
62
5
10
176.250000
20
311.500000
0
SEQEND
5
14f
100
AcDbEntity
8
1
0
LINE
5
150
100
AcDbEntity
8
1
100
AcDbLine
6
CONTINUOUS
62
5
10
175.750000
20
311.500000
11
176.750000
21
311.500000
0
POLYLINE
5
151
100
AcDbEntity
8
1
6
CONTINUOUS
62
5
100
AcDb2dPolyline
66
1
10
0.0
20
0.0
30
0.0
70
0
0
VERTEX
5
152
100
AcDbEntity
8
1
100
AcDbVertex
100
AcDb2dVertex
62
5
10
180.250000
20
319.312500
0
VERTEX
5
153
100
AcDbEntity
8
1
100
AcDbVertex
100
AcDb2dVertex
62
5
10
179.500000
20
317.125000
0
VERTEX
5
154
100
AcDbEntity
8
1
100
AcDbVertex
100
AcDb2dVertex
62
5
10
178.250000
20
315.250000
0
SEQEND
5
155
100
AcDbEntity
8
1
0
LINE
5
156
100
AcDbEntity
8
1
100
AcDbLine
6
CONTINUOUS
62
5
10
179.500000
20
317.125000
11
179.500000
21
310.562500
0
POLYLINE
5
157
100
AcDbEntity
8
1
6
CONTINUOUS
62
5
100
AcDb2dPolyline
66
1
10
0.0
20
0.0
30
0.0
70
1
0
VERTEX
5
158
100
AcDbEntity
8
1
100
AcDbVertex
100
AcDb2dVertex
62
5
10
180.750000
20
310.875000
0
VERTEX
5
159
100
AcDbEntity
8
1
100
AcDbVertex
100
AcDb2dVertex
62
5
10
180.750000
20
319.000000
0
VERTEX
5
15a
100
AcDbEntity
8
1
100
AcDbVertex
100
AcDb2dVertex
62
5
10
185.250000
20
319.000000
0
VERTEX
5
15b
100
AcDbEntity
8
1
100
AcDbVertex
100
AcDb2dVertex
62
5
10
185.250000
20
310.875000
0
VERTEX
5
15c
100
AcDbEntity
8
1
100
AcDbVertex
100
AcDb2dVertex
62
5
10
180.750000
20
310.875000
0
SEQEND
5
15d
100
AcDbEntity
8
1
0
LINE
5
15e
100
AcDbEntity
8
1
100
AcDbLine
6
CONTINUOUS
62
5
10
181.500000
20
316.812500
11
184.500000
21
316.812500
0
LINE
5
15f
100
AcDbEntity
8
1
100
AcDbLine
6
CONTINUOUS
62
5
10
183.000000
20
317.750000
11
183.000000
21
314.937500
0
POLYLINE
5
160
100
AcDbEntity
8
1
6
CONTINUOUS
62
5
100
AcDb2dPolyline
66
1
10
0.0
20
0.0
30
0.0
70
1
0
VERTEX
5
161
100
AcDbEntity
8
1
100
AcDbVertex
100
AcDb2dVertex
62
5
10
181.750000
20
314.937500
0
VERTEX
5
162
100
AcDbEntity
8
1
100
AcDbVertex
100
AcDb2dVertex
62
5
10
181.750000
20
312.125000
0
VERTEX
5
163
100
AcDbEntity
8
1
100
AcDbVertex
100
AcDb2dVertex
62
5
10
184.250000
20
312.125000
0
VERTEX
5
164
100
AcDbEntity
8
1
100
AcDbVertex
100
AcDb2dVertex
62
5
10
184.250000
20
314.937500
0
VERTEX
5
165
100
AcDbEntity
8
1
100
AcDbVertex
100
AcDb2dVertex
62
5
10
181.750000
20
314.937500
0
SEQEND
5
166
100
AcDbEntity
8
1
0
POLYLINE
5
167
100
AcDbEntity
8
1
6
CONTINUOUS
62
5
100
AcDb2dPolyline
66
1
10
0.0
20
0.0
30
0.0
70
0
0
VERTEX
5
168
100
AcDbEntity
8
1
100
AcDbVertex
100
AcDb2dVertex
62
5
10
152.000000
20
319.000000
0
VERTEX
5
169
100
AcDbEntity
8
1
100
AcDbVertex
100
AcDb2dVertex
62
5
10
153.750000
20
319.000000
0
VERTEX
5
16a
100
AcDbEntity
8
1
100
AcDbVertex
100
AcDb2dVertex
62
5
10
153.750000
20
316.812500
0
VERTEX
5
16b
100
AcDbEntity
8
1
100
AcDbVertex
100
AcDb2dVertex
62
5
10
152.500000
20
313.687500
0
VERTEX
5
16c
100
AcDbEntity
8
1
100
AcDbVertex
100
AcDb2dVertex
62
5
10
150.500000
20
311.187500
0
SEQEND
5
16d
100
AcDbEntity
8
1
0
POLYLINE
5
16e
100
AcDbEntity
8
1
6
CONTINUOUS
62
5
100
AcDb2dPolyline
66
1
10
0.0
20
0.0
30
0.0
70
0
0
VERTEX
5
16f
100
AcDbEntity
8
1
100
AcDbVertex
100
AcDb2dVertex
62
5
10
153.750000
20
316.812500
0
VERTEX
5
170
100
AcDbEntity
8
1
100
AcDbVertex
100
AcDb2dVertex
62
5
10
154.500000
20
314.625000
0
VERTEX
5
171
100
AcDbEntity
8
1
100
AcDbVertex
100
AcDb2dVertex
62
5
10
155.750000
20
312.437500
0
VERTEX
5
172
100
AcDbEntity
8
1
100
AcDbVertex
100
AcDb2dVertex
62
5
10
157.250000
20
311.187500
0
SEQEND
5
173
100
AcDbEntity
8
1
0
LINE
5
174
100
AcDbEntity
8
1
100
AcDbLine
6
CONTINUOUS
62
5
10
158.046875
20
325.562500
11
158.281250
21
324.312500
0
LINE
5
175
100
AcDbEntity
8
1
100
AcDbLine
6
CONTINUOUS
62
5
10
159.453125
20
325.875000
11
159.687500
21
324.625000
0
POLYLINE
5
176
100
AcDbEntity
8
1
6
CONTINUOUS
62
5
100
AcDb2dPolyline
66
1
10
0.0
20
0.0
30
0.0
70
0
0
VERTEX
5
177
100
AcDbEntity
8
1
100
AcDbVertex
100
AcDb2dVertex
62
5
10
161.328125
20
325.875000
0
VERTEX
5
178
100
AcDbEntity
8
1
100
AcDbVertex
100
AcDb2dVertex
62
5
10
161.093750
20
324.312500
0
VERTEX
5
179
100
AcDbEntity
8
1
100
AcDbVertex
100
AcDb2dVertex
62
5
10
159.921875
20
322.437500
0
VERTEX
5
17a
100
AcDbEntity
8
1
100
AcDbVertex
100
AcDb2dVertex
62
5
10
158.984375
20
321.500000
0
SEQEND
5
17b
100
AcDbEntity
8
1
0
POLYLINE
5
17c
100
AcDbEntity
8
1
6
CONTINUOUS
62
5
100
AcDb2dPolyline
66
1
10
0.0
20
0.0
30
0.0
70
0
0
VERTEX
5
17d
100
AcDbEntity
8
1
100
AcDbVertex
100
AcDb2dVertex
62
5
10
159.250000
20
319.312500
0
VERTEX
5
17e
100
AcDbEntity
8
1
100
AcDbVertex
100
AcDb2dVertex
62
5
10
160.000000
20
318.062500
0
VERTEX
5
17f
100
AcDbEntity
8
1
100
AcDbVertex
100
AcDb2dVertex
62
5
10
160.750000
20
316.500000
0
VERTEX
5
180
100
AcDbEntity
8
1
100
AcDbVertex
100
AcDb2dVertex
62
5
10
161.000000
20
315.250000
0
VERTEX
5
181
100
AcDbEntity
8
1
100
AcDbVertex
100
AcDb2dVertex
62
5
10
160.750000
20
314.000000
0
VERTEX
5
182
100
AcDbEntity
8
1
100
AcDbVertex
100
AcDb2dVertex
62
5
10
160.250000
20
312.437500
0
VERTEX
5
183
100
AcDbEntity
8
1
100
AcDbVertex
100
AcDb2dVertex
62
5
10
159.250000
20
310.875000
0
SEQEND
5
184
100
AcDbEntity
8
1
0
LINE
5
185
100
AcDbEntity
8
1
100
AcDbLine
6
CONTINUOUS
62
5
10
165.312500
20
327.437500
11
168.828125
21
328.062500
0
LINE
5
186
100
AcDbEntity
8
1
100
AcDbLine
6
CONTINUOUS
62
5
10
164.140625
20
325.562500
11
169.765625
21
325.562500
0
POLYLINE
5
187
100
AcDbEntity
8
1
6
CONTINUOUS
62
5
100
AcDb2dPolyline
66
1
10
0.0
20
0.0
30
0.0
70
0
0
VERTEX
5
188
100
AcDbEntity
8
1
100
AcDbVertex
100
AcDb2dVertex
62
5
10
167.187500
20
327.750000
0
VERTEX
5
189
100
AcDbEntity
8
1
100
AcDbVertex
100
AcDb2dVertex
62
5
10
167.187500
20
325.562500
0
VERTEX
5
18a
100
AcDbEntity
8
1
100
AcDbVertex
100
AcDb2dVertex
62
5
10
166.953125
20
324.000000
0
VERTEX
5
18b
100
AcDbEntity
8
1
100
AcDbVertex
100
AcDb2dVertex
62
5
10
166.250000
20
322.750000
0
VERTEX
5
18c
100
AcDbEntity
8
1
100
AcDbVertex
100
AcDb2dVertex
62
5
10
165.546875
20
321.812500
0
SEQEND
5
18d
100
AcDbEntity
8
1
0
POLYLINE
5
18e
100
AcDbEntity
8
1
6
CONTINUOUS
62
5
100
AcDb2dPolyline
66
1
10
0.0
20
0.0
30
0.0
70
0
0
VERTEX
5
18f
100
AcDbEntity
8
1
100
AcDbVertex
100
AcDb2dVertex
62
5
10
188.281250
20
329.312500
0
VERTEX
5
190
100
AcDbEntity
8
1
100
AcDbVertex
100
AcDb2dVertex
62
5
10
187.343750
20
326.500000
0
VERTEX
5
191
100
AcDbEntity
8
1
100
AcDbVertex
100
AcDb2dVertex
62
5
10
186.171875
20
324.312500
0
SEQEND
5
192
100
AcDbEntity
8
1
0
LINE
5
193
100
AcDbEntity
8
1
100
AcDbLine
6
CONTINUOUS
62
5
10
187.343750
20
326.500000
11
187.343750
21
320.562500
0
LINE
5
194
100
AcDbEntity
8
1
100
AcDbLine
6
CONTINUOUS
62
5
10
188.046875
20
326.500000
11
192.968750
21
326.500000
0
POLYLINE
5
195
100
AcDbEntity
8
1
6
CONTINUOUS
62
5
100
AcDb2dPolyline
66
1
10
0.0
20
0.0
30
0.0
70
0
0
VERTEX
5
196
100
AcDbEntity
8
1
100
AcDbVertex
100
AcDb2dVertex
62
5
10
191.328125
20
329.312500
0
VERTEX
5
197
100
AcDbEntity
8
1
100
AcDbVertex
100
AcDb2dVertex
62
5
10
191.328125
20
320.875000
0
VERTEX
5
198
100
AcDbEntity
8
1
100
AcDbVertex
100
AcDb2dVertex
62
5
10
189.921875
20
321.187500
0
SEQEND
5
199
100
AcDbEntity
8
1
0
LINE
5
19a
100
AcDbEntity
8
1
100
AcDbLine
6
CONTINUOUS
62
5
10
188.984375
20
325.250000
11
189.921875
21
323.375000
0
POLYLINE
5
19b
100
AcDbEntity
8
1
6
CONTINUOUS
62
5
100
AcDb2dPolyline
66
1
10
0.0
20
0.0
30
0.0
70
0
0
VERTEX
5
19c
100
AcDbEntity
8
1
100
AcDbVertex
100
AcDb2dVertex
62
5
10
187.500000
20
319.000000
0
VERTEX
5
19d
100
AcDbEntity
8
1
100
AcDbVertex
100
AcDb2dVertex
62
5
10
187.500000
20
313.375000
0
VERTEX
5
19e
100
AcDbEntity
8
1
100
AcDbVertex
100
AcDb2dVertex
62
5
10
187.000000
20
312.125000
0
VERTEX
5
19f
100
AcDbEntity
8
1
100
AcDbVertex
100
AcDb2dVertex
62
5
10
186.500000
20
311.187500
0
SEQEND
5
1a0
100
AcDbEntity
8
1
0
POLYLINE
5
1a1
100
AcDbEntity
8
1
6
CONTINUOUS
62
5
100
AcDb2dPolyline
66
1
10
0.0
20
0.0
30
0.0
70
0
0
VERTEX
5
1a2
100
AcDbEntity
8
1
100
AcDbVertex
100
AcDb2dVertex
62
5
10
191.500000
20
311.500000
0
VERTEX
5
1a3
100
AcDbEntity
8
1
100
AcDbVertex
100
AcDb2dVertex
62
5
10
192.500000
20
310.875000
0
VERTEX
5
1a4
100
AcDbEntity
8
1
100
AcDbVertex
100
AcDb2dVertex
62
5
10
192.500000
20
319.000000
0
VERTEX
5
1a5
100
AcDbEntity
8
1
100
AcDbVertex
100
AcDb2dVertex
62
5
10
187.500000
20
319.000000
0
SEQEND
5
1a6
100
AcDbEntity
8
1
0
LINE
5
1a7
100
AcDbEntity
8
1
100
AcDbLine
6
CONTINUOUS
62
5
10
187.500000
20
316.500000
11
192.500000
21
316.500000
0
LINE
5
1a8
100
AcDbEntity
8
1
100
AcDbLine
6
CONTINUOUS
62
5
10
190.000000
20
319.000000
11
190.000000
21
310.875000
0
LINE
5
1a9
100
AcDbEntity
8
1
100
AcDbLine
6
CONTINUOUS
62
5
10
187.500000
20
314.000000
11
192.500000
21
314.000000
0
POLYLINE
5
1aa
100
AcDbEntity
8
1
6
CONTINUOUS
62
5
100
AcDb2dPolyline
66
1
10
0.0
20
0.0
30
0.0
70
0
0
VERTEX
5
1ab
100
AcDbEntity
8
1
100
AcDbVertex
100
AcDb2dVertex
62
5
10
226.750000
20
315.562500
0
VERTEX
5
1ac
100
AcDbEntity
8
1
100
AcDbVertex
100
AcDb2dVertex
62
5
10
227.000000
20
315.250000
0
VERTEX
5
1ad
100
AcDbEntity
8
1
100
AcDbVertex
100
AcDb2dVertex
62
5
10
233.750000
20
315.250000
0
SEQEND
5
1ae
100
AcDbEntity
8
1
0
LINE
5
1af
100
AcDbEntity
8
1
100
AcDbLine
6
CONTINUOUS
62
5
10
259.500000
20
194.800000
11
259.500000
21
192.600000
0
LINE
5
1b0
100
AcDbEntity
8
1
100
AcDbLine
6
CONTINUOUS
62
5
10
259.300000
20
194.800000
11
259.300000
21
192.581576
0
LINE
5
1b1
100
AcDbEntity
8
1
100
AcDbLine
6
CONTINUOUS
62
5
10
259.700000
20
194.800000
11
259.700000
21
192.600000
0
POLYLINE
5
1b2
100
AcDbEntity
8
1
6
CONTINUOUS
62
5
100
AcDb2dPolyline
66
1
10
0.0
20
0.0
30
0.0
70
1
0
VERTEX
5
1b3
100
AcDbEntity
8
1
100
AcDbVertex
100
AcDb2dVertex
62
5
10
253.656227
20
163.877021
0
VERTEX
5
1b4
100
AcDbEntity
8
1
100
AcDbVertex
100
AcDb2dVertex
62
5
10
254.184959
20
163.877021
0
VERTEX
5
1b5
100
AcDbEntity
8
1
100
AcDbVertex
100
AcDb2dVertex
62
5
10
254.184959
20
164.249091
0
VERTEX
5
1b6
100
AcDbEntity
8
1
100
AcDbVertex
100
AcDb2dVertex
62
5
10
253.460401
20
164.249091
0
VERTEX
5
1b7
100
AcDbEntity
8
1
100
AcDbVertex
100
AcDb2dVertex
62
5
10
253.460401
20
164.366587
0
VERTEX
5
1b8
100
AcDbEntity
8
1
100
AcDbVertex
100
AcDb2dVertex
62
5
10
254.184959
20
164.366587
0
VERTEX
5
1b9
100
AcDbEntity
8
1
100
AcDbVertex
100
AcDb2dVertex
62
5
10
254.184959
20
164.699492
0
VERTEX
5
1ba
100
AcDbEntity
8
1
100
AcDbVertex
100
AcDb2dVertex
62
5
10
254.302455
20
164.699492
0
VERTEX
5
1bb
100
AcDbEntity
8
1
100
AcDbVertex
100
AcDb2dVertex
62
5
10
254.302455
20
164.366587
0
VERTEX
5
1bc
100
AcDbEntity
8
1
100
AcDbVertex
100
AcDb2dVertex
62
5
10
255.027013
20
164.366587
0
VERTEX
5
1bd
100
AcDbEntity
8
1
100
AcDbVertex
100
AcDb2dVertex
62
5
10
255.027013
20
164.249091
0
VERTEX
5
1be
100
AcDbEntity
8
1
100
AcDbVertex
100
AcDb2dVertex
62
5
10
254.302455
20
164.249091
0
VERTEX
5
1bf
100
AcDbEntity
8
1
100
AcDbVertex
100
AcDb2dVertex
62
5
10
254.302455
20
163.877021
0
VERTEX
5
1c0
100
AcDbEntity
8
1
100
AcDbVertex
100
AcDb2dVertex
62
5
10
254.831187
20
163.877021
0
VERTEX
5
1c1
100
AcDbEntity
8
1
100
AcDbVertex
100
AcDb2dVertex
62
5
10
254.831187
20
163.759525
0
VERTEX
5
1c2
100
AcDbEntity
8
1
100
AcDbVertex
100
AcDb2dVertex
62
5
10
253.656227
20
163.759525
0
SEQEND
5
1c3
100
AcDbEntity
8
1
0
POLYLINE
5
1c4
100
AcDbEntity
8
1
6
CONTINUOUS
62
5
100
AcDb2dPolyline
66
1
10
0.0
20
0.0
30
0.0
70
1
0
VERTEX
5
1c5
100
AcDbEntity
8
1
100
AcDbVertex
100
AcDb2dVertex
62
5
10
253.307941
20
162.523581
0
VERTEX
5
1c6
100
AcDbEntity
8
1
100
AcDbVertex
100
AcDb2dVertex
62
5
10
253.112115
20
163.013148
0
VERTEX
5
1c7
100
AcDbEntity
8
1
100
AcDbVertex
100
AcDb2dVertex
62
5
10
253.221207
20
163.056785
0
VERTEX
5
1c8
100
AcDbEntity
8
1
100
AcDbVertex
100
AcDb2dVertex
62
5
10
253.417034
20
162.567218
0
SEQEND
5
1c9
100
AcDbEntity
8
1
0
POLYLINE
5
1ca
100
AcDbEntity
8
1
6
CONTINUOUS
62
5
100
AcDb2dPolyline
66
1
10
0.0
20
0.0
30
0.0
70
1
0
VERTEX
5
1cb
100
AcDbEntity
8
1
100
AcDbVertex
100
AcDb2dVertex
62
5
10
253.617062
20
163.465785
0
VERTEX
5
1cc
100
AcDbEntity
8
1
100
AcDbVertex
100
AcDb2dVertex
62
5
10
253.617062
20
163.132880
0
VERTEX
5
1cd
100
AcDbEntity
8
1
100
AcDbVertex
100
AcDb2dVertex
62
5
10
253.499566
20
163.132880
0
VERTEX
5
1ce
100
AcDbEntity
8
1
100
AcDbVertex
100
AcDb2dVertex
62
5
10
253.499566
20
163.583281
0
VERTEX
5
1cf
100
AcDbEntity
8
1
100
AcDbVertex
100
AcDb2dVertex
62
5
10
255.085761
20
163.583281
0
VERTEX
5
1d0
100
AcDbEntity
8
1
100
AcDbVertex
100
AcDb2dVertex
62
5
10
255.085761
20
163.132880
0
VERTEX
5
1d1
100
AcDbEntity
8
1
100
AcDbVertex
100
AcDb2dVertex
62
5
10
254.968265
20
163.132880
0
VERTEX
5
1d2
100
AcDbEntity
8
1
100
AcDbVertex
100
AcDb2dVertex
62
5
10
254.968265
20
163.465785
0
SEQEND
5
1d3
100
AcDbEntity
8
1
0
POLYLINE
5
1d4
100
AcDbEntity
8
1
6
CONTINUOUS
62
5
100
AcDb2dPolyline
66
1
10
0.0
20
0.0
30
0.0
70
1
0
VERTEX
5
1d5
100
AcDbEntity
8
1
100
AcDbVertex
100
AcDb2dVertex
62
5
10
251.556718
20
163.191628
0
VERTEX
5
1d6
100
AcDbEntity
8
1
100
AcDbVertex
100
AcDb2dVertex
62
5
10
250.979030
20
163.191628
0
VERTEX
5
1d7
100
AcDbEntity
8
1
100
AcDbVertex
100
AcDb2dVertex
62
5
10
250.979030
20
163.465785
0
VERTEX
5
1d8
100
AcDbEntity
8
1
100
AcDbVertex
100
AcDb2dVertex
62
5
10
251.556718
20
163.465785
0
SEQEND
5
1d9
100
AcDbEntity
8
1
0
POLYLINE
5
1da
100
AcDbEntity
8
1
6
CONTINUOUS
62
5
100
AcDb2dPolyline
66
1
10
0.0
20
0.0
30
0.0
70
1
0
VERTEX
5
1db
100
AcDbEntity
8
1
100
AcDbVertex
100
AcDb2dVertex
62
5
10
251.556718
20
163.583281
0
VERTEX
5
1dc
100
AcDbEntity
8
1
100
AcDbVertex
100
AcDb2dVertex
62
5
10
250.979030
20
163.583281
0
VERTEX
5
1dd
100
AcDbEntity
8
1
100
AcDbVertex
100
AcDb2dVertex
62
5
10
250.979030
20
163.857438
0
VERTEX
5
1de
100
AcDbEntity
8
1
100
AcDbVertex
100
AcDb2dVertex
62
5
10
251.556718
20
163.857438
0
SEQEND
5
1df
100
AcDbEntity
8
1
0
POLYLINE
5
1e0
100
AcDbEntity
8
1
6
CONTINUOUS
62
5
100
AcDb2dPolyline
66
1
10
0.0
20
0.0
30
0.0
70
1
0
VERTEX
5
1e1
100
AcDbEntity
8
1
100
AcDbVertex
100
AcDb2dVertex
62
5
10
252.327621
20
162.466064
0
VERTEX
5
1e2
100
AcDbEntity
8
1
100
AcDbVertex
100
AcDb2dVertex
62
5
10
252.523448
20
163.053544
0
VERTEX
5
1e3
100
AcDbEntity
8
1
100
AcDbVertex
100
AcDb2dVertex
62
5
10
252.634914
20
163.016389
0
VERTEX
5
1e4
100
AcDbEntity
8
1
100
AcDbVertex
100
AcDb2dVertex
62
5
10
252.439088
20
162.428909
0
SEQEND
5
1e5
100
AcDbEntity
8
1
0
POLYLINE
5
1e6
100
AcDbEntity
8
1
6
CONTINUOUS
62
5
100
AcDb2dPolyline
66
1
10
0.0
20
0.0
30
0.0
70
1
0
VERTEX
5
1e7
100
AcDbEntity
8
1
100
AcDbVertex
100
AcDb2dVertex
62
5
10
256.234837
20
162.804340
0
VERTEX
5
1e8
100
AcDbEntity
8
1
100
AcDbVertex
100
AcDb2dVertex
62
5
10
255.444790
20
162.014292
0
VERTEX
5
1e9
100
AcDbEntity
8
1
100
AcDbVertex
100
AcDb2dVertex
62
5
10
255.361708
20
162.097374
0
VERTEX
5
1ea
100
AcDbEntity
8
1
100
AcDbVertex
100
AcDb2dVertex
62
5
10
256.138273
20
162.873940
0
VERTEX
5
1eb
100
AcDbEntity
8
1
100
AcDbVertex
100
AcDb2dVertex
62
5
10
256.617373
20
163.832141
0
VERTEX
5
1ec
100
AcDbEntity
8
1
100
AcDbVertex
100
AcDb2dVertex
62
5
10
256.617373
20
164.444918
0
VERTEX
5
1ed
100
AcDbEntity
8
1
100
AcDbVertex
100
AcDb2dVertex
62
5
10
255.990728
20
164.444918
0
VERTEX
5
1ee
100
AcDbEntity
8
1
100
AcDbVertex
100
AcDb2dVertex
62
5
10
255.990728
20
164.562414
0
VERTEX
5
1ef
100
AcDbEntity
8
1
100
AcDbVertex
100
AcDb2dVertex
62
5
10
256.734869
20
164.562414
0
VERTEX
5
1f0
100
AcDbEntity
8
1
100
AcDbVertex
100
AcDb2dVertex
62
5
10
256.734869
20
163.830331
0
VERTEX
5
1f1
100
AcDbEntity
8
1
100
AcDbVertex
100
AcDb2dVertex
62
5
10
257.021358
20
163.161859
0
VERTEX
5
1f2
100
AcDbEntity
8
1
100
AcDbVertex
100
AcDb2dVertex
62
5
10
257.500974
20
162.490395
0
VERTEX
5
1f3
100
AcDbEntity
8
1
100
AcDbVertex
100
AcDb2dVertex
62
5
10
258.079495
20
162.104715
0
VERTEX
5
1f4
100
AcDbEntity
8
1
100
AcDbVertex
100
AcDb2dVertex
62
5
10
258.014320
20
162.006952
0
VERTEX
5
1f5
100
AcDbEntity
8
1
100
AcDbVertex
100
AcDb2dVertex
62
5
10
257.417881
20
162.404578
0
VERTEX
5
1f6
100
AcDbEntity
8
1
100
AcDbVertex
100
AcDb2dVertex
62
5
10
256.918365
20
163.103901
0
VERTEX
5
1f7
100
AcDbEntity
8
1
100
AcDbVertex
100
AcDb2dVertex
62
5
10
256.672020
20
163.678705
0
SEQEND
5
1f8
100
AcDbEntity
8
1
0
POLYLINE
5
1f9
100
AcDbEntity
8
1
6
CONTINUOUS
62
5
100
AcDb2dPolyline
66
1
10
0.0
20
0.0
30
0.0
70
1
0
VERTEX
5
1fa
100
AcDbEntity
8
1
100
AcDbVertex
100
AcDb2dVertex
62
5
10
253.525726
20
162.104715
0
VERTEX
5
1fb
100
AcDbEntity
8
1
100
AcDbVertex
100
AcDb2dVertex
62
5
10
253.806485
20
162.291887
0
VERTEX
5
1fc
100
AcDbEntity
8
1
100
AcDbVertex
100
AcDb2dVertex
62
5
10
253.989132
20
162.657182
0
VERTEX
5
1fd
100
AcDbEntity
8
1
100
AcDbVertex
100
AcDb2dVertex
62
5
10
253.989132
20
163.132880
0
VERTEX
5
1fe
100
AcDbEntity
8
1
100
AcDbVertex
100
AcDb2dVertex
62
5
10
254.106628
20
163.132880
0
VERTEX
5
1ff
100
AcDbEntity
8
1
100
AcDbVertex
100
AcDb2dVertex
62
5
10
254.106628
20
162.629445
0
VERTEX
5
200
100
AcDbEntity
8
1
100
AcDbVertex
100
AcDb2dVertex
62
5
10
253.897622
20
162.211433
0
VERTEX
5
201
100
AcDbEntity
8
1
100
AcDbVertex
100
AcDb2dVertex
62
5
10
253.590901
20
162.006952
0
SEQEND
5
202
100
AcDbEntity
8
1
0
POLYLINE
5
203
100
AcDbEntity
8
1
6
CONTINUOUS
62
5
100
AcDb2dPolyline
66
1
10
0.0
20
0.0
30
0.0
70
1
0
VERTEX
5
204
100
AcDbEntity
8
1
100
AcDbVertex
100
AcDb2dVertex
62
5
10
252.814173
20
161.957920
0
VERTEX
5
205
100
AcDbEntity
8
1
100
AcDbVertex
100
AcDb2dVertex
62
5
10
252.931669
20
161.957920
0
VERTEX
5
206
100
AcDbEntity
8
1
100
AcDbVertex
100
AcDb2dVertex
62
5
10
252.931669
20
163.269958
0
VERTEX
5
207
100
AcDbEntity
8
1
100
AcDbVertex
100
AcDb2dVertex
62
5
10
253.244382
20
163.269958
0
VERTEX
5
208
100
AcDbEntity
8
1
100
AcDbVertex
100
AcDb2dVertex
62
5
10
253.307941
20
163.111061
0
VERTEX
5
209
100
AcDbEntity
8
1
100
AcDbVertex
100
AcDb2dVertex
62
5
10
253.417034
20
163.154698
0
VERTEX
5
20a
100
AcDbEntity
8
1
100
AcDbVertex
100
AcDb2dVertex
62
5
10
253.221207
20
163.644264
0
VERTEX
5
20b
100
AcDbEntity
8
1
100
AcDbVertex
100
AcDb2dVertex
62
5
10
253.112115
20
163.600628
0
VERTEX
5
20c
100
AcDbEntity
8
1
100
AcDbVertex
100
AcDb2dVertex
62
5
10
253.197384
20
163.387454
0
VERTEX
5
20d
100
AcDbEntity
8
1
100
AcDbVertex
100
AcDb2dVertex
62
5
10
252.601386
20
163.387454
0
VERTEX
5
20e
100
AcDbEntity
8
1
100
AcDbVertex
100
AcDb2dVertex
62
5
10
253.213034
20
164.173858
0
VERTEX
5
20f
100
AcDbEntity
8
1
100
AcDbVertex
100
AcDb2dVertex
62
5
10
253.120288
20
164.245993
0
VERTEX
5
210
100
AcDbEntity
8
1
100
AcDbVertex
100
AcDb2dVertex
62
5
10
252.861285
20
163.912990
0
VERTEX
5
211
100
AcDbEntity
8
1
100
AcDbVertex
100
AcDb2dVertex
62
5
10
252.657903
20
164.116372
0
VERTEX
5
212
100
AcDbEntity
8
1
100
AcDbVertex
100
AcDb2dVertex
62
5
10
253.016709
20
164.564879
0
VERTEX
5
213
100
AcDbEntity
8
1
100
AcDbVertex
100
AcDb2dVertex
62
5
10
252.924960
20
164.638278
0
VERTEX
5
214
100
AcDbEntity
8
1
100
AcDbVertex
100
AcDb2dVertex
62
5
10
252.574310
20
164.199966
0
VERTEX
5
215
100
AcDbEntity
8
1
100
AcDbVertex
100
AcDb2dVertex
62
5
10
252.522809
20
164.251467
0
VERTEX
5
216
100
AcDbEntity
8
1
100
AcDbVertex
100
AcDb2dVertex
62
5
10
252.439727
20
164.168385
0
VERTEX
5
217
100
AcDbEntity
8
1
100
AcDbVertex
100
AcDb2dVertex
62
5
10
252.788589
20
163.819523
0
VERTEX
5
218
100
AcDbEntity
8
1
100
AcDbVertex
100
AcDb2dVertex
62
5
10
252.452535
20
163.387454
0
VERTEX
5
219
100
AcDbEntity
8
1
100
AcDbVertex
100
AcDb2dVertex
62
5
10
252.285441
20
163.387454
0
VERTEX
5
21a
100
AcDbEntity
8
1
100
AcDbVertex
100
AcDb2dVertex
62
5
10
252.285441
20
163.269958
0
VERTEX
5
21b
100
AcDbEntity
8
1
100
AcDbVertex
100
AcDb2dVertex
62
5
10
252.814173
20
163.269958
0
SEQEND
5
21c
100
AcDbEntity
8
1
0
POLYLINE
5
21d
100
AcDbEntity
8
1
6
CONTINUOUS
62
5
100
AcDb2dPolyline
66
1
10
0.0
20
0.0
30
0.0
70
1
0
VERTEX
5
21e
100
AcDbEntity
8
1
100
AcDbVertex
100
AcDb2dVertex
62
5
10
254.968265
20
162.114581
0
VERTEX
5
21f
100
AcDbEntity
8
1
100
AcDbVertex
100
AcDb2dVertex
62
5
10
254.968265
20
162.349573
0
VERTEX
5
220
100
AcDbEntity
8
1
100
AcDbVertex
100
AcDb2dVertex
62
5
10
255.085761
20
162.349573
0
VERTEX
5
221
100
AcDbEntity
8
1
100
AcDbVertex
100
AcDb2dVertex
62
5
10
255.085761
20
162.114581
0
VERTEX
5
222
100
AcDbEntity
8
1
100
AcDbVertex
100
AcDb2dVertex
62
5
10
255.085761
20
161.997085
0
VERTEX
5
223
100
AcDbEntity
8
1
100
AcDbVertex
100
AcDb2dVertex
62
5
10
254.513113
20
161.997085
0
VERTEX
5
224
100
AcDbEntity
8
1
100
AcDbVertex
100
AcDb2dVertex
62
5
10
254.380786
20
162.129412
0
VERTEX
5
225
100
AcDbEntity
8
1
100
AcDbVertex
100
AcDb2dVertex
62
5
10
254.380786
20
163.132880
0
VERTEX
5
226
100
AcDbEntity
8
1
100
AcDbVertex
100
AcDb2dVertex
62
5
10
254.498282
20
163.132880
0
VERTEX
5
227
100
AcDbEntity
8
1
100
AcDbVertex
100
AcDb2dVertex
62
5
10
254.498282
20
162.178081
0
VERTEX
5
228
100
AcDbEntity
8
1
100
AcDbVertex
100
AcDb2dVertex
62
5
10
254.561781
20
162.114581
0
SEQEND
5
229
100
AcDbEntity
8
1
0
LINE
5
22a
100
AcDbEntity
8
1
100
AcDbLine
6
CONTINUOUS
62
5
10
249.275546
20
164.422732
11
249.359471
21
164.506657
0
LINE
5
22b
100
AcDbEntity
8
1
100
AcDbLine
6
CONTINUOUS
62
5
10
249.517982
20
164.240904
11
249.601908
21
164.324830
0
POLYLINE
5
22c
100
AcDbEntity
8
1
6
CONTINUOUS
62
5
100
AcDb2dPolyline
66
1
10
0.0
20
0.0
30
0.0
70
1
0
VERTEX
5
22d
100
AcDbEntity
8
1
100
AcDbVertex
100
AcDb2dVertex
62
5
10
249.621951
20
164.162927
0
VERTEX
5
22e
100
AcDbEntity
8
1
100
AcDbVertex
100
AcDb2dVertex
62
5
10
249.230298
20
164.456667
0
VERTEX
5
22f
100
AcDbEntity
8
1
100
AcDbVertex
100
AcDb2dVertex
62
5
10
249.300796
20
164.550664
0
VERTEX
5
230
100
AcDbEntity
8
1
100
AcDbVertex
100
AcDb2dVertex
62
5
10
249.692449
20
164.256924
0
SEQEND
5
231
100
AcDbEntity
8
1
0
POLYLINE
5
232
100
AcDbEntity
8
1
6
CONTINUOUS
62
5
100
AcDb2dPolyline
66
1
10
0.0
20
0.0
30
0.0
70
1
0
VERTEX
5
233
100
AcDbEntity
8
1
100
AcDbVertex
100
AcDb2dVertex
62
5
10
244.198305
20
166.900938
0
VERTEX
5
234
100
AcDbEntity
8
1
100
AcDbVertex
100
AcDb2dVertex
62
5
10
243.736717
20
166.900938
0
VERTEX
5
235
100
AcDbEntity
8
1
100
AcDbVertex
100
AcDb2dVertex
62
5
10
243.736717
20
167.170198
0
VERTEX
5
236
100
AcDbEntity
8
1
100
AcDbVertex
100
AcDb2dVertex
62
5
10
244.198305
20
167.170198
0
SEQEND
5
237
100
AcDbEntity
8
1
0
POLYLINE
5
238
100
AcDbEntity
8
1
6
CONTINUOUS
62
5
100
AcDb2dPolyline
66
1
10
0.0
20
0.0
30
0.0
70
1
0
VERTEX
5
239
100
AcDbEntity
8
1
100
AcDbVertex
100
AcDb2dVertex
62
5
10
244.198305
20
167.285595
0
VERTEX
5
23a
100
AcDbEntity
8
1
100
AcDbVertex
100
AcDb2dVertex
62
5
10
243.736717
20
167.285595
0
VERTEX
5
23b
100
AcDbEntity
8
1
100
AcDbVertex
100
AcDb2dVertex
62
5
10
243.736717
20
167.554854
0
VERTEX
5
23c
100
AcDbEntity
8
1
100
AcDbVertex
100
AcDb2dVertex
62
5
10
244.198305
20
167.554854
0
SEQEND
5
23d
100
AcDbEntity
8
1
0
POLYLINE
5
23e
100
AcDbEntity
8
1
6
CONTINUOUS
62
5
100
AcDb2dPolyline
66
1
10
0.0
20
0.0
30
0.0
70
1
0
VERTEX
5
23f
100
AcDbEntity
8
1
100
AcDbVertex
100
AcDb2dVertex
62
5
10
243.621320
20
166.900938
0
VERTEX
5
240
100
AcDbEntity
8
1
100
AcDbVertex
100
AcDb2dVertex
62
5
10
243.063568
20
166.900938
0
VERTEX
5
241
100
AcDbEntity
8
1
100
AcDbVertex
100
AcDb2dVertex
62
5
10
243.063568
20
167.170198
0
VERTEX
5
242
100
AcDbEntity
8
1
100
AcDbVertex
100
AcDb2dVertex
62
5
10
243.621320
20
167.170198
0
SEQEND
5
243
100
AcDbEntity
8
1
0
POLYLINE
5
244
100
AcDbEntity
8
1
6
CONTINUOUS
62
5
100
AcDb2dPolyline
66
1
10
0.0
20
0.0
30
0.0
70
1
0
VERTEX
5
245
100
AcDbEntity
8
1
100
AcDbVertex
100
AcDb2dVertex
62
5
10
243.621320
20
167.285595
0
VERTEX
5
246
100
AcDbEntity
8
1
100
AcDbVertex
100
AcDb2dVertex
62
5
10
243.063568
20
167.285595
0
VERTEX
5
247
100
AcDbEntity
8
1
100
AcDbVertex
100
AcDb2dVertex
62
5
10
243.063568
20
167.554854
0
VERTEX
5
248
100
AcDbEntity
8
1
100
AcDbVertex
100
AcDb2dVertex
62
5
10
243.621320
20
167.554854
0
SEQEND
5
249
100
AcDbEntity
8
1
0
POLYLINE
5
24a
100
AcDbEntity
8
1
6
CONTINUOUS
62
5
100
AcDb2dPolyline
66
1
10
0.0
20
0.0
30
0.0
70
1
0
VERTEX
5
24b
100
AcDbEntity
8
1
100
AcDbVertex
100
AcDb2dVertex
62
5
10
243.300075
20
165.920064
0
VERTEX
5
24c
100
AcDbEntity
8
1
100
AcDbVertex
100
AcDb2dVertex
62
5
10
243.005869
20
165.920064
0
VERTEX
5
24d
100
AcDbEntity
8
1
100
AcDbVertex
100
AcDb2dVertex
62
5
10
243.005869
20
166.035461
0
VERTEX
5
24e
100
AcDbEntity
8
1
100
AcDbVertex
100
AcDb2dVertex
62
5
10
243.288648
20
166.035461
0
VERTEX
5
24f
100
AcDbEntity
8
1
100
AcDbVertex
100
AcDb2dVertex
62
5
10
243.621320
20
166.101995
0
VERTEX
5
250
100
AcDbEntity
8
1
100
AcDbVertex
100
AcDb2dVertex
62
5
10
243.621320
20
166.497049
0
VERTEX
5
251
100
AcDbEntity
8
1
100
AcDbVertex
100
AcDb2dVertex
62
5
10
243.005869
20
166.497049
0
VERTEX
5
252
100
AcDbEntity
8
1
100
AcDbVertex
100
AcDb2dVertex
62
5
10
243.005869
20
166.612446
0
VERTEX
5
253
100
AcDbEntity
8
1
100
AcDbVertex
100
AcDb2dVertex
62
5
10
243.621320
20
166.612446
0
VERTEX
5
254
100
AcDbEntity
8
1
100
AcDbVertex
100
AcDb2dVertex
62
5
10
243.621320
20
166.785541
0
VERTEX
5
255
100
AcDbEntity
8
1
100
AcDbVertex
100
AcDb2dVertex
62
5
10
242.948171
20
166.785541
0
VERTEX
5
256
100
AcDbEntity
8
1
100
AcDbVertex
100
AcDb2dVertex
62
5
10
242.948171
20
167.670251
0
VERTEX
5
257
100
AcDbEntity
8
1
100
AcDbVertex
100
AcDb2dVertex
62
5
10
243.621320
20
167.670251
0
VERTEX
5
258
100
AcDbEntity
8
1
100
AcDbVertex
100
AcDb2dVertex
62
5
10
243.621320
20
167.843347
0
VERTEX
5
259
100
AcDbEntity
8
1
100
AcDbVertex
100
AcDb2dVertex
62
5
10
242.909705
20
167.843347
0
VERTEX
5
25a
100
AcDbEntity
8
1
100
AcDbVertex
100
AcDb2dVertex
62
5
10
242.909705
20
167.958744
0
VERTEX
5
25b
100
AcDbEntity
8
1
100
AcDbVertex
100
AcDb2dVertex
62
5
10
243.621320
20
167.958744
0
VERTEX
5
25c
100
AcDbEntity
8
1
100
AcDbVertex
100
AcDb2dVertex
62
5
10
243.621320
20
168.219175
0
VERTEX
5
25d
100
AcDbEntity
8
1
100
AcDbVertex
100
AcDb2dVertex
62
5
10
243.014029
20
168.132419
0
VERTEX
5
25e
100
AcDbEntity
8
1
100
AcDbVertex
100
AcDb2dVertex
62
5
10
242.997709
20
168.246656
0
VERTEX
5
25f
100
AcDbEntity
8
1
100
AcDbVertex
100
AcDb2dVertex
62
5
10
243.664011
20
168.341843
0
VERTEX
5
260
100
AcDbEntity
8
1
100
AcDbVertex
100
AcDb2dVertex
62
5
10
244.138410
20
168.531602
0
VERTEX
5
261
100
AcDbEntity
8
1
100
AcDbVertex
100
AcDb2dVertex
62
5
10
244.181268
20
168.424459
0
VERTEX
5
262
100
AcDbEntity
8
1
100
AcDbVertex
100
AcDb2dVertex
62
5
10
243.736717
20
168.246638
0
VERTEX
5
263
100
AcDbEntity
8
1
100
AcDbVertex
100
AcDb2dVertex
62
5
10
243.736717
20
167.958744
0
VERTEX
5
264
100
AcDbEntity
8
1
100
AcDbVertex
100
AcDb2dVertex
62
5
10
244.352167
20
167.958744
0
VERTEX
5
265
100
AcDbEntity
8
1
100
AcDbVertex
100
AcDb2dVertex
62
5
10
244.352167
20
167.843347
0
VERTEX
5
266
100
AcDbEntity
8
1
100
AcDbVertex
100
AcDb2dVertex
62
5
10
243.736717
20
167.843347
0
VERTEX
5
267
100
AcDbEntity
8
1
100
AcDbVertex
100
AcDb2dVertex
62
5
10
243.736717
20
167.670251
0
VERTEX
5
268
100
AcDbEntity
8
1
100
AcDbVertex
100
AcDb2dVertex
62
5
10
244.313702
20
167.670251
0
VERTEX
5
269
100
AcDbEntity
8
1
100
AcDbVertex
100
AcDb2dVertex
62
5
10
244.313702
20
166.785541
0
VERTEX
5
26a
100
AcDbEntity
8
1
100
AcDbVertex
100
AcDb2dVertex
62
5
10
243.736717
20
166.785541
0
VERTEX
5
26b
100
AcDbEntity
8
1
100
AcDbVertex
100
AcDb2dVertex
62
5
10
243.736717
20
166.612446
0
VERTEX
5
26c
100
AcDbEntity
8
1
100
AcDbVertex
100
AcDb2dVertex
62
5
10
244.256003
20
166.612446
0
VERTEX
5
26d
100
AcDbEntity
8
1
100
AcDbVertex
100
AcDb2dVertex
62
5
10
244.256003
20
166.497049
0
VERTEX
5
26e
100
AcDbEntity
8
1
100
AcDbVertex
100
AcDb2dVertex
62
5
10
243.736717
20
166.497049
0
VERTEX
5
26f
100
AcDbEntity
8
1
100
AcDbVertex
100
AcDb2dVertex
62
5
10
243.736717
20
166.125074
0
VERTEX
5
270
100
AcDbEntity
8
1
100
AcDbVertex
100
AcDb2dVertex
62
5
10
244.244688
20
166.226669
0
VERTEX
5
271
100
AcDbEntity
8
1
100
AcDbVertex
100
AcDb2dVertex
62
5
10
244.267319
20
166.113512
0
SEQEND
5
272
100
AcDbEntity
8
1
0
CIRCLE
5
273
100
AcDbEntity
8
1
100
AcDbCircle
6
CONTINUOUS
62
5
10
242.860000
20
164.000000
40
0.600000
0
POLYLINE
5
274
100
AcDbEntity
8
1
6
CONTINUOUS
62
5
100
AcDb2dPolyline
66
1
10
0.0
20
0.0
30
0.0
70
1
0
VERTEX
5
275
100
AcDbEntity
8
1
100
AcDbVertex
100
AcDb2dVertex
62
5
10
244.596812
20
166.239845
0
VERTEX
5
276
100
AcDbEntity
8
1
100
AcDbVertex
100
AcDb2dVertex
62
5
10
244.302162
20
165.846979
0
VERTEX
5
277
100
AcDbEntity
8
1
100
AcDbVertex
100
AcDb2dVertex
62
5
10
244.209844
20
165.916217
0
VERTEX
5
278
100
AcDbEntity
8
1
100
AcDbVertex
100
AcDb2dVertex
62
5
10
244.492179
20
166.292664
0
VERTEX
5
279
100
AcDbEntity
8
1
100
AcDbVertex
100
AcDb2dVertex
62
5
10
244.775290
20
167.236365
0
VERTEX
5
27a
100
AcDbEntity
8
1
100
AcDbVertex
100
AcDb2dVertex
62
5
10
244.775290
20
167.747183
0
VERTEX
5
27b
100
AcDbEntity
8
1
100
AcDbVertex
100
AcDb2dVertex
62
5
10
244.448332
20
167.747183
0
VERTEX
5
27c
100
AcDbEntity
8
1
100
AcDbVertex
100
AcDb2dVertex
62
5
10
244.448332
20
167.862580
0
VERTEX
5
27d
100
AcDbEntity
8
1
100
AcDbVertex
100
AcDb2dVertex
62
5
10
244.775290
20
167.862580
0
VERTEX
5
27e
100
AcDbEntity
8
1
100
AcDbVertex
100
AcDb2dVertex
62
5
10
244.775290
20
168.574195
0
VERTEX
5
27f
100
AcDbEntity
8
1
100
AcDbVertex
100
AcDb2dVertex
62
5
10
244.890687
20
168.574195
0
VERTEX
5
280
100
AcDbEntity
8
1
100
AcDbVertex
100
AcDb2dVertex
62
5
10
244.890687
20
167.862580
0
VERTEX
5
281
100
AcDbEntity
8
1
100
AcDbVertex
100
AcDb2dVertex
62
5
10
245.660000
20
167.862580
0
VERTEX
5
282
100
AcDbEntity
8
1
100
AcDbVertex
100
AcDb2dVertex
62
5
10
245.660000
20
166.742300
0
VERTEX
5
283
100
AcDbEntity
8
1
100
AcDbVertex
100
AcDb2dVertex
62
5
10
245.560011
20
166.142366
0
VERTEX
5
284
100
AcDbEntity
8
1
100
AcDbVertex
100
AcDb2dVertex
62
5
10
245.217645
20
165.800000
0
VERTEX
5
285
100
AcDbEntity
8
1
100
AcDbVertex
100
AcDb2dVertex
62
5
10
244.888353
20
166.129291
0
VERTEX
5
286
100
AcDbEntity
8
1
100
AcDbVertex
100
AcDb2dVertex
62
5
10
244.969951
20
166.210889
0
VERTEX
5
287
100
AcDbEntity
8
1
100
AcDbVertex
100
AcDb2dVertex
62
5
10
245.217645
20
165.963196
0
VERTEX
5
288
100
AcDbEntity
8
1
100
AcDbVertex
100
AcDb2dVertex
62
5
10
245.452264
20
166.197815
0
VERTEX
5
289
100
AcDbEntity
8
1
100
AcDbVertex
100
AcDb2dVertex
62
5
10
245.544603
20
166.751851
0
VERTEX
5
28a
100
AcDbEntity
8
1
100
AcDbVertex
100
AcDb2dVertex
62
5
10
245.544603
20
167.747183
0
VERTEX
5
28b
100
AcDbEntity
8
1
100
AcDbVertex
100
AcDb2dVertex
62
5
10
244.890687
20
167.747183
0
VERTEX
5
28c
100
AcDbEntity
8
1
100
AcDbVertex
100
AcDb2dVertex
62
5
10
244.890687
20
167.219428
0
SEQEND
5
28d
100
AcDbEntity
8
1
0
POLYLINE
5
28e
100
AcDbEntity
8
1
6
CONTINUOUS
62
5
100
AcDb2dPolyline
66
1
10
0.0
20
0.0
30
0.0
70
1
0
VERTEX
5
28f
100
AcDbEntity
8
1
100
AcDbVertex
100
AcDb2dVertex
62
5
10
232.485406
20
163.933364
0
VERTEX
5
290
100
AcDbEntity
8
1
100
AcDbVertex
100
AcDb2dVertex
62
5
10
231.932477
20
163.933364
0
VERTEX
5
291
100
AcDbEntity
8
1
100
AcDbVertex
100
AcDb2dVertex
62
5
10
231.932477
20
164.049770
0
VERTEX
5
292
100
AcDbEntity
8
1
100
AcDbVertex
100
AcDb2dVertex
62
5
10
233.518509
20
164.049770
0
VERTEX
5
293
100
AcDbEntity
8
1
100
AcDbVertex
100
AcDb2dVertex
62
5
10
233.518509
20
162.250583
0
VERTEX
5
294
100
AcDbEntity
8
1
100
AcDbVertex
100
AcDb2dVertex
62
5
10
233.406043
20
161.913185
0
VERTEX
5
295
100
AcDbEntity
8
1
100
AcDbVertex
100
AcDb2dVertex
62
5
10
233.168480
20
161.794404
0
VERTEX
5
296
100
AcDbEntity
8
1
100
AcDbVertex
100
AcDb2dVertex
62
5
10
232.747319
20
161.794404
0
VERTEX
5
297
100
AcDbEntity
8
1
100
AcDbVertex
100
AcDb2dVertex
62
5
10
232.747319
20
161.910810
0
VERTEX
5
298
100
AcDbEntity
8
1
100
AcDbVertex
100
AcDb2dVertex
62
5
10
233.141000
20
161.910810
0
VERTEX
5
299
100
AcDbEntity
8
1
100
AcDbVertex
100
AcDb2dVertex
62
5
10
233.310858
20
161.995739
0
VERTEX
5
29a
100
AcDbEntity
8
1
100
AcDbVertex
100
AcDb2dVertex
62
5
10
233.402103
20
162.269473
0
VERTEX
5
29b
100
AcDbEntity
8
1
100
AcDbVertex
100
AcDb2dVertex
62
5
10
233.402103
20
163.933364
0
VERTEX
5
29c
100
AcDbEntity
8
1
100
AcDbVertex
100
AcDb2dVertex
62
5
10
232.601812
20
163.933364
0
VERTEX
5
29d
100
AcDbEntity
8
1
100
AcDbVertex
100
AcDb2dVertex
62
5
10
232.601812
20
162.758095
0
VERTEX
5
29e
100
AcDbEntity
8
1
100
AcDbVertex
100
AcDb2dVertex
62
5
10
232.391079
20
162.231264
0
VERTEX
5
29f
100
AcDbEntity
8
1
100
AcDbVertex
100
AcDb2dVertex
62
5
10
232.074054
20
161.808564
0
VERTEX
5
2a0
100
AcDbEntity
8
1
100
AcDbVertex
100
AcDb2dVertex
62
5
10
231.555002
20
161.497132
0
VERTEX
5
2a1
100
AcDbEntity
8
1
100
AcDbVertex
100
AcDb2dVertex
62
5
10
231.495111
20
161.596950
0
VERTEX
5
2a2
100
AcDbEntity
8
1
100
AcDbVertex
100
AcDb2dVertex
62
5
10
231.994611
20
161.896650
0
VERTEX
5
2a3
100
AcDbEntity
8
1
100
AcDbVertex
100
AcDb2dVertex
62
5
10
232.288717
20
162.288791
0
VERTEX
5
2a4
100
AcDbEntity
8
1
100
AcDbVertex
100
AcDb2dVertex
62
5
10
232.485406
20
162.780513
0
SEQEND
5
2a5
100
AcDbEntity
8
1
0
POLYLINE
5
2a6
100
AcDbEntity
8
1
6
CONTINUOUS
62
5
100
AcDb2dPolyline
66
1
10
0.0
20
0.0
30
0.0
70
1
0
VERTEX
5
2a7
100
AcDbEntity
8
1
100
AcDbVertex
100
AcDb2dVertex
62
5
10
231.161288
20
163.379633
0
VERTEX
5
2a8
100
AcDbEntity
8
1
100
AcDbVertex
100
AcDb2dVertex
62
5
10
230.821638
20
163.323024
0
VERTEX
5
2a9
100
AcDbEntity
8
1
100
AcDbVertex
100
AcDb2dVertex
62
5
10
230.802501
20
163.437846
0
VERTEX
5
2aa
100
AcDbEntity
8
1
100
AcDbVertex
100
AcDb2dVertex
62
5
10
231.161288
20
163.497644
0
VERTEX
5
2ab
100
AcDbEntity
8
1
100
AcDbVertex
100
AcDb2dVertex
62
5
10
231.161288
20
164.297133
0
VERTEX
5
2ac
100
AcDbEntity
8
1
100
AcDbVertex
100
AcDb2dVertex
62
5
10
231.277694
20
164.297133
0
VERTEX
5
2ad
100
AcDbEntity
8
1
100
AcDbVertex
100
AcDb2dVertex
62
5
10
231.277694
20
163.517045
0
VERTEX
5
2ae
100
AcDbEntity
8
1
100
AcDbVertex
100
AcDb2dVertex
62
5
10
231.407427
20
163.538667
0
VERTEX
5
2af
100
AcDbEntity
8
1
100
AcDbVertex
100
AcDb2dVertex
62
5
10
231.910861
20
163.740041
0
VERTEX
5
2b0
100
AcDbEntity
8
1
100
AcDbVertex
100
AcDb2dVertex
62
5
10
231.954093
20
163.631961
0
VERTEX
5
2b1
100
AcDbEntity
8
1
100
AcDbVertex
100
AcDb2dVertex
62
5
10
231.408376
20
163.413674
0
VERTEX
5
2b2
100
AcDbEntity
8
1
100
AcDbVertex
100
AcDb2dVertex
62
5
10
231.277694
20
163.393484
0
VERTEX
5
2b3
100
AcDbEntity
8
1
100
AcDbVertex
100
AcDb2dVertex
62
5
10
231.277694
20
162.487847
0
VERTEX
5
2b4
100
AcDbEntity
8
1
100
AcDbVertex
100
AcDb2dVertex
62
5
10
231.447310
20
162.318231
0
VERTEX
5
2b5
100
AcDbEntity
8
1
100
AcDbVertex
100
AcDb2dVertex
62
5
10
231.887034
20
162.318231
0
VERTEX
5
2b6
100
AcDbEntity
8
1
100
AcDbVertex
100
AcDb2dVertex
62
5
10
231.977867
20
162.681565
0
VERTEX
5
2b7
100
AcDbEntity
8
1
100
AcDbVertex
100
AcDb2dVertex
62
5
10
232.090798
20
162.653332
0
VERTEX
5
2b8
100
AcDbEntity
8
1
100
AcDbVertex
100
AcDb2dVertex
62
5
10
231.977921
20
162.201825
0
VERTEX
5
2b9
100
AcDbEntity
8
1
100
AcDbVertex
100
AcDb2dVertex
62
5
10
231.399093
20
162.201825
0
VERTEX
5
2ba
100
AcDbEntity
8
1
100
AcDbVertex
100
AcDb2dVertex
62
5
10
231.161288
20
162.439630
0
SEQEND
5
2bb
100
AcDbEntity
8
1
0
POLYLINE
5
2bc
100
AcDbEntity
8
1
6
CONTINUOUS
62
5
100
AcDb2dPolyline
66
1
10
0.0
20
0.0
30
0.0
70
1
0
VERTEX
5
2bd
100
AcDbEntity
8
1
100
AcDbVertex
100
AcDb2dVertex
62
5
10
241.944603
20
166.708610
0
VERTEX
5
2be
100
AcDbEntity
8
1
100
AcDbVertex
100
AcDb2dVertex
62
5
10
240.175397
20
166.708610
0
VERTEX
5
2bf
100
AcDbEntity
8
1
100
AcDbVertex
100
AcDb2dVertex
62
5
10
240.175397
20
167.362526
0
VERTEX
5
2c0
100
AcDbEntity
8
1
100
AcDbVertex
100
AcDb2dVertex
62
5
10
241.944603
20
167.362526
0
SEQEND
5
2c1
100
AcDbEntity
8
1
0
POLYLINE
5
2c2
100
AcDbEntity
8
1
6
CONTINUOUS
62
5
100
AcDb2dPolyline
66
1
10
0.0
20
0.0
30
0.0
70
1
0
VERTEX
5
2c3
100
AcDbEntity
8
1
100
AcDbVertex
100
AcDb2dVertex
62
5
10
241.944603
20
165.939296
0
VERTEX
5
2c4
100
AcDbEntity
8
1
100
AcDbVertex
100
AcDb2dVertex
62
5
10
240.175397
20
165.939296
0
VERTEX
5
2c5
100
AcDbEntity
8
1
100
AcDbVertex
100
AcDb2dVertex
62
5
10
240.175397
20
166.593213
0
VERTEX
5
2c6
100
AcDbEntity
8
1
100
AcDbVertex
100
AcDb2dVertex
62
5
10
241.944603
20
166.593213
0
SEQEND
5
2c7
100
AcDbEntity
8
1
0
POLYLINE
5
2c8
100
AcDbEntity
8
1
6
CONTINUOUS
62
5
100
AcDb2dPolyline
66
1
10
0.0
20
0.0
30
0.0
70
1
0
VERTEX
5
2c9
100
AcDbEntity
8
1
100
AcDbVertex
100
AcDb2dVertex
62
5
10
240.175397
20
167.477923
0
VERTEX
5
2ca
100
AcDbEntity
8
1
100
AcDbVertex
100
AcDb2dVertex
62
5
10
240.175397
20
168.131839
0
VERTEX
5
2cb
100
AcDbEntity
8
1
100
AcDbVertex
100
AcDb2dVertex
62
5
10
241.944603
20
168.131839
0
VERTEX
5
2cc
100
AcDbEntity
8
1
100
AcDbVertex
100
AcDb2dVertex
62
5
10
241.944603
20
167.477923
0
SEQEND
5
2cd
100
AcDbEntity
8
1
0
POLYLINE
5
2ce
100
AcDbEntity
8
1
6
CONTINUOUS
62
5
100
AcDb2dPolyline
66
1
10
0.0
20
0.0
30
0.0
70
1
0
VERTEX
5
2cf
100
AcDbEntity
8
1
100
AcDbVertex
100
AcDb2dVertex
62
5
10
240.060000
20
165.823900
0
VERTEX
5
2d0
100
AcDbEntity
8
1
100
AcDbVertex
100
AcDb2dVertex
62
5
10
240.060000
20
168.247236
0
VERTEX
5
2d1
100
AcDbEntity
8
1
100
AcDbVertex
100
AcDb2dVertex
62
5
10
240.880094
20
168.247236
0
VERTEX
5
2d2
100
AcDbEntity
8
1
100
AcDbVertex
100
AcDb2dVertex
62
5
10
241.056475
20
168.599998
0
VERTEX
5
2d3
100
AcDbEntity
8
1
100
AcDbVertex
100
AcDb2dVertex
62
5
10
241.159689
20
168.548391
0
VERTEX
5
2d4
100
AcDbEntity
8
1
100
AcDbVertex
100
AcDb2dVertex
62
5
10
241.009112
20
168.247236
0
VERTEX
5
2d5
100
AcDbEntity
8
1
100
AcDbVertex
100
AcDb2dVertex
62
5
10
242.060000
20
168.247236
0
VERTEX
5
2d6
100
AcDbEntity
8
1
100
AcDbVertex
100
AcDb2dVertex
62
5
10
242.060000
20
165.823900
0
SEQEND
5
2d7
100
AcDbEntity
8
1
0
POLYLINE
5
2d8
100
AcDbEntity
8
1
6
CONTINUOUS
62
5
100
AcDb2dPolyline
66
1
10
0.0
20
0.0
30
0.0
70
1
0
VERTEX
5
2d9
100
AcDbEntity
8
1
100
AcDbVertex
100
AcDb2dVertex
62
5
10
250.861534
20
163.191628
0
VERTEX
5
2da
100
AcDbEntity
8
1
100
AcDbVertex
100
AcDb2dVertex
62
5
10
250.205515
20
163.191628
0
VERTEX
5
2db
100
AcDbEntity
8
1
100
AcDbVertex
100
AcDb2dVertex
62
5
10
250.205515
20
163.465785
0
VERTEX
5
2dc
100
AcDbEntity
8
1
100
AcDbVertex
100
AcDb2dVertex
62
5
10
250.861534
20
163.465785
0
SEQEND
5
2dd
100
AcDbEntity
8
1
0
POLYLINE
5
2de
100
AcDbEntity
8
1
6
CONTINUOUS
62
5
100
AcDb2dPolyline
66
1
10
0.0
20
0.0
30
0.0
70
1
0
VERTEX
5
2df
100
AcDbEntity
8
1
100
AcDbVertex
100
AcDb2dVertex
62
5
10
250.861534
20
163.583281
0
VERTEX
5
2e0
100
AcDbEntity
8
1
100
AcDbVertex
100
AcDb2dVertex
62
5
10
250.205515
20
163.583281
0
VERTEX
5
2e1
100
AcDbEntity
8
1
100
AcDbVertex
100
AcDb2dVertex
62
5
10
250.205515
20
163.857438
0
VERTEX
5
2e2
100
AcDbEntity
8
1
100
AcDbVertex
100
AcDb2dVertex
62
5
10
250.861534
20
163.857438
0
SEQEND
5
2e3
100
AcDbEntity
8
1
0
POLYLINE
5
2e4
100
AcDbEntity
8
1
6
CONTINUOUS
62
5
100
AcDb2dPolyline
66
1
10
0.0
20
0.0
30
0.0
70
1
0
VERTEX
5
2e5
100
AcDbEntity
8
1
100
AcDbVertex
100
AcDb2dVertex
62
5
10
249.618035
20
163.387454
0
VERTEX
5
2e6
100
AcDbEntity
8
1
100
AcDbVertex
100
AcDb2dVertex
62
5
10
249.618035
20
162.385882
0
VERTEX
5
2e7
100
AcDbEntity
8
1
100
AcDbVertex
100
AcDb2dVertex
62
5
10
249.967685
20
162.211057
0
VERTEX
5
2e8
100
AcDbEntity
8
1
100
AcDbVertex
100
AcDb2dVertex
62
5
10
251.817443
20
162.016345
0
VERTEX
5
2e9
100
AcDbEntity
8
1
100
AcDbVertex
100
AcDb2dVertex
62
5
10
251.805143
20
161.899495
0
VERTEX
5
2ea
100
AcDbEntity
8
1
100
AcDbVertex
100
AcDb2dVertex
62
5
10
249.934196
20
162.096437
0
VERTEX
5
2eb
100
AcDbEntity
8
1
100
AcDbVertex
100
AcDb2dVertex
62
5
10
249.561859
20
162.282605
0
VERTEX
5
2ec
100
AcDbEntity
8
1
100
AcDbVertex
100
AcDb2dVertex
62
5
10
249.099946
20
162.005457
0
VERTEX
5
2ed
100
AcDbEntity
8
1
100
AcDbVertex
100
AcDb2dVertex
62
5
10
249.039495
20
162.106209
0
VERTEX
5
2ee
100
AcDbEntity
8
1
100
AcDbVertex
100
AcDb2dVertex
62
5
10
249.500539
20
162.382836
0
VERTEX
5
2ef
100
AcDbEntity
8
1
100
AcDbVertex
100
AcDb2dVertex
62
5
10
249.500539
20
163.269958
0
VERTEX
5
2f0
100
AcDbEntity
8
1
100
AcDbVertex
100
AcDb2dVertex
62
5
10
249.069721
20
163.269958
0
VERTEX
5
2f1
100
AcDbEntity
8
1
100
AcDbVertex
100
AcDb2dVertex
62
5
10
249.069721
20
163.387454
0
SEQEND
5
2f2
100
AcDbEntity
8
1
0
POLYLINE
5
2f3
100
AcDbEntity
8
1
6
CONTINUOUS
62
5
100
AcDb2dPolyline
66
1
10
0.0
20
0.0
30
0.0
70
1
0
VERTEX
5
2f4
100
AcDbEntity
8
1
100
AcDbVertex
100
AcDb2dVertex
62
5
10
250.861534
20
162.682478
0
VERTEX
5
2f5
100
AcDbEntity
8
1
100
AcDbVertex
100
AcDb2dVertex
62
5
10
249.804070
20
162.682478
0
VERTEX
5
2f6
100
AcDbEntity
8
1
100
AcDbVertex
100
AcDb2dVertex
62
5
10
249.804070
20
162.799974
0
VERTEX
5
2f7
100
AcDbEntity
8
1
100
AcDbVertex
100
AcDb2dVertex
62
5
10
250.861534
20
162.799974
0
VERTEX
5
2f8
100
AcDbEntity
8
1
100
AcDbVertex
100
AcDb2dVertex
62
5
10
250.861534
20
163.074132
0
VERTEX
5
2f9
100
AcDbEntity
8
1
100
AcDbVertex
100
AcDb2dVertex
62
5
10
250.088019
20
163.074132
0
VERTEX
5
2fa
100
AcDbEntity
8
1
100
AcDbVertex
100
AcDb2dVertex
62
5
10
250.088019
20
163.974934
0
VERTEX
5
2fb
100
AcDbEntity
8
1
100
AcDbVertex
100
AcDb2dVertex
62
5
10
250.861534
20
163.974934
0
VERTEX
5
2fc
100
AcDbEntity
8
1
100
AcDbVertex
100
AcDb2dVertex
62
5
10
250.861534
20
164.249091
0
VERTEX
5
2fd
100
AcDbEntity
8
1
100
AcDbVertex
100
AcDb2dVertex
62
5
10
249.950940
20
164.249091
0
VERTEX
5
2fe
100
AcDbEntity
8
1
100
AcDbVertex
100
AcDb2dVertex
62
5
10
249.950940
20
164.366587
0
VERTEX
5
2ff
100
AcDbEntity
8
1
100
AcDbVertex
100
AcDb2dVertex
62
5
10
250.861534
20
164.366587
0
VERTEX
5
300
100
AcDbEntity
8
1
100
AcDbVertex
100
AcDb2dVertex
62
5
10
250.861534
20
164.699492
0
VERTEX
5
301
100
AcDbEntity
8
1
100
AcDbVertex
100
AcDb2dVertex
62
5
10
250.979030
20
164.699492
0
VERTEX
5
302
100
AcDbEntity
8
1
100
AcDbVertex
100
AcDb2dVertex
62
5
10
250.979030
20
164.366587
0
VERTEX
5
303
100
AcDbEntity
8
1
100
AcDbVertex
100
AcDb2dVertex
62
5
10
251.811293
20
164.366587
0
VERTEX
5
304
100
AcDbEntity
8
1
100
AcDbVertex
100
AcDb2dVertex
62
5
10
251.811293
20
164.249091
0
VERTEX
5
305
100
AcDbEntity
8
1
100
AcDbVertex
100
AcDb2dVertex
62
5
10
250.979030
20
164.249091
0
VERTEX
5
306
100
AcDbEntity
8
1
100
AcDbVertex
100
AcDb2dVertex
62
5
10
250.979030
20
163.974934
0
VERTEX
5
307
100
AcDbEntity
8
1
100
AcDbVertex
100
AcDb2dVertex
62
5
10
251.674214
20
163.974934
0
VERTEX
5
308
100
AcDbEntity
8
1
100
AcDbVertex
100
AcDb2dVertex
62
5
10
251.674214
20
163.074132
0
VERTEX
5
309
100
AcDbEntity
8
1
100
AcDbVertex
100
AcDb2dVertex
62
5
10
250.979030
20
163.074132
0
VERTEX
5
30a
100
AcDbEntity
8
1
100
AcDbVertex
100
AcDb2dVertex
62
5
10
250.979030
20
162.799974
0
VERTEX
5
30b
100
AcDbEntity
8
1
100
AcDbVertex
100
AcDb2dVertex
62
5
10
251.958163
20
162.799974
0
VERTEX
5
30c
100
AcDbEntity
8
1
100
AcDbVertex
100
AcDb2dVertex
62
5
10
251.958163
20
162.682478
0
VERTEX
5
30d
100
AcDbEntity
8
1
100
AcDbVertex
100
AcDb2dVertex
62
5
10
250.979030
20
162.682478
0
VERTEX
5
30e
100
AcDbEntity
8
1
100
AcDbVertex
100
AcDb2dVertex
62
5
10
250.979030
20
162.349573
0
VERTEX
5
30f
100
AcDbEntity
8
1
100
AcDbVertex
100
AcDb2dVertex
62
5
10
250.861534
20
162.349573
0
SEQEND
5
310
100
AcDbEntity
8
1
0
LINE
5
311
100
AcDbEntity
8
1
100
AcDbLine
6
CONTINUOUS
62
5
10
266.940000
20
183.840000
11
266.940000
21
180.160000
0
POLYLINE
5
312
100
AcDbEntity
8
1
6
CONTINUOUS
62
5
100
AcDb2dPolyline
66
1
10
0.0
20
0.0
30
0.0
70
0
0
VERTEX
5
313
100
AcDbEntity
8
1
100
AcDbVertex
100
AcDb2dVertex
62
5
10
266.860000
20
180.160000
0
VERTEX
5
314
100
AcDbEntity
8
1
100
AcDbVertex
100
AcDb2dVertex
62
5
10
267.340000
20
180.160000
0
VERTEX
5
315
100
AcDbEntity
8
1
100
AcDbVertex
100
AcDb2dVertex
62
5
10
267.340000
20
183.840000
0
VERTEX
5
316
100
AcDbEntity
8
1
100
AcDbVertex
100
AcDb2dVertex
62
5
10
266.860000
20
183.840000
0
SEQEND
5
317
100
AcDbEntity
8
1
0
POLYLINE
5
318
100
AcDbEntity
8
0
6
DOT2
62
5
100
AcDb2dPolyline
66
1
10
0.0
20
0.0
30
0.0
70
0
0
VERTEX
5
319
100
AcDbEntity
8
0
100
AcDbVertex
100
AcDb2dVertex
62
5
10
193.880000
20
235.300000
0
VERTEX
5
31a
100
AcDbEntity
8
0
100
AcDbVertex
100
AcDb2dVertex
62
5
10
194.630000
20
235.800000
0
VERTEX
5
31b
100
AcDbEntity
8
0
100
AcDbVertex
100
AcDb2dVertex
62
5
10
194.630000
20
229.800000
0
SEQEND
5
31c
100
AcDbEntity
8
0
0
LINE
5
31d
100
AcDbEntity
8
0
100
AcDbLine
6
DOT2
62
5
10
194.130000
20
229.800000
11
195.130000
21
229.800000
0
POLYLINE
5
31e
100
AcDbEntity
8
0
6
DOT2
62
5
100
AcDb2dPolyline
66
1
10
0.0
20
0.0
30
0.0
70
0
0
VERTEX
5
31f
100
AcDbEntity
8
0
100
AcDbVertex
100
AcDb2dVertex
62
5
10
181.880000
20
235.300000
0
VERTEX
5
320
100
AcDbEntity
8
0
100
AcDbVertex
100
AcDb2dVertex
62
5
10
182.630000
20
235.800000
0
VERTEX
5
321
100
AcDbEntity
8
0
100
AcDbVertex
100
AcDb2dVertex
62
5
10
182.630000
20
229.800000
0
SEQEND
5
322
100
AcDbEntity
8
0
0
LINE
5
323
100
AcDbEntity
8
0
100
AcDbLine
6
DOT2
62
5
10
182.130000
20
229.800000
11
183.130000
21
229.800000
0
POLYLINE
5
324
100
AcDbEntity
8
0
6
DOT2
62
5
100
AcDb2dPolyline
66
1
10
0.0
20
0.0
30
0.0
70
0
0
VERTEX
5
325
100
AcDbEntity
8
0
100
AcDbVertex
100
AcDb2dVertex
62
5
10
187.880000
20
232.550000
0
VERTEX
5
326
100
AcDbEntity
8
0
100
AcDbVertex
100
AcDb2dVertex
62
5
10
187.880000
20
232.550000
0
VERTEX
5
327
100
AcDbEntity
8
0
100
AcDbVertex
100
AcDb2dVertex
62
5
10
186.880000
20
232.300000
0
VERTEX
5
328
100
AcDbEntity
8
0
100
AcDbVertex
100
AcDb2dVertex
62
5
10
186.130000
20
232.300000
0
VERTEX
5
329
100
AcDbEntity
8
0
100
AcDbVertex
100
AcDb2dVertex
62
5
10
185.630000
20
232.550000
0
VERTEX
5
32a
100
AcDbEntity
8
0
100
AcDbVertex
100
AcDb2dVertex
62
5
10
185.380000
20
233.300000
0
VERTEX
5
32b
100
AcDbEntity
8
0
100
AcDbVertex
100
AcDb2dVertex
62
5
10
185.380000
20
234.550000
0
VERTEX
5
32c
100
AcDbEntity
8
0
100
AcDbVertex
100
AcDb2dVertex
62
5
10
185.630000
20
235.300000
0
VERTEX
5
32d
100
AcDbEntity
8
0
100
AcDbVertex
100
AcDb2dVertex
62
5
10
185.880000
20
235.550000
0
VERTEX
5
32e
100
AcDbEntity
8
0
100
AcDbVertex
100
AcDb2dVertex
62
5
10
186.380000
20
235.800000
0
VERTEX
5
32f
100
AcDbEntity
8
0
100
AcDbVertex
100
AcDb2dVertex
62
5
10
186.880000
20
235.800000
0
VERTEX
5
330
100
AcDbEntity
8
0
100
AcDbVertex
100
AcDb2dVertex
62
5
10
187.380000
20
235.550000
0
VERTEX
5
331
100
AcDbEntity
8
0
100
AcDbVertex
100
AcDb2dVertex
62
5
10
187.630000
20
235.300000
0
VERTEX
5
332
100
AcDbEntity
8
0
100
AcDbVertex
100
AcDb2dVertex
62
5
10
187.880000
20
234.550000
0
VERTEX
5
333
100
AcDbEntity
8
0
100
AcDbVertex
100
AcDb2dVertex
62
5
10
187.880000
20
231.800000
0
VERTEX
5
334
100
AcDbEntity
8
0
100
AcDbVertex
100
AcDb2dVertex
62
5
10
187.630000
20
230.550000
0
VERTEX
5
335
100
AcDbEntity
8
0
100
AcDbVertex
100
AcDb2dVertex
62
5
10
187.130000
20
230.050000
0
VERTEX
5
336
100
AcDbEntity
8
0
100
AcDbVertex
100
AcDb2dVertex
62
5
10
186.380000
20
229.800000
0
VERTEX
5
337
100
AcDbEntity
8
0
100
AcDbVertex
100
AcDb2dVertex
62
5
10
185.880000
20
229.800000
0
SEQEND
5
338
100
AcDbEntity
8
0
0
LINE
5
339
100
AcDbEntity
8
0
100
AcDbLine
6
CONTINUOUS
62
5
10
160.481952
20
206.391711
11
160.551655
21
206.384225
0
LINE
5
33a
100
AcDbEntity
8
0
100
AcDbLine
6
CONTINUOUS
62
5
10
160.621180
20
206.374670
11
160.690553
21
206.363334
0
LINE
5
33b
100
AcDbEntity
8
0
100
AcDbLine
6
CONTINUOUS
62
5
10
160.551655
20
206.384225
11
160.621180
21
206.374670
0
LINE
5
33c
100
AcDbEntity
8
0
100
AcDbLine
6
CONTINUOUS
62
5
10
160.828940
20
206.336503
11
160.898006
21
206.321603
0
LINE
5
33d
100
AcDbEntity
8
0
100
AcDbLine
6
CONTINUOUS
62
5
10
160.759797
20
206.350512
11
160.828940
21
206.336503
0
LINE
5
33e
100
AcDbEntity
8
0
100
AcDbLine
6
CONTINUOUS
62
5
10
160.690553
20
206.363334
11
160.759797
21
206.350512
0
ARC
5
33f
100
AcDbEntity
8
0
100
AcDbCircle
6
CONTINUOUS
62
5
10
163.020000
20
204.480000
40
0.240000
100
AcDbArc
50
89.999999
51
133.093175
0
LINE
5
340
100
AcDbEntity
8
0
100
AcDbLine
6
CONTINUOUS
62
5
10
163.020000
20
204.720000
11
163.180000
21
204.720000
0
LINE
5
341
100
AcDbEntity
8
0
100
AcDbLine
6
CONTINUOUS
62
5
10
162.834991
20
204.706738
11
163.180000
21
204.715772
0
LINE
5
342
100
AcDbEntity
8
0
100
AcDbLine
6
CONTINUOUS
62
5
10
163.052900
20
203.675386
11
163.060000
21
203.600000
0
LINE
5
343
100
AcDbEntity
8
0
100
AcDbLine
6
CONTINUOUS
62
5
10
163.045593
20
203.750714
11
163.052900
21
203.675386
0
LINE
5
344
100
AcDbEntity
8
0
100
AcDbLine
6
CONTINUOUS
62
5
10
163.037870
20
203.825925
11
163.045593
21
203.750714
0
LINE
5
345
100
AcDbEntity
8
0
100
AcDbLine
6
CONTINUOUS
62
5
10
163.029526
20
203.900963
11
163.037870
21
203.825925
0
LINE
5
346
100
AcDbEntity
8
0
100
AcDbLine
6
CONTINUOUS
62
5
10
163.020351
20
203.975769
11
163.029526
21
203.900963
0
LINE
5
347
100
AcDbEntity
8
0
100
AcDbLine
6
CONTINUOUS
62
5
10
163.010139
20
204.050285
11
163.020351
21
203.975769
0
LINE
5
348
100
AcDbEntity
8
0
100
AcDbLine
6
CONTINUOUS
62
5
10
162.866592
20
204.629049
11
162.892226
21
204.558910
0
LINE
5
349
100
AcDbEntity
8
0
100
AcDbLine
6
CONTINUOUS
62
5
10
162.838646
20
204.698428
11
162.866592
21
204.629049
0
LINE
5
34a
100
AcDbEntity
8
0
100
AcDbLine
6
CONTINUOUS
62
5
10
162.808475
20
204.767015
11
162.838646
21
204.698428
0
LINE
5
34b
100
AcDbEntity
8
0
100
AcDbLine
6
CONTINUOUS
62
5
10
162.776167
20
204.834777
11
162.808475
21
204.767015
0
LINE
5
34c
100
AcDbEntity
8
0
100
AcDbLine
6
CONTINUOUS
62
5
10
162.741809
20
204.901683
11
162.776167
21
204.834777
0
LINE
5
34d
100
AcDbEntity
8
0
100
AcDbLine
6
CONTINUOUS
62
5
10
162.705487
20
204.967700
11
162.741809
21
204.901683
0
LINE
5
34e
100
AcDbEntity
8
0
100
AcDbLine
6
CONTINUOUS
62
5
10
162.667291
20
205.032796
11
162.705487
21
204.967700
0
LINE
5
34f
100
AcDbEntity
8
0
100
AcDbLine
6
CONTINUOUS
62
5
10
162.998681
20
204.124453
11
163.010139
21
204.050285
0
LINE
5
350
100
AcDbEntity
8
0
100
AcDbLine
6
CONTINUOUS
62
5
10
162.985772
20
204.198215
11
162.998681
21
204.124453
0
LINE
5
351
100
AcDbEntity
8
0
100
AcDbLine
6
CONTINUOUS
62
5
10
162.971202
20
204.271513
11
162.985772
21
204.198215
0
LINE
5
352
100
AcDbEntity
8
0
100
AcDbLine
6
CONTINUOUS
62
5
10
162.954765
20
204.344289
11
162.971202
21
204.271513
0
LINE
5
353
100
AcDbEntity
8
0
100
AcDbLine
6
CONTINUOUS
62
5
10
162.936254
20
204.416485
11
162.954765
21
204.344289
0
LINE
5
354
100
AcDbEntity
8
0
100
AcDbLine
6
CONTINUOUS
62
5
10
162.915459
20
204.488044
11
162.936254
21
204.416485
0
LINE
5
355
100
AcDbEntity
8
0
100
AcDbLine
6
CONTINUOUS
62
5
10
162.892226
20
204.558910
11
162.915459
21
204.488044
0
LINE
5
356
100
AcDbEntity
8
0
100
AcDbLine
6
CONTINUOUS
62
5
10
160.482745
20
204.576096
11
160.447380
21
204.583275
0
LINE
5
357
100
AcDbEntity
8
0
100
AcDbLine
6
CONTINUOUS
62
5
10
160.517744
20
204.567563
11
160.482745
21
204.576096
0
LINE
5
358
100
AcDbEntity
8
0
100
AcDbLine
6
CONTINUOUS
62
5
10
160.552301
20
204.557652
11
160.517744
21
204.567563
0
LINE
5
359
100
AcDbEntity
8
0
100
AcDbLine
6
CONTINUOUS
62
5
10
160.586336
20
204.546337
11
160.552301
21
204.557652
0
LINE
5
35a
100
AcDbEntity
8
0
100
AcDbLine
6
CONTINUOUS
62
5
10
160.619771
20
204.533592
11
160.586336
21
204.546337
0
LINE
5
35b
100
AcDbEntity
8
0
100
AcDbLine
6
CONTINUOUS
62
5
10
160.652529
20
204.519392
11
160.619771
21
204.533592
0
LINE
5
35c
100
AcDbEntity
8
0
100
AcDbLine
6
CONTINUOUS
62
5
10
160.684592
20
204.503781
11
160.652529
21
204.519392
0
LINE
5
35d
100
AcDbEntity
8
0
100
AcDbLine
6
CONTINUOUS
62
5
10
160.958834
20
204.370215
11
160.632377
21
204.308050
0
LINE
5
35e
100
AcDbEntity
8
0
100
AcDbLine
6
CONTINUOUS
62
5
10
160.619402
20
204.314724
11
160.480101
21
204.616443
0
ARC
5
35f
100
AcDbEntity
8
0
100
AcDbCircle
6
CONTINUOUS
62
5
10
160.260000
20
203.600000
40
0.800000
100
AcDbArc
50
33.304263
51
62.259287
0
ARC
5
360
100
AcDbEntity
8
0
100
AcDbCircle
6
CONTINUOUS
62
5
10
160.260000
20
203.600000
40
0.800000
100
AcDbArc
50
62.259287
51
63.304263
0
LINE
5
361
100
AcDbEntity
8
0
100
AcDbLine
6
CONTINUOUS
62
5
10
160.807372
20
204.430293
11
160.777342
21
204.450006
0
LINE
5
362
100
AcDbEntity
8
0
100
AcDbLine
6
CONTINUOUS
62
5
10
160.837091
20
204.409949
11
160.807372
21
204.430293
0
LINE
5
363
100
AcDbEntity
8
0
100
AcDbLine
6
CONTINUOUS
62
5
10
160.866575
20
204.389132
11
160.837091
21
204.409949
0
LINE
5
364
100
AcDbEntity
8
0
100
AcDbLine
6
CONTINUOUS
62
5
10
160.895902
20
204.367999
11
160.866575
21
204.389132
0
LINE
5
365
100
AcDbEntity
8
0
100
AcDbLine
6
CONTINUOUS
62
5
10
160.925151
20
204.346709
11
160.895902
21
204.367999
0
LINE
5
366
100
AcDbEntity
8
0
100
AcDbLine
6
CONTINUOUS
62
5
10
161.058670
20
203.646111
11
161.221096
21
203.876214
0
LINE
5
367
100
AcDbEntity
8
0
100
AcDbLine
6
CONTINUOUS
62
5
10
161.202471
20
203.934287
11
160.936513
21
204.027001
0
LINE
5
368
100
AcDbEntity
8
0
100
AcDbLine
6
CONTINUOUS
62
5
10
160.928613
20
204.039268
11
160.954227
21
204.319756
0
ARC
5
369
100
AcDbEntity
8
0
100
AcDbCircle
6
CONTINUOUS
62
5
10
160.260000
20
203.600000
40
0.800000
100
AcDbArc
50
2.259288
51
3.304263
0
ARC
5
36a
100
AcDbEntity
8
0
100
AcDbCircle
6
CONTINUOUS
62
5
10
160.260000
20
203.600000
40
0.800000
100
AcDbArc
50
3.304263
51
32.259287
0
ARC
5
36b
100
AcDbEntity
8
0
100
AcDbCircle
6
CONTINUOUS
62
5
10
160.260000
20
203.600000
40
0.800000
100
AcDbArc
50
32.259287
51
33.304263
0
LINE
5
36c
100
AcDbEntity
8
0
100
AcDbLine
6
CONTINUOUS
62
5
10
160.716030
20
204.486908
11
160.684592
21
204.503781
0
LINE
5
36d
100
AcDbEntity
8
0
100
AcDbLine
6
CONTINUOUS
62
5
10
160.746920
20
204.468930
11
160.716030
21
204.486908
0
LINE
5
36e
100
AcDbEntity
8
0
100
AcDbLine
6
CONTINUOUS
62
5
10
160.777342
20
204.450006
11
160.746920
21
204.468930
0
LINE
5
36f
100
AcDbEntity
8
0
100
AcDbLine
6
CONTINUOUS
62
5
10
162.451227
20
205.343324
11
162.497502
21
205.283326
0
LINE
5
370
100
AcDbEntity
8
0
100
AcDbLine
6
CONTINUOUS
62
5
10
162.403521
20
205.402147
11
162.451227
21
205.343324
0
LINE
5
371
100
AcDbEntity
8
0
100
AcDbLine
6
CONTINUOUS
62
5
10
162.354391
20
205.459703
11
162.403521
21
205.402147
0
LINE
5
372
100
AcDbEntity
8
0
100
AcDbLine
6
CONTINUOUS
62
5
10
162.303842
20
205.515898
11
162.354391
21
205.459703
0
LINE
5
373
100
AcDbEntity
8
0
100
AcDbLine
6
CONTINUOUS
62
5
10
162.251882
20
205.570639
11
162.303842
21
205.515898
0
LINE
5
374
100
AcDbEntity
8
0
100
AcDbLine
6
CONTINUOUS
62
5
10
162.198517
20
205.623834
11
162.251882
21
205.570639
0
LINE
5
375
100
AcDbEntity
8
0
100
AcDbLine
6
CONTINUOUS
62
5
10
162.143755
20
205.675389
11
162.198517
21
205.623834
0
LINE
5
376
100
AcDbEntity
8
0
100
AcDbLine
6
CONTINUOUS
62
5
10
162.627307
20
205.096938
11
162.667291
21
205.032796
0
LINE
5
377
100
AcDbEntity
8
0
100
AcDbLine
6
CONTINUOUS
62
5
10
162.585622
20
205.160096
11
162.627307
21
205.096938
0
LINE
5
378
100
AcDbEntity
8
0
100
AcDbLine
6
CONTINUOUS
62
5
10
162.542325
20
205.222236
11
162.585622
21
205.160096
0
LINE
5
379
100
AcDbEntity
8
0
100
AcDbLine
6
CONTINUOUS
62
5
10
162.497502
20
205.283326
11
162.542325
21
205.222236
0
LINE
5
37a
100
AcDbEntity
8
0
100
AcDbLine
6
CONTINUOUS
62
5
10
160.517783
20
202.633236
11
160.552562
21
202.642953
0
LINE
5
37b
100
AcDbEntity
8
0
100
AcDbLine
6
CONTINUOUS
62
5
10
160.482661
20
202.624786
11
160.517783
21
202.633236
0
LINE
5
37c
100
AcDbEntity
8
0
100
AcDbLine
6
CONTINUOUS
62
5
10
160.447269
20
202.617590
11
160.482661
21
202.624786
0
LINE
5
37d
100
AcDbEntity
8
0
100
AcDbLine
6
CONTINUOUS
62
5
10
161.243348
20
203.418265
11
161.059378
21
203.631537
0
LINE
5
37e
100
AcDbEntity
8
0
100
AcDbLine
6
CONTINUOUS
62
5
10
160.654126
20
202.679807
11
160.686815
21
202.694697
0
LINE
5
37f
100
AcDbEntity
8
0
100
AcDbLine
6
CONTINUOUS
62
5
10
160.620806
20
202.666227
11
160.654126
21
202.679807
0
LINE
5
380
100
AcDbEntity
8
0
100
AcDbLine
6
CONTINUOUS
62
5
10
160.586927
20
202.653946
11
160.620806
21
202.666227
0
LINE
5
381
100
AcDbEntity
8
0
100
AcDbLine
6
CONTINUOUS
62
5
10
160.552562
20
202.642953
11
160.586927
21
202.653946
0
LINE
5
382
100
AcDbEntity
8
0
100
AcDbLine
6
CONTINUOUS
62
5
10
160.577608
20
202.609684
11
160.687001
21
202.923487
0
LINE
5
383
100
AcDbEntity
8
0
100
AcDbLine
6
CONTINUOUS
62
5
10
161.020737
20
202.950939
11
160.968050
21
203.227623
0
ARC
5
384
100
AcDbEntity
8
0
100
AcDbCircle
6
CONTINUOUS
62
5
10
160.260000
20
203.600000
40
0.800000
100
AcDbArc
50
-56.695736
51
-27.740712
0
ARC
5
385
100
AcDbEntity
8
0
100
AcDbCircle
6
CONTINUOUS
62
5
10
160.260000
20
203.600000
40
0.800000
100
AcDbArc
50
-27.740712
51
-26.695736
0
LINE
5
386
100
AcDbEntity
8
0
100
AcDbLine
6
CONTINUOUS
62
5
10
160.896747
20
202.831222
11
160.925151
21
202.853291
0
LINE
5
387
100
AcDbEntity
8
0
100
AcDbLine
6
CONTINUOUS
62
5
10
160.868207
20
202.809368
11
160.896747
21
202.831222
0
LINE
5
388
100
AcDbEntity
8
0
100
AcDbLine
6
CONTINUOUS
62
5
10
160.839399
20
202.787948
11
160.868207
21
202.809368
0
LINE
5
389
100
AcDbEntity
8
0
100
AcDbLine
6
CONTINUOUS
62
5
10
160.810187
20
202.767178
11
160.839399
21
202.787948
0
LINE
5
38a
100
AcDbEntity
8
0
100
AcDbLine
6
CONTINUOUS
62
5
10
160.780437
20
202.747273
11
160.810187
21
202.767178
0
LINE
5
38b
100
AcDbEntity
8
0
100
AcDbLine
6
CONTINUOUS
62
5
10
160.750014
20
202.728451
11
160.780437
21
202.747273
0
LINE
5
38c
100
AcDbEntity
8
0
100
AcDbLine
6
CONTINUOUS
62
5
10
160.718802
20
202.710908
11
160.750014
21
202.728451
0
LINE
5
38d
100
AcDbEntity
8
0
100
AcDbLine
6
CONTINUOUS
62
5
10
160.686815
20
202.694697
11
160.718802
21
202.710908
0
LINE
5
38e
100
AcDbEntity
8
0
100
AcDbLine
6
CONTINUOUS
62
5
10
160.699268
20
202.931387
11
160.979756
21
202.905773
0
ARC
5
38f
100
AcDbEntity
8
0
100
AcDbCircle
6
CONTINUOUS
62
5
10
160.260000
20
203.600000
40
0.800000
100
AcDbArc
50
-57.740712
51
-56.695736
0
ARC
5
390
100
AcDbEntity
8
0
100
AcDbCircle
6
CONTINUOUS
62
5
10
160.260000
20
203.600000
40
1.000000
100
AcDbArc
50
-48.306064
51
48.306064
0
LINE
5
391
100
AcDbEntity
8
0
100
AcDbLine
6
CONTINUOUS
62
5
10
160.974724
20
203.240598
11
161.230441
21
203.358660
0
ARC
5
392
100
AcDbEntity
8
0
100
AcDbCircle
6
CONTINUOUS
62
5
10
160.260000
20
203.600000
40
0.800000
100
AcDbArc
50
-26.695736
51
2.259288
0
LINE
5
393
100
AcDbEntity
8
0
100
AcDbLine
6
CONTINUOUS
62
5
10
161.107846
20
206.262059
11
163.180000
21
206.316320
0
LINE
5
394
100
AcDbEntity
8
0
100
AcDbLine
6
CONTINUOUS
62
5
10
161.316738
20
206.177626
11
161.386071
21
206.148079
0
LINE
5
395
100
AcDbEntity
8
0
100
AcDbLine
6
CONTINUOUS
62
5
10
161.246952
20
206.206440
11
161.316738
21
206.177626
0
LINE
5
396
100
AcDbEntity
8
0
100
AcDbLine
6
CONTINUOUS
62
5
10
161.176827
20
206.234705
11
161.246952
21
206.206440
0
LINE
5
397
100
AcDbEntity
8
0
100
AcDbLine
6
CONTINUOUS
62
5
10
161.106475
20
206.262603
11
161.176827
21
206.234705
0
LINE
5
398
100
AcDbEntity
8
0
100
AcDbLine
6
CONTINUOUS
62
5
10
161.036010
20
206.290318
11
161.106475
21
206.262603
0
LINE
5
399
100
AcDbEntity
8
0
100
AcDbLine
6
CONTINUOUS
62
5
10
160.967021
20
206.306109
11
161.036010
21
206.290318
0
LINE
5
39a
100
AcDbEntity
8
0
100
AcDbLine
6
CONTINUOUS
62
5
10
160.898006
20
206.321603
11
160.967021
21
206.306109
0
LINE
5
39b
100
AcDbEntity
8
0
100
AcDbLine
6
CONTINUOUS
62
5
10
162.087601
20
205.725212
11
162.143755
21
205.675389
0
LINE
5
39c
100
AcDbEntity
8
0
100
AcDbLine
6
CONTINUOUS
62
5
10
162.030063
20
205.773209
11
162.087601
21
205.725212
0
LINE
5
39d
100
AcDbEntity
8
0
100
AcDbLine
6
CONTINUOUS
62
5
10
161.971147
20
205.819289
11
162.030063
21
205.773209
0
LINE
5
39e
100
AcDbEntity
8
0
100
AcDbLine
6
CONTINUOUS
62
5
10
161.910860
20
205.863357
11
161.971147
21
205.819289
0
LINE
5
39f
100
AcDbEntity
8
0
100
AcDbLine
6
CONTINUOUS
62
5
10
161.849208
20
205.905321
11
161.910860
21
205.863357
0
LINE
5
3a0
100
AcDbEntity
8
0
100
AcDbLine
6
CONTINUOUS
62
5
10
161.786216
20
205.945133
11
161.849208
21
205.905321
0
LINE
5
3a1
100
AcDbEntity
8
0
100
AcDbLine
6
CONTINUOUS
62
5
10
161.721978
20
205.982928
11
161.786216
21
205.945133
0
LINE
5
3a2
100
AcDbEntity
8
0
100
AcDbLine
6
CONTINUOUS
62
5
10
161.656608
20
206.018891
11
161.721978
21
205.982928
0
LINE
5
3a3
100
AcDbEntity
8
0
100
AcDbLine
6
CONTINUOUS
62
5
10
161.590219
20
206.053204
11
161.656608
21
206.018891
0
LINE
5
3a4
100
AcDbEntity
8
0
100
AcDbLine
6
CONTINUOUS
62
5
10
161.522925
20
206.086051
11
161.590219
21
206.053204
0
LINE
5
3a5
100
AcDbEntity
8
0
100
AcDbLine
6
CONTINUOUS
62
5
10
161.454837
20
206.117615
11
161.522925
21
206.086051
0
LINE
5
3a6
100
AcDbEntity
8
0
100
AcDbLine
6
CONTINUOUS
62
5
10
161.386071
20
206.148079
11
161.454837
21
206.117615
0
LINE
5
3a7
100
AcDbEntity
8
0
100
AcDbLine
6
CONTINUOUS
62
5
10
159.462015
20
204.202674
11
159.440921
21
204.173680
0
LINE
5
3a8
100
AcDbEntity
8
0
100
AcDbLine
6
CONTINUOUS
62
5
10
159.484132
20
204.230880
11
159.462015
21
204.202674
0
LINE
5
3a9
100
AcDbEntity
8
0
100
AcDbLine
6
CONTINUOUS
62
5
10
159.507241
20
204.258267
11
159.484132
21
204.230880
0
LINE
5
3aa
100
AcDbEntity
8
0
100
AcDbLine
6
CONTINUOUS
62
5
10
159.531311
20
204.284805
11
159.507241
21
204.258267
0
LINE
5
3ab
100
AcDbEntity
8
0
100
AcDbLine
6
CONTINUOUS
62
5
10
159.556309
20
204.310463
11
159.531311
21
204.284805
0
LINE
5
3ac
100
AcDbEntity
8
0
100
AcDbLine
6
CONTINUOUS
62
5
10
159.582204
20
204.335210
11
159.556309
21
204.310463
0
LINE
5
3ad
100
AcDbEntity
8
0
100
AcDbLine
6
CONTINUOUS
62
5
10
159.608964
20
204.359017
11
159.582204
21
204.335210
0
LINE
5
3ae
100
AcDbEntity
8
0
100
AcDbLine
6
CONTINUOUS
62
5
10
159.636557
20
204.381852
11
159.608964
21
204.359017
0
LINE
5
3af
100
AcDbEntity
8
0
100
AcDbLine
6
CONTINUOUS
62
5
10
159.664951
20
204.403685
11
159.636557
21
204.381852
0
LINE
5
3b0
100
AcDbEntity
8
0
100
AcDbLine
6
CONTINUOUS
62
5
10
159.489785
20
204.298834
11
159.551950
21
203.972377
0
LINE
5
3b1
100
AcDbEntity
8
0
100
AcDbLine
6
CONTINUOUS
62
5
10
159.545276
20
203.959402
11
159.243557
21
203.820101
0
LINE
5
3b2
100
AcDbEntity
8
0
100
AcDbLine
6
CONTINUOUS
62
5
10
159.243557
20
203.820101
11
159.460622
21
203.568463
0
ARC
5
3b3
100
AcDbEntity
8
0
100
AcDbCircle
6
CONTINUOUS
62
5
10
160.260000
20
203.600000
40
0.800000
100
AcDbArc
50
152.259286
51
153.304262
0
ARC
5
3b4
100
AcDbEntity
8
0
100
AcDbCircle
6
CONTINUOUS
62
5
10
160.260000
20
203.600000
40
0.800000
100
AcDbArc
50
153.304262
51
-177.740711
0
LINE
5
3b5
100
AcDbEntity
8
0
100
AcDbLine
6
CONTINUOUS
62
5
10
159.260014
20
203.599667
11
159.260663
21
203.563664
0
LINE
5
3b6
100
AcDbEntity
8
0
100
AcDbLine
6
CONTINUOUS
62
5
10
159.260664
20
203.635671
11
159.260014
21
203.599667
0
LINE
5
3b7
100
AcDbEntity
8
0
100
AcDbLine
6
CONTINUOUS
62
5
10
159.262606
20
203.671630
11
159.260664
21
203.635671
0
LINE
5
3b8
100
AcDbEntity
8
0
100
AcDbLine
6
CONTINUOUS
62
5
10
159.265835
20
203.707496
11
159.262606
21
203.671630
0
LINE
5
3b9
100
AcDbEntity
8
0
100
AcDbLine
6
CONTINUOUS
62
5
10
159.270347
20
203.743219
11
159.265835
21
203.707496
0
LINE
5
3ba
100
AcDbEntity
8
0
100
AcDbLine
6
CONTINUOUS
62
5
10
159.276134
20
203.778752
11
159.270347
21
203.743219
0
LINE
5
3bb
100
AcDbEntity
8
0
100
AcDbLine
6
CONTINUOUS
62
5
10
159.283192
20
203.814047
11
159.276134
21
203.778752
0
LINE
5
3bc
100
AcDbEntity
8
0
100
AcDbLine
6
CONTINUOUS
62
5
10
159.291515
20
203.849056
11
159.283192
21
203.814047
0
LINE
5
3bd
100
AcDbEntity
8
0
100
AcDbLine
6
CONTINUOUS
62
5
10
159.301096
20
203.883731
11
159.291515
21
203.849056
0
LINE
5
3be
100
AcDbEntity
8
0
100
AcDbLine
6
CONTINUOUS
62
5
10
159.311926
20
203.918026
11
159.301096
21
203.883731
0
LINE
5
3bf
100
AcDbEntity
8
0
100
AcDbLine
6
CONTINUOUS
62
5
10
159.323983
20
203.951898
11
159.311926
21
203.918026
0
LINE
5
3c0
100
AcDbEntity
8
0
100
AcDbLine
6
CONTINUOUS
62
5
10
159.337245
20
203.985307
11
159.323983
21
203.951898
0
LINE
5
3c1
100
AcDbEntity
8
0
100
AcDbLine
6
CONTINUOUS
62
5
10
159.351691
20
204.018210
11
159.337245
21
203.985307
0
LINE
5
3c2
100
AcDbEntity
8
0
100
AcDbLine
6
CONTINUOUS
62
5
10
159.367299
20
204.050565
11
159.351691
21
204.018210
0
LINE
5
3c3
100
AcDbEntity
8
0
100
AcDbLine
6
CONTINUOUS
62
5
10
159.384048
20
204.082332
11
159.367299
21
204.050565
0
LINE
5
3c4
100
AcDbEntity
8
0
100
AcDbLine
6
CONTINUOUS
62
5
10
159.401915
20
204.113468
11
159.384048
21
204.082332
0
LINE
5
3c5
100
AcDbEntity
8
0
100
AcDbLine
6
CONTINUOUS
62
5
10
159.420880
20
204.143931
11
159.401915
21
204.113468
0
LINE
5
3c6
100
AcDbEntity
8
0
100
AcDbLine
6
CONTINUOUS
62
5
10
159.440921
20
204.173680
11
159.420880
21
204.143931
0
LINE
5
3c7
100
AcDbEntity
8
0
100
AcDbLine
6
CONTINUOUS
62
5
10
158.331274
20
205.628450
11
158.381927
21
205.675406
0
LINE
5
3c8
100
AcDbEntity
8
0
100
AcDbLine
6
CONTINUOUS
62
5
10
158.281703
20
205.580245
11
158.331274
21
205.628450
0
LINE
5
3c9
100
AcDbEntity
8
0
100
AcDbLine
6
CONTINUOUS
62
5
10
158.233238
20
205.530817
11
158.281703
21
205.580245
0
LINE
5
3ca
100
AcDbEntity
8
0
100
AcDbLine
6
CONTINUOUS
62
5
10
158.185903
20
205.480191
11
158.233238
21
205.530817
0
LINE
5
3cb
100
AcDbEntity
8
0
100
AcDbLine
6
CONTINUOUS
62
5
10
158.139723
20
205.428392
11
158.185903
21
205.480191
0
LINE
5
3cc
100
AcDbEntity
8
0
100
AcDbLine
6
CONTINUOUS
62
5
10
158.094722
20
205.375446
11
158.139723
21
205.428392
0
LINE
5
3cd
100
AcDbEntity
8
0
100
AcDbLine
6
CONTINUOUS
62
5
10
158.050945
20
205.321374
11
158.094722
21
205.375446
0
LINE
5
3ce
100
AcDbEntity
8
0
100
AcDbLine
6
CONTINUOUS
62
5
10
158.008476
20
205.266191
11
158.050945
21
205.321374
0
LINE
5
3cf
100
AcDbEntity
8
0
100
AcDbLine
6
CONTINUOUS
62
5
10
157.967398
20
205.209910
11
158.008476
21
205.266191
0
LINE
5
3d0
100
AcDbEntity
8
0
100
AcDbLine
6
CONTINUOUS
62
5
10
157.927798
20
205.152544
11
157.967398
21
205.209910
0
ARC
5
3d1
100
AcDbEntity
8
0
100
AcDbCircle
6
CONTINUOUS
62
5
10
160.260000
20
203.600000
40
0.800000
100
AcDbArc
50
-177.740711
51
-176.695735
0
LINE
5
3d2
100
AcDbEntity
8
0
100
AcDbLine
6
CONTINUOUS
62
5
10
159.291700
20
203.350350
11
159.301299
21
203.315682
0
LINE
5
3d3
100
AcDbEntity
8
0
100
AcDbLine
6
CONTINUOUS
62
5
10
159.283346
20
203.385348
11
159.291700
21
203.350350
0
LINE
5
3d4
100
AcDbEntity
8
0
100
AcDbLine
6
CONTINUOUS
62
5
10
159.276249
20
203.420630
11
159.283346
21
203.385348
0
LINE
5
3d5
100
AcDbEntity
8
0
100
AcDbLine
6
CONTINUOUS
62
5
10
159.270421
20
203.456149
11
159.276249
21
203.420630
0
LINE
5
3d6
100
AcDbEntity
8
0
100
AcDbLine
6
CONTINUOUS
62
5
10
159.265873
20
203.491858
11
159.270421
21
203.456149
0
LINE
5
3d7
100
AcDbEntity
8
0
100
AcDbLine
6
CONTINUOUS
62
5
10
159.262617
20
203.527712
11
159.265873
21
203.491858
0
LINE
5
3d8
100
AcDbEntity
8
0
100
AcDbLine
6
CONTINUOUS
62
5
10
159.260663
20
203.563664
11
159.262617
21
203.527712
0
LINE
5
3d9
100
AcDbEntity
8
0
100
AcDbLine
6
CONTINUOUS
62
5
10
159.636963
20
202.817846
11
159.665362
21
202.796041
0
LINE
5
3da
100
AcDbEntity
8
0
100
AcDbLine
6
CONTINUOUS
62
5
10
159.609359
20
202.840650
11
159.636963
21
202.817846
0
LINE
5
3db
100
AcDbEntity
8
0
100
AcDbLine
6
CONTINUOUS
62
5
10
159.582586
20
202.864425
11
159.609359
21
202.840650
0
LINE
5
3dc
100
AcDbEntity
8
0
100
AcDbLine
6
CONTINUOUS
62
5
10
159.556677
20
202.889145
11
159.582586
21
202.864425
0
LINE
5
3dd
100
AcDbEntity
8
0
100
AcDbLine
6
CONTINUOUS
62
5
10
159.531667
20
202.914780
11
159.556677
21
202.889145
0
LINE
5
3de
100
AcDbEntity
8
0
100
AcDbLine
6
CONTINUOUS
62
5
10
159.507590
20
202.941305
11
159.531667
21
202.914780
0
LINE
5
3df
100
AcDbEntity
8
0
100
AcDbLine
6
CONTINUOUS
62
5
10
159.484479
20
202.968689
11
159.507590
21
202.941305
0
LINE
5
3e0
100
AcDbEntity
8
0
100
AcDbLine
6
CONTINUOUS
62
5
10
159.462359
20
202.996895
11
159.484479
21
202.968689
0
LINE
5
3e1
100
AcDbEntity
8
0
100
AcDbLine
6
CONTINUOUS
62
5
10
159.441257
20
203.025884
11
159.462359
21
202.996895
0
LINE
5
3e2
100
AcDbEntity
8
0
100
AcDbLine
6
CONTINUOUS
62
5
10
159.591387
20
203.160732
11
159.561166
21
202.829785
0
LINE
5
3e3
100
AcDbEntity
8
0
100
AcDbLine
6
CONTINUOUS
62
5
10
159.269684
20
203.282392
11
159.583487
21
203.172999
0
ARC
5
3e4
100
AcDbEntity
8
0
100
AcDbCircle
6
CONTINUOUS
62
5
10
160.260000
20
203.600000
40
0.800000
100
AcDbArc
50
-147.740711
51
-146.695735
0
LINE
5
3e5
100
AcDbEntity
8
0
100
AcDbLine
6
CONTINUOUS
62
5
10
159.324185
20
203.247523
11
159.337449
21
203.214125
0
LINE
5
3e6
100
AcDbEntity
8
0
100
AcDbLine
6
CONTINUOUS
62
5
10
159.312131
20
203.281391
11
159.324185
21
203.247523
0
LINE
5
3e7
100
AcDbEntity
8
0
100
AcDbLine
6
CONTINUOUS
62
5
10
159.421199
20
203.055619
11
159.441257
21
203.025884
0
LINE
5
3e8
100
AcDbEntity
8
0
100
AcDbLine
6
CONTINUOUS
62
5
10
159.402209
20
203.086060
11
159.421199
21
203.055619
0
LINE
5
3e9
100
AcDbEntity
8
0
100
AcDbLine
6
CONTINUOUS
62
5
10
159.384313
20
203.117169
11
159.402209
21
203.086060
0
LINE
5
3ea
100
AcDbEntity
8
0
100
AcDbLine
6
CONTINUOUS
62
5
10
159.367538
20
203.148909
11
159.384313
21
203.117169
0
LINE
5
3eb
100
AcDbEntity
8
0
100
AcDbLine
6
CONTINUOUS
62
5
10
159.351908
20
203.181240
11
159.367538
21
203.148909
0
LINE
5
3ec
100
AcDbEntity
8
0
100
AcDbLine
6
CONTINUOUS
62
5
10
159.337449
20
203.214125
11
159.351908
21
203.181240
0
LINE
5
3ed
100
AcDbEntity
8
0
100
AcDbLine
6
CONTINUOUS
62
5
10
159.461330
20
203.553889
11
159.269684
21
203.282392
0
ARC
5
3ee
100
AcDbEntity
8
0
100
AcDbCircle
6
CONTINUOUS
62
5
10
160.260000
20
203.600000
40
0.800000
100
AcDbArc
50
-176.695735
51
-147.740711
0
LINE
5
3ef
100
AcDbEntity
8
0
100
AcDbLine
6
CONTINUOUS
62
5
10
159.301299
20
203.315682
11
159.312131
21
203.281391
0
LINE
5
3f0
100
AcDbEntity
8
0
100
AcDbLine
6
CONTINUOUS
62
5
10
159.583256
20
206.316175
11
159.650543
21
206.332062
0
LINE
5
3f1
100
AcDbEntity
8
0
100
AcDbLine
6
CONTINUOUS
62
5
10
159.516456
20
206.298696
11
159.583256
21
206.316175
0
LINE
5
3f2
100
AcDbEntity
8
0
100
AcDbLine
6
CONTINUOUS
62
5
10
159.450174
20
206.279631
11
159.516456
21
206.298696
0
LINE
5
3f3
100
AcDbEntity
8
0
100
AcDbLine
6
CONTINUOUS
62
5
10
159.384445
20
206.258984
11
159.450174
21
206.279631
0
LINE
5
3f4
100
AcDbEntity
8
0
100
AcDbLine
6
CONTINUOUS
62
5
10
159.319302
20
206.236763
11
159.384445
21
206.258984
0
LINE
5
3f5
100
AcDbEntity
8
0
100
AcDbLine
6
CONTINUOUS
62
5
10
159.254776
20
206.212974
11
159.319302
21
206.236763
0
LINE
5
3f6
100
AcDbEntity
8
0
100
AcDbLine
6
CONTINUOUS
62
5
10
159.190901
20
206.187621
11
159.254776
21
206.212974
0
LINE
5
3f7
100
AcDbEntity
8
0
100
AcDbLine
6
CONTINUOUS
62
5
10
159.127711
20
206.160711
11
159.190901
21
206.187621
0
LINE
5
3f8
100
AcDbEntity
8
0
100
AcDbLine
6
CONTINUOUS
62
5
10
159.065238
20
206.132250
11
159.127711
21
206.160711
0
LINE
5
3f9
100
AcDbEntity
8
0
100
AcDbLine
6
CONTINUOUS
62
5
10
159.003514
20
206.102244
11
159.065238
21
206.132250
0
LINE
5
3fa
100
AcDbEntity
8
0
100
AcDbLine
6
CONTINUOUS
62
5
10
158.942574
20
206.070699
11
159.003514
21
206.102244
0
LINE
5
3fb
100
AcDbEntity
8
0
100
AcDbLine
6
CONTINUOUS
62
5
10
158.882446
20
206.037627
11
158.942574
21
206.070699
0
LINE
5
3fc
100
AcDbEntity
8
0
100
AcDbLine
6
CONTINUOUS
62
5
10
158.823156
20
206.003053
11
158.882446
21
206.037627
0
LINE
5
3fd
100
AcDbEntity
8
0
100
AcDbLine
6
CONTINUOUS
62
5
10
158.764729
20
205.967001
11
158.823156
21
206.003053
0
LINE
5
3fe
100
AcDbEntity
8
0
100
AcDbLine
6
CONTINUOUS
62
5
10
158.707188
20
205.929497
11
158.764729
21
205.967001
0
LINE
5
3ff
100
AcDbEntity
8
0
100
AcDbLine
6
CONTINUOUS
62
5
10
158.650558
20
205.890567
11
158.707188
21
205.929497
0
LINE
5
400
100
AcDbEntity
8
0
100
AcDbLine
6
CONTINUOUS
62
5
10
158.594864
20
205.850235
11
158.650558
21
205.890567
0
LINE
5
401
100
AcDbEntity
8
0
100
AcDbLine
6
CONTINUOUS
62
5
10
158.540129
20
205.808528
11
158.594864
21
205.850235
0
LINE
5
402
100
AcDbEntity
8
0
100
AcDbLine
6
CONTINUOUS
62
5
10
158.486379
20
205.765470
11
158.540129
21
205.808528
0
LINE
5
403
100
AcDbEntity
8
0
100
AcDbLine
6
CONTINUOUS
62
5
10
158.433636
20
205.721088
11
158.486379
21
205.765470
0
LINE
5
404
100
AcDbEntity
8
0
100
AcDbLine
6
CONTINUOUS
62
5
10
158.381927
20
205.675406
11
158.433636
21
205.721088
0
LINE
5
405
100
AcDbEntity
8
0
100
AcDbLine
6
CONTINUOUS
62
5
10
157.672476
20
204.656893
11
157.698479
21
204.722004
0
LINE
5
406
100
AcDbEntity
8
0
100
AcDbLine
6
CONTINUOUS
62
5
10
157.647650
20
204.591177
11
157.672476
21
204.656893
0
LINE
5
407
100
AcDbEntity
8
0
100
AcDbLine
6
CONTINUOUS
62
5
10
157.448322
20
203.914243
11
157.513341
21
204.167696
0
LINE
5
408
100
AcDbEntity
8
0
100
AcDbLine
6
CONTINUOUS
62
5
10
157.383420
20
203.660766
11
157.448322
21
203.914243
0
LINE
5
409
100
AcDbEntity
8
0
100
AcDbLine
6
CONTINUOUS
62
5
10
157.513341
20
204.167696
11
157.555408
21
204.324693
0
LINE
5
40a
100
AcDbEntity
8
0
100
AcDbLine
6
CONTINUOUS
62
5
10
157.577880
20
204.391616
11
157.600587
21
204.458418
0
LINE
5
40b
100
AcDbEntity
8
0
100
AcDbLine
6
CONTINUOUS
62
5
10
157.555408
20
204.324693
11
157.577880
21
204.391616
0
LINE
5
40c
100
AcDbEntity
8
0
100
AcDbLine
6
CONTINUOUS
62
5
10
157.623766
20
204.524979
11
157.647650
21
204.591177
0
LINE
5
40d
100
AcDbEntity
8
0
100
AcDbLine
6
CONTINUOUS
62
5
10
157.600587
20
204.458418
11
157.623766
21
204.524979
0
LINE
5
40e
100
AcDbEntity
8
0
100
AcDbLine
6
CONTINUOUS
62
5
10
157.889761
20
205.094108
11
157.927798
21
205.152544
0
LINE
5
40f
100
AcDbEntity
8
0
100
AcDbLine
6
CONTINUOUS
62
5
10
157.853373
20
205.034615
11
157.889761
21
205.094108
0
LINE
5
410
100
AcDbEntity
8
0
100
AcDbLine
6
CONTINUOUS
62
5
10
157.818719
20
204.974079
11
157.853373
21
205.034615
0
LINE
5
411
100
AcDbEntity
8
0
100
AcDbLine
6
CONTINUOUS
62
5
10
157.785886
20
204.912514
11
157.818719
21
204.974079
0
LINE
5
412
100
AcDbEntity
8
0
100
AcDbLine
6
CONTINUOUS
62
5
10
157.754956
20
204.849933
11
157.785886
21
204.912514
0
LINE
5
413
100
AcDbEntity
8
0
100
AcDbLine
6
CONTINUOUS
62
5
10
157.725894
20
204.786391
11
157.754956
21
204.849933
0
LINE
5
414
100
AcDbEntity
8
0
100
AcDbLine
6
CONTINUOUS
62
5
10
157.698479
20
204.722004
11
157.725894
21
204.786391
0
LINE
5
415
100
AcDbEntity
8
0
100
AcDbLine
6
CONTINUOUS
62
5
10
157.318751
20
203.407243
11
157.383420
21
203.660766
0
LINE
5
416
100
AcDbEntity
8
0
100
AcDbLine
6
CONTINUOUS
62
5
10
157.190578
20
202.899964
11
157.254431
21
203.153650
0
LINE
5
417
100
AcDbEntity
8
0
100
AcDbLine
6
CONTINUOUS
62
5
10
157.127306
20
202.646161
11
157.190578
21
202.899964
0
LINE
5
418
100
AcDbEntity
8
0
100
AcDbLine
6
CONTINUOUS
62
5
10
157.254431
20
203.153650
11
157.318751
21
203.407243
0
LINE
5
419
100
AcDbEntity
8
0
100
AcDbLine
6
CONTINUOUS
62
5
10
160.272156
20
206.401432
11
160.342142
21
206.400243
0
LINE
5
41a
100
AcDbEntity
8
0
100
AcDbLine
6
CONTINUOUS
62
5
10
160.202198
20
206.400668
11
160.272156
21
206.401432
0
LINE
5
41b
100
AcDbEntity
8
0
100
AcDbLine
6
CONTINUOUS
62
5
10
160.132332
20
206.398026
11
160.202198
21
206.400668
0
LINE
5
41c
100
AcDbEntity
8
0
100
AcDbLine
6
CONTINUOUS
62
5
10
160.062618
20
206.393580
11
160.132332
21
206.398026
0
LINE
5
41d
100
AcDbEntity
8
0
100
AcDbLine
6
CONTINUOUS
62
5
10
159.993119
20
206.387403
11
160.062618
21
206.393580
0
LINE
5
41e
100
AcDbEntity
8
0
100
AcDbLine
6
CONTINUOUS
62
5
10
159.923895
20
206.379567
11
159.993119
21
206.387403
0
LINE
5
41f
100
AcDbEntity
8
0
100
AcDbLine
6
CONTINUOUS
62
5
10
159.854992
20
206.370109
11
159.923895
21
206.379567
0
LINE
5
420
100
AcDbEntity
8
0
100
AcDbLine
6
CONTINUOUS
62
5
10
159.786444
20
206.359035
11
159.854992
21
206.370109
0
LINE
5
421
100
AcDbEntity
8
0
100
AcDbLine
6
CONTINUOUS
62
5
10
159.718283
20
206.346351
11
159.786444
21
206.359035
0
LINE
5
422
100
AcDbEntity
8
0
100
AcDbLine
6
CONTINUOUS
62
5
10
159.650543
20
206.332062
11
159.718283
21
206.346351
0
LINE
5
423
100
AcDbEntity
8
0
100
AcDbLine
6
CONTINUOUS
62
5
10
160.342142
20
206.400243
11
160.412095
21
206.397027
0
LINE
5
424
100
AcDbEntity
8
0
100
AcDbLine
6
CONTINUOUS
62
5
10
160.412095
20
206.397027
11
160.481952
21
206.391711
0
LINE
5
425
100
AcDbEntity
8
0
100
AcDbLine
6
CONTINUOUS
62
5
10
159.916413
20
204.539153
11
159.883010
21
204.526245
0
LINE
5
426
100
AcDbEntity
8
0
100
AcDbLine
6
CONTINUOUS
62
5
10
159.950252
20
204.550845
11
159.916413
21
204.539153
0
LINE
5
427
100
AcDbEntity
8
0
100
AcDbLine
6
CONTINUOUS
62
5
10
159.984484
20
204.561296
11
159.950252
21
204.550845
0
LINE
5
428
100
AcDbEntity
8
0
100
AcDbLine
6
CONTINUOUS
62
5
10
160.019067
20
204.570490
11
159.984484
21
204.561296
0
LINE
5
429
100
AcDbEntity
8
0
100
AcDbLine
6
CONTINUOUS
62
5
10
160.053963
20
204.578424
11
160.019067
21
204.570490
0
LINE
5
42a
100
AcDbEntity
8
0
100
AcDbLine
6
CONTINUOUS
62
5
10
160.089133
20
204.585103
11
160.053963
21
204.578424
0
LINE
5
42b
100
AcDbEntity
8
0
100
AcDbLine
6
CONTINUOUS
62
5
10
160.124541
20
204.590528
11
160.089133
21
204.585103
0
LINE
5
42c
100
AcDbEntity
8
0
100
AcDbLine
6
CONTINUOUS
62
5
10
160.160150
20
204.594705
11
160.124541
21
204.590528
0
LINE
5
42d
100
AcDbEntity
8
0
100
AcDbLine
6
CONTINUOUS
62
5
10
160.195921
20
204.597635
11
160.160150
21
204.594705
0
LINE
5
42e
100
AcDbEntity
8
0
100
AcDbLine
6
CONTINUOUS
62
5
10
160.231816
20
204.599321
11
160.195921
21
204.597635
0
LINE
5
42f
100
AcDbEntity
8
0
100
AcDbLine
6
CONTINUOUS
62
5
10
160.267800
20
204.599768
11
160.231816
21
204.599321
0
LINE
5
430
100
AcDbEntity
8
0
100
AcDbLine
6
CONTINUOUS
62
5
10
160.303833
20
204.598978
11
160.267800
21
204.599768
0
LINE
5
431
100
AcDbEntity
8
0
100
AcDbLine
6
CONTINUOUS
62
5
10
160.339877
20
204.596953
11
160.303833
21
204.598978
0
LINE
5
432
100
AcDbEntity
8
0
100
AcDbLine
6
CONTINUOUS
62
5
10
160.375868
20
204.593678
11
160.339877
21
204.596953
0
LINE
5
433
100
AcDbEntity
8
0
100
AcDbLine
6
CONTINUOUS
62
5
10
160.411728
20
204.589127
11
160.375868
21
204.593678
0
LINE
5
434
100
AcDbEntity
8
0
100
AcDbLine
6
CONTINUOUS
62
5
10
160.447380
20
204.583275
11
160.411728
21
204.589127
0
LINE
5
435
100
AcDbEntity
8
0
100
AcDbLine
6
CONTINUOUS
62
5
10
159.694115
20
204.424485
11
159.664951
21
204.403685
0
LINE
5
436
100
AcDbEntity
8
0
100
AcDbLine
6
CONTINUOUS
62
5
10
159.724012
20
204.444226
11
159.694115
21
204.424485
0
LINE
5
437
100
AcDbEntity
8
0
100
AcDbLine
6
CONTINUOUS
62
5
10
159.754600
20
204.462885
11
159.724012
21
204.444226
0
LINE
5
438
100
AcDbEntity
8
0
100
AcDbLine
6
CONTINUOUS
62
5
10
159.785836
20
204.480438
11
159.754600
21
204.462885
0
LINE
5
439
100
AcDbEntity
8
0
100
AcDbLine
6
CONTINUOUS
62
5
10
159.817678
20
204.496865
11
159.785836
21
204.480438
0
LINE
5
43a
100
AcDbEntity
8
0
100
AcDbLine
6
CONTINUOUS
62
5
10
159.850084
20
204.512141
11
159.817678
21
204.496865
0
LINE
5
43b
100
AcDbEntity
8
0
100
AcDbLine
6
CONTINUOUS
62
5
10
159.883010
20
204.526245
11
159.850084
21
204.512141
0
LINE
5
43c
100
AcDbEntity
8
0
100
AcDbLine
6
CONTINUOUS
62
5
10
159.820732
20
204.268613
11
159.489785
21
204.298834
0
LINE
5
43d
100
AcDbEntity
8
0
100
AcDbLine
6
CONTINUOUS
62
5
10
160.213889
20
204.398670
11
159.942392
21
204.590316
0
LINE
5
43e
100
AcDbEntity
8
0
100
AcDbLine
6
CONTINUOUS
62
5
10
159.921804
20
204.531258
11
159.832999
21
204.276513
0
ARC
5
43f
100
AcDbEntity
8
0
100
AcDbCircle
6
CONTINUOUS
62
5
10
160.260000
20
203.600000
40
0.800000
100
AcDbArc
50
123.304262
51
152.259286
0
ARC
5
440
100
AcDbEntity
8
0
100
AcDbCircle
6
CONTINUOUS
62
5
10
160.260000
20
203.600000
40
0.800000
100
AcDbArc
50
92.259287
51
93.304263
0
ARC
5
441
100
AcDbEntity
8
0
100
AcDbCircle
6
CONTINUOUS
62
5
10
160.260000
20
203.600000
40
0.800000
100
AcDbArc
50
93.304263
51
122.259287
0
ARC
5
442
100
AcDbEntity
8
0
100
AcDbCircle
6
CONTINUOUS
62
5
10
160.260000
20
203.600000
40
0.800000
100
AcDbArc
50
122.259287
51
123.304262
0
LINE
5
443
100
AcDbEntity
8
0
100
AcDbLine
6
CONTINUOUS
62
5
10
160.480101
20
204.616443
11
160.228463
21
204.399378
0
ARC
5
444
100
AcDbEntity
8
0
100
AcDbCircle
6
CONTINUOUS
62
5
10
160.260000
20
203.600000
40
0.800000
100
AcDbArc
50
63.304263
51
92.259287
0
LINE
5
445
100
AcDbEntity
8
0
100
AcDbLine
6
CONTINUOUS
62
5
10
160.268314
20
202.600293
11
160.304226
21
202.601248
0
LINE
5
446
100
AcDbEntity
8
0
100
AcDbLine
6
CONTINUOUS
62
5
10
160.232421
20
202.600601
11
160.268314
21
202.600293
0
LINE
5
447
100
AcDbEntity
8
0
100
AcDbLine
6
CONTINUOUS
62
5
10
160.196587
20
202.602178
11
160.232421
21
202.600601
0
LINE
5
448
100
AcDbEntity
8
0
100
AcDbLine
6
CONTINUOUS
62
5
10
160.160851
20
202.605030
11
160.196587
21
202.602178
0
LINE
5
449
100
AcDbEntity
8
0
100
AcDbLine
6
CONTINUOUS
62
5
10
160.125254
20
202.609164
11
160.160851
21
202.605030
0
LINE
5
44a
100
AcDbEntity
8
0
100
AcDbLine
6
CONTINUOUS
62
5
10
160.089835
20
202.614584
11
160.125254
21
202.609164
0
LINE
5
44b
100
AcDbEntity
8
0
100
AcDbLine
6
CONTINUOUS
62
5
10
160.054635
20
202.621294
11
160.089835
21
202.614584
0
LINE
5
44c
100
AcDbEntity
8
0
100
AcDbLine
6
CONTINUOUS
62
5
10
160.019698
20
202.629278
11
160.054635
21
202.621294
0
LINE
5
44d
100
AcDbEntity
8
0
100
AcDbLine
6
CONTINUOUS
62
5
10
159.985067
20
202.638519
11
160.019698
21
202.629278
0
LINE
5
44e
100
AcDbEntity
8
0
100
AcDbLine
6
CONTINUOUS
62
5
10
159.950788
20
202.648999
11
159.985067
21
202.638519
0
LINE
5
44f
100
AcDbEntity
8
0
100
AcDbLine
6
CONTINUOUS
62
5
10
159.916905
20
202.660700
11
159.950788
21
202.648999
0
LINE
5
450
100
AcDbEntity
8
0
100
AcDbLine
6
CONTINUOUS
62
5
10
159.883462
20
202.673604
11
159.916905
21
202.660700
0
LINE
5
451
100
AcDbEntity
8
0
100
AcDbLine
6
CONTINUOUS
62
5
10
159.850505
20
202.687693
11
159.883462
21
202.673604
0
LINE
5
452
100
AcDbEntity
8
0
100
AcDbLine
6
CONTINUOUS
62
5
10
159.818077
20
202.702949
11
159.850505
21
202.687693
0
LINE
5
453
100
AcDbEntity
8
0
100
AcDbLine
6
CONTINUOUS
62
5
10
159.786222
20
202.719355
11
159.818077
21
202.702949
0
LINE
5
454
100
AcDbEntity
8
0
100
AcDbLine
6
CONTINUOUS
62
5
10
159.754986
20
202.736892
11
159.786222
21
202.719355
0
LINE
5
455
100
AcDbEntity
8
0
100
AcDbLine
6
CONTINUOUS
62
5
10
159.724408
20
202.755536
11
159.754986
21
202.736892
0
LINE
5
456
100
AcDbEntity
8
0
100
AcDbLine
6
CONTINUOUS
62
5
10
159.694522
20
202.775262
11
159.724408
21
202.755536
0
LINE
5
457
100
AcDbEntity
8
0
100
AcDbLine
6
CONTINUOUS
62
5
10
159.665362
20
202.796041
11
159.694522
21
202.775262
0
LINE
5
458
100
AcDbEntity
8
0
100
AcDbLine
6
CONTINUOUS
62
5
10
159.561166
20
202.829785
11
159.887623
21
202.891950
0
ARC
5
459
100
AcDbEntity
8
0
100
AcDbCircle
6
CONTINUOUS
62
5
10
160.260000
20
203.600000
40
0.800000
100
AcDbArc
50
-146.695735
51
-117.740711
0
ARC
5
45a
100
AcDbEntity
8
0
100
AcDbCircle
6
CONTINUOUS
62
5
10
160.260000
20
203.600000
40
0.800000
100
AcDbArc
50
-117.740711
51
-116.695736
0
ARC
5
45b
100
AcDbEntity
8
0
100
AcDbCircle
6
CONTINUOUS
62
5
10
160.260000
20
203.600000
40
0.800000
100
AcDbArc
50
-116.695736
51
-87.740711
0
LINE
5
45c
100
AcDbEntity
8
0
100
AcDbLine
6
CONTINUOUS
62
5
10
160.411680
20
202.611638
11
160.447269
21
202.617590
0
LINE
5
45d
100
AcDbEntity
8
0
100
AcDbLine
6
CONTINUOUS
62
5
10
160.375949
20
202.606927
11
160.411680
21
202.611638
0
LINE
5
45e
100
AcDbEntity
8
0
100
AcDbLine
6
CONTINUOUS
62
5
10
160.340118
20
202.603462
11
160.375949
21
202.606927
0
LINE
5
45f
100
AcDbEntity
8
0
100
AcDbLine
6
CONTINUOUS
62
5
10
160.304226
20
202.601248
11
160.340118
21
202.603462
0
ARC
5
460
100
AcDbEntity
8
0
100
AcDbCircle
6
CONTINUOUS
62
5
10
160.260000
20
203.600000
40
0.800000
100
AcDbArc
50
-87.740711
51
-86.695736
0
LINE
5
461
100
AcDbEntity
8
0
100
AcDbLine
6
CONTINUOUS
62
5
10
160.306111
20
202.801330
11
160.577608
21
202.609684
0
ARC
5
462
100
AcDbEntity
8
0
100
AcDbCircle
6
CONTINUOUS
62
5
10
160.260000
20
203.600000
40
0.800000
100
AcDbArc
50
-86.695736
51
-57.740712
0
CIRCLE
5
463
100
AcDbEntity
8
0
100
AcDbCircle
6
CONTINUOUS
62
5
10
160.260000
20
203.600000
40
0.560000
0
ARC
5
464
100
AcDbEntity
8
0
100
AcDbCircle
6
CONTINUOUS
62
5
10
159.854687
20
205.178315
40
2.000000
100
AcDbArc
50
59.999999
51
164.999999
0
LINE
5
465
100
AcDbEntity
8
0
100
AcDbLine
6
CONTINUOUS
62
5
10
160.854687
20
206.910366
11
161.939852
21
206.283846
0
LINE
5
466
100
AcDbEntity
8
0
100
AcDbLine
6
CONTINUOUS
62
5
10
157.555408
20
204.324693
11
157.922836
21
205.695953
0
LINE
5
467
100
AcDbEntity
8
0
100
AcDbLine
6
DOT2
62
5
10
189.880000
20
230.300000
11
189.380000
21
229.800000
0
POLYLINE
5
468
100
AcDbEntity
8
0
6
DOT2
62
5
100
AcDb2dPolyline
66
1
10
0.0
20
0.0
30
0.0
70
0
0
VERTEX
5
469
100
AcDbEntity
8
0
100
AcDbVertex
100
AcDb2dVertex
62
5
10
189.380000
20
230.300000
0
VERTEX
5
46a
100
AcDbEntity
8
0
100
AcDbVertex
100
AcDb2dVertex
62
5
10
189.880000
20
229.800000
0
VERTEX
5
46b
100
AcDbEntity
8
0
100
AcDbVertex
100
AcDb2dVertex
62
5
10
189.380000
20
229.800000
0
VERTEX
5
46c
100
AcDbEntity
8
0
100
AcDbVertex
100
AcDb2dVertex
62
5
10
189.380000
20
230.300000
0
VERTEX
5
46d
100
AcDbEntity
8
0
100
AcDbVertex
100
AcDb2dVertex
62
5
10
189.880000
20
230.300000
0
VERTEX
5
46e
100
AcDbEntity
8
0
100
AcDbVertex
100
AcDb2dVertex
62
5
10
189.880000
20
229.800000
0
SEQEND
5
46f
100
AcDbEntity
8
0
0
POLYLINE
5
470
100
AcDbEntity
8
1
6
CONTINUOUS
62
5
100
AcDb2dPolyline
66
1
10
0.0
20
0.0
30
0.0
70
0
0
VERTEX
5
471
100
AcDbEntity
8
1
100
AcDbVertex
100
AcDb2dVertex
62
5
10
218.860000
20
180.160000
0
VERTEX
5
472
100
AcDbEntity
8
1
100
AcDbVertex
100
AcDb2dVertex
62
5
10
218.380000
20
180.160000
0
VERTEX
5
473
100
AcDbEntity
8
1
100
AcDbVertex
100
AcDb2dVertex
62
5
10
218.380000
20
183.840000
0
VERTEX
5
474
100
AcDbEntity
8
1
100
AcDbVertex
100
AcDb2dVertex
62
5
10
218.860000
20
183.840000
0
SEQEND
5
475
100
AcDbEntity
8
1
0
LINE
5
476
100
AcDbEntity
8
1
100
AcDbLine
6
CONTINUOUS
62
5
10
218.780000
20
183.840000
11
218.780000
21
180.160000
0
LINE
5
477
100
AcDbEntity
8
0
100
AcDbLine
6
CONTINUOUS
62
5
10
163.060000
20
200.886822
11
163.180000
21
200.883680
0
LINE
5
478
100
AcDbEntity
8
0
100
AcDbLine
6
CONTINUOUS
62
5
10
163.060000
20
197.442702
11
163.180000
21
197.442702
0
LINE
5
479
100
AcDbEntity
8
0
100
AcDbLine
6
CONTINUOUS
62
5
10
163.060000
20
192.400000
11
163.180000
21
192.400000
0
LINE
5
47a
100
AcDbEntity
8
0
100
AcDbLine
6
CONTINUOUS
62
5
10
156.709850
20
200.864464
11
156.766235
21
201.119639
0
LINE
5
47b
100
AcDbEntity
8
0
100
AcDbLine
6
CONTINUOUS
62
5
10
156.654552
20
200.609075
11
156.709850
21
200.864464
0
LINE
5
47c
100
AcDbEntity
8
0
100
AcDbLine
6
CONTINUOUS
62
5
10
156.823734
20
201.374594
11
156.882371
21
201.629322
0
LINE
5
47d
100
AcDbEntity
8
0
100
AcDbLine
6
CONTINUOUS
62
5
10
156.766235
20
201.119639
11
156.823734
21
201.374594
0
LINE
5
47e
100
AcDbEntity
8
0
100
AcDbLine
6
CONTINUOUS
62
5
10
156.600315
20
200.353477
11
156.654552
21
200.609075
0
LINE
5
47f
100
AcDbEntity
8
0
100
AcDbLine
6
CONTINUOUS
62
5
10
156.547114
20
200.097678
11
156.600315
21
200.353477
0
LINE
5
480
100
AcDbEntity
8
0
100
AcDbLine
6
CONTINUOUS
62
5
10
156.494923
20
199.841683
11
156.547114
21
200.097678
0
LINE
5
481
100
AcDbEntity
8
0
100
AcDbLine
6
CONTINUOUS
62
5
10
156.443717
20
199.585499
11
156.494923
21
199.841683
0
LINE
5
482
100
AcDbEntity
8
0
100
AcDbLine
6
CONTINUOUS
62
5
10
156.110883
20
197.787377
11
156.155781
21
198.044745
0
LINE
5
483
100
AcDbEntity
8
0
100
AcDbLine
6
CONTINUOUS
62
5
10
156.201563
20
198.301949
11
156.248221
21
198.558991
0
LINE
5
484
100
AcDbEntity
8
0
100
AcDbLine
6
CONTINUOUS
62
5
10
156.155781
20
198.044745
11
156.201563
21
198.301949
0
LINE
5
485
100
AcDbEntity
8
0
100
AcDbLine
6
CONTINUOUS
62
5
10
155.784576
20
195.722382
11
155.822092
21
195.981104
0
LINE
5
486
100
AcDbEntity
8
0
100
AcDbLine
6
CONTINUOUS
62
5
10
155.899963
20
196.498035
11
155.940309
21
196.756242
0
LINE
5
487
100
AcDbEntity
8
0
100
AcDbLine
6
CONTINUOUS
62
5
10
155.860555
20
196.239656
11
155.899963
21
196.498035
0
LINE
5
488
100
AcDbEntity
8
0
100
AcDbLine
6
CONTINUOUS
62
5
10
155.822092
20
195.981104
11
155.860555
21
196.239656
0
LINE
5
489
100
AcDbEntity
8
0
100
AcDbLine
6
CONTINUOUS
62
5
10
155.712388
20
195.204435
11
155.748008
21
195.463491
0
LINE
5
48a
100
AcDbEntity
8
0
100
AcDbLine
6
CONTINUOUS
62
5
10
155.677718
20
194.945216
11
155.712388
21
195.204435
0
LINE
5
48b
100
AcDbEntity
8
0
100
AcDbLine
6
CONTINUOUS
62
5
10
155.643999
20
194.685837
11
155.677718
21
194.945216
0
LINE
5
48c
100
AcDbEntity
8
0
100
AcDbLine
6
CONTINUOUS
62
5
10
155.611231
20
194.426301
11
155.643999
21
194.685837
0
LINE
5
48d
100
AcDbEntity
8
0
100
AcDbLine
6
CONTINUOUS
62
5
10
155.579415
20
194.166610
11
155.611231
21
194.426301
0
LINE
5
48e
100
AcDbEntity
8
0
100
AcDbLine
6
CONTINUOUS
62
5
10
155.548551
20
193.906767
11
155.579415
21
194.166610
0
LINE
5
48f
100
AcDbEntity
8
0
100
AcDbLine
6
CONTINUOUS
62
5
10
155.518641
20
193.646774
11
155.548551
21
193.906767
0
LINE
5
490
100
AcDbEntity
8
0
100
AcDbLine
6
CONTINUOUS
62
5
10
155.489686
20
193.386635
11
155.518641
21
193.646774
0
LINE
5
491
100
AcDbEntity
8
0
100
AcDbLine
6
CONTINUOUS
62
5
10
155.461680
20
193.126353
11
155.489686
21
193.386635
0
LINE
5
492
100
AcDbEntity
8
0
100
AcDbLine
6
CONTINUOUS
62
5
10
155.434618
20
192.865930
11
155.461680
21
193.126353
0
LINE
5
493
100
AcDbEntity
8
0
100
AcDbLine
6
CONTINUOUS
62
5
10
155.748008
20
195.463491
11
155.784576
21
195.722382
0
LINE
5
494
100
AcDbEntity
8
0
100
AcDbLine
6
CONTINUOUS
62
5
10
156.066878
20
197.529844
11
156.110883
21
197.787377
0
LINE
5
495
100
AcDbEntity
8
0
100
AcDbLine
6
CONTINUOUS
62
5
10
156.023775
20
197.272145
11
156.066878
21
197.529844
0
LINE
5
496
100
AcDbEntity
8
0
100
AcDbLine
6
CONTINUOUS
62
5
10
155.981582
20
197.014278
11
156.023775
21
197.272145
0
LINE
5
497
100
AcDbEntity
8
0
100
AcDbLine
6
CONTINUOUS
62
5
10
155.940309
20
196.756242
11
155.981582
21
197.014278
0
LINE
5
498
100
AcDbEntity
8
0
100
AcDbLine
6
CONTINUOUS
62
5
10
156.295747
20
198.815871
11
156.344154
21
199.072587
0
LINE
5
499
100
AcDbEntity
8
0
100
AcDbLine
6
CONTINUOUS
62
5
10
156.393469
20
199.329132
11
156.443717
21
199.585499
0
LINE
5
49a
100
AcDbEntity
8
0
100
AcDbLine
6
CONTINUOUS
62
5
10
156.344154
20
199.072587
11
156.393469
21
199.329132
0
LINE
5
49b
100
AcDbEntity
8
0
100
AcDbLine
6
CONTINUOUS
62
5
10
156.248221
20
198.558991
11
156.295747
21
198.815871
0
LINE
5
49c
100
AcDbEntity
8
0
100
AcDbLine
6
CONTINUOUS
62
5
10
155.313200
20
191.561818
11
155.335655
21
191.822896
0
LINE
5
49d
100
AcDbEntity
8
0
100
AcDbLine
6
CONTINUOUS
62
5
10
155.408492
20
192.605369
11
155.434618
21
192.865930
0
LINE
5
49e
100
AcDbEntity
8
0
100
AcDbLine
6
CONTINUOUS
62
5
10
155.383294
20
192.344675
11
155.408492
21
192.605369
0
LINE
5
49f
100
AcDbEntity
8
0
100
AcDbLine
6
CONTINUOUS
62
5
10
155.359018
20
192.083849
11
155.383294
21
192.344675
0
LINE
5
4a0
100
AcDbEntity
8
0
100
AcDbLine
6
CONTINUOUS
62
5
10
155.335655
20
191.822896
11
155.359018
21
192.083849
0
LINE
5
4a1
100
AcDbEntity
8
0
100
AcDbLine
6
CONTINUOUS
62
5
10
155.166407
20
189.469138
11
155.181381
21
189.731076
0
LINE
5
4a2
100
AcDbEntity
8
0
100
AcDbLine
6
CONTINUOUS
62
5
10
155.152490
20
189.207114
11
155.166407
21
189.469138
0
LINE
5
4a3
100
AcDbEntity
8
0
100
AcDbLine
6
CONTINUOUS
62
5
10
155.139661
20
188.945008
11
155.152490
21
189.207114
0
LINE
5
4a4
100
AcDbEntity
8
0
100
AcDbLine
6
CONTINUOUS
62
5
10
155.127953
20
188.682827
11
155.139661
21
188.945008
0
LINE
5
4a5
100
AcDbEntity
8
0
100
AcDbLine
6
CONTINUOUS
62
5
10
155.117398
20
188.420574
11
155.127953
21
188.682827
0
LINE
5
4a6
100
AcDbEntity
8
0
100
AcDbLine
6
CONTINUOUS
62
5
10
155.108029
20
188.158255
11
155.117398
21
188.420574
0
LINE
5
4a7
100
AcDbEntity
8
0
100
AcDbLine
6
CONTINUOUS
62
5
10
155.214372
20
190.254674
11
155.232323
21
190.516324
0
LINE
5
4a8
100
AcDbEntity
8
0
100
AcDbLine
6
CONTINUOUS
62
5
10
155.197380
20
189.992923
11
155.214372
21
190.254674
0
LINE
5
4a9
100
AcDbEntity
8
0
100
AcDbLine
6
CONTINUOUS
62
5
10
155.181381
20
189.731076
11
155.197380
21
189.992923
0
LINE
5
4aa
100
AcDbEntity
8
0
100
AcDbLine
6
CONTINUOUS
62
5
10
155.099835
20
187.895876
11
155.108029
21
188.158255
0
LINE
5
4ab
100
AcDbEntity
8
0
100
AcDbLine
6
CONTINUOUS
62
5
10
155.060000
20
185.532725
11
155.062840
21
185.795379
0
LINE
5
4ac
100
AcDbEntity
8
0
100
AcDbLine
6
CONTINUOUS
62
5
10
155.068995
20
186.320661
11
155.072549
21
186.583278
0
LINE
5
4ad
100
AcDbEntity
8
0
100
AcDbLine
6
CONTINUOUS
62
5
10
155.065798
20
186.058026
11
155.068995
21
186.320661
0
LINE
5
4ae
100
AcDbEntity
8
0
100
AcDbLine
6
CONTINUOUS
62
5
10
155.062840
20
185.795379
11
155.065798
21
186.058026
0
LINE
5
4af
100
AcDbEntity
8
0
100
AcDbLine
6
CONTINUOUS
62
5
10
155.072549
20
186.583278
11
155.076578
21
186.845871
0
LINE
5
4b0
100
AcDbEntity
8
0
100
AcDbLine
6
CONTINUOUS
62
5
10
155.092712
20
187.633442
11
155.099835
21
187.895876
0
LINE
5
4b1
100
AcDbEntity
8
0
100
AcDbLine
6
CONTINUOUS
62
5
10
155.086541
20
187.370959
11
155.092712
21
187.633442
0
LINE
5
4b2
100
AcDbEntity
8
0
100
AcDbLine
6
CONTINUOUS
62
5
10
155.081202
20
187.108433
11
155.086541
21
187.370959
0
LINE
5
4b3
100
AcDbEntity
8
0
100
AcDbLine
6
CONTINUOUS
62
5
10
155.076578
20
186.845871
11
155.081202
21
187.108433
0
LINE
5
4b4
100
AcDbEntity
8
0
100
AcDbLine
6
CONTINUOUS
62
5
10
155.291644
20
191.300619
11
155.313200
21
191.561818
0
LINE
5
4b5
100
AcDbEntity
8
0
100
AcDbLine
6
CONTINUOUS
62
5
10
155.270981
20
191.039301
11
155.291644
21
191.300619
0
LINE
5
4b6
100
AcDbEntity
8
0
100
AcDbLine
6
CONTINUOUS
62
5
10
155.251204
20
190.777868
11
155.270981
21
191.039301
0
LINE
5
4b7
100
AcDbEntity
8
0
100
AcDbLine
6
CONTINUOUS
62
5
10
155.232323
20
190.516324
11
155.251204
21
190.777868
0
LINE
5
4b8
100
AcDbEntity
8
0
100
AcDbLine
6
CONTINUOUS
62
5
10
163.060000
20
202.480000
11
163.180000
21
202.480000
0
LINE
5
4b9
100
AcDbEntity
8
0
100
AcDbLine
6
CONTINUOUS
62
5
10
163.060000
20
202.487370
11
163.180000
21
202.484228
0
LINE
5
4ba
100
AcDbEntity
8
0
100
AcDbLine
6
CONTINUOUS
62
5
10
156.882371
20
201.629322
11
156.942149
21
201.883823
0
LINE
5
4bb
100
AcDbEntity
8
0
100
AcDbLine
6
CONTINUOUS
62
5
10
156.942149
20
201.883823
11
157.002975
21
202.138114
0
LINE
5
4bc
100
AcDbEntity
8
0
100
AcDbLine
6
CONTINUOUS
62
5
10
157.064733
20
202.392219
11
157.127306
21
202.646161
0
LINE
5
4bd
100
AcDbEntity
8
0
100
AcDbLine
6
CONTINUOUS
62
5
10
157.002975
20
202.138114
11
157.064733
21
202.392219
0
LINE
5
4be
100
AcDbEntity
8
0
100
AcDbLine
6
CONTINUOUS
62
5
10
160.039899
20
202.583557
11
160.291537
21
202.800622
0
LINE
5
4bf
100
AcDbEntity
8
0
100
AcDbLine
6
CONTINUOUS
62
5
10
159.900598
20
202.885276
11
160.039899
21
202.583557
0
ARC
5
4c0
100
AcDbEntity
8
1
100
AcDbCircle
6
CONTINUOUS
62
5
10
263.100000
20
194.400000
40
0.400000
100
AcDbArc
50
0.000000
51
89.999999
0
LINE
5
4c1
100
AcDbEntity
8
1
100
AcDbLine
6
CONTINUOUS
62
5
10
263.500000
20
194.400000
11
263.500000
21
193.000000
0
ARC
5
4c2
100
AcDbEntity
8
1
100
AcDbCircle
6
CONTINUOUS
62
5
10
263.100000
20
193.000000
40
0.400000
100
AcDbArc
50
-89.999999
51
-0.000000
0
LINE
5
4c3
100
AcDbEntity
8
1
100
AcDbLine
6
CONTINUOUS
62
5
10
263.100000
20
192.600000
11
259.420000
21
192.600000
0
ARC
5
4c4
100
AcDbEntity
8
1
100
AcDbCircle
6
CONTINUOUS
62
5
10
259.420000
20
192.200000
40
0.400000
100
AcDbArc
50
89.999999
51
-179.999998
0
LINE
5
4c5
100
AcDbEntity
8
1
100
AcDbLine
6
CONTINUOUS
62
5
10
259.020000
20
192.200000
11
259.020000
21
191.600000
0
LINE
5
4c6
100
AcDbEntity
8
1
100
AcDbLine
6
CONTINUOUS
62
5
10
226.460000
20
191.600000
11
226.460000
21
192.520000
0
ARC
5
4c7
100
AcDbEntity
8
1
100
AcDbCircle
6
CONTINUOUS
62
5
10
226.460000
20
192.760000
40
0.240000
100
AcDbArc
50
-89.999999
51
-0.000000
0
LINE
5
4c8
100
AcDbEntity
8
1
100
AcDbLine
6
CONTINUOUS
62
5
10
226.700000
20
192.760000
11
226.700000
21
194.400000
0
ARC
5
4c9
100
AcDbEntity
8
1
100
AcDbCircle
6
CONTINUOUS
62
5
10
227.100000
20
194.400000
40
0.400000
100
AcDbArc
50
89.999999
51
179.999998
0
POLYLINE
5
4ca
100
AcDbEntity
8
1
6
CONTINUOUS
62
5
100
AcDb2dPolyline
66
1
10
0.0
20
0.0
30
0.0
70
0
0
VERTEX
5
4cb
100
AcDbEntity
8
1
100
AcDbVertex
100
AcDb2dVertex
62
5
10
227.100000
20
194.800000
0
VERTEX
5
4cc
100
AcDbEntity
8
1
100
AcDbVertex
100
AcDb2dVertex
62
5
10
238.060000
20
194.800000
0
VERTEX
5
4cd
100
AcDbEntity
8
1
100
AcDbVertex
100
AcDb2dVertex
62
5
10
238.060000
20
193.793990
0
VERTEX
5
4ce
100
AcDbEntity
8
1
100
AcDbVertex
100
AcDb2dVertex
62
5
10
238.060000
20
193.793990
0
SEQEND
5
4cf
100
AcDbEntity
8
1
0
POLYLINE
5
4d0
100
AcDbEntity
8
1
6
CONTINUOUS
62
5
100
AcDb2dPolyline
66
1
10
0.0
20
0.0
30
0.0
70
0
0
VERTEX
5
4d1
100
AcDbEntity
8
1
100
AcDbVertex
100
AcDb2dVertex
62
5
10
247.660000
20
193.793990
0
VERTEX
5
4d2
100
AcDbEntity
8
1
100
AcDbVertex
100
AcDb2dVertex
62
5
10
247.660000
20
193.793990
0
VERTEX
5
4d3
100
AcDbEntity
8
1
100
AcDbVertex
100
AcDb2dVertex
62
5
10
247.660000
20
194.800000
0
VERTEX
5
4d4
100
AcDbEntity
8
1
100
AcDbVertex
100
AcDb2dVertex
62
5
10
263.100000
20
194.800000
0
SEQEND
5
4d5
100
AcDbEntity
8
1
0
POLYLINE
5
4d6
100
AcDbEntity
8
1
6
CONTINUOUS
62
5
100
AcDb2dPolyline
66
1
10
0.0
20
0.0
30
0.0
70
0
0
VERTEX
5
4d7
100
AcDbEntity
8
1
100
AcDbVertex
100
AcDb2dVertex
62
5
10
142.812500
20
327.125000
0
VERTEX
5
4d8
100
AcDbEntity
8
1
100
AcDbVertex
100
AcDb2dVertex
62
5
10
145.859375
20
327.125000
0
VERTEX
5
4d9
100
AcDbEntity
8
1
100
AcDbVertex
100
AcDb2dVertex
62
5
10
145.859375
20
326.812500
0
VERTEX
5
4da
100
AcDbEntity
8
1
100
AcDbVertex
100
AcDb2dVertex
62
5
10
145.390625
20
325.562500
0
VERTEX
5
4db
100
AcDbEntity
8
1
100
AcDbVertex
100
AcDb2dVertex
62
5
10
144.921875
20
324.625000
0
VERTEX
5
4dc
100
AcDbEntity
8
1
100
AcDbVertex
100
AcDb2dVertex
62
5
10
143.984375
20
323.375000
0
VERTEX
5
4dd
100
AcDbEntity
8
1
100
AcDbVertex
100
AcDb2dVertex
62
5
10
142.343750
20
321.812500
0
SEQEND
5
4de
100
AcDbEntity
8
1
0
LINE
5
4df
100
AcDbEntity
8
1
100
AcDbLine
6
CONTINUOUS
62
5
10
144.921875
20
324.625000
11
146.796875
21
321.812500
0
LINE
5
4e0
100
AcDbEntity
8
1
100
AcDbLine
6
CONTINUOUS
62
5
10
135.546875
20
328.375000
11
135.546875
21
324.625000
0
POLYLINE
5
4e1
100
AcDbEntity
8
1
6
CONTINUOUS
62
5
100
AcDb2dPolyline
66
1
10
0.0
20
0.0
30
0.0
70
0
0
VERTEX
5
4e2
100
AcDbEntity
8
1
100
AcDbVertex
100
AcDb2dVertex
62
5
10
138.125000
20
328.687500
0
VERTEX
5
4e3
100
AcDbEntity
8
1
100
AcDbVertex
100
AcDb2dVertex
62
5
10
138.125000
20
324.937500
0
VERTEX
5
4e4
100
AcDbEntity
8
1
100
AcDbVertex
100
AcDb2dVertex
62
5
10
137.890625
20
323.687500
0
VERTEX
5
4e5
100
AcDbEntity
8
1
100
AcDbVertex
100
AcDb2dVertex
62
5
10
137.421875
20
322.437500
0
VERTEX
5
4e6
100
AcDbEntity
8
1
100
AcDbVertex
100
AcDb2dVertex
62
5
10
136.718750
20
321.500000
0
SEQEND
5
4e7
100
AcDbEntity
8
1
0
LINE
5
4e8
100
AcDbEntity
8
1
100
AcDbLine
6
CONTINUOUS
62
5
10
131.000000
20
315.250000
11
133.500000
21
315.250000
0
LINE
5
4e9
100
AcDbEntity
8
1
100
AcDbLine
6
CONTINUOUS
62
5
10
134.750000
20
319.000000
11
135.750000
21
318.062500
0
POLYLINE
5
4ea
100
AcDbEntity
8
1
6
CONTINUOUS
62
5
100
AcDb2dPolyline
66
1
10
0.0
20
0.0
30
0.0
70
0
0
VERTEX
5
4eb
100
AcDbEntity
8
1
100
AcDbVertex
100
AcDb2dVertex
62
5
10
134.250000
20
315.250000
0
VERTEX
5
4ec
100
AcDbEntity
8
1
100
AcDbVertex
100
AcDb2dVertex
62
5
10
135.500000
20
315.250000
0
VERTEX
5
4ed
100
AcDbEntity
8
1
100
AcDbVertex
100
AcDb2dVertex
62
5
10
135.500000
20
312.125000
0
VERTEX
5
4ee
100
AcDbEntity
8
1
100
AcDbVertex
100
AcDb2dVertex
62
5
10
134.250000
20
311.187500
0
SEQEND
5
4ef
100
AcDbEntity
8
1
0
POLYLINE
5
4f0
100
AcDbEntity
8
1
6
CONTINUOUS
62
5
100
AcDb2dPolyline
66
1
10
0.0
20
0.0
30
0.0
70
0
0
VERTEX
5
4f1
100
AcDbEntity
8
1
100
AcDbVertex
100
AcDb2dVertex
62
5
10
135.500000
20
312.125000
0
VERTEX
5
4f2
100
AcDbEntity
8
1
100
AcDbVertex
100
AcDb2dVertex
62
5
10
136.500000
20
311.500000
0
VERTEX
5
4f3
100
AcDbEntity
8
1
100
AcDbVertex
100
AcDb2dVertex
62
5
10
141.250000
20
310.875000
0
SEQEND
5
4f4
100
AcDbEntity
8
1
0
LINE
5
4f5
100
AcDbEntity
8
1
100
AcDbLine
6
CONTINUOUS
62
5
10
136.500000
20
318.375000
11
141.250000
21
318.375000
0
LINE
5
4f6
100
AcDbEntity
8
1
100
AcDbLine
6
CONTINUOUS
62
5
10
139.000000
20
319.625000
11
139.000000
21
312.125000
0
POLYLINE
5
4f7
100
AcDbEntity
8
1
6
CONTINUOUS
62
5
100
AcDb2dPolyline
66
1
10
0.0
20
0.0
30
0.0
70
1
0
VERTEX
5
4f8
100
AcDbEntity
8
1
100
AcDbVertex
100
AcDb2dVertex
62
5
10
137.000000
20
317.125000
0
VERTEX
5
4f9
100
AcDbEntity
8
1
100
AcDbVertex
100
AcDb2dVertex
62
5
10
137.000000
20
314.625000
0
VERTEX
5
4fa
100
AcDbEntity
8
1
100
AcDbVertex
100
AcDb2dVertex
62
5
10
140.750000
20
314.625000
0
VERTEX
5
4fb
100
AcDbEntity
8
1
100
AcDbVertex
100
AcDb2dVertex
62
5
10
140.750000
20
317.125000
0
VERTEX
5
4fc
100
AcDbEntity
8
1
100
AcDbVertex
100
AcDb2dVertex
62
5
10
137.000000
20
317.125000
0
SEQEND
5
4fd
100
AcDbEntity
8
1
0
LINE
5
4fe
100
AcDbEntity
8
1
100
AcDbLine
6
CONTINUOUS
62
5
10
137.000000
20
315.875000
11
140.750000
21
315.875000
0
LINE
5
4ff
100
AcDbEntity
8
1
100
AcDbLine
6
CONTINUOUS
62
5
10
136.000000
20
313.375000
11
141.500000
21
313.375000
0
LINE
5
500
100
AcDbEntity
8
1
100
AcDbLine
6
CONTINUOUS
62
5
10
144.250000
20
319.312500
11
143.250000
21
317.750000
0
LINE
5
501
100
AcDbEntity
8
1
100
AcDbLine
6
CONTINUOUS
62
5
10
143.000000
20
318.062500
11
144.000000
21
316.812500
0
LINE
5
502
100
AcDbEntity
8
1
100
AcDbLine
6
CONTINUOUS
62
5
10
144.750000
20
318.062500
11
143.000000
21
315.250000
0
LINE
5
503
100
AcDbEntity
8
1
100
AcDbLine
6
CONTINUOUS
62
5
10
142.500000
20
315.250000
11
145.000000
21
315.250000
0
LINE
5
504
100
AcDbEntity
8
1
100
AcDbLine
6
CONTINUOUS
62
5
10
144.750000
20
316.187500
11
145.250000
21
314.625000
0
LINE
5
505
100
AcDbEntity
8
1
100
AcDbLine
6
CONTINUOUS
62
5
10
144.000000
20
315.250000
11
144.000000
21
310.875000
0
LINE
5
506
100
AcDbEntity
8
1
100
AcDbLine
6
CONTINUOUS
62
5
10
143.250000
20
314.312500
11
142.750000
21
312.437500
0
LINE
5
507
100
AcDbEntity
8
1
100
AcDbLine
6
CONTINUOUS
62
5
10
144.750000
20
314.312500
11
145.250000
21
312.750000
0
LINE
5
508
100
AcDbEntity
8
1
100
AcDbLine
6
CONTINUOUS
62
5
10
145.500000
20
318.375000
11
149.500000
21
318.375000
0
LINE
5
509
100
AcDbEntity
8
1
100
AcDbLine
6
CONTINUOUS
62
5
10
147.500000
20
319.625000
11
147.500000
21
316.812500
0
LINE
5
50a
100
AcDbEntity
8
1
100
AcDbLine
6
CONTINUOUS
62
5
10
146.000000
20
316.812500
11
149.000000
21
316.812500
0
POLYLINE
5
50b
100
AcDbEntity
8
1
6
CONTINUOUS
62
5
100
AcDb2dPolyline
66
1
10
0.0
20
0.0
30
0.0
70
0
0
VERTEX
5
50c
100
AcDbEntity
8
1
100
AcDbVertex
100
AcDb2dVertex
62
5
10
145.750000
20
314.625000
0
VERTEX
5
50d
100
AcDbEntity
8
1
100
AcDbVertex
100
AcDb2dVertex
62
5
10
145.750000
20
315.875000
0
VERTEX
5
50e
100
AcDbEntity
8
1
100
AcDbVertex
100
AcDb2dVertex
62
5
10
149.500000
20
315.875000
0
VERTEX
5
50f
100
AcDbEntity
8
1
100
AcDbVertex
100
AcDb2dVertex
62
5
10
149.500000
20
314.625000
0
SEQEND
5
510
100
AcDbEntity
8
1
0
POLYLINE
5
511
100
AcDbEntity
8
1
6
CONTINUOUS
62
5
100
AcDb2dPolyline
66
1
10
0.0
20
0.0
30
0.0
70
0
0
VERTEX
5
512
100
AcDbEntity
8
1
100
AcDbVertex
100
AcDb2dVertex
62
5
10
147.000000
20
314.625000
0
VERTEX
5
513
100
AcDbEntity
8
1
100
AcDbVertex
100
AcDb2dVertex
62
5
10
147.000000
20
313.062500
0
VERTEX
5
514
100
AcDbEntity
8
1
100
AcDbVertex
100
AcDb2dVertex
62
5
10
146.500000
20
311.812500
0
VERTEX
5
515
100
AcDbEntity
8
1
100
AcDbVertex
100
AcDb2dVertex
62
5
10
145.750000
20
311.187500
0
SEQEND
5
516
100
AcDbEntity
8
1
0
POLYLINE
5
517
100
AcDbEntity
8
1
6
CONTINUOUS
62
5
100
AcDb2dPolyline
66
1
10
0.0
20
0.0
30
0.0
70
0
0
VERTEX
5
518
100
AcDbEntity
8
1
100
AcDbVertex
100
AcDb2dVertex
62
5
10
148.000000
20
314.625000
0
VERTEX
5
519
100
AcDbEntity
8
1
100
AcDbVertex
100
AcDb2dVertex
62
5
10
148.000000
20
311.500000
0
VERTEX
5
51a
100
AcDbEntity
8
1
100
AcDbVertex
100
AcDb2dVertex
62
5
10
148.250000
20
311.187500
0
VERTEX
5
51b
100
AcDbEntity
8
1
100
AcDbVertex
100
AcDb2dVertex
62
5
10
149.500000
20
311.187500
0
VERTEX
5
51c
100
AcDbEntity
8
1
100
AcDbVertex
100
AcDb2dVertex
62
5
10
149.500000
20
312.125000
0
SEQEND
5
51d
100
AcDbEntity
8
1
0
POLYLINE
5
51e
100
AcDbEntity
8
1
6
CONTINUOUS
62
5
100
AcDb2dPolyline
66
1
10
0.0
20
0.0
30
0.0
70
0
0
VERTEX
5
51f
100
AcDbEntity
8
1
100
AcDbVertex
100
AcDb2dVertex
62
5
10
125.500000
20
319.312500
0
VERTEX
5
520
100
AcDbEntity
8
1
100
AcDbVertex
100
AcDb2dVertex
62
5
10
124.250000
20
318.687500
0
VERTEX
5
521
100
AcDbEntity
8
1
100
AcDbVertex
100
AcDb2dVertex
62
5
10
122.500000
20
318.375000
0
SEQEND
5
522
100
AcDbEntity
8
1
0
LINE
5
523
100
AcDbEntity
8
1
100
AcDbLine
6
CONTINUOUS
62
5
10
122.250000
20
317.437500
11
126.000000
21
317.437500
0
POLYLINE
5
524
100
AcDbEntity
8
1
6
CONTINUOUS
62
5
100
AcDb2dPolyline
66
1
10
0.0
20
0.0
30
0.0
70
1
0
VERTEX
5
525
100
AcDbEntity
8
1
100
AcDbVertex
100
AcDb2dVertex
62
5
10
122.500000
20
316.500000
0
VERTEX
5
526
100
AcDbEntity
8
1
100
AcDbVertex
100
AcDb2dVertex
62
5
10
122.500000
20
314.000000
0
VERTEX
5
527
100
AcDbEntity
8
1
100
AcDbVertex
100
AcDb2dVertex
62
5
10
125.750000
20
314.000000
0
VERTEX
5
528
100
AcDbEntity
8
1
100
AcDbVertex
100
AcDb2dVertex
62
5
10
125.750000
20
316.500000
0
VERTEX
5
529
100
AcDbEntity
8
1
100
AcDbVertex
100
AcDb2dVertex
62
5
10
122.500000
20
316.500000
0
SEQEND
5
52a
100
AcDbEntity
8
1
0
LINE
5
52b
100
AcDbEntity
8
1
100
AcDbLine
6
CONTINUOUS
62
5
10
122.500000
20
315.250000
11
125.750000
21
315.250000
0
LINE
5
52c
100
AcDbEntity
8
1
100
AcDbLine
6
CONTINUOUS
62
5
10
124.250000
20
318.687500
11
124.250000
21
311.500000
0
LINE
5
52d
100
AcDbEntity
8
1
100
AcDbLine
6
CONTINUOUS
62
5
10
122.500000
20
313.062500
11
125.750000
21
313.062500
0
POLYLINE
5
52e
100
AcDbEntity
8
1
6
CONTINUOUS
62
5
100
AcDb2dPolyline
66
1
10
0.0
20
0.0
30
0.0
70
0
0
VERTEX
5
52f
100
AcDbEntity
8
1
100
AcDbVertex
100
AcDb2dVertex
62
5
10
122.500000
20
311.187500
0
VERTEX
5
530
100
AcDbEntity
8
1
100
AcDbVertex
100
AcDb2dVertex
62
5
10
123.250000
20
311.187500
0
VERTEX
5
531
100
AcDbEntity
8
1
100
AcDbVertex
100
AcDb2dVertex
62
5
10
125.750000
20
311.812500
0
SEQEND
5
532
100
AcDbEntity
8
1
0
POLYLINE
5
533
100
AcDbEntity
8
1
6
CONTINUOUS
62
5
100
AcDb2dPolyline
66
1
10
0.0
20
0.0
30
0.0
70
0
0
VERTEX
5
534
100
AcDbEntity
8
1
100
AcDbVertex
100
AcDb2dVertex
62
5
10
126.250000
20
317.125000
0
VERTEX
5
535
100
AcDbEntity
8
1
100
AcDbVertex
100
AcDb2dVertex
62
5
10
129.250000
20
317.125000
0
VERTEX
5
536
100
AcDbEntity
8
1
100
AcDbVertex
100
AcDb2dVertex
62
5
10
129.250000
20
313.687500
0
VERTEX
5
537
100
AcDbEntity
8
1
100
AcDbVertex
100
AcDb2dVertex
62
5
10
129.000000
20
311.812500
0
VERTEX
5
538
100
AcDbEntity
8
1
100
AcDbVertex
100
AcDb2dVertex
62
5
10
128.250000
20
310.875000
0
VERTEX
5
539
100
AcDbEntity
8
1
100
AcDbVertex
100
AcDb2dVertex
62
5
10
127.500000
20
311.812500
0
SEQEND
5
53a
100
AcDbEntity
8
1
0
POLYLINE
5
53b
100
AcDbEntity
8
1
6
CONTINUOUS
62
5
100
AcDb2dPolyline
66
1
10
0.0
20
0.0
30
0.0
70
0
0
VERTEX
5
53c
100
AcDbEntity
8
1
100
AcDbVertex
100
AcDb2dVertex
62
5
10
127.250000
20
319.625000
0
VERTEX
5
53d
100
AcDbEntity
8
1
100
AcDbVertex
100
AcDb2dVertex
62
5
10
127.250000
20
315.250000
0
VERTEX
5
53e
100
AcDbEntity
8
1
100
AcDbVertex
100
AcDb2dVertex
62
5
10
126.500000
20
312.125000
0
VERTEX
5
53f
100
AcDbEntity
8
1
100
AcDbVertex
100
AcDb2dVertex
62
5
10
125.750000
20
310.875000
0
SEQEND
5
540
100
AcDbEntity
8
1
0
POLYLINE
5
541
100
AcDbEntity
8
1
6
CONTINUOUS
62
5
100
AcDb2dPolyline
66
1
10
0.0
20
0.0
30
0.0
70
1
0
VERTEX
5
542
100
AcDbEntity
8
1
100
AcDbVertex
100
AcDb2dVertex
62
5
10
112.812500
20
322.750000
0
VERTEX
5
543
100
AcDbEntity
8
1
100
AcDbVertex
100
AcDb2dVertex
62
5
10
112.812500
20
327.750000
0
VERTEX
5
544
100
AcDbEntity
8
1
100
AcDbVertex
100
AcDb2dVertex
62
5
10
116.562500
20
327.750000
0
VERTEX
5
545
100
AcDbEntity
8
1
100
AcDbVertex
100
AcDb2dVertex
62
5
10
116.562500
20
322.750000
0
VERTEX
5
546
100
AcDbEntity
8
1
100
AcDbVertex
100
AcDb2dVertex
62
5
10
112.812500
20
322.750000
0
SEQEND
5
547
100
AcDbEntity
8
1
0
LINE
5
548
100
AcDbEntity
8
1
100
AcDbLine
6
CONTINUOUS
62
5
10
111.000000
20
315.250000
11
113.500000
21
315.250000
0
POLYLINE
5
549
100
AcDbEntity
8
1
6
CONTINUOUS
62
5
100
AcDb2dPolyline
66
1
10
0.0
20
0.0
30
0.0
70
0
0
VERTEX
5
54a
100
AcDbEntity
8
1
100
AcDbVertex
100
AcDb2dVertex
62
5
10
119.140625
20
325.562500
0
VERTEX
5
54b
100
AcDbEntity
8
1
100
AcDbVertex
100
AcDb2dVertex
62
5
10
119.375000
20
325.250000
0
VERTEX
5
54c
100
AcDbEntity
8
1
100
AcDbVertex
100
AcDb2dVertex
62
5
10
125.703125
20
325.250000
0
SEQEND
5
54d
100
AcDbEntity
8
1
0
LINE
5
54e
100
AcDbEntity
8
1
100
AcDbLine
6
CONTINUOUS
62
5
10
118.000000
20
319.625000
11
117.500000
21
318.375000
0
POLYLINE
5
54f
100
AcDbEntity
8
1
6
CONTINUOUS
62
5
100
AcDb2dPolyline
66
1
10
0.0
20
0.0
30
0.0
70
1
0
VERTEX
5
550
100
AcDbEntity
8
1
100
AcDbVertex
100
AcDb2dVertex
62
5
10
116.000000
20
318.375000
0
VERTEX
5
551
100
AcDbEntity
8
1
100
AcDbVertex
100
AcDb2dVertex
62
5
10
116.000000
20
310.875000
0
VERTEX
5
552
100
AcDbEntity
8
1
100
AcDbVertex
100
AcDb2dVertex
62
5
10
119.750000
20
310.875000
0
VERTEX
5
553
100
AcDbEntity
8
1
100
AcDbVertex
100
AcDb2dVertex
62
5
10
119.750000
20
318.375000
0
VERTEX
5
554
100
AcDbEntity
8
1
100
AcDbVertex
100
AcDb2dVertex
62
5
10
116.000000
20
318.375000
0
SEQEND
5
555
100
AcDbEntity
8
1
0
LINE
5
556
100
AcDbEntity
8
1
100
AcDbLine
6
CONTINUOUS
62
5
10
116.000000
20
315.875000
11
119.750000
21
315.875000
0
LINE
5
557
100
AcDbEntity
8
1
100
AcDbLine
6
CONTINUOUS
62
5
10
119.750000
20
313.375000
11
116.000000
21
313.375000
0
POLYLINE
5
558
100
AcDbEntity
8
1
6
CONTINUOUS
62
5
100
AcDb2dPolyline
66
1
10
0.0
20
0.0
30
0.0
70
0
0
VERTEX
5
559
100
AcDbEntity
8
1
100
AcDbVertex
100
AcDb2dVertex
62
5
10
127.578125
20
324.937500
0
VERTEX
5
55a
100
AcDbEntity
8
1
100
AcDbVertex
100
AcDb2dVertex
62
5
10
128.515625
20
326.187500
0
VERTEX
5
55b
100
AcDbEntity
8
1
100
AcDbVertex
100
AcDb2dVertex
62
5
10
129.218750
20
327.437500
0
VERTEX
5
55c
100
AcDbEntity
8
1
100
AcDbVertex
100
AcDb2dVertex
62
5
10
131.562500
20
327.437500
0
VERTEX
5
55d
100
AcDbEntity
8
1
100
AcDbVertex
100
AcDb2dVertex
62
5
10
131.562500
20
327.125000
0
VERTEX
5
55e
100
AcDbEntity
8
1
100
AcDbVertex
100
AcDb2dVertex
62
5
10
130.625000
20
324.625000
0
VERTEX
5
55f
100
AcDbEntity
8
1
100
AcDbVertex
100
AcDb2dVertex
62
5
10
129.453125
20
322.750000
0
VERTEX
5
560
100
AcDbEntity
8
1
100
AcDbVertex
100
AcDb2dVertex
62
5
10
128.046875
20
321.500000
0
SEQEND
5
561
100
AcDbEntity
8
1
0
LINE
5
562
100
AcDbEntity
8
1
100
AcDbLine
6
CONTINUOUS
62
5
10
129.218750
20
325.562500
11
130.390625
21
324.312500
0
LINE
5
563
100
AcDbEntity
8
1
100
AcDbLine
6
CONTINUOUS
62
5
10
98.281250
20
328.375000
11
98.281250
21
324.312500
0
LINE
5
564
100
AcDbEntity
8
1
100
AcDbLine
6
CONTINUOUS
62
5
10
96.640625
20
326.500000
11
102.500000
21
326.500000
0
POLYLINE
5
565
100
AcDbEntity
8
1
6
CONTINUOUS
62
5
100
AcDb2dPolyline
66
1
10
0.0
20
0.0
30
0.0
70
0
0
VERTEX
5
566
100
AcDbEntity
8
1
100
AcDbVertex
100
AcDb2dVertex
62
5
10
100.859375
20
328.687500
0
VERTEX
5
567
100
AcDbEntity
8
1
100
AcDbVertex
100
AcDb2dVertex
62
5
10
100.859375
20
324.937500
0
VERTEX
5
568
100
AcDbEntity
8
1
100
AcDbVertex
100
AcDb2dVertex
62
5
10
100.625000
20
323.687500
0
VERTEX
5
569
100
AcDbEntity
8
1
100
AcDbVertex
100
AcDb2dVertex
62
5
10
99.921875
20
322.437500
0
VERTEX
5
56a
100
AcDbEntity
8
1
100
AcDbVertex
100
AcDb2dVertex
62
5
10
99.218750
20
321.500000
0
SEQEND
5
56b
100
AcDbEntity
8
1
0
POLYLINE
5
56c
100
AcDbEntity
8
1
6
CONTINUOUS
62
5
100
AcDb2dPolyline
66
1
10
0.0
20
0.0
30
0.0
70
0
0
VERTEX
5
56d
100
AcDbEntity
8
1
100
AcDbVertex
100
AcDb2dVertex
62
5
10
100.500000
20
319.312500
0
VERTEX
5
56e
100
AcDbEntity
8
1
100
AcDbVertex
100
AcDb2dVertex
62
5
10
99.750000
20
318.062500
0
VERTEX
5
56f
100
AcDbEntity
8
1
100
AcDbVertex
100
AcDb2dVertex
62
5
10
99.000000
20
316.500000
0
VERTEX
5
570
100
AcDbEntity
8
1
100
AcDbVertex
100
AcDb2dVertex
62
5
10
98.750000
20
315.250000
0
VERTEX
5
571
100
AcDbEntity
8
1
100
AcDbVertex
100
AcDb2dVertex
62
5
10
99.000000
20
314.000000
0
VERTEX
5
572
100
AcDbEntity
8
1
100
AcDbVertex
100
AcDb2dVertex
62
5
10
99.500000
20
312.437500
0
VERTEX
5
573
100
AcDbEntity
8
1
100
AcDbVertex
100
AcDb2dVertex
62
5
10
100.500000
20
310.875000
0
SEQEND
5
574
100
AcDbEntity
8
1
0
POLYLINE
5
575
100
AcDbEntity
8
1
6
CONTINUOUS
62
5
100
AcDb2dPolyline
66
1
10
0.0
20
0.0
30
0.0
70
0
0
VERTEX
5
576
100
AcDbEntity
8
1
100
AcDbVertex
100
AcDb2dVertex
62
5
10
102.250000
20
316.500000
0
VERTEX
5
577
100
AcDbEntity
8
1
100
AcDbVertex
100
AcDb2dVertex
62
5
10
103.750000
20
316.812500
0
VERTEX
5
578
100
AcDbEntity
8
1
100
AcDbVertex
100
AcDb2dVertex
62
5
10
105.000000
20
317.437500
0
SEQEND
5
579
100
AcDbEntity
8
1
0
POLYLINE
5
57a
100
AcDbEntity
8
1
6
CONTINUOUS
62
5
100
AcDb2dPolyline
66
1
10
0.0
20
0.0
30
0.0
70
0
0
VERTEX
5
57b
100
AcDbEntity
8
1
100
AcDbVertex
100
AcDb2dVertex
62
5
10
103.250000
20
319.312500
0
VERTEX
5
57c
100
AcDbEntity
8
1
100
AcDbVertex
100
AcDb2dVertex
62
5
10
103.250000
20
313.687500
0
VERTEX
5
57d
100
AcDbEntity
8
1
100
AcDbVertex
100
AcDb2dVertex
62
5
10
103.750000
20
313.062500
0
VERTEX
5
57e
100
AcDbEntity
8
1
100
AcDbVertex
100
AcDb2dVertex
62
5
10
105.000000
20
313.062500
0
VERTEX
5
57f
100
AcDbEntity
8
1
100
AcDbVertex
100
AcDb2dVertex
62
5
10
105.250000
20
314.312500
0
SEQEND
5
580
100
AcDbEntity
8
1
0
POLYLINE
5
581
100
AcDbEntity
8
1
6
CONTINUOUS
62
5
100
AcDb2dPolyline
66
1
10
0.0
20
0.0
30
0.0
70
0
0
VERTEX
5
582
100
AcDbEntity
8
1
100
AcDbVertex
100
AcDb2dVertex
62
5
10
106.500000
20
318.375000
0
VERTEX
5
583
100
AcDbEntity
8
1
100
AcDbVertex
100
AcDb2dVertex
62
5
10
106.500000
20
314.625000
0
VERTEX
5
584
100
AcDbEntity
8
1
100
AcDbVertex
100
AcDb2dVertex
62
5
10
106.000000
20
313.062500
0
VERTEX
5
585
100
AcDbEntity
8
1
100
AcDbVertex
100
AcDb2dVertex
62
5
10
105.250000
20
311.812500
0
VERTEX
5
586
100
AcDbEntity
8
1
100
AcDbVertex
100
AcDb2dVertex
62
5
10
104.000000
20
310.875000
0
SEQEND
5
587
100
AcDbEntity
8
1
0
POLYLINE
5
588
100
AcDbEntity
8
1
6
CONTINUOUS
62
5
100
AcDb2dPolyline
66
1
10
0.0
20
0.0
30
0.0
70
0
0
VERTEX
5
589
100
AcDbEntity
8
1
100
AcDbVertex
100
AcDb2dVertex
62
5
10
105.000000
20
318.375000
0
VERTEX
5
58a
100
AcDbEntity
8
1
100
AcDbVertex
100
AcDb2dVertex
62
5
10
108.750000
20
318.375000
0
VERTEX
5
58b
100
AcDbEntity
8
1
100
AcDbVertex
100
AcDb2dVertex
62
5
10
108.750000
20
313.062500
0
VERTEX
5
58c
100
AcDbEntity
8
1
100
AcDbVertex
100
AcDb2dVertex
62
5
10
108.500000
20
312.125000
0
VERTEX
5
58d
100
AcDbEntity
8
1
100
AcDbVertex
100
AcDb2dVertex
62
5
10
108.000000
20
311.812500
0
VERTEX
5
58e
100
AcDbEntity
8
1
100
AcDbVertex
100
AcDb2dVertex
62
5
10
107.000000
20
311.812500
0
SEQEND
5
58f
100
AcDbEntity
8
1
0
POLYLINE
5
590
100
AcDbEntity
8
1
6
CONTINUOUS
62
5
100
AcDb2dPolyline
66
1
10
0.0
20
0.0
30
0.0
70
0
0
VERTEX
5
591
100
AcDbEntity
8
1
100
AcDbVertex
100
AcDb2dVertex
62
5
10
81.875000
20
325.562500
0
VERTEX
5
592
100
AcDbEntity
8
1
100
AcDbVertex
100
AcDb2dVertex
62
5
10
86.796875
20
326.187500
0
VERTEX
5
593
100
AcDbEntity
8
1
100
AcDbVertex
100
AcDb2dVertex
62
5
10
86.796875
20
325.875000
0
VERTEX
5
594
100
AcDbEntity
8
1
100
AcDbVertex
100
AcDb2dVertex
62
5
10
85.625000
20
324.312500
0
SEQEND
5
595
100
AcDbEntity
8
1
0
POLYLINE
5
596
100
AcDbEntity
8
1
6
CONTINUOUS
62
5
100
AcDb2dPolyline
66
1
10
0.0
20
0.0
30
0.0
70
0
0
VERTEX
5
597
100
AcDbEntity
8
1
100
AcDbVertex
100
AcDb2dVertex
62
5
10
83.750000
20
328.375000
0
VERTEX
5
598
100
AcDbEntity
8
1
100
AcDbVertex
100
AcDb2dVertex
62
5
10
83.750000
20
322.437500
0
VERTEX
5
599
100
AcDbEntity
8
1
100
AcDbVertex
100
AcDb2dVertex
62
5
10
84.218750
20
321.812500
0
VERTEX
5
59a
100
AcDbEntity
8
1
100
AcDbVertex
100
AcDb2dVertex
62
5
10
86.796875
20
321.812500
0
SEQEND
5
59b
100
AcDbEntity
8
1
0
POLYLINE
5
59c
100
AcDbEntity
8
1
6
CONTINUOUS
62
5
100
AcDb2dPolyline
66
1
10
0.0
20
0.0
30
0.0
70
0
0
VERTEX
5
59d
100
AcDbEntity
8
1
100
AcDbVertex
100
AcDb2dVertex
62
5
10
72.750000
20
319.312500
0
VERTEX
5
59e
100
AcDbEntity
8
1
100
AcDbVertex
100
AcDb2dVertex
62
5
10
70.750000
20
318.687500
0
VERTEX
5
59f
100
AcDbEntity
8
1
100
AcDbVertex
100
AcDb2dVertex
62
5
10
70.750000
20
310.562500
0
SEQEND
5
5a0
100
AcDbEntity
8
1
0
LINE
5
5a1
100
AcDbEntity
8
1
100
AcDbLine
6
CONTINUOUS
62
5
10
70.750000
20
317.125000
11
72.500000
21
317.125000
0
LINE
5
5a2
100
AcDbEntity
8
1
100
AcDbLine
6
CONTINUOUS
62
5
10
70.750000
20
314.937500
11
72.500000
21
314.937500
0
LINE
5
5a3
100
AcDbEntity
8
1
100
AcDbLine
6
CONTINUOUS
62
5
10
70.250000
20
311.812500
11
73.000000
21
313.375000
0
POLYLINE
5
5a4
100
AcDbEntity
8
1
6
CONTINUOUS
62
5
100
AcDb2dPolyline
66
1
10
0.0
20
0.0
30
0.0
70
0
0
VERTEX
5
5a5
100
AcDbEntity
8
1
100
AcDbVertex
100
AcDb2dVertex
62
5
10
72.750000
20
315.875000
0
VERTEX
5
5a6
100
AcDbEntity
8
1
100
AcDbVertex
100
AcDb2dVertex
62
5
10
73.250000
20
316.500000
0
VERTEX
5
5a7
100
AcDbEntity
8
1
100
AcDbVertex
100
AcDb2dVertex
62
5
10
73.500000
20
317.437500
0
VERTEX
5
5a8
100
AcDbEntity
8
1
100
AcDbVertex
100
AcDb2dVertex
62
5
10
73.500000
20
319.312500
0
VERTEX
5
5a9
100
AcDbEntity
8
1
100
AcDbVertex
100
AcDb2dVertex
62
5
10
76.000000
20
319.312500
0
VERTEX
5
5aa
100
AcDbEntity
8
1
100
AcDbVertex
100
AcDb2dVertex
62
5
10
76.000000
20
316.500000
0
VERTEX
5
5ab
100
AcDbEntity
8
1
100
AcDbVertex
100
AcDb2dVertex
62
5
10
76.250000
20
316.187500
0
VERTEX
5
5ac
100
AcDbEntity
8
1
100
AcDbVertex
100
AcDb2dVertex
62
5
10
77.500000
20
316.187500
0
VERTEX
5
5ad
100
AcDbEntity
8
1
100
AcDbVertex
100
AcDb2dVertex
62
5
10
77.500000
20
317.437500
0
SEQEND
5
5ae
100
AcDbEntity
8
1
0
POLYLINE
5
5af
100
AcDbEntity
8
1
6
CONTINUOUS
62
5
100
AcDb2dPolyline
66
1
10
0.0
20
0.0
30
0.0
70
0
0
VERTEX
5
5b0
100
AcDbEntity
8
1
100
AcDbVertex
100
AcDb2dVertex
62
5
10
73.250000
20
315.250000
0
VERTEX
5
5b1
100
AcDbEntity
8
1
100
AcDbVertex
100
AcDb2dVertex
62
5
10
77.000000
20
315.250000
0
VERTEX
5
5b2
100
AcDbEntity
8
1
100
AcDbVertex
100
AcDb2dVertex
62
5
10
76.250000
20
313.687500
0
VERTEX
5
5b3
100
AcDbEntity
8
1
100
AcDbVertex
100
AcDb2dVertex
62
5
10
75.250000
20
312.437500
0
VERTEX
5
5b4
100
AcDbEntity
8
1
100
AcDbVertex
100
AcDb2dVertex
62
5
10
73.750000
20
310.875000
0
VERTEX
5
5b5
100
AcDbEntity
8
1
100
AcDbVertex
100
AcDb2dVertex
62
5
10
72.750000
20
310.562500
0
SEQEND
5
5b6
100
AcDbEntity
8
1
0
POLYLINE
5
5b7
100
AcDbEntity
8
1
6
CONTINUOUS
62
5
100
AcDb2dPolyline
66
1
10
0.0
20
0.0
30
0.0
70
0
0
VERTEX
5
5b8
100
AcDbEntity
8
1
100
AcDbVertex
100
AcDb2dVertex
62
5
10
73.750000
20
314.625000
0
VERTEX
5
5b9
100
AcDbEntity
8
1
100
AcDbVertex
100
AcDb2dVertex
62
5
10
74.250000
20
313.375000
0
VERTEX
5
5ba
100
AcDbEntity
8
1
100
AcDbVertex
100
AcDb2dVertex
62
5
10
75.000000
20
312.437500
0
VERTEX
5
5bb
100
AcDbEntity
8
1
100
AcDbVertex
100
AcDb2dVertex
62
5
10
75.750000
20
311.812500
0
VERTEX
5
5bc
100
AcDbEntity
8
1
100
AcDbVertex
100
AcDb2dVertex
62
5
10
77.000000
20
310.562500
0
VERTEX
5
5bd
100
AcDbEntity
8
1
100
AcDbVertex
100
AcDb2dVertex
62
5
10
77.500000
20
310.562500
0
SEQEND
5
5be
100
AcDbEntity
8
1
0
LINE
5
5bf
100
AcDbEntity
8
1
100
AcDbLine
6
CONTINUOUS
62
5
10
74.375000
20
328.687500
11
76.718750
21
328.687500
0
LINE
5
5c0
100
AcDbEntity
8
1
100
AcDbLine
6
CONTINUOUS
62
5
10
75.546875
20
329.625000
11
75.546875
21
327.437500
0
LINE
5
5c1
100
AcDbEntity
8
1
100
AcDbLine
6
CONTINUOUS
62
5
10
73.906250
20
327.437500
11
76.953125
21
327.437500
0
POLYLINE
5
5c2
100
AcDbEntity
8
1
6
CONTINUOUS
62
5
100
AcDb2dPolyline
66
1
10
0.0
20
0.0
30
0.0
70
0
0
VERTEX
5
5c3
100
AcDbEntity
8
1
100
AcDbVertex
100
AcDb2dVertex
62
5
10
75.078125
20
327.125000
0
VERTEX
5
5c4
100
AcDbEntity
8
1
100
AcDbVertex
100
AcDb2dVertex
62
5
10
74.843750
20
326.500000
0
VERTEX
5
5c5
100
AcDbEntity
8
1
100
AcDbVertex
100
AcDb2dVertex
62
5
10
74.140625
20
325.875000
0
SEQEND
5
5c6
100
AcDbEntity
8
1
0
POLYLINE
5
5c7
100
AcDbEntity
8
1
6
CONTINUOUS
62
5
100
AcDb2dPolyline
66
1
10
0.0
20
0.0
30
0.0
70
0
0
VERTEX
5
5c8
100
AcDbEntity
8
1
100
AcDbVertex
100
AcDb2dVertex
62
5
10
76.015625
20
327.125000
0
VERTEX
5
5c9
100
AcDbEntity
8
1
100
AcDbVertex
100
AcDb2dVertex
62
5
10
76.015625
20
326.187500
0
VERTEX
5
5ca
100
AcDbEntity
8
1
100
AcDbVertex
100
AcDb2dVertex
62
5
10
76.250000
20
325.875000
0
VERTEX
5
5cb
100
AcDbEntity
8
1
100
AcDbVertex
100
AcDb2dVertex
62
5
10
76.953125
20
325.875000
0
VERTEX
5
5cc
100
AcDbEntity
8
1
100
AcDbVertex
100
AcDb2dVertex
62
5
10
76.953125
20
326.500000
0
SEQEND
5
5cd
100
AcDbEntity
8
1
0
LINE
5
5ce
100
AcDbEntity
8
1
100
AcDbLine
6
CONTINUOUS
62
5
10
74.375000
20
325.250000
11
76.718750
21
325.250000
0
LINE
5
5cf
100
AcDbEntity
8
1
100
AcDbLine
6
CONTINUOUS
62
5
10
75.546875
20
325.875000
11
75.546875
21
324.000000
0
LINE
5
5d0
100
AcDbEntity
8
1
100
AcDbLine
6
CONTINUOUS
62
5
10
74.140625
20
323.687500
11
76.718750
21
324.312500
0
POLYLINE
5
5d1
100
AcDbEntity
8
1
6
CONTINUOUS
62
5
100
AcDb2dPolyline
66
1
10
0.0
20
0.0
30
0.0
70
0
0
VERTEX
5
5d2
100
AcDbEntity
8
1
100
AcDbVertex
100
AcDb2dVertex
62
5
10
77.421875
20
328.062500
0
VERTEX
5
5d3
100
AcDbEntity
8
1
100
AcDbVertex
100
AcDb2dVertex
62
5
10
79.531250
20
328.062500
0
VERTEX
5
5d4
100
AcDbEntity
8
1
100
AcDbVertex
100
AcDb2dVertex
62
5
10
79.531250
20
323.687500
0
VERTEX
5
5d5
100
AcDbEntity
8
1
100
AcDbVertex
100
AcDb2dVertex
62
5
10
80.000000
20
323.062500
0
VERTEX
5
5d6
100
AcDbEntity
8
1
100
AcDbVertex
100
AcDb2dVertex
62
5
10
80.468750
20
323.062500
0
VERTEX
5
5d7
100
AcDbEntity
8
1
100
AcDbVertex
100
AcDb2dVertex
62
5
10
80.468750
20
324.000000
0
SEQEND
5
5d8
100
AcDbEntity
8
1
0
POLYLINE
5
5d9
100
AcDbEntity
8
1
6
CONTINUOUS
62
5
100
AcDb2dPolyline
66
1
10
0.0
20
0.0
30
0.0
70
0
0
VERTEX
5
5da
100
AcDbEntity
8
1
100
AcDbVertex
100
AcDb2dVertex
62
5
10
78.593750
20
329.312500
0
VERTEX
5
5db
100
AcDbEntity
8
1
100
AcDbVertex
100
AcDb2dVertex
62
5
10
78.359375
20
326.500000
0
VERTEX
5
5dc
100
AcDbEntity
8
1
100
AcDbVertex
100
AcDb2dVertex
62
5
10
77.890625
20
324.625000
0
VERTEX
5
5dd
100
AcDbEntity
8
1
100
AcDbVertex
100
AcDb2dVertex
62
5
10
77.187500
20
323.062500
0
SEQEND
5
5de
100
AcDbEntity
8
1
0
LINE
5
5df
100
AcDbEntity
8
1
100
AcDbLine
6
CONTINUOUS
62
5
10
77.656250
20
326.187500
11
78.828125
21
324.937500
0
LINE
5
5e0
100
AcDbEntity
8
1
100
AcDbLine
6
CONTINUOUS
62
5
10
74.843750
20
322.750000
11
74.140625
21
321.187500
0
LINE
5
5e1
100
AcDbEntity
8
1
100
AcDbLine
6
CONTINUOUS
62
5
10
76.015625
20
322.750000
11
76.484375
21
321.187500
0
LINE
5
5e2
100
AcDbEntity
8
1
100
AcDbLine
6
CONTINUOUS
62
5
10
77.421875
20
322.750000
11
78.125000
21
321.187500
0
LINE
5
5e3
100
AcDbEntity
8
1
100
AcDbLine
6
CONTINUOUS
62
5
10
78.828125
20
322.750000
11
80.000000
21
321.187500
0
POLYLINE
5
5e4
100
AcDbEntity
8
1
6
CONTINUOUS
62
5
100
AcDb2dPolyline
66
1
10
0.0
20
0.0
30
0.0
70
0
0
VERTEX
5
5e5
100
AcDbEntity
8
1
100
AcDbVertex
100
AcDb2dVertex
62
5
10
78.250000
20
316.500000
0
VERTEX
5
5e6
100
AcDbEntity
8
1
100
AcDbVertex
100
AcDb2dVertex
62
5
10
79.750000
20
316.812500
0
VERTEX
5
5e7
100
AcDbEntity
8
1
100
AcDbVertex
100
AcDb2dVertex
62
5
10
81.000000
20
317.437500
0
SEQEND
5
5e8
100
AcDbEntity
8
1
0
POLYLINE
5
5e9
100
AcDbEntity
8
1
6
CONTINUOUS
62
5
100
AcDb2dPolyline
66
1
10
0.0
20
0.0
30
0.0
70
0
0
VERTEX
5
5ea
100
AcDbEntity
8
1
100
AcDbVertex
100
AcDb2dVertex
62
5
10
79.250000
20
319.312500
0
VERTEX
5
5eb
100
AcDbEntity
8
1
100
AcDbVertex
100
AcDb2dVertex
62
5
10
79.250000
20
313.687500
0
VERTEX
5
5ec
100
AcDbEntity
8
1
100
AcDbVertex
100
AcDb2dVertex
62
5
10
79.750000
20
313.062500
0
VERTEX
5
5ed
100
AcDbEntity
8
1
100
AcDbVertex
100
AcDb2dVertex
62
5
10
81.000000
20
313.062500
0
VERTEX
5
5ee
100
AcDbEntity
8
1
100
AcDbVertex
100
AcDb2dVertex
62
5
10
81.250000
20
314.312500
0
SEQEND
5
5ef
100
AcDbEntity
8
1
0
POLYLINE
5
5f0
100
AcDbEntity
8
1
6
CONTINUOUS
62
5
100
AcDb2dPolyline
66
1
10
0.0
20
0.0
30
0.0
70
0
0
VERTEX
5
5f1
100
AcDbEntity
8
1
100
AcDbVertex
100
AcDb2dVertex
62
5
10
82.500000
20
318.375000
0
VERTEX
5
5f2
100
AcDbEntity
8
1
100
AcDbVertex
100
AcDb2dVertex
62
5
10
82.500000
20
314.625000
0
VERTEX
5
5f3
100
AcDbEntity
8
1
100
AcDbVertex
100
AcDb2dVertex
62
5
10
82.000000
20
313.062500
0
VERTEX
5
5f4
100
AcDbEntity
8
1
100
AcDbVertex
100
AcDb2dVertex
62
5
10
81.250000
20
311.812500
0
VERTEX
5
5f5
100
AcDbEntity
8
1
100
AcDbVertex
100
AcDb2dVertex
62
5
10
80.000000
20
310.875000
0
SEQEND
5
5f6
100
AcDbEntity
8
1
0
POLYLINE
5
5f7
100
AcDbEntity
8
1
6
CONTINUOUS
62
5
100
AcDb2dPolyline
66
1
10
0.0
20
0.0
30
0.0
70
0
0
VERTEX
5
5f8
100
AcDbEntity
8
1
100
AcDbVertex
100
AcDb2dVertex
62
5
10
81.000000
20
318.375000
0
VERTEX
5
5f9
100
AcDbEntity
8
1
100
AcDbVertex
100
AcDb2dVertex
62
5
10
84.750000
20
318.375000
0
VERTEX
5
5fa
100
AcDbEntity
8
1
100
AcDbVertex
100
AcDb2dVertex
62
5
10
84.750000
20
313.062500
0
VERTEX
5
5fb
100
AcDbEntity
8
1
100
AcDbVertex
100
AcDb2dVertex
62
5
10
84.500000
20
312.125000
0
VERTEX
5
5fc
100
AcDbEntity
8
1
100
AcDbVertex
100
AcDb2dVertex
62
5
10
84.000000
20
311.812500
0
VERTEX
5
5fd
100
AcDbEntity
8
1
100
AcDbVertex
100
AcDb2dVertex
62
5
10
83.000000
20
311.812500
0
SEQEND
5
5fe
100
AcDbEntity
8
1
0
LINE
5
5ff
100
AcDbEntity
8
1
100
AcDbLine
6
CONTINUOUS
62
5
10
90.078125
20
327.437500
11
91.015625
21
326.187500
0
POLYLINE
5
600
100
AcDbEntity
8
1
6
CONTINUOUS
62
5
100
AcDb2dPolyline
66
1
10
0.0
20
0.0
30
0.0
70
0
0
VERTEX
5
601
100
AcDbEntity
8
1
100
AcDbVertex
100
AcDb2dVertex
62
5
10
89.843750
20
322.437500
0
VERTEX
5
602
100
AcDbEntity
8
1
100
AcDbVertex
100
AcDb2dVertex
62
5
10
91.484375
20
323.375000
0
VERTEX
5
603
100
AcDbEntity
8
1
100
AcDbVertex
100
AcDb2dVertex
62
5
10
92.890625
20
324.625000
0
VERTEX
5
604
100
AcDbEntity
8
1
100
AcDbVertex
100
AcDb2dVertex
62
5
10
94.296875
20
326.187500
0
SEQEND
5
605
100
AcDbEntity
8
1
0
LINE
5
606
100
AcDbEntity
8
1
100
AcDbLine
6
CONTINUOUS
62
5
10
86.750000
20
318.687500
11
89.500000
21
318.687500
0
LINE
5
607
100
AcDbEntity
8
1
100
AcDbLine
6
CONTINUOUS
62
5
10
88.250000
20
319.625000
11
88.250000
21
317.125000
0
LINE
5
608
100
AcDbEntity
8
1
100
AcDbLine
6
CONTINUOUS
62
5
10
86.500000
20
317.125000
11
89.500000
21
317.125000
0
POLYLINE
5
609
100
AcDbEntity
8
1
6
CONTINUOUS
62
5
100
AcDb2dPolyline
66
1
10
0.0
20
0.0
30
0.0
70
0
0
VERTEX
5
60a
100
AcDbEntity
8
1
100
AcDbVertex
100
AcDb2dVertex
62
5
10
88.250000
20
317.125000
0
VERTEX
5
60b
100
AcDbEntity
8
1
100
AcDbVertex
100
AcDb2dVertex
62
5
10
87.250000
20
315.250000
0
VERTEX
5
60c
100
AcDbEntity
8
1
100
AcDbVertex
100
AcDb2dVertex
62
5
10
86.750000
20
314.625000
0
SEQEND
5
60d
100
AcDbEntity
8
1
0
POLYLINE
5
60e
100
AcDbEntity
8
1
6
CONTINUOUS
62
5
100
AcDb2dPolyline
66
1
10
0.0
20
0.0
30
0.0
70
0
0
VERTEX
5
60f
100
AcDbEntity
8
1
100
AcDbVertex
100
AcDb2dVertex
62
5
10
88.250000
20
316.812500
0
VERTEX
5
610
100
AcDbEntity
8
1
100
AcDbVertex
100
AcDb2dVertex
62
5
10
88.750000
20
315.875000
0
VERTEX
5
611
100
AcDbEntity
8
1
100
AcDbVertex
100
AcDb2dVertex
62
5
10
89.250000
20
315.562500
0
SEQEND
5
612
100
AcDbEntity
8
1
0
LINE
5
613
100
AcDbEntity
8
1
100
AcDbLine
6
CONTINUOUS
62
5
10
90.000000
20
318.687500
11
93.000000
21
318.687500
0
LINE
5
614
100
AcDbEntity
8
1
100
AcDbLine
6
CONTINUOUS
62
5
10
90.000000
20
317.125000
11
93.250000
21
317.125000
0
POLYLINE
5
615
100
AcDbEntity
8
1
6
CONTINUOUS
62
5
100
AcDb2dPolyline
66
1
10
0.0
20
0.0
30
0.0
70
0
0
VERTEX
5
616
100
AcDbEntity
8
1
100
AcDbVertex
100
AcDb2dVertex
62
5
10
91.500000
20
319.625000
0
VERTEX
5
617
100
AcDbEntity
8
1
100
AcDbVertex
100
AcDb2dVertex
62
5
10
91.500000
20
316.812500
0
VERTEX
5
618
100
AcDbEntity
8
1
100
AcDbVertex
100
AcDb2dVertex
62
5
10
90.500000
20
315.562500
0
VERTEX
5
619
100
AcDbEntity
8
1
100
AcDbVertex
100
AcDb2dVertex
62
5
10
89.750000
20
314.937500
0
SEQEND
5
61a
100
AcDbEntity
8
1
0
POLYLINE
5
61b
100
AcDbEntity
8
1
6
CONTINUOUS
62
5
100
AcDb2dPolyline
66
1
10
0.0
20
0.0
30
0.0
70
0
0
VERTEX
5
61c
100
AcDbEntity
8
1
100
AcDbVertex
100
AcDb2dVertex
62
5
10
91.500000
20
316.812500
0
VERTEX
5
61d
100
AcDbEntity
8
1
100
AcDbVertex
100
AcDb2dVertex
62
5
10
92.500000
20
315.562500
0
VERTEX
5
61e
100
AcDbEntity
8
1
100
AcDbVertex
100
AcDb2dVertex
62
5
10
93.250000
20
314.937500
0
SEQEND
5
61f
100
AcDbEntity
8
1
0
POLYLINE
5
620
100
AcDbEntity
8
1
6
CONTINUOUS
62
5
100
AcDb2dPolyline
66
1
10
0.0
20
0.0
30
0.0
70
1
0
VERTEX
5
621
100
AcDbEntity
8
1
100
AcDbVertex
100
AcDb2dVertex
62
5
10
87.500000
20
314.625000
0
VERTEX
5
622
100
AcDbEntity
8
1
100
AcDbVertex
100
AcDb2dVertex
62
5
10
92.250000
20
314.625000
0
VERTEX
5
623
100
AcDbEntity
8
1
100
AcDbVertex
100
AcDb2dVertex
62
5
10
92.250000
20
310.562500
0
VERTEX
5
624
100
AcDbEntity
8
1
100
AcDbVertex
100
AcDb2dVertex
62
5
10
87.500000
20
310.562500
0
VERTEX
5
625
100
AcDbEntity
8
1
100
AcDbVertex
100
AcDb2dVertex
62
5
10
87.500000
20
314.625000
0
SEQEND
5
626
100
AcDbEntity
8
1
0
LINE
5
627
100
AcDbEntity
8
1
100
AcDbLine
6
CONTINUOUS
62
5
10
87.500000
20
312.750000
11
92.250000
21
312.750000
0
POLYLINE
5
628
100
AcDbEntity
8
1
6
CONTINUOUS
62
5
100
AcDb2dPolyline
66
1
10
0.0
20
0.0
30
0.0
70
0
0
VERTEX
5
629
100
AcDbEntity
8
1
100
AcDbVertex
100
AcDb2dVertex
62
5
10
104.843750
20
329.000000
0
VERTEX
5
62a
100
AcDbEntity
8
1
100
AcDbVertex
100
AcDb2dVertex
62
5
10
104.843750
20
323.375000
0
VERTEX
5
62b
100
AcDbEntity
8
1
100
AcDbVertex
100
AcDb2dVertex
62
5
10
104.375000
20
322.125000
0
VERTEX
5
62c
100
AcDbEntity
8
1
100
AcDbVertex
100
AcDb2dVertex
62
5
10
103.906250
20
321.187500
0
SEQEND
5
62d
100
AcDbEntity
8
1
0
POLYLINE
5
62e
100
AcDbEntity
8
1
6
CONTINUOUS
62
5
100
AcDb2dPolyline
66
1
10
0.0
20
0.0
30
0.0
70
0
0
VERTEX
5
62f
100
AcDbEntity
8
1
100
AcDbVertex
100
AcDb2dVertex
62
5
10
108.593750
20
321.500000
0
VERTEX
5
630
100
AcDbEntity
8
1
100
AcDbVertex
100
AcDb2dVertex
62
5
10
109.531250
20
320.875000
0
VERTEX
5
631
100
AcDbEntity
8
1
100
AcDbVertex
100
AcDb2dVertex
62
5
10
109.531250
20
329.000000
0
VERTEX
5
632
100
AcDbEntity
8
1
100
AcDbVertex
100
AcDb2dVertex
62
5
10
104.843750
20
329.000000
0
SEQEND
5
633
100
AcDbEntity
8
1
0
LINE
5
634
100
AcDbEntity
8
1
100
AcDbLine
6
CONTINUOUS
62
5
10
104.843750
20
326.500000
11
109.531250
21
326.500000
0
LINE
5
635
100
AcDbEntity
8
1
100
AcDbLine
6
CONTINUOUS
62
5
10
107.187500
20
329.000000
11
107.187500
21
320.875000
0
LINE
5
636
100
AcDbEntity
8
1
100
AcDbLine
6
CONTINUOUS
62
5
10
104.843750
20
324.000000
11
109.531250
21
324.000000
0
POLYLINE
5
637
100
AcDbEntity
8
1
6
CONTINUOUS
62
5
100
AcDb2dPolyline
66
1
10
0.0
20
0.0
30
0.0
70
0
0
VERTEX
5
638
100
AcDbEntity
8
1
100
AcDbVertex
100
AcDb2dVertex
62
5
10
102.500000
20
290.500000
0
VERTEX
5
639
100
AcDbEntity
8
1
100
AcDbVertex
100
AcDb2dVertex
62
5
10
104.062500
20
283.000000
0
VERTEX
5
63a
100
AcDbEntity
8
1
100
AcDbVertex
100
AcDb2dVertex
62
5
10
105.625000
20
290.500000
0
SEQEND
5
63b
100
AcDbEntity
8
1
0
POLYLINE
5
63c
100
AcDbEntity
8
1
6
CONTINUOUS
62
5
100
AcDb2dPolyline
66
1
10
0.0
20
0.0
30
0.0
70
0
0
VERTEX
5
63d
100
AcDbEntity
8
1
100
AcDbVertex
100
AcDb2dVertex
62
5
10
82.500000
20
288.312500
0
VERTEX
5
63e
100
AcDbEntity
8
1
100
AcDbVertex
100
AcDb2dVertex
62
5
10
82.812500
20
289.875000
0
VERTEX
5
63f
100
AcDbEntity
8
1
100
AcDbVertex
100
AcDb2dVertex
62
5
10
83.750000
20
290.500000
0
VERTEX
5
640
100
AcDbEntity
8
1
100
AcDbVertex
100
AcDb2dVertex
62
5
10
84.687500
20
290.500000
0
VERTEX
5
641
100
AcDbEntity
8
1
100
AcDbVertex
100
AcDb2dVertex
62
5
10
85.312500
20
290.187500
0
VERTEX
5
642
100
AcDbEntity
8
1
100
AcDbVertex
100
AcDb2dVertex
62
5
10
85.625000
20
289.250000
0
VERTEX
5
643
100
AcDbEntity
8
1
100
AcDbVertex
100
AcDb2dVertex
62
5
10
85.625000
20
288.312500
0
VERTEX
5
644
100
AcDbEntity
8
1
100
AcDbVertex
100
AcDb2dVertex
62
5
10
85.312500
20
287.375000
0
VERTEX
5
645
100
AcDbEntity
8
1
100
AcDbVertex
100
AcDb2dVertex
62
5
10
82.500000
20
283.000000
0
VERTEX
5
646
100
AcDbEntity
8
1
100
AcDbVertex
100
AcDb2dVertex
62
5
10
85.625000
20
283.000000
0
VERTEX
5
647
100
AcDbEntity
8
1
100
AcDbVertex
100
AcDb2dVertex
62
5
10
85.625000
20
283.937500
0
SEQEND
5
648
100
AcDbEntity
8
1
0
POLYLINE
5
649
100
AcDbEntity
8
1
6
CONTINUOUS
62
5
100
AcDb2dPolyline
66
1
10
0.0
20
0.0
30
0.0
70
1
0
VERTEX
5
64a
100
AcDbEntity
8
1
100
AcDbVertex
100
AcDb2dVertex
62
5
10
88.750000
20
290.500000
0
VERTEX
5
64b
100
AcDbEntity
8
1
100
AcDbVertex
100
AcDb2dVertex
62
5
10
89.375000
20
290.500000
0
VERTEX
5
64c
100
AcDbEntity
8
1
100
AcDbVertex
100
AcDb2dVertex
62
5
10
89.687500
20
290.187500
0
VERTEX
5
64d
100
AcDbEntity
8
1
100
AcDbVertex
100
AcDb2dVertex
62
5
10
90.312500
20
288.937500
0
VERTEX
5
64e
100
AcDbEntity
8
1
100
AcDbVertex
100
AcDb2dVertex
62
5
10
90.625000
20
287.687500
0
VERTEX
5
64f
100
AcDbEntity
8
1
100
AcDbVertex
100
AcDb2dVertex
62
5
10
90.625000
20
285.812500
0
VERTEX
5
650
100
AcDbEntity
8
1
100
AcDbVertex
100
AcDb2dVertex
62
5
10
90.312500
20
284.562500
0
VERTEX
5
651
100
AcDbEntity
8
1
100
AcDbVertex
100
AcDb2dVertex
62
5
10
89.687500
20
283.312500
0
VERTEX
5
652
100
AcDbEntity
8
1
100
AcDbVertex
100
AcDb2dVertex
62
5
10
89.375000
20
283.000000
0
VERTEX
5
653
100
AcDbEntity
8
1
100
AcDbVertex
100
AcDb2dVertex
62
5
10
88.750000
20
283.000000
0
VERTEX
5
654
100
AcDbEntity
8
1
100
AcDbVertex
100
AcDb2dVertex
62
5
10
88.437500
20
283.312500
0
VERTEX
5
655
100
AcDbEntity
8
1
100
AcDbVertex
100
AcDb2dVertex
62
5
10
87.812500
20
284.562500
0
VERTEX
5
656
100
AcDbEntity
8
1
100
AcDbVertex
100
AcDb2dVertex
62
5
10
87.500000
20
285.812500
0
VERTEX
5
657
100
AcDbEntity
8
1
100
AcDbVertex
100
AcDb2dVertex
62
5
10
87.500000
20
287.687500
0
VERTEX
5
658
100
AcDbEntity
8
1
100
AcDbVertex
100
AcDb2dVertex
62
5
10
87.812500
20
288.937500
0
VERTEX
5
659
100
AcDbEntity
8
1
100
AcDbVertex
100
AcDb2dVertex
62
5
10
88.437500
20
290.187500
0
VERTEX
5
65a
100
AcDbEntity
8
1
100
AcDbVertex
100
AcDb2dVertex
62
5
10
88.750000
20
290.500000
0
SEQEND
5
65b
100
AcDbEntity
8
1
0
POLYLINE
5
65c
100
AcDbEntity
8
1
6
CONTINUOUS
62
5
100
AcDb2dPolyline
66
1
10
0.0
20
0.0
30
0.0
70
0
0
VERTEX
5
65d
100
AcDbEntity
8
1
100
AcDbVertex
100
AcDb2dVertex
62
5
10
100.625000
20
288.937500
0
VERTEX
5
65e
100
AcDbEntity
8
1
100
AcDbVertex
100
AcDb2dVertex
62
5
10
100.000000
20
290.187500
0
VERTEX
5
65f
100
AcDbEntity
8
1
100
AcDbVertex
100
AcDb2dVertex
62
5
10
99.062500
20
290.500000
0
VERTEX
5
660
100
AcDbEntity
8
1
100
AcDbVertex
100
AcDb2dVertex
62
5
10
98.437500
20
290.500000
0
VERTEX
5
661
100
AcDbEntity
8
1
100
AcDbVertex
100
AcDb2dVertex
62
5
10
97.812500
20
290.187500
0
VERTEX
5
662
100
AcDbEntity
8
1
100
AcDbVertex
100
AcDb2dVertex
62
5
10
97.187500
20
289.250000
0
VERTEX
5
663
100
AcDbEntity
8
1
100
AcDbVertex
100
AcDb2dVertex
62
5
10
97.187500
20
288.312500
0
VERTEX
5
664
100
AcDbEntity
8
1
100
AcDbVertex
100
AcDb2dVertex
62
5
10
97.812500
20
287.375000
0
VERTEX
5
665
100
AcDbEntity
8
1
100
AcDbVertex
100
AcDb2dVertex
62
5
10
100.000000
20
286.125000
0
VERTEX
5
666
100
AcDbEntity
8
1
100
AcDbVertex
100
AcDb2dVertex
62
5
10
100.625000
20
285.187500
0
VERTEX
5
667
100
AcDbEntity
8
1
100
AcDbVertex
100
AcDb2dVertex
62
5
10
100.625000
20
284.250000
0
VERTEX
5
668
100
AcDbEntity
8
1
100
AcDbVertex
100
AcDb2dVertex
62
5
10
100.000000
20
283.312500
0
VERTEX
5
669
100
AcDbEntity
8
1
100
AcDbVertex
100
AcDb2dVertex
62
5
10
99.062500
20
283.000000
0
VERTEX
5
66a
100
AcDbEntity
8
1
100
AcDbVertex
100
AcDb2dVertex
62
5
10
98.437500
20
283.000000
0
VERTEX
5
66b
100
AcDbEntity
8
1
100
AcDbVertex
100
AcDb2dVertex
62
5
10
97.500000
20
283.625000
0
VERTEX
5
66c
100
AcDbEntity
8
1
100
AcDbVertex
100
AcDb2dVertex
62
5
10
97.187500
20
284.875000
0
SEQEND
5
66d
100
AcDbEntity
8
1
0
POLYLINE
5
66e
100
AcDbEntity
8
1
6
CONTINUOUS
62
5
100
AcDb2dPolyline
66
1
10
0.0
20
0.0
30
0.0
70
0
0
VERTEX
5
66f
100
AcDbEntity
8
1
100
AcDbVertex
100
AcDb2dVertex
62
5
10
73.125000
20
289.875000
0
VERTEX
5
670
100
AcDbEntity
8
1
100
AcDbVertex
100
AcDb2dVertex
62
5
10
74.062500
20
290.500000
0
VERTEX
5
671
100
AcDbEntity
8
1
100
AcDbVertex
100
AcDb2dVertex
62
5
10
74.062500
20
283.000000
0
SEQEND
5
672
100
AcDbEntity
8
1
0
LINE
5
673
100
AcDbEntity
8
1
100
AcDbLine
6
CONTINUOUS
62
5
10
73.437500
20
283.000000
11
74.687500
21
283.000000
0
POLYLINE
5
674
100
AcDbEntity
8
1
6
CONTINUOUS
62
5
100
AcDb2dPolyline
66
1
10
0.0
20
0.0
30
0.0
70
0
0
VERTEX
5
675
100
AcDbEntity
8
1
100
AcDbVertex
100
AcDb2dVertex
62
5
10
80.000000
20
290.500000
0
VERTEX
5
676
100
AcDbEntity
8
1
100
AcDbVertex
100
AcDb2dVertex
62
5
10
79.062500
20
290.500000
0
VERTEX
5
677
100
AcDbEntity
8
1
100
AcDbVertex
100
AcDb2dVertex
62
5
10
78.125000
20
290.187500
0
VERTEX
5
678
100
AcDbEntity
8
1
100
AcDbVertex
100
AcDb2dVertex
62
5
10
77.500000
20
288.937500
0
VERTEX
5
679
100
AcDbEntity
8
1
100
AcDbVertex
100
AcDb2dVertex
62
5
10
77.500000
20
284.562500
0
VERTEX
5
67a
100
AcDbEntity
8
1
100
AcDbVertex
100
AcDb2dVertex
62
5
10
77.812500
20
283.625000
0
VERTEX
5
67b
100
AcDbEntity
8
1
100
AcDbVertex
100
AcDb2dVertex
62
5
10
78.125000
20
283.312500
0
VERTEX
5
67c
100
AcDbEntity
8
1
100
AcDbVertex
100
AcDb2dVertex
62
5
10
78.750000
20
283.000000
0
VERTEX
5
67d
100
AcDbEntity
8
1
100
AcDbVertex
100
AcDb2dVertex
62
5
10
79.375000
20
283.000000
0
VERTEX
5
67e
100
AcDbEntity
8
1
100
AcDbVertex
100
AcDb2dVertex
62
5
10
80.000000
20
283.312500
0
VERTEX
5
67f
100
AcDbEntity
8
1
100
AcDbVertex
100
AcDb2dVertex
62
5
10
80.312500
20
283.625000
0
VERTEX
5
680
100
AcDbEntity
8
1
100
AcDbVertex
100
AcDb2dVertex
62
5
10
80.625000
20
284.562500
0
VERTEX
5
681
100
AcDbEntity
8
1
100
AcDbVertex
100
AcDb2dVertex
62
5
10
80.625000
20
286.437500
0
VERTEX
5
682
100
AcDbEntity
8
1
100
AcDbVertex
100
AcDb2dVertex
62
5
10
80.312500
20
287.062500
0
VERTEX
5
683
100
AcDbEntity
8
1
100
AcDbVertex
100
AcDb2dVertex
62
5
10
79.687500
20
287.375000
0
VERTEX
5
684
100
AcDbEntity
8
1
100
AcDbVertex
100
AcDb2dVertex
62
5
10
78.437500
20
287.375000
0
VERTEX
5
685
100
AcDbEntity
8
1
100
AcDbVertex
100
AcDb2dVertex
62
5
10
77.500000
20
287.062500
0
SEQEND
5
686
100
AcDbEntity
8
1
0
LINE
5
687
100
AcDbEntity
8
1
100
AcDbLine
6
CONTINUOUS
62
5
10
62.500000
20
290.500000
11
62.500000
21
283.000000
0
POLYLINE
5
688
100
AcDbEntity
8
1
6
CONTINUOUS
62
5
100
AcDb2dPolyline
66
1
10
0.0
20
0.0
30
0.0
70
0
0
VERTEX
5
689
100
AcDbEntity
8
1
100
AcDbVertex
100
AcDb2dVertex
62
5
10
62.500000
20
290.500000
0
VERTEX
5
68a
100
AcDbEntity
8
1
100
AcDbVertex
100
AcDb2dVertex
62
5
10
63.750000
20
290.500000
0
VERTEX
5
68b
100
AcDbEntity
8
1
100
AcDbVertex
100
AcDb2dVertex
62
5
10
64.687500
20
290.187500
0
VERTEX
5
68c
100
AcDbEntity
8
1
100
AcDbVertex
100
AcDb2dVertex
62
5
10
65.312500
20
289.562500
0
VERTEX
5
68d
100
AcDbEntity
8
1
100
AcDbVertex
100
AcDb2dVertex
62
5
10
65.625000
20
288.937500
0
VERTEX
5
68e
100
AcDbEntity
8
1
100
AcDbVertex
100
AcDb2dVertex
62
5
10
65.625000
20
288.000000
0
VERTEX
5
68f
100
AcDbEntity
8
1
100
AcDbVertex
100
AcDb2dVertex
62
5
10
65.312500
20
287.375000
0
VERTEX
5
690
100
AcDbEntity
8
1
100
AcDbVertex
100
AcDb2dVertex
62
5
10
64.687500
20
286.750000
0
VERTEX
5
691
100
AcDbEntity
8
1
100
AcDbVertex
100
AcDb2dVertex
62
5
10
63.750000
20
286.437500
0
VERTEX
5
692
100
AcDbEntity
8
1
100
AcDbVertex
100
AcDb2dVertex
62
5
10
62.500000
20
286.437500
0
SEQEND
5
693
100
AcDbEntity
8
1
0
LINE
5
694
100
AcDbEntity
8
1
100
AcDbLine
6
CONTINUOUS
62
5
10
52.500000
20
290.500000
11
55.625000
21
290.500000
0
LINE
5
695
100
AcDbEntity
8
1
100
AcDbLine
6
CONTINUOUS
62
5
10
54.062500
20
290.500000
11
54.062500
21
283.000000
0
LINE
5
696
100
AcDbEntity
8
1
100
AcDbLine
6
CONTINUOUS
62
5
10
57.500000
20
290.500000
11
57.500000
21
283.000000
0
POLYLINE
5
697
100
AcDbEntity
8
1
6
CONTINUOUS
62
5
100
AcDb2dPolyline
66
1
10
0.0
20
0.0
30
0.0
70
0
0
VERTEX
5
698
100
AcDbEntity
8
1
100
AcDbVertex
100
AcDb2dVertex
62
5
10
57.500000
20
290.500000
0
VERTEX
5
699
100
AcDbEntity
8
1
100
AcDbVertex
100
AcDb2dVertex
62
5
10
59.062500
20
290.500000
0
VERTEX
5
69a
100
AcDbEntity
8
1
100
AcDbVertex
100
AcDb2dVertex
62
5
10
59.687500
20
290.187500
0
VERTEX
5
69b
100
AcDbEntity
8
1
100
AcDbVertex
100
AcDb2dVertex
62
5
10
60.312500
20
289.562500
0
VERTEX
5
69c
100
AcDbEntity
8
1
100
AcDbVertex
100
AcDb2dVertex
62
5
10
60.625000
20
288.312500
0
VERTEX
5
69d
100
AcDbEntity
8
1
100
AcDbVertex
100
AcDb2dVertex
62
5
10
60.625000
20
285.187500
0
VERTEX
5
69e
100
AcDbEntity
8
1
100
AcDbVertex
100
AcDb2dVertex
62
5
10
60.312500
20
283.937500
0
VERTEX
5
69f
100
AcDbEntity
8
1
100
AcDbVertex
100
AcDb2dVertex
62
5
10
59.687500
20
283.312500
0
VERTEX
5
6a0
100
AcDbEntity
8
1
100
AcDbVertex
100
AcDb2dVertex
62
5
10
59.062500
20
283.000000
0
VERTEX
5
6a1
100
AcDbEntity
8
1
100
AcDbVertex
100
AcDb2dVertex
62
5
10
57.500000
20
283.000000
0
SEQEND
5
6a2
100
AcDbEntity
8
1
0
POLYLINE
5
6a3
100
AcDbEntity
8
1
6
CONTINUOUS
62
5
100
AcDb2dPolyline
66
1
10
0.0
20
0.0
30
0.0
70
0
0
VERTEX
5
6a4
100
AcDbEntity
8
1
100
AcDbVertex
100
AcDb2dVertex
62
5
10
66.171875
20
323.375000
0
VERTEX
5
6a5
100
AcDbEntity
8
1
100
AcDbVertex
100
AcDb2dVertex
62
5
10
66.640625
20
324.312500
0
VERTEX
5
6a6
100
AcDbEntity
8
1
100
AcDbVertex
100
AcDb2dVertex
62
5
10
67.109375
20
325.875000
0
VERTEX
5
6a7
100
AcDbEntity
8
1
100
AcDbVertex
100
AcDb2dVertex
62
5
10
67.109375
20
328.375000
0
VERTEX
5
6a8
100
AcDbEntity
8
1
100
AcDbVertex
100
AcDb2dVertex
62
5
10
72.500000
20
328.375000
0
SEQEND
5
6a9
100
AcDbEntity
8
1
0
LINE
5
6aa
100
AcDbEntity
8
1
100
AcDbLine
6
CONTINUOUS
62
5
10
71.328125
20
329.312500
11
71.796875
21
329.000000
0
POLYLINE
5
6ab
100
AcDbEntity
8
1
6
CONTINUOUS
62
5
100
AcDb2dPolyline
66
1
10
0.0
20
0.0
30
0.0
70
0
0
VERTEX
5
6ac
100
AcDbEntity
8
1
100
AcDbVertex
100
AcDb2dVertex
62
5
10
70.156250
20
329.312500
0
VERTEX
5
6ad
100
AcDbEntity
8
1
100
AcDbVertex
100
AcDb2dVertex
62
5
10
70.156250
20
327.125000
0
VERTEX
5
6ae
100
AcDbEntity
8
1
100
AcDbVertex
100
AcDb2dVertex
62
5
10
70.625000
20
325.562500
0
VERTEX
5
6af
100
AcDbEntity
8
1
100
AcDbVertex
100
AcDb2dVertex
62
5
10
71.562500
20
324.000000
0
VERTEX
5
6b0
100
AcDbEntity
8
1
100
AcDbVertex
100
AcDb2dVertex
62
5
10
72.734375
20
324.000000
0
VERTEX
5
6b1
100
AcDbEntity
8
1
100
AcDbVertex
100
AcDb2dVertex
62
5
10
72.500000
20
324.937500
0
SEQEND
5
6b2
100
AcDbEntity
8
1
0
POLYLINE
5
6b3
100
AcDbEntity
8
1
6
CONTINUOUS
62
5
100
AcDb2dPolyline
66
1
10
0.0
20
0.0
30
0.0
70
0
0
VERTEX
5
6b4
100
AcDbEntity
8
1
100
AcDbVertex
100
AcDb2dVertex
62
5
10
71.796875
20
327.125000
0
VERTEX
5
6b5
100
AcDbEntity
8
1
100
AcDbVertex
100
AcDb2dVertex
62
5
10
71.093750
20
325.562500
0
VERTEX
5
6b6
100
AcDbEntity
8
1
100
AcDbVertex
100
AcDb2dVertex
62
5
10
70.390625
20
324.625000
0
VERTEX
5
6b7
100
AcDbEntity
8
1
100
AcDbVertex
100
AcDb2dVertex
62
5
10
69.687500
20
324.000000
0
SEQEND
5
6b8
100
AcDbEntity
8
1
0
LINE
5
6b9
100
AcDbEntity
8
1
100
AcDbLine
6
CONTINUOUS
62
5
10
67.812500
20
326.812500
11
69.453125
21
326.812500
0
POLYLINE
5
6ba
100
AcDbEntity
8
1
6
CONTINUOUS
62
5
100
AcDb2dPolyline
66
1
10
0.0
20
0.0
30
0.0
70
1
0
VERTEX
5
6bb
100
AcDbEntity
8
1
100
AcDbVertex
100
AcDb2dVertex
62
5
10
67.812500
20
325.875000
0
VERTEX
5
6bc
100
AcDbEntity
8
1
100
AcDbVertex
100
AcDb2dVertex
62
5
10
69.453125
20
325.875000
0
VERTEX
5
6bd
100
AcDbEntity
8
1
100
AcDbVertex
100
AcDb2dVertex
62
5
10
69.453125
20
324.312500
0
VERTEX
5
6be
100
AcDbEntity
8
1
100
AcDbVertex
100
AcDb2dVertex
62
5
10
67.812500
20
324.312500
0
VERTEX
5
6bf
100
AcDbEntity
8
1
100
AcDbVertex
100
AcDb2dVertex
62
5
10
67.812500
20
325.875000
0
SEQEND
5
6c0
100
AcDbEntity
8
1
0
POLYLINE
5
6c1
100
AcDbEntity
8
1
6
CONTINUOUS
62
5
100
AcDb2dPolyline
66
1
10
0.0
20
0.0
30
0.0
70
0
0
VERTEX
5
6c2
100
AcDbEntity
8
1
100
AcDbVertex
100
AcDb2dVertex
62
5
10
67.109375
20
322.750000
0
VERTEX
5
6c3
100
AcDbEntity
8
1
100
AcDbVertex
100
AcDb2dVertex
62
5
10
66.875000
20
321.812500
0
VERTEX
5
6c4
100
AcDbEntity
8
1
100
AcDbVertex
100
AcDb2dVertex
62
5
10
66.406250
20
321.187500
0
SEQEND
5
6c5
100
AcDbEntity
8
1
0
POLYLINE
5
6c6
100
AcDbEntity
8
1
6
CONTINUOUS
62
5
100
AcDb2dPolyline
66
1
10
0.0
20
0.0
30
0.0
70
0
0
VERTEX
5
6c7
100
AcDbEntity
8
1
100
AcDbVertex
100
AcDb2dVertex
62
5
10
68.046875
20
323.062500
0
VERTEX
5
6c8
100
AcDbEntity
8
1
100
AcDbVertex
100
AcDb2dVertex
62
5
10
68.046875
20
321.500000
0
VERTEX
5
6c9
100
AcDbEntity
8
1
100
AcDbVertex
100
AcDb2dVertex
62
5
10
68.515625
20
320.875000
0
VERTEX
5
6ca
100
AcDbEntity
8
1
100
AcDbVertex
100
AcDb2dVertex
62
5
10
71.328125
20
320.875000
0
VERTEX
5
6cb
100
AcDbEntity
8
1
100
AcDbVertex
100
AcDb2dVertex
62
5
10
71.093750
20
321.812500
0
SEQEND
5
6cc
100
AcDbEntity
8
1
0
LINE
5
6cd
100
AcDbEntity
8
1
100
AcDbLine
6
CONTINUOUS
62
5
10
69.453125
20
323.062500
11
70.156250
21
322.125000
0
POLYLINE
5
6ce
100
AcDbEntity
8
1
6
CONTINUOUS
62
5
100
AcDb2dPolyline
66
1
10
0.0
20
0.0
30
0.0
70
0
0
VERTEX
5
6cf
100
AcDbEntity
8
1
100
AcDbVertex
100
AcDb2dVertex
62
5
10
72.031250
20
322.750000
0
VERTEX
5
6d0
100
AcDbEntity
8
1
100
AcDbVertex
100
AcDb2dVertex
62
5
10
72.500000
20
321.812500
0
VERTEX
5
6d1
100
AcDbEntity
8
1
100
AcDbVertex
100
AcDb2dVertex
62
5
10
72.734375
20
321.187500
0
SEQEND
5
6d2
100
AcDbEntity
8
1
0
POLYLINE
5
6d3
100
AcDbEntity
8
1
6
CONTINUOUS
62
5
100
AcDb2dPolyline
66
1
10
0.0
20
0.0
30
0.0
70
0
0
VERTEX
5
6d4
100
AcDbEntity
8
1
100
AcDbVertex
100
AcDb2dVertex
62
5
10
67.000000
20
317.125000
0
VERTEX
5
6d5
100
AcDbEntity
8
1
100
AcDbVertex
100
AcDb2dVertex
62
5
10
67.250000
20
318.375000
0
VERTEX
5
6d6
100
AcDbEntity
8
1
100
AcDbVertex
100
AcDb2dVertex
62
5
10
67.750000
20
319.000000
0
VERTEX
5
6d7
100
AcDbEntity
8
1
100
AcDbVertex
100
AcDb2dVertex
62
5
10
68.500000
20
319.000000
0
VERTEX
5
6d8
100
AcDbEntity
8
1
100
AcDbVertex
100
AcDb2dVertex
62
5
10
69.000000
20
318.687500
0
VERTEX
5
6d9
100
AcDbEntity
8
1
100
AcDbVertex
100
AcDb2dVertex
62
5
10
69.250000
20
317.750000
0
VERTEX
5
6da
100
AcDbEntity
8
1
100
AcDbVertex
100
AcDb2dVertex
62
5
10
69.250000
20
316.500000
0
VERTEX
5
6db
100
AcDbEntity
8
1
100
AcDbVertex
100
AcDb2dVertex
62
5
10
69.000000
20
315.875000
0
VERTEX
5
6dc
100
AcDbEntity
8
1
100
AcDbVertex
100
AcDb2dVertex
62
5
10
68.500000
20
315.250000
0
VERTEX
5
6dd
100
AcDbEntity
8
1
100
AcDbVertex
100
AcDb2dVertex
62
5
10
67.750000
20
315.250000
0
SEQEND
5
6de
100
AcDbEntity
8
1
0
POLYLINE
5
6df
100
AcDbEntity
8
1
6
CONTINUOUS
62
5
100
AcDb2dPolyline
66
1
10
0.0
20
0.0
30
0.0
70
0
0
VERTEX
5
6e0
100
AcDbEntity
8
1
100
AcDbVertex
100
AcDb2dVertex
62
5
10
68.500000
20
315.250000
0
VERTEX
5
6e1
100
AcDbEntity
8
1
100
AcDbVertex
100
AcDb2dVertex
62
5
10
69.250000
20
314.625000
0
VERTEX
5
6e2
100
AcDbEntity
8
1
100
AcDbVertex
100
AcDb2dVertex
62
5
10
69.500000
20
313.687500
0
VERTEX
5
6e3
100
AcDbEntity
8
1
100
AcDbVertex
100
AcDb2dVertex
62
5
10
69.500000
20
312.750000
0
VERTEX
5
6e4
100
AcDbEntity
8
1
100
AcDbVertex
100
AcDb2dVertex
62
5
10
69.250000
20
312.125000
0
VERTEX
5
6e5
100
AcDbEntity
8
1
100
AcDbVertex
100
AcDb2dVertex
62
5
10
68.500000
20
311.500000
0
VERTEX
5
6e6
100
AcDbEntity
8
1
100
AcDbVertex
100
AcDb2dVertex
62
5
10
67.750000
20
311.500000
0
VERTEX
5
6e7
100
AcDbEntity
8
1
100
AcDbVertex
100
AcDb2dVertex
62
5
10
67.250000
20
311.812500
0
VERTEX
5
6e8
100
AcDbEntity
8
1
100
AcDbVertex
100
AcDb2dVertex
62
5
10
66.750000
20
312.750000
0
SEQEND
5
6e9
100
AcDbEntity
8
1
0
POLYLINE
5
6ea
100
AcDbEntity
8
1
6
CONTINUOUS
62
5
100
AcDb2dPolyline
66
1
10
0.0
20
0.0
30
0.0
70
1
0
VERTEX
5
6eb
100
AcDbEntity
8
1
100
AcDbVertex
100
AcDb2dVertex
62
5
10
68.750000
20
290.500000
0
VERTEX
5
6ec
100
AcDbEntity
8
1
100
AcDbVertex
100
AcDb2dVertex
62
5
10
69.375000
20
290.500000
0
VERTEX
5
6ed
100
AcDbEntity
8
1
100
AcDbVertex
100
AcDb2dVertex
62
5
10
69.687500
20
290.187500
0
VERTEX
5
6ee
100
AcDbEntity
8
1
100
AcDbVertex
100
AcDb2dVertex
62
5
10
70.312500
20
288.937500
0
VERTEX
5
6ef
100
AcDbEntity
8
1
100
AcDbVertex
100
AcDb2dVertex
62
5
10
70.625000
20
287.687500
0
VERTEX
5
6f0
100
AcDbEntity
8
1
100
AcDbVertex
100
AcDb2dVertex
62
5
10
70.625000
20
285.812500
0
VERTEX
5
6f1
100
AcDbEntity
8
1
100
AcDbVertex
100
AcDb2dVertex
62
5
10
70.312500
20
284.562500
0
VERTEX
5
6f2
100
AcDbEntity
8
1
100
AcDbVertex
100
AcDb2dVertex
62
5
10
69.687500
20
283.312500
0
VERTEX
5
6f3
100
AcDbEntity
8
1
100
AcDbVertex
100
AcDb2dVertex
62
5
10
69.375000
20
283.000000
0
VERTEX
5
6f4
100
AcDbEntity
8
1
100
AcDbVertex
100
AcDb2dVertex
62
5
10
68.750000
20
283.000000
0
VERTEX
5
6f5
100
AcDbEntity
8
1
100
AcDbVertex
100
AcDb2dVertex
62
5
10
68.437500
20
283.312500
0
VERTEX
5
6f6
100
AcDbEntity
8
1
100
AcDbVertex
100
AcDb2dVertex
62
5
10
67.812500
20
284.562500
0
VERTEX
5
6f7
100
AcDbEntity
8
1
100
AcDbVertex
100
AcDb2dVertex
62
5
10
67.500000
20
285.812500
0
VERTEX
5
6f8
100
AcDbEntity
8
1
100
AcDbVertex
100
AcDb2dVertex
62
5
10
67.500000
20
287.687500
0
VERTEX
5
6f9
100
AcDbEntity
8
1
100
AcDbVertex
100
AcDb2dVertex
62
5
10
67.812500
20
288.937500
0
VERTEX
5
6fa
100
AcDbEntity
8
1
100
AcDbVertex
100
AcDb2dVertex
62
5
10
68.437500
20
290.187500
0
VERTEX
5
6fb
100
AcDbEntity
8
1
100
AcDbVertex
100
AcDb2dVertex
62
5
10
68.750000
20
290.500000
0
SEQEND
5
6fc
100
AcDbEntity
8
1
0
LINE
5
6fd
100
AcDbEntity
8
0
100
AcDbLine
6
DOT2
62
5
10
83.360000
20
230.300000
11
82.860000
21
229.800000
0
POLYLINE
5
6fe
100
AcDbEntity
8
0
6
DOT2
62
5
100
AcDb2dPolyline
66
1
10
0.0
20
0.0
30
0.0
70
0
0
VERTEX
5
6ff
100
AcDbEntity
8
0
100
AcDbVertex
100
AcDb2dVertex
62
5
10
82.860000
20
230.300000
0
VERTEX
5
700
100
AcDbEntity
8
0
100
AcDbVertex
100
AcDb2dVertex
62
5
10
83.360000
20
229.800000
0
VERTEX
5
701
100
AcDbEntity
8
0
100
AcDbVertex
100
AcDb2dVertex
62
5
10
82.860000
20
229.800000
0
VERTEX
5
702
100
AcDbEntity
8
0
100
AcDbVertex
100
AcDb2dVertex
62
5
10
82.860000
20
230.300000
0
VERTEX
5
703
100
AcDbEntity
8
0
100
AcDbVertex
100
AcDb2dVertex
62
5
10
83.360000
20
230.300000
0
VERTEX
5
704
100
AcDbEntity
8
0
100
AcDbVertex
100
AcDb2dVertex
62
5
10
83.360000
20
229.800000
0
SEQEND
5
705
100
AcDbEntity
8
0
0
LINE
5
706
100
AcDbEntity
8
0
100
AcDbLine
6
DOT2
62
5
10
74.860000
20
235.800000
11
77.110000
21
235.800000
0
POLYLINE
5
707
100
AcDbEntity
8
0
6
DOT2
62
5
100
AcDb2dPolyline
66
1
10
0.0
20
0.0
30
0.0
70
0
0
VERTEX
5
708
100
AcDbEntity
8
0
100
AcDbVertex
100
AcDb2dVertex
62
5
10
74.860000
20
235.800000
0
VERTEX
5
709
100
AcDbEntity
8
0
100
AcDbVertex
100
AcDb2dVertex
62
5
10
74.860000
20
232.800000
0
VERTEX
5
70a
100
AcDbEntity
8
0
100
AcDbVertex
100
AcDb2dVertex
62
5
10
75.360000
20
233.300000
0
VERTEX
5
70b
100
AcDbEntity
8
0
100
AcDbVertex
100
AcDb2dVertex
62
5
10
75.860000
20
233.550000
0
VERTEX
5
70c
100
AcDbEntity
8
0
100
AcDbVertex
100
AcDb2dVertex
62
5
10
76.610000
20
233.550000
0
VERTEX
5
70d
100
AcDbEntity
8
0
100
AcDbVertex
100
AcDb2dVertex
62
5
10
77.110000
20
233.300000
0
VERTEX
5
70e
100
AcDbEntity
8
0
100
AcDbVertex
100
AcDb2dVertex
62
5
10
77.360000
20
232.550000
0
VERTEX
5
70f
100
AcDbEntity
8
0
100
AcDbVertex
100
AcDb2dVertex
62
5
10
77.360000
20
231.050000
0
VERTEX
5
710
100
AcDbEntity
8
0
100
AcDbVertex
100
AcDb2dVertex
62
5
10
76.860000
20
230.300000
0
VERTEX
5
711
100
AcDbEntity
8
0
100
AcDbVertex
100
AcDb2dVertex
62
5
10
76.110000
20
229.800000
0
VERTEX
5
712
100
AcDbEntity
8
0
100
AcDbVertex
100
AcDb2dVertex
62
5
10
74.860000
20
229.800000
0
SEQEND
5
713
100
AcDbEntity
8
0
0
POLYLINE
5
714
100
AcDbEntity
8
0
6
DOT2
62
5
100
AcDb2dPolyline
66
1
10
0.0
20
0.0
30
0.0
70
1
0
VERTEX
5
715
100
AcDbEntity
8
0
100
AcDbVertex
100
AcDb2dVertex
62
5
10
79.860000
20
235.800000
0
VERTEX
5
716
100
AcDbEntity
8
0
100
AcDbVertex
100
AcDb2dVertex
62
5
10
80.360000
20
235.800000
0
VERTEX
5
717
100
AcDbEntity
8
0
100
AcDbVertex
100
AcDb2dVertex
62
5
10
80.860000
20
235.550000
0
VERTEX
5
718
100
AcDbEntity
8
0
100
AcDbVertex
100
AcDb2dVertex
62
5
10
81.110000
20
235.050000
0
VERTEX
5
719
100
AcDbEntity
8
0
100
AcDbVertex
100
AcDb2dVertex
62
5
10
81.110000
20
234.050000
0
VERTEX
5
71a
100
AcDbEntity
8
0
100
AcDbVertex
100
AcDb2dVertex
62
5
10
80.860000
20
233.550000
0
VERTEX
5
71b
100
AcDbEntity
8
0
100
AcDbVertex
100
AcDb2dVertex
62
5
10
79.360000
20
232.550000
0
VERTEX
5
71c
100
AcDbEntity
8
0
100
AcDbVertex
100
AcDb2dVertex
62
5
10
78.860000
20
231.800000
0
VERTEX
5
71d
100
AcDbEntity
8
0
100
AcDbVertex
100
AcDb2dVertex
62
5
10
78.860000
20
230.800000
0
VERTEX
5
71e
100
AcDbEntity
8
0
100
AcDbVertex
100
AcDb2dVertex
62
5
10
79.110000
20
230.300000
0
VERTEX
5
71f
100
AcDbEntity
8
0
100
AcDbVertex
100
AcDb2dVertex
62
5
10
79.360000
20
230.050000
0
VERTEX
5
720
100
AcDbEntity
8
0
100
AcDbVertex
100
AcDb2dVertex
62
5
10
79.860000
20
229.800000
0
VERTEX
5
721
100
AcDbEntity
8
0
100
AcDbVertex
100
AcDb2dVertex
62
5
10
80.360000
20
229.800000
0
VERTEX
5
722
100
AcDbEntity
8
0
100
AcDbVertex
100
AcDb2dVertex
62
5
10
80.860000
20
230.050000
0
VERTEX
5
723
100
AcDbEntity
8
0
100
AcDbVertex
100
AcDb2dVertex
62
5
10
81.110000
20
230.300000
0
VERTEX
5
724
100
AcDbEntity
8
0
100
AcDbVertex
100
AcDb2dVertex
62
5
10
81.360000
20
230.800000
0
VERTEX
5
725
100
AcDbEntity
8
0
100
AcDbVertex
100
AcDb2dVertex
62
5
10
81.360000
20
231.800000
0
VERTEX
5
726
100
AcDbEntity
8
0
100
AcDbVertex
100
AcDb2dVertex
62
5
10
80.860000
20
232.550000
0
VERTEX
5
727
100
AcDbEntity
8
0
100
AcDbVertex
100
AcDb2dVertex
62
5
10
79.360000
20
233.550000
0
VERTEX
5
728
100
AcDbEntity
8
0
100
AcDbVertex
100
AcDb2dVertex
62
5
10
79.110000
20
234.050000
0
VERTEX
5
729
100
AcDbEntity
8
0
100
AcDbVertex
100
AcDb2dVertex
62
5
10
79.110000
20
235.050000
0
VERTEX
5
72a
100
AcDbEntity
8
0
100
AcDbVertex
100
AcDb2dVertex
62
5
10
79.360000
20
235.550000
0
VERTEX
5
72b
100
AcDbEntity
8
0
100
AcDbVertex
100
AcDb2dVertex
62
5
10
79.860000
20
235.800000
0
SEQEND
5
72c
100
AcDbEntity
8
0
0
POLYLINE
5
72d
100
AcDbEntity
8
0
6
DOT2
62
5
100
AcDb2dPolyline
66
1
10
0.0
20
0.0
30
0.0
70
0
0
VERTEX
5
72e
100
AcDbEntity
8
0
100
AcDbVertex
100
AcDb2dVertex
62
5
10
88.860000
20
235.800000
0
VERTEX
5
72f
100
AcDbEntity
8
0
100
AcDbVertex
100
AcDb2dVertex
62
5
10
86.610000
20
231.300000
0
VERTEX
5
730
100
AcDbEntity
8
0
100
AcDbVertex
100
AcDb2dVertex
62
5
10
89.610000
20
231.300000
0
SEQEND
5
731
100
AcDbEntity
8
0
0
LINE
5
732
100
AcDbEntity
8
0
100
AcDbLine
6
DOT2
62
5
10
88.860000
20
235.800000
11
88.860000
21
229.800000
0
LINE
5
733
100
AcDbEntity
8
0
100
AcDbLine
6
DOT2
62
5
10
88.360000
20
229.800000
11
89.360000
21
229.800000
0
LINE
5
734
100
AcDbEntity
8
0
100
AcDbLine
6
CONTINUOUS
62
5
10
102.060000
20
204.600000
11
101.860000
21
204.600000
0
LINE
5
735
100
AcDbEntity
8
0
100
AcDbLine
6
CONTINUOUS
62
5
10
101.860000
20
202.600000
11
102.060000
21
202.600000
0
LINE
5
736
100
AcDbEntity
8
0
100
AcDbLine
6
CONTINUOUS
62
5
10
94.660000
20
206.320000
11
94.460000
21
206.320000
0
LINE
5
737
100
AcDbEntity
8
0
100
AcDbLine
6
CONTINUOUS
62
5
10
109.381562
20
206.385647
11
109.395063
21
206.386247
0
LINE
5
738
100
AcDbEntity
8
0
100
AcDbLine
6
CONTINUOUS
62
5
10
109.397588
20
206.396141
11
109.383021
21
206.397361
0
LINE
5
739
100
AcDbEntity
8
0
100
AcDbLine
6
CONTINUOUS
62
5
10
109.412143
20
206.394877
11
109.397588
21
206.396141
0
LINE
5
73a
100
AcDbEntity
8
0
100
AcDbLine
6
CONTINUOUS
62
5
10
109.426673
20
206.393522
11
109.412143
21
206.394877
0
LINE
5
73b
100
AcDbEntity
8
0
100
AcDbLine
6
CONTINUOUS
62
5
10
109.441165
20
206.392033
11
109.426673
21
206.393522
0
LINE
5
73c
100
AcDbEntity
8
0
100
AcDbLine
6
CONTINUOUS
62
5
10
109.455608
20
206.390364
11
109.441165
21
206.392033
0
LINE
5
73d
100
AcDbEntity
8
0
100
AcDbLine
6
CONTINUOUS
62
5
10
109.469988
20
206.388470
11
109.455608
21
206.390364
0
LINE
5
73e
100
AcDbEntity
8
0
100
AcDbLine
6
CONTINUOUS
62
5
10
109.484294
20
206.386306
11
109.469988
21
206.388470
0
LINE
5
73f
100
AcDbEntity
8
0
100
AcDbLine
6
CONTINUOUS
62
5
10
109.498513
20
206.383827
11
109.484294
21
206.386306
0
LINE
5
740
100
AcDbEntity
8
0
100
AcDbLine
6
CONTINUOUS
62
5
10
109.512633
20
206.380988
11
109.498513
21
206.383827
0
LINE
5
741
100
AcDbEntity
8
0
100
AcDbLine
6
CONTINUOUS
62
5
10
109.526640
20
206.377745
11
109.512633
21
206.380988
0
LINE
5
742
100
AcDbEntity
8
0
100
AcDbLine
6
CONTINUOUS
62
5
10
109.540523
20
206.374052
11
109.526640
21
206.377745
0
LINE
5
743
100
AcDbEntity
8
0
100
AcDbLine
6
CONTINUOUS
62
5
10
109.554269
20
206.369864
11
109.540523
21
206.374052
0
LINE
5
744
100
AcDbEntity
8
0
100
AcDbLine
6
CONTINUOUS
62
5
10
109.567866
20
206.365141
11
109.554269
21
206.369864
0
LINE
5
745
100
AcDbEntity
8
0
100
AcDbLine
6
CONTINUOUS
62
5
10
109.581302
20
206.359882
11
109.567866
21
206.365141
0
LINE
5
746
100
AcDbEntity
8
0
100
AcDbLine
6
CONTINUOUS
62
5
10
109.594564
20
206.354105
11
109.581302
21
206.359882
0
LINE
5
747
100
AcDbEntity
8
0
100
AcDbLine
6
CONTINUOUS
62
5
10
109.607640
20
206.347826
11
109.594564
21
206.354105
0
LINE
5
748
100
AcDbEntity
8
0
100
AcDbLine
6
CONTINUOUS
62
5
10
109.620518
20
206.341063
11
109.607640
21
206.347826
0
LINE
5
749
100
AcDbEntity
8
0
100
AcDbLine
6
CONTINUOUS
62
5
10
109.633186
20
206.333832
11
109.620518
21
206.341063
0
LINE
5
74a
100
AcDbEntity
8
0
100
AcDbLine
6
CONTINUOUS
62
5
10
109.645631
20
206.326150
11
109.633186
21
206.333832
0
LINE
5
74b
100
AcDbEntity
8
0
100
AcDbLine
6
CONTINUOUS
62
5
10
109.714523
20
203.617607
11
109.714515
21
203.582966
0
LINE
5
74c
100
AcDbEntity
8
0
100
AcDbLine
6
CONTINUOUS
62
5
10
109.714742
20
203.652231
11
109.714523
21
203.617607
0
LINE
5
74d
100
AcDbEntity
8
0
100
AcDbLine
6
CONTINUOUS
62
5
10
109.715169
20
203.686794
11
109.714742
21
203.652231
0
LINE
5
74e
100
AcDbEntity
8
0
100
AcDbLine
6
CONTINUOUS
62
5
10
109.715803
20
203.721254
11
109.715169
21
203.686794
0
LINE
5
74f
100
AcDbEntity
8
0
100
AcDbLine
6
CONTINUOUS
62
5
10
109.716639
20
203.755567
11
109.715803
21
203.721254
0
LINE
5
750
100
AcDbEntity
8
0
100
AcDbLine
6
CONTINUOUS
62
5
10
109.717678
20
203.789689
11
109.716639
21
203.755567
0
LINE
5
751
100
AcDbEntity
8
0
100
AcDbLine
6
CONTINUOUS
62
5
10
109.718915
20
203.823578
11
109.717678
21
203.789689
0
LINE
5
752
100
AcDbEntity
8
0
100
AcDbLine
6
CONTINUOUS
62
5
10
109.720349
20
203.857189
11
109.718915
21
203.823578
0
LINE
5
753
100
AcDbEntity
8
0
100
AcDbLine
6
CONTINUOUS
62
5
10
109.721977
20
203.890479
11
109.720349
21
203.857189
0
LINE
5
754
100
AcDbEntity
8
0
100
AcDbLine
6
CONTINUOUS
62
5
10
109.723794
20
203.923409
11
109.721977
21
203.890479
0
LINE
5
755
100
AcDbEntity
8
0
100
AcDbLine
6
CONTINUOUS
62
5
10
109.725791
20
203.955941
11
109.723794
21
203.923409
0
LINE
5
756
100
AcDbEntity
8
0
100
AcDbLine
6
CONTINUOUS
62
5
10
109.727960
20
203.988038
11
109.725791
21
203.955941
0
LINE
5
757
100
AcDbEntity
8
0
100
AcDbLine
6
CONTINUOUS
62
5
10
109.730292
20
204.019663
11
109.727960
21
203.988038
0
LINE
5
758
100
AcDbEntity
8
0
100
AcDbLine
6
CONTINUOUS
62
5
10
109.732779
20
204.050779
11
109.730292
21
204.019663
0
LINE
5
759
100
AcDbEntity
8
0
100
AcDbLine
6
CONTINUOUS
62
5
10
109.735412
20
204.081350
11
109.732779
21
204.050779
0
LINE
5
75a
100
AcDbEntity
8
0
100
AcDbLine
6
CONTINUOUS
62
5
10
109.738183
20
204.111337
11
109.735412
21
204.081350
0
LINE
5
75b
100
AcDbEntity
8
0
100
AcDbLine
6
CONTINUOUS
62
5
10
109.741084
20
204.140705
11
109.738183
21
204.111337
0
LINE
5
75c
100
AcDbEntity
8
0
100
AcDbLine
6
CONTINUOUS
62
5
10
109.744105
20
204.169415
11
109.741084
21
204.140705
0
LINE
5
75d
100
AcDbEntity
8
0
100
AcDbLine
6
CONTINUOUS
62
5
10
109.747238
20
204.197432
11
109.744105
21
204.169415
0
LINE
5
75e
100
AcDbEntity
8
0
100
AcDbLine
6
CONTINUOUS
62
5
10
109.750474
20
204.224725
11
109.747238
21
204.197432
0
LINE
5
75f
100
AcDbEntity
8
0
100
AcDbLine
6
CONTINUOUS
62
5
10
109.753800
20
204.251266
11
109.750474
21
204.224725
0
LINE
5
760
100
AcDbEntity
8
0
100
AcDbLine
6
CONTINUOUS
62
5
10
109.757208
20
204.277029
11
109.753800
21
204.251266
0
LINE
5
761
100
AcDbEntity
8
0
100
AcDbLine
6
CONTINUOUS
62
5
10
109.760685
20
204.301986
11
109.757208
21
204.277029
0
LINE
5
762
100
AcDbEntity
8
0
100
AcDbLine
6
CONTINUOUS
62
5
10
109.764222
20
204.326109
11
109.760685
21
204.301986
0
LINE
5
763
100
AcDbEntity
8
0
100
AcDbLine
6
CONTINUOUS
62
5
10
109.767807
20
204.349372
11
109.764222
21
204.326109
0
LINE
5
764
100
AcDbEntity
8
0
100
AcDbLine
6
CONTINUOUS
62
5
10
109.771429
20
204.371748
11
109.767807
21
204.349372
0
LINE
5
765
100
AcDbEntity
8
0
100
AcDbLine
6
CONTINUOUS
62
5
10
109.775079
20
204.393208
11
109.771429
21
204.371748
0
LINE
5
766
100
AcDbEntity
8
0
100
AcDbLine
6
CONTINUOUS
62
5
10
109.778745
20
204.413727
11
109.775079
21
204.393208
0
LINE
5
767
100
AcDbEntity
8
0
100
AcDbLine
6
CONTINUOUS
62
5
10
109.782416
20
204.433277
11
109.778745
21
204.413727
0
LINE
5
768
100
AcDbEntity
8
0
100
AcDbLine
6
CONTINUOUS
62
5
10
109.786083
20
204.451836
11
109.782416
21
204.433277
0
LINE
5
769
100
AcDbEntity
8
0
100
AcDbLine
6
CONTINUOUS
62
5
10
109.789736
20
204.469385
11
109.786083
21
204.451836
0
LINE
5
76a
100
AcDbEntity
8
0
100
AcDbLine
6
CONTINUOUS
62
5
10
109.793366
20
204.485903
11
109.789736
21
204.469385
0
LINE
5
76b
100
AcDbEntity
8
0
100
AcDbLine
6
CONTINUOUS
62
5
10
109.796964
20
204.501371
11
109.793366
21
204.485903
0
LINE
5
76c
100
AcDbEntity
8
0
100
AcDbLine
6
CONTINUOUS
62
5
10
109.800520
20
204.515768
11
109.796964
21
204.501371
0
LINE
5
76d
100
AcDbEntity
8
0
100
AcDbLine
6
CONTINUOUS
62
5
10
109.804024
20
204.529075
11
109.800520
21
204.515768
0
LINE
5
76e
100
AcDbEntity
8
0
100
AcDbLine
6
CONTINUOUS
62
5
10
109.810840
20
204.552337
11
109.807467
21
204.541271
0
LINE
5
76f
100
AcDbEntity
8
0
100
AcDbLine
6
CONTINUOUS
62
5
10
109.814134
20
204.562252
11
109.810840
21
204.552337
0
LINE
5
770
100
AcDbEntity
8
0
100
AcDbLine
6
CONTINUOUS
62
5
10
109.817339
20
204.571002
11
109.814134
21
204.562252
0
LINE
5
771
100
AcDbEntity
8
0
100
AcDbLine
6
CONTINUOUS
62
5
10
109.820452
20
204.578586
11
109.817339
21
204.571002
0
LINE
5
772
100
AcDbEntity
8
0
100
AcDbLine
6
CONTINUOUS
62
5
10
109.823468
20
204.585008
11
109.820452
21
204.578586
0
LINE
5
773
100
AcDbEntity
8
0
100
AcDbLine
6
CONTINUOUS
62
5
10
109.826383
20
204.590270
11
109.823468
21
204.585008
0
LINE
5
774
100
AcDbEntity
8
0
100
AcDbLine
6
CONTINUOUS
62
5
10
109.829193
20
204.594375
11
109.826383
21
204.590270
0
LINE
5
775
100
AcDbEntity
8
0
100
AcDbLine
6
CONTINUOUS
62
5
10
109.831894
20
204.597326
11
109.829193
21
204.594375
0
LINE
5
776
100
AcDbEntity
8
0
100
AcDbLine
6
CONTINUOUS
62
5
10
109.834481
20
204.599126
11
109.831894
21
204.597326
0
LINE
5
777
100
AcDbEntity
8
0
100
AcDbLine
6
CONTINUOUS
62
5
10
109.836950
20
204.599777
11
109.834481
21
204.599126
0
LINE
5
778
100
AcDbEntity
8
0
100
AcDbLine
6
CONTINUOUS
62
5
10
109.839298
20
204.599284
11
109.836950
21
204.599777
0
LINE
5
779
100
AcDbEntity
8
0
100
AcDbLine
6
CONTINUOUS
62
5
10
109.841521
20
204.597647
11
109.839298
21
204.599284
0
LINE
5
77a
100
AcDbEntity
8
0
100
AcDbLine
6
CONTINUOUS
62
5
10
109.843614
20
204.594858
11
109.841521
21
204.597647
0
LINE
5
77b
100
AcDbEntity
8
0
100
AcDbLine
6
CONTINUOUS
62
5
10
109.845577
20
204.590897
11
109.843614
21
204.594858
0
LINE
5
77c
100
AcDbEntity
8
0
100
AcDbLine
6
CONTINUOUS
62
5
10
109.847409
20
204.585739
11
109.845577
21
204.590897
0
LINE
5
77d
100
AcDbEntity
8
0
100
AcDbLine
6
CONTINUOUS
62
5
10
109.849106
20
204.579362
11
109.847409
21
204.585739
0
LINE
5
77e
100
AcDbEntity
8
0
100
AcDbLine
6
CONTINUOUS
62
5
10
109.850669
20
204.571743
11
109.849106
21
204.579362
0
LINE
5
77f
100
AcDbEntity
8
0
100
AcDbLine
6
CONTINUOUS
62
5
10
109.852095
20
204.562859
11
109.850669
21
204.571743
0
LINE
5
780
100
AcDbEntity
8
0
100
AcDbLine
6
CONTINUOUS
62
5
10
109.853384
20
204.552688
11
109.852095
21
204.562859
0
LINE
5
781
100
AcDbEntity
8
0
100
AcDbLine
6
CONTINUOUS
62
5
10
109.854532
20
204.541205
11
109.853384
21
204.552688
0
LINE
5
782
100
AcDbEntity
8
0
100
AcDbLine
6
CONTINUOUS
62
5
10
109.855540
20
204.528388
11
109.854532
21
204.541205
0
LINE
5
783
100
AcDbEntity
8
0
100
AcDbLine
6
CONTINUOUS
62
5
10
109.859041
20
204.427249
11
109.858691
21
204.446330
0
LINE
5
784
100
AcDbEntity
8
0
100
AcDbLine
6
CONTINUOUS
62
5
10
109.859333
20
204.407606
11
109.859041
21
204.427249
0
LINE
5
785
100
AcDbEntity
8
0
100
AcDbLine
6
CONTINUOUS
62
5
10
109.859580
20
204.387541
11
109.859333
21
204.407606
0
LINE
5
786
100
AcDbEntity
8
0
100
AcDbLine
6
CONTINUOUS
62
5
10
109.859797
20
204.367195
11
109.859580
21
204.387541
0
LINE
5
787
100
AcDbEntity
8
0
100
AcDbLine
6
CONTINUOUS
62
5
10
109.860000
20
204.346709
11
109.859797
21
204.367195
0
LINE
5
788
100
AcDbEntity
8
0
100
AcDbLine
6
CONTINUOUS
62
5
10
109.856406
20
204.514224
11
109.855540
21
204.528388
0
LINE
5
789
100
AcDbEntity
8
0
100
AcDbLine
6
CONTINUOUS
62
5
10
109.857139
20
204.498796
11
109.856406
21
204.514224
0
LINE
5
78a
100
AcDbEntity
8
0
100
AcDbLine
6
CONTINUOUS
62
5
10
109.857755
20
204.482244
11
109.857139
21
204.498796
0
LINE
5
78b
100
AcDbEntity
8
0
100
AcDbLine
6
CONTINUOUS
62
5
10
109.858267
20
204.464709
11
109.857755
21
204.482244
0
LINE
5
78c
100
AcDbEntity
8
0
100
AcDbLine
6
CONTINUOUS
62
5
10
109.858691
20
204.446330
11
109.858267
21
204.464709
0
LINE
5
78d
100
AcDbEntity
8
0
100
AcDbLine
6
CONTINUOUS
62
5
10
109.807467
20
204.541271
11
109.804024
21
204.529075
0
LINE
5
78e
100
AcDbEntity
8
0
100
AcDbLine
6
CONTINUOUS
62
5
10
109.860000
20
204.160000
11
109.757206
21
204.262794
0
LINE
5
78f
100
AcDbEntity
8
0
100
AcDbLine
6
CONTINUOUS
62
5
10
109.720326
20
203.343518
11
109.721950
21
203.310221
0
LINE
5
790
100
AcDbEntity
8
0
100
AcDbLine
6
CONTINUOUS
62
5
10
109.718892
20
203.377120
11
109.720326
21
203.343518
0
LINE
5
791
100
AcDbEntity
8
0
100
AcDbLine
6
CONTINUOUS
62
5
10
109.717652
20
203.410990
11
109.718892
21
203.377120
0
LINE
5
792
100
AcDbEntity
8
0
100
AcDbLine
6
CONTINUOUS
62
5
10
109.716610
20
203.445087
11
109.717652
21
203.410990
0
LINE
5
793
100
AcDbEntity
8
0
100
AcDbLine
6
CONTINUOUS
62
5
10
109.715771
20
203.479372
11
109.716610
21
203.445087
0
LINE
5
794
100
AcDbEntity
8
0
100
AcDbLine
6
CONTINUOUS
62
5
10
109.715139
20
203.513807
11
109.715771
21
203.479372
0
LINE
5
795
100
AcDbEntity
8
0
100
AcDbLine
6
CONTINUOUS
62
5
10
109.714720
20
203.548352
11
109.715139
21
203.513807
0
LINE
5
796
100
AcDbEntity
8
0
100
AcDbLine
6
CONTINUOUS
62
5
10
109.714515
20
203.582966
11
109.714720
21
203.548352
0
LINE
5
797
100
AcDbEntity
8
0
100
AcDbLine
6
CONTINUOUS
62
5
10
109.725745
20
203.244703
11
109.727908
21
203.212559
0
LINE
5
798
100
AcDbEntity
8
0
100
AcDbLine
6
CONTINUOUS
62
5
10
109.723758
20
203.277270
11
109.725745
21
203.244703
0
LINE
5
799
100
AcDbEntity
8
0
100
AcDbLine
6
CONTINUOUS
62
5
10
109.800674
20
202.682290
11
109.804259
21
202.668157
0
LINE
5
79a
100
AcDbEntity
8
0
100
AcDbLine
6
CONTINUOUS
62
5
10
109.797030
20
202.697584
11
109.800674
21
202.682290
0
LINE
5
79b
100
AcDbEntity
8
0
100
AcDbLine
6
CONTINUOUS
62
5
10
109.793348
20
202.713913
11
109.797030
21
202.697584
0
LINE
5
79c
100
AcDbEntity
8
0
100
AcDbLine
6
CONTINUOUS
62
5
10
109.789646
20
202.731152
11
109.793348
21
202.713913
0
LINE
5
79d
100
AcDbEntity
8
0
100
AcDbLine
6
CONTINUOUS
62
5
10
109.785941
20
202.749214
11
109.789646
21
202.731152
0
LINE
5
79e
100
AcDbEntity
8
0
100
AcDbLine
6
CONTINUOUS
62
5
10
109.782241
20
202.768093
11
109.785941
21
202.749214
0
LINE
5
79f
100
AcDbEntity
8
0
100
AcDbLine
6
CONTINUOUS
62
5
10
109.778554
20
202.787794
11
109.782241
21
202.768093
0
LINE
5
7a0
100
AcDbEntity
8
0
100
AcDbLine
6
CONTINUOUS
62
5
10
109.774887
20
202.808324
11
109.778554
21
202.787794
0
LINE
5
7a1
100
AcDbEntity
8
0
100
AcDbLine
6
CONTINUOUS
62
5
10
109.771248
20
202.829687
11
109.774887
21
202.808324
0
LINE
5
7a2
100
AcDbEntity
8
0
100
AcDbLine
6
CONTINUOUS
62
5
10
109.767645
20
202.851888
11
109.771248
21
202.829687
0
LINE
5
7a3
100
AcDbEntity
8
0
100
AcDbLine
6
CONTINUOUS
62
5
10
109.764085
20
202.874934
11
109.767645
21
202.851888
0
LINE
5
7a4
100
AcDbEntity
8
0
100
AcDbLine
6
CONTINUOUS
62
5
10
109.760576
20
202.898829
11
109.764085
21
202.874934
0
LINE
5
7a5
100
AcDbEntity
8
0
100
AcDbLine
6
CONTINUOUS
62
5
10
109.757125
20
202.923579
11
109.760576
21
202.898829
0
LINE
5
7a6
100
AcDbEntity
8
0
100
AcDbLine
6
CONTINUOUS
62
5
10
109.753740
20
202.949189
11
109.757125
21
202.923579
0
LINE
5
7a7
100
AcDbEntity
8
0
100
AcDbLine
6
CONTINUOUS
62
5
10
109.750430
20
202.975641
11
109.753740
21
202.949189
0
LINE
5
7a8
100
AcDbEntity
8
0
100
AcDbLine
6
CONTINUOUS
62
5
10
109.747205
20
203.002894
11
109.750430
21
202.975641
0
LINE
5
7a9
100
AcDbEntity
8
0
100
AcDbLine
6
CONTINUOUS
62
5
10
109.744076
20
203.030907
11
109.747205
21
203.002894
0
LINE
5
7aa
100
AcDbEntity
8
0
100
AcDbLine
6
CONTINUOUS
62
5
10
109.741054
20
203.059637
11
109.744076
21
203.030907
0
LINE
5
7ab
100
AcDbEntity
8
0
100
AcDbLine
6
CONTINUOUS
62
5
10
109.738149
20
203.089041
11
109.741054
21
203.059637
0
LINE
5
7ac
100
AcDbEntity
8
0
100
AcDbLine
6
CONTINUOUS
62
5
10
109.735371
20
203.119078
11
109.738149
21
203.089041
0
LINE
5
7ad
100
AcDbEntity
8
0
100
AcDbLine
6
CONTINUOUS
62
5
10
109.732731
20
203.149705
11
109.735371
21
203.119078
0
LINE
5
7ae
100
AcDbEntity
8
0
100
AcDbLine
6
CONTINUOUS
62
5
10
109.730240
20
203.180879
11
109.732731
21
203.149705
0
LINE
5
7af
100
AcDbEntity
8
0
100
AcDbLine
6
CONTINUOUS
62
5
10
109.727908
20
203.212559
11
109.730240
21
203.180879
0
LINE
5
7b0
100
AcDbEntity
8
0
100
AcDbLine
6
CONTINUOUS
62
5
10
109.721950
20
203.310221
11
109.723758
21
203.277270
0
LINE
5
7b1
100
AcDbEntity
8
0
100
AcDbLine
6
CONTINUOUS
62
5
10
109.859954
20
202.842362
11
109.860000
21
202.853291
0
LINE
5
7b2
100
AcDbEntity
8
0
100
AcDbLine
6
CONTINUOUS
62
5
10
109.859906
20
202.831463
11
109.859954
21
202.842362
0
LINE
5
7b3
100
AcDbEntity
8
0
100
AcDbLine
6
CONTINUOUS
62
5
10
109.859850
20
202.820629
11
109.859906
21
202.831463
0
LINE
5
7b4
100
AcDbEntity
8
0
100
AcDbLine
6
CONTINUOUS
62
5
10
109.859785
20
202.809890
11
109.859850
21
202.820629
0
LINE
5
7b5
100
AcDbEntity
8
0
100
AcDbLine
6
CONTINUOUS
62
5
10
109.859706
20
202.799278
11
109.859785
21
202.809890
0
LINE
5
7b6
100
AcDbEntity
8
0
100
AcDbLine
6
CONTINUOUS
62
5
10
109.859611
20
202.788825
11
109.859706
21
202.799278
0
LINE
5
7b7
100
AcDbEntity
8
0
100
AcDbLine
6
CONTINUOUS
62
5
10
109.859496
20
202.778563
11
109.859611
21
202.788825
0
LINE
5
7b8
100
AcDbEntity
8
0
100
AcDbLine
6
CONTINUOUS
62
5
10
109.859359
20
202.768524
11
109.859496
21
202.778563
0
LINE
5
7b9
100
AcDbEntity
8
0
100
AcDbLine
6
CONTINUOUS
62
5
10
109.859194
20
202.758739
11
109.859359
21
202.768524
0
LINE
5
7ba
100
AcDbEntity
8
0
100
AcDbLine
6
CONTINUOUS
62
5
10
109.859000
20
202.749240
11
109.859194
21
202.758739
0
LINE
5
7bb
100
AcDbEntity
8
0
100
AcDbLine
6
CONTINUOUS
62
5
10
109.858774
20
202.740059
11
109.859000
21
202.749240
0
LINE
5
7bc
100
AcDbEntity
8
0
100
AcDbLine
6
CONTINUOUS
62
5
10
109.858511
20
202.731228
11
109.858774
21
202.740059
0
LINE
5
7bd
100
AcDbEntity
8
0
100
AcDbLine
6
CONTINUOUS
62
5
10
109.858208
20
202.722779
11
109.858511
21
202.731228
0
LINE
5
7be
100
AcDbEntity
8
0
100
AcDbLine
6
CONTINUOUS
62
5
10
109.857865
20
202.714726
11
109.858208
21
202.722779
0
LINE
5
7bf
100
AcDbEntity
8
0
100
AcDbLine
6
CONTINUOUS
62
5
10
109.857482
20
202.707051
11
109.857865
21
202.714726
0
LINE
5
7c0
100
AcDbEntity
8
0
100
AcDbLine
6
CONTINUOUS
62
5
10
109.857062
20
202.699733
11
109.857482
21
202.707051
0
LINE
5
7c1
100
AcDbEntity
8
0
100
AcDbLine
6
CONTINUOUS
62
5
10
109.856607
20
202.692752
11
109.857062
21
202.699733
0
LINE
5
7c2
100
AcDbEntity
8
0
100
AcDbLine
6
CONTINUOUS
62
5
10
109.856120
20
202.686086
11
109.856607
21
202.692752
0
LINE
5
7c3
100
AcDbEntity
8
0
100
AcDbLine
6
CONTINUOUS
62
5
10
109.855602
20
202.679715
11
109.856120
21
202.686086
0
LINE
5
7c4
100
AcDbEntity
8
0
100
AcDbLine
6
CONTINUOUS
62
5
10
109.855056
20
202.673617
11
109.855602
21
202.679715
0
LINE
5
7c5
100
AcDbEntity
8
0
100
AcDbLine
6
CONTINUOUS
62
5
10
109.854484
20
202.667772
11
109.855056
21
202.673617
0
LINE
5
7c6
100
AcDbEntity
8
0
100
AcDbLine
6
CONTINUOUS
62
5
10
109.853888
20
202.662158
11
109.854484
21
202.667772
0
LINE
5
7c7
100
AcDbEntity
8
0
100
AcDbLine
6
CONTINUOUS
62
5
10
109.853270
20
202.656754
11
109.853888
21
202.662158
0
LINE
5
7c8
100
AcDbEntity
8
0
100
AcDbLine
6
CONTINUOUS
62
5
10
109.852632
20
202.651539
11
109.853270
21
202.656754
0
LINE
5
7c9
100
AcDbEntity
8
0
100
AcDbLine
6
CONTINUOUS
62
5
10
109.851977
20
202.646492
11
109.852632
21
202.651539
0
LINE
5
7ca
100
AcDbEntity
8
0
100
AcDbLine
6
CONTINUOUS
62
5
10
109.851307
20
202.641593
11
109.851977
21
202.646492
0
LINE
5
7cb
100
AcDbEntity
8
0
100
AcDbLine
6
CONTINUOUS
62
5
10
109.850624
20
202.636820
11
109.851307
21
202.641593
0
LINE
5
7cc
100
AcDbEntity
8
0
100
AcDbLine
6
CONTINUOUS
62
5
10
109.849929
20
202.632152
11
109.850624
21
202.636820
0
LINE
5
7cd
100
AcDbEntity
8
0
100
AcDbLine
6
CONTINUOUS
62
5
10
109.849226
20
202.627568
11
109.849929
21
202.632152
0
LINE
5
7ce
100
AcDbEntity
8
0
100
AcDbLine
6
CONTINUOUS
62
5
10
109.848517
20
202.623047
11
109.849226
21
202.627568
0
LINE
5
7cf
100
AcDbEntity
8
0
100
AcDbLine
6
CONTINUOUS
62
5
10
109.847803
20
202.618568
11
109.848517
21
202.623047
0
LINE
5
7d0
100
AcDbEntity
8
0
100
AcDbLine
6
CONTINUOUS
62
5
10
109.847087
20
202.614110
11
109.847803
21
202.618568
0
LINE
5
7d1
100
AcDbEntity
8
0
100
AcDbLine
6
CONTINUOUS
62
5
10
109.833196
20
202.612783
11
109.835435
21
202.614353
0
LINE
5
7d2
100
AcDbEntity
8
0
100
AcDbLine
6
CONTINUOUS
62
5
10
109.830917
20
202.611627
11
109.833196
21
202.612783
0
LINE
5
7d3
100
AcDbEntity
8
0
100
AcDbLine
6
CONTINUOUS
62
5
10
109.828559
20
202.611298
11
109.830917
21
202.611627
0
LINE
5
7d4
100
AcDbEntity
8
0
100
AcDbLine
6
CONTINUOUS
62
5
10
109.826081
20
202.612209
11
109.828559
21
202.611298
0
LINE
5
7d5
100
AcDbEntity
8
0
100
AcDbLine
6
CONTINUOUS
62
5
10
109.823445
20
202.614774
11
109.826081
21
202.612209
0
LINE
5
7d6
100
AcDbEntity
8
0
100
AcDbLine
6
CONTINUOUS
62
5
10
109.820622
20
202.619303
11
109.823445
21
202.614774
0
LINE
5
7d7
100
AcDbEntity
8
0
100
AcDbLine
6
CONTINUOUS
62
5
10
109.817623
20
202.625747
11
109.820622
21
202.619303
0
LINE
5
7d8
100
AcDbEntity
8
0
100
AcDbLine
6
CONTINUOUS
62
5
10
109.814467
20
202.633980
11
109.817623
21
202.625747
0
LINE
5
7d9
100
AcDbEntity
8
0
100
AcDbLine
6
CONTINUOUS
62
5
10
109.811175
20
202.643876
11
109.814467
21
202.633980
0
LINE
5
7da
100
AcDbEntity
8
0
100
AcDbLine
6
CONTINUOUS
62
5
10
109.807766
20
202.655310
11
109.811175
21
202.643876
0
LINE
5
7db
100
AcDbEntity
8
0
100
AcDbLine
6
CONTINUOUS
62
5
10
109.804259
20
202.668157
11
109.807766
21
202.655310
0
LINE
5
7dc
100
AcDbEntity
8
0
100
AcDbLine
6
CONTINUOUS
62
5
10
109.755575
20
202.935575
11
109.860000
21
203.040000
0
LINE
5
7dd
100
AcDbEntity
8
0
100
AcDbLine
6
CONTINUOUS
62
5
10
109.657842
20
206.318036
11
109.645631
21
206.326150
0
LINE
5
7de
100
AcDbEntity
8
0
100
AcDbLine
6
CONTINUOUS
62
5
10
109.669807
20
206.309505
11
109.657842
21
206.318036
0
LINE
5
7df
100
AcDbEntity
8
0
100
AcDbLine
6
CONTINUOUS
62
5
10
109.681512
20
206.300575
11
109.669807
21
206.309505
0
LINE
5
7e0
100
AcDbEntity
8
0
100
AcDbLine
6
CONTINUOUS
62
5
10
109.692946
20
206.291263
11
109.681512
21
206.300575
0
LINE
5
7e1
100
AcDbEntity
8
0
100
AcDbLine
6
CONTINUOUS
62
5
10
109.704097
20
206.281586
11
109.692946
21
206.291263
0
LINE
5
7e2
100
AcDbEntity
8
0
100
AcDbLine
6
CONTINUOUS
62
5
10
109.714953
20
206.271562
11
109.704097
21
206.281586
0
LINE
5
7e3
100
AcDbEntity
8
0
100
AcDbLine
6
CONTINUOUS
62
5
10
109.725498
20
206.261205
11
109.714953
21
206.271562
0
LINE
5
7e4
100
AcDbEntity
8
0
100
AcDbLine
6
CONTINUOUS
62
5
10
109.735708
20
206.250527
11
109.725498
21
206.261205
0
LINE
5
7e5
100
AcDbEntity
8
0
100
AcDbLine
6
CONTINUOUS
62
5
10
109.745560
20
206.239540
11
109.735708
21
206.250527
0
LINE
5
7e6
100
AcDbEntity
8
0
100
AcDbLine
6
CONTINUOUS
62
5
10
109.755029
20
206.228255
11
109.745560
21
206.239540
0
LINE
5
7e7
100
AcDbEntity
8
0
100
AcDbLine
6
CONTINUOUS
62
5
10
109.764092
20
206.216683
11
109.755029
21
206.228255
0
LINE
5
7e8
100
AcDbEntity
8
0
100
AcDbLine
6
CONTINUOUS
62
5
10
109.772723
20
206.204835
11
109.764092
21
206.216683
0
LINE
5
7e9
100
AcDbEntity
8
0
100
AcDbLine
6
CONTINUOUS
62
5
10
109.780898
20
206.192723
11
109.772723
21
206.204835
0
LINE
5
7ea
100
AcDbEntity
8
0
100
AcDbLine
6
CONTINUOUS
62
5
10
109.788594
20
206.180358
11
109.780898
21
206.192723
0
LINE
5
7eb
100
AcDbEntity
8
0
100
AcDbLine
6
CONTINUOUS
62
5
10
109.795786
20
206.167751
11
109.788594
21
206.180358
0
LINE
5
7ec
100
AcDbEntity
8
0
100
AcDbLine
6
CONTINUOUS
62
5
10
109.802450
20
206.154913
11
109.795786
21
206.167751
0
LINE
5
7ed
100
AcDbEntity
8
0
100
AcDbLine
6
CONTINUOUS
62
5
10
109.860000
20
205.905986
11
109.847855
21
205.973636
0
LINE
5
7ee
100
AcDbEntity
8
0
100
AcDbLine
6
CONTINUOUS
62
5
10
109.814095
20
206.128590
11
109.808561
21
206.141856
0
LINE
5
7ef
100
AcDbEntity
8
0
100
AcDbLine
6
CONTINUOUS
62
5
10
109.819043
20
206.115129
11
109.814095
21
206.128590
0
LINE
5
7f0
100
AcDbEntity
8
0
100
AcDbLine
6
CONTINUOUS
62
5
10
109.823446
20
206.101490
11
109.819043
21
206.115129
0
LINE
5
7f1
100
AcDbEntity
8
0
100
AcDbLine
6
CONTINUOUS
62
5
10
109.827360
20
206.087689
11
109.823446
21
206.101490
0
LINE
5
7f2
100
AcDbEntity
8
0
100
AcDbLine
6
CONTINUOUS
62
5
10
109.830839
20
206.073745
11
109.827360
21
206.087689
0
LINE
5
7f3
100
AcDbEntity
8
0
100
AcDbLine
6
CONTINUOUS
62
5
10
109.833936
20
206.059676
11
109.830839
21
206.073745
0
LINE
5
7f4
100
AcDbEntity
8
0
100
AcDbLine
6
CONTINUOUS
62
5
10
109.836708
20
206.045500
11
109.833936
21
206.059676
0
LINE
5
7f5
100
AcDbEntity
8
0
100
AcDbLine
6
CONTINUOUS
62
5
10
109.839207
20
206.031235
11
109.836708
21
206.045500
0
LINE
5
7f6
100
AcDbEntity
8
0
100
AcDbLine
6
CONTINUOUS
62
5
10
109.841488
20
206.016897
11
109.839207
21
206.031235
0
LINE
5
7f7
100
AcDbEntity
8
0
100
AcDbLine
6
CONTINUOUS
62
5
10
109.843607
20
206.002507
11
109.841488
21
206.016897
0
LINE
5
7f8
100
AcDbEntity
8
0
100
AcDbLine
6
CONTINUOUS
62
5
10
109.845616
20
205.988080
11
109.843607
21
206.002507
0
LINE
5
7f9
100
AcDbEntity
8
0
100
AcDbLine
6
CONTINUOUS
62
5
10
109.847571
20
205.973636
11
109.845616
21
205.988080
0
LINE
5
7fa
100
AcDbEntity
8
0
100
AcDbLine
6
CONTINUOUS
62
5
10
109.808561
20
206.141856
11
109.802450
21
206.154913
0
LINE
5
7fb
100
AcDbEntity
8
0
100
AcDbLine
6
CONTINUOUS
62
5
10
94.660000
20
201.980205
11
94.660000
21
206.560000
0
POLYLINE
5
7fc
100
AcDbEntity
8
0
6
CONTINUOUS
62
5
100
AcDb2dPolyline
66
1
10
0.0
20
0.0
30
0.0
70
0
0
VERTEX
5
7fd
100
AcDbEntity
8
0
100
AcDbVertex
100
AcDb2dVertex
62
5
10
101.860000
20
201.980205
0
VERTEX
5
7fe
100
AcDbEntity
8
0
100
AcDbVertex
100
AcDb2dVertex
62
5
10
101.860000
20
206.316320
0
VERTEX
5
7ff
100
AcDbEntity
8
0
100
AcDbVertex
100
AcDb2dVertex
62
5
10
94.660000
20
206.316320
0
SEQEND
5
800
100
AcDbEntity
8
0
0
LINE
5
801
100
AcDbEntity
8
0
100
AcDbLine
6
CONTINUOUS
62
5
10
61.860000
20
204.600000
11
61.660000
21
204.600000
0
LINE
5
802
100
AcDbEntity
8
0
100
AcDbLine
6
CONTINUOUS
62
5
10
61.660000
20
202.600000
11
61.860000
21
202.600000
0
LINE
5
803
100
AcDbEntity
8
0
100
AcDbLine
6
CONTINUOUS
62
5
10
54.086812
20
206.334176
11
54.074362
21
206.326509
0
LINE
5
804
100
AcDbEntity
8
0
100
AcDbLine
6
CONTINUOUS
62
5
10
54.099483
20
206.341392
11
54.086812
21
206.334176
0
LINE
5
805
100
AcDbEntity
8
0
100
AcDbLine
6
CONTINUOUS
62
5
10
54.112363
20
206.348141
11
54.099483
21
206.341392
0
LINE
5
806
100
AcDbEntity
8
0
100
AcDbLine
6
CONTINUOUS
62
5
10
54.125439
20
206.354405
11
54.112363
21
206.348141
0
LINE
5
807
100
AcDbEntity
8
0
100
AcDbLine
6
CONTINUOUS
62
5
10
54.138699
20
206.360167
11
54.125439
21
206.354405
0
LINE
5
808
100
AcDbEntity
8
0
100
AcDbLine
6
CONTINUOUS
62
5
10
54.152131
20
206.365411
11
54.138699
21
206.360167
0
LINE
5
809
100
AcDbEntity
8
0
100
AcDbLine
6
CONTINUOUS
62
5
10
54.165723
20
206.370120
11
54.152131
21
206.365411
0
LINE
5
80a
100
AcDbEntity
8
0
100
AcDbLine
6
CONTINUOUS
62
5
10
54.179463
20
206.374295
11
54.165723
21
206.370120
0
LINE
5
80b
100
AcDbEntity
8
0
100
AcDbLine
6
CONTINUOUS
62
5
10
54.193338
20
206.377978
11
54.179463
21
206.374295
0
LINE
5
80c
100
AcDbEntity
8
0
100
AcDbLine
6
CONTINUOUS
62
5
10
54.207336
20
206.381212
11
54.193338
21
206.377978
0
LINE
5
80d
100
AcDbEntity
8
0
100
AcDbLine
6
CONTINUOUS
62
5
10
54.221445
20
206.384042
11
54.207336
21
206.381212
0
LINE
5
80e
100
AcDbEntity
8
0
100
AcDbLine
6
CONTINUOUS
62
5
10
54.235653
20
206.386514
11
54.221445
21
206.384042
0
LINE
5
80f
100
AcDbEntity
8
0
100
AcDbLine
6
CONTINUOUS
62
5
10
54.249946
20
206.388672
11
54.235653
21
206.386514
0
LINE
5
810
100
AcDbEntity
8
0
100
AcDbLine
6
CONTINUOUS
62
5
10
54.264313
20
206.390562
11
54.249946
21
206.388672
0
LINE
5
811
100
AcDbEntity
8
0
100
AcDbLine
6
CONTINUOUS
62
5
10
54.278742
20
206.392227
11
54.264313
21
206.390562
0
LINE
5
812
100
AcDbEntity
8
0
100
AcDbLine
6
CONTINUOUS
62
5
10
54.293220
20
206.393712
11
54.278742
21
206.392227
0
LINE
5
813
100
AcDbEntity
8
0
100
AcDbLine
6
CONTINUOUS
62
5
10
54.307735
20
206.395064
11
54.293220
21
206.393712
0
LINE
5
814
100
AcDbEntity
8
0
100
AcDbLine
6
CONTINUOUS
62
5
10
54.322274
20
206.396325
11
54.307735
21
206.395064
0
LINE
5
815
100
AcDbEntity
8
0
100
AcDbLine
6
CONTINUOUS
62
5
10
54.336826
20
206.397542
11
54.322274
21
206.396325
0
LINE
5
816
100
AcDbEntity
8
0
100
AcDbLine
6
CONTINUOUS
62
5
10
53.865938
20
204.546054
11
53.864797
21
204.533773
0
LINE
5
817
100
AcDbEntity
8
0
100
AcDbLine
6
CONTINUOUS
62
5
10
53.867217
20
204.557047
11
53.865938
21
204.546054
0
LINE
5
818
100
AcDbEntity
8
0
100
AcDbLine
6
CONTINUOUS
62
5
10
53.868637
20
204.566764
11
53.867217
21
204.557047
0
LINE
5
819
100
AcDbEntity
8
0
100
AcDbLine
6
CONTINUOUS
62
5
10
53.870197
20
204.575214
11
53.868637
21
204.566764
0
LINE
5
81a
100
AcDbEntity
8
0
100
AcDbLine
6
CONTINUOUS
62
5
10
53.871899
20
204.582410
11
53.870197
21
204.575214
0
LINE
5
81b
100
AcDbEntity
8
0
100
AcDbLine
6
CONTINUOUS
62
5
10
53.873744
20
204.588362
11
53.871899
21
204.582410
0
LINE
5
81c
100
AcDbEntity
8
0
100
AcDbLine
6
CONTINUOUS
62
5
10
53.875731
20
204.593073
11
53.873744
21
204.588362
0
LINE
5
81d
100
AcDbEntity
8
0
100
AcDbLine
6
CONTINUOUS
62
5
10
53.877857
20
204.596538
11
53.875731
21
204.593073
0
LINE
5
81e
100
AcDbEntity
8
0
100
AcDbLine
6
CONTINUOUS
62
5
10
53.880119
20
204.598752
11
53.877857
21
204.596538
0
LINE
5
81f
100
AcDbEntity
8
0
100
AcDbLine
6
CONTINUOUS
62
5
10
53.882516
20
204.599707
11
53.880119
21
204.598752
0
LINE
5
820
100
AcDbEntity
8
0
100
AcDbLine
6
CONTINUOUS
62
5
10
53.885043
20
204.599399
11
53.882516
21
204.599707
0
LINE
5
821
100
AcDbEntity
8
0
100
AcDbLine
6
CONTINUOUS
62
5
10
53.887699
20
204.597822
11
53.885043
21
204.599399
0
LINE
5
822
100
AcDbEntity
8
0
100
AcDbLine
6
CONTINUOUS
62
5
10
53.890481
20
204.594970
11
53.887699
21
204.597822
0
LINE
5
823
100
AcDbEntity
8
0
100
AcDbLine
6
CONTINUOUS
62
5
10
53.893385
20
204.590836
11
53.890481
21
204.594970
0
LINE
5
824
100
AcDbEntity
8
0
100
AcDbLine
6
CONTINUOUS
62
5
10
53.896410
20
204.585416
11
53.893385
21
204.590836
0
LINE
5
825
100
AcDbEntity
8
0
100
AcDbLine
6
CONTINUOUS
62
5
10
53.899552
20
204.578706
11
53.896410
21
204.585416
0
LINE
5
826
100
AcDbEntity
8
0
100
AcDbLine
6
CONTINUOUS
62
5
10
53.902801
20
204.570722
11
53.899552
21
204.578706
0
LINE
5
827
100
AcDbEntity
8
0
100
AcDbLine
6
CONTINUOUS
62
5
10
53.906150
20
204.561481
11
53.902801
21
204.570722
0
LINE
5
828
100
AcDbEntity
8
0
100
AcDbLine
6
CONTINUOUS
62
5
10
53.909588
20
204.551001
11
53.906150
21
204.561481
0
LINE
5
829
100
AcDbEntity
8
0
100
AcDbLine
6
CONTINUOUS
62
5
10
53.913107
20
204.539300
11
53.909588
21
204.551001
0
LINE
5
82a
100
AcDbEntity
8
0
100
AcDbLine
6
CONTINUOUS
62
5
10
53.916697
20
204.526396
11
53.913107
21
204.539300
0
LINE
5
82b
100
AcDbEntity
8
0
100
AcDbLine
6
CONTINUOUS
62
5
10
53.860141
20
204.368778
11
53.860000
21
204.346709
0
LINE
5
82c
100
AcDbEntity
8
0
100
AcDbLine
6
CONTINUOUS
62
5
10
53.860303
20
204.390632
11
53.860141
21
204.368778
0
LINE
5
82d
100
AcDbEntity
8
0
100
AcDbLine
6
CONTINUOUS
62
5
10
53.860509
20
204.412052
11
53.860303
21
204.390632
0
LINE
5
82e
100
AcDbEntity
8
0
100
AcDbLine
6
CONTINUOUS
62
5
10
53.860780
20
204.432822
11
53.860509
21
204.412052
0
LINE
5
82f
100
AcDbEntity
8
0
100
AcDbLine
6
CONTINUOUS
62
5
10
53.861138
20
204.452727
11
53.860780
21
204.432822
0
LINE
5
830
100
AcDbEntity
8
0
100
AcDbLine
6
CONTINUOUS
62
5
10
53.939205
20
204.424738
11
53.935388
21
204.444464
0
LINE
5
831
100
AcDbEntity
8
0
100
AcDbLine
6
CONTINUOUS
62
5
10
53.943021
20
204.403959
11
53.939205
21
204.424738
0
LINE
5
832
100
AcDbEntity
8
0
100
AcDbLine
6
CONTINUOUS
62
5
10
53.946825
20
204.382154
11
53.943021
21
204.403959
0
LINE
5
833
100
AcDbEntity
8
0
100
AcDbLine
6
CONTINUOUS
62
5
10
53.950604
20
204.359350
11
53.946825
21
204.382154
0
LINE
5
834
100
AcDbEntity
8
0
100
AcDbLine
6
CONTINUOUS
62
5
10
53.954347
20
204.335575
11
53.950604
21
204.359350
0
LINE
5
835
100
AcDbEntity
8
0
100
AcDbLine
6
CONTINUOUS
62
5
10
53.958041
20
204.310855
11
53.954347
21
204.335575
0
LINE
5
836
100
AcDbEntity
8
0
100
AcDbLine
6
CONTINUOUS
62
5
10
53.961675
20
204.285220
11
53.958041
21
204.310855
0
LINE
5
837
100
AcDbEntity
8
0
100
AcDbLine
6
CONTINUOUS
62
5
10
53.965237
20
204.258695
11
53.961675
21
204.285220
0
LINE
5
838
100
AcDbEntity
8
0
100
AcDbLine
6
CONTINUOUS
62
5
10
53.968715
20
204.231311
11
53.965237
21
204.258695
0
LINE
5
839
100
AcDbEntity
8
0
100
AcDbLine
6
CONTINUOUS
62
5
10
53.972097
20
204.203105
11
53.968715
21
204.231311
0
LINE
5
83a
100
AcDbEntity
8
0
100
AcDbLine
6
CONTINUOUS
62
5
10
53.975374
20
204.174116
11
53.972097
21
204.203105
0
LINE
5
83b
100
AcDbEntity
8
0
100
AcDbLine
6
CONTINUOUS
62
5
10
53.978534
20
204.144381
11
53.975374
21
204.174116
0
LINE
5
83c
100
AcDbEntity
8
0
100
AcDbLine
6
CONTINUOUS
62
5
10
53.981567
20
204.113940
11
53.978534
21
204.144381
0
LINE
5
83d
100
AcDbEntity
8
0
100
AcDbLine
6
CONTINUOUS
62
5
10
53.984461
20
204.082831
11
53.981567
21
204.113940
0
LINE
5
83e
100
AcDbEntity
8
0
100
AcDbLine
6
CONTINUOUS
62
5
10
53.987205
20
204.051091
11
53.984461
21
204.082831
0
LINE
5
83f
100
AcDbEntity
8
0
100
AcDbLine
6
CONTINUOUS
62
5
10
53.989789
20
204.018760
11
53.987205
21
204.051091
0
LINE
5
840
100
AcDbEntity
8
0
100
AcDbLine
6
CONTINUOUS
62
5
10
53.992202
20
203.985875
11
53.989789
21
204.018760
0
LINE
5
841
100
AcDbEntity
8
0
100
AcDbLine
6
CONTINUOUS
62
5
10
53.994433
20
203.952477
11
53.992202
21
203.985875
0
LINE
5
842
100
AcDbEntity
8
0
100
AcDbLine
6
CONTINUOUS
62
5
10
53.996477
20
203.918609
11
53.994433
21
203.952477
0
LINE
5
843
100
AcDbEntity
8
0
100
AcDbLine
6
CONTINUOUS
62
5
10
53.998327
20
203.884318
11
53.996477
21
203.918609
0
LINE
5
844
100
AcDbEntity
8
0
100
AcDbLine
6
CONTINUOUS
62
5
10
53.999977
20
203.849650
11
53.998327
21
203.884318
0
LINE
5
845
100
AcDbEntity
8
0
100
AcDbLine
6
CONTINUOUS
62
5
10
54.001424
20
203.814652
11
53.999977
21
203.849650
0
LINE
5
846
100
AcDbEntity
8
0
100
AcDbLine
6
CONTINUOUS
62
5
10
54.002660
20
203.779370
11
54.001424
21
203.814652
0
LINE
5
847
100
AcDbEntity
8
0
100
AcDbLine
6
CONTINUOUS
62
5
10
54.003681
20
203.743851
11
54.002660
21
203.779370
0
LINE
5
848
100
AcDbEntity
8
0
100
AcDbLine
6
CONTINUOUS
62
5
10
54.004481
20
203.708142
11
54.003681
21
203.743851
0
LINE
5
849
100
AcDbEntity
8
0
100
AcDbLine
6
CONTINUOUS
62
5
10
54.005055
20
203.672288
11
54.004481
21
203.708142
0
LINE
5
84a
100
AcDbEntity
8
0
100
AcDbLine
6
CONTINUOUS
62
5
10
54.005398
20
203.636336
11
54.005055
21
203.672288
0
LINE
5
84b
100
AcDbEntity
8
0
100
AcDbLine
6
CONTINUOUS
62
5
10
54.005509
20
203.600333
11
54.005398
21
203.636336
0
LINE
5
84c
100
AcDbEntity
8
0
100
AcDbLine
6
CONTINUOUS
62
5
10
54.005391
20
203.564329
11
54.005509
21
203.600333
0
LINE
5
84d
100
AcDbEntity
8
0
100
AcDbLine
6
CONTINUOUS
62
5
10
53.964425
20
204.264425
11
53.860000
21
204.160000
0
LINE
5
84e
100
AcDbEntity
8
0
100
AcDbLine
6
CONTINUOUS
62
5
10
53.861604
20
204.471549
11
53.861138
21
204.452727
0
LINE
5
84f
100
AcDbEntity
8
0
100
AcDbLine
6
CONTINUOUS
62
5
10
53.862199
20
204.489092
11
53.861604
21
204.471549
0
LINE
5
850
100
AcDbEntity
8
0
100
AcDbLine
6
CONTINUOUS
62
5
10
53.862928
20
204.505303
11
53.862199
21
204.489092
0
LINE
5
851
100
AcDbEntity
8
0
100
AcDbLine
6
CONTINUOUS
62
5
10
53.863794
20
204.520193
11
53.862928
21
204.505303
0
LINE
5
852
100
AcDbEntity
8
0
100
AcDbLine
6
CONTINUOUS
62
5
10
53.864797
20
204.533773
11
53.863794
21
204.520193
0
LINE
5
853
100
AcDbEntity
8
0
100
AcDbLine
6
CONTINUOUS
62
5
10
53.920349
20
204.512307
11
53.916697
21
204.526396
0
LINE
5
854
100
AcDbEntity
8
0
100
AcDbLine
6
CONTINUOUS
62
5
10
53.924053
20
204.497051
11
53.920349
21
204.512307
0
LINE
5
855
100
AcDbEntity
8
0
100
AcDbLine
6
CONTINUOUS
62
5
10
53.927801
20
204.480645
11
53.924053
21
204.497051
0
LINE
5
856
100
AcDbEntity
8
0
100
AcDbLine
6
CONTINUOUS
62
5
10
53.931583
20
204.463108
11
53.927801
21
204.480645
0
LINE
5
857
100
AcDbEntity
8
0
100
AcDbLine
6
CONTINUOUS
62
5
10
53.935388
20
204.444464
11
53.931583
21
204.463108
0
LINE
5
858
100
AcDbEntity
8
0
100
AcDbLine
6
CONTINUOUS
62
5
10
54.005046
20
203.528370
11
54.005391
21
203.564329
0
LINE
5
859
100
AcDbEntity
8
0
100
AcDbLine
6
CONTINUOUS
62
5
10
54.004477
20
203.492504
11
54.005046
21
203.528370
0
LINE
5
85a
100
AcDbEntity
8
0
100
AcDbLine
6
CONTINUOUS
62
5
10
54.003688
20
203.456781
11
54.004477
21
203.492504
0
LINE
5
85b
100
AcDbEntity
8
0
100
AcDbLine
6
CONTINUOUS
62
5
10
54.002679
20
203.421248
11
54.003688
21
203.456781
0
LINE
5
85c
100
AcDbEntity
8
0
100
AcDbLine
6
CONTINUOUS
62
5
10
54.001455
20
203.385953
11
54.002679
21
203.421248
0
LINE
5
85d
100
AcDbEntity
8
0
100
AcDbLine
6
CONTINUOUS
62
5
10
54.000018
20
203.350944
11
54.001455
21
203.385953
0
LINE
5
85e
100
AcDbEntity
8
0
100
AcDbLine
6
CONTINUOUS
62
5
10
53.998370
20
203.316269
11
54.000018
21
203.350944
0
LINE
5
85f
100
AcDbEntity
8
0
100
AcDbLine
6
CONTINUOUS
62
5
10
53.994468
20
203.248102
11
53.996517
21
203.281974
0
LINE
5
860
100
AcDbEntity
8
0
100
AcDbLine
6
CONTINUOUS
62
5
10
53.992232
20
203.214693
11
53.994468
21
203.248102
0
LINE
5
861
100
AcDbEntity
8
0
100
AcDbLine
6
CONTINUOUS
62
5
10
53.989819
20
203.181790
11
53.992232
21
203.214693
0
LINE
5
862
100
AcDbEntity
8
0
100
AcDbLine
6
CONTINUOUS
62
5
10
53.987238
20
203.149435
11
53.989819
21
203.181790
0
LINE
5
863
100
AcDbEntity
8
0
100
AcDbLine
6
CONTINUOUS
62
5
10
53.984499
20
203.117668
11
53.987238
21
203.149435
0
LINE
5
864
100
AcDbEntity
8
0
100
AcDbLine
6
CONTINUOUS
62
5
10
53.981612
20
203.086532
11
53.984499
21
203.117668
0
LINE
5
865
100
AcDbEntity
8
0
100
AcDbLine
6
CONTINUOUS
62
5
10
53.978586
20
203.056069
11
53.981612
21
203.086532
0
LINE
5
866
100
AcDbEntity
8
0
100
AcDbLine
6
CONTINUOUS
62
5
10
53.975430
20
203.026320
11
53.978586
21
203.056069
0
LINE
5
867
100
AcDbEntity
8
0
100
AcDbLine
6
CONTINUOUS
62
5
10
53.972155
20
202.997326
11
53.975430
21
203.026320
0
LINE
5
868
100
AcDbEntity
8
0
100
AcDbLine
6
CONTINUOUS
62
5
10
53.968771
20
202.969120
11
53.972155
21
202.997326
0
LINE
5
869
100
AcDbEntity
8
0
100
AcDbLine
6
CONTINUOUS
62
5
10
53.965292
20
202.941733
11
53.968771
21
202.969120
0
LINE
5
86a
100
AcDbEntity
8
0
100
AcDbLine
6
CONTINUOUS
62
5
10
53.961728
20
202.915195
11
53.965292
21
202.941733
0
LINE
5
86b
100
AcDbEntity
8
0
100
AcDbLine
6
CONTINUOUS
62
5
10
53.958093
20
202.889537
11
53.961728
21
202.915195
0
LINE
5
86c
100
AcDbEntity
8
0
100
AcDbLine
6
CONTINUOUS
62
5
10
53.954397
20
202.864790
11
53.958093
21
202.889537
0
LINE
5
86d
100
AcDbEntity
8
0
100
AcDbLine
6
CONTINUOUS
62
5
10
53.950654
20
202.840983
11
53.954397
21
202.864790
0
LINE
5
86e
100
AcDbEntity
8
0
100
AcDbLine
6
CONTINUOUS
62
5
10
53.946875
20
202.818148
11
53.950654
21
202.840983
0
LINE
5
86f
100
AcDbEntity
8
0
100
AcDbLine
6
CONTINUOUS
62
5
10
53.943072
20
202.796315
11
53.946875
21
202.818148
0
LINE
5
870
100
AcDbEntity
8
0
100
AcDbLine
6
CONTINUOUS
62
5
10
53.939258
20
202.775515
11
53.943072
21
202.796315
0
LINE
5
871
100
AcDbEntity
8
0
100
AcDbLine
6
CONTINUOUS
62
5
10
53.935444
20
202.755774
11
53.939258
21
202.775515
0
LINE
5
872
100
AcDbEntity
8
0
100
AcDbLine
6
CONTINUOUS
62
5
10
53.931640
20
202.737115
11
53.935444
21
202.755774
0
LINE
5
873
100
AcDbEntity
8
0
100
AcDbLine
6
CONTINUOUS
62
5
10
53.927857
20
202.719562
11
53.931640
21
202.737115
0
LINE
5
874
100
AcDbEntity
8
0
100
AcDbLine
6
CONTINUOUS
62
5
10
53.924106
20
202.703135
11
53.927857
21
202.719562
0
LINE
5
875
100
AcDbEntity
8
0
100
AcDbLine
6
CONTINUOUS
62
5
10
53.920397
20
202.687859
11
53.924106
21
202.703135
0
LINE
5
876
100
AcDbEntity
8
0
100
AcDbLine
6
CONTINUOUS
62
5
10
53.916742
20
202.673755
11
53.920397
21
202.687859
0
LINE
5
877
100
AcDbEntity
8
0
100
AcDbLine
6
CONTINUOUS
62
5
10
53.913149
20
202.660847
11
53.916742
21
202.673755
0
LINE
5
878
100
AcDbEntity
8
0
100
AcDbLine
6
CONTINUOUS
62
5
10
53.909631
20
202.649155
11
53.913149
21
202.660847
0
LINE
5
879
100
AcDbEntity
8
0
100
AcDbLine
6
CONTINUOUS
62
5
10
53.906197
20
202.638704
11
53.909631
21
202.649155
0
LINE
5
87a
100
AcDbEntity
8
0
100
AcDbLine
6
CONTINUOUS
62
5
10
53.902858
20
202.629510
11
53.906197
21
202.638704
0
LINE
5
87b
100
AcDbEntity
8
0
100
AcDbLine
6
CONTINUOUS
62
5
10
53.899619
20
202.621576
11
53.902858
21
202.629510
0
LINE
5
87c
100
AcDbEntity
8
0
100
AcDbLine
6
CONTINUOUS
62
5
10
53.896484
20
202.614897
11
53.899619
21
202.621576
0
LINE
5
87d
100
AcDbEntity
8
0
100
AcDbLine
6
CONTINUOUS
62
5
10
53.893458
20
202.609472
11
53.896484
21
202.614897
0
LINE
5
87e
100
AcDbEntity
8
0
100
AcDbLine
6
CONTINUOUS
62
5
10
53.890546
20
202.605295
11
53.893458
21
202.609472
0
LINE
5
87f
100
AcDbEntity
8
0
100
AcDbLine
6
CONTINUOUS
62
5
10
53.887752
20
202.602365
11
53.890546
21
202.605295
0
LINE
5
880
100
AcDbEntity
8
0
100
AcDbLine
6
CONTINUOUS
62
5
10
53.885082
20
202.600679
11
53.887752
21
202.602365
0
LINE
5
881
100
AcDbEntity
8
0
100
AcDbLine
6
CONTINUOUS
62
5
10
53.882539
20
202.600232
11
53.885082
21
202.600679
0
LINE
5
882
100
AcDbEntity
8
0
100
AcDbLine
6
CONTINUOUS
62
5
10
53.880129
20
202.601022
11
53.882539
21
202.600232
0
LINE
5
883
100
AcDbEntity
8
0
100
AcDbLine
6
CONTINUOUS
62
5
10
53.877855
20
202.603047
11
53.880129
21
202.601022
0
LINE
5
884
100
AcDbEntity
8
0
100
AcDbLine
6
CONTINUOUS
62
5
10
53.875721
20
202.606322
11
53.877855
21
202.603047
0
LINE
5
885
100
AcDbEntity
8
0
100
AcDbLine
6
CONTINUOUS
62
5
10
53.873729
20
202.610873
11
53.875721
21
202.606322
0
LINE
5
886
100
AcDbEntity
8
0
100
AcDbLine
6
CONTINUOUS
62
5
10
53.871880
20
202.616725
11
53.873729
21
202.610873
0
LINE
5
887
100
AcDbEntity
8
0
100
AcDbLine
6
CONTINUOUS
62
5
10
53.870175
20
202.623904
11
53.871880
21
202.616725
0
LINE
5
888
100
AcDbEntity
8
0
100
AcDbLine
6
CONTINUOUS
62
5
10
53.868617
20
202.632437
11
53.870175
21
202.623904
0
LINE
5
889
100
AcDbEntity
8
0
100
AcDbLine
6
CONTINUOUS
62
5
10
53.867207
20
202.642348
11
53.868617
21
202.632437
0
LINE
5
88a
100
AcDbEntity
8
0
100
AcDbLine
6
CONTINUOUS
62
5
10
53.865948
20
202.653663
11
53.867207
21
202.642348
0
LINE
5
88b
100
AcDbEntity
8
0
100
AcDbLine
6
CONTINUOUS
62
5
10
53.864840
20
202.666408
11
53.865948
21
202.653663
0
LINE
5
88c
100
AcDbEntity
8
0
100
AcDbLine
6
CONTINUOUS
62
5
10
53.863885
20
202.680608
11
53.864840
21
202.666408
0
LINE
5
88d
100
AcDbEntity
8
0
100
AcDbLine
6
CONTINUOUS
62
5
10
53.863078
20
202.696219
11
53.863885
21
202.680608
0
LINE
5
88e
100
AcDbEntity
8
0
100
AcDbLine
6
CONTINUOUS
62
5
10
53.862404
20
202.713092
11
53.863078
21
202.696219
0
LINE
5
88f
100
AcDbEntity
8
0
100
AcDbLine
6
CONTINUOUS
62
5
10
53.861845
20
202.731070
11
53.862404
21
202.713092
0
LINE
5
890
100
AcDbEntity
8
0
100
AcDbLine
6
CONTINUOUS
62
5
10
53.861386
20
202.749994
11
53.861845
21
202.731070
0
LINE
5
891
100
AcDbEntity
8
0
100
AcDbLine
6
CONTINUOUS
62
5
10
53.861009
20
202.769707
11
53.861386
21
202.749994
0
LINE
5
892
100
AcDbEntity
8
0
100
AcDbLine
6
CONTINUOUS
62
5
10
53.860699
20
202.790051
11
53.861009
21
202.769707
0
LINE
5
893
100
AcDbEntity
8
0
100
AcDbLine
6
CONTINUOUS
62
5
10
53.860439
20
202.810868
11
53.860699
21
202.790051
0
LINE
5
894
100
AcDbEntity
8
0
100
AcDbLine
6
CONTINUOUS
62
5
10
53.860211
20
202.832001
11
53.860439
21
202.810868
0
LINE
5
895
100
AcDbEntity
8
0
100
AcDbLine
6
CONTINUOUS
62
5
10
53.860000
20
202.853291
11
53.860211
21
202.832001
0
LINE
5
896
100
AcDbEntity
8
0
100
AcDbLine
6
CONTINUOUS
62
5
10
53.860000
20
203.040000
11
53.962794
21
202.937206
0
LINE
5
897
100
AcDbEntity
8
0
100
AcDbLine
6
CONTINUOUS
62
5
10
53.996517
20
203.281974
11
53.998370
21
203.316269
0
LINE
5
898
100
AcDbEntity
8
0
100
AcDbLine
6
CONTINUOUS
62
5
10
53.917294
20
206.155390
11
53.911162
21
206.142329
0
LINE
5
899
100
AcDbEntity
8
0
100
AcDbLine
6
CONTINUOUS
62
5
10
53.923978
20
206.168231
11
53.917294
21
206.155390
0
LINE
5
89a
100
AcDbEntity
8
0
100
AcDbLine
6
CONTINUOUS
62
5
10
53.931191
20
206.180839
11
53.923978
21
206.168231
0
LINE
5
89b
100
AcDbEntity
8
0
100
AcDbLine
6
CONTINUOUS
62
5
10
53.938907
20
206.193204
11
53.931191
21
206.180839
0
LINE
5
89c
100
AcDbEntity
8
0
100
AcDbLine
6
CONTINUOUS
62
5
10
53.947104
20
206.205313
11
53.938907
21
206.193204
0
LINE
5
89d
100
AcDbEntity
8
0
100
AcDbLine
6
CONTINUOUS
62
5
10
53.955755
20
206.217157
11
53.947104
21
206.205313
0
LINE
5
89e
100
AcDbEntity
8
0
100
AcDbLine
6
CONTINUOUS
62
5
10
53.964837
20
206.228724
11
53.955755
21
206.217157
0
LINE
5
89f
100
AcDbEntity
8
0
100
AcDbLine
6
CONTINUOUS
62
5
10
53.974325
20
206.240003
11
53.964837
21
206.228724
0
LINE
5
8a0
100
AcDbEntity
8
0
100
AcDbLine
6
CONTINUOUS
62
5
10
53.984195
20
206.250982
11
53.974325
21
206.240003
0
LINE
5
8a1
100
AcDbEntity
8
0
100
AcDbLine
6
CONTINUOUS
62
5
10
53.994422
20
206.261651
11
53.984195
21
206.250982
0
LINE
5
8a2
100
AcDbEntity
8
0
100
AcDbLine
6
CONTINUOUS
62
5
10
54.004982
20
206.271998
11
53.994422
21
206.261651
0
LINE
5
8a3
100
AcDbEntity
8
0
100
AcDbLine
6
CONTINUOUS
62
5
10
54.015851
20
206.282011
11
54.004982
21
206.271998
0
LINE
5
8a4
100
AcDbEntity
8
0
100
AcDbLine
6
CONTINUOUS
62
5
10
54.027014
20
206.291676
11
54.015851
21
206.282011
0
LINE
5
8a5
100
AcDbEntity
8
0
100
AcDbLine
6
CONTINUOUS
62
5
10
54.038459
20
206.300976
11
54.027014
21
206.291676
0
LINE
5
8a6
100
AcDbEntity
8
0
100
AcDbLine
6
CONTINUOUS
62
5
10
54.050173
20
206.309892
11
54.038459
21
206.300976
0
LINE
5
8a7
100
AcDbEntity
8
0
100
AcDbLine
6
CONTINUOUS
62
5
10
54.062145
20
206.318409
11
54.050173
21
206.309892
0
LINE
5
8a8
100
AcDbEntity
8
0
100
AcDbLine
6
CONTINUOUS
62
5
10
54.074362
20
206.326509
11
54.062145
21
206.318409
0
LINE
5
8a9
100
AcDbEntity
8
0
100
AcDbLine
6
CONTINUOUS
62
5
10
53.872027
20
205.973923
11
53.860000
21
205.905986
0
LINE
5
8aa
100
AcDbEntity
8
0
100
AcDbLine
6
CONTINUOUS
62
5
10
53.873987
20
205.988388
11
53.872027
21
205.973923
0
LINE
5
8ab
100
AcDbEntity
8
0
100
AcDbLine
6
CONTINUOUS
62
5
10
53.876002
20
206.002835
11
53.873987
21
205.988388
0
LINE
5
8ac
100
AcDbEntity
8
0
100
AcDbLine
6
CONTINUOUS
62
5
10
53.878126
20
206.017245
11
53.876002
21
206.002835
0
LINE
5
8ad
100
AcDbEntity
8
0
100
AcDbLine
6
CONTINUOUS
62
5
10
53.880413
20
206.031601
11
53.878126
21
206.017245
0
LINE
5
8ae
100
AcDbEntity
8
0
100
AcDbLine
6
CONTINUOUS
62
5
10
53.882920
20
206.045885
11
53.880413
21
206.031601
0
LINE
5
8af
100
AcDbEntity
8
0
100
AcDbLine
6
CONTINUOUS
62
5
10
53.885699
20
206.060079
11
53.882920
21
206.045885
0
LINE
5
8b0
100
AcDbEntity
8
0
100
AcDbLine
6
CONTINUOUS
62
5
10
53.888807
20
206.074164
11
53.885699
21
206.060079
0
LINE
5
8b1
100
AcDbEntity
8
0
100
AcDbLine
6
CONTINUOUS
62
5
10
53.892297
20
206.088122
11
53.888807
21
206.074164
0
LINE
5
8b2
100
AcDbEntity
8
0
100
AcDbLine
6
CONTINUOUS
62
5
10
53.896224
20
206.101936
11
53.892297
21
206.088122
0
LINE
5
8b3
100
AcDbEntity
8
0
100
AcDbLine
6
CONTINUOUS
62
5
10
53.900643
20
206.115586
11
53.896224
21
206.101936
0
LINE
5
8b4
100
AcDbEntity
8
0
100
AcDbLine
6
CONTINUOUS
62
5
10
53.905608
20
206.129056
11
53.900643
21
206.115586
0
LINE
5
8b5
100
AcDbEntity
8
0
100
AcDbLine
6
CONTINUOUS
62
5
10
53.911162
20
206.142329
11
53.905608
21
206.129056
0
POLYLINE
5
8b6
100
AcDbEntity
8
0
6
CONTINUOUS
62
5
100
AcDb2dPolyline
66
1
10
0.0
20
0.0
30
0.0
70
0
0
VERTEX
5
8b7
100
AcDbEntity
8
0
100
AcDbVertex
100
AcDb2dVertex
62
5
10
69.060000
20
206.316320
0
VERTEX
5
8b8
100
AcDbEntity
8
0
100
AcDbVertex
100
AcDb2dVertex
62
5
10
61.860000
20
206.316320
0
VERTEX
5
8b9
100
AcDbEntity
8
0
100
AcDbVertex
100
AcDb2dVertex
62
5
10
61.860000
20
201.980205
0
SEQEND
5
8ba
100
AcDbEntity
8
0
0
LINE
5
8bb
100
AcDbEntity
8
0
100
AcDbLine
6
CONTINUOUS
62
5
10
69.060000
20
206.560000
11
69.060000
21
201.980205
0
LINE
5
8bc
100
AcDbEntity
8
0
100
AcDbLine
6
CONTINUOUS
62
5
10
69.260000
20
206.320000
11
69.060000
21
206.320000
0
LINE
5
8bd
100
AcDbEntity
8
0
100
AcDbLine
6
CONTINUOUS
62
5
10
52.660000
20
207.500000
11
52.660000
21
230.800000
0
LINE
5
8be
100
AcDbEntity
8
0
100
AcDbLine
6
CONTINUOUS
62
5
10
111.060000
20
207.500000
11
111.060000
21
230.800000
0
POLYLINE
5
8bf
100
AcDbEntity
8
0
6
CONTINUOUS
62
5
100
AcDb2dPolyline
66
1
10
0.0
20
0.0
30
0.0
70
0
0
VERTEX
5
8c0
100
AcDbEntity
8
0
100
AcDbVertex
100
AcDb2dVertex
62
5
10
81.860000
20
228.800000
0
VERTEX
5
8c1
100
AcDbEntity
8
0
100
AcDbVertex
100
AcDb2dVertex
62
5
10
52.660000
20
228.800000
0
VERTEX
5
8c2
100
AcDbEntity
8
0
100
AcDbVertex
100
AcDb2dVertex
62
5
10
57.460000
20
229.600000
0
VERTEX
5
8c3
100
AcDbEntity
8
0
100
AcDbVertex
100
AcDb2dVertex
62
5
10
57.460000
20
228.000000
0
VERTEX
5
8c4
100
AcDbEntity
8
0
100
AcDbVertex
100
AcDb2dVertex
62
5
10
52.660000
20
228.800000
0
VERTEX
5
8c5
100
AcDbEntity
8
0
100
AcDbVertex
100
AcDb2dVertex
62
5
10
57.460000
20
229.200000
0
VERTEX
5
8c6
100
AcDbEntity
8
0
100
AcDbVertex
100
AcDb2dVertex
62
5
10
57.460000
20
228.400000
0
VERTEX
5
8c7
100
AcDbEntity
8
0
100
AcDbVertex
100
AcDb2dVertex
62
5
10
52.660000
20
228.800000
0
SEQEND
5
8c8
100
AcDbEntity
8
0
0
POLYLINE
5
8c9
100
AcDbEntity
8
0
6
CONTINUOUS
62
5
100
AcDb2dPolyline
66
1
10
0.0
20
0.0
30
0.0
70
0
0
VERTEX
5
8ca
100
AcDbEntity
8
0
100
AcDbVertex
100
AcDb2dVertex
62
5
10
81.860000
20
228.800000
0
VERTEX
5
8cb
100
AcDbEntity
8
0
100
AcDbVertex
100
AcDb2dVertex
62
5
10
111.060000
20
228.800000
0
VERTEX
5
8cc
100
AcDbEntity
8
0
100
AcDbVertex
100
AcDb2dVertex
62
5
10
106.260000
20
228.000000
0
VERTEX
5
8cd
100
AcDbEntity
8
0
100
AcDbVertex
100
AcDb2dVertex
62
5
10
106.260000
20
229.600000
0
VERTEX
5
8ce
100
AcDbEntity
8
0
100
AcDbVertex
100
AcDb2dVertex
62
5
10
111.060000
20
228.800000
0
VERTEX
5
8cf
100
AcDbEntity
8
0
100
AcDbVertex
100
AcDb2dVertex
62
5
10
106.260000
20
228.400000
0
VERTEX
5
8d0
100
AcDbEntity
8
0
100
AcDbVertex
100
AcDb2dVertex
62
5
10
106.260000
20
229.200000
0
VERTEX
5
8d1
100
AcDbEntity
8
0
100
AcDbVertex
100
AcDb2dVertex
62
5
10
111.060000
20
228.800000
0
SEQEND
5
8d2
100
AcDbEntity
8
0
0
POLYLINE
5
8d3
100
AcDbEntity
8
0
6
CONTINUOUS
62
5
100
AcDb2dPolyline
66
1
10
0.0
20
0.0
30
0.0
70
0
0
VERTEX
5
8d4
100
AcDbEntity
8
0
100
AcDbVertex
100
AcDb2dVertex
62
5
10
109.395063
20
206.400000
0
VERTEX
5
8d5
100
AcDbEntity
8
0
100
AcDbVertex
100
AcDb2dVertex
62
5
10
102.060000
20
206.400000
0
VERTEX
5
8d6
100
AcDbEntity
8
0
100
AcDbVertex
100
AcDb2dVertex
62
5
10
102.060000
20
201.980205
0
VERTEX
5
8d7
100
AcDbEntity
8
0
100
AcDbVertex
100
AcDb2dVertex
62
5
10
94.460000
20
201.980205
0
VERTEX
5
8d8
100
AcDbEntity
8
0
100
AcDbVertex
100
AcDb2dVertex
62
5
10
94.460000
20
207.178315
0
VERTEX
5
8d9
100
AcDbEntity
8
0
100
AcDbVertex
100
AcDb2dVertex
62
5
10
69.260000
20
207.178315
0
VERTEX
5
8da
100
AcDbEntity
8
0
100
AcDbVertex
100
AcDb2dVertex
62
5
10
69.260000
20
201.980205
0
VERTEX
5
8db
100
AcDbEntity
8
0
100
AcDbVertex
100
AcDb2dVertex
62
5
10
61.660000
20
201.980205
0
VERTEX
5
8dc
100
AcDbEntity
8
0
100
AcDbVertex
100
AcDb2dVertex
62
5
10
61.660000
20
206.400000
0
VERTEX
5
8dd
100
AcDbEntity
8
0
100
AcDbVertex
100
AcDb2dVertex
62
5
10
54.325214
20
206.400000
0
SEQEND
5
8de
100
AcDbEntity
8
0
0
POLYLINE
5
8df
100
AcDbEntity
8
1
6
CONTINUOUS
62
5
100
AcDb2dPolyline
66
1
10
0.0
20
0.0
30
0.0
70
0
0
VERTEX
5
8e0
100
AcDbEntity
8
1
100
AcDbVertex
100
AcDb2dVertex
62
5
10
153.828125
20
328.687500
0
VERTEX
5
8e1
100
AcDbEntity
8
1
100
AcDbVertex
100
AcDb2dVertex
62
5
10
151.953125
20
326.187500
0
VERTEX
5
8e2
100
AcDbEntity
8
1
100
AcDbVertex
100
AcDb2dVertex
62
5
10
149.843750
20
324.625000
0
SEQEND
5
8e3
100
AcDbEntity
8
1
0
LINE
5
8e4
100
AcDbEntity
8
1
100
AcDbLine
6
CONTINUOUS
62
5
10
152.421875
20
326.812500
11
152.421875
21
321.500000
0
LINE
5
8e5
100
AcDbEntity
8
0
100
AcDbLine
6
CONTINUOUS
62
5
10
155.060000
20
187.032725
11
155.060000
21
230.800000
0
LINE
5
8e6
100
AcDbEntity
8
0
100
AcDbLine
6
CONTINUOUS
62
5
10
170.380000
20
210.300000
11
170.380000
21
230.800000
0
POLYLINE
5
8e7
100
AcDbEntity
8
0
6
CONTINUOUS
62
5
100
AcDb2dPolyline
66
1
10
0.0
20
0.0
30
0.0
70
0
0
VERTEX
5
8e8
100
AcDbEntity
8
0
100
AcDbVertex
100
AcDb2dVertex
62
5
10
197.380000
20
228.800000
0
VERTEX
5
8e9
100
AcDbEntity
8
0
100
AcDbVertex
100
AcDb2dVertex
62
5
10
170.380000
20
228.800000
0
VERTEX
5
8ea
100
AcDbEntity
8
0
100
AcDbVertex
100
AcDb2dVertex
62
5
10
175.180000
20
229.600000
0
VERTEX
5
8eb
100
AcDbEntity
8
0
100
AcDbVertex
100
AcDb2dVertex
62
5
10
175.180000
20
228.000000
0
VERTEX
5
8ec
100
AcDbEntity
8
0
100
AcDbVertex
100
AcDb2dVertex
62
5
10
170.380000
20
228.800000
0
VERTEX
5
8ed
100
AcDbEntity
8
0
100
AcDbVertex
100
AcDb2dVertex
62
5
10
175.180000
20
229.200000
0
VERTEX
5
8ee
100
AcDbEntity
8
0
100
AcDbVertex
100
AcDb2dVertex
62
5
10
175.180000
20
228.400000
0
VERTEX
5
8ef
100
AcDbEntity
8
0
100
AcDbVertex
100
AcDb2dVertex
62
5
10
170.380000
20
228.800000
0
SEQEND
5
8f0
100
AcDbEntity
8
0
0
LINE
5
8f1
100
AcDbEntity
8
0
100
AcDbLine
6
CONTINUOUS
62
5
10
170.380000
20
228.800000
11
155.060000
21
228.800000
0
POLYLINE
5
8f2
100
AcDbEntity
8
0
6
CONTINUOUS
62
5
100
AcDb2dPolyline
66
1
10
0.0
20
0.0
30
0.0
70
0
0
VERTEX
5
8f3
100
AcDbEntity
8
0
100
AcDbVertex
100
AcDb2dVertex
62
5
10
147.260000
20
228.800000
0
VERTEX
5
8f4
100
AcDbEntity
8
0
100
AcDbVertex
100
AcDb2dVertex
62
5
10
155.060000
20
228.800000
0
VERTEX
5
8f5
100
AcDbEntity
8
0
100
AcDbVertex
100
AcDb2dVertex
62
5
10
150.260000
20
228.000000
0
VERTEX
5
8f6
100
AcDbEntity
8
0
100
AcDbVertex
100
AcDb2dVertex
62
5
10
150.260000
20
229.600000
0
VERTEX
5
8f7
100
AcDbEntity
8
0
100
AcDbVertex
100
AcDb2dVertex
62
5
10
155.060000
20
228.800000
0
VERTEX
5
8f8
100
AcDbEntity
8
0
100
AcDbVertex
100
AcDb2dVertex
62
5
10
150.260000
20
228.400000
0
VERTEX
5
8f9
100
AcDbEntity
8
0
100
AcDbVertex
100
AcDb2dVertex
62
5
10
150.260000
20
229.200000
0
VERTEX
5
8fa
100
AcDbEntity
8
0
100
AcDbVertex
100
AcDb2dVertex
62
5
10
155.060000
20
228.800000
0
SEQEND
5
8fb
100
AcDbEntity
8
0
0
LINE
5
8fc
100
AcDbEntity
8
1
100
AcDbLine
6
CONTINUOUS
62
5
10
266.940000
20
149.440000
11
266.940000
21
145.760000
0
POLYLINE
5
8fd
100
AcDbEntity
8
1
6
CONTINUOUS
62
5
100
AcDb2dPolyline
66
1
10
0.0
20
0.0
30
0.0
70
0
0
VERTEX
5
8fe
100
AcDbEntity
8
1
100
AcDbVertex
100
AcDb2dVertex
62
5
10
266.860000
20
149.440000
0
VERTEX
5
8ff
100
AcDbEntity
8
1
100
AcDbVertex
100
AcDb2dVertex
62
5
10
267.340000
20
149.440000
0
VERTEX
5
900
100
AcDbEntity
8
1
100
AcDbVertex
100
AcDb2dVertex
62
5
10
267.340000
20
145.760000
0
VERTEX
5
901
100
AcDbEntity
8
1
100
AcDbVertex
100
AcDb2dVertex
62
5
10
266.860000
20
145.760000
0
SEQEND
5
902
100
AcDbEntity
8
1
0
LINE
5
903
100
AcDbEntity
8
0
100
AcDbLine
6
CONTINUOUS
62
5
10
243.260000
20
156.040000
11
243.340000
21
155.960000
0
LINE
5
904
100
AcDbEntity
8
0
100
AcDbLine
6
CONTINUOUS
62
5
10
242.460000
20
156.040000
11
242.380000
21
155.960000
0
LINE
5
905
100
AcDbEntity
8
0
100
AcDbLine
6
CONTINUOUS
62
5
10
243.407540
20
158.624440
11
243.407540
21
157.824440
0
ARC
5
906
100
AcDbEntity
8
0
100
AcDbCircle
6
CONTINUOUS
62
5
10
242.860000
20
150.000000
40
3.600000
100
AcDbArc
50
-27.266044
51
31.561709
0
ARC
5
907
100
AcDbEntity
8
0
100
AcDbCircle
6
CONTINUOUS
62
5
10
242.860000
20
150.000000
40
3.600000
100
AcDbArc
50
148.438290
51
-152.733954
0
ARC
5
908
100
AcDbEntity
8
0
100
AcDbCircle
6
CONTINUOUS
62
5
10
242.860000
20
150.000000
40
7.200000
100
AcDbArc
50
112.285852
51
-116.387799
0
ARC
5
909
100
AcDbEntity
8
0
100
AcDbCircle
6
CONTINUOUS
62
5
10
242.860000
20
150.000000
40
8.000000
100
AcDbArc
50
109.246582
51
-113.340329
0
ARC
5
90a
100
AcDbEntity
8
0
100
AcDbCircle
6
CONTINUOUS
62
5
10
242.860000
20
150.000000
40
7.200000
100
AcDbArc
50
-63.612199
51
67.714146
0
ARC
5
90b
100
AcDbEntity
8
0
100
AcDbCircle
6
CONTINUOUS
62
5
10
242.860000
20
150.000000
40
8.000000
100
AcDbArc
50
-66.659669
51
70.753416
0
LINE
5
90c
100
AcDbEntity
8
1
100
AcDbLine
6
CONTINUOUS
62
5
10
266.940000
20
115.040000
11
266.940000
21
111.360000
0
POLYLINE
5
90d
100
AcDbEntity
8
1
6
CONTINUOUS
62
5
100
AcDb2dPolyline
66
1
10
0.0
20
0.0
30
0.0
70
0
0
VERTEX
5
90e
100
AcDbEntity
8
1
100
AcDbVertex
100
AcDb2dVertex
62
5
10
266.860000
20
115.040000
0
VERTEX
5
90f
100
AcDbEntity
8
1
100
AcDbVertex
100
AcDb2dVertex
62
5
10
267.340000
20
115.040000
0
VERTEX
5
910
100
AcDbEntity
8
1
100
AcDbVertex
100
AcDb2dVertex
62
5
10
267.340000
20
111.360000
0
VERTEX
5
911
100
AcDbEntity
8
1
100
AcDbVertex
100
AcDb2dVertex
62
5
10
266.860000
20
111.360000
0
SEQEND
5
912
100
AcDbEntity
8
1
0
LINE
5
913
100
AcDbEntity
8
1
100
AcDbLine
6
CONTINUOUS
62
5
10
259.500000
20
107.400000
11
259.500000
21
105.200000
0
LINE
5
914
100
AcDbEntity
8
1
100
AcDbLine
6
CONTINUOUS
62
5
10
259.300000
20
107.418424
11
259.300000
21
105.200000
0
LINE
5
915
100
AcDbEntity
8
1
100
AcDbLine
6
CONTINUOUS
62
5
10
259.700000
20
107.400000
11
259.700000
21
105.200000
0
POLYLINE
5
916
100
AcDbEntity
8
1
6
CONTINUOUS
62
5
100
AcDb2dPolyline
66
1
10
0.0
20
0.0
30
0.0
70
0
0
VERTEX
5
917
100
AcDbEntity
8
1
100
AcDbVertex
100
AcDb2dVertex
62
5
10
218.860000
20
149.440000
0
VERTEX
5
918
100
AcDbEntity
8
1
100
AcDbVertex
100
AcDb2dVertex
62
5
10
218.380000
20
149.440000
0
VERTEX
5
919
100
AcDbEntity
8
1
100
AcDbVertex
100
AcDb2dVertex
62
5
10
218.380000
20
145.760000
0
VERTEX
5
91a
100
AcDbEntity
8
1
100
AcDbVertex
100
AcDb2dVertex
62
5
10
218.860000
20
145.760000
0
SEQEND
5
91b
100
AcDbEntity
8
1
0
LINE
5
91c
100
AcDbEntity
8
1
100
AcDbLine
6
CONTINUOUS
62
5
10
218.780000
20
149.440000
11
218.780000
21
145.760000
0
POLYLINE
5
91d
100
AcDbEntity
8
1
6
CONTINUOUS
62
5
100
AcDb2dPolyline
66
1
10
0.0
20
0.0
30
0.0
70
0
0
VERTEX
5
91e
100
AcDbEntity
8
1
100
AcDbVertex
100
AcDb2dVertex
62
5
10
218.860000
20
115.040000
0
VERTEX
5
91f
100
AcDbEntity
8
1
100
AcDbVertex
100
AcDb2dVertex
62
5
10
218.380000
20
115.040000
0
VERTEX
5
920
100
AcDbEntity
8
1
100
AcDbVertex
100
AcDb2dVertex
62
5
10
218.380000
20
111.360000
0
VERTEX
5
921
100
AcDbEntity
8
1
100
AcDbVertex
100
AcDb2dVertex
62
5
10
218.860000
20
111.360000
0
SEQEND
5
922
100
AcDbEntity
8
1
0
LINE
5
923
100
AcDbEntity
8
1
100
AcDbLine
6
CONTINUOUS
62
5
10
218.780000
20
115.040000
11
218.780000
21
111.360000
0
LINE
5
924
100
AcDbEntity
8
0
100
AcDbLine
6
CONTINUOUS
62
5
10
163.180000
20
85.600000
11
163.060000
21
85.600000
0
LINE
5
925
100
AcDbEntity
8
0
100
AcDbLine
6
CONTINUOUS
62
5
10
163.180000
20
88.400000
11
163.060000
21
88.400000
0
LINE
5
926
100
AcDbEntity
8
0
100
AcDbLine
6
CONTINUOUS
62
5
10
155.060000
20
85.771517
11
155.060000
21
85.781160
0
LINE
5
927
100
AcDbEntity
8
0
100
AcDbLine
6
CONTINUOUS
62
5
10
155.060000
20
85.762116
11
155.060000
21
85.771517
0
LINE
5
928
100
AcDbEntity
8
0
100
AcDbLine
6
CONTINUOUS
62
5
10
155.060000
20
85.752959
11
155.060000
21
85.762116
0
LINE
5
929
100
AcDbEntity
8
0
100
AcDbLine
6
CONTINUOUS
62
5
10
155.060000
20
85.744045
11
155.060000
21
85.752959
0
LINE
5
92a
100
AcDbEntity
8
0
100
AcDbLine
6
CONTINUOUS
62
5
10
155.060000
20
85.735377
11
155.060000
21
85.744045
0
LINE
5
92b
100
AcDbEntity
8
0
100
AcDbLine
6
CONTINUOUS
62
5
10
155.060000
20
85.726955
11
155.060000
21
85.735377
0
LINE
5
92c
100
AcDbEntity
8
0
100
AcDbLine
6
CONTINUOUS
62
5
10
155.060000
20
85.718780
11
155.060000
21
85.726955
0
LINE
5
92d
100
AcDbEntity
8
0
100
AcDbLine
6
CONTINUOUS
62
5
10
155.060000
20
85.710853
11
155.060000
21
85.718780
0
LINE
5
92e
100
AcDbEntity
8
0
100
AcDbLine
6
CONTINUOUS
62
5
10
155.060000
20
85.703178
11
155.060000
21
85.710853
0
LINE
5
92f
100
AcDbEntity
8
0
100
AcDbLine
6
CONTINUOUS
62
5
10
155.060000
20
85.695762
11
155.060000
21
85.703178
0
LINE
5
930
100
AcDbEntity
8
0
100
AcDbLine
6
CONTINUOUS
62
5
10
155.060000
20
85.688614
11
155.060000
21
85.695762
0
LINE
5
931
100
AcDbEntity
8
0
100
AcDbLine
6
CONTINUOUS
62
5
10
155.060000
20
85.681740
11
155.060000
21
85.688614
0
LINE
5
932
100
AcDbEntity
8
0
100
AcDbLine
6
CONTINUOUS
62
5
10
155.060000
20
85.675148
11
155.060000
21
85.681740
0
LINE
5
933
100
AcDbEntity
8
0
100
AcDbLine
6
CONTINUOUS
62
5
10
155.060000
20
85.668845
11
155.060000
21
85.675148
0
LINE
5
934
100
AcDbEntity
8
0
100
AcDbLine
6
CONTINUOUS
62
5
10
155.060000
20
85.662839
11
155.060000
21
85.668845
0
LINE
5
935
100
AcDbEntity
8
0
100
AcDbLine
6
CONTINUOUS
62
5
10
155.060000
20
85.657137
11
155.060000
21
85.662839
0
LINE
5
936
100
AcDbEntity
8
0
100
AcDbLine
6
CONTINUOUS
62
5
10
155.060000
20
85.651747
11
155.060000
21
85.657137
0
LINE
5
937
100
AcDbEntity
8
0
100
AcDbLine
6
CONTINUOUS
62
5
10
155.060000
20
85.646676
11
155.060000
21
85.651747
0
LINE
5
938
100
AcDbEntity
8
0
100
AcDbLine
6
CONTINUOUS
62
5
10
155.060000
20
85.641932
11
155.060000
21
85.646676
0
LINE
5
939
100
AcDbEntity
8
0
100
AcDbLine
6
CONTINUOUS
62
5
10
155.060000
20
85.637521
11
155.060000
21
85.641932
0
LINE
5
93a
100
AcDbEntity
8
0
100
AcDbLine
6
CONTINUOUS
62
5
10
155.060000
20
85.633452
11
155.060000
21
85.637521
0
LINE
5
93b
100
AcDbEntity
8
0
100
AcDbLine
6
CONTINUOUS
62
5
10
155.060000
20
85.629720
11
155.060000
21
85.633452
0
LINE
5
93c
100
AcDbEntity
8
0
100
AcDbLine
6
CONTINUOUS
62
5
10
155.060000
20
85.626306
11
155.060000
21
85.629720
0
LINE
5
93d
100
AcDbEntity
8
0
100
AcDbLine
6
CONTINUOUS
62
5
10
155.060000
20
85.623189
11
155.060000
21
85.626306
0
LINE
5
93e
100
AcDbEntity
8
0
100
AcDbLine
6
CONTINUOUS
62
5
10
155.060000
20
85.620346
11
155.060000
21
85.623189
0
LINE
5
93f
100
AcDbEntity
8
0
100
AcDbLine
6
CONTINUOUS
62
5
10
155.060000
20
85.617758
11
155.060000
21
85.620346
0
LINE
5
940
100
AcDbEntity
8
0
100
AcDbLine
6
CONTINUOUS
62
5
10
155.060000
20
85.615403
11
155.060000
21
85.617758
0
LINE
5
941
100
AcDbEntity
8
0
100
AcDbLine
6
CONTINUOUS
62
5
10
155.060000
20
85.613259
11
155.060000
21
85.615403
0
LINE
5
942
100
AcDbEntity
8
0
100
AcDbLine
6
CONTINUOUS
62
5
10
155.060000
20
85.611306
11
155.060000
21
85.613259
0
LINE
5
943
100
AcDbEntity
8
0
100
AcDbLine
6
CONTINUOUS
62
5
10
155.060000
20
85.609522
11
155.060000
21
85.611306
0
LINE
5
944
100
AcDbEntity
8
0
100
AcDbLine
6
CONTINUOUS
62
5
10
155.060000
20
85.607886
11
155.060000
21
85.609522
0
LINE
5
945
100
AcDbEntity
8
0
100
AcDbLine
6
CONTINUOUS
62
5
10
155.060000
20
85.606378
11
155.060000
21
85.607886
0
LINE
5
946
100
AcDbEntity
8
0
100
AcDbLine
6
CONTINUOUS
62
5
10
155.060000
20
85.604975
11
155.060000
21
85.606378
0
LINE
5
947
100
AcDbEntity
8
0
100
AcDbLine
6
CONTINUOUS
62
5
10
155.060000
20
85.603657
11
155.060000
21
85.604975
0
LINE
5
948
100
AcDbEntity
8
0
100
AcDbLine
6
CONTINUOUS
62
5
10
155.060000
20
85.602403
11
155.060000
21
85.603657
0
LINE
5
949
100
AcDbEntity
8
0
100
AcDbLine
6
CONTINUOUS
62
5
10
155.060000
20
85.601191
11
155.060000
21
85.602403
0
LINE
5
94a
100
AcDbEntity
8
0
100
AcDbLine
6
CONTINUOUS
62
5
10
155.060000
20
85.600000
11
155.060000
21
85.601191
0
LINE
5
94b
100
AcDbEntity
8
0
100
AcDbLine
6
CONTINUOUS
62
5
10
155.060000
20
85.844012
11
155.060000
21
85.855256
0
LINE
5
94c
100
AcDbEntity
8
0
100
AcDbLine
6
CONTINUOUS
62
5
10
155.060000
20
85.832967
11
155.060000
21
85.844012
0
LINE
5
94d
100
AcDbEntity
8
0
100
AcDbLine
6
CONTINUOUS
62
5
10
155.060000
20
85.822135
11
155.060000
21
85.832967
0
LINE
5
94e
100
AcDbEntity
8
0
100
AcDbLine
6
CONTINUOUS
62
5
10
155.060000
20
85.811533
11
155.060000
21
85.822135
0
LINE
5
94f
100
AcDbEntity
8
0
100
AcDbLine
6
CONTINUOUS
62
5
10
155.060000
20
85.801169
11
155.060000
21
85.811533
0
LINE
5
950
100
AcDbEntity
8
0
100
AcDbLine
6
CONTINUOUS
62
5
10
155.060000
20
85.791044
11
155.060000
21
85.801169
0
LINE
5
951
100
AcDbEntity
8
0
100
AcDbLine
6
CONTINUOUS
62
5
10
155.060000
20
85.781160
11
155.060000
21
85.791044
0
LINE
5
952
100
AcDbEntity
8
0
100
AcDbLine
6
CONTINUOUS
62
5
10
155.060000
20
85.987583
11
155.060000
21
86.000000
0
LINE
5
953
100
AcDbEntity
8
0
100
AcDbLine
6
CONTINUOUS
62
5
10
155.060000
20
85.975181
11
155.060000
21
85.987583
0
LINE
5
954
100
AcDbEntity
8
0
100
AcDbLine
6
CONTINUOUS
62
5
10
155.060000
20
85.962808
11
155.060000
21
85.975181
0
LINE
5
955
100
AcDbEntity
8
0
100
AcDbLine
6
CONTINUOUS
62
5
10
155.060000
20
85.950479
11
155.060000
21
85.962808
0
LINE
5
956
100
AcDbEntity
8
0
100
AcDbLine
6
CONTINUOUS
62
5
10
155.060000
20
85.938209
11
155.060000
21
85.950479
0
LINE
5
957
100
AcDbEntity
8
0
100
AcDbLine
6
CONTINUOUS
62
5
10
155.060000
20
85.926013
11
155.060000
21
85.938209
0
LINE
5
958
100
AcDbEntity
8
0
100
AcDbLine
6
CONTINUOUS
62
5
10
155.060000
20
85.913906
11
155.060000
21
85.926013
0
LINE
5
959
100
AcDbEntity
8
0
100
AcDbLine
6
CONTINUOUS
62
5
10
155.060000
20
85.901904
11
155.060000
21
85.913906
0
LINE
5
95a
100
AcDbEntity
8
0
100
AcDbLine
6
CONTINUOUS
62
5
10
155.060000
20
85.890022
11
155.060000
21
85.901904
0
LINE
5
95b
100
AcDbEntity
8
0
100
AcDbLine
6
CONTINUOUS
62
5
10
155.060000
20
85.878277
11
155.060000
21
85.890022
0
LINE
5
95c
100
AcDbEntity
8
0
100
AcDbLine
6
CONTINUOUS
62
5
10
155.060000
20
85.866683
11
155.060000
21
85.878277
0
LINE
5
95d
100
AcDbEntity
8
0
100
AcDbLine
6
CONTINUOUS
62
5
10
155.060000
20
85.855256
11
155.060000
21
85.866683
0
ARC
5
95e
100
AcDbEntity
8
0
100
AcDbCircle
6
CONTINUOUS
62
5
10
156.260000
20
85.600000
40
1.200000
100
AcDbArc
50
179.999998
51
-89.999999
0
ARC
5
95f
100
AcDbEntity
8
1
100
AcDbCircle
6
CONTINUOUS
62
5
10
263.100000
20
105.600000
40
0.400000
100
AcDbArc
50
-89.999999
51
-0.000000
0
LINE
5
960
100
AcDbEntity
8
1
100
AcDbLine
6
CONTINUOUS
62
5
10
263.500000
20
105.600000
11
263.500000
21
107.000000
0
ARC
5
961
100
AcDbEntity
8
1
100
AcDbCircle
6
CONTINUOUS
62
5
10
263.100000
20
107.000000
40
0.400000
100
AcDbArc
50
0.000000
51
89.999999
0
LINE
5
962
100
AcDbEntity
8
1
100
AcDbLine
6
CONTINUOUS
62
5
10
263.100000
20
107.400000
11
259.420000
21
107.400000
0
ARC
5
963
100
AcDbEntity
8
1
100
AcDbCircle
6
CONTINUOUS
62
5
10
259.420000
20
107.800000
40
0.400000
100
AcDbArc
50
179.999998
51
-89.999999
0
LINE
5
964
100
AcDbEntity
8
1
100
AcDbLine
6
CONTINUOUS
62
5
10
259.020000
20
107.800000
11
259.020000
21
108.400000
0
LINE
5
965
100
AcDbEntity
8
1
100
AcDbLine
6
CONTINUOUS
62
5
10
226.460000
20
108.400000
11
226.460000
21
107.480000
0
ARC
5
966
100
AcDbEntity
8
1
100
AcDbCircle
6
CONTINUOUS
62
5
10
226.460000
20
107.240000
40
0.240000
100
AcDbArc
50
0.000000
51
89.999999
0
LINE
5
967
100
AcDbEntity
8
1
100
AcDbLine
6
CONTINUOUS
62
5
10
226.700000
20
107.240000
11
226.700000
21
105.600000
0
ARC
5
968
100
AcDbEntity
8
1
100
AcDbCircle
6
CONTINUOUS
62
5
10
227.100000
20
105.600000
40
0.400000
100
AcDbArc
50
-179.999998
51
-89.999999
0
POLYLINE
5
969
100
AcDbEntity
8
1
6
CONTINUOUS
62
5
100
AcDb2dPolyline
66
1
10
0.0
20
0.0
30
0.0
70
0
0
VERTEX
5
96a
100
AcDbEntity
8
1
100
AcDbVertex
100
AcDb2dVertex
62
5
10
227.100000
20
105.200000
0
VERTEX
5
96b
100
AcDbEntity
8
1
100
AcDbVertex
100
AcDb2dVertex
62
5
10
238.060000
20
105.200000
0
VERTEX
5
96c
100
AcDbEntity
8
1
100
AcDbVertex
100
AcDb2dVertex
62
5
10
238.060000
20
106.086010
0
VERTEX
5
96d
100
AcDbEntity
8
1
100
AcDbVertex
100
AcDb2dVertex
62
5
10
238.060000
20
106.086010
0
SEQEND
5
96e
100
AcDbEntity
8
1
0
POLYLINE
5
96f
100
AcDbEntity
8
1
6
CONTINUOUS
62
5
100
AcDb2dPolyline
66
1
10
0.0
20
0.0
30
0.0
70
0
0
VERTEX
5
970
100
AcDbEntity
8
1
100
AcDbVertex
100
AcDb2dVertex
62
5
10
247.660000
20
106.086010
0
VERTEX
5
971
100
AcDbEntity
8
1
100
AcDbVertex
100
AcDb2dVertex
62
5
10
247.660000
20
106.086010
0
VERTEX
5
972
100
AcDbEntity
8
1
100
AcDbVertex
100
AcDb2dVertex
62
5
10
247.660000
20
105.200000
0
VERTEX
5
973
100
AcDbEntity
8
1
100
AcDbVertex
100
AcDb2dVertex
62
5
10
263.100000
20
105.200000
0
SEQEND
5
974
100
AcDbEntity
8
1
0
POLYLINE
5
975
100
AcDbEntity
8
1
6
CONTINUOUS
62
5
100
AcDb2dPolyline
66
1
10
0.0
20
0.0
30
0.0
70
0
0
VERTEX
5
976
100
AcDbEntity
8
1
100
AcDbVertex
100
AcDb2dVertex
62
5
10
155.625000
20
34.187500
0
VERTEX
5
977
100
AcDbEntity
8
1
100
AcDbVertex
100
AcDb2dVertex
62
5
10
155.312500
20
35.125000
0
VERTEX
5
978
100
AcDbEntity
8
1
100
AcDbVertex
100
AcDb2dVertex
62
5
10
154.687500
20
35.750000
0
VERTEX
5
979
100
AcDbEntity
8
1
100
AcDbVertex
100
AcDb2dVertex
62
5
10
153.750000
20
35.750000
0
VERTEX
5
97a
100
AcDbEntity
8
1
100
AcDbVertex
100
AcDb2dVertex
62
5
10
152.812500
20
34.812500
0
VERTEX
5
97b
100
AcDbEntity
8
1
100
AcDbVertex
100
AcDb2dVertex
62
5
10
152.500000
20
33.250000
0
VERTEX
5
97c
100
AcDbEntity
8
1
100
AcDbVertex
100
AcDb2dVertex
62
5
10
152.500000
20
30.750000
0
VERTEX
5
97d
100
AcDbEntity
8
1
100
AcDbVertex
100
AcDb2dVertex
62
5
10
152.812500
20
29.187500
0
VERTEX
5
97e
100
AcDbEntity
8
1
100
AcDbVertex
100
AcDb2dVertex
62
5
10
153.750000
20
28.250000
0
VERTEX
5
97f
100
AcDbEntity
8
1
100
AcDbVertex
100
AcDb2dVertex
62
5
10
154.687500
20
28.250000
0
VERTEX
5
980
100
AcDbEntity
8
1
100
AcDbVertex
100
AcDb2dVertex
62
5
10
155.312500
20
28.875000
0
VERTEX
5
981
100
AcDbEntity
8
1
100
AcDbVertex
100
AcDb2dVertex
62
5
10
155.937500
20
30.437500
0
SEQEND
5
982
100
AcDbEntity
8
1
0
ARC
5
983
100
AcDbEntity
8
0
100
AcDbCircle
6
CONTINUOUS
62
5
10
81.460000
20
96.560000
40
2.800000
100
AcDbArc
50
0.000000
51
17.457603
0
LINE
5
984
100
AcDbEntity
8
0
100
AcDbLine
6
CONTINUOUS
62
5
10
84.260000
20
96.320000
11
84.260000
21
96.560000
0
POLYLINE
5
985
100
AcDbEntity
8
0
6
CONTINUOUS
62
5
100
AcDb2dPolyline
66
1
10
0.0
20
0.0
30
0.0
70
0
0
VERTEX
5
986
100
AcDbEntity
8
0
100
AcDbVertex
100
AcDb2dVertex
62
5
10
80.900000
20
96.289901
0
VERTEX
5
987
100
AcDbEntity
8
0
100
AcDbVertex
100
AcDb2dVertex
62
5
10
81.042027
20
96.289901
0
VERTEX
5
988
100
AcDbEntity
8
0
100
AcDbVertex
100
AcDb2dVertex
62
5
10
81.042027
20
97.400000
0
SEQEND
5
989
100
AcDbEntity
8
0
0
LINE
5
98a
100
AcDbEntity
8
0
100
AcDbLine
6
CONTINUOUS
62
5
10
80.705078
20
96.320000
11
80.705078
21
97.400000
0
LINE
5
98b
100
AcDbEntity
8
0
100
AcDbLine
6
CONTINUOUS
62
5
10
82.499795
20
96.642080
11
82.508468
21
96.630542
0
LINE
5
98c
100
AcDbEntity
8
0
100
AcDbLine
6
CONTINUOUS
62
5
10
82.491145
20
96.653626
11
82.499795
21
96.642080
0
LINE
5
98d
100
AcDbEntity
8
0
100
AcDbLine
6
CONTINUOUS
62
5
10
82.482540
20
96.665187
11
82.491145
21
96.653626
0
LINE
5
98e
100
AcDbEntity
8
0
100
AcDbLine
6
CONTINUOUS
62
5
10
82.474001
20
96.676771
11
82.482540
21
96.665187
0
LINE
5
98f
100
AcDbEntity
8
0
100
AcDbLine
6
CONTINUOUS
62
5
10
82.465553
20
96.688385
11
82.474001
21
96.676771
0
LINE
5
990
100
AcDbEntity
8
0
100
AcDbLine
6
CONTINUOUS
62
5
10
82.457217
20
96.700037
11
82.465553
21
96.688385
0
LINE
5
991
100
AcDbEntity
8
0
100
AcDbLine
6
CONTINUOUS
62
5
10
82.449015
20
96.711734
11
82.457217
21
96.700037
0
LINE
5
992
100
AcDbEntity
8
0
100
AcDbLine
6
CONTINUOUS
62
5
10
82.440970
20
96.723485
11
82.449015
21
96.711734
0
LINE
5
993
100
AcDbEntity
8
0
100
AcDbLine
6
CONTINUOUS
62
5
10
82.433104
20
96.735296
11
82.440970
21
96.723485
0
LINE
5
994
100
AcDbEntity
8
0
100
AcDbLine
6
CONTINUOUS
62
5
10
82.425441
20
96.747176
11
82.433104
21
96.735296
0
LINE
5
995
100
AcDbEntity
8
0
100
AcDbLine
6
CONTINUOUS
62
5
10
82.418001
20
96.759131
11
82.425441
21
96.747176
0
LINE
5
996
100
AcDbEntity
8
0
100
AcDbLine
6
CONTINUOUS
62
5
10
82.410809
20
96.771169
11
82.418001
21
96.759131
0
LINE
5
997
100
AcDbEntity
8
0
100
AcDbLine
6
CONTINUOUS
62
5
10
82.403885
20
96.783299
11
82.410809
21
96.771169
0
LINE
5
998
100
AcDbEntity
8
0
100
AcDbLine
6
CONTINUOUS
62
5
10
82.397253
20
96.795527
11
82.403885
21
96.783299
0
LINE
5
999
100
AcDbEntity
8
0
100
AcDbLine
6
CONTINUOUS
62
5
10
82.390934
20
96.807861
11
82.397253
21
96.795527
0
LINE
5
99a
100
AcDbEntity
8
0
100
AcDbLine
6
CONTINUOUS
62
5
10
82.384953
20
96.820308
11
82.390934
21
96.807861
0
LINE
5
99b
100
AcDbEntity
8
0
100
AcDbLine
6
CONTINUOUS
62
5
10
82.570330
20
96.582005
11
82.574380
21
96.579738
0
LINE
5
99c
100
AcDbEntity
8
0
100
AcDbLine
6
CONTINUOUS
62
5
10
82.566327
20
96.584344
11
82.570330
21
96.582005
0
LINE
5
99d
100
AcDbEntity
8
0
100
AcDbLine
6
CONTINUOUS
62
5
10
82.562373
20
96.586757
11
82.566327
21
96.584344
0
LINE
5
99e
100
AcDbEntity
8
0
100
AcDbLine
6
CONTINUOUS
62
5
10
82.558472
20
96.589247
11
82.562373
21
96.586757
0
LINE
5
99f
100
AcDbEntity
8
0
100
AcDbLine
6
CONTINUOUS
62
5
10
82.554625
20
96.591815
11
82.558472
21
96.589247
0
LINE
5
9a0
100
AcDbEntity
8
0
100
AcDbLine
6
CONTINUOUS
62
5
10
82.550836
20
96.594465
11
82.554625
21
96.591815
0
LINE
5
9a1
100
AcDbEntity
8
0
100
AcDbLine
6
CONTINUOUS
62
5
10
82.547105
20
96.597193
11
82.550836
21
96.594465
0
LINE
5
9a2
100
AcDbEntity
8
0
100
AcDbLine
6
CONTINUOUS
62
5
10
82.543425
20
96.599994
11
82.547105
21
96.597193
0
LINE
5
9a3
100
AcDbEntity
8
0
100
AcDbLine
6
CONTINUOUS
62
5
10
82.539794
20
96.602861
11
82.543425
21
96.599994
0
LINE
5
9a4
100
AcDbEntity
8
0
100
AcDbLine
6
CONTINUOUS
62
5
10
82.536205
20
96.605788
11
82.539794
21
96.602861
0
LINE
5
9a5
100
AcDbEntity
8
0
100
AcDbLine
6
CONTINUOUS
62
5
10
82.532655
20
96.608766
11
82.536205
21
96.605788
0
LINE
5
9a6
100
AcDbEntity
8
0
100
AcDbLine
6
CONTINUOUS
62
5
10
82.529137
20
96.611792
11
82.532655
21
96.608766
0
LINE
5
9a7
100
AcDbEntity
8
0
100
AcDbLine
6
CONTINUOUS
62
5
10
82.525649
20
96.614856
11
82.529137
21
96.611792
0
LINE
5
9a8
100
AcDbEntity
8
0
100
AcDbLine
6
CONTINUOUS
62
5
10
82.522184
20
96.617954
11
82.525649
21
96.614856
0
LINE
5
9a9
100
AcDbEntity
8
0
100
AcDbLine
6
CONTINUOUS
62
5
10
82.518738
20
96.621078
11
82.522184
21
96.617954
0
LINE
5
9aa
100
AcDbEntity
8
0
100
AcDbLine
6
CONTINUOUS
62
5
10
82.515307
20
96.624221
11
82.518738
21
96.621078
0
LINE
5
9ab
100
AcDbEntity
8
0
100
AcDbLine
6
CONTINUOUS
62
5
10
82.511885
20
96.627378
11
82.515307
21
96.624221
0
LINE
5
9ac
100
AcDbEntity
8
0
100
AcDbLine
6
CONTINUOUS
62
5
10
82.508468
20
96.630542
11
82.511885
21
96.627378
0
LINE
5
9ad
100
AcDbEntity
8
0
100
AcDbLine
6
CONTINUOUS
62
5
10
82.256704
20
96.483891
11
82.252197
21
96.488169
0
LINE
5
9ae
100
AcDbEntity
8
0
100
AcDbLine
6
CONTINUOUS
62
5
10
82.261214
20
96.479617
11
82.256704
21
96.483891
0
LINE
5
9af
100
AcDbEntity
8
0
100
AcDbLine
6
CONTINUOUS
62
5
10
82.265732
20
96.475351
11
82.261214
21
96.479617
0
LINE
5
9b0
100
AcDbEntity
8
0
100
AcDbLine
6
CONTINUOUS
62
5
10
82.270260
20
96.471097
11
82.265732
21
96.475351
0
LINE
5
9b1
100
AcDbEntity
8
0
100
AcDbLine
6
CONTINUOUS
62
5
10
82.274802
20
96.466859
11
82.270260
21
96.471097
0
LINE
5
9b2
100
AcDbEntity
8
0
100
AcDbLine
6
CONTINUOUS
62
5
10
82.279362
20
96.462641
11
82.274802
21
96.466859
0
LINE
5
9b3
100
AcDbEntity
8
0
100
AcDbLine
6
CONTINUOUS
62
5
10
82.283943
20
96.458448
11
82.279362
21
96.462641
0
LINE
5
9b4
100
AcDbEntity
8
0
100
AcDbLine
6
CONTINUOUS
62
5
10
82.288549
20
96.454283
11
82.283943
21
96.458448
0
LINE
5
9b5
100
AcDbEntity
8
0
100
AcDbLine
6
CONTINUOUS
62
5
10
82.293183
20
96.450149
11
82.288549
21
96.454283
0
LINE
5
9b6
100
AcDbEntity
8
0
100
AcDbLine
6
CONTINUOUS
62
5
10
82.297848
20
96.446052
11
82.293183
21
96.450149
0
LINE
5
9b7
100
AcDbEntity
8
0
100
AcDbLine
6
CONTINUOUS
62
5
10
82.302549
20
96.441996
11
82.297848
21
96.446052
0
LINE
5
9b8
100
AcDbEntity
8
0
100
AcDbLine
6
CONTINUOUS
62
5
10
82.307288
20
96.437983
11
82.302549
21
96.441996
0
LINE
5
9b9
100
AcDbEntity
8
0
100
AcDbLine
6
CONTINUOUS
62
5
10
82.312065
20
96.434014
11
82.307288
21
96.437983
0
LINE
5
9ba
100
AcDbEntity
8
0
100
AcDbLine
6
CONTINUOUS
62
5
10
82.316879
20
96.430088
11
82.312065
21
96.434014
0
LINE
5
9bb
100
AcDbEntity
8
0
100
AcDbLine
6
CONTINUOUS
62
5
10
82.321728
20
96.426206
11
82.316879
21
96.430088
0
LINE
5
9bc
100
AcDbEntity
8
0
100
AcDbLine
6
CONTINUOUS
62
5
10
82.326613
20
96.422367
11
82.321728
21
96.426206
0
LINE
5
9bd
100
AcDbEntity
8
0
100
AcDbLine
6
CONTINUOUS
62
5
10
82.331531
20
96.418571
11
82.326613
21
96.422367
0
LINE
5
9be
100
AcDbEntity
8
0
100
AcDbLine
6
CONTINUOUS
62
5
10
82.336483
20
96.414816
11
82.331531
21
96.418571
0
LINE
5
9bf
100
AcDbEntity
8
0
100
AcDbLine
6
CONTINUOUS
62
5
10
82.341466
20
96.411103
11
82.336483
21
96.414816
0
LINE
5
9c0
100
AcDbEntity
8
0
100
AcDbLine
6
CONTINUOUS
62
5
10
82.346480
20
96.407432
11
82.341466
21
96.411103
0
LINE
5
9c1
100
AcDbEntity
8
0
100
AcDbLine
6
CONTINUOUS
62
5
10
82.351523
20
96.403801
11
82.346480
21
96.407432
0
LINE
5
9c2
100
AcDbEntity
8
0
100
AcDbLine
6
CONTINUOUS
62
5
10
82.356595
20
96.400210
11
82.351523
21
96.403801
0
LINE
5
9c3
100
AcDbEntity
8
0
100
AcDbLine
6
CONTINUOUS
62
5
10
82.361696
20
96.396661
11
82.356595
21
96.400210
0
LINE
5
9c4
100
AcDbEntity
8
0
100
AcDbLine
6
CONTINUOUS
62
5
10
82.366825
20
96.393153
11
82.361696
21
96.396661
0
LINE
5
9c5
100
AcDbEntity
8
0
100
AcDbLine
6
CONTINUOUS
62
5
10
82.371983
20
96.389689
11
82.366825
21
96.393153
0
LINE
5
9c6
100
AcDbEntity
8
0
100
AcDbLine
6
CONTINUOUS
62
5
10
82.377169
20
96.386268
11
82.371983
21
96.389689
0
LINE
5
9c7
100
AcDbEntity
8
0
100
AcDbLine
6
CONTINUOUS
62
5
10
82.382385
20
96.382894
11
82.377169
21
96.386268
0
LINE
5
9c8
100
AcDbEntity
8
0
100
AcDbLine
6
CONTINUOUS
62
5
10
82.387631
20
96.379566
11
82.382385
21
96.382894
0
LINE
5
9c9
100
AcDbEntity
8
0
100
AcDbLine
6
CONTINUOUS
62
5
10
82.392906
20
96.376285
11
82.387631
21
96.379566
0
LINE
5
9ca
100
AcDbEntity
8
0
100
AcDbLine
6
CONTINUOUS
62
5
10
82.398212
20
96.373054
11
82.392906
21
96.376285
0
LINE
5
9cb
100
AcDbEntity
8
0
100
AcDbLine
6
CONTINUOUS
62
5
10
82.403547
20
96.369873
11
82.398212
21
96.373054
0
LINE
5
9cc
100
AcDbEntity
8
0
100
AcDbLine
6
CONTINUOUS
62
5
10
82.408914
20
96.366744
11
82.403547
21
96.369873
0
LINE
5
9cd
100
AcDbEntity
8
0
100
AcDbLine
6
CONTINUOUS
62
5
10
82.414311
20
96.363667
11
82.408914
21
96.366744
0
LINE
5
9ce
100
AcDbEntity
8
0
100
AcDbLine
6
CONTINUOUS
62
5
10
82.419738
20
96.360644
11
82.414311
21
96.363667
0
LINE
5
9cf
100
AcDbEntity
8
0
100
AcDbLine
6
CONTINUOUS
62
5
10
82.425196
20
96.357676
11
82.419738
21
96.360644
0
LINE
5
9d0
100
AcDbEntity
8
0
100
AcDbLine
6
CONTINUOUS
62
5
10
82.430684
20
96.354762
11
82.425196
21
96.357676
0
LINE
5
9d1
100
AcDbEntity
8
0
100
AcDbLine
6
CONTINUOUS
62
5
10
82.436202
20
96.351906
11
82.430684
21
96.354762
0
LINE
5
9d2
100
AcDbEntity
8
0
100
AcDbLine
6
CONTINUOUS
62
5
10
82.441749
20
96.349106
11
82.436202
21
96.351906
0
LINE
5
9d3
100
AcDbEntity
8
0
100
AcDbLine
6
CONTINUOUS
62
5
10
82.447325
20
96.346365
11
82.441749
21
96.349106
0
LINE
5
9d4
100
AcDbEntity
8
0
100
AcDbLine
6
CONTINUOUS
62
5
10
82.452930
20
96.343683
11
82.447325
21
96.346365
0
LINE
5
9d5
100
AcDbEntity
8
0
100
AcDbLine
6
CONTINUOUS
62
5
10
82.458564
20
96.341061
11
82.452930
21
96.343683
0
LINE
5
9d6
100
AcDbEntity
8
0
100
AcDbLine
6
CONTINUOUS
62
5
10
82.464226
20
96.338500
11
82.458564
21
96.341061
0
LINE
5
9d7
100
AcDbEntity
8
0
100
AcDbLine
6
CONTINUOUS
62
5
10
82.469916
20
96.336001
11
82.464226
21
96.338500
0
LINE
5
9d8
100
AcDbEntity
8
0
100
AcDbLine
6
CONTINUOUS
62
5
10
82.475633
20
96.333565
11
82.469916
21
96.336001
0
LINE
5
9d9
100
AcDbEntity
8
0
100
AcDbLine
6
CONTINUOUS
62
5
10
82.481378
20
96.331193
11
82.475633
21
96.333565
0
LINE
5
9da
100
AcDbEntity
8
0
100
AcDbLine
6
CONTINUOUS
62
5
10
82.487148
20
96.328886
11
82.481378
21
96.331193
0
LINE
5
9db
100
AcDbEntity
8
0
100
AcDbLine
6
CONTINUOUS
62
5
10
82.492944
20
96.326645
11
82.487148
21
96.328886
0
LINE
5
9dc
100
AcDbEntity
8
0
100
AcDbLine
6
CONTINUOUS
62
5
10
82.498766
20
96.324472
11
82.492944
21
96.326645
0
LINE
5
9dd
100
AcDbEntity
8
0
100
AcDbLine
6
CONTINUOUS
62
5
10
82.504611
20
96.322366
11
82.498766
21
96.324472
0
LINE
5
9de
100
AcDbEntity
8
0
100
AcDbLine
6
CONTINUOUS
62
5
10
82.510481
20
96.320330
11
82.504611
21
96.322366
0
LINE
5
9df
100
AcDbEntity
8
0
100
AcDbLine
6
CONTINUOUS
62
5
10
82.516373
20
96.318364
11
82.510481
21
96.320330
0
LINE
5
9e0
100
AcDbEntity
8
0
100
AcDbLine
6
CONTINUOUS
62
5
10
82.522289
20
96.316469
11
82.516373
21
96.318364
0
LINE
5
9e1
100
AcDbEntity
8
0
100
AcDbLine
6
CONTINUOUS
62
5
10
82.528225
20
96.314645
11
82.522289
21
96.316469
0
LINE
5
9e2
100
AcDbEntity
8
0
100
AcDbLine
6
CONTINUOUS
62
5
10
82.534183
20
96.312888
11
82.528225
21
96.314645
0
LINE
5
9e3
100
AcDbEntity
8
0
100
AcDbLine
6
CONTINUOUS
62
5
10
82.540160
20
96.311199
11
82.534183
21
96.312888
0
LINE
5
9e4
100
AcDbEntity
8
0
100
AcDbLine
6
CONTINUOUS
62
5
10
82.546156
20
96.309573
11
82.540160
21
96.311199
0
LINE
5
9e5
100
AcDbEntity
8
0
100
AcDbLine
6
CONTINUOUS
62
5
10
82.552170
20
96.308011
11
82.546156
21
96.309573
0
LINE
5
9e6
100
AcDbEntity
8
0
100
AcDbLine
6
CONTINUOUS
62
5
10
82.558200
20
96.306510
11
82.552170
21
96.308011
0
LINE
5
9e7
100
AcDbEntity
8
0
100
AcDbLine
6
CONTINUOUS
62
5
10
82.564245
20
96.305068
11
82.558200
21
96.306510
0
LINE
5
9e8
100
AcDbEntity
8
0
100
AcDbLine
6
CONTINUOUS
62
5
10
82.570305
20
96.303683
11
82.564245
21
96.305068
0
LINE
5
9e9
100
AcDbEntity
8
0
100
AcDbLine
6
CONTINUOUS
62
5
10
82.179885
20
96.579249
11
82.173032
21
96.588517
0
LINE
5
9ea
100
AcDbEntity
8
0
100
AcDbLine
6
CONTINUOUS
62
5
10
82.186837
20
96.570023
11
82.179885
21
96.579249
0
LINE
5
9eb
100
AcDbEntity
8
0
100
AcDbLine
6
CONTINUOUS
62
5
10
82.193876
20
96.560834
11
82.186837
21
96.570023
0
LINE
5
9ec
100
AcDbEntity
8
0
100
AcDbLine
6
CONTINUOUS
62
5
10
82.200995
20
96.551678
11
82.193876
21
96.560834
0
LINE
5
9ed
100
AcDbEntity
8
0
100
AcDbLine
6
CONTINUOUS
62
5
10
82.208182
20
96.542551
11
82.200995
21
96.551678
0
LINE
5
9ee
100
AcDbEntity
8
0
100
AcDbLine
6
CONTINUOUS
62
5
10
82.215428
20
96.533449
11
82.208182
21
96.542551
0
LINE
5
9ef
100
AcDbEntity
8
0
100
AcDbLine
6
CONTINUOUS
62
5
10
82.222723
20
96.524368
11
82.215428
21
96.533449
0
LINE
5
9f0
100
AcDbEntity
8
0
100
AcDbLine
6
CONTINUOUS
62
5
10
82.230057
20
96.515304
11
82.222723
21
96.524368
0
LINE
5
9f1
100
AcDbEntity
8
0
100
AcDbLine
6
CONTINUOUS
62
5
10
82.237420
20
96.506252
11
82.230057
21
96.515304
0
LINE
5
9f2
100
AcDbEntity
8
0
100
AcDbLine
6
CONTINUOUS
62
5
10
82.244804
20
96.497208
11
82.237420
21
96.506252
0
LINE
5
9f3
100
AcDbEntity
8
0
100
AcDbLine
6
CONTINUOUS
62
5
10
82.252197
20
96.488169
11
82.244804
21
96.497208
0
LINE
5
9f4
100
AcDbEntity
8
0
100
AcDbLine
6
CONTINUOUS
62
5
10
83.008057
20
96.812236
11
83.010521
21
96.821301
0
LINE
5
9f5
100
AcDbEntity
8
0
100
AcDbLine
6
CONTINUOUS
62
5
10
83.005389
20
96.803246
11
83.008057
21
96.812236
0
LINE
5
9f6
100
AcDbEntity
8
0
100
AcDbLine
6
CONTINUOUS
62
5
10
83.002503
20
96.794337
11
83.005389
21
96.803246
0
LINE
5
9f7
100
AcDbEntity
8
0
100
AcDbLine
6
CONTINUOUS
62
5
10
82.999382
20
96.785515
11
83.002503
21
96.794337
0
LINE
5
9f8
100
AcDbEntity
8
0
100
AcDbLine
6
CONTINUOUS
62
5
10
82.996023
20
96.776781
11
82.999382
21
96.785515
0
LINE
5
9f9
100
AcDbEntity
8
0
100
AcDbLine
6
CONTINUOUS
62
5
10
82.992441
20
96.768129
11
82.996023
21
96.776781
0
LINE
5
9fa
100
AcDbEntity
8
0
100
AcDbLine
6
CONTINUOUS
62
5
10
82.988648
20
96.759555
11
82.992441
21
96.768129
0
LINE
5
9fb
100
AcDbEntity
8
0
100
AcDbLine
6
CONTINUOUS
62
5
10
82.984660
20
96.751054
11
82.988648
21
96.759555
0
LINE
5
9fc
100
AcDbEntity
8
0
100
AcDbLine
6
CONTINUOUS
62
5
10
82.980490
20
96.742620
11
82.984660
21
96.751054
0
LINE
5
9fd
100
AcDbEntity
8
0
100
AcDbLine
6
CONTINUOUS
62
5
10
82.976151
20
96.734249
11
82.980490
21
96.742620
0
LINE
5
9fe
100
AcDbEntity
8
0
100
AcDbLine
6
CONTINUOUS
62
5
10
82.971659
20
96.725934
11
82.976151
21
96.734249
0
LINE
5
9ff
100
AcDbEntity
8
0
100
AcDbLine
6
CONTINUOUS
62
5
10
82.967027
20
96.717671
11
82.971659
21
96.725934
0
LINE
5
a00
100
AcDbEntity
8
0
100
AcDbLine
6
CONTINUOUS
62
5
10
82.962269
20
96.709454
11
82.967027
21
96.717671
0
LINE
5
a01
100
AcDbEntity
8
0
100
AcDbLine
6
CONTINUOUS
62
5
10
82.957399
20
96.701279
11
82.962269
21
96.709454
0
LINE
5
a02
100
AcDbEntity
8
0
100
AcDbLine
6
CONTINUOUS
62
5
10
82.952431
20
96.693140
11
82.957399
21
96.701279
0
LINE
5
a03
100
AcDbEntity
8
0
100
AcDbLine
6
CONTINUOUS
62
5
10
82.947379
20
96.685033
11
82.952431
21
96.693140
0
LINE
5
a04
100
AcDbEntity
8
0
100
AcDbLine
6
CONTINUOUS
62
5
10
82.942257
20
96.676951
11
82.947379
21
96.685033
0
LINE
5
a05
100
AcDbEntity
8
0
100
AcDbLine
6
CONTINUOUS
62
5
10
82.937079
20
96.668890
11
82.942257
21
96.676951
0
LINE
5
a06
100
AcDbEntity
8
0
100
AcDbLine
6
CONTINUOUS
62
5
10
82.931859
20
96.660844
11
82.937079
21
96.668890
0
LINE
5
a07
100
AcDbEntity
8
0
100
AcDbLine
6
CONTINUOUS
62
5
10
82.926611
20
96.652809
11
82.931859
21
96.660844
0
LINE
5
a08
100
AcDbEntity
8
0
100
AcDbLine
6
CONTINUOUS
62
5
10
82.921349
20
96.644779
11
82.926611
21
96.652809
0
LINE
5
a09
100
AcDbEntity
8
0
100
AcDbLine
6
CONTINUOUS
62
5
10
82.703136
20
96.545338
11
82.707790
21
96.545118
0
LINE
5
a0a
100
AcDbEntity
8
0
100
AcDbLine
6
CONTINUOUS
62
5
10
82.698484
20
96.545568
11
82.703136
21
96.545338
0
LINE
5
a0b
100
AcDbEntity
8
0
100
AcDbLine
6
CONTINUOUS
62
5
10
82.693835
20
96.545816
11
82.698484
21
96.545568
0
LINE
5
a0c
100
AcDbEntity
8
0
100
AcDbLine
6
CONTINUOUS
62
5
10
82.689191
20
96.546092
11
82.693835
21
96.545816
0
LINE
5
a0d
100
AcDbEntity
8
0
100
AcDbLine
6
CONTINUOUS
62
5
10
82.684554
20
96.546405
11
82.689191
21
96.546092
0
LINE
5
a0e
100
AcDbEntity
8
0
100
AcDbLine
6
CONTINUOUS
62
5
10
82.679924
20
96.546763
11
82.684554
21
96.546405
0
LINE
5
a0f
100
AcDbEntity
8
0
100
AcDbLine
6
CONTINUOUS
62
5
10
82.675305
20
96.547177
11
82.679924
21
96.546763
0
LINE
5
a10
100
AcDbEntity
8
0
100
AcDbLine
6
CONTINUOUS
62
5
10
82.670696
20
96.547654
11
82.675305
21
96.547177
0
LINE
5
a11
100
AcDbEntity
8
0
100
AcDbLine
6
CONTINUOUS
62
5
10
82.666101
20
96.548206
11
82.670696
21
96.547654
0
LINE
5
a12
100
AcDbEntity
8
0
100
AcDbLine
6
CONTINUOUS
62
5
10
82.661520
20
96.548840
11
82.666101
21
96.548206
0
LINE
5
a13
100
AcDbEntity
8
0
100
AcDbLine
6
CONTINUOUS
62
5
10
82.656956
20
96.549566
11
82.661520
21
96.548840
0
LINE
5
a14
100
AcDbEntity
8
0
100
AcDbLine
6
CONTINUOUS
62
5
10
82.652409
20
96.550393
11
82.656956
21
96.549566
0
LINE
5
a15
100
AcDbEntity
8
0
100
AcDbLine
6
CONTINUOUS
62
5
10
82.647882
20
96.551329
11
82.652409
21
96.550393
0
LINE
5
a16
100
AcDbEntity
8
0
100
AcDbLine
6
CONTINUOUS
62
5
10
82.643375
20
96.552369
11
82.647882
21
96.551329
0
LINE
5
a17
100
AcDbEntity
8
0
100
AcDbLine
6
CONTINUOUS
62
5
10
82.638888
20
96.553510
11
82.643375
21
96.552369
0
LINE
5
a18
100
AcDbEntity
8
0
100
AcDbLine
6
CONTINUOUS
62
5
10
82.634421
20
96.554747
11
82.638888
21
96.553510
0
LINE
5
a19
100
AcDbEntity
8
0
100
AcDbLine
6
CONTINUOUS
62
5
10
82.629975
20
96.556075
11
82.634421
21
96.554747
0
LINE
5
a1a
100
AcDbEntity
8
0
100
AcDbLine
6
CONTINUOUS
62
5
10
82.625551
20
96.557489
11
82.629975
21
96.556075
0
LINE
5
a1b
100
AcDbEntity
8
0
100
AcDbLine
6
CONTINUOUS
62
5
10
82.621149
20
96.558985
11
82.625551
21
96.557489
0
LINE
5
a1c
100
AcDbEntity
8
0
100
AcDbLine
6
CONTINUOUS
62
5
10
82.616768
20
96.560557
11
82.621149
21
96.558985
0
LINE
5
a1d
100
AcDbEntity
8
0
100
AcDbLine
6
CONTINUOUS
62
5
10
82.612410
20
96.562200
11
82.616768
21
96.560557
0
LINE
5
a1e
100
AcDbEntity
8
0
100
AcDbLine
6
CONTINUOUS
62
5
10
82.608075
20
96.563911
11
82.612410
21
96.562200
0
LINE
5
a1f
100
AcDbEntity
8
0
100
AcDbLine
6
CONTINUOUS
62
5
10
82.603764
20
96.565683
11
82.608075
21
96.563911
0
LINE
5
a20
100
AcDbEntity
8
0
100
AcDbLine
6
CONTINUOUS
62
5
10
82.599475
20
96.567513
11
82.603764
21
96.565683
0
LINE
5
a21
100
AcDbEntity
8
0
100
AcDbLine
6
CONTINUOUS
62
5
10
82.595213
20
96.569398
11
82.599475
21
96.567513
0
LINE
5
a22
100
AcDbEntity
8
0
100
AcDbLine
6
CONTINUOUS
62
5
10
82.590978
20
96.571341
11
82.595213
21
96.569398
0
LINE
5
a23
100
AcDbEntity
8
0
100
AcDbLine
6
CONTINUOUS
62
5
10
82.586774
20
96.573344
11
82.590978
21
96.571341
0
LINE
5
a24
100
AcDbEntity
8
0
100
AcDbLine
6
CONTINUOUS
62
5
10
82.582604
20
96.575410
11
82.586774
21
96.573344
0
LINE
5
a25
100
AcDbEntity
8
0
100
AcDbLine
6
CONTINUOUS
62
5
10
82.578472
20
96.577540
11
82.582604
21
96.575410
0
LINE
5
a26
100
AcDbEntity
8
0
100
AcDbLine
6
CONTINUOUS
62
5
10
82.574380
20
96.579738
11
82.578472
21
96.577540
0
LINE
5
a27
100
AcDbEntity
8
0
100
AcDbLine
6
CONTINUOUS
62
5
10
82.917658
20
96.641332
11
82.921349
21
96.644779
0
LINE
5
a28
100
AcDbEntity
8
0
100
AcDbLine
6
CONTINUOUS
62
5
10
82.913962
20
96.637890
11
82.917658
21
96.641332
0
LINE
5
a29
100
AcDbEntity
8
0
100
AcDbLine
6
CONTINUOUS
62
5
10
82.910258
20
96.634459
11
82.913962
21
96.637890
0
LINE
5
a2a
100
AcDbEntity
8
0
100
AcDbLine
6
CONTINUOUS
62
5
10
82.906542
20
96.631044
11
82.910258
21
96.634459
0
LINE
5
a2b
100
AcDbEntity
8
0
100
AcDbLine
6
CONTINUOUS
62
5
10
82.902810
20
96.627649
11
82.906542
21
96.631044
0
LINE
5
a2c
100
AcDbEntity
8
0
100
AcDbLine
6
CONTINUOUS
62
5
10
82.899057
20
96.624280
11
82.902810
21
96.627649
0
LINE
5
a2d
100
AcDbEntity
8
0
100
AcDbLine
6
CONTINUOUS
62
5
10
82.895281
20
96.620943
11
82.899057
21
96.624280
0
LINE
5
a2e
100
AcDbEntity
8
0
100
AcDbLine
6
CONTINUOUS
62
5
10
82.891476
20
96.617643
11
82.895281
21
96.620943
0
LINE
5
a2f
100
AcDbEntity
8
0
100
AcDbLine
6
CONTINUOUS
62
5
10
82.887639
20
96.614384
11
82.891476
21
96.617643
0
LINE
5
a30
100
AcDbEntity
8
0
100
AcDbLine
6
CONTINUOUS
62
5
10
82.883765
20
96.611172
11
82.887639
21
96.614384
0
LINE
5
a31
100
AcDbEntity
8
0
100
AcDbLine
6
CONTINUOUS
62
5
10
82.879851
20
96.608012
11
82.883765
21
96.611172
0
LINE
5
a32
100
AcDbEntity
8
0
100
AcDbLine
6
CONTINUOUS
62
5
10
82.875892
20
96.604910
11
82.879851
21
96.608012
0
LINE
5
a33
100
AcDbEntity
8
0
100
AcDbLine
6
CONTINUOUS
62
5
10
82.871885
20
96.601871
11
82.875892
21
96.604910
0
LINE
5
a34
100
AcDbEntity
8
0
100
AcDbLine
6
CONTINUOUS
62
5
10
82.867826
20
96.598899
11
82.871885
21
96.601871
0
LINE
5
a35
100
AcDbEntity
8
0
100
AcDbLine
6
CONTINUOUS
62
5
10
82.863714
20
96.595996
11
82.867826
21
96.598899
0
LINE
5
a36
100
AcDbEntity
8
0
100
AcDbLine
6
CONTINUOUS
62
5
10
82.859550
20
96.593164
11
82.863714
21
96.595996
0
LINE
5
a37
100
AcDbEntity
8
0
100
AcDbLine
6
CONTINUOUS
62
5
10
82.855337
20
96.590401
11
82.859550
21
96.593164
0
LINE
5
a38
100
AcDbEntity
8
0
100
AcDbLine
6
CONTINUOUS
62
5
10
82.851076
20
96.587709
11
82.855337
21
96.590401
0
LINE
5
a39
100
AcDbEntity
8
0
100
AcDbLine
6
CONTINUOUS
62
5
10
82.846769
20
96.585087
11
82.851076
21
96.587709
0
LINE
5
a3a
100
AcDbEntity
8
0
100
AcDbLine
6
CONTINUOUS
62
5
10
82.842416
20
96.582535
11
82.846769
21
96.585087
0
LINE
5
a3b
100
AcDbEntity
8
0
100
AcDbLine
6
CONTINUOUS
62
5
10
82.838019
20
96.580055
11
82.842416
21
96.582535
0
LINE
5
a3c
100
AcDbEntity
8
0
100
AcDbLine
6
CONTINUOUS
62
5
10
82.833580
20
96.577646
11
82.838019
21
96.580055
0
LINE
5
a3d
100
AcDbEntity
8
0
100
AcDbLine
6
CONTINUOUS
62
5
10
82.829100
20
96.575309
11
82.833580
21
96.577646
0
LINE
5
a3e
100
AcDbEntity
8
0
100
AcDbLine
6
CONTINUOUS
62
5
10
82.824581
20
96.573043
11
82.829100
21
96.575309
0
LINE
5
a3f
100
AcDbEntity
8
0
100
AcDbLine
6
CONTINUOUS
62
5
10
82.820024
20
96.570849
11
82.824581
21
96.573043
0
LINE
5
a40
100
AcDbEntity
8
0
100
AcDbLine
6
CONTINUOUS
62
5
10
82.815431
20
96.568727
11
82.820024
21
96.570849
0
LINE
5
a41
100
AcDbEntity
8
0
100
AcDbLine
6
CONTINUOUS
62
5
10
82.810803
20
96.566680
11
82.815431
21
96.568727
0
LINE
5
a42
100
AcDbEntity
8
0
100
AcDbLine
6
CONTINUOUS
62
5
10
82.806141
20
96.564712
11
82.810803
21
96.566680
0
LINE
5
a43
100
AcDbEntity
8
0
100
AcDbLine
6
CONTINUOUS
62
5
10
82.801447
20
96.562827
11
82.806141
21
96.564712
0
LINE
5
a44
100
AcDbEntity
8
0
100
AcDbLine
6
CONTINUOUS
62
5
10
82.796721
20
96.561030
11
82.801447
21
96.562827
0
LINE
5
a45
100
AcDbEntity
8
0
100
AcDbLine
6
CONTINUOUS
62
5
10
82.791964
20
96.559325
11
82.796721
21
96.561030
0
LINE
5
a46
100
AcDbEntity
8
0
100
AcDbLine
6
CONTINUOUS
62
5
10
82.787179
20
96.557717
11
82.791964
21
96.559325
0
LINE
5
a47
100
AcDbEntity
8
0
100
AcDbLine
6
CONTINUOUS
62
5
10
82.782365
20
96.556209
11
82.787179
21
96.557717
0
LINE
5
a48
100
AcDbEntity
8
0
100
AcDbLine
6
CONTINUOUS
62
5
10
82.777525
20
96.554807
11
82.782365
21
96.556209
0
LINE
5
a49
100
AcDbEntity
8
0
100
AcDbLine
6
CONTINUOUS
62
5
10
82.772659
20
96.553514
11
82.777525
21
96.554807
0
LINE
5
a4a
100
AcDbEntity
8
0
100
AcDbLine
6
CONTINUOUS
62
5
10
82.767769
20
96.552336
11
82.772659
21
96.553514
0
LINE
5
a4b
100
AcDbEntity
8
0
100
AcDbLine
6
CONTINUOUS
62
5
10
82.762855
20
96.551275
11
82.767769
21
96.552336
0
LINE
5
a4c
100
AcDbEntity
8
0
100
AcDbLine
6
CONTINUOUS
62
5
10
82.757919
20
96.550333
11
82.762855
21
96.551275
0
LINE
5
a4d
100
AcDbEntity
8
0
100
AcDbLine
6
CONTINUOUS
62
5
10
82.752963
20
96.549501
11
82.757919
21
96.550333
0
LINE
5
a4e
100
AcDbEntity
8
0
100
AcDbLine
6
CONTINUOUS
62
5
10
82.747989
20
96.548766
11
82.752963
21
96.549501
0
LINE
5
a4f
100
AcDbEntity
8
0
100
AcDbLine
6
CONTINUOUS
62
5
10
82.742999
20
96.548119
11
82.747989
21
96.548766
0
LINE
5
a50
100
AcDbEntity
8
0
100
AcDbLine
6
CONTINUOUS
62
5
10
82.737996
20
96.547548
11
82.742999
21
96.548119
0
LINE
5
a51
100
AcDbEntity
8
0
100
AcDbLine
6
CONTINUOUS
62
5
10
82.732980
20
96.547043
11
82.737996
21
96.547548
0
LINE
5
a52
100
AcDbEntity
8
0
100
AcDbLine
6
CONTINUOUS
62
5
10
82.727954
20
96.546593
11
82.732980
21
96.547043
0
LINE
5
a53
100
AcDbEntity
8
0
100
AcDbLine
6
CONTINUOUS
62
5
10
82.722920
20
96.546186
11
82.727954
21
96.546593
0
LINE
5
a54
100
AcDbEntity
8
0
100
AcDbLine
6
CONTINUOUS
62
5
10
82.717880
20
96.545812
11
82.722920
21
96.546186
0
LINE
5
a55
100
AcDbEntity
8
0
100
AcDbLine
6
CONTINUOUS
62
5
10
82.712836
20
96.545459
11
82.717880
21
96.545812
0
LINE
5
a56
100
AcDbEntity
8
0
100
AcDbLine
6
CONTINUOUS
62
5
10
82.707790
20
96.545118
11
82.712836
21
96.545459
0
LINE
5
a57
100
AcDbEntity
8
0
100
AcDbLine
6
CONTINUOUS
62
5
10
82.703876
20
96.290075
11
82.693553
21
96.289901
0
LINE
5
a58
100
AcDbEntity
8
0
100
AcDbLine
6
CONTINUOUS
62
5
10
82.714194
20
96.290264
11
82.703876
21
96.290075
0
LINE
5
a59
100
AcDbEntity
8
0
100
AcDbLine
6
CONTINUOUS
62
5
10
82.724500
20
96.290487
11
82.714194
21
96.290264
0
LINE
5
a5a
100
AcDbEntity
8
0
100
AcDbLine
6
CONTINUOUS
62
5
10
82.734788
20
96.290759
11
82.724500
21
96.290487
0
LINE
5
a5b
100
AcDbEntity
8
0
100
AcDbLine
6
CONTINUOUS
62
5
10
82.745053
20
96.291097
11
82.734788
21
96.290759
0
LINE
5
a5c
100
AcDbEntity
8
0
100
AcDbLine
6
CONTINUOUS
62
5
10
82.755288
20
96.291517
11
82.745053
21
96.291097
0
LINE
5
a5d
100
AcDbEntity
8
0
100
AcDbLine
6
CONTINUOUS
62
5
10
82.765488
20
96.292036
11
82.755288
21
96.291517
0
LINE
5
a5e
100
AcDbEntity
8
0
100
AcDbLine
6
CONTINUOUS
62
5
10
82.775646
20
96.292670
11
82.765488
21
96.292036
0
LINE
5
a5f
100
AcDbEntity
8
0
100
AcDbLine
6
CONTINUOUS
62
5
10
82.785758
20
96.293436
11
82.775646
21
96.292670
0
LINE
5
a60
100
AcDbEntity
8
0
100
AcDbLine
6
CONTINUOUS
62
5
10
82.795817
20
96.294350
11
82.785758
21
96.293436
0
LINE
5
a61
100
AcDbEntity
8
0
100
AcDbLine
6
CONTINUOUS
62
5
10
82.805817
20
96.295429
11
82.795817
21
96.294350
0
LINE
5
a62
100
AcDbEntity
8
0
100
AcDbLine
6
CONTINUOUS
62
5
10
82.815752
20
96.296689
11
82.805817
21
96.295429
0
LINE
5
a63
100
AcDbEntity
8
0
100
AcDbLine
6
CONTINUOUS
62
5
10
82.825616
20
96.298146
11
82.815752
21
96.296689
0
LINE
5
a64
100
AcDbEntity
8
0
100
AcDbLine
6
CONTINUOUS
62
5
10
82.835404
20
96.299817
11
82.825616
21
96.298146
0
LINE
5
a65
100
AcDbEntity
8
0
100
AcDbLine
6
CONTINUOUS
62
5
10
82.845109
20
96.301719
11
82.835404
21
96.299817
0
LINE
5
a66
100
AcDbEntity
8
0
100
AcDbLine
6
CONTINUOUS
62
5
10
82.854727
20
96.303867
11
82.845109
21
96.301719
0
LINE
5
a67
100
AcDbEntity
8
0
100
AcDbLine
6
CONTINUOUS
62
5
10
82.864250
20
96.306279
11
82.854727
21
96.303867
0
LINE
5
a68
100
AcDbEntity
8
0
100
AcDbLine
6
CONTINUOUS
62
5
10
82.873673
20
96.308971
11
82.864250
21
96.306279
0
LINE
5
a69
100
AcDbEntity
8
0
100
AcDbLine
6
CONTINUOUS
62
5
10
82.882990
20
96.311959
11
82.873673
21
96.308971
0
LINE
5
a6a
100
AcDbEntity
8
0
100
AcDbLine
6
CONTINUOUS
62
5
10
82.892195
20
96.315260
11
82.882990
21
96.311959
0
LINE
5
a6b
100
AcDbEntity
8
0
100
AcDbLine
6
CONTINUOUS
62
5
10
82.901283
20
96.318890
11
82.892195
21
96.315260
0
LINE
5
a6c
100
AcDbEntity
8
0
100
AcDbLine
6
CONTINUOUS
62
5
10
82.910247
20
96.322863
11
82.901283
21
96.318890
0
LINE
5
a6d
100
AcDbEntity
8
0
100
AcDbLine
6
CONTINUOUS
62
5
10
82.919095
20
96.327165
11
82.910247
21
96.322863
0
LINE
5
a6e
100
AcDbEntity
8
0
100
AcDbLine
6
CONTINUOUS
62
5
10
82.927836
20
96.331764
11
82.919095
21
96.327165
0
LINE
5
a6f
100
AcDbEntity
8
0
100
AcDbLine
6
CONTINUOUS
62
5
10
82.936483
20
96.336626
11
82.927836
21
96.331764
0
LINE
5
a70
100
AcDbEntity
8
0
100
AcDbLine
6
CONTINUOUS
62
5
10
82.945047
20
96.341719
11
82.936483
21
96.336626
0
LINE
5
a71
100
AcDbEntity
8
0
100
AcDbLine
6
CONTINUOUS
62
5
10
82.953541
20
96.347009
11
82.945047
21
96.341719
0
LINE
5
a72
100
AcDbEntity
8
0
100
AcDbLine
6
CONTINUOUS
62
5
10
82.961976
20
96.352464
11
82.953541
21
96.347009
0
LINE
5
a73
100
AcDbEntity
8
0
100
AcDbLine
6
CONTINUOUS
62
5
10
82.970364
20
96.358051
11
82.961976
21
96.352464
0
LINE
5
a74
100
AcDbEntity
8
0
100
AcDbLine
6
CONTINUOUS
62
5
10
82.978717
20
96.363736
11
82.970364
21
96.358051
0
LINE
5
a75
100
AcDbEntity
8
0
100
AcDbLine
6
CONTINUOUS
62
5
10
82.987046
20
96.369488
11
82.978717
21
96.363736
0
LINE
5
a76
100
AcDbEntity
8
0
100
AcDbLine
6
CONTINUOUS
62
5
10
82.995363
20
96.375272
11
82.987046
21
96.369488
0
LINE
5
a77
100
AcDbEntity
8
0
100
AcDbLine
6
CONTINUOUS
62
5
10
82.576378
20
96.302354
11
82.570305
21
96.303683
0
LINE
5
a78
100
AcDbEntity
8
0
100
AcDbLine
6
CONTINUOUS
62
5
10
82.582464
20
96.301080
11
82.576378
21
96.302354
0
LINE
5
a79
100
AcDbEntity
8
0
100
AcDbLine
6
CONTINUOUS
62
5
10
82.588562
20
96.299865
11
82.582464
21
96.301080
0
LINE
5
a7a
100
AcDbEntity
8
0
100
AcDbLine
6
CONTINUOUS
62
5
10
82.594672
20
96.298712
11
82.588562
21
96.299865
0
LINE
5
a7b
100
AcDbEntity
8
0
100
AcDbLine
6
CONTINUOUS
62
5
10
82.600792
20
96.297624
11
82.594672
21
96.298712
0
LINE
5
a7c
100
AcDbEntity
8
0
100
AcDbLine
6
CONTINUOUS
62
5
10
82.606923
20
96.296607
11
82.600792
21
96.297624
0
LINE
5
a7d
100
AcDbEntity
8
0
100
AcDbLine
6
CONTINUOUS
62
5
10
82.613065
20
96.295664
11
82.606923
21
96.296607
0
LINE
5
a7e
100
AcDbEntity
8
0
100
AcDbLine
6
CONTINUOUS
62
5
10
82.619215
20
96.294798
11
82.613065
21
96.295664
0
LINE
5
a7f
100
AcDbEntity
8
0
100
AcDbLine
6
CONTINUOUS
62
5
10
82.625376
20
96.294014
11
82.619215
21
96.294798
0
LINE
5
a80
100
AcDbEntity
8
0
100
AcDbLine
6
CONTINUOUS
62
5
10
82.631544
20
96.293315
11
82.625376
21
96.294014
0
LINE
5
a81
100
AcDbEntity
8
0
100
AcDbLine
6
CONTINUOUS
62
5
10
82.637721
20
96.292705
11
82.631544
21
96.293315
0
LINE
5
a82
100
AcDbEntity
8
0
100
AcDbLine
6
CONTINUOUS
62
5
10
82.643906
20
96.292180
11
82.637721
21
96.292705
0
LINE
5
a83
100
AcDbEntity
8
0
100
AcDbLine
6
CONTINUOUS
62
5
10
82.650097
20
96.291730
11
82.643906
21
96.292180
0
LINE
5
a84
100
AcDbEntity
8
0
100
AcDbLine
6
CONTINUOUS
62
5
10
82.656294
20
96.291346
11
82.650097
21
96.291730
0
LINE
5
a85
100
AcDbEntity
8
0
100
AcDbLine
6
CONTINUOUS
62
5
10
82.662496
20
96.291018
11
82.656294
21
96.291346
0
LINE
5
a86
100
AcDbEntity
8
0
100
AcDbLine
6
CONTINUOUS
62
5
10
82.668702
20
96.290738
11
82.662496
21
96.291018
0
LINE
5
a87
100
AcDbEntity
8
0
100
AcDbLine
6
CONTINUOUS
62
5
10
82.674912
20
96.290496
11
82.668702
21
96.290738
0
LINE
5
a88
100
AcDbEntity
8
0
100
AcDbLine
6
CONTINUOUS
62
5
10
82.681124
20
96.290282
11
82.674912
21
96.290496
0
LINE
5
a89
100
AcDbEntity
8
0
100
AcDbLine
6
CONTINUOUS
62
5
10
82.687338
20
96.290087
11
82.681124
21
96.290282
0
LINE
5
a8a
100
AcDbEntity
8
0
100
AcDbLine
6
CONTINUOUS
62
5
10
82.693553
20
96.289901
11
82.687338
21
96.290087
0
LINE
5
a8b
100
AcDbEntity
8
0
100
AcDbLine
6
CONTINUOUS
62
5
10
82.071655
20
96.788984
11
82.068931
21
96.800000
0
LINE
5
a8c
100
AcDbEntity
8
0
100
AcDbLine
6
CONTINUOUS
62
5
10
82.074518
20
96.778027
11
82.071655
21
96.788984
0
LINE
5
a8d
100
AcDbEntity
8
0
100
AcDbLine
6
CONTINUOUS
62
5
10
82.077642
20
96.767180
11
82.074518
21
96.778027
0
LINE
5
a8e
100
AcDbEntity
8
0
100
AcDbLine
6
CONTINUOUS
62
5
10
82.081050
20
96.756454
11
82.077642
21
96.767180
0
LINE
5
a8f
100
AcDbEntity
8
0
100
AcDbLine
6
CONTINUOUS
62
5
10
82.084734
20
96.745845
11
82.081050
21
96.756454
0
LINE
5
a90
100
AcDbEntity
8
0
100
AcDbLine
6
CONTINUOUS
62
5
10
82.088682
20
96.735347
11
82.084734
21
96.745845
0
LINE
5
a91
100
AcDbEntity
8
0
100
AcDbLine
6
CONTINUOUS
62
5
10
82.092886
20
96.724957
11
82.088682
21
96.735347
0
LINE
5
a92
100
AcDbEntity
8
0
100
AcDbLine
6
CONTINUOUS
62
5
10
82.097335
20
96.714672
11
82.092886
21
96.724957
0
LINE
5
a93
100
AcDbEntity
8
0
100
AcDbLine
6
CONTINUOUS
62
5
10
82.102019
20
96.704486
11
82.097335
21
96.714672
0
LINE
5
a94
100
AcDbEntity
8
0
100
AcDbLine
6
CONTINUOUS
62
5
10
82.106929
20
96.694395
11
82.102019
21
96.704486
0
LINE
5
a95
100
AcDbEntity
8
0
100
AcDbLine
6
CONTINUOUS
62
5
10
82.112055
20
96.684396
11
82.106929
21
96.694395
0
LINE
5
a96
100
AcDbEntity
8
0
100
AcDbLine
6
CONTINUOUS
62
5
10
82.117387
20
96.674484
11
82.112055
21
96.684396
0
LINE
5
a97
100
AcDbEntity
8
0
100
AcDbLine
6
CONTINUOUS
62
5
10
82.122916
20
96.664655
11
82.117387
21
96.674484
0
LINE
5
a98
100
AcDbEntity
8
0
100
AcDbLine
6
CONTINUOUS
62
5
10
82.128631
20
96.654905
11
82.122916
21
96.664655
0
LINE
5
a99
100
AcDbEntity
8
0
100
AcDbLine
6
CONTINUOUS
62
5
10
82.134522
20
96.645230
11
82.128631
21
96.654905
0
LINE
5
a9a
100
AcDbEntity
8
0
100
AcDbLine
6
CONTINUOUS
62
5
10
82.140581
20
96.635626
11
82.134522
21
96.645230
0
LINE
5
a9b
100
AcDbEntity
8
0
100
AcDbLine
6
CONTINUOUS
62
5
10
82.146796
20
96.626088
11
82.140581
21
96.635626
0
LINE
5
a9c
100
AcDbEntity
8
0
100
AcDbLine
6
CONTINUOUS
62
5
10
82.153159
20
96.616612
11
82.146796
21
96.626088
0
LINE
5
a9d
100
AcDbEntity
8
0
100
AcDbLine
6
CONTINUOUS
62
5
10
82.159659
20
96.607194
11
82.153159
21
96.616612
0
LINE
5
a9e
100
AcDbEntity
8
0
100
AcDbLine
6
CONTINUOUS
62
5
10
82.166286
20
96.597831
11
82.159659
21
96.607194
0
LINE
5
a9f
100
AcDbEntity
8
0
100
AcDbLine
6
CONTINUOUS
62
5
10
82.173032
20
96.588517
11
82.166286
21
96.597831
0
LINE
5
aa0
100
AcDbEntity
8
0
100
AcDbLine
6
CONTINUOUS
62
5
10
82.374087
20
96.845575
11
82.379329
21
96.832877
0
LINE
5
aa1
100
AcDbEntity
8
0
100
AcDbLine
6
CONTINUOUS
62
5
10
82.369249
20
96.858409
11
82.374087
21
96.845575
0
LINE
5
aa2
100
AcDbEntity
8
0
100
AcDbLine
6
CONTINUOUS
62
5
10
82.364837
20
96.871387
11
82.369249
21
96.858409
0
LINE
5
aa3
100
AcDbEntity
8
0
100
AcDbLine
6
CONTINUOUS
62
5
10
82.360873
20
96.884517
11
82.364837
21
96.871387
0
LINE
5
aa4
100
AcDbEntity
8
0
100
AcDbLine
6
CONTINUOUS
62
5
10
82.357378
20
96.897805
11
82.360873
21
96.884517
0
LINE
5
aa5
100
AcDbEntity
8
0
100
AcDbLine
6
CONTINUOUS
62
5
10
82.354339
20
96.911247
11
82.357378
21
96.897805
0
LINE
5
aa6
100
AcDbEntity
8
0
100
AcDbLine
6
CONTINUOUS
62
5
10
82.351711
20
96.924828
11
82.354339
21
96.911247
0
LINE
5
aa7
100
AcDbEntity
8
0
100
AcDbLine
6
CONTINUOUS
62
5
10
82.349448
20
96.938533
11
82.351711
21
96.924828
0
LINE
5
aa8
100
AcDbEntity
8
0
100
AcDbLine
6
CONTINUOUS
62
5
10
82.347504
20
96.952345
11
82.349448
21
96.938533
0
LINE
5
aa9
100
AcDbEntity
8
0
100
AcDbLine
6
CONTINUOUS
62
5
10
82.345835
20
96.966250
11
82.347504
21
96.952345
0
LINE
5
aaa
100
AcDbEntity
8
0
100
AcDbLine
6
CONTINUOUS
62
5
10
82.344394
20
96.980233
11
82.345835
21
96.966250
0
LINE
5
aab
100
AcDbEntity
8
0
100
AcDbLine
6
CONTINUOUS
62
5
10
82.343136
20
96.994277
11
82.344394
21
96.980233
0
LINE
5
aac
100
AcDbEntity
8
0
100
AcDbLine
6
CONTINUOUS
62
5
10
82.342014
20
97.008367
11
82.343136
21
96.994277
0
LINE
5
aad
100
AcDbEntity
8
0
100
AcDbLine
6
CONTINUOUS
62
5
10
82.340984
20
97.022488
11
82.342014
21
97.008367
0
LINE
5
aae
100
AcDbEntity
8
0
100
AcDbLine
6
CONTINUOUS
62
5
10
82.340000
20
97.036625
11
82.340984
21
97.022488
0
LINE
5
aaf
100
AcDbEntity
8
0
100
AcDbLine
6
CONTINUOUS
62
5
10
82.379329
20
96.832877
11
82.384953
21
96.820308
0
LINE
5
ab0
100
AcDbEntity
8
0
100
AcDbLine
6
CONTINUOUS
62
5
10
83.027755
20
96.914692
11
83.029108
21
96.924169
0
LINE
5
ab1
100
AcDbEntity
8
0
100
AcDbLine
6
CONTINUOUS
62
5
10
83.026386
20
96.905222
11
83.027755
21
96.914692
0
LINE
5
ab2
100
AcDbEntity
8
0
100
AcDbLine
6
CONTINUOUS
62
5
10
83.024983
20
96.895765
11
83.026386
21
96.905222
0
LINE
5
ab3
100
AcDbEntity
8
0
100
AcDbLine
6
CONTINUOUS
62
5
10
83.023529
20
96.886326
11
83.024983
21
96.895765
0
LINE
5
ab4
100
AcDbEntity
8
0
100
AcDbLine
6
CONTINUOUS
62
5
10
83.022008
20
96.876912
11
83.023529
21
96.886326
0
LINE
5
ab5
100
AcDbEntity
8
0
100
AcDbLine
6
CONTINUOUS
62
5
10
83.020402
20
96.867529
11
83.022008
21
96.876912
0
LINE
5
ab6
100
AcDbEntity
8
0
100
AcDbLine
6
CONTINUOUS
62
5
10
83.018696
20
96.858184
11
83.020402
21
96.867529
0
LINE
5
ab7
100
AcDbEntity
8
0
100
AcDbLine
6
CONTINUOUS
62
5
10
83.016871
20
96.848882
11
83.018696
21
96.858184
0
LINE
5
ab8
100
AcDbEntity
8
0
100
AcDbLine
6
CONTINUOUS
62
5
10
83.014912
20
96.839630
11
83.016871
21
96.848882
0
LINE
5
ab9
100
AcDbEntity
8
0
100
AcDbLine
6
CONTINUOUS
62
5
10
83.012801
20
96.830434
11
83.014912
21
96.839630
0
LINE
5
aba
100
AcDbEntity
8
0
100
AcDbLine
6
CONTINUOUS
62
5
10
83.010521
20
96.821301
11
83.012801
21
96.830434
0
LINE
5
abb
100
AcDbEntity
8
0
100
AcDbLine
6
CONTINUOUS
62
5
10
79.310023
20
94.960000
11
79.360095
21
94.960000
0
ARC
5
abc
100
AcDbEntity
8
0
100
AcDbCircle
6
CONTINUOUS
62
5
10
81.460000
20
96.720000
40
1.600000
100
AcDbArc
50
-38.682187
51
25.150663
0
ARC
5
abd
100
AcDbEntity
8
0
100
AcDbCircle
6
CONTINUOUS
62
5
10
81.460000
20
96.760000
40
1.680000
100
AcDbArc
50
-38.246620
51
21.285231
0
POLYLINE
5
abe
100
AcDbEntity
8
0
6
CONTINUOUS
62
5
100
AcDb2dPolyline
66
1
10
0.0
20
0.0
30
0.0
70
0
0
VERTEX
5
abf
100
AcDbEntity
8
0
100
AcDbVertex
100
AcDb2dVertex
62
5
10
84.004956
20
95.720000
0
VERTEX
5
ac0
100
AcDbEntity
8
0
100
AcDbVertex
100
AcDb2dVertex
62
5
10
84.820000
20
95.720000
0
VERTEX
5
ac1
100
AcDbEntity
8
0
100
AcDbVertex
100
AcDb2dVertex
62
5
10
84.820000
20
97.400000
0
VERTEX
5
ac2
100
AcDbEntity
8
0
100
AcDbVertex
100
AcDb2dVertex
62
5
10
82.340000
20
97.400000
0
VERTEX
5
ac3
100
AcDbEntity
8
0
100
AcDbVertex
100
AcDb2dVertex
62
5
10
82.340000
20
96.800000
0
VERTEX
5
ac4
100
AcDbEntity
8
0
100
AcDbVertex
100
AcDb2dVertex
62
5
10
81.700000
20
96.800000
0
VERTEX
5
ac5
100
AcDbEntity
8
0
100
AcDbVertex
100
AcDb2dVertex
62
5
10
81.700000
20
97.400000
0
VERTEX
5
ac6
100
AcDbEntity
8
0
100
AcDbVertex
100
AcDb2dVertex
62
5
10
79.620000
20
97.400000
0
VERTEX
5
ac7
100
AcDbEntity
8
0
100
AcDbVertex
100
AcDb2dVertex
62
5
10
79.620000
20
95.720000
0
VERTEX
5
ac8
100
AcDbEntity
8
0
100
AcDbVertex
100
AcDb2dVertex
62
5
10
80.260000
20
95.720000
0
VERTEX
5
ac9
100
AcDbEntity
8
0
100
AcDbVertex
100
AcDb2dVertex
62
5
10
80.260000
20
96.320000
0
VERTEX
5
aca
100
AcDbEntity
8
0
100
AcDbVertex
100
AcDb2dVertex
62
5
10
80.900000
20
96.320000
0
VERTEX
5
acb
100
AcDbEntity
8
0
100
AcDbVertex
100
AcDb2dVertex
62
5
10
80.900000
20
95.720000
0
VERTEX
5
acc
100
AcDbEntity
8
0
100
AcDbVertex
100
AcDb2dVertex
62
5
10
83.380000
20
95.720000
0
VERTEX
5
acd
100
AcDbEntity
8
0
100
AcDbVertex
100
AcDb2dVertex
62
5
10
83.380000
20
96.320000
0
VERTEX
5
ace
100
AcDbEntity
8
0
100
AcDbVertex
100
AcDb2dVertex
62
5
10
84.820000
20
96.320000
0
SEQEND
5
acf
100
AcDbEntity
8
0
0
ARC
5
ad0
100
AcDbEntity
8
0
100
AcDbCircle
6
CONTINUOUS
62
5
10
81.860000
20
97.720000
40
2.400000
100
AcDbArc
50
-144.304087
51
-131.810314
0
ARC
5
ad1
100
AcDbEntity
8
0
100
AcDbCircle
6
CONTINUOUS
62
5
10
81.460000
20
96.720000
40
1.600000
100
AcDbArc
50
179.999998
51
-141.317811
0
POLYLINE
5
ad2
100
AcDbEntity
8
0
6
CONTINUOUS
62
5
100
AcDb2dPolyline
66
1
10
0.0
20
0.0
30
0.0
70
0
0
VERTEX
5
ad3
100
AcDbEntity
8
0
100
AcDbVertex
100
AcDb2dVertex
62
5
10
79.860000
20
96.720000
0
VERTEX
5
ad4
100
AcDbEntity
8
0
100
AcDbVertex
100
AcDb2dVertex
62
5
10
79.931084
20
97.191608
0
VERTEX
5
ad5
100
AcDbEntity
8
0
100
AcDbVertex
100
AcDb2dVertex
62
5
10
80.011691
20
97.400000
0
SEQEND
5
ad6
100
AcDbEntity
8
0
0
ARC
5
ad7
100
AcDbEntity
8
0
100
AcDbCircle
6
CONTINUOUS
62
5
10
81.460000
20
96.760000
40
1.680000
100
AcDbArc
50
-179.999998
51
-141.753379
0
POLYLINE
5
ad8
100
AcDbEntity
8
0
6
CONTINUOUS
62
5
100
AcDb2dPolyline
66
1
10
0.0
20
0.0
30
0.0
70
0
0
VERTEX
5
ad9
100
AcDbEntity
8
0
100
AcDbVertex
100
AcDb2dVertex
62
5
10
79.906681
20
97.400000
0
VERTEX
5
ada
100
AcDbEntity
8
0
100
AcDbVertex
100
AcDb2dVertex
62
5
10
79.854638
20
97.255189
0
VERTEX
5
adb
100
AcDbEntity
8
0
100
AcDbVertex
100
AcDb2dVertex
62
5
10
79.780000
20
96.760000
0
SEQEND
5
adc
100
AcDbEntity
8
0
0
ARC
5
add
100
AcDbEntity
8
0
100
AcDbCircle
6
CONTINUOUS
62
5
10
81.460000
20
96.560000
40
2.680000
100
AcDbArc
50
18.266231
51
-18.266231
0
ARC
5
ade
100
AcDbEntity
8
0
100
AcDbCircle
6
CONTINUOUS
62
5
10
81.460000
20
96.560000
40
2.640000
100
AcDbArc
50
18.553004
51
-5.215909
0
CIRCLE
5
adf
100
AcDbEntity
8
0
100
AcDbCircle
6
CONTINUOUS
62
5
10
81.860000
20
96.720000
40
4.600000
0
CIRCLE
5
ae0
100
AcDbEntity
8
0
100
AcDbCircle
6
CONTINUOUS
62
5
10
81.860000
20
96.720000
40
3.800000
0
POLYLINE
5
ae1
100
AcDbEntity
8
1
6
DOT2
62
5
100
AcDb2dPolyline
66
1
10
0.0
20
0.0
30
0.0
70
0
0
VERTEX
5
ae2
100
AcDbEntity
8
1
100
AcDbVertex
100
AcDb2dVertex
62
5
10
27.460000
20
142.400000
0
VERTEX
5
ae3
100
AcDbEntity
8
1
100
AcDbVertex
100
AcDb2dVertex
62
5
10
27.060000
20
143.000000
0
VERTEX
5
ae4
100
AcDbEntity
8
1
100
AcDbVertex
100
AcDb2dVertex
62
5
10
31.860000
20
143.000000
0
SEQEND
5
ae5
100
AcDbEntity
8
1
0
LINE
5
ae6
100
AcDbEntity
8
1
100
AcDbLine
6
DOT2
62
5
10
31.860000
20
142.600000
11
31.860000
21
143.400000
0
LINE
5
ae7
100
AcDbEntity
8
1
100
AcDbLine
6
DOT2
62
5
10
27.060000
20
145.200000
11
27.060000
21
147.000000
0
POLYLINE
5
ae8
100
AcDbEntity
8
1
6
DOT2
62
5
100
AcDb2dPolyline
66
1
10
0.0
20
0.0
30
0.0
70
0
0
VERTEX
5
ae9
100
AcDbEntity
8
1
100
AcDbVertex
100
AcDb2dVertex
62
5
10
27.060000
20
145.200000
0
VERTEX
5
aea
100
AcDbEntity
8
1
100
AcDbVertex
100
AcDb2dVertex
62
5
10
29.460000
20
145.200000
0
VERTEX
5
aeb
100
AcDbEntity
8
1
100
AcDbVertex
100
AcDb2dVertex
62
5
10
29.060000
20
145.600000
0
VERTEX
5
aec
100
AcDbEntity
8
1
100
AcDbVertex
100
AcDb2dVertex
62
5
10
28.860000
20
146.000000
0
VERTEX
5
aed
100
AcDbEntity
8
1
100
AcDbVertex
100
AcDb2dVertex
62
5
10
28.860000
20
146.600000
0
VERTEX
5
aee
100
AcDbEntity
8
1
100
AcDbVertex
100
AcDb2dVertex
62
5
10
29.060000
20
147.000000
0
VERTEX
5
aef
100
AcDbEntity
8
1
100
AcDbVertex
100
AcDb2dVertex
62
5
10
29.660000
20
147.200000
0
VERTEX
5
af0
100
AcDbEntity
8
1
100
AcDbVertex
100
AcDb2dVertex
62
5
10
30.860000
20
147.200000
0
VERTEX
5
af1
100
AcDbEntity
8
1
100
AcDbVertex
100
AcDb2dVertex
62
5
10
31.460000
20
146.800000
0
VERTEX
5
af2
100
AcDbEntity
8
1
100
AcDbVertex
100
AcDb2dVertex
62
5
10
31.860000
20
146.200000
0
VERTEX
5
af3
100
AcDbEntity
8
1
100
AcDbVertex
100
AcDb2dVertex
62
5
10
31.860000
20
145.200000
0
SEQEND
5
af4
100
AcDbEntity
8
1
0
POLYLINE
5
af5
100
AcDbEntity
8
1
6
DOT2
62
5
100
AcDb2dPolyline
66
1
10
0.0
20
0.0
30
0.0
70
0
0
VERTEX
5
af6
100
AcDbEntity
8
1
100
AcDbVertex
100
AcDb2dVertex
62
5
10
27.660000
20
148.400000
0
VERTEX
5
af7
100
AcDbEntity
8
1
100
AcDbVertex
100
AcDb2dVertex
62
5
10
27.060000
20
148.400000
0
VERTEX
5
af8
100
AcDbEntity
8
1
100
AcDbVertex
100
AcDb2dVertex
62
5
10
27.060000
20
150.400000
0
VERTEX
5
af9
100
AcDbEntity
8
1
100
AcDbVertex
100
AcDb2dVertex
62
5
10
27.460000
20
150.400000
0
VERTEX
5
afa
100
AcDbEntity
8
1
100
AcDbVertex
100
AcDb2dVertex
62
5
10
28.460000
20
150.000000
0
VERTEX
5
afb
100
AcDbEntity
8
1
100
AcDbVertex
100
AcDb2dVertex
62
5
10
29.860000
20
149.600000
0
VERTEX
5
afc
100
AcDbEntity
8
1
100
AcDbVertex
100
AcDb2dVertex
62
5
10
31.860000
20
149.200000
0
SEQEND
5
afd
100
AcDbEntity
8
1
0
POLYLINE
5
afe
100
AcDbEntity
8
1
6
CONTINUOUS
62
5
100
AcDb2dPolyline
66
1
10
0.0
20
0.0
30
0.0
70
0
0
VERTEX
5
aff
100
AcDbEntity
8
1
100
AcDbVertex
100
AcDb2dVertex
62
5
10
122.500000
20
33.875000
0
VERTEX
5
b00
100
AcDbEntity
8
1
100
AcDbVertex
100
AcDb2dVertex
62
5
10
122.812500
20
35.125000
0
VERTEX
5
b01
100
AcDbEntity
8
1
100
AcDbVertex
100
AcDb2dVertex
62
5
10
123.437500
20
35.750000
0
VERTEX
5
b02
100
AcDbEntity
8
1
100
AcDbVertex
100
AcDb2dVertex
62
5
10
124.375000
20
35.750000
0
VERTEX
5
b03
100
AcDbEntity
8
1
100
AcDbVertex
100
AcDb2dVertex
62
5
10
125.000000
20
35.437500
0
VERTEX
5
b04
100
AcDbEntity
8
1
100
AcDbVertex
100
AcDb2dVertex
62
5
10
125.312500
20
34.500000
0
VERTEX
5
b05
100
AcDbEntity
8
1
100
AcDbVertex
100
AcDb2dVertex
62
5
10
125.312500
20
33.250000
0
VERTEX
5
b06
100
AcDbEntity
8
1
100
AcDbVertex
100
AcDb2dVertex
62
5
10
125.000000
20
32.625000
0
VERTEX
5
b07
100
AcDbEntity
8
1
100
AcDbVertex
100
AcDb2dVertex
62
5
10
124.375000
20
32.000000
0
VERTEX
5
b08
100
AcDbEntity
8
1
100
AcDbVertex
100
AcDb2dVertex
62
5
10
123.437500
20
32.000000
0
SEQEND
5
b09
100
AcDbEntity
8
1
0
POLYLINE
5
b0a
100
AcDbEntity
8
1
6
CONTINUOUS
62
5
100
AcDb2dPolyline
66
1
10
0.0
20
0.0
30
0.0
70
0
0
VERTEX
5
b0b
100
AcDbEntity
8
1
100
AcDbVertex
100
AcDb2dVertex
62
5
10
124.375000
20
32.000000
0
VERTEX
5
b0c
100
AcDbEntity
8
1
100
AcDbVertex
100
AcDb2dVertex
62
5
10
125.312500
20
31.375000
0
VERTEX
5
b0d
100
AcDbEntity
8
1
100
AcDbVertex
100
AcDb2dVertex
62
5
10
125.625000
20
30.437500
0
VERTEX
5
b0e
100
AcDbEntity
8
1
100
AcDbVertex
100
AcDb2dVertex
62
5
10
125.625000
20
29.500000
0
VERTEX
5
b0f
100
AcDbEntity
8
1
100
AcDbVertex
100
AcDb2dVertex
62
5
10
125.312500
20
28.875000
0
VERTEX
5
b10
100
AcDbEntity
8
1
100
AcDbVertex
100
AcDb2dVertex
62
5
10
124.375000
20
28.250000
0
VERTEX
5
b11
100
AcDbEntity
8
1
100
AcDbVertex
100
AcDb2dVertex
62
5
10
123.437500
20
28.250000
0
VERTEX
5
b12
100
AcDbEntity
8
1
100
AcDbVertex
100
AcDb2dVertex
62
5
10
122.812500
20
28.562500
0
VERTEX
5
b13
100
AcDbEntity
8
1
100
AcDbVertex
100
AcDb2dVertex
62
5
10
122.187500
20
29.500000
0
SEQEND
5
b14
100
AcDbEntity
8
1
0
POLYLINE
5
b15
100
AcDbEntity
8
1
6
CONTINUOUS
62
5
100
AcDb2dPolyline
66
1
10
0.0
20
0.0
30
0.0
70
1
0
VERTEX
5
b16
100
AcDbEntity
8
1
100
AcDbVertex
100
AcDb2dVertex
62
5
10
128.750000
20
35.750000
0
VERTEX
5
b17
100
AcDbEntity
8
1
100
AcDbVertex
100
AcDb2dVertex
62
5
10
129.375000
20
35.750000
0
VERTEX
5
b18
100
AcDbEntity
8
1
100
AcDbVertex
100
AcDb2dVertex
62
5
10
129.687500
20
35.437500
0
VERTEX
5
b19
100
AcDbEntity
8
1
100
AcDbVertex
100
AcDb2dVertex
62
5
10
130.312500
20
34.187500
0
VERTEX
5
b1a
100
AcDbEntity
8
1
100
AcDbVertex
100
AcDb2dVertex
62
5
10
130.625000
20
32.937500
0
VERTEX
5
b1b
100
AcDbEntity
8
1
100
AcDbVertex
100
AcDb2dVertex
62
5
10
130.625000
20
31.062500
0
VERTEX
5
b1c
100
AcDbEntity
8
1
100
AcDbVertex
100
AcDb2dVertex
62
5
10
130.312500
20
29.812500
0
VERTEX
5
b1d
100
AcDbEntity
8
1
100
AcDbVertex
100
AcDb2dVertex
62
5
10
129.687500
20
28.562500
0
VERTEX
5
b1e
100
AcDbEntity
8
1
100
AcDbVertex
100
AcDb2dVertex
62
5
10
129.375000
20
28.250000
0
VERTEX
5
b1f
100
AcDbEntity
8
1
100
AcDbVertex
100
AcDb2dVertex
62
5
10
128.750000
20
28.250000
0
VERTEX
5
b20
100
AcDbEntity
8
1
100
AcDbVertex
100
AcDb2dVertex
62
5
10
128.437500
20
28.562500
0
VERTEX
5
b21
100
AcDbEntity
8
1
100
AcDbVertex
100
AcDb2dVertex
62
5
10
127.812500
20
29.812500
0
VERTEX
5
b22
100
AcDbEntity
8
1
100
AcDbVertex
100
AcDb2dVertex
62
5
10
127.500000
20
31.062500
0
VERTEX
5
b23
100
AcDbEntity
8
1
100
AcDbVertex
100
AcDb2dVertex
62
5
10
127.500000
20
32.937500
0
VERTEX
5
b24
100
AcDbEntity
8
1
100
AcDbVertex
100
AcDb2dVertex
62
5
10
127.812500
20
34.187500
0
VERTEX
5
b25
100
AcDbEntity
8
1
100
AcDbVertex
100
AcDb2dVertex
62
5
10
128.437500
20
35.437500
0
VERTEX
5
b26
100
AcDbEntity
8
1
100
AcDbVertex
100
AcDb2dVertex
62
5
10
128.750000
20
35.750000
0
SEQEND
5
b27
100
AcDbEntity
8
1
0
POLYLINE
5
b28
100
AcDbEntity
8
1
6
CONTINUOUS
62
5
100
AcDb2dPolyline
66
1
10
0.0
20
0.0
30
0.0
70
1
0
VERTEX
5
b29
100
AcDbEntity
8
1
100
AcDbVertex
100
AcDb2dVertex
62
5
10
133.750000
20
35.750000
0
VERTEX
5
b2a
100
AcDbEntity
8
1
100
AcDbVertex
100
AcDb2dVertex
62
5
10
134.375000
20
35.750000
0
VERTEX
5
b2b
100
AcDbEntity
8
1
100
AcDbVertex
100
AcDb2dVertex
62
5
10
134.687500
20
35.437500
0
VERTEX
5
b2c
100
AcDbEntity
8
1
100
AcDbVertex
100
AcDb2dVertex
62
5
10
135.312500
20
34.187500
0
VERTEX
5
b2d
100
AcDbEntity
8
1
100
AcDbVertex
100
AcDb2dVertex
62
5
10
135.625000
20
32.937500
0
VERTEX
5
b2e
100
AcDbEntity
8
1
100
AcDbVertex
100
AcDb2dVertex
62
5
10
135.625000
20
31.062500
0
VERTEX
5
b2f
100
AcDbEntity
8
1
100
AcDbVertex
100
AcDb2dVertex
62
5
10
135.312500
20
29.812500
0
VERTEX
5
b30
100
AcDbEntity
8
1
100
AcDbVertex
100
AcDb2dVertex
62
5
10
134.687500
20
28.562500
0
VERTEX
5
b31
100
AcDbEntity
8
1
100
AcDbVertex
100
AcDb2dVertex
62
5
10
134.375000
20
28.250000
0
VERTEX
5
b32
100
AcDbEntity
8
1
100
AcDbVertex
100
AcDb2dVertex
62
5
10
133.750000
20
28.250000
0
VERTEX
5
b33
100
AcDbEntity
8
1
100
AcDbVertex
100
AcDb2dVertex
62
5
10
133.437500
20
28.562500
0
VERTEX
5
b34
100
AcDbEntity
8
1
100
AcDbVertex
100
AcDb2dVertex
62
5
10
132.812500
20
29.812500
0
VERTEX
5
b35
100
AcDbEntity
8
1
100
AcDbVertex
100
AcDb2dVertex
62
5
10
132.500000
20
31.062500
0
VERTEX
5
b36
100
AcDbEntity
8
1
100
AcDbVertex
100
AcDb2dVertex
62
5
10
132.500000
20
32.937500
0
VERTEX
5
b37
100
AcDbEntity
8
1
100
AcDbVertex
100
AcDb2dVertex
62
5
10
132.812500
20
34.187500
0
VERTEX
5
b38
100
AcDbEntity
8
1
100
AcDbVertex
100
AcDb2dVertex
62
5
10
133.437500
20
35.437500
0
VERTEX
5
b39
100
AcDbEntity
8
1
100
AcDbVertex
100
AcDb2dVertex
62
5
10
133.750000
20
35.750000
0
SEQEND
5
b3a
100
AcDbEntity
8
1
0
POLYLINE
5
b3b
100
AcDbEntity
8
1
6
CONTINUOUS
62
5
100
AcDb2dPolyline
66
1
10
0.0
20
0.0
30
0.0
70
0
0
VERTEX
5
b3c
100
AcDbEntity
8
1
100
AcDbVertex
100
AcDb2dVertex
62
5
10
137.500000
20
35.750000
0
VERTEX
5
b3d
100
AcDbEntity
8
1
100
AcDbVertex
100
AcDb2dVertex
62
5
10
139.062500
20
28.250000
0
VERTEX
5
b3e
100
AcDbEntity
8
1
100
AcDbVertex
100
AcDb2dVertex
62
5
10
140.625000
20
35.750000
0
SEQEND
5
b3f
100
AcDbEntity
8
1
0
POLYLINE
5
b40
100
AcDbEntity
8
1
6
CONTINUOUS
62
5
100
AcDb2dPolyline
66
1
10
0.0
20
0.0
30
0.0
70
0
0
VERTEX
5
b41
100
AcDbEntity
8
1
100
AcDbVertex
100
AcDb2dVertex
62
5
10
103.125000
20
35.125000
0
VERTEX
5
b42
100
AcDbEntity
8
1
100
AcDbVertex
100
AcDb2dVertex
62
5
10
104.062500
20
35.750000
0
VERTEX
5
b43
100
AcDbEntity
8
1
100
AcDbVertex
100
AcDb2dVertex
62
5
10
104.062500
20
28.250000
0
SEQEND
5
b44
100
AcDbEntity
8
1
0
LINE
5
b45
100
AcDbEntity
8
1
100
AcDbLine
6
CONTINUOUS
62
5
10
103.437500
20
28.250000
11
104.687500
21
28.250000
0
POLYLINE
5
b46
100
AcDbEntity
8
1
6
CONTINUOUS
62
5
100
AcDb2dPolyline
66
1
10
0.0
20
0.0
30
0.0
70
0
0
VERTEX
5
b47
100
AcDbEntity
8
1
100
AcDbVertex
100
AcDb2dVertex
62
5
10
107.500000
20
33.562500
0
VERTEX
5
b48
100
AcDbEntity
8
1
100
AcDbVertex
100
AcDb2dVertex
62
5
10
107.812500
20
35.125000
0
VERTEX
5
b49
100
AcDbEntity
8
1
100
AcDbVertex
100
AcDb2dVertex
62
5
10
108.750000
20
35.750000
0
VERTEX
5
b4a
100
AcDbEntity
8
1
100
AcDbVertex
100
AcDb2dVertex
62
5
10
109.687500
20
35.750000
0
VERTEX
5
b4b
100
AcDbEntity
8
1
100
AcDbVertex
100
AcDb2dVertex
62
5
10
110.312500
20
35.437500
0
VERTEX
5
b4c
100
AcDbEntity
8
1
100
AcDbVertex
100
AcDb2dVertex
62
5
10
110.625000
20
34.500000
0
VERTEX
5
b4d
100
AcDbEntity
8
1
100
AcDbVertex
100
AcDb2dVertex
62
5
10
110.625000
20
33.562500
0
VERTEX
5
b4e
100
AcDbEntity
8
1
100
AcDbVertex
100
AcDb2dVertex
62
5
10
110.312500
20
32.625000
0
VERTEX
5
b4f
100
AcDbEntity
8
1
100
AcDbVertex
100
AcDb2dVertex
62
5
10
107.500000
20
28.250000
0
VERTEX
5
b50
100
AcDbEntity
8
1
100
AcDbVertex
100
AcDb2dVertex
62
5
10
110.625000
20
28.250000
0
VERTEX
5
b51
100
AcDbEntity
8
1
100
AcDbVertex
100
AcDb2dVertex
62
5
10
110.625000
20
29.187500
0
SEQEND
5
b52
100
AcDbEntity
8
1
0
POLYLINE
5
b53
100
AcDbEntity
8
1
6
CONTINUOUS
62
5
100
AcDb2dPolyline
66
1
10
0.0
20
0.0
30
0.0
70
0
0
VERTEX
5
b54
100
AcDbEntity
8
1
100
AcDbVertex
100
AcDb2dVertex
62
5
10
112.500000
20
28.250000
0
VERTEX
5
b55
100
AcDbEntity
8
1
100
AcDbVertex
100
AcDb2dVertex
62
5
10
114.062500
20
35.750000
0
VERTEX
5
b56
100
AcDbEntity
8
1
100
AcDbVertex
100
AcDb2dVertex
62
5
10
115.625000
20
28.250000
0
SEQEND
5
b57
100
AcDbEntity
8
1
0
LINE
5
b58
100
AcDbEntity
8
1
100
AcDbLine
6
CONTINUOUS
62
5
10
113.125000
20
30.750000
11
115.000000
21
30.750000
0
LINE
5
b59
100
AcDbEntity
8
1
100
AcDbLine
6
CONTINUOUS
62
5
10
117.500000
20
32.000000
11
120.625000
21
32.000000
0
LINE
5
b5a
100
AcDbEntity
8
1
100
AcDbLine
6
CONTINUOUS
62
5
10
90.000000
20
44.000000
11
90.000000
21
20.000000
0
LINE
5
b5b
100
AcDbEntity
8
1
100
AcDbLine
6
CONTINUOUS
62
5
10
70.625000
20
34.187500
11
73.750000
21
34.187500
0
LINE
5
b5c
100
AcDbEntity
8
1
100
AcDbLine
6
CONTINUOUS
62
5
10
72.500000
20
36.375000
11
72.500000
21
27.625000
0
POLYLINE
5
b5d
100
AcDbEntity
8
1
6
CONTINUOUS
62
5
100
AcDb2dPolyline
66
1
10
0.0
20
0.0
30
0.0
70
0
0
VERTEX
5
b5e
100
AcDbEntity
8
1
100
AcDbVertex
100
AcDb2dVertex
62
5
10
72.500000
20
34.187500
0
VERTEX
5
b5f
100
AcDbEntity
8
1
100
AcDbVertex
100
AcDb2dVertex
62
5
10
71.562500
20
32.000000
0
VERTEX
5
b60
100
AcDbEntity
8
1
100
AcDbVertex
100
AcDb2dVertex
62
5
10
70.625000
20
30.750000
0
SEQEND
5
b61
100
AcDbEntity
8
1
0
LINE
5
b62
100
AcDbEntity
8
1
100
AcDbLine
6
CONTINUOUS
62
5
10
72.500000
20
33.250000
11
73.437500
21
32.000000
0
POLYLINE
5
b63
100
AcDbEntity
8
1
6
CONTINUOUS
62
5
100
AcDb2dPolyline
66
1
10
0.0
20
0.0
30
0.0
70
0
0
VERTEX
5
b64
100
AcDbEntity
8
1
100
AcDbVertex
100
AcDb2dVertex
62
5
10
75.937500
20
36.375000
0
VERTEX
5
b65
100
AcDbEntity
8
1
100
AcDbVertex
100
AcDb2dVertex
62
5
10
75.312500
20
35.125000
0
VERTEX
5
b66
100
AcDbEntity
8
1
100
AcDbVertex
100
AcDb2dVertex
62
5
10
73.750000
20
33.250000
0
SEQEND
5
b67
100
AcDbEntity
8
1
0
POLYLINE
5
b68
100
AcDbEntity
8
1
6
CONTINUOUS
62
5
100
AcDb2dPolyline
66
1
10
0.0
20
0.0
30
0.0
70
0
0
VERTEX
5
b69
100
AcDbEntity
8
1
100
AcDbVertex
100
AcDb2dVertex
62
5
10
75.312500
20
35.125000
0
VERTEX
5
b6a
100
AcDbEntity
8
1
100
AcDbVertex
100
AcDb2dVertex
62
5
10
78.437500
20
35.125000
0
VERTEX
5
b6b
100
AcDbEntity
8
1
100
AcDbVertex
100
AcDb2dVertex
62
5
10
77.500000
20
33.562500
0
VERTEX
5
b6c
100
AcDbEntity
8
1
100
AcDbVertex
100
AcDb2dVertex
62
5
10
75.937500
20
32.000000
0
VERTEX
5
b6d
100
AcDbEntity
8
1
100
AcDbVertex
100
AcDb2dVertex
62
5
10
73.750000
20
30.750000
0
SEQEND
5
b6e
100
AcDbEntity
8
1
0
POLYLINE
5
b6f
100
AcDbEntity
8
1
6
CONTINUOUS
62
5
100
AcDb2dPolyline
66
1
10
0.0
20
0.0
30
0.0
70
0
0
VERTEX
5
b70
100
AcDbEntity
8
1
100
AcDbVertex
100
AcDb2dVertex
62
5
10
75.312500
20
35.125000
0
VERTEX
5
b71
100
AcDbEntity
8
1
100
AcDbVertex
100
AcDb2dVertex
62
5
10
75.937500
20
33.562500
0
VERTEX
5
b72
100
AcDbEntity
8
1
100
AcDbVertex
100
AcDb2dVertex
62
5
10
77.187500
20
32.000000
0
VERTEX
5
b73
100
AcDbEntity
8
1
100
AcDbVertex
100
AcDb2dVertex
62
5
10
78.125000
20
31.375000
0
VERTEX
5
b74
100
AcDbEntity
8
1
100
AcDbVertex
100
AcDb2dVertex
62
5
10
79.375000
20
30.750000
0
SEQEND
5
b75
100
AcDbEntity
8
1
0
POLYLINE
5
b76
100
AcDbEntity
8
1
6
CONTINUOUS
62
5
100
AcDb2dPolyline
66
1
10
0.0
20
0.0
30
0.0
70
1
0
VERTEX
5
b77
100
AcDbEntity
8
1
100
AcDbVertex
100
AcDb2dVertex
62
5
10
75.000000
20
30.750000
0
VERTEX
5
b78
100
AcDbEntity
8
1
100
AcDbVertex
100
AcDb2dVertex
62
5
10
75.000000
20
27.937500
0
VERTEX
5
b79
100
AcDbEntity
8
1
100
AcDbVertex
100
AcDb2dVertex
62
5
10
78.437500
20
27.937500
0
VERTEX
5
b7a
100
AcDbEntity
8
1
100
AcDbVertex
100
AcDb2dVertex
62
5
10
78.437500
20
30.750000
0
VERTEX
5
b7b
100
AcDbEntity
8
1
100
AcDbVertex
100
AcDb2dVertex
62
5
10
75.000000
20
30.750000
0
SEQEND
5
b7c
100
AcDbEntity
8
1
0
LINE
5
b7d
100
AcDbEntity
8
1
100
AcDbLine
6
CONTINUOUS
62
5
10
54.687500
20
36.375000
11
54.687500
21
35.437500
0
POLYLINE
5
b7e
100
AcDbEntity
8
1
6
CONTINUOUS
62
5
100
AcDb2dPolyline
66
1
10
0.0
20
0.0
30
0.0
70
0
0
VERTEX
5
b7f
100
AcDbEntity
8
1
100
AcDbVertex
100
AcDb2dVertex
62
5
10
50.937500
20
33.250000
0
VERTEX
5
b80
100
AcDbEntity
8
1
100
AcDbVertex
100
AcDb2dVertex
62
5
10
50.937500
20
35.437500
0
VERTEX
5
b81
100
AcDbEntity
8
1
100
AcDbVertex
100
AcDb2dVertex
62
5
10
58.437500
20
35.437500
0
VERTEX
5
b82
100
AcDbEntity
8
1
100
AcDbVertex
100
AcDb2dVertex
62
5
10
58.437500
20
33.250000
0
SEQEND
5
b83
100
AcDbEntity
8
1
0
LINE
5
b84
100
AcDbEntity
8
1
100
AcDbLine
6
CONTINUOUS
62
5
10
51.875000
20
33.562500
11
57.500000
21
33.562500
0
LINE
5
b85
100
AcDbEntity
8
1
100
AcDbLine
6
CONTINUOUS
62
5
10
54.687500
20
33.562500
11
54.687500
21
28.250000
0
LINE
5
b86
100
AcDbEntity
8
1
100
AcDbLine
6
CONTINUOUS
62
5
10
54.687500
20
31.062500
11
57.500000
21
31.062500
0
POLYLINE
5
b87
100
AcDbEntity
8
1
6
CONTINUOUS
62
5
100
AcDb2dPolyline
66
1
10
0.0
20
0.0
30
0.0
70
0
0
VERTEX
5
b88
100
AcDbEntity
8
1
100
AcDbVertex
100
AcDb2dVertex
62
5
10
52.500000
20
31.687500
0
VERTEX
5
b89
100
AcDbEntity
8
1
100
AcDbVertex
100
AcDb2dVertex
62
5
10
52.187500
20
29.812500
0
VERTEX
5
b8a
100
AcDbEntity
8
1
100
AcDbVertex
100
AcDb2dVertex
62
5
10
51.562500
20
28.562500
0
VERTEX
5
b8b
100
AcDbEntity
8
1
100
AcDbVertex
100
AcDb2dVertex
62
5
10
50.625000
20
27.625000
0
SEQEND
5
b8c
100
AcDbEntity
8
1
0
POLYLINE
5
b8d
100
AcDbEntity
8
1
6
CONTINUOUS
62
5
100
AcDb2dPolyline
66
1
10
0.0
20
0.0
30
0.0
70
0
0
VERTEX
5
b8e
100
AcDbEntity
8
1
100
AcDbVertex
100
AcDb2dVertex
62
5
10
52.187500
20
29.812500
0
VERTEX
5
b8f
100
AcDbEntity
8
1
100
AcDbVertex
100
AcDb2dVertex
62
5
10
54.687500
20
28.250000
0
VERTEX
5
b90
100
AcDbEntity
8
1
100
AcDbVertex
100
AcDb2dVertex
62
5
10
55.937500
20
27.937500
0
VERTEX
5
b91
100
AcDbEntity
8
1
100
AcDbVertex
100
AcDb2dVertex
62
5
10
59.062500
20
27.625000
0
SEQEND
5
b92
100
AcDbEntity
8
1
0
POLYLINE
5
b93
100
AcDbEntity
8
1
6
CONTINUOUS
62
5
100
AcDb2dPolyline
66
1
10
0.0
20
0.0
30
0.0
70
0
0
VERTEX
5
b94
100
AcDbEntity
8
1
100
AcDbVertex
100
AcDb2dVertex
62
5
10
147.500000
20
28.250000
0
VERTEX
5
b95
100
AcDbEntity
8
1
100
AcDbVertex
100
AcDb2dVertex
62
5
10
149.062500
20
35.750000
0
VERTEX
5
b96
100
AcDbEntity
8
1
100
AcDbVertex
100
AcDb2dVertex
62
5
10
150.625000
20
28.250000
0
SEQEND
5
b97
100
AcDbEntity
8
1
0
LINE
5
b98
100
AcDbEntity
8
1
100
AcDbLine
6
CONTINUOUS
62
5
10
148.125000
20
30.750000
11
150.000000
21
30.750000
0
POLYLINE
5
b99
100
AcDbEntity
8
1
6
CONTINUOUS
62
5
100
AcDb2dPolyline
66
1
10
0.0
20
0.0
30
0.0
70
1
0
VERTEX
5
b9a
100
AcDbEntity
8
1
100
AcDbVertex
100
AcDb2dVertex
62
5
10
280.000000
20
20.000000
0
VERTEX
5
b9b
100
AcDbEntity
8
1
100
AcDbVertex
100
AcDb2dVertex
62
5
10
280.000000
20
44.000000
0
VERTEX
5
b9c
100
AcDbEntity
8
1
100
AcDbVertex
100
AcDb2dVertex
62
5
10
40.000000
20
44.000000
0
VERTEX
5
b9d
100
AcDbEntity
8
1
100
AcDbVertex
100
AcDb2dVertex
62
5
10
40.000000
20
20.000000
0
VERTEX
5
b9e
100
AcDbEntity
8
1
100
AcDbVertex
100
AcDb2dVertex
62
5
10
280.000000
20
20.000000
0
SEQEND
5
b9f
100
AcDbEntity
8
1
0
LINE
5
ba0
100
AcDbEntity
8
1
100
AcDbLine
6
CONTINUOUS
62
5
10
40.000000
20
340.000000
11
40.000000
21
308.000000
0
LINE
5
ba1
100
AcDbEntity
8
1
100
AcDbLine
6
CONTINUOUS
62
5
10
0.000000
20
308.000000
11
320.000000
21
308.000000
0
CIRCLE
5
ba2
100
AcDbEntity
8
1
100
AcDbCircle
6
CONTINUOUS
62
5
10
252.759495
20
159.899495
40
0.800000
0
POLYLINE
5
ba3
100
AcDbEntity
8
0
6
CONTINUOUS
62
5
100
AcDb2dPolyline
66
1
10
0.0
20
0.0
30
0.0
70
0
0
VERTEX
5
ba4
100
AcDbEntity
8
0
100
AcDbVertex
100
AcDb2dVertex
62
5
10
242.380000
20
161.550030
0
VERTEX
5
ba5
100
AcDbEntity
8
0
100
AcDbVertex
100
AcDb2dVertex
62
5
10
242.380000
20
155.960000
0
VERTEX
5
ba6
100
AcDbEntity
8
0
100
AcDbVertex
100
AcDb2dVertex
62
5
10
243.340000
20
155.960000
0
VERTEX
5
ba7
100
AcDbEntity
8
0
100
AcDbVertex
100
AcDb2dVertex
62
5
10
243.340000
20
161.550030
0
SEQEND
5
ba8
100
AcDbEntity
8
0
0
POLYLINE
5
ba9
100
AcDbEntity
8
0
6
CONTINUOUS
62
5
100
AcDb2dPolyline
66
1
10
0.0
20
0.0
30
0.0
70
0
0
VERTEX
5
baa
100
AcDbEntity
8
0
100
AcDbVertex
100
AcDb2dVertex
62
5
10
242.460000
20
161.553078
0
VERTEX
5
bab
100
AcDbEntity
8
0
100
AcDbVertex
100
AcDb2dVertex
62
5
10
242.460000
20
156.040000
0
VERTEX
5
bac
100
AcDbEntity
8
0
100
AcDbVertex
100
AcDb2dVertex
62
5
10
243.260000
20
156.040000
0
VERTEX
5
bad
100
AcDbEntity
8
0
100
AcDbVertex
100
AcDb2dVertex
62
5
10
243.260000
20
161.553078
0
SEQEND
5
bae
100
AcDbEntity
8
0
0
ARC
5
baf
100
AcDbEntity
8
0
100
AcDbCircle
6
CONTINUOUS
62
5
10
242.860000
20
150.000000
40
10.440000
100
AcDbArc
50
-72.850501
51
76.929090
0
ARC
5
bb0
100
AcDbEntity
8
0
100
AcDbCircle
6
CONTINUOUS
62
5
10
243.595352
20
159.932817
40
1.600000
100
AcDbArc
50
4.035026
51
85.765970
0
ARC
5
bb1
100
AcDbEntity
8
0
100
AcDbCircle
6
CONTINUOUS
62
5
10
244.300000
20
140.144646
40
1.600000
100
AcDbArc
50
-81.687138
51
0.000000
0
POLYLINE
5
bb2
100
AcDbEntity
8
0
6
CONTINUOUS
62
5
100
AcDb2dPolyline
66
1
10
0.0
20
0.0
30
0.0
70
0
0
VERTEX
5
bb3
100
AcDbEntity
8
0
100
AcDbVertex
100
AcDb2dVertex
62
5
10
245.900000
20
140.144646
0
VERTEX
5
bb4
100
AcDbEntity
8
0
100
AcDbVertex
100
AcDb2dVertex
62
5
10
245.900000
20
150.000000
0
VERTEX
5
bb5
100
AcDbEntity
8
0
100
AcDbVertex
100
AcDb2dVertex
62
5
10
245.191386
20
160.045403
0
SEQEND
5
bb6
100
AcDbEntity
8
0
0
CIRCLE
5
bb7
100
AcDbEntity
8
1
100
AcDbCircle
6
CONTINUOUS
62
5
10
232.960505
20
159.899495
40
0.400000
0
ARC
5
bb8
100
AcDbEntity
8
0
100
AcDbCircle
6
CONTINUOUS
62
5
10
242.860000
20
150.000000
40
10.440000
100
AcDbArc
50
103.070908
51
-107.149497
0
ARC
5
bb9
100
AcDbEntity
8
0
100
AcDbCircle
6
CONTINUOUS
62
5
10
242.124648
20
159.932817
40
1.600000
100
AcDbArc
50
94.234028
51
175.964973
0
ARC
5
bba
100
AcDbEntity
8
0
100
AcDbCircle
6
CONTINUOUS
62
5
10
241.420000
20
140.144646
40
1.600000
100
AcDbArc
50
179.999998
51
-98.312860
0
POLYLINE
5
bbb
100
AcDbEntity
8
0
6
CONTINUOUS
62
5
100
AcDb2dPolyline
66
1
10
0.0
20
0.0
30
0.0
70
0
0
VERTEX
5
bbc
100
AcDbEntity
8
0
100
AcDbVertex
100
AcDb2dVertex
62
5
10
239.820000
20
140.144646
0
VERTEX
5
bbd
100
AcDbEntity
8
0
100
AcDbVertex
100
AcDb2dVertex
62
5
10
239.820000
20
150.000000
0
VERTEX
5
bbe
100
AcDbEntity
8
0
100
AcDbVertex
100
AcDb2dVertex
62
5
10
240.528614
20
160.045403
0
SEQEND
5
bbf
100
AcDbEntity
8
0
0
ARC
5
bc0
100
AcDbEntity
8
0
100
AcDbCircle
6
CONTINUOUS
62
5
10
241.376558
20
140.151091
40
1.600000
100
AcDbArc
50
-178.051628
51
-98.565498
0
POLYLINE
5
bc1
100
AcDbEntity
8
0
6
CONTINUOUS
62
5
100
AcDb2dPolyline
66
1
10
0.0
20
0.0
30
0.0
70
0
0
VERTEX
5
bc2
100
AcDbEntity
8
0
100
AcDbVertex
100
AcDb2dVertex
62
5
10
239.777483
20
140.096693
0
VERTEX
5
bc3
100
AcDbEntity
8
0
100
AcDbVertex
100
AcDb2dVertex
62
5
10
239.660000
20
143.550194
0
VERTEX
5
bc4
100
AcDbEntity
8
0
100
AcDbVertex
100
AcDb2dVertex
62
5
10
239.660000
20
148.350758
0
SEQEND
5
bc5
100
AcDbEntity
8
0
0
ARC
5
bc6
100
AcDbEntity
8
0
100
AcDbCircle
6
CONTINUOUS
62
5
10
285.541971
20
148.399242
40
45.881996
100
AcDbArc
50
175.643789
51
-179.939453
0
POLYLINE
5
bc7
100
AcDbEntity
8
0
6
CONTINUOUS
62
5
100
AcDb2dPolyline
66
1
10
0.0
20
0.0
30
0.0
70
0
0
VERTEX
5
bc8
100
AcDbEntity
8
0
100
AcDbVertex
100
AcDb2dVertex
62
5
10
239.792523
20
151.884300
0
VERTEX
5
bc9
100
AcDbEntity
8
0
100
AcDbVertex
100
AcDb2dVertex
62
5
10
240.129561
20
156.662184
0
VERTEX
5
bca
100
AcDbEntity
8
0
100
AcDbVertex
100
AcDb2dVertex
62
5
10
240.489534
20
160.096279
0
SEQEND
5
bcb
100
AcDbEntity
8
0
0
ARC
5
bcc
100
AcDbEntity
8
0
100
AcDbCircle
6
CONTINUOUS
62
5
10
242.080816
20
159.929475
40
1.600000
100
AcDbArc
50
94.486910
51
174.015906
0
LINE
5
bcd
100
AcDbEntity
8
0
100
AcDbLine
6
CONTINUOUS
62
5
10
241.955646
20
161.524571
11
242.006519
21
161.528450
0
POLYLINE
5
bce
100
AcDbEntity
8
0
6
CONTINUOUS
62
5
100
AcDb2dPolyline
66
1
10
0.0
20
0.0
30
0.0
70
0
0
VERTEX
5
bcf
100
AcDbEntity
8
0
100
AcDbVertex
100
AcDb2dVertex
62
5
10
243.713481
20
161.528450
0
VERTEX
5
bd0
100
AcDbEntity
8
0
100
AcDbVertex
100
AcDb2dVertex
62
5
10
243.713481
20
161.528450
0
VERTEX
5
bd1
100
AcDbEntity
8
0
100
AcDbVertex
100
AcDb2dVertex
62
5
10
243.764354
20
161.524571
0
SEQEND
5
bd2
100
AcDbEntity
8
0
0
ARC
5
bd3
100
AcDbEntity
8
0
100
AcDbCircle
6
CONTINUOUS
62
5
10
243.639184
20
159.929475
40
1.600000
100
AcDbArc
50
5.984093
51
85.513089
0
POLYLINE
5
bd4
100
AcDbEntity
8
0
6
CONTINUOUS
62
5
100
AcDb2dPolyline
66
1
10
0.0
20
0.0
30
0.0
70
0
0
VERTEX
5
bd5
100
AcDbEntity
8
0
100
AcDbVertex
100
AcDb2dVertex
62
5
10
245.230466
20
160.096279
0
VERTEX
5
bd6
100
AcDbEntity
8
0
100
AcDbVertex
100
AcDb2dVertex
62
5
10
245.590439
20
156.662184
0
VERTEX
5
bd7
100
AcDbEntity
8
0
100
AcDbVertex
100
AcDb2dVertex
62
5
10
245.927477
20
151.884300
0
SEQEND
5
bd8
100
AcDbEntity
8
0
0
ARC
5
bd9
100
AcDbEntity
8
0
100
AcDbCircle
6
CONTINUOUS
62
5
10
200.178029
20
148.399242
40
45.881997
100
AcDbArc
50
-0.060545
51
4.356210
0
POLYLINE
5
bda
100
AcDbEntity
8
0
6
CONTINUOUS
62
5
100
AcDb2dPolyline
66
1
10
0.0
20
0.0
30
0.0
70
0
0
VERTEX
5
bdb
100
AcDbEntity
8
0
100
AcDbVertex
100
AcDb2dVertex
62
5
10
246.060000
20
148.350758
0
VERTEX
5
bdc
100
AcDbEntity
8
0
100
AcDbVertex
100
AcDb2dVertex
62
5
10
246.060000
20
143.550194
0
VERTEX
5
bdd
100
AcDbEntity
8
0
100
AcDbVertex
100
AcDb2dVertex
62
5
10
245.942517
20
140.096693
0
SEQEND
5
bde
100
AcDbEntity
8
0
0
ARC
5
bdf
100
AcDbEntity
8
0
100
AcDbCircle
6
CONTINUOUS
62
5
10
244.343442
20
140.151091
40
1.600000
100
AcDbArc
50
-81.434500
51
-1.948371
0
LINE
5
be0
100
AcDbEntity
8
0
100
AcDbLine
6
CONTINUOUS
62
5
10
244.581746
20
138.568937
11
244.531325
21
138.561457
0
LINE
5
be1
100
AcDbEntity
8
0
100
AcDbLine
6
CONTINUOUS
62
5
10
241.188675
20
138.561457
11
241.138254
21
138.568937
0
CIRCLE
5
be2
100
AcDbEntity
8
0
100
AcDbCircle
6
CONTINUOUS
62
5
10
242.860000
20
150.000000
40
11.560000
0
CIRCLE
5
be3
100
AcDbEntity
8
1
100
AcDbCircle
6
CONTINUOUS
62
5
10
242.860000
20
150.000000
40
11.920000
0
LINE
5
be4
100
AcDbEntity
8
1
100
AcDbLine
6
CONTINUOUS
62
5
10
53.960000
20
83.200000
11
30.660000
21
83.200000
0
LINE
5
be5
100
AcDbEntity
8
1
100
AcDbLine
6
CONTINUOUS
62
5
10
53.960000
20
208.800000
11
30.660000
21
208.800000
0
POLYLINE
5
be6
100
AcDbEntity
8
1
6
CONTINUOUS
62
5
100
AcDb2dPolyline
66
1
10
0.0
20
0.0
30
0.0
70
0
0
VERTEX
5
be7
100
AcDbEntity
8
1
100
AcDbVertex
100
AcDb2dVertex
62
5
10
32.660000
20
146.000000
0
VERTEX
5
be8
100
AcDbEntity
8
1
100
AcDbVertex
100
AcDb2dVertex
62
5
10
32.660000
20
83.200000
0
VERTEX
5
be9
100
AcDbEntity
8
1
100
AcDbVertex
100
AcDb2dVertex
62
5
10
32.020000
20
87.040000
0
VERTEX
5
bea
100
AcDbEntity
8
1
100
AcDbVertex
100
AcDb2dVertex
62
5
10
33.300000
20
87.040000
0
VERTEX
5
beb
100
AcDbEntity
8
1
100
AcDbVertex
100
AcDb2dVertex
62
5
10
32.660000
20
83.200000
0
VERTEX
5
bec
100
AcDbEntity
8
1
100
AcDbVertex
100
AcDb2dVertex
62
5
10
32.340000
20
87.040000
0
VERTEX
5
bed
100
AcDbEntity
8
1
100
AcDbVertex
100
AcDb2dVertex
62
5
10
32.980000
20
87.040000
0
VERTEX
5
bee
100
AcDbEntity
8
1
100
AcDbVertex
100
AcDb2dVertex
62
5
10
32.660000
20
83.200000
0
SEQEND
5
bef
100
AcDbEntity
8
1
0
POLYLINE
5
bf0
100
AcDbEntity
8
1
6
CONTINUOUS
62
5
100
AcDb2dPolyline
66
1
10
0.0
20
0.0
30
0.0
70
0
0
VERTEX
5
bf1
100
AcDbEntity
8
1
100
AcDbVertex
100
AcDb2dVertex
62
5
10
32.660000
20
146.000000
0
VERTEX
5
bf2
100
AcDbEntity
8
1
100
AcDbVertex
100
AcDb2dVertex
62
5
10
32.660000
20
208.800000
0
VERTEX
5
bf3
100
AcDbEntity
8
1
100
AcDbVertex
100
AcDb2dVertex
62
5
10
33.300000
20
204.960000
0
VERTEX
5
bf4
100
AcDbEntity
8
1
100
AcDbVertex
100
AcDb2dVertex
62
5
10
32.020000
20
204.960000
0
VERTEX
5
bf5
100
AcDbEntity
8
1
100
AcDbVertex
100
AcDb2dVertex
62
5
10
32.660000
20
208.800000
0
VERTEX
5
bf6
100
AcDbEntity
8
1
100
AcDbVertex
100
AcDb2dVertex
62
5
10
32.980000
20
204.960000
0
VERTEX
5
bf7
100
AcDbEntity
8
1
100
AcDbVertex
100
AcDb2dVertex
62
5
10
32.340000
20
204.960000
0
VERTEX
5
bf8
100
AcDbEntity
8
1
100
AcDbVertex
100
AcDb2dVertex
62
5
10
32.660000
20
208.800000
0
SEQEND
5
bf9
100
AcDbEntity
8
1
0
POLYLINE
5
bfa
100
AcDbEntity
8
1
6
CONTINUOUS
62
5
100
AcDb2dPolyline
66
1
10
0.0
20
0.0
30
0.0
70
1
0
VERTEX
5
bfb
100
AcDbEntity
8
1
100
AcDbVertex
100
AcDb2dVertex
62
5
10
258.300000
20
106.720000
0
VERTEX
5
bfc
100
AcDbEntity
8
1
100
AcDbVertex
100
AcDb2dVertex
62
5
10
242.860000
20
105.800000
0
VERTEX
5
bfd
100
AcDbEntity
8
1
100
AcDbVertex
100
AcDb2dVertex
62
5
10
227.420000
20
106.720000
0
VERTEX
5
bfe
100
AcDbEntity
8
1
100
AcDbVertex
100
AcDb2dVertex
62
5
10
227.420000
20
108.400000
0
VERTEX
5
bff
100
AcDbEntity
8
1
100
AcDbVertex
100
AcDb2dVertex
62
5
10
222.460000
20
108.400000
0
VERTEX
5
c00
100
AcDbEntity
8
1
100
AcDbVertex
100
AcDb2dVertex
62
5
10
222.460000
20
111.360000
0
VERTEX
5
c01
100
AcDbEntity
8
1
100
AcDbVertex
100
AcDb2dVertex
62
5
10
218.860000
20
111.360000
0
VERTEX
5
c02
100
AcDbEntity
8
1
100
AcDbVertex
100
AcDb2dVertex
62
5
10
218.860000
20
188.800000
0
VERTEX
5
c03
100
AcDbEntity
8
1
100
AcDbVertex
100
AcDb2dVertex
62
5
10
222.460000
20
188.800000
0
VERTEX
5
c04
100
AcDbEntity
8
1
100
AcDbVertex
100
AcDb2dVertex
62
5
10
222.460000
20
191.600000
0
VERTEX
5
c05
100
AcDbEntity
8
1
100
AcDbVertex
100
AcDb2dVertex
62
5
10
227.420000
20
191.600000
0
VERTEX
5
c06
100
AcDbEntity
8
1
100
AcDbVertex
100
AcDb2dVertex
62
5
10
227.420000
20
193.160000
0
VERTEX
5
c07
100
AcDbEntity
8
1
100
AcDbVertex
100
AcDb2dVertex
62
5
10
242.860000
20
194.080000
0
VERTEX
5
c08
100
AcDbEntity
8
1
100
AcDbVertex
100
AcDb2dVertex
62
5
10
258.300000
20
193.160000
0
VERTEX
5
c09
100
AcDbEntity
8
1
100
AcDbVertex
100
AcDb2dVertex
62
5
10
258.300000
20
191.600000
0
VERTEX
5
c0a
100
AcDbEntity
8
1
100
AcDbVertex
100
AcDb2dVertex
62
5
10
263.260000
20
191.600000
0
VERTEX
5
c0b
100
AcDbEntity
8
1
100
AcDbVertex
100
AcDb2dVertex
62
5
10
263.260000
20
188.800000
0
VERTEX
5
c0c
100
AcDbEntity
8
1
100
AcDbVertex
100
AcDb2dVertex
62
5
10
266.860000
20
188.800000
0
VERTEX
5
c0d
100
AcDbEntity
8
1
100
AcDbVertex
100
AcDb2dVertex
62
5
10
266.860000
20
111.360000
0
VERTEX
5
c0e
100
AcDbEntity
8
1
100
AcDbVertex
100
AcDb2dVertex
62
5
10
263.260000
20
111.360000
0
VERTEX
5
c0f
100
AcDbEntity
8
1
100
AcDbVertex
100
AcDb2dVertex
62
5
10
263.260000
20
108.400000
0
VERTEX
5
c10
100
AcDbEntity
8
1
100
AcDbVertex
100
AcDb2dVertex
62
5
10
258.300000
20
108.400000
0
SEQEND
5
c11
100
AcDbEntity
8
1
0
LINE
5
c12
100
AcDbEntity
8
0
100
AcDbLine
6
CONTINUOUS
62
5
10
155.060000
20
86.000000
11
155.060000
21
185.532725
0
POLYLINE
5
c13
100
AcDbEntity
8
0
6
CONTINUOUS
62
5
100
AcDb2dPolyline
66
1
10
0.0
20
0.0
30
0.0
70
0
0
VERTEX
5
c14
100
AcDbEntity
8
0
100
AcDbVertex
100
AcDb2dVertex
62
5
10
170.380000
20
188.000000
0
VERTEX
5
c15
100
AcDbEntity
8
0
100
AcDbVertex
100
AcDb2dVertex
62
5
10
173.180000
20
188.000000
0
VERTEX
5
c16
100
AcDbEntity
8
0
100
AcDbVertex
100
AcDb2dVertex
62
5
10
173.980000
20
188.800000
0
VERTEX
5
c17
100
AcDbEntity
8
0
100
AcDbVertex
100
AcDb2dVertex
62
5
10
174.380000
20
188.800000
0
VERTEX
5
c18
100
AcDbEntity
8
0
100
AcDbVertex
100
AcDb2dVertex
62
5
10
174.380000
20
114.400000
0
VERTEX
5
c19
100
AcDbEntity
8
0
100
AcDbVertex
100
AcDb2dVertex
62
5
10
173.980000
20
114.400000
0
VERTEX
5
c1a
100
AcDbEntity
8
0
100
AcDbVertex
100
AcDb2dVertex
62
5
10
173.180000
20
115.200000
0
VERTEX
5
c1b
100
AcDbEntity
8
0
100
AcDbVertex
100
AcDb2dVertex
62
5
10
170.380000
20
115.200000
0
SEQEND
5
c1c
100
AcDbEntity
8
0
0
LINE
5
c1d
100
AcDbEntity
8
0
100
AcDbLine
6
CONTINUOUS
62
5
10
173.180000
20
115.200000
11
173.180000
21
188.000000
0
LINE
5
c1e
100
AcDbEntity
8
0
100
AcDbLine
6
CONTINUOUS
62
5
10
173.980000
20
188.800000
11
173.980000
21
114.400000
0
ARC
5
c1f
100
AcDbEntity
8
0
100
AcDbCircle
6
CONTINUOUS
62
5
10
162.820000
20
84.640000
40
0.240000
100
AcDbArc
50
-89.999999
51
0.000000
0
LINE
5
c20
100
AcDbEntity
8
0
100
AcDbLine
6
CONTINUOUS
62
5
10
162.820000
20
84.400000
11
156.260000
21
84.400000
0
LINE
5
c21
100
AcDbEntity
8
0
100
AcDbLine
6
CONTINUOUS
62
5
10
163.060000
20
203.600000
11
163.060000
21
84.640000
0
ARC
5
c22
100
AcDbEntity
8
0
100
AcDbCircle
6
CONTINUOUS
62
5
10
163.420000
20
207.360000
40
0.240000
100
AcDbArc
50
89.999999
51
179.999998
0
LINE
5
c23
100
AcDbEntity
8
0
100
AcDbLine
6
CONTINUOUS
62
5
10
163.180000
20
207.360000
11
163.180000
21
84.640000
0
ARC
5
c24
100
AcDbEntity
8
0
100
AcDbCircle
6
CONTINUOUS
62
5
10
163.420000
20
84.640000
40
0.240000
100
AcDbArc
50
-179.999998
51
-89.999999
0
LINE
5
c25
100
AcDbEntity
8
0
100
AcDbLine
6
CONTINUOUS
62
5
10
163.420000
20
84.400000
11
164.780000
21
84.400000
0
LINE
5
c26
100
AcDbEntity
8
0
100
AcDbLine
6
CONTINUOUS
62
5
10
164.780000
20
207.600000
11
163.420000
21
207.600000
0
POLYLINE
5
c27
100
AcDbEntity
8
0
6
CONTINUOUS
62
5
100
AcDb2dPolyline
66
1
10
0.0
20
0.0
30
0.0
70
1
0
VERTEX
5
c28
100
AcDbEntity
8
0
100
AcDbVertex
100
AcDb2dVertex
62
5
10
164.780000
20
83.200000
0
VERTEX
5
c29
100
AcDbEntity
8
0
100
AcDbVertex
100
AcDb2dVertex
62
5
10
170.380000
20
83.200000
0
VERTEX
5
c2a
100
AcDbEntity
8
0
100
AcDbVertex
100
AcDb2dVertex
62
5
10
170.380000
20
208.800000
0
VERTEX
5
c2b
100
AcDbEntity
8
0
100
AcDbVertex
100
AcDb2dVertex
62
5
10
164.780000
20
208.800000
0
SEQEND
5
c2c
100
AcDbEntity
8
0
0
ARC
5
c2d
100
AcDbEntity
8
0
100
AcDbCircle
6
CONTINUOUS
62
5
10
55.460000
20
86.000000
40
2.800000
100
AcDbArc
50
179.999998
51
-89.999999
0
LINE
5
c2e
100
AcDbEntity
8
0
100
AcDbLine
6
CONTINUOUS
62
5
10
52.660000
20
86.000000
11
52.660000
21
206.000000
0
ARC
5
c2f
100
AcDbEntity
8
0
100
AcDbCircle
6
CONTINUOUS
62
5
10
55.460000
20
206.000000
40
2.800000
100
AcDbArc
50
89.999999
51
179.999998
0
LINE
5
c30
100
AcDbEntity
8
0
100
AcDbLine
6
CONTINUOUS
62
5
10
55.460000
20
208.800000
11
108.260000
21
208.800000
0
ARC
5
c31
100
AcDbEntity
8
0
100
AcDbCircle
6
CONTINUOUS
62
5
10
108.260000
20
206.000000
40
2.800000
100
AcDbArc
50
0.000000
51
89.999999
0
LINE
5
c32
100
AcDbEntity
8
0
100
AcDbLine
6
CONTINUOUS
62
5
10
111.060000
20
206.000000
11
111.060000
21
86.000000
0
ARC
5
c33
100
AcDbEntity
8
0
100
AcDbCircle
6
CONTINUOUS
62
5
10
108.260000
20
86.000000
40
2.800000
100
AcDbArc
50
-89.999999
51
0.000000
0
LINE
5
c34
100
AcDbEntity
8
0
100
AcDbLine
6
CONTINUOUS
62
5
10
108.260000
20
83.200000
11
55.460000
21
83.200000
0
ARC
5
c35
100
AcDbEntity
8
0
100
AcDbCircle
6
CONTINUOUS
62
5
10
55.460000
20
86.000000
40
1.600000
100
AcDbArc
50
179.999998
51
-89.999999
0
LINE
5
c36
100
AcDbEntity
8
0
100
AcDbLine
6
CONTINUOUS
62
5
10
53.860000
20
86.000000
11
53.860000
21
206.000000
0
ARC
5
c37
100
AcDbEntity
8
0
100
AcDbCircle
6
CONTINUOUS
62
5
10
55.460000
20
206.000000
40
1.600000
100
AcDbArc
50
89.999999
51
179.999998
0
LINE
5
c38
100
AcDbEntity
8
0
100
AcDbLine
6
CONTINUOUS
62
5
10
55.460000
20
207.600000
11
108.260000
21
207.600000
0
ARC
5
c39
100
AcDbEntity
8
0
100
AcDbCircle
6
CONTINUOUS
62
5
10
108.260000
20
206.000000
40
1.600000
100
AcDbArc
50
0.000000
51
89.999999
0
LINE
5
c3a
100
AcDbEntity
8
0
100
AcDbLine
6
CONTINUOUS
62
5
10
109.860000
20
206.000000
11
109.860000
21
86.000000
0
ARC
5
c3b
100
AcDbEntity
8
0
100
AcDbCircle
6
CONTINUOUS
62
5
10
108.260000
20
86.000000
40
1.600000
100
AcDbArc
50
-89.999999
51
0.000000
0
LINE
5
c3c
100
AcDbEntity
8
0
100
AcDbLine
6
CONTINUOUS
62
5
10
108.260000
20
84.400000
11
55.460000
21
84.400000
0
POLYLINE
5
c3d
100
AcDbEntity
8
1
6
CONTINUOUS
62
5
100
AcDb2dPolyline
66
1
10
0.0
20
0.0
30
0.0
70
1
0
VERTEX
5
c3e
100
AcDbEntity
8
1
100
AcDbVertex
100
AcDb2dVertex
62
5
10
0.000000
20
0.000000
0
VERTEX
5
c3f
100
AcDbEntity
8
1
100
AcDbVertex
100
AcDb2dVertex
62
5
10
0.000000
20
340.000000
0
VERTEX
5
c40
100
AcDbEntity
8
1
100
AcDbVertex
100
AcDb2dVertex
62
5
10
320.000000
20
340.000000
0
VERTEX
5
c41
100
AcDbEntity
8
1
100
AcDbVertex
100
AcDb2dVertex
62
5
10
320.000000
20
0.000000
0
VERTEX
5
c42
100
AcDbEntity
8
1
100
AcDbVertex
100
AcDb2dVertex
62
5
10
0.000000
20
0.000000
0
SEQEND
5
c43
100
AcDbEntity
8
1
0
ENDSEC
0
SECTION
2
OBJECTS
0
DICTIONARY
5
c44
100
AcDbDictionary
3
ACAD_GROUP
350
c45
3
ACAD_MLINESTYLE
350
c46
0
DICTIONARY
5
c45
102
{ACAD_REACTORS
330
c44
102
}
100
AcDbDictionary
0
DICTIONARY
5
c46
102
{ACAD_REACTORS
330
c44
102
}
100
AcDbDictionary
3
STANDARD
350
c47
0
MLINESTYLE
5
c47
102
{ACAD_REACTORS
330
c46
102
}
100
AcDbMlineStyle
2
STANDARD
70
0
3

62
0
51
90.0
52
90.0
71
2
49
0.5
62
256
6
BYLAYER
49
-0.5
62
256
6
BYLAYER
0
ENDSEC
0
EOF
