0
SECTION
2
HEADER
9
$ACADVER
1
AC1012
9
$EXTMIN
10
-0.013701
20
-0.013701
30
0.0
9
$EXTMAX
10
12.606299
20
13.386299
30
0.0
9
$LIMMIN
10
-0.348005
20
-0.348005
9
$LIMMAX
10
320.199995
20
340.011995
9
$DIMSCALE
40
1.000000
9
$PDMODE
70
2
9
$PDSIZE
40
0.0
  9
$HANDSEED
  5
98b
0
ENDSEC
0
SECTION
2
CLASSES
0
ENDSEC
0
SECTION
2
TABLES
0
TABLE
2
LTYPE
5
1e
100
AcDbSymbolTable
70
12
0
LTYPE
5
1f
100
AcDbSymbolTableRecord
100
AcDbLinetypeTableRecord
2
BYBLOCK
70
0
3

72
65
73
0
40
0.0
0
LTYPE
5
20
100
AcDbSymbolTableRecord
100
AcDbLinetypeTableRecord
2
BYLAYER
70
0
3

72
65
73
0
40
0.0
0
LTYPE
5
21
100
AcDbSymbolTableRecord
100
AcDbLinetypeTableRecord
2
CONTINUOUS
70
64
3
Solid line
72
65
73
0
40
0.0
0
LTYPE
5
22
100
AcDbSymbolTableRecord
100
AcDbLinetypeTableRecord
2
DASHED
70
64
3
__ __ __ __ __ __ __ __ __ __ __ __ __ __ __
72
65
73
2
40
0.75
49
0.5
74
0
49
-0.25
74
0
0
LTYPE
5
23
100
AcDbSymbolTableRecord
100
AcDbLinetypeTableRecord
2
DOT
70
64
3
...............................................
72
65
73
2
40
0.25
49
0.0
74
0
49
-0.25
74
0
0
LTYPE
5
24
100
AcDbSymbolTableRecord
100
AcDbLinetypeTableRecord
2
DASHDOT
70
64
3
__ . __ . __ . __ . __ . __ . __ . __ . __ . --
72
65
73
4
40
1.0
49
0.5
74
0
49
-0.25
74
0
49
0.0
74
0
49
-0.25
74
0
0
LTYPE
5
25
100
AcDbSymbolTableRecord
100
AcDbLinetypeTableRecord
2
CENTER
70
64
3
____ _ ____ _ ____ _ ____ _ ____ _ ____ _ ____
72
65
73
4
40
2.0
49
1.25
74
0
49
-0.25
74
0
49
0.25
74
0
49
-0.25
74
0
0
LTYPE
5
26
100
AcDbSymbolTableRecord
100
AcDbLinetypeTableRecord
2
PHANTOM
70
64
3
_____ _ _ _____ _ _ _____ _ _ _____ _ _ ____
72
65
73
6
40
2.5
49
1.25
74
0
49
-0.25
74
0
49
0.25
74
0
49
-0.25
74
0
49
0.25
74
0
49
-0.25
74
0
0
LTYPE
5
27
100
AcDbSymbolTableRecord
100
AcDbLinetypeTableRecord
2
HIDDEN
70
64
3
_ _ _ _ _ _ _ _ _ _ _ _ _ _ _ _ _ _ _ _ _ _ _
72
65
73
2
40
0.375
49
0.25
74
0
49
-0.125
74
0
0
LTYPE
5
28
100
AcDbSymbolTableRecord
100
AcDbLinetypeTableRecord
2
BORDER
70
64
3
__ __ . __ __ . __ __ . __ __ . __ __ . __ __
72
65
73
6
40
1.75
49
0.5
74
0
49
-0.25
74
0
49
0.5
74
0
49
-0.25
74
0
49
0.0
74
0
49
-0.25
74
0
0
LTYPE
5
29
100
AcDbSymbolTableRecord
100
AcDbLinetypeTableRecord
2
DIVIDE
70
64
3
__ . . __ . . __ . . __ . . __ . . __ . . __
72
65
73
6
40
1.25
49
0.5
74
0
49
-0.25
74
0
49
0.0
74
0
49
-0.25
74
0
49
0.0
74
0
49
-0.25
74
0
0
LTYPE
5
2a
100
AcDbSymbolTableRecord
100
AcDbLinetypeTableRecord
2
DOT2
70
64
3
...............................................
72
65
73
2
40
0.125
49
0.0
74
0
49
-0.125
74
0
0
ENDTAB
0
TABLE
2
STYLE
5
2b
100
AcDbSymbolTable
70
1
0
STYLE
5
2c
100
AcDbSymbolTableRecord
100
AcDbTextStyleTableRecord
2
STANDARD
70
64
40
0.0
41
1.0
50
0.0
71
0
42
5.0
3
txt
4
bigfont
0
ENDTAB
0
TABLE
2
LAYER
5
2d
100
AcDbSymbolTable
70
3
0
LAYER
5
2e
100
AcDbSymbolTableRecord
100
AcDbLayerTableRecord
2
0
70
0
62
7
6
CONTINUOUS
0
LAYER
5
2f
100
AcDbSymbolTableRecord
100
AcDbLayerTableRecord
2
0
70
0
62
7
6
CONTINUOUS
0
LAYER
5
30
100
AcDbSymbolTableRecord
100
AcDbLayerTableRecord
2
1
70
0
62
7
6
CONTINUOUS
0
ENDTAB
0
TABLE
2
APPID
5
31
100
AcDbSymbolTable
70
1
0
APPID
5
32
100
AcDbSymbolTableRecord
100
AcDbRegAppTableRecord
2
ACAD
70
64
0
ENDTAB
0
TABLE
2
DIMSTYLE
5
33
100
AcDbSymbolTable
70
0
0
ENDTAB
0
TABLE
2
UCS
5
34
100
AcDbSymbolTable
70
0
0
ENDTAB
0
TABLE
2
VIEW
5
35
100
AcDbSymbolTable
70
0
0
ENDTAB
0
TABLE
2
VPORT
5
36
100
AcDbSymbolTable
70
0
0
ENDTAB
0
TABLE
2
BLOCK_RECORD
5
37
100
AcDbSymbolTable
70
0
0
BLOCK_RECORD
5
38
100
AcDbSymbolTableRecord
100
AcDbBlockTableRecord
2
*MODEL_SPACE
0
BLOCK_RECORD
5
39
100
AcDbSymbolTableRecord
100
AcDbBlockTableRecord
2
*PAPER_SPACE
0
BLOCK_RECORD
5
3a
100
AcDbSymbolTableRecord
100
AcDbBlockTableRecord
2
OPEN
0
BLOCK_RECORD
5
3b
100
AcDbSymbolTableRecord
100
AcDbBlockTableRecord
2
HALF
0
BLOCK_RECORD
5
3c
100
AcDbSymbolTableRecord
100
AcDbBlockTableRecord
2
CLOSEDBLANK
0
BLOCK_RECORD
5
3d
100
AcDbSymbolTableRecord
100
AcDbBlockTableRecord
2
HALFCLOSE_R
0
BLOCK_RECORD
5
3e
100
AcDbSymbolTableRecord
100
AcDbBlockTableRecord
2
DOT
0
BLOCK_RECORD
5
3f
100
AcDbSymbolTableRecord
100
AcDbBlockTableRecord
2
HALFOPEN_R
0
BLOCK_RECORD
5
40
100
AcDbSymbolTableRecord
100
AcDbBlockTableRecord
2
CLOSEDF
0
BLOCK_RECORD
5
41
100
AcDbSymbolTableRecord
100
AcDbBlockTableRecord
2
HALF_R
0
ENDTAB
0
ENDSEC
0
SECTION
2
BLOCKS
0
BLOCK
5
42
100
AcDbEntity
8
0
100
AcDbBlockBegin
2
*MODEL_SPACE
70
0
10
0.0
20
0.0
30
0.0
3
*MODEL_SPACE
1

0
ENDBLK
5
43
100
AcDbEntity
8
0
100
AcDbBlockEnd
0
BLOCK
5
44
100
AcDbEntity
67
1
8
0
100
AcDbBlockBegin
2
*PAPER_SPACE
70
0
10
0.0
20
0.0
30
0.0
3
*PAPER_SPACE
1

0
ENDBLK
5
45
100
AcDbEntity
67
1
8
0
100
AcDbBlockEnd
0
BLOCK
5
46
100
AcDbEntity
8
0
100
AcDbBlockBegin
2
OPEN
70
0
10
0.0
20
0.0
30
0.0
3
OPEN
1

0
LINE
5
47
100
AcDbEntity
8
0
6
BYBLOCK
62
0
100
AcDbLine
10
0.000000
20
0.000000
11
-1.000000
21
0.000000
0
LINE
5
48
100
AcDbEntity
8
0
6
BYBLOCK
62
0
100
AcDbLine
10
-1.000000
20
-0.166667
11
0.000000
21
0.000000
0
LINE
5
49
100
AcDbEntity
8
0
6
BYBLOCK
62
0
100
AcDbLine
10
-1.000000
20
0.166667
11
0.000000
21
0.000000
0
ENDBLK
5
4a
100
AcDbEntity
8
0
100
AcDbBlockEnd
0
BLOCK
5
4b
100
AcDbEntity
8
0
100
AcDbBlockBegin
2
HALF
70
0
10
0.0
20
0.0
30
0.0
3
HALF
1

0
SOLID
5
4c
100
AcDbEntity
8
0
6
BYBLOCK
62
0
100
AcDbTrace
10
-1.000000
20
0.166667
11
-1.000000
21
-0.166667
12
0.000000
22
0.000000
13
0.000000
23
0.000000
0
ENDBLK
5
4d
100
AcDbEntity
8
0
100
AcDbBlockEnd
0
BLOCK
5
4e
100
AcDbEntity
8
0
100
AcDbBlockBegin
2
CLOSEDBLANK
70
0
10
0.0
20
0.0
30
0.0
3
CLOSEDBLANK
1

0
LINE
5
4f
100
AcDbEntity
8
0
6
BYBLOCK
62
0
100
AcDbLine
10
-1.000000
20
0.166667
11
-1.000000
21
-0.166667
0
LINE
5
50
100
AcDbEntity
8
0
6
BYBLOCK
62
0
100
AcDbLine
10
0.000000
20
0.000000
11
-1.000000
21
-0.166667
0
LINE
5
51
100
AcDbEntity
8
0
6
BYBLOCK
62
0
100
AcDbLine
10
-1.000000
20
0.166667
11
0.000000
21
0.000000
0
ENDBLK
5
52
100
AcDbEntity
8
0
100
AcDbBlockEnd
0
BLOCK
5
53
100
AcDbEntity
8
0
100
AcDbBlockBegin
2
HALFCLOSE_R
70
0
10
0.0
20
0.0
30
0.0
3
HALFCLOSE_R
1

0
LINE
5
54
100
AcDbEntity
8
0
6
BYBLOCK
62
0
100
AcDbLine
10
-1.000000
20
-0.166667
11
-1.000000
21
0.000000
0
LINE
5
55
100
AcDbEntity
8
0
6
BYBLOCK
62
0
100
AcDbLine
10
-1.000000
20
-0.166667
11
0.000000
21
0.000000
0
LINE
5
56
100
AcDbEntity
8
0
6
BYBLOCK
62
0
100
AcDbLine
10
0.000000
20
0.000000
11
-1.000000
21
0.000000
0
ENDBLK
5
57
100
AcDbEntity
8
0
100
AcDbBlockEnd
0
BLOCK
5
58
100
AcDbEntity
8
0
100
AcDbBlockBegin
2
DOT
70
0
10
0.0
20
0.0
30
0.0
3
DOT
1

0
LINE
5
59
100
AcDbEntity
8
0
6
BYBLOCK
62
0
100
AcDbLine
10
0.000000
20
0.000000
11
-1.000000
21
0.000000
0
POLYLINE
5
5a
100
AcDbEntity
8
0
6
BYBLOCK
62
0
100
AcDb2dPolyline
66
1
10
0.0
20
0.0
30
0.0
70
1
40
0.166667
41
0.166667
0
VERTEX
5
5b
100
AcDbEntity
8
0
100
AcDbVertex
100
AcDb2dVertex
62
10
10
-0.083333
20
0.000000
42
1.000000
0
VERTEX
5
5c
100
AcDbEntity
8
0
100
AcDbVertex
100
AcDb2dVertex
62
10
10
0.083333
20
0.000000
42
1.000000
0
SEQEND
5
5d
100
AcDbEntity
8
0
0
ENDBLK
5
5e
100
AcDbEntity
8
0
100
AcDbBlockEnd
0
BLOCK
5
5f
100
AcDbEntity
8
0
100
AcDbBlockBegin
2
HALFOPEN_R
70
0
10
0.0
20
0.0
30
0.0
3
HALFOPEN_R
1

0
LINE
5
60
100
AcDbEntity
8
0
6
BYBLOCK
62
0
100
AcDbLine
10
-1.000000
20
-0.166667
11
0.000000
21
0.000000
0
LINE
5
61
100
AcDbEntity
8
0
6
BYBLOCK
62
0
100
AcDbLine
10
0.000000
20
0.000000
11
-1.000000
21
0.000000
0
ENDBLK
5
62
100
AcDbEntity
8
0
100
AcDbBlockEnd
0
BLOCK
5
63
100
AcDbEntity
8
0
100
AcDbBlockBegin
2
CLOSEDF
70
0
10
0.0
20
0.0
30
0.0
3
CLOSEDF
1

0
SOLID
5
64
100
AcDbEntity
8
0
6
BYBLOCK
62
0
100
AcDbTrace
10
-1.000000
20
0.166667
11
-1.000000
21
-0.166667
12
0.000000
22
0.000000
13
0.000000
23
0.000000
0
ENDBLK
5
65
100
AcDbEntity
8
0
100
AcDbBlockEnd
0
BLOCK
5
66
100
AcDbEntity
8
0
100
AcDbBlockBegin
2
HALF_R
70
0
10
0.0
20
0.0
30
0.0
3
HALF_R
1

0
SOLID
5
67
100
AcDbEntity
8
0
6
BYBLOCK
62
0
100
AcDbTrace
10
-1.000000
20
-0.166667
11
-1.000000
21
0.000000
12
0.000000
22
0.000000
13
0.000000
23
0.000000
0
ENDBLK
5
68
100
AcDbEntity
8
0
100
AcDbBlockEnd
0
ENDSEC
0
SECTION
2
ENTITIES
0
LINE
5
69
100
AcDbEntity
8
0
100
AcDbLine
6
DOT2
62
5
10
252.012064
20
250.375000
11
251.387064
21
249.750000
0
POLYLINE
5
6a
100
AcDbEntity
8
0
6
DOT2
62
5
100
AcDb2dPolyline
66
1
10
0.0
20
0.0
30
0.0
70
0
0
VERTEX
5
6b
100
AcDbEntity
8
0
100
AcDbVertex
100
AcDb2dVertex
62
5
10
251.387064
20
250.375000
0
VERTEX
5
6c
100
AcDbEntity
8
0
100
AcDbVertex
100
AcDb2dVertex
62
5
10
252.012064
20
249.750000
0
VERTEX
5
6d
100
AcDbEntity
8
0
100
AcDbVertex
100
AcDb2dVertex
62
5
10
251.387064
20
249.750000
0
VERTEX
5
6e
100
AcDbEntity
8
0
100
AcDbVertex
100
AcDb2dVertex
62
5
10
251.387064
20
250.375000
0
VERTEX
5
6f
100
AcDbEntity
8
0
100
AcDbVertex
100
AcDb2dVertex
62
5
10
252.012064
20
250.375000
0
VERTEX
5
70
100
AcDbEntity
8
0
100
AcDbVertex
100
AcDb2dVertex
62
5
10
252.012064
20
249.750000
0
SEQEND
5
71
100
AcDbEntity
8
0
0
POLYLINE
5
72
100
AcDbEntity
8
0
6
DOT2
62
5
100
AcDb2dPolyline
66
1
10
0.0
20
0.0
30
0.0
70
0
0
VERTEX
5
73
100
AcDbEntity
8
0
100
AcDbVertex
100
AcDb2dVertex
62
5
10
257.012064
20
256.625000
0
VERTEX
5
74
100
AcDbEntity
8
0
100
AcDbVertex
100
AcDb2dVertex
62
5
10
257.949564
20
257.250000
0
VERTEX
5
75
100
AcDbEntity
8
0
100
AcDbVertex
100
AcDb2dVertex
62
5
10
257.949564
20
249.750000
0
SEQEND
5
76
100
AcDbEntity
8
0
0
LINE
5
77
100
AcDbEntity
8
0
100
AcDbLine
6
DOT2
62
5
10
257.324564
20
249.750000
11
258.574564
21
249.750000
0
POLYLINE
5
78
100
AcDbEntity
8
0
6
DOT2
62
5
100
AcDb2dPolyline
66
1
10
0.0
20
0.0
30
0.0
70
0
0
VERTEX
5
79
100
AcDbEntity
8
0
100
AcDbVertex
100
AcDb2dVertex
62
5
10
242.012064
20
256.625000
0
VERTEX
5
7a
100
AcDbEntity
8
0
100
AcDbVertex
100
AcDb2dVertex
62
5
10
242.949564
20
257.250000
0
VERTEX
5
7b
100
AcDbEntity
8
0
100
AcDbVertex
100
AcDb2dVertex
62
5
10
242.949564
20
249.750000
0
SEQEND
5
7c
100
AcDbEntity
8
0
0
LINE
5
7d
100
AcDbEntity
8
0
100
AcDbLine
6
DOT2
62
5
10
242.324564
20
249.750000
11
243.574564
21
249.750000
0
POLYLINE
5
7e
100
AcDbEntity
8
0
6
DOT2
62
5
100
AcDb2dPolyline
66
1
10
0.0
20
0.0
30
0.0
70
0
0
VERTEX
5
7f
100
AcDbEntity
8
0
100
AcDbVertex
100
AcDb2dVertex
62
5
10
249.512064
20
253.187500
0
VERTEX
5
80
100
AcDbEntity
8
0
100
AcDbVertex
100
AcDb2dVertex
62
5
10
249.512064
20
253.187500
0
VERTEX
5
81
100
AcDbEntity
8
0
100
AcDbVertex
100
AcDb2dVertex
62
5
10
248.262064
20
252.875000
0
VERTEX
5
82
100
AcDbEntity
8
0
100
AcDbVertex
100
AcDb2dVertex
62
5
10
247.324564
20
252.875000
0
VERTEX
5
83
100
AcDbEntity
8
0
100
AcDbVertex
100
AcDb2dVertex
62
5
10
246.699564
20
253.187500
0
VERTEX
5
84
100
AcDbEntity
8
0
100
AcDbVertex
100
AcDb2dVertex
62
5
10
246.387064
20
254.125000
0
VERTEX
5
85
100
AcDbEntity
8
0
100
AcDbVertex
100
AcDb2dVertex
62
5
10
246.387064
20
255.687500
0
VERTEX
5
86
100
AcDbEntity
8
0
100
AcDbVertex
100
AcDb2dVertex
62
5
10
246.699564
20
256.625000
0
VERTEX
5
87
100
AcDbEntity
8
0
100
AcDbVertex
100
AcDb2dVertex
62
5
10
247.012064
20
256.937500
0
VERTEX
5
88
100
AcDbEntity
8
0
100
AcDbVertex
100
AcDb2dVertex
62
5
10
247.637064
20
257.250000
0
VERTEX
5
89
100
AcDbEntity
8
0
100
AcDbVertex
100
AcDb2dVertex
62
5
10
248.262064
20
257.250000
0
VERTEX
5
8a
100
AcDbEntity
8
0
100
AcDbVertex
100
AcDb2dVertex
62
5
10
248.887064
20
256.937500
0
VERTEX
5
8b
100
AcDbEntity
8
0
100
AcDbVertex
100
AcDb2dVertex
62
5
10
249.199564
20
256.625000
0
VERTEX
5
8c
100
AcDbEntity
8
0
100
AcDbVertex
100
AcDb2dVertex
62
5
10
249.512064
20
255.687500
0
VERTEX
5
8d
100
AcDbEntity
8
0
100
AcDbVertex
100
AcDb2dVertex
62
5
10
249.512064
20
252.250000
0
VERTEX
5
8e
100
AcDbEntity
8
0
100
AcDbVertex
100
AcDb2dVertex
62
5
10
249.199564
20
250.687500
0
VERTEX
5
8f
100
AcDbEntity
8
0
100
AcDbVertex
100
AcDb2dVertex
62
5
10
248.574564
20
250.062500
0
VERTEX
5
90
100
AcDbEntity
8
0
100
AcDbVertex
100
AcDb2dVertex
62
5
10
247.637064
20
249.750000
0
VERTEX
5
91
100
AcDbEntity
8
0
100
AcDbVertex
100
AcDb2dVertex
62
5
10
247.012064
20
249.750000
0
SEQEND
5
92
100
AcDbEntity
8
0
0
POLYLINE
5
93
100
AcDbEntity
8
1
6
CONTINUOUS
62
5
100
AcDb2dPolyline
66
1
10
0.0
20
0.0
30
0.0
70
0
0
VERTEX
5
94
100
AcDbEntity
8
1
100
AcDbVertex
100
AcDb2dVertex
62
5
10
227.250000
20
329.312500
0
VERTEX
5
95
100
AcDbEntity
8
1
100
AcDbVertex
100
AcDb2dVertex
62
5
10
228.000000
20
328.062500
0
VERTEX
5
96
100
AcDbEntity
8
1
100
AcDbVertex
100
AcDb2dVertex
62
5
10
228.750000
20
326.500000
0
VERTEX
5
97
100
AcDbEntity
8
1
100
AcDbVertex
100
AcDb2dVertex
62
5
10
229.000000
20
325.250000
0
VERTEX
5
98
100
AcDbEntity
8
1
100
AcDbVertex
100
AcDb2dVertex
62
5
10
228.750000
20
324.000000
0
VERTEX
5
99
100
AcDbEntity
8
1
100
AcDbVertex
100
AcDb2dVertex
62
5
10
228.250000
20
322.437500
0
VERTEX
5
9a
100
AcDbEntity
8
1
100
AcDbVertex
100
AcDb2dVertex
62
5
10
227.250000
20
320.875000
0
SEQEND
5
9b
100
AcDbEntity
8
1
0
LINE
5
9c
100
AcDbEntity
8
1
100
AcDbLine
6
CONTINUOUS
62
5
10
211.000000
20
329.000000
11
212.000000
21
327.750000
0
LINE
5
9d
100
AcDbEntity
8
1
100
AcDbLine
6
CONTINUOUS
62
5
10
210.500000
20
326.500000
11
211.750000
21
325.562500
0
POLYLINE
5
9e
100
AcDbEntity
8
1
6
CONTINUOUS
62
5
100
AcDb2dPolyline
66
1
10
0.0
20
0.0
30
0.0
70
0
0
VERTEX
5
9f
100
AcDbEntity
8
1
100
AcDbVertex
100
AcDb2dVertex
62
5
10
210.500000
20
321.187500
0
VERTEX
5
a0
100
AcDbEntity
8
1
100
AcDbVertex
100
AcDb2dVertex
62
5
10
211.500000
20
322.750000
0
VERTEX
5
a1
100
AcDbEntity
8
1
100
AcDbVertex
100
AcDb2dVertex
62
5
10
212.250000
20
324.625000
0
SEQEND
5
a2
100
AcDbEntity
8
1
0
LINE
5
a3
100
AcDbEntity
8
1
100
AcDbLine
6
CONTINUOUS
62
5
10
214.750000
20
329.625000
11
214.750000
21
328.375000
0
LINE
5
a4
100
AcDbEntity
8
1
100
AcDbLine
6
CONTINUOUS
62
5
10
212.500000
20
328.375000
11
217.250000
21
328.375000
0
LINE
5
a5
100
AcDbEntity
8
1
100
AcDbLine
6
CONTINUOUS
62
5
10
214.750000
20
328.375000
11
213.500000
21
326.187500
0
POLYLINE
5
a6
100
AcDbEntity
8
1
6
CONTINUOUS
62
5
100
AcDb2dPolyline
66
1
10
0.0
20
0.0
30
0.0
70
0
0
VERTEX
5
a7
100
AcDbEntity
8
1
100
AcDbVertex
100
AcDb2dVertex
62
5
10
213.000000
20
326.187500
0
VERTEX
5
a8
100
AcDbEntity
8
1
100
AcDbVertex
100
AcDb2dVertex
62
5
10
213.500000
20
326.187500
0
VERTEX
5
a9
100
AcDbEntity
8
1
100
AcDbVertex
100
AcDb2dVertex
62
5
10
216.250000
20
326.500000
0
SEQEND
5
aa
100
AcDbEntity
8
1
0
LINE
5
ab
100
AcDbEntity
8
1
100
AcDbLine
6
CONTINUOUS
62
5
10
215.500000
20
327.437500
11
216.750000
21
325.875000
0
POLYLINE
5
ac
100
AcDbEntity
8
1
6
CONTINUOUS
62
5
100
AcDb2dPolyline
66
1
10
0.0
20
0.0
30
0.0
70
0
0
VERTEX
5
ad
100
AcDbEntity
8
1
100
AcDbVertex
100
AcDb2dVertex
62
5
10
213.500000
20
325.250000
0
VERTEX
5
ae
100
AcDbEntity
8
1
100
AcDbVertex
100
AcDb2dVertex
62
5
10
213.500000
20
323.375000
0
VERTEX
5
af
100
AcDbEntity
8
1
100
AcDbVertex
100
AcDb2dVertex
62
5
10
213.250000
20
322.437500
0
VERTEX
5
b0
100
AcDbEntity
8
1
100
AcDbVertex
100
AcDb2dVertex
62
5
10
212.750000
20
321.500000
0
VERTEX
5
b1
100
AcDbEntity
8
1
100
AcDbVertex
100
AcDb2dVertex
62
5
10
212.500000
20
321.187500
0
SEQEND
5
b2
100
AcDbEntity
8
1
0
LINE
5
b3
100
AcDbEntity
8
1
100
AcDbLine
6
CONTINUOUS
62
5
10
214.750000
20
325.250000
11
214.750000
21
321.187500
0
POLYLINE
5
b4
100
AcDbEntity
8
1
6
CONTINUOUS
62
5
100
AcDb2dPolyline
66
1
10
0.0
20
0.0
30
0.0
70
0
0
VERTEX
5
b5
100
AcDbEntity
8
1
100
AcDbVertex
100
AcDb2dVertex
62
5
10
216.000000
20
325.562500
0
VERTEX
5
b6
100
AcDbEntity
8
1
100
AcDbVertex
100
AcDb2dVertex
62
5
10
216.000000
20
321.500000
0
VERTEX
5
b7
100
AcDbEntity
8
1
100
AcDbVertex
100
AcDb2dVertex
62
5
10
216.250000
20
321.187500
0
VERTEX
5
b8
100
AcDbEntity
8
1
100
AcDbVertex
100
AcDb2dVertex
62
5
10
217.500000
20
321.187500
0
VERTEX
5
b9
100
AcDbEntity
8
1
100
AcDbVertex
100
AcDb2dVertex
62
5
10
217.500000
20
322.437500
0
SEQEND
5
ba
100
AcDbEntity
8
1
0
LINE
5
bb
100
AcDbEntity
8
1
100
AcDbLine
6
CONTINUOUS
62
5
10
218.500000
20
329.000000
11
222.000000
21
329.000000
0
LINE
5
bc
100
AcDbEntity
8
1
100
AcDbLine
6
CONTINUOUS
62
5
10
218.250000
20
325.875000
11
222.500000
21
325.875000
0
POLYLINE
5
bd
100
AcDbEntity
8
1
6
CONTINUOUS
62
5
100
AcDb2dPolyline
66
1
10
0.0
20
0.0
30
0.0
70
0
0
VERTEX
5
be
100
AcDbEntity
8
1
100
AcDbVertex
100
AcDb2dVertex
62
5
10
219.500000
20
329.000000
0
VERTEX
5
bf
100
AcDbEntity
8
1
100
AcDbVertex
100
AcDb2dVertex
62
5
10
219.500000
20
324.625000
0
VERTEX
5
c0
100
AcDbEntity
8
1
100
AcDbVertex
100
AcDb2dVertex
62
5
10
219.250000
20
322.437500
0
VERTEX
5
c1
100
AcDbEntity
8
1
100
AcDbVertex
100
AcDb2dVertex
62
5
10
218.500000
20
320.562500
0
SEQEND
5
c2
100
AcDbEntity
8
1
0
LINE
5
c3
100
AcDbEntity
8
1
100
AcDbLine
6
CONTINUOUS
62
5
10
221.000000
20
329.000000
11
221.000000
21
320.562500
0
POLYLINE
5
c4
100
AcDbEntity
8
1
6
CONTINUOUS
62
5
100
AcDb2dPolyline
66
1
10
0.0
20
0.0
30
0.0
70
0
0
VERTEX
5
c5
100
AcDbEntity
8
1
100
AcDbVertex
100
AcDb2dVertex
62
5
10
224.750000
20
329.312500
0
VERTEX
5
c6
100
AcDbEntity
8
1
100
AcDbVertex
100
AcDb2dVertex
62
5
10
223.250000
20
327.750000
0
VERTEX
5
c7
100
AcDbEntity
8
1
100
AcDbVertex
100
AcDb2dVertex
62
5
10
222.000000
20
326.812500
0
SEQEND
5
c8
100
AcDbEntity
8
1
0
POLYLINE
5
c9
100
AcDbEntity
8
1
6
CONTINUOUS
62
5
100
AcDb2dPolyline
66
1
10
0.0
20
0.0
30
0.0
70
0
0
VERTEX
5
ca
100
AcDbEntity
8
1
100
AcDbVertex
100
AcDb2dVertex
62
5
10
225.000000
20
326.812500
0
VERTEX
5
cb
100
AcDbEntity
8
1
100
AcDbVertex
100
AcDb2dVertex
62
5
10
224.000000
20
325.562500
0
VERTEX
5
cc
100
AcDbEntity
8
1
100
AcDbVertex
100
AcDb2dVertex
62
5
10
223.250000
20
324.937500
0
VERTEX
5
cd
100
AcDbEntity
8
1
100
AcDbVertex
100
AcDb2dVertex
62
5
10
222.500000
20
324.312500
0
SEQEND
5
ce
100
AcDbEntity
8
1
0
POLYLINE
5
cf
100
AcDbEntity
8
1
6
CONTINUOUS
62
5
100
AcDb2dPolyline
66
1
10
0.0
20
0.0
30
0.0
70
0
0
VERTEX
5
d0
100
AcDbEntity
8
1
100
AcDbVertex
100
AcDb2dVertex
62
5
10
225.250000
20
324.000000
0
VERTEX
5
d1
100
AcDbEntity
8
1
100
AcDbVertex
100
AcDb2dVertex
62
5
10
224.500000
20
323.062500
0
VERTEX
5
d2
100
AcDbEntity
8
1
100
AcDbVertex
100
AcDb2dVertex
62
5
10
223.750000
20
322.125000
0
VERTEX
5
d3
100
AcDbEntity
8
1
100
AcDbVertex
100
AcDb2dVertex
62
5
10
222.250000
20
320.875000
0
SEQEND
5
d4
100
AcDbEntity
8
1
0
LINE
5
d5
100
AcDbEntity
8
1
100
AcDbLine
6
CONTINUOUS
62
5
10
206.000000
20
321.500000
11
204.500000
21
320.562500
0
POLYLINE
5
d6
100
AcDbEntity
8
1
6
CONTINUOUS
62
5
100
AcDb2dPolyline
66
1
10
0.0
20
0.0
30
0.0
70
1
0
VERTEX
5
d7
100
AcDbEntity
8
1
100
AcDbVertex
100
AcDb2dVertex
62
5
10
202.750000
20
327.750000
0
VERTEX
5
d8
100
AcDbEntity
8
1
100
AcDbVertex
100
AcDb2dVertex
62
5
10
202.750000
20
323.687500
0
VERTEX
5
d9
100
AcDbEntity
8
1
100
AcDbVertex
100
AcDb2dVertex
62
5
10
204.250000
20
323.687500
0
VERTEX
5
da
100
AcDbEntity
8
1
100
AcDbVertex
100
AcDb2dVertex
62
5
10
204.250000
20
327.750000
0
VERTEX
5
db
100
AcDbEntity
8
1
100
AcDbVertex
100
AcDb2dVertex
62
5
10
202.750000
20
327.750000
0
SEQEND
5
dc
100
AcDbEntity
8
1
0
LINE
5
dd
100
AcDbEntity
8
1
100
AcDbLine
6
CONTINUOUS
62
5
10
205.000000
20
328.375000
11
208.750000
21
328.375000
0
LINE
5
de
100
AcDbEntity
8
1
100
AcDbLine
6
CONTINUOUS
62
5
10
204.750000
20
327.125000
11
209.500000
21
327.125000
0
LINE
5
df
100
AcDbEntity
8
1
100
AcDbLine
6
CONTINUOUS
62
5
10
206.750000
20
329.625000
11
206.750000
21
327.750000
0
LINE
5
e0
100
AcDbEntity
8
1
100
AcDbLine
6
CONTINUOUS
62
5
10
206.000000
20
327.750000
11
206.000000
21
326.187500
0
LINE
5
e1
100
AcDbEntity
8
1
100
AcDbLine
6
CONTINUOUS
62
5
10
208.000000
20
327.750000
11
208.000000
21
326.187500
0
POLYLINE
5
e2
100
AcDbEntity
8
1
6
CONTINUOUS
62
5
100
AcDb2dPolyline
66
1
10
0.0
20
0.0
30
0.0
70
1
0
VERTEX
5
e3
100
AcDbEntity
8
1
100
AcDbVertex
100
AcDb2dVertex
62
5
10
205.250000
20
325.562500
0
VERTEX
5
e4
100
AcDbEntity
8
1
100
AcDbVertex
100
AcDb2dVertex
62
5
10
205.250000
20
322.125000
0
VERTEX
5
e5
100
AcDbEntity
8
1
100
AcDbVertex
100
AcDb2dVertex
62
5
10
208.500000
20
322.125000
0
VERTEX
5
e6
100
AcDbEntity
8
1
100
AcDbVertex
100
AcDb2dVertex
62
5
10
208.500000
20
325.562500
0
VERTEX
5
e7
100
AcDbEntity
8
1
100
AcDbVertex
100
AcDb2dVertex
62
5
10
205.250000
20
325.562500
0
SEQEND
5
e8
100
AcDbEntity
8
1
0
LINE
5
e9
100
AcDbEntity
8
1
100
AcDbLine
6
CONTINUOUS
62
5
10
205.250000
20
324.312500
11
208.500000
21
324.312500
0
LINE
5
ea
100
AcDbEntity
8
1
100
AcDbLine
6
CONTINUOUS
62
5
10
205.250000
20
323.375000
11
208.500000
21
323.375000
0
LINE
5
eb
100
AcDbEntity
8
1
100
AcDbLine
6
CONTINUOUS
62
5
10
207.750000
20
321.500000
11
209.250000
21
320.562500
0
POLYLINE
5
ec
100
AcDbEntity
8
1
6
CONTINUOUS
62
5
100
AcDb2dPolyline
66
1
10
0.0
20
0.0
30
0.0
70
0
0
VERTEX
5
ed
100
AcDbEntity
8
1
100
AcDbVertex
100
AcDb2dVertex
62
5
10
192.500000
20
329.312500
0
VERTEX
5
ee
100
AcDbEntity
8
1
100
AcDbVertex
100
AcDb2dVertex
62
5
10
191.750000
20
328.062500
0
VERTEX
5
ef
100
AcDbEntity
8
1
100
AcDbVertex
100
AcDb2dVertex
62
5
10
191.000000
20
326.500000
0
VERTEX
5
f0
100
AcDbEntity
8
1
100
AcDbVertex
100
AcDb2dVertex
62
5
10
190.750000
20
325.250000
0
VERTEX
5
f1
100
AcDbEntity
8
1
100
AcDbVertex
100
AcDb2dVertex
62
5
10
191.000000
20
324.000000
0
VERTEX
5
f2
100
AcDbEntity
8
1
100
AcDbVertex
100
AcDb2dVertex
62
5
10
191.500000
20
322.437500
0
VERTEX
5
f3
100
AcDbEntity
8
1
100
AcDbVertex
100
AcDb2dVertex
62
5
10
192.500000
20
320.875000
0
SEQEND
5
f4
100
AcDbEntity
8
1
0
POLYLINE
5
f5
100
AcDbEntity
8
1
6
CONTINUOUS
62
5
100
AcDb2dPolyline
66
1
10
0.0
20
0.0
30
0.0
70
0
0
VERTEX
5
f6
100
AcDbEntity
8
1
100
AcDbVertex
100
AcDb2dVertex
62
5
10
195.000000
20
326.500000
0
VERTEX
5
f7
100
AcDbEntity
8
1
100
AcDbVertex
100
AcDb2dVertex
62
5
10
196.250000
20
324.937500
0
VERTEX
5
f8
100
AcDbEntity
8
1
100
AcDbVertex
100
AcDb2dVertex
62
5
10
196.250000
20
323.687500
0
VERTEX
5
f9
100
AcDbEntity
8
1
100
AcDbVertex
100
AcDb2dVertex
62
5
10
195.750000
20
323.062500
0
VERTEX
5
fa
100
AcDbEntity
8
1
100
AcDbVertex
100
AcDb2dVertex
62
5
10
195.000000
20
323.062500
0
SEQEND
5
fb
100
AcDbEntity
8
1
0
POLYLINE
5
fc
100
AcDbEntity
8
1
6
CONTINUOUS
62
5
100
AcDb2dPolyline
66
1
10
0.0
20
0.0
30
0.0
70
0
0
VERTEX
5
fd
100
AcDbEntity
8
1
100
AcDbVertex
100
AcDb2dVertex
62
5
10
200.500000
20
325.250000
0
VERTEX
5
fe
100
AcDbEntity
8
1
100
AcDbVertex
100
AcDb2dVertex
62
5
10
200.500000
20
323.375000
0
VERTEX
5
ff
100
AcDbEntity
8
1
100
AcDbVertex
100
AcDb2dVertex
62
5
10
200.250000
20
321.812500
0
VERTEX
5
100
100
AcDbEntity
8
1
100
AcDbVertex
100
AcDb2dVertex
62
5
10
199.750000
20
320.875000
0
VERTEX
5
101
100
AcDbEntity
8
1
100
AcDbVertex
100
AcDb2dVertex
62
5
10
198.750000
20
321.500000
0
SEQEND
5
102
100
AcDbEntity
8
1
0
POLYLINE
5
103
100
AcDbEntity
8
1
6
CONTINUOUS
62
5
100
AcDb2dPolyline
66
1
10
0.0
20
0.0
30
0.0
70
0
0
VERTEX
5
104
100
AcDbEntity
8
1
100
AcDbVertex
100
AcDb2dVertex
62
5
10
194.500000
20
320.562500
0
VERTEX
5
105
100
AcDbEntity
8
1
100
AcDbVertex
100
AcDb2dVertex
62
5
10
194.500000
20
328.687500
0
VERTEX
5
106
100
AcDbEntity
8
1
100
AcDbVertex
100
AcDb2dVertex
62
5
10
196.500000
20
328.687500
0
VERTEX
5
107
100
AcDbEntity
8
1
100
AcDbVertex
100
AcDb2dVertex
62
5
10
195.000000
20
326.500000
0
SEQEND
5
108
100
AcDbEntity
8
1
0
LINE
5
109
100
AcDbEntity
8
1
100
AcDbLine
6
CONTINUOUS
62
5
10
196.750000
20
328.062500
11
201.500000
21
328.062500
0
LINE
5
10a
100
AcDbEntity
8
1
100
AcDbLine
6
CONTINUOUS
62
5
10
199.000000
20
329.625000
11
199.000000
21
328.062500
0
POLYLINE
5
10b
100
AcDbEntity
8
1
6
CONTINUOUS
62
5
100
AcDb2dPolyline
66
1
10
0.0
20
0.0
30
0.0
70
0
0
VERTEX
5
10c
100
AcDbEntity
8
1
100
AcDbVertex
100
AcDb2dVertex
62
5
10
198.250000
20
328.062500
0
VERTEX
5
10d
100
AcDbEntity
8
1
100
AcDbVertex
100
AcDb2dVertex
62
5
10
198.250000
20
325.250000
0
VERTEX
5
10e
100
AcDbEntity
8
1
100
AcDbVertex
100
AcDb2dVertex
62
5
10
197.750000
20
322.750000
0
VERTEX
5
10f
100
AcDbEntity
8
1
100
AcDbVertex
100
AcDb2dVertex
62
5
10
197.000000
20
321.500000
0
VERTEX
5
110
100
AcDbEntity
8
1
100
AcDbVertex
100
AcDb2dVertex
62
5
10
196.000000
20
320.875000
0
SEQEND
5
111
100
AcDbEntity
8
1
0
LINE
5
112
100
AcDbEntity
8
1
100
AcDbLine
6
CONTINUOUS
62
5
10
198.250000
20
325.250000
11
200.500000
21
325.250000
0
LINE
5
113
100
AcDbEntity
8
1
100
AcDbLine
6
CONTINUOUS
62
5
10
183.000000
20
329.000000
11
185.250000
21
329.000000
0
POLYLINE
5
114
100
AcDbEntity
8
1
6
CONTINUOUS
62
5
100
AcDb2dPolyline
66
1
10
0.0
20
0.0
30
0.0
70
0
0
VERTEX
5
115
100
AcDbEntity
8
1
100
AcDbVertex
100
AcDb2dVertex
62
5
10
183.000000
20
329.000000
0
VERTEX
5
116
100
AcDbEntity
8
1
100
AcDbVertex
100
AcDb2dVertex
62
5
10
183.000000
20
325.250000
0
VERTEX
5
117
100
AcDbEntity
8
1
100
AcDbVertex
100
AcDb2dVertex
62
5
10
183.500000
20
325.875000
0
VERTEX
5
118
100
AcDbEntity
8
1
100
AcDbVertex
100
AcDb2dVertex
62
5
10
184.000000
20
326.187500
0
VERTEX
5
119
100
AcDbEntity
8
1
100
AcDbVertex
100
AcDb2dVertex
62
5
10
184.750000
20
326.187500
0
VERTEX
5
11a
100
AcDbEntity
8
1
100
AcDbVertex
100
AcDb2dVertex
62
5
10
185.250000
20
325.875000
0
VERTEX
5
11b
100
AcDbEntity
8
1
100
AcDbVertex
100
AcDb2dVertex
62
5
10
185.500000
20
324.937500
0
VERTEX
5
11c
100
AcDbEntity
8
1
100
AcDbVertex
100
AcDb2dVertex
62
5
10
185.500000
20
323.062500
0
VERTEX
5
11d
100
AcDbEntity
8
1
100
AcDbVertex
100
AcDb2dVertex
62
5
10
185.000000
20
322.125000
0
VERTEX
5
11e
100
AcDbEntity
8
1
100
AcDbVertex
100
AcDb2dVertex
62
5
10
184.250000
20
321.500000
0
VERTEX
5
11f
100
AcDbEntity
8
1
100
AcDbVertex
100
AcDb2dVertex
62
5
10
183.000000
20
321.500000
0
SEQEND
5
120
100
AcDbEntity
8
1
0
LINE
5
121
100
AcDbEntity
8
1
100
AcDbLine
6
CONTINUOUS
62
5
10
171.500000
20
329.000000
11
173.000000
21
329.000000
0
LINE
5
122
100
AcDbEntity
8
1
100
AcDbLine
6
CONTINUOUS
62
5
10
172.250000
20
329.000000
11
172.250000
21
321.500000
0
LINE
5
123
100
AcDbEntity
8
1
100
AcDbLine
6
CONTINUOUS
62
5
10
171.500000
20
321.500000
11
173.000000
21
321.500000
0
LINE
5
124
100
AcDbEntity
8
1
100
AcDbLine
6
CONTINUOUS
62
5
10
175.000000
20
329.000000
11
175.000000
21
321.500000
0
POLYLINE
5
125
100
AcDbEntity
8
1
6
CONTINUOUS
62
5
100
AcDb2dPolyline
66
1
10
0.0
20
0.0
30
0.0
70
0
0
VERTEX
5
126
100
AcDbEntity
8
1
100
AcDbVertex
100
AcDb2dVertex
62
5
10
175.000000
20
329.000000
0
VERTEX
5
127
100
AcDbEntity
8
1
100
AcDbVertex
100
AcDb2dVertex
62
5
10
176.000000
20
329.000000
0
VERTEX
5
128
100
AcDbEntity
8
1
100
AcDbVertex
100
AcDb2dVertex
62
5
10
176.750000
20
328.687500
0
VERTEX
5
129
100
AcDbEntity
8
1
100
AcDbVertex
100
AcDb2dVertex
62
5
10
177.250000
20
328.062500
0
VERTEX
5
12a
100
AcDbEntity
8
1
100
AcDbVertex
100
AcDb2dVertex
62
5
10
177.500000
20
327.437500
0
VERTEX
5
12b
100
AcDbEntity
8
1
100
AcDbVertex
100
AcDb2dVertex
62
5
10
177.500000
20
326.500000
0
VERTEX
5
12c
100
AcDbEntity
8
1
100
AcDbVertex
100
AcDb2dVertex
62
5
10
177.250000
20
325.875000
0
VERTEX
5
12d
100
AcDbEntity
8
1
100
AcDbVertex
100
AcDb2dVertex
62
5
10
176.750000
20
325.250000
0
VERTEX
5
12e
100
AcDbEntity
8
1
100
AcDbVertex
100
AcDb2dVertex
62
5
10
176.000000
20
324.937500
0
VERTEX
5
12f
100
AcDbEntity
8
1
100
AcDbVertex
100
AcDb2dVertex
62
5
10
175.000000
20
324.937500
0
SEQEND
5
130
100
AcDbEntity
8
1
0
LINE
5
131
100
AcDbEntity
8
1
100
AcDbLine
6
CONTINUOUS
62
5
10
179.000000
20
329.000000
11
181.500000
21
321.500000
0
LINE
5
132
100
AcDbEntity
8
1
100
AcDbLine
6
CONTINUOUS
62
5
10
181.500000
20
329.000000
11
179.000000
21
321.500000
0
POLYLINE
5
133
100
AcDbEntity
8
1
6
CONTINUOUS
62
5
100
AcDb2dPolyline
66
1
10
0.0
20
0.0
30
0.0
70
0
0
VERTEX
5
134
100
AcDbEntity
8
1
100
AcDbVertex
100
AcDb2dVertex
62
5
10
154.750000
20
325.562500
0
VERTEX
5
135
100
AcDbEntity
8
1
100
AcDbVertex
100
AcDb2dVertex
62
5
10
155.000000
20
325.250000
0
VERTEX
5
136
100
AcDbEntity
8
1
100
AcDbVertex
100
AcDb2dVertex
62
5
10
161.750000
20
325.250000
0
SEQEND
5
137
100
AcDbEntity
8
1
0
ARC
5
138
100
AcDbEntity
8
0
100
AcDbCircle
6
CONTINUOUS
62
5
10
220.937064
20
218.100000
40
0.300000
100
AcDbArc
50
89.999999
51
133.093175
0
LINE
5
139
100
AcDbEntity
8
0
100
AcDbLine
6
CONTINUOUS
62
5
10
220.937064
20
218.400000
11
221.137064
21
218.400000
0
LINE
5
13a
100
AcDbEntity
8
0
100
AcDbLine
6
CONTINUOUS
62
5
10
220.705803
20
218.383422
11
221.137064
21
218.394715
0
LINE
5
13b
100
AcDbEntity
8
0
100
AcDbLine
6
CONTINUOUS
62
5
10
220.948971
20
217.376204
11
220.959402
21
217.282407
0
LINE
5
13c
100
AcDbEntity
8
0
100
AcDbLine
6
CONTINUOUS
62
5
10
220.959402
20
217.282407
11
220.969055
21
217.188392
0
LINE
5
13d
100
AcDbEntity
8
0
100
AcDbLine
6
CONTINUOUS
62
5
10
220.969055
20
217.188392
11
220.978189
21
217.094232
0
LINE
5
13e
100
AcDbEntity
8
0
100
AcDbLine
6
CONTINUOUS
62
5
10
220.978189
20
217.094232
11
220.987064
21
217.000000
0
LINE
5
13f
100
AcDbEntity
8
0
100
AcDbLine
6
CONTINUOUS
62
5
10
220.987064
20
215.609213
11
221.137064
21
215.605285
0
LINE
5
140
100
AcDbEntity
8
0
100
AcDbLine
6
CONTINUOUS
62
5
10
220.987064
20
215.600000
11
221.137064
21
215.600000
0
LINE
5
141
100
AcDbEntity
8
0
100
AcDbLine
6
CONTINUOUS
62
5
10
220.777346
20
218.198638
11
220.806388
21
218.110055
0
LINE
5
142
100
AcDbEntity
8
0
100
AcDbLine
6
CONTINUOUS
62
5
10
220.806388
20
218.110055
11
220.832381
21
218.020607
0
LINE
5
143
100
AcDbEntity
8
0
100
AcDbLine
6
CONTINUOUS
62
5
10
220.832381
20
218.020607
11
220.855520
21
217.930361
0
LINE
5
144
100
AcDbEntity
8
0
100
AcDbLine
6
CONTINUOUS
62
5
10
220.855520
20
217.930361
11
220.876067
21
217.839391
0
LINE
5
145
100
AcDbEntity
8
0
100
AcDbLine
6
CONTINUOUS
62
5
10
220.876067
20
217.839391
11
220.894278
21
217.747769
0
LINE
5
146
100
AcDbEntity
8
0
100
AcDbLine
6
CONTINUOUS
62
5
10
220.894278
20
217.747769
11
220.910415
21
217.655566
0
LINE
5
147
100
AcDbEntity
8
0
100
AcDbLine
6
CONTINUOUS
62
5
10
220.910415
20
217.655566
11
220.924737
21
217.562856
0
LINE
5
148
100
AcDbEntity
8
0
100
AcDbLine
6
CONTINUOUS
62
5
10
220.924737
20
217.562856
11
220.937502
21
217.469711
0
LINE
5
149
100
AcDbEntity
8
0
100
AcDbLine
6
CONTINUOUS
62
5
10
220.937502
20
217.469711
11
220.948971
21
217.376204
0
LINE
5
14a
100
AcDbEntity
8
0
100
AcDbLine
6
CONTINUOUS
62
5
10
220.632272
20
218.543472
11
220.672658
21
218.458769
0
LINE
5
14b
100
AcDbEntity
8
0
100
AcDbLine
6
CONTINUOUS
62
5
10
220.672658
20
218.458769
11
220.710372
21
218.373035
0
LINE
5
14c
100
AcDbEntity
8
0
100
AcDbLine
6
CONTINUOUS
62
5
10
220.710372
20
218.373035
11
220.745304
21
218.286312
0
LINE
5
14d
100
AcDbEntity
8
0
100
AcDbLine
6
CONTINUOUS
62
5
10
220.745304
20
218.286312
11
220.777346
21
218.198638
0
LINE
5
14e
100
AcDbEntity
8
0
100
AcDbLine
6
CONTINUOUS
62
5
10
220.987064
20
213.608527
11
221.137064
21
213.604599
0
LINE
5
14f
100
AcDbEntity
8
0
100
AcDbLine
6
CONTINUOUS
62
5
10
217.259895
20
215.770816
11
217.526485
21
216.000777
0
LINE
5
150
100
AcDbEntity
8
0
100
AcDbLine
6
CONTINUOUS
62
5
10
217.037811
20
216.106595
11
217.185389
21
215.786949
0
LINE
5
151
100
AcDbEntity
8
0
100
AcDbLine
6
CONTINUOUS
62
5
10
216.675738
20
216.049079
11
217.021593
21
216.114937
0
LINE
5
152
100
AcDbEntity
8
0
100
AcDbLine
6
CONTINUOUS
62
5
10
216.651297
20
216.450915
11
216.619280
21
216.100305
0
LINE
5
153
100
AcDbEntity
8
0
100
AcDbLine
6
CONTINUOUS
62
5
10
216.308974
20
216.582141
11
216.641422
21
216.466248
0
LINE
5
154
100
AcDbEntity
8
0
100
AcDbLine
6
CONTINUOUS
62
5
10
216.488726
20
216.942362
11
216.285693
21
216.654733
0
LINE
5
155
100
AcDbEntity
8
0
100
AcDbLine
6
CONTINUOUS
62
5
10
216.257879
20
217.227168
11
216.487841
21
216.960578
0
LINE
5
156
100
AcDbEntity
8
0
100
AcDbLine
6
CONTINUOUS
62
5
10
216.593659
20
217.449253
11
216.274013
21
217.301675
0
LINE
5
157
100
AcDbEntity
8
0
100
AcDbLine
6
CONTINUOUS
62
5
10
216.536143
20
217.811326
11
216.602001
21
217.465471
0
LINE
5
158
100
AcDbEntity
8
0
100
AcDbLine
6
CONTINUOUS
62
5
10
216.937979
20
217.835767
11
216.587368
21
217.867783
0
LINE
5
159
100
AcDbEntity
8
0
100
AcDbLine
6
CONTINUOUS
62
5
10
217.936316
20
217.893405
11
217.788738
21
218.213051
0
LINE
5
15a
100
AcDbEntity
8
0
100
AcDbLine
6
CONTINUOUS
62
5
10
217.069205
20
218.178089
11
216.953312
21
217.845641
0
LINE
5
15b
100
AcDbEntity
8
0
100
AcDbLine
6
CONTINUOUS
62
5
10
217.429425
20
217.998338
11
217.141796
21
218.201370
0
LINE
5
15c
100
AcDbEntity
8
0
100
AcDbLine
6
CONTINUOUS
62
5
10
217.714232
20
218.229184
11
217.447642
21
217.999223
0
CIRCLE
5
15d
100
AcDbEntity
8
0
100
AcDbCircle
6
CONTINUOUS
62
5
10
217.487064
20
217.000000
40
1.000000
0
CIRCLE
5
15e
100
AcDbEntity
8
0
100
AcDbCircle
6
CONTINUOUS
62
5
10
217.487064
20
217.000000
40
0.700000
0
LINE
5
15f
100
AcDbEntity
8
0
100
AcDbLine
6
CONTINUOUS
62
5
10
218.298390
20
217.950921
11
217.952535
21
217.885063
0
CIRCLE
5
160
100
AcDbEntity
8
0
100
AcDbCircle
6
CONTINUOUS
62
5
10
217.487064
20
217.000000
40
1.250000
0
LINE
5
161
100
AcDbEntity
8
0
100
AcDbLine
6
CONTINUOUS
62
5
10
218.322830
20
217.549085
11
218.354847
21
217.899695
0
LINE
5
162
100
AcDbEntity
8
0
100
AcDbLine
6
CONTINUOUS
62
5
10
218.665153
20
217.417859
11
218.332705
21
217.533752
0
LINE
5
163
100
AcDbEntity
8
0
100
AcDbLine
6
CONTINUOUS
62
5
10
218.485401
20
217.057638
11
218.688434
21
217.345267
0
LINE
5
164
100
AcDbEntity
8
0
100
AcDbLine
6
CONTINUOUS
62
5
10
218.716248
20
216.772832
11
218.486286
21
217.039422
0
LINE
5
165
100
AcDbEntity
8
0
100
AcDbLine
6
CONTINUOUS
62
5
10
218.380468
20
216.550747
11
218.700114
21
216.698325
0
LINE
5
166
100
AcDbEntity
8
0
100
AcDbLine
6
CONTINUOUS
62
5
10
218.437984
20
216.188674
11
218.372127
21
216.534529
0
LINE
5
167
100
AcDbEntity
8
0
100
AcDbLine
6
CONTINUOUS
62
5
10
218.036149
20
216.164233
11
218.386759
21
216.132217
0
LINE
5
168
100
AcDbEntity
8
0
100
AcDbLine
6
CONTINUOUS
62
5
10
218.020815
20
216.154359
11
217.904466
21
215.820602
0
LINE
5
169
100
AcDbEntity
8
0
100
AcDbLine
6
CONTINUOUS
62
5
10
217.832988
20
215.798166
11
217.544702
21
216.001662
0
ARC
5
16a
100
AcDbEntity
8
0
100
AcDbCircle
6
CONTINUOUS
62
5
10
216.980423
20
218.972894
40
2.500000
100
AcDbArc
50
59.999999
51
164.999999
0
LINE
5
16b
100
AcDbEntity
8
0
100
AcDbLine
6
CONTINUOUS
62
5
10
214.565608
20
219.619942
11
214.106323
21
217.905867
0
LINE
5
16c
100
AcDbEntity
8
0
100
AcDbLine
6
CONTINUOUS
62
5
10
219.586878
20
220.354808
11
218.230423
21
221.137957
0
LINE
5
16d
100
AcDbEntity
8
0
100
AcDbLine
6
CONTINUOUS
62
5
10
213.730103
20
216.442062
11
213.810503
21
216.759054
0
LINE
5
16e
100
AcDbEntity
8
0
100
AcDbLine
6
CONTINUOUS
62
5
10
214.162798
20
218.073023
11
214.191771
21
218.156224
0
LINE
5
16f
100
AcDbEntity
8
0
100
AcDbLine
6
CONTINUOUS
62
5
10
214.106323
20
217.905867
11
214.134413
21
217.989520
0
LINE
5
170
100
AcDbEntity
8
0
100
AcDbLine
6
CONTINUOUS
62
5
10
214.134413
20
217.989520
11
214.162798
21
218.073023
0
LINE
5
171
100
AcDbEntity
8
0
100
AcDbLine
6
CONTINUOUS
62
5
10
214.053739
20
217.709621
11
214.106323
21
217.905867
0
LINE
5
172
100
AcDbEntity
8
0
100
AcDbLine
6
CONTINUOUS
62
5
10
213.810503
20
216.759054
11
213.891339
21
217.075958
0
LINE
5
173
100
AcDbEntity
8
0
100
AcDbLine
6
CONTINUOUS
62
5
10
213.891339
20
217.075958
11
213.972466
21
217.392804
0
LINE
5
174
100
AcDbEntity
8
0
100
AcDbLine
6
CONTINUOUS
62
5
10
213.972466
20
217.392804
11
214.053739
21
217.709621
0
LINE
5
175
100
AcDbEntity
8
0
100
AcDbLine
6
CONTINUOUS
62
5
10
213.492980
20
215.490274
11
213.571196
21
215.807701
0
LINE
5
176
100
AcDbEntity
8
0
100
AcDbLine
6
CONTINUOUS
62
5
10
213.571196
20
215.807701
11
213.650286
21
216.124955
0
LINE
5
177
100
AcDbEntity
8
0
100
AcDbLine
6
CONTINUOUS
62
5
10
213.650286
20
216.124955
11
213.730103
21
216.442062
0
LINE
5
178
100
AcDbEntity
8
0
100
AcDbLine
6
CONTINUOUS
62
5
10
218.025254
20
220.454167
11
218.111810
21
220.438141
0
LINE
5
179
100
AcDbEntity
8
0
100
AcDbLine
6
CONTINUOUS
62
5
10
218.111810
20
220.438141
11
218.198238
21
220.420629
0
LINE
5
17a
100
AcDbEntity
8
0
100
AcDbLine
6
CONTINUOUS
62
5
10
218.198238
20
220.420629
11
218.284571
21
220.402004
0
LINE
5
17b
100
AcDbEntity
8
0
100
AcDbLine
6
CONTINUOUS
62
5
10
218.284571
20
220.402004
11
218.370839
21
220.382636
0
LINE
5
17c
100
AcDbEntity
8
0
100
AcDbLine
6
CONTINUOUS
62
5
10
218.370839
20
220.382636
11
218.457076
21
220.362897
0
LINE
5
17d
100
AcDbEntity
8
0
100
AcDbLine
6
CONTINUOUS
62
5
10
218.457076
20
220.362897
11
218.545157
21
220.328254
0
LINE
5
17e
100
AcDbEntity
8
0
100
AcDbLine
6
CONTINUOUS
62
5
10
218.545157
20
220.328254
11
218.633097
21
220.293381
0
LINE
5
17f
100
AcDbEntity
8
0
100
AcDbLine
6
CONTINUOUS
62
5
10
218.633097
20
220.293381
11
218.720754
21
220.258051
0
LINE
5
180
100
AcDbEntity
8
0
100
AcDbLine
6
CONTINUOUS
62
5
10
218.720754
20
220.258051
11
218.807986
21
220.222033
0
LINE
5
181
100
AcDbEntity
8
0
100
AcDbLine
6
CONTINUOUS
62
5
10
218.807986
20
220.222033
11
218.894652
21
220.185098
0
LINE
5
182
100
AcDbEntity
8
0
100
AcDbLine
6
CONTINUOUS
62
5
10
218.894652
20
220.185098
11
218.980610
21
220.147018
0
LINE
5
183
100
AcDbEntity
8
0
100
AcDbLine
6
CONTINUOUS
62
5
10
218.980610
20
220.147018
11
219.065719
21
220.107564
0
LINE
5
184
100
AcDbEntity
8
0
100
AcDbLine
6
CONTINUOUS
62
5
10
219.065719
20
220.107564
11
219.149838
21
220.066505
0
LINE
5
185
100
AcDbEntity
8
0
100
AcDbLine
6
CONTINUOUS
62
5
10
219.149838
20
220.066505
11
219.232824
21
220.023614
0
LINE
5
186
100
AcDbEntity
8
0
100
AcDbLine
6
CONTINUOUS
62
5
10
219.232824
20
220.023614
11
219.314536
21
219.978660
0
LINE
5
187
100
AcDbEntity
8
0
100
AcDbLine
6
CONTINUOUS
62
5
10
217.851632
20
220.480281
11
217.938539
21
220.468338
0
LINE
5
188
100
AcDbEntity
8
0
100
AcDbLine
6
CONTINUOUS
62
5
10
217.938539
20
220.468338
11
218.025254
21
220.454167
0
LINE
5
189
100
AcDbEntity
8
0
100
AcDbLine
6
CONTINUOUS
62
5
10
217.677182
20
220.496284
11
217.764504
21
220.489638
0
LINE
5
18a
100
AcDbEntity
8
0
100
AcDbLine
6
CONTINUOUS
62
5
10
217.764504
20
220.489638
11
217.851632
21
220.480281
0
LINE
5
18b
100
AcDbEntity
8
0
100
AcDbLine
6
CONTINUOUS
62
5
10
214.285162
20
218.402505
11
214.319431
21
218.482989
0
LINE
5
18c
100
AcDbEntity
8
0
100
AcDbLine
6
CONTINUOUS
62
5
10
214.319431
20
218.482989
11
214.355759
21
218.562416
0
LINE
5
18d
100
AcDbEntity
8
0
100
AcDbLine
6
CONTINUOUS
62
5
10
214.355759
20
218.562416
11
214.394421
21
218.640642
0
LINE
5
18e
100
AcDbEntity
8
0
100
AcDbLine
6
CONTINUOUS
62
5
10
214.394421
20
218.640642
11
214.435463
21
218.717599
0
LINE
5
18f
100
AcDbEntity
8
0
100
AcDbLine
6
CONTINUOUS
62
5
10
214.435463
20
218.717599
11
214.478780
21
218.793269
0
LINE
5
190
100
AcDbEntity
8
0
100
AcDbLine
6
CONTINUOUS
62
5
10
214.478780
20
218.793269
11
214.524265
21
218.867635
0
LINE
5
191
100
AcDbEntity
8
0
100
AcDbLine
6
CONTINUOUS
62
5
10
214.524265
20
218.867635
11
214.571811
21
218.940680
0
LINE
5
192
100
AcDbEntity
8
0
100
AcDbLine
6
CONTINUOUS
62
5
10
214.571811
20
218.940680
11
214.621311
21
219.012387
0
LINE
5
193
100
AcDbEntity
8
0
100
AcDbLine
6
CONTINUOUS
62
5
10
214.621311
20
219.012387
11
214.672658
21
219.082739
0
LINE
5
194
100
AcDbEntity
8
0
100
AcDbLine
6
CONTINUOUS
62
5
10
214.672658
20
219.082739
11
214.725745
21
219.151718
0
LINE
5
195
100
AcDbEntity
8
0
100
AcDbLine
6
CONTINUOUS
62
5
10
214.725745
20
219.151718
11
214.780466
21
219.219308
0
LINE
5
196
100
AcDbEntity
8
0
100
AcDbLine
6
CONTINUOUS
62
5
10
214.780466
20
219.219308
11
214.836718
21
219.285490
0
LINE
5
197
100
AcDbEntity
8
0
100
AcDbLine
6
CONTINUOUS
62
5
10
214.836718
20
219.285490
11
214.894443
21
219.350239
0
LINE
5
198
100
AcDbEntity
8
0
100
AcDbLine
6
CONTINUOUS
62
5
10
214.894443
20
219.350239
11
214.953612
21
219.413521
0
LINE
5
199
100
AcDbEntity
8
0
100
AcDbLine
6
CONTINUOUS
62
5
10
214.953612
20
219.413521
11
215.014193
21
219.475307
0
LINE
5
19a
100
AcDbEntity
8
0
100
AcDbLine
6
CONTINUOUS
62
5
10
215.014193
20
219.475307
11
215.076157
21
219.535563
0
LINE
5
19b
100
AcDbEntity
8
0
100
AcDbLine
6
CONTINUOUS
62
5
10
215.076157
20
219.535563
11
215.139472
21
219.594258
0
LINE
5
19c
100
AcDbEntity
8
0
100
AcDbLine
6
CONTINUOUS
62
5
10
215.139472
20
219.594258
11
215.204109
21
219.651360
0
LINE
5
19d
100
AcDbEntity
8
0
100
AcDbLine
6
CONTINUOUS
62
5
10
215.204109
20
219.651360
11
215.270037
21
219.706838
0
LINE
5
19e
100
AcDbEntity
8
0
100
AcDbLine
6
CONTINUOUS
62
5
10
215.270037
20
219.706838
11
215.337225
21
219.760660
0
LINE
5
19f
100
AcDbEntity
8
0
100
AcDbLine
6
CONTINUOUS
62
5
10
215.337225
20
219.760660
11
215.405644
21
219.812794
0
LINE
5
1a0
100
AcDbEntity
8
0
100
AcDbLine
6
CONTINUOUS
62
5
10
215.405644
20
219.812794
11
215.475262
21
219.863208
0
LINE
5
1a1
100
AcDbEntity
8
0
100
AcDbLine
6
CONTINUOUS
62
5
10
215.475262
20
219.863208
11
215.546049
21
219.911871
0
LINE
5
1a2
100
AcDbEntity
8
0
100
AcDbLine
6
CONTINUOUS
62
5
10
215.546049
20
219.911871
11
215.617975
21
219.958751
0
LINE
5
1a3
100
AcDbEntity
8
0
100
AcDbLine
6
CONTINUOUS
62
5
10
215.617975
20
219.958751
11
215.691009
21
220.003816
0
LINE
5
1a4
100
AcDbEntity
8
0
100
AcDbLine
6
CONTINUOUS
62
5
10
215.691009
20
220.003816
11
215.765121
21
220.047034
0
LINE
5
1a5
100
AcDbEntity
8
0
100
AcDbLine
6
CONTINUOUS
62
5
10
215.765121
20
220.047034
11
215.840281
21
220.088374
0
LINE
5
1a6
100
AcDbEntity
8
0
100
AcDbLine
6
CONTINUOUS
62
5
10
214.191771
20
218.156224
11
214.221626
21
218.238972
0
LINE
5
1a7
100
AcDbEntity
8
0
100
AcDbLine
6
CONTINUOUS
62
5
10
214.221626
20
218.238972
11
214.252659
21
218.321116
0
LINE
5
1a8
100
AcDbEntity
8
0
100
AcDbLine
6
CONTINUOUS
62
5
10
214.252659
20
218.321116
11
214.285162
21
218.402505
0
LINE
5
1a9
100
AcDbEntity
8
0
100
AcDbLine
6
CONTINUOUS
62
5
10
215.840281
20
220.088374
11
215.916456
21
220.127806
0
LINE
5
1aa
100
AcDbEntity
8
0
100
AcDbLine
6
CONTINUOUS
62
5
10
215.916456
20
220.127806
11
215.993611
21
220.165313
0
LINE
5
1ab
100
AcDbEntity
8
0
100
AcDbLine
6
CONTINUOUS
62
5
10
217.589741
20
220.500304
11
217.677182
21
220.496284
0
LINE
5
1ac
100
AcDbEntity
8
0
100
AcDbLine
6
CONTINUOUS
62
5
10
215.993611
20
220.165313
11
216.071702
21
220.200889
0
LINE
5
1ad
100
AcDbEntity
8
0
100
AcDbLine
6
CONTINUOUS
62
5
10
216.071702
20
220.200889
11
216.150690
21
220.234526
0
LINE
5
1ae
100
AcDbEntity
8
0
100
AcDbLine
6
CONTINUOUS
62
5
10
216.150690
20
220.234526
11
216.230534
21
220.266217
0
LINE
5
1af
100
AcDbEntity
8
0
100
AcDbLine
6
CONTINUOUS
62
5
10
216.230534
20
220.266217
11
216.311191
21
220.295954
0
LINE
5
1b0
100
AcDbEntity
8
0
100
AcDbLine
6
CONTINUOUS
62
5
10
216.311191
20
220.295954
11
216.392620
21
220.323730
0
LINE
5
1b1
100
AcDbEntity
8
0
100
AcDbLine
6
CONTINUOUS
62
5
10
216.392620
20
220.323730
11
216.474782
21
220.349538
0
LINE
5
1b2
100
AcDbEntity
8
0
100
AcDbLine
6
CONTINUOUS
62
5
10
216.474782
20
220.349538
11
216.557633
21
220.373370
0
LINE
5
1b3
100
AcDbEntity
8
0
100
AcDbLine
6
CONTINUOUS
62
5
10
216.557633
20
220.373370
11
216.641134
21
220.395219
0
LINE
5
1b4
100
AcDbEntity
8
0
100
AcDbLine
6
CONTINUOUS
62
5
10
216.641134
20
220.395219
11
216.725243
21
220.415078
0
LINE
5
1b5
100
AcDbEntity
8
0
100
AcDbLine
6
CONTINUOUS
62
5
10
216.725243
20
220.415078
11
216.809918
21
220.432938
0
LINE
5
1b6
100
AcDbEntity
8
0
100
AcDbLine
6
CONTINUOUS
62
5
10
216.809918
20
220.432938
11
216.895119
21
220.448794
0
LINE
5
1b7
100
AcDbEntity
8
0
100
AcDbLine
6
CONTINUOUS
62
5
10
216.895119
20
220.448794
11
216.980804
21
220.462636
0
LINE
5
1b8
100
AcDbEntity
8
0
100
AcDbLine
6
CONTINUOUS
62
5
10
216.980804
20
220.462636
11
217.066932
21
220.474459
0
LINE
5
1b9
100
AcDbEntity
8
0
100
AcDbLine
6
CONTINUOUS
62
5
10
217.066932
20
220.474459
11
217.153462
21
220.484254
0
LINE
5
1ba
100
AcDbEntity
8
0
100
AcDbLine
6
CONTINUOUS
62
5
10
217.153462
20
220.484254
11
217.240336
21
220.491975
0
LINE
5
1bb
100
AcDbEntity
8
0
100
AcDbLine
6
CONTINUOUS
62
5
10
217.240336
20
220.491975
11
217.327478
21
220.497533
0
LINE
5
1bc
100
AcDbEntity
8
0
100
AcDbLine
6
CONTINUOUS
62
5
10
217.327478
20
220.497533
11
217.414812
21
220.500836
0
LINE
5
1bd
100
AcDbEntity
8
0
100
AcDbLine
6
CONTINUOUS
62
5
10
217.414812
20
220.500836
11
217.502258
21
220.501790
0
LINE
5
1be
100
AcDbEntity
8
0
100
AcDbLine
6
CONTINUOUS
62
5
10
217.502258
20
220.501790
11
217.589741
21
220.500304
0
LINE
5
1bf
100
AcDbEntity
8
0
100
AcDbLine
6
CONTINUOUS
62
5
10
219.314536
20
219.978660
11
219.394833
21
219.931416
0
LINE
5
1c0
100
AcDbEntity
8
0
100
AcDbLine
6
CONTINUOUS
62
5
10
219.394833
20
219.931416
11
219.473573
21
219.881651
0
LINE
5
1c1
100
AcDbEntity
8
0
100
AcDbLine
6
CONTINUOUS
62
5
10
219.473573
20
219.881651
11
219.550638
21
219.829196
0
LINE
5
1c2
100
AcDbEntity
8
0
100
AcDbLine
6
CONTINUOUS
62
5
10
219.550638
20
219.829196
11
219.625997
21
219.774111
0
LINE
5
1c3
100
AcDbEntity
8
0
100
AcDbLine
6
CONTINUOUS
62
5
10
219.625997
20
219.774111
11
219.699642
21
219.716512
0
LINE
5
1c4
100
AcDbEntity
8
0
100
AcDbLine
6
CONTINUOUS
62
5
10
219.699642
20
219.716512
11
219.771565
21
219.656515
0
LINE
5
1c5
100
AcDbEntity
8
0
100
AcDbLine
6
CONTINUOUS
62
5
10
219.771565
20
219.656515
11
219.841757
21
219.594236
0
LINE
5
1c6
100
AcDbEntity
8
0
100
AcDbLine
6
CONTINUOUS
62
5
10
213.119858
20
213.899549
11
213.191731
21
214.218242
0
LINE
5
1c7
100
AcDbEntity
8
0
100
AcDbLine
6
CONTINUOUS
62
5
10
213.049376
20
213.580580
11
213.119858
21
213.899549
0
LINE
5
1c8
100
AcDbEntity
8
0
100
AcDbLine
6
CONTINUOUS
62
5
10
212.912457
20
212.941847
11
212.980253
21
213.261343
0
LINE
5
1c9
100
AcDbEntity
8
0
100
AcDbLine
6
CONTINUOUS
62
5
10
212.980253
20
213.261343
11
213.049376
21
213.580580
0
LINE
5
1ca
100
AcDbEntity
8
0
100
AcDbLine
6
CONTINUOUS
62
5
10
213.339750
20
214.854779
11
213.415783
21
215.172643
0
LINE
5
1cb
100
AcDbEntity
8
0
100
AcDbLine
6
CONTINUOUS
62
5
10
213.415783
20
215.172643
11
213.492980
21
215.490274
0
LINE
5
1cc
100
AcDbEntity
8
0
100
AcDbLine
6
CONTINUOUS
62
5
10
213.191731
20
214.218242
11
213.265028
21
214.536653
0
LINE
5
1cd
100
AcDbEntity
8
0
100
AcDbLine
6
CONTINUOUS
62
5
10
213.265028
20
214.536653
11
213.339750
21
214.854779
0
LINE
5
1ce
100
AcDbEntity
8
0
100
AcDbLine
6
CONTINUOUS
62
5
10
220.283941
20
219.104157
11
220.339970
21
219.027795
0
LINE
5
1cf
100
AcDbEntity
8
0
100
AcDbLine
6
CONTINUOUS
62
5
10
220.339970
20
219.027795
11
220.394091
21
218.950120
0
LINE
5
1d0
100
AcDbEntity
8
0
100
AcDbLine
6
CONTINUOUS
62
5
10
220.394091
20
218.950120
11
220.446197
21
218.871173
0
LINE
5
1d1
100
AcDbEntity
8
0
100
AcDbLine
6
CONTINUOUS
62
5
10
220.446197
20
218.871173
11
220.496177
21
218.790995
0
LINE
5
1d2
100
AcDbEntity
8
0
100
AcDbLine
6
CONTINUOUS
62
5
10
219.841757
20
219.594236
11
219.910210
21
219.529792
0
LINE
5
1d3
100
AcDbEntity
8
0
100
AcDbLine
6
CONTINUOUS
62
5
10
219.910210
20
219.529792
11
219.976916
21
219.463299
0
LINE
5
1d4
100
AcDbEntity
8
0
100
AcDbLine
6
CONTINUOUS
62
5
10
219.976916
20
219.463299
11
220.041866
21
219.394872
0
LINE
5
1d5
100
AcDbEntity
8
0
100
AcDbLine
6
CONTINUOUS
62
5
10
220.041866
20
219.394872
11
220.105052
21
219.324629
0
LINE
5
1d6
100
AcDbEntity
8
0
100
AcDbLine
6
CONTINUOUS
62
5
10
220.105052
20
219.324629
11
220.166465
21
219.252684
0
LINE
5
1d7
100
AcDbEntity
8
0
100
AcDbLine
6
CONTINUOUS
62
5
10
220.166465
20
219.252684
11
220.226098
21
219.179155
0
LINE
5
1d8
100
AcDbEntity
8
0
100
AcDbLine
6
CONTINUOUS
62
5
10
220.226098
20
219.179155
11
220.283941
21
219.104157
0
LINE
5
1d9
100
AcDbEntity
8
0
100
AcDbLine
6
CONTINUOUS
62
5
10
221.137064
20
220.395401
11
218.545157
21
220.328254
0
LINE
5
1da
100
AcDbEntity
8
0
100
AcDbLine
6
CONTINUOUS
62
5
10
220.496177
20
218.790995
11
220.543923
21
218.709625
0
LINE
5
1db
100
AcDbEntity
8
0
100
AcDbLine
6
CONTINUOUS
62
5
10
220.543923
20
218.709625
11
220.589324
21
218.627104
0
LINE
5
1dc
100
AcDbEntity
8
0
100
AcDbLine
6
CONTINUOUS
62
5
10
220.589324
20
218.627104
11
220.632272
21
218.543472
0
LINE
5
1dd
100
AcDbEntity
8
0
100
AcDbLine
6
CONTINUOUS
62
5
10
220.987064
20
209.303377
11
221.137064
21
209.303377
0
LINE
5
1de
100
AcDbEntity
8
0
100
AcDbLine
6
CONTINUOUS
62
5
10
220.987064
20
203.000000
11
221.137064
21
203.000000
0
LINE
5
1df
100
AcDbEntity
8
0
100
AcDbLine
6
CONTINUOUS
62
5
10
212.592257
20
211.340734
11
212.653900
21
211.661415
0
LINE
5
1e0
100
AcDbEntity
8
0
100
AcDbLine
6
CONTINUOUS
62
5
10
212.653900
20
211.661415
11
212.716710
21
211.981874
0
LINE
5
1e1
100
AcDbEntity
8
0
100
AcDbLine
6
CONTINUOUS
62
5
10
212.531747
20
211.019839
11
212.592257
21
211.340734
0
LINE
5
1e2
100
AcDbEntity
8
0
100
AcDbLine
6
CONTINUOUS
62
5
10
212.300667
20
209.734222
11
212.356790
21
210.055931
0
LINE
5
1e3
100
AcDbEntity
8
0
100
AcDbLine
6
CONTINUOUS
62
5
10
212.356790
20
210.055931
11
212.414018
21
210.377437
0
LINE
5
1e4
100
AcDbEntity
8
0
100
AcDbLine
6
CONTINUOUS
62
5
10
212.414018
20
210.377437
11
212.472340
21
210.698739
0
LINE
5
1e5
100
AcDbEntity
8
0
100
AcDbLine
6
CONTINUOUS
62
5
10
212.472340
20
210.698739
11
212.531747
21
211.019839
0
LINE
5
1e6
100
AcDbEntity
8
0
100
AcDbLine
6
CONTINUOUS
62
5
10
212.245661
20
209.412306
11
212.300667
21
209.734222
0
LINE
5
1e7
100
AcDbEntity
8
0
100
AcDbLine
6
CONTINUOUS
62
5
10
212.087449
20
208.445302
11
212.139041
21
208.767847
0
LINE
5
1e8
100
AcDbEntity
8
0
100
AcDbLine
6
CONTINUOUS
62
5
10
212.139041
20
208.767847
11
212.191782
21
209.090181
0
LINE
5
1e9
100
AcDbEntity
8
0
100
AcDbLine
6
CONTINUOUS
62
5
10
212.191782
20
209.090181
11
212.245661
21
209.412306
0
LINE
5
1ea
100
AcDbEntity
8
0
100
AcDbLine
6
CONTINUOUS
62
5
10
211.847073
20
206.829364
11
211.892783
21
207.152978
0
LINE
5
1eb
100
AcDbEntity
8
0
100
AcDbLine
6
CONTINUOUS
62
5
10
211.759212
20
206.181520
11
211.802549
21
206.505544
0
LINE
5
1ec
100
AcDbEntity
8
0
100
AcDbLine
6
CONTINUOUS
62
5
10
211.802549
20
206.505544
11
211.847073
21
206.829364
0
LINE
5
1ed
100
AcDbEntity
8
0
100
AcDbLine
6
CONTINUOUS
62
5
10
211.939679
20
207.476381
11
211.987758
21
207.799570
0
LINE
5
1ee
100
AcDbEntity
8
0
100
AcDbLine
6
CONTINUOUS
62
5
10
211.987758
20
207.799570
11
212.037018
21
208.122544
0
LINE
5
1ef
100
AcDbEntity
8
0
100
AcDbLine
6
CONTINUOUS
62
5
10
212.037018
20
208.122544
11
212.087449
21
208.445302
0
LINE
5
1f0
100
AcDbEntity
8
0
100
AcDbLine
6
CONTINUOUS
62
5
10
211.892783
20
207.152978
11
211.939679
21
207.476381
0
LINE
5
1f1
100
AcDbEntity
8
0
100
AcDbLine
6
CONTINUOUS
62
5
10
211.524171
20
204.233294
11
211.560365
21
204.558468
0
LINE
5
1f2
100
AcDbEntity
8
0
100
AcDbLine
6
CONTINUOUS
62
5
10
211.560365
20
204.558468
11
211.597753
21
204.883458
0
LINE
5
1f3
100
AcDbEntity
8
0
100
AcDbLine
6
CONTINUOUS
62
5
10
211.597753
20
204.883458
11
211.636332
21
205.208262
0
LINE
5
1f4
100
AcDbEntity
8
0
100
AcDbLine
6
CONTINUOUS
62
5
10
211.360836
20
202.604811
11
211.391181
21
202.930843
0
LINE
5
1f5
100
AcDbEntity
8
0
100
AcDbLine
6
CONTINUOUS
62
5
10
211.391181
20
202.930843
11
211.422678
21
203.256711
0
LINE
5
1f6
100
AcDbEntity
8
0
100
AcDbLine
6
CONTINUOUS
62
5
10
211.422678
20
203.256711
11
211.455336
21
203.582412
0
LINE
5
1f7
100
AcDbEntity
8
0
100
AcDbLine
6
CONTINUOUS
62
5
10
211.455336
20
203.582412
11
211.489164
21
203.907941
0
LINE
5
1f8
100
AcDbEntity
8
0
100
AcDbLine
6
CONTINUOUS
62
5
10
211.489164
20
203.907941
11
211.524171
21
204.233294
0
LINE
5
1f9
100
AcDbEntity
8
0
100
AcDbLine
6
CONTINUOUS
62
5
10
211.636332
20
205.208262
11
211.676102
21
205.532876
0
LINE
5
1fa
100
AcDbEntity
8
0
100
AcDbLine
6
CONTINUOUS
62
5
10
211.676102
20
205.532876
11
211.717062
21
205.857297
0
LINE
5
1fb
100
AcDbEntity
8
0
100
AcDbLine
6
CONTINUOUS
62
5
10
211.717062
20
205.857297
11
211.759212
21
206.181520
0
LINE
5
1fc
100
AcDbEntity
8
0
100
AcDbLine
6
CONTINUOUS
62
5
10
212.716710
20
211.981874
11
212.780718
21
212.302104
0
LINE
5
1fd
100
AcDbEntity
8
0
100
AcDbLine
6
CONTINUOUS
62
5
10
212.780718
20
212.302104
11
212.845956
21
212.622098
0
LINE
5
1fe
100
AcDbEntity
8
0
100
AcDbLine
6
CONTINUOUS
62
5
10
212.845956
20
212.622098
11
212.912457
21
212.941847
0
LINE
5
1ff
100
AcDbEntity
8
0
100
AcDbLine
6
CONTINUOUS
62
5
10
154.487064
20
217.700000
11
154.358572
21
217.828492
0
LINE
5
200
100
AcDbEntity
8
0
100
AcDbLine
6
CONTINUOUS
62
5
10
154.485428
20
218.057913
11
154.484898
21
218.080886
0
LINE
5
201
100
AcDbEntity
8
0
100
AcDbLine
6
CONTINUOUS
62
5
10
154.484898
20
218.080886
11
154.484257
21
218.102805
0
LINE
5
202
100
AcDbEntity
8
0
100
AcDbLine
6
CONTINUOUS
62
5
10
154.484257
20
218.102805
11
154.483488
21
218.123495
0
LINE
5
203
100
AcDbEntity
8
0
100
AcDbLine
6
CONTINUOUS
62
5
10
154.483488
20
218.123495
11
154.482571
21
218.142780
0
LINE
5
204
100
AcDbEntity
8
0
100
AcDbLine
6
CONTINUOUS
62
5
10
154.482571
20
218.142780
11
154.481489
21
218.160485
0
LINE
5
205
100
AcDbEntity
8
0
100
AcDbLine
6
CONTINUOUS
62
5
10
154.487064
20
217.933386
11
154.486810
21
217.958994
0
LINE
5
206
100
AcDbEntity
8
0
100
AcDbLine
6
CONTINUOUS
62
5
10
154.486810
20
217.958994
11
154.486538
21
217.984426
0
LINE
5
207
100
AcDbEntity
8
0
100
AcDbLine
6
CONTINUOUS
62
5
10
154.486538
20
217.984426
11
154.486229
21
218.009507
0
LINE
5
208
100
AcDbEntity
8
0
100
AcDbLine
6
CONTINUOUS
62
5
10
154.486229
20
218.009507
11
154.485865
21
218.034061
0
LINE
5
209
100
AcDbEntity
8
0
100
AcDbLine
6
CONTINUOUS
62
5
10
154.485865
20
218.034061
11
154.485428
21
218.057913
0
LINE
5
20a
100
AcDbEntity
8
0
100
AcDbLine
6
CONTINUOUS
62
5
10
154.314501
20
216.637777
11
154.316761
21
216.596587
0
LINE
5
20b
100
AcDbEntity
8
0
100
AcDbLine
6
CONTINUOUS
62
5
10
154.417093
20
218.161344
11
154.412713
21
218.144710
0
LINE
5
20c
100
AcDbEntity
8
0
100
AcDbLine
6
CONTINUOUS
62
5
10
154.412713
20
218.144710
11
154.408268
21
218.126714
0
LINE
5
20d
100
AcDbEntity
8
0
100
AcDbLine
6
CONTINUOUS
62
5
10
154.408268
20
218.126714
11
154.403771
21
218.107379
0
LINE
5
20e
100
AcDbEntity
8
0
100
AcDbLine
6
CONTINUOUS
62
5
10
154.403771
20
218.107379
11
154.399234
21
218.086731
0
LINE
5
20f
100
AcDbEntity
8
0
100
AcDbLine
6
CONTINUOUS
62
5
10
154.399234
20
218.086731
11
154.394667
21
218.064795
0
LINE
5
210
100
AcDbEntity
8
0
100
AcDbLine
6
CONTINUOUS
62
5
10
154.394667
20
218.064795
11
154.390083
21
218.041596
0
LINE
5
211
100
AcDbEntity
8
0
100
AcDbLine
6
CONTINUOUS
62
5
10
154.390083
20
218.041596
11
154.385494
21
218.017158
0
LINE
5
212
100
AcDbEntity
8
0
100
AcDbLine
6
CONTINUOUS
62
5
10
154.385494
20
218.017158
11
154.380912
21
217.991511
0
LINE
5
213
100
AcDbEntity
8
0
100
AcDbLine
6
CONTINUOUS
62
5
10
154.380912
20
217.991511
11
154.376350
21
217.964685
0
LINE
5
214
100
AcDbEntity
8
0
100
AcDbLine
6
CONTINUOUS
62
5
10
154.376350
20
217.964685
11
154.371822
21
217.936716
0
LINE
5
215
100
AcDbEntity
8
0
100
AcDbLine
6
CONTINUOUS
62
5
10
154.371822
20
217.936716
11
154.367341
21
217.907637
0
LINE
5
216
100
AcDbEntity
8
0
100
AcDbLine
6
CONTINUOUS
62
5
10
154.367341
20
217.907637
11
154.362920
21
217.877482
0
LINE
5
217
100
AcDbEntity
8
0
100
AcDbLine
6
CONTINUOUS
62
5
10
154.362920
20
217.877482
11
154.358573
21
217.846286
0
LINE
5
218
100
AcDbEntity
8
0
100
AcDbLine
6
CONTINUOUS
62
5
10
154.358573
20
217.846286
11
154.354314
21
217.814083
0
LINE
5
219
100
AcDbEntity
8
0
100
AcDbLine
6
CONTINUOUS
62
5
10
154.354314
20
217.814083
11
154.350156
21
217.780906
0
LINE
5
21a
100
AcDbEntity
8
0
100
AcDbLine
6
CONTINUOUS
62
5
10
154.350156
20
217.780906
11
154.346111
21
217.746790
0
LINE
5
21b
100
AcDbEntity
8
0
100
AcDbLine
6
CONTINUOUS
62
5
10
154.346111
20
217.746790
11
154.342195
21
217.711769
0
LINE
5
21c
100
AcDbEntity
8
0
100
AcDbLine
6
CONTINUOUS
62
5
10
154.342195
20
217.711769
11
154.338418
21
217.675881
0
LINE
5
21d
100
AcDbEntity
8
0
100
AcDbLine
6
CONTINUOUS
62
5
10
154.338418
20
217.675881
11
154.334793
21
217.639171
0
LINE
5
21e
100
AcDbEntity
8
0
100
AcDbLine
6
CONTINUOUS
62
5
10
154.334793
20
217.639171
11
154.331329
21
217.601687
0
LINE
5
21f
100
AcDbEntity
8
0
100
AcDbLine
6
CONTINUOUS
62
5
10
154.331329
20
217.601687
11
154.328037
21
217.563474
0
LINE
5
220
100
AcDbEntity
8
0
100
AcDbLine
6
CONTINUOUS
62
5
10
154.328037
20
217.563474
11
154.324928
21
217.524579
0
LINE
5
221
100
AcDbEntity
8
0
100
AcDbLine
6
CONTINUOUS
62
5
10
154.324928
20
217.524579
11
154.322013
21
217.485047
0
LINE
5
222
100
AcDbEntity
8
0
100
AcDbLine
6
CONTINUOUS
62
5
10
154.322013
20
217.485047
11
154.319302
21
217.444926
0
LINE
5
223
100
AcDbEntity
8
0
100
AcDbLine
6
CONTINUOUS
62
5
10
154.319302
20
217.444926
11
154.316806
21
217.404261
0
LINE
5
224
100
AcDbEntity
8
0
100
AcDbLine
6
CONTINUOUS
62
5
10
154.316806
20
217.404261
11
154.314535
21
217.363099
0
LINE
5
225
100
AcDbEntity
8
0
100
AcDbLine
6
CONTINUOUS
62
5
10
154.314535
20
217.363099
11
154.312499
21
217.321486
0
LINE
5
226
100
AcDbEntity
8
0
100
AcDbLine
6
CONTINUOUS
62
5
10
154.312499
20
217.321486
11
154.310707
21
217.279472
0
LINE
5
227
100
AcDbEntity
8
0
100
AcDbLine
6
CONTINUOUS
62
5
10
154.310707
20
217.279472
11
154.309161
21
217.237112
0
LINE
5
228
100
AcDbEntity
8
0
100
AcDbLine
6
CONTINUOUS
62
5
10
154.309161
20
217.237112
11
154.307863
21
217.194459
0
LINE
5
229
100
AcDbEntity
8
0
100
AcDbLine
6
CONTINUOUS
62
5
10
154.307863
20
217.194459
11
154.306817
21
217.151568
0
LINE
5
22a
100
AcDbEntity
8
0
100
AcDbLine
6
CONTINUOUS
62
5
10
154.306817
20
217.151568
11
154.306025
21
217.108493
0
LINE
5
22b
100
AcDbEntity
8
0
100
AcDbLine
6
CONTINUOUS
62
5
10
154.306025
20
217.108493
11
154.305491
21
217.065289
0
LINE
5
22c
100
AcDbEntity
8
0
100
AcDbLine
6
CONTINUOUS
62
5
10
154.305491
20
217.065289
11
154.305218
21
217.022009
0
LINE
5
22d
100
AcDbEntity
8
0
100
AcDbLine
6
CONTINUOUS
62
5
10
154.305218
20
217.022009
11
154.305207
21
216.978708
0
LINE
5
22e
100
AcDbEntity
8
0
100
AcDbLine
6
CONTINUOUS
62
5
10
154.305207
20
216.978708
11
154.305463
21
216.935440
0
LINE
5
22f
100
AcDbEntity
8
0
100
AcDbLine
6
CONTINUOUS
62
5
10
154.305463
20
216.935440
11
154.305987
21
216.892259
0
LINE
5
230
100
AcDbEntity
8
0
100
AcDbLine
6
CONTINUOUS
62
5
10
154.305987
20
216.892259
11
154.306777
21
216.849215
0
LINE
5
231
100
AcDbEntity
8
0
100
AcDbLine
6
CONTINUOUS
62
5
10
154.306777
20
216.849215
11
154.307826
21
216.806359
0
LINE
5
232
100
AcDbEntity
8
0
100
AcDbLine
6
CONTINUOUS
62
5
10
154.307826
20
216.806359
11
154.309128
21
216.763737
0
LINE
5
233
100
AcDbEntity
8
0
100
AcDbLine
6
CONTINUOUS
62
5
10
154.309128
20
216.763737
11
154.310679
21
216.721401
0
LINE
5
234
100
AcDbEntity
8
0
100
AcDbLine
6
CONTINUOUS
62
5
10
154.310679
20
216.721401
11
154.312472
21
216.679397
0
LINE
5
235
100
AcDbEntity
8
0
100
AcDbLine
6
CONTINUOUS
62
5
10
154.312472
20
216.679397
11
154.314501
21
216.637777
0
LINE
5
236
100
AcDbEntity
8
0
100
AcDbLine
6
CONTINUOUS
62
5
10
154.356533
20
216.169469
11
154.487064
21
216.300000
0
LINE
5
237
100
AcDbEntity
8
0
100
AcDbLine
6
CONTINUOUS
62
5
10
154.417387
20
215.835196
11
154.421771
21
215.819138
0
LINE
5
238
100
AcDbEntity
8
0
100
AcDbLine
6
CONTINUOUS
62
5
10
154.421771
20
215.819138
11
154.426033
21
215.804845
0
LINE
5
239
100
AcDbEntity
8
0
100
AcDbLine
6
CONTINUOUS
62
5
10
154.426033
20
215.804845
11
154.430148
21
215.792475
0
LINE
5
23a
100
AcDbEntity
8
0
100
AcDbLine
6
CONTINUOUS
62
5
10
154.430148
20
215.792475
11
154.434092
21
215.782184
0
LINE
5
23b
100
AcDbEntity
8
0
100
AcDbLine
6
CONTINUOUS
62
5
10
154.434092
20
215.782184
11
154.437841
21
215.774129
0
LINE
5
23c
100
AcDbEntity
8
0
100
AcDbLine
6
CONTINUOUS
62
5
10
154.437841
20
215.774129
11
154.441370
21
215.768468
0
LINE
5
23d
100
AcDbEntity
8
0
100
AcDbLine
6
CONTINUOUS
62
5
10
154.441370
20
215.768468
11
154.444665
21
215.765261
0
LINE
5
23e
100
AcDbEntity
8
0
100
AcDbLine
6
CONTINUOUS
62
5
10
154.444665
20
215.765261
11
154.447762
21
215.764122
0
LINE
5
23f
100
AcDbEntity
8
0
100
AcDbLine
6
CONTINUOUS
62
5
10
154.447762
20
215.764122
11
154.450710
21
215.764534
0
LINE
5
240
100
AcDbEntity
8
0
100
AcDbLine
6
CONTINUOUS
62
5
10
154.450710
20
215.764534
11
154.453559
21
215.765979
0
LINE
5
241
100
AcDbEntity
8
0
100
AcDbLine
6
CONTINUOUS
62
5
10
154.453559
20
215.765979
11
154.456358
21
215.767941
0
LINE
5
242
100
AcDbEntity
8
0
100
AcDbLine
6
CONTINUOUS
62
5
10
154.470923
20
215.767638
11
154.471818
21
215.773210
0
LINE
5
243
100
AcDbEntity
8
0
100
AcDbLine
6
CONTINUOUS
62
5
10
154.471818
20
215.773210
11
154.472710
21
215.778809
0
LINE
5
244
100
AcDbEntity
8
0
100
AcDbLine
6
CONTINUOUS
62
5
10
154.472710
20
215.778809
11
154.473597
21
215.784460
0
LINE
5
245
100
AcDbEntity
8
0
100
AcDbLine
6
CONTINUOUS
62
5
10
154.473597
20
215.784460
11
154.474475
21
215.790190
0
LINE
5
246
100
AcDbEntity
8
0
100
AcDbLine
6
CONTINUOUS
62
5
10
154.474475
20
215.790190
11
154.475343
21
215.796025
0
LINE
5
247
100
AcDbEntity
8
0
100
AcDbLine
6
CONTINUOUS
62
5
10
154.475343
20
215.796025
11
154.476197
21
215.801991
0
LINE
5
248
100
AcDbEntity
8
0
100
AcDbLine
6
CONTINUOUS
62
5
10
154.476197
20
215.801991
11
154.477035
21
215.808115
0
LINE
5
249
100
AcDbEntity
8
0
100
AcDbLine
6
CONTINUOUS
62
5
10
154.477035
20
215.808115
11
154.477854
21
215.814423
0
LINE
5
24a
100
AcDbEntity
8
0
100
AcDbLine
6
CONTINUOUS
62
5
10
154.477854
20
215.814423
11
154.478651
21
215.820942
0
LINE
5
24b
100
AcDbEntity
8
0
100
AcDbLine
6
CONTINUOUS
62
5
10
154.478651
20
215.820942
11
154.479423
21
215.827697
0
LINE
5
24c
100
AcDbEntity
8
0
100
AcDbLine
6
CONTINUOUS
62
5
10
154.479423
20
215.827697
11
154.480169
21
215.834715
0
LINE
5
24d
100
AcDbEntity
8
0
100
AcDbLine
6
CONTINUOUS
62
5
10
154.480169
20
215.834715
11
154.480884
21
215.842022
0
LINE
5
24e
100
AcDbEntity
8
0
100
AcDbLine
6
CONTINUOUS
62
5
10
154.480884
20
215.842022
11
154.481567
21
215.849644
0
LINE
5
24f
100
AcDbEntity
8
0
100
AcDbLine
6
CONTINUOUS
62
5
10
154.481567
20
215.849644
11
154.482214
21
215.857608
0
LINE
5
250
100
AcDbEntity
8
0
100
AcDbLine
6
CONTINUOUS
62
5
10
154.482214
20
215.857608
11
154.482823
21
215.865940
0
LINE
5
251
100
AcDbEntity
8
0
100
AcDbLine
6
CONTINUOUS
62
5
10
154.482823
20
215.865940
11
154.483391
21
215.874666
0
LINE
5
252
100
AcDbEntity
8
0
100
AcDbLine
6
CONTINUOUS
62
5
10
154.483391
20
215.874666
11
154.483916
21
215.883813
0
LINE
5
253
100
AcDbEntity
8
0
100
AcDbLine
6
CONTINUOUS
62
5
10
154.483916
20
215.883813
11
154.484394
21
215.893407
0
LINE
5
254
100
AcDbEntity
8
0
100
AcDbLine
6
CONTINUOUS
62
5
10
154.484394
20
215.893407
11
154.484824
21
215.903474
0
LINE
5
255
100
AcDbEntity
8
0
100
AcDbLine
6
CONTINUOUS
62
5
10
154.484824
20
215.903474
11
154.485202
21
215.914035
0
LINE
5
256
100
AcDbEntity
8
0
100
AcDbLine
6
CONTINUOUS
62
5
10
154.485202
20
215.914035
11
154.485531
21
215.925074
0
LINE
5
257
100
AcDbEntity
8
0
100
AcDbLine
6
CONTINUOUS
62
5
10
154.485531
20
215.925074
11
154.485814
21
215.936550
0
LINE
5
258
100
AcDbEntity
8
0
100
AcDbLine
6
CONTINUOUS
62
5
10
154.485814
20
215.936550
11
154.486057
21
215.948423
0
LINE
5
259
100
AcDbEntity
8
0
100
AcDbLine
6
CONTINUOUS
62
5
10
154.486057
20
215.948423
11
154.486262
21
215.960655
0
LINE
5
25a
100
AcDbEntity
8
0
100
AcDbLine
6
CONTINUOUS
62
5
10
154.486262
20
215.960655
11
154.486434
21
215.973204
0
LINE
5
25b
100
AcDbEntity
8
0
100
AcDbLine
6
CONTINUOUS
62
5
10
154.486434
20
215.973204
11
154.486578
21
215.986031
0
LINE
5
25c
100
AcDbEntity
8
0
100
AcDbLine
6
CONTINUOUS
62
5
10
154.486578
20
215.986031
11
154.486696
21
215.999098
0
LINE
5
25d
100
AcDbEntity
8
0
100
AcDbLine
6
CONTINUOUS
62
5
10
154.486696
20
215.999098
11
154.486794
21
216.012362
0
LINE
5
25e
100
AcDbEntity
8
0
100
AcDbLine
6
CONTINUOUS
62
5
10
154.321949
20
216.515699
11
154.324864
21
216.476099
0
LINE
5
25f
100
AcDbEntity
8
0
100
AcDbLine
6
CONTINUOUS
62
5
10
154.324864
20
216.476099
11
154.327978
21
216.437131
0
LINE
5
260
100
AcDbEntity
8
0
100
AcDbLine
6
CONTINUOUS
62
5
10
154.327978
20
216.437131
11
154.331277
21
216.398847
0
LINE
5
261
100
AcDbEntity
8
0
100
AcDbLine
6
CONTINUOUS
62
5
10
154.331277
20
216.398847
11
154.334750
21
216.361302
0
LINE
5
262
100
AcDbEntity
8
0
100
AcDbLine
6
CONTINUOUS
62
5
10
154.334750
20
216.361302
11
154.338381
21
216.324546
0
LINE
5
263
100
AcDbEntity
8
0
100
AcDbLine
6
CONTINUOUS
62
5
10
154.338381
20
216.324546
11
154.342159
21
216.288634
0
LINE
5
264
100
AcDbEntity
8
0
100
AcDbLine
6
CONTINUOUS
62
5
10
154.342159
20
216.288634
11
154.346070
21
216.253618
0
LINE
5
265
100
AcDbEntity
8
0
100
AcDbLine
6
CONTINUOUS
62
5
10
154.346070
20
216.253618
11
154.350101
21
216.219551
0
LINE
5
266
100
AcDbEntity
8
0
100
AcDbLine
6
CONTINUOUS
62
5
10
154.350101
20
216.219551
11
154.354238
21
216.186486
0
LINE
5
267
100
AcDbEntity
8
0
100
AcDbLine
6
CONTINUOUS
62
5
10
154.354238
20
216.186486
11
154.358470
21
216.154474
0
LINE
5
268
100
AcDbEntity
8
0
100
AcDbLine
6
CONTINUOUS
62
5
10
154.358470
20
216.154474
11
154.362783
21
216.123536
0
LINE
5
269
100
AcDbEntity
8
0
100
AcDbLine
6
CONTINUOUS
62
5
10
154.362783
20
216.123536
11
154.367170
21
216.093667
0
LINE
5
26a
100
AcDbEntity
8
0
100
AcDbLine
6
CONTINUOUS
62
5
10
154.367170
20
216.093667
11
154.371620
21
216.064860
0
LINE
5
26b
100
AcDbEntity
8
0
100
AcDbLine
6
CONTINUOUS
62
5
10
154.371620
20
216.064860
11
154.376124
21
216.037108
0
LINE
5
26c
100
AcDbEntity
8
0
100
AcDbLine
6
CONTINUOUS
62
5
10
154.376124
20
216.037108
11
154.380672
21
216.010405
0
LINE
5
26d
100
AcDbEntity
8
0
100
AcDbLine
6
CONTINUOUS
62
5
10
154.380672
20
216.010405
11
154.385256
21
215.984743
0
LINE
5
26e
100
AcDbEntity
8
0
100
AcDbLine
6
CONTINUOUS
62
5
10
154.385256
20
215.984743
11
154.389865
21
215.960116
0
LINE
5
26f
100
AcDbEntity
8
0
100
AcDbLine
6
CONTINUOUS
62
5
10
154.389865
20
215.960116
11
154.394489
21
215.936518
0
LINE
5
270
100
AcDbEntity
8
0
100
AcDbLine
6
CONTINUOUS
62
5
10
154.394489
20
215.936518
11
154.399121
21
215.913940
0
LINE
5
271
100
AcDbEntity
8
0
100
AcDbLine
6
CONTINUOUS
62
5
10
154.399121
20
215.913940
11
154.403748
21
215.892391
0
LINE
5
272
100
AcDbEntity
8
0
100
AcDbLine
6
CONTINUOUS
62
5
10
154.403748
20
215.892391
11
154.408351
21
215.871980
0
LINE
5
273
100
AcDbEntity
8
0
100
AcDbLine
6
CONTINUOUS
62
5
10
154.408351
20
215.871980
11
154.412906
21
215.852862
0
LINE
5
274
100
AcDbEntity
8
0
100
AcDbLine
6
CONTINUOUS
62
5
10
154.412906
20
215.852862
11
154.417387
21
215.835196
0
LINE
5
275
100
AcDbEntity
8
0
100
AcDbLine
6
CONTINUOUS
62
5
10
154.316761
20
216.596587
11
154.319245
21
216.555878
0
LINE
5
276
100
AcDbEntity
8
0
100
AcDbLine
6
CONTINUOUS
62
5
10
154.319245
20
216.555878
11
154.321949
21
216.515699
0
LINE
5
277
100
AcDbEntity
8
0
100
AcDbLine
6
CONTINUOUS
62
5
10
154.421398
20
218.176589
11
154.417093
21
218.161344
0
LINE
5
278
100
AcDbEntity
8
0
100
AcDbLine
6
CONTINUOUS
62
5
10
154.422764
20
220.177320
11
154.415126
21
220.193641
0
LINE
5
279
100
AcDbEntity
8
0
100
AcDbLine
6
CONTINUOUS
62
5
10
154.481489
20
218.160485
11
154.480229
21
218.176506
0
LINE
5
27a
100
AcDbEntity
8
0
100
AcDbLine
6
CONTINUOUS
62
5
10
154.480229
20
218.176506
11
154.478793
21
218.190859
0
LINE
5
27b
100
AcDbEntity
8
0
100
AcDbLine
6
CONTINUOUS
62
5
10
154.478793
20
218.190859
11
154.477183
21
218.203574
0
LINE
5
27c
100
AcDbEntity
8
0
100
AcDbLine
6
CONTINUOUS
62
5
10
154.477183
20
218.203574
11
154.475400
21
218.214679
0
LINE
5
27d
100
AcDbEntity
8
0
100
AcDbLine
6
CONTINUOUS
62
5
10
154.475400
20
218.214679
11
154.473446
21
218.224203
0
LINE
5
27e
100
AcDbEntity
8
0
100
AcDbLine
6
CONTINUOUS
62
5
10
154.473446
20
218.224203
11
154.471324
21
218.232174
0
LINE
5
27f
100
AcDbEntity
8
0
100
AcDbLine
6
CONTINUOUS
62
5
10
154.471324
20
218.232174
11
154.469035
21
218.238621
0
LINE
5
280
100
AcDbEntity
8
0
100
AcDbLine
6
CONTINUOUS
62
5
10
154.469035
20
218.238621
11
154.466581
21
218.243573
0
LINE
5
281
100
AcDbEntity
8
0
100
AcDbLine
6
CONTINUOUS
62
5
10
154.466581
20
218.243573
11
154.463965
21
218.247058
0
LINE
5
282
100
AcDbEntity
8
0
100
AcDbLine
6
CONTINUOUS
62
5
10
154.463965
20
218.247058
11
154.461187
21
218.249104
0
LINE
5
283
100
AcDbEntity
8
0
100
AcDbLine
6
CONTINUOUS
62
5
10
154.461187
20
218.249104
11
154.458252
21
218.249722
0
LINE
5
284
100
AcDbEntity
8
0
100
AcDbLine
6
CONTINUOUS
62
5
10
154.458252
20
218.249722
11
154.455165
21
218.248907
0
LINE
5
285
100
AcDbEntity
8
0
100
AcDbLine
6
CONTINUOUS
62
5
10
154.455165
20
218.248907
11
154.451931
21
218.246657
0
LINE
5
286
100
AcDbEntity
8
0
100
AcDbLine
6
CONTINUOUS
62
5
10
154.451931
20
218.246657
11
154.448555
21
218.242968
0
LINE
5
287
100
AcDbEntity
8
0
100
AcDbLine
6
CONTINUOUS
62
5
10
154.448555
20
218.242968
11
154.445043
21
218.237837
0
LINE
5
288
100
AcDbEntity
8
0
100
AcDbLine
6
CONTINUOUS
62
5
10
154.445043
20
218.237837
11
154.441399
21
218.231259
0
LINE
5
289
100
AcDbEntity
8
0
100
AcDbLine
6
CONTINUOUS
62
5
10
154.441399
20
218.231259
11
154.437629
21
218.223232
0
LINE
5
28a
100
AcDbEntity
8
0
100
AcDbLine
6
CONTINUOUS
62
5
10
154.437629
20
218.223232
11
154.433738
21
218.213752
0
LINE
5
28b
100
AcDbEntity
8
0
100
AcDbLine
6
CONTINUOUS
62
5
10
154.433738
20
218.213752
11
154.429731
21
218.202815
0
LINE
5
28c
100
AcDbEntity
8
0
100
AcDbLine
6
CONTINUOUS
62
5
10
154.429731
20
218.202815
11
154.425614
21
218.190421
0
LINE
5
28d
100
AcDbEntity
8
0
100
AcDbLine
6
CONTINUOUS
62
5
10
154.425614
20
218.190421
11
154.421398
21
218.176589
0
LINE
5
28e
100
AcDbEntity
8
0
100
AcDbLine
6
CONTINUOUS
62
5
10
154.471528
20
219.967045
11
154.469084
21
219.985100
0
LINE
5
28f
100
AcDbEntity
8
0
100
AcDbLine
6
CONTINUOUS
62
5
10
154.469084
20
219.985100
11
154.466572
21
220.003133
0
LINE
5
290
100
AcDbEntity
8
0
100
AcDbLine
6
CONTINUOUS
62
5
10
154.466572
20
220.003133
11
154.463924
21
220.021122
0
LINE
5
291
100
AcDbEntity
8
0
100
AcDbLine
6
CONTINUOUS
62
5
10
154.463924
20
220.021122
11
154.461072
21
220.039043
0
LINE
5
292
100
AcDbEntity
8
0
100
AcDbLine
6
CONTINUOUS
62
5
10
154.461072
20
220.039043
11
154.457948
21
220.056875
0
LINE
5
293
100
AcDbEntity
8
0
100
AcDbLine
6
CONTINUOUS
62
5
10
154.457948
20
220.056875
11
154.454484
21
220.074595
0
LINE
5
294
100
AcDbEntity
8
0
100
AcDbLine
6
CONTINUOUS
62
5
10
154.454484
20
220.074595
11
154.450612
21
220.092182
0
LINE
5
295
100
AcDbEntity
8
0
100
AcDbLine
6
CONTINUOUS
62
5
10
154.450612
20
220.092182
11
154.446264
21
220.109611
0
LINE
5
296
100
AcDbEntity
8
0
100
AcDbLine
6
CONTINUOUS
62
5
10
154.446264
20
220.109611
11
154.441371
21
220.126862
0
LINE
5
297
100
AcDbEntity
8
0
100
AcDbLine
6
CONTINUOUS
62
5
10
154.441371
20
220.126862
11
154.435867
21
220.143912
0
LINE
5
298
100
AcDbEntity
8
0
100
AcDbLine
6
CONTINUOUS
62
5
10
154.435867
20
220.143912
11
154.429682
21
220.160738
0
LINE
5
299
100
AcDbEntity
8
0
100
AcDbLine
6
CONTINUOUS
62
5
10
154.429682
20
220.160738
11
154.422764
21
220.177320
0
LINE
5
29a
100
AcDbEntity
8
0
100
AcDbLine
6
CONTINUOUS
62
5
10
154.487064
20
219.882483
11
154.471882
21
219.967045
0
LINE
5
29b
100
AcDbEntity
8
0
100
AcDbLine
6
CONTINUOUS
62
5
10
154.415126
20
220.193641
11
154.406796
21
220.209688
0
LINE
5
29c
100
AcDbEntity
8
0
100
AcDbLine
6
CONTINUOUS
62
5
10
154.406796
20
220.209688
11
154.397806
21
220.225447
0
LINE
5
29d
100
AcDbEntity
8
0
100
AcDbLine
6
CONTINUOUS
62
5
10
154.397806
20
220.225447
11
154.388186
21
220.240904
0
LINE
5
29e
100
AcDbEntity
8
0
100
AcDbLine
6
CONTINUOUS
62
5
10
154.388186
20
220.240904
11
154.377967
21
220.256044
0
LINE
5
29f
100
AcDbEntity
8
0
100
AcDbLine
6
CONTINUOUS
62
5
10
154.377967
20
220.256044
11
154.367178
21
220.270853
0
LINE
5
2a0
100
AcDbEntity
8
0
100
AcDbLine
6
CONTINUOUS
62
5
10
154.367178
20
220.270853
11
154.355850
21
220.285318
0
LINE
5
2a1
100
AcDbEntity
8
0
100
AcDbLine
6
CONTINUOUS
62
5
10
154.355850
20
220.285318
11
154.344014
21
220.299425
0
LINE
5
2a2
100
AcDbEntity
8
0
100
AcDbLine
6
CONTINUOUS
62
5
10
154.344014
20
220.299425
11
154.331699
21
220.313159
0
LINE
5
2a3
100
AcDbEntity
8
0
100
AcDbLine
6
CONTINUOUS
62
5
10
154.331699
20
220.313159
11
154.318936
21
220.326506
0
LINE
5
2a4
100
AcDbEntity
8
0
100
AcDbLine
6
CONTINUOUS
62
5
10
154.318936
20
220.326506
11
154.305755
21
220.339452
0
LINE
5
2a5
100
AcDbEntity
8
0
100
AcDbLine
6
CONTINUOUS
62
5
10
154.305755
20
220.339452
11
154.292185
21
220.351983
0
LINE
5
2a6
100
AcDbEntity
8
0
100
AcDbLine
6
CONTINUOUS
62
5
10
154.292185
20
220.351983
11
154.278247
21
220.364079
0
LINE
5
2a7
100
AcDbEntity
8
0
100
AcDbLine
6
CONTINUOUS
62
5
10
154.278247
20
220.364079
11
154.263954
21
220.375719
0
LINE
5
2a8
100
AcDbEntity
8
0
100
AcDbLine
6
CONTINUOUS
62
5
10
154.263954
20
220.375719
11
154.249322
21
220.386881
0
LINE
5
2a9
100
AcDbEntity
8
0
100
AcDbLine
6
CONTINUOUS
62
5
10
154.249322
20
220.386881
11
154.234367
21
220.397545
0
LINE
5
2aa
100
AcDbEntity
8
0
100
AcDbLine
6
CONTINUOUS
62
5
10
154.234367
20
220.397545
11
154.219103
21
220.407688
0
LINE
5
2ab
100
AcDbEntity
8
0
100
AcDbLine
6
CONTINUOUS
62
5
10
154.219103
20
220.407688
11
154.203546
21
220.417290
0
LINE
5
2ac
100
AcDbEntity
8
0
100
AcDbLine
6
CONTINUOUS
62
5
10
154.203546
20
220.417290
11
154.187711
21
220.426328
0
LINE
5
2ad
100
AcDbEntity
8
0
100
AcDbLine
6
CONTINUOUS
62
5
10
154.187711
20
220.426328
11
154.171613
21
220.434783
0
LINE
5
2ae
100
AcDbEntity
8
0
100
AcDbLine
6
CONTINUOUS
62
5
10
154.171613
20
220.434783
11
154.155268
21
220.442631
0
LINE
5
2af
100
AcDbEntity
8
0
100
AcDbLine
6
CONTINUOUS
62
5
10
154.155268
20
220.442631
11
154.138691
21
220.449853
0
LINE
5
2b0
100
AcDbEntity
8
0
100
AcDbLine
6
CONTINUOUS
62
5
10
154.138691
20
220.449853
11
154.121896
21
220.456426
0
LINE
5
2b1
100
AcDbEntity
8
0
100
AcDbLine
6
CONTINUOUS
62
5
10
154.121896
20
220.456426
11
154.104900
21
220.462329
0
LINE
5
2b2
100
AcDbEntity
8
0
100
AcDbLine
6
CONTINUOUS
62
5
10
154.104900
20
220.462329
11
154.087717
21
220.467564
0
LINE
5
2b3
100
AcDbEntity
8
0
100
AcDbLine
6
CONTINUOUS
62
5
10
154.087717
20
220.467564
11
154.070364
21
220.472181
0
LINE
5
2b4
100
AcDbEntity
8
0
100
AcDbLine
6
CONTINUOUS
62
5
10
154.070364
20
220.472181
11
154.052854
21
220.476235
0
LINE
5
2b5
100
AcDbEntity
8
0
100
AcDbLine
6
CONTINUOUS
62
5
10
154.052854
20
220.476235
11
154.035205
21
220.479784
0
LINE
5
2b6
100
AcDbEntity
8
0
100
AcDbLine
6
CONTINUOUS
62
5
10
154.035205
20
220.479784
11
154.017432
21
220.482882
0
LINE
5
2b7
100
AcDbEntity
8
0
100
AcDbLine
6
CONTINUOUS
62
5
10
154.017432
20
220.482882
11
153.999549
21
220.485587
0
LINE
5
2b8
100
AcDbEntity
8
0
100
AcDbLine
6
CONTINUOUS
62
5
10
153.999549
20
220.485587
11
153.981574
21
220.487955
0
LINE
5
2b9
100
AcDbEntity
8
0
100
AcDbLine
6
CONTINUOUS
62
5
10
153.981574
20
220.487955
11
153.963520
21
220.490041
0
LINE
5
2ba
100
AcDbEntity
8
0
100
AcDbLine
6
CONTINUOUS
62
5
10
153.963520
20
220.490041
11
153.945405
21
220.491903
0
LINE
5
2bb
100
AcDbEntity
8
0
100
AcDbLine
6
CONTINUOUS
62
5
10
153.945405
20
220.491903
11
153.927242
21
220.493596
0
LINE
5
2bc
100
AcDbEntity
8
0
100
AcDbLine
6
CONTINUOUS
62
5
10
153.927242
20
220.493596
11
153.909049
21
220.495177
0
LINE
5
2bd
100
AcDbEntity
8
0
100
AcDbLine
6
CONTINUOUS
62
5
10
153.909049
20
220.495177
11
153.890840
21
220.496701
0
LINE
5
2be
100
AcDbEntity
8
0
100
AcDbLine
6
CONTINUOUS
62
5
10
211.072005
20
198.353533
11
211.086640
21
198.681260
0
LINE
5
2bf
100
AcDbEntity
8
0
100
AcDbLine
6
CONTINUOUS
62
5
10
211.086640
20
198.681260
11
211.102676
21
199.008892
0
LINE
5
2c0
100
AcDbEntity
8
0
100
AcDbLine
6
CONTINUOUS
62
5
10
211.102676
20
199.008892
11
211.120073
21
199.336422
0
LINE
5
2c1
100
AcDbEntity
8
0
100
AcDbLine
6
CONTINUOUS
62
5
10
211.027954
20
197.041802
11
211.036857
21
197.369845
0
LINE
5
2c2
100
AcDbEntity
8
0
100
AcDbLine
6
CONTINUOUS
62
5
10
211.036857
20
197.369845
11
211.047099
21
197.697819
0
LINE
5
2c3
100
AcDbEntity
8
0
100
AcDbLine
6
CONTINUOUS
62
5
10
211.047099
20
197.697819
11
211.058812
21
198.025718
0
LINE
5
2c4
100
AcDbEntity
8
0
100
AcDbLine
6
CONTINUOUS
62
5
10
211.058812
20
198.025718
11
211.072005
21
198.353533
0
LINE
5
2c5
100
AcDbEntity
8
0
100
AcDbLine
6
CONTINUOUS
62
5
10
211.202468
20
200.645405
11
211.226068
21
200.972335
0
LINE
5
2c6
100
AcDbEntity
8
0
100
AcDbLine
6
CONTINUOUS
62
5
10
211.226068
20
200.972335
11
211.250790
21
201.299126
0
LINE
5
2c7
100
AcDbEntity
8
0
100
AcDbLine
6
CONTINUOUS
62
5
10
211.250790
20
201.299126
11
211.276619
21
201.625773
0
LINE
5
2c8
100
AcDbEntity
8
0
100
AcDbLine
6
CONTINUOUS
62
5
10
211.138790
20
199.663845
11
211.158789
21
199.991154
0
LINE
5
2c9
100
AcDbEntity
8
0
100
AcDbLine
6
CONTINUOUS
62
5
10
211.158789
20
199.991154
11
211.180028
21
200.318343
0
LINE
5
2ca
100
AcDbEntity
8
0
100
AcDbLine
6
CONTINUOUS
62
5
10
211.180028
20
200.318343
11
211.202468
21
200.645405
0
LINE
5
2cb
100
AcDbEntity
8
0
100
AcDbLine
6
CONTINUOUS
62
5
10
211.120073
20
199.336422
11
211.138790
21
199.663845
0
LINE
5
2cc
100
AcDbEntity
8
0
100
AcDbLine
6
CONTINUOUS
62
5
10
210.990613
20
194.744223
11
210.994312
21
195.072533
0
LINE
5
2cd
100
AcDbEntity
8
0
100
AcDbLine
6
CONTINUOUS
62
5
10
210.994312
20
195.072533
11
210.998307
21
195.400827
0
LINE
5
2ce
100
AcDbEntity
8
0
100
AcDbLine
6
CONTINUOUS
62
5
10
210.998307
20
195.400827
11
211.002749
21
195.729098
0
LINE
5
2cf
100
AcDbEntity
8
0
100
AcDbLine
6
CONTINUOUS
62
5
10
211.002749
20
195.729098
11
211.007786
21
196.057339
0
LINE
5
2d0
100
AcDbEntity
8
0
100
AcDbLine
6
CONTINUOUS
62
5
10
210.987064
20
194.415907
11
210.990613
21
194.744223
0
LINE
5
2d1
100
AcDbEntity
8
0
100
AcDbLine
6
CONTINUOUS
62
5
10
211.007786
20
196.057339
11
211.013567
21
196.385541
0
LINE
5
2d2
100
AcDbEntity
8
0
100
AcDbLine
6
CONTINUOUS
62
5
10
211.013567
20
196.385541
11
211.020240
21
196.713698
0
LINE
5
2d3
100
AcDbEntity
8
0
100
AcDbLine
6
CONTINUOUS
62
5
10
211.020240
20
196.713698
11
211.027954
21
197.041802
0
LINE
5
2d4
100
AcDbEntity
8
0
100
AcDbLine
6
CONTINUOUS
62
5
10
211.331633
20
202.278620
11
211.360836
21
202.604811
0
LINE
5
2d5
100
AcDbEntity
8
0
100
AcDbLine
6
CONTINUOUS
62
5
10
211.276619
20
201.625773
11
211.303564
21
201.952272
0
LINE
5
2d6
100
AcDbEntity
8
0
100
AcDbLine
6
CONTINUOUS
62
5
10
211.303564
20
201.952272
11
211.331633
21
202.278620
0
LINE
5
2d7
100
AcDbEntity
8
0
100
AcDbLine
6
CONTINUOUS
62
5
10
210.987064
20
195.915907
11
210.987064
21
250.500000
0
LINE
5
2d8
100
AcDbEntity
8
0
100
AcDbLine
6
CONTINUOUS
62
5
10
230.137064
20
225.000000
11
230.137064
21
250.500000
0
POLYLINE
5
2d9
100
AcDbEntity
8
0
6
CONTINUOUS
62
5
100
AcDb2dPolyline
66
1
10
0.0
20
0.0
30
0.0
70
0
0
VERTEX
5
2da
100
AcDbEntity
8
0
100
AcDbVertex
100
AcDb2dVertex
62
5
10
261.387064
20
248.500000
0
VERTEX
5
2db
100
AcDbEntity
8
0
100
AcDbVertex
100
AcDb2dVertex
62
5
10
230.137064
20
248.500000
0
VERTEX
5
2dc
100
AcDbEntity
8
0
100
AcDbVertex
100
AcDb2dVertex
62
5
10
236.137064
20
249.500000
0
VERTEX
5
2dd
100
AcDbEntity
8
0
100
AcDbVertex
100
AcDb2dVertex
62
5
10
236.137064
20
247.500000
0
VERTEX
5
2de
100
AcDbEntity
8
0
100
AcDbVertex
100
AcDb2dVertex
62
5
10
230.137064
20
248.500000
0
VERTEX
5
2df
100
AcDbEntity
8
0
100
AcDbVertex
100
AcDb2dVertex
62
5
10
236.137064
20
249.000000
0
VERTEX
5
2e0
100
AcDbEntity
8
0
100
AcDbVertex
100
AcDb2dVertex
62
5
10
236.137064
20
248.000000
0
VERTEX
5
2e1
100
AcDbEntity
8
0
100
AcDbVertex
100
AcDb2dVertex
62
5
10
230.137064
20
248.500000
0
SEQEND
5
2e2
100
AcDbEntity
8
0
0
LINE
5
2e3
100
AcDbEntity
8
0
100
AcDbLine
6
CONTINUOUS
62
5
10
230.137064
20
248.500000
11
210.987064
21
248.500000
0
POLYLINE
5
2e4
100
AcDbEntity
8
0
6
CONTINUOUS
62
5
100
AcDb2dPolyline
66
1
10
0.0
20
0.0
30
0.0
70
0
0
VERTEX
5
2e5
100
AcDbEntity
8
0
100
AcDbVertex
100
AcDb2dVertex
62
5
10
201.987064
20
248.500000
0
VERTEX
5
2e6
100
AcDbEntity
8
0
100
AcDbVertex
100
AcDb2dVertex
62
5
10
210.987064
20
248.500000
0
VERTEX
5
2e7
100
AcDbEntity
8
0
100
AcDbVertex
100
AcDb2dVertex
62
5
10
204.987064
20
247.500000
0
VERTEX
5
2e8
100
AcDbEntity
8
0
100
AcDbVertex
100
AcDb2dVertex
62
5
10
204.987064
20
249.500000
0
VERTEX
5
2e9
100
AcDbEntity
8
0
100
AcDbVertex
100
AcDb2dVertex
62
5
10
210.987064
20
248.500000
0
VERTEX
5
2ea
100
AcDbEntity
8
0
100
AcDbVertex
100
AcDb2dVertex
62
5
10
204.987064
20
248.000000
0
VERTEX
5
2eb
100
AcDbEntity
8
0
100
AcDbVertex
100
AcDb2dVertex
62
5
10
204.987064
20
249.000000
0
VERTEX
5
2ec
100
AcDbEntity
8
0
100
AcDbVertex
100
AcDb2dVertex
62
5
10
210.987064
20
248.500000
0
SEQEND
5
2ed
100
AcDbEntity
8
0
0
POLYLINE
5
2ee
100
AcDbEntity
8
1
6
CONTINUOUS
62
5
100
AcDb2dPolyline
66
1
10
0.0
20
0.0
30
0.0
70
0
0
VERTEX
5
2ef
100
AcDbEntity
8
1
100
AcDbVertex
100
AcDb2dVertex
62
5
10
135.250000
20
326.812500
0
VERTEX
5
2f0
100
AcDbEntity
8
1
100
AcDbVertex
100
AcDb2dVertex
62
5
10
134.000000
20
325.250000
0
VERTEX
5
2f1
100
AcDbEntity
8
1
100
AcDbVertex
100
AcDb2dVertex
62
5
10
132.250000
20
324.000000
0
SEQEND
5
2f2
100
AcDbEntity
8
1
0
POLYLINE
5
2f3
100
AcDbEntity
8
1
6
CONTINUOUS
62
5
100
AcDb2dPolyline
66
1
10
0.0
20
0.0
30
0.0
70
0
0
VERTEX
5
2f4
100
AcDbEntity
8
1
100
AcDbVertex
100
AcDb2dVertex
62
5
10
134.000000
20
325.250000
0
VERTEX
5
2f5
100
AcDbEntity
8
1
100
AcDbVertex
100
AcDb2dVertex
62
5
10
134.250000
20
324.625000
0
VERTEX
5
2f6
100
AcDbEntity
8
1
100
AcDbVertex
100
AcDb2dVertex
62
5
10
134.250000
20
321.500000
0
SEQEND
5
2f7
100
AcDbEntity
8
1
0
POLYLINE
5
2f8
100
AcDbEntity
8
1
6
CONTINUOUS
62
5
100
AcDb2dPolyline
66
1
10
0.0
20
0.0
30
0.0
70
0
0
VERTEX
5
2f9
100
AcDbEntity
8
1
100
AcDbVertex
100
AcDb2dVertex
62
5
10
139.500000
20
326.500000
0
VERTEX
5
2fa
100
AcDbEntity
8
1
100
AcDbVertex
100
AcDb2dVertex
62
5
10
144.250000
20
326.500000
0
VERTEX
5
2fb
100
AcDbEntity
8
1
100
AcDbVertex
100
AcDb2dVertex
62
5
10
144.250000
20
324.937500
0
VERTEX
5
2fc
100
AcDbEntity
8
1
100
AcDbVertex
100
AcDb2dVertex
62
5
10
144.000000
20
323.375000
0
VERTEX
5
2fd
100
AcDbEntity
8
1
100
AcDbVertex
100
AcDb2dVertex
62
5
10
143.250000
20
322.125000
0
VERTEX
5
2fe
100
AcDbEntity
8
1
100
AcDbVertex
100
AcDb2dVertex
62
5
10
142.500000
20
322.125000
0
SEQEND
5
2ff
100
AcDbEntity
8
1
0
POLYLINE
5
300
100
AcDbEntity
8
1
6
CONTINUOUS
62
5
100
AcDb2dPolyline
66
1
10
0.0
20
0.0
30
0.0
70
0
0
VERTEX
5
301
100
AcDbEntity
8
1
100
AcDbVertex
100
AcDb2dVertex
62
5
10
142.000000
20
328.375000
0
VERTEX
5
302
100
AcDbEntity
8
1
100
AcDbVertex
100
AcDb2dVertex
62
5
10
141.500000
20
324.625000
0
VERTEX
5
303
100
AcDbEntity
8
1
100
AcDbVertex
100
AcDb2dVertex
62
5
10
140.750000
20
323.375000
0
VERTEX
5
304
100
AcDbEntity
8
1
100
AcDbVertex
100
AcDb2dVertex
62
5
10
139.750000
20
322.125000
0
SEQEND
5
305
100
AcDbEntity
8
1
0
LINE
5
306
100
AcDbEntity
8
1
100
AcDbLine
6
CONTINUOUS
62
5
10
126.250000
20
324.937500
11
125.750000
21
323.375000
0
LINE
5
307
100
AcDbEntity
8
1
100
AcDbLine
6
CONTINUOUS
62
5
10
124.250000
20
328.062500
11
127.750000
21
328.062500
0
LINE
5
308
100
AcDbEntity
8
1
100
AcDbLine
6
CONTINUOUS
62
5
10
123.000000
20
325.875000
11
128.750000
21
325.875000
0
POLYLINE
5
309
100
AcDbEntity
8
1
6
CONTINUOUS
62
5
100
AcDb2dPolyline
66
1
10
0.0
20
0.0
30
0.0
70
0
0
VERTEX
5
30a
100
AcDbEntity
8
1
100
AcDbVertex
100
AcDb2dVertex
62
5
10
125.750000
20
323.375000
0
VERTEX
5
30b
100
AcDbEntity
8
1
100
AcDbVertex
100
AcDb2dVertex
62
5
10
125.000000
20
322.437500
0
VERTEX
5
30c
100
AcDbEntity
8
1
100
AcDbVertex
100
AcDb2dVertex
62
5
10
124.000000
20
321.500000
0
SEQEND
5
30d
100
AcDbEntity
8
1
0
LINE
5
30e
100
AcDbEntity
8
1
100
AcDbLine
6
CONTINUOUS
62
5
10
126.250000
20
325.875000
11
126.250000
21
324.937500
0
LINE
5
30f
100
AcDbEntity
8
1
100
AcDbLine
6
CONTINUOUS
62
5
10
116.250000
20
328.375000
11
116.250000
21
324.625000
0
POLYLINE
5
310
100
AcDbEntity
8
1
6
CONTINUOUS
62
5
100
AcDb2dPolyline
66
1
10
0.0
20
0.0
30
0.0
70
0
0
VERTEX
5
311
100
AcDbEntity
8
1
100
AcDbVertex
100
AcDb2dVertex
62
5
10
119.000000
20
328.687500
0
VERTEX
5
312
100
AcDbEntity
8
1
100
AcDbVertex
100
AcDb2dVertex
62
5
10
119.000000
20
324.937500
0
VERTEX
5
313
100
AcDbEntity
8
1
100
AcDbVertex
100
AcDb2dVertex
62
5
10
118.750000
20
323.687500
0
VERTEX
5
314
100
AcDbEntity
8
1
100
AcDbVertex
100
AcDb2dVertex
62
5
10
118.250000
20
322.437500
0
VERTEX
5
315
100
AcDbEntity
8
1
100
AcDbVertex
100
AcDb2dVertex
62
5
10
117.500000
20
321.500000
0
SEQEND
5
316
100
AcDbEntity
8
1
0
POLYLINE
5
317
100
AcDbEntity
8
1
6
CONTINUOUS
62
5
100
AcDb2dPolyline
66
1
10
0.0
20
0.0
30
0.0
70
0
0
VERTEX
5
318
100
AcDbEntity
8
1
100
AcDbVertex
100
AcDb2dVertex
62
5
10
91.000000
20
325.562500
0
VERTEX
5
319
100
AcDbEntity
8
1
100
AcDbVertex
100
AcDb2dVertex
62
5
10
96.250000
20
326.187500
0
VERTEX
5
31a
100
AcDbEntity
8
1
100
AcDbVertex
100
AcDb2dVertex
62
5
10
96.250000
20
325.875000
0
VERTEX
5
31b
100
AcDbEntity
8
1
100
AcDbVertex
100
AcDb2dVertex
62
5
10
95.000000
20
324.312500
0
SEQEND
5
31c
100
AcDbEntity
8
1
0
POLYLINE
5
31d
100
AcDbEntity
8
1
6
CONTINUOUS
62
5
100
AcDb2dPolyline
66
1
10
0.0
20
0.0
30
0.0
70
0
0
VERTEX
5
31e
100
AcDbEntity
8
1
100
AcDbVertex
100
AcDb2dVertex
62
5
10
93.000000
20
328.375000
0
VERTEX
5
31f
100
AcDbEntity
8
1
100
AcDbVertex
100
AcDb2dVertex
62
5
10
93.000000
20
322.437500
0
VERTEX
5
320
100
AcDbEntity
8
1
100
AcDbVertex
100
AcDb2dVertex
62
5
10
93.500000
20
321.812500
0
VERTEX
5
321
100
AcDbEntity
8
1
100
AcDbVertex
100
AcDb2dVertex
62
5
10
96.250000
20
321.812500
0
SEQEND
5
322
100
AcDbEntity
8
1
0
LINE
5
323
100
AcDbEntity
8
1
100
AcDbLine
6
CONTINUOUS
62
5
10
99.500000
20
326.500000
11
103.750000
21
327.125000
0
LINE
5
324
100
AcDbEntity
8
1
100
AcDbLine
6
CONTINUOUS
62
5
10
99.000000
20
324.312500
11
104.500000
21
324.937500
0
LINE
5
325
100
AcDbEntity
8
1
100
AcDbLine
6
CONTINUOUS
62
5
10
101.250000
20
329.000000
11
102.000000
21
321.500000
0
POLYLINE
5
326
100
AcDbEntity
8
1
6
CONTINUOUS
62
5
100
AcDb2dPolyline
66
1
10
0.0
20
0.0
30
0.0
70
0
0
VERTEX
5
327
100
AcDbEntity
8
1
100
AcDbVertex
100
AcDb2dVertex
62
5
10
90.750000
20
315.562500
0
VERTEX
5
328
100
AcDbEntity
8
1
100
AcDbVertex
100
AcDb2dVertex
62
5
10
91.000000
20
315.250000
0
VERTEX
5
329
100
AcDbEntity
8
1
100
AcDbVertex
100
AcDb2dVertex
62
5
10
97.750000
20
315.250000
0
SEQEND
5
32a
100
AcDbEntity
8
1
0
POLYLINE
5
32b
100
AcDbEntity
8
1
6
CONTINUOUS
62
5
100
AcDb2dPolyline
66
1
10
0.0
20
0.0
30
0.0
70
0
0
VERTEX
5
32c
100
AcDbEntity
8
1
100
AcDbVertex
100
AcDb2dVertex
62
5
10
101.250000
20
319.625000
0
VERTEX
5
32d
100
AcDbEntity
8
1
100
AcDbVertex
100
AcDb2dVertex
62
5
10
100.500000
20
318.375000
0
VERTEX
5
32e
100
AcDbEntity
8
1
100
AcDbVertex
100
AcDb2dVertex
62
5
10
99.750000
20
317.437500
0
VERTEX
5
32f
100
AcDbEntity
8
1
100
AcDbVertex
100
AcDb2dVertex
62
5
10
98.750000
20
316.500000
0
SEQEND
5
330
100
AcDbEntity
8
1
0
POLYLINE
5
331
100
AcDbEntity
8
1
6
CONTINUOUS
62
5
100
AcDb2dPolyline
66
1
10
0.0
20
0.0
30
0.0
70
0
0
VERTEX
5
332
100
AcDbEntity
8
1
100
AcDbVertex
100
AcDb2dVertex
62
5
10
101.000000
20
319.000000
0
VERTEX
5
333
100
AcDbEntity
8
1
100
AcDbVertex
100
AcDb2dVertex
62
5
10
103.250000
20
319.000000
0
VERTEX
5
334
100
AcDbEntity
8
1
100
AcDbVertex
100
AcDb2dVertex
62
5
10
102.000000
20
317.125000
0
SEQEND
5
335
100
AcDbEntity
8
1
0
POLYLINE
5
336
100
AcDbEntity
8
1
6
CONTINUOUS
62
5
100
AcDb2dPolyline
66
1
10
0.0
20
0.0
30
0.0
70
0
0
VERTEX
5
337
100
AcDbEntity
8
1
100
AcDbVertex
100
AcDb2dVertex
62
5
10
99.750000
20
317.125000
0
VERTEX
5
338
100
AcDbEntity
8
1
100
AcDbVertex
100
AcDb2dVertex
62
5
10
104.250000
20
317.125000
0
VERTEX
5
339
100
AcDbEntity
8
1
100
AcDbVertex
100
AcDb2dVertex
62
5
10
104.250000
20
314.312500
0
VERTEX
5
33a
100
AcDbEntity
8
1
100
AcDbVertex
100
AcDb2dVertex
62
5
10
99.750000
20
314.312500
0
SEQEND
5
33b
100
AcDbEntity
8
1
0
LINE
5
33c
100
AcDbEntity
8
1
100
AcDbLine
6
CONTINUOUS
62
5
10
102.000000
20
317.125000
11
102.000000
21
314.312500
0
POLYLINE
5
33d
100
AcDbEntity
8
1
6
CONTINUOUS
62
5
100
AcDb2dPolyline
66
1
10
0.0
20
0.0
30
0.0
70
0
0
VERTEX
5
33e
100
AcDbEntity
8
1
100
AcDbVertex
100
AcDb2dVertex
62
5
10
99.750000
20
317.125000
0
VERTEX
5
33f
100
AcDbEntity
8
1
100
AcDbVertex
100
AcDb2dVertex
62
5
10
99.750000
20
311.812500
0
VERTEX
5
340
100
AcDbEntity
8
1
100
AcDbVertex
100
AcDb2dVertex
62
5
10
100.250000
20
311.187500
0
VERTEX
5
341
100
AcDbEntity
8
1
100
AcDbVertex
100
AcDb2dVertex
62
5
10
105.250000
20
311.187500
0
VERTEX
5
342
100
AcDbEntity
8
1
100
AcDbVertex
100
AcDb2dVertex
62
5
10
105.250000
20
312.437500
0
SEQEND
5
343
100
AcDbEntity
8
1
0
LINE
5
344
100
AcDbEntity
8
1
100
AcDbLine
6
CONTINUOUS
62
5
10
84.250000
20
327.125000
11
87.000000
21
327.750000
0
LINE
5
345
100
AcDbEntity
8
1
100
AcDbLine
6
CONTINUOUS
62
5
10
84.250000
20
325.250000
11
87.750000
21
326.187500
0
POLYLINE
5
346
100
AcDbEntity
8
1
6
CONTINUOUS
62
5
100
AcDb2dPolyline
66
1
10
0.0
20
0.0
30
0.0
70
0
0
VERTEX
5
347
100
AcDbEntity
8
1
100
AcDbVertex
100
AcDb2dVertex
62
5
10
85.250000
20
328.687500
0
VERTEX
5
348
100
AcDbEntity
8
1
100
AcDbVertex
100
AcDb2dVertex
62
5
10
87.500000
20
323.687500
0
VERTEX
5
349
100
AcDbEntity
8
1
100
AcDbVertex
100
AcDb2dVertex
62
5
10
87.000000
20
323.687500
0
VERTEX
5
34a
100
AcDbEntity
8
1
100
AcDbVertex
100
AcDb2dVertex
62
5
10
85.500000
20
324.312500
0
VERTEX
5
34b
100
AcDbEntity
8
1
100
AcDbVertex
100
AcDb2dVertex
62
5
10
84.750000
20
324.312500
0
VERTEX
5
34c
100
AcDbEntity
8
1
100
AcDbVertex
100
AcDb2dVertex
62
5
10
83.750000
20
323.375000
0
VERTEX
5
34d
100
AcDbEntity
8
1
100
AcDbVertex
100
AcDb2dVertex
62
5
10
83.750000
20
322.750000
0
VERTEX
5
34e
100
AcDbEntity
8
1
100
AcDbVertex
100
AcDb2dVertex
62
5
10
84.250000
20
322.125000
0
VERTEX
5
34f
100
AcDbEntity
8
1
100
AcDbVertex
100
AcDb2dVertex
62
5
10
84.750000
20
321.812500
0
VERTEX
5
350
100
AcDbEntity
8
1
100
AcDbVertex
100
AcDb2dVertex
62
5
10
86.250000
20
321.812500
0
SEQEND
5
351
100
AcDbEntity
8
1
0
POLYLINE
5
352
100
AcDbEntity
8
1
6
CONTINUOUS
62
5
100
AcDb2dPolyline
66
1
10
0.0
20
0.0
30
0.0
70
0
0
VERTEX
5
353
100
AcDbEntity
8
1
100
AcDbVertex
100
AcDb2dVertex
62
5
10
84.750000
20
316.187500
0
VERTEX
5
354
100
AcDbEntity
8
1
100
AcDbVertex
100
AcDb2dVertex
62
5
10
84.000000
20
314.625000
0
VERTEX
5
355
100
AcDbEntity
8
1
100
AcDbVertex
100
AcDb2dVertex
62
5
10
82.750000
20
313.062500
0
SEQEND
5
356
100
AcDbEntity
8
1
0
POLYLINE
5
357
100
AcDbEntity
8
1
6
CONTINUOUS
62
5
100
AcDb2dPolyline
66
1
10
0.0
20
0.0
30
0.0
70
0
0
VERTEX
5
358
100
AcDbEntity
8
1
100
AcDbVertex
100
AcDb2dVertex
62
5
10
86.750000
20
316.187500
0
VERTEX
5
359
100
AcDbEntity
8
1
100
AcDbVertex
100
AcDb2dVertex
62
5
10
87.750000
20
314.625000
0
VERTEX
5
35a
100
AcDbEntity
8
1
100
AcDbVertex
100
AcDb2dVertex
62
5
10
88.500000
20
313.062500
0
SEQEND
5
35b
100
AcDbEntity
8
1
0
LINE
5
35c
100
AcDbEntity
8
1
100
AcDbLine
6
CONTINUOUS
62
5
10
87.500000
20
317.437500
11
88.000000
21
316.812500
0
LINE
5
35d
100
AcDbEntity
8
1
100
AcDbLine
6
CONTINUOUS
62
5
10
88.250000
20
318.062500
11
88.750000
21
317.437500
0
POLYLINE
5
35e
100
AcDbEntity
8
1
6
CONTINUOUS
62
5
100
AcDb2dPolyline
66
1
10
0.0
20
0.0
30
0.0
70
0
0
VERTEX
5
35f
100
AcDbEntity
8
1
100
AcDbVertex
100
AcDb2dVertex
62
5
10
76.500000
20
329.312500
0
VERTEX
5
360
100
AcDbEntity
8
1
100
AcDbVertex
100
AcDb2dVertex
62
5
10
75.500000
20
326.500000
0
VERTEX
5
361
100
AcDbEntity
8
1
100
AcDbVertex
100
AcDb2dVertex
62
5
10
74.250000
20
324.312500
0
SEQEND
5
362
100
AcDbEntity
8
1
0
LINE
5
363
100
AcDbEntity
8
1
100
AcDbLine
6
CONTINUOUS
62
5
10
75.500000
20
326.500000
11
75.500000
21
320.562500
0
LINE
5
364
100
AcDbEntity
8
1
100
AcDbLine
6
CONTINUOUS
62
5
10
76.250000
20
326.500000
11
81.500000
21
326.500000
0
POLYLINE
5
365
100
AcDbEntity
8
1
6
CONTINUOUS
62
5
100
AcDb2dPolyline
66
1
10
0.0
20
0.0
30
0.0
70
0
0
VERTEX
5
366
100
AcDbEntity
8
1
100
AcDbVertex
100
AcDb2dVertex
62
5
10
79.750000
20
329.312500
0
VERTEX
5
367
100
AcDbEntity
8
1
100
AcDbVertex
100
AcDb2dVertex
62
5
10
79.750000
20
320.875000
0
VERTEX
5
368
100
AcDbEntity
8
1
100
AcDbVertex
100
AcDb2dVertex
62
5
10
78.250000
20
321.187500
0
SEQEND
5
369
100
AcDbEntity
8
1
0
LINE
5
36a
100
AcDbEntity
8
1
100
AcDbLine
6
CONTINUOUS
62
5
10
77.250000
20
325.250000
11
78.250000
21
323.375000
0
POLYLINE
5
36b
100
AcDbEntity
8
1
6
CONTINUOUS
62
5
100
AcDb2dPolyline
66
1
10
0.0
20
0.0
30
0.0
70
0
0
VERTEX
5
36c
100
AcDbEntity
8
1
100
AcDbVertex
100
AcDb2dVertex
62
5
10
76.500000
20
318.062500
0
VERTEX
5
36d
100
AcDbEntity
8
1
100
AcDbVertex
100
AcDb2dVertex
62
5
10
76.500000
20
316.187500
0
VERTEX
5
36e
100
AcDbEntity
8
1
100
AcDbVertex
100
AcDb2dVertex
62
5
10
76.250000
20
314.625000
0
VERTEX
5
36f
100
AcDbEntity
8
1
100
AcDbVertex
100
AcDb2dVertex
62
5
10
75.750000
20
313.375000
0
VERTEX
5
370
100
AcDbEntity
8
1
100
AcDbVertex
100
AcDb2dVertex
62
5
10
75.000000
20
312.125000
0
VERTEX
5
371
100
AcDbEntity
8
1
100
AcDbVertex
100
AcDb2dVertex
62
5
10
74.750000
20
311.812500
0
SEQEND
5
372
100
AcDbEntity
8
1
0
POLYLINE
5
373
100
AcDbEntity
8
1
6
CONTINUOUS
62
5
100
AcDb2dPolyline
66
1
10
0.0
20
0.0
30
0.0
70
0
0
VERTEX
5
374
100
AcDbEntity
8
1
100
AcDbVertex
100
AcDb2dVertex
62
5
10
78.000000
20
318.375000
0
VERTEX
5
375
100
AcDbEntity
8
1
100
AcDbVertex
100
AcDb2dVertex
62
5
10
78.000000
20
312.125000
0
VERTEX
5
376
100
AcDbEntity
8
1
100
AcDbVertex
100
AcDb2dVertex
62
5
10
78.750000
20
312.437500
0
VERTEX
5
377
100
AcDbEntity
8
1
100
AcDbVertex
100
AcDb2dVertex
62
5
10
79.750000
20
313.375000
0
VERTEX
5
378
100
AcDbEntity
8
1
100
AcDbVertex
100
AcDb2dVertex
62
5
10
80.500000
20
314.312500
0
VERTEX
5
379
100
AcDbEntity
8
1
100
AcDbVertex
100
AcDb2dVertex
62
5
10
81.000000
20
315.250000
0
SEQEND
5
37a
100
AcDbEntity
8
1
0
POLYLINE
5
37b
100
AcDbEntity
8
1
6
CONTINUOUS
62
5
100
AcDb2dPolyline
66
1
10
0.0
20
0.0
30
0.0
70
0
0
VERTEX
5
37c
100
AcDbEntity
8
1
100
AcDbVertex
100
AcDb2dVertex
62
5
10
108.500000
20
325.562500
0
VERTEX
5
37d
100
AcDbEntity
8
1
100
AcDbVertex
100
AcDb2dVertex
62
5
10
110.500000
20
325.562500
0
VERTEX
5
37e
100
AcDbEntity
8
1
100
AcDbVertex
100
AcDb2dVertex
62
5
10
110.250000
20
322.437500
0
SEQEND
5
37f
100
AcDbEntity
8
1
0
LINE
5
380
100
AcDbEntity
8
1
100
AcDbLine
6
CONTINUOUS
62
5
10
107.750000
20
322.437500
11
112.000000
21
322.437500
0
POLYLINE
5
381
100
AcDbEntity
8
0
6
DOT2
62
5
100
AcDb2dPolyline
66
1
10
0.0
20
0.0
30
0.0
70
0
0
VERTEX
5
382
100
AcDbEntity
8
0
100
AcDbVertex
100
AcDb2dVertex
62
5
10
115.737064
20
256.312500
0
VERTEX
5
383
100
AcDbEntity
8
0
100
AcDbVertex
100
AcDb2dVertex
62
5
10
115.737064
20
257.250000
0
VERTEX
5
384
100
AcDbEntity
8
0
100
AcDbVertex
100
AcDb2dVertex
62
5
10
118.862064
20
257.250000
0
VERTEX
5
385
100
AcDbEntity
8
0
100
AcDbVertex
100
AcDb2dVertex
62
5
10
118.862064
20
256.625000
0
VERTEX
5
386
100
AcDbEntity
8
0
100
AcDbVertex
100
AcDb2dVertex
62
5
10
118.237064
20
255.062500
0
VERTEX
5
387
100
AcDbEntity
8
0
100
AcDbVertex
100
AcDb2dVertex
62
5
10
117.612064
20
252.875000
0
VERTEX
5
388
100
AcDbEntity
8
0
100
AcDbVertex
100
AcDb2dVertex
62
5
10
116.987064
20
249.750000
0
SEQEND
5
389
100
AcDbEntity
8
0
0
POLYLINE
5
38a
100
AcDbEntity
8
0
6
DOT2
62
5
100
AcDb2dPolyline
66
1
10
0.0
20
0.0
30
0.0
70
0
0
VERTEX
5
38b
100
AcDbEntity
8
0
100
AcDbVertex
100
AcDb2dVertex
62
5
10
120.737064
20
255.375000
0
VERTEX
5
38c
100
AcDbEntity
8
0
100
AcDbVertex
100
AcDb2dVertex
62
5
10
121.049564
20
256.625000
0
VERTEX
5
38d
100
AcDbEntity
8
0
100
AcDbVertex
100
AcDb2dVertex
62
5
10
121.674564
20
257.250000
0
VERTEX
5
38e
100
AcDbEntity
8
0
100
AcDbVertex
100
AcDb2dVertex
62
5
10
122.612064
20
257.250000
0
VERTEX
5
38f
100
AcDbEntity
8
0
100
AcDbVertex
100
AcDb2dVertex
62
5
10
123.237064
20
256.937500
0
VERTEX
5
390
100
AcDbEntity
8
0
100
AcDbVertex
100
AcDb2dVertex
62
5
10
123.549564
20
256.000000
0
VERTEX
5
391
100
AcDbEntity
8
0
100
AcDbVertex
100
AcDb2dVertex
62
5
10
123.549564
20
254.750000
0
VERTEX
5
392
100
AcDbEntity
8
0
100
AcDbVertex
100
AcDb2dVertex
62
5
10
123.237064
20
254.125000
0
VERTEX
5
393
100
AcDbEntity
8
0
100
AcDbVertex
100
AcDb2dVertex
62
5
10
122.612064
20
253.500000
0
VERTEX
5
394
100
AcDbEntity
8
0
100
AcDbVertex
100
AcDb2dVertex
62
5
10
121.674564
20
253.500000
0
SEQEND
5
395
100
AcDbEntity
8
0
0
POLYLINE
5
396
100
AcDbEntity
8
0
6
DOT2
62
5
100
AcDb2dPolyline
66
1
10
0.0
20
0.0
30
0.0
70
0
0
VERTEX
5
397
100
AcDbEntity
8
0
100
AcDbVertex
100
AcDb2dVertex
62
5
10
122.612064
20
253.500000
0
VERTEX
5
398
100
AcDbEntity
8
0
100
AcDbVertex
100
AcDb2dVertex
62
5
10
123.549564
20
252.875000
0
VERTEX
5
399
100
AcDbEntity
8
0
100
AcDbVertex
100
AcDb2dVertex
62
5
10
123.862064
20
251.937500
0
VERTEX
5
39a
100
AcDbEntity
8
0
100
AcDbVertex
100
AcDb2dVertex
62
5
10
123.862064
20
251.000000
0
VERTEX
5
39b
100
AcDbEntity
8
0
100
AcDbVertex
100
AcDb2dVertex
62
5
10
123.549564
20
250.375000
0
VERTEX
5
39c
100
AcDbEntity
8
0
100
AcDbVertex
100
AcDb2dVertex
62
5
10
122.612064
20
249.750000
0
VERTEX
5
39d
100
AcDbEntity
8
0
100
AcDbVertex
100
AcDb2dVertex
62
5
10
121.674564
20
249.750000
0
VERTEX
5
39e
100
AcDbEntity
8
0
100
AcDbVertex
100
AcDb2dVertex
62
5
10
121.049564
20
250.062500
0
VERTEX
5
39f
100
AcDbEntity
8
0
100
AcDbVertex
100
AcDb2dVertex
62
5
10
120.424564
20
251.000000
0
SEQEND
5
3a0
100
AcDbEntity
8
0
0
POLYLINE
5
3a1
100
AcDbEntity
8
1
6
CONTINUOUS
62
5
100
AcDb2dPolyline
66
1
10
0.0
20
0.0
30
0.0
70
0
0
VERTEX
5
3a2
100
AcDbEntity
8
1
100
AcDbVertex
100
AcDb2dVertex
62
5
10
102.500000
20
290.500000
0
VERTEX
5
3a3
100
AcDbEntity
8
1
100
AcDbVertex
100
AcDb2dVertex
62
5
10
104.062500
20
283.000000
0
VERTEX
5
3a4
100
AcDbEntity
8
1
100
AcDbVertex
100
AcDb2dVertex
62
5
10
105.625000
20
290.500000
0
SEQEND
5
3a5
100
AcDbEntity
8
1
0
LINE
5
3a6
100
AcDbEntity
8
1
100
AcDbLine
6
CONTINUOUS
62
5
10
82.500000
20
290.500000
11
82.500000
21
283.000000
0
LINE
5
3a7
100
AcDbEntity
8
1
100
AcDbLine
6
CONTINUOUS
62
5
10
85.625000
20
290.500000
11
82.500000
21
286.125000
0
LINE
5
3a8
100
AcDbEntity
8
1
100
AcDbLine
6
CONTINUOUS
62
5
10
83.437500
20
287.375000
11
85.937500
21
283.000000
0
LINE
5
3a9
100
AcDbEntity
8
1
100
AcDbLine
6
CONTINUOUS
62
5
10
87.500000
20
290.500000
11
89.062500
21
286.437500
0
POLYLINE
5
3aa
100
AcDbEntity
8
1
6
CONTINUOUS
62
5
100
AcDb2dPolyline
66
1
10
0.0
20
0.0
30
0.0
70
0
0
VERTEX
5
3ab
100
AcDbEntity
8
1
100
AcDbVertex
100
AcDb2dVertex
62
5
10
90.625000
20
290.500000
0
VERTEX
5
3ac
100
AcDbEntity
8
1
100
AcDbVertex
100
AcDb2dVertex
62
5
10
89.062500
20
286.437500
0
VERTEX
5
3ad
100
AcDbEntity
8
1
100
AcDbVertex
100
AcDb2dVertex
62
5
10
89.062500
20
283.000000
0
SEQEND
5
3ae
100
AcDbEntity
8
1
0
POLYLINE
5
3af
100
AcDbEntity
8
1
6
CONTINUOUS
62
5
100
AcDb2dPolyline
66
1
10
0.0
20
0.0
30
0.0
70
0
0
VERTEX
5
3b0
100
AcDbEntity
8
1
100
AcDbVertex
100
AcDb2dVertex
62
5
10
100.625000
20
288.937500
0
VERTEX
5
3b1
100
AcDbEntity
8
1
100
AcDbVertex
100
AcDb2dVertex
62
5
10
100.000000
20
290.187500
0
VERTEX
5
3b2
100
AcDbEntity
8
1
100
AcDbVertex
100
AcDb2dVertex
62
5
10
99.062500
20
290.500000
0
VERTEX
5
3b3
100
AcDbEntity
8
1
100
AcDbVertex
100
AcDb2dVertex
62
5
10
98.437500
20
290.500000
0
VERTEX
5
3b4
100
AcDbEntity
8
1
100
AcDbVertex
100
AcDb2dVertex
62
5
10
97.812500
20
290.187500
0
VERTEX
5
3b5
100
AcDbEntity
8
1
100
AcDbVertex
100
AcDb2dVertex
62
5
10
97.187500
20
289.250000
0
VERTEX
5
3b6
100
AcDbEntity
8
1
100
AcDbVertex
100
AcDb2dVertex
62
5
10
97.187500
20
288.312500
0
VERTEX
5
3b7
100
AcDbEntity
8
1
100
AcDbVertex
100
AcDb2dVertex
62
5
10
97.812500
20
287.375000
0
VERTEX
5
3b8
100
AcDbEntity
8
1
100
AcDbVertex
100
AcDb2dVertex
62
5
10
100.000000
20
286.125000
0
VERTEX
5
3b9
100
AcDbEntity
8
1
100
AcDbVertex
100
AcDb2dVertex
62
5
10
100.625000
20
285.187500
0
VERTEX
5
3ba
100
AcDbEntity
8
1
100
AcDbVertex
100
AcDb2dVertex
62
5
10
100.625000
20
284.250000
0
VERTEX
5
3bb
100
AcDbEntity
8
1
100
AcDbVertex
100
AcDb2dVertex
62
5
10
100.000000
20
283.312500
0
VERTEX
5
3bc
100
AcDbEntity
8
1
100
AcDbVertex
100
AcDb2dVertex
62
5
10
99.062500
20
283.000000
0
VERTEX
5
3bd
100
AcDbEntity
8
1
100
AcDbVertex
100
AcDb2dVertex
62
5
10
98.437500
20
283.000000
0
VERTEX
5
3be
100
AcDbEntity
8
1
100
AcDbVertex
100
AcDb2dVertex
62
5
10
97.500000
20
283.625000
0
VERTEX
5
3bf
100
AcDbEntity
8
1
100
AcDbVertex
100
AcDb2dVertex
62
5
10
97.187500
20
284.875000
0
SEQEND
5
3c0
100
AcDbEntity
8
1
0
POLYLINE
5
3c1
100
AcDbEntity
8
1
6
CONTINUOUS
62
5
100
AcDb2dPolyline
66
1
10
0.0
20
0.0
30
0.0
70
0
0
VERTEX
5
3c2
100
AcDbEntity
8
1
100
AcDbVertex
100
AcDb2dVertex
62
5
10
72.500000
20
288.625000
0
VERTEX
5
3c3
100
AcDbEntity
8
1
100
AcDbVertex
100
AcDb2dVertex
62
5
10
72.812500
20
289.875000
0
VERTEX
5
3c4
100
AcDbEntity
8
1
100
AcDbVertex
100
AcDb2dVertex
62
5
10
73.437500
20
290.500000
0
VERTEX
5
3c5
100
AcDbEntity
8
1
100
AcDbVertex
100
AcDb2dVertex
62
5
10
74.375000
20
290.500000
0
VERTEX
5
3c6
100
AcDbEntity
8
1
100
AcDbVertex
100
AcDb2dVertex
62
5
10
75.000000
20
290.187500
0
VERTEX
5
3c7
100
AcDbEntity
8
1
100
AcDbVertex
100
AcDb2dVertex
62
5
10
75.312500
20
289.250000
0
VERTEX
5
3c8
100
AcDbEntity
8
1
100
AcDbVertex
100
AcDb2dVertex
62
5
10
75.312500
20
288.000000
0
VERTEX
5
3c9
100
AcDbEntity
8
1
100
AcDbVertex
100
AcDb2dVertex
62
5
10
75.000000
20
287.375000
0
VERTEX
5
3ca
100
AcDbEntity
8
1
100
AcDbVertex
100
AcDb2dVertex
62
5
10
74.375000
20
286.750000
0
VERTEX
5
3cb
100
AcDbEntity
8
1
100
AcDbVertex
100
AcDb2dVertex
62
5
10
73.437500
20
286.750000
0
SEQEND
5
3cc
100
AcDbEntity
8
1
0
POLYLINE
5
3cd
100
AcDbEntity
8
1
6
CONTINUOUS
62
5
100
AcDb2dPolyline
66
1
10
0.0
20
0.0
30
0.0
70
0
0
VERTEX
5
3ce
100
AcDbEntity
8
1
100
AcDbVertex
100
AcDb2dVertex
62
5
10
74.375000
20
286.750000
0
VERTEX
5
3cf
100
AcDbEntity
8
1
100
AcDbVertex
100
AcDb2dVertex
62
5
10
75.312500
20
286.125000
0
VERTEX
5
3d0
100
AcDbEntity
8
1
100
AcDbVertex
100
AcDb2dVertex
62
5
10
75.625000
20
285.187500
0
VERTEX
5
3d1
100
AcDbEntity
8
1
100
AcDbVertex
100
AcDb2dVertex
62
5
10
75.625000
20
284.250000
0
VERTEX
5
3d2
100
AcDbEntity
8
1
100
AcDbVertex
100
AcDb2dVertex
62
5
10
75.312500
20
283.625000
0
VERTEX
5
3d3
100
AcDbEntity
8
1
100
AcDbVertex
100
AcDb2dVertex
62
5
10
74.375000
20
283.000000
0
VERTEX
5
3d4
100
AcDbEntity
8
1
100
AcDbVertex
100
AcDb2dVertex
62
5
10
73.437500
20
283.000000
0
VERTEX
5
3d5
100
AcDbEntity
8
1
100
AcDbVertex
100
AcDb2dVertex
62
5
10
72.812500
20
283.312500
0
VERTEX
5
3d6
100
AcDbEntity
8
1
100
AcDbVertex
100
AcDb2dVertex
62
5
10
72.187500
20
284.250000
0
SEQEND
5
3d7
100
AcDbEntity
8
1
0
POLYLINE
5
3d8
100
AcDbEntity
8
1
6
CONTINUOUS
62
5
100
AcDb2dPolyline
66
1
10
0.0
20
0.0
30
0.0
70
0
0
VERTEX
5
3d9
100
AcDbEntity
8
1
100
AcDbVertex
100
AcDb2dVertex
62
5
10
77.187500
20
290.500000
0
VERTEX
5
3da
100
AcDbEntity
8
1
100
AcDbVertex
100
AcDb2dVertex
62
5
10
78.125000
20
283.000000
0
VERTEX
5
3db
100
AcDbEntity
8
1
100
AcDbVertex
100
AcDb2dVertex
62
5
10
79.062500
20
290.500000
0
VERTEX
5
3dc
100
AcDbEntity
8
1
100
AcDbVertex
100
AcDb2dVertex
62
5
10
80.000000
20
283.000000
0
VERTEX
5
3dd
100
AcDbEntity
8
1
100
AcDbVertex
100
AcDb2dVertex
62
5
10
80.937500
20
290.500000
0
SEQEND
5
3de
100
AcDbEntity
8
1
0
LINE
5
3df
100
AcDbEntity
8
1
100
AcDbLine
6
CONTINUOUS
62
5
10
62.500000
20
290.500000
11
62.500000
21
283.000000
0
POLYLINE
5
3e0
100
AcDbEntity
8
1
6
CONTINUOUS
62
5
100
AcDb2dPolyline
66
1
10
0.0
20
0.0
30
0.0
70
0
0
VERTEX
5
3e1
100
AcDbEntity
8
1
100
AcDbVertex
100
AcDb2dVertex
62
5
10
62.500000
20
290.500000
0
VERTEX
5
3e2
100
AcDbEntity
8
1
100
AcDbVertex
100
AcDb2dVertex
62
5
10
63.750000
20
290.500000
0
VERTEX
5
3e3
100
AcDbEntity
8
1
100
AcDbVertex
100
AcDb2dVertex
62
5
10
64.687500
20
290.187500
0
VERTEX
5
3e4
100
AcDbEntity
8
1
100
AcDbVertex
100
AcDb2dVertex
62
5
10
65.312500
20
289.562500
0
VERTEX
5
3e5
100
AcDbEntity
8
1
100
AcDbVertex
100
AcDb2dVertex
62
5
10
65.625000
20
288.937500
0
VERTEX
5
3e6
100
AcDbEntity
8
1
100
AcDbVertex
100
AcDb2dVertex
62
5
10
65.625000
20
288.000000
0
VERTEX
5
3e7
100
AcDbEntity
8
1
100
AcDbVertex
100
AcDb2dVertex
62
5
10
65.312500
20
287.375000
0
VERTEX
5
3e8
100
AcDbEntity
8
1
100
AcDbVertex
100
AcDb2dVertex
62
5
10
64.687500
20
286.750000
0
VERTEX
5
3e9
100
AcDbEntity
8
1
100
AcDbVertex
100
AcDb2dVertex
62
5
10
63.750000
20
286.437500
0
VERTEX
5
3ea
100
AcDbEntity
8
1
100
AcDbVertex
100
AcDb2dVertex
62
5
10
62.500000
20
286.437500
0
SEQEND
5
3eb
100
AcDbEntity
8
1
0
LINE
5
3ec
100
AcDbEntity
8
1
100
AcDbLine
6
CONTINUOUS
62
5
10
52.500000
20
290.500000
11
55.625000
21
290.500000
0
LINE
5
3ed
100
AcDbEntity
8
1
100
AcDbLine
6
CONTINUOUS
62
5
10
54.062500
20
290.500000
11
54.062500
21
283.000000
0
LINE
5
3ee
100
AcDbEntity
8
1
100
AcDbLine
6
CONTINUOUS
62
5
10
57.500000
20
290.500000
11
57.500000
21
283.000000
0
POLYLINE
5
3ef
100
AcDbEntity
8
1
6
CONTINUOUS
62
5
100
AcDb2dPolyline
66
1
10
0.0
20
0.0
30
0.0
70
0
0
VERTEX
5
3f0
100
AcDbEntity
8
1
100
AcDbVertex
100
AcDb2dVertex
62
5
10
57.500000
20
290.500000
0
VERTEX
5
3f1
100
AcDbEntity
8
1
100
AcDbVertex
100
AcDb2dVertex
62
5
10
59.062500
20
290.500000
0
VERTEX
5
3f2
100
AcDbEntity
8
1
100
AcDbVertex
100
AcDb2dVertex
62
5
10
59.687500
20
290.187500
0
VERTEX
5
3f3
100
AcDbEntity
8
1
100
AcDbVertex
100
AcDb2dVertex
62
5
10
60.312500
20
289.562500
0
VERTEX
5
3f4
100
AcDbEntity
8
1
100
AcDbVertex
100
AcDb2dVertex
62
5
10
60.625000
20
288.312500
0
VERTEX
5
3f5
100
AcDbEntity
8
1
100
AcDbVertex
100
AcDb2dVertex
62
5
10
60.625000
20
285.187500
0
VERTEX
5
3f6
100
AcDbEntity
8
1
100
AcDbVertex
100
AcDb2dVertex
62
5
10
60.312500
20
283.937500
0
VERTEX
5
3f7
100
AcDbEntity
8
1
100
AcDbVertex
100
AcDb2dVertex
62
5
10
59.687500
20
283.312500
0
VERTEX
5
3f8
100
AcDbEntity
8
1
100
AcDbVertex
100
AcDb2dVertex
62
5
10
59.062500
20
283.000000
0
VERTEX
5
3f9
100
AcDbEntity
8
1
100
AcDbVertex
100
AcDb2dVertex
62
5
10
57.500000
20
283.000000
0
SEQEND
5
3fa
100
AcDbEntity
8
1
0
POLYLINE
5
3fb
100
AcDbEntity
8
1
6
CONTINUOUS
62
5
100
AcDb2dPolyline
66
1
10
0.0
20
0.0
30
0.0
70
0
0
VERTEX
5
3fc
100
AcDbEntity
8
1
100
AcDbVertex
100
AcDb2dVertex
62
5
10
66.750000
20
327.125000
0
VERTEX
5
3fd
100
AcDbEntity
8
1
100
AcDbVertex
100
AcDb2dVertex
62
5
10
67.250000
20
327.750000
0
VERTEX
5
3fe
100
AcDbEntity
8
1
100
AcDbVertex
100
AcDb2dVertex
62
5
10
68.000000
20
329.312500
0
VERTEX
5
3ff
100
AcDbEntity
8
1
100
AcDbVertex
100
AcDb2dVertex
62
5
10
68.750000
20
328.375000
0
VERTEX
5
400
100
AcDbEntity
8
1
100
AcDbVertex
100
AcDb2dVertex
62
5
10
69.000000
20
327.750000
0
SEQEND
5
401
100
AcDbEntity
8
1
0
LINE
5
402
100
AcDbEntity
8
1
100
AcDbLine
6
CONTINUOUS
62
5
10
67.250000
20
326.812500
11
68.750000
21
326.812500
0
LINE
5
403
100
AcDbEntity
8
1
100
AcDbLine
6
CONTINUOUS
62
5
10
66.750000
20
324.937500
11
69.000000
21
324.937500
0
LINE
5
404
100
AcDbEntity
8
1
100
AcDbLine
6
CONTINUOUS
62
5
10
68.000000
20
326.812500
11
68.000000
21
322.125000
0
LINE
5
405
100
AcDbEntity
8
1
100
AcDbLine
6
CONTINUOUS
62
5
10
66.750000
20
324.000000
11
67.250000
21
322.750000
0
LINE
5
406
100
AcDbEntity
8
1
100
AcDbLine
6
CONTINUOUS
62
5
10
69.000000
20
324.312500
11
68.500000
21
323.062500
0
LINE
5
407
100
AcDbEntity
8
1
100
AcDbLine
6
CONTINUOUS
62
5
10
66.750000
20
321.500000
11
69.000000
21
322.437500
0
POLYLINE
5
408
100
AcDbEntity
8
1
6
CONTINUOUS
62
5
100
AcDb2dPolyline
66
1
10
0.0
20
0.0
30
0.0
70
0
0
VERTEX
5
409
100
AcDbEntity
8
1
100
AcDbVertex
100
AcDb2dVertex
62
5
10
69.250000
20
328.687500
0
VERTEX
5
40a
100
AcDbEntity
8
1
100
AcDbVertex
100
AcDb2dVertex
62
5
10
70.500000
20
328.687500
0
VERTEX
5
40b
100
AcDbEntity
8
1
100
AcDbVertex
100
AcDb2dVertex
62
5
10
69.250000
20
325.875000
0
VERTEX
5
40c
100
AcDbEntity
8
1
100
AcDbVertex
100
AcDb2dVertex
62
5
10
70.500000
20
325.875000
0
VERTEX
5
40d
100
AcDbEntity
8
1
100
AcDbVertex
100
AcDb2dVertex
62
5
10
70.500000
20
324.937500
0
VERTEX
5
40e
100
AcDbEntity
8
1
100
AcDbVertex
100
AcDb2dVertex
62
5
10
70.000000
20
323.062500
0
VERTEX
5
40f
100
AcDbEntity
8
1
100
AcDbVertex
100
AcDb2dVertex
62
5
10
69.500000
20
321.812500
0
VERTEX
5
410
100
AcDbEntity
8
1
100
AcDbVertex
100
AcDb2dVertex
62
5
10
69.000000
20
321.187500
0
SEQEND
5
411
100
AcDbEntity
8
1
0
POLYLINE
5
412
100
AcDbEntity
8
1
6
CONTINUOUS
62
5
100
AcDb2dPolyline
66
1
10
0.0
20
0.0
30
0.0
70
0
0
VERTEX
5
413
100
AcDbEntity
8
1
100
AcDbVertex
100
AcDb2dVertex
62
5
10
69.250000
20
324.000000
0
VERTEX
5
414
100
AcDbEntity
8
1
100
AcDbVertex
100
AcDb2dVertex
62
5
10
69.500000
20
324.937500
0
VERTEX
5
415
100
AcDbEntity
8
1
100
AcDbVertex
100
AcDb2dVertex
62
5
10
70.000000
20
322.750000
0
VERTEX
5
416
100
AcDbEntity
8
1
100
AcDbVertex
100
AcDb2dVertex
62
5
10
70.500000
20
321.812500
0
VERTEX
5
417
100
AcDbEntity
8
1
100
AcDbVertex
100
AcDb2dVertex
62
5
10
71.250000
20
321.187500
0
VERTEX
5
418
100
AcDbEntity
8
1
100
AcDbVertex
100
AcDb2dVertex
62
5
10
73.500000
20
320.875000
0
SEQEND
5
419
100
AcDbEntity
8
1
0
POLYLINE
5
41a
100
AcDbEntity
8
1
6
CONTINUOUS
62
5
100
AcDb2dPolyline
66
1
10
0.0
20
0.0
30
0.0
70
0
0
VERTEX
5
41b
100
AcDbEntity
8
1
100
AcDbVertex
100
AcDb2dVertex
62
5
10
71.000000
20
328.375000
0
VERTEX
5
41c
100
AcDbEntity
8
1
100
AcDbVertex
100
AcDb2dVertex
62
5
10
73.000000
20
328.375000
0
VERTEX
5
41d
100
AcDbEntity
8
1
100
AcDbVertex
100
AcDb2dVertex
62
5
10
73.000000
20
325.875000
0
VERTEX
5
41e
100
AcDbEntity
8
1
100
AcDbVertex
100
AcDb2dVertex
62
5
10
71.000000
20
325.875000
0
SEQEND
5
41f
100
AcDbEntity
8
1
0
LINE
5
420
100
AcDbEntity
8
1
100
AcDbLine
6
CONTINUOUS
62
5
10
70.500000
20
327.125000
11
73.500000
21
327.125000
0
LINE
5
421
100
AcDbEntity
8
1
100
AcDbLine
6
CONTINUOUS
62
5
10
72.000000
20
329.312500
11
72.000000
21
321.812500
0
LINE
5
422
100
AcDbEntity
8
1
100
AcDbLine
6
CONTINUOUS
62
5
10
71.000000
20
324.625000
11
73.000000
21
324.625000
0
LINE
5
423
100
AcDbEntity
8
1
100
AcDbLine
6
CONTINUOUS
62
5
10
70.750000
20
323.375000
11
73.250000
21
323.375000
0
LINE
5
424
100
AcDbEntity
8
1
100
AcDbLine
6
CONTINUOUS
62
5
10
68.500000
20
318.062500
11
69.750000
21
316.812500
0
LINE
5
425
100
AcDbEntity
8
1
100
AcDbLine
6
CONTINUOUS
62
5
10
67.500000
20
316.187500
11
68.500000
21
314.937500
0
POLYLINE
5
426
100
AcDbEntity
8
1
6
CONTINUOUS
62
5
100
AcDb2dPolyline
66
1
10
0.0
20
0.0
30
0.0
70
0
0
VERTEX
5
427
100
AcDbEntity
8
1
100
AcDbVertex
100
AcDb2dVertex
62
5
10
68.000000
20
311.812500
0
VERTEX
5
428
100
AcDbEntity
8
1
100
AcDbVertex
100
AcDb2dVertex
62
5
10
69.250000
20
312.437500
0
VERTEX
5
429
100
AcDbEntity
8
1
100
AcDbVertex
100
AcDb2dVertex
62
5
10
71.250000
20
314.000000
0
VERTEX
5
42a
100
AcDbEntity
8
1
100
AcDbVertex
100
AcDb2dVertex
62
5
10
73.000000
20
315.875000
0
SEQEND
5
42b
100
AcDbEntity
8
1
0
LINE
5
42c
100
AcDbEntity
8
1
100
AcDbLine
6
CONTINUOUS
62
5
10
67.500000
20
286.750000
11
70.625000
21
286.750000
0
LINE
5
42d
100
AcDbEntity
8
0
100
AcDbLine
6
CONTINUOUS
62
5
10
144.487064
20
215.750000
11
144.737064
21
215.750000
0
LINE
5
42e
100
AcDbEntity
8
0
100
AcDbLine
6
CONTINUOUS
62
5
10
144.737064
20
218.250000
11
144.487064
21
218.250000
0
LINE
5
42f
100
AcDbEntity
8
0
100
AcDbLine
6
CONTINUOUS
62
5
10
135.487064
20
220.400000
11
135.237064
21
220.400000
0
LINE
5
430
100
AcDbEntity
8
0
100
AcDbLine
6
CONTINUOUS
62
5
10
135.487064
20
220.700000
11
135.487064
21
214.975256
0
POLYLINE
5
431
100
AcDbEntity
8
0
6
CONTINUOUS
62
5
100
AcDb2dPolyline
66
1
10
0.0
20
0.0
30
0.0
70
0
0
VERTEX
5
432
100
AcDbEntity
8
0
100
AcDbVertex
100
AcDb2dVertex
62
5
10
144.487064
20
214.975256
0
VERTEX
5
433
100
AcDbEntity
8
0
100
AcDbVertex
100
AcDb2dVertex
62
5
10
144.487064
20
220.395401
0
VERTEX
5
434
100
AcDbEntity
8
0
100
AcDbVertex
100
AcDb2dVertex
62
5
10
135.487064
20
220.395401
0
SEQEND
5
435
100
AcDbEntity
8
0
0
LINE
5
436
100
AcDbEntity
8
0
100
AcDbLine
6
CONTINUOUS
62
5
10
103.737064
20
220.400000
11
103.487064
21
220.400000
0
LINE
5
437
100
AcDbEntity
8
0
100
AcDbLine
6
CONTINUOUS
62
5
10
103.487064
20
220.700000
11
103.487064
21
214.975256
0
LINE
5
438
100
AcDbEntity
8
0
100
AcDbLine
6
CONTINUOUS
62
5
10
94.237064
20
215.750000
11
94.487064
21
215.750000
0
LINE
5
439
100
AcDbEntity
8
0
100
AcDbLine
6
CONTINUOUS
62
5
10
94.487064
20
218.250000
11
94.237064
21
218.250000
0
POLYLINE
5
43a
100
AcDbEntity
8
0
6
CONTINUOUS
62
5
100
AcDb2dPolyline
66
1
10
0.0
20
0.0
30
0.0
70
0
0
VERTEX
5
43b
100
AcDbEntity
8
0
100
AcDbVertex
100
AcDb2dVertex
62
5
10
103.487064
20
220.395401
0
VERTEX
5
43c
100
AcDbEntity
8
0
100
AcDbVertex
100
AcDb2dVertex
62
5
10
94.487064
20
220.395401
0
VERTEX
5
43d
100
AcDbEntity
8
0
100
AcDbVertex
100
AcDb2dVertex
62
5
10
94.487064
20
214.975256
0
SEQEND
5
43e
100
AcDbEntity
8
0
0
LINE
5
43f
100
AcDbEntity
8
0
100
AcDbLine
6
CONTINUOUS
62
5
10
84.657710
20
216.602468
11
84.660026
21
216.645336
0
LINE
5
440
100
AcDbEntity
8
0
100
AcDbLine
6
CONTINUOUS
62
5
10
84.581299
20
218.055580
11
84.576542
21
218.078886
0
LINE
5
441
100
AcDbEntity
8
0
100
AcDbLine
6
CONTINUOUS
62
5
10
84.576542
20
218.078886
11
84.571815
21
218.100806
0
LINE
5
442
100
AcDbEntity
8
0
100
AcDbLine
6
CONTINUOUS
62
5
10
84.571815
20
218.100806
11
84.567130
21
218.121313
0
LINE
5
443
100
AcDbEntity
8
0
100
AcDbLine
6
CONTINUOUS
62
5
10
84.567130
20
218.121313
11
84.562500
21
218.140384
0
LINE
5
444
100
AcDbEntity
8
0
100
AcDbLine
6
CONTINUOUS
62
5
10
84.562500
20
218.140384
11
84.557935
21
218.157995
0
LINE
5
445
100
AcDbEntity
8
0
100
AcDbLine
6
CONTINUOUS
62
5
10
84.493060
20
218.167216
11
84.491806
21
218.150241
0
LINE
5
446
100
AcDbEntity
8
0
100
AcDbLine
6
CONTINUOUS
62
5
10
84.491806
20
218.150241
11
84.490724
21
218.131628
0
LINE
5
447
100
AcDbEntity
8
0
100
AcDbLine
6
CONTINUOUS
62
5
10
84.490724
20
218.131628
11
84.489812
21
218.111364
0
LINE
5
448
100
AcDbEntity
8
0
100
AcDbLine
6
CONTINUOUS
62
5
10
84.489812
20
218.111364
11
84.489069
21
218.089436
0
LINE
5
449
100
AcDbEntity
8
0
100
AcDbLine
6
CONTINUOUS
62
5
10
84.489069
20
218.089436
11
84.488486
21
218.065909
0
LINE
5
44a
100
AcDbEntity
8
0
100
AcDbLine
6
CONTINUOUS
62
5
10
84.660026
20
216.645336
11
84.662086
21
216.688680
0
LINE
5
44b
100
AcDbEntity
8
0
100
AcDbLine
6
CONTINUOUS
62
5
10
84.662086
20
216.688680
11
84.663883
21
216.732441
0
LINE
5
44c
100
AcDbEntity
8
0
100
AcDbLine
6
CONTINUOUS
62
5
10
84.663883
20
216.732441
11
84.665413
21
216.776560
0
LINE
5
44d
100
AcDbEntity
8
0
100
AcDbLine
6
CONTINUOUS
62
5
10
84.665413
20
216.776560
11
84.666673
21
216.820976
0
LINE
5
44e
100
AcDbEntity
8
0
100
AcDbLine
6
CONTINUOUS
62
5
10
84.666673
20
216.820976
11
84.667660
21
216.865631
0
LINE
5
44f
100
AcDbEntity
8
0
100
AcDbLine
6
CONTINUOUS
62
5
10
84.667660
20
216.865631
11
84.668371
21
216.910462
0
LINE
5
450
100
AcDbEntity
8
0
100
AcDbLine
6
CONTINUOUS
62
5
10
84.668371
20
216.910462
11
84.668802
21
216.955411
0
LINE
5
451
100
AcDbEntity
8
0
100
AcDbLine
6
CONTINUOUS
62
5
10
84.668802
20
216.955411
11
84.668950
21
217.000417
0
LINE
5
452
100
AcDbEntity
8
0
100
AcDbLine
6
CONTINUOUS
62
5
10
84.668950
20
217.000417
11
84.668811
21
217.045420
0
LINE
5
453
100
AcDbEntity
8
0
100
AcDbLine
6
CONTINUOUS
62
5
10
84.668811
20
217.045420
11
84.668383
21
217.090359
0
LINE
5
454
100
AcDbEntity
8
0
100
AcDbLine
6
CONTINUOUS
62
5
10
84.668383
20
217.090359
11
84.667665
21
217.135177
0
LINE
5
455
100
AcDbEntity
8
0
100
AcDbLine
6
CONTINUOUS
62
5
10
84.667665
20
217.135177
11
84.666665
21
217.179814
0
LINE
5
456
100
AcDbEntity
8
0
100
AcDbLine
6
CONTINUOUS
62
5
10
84.666665
20
217.179814
11
84.665389
21
217.224213
0
LINE
5
457
100
AcDbEntity
8
0
100
AcDbLine
6
CONTINUOUS
62
5
10
84.665389
20
217.224213
11
84.663843
21
217.268315
0
LINE
5
458
100
AcDbEntity
8
0
100
AcDbLine
6
CONTINUOUS
62
5
10
84.663843
20
217.268315
11
84.662035
21
217.312062
0
LINE
5
459
100
AcDbEntity
8
0
100
AcDbLine
6
CONTINUOUS
62
5
10
84.662035
20
217.312062
11
84.659972
21
217.355397
0
LINE
5
45a
100
AcDbEntity
8
0
100
AcDbLine
6
CONTINUOUS
62
5
10
84.659972
20
217.355397
11
84.657660
21
217.398261
0
LINE
5
45b
100
AcDbEntity
8
0
100
AcDbLine
6
CONTINUOUS
62
5
10
84.657660
20
217.398261
11
84.655105
21
217.440596
0
LINE
5
45c
100
AcDbEntity
8
0
100
AcDbLine
6
CONTINUOUS
62
5
10
84.655105
20
217.440596
11
84.652316
21
217.482344
0
LINE
5
45d
100
AcDbEntity
8
0
100
AcDbLine
6
CONTINUOUS
62
5
10
84.652316
20
217.482344
11
84.649300
21
217.523450
0
LINE
5
45e
100
AcDbEntity
8
0
100
AcDbLine
6
CONTINUOUS
62
5
10
84.649300
20
217.523450
11
84.646070
21
217.563864
0
LINE
5
45f
100
AcDbEntity
8
0
100
AcDbLine
6
CONTINUOUS
62
5
10
84.646070
20
217.563864
11
84.642639
21
217.603538
0
LINE
5
460
100
AcDbEntity
8
0
100
AcDbLine
6
CONTINUOUS
62
5
10
84.642639
20
217.603538
11
84.639022
21
217.642425
0
LINE
5
461
100
AcDbEntity
8
0
100
AcDbLine
6
CONTINUOUS
62
5
10
84.639022
20
217.642425
11
84.635232
21
217.680477
0
LINE
5
462
100
AcDbEntity
8
0
100
AcDbLine
6
CONTINUOUS
62
5
10
84.635232
20
217.680477
11
84.631281
21
217.717644
0
LINE
5
463
100
AcDbEntity
8
0
100
AcDbLine
6
CONTINUOUS
62
5
10
84.631281
20
217.717644
11
84.627185
21
217.753881
0
LINE
5
464
100
AcDbEntity
8
0
100
AcDbLine
6
CONTINUOUS
62
5
10
84.627185
20
217.753881
11
84.622957
21
217.789138
0
LINE
5
465
100
AcDbEntity
8
0
100
AcDbLine
6
CONTINUOUS
62
5
10
84.622957
20
217.789138
11
84.618610
21
217.823368
0
LINE
5
466
100
AcDbEntity
8
0
100
AcDbLine
6
CONTINUOUS
62
5
10
84.618610
20
217.823368
11
84.614158
21
217.856524
0
LINE
5
467
100
AcDbEntity
8
0
100
AcDbLine
6
CONTINUOUS
62
5
10
84.614158
20
217.856524
11
84.609615
21
217.888569
0
LINE
5
468
100
AcDbEntity
8
0
100
AcDbLine
6
CONTINUOUS
62
5
10
84.609615
20
217.888569
11
84.604997
21
217.919468
0
LINE
5
469
100
AcDbEntity
8
0
100
AcDbLine
6
CONTINUOUS
62
5
10
84.604997
20
217.919468
11
84.600319
21
217.949187
0
LINE
5
46a
100
AcDbEntity
8
0
100
AcDbLine
6
CONTINUOUS
62
5
10
84.600319
20
217.949187
11
84.595595
21
217.977692
0
LINE
5
46b
100
AcDbEntity
8
0
100
AcDbLine
6
CONTINUOUS
62
5
10
84.595595
20
217.977692
11
84.590840
21
218.004949
0
LINE
5
46c
100
AcDbEntity
8
0
100
AcDbLine
6
CONTINUOUS
62
5
10
84.590840
20
218.004949
11
84.586070
21
218.030923
0
LINE
5
46d
100
AcDbEntity
8
0
100
AcDbLine
6
CONTINUOUS
62
5
10
84.586070
20
218.030923
11
84.581299
21
218.055580
0
LINE
5
46e
100
AcDbEntity
8
0
100
AcDbLine
6
CONTINUOUS
62
5
10
84.488486
20
218.065909
11
84.488039
21
218.041028
0
LINE
5
46f
100
AcDbEntity
8
0
100
AcDbLine
6
CONTINUOUS
62
5
10
84.488325
20
215.962134
11
84.488796
21
215.937493
0
LINE
5
470
100
AcDbEntity
8
0
100
AcDbLine
6
CONTINUOUS
62
5
10
84.488796
20
215.937493
11
84.489370
21
215.913837
0
LINE
5
471
100
AcDbEntity
8
0
100
AcDbLine
6
CONTINUOUS
62
5
10
84.489370
20
215.913837
11
84.490068
21
215.891366
0
LINE
5
472
100
AcDbEntity
8
0
100
AcDbLine
6
CONTINUOUS
62
5
10
84.490068
20
215.891366
11
84.490911
21
215.870274
0
LINE
5
473
100
AcDbEntity
8
0
100
AcDbLine
6
CONTINUOUS
62
5
10
84.490911
20
215.870274
11
84.491920
21
215.850760
0
LINE
5
474
100
AcDbEntity
8
0
100
AcDbLine
6
CONTINUOUS
62
5
10
84.491920
20
215.850760
11
84.493113
21
215.833010
0
LINE
5
475
100
AcDbEntity
8
0
100
AcDbLine
6
CONTINUOUS
62
5
10
84.493113
20
215.833010
11
84.494498
21
215.817079
0
LINE
5
476
100
AcDbEntity
8
0
100
AcDbLine
6
CONTINUOUS
62
5
10
84.494498
20
215.817079
11
84.496073
21
215.802934
0
LINE
5
477
100
AcDbEntity
8
0
100
AcDbLine
6
CONTINUOUS
62
5
10
84.496073
20
215.802934
11
84.497835
21
215.790546
0
LINE
5
478
100
AcDbEntity
8
0
100
AcDbLine
6
CONTINUOUS
62
5
10
84.497835
20
215.790546
11
84.499782
21
215.779881
0
LINE
5
479
100
AcDbEntity
8
0
100
AcDbLine
6
CONTINUOUS
62
5
10
84.499782
20
215.779881
11
84.501913
21
215.770906
0
LINE
5
47a
100
AcDbEntity
8
0
100
AcDbLine
6
CONTINUOUS
62
5
10
84.501913
20
215.770906
11
84.504225
21
215.763591
0
LINE
5
47b
100
AcDbEntity
8
0
100
AcDbLine
6
CONTINUOUS
62
5
10
84.504225
20
215.763591
11
84.506715
21
215.757903
0
LINE
5
47c
100
AcDbEntity
8
0
100
AcDbLine
6
CONTINUOUS
62
5
10
84.506715
20
215.757903
11
84.509383
21
215.753809
0
LINE
5
47d
100
AcDbEntity
8
0
100
AcDbLine
6
CONTINUOUS
62
5
10
84.509383
20
215.753809
11
84.512224
21
215.751277
0
LINE
5
47e
100
AcDbEntity
8
0
100
AcDbLine
6
CONTINUOUS
62
5
10
84.512224
20
215.751277
11
84.515237
21
215.750290
0
LINE
5
47f
100
AcDbEntity
8
0
100
AcDbLine
6
CONTINUOUS
62
5
10
84.515237
20
215.750290
11
84.518416
21
215.750848
0
LINE
5
480
100
AcDbEntity
8
0
100
AcDbLine
6
CONTINUOUS
62
5
10
84.518416
20
215.750848
11
84.521754
21
215.752957
0
LINE
5
481
100
AcDbEntity
8
0
100
AcDbLine
6
CONTINUOUS
62
5
10
84.521754
20
215.752957
11
84.525246
21
215.756619
0
LINE
5
482
100
AcDbEntity
8
0
100
AcDbLine
6
CONTINUOUS
62
5
10
84.525246
20
215.756619
11
84.528886
21
215.761839
0
LINE
5
483
100
AcDbEntity
8
0
100
AcDbLine
6
CONTINUOUS
62
5
10
84.528886
20
215.761839
11
84.532668
21
215.768622
0
LINE
5
484
100
AcDbEntity
8
0
100
AcDbLine
6
CONTINUOUS
62
5
10
84.532668
20
215.768622
11
84.536587
21
215.776970
0
LINE
5
485
100
AcDbEntity
8
0
100
AcDbLine
6
CONTINUOUS
62
5
10
84.536587
20
215.776970
11
84.540636
21
215.786888
0
LINE
5
486
100
AcDbEntity
8
0
100
AcDbLine
6
CONTINUOUS
62
5
10
84.540636
20
215.786888
11
84.544810
21
215.798380
0
LINE
5
487
100
AcDbEntity
8
0
100
AcDbLine
6
CONTINUOUS
62
5
10
84.544810
20
215.798380
11
84.549102
21
215.811444
0
LINE
5
488
100
AcDbEntity
8
0
100
AcDbLine
6
CONTINUOUS
62
5
10
84.549102
20
215.811444
11
84.553500
21
215.826058
0
LINE
5
489
100
AcDbEntity
8
0
100
AcDbLine
6
CONTINUOUS
62
5
10
84.553500
20
215.826058
11
84.557991
21
215.842194
0
LINE
5
48a
100
AcDbEntity
8
0
100
AcDbLine
6
CONTINUOUS
62
5
10
84.557991
20
215.842194
11
84.562560
21
215.859824
0
LINE
5
48b
100
AcDbEntity
8
0
100
AcDbLine
6
CONTINUOUS
62
5
10
84.562560
20
215.859824
11
84.567196
21
215.878919
0
LINE
5
48c
100
AcDbEntity
8
0
100
AcDbLine
6
CONTINUOUS
62
5
10
84.567196
20
215.878919
11
84.571885
21
215.899452
0
LINE
5
48d
100
AcDbEntity
8
0
100
AcDbLine
6
CONTINUOUS
62
5
10
84.571885
20
215.899452
11
84.576613
21
215.921394
0
LINE
5
48e
100
AcDbEntity
8
0
100
AcDbLine
6
CONTINUOUS
62
5
10
84.576613
20
215.921394
11
84.581368
21
215.944717
0
LINE
5
48f
100
AcDbEntity
8
0
100
AcDbLine
6
CONTINUOUS
62
5
10
84.581368
20
215.944717
11
84.586136
21
215.969393
0
LINE
5
490
100
AcDbEntity
8
0
100
AcDbLine
6
CONTINUOUS
62
5
10
84.586136
20
215.969393
11
84.590904
21
215.995394
0
LINE
5
491
100
AcDbEntity
8
0
100
AcDbLine
6
CONTINUOUS
62
5
10
84.590904
20
215.995394
11
84.595657
21
216.022685
0
LINE
5
492
100
AcDbEntity
8
0
100
AcDbLine
6
CONTINUOUS
62
5
10
84.595657
20
216.022685
11
84.600381
21
216.051229
0
LINE
5
493
100
AcDbEntity
8
0
100
AcDbLine
6
CONTINUOUS
62
5
10
84.600381
20
216.051229
11
84.605060
21
216.080987
0
LINE
5
494
100
AcDbEntity
8
0
100
AcDbLine
6
CONTINUOUS
62
5
10
84.605060
20
216.080987
11
84.609679
21
216.111922
0
LINE
5
495
100
AcDbEntity
8
0
100
AcDbLine
6
CONTINUOUS
62
5
10
84.609679
20
216.111922
11
84.614224
21
216.143994
0
LINE
5
496
100
AcDbEntity
8
0
100
AcDbLine
6
CONTINUOUS
62
5
10
84.614224
20
216.143994
11
84.618678
21
216.177166
0
LINE
5
497
100
AcDbEntity
8
0
100
AcDbLine
6
CONTINUOUS
62
5
10
84.618678
20
216.177166
11
84.623028
21
216.211400
0
LINE
5
498
100
AcDbEntity
8
0
100
AcDbLine
6
CONTINUOUS
62
5
10
84.623028
20
216.211400
11
84.627257
21
216.246658
0
LINE
5
499
100
AcDbEntity
8
0
100
AcDbLine
6
CONTINUOUS
62
5
10
84.627257
20
216.246658
11
84.631351
21
216.282900
0
LINE
5
49a
100
AcDbEntity
8
0
100
AcDbLine
6
CONTINUOUS
62
5
10
84.631351
20
216.282900
11
84.635296
21
216.320086
0
LINE
5
49b
100
AcDbEntity
8
0
100
AcDbLine
6
CONTINUOUS
62
5
10
84.635296
20
216.320086
11
84.639079
21
216.358165
0
LINE
5
49c
100
AcDbEntity
8
0
100
AcDbLine
6
CONTINUOUS
62
5
10
84.639079
20
216.358165
11
84.642688
21
216.397085
0
LINE
5
49d
100
AcDbEntity
8
0
100
AcDbLine
6
CONTINUOUS
62
5
10
84.642688
20
216.397085
11
84.646111
21
216.436793
0
LINE
5
49e
100
AcDbEntity
8
0
100
AcDbLine
6
CONTINUOUS
62
5
10
84.646111
20
216.436793
11
84.649337
21
216.477238
0
LINE
5
49f
100
AcDbEntity
8
0
100
AcDbLine
6
CONTINUOUS
62
5
10
84.649337
20
216.477238
11
84.652353
21
216.518367
0
LINE
5
4a0
100
AcDbEntity
8
0
100
AcDbLine
6
CONTINUOUS
62
5
10
84.652353
20
216.518367
11
84.655148
21
216.560127
0
LINE
5
4a1
100
AcDbEntity
8
0
100
AcDbLine
6
CONTINUOUS
62
5
10
84.655148
20
216.560127
11
84.657710
21
216.602468
0
LINE
5
4a2
100
AcDbEntity
8
0
100
AcDbLine
6
CONTINUOUS
62
5
10
84.557935
20
218.157995
11
84.553447
21
218.174125
0
LINE
5
4a3
100
AcDbEntity
8
0
100
AcDbLine
6
CONTINUOUS
62
5
10
84.553447
20
218.174125
11
84.549049
21
218.188751
0
LINE
5
4a4
100
AcDbEntity
8
0
100
AcDbLine
6
CONTINUOUS
62
5
10
84.549049
20
218.188751
11
84.544751
21
218.201851
0
LINE
5
4a5
100
AcDbEntity
8
0
100
AcDbLine
6
CONTINUOUS
62
5
10
84.544751
20
218.201851
11
84.540565
21
218.213403
0
LINE
5
4a6
100
AcDbEntity
8
0
100
AcDbLine
6
CONTINUOUS
62
5
10
84.540565
20
218.213403
11
84.536503
21
218.223383
0
LINE
5
4a7
100
AcDbEntity
8
0
100
AcDbLine
6
CONTINUOUS
62
5
10
84.536503
20
218.223383
11
84.532577
21
218.231769
0
LINE
5
4a8
100
AcDbEntity
8
0
100
AcDbLine
6
CONTINUOUS
62
5
10
84.532577
20
218.231769
11
84.528795
21
218.238545
0
LINE
5
4a9
100
AcDbEntity
8
0
100
AcDbLine
6
CONTINUOUS
62
5
10
84.528795
20
218.238545
11
84.525165
21
218.243712
0
LINE
5
4aa
100
AcDbEntity
8
0
100
AcDbLine
6
CONTINUOUS
62
5
10
84.525165
20
218.243712
11
84.521688
21
218.247278
0
LINE
5
4ab
100
AcDbEntity
8
0
100
AcDbLine
6
CONTINUOUS
62
5
10
84.521688
20
218.247278
11
84.518368
21
218.249249
0
LINE
5
4ac
100
AcDbEntity
8
0
100
AcDbLine
6
CONTINUOUS
62
5
10
84.518368
20
218.249249
11
84.515208
21
218.249634
0
LINE
5
4ad
100
AcDbEntity
8
0
100
AcDbLine
6
CONTINUOUS
62
5
10
84.515208
20
218.249634
11
84.512213
21
218.248440
0
LINE
5
4ae
100
AcDbEntity
8
0
100
AcDbLine
6
CONTINUOUS
62
5
10
84.512213
20
218.248440
11
84.509385
21
218.245673
0
LINE
5
4af
100
AcDbEntity
8
0
100
AcDbLine
6
CONTINUOUS
62
5
10
84.509385
20
218.245673
11
84.506727
21
218.241341
0
LINE
5
4b0
100
AcDbEntity
8
0
100
AcDbLine
6
CONTINUOUS
62
5
10
84.506727
20
218.241341
11
84.504244
21
218.235452
0
LINE
5
4b1
100
AcDbEntity
8
0
100
AcDbLine
6
CONTINUOUS
62
5
10
84.504244
20
218.235452
11
84.501938
21
218.228013
0
LINE
5
4b2
100
AcDbEntity
8
0
100
AcDbLine
6
CONTINUOUS
62
5
10
84.501938
20
218.228013
11
84.499810
21
218.219018
0
LINE
5
4b3
100
AcDbEntity
8
0
100
AcDbLine
6
CONTINUOUS
62
5
10
84.499810
20
218.219018
11
84.497860
21
218.208454
0
LINE
5
4b4
100
AcDbEntity
8
0
100
AcDbLine
6
CONTINUOUS
62
5
10
84.497860
20
218.208454
11
84.496085
21
218.196309
0
LINE
5
4b5
100
AcDbEntity
8
0
100
AcDbLine
6
CONTINUOUS
62
5
10
84.496085
20
218.196309
11
84.494486
21
218.182567
0
LINE
5
4b6
100
AcDbEntity
8
0
100
AcDbLine
6
CONTINUOUS
62
5
10
84.494486
20
218.182567
11
84.493060
21
218.167216
0
LINE
5
4b7
100
AcDbEntity
8
0
100
AcDbLine
6
CONTINUOUS
62
5
10
84.551017
20
220.177911
11
84.544074
21
220.161321
0
LINE
5
4b8
100
AcDbEntity
8
0
100
AcDbLine
6
CONTINUOUS
62
5
10
84.544074
20
220.161321
11
84.537867
21
220.144483
0
LINE
5
4b9
100
AcDbEntity
8
0
100
AcDbLine
6
CONTINUOUS
62
5
10
84.537867
20
220.144483
11
84.532344
21
220.127420
0
LINE
5
4ba
100
AcDbEntity
8
0
100
AcDbLine
6
CONTINUOUS
62
5
10
84.532344
20
220.127420
11
84.527435
21
220.110153
0
LINE
5
4bb
100
AcDbEntity
8
0
100
AcDbLine
6
CONTINUOUS
62
5
10
84.527435
20
220.110153
11
84.523072
21
220.092705
0
LINE
5
4bc
100
AcDbEntity
8
0
100
AcDbLine
6
CONTINUOUS
62
5
10
84.523072
20
220.092705
11
84.519188
21
220.075098
0
LINE
5
4bd
100
AcDbEntity
8
0
100
AcDbLine
6
CONTINUOUS
62
5
10
84.519188
20
220.075098
11
84.515713
21
220.057357
0
LINE
5
4be
100
AcDbEntity
8
0
100
AcDbLine
6
CONTINUOUS
62
5
10
84.515713
20
220.057357
11
84.512580
21
220.039502
0
LINE
5
4bf
100
AcDbEntity
8
0
100
AcDbLine
6
CONTINUOUS
62
5
10
84.512580
20
220.039502
11
84.509721
21
220.021556
0
LINE
5
4c0
100
AcDbEntity
8
0
100
AcDbLine
6
CONTINUOUS
62
5
10
84.509721
20
220.021556
11
84.507066
21
220.003543
0
LINE
5
4c1
100
AcDbEntity
8
0
100
AcDbLine
6
CONTINUOUS
62
5
10
84.507066
20
220.003543
11
84.504548
21
219.985485
0
LINE
5
4c2
100
AcDbEntity
8
0
100
AcDbLine
6
CONTINUOUS
62
5
10
84.504548
20
219.985485
11
84.502098
21
219.967404
0
LINE
5
4c3
100
AcDbEntity
8
0
100
AcDbLine
6
CONTINUOUS
62
5
10
85.083096
20
220.496927
11
85.064907
21
220.495406
0
LINE
5
4c4
100
AcDbEntity
8
0
100
AcDbLine
6
CONTINUOUS
62
5
10
85.064907
20
220.495406
11
85.046732
21
220.493829
0
LINE
5
4c5
100
AcDbEntity
8
0
100
AcDbLine
6
CONTINUOUS
62
5
10
85.046732
20
220.493829
11
85.028589
21
220.492140
0
LINE
5
4c6
100
AcDbEntity
8
0
100
AcDbLine
6
CONTINUOUS
62
5
10
85.028589
20
220.492140
11
85.010491
21
220.490283
0
LINE
5
4c7
100
AcDbEntity
8
0
100
AcDbLine
6
CONTINUOUS
62
5
10
85.010491
20
220.490283
11
84.992455
21
220.488202
0
LINE
5
4c8
100
AcDbEntity
8
0
100
AcDbLine
6
CONTINUOUS
62
5
10
84.992455
20
220.488202
11
84.974496
21
220.485841
0
LINE
5
4c9
100
AcDbEntity
8
0
100
AcDbLine
6
CONTINUOUS
62
5
10
84.974496
20
220.485841
11
84.956629
21
220.483143
0
LINE
5
4ca
100
AcDbEntity
8
0
100
AcDbLine
6
CONTINUOUS
62
5
10
84.956629
20
220.483143
11
84.938870
21
220.480053
0
LINE
5
4cb
100
AcDbEntity
8
0
100
AcDbLine
6
CONTINUOUS
62
5
10
84.938870
20
220.480053
11
84.921234
21
220.476515
0
LINE
5
4cc
100
AcDbEntity
8
0
100
AcDbLine
6
CONTINUOUS
62
5
10
84.921234
20
220.476515
11
84.903736
21
220.472472
0
LINE
5
4cd
100
AcDbEntity
8
0
100
AcDbLine
6
CONTINUOUS
62
5
10
84.903736
20
220.472472
11
84.886392
21
220.467869
0
LINE
5
4ce
100
AcDbEntity
8
0
100
AcDbLine
6
CONTINUOUS
62
5
10
84.886392
20
220.467869
11
84.869218
21
220.462650
0
LINE
5
4cf
100
AcDbEntity
8
0
100
AcDbLine
6
CONTINUOUS
62
5
10
84.869218
20
220.462650
11
84.852228
21
220.456764
0
LINE
5
4d0
100
AcDbEntity
8
0
100
AcDbLine
6
CONTINUOUS
62
5
10
84.852228
20
220.456764
11
84.835437
21
220.450209
0
LINE
5
4d1
100
AcDbEntity
8
0
100
AcDbLine
6
CONTINUOUS
62
5
10
84.835437
20
220.450209
11
84.818862
21
220.443006
0
LINE
5
4d2
100
AcDbEntity
8
0
100
AcDbLine
6
CONTINUOUS
62
5
10
84.818862
20
220.443006
11
84.802517
21
220.435176
0
LINE
5
4d3
100
AcDbEntity
8
0
100
AcDbLine
6
CONTINUOUS
62
5
10
84.802517
20
220.435176
11
84.786417
21
220.426740
0
LINE
5
4d4
100
AcDbEntity
8
0
100
AcDbLine
6
CONTINUOUS
62
5
10
84.786417
20
220.426740
11
84.770579
21
220.417720
0
LINE
5
4d5
100
AcDbEntity
8
0
100
AcDbLine
6
CONTINUOUS
62
5
10
84.770579
20
220.417720
11
84.755016
21
220.408137
0
LINE
5
4d6
100
AcDbEntity
8
0
100
AcDbLine
6
CONTINUOUS
62
5
10
84.755016
20
220.408137
11
84.739745
21
220.398011
0
LINE
5
4d7
100
AcDbEntity
8
0
100
AcDbLine
6
CONTINUOUS
62
5
10
84.739745
20
220.398011
11
84.724780
21
220.387365
0
LINE
5
4d8
100
AcDbEntity
8
0
100
AcDbLine
6
CONTINUOUS
62
5
10
84.724780
20
220.387365
11
84.710137
21
220.376220
0
LINE
5
4d9
100
AcDbEntity
8
0
100
AcDbLine
6
CONTINUOUS
62
5
10
84.710137
20
220.376220
11
84.695831
21
220.364596
0
LINE
5
4da
100
AcDbEntity
8
0
100
AcDbLine
6
CONTINUOUS
62
5
10
84.695831
20
220.364596
11
84.681877
21
220.352514
0
LINE
5
4db
100
AcDbEntity
8
0
100
AcDbLine
6
CONTINUOUS
62
5
10
84.681877
20
220.352514
11
84.668291
21
220.339997
0
LINE
5
4dc
100
AcDbEntity
8
0
100
AcDbLine
6
CONTINUOUS
62
5
10
84.668291
20
220.339997
11
84.655091
21
220.327063
0
LINE
5
4dd
100
AcDbEntity
8
0
100
AcDbLine
6
CONTINUOUS
62
5
10
84.655091
20
220.327063
11
84.642307
21
220.313727
0
LINE
5
4de
100
AcDbEntity
8
0
100
AcDbLine
6
CONTINUOUS
62
5
10
84.642307
20
220.313727
11
84.629970
21
220.300003
0
LINE
5
4df
100
AcDbEntity
8
0
100
AcDbLine
6
CONTINUOUS
62
5
10
84.629970
20
220.300003
11
84.618110
21
220.285905
0
LINE
5
4e0
100
AcDbEntity
8
0
100
AcDbLine
6
CONTINUOUS
62
5
10
84.618110
20
220.285905
11
84.606758
21
220.271447
0
LINE
5
4e1
100
AcDbEntity
8
0
100
AcDbLine
6
CONTINUOUS
62
5
10
84.606758
20
220.271447
11
84.595943
21
220.256642
0
LINE
5
4e2
100
AcDbEntity
8
0
100
AcDbLine
6
CONTINUOUS
62
5
10
84.595943
20
220.256642
11
84.585698
21
220.241505
0
LINE
5
4e3
100
AcDbEntity
8
0
100
AcDbLine
6
CONTINUOUS
62
5
10
84.585698
20
220.241505
11
84.576052
21
220.226049
0
LINE
5
4e4
100
AcDbEntity
8
0
100
AcDbLine
6
CONTINUOUS
62
5
10
84.576052
20
220.226049
11
84.567036
21
220.210289
0
LINE
5
4e5
100
AcDbEntity
8
0
100
AcDbLine
6
CONTINUOUS
62
5
10
84.567036
20
220.210289
11
84.558681
21
220.194238
0
LINE
5
4e6
100
AcDbEntity
8
0
100
AcDbLine
6
CONTINUOUS
62
5
10
84.558681
20
220.194238
11
84.551017
21
220.177911
0
LINE
5
4e7
100
AcDbEntity
8
0
100
AcDbLine
6
CONTINUOUS
62
5
10
84.617594
20
217.830531
11
84.487064
21
217.700000
0
LINE
5
4e8
100
AcDbEntity
8
0
100
AcDbLine
6
CONTINUOUS
62
5
10
84.488039
20
218.041028
11
84.487700
21
218.015065
0
LINE
5
4e9
100
AcDbEntity
8
0
100
AcDbLine
6
CONTINUOUS
62
5
10
84.487700
20
218.015065
11
84.487443
21
217.988290
0
LINE
5
4ea
100
AcDbEntity
8
0
100
AcDbLine
6
CONTINUOUS
62
5
10
84.487443
20
217.988290
11
84.487240
21
217.960973
0
LINE
5
4eb
100
AcDbEntity
8
0
100
AcDbLine
6
CONTINUOUS
62
5
10
84.487240
20
217.960973
11
84.487064
21
217.933386
0
LINE
5
4ec
100
AcDbEntity
8
0
100
AcDbLine
6
CONTINUOUS
62
5
10
84.487064
20
216.300000
11
84.615556
21
216.171508
0
LINE
5
4ed
100
AcDbEntity
8
0
100
AcDbLine
6
CONTINUOUS
62
5
10
84.487064
20
216.066614
11
84.487327
21
216.040001
0
LINE
5
4ee
100
AcDbEntity
8
0
100
AcDbLine
6
CONTINUOUS
62
5
10
84.487327
20
216.040001
11
84.487612
21
216.013585
0
LINE
5
4ef
100
AcDbEntity
8
0
100
AcDbLine
6
CONTINUOUS
62
5
10
84.487612
20
216.013585
11
84.487938
21
215.987564
0
LINE
5
4f0
100
AcDbEntity
8
0
100
AcDbLine
6
CONTINUOUS
62
5
10
84.487938
20
215.987564
11
84.488325
21
215.962134
0
LINE
5
4f1
100
AcDbEntity
8
0
100
AcDbLine
6
CONTINUOUS
62
5
10
84.502098
20
219.967404
11
84.487064
21
219.882483
0
POLYLINE
5
4f2
100
AcDbEntity
8
1
6
CONTINUOUS
62
5
100
AcDb2dPolyline
66
1
10
0.0
20
0.0
30
0.0
70
0
0
VERTEX
5
4f3
100
AcDbEntity
8
1
100
AcDbVertex
100
AcDb2dVertex
62
5
10
148.750000
20
326.187500
0
VERTEX
5
4f4
100
AcDbEntity
8
1
100
AcDbVertex
100
AcDb2dVertex
62
5
10
148.000000
20
324.625000
0
VERTEX
5
4f5
100
AcDbEntity
8
1
100
AcDbVertex
100
AcDb2dVertex
62
5
10
146.750000
20
323.062500
0
SEQEND
5
4f6
100
AcDbEntity
8
1
0
POLYLINE
5
4f7
100
AcDbEntity
8
1
6
CONTINUOUS
62
5
100
AcDb2dPolyline
66
1
10
0.0
20
0.0
30
0.0
70
0
0
VERTEX
5
4f8
100
AcDbEntity
8
1
100
AcDbVertex
100
AcDb2dVertex
62
5
10
150.750000
20
326.187500
0
VERTEX
5
4f9
100
AcDbEntity
8
1
100
AcDbVertex
100
AcDb2dVertex
62
5
10
151.750000
20
324.625000
0
VERTEX
5
4fa
100
AcDbEntity
8
1
100
AcDbVertex
100
AcDb2dVertex
62
5
10
152.500000
20
323.062500
0
SEQEND
5
4fb
100
AcDbEntity
8
1
0
LINE
5
4fc
100
AcDbEntity
8
1
100
AcDbLine
6
CONTINUOUS
62
5
10
151.500000
20
327.437500
11
152.000000
21
326.812500
0
LINE
5
4fd
100
AcDbEntity
8
1
100
AcDbLine
6
CONTINUOUS
62
5
10
152.250000
20
328.062500
11
152.750000
21
327.437500
0
LINE
5
4fe
100
AcDbEntity
8
0
100
AcDbLine
6
CONTINUOUS
62
5
10
82.987064
20
221.500000
11
82.987064
21
250.500000
0
LINE
5
4ff
100
AcDbEntity
8
0
100
AcDbLine
6
CONTINUOUS
62
5
10
155.987064
20
221.500000
11
155.987064
21
250.500000
0
POLYLINE
5
500
100
AcDbEntity
8
0
6
CONTINUOUS
62
5
100
AcDb2dPolyline
66
1
10
0.0
20
0.0
30
0.0
70
0
0
VERTEX
5
501
100
AcDbEntity
8
0
100
AcDbVertex
100
AcDb2dVertex
62
5
10
119.487064
20
248.500000
0
VERTEX
5
502
100
AcDbEntity
8
0
100
AcDbVertex
100
AcDb2dVertex
62
5
10
82.987064
20
248.500000
0
VERTEX
5
503
100
AcDbEntity
8
0
100
AcDbVertex
100
AcDb2dVertex
62
5
10
88.987064
20
249.500000
0
VERTEX
5
504
100
AcDbEntity
8
0
100
AcDbVertex
100
AcDb2dVertex
62
5
10
88.987064
20
247.500000
0
VERTEX
5
505
100
AcDbEntity
8
0
100
AcDbVertex
100
AcDb2dVertex
62
5
10
82.987064
20
248.500000
0
VERTEX
5
506
100
AcDbEntity
8
0
100
AcDbVertex
100
AcDb2dVertex
62
5
10
88.987064
20
249.000000
0
VERTEX
5
507
100
AcDbEntity
8
0
100
AcDbVertex
100
AcDb2dVertex
62
5
10
88.987064
20
248.000000
0
VERTEX
5
508
100
AcDbEntity
8
0
100
AcDbVertex
100
AcDb2dVertex
62
5
10
82.987064
20
248.500000
0
SEQEND
5
509
100
AcDbEntity
8
0
0
POLYLINE
5
50a
100
AcDbEntity
8
0
6
CONTINUOUS
62
5
100
AcDb2dPolyline
66
1
10
0.0
20
0.0
30
0.0
70
0
0
VERTEX
5
50b
100
AcDbEntity
8
0
100
AcDbVertex
100
AcDb2dVertex
62
5
10
119.487064
20
248.500000
0
VERTEX
5
50c
100
AcDbEntity
8
0
100
AcDbVertex
100
AcDb2dVertex
62
5
10
155.987064
20
248.500000
0
VERTEX
5
50d
100
AcDbEntity
8
0
100
AcDbVertex
100
AcDb2dVertex
62
5
10
149.987064
20
247.500000
0
VERTEX
5
50e
100
AcDbEntity
8
0
100
AcDbVertex
100
AcDb2dVertex
62
5
10
149.987064
20
249.500000
0
VERTEX
5
50f
100
AcDbEntity
8
0
100
AcDbVertex
100
AcDb2dVertex
62
5
10
155.987064
20
248.500000
0
VERTEX
5
510
100
AcDbEntity
8
0
100
AcDbVertex
100
AcDb2dVertex
62
5
10
149.987064
20
248.000000
0
VERTEX
5
511
100
AcDbEntity
8
0
100
AcDbVertex
100
AcDb2dVertex
62
5
10
149.987064
20
249.000000
0
VERTEX
5
512
100
AcDbEntity
8
0
100
AcDbVertex
100
AcDb2dVertex
62
5
10
155.987064
20
248.500000
0
SEQEND
5
513
100
AcDbEntity
8
0
0
POLYLINE
5
514
100
AcDbEntity
8
0
6
CONTINUOUS
62
5
100
AcDb2dPolyline
66
1
10
0.0
20
0.0
30
0.0
70
0
0
VERTEX
5
515
100
AcDbEntity
8
0
100
AcDbVertex
100
AcDb2dVertex
62
5
10
85.068581
20
220.500000
0
VERTEX
5
516
100
AcDbEntity
8
0
100
AcDbVertex
100
AcDb2dVertex
62
5
10
94.237064
20
220.500000
0
VERTEX
5
517
100
AcDbEntity
8
0
100
AcDbVertex
100
AcDb2dVertex
62
5
10
94.237064
20
214.975256
0
VERTEX
5
518
100
AcDbEntity
8
0
100
AcDbVertex
100
AcDb2dVertex
62
5
10
103.737064
20
214.975256
0
VERTEX
5
519
100
AcDbEntity
8
0
100
AcDbVertex
100
AcDb2dVertex
62
5
10
103.737064
20
221.472894
0
VERTEX
5
51a
100
AcDbEntity
8
0
100
AcDbVertex
100
AcDb2dVertex
62
5
10
135.237064
20
221.472894
0
VERTEX
5
51b
100
AcDbEntity
8
0
100
AcDbVertex
100
AcDb2dVertex
62
5
10
135.237064
20
214.975256
0
VERTEX
5
51c
100
AcDbEntity
8
0
100
AcDbVertex
100
AcDb2dVertex
62
5
10
144.737064
20
214.975256
0
VERTEX
5
51d
100
AcDbEntity
8
0
100
AcDbVertex
100
AcDb2dVertex
62
5
10
144.737064
20
220.500000
0
VERTEX
5
51e
100
AcDbEntity
8
0
100
AcDbVertex
100
AcDb2dVertex
62
5
10
153.905892
20
220.500000
0
SEQEND
5
51f
100
AcDbEntity
8
0
0
LINE
5
520
100
AcDbEntity
8
0
100
AcDbLine
6
CONTINUOUS
62
5
10
221.179684
20
69.501116
11
221.029684
21
69.501116
0
LINE
5
521
100
AcDbEntity
8
0
100
AcDbLine
6
CONTINUOUS
62
5
10
221.179684
20
73.001116
11
221.029684
21
73.001116
0
ARC
5
522
100
AcDbEntity
8
0
100
AcDbCircle
6
CONTINUOUS
62
5
10
118.987064
20
83.450000
40
2.100000
100
AcDbArc
50
-38.246620
51
21.285231
0
LINE
5
523
100
AcDbEntity
8
0
100
AcDbLine
6
CONTINUOUS
62
5
10
120.529005
20
82.862377
11
120.521236
21
82.862609
0
LINE
5
524
100
AcDbEntity
8
0
100
AcDbLine
6
CONTINUOUS
62
5
10
120.521236
20
82.862609
11
120.513469
21
82.862853
0
LINE
5
525
100
AcDbEntity
8
0
100
AcDbLine
6
CONTINUOUS
62
5
10
120.513469
20
82.862853
11
120.505704
21
82.863120
0
LINE
5
526
100
AcDbEntity
8
0
100
AcDbLine
6
CONTINUOUS
62
5
10
120.505704
20
82.863120
11
120.497942
21
82.863423
0
LINE
5
527
100
AcDbEntity
8
0
100
AcDbLine
6
CONTINUOUS
62
5
10
120.497942
20
82.863423
11
120.490184
21
82.863773
0
LINE
5
528
100
AcDbEntity
8
0
100
AcDbLine
6
CONTINUOUS
62
5
10
120.490184
20
82.863773
11
120.482431
21
82.864182
0
LINE
5
529
100
AcDbEntity
8
0
100
AcDbLine
6
CONTINUOUS
62
5
10
120.482431
20
82.864182
11
120.474685
21
82.864662
0
LINE
5
52a
100
AcDbEntity
8
0
100
AcDbLine
6
CONTINUOUS
62
5
10
120.474685
20
82.864662
11
120.466946
21
82.865224
0
LINE
5
52b
100
AcDbEntity
8
0
100
AcDbLine
6
CONTINUOUS
62
5
10
120.466946
20
82.865224
11
120.459215
21
82.865881
0
LINE
5
52c
100
AcDbEntity
8
0
100
AcDbLine
6
CONTINUOUS
62
5
10
120.459215
20
82.865881
11
120.451494
21
82.866644
0
LINE
5
52d
100
AcDbEntity
8
0
100
AcDbLine
6
CONTINUOUS
62
5
10
120.451494
20
82.866644
11
120.443783
21
82.867518
0
LINE
5
52e
100
AcDbEntity
8
0
100
AcDbLine
6
CONTINUOUS
62
5
10
120.443783
20
82.867518
11
120.436083
21
82.868498
0
LINE
5
52f
100
AcDbEntity
8
0
100
AcDbLine
6
CONTINUOUS
62
5
10
120.436083
20
82.868498
11
120.428394
21
82.869580
0
LINE
5
530
100
AcDbEntity
8
0
100
AcDbLine
6
CONTINUOUS
62
5
10
120.428394
20
82.869580
11
120.420718
21
82.870759
0
LINE
5
531
100
AcDbEntity
8
0
100
AcDbLine
6
CONTINUOUS
62
5
10
120.420718
20
82.870759
11
120.413054
21
82.872031
0
LINE
5
532
100
AcDbEntity
8
0
100
AcDbLine
6
CONTINUOUS
62
5
10
120.413054
20
82.872031
11
120.405403
21
82.873389
0
LINE
5
533
100
AcDbEntity
8
0
100
AcDbLine
6
CONTINUOUS
62
5
10
120.405403
20
82.873389
11
120.397766
21
82.874831
0
LINE
5
534
100
AcDbEntity
8
0
100
AcDbLine
6
CONTINUOUS
62
5
10
120.397766
20
82.874831
11
120.390144
21
82.876350
0
LINE
5
535
100
AcDbEntity
8
0
100
AcDbLine
6
CONTINUOUS
62
5
10
120.390144
20
82.876350
11
120.382537
21
82.877943
0
LINE
5
536
100
AcDbEntity
8
0
100
AcDbLine
6
CONTINUOUS
62
5
10
120.382537
20
82.877943
11
120.374945
21
82.879604
0
LINE
5
537
100
AcDbEntity
8
0
100
AcDbLine
6
CONTINUOUS
62
5
10
120.906267
20
82.969090
11
120.895871
21
82.961860
0
LINE
5
538
100
AcDbEntity
8
0
100
AcDbLine
6
CONTINUOUS
62
5
10
120.895871
20
82.961860
11
120.885459
21
82.954670
0
LINE
5
539
100
AcDbEntity
8
0
100
AcDbLine
6
CONTINUOUS
62
5
10
120.885459
20
82.954670
11
120.875019
21
82.947564
0
LINE
5
53a
100
AcDbEntity
8
0
100
AcDbLine
6
CONTINUOUS
62
5
10
120.875019
20
82.947564
11
120.864534
21
82.940580
0
LINE
5
53b
100
AcDbEntity
8
0
100
AcDbLine
6
CONTINUOUS
62
5
10
120.864534
20
82.940580
11
120.853990
21
82.933761
0
LINE
5
53c
100
AcDbEntity
8
0
100
AcDbLine
6
CONTINUOUS
62
5
10
120.853990
20
82.933761
11
120.843373
21
82.927149
0
LINE
5
53d
100
AcDbEntity
8
0
100
AcDbLine
6
CONTINUOUS
62
5
10
120.843373
20
82.927149
11
120.832667
21
82.920783
0
LINE
5
53e
100
AcDbEntity
8
0
100
AcDbLine
6
CONTINUOUS
62
5
10
120.832667
20
82.920783
11
120.821858
21
82.914705
0
LINE
5
53f
100
AcDbEntity
8
0
100
AcDbLine
6
CONTINUOUS
62
5
10
120.821858
20
82.914705
11
120.810932
21
82.908957
0
LINE
5
540
100
AcDbEntity
8
0
100
AcDbLine
6
CONTINUOUS
62
5
10
120.810932
20
82.908957
11
120.799873
21
82.903579
0
LINE
5
541
100
AcDbEntity
8
0
100
AcDbLine
6
CONTINUOUS
62
5
10
120.799873
20
82.903579
11
120.788667
21
82.898612
0
LINE
5
542
100
AcDbEntity
8
0
100
AcDbLine
6
CONTINUOUS
62
5
10
120.788667
20
82.898612
11
120.777307
21
82.894075
0
LINE
5
543
100
AcDbEntity
8
0
100
AcDbLine
6
CONTINUOUS
62
5
10
120.777307
20
82.894075
11
120.765801
21
82.889949
0
LINE
5
544
100
AcDbEntity
8
0
100
AcDbLine
6
CONTINUOUS
62
5
10
120.765801
20
82.889949
11
120.754155
21
82.886214
0
LINE
5
545
100
AcDbEntity
8
0
100
AcDbLine
6
CONTINUOUS
62
5
10
120.754155
20
82.886214
11
120.742376
21
82.882849
0
LINE
5
546
100
AcDbEntity
8
0
100
AcDbLine
6
CONTINUOUS
62
5
10
120.742376
20
82.882849
11
120.730472
21
82.879834
0
LINE
5
547
100
AcDbEntity
8
0
100
AcDbLine
6
CONTINUOUS
62
5
10
120.730472
20
82.879834
11
120.718450
21
82.877148
0
LINE
5
548
100
AcDbEntity
8
0
100
AcDbLine
6
CONTINUOUS
62
5
10
120.718450
20
82.877148
11
120.706319
21
82.874771
0
LINE
5
549
100
AcDbEntity
8
0
100
AcDbLine
6
CONTINUOUS
62
5
10
120.706319
20
82.874771
11
120.694084
21
82.872682
0
LINE
5
54a
100
AcDbEntity
8
0
100
AcDbLine
6
CONTINUOUS
62
5
10
120.694084
20
82.872682
11
120.681753
21
82.870861
0
LINE
5
54b
100
AcDbEntity
8
0
100
AcDbLine
6
CONTINUOUS
62
5
10
120.681753
20
82.870861
11
120.669334
21
82.869286
0
LINE
5
54c
100
AcDbEntity
8
0
100
AcDbLine
6
CONTINUOUS
62
5
10
120.669334
20
82.869286
11
120.656835
21
82.867938
0
LINE
5
54d
100
AcDbEntity
8
0
100
AcDbLine
6
CONTINUOUS
62
5
10
120.656835
20
82.867938
11
120.644261
21
82.866795
0
LINE
5
54e
100
AcDbEntity
8
0
100
AcDbLine
6
CONTINUOUS
62
5
10
120.644261
20
82.866795
11
120.631622
21
82.865838
0
LINE
5
54f
100
AcDbEntity
8
0
100
AcDbLine
6
CONTINUOUS
62
5
10
120.631622
20
82.865838
11
120.618923
21
82.865045
0
LINE
5
550
100
AcDbEntity
8
0
100
AcDbLine
6
CONTINUOUS
62
5
10
120.618923
20
82.865045
11
120.606173
21
82.864397
0
LINE
5
551
100
AcDbEntity
8
0
100
AcDbLine
6
CONTINUOUS
62
5
10
120.606173
20
82.864397
11
120.593379
21
82.863871
0
LINE
5
552
100
AcDbEntity
8
0
100
AcDbLine
6
CONTINUOUS
62
5
10
120.593379
20
82.863871
11
120.580549
21
82.863449
0
LINE
5
553
100
AcDbEntity
8
0
100
AcDbLine
6
CONTINUOUS
62
5
10
120.580549
20
82.863449
11
120.567688
21
82.863109
0
LINE
5
554
100
AcDbEntity
8
0
100
AcDbLine
6
CONTINUOUS
62
5
10
120.567688
20
82.863109
11
120.554806
21
82.862830
0
LINE
5
555
100
AcDbEntity
8
0
100
AcDbLine
6
CONTINUOUS
62
5
10
120.554806
20
82.862830
11
120.541909
21
82.862593
0
LINE
5
556
100
AcDbEntity
8
0
100
AcDbLine
6
CONTINUOUS
62
5
10
120.541909
20
82.862593
11
120.529005
21
82.862377
0
LINE
5
557
100
AcDbEntity
8
0
100
AcDbLine
6
CONTINUOUS
62
5
10
120.546801
20
83.181397
11
120.553109
21
83.181824
0
LINE
5
558
100
AcDbEntity
8
0
100
AcDbLine
6
CONTINUOUS
62
5
10
120.553109
20
83.181824
11
120.559414
21
83.182264
0
LINE
5
559
100
AcDbEntity
8
0
100
AcDbLine
6
CONTINUOUS
62
5
10
120.559414
20
83.182264
11
120.565713
21
83.182732
0
LINE
5
55a
100
AcDbEntity
8
0
100
AcDbLine
6
CONTINUOUS
62
5
10
120.565713
20
83.182732
11
120.572006
21
83.183241
0
LINE
5
55b
100
AcDbEntity
8
0
100
AcDbLine
6
CONTINUOUS
62
5
10
120.572006
20
83.183241
11
120.578288
21
83.183804
0
LINE
5
55c
100
AcDbEntity
8
0
100
AcDbLine
6
CONTINUOUS
62
5
10
120.578288
20
83.183804
11
120.584558
21
83.184436
0
LINE
5
55d
100
AcDbEntity
8
0
100
AcDbLine
6
CONTINUOUS
62
5
10
120.584558
20
83.184436
11
120.590813
21
83.185149
0
LINE
5
55e
100
AcDbEntity
8
0
100
AcDbLine
6
CONTINUOUS
62
5
10
120.590813
20
83.185149
11
120.597050
21
83.185958
0
LINE
5
55f
100
AcDbEntity
8
0
100
AcDbLine
6
CONTINUOUS
62
5
10
120.597050
20
83.185958
11
120.603268
21
83.186876
0
LINE
5
560
100
AcDbEntity
8
0
100
AcDbLine
6
CONTINUOUS
62
5
10
120.603268
20
83.186876
11
120.609462
21
83.187917
0
LINE
5
561
100
AcDbEntity
8
0
100
AcDbLine
6
CONTINUOUS
62
5
10
120.609462
20
83.187917
11
120.615632
21
83.189094
0
LINE
5
562
100
AcDbEntity
8
0
100
AcDbLine
6
CONTINUOUS
62
5
10
120.615632
20
83.189094
11
120.621774
21
83.190420
0
LINE
5
563
100
AcDbEntity
8
0
100
AcDbLine
6
CONTINUOUS
62
5
10
120.621774
20
83.190420
11
120.627887
21
83.191893
0
LINE
5
564
100
AcDbEntity
8
0
100
AcDbLine
6
CONTINUOUS
62
5
10
120.627887
20
83.191893
11
120.633970
21
83.193509
0
LINE
5
565
100
AcDbEntity
8
0
100
AcDbLine
6
CONTINUOUS
62
5
10
120.633970
20
83.193509
11
120.640020
21
83.195262
0
LINE
5
566
100
AcDbEntity
8
0
100
AcDbLine
6
CONTINUOUS
62
5
10
120.640020
20
83.195262
11
120.646037
21
83.197146
0
LINE
5
567
100
AcDbEntity
8
0
100
AcDbLine
6
CONTINUOUS
62
5
10
120.646037
20
83.197146
11
120.652019
21
83.199157
0
LINE
5
568
100
AcDbEntity
8
0
100
AcDbLine
6
CONTINUOUS
62
5
10
120.652019
20
83.199157
11
120.657964
21
83.201288
0
LINE
5
569
100
AcDbEntity
8
0
100
AcDbLine
6
CONTINUOUS
62
5
10
120.657964
20
83.201288
11
120.663872
21
83.203534
0
LINE
5
56a
100
AcDbEntity
8
0
100
AcDbLine
6
CONTINUOUS
62
5
10
120.663872
20
83.203534
11
120.669740
21
83.205890
0
LINE
5
56b
100
AcDbEntity
8
0
100
AcDbLine
6
CONTINUOUS
62
5
10
120.669740
20
83.205890
11
120.675567
21
83.208350
0
LINE
5
56c
100
AcDbEntity
8
0
100
AcDbLine
6
CONTINUOUS
62
5
10
120.675567
20
83.208350
11
120.681353
21
83.210909
0
LINE
5
56d
100
AcDbEntity
8
0
100
AcDbLine
6
CONTINUOUS
62
5
10
120.681353
20
83.210909
11
120.687094
21
83.213561
0
LINE
5
56e
100
AcDbEntity
8
0
100
AcDbLine
6
CONTINUOUS
62
5
10
120.687094
20
83.213561
11
120.692790
21
83.216303
0
LINE
5
56f
100
AcDbEntity
8
0
100
AcDbLine
6
CONTINUOUS
62
5
10
120.692790
20
83.216303
11
120.698439
21
83.219136
0
LINE
5
570
100
AcDbEntity
8
0
100
AcDbLine
6
CONTINUOUS
62
5
10
120.698439
20
83.219136
11
120.704038
21
83.222058
0
LINE
5
571
100
AcDbEntity
8
0
100
AcDbLine
6
CONTINUOUS
62
5
10
120.704038
20
83.222058
11
120.709587
21
83.225069
0
LINE
5
572
100
AcDbEntity
8
0
100
AcDbLine
6
CONTINUOUS
62
5
10
120.709587
20
83.225069
11
120.715083
21
83.228169
0
LINE
5
573
100
AcDbEntity
8
0
100
AcDbLine
6
CONTINUOUS
62
5
10
120.715083
20
83.228169
11
120.720524
21
83.231358
0
LINE
5
574
100
AcDbEntity
8
0
100
AcDbLine
6
CONTINUOUS
62
5
10
120.720524
20
83.231358
11
120.725909
21
83.234636
0
LINE
5
575
100
AcDbEntity
8
0
100
AcDbLine
6
CONTINUOUS
62
5
10
120.725909
20
83.234636
11
120.731235
21
83.238001
0
LINE
5
576
100
AcDbEntity
8
0
100
AcDbLine
6
CONTINUOUS
62
5
10
120.731235
20
83.238001
11
120.736502
21
83.241454
0
LINE
5
577
100
AcDbEntity
8
0
100
AcDbLine
6
CONTINUOUS
62
5
10
120.736502
20
83.241454
11
120.741706
21
83.244995
0
LINE
5
578
100
AcDbEntity
8
0
100
AcDbLine
6
CONTINUOUS
62
5
10
120.741706
20
83.244995
11
120.746846
21
83.248623
0
LINE
5
579
100
AcDbEntity
8
0
100
AcDbLine
6
CONTINUOUS
62
5
10
120.746846
20
83.248623
11
120.751920
21
83.252338
0
LINE
5
57a
100
AcDbEntity
8
0
100
AcDbLine
6
CONTINUOUS
62
5
10
120.751920
20
83.252338
11
120.756929
21
83.256138
0
LINE
5
57b
100
AcDbEntity
8
0
100
AcDbLine
6
CONTINUOUS
62
5
10
120.756929
20
83.256138
11
120.761877
21
83.260015
0
LINE
5
57c
100
AcDbEntity
8
0
100
AcDbLine
6
CONTINUOUS
62
5
10
120.761877
20
83.260015
11
120.766770
21
83.263965
0
LINE
5
57d
100
AcDbEntity
8
0
100
AcDbLine
6
CONTINUOUS
62
5
10
120.766770
20
83.263965
11
120.771612
21
83.267980
0
LINE
5
57e
100
AcDbEntity
8
0
100
AcDbLine
6
CONTINUOUS
62
5
10
120.771612
20
83.267980
11
120.776408
21
83.272053
0
LINE
5
57f
100
AcDbEntity
8
0
100
AcDbLine
6
CONTINUOUS
62
5
10
120.776408
20
83.272053
11
120.781165
21
83.276179
0
LINE
5
580
100
AcDbEntity
8
0
100
AcDbLine
6
CONTINUOUS
62
5
10
120.781165
20
83.276179
11
120.785885
21
83.280351
0
LINE
5
581
100
AcDbEntity
8
0
100
AcDbLine
6
CONTINUOUS
62
5
10
120.785885
20
83.280351
11
120.790576
21
83.284561
0
LINE
5
582
100
AcDbEntity
8
0
100
AcDbLine
6
CONTINUOUS
62
5
10
120.790576
20
83.284561
11
120.795241
21
83.288805
0
LINE
5
583
100
AcDbEntity
8
0
100
AcDbLine
6
CONTINUOUS
62
5
10
120.795241
20
83.288805
11
120.799886
21
83.293074
0
LINE
5
584
100
AcDbEntity
8
0
100
AcDbLine
6
CONTINUOUS
62
5
10
120.799886
20
83.293074
11
120.804516
21
83.297363
0
LINE
5
585
100
AcDbEntity
8
0
100
AcDbLine
6
CONTINUOUS
62
5
10
120.804516
20
83.297363
11
120.809136
21
83.301665
0
LINE
5
586
100
AcDbEntity
8
0
100
AcDbLine
6
CONTINUOUS
62
5
10
120.809136
20
83.301665
11
120.813750
21
83.305974
0
LINE
5
587
100
AcDbEntity
8
0
100
AcDbLine
6
CONTINUOUS
62
5
10
120.380038
20
83.224672
11
120.385154
21
83.221925
0
LINE
5
588
100
AcDbEntity
8
0
100
AcDbLine
6
CONTINUOUS
62
5
10
120.385154
20
83.221925
11
120.390319
21
83.219262
0
LINE
5
589
100
AcDbEntity
8
0
100
AcDbLine
6
CONTINUOUS
62
5
10
120.390319
20
83.219262
11
120.395531
21
83.216680
0
LINE
5
58a
100
AcDbEntity
8
0
100
AcDbLine
6
CONTINUOUS
62
5
10
120.395531
20
83.216680
11
120.400786
21
83.214176
0
LINE
5
58b
100
AcDbEntity
8
0
100
AcDbLine
6
CONTINUOUS
62
5
10
120.400786
20
83.214176
11
120.406079
21
83.211748
0
LINE
5
58c
100
AcDbEntity
8
0
100
AcDbLine
6
CONTINUOUS
62
5
10
120.406079
20
83.211748
11
120.411408
21
83.209391
0
LINE
5
58d
100
AcDbEntity
8
0
100
AcDbLine
6
CONTINUOUS
62
5
10
120.411408
20
83.209391
11
120.416768
21
83.207104
0
LINE
5
58e
100
AcDbEntity
8
0
100
AcDbLine
6
CONTINUOUS
62
5
10
120.416768
20
83.207104
11
120.422158
21
83.204888
0
LINE
5
58f
100
AcDbEntity
8
0
100
AcDbLine
6
CONTINUOUS
62
5
10
120.422158
20
83.204888
11
120.427577
21
83.202750
0
LINE
5
590
100
AcDbEntity
8
0
100
AcDbLine
6
CONTINUOUS
62
5
10
120.427577
20
83.202750
11
120.433024
21
83.200696
0
LINE
5
591
100
AcDbEntity
8
0
100
AcDbLine
6
CONTINUOUS
62
5
10
120.433024
20
83.200696
11
120.438499
21
83.198731
0
LINE
5
592
100
AcDbEntity
8
0
100
AcDbLine
6
CONTINUOUS
62
5
10
120.438499
20
83.198731
11
120.444003
21
83.196862
0
LINE
5
593
100
AcDbEntity
8
0
100
AcDbLine
6
CONTINUOUS
62
5
10
120.444003
20
83.196862
11
120.449533
21
83.195094
0
LINE
5
594
100
AcDbEntity
8
0
100
AcDbLine
6
CONTINUOUS
62
5
10
120.449533
20
83.195094
11
120.455090
21
83.193434
0
LINE
5
595
100
AcDbEntity
8
0
100
AcDbLine
6
CONTINUOUS
62
5
10
120.455090
20
83.193434
11
120.460673
21
83.191888
0
LINE
5
596
100
AcDbEntity
8
0
100
AcDbLine
6
CONTINUOUS
62
5
10
120.460673
20
83.191888
11
120.466282
21
83.190462
0
LINE
5
597
100
AcDbEntity
8
0
100
AcDbLine
6
CONTINUOUS
62
5
10
120.466282
20
83.190462
11
120.471916
21
83.189161
0
LINE
5
598
100
AcDbEntity
8
0
100
AcDbLine
6
CONTINUOUS
62
5
10
120.471916
20
83.189161
11
120.477575
21
83.187992
0
LINE
5
599
100
AcDbEntity
8
0
100
AcDbLine
6
CONTINUOUS
62
5
10
120.477575
20
83.187992
11
120.483259
21
83.186958
0
LINE
5
59a
100
AcDbEntity
8
0
100
AcDbLine
6
CONTINUOUS
62
5
10
120.483259
20
83.186958
11
120.488964
21
83.186050
0
LINE
5
59b
100
AcDbEntity
8
0
100
AcDbLine
6
CONTINUOUS
62
5
10
120.488964
20
83.186050
11
120.494690
21
83.185257
0
LINE
5
59c
100
AcDbEntity
8
0
100
AcDbLine
6
CONTINUOUS
62
5
10
120.494690
20
83.185257
11
120.500434
21
83.184568
0
LINE
5
59d
100
AcDbEntity
8
0
100
AcDbLine
6
CONTINUOUS
62
5
10
120.500434
20
83.184568
11
120.506195
21
83.183971
0
LINE
5
59e
100
AcDbEntity
8
0
100
AcDbLine
6
CONTINUOUS
62
5
10
120.506195
20
83.183971
11
120.511969
21
83.183454
0
LINE
5
59f
100
AcDbEntity
8
0
100
AcDbLine
6
CONTINUOUS
62
5
10
120.511969
20
83.183454
11
120.517756
21
83.183006
0
LINE
5
5a0
100
AcDbEntity
8
0
100
AcDbLine
6
CONTINUOUS
62
5
10
120.517756
20
83.183006
11
120.523553
21
83.182615
0
LINE
5
5a1
100
AcDbEntity
8
0
100
AcDbLine
6
CONTINUOUS
62
5
10
120.523553
20
83.182615
11
120.529358
21
83.182270
0
LINE
5
5a2
100
AcDbEntity
8
0
100
AcDbLine
6
CONTINUOUS
62
5
10
120.529358
20
83.182270
11
120.535169
21
83.181960
0
LINE
5
5a3
100
AcDbEntity
8
0
100
AcDbLine
6
CONTINUOUS
62
5
10
120.535169
20
83.181960
11
120.540984
21
83.181673
0
LINE
5
5a4
100
AcDbEntity
8
0
100
AcDbLine
6
CONTINUOUS
62
5
10
120.540984
20
83.181673
11
120.546801
21
83.181397
0
LINE
5
5a5
100
AcDbEntity
8
0
100
AcDbLine
6
CONTINUOUS
62
5
10
120.813750
20
83.305974
11
120.820328
21
83.316011
0
LINE
5
5a6
100
AcDbEntity
8
0
100
AcDbLine
6
CONTINUOUS
62
5
10
120.820328
20
83.316011
11
120.826888
21
83.326055
0
LINE
5
5a7
100
AcDbEntity
8
0
100
AcDbLine
6
CONTINUOUS
62
5
10
120.826888
20
83.326055
11
120.833412
21
83.336112
0
LINE
5
5a8
100
AcDbEntity
8
0
100
AcDbLine
6
CONTINUOUS
62
5
10
120.833412
20
83.336112
11
120.839885
21
83.346189
0
LINE
5
5a9
100
AcDbEntity
8
0
100
AcDbLine
6
CONTINUOUS
62
5
10
120.839885
20
83.346189
11
120.846287
21
83.356291
0
LINE
5
5aa
100
AcDbEntity
8
0
100
AcDbLine
6
CONTINUOUS
62
5
10
120.846287
20
83.356291
11
120.852602
21
83.366426
0
LINE
5
5ab
100
AcDbEntity
8
0
100
AcDbLine
6
CONTINUOUS
62
5
10
120.852602
20
83.366426
11
120.858812
21
83.376599
0
LINE
5
5ac
100
AcDbEntity
8
0
100
AcDbLine
6
CONTINUOUS
62
5
10
120.858812
20
83.376599
11
120.864900
21
83.386818
0
LINE
5
5ad
100
AcDbEntity
8
0
100
AcDbLine
6
CONTINUOUS
62
5
10
120.864900
20
83.386818
11
120.870847
21
83.397088
0
LINE
5
5ae
100
AcDbEntity
8
0
100
AcDbLine
6
CONTINUOUS
62
5
10
120.870847
20
83.397088
11
120.876638
21
83.407417
0
LINE
5
5af
100
AcDbEntity
8
0
100
AcDbLine
6
CONTINUOUS
62
5
10
120.876638
20
83.407417
11
120.882253
21
83.417811
0
LINE
5
5b0
100
AcDbEntity
8
0
100
AcDbLine
6
CONTINUOUS
62
5
10
120.882253
20
83.417811
11
120.887676
21
83.428275
0
LINE
5
5b1
100
AcDbEntity
8
0
100
AcDbLine
6
CONTINUOUS
62
5
10
120.887676
20
83.428275
11
120.892889
21
83.438818
0
LINE
5
5b2
100
AcDbEntity
8
0
100
AcDbLine
6
CONTINUOUS
62
5
10
120.892889
20
83.438818
11
120.897874
21
83.449444
0
LINE
5
5b3
100
AcDbEntity
8
0
100
AcDbLine
6
CONTINUOUS
62
5
10
120.897874
20
83.449444
11
120.902615
21
83.460161
0
LINE
5
5b4
100
AcDbEntity
8
0
100
AcDbLine
6
CONTINUOUS
62
5
10
120.902615
20
83.460161
11
120.907093
21
83.470976
0
LINE
5
5b5
100
AcDbEntity
8
0
100
AcDbLine
6
CONTINUOUS
62
5
10
120.907093
20
83.470976
11
120.911291
21
83.481893
0
LINE
5
5b6
100
AcDbEntity
8
0
100
AcDbLine
6
CONTINUOUS
62
5
10
120.911291
20
83.481893
11
120.915193
21
83.492921
0
LINE
5
5b7
100
AcDbEntity
8
0
100
AcDbLine
6
CONTINUOUS
62
5
10
120.915193
20
83.492921
11
120.918800
21
83.504057
0
LINE
5
5b8
100
AcDbEntity
8
0
100
AcDbLine
6
CONTINUOUS
62
5
10
120.918800
20
83.504057
11
120.922134
21
83.515295
0
LINE
5
5b9
100
AcDbEntity
8
0
100
AcDbLine
6
CONTINUOUS
62
5
10
120.922134
20
83.515295
11
120.925215
21
83.526626
0
LINE
5
5ba
100
AcDbEntity
8
0
100
AcDbLine
6
CONTINUOUS
62
5
10
120.925215
20
83.526626
11
120.928065
21
83.538043
0
LINE
5
5bb
100
AcDbEntity
8
0
100
AcDbLine
6
CONTINUOUS
62
5
10
120.928065
20
83.538043
11
120.930703
21
83.549537
0
LINE
5
5bc
100
AcDbEntity
8
0
100
AcDbLine
6
CONTINUOUS
62
5
10
120.930703
20
83.549537
11
120.933152
21
83.561102
0
LINE
5
5bd
100
AcDbEntity
8
0
100
AcDbLine
6
CONTINUOUS
62
5
10
120.933152
20
83.561102
11
120.935433
21
83.572729
0
LINE
5
5be
100
AcDbEntity
8
0
100
AcDbLine
6
CONTINUOUS
62
5
10
120.935433
20
83.572729
11
120.937566
21
83.584411
0
LINE
5
5bf
100
AcDbEntity
8
0
100
AcDbLine
6
CONTINUOUS
62
5
10
120.937566
20
83.584411
11
120.939573
21
83.596140
0
LINE
5
5c0
100
AcDbEntity
8
0
100
AcDbLine
6
CONTINUOUS
62
5
10
120.939573
20
83.596140
11
120.941475
21
83.607907
0
LINE
5
5c1
100
AcDbEntity
8
0
100
AcDbLine
6
CONTINUOUS
62
5
10
120.941475
20
83.607907
11
120.943292
21
83.619706
0
LINE
5
5c2
100
AcDbEntity
8
0
100
AcDbLine
6
CONTINUOUS
62
5
10
120.943292
20
83.619706
11
120.945046
21
83.631528
0
LINE
5
5c3
100
AcDbEntity
8
0
100
AcDbLine
6
CONTINUOUS
62
5
10
120.945046
20
83.631528
11
120.946758
21
83.643365
0
LINE
5
5c4
100
AcDbEntity
8
0
100
AcDbLine
6
CONTINUOUS
62
5
10
120.946758
20
83.643365
11
120.948449
21
83.655211
0
LINE
5
5c5
100
AcDbEntity
8
0
100
AcDbLine
6
CONTINUOUS
62
5
10
120.374945
20
82.879604
11
120.367370
21
82.881335
0
LINE
5
5c6
100
AcDbEntity
8
0
100
AcDbLine
6
CONTINUOUS
62
5
10
120.367370
20
82.881335
11
120.359813
21
82.883137
0
LINE
5
5c7
100
AcDbEntity
8
0
100
AcDbLine
6
CONTINUOUS
62
5
10
120.359813
20
82.883137
11
120.352276
21
82.885014
0
LINE
5
5c8
100
AcDbEntity
8
0
100
AcDbLine
6
CONTINUOUS
62
5
10
120.352276
20
82.885014
11
120.344759
21
82.886967
0
LINE
5
5c9
100
AcDbEntity
8
0
100
AcDbLine
6
CONTINUOUS
62
5
10
120.344759
20
82.886967
11
120.337264
21
82.888998
0
LINE
5
5ca
100
AcDbEntity
8
0
100
AcDbLine
6
CONTINUOUS
62
5
10
120.337264
20
82.888998
11
120.329792
21
82.891110
0
LINE
5
5cb
100
AcDbEntity
8
0
100
AcDbLine
6
CONTINUOUS
62
5
10
120.329792
20
82.891110
11
120.322345
21
82.893306
0
LINE
5
5cc
100
AcDbEntity
8
0
100
AcDbLine
6
CONTINUOUS
62
5
10
120.322345
20
82.893306
11
120.314924
21
82.895587
0
LINE
5
5cd
100
AcDbEntity
8
0
100
AcDbLine
6
CONTINUOUS
62
5
10
120.314924
20
82.895587
11
120.307530
21
82.897955
0
LINE
5
5ce
100
AcDbEntity
8
0
100
AcDbLine
6
CONTINUOUS
62
5
10
120.306197
20
83.280277
11
120.310487
21
83.276347
0
LINE
5
5cf
100
AcDbEntity
8
0
100
AcDbLine
6
CONTINUOUS
62
5
10
120.310487
20
83.276347
11
120.314794
21
83.272442
0
LINE
5
5d0
100
AcDbEntity
8
0
100
AcDbLine
6
CONTINUOUS
62
5
10
120.314794
20
83.272442
11
120.319125
21
83.268570
0
LINE
5
5d1
100
AcDbEntity
8
0
100
AcDbLine
6
CONTINUOUS
62
5
10
120.319125
20
83.268570
11
120.323485
21
83.264739
0
LINE
5
5d2
100
AcDbEntity
8
0
100
AcDbLine
6
CONTINUOUS
62
5
10
120.323485
20
83.264739
11
120.327882
21
83.260958
0
LINE
5
5d3
100
AcDbEntity
8
0
100
AcDbLine
6
CONTINUOUS
62
5
10
120.327882
20
83.260958
11
120.332320
21
83.257234
0
LINE
5
5d4
100
AcDbEntity
8
0
100
AcDbLine
6
CONTINUOUS
62
5
10
120.332320
20
83.257234
11
120.336806
21
83.253577
0
LINE
5
5d5
100
AcDbEntity
8
0
100
AcDbLine
6
CONTINUOUS
62
5
10
120.336806
20
83.253577
11
120.341345
21
83.249993
0
LINE
5
5d6
100
AcDbEntity
8
0
100
AcDbLine
6
CONTINUOUS
62
5
10
120.341345
20
83.249993
11
120.345944
21
83.246492
0
LINE
5
5d7
100
AcDbEntity
8
0
100
AcDbLine
6
CONTINUOUS
62
5
10
120.345944
20
83.246492
11
120.350609
21
83.243081
0
LINE
5
5d8
100
AcDbEntity
8
0
100
AcDbLine
6
CONTINUOUS
62
5
10
120.350609
20
83.243081
11
120.355345
21
83.239769
0
LINE
5
5d9
100
AcDbEntity
8
0
100
AcDbLine
6
CONTINUOUS
62
5
10
120.355345
20
83.239769
11
120.360153
21
83.236558
0
LINE
5
5da
100
AcDbEntity
8
0
100
AcDbLine
6
CONTINUOUS
62
5
10
120.360153
20
83.236558
11
120.365030
21
83.233446
0
LINE
5
5db
100
AcDbEntity
8
0
100
AcDbLine
6
CONTINUOUS
62
5
10
120.365030
20
83.233446
11
120.369973
21
83.230430
0
LINE
5
5dc
100
AcDbEntity
8
0
100
AcDbLine
6
CONTINUOUS
62
5
10
120.369973
20
83.230430
11
120.374977
21
83.227506
0
LINE
5
5dd
100
AcDbEntity
8
0
100
AcDbLine
6
CONTINUOUS
62
5
10
120.374977
20
83.227506
11
120.380038
21
83.224672
0
LINE
5
5de
100
AcDbEntity
8
0
100
AcDbLine
6
CONTINUOUS
62
5
10
116.299593
20
81.200000
11
116.362183
21
81.200000
0
ARC
5
5df
100
AcDbEntity
8
0
100
AcDbCircle
6
CONTINUOUS
62
5
10
119.487064
20
84.650000
40
3.000000
100
AcDbArc
50
-144.304087
51
-131.810314
0
LINE
5
5e0
100
AcDbEntity
8
0
100
AcDbLine
6
CONTINUOUS
62
5
10
119.878353
20
83.235647
11
119.869922
21
83.247289
0
LINE
5
5e1
100
AcDbEntity
8
0
100
AcDbLine
6
CONTINUOUS
62
5
10
119.869922
20
83.247289
11
119.861637
21
83.258993
0
LINE
5
5e2
100
AcDbEntity
8
0
100
AcDbLine
6
CONTINUOUS
62
5
10
119.861637
20
83.258993
11
119.853512
21
83.270765
0
LINE
5
5e3
100
AcDbEntity
8
0
100
AcDbLine
6
CONTINUOUS
62
5
10
119.853512
20
83.270765
11
119.845559
21
83.282610
0
LINE
5
5e4
100
AcDbEntity
8
0
100
AcDbLine
6
CONTINUOUS
62
5
10
119.845559
20
83.282610
11
119.837790
21
83.294532
0
LINE
5
5e5
100
AcDbEntity
8
0
100
AcDbLine
6
CONTINUOUS
62
5
10
119.837790
20
83.294532
11
119.830217
21
83.306538
0
LINE
5
5e6
100
AcDbEntity
8
0
100
AcDbLine
6
CONTINUOUS
62
5
10
119.830217
20
83.306538
11
119.822852
21
83.318632
0
LINE
5
5e7
100
AcDbEntity
8
0
100
AcDbLine
6
CONTINUOUS
62
5
10
119.822852
20
83.318632
11
119.815708
21
83.330819
0
LINE
5
5e8
100
AcDbEntity
8
0
100
AcDbLine
6
CONTINUOUS
62
5
10
119.815708
20
83.330819
11
119.808798
21
83.343105
0
LINE
5
5e9
100
AcDbEntity
8
0
100
AcDbLine
6
CONTINUOUS
62
5
10
119.808798
20
83.343105
11
119.802133
21
83.355495
0
LINE
5
5ea
100
AcDbEntity
8
0
100
AcDbLine
6
CONTINUOUS
62
5
10
119.802133
20
83.355495
11
119.795725
21
83.367994
0
LINE
5
5eb
100
AcDbEntity
8
0
100
AcDbLine
6
CONTINUOUS
62
5
10
119.795725
20
83.367994
11
119.789587
21
83.380607
0
LINE
5
5ec
100
AcDbEntity
8
0
100
AcDbLine
6
CONTINUOUS
62
5
10
119.789587
20
83.380607
11
119.783732
21
83.393339
0
LINE
5
5ed
100
AcDbEntity
8
0
100
AcDbLine
6
CONTINUOUS
62
5
10
119.783732
20
83.393339
11
119.778171
21
83.406197
0
LINE
5
5ee
100
AcDbEntity
8
0
100
AcDbLine
6
CONTINUOUS
62
5
10
119.778171
20
83.406197
11
119.772916
21
83.419184
0
LINE
5
5ef
100
AcDbEntity
8
0
100
AcDbLine
6
CONTINUOUS
62
5
10
119.772916
20
83.419184
11
119.767981
21
83.432306
0
LINE
5
5f0
100
AcDbEntity
8
0
100
AcDbLine
6
CONTINUOUS
62
5
10
119.767981
20
83.432306
11
119.763377
21
83.445568
0
LINE
5
5f1
100
AcDbEntity
8
0
100
AcDbLine
6
CONTINUOUS
62
5
10
119.763377
20
83.445568
11
119.759116
21
83.458976
0
LINE
5
5f2
100
AcDbEntity
8
0
100
AcDbLine
6
CONTINUOUS
62
5
10
119.759116
20
83.458976
11
119.755211
21
83.472534
0
LINE
5
5f3
100
AcDbEntity
8
0
100
AcDbLine
6
CONTINUOUS
62
5
10
119.755211
20
83.472534
11
119.751632
21
83.486230
0
LINE
5
5f4
100
AcDbEntity
8
0
100
AcDbLine
6
CONTINUOUS
62
5
10
119.751632
20
83.486230
11
119.748227
21
83.500000
0
LINE
5
5f5
100
AcDbEntity
8
0
100
AcDbLine
6
CONTINUOUS
62
5
10
119.977310
20
83.110211
11
119.968068
21
83.121510
0
LINE
5
5f6
100
AcDbEntity
8
0
100
AcDbLine
6
CONTINUOUS
62
5
10
119.968068
20
83.121510
11
119.958839
21
83.132815
0
LINE
5
5f7
100
AcDbEntity
8
0
100
AcDbLine
6
CONTINUOUS
62
5
10
119.958839
20
83.132815
11
119.949635
21
83.144130
0
LINE
5
5f8
100
AcDbEntity
8
0
100
AcDbLine
6
CONTINUOUS
62
5
10
119.949635
20
83.144130
11
119.940467
21
83.155460
0
LINE
5
5f9
100
AcDbEntity
8
0
100
AcDbLine
6
CONTINUOUS
62
5
10
119.940467
20
83.155460
11
119.931348
21
83.166812
0
LINE
5
5fa
100
AcDbEntity
8
0
100
AcDbLine
6
CONTINUOUS
62
5
10
119.931348
20
83.166812
11
119.922291
21
83.178189
0
LINE
5
5fb
100
AcDbEntity
8
0
100
AcDbLine
6
CONTINUOUS
62
5
10
119.922291
20
83.178189
11
119.913307
21
83.189597
0
LINE
5
5fc
100
AcDbEntity
8
0
100
AcDbLine
6
CONTINUOUS
62
5
10
119.913307
20
83.189597
11
119.904409
21
83.201042
0
LINE
5
5fd
100
AcDbEntity
8
0
100
AcDbLine
6
CONTINUOUS
62
5
10
119.904409
20
83.201042
11
119.895609
21
83.212529
0
LINE
5
5fe
100
AcDbEntity
8
0
100
AcDbLine
6
CONTINUOUS
62
5
10
119.895609
20
83.212529
11
119.886920
21
83.224062
0
LINE
5
5ff
100
AcDbEntity
8
0
100
AcDbLine
6
CONTINUOUS
62
5
10
119.886920
20
83.224062
11
119.878353
21
83.235647
0
LINE
5
600
100
AcDbEntity
8
0
100
AcDbLine
6
CONTINUOUS
62
5
10
120.307530
20
82.897955
11
120.300164
21
82.900413
0
LINE
5
601
100
AcDbEntity
8
0
100
AcDbLine
6
CONTINUOUS
62
5
10
120.300164
20
82.900413
11
120.292828
21
82.902958
0
LINE
5
602
100
AcDbEntity
8
0
100
AcDbLine
6
CONTINUOUS
62
5
10
120.292828
20
82.902958
11
120.285521
21
82.905590
0
LINE
5
603
100
AcDbEntity
8
0
100
AcDbLine
6
CONTINUOUS
62
5
10
120.285521
20
82.905590
11
120.278244
21
82.908307
0
LINE
5
604
100
AcDbEntity
8
0
100
AcDbLine
6
CONTINUOUS
62
5
10
120.278244
20
82.908307
11
120.270999
21
82.911108
0
LINE
5
605
100
AcDbEntity
8
0
100
AcDbLine
6
CONTINUOUS
62
5
10
120.270999
20
82.911108
11
120.263786
21
82.913991
0
LINE
5
606
100
AcDbEntity
8
0
100
AcDbLine
6
CONTINUOUS
62
5
10
120.263786
20
82.913991
11
120.256605
21
82.916956
0
LINE
5
607
100
AcDbEntity
8
0
100
AcDbLine
6
CONTINUOUS
62
5
10
120.256605
20
82.916956
11
120.249458
21
82.920001
0
LINE
5
608
100
AcDbEntity
8
0
100
AcDbLine
6
CONTINUOUS
62
5
10
120.249458
20
82.920001
11
120.242346
21
82.923124
0
LINE
5
609
100
AcDbEntity
8
0
100
AcDbLine
6
CONTINUOUS
62
5
10
120.242346
20
82.923124
11
120.235268
21
82.926326
0
LINE
5
60a
100
AcDbEntity
8
0
100
AcDbLine
6
CONTINUOUS
62
5
10
120.235268
20
82.926326
11
120.228226
21
82.929603
0
LINE
5
60b
100
AcDbEntity
8
0
100
AcDbLine
6
CONTINUOUS
62
5
10
120.228226
20
82.929603
11
120.221220
21
82.932956
0
LINE
5
60c
100
AcDbEntity
8
0
100
AcDbLine
6
CONTINUOUS
62
5
10
120.221220
20
82.932956
11
120.214249
21
82.936383
0
LINE
5
60d
100
AcDbEntity
8
0
100
AcDbLine
6
CONTINUOUS
62
5
10
120.214249
20
82.936383
11
120.207316
21
82.939882
0
LINE
5
60e
100
AcDbEntity
8
0
100
AcDbLine
6
CONTINUOUS
62
5
10
120.207316
20
82.939882
11
120.200419
21
82.943453
0
LINE
5
60f
100
AcDbEntity
8
0
100
AcDbLine
6
CONTINUOUS
62
5
10
120.200419
20
82.943453
11
120.193559
21
82.947095
0
LINE
5
610
100
AcDbEntity
8
0
100
AcDbLine
6
CONTINUOUS
62
5
10
120.193559
20
82.947095
11
120.186737
21
82.950805
0
LINE
5
611
100
AcDbEntity
8
0
100
AcDbLine
6
CONTINUOUS
62
5
10
120.186737
20
82.950805
11
120.179952
21
82.954584
0
LINE
5
612
100
AcDbEntity
8
0
100
AcDbLine
6
CONTINUOUS
62
5
10
120.179952
20
82.954584
11
120.173206
21
82.958430
0
LINE
5
613
100
AcDbEntity
8
0
100
AcDbLine
6
CONTINUOUS
62
5
10
120.173206
20
82.958430
11
120.166498
21
82.962342
0
LINE
5
614
100
AcDbEntity
8
0
100
AcDbLine
6
CONTINUOUS
62
5
10
120.166498
20
82.962342
11
120.159828
21
82.966318
0
LINE
5
615
100
AcDbEntity
8
0
100
AcDbLine
6
CONTINUOUS
62
5
10
120.159828
20
82.966318
11
120.153196
21
82.970357
0
LINE
5
616
100
AcDbEntity
8
0
100
AcDbLine
6
CONTINUOUS
62
5
10
120.153196
20
82.970357
11
120.146602
21
82.974457
0
LINE
5
617
100
AcDbEntity
8
0
100
AcDbLine
6
CONTINUOUS
62
5
10
120.146602
20
82.974457
11
120.140045
21
82.978617
0
LINE
5
618
100
AcDbEntity
8
0
100
AcDbLine
6
CONTINUOUS
62
5
10
120.140045
20
82.978617
11
120.133525
21
82.982835
0
LINE
5
619
100
AcDbEntity
8
0
100
AcDbLine
6
CONTINUOUS
62
5
10
120.133525
20
82.982835
11
120.127042
21
82.987111
0
LINE
5
61a
100
AcDbEntity
8
0
100
AcDbLine
6
CONTINUOUS
62
5
10
120.127042
20
82.987111
11
120.120595
21
82.991442
0
LINE
5
61b
100
AcDbEntity
8
0
100
AcDbLine
6
CONTINUOUS
62
5
10
120.120595
20
82.991442
11
120.114183
21
82.995826
0
LINE
5
61c
100
AcDbEntity
8
0
100
AcDbLine
6
CONTINUOUS
62
5
10
120.114183
20
82.995826
11
120.107808
21
83.000263
0
LINE
5
61d
100
AcDbEntity
8
0
100
AcDbLine
6
CONTINUOUS
62
5
10
120.107808
20
83.000263
11
120.101468
21
83.004751
0
LINE
5
61e
100
AcDbEntity
8
0
100
AcDbLine
6
CONTINUOUS
62
5
10
120.101468
20
83.004751
11
120.095163
21
83.009289
0
LINE
5
61f
100
AcDbEntity
8
0
100
AcDbLine
6
CONTINUOUS
62
5
10
120.095163
20
83.009289
11
120.088896
21
83.013879
0
LINE
5
620
100
AcDbEntity
8
0
100
AcDbLine
6
CONTINUOUS
62
5
10
120.088896
20
83.013879
11
120.082667
21
83.018520
0
LINE
5
621
100
AcDbEntity
8
0
100
AcDbLine
6
CONTINUOUS
62
5
10
120.082667
20
83.018520
11
120.076478
21
83.023213
0
LINE
5
622
100
AcDbEntity
8
0
100
AcDbLine
6
CONTINUOUS
62
5
10
120.076478
20
83.023213
11
120.070330
21
83.027959
0
LINE
5
623
100
AcDbEntity
8
0
100
AcDbLine
6
CONTINUOUS
62
5
10
120.070330
20
83.027959
11
120.064224
21
83.032758
0
LINE
5
624
100
AcDbEntity
8
0
100
AcDbLine
6
CONTINUOUS
62
5
10
120.064224
20
83.032758
11
120.058162
21
83.037611
0
LINE
5
625
100
AcDbEntity
8
0
100
AcDbLine
6
CONTINUOUS
62
5
10
120.058162
20
83.037611
11
120.052145
21
83.042517
0
LINE
5
626
100
AcDbEntity
8
0
100
AcDbLine
6
CONTINUOUS
62
5
10
120.052145
20
83.042517
11
120.046174
21
83.047478
0
LINE
5
627
100
AcDbEntity
8
0
100
AcDbLine
6
CONTINUOUS
62
5
10
120.046174
20
83.047478
11
120.040250
21
83.052495
0
LINE
5
628
100
AcDbEntity
8
0
100
AcDbLine
6
CONTINUOUS
62
5
10
120.040250
20
83.052495
11
120.034374
21
83.057566
0
LINE
5
629
100
AcDbEntity
8
0
100
AcDbLine
6
CONTINUOUS
62
5
10
120.034374
20
83.057566
11
120.028542
21
83.062687
0
LINE
5
62a
100
AcDbEntity
8
0
100
AcDbLine
6
CONTINUOUS
62
5
10
120.028542
20
83.062687
11
120.022750
21
83.067853
0
LINE
5
62b
100
AcDbEntity
8
0
100
AcDbLine
6
CONTINUOUS
62
5
10
120.022750
20
83.067853
11
120.016993
21
83.073060
0
LINE
5
62c
100
AcDbEntity
8
0
100
AcDbLine
6
CONTINUOUS
62
5
10
120.016993
20
83.073060
11
120.011266
21
83.078302
0
LINE
5
62d
100
AcDbEntity
8
0
100
AcDbLine
6
CONTINUOUS
62
5
10
120.011266
20
83.078302
11
120.005567
21
83.083574
0
LINE
5
62e
100
AcDbEntity
8
0
100
AcDbLine
6
CONTINUOUS
62
5
10
120.005567
20
83.083574
11
119.999889
21
83.088871
0
LINE
5
62f
100
AcDbEntity
8
0
100
AcDbLine
6
CONTINUOUS
62
5
10
119.999889
20
83.088871
11
119.994229
21
83.094188
0
LINE
5
630
100
AcDbEntity
8
0
100
AcDbLine
6
CONTINUOUS
62
5
10
119.994229
20
83.094188
11
119.988582
21
83.099521
0
LINE
5
631
100
AcDbEntity
8
0
100
AcDbLine
6
CONTINUOUS
62
5
10
119.988582
20
83.099521
11
119.982943
21
83.104863
0
LINE
5
632
100
AcDbEntity
8
0
100
AcDbLine
6
CONTINUOUS
62
5
10
119.982943
20
83.104863
11
119.977310
21
83.110211
0
LINE
5
633
100
AcDbEntity
8
0
100
AcDbLine
6
CONTINUOUS
62
5
10
120.297649
20
83.288177
11
120.301920
21
83.284223
0
LINE
5
634
100
AcDbEntity
8
0
100
AcDbLine
6
CONTINUOUS
62
5
10
120.301920
20
83.284223
11
120.306197
21
83.280277
0
LINE
5
635
100
AcDbEntity
8
0
100
AcDbLine
6
CONTINUOUS
62
5
10
120.136225
20
83.541096
11
120.143254
21
83.525385
0
LINE
5
636
100
AcDbEntity
8
0
100
AcDbLine
6
CONTINUOUS
62
5
10
120.143254
20
83.525385
11
120.150732
21
83.509826
0
LINE
5
637
100
AcDbEntity
8
0
100
AcDbLine
6
CONTINUOUS
62
5
10
120.150732
20
83.509826
11
120.158630
21
83.494408
0
LINE
5
638
100
AcDbEntity
8
0
100
AcDbLine
6
CONTINUOUS
62
5
10
120.158630
20
83.494408
11
120.166920
21
83.479123
0
LINE
5
639
100
AcDbEntity
8
0
100
AcDbLine
6
CONTINUOUS
62
5
10
120.166920
20
83.479123
11
120.175574
21
83.463961
0
LINE
5
63a
100
AcDbEntity
8
0
100
AcDbLine
6
CONTINUOUS
62
5
10
120.175574
20
83.463961
11
120.184565
21
83.448913
0
LINE
5
63b
100
AcDbEntity
8
0
100
AcDbLine
6
CONTINUOUS
62
5
10
120.184565
20
83.448913
11
120.193865
21
83.433969
0
LINE
5
63c
100
AcDbEntity
8
0
100
AcDbLine
6
CONTINUOUS
62
5
10
120.193865
20
83.433969
11
120.203444
21
83.419120
0
LINE
5
63d
100
AcDbEntity
8
0
100
AcDbLine
6
CONTINUOUS
62
5
10
120.203444
20
83.419120
11
120.213276
21
83.404356
0
LINE
5
63e
100
AcDbEntity
8
0
100
AcDbLine
6
CONTINUOUS
62
5
10
120.213276
20
83.404356
11
120.223332
21
83.389668
0
LINE
5
63f
100
AcDbEntity
8
0
100
AcDbLine
6
CONTINUOUS
62
5
10
120.223332
20
83.389668
11
120.233584
21
83.375046
0
LINE
5
640
100
AcDbEntity
8
0
100
AcDbLine
6
CONTINUOUS
62
5
10
120.233584
20
83.375046
11
120.244005
21
83.360481
0
LINE
5
641
100
AcDbEntity
8
0
100
AcDbLine
6
CONTINUOUS
62
5
10
120.244005
20
83.360481
11
120.254565
21
83.345963
0
LINE
5
642
100
AcDbEntity
8
0
100
AcDbLine
6
CONTINUOUS
62
5
10
120.254565
20
83.345963
11
120.265238
21
83.331484
0
LINE
5
643
100
AcDbEntity
8
0
100
AcDbLine
6
CONTINUOUS
62
5
10
120.265238
20
83.331484
11
120.275995
21
83.317032
0
LINE
5
644
100
AcDbEntity
8
0
100
AcDbLine
6
CONTINUOUS
62
5
10
120.275995
20
83.317032
11
120.286808
21
83.302600
0
LINE
5
645
100
AcDbEntity
8
0
100
AcDbLine
6
CONTINUOUS
62
5
10
120.286808
20
83.302600
11
120.297649
21
83.288177
0
LINE
5
646
100
AcDbEntity
8
0
100
AcDbLine
6
CONTINUOUS
62
5
10
120.087064
20
83.795781
11
120.088294
21
83.778110
0
LINE
5
647
100
AcDbEntity
8
0
100
AcDbLine
6
CONTINUOUS
62
5
10
120.088294
20
83.778110
11
120.089582
21
83.760459
0
LINE
5
648
100
AcDbEntity
8
0
100
AcDbLine
6
CONTINUOUS
62
5
10
120.089582
20
83.760459
11
120.090983
21
83.742846
0
LINE
5
649
100
AcDbEntity
8
0
100
AcDbLine
6
CONTINUOUS
62
5
10
120.090983
20
83.742846
11
120.092556
21
83.725291
0
LINE
5
64a
100
AcDbEntity
8
0
100
AcDbLine
6
CONTINUOUS
62
5
10
120.092556
20
83.725291
11
120.094358
21
83.707813
0
LINE
5
64b
100
AcDbEntity
8
0
100
AcDbLine
6
CONTINUOUS
62
5
10
120.094358
20
83.707813
11
120.096444
21
83.690432
0
LINE
5
64c
100
AcDbEntity
8
0
100
AcDbLine
6
CONTINUOUS
62
5
10
120.096444
20
83.690432
11
120.098873
21
83.673166
0
LINE
5
64d
100
AcDbEntity
8
0
100
AcDbLine
6
CONTINUOUS
62
5
10
120.098873
20
83.673166
11
120.101702
21
83.656035
0
LINE
5
64e
100
AcDbEntity
8
0
100
AcDbLine
6
CONTINUOUS
62
5
10
120.101702
20
83.656035
11
120.104987
21
83.639059
0
LINE
5
64f
100
AcDbEntity
8
0
100
AcDbLine
6
CONTINUOUS
62
5
10
120.104987
20
83.639059
11
120.108786
21
83.622256
0
LINE
5
650
100
AcDbEntity
8
0
100
AcDbLine
6
CONTINUOUS
62
5
10
120.108786
20
83.622256
11
120.113155
21
83.605646
0
LINE
5
651
100
AcDbEntity
8
0
100
AcDbLine
6
CONTINUOUS
62
5
10
120.113155
20
83.605646
11
120.118110
21
83.589234
0
LINE
5
652
100
AcDbEntity
8
0
100
AcDbLine
6
CONTINUOUS
62
5
10
120.118110
20
83.589234
11
120.123625
21
83.573011
0
LINE
5
653
100
AcDbEntity
8
0
100
AcDbLine
6
CONTINUOUS
62
5
10
120.123625
20
83.573011
11
120.129673
21
83.556969
0
LINE
5
654
100
AcDbEntity
8
0
100
AcDbLine
6
CONTINUOUS
62
5
10
120.129673
20
83.556969
11
120.136225
21
83.541096
0
ARC
5
655
100
AcDbEntity
8
0
100
AcDbCircle
6
CONTINUOUS
62
5
10
118.987064
20
83.200000
40
3.500000
100
AcDbArc
50
0.000000
51
17.457603
0
LINE
5
656
100
AcDbEntity
8
0
100
AcDbLine
6
CONTINUOUS
62
5
10
122.487064
20
82.900000
11
122.487064
21
83.200000
0
ARC
5
657
100
AcDbEntity
8
0
100
AcDbCircle
6
CONTINUOUS
62
5
10
118.987064
20
83.400000
40
2.000000
100
AcDbArc
50
-38.682187
51
25.150663
0
POLYLINE
5
658
100
AcDbEntity
8
0
6
CONTINUOUS
62
5
100
AcDb2dPolyline
66
1
10
0.0
20
0.0
30
0.0
70
0
0
VERTEX
5
659
100
AcDbEntity
8
0
100
AcDbVertex
100
AcDb2dVertex
62
5
10
118.287064
20
82.862377
0
VERTEX
5
65a
100
AcDbEntity
8
0
100
AcDbVertex
100
AcDb2dVertex
62
5
10
118.464598
20
82.862377
0
VERTEX
5
65b
100
AcDbEntity
8
0
100
AcDbVertex
100
AcDb2dVertex
62
5
10
118.464598
20
84.250000
0
SEQEND
5
65c
100
AcDbEntity
8
0
0
LINE
5
65d
100
AcDbEntity
8
0
100
AcDbLine
6
CONTINUOUS
62
5
10
118.043411
20
82.900000
11
118.043411
21
84.250000
0
LINE
5
65e
100
AcDbEntity
8
0
100
AcDbLine
6
CONTINUOUS
62
5
10
122.168258
20
84.250000
11
122.115562
21
84.250000
0
ARC
5
65f
100
AcDbEntity
8
0
100
AcDbCircle
6
CONTINUOUS
62
5
10
118.987064
20
83.450000
40
2.100000
100
AcDbArc
50
179.999998
51
-141.753379
0
POLYLINE
5
660
100
AcDbEntity
8
0
6
CONTINUOUS
62
5
100
AcDb2dPolyline
66
1
10
0.0
20
0.0
30
0.0
70
0
0
VERTEX
5
661
100
AcDbEntity
8
0
100
AcDbVertex
100
AcDb2dVertex
62
5
10
117.045415
20
84.250000
0
VERTEX
5
662
100
AcDbEntity
8
0
100
AcDbVertex
100
AcDb2dVertex
62
5
10
116.980361
20
84.068986
0
VERTEX
5
663
100
AcDbEntity
8
0
100
AcDbVertex
100
AcDb2dVertex
62
5
10
116.887064
20
83.450000
0
SEQEND
5
664
100
AcDbEntity
8
0
0
ARC
5
665
100
AcDbEntity
8
0
100
AcDbCircle
6
CONTINUOUS
62
5
10
118.987064
20
83.400000
40
2.000000
100
AcDbArc
50
-179.999998
51
-141.317811
0
POLYLINE
5
666
100
AcDbEntity
8
0
6
CONTINUOUS
62
5
100
AcDb2dPolyline
66
1
10
0.0
20
0.0
30
0.0
70
0
0
VERTEX
5
667
100
AcDbEntity
8
0
100
AcDbVertex
100
AcDb2dVertex
62
5
10
117.176677
20
84.250000
0
VERTEX
5
668
100
AcDbEntity
8
0
100
AcDbVertex
100
AcDb2dVertex
62
5
10
117.075918
20
83.989510
0
VERTEX
5
669
100
AcDbEntity
8
0
100
AcDbVertex
100
AcDb2dVertex
62
5
10
116.987064
20
83.400000
0
SEQEND
5
66a
100
AcDbEntity
8
0
0
POLYLINE
5
66b
100
AcDbEntity
8
0
6
CONTINUOUS
62
5
100
AcDb2dPolyline
66
1
10
0.0
20
0.0
30
0.0
70
0
0
VERTEX
5
66c
100
AcDbEntity
8
0
100
AcDbVertex
100
AcDb2dVertex
62
5
10
122.168258
20
82.150000
0
VERTEX
5
66d
100
AcDbEntity
8
0
100
AcDbVertex
100
AcDb2dVertex
62
5
10
123.187064
20
82.150000
0
VERTEX
5
66e
100
AcDbEntity
8
0
100
AcDbVertex
100
AcDb2dVertex
62
5
10
123.187064
20
84.250000
0
VERTEX
5
66f
100
AcDbEntity
8
0
100
AcDbVertex
100
AcDb2dVertex
62
5
10
120.087064
20
84.250000
0
VERTEX
5
670
100
AcDbEntity
8
0
100
AcDbVertex
100
AcDb2dVertex
62
5
10
120.087064
20
83.500000
0
VERTEX
5
671
100
AcDbEntity
8
0
100
AcDbVertex
100
AcDb2dVertex
62
5
10
119.287064
20
83.500000
0
VERTEX
5
672
100
AcDbEntity
8
0
100
AcDbVertex
100
AcDb2dVertex
62
5
10
119.287064
20
84.250000
0
VERTEX
5
673
100
AcDbEntity
8
0
100
AcDbVertex
100
AcDb2dVertex
62
5
10
116.687064
20
84.250000
0
VERTEX
5
674
100
AcDbEntity
8
0
100
AcDbVertex
100
AcDb2dVertex
62
5
10
116.687064
20
82.150000
0
VERTEX
5
675
100
AcDbEntity
8
0
100
AcDbVertex
100
AcDb2dVertex
62
5
10
117.487064
20
82.150000
0
VERTEX
5
676
100
AcDbEntity
8
0
100
AcDbVertex
100
AcDb2dVertex
62
5
10
117.487064
20
82.900000
0
VERTEX
5
677
100
AcDbEntity
8
0
100
AcDbVertex
100
AcDb2dVertex
62
5
10
118.287064
20
82.900000
0
VERTEX
5
678
100
AcDbEntity
8
0
100
AcDbVertex
100
AcDb2dVertex
62
5
10
118.287064
20
82.150000
0
VERTEX
5
679
100
AcDbEntity
8
0
100
AcDbVertex
100
AcDb2dVertex
62
5
10
121.387064
20
82.150000
0
VERTEX
5
67a
100
AcDbEntity
8
0
100
AcDbVertex
100
AcDb2dVertex
62
5
10
121.387064
20
82.900000
0
VERTEX
5
67b
100
AcDbEntity
8
0
100
AcDbVertex
100
AcDb2dVertex
62
5
10
123.187064
20
82.900000
0
SEQEND
5
67c
100
AcDbEntity
8
0
0
CIRCLE
5
67d
100
AcDbEntity
8
0
100
AcDbCircle
6
CONTINUOUS
62
5
10
119.487064
20
83.400000
40
5.750000
0
CIRCLE
5
67e
100
AcDbEntity
8
0
100
AcDbCircle
6
CONTINUOUS
62
5
10
119.487064
20
83.400000
40
4.750000
0
ARC
5
67f
100
AcDbEntity
8
0
100
AcDbCircle
6
CONTINUOUS
62
5
10
118.987064
20
83.200000
40
3.300000
100
AcDbArc
50
18.553004
51
-5.215909
0
ARC
5
680
100
AcDbEntity
8
0
100
AcDbCircle
6
CONTINUOUS
62
5
10
118.987064
20
83.200000
40
3.350000
100
AcDbArc
50
18.266231
51
-18.266231
0
POLYLINE
5
681
100
AcDbEntity
8
0
6
DOT2
62
5
100
AcDb2dPolyline
66
1
10
0.0
20
0.0
30
0.0
70
0
0
VERTEX
5
682
100
AcDbEntity
8
0
100
AcDbVertex
100
AcDb2dVertex
62
5
10
49.862064
20
139.375000
0
VERTEX
5
683
100
AcDbEntity
8
0
100
AcDbVertex
100
AcDb2dVertex
62
5
10
49.237064
20
140.312500
0
VERTEX
5
684
100
AcDbEntity
8
0
100
AcDbVertex
100
AcDb2dVertex
62
5
10
56.737064
20
140.312500
0
SEQEND
5
685
100
AcDbEntity
8
0
0
LINE
5
686
100
AcDbEntity
8
0
100
AcDbLine
6
DOT2
62
5
10
56.737064
20
139.687500
11
56.737064
21
140.937500
0
LINE
5
687
100
AcDbEntity
8
0
100
AcDbLine
6
DOT2
62
5
10
49.237064
20
143.750000
11
49.237064
21
146.562500
0
POLYLINE
5
688
100
AcDbEntity
8
0
6
DOT2
62
5
100
AcDb2dPolyline
66
1
10
0.0
20
0.0
30
0.0
70
0
0
VERTEX
5
689
100
AcDbEntity
8
0
100
AcDbVertex
100
AcDb2dVertex
62
5
10
49.237064
20
143.750000
0
VERTEX
5
68a
100
AcDbEntity
8
0
100
AcDbVertex
100
AcDb2dVertex
62
5
10
52.987064
20
143.750000
0
VERTEX
5
68b
100
AcDbEntity
8
0
100
AcDbVertex
100
AcDb2dVertex
62
5
10
52.362064
20
144.375000
0
VERTEX
5
68c
100
AcDbEntity
8
0
100
AcDbVertex
100
AcDb2dVertex
62
5
10
52.049564
20
145.000000
0
VERTEX
5
68d
100
AcDbEntity
8
0
100
AcDbVertex
100
AcDb2dVertex
62
5
10
52.049564
20
145.937500
0
VERTEX
5
68e
100
AcDbEntity
8
0
100
AcDbVertex
100
AcDb2dVertex
62
5
10
52.362064
20
146.562500
0
VERTEX
5
68f
100
AcDbEntity
8
0
100
AcDbVertex
100
AcDb2dVertex
62
5
10
53.299564
20
146.875000
0
VERTEX
5
690
100
AcDbEntity
8
0
100
AcDbVertex
100
AcDb2dVertex
62
5
10
55.174564
20
146.875000
0
VERTEX
5
691
100
AcDbEntity
8
0
100
AcDbVertex
100
AcDb2dVertex
62
5
10
56.112064
20
146.250000
0
VERTEX
5
692
100
AcDbEntity
8
0
100
AcDbVertex
100
AcDb2dVertex
62
5
10
56.737064
20
145.312500
0
VERTEX
5
693
100
AcDbEntity
8
0
100
AcDbVertex
100
AcDb2dVertex
62
5
10
56.737064
20
143.750000
0
SEQEND
5
694
100
AcDbEntity
8
0
0
POLYLINE
5
695
100
AcDbEntity
8
0
6
DOT2
62
5
100
AcDb2dPolyline
66
1
10
0.0
20
0.0
30
0.0
70
0
0
VERTEX
5
696
100
AcDbEntity
8
0
100
AcDbVertex
100
AcDb2dVertex
62
5
10
50.174564
20
148.750000
0
VERTEX
5
697
100
AcDbEntity
8
0
100
AcDbVertex
100
AcDb2dVertex
62
5
10
49.237064
20
148.750000
0
VERTEX
5
698
100
AcDbEntity
8
0
100
AcDbVertex
100
AcDb2dVertex
62
5
10
49.237064
20
151.875000
0
VERTEX
5
699
100
AcDbEntity
8
0
100
AcDbVertex
100
AcDb2dVertex
62
5
10
49.862064
20
151.875000
0
VERTEX
5
69a
100
AcDbEntity
8
0
100
AcDbVertex
100
AcDb2dVertex
62
5
10
51.424564
20
151.250000
0
VERTEX
5
69b
100
AcDbEntity
8
0
100
AcDbVertex
100
AcDb2dVertex
62
5
10
53.612064
20
150.625000
0
VERTEX
5
69c
100
AcDbEntity
8
0
100
AcDbVertex
100
AcDb2dVertex
62
5
10
56.737064
20
150.000000
0
SEQEND
5
69d
100
AcDbEntity
8
0
0
LINE
5
69e
100
AcDbEntity
8
0
100
AcDbLine
6
CONTINUOUS
62
5
10
30.487064
20
54.001865
11
30.487064
21
54.101865
0
ARC
5
69f
100
AcDbEntity
8
0
100
AcDbCircle
6
CONTINUOUS
62
5
10
26.887064
20
49.021403
40
1.800000
100
AcDbArc
50
89.999999
51
117.486425
0
LINE
5
6a0
100
AcDbEntity
8
0
100
AcDbLine
6
CONTINUOUS
62
5
10
26.887064
20
50.821403
11
26.887064
21
50.921403
0
LINE
5
6a1
100
AcDbEntity
8
0
100
AcDbLine
6
CONTINUOUS
62
5
10
26.056294
20
50.618219
11
26.010141
21
50.706931
0
ARC
5
6a2
100
AcDbEntity
8
0
100
AcDbCircle
6
CONTINUOUS
62
5
10
26.887064
20
49.021403
40
1.900000
100
AcDbArc
50
89.999999
51
117.486425
0
LINE
5
6a3
100
AcDbEntity
8
0
100
AcDbLine
6
CONTINUOUS
62
5
10
27.763987
20
47.335874
11
27.717833
21
47.424586
0
ARC
5
6a4
100
AcDbEntity
8
0
100
AcDbCircle
6
CONTINUOUS
62
5
10
23.419532
20
45.401865
40
3.000000
100
AcDbArc
50
-144.557545
51
-89.999999
0
ARC
5
6a5
100
AcDbEntity
8
0
100
AcDbCircle
6
CONTINUOUS
62
5
10
20.568088
20
43.372268
40
0.300000
100
AcDbArc
50
35.442453
51
172.701405
0
ARC
5
6a6
100
AcDbEntity
8
0
100
AcDbCircle
6
CONTINUOUS
62
5
10
20.568088
20
43.372268
40
0.500000
100
AcDbArc
50
35.442453
51
172.701405
0
LINE
5
6a7
100
AcDbEntity
8
0
100
AcDbLine
6
CONTINUOUS
62
5
10
21.788563
20
46.163404
11
21.697954
21
46.205711
0
LINE
5
6a8
100
AcDbEntity
8
0
100
AcDbLine
6
CONTINUOUS
62
5
10
25.141110
20
44.598019
11
25.050501
21
44.640327
0
ARC
5
6a9
100
AcDbEntity
8
0
100
AcDbCircle
6
CONTINUOUS
62
5
10
23.419532
20
45.401865
40
3.000000
100
AcDbArc
50
-89.999999
51
-25.028999
0
ARC
5
6aa
100
AcDbEntity
8
0
100
AcDbCircle
6
CONTINUOUS
62
5
10
23.419532
20
45.401865
40
1.800000
100
AcDbArc
50
154.970999
51
-25.028999
0
ARC
5
6ab
100
AcDbEntity
8
0
100
AcDbCircle
6
CONTINUOUS
62
5
10
23.419532
20
45.401865
40
1.900000
100
AcDbArc
50
154.970999
51
-25.028999
0
ARC
5
6ac
100
AcDbEntity
8
0
100
AcDbCircle
6
CONTINUOUS
62
5
10
30.487064
20
42.101865
40
5.900000
100
AcDbArc
50
117.486425
51
154.970999
0
ARC
5
6ad
100
AcDbEntity
8
0
100
AcDbCircle
6
CONTINUOUS
62
5
10
30.487064
20
42.101865
40
6.000000
100
AcDbArc
50
117.486425
51
154.970999
0
ARC
5
6ae
100
AcDbEntity
8
0
100
AcDbCircle
6
CONTINUOUS
62
5
10
30.487064
20
42.101865
40
9.600000
100
AcDbArc
50
117.486425
51
154.970999
0
ARC
5
6af
100
AcDbEntity
8
0
100
AcDbCircle
6
CONTINUOUS
62
5
10
30.487064
20
42.101865
40
9.700000
100
AcDbArc
50
117.486425
51
154.970999
0
ARC
5
6b0
100
AcDbEntity
8
0
100
AcDbCircle
6
CONTINUOUS
62
5
10
28.792533
20
51.957248
40
0.300000
100
AcDbArc
50
99.756019
51
-122.985026
0
ARC
5
6b1
100
AcDbEntity
8
0
100
AcDbCircle
6
CONTINUOUS
62
5
10
28.792533
20
51.957248
40
0.500000
100
AcDbArc
50
99.756019
51
-122.985026
0
ARC
5
6b2
100
AcDbEntity
8
0
100
AcDbCircle
6
CONTINUOUS
62
5
10
30.487064
20
42.101865
40
4.600000
100
AcDbArc
50
117.486425
51
154.970999
0
ARC
5
6b3
100
AcDbEntity
8
0
100
AcDbCircle
6
CONTINUOUS
62
5
10
30.487064
20
42.101865
40
4.800000
100
AcDbArc
50
117.486425
51
154.970999
0
ARC
5
6b4
100
AcDbEntity
8
0
100
AcDbCircle
6
CONTINUOUS
62
5
10
26.887064
20
49.021403
40
1.800000
100
AcDbArc
50
-62.513573
51
89.999999
0
ARC
5
6b5
100
AcDbEntity
8
0
100
AcDbCircle
6
CONTINUOUS
62
5
10
26.887064
20
49.021403
40
1.900000
100
AcDbArc
50
-62.513573
51
89.999999
0
ARC
5
6b6
100
AcDbEntity
8
0
100
AcDbCircle
6
CONTINUOUS
62
5
10
23.419532
20
45.401865
40
3.200000
100
AcDbArc
50
-144.557545
51
-89.999999
0
ARC
5
6b7
100
AcDbEntity
8
0
100
AcDbCircle
6
CONTINUOUS
62
5
10
23.419532
20
45.401865
40
3.200000
100
AcDbArc
50
-89.999999
51
-25.028999
0
ARC
5
6b8
100
AcDbEntity
8
0
100
AcDbCircle
6
CONTINUOUS
62
5
10
30.487064
20
42.101865
40
10.300000
100
AcDbArc
50
172.701405
51
-115.456400
0
ARC
5
6b9
100
AcDbEntity
8
0
100
AcDbCircle
6
CONTINUOUS
62
5
10
30.487064
20
42.101865
40
10.500000
100
AcDbArc
50
172.701405
51
-115.208764
0
ARC
5
6ba
100
AcDbEntity
8
0
100
AcDbCircle
6
CONTINUOUS
62
5
10
26.887064
20
49.021403
40
3.200000
100
AcDbArc
50
-62.513573
51
57.014973
0
ARC
5
6bb
100
AcDbEntity
8
0
100
AcDbCircle
6
CONTINUOUS
62
5
10
26.887064
20
49.021403
40
3.000000
100
AcDbArc
50
-62.513573
51
57.014973
0
LINE
5
6bc
100
AcDbEntity
8
0
100
AcDbLine
6
CONTINUOUS
62
5
10
34.914252
20
32.801865
11
26.059875
21
32.801865
0
LINE
5
6bd
100
AcDbEntity
8
0
100
AcDbLine
6
CONTINUOUS
62
5
10
34.959200
20
32.601865
11
26.014928
21
32.601865
0
ARC
5
6be
100
AcDbEntity
8
0
100
AcDbCircle
6
CONTINUOUS
62
5
10
30.487064
20
42.101865
40
10.500000
100
AcDbArc
50
-64.791234
51
99.756019
0
ARC
5
6bf
100
AcDbEntity
8
0
100
AcDbCircle
6
CONTINUOUS
62
5
10
30.487064
20
42.101865
40
10.300000
100
AcDbArc
50
-64.543599
51
99.756019
0
ARC
5
6c0
100
AcDbEntity
8
0
100
AcDbCircle
6
CONTINUOUS
62
5
10
35.487064
20
30.101865
40
1.000000
100
AcDbArc
50
112.619864
51
179.999998
0
ARC
5
6c1
100
AcDbEntity
8
0
100
AcDbCircle
6
CONTINUOUS
62
5
10
35.487064
20
30.101865
40
1.100000
100
AcDbArc
50
112.619864
51
179.999998
0
LINE
5
6c2
100
AcDbEntity
8
0
100
AcDbLine
6
CONTINUOUS
62
5
10
34.487064
20
30.101865
11
34.387064
21
30.101865
0
LINE
5
6c3
100
AcDbEntity
8
0
100
AcDbLine
6
CONTINUOUS
62
5
10
35.102448
20
31.024942
11
35.063987
21
31.117250
0
LINE
5
6c4
100
AcDbEntity
8
0
100
AcDbLine
6
CONTINUOUS
62
5
10
33.287064
20
26.101865
11
33.287064
21
22.146204
0
ARC
5
6c5
100
AcDbEntity
8
0
100
AcDbCircle
6
CONTINUOUS
62
5
10
33.087064
20
22.146204
40
0.200000
100
AcDbArc
50
-25.000000
51
0.000000
0
LINE
5
6c6
100
AcDbEntity
8
0
100
AcDbLine
6
CONTINUOUS
62
5
10
33.177694
20
22.103942
11
33.268325
21
22.061680
0
LINE
5
6c7
100
AcDbEntity
8
0
100
AcDbLine
6
CONTINUOUS
62
5
10
33.187064
20
22.146204
11
33.287064
21
22.146204
0
ARC
5
6c8
100
AcDbEntity
8
0
100
AcDbCircle
6
CONTINUOUS
62
5
10
33.087064
20
22.146204
40
0.100000
100
AcDbArc
50
-25.000000
51
0.000000
0
LINE
5
6c9
100
AcDbEntity
8
0
100
AcDbLine
6
CONTINUOUS
62
5
10
33.987064
20
26.101865
11
33.287064
21
26.101865
0
LINE
5
6ca
100
AcDbEntity
8
0
100
AcDbLine
6
CONTINUOUS
62
5
10
34.487064
20
26.601865
11
34.387064
21
26.601865
0
LINE
5
6cb
100
AcDbEntity
8
0
100
AcDbLine
6
CONTINUOUS
62
5
10
34.487064
20
30.101865
11
34.487064
21
26.601865
0
LINE
5
6cc
100
AcDbEntity
8
0
100
AcDbLine
6
CONTINUOUS
62
5
10
34.387064
20
26.601865
11
34.387064
21
30.101865
0
LINE
5
6cd
100
AcDbEntity
8
0
100
AcDbLine
6
CONTINUOUS
62
5
10
33.187064
20
22.146204
11
33.187064
21
26.201865
0
POLYLINE
5
6ce
100
AcDbEntity
8
0
6
CONTINUOUS
62
5
100
AcDb2dPolyline
66
1
10
0.0
20
0.0
30
0.0
70
0
0
VERTEX
5
6cf
100
AcDbEntity
8
0
100
AcDbVertex
100
AcDb2dVertex
62
5
10
33.187064
20
26.201865
0
VERTEX
5
6d0
100
AcDbEntity
8
0
100
AcDbVertex
100
AcDb2dVertex
62
5
10
33.190628
20
26.198301
0
VERTEX
5
6d1
100
AcDbEntity
8
0
100
AcDbVertex
100
AcDb2dVertex
62
5
10
33.194244
20
26.194685
0
VERTEX
5
6d2
100
AcDbEntity
8
0
100
AcDbVertex
100
AcDb2dVertex
62
5
10
33.197902
20
26.191026
0
VERTEX
5
6d3
100
AcDbEntity
8
0
100
AcDbVertex
100
AcDb2dVertex
62
5
10
33.201594
20
26.187335
0
VERTEX
5
6d4
100
AcDbEntity
8
0
100
AcDbVertex
100
AcDb2dVertex
62
5
10
33.205310
20
26.183619
0
VERTEX
5
6d5
100
AcDbEntity
8
0
100
AcDbVertex
100
AcDb2dVertex
62
5
10
33.209041
20
26.179888
0
VERTEX
5
6d6
100
AcDbEntity
8
0
100
AcDbVertex
100
AcDb2dVertex
62
5
10
33.212778
20
26.176150
0
VERTEX
5
6d7
100
AcDbEntity
8
0
100
AcDbVertex
100
AcDb2dVertex
62
5
10
33.216513
20
26.172416
0
VERTEX
5
6d8
100
AcDbEntity
8
0
100
AcDbVertex
100
AcDb2dVertex
62
5
10
33.220235
20
26.168694
0
VERTEX
5
6d9
100
AcDbEntity
8
0
100
AcDbVertex
100
AcDb2dVertex
62
5
10
33.223935
20
26.164993
0
VERTEX
5
6da
100
AcDbEntity
8
0
100
AcDbVertex
100
AcDb2dVertex
62
5
10
33.227606
20
26.161323
0
VERTEX
5
6db
100
AcDbEntity
8
0
100
AcDbVertex
100
AcDb2dVertex
62
5
10
33.231237
20
26.157692
0
VERTEX
5
6dc
100
AcDbEntity
8
0
100
AcDbVertex
100
AcDb2dVertex
62
5
10
33.234820
20
26.154109
0
VERTEX
5
6dd
100
AcDbEntity
8
0
100
AcDbVertex
100
AcDb2dVertex
62
5
10
33.238345
20
26.150584
0
VERTEX
5
6de
100
AcDbEntity
8
0
100
AcDbVertex
100
AcDb2dVertex
62
5
10
33.241803
20
26.147126
0
VERTEX
5
6df
100
AcDbEntity
8
0
100
AcDbVertex
100
AcDb2dVertex
62
5
10
33.245185
20
26.143744
0
VERTEX
5
6e0
100
AcDbEntity
8
0
100
AcDbVertex
100
AcDb2dVertex
62
5
10
33.248483
20
26.140446
0
VERTEX
5
6e1
100
AcDbEntity
8
0
100
AcDbVertex
100
AcDb2dVertex
62
5
10
33.251686
20
26.137243
0
VERTEX
5
6e2
100
AcDbEntity
8
0
100
AcDbVertex
100
AcDb2dVertex
62
5
10
33.254786
20
26.134143
0
VERTEX
5
6e3
100
AcDbEntity
8
0
100
AcDbVertex
100
AcDb2dVertex
62
5
10
33.257774
20
26.131154
0
VERTEX
5
6e4
100
AcDbEntity
8
0
100
AcDbVertex
100
AcDb2dVertex
62
5
10
33.260630
20
26.128299
0
VERTEX
5
6e5
100
AcDbEntity
8
0
100
AcDbVertex
100
AcDb2dVertex
62
5
10
33.263339
20
26.125589
0
VERTEX
5
6e6
100
AcDbEntity
8
0
100
AcDbVertex
100
AcDb2dVertex
62
5
10
33.265902
20
26.123027
0
VERTEX
5
6e7
100
AcDbEntity
8
0
100
AcDbVertex
100
AcDb2dVertex
62
5
10
33.268318
20
26.120610
0
VERTEX
5
6e8
100
AcDbEntity
8
0
100
AcDbVertex
100
AcDb2dVertex
62
5
10
33.270588
20
26.118340
0
VERTEX
5
6e9
100
AcDbEntity
8
0
100
AcDbVertex
100
AcDb2dVertex
62
5
10
33.272712
20
26.116217
0
VERTEX
5
6ea
100
AcDbEntity
8
0
100
AcDbVertex
100
AcDb2dVertex
62
5
10
33.274689
20
26.114240
0
VERTEX
5
6eb
100
AcDbEntity
8
0
100
AcDbVertex
100
AcDb2dVertex
62
5
10
33.276519
20
26.112409
0
VERTEX
5
6ec
100
AcDbEntity
8
0
100
AcDbVertex
100
AcDb2dVertex
62
5
10
33.278204
20
26.110725
0
VERTEX
5
6ed
100
AcDbEntity
8
0
100
AcDbVertex
100
AcDb2dVertex
62
5
10
33.279741
20
26.109187
0
VERTEX
5
6ee
100
AcDbEntity
8
0
100
AcDbVertex
100
AcDb2dVertex
62
5
10
33.281133
20
26.107796
0
VERTEX
5
6ef
100
AcDbEntity
8
0
100
AcDbVertex
100
AcDb2dVertex
62
5
10
33.282377
20
26.106551
0
VERTEX
5
6f0
100
AcDbEntity
8
0
100
AcDbVertex
100
AcDb2dVertex
62
5
10
33.283476
20
26.105453
0
VERTEX
5
6f1
100
AcDbEntity
8
0
100
AcDbVertex
100
AcDb2dVertex
62
5
10
33.284428
20
26.104501
0
VERTEX
5
6f2
100
AcDbEntity
8
0
100
AcDbVertex
100
AcDb2dVertex
62
5
10
33.285233
20
26.103696
0
VERTEX
5
6f3
100
AcDbEntity
8
0
100
AcDbVertex
100
AcDb2dVertex
62
5
10
33.285892
20
26.103037
0
VERTEX
5
6f4
100
AcDbEntity
8
0
100
AcDbVertex
100
AcDb2dVertex
62
5
10
33.286405
20
26.102524
0
VERTEX
5
6f5
100
AcDbEntity
8
0
100
AcDbVertex
100
AcDb2dVertex
62
5
10
33.286771
20
26.102158
0
VERTEX
5
6f6
100
AcDbEntity
8
0
100
AcDbVertex
100
AcDb2dVertex
62
5
10
33.286990
20
26.101938
0
VERTEX
5
6f7
100
AcDbEntity
8
0
100
AcDbVertex
100
AcDb2dVertex
62
5
10
33.287064
20
26.101865
0
SEQEND
5
6f8
100
AcDbEntity
8
0
0
LINE
5
6f9
100
AcDbEntity
8
0
100
AcDbLine
6
CONTINUOUS
62
5
10
33.187064
20
26.201865
11
33.987064
21
26.201865
0
ARC
5
6fa
100
AcDbEntity
8
0
100
AcDbCircle
6
CONTINUOUS
62
5
10
33.987064
20
26.601865
40
0.500000
100
AcDbArc
50
-89.999999
51
0.000000
0
LINE
5
6fb
100
AcDbEntity
8
0
100
AcDbLine
6
CONTINUOUS
62
5
10
33.987064
20
26.101865
11
33.987064
21
26.201865
0
ARC
5
6fc
100
AcDbEntity
8
0
100
AcDbCircle
6
CONTINUOUS
62
5
10
33.987064
20
26.601865
40
0.400000
100
AcDbArc
50
-89.999999
51
0.000000
0
LINE
5
6fd
100
AcDbEntity
8
0
100
AcDbLine
6
CONTINUOUS
62
5
10
30.187064
20
29.347134
11
30.187064
21
29.546373
0
LINE
5
6fe
100
AcDbEntity
8
0
100
AcDbLine
6
CONTINUOUS
62
5
10
30.795431
20
28.601865
11
30.895050
21
28.601865
0
LINE
5
6ff
100
AcDbEntity
8
0
100
AcDbLine
6
CONTINUOUS
62
5
10
30.895050
20
28.601865
11
30.932333
21
28.601865
0
LINE
5
700
100
AcDbEntity
8
0
100
AcDbLine
6
CONTINUOUS
62
5
10
30.932333
20
28.601865
11
31.131572
21
28.601865
0
ARC
5
701
100
AcDbEntity
8
0
100
AcDbCircle
6
CONTINUOUS
62
5
10
30.187064
20
28.601865
40
0.745269
100
AcDbArc
50
0.000000
51
89.999999
0
ARC
5
702
100
AcDbEntity
8
0
100
AcDbCircle
6
CONTINUOUS
62
5
10
30.187064
20
28.601865
40
0.944508
100
AcDbArc
50
0.000000
51
89.999999
0
LINE
5
703
100
AcDbEntity
8
0
100
AcDbLine
6
CONTINUOUS
62
5
10
30.795431
20
19.701865
11
30.113939
21
19.701865
0
ARC
5
704
100
AcDbEntity
8
0
100
AcDbCircle
6
CONTINUOUS
62
5
10
30.113939
20
19.901865
40
0.200000
100
AcDbArc
50
-154.999999
51
-89.999999
0
LINE
5
705
100
AcDbEntity
8
0
100
AcDbLine
6
CONTINUOUS
62
5
10
30.113939
20
19.801865
11
30.113939
21
19.701865
0
LINE
5
706
100
AcDbEntity
8
0
100
AcDbLine
6
CONTINUOUS
62
5
10
30.023308
20
19.859603
11
29.932678
21
19.817341
0
ARC
5
707
100
AcDbEntity
8
0
100
AcDbCircle
6
CONTINUOUS
62
5
10
30.113939
20
19.901865
40
0.100000
100
AcDbArc
50
-154.999999
51
-89.999999
0
LINE
5
708
100
AcDbEntity
8
0
100
AcDbLine
6
CONTINUOUS
62
5
10
30.113939
20
19.801865
11
30.795431
21
19.801865
0
LINE
5
709
100
AcDbEntity
8
0
100
AcDbLine
6
CONTINUOUS
62
5
10
30.994669
20
19.701865
11
30.795431
21
19.701865
0
LINE
5
70a
100
AcDbEntity
8
0
100
AcDbLine
6
CONTINUOUS
62
5
10
30.795431
20
19.801865
11
30.795431
21
19.701865
0
LINE
5
70b
100
AcDbEntity
8
0
100
AcDbLine
6
CONTINUOUS
62
5
10
30.795431
20
19.801865
11
30.895050
21
19.801865
0
LINE
5
70c
100
AcDbEntity
8
0
100
AcDbLine
6
CONTINUOUS
62
5
10
31.031952
20
19.701865
11
30.994669
21
19.701865
0
ARC
5
70d
100
AcDbEntity
8
0
100
AcDbCircle
6
CONTINUOUS
62
5
10
30.994860
20
19.801675
40
0.099810
100
AcDbArc
50
179.890985
51
-90.109429
0
LINE
5
70e
100
AcDbEntity
8
0
100
AcDbLine
6
CONTINUOUS
62
5
10
30.895050
20
19.801865
11
30.932333
21
19.801865
0
ARC
5
70f
100
AcDbEntity
8
0
100
AcDbCircle
6
CONTINUOUS
62
5
10
31.032143
20
19.801675
40
0.099810
100
AcDbArc
50
179.890985
51
-90.109429
0
LINE
5
710
100
AcDbEntity
8
0
100
AcDbLine
6
CONTINUOUS
62
5
10
31.131572
20
19.701865
11
31.031952
21
19.701865
0
LINE
5
711
100
AcDbEntity
8
0
100
AcDbLine
6
CONTINUOUS
62
5
10
31.131572
20
19.801865
11
31.131572
21
19.701865
0
LINE
5
712
100
AcDbEntity
8
0
100
AcDbLine
6
CONTINUOUS
62
5
10
30.932333
20
19.801865
11
31.131572
21
19.801865
0
LINE
5
713
100
AcDbEntity
8
0
100
AcDbLine
6
CONTINUOUS
62
5
10
32.040511
20
19.701865
11
31.131572
21
19.701865
0
LINE
5
714
100
AcDbEntity
8
0
100
AcDbLine
6
CONTINUOUS
62
5
10
32.040511
20
19.801865
11
32.040511
21
19.701865
0
ARC
5
715
100
AcDbEntity
8
0
100
AcDbCircle
6
CONTINUOUS
62
5
10
32.040511
20
19.901865
40
0.200000
100
AcDbArc
50
-89.999999
51
-25.000000
0
LINE
5
716
100
AcDbEntity
8
0
100
AcDbLine
6
CONTINUOUS
62
5
10
32.131142
20
19.859603
11
32.221773
21
19.817341
0
LINE
5
717
100
AcDbEntity
8
0
100
AcDbLine
6
CONTINUOUS
62
5
10
31.131572
20
19.801865
11
32.040511
21
19.801865
0
ARC
5
718
100
AcDbEntity
8
0
100
AcDbCircle
6
CONTINUOUS
62
5
10
32.040511
20
19.901865
40
0.100000
100
AcDbArc
50
-89.999999
51
-25.000000
0
LINE
5
719
100
AcDbEntity
8
0
100
AcDbLine
6
CONTINUOUS
62
5
10
30.795431
20
19.801865
11
30.795431
21
28.601865
0
LINE
5
71a
100
AcDbEntity
8
0
100
AcDbLine
6
CONTINUOUS
62
5
10
30.895050
20
28.601865
11
30.895050
21
19.801865
0
LINE
5
71b
100
AcDbEntity
8
0
100
AcDbLine
6
CONTINUOUS
62
5
10
30.932333
20
19.801865
11
30.932333
21
28.601865
0
LINE
5
71c
100
AcDbEntity
8
0
100
AcDbLine
6
CONTINUOUS
62
5
10
31.131572
20
28.601865
11
31.131572
21
19.801865
0
LINE
5
71d
100
AcDbEntity
8
0
100
AcDbLine
6
CONTINUOUS
62
5
10
33.268325
20
22.061680
11
32.221773
21
19.817341
0
LINE
5
71e
100
AcDbEntity
8
0
100
AcDbLine
6
CONTINUOUS
62
5
10
32.131142
20
19.859603
11
33.177694
21
22.103942
0
ARC
5
71f
100
AcDbEntity
8
0
100
AcDbCircle
6
CONTINUOUS
62
5
10
26.087064
20
29.869122
40
1.000000
100
AcDbArc
50
0.000000
51
70.216829
0
ARC
5
720
100
AcDbEntity
8
0
100
AcDbCircle
6
CONTINUOUS
62
5
10
26.087064
20
29.869122
40
1.100000
100
AcDbArc
50
0.000000
51
70.216829
0
LINE
5
721
100
AcDbEntity
8
0
100
AcDbLine
6
CONTINUOUS
62
5
10
26.425525
20
30.810102
11
26.459371
21
30.904200
0
LINE
5
722
100
AcDbEntity
8
0
100
AcDbLine
6
CONTINUOUS
62
5
10
27.087064
20
29.869122
11
27.187064
21
29.869122
0
LINE
5
723
100
AcDbEntity
8
0
100
AcDbLine
6
CONTINUOUS
62
5
10
27.887064
20
21.401865
11
27.887064
21
23.101865
0
LINE
5
724
100
AcDbEntity
8
0
100
AcDbLine
6
CONTINUOUS
62
5
10
27.987064
20
23.201865
11
27.987064
21
21.401865
0
LINE
5
725
100
AcDbEntity
8
0
100
AcDbLine
6
CONTINUOUS
62
5
10
27.887064
20
21.401865
11
27.987064
21
21.401865
0
POLYLINE
5
726
100
AcDbEntity
8
0
6
CONTINUOUS
62
5
100
AcDb2dPolyline
66
1
10
0.0
20
0.0
30
0.0
70
0
0
VERTEX
5
727
100
AcDbEntity
8
0
100
AcDbVertex
100
AcDb2dVertex
62
5
10
27.887064
20
23.101865
0
VERTEX
5
728
100
AcDbEntity
8
0
100
AcDbVertex
100
AcDb2dVertex
62
5
10
27.887137
20
23.101938
0
VERTEX
5
729
100
AcDbEntity
8
0
100
AcDbVertex
100
AcDb2dVertex
62
5
10
27.887357
20
23.102158
0
VERTEX
5
72a
100
AcDbEntity
8
0
100
AcDbVertex
100
AcDb2dVertex
62
5
10
27.887723
20
23.102524
0
VERTEX
5
72b
100
AcDbEntity
8
0
100
AcDbVertex
100
AcDb2dVertex
62
5
10
27.888235
20
23.103037
0
VERTEX
5
72c
100
AcDbEntity
8
0
100
AcDbVertex
100
AcDb2dVertex
62
5
10
27.888894
20
23.103696
0
VERTEX
5
72d
100
AcDbEntity
8
0
100
AcDbVertex
100
AcDb2dVertex
62
5
10
27.889700
20
23.104501
0
VERTEX
5
72e
100
AcDbEntity
8
0
100
AcDbVertex
100
AcDb2dVertex
62
5
10
27.890652
20
23.105453
0
VERTEX
5
72f
100
AcDbEntity
8
0
100
AcDbVertex
100
AcDb2dVertex
62
5
10
27.891750
20
23.106551
0
VERTEX
5
730
100
AcDbEntity
8
0
100
AcDbVertex
100
AcDb2dVertex
62
5
10
27.892995
20
23.107796
0
VERTEX
5
731
100
AcDbEntity
8
0
100
AcDbVertex
100
AcDb2dVertex
62
5
10
27.894386
20
23.109187
0
VERTEX
5
732
100
AcDbEntity
8
0
100
AcDbVertex
100
AcDb2dVertex
62
5
10
27.895924
20
23.110725
0
VERTEX
5
733
100
AcDbEntity
8
0
100
AcDbVertex
100
AcDb2dVertex
62
5
10
27.897608
20
23.112409
0
VERTEX
5
734
100
AcDbEntity
8
0
100
AcDbVertex
100
AcDb2dVertex
62
5
10
27.899438
20
23.114240
0
VERTEX
5
735
100
AcDbEntity
8
0
100
AcDbVertex
100
AcDb2dVertex
62
5
10
27.901415
20
23.116217
0
VERTEX
5
736
100
AcDbEntity
8
0
100
AcDbVertex
100
AcDb2dVertex
62
5
10
27.903539
20
23.118340
0
VERTEX
5
737
100
AcDbEntity
8
0
100
AcDbVertex
100
AcDb2dVertex
62
5
10
27.905809
20
23.120610
0
VERTEX
5
738
100
AcDbEntity
8
0
100
AcDbVertex
100
AcDb2dVertex
62
5
10
27.908225
20
23.123027
0
VERTEX
5
739
100
AcDbEntity
8
0
100
AcDbVertex
100
AcDb2dVertex
62
5
10
27.910788
20
23.125589
0
VERTEX
5
73a
100
AcDbEntity
8
0
100
AcDbVertex
100
AcDb2dVertex
62
5
10
27.913497
20
23.128299
0
VERTEX
5
73b
100
AcDbEntity
8
0
100
AcDbVertex
100
AcDb2dVertex
62
5
10
27.916353
20
23.131154
0
VERTEX
5
73c
100
AcDbEntity
8
0
100
AcDbVertex
100
AcDb2dVertex
62
5
10
27.919341
20
23.134143
0
VERTEX
5
73d
100
AcDbEntity
8
0
100
AcDbVertex
100
AcDb2dVertex
62
5
10
27.922441
20
23.137243
0
VERTEX
5
73e
100
AcDbEntity
8
0
100
AcDbVertex
100
AcDb2dVertex
62
5
10
27.925645
20
23.140446
0
VERTEX
5
73f
100
AcDbEntity
8
0
100
AcDbVertex
100
AcDb2dVertex
62
5
10
27.928942
20
23.143744
0
VERTEX
5
740
100
AcDbEntity
8
0
100
AcDbVertex
100
AcDb2dVertex
62
5
10
27.932325
20
23.147126
0
VERTEX
5
741
100
AcDbEntity
8
0
100
AcDbVertex
100
AcDb2dVertex
62
5
10
27.935783
20
23.150584
0
VERTEX
5
742
100
AcDbEntity
8
0
100
AcDbVertex
100
AcDb2dVertex
62
5
10
27.939308
20
23.154109
0
VERTEX
5
743
100
AcDbEntity
8
0
100
AcDbVertex
100
AcDb2dVertex
62
5
10
27.942890
20
23.157692
0
VERTEX
5
744
100
AcDbEntity
8
0
100
AcDbVertex
100
AcDb2dVertex
62
5
10
27.946521
20
23.161323
0
VERTEX
5
745
100
AcDbEntity
8
0
100
AcDbVertex
100
AcDb2dVertex
62
5
10
27.950192
20
23.164993
0
VERTEX
5
746
100
AcDbEntity
8
0
100
AcDbVertex
100
AcDb2dVertex
62
5
10
27.953893
20
23.168694
0
VERTEX
5
747
100
AcDbEntity
8
0
100
AcDbVertex
100
AcDb2dVertex
62
5
10
27.957615
20
23.172416
0
VERTEX
5
748
100
AcDbEntity
8
0
100
AcDbVertex
100
AcDb2dVertex
62
5
10
27.961349
20
23.176150
0
VERTEX
5
749
100
AcDbEntity
8
0
100
AcDbVertex
100
AcDb2dVertex
62
5
10
27.965086
20
23.179888
0
VERTEX
5
74a
100
AcDbEntity
8
0
100
AcDbVertex
100
AcDb2dVertex
62
5
10
27.968817
20
23.183619
0
VERTEX
5
74b
100
AcDbEntity
8
0
100
AcDbVertex
100
AcDb2dVertex
62
5
10
27.972533
20
23.187335
0
VERTEX
5
74c
100
AcDbEntity
8
0
100
AcDbVertex
100
AcDb2dVertex
62
5
10
27.976225
20
23.191026
0
VERTEX
5
74d
100
AcDbEntity
8
0
100
AcDbVertex
100
AcDb2dVertex
62
5
10
27.979883
20
23.194685
0
VERTEX
5
74e
100
AcDbEntity
8
0
100
AcDbVertex
100
AcDb2dVertex
62
5
10
27.983499
20
23.198301
0
VERTEX
5
74f
100
AcDbEntity
8
0
100
AcDbVertex
100
AcDb2dVertex
62
5
10
27.987064
20
23.201865
0
SEQEND
5
750
100
AcDbEntity
8
0
0
POLYLINE
5
751
100
AcDbEntity
8
0
6
CONTINUOUS
62
5
100
AcDb2dPolyline
66
1
10
0.0
20
0.0
30
0.0
70
0
0
VERTEX
5
752
100
AcDbEntity
8
0
100
AcDbVertex
100
AcDb2dVertex
62
5
10
27.887064
20
25.301865
0
VERTEX
5
753
100
AcDbEntity
8
0
100
AcDbVertex
100
AcDb2dVertex
62
5
10
27.887137
20
25.301792
0
VERTEX
5
754
100
AcDbEntity
8
0
100
AcDbVertex
100
AcDb2dVertex
62
5
10
27.887357
20
25.301572
0
VERTEX
5
755
100
AcDbEntity
8
0
100
AcDbVertex
100
AcDb2dVertex
62
5
10
27.887723
20
25.301206
0
VERTEX
5
756
100
AcDbEntity
8
0
100
AcDbVertex
100
AcDb2dVertex
62
5
10
27.888235
20
25.300694
0
VERTEX
5
757
100
AcDbEntity
8
0
100
AcDbVertex
100
AcDb2dVertex
62
5
10
27.888894
20
25.300035
0
VERTEX
5
758
100
AcDbEntity
8
0
100
AcDbVertex
100
AcDb2dVertex
62
5
10
27.889700
20
25.299229
0
VERTEX
5
759
100
AcDbEntity
8
0
100
AcDbVertex
100
AcDb2dVertex
62
5
10
27.890652
20
25.298277
0
VERTEX
5
75a
100
AcDbEntity
8
0
100
AcDbVertex
100
AcDb2dVertex
62
5
10
27.891750
20
25.297179
0
VERTEX
5
75b
100
AcDbEntity
8
0
100
AcDbVertex
100
AcDb2dVertex
62
5
10
27.892995
20
25.295934
0
VERTEX
5
75c
100
AcDbEntity
8
0
100
AcDbVertex
100
AcDb2dVertex
62
5
10
27.894386
20
25.294543
0
VERTEX
5
75d
100
AcDbEntity
8
0
100
AcDbVertex
100
AcDb2dVertex
62
5
10
27.895924
20
25.293005
0
VERTEX
5
75e
100
AcDbEntity
8
0
100
AcDbVertex
100
AcDb2dVertex
62
5
10
27.897608
20
25.291321
0
VERTEX
5
75f
100
AcDbEntity
8
0
100
AcDbVertex
100
AcDb2dVertex
62
5
10
27.899438
20
25.289490
0
VERTEX
5
760
100
AcDbEntity
8
0
100
AcDbVertex
100
AcDb2dVertex
62
5
10
27.901415
20
25.287513
0
VERTEX
5
761
100
AcDbEntity
8
0
100
AcDbVertex
100
AcDb2dVertex
62
5
10
27.903539
20
25.285390
0
VERTEX
5
762
100
AcDbEntity
8
0
100
AcDbVertex
100
AcDb2dVertex
62
5
10
27.905809
20
25.283120
0
VERTEX
5
763
100
AcDbEntity
8
0
100
AcDbVertex
100
AcDb2dVertex
62
5
10
27.908225
20
25.280704
0
VERTEX
5
764
100
AcDbEntity
8
0
100
AcDbVertex
100
AcDb2dVertex
62
5
10
27.910788
20
25.278141
0
VERTEX
5
765
100
AcDbEntity
8
0
100
AcDbVertex
100
AcDb2dVertex
62
5
10
27.913497
20
25.275431
0
VERTEX
5
766
100
AcDbEntity
8
0
100
AcDbVertex
100
AcDb2dVertex
62
5
10
27.916353
20
25.272576
0
VERTEX
5
767
100
AcDbEntity
8
0
100
AcDbVertex
100
AcDb2dVertex
62
5
10
27.919341
20
25.269588
0
VERTEX
5
768
100
AcDbEntity
8
0
100
AcDbVertex
100
AcDb2dVertex
62
5
10
27.922441
20
25.266487
0
VERTEX
5
769
100
AcDbEntity
8
0
100
AcDbVertex
100
AcDb2dVertex
62
5
10
27.925645
20
25.263284
0
VERTEX
5
76a
100
AcDbEntity
8
0
100
AcDbVertex
100
AcDb2dVertex
62
5
10
27.928942
20
25.259987
0
VERTEX
5
76b
100
AcDbEntity
8
0
100
AcDbVertex
100
AcDb2dVertex
62
5
10
27.932325
20
25.256604
0
VERTEX
5
76c
100
AcDbEntity
8
0
100
AcDbVertex
100
AcDb2dVertex
62
5
10
27.935783
20
25.253146
0
VERTEX
5
76d
100
AcDbEntity
8
0
100
AcDbVertex
100
AcDb2dVertex
62
5
10
27.939308
20
25.249621
0
VERTEX
5
76e
100
AcDbEntity
8
0
100
AcDbVertex
100
AcDb2dVertex
62
5
10
27.942890
20
25.246039
0
VERTEX
5
76f
100
AcDbEntity
8
0
100
AcDbVertex
100
AcDb2dVertex
62
5
10
27.946521
20
25.242407
0
VERTEX
5
770
100
AcDbEntity
8
0
100
AcDbVertex
100
AcDb2dVertex
62
5
10
27.950192
20
25.238737
0
VERTEX
5
771
100
AcDbEntity
8
0
100
AcDbVertex
100
AcDb2dVertex
62
5
10
27.953893
20
25.235036
0
VERTEX
5
772
100
AcDbEntity
8
0
100
AcDbVertex
100
AcDb2dVertex
62
5
10
27.957615
20
25.231314
0
VERTEX
5
773
100
AcDbEntity
8
0
100
AcDbVertex
100
AcDb2dVertex
62
5
10
27.961349
20
25.227580
0
VERTEX
5
774
100
AcDbEntity
8
0
100
AcDbVertex
100
AcDb2dVertex
62
5
10
27.965086
20
25.223843
0
VERTEX
5
775
100
AcDbEntity
8
0
100
AcDbVertex
100
AcDb2dVertex
62
5
10
27.968817
20
25.220111
0
VERTEX
5
776
100
AcDbEntity
8
0
100
AcDbVertex
100
AcDb2dVertex
62
5
10
27.972533
20
25.216395
0
VERTEX
5
777
100
AcDbEntity
8
0
100
AcDbVertex
100
AcDb2dVertex
62
5
10
27.976225
20
25.212704
0
VERTEX
5
778
100
AcDbEntity
8
0
100
AcDbVertex
100
AcDb2dVertex
62
5
10
27.979883
20
25.209045
0
VERTEX
5
779
100
AcDbEntity
8
0
100
AcDbVertex
100
AcDb2dVertex
62
5
10
27.983499
20
25.205429
0
VERTEX
5
77a
100
AcDbEntity
8
0
100
AcDbVertex
100
AcDb2dVertex
62
5
10
27.987064
20
25.201865
0
SEQEND
5
77b
100
AcDbEntity
8
0
0
LINE
5
77c
100
AcDbEntity
8
0
100
AcDbLine
6
CONTINUOUS
62
5
10
27.887064
20
25.301865
11
27.887064
21
26.101865
0
LINE
5
77d
100
AcDbEntity
8
0
100
AcDbLine
6
CONTINUOUS
62
5
10
27.887064
20
26.101865
11
27.587064
21
26.101865
0
LINE
5
77e
100
AcDbEntity
8
0
100
AcDbLine
6
CONTINUOUS
62
5
10
27.087064
20
23.301865
11
27.087064
21
25.101865
0
LINE
5
77f
100
AcDbEntity
8
0
100
AcDbLine
6
CONTINUOUS
62
5
10
27.187064
20
25.101865
11
27.187064
21
23.301865
0
LINE
5
780
100
AcDbEntity
8
0
100
AcDbLine
6
CONTINUOUS
62
5
10
27.887064
20
23.101865
11
27.287064
21
23.101865
0
LINE
5
781
100
AcDbEntity
8
0
100
AcDbLine
6
CONTINUOUS
62
5
10
27.287064
20
23.101865
11
27.287064
21
23.201865
0
LINE
5
782
100
AcDbEntity
8
0
100
AcDbLine
6
CONTINUOUS
62
5
10
27.087064
20
23.301865
11
27.187064
21
23.301865
0
ARC
5
783
100
AcDbEntity
8
0
100
AcDbCircle
6
CONTINUOUS
62
5
10
27.287064
20
23.301865
40
0.200000
100
AcDbArc
50
179.999998
51
-89.999999
0
ARC
5
784
100
AcDbEntity
8
0
100
AcDbCircle
6
CONTINUOUS
62
5
10
27.287064
20
23.301865
40
0.100000
100
AcDbArc
50
179.999998
51
-89.999999
0
LINE
5
785
100
AcDbEntity
8
0
100
AcDbLine
6
CONTINUOUS
62
5
10
27.287064
20
23.201865
11
27.987064
21
23.201865
0
LINE
5
786
100
AcDbEntity
8
0
100
AcDbLine
6
CONTINUOUS
62
5
10
27.087064
20
25.101865
11
27.187064
21
25.101865
0
ARC
5
787
100
AcDbEntity
8
0
100
AcDbCircle
6
CONTINUOUS
62
5
10
27.287064
20
25.101865
40
0.200000
100
AcDbArc
50
89.999999
51
179.999998
0
LINE
5
788
100
AcDbEntity
8
0
100
AcDbLine
6
CONTINUOUS
62
5
10
27.287064
20
25.301865
11
27.287064
21
25.201865
0
LINE
5
789
100
AcDbEntity
8
0
100
AcDbLine
6
CONTINUOUS
62
5
10
27.287064
20
25.301865
11
27.887064
21
25.301865
0
LINE
5
78a
100
AcDbEntity
8
0
100
AcDbLine
6
CONTINUOUS
62
5
10
27.987064
20
25.201865
11
27.287064
21
25.201865
0
ARC
5
78b
100
AcDbEntity
8
0
100
AcDbCircle
6
CONTINUOUS
62
5
10
27.287064
20
25.101865
40
0.100000
100
AcDbArc
50
89.999999
51
179.999998
0
POLYLINE
5
78c
100
AcDbEntity
8
0
6
CONTINUOUS
62
5
100
AcDb2dPolyline
66
1
10
0.0
20
0.0
30
0.0
70
0
0
VERTEX
5
78d
100
AcDbEntity
8
0
100
AcDbVertex
100
AcDb2dVertex
62
5
10
27.887064
20
26.101865
0
VERTEX
5
78e
100
AcDbEntity
8
0
100
AcDbVertex
100
AcDb2dVertex
62
5
10
27.887137
20
26.101938
0
VERTEX
5
78f
100
AcDbEntity
8
0
100
AcDbVertex
100
AcDb2dVertex
62
5
10
27.887357
20
26.102158
0
VERTEX
5
790
100
AcDbEntity
8
0
100
AcDbVertex
100
AcDb2dVertex
62
5
10
27.887723
20
26.102524
0
VERTEX
5
791
100
AcDbEntity
8
0
100
AcDbVertex
100
AcDb2dVertex
62
5
10
27.888235
20
26.103037
0
VERTEX
5
792
100
AcDbEntity
8
0
100
AcDbVertex
100
AcDb2dVertex
62
5
10
27.888894
20
26.103696
0
VERTEX
5
793
100
AcDbEntity
8
0
100
AcDbVertex
100
AcDb2dVertex
62
5
10
27.889700
20
26.104501
0
VERTEX
5
794
100
AcDbEntity
8
0
100
AcDbVertex
100
AcDb2dVertex
62
5
10
27.890652
20
26.105453
0
VERTEX
5
795
100
AcDbEntity
8
0
100
AcDbVertex
100
AcDb2dVertex
62
5
10
27.891750
20
26.106551
0
VERTEX
5
796
100
AcDbEntity
8
0
100
AcDbVertex
100
AcDb2dVertex
62
5
10
27.892995
20
26.107796
0
VERTEX
5
797
100
AcDbEntity
8
0
100
AcDbVertex
100
AcDb2dVertex
62
5
10
27.894386
20
26.109187
0
VERTEX
5
798
100
AcDbEntity
8
0
100
AcDbVertex
100
AcDb2dVertex
62
5
10
27.895924
20
26.110725
0
VERTEX
5
799
100
AcDbEntity
8
0
100
AcDbVertex
100
AcDb2dVertex
62
5
10
27.897608
20
26.112409
0
VERTEX
5
79a
100
AcDbEntity
8
0
100
AcDbVertex
100
AcDb2dVertex
62
5
10
27.899438
20
26.114240
0
VERTEX
5
79b
100
AcDbEntity
8
0
100
AcDbVertex
100
AcDb2dVertex
62
5
10
27.901415
20
26.116217
0
VERTEX
5
79c
100
AcDbEntity
8
0
100
AcDbVertex
100
AcDb2dVertex
62
5
10
27.903539
20
26.118340
0
VERTEX
5
79d
100
AcDbEntity
8
0
100
AcDbVertex
100
AcDb2dVertex
62
5
10
27.905809
20
26.120610
0
VERTEX
5
79e
100
AcDbEntity
8
0
100
AcDbVertex
100
AcDb2dVertex
62
5
10
27.908225
20
26.123027
0
VERTEX
5
79f
100
AcDbEntity
8
0
100
AcDbVertex
100
AcDb2dVertex
62
5
10
27.910788
20
26.125589
0
VERTEX
5
7a0
100
AcDbEntity
8
0
100
AcDbVertex
100
AcDb2dVertex
62
5
10
27.913497
20
26.128299
0
VERTEX
5
7a1
100
AcDbEntity
8
0
100
AcDbVertex
100
AcDb2dVertex
62
5
10
27.916353
20
26.131154
0
VERTEX
5
7a2
100
AcDbEntity
8
0
100
AcDbVertex
100
AcDb2dVertex
62
5
10
27.919341
20
26.134143
0
VERTEX
5
7a3
100
AcDbEntity
8
0
100
AcDbVertex
100
AcDb2dVertex
62
5
10
27.922441
20
26.137243
0
VERTEX
5
7a4
100
AcDbEntity
8
0
100
AcDbVertex
100
AcDb2dVertex
62
5
10
27.925645
20
26.140446
0
VERTEX
5
7a5
100
AcDbEntity
8
0
100
AcDbVertex
100
AcDb2dVertex
62
5
10
27.928942
20
26.143744
0
VERTEX
5
7a6
100
AcDbEntity
8
0
100
AcDbVertex
100
AcDb2dVertex
62
5
10
27.932325
20
26.147126
0
VERTEX
5
7a7
100
AcDbEntity
8
0
100
AcDbVertex
100
AcDb2dVertex
62
5
10
27.935783
20
26.150584
0
VERTEX
5
7a8
100
AcDbEntity
8
0
100
AcDbVertex
100
AcDb2dVertex
62
5
10
27.939308
20
26.154109
0
VERTEX
5
7a9
100
AcDbEntity
8
0
100
AcDbVertex
100
AcDb2dVertex
62
5
10
27.942890
20
26.157692
0
VERTEX
5
7aa
100
AcDbEntity
8
0
100
AcDbVertex
100
AcDb2dVertex
62
5
10
27.946521
20
26.161323
0
VERTEX
5
7ab
100
AcDbEntity
8
0
100
AcDbVertex
100
AcDb2dVertex
62
5
10
27.950192
20
26.164993
0
VERTEX
5
7ac
100
AcDbEntity
8
0
100
AcDbVertex
100
AcDb2dVertex
62
5
10
27.953893
20
26.168694
0
VERTEX
5
7ad
100
AcDbEntity
8
0
100
AcDbVertex
100
AcDb2dVertex
62
5
10
27.957615
20
26.172416
0
VERTEX
5
7ae
100
AcDbEntity
8
0
100
AcDbVertex
100
AcDb2dVertex
62
5
10
27.961349
20
26.176150
0
VERTEX
5
7af
100
AcDbEntity
8
0
100
AcDbVertex
100
AcDb2dVertex
62
5
10
27.965086
20
26.179888
0
VERTEX
5
7b0
100
AcDbEntity
8
0
100
AcDbVertex
100
AcDb2dVertex
62
5
10
27.968817
20
26.183619
0
VERTEX
5
7b1
100
AcDbEntity
8
0
100
AcDbVertex
100
AcDb2dVertex
62
5
10
27.972533
20
26.187335
0
VERTEX
5
7b2
100
AcDbEntity
8
0
100
AcDbVertex
100
AcDb2dVertex
62
5
10
27.976225
20
26.191026
0
VERTEX
5
7b3
100
AcDbEntity
8
0
100
AcDbVertex
100
AcDb2dVertex
62
5
10
27.979883
20
26.194685
0
VERTEX
5
7b4
100
AcDbEntity
8
0
100
AcDbVertex
100
AcDb2dVertex
62
5
10
27.983499
20
26.198301
0
VERTEX
5
7b5
100
AcDbEntity
8
0
100
AcDbVertex
100
AcDb2dVertex
62
5
10
27.987064
20
26.201865
0
SEQEND
5
7b6
100
AcDbEntity
8
0
0
LINE
5
7b7
100
AcDbEntity
8
0
100
AcDbLine
6
CONTINUOUS
62
5
10
27.587064
20
26.101865
11
27.587064
21
26.201865
0
LINE
5
7b8
100
AcDbEntity
8
0
100
AcDbLine
6
CONTINUOUS
62
5
10
27.587064
20
26.201865
11
27.987064
21
26.201865
0
LINE
5
7b9
100
AcDbEntity
8
0
100
AcDbLine
6
CONTINUOUS
62
5
10
27.987064
20
26.201865
11
27.987064
21
25.201865
0
ARC
5
7ba
100
AcDbEntity
8
0
100
AcDbCircle
6
CONTINUOUS
62
5
10
27.587064
20
26.601865
40
0.500000
100
AcDbArc
50
179.999998
51
-89.999999
0
LINE
5
7bb
100
AcDbEntity
8
0
100
AcDbLine
6
CONTINUOUS
62
5
10
27.087064
20
26.601865
11
27.187064
21
26.601865
0
ARC
5
7bc
100
AcDbEntity
8
0
100
AcDbCircle
6
CONTINUOUS
62
5
10
27.587064
20
26.601865
40
0.400000
100
AcDbArc
50
179.999998
51
-89.999999
0
LINE
5
7bd
100
AcDbEntity
8
0
100
AcDbLine
6
CONTINUOUS
62
5
10
27.087064
20
26.601865
11
27.087064
21
29.869122
0
LINE
5
7be
100
AcDbEntity
8
0
100
AcDbLine
6
CONTINUOUS
62
5
10
27.187064
20
29.869122
11
27.187064
21
26.601865
0
LINE
5
7bf
100
AcDbEntity
8
0
100
AcDbLine
6
CONTINUOUS
62
5
10
28.087064
20
21.201865
11
28.087064
21
21.301865
0
ARC
5
7c0
100
AcDbEntity
8
0
100
AcDbCircle
6
CONTINUOUS
62
5
10
28.087064
20
21.401865
40
0.200000
100
AcDbArc
50
179.999998
51
-89.999999
0
ARC
5
7c1
100
AcDbEntity
8
0
100
AcDbCircle
6
CONTINUOUS
62
5
10
28.087064
20
21.401865
40
0.100000
100
AcDbArc
50
179.999998
51
-89.999999
0
LINE
5
7c2
100
AcDbEntity
8
0
100
AcDbLine
6
CONTINUOUS
62
5
10
29.578697
20
28.601865
11
29.479077
21
28.601865
0
LINE
5
7c3
100
AcDbEntity
8
0
100
AcDbLine
6
CONTINUOUS
62
5
10
29.441794
20
28.601865
11
29.479077
21
28.601865
0
LINE
5
7c4
100
AcDbEntity
8
0
100
AcDbLine
6
CONTINUOUS
62
5
10
29.441794
20
28.601865
11
29.242555
21
28.601865
0
ARC
5
7c5
100
AcDbEntity
8
0
100
AcDbCircle
6
CONTINUOUS
62
5
10
30.187064
20
28.601865
40
0.608367
100
AcDbArc
50
0.000000
51
179.999998
0
ARC
5
7c6
100
AcDbEntity
8
0
100
AcDbCircle
6
CONTINUOUS
62
5
10
30.187064
20
28.601865
40
0.707986
100
AcDbArc
50
0.000000
51
179.999998
0
ARC
5
7c7
100
AcDbEntity
8
0
100
AcDbCircle
6
CONTINUOUS
62
5
10
30.187064
20
28.601865
40
0.745269
100
AcDbArc
50
89.999999
51
179.999998
0
ARC
5
7c8
100
AcDbEntity
8
0
100
AcDbCircle
6
CONTINUOUS
62
5
10
30.187064
20
28.601865
40
0.944508
100
AcDbArc
50
89.999999
51
179.999998
0
LINE
5
7c9
100
AcDbEntity
8
0
100
AcDbLine
6
CONTINUOUS
62
5
10
29.349635
20
21.077398
11
29.340911
21
21.086389
0
LINE
5
7ca
100
AcDbEntity
8
0
100
AcDbLine
6
CONTINUOUS
62
5
10
29.365088
20
21.072617
11
29.349635
21
21.077398
0
LINE
5
7cb
100
AcDbEntity
8
0
100
AcDbLine
6
CONTINUOUS
62
5
10
29.385999
20
21.072438
11
29.365088
21
21.072617
0
LINE
5
7cc
100
AcDbEntity
8
0
100
AcDbLine
6
CONTINUOUS
62
5
10
29.410651
20
21.076877
11
29.385999
21
21.072438
0
LINE
5
7cd
100
AcDbEntity
8
0
100
AcDbLine
6
CONTINUOUS
62
5
10
29.437019
20
21.085569
11
29.410651
21
21.076877
0
LINE
5
7ce
100
AcDbEntity
8
0
100
AcDbLine
6
CONTINUOUS
62
5
10
29.462937
20
21.097800
11
29.437019
21
21.085569
0
LINE
5
7cf
100
AcDbEntity
8
0
100
AcDbLine
6
CONTINUOUS
62
5
10
29.486276
20
21.112564
11
29.462937
21
21.097800
0
LINE
5
7d0
100
AcDbEntity
8
0
100
AcDbLine
6
CONTINUOUS
62
5
10
29.505119
20
21.128651
11
29.486276
21
21.112564
0
POLYLINE
5
7d1
100
AcDbEntity
8
0
6
CONTINUOUS
62
5
100
AcDb2dPolyline
66
1
10
0.0
20
0.0
30
0.0
70
0
0
VERTEX
5
7d2
100
AcDbEntity
8
0
100
AcDbVertex
100
AcDb2dVertex
62
5
10
29.340911
20
21.086389
0
VERTEX
5
7d3
100
AcDbEntity
8
0
100
AcDbVertex
100
AcDb2dVertex
62
5
10
29.339874
20
21.088382
0
VERTEX
5
7d4
100
AcDbEntity
8
0
100
AcDbVertex
100
AcDb2dVertex
62
5
10
29.338838
20
21.090369
0
VERTEX
5
7d5
100
AcDbEntity
8
0
100
AcDbVertex
100
AcDb2dVertex
62
5
10
29.337803
20
21.092346
0
VERTEX
5
7d6
100
AcDbEntity
8
0
100
AcDbVertex
100
AcDb2dVertex
62
5
10
29.336770
20
21.094307
0
VERTEX
5
7d7
100
AcDbEntity
8
0
100
AcDbVertex
100
AcDb2dVertex
62
5
10
29.335741
20
21.096246
0
VERTEX
5
7d8
100
AcDbEntity
8
0
100
AcDbVertex
100
AcDb2dVertex
62
5
10
29.334715
20
21.098159
0
VERTEX
5
7d9
100
AcDbEntity
8
0
100
AcDbVertex
100
AcDb2dVertex
62
5
10
29.333695
20
21.100039
0
VERTEX
5
7da
100
AcDbEntity
8
0
100
AcDbVertex
100
AcDb2dVertex
62
5
10
29.332679
20
21.101882
0
VERTEX
5
7db
100
AcDbEntity
8
0
100
AcDbVertex
100
AcDb2dVertex
62
5
10
29.331670
20
21.103681
0
VERTEX
5
7dc
100
AcDbEntity
8
0
100
AcDbVertex
100
AcDb2dVertex
62
5
10
29.330669
20
21.105433
0
VERTEX
5
7dd
100
AcDbEntity
8
0
100
AcDbVertex
100
AcDb2dVertex
62
5
10
29.329674
20
21.107131
0
VERTEX
5
7de
100
AcDbEntity
8
0
100
AcDbVertex
100
AcDb2dVertex
62
5
10
29.328689
20
21.108770
0
VERTEX
5
7df
100
AcDbEntity
8
0
100
AcDbVertex
100
AcDb2dVertex
62
5
10
29.327713
20
21.110347
0
VERTEX
5
7e0
100
AcDbEntity
8
0
100
AcDbVertex
100
AcDb2dVertex
62
5
10
29.326748
20
21.111863
0
VERTEX
5
7e1
100
AcDbEntity
8
0
100
AcDbVertex
100
AcDb2dVertex
62
5
10
29.325793
20
21.113322
0
VERTEX
5
7e2
100
AcDbEntity
8
0
100
AcDbVertex
100
AcDb2dVertex
62
5
10
29.324851
20
21.114724
0
VERTEX
5
7e3
100
AcDbEntity
8
0
100
AcDbVertex
100
AcDb2dVertex
62
5
10
29.323923
20
21.116073
0
VERTEX
5
7e4
100
AcDbEntity
8
0
100
AcDbVertex
100
AcDb2dVertex
62
5
10
29.323008
20
21.117370
0
VERTEX
5
7e5
100
AcDbEntity
8
0
100
AcDbVertex
100
AcDb2dVertex
62
5
10
29.322109
20
21.118618
0
VERTEX
5
7e6
100
AcDbEntity
8
0
100
AcDbVertex
100
AcDb2dVertex
62
5
10
29.321226
20
21.119819
0
VERTEX
5
7e7
100
AcDbEntity
8
0
100
AcDbVertex
100
AcDb2dVertex
62
5
10
29.320360
20
21.120975
0
VERTEX
5
7e8
100
AcDbEntity
8
0
100
AcDbVertex
100
AcDb2dVertex
62
5
10
29.319512
20
21.122089
0
VERTEX
5
7e9
100
AcDbEntity
8
0
100
AcDbVertex
100
AcDb2dVertex
62
5
10
29.318683
20
21.123162
0
VERTEX
5
7ea
100
AcDbEntity
8
0
100
AcDbVertex
100
AcDb2dVertex
62
5
10
29.317873
20
21.124197
0
VERTEX
5
7eb
100
AcDbEntity
8
0
100
AcDbVertex
100
AcDb2dVertex
62
5
10
29.317085
20
21.125196
0
VERTEX
5
7ec
100
AcDbEntity
8
0
100
AcDbVertex
100
AcDb2dVertex
62
5
10
29.316319
20
21.126157
0
VERTEX
5
7ed
100
AcDbEntity
8
0
100
AcDbVertex
100
AcDb2dVertex
62
5
10
29.315576
20
21.127082
0
VERTEX
5
7ee
100
AcDbEntity
8
0
100
AcDbVertex
100
AcDb2dVertex
62
5
10
29.314858
20
21.127968
0
VERTEX
5
7ef
100
AcDbEntity
8
0
100
AcDbVertex
100
AcDb2dVertex
62
5
10
29.314165
20
21.128816
0
VERTEX
5
7f0
100
AcDbEntity
8
0
100
AcDbVertex
100
AcDb2dVertex
62
5
10
29.313498
20
21.129624
0
VERTEX
5
7f1
100
AcDbEntity
8
0
100
AcDbVertex
100
AcDb2dVertex
62
5
10
29.312860
20
21.130393
0
VERTEX
5
7f2
100
AcDbEntity
8
0
100
AcDbVertex
100
AcDb2dVertex
62
5
10
29.312251
20
21.131120
0
VERTEX
5
7f3
100
AcDbEntity
8
0
100
AcDbVertex
100
AcDb2dVertex
62
5
10
29.311672
20
21.131806
0
VERTEX
5
7f4
100
AcDbEntity
8
0
100
AcDbVertex
100
AcDb2dVertex
62
5
10
29.311125
20
21.132450
0
VERTEX
5
7f5
100
AcDbEntity
8
0
100
AcDbVertex
100
AcDb2dVertex
62
5
10
29.310610
20
21.133051
0
VERTEX
5
7f6
100
AcDbEntity
8
0
100
AcDbVertex
100
AcDb2dVertex
62
5
10
29.310129
20
21.133609
0
VERTEX
5
7f7
100
AcDbEntity
8
0
100
AcDbVertex
100
AcDb2dVertex
62
5
10
29.309681
20
21.134124
0
VERTEX
5
7f8
100
AcDbEntity
8
0
100
AcDbVertex
100
AcDb2dVertex
62
5
10
29.309265
20
21.134600
0
VERTEX
5
7f9
100
AcDbEntity
8
0
100
AcDbVertex
100
AcDb2dVertex
62
5
10
29.308877
20
21.135039
0
VERTEX
5
7fa
100
AcDbEntity
8
0
100
AcDbVertex
100
AcDb2dVertex
62
5
10
29.308514
20
21.135447
0
VERTEX
5
7fb
100
AcDbEntity
8
0
100
AcDbVertex
100
AcDb2dVertex
62
5
10
29.308174
20
21.135826
0
VERTEX
5
7fc
100
AcDbEntity
8
0
100
AcDbVertex
100
AcDb2dVertex
62
5
10
29.307854
20
21.136180
0
VERTEX
5
7fd
100
AcDbEntity
8
0
100
AcDbVertex
100
AcDb2dVertex
62
5
10
29.307550
20
21.136512
0
VERTEX
5
7fe
100
AcDbEntity
8
0
100
AcDbVertex
100
AcDb2dVertex
62
5
10
29.307261
20
21.136826
0
VERTEX
5
7ff
100
AcDbEntity
8
0
100
AcDbVertex
100
AcDb2dVertex
62
5
10
29.306983
20
21.137126
0
VERTEX
5
800
100
AcDbEntity
8
0
100
AcDbVertex
100
AcDb2dVertex
62
5
10
29.306713
20
21.137416
0
VERTEX
5
801
100
AcDbEntity
8
0
100
AcDbVertex
100
AcDb2dVertex
62
5
10
29.306449
20
21.137698
0
VERTEX
5
802
100
AcDbEntity
8
0
100
AcDbVertex
100
AcDb2dVertex
62
5
10
29.306188
20
21.137977
0
SEQEND
5
803
100
AcDbEntity
8
0
0
POLYLINE
5
804
100
AcDbEntity
8
0
6
CONTINUOUS
62
5
100
AcDb2dPolyline
66
1
10
0.0
20
0.0
30
0.0
70
0
0
VERTEX
5
805
100
AcDbEntity
8
0
100
AcDbVertex
100
AcDb2dVertex
62
5
10
29.479077
20
21.206033
0
VERTEX
5
806
100
AcDbEntity
8
0
100
AcDbVertex
100
AcDb2dVertex
62
5
10
29.479325
20
21.205506
0
VERTEX
5
807
100
AcDbEntity
8
0
100
AcDbVertex
100
AcDb2dVertex
62
5
10
29.479576
20
21.204971
0
VERTEX
5
808
100
AcDbEntity
8
0
100
AcDbVertex
100
AcDb2dVertex
62
5
10
29.479835
20
21.204419
0
VERTEX
5
809
100
AcDbEntity
8
0
100
AcDbVertex
100
AcDb2dVertex
62
5
10
29.480103
20
21.203840
0
VERTEX
5
80a
100
AcDbEntity
8
0
100
AcDbVertex
100
AcDb2dVertex
62
5
10
29.480386
20
21.203226
0
VERTEX
5
80b
100
AcDbEntity
8
0
100
AcDbVertex
100
AcDb2dVertex
62
5
10
29.480686
20
21.202569
0
VERTEX
5
80c
100
AcDbEntity
8
0
100
AcDbVertex
100
AcDb2dVertex
62
5
10
29.481006
20
21.201859
0
VERTEX
5
80d
100
AcDbEntity
8
0
100
AcDbVertex
100
AcDb2dVertex
62
5
10
29.481351
20
21.201088
0
VERTEX
5
80e
100
AcDbEntity
8
0
100
AcDbVertex
100
AcDb2dVertex
62
5
10
29.481724
20
21.200248
0
VERTEX
5
80f
100
AcDbEntity
8
0
100
AcDbVertex
100
AcDb2dVertex
62
5
10
29.482124
20
21.199337
0
VERTEX
5
810
100
AcDbEntity
8
0
100
AcDbVertex
100
AcDb2dVertex
62
5
10
29.482549
20
21.198361
0
VERTEX
5
811
100
AcDbEntity
8
0
100
AcDbVertex
100
AcDb2dVertex
62
5
10
29.482996
20
21.197324
0
VERTEX
5
812
100
AcDbEntity
8
0
100
AcDbVertex
100
AcDb2dVertex
62
5
10
29.483462
20
21.196231
0
VERTEX
5
813
100
AcDbEntity
8
0
100
AcDbVertex
100
AcDb2dVertex
62
5
10
29.483945
20
21.195089
0
VERTEX
5
814
100
AcDbEntity
8
0
100
AcDbVertex
100
AcDb2dVertex
62
5
10
29.484442
20
21.193901
0
VERTEX
5
815
100
AcDbEntity
8
0
100
AcDbVertex
100
AcDb2dVertex
62
5
10
29.484950
20
21.192673
0
VERTEX
5
816
100
AcDbEntity
8
0
100
AcDbVertex
100
AcDb2dVertex
62
5
10
29.485467
20
21.191410
0
VERTEX
5
817
100
AcDbEntity
8
0
100
AcDbVertex
100
AcDb2dVertex
62
5
10
29.485989
20
21.190118
0
VERTEX
5
818
100
AcDbEntity
8
0
100
AcDbVertex
100
AcDb2dVertex
62
5
10
29.486515
20
21.188799
0
VERTEX
5
819
100
AcDbEntity
8
0
100
AcDbVertex
100
AcDb2dVertex
62
5
10
29.487044
20
21.187454
0
VERTEX
5
81a
100
AcDbEntity
8
0
100
AcDbVertex
100
AcDb2dVertex
62
5
10
29.487576
20
21.186085
0
VERTEX
5
81b
100
AcDbEntity
8
0
100
AcDbVertex
100
AcDb2dVertex
62
5
10
29.488111
20
21.184692
0
VERTEX
5
81c
100
AcDbEntity
8
0
100
AcDbVertex
100
AcDb2dVertex
62
5
10
29.488648
20
21.183276
0
VERTEX
5
81d
100
AcDbEntity
8
0
100
AcDbVertex
100
AcDb2dVertex
62
5
10
29.489188
20
21.181838
0
VERTEX
5
81e
100
AcDbEntity
8
0
100
AcDbVertex
100
AcDb2dVertex
62
5
10
29.489728
20
21.180380
0
VERTEX
5
81f
100
AcDbEntity
8
0
100
AcDbVertex
100
AcDb2dVertex
62
5
10
29.490270
20
21.178902
0
VERTEX
5
820
100
AcDbEntity
8
0
100
AcDbVertex
100
AcDb2dVertex
62
5
10
29.490813
20
21.177405
0
VERTEX
5
821
100
AcDbEntity
8
0
100
AcDbVertex
100
AcDb2dVertex
62
5
10
29.491356
20
21.175889
0
VERTEX
5
822
100
AcDbEntity
8
0
100
AcDbVertex
100
AcDb2dVertex
62
5
10
29.491899
20
21.174357
0
VERTEX
5
823
100
AcDbEntity
8
0
100
AcDbVertex
100
AcDb2dVertex
62
5
10
29.492441
20
21.172807
0
VERTEX
5
824
100
AcDbEntity
8
0
100
AcDbVertex
100
AcDb2dVertex
62
5
10
29.492983
20
21.171242
0
VERTEX
5
825
100
AcDbEntity
8
0
100
AcDbVertex
100
AcDb2dVertex
62
5
10
29.493522
20
21.169662
0
VERTEX
5
826
100
AcDbEntity
8
0
100
AcDbVertex
100
AcDb2dVertex
62
5
10
29.494060
20
21.168066
0
VERTEX
5
827
100
AcDbEntity
8
0
100
AcDbVertex
100
AcDb2dVertex
62
5
10
29.494595
20
21.166457
0
VERTEX
5
828
100
AcDbEntity
8
0
100
AcDbVertex
100
AcDb2dVertex
62
5
10
29.495126
20
21.164834
0
VERTEX
5
829
100
AcDbEntity
8
0
100
AcDbVertex
100
AcDb2dVertex
62
5
10
29.495654
20
21.163197
0
VERTEX
5
82a
100
AcDbEntity
8
0
100
AcDbVertex
100
AcDb2dVertex
62
5
10
29.496177
20
21.161549
0
VERTEX
5
82b
100
AcDbEntity
8
0
100
AcDbVertex
100
AcDb2dVertex
62
5
10
29.496695
20
21.159888
0
VERTEX
5
82c
100
AcDbEntity
8
0
100
AcDbVertex
100
AcDb2dVertex
62
5
10
29.497208
20
21.158216
0
VERTEX
5
82d
100
AcDbEntity
8
0
100
AcDbVertex
100
AcDb2dVertex
62
5
10
29.497715
20
21.156533
0
VERTEX
5
82e
100
AcDbEntity
8
0
100
AcDbVertex
100
AcDb2dVertex
62
5
10
29.498215
20
21.154840
0
VERTEX
5
82f
100
AcDbEntity
8
0
100
AcDbVertex
100
AcDb2dVertex
62
5
10
29.498708
20
21.153137
0
VERTEX
5
830
100
AcDbEntity
8
0
100
AcDbVertex
100
AcDb2dVertex
62
5
10
29.499194
20
21.151426
0
VERTEX
5
831
100
AcDbEntity
8
0
100
AcDbVertex
100
AcDb2dVertex
62
5
10
29.499674
20
21.149706
0
VERTEX
5
832
100
AcDbEntity
8
0
100
AcDbVertex
100
AcDb2dVertex
62
5
10
29.500148
20
21.147978
0
VERTEX
5
833
100
AcDbEntity
8
0
100
AcDbVertex
100
AcDb2dVertex
62
5
10
29.500617
20
21.146243
0
VERTEX
5
834
100
AcDbEntity
8
0
100
AcDbVertex
100
AcDb2dVertex
62
5
10
29.501081
20
21.144502
0
VERTEX
5
835
100
AcDbEntity
8
0
100
AcDbVertex
100
AcDb2dVertex
62
5
10
29.501541
20
21.142756
0
VERTEX
5
836
100
AcDbEntity
8
0
100
AcDbVertex
100
AcDb2dVertex
62
5
10
29.501997
20
21.141004
0
VERTEX
5
837
100
AcDbEntity
8
0
100
AcDbVertex
100
AcDb2dVertex
62
5
10
29.502449
20
21.139247
0
VERTEX
5
838
100
AcDbEntity
8
0
100
AcDbVertex
100
AcDb2dVertex
62
5
10
29.502899
20
21.137487
0
VERTEX
5
839
100
AcDbEntity
8
0
100
AcDbVertex
100
AcDb2dVertex
62
5
10
29.503346
20
21.135724
0
VERTEX
5
83a
100
AcDbEntity
8
0
100
AcDbVertex
100
AcDb2dVertex
62
5
10
29.503791
20
21.133958
0
VERTEX
5
83b
100
AcDbEntity
8
0
100
AcDbVertex
100
AcDb2dVertex
62
5
10
29.504234
20
21.132190
0
VERTEX
5
83c
100
AcDbEntity
8
0
100
AcDbVertex
100
AcDb2dVertex
62
5
10
29.504677
20
21.130420
0
VERTEX
5
83d
100
AcDbEntity
8
0
100
AcDbVertex
100
AcDb2dVertex
62
5
10
29.505119
20
21.128651
0
SEQEND
5
83e
100
AcDbEntity
8
0
0
POLYLINE
5
83f
100
AcDbEntity
8
0
6
CONTINUOUS
62
5
100
AcDb2dPolyline
66
1
10
0.0
20
0.0
30
0.0
70
0
0
VERTEX
5
840
100
AcDbEntity
8
0
100
AcDbVertex
100
AcDb2dVertex
62
5
10
29.306188
20
21.137977
0
VERTEX
5
841
100
AcDbEntity
8
0
100
AcDbVertex
100
AcDb2dVertex
62
5
10
29.305232
20
21.138999
0
VERTEX
5
842
100
AcDbEntity
8
0
100
AcDbVertex
100
AcDb2dVertex
62
5
10
29.304268
20
21.140015
0
VERTEX
5
843
100
AcDbEntity
8
0
100
AcDbVertex
100
AcDb2dVertex
62
5
10
29.303296
20
21.141025
0
VERTEX
5
844
100
AcDbEntity
8
0
100
AcDbVertex
100
AcDb2dVertex
62
5
10
29.302318
20
21.142028
0
VERTEX
5
845
100
AcDbEntity
8
0
100
AcDbVertex
100
AcDb2dVertex
62
5
10
29.301332
20
21.143024
0
VERTEX
5
846
100
AcDbEntity
8
0
100
AcDbVertex
100
AcDb2dVertex
62
5
10
29.300339
20
21.144014
0
VERTEX
5
847
100
AcDbEntity
8
0
100
AcDbVertex
100
AcDb2dVertex
62
5
10
29.299339
20
21.144996
0
VERTEX
5
848
100
AcDbEntity
8
0
100
AcDbVertex
100
AcDb2dVertex
62
5
10
29.298332
20
21.145972
0
VERTEX
5
849
100
AcDbEntity
8
0
100
AcDbVertex
100
AcDb2dVertex
62
5
10
29.297318
20
21.146941
0
VERTEX
5
84a
100
AcDbEntity
8
0
100
AcDbVertex
100
AcDb2dVertex
62
5
10
29.296297
20
21.147903
0
VERTEX
5
84b
100
AcDbEntity
8
0
100
AcDbVertex
100
AcDb2dVertex
62
5
10
29.295270
20
21.148857
0
VERTEX
5
84c
100
AcDbEntity
8
0
100
AcDbVertex
100
AcDb2dVertex
62
5
10
29.294236
20
21.149805
0
VERTEX
5
84d
100
AcDbEntity
8
0
100
AcDbVertex
100
AcDb2dVertex
62
5
10
29.293195
20
21.150745
0
VERTEX
5
84e
100
AcDbEntity
8
0
100
AcDbVertex
100
AcDb2dVertex
62
5
10
29.292148
20
21.151678
0
VERTEX
5
84f
100
AcDbEntity
8
0
100
AcDbVertex
100
AcDb2dVertex
62
5
10
29.291094
20
21.152603
0
VERTEX
5
850
100
AcDbEntity
8
0
100
AcDbVertex
100
AcDb2dVertex
62
5
10
29.290034
20
21.153521
0
VERTEX
5
851
100
AcDbEntity
8
0
100
AcDbVertex
100
AcDb2dVertex
62
5
10
29.288967
20
21.154432
0
VERTEX
5
852
100
AcDbEntity
8
0
100
AcDbVertex
100
AcDb2dVertex
62
5
10
29.287895
20
21.155335
0
VERTEX
5
853
100
AcDbEntity
8
0
100
AcDbVertex
100
AcDb2dVertex
62
5
10
29.286816
20
21.156230
0
VERTEX
5
854
100
AcDbEntity
8
0
100
AcDbVertex
100
AcDb2dVertex
62
5
10
29.285731
20
21.157117
0
VERTEX
5
855
100
AcDbEntity
8
0
100
AcDbVertex
100
AcDb2dVertex
62
5
10
29.284641
20
21.157997
0
VERTEX
5
856
100
AcDbEntity
8
0
100
AcDbVertex
100
AcDb2dVertex
62
5
10
29.283544
20
21.158869
0
VERTEX
5
857
100
AcDbEntity
8
0
100
AcDbVertex
100
AcDb2dVertex
62
5
10
29.282441
20
21.159733
0
VERTEX
5
858
100
AcDbEntity
8
0
100
AcDbVertex
100
AcDb2dVertex
62
5
10
29.281333
20
21.160589
0
SEQEND
5
859
100
AcDbEntity
8
0
0
ARC
5
85a
100
AcDbEntity
8
0
100
AcDbCircle
6
CONTINUOUS
62
5
10
29.378993
20
21.206655
40
0.100086
100
AcDbArc
50
-136.670638
51
-0.356290
0
POLYLINE
5
85b
100
AcDbEntity
8
0
6
CONTINUOUS
62
5
100
AcDb2dPolyline
66
1
10
0.0
20
0.0
30
0.0
70
0
0
VERTEX
5
85c
100
AcDbEntity
8
0
100
AcDbVertex
100
AcDb2dVertex
62
5
10
29.441794
20
21.239950
0
VERTEX
5
85d
100
AcDbEntity
8
0
100
AcDbVertex
100
AcDb2dVertex
62
5
10
29.443457
20
21.238666
0
VERTEX
5
85e
100
AcDbEntity
8
0
100
AcDbVertex
100
AcDb2dVertex
62
5
10
29.445110
20
21.237371
0
VERTEX
5
85f
100
AcDbEntity
8
0
100
AcDbVertex
100
AcDb2dVertex
62
5
10
29.446755
20
21.236063
0
VERTEX
5
860
100
AcDbEntity
8
0
100
AcDbVertex
100
AcDb2dVertex
62
5
10
29.448392
20
21.234743
0
VERTEX
5
861
100
AcDbEntity
8
0
100
AcDbVertex
100
AcDb2dVertex
62
5
10
29.450019
20
21.233412
0
VERTEX
5
862
100
AcDbEntity
8
0
100
AcDbVertex
100
AcDb2dVertex
62
5
10
29.451637
20
21.232069
0
VERTEX
5
863
100
AcDbEntity
8
0
100
AcDbVertex
100
AcDb2dVertex
62
5
10
29.453246
20
21.230715
0
VERTEX
5
864
100
AcDbEntity
8
0
100
AcDbVertex
100
AcDb2dVertex
62
5
10
29.454845
20
21.229349
0
VERTEX
5
865
100
AcDbEntity
8
0
100
AcDbVertex
100
AcDb2dVertex
62
5
10
29.456435
20
21.227972
0
VERTEX
5
866
100
AcDbEntity
8
0
100
AcDbVertex
100
AcDb2dVertex
62
5
10
29.458016
20
21.226584
0
VERTEX
5
867
100
AcDbEntity
8
0
100
AcDbVertex
100
AcDb2dVertex
62
5
10
29.459587
20
21.225185
0
VERTEX
5
868
100
AcDbEntity
8
0
100
AcDbVertex
100
AcDb2dVertex
62
5
10
29.461148
20
21.223774
0
VERTEX
5
869
100
AcDbEntity
8
0
100
AcDbVertex
100
AcDb2dVertex
62
5
10
29.462699
20
21.222353
0
VERTEX
5
86a
100
AcDbEntity
8
0
100
AcDbVertex
100
AcDb2dVertex
62
5
10
29.464241
20
21.220921
0
VERTEX
5
86b
100
AcDbEntity
8
0
100
AcDbVertex
100
AcDb2dVertex
62
5
10
29.465772
20
21.219479
0
VERTEX
5
86c
100
AcDbEntity
8
0
100
AcDbVertex
100
AcDb2dVertex
62
5
10
29.467293
20
21.218026
0
VERTEX
5
86d
100
AcDbEntity
8
0
100
AcDbVertex
100
AcDb2dVertex
62
5
10
29.468803
20
21.216562
0
VERTEX
5
86e
100
AcDbEntity
8
0
100
AcDbVertex
100
AcDb2dVertex
62
5
10
29.470303
20
21.215088
0
VERTEX
5
86f
100
AcDbEntity
8
0
100
AcDbVertex
100
AcDb2dVertex
62
5
10
29.471793
20
21.213604
0
VERTEX
5
870
100
AcDbEntity
8
0
100
AcDbVertex
100
AcDb2dVertex
62
5
10
29.473271
20
21.212109
0
VERTEX
5
871
100
AcDbEntity
8
0
100
AcDbVertex
100
AcDb2dVertex
62
5
10
29.474739
20
21.210605
0
VERTEX
5
872
100
AcDbEntity
8
0
100
AcDbVertex
100
AcDb2dVertex
62
5
10
29.476196
20
21.209091
0
VERTEX
5
873
100
AcDbEntity
8
0
100
AcDbVertex
100
AcDb2dVertex
62
5
10
29.477642
20
21.207566
0
VERTEX
5
874
100
AcDbEntity
8
0
100
AcDbVertex
100
AcDb2dVertex
62
5
10
29.479077
20
21.206033
0
SEQEND
5
875
100
AcDbEntity
8
0
0
LINE
5
876
100
AcDbEntity
8
0
100
AcDbLine
6
CONTINUOUS
62
5
10
29.159650
20
21.301865
11
29.159650
21
21.201865
0
ARC
5
877
100
AcDbEntity
8
0
100
AcDbCircle
6
CONTINUOUS
62
5
10
29.159650
20
21.001865
40
0.200000
100
AcDbArc
50
73.957368
51
89.999999
0
ARC
5
878
100
AcDbEntity
8
0
100
AcDbCircle
6
CONTINUOUS
62
5
10
29.159650
20
21.001865
40
0.300000
100
AcDbArc
50
73.957368
51
89.999999
0
LINE
5
879
100
AcDbEntity
8
0
100
AcDbLine
6
CONTINUOUS
62
5
10
29.242555
20
21.290182
11
29.214920
21
21.194076
0
POLYLINE
5
87a
100
AcDbEntity
8
0
6
CONTINUOUS
62
5
100
AcDb2dPolyline
66
1
10
0.0
20
0.0
30
0.0
70
0
0
VERTEX
5
87b
100
AcDbEntity
8
0
100
AcDbVertex
100
AcDb2dVertex
62
5
10
29.281333
20
21.160589
0
VERTEX
5
87c
100
AcDbEntity
8
0
100
AcDbVertex
100
AcDb2dVertex
62
5
10
29.281026
20
21.160829
0
VERTEX
5
87d
100
AcDbEntity
8
0
100
AcDbVertex
100
AcDb2dVertex
62
5
10
29.280714
20
21.161072
0
VERTEX
5
87e
100
AcDbEntity
8
0
100
AcDbVertex
100
AcDb2dVertex
62
5
10
29.280392
20
21.161323
0
VERTEX
5
87f
100
AcDbEntity
8
0
100
AcDbVertex
100
AcDb2dVertex
62
5
10
29.280053
20
21.161583
0
VERTEX
5
880
100
AcDbEntity
8
0
100
AcDbVertex
100
AcDb2dVertex
62
5
10
29.279693
20
21.161858
0
VERTEX
5
881
100
AcDbEntity
8
0
100
AcDbVertex
100
AcDb2dVertex
62
5
10
29.279306
20
21.162149
0
VERTEX
5
882
100
AcDbEntity
8
0
100
AcDbVertex
100
AcDb2dVertex
62
5
10
29.278887
20
21.162461
0
VERTEX
5
883
100
AcDbEntity
8
0
100
AcDbVertex
100
AcDb2dVertex
62
5
10
29.278430
20
21.162798
0
VERTEX
5
884
100
AcDbEntity
8
0
100
AcDbVertex
100
AcDb2dVertex
62
5
10
29.277931
20
21.163161
0
VERTEX
5
885
100
AcDbEntity
8
0
100
AcDbVertex
100
AcDb2dVertex
62
5
10
29.277384
20
21.163556
0
VERTEX
5
886
100
AcDbEntity
8
0
100
AcDbVertex
100
AcDb2dVertex
62
5
10
29.276783
20
21.163985
0
VERTEX
5
887
100
AcDbEntity
8
0
100
AcDbVertex
100
AcDb2dVertex
62
5
10
29.276123
20
21.164452
0
VERTEX
5
888
100
AcDbEntity
8
0
100
AcDbVertex
100
AcDb2dVertex
62
5
10
29.275399
20
21.164959
0
VERTEX
5
889
100
AcDbEntity
8
0
100
AcDbVertex
100
AcDb2dVertex
62
5
10
29.274613
20
21.165506
0
VERTEX
5
88a
100
AcDbEntity
8
0
100
AcDbVertex
100
AcDb2dVertex
62
5
10
29.273764
20
21.166091
0
VERTEX
5
88b
100
AcDbEntity
8
0
100
AcDbVertex
100
AcDb2dVertex
62
5
10
29.272855
20
21.166712
0
VERTEX
5
88c
100
AcDbEntity
8
0
100
AcDbVertex
100
AcDb2dVertex
62
5
10
29.271888
20
21.167366
0
VERTEX
5
88d
100
AcDbEntity
8
0
100
AcDbVertex
100
AcDb2dVertex
62
5
10
29.270865
20
21.168052
0
VERTEX
5
88e
100
AcDbEntity
8
0
100
AcDbVertex
100
AcDb2dVertex
62
5
10
29.269787
20
21.168767
0
VERTEX
5
88f
100
AcDbEntity
8
0
100
AcDbVertex
100
AcDb2dVertex
62
5
10
29.268655
20
21.169509
0
VERTEX
5
890
100
AcDbEntity
8
0
100
AcDbVertex
100
AcDb2dVertex
62
5
10
29.267472
20
21.170276
0
VERTEX
5
891
100
AcDbEntity
8
0
100
AcDbVertex
100
AcDb2dVertex
62
5
10
29.266240
20
21.171067
0
VERTEX
5
892
100
AcDbEntity
8
0
100
AcDbVertex
100
AcDb2dVertex
62
5
10
29.264960
20
21.171878
0
VERTEX
5
893
100
AcDbEntity
8
0
100
AcDbVertex
100
AcDb2dVertex
62
5
10
29.263633
20
21.172708
0
VERTEX
5
894
100
AcDbEntity
8
0
100
AcDbVertex
100
AcDb2dVertex
62
5
10
29.262261
20
21.173555
0
VERTEX
5
895
100
AcDbEntity
8
0
100
AcDbVertex
100
AcDb2dVertex
62
5
10
29.260843
20
21.174416
0
VERTEX
5
896
100
AcDbEntity
8
0
100
AcDbVertex
100
AcDb2dVertex
62
5
10
29.259375
20
21.175291
0
VERTEX
5
897
100
AcDbEntity
8
0
100
AcDbVertex
100
AcDb2dVertex
62
5
10
29.257856
20
21.176177
0
VERTEX
5
898
100
AcDbEntity
8
0
100
AcDbVertex
100
AcDb2dVertex
62
5
10
29.256282
20
21.177073
0
VERTEX
5
899
100
AcDbEntity
8
0
100
AcDbVertex
100
AcDb2dVertex
62
5
10
29.254652
20
21.177977
0
VERTEX
5
89a
100
AcDbEntity
8
0
100
AcDbVertex
100
AcDb2dVertex
62
5
10
29.252963
20
21.178886
0
VERTEX
5
89b
100
AcDbEntity
8
0
100
AcDbVertex
100
AcDb2dVertex
62
5
10
29.251212
20
21.179800
0
VERTEX
5
89c
100
AcDbEntity
8
0
100
AcDbVertex
100
AcDb2dVertex
62
5
10
29.249397
20
21.180716
0
VERTEX
5
89d
100
AcDbEntity
8
0
100
AcDbVertex
100
AcDb2dVertex
62
5
10
29.247515
20
21.181633
0
VERTEX
5
89e
100
AcDbEntity
8
0
100
AcDbVertex
100
AcDb2dVertex
62
5
10
29.245565
20
21.182549
0
VERTEX
5
89f
100
AcDbEntity
8
0
100
AcDbVertex
100
AcDb2dVertex
62
5
10
29.243543
20
21.183462
0
VERTEX
5
8a0
100
AcDbEntity
8
0
100
AcDbVertex
100
AcDb2dVertex
62
5
10
29.241447
20
21.184370
0
VERTEX
5
8a1
100
AcDbEntity
8
0
100
AcDbVertex
100
AcDb2dVertex
62
5
10
29.239276
20
21.185272
0
VERTEX
5
8a2
100
AcDbEntity
8
0
100
AcDbVertex
100
AcDb2dVertex
62
5
10
29.237037
20
21.186169
0
VERTEX
5
8a3
100
AcDbEntity
8
0
100
AcDbVertex
100
AcDb2dVertex
62
5
10
29.234736
20
21.187060
0
VERTEX
5
8a4
100
AcDbEntity
8
0
100
AcDbVertex
100
AcDb2dVertex
62
5
10
29.232379
20
21.187947
0
VERTEX
5
8a5
100
AcDbEntity
8
0
100
AcDbVertex
100
AcDb2dVertex
62
5
10
29.229975
20
21.188830
0
VERTEX
5
8a6
100
AcDbEntity
8
0
100
AcDbVertex
100
AcDb2dVertex
62
5
10
29.227529
20
21.189710
0
VERTEX
5
8a7
100
AcDbEntity
8
0
100
AcDbVertex
100
AcDb2dVertex
62
5
10
29.225048
20
21.190587
0
VERTEX
5
8a8
100
AcDbEntity
8
0
100
AcDbVertex
100
AcDb2dVertex
62
5
10
29.222540
20
21.191461
0
VERTEX
5
8a9
100
AcDbEntity
8
0
100
AcDbVertex
100
AcDb2dVertex
62
5
10
29.220012
20
21.192334
0
VERTEX
5
8aa
100
AcDbEntity
8
0
100
AcDbVertex
100
AcDb2dVertex
62
5
10
29.217469
20
21.193205
0
VERTEX
5
8ab
100
AcDbEntity
8
0
100
AcDbVertex
100
AcDb2dVertex
62
5
10
29.214920
20
21.194076
0
SEQEND
5
8ac
100
AcDbEntity
8
0
0
ARC
5
8ad
100
AcDbEntity
8
0
100
AcDbCircle
6
CONTINUOUS
62
5
10
29.341766
20
21.240297
40
0.100028
100
AcDbArc
50
-127.168498
51
-0.198877
0
POLYLINE
5
8ae
100
AcDbEntity
8
0
6
CONTINUOUS
62
5
100
AcDb2dPolyline
66
1
10
0.0
20
0.0
30
0.0
70
0
0
VERTEX
5
8af
100
AcDbEntity
8
0
100
AcDbVertex
100
AcDb2dVertex
62
5
10
29.242555
20
21.290182
0
VERTEX
5
8b0
100
AcDbEntity
8
0
100
AcDbVertex
100
AcDb2dVertex
62
5
10
29.247845
20
21.289324
0
VERTEX
5
8b1
100
AcDbEntity
8
0
100
AcDbVertex
100
AcDb2dVertex
62
5
10
29.253130
20
21.288462
0
VERTEX
5
8b2
100
AcDbEntity
8
0
100
AcDbVertex
100
AcDb2dVertex
62
5
10
29.258408
20
21.287593
0
VERTEX
5
8b3
100
AcDbEntity
8
0
100
AcDbVertex
100
AcDb2dVertex
62
5
10
29.263673
20
21.286713
0
VERTEX
5
8b4
100
AcDbEntity
8
0
100
AcDbVertex
100
AcDb2dVertex
62
5
10
29.268923
20
21.285819
0
VERTEX
5
8b5
100
AcDbEntity
8
0
100
AcDbVertex
100
AcDb2dVertex
62
5
10
29.274152
20
21.284906
0
VERTEX
5
8b6
100
AcDbEntity
8
0
100
AcDbVertex
100
AcDb2dVertex
62
5
10
29.279358
20
21.283972
0
VERTEX
5
8b7
100
AcDbEntity
8
0
100
AcDbVertex
100
AcDb2dVertex
62
5
10
29.284535
20
21.283015
0
VERTEX
5
8b8
100
AcDbEntity
8
0
100
AcDbVertex
100
AcDb2dVertex
62
5
10
29.289680
20
21.282036
0
VERTEX
5
8b9
100
AcDbEntity
8
0
100
AcDbVertex
100
AcDb2dVertex
62
5
10
29.294791
20
21.281037
0
VERTEX
5
8ba
100
AcDbEntity
8
0
100
AcDbVertex
100
AcDb2dVertex
62
5
10
29.299862
20
21.280022
0
VERTEX
5
8bb
100
AcDbEntity
8
0
100
AcDbVertex
100
AcDb2dVertex
62
5
10
29.304890
20
21.278990
0
VERTEX
5
8bc
100
AcDbEntity
8
0
100
AcDbVertex
100
AcDb2dVertex
62
5
10
29.309872
20
21.277945
0
VERTEX
5
8bd
100
AcDbEntity
8
0
100
AcDbVertex
100
AcDb2dVertex
62
5
10
29.314804
20
21.276888
0
VERTEX
5
8be
100
AcDbEntity
8
0
100
AcDbVertex
100
AcDb2dVertex
62
5
10
29.319683
20
21.275821
0
VERTEX
5
8bf
100
AcDbEntity
8
0
100
AcDbVertex
100
AcDb2dVertex
62
5
10
29.324503
20
21.274747
0
VERTEX
5
8c0
100
AcDbEntity
8
0
100
AcDbVertex
100
AcDb2dVertex
62
5
10
29.329263
20
21.273666
0
VERTEX
5
8c1
100
AcDbEntity
8
0
100
AcDbVertex
100
AcDb2dVertex
62
5
10
29.333960
20
21.272581
0
VERTEX
5
8c2
100
AcDbEntity
8
0
100
AcDbVertex
100
AcDb2dVertex
62
5
10
29.338593
20
21.271490
0
VERTEX
5
8c3
100
AcDbEntity
8
0
100
AcDbVertex
100
AcDb2dVertex
62
5
10
29.343159
20
21.270396
0
VERTEX
5
8c4
100
AcDbEntity
8
0
100
AcDbVertex
100
AcDb2dVertex
62
5
10
29.347658
20
21.269298
0
VERTEX
5
8c5
100
AcDbEntity
8
0
100
AcDbVertex
100
AcDb2dVertex
62
5
10
29.352087
20
21.268197
0
VERTEX
5
8c6
100
AcDbEntity
8
0
100
AcDbVertex
100
AcDb2dVertex
62
5
10
29.356444
20
21.267094
0
VERTEX
5
8c7
100
AcDbEntity
8
0
100
AcDbVertex
100
AcDb2dVertex
62
5
10
29.360729
20
21.265989
0
VERTEX
5
8c8
100
AcDbEntity
8
0
100
AcDbVertex
100
AcDb2dVertex
62
5
10
29.364939
20
21.264884
0
VERTEX
5
8c9
100
AcDbEntity
8
0
100
AcDbVertex
100
AcDb2dVertex
62
5
10
29.369073
20
21.263778
0
VERTEX
5
8ca
100
AcDbEntity
8
0
100
AcDbVertex
100
AcDb2dVertex
62
5
10
29.373129
20
21.262672
0
VERTEX
5
8cb
100
AcDbEntity
8
0
100
AcDbVertex
100
AcDb2dVertex
62
5
10
29.377106
20
21.261567
0
VERTEX
5
8cc
100
AcDbEntity
8
0
100
AcDbVertex
100
AcDb2dVertex
62
5
10
29.381000
20
21.260464
0
VERTEX
5
8cd
100
AcDbEntity
8
0
100
AcDbVertex
100
AcDb2dVertex
62
5
10
29.384808
20
21.259365
0
VERTEX
5
8ce
100
AcDbEntity
8
0
100
AcDbVertex
100
AcDb2dVertex
62
5
10
29.388524
20
21.258273
0
VERTEX
5
8cf
100
AcDbEntity
8
0
100
AcDbVertex
100
AcDb2dVertex
62
5
10
29.392143
20
21.257192
0
VERTEX
5
8d0
100
AcDbEntity
8
0
100
AcDbVertex
100
AcDb2dVertex
62
5
10
29.395659
20
21.256123
0
VERTEX
5
8d1
100
AcDbEntity
8
0
100
AcDbVertex
100
AcDb2dVertex
62
5
10
29.399068
20
21.255072
0
VERTEX
5
8d2
100
AcDbEntity
8
0
100
AcDbVertex
100
AcDb2dVertex
62
5
10
29.402364
20
21.254039
0
VERTEX
5
8d3
100
AcDbEntity
8
0
100
AcDbVertex
100
AcDb2dVertex
62
5
10
29.405541
20
21.253028
0
VERTEX
5
8d4
100
AcDbEntity
8
0
100
AcDbVertex
100
AcDb2dVertex
62
5
10
29.408594
20
21.252043
0
VERTEX
5
8d5
100
AcDbEntity
8
0
100
AcDbVertex
100
AcDb2dVertex
62
5
10
29.411518
20
21.251086
0
VERTEX
5
8d6
100
AcDbEntity
8
0
100
AcDbVertex
100
AcDb2dVertex
62
5
10
29.414308
20
21.250160
0
VERTEX
5
8d7
100
AcDbEntity
8
0
100
AcDbVertex
100
AcDb2dVertex
62
5
10
29.416958
20
21.249268
0
VERTEX
5
8d8
100
AcDbEntity
8
0
100
AcDbVertex
100
AcDb2dVertex
62
5
10
29.419463
20
21.248414
0
VERTEX
5
8d9
100
AcDbEntity
8
0
100
AcDbVertex
100
AcDb2dVertex
62
5
10
29.421818
20
21.247599
0
VERTEX
5
8da
100
AcDbEntity
8
0
100
AcDbVertex
100
AcDb2dVertex
62
5
10
29.424017
20
21.246828
0
VERTEX
5
8db
100
AcDbEntity
8
0
100
AcDbVertex
100
AcDb2dVertex
62
5
10
29.426055
20
21.246103
0
VERTEX
5
8dc
100
AcDbEntity
8
0
100
AcDbVertex
100
AcDb2dVertex
62
5
10
29.427933
20
21.245424
0
VERTEX
5
8dd
100
AcDbEntity
8
0
100
AcDbVertex
100
AcDb2dVertex
62
5
10
29.429664
20
21.244789
0
VERTEX
5
8de
100
AcDbEntity
8
0
100
AcDbVertex
100
AcDb2dVertex
62
5
10
29.431260
20
21.244193
0
VERTEX
5
8df
100
AcDbEntity
8
0
100
AcDbVertex
100
AcDb2dVertex
62
5
10
29.432735
20
21.243632
0
VERTEX
5
8e0
100
AcDbEntity
8
0
100
AcDbVertex
100
AcDb2dVertex
62
5
10
29.434102
20
21.243103
0
VERTEX
5
8e1
100
AcDbEntity
8
0
100
AcDbVertex
100
AcDb2dVertex
62
5
10
29.435376
20
21.242602
0
VERTEX
5
8e2
100
AcDbEntity
8
0
100
AcDbVertex
100
AcDb2dVertex
62
5
10
29.436569
20
21.242124
0
VERTEX
5
8e3
100
AcDbEntity
8
0
100
AcDbVertex
100
AcDb2dVertex
62
5
10
29.437694
20
21.241665
0
VERTEX
5
8e4
100
AcDbEntity
8
0
100
AcDbVertex
100
AcDb2dVertex
62
5
10
29.438766
20
21.241223
0
VERTEX
5
8e5
100
AcDbEntity
8
0
100
AcDbVertex
100
AcDb2dVertex
62
5
10
29.439798
20
21.240792
0
VERTEX
5
8e6
100
AcDbEntity
8
0
100
AcDbVertex
100
AcDb2dVertex
62
5
10
29.440803
20
21.240369
0
VERTEX
5
8e7
100
AcDbEntity
8
0
100
AcDbVertex
100
AcDb2dVertex
62
5
10
29.441794
20
21.239950
0
SEQEND
5
8e8
100
AcDbEntity
8
0
0
LINE
5
8e9
100
AcDbEntity
8
0
100
AcDbLine
6
CONTINUOUS
62
5
10
29.479077
20
21.206033
11
29.479077
21
28.601865
0
LINE
5
8ea
100
AcDbEntity
8
0
100
AcDbLine
6
CONTINUOUS
62
5
10
29.242555
20
21.290182
11
29.242555
21
28.601865
0
LINE
5
8eb
100
AcDbEntity
8
0
100
AcDbLine
6
CONTINUOUS
62
5
10
29.441794
20
28.601865
11
29.441794
21
21.239950
0
LINE
5
8ec
100
AcDbEntity
8
0
100
AcDbLine
6
CONTINUOUS
62
5
10
29.159650
20
21.201865
11
28.087064
21
21.201865
0
LINE
5
8ed
100
AcDbEntity
8
0
100
AcDbLine
6
CONTINUOUS
62
5
10
28.087064
20
21.301865
11
29.159650
21
21.301865
0
POLYLINE
5
8ee
100
AcDbEntity
8
0
6
CONTINUOUS
62
5
100
AcDb2dPolyline
66
1
10
0.0
20
0.0
30
0.0
70
0
0
VERTEX
5
8ef
100
AcDbEntity
8
0
100
AcDbVertex
100
AcDb2dVertex
62
5
10
29.488066
20
20.770814
0
VERTEX
5
8f0
100
AcDbEntity
8
0
100
AcDbVertex
100
AcDb2dVertex
62
5
10
29.481353
20
20.785211
0
VERTEX
5
8f1
100
AcDbEntity
8
0
100
AcDbVertex
100
AcDb2dVertex
62
5
10
29.474611
20
20.799668
0
VERTEX
5
8f2
100
AcDbEntity
8
0
100
AcDbVertex
100
AcDb2dVertex
62
5
10
29.467852
20
20.814163
0
VERTEX
5
8f3
100
AcDbEntity
8
0
100
AcDbVertex
100
AcDb2dVertex
62
5
10
29.461086
20
20.828673
0
VERTEX
5
8f4
100
AcDbEntity
8
0
100
AcDbVertex
100
AcDb2dVertex
62
5
10
29.454324
20
20.843174
0
VERTEX
5
8f5
100
AcDbEntity
8
0
100
AcDbVertex
100
AcDb2dVertex
62
5
10
29.447577
20
20.857643
0
VERTEX
5
8f6
100
AcDbEntity
8
0
100
AcDbVertex
100
AcDb2dVertex
62
5
10
29.440855
20
20.872058
0
VERTEX
5
8f7
100
AcDbEntity
8
0
100
AcDbVertex
100
AcDb2dVertex
62
5
10
29.434170
20
20.886395
0
VERTEX
5
8f8
100
AcDbEntity
8
0
100
AcDbVertex
100
AcDb2dVertex
62
5
10
29.427531
20
20.900632
0
VERTEX
5
8f9
100
AcDbEntity
8
0
100
AcDbVertex
100
AcDb2dVertex
62
5
10
29.420950
20
20.914744
0
VERTEX
5
8fa
100
AcDbEntity
8
0
100
AcDbVertex
100
AcDb2dVertex
62
5
10
29.414438
20
20.928710
0
VERTEX
5
8fb
100
AcDbEntity
8
0
100
AcDbVertex
100
AcDb2dVertex
62
5
10
29.408005
20
20.942505
0
VERTEX
5
8fc
100
AcDbEntity
8
0
100
AcDbVertex
100
AcDb2dVertex
62
5
10
29.401662
20
20.956108
0
VERTEX
5
8fd
100
AcDbEntity
8
0
100
AcDbVertex
100
AcDb2dVertex
62
5
10
29.395420
20
20.969494
0
VERTEX
5
8fe
100
AcDbEntity
8
0
100
AcDbVertex
100
AcDb2dVertex
62
5
10
29.389290
20
20.982641
0
VERTEX
5
8ff
100
AcDbEntity
8
0
100
AcDbVertex
100
AcDb2dVertex
62
5
10
29.383281
20
20.995525
0
VERTEX
5
900
100
AcDbEntity
8
0
100
AcDbVertex
100
AcDb2dVertex
62
5
10
29.377406
20
21.008124
0
VERTEX
5
901
100
AcDbEntity
8
0
100
AcDbVertex
100
AcDb2dVertex
62
5
10
29.371675
20
21.020415
0
VERTEX
5
902
100
AcDbEntity
8
0
100
AcDbVertex
100
AcDb2dVertex
62
5
10
29.366098
20
21.032374
0
VERTEX
5
903
100
AcDbEntity
8
0
100
AcDbVertex
100
AcDb2dVertex
62
5
10
29.360687
20
21.043979
0
VERTEX
5
904
100
AcDbEntity
8
0
100
AcDbVertex
100
AcDb2dVertex
62
5
10
29.355452
20
21.055206
0
VERTEX
5
905
100
AcDbEntity
8
0
100
AcDbVertex
100
AcDb2dVertex
62
5
10
29.350404
20
21.066032
0
VERTEX
5
906
100
AcDbEntity
8
0
100
AcDbVertex
100
AcDb2dVertex
62
5
10
29.345553
20
21.076434
0
VERTEX
5
907
100
AcDbEntity
8
0
100
AcDbVertex
100
AcDb2dVertex
62
5
10
29.340911
20
21.086389
0
SEQEND
5
908
100
AcDbEntity
8
0
0
LINE
5
909
100
AcDbEntity
8
0
100
AcDbLine
6
CONTINUOUS
62
5
10
29.578697
20
20.813076
11
29.488066
21
20.770814
0
POLYLINE
5
90a
100
AcDbEntity
8
0
6
CONTINUOUS
62
5
100
AcDb2dPolyline
66
1
10
0.0
20
0.0
30
0.0
70
0
0
VERTEX
5
90b
100
AcDbEntity
8
0
100
AcDbVertex
100
AcDb2dVertex
62
5
10
29.505119
20
21.128651
0
VERTEX
5
90c
100
AcDbEntity
8
0
100
AcDbVertex
100
AcDb2dVertex
62
5
10
29.506892
20
21.120862
0
VERTEX
5
90d
100
AcDbEntity
8
0
100
AcDbVertex
100
AcDb2dVertex
62
5
10
29.508666
20
21.113073
0
VERTEX
5
90e
100
AcDbEntity
8
0
100
AcDbVertex
100
AcDb2dVertex
62
5
10
29.510441
20
21.105281
0
VERTEX
5
90f
100
AcDbEntity
8
0
100
AcDbVertex
100
AcDb2dVertex
62
5
10
29.512218
20
21.097486
0
VERTEX
5
910
100
AcDbEntity
8
0
100
AcDbVertex
100
AcDb2dVertex
62
5
10
29.513998
20
21.089685
0
VERTEX
5
911
100
AcDbEntity
8
0
100
AcDbVertex
100
AcDb2dVertex
62
5
10
29.515781
20
21.081879
0
VERTEX
5
912
100
AcDbEntity
8
0
100
AcDbVertex
100
AcDb2dVertex
62
5
10
29.517569
20
21.074065
0
VERTEX
5
913
100
AcDbEntity
8
0
100
AcDbVertex
100
AcDb2dVertex
62
5
10
29.519361
20
21.066243
0
VERTEX
5
914
100
AcDbEntity
8
0
100
AcDbVertex
100
AcDb2dVertex
62
5
10
29.521160
20
21.058412
0
VERTEX
5
915
100
AcDbEntity
8
0
100
AcDbVertex
100
AcDb2dVertex
62
5
10
29.522964
20
21.050569
0
VERTEX
5
916
100
AcDbEntity
8
0
100
AcDbVertex
100
AcDb2dVertex
62
5
10
29.524775
20
21.042716
0
VERTEX
5
917
100
AcDbEntity
8
0
100
AcDbVertex
100
AcDb2dVertex
62
5
10
29.526592
20
21.034854
0
VERTEX
5
918
100
AcDbEntity
8
0
100
AcDbVertex
100
AcDb2dVertex
62
5
10
29.528414
20
21.026982
0
VERTEX
5
919
100
AcDbEntity
8
0
100
AcDbVertex
100
AcDb2dVertex
62
5
10
29.530241
20
21.019102
0
VERTEX
5
91a
100
AcDbEntity
8
0
100
AcDbVertex
100
AcDb2dVertex
62
5
10
29.532074
20
21.011215
0
VERTEX
5
91b
100
AcDbEntity
8
0
100
AcDbVertex
100
AcDb2dVertex
62
5
10
29.533910
20
21.003320
0
VERTEX
5
91c
100
AcDbEntity
8
0
100
AcDbVertex
100
AcDb2dVertex
62
5
10
29.535752
20
20.995419
0
VERTEX
5
91d
100
AcDbEntity
8
0
100
AcDbVertex
100
AcDb2dVertex
62
5
10
29.537597
20
20.987513
0
VERTEX
5
91e
100
AcDbEntity
8
0
100
AcDbVertex
100
AcDb2dVertex
62
5
10
29.539445
20
20.979602
0
VERTEX
5
91f
100
AcDbEntity
8
0
100
AcDbVertex
100
AcDb2dVertex
62
5
10
29.541297
20
20.971687
0
VERTEX
5
920
100
AcDbEntity
8
0
100
AcDbVertex
100
AcDb2dVertex
62
5
10
29.543152
20
20.963769
0
VERTEX
5
921
100
AcDbEntity
8
0
100
AcDbVertex
100
AcDb2dVertex
62
5
10
29.545009
20
20.955848
0
VERTEX
5
922
100
AcDbEntity
8
0
100
AcDbVertex
100
AcDb2dVertex
62
5
10
29.546869
20
20.947925
0
VERTEX
5
923
100
AcDbEntity
8
0
100
AcDbVertex
100
AcDb2dVertex
62
5
10
29.548730
20
20.940001
0
VERTEX
5
924
100
AcDbEntity
8
0
100
AcDbVertex
100
AcDb2dVertex
62
5
10
29.550594
20
20.932075
0
VERTEX
5
925
100
AcDbEntity
8
0
100
AcDbVertex
100
AcDb2dVertex
62
5
10
29.552459
20
20.924148
0
VERTEX
5
926
100
AcDbEntity
8
0
100
AcDbVertex
100
AcDb2dVertex
62
5
10
29.554326
20
20.916219
0
VERTEX
5
927
100
AcDbEntity
8
0
100
AcDbVertex
100
AcDb2dVertex
62
5
10
29.556195
20
20.908290
0
VERTEX
5
928
100
AcDbEntity
8
0
100
AcDbVertex
100
AcDb2dVertex
62
5
10
29.558065
20
20.900359
0
VERTEX
5
929
100
AcDbEntity
8
0
100
AcDbVertex
100
AcDb2dVertex
62
5
10
29.559936
20
20.892427
0
VERTEX
5
92a
100
AcDbEntity
8
0
100
AcDbVertex
100
AcDb2dVertex
62
5
10
29.561809
20
20.884495
0
VERTEX
5
92b
100
AcDbEntity
8
0
100
AcDbVertex
100
AcDb2dVertex
62
5
10
29.563683
20
20.876561
0
VERTEX
5
92c
100
AcDbEntity
8
0
100
AcDbVertex
100
AcDb2dVertex
62
5
10
29.565557
20
20.868627
0
VERTEX
5
92d
100
AcDbEntity
8
0
100
AcDbVertex
100
AcDb2dVertex
62
5
10
29.567433
20
20.860693
0
VERTEX
5
92e
100
AcDbEntity
8
0
100
AcDbVertex
100
AcDb2dVertex
62
5
10
29.569309
20
20.852757
0
VERTEX
5
92f
100
AcDbEntity
8
0
100
AcDbVertex
100
AcDb2dVertex
62
5
10
29.571186
20
20.844822
0
VERTEX
5
930
100
AcDbEntity
8
0
100
AcDbVertex
100
AcDb2dVertex
62
5
10
29.573063
20
20.836885
0
VERTEX
5
931
100
AcDbEntity
8
0
100
AcDbVertex
100
AcDb2dVertex
62
5
10
29.574941
20
20.828949
0
VERTEX
5
932
100
AcDbEntity
8
0
100
AcDbVertex
100
AcDb2dVertex
62
5
10
29.576819
20
20.821013
0
VERTEX
5
933
100
AcDbEntity
8
0
100
AcDbVertex
100
AcDb2dVertex
62
5
10
29.578697
20
20.813076
0
SEQEND
5
934
100
AcDbEntity
8
0
0
LINE
5
935
100
AcDbEntity
8
0
100
AcDbLine
6
CONTINUOUS
62
5
10
29.932678
20
19.817341
11
29.488066
21
20.770814
0
LINE
5
936
100
AcDbEntity
8
0
100
AcDbLine
6
CONTINUOUS
62
5
10
29.578697
20
20.813076
11
30.023308
21
19.859603
0
LINE
5
937
100
AcDbEntity
8
0
100
AcDbLine
6
CONTINUOUS
62
5
10
29.578697
20
28.601865
11
29.578697
21
20.813076
0
ARC
5
938
100
AcDbEntity
8
0
100
AcDbCircle
6
CONTINUOUS
62
5
10
30.487064
20
42.101865
40
12.000000
100
AcDbArc
50
-67.380134
51
89.999999
0
ARC
5
939
100
AcDbEntity
8
0
100
AcDbCircle
6
CONTINUOUS
62
5
10
30.487064
20
42.101865
40
11.900000
100
AcDbArc
50
-67.380134
51
89.999999
0
ARC
5
93a
100
AcDbEntity
8
0
100
AcDbCircle
6
CONTINUOUS
62
5
10
30.487064
20
42.101865
40
12.000000
100
AcDbArc
50
89.999999
51
-109.783169
0
ARC
5
93b
100
AcDbEntity
8
0
100
AcDbCircle
6
CONTINUOUS
62
5
10
30.487064
20
42.101865
40
11.900000
100
AcDbArc
50
89.999999
51
-109.783169
0
LINE
5
93c
100
AcDbEntity
8
1
100
AcDbLine
6
CONTINUOUS
62
5
10
40.000000
20
340.000000
11
40.000000
21
308.000000
0
LINE
5
93d
100
AcDbEntity
8
1
100
AcDbLine
6
CONTINUOUS
62
5
10
0.000000
20
308.000000
11
320.000000
21
308.000000
0
LINE
5
93e
100
AcDbEntity
8
0
100
AcDbLine
6
CONTINUOUS
62
5
10
84.987064
20
223.500000
11
55.987064
21
223.500000
0
LINE
5
93f
100
AcDbEntity
8
0
100
AcDbLine
6
CONTINUOUS
62
5
10
84.987064
20
66.500000
11
55.987064
21
66.500000
0
POLYLINE
5
940
100
AcDbEntity
8
0
6
CONTINUOUS
62
5
100
AcDb2dPolyline
66
1
10
0.0
20
0.0
30
0.0
70
0
0
VERTEX
5
941
100
AcDbEntity
8
0
100
AcDbVertex
100
AcDb2dVertex
62
5
10
57.987064
20
145.000000
0
VERTEX
5
942
100
AcDbEntity
8
0
100
AcDbVertex
100
AcDb2dVertex
62
5
10
57.987064
20
66.500000
0
VERTEX
5
943
100
AcDbEntity
8
0
100
AcDbVertex
100
AcDb2dVertex
62
5
10
56.987064
20
72.500000
0
VERTEX
5
944
100
AcDbEntity
8
0
100
AcDbVertex
100
AcDb2dVertex
62
5
10
58.987064
20
72.500000
0
VERTEX
5
945
100
AcDbEntity
8
0
100
AcDbVertex
100
AcDb2dVertex
62
5
10
57.987064
20
66.500000
0
VERTEX
5
946
100
AcDbEntity
8
0
100
AcDbVertex
100
AcDb2dVertex
62
5
10
57.487064
20
72.500000
0
VERTEX
5
947
100
AcDbEntity
8
0
100
AcDbVertex
100
AcDb2dVertex
62
5
10
58.487064
20
72.500000
0
VERTEX
5
948
100
AcDbEntity
8
0
100
AcDbVertex
100
AcDb2dVertex
62
5
10
57.987064
20
66.500000
0
SEQEND
5
949
100
AcDbEntity
8
0
0
POLYLINE
5
94a
100
AcDbEntity
8
0
6
CONTINUOUS
62
5
100
AcDb2dPolyline
66
1
10
0.0
20
0.0
30
0.0
70
0
0
VERTEX
5
94b
100
AcDbEntity
8
0
100
AcDbVertex
100
AcDb2dVertex
62
5
10
57.987064
20
145.000000
0
VERTEX
5
94c
100
AcDbEntity
8
0
100
AcDbVertex
100
AcDb2dVertex
62
5
10
57.987064
20
223.500000
0
VERTEX
5
94d
100
AcDbEntity
8
0
100
AcDbVertex
100
AcDb2dVertex
62
5
10
58.987064
20
217.500000
0
VERTEX
5
94e
100
AcDbEntity
8
0
100
AcDbVertex
100
AcDb2dVertex
62
5
10
56.987064
20
217.500000
0
VERTEX
5
94f
100
AcDbEntity
8
0
100
AcDbVertex
100
AcDb2dVertex
62
5
10
57.987064
20
223.500000
0
VERTEX
5
950
100
AcDbEntity
8
0
100
AcDbVertex
100
AcDb2dVertex
62
5
10
58.487064
20
217.500000
0
VERTEX
5
951
100
AcDbEntity
8
0
100
AcDbVertex
100
AcDb2dVertex
62
5
10
57.487064
20
217.500000
0
VERTEX
5
952
100
AcDbEntity
8
0
100
AcDbVertex
100
AcDb2dVertex
62
5
10
57.987064
20
223.500000
0
SEQEND
5
953
100
AcDbEntity
8
0
0
LINE
5
954
100
AcDbEntity
8
0
100
AcDbLine
6
CONTINUOUS
62
5
10
234.637064
20
105.500000
11
234.637064
21
198.500000
0
ARC
5
955
100
AcDbEntity
8
0
100
AcDbCircle
6
CONTINUOUS
62
5
10
220.729684
20
68.301116
40
0.300000
100
AcDbArc
50
-89.999999
51
-0.000000
0
LINE
5
956
100
AcDbEntity
8
0
100
AcDbLine
6
CONTINUOUS
62
5
10
220.729684
20
68.001116
11
212.529684
21
68.001116
0
ARC
5
957
100
AcDbEntity
8
0
100
AcDbCircle
6
CONTINUOUS
62
5
10
212.529684
20
69.501116
40
1.500000
100
AcDbArc
50
179.999998
51
-89.999999
0
LINE
5
958
100
AcDbEntity
8
0
100
AcDbLine
6
CONTINUOUS
62
5
10
211.029684
20
69.501116
11
210.987064
21
194.415907
0
LINE
5
959
100
AcDbEntity
8
0
100
AcDbLine
6
CONTINUOUS
62
5
10
220.987064
20
217.000000
11
221.029684
21
68.301116
0
ARC
5
95a
100
AcDbEntity
8
0
100
AcDbCircle
6
CONTINUOUS
62
5
10
221.437064
20
221.700000
40
0.300000
100
AcDbArc
50
89.999999
51
179.999998
0
LINE
5
95b
100
AcDbEntity
8
0
100
AcDbLine
6
CONTINUOUS
62
5
10
221.437064
20
222.000000
11
223.137064
21
222.000000
0
LINE
5
95c
100
AcDbEntity
8
0
100
AcDbLine
6
CONTINUOUS
62
5
10
223.137064
20
68.000000
11
221.437064
21
68.000000
0
ARC
5
95d
100
AcDbEntity
8
0
100
AcDbCircle
6
CONTINUOUS
62
5
10
221.437064
20
68.300000
40
0.300000
100
AcDbArc
50
179.999998
51
-89.999999
0
LINE
5
95e
100
AcDbEntity
8
0
100
AcDbLine
6
CONTINUOUS
62
5
10
221.137064
20
68.300000
11
221.137064
21
221.700000
0
POLYLINE
5
95f
100
AcDbEntity
8
0
6
CONTINUOUS
62
5
100
AcDb2dPolyline
66
1
10
0.0
20
0.0
30
0.0
70
1
0
VERTEX
5
960
100
AcDbEntity
8
0
100
AcDbVertex
100
AcDb2dVertex
62
5
10
230.137064
20
223.500000
0
VERTEX
5
961
100
AcDbEntity
8
0
100
AcDbVertex
100
AcDb2dVertex
62
5
10
223.137064
20
223.500000
0
VERTEX
5
962
100
AcDbEntity
8
0
100
AcDbVertex
100
AcDb2dVertex
62
5
10
223.137064
20
66.500000
0
VERTEX
5
963
100
AcDbEntity
8
0
100
AcDbVertex
100
AcDb2dVertex
62
5
10
230.137064
20
66.500000
0
SEQEND
5
964
100
AcDbEntity
8
0
0
ARC
5
965
100
AcDbEntity
8
0
100
AcDbCircle
6
CONTINUOUS
62
5
10
86.487064
20
70.000000
40
2.000000
100
AcDbArc
50
179.999998
51
-89.999999
0
LINE
5
966
100
AcDbEntity
8
0
100
AcDbLine
6
CONTINUOUS
62
5
10
84.487064
20
70.000000
11
84.487064
21
220.000000
0
ARC
5
967
100
AcDbEntity
8
0
100
AcDbCircle
6
CONTINUOUS
62
5
10
86.487064
20
220.000000
40
2.000000
100
AcDbArc
50
89.999999
51
179.999998
0
LINE
5
968
100
AcDbEntity
8
0
100
AcDbLine
6
CONTINUOUS
62
5
10
86.487064
20
222.000000
11
152.487064
21
222.000000
0
ARC
5
969
100
AcDbEntity
8
0
100
AcDbCircle
6
CONTINUOUS
62
5
10
152.487064
20
220.000000
40
2.000000
100
AcDbArc
50
0.000000
51
89.999999
0
LINE
5
96a
100
AcDbEntity
8
0
100
AcDbLine
6
CONTINUOUS
62
5
10
154.487064
20
220.000000
11
154.487064
21
70.000000
0
ARC
5
96b
100
AcDbEntity
8
0
100
AcDbCircle
6
CONTINUOUS
62
5
10
152.487064
20
70.000000
40
2.000000
100
AcDbArc
50
-89.999999
51
0.000000
0
LINE
5
96c
100
AcDbEntity
8
0
100
AcDbLine
6
CONTINUOUS
62
5
10
152.487064
20
68.000000
11
86.487064
21
68.000000
0
ARC
5
96d
100
AcDbEntity
8
0
100
AcDbCircle
6
CONTINUOUS
62
5
10
86.487064
20
70.000000
40
3.500000
100
AcDbArc
50
179.999998
51
-89.999999
0
LINE
5
96e
100
AcDbEntity
8
0
100
AcDbLine
6
CONTINUOUS
62
5
10
86.487064
20
66.500000
11
152.487064
21
66.500000
0
ARC
5
96f
100
AcDbEntity
8
0
100
AcDbCircle
6
CONTINUOUS
62
5
10
152.487064
20
70.000000
40
3.500000
100
AcDbArc
50
-89.999999
51
0.000000
0
LINE
5
970
100
AcDbEntity
8
0
100
AcDbLine
6
CONTINUOUS
62
5
10
155.987064
20
70.000000
11
155.987064
21
220.000000
0
ARC
5
971
100
AcDbEntity
8
0
100
AcDbCircle
6
CONTINUOUS
62
5
10
152.487064
20
220.000000
40
3.500000
100
AcDbArc
50
0.000000
51
89.999999
0
LINE
5
972
100
AcDbEntity
8
0
100
AcDbLine
6
CONTINUOUS
62
5
10
152.487064
20
223.500000
11
86.487064
21
223.500000
0
ARC
5
973
100
AcDbEntity
8
0
100
AcDbCircle
6
CONTINUOUS
62
5
10
86.487064
20
220.000000
40
3.500000
100
AcDbArc
50
89.999999
51
179.999998
0
LINE
5
974
100
AcDbEntity
8
0
100
AcDbLine
6
CONTINUOUS
62
5
10
82.987064
20
220.000000
11
82.987064
21
70.000000
0
POLYLINE
5
975
100
AcDbEntity
8
0
6
CONTINUOUS
62
5
100
AcDb2dPolyline
66
1
10
0.0
20
0.0
30
0.0
70
0
0
VERTEX
5
976
100
AcDbEntity
8
0
100
AcDbVertex
100
AcDb2dVertex
62
5
10
230.137064
20
106.500000
0
VERTEX
5
977
100
AcDbEntity
8
0
100
AcDbVertex
100
AcDb2dVertex
62
5
10
233.637064
20
106.500000
0
VERTEX
5
978
100
AcDbEntity
8
0
100
AcDbVertex
100
AcDb2dVertex
62
5
10
234.637064
20
105.500000
0
VERTEX
5
979
100
AcDbEntity
8
0
100
AcDbVertex
100
AcDb2dVertex
62
5
10
235.137064
20
105.500000
0
VERTEX
5
97a
100
AcDbEntity
8
0
100
AcDbVertex
100
AcDb2dVertex
62
5
10
235.137064
20
198.500000
0
VERTEX
5
97b
100
AcDbEntity
8
0
100
AcDbVertex
100
AcDb2dVertex
62
5
10
234.637064
20
198.500000
0
VERTEX
5
97c
100
AcDbEntity
8
0
100
AcDbVertex
100
AcDb2dVertex
62
5
10
233.637064
20
197.500000
0
VERTEX
5
97d
100
AcDbEntity
8
0
100
AcDbVertex
100
AcDb2dVertex
62
5
10
230.137064
20
197.500000
0
SEQEND
5
97e
100
AcDbEntity
8
0
0
LINE
5
97f
100
AcDbEntity
8
0
100
AcDbLine
6
CONTINUOUS
62
5
10
233.637064
20
197.500000
11
233.637064
21
106.500000
0
POLYLINE
5
980
100
AcDbEntity
8
1
6
CONTINUOUS
62
5
100
AcDb2dPolyline
66
1
10
0.0
20
0.0
30
0.0
70
1
0
VERTEX
5
981
100
AcDbEntity
8
1
100
AcDbVertex
100
AcDb2dVertex
62
5
10
0.000000
20
0.000000
0
VERTEX
5
982
100
AcDbEntity
8
1
100
AcDbVertex
100
AcDb2dVertex
62
5
10
0.000000
20
340.000000
0
VERTEX
5
983
100
AcDbEntity
8
1
100
AcDbVertex
100
AcDb2dVertex
62
5
10
320.000000
20
340.000000
0
VERTEX
5
984
100
AcDbEntity
8
1
100
AcDbVertex
100
AcDb2dVertex
62
5
10
320.000000
20
0.000000
0
VERTEX
5
985
100
AcDbEntity
8
1
100
AcDbVertex
100
AcDb2dVertex
62
5
10
0.000000
20
0.000000
0
SEQEND
5
986
100
AcDbEntity
8
1
0
ENDSEC
0
SECTION
2
OBJECTS
0
DICTIONARY
5
987
100
AcDbDictionary
3
ACAD_GROUP
350
988
3
ACAD_MLINESTYLE
350
989
0
DICTIONARY
5
988
102
{ACAD_REACTORS
330
987
102
}
100
AcDbDictionary
0
DICTIONARY
5
989
102
{ACAD_REACTORS
330
987
102
}
100
AcDbDictionary
3
STANDARD
350
98a
0
MLINESTYLE
5
98a
102
{ACAD_REACTORS
330
989
102
}
100
AcDbMlineStyle
2
STANDARD
70
0
3

62
0
51
90.0
52
90.0
71
2
49
0.5
62
256
6
BYLAYER
49
-0.5
62
256
6
BYLAYER
0
ENDSEC
0
EOF
