0
SECTION
2
HEADER
9
$ACADVER
1
AC1012
9
$EXTMIN
10
-0.013701
20
-0.013701
30
0.0
9
$EXTMAX
10
12.606299
20
13.386299
30
0.0
9
$LIMMIN
10
-0.348005
20
-0.348005
9
$LIMMAX
10
320.199995
20
340.011995
9
$DIMSCALE
40
1.000000
9
$PDMODE
70
2
9
$PDSIZE
40
0.0
  9
$HANDSEED
  5
68b
0
ENDSEC
0
SECTION
2
CLASSES
0
ENDSEC
0
SECTION
2
TABLES
0
TABLE
2
LTYPE
5
1e
100
AcDbSymbolTable
70
12
0
LTYPE
5
1f
100
AcDbSymbolTableRecord
100
AcDbLinetypeTableRecord
2
BYBLOCK
70
0
3

72
65
73
0
40
0.0
0
LTYPE
5
20
100
AcDbSymbolTableRecord
100
AcDbLinetypeTableRecord
2
BYLAYER
70
0
3

72
65
73
0
40
0.0
0
LTYPE
5
21
100
AcDbSymbolTableRecord
100
AcDbLinetypeTableRecord
2
CONTINUOUS
70
64
3
Solid line
72
65
73
0
40
0.0
0
LTYPE
5
22
100
AcDbSymbolTableRecord
100
AcDbLinetypeTableRecord
2
DASHED
70
64
3
__ __ __ __ __ __ __ __ __ __ __ __ __ __ __
72
65
73
2
40
0.75
49
0.5
74
0
49
-0.25
74
0
0
LTYPE
5
23
100
AcDbSymbolTableRecord
100
AcDbLinetypeTableRecord
2
DOT
70
64
3
...............................................
72
65
73
2
40
0.25
49
0.0
74
0
49
-0.25
74
0
0
LTYPE
5
24
100
AcDbSymbolTableRecord
100
AcDbLinetypeTableRecord
2
DASHDOT
70
64
3
__ . __ . __ . __ . __ . __ . __ . __ . __ . --
72
65
73
4
40
1.0
49
0.5
74
0
49
-0.25
74
0
49
0.0
74
0
49
-0.25
74
0
0
LTYPE
5
25
100
AcDbSymbolTableRecord
100
AcDbLinetypeTableRecord
2
CENTER
70
64
3
____ _ ____ _ ____ _ ____ _ ____ _ ____ _ ____
72
65
73
4
40
2.0
49
1.25
74
0
49
-0.25
74
0
49
0.25
74
0
49
-0.25
74
0
0
LTYPE
5
26
100
AcDbSymbolTableRecord
100
AcDbLinetypeTableRecord
2
PHANTOM
70
64
3
_____ _ _ _____ _ _ _____ _ _ _____ _ _ ____
72
65
73
6
40
2.5
49
1.25
74
0
49
-0.25
74
0
49
0.25
74
0
49
-0.25
74
0
49
0.25
74
0
49
-0.25
74
0
0
LTYPE
5
27
100
AcDbSymbolTableRecord
100
AcDbLinetypeTableRecord
2
HIDDEN
70
64
3
_ _ _ _ _ _ _ _ _ _ _ _ _ _ _ _ _ _ _ _ _ _ _
72
65
73
2
40
0.375
49
0.25
74
0
49
-0.125
74
0
0
LTYPE
5
28
100
AcDbSymbolTableRecord
100
AcDbLinetypeTableRecord
2
BORDER
70
64
3
__ __ . __ __ . __ __ . __ __ . __ __ . __ __
72
65
73
6
40
1.75
49
0.5
74
0
49
-0.25
74
0
49
0.5
74
0
49
-0.25
74
0
49
0.0
74
0
49
-0.25
74
0
0
LTYPE
5
29
100
AcDbSymbolTableRecord
100
AcDbLinetypeTableRecord
2
DIVIDE
70
64
3
__ . . __ . . __ . . __ . . __ . . __ . . __
72
65
73
6
40
1.25
49
0.5
74
0
49
-0.25
74
0
49
0.0
74
0
49
-0.25
74
0
49
0.0
74
0
49
-0.25
74
0
0
LTYPE
5
2a
100
AcDbSymbolTableRecord
100
AcDbLinetypeTableRecord
2
DOT2
70
64
3
...............................................
72
65
73
2
40
0.125
49
0.0
74
0
49
-0.125
74
0
0
ENDTAB
0
TABLE
2
STYLE
5
2b
100
AcDbSymbolTable
70
1
0
STYLE
5
2c
100
AcDbSymbolTableRecord
100
AcDbTextStyleTableRecord
2
STANDARD
70
64
40
0.0
41
1.0
50
0.0
71
0
42
5.0
3
txt
4
bigfont
0
ENDTAB
0
TABLE
2
LAYER
5
2d
100
AcDbSymbolTable
70
3
0
LAYER
5
2e
100
AcDbSymbolTableRecord
100
AcDbLayerTableRecord
2
0
70
0
62
7
6
CONTINUOUS
0
LAYER
5
2f
100
AcDbSymbolTableRecord
100
AcDbLayerTableRecord
2
1
70
0
62
7
6
CONTINUOUS
0
LAYER
5
30
100
AcDbSymbolTableRecord
100
AcDbLayerTableRecord
2
2
70
0
62
7
6
CONTINUOUS
0
ENDTAB
0
TABLE
2
APPID
5
31
100
AcDbSymbolTable
70
1
0
APPID
5
32
100
AcDbSymbolTableRecord
100
AcDbRegAppTableRecord
2
ACAD
70
64
0
ENDTAB
0
TABLE
2
DIMSTYLE
5
33
100
AcDbSymbolTable
70
0
0
ENDTAB
0
TABLE
2
UCS
5
34
100
AcDbSymbolTable
70
0
0
ENDTAB
0
TABLE
2
VIEW
5
35
100
AcDbSymbolTable
70
0
0
ENDTAB
0
TABLE
2
VPORT
5
36
100
AcDbSymbolTable
70
0
0
ENDTAB
0
TABLE
2
BLOCK_RECORD
5
37
100
AcDbSymbolTable
70
0
0
BLOCK_RECORD
5
38
100
AcDbSymbolTableRecord
100
AcDbBlockTableRecord
2
*MODEL_SPACE
0
BLOCK_RECORD
5
39
100
AcDbSymbolTableRecord
100
AcDbBlockTableRecord
2
*PAPER_SPACE
0
BLOCK_RECORD
5
3a
100
AcDbSymbolTableRecord
100
AcDbBlockTableRecord
2
OPEN
0
BLOCK_RECORD
5
3b
100
AcDbSymbolTableRecord
100
AcDbBlockTableRecord
2
HALF
0
BLOCK_RECORD
5
3c
100
AcDbSymbolTableRecord
100
AcDbBlockTableRecord
2
CLOSEDBLANK
0
BLOCK_RECORD
5
3d
100
AcDbSymbolTableRecord
100
AcDbBlockTableRecord
2
HALFCLOSE_R
0
BLOCK_RECORD
5
3e
100
AcDbSymbolTableRecord
100
AcDbBlockTableRecord
2
DOT
0
BLOCK_RECORD
5
3f
100
AcDbSymbolTableRecord
100
AcDbBlockTableRecord
2
HALFOPEN_R
0
BLOCK_RECORD
5
40
100
AcDbSymbolTableRecord
100
AcDbBlockTableRecord
2
CLOSEDF
0
BLOCK_RECORD
5
41
100
AcDbSymbolTableRecord
100
AcDbBlockTableRecord
2
HALF_R
0
ENDTAB
0
ENDSEC
0
SECTION
2
BLOCKS
0
BLOCK
5
42
100
AcDbEntity
8
0
100
AcDbBlockBegin
2
*MODEL_SPACE
70
0
10
0.0
20
0.0
30
0.0
3
*MODEL_SPACE
1

0
ENDBLK
5
43
100
AcDbEntity
8
0
100
AcDbBlockEnd
0
BLOCK
5
44
100
AcDbEntity
67
1
8
0
100
AcDbBlockBegin
2
*PAPER_SPACE
70
0
10
0.0
20
0.0
30
0.0
3
*PAPER_SPACE
1

0
ENDBLK
5
45
100
AcDbEntity
67
1
8
0
100
AcDbBlockEnd
0
BLOCK
5
46
100
AcDbEntity
8
0
100
AcDbBlockBegin
2
OPEN
70
0
10
0.0
20
0.0
30
0.0
3
OPEN
1

0
LINE
5
47
100
AcDbEntity
8
0
6
BYBLOCK
62
0
100
AcDbLine
10
0.000000
20
0.000000
11
-1.000000
21
0.000000
0
LINE
5
48
100
AcDbEntity
8
0
6
BYBLOCK
62
0
100
AcDbLine
10
-1.000000
20
-0.166667
11
0.000000
21
0.000000
0
LINE
5
49
100
AcDbEntity
8
0
6
BYBLOCK
62
0
100
AcDbLine
10
-1.000000
20
0.166667
11
0.000000
21
0.000000
0
ENDBLK
5
4a
100
AcDbEntity
8
0
100
AcDbBlockEnd
0
BLOCK
5
4b
100
AcDbEntity
8
0
100
AcDbBlockBegin
2
HALF
70
0
10
0.0
20
0.0
30
0.0
3
HALF
1

0
SOLID
5
4c
100
AcDbEntity
8
0
6
BYBLOCK
62
0
100
AcDbTrace
10
-1.000000
20
0.166667
11
-1.000000
21
-0.166667
12
0.000000
22
0.000000
13
0.000000
23
0.000000
0
ENDBLK
5
4d
100
AcDbEntity
8
0
100
AcDbBlockEnd
0
BLOCK
5
4e
100
AcDbEntity
8
0
100
AcDbBlockBegin
2
CLOSEDBLANK
70
0
10
0.0
20
0.0
30
0.0
3
CLOSEDBLANK
1

0
LINE
5
4f
100
AcDbEntity
8
0
6
BYBLOCK
62
0
100
AcDbLine
10
-1.000000
20
0.166667
11
-1.000000
21
-0.166667
0
LINE
5
50
100
AcDbEntity
8
0
6
BYBLOCK
62
0
100
AcDbLine
10
0.000000
20
0.000000
11
-1.000000
21
-0.166667
0
LINE
5
51
100
AcDbEntity
8
0
6
BYBLOCK
62
0
100
AcDbLine
10
-1.000000
20
0.166667
11
0.000000
21
0.000000
0
ENDBLK
5
52
100
AcDbEntity
8
0
100
AcDbBlockEnd
0
BLOCK
5
53
100
AcDbEntity
8
0
100
AcDbBlockBegin
2
HALFCLOSE_R
70
0
10
0.0
20
0.0
30
0.0
3
HALFCLOSE_R
1

0
LINE
5
54
100
AcDbEntity
8
0
6
BYBLOCK
62
0
100
AcDbLine
10
-1.000000
20
-0.166667
11
-1.000000
21
0.000000
0
LINE
5
55
100
AcDbEntity
8
0
6
BYBLOCK
62
0
100
AcDbLine
10
-1.000000
20
-0.166667
11
0.000000
21
0.000000
0
LINE
5
56
100
AcDbEntity
8
0
6
BYBLOCK
62
0
100
AcDbLine
10
0.000000
20
0.000000
11
-1.000000
21
0.000000
0
ENDBLK
5
57
100
AcDbEntity
8
0
100
AcDbBlockEnd
0
BLOCK
5
58
100
AcDbEntity
8
0
100
AcDbBlockBegin
2
DOT
70
0
10
0.0
20
0.0
30
0.0
3
DOT
1

0
LINE
5
59
100
AcDbEntity
8
0
6
BYBLOCK
62
0
100
AcDbLine
10
0.000000
20
0.000000
11
-1.000000
21
0.000000
0
POLYLINE
5
5a
100
AcDbEntity
8
0
6
BYBLOCK
62
0
100
AcDb2dPolyline
66
1
10
0.0
20
0.0
30
0.0
70
1
40
0.166667
41
0.166667
0
VERTEX
5
5b
100
AcDbEntity
8
0
100
AcDbVertex
100
AcDb2dVertex
62
10
10
-0.083333
20
0.000000
42
1.000000
0
VERTEX
5
5c
100
AcDbEntity
8
0
100
AcDbVertex
100
AcDb2dVertex
62
10
10
0.083333
20
0.000000
42
1.000000
0
SEQEND
5
5d
100
AcDbEntity
8
0
0
ENDBLK
5
5e
100
AcDbEntity
8
0
100
AcDbBlockEnd
0
BLOCK
5
5f
100
AcDbEntity
8
0
100
AcDbBlockBegin
2
HALFOPEN_R
70
0
10
0.0
20
0.0
30
0.0
3
HALFOPEN_R
1

0
LINE
5
60
100
AcDbEntity
8
0
6
BYBLOCK
62
0
100
AcDbLine
10
-1.000000
20
-0.166667
11
0.000000
21
0.000000
0
LINE
5
61
100
AcDbEntity
8
0
6
BYBLOCK
62
0
100
AcDbLine
10
0.000000
20
0.000000
11
-1.000000
21
0.000000
0
ENDBLK
5
62
100
AcDbEntity
8
0
100
AcDbBlockEnd
0
BLOCK
5
63
100
AcDbEntity
8
0
100
AcDbBlockBegin
2
CLOSEDF
70
0
10
0.0
20
0.0
30
0.0
3
CLOSEDF
1

0
SOLID
5
64
100
AcDbEntity
8
0
6
BYBLOCK
62
0
100
AcDbTrace
10
-1.000000
20
0.166667
11
-1.000000
21
-0.166667
12
0.000000
22
0.000000
13
0.000000
23
0.000000
0
ENDBLK
5
65
100
AcDbEntity
8
0
100
AcDbBlockEnd
0
BLOCK
5
66
100
AcDbEntity
8
0
100
AcDbBlockBegin
2
HALF_R
70
0
10
0.0
20
0.0
30
0.0
3
HALF_R
1

0
SOLID
5
67
100
AcDbEntity
8
0
6
BYBLOCK
62
0
100
AcDbTrace
10
-1.000000
20
-0.166667
11
-1.000000
21
0.000000
12
0.000000
22
0.000000
13
0.000000
23
0.000000
0
ENDBLK
5
68
100
AcDbEntity
8
0
100
AcDbBlockEnd
0
ENDSEC
0
SECTION
2
ENTITIES
0
POLYLINE
5
69
100
AcDbEntity
8
1
6
CONTINUOUS
62
5
100
AcDb2dPolyline
66
1
10
0.0
20
0.0
30
0.0
70
0
0
VERTEX
5
6a
100
AcDbEntity
8
1
100
AcDbVertex
100
AcDb2dVertex
62
5
10
131.750000
20
325.250000
0
VERTEX
5
6b
100
AcDbEntity
8
1
100
AcDbVertex
100
AcDb2dVertex
62
5
10
132.750000
20
326.500000
0
VERTEX
5
6c
100
AcDbEntity
8
1
100
AcDbVertex
100
AcDb2dVertex
62
5
10
133.250000
20
327.437500
0
VERTEX
5
6d
100
AcDbEntity
8
1
100
AcDbVertex
100
AcDb2dVertex
62
5
10
135.750000
20
327.437500
0
VERTEX
5
6e
100
AcDbEntity
8
1
100
AcDbVertex
100
AcDb2dVertex
62
5
10
135.750000
20
327.125000
0
VERTEX
5
6f
100
AcDbEntity
8
1
100
AcDbVertex
100
AcDb2dVertex
62
5
10
135.000000
20
325.250000
0
VERTEX
5
70
100
AcDbEntity
8
1
100
AcDbVertex
100
AcDb2dVertex
62
5
10
133.750000
20
323.375000
0
VERTEX
5
71
100
AcDbEntity
8
1
100
AcDbVertex
100
AcDb2dVertex
62
5
10
132.250000
20
321.812500
0
SEQEND
5
72
100
AcDbEntity
8
1
0
POLYLINE
5
73
100
AcDbEntity
8
1
6
CONTINUOUS
62
5
100
AcDb2dPolyline
66
1
10
0.0
20
0.0
30
0.0
70
0
0
VERTEX
5
74
100
AcDbEntity
8
1
100
AcDbVertex
100
AcDb2dVertex
62
5
10
139.750000
20
324.937500
0
VERTEX
5
75
100
AcDbEntity
8
1
100
AcDbVertex
100
AcDb2dVertex
62
5
10
140.750000
20
326.187500
0
VERTEX
5
76
100
AcDbEntity
8
1
100
AcDbVertex
100
AcDb2dVertex
62
5
10
141.500000
20
327.437500
0
VERTEX
5
77
100
AcDbEntity
8
1
100
AcDbVertex
100
AcDb2dVertex
62
5
10
144.000000
20
327.437500
0
VERTEX
5
78
100
AcDbEntity
8
1
100
AcDbVertex
100
AcDb2dVertex
62
5
10
144.000000
20
327.125000
0
VERTEX
5
79
100
AcDbEntity
8
1
100
AcDbVertex
100
AcDb2dVertex
62
5
10
143.000000
20
324.625000
0
VERTEX
5
7a
100
AcDbEntity
8
1
100
AcDbVertex
100
AcDb2dVertex
62
5
10
141.750000
20
322.750000
0
VERTEX
5
7b
100
AcDbEntity
8
1
100
AcDbVertex
100
AcDb2dVertex
62
5
10
140.250000
20
321.500000
0
SEQEND
5
7c
100
AcDbEntity
8
1
0
LINE
5
7d
100
AcDbEntity
8
1
100
AcDbLine
6
CONTINUOUS
62
5
10
141.500000
20
325.562500
11
142.750000
21
324.312500
0
LINE
5
7e
100
AcDbEntity
8
1
100
AcDbLine
6
CONTINUOUS
62
5
10
126.000000
20
328.375000
11
126.000000
21
326.812500
0
POLYLINE
5
7f
100
AcDbEntity
8
1
6
CONTINUOUS
62
5
100
AcDb2dPolyline
66
1
10
0.0
20
0.0
30
0.0
70
0
0
VERTEX
5
80
100
AcDbEntity
8
1
100
AcDbVertex
100
AcDb2dVertex
62
5
10
123.750000
20
326.812500
0
VERTEX
5
81
100
AcDbEntity
8
1
100
AcDbVertex
100
AcDb2dVertex
62
5
10
127.250000
20
326.812500
0
VERTEX
5
82
100
AcDbEntity
8
1
100
AcDbVertex
100
AcDb2dVertex
62
5
10
126.000000
20
325.250000
0
VERTEX
5
83
100
AcDbEntity
8
1
100
AcDbVertex
100
AcDb2dVertex
62
5
10
124.750000
20
324.312500
0
VERTEX
5
84
100
AcDbEntity
8
1
100
AcDbVertex
100
AcDb2dVertex
62
5
10
123.250000
20
323.687500
0
SEQEND
5
85
100
AcDbEntity
8
1
0
LINE
5
86
100
AcDbEntity
8
1
100
AcDbLine
6
CONTINUOUS
62
5
10
126.000000
20
325.250000
11
126.000000
21
321.500000
0
LINE
5
87
100
AcDbEntity
8
1
100
AcDbLine
6
CONTINUOUS
62
5
10
127.250000
20
324.937500
11
128.250000
21
323.687500
0
POLYLINE
5
88
100
AcDbEntity
8
1
6
CONTINUOUS
62
5
100
AcDb2dPolyline
66
1
10
0.0
20
0.0
30
0.0
70
0
0
VERTEX
5
89
100
AcDbEntity
8
1
100
AcDbVertex
100
AcDb2dVertex
62
5
10
125.250000
20
319.625000
0
VERTEX
5
8a
100
AcDbEntity
8
1
100
AcDbVertex
100
AcDb2dVertex
62
5
10
124.500000
20
318.375000
0
VERTEX
5
8b
100
AcDbEntity
8
1
100
AcDbVertex
100
AcDb2dVertex
62
5
10
123.750000
20
317.437500
0
VERTEX
5
8c
100
AcDbEntity
8
1
100
AcDbVertex
100
AcDb2dVertex
62
5
10
122.750000
20
316.500000
0
SEQEND
5
8d
100
AcDbEntity
8
1
0
POLYLINE
5
8e
100
AcDbEntity
8
1
6
CONTINUOUS
62
5
100
AcDb2dPolyline
66
1
10
0.0
20
0.0
30
0.0
70
0
0
VERTEX
5
8f
100
AcDbEntity
8
1
100
AcDbVertex
100
AcDb2dVertex
62
5
10
125.000000
20
319.000000
0
VERTEX
5
90
100
AcDbEntity
8
1
100
AcDbVertex
100
AcDb2dVertex
62
5
10
127.250000
20
319.000000
0
VERTEX
5
91
100
AcDbEntity
8
1
100
AcDbVertex
100
AcDb2dVertex
62
5
10
126.000000
20
317.125000
0
SEQEND
5
92
100
AcDbEntity
8
1
0
POLYLINE
5
93
100
AcDbEntity
8
1
6
CONTINUOUS
62
5
100
AcDb2dPolyline
66
1
10
0.0
20
0.0
30
0.0
70
0
0
VERTEX
5
94
100
AcDbEntity
8
1
100
AcDbVertex
100
AcDb2dVertex
62
5
10
123.750000
20
317.125000
0
VERTEX
5
95
100
AcDbEntity
8
1
100
AcDbVertex
100
AcDb2dVertex
62
5
10
128.250000
20
317.125000
0
VERTEX
5
96
100
AcDbEntity
8
1
100
AcDbVertex
100
AcDb2dVertex
62
5
10
128.250000
20
314.312500
0
VERTEX
5
97
100
AcDbEntity
8
1
100
AcDbVertex
100
AcDb2dVertex
62
5
10
123.750000
20
314.312500
0
SEQEND
5
98
100
AcDbEntity
8
1
0
LINE
5
99
100
AcDbEntity
8
1
100
AcDbLine
6
CONTINUOUS
62
5
10
126.000000
20
317.125000
11
126.000000
21
314.312500
0
POLYLINE
5
9a
100
AcDbEntity
8
1
6
CONTINUOUS
62
5
100
AcDb2dPolyline
66
1
10
0.0
20
0.0
30
0.0
70
0
0
VERTEX
5
9b
100
AcDbEntity
8
1
100
AcDbVertex
100
AcDb2dVertex
62
5
10
123.750000
20
317.125000
0
VERTEX
5
9c
100
AcDbEntity
8
1
100
AcDbVertex
100
AcDb2dVertex
62
5
10
123.750000
20
311.812500
0
VERTEX
5
9d
100
AcDbEntity
8
1
100
AcDbVertex
100
AcDb2dVertex
62
5
10
124.250000
20
311.187500
0
VERTEX
5
9e
100
AcDbEntity
8
1
100
AcDbVertex
100
AcDb2dVertex
62
5
10
129.250000
20
311.187500
0
VERTEX
5
9f
100
AcDbEntity
8
1
100
AcDbVertex
100
AcDb2dVertex
62
5
10
129.250000
20
312.437500
0
SEQEND
5
a0
100
AcDbEntity
8
1
0
POLYLINE
5
a1
100
AcDbEntity
8
1
6
CONTINUOUS
62
5
100
AcDb2dPolyline
66
1
10
0.0
20
0.0
30
0.0
70
0
0
VERTEX
5
a2
100
AcDbEntity
8
1
100
AcDbVertex
100
AcDb2dVertex
62
5
10
115.750000
20
327.125000
0
VERTEX
5
a3
100
AcDbEntity
8
1
100
AcDbVertex
100
AcDb2dVertex
62
5
10
119.750000
20
327.125000
0
VERTEX
5
a4
100
AcDbEntity
8
1
100
AcDbVertex
100
AcDb2dVertex
62
5
10
119.750000
20
322.750000
0
VERTEX
5
a5
100
AcDbEntity
8
1
100
AcDbVertex
100
AcDb2dVertex
62
5
10
115.750000
20
322.750000
0
SEQEND
5
a6
100
AcDbEntity
8
1
0
POLYLINE
5
a7
100
AcDbEntity
8
1
6
CONTINUOUS
62
5
100
AcDb2dPolyline
66
1
10
0.0
20
0.0
30
0.0
70
0
0
VERTEX
5
a8
100
AcDbEntity
8
1
100
AcDbVertex
100
AcDb2dVertex
62
5
10
115.750000
20
315.250000
0
VERTEX
5
a9
100
AcDbEntity
8
1
100
AcDbVertex
100
AcDb2dVertex
62
5
10
116.750000
20
316.500000
0
VERTEX
5
aa
100
AcDbEntity
8
1
100
AcDbVertex
100
AcDb2dVertex
62
5
10
117.250000
20
317.437500
0
VERTEX
5
ab
100
AcDbEntity
8
1
100
AcDbVertex
100
AcDb2dVertex
62
5
10
119.750000
20
317.437500
0
VERTEX
5
ac
100
AcDbEntity
8
1
100
AcDbVertex
100
AcDb2dVertex
62
5
10
119.750000
20
317.125000
0
VERTEX
5
ad
100
AcDbEntity
8
1
100
AcDbVertex
100
AcDb2dVertex
62
5
10
119.000000
20
315.250000
0
VERTEX
5
ae
100
AcDbEntity
8
1
100
AcDbVertex
100
AcDb2dVertex
62
5
10
117.750000
20
313.375000
0
VERTEX
5
af
100
AcDbEntity
8
1
100
AcDbVertex
100
AcDb2dVertex
62
5
10
116.250000
20
311.812500
0
SEQEND
5
b0
100
AcDbEntity
8
1
0
LINE
5
b1
100
AcDbEntity
8
1
100
AcDbLine
6
CONTINUOUS
62
5
10
93.000000
20
329.000000
11
95.000000
21
329.000000
0
LINE
5
b2
100
AcDbEntity
8
1
100
AcDbLine
6
CONTINUOUS
62
5
10
94.000000
20
329.000000
11
94.000000
21
321.500000
0
LINE
5
b3
100
AcDbEntity
8
1
100
AcDbLine
6
CONTINUOUS
62
5
10
93.000000
20
321.500000
11
95.000000
21
321.500000
0
POLYLINE
5
b4
100
AcDbEntity
8
1
6
CONTINUOUS
62
5
100
AcDb2dPolyline
66
1
10
0.0
20
0.0
30
0.0
70
1
0
VERTEX
5
b5
100
AcDbEntity
8
1
100
AcDbVertex
100
AcDb2dVertex
62
5
10
98.750000
20
327.437500
0
VERTEX
5
b6
100
AcDbEntity
8
1
100
AcDbVertex
100
AcDb2dVertex
62
5
10
104.750000
20
327.437500
0
VERTEX
5
b7
100
AcDbEntity
8
1
100
AcDbVertex
100
AcDb2dVertex
62
5
10
104.750000
20
323.687500
0
VERTEX
5
b8
100
AcDbEntity
8
1
100
AcDbVertex
100
AcDb2dVertex
62
5
10
98.750000
20
323.687500
0
VERTEX
5
b9
100
AcDbEntity
8
1
100
AcDbVertex
100
AcDb2dVertex
62
5
10
98.750000
20
327.437500
0
SEQEND
5
ba
100
AcDbEntity
8
1
0
LINE
5
bb
100
AcDbEntity
8
1
100
AcDbLine
6
CONTINUOUS
62
5
10
101.750000
20
329.312500
11
101.750000
21
320.562500
0
POLYLINE
5
bc
100
AcDbEntity
8
1
6
CONTINUOUS
62
5
100
AcDb2dPolyline
66
1
10
0.0
20
0.0
30
0.0
70
0
0
VERTEX
5
bd
100
AcDbEntity
8
1
100
AcDbVertex
100
AcDb2dVertex
62
5
10
99.500000
20
315.875000
0
VERTEX
5
be
100
AcDbEntity
8
1
100
AcDbVertex
100
AcDb2dVertex
62
5
10
104.250000
20
315.875000
0
VERTEX
5
bf
100
AcDbEntity
8
1
100
AcDbVertex
100
AcDb2dVertex
62
5
10
104.250000
20
315.562500
0
VERTEX
5
c0
100
AcDbEntity
8
1
100
AcDbVertex
100
AcDb2dVertex
62
5
10
103.000000
20
313.375000
0
VERTEX
5
c1
100
AcDbEntity
8
1
100
AcDbVertex
100
AcDb2dVertex
62
5
10
102.000000
20
312.437500
0
VERTEX
5
c2
100
AcDbEntity
8
1
100
AcDbVertex
100
AcDb2dVertex
62
5
10
101.000000
20
311.812500
0
SEQEND
5
c3
100
AcDbEntity
8
1
0
LINE
5
c4
100
AcDbEntity
8
1
100
AcDbLine
6
CONTINUOUS
62
5
10
100.250000
20
318.062500
11
103.750000
21
318.062500
0
POLYLINE
5
c5
100
AcDbEntity
8
1
6
CONTINUOUS
62
5
100
AcDb2dPolyline
66
1
10
0.0
20
0.0
30
0.0
70
0
0
VERTEX
5
c6
100
AcDbEntity
8
1
100
AcDbVertex
100
AcDb2dVertex
62
5
10
91.250000
20
317.125000
0
VERTEX
5
c7
100
AcDbEntity
8
1
100
AcDbVertex
100
AcDb2dVertex
62
5
10
95.000000
20
317.125000
0
VERTEX
5
c8
100
AcDbEntity
8
1
100
AcDbVertex
100
AcDb2dVertex
62
5
10
95.000000
20
316.187500
0
VERTEX
5
c9
100
AcDbEntity
8
1
100
AcDbVertex
100
AcDb2dVertex
62
5
10
94.750000
20
314.937500
0
VERTEX
5
ca
100
AcDbEntity
8
1
100
AcDbVertex
100
AcDb2dVertex
62
5
10
94.250000
20
314.000000
0
VERTEX
5
cb
100
AcDbEntity
8
1
100
AcDbVertex
100
AcDb2dVertex
62
5
10
93.750000
20
313.062500
0
VERTEX
5
cc
100
AcDbEntity
8
1
100
AcDbVertex
100
AcDb2dVertex
62
5
10
92.250000
20
311.812500
0
SEQEND
5
cd
100
AcDbEntity
8
1
0
LINE
5
ce
100
AcDbEntity
8
1
100
AcDbLine
6
CONTINUOUS
62
5
10
95.500000
20
318.375000
11
96.250000
21
317.437500
0
LINE
5
cf
100
AcDbEntity
8
1
100
AcDbLine
6
CONTINUOUS
62
5
10
96.500000
20
319.000000
11
97.000000
21
318.062500
0
POLYLINE
5
d0
100
AcDbEntity
8
1
6
CONTINUOUS
62
5
100
AcDb2dPolyline
66
1
10
0.0
20
0.0
30
0.0
70
0
0
VERTEX
5
d1
100
AcDbEntity
8
1
100
AcDbVertex
100
AcDb2dVertex
62
5
10
83.500000
20
321.500000
0
VERTEX
5
d2
100
AcDbEntity
8
1
100
AcDbVertex
100
AcDb2dVertex
62
5
10
83.500000
20
329.000000
0
VERTEX
5
d3
100
AcDbEntity
8
1
100
AcDbVertex
100
AcDb2dVertex
62
5
10
86.000000
20
321.500000
0
VERTEX
5
d4
100
AcDbEntity
8
1
100
AcDbVertex
100
AcDb2dVertex
62
5
10
88.500000
20
329.000000
0
VERTEX
5
d5
100
AcDbEntity
8
1
100
AcDbVertex
100
AcDb2dVertex
62
5
10
88.500000
20
321.500000
0
SEQEND
5
d6
100
AcDbEntity
8
1
0
POLYLINE
5
d7
100
AcDbEntity
8
1
6
CONTINUOUS
62
5
100
AcDb2dPolyline
66
1
10
0.0
20
0.0
30
0.0
70
0
0
VERTEX
5
d8
100
AcDbEntity
8
1
100
AcDbVertex
100
AcDb2dVertex
62
5
10
85.250000
20
316.187500
0
VERTEX
5
d9
100
AcDbEntity
8
1
100
AcDbVertex
100
AcDb2dVertex
62
5
10
85.500000
20
316.187500
0
VERTEX
5
da
100
AcDbEntity
8
1
100
AcDbVertex
100
AcDb2dVertex
62
5
10
87.250000
20
314.937500
0
SEQEND
5
db
100
AcDbEntity
8
1
0
LINE
5
dc
100
AcDbEntity
8
1
100
AcDbLine
6
CONTINUOUS
62
5
10
85.250000
20
319.000000
11
85.250000
21
311.500000
0
POLYLINE
5
dd
100
AcDbEntity
8
1
6
CONTINUOUS
62
5
100
AcDb2dPolyline
66
1
10
0.0
20
0.0
30
0.0
70
1
0
VERTEX
5
de
100
AcDbEntity
8
1
100
AcDbVertex
100
AcDb2dVertex
62
5
10
76.000000
20
329.000000
0
VERTEX
5
df
100
AcDbEntity
8
1
100
AcDbVertex
100
AcDb2dVertex
62
5
10
78.000000
20
329.000000
0
VERTEX
5
e0
100
AcDbEntity
8
1
100
AcDbVertex
100
AcDb2dVertex
62
5
10
79.000000
20
328.375000
0
VERTEX
5
e1
100
AcDbEntity
8
1
100
AcDbVertex
100
AcDb2dVertex
62
5
10
79.750000
20
327.437500
0
VERTEX
5
e2
100
AcDbEntity
8
1
100
AcDbVertex
100
AcDb2dVertex
62
5
10
80.250000
20
325.875000
0
VERTEX
5
e3
100
AcDbEntity
8
1
100
AcDbVertex
100
AcDb2dVertex
62
5
10
80.250000
20
324.625000
0
VERTEX
5
e4
100
AcDbEntity
8
1
100
AcDbVertex
100
AcDb2dVertex
62
5
10
79.750000
20
323.062500
0
VERTEX
5
e5
100
AcDbEntity
8
1
100
AcDbVertex
100
AcDb2dVertex
62
5
10
79.000000
20
322.125000
0
VERTEX
5
e6
100
AcDbEntity
8
1
100
AcDbVertex
100
AcDb2dVertex
62
5
10
78.000000
20
321.500000
0
VERTEX
5
e7
100
AcDbEntity
8
1
100
AcDbVertex
100
AcDb2dVertex
62
5
10
76.000000
20
321.500000
0
VERTEX
5
e8
100
AcDbEntity
8
1
100
AcDbVertex
100
AcDb2dVertex
62
5
10
76.000000
20
329.000000
0
SEQEND
5
e9
100
AcDbEntity
8
1
0
POLYLINE
5
ea
100
AcDbEntity
8
1
6
CONTINUOUS
62
5
100
AcDb2dPolyline
66
1
10
0.0
20
0.0
30
0.0
70
0
0
VERTEX
5
eb
100
AcDbEntity
8
1
100
AcDbVertex
100
AcDb2dVertex
62
5
10
75.500000
20
317.125000
0
VERTEX
5
ec
100
AcDbEntity
8
1
100
AcDbVertex
100
AcDb2dVertex
62
5
10
79.750000
20
317.125000
0
VERTEX
5
ed
100
AcDbEntity
8
1
100
AcDbVertex
100
AcDb2dVertex
62
5
10
79.750000
20
316.500000
0
VERTEX
5
ee
100
AcDbEntity
8
1
100
AcDbVertex
100
AcDb2dVertex
62
5
10
79.250000
20
314.625000
0
VERTEX
5
ef
100
AcDbEntity
8
1
100
AcDbVertex
100
AcDb2dVertex
62
5
10
78.250000
20
313.062500
0
VERTEX
5
f0
100
AcDbEntity
8
1
100
AcDbVertex
100
AcDb2dVertex
62
5
10
77.000000
20
312.125000
0
VERTEX
5
f1
100
AcDbEntity
8
1
100
AcDbVertex
100
AcDb2dVertex
62
5
10
76.250000
20
311.812500
0
SEQEND
5
f2
100
AcDbEntity
8
1
0
LINE
5
f3
100
AcDbEntity
8
1
100
AcDbLine
6
CONTINUOUS
62
5
10
108.000000
20
329.625000
11
106.750000
21
327.750000
0
LINE
5
f4
100
AcDbEntity
8
1
100
AcDbLine
6
CONTINUOUS
62
5
10
106.500000
20
328.062500
11
107.500000
21
326.812500
0
LINE
5
f5
100
AcDbEntity
8
1
100
AcDbLine
6
CONTINUOUS
62
5
10
108.500000
20
328.062500
11
106.500000
21
325.250000
0
LINE
5
f6
100
AcDbEntity
8
1
100
AcDbLine
6
CONTINUOUS
62
5
10
106.250000
20
325.250000
11
108.500000
21
325.250000
0
LINE
5
f7
100
AcDbEntity
8
1
100
AcDbLine
6
CONTINUOUS
62
5
10
108.250000
20
325.875000
11
108.750000
21
324.625000
0
LINE
5
f8
100
AcDbEntity
8
1
100
AcDbLine
6
CONTINUOUS
62
5
10
107.500000
20
325.250000
11
107.500000
21
320.562500
0
LINE
5
f9
100
AcDbEntity
8
1
100
AcDbLine
6
CONTINUOUS
62
5
10
106.750000
20
324.000000
11
106.250000
21
321.812500
0
LINE
5
fa
100
AcDbEntity
8
1
100
AcDbLine
6
CONTINUOUS
62
5
10
108.250000
20
324.000000
11
108.500000
21
322.437500
0
LINE
5
fb
100
AcDbEntity
8
1
100
AcDbLine
6
CONTINUOUS
62
5
10
110.000000
20
325.875000
11
113.000000
21
325.875000
0
LINE
5
fc
100
AcDbEntity
8
1
100
AcDbLine
6
CONTINUOUS
62
5
10
111.500000
20
329.312500
11
111.500000
21
321.500000
0
POLYLINE
5
fd
100
AcDbEntity
8
1
6
CONTINUOUS
62
5
100
AcDb2dPolyline
66
1
10
0.0
20
0.0
30
0.0
70
0
0
VERTEX
5
fe
100
AcDbEntity
8
1
100
AcDbVertex
100
AcDb2dVertex
62
5
10
110.250000
20
322.750000
0
VERTEX
5
ff
100
AcDbEntity
8
1
100
AcDbVertex
100
AcDb2dVertex
62
5
10
111.000000
20
324.312500
0
VERTEX
5
100
100
AcDbEntity
8
1
100
AcDbVertex
100
AcDb2dVertex
62
5
10
111.500000
20
325.875000
0
VERTEX
5
101
100
AcDbEntity
8
1
100
AcDbVertex
100
AcDb2dVertex
62
5
10
112.250000
20
324.937500
0
VERTEX
5
102
100
AcDbEntity
8
1
100
AcDbVertex
100
AcDb2dVertex
62
5
10
112.750000
20
323.687500
0
SEQEND
5
103
100
AcDbEntity
8
1
0
LINE
5
104
100
AcDbEntity
8
1
100
AcDbLine
6
CONTINUOUS
62
5
10
110.000000
20
328.062500
11
110.750000
21
326.812500
0
LINE
5
105
100
AcDbEntity
8
1
100
AcDbLine
6
CONTINUOUS
62
5
10
113.000000
20
328.375000
11
112.250000
21
326.812500
0
POLYLINE
5
106
100
AcDbEntity
8
1
6
CONTINUOUS
62
5
100
AcDb2dPolyline
66
1
10
0.0
20
0.0
30
0.0
70
0
0
VERTEX
5
107
100
AcDbEntity
8
1
100
AcDbVertex
100
AcDb2dVertex
62
5
10
109.500000
20
329.312500
0
VERTEX
5
108
100
AcDbEntity
8
1
100
AcDbVertex
100
AcDb2dVertex
62
5
10
109.500000
20
320.875000
0
VERTEX
5
109
100
AcDbEntity
8
1
100
AcDbVertex
100
AcDb2dVertex
62
5
10
113.250000
20
320.875000
0
SEQEND
5
10a
100
AcDbEntity
8
1
0
LINE
5
10b
100
AcDbEntity
8
1
100
AcDbLine
6
CONTINUOUS
62
5
10
108.250000
20
315.562500
11
108.500000
21
314.312500
0
LINE
5
10c
100
AcDbEntity
8
1
100
AcDbLine
6
CONTINUOUS
62
5
10
109.750000
20
315.875000
11
110.000000
21
314.625000
0
POLYLINE
5
10d
100
AcDbEntity
8
1
6
CONTINUOUS
62
5
100
AcDb2dPolyline
66
1
10
0.0
20
0.0
30
0.0
70
0
0
VERTEX
5
10e
100
AcDbEntity
8
1
100
AcDbVertex
100
AcDb2dVertex
62
5
10
111.750000
20
315.875000
0
VERTEX
5
10f
100
AcDbEntity
8
1
100
AcDbVertex
100
AcDb2dVertex
62
5
10
111.500000
20
314.312500
0
VERTEX
5
110
100
AcDbEntity
8
1
100
AcDbVertex
100
AcDb2dVertex
62
5
10
110.250000
20
312.437500
0
VERTEX
5
111
100
AcDbEntity
8
1
100
AcDbVertex
100
AcDb2dVertex
62
5
10
109.250000
20
311.500000
0
SEQEND
5
112
100
AcDbEntity
8
1
0
POLYLINE
5
113
100
AcDbEntity
8
1
6
CONTINUOUS
62
5
100
AcDb2dPolyline
66
1
10
0.0
20
0.0
30
0.0
70
0
0
VERTEX
5
114
100
AcDbEntity
8
1
100
AcDbVertex
100
AcDb2dVertex
62
5
10
85.625000
20
288.937500
0
VERTEX
5
115
100
AcDbEntity
8
1
100
AcDbVertex
100
AcDb2dVertex
62
5
10
85.000000
20
290.187500
0
VERTEX
5
116
100
AcDbEntity
8
1
100
AcDbVertex
100
AcDb2dVertex
62
5
10
84.062500
20
290.500000
0
VERTEX
5
117
100
AcDbEntity
8
1
100
AcDbVertex
100
AcDb2dVertex
62
5
10
83.437500
20
290.500000
0
VERTEX
5
118
100
AcDbEntity
8
1
100
AcDbVertex
100
AcDb2dVertex
62
5
10
82.812500
20
290.187500
0
VERTEX
5
119
100
AcDbEntity
8
1
100
AcDbVertex
100
AcDb2dVertex
62
5
10
82.187500
20
289.250000
0
VERTEX
5
11a
100
AcDbEntity
8
1
100
AcDbVertex
100
AcDb2dVertex
62
5
10
82.187500
20
288.312500
0
VERTEX
5
11b
100
AcDbEntity
8
1
100
AcDbVertex
100
AcDb2dVertex
62
5
10
82.812500
20
287.375000
0
VERTEX
5
11c
100
AcDbEntity
8
1
100
AcDbVertex
100
AcDb2dVertex
62
5
10
85.000000
20
286.125000
0
VERTEX
5
11d
100
AcDbEntity
8
1
100
AcDbVertex
100
AcDb2dVertex
62
5
10
85.625000
20
285.187500
0
VERTEX
5
11e
100
AcDbEntity
8
1
100
AcDbVertex
100
AcDb2dVertex
62
5
10
85.625000
20
284.250000
0
VERTEX
5
11f
100
AcDbEntity
8
1
100
AcDbVertex
100
AcDb2dVertex
62
5
10
85.000000
20
283.312500
0
VERTEX
5
120
100
AcDbEntity
8
1
100
AcDbVertex
100
AcDb2dVertex
62
5
10
84.062500
20
283.000000
0
VERTEX
5
121
100
AcDbEntity
8
1
100
AcDbVertex
100
AcDb2dVertex
62
5
10
83.437500
20
283.000000
0
VERTEX
5
122
100
AcDbEntity
8
1
100
AcDbVertex
100
AcDb2dVertex
62
5
10
82.500000
20
283.625000
0
VERTEX
5
123
100
AcDbEntity
8
1
100
AcDbVertex
100
AcDb2dVertex
62
5
10
82.187500
20
284.875000
0
SEQEND
5
124
100
AcDbEntity
8
1
0
LINE
5
125
100
AcDbEntity
8
1
100
AcDbLine
6
CONTINUOUS
62
5
10
87.500000
20
290.500000
11
87.500000
21
283.000000
0
POLYLINE
5
126
100
AcDbEntity
8
1
6
CONTINUOUS
62
5
100
AcDb2dPolyline
66
1
10
0.0
20
0.0
30
0.0
70
0
0
VERTEX
5
127
100
AcDbEntity
8
1
100
AcDbVertex
100
AcDb2dVertex
62
5
10
87.500000
20
290.500000
0
VERTEX
5
128
100
AcDbEntity
8
1
100
AcDbVertex
100
AcDb2dVertex
62
5
10
89.062500
20
290.500000
0
VERTEX
5
129
100
AcDbEntity
8
1
100
AcDbVertex
100
AcDb2dVertex
62
5
10
89.687500
20
290.187500
0
VERTEX
5
12a
100
AcDbEntity
8
1
100
AcDbVertex
100
AcDb2dVertex
62
5
10
90.000000
20
289.875000
0
VERTEX
5
12b
100
AcDbEntity
8
1
100
AcDbVertex
100
AcDb2dVertex
62
5
10
90.312500
20
289.250000
0
VERTEX
5
12c
100
AcDbEntity
8
1
100
AcDbVertex
100
AcDb2dVertex
62
5
10
90.312500
20
288.312500
0
VERTEX
5
12d
100
AcDbEntity
8
1
100
AcDbVertex
100
AcDb2dVertex
62
5
10
90.000000
20
287.687500
0
VERTEX
5
12e
100
AcDbEntity
8
1
100
AcDbVertex
100
AcDb2dVertex
62
5
10
89.687500
20
287.375000
0
VERTEX
5
12f
100
AcDbEntity
8
1
100
AcDbVertex
100
AcDb2dVertex
62
5
10
89.062500
20
287.062500
0
VERTEX
5
130
100
AcDbEntity
8
1
100
AcDbVertex
100
AcDb2dVertex
62
5
10
87.500000
20
287.062500
0
SEQEND
5
131
100
AcDbEntity
8
1
0
POLYLINE
5
132
100
AcDbEntity
8
1
6
CONTINUOUS
62
5
100
AcDb2dPolyline
66
1
10
0.0
20
0.0
30
0.0
70
0
0
VERTEX
5
133
100
AcDbEntity
8
1
100
AcDbVertex
100
AcDb2dVertex
62
5
10
89.062500
20
287.062500
0
VERTEX
5
134
100
AcDbEntity
8
1
100
AcDbVertex
100
AcDb2dVertex
62
5
10
89.687500
20
286.750000
0
VERTEX
5
135
100
AcDbEntity
8
1
100
AcDbVertex
100
AcDb2dVertex
62
5
10
90.312500
20
286.125000
0
VERTEX
5
136
100
AcDbEntity
8
1
100
AcDbVertex
100
AcDb2dVertex
62
5
10
90.625000
20
285.500000
0
VERTEX
5
137
100
AcDbEntity
8
1
100
AcDbVertex
100
AcDb2dVertex
62
5
10
90.625000
20
284.250000
0
VERTEX
5
138
100
AcDbEntity
8
1
100
AcDbVertex
100
AcDb2dVertex
62
5
10
90.312500
20
283.625000
0
VERTEX
5
139
100
AcDbEntity
8
1
100
AcDbVertex
100
AcDb2dVertex
62
5
10
90.000000
20
283.312500
0
VERTEX
5
13a
100
AcDbEntity
8
1
100
AcDbVertex
100
AcDb2dVertex
62
5
10
89.375000
20
283.000000
0
VERTEX
5
13b
100
AcDbEntity
8
1
100
AcDbVertex
100
AcDb2dVertex
62
5
10
87.500000
20
283.000000
0
SEQEND
5
13c
100
AcDbEntity
8
1
0
POLYLINE
5
13d
100
AcDbEntity
8
1
6
CONTINUOUS
62
5
100
AcDb2dPolyline
66
1
10
0.0
20
0.0
30
0.0
70
0
0
VERTEX
5
13e
100
AcDbEntity
8
1
100
AcDbVertex
100
AcDb2dVertex
62
5
10
73.125000
20
289.875000
0
VERTEX
5
13f
100
AcDbEntity
8
1
100
AcDbVertex
100
AcDb2dVertex
62
5
10
74.062500
20
290.500000
0
VERTEX
5
140
100
AcDbEntity
8
1
100
AcDbVertex
100
AcDb2dVertex
62
5
10
74.062500
20
283.000000
0
SEQEND
5
141
100
AcDbEntity
8
1
0
LINE
5
142
100
AcDbEntity
8
1
100
AcDbLine
6
CONTINUOUS
62
5
10
73.437500
20
283.000000
11
74.687500
21
283.000000
0
POLYLINE
5
143
100
AcDbEntity
8
1
6
CONTINUOUS
62
5
100
AcDb2dPolyline
66
1
10
0.0
20
0.0
30
0.0
70
1
0
VERTEX
5
144
100
AcDbEntity
8
1
100
AcDbVertex
100
AcDb2dVertex
62
5
10
63.750000
20
290.500000
0
VERTEX
5
145
100
AcDbEntity
8
1
100
AcDbVertex
100
AcDb2dVertex
62
5
10
64.375000
20
290.500000
0
VERTEX
5
146
100
AcDbEntity
8
1
100
AcDbVertex
100
AcDb2dVertex
62
5
10
64.687500
20
290.187500
0
VERTEX
5
147
100
AcDbEntity
8
1
100
AcDbVertex
100
AcDb2dVertex
62
5
10
65.312500
20
288.937500
0
VERTEX
5
148
100
AcDbEntity
8
1
100
AcDbVertex
100
AcDb2dVertex
62
5
10
65.625000
20
287.687500
0
VERTEX
5
149
100
AcDbEntity
8
1
100
AcDbVertex
100
AcDb2dVertex
62
5
10
65.625000
20
285.812500
0
VERTEX
5
14a
100
AcDbEntity
8
1
100
AcDbVertex
100
AcDb2dVertex
62
5
10
65.312500
20
284.562500
0
VERTEX
5
14b
100
AcDbEntity
8
1
100
AcDbVertex
100
AcDb2dVertex
62
5
10
64.687500
20
283.312500
0
VERTEX
5
14c
100
AcDbEntity
8
1
100
AcDbVertex
100
AcDb2dVertex
62
5
10
64.375000
20
283.000000
0
VERTEX
5
14d
100
AcDbEntity
8
1
100
AcDbVertex
100
AcDb2dVertex
62
5
10
63.750000
20
283.000000
0
VERTEX
5
14e
100
AcDbEntity
8
1
100
AcDbVertex
100
AcDb2dVertex
62
5
10
63.437500
20
283.312500
0
VERTEX
5
14f
100
AcDbEntity
8
1
100
AcDbVertex
100
AcDb2dVertex
62
5
10
62.812500
20
284.562500
0
VERTEX
5
150
100
AcDbEntity
8
1
100
AcDbVertex
100
AcDb2dVertex
62
5
10
62.500000
20
285.812500
0
VERTEX
5
151
100
AcDbEntity
8
1
100
AcDbVertex
100
AcDb2dVertex
62
5
10
62.500000
20
287.687500
0
VERTEX
5
152
100
AcDbEntity
8
1
100
AcDbVertex
100
AcDb2dVertex
62
5
10
62.812500
20
288.937500
0
VERTEX
5
153
100
AcDbEntity
8
1
100
AcDbVertex
100
AcDb2dVertex
62
5
10
63.437500
20
290.187500
0
VERTEX
5
154
100
AcDbEntity
8
1
100
AcDbVertex
100
AcDb2dVertex
62
5
10
63.750000
20
290.500000
0
SEQEND
5
155
100
AcDbEntity
8
1
0
LINE
5
156
100
AcDbEntity
8
1
100
AcDbLine
6
CONTINUOUS
62
5
10
52.500000
20
290.500000
11
55.625000
21
290.500000
0
LINE
5
157
100
AcDbEntity
8
1
100
AcDbLine
6
CONTINUOUS
62
5
10
54.062500
20
290.500000
11
54.062500
21
283.000000
0
POLYLINE
5
158
100
AcDbEntity
8
1
6
CONTINUOUS
62
5
100
AcDb2dPolyline
66
1
10
0.0
20
0.0
30
0.0
70
0
0
VERTEX
5
159
100
AcDbEntity
8
1
100
AcDbVertex
100
AcDb2dVertex
62
5
10
60.625000
20
286.437500
0
VERTEX
5
15a
100
AcDbEntity
8
1
100
AcDbVertex
100
AcDb2dVertex
62
5
10
60.625000
20
286.437500
0
VERTEX
5
15b
100
AcDbEntity
8
1
100
AcDbVertex
100
AcDb2dVertex
62
5
10
59.375000
20
286.125000
0
VERTEX
5
15c
100
AcDbEntity
8
1
100
AcDbVertex
100
AcDb2dVertex
62
5
10
58.437500
20
286.125000
0
VERTEX
5
15d
100
AcDbEntity
8
1
100
AcDbVertex
100
AcDb2dVertex
62
5
10
57.812500
20
286.437500
0
VERTEX
5
15e
100
AcDbEntity
8
1
100
AcDbVertex
100
AcDb2dVertex
62
5
10
57.500000
20
287.375000
0
VERTEX
5
15f
100
AcDbEntity
8
1
100
AcDbVertex
100
AcDb2dVertex
62
5
10
57.500000
20
288.937500
0
VERTEX
5
160
100
AcDbEntity
8
1
100
AcDbVertex
100
AcDb2dVertex
62
5
10
57.812500
20
289.875000
0
VERTEX
5
161
100
AcDbEntity
8
1
100
AcDbVertex
100
AcDb2dVertex
62
5
10
58.125000
20
290.187500
0
VERTEX
5
162
100
AcDbEntity
8
1
100
AcDbVertex
100
AcDb2dVertex
62
5
10
58.750000
20
290.500000
0
VERTEX
5
163
100
AcDbEntity
8
1
100
AcDbVertex
100
AcDb2dVertex
62
5
10
59.375000
20
290.500000
0
VERTEX
5
164
100
AcDbEntity
8
1
100
AcDbVertex
100
AcDb2dVertex
62
5
10
60.000000
20
290.187500
0
VERTEX
5
165
100
AcDbEntity
8
1
100
AcDbVertex
100
AcDb2dVertex
62
5
10
60.312500
20
289.875000
0
VERTEX
5
166
100
AcDbEntity
8
1
100
AcDbVertex
100
AcDb2dVertex
62
5
10
60.625000
20
288.937500
0
VERTEX
5
167
100
AcDbEntity
8
1
100
AcDbVertex
100
AcDb2dVertex
62
5
10
60.625000
20
285.500000
0
VERTEX
5
168
100
AcDbEntity
8
1
100
AcDbVertex
100
AcDb2dVertex
62
5
10
60.312500
20
283.937500
0
VERTEX
5
169
100
AcDbEntity
8
1
100
AcDbVertex
100
AcDb2dVertex
62
5
10
59.687500
20
283.312500
0
VERTEX
5
16a
100
AcDbEntity
8
1
100
AcDbVertex
100
AcDb2dVertex
62
5
10
58.750000
20
283.000000
0
VERTEX
5
16b
100
AcDbEntity
8
1
100
AcDbVertex
100
AcDb2dVertex
62
5
10
58.125000
20
283.000000
0
SEQEND
5
16c
100
AcDbEntity
8
1
0
LINE
5
16d
100
AcDbEntity
8
1
100
AcDbLine
6
CONTINUOUS
62
5
10
68.000000
20
329.000000
11
68.000000
21
321.500000
0
LINE
5
16e
100
AcDbEntity
8
1
100
AcDbLine
6
CONTINUOUS
62
5
10
68.000000
20
325.250000
11
72.000000
21
325.250000
0
LINE
5
16f
100
AcDbEntity
8
1
100
AcDbLine
6
CONTINUOUS
62
5
10
72.000000
20
329.000000
11
72.000000
21
321.500000
0
LINE
5
170
100
AcDbEntity
8
1
100
AcDbLine
6
CONTINUOUS
62
5
10
67.750000
20
317.437500
11
68.750000
21
315.875000
0
POLYLINE
5
171
100
AcDbEntity
8
1
6
CONTINUOUS
62
5
100
AcDb2dPolyline
66
1
10
0.0
20
0.0
30
0.0
70
0
0
VERTEX
5
172
100
AcDbEntity
8
1
100
AcDbVertex
100
AcDb2dVertex
62
5
10
72.000000
20
317.750000
0
VERTEX
5
173
100
AcDbEntity
8
1
100
AcDbVertex
100
AcDb2dVertex
62
5
10
71.750000
20
315.875000
0
VERTEX
5
174
100
AcDbEntity
8
1
100
AcDbVertex
100
AcDb2dVertex
62
5
10
70.000000
20
313.062500
0
VERTEX
5
175
100
AcDbEntity
8
1
100
AcDbVertex
100
AcDb2dVertex
62
5
10
68.750000
20
312.125000
0
SEQEND
5
176
100
AcDbEntity
8
1
0
POLYLINE
5
177
100
AcDbEntity
8
1
6
CONTINUOUS
62
5
100
AcDb2dPolyline
66
1
10
0.0
20
0.0
30
0.0
70
0
0
VERTEX
5
178
100
AcDbEntity
8
1
100
AcDbVertex
100
AcDb2dVertex
62
5
10
67.500000
20
288.625000
0
VERTEX
5
179
100
AcDbEntity
8
1
100
AcDbVertex
100
AcDb2dVertex
62
5
10
67.812500
20
289.875000
0
VERTEX
5
17a
100
AcDbEntity
8
1
100
AcDbVertex
100
AcDb2dVertex
62
5
10
68.437500
20
290.500000
0
VERTEX
5
17b
100
AcDbEntity
8
1
100
AcDbVertex
100
AcDb2dVertex
62
5
10
69.375000
20
290.500000
0
VERTEX
5
17c
100
AcDbEntity
8
1
100
AcDbVertex
100
AcDb2dVertex
62
5
10
70.000000
20
290.187500
0
VERTEX
5
17d
100
AcDbEntity
8
1
100
AcDbVertex
100
AcDb2dVertex
62
5
10
70.312500
20
289.250000
0
VERTEX
5
17e
100
AcDbEntity
8
1
100
AcDbVertex
100
AcDb2dVertex
62
5
10
70.312500
20
288.000000
0
VERTEX
5
17f
100
AcDbEntity
8
1
100
AcDbVertex
100
AcDb2dVertex
62
5
10
70.000000
20
287.375000
0
VERTEX
5
180
100
AcDbEntity
8
1
100
AcDbVertex
100
AcDb2dVertex
62
5
10
69.375000
20
286.750000
0
VERTEX
5
181
100
AcDbEntity
8
1
100
AcDbVertex
100
AcDb2dVertex
62
5
10
68.437500
20
286.750000
0
SEQEND
5
182
100
AcDbEntity
8
1
0
POLYLINE
5
183
100
AcDbEntity
8
1
6
CONTINUOUS
62
5
100
AcDb2dPolyline
66
1
10
0.0
20
0.0
30
0.0
70
0
0
VERTEX
5
184
100
AcDbEntity
8
1
100
AcDbVertex
100
AcDb2dVertex
62
5
10
69.375000
20
286.750000
0
VERTEX
5
185
100
AcDbEntity
8
1
100
AcDbVertex
100
AcDb2dVertex
62
5
10
70.312500
20
286.125000
0
VERTEX
5
186
100
AcDbEntity
8
1
100
AcDbVertex
100
AcDb2dVertex
62
5
10
70.625000
20
285.187500
0
VERTEX
5
187
100
AcDbEntity
8
1
100
AcDbVertex
100
AcDb2dVertex
62
5
10
70.625000
20
284.250000
0
VERTEX
5
188
100
AcDbEntity
8
1
100
AcDbVertex
100
AcDb2dVertex
62
5
10
70.312500
20
283.625000
0
VERTEX
5
189
100
AcDbEntity
8
1
100
AcDbVertex
100
AcDb2dVertex
62
5
10
69.375000
20
283.000000
0
VERTEX
5
18a
100
AcDbEntity
8
1
100
AcDbVertex
100
AcDb2dVertex
62
5
10
68.437500
20
283.000000
0
VERTEX
5
18b
100
AcDbEntity
8
1
100
AcDbVertex
100
AcDb2dVertex
62
5
10
67.812500
20
283.312500
0
VERTEX
5
18c
100
AcDbEntity
8
1
100
AcDbVertex
100
AcDb2dVertex
62
5
10
67.187500
20
284.250000
0
SEQEND
5
18d
100
AcDbEntity
8
1
0
POLYLINE
5
18e
100
AcDbEntity
8
1
6
DOT2
62
5
100
AcDb2dPolyline
66
1
10
0.0
20
0.0
30
0.0
70
1
0
VERTEX
5
18f
100
AcDbEntity
8
1
100
AcDbVertex
100
AcDb2dVertex
62
5
10
125.899953
20
195.100039
0
VERTEX
5
190
100
AcDbEntity
8
1
100
AcDbVertex
100
AcDb2dVertex
62
5
10
126.524953
20
195.100039
0
VERTEX
5
191
100
AcDbEntity
8
1
100
AcDbVertex
100
AcDb2dVertex
62
5
10
127.149953
20
194.787539
0
VERTEX
5
192
100
AcDbEntity
8
1
100
AcDbVertex
100
AcDb2dVertex
62
5
10
127.462453
20
194.162539
0
VERTEX
5
193
100
AcDbEntity
8
1
100
AcDbVertex
100
AcDb2dVertex
62
5
10
127.462453
20
192.912539
0
VERTEX
5
194
100
AcDbEntity
8
1
100
AcDbVertex
100
AcDb2dVertex
62
5
10
127.149953
20
192.287539
0
VERTEX
5
195
100
AcDbEntity
8
1
100
AcDbVertex
100
AcDb2dVertex
62
5
10
125.274953
20
191.037539
0
VERTEX
5
196
100
AcDbEntity
8
1
100
AcDbVertex
100
AcDb2dVertex
62
5
10
124.649953
20
190.100039
0
VERTEX
5
197
100
AcDbEntity
8
1
100
AcDbVertex
100
AcDb2dVertex
62
5
10
124.649953
20
188.850039
0
VERTEX
5
198
100
AcDbEntity
8
1
100
AcDbVertex
100
AcDb2dVertex
62
5
10
124.962453
20
188.225039
0
VERTEX
5
199
100
AcDbEntity
8
1
100
AcDbVertex
100
AcDb2dVertex
62
5
10
125.274953
20
187.912539
0
VERTEX
5
19a
100
AcDbEntity
8
1
100
AcDbVertex
100
AcDb2dVertex
62
5
10
125.899953
20
187.600039
0
VERTEX
5
19b
100
AcDbEntity
8
1
100
AcDbVertex
100
AcDb2dVertex
62
5
10
126.524953
20
187.600039
0
VERTEX
5
19c
100
AcDbEntity
8
1
100
AcDbVertex
100
AcDb2dVertex
62
5
10
127.149953
20
187.912539
0
VERTEX
5
19d
100
AcDbEntity
8
1
100
AcDbVertex
100
AcDb2dVertex
62
5
10
127.462453
20
188.225039
0
VERTEX
5
19e
100
AcDbEntity
8
1
100
AcDbVertex
100
AcDb2dVertex
62
5
10
127.774953
20
188.850039
0
VERTEX
5
19f
100
AcDbEntity
8
1
100
AcDbVertex
100
AcDb2dVertex
62
5
10
127.774953
20
190.100039
0
VERTEX
5
1a0
100
AcDbEntity
8
1
100
AcDbVertex
100
AcDb2dVertex
62
5
10
127.149953
20
191.037539
0
VERTEX
5
1a1
100
AcDbEntity
8
1
100
AcDbVertex
100
AcDb2dVertex
62
5
10
125.274953
20
192.287539
0
VERTEX
5
1a2
100
AcDbEntity
8
1
100
AcDbVertex
100
AcDb2dVertex
62
5
10
124.962453
20
192.912539
0
VERTEX
5
1a3
100
AcDbEntity
8
1
100
AcDbVertex
100
AcDb2dVertex
62
5
10
124.962453
20
194.162539
0
VERTEX
5
1a4
100
AcDbEntity
8
1
100
AcDbVertex
100
AcDb2dVertex
62
5
10
125.274953
20
194.787539
0
VERTEX
5
1a5
100
AcDbEntity
8
1
100
AcDbVertex
100
AcDb2dVertex
62
5
10
125.899953
20
195.100039
0
SEQEND
5
1a6
100
AcDbEntity
8
1
0
POLYLINE
5
1a7
100
AcDbEntity
8
1
6
DOT2
62
5
100
AcDb2dPolyline
66
1
10
0.0
20
0.0
30
0.0
70
0
0
VERTEX
5
1a8
100
AcDbEntity
8
1
100
AcDbVertex
100
AcDb2dVertex
62
5
10
119.649953
20
192.912539
0
VERTEX
5
1a9
100
AcDbEntity
8
1
100
AcDbVertex
100
AcDb2dVertex
62
5
10
119.962453
20
194.475039
0
VERTEX
5
1aa
100
AcDbEntity
8
1
100
AcDbVertex
100
AcDb2dVertex
62
5
10
120.899953
20
195.100039
0
VERTEX
5
1ab
100
AcDbEntity
8
1
100
AcDbVertex
100
AcDb2dVertex
62
5
10
121.837453
20
195.100039
0
VERTEX
5
1ac
100
AcDbEntity
8
1
100
AcDbVertex
100
AcDb2dVertex
62
5
10
122.462453
20
194.787539
0
VERTEX
5
1ad
100
AcDbEntity
8
1
100
AcDbVertex
100
AcDb2dVertex
62
5
10
122.774953
20
193.850039
0
VERTEX
5
1ae
100
AcDbEntity
8
1
100
AcDbVertex
100
AcDb2dVertex
62
5
10
122.774953
20
192.912539
0
VERTEX
5
1af
100
AcDbEntity
8
1
100
AcDbVertex
100
AcDb2dVertex
62
5
10
122.462453
20
191.975039
0
VERTEX
5
1b0
100
AcDbEntity
8
1
100
AcDbVertex
100
AcDb2dVertex
62
5
10
119.649953
20
187.600039
0
VERTEX
5
1b1
100
AcDbEntity
8
1
100
AcDbVertex
100
AcDb2dVertex
62
5
10
122.774953
20
187.600039
0
VERTEX
5
1b2
100
AcDbEntity
8
1
100
AcDbVertex
100
AcDb2dVertex
62
5
10
122.774953
20
188.537539
0
SEQEND
5
1b3
100
AcDbEntity
8
1
0
LINE
5
1b4
100
AcDbEntity
8
1
100
AcDbLine
6
DOT2
62
5
10
74.424837
20
183.225000
11
75.049837
21
182.600000
0
POLYLINE
5
1b5
100
AcDbEntity
8
1
6
DOT2
62
5
100
AcDb2dPolyline
66
1
10
0.0
20
0.0
30
0.0
70
0
0
VERTEX
5
1b6
100
AcDbEntity
8
1
100
AcDbVertex
100
AcDb2dVertex
62
5
10
74.424837
20
182.600000
0
VERTEX
5
1b7
100
AcDbEntity
8
1
100
AcDbVertex
100
AcDb2dVertex
62
5
10
75.049837
20
183.225000
0
VERTEX
5
1b8
100
AcDbEntity
8
1
100
AcDbVertex
100
AcDb2dVertex
62
5
10
75.049837
20
182.600000
0
VERTEX
5
1b9
100
AcDbEntity
8
1
100
AcDbVertex
100
AcDb2dVertex
62
5
10
74.424837
20
182.600000
0
VERTEX
5
1ba
100
AcDbEntity
8
1
100
AcDbVertex
100
AcDb2dVertex
62
5
10
74.424837
20
183.225000
0
VERTEX
5
1bb
100
AcDbEntity
8
1
100
AcDbVertex
100
AcDb2dVertex
62
5
10
75.049837
20
183.225000
0
SEQEND
5
1bc
100
AcDbEntity
8
1
0
LINE
5
1bd
100
AcDbEntity
8
1
100
AcDbLine
6
CONTINUOUS
62
5
10
109.399946
20
162.350039
11
109.399946
21
188.350039
0
LINE
5
1be
100
AcDbEntity
8
1
100
AcDbLine
6
CONTINUOUS
62
5
10
137.398967
20
162.349049
11
137.398967
21
188.350039
0
POLYLINE
5
1bf
100
AcDbEntity
8
1
6
CONTINUOUS
62
5
100
AcDb2dPolyline
66
1
10
0.0
20
0.0
30
0.0
70
0
0
VERTEX
5
1c0
100
AcDbEntity
8
1
100
AcDbVertex
100
AcDb2dVertex
62
5
10
123.399953
20
186.350039
0
VERTEX
5
1c1
100
AcDbEntity
8
1
100
AcDbVertex
100
AcDb2dVertex
62
5
10
109.399946
20
186.350039
0
VERTEX
5
1c2
100
AcDbEntity
8
1
100
AcDbVertex
100
AcDb2dVertex
62
5
10
115.399946
20
187.350039
0
VERTEX
5
1c3
100
AcDbEntity
8
1
100
AcDbVertex
100
AcDb2dVertex
62
5
10
115.399946
20
185.350039
0
VERTEX
5
1c4
100
AcDbEntity
8
1
100
AcDbVertex
100
AcDb2dVertex
62
5
10
109.399946
20
186.350039
0
VERTEX
5
1c5
100
AcDbEntity
8
1
100
AcDbVertex
100
AcDb2dVertex
62
5
10
115.399946
20
186.850039
0
VERTEX
5
1c6
100
AcDbEntity
8
1
100
AcDbVertex
100
AcDb2dVertex
62
5
10
115.399946
20
185.850039
0
VERTEX
5
1c7
100
AcDbEntity
8
1
100
AcDbVertex
100
AcDb2dVertex
62
5
10
109.399946
20
186.350039
0
SEQEND
5
1c8
100
AcDbEntity
8
1
0
POLYLINE
5
1c9
100
AcDbEntity
8
1
6
CONTINUOUS
62
5
100
AcDb2dPolyline
66
1
10
0.0
20
0.0
30
0.0
70
0
0
VERTEX
5
1ca
100
AcDbEntity
8
1
100
AcDbVertex
100
AcDb2dVertex
62
5
10
123.399953
20
186.350039
0
VERTEX
5
1cb
100
AcDbEntity
8
1
100
AcDbVertex
100
AcDb2dVertex
62
5
10
137.398967
20
186.350039
0
VERTEX
5
1cc
100
AcDbEntity
8
1
100
AcDbVertex
100
AcDb2dVertex
62
5
10
131.398967
20
185.350039
0
VERTEX
5
1cd
100
AcDbEntity
8
1
100
AcDbVertex
100
AcDb2dVertex
62
5
10
131.398967
20
187.350039
0
VERTEX
5
1ce
100
AcDbEntity
8
1
100
AcDbVertex
100
AcDb2dVertex
62
5
10
137.398967
20
186.350039
0
VERTEX
5
1cf
100
AcDbEntity
8
1
100
AcDbVertex
100
AcDb2dVertex
62
5
10
131.398967
20
185.850039
0
VERTEX
5
1d0
100
AcDbEntity
8
1
100
AcDbVertex
100
AcDb2dVertex
62
5
10
131.398967
20
186.850039
0
VERTEX
5
1d1
100
AcDbEntity
8
1
100
AcDbVertex
100
AcDb2dVertex
62
5
10
137.398967
20
186.350039
0
SEQEND
5
1d2
100
AcDbEntity
8
1
0
POLYLINE
5
1d3
100
AcDbEntity
8
1
6
DOT2
62
5
100
AcDb2dPolyline
66
1
10
0.0
20
0.0
30
0.0
70
0
0
VERTEX
5
1d4
100
AcDbEntity
8
1
100
AcDbVertex
100
AcDb2dVertex
62
5
10
69.737337
20
172.600000
0
VERTEX
5
1d5
100
AcDbEntity
8
1
100
AcDbVertex
100
AcDb2dVertex
62
5
10
68.174837
20
172.912500
0
VERTEX
5
1d6
100
AcDbEntity
8
1
100
AcDbVertex
100
AcDb2dVertex
62
5
10
67.549837
20
173.850000
0
VERTEX
5
1d7
100
AcDbEntity
8
1
100
AcDbVertex
100
AcDb2dVertex
62
5
10
67.549837
20
174.787500
0
VERTEX
5
1d8
100
AcDbEntity
8
1
100
AcDbVertex
100
AcDb2dVertex
62
5
10
67.862337
20
175.412500
0
VERTEX
5
1d9
100
AcDbEntity
8
1
100
AcDbVertex
100
AcDb2dVertex
62
5
10
68.799837
20
175.725000
0
VERTEX
5
1da
100
AcDbEntity
8
1
100
AcDbVertex
100
AcDb2dVertex
62
5
10
69.737337
20
175.725000
0
VERTEX
5
1db
100
AcDbEntity
8
1
100
AcDbVertex
100
AcDb2dVertex
62
5
10
70.674837
20
175.412500
0
VERTEX
5
1dc
100
AcDbEntity
8
1
100
AcDbVertex
100
AcDb2dVertex
62
5
10
75.049837
20
172.600000
0
VERTEX
5
1dd
100
AcDbEntity
8
1
100
AcDbVertex
100
AcDb2dVertex
62
5
10
75.049837
20
175.725000
0
VERTEX
5
1de
100
AcDbEntity
8
1
100
AcDbVertex
100
AcDb2dVertex
62
5
10
74.112337
20
175.725000
0
SEQEND
5
1df
100
AcDbEntity
8
1
0
POLYLINE
5
1e0
100
AcDbEntity
8
1
6
DOT2
62
5
100
AcDb2dPolyline
66
1
10
0.0
20
0.0
30
0.0
70
0
0
VERTEX
5
1e1
100
AcDbEntity
8
1
100
AcDbVertex
100
AcDb2dVertex
62
5
10
69.737337
20
177.600000
0
VERTEX
5
1e2
100
AcDbEntity
8
1
100
AcDbVertex
100
AcDb2dVertex
62
5
10
68.174837
20
177.912500
0
VERTEX
5
1e3
100
AcDbEntity
8
1
100
AcDbVertex
100
AcDb2dVertex
62
5
10
67.549837
20
178.850000
0
VERTEX
5
1e4
100
AcDbEntity
8
1
100
AcDbVertex
100
AcDb2dVertex
62
5
10
67.549837
20
179.787500
0
VERTEX
5
1e5
100
AcDbEntity
8
1
100
AcDbVertex
100
AcDb2dVertex
62
5
10
67.862337
20
180.412500
0
VERTEX
5
1e6
100
AcDbEntity
8
1
100
AcDbVertex
100
AcDb2dVertex
62
5
10
68.799837
20
180.725000
0
VERTEX
5
1e7
100
AcDbEntity
8
1
100
AcDbVertex
100
AcDb2dVertex
62
5
10
69.737337
20
180.725000
0
VERTEX
5
1e8
100
AcDbEntity
8
1
100
AcDbVertex
100
AcDb2dVertex
62
5
10
70.674837
20
180.412500
0
VERTEX
5
1e9
100
AcDbEntity
8
1
100
AcDbVertex
100
AcDb2dVertex
62
5
10
75.049837
20
177.600000
0
VERTEX
5
1ea
100
AcDbEntity
8
1
100
AcDbVertex
100
AcDb2dVertex
62
5
10
75.049837
20
180.725000
0
VERTEX
5
1eb
100
AcDbEntity
8
1
100
AcDbVertex
100
AcDb2dVertex
62
5
10
74.112337
20
180.725000
0
SEQEND
5
1ec
100
AcDbEntity
8
1
0
POLYLINE
5
1ed
100
AcDbEntity
8
1
6
DOT2
62
5
100
AcDb2dPolyline
66
1
10
0.0
20
0.0
30
0.0
70
0
0
VERTEX
5
1ee
100
AcDbEntity
8
1
100
AcDbVertex
100
AcDb2dVertex
62
5
10
68.487337
20
187.600000
0
VERTEX
5
1ef
100
AcDbEntity
8
1
100
AcDbVertex
100
AcDb2dVertex
62
5
10
67.549837
20
187.600000
0
VERTEX
5
1f0
100
AcDbEntity
8
1
100
AcDbVertex
100
AcDb2dVertex
62
5
10
67.549837
20
190.725000
0
VERTEX
5
1f1
100
AcDbEntity
8
1
100
AcDbVertex
100
AcDb2dVertex
62
5
10
68.174837
20
190.725000
0
VERTEX
5
1f2
100
AcDbEntity
8
1
100
AcDbVertex
100
AcDb2dVertex
62
5
10
69.737337
20
190.100000
0
VERTEX
5
1f3
100
AcDbEntity
8
1
100
AcDbVertex
100
AcDb2dVertex
62
5
10
71.924837
20
189.475000
0
VERTEX
5
1f4
100
AcDbEntity
8
1
100
AcDbVertex
100
AcDb2dVertex
62
5
10
75.049837
20
188.850000
0
SEQEND
5
1f5
100
AcDbEntity
8
1
0
ARC
5
1f6
100
AcDbEntity
8
2
100
AcDbCircle
6
CONTINUOUS
62
5
10
218.200163
20
155.500039
40
0.500000
100
AcDbArc
50
-89.999999
51
-0.000000
0
POLYLINE
5
1f7
100
AcDbEntity
8
2
6
CONTINUOUS
62
5
100
AcDb2dPolyline
66
1
10
0.0
20
0.0
30
0.0
70
0
0
VERTEX
5
1f8
100
AcDbEntity
8
2
100
AcDbVertex
100
AcDb2dVertex
62
5
10
218.200163
20
155.000039
0
VERTEX
5
1f9
100
AcDbEntity
8
2
100
AcDbVertex
100
AcDb2dVertex
62
5
10
217.000008
20
155.000039
0
VERTEX
5
1fa
100
AcDbEntity
8
2
100
AcDbVertex
100
AcDb2dVertex
62
5
10
216.646541
20
155.146456
0
VERTEX
5
1fb
100
AcDbEntity
8
2
100
AcDbVertex
100
AcDb2dVertex
62
5
10
216.293075
20
155.499923
0
SEQEND
5
1fc
100
AcDbEntity
8
2
0
LINE
5
1fd
100
AcDbEntity
8
2
100
AcDbLine
6
CONTINUOUS
62
5
10
218.700163
20
155.499923
11
218.700163
21
155.500039
0
POLYLINE
5
1fe
100
AcDbEntity
8
2
6
CONTINUOUS
62
5
100
AcDb2dPolyline
66
1
10
0.0
20
0.0
30
0.0
70
0
0
VERTEX
5
1ff
100
AcDbEntity
8
2
100
AcDbVertex
100
AcDb2dVertex
62
5
10
212.977515
20
155.012958
0
VERTEX
5
200
100
AcDbEntity
8
2
100
AcDbVertex
100
AcDb2dVertex
62
5
10
212.977515
20
155.012958
0
VERTEX
5
201
100
AcDbEntity
8
2
100
AcDbVertex
100
AcDb2dVertex
62
5
10
215.100038
20
155.049993
0
VERTEX
5
202
100
AcDbEntity
8
2
100
AcDbVertex
100
AcDb2dVertex
62
5
10
215.100038
20
155.049993
0
VERTEX
5
203
100
AcDbEntity
8
2
100
AcDbVertex
100
AcDb2dVertex
62
5
10
215.100038
20
156.322956
0
VERTEX
5
204
100
AcDbEntity
8
2
100
AcDbVertex
100
AcDb2dVertex
62
5
10
215.096402
20
156.373845
0
VERTEX
5
205
100
AcDbEntity
8
2
100
AcDbVertex
100
AcDb2dVertex
62
5
10
215.085589
20
156.424227
0
VERTEX
5
206
100
AcDbEntity
8
2
100
AcDbVertex
100
AcDb2dVertex
62
5
10
215.067746
20
156.474027
0
VERTEX
5
207
100
AcDbEntity
8
2
100
AcDbVertex
100
AcDb2dVertex
62
5
10
215.043015
20
156.523170
0
VERTEX
5
208
100
AcDbEntity
8
2
100
AcDbVertex
100
AcDb2dVertex
62
5
10
215.011543
20
156.571580
0
VERTEX
5
209
100
AcDbEntity
8
2
100
AcDbVertex
100
AcDb2dVertex
62
5
10
214.973474
20
156.619180
0
VERTEX
5
20a
100
AcDbEntity
8
2
100
AcDbVertex
100
AcDb2dVertex
62
5
10
214.928952
20
156.665896
0
VERTEX
5
20b
100
AcDbEntity
8
2
100
AcDbVertex
100
AcDb2dVertex
62
5
10
214.878123
20
156.711652
0
VERTEX
5
20c
100
AcDbEntity
8
2
100
AcDbVertex
100
AcDb2dVertex
62
5
10
214.821131
20
156.756372
0
VERTEX
5
20d
100
AcDbEntity
8
2
100
AcDbVertex
100
AcDb2dVertex
62
5
10
214.758120
20
156.799980
0
VERTEX
5
20e
100
AcDbEntity
8
2
100
AcDbVertex
100
AcDb2dVertex
62
5
10
214.689236
20
156.842401
0
VERTEX
5
20f
100
AcDbEntity
8
2
100
AcDbVertex
100
AcDb2dVertex
62
5
10
214.614624
20
156.883559
0
VERTEX
5
210
100
AcDbEntity
8
2
100
AcDbVertex
100
AcDb2dVertex
62
5
10
214.534428
20
156.923379
0
VERTEX
5
211
100
AcDbEntity
8
2
100
AcDbVertex
100
AcDb2dVertex
62
5
10
214.448792
20
156.961784
0
VERTEX
5
212
100
AcDbEntity
8
2
100
AcDbVertex
100
AcDb2dVertex
62
5
10
214.357862
20
156.998699
0
VERTEX
5
213
100
AcDbEntity
8
2
100
AcDbVertex
100
AcDb2dVertex
62
5
10
214.261782
20
157.034049
0
VERTEX
5
214
100
AcDbEntity
8
2
100
AcDbVertex
100
AcDb2dVertex
62
5
10
214.160698
20
157.067758
0
VERTEX
5
215
100
AcDbEntity
8
2
100
AcDbVertex
100
AcDb2dVertex
62
5
10
214.054753
20
157.099750
0
VERTEX
5
216
100
AcDbEntity
8
2
100
AcDbVertex
100
AcDb2dVertex
62
5
10
213.944093
20
157.129949
0
VERTEX
5
217
100
AcDbEntity
8
2
100
AcDbVertex
100
AcDb2dVertex
62
5
10
213.828862
20
157.158280
0
VERTEX
5
218
100
AcDbEntity
8
2
100
AcDbVertex
100
AcDb2dVertex
62
5
10
213.709204
20
157.184667
0
VERTEX
5
219
100
AcDbEntity
8
2
100
AcDbVertex
100
AcDb2dVertex
62
5
10
213.585266
20
157.209035
0
VERTEX
5
21a
100
AcDbEntity
8
2
100
AcDbVertex
100
AcDb2dVertex
62
5
10
213.457191
20
157.231308
0
VERTEX
5
21b
100
AcDbEntity
8
2
100
AcDbVertex
100
AcDb2dVertex
62
5
10
213.325125
20
157.251409
0
VERTEX
5
21c
100
AcDbEntity
8
2
100
AcDbVertex
100
AcDb2dVertex
62
5
10
213.000252
20
157.297574
0
SEQEND
5
21d
100
AcDbEntity
8
2
0
LINE
5
21e
100
AcDbEntity
8
2
100
AcDbLine
6
CONTINUOUS
62
5
10
215.100038
20
155.999978
11
213.000252
21
155.999978
0
ARC
5
21f
100
AcDbEntity
8
2
100
AcDbCircle
6
CONTINUOUS
62
5
10
218.200163
20
144.499961
40
0.500000
100
AcDbArc
50
-0.000000
51
89.999999
0
LINE
5
220
100
AcDbEntity
8
2
100
AcDbLine
6
CONTINUOUS
62
5
10
218.700163
20
144.499961
11
218.700163
21
144.500077
0
POLYLINE
5
221
100
AcDbEntity
8
2
6
CONTINUOUS
62
5
100
AcDb2dPolyline
66
1
10
0.0
20
0.0
30
0.0
70
0
0
VERTEX
5
222
100
AcDbEntity
8
2
100
AcDbVertex
100
AcDb2dVertex
62
5
10
216.293075
20
144.500077
0
VERTEX
5
223
100
AcDbEntity
8
2
100
AcDbVertex
100
AcDb2dVertex
62
5
10
216.646541
20
144.853544
0
VERTEX
5
224
100
AcDbEntity
8
2
100
AcDbVertex
100
AcDb2dVertex
62
5
10
217.000008
20
144.999961
0
VERTEX
5
225
100
AcDbEntity
8
2
100
AcDbVertex
100
AcDb2dVertex
62
5
10
218.200163
20
144.999961
0
SEQEND
5
226
100
AcDbEntity
8
2
0
POLYLINE
5
227
100
AcDbEntity
8
2
6
CONTINUOUS
62
5
100
AcDb2dPolyline
66
1
10
0.0
20
0.0
30
0.0
70
0
0
VERTEX
5
228
100
AcDbEntity
8
2
100
AcDbVertex
100
AcDb2dVertex
62
5
10
212.974496
20
144.987212
0
VERTEX
5
229
100
AcDbEntity
8
2
100
AcDbVertex
100
AcDb2dVertex
62
5
10
212.974496
20
144.987212
0
VERTEX
5
22a
100
AcDbEntity
8
2
100
AcDbVertex
100
AcDb2dVertex
62
5
10
215.100038
20
144.950007
0
VERTEX
5
22b
100
AcDbEntity
8
2
100
AcDbVertex
100
AcDb2dVertex
62
5
10
215.100038
20
144.950007
0
VERTEX
5
22c
100
AcDbEntity
8
2
100
AcDbVertex
100
AcDb2dVertex
62
5
10
215.100038
20
143.677044
0
VERTEX
5
22d
100
AcDbEntity
8
2
100
AcDbVertex
100
AcDb2dVertex
62
5
10
215.096402
20
143.626155
0
VERTEX
5
22e
100
AcDbEntity
8
2
100
AcDbVertex
100
AcDb2dVertex
62
5
10
215.085589
20
143.575773
0
VERTEX
5
22f
100
AcDbEntity
8
2
100
AcDbVertex
100
AcDb2dVertex
62
5
10
215.067746
20
143.525973
0
VERTEX
5
230
100
AcDbEntity
8
2
100
AcDbVertex
100
AcDb2dVertex
62
5
10
215.043015
20
143.476830
0
VERTEX
5
231
100
AcDbEntity
8
2
100
AcDbVertex
100
AcDb2dVertex
62
5
10
215.011543
20
143.428420
0
VERTEX
5
232
100
AcDbEntity
8
2
100
AcDbVertex
100
AcDb2dVertex
62
5
10
214.973474
20
143.380820
0
VERTEX
5
233
100
AcDbEntity
8
2
100
AcDbVertex
100
AcDb2dVertex
62
5
10
214.928952
20
143.334104
0
VERTEX
5
234
100
AcDbEntity
8
2
100
AcDbVertex
100
AcDb2dVertex
62
5
10
214.878123
20
143.288348
0
VERTEX
5
235
100
AcDbEntity
8
2
100
AcDbVertex
100
AcDb2dVertex
62
5
10
214.821131
20
143.243628
0
VERTEX
5
236
100
AcDbEntity
8
2
100
AcDbVertex
100
AcDb2dVertex
62
5
10
214.758120
20
143.200020
0
VERTEX
5
237
100
AcDbEntity
8
2
100
AcDbVertex
100
AcDb2dVertex
62
5
10
214.689236
20
143.157599
0
VERTEX
5
238
100
AcDbEntity
8
2
100
AcDbVertex
100
AcDb2dVertex
62
5
10
214.614624
20
143.116441
0
VERTEX
5
239
100
AcDbEntity
8
2
100
AcDbVertex
100
AcDb2dVertex
62
5
10
214.534428
20
143.076621
0
VERTEX
5
23a
100
AcDbEntity
8
2
100
AcDbVertex
100
AcDb2dVertex
62
5
10
214.448792
20
143.038216
0
VERTEX
5
23b
100
AcDbEntity
8
2
100
AcDbVertex
100
AcDb2dVertex
62
5
10
214.357862
20
143.001301
0
VERTEX
5
23c
100
AcDbEntity
8
2
100
AcDbVertex
100
AcDb2dVertex
62
5
10
214.261782
20
142.965951
0
VERTEX
5
23d
100
AcDbEntity
8
2
100
AcDbVertex
100
AcDb2dVertex
62
5
10
214.160698
20
142.932242
0
VERTEX
5
23e
100
AcDbEntity
8
2
100
AcDbVertex
100
AcDb2dVertex
62
5
10
214.054753
20
142.900250
0
VERTEX
5
23f
100
AcDbEntity
8
2
100
AcDbVertex
100
AcDb2dVertex
62
5
10
213.944093
20
142.870051
0
VERTEX
5
240
100
AcDbEntity
8
2
100
AcDbVertex
100
AcDb2dVertex
62
5
10
213.828862
20
142.841720
0
VERTEX
5
241
100
AcDbEntity
8
2
100
AcDbVertex
100
AcDb2dVertex
62
5
10
213.709204
20
142.815333
0
VERTEX
5
242
100
AcDbEntity
8
2
100
AcDbVertex
100
AcDb2dVertex
62
5
10
213.585266
20
142.790965
0
VERTEX
5
243
100
AcDbEntity
8
2
100
AcDbVertex
100
AcDb2dVertex
62
5
10
213.457191
20
142.768692
0
VERTEX
5
244
100
AcDbEntity
8
2
100
AcDbVertex
100
AcDb2dVertex
62
5
10
213.325125
20
142.748591
0
VERTEX
5
245
100
AcDbEntity
8
2
100
AcDbVertex
100
AcDb2dVertex
62
5
10
213.000252
20
142.702426
0
SEQEND
5
246
100
AcDbEntity
8
2
0
LINE
5
247
100
AcDbEntity
8
2
100
AcDbLine
6
CONTINUOUS
62
5
10
215.100038
20
143.999849
11
213.000252
21
143.999849
0
POLYLINE
5
248
100
AcDbEntity
8
2
6
CONTINUOUS
62
5
100
AcDb2dPolyline
66
1
10
0.0
20
0.0
30
0.0
70
0
0
VERTEX
5
249
100
AcDbEntity
8
2
100
AcDbVertex
100
AcDb2dVertex
62
5
10
213.000252
20
151.499995
0
VERTEX
5
24a
100
AcDbEntity
8
2
100
AcDbVertex
100
AcDb2dVertex
62
5
10
216.593142
20
151.499995
0
VERTEX
5
24b
100
AcDbEntity
8
2
100
AcDbVertex
100
AcDb2dVertex
62
5
10
216.593142
20
148.500005
0
VERTEX
5
24c
100
AcDbEntity
8
2
100
AcDbVertex
100
AcDb2dVertex
62
5
10
213.000252
20
148.500005
0
SEQEND
5
24d
100
AcDbEntity
8
2
0
ARC
5
24e
100
AcDbEntity
8
2
100
AcDbCircle
6
CONTINUOUS
62
5
10
218.200163
20
157.500028
40
0.500000
100
AcDbArc
50
0.000000
51
89.999999
0
LINE
5
24f
100
AcDbEntity
8
2
100
AcDbLine
6
CONTINUOUS
62
5
10
218.200163
20
158.000028
11
213.000252
21
158.000028
0
LINE
5
250
100
AcDbEntity
8
2
100
AcDbLine
6
CONTINUOUS
62
5
10
213.000252
20
141.999972
11
218.200163
21
141.999972
0
ARC
5
251
100
AcDbEntity
8
2
100
AcDbCircle
6
CONTINUOUS
62
5
10
218.200163
20
142.499972
40
0.500000
100
AcDbArc
50
-89.999999
51
0.000000
0
LINE
5
252
100
AcDbEntity
8
2
100
AcDbLine
6
CONTINUOUS
62
5
10
218.700163
20
142.499972
11
218.700163
21
157.500028
0
LINE
5
253
100
AcDbEntity
8
2
100
AcDbLine
6
CONTINUOUS
62
5
10
209.500380
20
155.299884
11
209.500380
21
155.102359
0
POLYLINE
5
254
100
AcDbEntity
8
2
6
CONTINUOUS
62
5
100
AcDb2dPolyline
66
1
10
0.0
20
0.0
30
0.0
70
0
0
VERTEX
5
255
100
AcDbEntity
8
2
100
AcDbVertex
100
AcDb2dVertex
62
5
10
209.340527
20
155.302691
0
VERTEX
5
256
100
AcDbEntity
8
2
100
AcDbVertex
100
AcDb2dVertex
62
5
10
209.300220
20
155.328185
0
VERTEX
5
257
100
AcDbEntity
8
2
100
AcDbVertex
100
AcDb2dVertex
62
5
10
209.300220
20
158.171766
0
VERTEX
5
258
100
AcDbEntity
8
2
100
AcDbVertex
100
AcDb2dVertex
62
5
10
209.340527
20
158.197260
0
SEQEND
5
259
100
AcDbEntity
8
2
0
LINE
5
25a
100
AcDbEntity
8
2
100
AcDbLine
6
CONTINUOUS
62
5
10
209.500380
20
158.397420
11
209.500380
21
159.399943
0
ARC
5
25b
100
AcDbEntity
8
2
100
AcDbCircle
6
CONTINUOUS
62
5
10
209.295105
20
158.433223
40
0.215156
100
AcDbArc
50
-55.376307
51
-31.350538
0
ARC
5
25c
100
AcDbEntity
8
2
100
AcDbCircle
6
CONTINUOUS
62
5
10
209.349564
20
158.398959
40
0.150824
100
AcDbArc
50
-30.997900
51
-0.584482
0
ARC
5
25d
100
AcDbEntity
8
2
100
AcDbCircle
6
CONTINUOUS
62
5
10
209.217220
20
158.552075
40
0.357228
100
AcDbArc
50
-90.197742
51
-55.927729
0
LINE
5
25e
100
AcDbEntity
8
2
100
AcDbLine
6
CONTINUOUS
62
5
10
209.500380
20
144.699893
11
209.500380
21
144.897641
0
ARC
5
25f
100
AcDbEntity
8
2
100
AcDbCircle
6
CONTINUOUS
62
5
10
209.217220
20
141.447581
40
0.357228
100
AcDbArc
50
55.927729
51
90.197742
0
ARC
5
260
100
AcDbEntity
8
2
100
AcDbCircle
6
CONTINUOUS
62
5
10
209.295105
20
141.566432
40
0.215156
100
AcDbArc
50
31.350538
51
55.376307
0
ARC
5
261
100
AcDbEntity
8
2
100
AcDbCircle
6
CONTINUOUS
62
5
10
209.349564
20
141.600697
40
0.150824
100
AcDbArc
50
0.584482
51
30.997900
0
POLYLINE
5
262
100
AcDbEntity
8
2
6
CONTINUOUS
62
5
100
AcDb2dPolyline
66
1
10
0.0
20
0.0
30
0.0
70
0
0
VERTEX
5
263
100
AcDbEntity
8
2
100
AcDbVertex
100
AcDb2dVertex
62
5
10
209.340527
20
144.697137
0
VERTEX
5
264
100
AcDbEntity
8
2
100
AcDbVertex
100
AcDb2dVertex
62
5
10
209.300220
20
144.671643
0
VERTEX
5
265
100
AcDbEntity
8
2
100
AcDbVertex
100
AcDb2dVertex
62
5
10
209.300220
20
141.828061
0
VERTEX
5
266
100
AcDbEntity
8
2
100
AcDbVertex
100
AcDb2dVertex
62
5
10
209.340527
20
141.802912
0
SEQEND
5
267
100
AcDbEntity
8
2
0
ARC
5
268
100
AcDbEntity
8
2
100
AcDbCircle
6
CONTINUOUS
62
5
10
208.329682
20
140.594575
40
1.170709
100
AcDbArc
50
-21.249184
51
0.251415
0
POLYLINE
5
269
100
AcDbEntity
8
2
6
CONTINUOUS
62
5
100
AcDb2dPolyline
66
1
10
0.0
20
0.0
30
0.0
70
0
0
VERTEX
5
26a
100
AcDbEntity
8
2
100
AcDbVertex
100
AcDb2dVertex
62
5
10
208.500441
20
140.383705
0
VERTEX
5
26b
100
AcDbEntity
8
2
100
AcDbVertex
100
AcDb2dVertex
62
5
10
208.588291
20
140.032994
0
VERTEX
5
26c
100
AcDbEntity
8
2
100
AcDbVertex
100
AcDb2dVertex
62
5
10
208.648063
20
139.936876
0
VERTEX
5
26d
100
AcDbEntity
8
2
100
AcDbVertex
100
AcDb2dVertex
62
5
10
208.720582
20
139.860567
0
VERTEX
5
26e
100
AcDbEntity
8
2
100
AcDbVertex
100
AcDb2dVertex
62
5
10
208.821351
20
139.798383
0
VERTEX
5
26f
100
AcDbEntity
8
2
100
AcDbVertex
100
AcDb2dVertex
62
5
10
208.931595
20
139.771512
0
VERTEX
5
270
100
AcDbEntity
8
2
100
AcDbVertex
100
AcDb2dVertex
62
5
10
209.047866
20
139.782708
0
VERTEX
5
271
100
AcDbEntity
8
2
100
AcDbVertex
100
AcDb2dVertex
62
5
10
209.145190
20
139.823360
0
VERTEX
5
272
100
AcDbEntity
8
2
100
AcDbVertex
100
AcDb2dVertex
62
5
10
209.237691
20
139.891918
0
VERTEX
5
273
100
AcDbEntity
8
2
100
AcDbVertex
100
AcDb2dVertex
62
5
10
209.306938
20
139.968054
0
VERTEX
5
274
100
AcDbEntity
8
2
100
AcDbVertex
100
AcDb2dVertex
62
5
10
209.368433
20
140.060727
0
VERTEX
5
275
100
AcDbEntity
8
2
100
AcDbVertex
100
AcDb2dVertex
62
5
10
209.420798
20
140.170281
0
SEQEND
5
276
100
AcDbEntity
8
2
0
ARC
5
277
100
AcDbEntity
8
2
100
AcDbCircle
6
CONTINUOUS
62
5
10
206.000396
20
155.956145
40
1.000000
100
AcDbArc
50
91.004381
51
179.999998
0
LINE
5
278
100
AcDbEntity
8
2
100
AcDbLine
6
CONTINUOUS
62
5
10
205.000396
20
155.956145
11
205.000396
21
144.043596
0
ARC
5
279
100
AcDbEntity
8
2
100
AcDbCircle
6
CONTINUOUS
62
5
10
206.000396
20
144.043596
40
1.000000
100
AcDbArc
50
179.999998
51
-90.994280
0
LINE
5
27a
100
AcDbEntity
8
2
100
AcDbLine
6
CONTINUOUS
62
5
10
205.983043
20
143.043747
11
208.300453
21
143.003528
0
LINE
5
27b
100
AcDbEntity
8
2
100
AcDbLine
6
CONTINUOUS
62
5
10
208.300453
20
156.996472
11
205.982867
21
156.955991
0
ARC
5
27c
100
AcDbEntity
8
2
100
AcDbCircle
6
CONTINUOUS
62
5
10
209.213408
20
145.068741
40
0.373799
100
AcDbArc
50
-89.578192
51
-60.639460
0
ARC
5
27d
100
AcDbEntity
8
2
100
AcDbCircle
6
CONTINUOUS
62
5
10
209.290469
20
144.935913
40
0.220258
100
AcDbArc
50
-61.169357
51
-28.604624
0
ARC
5
27e
100
AcDbEntity
8
2
100
AcDbCircle
6
CONTINUOUS
62
5
10
209.349559
20
144.899141
40
0.150828
100
AcDbArc
50
-27.087458
51
-0.569847
0
LINE
5
27f
100
AcDbEntity
8
2
100
AcDbLine
6
CONTINUOUS
62
5
10
209.500380
20
144.897641
11
209.500380
21
155.102359
0
ARC
5
280
100
AcDbEntity
8
2
100
AcDbCircle
6
CONTINUOUS
62
5
10
209.330439
20
155.095092
40
0.170096
100
AcDbArc
50
2.448615
51
47.857609
0
ARC
5
281
100
AcDbEntity
8
2
100
AcDbCircle
6
CONTINUOUS
62
5
10
209.245656
20
155.004712
40
0.294006
100
AcDbArc
50
47.424640
51
71.741241
0
ARC
5
282
100
AcDbEntity
8
2
100
AcDbCircle
6
CONTINUOUS
62
5
10
209.210416
20
154.908438
40
0.396488
100
AcDbArc
50
71.263920
51
88.563897
0
ARC
5
283
100
AcDbEntity
8
2
100
AcDbCircle
6
CONTINUOUS
62
5
10
207.100585
20
153.451421
40
0.200219
100
AcDbArc
50
90.608326
51
179.937106
0
LINE
5
284
100
AcDbEntity
8
2
100
AcDbLine
6
CONTINUOUS
62
5
10
206.900366
20
153.451641
11
206.900366
21
146.548187
0
ARC
5
285
100
AcDbEntity
8
2
100
AcDbCircle
6
CONTINUOUS
62
5
10
207.100023
20
146.548022
40
0.199657
100
AcDbArc
50
179.952802
51
-90.448867
0
LINE
5
286
100
AcDbEntity
8
2
100
AcDbLine
6
CONTINUOUS
62
5
10
207.098459
20
146.348371
11
208.500269
21
146.335969
0
LINE
5
287
100
AcDbEntity
8
2
100
AcDbLine
6
CONTINUOUS
62
5
10
208.500269
20
153.663600
11
207.098459
21
153.651629
0
LINE
5
288
100
AcDbEntity
8
2
100
AcDbLine
6
CONTINUOUS
62
5
10
208.500269
20
144.667164
11
208.500269
21
155.332836
0
POLYLINE
5
289
100
AcDbEntity
8
2
6
CONTINUOUS
62
5
100
AcDb2dPolyline
66
1
10
0.0
20
0.0
30
0.0
70
0
0
VERTEX
5
28a
100
AcDbEntity
8
2
100
AcDbVertex
100
AcDb2dVertex
62
5
10
200.600320
20
157.299985
0
VERTEX
5
28b
100
AcDbEntity
8
2
100
AcDbVertex
100
AcDb2dVertex
62
5
10
200.500068
20
157.299985
0
VERTEX
5
28c
100
AcDbEntity
8
2
100
AcDbVertex
100
AcDb2dVertex
62
5
10
200.500068
20
142.700015
0
VERTEX
5
28d
100
AcDbEntity
8
2
100
AcDbVertex
100
AcDb2dVertex
62
5
10
200.600320
20
142.700015
0
SEQEND
5
28e
100
AcDbEntity
8
2
0
ARC
5
28f
100
AcDbEntity
8
2
100
AcDbCircle
6
CONTINUOUS
62
5
10
208.600453
20
157.884167
40
0.300000
100
AcDbArc
50
91.006014
51
179.999998
0
LINE
5
290
100
AcDbEntity
8
2
100
AcDbLine
6
CONTINUOUS
62
5
10
208.300453
20
157.884167
11
208.300453
21
155.615733
0
ARC
5
291
100
AcDbEntity
8
2
100
AcDbCircle
6
CONTINUOUS
62
5
10
208.600453
20
155.615733
40
0.300000
100
AcDbArc
50
179.999998
51
-91.006014
0
POLYLINE
5
292
100
AcDbEntity
8
2
6
CONTINUOUS
62
5
100
AcDb2dPolyline
66
1
10
0.0
20
0.0
30
0.0
70
0
0
VERTEX
5
293
100
AcDbEntity
8
2
100
AcDbVertex
100
AcDb2dVertex
62
5
10
208.595186
20
155.315779
0
VERTEX
5
294
100
AcDbEntity
8
2
100
AcDbVertex
100
AcDb2dVertex
62
5
10
209.500380
20
155.299884
0
VERTEX
5
295
100
AcDbEntity
8
2
100
AcDbVertex
100
AcDb2dVertex
62
5
10
209.795969
20
155.302519
0
SEQEND
5
296
100
AcDbEntity
8
2
0
POLYLINE
5
297
100
AcDbEntity
8
2
6
CONTINUOUS
62
5
100
AcDb2dPolyline
66
1
10
0.0
20
0.0
30
0.0
70
0
0
VERTEX
5
298
100
AcDbEntity
8
2
100
AcDbVertex
100
AcDb2dVertex
62
5
10
209.795969
20
158.197432
0
VERTEX
5
299
100
AcDbEntity
8
2
100
AcDbVertex
100
AcDb2dVertex
62
5
10
209.500380
20
158.200016
0
VERTEX
5
29a
100
AcDbEntity
8
2
100
AcDbVertex
100
AcDb2dVertex
62
5
10
208.595186
20
158.184121
0
SEQEND
5
29b
100
AcDbEntity
8
2
0
ARC
5
29c
100
AcDbEntity
8
2
100
AcDbCircle
6
CONTINUOUS
62
5
10
212.700822
20
155.127671
40
0.299431
100
AcDbArc
50
-55.989867
51
0.034788
0
POLYLINE
5
29d
100
AcDbEntity
8
2
6
CONTINUOUS
62
5
100
AcDb2dPolyline
66
1
10
0.0
20
0.0
30
0.0
70
0
0
VERTEX
5
29e
100
AcDbEntity
8
2
100
AcDbVertex
100
AcDb2dVertex
62
5
10
208.908857
20
154.810387
0
VERTEX
5
29f
100
AcDbEntity
8
2
100
AcDbVertex
100
AcDb2dVertex
62
5
10
209.500380
20
154.800052
0
VERTEX
5
2a0
100
AcDbEntity
8
2
100
AcDbVertex
100
AcDb2dVertex
62
5
10
212.504847
20
154.826234
0
VERTEX
5
2a1
100
AcDbEntity
8
2
100
AcDbVertex
100
AcDb2dVertex
62
5
10
212.580640
20
154.826923
0
VERTEX
5
2a2
100
AcDbEntity
8
2
100
AcDbVertex
100
AcDb2dVertex
62
5
10
212.868305
20
154.879461
0
SEQEND
5
2a3
100
AcDbEntity
8
2
0
ARC
5
2a4
100
AcDbEntity
8
2
100
AcDbCircle
6
CONTINUOUS
62
5
10
208.600453
20
142.115242
40
0.300000
100
AcDbArc
50
179.999998
51
-90.979545
0
LINE
5
2a5
100
AcDbEntity
8
2
100
AcDbLine
6
CONTINUOUS
62
5
10
208.300453
20
142.115242
11
208.300453
21
144.384095
0
ARC
5
2a6
100
AcDbEntity
8
2
100
AcDbCircle
6
CONTINUOUS
62
5
10
208.600453
20
144.384095
40
0.300000
100
AcDbArc
50
91.006014
51
179.999998
0
POLYLINE
5
2a7
100
AcDbEntity
8
2
6
CONTINUOUS
62
5
100
AcDb2dPolyline
66
1
10
0.0
20
0.0
30
0.0
70
0
0
VERTEX
5
2a8
100
AcDbEntity
8
2
100
AcDbVertex
100
AcDb2dVertex
62
5
10
208.595186
20
144.684049
0
VERTEX
5
2a9
100
AcDbEntity
8
2
100
AcDbVertex
100
AcDb2dVertex
62
5
10
209.500380
20
144.699944
0
VERTEX
5
2aa
100
AcDbEntity
8
2
100
AcDbVertex
100
AcDb2dVertex
62
5
10
209.795969
20
144.697481
0
SEQEND
5
2ab
100
AcDbEntity
8
2
0
POLYLINE
5
2ac
100
AcDbEntity
8
2
6
CONTINUOUS
62
5
100
AcDb2dPolyline
66
1
10
0.0
20
0.0
30
0.0
70
0
0
VERTEX
5
2ad
100
AcDbEntity
8
2
100
AcDbVertex
100
AcDb2dVertex
62
5
10
209.795969
20
141.802568
0
VERTEX
5
2ae
100
AcDbEntity
8
2
100
AcDbVertex
100
AcDb2dVertex
62
5
10
209.500380
20
141.799811
0
VERTEX
5
2af
100
AcDbEntity
8
2
100
AcDbVertex
100
AcDb2dVertex
62
5
10
208.595324
20
141.815286
0
SEQEND
5
2b0
100
AcDbEntity
8
2
0
ARC
5
2b1
100
AcDbEntity
8
2
100
AcDbCircle
6
CONTINUOUS
62
5
10
212.677928
20
144.832607
40
0.336540
100
AcDbArc
50
40.065544
51
69.969038
0
ARC
5
2b2
100
AcDbEntity
8
2
100
AcDbCircle
6
CONTINUOUS
62
5
10
212.655927
20
144.764301
40
0.408259
100
AcDbArc
50
70.351683
51
90.025782
0
POLYLINE
5
2b3
100
AcDbEntity
8
2
6
CONTINUOUS
62
5
100
AcDb2dPolyline
66
1
10
0.0
20
0.0
30
0.0
70
0
0
VERTEX
5
2b4
100
AcDbEntity
8
2
100
AcDbVertex
100
AcDb2dVertex
62
5
10
212.655743
20
145.172560
0
VERTEX
5
2b5
100
AcDbEntity
8
2
100
AcDbVertex
100
AcDb2dVertex
62
5
10
209.500380
20
145.200121
0
VERTEX
5
2b6
100
AcDbEntity
8
2
100
AcDbVertex
100
AcDb2dVertex
62
5
10
208.908857
20
145.189785
0
SEQEND
5
2b7
100
AcDbEntity
8
2
0
POLYLINE
5
2b8
100
AcDbEntity
8
2
6
CONTINUOUS
62
5
100
AcDb2dPolyline
66
1
10
0.0
20
0.0
30
0.0
70
0
0
VERTEX
5
2b9
100
AcDbEntity
8
2
100
AcDbVertex
100
AcDb2dVertex
62
5
10
213.000252
20
144.872148
0
VERTEX
5
2ba
100
AcDbEntity
8
2
100
AcDbVertex
100
AcDb2dVertex
62
5
10
212.999908
20
144.884894
0
VERTEX
5
2bb
100
AcDbEntity
8
2
100
AcDbVertex
100
AcDb2dVertex
62
5
10
212.999219
20
144.897986
0
SEQEND
5
2bc
100
AcDbEntity
8
2
0
ARC
5
2bd
100
AcDbEntity
8
2
100
AcDbCircle
6
CONTINUOUS
62
5
10
212.720169
20
144.869440
40
0.280506
100
AcDbArc
50
5.840863
51
39.861449
0
ARC
5
2be
100
AcDbEntity
8
2
100
AcDbCircle
6
CONTINUOUS
62
5
10
212.500411
20
139.876008
40
0.499841
100
AcDbArc
50
-89.491444
51
0.007083
0
LINE
5
2bf
100
AcDbEntity
8
2
100
AcDbLine
6
CONTINUOUS
62
5
10
212.504848
20
139.376187
11
209.500380
21
139.350004
0
ARC
5
2c0
100
AcDbEntity
8
2
100
AcDbCircle
6
CONTINUOUS
62
5
10
209.499845
20
140.349027
40
0.999023
100
AcDbArc
50
-142.366742
51
-89.969358
0
ARC
5
2c1
100
AcDbEntity
8
2
100
AcDbCircle
6
CONTINUOUS
62
5
10
209.505078
20
140.351718
40
1.004811
100
AcDbArc
50
-179.908590
51
-142.427392
0
LINE
5
2c2
100
AcDbEntity
8
2
100
AcDbLine
6
CONTINUOUS
62
5
10
208.500269
20
140.350115
11
208.500269
21
141.832465
0
LINE
5
2c3
100
AcDbEntity
8
2
100
AcDbLine
6
CONTINUOUS
62
5
10
209.500380
20
141.799811
11
209.500380
21
138.649788
0
LINE
5
2c4
100
AcDbEntity
8
2
100
AcDbLine
6
CONTINUOUS
62
5
10
144.400049
20
155.102359
11
144.395053
21
155.304930
0
POLYLINE
5
2c5
100
AcDbEntity
8
2
6
CONTINUOUS
62
5
100
AcDb2dPolyline
66
1
10
0.0
20
0.0
30
0.0
70
0
0
VERTEX
5
2c6
100
AcDbEntity
8
2
100
AcDbVertex
100
AcDb2dVertex
62
5
10
143.389602
20
154.810387
0
VERTEX
5
2c7
100
AcDbEntity
8
2
100
AcDbVertex
100
AcDb2dVertex
62
5
10
143.980953
20
154.800052
0
VERTEX
5
2c8
100
AcDbEntity
8
2
100
AcDbVertex
100
AcDb2dVertex
62
5
10
144.006442
20
154.800629
0
VERTEX
5
2c9
100
AcDbEntity
8
2
100
AcDbVertex
100
AcDb2dVertex
62
5
10
144.035480
20
154.802518
0
VERTEX
5
2ca
100
AcDbEntity
8
2
100
AcDbVertex
100
AcDb2dVertex
62
5
10
144.061987
20
154.805545
0
VERTEX
5
2cb
100
AcDbEntity
8
2
100
AcDbVertex
100
AcDb2dVertex
62
5
10
144.087917
20
154.809719
0
VERTEX
5
2cc
100
AcDbEntity
8
2
100
AcDbVertex
100
AcDb2dVertex
62
5
10
144.113212
20
154.815003
0
VERTEX
5
2cd
100
AcDbEntity
8
2
100
AcDbVertex
100
AcDb2dVertex
62
5
10
144.137818
20
154.821360
0
VERTEX
5
2ce
100
AcDbEntity
8
2
100
AcDbVertex
100
AcDb2dVertex
62
5
10
144.161678
20
154.828752
0
VERTEX
5
2cf
100
AcDbEntity
8
2
100
AcDbVertex
100
AcDb2dVertex
62
5
10
144.184737
20
154.837144
0
VERTEX
5
2d0
100
AcDbEntity
8
2
100
AcDbVertex
100
AcDb2dVertex
62
5
10
144.206938
20
154.846497
0
VERTEX
5
2d1
100
AcDbEntity
8
2
100
AcDbVertex
100
AcDb2dVertex
62
5
10
144.228227
20
154.856774
0
VERTEX
5
2d2
100
AcDbEntity
8
2
100
AcDbVertex
100
AcDb2dVertex
62
5
10
144.248547
20
154.867940
0
VERTEX
5
2d3
100
AcDbEntity
8
2
100
AcDbVertex
100
AcDb2dVertex
62
5
10
144.267843
20
154.879956
0
VERTEX
5
2d4
100
AcDbEntity
8
2
100
AcDbVertex
100
AcDb2dVertex
62
5
10
144.286059
20
154.892786
0
VERTEX
5
2d5
100
AcDbEntity
8
2
100
AcDbVertex
100
AcDb2dVertex
62
5
10
144.303139
20
154.906393
0
VERTEX
5
2d6
100
AcDbEntity
8
2
100
AcDbVertex
100
AcDb2dVertex
62
5
10
144.319027
20
154.920739
0
VERTEX
5
2d7
100
AcDbEntity
8
2
100
AcDbVertex
100
AcDb2dVertex
62
5
10
144.333667
20
154.935788
0
VERTEX
5
2d8
100
AcDbEntity
8
2
100
AcDbVertex
100
AcDb2dVertex
62
5
10
144.347004
20
154.951503
0
VERTEX
5
2d9
100
AcDbEntity
8
2
100
AcDbVertex
100
AcDb2dVertex
62
5
10
144.358982
20
154.967847
0
VERTEX
5
2da
100
AcDbEntity
8
2
100
AcDbVertex
100
AcDb2dVertex
62
5
10
144.369545
20
154.984782
0
VERTEX
5
2db
100
AcDbEntity
8
2
100
AcDbVertex
100
AcDb2dVertex
62
5
10
144.378638
20
155.002271
0
VERTEX
5
2dc
100
AcDbEntity
8
2
100
AcDbVertex
100
AcDb2dVertex
62
5
10
144.386205
20
155.020279
0
VERTEX
5
2dd
100
AcDbEntity
8
2
100
AcDbVertex
100
AcDb2dVertex
62
5
10
144.392189
20
155.038767
0
VERTEX
5
2de
100
AcDbEntity
8
2
100
AcDbVertex
100
AcDb2dVertex
62
5
10
144.396535
20
155.057699
0
VERTEX
5
2df
100
AcDbEntity
8
2
100
AcDbVertex
100
AcDb2dVertex
62
5
10
144.399188
20
155.077037
0
SEQEND
5
2e0
100
AcDbEntity
8
2
0
ARC
5
2e1
100
AcDbEntity
8
2
100
AcDbCircle
6
CONTINUOUS
62
5
10
144.700331
20
156.103274
40
0.799736
100
AcDbArc
50
-75.738226
51
0.004128
0
LINE
5
2e2
100
AcDbEntity
8
2
100
AcDbLine
6
CONTINUOUS
62
5
10
145.500068
20
156.103331
11
145.500068
21
157.396620
0
ARC
5
2e3
100
AcDbEntity
8
2
100
AcDbCircle
6
CONTINUOUS
62
5
10
144.700186
20
157.396564
40
0.799882
100
AcDbArc
50
0.003991
51
75.730108
0
POLYLINE
5
2e4
100
AcDbEntity
8
2
6
CONTINUOUS
62
5
100
AcDb2dPolyline
66
1
10
0.0
20
0.0
30
0.0
70
0
0
VERTEX
5
2e5
100
AcDbEntity
8
2
100
AcDbVertex
100
AcDb2dVertex
62
5
10
144.897348
20
158.171766
0
VERTEX
5
2e6
100
AcDbEntity
8
2
100
AcDbVertex
100
AcDb2dVertex
62
5
10
144.700806
20
158.197260
0
VERTEX
5
2e7
100
AcDbEntity
8
2
100
AcDbVertex
100
AcDb2dVertex
62
5
10
144.497373
20
158.200016
0
VERTEX
5
2e8
100
AcDbEntity
8
2
100
AcDbVertex
100
AcDb2dVertex
62
5
10
144.400049
20
158.200016
0
VERTEX
5
2e9
100
AcDbEntity
8
2
100
AcDbVertex
100
AcDb2dVertex
62
5
10
144.395053
20
158.195021
0
VERTEX
5
2ea
100
AcDbEntity
8
2
100
AcDbVertex
100
AcDb2dVertex
62
5
10
143.883457
20
158.186580
0
VERTEX
5
2eb
100
AcDbEntity
8
2
100
AcDbVertex
100
AcDb2dVertex
62
5
10
143.878461
20
158.186580
0
VERTEX
5
2ec
100
AcDbEntity
8
2
100
AcDbVertex
100
AcDb2dVertex
62
5
10
143.876222
20
158.186408
0
VERTEX
5
2ed
100
AcDbEntity
8
2
100
AcDbVertex
100
AcDb2dVertex
62
5
10
143.873810
20
158.186236
0
VERTEX
5
2ee
100
AcDbEntity
8
2
100
AcDbVertex
100
AcDb2dVertex
62
5
10
143.869849
20
158.185891
0
VERTEX
5
2ef
100
AcDbEntity
8
2
100
AcDbVertex
100
AcDb2dVertex
62
5
10
143.866059
20
158.185547
0
VERTEX
5
2f0
100
AcDbEntity
8
2
100
AcDbVertex
100
AcDb2dVertex
62
5
10
143.862442
20
158.185030
0
VERTEX
5
2f1
100
AcDbEntity
8
2
100
AcDbVertex
100
AcDb2dVertex
62
5
10
143.858997
20
158.184341
0
VERTEX
5
2f2
100
AcDbEntity
8
2
100
AcDbVertex
100
AcDb2dVertex
62
5
10
143.855379
20
158.183652
0
VERTEX
5
2f3
100
AcDbEntity
8
2
100
AcDbVertex
100
AcDb2dVertex
62
5
10
143.852106
20
158.182791
0
VERTEX
5
2f4
100
AcDbEntity
8
2
100
AcDbVertex
100
AcDb2dVertex
62
5
10
143.845733
20
158.180896
0
VERTEX
5
2f5
100
AcDbEntity
8
2
100
AcDbVertex
100
AcDb2dVertex
62
5
10
143.839015
20
158.178312
0
VERTEX
5
2f6
100
AcDbEntity
8
2
100
AcDbVertex
100
AcDb2dVertex
62
5
10
143.832814
20
158.175384
0
VERTEX
5
2f7
100
AcDbEntity
8
2
100
AcDbVertex
100
AcDb2dVertex
62
5
10
143.826613
20
158.171939
0
VERTEX
5
2f8
100
AcDbEntity
8
2
100
AcDbVertex
100
AcDb2dVertex
62
5
10
143.820756
20
158.168149
0
VERTEX
5
2f9
100
AcDbEntity
8
2
100
AcDbVertex
100
AcDb2dVertex
62
5
10
143.814727
20
158.163671
0
VERTEX
5
2fa
100
AcDbEntity
8
2
100
AcDbVertex
100
AcDb2dVertex
62
5
10
143.809043
20
158.159020
0
VERTEX
5
2fb
100
AcDbEntity
8
2
100
AcDbVertex
100
AcDb2dVertex
62
5
10
143.803358
20
158.153680
0
VERTEX
5
2fc
100
AcDbEntity
8
2
100
AcDbVertex
100
AcDb2dVertex
62
5
10
143.797846
20
158.147995
0
VERTEX
5
2fd
100
AcDbEntity
8
2
100
AcDbVertex
100
AcDb2dVertex
62
5
10
143.792334
20
158.141622
0
VERTEX
5
2fe
100
AcDbEntity
8
2
100
AcDbVertex
100
AcDb2dVertex
62
5
10
143.786822
20
158.134904
0
VERTEX
5
2ff
100
AcDbEntity
8
2
100
AcDbVertex
100
AcDb2dVertex
62
5
10
143.781482
20
158.127842
0
VERTEX
5
300
100
AcDbEntity
8
2
100
AcDbVertex
100
AcDb2dVertex
62
5
10
143.776142
20
158.120090
0
VERTEX
5
301
100
AcDbEntity
8
2
100
AcDbVertex
100
AcDb2dVertex
62
5
10
143.770802
20
158.111822
0
VERTEX
5
302
100
AcDbEntity
8
2
100
AcDbVertex
100
AcDb2dVertex
62
5
10
143.765634
20
158.103209
0
VERTEX
5
303
100
AcDbEntity
8
2
100
AcDbVertex
100
AcDb2dVertex
62
5
10
143.760467
20
158.094080
0
VERTEX
5
304
100
AcDbEntity
8
2
100
AcDbVertex
100
AcDb2dVertex
62
5
10
143.755471
20
158.084433
0
VERTEX
5
305
100
AcDbEntity
8
2
100
AcDbVertex
100
AcDb2dVertex
62
5
10
143.750821
20
158.075132
0
VERTEX
5
306
100
AcDbEntity
8
2
100
AcDbVertex
100
AcDb2dVertex
62
5
10
143.746342
20
158.065485
0
VERTEX
5
307
100
AcDbEntity
8
2
100
AcDbVertex
100
AcDb2dVertex
62
5
10
143.741863
20
158.055322
0
VERTEX
5
308
100
AcDbEntity
8
2
100
AcDbVertex
100
AcDb2dVertex
62
5
10
143.737729
20
158.044987
0
VERTEX
5
309
100
AcDbEntity
8
2
100
AcDbVertex
100
AcDb2dVertex
62
5
10
143.733423
20
158.033963
0
VERTEX
5
30a
100
AcDbEntity
8
2
100
AcDbVertex
100
AcDb2dVertex
62
5
10
143.729461
20
158.022766
0
VERTEX
5
30b
100
AcDbEntity
8
2
100
AcDbVertex
100
AcDb2dVertex
62
5
10
143.725499
20
158.011225
0
VERTEX
5
30c
100
AcDbEntity
8
2
100
AcDbVertex
100
AcDb2dVertex
62
5
10
143.721710
20
157.999339
0
VERTEX
5
30d
100
AcDbEntity
8
2
100
AcDbVertex
100
AcDb2dVertex
62
5
10
143.719126
20
157.990554
0
VERTEX
5
30e
100
AcDbEntity
8
2
100
AcDbVertex
100
AcDb2dVertex
62
5
10
143.716714
20
157.981769
0
VERTEX
5
30f
100
AcDbEntity
8
2
100
AcDbVertex
100
AcDb2dVertex
62
5
10
143.714303
20
157.972640
0
VERTEX
5
310
100
AcDbEntity
8
2
100
AcDbVertex
100
AcDb2dVertex
62
5
10
143.711891
20
157.963510
0
VERTEX
5
311
100
AcDbEntity
8
2
100
AcDbVertex
100
AcDb2dVertex
62
5
10
143.709652
20
157.954209
0
VERTEX
5
312
100
AcDbEntity
8
2
100
AcDbVertex
100
AcDb2dVertex
62
5
10
143.707585
20
157.944907
0
VERTEX
5
313
100
AcDbEntity
8
2
100
AcDbVertex
100
AcDb2dVertex
62
5
10
143.705690
20
157.935433
0
VERTEX
5
314
100
AcDbEntity
8
2
100
AcDbVertex
100
AcDb2dVertex
62
5
10
143.703795
20
157.925959
0
SEQEND
5
315
100
AcDbEntity
8
2
0
ARC
5
316
100
AcDbEntity
8
2
100
AcDbCircle
6
CONTINUOUS
62
5
10
143.908239
20
157.886412
40
0.208233
100
AcDbArc
50
169.052159
51
-179.932823
0
LINE
5
317
100
AcDbEntity
8
2
100
AcDbLine
6
CONTINUOUS
62
5
10
143.700005
20
157.886168
11
143.700005
21
155.613783
0
ARC
5
318
100
AcDbEntity
8
2
100
AcDbCircle
6
CONTINUOUS
62
5
10
143.907308
20
155.613450
40
0.207302
100
AcDbArc
50
179.908069
51
-169.027346
0
POLYLINE
5
319
100
AcDbEntity
8
2
6
CONTINUOUS
62
5
100
AcDb2dPolyline
66
1
10
0.0
20
0.0
30
0.0
70
0
0
VERTEX
5
31a
100
AcDbEntity
8
2
100
AcDbVertex
100
AcDb2dVertex
62
5
10
143.703795
20
155.573992
0
VERTEX
5
31b
100
AcDbEntity
8
2
100
AcDbVertex
100
AcDb2dVertex
62
5
10
143.706379
20
155.560556
0
VERTEX
5
31c
100
AcDbEntity
8
2
100
AcDbVertex
100
AcDb2dVertex
62
5
10
143.709307
20
155.547293
0
VERTEX
5
31d
100
AcDbEntity
8
2
100
AcDbVertex
100
AcDb2dVertex
62
5
10
143.712580
20
155.534029
0
VERTEX
5
31e
100
AcDbEntity
8
2
100
AcDbVertex
100
AcDb2dVertex
62
5
10
143.716025
20
155.520766
0
VERTEX
5
31f
100
AcDbEntity
8
2
100
AcDbVertex
100
AcDb2dVertex
62
5
10
143.718953
20
155.509913
0
VERTEX
5
320
100
AcDbEntity
8
2
100
AcDbVertex
100
AcDb2dVertex
62
5
10
143.722226
20
155.499061
0
VERTEX
5
321
100
AcDbEntity
8
2
100
AcDbVertex
100
AcDb2dVertex
62
5
10
143.725671
20
155.488382
0
VERTEX
5
322
100
AcDbEntity
8
2
100
AcDbVertex
100
AcDb2dVertex
62
5
10
143.729116
20
155.477874
0
VERTEX
5
323
100
AcDbEntity
8
2
100
AcDbVertex
100
AcDb2dVertex
62
5
10
143.732906
20
155.467539
0
VERTEX
5
324
100
AcDbEntity
8
2
100
AcDbVertex
100
AcDb2dVertex
62
5
10
143.736868
20
155.457204
0
VERTEX
5
325
100
AcDbEntity
8
2
100
AcDbVertex
100
AcDb2dVertex
62
5
10
143.740830
20
155.447213
0
VERTEX
5
326
100
AcDbEntity
8
2
100
AcDbVertex
100
AcDb2dVertex
62
5
10
143.744964
20
155.437394
0
VERTEX
5
327
100
AcDbEntity
8
2
100
AcDbVertex
100
AcDb2dVertex
62
5
10
143.749098
20
155.428265
0
VERTEX
5
328
100
AcDbEntity
8
2
100
AcDbVertex
100
AcDb2dVertex
62
5
10
143.753404
20
155.419480
0
VERTEX
5
329
100
AcDbEntity
8
2
100
AcDbVertex
100
AcDb2dVertex
62
5
10
143.757711
20
155.410867
0
VERTEX
5
32a
100
AcDbEntity
8
2
100
AcDbVertex
100
AcDb2dVertex
62
5
10
143.762189
20
155.402599
0
VERTEX
5
32b
100
AcDbEntity
8
2
100
AcDbVertex
100
AcDb2dVertex
62
5
10
143.766840
20
155.394503
0
VERTEX
5
32c
100
AcDbEntity
8
2
100
AcDbVertex
100
AcDb2dVertex
62
5
10
143.771663
20
155.386751
0
VERTEX
5
32d
100
AcDbEntity
8
2
100
AcDbVertex
100
AcDb2dVertex
62
5
10
143.776487
20
155.379344
0
VERTEX
5
32e
100
AcDbEntity
8
2
100
AcDbVertex
100
AcDb2dVertex
62
5
10
143.781482
20
155.372110
0
VERTEX
5
32f
100
AcDbEntity
8
2
100
AcDbVertex
100
AcDb2dVertex
62
5
10
143.786477
20
155.365392
0
VERTEX
5
330
100
AcDbEntity
8
2
100
AcDbVertex
100
AcDb2dVertex
62
5
10
143.791645
20
155.359018
0
VERTEX
5
331
100
AcDbEntity
8
2
100
AcDbVertex
100
AcDb2dVertex
62
5
10
143.796985
20
155.352989
0
VERTEX
5
332
100
AcDbEntity
8
2
100
AcDbVertex
100
AcDb2dVertex
62
5
10
143.802325
20
155.347305
0
VERTEX
5
333
100
AcDbEntity
8
2
100
AcDbVertex
100
AcDb2dVertex
62
5
10
143.808009
20
155.341965
0
VERTEX
5
334
100
AcDbEntity
8
2
100
AcDbVertex
100
AcDb2dVertex
62
5
10
143.813694
20
155.337142
0
VERTEX
5
335
100
AcDbEntity
8
2
100
AcDbVertex
100
AcDb2dVertex
62
5
10
143.819550
20
155.332663
0
VERTEX
5
336
100
AcDbEntity
8
2
100
AcDbVertex
100
AcDb2dVertex
62
5
10
143.825751
20
155.328529
0
VERTEX
5
337
100
AcDbEntity
8
2
100
AcDbVertex
100
AcDb2dVertex
62
5
10
143.831780
20
155.325084
0
VERTEX
5
338
100
AcDbEntity
8
2
100
AcDbVertex
100
AcDb2dVertex
62
5
10
143.838154
20
155.321984
0
VERTEX
5
339
100
AcDbEntity
8
2
100
AcDbVertex
100
AcDb2dVertex
62
5
10
143.844872
20
155.319400
0
VERTEX
5
33a
100
AcDbEntity
8
2
100
AcDbVertex
100
AcDb2dVertex
62
5
10
143.848317
20
155.318194
0
VERTEX
5
33b
100
AcDbEntity
8
2
100
AcDbVertex
100
AcDb2dVertex
62
5
10
143.851934
20
155.317160
0
VERTEX
5
33c
100
AcDbEntity
8
2
100
AcDbVertex
100
AcDb2dVertex
62
5
10
143.857791
20
155.315782
0
VERTEX
5
33d
100
AcDbEntity
8
2
100
AcDbVertex
100
AcDb2dVertex
62
5
10
143.860719
20
155.315266
0
VERTEX
5
33e
100
AcDbEntity
8
2
100
AcDbVertex
100
AcDb2dVertex
62
5
10
143.863820
20
155.314749
0
VERTEX
5
33f
100
AcDbEntity
8
2
100
AcDbVertex
100
AcDb2dVertex
62
5
10
143.867093
20
155.314232
0
VERTEX
5
340
100
AcDbEntity
8
2
100
AcDbVertex
100
AcDb2dVertex
62
5
10
143.870538
20
155.313888
0
VERTEX
5
341
100
AcDbEntity
8
2
100
AcDbVertex
100
AcDb2dVertex
62
5
10
143.873983
20
155.313715
0
VERTEX
5
342
100
AcDbEntity
8
2
100
AcDbVertex
100
AcDb2dVertex
62
5
10
143.880528
20
155.313371
0
VERTEX
5
343
100
AcDbEntity
8
2
100
AcDbVertex
100
AcDb2dVertex
62
5
10
143.883457
20
155.313371
0
VERTEX
5
344
100
AcDbEntity
8
2
100
AcDbVertex
100
AcDb2dVertex
62
5
10
143.974063
20
155.312337
0
VERTEX
5
345
100
AcDbEntity
8
2
100
AcDbVertex
100
AcDb2dVertex
62
5
10
144.395053
20
155.304930
0
VERTEX
5
346
100
AcDbEntity
8
2
100
AcDbVertex
100
AcDb2dVertex
62
5
10
144.400049
20
155.299935
0
VERTEX
5
347
100
AcDbEntity
8
2
100
AcDbVertex
100
AcDb2dVertex
62
5
10
144.497373
20
155.299935
0
VERTEX
5
348
100
AcDbEntity
8
2
100
AcDbVertex
100
AcDb2dVertex
62
5
10
144.700806
20
155.302691
0
VERTEX
5
349
100
AcDbEntity
8
2
100
AcDbVertex
100
AcDb2dVertex
62
5
10
144.897348
20
155.328185
0
SEQEND
5
34a
100
AcDbEntity
8
2
0
LINE
5
34b
100
AcDbEntity
8
2
100
AcDbLine
6
CONTINUOUS
62
5
10
144.400049
20
158.397593
11
144.395053
21
158.195021
0
POLYLINE
5
34c
100
AcDbEntity
8
2
6
CONTINUOUS
62
5
100
AcDb2dPolyline
66
1
10
0.0
20
0.0
30
0.0
70
0
0
VERTEX
5
34d
100
AcDbEntity
8
2
100
AcDbVertex
100
AcDb2dVertex
62
5
10
131.687474
20
157.116017
0
VERTEX
5
34e
100
AcDbEntity
8
2
100
AcDbVertex
100
AcDb2dVertex
62
5
10
131.300073
20
157.299985
0
VERTEX
5
34f
100
AcDbEntity
8
2
100
AcDbVertex
100
AcDb2dVertex
62
5
10
130.899981
20
157.299985
0
SEQEND
5
350
100
AcDbEntity
8
2
0
ARC
5
351
100
AcDbEntity
8
2
100
AcDbCircle
6
CONTINUOUS
62
5
10
138.400009
20
155.999917
40
1.000000
100
AcDbArc
50
0.000000
51
89.999999
0
LINE
5
352
100
AcDbEntity
8
2
100
AcDbLine
6
CONTINUOUS
62
5
10
138.400009
20
156.999917
11
137.391347
21
156.999917
0
LINE
5
353
100
AcDbEntity
8
2
100
AcDbLine
6
CONTINUOUS
62
5
10
139.400009
20
153.664031
11
139.400009
21
155.999917
0
LINE
5
354
100
AcDbEntity
8
2
100
AcDbLine
6
CONTINUOUS
62
5
10
144.400049
20
144.897641
11
144.395053
21
144.695070
0
POLYLINE
5
355
100
AcDbEntity
8
2
6
CONTINUOUS
62
5
100
AcDb2dPolyline
66
1
10
0.0
20
0.0
30
0.0
70
0
0
VERTEX
5
356
100
AcDbEntity
8
2
100
AcDbVertex
100
AcDb2dVertex
62
5
10
143.389602
20
145.189785
0
VERTEX
5
357
100
AcDbEntity
8
2
100
AcDbVertex
100
AcDb2dVertex
62
5
10
143.980953
20
145.200121
0
VERTEX
5
358
100
AcDbEntity
8
2
100
AcDbVertex
100
AcDb2dVertex
62
5
10
144.008450
20
145.199497
0
VERTEX
5
359
100
AcDbEntity
8
2
100
AcDbVertex
100
AcDb2dVertex
62
5
10
144.035480
20
145.197651
0
VERTEX
5
35a
100
AcDbEntity
8
2
100
AcDbVertex
100
AcDb2dVertex
62
5
10
144.061987
20
145.194619
0
VERTEX
5
35b
100
AcDbEntity
8
2
100
AcDbVertex
100
AcDb2dVertex
62
5
10
144.087917
20
145.190439
0
VERTEX
5
35c
100
AcDbEntity
8
2
100
AcDbVertex
100
AcDb2dVertex
62
5
10
144.113212
20
145.185148
0
VERTEX
5
35d
100
AcDbEntity
8
2
100
AcDbVertex
100
AcDb2dVertex
62
5
10
144.137818
20
145.178783
0
VERTEX
5
35e
100
AcDbEntity
8
2
100
AcDbVertex
100
AcDb2dVertex
62
5
10
144.161678
20
145.171380
0
VERTEX
5
35f
100
AcDbEntity
8
2
100
AcDbVertex
100
AcDb2dVertex
62
5
10
144.184737
20
145.162977
0
VERTEX
5
360
100
AcDbEntity
8
2
100
AcDbVertex
100
AcDb2dVertex
62
5
10
144.206938
20
145.153612
0
VERTEX
5
361
100
AcDbEntity
8
2
100
AcDbVertex
100
AcDb2dVertex
62
5
10
144.228227
20
145.143321
0
VERTEX
5
362
100
AcDbEntity
8
2
100
AcDbVertex
100
AcDb2dVertex
62
5
10
144.248547
20
145.132140
0
VERTEX
5
363
100
AcDbEntity
8
2
100
AcDbVertex
100
AcDb2dVertex
62
5
10
144.267843
20
145.120108
0
VERTEX
5
364
100
AcDbEntity
8
2
100
AcDbVertex
100
AcDb2dVertex
62
5
10
144.286059
20
145.107262
0
VERTEX
5
365
100
AcDbEntity
8
2
100
AcDbVertex
100
AcDb2dVertex
62
5
10
144.303139
20
145.093638
0
VERTEX
5
366
100
AcDbEntity
8
2
100
AcDbVertex
100
AcDb2dVertex
62
5
10
144.319027
20
145.079273
0
VERTEX
5
367
100
AcDbEntity
8
2
100
AcDbVertex
100
AcDb2dVertex
62
5
10
144.333667
20
145.064205
0
VERTEX
5
368
100
AcDbEntity
8
2
100
AcDbVertex
100
AcDb2dVertex
62
5
10
144.347004
20
145.048471
0
VERTEX
5
369
100
AcDbEntity
8
2
100
AcDbVertex
100
AcDb2dVertex
62
5
10
144.358982
20
145.032108
0
VERTEX
5
36a
100
AcDbEntity
8
2
100
AcDbVertex
100
AcDb2dVertex
62
5
10
144.369545
20
145.015152
0
VERTEX
5
36b
100
AcDbEntity
8
2
100
AcDbVertex
100
AcDb2dVertex
62
5
10
144.378638
20
144.997642
0
VERTEX
5
36c
100
AcDbEntity
8
2
100
AcDbVertex
100
AcDb2dVertex
62
5
10
144.386205
20
144.979613
0
VERTEX
5
36d
100
AcDbEntity
8
2
100
AcDbVertex
100
AcDb2dVertex
62
5
10
144.392189
20
144.961104
0
VERTEX
5
36e
100
AcDbEntity
8
2
100
AcDbVertex
100
AcDb2dVertex
62
5
10
144.396535
20
144.942150
0
VERTEX
5
36f
100
AcDbEntity
8
2
100
AcDbVertex
100
AcDb2dVertex
62
5
10
144.399188
20
144.922791
0
SEQEND
5
370
100
AcDbEntity
8
2
0
ARC
5
371
100
AcDbEntity
8
2
100
AcDbCircle
6
CONTINUOUS
62
5
10
144.700331
20
142.603150
40
0.799736
100
AcDbArc
50
-75.738226
51
0.004128
0
LINE
5
372
100
AcDbEntity
8
2
100
AcDbLine
6
CONTINUOUS
62
5
10
145.500068
20
142.603208
11
145.500068
21
143.896497
0
ARC
5
373
100
AcDbEntity
8
2
100
AcDbCircle
6
CONTINUOUS
62
5
10
144.700186
20
143.896441
40
0.799882
100
AcDbArc
50
0.003991
51
75.730108
0
POLYLINE
5
374
100
AcDbEntity
8
2
6
CONTINUOUS
62
5
100
AcDb2dPolyline
66
1
10
0.0
20
0.0
30
0.0
70
0
0
VERTEX
5
375
100
AcDbEntity
8
2
100
AcDbVertex
100
AcDb2dVertex
62
5
10
144.897348
20
144.671643
0
VERTEX
5
376
100
AcDbEntity
8
2
100
AcDbVertex
100
AcDb2dVertex
62
5
10
144.700806
20
144.697137
0
VERTEX
5
377
100
AcDbEntity
8
2
100
AcDbVertex
100
AcDb2dVertex
62
5
10
144.497373
20
144.699893
0
VERTEX
5
378
100
AcDbEntity
8
2
100
AcDbVertex
100
AcDb2dVertex
62
5
10
144.400049
20
144.699893
0
VERTEX
5
379
100
AcDbEntity
8
2
100
AcDbVertex
100
AcDb2dVertex
62
5
10
144.395053
20
144.695070
0
VERTEX
5
37a
100
AcDbEntity
8
2
100
AcDbVertex
100
AcDb2dVertex
62
5
10
143.883457
20
144.686457
0
VERTEX
5
37b
100
AcDbEntity
8
2
100
AcDbVertex
100
AcDb2dVertex
62
5
10
143.878461
20
144.686457
0
VERTEX
5
37c
100
AcDbEntity
8
2
100
AcDbVertex
100
AcDb2dVertex
62
5
10
143.876222
20
144.686285
0
VERTEX
5
37d
100
AcDbEntity
8
2
100
AcDbVertex
100
AcDb2dVertex
62
5
10
143.873810
20
144.686112
0
VERTEX
5
37e
100
AcDbEntity
8
2
100
AcDbVertex
100
AcDb2dVertex
62
5
10
143.869849
20
144.685768
0
VERTEX
5
37f
100
AcDbEntity
8
2
100
AcDbVertex
100
AcDb2dVertex
62
5
10
143.866059
20
144.685423
0
VERTEX
5
380
100
AcDbEntity
8
2
100
AcDbVertex
100
AcDb2dVertex
62
5
10
143.862442
20
144.684907
0
VERTEX
5
381
100
AcDbEntity
8
2
100
AcDbVertex
100
AcDb2dVertex
62
5
10
143.858997
20
144.684218
0
VERTEX
5
382
100
AcDbEntity
8
2
100
AcDbVertex
100
AcDb2dVertex
62
5
10
143.855379
20
144.683529
0
VERTEX
5
383
100
AcDbEntity
8
2
100
AcDbVertex
100
AcDb2dVertex
62
5
10
143.852106
20
144.682667
0
VERTEX
5
384
100
AcDbEntity
8
2
100
AcDbVertex
100
AcDb2dVertex
62
5
10
143.845733
20
144.680773
0
VERTEX
5
385
100
AcDbEntity
8
2
100
AcDbVertex
100
AcDb2dVertex
62
5
10
143.839015
20
144.678189
0
VERTEX
5
386
100
AcDbEntity
8
2
100
AcDbVertex
100
AcDb2dVertex
62
5
10
143.832814
20
144.675260
0
VERTEX
5
387
100
AcDbEntity
8
2
100
AcDbVertex
100
AcDb2dVertex
62
5
10
143.826613
20
144.671815
0
VERTEX
5
388
100
AcDbEntity
8
2
100
AcDbVertex
100
AcDb2dVertex
62
5
10
143.820756
20
144.668026
0
VERTEX
5
389
100
AcDbEntity
8
2
100
AcDbVertex
100
AcDb2dVertex
62
5
10
143.814727
20
144.663547
0
VERTEX
5
38a
100
AcDbEntity
8
2
100
AcDbVertex
100
AcDb2dVertex
62
5
10
143.809043
20
144.658896
0
VERTEX
5
38b
100
AcDbEntity
8
2
100
AcDbVertex
100
AcDb2dVertex
62
5
10
143.803358
20
144.653556
0
VERTEX
5
38c
100
AcDbEntity
8
2
100
AcDbVertex
100
AcDb2dVertex
62
5
10
143.797846
20
144.647872
0
VERTEX
5
38d
100
AcDbEntity
8
2
100
AcDbVertex
100
AcDb2dVertex
62
5
10
143.792334
20
144.641498
0
VERTEX
5
38e
100
AcDbEntity
8
2
100
AcDbVertex
100
AcDb2dVertex
62
5
10
143.786822
20
144.634781
0
VERTEX
5
38f
100
AcDbEntity
8
2
100
AcDbVertex
100
AcDb2dVertex
62
5
10
143.781482
20
144.627718
0
VERTEX
5
390
100
AcDbEntity
8
2
100
AcDbVertex
100
AcDb2dVertex
62
5
10
143.776142
20
144.619967
0
VERTEX
5
391
100
AcDbEntity
8
2
100
AcDbVertex
100
AcDb2dVertex
62
5
10
143.770802
20
144.611698
0
VERTEX
5
392
100
AcDbEntity
8
2
100
AcDbVertex
100
AcDb2dVertex
62
5
10
143.765634
20
144.603086
0
VERTEX
5
393
100
AcDbEntity
8
2
100
AcDbVertex
100
AcDb2dVertex
62
5
10
143.760467
20
144.593956
0
VERTEX
5
394
100
AcDbEntity
8
2
100
AcDbVertex
100
AcDb2dVertex
62
5
10
143.755471
20
144.584310
0
VERTEX
5
395
100
AcDbEntity
8
2
100
AcDbVertex
100
AcDb2dVertex
62
5
10
143.750821
20
144.575008
0
VERTEX
5
396
100
AcDbEntity
8
2
100
AcDbVertex
100
AcDb2dVertex
62
5
10
143.746342
20
144.565362
0
VERTEX
5
397
100
AcDbEntity
8
2
100
AcDbVertex
100
AcDb2dVertex
62
5
10
143.741863
20
144.555199
0
VERTEX
5
398
100
AcDbEntity
8
2
100
AcDbVertex
100
AcDb2dVertex
62
5
10
143.737729
20
144.544864
0
VERTEX
5
399
100
AcDbEntity
8
2
100
AcDbVertex
100
AcDb2dVertex
62
5
10
143.733423
20
144.533839
0
VERTEX
5
39a
100
AcDbEntity
8
2
100
AcDbVertex
100
AcDb2dVertex
62
5
10
143.729461
20
144.522643
0
VERTEX
5
39b
100
AcDbEntity
8
2
100
AcDbVertex
100
AcDb2dVertex
62
5
10
143.725499
20
144.511102
0
VERTEX
5
39c
100
AcDbEntity
8
2
100
AcDbVertex
100
AcDb2dVertex
62
5
10
143.721710
20
144.499216
0
VERTEX
5
39d
100
AcDbEntity
8
2
100
AcDbVertex
100
AcDb2dVertex
62
5
10
143.719126
20
144.490431
0
VERTEX
5
39e
100
AcDbEntity
8
2
100
AcDbVertex
100
AcDb2dVertex
62
5
10
143.716714
20
144.481646
0
VERTEX
5
39f
100
AcDbEntity
8
2
100
AcDbVertex
100
AcDb2dVertex
62
5
10
143.714303
20
144.472517
0
VERTEX
5
3a0
100
AcDbEntity
8
2
100
AcDbVertex
100
AcDb2dVertex
62
5
10
143.711891
20
144.463387
0
VERTEX
5
3a1
100
AcDbEntity
8
2
100
AcDbVertex
100
AcDb2dVertex
62
5
10
143.709652
20
144.454085
0
VERTEX
5
3a2
100
AcDbEntity
8
2
100
AcDbVertex
100
AcDb2dVertex
62
5
10
143.707585
20
144.444784
0
VERTEX
5
3a3
100
AcDbEntity
8
2
100
AcDbVertex
100
AcDb2dVertex
62
5
10
143.705690
20
144.435310
0
VERTEX
5
3a4
100
AcDbEntity
8
2
100
AcDbVertex
100
AcDb2dVertex
62
5
10
143.703795
20
144.425836
0
SEQEND
5
3a5
100
AcDbEntity
8
2
0
ARC
5
3a6
100
AcDbEntity
8
2
100
AcDbCircle
6
CONTINUOUS
62
5
10
143.908239
20
144.386289
40
0.208233
100
AcDbArc
50
169.052159
51
-179.932823
0
LINE
5
3a7
100
AcDbEntity
8
2
100
AcDbLine
6
CONTINUOUS
62
5
10
143.700005
20
144.386045
11
143.700005
21
142.113659
0
ARC
5
3a8
100
AcDbEntity
8
2
100
AcDbCircle
6
CONTINUOUS
62
5
10
143.907308
20
142.113327
40
0.207302
100
AcDbArc
50
179.908069
51
-169.027346
0
POLYLINE
5
3a9
100
AcDbEntity
8
2
6
CONTINUOUS
62
5
100
AcDb2dPolyline
66
1
10
0.0
20
0.0
30
0.0
70
0
0
VERTEX
5
3aa
100
AcDbEntity
8
2
100
AcDbVertex
100
AcDb2dVertex
62
5
10
143.703795
20
142.073869
0
VERTEX
5
3ab
100
AcDbEntity
8
2
100
AcDbVertex
100
AcDb2dVertex
62
5
10
143.706379
20
142.060433
0
VERTEX
5
3ac
100
AcDbEntity
8
2
100
AcDbVertex
100
AcDb2dVertex
62
5
10
143.709307
20
142.047169
0
VERTEX
5
3ad
100
AcDbEntity
8
2
100
AcDbVertex
100
AcDb2dVertex
62
5
10
143.712580
20
142.033906
0
VERTEX
5
3ae
100
AcDbEntity
8
2
100
AcDbVertex
100
AcDb2dVertex
62
5
10
143.716025
20
142.020642
0
VERTEX
5
3af
100
AcDbEntity
8
2
100
AcDbVertex
100
AcDb2dVertex
62
5
10
143.718953
20
142.009790
0
VERTEX
5
3b0
100
AcDbEntity
8
2
100
AcDbVertex
100
AcDb2dVertex
62
5
10
143.722226
20
141.998938
0
VERTEX
5
3b1
100
AcDbEntity
8
2
100
AcDbVertex
100
AcDb2dVertex
62
5
10
143.725671
20
141.988258
0
VERTEX
5
3b2
100
AcDbEntity
8
2
100
AcDbVertex
100
AcDb2dVertex
62
5
10
143.729116
20
141.977751
0
VERTEX
5
3b3
100
AcDbEntity
8
2
100
AcDbVertex
100
AcDb2dVertex
62
5
10
143.732906
20
141.967415
0
VERTEX
5
3b4
100
AcDbEntity
8
2
100
AcDbVertex
100
AcDb2dVertex
62
5
10
143.736868
20
141.957080
0
VERTEX
5
3b5
100
AcDbEntity
8
2
100
AcDbVertex
100
AcDb2dVertex
62
5
10
143.740830
20
141.947089
0
VERTEX
5
3b6
100
AcDbEntity
8
2
100
AcDbVertex
100
AcDb2dVertex
62
5
10
143.744964
20
141.937271
0
VERTEX
5
3b7
100
AcDbEntity
8
2
100
AcDbVertex
100
AcDb2dVertex
62
5
10
143.749098
20
141.928141
0
VERTEX
5
3b8
100
AcDbEntity
8
2
100
AcDbVertex
100
AcDb2dVertex
62
5
10
143.753404
20
141.919356
0
VERTEX
5
3b9
100
AcDbEntity
8
2
100
AcDbVertex
100
AcDb2dVertex
62
5
10
143.757711
20
141.910744
0
VERTEX
5
3ba
100
AcDbEntity
8
2
100
AcDbVertex
100
AcDb2dVertex
62
5
10
143.762189
20
141.902475
0
VERTEX
5
3bb
100
AcDbEntity
8
2
100
AcDbVertex
100
AcDb2dVertex
62
5
10
143.766840
20
141.894379
0
VERTEX
5
3bc
100
AcDbEntity
8
2
100
AcDbVertex
100
AcDb2dVertex
62
5
10
143.771663
20
141.886628
0
VERTEX
5
3bd
100
AcDbEntity
8
2
100
AcDbVertex
100
AcDb2dVertex
62
5
10
143.776487
20
141.879221
0
VERTEX
5
3be
100
AcDbEntity
8
2
100
AcDbVertex
100
AcDb2dVertex
62
5
10
143.781482
20
141.871986
0
VERTEX
5
3bf
100
AcDbEntity
8
2
100
AcDbVertex
100
AcDb2dVertex
62
5
10
143.786477
20
141.865268
0
VERTEX
5
3c0
100
AcDbEntity
8
2
100
AcDbVertex
100
AcDb2dVertex
62
5
10
143.791645
20
141.858895
0
VERTEX
5
3c1
100
AcDbEntity
8
2
100
AcDbVertex
100
AcDb2dVertex
62
5
10
143.796985
20
141.852866
0
VERTEX
5
3c2
100
AcDbEntity
8
2
100
AcDbVertex
100
AcDb2dVertex
62
5
10
143.802325
20
141.847182
0
VERTEX
5
3c3
100
AcDbEntity
8
2
100
AcDbVertex
100
AcDb2dVertex
62
5
10
143.808009
20
141.841842
0
VERTEX
5
3c4
100
AcDbEntity
8
2
100
AcDbVertex
100
AcDb2dVertex
62
5
10
143.813694
20
141.837019
0
VERTEX
5
3c5
100
AcDbEntity
8
2
100
AcDbVertex
100
AcDb2dVertex
62
5
10
143.819550
20
141.832540
0
VERTEX
5
3c6
100
AcDbEntity
8
2
100
AcDbVertex
100
AcDb2dVertex
62
5
10
143.825751
20
141.828406
0
VERTEX
5
3c7
100
AcDbEntity
8
2
100
AcDbVertex
100
AcDb2dVertex
62
5
10
143.831780
20
141.824961
0
VERTEX
5
3c8
100
AcDbEntity
8
2
100
AcDbVertex
100
AcDb2dVertex
62
5
10
143.838154
20
141.821860
0
VERTEX
5
3c9
100
AcDbEntity
8
2
100
AcDbVertex
100
AcDb2dVertex
62
5
10
143.844872
20
141.819276
0
VERTEX
5
3ca
100
AcDbEntity
8
2
100
AcDbVertex
100
AcDb2dVertex
62
5
10
143.848317
20
141.818070
0
VERTEX
5
3cb
100
AcDbEntity
8
2
100
AcDbVertex
100
AcDb2dVertex
62
5
10
143.851934
20
141.817037
0
VERTEX
5
3cc
100
AcDbEntity
8
2
100
AcDbVertex
100
AcDb2dVertex
62
5
10
143.857791
20
141.815659
0
VERTEX
5
3cd
100
AcDbEntity
8
2
100
AcDbVertex
100
AcDb2dVertex
62
5
10
143.860719
20
141.815142
0
VERTEX
5
3ce
100
AcDbEntity
8
2
100
AcDbVertex
100
AcDb2dVertex
62
5
10
143.863820
20
141.814625
0
VERTEX
5
3cf
100
AcDbEntity
8
2
100
AcDbVertex
100
AcDb2dVertex
62
5
10
143.867093
20
141.814109
0
VERTEX
5
3d0
100
AcDbEntity
8
2
100
AcDbVertex
100
AcDb2dVertex
62
5
10
143.870538
20
141.813764
0
VERTEX
5
3d1
100
AcDbEntity
8
2
100
AcDbVertex
100
AcDb2dVertex
62
5
10
143.873983
20
141.813592
0
VERTEX
5
3d2
100
AcDbEntity
8
2
100
AcDbVertex
100
AcDb2dVertex
62
5
10
143.880528
20
141.813247
0
VERTEX
5
3d3
100
AcDbEntity
8
2
100
AcDbVertex
100
AcDb2dVertex
62
5
10
143.883457
20
141.813247
0
VERTEX
5
3d4
100
AcDbEntity
8
2
100
AcDbVertex
100
AcDb2dVertex
62
5
10
143.974063
20
141.812214
0
VERTEX
5
3d5
100
AcDbEntity
8
2
100
AcDbVertex
100
AcDb2dVertex
62
5
10
144.395049
20
141.804983
0
VERTEX
5
3d6
100
AcDbEntity
8
2
100
AcDbVertex
100
AcDb2dVertex
62
5
10
144.400049
20
141.799811
0
VERTEX
5
3d7
100
AcDbEntity
8
2
100
AcDbVertex
100
AcDb2dVertex
62
5
10
144.497373
20
141.799811
0
VERTEX
5
3d8
100
AcDbEntity
8
2
100
AcDbVertex
100
AcDb2dVertex
62
5
10
144.700806
20
141.802568
0
VERTEX
5
3d9
100
AcDbEntity
8
2
100
AcDbVertex
100
AcDb2dVertex
62
5
10
144.897348
20
141.828061
0
SEQEND
5
3da
100
AcDbEntity
8
2
0
POLYLINE
5
3db
100
AcDbEntity
8
2
6
CONTINUOUS
62
5
100
AcDb2dPolyline
66
1
10
0.0
20
0.0
30
0.0
70
0
0
VERTEX
5
3dc
100
AcDbEntity
8
2
100
AcDbVertex
100
AcDb2dVertex
62
5
10
143.275742
20
140.383877
0
VERTEX
5
3dd
100
AcDbEntity
8
2
100
AcDbVertex
100
AcDb2dVertex
62
5
10
143.487960
20
140.033167
0
VERTEX
5
3de
100
AcDbEntity
8
2
100
AcDbVertex
100
AcDb2dVertex
62
5
10
143.541014
20
139.946006
0
VERTEX
5
3df
100
AcDbEntity
8
2
100
AcDbVertex
100
AcDb2dVertex
62
5
10
143.619907
20
139.861084
0
VERTEX
5
3e0
100
AcDbEntity
8
2
100
AcDbVertex
100
AcDb2dVertex
62
5
10
143.720848
20
139.798556
0
VERTEX
5
3e1
100
AcDbEntity
8
2
100
AcDbVertex
100
AcDb2dVertex
62
5
10
143.831264
20
139.771684
0
VERTEX
5
3e2
100
AcDbEntity
8
2
100
AcDbVertex
100
AcDb2dVertex
62
5
10
143.947536
20
139.782880
0
VERTEX
5
3e3
100
AcDbEntity
8
2
100
AcDbVertex
100
AcDb2dVertex
62
5
10
144.044687
20
139.823360
0
VERTEX
5
3e4
100
AcDbEntity
8
2
100
AcDbVertex
100
AcDb2dVertex
62
5
10
144.137360
20
139.892090
0
VERTEX
5
3e5
100
AcDbEntity
8
2
100
AcDbVertex
100
AcDb2dVertex
62
5
10
144.206607
20
139.968226
0
VERTEX
5
3e6
100
AcDbEntity
8
2
100
AcDbVertex
100
AcDb2dVertex
62
5
10
144.268102
20
140.060900
0
VERTEX
5
3e7
100
AcDbEntity
8
2
100
AcDbVertex
100
AcDb2dVertex
62
5
10
144.320467
20
140.170454
0
VERTEX
5
3e8
100
AcDbEntity
8
2
100
AcDbVertex
100
AcDb2dVertex
62
5
10
144.341614
20
140.229597
0
VERTEX
5
3e9
100
AcDbEntity
8
2
100
AcDbVertex
100
AcDb2dVertex
62
5
10
144.344891
20
140.239621
0
VERTEX
5
3ea
100
AcDbEntity
8
2
100
AcDbVertex
100
AcDb2dVertex
62
5
10
144.350311
20
140.257116
0
VERTEX
5
3eb
100
AcDbEntity
8
2
100
AcDbVertex
100
AcDb2dVertex
62
5
10
144.355454
20
140.274687
0
VERTEX
5
3ec
100
AcDbEntity
8
2
100
AcDbVertex
100
AcDb2dVertex
62
5
10
144.360320
20
140.292328
0
VERTEX
5
3ed
100
AcDbEntity
8
2
100
AcDbVertex
100
AcDb2dVertex
62
5
10
144.364909
20
140.310037
0
VERTEX
5
3ee
100
AcDbEntity
8
2
100
AcDbVertex
100
AcDb2dVertex
62
5
10
144.369220
20
140.327811
0
VERTEX
5
3ef
100
AcDbEntity
8
2
100
AcDbVertex
100
AcDb2dVertex
62
5
10
144.373252
20
140.345647
0
VERTEX
5
3f0
100
AcDbEntity
8
2
100
AcDbVertex
100
AcDb2dVertex
62
5
10
144.377004
20
140.363540
0
VERTEX
5
3f1
100
AcDbEntity
8
2
100
AcDbVertex
100
AcDb2dVertex
62
5
10
144.380476
20
140.381487
0
VERTEX
5
3f2
100
AcDbEntity
8
2
100
AcDbVertex
100
AcDb2dVertex
62
5
10
144.383668
20
140.399486
0
VERTEX
5
3f3
100
AcDbEntity
8
2
100
AcDbVertex
100
AcDb2dVertex
62
5
10
144.386578
20
140.417532
0
SEQEND
5
3f4
100
AcDbEntity
8
2
0
POLYLINE
5
3f5
100
AcDbEntity
8
2
6
CONTINUOUS
62
5
100
AcDb2dPolyline
66
1
10
0.0
20
0.0
30
0.0
70
0
0
VERTEX
5
3f6
100
AcDbEntity
8
2
100
AcDbVertex
100
AcDb2dVertex
62
5
10
130.899981
20
142.700015
0
VERTEX
5
3f7
100
AcDbEntity
8
2
100
AcDbVertex
100
AcDb2dVertex
62
5
10
131.300073
20
142.700015
0
VERTEX
5
3f8
100
AcDbEntity
8
2
100
AcDbVertex
100
AcDb2dVertex
62
5
10
131.687474
20
142.883983
0
SEQEND
5
3f9
100
AcDbEntity
8
2
0
ARC
5
3fa
100
AcDbEntity
8
2
100
AcDbCircle
6
CONTINUOUS
62
5
10
138.400009
20
144.000083
40
1.000000
100
AcDbArc
50
-89.999999
51
-0.000000
0
LINE
5
3fb
100
AcDbEntity
8
2
100
AcDbLine
6
CONTINUOUS
62
5
10
139.400009
20
144.000083
11
139.400009
21
146.335969
0
LINE
5
3fc
100
AcDbEntity
8
2
100
AcDbLine
6
CONTINUOUS
62
5
10
137.391347
20
143.000083
11
138.400009
21
143.000083
0
ARC
5
3fd
100
AcDbEntity
8
2
100
AcDbCircle
6
CONTINUOUS
62
5
10
143.150049
20
140.600004
40
1.250000
100
AcDbArc
50
-89.999999
51
0.000000
0
LINE
5
3fe
100
AcDbEntity
8
2
100
AcDbLine
6
CONTINUOUS
62
5
10
143.150049
20
139.350004
11
137.399959
21
139.350004
0
LINE
5
3ff
100
AcDbEntity
8
2
100
AcDbLine
6
CONTINUOUS
62
5
10
144.400049
20
141.799984
11
144.400049
21
140.600004
0
ARC
5
400
100
AcDbEntity
8
2
100
AcDbCircle
6
CONTINUOUS
62
5
10
143.400054
20
145.700121
40
0.500000
100
AcDbArc
50
179.999998
51
-89.999999
0
LINE
5
401
100
AcDbEntity
8
2
100
AcDbLine
6
CONTINUOUS
62
5
10
142.900054
20
145.700121
11
142.900054
21
154.300052
0
ARC
5
402
100
AcDbEntity
8
2
100
AcDbCircle
6
CONTINUOUS
62
5
10
143.400054
20
154.300052
40
0.500000
100
AcDbArc
50
89.999999
51
179.999998
0
LINE
5
403
100
AcDbEntity
8
2
100
AcDbLine
6
CONTINUOUS
62
5
10
143.400054
20
154.800052
11
144.100049
21
154.800052
0
ARC
5
404
100
AcDbEntity
8
2
100
AcDbCircle
6
CONTINUOUS
62
5
10
144.100049
20
155.100052
40
0.300000
100
AcDbArc
50
-89.999999
51
0.000000
0
LINE
5
405
100
AcDbEntity
8
2
100
AcDbLine
6
CONTINUOUS
62
5
10
144.400049
20
155.100052
11
144.400049
21
155.299935
0
LINE
5
406
100
AcDbEntity
8
2
100
AcDbLine
6
CONTINUOUS
62
5
10
144.400049
20
144.699893
11
144.400049
21
144.900121
0
ARC
5
407
100
AcDbEntity
8
2
100
AcDbCircle
6
CONTINUOUS
62
5
10
144.100049
20
144.900121
40
0.300000
100
AcDbArc
50
0.000000
51
89.999999
0
LINE
5
408
100
AcDbEntity
8
2
100
AcDbLine
6
CONTINUOUS
62
5
10
144.100049
20
145.200121
11
143.400054
21
145.200121
0
POLYLINE
5
409
100
AcDbEntity
8
2
6
CONTINUOUS
62
5
100
AcDb2dPolyline
66
1
10
0.0
20
0.0
30
0.0
70
1
0
VERTEX
5
40a
100
AcDbEntity
8
2
100
AcDbVertex
100
AcDb2dVertex
62
5
10
139.372104
20
146.548187
0
VERTEX
5
40b
100
AcDbEntity
8
2
100
AcDbVertex
100
AcDb2dVertex
62
5
10
139.375549
20
146.348371
0
VERTEX
5
40c
100
AcDbEntity
8
2
100
AcDbVertex
100
AcDb2dVertex
62
5
10
139.400009
20
146.335969
0
VERTEX
5
40d
100
AcDbEntity
8
2
100
AcDbVertex
100
AcDb2dVertex
62
5
10
139.586045
20
146.335969
0
VERTEX
5
40e
100
AcDbEntity
8
2
100
AcDbVertex
100
AcDb2dVertex
62
5
10
139.586045
20
153.664031
0
VERTEX
5
40f
100
AcDbEntity
8
2
100
AcDbVertex
100
AcDb2dVertex
62
5
10
139.400009
20
153.664031
0
VERTEX
5
410
100
AcDbEntity
8
2
100
AcDbVertex
100
AcDb2dVertex
62
5
10
139.375549
20
153.651629
0
VERTEX
5
411
100
AcDbEntity
8
2
100
AcDbVertex
100
AcDb2dVertex
62
5
10
139.372104
20
153.451641
0
SEQEND
5
412
100
AcDbEntity
8
2
0
ARC
5
413
100
AcDbEntity
8
2
100
AcDbCircle
6
CONTINUOUS
62
5
10
127.950887
20
147.621814
40
0.600000
100
AcDbArc
50
0.000000
51
89.999999
0
POLYLINE
5
414
100
AcDbEntity
8
2
6
CONTINUOUS
62
5
100
AcDb2dPolyline
66
1
10
0.0
20
0.0
30
0.0
70
0
0
VERTEX
5
415
100
AcDbEntity
8
2
100
AcDbVertex
100
AcDb2dVertex
62
5
10
127.950887
20
148.221814
0
VERTEX
5
416
100
AcDbEntity
8
2
100
AcDbVertex
100
AcDb2dVertex
62
5
10
124.157701
20
148.221814
0
VERTEX
5
417
100
AcDbEntity
8
2
100
AcDbVertex
100
AcDb2dVertex
62
5
10
124.157701
20
146.004206
0
VERTEX
5
418
100
AcDbEntity
8
2
100
AcDbVertex
100
AcDb2dVertex
62
5
10
125.078231
20
146.004206
0
VERTEX
5
419
100
AcDbEntity
8
2
100
AcDbVertex
100
AcDb2dVertex
62
5
10
125.078231
20
147.719691
0
VERTEX
5
41a
100
AcDbEntity
8
2
100
AcDbVertex
100
AcDb2dVertex
62
5
10
125.914872
20
147.719691
0
VERTEX
5
41b
100
AcDbEntity
8
2
100
AcDbVertex
100
AcDb2dVertex
62
5
10
125.914872
20
146.004206
0
VERTEX
5
41c
100
AcDbEntity
8
2
100
AcDbVertex
100
AcDb2dVertex
62
5
10
126.835402
20
146.004206
0
VERTEX
5
41d
100
AcDbEntity
8
2
100
AcDbVertex
100
AcDb2dVertex
62
5
10
126.835402
20
147.719691
0
VERTEX
5
41e
100
AcDbEntity
8
2
100
AcDbVertex
100
AcDb2dVertex
62
5
10
127.672215
20
147.719691
0
VERTEX
5
41f
100
AcDbEntity
8
2
100
AcDbVertex
100
AcDb2dVertex
62
5
10
127.672215
20
146.004206
0
VERTEX
5
420
100
AcDbEntity
8
2
100
AcDbVertex
100
AcDb2dVertex
62
5
10
128.550887
20
146.004206
0
VERTEX
5
421
100
AcDbEntity
8
2
100
AcDbVertex
100
AcDb2dVertex
62
5
10
128.550887
20
147.621814
0
SEQEND
5
422
100
AcDbEntity
8
2
0
ARC
5
423
100
AcDbEntity
8
2
100
AcDbCircle
6
CONTINUOUS
62
5
10
123.223010
20
146.604206
40
0.600000
100
AcDbArc
50
-89.999999
51
0.000000
0
LINE
5
424
100
AcDbEntity
8
2
100
AcDbLine
6
CONTINUOUS
62
5
10
123.823010
20
146.604206
11
123.823010
21
147.621814
0
ARC
5
425
100
AcDbEntity
8
2
100
AcDbCircle
6
CONTINUOUS
62
5
10
123.223010
20
147.621814
40
0.600000
100
AcDbArc
50
0.000000
51
89.999999
0
POLYLINE
5
426
100
AcDbEntity
8
2
6
CONTINUOUS
62
5
100
AcDb2dPolyline
66
1
10
0.0
20
0.0
30
0.0
70
0
0
VERTEX
5
427
100
AcDbEntity
8
2
100
AcDbVertex
100
AcDb2dVertex
62
5
10
123.223010
20
148.221814
0
VERTEX
5
428
100
AcDbEntity
8
2
100
AcDbVertex
100
AcDb2dVertex
62
5
10
120.434070
20
148.221814
0
VERTEX
5
429
100
AcDbEntity
8
2
100
AcDbVertex
100
AcDb2dVertex
62
5
10
120.434070
20
147.719691
0
VERTEX
5
42a
100
AcDbEntity
8
2
100
AcDbVertex
100
AcDb2dVertex
62
5
10
122.902481
20
147.719691
0
VERTEX
5
42b
100
AcDbEntity
8
2
100
AcDbVertex
100
AcDb2dVertex
62
5
10
122.902481
20
146.548187
0
VERTEX
5
42c
100
AcDbEntity
8
2
100
AcDbVertex
100
AcDb2dVertex
62
5
10
121.312741
20
146.548187
0
VERTEX
5
42d
100
AcDbEntity
8
2
100
AcDbVertex
100
AcDb2dVertex
62
5
10
121.312741
20
147.301284
0
VERTEX
5
42e
100
AcDbEntity
8
2
100
AcDbVertex
100
AcDb2dVertex
62
5
10
120.434070
20
147.301284
0
VERTEX
5
42f
100
AcDbEntity
8
2
100
AcDbVertex
100
AcDb2dVertex
62
5
10
120.434070
20
146.004206
0
VERTEX
5
430
100
AcDbEntity
8
2
100
AcDbVertex
100
AcDb2dVertex
62
5
10
123.223010
20
146.004206
0
SEQEND
5
431
100
AcDbEntity
8
2
0
LINE
5
432
100
AcDbEntity
8
2
100
AcDbLine
6
CONTINUOUS
62
5
10
115.112603
20
155.000039
11
115.199936
21
155.000039
0
ARC
5
433
100
AcDbEntity
8
2
100
AcDbCircle
6
CONTINUOUS
62
5
10
116.262968
20
157.053232
40
1.063035
100
AcDbArc
50
161.673138
51
179.856210
0
LINE
5
434
100
AcDbEntity
8
2
100
AcDbLine
6
CONTINUOUS
62
5
10
115.199936
20
156.799985
11
115.199936
21
157.055900
0
ARC
5
435
100
AcDbEntity
8
2
100
AcDbCircle
6
CONTINUOUS
62
5
10
116.260619
20
142.946387
40
1.060686
100
AcDbArc
50
-179.867153
51
-161.652762
0
LINE
5
436
100
AcDbEntity
8
2
100
AcDbLine
6
CONTINUOUS
62
5
10
115.199936
20
143.200015
11
115.199936
21
142.943928
0
LINE
5
437
100
AcDbEntity
8
2
100
AcDbLine
6
CONTINUOUS
62
5
10
115.112603
20
144.999961
11
115.199936
21
144.999961
0
POLYLINE
5
438
100
AcDbEntity
8
2
6
CONTINUOUS
62
5
100
AcDb2dPolyline
66
1
10
0.0
20
0.0
30
0.0
70
1
0
VERTEX
5
439
100
AcDbEntity
8
2
100
AcDbVertex
100
AcDb2dVertex
62
5
10
118.007345
20
153.750503
0
VERTEX
5
43a
100
AcDbEntity
8
2
100
AcDbVertex
100
AcDb2dVertex
62
5
10
118.007345
20
154.288455
0
VERTEX
5
43b
100
AcDbEntity
8
2
100
AcDbVertex
100
AcDb2dVertex
62
5
10
128.760004
20
154.288455
0
VERTEX
5
43c
100
AcDbEntity
8
2
100
AcDbVertex
100
AcDb2dVertex
62
5
10
128.760004
20
153.776686
0
VERTEX
5
43d
100
AcDbEntity
8
2
100
AcDbVertex
100
AcDb2dVertex
62
5
10
127.965049
20
153.409783
0
VERTEX
5
43e
100
AcDbEntity
8
2
100
AcDbVertex
100
AcDb2dVertex
62
5
10
118.802300
20
153.409783
0
SEQEND
5
43f
100
AcDbEntity
8
2
0
POLYLINE
5
440
100
AcDbEntity
8
2
6
CONTINUOUS
62
5
100
AcDb2dPolyline
66
1
10
0.0
20
0.0
30
0.0
70
1
0
VERTEX
5
441
100
AcDbEntity
8
2
100
AcDbVertex
100
AcDb2dVertex
62
5
10
116.752124
20
148.221814
0
VERTEX
5
442
100
AcDbEntity
8
2
100
AcDbVertex
100
AcDb2dVertex
62
5
10
117.672654
20
148.221814
0
VERTEX
5
443
100
AcDbEntity
8
2
100
AcDbVertex
100
AcDb2dVertex
62
5
10
117.672654
20
147.385000
0
VERTEX
5
444
100
AcDbEntity
8
2
100
AcDbVertex
100
AcDb2dVertex
62
5
10
119.178849
20
147.385000
0
VERTEX
5
445
100
AcDbEntity
8
2
100
AcDbVertex
100
AcDb2dVertex
62
5
10
119.178849
20
148.221814
0
VERTEX
5
446
100
AcDbEntity
8
2
100
AcDbVertex
100
AcDb2dVertex
62
5
10
120.057521
20
148.221814
0
VERTEX
5
447
100
AcDbEntity
8
2
100
AcDbVertex
100
AcDb2dVertex
62
5
10
120.057521
20
146.004206
0
VERTEX
5
448
100
AcDbEntity
8
2
100
AcDbVertex
100
AcDb2dVertex
62
5
10
119.178849
20
146.004206
0
VERTEX
5
449
100
AcDbEntity
8
2
100
AcDbVertex
100
AcDb2dVertex
62
5
10
119.178849
20
146.841020
0
VERTEX
5
44a
100
AcDbEntity
8
2
100
AcDbVertex
100
AcDb2dVertex
62
5
10
117.672654
20
146.841020
0
VERTEX
5
44b
100
AcDbEntity
8
2
100
AcDbVertex
100
AcDb2dVertex
62
5
10
117.672654
20
146.004206
0
VERTEX
5
44c
100
AcDbEntity
8
2
100
AcDbVertex
100
AcDb2dVertex
62
5
10
116.752124
20
146.004206
0
SEQEND
5
44d
100
AcDbEntity
8
2
0
POLYLINE
5
44e
100
AcDbEntity
8
2
6
CONTINUOUS
62
5
100
AcDb2dPolyline
66
1
10
0.0
20
0.0
30
0.0
70
1
0
VERTEX
5
44f
100
AcDbEntity
8
2
100
AcDbVertex
100
AcDb2dVertex
62
5
10
128.927436
20
146.004206
0
VERTEX
5
450
100
AcDbEntity
8
2
100
AcDbVertex
100
AcDb2dVertex
62
5
10
129.805935
20
146.004206
0
VERTEX
5
451
100
AcDbEntity
8
2
100
AcDbVertex
100
AcDb2dVertex
62
5
10
129.805935
20
148.221814
0
VERTEX
5
452
100
AcDbEntity
8
2
100
AcDbVertex
100
AcDb2dVertex
62
5
10
128.927436
20
148.221814
0
SEQEND
5
453
100
AcDbEntity
8
2
0
ARC
5
454
100
AcDbEntity
8
2
100
AcDbCircle
6
CONTINUOUS
62
5
10
129.768243
20
153.345301
40
0.900000
100
AcDbArc
50
-74.047040
51
0.000000
0
LINE
5
455
100
AcDbEntity
8
2
100
AcDbLine
6
CONTINUOUS
62
5
10
130.668243
20
153.345301
11
130.668243
21
155.631557
0
ARC
5
456
100
AcDbEntity
8
2
100
AcDbCircle
6
CONTINUOUS
62
5
10
129.768243
20
155.631557
40
0.900000
100
AcDbArc
50
0.000000
51
89.999999
0
LINE
5
457
100
AcDbEntity
8
2
100
AcDbLine
6
CONTINUOUS
62
5
10
129.768243
20
156.531557
11
116.831675
21
156.531557
0
ARC
5
458
100
AcDbEntity
8
2
100
AcDbCircle
6
CONTINUOUS
62
5
10
116.831675
20
155.631557
40
0.900000
100
AcDbArc
50
89.999999
51
179.999998
0
LINE
5
459
100
AcDbEntity
8
2
100
AcDbLine
6
CONTINUOUS
62
5
10
115.931675
20
155.631557
11
115.931675
21
153.345351
0
ARC
5
45a
100
AcDbEntity
8
2
100
AcDbCircle
6
CONTINUOUS
62
5
10
116.831675
20
153.345351
40
0.900000
100
AcDbArc
50
179.999998
51
-105.952958
0
LINE
5
45b
100
AcDbEntity
8
2
100
AcDbLine
6
CONTINUOUS
62
5
10
116.584311
20
152.480012
11
116.929405
21
152.381364
0
ARC
5
45c
100
AcDbEntity
8
2
100
AcDbCircle
6
CONTINUOUS
62
5
10
116.764497
20
151.804472
40
0.600000
100
AcDbArc
50
40.595484
51
74.047040
0
LINE
5
45d
100
AcDbEntity
8
2
100
AcDbLine
6
CONTINUOUS
62
5
10
117.220090
20
152.194900
11
117.939311
21
151.355637
0
ARC
5
45e
100
AcDbEntity
8
2
100
AcDbCircle
6
CONTINUOUS
62
5
10
118.622701
20
151.941280
40
0.900000
100
AcDbArc
50
-139.404514
51
-89.999999
0
LINE
5
45f
100
AcDbEntity
8
2
100
AcDbLine
6
CONTINUOUS
62
5
10
118.622701
20
151.041280
11
127.977216
21
151.041280
0
ARC
5
460
100
AcDbEntity
8
2
100
AcDbCircle
6
CONTINUOUS
62
5
10
127.977216
20
151.941280
40
0.900000
100
AcDbArc
50
-89.999999
51
-40.602263
0
LINE
5
461
100
AcDbEntity
8
2
100
AcDbLine
6
CONTINUOUS
62
5
10
128.660537
20
151.355556
11
129.380046
21
152.194954
0
ARC
5
462
100
AcDbEntity
8
2
100
AcDbCircle
6
CONTINUOUS
62
5
10
129.835593
20
151.804471
40
0.600000
100
AcDbArc
50
105.952958
51
139.397736
0
LINE
5
463
100
AcDbEntity
8
2
100
AcDbLine
6
CONTINUOUS
62
5
10
129.670684
20
152.381364
11
130.015606
21
152.479962
0
ARC
5
464
100
AcDbEntity
8
2
100
AcDbCircle
6
CONTINUOUS
62
5
10
129.835748
20
151.804574
40
0.500000
100
AcDbArc
50
105.952958
51
139.397736
0
LINE
5
465
100
AcDbEntity
8
2
100
AcDbLine
6
CONTINUOUS
62
5
10
129.698324
20
152.285318
11
130.043171
21
152.383895
0
ARC
5
466
100
AcDbEntity
8
2
100
AcDbCircle
6
CONTINUOUS
62
5
10
129.768323
20
153.345382
40
1.000000
100
AcDbArc
50
-74.047040
51
0.000000
0
LINE
5
467
100
AcDbEntity
8
2
100
AcDbLine
6
CONTINUOUS
62
5
10
130.768323
20
153.345382
11
130.768323
21
155.631464
0
ARC
5
468
100
AcDbEntity
8
2
100
AcDbCircle
6
CONTINUOUS
62
5
10
129.768323
20
155.631464
40
1.000000
100
AcDbArc
50
0.000000
51
89.999999
0
LINE
5
469
100
AcDbEntity
8
2
100
AcDbLine
6
CONTINUOUS
62
5
10
129.768323
20
156.631464
11
116.831767
21
156.631464
0
ARC
5
46a
100
AcDbEntity
8
2
100
AcDbCircle
6
CONTINUOUS
62
5
10
116.831767
20
155.631464
40
1.000000
100
AcDbArc
50
89.999999
51
179.999998
0
LINE
5
46b
100
AcDbEntity
8
2
100
AcDbLine
6
CONTINUOUS
62
5
10
115.831767
20
155.631464
11
115.831767
21
153.345333
0
ARC
5
46c
100
AcDbEntity
8
2
100
AcDbCircle
6
CONTINUOUS
62
5
10
116.831767
20
153.345333
40
1.000000
100
AcDbArc
50
179.999998
51
-105.945395
0
LINE
5
46d
100
AcDbEntity
8
2
100
AcDbLine
6
CONTINUOUS
62
5
10
116.557046
20
152.383809
11
116.901702
21
152.285336
0
ARC
5
46e
100
AcDbEntity
8
2
100
AcDbCircle
6
CONTINUOUS
62
5
10
116.764342
20
151.804574
40
0.500000
100
AcDbArc
50
40.602263
51
74.054603
0
LINE
5
46f
100
AcDbEntity
8
2
100
AcDbLine
6
CONTINUOUS
62
5
10
117.143964
20
152.129976
11
117.863482
21
151.290568
0
ARC
5
470
100
AcDbEntity
8
2
100
AcDbCircle
6
CONTINUOUS
62
5
10
118.622727
20
151.941372
40
1.000000
100
AcDbArc
50
-139.397736
51
-89.999999
0
LINE
5
471
100
AcDbEntity
8
2
100
AcDbLine
6
CONTINUOUS
62
5
10
118.622727
20
150.941372
11
127.977362
21
150.941372
0
ARC
5
472
100
AcDbEntity
8
2
100
AcDbCircle
6
CONTINUOUS
62
5
10
127.977362
20
151.941372
40
1.000000
100
AcDbArc
50
-89.999999
51
-40.602263
0
LINE
5
473
100
AcDbEntity
8
2
100
AcDbLine
6
CONTINUOUS
62
5
10
128.736608
20
151.290568
11
129.456125
21
152.129976
0
ARC
5
474
100
AcDbEntity
8
2
100
AcDbCircle
6
CONTINUOUS
62
5
10
118.622669
20
151.941336
40
0.400000
100
AcDbArc
50
-139.404514
51
-89.999999
0
LINE
5
475
100
AcDbEntity
8
2
100
AcDbLine
6
CONTINUOUS
62
5
10
118.318940
20
151.681050
11
117.599739
21
152.520290
0
ARC
5
476
100
AcDbEntity
8
2
100
AcDbCircle
6
CONTINUOUS
62
5
10
116.764484
20
151.804504
40
1.100000
100
AcDbArc
50
40.595484
51
74.054603
0
LINE
5
477
100
AcDbEntity
8
2
100
AcDbLine
6
CONTINUOUS
62
5
10
117.066677
20
152.862181
11
116.721842
21
152.960705
0
ARC
5
478
100
AcDbEntity
8
2
100
AcDbCircle
6
CONTINUOUS
62
5
10
116.831730
20
153.345315
40
0.400000
100
AcDbArc
50
179.999998
51
-105.945395
0
LINE
5
479
100
AcDbEntity
8
2
100
AcDbLine
6
CONTINUOUS
62
5
10
116.431730
20
153.345315
11
116.431730
21
155.631501
0
ARC
5
47a
100
AcDbEntity
8
2
100
AcDbCircle
6
CONTINUOUS
62
5
10
116.831730
20
155.631501
40
0.400000
100
AcDbArc
50
89.999999
51
179.999998
0
LINE
5
47b
100
AcDbEntity
8
2
100
AcDbLine
6
CONTINUOUS
62
5
10
116.831730
20
156.031501
11
129.768359
21
156.031501
0
ARC
5
47c
100
AcDbEntity
8
2
100
AcDbCircle
6
CONTINUOUS
62
5
10
129.768359
20
155.631501
40
0.400000
100
AcDbArc
50
0.000000
51
89.999999
0
LINE
5
47d
100
AcDbEntity
8
2
100
AcDbLine
6
CONTINUOUS
62
5
10
130.168359
20
155.631501
11
130.168359
21
153.345364
0
ARC
5
47e
100
AcDbEntity
8
2
100
AcDbCircle
6
CONTINUOUS
62
5
10
129.768359
20
153.345364
40
0.400000
100
AcDbArc
50
-74.047040
51
0.000000
0
LINE
5
47f
100
AcDbEntity
8
2
100
AcDbLine
6
CONTINUOUS
62
5
10
129.878299
20
152.960769
11
129.533273
21
152.862141
0
ARC
5
480
100
AcDbEntity
8
2
100
AcDbCircle
6
CONTINUOUS
62
5
10
129.835605
20
151.804504
40
1.100000
100
AcDbArc
50
105.952958
51
139.397736
0
LINE
5
481
100
AcDbEntity
8
2
100
AcDbLine
6
CONTINUOUS
62
5
10
129.000435
20
152.520389
11
128.280946
21
151.681014
0
ARC
5
482
100
AcDbEntity
8
2
100
AcDbCircle
6
CONTINUOUS
62
5
10
127.977248
20
151.941336
40
0.400000
100
AcDbArc
50
-89.999999
51
-40.602263
0
LINE
5
483
100
AcDbEntity
8
2
100
AcDbLine
6
CONTINUOUS
62
5
10
127.977248
20
151.541336
11
118.622669
21
151.541336
0
ARC
5
484
100
AcDbEntity
8
2
100
AcDbCircle
6
CONTINUOUS
62
5
10
130.899981
20
156.799985
40
0.500000
100
AcDbArc
50
0.000000
51
89.999999
0
LINE
5
485
100
AcDbEntity
8
2
100
AcDbLine
6
CONTINUOUS
62
5
10
131.399981
20
156.799985
11
131.399981
21
143.200015
0
ARC
5
486
100
AcDbEntity
8
2
100
AcDbCircle
6
CONTINUOUS
62
5
10
130.899981
20
143.200015
40
0.500000
100
AcDbArc
50
-89.999999
51
0.000000
0
LINE
5
487
100
AcDbEntity
8
2
100
AcDbLine
6
CONTINUOUS
62
5
10
130.899981
20
142.700015
11
115.699936
21
142.700015
0
ARC
5
488
100
AcDbEntity
8
2
100
AcDbCircle
6
CONTINUOUS
62
5
10
115.699936
20
143.200015
40
0.500000
100
AcDbArc
50
179.999998
51
-89.999999
0
LINE
5
489
100
AcDbEntity
8
2
100
AcDbLine
6
CONTINUOUS
62
5
10
115.199936
20
143.200015
11
115.199936
21
156.799985
0
ARC
5
48a
100
AcDbEntity
8
2
100
AcDbCircle
6
CONTINUOUS
62
5
10
115.699936
20
156.799985
40
0.500000
100
AcDbArc
50
89.999999
51
179.999998
0
LINE
5
48b
100
AcDbEntity
8
2
100
AcDbLine
6
CONTINUOUS
62
5
10
115.699936
20
157.299985
11
130.899981
21
157.299985
0
POLYLINE
5
48c
100
AcDbEntity
8
2
6
CONTINUOUS
62
5
100
AcDb2dPolyline
66
1
10
0.0
20
0.0
30
0.0
70
1
0
VERTEX
5
48d
100
AcDbEntity
8
2
100
AcDbVertex
100
AcDb2dVertex
62
5
10
115.112603
20
157.387491
0
VERTEX
5
48e
100
AcDbEntity
8
2
100
AcDbVertex
100
AcDb2dVertex
62
5
10
115.112603
20
142.612509
0
VERTEX
5
48f
100
AcDbEntity
8
2
100
AcDbVertex
100
AcDb2dVertex
62
5
10
131.687474
20
142.612509
0
VERTEX
5
490
100
AcDbEntity
8
2
100
AcDbVertex
100
AcDb2dVertex
62
5
10
131.687474
20
157.387491
0
SEQEND
5
491
100
AcDbEntity
8
2
0
POLYLINE
5
492
100
AcDbEntity
8
2
6
CONTINUOUS
62
5
100
AcDb2dPolyline
66
1
10
0.0
20
0.0
30
0.0
70
0
0
VERTEX
5
493
100
AcDbEntity
8
2
100
AcDbVertex
100
AcDb2dVertex
62
5
10
103.410303
20
154.810387
0
VERTEX
5
494
100
AcDbEntity
8
2
100
AcDbVertex
100
AcDb2dVertex
62
5
10
102.818952
20
154.800052
0
VERTEX
5
495
100
AcDbEntity
8
2
100
AcDbVertex
100
AcDb2dVertex
62
5
10
102.793463
20
154.800629
0
VERTEX
5
496
100
AcDbEntity
8
2
100
AcDbVertex
100
AcDb2dVertex
62
5
10
102.764425
20
154.802518
0
VERTEX
5
497
100
AcDbEntity
8
2
100
AcDbVertex
100
AcDb2dVertex
62
5
10
102.737918
20
154.805545
0
VERTEX
5
498
100
AcDbEntity
8
2
100
AcDbVertex
100
AcDb2dVertex
62
5
10
102.711988
20
154.809719
0
VERTEX
5
499
100
AcDbEntity
8
2
100
AcDbVertex
100
AcDb2dVertex
62
5
10
102.686693
20
154.815003
0
VERTEX
5
49a
100
AcDbEntity
8
2
100
AcDbVertex
100
AcDb2dVertex
62
5
10
102.662087
20
154.821360
0
VERTEX
5
49b
100
AcDbEntity
8
2
100
AcDbVertex
100
AcDb2dVertex
62
5
10
102.638227
20
154.828752
0
VERTEX
5
49c
100
AcDbEntity
8
2
100
AcDbVertex
100
AcDb2dVertex
62
5
10
102.615168
20
154.837144
0
VERTEX
5
49d
100
AcDbEntity
8
2
100
AcDbVertex
100
AcDb2dVertex
62
5
10
102.592967
20
154.846497
0
VERTEX
5
49e
100
AcDbEntity
8
2
100
AcDbVertex
100
AcDb2dVertex
62
5
10
102.571678
20
154.856774
0
VERTEX
5
49f
100
AcDbEntity
8
2
100
AcDbVertex
100
AcDb2dVertex
62
5
10
102.551358
20
154.867940
0
VERTEX
5
4a0
100
AcDbEntity
8
2
100
AcDbVertex
100
AcDb2dVertex
62
5
10
102.532062
20
154.879956
0
VERTEX
5
4a1
100
AcDbEntity
8
2
100
AcDbVertex
100
AcDb2dVertex
62
5
10
102.513846
20
154.892786
0
VERTEX
5
4a2
100
AcDbEntity
8
2
100
AcDbVertex
100
AcDb2dVertex
62
5
10
102.496766
20
154.906393
0
VERTEX
5
4a3
100
AcDbEntity
8
2
100
AcDbVertex
100
AcDb2dVertex
62
5
10
102.480879
20
154.920739
0
VERTEX
5
4a4
100
AcDbEntity
8
2
100
AcDbVertex
100
AcDb2dVertex
62
5
10
102.466238
20
154.935788
0
VERTEX
5
4a5
100
AcDbEntity
8
2
100
AcDbVertex
100
AcDb2dVertex
62
5
10
102.452901
20
154.951503
0
VERTEX
5
4a6
100
AcDbEntity
8
2
100
AcDbVertex
100
AcDb2dVertex
62
5
10
102.440923
20
154.967847
0
VERTEX
5
4a7
100
AcDbEntity
8
2
100
AcDbVertex
100
AcDb2dVertex
62
5
10
102.430360
20
154.984782
0
VERTEX
5
4a8
100
AcDbEntity
8
2
100
AcDbVertex
100
AcDb2dVertex
62
5
10
102.421267
20
155.002271
0
VERTEX
5
4a9
100
AcDbEntity
8
2
100
AcDbVertex
100
AcDb2dVertex
62
5
10
102.413701
20
155.020279
0
VERTEX
5
4aa
100
AcDbEntity
8
2
100
AcDbVertex
100
AcDb2dVertex
62
5
10
102.407716
20
155.038767
0
VERTEX
5
4ab
100
AcDbEntity
8
2
100
AcDbVertex
100
AcDb2dVertex
62
5
10
102.403370
20
155.057699
0
VERTEX
5
4ac
100
AcDbEntity
8
2
100
AcDbVertex
100
AcDb2dVertex
62
5
10
102.400718
20
155.077037
0
SEQEND
5
4ad
100
AcDbEntity
8
2
0
LINE
5
4ae
100
AcDbEntity
8
2
100
AcDbLine
6
CONTINUOUS
62
5
10
102.399856
20
155.102359
11
102.404852
21
155.304930
0
ARC
5
4af
100
AcDbEntity
8
2
100
AcDbCircle
6
CONTINUOUS
62
5
10
102.099574
20
156.103274
40
0.799736
100
AcDbArc
50
179.995870
51
-104.261772
0
LINE
5
4b0
100
AcDbEntity
8
2
100
AcDbLine
6
CONTINUOUS
62
5
10
101.299837
20
156.103331
11
101.299837
21
157.396620
0
ARC
5
4b1
100
AcDbEntity
8
2
100
AcDbCircle
6
CONTINUOUS
62
5
10
102.099719
20
157.396564
40
0.799882
100
AcDbArc
50
104.269891
51
179.996008
0
POLYLINE
5
4b2
100
AcDbEntity
8
2
6
CONTINUOUS
62
5
100
AcDb2dPolyline
66
1
10
0.0
20
0.0
30
0.0
70
0
0
VERTEX
5
4b3
100
AcDbEntity
8
2
100
AcDbVertex
100
AcDb2dVertex
62
5
10
101.902557
20
158.171766
0
VERTEX
5
4b4
100
AcDbEntity
8
2
100
AcDbVertex
100
AcDb2dVertex
62
5
10
102.099099
20
158.197260
0
VERTEX
5
4b5
100
AcDbEntity
8
2
100
AcDbVertex
100
AcDb2dVertex
62
5
10
102.302532
20
158.200016
0
VERTEX
5
4b6
100
AcDbEntity
8
2
100
AcDbVertex
100
AcDb2dVertex
62
5
10
102.399856
20
158.200016
0
VERTEX
5
4b7
100
AcDbEntity
8
2
100
AcDbVertex
100
AcDb2dVertex
62
5
10
102.404852
20
158.195021
0
VERTEX
5
4b8
100
AcDbEntity
8
2
100
AcDbVertex
100
AcDb2dVertex
62
5
10
102.916448
20
158.186580
0
VERTEX
5
4b9
100
AcDbEntity
8
2
100
AcDbVertex
100
AcDb2dVertex
62
5
10
102.921444
20
158.186580
0
VERTEX
5
4ba
100
AcDbEntity
8
2
100
AcDbVertex
100
AcDb2dVertex
62
5
10
102.923683
20
158.186408
0
VERTEX
5
4bb
100
AcDbEntity
8
2
100
AcDbVertex
100
AcDb2dVertex
62
5
10
102.926095
20
158.186236
0
VERTEX
5
4bc
100
AcDbEntity
8
2
100
AcDbVertex
100
AcDb2dVertex
62
5
10
102.930056
20
158.185891
0
VERTEX
5
4bd
100
AcDbEntity
8
2
100
AcDbVertex
100
AcDb2dVertex
62
5
10
102.933846
20
158.185547
0
VERTEX
5
4be
100
AcDbEntity
8
2
100
AcDbVertex
100
AcDb2dVertex
62
5
10
102.937463
20
158.185030
0
VERTEX
5
4bf
100
AcDbEntity
8
2
100
AcDbVertex
100
AcDb2dVertex
62
5
10
102.940908
20
158.184341
0
VERTEX
5
4c0
100
AcDbEntity
8
2
100
AcDbVertex
100
AcDb2dVertex
62
5
10
102.944526
20
158.183652
0
VERTEX
5
4c1
100
AcDbEntity
8
2
100
AcDbVertex
100
AcDb2dVertex
62
5
10
102.947799
20
158.182791
0
VERTEX
5
4c2
100
AcDbEntity
8
2
100
AcDbVertex
100
AcDb2dVertex
62
5
10
102.954172
20
158.180896
0
VERTEX
5
4c3
100
AcDbEntity
8
2
100
AcDbVertex
100
AcDb2dVertex
62
5
10
102.960890
20
158.178312
0
VERTEX
5
4c4
100
AcDbEntity
8
2
100
AcDbVertex
100
AcDb2dVertex
62
5
10
102.967091
20
158.175384
0
VERTEX
5
4c5
100
AcDbEntity
8
2
100
AcDbVertex
100
AcDb2dVertex
62
5
10
102.973292
20
158.171939
0
VERTEX
5
4c6
100
AcDbEntity
8
2
100
AcDbVertex
100
AcDb2dVertex
62
5
10
102.979149
20
158.168149
0
VERTEX
5
4c7
100
AcDbEntity
8
2
100
AcDbVertex
100
AcDb2dVertex
62
5
10
102.985178
20
158.163671
0
VERTEX
5
4c8
100
AcDbEntity
8
2
100
AcDbVertex
100
AcDb2dVertex
62
5
10
102.990862
20
158.159020
0
VERTEX
5
4c9
100
AcDbEntity
8
2
100
AcDbVertex
100
AcDb2dVertex
62
5
10
102.996547
20
158.153680
0
VERTEX
5
4ca
100
AcDbEntity
8
2
100
AcDbVertex
100
AcDb2dVertex
62
5
10
103.002059
20
158.147995
0
VERTEX
5
4cb
100
AcDbEntity
8
2
100
AcDbVertex
100
AcDb2dVertex
62
5
10
103.007571
20
158.141622
0
VERTEX
5
4cc
100
AcDbEntity
8
2
100
AcDbVertex
100
AcDb2dVertex
62
5
10
103.013083
20
158.134904
0
VERTEX
5
4cd
100
AcDbEntity
8
2
100
AcDbVertex
100
AcDb2dVertex
62
5
10
103.018423
20
158.127842
0
VERTEX
5
4ce
100
AcDbEntity
8
2
100
AcDbVertex
100
AcDb2dVertex
62
5
10
103.023763
20
158.120090
0
VERTEX
5
4cf
100
AcDbEntity
8
2
100
AcDbVertex
100
AcDb2dVertex
62
5
10
103.029103
20
158.111822
0
VERTEX
5
4d0
100
AcDbEntity
8
2
100
AcDbVertex
100
AcDb2dVertex
62
5
10
103.034271
20
158.103209
0
VERTEX
5
4d1
100
AcDbEntity
8
2
100
AcDbVertex
100
AcDb2dVertex
62
5
10
103.039438
20
158.094080
0
VERTEX
5
4d2
100
AcDbEntity
8
2
100
AcDbVertex
100
AcDb2dVertex
62
5
10
103.044434
20
158.084433
0
VERTEX
5
4d3
100
AcDbEntity
8
2
100
AcDbVertex
100
AcDb2dVertex
62
5
10
103.049084
20
158.075132
0
VERTEX
5
4d4
100
AcDbEntity
8
2
100
AcDbVertex
100
AcDb2dVertex
62
5
10
103.053563
20
158.065485
0
VERTEX
5
4d5
100
AcDbEntity
8
2
100
AcDbVertex
100
AcDb2dVertex
62
5
10
103.058042
20
158.055322
0
VERTEX
5
4d6
100
AcDbEntity
8
2
100
AcDbVertex
100
AcDb2dVertex
62
5
10
103.062176
20
158.044987
0
VERTEX
5
4d7
100
AcDbEntity
8
2
100
AcDbVertex
100
AcDb2dVertex
62
5
10
103.066482
20
158.033963
0
VERTEX
5
4d8
100
AcDbEntity
8
2
100
AcDbVertex
100
AcDb2dVertex
62
5
10
103.070444
20
158.022766
0
VERTEX
5
4d9
100
AcDbEntity
8
2
100
AcDbVertex
100
AcDb2dVertex
62
5
10
103.074406
20
158.011225
0
VERTEX
5
4da
100
AcDbEntity
8
2
100
AcDbVertex
100
AcDb2dVertex
62
5
10
103.078196
20
157.999339
0
VERTEX
5
4db
100
AcDbEntity
8
2
100
AcDbVertex
100
AcDb2dVertex
62
5
10
103.080779
20
157.990554
0
VERTEX
5
4dc
100
AcDbEntity
8
2
100
AcDbVertex
100
AcDb2dVertex
62
5
10
103.083191
20
157.981769
0
VERTEX
5
4dd
100
AcDbEntity
8
2
100
AcDbVertex
100
AcDb2dVertex
62
5
10
103.085602
20
157.972640
0
VERTEX
5
4de
100
AcDbEntity
8
2
100
AcDbVertex
100
AcDb2dVertex
62
5
10
103.088014
20
157.963510
0
VERTEX
5
4df
100
AcDbEntity
8
2
100
AcDbVertex
100
AcDb2dVertex
62
5
10
103.090253
20
157.954209
0
VERTEX
5
4e0
100
AcDbEntity
8
2
100
AcDbVertex
100
AcDb2dVertex
62
5
10
103.092320
20
157.944907
0
VERTEX
5
4e1
100
AcDbEntity
8
2
100
AcDbVertex
100
AcDb2dVertex
62
5
10
103.094215
20
157.935433
0
VERTEX
5
4e2
100
AcDbEntity
8
2
100
AcDbVertex
100
AcDb2dVertex
62
5
10
103.096110
20
157.925959
0
SEQEND
5
4e3
100
AcDbEntity
8
2
0
ARC
5
4e4
100
AcDbEntity
8
2
100
AcDbCircle
6
CONTINUOUS
62
5
10
102.891666
20
157.886412
40
0.208233
100
AcDbArc
50
-0.067175
51
10.947839
0
LINE
5
4e5
100
AcDbEntity
8
2
100
AcDbLine
6
CONTINUOUS
62
5
10
103.099900
20
157.886168
11
103.099900
21
155.613783
0
ARC
5
4e6
100
AcDbEntity
8
2
100
AcDbCircle
6
CONTINUOUS
62
5
10
102.892598
20
155.613450
40
0.207302
100
AcDbArc
50
-10.972653
51
0.091929
0
POLYLINE
5
4e7
100
AcDbEntity
8
2
6
CONTINUOUS
62
5
100
AcDb2dPolyline
66
1
10
0.0
20
0.0
30
0.0
70
0
0
VERTEX
5
4e8
100
AcDbEntity
8
2
100
AcDbVertex
100
AcDb2dVertex
62
5
10
103.096110
20
155.573992
0
VERTEX
5
4e9
100
AcDbEntity
8
2
100
AcDbVertex
100
AcDb2dVertex
62
5
10
103.093526
20
155.560556
0
VERTEX
5
4ea
100
AcDbEntity
8
2
100
AcDbVertex
100
AcDb2dVertex
62
5
10
103.090598
20
155.547293
0
VERTEX
5
4eb
100
AcDbEntity
8
2
100
AcDbVertex
100
AcDb2dVertex
62
5
10
103.087325
20
155.534029
0
VERTEX
5
4ec
100
AcDbEntity
8
2
100
AcDbVertex
100
AcDb2dVertex
62
5
10
103.083880
20
155.520766
0
VERTEX
5
4ed
100
AcDbEntity
8
2
100
AcDbVertex
100
AcDb2dVertex
62
5
10
103.080952
20
155.509913
0
VERTEX
5
4ee
100
AcDbEntity
8
2
100
AcDbVertex
100
AcDb2dVertex
62
5
10
103.077679
20
155.499061
0
VERTEX
5
4ef
100
AcDbEntity
8
2
100
AcDbVertex
100
AcDb2dVertex
62
5
10
103.074234
20
155.488382
0
VERTEX
5
4f0
100
AcDbEntity
8
2
100
AcDbVertex
100
AcDb2dVertex
62
5
10
103.070789
20
155.477874
0
VERTEX
5
4f1
100
AcDbEntity
8
2
100
AcDbVertex
100
AcDb2dVertex
62
5
10
103.066999
20
155.467539
0
VERTEX
5
4f2
100
AcDbEntity
8
2
100
AcDbVertex
100
AcDb2dVertex
62
5
10
103.063037
20
155.457204
0
VERTEX
5
4f3
100
AcDbEntity
8
2
100
AcDbVertex
100
AcDb2dVertex
62
5
10
103.059075
20
155.447213
0
VERTEX
5
4f4
100
AcDbEntity
8
2
100
AcDbVertex
100
AcDb2dVertex
62
5
10
103.054941
20
155.437394
0
VERTEX
5
4f5
100
AcDbEntity
8
2
100
AcDbVertex
100
AcDb2dVertex
62
5
10
103.050807
20
155.428265
0
VERTEX
5
4f6
100
AcDbEntity
8
2
100
AcDbVertex
100
AcDb2dVertex
62
5
10
103.046501
20
155.419480
0
VERTEX
5
4f7
100
AcDbEntity
8
2
100
AcDbVertex
100
AcDb2dVertex
62
5
10
103.042194
20
155.410867
0
VERTEX
5
4f8
100
AcDbEntity
8
2
100
AcDbVertex
100
AcDb2dVertex
62
5
10
103.037716
20
155.402599
0
VERTEX
5
4f9
100
AcDbEntity
8
2
100
AcDbVertex
100
AcDb2dVertex
62
5
10
103.033065
20
155.394503
0
VERTEX
5
4fa
100
AcDbEntity
8
2
100
AcDbVertex
100
AcDb2dVertex
62
5
10
103.028242
20
155.386751
0
VERTEX
5
4fb
100
AcDbEntity
8
2
100
AcDbVertex
100
AcDb2dVertex
62
5
10
103.023419
20
155.379344
0
VERTEX
5
4fc
100
AcDbEntity
8
2
100
AcDbVertex
100
AcDb2dVertex
62
5
10
103.018423
20
155.372110
0
VERTEX
5
4fd
100
AcDbEntity
8
2
100
AcDbVertex
100
AcDb2dVertex
62
5
10
103.013428
20
155.365392
0
VERTEX
5
4fe
100
AcDbEntity
8
2
100
AcDbVertex
100
AcDb2dVertex
62
5
10
103.008260
20
155.359018
0
VERTEX
5
4ff
100
AcDbEntity
8
2
100
AcDbVertex
100
AcDb2dVertex
62
5
10
103.002920
20
155.352989
0
VERTEX
5
500
100
AcDbEntity
8
2
100
AcDbVertex
100
AcDb2dVertex
62
5
10
102.997580
20
155.347305
0
VERTEX
5
501
100
AcDbEntity
8
2
100
AcDbVertex
100
AcDb2dVertex
62
5
10
102.991896
20
155.341965
0
VERTEX
5
502
100
AcDbEntity
8
2
100
AcDbVertex
100
AcDb2dVertex
62
5
10
102.986211
20
155.337142
0
VERTEX
5
503
100
AcDbEntity
8
2
100
AcDbVertex
100
AcDb2dVertex
62
5
10
102.980355
20
155.332663
0
VERTEX
5
504
100
AcDbEntity
8
2
100
AcDbVertex
100
AcDb2dVertex
62
5
10
102.974154
20
155.328529
0
VERTEX
5
505
100
AcDbEntity
8
2
100
AcDbVertex
100
AcDb2dVertex
62
5
10
102.968125
20
155.325084
0
VERTEX
5
506
100
AcDbEntity
8
2
100
AcDbVertex
100
AcDb2dVertex
62
5
10
102.961751
20
155.321984
0
VERTEX
5
507
100
AcDbEntity
8
2
100
AcDbVertex
100
AcDb2dVertex
62
5
10
102.955033
20
155.319400
0
VERTEX
5
508
100
AcDbEntity
8
2
100
AcDbVertex
100
AcDb2dVertex
62
5
10
102.951588
20
155.318194
0
VERTEX
5
509
100
AcDbEntity
8
2
100
AcDbVertex
100
AcDb2dVertex
62
5
10
102.947971
20
155.317160
0
VERTEX
5
50a
100
AcDbEntity
8
2
100
AcDbVertex
100
AcDb2dVertex
62
5
10
102.942114
20
155.315782
0
VERTEX
5
50b
100
AcDbEntity
8
2
100
AcDbVertex
100
AcDb2dVertex
62
5
10
102.939186
20
155.315266
0
VERTEX
5
50c
100
AcDbEntity
8
2
100
AcDbVertex
100
AcDb2dVertex
62
5
10
102.936085
20
155.314749
0
VERTEX
5
50d
100
AcDbEntity
8
2
100
AcDbVertex
100
AcDb2dVertex
62
5
10
102.932813
20
155.314232
0
VERTEX
5
50e
100
AcDbEntity
8
2
100
AcDbVertex
100
AcDb2dVertex
62
5
10
102.929367
20
155.313888
0
VERTEX
5
50f
100
AcDbEntity
8
2
100
AcDbVertex
100
AcDb2dVertex
62
5
10
102.925922
20
155.313715
0
VERTEX
5
510
100
AcDbEntity
8
2
100
AcDbVertex
100
AcDb2dVertex
62
5
10
102.919377
20
155.313371
0
VERTEX
5
511
100
AcDbEntity
8
2
100
AcDbVertex
100
AcDb2dVertex
62
5
10
102.916448
20
155.313371
0
VERTEX
5
512
100
AcDbEntity
8
2
100
AcDbVertex
100
AcDb2dVertex
62
5
10
102.825842
20
155.312337
0
VERTEX
5
513
100
AcDbEntity
8
2
100
AcDbVertex
100
AcDb2dVertex
62
5
10
102.404852
20
155.304930
0
VERTEX
5
514
100
AcDbEntity
8
2
100
AcDbVertex
100
AcDb2dVertex
62
5
10
102.399856
20
155.299935
0
VERTEX
5
515
100
AcDbEntity
8
2
100
AcDbVertex
100
AcDb2dVertex
62
5
10
102.302532
20
155.299935
0
VERTEX
5
516
100
AcDbEntity
8
2
100
AcDbVertex
100
AcDb2dVertex
62
5
10
102.099099
20
155.302691
0
VERTEX
5
517
100
AcDbEntity
8
2
100
AcDbVertex
100
AcDb2dVertex
62
5
10
101.902557
20
155.328185
0
SEQEND
5
518
100
AcDbEntity
8
2
0
LINE
5
519
100
AcDbEntity
8
2
100
AcDbLine
6
CONTINUOUS
62
5
10
102.399856
20
158.397593
11
102.404852
21
158.195021
0
POLYLINE
5
51a
100
AcDbEntity
8
2
6
CONTINUOUS
62
5
100
AcDb2dPolyline
66
1
10
0.0
20
0.0
30
0.0
70
0
0
VERTEX
5
51b
100
AcDbEntity
8
2
100
AcDbVertex
100
AcDb2dVertex
62
5
10
103.410303
20
145.189785
0
VERTEX
5
51c
100
AcDbEntity
8
2
100
AcDbVertex
100
AcDb2dVertex
62
5
10
102.818952
20
145.200121
0
VERTEX
5
51d
100
AcDbEntity
8
2
100
AcDbVertex
100
AcDb2dVertex
62
5
10
102.791455
20
145.199497
0
VERTEX
5
51e
100
AcDbEntity
8
2
100
AcDbVertex
100
AcDb2dVertex
62
5
10
102.764425
20
145.197651
0
VERTEX
5
51f
100
AcDbEntity
8
2
100
AcDbVertex
100
AcDb2dVertex
62
5
10
102.737918
20
145.194619
0
VERTEX
5
520
100
AcDbEntity
8
2
100
AcDbVertex
100
AcDb2dVertex
62
5
10
102.711988
20
145.190439
0
VERTEX
5
521
100
AcDbEntity
8
2
100
AcDbVertex
100
AcDb2dVertex
62
5
10
102.686693
20
145.185148
0
VERTEX
5
522
100
AcDbEntity
8
2
100
AcDbVertex
100
AcDb2dVertex
62
5
10
102.662087
20
145.178783
0
VERTEX
5
523
100
AcDbEntity
8
2
100
AcDbVertex
100
AcDb2dVertex
62
5
10
102.638227
20
145.171380
0
VERTEX
5
524
100
AcDbEntity
8
2
100
AcDbVertex
100
AcDb2dVertex
62
5
10
102.615168
20
145.162977
0
VERTEX
5
525
100
AcDbEntity
8
2
100
AcDbVertex
100
AcDb2dVertex
62
5
10
102.592967
20
145.153612
0
VERTEX
5
526
100
AcDbEntity
8
2
100
AcDbVertex
100
AcDb2dVertex
62
5
10
102.571678
20
145.143321
0
VERTEX
5
527
100
AcDbEntity
8
2
100
AcDbVertex
100
AcDb2dVertex
62
5
10
102.551358
20
145.132140
0
VERTEX
5
528
100
AcDbEntity
8
2
100
AcDbVertex
100
AcDb2dVertex
62
5
10
102.532062
20
145.120108
0
VERTEX
5
529
100
AcDbEntity
8
2
100
AcDbVertex
100
AcDb2dVertex
62
5
10
102.513846
20
145.107262
0
VERTEX
5
52a
100
AcDbEntity
8
2
100
AcDbVertex
100
AcDb2dVertex
62
5
10
102.496766
20
145.093638
0
VERTEX
5
52b
100
AcDbEntity
8
2
100
AcDbVertex
100
AcDb2dVertex
62
5
10
102.480879
20
145.079273
0
VERTEX
5
52c
100
AcDbEntity
8
2
100
AcDbVertex
100
AcDb2dVertex
62
5
10
102.466238
20
145.064205
0
VERTEX
5
52d
100
AcDbEntity
8
2
100
AcDbVertex
100
AcDb2dVertex
62
5
10
102.452901
20
145.048471
0
VERTEX
5
52e
100
AcDbEntity
8
2
100
AcDbVertex
100
AcDb2dVertex
62
5
10
102.440923
20
145.032108
0
VERTEX
5
52f
100
AcDbEntity
8
2
100
AcDbVertex
100
AcDb2dVertex
62
5
10
102.430360
20
145.015152
0
VERTEX
5
530
100
AcDbEntity
8
2
100
AcDbVertex
100
AcDb2dVertex
62
5
10
102.421267
20
144.997642
0
VERTEX
5
531
100
AcDbEntity
8
2
100
AcDbVertex
100
AcDb2dVertex
62
5
10
102.413701
20
144.979613
0
VERTEX
5
532
100
AcDbEntity
8
2
100
AcDbVertex
100
AcDb2dVertex
62
5
10
102.407716
20
144.961104
0
VERTEX
5
533
100
AcDbEntity
8
2
100
AcDbVertex
100
AcDb2dVertex
62
5
10
102.403370
20
144.942150
0
VERTEX
5
534
100
AcDbEntity
8
2
100
AcDbVertex
100
AcDb2dVertex
62
5
10
102.400718
20
144.922791
0
SEQEND
5
535
100
AcDbEntity
8
2
0
LINE
5
536
100
AcDbEntity
8
2
100
AcDbLine
6
CONTINUOUS
62
5
10
102.399856
20
144.897641
11
102.404852
21
144.695070
0
ARC
5
537
100
AcDbEntity
8
2
100
AcDbCircle
6
CONTINUOUS
62
5
10
102.099574
20
142.603150
40
0.799736
100
AcDbArc
50
179.995870
51
-104.261772
0
LINE
5
538
100
AcDbEntity
8
2
100
AcDbLine
6
CONTINUOUS
62
5
10
101.299837
20
142.603208
11
101.299837
21
143.896497
0
ARC
5
539
100
AcDbEntity
8
2
100
AcDbCircle
6
CONTINUOUS
62
5
10
102.099719
20
143.896441
40
0.799882
100
AcDbArc
50
104.269891
51
179.996008
0
POLYLINE
5
53a
100
AcDbEntity
8
2
6
CONTINUOUS
62
5
100
AcDb2dPolyline
66
1
10
0.0
20
0.0
30
0.0
70
0
0
VERTEX
5
53b
100
AcDbEntity
8
2
100
AcDbVertex
100
AcDb2dVertex
62
5
10
101.902557
20
144.671643
0
VERTEX
5
53c
100
AcDbEntity
8
2
100
AcDbVertex
100
AcDb2dVertex
62
5
10
102.099099
20
144.697137
0
VERTEX
5
53d
100
AcDbEntity
8
2
100
AcDbVertex
100
AcDb2dVertex
62
5
10
102.302532
20
144.699893
0
VERTEX
5
53e
100
AcDbEntity
8
2
100
AcDbVertex
100
AcDb2dVertex
62
5
10
102.399856
20
144.699893
0
VERTEX
5
53f
100
AcDbEntity
8
2
100
AcDbVertex
100
AcDb2dVertex
62
5
10
102.404852
20
144.695070
0
VERTEX
5
540
100
AcDbEntity
8
2
100
AcDbVertex
100
AcDb2dVertex
62
5
10
102.916448
20
144.686457
0
VERTEX
5
541
100
AcDbEntity
8
2
100
AcDbVertex
100
AcDb2dVertex
62
5
10
102.921444
20
144.686457
0
VERTEX
5
542
100
AcDbEntity
8
2
100
AcDbVertex
100
AcDb2dVertex
62
5
10
102.923683
20
144.686285
0
VERTEX
5
543
100
AcDbEntity
8
2
100
AcDbVertex
100
AcDb2dVertex
62
5
10
102.926095
20
144.686112
0
VERTEX
5
544
100
AcDbEntity
8
2
100
AcDbVertex
100
AcDb2dVertex
62
5
10
102.930056
20
144.685768
0
VERTEX
5
545
100
AcDbEntity
8
2
100
AcDbVertex
100
AcDb2dVertex
62
5
10
102.933846
20
144.685423
0
VERTEX
5
546
100
AcDbEntity
8
2
100
AcDbVertex
100
AcDb2dVertex
62
5
10
102.937463
20
144.684907
0
VERTEX
5
547
100
AcDbEntity
8
2
100
AcDbVertex
100
AcDb2dVertex
62
5
10
102.940908
20
144.684218
0
VERTEX
5
548
100
AcDbEntity
8
2
100
AcDbVertex
100
AcDb2dVertex
62
5
10
102.944526
20
144.683529
0
VERTEX
5
549
100
AcDbEntity
8
2
100
AcDbVertex
100
AcDb2dVertex
62
5
10
102.947799
20
144.682667
0
VERTEX
5
54a
100
AcDbEntity
8
2
100
AcDbVertex
100
AcDb2dVertex
62
5
10
102.954172
20
144.680773
0
VERTEX
5
54b
100
AcDbEntity
8
2
100
AcDbVertex
100
AcDb2dVertex
62
5
10
102.960890
20
144.678189
0
VERTEX
5
54c
100
AcDbEntity
8
2
100
AcDbVertex
100
AcDb2dVertex
62
5
10
102.967091
20
144.675260
0
VERTEX
5
54d
100
AcDbEntity
8
2
100
AcDbVertex
100
AcDb2dVertex
62
5
10
102.973292
20
144.671815
0
VERTEX
5
54e
100
AcDbEntity
8
2
100
AcDbVertex
100
AcDb2dVertex
62
5
10
102.979149
20
144.668026
0
VERTEX
5
54f
100
AcDbEntity
8
2
100
AcDbVertex
100
AcDb2dVertex
62
5
10
102.985178
20
144.663547
0
VERTEX
5
550
100
AcDbEntity
8
2
100
AcDbVertex
100
AcDb2dVertex
62
5
10
102.990862
20
144.658896
0
VERTEX
5
551
100
AcDbEntity
8
2
100
AcDbVertex
100
AcDb2dVertex
62
5
10
102.996547
20
144.653556
0
VERTEX
5
552
100
AcDbEntity
8
2
100
AcDbVertex
100
AcDb2dVertex
62
5
10
103.002059
20
144.647872
0
VERTEX
5
553
100
AcDbEntity
8
2
100
AcDbVertex
100
AcDb2dVertex
62
5
10
103.007571
20
144.641498
0
VERTEX
5
554
100
AcDbEntity
8
2
100
AcDbVertex
100
AcDb2dVertex
62
5
10
103.013083
20
144.634781
0
VERTEX
5
555
100
AcDbEntity
8
2
100
AcDbVertex
100
AcDb2dVertex
62
5
10
103.018423
20
144.627718
0
VERTEX
5
556
100
AcDbEntity
8
2
100
AcDbVertex
100
AcDb2dVertex
62
5
10
103.023763
20
144.619967
0
VERTEX
5
557
100
AcDbEntity
8
2
100
AcDbVertex
100
AcDb2dVertex
62
5
10
103.029103
20
144.611698
0
VERTEX
5
558
100
AcDbEntity
8
2
100
AcDbVertex
100
AcDb2dVertex
62
5
10
103.034271
20
144.603086
0
VERTEX
5
559
100
AcDbEntity
8
2
100
AcDbVertex
100
AcDb2dVertex
62
5
10
103.039438
20
144.593956
0
VERTEX
5
55a
100
AcDbEntity
8
2
100
AcDbVertex
100
AcDb2dVertex
62
5
10
103.044434
20
144.584310
0
VERTEX
5
55b
100
AcDbEntity
8
2
100
AcDbVertex
100
AcDb2dVertex
62
5
10
103.049084
20
144.575008
0
VERTEX
5
55c
100
AcDbEntity
8
2
100
AcDbVertex
100
AcDb2dVertex
62
5
10
103.053563
20
144.565362
0
VERTEX
5
55d
100
AcDbEntity
8
2
100
AcDbVertex
100
AcDb2dVertex
62
5
10
103.058042
20
144.555199
0
VERTEX
5
55e
100
AcDbEntity
8
2
100
AcDbVertex
100
AcDb2dVertex
62
5
10
103.062176
20
144.544864
0
VERTEX
5
55f
100
AcDbEntity
8
2
100
AcDbVertex
100
AcDb2dVertex
62
5
10
103.066482
20
144.533839
0
VERTEX
5
560
100
AcDbEntity
8
2
100
AcDbVertex
100
AcDb2dVertex
62
5
10
103.070444
20
144.522643
0
VERTEX
5
561
100
AcDbEntity
8
2
100
AcDbVertex
100
AcDb2dVertex
62
5
10
103.074406
20
144.511102
0
VERTEX
5
562
100
AcDbEntity
8
2
100
AcDbVertex
100
AcDb2dVertex
62
5
10
103.078196
20
144.499216
0
VERTEX
5
563
100
AcDbEntity
8
2
100
AcDbVertex
100
AcDb2dVertex
62
5
10
103.080779
20
144.490431
0
VERTEX
5
564
100
AcDbEntity
8
2
100
AcDbVertex
100
AcDb2dVertex
62
5
10
103.083191
20
144.481646
0
VERTEX
5
565
100
AcDbEntity
8
2
100
AcDbVertex
100
AcDb2dVertex
62
5
10
103.085602
20
144.472517
0
VERTEX
5
566
100
AcDbEntity
8
2
100
AcDbVertex
100
AcDb2dVertex
62
5
10
103.088014
20
144.463387
0
VERTEX
5
567
100
AcDbEntity
8
2
100
AcDbVertex
100
AcDb2dVertex
62
5
10
103.090253
20
144.454085
0
VERTEX
5
568
100
AcDbEntity
8
2
100
AcDbVertex
100
AcDb2dVertex
62
5
10
103.092320
20
144.444784
0
VERTEX
5
569
100
AcDbEntity
8
2
100
AcDbVertex
100
AcDb2dVertex
62
5
10
103.094215
20
144.435310
0
VERTEX
5
56a
100
AcDbEntity
8
2
100
AcDbVertex
100
AcDb2dVertex
62
5
10
103.096110
20
144.425836
0
SEQEND
5
56b
100
AcDbEntity
8
2
0
ARC
5
56c
100
AcDbEntity
8
2
100
AcDbCircle
6
CONTINUOUS
62
5
10
102.891666
20
144.386289
40
0.208233
100
AcDbArc
50
-0.067175
51
10.947839
0
LINE
5
56d
100
AcDbEntity
8
2
100
AcDbLine
6
CONTINUOUS
62
5
10
103.099900
20
144.386045
11
103.099900
21
142.113659
0
ARC
5
56e
100
AcDbEntity
8
2
100
AcDbCircle
6
CONTINUOUS
62
5
10
102.892598
20
142.113327
40
0.207302
100
AcDbArc
50
-10.972653
51
0.091929
0
POLYLINE
5
56f
100
AcDbEntity
8
2
6
CONTINUOUS
62
5
100
AcDb2dPolyline
66
1
10
0.0
20
0.0
30
0.0
70
0
0
VERTEX
5
570
100
AcDbEntity
8
2
100
AcDbVertex
100
AcDb2dVertex
62
5
10
103.096110
20
142.073869
0
VERTEX
5
571
100
AcDbEntity
8
2
100
AcDbVertex
100
AcDb2dVertex
62
5
10
103.093526
20
142.060433
0
VERTEX
5
572
100
AcDbEntity
8
2
100
AcDbVertex
100
AcDb2dVertex
62
5
10
103.090598
20
142.047169
0
VERTEX
5
573
100
AcDbEntity
8
2
100
AcDbVertex
100
AcDb2dVertex
62
5
10
103.087325
20
142.033906
0
VERTEX
5
574
100
AcDbEntity
8
2
100
AcDbVertex
100
AcDb2dVertex
62
5
10
103.083880
20
142.020642
0
VERTEX
5
575
100
AcDbEntity
8
2
100
AcDbVertex
100
AcDb2dVertex
62
5
10
103.080952
20
142.009790
0
VERTEX
5
576
100
AcDbEntity
8
2
100
AcDbVertex
100
AcDb2dVertex
62
5
10
103.077679
20
141.998938
0
VERTEX
5
577
100
AcDbEntity
8
2
100
AcDbVertex
100
AcDb2dVertex
62
5
10
103.074234
20
141.988258
0
VERTEX
5
578
100
AcDbEntity
8
2
100
AcDbVertex
100
AcDb2dVertex
62
5
10
103.070789
20
141.977751
0
VERTEX
5
579
100
AcDbEntity
8
2
100
AcDbVertex
100
AcDb2dVertex
62
5
10
103.066999
20
141.967415
0
VERTEX
5
57a
100
AcDbEntity
8
2
100
AcDbVertex
100
AcDb2dVertex
62
5
10
103.063037
20
141.957080
0
VERTEX
5
57b
100
AcDbEntity
8
2
100
AcDbVertex
100
AcDb2dVertex
62
5
10
103.059075
20
141.947089
0
VERTEX
5
57c
100
AcDbEntity
8
2
100
AcDbVertex
100
AcDb2dVertex
62
5
10
103.054941
20
141.937271
0
VERTEX
5
57d
100
AcDbEntity
8
2
100
AcDbVertex
100
AcDb2dVertex
62
5
10
103.050807
20
141.928141
0
VERTEX
5
57e
100
AcDbEntity
8
2
100
AcDbVertex
100
AcDb2dVertex
62
5
10
103.046501
20
141.919356
0
VERTEX
5
57f
100
AcDbEntity
8
2
100
AcDbVertex
100
AcDb2dVertex
62
5
10
103.042194
20
141.910744
0
VERTEX
5
580
100
AcDbEntity
8
2
100
AcDbVertex
100
AcDb2dVertex
62
5
10
103.037716
20
141.902475
0
VERTEX
5
581
100
AcDbEntity
8
2
100
AcDbVertex
100
AcDb2dVertex
62
5
10
103.033065
20
141.894379
0
VERTEX
5
582
100
AcDbEntity
8
2
100
AcDbVertex
100
AcDb2dVertex
62
5
10
103.028242
20
141.886628
0
VERTEX
5
583
100
AcDbEntity
8
2
100
AcDbVertex
100
AcDb2dVertex
62
5
10
103.023419
20
141.879221
0
VERTEX
5
584
100
AcDbEntity
8
2
100
AcDbVertex
100
AcDb2dVertex
62
5
10
103.018423
20
141.871986
0
VERTEX
5
585
100
AcDbEntity
8
2
100
AcDbVertex
100
AcDb2dVertex
62
5
10
103.013428
20
141.865268
0
VERTEX
5
586
100
AcDbEntity
8
2
100
AcDbVertex
100
AcDb2dVertex
62
5
10
103.008260
20
141.858895
0
VERTEX
5
587
100
AcDbEntity
8
2
100
AcDbVertex
100
AcDb2dVertex
62
5
10
103.002920
20
141.852866
0
VERTEX
5
588
100
AcDbEntity
8
2
100
AcDbVertex
100
AcDb2dVertex
62
5
10
102.997580
20
141.847182
0
VERTEX
5
589
100
AcDbEntity
8
2
100
AcDbVertex
100
AcDb2dVertex
62
5
10
102.991896
20
141.841842
0
VERTEX
5
58a
100
AcDbEntity
8
2
100
AcDbVertex
100
AcDb2dVertex
62
5
10
102.986211
20
141.837019
0
VERTEX
5
58b
100
AcDbEntity
8
2
100
AcDbVertex
100
AcDb2dVertex
62
5
10
102.980355
20
141.832540
0
VERTEX
5
58c
100
AcDbEntity
8
2
100
AcDbVertex
100
AcDb2dVertex
62
5
10
102.974154
20
141.828406
0
VERTEX
5
58d
100
AcDbEntity
8
2
100
AcDbVertex
100
AcDb2dVertex
62
5
10
102.968125
20
141.824961
0
VERTEX
5
58e
100
AcDbEntity
8
2
100
AcDbVertex
100
AcDb2dVertex
62
5
10
102.961751
20
141.821860
0
VERTEX
5
58f
100
AcDbEntity
8
2
100
AcDbVertex
100
AcDb2dVertex
62
5
10
102.955033
20
141.819276
0
VERTEX
5
590
100
AcDbEntity
8
2
100
AcDbVertex
100
AcDb2dVertex
62
5
10
102.951588
20
141.818070
0
VERTEX
5
591
100
AcDbEntity
8
2
100
AcDbVertex
100
AcDb2dVertex
62
5
10
102.947971
20
141.817037
0
VERTEX
5
592
100
AcDbEntity
8
2
100
AcDbVertex
100
AcDb2dVertex
62
5
10
102.942114
20
141.815659
0
VERTEX
5
593
100
AcDbEntity
8
2
100
AcDbVertex
100
AcDb2dVertex
62
5
10
102.939186
20
141.815142
0
VERTEX
5
594
100
AcDbEntity
8
2
100
AcDbVertex
100
AcDb2dVertex
62
5
10
102.936085
20
141.814625
0
VERTEX
5
595
100
AcDbEntity
8
2
100
AcDbVertex
100
AcDb2dVertex
62
5
10
102.932813
20
141.814109
0
VERTEX
5
596
100
AcDbEntity
8
2
100
AcDbVertex
100
AcDb2dVertex
62
5
10
102.929367
20
141.813764
0
VERTEX
5
597
100
AcDbEntity
8
2
100
AcDbVertex
100
AcDb2dVertex
62
5
10
102.925922
20
141.813592
0
VERTEX
5
598
100
AcDbEntity
8
2
100
AcDbVertex
100
AcDb2dVertex
62
5
10
102.919377
20
141.813247
0
VERTEX
5
599
100
AcDbEntity
8
2
100
AcDbVertex
100
AcDb2dVertex
62
5
10
102.916448
20
141.813247
0
VERTEX
5
59a
100
AcDbEntity
8
2
100
AcDbVertex
100
AcDb2dVertex
62
5
10
102.825842
20
141.812214
0
VERTEX
5
59b
100
AcDbEntity
8
2
100
AcDbVertex
100
AcDb2dVertex
62
5
10
102.404856
20
141.804983
0
VERTEX
5
59c
100
AcDbEntity
8
2
100
AcDbVertex
100
AcDb2dVertex
62
5
10
102.399856
20
141.799811
0
VERTEX
5
59d
100
AcDbEntity
8
2
100
AcDbVertex
100
AcDb2dVertex
62
5
10
102.302532
20
141.799811
0
VERTEX
5
59e
100
AcDbEntity
8
2
100
AcDbVertex
100
AcDb2dVertex
62
5
10
102.099099
20
141.802568
0
VERTEX
5
59f
100
AcDbEntity
8
2
100
AcDbVertex
100
AcDb2dVertex
62
5
10
101.902557
20
141.828061
0
SEQEND
5
5a0
100
AcDbEntity
8
2
0
POLYLINE
5
5a1
100
AcDbEntity
8
2
6
CONTINUOUS
62
5
100
AcDb2dPolyline
66
1
10
0.0
20
0.0
30
0.0
70
0
0
VERTEX
5
5a2
100
AcDbEntity
8
2
100
AcDbVertex
100
AcDb2dVertex
62
5
10
103.524163
20
140.383877
0
VERTEX
5
5a3
100
AcDbEntity
8
2
100
AcDbVertex
100
AcDb2dVertex
62
5
10
103.311945
20
140.033167
0
VERTEX
5
5a4
100
AcDbEntity
8
2
100
AcDbVertex
100
AcDb2dVertex
62
5
10
103.258891
20
139.946006
0
VERTEX
5
5a5
100
AcDbEntity
8
2
100
AcDbVertex
100
AcDb2dVertex
62
5
10
103.179998
20
139.861084
0
VERTEX
5
5a6
100
AcDbEntity
8
2
100
AcDbVertex
100
AcDb2dVertex
62
5
10
103.079057
20
139.798556
0
VERTEX
5
5a7
100
AcDbEntity
8
2
100
AcDbVertex
100
AcDb2dVertex
62
5
10
102.968642
20
139.771684
0
VERTEX
5
5a8
100
AcDbEntity
8
2
100
AcDbVertex
100
AcDb2dVertex
62
5
10
102.852370
20
139.782880
0
VERTEX
5
5a9
100
AcDbEntity
8
2
100
AcDbVertex
100
AcDb2dVertex
62
5
10
102.755218
20
139.823360
0
VERTEX
5
5aa
100
AcDbEntity
8
2
100
AcDbVertex
100
AcDb2dVertex
62
5
10
102.662545
20
139.892090
0
VERTEX
5
5ab
100
AcDbEntity
8
2
100
AcDbVertex
100
AcDb2dVertex
62
5
10
102.593298
20
139.968226
0
VERTEX
5
5ac
100
AcDbEntity
8
2
100
AcDbVertex
100
AcDb2dVertex
62
5
10
102.531803
20
140.060900
0
VERTEX
5
5ad
100
AcDbEntity
8
2
100
AcDbVertex
100
AcDb2dVertex
62
5
10
102.479438
20
140.170454
0
VERTEX
5
5ae
100
AcDbEntity
8
2
100
AcDbVertex
100
AcDb2dVertex
62
5
10
102.458291
20
140.229597
0
VERTEX
5
5af
100
AcDbEntity
8
2
100
AcDbVertex
100
AcDb2dVertex
62
5
10
102.455014
20
140.239621
0
VERTEX
5
5b0
100
AcDbEntity
8
2
100
AcDbVertex
100
AcDb2dVertex
62
5
10
102.449594
20
140.257116
0
VERTEX
5
5b1
100
AcDbEntity
8
2
100
AcDbVertex
100
AcDb2dVertex
62
5
10
102.444451
20
140.274687
0
VERTEX
5
5b2
100
AcDbEntity
8
2
100
AcDbVertex
100
AcDb2dVertex
62
5
10
102.439585
20
140.292328
0
VERTEX
5
5b3
100
AcDbEntity
8
2
100
AcDbVertex
100
AcDb2dVertex
62
5
10
102.434996
20
140.310037
0
VERTEX
5
5b4
100
AcDbEntity
8
2
100
AcDbVertex
100
AcDb2dVertex
62
5
10
102.430685
20
140.327811
0
VERTEX
5
5b5
100
AcDbEntity
8
2
100
AcDbVertex
100
AcDb2dVertex
62
5
10
102.426654
20
140.345647
0
VERTEX
5
5b6
100
AcDbEntity
8
2
100
AcDbVertex
100
AcDb2dVertex
62
5
10
102.422901
20
140.363540
0
VERTEX
5
5b7
100
AcDbEntity
8
2
100
AcDbVertex
100
AcDb2dVertex
62
5
10
102.419429
20
140.381487
0
VERTEX
5
5b8
100
AcDbEntity
8
2
100
AcDbVertex
100
AcDb2dVertex
62
5
10
102.416237
20
140.399486
0
VERTEX
5
5b9
100
AcDbEntity
8
2
100
AcDbVertex
100
AcDb2dVertex
62
5
10
102.413327
20
140.417532
0
SEQEND
5
5ba
100
AcDbEntity
8
2
0
POLYLINE
5
5bb
100
AcDbEntity
8
2
6
CONTINUOUS
62
5
100
AcDb2dPolyline
66
1
10
0.0
20
0.0
30
0.0
70
1
0
VERTEX
5
5bc
100
AcDbEntity
8
2
100
AcDbVertex
100
AcDb2dVertex
62
5
10
107.427801
20
146.548187
0
VERTEX
5
5bd
100
AcDbEntity
8
2
100
AcDbVertex
100
AcDb2dVertex
62
5
10
107.424356
20
146.348371
0
VERTEX
5
5be
100
AcDbEntity
8
2
100
AcDbVertex
100
AcDb2dVertex
62
5
10
107.399896
20
146.335969
0
VERTEX
5
5bf
100
AcDbEntity
8
2
100
AcDbVertex
100
AcDb2dVertex
62
5
10
107.213860
20
146.335969
0
VERTEX
5
5c0
100
AcDbEntity
8
2
100
AcDbVertex
100
AcDb2dVertex
62
5
10
107.213860
20
153.664031
0
VERTEX
5
5c1
100
AcDbEntity
8
2
100
AcDbVertex
100
AcDb2dVertex
62
5
10
107.399896
20
153.664031
0
VERTEX
5
5c2
100
AcDbEntity
8
2
100
AcDbVertex
100
AcDb2dVertex
62
5
10
107.424356
20
153.651629
0
VERTEX
5
5c3
100
AcDbEntity
8
2
100
AcDbVertex
100
AcDb2dVertex
62
5
10
107.427801
20
153.451641
0
SEQEND
5
5c4
100
AcDbEntity
8
2
0
ARC
5
5c5
100
AcDbEntity
8
2
100
AcDbCircle
6
CONTINUOUS
62
5
10
103.399851
20
145.700121
40
0.500000
100
AcDbArc
50
-89.999999
51
0.000000
0
LINE
5
5c6
100
AcDbEntity
8
2
100
AcDbLine
6
CONTINUOUS
62
5
10
103.899851
20
145.700121
11
103.899851
21
154.300052
0
ARC
5
5c7
100
AcDbEntity
8
2
100
AcDbCircle
6
CONTINUOUS
62
5
10
103.399851
20
154.300052
40
0.500000
100
AcDbArc
50
0.000000
51
89.999999
0
LINE
5
5c8
100
AcDbEntity
8
2
100
AcDbLine
6
CONTINUOUS
62
5
10
103.399851
20
154.800052
11
102.699856
21
154.800052
0
ARC
5
5c9
100
AcDbEntity
8
2
100
AcDbCircle
6
CONTINUOUS
62
5
10
102.699856
20
155.100052
40
0.300000
100
AcDbArc
50
179.999998
51
-89.999999
0
LINE
5
5ca
100
AcDbEntity
8
2
100
AcDbLine
6
CONTINUOUS
62
5
10
102.399856
20
155.100052
11
102.399856
21
155.299935
0
LINE
5
5cb
100
AcDbEntity
8
2
100
AcDbLine
6
CONTINUOUS
62
5
10
102.399856
20
144.699893
11
102.399856
21
144.900121
0
ARC
5
5cc
100
AcDbEntity
8
2
100
AcDbCircle
6
CONTINUOUS
62
5
10
102.699856
20
144.900121
40
0.300000
100
AcDbArc
50
89.999999
51
179.999998
0
LINE
5
5cd
100
AcDbEntity
8
2
100
AcDbLine
6
CONTINUOUS
62
5
10
102.699856
20
145.200121
11
103.399851
21
145.200121
0
ARC
5
5ce
100
AcDbEntity
8
2
100
AcDbCircle
6
CONTINUOUS
62
5
10
108.399896
20
155.999917
40
1.000000
100
AcDbArc
50
89.999999
51
179.999998
0
LINE
5
5cf
100
AcDbEntity
8
2
100
AcDbLine
6
CONTINUOUS
62
5
10
108.399896
20
156.999917
11
109.408558
21
156.999917
0
LINE
5
5d0
100
AcDbEntity
8
2
100
AcDbLine
6
CONTINUOUS
62
5
10
107.399896
20
153.664031
11
107.399896
21
155.999917
0
ARC
5
5d1
100
AcDbEntity
8
2
100
AcDbCircle
6
CONTINUOUS
62
5
10
108.399896
20
144.000083
40
1.000000
100
AcDbArc
50
-179.999998
51
-89.999999
0
LINE
5
5d2
100
AcDbEntity
8
2
100
AcDbLine
6
CONTINUOUS
62
5
10
107.399896
20
144.000083
11
107.399896
21
146.335969
0
LINE
5
5d3
100
AcDbEntity
8
2
100
AcDbLine
6
CONTINUOUS
62
5
10
109.408558
20
143.000083
11
108.399896
21
143.000083
0
ARC
5
5d4
100
AcDbEntity
8
2
100
AcDbCircle
6
CONTINUOUS
62
5
10
103.649856
20
140.600004
40
1.250000
100
AcDbArc
50
179.999998
51
-89.999999
0
LINE
5
5d5
100
AcDbEntity
8
2
100
AcDbLine
6
CONTINUOUS
62
5
10
103.649856
20
139.350004
11
109.399946
21
139.350004
0
LINE
5
5d6
100
AcDbEntity
8
2
100
AcDbLine
6
CONTINUOUS
62
5
10
102.399856
20
141.799984
11
102.399856
21
140.600004
0
LINE
5
5d7
100
AcDbEntity
8
1
100
AcDbLine
6
CONTINUOUS
62
5
10
40.000000
20
340.000000
11
40.000000
21
308.000000
0
LINE
5
5d8
100
AcDbEntity
8
1
100
AcDbLine
6
CONTINUOUS
62
5
10
0.000000
20
308.000000
11
320.000000
21
308.000000
0
ARC
5
5d9
100
AcDbEntity
8
2
100
AcDbCircle
6
CONTINUOUS
62
5
10
208.329682
20
159.405080
40
1.170709
100
AcDbArc
50
-0.251415
51
21.249184
0
POLYLINE
5
5da
100
AcDbEntity
8
2
6
CONTINUOUS
62
5
100
AcDb2dPolyline
66
1
10
0.0
20
0.0
30
0.0
70
0
0
VERTEX
5
5db
100
AcDbEntity
8
2
100
AcDbVertex
100
AcDb2dVertex
62
5
10
208.500441
20
159.615951
0
VERTEX
5
5dc
100
AcDbEntity
8
2
100
AcDbVertex
100
AcDb2dVertex
62
5
10
208.588291
20
159.966661
0
VERTEX
5
5dd
100
AcDbEntity
8
2
100
AcDbVertex
100
AcDb2dVertex
62
5
10
208.648063
20
160.062779
0
VERTEX
5
5de
100
AcDbEntity
8
2
100
AcDbVertex
100
AcDb2dVertex
62
5
10
208.720582
20
160.139088
0
VERTEX
5
5df
100
AcDbEntity
8
2
100
AcDbVertex
100
AcDb2dVertex
62
5
10
208.821351
20
160.201272
0
VERTEX
5
5e0
100
AcDbEntity
8
2
100
AcDbVertex
100
AcDb2dVertex
62
5
10
208.931595
20
160.228144
0
VERTEX
5
5e1
100
AcDbEntity
8
2
100
AcDbVertex
100
AcDb2dVertex
62
5
10
209.047866
20
160.216947
0
VERTEX
5
5e2
100
AcDbEntity
8
2
100
AcDbVertex
100
AcDb2dVertex
62
5
10
209.145190
20
160.176295
0
VERTEX
5
5e3
100
AcDbEntity
8
2
100
AcDbVertex
100
AcDb2dVertex
62
5
10
209.237691
20
160.107738
0
VERTEX
5
5e4
100
AcDbEntity
8
2
100
AcDbVertex
100
AcDb2dVertex
62
5
10
209.306938
20
160.031601
0
VERTEX
5
5e5
100
AcDbEntity
8
2
100
AcDbVertex
100
AcDb2dVertex
62
5
10
209.368433
20
159.938928
0
VERTEX
5
5e6
100
AcDbEntity
8
2
100
AcDbVertex
100
AcDb2dVertex
62
5
10
209.420798
20
159.829374
0
SEQEND
5
5e7
100
AcDbEntity
8
2
0
LINE
5
5e8
100
AcDbEntity
8
2
100
AcDbLine
6
CONTINUOUS
62
5
10
209.500380
20
158.200016
11
209.500380
21
161.350039
0
LINE
5
5e9
100
AcDbEntity
8
2
100
AcDbLine
6
CONTINUOUS
62
5
10
209.500380
20
158.200016
11
209.500380
21
161.350039
0
ARC
5
5ea
100
AcDbEntity
8
2
100
AcDbCircle
6
CONTINUOUS
62
5
10
209.500269
20
159.649959
40
1.000000
100
AcDbArc
50
89.500702
51
179.999998
0
LINE
5
5eb
100
AcDbEntity
8
2
100
AcDbLine
6
CONTINUOUS
62
5
10
208.500269
20
159.649959
11
208.500269
21
158.167044
0
LINE
5
5ec
100
AcDbEntity
8
2
100
AcDbLine
6
CONTINUOUS
62
5
10
213.000252
20
160.123758
11
213.000252
21
160.123834
0
ARC
5
5ed
100
AcDbEntity
8
2
100
AcDbCircle
6
CONTINUOUS
62
5
10
212.500252
20
160.123834
40
0.500000
100
AcDbArc
50
0.000000
51
89.500702
0
POLYLINE
5
5ee
100
AcDbEntity
8
2
6
CONTINUOUS
62
5
100
AcDb2dPolyline
66
1
10
0.0
20
0.0
30
0.0
70
0
0
VERTEX
5
5ef
100
AcDbEntity
8
2
100
AcDbVertex
100
AcDb2dVertex
62
5
10
212.504609
20
160.623815
0
VERTEX
5
5f0
100
AcDbEntity
8
2
100
AcDbVertex
100
AcDb2dVertex
62
5
10
209.500380
20
160.649996
0
VERTEX
5
5f1
100
AcDbEntity
8
2
100
AcDbVertex
100
AcDb2dVertex
62
5
10
209.508983
20
160.649921
0
SEQEND
5
5f2
100
AcDbEntity
8
2
0
LINE
5
5f3
100
AcDbEntity
8
2
100
AcDbLine
6
CONTINUOUS
62
5
10
202.700450
20
138.709216
11
202.700450
21
161.290611
0
ARC
5
5f4
100
AcDbEntity
8
2
100
AcDbCircle
6
CONTINUOUS
62
5
10
212.500252
20
139.176122
40
0.500000
100
AcDbArc
50
-89.500702
51
0.000000
0
LINE
5
5f5
100
AcDbEntity
8
2
100
AcDbLine
6
CONTINUOUS
62
5
10
213.000252
20
139.176122
11
213.000252
21
160.823705
0
ARC
5
5f6
100
AcDbEntity
8
2
100
AcDbCircle
6
CONTINUOUS
62
5
10
212.500252
20
160.823705
40
0.500000
100
AcDbArc
50
0.000000
51
89.497418
0
POLYLINE
5
5f7
100
AcDbEntity
8
2
6
CONTINUOUS
62
5
100
AcDb2dPolyline
66
1
10
0.0
20
0.0
30
0.0
70
0
0
VERTEX
5
5f8
100
AcDbEntity
8
2
100
AcDbVertex
100
AcDb2dVertex
62
5
10
212.504638
20
161.323686
0
VERTEX
5
5f9
100
AcDbEntity
8
2
100
AcDbVertex
100
AcDb2dVertex
62
5
10
209.500380
20
161.350039
0
VERTEX
5
5fa
100
AcDbEntity
8
2
100
AcDbVertex
100
AcDb2dVertex
62
5
10
202.700450
20
161.290611
0
VERTEX
5
5fb
100
AcDbEntity
8
2
100
AcDbVertex
100
AcDb2dVertex
62
5
10
201.091596
20
161.262534
0
SEQEND
5
5fc
100
AcDbEntity
8
2
0
ARC
5
5fd
100
AcDbEntity
8
2
100
AcDbCircle
6
CONTINUOUS
62
5
10
201.100320
20
160.762610
40
0.500000
100
AcDbArc
50
90.999813
51
179.999998
0
LINE
5
5fe
100
AcDbEntity
8
2
100
AcDbLine
6
CONTINUOUS
62
5
10
200.600320
20
160.762610
11
200.600320
21
139.237390
0
ARC
5
5ff
100
AcDbEntity
8
2
100
AcDbCircle
6
CONTINUOUS
62
5
10
201.100320
20
139.237390
40
0.500000
100
AcDbArc
50
179.999998
51
-91.005946
0
POLYLINE
5
600
100
AcDbEntity
8
2
6
CONTINUOUS
62
5
100
AcDb2dPolyline
66
1
10
0.0
20
0.0
30
0.0
70
0
0
VERTEX
5
601
100
AcDbEntity
8
2
100
AcDbVertex
100
AcDb2dVertex
62
5
10
201.091542
20
138.737467
0
VERTEX
5
602
100
AcDbEntity
8
2
100
AcDbVertex
100
AcDb2dVertex
62
5
10
202.700450
20
138.709216
0
VERTEX
5
603
100
AcDbEntity
8
2
100
AcDbVertex
100
AcDb2dVertex
62
5
10
209.500380
20
138.649961
0
VERTEX
5
604
100
AcDbEntity
8
2
100
AcDbVertex
100
AcDb2dVertex
62
5
10
212.504609
20
138.676141
0
SEQEND
5
605
100
AcDbEntity
8
2
0
POLYLINE
5
606
100
AcDbEntity
8
2
6
CONTINUOUS
62
5
100
AcDb2dPolyline
66
1
10
0.0
20
0.0
30
0.0
70
0
0
VERTEX
5
607
100
AcDbEntity
8
2
100
AcDbVertex
100
AcDb2dVertex
62
5
10
143.275742
20
159.616123
0
VERTEX
5
608
100
AcDbEntity
8
2
100
AcDbVertex
100
AcDb2dVertex
62
5
10
143.487960
20
159.966833
0
VERTEX
5
609
100
AcDbEntity
8
2
100
AcDbVertex
100
AcDb2dVertex
62
5
10
143.541014
20
160.053994
0
VERTEX
5
60a
100
AcDbEntity
8
2
100
AcDbVertex
100
AcDb2dVertex
62
5
10
143.619907
20
160.138916
0
VERTEX
5
60b
100
AcDbEntity
8
2
100
AcDbVertex
100
AcDb2dVertex
62
5
10
143.720848
20
160.201444
0
VERTEX
5
60c
100
AcDbEntity
8
2
100
AcDbVertex
100
AcDb2dVertex
62
5
10
143.831264
20
160.228316
0
VERTEX
5
60d
100
AcDbEntity
8
2
100
AcDbVertex
100
AcDb2dVertex
62
5
10
143.947536
20
160.217120
0
VERTEX
5
60e
100
AcDbEntity
8
2
100
AcDbVertex
100
AcDb2dVertex
62
5
10
144.044687
20
160.176640
0
VERTEX
5
60f
100
AcDbEntity
8
2
100
AcDbVertex
100
AcDb2dVertex
62
5
10
144.137360
20
160.107910
0
VERTEX
5
610
100
AcDbEntity
8
2
100
AcDbVertex
100
AcDb2dVertex
62
5
10
144.206607
20
160.031774
0
VERTEX
5
611
100
AcDbEntity
8
2
100
AcDbVertex
100
AcDb2dVertex
62
5
10
144.268102
20
159.939100
0
VERTEX
5
612
100
AcDbEntity
8
2
100
AcDbVertex
100
AcDb2dVertex
62
5
10
144.320467
20
159.829546
0
VERTEX
5
613
100
AcDbEntity
8
2
100
AcDbVertex
100
AcDb2dVertex
62
5
10
144.341614
20
159.770403
0
VERTEX
5
614
100
AcDbEntity
8
2
100
AcDbVertex
100
AcDb2dVertex
62
5
10
144.344891
20
159.760379
0
VERTEX
5
615
100
AcDbEntity
8
2
100
AcDbVertex
100
AcDb2dVertex
62
5
10
144.350311
20
159.742884
0
VERTEX
5
616
100
AcDbEntity
8
2
100
AcDbVertex
100
AcDb2dVertex
62
5
10
144.355454
20
159.725313
0
VERTEX
5
617
100
AcDbEntity
8
2
100
AcDbVertex
100
AcDb2dVertex
62
5
10
144.360320
20
159.707672
0
VERTEX
5
618
100
AcDbEntity
8
2
100
AcDbVertex
100
AcDb2dVertex
62
5
10
144.364909
20
159.689963
0
VERTEX
5
619
100
AcDbEntity
8
2
100
AcDbVertex
100
AcDb2dVertex
62
5
10
144.369220
20
159.672189
0
VERTEX
5
61a
100
AcDbEntity
8
2
100
AcDbVertex
100
AcDb2dVertex
62
5
10
144.373252
20
159.654353
0
VERTEX
5
61b
100
AcDbEntity
8
2
100
AcDbVertex
100
AcDb2dVertex
62
5
10
144.377004
20
159.636460
0
VERTEX
5
61c
100
AcDbEntity
8
2
100
AcDbVertex
100
AcDb2dVertex
62
5
10
144.380476
20
159.618513
0
VERTEX
5
61d
100
AcDbEntity
8
2
100
AcDbVertex
100
AcDb2dVertex
62
5
10
144.383668
20
159.600514
0
VERTEX
5
61e
100
AcDbEntity
8
2
100
AcDbVertex
100
AcDb2dVertex
62
5
10
144.386578
20
159.582468
0
SEQEND
5
61f
100
AcDbEntity
8
2
0
ARC
5
620
100
AcDbEntity
8
2
100
AcDbCircle
6
CONTINUOUS
62
5
10
143.150049
20
159.399996
40
1.250000
100
AcDbArc
50
0.000000
51
89.999999
0
LINE
5
621
100
AcDbEntity
8
2
100
AcDbLine
6
CONTINUOUS
62
5
10
143.150049
20
160.649996
11
137.399959
21
160.649996
0
LINE
5
622
100
AcDbEntity
8
2
100
AcDbLine
6
CONTINUOUS
62
5
10
144.400049
20
158.200016
11
144.400049
21
159.399996
0
POLYLINE
5
623
100
AcDbEntity
8
2
6
CONTINUOUS
62
5
100
AcDb2dPolyline
66
1
10
0.0
20
0.0
30
0.0
70
0
0
VERTEX
5
624
100
AcDbEntity
8
2
100
AcDbVertex
100
AcDb2dVertex
62
5
10
103.524163
20
159.616123
0
VERTEX
5
625
100
AcDbEntity
8
2
100
AcDbVertex
100
AcDb2dVertex
62
5
10
103.311945
20
159.966833
0
VERTEX
5
626
100
AcDbEntity
8
2
100
AcDbVertex
100
AcDb2dVertex
62
5
10
103.258891
20
160.053994
0
VERTEX
5
627
100
AcDbEntity
8
2
100
AcDbVertex
100
AcDb2dVertex
62
5
10
103.179998
20
160.138916
0
VERTEX
5
628
100
AcDbEntity
8
2
100
AcDbVertex
100
AcDb2dVertex
62
5
10
103.079057
20
160.201444
0
VERTEX
5
629
100
AcDbEntity
8
2
100
AcDbVertex
100
AcDb2dVertex
62
5
10
102.968642
20
160.228316
0
VERTEX
5
62a
100
AcDbEntity
8
2
100
AcDbVertex
100
AcDb2dVertex
62
5
10
102.852370
20
160.217120
0
VERTEX
5
62b
100
AcDbEntity
8
2
100
AcDbVertex
100
AcDb2dVertex
62
5
10
102.755218
20
160.176640
0
VERTEX
5
62c
100
AcDbEntity
8
2
100
AcDbVertex
100
AcDb2dVertex
62
5
10
102.662545
20
160.107910
0
VERTEX
5
62d
100
AcDbEntity
8
2
100
AcDbVertex
100
AcDb2dVertex
62
5
10
102.593298
20
160.031774
0
VERTEX
5
62e
100
AcDbEntity
8
2
100
AcDbVertex
100
AcDb2dVertex
62
5
10
102.531803
20
159.939100
0
VERTEX
5
62f
100
AcDbEntity
8
2
100
AcDbVertex
100
AcDb2dVertex
62
5
10
102.479438
20
159.829546
0
VERTEX
5
630
100
AcDbEntity
8
2
100
AcDbVertex
100
AcDb2dVertex
62
5
10
102.458291
20
159.770403
0
VERTEX
5
631
100
AcDbEntity
8
2
100
AcDbVertex
100
AcDb2dVertex
62
5
10
102.455014
20
159.760379
0
VERTEX
5
632
100
AcDbEntity
8
2
100
AcDbVertex
100
AcDb2dVertex
62
5
10
102.449594
20
159.742884
0
VERTEX
5
633
100
AcDbEntity
8
2
100
AcDbVertex
100
AcDb2dVertex
62
5
10
102.444451
20
159.725313
0
VERTEX
5
634
100
AcDbEntity
8
2
100
AcDbVertex
100
AcDb2dVertex
62
5
10
102.439585
20
159.707672
0
VERTEX
5
635
100
AcDbEntity
8
2
100
AcDbVertex
100
AcDb2dVertex
62
5
10
102.434996
20
159.689963
0
VERTEX
5
636
100
AcDbEntity
8
2
100
AcDbVertex
100
AcDb2dVertex
62
5
10
102.430685
20
159.672189
0
VERTEX
5
637
100
AcDbEntity
8
2
100
AcDbVertex
100
AcDb2dVertex
62
5
10
102.426654
20
159.654353
0
VERTEX
5
638
100
AcDbEntity
8
2
100
AcDbVertex
100
AcDb2dVertex
62
5
10
102.422901
20
159.636460
0
VERTEX
5
639
100
AcDbEntity
8
2
100
AcDbVertex
100
AcDb2dVertex
62
5
10
102.419429
20
159.618513
0
VERTEX
5
63a
100
AcDbEntity
8
2
100
AcDbVertex
100
AcDb2dVertex
62
5
10
102.416237
20
159.600514
0
VERTEX
5
63b
100
AcDbEntity
8
2
100
AcDbVertex
100
AcDb2dVertex
62
5
10
102.413327
20
159.582468
0
SEQEND
5
63c
100
AcDbEntity
8
2
0
ARC
5
63d
100
AcDbEntity
8
2
100
AcDbCircle
6
CONTINUOUS
62
5
10
103.649856
20
159.399996
40
1.250000
100
AcDbArc
50
89.999999
51
179.999998
0
LINE
5
63e
100
AcDbEntity
8
2
100
AcDbLine
6
CONTINUOUS
62
5
10
103.649856
20
160.649996
11
109.399946
21
160.649996
0
LINE
5
63f
100
AcDbEntity
8
2
100
AcDbLine
6
CONTINUOUS
62
5
10
102.399856
20
158.200016
11
102.399856
21
159.399996
0
ARC
5
640
100
AcDbEntity
8
2
100
AcDbCircle
6
CONTINUOUS
62
5
10
109.899946
20
139.149961
40
0.500000
100
AcDbArc
50
179.999998
51
-89.999999
0
LINE
5
641
100
AcDbEntity
8
2
100
AcDbLine
6
CONTINUOUS
62
5
10
109.899946
20
138.649961
11
136.899959
21
138.649961
0
ARC
5
642
100
AcDbEntity
8
2
100
AcDbCircle
6
CONTINUOUS
62
5
10
136.899959
20
139.149961
40
0.500000
100
AcDbArc
50
-89.999999
51
0.000000
0
POLYLINE
5
643
100
AcDbEntity
8
2
6
CONTINUOUS
62
5
100
AcDb2dPolyline
66
1
10
0.0
20
0.0
30
0.0
70
0
0
VERTEX
5
644
100
AcDbEntity
8
2
100
AcDbVertex
100
AcDb2dVertex
62
5
10
137.399959
20
139.149961
0
VERTEX
5
645
100
AcDbEntity
8
2
100
AcDbVertex
100
AcDb2dVertex
62
5
10
137.399959
20
139.149844
0
VERTEX
5
646
100
AcDbEntity
8
2
100
AcDbVertex
100
AcDb2dVertex
62
5
10
137.399959
20
139.350004
0
VERTEX
5
647
100
AcDbEntity
8
2
100
AcDbVertex
100
AcDb2dVertex
62
5
10
137.391347
20
140.350115
0
VERTEX
5
648
100
AcDbEntity
8
2
100
AcDbVertex
100
AcDb2dVertex
62
5
10
137.391347
20
143.000083
0
VERTEX
5
649
100
AcDbEntity
8
2
100
AcDbVertex
100
AcDb2dVertex
62
5
10
137.369298
20
143.043835
0
VERTEX
5
64a
100
AcDbEntity
8
2
100
AcDbVertex
100
AcDb2dVertex
62
5
10
137.360685
20
144.043947
0
VERTEX
5
64b
100
AcDbEntity
8
2
100
AcDbVertex
100
AcDb2dVertex
62
5
10
137.360685
20
155.956226
0
VERTEX
5
64c
100
AcDbEntity
8
2
100
AcDbVertex
100
AcDb2dVertex
62
5
10
137.369298
20
156.955992
0
VERTEX
5
64d
100
AcDbEntity
8
2
100
AcDbVertex
100
AcDb2dVertex
62
5
10
137.391347
20
156.999917
0
VERTEX
5
64e
100
AcDbEntity
8
2
100
AcDbVertex
100
AcDb2dVertex
62
5
10
137.398967
20
160.849049
0
SEQEND
5
64f
100
AcDbEntity
8
2
0
ARC
5
650
100
AcDbEntity
8
2
100
AcDbCircle
6
CONTINUOUS
62
5
10
136.898968
20
160.850039
40
0.500000
100
AcDbArc
50
-0.113439
51
89.999999
0
LINE
5
651
100
AcDbEntity
8
2
100
AcDbLine
6
CONTINUOUS
62
5
10
136.898968
20
161.350039
11
109.899946
21
161.350039
0
ARC
5
652
100
AcDbEntity
8
2
100
AcDbCircle
6
CONTINUOUS
62
5
10
109.899946
20
160.850039
40
0.500000
100
AcDbArc
50
89.999999
51
179.999998
0
POLYLINE
5
653
100
AcDbEntity
8
2
6
CONTINUOUS
62
5
100
AcDb2dPolyline
66
1
10
0.0
20
0.0
30
0.0
70
0
0
VERTEX
5
654
100
AcDbEntity
8
2
100
AcDbVertex
100
AcDb2dVertex
62
5
10
109.399946
20
160.850039
0
VERTEX
5
655
100
AcDbEntity
8
2
100
AcDbVertex
100
AcDb2dVertex
62
5
10
109.399946
20
160.649996
0
VERTEX
5
656
100
AcDbEntity
8
2
100
AcDbVertex
100
AcDb2dVertex
62
5
10
109.408731
20
159.650057
0
VERTEX
5
657
100
AcDbEntity
8
2
100
AcDbVertex
100
AcDb2dVertex
62
5
10
109.408731
20
156.999917
0
VERTEX
5
658
100
AcDbEntity
8
2
100
AcDbVertex
100
AcDb2dVertex
62
5
10
109.430779
20
156.955992
0
VERTEX
5
659
100
AcDbEntity
8
2
100
AcDbVertex
100
AcDb2dVertex
62
5
10
109.439220
20
155.956226
0
VERTEX
5
65a
100
AcDbEntity
8
2
100
AcDbVertex
100
AcDb2dVertex
62
5
10
109.439220
20
144.043947
0
VERTEX
5
65b
100
AcDbEntity
8
2
100
AcDbVertex
100
AcDb2dVertex
62
5
10
109.430779
20
143.043835
0
VERTEX
5
65c
100
AcDbEntity
8
2
100
AcDbVertex
100
AcDb2dVertex
62
5
10
109.408731
20
143.000083
0
VERTEX
5
65d
100
AcDbEntity
8
2
100
AcDbVertex
100
AcDb2dVertex
62
5
10
109.408731
20
140.350115
0
VERTEX
5
65e
100
AcDbEntity
8
2
100
AcDbVertex
100
AcDb2dVertex
62
5
10
109.399946
20
139.350004
0
VERTEX
5
65f
100
AcDbEntity
8
2
100
AcDbVertex
100
AcDb2dVertex
62
5
10
109.399946
20
139.149961
0
SEQEND
5
660
100
AcDbEntity
8
2
0
ARC
5
661
100
AcDbEntity
8
2
100
AcDbCircle
6
CONTINUOUS
62
5
10
136.840704
20
139.209216
40
0.500000
100
AcDbArc
50
-89.999999
51
0.000000
0
LINE
5
662
100
AcDbEntity
8
2
100
AcDbLine
6
CONTINUOUS
62
5
10
136.840704
20
138.709216
11
109.959374
21
138.709216
0
ARC
5
663
100
AcDbEntity
8
2
100
AcDbCircle
6
CONTINUOUS
62
5
10
109.959374
20
139.209216
40
0.500000
100
AcDbArc
50
179.999998
51
-89.999999
0
LINE
5
664
100
AcDbEntity
8
2
100
AcDbLine
6
CONTINUOUS
62
5
10
109.459374
20
139.209216
11
109.459374
21
160.790611
0
ARC
5
665
100
AcDbEntity
8
2
100
AcDbCircle
6
CONTINUOUS
62
5
10
109.959374
20
160.790611
40
0.500000
100
AcDbArc
50
89.999999
51
179.999998
0
LINE
5
666
100
AcDbEntity
8
2
100
AcDbLine
6
CONTINUOUS
62
5
10
109.959374
20
161.290611
11
136.840704
21
161.290611
0
ARC
5
667
100
AcDbEntity
8
2
100
AcDbCircle
6
CONTINUOUS
62
5
10
136.840704
20
160.790611
40
0.500000
100
AcDbArc
50
0.000000
51
89.999999
0
LINE
5
668
100
AcDbEntity
8
2
100
AcDbLine
6
CONTINUOUS
62
5
10
137.340704
20
160.790611
11
137.340704
21
139.209216
0
LINE
5
669
100
AcDbEntity
8
1
100
AcDbLine
6
CONTINUOUS
62
5
10
107.899946
20
161.350000
11
74.299837
21
161.350000
0
LINE
5
66a
100
AcDbEntity
8
1
100
AcDbLine
6
CONTINUOUS
62
5
10
107.899946
20
138.650000
11
74.299837
21
138.650000
0
POLYLINE
5
66b
100
AcDbEntity
8
1
6
CONTINUOUS
62
5
100
AcDb2dPolyline
66
1
10
0.0
20
0.0
30
0.0
70
0
0
VERTEX
5
66c
100
AcDbEntity
8
1
100
AcDbVertex
100
AcDb2dVertex
62
5
10
76.299837
20
192.600000
0
VERTEX
5
66d
100
AcDbEntity
8
1
100
AcDbVertex
100
AcDb2dVertex
62
5
10
76.299837
20
161.350000
0
VERTEX
5
66e
100
AcDbEntity
8
1
100
AcDbVertex
100
AcDb2dVertex
62
5
10
75.299837
20
167.350000
0
VERTEX
5
66f
100
AcDbEntity
8
1
100
AcDbVertex
100
AcDb2dVertex
62
5
10
77.299837
20
167.350000
0
VERTEX
5
670
100
AcDbEntity
8
1
100
AcDbVertex
100
AcDb2dVertex
62
5
10
76.299837
20
161.350000
0
VERTEX
5
671
100
AcDbEntity
8
1
100
AcDbVertex
100
AcDb2dVertex
62
5
10
75.799837
20
167.350000
0
VERTEX
5
672
100
AcDbEntity
8
1
100
AcDbVertex
100
AcDb2dVertex
62
5
10
76.799837
20
167.350000
0
VERTEX
5
673
100
AcDbEntity
8
1
100
AcDbVertex
100
AcDb2dVertex
62
5
10
76.299837
20
161.350000
0
SEQEND
5
674
100
AcDbEntity
8
1
0
LINE
5
675
100
AcDbEntity
8
1
100
AcDbLine
6
CONTINUOUS
62
5
10
76.299837
20
138.650000
11
76.299837
21
161.350000
0
POLYLINE
5
676
100
AcDbEntity
8
1
6
CONTINUOUS
62
5
100
AcDb2dPolyline
66
1
10
0.0
20
0.0
30
0.0
70
0
0
VERTEX
5
677
100
AcDbEntity
8
1
100
AcDbVertex
100
AcDb2dVertex
62
5
10
76.299837
20
129.650000
0
VERTEX
5
678
100
AcDbEntity
8
1
100
AcDbVertex
100
AcDb2dVertex
62
5
10
76.299837
20
138.650000
0
VERTEX
5
679
100
AcDbEntity
8
1
100
AcDbVertex
100
AcDb2dVertex
62
5
10
77.299837
20
132.650000
0
VERTEX
5
67a
100
AcDbEntity
8
1
100
AcDbVertex
100
AcDb2dVertex
62
5
10
75.299837
20
132.650000
0
VERTEX
5
67b
100
AcDbEntity
8
1
100
AcDbVertex
100
AcDb2dVertex
62
5
10
76.299837
20
138.650000
0
VERTEX
5
67c
100
AcDbEntity
8
1
100
AcDbVertex
100
AcDb2dVertex
62
5
10
76.799837
20
132.650000
0
VERTEX
5
67d
100
AcDbEntity
8
1
100
AcDbVertex
100
AcDb2dVertex
62
5
10
75.799837
20
132.650000
0
VERTEX
5
67e
100
AcDbEntity
8
1
100
AcDbVertex
100
AcDb2dVertex
62
5
10
76.299837
20
138.650000
0
SEQEND
5
67f
100
AcDbEntity
8
1
0
POLYLINE
5
680
100
AcDbEntity
8
1
6
CONTINUOUS
62
5
100
AcDb2dPolyline
66
1
10
0.0
20
0.0
30
0.0
70
1
0
VERTEX
5
681
100
AcDbEntity
8
1
100
AcDbVertex
100
AcDb2dVertex
62
5
10
0.000000
20
0.000000
0
VERTEX
5
682
100
AcDbEntity
8
1
100
AcDbVertex
100
AcDb2dVertex
62
5
10
0.000000
20
340.000000
0
VERTEX
5
683
100
AcDbEntity
8
1
100
AcDbVertex
100
AcDb2dVertex
62
5
10
320.000000
20
340.000000
0
VERTEX
5
684
100
AcDbEntity
8
1
100
AcDbVertex
100
AcDb2dVertex
62
5
10
320.000000
20
0.000000
0
VERTEX
5
685
100
AcDbEntity
8
1
100
AcDbVertex
100
AcDb2dVertex
62
5
10
0.000000
20
0.000000
0
SEQEND
5
686
100
AcDbEntity
8
1
0
ENDSEC
0
SECTION
2
OBJECTS
0
DICTIONARY
5
687
100
AcDbDictionary
3
ACAD_GROUP
350
688
3
ACAD_MLINESTYLE
350
689
0
DICTIONARY
5
688
102
{ACAD_REACTORS
330
687
102
}
100
AcDbDictionary
0
DICTIONARY
5
689
102
{ACAD_REACTORS
330
687
102
}
100
AcDbDictionary
3
STANDARD
350
68a
0
MLINESTYLE
5
68a
102
{ACAD_REACTORS
330
689
102
}
100
AcDbMlineStyle
2
STANDARD
70
0
3

62
0
51
90.0
52
90.0
71
2
49
0.5
62
256
6
BYLAYER
49
-0.5
62
256
6
BYLAYER
0
ENDSEC
0
EOF
