0
SECTION
2
HEADER
9
$ACADVER
1
AC1012
9
$EXTMIN
10
-0.013701
20
-0.013701
30
0.0
9
$EXTMAX
10
12.606299
20
13.386299
30
0.0
9
$LIMMIN
10
-0.348005
20
-0.348005
9
$LIMMAX
10
320.199995
20
340.011995
9
$DIMSCALE
40
1.000000
9
$PDMODE
70
2
9
$PDSIZE
40
0.0
  9
$HANDSEED
  5
23d
0
ENDSEC
0
SECTION
2
CLASSES
0
ENDSEC
0
SECTION
2
TABLES
0
TABLE
2
LTYPE
5
1e
100
AcDbSymbolTable
70
12
0
LTYPE
5
1f
100
AcDbSymbolTableRecord
100
AcDbLinetypeTableRecord
2
BYBLOCK
70
0
3

72
65
73
0
40
0.0
0
LTYPE
5
20
100
AcDbSymbolTableRecord
100
AcDbLinetypeTableRecord
2
BYLAYER
70
0
3

72
65
73
0
40
0.0
0
LTYPE
5
21
100
AcDbSymbolTableRecord
100
AcDbLinetypeTableRecord
2
CONTINUOUS
70
64
3
Solid line
72
65
73
0
40
0.0
0
LTYPE
5
22
100
AcDbSymbolTableRecord
100
AcDbLinetypeTableRecord
2
DASHED
70
64
3
__ __ __ __ __ __ __ __ __ __ __ __ __ __ __
72
65
73
2
40
0.75
49
0.5
74
0
49
-0.25
74
0
0
LTYPE
5
23
100
AcDbSymbolTableRecord
100
AcDbLinetypeTableRecord
2
DOT
70
64
3
...............................................
72
65
73
2
40
0.25
49
0.0
74
0
49
-0.25
74
0
0
LTYPE
5
24
100
AcDbSymbolTableRecord
100
AcDbLinetypeTableRecord
2
DASHDOT
70
64
3
__ . __ . __ . __ . __ . __ . __ . __ . __ . --
72
65
73
4
40
1.0
49
0.5
74
0
49
-0.25
74
0
49
0.0
74
0
49
-0.25
74
0
0
LTYPE
5
25
100
AcDbSymbolTableRecord
100
AcDbLinetypeTableRecord
2
CENTER
70
64
3
____ _ ____ _ ____ _ ____ _ ____ _ ____ _ ____
72
65
73
4
40
2.0
49
1.25
74
0
49
-0.25
74
0
49
0.25
74
0
49
-0.25
74
0
0
LTYPE
5
26
100
AcDbSymbolTableRecord
100
AcDbLinetypeTableRecord
2
PHANTOM
70
64
3
_____ _ _ _____ _ _ _____ _ _ _____ _ _ ____
72
65
73
6
40
2.5
49
1.25
74
0
49
-0.25
74
0
49
0.25
74
0
49
-0.25
74
0
49
0.25
74
0
49
-0.25
74
0
0
LTYPE
5
27
100
AcDbSymbolTableRecord
100
AcDbLinetypeTableRecord
2
HIDDEN
70
64
3
_ _ _ _ _ _ _ _ _ _ _ _ _ _ _ _ _ _ _ _ _ _ _
72
65
73
2
40
0.375
49
0.25
74
0
49
-0.125
74
0
0
LTYPE
5
28
100
AcDbSymbolTableRecord
100
AcDbLinetypeTableRecord
2
BORDER
70
64
3
__ __ . __ __ . __ __ . __ __ . __ __ . __ __
72
65
73
6
40
1.75
49
0.5
74
0
49
-0.25
74
0
49
0.5
74
0
49
-0.25
74
0
49
0.0
74
0
49
-0.25
74
0
0
LTYPE
5
29
100
AcDbSymbolTableRecord
100
AcDbLinetypeTableRecord
2
DIVIDE
70
64
3
__ . . __ . . __ . . __ . . __ . . __ . . __
72
65
73
6
40
1.25
49
0.5
74
0
49
-0.25
74
0
49
0.0
74
0
49
-0.25
74
0
49
0.0
74
0
49
-0.25
74
0
0
LTYPE
5
2a
100
AcDbSymbolTableRecord
100
AcDbLinetypeTableRecord
2
DOT2
70
64
3
...............................................
72
65
73
2
40
0.125
49
0.0
74
0
49
-0.125
74
0
0
ENDTAB
0
TABLE
2
STYLE
5
2b
100
AcDbSymbolTable
70
1
0
STYLE
5
2c
100
AcDbSymbolTableRecord
100
AcDbTextStyleTableRecord
2
STANDARD
70
64
40
0.0
41
1.0
50
0.0
71
0
42
5.0
3
txt
4
bigfont
0
ENDTAB
0
TABLE
2
LAYER
5
2d
100
AcDbSymbolTable
70
2
0
LAYER
5
2e
100
AcDbSymbolTableRecord
100
AcDbLayerTableRecord
2
0
70
0
62
7
6
CONTINUOUS
0
LAYER
5
2f
100
AcDbSymbolTableRecord
100
AcDbLayerTableRecord
2
1
70
0
62
7
6
CONTINUOUS
0
ENDTAB
0
TABLE
2
APPID
5
30
100
AcDbSymbolTable
70
1
0
APPID
5
31
100
AcDbSymbolTableRecord
100
AcDbRegAppTableRecord
2
ACAD
70
64
0
ENDTAB
0
TABLE
2
DIMSTYLE
5
32
100
AcDbSymbolTable
70
0
0
ENDTAB
0
TABLE
2
UCS
5
33
100
AcDbSymbolTable
70
0
0
ENDTAB
0
TABLE
2
VIEW
5
34
100
AcDbSymbolTable
70
0
0
ENDTAB
0
TABLE
2
VPORT
5
35
100
AcDbSymbolTable
70
0
0
ENDTAB
0
TABLE
2
BLOCK_RECORD
5
36
100
AcDbSymbolTable
70
0
0
BLOCK_RECORD
5
37
100
AcDbSymbolTableRecord
100
AcDbBlockTableRecord
2
*MODEL_SPACE
0
BLOCK_RECORD
5
38
100
AcDbSymbolTableRecord
100
AcDbBlockTableRecord
2
*PAPER_SPACE
0
BLOCK_RECORD
5
39
100
AcDbSymbolTableRecord
100
AcDbBlockTableRecord
2
OPEN
0
BLOCK_RECORD
5
3a
100
AcDbSymbolTableRecord
100
AcDbBlockTableRecord
2
HALF
0
BLOCK_RECORD
5
3b
100
AcDbSymbolTableRecord
100
AcDbBlockTableRecord
2
CLOSEDBLANK
0
BLOCK_RECORD
5
3c
100
AcDbSymbolTableRecord
100
AcDbBlockTableRecord
2
HALFCLOSE_R
0
BLOCK_RECORD
5
3d
100
AcDbSymbolTableRecord
100
AcDbBlockTableRecord
2
DOT
0
BLOCK_RECORD
5
3e
100
AcDbSymbolTableRecord
100
AcDbBlockTableRecord
2
HALFOPEN_R
0
BLOCK_RECORD
5
3f
100
AcDbSymbolTableRecord
100
AcDbBlockTableRecord
2
CLOSEDF
0
BLOCK_RECORD
5
40
100
AcDbSymbolTableRecord
100
AcDbBlockTableRecord
2
HALF_R
0
ENDTAB
0
ENDSEC
0
SECTION
2
BLOCKS
0
BLOCK
5
41
100
AcDbEntity
8
0
100
AcDbBlockBegin
2
*MODEL_SPACE
70
0
10
0.0
20
0.0
30
0.0
3
*MODEL_SPACE
1

0
ENDBLK
5
42
100
AcDbEntity
8
0
100
AcDbBlockEnd
0
BLOCK
5
43
100
AcDbEntity
67
1
8
0
100
AcDbBlockBegin
2
*PAPER_SPACE
70
0
10
0.0
20
0.0
30
0.0
3
*PAPER_SPACE
1

0
ENDBLK
5
44
100
AcDbEntity
67
1
8
0
100
AcDbBlockEnd
0
BLOCK
5
45
100
AcDbEntity
8
0
100
AcDbBlockBegin
2
OPEN
70
0
10
0.0
20
0.0
30
0.0
3
OPEN
1

0
LINE
5
46
100
AcDbEntity
8
0
6
BYBLOCK
62
0
100
AcDbLine
10
0.000000
20
0.000000
11
-1.000000
21
0.000000
0
LINE
5
47
100
AcDbEntity
8
0
6
BYBLOCK
62
0
100
AcDbLine
10
-1.000000
20
-0.166667
11
0.000000
21
0.000000
0
LINE
5
48
100
AcDbEntity
8
0
6
BYBLOCK
62
0
100
AcDbLine
10
-1.000000
20
0.166667
11
0.000000
21
0.000000
0
ENDBLK
5
49
100
AcDbEntity
8
0
100
AcDbBlockEnd
0
BLOCK
5
4a
100
AcDbEntity
8
0
100
AcDbBlockBegin
2
HALF
70
0
10
0.0
20
0.0
30
0.0
3
HALF
1

0
SOLID
5
4b
100
AcDbEntity
8
0
6
BYBLOCK
62
0
100
AcDbTrace
10
-1.000000
20
0.166667
11
-1.000000
21
-0.166667
12
0.000000
22
0.000000
13
0.000000
23
0.000000
0
ENDBLK
5
4c
100
AcDbEntity
8
0
100
AcDbBlockEnd
0
BLOCK
5
4d
100
AcDbEntity
8
0
100
AcDbBlockBegin
2
CLOSEDBLANK
70
0
10
0.0
20
0.0
30
0.0
3
CLOSEDBLANK
1

0
LINE
5
4e
100
AcDbEntity
8
0
6
BYBLOCK
62
0
100
AcDbLine
10
-1.000000
20
0.166667
11
-1.000000
21
-0.166667
0
LINE
5
4f
100
AcDbEntity
8
0
6
BYBLOCK
62
0
100
AcDbLine
10
0.000000
20
0.000000
11
-1.000000
21
-0.166667
0
LINE
5
50
100
AcDbEntity
8
0
6
BYBLOCK
62
0
100
AcDbLine
10
-1.000000
20
0.166667
11
0.000000
21
0.000000
0
ENDBLK
5
51
100
AcDbEntity
8
0
100
AcDbBlockEnd
0
BLOCK
5
52
100
AcDbEntity
8
0
100
AcDbBlockBegin
2
HALFCLOSE_R
70
0
10
0.0
20
0.0
30
0.0
3
HALFCLOSE_R
1

0
LINE
5
53
100
AcDbEntity
8
0
6
BYBLOCK
62
0
100
AcDbLine
10
-1.000000
20
-0.166667
11
-1.000000
21
0.000000
0
LINE
5
54
100
AcDbEntity
8
0
6
BYBLOCK
62
0
100
AcDbLine
10
-1.000000
20
-0.166667
11
0.000000
21
0.000000
0
LINE
5
55
100
AcDbEntity
8
0
6
BYBLOCK
62
0
100
AcDbLine
10
0.000000
20
0.000000
11
-1.000000
21
0.000000
0
ENDBLK
5
56
100
AcDbEntity
8
0
100
AcDbBlockEnd
0
BLOCK
5
57
100
AcDbEntity
8
0
100
AcDbBlockBegin
2
DOT
70
0
10
0.0
20
0.0
30
0.0
3
DOT
1

0
LINE
5
58
100
AcDbEntity
8
0
6
BYBLOCK
62
0
100
AcDbLine
10
0.000000
20
0.000000
11
-1.000000
21
0.000000
0
POLYLINE
5
59
100
AcDbEntity
8
0
6
BYBLOCK
62
0
100
AcDb2dPolyline
66
1
10
0.0
20
0.0
30
0.0
70
1
40
0.166667
41
0.166667
0
VERTEX
5
5a
100
AcDbEntity
8
0
100
AcDbVertex
100
AcDb2dVertex
62
10
10
-0.083333
20
0.000000
42
1.000000
0
VERTEX
5
5b
100
AcDbEntity
8
0
100
AcDbVertex
100
AcDb2dVertex
62
10
10
0.083333
20
0.000000
42
1.000000
0
SEQEND
5
5c
100
AcDbEntity
8
0
0
ENDBLK
5
5d
100
AcDbEntity
8
0
100
AcDbBlockEnd
0
BLOCK
5
5e
100
AcDbEntity
8
0
100
AcDbBlockBegin
2
HALFOPEN_R
70
0
10
0.0
20
0.0
30
0.0
3
HALFOPEN_R
1

0
LINE
5
5f
100
AcDbEntity
8
0
6
BYBLOCK
62
0
100
AcDbLine
10
-1.000000
20
-0.166667
11
0.000000
21
0.000000
0
LINE
5
60
100
AcDbEntity
8
0
6
BYBLOCK
62
0
100
AcDbLine
10
0.000000
20
0.000000
11
-1.000000
21
0.000000
0
ENDBLK
5
61
100
AcDbEntity
8
0
100
AcDbBlockEnd
0
BLOCK
5
62
100
AcDbEntity
8
0
100
AcDbBlockBegin
2
CLOSEDF
70
0
10
0.0
20
0.0
30
0.0
3
CLOSEDF
1

0
SOLID
5
63
100
AcDbEntity
8
0
6
BYBLOCK
62
0
100
AcDbTrace
10
-1.000000
20
0.166667
11
-1.000000
21
-0.166667
12
0.000000
22
0.000000
13
0.000000
23
0.000000
0
ENDBLK
5
64
100
AcDbEntity
8
0
100
AcDbBlockEnd
0
BLOCK
5
65
100
AcDbEntity
8
0
100
AcDbBlockBegin
2
HALF_R
70
0
10
0.0
20
0.0
30
0.0
3
HALF_R
1

0
SOLID
5
66
100
AcDbEntity
8
0
6
BYBLOCK
62
0
100
AcDbTrace
10
-1.000000
20
-0.166667
11
-1.000000
21
0.000000
12
0.000000
22
0.000000
13
0.000000
23
0.000000
0
ENDBLK
5
67
100
AcDbEntity
8
0
100
AcDbBlockEnd
0
ENDSEC
0
SECTION
2
ENTITIES
0
POLYLINE
5
68
100
AcDbEntity
8
1
6
CONTINUOUS
62
5
100
AcDb2dPolyline
66
1
10
0.0
20
0.0
30
0.0
70
0
0
VERTEX
5
69
100
AcDbEntity
8
1
100
AcDbVertex
100
AcDb2dVertex
62
5
10
171.750000
20
324.937500
0
VERTEX
5
6a
100
AcDbEntity
8
1
100
AcDbVertex
100
AcDb2dVertex
62
5
10
172.750000
20
326.187500
0
VERTEX
5
6b
100
AcDbEntity
8
1
100
AcDbVertex
100
AcDb2dVertex
62
5
10
173.500000
20
327.437500
0
VERTEX
5
6c
100
AcDbEntity
8
1
100
AcDbVertex
100
AcDb2dVertex
62
5
10
176.000000
20
327.437500
0
VERTEX
5
6d
100
AcDbEntity
8
1
100
AcDbVertex
100
AcDb2dVertex
62
5
10
176.000000
20
327.125000
0
VERTEX
5
6e
100
AcDbEntity
8
1
100
AcDbVertex
100
AcDb2dVertex
62
5
10
175.000000
20
324.625000
0
VERTEX
5
6f
100
AcDbEntity
8
1
100
AcDbVertex
100
AcDb2dVertex
62
5
10
173.750000
20
322.750000
0
VERTEX
5
70
100
AcDbEntity
8
1
100
AcDbVertex
100
AcDb2dVertex
62
5
10
172.250000
20
321.500000
0
SEQEND
5
71
100
AcDbEntity
8
1
0
LINE
5
72
100
AcDbEntity
8
1
100
AcDbLine
6
CONTINUOUS
62
5
10
173.500000
20
325.562500
11
174.750000
21
324.312500
0
LINE
5
73
100
AcDbEntity
8
1
100
AcDbLine
6
CONTINUOUS
62
5
10
179.250000
20
325.250000
11
184.500000
21
325.250000
0
POLYLINE
5
74
100
AcDbEntity
8
1
6
CONTINUOUS
62
5
100
AcDb2dPolyline
66
1
10
0.0
20
0.0
30
0.0
70
0
0
VERTEX
5
75
100
AcDbEntity
8
1
100
AcDbVertex
100
AcDb2dVertex
62
5
10
163.000000
20
327.125000
0
VERTEX
5
76
100
AcDbEntity
8
1
100
AcDbVertex
100
AcDb2dVertex
62
5
10
167.250000
20
327.125000
0
VERTEX
5
77
100
AcDbEntity
8
1
100
AcDbVertex
100
AcDb2dVertex
62
5
10
167.250000
20
326.500000
0
VERTEX
5
78
100
AcDbEntity
8
1
100
AcDbVertex
100
AcDb2dVertex
62
5
10
167.000000
20
325.562500
0
VERTEX
5
79
100
AcDbEntity
8
1
100
AcDbVertex
100
AcDb2dVertex
62
5
10
166.500000
20
324.625000
0
VERTEX
5
7a
100
AcDbEntity
8
1
100
AcDbVertex
100
AcDb2dVertex
62
5
10
165.750000
20
323.375000
0
VERTEX
5
7b
100
AcDbEntity
8
1
100
AcDbVertex
100
AcDb2dVertex
62
5
10
165.000000
20
322.750000
0
VERTEX
5
7c
100
AcDbEntity
8
1
100
AcDbVertex
100
AcDb2dVertex
62
5
10
163.750000
20
321.812500
0
SEQEND
5
7d
100
AcDbEntity
8
1
0
POLYLINE
5
7e
100
AcDbEntity
8
1
6
CONTINUOUS
62
5
100
AcDb2dPolyline
66
1
10
0.0
20
0.0
30
0.0
70
1
0
VERTEX
5
7f
100
AcDbEntity
8
1
100
AcDbVertex
100
AcDb2dVertex
62
5
10
168.000000
20
328.687500
0
VERTEX
5
80
100
AcDbEntity
8
1
100
AcDbVertex
100
AcDb2dVertex
62
5
10
168.500000
20
328.687500
0
VERTEX
5
81
100
AcDbEntity
8
1
100
AcDbVertex
100
AcDb2dVertex
62
5
10
168.750000
20
328.375000
0
VERTEX
5
82
100
AcDbEntity
8
1
100
AcDbVertex
100
AcDb2dVertex
62
5
10
168.750000
20
327.750000
0
VERTEX
5
83
100
AcDbEntity
8
1
100
AcDbVertex
100
AcDb2dVertex
62
5
10
168.500000
20
327.437500
0
VERTEX
5
84
100
AcDbEntity
8
1
100
AcDbVertex
100
AcDb2dVertex
62
5
10
168.000000
20
327.437500
0
VERTEX
5
85
100
AcDbEntity
8
1
100
AcDbVertex
100
AcDb2dVertex
62
5
10
167.750000
20
327.750000
0
VERTEX
5
86
100
AcDbEntity
8
1
100
AcDbVertex
100
AcDb2dVertex
62
5
10
167.750000
20
328.375000
0
VERTEX
5
87
100
AcDbEntity
8
1
100
AcDbVertex
100
AcDb2dVertex
62
5
10
168.000000
20
328.687500
0
SEQEND
5
88
100
AcDbEntity
8
1
0
LINE
5
89
100
AcDbEntity
8
1
100
AcDbLine
6
CONTINUOUS
62
5
10
157.250000
20
327.125000
11
159.750000
21
327.125000
0
POLYLINE
5
8a
100
AcDbEntity
8
1
6
CONTINUOUS
62
5
100
AcDb2dPolyline
66
1
10
0.0
20
0.0
30
0.0
70
0
0
VERTEX
5
8b
100
AcDbEntity
8
1
100
AcDbVertex
100
AcDb2dVertex
62
5
10
157.250000
20
327.125000
0
VERTEX
5
8c
100
AcDbEntity
8
1
100
AcDbVertex
100
AcDb2dVertex
62
5
10
156.500000
20
325.875000
0
VERTEX
5
8d
100
AcDbEntity
8
1
100
AcDbVertex
100
AcDb2dVertex
62
5
10
155.750000
20
324.937500
0
SEQEND
5
8e
100
AcDbEntity
8
1
0
POLYLINE
5
8f
100
AcDbEntity
8
1
6
CONTINUOUS
62
5
100
AcDb2dPolyline
66
1
10
0.0
20
0.0
30
0.0
70
0
0
VERTEX
5
90
100
AcDbEntity
8
1
100
AcDbVertex
100
AcDb2dVertex
62
5
10
159.750000
20
327.125000
0
VERTEX
5
91
100
AcDbEntity
8
1
100
AcDbVertex
100
AcDb2dVertex
62
5
10
160.000000
20
326.812500
0
VERTEX
5
92
100
AcDbEntity
8
1
100
AcDbVertex
100
AcDb2dVertex
62
5
10
159.500000
20
325.875000
0
VERTEX
5
93
100
AcDbEntity
8
1
100
AcDbVertex
100
AcDb2dVertex
62
5
10
158.750000
20
324.312500
0
VERTEX
5
94
100
AcDbEntity
8
1
100
AcDbVertex
100
AcDb2dVertex
62
5
10
157.500000
20
322.750000
0
VERTEX
5
95
100
AcDbEntity
8
1
100
AcDbVertex
100
AcDb2dVertex
62
5
10
156.000000
20
321.500000
0
SEQEND
5
96
100
AcDbEntity
8
1
0
LINE
5
97
100
AcDbEntity
8
1
100
AcDbLine
6
CONTINUOUS
62
5
10
157.250000
20
325.250000
11
158.250000
21
323.687500
0
LINE
5
98
100
AcDbEntity
8
1
100
AcDbLine
6
CONTINUOUS
62
5
10
159.750000
20
328.687500
11
160.500000
21
327.750000
0
LINE
5
99
100
AcDbEntity
8
1
100
AcDbLine
6
CONTINUOUS
62
5
10
160.500000
20
329.312500
11
161.250000
21
328.375000
0
POLYLINE
5
9a
100
AcDbEntity
8
1
6
CONTINUOUS
62
5
100
AcDb2dPolyline
66
1
10
0.0
20
0.0
30
0.0
70
1
0
VERTEX
5
9b
100
AcDbEntity
8
1
100
AcDbVertex
100
AcDb2dVertex
62
5
10
178.000000
20
176.717618
0
VERTEX
5
9c
100
AcDbEntity
8
1
100
AcDbVertex
100
AcDb2dVertex
62
5
10
178.000000
20
182.117290
0
SEQEND
5
9d
100
AcDbEntity
8
1
0
LINE
5
9e
100
AcDbEntity
8
1
100
AcDbLine
6
CONTINUOUS
62
5
10
133.250000
20
329.312500
11
131.000000
21
326.187500
0
LINE
5
9f
100
AcDbEntity
8
1
100
AcDbLine
6
CONTINUOUS
62
5
10
130.500000
20
326.187500
11
136.250000
21
326.500000
0
LINE
5
a0
100
AcDbEntity
8
1
100
AcDbLine
6
CONTINUOUS
62
5
10
135.000000
20
328.062500
11
137.250000
21
325.562500
0
POLYLINE
5
a1
100
AcDbEntity
8
1
6
CONTINUOUS
62
5
100
AcDb2dPolyline
66
1
10
0.0
20
0.0
30
0.0
70
1
0
VERTEX
5
a2
100
AcDbEntity
8
1
100
AcDbVertex
100
AcDb2dVertex
62
5
10
131.250000
20
324.937500
0
VERTEX
5
a3
100
AcDbEntity
8
1
100
AcDbVertex
100
AcDb2dVertex
62
5
10
136.250000
20
324.937500
0
VERTEX
5
a4
100
AcDbEntity
8
1
100
AcDbVertex
100
AcDb2dVertex
62
5
10
136.250000
20
321.187500
0
VERTEX
5
a5
100
AcDbEntity
8
1
100
AcDbVertex
100
AcDb2dVertex
62
5
10
131.250000
20
321.187500
0
VERTEX
5
a6
100
AcDbEntity
8
1
100
AcDbVertex
100
AcDb2dVertex
62
5
10
131.250000
20
324.937500
0
SEQEND
5
a7
100
AcDbEntity
8
1
0
POLYLINE
5
a8
100
AcDbEntity
8
1
6
CONTINUOUS
62
5
100
AcDb2dPolyline
66
1
10
0.0
20
0.0
30
0.0
70
0
0
VERTEX
5
a9
100
AcDbEntity
8
1
100
AcDbVertex
100
AcDb2dVertex
62
5
10
139.500000
20
329.000000
0
VERTEX
5
aa
100
AcDbEntity
8
1
100
AcDbVertex
100
AcDb2dVertex
62
5
10
139.500000
20
323.375000
0
VERTEX
5
ab
100
AcDbEntity
8
1
100
AcDbVertex
100
AcDb2dVertex
62
5
10
139.000000
20
322.125000
0
VERTEX
5
ac
100
AcDbEntity
8
1
100
AcDbVertex
100
AcDb2dVertex
62
5
10
138.500000
20
321.187500
0
SEQEND
5
ad
100
AcDbEntity
8
1
0
POLYLINE
5
ae
100
AcDbEntity
8
1
6
CONTINUOUS
62
5
100
AcDb2dPolyline
66
1
10
0.0
20
0.0
30
0.0
70
0
0
VERTEX
5
af
100
AcDbEntity
8
1
100
AcDbVertex
100
AcDb2dVertex
62
5
10
143.500000
20
321.500000
0
VERTEX
5
b0
100
AcDbEntity
8
1
100
AcDbVertex
100
AcDb2dVertex
62
5
10
144.500000
20
320.875000
0
VERTEX
5
b1
100
AcDbEntity
8
1
100
AcDbVertex
100
AcDb2dVertex
62
5
10
144.500000
20
329.000000
0
VERTEX
5
b2
100
AcDbEntity
8
1
100
AcDbVertex
100
AcDb2dVertex
62
5
10
139.500000
20
329.000000
0
SEQEND
5
b3
100
AcDbEntity
8
1
0
LINE
5
b4
100
AcDbEntity
8
1
100
AcDbLine
6
CONTINUOUS
62
5
10
139.500000
20
326.500000
11
144.500000
21
326.500000
0
LINE
5
b5
100
AcDbEntity
8
1
100
AcDbLine
6
CONTINUOUS
62
5
10
142.000000
20
329.000000
11
142.000000
21
320.875000
0
LINE
5
b6
100
AcDbEntity
8
1
100
AcDbLine
6
CONTINUOUS
62
5
10
139.500000
20
324.000000
11
144.500000
21
324.000000
0
POLYLINE
5
b7
100
AcDbEntity
8
1
6
CONTINUOUS
62
5
100
AcDb2dPolyline
66
1
10
0.0
20
0.0
30
0.0
70
0
0
VERTEX
5
b8
100
AcDbEntity
8
1
100
AcDbVertex
100
AcDb2dVertex
62
5
10
128.250000
20
329.625000
0
VERTEX
5
b9
100
AcDbEntity
8
1
100
AcDbVertex
100
AcDb2dVertex
62
5
10
126.250000
20
329.000000
0
VERTEX
5
ba
100
AcDbEntity
8
1
100
AcDbVertex
100
AcDb2dVertex
62
5
10
123.000000
20
328.375000
0
SEQEND
5
bb
100
AcDbEntity
8
1
0
LINE
5
bc
100
AcDbEntity
8
1
100
AcDbLine
6
CONTINUOUS
62
5
10
124.000000
20
328.375000
11
124.250000
21
327.125000
0
LINE
5
bd
100
AcDbEntity
8
1
100
AcDbLine
6
CONTINUOUS
62
5
10
125.500000
20
328.375000
11
125.750000
21
327.125000
0
POLYLINE
5
be
100
AcDbEntity
8
1
6
CONTINUOUS
62
5
100
AcDb2dPolyline
66
1
10
0.0
20
0.0
30
0.0
70
0
0
VERTEX
5
bf
100
AcDbEntity
8
1
100
AcDbVertex
100
AcDb2dVertex
62
5
10
127.750000
20
328.687500
0
VERTEX
5
c0
100
AcDbEntity
8
1
100
AcDbVertex
100
AcDb2dVertex
62
5
10
127.500000
20
328.062500
0
VERTEX
5
c1
100
AcDbEntity
8
1
100
AcDbVertex
100
AcDb2dVertex
62
5
10
126.750000
20
327.125000
0
SEQEND
5
c2
100
AcDbEntity
8
1
0
POLYLINE
5
c3
100
AcDbEntity
8
1
6
CONTINUOUS
62
5
100
AcDb2dPolyline
66
1
10
0.0
20
0.0
30
0.0
70
0
0
VERTEX
5
c4
100
AcDbEntity
8
1
100
AcDbVertex
100
AcDb2dVertex
62
5
10
122.500000
20
325.562500
0
VERTEX
5
c5
100
AcDbEntity
8
1
100
AcDbVertex
100
AcDb2dVertex
62
5
10
122.500000
20
326.812500
0
VERTEX
5
c6
100
AcDbEntity
8
1
100
AcDbVertex
100
AcDb2dVertex
62
5
10
129.000000
20
326.812500
0
VERTEX
5
c7
100
AcDbEntity
8
1
100
AcDbVertex
100
AcDb2dVertex
62
5
10
129.000000
20
325.562500
0
SEQEND
5
c8
100
AcDbEntity
8
1
0
POLYLINE
5
c9
100
AcDbEntity
8
1
6
CONTINUOUS
62
5
100
AcDb2dPolyline
66
1
10
0.0
20
0.0
30
0.0
70
0
0
VERTEX
5
ca
100
AcDbEntity
8
1
100
AcDbVertex
100
AcDb2dVertex
62
5
10
123.750000
20
325.562500
0
VERTEX
5
cb
100
AcDbEntity
8
1
100
AcDbVertex
100
AcDb2dVertex
62
5
10
127.750000
20
325.562500
0
VERTEX
5
cc
100
AcDbEntity
8
1
100
AcDbVertex
100
AcDb2dVertex
62
5
10
126.750000
20
323.687500
0
VERTEX
5
cd
100
AcDbEntity
8
1
100
AcDbVertex
100
AcDb2dVertex
62
5
10
125.500000
20
322.437500
0
VERTEX
5
ce
100
AcDbEntity
8
1
100
AcDbVertex
100
AcDb2dVertex
62
5
10
124.000000
20
321.187500
0
VERTEX
5
cf
100
AcDbEntity
8
1
100
AcDbVertex
100
AcDb2dVertex
62
5
10
122.750000
20
320.562500
0
SEQEND
5
d0
100
AcDbEntity
8
1
0
POLYLINE
5
d1
100
AcDbEntity
8
1
6
CONTINUOUS
62
5
100
AcDb2dPolyline
66
1
10
0.0
20
0.0
30
0.0
70
0
0
VERTEX
5
d2
100
AcDbEntity
8
1
100
AcDbVertex
100
AcDb2dVertex
62
5
10
124.250000
20
324.937500
0
VERTEX
5
d3
100
AcDbEntity
8
1
100
AcDbVertex
100
AcDb2dVertex
62
5
10
125.000000
20
323.687500
0
VERTEX
5
d4
100
AcDbEntity
8
1
100
AcDbVertex
100
AcDb2dVertex
62
5
10
126.000000
20
322.437500
0
VERTEX
5
d5
100
AcDbEntity
8
1
100
AcDbVertex
100
AcDb2dVertex
62
5
10
127.000000
20
321.500000
0
VERTEX
5
d6
100
AcDbEntity
8
1
100
AcDbVertex
100
AcDb2dVertex
62
5
10
128.000000
20
320.875000
0
VERTEX
5
d7
100
AcDbEntity
8
1
100
AcDbVertex
100
AcDb2dVertex
62
5
10
129.000000
20
320.562500
0
SEQEND
5
d8
100
AcDbEntity
8
1
0
POLYLINE
5
d9
100
AcDbEntity
8
1
6
CONTINUOUS
62
5
100
AcDb2dPolyline
66
1
10
0.0
20
0.0
30
0.0
70
0
0
VERTEX
5
da
100
AcDbEntity
8
1
100
AcDbVertex
100
AcDb2dVertex
62
5
10
115.750000
20
325.250000
0
VERTEX
5
db
100
AcDbEntity
8
1
100
AcDbVertex
100
AcDb2dVertex
62
5
10
116.750000
20
326.500000
0
VERTEX
5
dc
100
AcDbEntity
8
1
100
AcDbVertex
100
AcDb2dVertex
62
5
10
117.250000
20
327.437500
0
VERTEX
5
dd
100
AcDbEntity
8
1
100
AcDbVertex
100
AcDb2dVertex
62
5
10
119.750000
20
327.437500
0
VERTEX
5
de
100
AcDbEntity
8
1
100
AcDbVertex
100
AcDb2dVertex
62
5
10
119.750000
20
327.125000
0
VERTEX
5
df
100
AcDbEntity
8
1
100
AcDbVertex
100
AcDb2dVertex
62
5
10
119.000000
20
325.250000
0
VERTEX
5
e0
100
AcDbEntity
8
1
100
AcDbVertex
100
AcDb2dVertex
62
5
10
117.750000
20
323.375000
0
VERTEX
5
e1
100
AcDbEntity
8
1
100
AcDbVertex
100
AcDb2dVertex
62
5
10
116.250000
20
321.812500
0
SEQEND
5
e2
100
AcDbEntity
8
1
0
LINE
5
e3
100
AcDbEntity
8
1
100
AcDbLine
6
CONTINUOUS
62
5
10
119.750000
20
328.687500
11
120.250000
21
328.062500
0
LINE
5
e4
100
AcDbEntity
8
1
100
AcDbLine
6
CONTINUOUS
62
5
10
120.500000
20
329.312500
11
121.000000
21
328.687500
0
LINE
5
e5
100
AcDbEntity
8
1
100
AcDbLine
6
CONTINUOUS
62
5
10
100.250000
20
328.375000
11
100.250000
21
324.625000
0
POLYLINE
5
e6
100
AcDbEntity
8
1
6
CONTINUOUS
62
5
100
AcDb2dPolyline
66
1
10
0.0
20
0.0
30
0.0
70
0
0
VERTEX
5
e7
100
AcDbEntity
8
1
100
AcDbVertex
100
AcDb2dVertex
62
5
10
103.000000
20
328.687500
0
VERTEX
5
e8
100
AcDbEntity
8
1
100
AcDbVertex
100
AcDb2dVertex
62
5
10
103.000000
20
324.937500
0
VERTEX
5
e9
100
AcDbEntity
8
1
100
AcDbVertex
100
AcDb2dVertex
62
5
10
102.750000
20
323.687500
0
VERTEX
5
ea
100
AcDbEntity
8
1
100
AcDbVertex
100
AcDb2dVertex
62
5
10
102.250000
20
322.437500
0
VERTEX
5
eb
100
AcDbEntity
8
1
100
AcDbVertex
100
AcDb2dVertex
62
5
10
101.500000
20
321.500000
0
SEQEND
5
ec
100
AcDbEntity
8
1
0
POLYLINE
5
ed
100
AcDbEntity
8
1
6
CONTINUOUS
62
5
100
AcDb2dPolyline
66
1
10
0.0
20
0.0
30
0.0
70
0
0
VERTEX
5
ee
100
AcDbEntity
8
1
100
AcDbVertex
100
AcDb2dVertex
62
5
10
90.750000
20
325.562500
0
VERTEX
5
ef
100
AcDbEntity
8
1
100
AcDbVertex
100
AcDb2dVertex
62
5
10
91.000000
20
325.250000
0
VERTEX
5
f0
100
AcDbEntity
8
1
100
AcDbVertex
100
AcDb2dVertex
62
5
10
97.750000
20
325.250000
0
SEQEND
5
f1
100
AcDbEntity
8
1
0
LINE
5
f2
100
AcDbEntity
8
1
100
AcDbLine
6
CONTINUOUS
62
5
10
84.500000
20
328.062500
11
85.750000
21
326.812500
0
LINE
5
f3
100
AcDbEntity
8
1
100
AcDbLine
6
CONTINUOUS
62
5
10
83.500000
20
326.187500
11
84.500000
21
324.937500
0
POLYLINE
5
f4
100
AcDbEntity
8
1
6
CONTINUOUS
62
5
100
AcDb2dPolyline
66
1
10
0.0
20
0.0
30
0.0
70
0
0
VERTEX
5
f5
100
AcDbEntity
8
1
100
AcDbVertex
100
AcDb2dVertex
62
5
10
84.000000
20
321.812500
0
VERTEX
5
f6
100
AcDbEntity
8
1
100
AcDbVertex
100
AcDb2dVertex
62
5
10
85.250000
20
322.437500
0
VERTEX
5
f7
100
AcDbEntity
8
1
100
AcDbVertex
100
AcDb2dVertex
62
5
10
87.250000
20
324.000000
0
VERTEX
5
f8
100
AcDbEntity
8
1
100
AcDbVertex
100
AcDb2dVertex
62
5
10
89.000000
20
325.875000
0
SEQEND
5
f9
100
AcDbEntity
8
1
0
LINE
5
fa
100
AcDbEntity
8
1
100
AcDbLine
6
CONTINUOUS
62
5
10
74.750000
20
329.000000
11
78.250000
21
329.000000
0
LINE
5
fb
100
AcDbEntity
8
1
100
AcDbLine
6
CONTINUOUS
62
5
10
74.500000
20
326.812500
11
78.500000
21
326.812500
0
POLYLINE
5
fc
100
AcDbEntity
8
1
6
CONTINUOUS
62
5
100
AcDb2dPolyline
66
1
10
0.0
20
0.0
30
0.0
70
0
0
VERTEX
5
fd
100
AcDbEntity
8
1
100
AcDbVertex
100
AcDb2dVertex
62
5
10
76.000000
20
329.000000
0
VERTEX
5
fe
100
AcDbEntity
8
1
100
AcDbVertex
100
AcDb2dVertex
62
5
10
76.000000
20
326.187500
0
VERTEX
5
ff
100
AcDbEntity
8
1
100
AcDbVertex
100
AcDb2dVertex
62
5
10
75.500000
20
325.250000
0
VERTEX
5
100
100
AcDbEntity
8
1
100
AcDbVertex
100
AcDb2dVertex
62
5
10
74.750000
20
324.312500
0
SEQEND
5
101
100
AcDbEntity
8
1
0
POLYLINE
5
102
100
AcDbEntity
8
1
6
CONTINUOUS
62
5
100
AcDb2dPolyline
66
1
10
0.0
20
0.0
30
0.0
70
0
0
VERTEX
5
103
100
AcDbEntity
8
1
100
AcDbVertex
100
AcDb2dVertex
62
5
10
77.000000
20
329.000000
0
VERTEX
5
104
100
AcDbEntity
8
1
100
AcDbVertex
100
AcDb2dVertex
62
5
10
77.000000
20
324.625000
0
VERTEX
5
105
100
AcDbEntity
8
1
100
AcDbVertex
100
AcDb2dVertex
62
5
10
77.000000
20
324.312500
0
SEQEND
5
106
100
AcDbEntity
8
1
0
LINE
5
107
100
AcDbEntity
8
1
100
AcDbLine
6
CONTINUOUS
62
5
10
80.500000
20
324.312500
11
80.000000
21
324.312500
0
LINE
5
108
100
AcDbEntity
8
1
100
AcDbLine
6
CONTINUOUS
62
5
10
79.250000
20
328.687500
11
79.250000
21
325.562500
0
POLYLINE
5
109
100
AcDbEntity
8
1
6
CONTINUOUS
62
5
100
AcDb2dPolyline
66
1
10
0.0
20
0.0
30
0.0
70
0
0
VERTEX
5
10a
100
AcDbEntity
8
1
100
AcDbVertex
100
AcDb2dVertex
62
5
10
81.000000
20
329.312500
0
VERTEX
5
10b
100
AcDbEntity
8
1
100
AcDbVertex
100
AcDb2dVertex
62
5
10
81.000000
20
324.937500
0
VERTEX
5
10c
100
AcDbEntity
8
1
100
AcDbVertex
100
AcDb2dVertex
62
5
10
80.500000
20
324.312500
0
SEQEND
5
10d
100
AcDbEntity
8
1
0
LINE
5
10e
100
AcDbEntity
8
1
100
AcDbLine
6
CONTINUOUS
62
5
10
75.500000
20
323.375000
11
80.000000
21
323.375000
0
LINE
5
10f
100
AcDbEntity
8
1
100
AcDbLine
6
CONTINUOUS
62
5
10
74.500000
20
321.187500
11
81.000000
21
321.187500
0
LINE
5
110
100
AcDbEntity
8
1
100
AcDbLine
6
CONTINUOUS
62
5
10
77.750000
20
324.312500
11
77.750000
21
321.187500
0
POLYLINE
5
111
100
AcDbEntity
8
1
6
CONTINUOUS
62
5
100
AcDb2dPolyline
66
1
10
0.0
20
0.0
30
0.0
70
0
0
VERTEX
5
112
100
AcDbEntity
8
1
100
AcDbVertex
100
AcDb2dVertex
62
5
10
77.250000
20
319.625000
0
VERTEX
5
113
100
AcDbEntity
8
1
100
AcDbVertex
100
AcDb2dVertex
62
5
10
76.500000
20
318.375000
0
VERTEX
5
114
100
AcDbEntity
8
1
100
AcDbVertex
100
AcDb2dVertex
62
5
10
75.750000
20
317.437500
0
VERTEX
5
115
100
AcDbEntity
8
1
100
AcDbVertex
100
AcDb2dVertex
62
5
10
74.750000
20
316.500000
0
SEQEND
5
116
100
AcDbEntity
8
1
0
POLYLINE
5
117
100
AcDbEntity
8
1
6
CONTINUOUS
62
5
100
AcDb2dPolyline
66
1
10
0.0
20
0.0
30
0.0
70
0
0
VERTEX
5
118
100
AcDbEntity
8
1
100
AcDbVertex
100
AcDb2dVertex
62
5
10
77.000000
20
319.000000
0
VERTEX
5
119
100
AcDbEntity
8
1
100
AcDbVertex
100
AcDb2dVertex
62
5
10
79.250000
20
319.000000
0
VERTEX
5
11a
100
AcDbEntity
8
1
100
AcDbVertex
100
AcDb2dVertex
62
5
10
78.000000
20
317.125000
0
SEQEND
5
11b
100
AcDbEntity
8
1
0
POLYLINE
5
11c
100
AcDbEntity
8
1
6
CONTINUOUS
62
5
100
AcDb2dPolyline
66
1
10
0.0
20
0.0
30
0.0
70
0
0
VERTEX
5
11d
100
AcDbEntity
8
1
100
AcDbVertex
100
AcDb2dVertex
62
5
10
75.750000
20
317.125000
0
VERTEX
5
11e
100
AcDbEntity
8
1
100
AcDbVertex
100
AcDb2dVertex
62
5
10
80.250000
20
317.125000
0
VERTEX
5
11f
100
AcDbEntity
8
1
100
AcDbVertex
100
AcDb2dVertex
62
5
10
80.250000
20
314.312500
0
VERTEX
5
120
100
AcDbEntity
8
1
100
AcDbVertex
100
AcDb2dVertex
62
5
10
75.750000
20
314.312500
0
SEQEND
5
121
100
AcDbEntity
8
1
0
LINE
5
122
100
AcDbEntity
8
1
100
AcDbLine
6
CONTINUOUS
62
5
10
78.000000
20
317.125000
11
78.000000
21
314.312500
0
POLYLINE
5
123
100
AcDbEntity
8
1
6
CONTINUOUS
62
5
100
AcDb2dPolyline
66
1
10
0.0
20
0.0
30
0.0
70
0
0
VERTEX
5
124
100
AcDbEntity
8
1
100
AcDbVertex
100
AcDb2dVertex
62
5
10
75.750000
20
317.125000
0
VERTEX
5
125
100
AcDbEntity
8
1
100
AcDbVertex
100
AcDb2dVertex
62
5
10
75.750000
20
311.812500
0
VERTEX
5
126
100
AcDbEntity
8
1
100
AcDbVertex
100
AcDb2dVertex
62
5
10
76.250000
20
311.187500
0
VERTEX
5
127
100
AcDbEntity
8
1
100
AcDbVertex
100
AcDb2dVertex
62
5
10
81.250000
20
311.187500
0
VERTEX
5
128
100
AcDbEntity
8
1
100
AcDbVertex
100
AcDb2dVertex
62
5
10
81.250000
20
312.437500
0
SEQEND
5
129
100
AcDbEntity
8
1
0
LINE
5
12a
100
AcDbEntity
8
1
100
AcDbLine
6
CONTINUOUS
62
5
10
107.750000
20
327.437500
11
108.750000
21
326.187500
0
POLYLINE
5
12b
100
AcDbEntity
8
1
6
CONTINUOUS
62
5
100
AcDb2dPolyline
66
1
10
0.0
20
0.0
30
0.0
70
0
0
VERTEX
5
12c
100
AcDbEntity
8
1
100
AcDbVertex
100
AcDb2dVertex
62
5
10
107.500000
20
322.437500
0
VERTEX
5
12d
100
AcDbEntity
8
1
100
AcDbVertex
100
AcDb2dVertex
62
5
10
109.250000
20
323.375000
0
VERTEX
5
12e
100
AcDbEntity
8
1
100
AcDbVertex
100
AcDb2dVertex
62
5
10
110.750000
20
324.625000
0
VERTEX
5
12f
100
AcDbEntity
8
1
100
AcDbVertex
100
AcDb2dVertex
62
5
10
112.250000
20
326.187500
0
SEQEND
5
130
100
AcDbEntity
8
1
0
POLYLINE
5
131
100
AcDbEntity
8
1
6
CONTINUOUS
62
5
100
AcDb2dPolyline
66
1
10
0.0
20
0.0
30
0.0
70
0
0
VERTEX
5
132
100
AcDbEntity
8
1
100
AcDbVertex
100
AcDb2dVertex
62
5
10
86.250000
20
291.125000
0
VERTEX
5
133
100
AcDbEntity
8
1
100
AcDbVertex
100
AcDb2dVertex
62
5
10
82.812500
20
289.562500
0
VERTEX
5
134
100
AcDbEntity
8
1
100
AcDbVertex
100
AcDb2dVertex
62
5
10
82.812500
20
282.375000
0
VERTEX
5
135
100
AcDbEntity
8
1
100
AcDbVertex
100
AcDb2dVertex
62
5
10
89.062500
20
282.375000
0
VERTEX
5
136
100
AcDbEntity
8
1
100
AcDbVertex
100
AcDb2dVertex
62
5
10
89.062500
20
289.562500
0
VERTEX
5
137
100
AcDbEntity
8
1
100
AcDbVertex
100
AcDb2dVertex
62
5
10
82.812500
20
289.562500
0
SEQEND
5
138
100
AcDbEntity
8
1
0
LINE
5
139
100
AcDbEntity
8
1
100
AcDbLine
6
CONTINUOUS
62
5
10
82.812500
20
286.125000
11
89.062500
21
286.125000
0
POLYLINE
5
13a
100
AcDbEntity
8
1
6
CONTINUOUS
62
5
100
AcDb2dPolyline
66
1
10
0.0
20
0.0
30
0.0
70
0
0
VERTEX
5
13b
100
AcDbEntity
8
1
100
AcDbVertex
100
AcDb2dVertex
62
5
10
75.312500
20
290.500000
0
VERTEX
5
13c
100
AcDbEntity
8
1
100
AcDbVertex
100
AcDb2dVertex
62
5
10
75.312500
20
284.875000
0
VERTEX
5
13d
100
AcDbEntity
8
1
100
AcDbVertex
100
AcDb2dVertex
62
5
10
75.000000
20
283.625000
0
VERTEX
5
13e
100
AcDbEntity
8
1
100
AcDbVertex
100
AcDb2dVertex
62
5
10
74.375000
20
283.000000
0
VERTEX
5
13f
100
AcDbEntity
8
1
100
AcDbVertex
100
AcDb2dVertex
62
5
10
73.437500
20
283.000000
0
VERTEX
5
140
100
AcDbEntity
8
1
100
AcDbVertex
100
AcDb2dVertex
62
5
10
72.812500
20
283.625000
0
VERTEX
5
141
100
AcDbEntity
8
1
100
AcDbVertex
100
AcDb2dVertex
62
5
10
72.500000
20
284.875000
0
SEQEND
5
142
100
AcDbEntity
8
1
0
POLYLINE
5
143
100
AcDbEntity
8
1
6
CONTINUOUS
62
5
100
AcDb2dPolyline
66
1
10
0.0
20
0.0
30
0.0
70
0
0
VERTEX
5
144
100
AcDbEntity
8
1
100
AcDbVertex
100
AcDb2dVertex
62
5
10
62.500000
20
283.000000
0
VERTEX
5
145
100
AcDbEntity
8
1
100
AcDbVertex
100
AcDb2dVertex
62
5
10
64.062500
20
290.500000
0
VERTEX
5
146
100
AcDbEntity
8
1
100
AcDbVertex
100
AcDb2dVertex
62
5
10
65.625000
20
283.000000
0
SEQEND
5
147
100
AcDbEntity
8
1
0
LINE
5
148
100
AcDbEntity
8
1
100
AcDbLine
6
CONTINUOUS
62
5
10
63.125000
20
285.500000
11
65.000000
21
285.500000
0
POLYLINE
5
149
100
AcDbEntity
8
1
6
CONTINUOUS
62
5
100
AcDb2dPolyline
66
1
10
0.0
20
0.0
30
0.0
70
0
0
VERTEX
5
14a
100
AcDbEntity
8
1
100
AcDbVertex
100
AcDb2dVertex
62
5
10
55.625000
20
288.937500
0
VERTEX
5
14b
100
AcDbEntity
8
1
100
AcDbVertex
100
AcDb2dVertex
62
5
10
55.000000
20
290.187500
0
VERTEX
5
14c
100
AcDbEntity
8
1
100
AcDbVertex
100
AcDb2dVertex
62
5
10
54.062500
20
290.500000
0
VERTEX
5
14d
100
AcDbEntity
8
1
100
AcDbVertex
100
AcDb2dVertex
62
5
10
53.437500
20
290.500000
0
VERTEX
5
14e
100
AcDbEntity
8
1
100
AcDbVertex
100
AcDb2dVertex
62
5
10
52.812500
20
290.187500
0
VERTEX
5
14f
100
AcDbEntity
8
1
100
AcDbVertex
100
AcDb2dVertex
62
5
10
52.187500
20
289.250000
0
VERTEX
5
150
100
AcDbEntity
8
1
100
AcDbVertex
100
AcDb2dVertex
62
5
10
52.187500
20
288.312500
0
VERTEX
5
151
100
AcDbEntity
8
1
100
AcDbVertex
100
AcDb2dVertex
62
5
10
52.812500
20
287.375000
0
VERTEX
5
152
100
AcDbEntity
8
1
100
AcDbVertex
100
AcDb2dVertex
62
5
10
55.000000
20
286.125000
0
VERTEX
5
153
100
AcDbEntity
8
1
100
AcDbVertex
100
AcDb2dVertex
62
5
10
55.625000
20
285.187500
0
VERTEX
5
154
100
AcDbEntity
8
1
100
AcDbVertex
100
AcDb2dVertex
62
5
10
55.625000
20
284.250000
0
VERTEX
5
155
100
AcDbEntity
8
1
100
AcDbVertex
100
AcDb2dVertex
62
5
10
55.000000
20
283.312500
0
VERTEX
5
156
100
AcDbEntity
8
1
100
AcDbVertex
100
AcDb2dVertex
62
5
10
54.062500
20
283.000000
0
VERTEX
5
157
100
AcDbEntity
8
1
100
AcDbVertex
100
AcDb2dVertex
62
5
10
53.437500
20
283.000000
0
VERTEX
5
158
100
AcDbEntity
8
1
100
AcDbVertex
100
AcDb2dVertex
62
5
10
52.500000
20
283.625000
0
VERTEX
5
159
100
AcDbEntity
8
1
100
AcDbVertex
100
AcDb2dVertex
62
5
10
52.187500
20
284.875000
0
SEQEND
5
15a
100
AcDbEntity
8
1
0
LINE
5
15b
100
AcDbEntity
8
1
100
AcDbLine
6
CONTINUOUS
62
5
10
57.500000
20
290.500000
11
57.500000
21
283.000000
0
POLYLINE
5
15c
100
AcDbEntity
8
1
6
CONTINUOUS
62
5
100
AcDb2dPolyline
66
1
10
0.0
20
0.0
30
0.0
70
0
0
VERTEX
5
15d
100
AcDbEntity
8
1
100
AcDbVertex
100
AcDb2dVertex
62
5
10
57.500000
20
290.500000
0
VERTEX
5
15e
100
AcDbEntity
8
1
100
AcDbVertex
100
AcDb2dVertex
62
5
10
58.750000
20
290.500000
0
VERTEX
5
15f
100
AcDbEntity
8
1
100
AcDbVertex
100
AcDb2dVertex
62
5
10
59.687500
20
290.187500
0
VERTEX
5
160
100
AcDbEntity
8
1
100
AcDbVertex
100
AcDb2dVertex
62
5
10
60.000000
20
289.875000
0
VERTEX
5
161
100
AcDbEntity
8
1
100
AcDbVertex
100
AcDb2dVertex
62
5
10
60.312500
20
288.937500
0
VERTEX
5
162
100
AcDbEntity
8
1
100
AcDbVertex
100
AcDb2dVertex
62
5
10
60.312500
20
288.000000
0
VERTEX
5
163
100
AcDbEntity
8
1
100
AcDbVertex
100
AcDb2dVertex
62
5
10
60.000000
20
287.375000
0
VERTEX
5
164
100
AcDbEntity
8
1
100
AcDbVertex
100
AcDb2dVertex
62
5
10
59.062500
20
286.750000
0
VERTEX
5
165
100
AcDbEntity
8
1
100
AcDbVertex
100
AcDb2dVertex
62
5
10
57.500000
20
286.750000
0
SEQEND
5
166
100
AcDbEntity
8
1
0
POLYLINE
5
167
100
AcDbEntity
8
1
6
CONTINUOUS
62
5
100
AcDb2dPolyline
66
1
10
0.0
20
0.0
30
0.0
70
0
0
VERTEX
5
168
100
AcDbEntity
8
1
100
AcDbVertex
100
AcDb2dVertex
62
5
10
59.062500
20
286.750000
0
VERTEX
5
169
100
AcDbEntity
8
1
100
AcDbVertex
100
AcDb2dVertex
62
5
10
59.687500
20
286.437500
0
VERTEX
5
16a
100
AcDbEntity
8
1
100
AcDbVertex
100
AcDb2dVertex
62
5
10
60.000000
20
285.812500
0
VERTEX
5
16b
100
AcDbEntity
8
1
100
AcDbVertex
100
AcDb2dVertex
62
5
10
60.000000
20
283.625000
0
VERTEX
5
16c
100
AcDbEntity
8
1
100
AcDbVertex
100
AcDb2dVertex
62
5
10
60.312500
20
283.000000
0
VERTEX
5
16d
100
AcDbEntity
8
1
100
AcDbVertex
100
AcDb2dVertex
62
5
10
60.625000
20
283.000000
0
VERTEX
5
16e
100
AcDbEntity
8
1
100
AcDbVertex
100
AcDb2dVertex
62
5
10
60.937500
20
283.625000
0
SEQEND
5
16f
100
AcDbEntity
8
1
0
POLYLINE
5
170
100
AcDbEntity
8
1
6
CONTINUOUS
62
5
100
AcDb2dPolyline
66
1
10
0.0
20
0.0
30
0.0
70
0
0
VERTEX
5
171
100
AcDbEntity
8
1
100
AcDbVertex
100
AcDb2dVertex
62
5
10
72.000000
20
327.750000
0
VERTEX
5
172
100
AcDbEntity
8
1
100
AcDbVertex
100
AcDb2dVertex
62
5
10
71.500000
20
328.375000
0
VERTEX
5
173
100
AcDbEntity
8
1
100
AcDbVertex
100
AcDb2dVertex
62
5
10
70.500000
20
329.000000
0
VERTEX
5
174
100
AcDbEntity
8
1
100
AcDbVertex
100
AcDb2dVertex
62
5
10
69.500000
20
329.000000
0
VERTEX
5
175
100
AcDbEntity
8
1
100
AcDbVertex
100
AcDb2dVertex
62
5
10
68.500000
20
328.375000
0
VERTEX
5
176
100
AcDbEntity
8
1
100
AcDbVertex
100
AcDb2dVertex
62
5
10
68.000000
20
327.750000
0
VERTEX
5
177
100
AcDbEntity
8
1
100
AcDbVertex
100
AcDb2dVertex
62
5
10
67.500000
20
326.187500
0
VERTEX
5
178
100
AcDbEntity
8
1
100
AcDbVertex
100
AcDb2dVertex
62
5
10
67.500000
20
324.312500
0
VERTEX
5
179
100
AcDbEntity
8
1
100
AcDbVertex
100
AcDb2dVertex
62
5
10
68.000000
20
322.750000
0
VERTEX
5
17a
100
AcDbEntity
8
1
100
AcDbVertex
100
AcDb2dVertex
62
5
10
68.500000
20
322.125000
0
VERTEX
5
17b
100
AcDbEntity
8
1
100
AcDbVertex
100
AcDb2dVertex
62
5
10
69.500000
20
321.500000
0
VERTEX
5
17c
100
AcDbEntity
8
1
100
AcDbVertex
100
AcDb2dVertex
62
5
10
70.500000
20
321.500000
0
VERTEX
5
17d
100
AcDbEntity
8
1
100
AcDbVertex
100
AcDb2dVertex
62
5
10
71.500000
20
322.125000
0
VERTEX
5
17e
100
AcDbEntity
8
1
100
AcDbVertex
100
AcDb2dVertex
62
5
10
72.500000
20
323.375000
0
SEQEND
5
17f
100
AcDbEntity
8
1
0
POLYLINE
5
180
100
AcDbEntity
8
1
6
CONTINUOUS
62
5
100
AcDb2dPolyline
66
1
10
0.0
20
0.0
30
0.0
70
0
0
VERTEX
5
181
100
AcDbEntity
8
1
100
AcDbVertex
100
AcDb2dVertex
62
5
10
70.000000
20
319.625000
0
VERTEX
5
182
100
AcDbEntity
8
1
100
AcDbVertex
100
AcDb2dVertex
62
5
10
67.250000
20
318.062500
0
VERTEX
5
183
100
AcDbEntity
8
1
100
AcDbVertex
100
AcDb2dVertex
62
5
10
67.250000
20
310.875000
0
VERTEX
5
184
100
AcDbEntity
8
1
100
AcDbVertex
100
AcDb2dVertex
62
5
10
72.250000
20
310.875000
0
VERTEX
5
185
100
AcDbEntity
8
1
100
AcDbVertex
100
AcDb2dVertex
62
5
10
72.250000
20
318.062500
0
VERTEX
5
186
100
AcDbEntity
8
1
100
AcDbVertex
100
AcDb2dVertex
62
5
10
67.250000
20
318.062500
0
SEQEND
5
187
100
AcDbEntity
8
1
0
LINE
5
188
100
AcDbEntity
8
1
100
AcDbLine
6
CONTINUOUS
62
5
10
67.250000
20
314.625000
11
72.250000
21
314.625000
0
LINE
5
189
100
AcDbEntity
8
1
100
AcDbLine
6
CONTINUOUS
62
5
10
67.500000
20
290.500000
11
67.500000
21
283.000000
0
POLYLINE
5
18a
100
AcDbEntity
8
1
6
CONTINUOUS
62
5
100
AcDb2dPolyline
66
1
10
0.0
20
0.0
30
0.0
70
0
0
VERTEX
5
18b
100
AcDbEntity
8
1
100
AcDbVertex
100
AcDb2dVertex
62
5
10
67.500000
20
290.500000
0
VERTEX
5
18c
100
AcDbEntity
8
1
100
AcDbVertex
100
AcDb2dVertex
62
5
10
69.062500
20
290.500000
0
VERTEX
5
18d
100
AcDbEntity
8
1
100
AcDbVertex
100
AcDb2dVertex
62
5
10
69.687500
20
290.187500
0
VERTEX
5
18e
100
AcDbEntity
8
1
100
AcDbVertex
100
AcDb2dVertex
62
5
10
70.312500
20
289.562500
0
VERTEX
5
18f
100
AcDbEntity
8
1
100
AcDbVertex
100
AcDb2dVertex
62
5
10
70.625000
20
288.312500
0
VERTEX
5
190
100
AcDbEntity
8
1
100
AcDbVertex
100
AcDb2dVertex
62
5
10
70.625000
20
285.187500
0
VERTEX
5
191
100
AcDbEntity
8
1
100
AcDbVertex
100
AcDb2dVertex
62
5
10
70.312500
20
283.937500
0
VERTEX
5
192
100
AcDbEntity
8
1
100
AcDbVertex
100
AcDb2dVertex
62
5
10
69.687500
20
283.312500
0
VERTEX
5
193
100
AcDbEntity
8
1
100
AcDbVertex
100
AcDb2dVertex
62
5
10
69.062500
20
283.000000
0
VERTEX
5
194
100
AcDbEntity
8
1
100
AcDbVertex
100
AcDb2dVertex
62
5
10
67.500000
20
283.000000
0
SEQEND
5
195
100
AcDbEntity
8
1
0
POLYLINE
5
196
100
AcDbEntity
8
1
6
CONTINUOUS
62
5
100
AcDb2dPolyline
66
1
10
0.0
20
0.0
30
0.0
70
1
0
VERTEX
5
197
100
AcDbEntity
8
1
100
AcDbVertex
100
AcDb2dVertex
62
5
10
142.000000
20
176.717618
0
VERTEX
5
198
100
AcDbEntity
8
1
100
AcDbVertex
100
AcDb2dVertex
62
5
10
142.000000
20
182.117290
0
SEQEND
5
199
100
AcDbEntity
8
1
0
POLYLINE
5
19a
100
AcDbEntity
8
1
6
CONTINUOUS
62
5
100
AcDb2dPolyline
66
1
10
0.0
20
0.0
30
0.0
70
0
0
VERTEX
5
19b
100
AcDbEntity
8
1
100
AcDbVertex
100
AcDb2dVertex
62
5
10
147.000000
20
327.437500
0
VERTEX
5
19c
100
AcDbEntity
8
1
100
AcDbVertex
100
AcDb2dVertex
62
5
10
152.250000
20
327.437500
0
VERTEX
5
19d
100
AcDbEntity
8
1
100
AcDbVertex
100
AcDb2dVertex
62
5
10
152.250000
20
327.125000
0
VERTEX
5
19e
100
AcDbEntity
8
1
100
AcDbVertex
100
AcDb2dVertex
62
5
10
150.500000
20
325.250000
0
VERTEX
5
19f
100
AcDbEntity
8
1
100
AcDbVertex
100
AcDb2dVertex
62
5
10
149.750000
20
325.250000
0
SEQEND
5
1a0
100
AcDbEntity
8
1
0
POLYLINE
5
1a1
100
AcDbEntity
8
1
6
CONTINUOUS
62
5
100
AcDb2dPolyline
66
1
10
0.0
20
0.0
30
0.0
70
0
0
VERTEX
5
1a2
100
AcDbEntity
8
1
100
AcDbVertex
100
AcDb2dVertex
62
5
10
149.750000
20
326.187500
0
VERTEX
5
1a3
100
AcDbEntity
8
1
100
AcDbVertex
100
AcDb2dVertex
62
5
10
149.750000
20
324.625000
0
VERTEX
5
1a4
100
AcDbEntity
8
1
100
AcDbVertex
100
AcDb2dVertex
62
5
10
149.000000
20
322.750000
0
VERTEX
5
1a5
100
AcDbEntity
8
1
100
AcDbVertex
100
AcDb2dVertex
62
5
10
148.000000
20
321.500000
0
SEQEND
5
1a6
100
AcDbEntity
8
1
0
ARC
5
1a7
100
AcDbEntity
8
1
100
AcDbCircle
6
CONTINUOUS
62
5
10
160.000000
20
223.633100
40
45.250000
100
AcDbArc
50
-115.527180
51
-64.472819
0
LINE
5
1a8
100
AcDbEntity
8
1
100
AcDbLine
6
CONTINUOUS
62
5
10
179.500000
20
182.800362
11
179.500000
21
183.116900
0
ARC
5
1a9
100
AcDbEntity
8
1
100
AcDbCircle
6
CONTINUOUS
62
5
10
179.000000
20
183.116900
40
0.500000
100
AcDbArc
50
0.000000
51
115.124144
0
ARC
5
1aa
100
AcDbEntity
8
1
100
AcDbCircle
6
CONTINUOUS
62
5
10
160.000000
20
223.633100
40
44.250000
100
AcDbArc
50
-115.124144
51
-64.875854
0
ARC
5
1ab
100
AcDbEntity
8
1
100
AcDbCircle
6
CONTINUOUS
62
5
10
141.000000
20
183.116900
40
0.500000
100
AcDbArc
50
64.875854
51
179.999998
0
LINE
5
1ac
100
AcDbEntity
8
1
100
AcDbLine
6
CONTINUOUS
62
5
10
140.500000
20
183.116900
11
140.500000
21
182.800362
0
ARC
5
1ad
100
AcDbEntity
8
1
100
AcDbCircle
6
CONTINUOUS
62
5
10
160.000000
20
223.633100
40
50.250000
100
AcDbArc
50
-112.833821
51
-67.166177
0
LINE
5
1ae
100
AcDbEntity
8
1
100
AcDbLine
6
CONTINUOUS
62
5
10
179.500000
20
177.320980
11
179.500000
21
176.573962
0
ARC
5
1af
100
AcDbEntity
8
1
100
AcDbCircle
6
CONTINUOUS
62
5
10
179.000000
20
176.573962
40
0.500000
100
AcDbArc
50
-68.013739
51
0.000000
0
ARC
5
1b0
100
AcDbEntity
8
1
100
AcDbCircle
6
CONTINUOUS
62
5
10
160.000000
20
223.633100
40
51.250000
100
AcDbArc
50
-111.986259
51
-68.013739
0
ARC
5
1b1
100
AcDbEntity
8
1
100
AcDbCircle
6
CONTINUOUS
62
5
10
141.000000
20
176.573962
40
0.500000
100
AcDbArc
50
-179.999998
51
-111.986259
0
LINE
5
1b2
100
AcDbEntity
8
1
100
AcDbLine
6
CONTINUOUS
62
5
10
140.500000
20
176.573962
11
140.500000
21
177.320980
0
POLYLINE
5
1b3
100
AcDbEntity
8
1
6
DOT2
62
5
100
AcDb2dPolyline
66
1
10
0.0
20
0.0
30
0.0
70
0
0
VERTEX
5
1b4
100
AcDbEntity
8
1
100
AcDbVertex
100
AcDb2dVertex
62
5
10
164.375000
20
96.070600
0
VERTEX
5
1b5
100
AcDbEntity
8
1
100
AcDbVertex
100
AcDb2dVertex
62
5
10
164.375000
20
96.070600
0
VERTEX
5
1b6
100
AcDbEntity
8
1
100
AcDbVertex
100
AcDb2dVertex
62
5
10
163.125000
20
95.758100
0
VERTEX
5
1b7
100
AcDbEntity
8
1
100
AcDbVertex
100
AcDb2dVertex
62
5
10
162.187500
20
95.758100
0
VERTEX
5
1b8
100
AcDbEntity
8
1
100
AcDbVertex
100
AcDb2dVertex
62
5
10
161.562500
20
96.070600
0
VERTEX
5
1b9
100
AcDbEntity
8
1
100
AcDbVertex
100
AcDb2dVertex
62
5
10
161.250000
20
97.008100
0
VERTEX
5
1ba
100
AcDbEntity
8
1
100
AcDbVertex
100
AcDb2dVertex
62
5
10
161.250000
20
98.570600
0
VERTEX
5
1bb
100
AcDbEntity
8
1
100
AcDbVertex
100
AcDb2dVertex
62
5
10
161.562500
20
99.508100
0
VERTEX
5
1bc
100
AcDbEntity
8
1
100
AcDbVertex
100
AcDb2dVertex
62
5
10
161.875000
20
99.820600
0
VERTEX
5
1bd
100
AcDbEntity
8
1
100
AcDbVertex
100
AcDb2dVertex
62
5
10
162.500000
20
100.133100
0
VERTEX
5
1be
100
AcDbEntity
8
1
100
AcDbVertex
100
AcDb2dVertex
62
5
10
163.125000
20
100.133100
0
VERTEX
5
1bf
100
AcDbEntity
8
1
100
AcDbVertex
100
AcDb2dVertex
62
5
10
163.750000
20
99.820600
0
VERTEX
5
1c0
100
AcDbEntity
8
1
100
AcDbVertex
100
AcDb2dVertex
62
5
10
164.062500
20
99.508100
0
VERTEX
5
1c1
100
AcDbEntity
8
1
100
AcDbVertex
100
AcDb2dVertex
62
5
10
164.375000
20
98.570600
0
VERTEX
5
1c2
100
AcDbEntity
8
1
100
AcDbVertex
100
AcDb2dVertex
62
5
10
164.375000
20
95.133100
0
VERTEX
5
1c3
100
AcDbEntity
8
1
100
AcDbVertex
100
AcDb2dVertex
62
5
10
164.062500
20
93.570600
0
VERTEX
5
1c4
100
AcDbEntity
8
1
100
AcDbVertex
100
AcDb2dVertex
62
5
10
163.437500
20
92.945600
0
VERTEX
5
1c5
100
AcDbEntity
8
1
100
AcDbVertex
100
AcDb2dVertex
62
5
10
162.500000
20
92.633100
0
VERTEX
5
1c6
100
AcDbEntity
8
1
100
AcDbVertex
100
AcDb2dVertex
62
5
10
161.875000
20
92.633100
0
SEQEND
5
1c7
100
AcDbEntity
8
1
0
POLYLINE
5
1c8
100
AcDbEntity
8
1
6
DOT2
62
5
100
AcDb2dPolyline
66
1
10
0.0
20
0.0
30
0.0
70
0
0
VERTEX
5
1c9
100
AcDbEntity
8
1
100
AcDbVertex
100
AcDb2dVertex
62
5
10
156.250000
20
98.258100
0
VERTEX
5
1ca
100
AcDbEntity
8
1
100
AcDbVertex
100
AcDb2dVertex
62
5
10
156.562500
20
99.508100
0
VERTEX
5
1cb
100
AcDbEntity
8
1
100
AcDbVertex
100
AcDb2dVertex
62
5
10
157.187500
20
100.133100
0
VERTEX
5
1cc
100
AcDbEntity
8
1
100
AcDbVertex
100
AcDb2dVertex
62
5
10
158.125000
20
100.133100
0
VERTEX
5
1cd
100
AcDbEntity
8
1
100
AcDbVertex
100
AcDb2dVertex
62
5
10
158.750000
20
99.820600
0
VERTEX
5
1ce
100
AcDbEntity
8
1
100
AcDbVertex
100
AcDb2dVertex
62
5
10
159.062500
20
98.883100
0
VERTEX
5
1cf
100
AcDbEntity
8
1
100
AcDbVertex
100
AcDb2dVertex
62
5
10
159.062500
20
97.633100
0
VERTEX
5
1d0
100
AcDbEntity
8
1
100
AcDbVertex
100
AcDb2dVertex
62
5
10
158.750000
20
97.008100
0
VERTEX
5
1d1
100
AcDbEntity
8
1
100
AcDbVertex
100
AcDb2dVertex
62
5
10
158.125000
20
96.383100
0
VERTEX
5
1d2
100
AcDbEntity
8
1
100
AcDbVertex
100
AcDb2dVertex
62
5
10
157.187500
20
96.383100
0
SEQEND
5
1d3
100
AcDbEntity
8
1
0
POLYLINE
5
1d4
100
AcDbEntity
8
1
6
DOT2
62
5
100
AcDb2dPolyline
66
1
10
0.0
20
0.0
30
0.0
70
0
0
VERTEX
5
1d5
100
AcDbEntity
8
1
100
AcDbVertex
100
AcDb2dVertex
62
5
10
158.125000
20
96.383100
0
VERTEX
5
1d6
100
AcDbEntity
8
1
100
AcDbVertex
100
AcDb2dVertex
62
5
10
159.062500
20
95.758100
0
VERTEX
5
1d7
100
AcDbEntity
8
1
100
AcDbVertex
100
AcDb2dVertex
62
5
10
159.375000
20
94.820600
0
VERTEX
5
1d8
100
AcDbEntity
8
1
100
AcDbVertex
100
AcDb2dVertex
62
5
10
159.375000
20
93.883100
0
VERTEX
5
1d9
100
AcDbEntity
8
1
100
AcDbVertex
100
AcDb2dVertex
62
5
10
159.062500
20
93.258100
0
VERTEX
5
1da
100
AcDbEntity
8
1
100
AcDbVertex
100
AcDb2dVertex
62
5
10
158.125000
20
92.633100
0
VERTEX
5
1db
100
AcDbEntity
8
1
100
AcDbVertex
100
AcDb2dVertex
62
5
10
157.187500
20
92.633100
0
VERTEX
5
1dc
100
AcDbEntity
8
1
100
AcDbVertex
100
AcDb2dVertex
62
5
10
156.562500
20
92.945600
0
VERTEX
5
1dd
100
AcDbEntity
8
1
100
AcDbVertex
100
AcDb2dVertex
62
5
10
155.937500
20
93.883100
0
SEQEND
5
1de
100
AcDbEntity
8
1
0
POLYLINE
5
1df
100
AcDbEntity
8
1
6
DOT2
62
5
100
AcDb2dPolyline
66
1
10
0.0
20
0.0
30
0.0
70
0
0
VERTEX
5
1e0
100
AcDbEntity
8
1
100
AcDbVertex
100
AcDb2dVertex
62
5
10
110.812500
20
154.758100
0
VERTEX
5
1e1
100
AcDbEntity
8
1
100
AcDbVertex
100
AcDb2dVertex
62
5
10
110.812500
20
154.758100
0
VERTEX
5
1e2
100
AcDbEntity
8
1
100
AcDbVertex
100
AcDb2dVertex
62
5
10
111.125000
20
153.508100
0
VERTEX
5
1e3
100
AcDbEntity
8
1
100
AcDbVertex
100
AcDb2dVertex
62
5
10
111.125000
20
152.570600
0
VERTEX
5
1e4
100
AcDbEntity
8
1
100
AcDbVertex
100
AcDb2dVertex
62
5
10
110.812500
20
151.945600
0
VERTEX
5
1e5
100
AcDbEntity
8
1
100
AcDbVertex
100
AcDb2dVertex
62
5
10
109.875000
20
151.633100
0
VERTEX
5
1e6
100
AcDbEntity
8
1
100
AcDbVertex
100
AcDb2dVertex
62
5
10
108.312500
20
151.633100
0
VERTEX
5
1e7
100
AcDbEntity
8
1
100
AcDbVertex
100
AcDb2dVertex
62
5
10
107.375000
20
151.945600
0
VERTEX
5
1e8
100
AcDbEntity
8
1
100
AcDbVertex
100
AcDb2dVertex
62
5
10
107.062500
20
152.258100
0
VERTEX
5
1e9
100
AcDbEntity
8
1
100
AcDbVertex
100
AcDb2dVertex
62
5
10
106.750000
20
152.883100
0
VERTEX
5
1ea
100
AcDbEntity
8
1
100
AcDbVertex
100
AcDb2dVertex
62
5
10
106.750000
20
153.508100
0
VERTEX
5
1eb
100
AcDbEntity
8
1
100
AcDbVertex
100
AcDb2dVertex
62
5
10
107.062500
20
154.133100
0
VERTEX
5
1ec
100
AcDbEntity
8
1
100
AcDbVertex
100
AcDb2dVertex
62
5
10
107.375000
20
154.445600
0
VERTEX
5
1ed
100
AcDbEntity
8
1
100
AcDbVertex
100
AcDb2dVertex
62
5
10
108.312500
20
154.758100
0
VERTEX
5
1ee
100
AcDbEntity
8
1
100
AcDbVertex
100
AcDb2dVertex
62
5
10
111.750000
20
154.758100
0
VERTEX
5
1ef
100
AcDbEntity
8
1
100
AcDbVertex
100
AcDb2dVertex
62
5
10
113.312500
20
154.445600
0
VERTEX
5
1f0
100
AcDbEntity
8
1
100
AcDbVertex
100
AcDb2dVertex
62
5
10
113.937500
20
153.820600
0
VERTEX
5
1f1
100
AcDbEntity
8
1
100
AcDbVertex
100
AcDb2dVertex
62
5
10
114.250000
20
152.883100
0
VERTEX
5
1f2
100
AcDbEntity
8
1
100
AcDbVertex
100
AcDb2dVertex
62
5
10
114.250000
20
152.258100
0
SEQEND
5
1f3
100
AcDbEntity
8
1
0
POLYLINE
5
1f4
100
AcDbEntity
8
1
6
DOT2
62
5
100
AcDb2dPolyline
66
1
10
0.0
20
0.0
30
0.0
70
0
0
VERTEX
5
1f5
100
AcDbEntity
8
1
100
AcDbVertex
100
AcDb2dVertex
62
5
10
107.375000
20
147.258100
0
VERTEX
5
1f6
100
AcDbEntity
8
1
100
AcDbVertex
100
AcDb2dVertex
62
5
10
106.750000
20
148.195600
0
VERTEX
5
1f7
100
AcDbEntity
8
1
100
AcDbVertex
100
AcDb2dVertex
62
5
10
114.250000
20
148.195600
0
SEQEND
5
1f8
100
AcDbEntity
8
1
0
LINE
5
1f9
100
AcDbEntity
8
1
100
AcDbLine
6
DOT2
62
5
10
114.250000
20
147.570600
11
114.250000
21
148.820600
0
LINE
5
1fa
100
AcDbEntity
8
1
100
AcDbLine
6
CONTINUOUS
62
5
10
139.000000
20
116.383100
11
113.500000
21
116.383100
0
LINE
5
1fb
100
AcDbEntity
8
1
100
AcDbLine
6
CONTINUOUS
62
5
10
140.000000
20
135.383100
11
113.500000
21
135.383100
0
POLYLINE
5
1fc
100
AcDbEntity
8
1
6
CONTINUOUS
62
5
100
AcDb2dPolyline
66
1
10
0.0
20
0.0
30
0.0
70
0
0
VERTEX
5
1fd
100
AcDbEntity
8
1
100
AcDbVertex
100
AcDb2dVertex
62
5
10
115.500000
20
156.633100
0
VERTEX
5
1fe
100
AcDbEntity
8
1
100
AcDbVertex
100
AcDb2dVertex
62
5
10
115.500000
20
135.383100
0
VERTEX
5
1ff
100
AcDbEntity
8
1
100
AcDbVertex
100
AcDb2dVertex
62
5
10
114.500000
20
141.383100
0
VERTEX
5
200
100
AcDbEntity
8
1
100
AcDbVertex
100
AcDb2dVertex
62
5
10
116.500000
20
141.383100
0
VERTEX
5
201
100
AcDbEntity
8
1
100
AcDbVertex
100
AcDb2dVertex
62
5
10
115.500000
20
135.383100
0
VERTEX
5
202
100
AcDbEntity
8
1
100
AcDbVertex
100
AcDb2dVertex
62
5
10
115.000000
20
141.383100
0
VERTEX
5
203
100
AcDbEntity
8
1
100
AcDbVertex
100
AcDb2dVertex
62
5
10
116.000000
20
141.383100
0
VERTEX
5
204
100
AcDbEntity
8
1
100
AcDbVertex
100
AcDb2dVertex
62
5
10
115.500000
20
135.383100
0
SEQEND
5
205
100
AcDbEntity
8
1
0
LINE
5
206
100
AcDbEntity
8
1
100
AcDbLine
6
CONTINUOUS
62
5
10
115.500000
20
116.383100
11
115.500000
21
135.383100
0
POLYLINE
5
207
100
AcDbEntity
8
1
6
CONTINUOUS
62
5
100
AcDb2dPolyline
66
1
10
0.0
20
0.0
30
0.0
70
0
0
VERTEX
5
208
100
AcDbEntity
8
1
100
AcDbVertex
100
AcDb2dVertex
62
5
10
115.500000
20
107.383100
0
VERTEX
5
209
100
AcDbEntity
8
1
100
AcDbVertex
100
AcDb2dVertex
62
5
10
115.500000
20
116.383100
0
VERTEX
5
20a
100
AcDbEntity
8
1
100
AcDbVertex
100
AcDb2dVertex
62
5
10
116.500000
20
110.383100
0
VERTEX
5
20b
100
AcDbEntity
8
1
100
AcDbVertex
100
AcDb2dVertex
62
5
10
114.500000
20
110.383100
0
VERTEX
5
20c
100
AcDbEntity
8
1
100
AcDbVertex
100
AcDb2dVertex
62
5
10
115.500000
20
116.383100
0
VERTEX
5
20d
100
AcDbEntity
8
1
100
AcDbVertex
100
AcDb2dVertex
62
5
10
116.000000
20
110.383100
0
VERTEX
5
20e
100
AcDbEntity
8
1
100
AcDbVertex
100
AcDb2dVertex
62
5
10
115.000000
20
110.383100
0
VERTEX
5
20f
100
AcDbEntity
8
1
100
AcDbVertex
100
AcDb2dVertex
62
5
10
115.500000
20
116.383100
0
SEQEND
5
210
100
AcDbEntity
8
1
0
LINE
5
211
100
AcDbEntity
8
1
100
AcDbLine
6
CONTINUOUS
62
5
10
140.500000
20
114.883100
11
140.500000
21
89.383100
0
LINE
5
212
100
AcDbEntity
8
1
100
AcDbLine
6
CONTINUOUS
62
5
10
179.500000
20
114.883100
11
179.500000
21
89.383100
0
POLYLINE
5
213
100
AcDbEntity
8
1
6
CONTINUOUS
62
5
100
AcDb2dPolyline
66
1
10
0.0
20
0.0
30
0.0
70
0
0
VERTEX
5
214
100
AcDbEntity
8
1
100
AcDbVertex
100
AcDb2dVertex
62
5
10
160.000000
20
91.383100
0
VERTEX
5
215
100
AcDbEntity
8
1
100
AcDbVertex
100
AcDb2dVertex
62
5
10
140.500000
20
91.383100
0
VERTEX
5
216
100
AcDbEntity
8
1
100
AcDbVertex
100
AcDb2dVertex
62
5
10
146.500000
20
92.383100
0
VERTEX
5
217
100
AcDbEntity
8
1
100
AcDbVertex
100
AcDb2dVertex
62
5
10
146.500000
20
90.383100
0
VERTEX
5
218
100
AcDbEntity
8
1
100
AcDbVertex
100
AcDb2dVertex
62
5
10
140.500000
20
91.383100
0
VERTEX
5
219
100
AcDbEntity
8
1
100
AcDbVertex
100
AcDb2dVertex
62
5
10
146.500000
20
91.883100
0
VERTEX
5
21a
100
AcDbEntity
8
1
100
AcDbVertex
100
AcDb2dVertex
62
5
10
146.500000
20
90.883100
0
VERTEX
5
21b
100
AcDbEntity
8
1
100
AcDbVertex
100
AcDb2dVertex
62
5
10
140.500000
20
91.383100
0
SEQEND
5
21c
100
AcDbEntity
8
1
0
POLYLINE
5
21d
100
AcDbEntity
8
1
6
CONTINUOUS
62
5
100
AcDb2dPolyline
66
1
10
0.0
20
0.0
30
0.0
70
0
0
VERTEX
5
21e
100
AcDbEntity
8
1
100
AcDbVertex
100
AcDb2dVertex
62
5
10
160.000000
20
91.383100
0
VERTEX
5
21f
100
AcDbEntity
8
1
100
AcDbVertex
100
AcDb2dVertex
62
5
10
179.500000
20
91.383100
0
VERTEX
5
220
100
AcDbEntity
8
1
100
AcDbVertex
100
AcDb2dVertex
62
5
10
173.500000
20
90.383100
0
VERTEX
5
221
100
AcDbEntity
8
1
100
AcDbVertex
100
AcDb2dVertex
62
5
10
173.500000
20
92.383100
0
VERTEX
5
222
100
AcDbEntity
8
1
100
AcDbVertex
100
AcDb2dVertex
62
5
10
179.500000
20
91.383100
0
VERTEX
5
223
100
AcDbEntity
8
1
100
AcDbVertex
100
AcDb2dVertex
62
5
10
173.500000
20
90.883100
0
VERTEX
5
224
100
AcDbEntity
8
1
100
AcDbVertex
100
AcDb2dVertex
62
5
10
173.500000
20
91.883100
0
VERTEX
5
225
100
AcDbEntity
8
1
100
AcDbVertex
100
AcDb2dVertex
62
5
10
179.500000
20
91.383100
0
SEQEND
5
226
100
AcDbEntity
8
1
0
ARC
5
227
100
AcDbEntity
8
1
100
AcDbCircle
6
CONTINUOUS
62
5
10
178.500000
20
134.383100
40
1.000000
100
AcDbArc
50
0.000000
51
89.999999
0
POLYLINE
5
228
100
AcDbEntity
8
1
6
CONTINUOUS
62
5
100
AcDb2dPolyline
66
1
10
0.0
20
0.0
30
0.0
70
0
0
VERTEX
5
229
100
AcDbEntity
8
1
100
AcDbVertex
100
AcDb2dVertex
62
5
10
179.500000
20
134.383100
0
VERTEX
5
22a
100
AcDbEntity
8
1
100
AcDbVertex
100
AcDb2dVertex
62
5
10
179.500000
20
116.383100
0
VERTEX
5
22b
100
AcDbEntity
8
1
100
AcDbVertex
100
AcDb2dVertex
62
5
10
140.500000
20
116.383100
0
SEQEND
5
22c
100
AcDbEntity
8
1
0
LINE
5
22d
100
AcDbEntity
8
1
100
AcDbLine
6
CONTINUOUS
62
5
10
140.500000
20
116.383100
11
140.500000
21
134.383100
0
ARC
5
22e
100
AcDbEntity
8
1
100
AcDbCircle
6
CONTINUOUS
62
5
10
141.500000
20
134.383100
40
1.000000
100
AcDbArc
50
89.999999
51
179.999998
0
LINE
5
22f
100
AcDbEntity
8
1
100
AcDbLine
6
CONTINUOUS
62
5
10
141.500000
20
135.383100
11
178.500000
21
135.383100
0
LINE
5
230
100
AcDbEntity
8
1
100
AcDbLine
6
CONTINUOUS
62
5
10
40.000000
20
340.000000
11
40.000000
21
308.000000
0
LINE
5
231
100
AcDbEntity
8
1
100
AcDbLine
6
CONTINUOUS
62
5
10
0.000000
20
308.000000
11
320.000000
21
308.000000
0
POLYLINE
5
232
100
AcDbEntity
8
1
6
CONTINUOUS
62
5
100
AcDb2dPolyline
66
1
10
0.0
20
0.0
30
0.0
70
1
0
VERTEX
5
233
100
AcDbEntity
8
1
100
AcDbVertex
100
AcDb2dVertex
62
5
10
0.000000
20
0.000000
0
VERTEX
5
234
100
AcDbEntity
8
1
100
AcDbVertex
100
AcDb2dVertex
62
5
10
0.000000
20
340.000000
0
VERTEX
5
235
100
AcDbEntity
8
1
100
AcDbVertex
100
AcDb2dVertex
62
5
10
320.000000
20
340.000000
0
VERTEX
5
236
100
AcDbEntity
8
1
100
AcDbVertex
100
AcDb2dVertex
62
5
10
320.000000
20
0.000000
0
VERTEX
5
237
100
AcDbEntity
8
1
100
AcDbVertex
100
AcDb2dVertex
62
5
10
0.000000
20
0.000000
0
SEQEND
5
238
100
AcDbEntity
8
1
0
ENDSEC
0
SECTION
2
OBJECTS
0
DICTIONARY
5
239
100
AcDbDictionary
3
ACAD_GROUP
350
23a
3
ACAD_MLINESTYLE
350
23b
0
DICTIONARY
5
23a
102
{ACAD_REACTORS
330
239
102
}
100
AcDbDictionary
0
DICTIONARY
5
23b
102
{ACAD_REACTORS
330
239
102
}
100
AcDbDictionary
3
STANDARD
350
23c
0
MLINESTYLE
5
23c
102
{ACAD_REACTORS
330
23b
102
}
100
AcDbMlineStyle
2
STANDARD
70
0
3

62
0
51
90.0
52
90.0
71
2
49
0.5
62
256
6
BYLAYER
49
-0.5
62
256
6
BYLAYER
0
ENDSEC
0
EOF
