0
SECTION
2
HEADER
9
$ACADVER
1
AC1012
9
$EXTMIN
10
-0.013701
20
-0.013701
30
0.0
9
$EXTMAX
10
12.606299
20
13.386299
30
0.0
9
$LIMMIN
10
-0.348005
20
-0.348005
9
$LIMMAX
10
320.199995
20
340.011995
9
$DIMSCALE
40
1.000000
9
$PDMODE
70
2
9
$PDSIZE
40
0.0
  9
$HANDSEED
  5
7bc
0
ENDSEC
0
SECTION
2
CLASSES
0
ENDSEC
0
SECTION
2
TABLES
0
TABLE
2
LTYPE
5
1e
100
AcDbSymbolTable
70
12
0
LTYPE
5
1f
100
AcDbSymbolTableRecord
100
AcDbLinetypeTableRecord
2
BYBLOCK
70
0
3

72
65
73
0
40
0.0
0
LTYPE
5
20
100
AcDbSymbolTableRecord
100
AcDbLinetypeTableRecord
2
BYLAYER
70
0
3

72
65
73
0
40
0.0
0
LTYPE
5
21
100
AcDbSymbolTableRecord
100
AcDbLinetypeTableRecord
2
CONTINUOUS
70
64
3
Solid line
72
65
73
0
40
0.0
0
LTYPE
5
22
100
AcDbSymbolTableRecord
100
AcDbLinetypeTableRecord
2
DASHED
70
64
3
__ __ __ __ __ __ __ __ __ __ __ __ __ __ __
72
65
73
2
40
0.75
49
0.5
74
0
49
-0.25
74
0
0
LTYPE
5
23
100
AcDbSymbolTableRecord
100
AcDbLinetypeTableRecord
2
DOT
70
64
3
...............................................
72
65
73
2
40
0.25
49
0.0
74
0
49
-0.25
74
0
0
LTYPE
5
24
100
AcDbSymbolTableRecord
100
AcDbLinetypeTableRecord
2
DASHDOT
70
64
3
__ . __ . __ . __ . __ . __ . __ . __ . __ . --
72
65
73
4
40
1.0
49
0.5
74
0
49
-0.25
74
0
49
0.0
74
0
49
-0.25
74
0
0
LTYPE
5
25
100
AcDbSymbolTableRecord
100
AcDbLinetypeTableRecord
2
CENTER
70
64
3
____ _ ____ _ ____ _ ____ _ ____ _ ____ _ ____
72
65
73
4
40
2.0
49
1.25
74
0
49
-0.25
74
0
49
0.25
74
0
49
-0.25
74
0
0
LTYPE
5
26
100
AcDbSymbolTableRecord
100
AcDbLinetypeTableRecord
2
PHANTOM
70
64
3
_____ _ _ _____ _ _ _____ _ _ _____ _ _ ____
72
65
73
6
40
2.5
49
1.25
74
0
49
-0.25
74
0
49
0.25
74
0
49
-0.25
74
0
49
0.25
74
0
49
-0.25
74
0
0
LTYPE
5
27
100
AcDbSymbolTableRecord
100
AcDbLinetypeTableRecord
2
HIDDEN
70
64
3
_ _ _ _ _ _ _ _ _ _ _ _ _ _ _ _ _ _ _ _ _ _ _
72
65
73
2
40
0.375
49
0.25
74
0
49
-0.125
74
0
0
LTYPE
5
28
100
AcDbSymbolTableRecord
100
AcDbLinetypeTableRecord
2
BORDER
70
64
3
__ __ . __ __ . __ __ . __ __ . __ __ . __ __
72
65
73
6
40
1.75
49
0.5
74
0
49
-0.25
74
0
49
0.5
74
0
49
-0.25
74
0
49
0.0
74
0
49
-0.25
74
0
0
LTYPE
5
29
100
AcDbSymbolTableRecord
100
AcDbLinetypeTableRecord
2
DIVIDE
70
64
3
__ . . __ . . __ . . __ . . __ . . __ . . __
72
65
73
6
40
1.25
49
0.5
74
0
49
-0.25
74
0
49
0.0
74
0
49
-0.25
74
0
49
0.0
74
0
49
-0.25
74
0
0
LTYPE
5
2a
100
AcDbSymbolTableRecord
100
AcDbLinetypeTableRecord
2
DOT2
70
64
3
...............................................
72
65
73
2
40
0.125
49
0.0
74
0
49
-0.125
74
0
0
ENDTAB
0
TABLE
2
STYLE
5
2b
100
AcDbSymbolTable
70
1
0
STYLE
5
2c
100
AcDbSymbolTableRecord
100
AcDbTextStyleTableRecord
2
STANDARD
70
64
40
0.0
41
1.0
50
0.0
71
0
42
5.0
3
txt
4
bigfont
0
ENDTAB
0
TABLE
2
LAYER
5
2d
100
AcDbSymbolTable
70
2
0
LAYER
5
2e
100
AcDbSymbolTableRecord
100
AcDbLayerTableRecord
2
0
70
0
62
7
6
CONTINUOUS
0
LAYER
5
2f
100
AcDbSymbolTableRecord
100
AcDbLayerTableRecord
2
1
70
0
62
7
6
CONTINUOUS
0
ENDTAB
0
TABLE
2
APPID
5
30
100
AcDbSymbolTable
70
1
0
APPID
5
31
100
AcDbSymbolTableRecord
100
AcDbRegAppTableRecord
2
ACAD
70
64
0
ENDTAB
0
TABLE
2
DIMSTYLE
5
32
100
AcDbSymbolTable
70
0
0
ENDTAB
0
TABLE
2
UCS
5
33
100
AcDbSymbolTable
70
0
0
ENDTAB
0
TABLE
2
VIEW
5
34
100
AcDbSymbolTable
70
0
0
ENDTAB
0
TABLE
2
VPORT
5
35
100
AcDbSymbolTable
70
0
0
ENDTAB
0
TABLE
2
BLOCK_RECORD
5
36
100
AcDbSymbolTable
70
0
0
BLOCK_RECORD
5
37
100
AcDbSymbolTableRecord
100
AcDbBlockTableRecord
2
*MODEL_SPACE
0
BLOCK_RECORD
5
38
100
AcDbSymbolTableRecord
100
AcDbBlockTableRecord
2
*PAPER_SPACE
0
BLOCK_RECORD
5
39
100
AcDbSymbolTableRecord
100
AcDbBlockTableRecord
2
OPEN
0
BLOCK_RECORD
5
3a
100
AcDbSymbolTableRecord
100
AcDbBlockTableRecord
2
HALF
0
BLOCK_RECORD
5
3b
100
AcDbSymbolTableRecord
100
AcDbBlockTableRecord
2
CLOSEDBLANK
0
BLOCK_RECORD
5
3c
100
AcDbSymbolTableRecord
100
AcDbBlockTableRecord
2
HALFCLOSE_R
0
BLOCK_RECORD
5
3d
100
AcDbSymbolTableRecord
100
AcDbBlockTableRecord
2
DOT
0
BLOCK_RECORD
5
3e
100
AcDbSymbolTableRecord
100
AcDbBlockTableRecord
2
HALFOPEN_R
0
BLOCK_RECORD
5
3f
100
AcDbSymbolTableRecord
100
AcDbBlockTableRecord
2
CLOSEDF
0
BLOCK_RECORD
5
40
100
AcDbSymbolTableRecord
100
AcDbBlockTableRecord
2
HALF_R
0
ENDTAB
0
ENDSEC
0
SECTION
2
BLOCKS
0
BLOCK
5
41
100
AcDbEntity
8
0
100
AcDbBlockBegin
2
*MODEL_SPACE
70
0
10
0.0
20
0.0
30
0.0
3
*MODEL_SPACE
1

0
ENDBLK
5
42
100
AcDbEntity
8
0
100
AcDbBlockEnd
0
BLOCK
5
43
100
AcDbEntity
67
1
8
0
100
AcDbBlockBegin
2
*PAPER_SPACE
70
0
10
0.0
20
0.0
30
0.0
3
*PAPER_SPACE
1

0
ENDBLK
5
44
100
AcDbEntity
67
1
8
0
100
AcDbBlockEnd
0
BLOCK
5
45
100
AcDbEntity
8
0
100
AcDbBlockBegin
2
OPEN
70
0
10
0.0
20
0.0
30
0.0
3
OPEN
1

0
LINE
5
46
100
AcDbEntity
8
0
6
BYBLOCK
62
0
100
AcDbLine
10
0.000000
20
0.000000
11
-1.000000
21
0.000000
0
LINE
5
47
100
AcDbEntity
8
0
6
BYBLOCK
62
0
100
AcDbLine
10
-1.000000
20
-0.166667
11
0.000000
21
0.000000
0
LINE
5
48
100
AcDbEntity
8
0
6
BYBLOCK
62
0
100
AcDbLine
10
-1.000000
20
0.166667
11
0.000000
21
0.000000
0
ENDBLK
5
49
100
AcDbEntity
8
0
100
AcDbBlockEnd
0
BLOCK
5
4a
100
AcDbEntity
8
0
100
AcDbBlockBegin
2
HALF
70
0
10
0.0
20
0.0
30
0.0
3
HALF
1

0
SOLID
5
4b
100
AcDbEntity
8
0
6
BYBLOCK
62
0
100
AcDbTrace
10
-1.000000
20
0.166667
11
-1.000000
21
-0.166667
12
0.000000
22
0.000000
13
0.000000
23
0.000000
0
ENDBLK
5
4c
100
AcDbEntity
8
0
100
AcDbBlockEnd
0
BLOCK
5
4d
100
AcDbEntity
8
0
100
AcDbBlockBegin
2
CLOSEDBLANK
70
0
10
0.0
20
0.0
30
0.0
3
CLOSEDBLANK
1

0
LINE
5
4e
100
AcDbEntity
8
0
6
BYBLOCK
62
0
100
AcDbLine
10
-1.000000
20
0.166667
11
-1.000000
21
-0.166667
0
LINE
5
4f
100
AcDbEntity
8
0
6
BYBLOCK
62
0
100
AcDbLine
10
0.000000
20
0.000000
11
-1.000000
21
-0.166667
0
LINE
5
50
100
AcDbEntity
8
0
6
BYBLOCK
62
0
100
AcDbLine
10
-1.000000
20
0.166667
11
0.000000
21
0.000000
0
ENDBLK
5
51
100
AcDbEntity
8
0
100
AcDbBlockEnd
0
BLOCK
5
52
100
AcDbEntity
8
0
100
AcDbBlockBegin
2
HALFCLOSE_R
70
0
10
0.0
20
0.0
30
0.0
3
HALFCLOSE_R
1

0
LINE
5
53
100
AcDbEntity
8
0
6
BYBLOCK
62
0
100
AcDbLine
10
-1.000000
20
-0.166667
11
-1.000000
21
0.000000
0
LINE
5
54
100
AcDbEntity
8
0
6
BYBLOCK
62
0
100
AcDbLine
10
-1.000000
20
-0.166667
11
0.000000
21
0.000000
0
LINE
5
55
100
AcDbEntity
8
0
6
BYBLOCK
62
0
100
AcDbLine
10
0.000000
20
0.000000
11
-1.000000
21
0.000000
0
ENDBLK
5
56
100
AcDbEntity
8
0
100
AcDbBlockEnd
0
BLOCK
5
57
100
AcDbEntity
8
0
100
AcDbBlockBegin
2
DOT
70
0
10
0.0
20
0.0
30
0.0
3
DOT
1

0
LINE
5
58
100
AcDbEntity
8
0
6
BYBLOCK
62
0
100
AcDbLine
10
0.000000
20
0.000000
11
-1.000000
21
0.000000
0
POLYLINE
5
59
100
AcDbEntity
8
0
6
BYBLOCK
62
0
100
AcDb2dPolyline
66
1
10
0.0
20
0.0
30
0.0
70
1
40
0.166667
41
0.166667
0
VERTEX
5
5a
100
AcDbEntity
8
0
100
AcDbVertex
100
AcDb2dVertex
62
10
10
-0.083333
20
0.000000
42
1.000000
0
VERTEX
5
5b
100
AcDbEntity
8
0
100
AcDbVertex
100
AcDb2dVertex
62
10
10
0.083333
20
0.000000
42
1.000000
0
SEQEND
5
5c
100
AcDbEntity
8
0
0
ENDBLK
5
5d
100
AcDbEntity
8
0
100
AcDbBlockEnd
0
BLOCK
5
5e
100
AcDbEntity
8
0
100
AcDbBlockBegin
2
HALFOPEN_R
70
0
10
0.0
20
0.0
30
0.0
3
HALFOPEN_R
1

0
LINE
5
5f
100
AcDbEntity
8
0
6
BYBLOCK
62
0
100
AcDbLine
10
-1.000000
20
-0.166667
11
0.000000
21
0.000000
0
LINE
5
60
100
AcDbEntity
8
0
6
BYBLOCK
62
0
100
AcDbLine
10
0.000000
20
0.000000
11
-1.000000
21
0.000000
0
ENDBLK
5
61
100
AcDbEntity
8
0
100
AcDbBlockEnd
0
BLOCK
5
62
100
AcDbEntity
8
0
100
AcDbBlockBegin
2
CLOSEDF
70
0
10
0.0
20
0.0
30
0.0
3
CLOSEDF
1

0
SOLID
5
63
100
AcDbEntity
8
0
6
BYBLOCK
62
0
100
AcDbTrace
10
-1.000000
20
0.166667
11
-1.000000
21
-0.166667
12
0.000000
22
0.000000
13
0.000000
23
0.000000
0
ENDBLK
5
64
100
AcDbEntity
8
0
100
AcDbBlockEnd
0
BLOCK
5
65
100
AcDbEntity
8
0
100
AcDbBlockBegin
2
HALF_R
70
0
10
0.0
20
0.0
30
0.0
3
HALF_R
1

0
SOLID
5
66
100
AcDbEntity
8
0
6
BYBLOCK
62
0
100
AcDbTrace
10
-1.000000
20
-0.166667
11
-1.000000
21
0.000000
12
0.000000
22
0.000000
13
0.000000
23
0.000000
0
ENDBLK
5
67
100
AcDbEntity
8
0
100
AcDbBlockEnd
0
ENDSEC
0
SECTION
2
ENTITIES
0
POLYLINE
5
68
100
AcDbEntity
8
1
6
CONTINUOUS
62
5
100
AcDb2dPolyline
66
1
10
0.0
20
0.0
30
0.0
70
0
0
VERTEX
5
69
100
AcDbEntity
8
1
100
AcDbVertex
100
AcDb2dVertex
62
5
10
275.250000
20
329.312500
0
VERTEX
5
6a
100
AcDbEntity
8
1
100
AcDbVertex
100
AcDb2dVertex
62
5
10
276.000000
20
328.062500
0
VERTEX
5
6b
100
AcDbEntity
8
1
100
AcDbVertex
100
AcDb2dVertex
62
5
10
276.750000
20
326.500000
0
VERTEX
5
6c
100
AcDbEntity
8
1
100
AcDbVertex
100
AcDb2dVertex
62
5
10
277.000000
20
325.250000
0
VERTEX
5
6d
100
AcDbEntity
8
1
100
AcDbVertex
100
AcDb2dVertex
62
5
10
276.750000
20
324.000000
0
VERTEX
5
6e
100
AcDbEntity
8
1
100
AcDbVertex
100
AcDb2dVertex
62
5
10
276.250000
20
322.437500
0
VERTEX
5
6f
100
AcDbEntity
8
1
100
AcDbVertex
100
AcDb2dVertex
62
5
10
275.250000
20
320.875000
0
SEQEND
5
70
100
AcDbEntity
8
1
0
POLYLINE
5
71
100
AcDbEntity
8
1
6
CONTINUOUS
62
5
100
AcDb2dPolyline
66
1
10
0.0
20
0.0
30
0.0
70
0
0
VERTEX
5
72
100
AcDbEntity
8
1
100
AcDbVertex
100
AcDb2dVertex
62
5
10
251.250000
20
327.125000
0
VERTEX
5
73
100
AcDbEntity
8
1
100
AcDbVertex
100
AcDb2dVertex
62
5
10
251.250000
20
326.187500
0
VERTEX
5
74
100
AcDbEntity
8
1
100
AcDbVertex
100
AcDb2dVertex
62
5
10
251.750000
20
324.000000
0
VERTEX
5
75
100
AcDbEntity
8
1
100
AcDbVertex
100
AcDb2dVertex
62
5
10
252.000000
20
323.062500
0
VERTEX
5
76
100
AcDbEntity
8
1
100
AcDbVertex
100
AcDb2dVertex
62
5
10
252.500000
20
322.437500
0
VERTEX
5
77
100
AcDbEntity
8
1
100
AcDbVertex
100
AcDb2dVertex
62
5
10
253.000000
20
322.437500
0
VERTEX
5
78
100
AcDbEntity
8
1
100
AcDbVertex
100
AcDb2dVertex
62
5
10
253.750000
20
323.375000
0
SEQEND
5
79
100
AcDbEntity
8
1
0
POLYLINE
5
7a
100
AcDbEntity
8
1
6
CONTINUOUS
62
5
100
AcDb2dPolyline
66
1
10
0.0
20
0.0
30
0.0
70
0
0
VERTEX
5
7b
100
AcDbEntity
8
1
100
AcDbVertex
100
AcDb2dVertex
62
5
10
255.500000
20
326.812500
0
VERTEX
5
7c
100
AcDbEntity
8
1
100
AcDbVertex
100
AcDb2dVertex
62
5
10
256.250000
20
325.250000
0
VERTEX
5
7d
100
AcDbEntity
8
1
100
AcDbVertex
100
AcDb2dVertex
62
5
10
256.500000
20
324.000000
0
SEQEND
5
7e
100
AcDbEntity
8
1
0
LINE
5
7f
100
AcDbEntity
8
1
100
AcDbLine
6
CONTINUOUS
62
5
10
259.250000
20
326.812500
11
264.250000
21
328.062500
0
POLYLINE
5
80
100
AcDbEntity
8
1
6
CONTINUOUS
62
5
100
AcDb2dPolyline
66
1
10
0.0
20
0.0
30
0.0
70
0
0
VERTEX
5
81
100
AcDbEntity
8
1
100
AcDbVertex
100
AcDb2dVertex
62
5
10
263.000000
20
327.750000
0
VERTEX
5
82
100
AcDbEntity
8
1
100
AcDbVertex
100
AcDb2dVertex
62
5
10
262.000000
20
326.500000
0
VERTEX
5
83
100
AcDbEntity
8
1
100
AcDbVertex
100
AcDb2dVertex
62
5
10
261.500000
20
325.250000
0
VERTEX
5
84
100
AcDbEntity
8
1
100
AcDbVertex
100
AcDb2dVertex
62
5
10
261.500000
20
323.687500
0
VERTEX
5
85
100
AcDbEntity
8
1
100
AcDbVertex
100
AcDb2dVertex
62
5
10
261.750000
20
322.750000
0
VERTEX
5
86
100
AcDbEntity
8
1
100
AcDbVertex
100
AcDb2dVertex
62
5
10
262.500000
20
322.125000
0
VERTEX
5
87
100
AcDbEntity
8
1
100
AcDbVertex
100
AcDb2dVertex
62
5
10
263.750000
20
321.812500
0
SEQEND
5
88
100
AcDbEntity
8
1
0
POLYLINE
5
89
100
AcDbEntity
8
1
6
CONTINUOUS
62
5
100
AcDb2dPolyline
66
1
10
0.0
20
0.0
30
0.0
70
0
0
VERTEX
5
8a
100
AcDbEntity
8
1
100
AcDbVertex
100
AcDb2dVertex
62
5
10
243.000000
20
325.562500
0
VERTEX
5
8b
100
AcDbEntity
8
1
100
AcDbVertex
100
AcDb2dVertex
62
5
10
245.500000
20
326.812500
0
VERTEX
5
8c
100
AcDbEntity
8
1
100
AcDbVertex
100
AcDb2dVertex
62
5
10
246.250000
20
327.125000
0
VERTEX
5
8d
100
AcDbEntity
8
1
100
AcDbVertex
100
AcDb2dVertex
62
5
10
247.250000
20
327.125000
0
VERTEX
5
8e
100
AcDbEntity
8
1
100
AcDbVertex
100
AcDb2dVertex
62
5
10
248.250000
20
326.500000
0
VERTEX
5
8f
100
AcDbEntity
8
1
100
AcDbVertex
100
AcDb2dVertex
62
5
10
248.750000
20
325.250000
0
VERTEX
5
90
100
AcDbEntity
8
1
100
AcDbVertex
100
AcDb2dVertex
62
5
10
248.750000
20
324.312500
0
VERTEX
5
91
100
AcDbEntity
8
1
100
AcDbVertex
100
AcDb2dVertex
62
5
10
247.750000
20
323.062500
0
VERTEX
5
92
100
AcDbEntity
8
1
100
AcDbVertex
100
AcDb2dVertex
62
5
10
246.750000
20
322.437500
0
VERTEX
5
93
100
AcDbEntity
8
1
100
AcDbVertex
100
AcDb2dVertex
62
5
10
245.500000
20
322.125000
0
SEQEND
5
94
100
AcDbEntity
8
1
0
POLYLINE
5
95
100
AcDbEntity
8
1
6
CONTINUOUS
62
5
100
AcDb2dPolyline
66
1
10
0.0
20
0.0
30
0.0
70
0
0
VERTEX
5
96
100
AcDbEntity
8
1
100
AcDbVertex
100
AcDb2dVertex
62
5
10
236.000000
20
328.062500
0
VERTEX
5
97
100
AcDbEntity
8
1
100
AcDbVertex
100
AcDb2dVertex
62
5
10
236.000000
20
327.125000
0
VERTEX
5
98
100
AcDbEntity
8
1
100
AcDbVertex
100
AcDb2dVertex
62
5
10
235.750000
20
325.875000
0
VERTEX
5
99
100
AcDbEntity
8
1
100
AcDbVertex
100
AcDb2dVertex
62
5
10
235.750000
20
323.062500
0
VERTEX
5
9a
100
AcDbEntity
8
1
100
AcDbVertex
100
AcDb2dVertex
62
5
10
236.250000
20
322.125000
0
SEQEND
5
9b
100
AcDbEntity
8
1
0
POLYLINE
5
9c
100
AcDbEntity
8
1
6
CONTINUOUS
62
5
100
AcDb2dPolyline
66
1
10
0.0
20
0.0
30
0.0
70
0
0
VERTEX
5
9d
100
AcDbEntity
8
1
100
AcDbVertex
100
AcDb2dVertex
62
5
10
237.750000
20
327.125000
0
VERTEX
5
9e
100
AcDbEntity
8
1
100
AcDbVertex
100
AcDb2dVertex
62
5
10
239.500000
20
327.125000
0
VERTEX
5
9f
100
AcDbEntity
8
1
100
AcDbVertex
100
AcDb2dVertex
62
5
10
240.250000
20
326.812500
0
SEQEND
5
a0
100
AcDbEntity
8
1
0
POLYLINE
5
a1
100
AcDbEntity
8
1
6
CONTINUOUS
62
5
100
AcDb2dPolyline
66
1
10
0.0
20
0.0
30
0.0
70
0
0
VERTEX
5
a2
100
AcDbEntity
8
1
100
AcDbVertex
100
AcDb2dVertex
62
5
10
237.500000
20
323.375000
0
VERTEX
5
a3
100
AcDbEntity
8
1
100
AcDbVertex
100
AcDb2dVertex
62
5
10
237.750000
20
323.062500
0
VERTEX
5
a4
100
AcDbEntity
8
1
100
AcDbVertex
100
AcDb2dVertex
62
5
10
238.500000
20
322.750000
0
VERTEX
5
a5
100
AcDbEntity
8
1
100
AcDbVertex
100
AcDb2dVertex
62
5
10
240.750000
20
322.750000
0
SEQEND
5
a6
100
AcDbEntity
8
1
0
POLYLINE
5
a7
100
AcDbEntity
8
1
6
CONTINUOUS
62
5
100
AcDb2dPolyline
66
1
10
0.0
20
0.0
30
0.0
70
1
0
VERTEX
5
a8
100
AcDbEntity
8
1
100
AcDbVertex
100
AcDb2dVertex
62
5
10
267.250000
20
325.562500
0
VERTEX
5
a9
100
AcDbEntity
8
1
100
AcDbVertex
100
AcDb2dVertex
62
5
10
267.250000
20
325.250000
0
VERTEX
5
aa
100
AcDbEntity
8
1
100
AcDbVertex
100
AcDb2dVertex
62
5
10
267.500000
20
325.250000
0
VERTEX
5
ab
100
AcDbEntity
8
1
100
AcDbVertex
100
AcDb2dVertex
62
5
10
267.500000
20
325.562500
0
VERTEX
5
ac
100
AcDbEntity
8
1
100
AcDbVertex
100
AcDb2dVertex
62
5
10
267.250000
20
325.562500
0
SEQEND
5
ad
100
AcDbEntity
8
1
0
POLYLINE
5
ae
100
AcDbEntity
8
1
6
CONTINUOUS
62
5
100
AcDb2dPolyline
66
1
10
0.0
20
0.0
30
0.0
70
1
0
VERTEX
5
af
100
AcDbEntity
8
1
100
AcDbVertex
100
AcDb2dVertex
62
5
10
269.750000
20
325.250000
0
VERTEX
5
b0
100
AcDbEntity
8
1
100
AcDbVertex
100
AcDb2dVertex
62
5
10
270.000000
20
325.250000
0
VERTEX
5
b1
100
AcDbEntity
8
1
100
AcDbVertex
100
AcDb2dVertex
62
5
10
270.000000
20
325.562500
0
VERTEX
5
b2
100
AcDbEntity
8
1
100
AcDbVertex
100
AcDb2dVertex
62
5
10
269.750000
20
325.562500
0
VERTEX
5
b3
100
AcDbEntity
8
1
100
AcDbVertex
100
AcDb2dVertex
62
5
10
269.750000
20
325.250000
0
SEQEND
5
b4
100
AcDbEntity
8
1
0
POLYLINE
5
b5
100
AcDbEntity
8
1
6
CONTINUOUS
62
5
100
AcDb2dPolyline
66
1
10
0.0
20
0.0
30
0.0
70
1
0
VERTEX
5
b6
100
AcDbEntity
8
1
100
AcDbVertex
100
AcDb2dVertex
62
5
10
272.250000
20
325.250000
0
VERTEX
5
b7
100
AcDbEntity
8
1
100
AcDbVertex
100
AcDb2dVertex
62
5
10
272.500000
20
325.250000
0
VERTEX
5
b8
100
AcDbEntity
8
1
100
AcDbVertex
100
AcDb2dVertex
62
5
10
272.500000
20
325.562500
0
VERTEX
5
b9
100
AcDbEntity
8
1
100
AcDbVertex
100
AcDb2dVertex
62
5
10
272.250000
20
325.562500
0
VERTEX
5
ba
100
AcDbEntity
8
1
100
AcDbVertex
100
AcDb2dVertex
62
5
10
272.250000
20
325.250000
0
SEQEND
5
bb
100
AcDbEntity
8
1
0
POLYLINE
5
bc
100
AcDbEntity
8
1
6
CONTINUOUS
62
5
100
AcDb2dPolyline
66
1
10
0.0
20
0.0
30
0.0
70
0
0
VERTEX
5
bd
100
AcDbEntity
8
1
100
AcDbVertex
100
AcDb2dVertex
62
5
10
211.000000
20
325.562500
0
VERTEX
5
be
100
AcDbEntity
8
1
100
AcDbVertex
100
AcDb2dVertex
62
5
10
216.250000
20
326.187500
0
VERTEX
5
bf
100
AcDbEntity
8
1
100
AcDbVertex
100
AcDb2dVertex
62
5
10
216.250000
20
325.875000
0
VERTEX
5
c0
100
AcDbEntity
8
1
100
AcDbVertex
100
AcDb2dVertex
62
5
10
215.000000
20
324.312500
0
SEQEND
5
c1
100
AcDbEntity
8
1
0
POLYLINE
5
c2
100
AcDbEntity
8
1
6
CONTINUOUS
62
5
100
AcDb2dPolyline
66
1
10
0.0
20
0.0
30
0.0
70
0
0
VERTEX
5
c3
100
AcDbEntity
8
1
100
AcDbVertex
100
AcDb2dVertex
62
5
10
213.000000
20
328.375000
0
VERTEX
5
c4
100
AcDbEntity
8
1
100
AcDbVertex
100
AcDb2dVertex
62
5
10
213.000000
20
322.437500
0
VERTEX
5
c5
100
AcDbEntity
8
1
100
AcDbVertex
100
AcDb2dVertex
62
5
10
213.500000
20
321.812500
0
VERTEX
5
c6
100
AcDbEntity
8
1
100
AcDbVertex
100
AcDb2dVertex
62
5
10
216.250000
20
321.812500
0
SEQEND
5
c7
100
AcDbEntity
8
1
0
LINE
5
c8
100
AcDbEntity
8
1
100
AcDbLine
6
CONTINUOUS
62
5
10
219.750000
20
327.437500
11
220.750000
21
326.187500
0
POLYLINE
5
c9
100
AcDbEntity
8
1
6
CONTINUOUS
62
5
100
AcDb2dPolyline
66
1
10
0.0
20
0.0
30
0.0
70
0
0
VERTEX
5
ca
100
AcDbEntity
8
1
100
AcDbVertex
100
AcDb2dVertex
62
5
10
219.500000
20
322.437500
0
VERTEX
5
cb
100
AcDbEntity
8
1
100
AcDbVertex
100
AcDb2dVertex
62
5
10
221.250000
20
323.375000
0
VERTEX
5
cc
100
AcDbEntity
8
1
100
AcDbVertex
100
AcDb2dVertex
62
5
10
222.750000
20
324.625000
0
VERTEX
5
cd
100
AcDbEntity
8
1
100
AcDbVertex
100
AcDb2dVertex
62
5
10
224.250000
20
326.187500
0
SEQEND
5
ce
100
AcDbEntity
8
1
0
LINE
5
cf
100
AcDbEntity
8
1
100
AcDbLine
6
CONTINUOUS
62
5
10
203.750000
20
327.437500
11
204.750000
21
326.187500
0
POLYLINE
5
d0
100
AcDbEntity
8
1
6
CONTINUOUS
62
5
100
AcDb2dPolyline
66
1
10
0.0
20
0.0
30
0.0
70
0
0
VERTEX
5
d1
100
AcDbEntity
8
1
100
AcDbVertex
100
AcDb2dVertex
62
5
10
203.500000
20
322.437500
0
VERTEX
5
d2
100
AcDbEntity
8
1
100
AcDbVertex
100
AcDb2dVertex
62
5
10
205.250000
20
323.375000
0
VERTEX
5
d3
100
AcDbEntity
8
1
100
AcDbVertex
100
AcDb2dVertex
62
5
10
206.750000
20
324.625000
0
VERTEX
5
d4
100
AcDbEntity
8
1
100
AcDbVertex
100
AcDb2dVertex
62
5
10
208.250000
20
326.187500
0
SEQEND
5
d5
100
AcDbEntity
8
1
0
POLYLINE
5
d6
100
AcDbEntity
8
1
6
CONTINUOUS
62
5
100
AcDb2dPolyline
66
1
10
0.0
20
0.0
30
0.0
70
0
0
VERTEX
5
d7
100
AcDbEntity
8
1
100
AcDbVertex
100
AcDb2dVertex
62
5
10
195.750000
20
327.125000
0
VERTEX
5
d8
100
AcDbEntity
8
1
100
AcDbVertex
100
AcDb2dVertex
62
5
10
199.750000
20
327.125000
0
VERTEX
5
d9
100
AcDbEntity
8
1
100
AcDbVertex
100
AcDb2dVertex
62
5
10
199.750000
20
322.750000
0
VERTEX
5
da
100
AcDbEntity
8
1
100
AcDbVertex
100
AcDb2dVertex
62
5
10
195.750000
20
322.750000
0
SEQEND
5
db
100
AcDbEntity
8
1
0
POLYLINE
5
dc
100
AcDbEntity
8
1
6
CONTINUOUS
62
5
100
AcDb2dPolyline
66
1
10
0.0
20
0.0
30
0.0
70
0
0
VERTEX
5
dd
100
AcDbEntity
8
1
100
AcDbVertex
100
AcDb2dVertex
62
5
10
171.750000
20
324.937500
0
VERTEX
5
de
100
AcDbEntity
8
1
100
AcDbVertex
100
AcDb2dVertex
62
5
10
172.750000
20
326.187500
0
VERTEX
5
df
100
AcDbEntity
8
1
100
AcDbVertex
100
AcDb2dVertex
62
5
10
173.500000
20
327.437500
0
VERTEX
5
e0
100
AcDbEntity
8
1
100
AcDbVertex
100
AcDb2dVertex
62
5
10
176.000000
20
327.437500
0
VERTEX
5
e1
100
AcDbEntity
8
1
100
AcDbVertex
100
AcDb2dVertex
62
5
10
176.000000
20
327.125000
0
VERTEX
5
e2
100
AcDbEntity
8
1
100
AcDbVertex
100
AcDb2dVertex
62
5
10
175.000000
20
324.625000
0
VERTEX
5
e3
100
AcDbEntity
8
1
100
AcDbVertex
100
AcDb2dVertex
62
5
10
173.750000
20
322.750000
0
VERTEX
5
e4
100
AcDbEntity
8
1
100
AcDbVertex
100
AcDb2dVertex
62
5
10
172.250000
20
321.500000
0
SEQEND
5
e5
100
AcDbEntity
8
1
0
LINE
5
e6
100
AcDbEntity
8
1
100
AcDbLine
6
CONTINUOUS
62
5
10
173.500000
20
325.562500
11
174.750000
21
324.312500
0
POLYLINE
5
e7
100
AcDbEntity
8
1
6
CONTINUOUS
62
5
100
AcDb2dPolyline
66
1
10
0.0
20
0.0
30
0.0
70
0
0
VERTEX
5
e8
100
AcDbEntity
8
1
100
AcDbVertex
100
AcDb2dVertex
62
5
10
178.750000
20
325.562500
0
VERTEX
5
e9
100
AcDbEntity
8
1
100
AcDbVertex
100
AcDb2dVertex
62
5
10
179.000000
20
325.250000
0
VERTEX
5
ea
100
AcDbEntity
8
1
100
AcDbVertex
100
AcDb2dVertex
62
5
10
185.750000
20
325.250000
0
SEQEND
5
eb
100
AcDbEntity
8
1
0
POLYLINE
5
ec
100
AcDbEntity
8
1
6
CONTINUOUS
62
5
100
AcDb2dPolyline
66
1
10
0.0
20
0.0
30
0.0
70
0
0
VERTEX
5
ed
100
AcDbEntity
8
1
100
AcDbVertex
100
AcDb2dVertex
62
5
10
156.250000
20
327.750000
0
VERTEX
5
ee
100
AcDbEntity
8
1
100
AcDbVertex
100
AcDb2dVertex
62
5
10
156.250000
20
322.437500
0
VERTEX
5
ef
100
AcDbEntity
8
1
100
AcDbVertex
100
AcDb2dVertex
62
5
10
156.750000
20
321.812500
0
VERTEX
5
f0
100
AcDbEntity
8
1
100
AcDbVertex
100
AcDb2dVertex
62
5
10
160.250000
20
321.812500
0
SEQEND
5
f1
100
AcDbEntity
8
1
0
LINE
5
f2
100
AcDbEntity
8
1
100
AcDbLine
6
CONTINUOUS
62
5
10
159.750000
20
326.187500
11
156.250000
21
325.250000
0
POLYLINE
5
f3
100
AcDbEntity
8
1
6
CONTINUOUS
62
5
100
AcDb2dPolyline
66
1
10
0.0
20
0.0
30
0.0
70
0
0
VERTEX
5
f4
100
AcDbEntity
8
1
100
AcDbVertex
100
AcDb2dVertex
62
5
10
162.750000
20
325.562500
0
VERTEX
5
f5
100
AcDbEntity
8
1
100
AcDbVertex
100
AcDb2dVertex
62
5
10
163.000000
20
325.250000
0
VERTEX
5
f6
100
AcDbEntity
8
1
100
AcDbVertex
100
AcDb2dVertex
62
5
10
169.750000
20
325.250000
0
SEQEND
5
f7
100
AcDbEntity
8
1
0
POLYLINE
5
f8
100
AcDbEntity
8
1
6
CONTINUOUS
62
5
100
AcDb2dPolyline
66
1
10
0.0
20
0.0
30
0.0
70
0
0
VERTEX
5
f9
100
AcDbEntity
8
1
100
AcDbVertex
100
AcDb2dVertex
62
5
10
187.500000
20
329.000000
0
VERTEX
5
fa
100
AcDbEntity
8
1
100
AcDbVertex
100
AcDb2dVertex
62
5
10
187.500000
20
323.375000
0
VERTEX
5
fb
100
AcDbEntity
8
1
100
AcDbVertex
100
AcDb2dVertex
62
5
10
187.000000
20
322.125000
0
VERTEX
5
fc
100
AcDbEntity
8
1
100
AcDbVertex
100
AcDb2dVertex
62
5
10
186.500000
20
321.187500
0
SEQEND
5
fd
100
AcDbEntity
8
1
0
POLYLINE
5
fe
100
AcDbEntity
8
1
6
CONTINUOUS
62
5
100
AcDb2dPolyline
66
1
10
0.0
20
0.0
30
0.0
70
0
0
VERTEX
5
ff
100
AcDbEntity
8
1
100
AcDbVertex
100
AcDb2dVertex
62
5
10
191.500000
20
321.500000
0
VERTEX
5
100
100
AcDbEntity
8
1
100
AcDbVertex
100
AcDb2dVertex
62
5
10
192.500000
20
320.875000
0
VERTEX
5
101
100
AcDbEntity
8
1
100
AcDbVertex
100
AcDb2dVertex
62
5
10
192.500000
20
329.000000
0
VERTEX
5
102
100
AcDbEntity
8
1
100
AcDbVertex
100
AcDb2dVertex
62
5
10
187.500000
20
329.000000
0
SEQEND
5
103
100
AcDbEntity
8
1
0
LINE
5
104
100
AcDbEntity
8
1
100
AcDbLine
6
CONTINUOUS
62
5
10
187.500000
20
326.500000
11
192.500000
21
326.500000
0
LINE
5
105
100
AcDbEntity
8
1
100
AcDbLine
6
CONTINUOUS
62
5
10
190.000000
20
329.000000
11
190.000000
21
320.875000
0
LINE
5
106
100
AcDbEntity
8
1
100
AcDbLine
6
CONTINUOUS
62
5
10
187.500000
20
324.000000
11
192.500000
21
324.000000
0
POLYLINE
5
107
100
AcDbEntity
8
1
6
CONTINUOUS
62
5
100
AcDb2dPolyline
66
1
10
0.0
20
0.0
30
0.0
70
0
0
VERTEX
5
108
100
AcDbEntity
8
1
100
AcDbVertex
100
AcDb2dVertex
62
5
10
229.250000
20
326.187500
0
VERTEX
5
109
100
AcDbEntity
8
1
100
AcDbVertex
100
AcDb2dVertex
62
5
10
229.500000
20
326.187500
0
VERTEX
5
10a
100
AcDbEntity
8
1
100
AcDbVertex
100
AcDb2dVertex
62
5
10
231.250000
20
324.937500
0
SEQEND
5
10b
100
AcDbEntity
8
1
0
LINE
5
10c
100
AcDbEntity
8
1
100
AcDbLine
6
CONTINUOUS
62
5
10
229.250000
20
329.000000
11
229.250000
21
321.500000
0
POLYLINE
5
10d
100
AcDbEntity
8
1
6
DOT2
62
5
100
AcDb2dPolyline
66
1
10
0.0
20
0.0
30
0.0
70
1
0
VERTEX
5
10e
100
AcDbEntity
8
1
100
AcDbVertex
100
AcDb2dVertex
62
5
10
162.500000
20
198.749394
0
VERTEX
5
10f
100
AcDbEntity
8
1
100
AcDbVertex
100
AcDb2dVertex
62
5
10
163.125000
20
198.749394
0
VERTEX
5
110
100
AcDbEntity
8
1
100
AcDbVertex
100
AcDb2dVertex
62
5
10
163.437500
20
198.436894
0
VERTEX
5
111
100
AcDbEntity
8
1
100
AcDbVertex
100
AcDb2dVertex
62
5
10
164.062500
20
197.186894
0
VERTEX
5
112
100
AcDbEntity
8
1
100
AcDbVertex
100
AcDb2dVertex
62
5
10
164.375000
20
195.936894
0
VERTEX
5
113
100
AcDbEntity
8
1
100
AcDbVertex
100
AcDb2dVertex
62
5
10
164.375000
20
194.061894
0
VERTEX
5
114
100
AcDbEntity
8
1
100
AcDbVertex
100
AcDb2dVertex
62
5
10
164.062500
20
192.811894
0
VERTEX
5
115
100
AcDbEntity
8
1
100
AcDbVertex
100
AcDb2dVertex
62
5
10
163.437500
20
191.561894
0
VERTEX
5
116
100
AcDbEntity
8
1
100
AcDbVertex
100
AcDb2dVertex
62
5
10
163.125000
20
191.249394
0
VERTEX
5
117
100
AcDbEntity
8
1
100
AcDbVertex
100
AcDb2dVertex
62
5
10
162.500000
20
191.249394
0
VERTEX
5
118
100
AcDbEntity
8
1
100
AcDbVertex
100
AcDb2dVertex
62
5
10
162.187500
20
191.561894
0
VERTEX
5
119
100
AcDbEntity
8
1
100
AcDbVertex
100
AcDb2dVertex
62
5
10
161.562500
20
192.811894
0
VERTEX
5
11a
100
AcDbEntity
8
1
100
AcDbVertex
100
AcDb2dVertex
62
5
10
161.250000
20
194.061894
0
VERTEX
5
11b
100
AcDbEntity
8
1
100
AcDbVertex
100
AcDb2dVertex
62
5
10
161.250000
20
195.936894
0
VERTEX
5
11c
100
AcDbEntity
8
1
100
AcDbVertex
100
AcDb2dVertex
62
5
10
161.562500
20
197.186894
0
VERTEX
5
11d
100
AcDbEntity
8
1
100
AcDbVertex
100
AcDb2dVertex
62
5
10
162.187500
20
198.436894
0
VERTEX
5
11e
100
AcDbEntity
8
1
100
AcDbVertex
100
AcDb2dVertex
62
5
10
162.500000
20
198.749394
0
SEQEND
5
11f
100
AcDbEntity
8
1
0
POLYLINE
5
120
100
AcDbEntity
8
1
6
DOT2
62
5
100
AcDb2dPolyline
66
1
10
0.0
20
0.0
30
0.0
70
1
0
VERTEX
5
121
100
AcDbEntity
8
1
100
AcDbVertex
100
AcDb2dVertex
62
5
10
157.500000
20
198.749394
0
VERTEX
5
122
100
AcDbEntity
8
1
100
AcDbVertex
100
AcDb2dVertex
62
5
10
158.125000
20
198.749394
0
VERTEX
5
123
100
AcDbEntity
8
1
100
AcDbVertex
100
AcDb2dVertex
62
5
10
158.750000
20
198.436894
0
VERTEX
5
124
100
AcDbEntity
8
1
100
AcDbVertex
100
AcDb2dVertex
62
5
10
159.062500
20
197.811894
0
VERTEX
5
125
100
AcDbEntity
8
1
100
AcDbVertex
100
AcDb2dVertex
62
5
10
159.062500
20
196.561894
0
VERTEX
5
126
100
AcDbEntity
8
1
100
AcDbVertex
100
AcDb2dVertex
62
5
10
158.750000
20
195.936894
0
VERTEX
5
127
100
AcDbEntity
8
1
100
AcDbVertex
100
AcDb2dVertex
62
5
10
156.875000
20
194.686894
0
VERTEX
5
128
100
AcDbEntity
8
1
100
AcDbVertex
100
AcDb2dVertex
62
5
10
156.250000
20
193.749394
0
VERTEX
5
129
100
AcDbEntity
8
1
100
AcDbVertex
100
AcDb2dVertex
62
5
10
156.250000
20
192.499394
0
VERTEX
5
12a
100
AcDbEntity
8
1
100
AcDbVertex
100
AcDb2dVertex
62
5
10
156.562500
20
191.874394
0
VERTEX
5
12b
100
AcDbEntity
8
1
100
AcDbVertex
100
AcDb2dVertex
62
5
10
156.875000
20
191.561894
0
VERTEX
5
12c
100
AcDbEntity
8
1
100
AcDbVertex
100
AcDb2dVertex
62
5
10
157.500000
20
191.249394
0
VERTEX
5
12d
100
AcDbEntity
8
1
100
AcDbVertex
100
AcDb2dVertex
62
5
10
158.125000
20
191.249394
0
VERTEX
5
12e
100
AcDbEntity
8
1
100
AcDbVertex
100
AcDb2dVertex
62
5
10
158.750000
20
191.561894
0
VERTEX
5
12f
100
AcDbEntity
8
1
100
AcDbVertex
100
AcDb2dVertex
62
5
10
159.062500
20
191.874394
0
VERTEX
5
130
100
AcDbEntity
8
1
100
AcDbVertex
100
AcDb2dVertex
62
5
10
159.375000
20
192.499394
0
VERTEX
5
131
100
AcDbEntity
8
1
100
AcDbVertex
100
AcDb2dVertex
62
5
10
159.375000
20
193.749394
0
VERTEX
5
132
100
AcDbEntity
8
1
100
AcDbVertex
100
AcDb2dVertex
62
5
10
158.750000
20
194.686894
0
VERTEX
5
133
100
AcDbEntity
8
1
100
AcDbVertex
100
AcDb2dVertex
62
5
10
156.875000
20
195.936894
0
VERTEX
5
134
100
AcDbEntity
8
1
100
AcDbVertex
100
AcDb2dVertex
62
5
10
156.562500
20
196.561894
0
VERTEX
5
135
100
AcDbEntity
8
1
100
AcDbVertex
100
AcDb2dVertex
62
5
10
156.562500
20
197.811894
0
VERTEX
5
136
100
AcDbEntity
8
1
100
AcDbVertex
100
AcDb2dVertex
62
5
10
156.875000
20
198.436894
0
VERTEX
5
137
100
AcDbEntity
8
1
100
AcDbVertex
100
AcDb2dVertex
62
5
10
157.500000
20
198.749394
0
SEQEND
5
138
100
AcDbEntity
8
1
0
LINE
5
139
100
AcDbEntity
8
1
100
AcDbLine
6
CONTINUOUS
62
5
10
131.500000
20
326.500000
11
135.750000
21
327.125000
0
LINE
5
13a
100
AcDbEntity
8
1
100
AcDbLine
6
CONTINUOUS
62
5
10
131.000000
20
324.312500
11
136.500000
21
324.937500
0
LINE
5
13b
100
AcDbEntity
8
1
100
AcDbLine
6
CONTINUOUS
62
5
10
133.250000
20
329.000000
11
134.000000
21
321.500000
0
LINE
5
13c
100
AcDbEntity
8
1
100
AcDbLine
6
CONTINUOUS
62
5
10
139.750000
20
327.437500
11
140.750000
21
326.187500
0
POLYLINE
5
13d
100
AcDbEntity
8
1
6
CONTINUOUS
62
5
100
AcDb2dPolyline
66
1
10
0.0
20
0.0
30
0.0
70
0
0
VERTEX
5
13e
100
AcDbEntity
8
1
100
AcDbVertex
100
AcDb2dVertex
62
5
10
139.500000
20
322.437500
0
VERTEX
5
13f
100
AcDbEntity
8
1
100
AcDbVertex
100
AcDb2dVertex
62
5
10
141.250000
20
323.375000
0
VERTEX
5
140
100
AcDbEntity
8
1
100
AcDbVertex
100
AcDb2dVertex
62
5
10
142.750000
20
324.625000
0
VERTEX
5
141
100
AcDbEntity
8
1
100
AcDbVertex
100
AcDb2dVertex
62
5
10
144.250000
20
326.187500
0
SEQEND
5
142
100
AcDbEntity
8
1
0
POLYLINE
5
143
100
AcDbEntity
8
1
6
CONTINUOUS
62
5
100
AcDb2dPolyline
66
1
10
0.0
20
0.0
30
0.0
70
0
0
VERTEX
5
144
100
AcDbEntity
8
1
100
AcDbVertex
100
AcDb2dVertex
62
5
10
133.500000
20
317.750000
0
VERTEX
5
145
100
AcDbEntity
8
1
100
AcDbVertex
100
AcDb2dVertex
62
5
10
134.000000
20
317.750000
0
VERTEX
5
146
100
AcDbEntity
8
1
100
AcDbVertex
100
AcDb2dVertex
62
5
10
134.000000
20
317.125000
0
VERTEX
5
147
100
AcDbEntity
8
1
100
AcDbVertex
100
AcDb2dVertex
62
5
10
133.500000
20
317.125000
0
VERTEX
5
148
100
AcDbEntity
8
1
100
AcDbVertex
100
AcDb2dVertex
62
5
10
133.500000
20
317.750000
0
VERTEX
5
149
100
AcDbEntity
8
1
100
AcDbVertex
100
AcDb2dVertex
62
5
10
134.000000
20
317.125000
0
SEQEND
5
14a
100
AcDbEntity
8
1
0
LINE
5
14b
100
AcDbEntity
8
1
100
AcDbLine
6
CONTINUOUS
62
5
10
134.000000
20
317.750000
11
133.500000
21
317.125000
0
POLYLINE
5
14c
100
AcDbEntity
8
1
6
CONTINUOUS
62
5
100
AcDb2dPolyline
66
1
10
0.0
20
0.0
30
0.0
70
0
0
VERTEX
5
14d
100
AcDbEntity
8
1
100
AcDbVertex
100
AcDb2dVertex
62
5
10
133.500000
20
313.062500
0
VERTEX
5
14e
100
AcDbEntity
8
1
100
AcDbVertex
100
AcDb2dVertex
62
5
10
134.000000
20
313.062500
0
VERTEX
5
14f
100
AcDbEntity
8
1
100
AcDbVertex
100
AcDb2dVertex
62
5
10
134.000000
20
312.437500
0
VERTEX
5
150
100
AcDbEntity
8
1
100
AcDbVertex
100
AcDb2dVertex
62
5
10
133.500000
20
312.437500
0
VERTEX
5
151
100
AcDbEntity
8
1
100
AcDbVertex
100
AcDb2dVertex
62
5
10
133.500000
20
313.062500
0
VERTEX
5
152
100
AcDbEntity
8
1
100
AcDbVertex
100
AcDb2dVertex
62
5
10
134.000000
20
312.437500
0
SEQEND
5
153
100
AcDbEntity
8
1
0
LINE
5
154
100
AcDbEntity
8
1
100
AcDbLine
6
CONTINUOUS
62
5
10
134.000000
20
313.062500
11
133.500000
21
312.437500
0
POLYLINE
5
155
100
AcDbEntity
8
1
6
CONTINUOUS
62
5
100
AcDb2dPolyline
66
1
10
0.0
20
0.0
30
0.0
70
1
0
VERTEX
5
156
100
AcDbEntity
8
1
100
AcDbVertex
100
AcDb2dVertex
62
5
10
139.500000
20
319.312500
0
VERTEX
5
157
100
AcDbEntity
8
1
100
AcDbVertex
100
AcDb2dVertex
62
5
10
139.500000
20
316.187500
0
VERTEX
5
158
100
AcDbEntity
8
1
100
AcDbVertex
100
AcDb2dVertex
62
5
10
144.000000
20
316.187500
0
VERTEX
5
159
100
AcDbEntity
8
1
100
AcDbVertex
100
AcDb2dVertex
62
5
10
144.000000
20
319.312500
0
VERTEX
5
15a
100
AcDbEntity
8
1
100
AcDbVertex
100
AcDb2dVertex
62
5
10
139.500000
20
319.312500
0
SEQEND
5
15b
100
AcDbEntity
8
1
0
LINE
5
15c
100
AcDbEntity
8
1
100
AcDbLine
6
CONTINUOUS
62
5
10
139.500000
20
317.750000
11
144.000000
21
317.750000
0
LINE
5
15d
100
AcDbEntity
8
1
100
AcDbLine
6
CONTINUOUS
62
5
10
139.000000
20
314.937500
11
144.500000
21
314.937500
0
LINE
5
15e
100
AcDbEntity
8
1
100
AcDbLine
6
CONTINUOUS
62
5
10
138.500000
20
313.375000
11
145.000000
21
313.375000
0
LINE
5
15f
100
AcDbEntity
8
1
100
AcDbLine
6
CONTINUOUS
62
5
10
141.750000
20
319.312500
11
141.750000
21
313.375000
0
POLYLINE
5
160
100
AcDbEntity
8
1
6
CONTINUOUS
62
5
100
AcDb2dPolyline
66
1
10
0.0
20
0.0
30
0.0
70
0
0
VERTEX
5
161
100
AcDbEntity
8
1
100
AcDbVertex
100
AcDb2dVertex
62
5
10
139.500000
20
312.437500
0
VERTEX
5
162
100
AcDbEntity
8
1
100
AcDbVertex
100
AcDb2dVertex
62
5
10
139.000000
20
311.500000
0
VERTEX
5
163
100
AcDbEntity
8
1
100
AcDbVertex
100
AcDb2dVertex
62
5
10
138.250000
20
310.875000
0
SEQEND
5
164
100
AcDbEntity
8
1
0
POLYLINE
5
165
100
AcDbEntity
8
1
6
CONTINUOUS
62
5
100
AcDb2dPolyline
66
1
10
0.0
20
0.0
30
0.0
70
0
0
VERTEX
5
166
100
AcDbEntity
8
1
100
AcDbVertex
100
AcDb2dVertex
62
5
10
140.750000
20
312.437500
0
VERTEX
5
167
100
AcDbEntity
8
1
100
AcDbVertex
100
AcDb2dVertex
62
5
10
141.000000
20
311.812500
0
VERTEX
5
168
100
AcDbEntity
8
1
100
AcDbVertex
100
AcDb2dVertex
62
5
10
141.250000
20
310.875000
0
SEQEND
5
169
100
AcDbEntity
8
1
0
POLYLINE
5
16a
100
AcDbEntity
8
1
6
CONTINUOUS
62
5
100
AcDb2dPolyline
66
1
10
0.0
20
0.0
30
0.0
70
0
0
VERTEX
5
16b
100
AcDbEntity
8
1
100
AcDbVertex
100
AcDb2dVertex
62
5
10
142.500000
20
312.437500
0
VERTEX
5
16c
100
AcDbEntity
8
1
100
AcDbVertex
100
AcDb2dVertex
62
5
10
142.750000
20
311.812500
0
VERTEX
5
16d
100
AcDbEntity
8
1
100
AcDbVertex
100
AcDb2dVertex
62
5
10
143.000000
20
310.875000
0
SEQEND
5
16e
100
AcDbEntity
8
1
0
POLYLINE
5
16f
100
AcDbEntity
8
1
6
CONTINUOUS
62
5
100
AcDb2dPolyline
66
1
10
0.0
20
0.0
30
0.0
70
0
0
VERTEX
5
170
100
AcDbEntity
8
1
100
AcDbVertex
100
AcDb2dVertex
62
5
10
144.000000
20
312.437500
0
VERTEX
5
171
100
AcDbEntity
8
1
100
AcDbVertex
100
AcDb2dVertex
62
5
10
144.750000
20
311.812500
0
VERTEX
5
172
100
AcDbEntity
8
1
100
AcDbVertex
100
AcDb2dVertex
62
5
10
145.250000
20
310.875000
0
SEQEND
5
173
100
AcDbEntity
8
1
0
LINE
5
174
100
AcDbEntity
8
1
100
AcDbLine
6
CONTINUOUS
62
5
10
124.250000
20
325.562500
11
124.500000
21
324.312500
0
LINE
5
175
100
AcDbEntity
8
1
100
AcDbLine
6
CONTINUOUS
62
5
10
125.750000
20
325.875000
11
126.000000
21
324.625000
0
POLYLINE
5
176
100
AcDbEntity
8
1
6
CONTINUOUS
62
5
100
AcDb2dPolyline
66
1
10
0.0
20
0.0
30
0.0
70
0
0
VERTEX
5
177
100
AcDbEntity
8
1
100
AcDbVertex
100
AcDb2dVertex
62
5
10
127.750000
20
325.875000
0
VERTEX
5
178
100
AcDbEntity
8
1
100
AcDbVertex
100
AcDb2dVertex
62
5
10
127.500000
20
324.312500
0
VERTEX
5
179
100
AcDbEntity
8
1
100
AcDbVertex
100
AcDb2dVertex
62
5
10
126.250000
20
322.437500
0
VERTEX
5
17a
100
AcDbEntity
8
1
100
AcDbVertex
100
AcDb2dVertex
62
5
10
125.250000
20
321.500000
0
SEQEND
5
17b
100
AcDbEntity
8
1
0
POLYLINE
5
17c
100
AcDbEntity
8
1
6
CONTINUOUS
62
5
100
AcDb2dPolyline
66
1
10
0.0
20
0.0
30
0.0
70
0
0
VERTEX
5
17d
100
AcDbEntity
8
1
100
AcDbVertex
100
AcDb2dVertex
62
5
10
125.250000
20
319.625000
0
VERTEX
5
17e
100
AcDbEntity
8
1
100
AcDbVertex
100
AcDb2dVertex
62
5
10
124.500000
20
318.375000
0
VERTEX
5
17f
100
AcDbEntity
8
1
100
AcDbVertex
100
AcDb2dVertex
62
5
10
123.750000
20
317.437500
0
VERTEX
5
180
100
AcDbEntity
8
1
100
AcDbVertex
100
AcDb2dVertex
62
5
10
122.750000
20
316.500000
0
SEQEND
5
181
100
AcDbEntity
8
1
0
POLYLINE
5
182
100
AcDbEntity
8
1
6
CONTINUOUS
62
5
100
AcDb2dPolyline
66
1
10
0.0
20
0.0
30
0.0
70
0
0
VERTEX
5
183
100
AcDbEntity
8
1
100
AcDbVertex
100
AcDb2dVertex
62
5
10
125.000000
20
319.000000
0
VERTEX
5
184
100
AcDbEntity
8
1
100
AcDbVertex
100
AcDb2dVertex
62
5
10
127.250000
20
319.000000
0
VERTEX
5
185
100
AcDbEntity
8
1
100
AcDbVertex
100
AcDb2dVertex
62
5
10
126.000000
20
317.125000
0
SEQEND
5
186
100
AcDbEntity
8
1
0
POLYLINE
5
187
100
AcDbEntity
8
1
6
CONTINUOUS
62
5
100
AcDb2dPolyline
66
1
10
0.0
20
0.0
30
0.0
70
0
0
VERTEX
5
188
100
AcDbEntity
8
1
100
AcDbVertex
100
AcDb2dVertex
62
5
10
123.750000
20
317.125000
0
VERTEX
5
189
100
AcDbEntity
8
1
100
AcDbVertex
100
AcDb2dVertex
62
5
10
128.250000
20
317.125000
0
VERTEX
5
18a
100
AcDbEntity
8
1
100
AcDbVertex
100
AcDb2dVertex
62
5
10
128.250000
20
314.312500
0
VERTEX
5
18b
100
AcDbEntity
8
1
100
AcDbVertex
100
AcDb2dVertex
62
5
10
123.750000
20
314.312500
0
SEQEND
5
18c
100
AcDbEntity
8
1
0
LINE
5
18d
100
AcDbEntity
8
1
100
AcDbLine
6
CONTINUOUS
62
5
10
126.000000
20
317.125000
11
126.000000
21
314.312500
0
POLYLINE
5
18e
100
AcDbEntity
8
1
6
CONTINUOUS
62
5
100
AcDb2dPolyline
66
1
10
0.0
20
0.0
30
0.0
70
0
0
VERTEX
5
18f
100
AcDbEntity
8
1
100
AcDbVertex
100
AcDb2dVertex
62
5
10
123.750000
20
317.125000
0
VERTEX
5
190
100
AcDbEntity
8
1
100
AcDbVertex
100
AcDb2dVertex
62
5
10
123.750000
20
311.812500
0
VERTEX
5
191
100
AcDbEntity
8
1
100
AcDbVertex
100
AcDb2dVertex
62
5
10
124.250000
20
311.187500
0
VERTEX
5
192
100
AcDbEntity
8
1
100
AcDbVertex
100
AcDb2dVertex
62
5
10
129.250000
20
311.187500
0
VERTEX
5
193
100
AcDbEntity
8
1
100
AcDbVertex
100
AcDb2dVertex
62
5
10
129.250000
20
312.437500
0
SEQEND
5
194
100
AcDbEntity
8
1
0
LINE
5
195
100
AcDbEntity
8
1
100
AcDbLine
6
CONTINUOUS
62
5
10
111.000000
20
329.000000
11
111.000000
21
321.500000
0
LINE
5
196
100
AcDbEntity
8
1
100
AcDbLine
6
CONTINUOUS
62
5
10
111.000000
20
325.250000
11
113.250000
21
325.250000
0
LINE
5
197
100
AcDbEntity
8
1
100
AcDbLine
6
CONTINUOUS
62
5
10
113.250000
20
329.000000
11
113.250000
21
321.500000
0
POLYLINE
5
198
100
AcDbEntity
8
1
6
CONTINUOUS
62
5
100
AcDb2dPolyline
66
1
10
0.0
20
0.0
30
0.0
70
0
0
VERTEX
5
199
100
AcDbEntity
8
1
100
AcDbVertex
100
AcDb2dVertex
62
5
10
115.750000
20
325.250000
0
VERTEX
5
19a
100
AcDbEntity
8
1
100
AcDbVertex
100
AcDb2dVertex
62
5
10
116.750000
20
326.500000
0
VERTEX
5
19b
100
AcDbEntity
8
1
100
AcDbVertex
100
AcDb2dVertex
62
5
10
117.250000
20
327.437500
0
VERTEX
5
19c
100
AcDbEntity
8
1
100
AcDbVertex
100
AcDb2dVertex
62
5
10
119.750000
20
327.437500
0
VERTEX
5
19d
100
AcDbEntity
8
1
100
AcDbVertex
100
AcDb2dVertex
62
5
10
119.750000
20
327.125000
0
VERTEX
5
19e
100
AcDbEntity
8
1
100
AcDbVertex
100
AcDb2dVertex
62
5
10
119.000000
20
325.250000
0
VERTEX
5
19f
100
AcDbEntity
8
1
100
AcDbVertex
100
AcDb2dVertex
62
5
10
117.750000
20
323.375000
0
VERTEX
5
1a0
100
AcDbEntity
8
1
100
AcDbVertex
100
AcDb2dVertex
62
5
10
116.250000
20
321.812500
0
SEQEND
5
1a1
100
AcDbEntity
8
1
0
LINE
5
1a2
100
AcDbEntity
8
1
100
AcDbLine
6
CONTINUOUS
62
5
10
117.750000
20
319.625000
11
117.750000
21
318.375000
0
POLYLINE
5
1a3
100
AcDbEntity
8
1
6
CONTINUOUS
62
5
100
AcDb2dPolyline
66
1
10
0.0
20
0.0
30
0.0
70
0
0
VERTEX
5
1a4
100
AcDbEntity
8
1
100
AcDbVertex
100
AcDb2dVertex
62
5
10
114.500000
20
316.500000
0
VERTEX
5
1a5
100
AcDbEntity
8
1
100
AcDbVertex
100
AcDb2dVertex
62
5
10
114.500000
20
318.375000
0
VERTEX
5
1a6
100
AcDbEntity
8
1
100
AcDbVertex
100
AcDb2dVertex
62
5
10
121.000000
20
318.375000
0
VERTEX
5
1a7
100
AcDbEntity
8
1
100
AcDbVertex
100
AcDb2dVertex
62
5
10
121.000000
20
316.500000
0
SEQEND
5
1a8
100
AcDbEntity
8
1
0
POLYLINE
5
1a9
100
AcDbEntity
8
1
6
CONTINUOUS
62
5
100
AcDb2dPolyline
66
1
10
0.0
20
0.0
30
0.0
70
0
0
VERTEX
5
1aa
100
AcDbEntity
8
1
100
AcDbVertex
100
AcDb2dVertex
62
5
10
115.500000
20
316.812500
0
VERTEX
5
1ab
100
AcDbEntity
8
1
100
AcDbVertex
100
AcDb2dVertex
62
5
10
120.000000
20
316.812500
0
VERTEX
5
1ac
100
AcDbEntity
8
1
100
AcDbVertex
100
AcDb2dVertex
62
5
10
117.750000
20
315.250000
0
VERTEX
5
1ad
100
AcDbEntity
8
1
100
AcDbVertex
100
AcDb2dVertex
62
5
10
118.250000
20
313.687500
0
VERTEX
5
1ae
100
AcDbEntity
8
1
100
AcDbVertex
100
AcDb2dVertex
62
5
10
118.250000
20
312.437500
0
VERTEX
5
1af
100
AcDbEntity
8
1
100
AcDbVertex
100
AcDb2dVertex
62
5
10
117.750000
20
310.875000
0
VERTEX
5
1b0
100
AcDbEntity
8
1
100
AcDbVertex
100
AcDb2dVertex
62
5
10
117.000000
20
310.875000
0
SEQEND
5
1b1
100
AcDbEntity
8
1
0
LINE
5
1b2
100
AcDbEntity
8
1
100
AcDbLine
6
CONTINUOUS
62
5
10
114.500000
20
314.000000
11
121.250000
21
314.000000
0
POLYLINE
5
1b3
100
AcDbEntity
8
1
6
CONTINUOUS
62
5
100
AcDb2dPolyline
66
1
10
0.0
20
0.0
30
0.0
70
0
0
VERTEX
5
1b4
100
AcDbEntity
8
1
100
AcDbVertex
100
AcDb2dVertex
62
5
10
104.500000
20
329.312500
0
VERTEX
5
1b5
100
AcDbEntity
8
1
100
AcDbVertex
100
AcDb2dVertex
62
5
10
103.750000
20
328.062500
0
VERTEX
5
1b6
100
AcDbEntity
8
1
100
AcDbVertex
100
AcDb2dVertex
62
5
10
103.000000
20
326.500000
0
VERTEX
5
1b7
100
AcDbEntity
8
1
100
AcDbVertex
100
AcDb2dVertex
62
5
10
102.750000
20
325.250000
0
VERTEX
5
1b8
100
AcDbEntity
8
1
100
AcDbVertex
100
AcDb2dVertex
62
5
10
103.000000
20
324.000000
0
VERTEX
5
1b9
100
AcDbEntity
8
1
100
AcDbVertex
100
AcDb2dVertex
62
5
10
103.500000
20
322.437500
0
VERTEX
5
1ba
100
AcDbEntity
8
1
100
AcDbVertex
100
AcDb2dVertex
62
5
10
104.500000
20
320.875000
0
SEQEND
5
1bb
100
AcDbEntity
8
1
0
LINE
5
1bc
100
AcDbEntity
8
1
100
AcDbLine
6
CONTINUOUS
62
5
10
107.500000
20
329.000000
11
109.000000
21
329.000000
0
LINE
5
1bd
100
AcDbEntity
8
1
100
AcDbLine
6
CONTINUOUS
62
5
10
108.250000
20
329.000000
11
108.250000
21
321.500000
0
LINE
5
1be
100
AcDbEntity
8
1
100
AcDbLine
6
CONTINUOUS
62
5
10
107.500000
20
321.500000
11
109.000000
21
321.500000
0
POLYLINE
5
1bf
100
AcDbEntity
8
1
6
CONTINUOUS
62
5
100
AcDb2dPolyline
66
1
10
0.0
20
0.0
30
0.0
70
0
0
VERTEX
5
1c0
100
AcDbEntity
8
1
100
AcDbVertex
100
AcDb2dVertex
62
5
10
90.500000
20
316.812500
0
VERTEX
5
1c1
100
AcDbEntity
8
1
100
AcDbVertex
100
AcDb2dVertex
62
5
10
91.000000
20
317.750000
0
VERTEX
5
1c2
100
AcDbEntity
8
1
100
AcDbVertex
100
AcDb2dVertex
62
5
10
91.750000
20
319.312500
0
VERTEX
5
1c3
100
AcDbEntity
8
1
100
AcDbVertex
100
AcDb2dVertex
62
5
10
92.500000
20
318.375000
0
VERTEX
5
1c4
100
AcDbEntity
8
1
100
AcDbVertex
100
AcDb2dVertex
62
5
10
92.750000
20
317.750000
0
SEQEND
5
1c5
100
AcDbEntity
8
1
0
LINE
5
1c6
100
AcDbEntity
8
1
100
AcDbLine
6
CONTINUOUS
62
5
10
91.000000
20
316.500000
11
92.500000
21
316.500000
0
LINE
5
1c7
100
AcDbEntity
8
1
100
AcDbLine
6
CONTINUOUS
62
5
10
92.750000
20
314.937500
11
90.500000
21
314.937500
0
LINE
5
1c8
100
AcDbEntity
8
1
100
AcDbLine
6
CONTINUOUS
62
5
10
91.750000
20
316.500000
11
91.750000
21
311.812500
0
LINE
5
1c9
100
AcDbEntity
8
1
100
AcDbLine
6
CONTINUOUS
62
5
10
90.500000
20
311.187500
11
92.750000
21
312.437500
0
LINE
5
1ca
100
AcDbEntity
8
1
100
AcDbLine
6
CONTINUOUS
62
5
10
92.750000
20
314.000000
11
92.250000
21
312.750000
0
LINE
5
1cb
100
AcDbEntity
8
1
100
AcDbLine
6
CONTINUOUS
62
5
10
90.500000
20
314.000000
11
91.000000
21
312.750000
0
POLYLINE
5
1cc
100
AcDbEntity
8
1
6
CONTINUOUS
62
5
100
AcDb2dPolyline
66
1
10
0.0
20
0.0
30
0.0
70
0
0
VERTEX
5
1cd
100
AcDbEntity
8
1
100
AcDbVertex
100
AcDb2dVertex
62
5
10
94.000000
20
311.812500
0
VERTEX
5
1ce
100
AcDbEntity
8
1
100
AcDbVertex
100
AcDb2dVertex
62
5
10
94.000000
20
319.000000
0
VERTEX
5
1cf
100
AcDbEntity
8
1
100
AcDbVertex
100
AcDb2dVertex
62
5
10
96.500000
20
319.000000
0
VERTEX
5
1d0
100
AcDbEntity
8
1
100
AcDbVertex
100
AcDb2dVertex
62
5
10
96.500000
20
315.250000
0
VERTEX
5
1d1
100
AcDbEntity
8
1
100
AcDbVertex
100
AcDb2dVertex
62
5
10
94.000000
20
315.250000
0
SEQEND
5
1d2
100
AcDbEntity
8
1
0
LINE
5
1d3
100
AcDbEntity
8
1
100
AcDbLine
6
CONTINUOUS
62
5
10
94.000000
20
317.125000
11
96.500000
21
317.125000
0
POLYLINE
5
1d4
100
AcDbEntity
8
1
6
CONTINUOUS
62
5
100
AcDb2dPolyline
66
1
10
0.0
20
0.0
30
0.0
70
0
0
VERTEX
5
1d5
100
AcDbEntity
8
1
100
AcDbVertex
100
AcDb2dVertex
62
5
10
93.250000
20
311.500000
0
VERTEX
5
1d6
100
AcDbEntity
8
1
100
AcDbVertex
100
AcDb2dVertex
62
5
10
94.000000
20
311.812500
0
VERTEX
5
1d7
100
AcDbEntity
8
1
100
AcDbVertex
100
AcDb2dVertex
62
5
10
95.250000
20
312.750000
0
SEQEND
5
1d8
100
AcDbEntity
8
1
0
LINE
5
1d9
100
AcDbEntity
8
1
100
AcDbLine
6
CONTINUOUS
62
5
10
96.750000
20
314.625000
11
96.000000
21
313.375000
0
POLYLINE
5
1da
100
AcDbEntity
8
1
6
CONTINUOUS
62
5
100
AcDb2dPolyline
66
1
10
0.0
20
0.0
30
0.0
70
0
0
VERTEX
5
1db
100
AcDbEntity
8
1
100
AcDbVertex
100
AcDb2dVertex
62
5
10
95.250000
20
314.625000
0
VERTEX
5
1dc
100
AcDbEntity
8
1
100
AcDbVertex
100
AcDb2dVertex
62
5
10
95.750000
20
313.062500
0
VERTEX
5
1dd
100
AcDbEntity
8
1
100
AcDbVertex
100
AcDb2dVertex
62
5
10
96.250000
20
312.125000
0
VERTEX
5
1de
100
AcDbEntity
8
1
100
AcDbVertex
100
AcDb2dVertex
62
5
10
97.250000
20
311.187500
0
SEQEND
5
1df
100
AcDbEntity
8
1
0
POLYLINE
5
1e0
100
AcDbEntity
8
1
6
CONTINUOUS
62
5
100
AcDb2dPolyline
66
1
10
0.0
20
0.0
30
0.0
70
0
0
VERTEX
5
1e1
100
AcDbEntity
8
1
100
AcDbVertex
100
AcDb2dVertex
62
5
10
84.500000
20
328.062500
0
VERTEX
5
1e2
100
AcDbEntity
8
1
100
AcDbVertex
100
AcDb2dVertex
62
5
10
84.500000
20
326.187500
0
VERTEX
5
1e3
100
AcDbEntity
8
1
100
AcDbVertex
100
AcDb2dVertex
62
5
10
84.250000
20
324.625000
0
VERTEX
5
1e4
100
AcDbEntity
8
1
100
AcDbVertex
100
AcDb2dVertex
62
5
10
83.750000
20
323.375000
0
VERTEX
5
1e5
100
AcDbEntity
8
1
100
AcDbVertex
100
AcDb2dVertex
62
5
10
83.000000
20
322.125000
0
VERTEX
5
1e6
100
AcDbEntity
8
1
100
AcDbVertex
100
AcDb2dVertex
62
5
10
82.750000
20
321.812500
0
SEQEND
5
1e7
100
AcDbEntity
8
1
0
POLYLINE
5
1e8
100
AcDbEntity
8
1
6
CONTINUOUS
62
5
100
AcDb2dPolyline
66
1
10
0.0
20
0.0
30
0.0
70
0
0
VERTEX
5
1e9
100
AcDbEntity
8
1
100
AcDbVertex
100
AcDb2dVertex
62
5
10
86.000000
20
328.375000
0
VERTEX
5
1ea
100
AcDbEntity
8
1
100
AcDbVertex
100
AcDb2dVertex
62
5
10
86.000000
20
322.125000
0
VERTEX
5
1eb
100
AcDbEntity
8
1
100
AcDbVertex
100
AcDb2dVertex
62
5
10
86.750000
20
322.437500
0
VERTEX
5
1ec
100
AcDbEntity
8
1
100
AcDbVertex
100
AcDb2dVertex
62
5
10
87.750000
20
323.375000
0
VERTEX
5
1ed
100
AcDbEntity
8
1
100
AcDbVertex
100
AcDb2dVertex
62
5
10
88.500000
20
324.312500
0
VERTEX
5
1ee
100
AcDbEntity
8
1
100
AcDbVertex
100
AcDb2dVertex
62
5
10
89.000000
20
325.250000
0
SEQEND
5
1ef
100
AcDbEntity
8
1
0
POLYLINE
5
1f0
100
AcDbEntity
8
1
6
CONTINUOUS
62
5
100
AcDb2dPolyline
66
1
10
0.0
20
0.0
30
0.0
70
0
0
VERTEX
5
1f1
100
AcDbEntity
8
1
100
AcDbVertex
100
AcDb2dVertex
62
5
10
85.500000
20
317.750000
0
VERTEX
5
1f2
100
AcDbEntity
8
1
100
AcDbVertex
100
AcDb2dVertex
62
5
10
86.000000
20
317.750000
0
VERTEX
5
1f3
100
AcDbEntity
8
1
100
AcDbVertex
100
AcDb2dVertex
62
5
10
86.000000
20
317.125000
0
VERTEX
5
1f4
100
AcDbEntity
8
1
100
AcDbVertex
100
AcDb2dVertex
62
5
10
85.500000
20
317.125000
0
VERTEX
5
1f5
100
AcDbEntity
8
1
100
AcDbVertex
100
AcDb2dVertex
62
5
10
85.500000
20
317.750000
0
VERTEX
5
1f6
100
AcDbEntity
8
1
100
AcDbVertex
100
AcDb2dVertex
62
5
10
86.000000
20
317.125000
0
SEQEND
5
1f7
100
AcDbEntity
8
1
0
LINE
5
1f8
100
AcDbEntity
8
1
100
AcDbLine
6
CONTINUOUS
62
5
10
86.000000
20
317.750000
11
85.500000
21
317.125000
0
POLYLINE
5
1f9
100
AcDbEntity
8
1
6
CONTINUOUS
62
5
100
AcDb2dPolyline
66
1
10
0.0
20
0.0
30
0.0
70
0
0
VERTEX
5
1fa
100
AcDbEntity
8
1
100
AcDbVertex
100
AcDb2dVertex
62
5
10
85.500000
20
313.062500
0
VERTEX
5
1fb
100
AcDbEntity
8
1
100
AcDbVertex
100
AcDb2dVertex
62
5
10
86.000000
20
313.062500
0
VERTEX
5
1fc
100
AcDbEntity
8
1
100
AcDbVertex
100
AcDb2dVertex
62
5
10
86.000000
20
312.437500
0
VERTEX
5
1fd
100
AcDbEntity
8
1
100
AcDbVertex
100
AcDb2dVertex
62
5
10
85.500000
20
312.437500
0
VERTEX
5
1fe
100
AcDbEntity
8
1
100
AcDbVertex
100
AcDb2dVertex
62
5
10
85.500000
20
313.062500
0
VERTEX
5
1ff
100
AcDbEntity
8
1
100
AcDbVertex
100
AcDb2dVertex
62
5
10
86.000000
20
312.437500
0
SEQEND
5
200
100
AcDbEntity
8
1
0
LINE
5
201
100
AcDbEntity
8
1
100
AcDbLine
6
CONTINUOUS
62
5
10
86.000000
20
313.062500
11
85.500000
21
312.437500
0
POLYLINE
5
202
100
AcDbEntity
8
1
6
CONTINUOUS
62
5
100
AcDb2dPolyline
66
1
10
0.0
20
0.0
30
0.0
70
0
0
VERTEX
5
203
100
AcDbEntity
8
1
100
AcDbVertex
100
AcDb2dVertex
62
5
10
74.750000
20
325.562500
0
VERTEX
5
204
100
AcDbEntity
8
1
100
AcDbVertex
100
AcDb2dVertex
62
5
10
75.000000
20
325.250000
0
VERTEX
5
205
100
AcDbEntity
8
1
100
AcDbVertex
100
AcDb2dVertex
62
5
10
81.750000
20
325.250000
0
SEQEND
5
206
100
AcDbEntity
8
1
0
POLYLINE
5
207
100
AcDbEntity
8
1
6
CONTINUOUS
62
5
100
AcDb2dPolyline
66
1
10
0.0
20
0.0
30
0.0
70
0
0
VERTEX
5
208
100
AcDbEntity
8
1
100
AcDbVertex
100
AcDb2dVertex
62
5
10
77.250000
20
319.625000
0
VERTEX
5
209
100
AcDbEntity
8
1
100
AcDbVertex
100
AcDb2dVertex
62
5
10
76.500000
20
318.375000
0
VERTEX
5
20a
100
AcDbEntity
8
1
100
AcDbVertex
100
AcDb2dVertex
62
5
10
75.750000
20
317.437500
0
VERTEX
5
20b
100
AcDbEntity
8
1
100
AcDbVertex
100
AcDb2dVertex
62
5
10
74.750000
20
316.500000
0
SEQEND
5
20c
100
AcDbEntity
8
1
0
POLYLINE
5
20d
100
AcDbEntity
8
1
6
CONTINUOUS
62
5
100
AcDb2dPolyline
66
1
10
0.0
20
0.0
30
0.0
70
0
0
VERTEX
5
20e
100
AcDbEntity
8
1
100
AcDbVertex
100
AcDb2dVertex
62
5
10
77.000000
20
319.000000
0
VERTEX
5
20f
100
AcDbEntity
8
1
100
AcDbVertex
100
AcDb2dVertex
62
5
10
79.250000
20
319.000000
0
VERTEX
5
210
100
AcDbEntity
8
1
100
AcDbVertex
100
AcDb2dVertex
62
5
10
78.000000
20
317.125000
0
SEQEND
5
211
100
AcDbEntity
8
1
0
POLYLINE
5
212
100
AcDbEntity
8
1
6
CONTINUOUS
62
5
100
AcDb2dPolyline
66
1
10
0.0
20
0.0
30
0.0
70
0
0
VERTEX
5
213
100
AcDbEntity
8
1
100
AcDbVertex
100
AcDb2dVertex
62
5
10
75.750000
20
317.125000
0
VERTEX
5
214
100
AcDbEntity
8
1
100
AcDbVertex
100
AcDb2dVertex
62
5
10
80.250000
20
317.125000
0
VERTEX
5
215
100
AcDbEntity
8
1
100
AcDbVertex
100
AcDb2dVertex
62
5
10
80.250000
20
314.312500
0
VERTEX
5
216
100
AcDbEntity
8
1
100
AcDbVertex
100
AcDb2dVertex
62
5
10
75.750000
20
314.312500
0
SEQEND
5
217
100
AcDbEntity
8
1
0
LINE
5
218
100
AcDbEntity
8
1
100
AcDbLine
6
CONTINUOUS
62
5
10
78.000000
20
317.125000
11
78.000000
21
314.312500
0
POLYLINE
5
219
100
AcDbEntity
8
1
6
CONTINUOUS
62
5
100
AcDb2dPolyline
66
1
10
0.0
20
0.0
30
0.0
70
0
0
VERTEX
5
21a
100
AcDbEntity
8
1
100
AcDbVertex
100
AcDb2dVertex
62
5
10
75.750000
20
317.125000
0
VERTEX
5
21b
100
AcDbEntity
8
1
100
AcDbVertex
100
AcDb2dVertex
62
5
10
75.750000
20
311.812500
0
VERTEX
5
21c
100
AcDbEntity
8
1
100
AcDbVertex
100
AcDb2dVertex
62
5
10
76.250000
20
311.187500
0
VERTEX
5
21d
100
AcDbEntity
8
1
100
AcDbVertex
100
AcDb2dVertex
62
5
10
81.250000
20
311.187500
0
VERTEX
5
21e
100
AcDbEntity
8
1
100
AcDbVertex
100
AcDb2dVertex
62
5
10
81.250000
20
312.437500
0
SEQEND
5
21f
100
AcDbEntity
8
1
0
LINE
5
220
100
AcDbEntity
8
1
100
AcDbLine
6
CONTINUOUS
62
5
10
106.250000
20
317.750000
11
113.250000
21
317.750000
0
LINE
5
221
100
AcDbEntity
8
1
100
AcDbLine
6
CONTINUOUS
62
5
10
109.750000
20
319.312500
11
109.750000
21
317.750000
0
POLYLINE
5
222
100
AcDbEntity
8
1
6
CONTINUOUS
62
5
100
AcDb2dPolyline
66
1
10
0.0
20
0.0
30
0.0
70
0
0
VERTEX
5
223
100
AcDbEntity
8
1
100
AcDbVertex
100
AcDb2dVertex
62
5
10
111.500000
20
317.750000
0
VERTEX
5
224
100
AcDbEntity
8
1
100
AcDbVertex
100
AcDb2dVertex
62
5
10
110.500000
20
314.625000
0
VERTEX
5
225
100
AcDbEntity
8
1
100
AcDbVertex
100
AcDb2dVertex
62
5
10
108.750000
20
312.437500
0
VERTEX
5
226
100
AcDbEntity
8
1
100
AcDbVertex
100
AcDb2dVertex
62
5
10
106.250000
20
311.187500
0
SEQEND
5
227
100
AcDbEntity
8
1
0
POLYLINE
5
228
100
AcDbEntity
8
1
6
CONTINUOUS
62
5
100
AcDb2dPolyline
66
1
10
0.0
20
0.0
30
0.0
70
0
0
VERTEX
5
229
100
AcDbEntity
8
1
100
AcDbVertex
100
AcDb2dVertex
62
5
10
108.000000
20
317.125000
0
VERTEX
5
22a
100
AcDbEntity
8
1
100
AcDbVertex
100
AcDb2dVertex
62
5
10
109.000000
20
314.625000
0
VERTEX
5
22b
100
AcDbEntity
8
1
100
AcDbVertex
100
AcDb2dVertex
62
5
10
110.750000
20
312.437500
0
VERTEX
5
22c
100
AcDbEntity
8
1
100
AcDbVertex
100
AcDb2dVertex
62
5
10
113.250000
20
311.187500
0
SEQEND
5
22d
100
AcDbEntity
8
1
0
POLYLINE
5
22e
100
AcDbEntity
8
1
6
CONTINUOUS
62
5
100
AcDb2dPolyline
66
1
10
0.0
20
0.0
30
0.0
70
0
0
VERTEX
5
22f
100
AcDbEntity
8
1
100
AcDbVertex
100
AcDb2dVertex
62
5
10
82.500000
20
289.562500
0
VERTEX
5
230
100
AcDbEntity
8
1
100
AcDbVertex
100
AcDb2dVertex
62
5
10
82.500000
20
290.500000
0
VERTEX
5
231
100
AcDbEntity
8
1
100
AcDbVertex
100
AcDb2dVertex
62
5
10
85.625000
20
290.500000
0
VERTEX
5
232
100
AcDbEntity
8
1
100
AcDbVertex
100
AcDb2dVertex
62
5
10
85.625000
20
289.875000
0
VERTEX
5
233
100
AcDbEntity
8
1
100
AcDbVertex
100
AcDb2dVertex
62
5
10
85.000000
20
288.312500
0
VERTEX
5
234
100
AcDbEntity
8
1
100
AcDbVertex
100
AcDb2dVertex
62
5
10
84.375000
20
286.125000
0
VERTEX
5
235
100
AcDbEntity
8
1
100
AcDbVertex
100
AcDb2dVertex
62
5
10
83.750000
20
283.000000
0
SEQEND
5
236
100
AcDbEntity
8
1
0
POLYLINE
5
237
100
AcDbEntity
8
1
6
CONTINUOUS
62
5
100
AcDb2dPolyline
66
1
10
0.0
20
0.0
30
0.0
70
0
0
VERTEX
5
238
100
AcDbEntity
8
1
100
AcDbVertex
100
AcDb2dVertex
62
5
10
72.500000
20
288.625000
0
VERTEX
5
239
100
AcDbEntity
8
1
100
AcDbVertex
100
AcDb2dVertex
62
5
10
72.812500
20
289.875000
0
VERTEX
5
23a
100
AcDbEntity
8
1
100
AcDbVertex
100
AcDb2dVertex
62
5
10
73.437500
20
290.500000
0
VERTEX
5
23b
100
AcDbEntity
8
1
100
AcDbVertex
100
AcDb2dVertex
62
5
10
74.375000
20
290.500000
0
VERTEX
5
23c
100
AcDbEntity
8
1
100
AcDbVertex
100
AcDb2dVertex
62
5
10
75.000000
20
290.187500
0
VERTEX
5
23d
100
AcDbEntity
8
1
100
AcDbVertex
100
AcDb2dVertex
62
5
10
75.312500
20
289.250000
0
VERTEX
5
23e
100
AcDbEntity
8
1
100
AcDbVertex
100
AcDb2dVertex
62
5
10
75.312500
20
288.000000
0
VERTEX
5
23f
100
AcDbEntity
8
1
100
AcDbVertex
100
AcDb2dVertex
62
5
10
75.000000
20
287.375000
0
VERTEX
5
240
100
AcDbEntity
8
1
100
AcDbVertex
100
AcDb2dVertex
62
5
10
74.375000
20
286.750000
0
VERTEX
5
241
100
AcDbEntity
8
1
100
AcDbVertex
100
AcDb2dVertex
62
5
10
73.437500
20
286.750000
0
SEQEND
5
242
100
AcDbEntity
8
1
0
POLYLINE
5
243
100
AcDbEntity
8
1
6
CONTINUOUS
62
5
100
AcDb2dPolyline
66
1
10
0.0
20
0.0
30
0.0
70
0
0
VERTEX
5
244
100
AcDbEntity
8
1
100
AcDbVertex
100
AcDb2dVertex
62
5
10
74.375000
20
286.750000
0
VERTEX
5
245
100
AcDbEntity
8
1
100
AcDbVertex
100
AcDb2dVertex
62
5
10
75.312500
20
286.125000
0
VERTEX
5
246
100
AcDbEntity
8
1
100
AcDbVertex
100
AcDb2dVertex
62
5
10
75.625000
20
285.187500
0
VERTEX
5
247
100
AcDbEntity
8
1
100
AcDbVertex
100
AcDb2dVertex
62
5
10
75.625000
20
284.250000
0
VERTEX
5
248
100
AcDbEntity
8
1
100
AcDbVertex
100
AcDb2dVertex
62
5
10
75.312500
20
283.625000
0
VERTEX
5
249
100
AcDbEntity
8
1
100
AcDbVertex
100
AcDb2dVertex
62
5
10
74.375000
20
283.000000
0
VERTEX
5
24a
100
AcDbEntity
8
1
100
AcDbVertex
100
AcDb2dVertex
62
5
10
73.437500
20
283.000000
0
VERTEX
5
24b
100
AcDbEntity
8
1
100
AcDbVertex
100
AcDb2dVertex
62
5
10
72.812500
20
283.312500
0
VERTEX
5
24c
100
AcDbEntity
8
1
100
AcDbVertex
100
AcDb2dVertex
62
5
10
72.187500
20
284.250000
0
SEQEND
5
24d
100
AcDbEntity
8
1
0
POLYLINE
5
24e
100
AcDbEntity
8
1
6
CONTINUOUS
62
5
100
AcDb2dPolyline
66
1
10
0.0
20
0.0
30
0.0
70
0
0
VERTEX
5
24f
100
AcDbEntity
8
1
100
AcDbVertex
100
AcDb2dVertex
62
5
10
80.000000
20
290.500000
0
VERTEX
5
250
100
AcDbEntity
8
1
100
AcDbVertex
100
AcDb2dVertex
62
5
10
79.062500
20
290.500000
0
VERTEX
5
251
100
AcDbEntity
8
1
100
AcDbVertex
100
AcDb2dVertex
62
5
10
78.125000
20
290.187500
0
VERTEX
5
252
100
AcDbEntity
8
1
100
AcDbVertex
100
AcDb2dVertex
62
5
10
77.500000
20
288.937500
0
VERTEX
5
253
100
AcDbEntity
8
1
100
AcDbVertex
100
AcDb2dVertex
62
5
10
77.500000
20
284.562500
0
VERTEX
5
254
100
AcDbEntity
8
1
100
AcDbVertex
100
AcDb2dVertex
62
5
10
77.812500
20
283.625000
0
VERTEX
5
255
100
AcDbEntity
8
1
100
AcDbVertex
100
AcDb2dVertex
62
5
10
78.125000
20
283.312500
0
VERTEX
5
256
100
AcDbEntity
8
1
100
AcDbVertex
100
AcDb2dVertex
62
5
10
78.750000
20
283.000000
0
VERTEX
5
257
100
AcDbEntity
8
1
100
AcDbVertex
100
AcDb2dVertex
62
5
10
79.375000
20
283.000000
0
VERTEX
5
258
100
AcDbEntity
8
1
100
AcDbVertex
100
AcDb2dVertex
62
5
10
80.000000
20
283.312500
0
VERTEX
5
259
100
AcDbEntity
8
1
100
AcDbVertex
100
AcDb2dVertex
62
5
10
80.312500
20
283.625000
0
VERTEX
5
25a
100
AcDbEntity
8
1
100
AcDbVertex
100
AcDb2dVertex
62
5
10
80.625000
20
284.562500
0
VERTEX
5
25b
100
AcDbEntity
8
1
100
AcDbVertex
100
AcDb2dVertex
62
5
10
80.625000
20
286.437500
0
VERTEX
5
25c
100
AcDbEntity
8
1
100
AcDbVertex
100
AcDb2dVertex
62
5
10
80.312500
20
287.062500
0
VERTEX
5
25d
100
AcDbEntity
8
1
100
AcDbVertex
100
AcDb2dVertex
62
5
10
79.687500
20
287.375000
0
VERTEX
5
25e
100
AcDbEntity
8
1
100
AcDbVertex
100
AcDb2dVertex
62
5
10
78.437500
20
287.375000
0
VERTEX
5
25f
100
AcDbEntity
8
1
100
AcDbVertex
100
AcDb2dVertex
62
5
10
77.500000
20
287.062500
0
SEQEND
5
260
100
AcDbEntity
8
1
0
LINE
5
261
100
AcDbEntity
8
1
100
AcDbLine
6
CONTINUOUS
62
5
10
62.500000
20
286.750000
11
65.625000
21
286.750000
0
POLYLINE
5
262
100
AcDbEntity
8
1
6
CONTINUOUS
62
5
100
AcDb2dPolyline
66
1
10
0.0
20
0.0
30
0.0
70
0
0
VERTEX
5
263
100
AcDbEntity
8
1
100
AcDbVertex
100
AcDb2dVertex
62
5
10
55.625000
20
288.937500
0
VERTEX
5
264
100
AcDbEntity
8
1
100
AcDbVertex
100
AcDb2dVertex
62
5
10
55.000000
20
290.187500
0
VERTEX
5
265
100
AcDbEntity
8
1
100
AcDbVertex
100
AcDb2dVertex
62
5
10
54.062500
20
290.500000
0
VERTEX
5
266
100
AcDbEntity
8
1
100
AcDbVertex
100
AcDb2dVertex
62
5
10
53.437500
20
290.500000
0
VERTEX
5
267
100
AcDbEntity
8
1
100
AcDbVertex
100
AcDb2dVertex
62
5
10
52.812500
20
290.187500
0
VERTEX
5
268
100
AcDbEntity
8
1
100
AcDbVertex
100
AcDb2dVertex
62
5
10
52.187500
20
289.250000
0
VERTEX
5
269
100
AcDbEntity
8
1
100
AcDbVertex
100
AcDb2dVertex
62
5
10
52.187500
20
288.312500
0
VERTEX
5
26a
100
AcDbEntity
8
1
100
AcDbVertex
100
AcDb2dVertex
62
5
10
52.812500
20
287.375000
0
VERTEX
5
26b
100
AcDbEntity
8
1
100
AcDbVertex
100
AcDb2dVertex
62
5
10
55.000000
20
286.125000
0
VERTEX
5
26c
100
AcDbEntity
8
1
100
AcDbVertex
100
AcDb2dVertex
62
5
10
55.625000
20
285.187500
0
VERTEX
5
26d
100
AcDbEntity
8
1
100
AcDbVertex
100
AcDb2dVertex
62
5
10
55.625000
20
284.250000
0
VERTEX
5
26e
100
AcDbEntity
8
1
100
AcDbVertex
100
AcDb2dVertex
62
5
10
55.000000
20
283.312500
0
VERTEX
5
26f
100
AcDbEntity
8
1
100
AcDbVertex
100
AcDb2dVertex
62
5
10
54.062500
20
283.000000
0
VERTEX
5
270
100
AcDbEntity
8
1
100
AcDbVertex
100
AcDb2dVertex
62
5
10
53.437500
20
283.000000
0
VERTEX
5
271
100
AcDbEntity
8
1
100
AcDbVertex
100
AcDb2dVertex
62
5
10
52.500000
20
283.625000
0
VERTEX
5
272
100
AcDbEntity
8
1
100
AcDbVertex
100
AcDb2dVertex
62
5
10
52.187500
20
284.875000
0
SEQEND
5
273
100
AcDbEntity
8
1
0
POLYLINE
5
274
100
AcDbEntity
8
1
6
CONTINUOUS
62
5
100
AcDb2dPolyline
66
1
10
0.0
20
0.0
30
0.0
70
0
0
VERTEX
5
275
100
AcDbEntity
8
1
100
AcDbVertex
100
AcDb2dVertex
62
5
10
60.625000
20
290.500000
0
VERTEX
5
276
100
AcDbEntity
8
1
100
AcDbVertex
100
AcDb2dVertex
62
5
10
57.500000
20
290.500000
0
VERTEX
5
277
100
AcDbEntity
8
1
100
AcDbVertex
100
AcDb2dVertex
62
5
10
57.500000
20
283.000000
0
VERTEX
5
278
100
AcDbEntity
8
1
100
AcDbVertex
100
AcDb2dVertex
62
5
10
60.937500
20
283.000000
0
SEQEND
5
279
100
AcDbEntity
8
1
0
LINE
5
27a
100
AcDbEntity
8
1
100
AcDbLine
6
CONTINUOUS
62
5
10
57.500000
20
286.750000
11
60.312500
21
286.750000
0
LINE
5
27b
100
AcDbEntity
8
1
100
AcDbLine
6
CONTINUOUS
62
5
10
68.500000
20
328.062500
11
69.750000
21
326.812500
0
LINE
5
27c
100
AcDbEntity
8
1
100
AcDbLine
6
CONTINUOUS
62
5
10
67.500000
20
326.187500
11
68.500000
21
324.937500
0
POLYLINE
5
27d
100
AcDbEntity
8
1
6
CONTINUOUS
62
5
100
AcDb2dPolyline
66
1
10
0.0
20
0.0
30
0.0
70
0
0
VERTEX
5
27e
100
AcDbEntity
8
1
100
AcDbVertex
100
AcDb2dVertex
62
5
10
68.000000
20
321.812500
0
VERTEX
5
27f
100
AcDbEntity
8
1
100
AcDbVertex
100
AcDb2dVertex
62
5
10
69.250000
20
322.437500
0
VERTEX
5
280
100
AcDbEntity
8
1
100
AcDbVertex
100
AcDb2dVertex
62
5
10
71.250000
20
324.000000
0
VERTEX
5
281
100
AcDbEntity
8
1
100
AcDbVertex
100
AcDb2dVertex
62
5
10
73.000000
20
325.875000
0
SEQEND
5
282
100
AcDbEntity
8
1
0
LINE
5
283
100
AcDbEntity
8
1
100
AcDbLine
6
CONTINUOUS
62
5
10
66.250000
20
316.500000
11
68.500000
21
316.500000
0
LINE
5
284
100
AcDbEntity
8
1
100
AcDbLine
6
CONTINUOUS
62
5
10
66.500000
20
311.500000
11
68.500000
21
313.062500
0
LINE
5
285
100
AcDbEntity
8
1
100
AcDbLine
6
CONTINUOUS
62
5
10
67.500000
20
319.000000
11
67.500000
21
312.125000
0
POLYLINE
5
286
100
AcDbEntity
8
1
6
CONTINUOUS
62
5
100
AcDb2dPolyline
66
1
10
0.0
20
0.0
30
0.0
70
0
0
VERTEX
5
287
100
AcDbEntity
8
1
100
AcDbVertex
100
AcDb2dVertex
62
5
10
68.250000
20
314.937500
0
VERTEX
5
288
100
AcDbEntity
8
1
100
AcDbVertex
100
AcDb2dVertex
62
5
10
72.750000
20
317.750000
0
VERTEX
5
289
100
AcDbEntity
8
1
100
AcDbVertex
100
AcDb2dVertex
62
5
10
72.750000
20
314.625000
0
VERTEX
5
28a
100
AcDbEntity
8
1
100
AcDbVertex
100
AcDb2dVertex
62
5
10
72.250000
20
314.000000
0
VERTEX
5
28b
100
AcDbEntity
8
1
100
AcDbVertex
100
AcDb2dVertex
62
5
10
71.750000
20
314.000000
0
SEQEND
5
28c
100
AcDbEntity
8
1
0
LINE
5
28d
100
AcDbEntity
8
1
100
AcDbLine
6
CONTINUOUS
62
5
10
70.750000
20
319.312500
11
70.750000
21
312.750000
0
POLYLINE
5
28e
100
AcDbEntity
8
1
6
CONTINUOUS
62
5
100
AcDb2dPolyline
66
1
10
0.0
20
0.0
30
0.0
70
0
0
VERTEX
5
28f
100
AcDbEntity
8
1
100
AcDbVertex
100
AcDb2dVertex
62
5
10
69.250000
20
318.062500
0
VERTEX
5
290
100
AcDbEntity
8
1
100
AcDbVertex
100
AcDb2dVertex
62
5
10
69.250000
20
311.500000
0
VERTEX
5
291
100
AcDbEntity
8
1
100
AcDbVertex
100
AcDb2dVertex
62
5
10
69.750000
20
310.875000
0
VERTEX
5
292
100
AcDbEntity
8
1
100
AcDbVertex
100
AcDb2dVertex
62
5
10
72.750000
20
310.875000
0
VERTEX
5
293
100
AcDbEntity
8
1
100
AcDbVertex
100
AcDb2dVertex
62
5
10
73.250000
20
311.500000
0
VERTEX
5
294
100
AcDbEntity
8
1
100
AcDbVertex
100
AcDb2dVertex
62
5
10
73.250000
20
312.437500
0
SEQEND
5
295
100
AcDbEntity
8
1
0
POLYLINE
5
296
100
AcDbEntity
8
1
6
CONTINUOUS
62
5
100
AcDb2dPolyline
66
1
10
0.0
20
0.0
30
0.0
70
0
0
VERTEX
5
297
100
AcDbEntity
8
1
100
AcDbVertex
100
AcDb2dVertex
62
5
10
68.125000
20
289.875000
0
VERTEX
5
298
100
AcDbEntity
8
1
100
AcDbVertex
100
AcDb2dVertex
62
5
10
69.062500
20
290.500000
0
VERTEX
5
299
100
AcDbEntity
8
1
100
AcDbVertex
100
AcDb2dVertex
62
5
10
69.062500
20
283.000000
0
SEQEND
5
29a
100
AcDbEntity
8
1
0
LINE
5
29b
100
AcDbEntity
8
1
100
AcDbLine
6
CONTINUOUS
62
5
10
68.437500
20
283.000000
11
69.687500
21
283.000000
0
POLYLINE
5
29c
100
AcDbEntity
8
1
6
CONTINUOUS
62
5
100
AcDb2dPolyline
66
1
10
0.0
20
0.0
30
0.0
70
0
0
VERTEX
5
29d
100
AcDbEntity
8
1
100
AcDbVertex
100
AcDb2dVertex
62
5
10
147.750000
20
325.250000
0
VERTEX
5
29e
100
AcDbEntity
8
1
100
AcDbVertex
100
AcDb2dVertex
62
5
10
148.750000
20
326.500000
0
VERTEX
5
29f
100
AcDbEntity
8
1
100
AcDbVertex
100
AcDb2dVertex
62
5
10
149.250000
20
327.437500
0
VERTEX
5
2a0
100
AcDbEntity
8
1
100
AcDbVertex
100
AcDb2dVertex
62
5
10
151.750000
20
327.437500
0
VERTEX
5
2a1
100
AcDbEntity
8
1
100
AcDbVertex
100
AcDb2dVertex
62
5
10
151.750000
20
327.125000
0
VERTEX
5
2a2
100
AcDbEntity
8
1
100
AcDbVertex
100
AcDb2dVertex
62
5
10
151.000000
20
325.250000
0
VERTEX
5
2a3
100
AcDbEntity
8
1
100
AcDbVertex
100
AcDb2dVertex
62
5
10
149.750000
20
323.375000
0
VERTEX
5
2a4
100
AcDbEntity
8
1
100
AcDbVertex
100
AcDb2dVertex
62
5
10
148.250000
20
321.812500
0
SEQEND
5
2a5
100
AcDbEntity
8
1
0
LINE
5
2a6
100
AcDbEntity
8
1
100
AcDbLine
6
CONTINUOUS
62
5
10
151.750000
20
328.687500
11
152.250000
21
328.062500
0
LINE
5
2a7
100
AcDbEntity
8
1
100
AcDbLine
6
CONTINUOUS
62
5
10
152.500000
20
329.312500
11
153.000000
21
328.687500
0
LINE
5
2a8
100
AcDbEntity
8
1
100
AcDbLine
6
CONTINUOUS
62
5
10
200.000000
20
163.991193
11
200.000000
21
191.999394
0
LINE
5
2a9
100
AcDbEntity
8
1
100
AcDbLine
6
CONTINUOUS
62
5
10
120.000000
20
163.991193
11
120.000000
21
191.999394
0
POLYLINE
5
2aa
100
AcDbEntity
8
1
6
CONTINUOUS
62
5
100
AcDb2dPolyline
66
1
10
0.0
20
0.0
30
0.0
70
0
0
VERTEX
5
2ab
100
AcDbEntity
8
1
100
AcDbVertex
100
AcDb2dVertex
62
5
10
160.000000
20
189.999394
0
VERTEX
5
2ac
100
AcDbEntity
8
1
100
AcDbVertex
100
AcDb2dVertex
62
5
10
120.000000
20
189.999394
0
VERTEX
5
2ad
100
AcDbEntity
8
1
100
AcDbVertex
100
AcDb2dVertex
62
5
10
126.000000
20
190.999394
0
VERTEX
5
2ae
100
AcDbEntity
8
1
100
AcDbVertex
100
AcDb2dVertex
62
5
10
126.000000
20
188.999394
0
VERTEX
5
2af
100
AcDbEntity
8
1
100
AcDbVertex
100
AcDb2dVertex
62
5
10
120.000000
20
189.999394
0
VERTEX
5
2b0
100
AcDbEntity
8
1
100
AcDbVertex
100
AcDb2dVertex
62
5
10
126.000000
20
190.499394
0
VERTEX
5
2b1
100
AcDbEntity
8
1
100
AcDbVertex
100
AcDb2dVertex
62
5
10
126.000000
20
189.499394
0
VERTEX
5
2b2
100
AcDbEntity
8
1
100
AcDbVertex
100
AcDb2dVertex
62
5
10
120.000000
20
189.999394
0
SEQEND
5
2b3
100
AcDbEntity
8
1
0
POLYLINE
5
2b4
100
AcDbEntity
8
1
6
CONTINUOUS
62
5
100
AcDb2dPolyline
66
1
10
0.0
20
0.0
30
0.0
70
0
0
VERTEX
5
2b5
100
AcDbEntity
8
1
100
AcDbVertex
100
AcDb2dVertex
62
5
10
160.000000
20
189.999394
0
VERTEX
5
2b6
100
AcDbEntity
8
1
100
AcDbVertex
100
AcDb2dVertex
62
5
10
200.000000
20
189.999394
0
VERTEX
5
2b7
100
AcDbEntity
8
1
100
AcDbVertex
100
AcDb2dVertex
62
5
10
194.000000
20
188.999394
0
VERTEX
5
2b8
100
AcDbEntity
8
1
100
AcDbVertex
100
AcDb2dVertex
62
5
10
194.000000
20
190.999394
0
VERTEX
5
2b9
100
AcDbEntity
8
1
100
AcDbVertex
100
AcDb2dVertex
62
5
10
200.000000
20
189.999394
0
VERTEX
5
2ba
100
AcDbEntity
8
1
100
AcDbVertex
100
AcDb2dVertex
62
5
10
194.000000
20
189.499394
0
VERTEX
5
2bb
100
AcDbEntity
8
1
100
AcDbVertex
100
AcDb2dVertex
62
5
10
194.000000
20
190.499394
0
VERTEX
5
2bc
100
AcDbEntity
8
1
100
AcDbVertex
100
AcDb2dVertex
62
5
10
200.000000
20
189.999394
0
SEQEND
5
2bd
100
AcDbEntity
8
1
0
LINE
5
2be
100
AcDbEntity
8
1
100
AcDbLine
6
CONTINUOUS
62
5
10
191.160008
20
157.462069
11
193.347508
21
157.899569
0
POLYLINE
5
2bf
100
AcDbEntity
8
1
6
CONTINUOUS
62
5
100
AcDb2dPolyline
66
1
10
0.0
20
0.0
30
0.0
70
0
0
VERTEX
5
2c0
100
AcDbEntity
8
1
100
AcDbVertex
100
AcDb2dVertex
62
5
10
192.800633
20
157.790194
0
VERTEX
5
2c1
100
AcDbEntity
8
1
100
AcDbVertex
100
AcDb2dVertex
62
5
10
192.363133
20
157.352694
0
VERTEX
5
2c2
100
AcDbEntity
8
1
100
AcDbVertex
100
AcDb2dVertex
62
5
10
192.144383
20
156.915194
0
VERTEX
5
2c3
100
AcDbEntity
8
1
100
AcDbVertex
100
AcDb2dVertex
62
5
10
192.144383
20
156.368319
0
VERTEX
5
2c4
100
AcDbEntity
8
1
100
AcDbVertex
100
AcDb2dVertex
62
5
10
192.253758
20
156.040194
0
VERTEX
5
2c5
100
AcDbEntity
8
1
100
AcDbVertex
100
AcDb2dVertex
62
5
10
192.581883
20
155.821444
0
VERTEX
5
2c6
100
AcDbEntity
8
1
100
AcDbVertex
100
AcDb2dVertex
62
5
10
193.128758
20
155.712069
0
SEQEND
5
2c7
100
AcDbEntity
8
1
0
POLYLINE
5
2c8
100
AcDbEntity
8
1
6
CONTINUOUS
62
5
100
AcDb2dPolyline
66
1
10
0.0
20
0.0
30
0.0
70
0
0
VERTEX
5
2c9
100
AcDbEntity
8
1
100
AcDbVertex
100
AcDb2dVertex
62
5
10
190.812500
20
146.511843
0
VERTEX
5
2ca
100
AcDbEntity
8
1
100
AcDbVertex
100
AcDb2dVertex
62
5
10
191.862500
20
146.686843
0
VERTEX
5
2cb
100
AcDbEntity
8
1
100
AcDbVertex
100
AcDb2dVertex
62
5
10
192.125000
20
146.774343
0
SEQEND
5
2cc
100
AcDbEntity
8
1
0
POLYLINE
5
2cd
100
AcDbEntity
8
1
6
CONTINUOUS
62
5
100
AcDb2dPolyline
66
1
10
0.0
20
0.0
30
0.0
70
0
0
VERTEX
5
2ce
100
AcDbEntity
8
1
100
AcDbVertex
100
AcDb2dVertex
62
5
10
191.337500
20
147.211843
0
VERTEX
5
2cf
100
AcDbEntity
8
1
100
AcDbVertex
100
AcDb2dVertex
62
5
10
191.687500
20
146.511843
0
VERTEX
5
2d0
100
AcDbEntity
8
1
100
AcDbVertex
100
AcDb2dVertex
62
5
10
192.125000
20
145.899343
0
VERTEX
5
2d1
100
AcDbEntity
8
1
100
AcDbVertex
100
AcDb2dVertex
62
5
10
191.512500
20
146.074343
0
VERTEX
5
2d2
100
AcDbEntity
8
1
100
AcDbVertex
100
AcDb2dVertex
62
5
10
191.075000
20
146.074343
0
VERTEX
5
2d3
100
AcDbEntity
8
1
100
AcDbVertex
100
AcDb2dVertex
62
5
10
190.812500
20
145.899343
0
VERTEX
5
2d4
100
AcDbEntity
8
1
100
AcDbVertex
100
AcDb2dVertex
62
5
10
190.725000
20
145.724343
0
VERTEX
5
2d5
100
AcDbEntity
8
1
100
AcDbVertex
100
AcDb2dVertex
62
5
10
190.725000
20
145.636843
0
VERTEX
5
2d6
100
AcDbEntity
8
1
100
AcDbVertex
100
AcDb2dVertex
62
5
10
190.900000
20
145.461843
0
VERTEX
5
2d7
100
AcDbEntity
8
1
100
AcDbVertex
100
AcDb2dVertex
62
5
10
191.162500
20
145.374343
0
VERTEX
5
2d8
100
AcDbEntity
8
1
100
AcDbVertex
100
AcDb2dVertex
62
5
10
191.775000
20
145.286843
0
SEQEND
5
2d9
100
AcDbEntity
8
1
0
POLYLINE
5
2da
100
AcDbEntity
8
1
6
CONTINUOUS
62
5
100
AcDb2dPolyline
66
1
10
0.0
20
0.0
30
0.0
70
0
0
VERTEX
5
2db
100
AcDbEntity
8
1
100
AcDbVertex
100
AcDb2dVertex
62
5
10
193.175000
20
146.774343
0
VERTEX
5
2dc
100
AcDbEntity
8
1
100
AcDbVertex
100
AcDb2dVertex
62
5
10
193.175000
20
146.511843
0
VERTEX
5
2dd
100
AcDbEntity
8
1
100
AcDbVertex
100
AcDb2dVertex
62
5
10
193.350000
20
145.899343
0
VERTEX
5
2de
100
AcDbEntity
8
1
100
AcDbVertex
100
AcDb2dVertex
62
5
10
193.437500
20
145.636843
0
VERTEX
5
2df
100
AcDbEntity
8
1
100
AcDbVertex
100
AcDb2dVertex
62
5
10
193.612500
20
145.461843
0
VERTEX
5
2e0
100
AcDbEntity
8
1
100
AcDbVertex
100
AcDb2dVertex
62
5
10
193.787500
20
145.461843
0
VERTEX
5
2e1
100
AcDbEntity
8
1
100
AcDbVertex
100
AcDb2dVertex
62
5
10
194.050000
20
145.724343
0
SEQEND
5
2e2
100
AcDbEntity
8
1
0
POLYLINE
5
2e3
100
AcDbEntity
8
1
6
CONTINUOUS
62
5
100
AcDb2dPolyline
66
1
10
0.0
20
0.0
30
0.0
70
0
0
VERTEX
5
2e4
100
AcDbEntity
8
1
100
AcDbVertex
100
AcDb2dVertex
62
5
10
194.662500
20
146.686843
0
VERTEX
5
2e5
100
AcDbEntity
8
1
100
AcDbVertex
100
AcDb2dVertex
62
5
10
194.925000
20
146.249343
0
VERTEX
5
2e6
100
AcDbEntity
8
1
100
AcDbVertex
100
AcDb2dVertex
62
5
10
195.012500
20
145.899343
0
SEQEND
5
2e7
100
AcDbEntity
8
1
0
POLYLINE
5
2e8
100
AcDbEntity
8
1
6
CONTINUOUS
62
5
100
AcDb2dPolyline
66
1
10
0.0
20
0.0
30
0.0
70
1
0
VERTEX
5
2e9
100
AcDbEntity
8
1
100
AcDbVertex
100
AcDb2dVertex
62
5
10
195.625000
20
145.549343
0
VERTEX
5
2ea
100
AcDbEntity
8
1
100
AcDbVertex
100
AcDb2dVertex
62
5
10
195.887500
20
145.811843
0
VERTEX
5
2eb
100
AcDbEntity
8
1
100
AcDbVertex
100
AcDb2dVertex
62
5
10
196.062500
20
145.811843
0
VERTEX
5
2ec
100
AcDbEntity
8
1
100
AcDbVertex
100
AcDb2dVertex
62
5
10
196.325000
20
145.549343
0
VERTEX
5
2ed
100
AcDbEntity
8
1
100
AcDbVertex
100
AcDb2dVertex
62
5
10
196.325000
20
145.374343
0
VERTEX
5
2ee
100
AcDbEntity
8
1
100
AcDbVertex
100
AcDb2dVertex
62
5
10
196.062500
20
145.111843
0
VERTEX
5
2ef
100
AcDbEntity
8
1
100
AcDbVertex
100
AcDb2dVertex
62
5
10
195.887500
20
145.111843
0
VERTEX
5
2f0
100
AcDbEntity
8
1
100
AcDbVertex
100
AcDb2dVertex
62
5
10
195.625000
20
145.374343
0
VERTEX
5
2f1
100
AcDbEntity
8
1
100
AcDbVertex
100
AcDb2dVertex
62
5
10
195.625000
20
145.549343
0
SEQEND
5
2f2
100
AcDbEntity
8
1
0
POLYLINE
5
2f3
100
AcDbEntity
8
1
6
CONTINUOUS
62
5
100
AcDb2dPolyline
66
1
10
0.0
20
0.0
30
0.0
70
0
0
VERTEX
5
2f4
100
AcDbEntity
8
1
100
AcDbVertex
100
AcDb2dVertex
62
5
10
181.644383
20
157.899569
0
VERTEX
5
2f5
100
AcDbEntity
8
1
100
AcDbVertex
100
AcDb2dVertex
62
5
10
181.644383
20
157.571444
0
VERTEX
5
2f6
100
AcDbEntity
8
1
100
AcDbVertex
100
AcDb2dVertex
62
5
10
181.535008
20
157.133944
0
VERTEX
5
2f7
100
AcDbEntity
8
1
100
AcDbVertex
100
AcDb2dVertex
62
5
10
181.535008
20
156.149569
0
VERTEX
5
2f8
100
AcDbEntity
8
1
100
AcDbVertex
100
AcDb2dVertex
62
5
10
181.753758
20
155.821444
0
SEQEND
5
2f9
100
AcDbEntity
8
1
0
POLYLINE
5
2fa
100
AcDbEntity
8
1
6
CONTINUOUS
62
5
100
AcDb2dPolyline
66
1
10
0.0
20
0.0
30
0.0
70
0
0
VERTEX
5
2fb
100
AcDbEntity
8
1
100
AcDbVertex
100
AcDb2dVertex
62
5
10
182.410008
20
157.571444
0
VERTEX
5
2fc
100
AcDbEntity
8
1
100
AcDbVertex
100
AcDb2dVertex
62
5
10
183.175633
20
157.571444
0
VERTEX
5
2fd
100
AcDbEntity
8
1
100
AcDbVertex
100
AcDb2dVertex
62
5
10
183.503758
20
157.462069
0
SEQEND
5
2fe
100
AcDbEntity
8
1
0
POLYLINE
5
2ff
100
AcDbEntity
8
1
6
CONTINUOUS
62
5
100
AcDb2dPolyline
66
1
10
0.0
20
0.0
30
0.0
70
0
0
VERTEX
5
300
100
AcDbEntity
8
1
100
AcDbVertex
100
AcDb2dVertex
62
5
10
182.300633
20
156.258944
0
VERTEX
5
301
100
AcDbEntity
8
1
100
AcDbVertex
100
AcDb2dVertex
62
5
10
182.410008
20
156.149569
0
VERTEX
5
302
100
AcDbEntity
8
1
100
AcDbVertex
100
AcDb2dVertex
62
5
10
182.738133
20
156.040194
0
VERTEX
5
303
100
AcDbEntity
8
1
100
AcDbVertex
100
AcDb2dVertex
62
5
10
183.722508
20
156.040194
0
SEQEND
5
304
100
AcDbEntity
8
1
0
POLYLINE
5
305
100
AcDbEntity
8
1
6
CONTINUOUS
62
5
100
AcDb2dPolyline
66
1
10
0.0
20
0.0
30
0.0
70
0
0
VERTEX
5
306
100
AcDbEntity
8
1
100
AcDbVertex
100
AcDb2dVertex
62
5
10
184.488133
20
157.024569
0
VERTEX
5
307
100
AcDbEntity
8
1
100
AcDbVertex
100
AcDb2dVertex
62
5
10
185.581883
20
157.462069
0
VERTEX
5
308
100
AcDbEntity
8
1
100
AcDbVertex
100
AcDb2dVertex
62
5
10
185.910008
20
157.571444
0
VERTEX
5
309
100
AcDbEntity
8
1
100
AcDbVertex
100
AcDb2dVertex
62
5
10
186.347508
20
157.571444
0
VERTEX
5
30a
100
AcDbEntity
8
1
100
AcDbVertex
100
AcDb2dVertex
62
5
10
186.785008
20
157.352694
0
VERTEX
5
30b
100
AcDbEntity
8
1
100
AcDbVertex
100
AcDb2dVertex
62
5
10
187.003758
20
156.915194
0
VERTEX
5
30c
100
AcDbEntity
8
1
100
AcDbVertex
100
AcDb2dVertex
62
5
10
187.003758
20
156.587069
0
VERTEX
5
30d
100
AcDbEntity
8
1
100
AcDbVertex
100
AcDb2dVertex
62
5
10
186.566258
20
156.149569
0
VERTEX
5
30e
100
AcDbEntity
8
1
100
AcDbVertex
100
AcDb2dVertex
62
5
10
186.128758
20
155.930819
0
VERTEX
5
30f
100
AcDbEntity
8
1
100
AcDbVertex
100
AcDb2dVertex
62
5
10
185.581883
20
155.821444
0
SEQEND
5
310
100
AcDbEntity
8
1
0
POLYLINE
5
311
100
AcDbEntity
8
1
6
CONTINUOUS
62
5
100
AcDb2dPolyline
66
1
10
0.0
20
0.0
30
0.0
70
0
0
VERTEX
5
312
100
AcDbEntity
8
1
100
AcDbVertex
100
AcDb2dVertex
62
5
10
171.363133
20
157.024569
0
VERTEX
5
313
100
AcDbEntity
8
1
100
AcDbVertex
100
AcDb2dVertex
62
5
10
173.660008
20
157.243319
0
VERTEX
5
314
100
AcDbEntity
8
1
100
AcDbVertex
100
AcDb2dVertex
62
5
10
173.660008
20
157.133944
0
VERTEX
5
315
100
AcDbEntity
8
1
100
AcDbVertex
100
AcDb2dVertex
62
5
10
173.113133
20
156.587069
0
SEQEND
5
316
100
AcDbEntity
8
1
0
POLYLINE
5
317
100
AcDbEntity
8
1
6
CONTINUOUS
62
5
100
AcDb2dPolyline
66
1
10
0.0
20
0.0
30
0.0
70
0
0
VERTEX
5
318
100
AcDbEntity
8
1
100
AcDbVertex
100
AcDb2dVertex
62
5
10
172.238133
20
158.008944
0
VERTEX
5
319
100
AcDbEntity
8
1
100
AcDbVertex
100
AcDb2dVertex
62
5
10
172.238133
20
155.930819
0
VERTEX
5
31a
100
AcDbEntity
8
1
100
AcDbVertex
100
AcDb2dVertex
62
5
10
172.456883
20
155.712069
0
VERTEX
5
31b
100
AcDbEntity
8
1
100
AcDbVertex
100
AcDb2dVertex
62
5
10
173.660008
20
155.712069
0
SEQEND
5
31c
100
AcDbEntity
8
1
0
LINE
5
31d
100
AcDbEntity
8
1
100
AcDbLine
6
CONTINUOUS
62
5
10
174.972508
20
157.680819
11
175.410008
21
157.243319
0
POLYLINE
5
31e
100
AcDbEntity
8
1
6
CONTINUOUS
62
5
100
AcDb2dPolyline
66
1
10
0.0
20
0.0
30
0.0
70
0
0
VERTEX
5
31f
100
AcDbEntity
8
1
100
AcDbVertex
100
AcDb2dVertex
62
5
10
174.863133
20
155.930819
0
VERTEX
5
320
100
AcDbEntity
8
1
100
AcDbVertex
100
AcDb2dVertex
62
5
10
175.628758
20
156.258944
0
VERTEX
5
321
100
AcDbEntity
8
1
100
AcDbVertex
100
AcDb2dVertex
62
5
10
176.285008
20
156.696444
0
VERTEX
5
322
100
AcDbEntity
8
1
100
AcDbVertex
100
AcDb2dVertex
62
5
10
176.941258
20
157.243319
0
SEQEND
5
323
100
AcDbEntity
8
1
0
POLYLINE
5
324
100
AcDbEntity
8
1
6
CONTINUOUS
62
5
100
AcDb2dPolyline
66
1
10
0.0
20
0.0
30
0.0
70
0
0
VERTEX
5
325
100
AcDbEntity
8
1
100
AcDbVertex
100
AcDb2dVertex
62
5
10
172.875000
20
151.361843
0
VERTEX
5
326
100
AcDbEntity
8
1
100
AcDbVertex
100
AcDb2dVertex
62
5
10
173.225000
20
151.274343
0
VERTEX
5
327
100
AcDbEntity
8
1
100
AcDbVertex
100
AcDb2dVertex
62
5
10
173.750000
20
151.274343
0
VERTEX
5
328
100
AcDbEntity
8
1
100
AcDbVertex
100
AcDb2dVertex
62
5
10
174.100000
20
151.361843
0
SEQEND
5
329
100
AcDbEntity
8
1
0
POLYLINE
5
32a
100
AcDbEntity
8
1
6
CONTINUOUS
62
5
100
AcDb2dPolyline
66
1
10
0.0
20
0.0
30
0.0
70
0
0
VERTEX
5
32b
100
AcDbEntity
8
1
100
AcDbVertex
100
AcDb2dVertex
62
5
10
172.962500
20
150.924343
0
VERTEX
5
32c
100
AcDbEntity
8
1
100
AcDbVertex
100
AcDb2dVertex
62
5
10
173.312500
20
150.836843
0
VERTEX
5
32d
100
AcDbEntity
8
1
100
AcDbVertex
100
AcDb2dVertex
62
5
10
174.012500
20
150.836843
0
SEQEND
5
32e
100
AcDbEntity
8
1
0
POLYLINE
5
32f
100
AcDbEntity
8
1
6
CONTINUOUS
62
5
100
AcDb2dPolyline
66
1
10
0.0
20
0.0
30
0.0
70
0
0
VERTEX
5
330
100
AcDbEntity
8
1
100
AcDbVertex
100
AcDb2dVertex
62
5
10
173.575000
20
151.711843
0
VERTEX
5
331
100
AcDbEntity
8
1
100
AcDbVertex
100
AcDb2dVertex
62
5
10
173.575000
20
150.049343
0
VERTEX
5
332
100
AcDbEntity
8
1
100
AcDbVertex
100
AcDb2dVertex
62
5
10
173.487500
20
149.874343
0
VERTEX
5
333
100
AcDbEntity
8
1
100
AcDbVertex
100
AcDb2dVertex
62
5
10
173.312500
20
149.786843
0
VERTEX
5
334
100
AcDbEntity
8
1
100
AcDbVertex
100
AcDb2dVertex
62
5
10
173.050000
20
149.786843
0
VERTEX
5
335
100
AcDbEntity
8
1
100
AcDbVertex
100
AcDb2dVertex
62
5
10
172.875000
20
149.874343
0
VERTEX
5
336
100
AcDbEntity
8
1
100
AcDbVertex
100
AcDb2dVertex
62
5
10
172.787500
20
149.961843
0
VERTEX
5
337
100
AcDbEntity
8
1
100
AcDbVertex
100
AcDb2dVertex
62
5
10
172.787500
20
150.049343
0
VERTEX
5
338
100
AcDbEntity
8
1
100
AcDbVertex
100
AcDb2dVertex
62
5
10
172.962500
20
150.224343
0
VERTEX
5
339
100
AcDbEntity
8
1
100
AcDbVertex
100
AcDb2dVertex
62
5
10
173.225000
20
150.311843
0
VERTEX
5
33a
100
AcDbEntity
8
1
100
AcDbVertex
100
AcDb2dVertex
62
5
10
173.487500
20
150.224343
0
VERTEX
5
33b
100
AcDbEntity
8
1
100
AcDbVertex
100
AcDb2dVertex
62
5
10
174.012500
20
149.874343
0
SEQEND
5
33c
100
AcDbEntity
8
1
0
LINE
5
33d
100
AcDbEntity
8
1
100
AcDbLine
6
CONTINUOUS
62
5
10
175.150000
20
151.099343
11
176.987500
21
151.274343
0
POLYLINE
5
33e
100
AcDbEntity
8
1
6
CONTINUOUS
62
5
100
AcDb2dPolyline
66
1
10
0.0
20
0.0
30
0.0
70
0
0
VERTEX
5
33f
100
AcDbEntity
8
1
100
AcDbVertex
100
AcDb2dVertex
62
5
10
176.200000
20
151.711843
0
VERTEX
5
340
100
AcDbEntity
8
1
100
AcDbVertex
100
AcDb2dVertex
62
5
10
176.200000
20
150.311843
0
VERTEX
5
341
100
AcDbEntity
8
1
100
AcDbVertex
100
AcDb2dVertex
62
5
10
176.025000
20
150.136843
0
VERTEX
5
342
100
AcDbEntity
8
1
100
AcDbVertex
100
AcDb2dVertex
62
5
10
175.762500
20
150.136843
0
VERTEX
5
343
100
AcDbEntity
8
1
100
AcDbVertex
100
AcDb2dVertex
62
5
10
175.587500
20
150.311843
0
VERTEX
5
344
100
AcDbEntity
8
1
100
AcDbVertex
100
AcDb2dVertex
62
5
10
175.587500
20
150.486843
0
VERTEX
5
345
100
AcDbEntity
8
1
100
AcDbVertex
100
AcDb2dVertex
62
5
10
175.675000
20
150.749343
0
VERTEX
5
346
100
AcDbEntity
8
1
100
AcDbVertex
100
AcDb2dVertex
62
5
10
175.937500
20
150.836843
0
VERTEX
5
347
100
AcDbEntity
8
1
100
AcDbVertex
100
AcDb2dVertex
62
5
10
176.112500
20
150.836843
0
VERTEX
5
348
100
AcDbEntity
8
1
100
AcDbVertex
100
AcDb2dVertex
62
5
10
176.200000
20
150.749343
0
SEQEND
5
349
100
AcDbEntity
8
1
0
POLYLINE
5
34a
100
AcDbEntity
8
1
6
CONTINUOUS
62
5
100
AcDb2dPolyline
66
1
10
0.0
20
0.0
30
0.0
70
0
0
VERTEX
5
34b
100
AcDbEntity
8
1
100
AcDbVertex
100
AcDb2dVertex
62
5
10
176.200000
20
150.311843
0
VERTEX
5
34c
100
AcDbEntity
8
1
100
AcDbVertex
100
AcDb2dVertex
62
5
10
176.200000
20
150.049343
0
VERTEX
5
34d
100
AcDbEntity
8
1
100
AcDbVertex
100
AcDb2dVertex
62
5
10
176.025000
20
149.699343
0
VERTEX
5
34e
100
AcDbEntity
8
1
100
AcDbVertex
100
AcDb2dVertex
62
5
10
175.762500
20
149.524343
0
SEQEND
5
34f
100
AcDbEntity
8
1
0
POLYLINE
5
350
100
AcDbEntity
8
1
6
CONTINUOUS
62
5
100
AcDb2dPolyline
66
1
10
0.0
20
0.0
30
0.0
70
1
0
VERTEX
5
351
100
AcDbEntity
8
1
100
AcDbVertex
100
AcDb2dVertex
62
5
10
177.600000
20
150.049343
0
VERTEX
5
352
100
AcDbEntity
8
1
100
AcDbVertex
100
AcDb2dVertex
62
5
10
177.862500
20
150.311843
0
VERTEX
5
353
100
AcDbEntity
8
1
100
AcDbVertex
100
AcDb2dVertex
62
5
10
178.037500
20
150.311843
0
VERTEX
5
354
100
AcDbEntity
8
1
100
AcDbVertex
100
AcDb2dVertex
62
5
10
178.300000
20
150.049343
0
VERTEX
5
355
100
AcDbEntity
8
1
100
AcDbVertex
100
AcDb2dVertex
62
5
10
178.300000
20
149.874343
0
VERTEX
5
356
100
AcDbEntity
8
1
100
AcDbVertex
100
AcDb2dVertex
62
5
10
178.037500
20
149.611843
0
VERTEX
5
357
100
AcDbEntity
8
1
100
AcDbVertex
100
AcDb2dVertex
62
5
10
177.862500
20
149.611843
0
VERTEX
5
358
100
AcDbEntity
8
1
100
AcDbVertex
100
AcDb2dVertex
62
5
10
177.600000
20
149.874343
0
VERTEX
5
359
100
AcDbEntity
8
1
100
AcDbVertex
100
AcDb2dVertex
62
5
10
177.600000
20
150.049343
0
SEQEND
5
35a
100
AcDbEntity
8
1
0
POLYLINE
5
35b
100
AcDbEntity
8
1
6
CONTINUOUS
62
5
100
AcDb2dPolyline
66
1
10
0.0
20
0.0
30
0.0
70
0
0
VERTEX
5
35c
100
AcDbEntity
8
1
100
AcDbVertex
100
AcDb2dVertex
62
5
10
178.910008
20
157.243319
0
VERTEX
5
35d
100
AcDbEntity
8
1
100
AcDbVertex
100
AcDb2dVertex
62
5
10
179.019383
20
157.243319
0
VERTEX
5
35e
100
AcDbEntity
8
1
100
AcDbVertex
100
AcDb2dVertex
62
5
10
179.785008
20
156.805819
0
SEQEND
5
35f
100
AcDbEntity
8
1
0
LINE
5
360
100
AcDbEntity
8
1
100
AcDbLine
6
CONTINUOUS
62
5
10
178.910008
20
158.227694
11
178.910008
21
155.602694
0
POLYLINE
5
361
100
AcDbEntity
8
1
6
CONTINUOUS
62
5
100
AcDb2dPolyline
66
1
10
0.0
20
0.0
30
0.0
70
0
0
VERTEX
5
362
100
AcDbEntity
8
1
100
AcDbVertex
100
AcDb2dVertex
62
5
10
182.762500
20
147.299343
0
VERTEX
5
363
100
AcDbEntity
8
1
100
AcDbVertex
100
AcDb2dVertex
62
5
10
182.762500
20
145.724343
0
VERTEX
5
364
100
AcDbEntity
8
1
100
AcDbVertex
100
AcDb2dVertex
62
5
10
182.587500
20
145.374343
0
VERTEX
5
365
100
AcDbEntity
8
1
100
AcDbVertex
100
AcDb2dVertex
62
5
10
182.412500
20
145.111843
0
SEQEND
5
366
100
AcDbEntity
8
1
0
POLYLINE
5
367
100
AcDbEntity
8
1
6
CONTINUOUS
62
5
100
AcDb2dPolyline
66
1
10
0.0
20
0.0
30
0.0
70
0
0
VERTEX
5
368
100
AcDbEntity
8
1
100
AcDbVertex
100
AcDb2dVertex
62
5
10
184.162500
20
145.199343
0
VERTEX
5
369
100
AcDbEntity
8
1
100
AcDbVertex
100
AcDb2dVertex
62
5
10
184.512500
20
145.024343
0
VERTEX
5
36a
100
AcDbEntity
8
1
100
AcDbVertex
100
AcDb2dVertex
62
5
10
184.512500
20
147.299343
0
VERTEX
5
36b
100
AcDbEntity
8
1
100
AcDbVertex
100
AcDb2dVertex
62
5
10
182.762500
20
147.299343
0
SEQEND
5
36c
100
AcDbEntity
8
1
0
LINE
5
36d
100
AcDbEntity
8
1
100
AcDbLine
6
CONTINUOUS
62
5
10
182.762500
20
146.599343
11
184.512500
21
146.599343
0
LINE
5
36e
100
AcDbEntity
8
1
100
AcDbLine
6
CONTINUOUS
62
5
10
183.637500
20
147.299343
11
183.637500
21
145.024343
0
LINE
5
36f
100
AcDbEntity
8
1
100
AcDbLine
6
CONTINUOUS
62
5
10
182.762500
20
145.899343
11
184.512500
21
145.899343
0
POLYLINE
5
370
100
AcDbEntity
8
1
6
CONTINUOUS
62
5
100
AcDb2dPolyline
66
1
10
0.0
20
0.0
30
0.0
70
0
0
VERTEX
5
371
100
AcDbEntity
8
1
100
AcDbVertex
100
AcDb2dVertex
62
5
10
186.350000
20
147.299343
0
VERTEX
5
372
100
AcDbEntity
8
1
100
AcDbVertex
100
AcDb2dVertex
62
5
10
185.650000
20
146.249343
0
VERTEX
5
373
100
AcDbEntity
8
1
100
AcDbVertex
100
AcDb2dVertex
62
5
10
186.350000
20
145.286843
0
SEQEND
5
374
100
AcDbEntity
8
1
0
POLYLINE
5
375
100
AcDbEntity
8
1
6
CONTINUOUS
62
5
100
AcDb2dPolyline
66
1
10
0.0
20
0.0
30
0.0
70
1
0
VERTEX
5
376
100
AcDbEntity
8
1
100
AcDbVertex
100
AcDb2dVertex
62
5
10
172.087500
20
147.299343
0
VERTEX
5
377
100
AcDbEntity
8
1
100
AcDbVertex
100
AcDb2dVertex
62
5
10
172.875000
20
147.299343
0
VERTEX
5
378
100
AcDbEntity
8
1
100
AcDbVertex
100
AcDb2dVertex
62
5
10
172.875000
20
146.774343
0
VERTEX
5
379
100
AcDbEntity
8
1
100
AcDbVertex
100
AcDb2dVertex
62
5
10
172.087500
20
146.774343
0
VERTEX
5
37a
100
AcDbEntity
8
1
100
AcDbVertex
100
AcDb2dVertex
62
5
10
172.087500
20
147.299343
0
SEQEND
5
37b
100
AcDbEntity
8
1
0
POLYLINE
5
37c
100
AcDbEntity
8
1
6
CONTINUOUS
62
5
100
AcDb2dPolyline
66
1
10
0.0
20
0.0
30
0.0
70
1
0
VERTEX
5
37d
100
AcDbEntity
8
1
100
AcDbVertex
100
AcDb2dVertex
62
5
10
173.312500
20
147.299343
0
VERTEX
5
37e
100
AcDbEntity
8
1
100
AcDbVertex
100
AcDb2dVertex
62
5
10
174.100000
20
147.299343
0
VERTEX
5
37f
100
AcDbEntity
8
1
100
AcDbVertex
100
AcDb2dVertex
62
5
10
174.100000
20
146.774343
0
VERTEX
5
380
100
AcDbEntity
8
1
100
AcDbVertex
100
AcDb2dVertex
62
5
10
173.312500
20
146.774343
0
VERTEX
5
381
100
AcDbEntity
8
1
100
AcDbVertex
100
AcDb2dVertex
62
5
10
173.312500
20
147.299343
0
SEQEND
5
382
100
AcDbEntity
8
1
0
LINE
5
383
100
AcDbEntity
8
1
100
AcDbLine
6
CONTINUOUS
62
5
10
171.912500
20
146.336843
11
174.275000
21
146.336843
0
POLYLINE
5
384
100
AcDbEntity
8
1
6
CONTINUOUS
62
5
100
AcDb2dPolyline
66
1
10
0.0
20
0.0
30
0.0
70
0
0
VERTEX
5
385
100
AcDbEntity
8
1
100
AcDbVertex
100
AcDb2dVertex
62
5
10
173.137500
20
146.686843
0
VERTEX
5
386
100
AcDbEntity
8
1
100
AcDbVertex
100
AcDb2dVertex
62
5
10
172.875000
20
146.249343
0
VERTEX
5
387
100
AcDbEntity
8
1
100
AcDbVertex
100
AcDb2dVertex
62
5
10
172.525000
20
145.899343
0
VERTEX
5
388
100
AcDbEntity
8
1
100
AcDbVertex
100
AcDb2dVertex
62
5
10
171.825000
20
145.549343
0
SEQEND
5
389
100
AcDbEntity
8
1
0
POLYLINE
5
38a
100
AcDbEntity
8
1
6
CONTINUOUS
62
5
100
AcDb2dPolyline
66
1
10
0.0
20
0.0
30
0.0
70
0
0
VERTEX
5
38b
100
AcDbEntity
8
1
100
AcDbVertex
100
AcDb2dVertex
62
5
10
173.225000
20
146.336843
0
VERTEX
5
38c
100
AcDbEntity
8
1
100
AcDbVertex
100
AcDb2dVertex
62
5
10
173.487500
20
146.074343
0
VERTEX
5
38d
100
AcDbEntity
8
1
100
AcDbVertex
100
AcDb2dVertex
62
5
10
173.925000
20
145.724343
0
VERTEX
5
38e
100
AcDbEntity
8
1
100
AcDbVertex
100
AcDb2dVertex
62
5
10
174.362500
20
145.549343
0
SEQEND
5
38f
100
AcDbEntity
8
1
0
POLYLINE
5
390
100
AcDbEntity
8
1
6
CONTINUOUS
62
5
100
AcDb2dPolyline
66
1
10
0.0
20
0.0
30
0.0
70
1
0
VERTEX
5
391
100
AcDbEntity
8
1
100
AcDbVertex
100
AcDb2dVertex
62
5
10
172.175000
20
145.636843
0
VERTEX
5
392
100
AcDbEntity
8
1
100
AcDbVertex
100
AcDb2dVertex
62
5
10
172.875000
20
145.636843
0
VERTEX
5
393
100
AcDbEntity
8
1
100
AcDbVertex
100
AcDb2dVertex
62
5
10
172.875000
20
145.024343
0
VERTEX
5
394
100
AcDbEntity
8
1
100
AcDbVertex
100
AcDb2dVertex
62
5
10
172.175000
20
145.024343
0
VERTEX
5
395
100
AcDbEntity
8
1
100
AcDbVertex
100
AcDb2dVertex
62
5
10
172.175000
20
145.636843
0
SEQEND
5
396
100
AcDbEntity
8
1
0
POLYLINE
5
397
100
AcDbEntity
8
1
6
CONTINUOUS
62
5
100
AcDb2dPolyline
66
1
10
0.0
20
0.0
30
0.0
70
1
0
VERTEX
5
398
100
AcDbEntity
8
1
100
AcDbVertex
100
AcDb2dVertex
62
5
10
173.312500
20
145.636843
0
VERTEX
5
399
100
AcDbEntity
8
1
100
AcDbVertex
100
AcDb2dVertex
62
5
10
174.012500
20
145.636843
0
VERTEX
5
39a
100
AcDbEntity
8
1
100
AcDbVertex
100
AcDb2dVertex
62
5
10
174.012500
20
145.024343
0
VERTEX
5
39b
100
AcDbEntity
8
1
100
AcDbVertex
100
AcDb2dVertex
62
5
10
173.312500
20
145.024343
0
VERTEX
5
39c
100
AcDbEntity
8
1
100
AcDbVertex
100
AcDb2dVertex
62
5
10
173.312500
20
145.636843
0
SEQEND
5
39d
100
AcDbEntity
8
1
0
LINE
5
39e
100
AcDbEntity
8
1
100
AcDbLine
6
CONTINUOUS
62
5
10
175.062500
20
146.861843
11
175.937500
21
146.949343
0
POLYLINE
5
39f
100
AcDbEntity
8
1
6
CONTINUOUS
62
5
100
AcDb2dPolyline
66
1
10
0.0
20
0.0
30
0.0
70
0
0
VERTEX
5
3a0
100
AcDbEntity
8
1
100
AcDbVertex
100
AcDb2dVertex
62
5
10
175.675000
20
147.299343
0
VERTEX
5
3a1
100
AcDbEntity
8
1
100
AcDbVertex
100
AcDb2dVertex
62
5
10
175.237500
20
146.511843
0
VERTEX
5
3a2
100
AcDbEntity
8
1
100
AcDbVertex
100
AcDb2dVertex
62
5
10
174.975000
20
145.986843
0
VERTEX
5
3a3
100
AcDbEntity
8
1
100
AcDbVertex
100
AcDb2dVertex
62
5
10
175.325000
20
146.336843
0
VERTEX
5
3a4
100
AcDbEntity
8
1
100
AcDbVertex
100
AcDb2dVertex
62
5
10
175.587500
20
146.424343
0
VERTEX
5
3a5
100
AcDbEntity
8
1
100
AcDbVertex
100
AcDb2dVertex
62
5
10
175.762500
20
146.424343
0
VERTEX
5
3a6
100
AcDbEntity
8
1
100
AcDbVertex
100
AcDb2dVertex
62
5
10
175.937500
20
146.161843
0
VERTEX
5
3a7
100
AcDbEntity
8
1
100
AcDbVertex
100
AcDb2dVertex
62
5
10
175.937500
20
145.811843
0
SEQEND
5
3a8
100
AcDbEntity
8
1
0
POLYLINE
5
3a9
100
AcDbEntity
8
1
6
CONTINUOUS
62
5
100
AcDb2dPolyline
66
1
10
0.0
20
0.0
30
0.0
70
0
0
VERTEX
5
3aa
100
AcDbEntity
8
1
100
AcDbVertex
100
AcDb2dVertex
62
5
10
176.462500
20
146.336843
0
VERTEX
5
3ab
100
AcDbEntity
8
1
100
AcDbVertex
100
AcDb2dVertex
62
5
10
175.937500
20
146.161843
0
VERTEX
5
3ac
100
AcDbEntity
8
1
100
AcDbVertex
100
AcDb2dVertex
62
5
10
175.675000
20
145.986843
0
VERTEX
5
3ad
100
AcDbEntity
8
1
100
AcDbVertex
100
AcDb2dVertex
62
5
10
175.412500
20
145.724343
0
VERTEX
5
3ae
100
AcDbEntity
8
1
100
AcDbVertex
100
AcDb2dVertex
62
5
10
175.325000
20
145.461843
0
VERTEX
5
3af
100
AcDbEntity
8
1
100
AcDbVertex
100
AcDb2dVertex
62
5
10
175.500000
20
145.286843
0
VERTEX
5
3b0
100
AcDbEntity
8
1
100
AcDbVertex
100
AcDb2dVertex
62
5
10
176.287500
20
145.286843
0
SEQEND
5
3b1
100
AcDbEntity
8
1
0
LINE
5
3b2
100
AcDbEntity
8
1
100
AcDbLine
6
CONTINUOUS
62
5
10
177.687500
20
146.861843
11
178.650000
21
146.861843
0
POLYLINE
5
3b3
100
AcDbEntity
8
1
6
CONTINUOUS
62
5
100
AcDb2dPolyline
66
1
10
0.0
20
0.0
30
0.0
70
0
0
VERTEX
5
3b4
100
AcDbEntity
8
1
100
AcDbVertex
100
AcDb2dVertex
62
5
10
177.425000
20
145.811843
0
VERTEX
5
3b5
100
AcDbEntity
8
1
100
AcDbVertex
100
AcDb2dVertex
62
5
10
177.600000
20
145.636843
0
VERTEX
5
3b6
100
AcDbEntity
8
1
100
AcDbVertex
100
AcDb2dVertex
62
5
10
178.037500
20
145.461843
0
VERTEX
5
3b7
100
AcDbEntity
8
1
100
AcDbVertex
100
AcDb2dVertex
62
5
10
178.475000
20
145.461843
0
VERTEX
5
3b8
100
AcDbEntity
8
1
100
AcDbVertex
100
AcDb2dVertex
62
5
10
179.000000
20
145.549343
0
SEQEND
5
3b9
100
AcDbEntity
8
1
0
LINE
5
3ba
100
AcDbEntity
8
1
100
AcDbLine
6
CONTINUOUS
62
5
10
179.000000
20
146.774343
11
179.175000
21
146.511843
0
LINE
5
3bb
100
AcDbEntity
8
1
100
AcDbLine
6
CONTINUOUS
62
5
10
179.175000
20
147.036843
11
179.437500
21
146.774343
0
POLYLINE
5
3bc
100
AcDbEntity
8
1
6
CONTINUOUS
62
5
100
AcDb2dPolyline
66
1
10
0.0
20
0.0
30
0.0
70
0
0
VERTEX
5
3bd
100
AcDbEntity
8
1
100
AcDbVertex
100
AcDb2dVertex
62
5
10
180.487500
20
147.474343
0
VERTEX
5
3be
100
AcDbEntity
8
1
100
AcDbVertex
100
AcDb2dVertex
62
5
10
180.225000
20
146.861843
0
VERTEX
5
3bf
100
AcDbEntity
8
1
100
AcDbVertex
100
AcDb2dVertex
62
5
10
179.787500
20
146.336843
0
SEQEND
5
3c0
100
AcDbEntity
8
1
0
LINE
5
3c1
100
AcDbEntity
8
1
100
AcDbLine
6
CONTINUOUS
62
5
10
180.225000
20
146.861843
11
180.225000
21
145.024343
0
LINE
5
3c2
100
AcDbEntity
8
1
100
AcDbLine
6
CONTINUOUS
62
5
10
180.662500
20
147.124343
11
182.150000
21
147.124343
0
POLYLINE
5
3c3
100
AcDbEntity
8
1
6
CONTINUOUS
62
5
100
AcDb2dPolyline
66
1
10
0.0
20
0.0
30
0.0
70
1
0
VERTEX
5
3c4
100
AcDbEntity
8
1
100
AcDbVertex
100
AcDb2dVertex
62
5
10
180.837500
20
146.774343
0
VERTEX
5
3c5
100
AcDbEntity
8
1
100
AcDbVertex
100
AcDb2dVertex
62
5
10
180.837500
20
146.161843
0
VERTEX
5
3c6
100
AcDbEntity
8
1
100
AcDbVertex
100
AcDb2dVertex
62
5
10
181.975000
20
146.161843
0
VERTEX
5
3c7
100
AcDbEntity
8
1
100
AcDbVertex
100
AcDb2dVertex
62
5
10
181.975000
20
146.774343
0
VERTEX
5
3c8
100
AcDbEntity
8
1
100
AcDbVertex
100
AcDb2dVertex
62
5
10
180.837500
20
146.774343
0
SEQEND
5
3c9
100
AcDbEntity
8
1
0
POLYLINE
5
3ca
100
AcDbEntity
8
1
6
CONTINUOUS
62
5
100
AcDb2dPolyline
66
1
10
0.0
20
0.0
30
0.0
70
0
0
VERTEX
5
3cb
100
AcDbEntity
8
1
100
AcDbVertex
100
AcDb2dVertex
62
5
10
181.362500
20
147.474343
0
VERTEX
5
3cc
100
AcDbEntity
8
1
100
AcDbVertex
100
AcDb2dVertex
62
5
10
181.362500
20
146.161843
0
VERTEX
5
3cd
100
AcDbEntity
8
1
100
AcDbVertex
100
AcDb2dVertex
62
5
10
181.275000
20
145.724343
0
VERTEX
5
3ce
100
AcDbEntity
8
1
100
AcDbVertex
100
AcDb2dVertex
62
5
10
181.012500
20
145.374343
0
VERTEX
5
3cf
100
AcDbEntity
8
1
100
AcDbVertex
100
AcDb2dVertex
62
5
10
180.487500
20
145.024343
0
SEQEND
5
3d0
100
AcDbEntity
8
1
0
POLYLINE
5
3d1
100
AcDbEntity
8
1
6
CONTINUOUS
62
5
100
AcDb2dPolyline
66
1
10
0.0
20
0.0
30
0.0
70
0
0
VERTEX
5
3d2
100
AcDbEntity
8
1
100
AcDbVertex
100
AcDb2dVertex
62
5
10
180.750000
20
145.724343
0
VERTEX
5
3d3
100
AcDbEntity
8
1
100
AcDbVertex
100
AcDb2dVertex
62
5
10
180.925000
20
145.986843
0
VERTEX
5
3d4
100
AcDbEntity
8
1
100
AcDbVertex
100
AcDb2dVertex
62
5
10
181.187500
20
145.636843
0
VERTEX
5
3d5
100
AcDbEntity
8
1
100
AcDbVertex
100
AcDb2dVertex
62
5
10
181.625000
20
145.286843
0
VERTEX
5
3d6
100
AcDbEntity
8
1
100
AcDbVertex
100
AcDb2dVertex
62
5
10
182.150000
20
145.024343
0
SEQEND
5
3d7
100
AcDbEntity
8
1
0
POLYLINE
5
3d8
100
AcDbEntity
8
1
6
CONTINUOUS
62
5
100
AcDb2dPolyline
66
1
10
0.0
20
0.0
30
0.0
70
0
0
VERTEX
5
3d9
100
AcDbEntity
8
1
100
AcDbVertex
100
AcDb2dVertex
62
5
10
161.738133
20
158.227694
0
VERTEX
5
3da
100
AcDbEntity
8
1
100
AcDbVertex
100
AcDb2dVertex
62
5
10
161.738133
20
156.258944
0
VERTEX
5
3db
100
AcDbEntity
8
1
100
AcDbVertex
100
AcDb2dVertex
62
5
10
161.519383
20
155.821444
0
VERTEX
5
3dc
100
AcDbEntity
8
1
100
AcDbVertex
100
AcDb2dVertex
62
5
10
161.300633
20
155.493319
0
SEQEND
5
3dd
100
AcDbEntity
8
1
0
POLYLINE
5
3de
100
AcDbEntity
8
1
6
CONTINUOUS
62
5
100
AcDb2dPolyline
66
1
10
0.0
20
0.0
30
0.0
70
0
0
VERTEX
5
3df
100
AcDbEntity
8
1
100
AcDbVertex
100
AcDb2dVertex
62
5
10
163.488133
20
155.602694
0
VERTEX
5
3e0
100
AcDbEntity
8
1
100
AcDbVertex
100
AcDb2dVertex
62
5
10
163.925633
20
155.383944
0
VERTEX
5
3e1
100
AcDbEntity
8
1
100
AcDbVertex
100
AcDb2dVertex
62
5
10
163.925633
20
158.227694
0
VERTEX
5
3e2
100
AcDbEntity
8
1
100
AcDbVertex
100
AcDb2dVertex
62
5
10
161.738133
20
158.227694
0
SEQEND
5
3e3
100
AcDbEntity
8
1
0
LINE
5
3e4
100
AcDbEntity
8
1
100
AcDbLine
6
CONTINUOUS
62
5
10
161.738133
20
157.352694
11
163.925633
21
157.352694
0
LINE
5
3e5
100
AcDbEntity
8
1
100
AcDbLine
6
CONTINUOUS
62
5
10
162.831883
20
158.227694
11
162.831883
21
155.383944
0
LINE
5
3e6
100
AcDbEntity
8
1
100
AcDbLine
6
CONTINUOUS
62
5
10
161.738133
20
156.477694
11
163.925633
21
156.477694
0
POLYLINE
5
3e7
100
AcDbEntity
8
1
6
CONTINUOUS
62
5
100
AcDb2dPolyline
66
1
10
0.0
20
0.0
30
0.0
70
0
0
VERTEX
5
3e8
100
AcDbEntity
8
1
100
AcDbVertex
100
AcDb2dVertex
62
5
10
165.128758
20
157.571444
0
VERTEX
5
3e9
100
AcDbEntity
8
1
100
AcDbVertex
100
AcDb2dVertex
62
5
10
166.878758
20
157.571444
0
VERTEX
5
3ea
100
AcDbEntity
8
1
100
AcDbVertex
100
AcDb2dVertex
62
5
10
166.878758
20
156.040194
0
VERTEX
5
3eb
100
AcDbEntity
8
1
100
AcDbVertex
100
AcDb2dVertex
62
5
10
165.128758
20
156.040194
0
SEQEND
5
3ec
100
AcDbEntity
8
1
0
POLYLINE
5
3ed
100
AcDbEntity
8
1
6
CONTINUOUS
62
5
100
AcDb2dPolyline
66
1
10
0.0
20
0.0
30
0.0
70
1
0
VERTEX
5
3ee
100
AcDbEntity
8
1
100
AcDbVertex
100
AcDb2dVertex
62
5
10
162.025000
20
151.799343
0
VERTEX
5
3ef
100
AcDbEntity
8
1
100
AcDbVertex
100
AcDb2dVertex
62
5
10
162.025000
20
151.449343
0
VERTEX
5
3f0
100
AcDbEntity
8
1
100
AcDbVertex
100
AcDb2dVertex
62
5
10
163.862500
20
151.449343
0
VERTEX
5
3f1
100
AcDbEntity
8
1
100
AcDbVertex
100
AcDb2dVertex
62
5
10
163.862500
20
151.799343
0
VERTEX
5
3f2
100
AcDbEntity
8
1
100
AcDbVertex
100
AcDb2dVertex
62
5
10
162.025000
20
151.799343
0
SEQEND
5
3f3
100
AcDbEntity
8
1
0
LINE
5
3f4
100
AcDbEntity
8
1
100
AcDbLine
6
CONTINUOUS
62
5
10
163.250000
20
151.799343
11
163.250000
21
151.449343
0
LINE
5
3f5
100
AcDbEntity
8
1
100
AcDbLine
6
CONTINUOUS
62
5
10
162.637500
20
151.799343
11
162.637500
21
151.449343
0
LINE
5
3f6
100
AcDbEntity
8
1
100
AcDbLine
6
CONTINUOUS
62
5
10
161.850000
20
151.099343
11
164.125000
21
151.099343
0
POLYLINE
5
3f7
100
AcDbEntity
8
1
6
CONTINUOUS
62
5
100
AcDb2dPolyline
66
1
10
0.0
20
0.0
30
0.0
70
1
0
VERTEX
5
3f8
100
AcDbEntity
8
1
100
AcDbVertex
100
AcDb2dVertex
62
5
10
162.375000
20
150.749343
0
VERTEX
5
3f9
100
AcDbEntity
8
1
100
AcDbVertex
100
AcDb2dVertex
62
5
10
162.375000
20
149.961843
0
VERTEX
5
3fa
100
AcDbEntity
8
1
100
AcDbVertex
100
AcDb2dVertex
62
5
10
163.600000
20
149.961843
0
VERTEX
5
3fb
100
AcDbEntity
8
1
100
AcDbVertex
100
AcDb2dVertex
62
5
10
163.600000
20
150.749343
0
VERTEX
5
3fc
100
AcDbEntity
8
1
100
AcDbVertex
100
AcDb2dVertex
62
5
10
162.375000
20
150.749343
0
SEQEND
5
3fd
100
AcDbEntity
8
1
0
LINE
5
3fe
100
AcDbEntity
8
1
100
AcDbLine
6
CONTINUOUS
62
5
10
162.375000
20
150.486843
11
163.600000
21
150.486843
0
LINE
5
3ff
100
AcDbEntity
8
1
100
AcDbLine
6
CONTINUOUS
62
5
10
162.375000
20
150.224343
11
163.600000
21
150.224343
0
POLYLINE
5
400
100
AcDbEntity
8
1
6
CONTINUOUS
62
5
100
AcDb2dPolyline
66
1
10
0.0
20
0.0
30
0.0
70
0
0
VERTEX
5
401
100
AcDbEntity
8
1
100
AcDbVertex
100
AcDb2dVertex
62
5
10
162.025000
20
150.661843
0
VERTEX
5
402
100
AcDbEntity
8
1
100
AcDbVertex
100
AcDb2dVertex
62
5
10
162.025000
20
149.611843
0
VERTEX
5
403
100
AcDbEntity
8
1
100
AcDbVertex
100
AcDb2dVertex
62
5
10
164.125000
20
149.611843
0
SEQEND
5
404
100
AcDbEntity
8
1
0
LINE
5
405
100
AcDbEntity
8
1
100
AcDbLine
6
CONTINUOUS
62
5
10
162.987500
20
151.449343
11
162.987500
21
150.749343
0
POLYLINE
5
406
100
AcDbEntity
8
1
6
CONTINUOUS
62
5
100
AcDb2dPolyline
66
1
10
0.0
20
0.0
30
0.0
70
0
0
VERTEX
5
407
100
AcDbEntity
8
1
100
AcDbVertex
100
AcDb2dVertex
62
5
10
165.087500
20
151.711843
0
VERTEX
5
408
100
AcDbEntity
8
1
100
AcDbVertex
100
AcDb2dVertex
62
5
10
165.087500
20
150.136843
0
VERTEX
5
409
100
AcDbEntity
8
1
100
AcDbVertex
100
AcDb2dVertex
62
5
10
165.262500
20
149.786843
0
VERTEX
5
40a
100
AcDbEntity
8
1
100
AcDbVertex
100
AcDb2dVertex
62
5
10
165.787500
20
149.786843
0
VERTEX
5
40b
100
AcDbEntity
8
1
100
AcDbVertex
100
AcDb2dVertex
62
5
10
166.137500
20
149.961843
0
VERTEX
5
40c
100
AcDbEntity
8
1
100
AcDbVertex
100
AcDb2dVertex
62
5
10
166.312500
20
150.224343
0
SEQEND
5
40d
100
AcDbEntity
8
1
0
LINE
5
40e
100
AcDbEntity
8
1
100
AcDbLine
6
CONTINUOUS
62
5
10
167.275000
20
151.186843
11
169.025000
21
151.536843
0
POLYLINE
5
40f
100
AcDbEntity
8
1
6
CONTINUOUS
62
5
100
AcDb2dPolyline
66
1
10
0.0
20
0.0
30
0.0
70
0
0
VERTEX
5
410
100
AcDbEntity
8
1
100
AcDbVertex
100
AcDb2dVertex
62
5
10
168.587500
20
151.449343
0
VERTEX
5
411
100
AcDbEntity
8
1
100
AcDbVertex
100
AcDb2dVertex
62
5
10
168.237500
20
151.099343
0
VERTEX
5
412
100
AcDbEntity
8
1
100
AcDbVertex
100
AcDb2dVertex
62
5
10
168.062500
20
150.749343
0
VERTEX
5
413
100
AcDbEntity
8
1
100
AcDbVertex
100
AcDb2dVertex
62
5
10
168.062500
20
150.311843
0
VERTEX
5
414
100
AcDbEntity
8
1
100
AcDbVertex
100
AcDb2dVertex
62
5
10
168.150000
20
150.049343
0
VERTEX
5
415
100
AcDbEntity
8
1
100
AcDbVertex
100
AcDb2dVertex
62
5
10
168.412500
20
149.874343
0
VERTEX
5
416
100
AcDbEntity
8
1
100
AcDbVertex
100
AcDb2dVertex
62
5
10
168.850000
20
149.786843
0
SEQEND
5
417
100
AcDbEntity
8
1
0
POLYLINE
5
418
100
AcDbEntity
8
1
6
CONTINUOUS
62
5
100
AcDb2dPolyline
66
1
10
0.0
20
0.0
30
0.0
70
0
0
VERTEX
5
419
100
AcDbEntity
8
1
100
AcDbVertex
100
AcDb2dVertex
62
5
10
161.325000
20
146.249343
0
VERTEX
5
41a
100
AcDbEntity
8
1
100
AcDbVertex
100
AcDb2dVertex
62
5
10
161.937500
20
146.686843
0
VERTEX
5
41b
100
AcDbEntity
8
1
100
AcDbVertex
100
AcDb2dVertex
62
5
10
162.550000
20
147.386843
0
VERTEX
5
41c
100
AcDbEntity
8
1
100
AcDbVertex
100
AcDb2dVertex
62
5
10
163.162500
20
146.686843
0
VERTEX
5
41d
100
AcDbEntity
8
1
100
AcDbVertex
100
AcDb2dVertex
62
5
10
163.775000
20
146.336843
0
SEQEND
5
41e
100
AcDbEntity
8
1
0
LINE
5
41f
100
AcDbEntity
8
1
100
AcDbLine
6
CONTINUOUS
62
5
10
162.025000
20
146.336843
11
163.075000
21
146.336843
0
POLYLINE
5
420
100
AcDbEntity
8
1
6
CONTINUOUS
62
5
100
AcDb2dPolyline
66
1
10
0.0
20
0.0
30
0.0
70
1
0
VERTEX
5
421
100
AcDbEntity
8
1
100
AcDbVertex
100
AcDb2dVertex
62
5
10
161.937500
20
145.899343
0
VERTEX
5
422
100
AcDbEntity
8
1
100
AcDbVertex
100
AcDb2dVertex
62
5
10
161.937500
20
145.024343
0
VERTEX
5
423
100
AcDbEntity
8
1
100
AcDbVertex
100
AcDb2dVertex
62
5
10
163.162500
20
145.024343
0
VERTEX
5
424
100
AcDbEntity
8
1
100
AcDbVertex
100
AcDb2dVertex
62
5
10
163.162500
20
145.899343
0
VERTEX
5
425
100
AcDbEntity
8
1
100
AcDbVertex
100
AcDb2dVertex
62
5
10
161.937500
20
145.899343
0
SEQEND
5
426
100
AcDbEntity
8
1
0
LINE
5
427
100
AcDbEntity
8
1
100
AcDbLine
6
CONTINUOUS
62
5
10
164.300000
20
146.599343
11
166.137500
21
146.774343
0
POLYLINE
5
428
100
AcDbEntity
8
1
6
CONTINUOUS
62
5
100
AcDb2dPolyline
66
1
10
0.0
20
0.0
30
0.0
70
0
0
VERTEX
5
429
100
AcDbEntity
8
1
100
AcDbVertex
100
AcDb2dVertex
62
5
10
165.350000
20
147.211843
0
VERTEX
5
42a
100
AcDbEntity
8
1
100
AcDbVertex
100
AcDb2dVertex
62
5
10
165.350000
20
145.811843
0
VERTEX
5
42b
100
AcDbEntity
8
1
100
AcDbVertex
100
AcDb2dVertex
62
5
10
165.175000
20
145.636843
0
VERTEX
5
42c
100
AcDbEntity
8
1
100
AcDbVertex
100
AcDb2dVertex
62
5
10
164.912500
20
145.636843
0
VERTEX
5
42d
100
AcDbEntity
8
1
100
AcDbVertex
100
AcDb2dVertex
62
5
10
164.737500
20
145.811843
0
VERTEX
5
42e
100
AcDbEntity
8
1
100
AcDbVertex
100
AcDb2dVertex
62
5
10
164.737500
20
145.986843
0
VERTEX
5
42f
100
AcDbEntity
8
1
100
AcDbVertex
100
AcDb2dVertex
62
5
10
164.825000
20
146.249343
0
VERTEX
5
430
100
AcDbEntity
8
1
100
AcDbVertex
100
AcDb2dVertex
62
5
10
165.087500
20
146.336843
0
VERTEX
5
431
100
AcDbEntity
8
1
100
AcDbVertex
100
AcDb2dVertex
62
5
10
165.262500
20
146.336843
0
VERTEX
5
432
100
AcDbEntity
8
1
100
AcDbVertex
100
AcDb2dVertex
62
5
10
165.350000
20
146.249343
0
SEQEND
5
433
100
AcDbEntity
8
1
0
POLYLINE
5
434
100
AcDbEntity
8
1
6
CONTINUOUS
62
5
100
AcDb2dPolyline
66
1
10
0.0
20
0.0
30
0.0
70
0
0
VERTEX
5
435
100
AcDbEntity
8
1
100
AcDbVertex
100
AcDb2dVertex
62
5
10
165.350000
20
145.811843
0
VERTEX
5
436
100
AcDbEntity
8
1
100
AcDbVertex
100
AcDb2dVertex
62
5
10
165.350000
20
145.549343
0
VERTEX
5
437
100
AcDbEntity
8
1
100
AcDbVertex
100
AcDb2dVertex
62
5
10
165.175000
20
145.199343
0
VERTEX
5
438
100
AcDbEntity
8
1
100
AcDbVertex
100
AcDb2dVertex
62
5
10
164.912500
20
145.024343
0
SEQEND
5
439
100
AcDbEntity
8
1
0
POLYLINE
5
43a
100
AcDbEntity
8
1
6
CONTINUOUS
62
5
100
AcDb2dPolyline
66
1
10
0.0
20
0.0
30
0.0
70
0
0
VERTEX
5
43b
100
AcDbEntity
8
1
100
AcDbVertex
100
AcDb2dVertex
62
5
10
167.187500
20
147.036843
0
VERTEX
5
43c
100
AcDbEntity
8
1
100
AcDbVertex
100
AcDb2dVertex
62
5
10
168.062500
20
147.124343
0
VERTEX
5
43d
100
AcDbEntity
8
1
100
AcDbVertex
100
AcDb2dVertex
62
5
10
167.100000
20
146.161843
0
VERTEX
5
43e
100
AcDbEntity
8
1
100
AcDbVertex
100
AcDb2dVertex
62
5
10
167.537500
20
146.424343
0
VERTEX
5
43f
100
AcDbEntity
8
1
100
AcDbVertex
100
AcDb2dVertex
62
5
10
167.800000
20
146.511843
0
VERTEX
5
440
100
AcDbEntity
8
1
100
AcDbVertex
100
AcDb2dVertex
62
5
10
168.062500
20
146.511843
0
VERTEX
5
441
100
AcDbEntity
8
1
100
AcDbVertex
100
AcDb2dVertex
62
5
10
168.325000
20
146.424343
0
VERTEX
5
442
100
AcDbEntity
8
1
100
AcDbVertex
100
AcDb2dVertex
62
5
10
168.500000
20
146.249343
0
VERTEX
5
443
100
AcDbEntity
8
1
100
AcDbVertex
100
AcDb2dVertex
62
5
10
168.587500
20
146.074343
0
VERTEX
5
444
100
AcDbEntity
8
1
100
AcDbVertex
100
AcDb2dVertex
62
5
10
168.587500
20
145.899343
0
VERTEX
5
445
100
AcDbEntity
8
1
100
AcDbVertex
100
AcDb2dVertex
62
5
10
168.500000
20
145.636843
0
VERTEX
5
446
100
AcDbEntity
8
1
100
AcDbVertex
100
AcDb2dVertex
62
5
10
168.325000
20
145.461843
0
VERTEX
5
447
100
AcDbEntity
8
1
100
AcDbVertex
100
AcDb2dVertex
62
5
10
168.062500
20
145.374343
0
VERTEX
5
448
100
AcDbEntity
8
1
100
AcDbVertex
100
AcDb2dVertex
62
5
10
167.625000
20
145.374343
0
VERTEX
5
449
100
AcDbEntity
8
1
100
AcDbVertex
100
AcDb2dVertex
62
5
10
167.450000
20
145.461843
0
VERTEX
5
44a
100
AcDbEntity
8
1
100
AcDbVertex
100
AcDb2dVertex
62
5
10
167.362500
20
145.636843
0
VERTEX
5
44b
100
AcDbEntity
8
1
100
AcDbVertex
100
AcDb2dVertex
62
5
10
167.362500
20
145.724343
0
VERTEX
5
44c
100
AcDbEntity
8
1
100
AcDbVertex
100
AcDb2dVertex
62
5
10
167.450000
20
145.811843
0
VERTEX
5
44d
100
AcDbEntity
8
1
100
AcDbVertex
100
AcDb2dVertex
62
5
10
167.625000
20
145.899343
0
VERTEX
5
44e
100
AcDbEntity
8
1
100
AcDbVertex
100
AcDb2dVertex
62
5
10
167.800000
20
145.899343
0
VERTEX
5
44f
100
AcDbEntity
8
1
100
AcDbVertex
100
AcDb2dVertex
62
5
10
167.975000
20
145.811843
0
VERTEX
5
450
100
AcDbEntity
8
1
100
AcDbVertex
100
AcDb2dVertex
62
5
10
168.062500
20
145.724343
0
VERTEX
5
451
100
AcDbEntity
8
1
100
AcDbVertex
100
AcDb2dVertex
62
5
10
168.150000
20
145.549343
0
VERTEX
5
452
100
AcDbEntity
8
1
100
AcDbVertex
100
AcDb2dVertex
62
5
10
168.150000
20
145.461843
0
SEQEND
5
453
100
AcDbEntity
8
1
0
POLYLINE
5
454
100
AcDbEntity
8
1
6
CONTINUOUS
62
5
100
AcDb2dPolyline
66
1
10
0.0
20
0.0
30
0.0
70
0
0
VERTEX
5
455
100
AcDbEntity
8
1
100
AcDbVertex
100
AcDb2dVertex
62
5
10
163.134471
20
140.995106
0
VERTEX
5
456
100
AcDbEntity
8
1
100
AcDbVertex
100
AcDb2dVertex
62
5
10
163.900096
20
141.541981
0
VERTEX
5
457
100
AcDbEntity
8
1
100
AcDbVertex
100
AcDb2dVertex
62
5
10
164.556346
20
142.307606
0
VERTEX
5
458
100
AcDbEntity
8
1
100
AcDbVertex
100
AcDb2dVertex
62
5
10
164.884471
20
141.870106
0
VERTEX
5
459
100
AcDbEntity
8
1
100
AcDbVertex
100
AcDb2dVertex
62
5
10
165.431346
20
141.432606
0
VERTEX
5
45a
100
AcDbEntity
8
1
100
AcDbVertex
100
AcDb2dVertex
62
5
10
166.087596
20
141.104481
0
SEQEND
5
45b
100
AcDbEntity
8
1
0
LINE
5
45c
100
AcDbEntity
8
1
100
AcDbLine
6
CONTINUOUS
62
5
10
163.681346
20
141.104481
11
165.431346
21
141.104481
0
LINE
5
45d
100
AcDbEntity
8
1
100
AcDbLine
6
CONTINUOUS
62
5
10
163.681346
20
140.338856
11
165.431346
21
140.338856
0
LINE
5
45e
100
AcDbEntity
8
1
100
AcDbLine
6
CONTINUOUS
62
5
10
163.243846
20
139.463856
11
165.868846
21
139.463856
0
LINE
5
45f
100
AcDbEntity
8
1
100
AcDbLine
6
CONTINUOUS
62
5
10
164.556346
20
141.104481
11
164.556346
21
139.463856
0
POLYLINE
5
460
100
AcDbEntity
8
1
6
CONTINUOUS
62
5
100
AcDb2dPolyline
66
1
10
0.0
20
0.0
30
0.0
70
0
0
VERTEX
5
461
100
AcDbEntity
8
1
100
AcDbVertex
100
AcDb2dVertex
62
5
10
151.566258
20
157.024569
0
VERTEX
5
462
100
AcDbEntity
8
1
100
AcDbVertex
100
AcDb2dVertex
62
5
10
151.675633
20
156.915194
0
VERTEX
5
463
100
AcDbEntity
8
1
100
AcDbVertex
100
AcDb2dVertex
62
5
10
154.628758
20
156.915194
0
SEQEND
5
464
100
AcDbEntity
8
1
0
POLYLINE
5
465
100
AcDbEntity
8
1
6
CONTINUOUS
62
5
100
AcDb2dPolyline
66
1
10
0.0
20
0.0
30
0.0
70
0
0
VERTEX
5
466
100
AcDbEntity
8
1
100
AcDbVertex
100
AcDb2dVertex
62
5
10
155.285008
20
156.805819
0
VERTEX
5
467
100
AcDbEntity
8
1
100
AcDbVertex
100
AcDb2dVertex
62
5
10
155.722508
20
157.243319
0
VERTEX
5
468
100
AcDbEntity
8
1
100
AcDbVertex
100
AcDb2dVertex
62
5
10
156.050633
20
157.680819
0
VERTEX
5
469
100
AcDbEntity
8
1
100
AcDbVertex
100
AcDb2dVertex
62
5
10
157.144383
20
157.680819
0
VERTEX
5
46a
100
AcDbEntity
8
1
100
AcDbVertex
100
AcDb2dVertex
62
5
10
157.144383
20
157.571444
0
VERTEX
5
46b
100
AcDbEntity
8
1
100
AcDbVertex
100
AcDb2dVertex
62
5
10
156.706883
20
156.696444
0
VERTEX
5
46c
100
AcDbEntity
8
1
100
AcDbVertex
100
AcDb2dVertex
62
5
10
156.160008
20
156.040194
0
VERTEX
5
46d
100
AcDbEntity
8
1
100
AcDbVertex
100
AcDb2dVertex
62
5
10
155.503758
20
155.602694
0
SEQEND
5
46e
100
AcDbEntity
8
1
0
LINE
5
46f
100
AcDbEntity
8
1
100
AcDbLine
6
CONTINUOUS
62
5
10
156.050633
20
157.024569
11
156.597508
21
156.587069
0
LINE
5
470
100
AcDbEntity
8
1
100
AcDbLine
6
CONTINUOUS
62
5
10
151.700000
20
151.361843
11
152.050000
21
151.011843
0
POLYLINE
5
471
100
AcDbEntity
8
1
6
CONTINUOUS
62
5
100
AcDb2dPolyline
66
1
10
0.0
20
0.0
30
0.0
70
0
0
VERTEX
5
472
100
AcDbEntity
8
1
100
AcDbVertex
100
AcDb2dVertex
62
5
10
151.612500
20
149.961843
0
VERTEX
5
473
100
AcDbEntity
8
1
100
AcDbVertex
100
AcDb2dVertex
62
5
10
152.225000
20
150.224343
0
VERTEX
5
474
100
AcDbEntity
8
1
100
AcDbVertex
100
AcDb2dVertex
62
5
10
152.750000
20
150.574343
0
VERTEX
5
475
100
AcDbEntity
8
1
100
AcDbVertex
100
AcDb2dVertex
62
5
10
153.275000
20
151.011843
0
SEQEND
5
476
100
AcDbEntity
8
1
0
POLYLINE
5
477
100
AcDbEntity
8
1
6
CONTINUOUS
62
5
100
AcDb2dPolyline
66
1
10
0.0
20
0.0
30
0.0
70
0
0
VERTEX
5
478
100
AcDbEntity
8
1
100
AcDbVertex
100
AcDb2dVertex
62
5
10
154.850000
20
151.011843
0
VERTEX
5
479
100
AcDbEntity
8
1
100
AcDbVertex
100
AcDb2dVertex
62
5
10
154.937500
20
151.011843
0
VERTEX
5
47a
100
AcDbEntity
8
1
100
AcDbVertex
100
AcDb2dVertex
62
5
10
155.550000
20
150.661843
0
SEQEND
5
47b
100
AcDbEntity
8
1
0
LINE
5
47c
100
AcDbEntity
8
1
100
AcDbLine
6
CONTINUOUS
62
5
10
154.850000
20
151.799343
11
154.850000
21
149.699343
0
LINE
5
47d
100
AcDbEntity
8
1
100
AcDbLine
6
CONTINUOUS
62
5
10
157.037500
20
151.361843
11
157.912500
21
151.449343
0
POLYLINE
5
47e
100
AcDbEntity
8
1
6
CONTINUOUS
62
5
100
AcDb2dPolyline
66
1
10
0.0
20
0.0
30
0.0
70
0
0
VERTEX
5
47f
100
AcDbEntity
8
1
100
AcDbVertex
100
AcDb2dVertex
62
5
10
157.650000
20
151.799343
0
VERTEX
5
480
100
AcDbEntity
8
1
100
AcDbVertex
100
AcDb2dVertex
62
5
10
157.212500
20
151.011843
0
VERTEX
5
481
100
AcDbEntity
8
1
100
AcDbVertex
100
AcDb2dVertex
62
5
10
156.950000
20
150.486843
0
VERTEX
5
482
100
AcDbEntity
8
1
100
AcDbVertex
100
AcDb2dVertex
62
5
10
157.300000
20
150.836843
0
VERTEX
5
483
100
AcDbEntity
8
1
100
AcDbVertex
100
AcDb2dVertex
62
5
10
157.562500
20
150.924343
0
VERTEX
5
484
100
AcDbEntity
8
1
100
AcDbVertex
100
AcDb2dVertex
62
5
10
157.737500
20
150.924343
0
VERTEX
5
485
100
AcDbEntity
8
1
100
AcDbVertex
100
AcDb2dVertex
62
5
10
157.912500
20
150.661843
0
VERTEX
5
486
100
AcDbEntity
8
1
100
AcDbVertex
100
AcDb2dVertex
62
5
10
157.912500
20
150.311843
0
SEQEND
5
487
100
AcDbEntity
8
1
0
POLYLINE
5
488
100
AcDbEntity
8
1
6
CONTINUOUS
62
5
100
AcDb2dPolyline
66
1
10
0.0
20
0.0
30
0.0
70
0
0
VERTEX
5
489
100
AcDbEntity
8
1
100
AcDbVertex
100
AcDb2dVertex
62
5
10
158.437500
20
150.836843
0
VERTEX
5
48a
100
AcDbEntity
8
1
100
AcDbVertex
100
AcDb2dVertex
62
5
10
157.912500
20
150.661843
0
VERTEX
5
48b
100
AcDbEntity
8
1
100
AcDbVertex
100
AcDb2dVertex
62
5
10
157.650000
20
150.486843
0
VERTEX
5
48c
100
AcDbEntity
8
1
100
AcDbVertex
100
AcDb2dVertex
62
5
10
157.387500
20
150.224343
0
VERTEX
5
48d
100
AcDbEntity
8
1
100
AcDbVertex
100
AcDb2dVertex
62
5
10
157.300000
20
149.961843
0
VERTEX
5
48e
100
AcDbEntity
8
1
100
AcDbVertex
100
AcDb2dVertex
62
5
10
157.475000
20
149.786843
0
VERTEX
5
48f
100
AcDbEntity
8
1
100
AcDbVertex
100
AcDb2dVertex
62
5
10
158.262500
20
149.786843
0
SEQEND
5
490
100
AcDbEntity
8
1
0
LINE
5
491
100
AcDbEntity
8
1
100
AcDbLine
6
CONTINUOUS
62
5
10
152.050000
20
147.474343
11
152.050000
21
147.211843
0
POLYLINE
5
492
100
AcDbEntity
8
1
6
CONTINUOUS
62
5
100
AcDb2dPolyline
66
1
10
0.0
20
0.0
30
0.0
70
0
0
VERTEX
5
493
100
AcDbEntity
8
1
100
AcDbVertex
100
AcDb2dVertex
62
5
10
151.000000
20
146.599343
0
VERTEX
5
494
100
AcDbEntity
8
1
100
AcDbVertex
100
AcDb2dVertex
62
5
10
151.000000
20
147.211843
0
VERTEX
5
495
100
AcDbEntity
8
1
100
AcDbVertex
100
AcDb2dVertex
62
5
10
153.100000
20
147.211843
0
VERTEX
5
496
100
AcDbEntity
8
1
100
AcDbVertex
100
AcDb2dVertex
62
5
10
153.100000
20
146.599343
0
SEQEND
5
497
100
AcDbEntity
8
1
0
POLYLINE
5
498
100
AcDbEntity
8
1
6
CONTINUOUS
62
5
100
AcDb2dPolyline
66
1
10
0.0
20
0.0
30
0.0
70
0
0
VERTEX
5
499
100
AcDbEntity
8
1
100
AcDbVertex
100
AcDb2dVertex
62
5
10
151.787500
20
146.861843
0
VERTEX
5
49a
100
AcDbEntity
8
1
100
AcDbVertex
100
AcDb2dVertex
62
5
10
151.437500
20
146.511843
0
VERTEX
5
49b
100
AcDbEntity
8
1
100
AcDbVertex
100
AcDb2dVertex
62
5
10
151.175000
20
146.424343
0
SEQEND
5
49c
100
AcDbEntity
8
1
0
LINE
5
49d
100
AcDbEntity
8
1
100
AcDbLine
6
CONTINUOUS
62
5
10
152.312500
20
146.861843
11
152.925000
21
146.424343
0
POLYLINE
5
49e
100
AcDbEntity
8
1
6
CONTINUOUS
62
5
100
AcDb2dPolyline
66
1
10
0.0
20
0.0
30
0.0
70
0
0
VERTEX
5
49f
100
AcDbEntity
8
1
100
AcDbVertex
100
AcDb2dVertex
62
5
10
150.912500
20
145.461843
0
VERTEX
5
4a0
100
AcDbEntity
8
1
100
AcDbVertex
100
AcDb2dVertex
62
5
10
151.437500
20
145.724343
0
VERTEX
5
4a1
100
AcDbEntity
8
1
100
AcDbVertex
100
AcDb2dVertex
62
5
10
152.050000
20
146.424343
0
VERTEX
5
4a2
100
AcDbEntity
8
1
100
AcDbVertex
100
AcDb2dVertex
62
5
10
152.750000
20
145.724343
0
VERTEX
5
4a3
100
AcDbEntity
8
1
100
AcDbVertex
100
AcDb2dVertex
62
5
10
153.362500
20
145.549343
0
SEQEND
5
4a4
100
AcDbEntity
8
1
0
POLYLINE
5
4a5
100
AcDbEntity
8
1
6
CONTINUOUS
62
5
100
AcDb2dPolyline
66
1
10
0.0
20
0.0
30
0.0
70
1
0
VERTEX
5
4a6
100
AcDbEntity
8
1
100
AcDbVertex
100
AcDb2dVertex
62
5
10
151.437500
20
145.724343
0
VERTEX
5
4a7
100
AcDbEntity
8
1
100
AcDbVertex
100
AcDb2dVertex
62
5
10
151.437500
20
145.024343
0
VERTEX
5
4a8
100
AcDbEntity
8
1
100
AcDbVertex
100
AcDb2dVertex
62
5
10
152.750000
20
145.024343
0
VERTEX
5
4a9
100
AcDbEntity
8
1
100
AcDbVertex
100
AcDb2dVertex
62
5
10
152.750000
20
145.724343
0
VERTEX
5
4aa
100
AcDbEntity
8
1
100
AcDbVertex
100
AcDb2dVertex
62
5
10
151.437500
20
145.724343
0
SEQEND
5
4ab
100
AcDbEntity
8
1
0
POLYLINE
5
4ac
100
AcDbEntity
8
1
6
CONTINUOUS
62
5
100
AcDb2dPolyline
66
1
10
0.0
20
0.0
30
0.0
70
1
0
VERTEX
5
4ad
100
AcDbEntity
8
1
100
AcDbVertex
100
AcDb2dVertex
62
5
10
153.975000
20
147.474343
0
VERTEX
5
4ae
100
AcDbEntity
8
1
100
AcDbVertex
100
AcDb2dVertex
62
5
10
153.975000
20
146.774343
0
VERTEX
5
4af
100
AcDbEntity
8
1
100
AcDbVertex
100
AcDb2dVertex
62
5
10
155.462500
20
146.774343
0
VERTEX
5
4b0
100
AcDbEntity
8
1
100
AcDbVertex
100
AcDb2dVertex
62
5
10
155.462500
20
147.474343
0
VERTEX
5
4b1
100
AcDbEntity
8
1
100
AcDbVertex
100
AcDb2dVertex
62
5
10
153.975000
20
147.474343
0
SEQEND
5
4b2
100
AcDbEntity
8
1
0
LINE
5
4b3
100
AcDbEntity
8
1
100
AcDbLine
6
CONTINUOUS
62
5
10
153.975000
20
147.124343
11
155.462500
21
147.124343
0
LINE
5
4b4
100
AcDbEntity
8
1
100
AcDbLine
6
CONTINUOUS
62
5
10
153.450000
20
146.511843
11
155.987500
21
146.511843
0
POLYLINE
5
4b5
100
AcDbEntity
8
1
6
CONTINUOUS
62
5
100
AcDb2dPolyline
66
1
10
0.0
20
0.0
30
0.0
70
1
0
VERTEX
5
4b6
100
AcDbEntity
8
1
100
AcDbVertex
100
AcDb2dVertex
62
5
10
153.887500
20
146.249343
0
VERTEX
5
4b7
100
AcDbEntity
8
1
100
AcDbVertex
100
AcDb2dVertex
62
5
10
153.887500
20
145.549343
0
VERTEX
5
4b8
100
AcDbEntity
8
1
100
AcDbVertex
100
AcDb2dVertex
62
5
10
155.550000
20
145.549343
0
VERTEX
5
4b9
100
AcDbEntity
8
1
100
AcDbVertex
100
AcDb2dVertex
62
5
10
155.550000
20
146.249343
0
VERTEX
5
4ba
100
AcDbEntity
8
1
100
AcDbVertex
100
AcDb2dVertex
62
5
10
153.887500
20
146.249343
0
SEQEND
5
4bb
100
AcDbEntity
8
1
0
LINE
5
4bc
100
AcDbEntity
8
1
100
AcDbLine
6
CONTINUOUS
62
5
10
153.887500
20
145.899343
11
155.550000
21
145.899343
0
LINE
5
4bd
100
AcDbEntity
8
1
100
AcDbLine
6
CONTINUOUS
62
5
10
154.675000
20
146.249343
11
154.675000
21
144.936843
0
LINE
5
4be
100
AcDbEntity
8
1
100
AcDbLine
6
CONTINUOUS
62
5
10
153.800000
20
145.286843
11
155.637500
21
145.286843
0
LINE
5
4bf
100
AcDbEntity
8
1
100
AcDbLine
6
CONTINUOUS
62
5
10
153.450000
20
144.936843
11
155.987500
21
144.936843
0
POLYLINE
5
4c0
100
AcDbEntity
8
1
6
CONTINUOUS
62
5
100
AcDb2dPolyline
66
1
10
0.0
20
0.0
30
0.0
70
0
0
VERTEX
5
4c1
100
AcDbEntity
8
1
100
AcDbVertex
100
AcDb2dVertex
62
5
10
156.687500
20
147.036843
0
VERTEX
5
4c2
100
AcDbEntity
8
1
100
AcDbVertex
100
AcDb2dVertex
62
5
10
156.687500
20
146.774343
0
VERTEX
5
4c3
100
AcDbEntity
8
1
100
AcDbVertex
100
AcDb2dVertex
62
5
10
156.600000
20
146.424343
0
VERTEX
5
4c4
100
AcDbEntity
8
1
100
AcDbVertex
100
AcDb2dVertex
62
5
10
156.600000
20
145.636843
0
VERTEX
5
4c5
100
AcDbEntity
8
1
100
AcDbVertex
100
AcDb2dVertex
62
5
10
156.775000
20
145.374343
0
SEQEND
5
4c6
100
AcDbEntity
8
1
0
POLYLINE
5
4c7
100
AcDbEntity
8
1
6
CONTINUOUS
62
5
100
AcDb2dPolyline
66
1
10
0.0
20
0.0
30
0.0
70
0
0
VERTEX
5
4c8
100
AcDbEntity
8
1
100
AcDbVertex
100
AcDb2dVertex
62
5
10
157.300000
20
146.774343
0
VERTEX
5
4c9
100
AcDbEntity
8
1
100
AcDbVertex
100
AcDb2dVertex
62
5
10
157.912500
20
146.774343
0
VERTEX
5
4ca
100
AcDbEntity
8
1
100
AcDbVertex
100
AcDb2dVertex
62
5
10
158.175000
20
146.686843
0
SEQEND
5
4cb
100
AcDbEntity
8
1
0
POLYLINE
5
4cc
100
AcDbEntity
8
1
6
CONTINUOUS
62
5
100
AcDb2dPolyline
66
1
10
0.0
20
0.0
30
0.0
70
0
0
VERTEX
5
4cd
100
AcDbEntity
8
1
100
AcDbVertex
100
AcDb2dVertex
62
5
10
157.212500
20
145.724343
0
VERTEX
5
4ce
100
AcDbEntity
8
1
100
AcDbVertex
100
AcDb2dVertex
62
5
10
157.300000
20
145.636843
0
VERTEX
5
4cf
100
AcDbEntity
8
1
100
AcDbVertex
100
AcDb2dVertex
62
5
10
157.562500
20
145.549343
0
VERTEX
5
4d0
100
AcDbEntity
8
1
100
AcDbVertex
100
AcDb2dVertex
62
5
10
158.350000
20
145.549343
0
SEQEND
5
4d1
100
AcDbEntity
8
1
0
LINE
5
4d2
100
AcDbEntity
8
1
100
AcDbLine
6
CONTINUOUS
62
5
10
153.509471
20
142.198231
11
154.384471
21
142.198231
0
LINE
5
4d3
100
AcDbEntity
8
1
100
AcDbLine
6
CONTINUOUS
62
5
10
153.400096
20
141.760731
11
154.603221
21
141.760731
0
LINE
5
4d4
100
AcDbEntity
8
1
100
AcDbLine
6
CONTINUOUS
62
5
10
153.618846
20
141.323231
11
154.384471
21
141.323231
0
LINE
5
4d5
100
AcDbEntity
8
1
100
AcDbLine
6
CONTINUOUS
62
5
10
153.618846
20
140.776356
11
154.384471
21
140.776356
0
POLYLINE
5
4d6
100
AcDbEntity
8
1
6
CONTINUOUS
62
5
100
AcDb2dPolyline
66
1
10
0.0
20
0.0
30
0.0
70
1
0
VERTEX
5
4d7
100
AcDbEntity
8
1
100
AcDbVertex
100
AcDb2dVertex
62
5
10
153.509471
20
140.229481
0
VERTEX
5
4d8
100
AcDbEntity
8
1
100
AcDbVertex
100
AcDb2dVertex
62
5
10
154.493846
20
140.229481
0
VERTEX
5
4d9
100
AcDbEntity
8
1
100
AcDbVertex
100
AcDb2dVertex
62
5
10
154.493846
20
139.463856
0
VERTEX
5
4da
100
AcDbEntity
8
1
100
AcDbVertex
100
AcDb2dVertex
62
5
10
153.509471
20
139.463856
0
VERTEX
5
4db
100
AcDbEntity
8
1
100
AcDbVertex
100
AcDb2dVertex
62
5
10
153.509471
20
140.229481
0
SEQEND
5
4dc
100
AcDbEntity
8
1
0
POLYLINE
5
4dd
100
AcDbEntity
8
1
6
CONTINUOUS
62
5
100
AcDb2dPolyline
66
1
10
0.0
20
0.0
30
0.0
70
0
0
VERTEX
5
4de
100
AcDbEntity
8
1
100
AcDbVertex
100
AcDb2dVertex
62
5
10
154.712596
20
141.104481
0
VERTEX
5
4df
100
AcDbEntity
8
1
100
AcDbVertex
100
AcDb2dVertex
62
5
10
154.931346
20
141.213856
0
VERTEX
5
4e0
100
AcDbEntity
8
1
100
AcDbVertex
100
AcDb2dVertex
62
5
10
155.040721
20
141.541981
0
VERTEX
5
4e1
100
AcDbEntity
8
1
100
AcDbVertex
100
AcDb2dVertex
62
5
10
155.040721
20
142.198231
0
VERTEX
5
4e2
100
AcDbEntity
8
1
100
AcDbVertex
100
AcDb2dVertex
62
5
10
155.915721
20
142.198231
0
VERTEX
5
4e3
100
AcDbEntity
8
1
100
AcDbVertex
100
AcDb2dVertex
62
5
10
155.915721
20
141.104481
0
VERTEX
5
4e4
100
AcDbEntity
8
1
100
AcDbVertex
100
AcDb2dVertex
62
5
10
156.462596
20
141.104481
0
VERTEX
5
4e5
100
AcDbEntity
8
1
100
AcDbVertex
100
AcDb2dVertex
62
5
10
156.571971
20
141.432606
0
SEQEND
5
4e6
100
AcDbEntity
8
1
0
POLYLINE
5
4e7
100
AcDbEntity
8
1
6
CONTINUOUS
62
5
100
AcDb2dPolyline
66
1
10
0.0
20
0.0
30
0.0
70
0
0
VERTEX
5
4e8
100
AcDbEntity
8
1
100
AcDbVertex
100
AcDb2dVertex
62
5
10
154.712596
20
140.776356
0
VERTEX
5
4e9
100
AcDbEntity
8
1
100
AcDbVertex
100
AcDb2dVertex
62
5
10
156.243846
20
140.776356
0
VERTEX
5
4ea
100
AcDbEntity
8
1
100
AcDbVertex
100
AcDb2dVertex
62
5
10
155.587596
20
139.901356
0
VERTEX
5
4eb
100
AcDbEntity
8
1
100
AcDbVertex
100
AcDb2dVertex
62
5
10
155.368846
20
139.682606
0
VERTEX
5
4ec
100
AcDbEntity
8
1
100
AcDbVertex
100
AcDb2dVertex
62
5
10
155.040721
20
139.463856
0
VERTEX
5
4ed
100
AcDbEntity
8
1
100
AcDbVertex
100
AcDb2dVertex
62
5
10
154.712596
20
139.354481
0
SEQEND
5
4ee
100
AcDbEntity
8
1
0
POLYLINE
5
4ef
100
AcDbEntity
8
1
6
CONTINUOUS
62
5
100
AcDb2dPolyline
66
1
10
0.0
20
0.0
30
0.0
70
0
0
VERTEX
5
4f0
100
AcDbEntity
8
1
100
AcDbVertex
100
AcDb2dVertex
62
5
10
155.150096
20
140.448231
0
VERTEX
5
4f1
100
AcDbEntity
8
1
100
AcDbVertex
100
AcDb2dVertex
62
5
10
155.587596
20
139.901356
0
VERTEX
5
4f2
100
AcDbEntity
8
1
100
AcDbVertex
100
AcDb2dVertex
62
5
10
156.025096
20
139.463856
0
VERTEX
5
4f3
100
AcDbEntity
8
1
100
AcDbVertex
100
AcDb2dVertex
62
5
10
156.462596
20
139.354481
0
SEQEND
5
4f4
100
AcDbEntity
8
1
0
POLYLINE
5
4f5
100
AcDbEntity
8
1
6
CONTINUOUS
62
5
100
AcDb2dPolyline
66
1
10
0.0
20
0.0
30
0.0
70
0
0
VERTEX
5
4f6
100
AcDbEntity
8
1
100
AcDbVertex
100
AcDb2dVertex
62
5
10
158.128758
20
157.024569
0
VERTEX
5
4f7
100
AcDbEntity
8
1
100
AcDbVertex
100
AcDb2dVertex
62
5
10
158.238133
20
156.915194
0
VERTEX
5
4f8
100
AcDbEntity
8
1
100
AcDbVertex
100
AcDb2dVertex
62
5
10
161.191258
20
156.915194
0
SEQEND
5
4f9
100
AcDbEntity
8
1
0
LINE
5
4fa
100
AcDbEntity
8
1
100
AcDbLine
6
CONTINUOUS
62
5
10
160.625000
20
146.686843
11
160.800000
21
147.124343
0
POLYLINE
5
4fb
100
AcDbEntity
8
1
6
CONTINUOUS
62
5
100
AcDb2dPolyline
66
1
10
0.0
20
0.0
30
0.0
70
0
0
VERTEX
5
4fc
100
AcDbEntity
8
1
100
AcDbVertex
100
AcDb2dVertex
62
5
10
159.837500
20
145.461843
0
VERTEX
5
4fd
100
AcDbEntity
8
1
100
AcDbVertex
100
AcDb2dVertex
62
5
10
160.712500
20
145.461843
0
VERTEX
5
4fe
100
AcDbEntity
8
1
100
AcDbVertex
100
AcDb2dVertex
62
5
10
160.712500
20
145.986843
0
VERTEX
5
4ff
100
AcDbEntity
8
1
100
AcDbVertex
100
AcDb2dVertex
62
5
10
159.837500
20
145.986843
0
SEQEND
5
500
100
AcDbEntity
8
1
0
LINE
5
501
100
AcDbEntity
8
1
100
AcDbLine
6
CONTINUOUS
62
5
10
158.875000
20
147.211843
11
159.137500
21
146.861843
0
POLYLINE
5
502
100
AcDbEntity
8
1
6
CONTINUOUS
62
5
100
AcDb2dPolyline
66
1
10
0.0
20
0.0
30
0.0
70
0
0
VERTEX
5
503
100
AcDbEntity
8
1
100
AcDbVertex
100
AcDb2dVertex
62
5
10
158.700000
20
146.249343
0
VERTEX
5
504
100
AcDbEntity
8
1
100
AcDbVertex
100
AcDb2dVertex
62
5
10
159.225000
20
146.249343
0
VERTEX
5
505
100
AcDbEntity
8
1
100
AcDbVertex
100
AcDb2dVertex
62
5
10
159.225000
20
145.549343
0
VERTEX
5
506
100
AcDbEntity
8
1
100
AcDbVertex
100
AcDb2dVertex
62
5
10
158.962500
20
145.199343
0
VERTEX
5
507
100
AcDbEntity
8
1
100
AcDbVertex
100
AcDb2dVertex
62
5
10
158.700000
20
145.024343
0
SEQEND
5
508
100
AcDbEntity
8
1
0
POLYLINE
5
509
100
AcDbEntity
8
1
6
CONTINUOUS
62
5
100
AcDb2dPolyline
66
1
10
0.0
20
0.0
30
0.0
70
0
0
VERTEX
5
50a
100
AcDbEntity
8
1
100
AcDbVertex
100
AcDb2dVertex
62
5
10
159.225000
20
145.549343
0
VERTEX
5
50b
100
AcDbEntity
8
1
100
AcDbVertex
100
AcDb2dVertex
62
5
10
159.487500
20
145.199343
0
VERTEX
5
50c
100
AcDbEntity
8
1
100
AcDbVertex
100
AcDb2dVertex
62
5
10
161.150000
20
145.024343
0
SEQEND
5
50d
100
AcDbEntity
8
1
0
POLYLINE
5
50e
100
AcDbEntity
8
1
6
CONTINUOUS
62
5
100
AcDb2dPolyline
66
1
10
0.0
20
0.0
30
0.0
70
0
0
VERTEX
5
50f
100
AcDbEntity
8
1
100
AcDbVertex
100
AcDb2dVertex
62
5
10
159.487500
20
145.374343
0
VERTEX
5
510
100
AcDbEntity
8
1
100
AcDbVertex
100
AcDb2dVertex
62
5
10
159.487500
20
146.686843
0
VERTEX
5
511
100
AcDbEntity
8
1
100
AcDbVertex
100
AcDb2dVertex
62
5
10
161.062500
20
146.686843
0
VERTEX
5
512
100
AcDbEntity
8
1
100
AcDbVertex
100
AcDb2dVertex
62
5
10
161.062500
20
145.286843
0
VERTEX
5
513
100
AcDbEntity
8
1
100
AcDbVertex
100
AcDb2dVertex
62
5
10
160.800000
20
145.374343
0
SEQEND
5
514
100
AcDbEntity
8
1
0
LINE
5
515
100
AcDbEntity
8
1
100
AcDbLine
6
CONTINUOUS
62
5
10
159.750000
20
146.336843
11
160.800000
21
146.336843
0
LINE
5
516
100
AcDbEntity
8
1
100
AcDbLine
6
CONTINUOUS
62
5
10
160.275000
20
146.511843
11
160.275000
21
145.986843
0
LINE
5
517
100
AcDbEntity
8
1
100
AcDbLine
6
CONTINUOUS
62
5
10
159.837500
20
145.986843
11
159.837500
21
145.461843
0
LINE
5
518
100
AcDbEntity
8
1
100
AcDbLine
6
CONTINUOUS
62
5
10
160.275000
20
147.474343
11
160.275000
21
147.124343
0
LINE
5
519
100
AcDbEntity
8
1
100
AcDbLine
6
CONTINUOUS
62
5
10
159.312500
20
147.124343
11
161.150000
21
147.124343
0
LINE
5
51a
100
AcDbEntity
8
1
100
AcDbLine
6
CONTINUOUS
62
5
10
159.750000
20
147.124343
11
159.925000
21
146.686843
0
LINE
5
51b
100
AcDbEntity
8
1
100
AcDbLine
6
CONTINUOUS
62
5
10
159.137500
20
151.799343
11
159.837500
21
151.799343
0
LINE
5
51c
100
AcDbEntity
8
1
100
AcDbLine
6
CONTINUOUS
62
5
10
159.050000
20
151.449343
11
160.012500
21
151.449343
0
LINE
5
51d
100
AcDbEntity
8
1
100
AcDbLine
6
CONTINUOUS
62
5
10
159.225000
20
151.099343
11
159.837500
21
151.099343
0
LINE
5
51e
100
AcDbEntity
8
1
100
AcDbLine
6
CONTINUOUS
62
5
10
159.225000
20
150.661843
11
159.837500
21
150.661843
0
POLYLINE
5
51f
100
AcDbEntity
8
1
6
CONTINUOUS
62
5
100
AcDb2dPolyline
66
1
10
0.0
20
0.0
30
0.0
70
1
0
VERTEX
5
520
100
AcDbEntity
8
1
100
AcDbVertex
100
AcDb2dVertex
62
5
10
159.137500
20
150.224343
0
VERTEX
5
521
100
AcDbEntity
8
1
100
AcDbVertex
100
AcDb2dVertex
62
5
10
159.925000
20
150.224343
0
VERTEX
5
522
100
AcDbEntity
8
1
100
AcDbVertex
100
AcDb2dVertex
62
5
10
159.925000
20
149.611843
0
VERTEX
5
523
100
AcDbEntity
8
1
100
AcDbVertex
100
AcDb2dVertex
62
5
10
159.137500
20
149.611843
0
VERTEX
5
524
100
AcDbEntity
8
1
100
AcDbVertex
100
AcDb2dVertex
62
5
10
159.137500
20
150.224343
0
SEQEND
5
525
100
AcDbEntity
8
1
0
POLYLINE
5
526
100
AcDbEntity
8
1
6
CONTINUOUS
62
5
100
AcDb2dPolyline
66
1
10
0.0
20
0.0
30
0.0
70
0
0
VERTEX
5
527
100
AcDbEntity
8
1
100
AcDbVertex
100
AcDb2dVertex
62
5
10
160.100000
20
150.924343
0
VERTEX
5
528
100
AcDbEntity
8
1
100
AcDbVertex
100
AcDb2dVertex
62
5
10
160.275000
20
151.011843
0
VERTEX
5
529
100
AcDbEntity
8
1
100
AcDbVertex
100
AcDb2dVertex
62
5
10
160.362500
20
151.274343
0
VERTEX
5
52a
100
AcDbEntity
8
1
100
AcDbVertex
100
AcDb2dVertex
62
5
10
160.362500
20
151.799343
0
VERTEX
5
52b
100
AcDbEntity
8
1
100
AcDbVertex
100
AcDb2dVertex
62
5
10
161.062500
20
151.799343
0
VERTEX
5
52c
100
AcDbEntity
8
1
100
AcDbVertex
100
AcDb2dVertex
62
5
10
161.062500
20
150.924343
0
VERTEX
5
52d
100
AcDbEntity
8
1
100
AcDbVertex
100
AcDb2dVertex
62
5
10
161.500000
20
150.924343
0
VERTEX
5
52e
100
AcDbEntity
8
1
100
AcDbVertex
100
AcDb2dVertex
62
5
10
161.587500
20
151.186843
0
SEQEND
5
52f
100
AcDbEntity
8
1
0
POLYLINE
5
530
100
AcDbEntity
8
1
6
CONTINUOUS
62
5
100
AcDb2dPolyline
66
1
10
0.0
20
0.0
30
0.0
70
0
0
VERTEX
5
531
100
AcDbEntity
8
1
100
AcDbVertex
100
AcDb2dVertex
62
5
10
160.100000
20
150.661843
0
VERTEX
5
532
100
AcDbEntity
8
1
100
AcDbVertex
100
AcDb2dVertex
62
5
10
161.325000
20
150.661843
0
VERTEX
5
533
100
AcDbEntity
8
1
100
AcDbVertex
100
AcDb2dVertex
62
5
10
160.800000
20
149.961843
0
VERTEX
5
534
100
AcDbEntity
8
1
100
AcDbVertex
100
AcDb2dVertex
62
5
10
160.625000
20
149.786843
0
VERTEX
5
535
100
AcDbEntity
8
1
100
AcDbVertex
100
AcDb2dVertex
62
5
10
160.362500
20
149.611843
0
VERTEX
5
536
100
AcDbEntity
8
1
100
AcDbVertex
100
AcDb2dVertex
62
5
10
160.100000
20
149.524343
0
SEQEND
5
537
100
AcDbEntity
8
1
0
POLYLINE
5
538
100
AcDbEntity
8
1
6
CONTINUOUS
62
5
100
AcDb2dPolyline
66
1
10
0.0
20
0.0
30
0.0
70
0
0
VERTEX
5
539
100
AcDbEntity
8
1
100
AcDbVertex
100
AcDb2dVertex
62
5
10
160.450000
20
150.399343
0
VERTEX
5
53a
100
AcDbEntity
8
1
100
AcDbVertex
100
AcDb2dVertex
62
5
10
160.800000
20
149.961843
0
VERTEX
5
53b
100
AcDbEntity
8
1
100
AcDbVertex
100
AcDb2dVertex
62
5
10
161.150000
20
149.611843
0
VERTEX
5
53c
100
AcDbEntity
8
1
100
AcDbVertex
100
AcDb2dVertex
62
5
10
161.500000
20
149.524343
0
SEQEND
5
53d
100
AcDbEntity
8
1
0
POLYLINE
5
53e
100
AcDbEntity
8
1
6
CONTINUOUS
62
5
100
AcDb2dPolyline
66
1
10
0.0
20
0.0
30
0.0
70
0
0
VERTEX
5
53f
100
AcDbEntity
8
1
100
AcDbVertex
100
AcDb2dVertex
62
5
10
158.978221
20
142.416981
0
VERTEX
5
540
100
AcDbEntity
8
1
100
AcDbVertex
100
AcDb2dVertex
62
5
10
158.650096
20
141.323231
0
VERTEX
5
541
100
AcDbEntity
8
1
100
AcDbVertex
100
AcDb2dVertex
62
5
10
158.212596
20
140.776356
0
SEQEND
5
542
100
AcDbEntity
8
1
0
LINE
5
543
100
AcDbEntity
8
1
100
AcDbLine
6
CONTINUOUS
62
5
10
158.650096
20
141.323231
11
158.650096
21
139.354481
0
LINE
5
544
100
AcDbEntity
8
1
100
AcDbLine
6
CONTINUOUS
62
5
10
160.946971
20
142.198231
11
160.946971
21
141.432606
0
LINE
5
545
100
AcDbEntity
8
1
100
AcDbLine
6
CONTINUOUS
62
5
10
158.978221
20
140.776356
11
161.275096
21
140.776356
0
LINE
5
546
100
AcDbEntity
8
1
100
AcDbLine
6
CONTINUOUS
62
5
10
160.181346
20
141.213856
11
160.181346
21
139.354481
0
POLYLINE
5
547
100
AcDbEntity
8
1
6
CONTINUOUS
62
5
100
AcDb2dPolyline
66
1
10
0.0
20
0.0
30
0.0
70
0
0
VERTEX
5
548
100
AcDbEntity
8
1
100
AcDbVertex
100
AcDb2dVertex
62
5
10
160.181346
20
140.776356
0
VERTEX
5
549
100
AcDbEntity
8
1
100
AcDbVertex
100
AcDb2dVertex
62
5
10
159.415721
20
140.010731
0
VERTEX
5
54a
100
AcDbEntity
8
1
100
AcDbVertex
100
AcDb2dVertex
62
5
10
158.978221
20
139.682606
0
SEQEND
5
54b
100
AcDbEntity
8
1
0
LINE
5
54c
100
AcDbEntity
8
1
100
AcDbLine
6
CONTINUOUS
62
5
10
160.181346
20
140.776356
11
160.946971
21
139.901356
0
POLYLINE
5
54d
100
AcDbEntity
8
1
6
CONTINUOUS
62
5
100
AcDb2dPolyline
66
1
10
0.0
20
0.0
30
0.0
70
0
0
VERTEX
5
54e
100
AcDbEntity
8
1
100
AcDbVertex
100
AcDb2dVertex
62
5
10
160.946971
20
141.432606
0
VERTEX
5
54f
100
AcDbEntity
8
1
100
AcDbVertex
100
AcDb2dVertex
62
5
10
159.415721
20
141.432606
0
VERTEX
5
550
100
AcDbEntity
8
1
100
AcDbVertex
100
AcDb2dVertex
62
5
10
159.415721
20
142.198231
0
VERTEX
5
551
100
AcDbEntity
8
1
100
AcDbVertex
100
AcDb2dVertex
62
5
10
160.946971
20
142.198231
0
SEQEND
5
552
100
AcDbEntity
8
1
0
LINE
5
553
100
AcDbEntity
8
1
100
AcDbLine
6
CONTINUOUS
62
5
10
160.946971
20
139.901356
11
161.384471
21
139.573231
0
LINE
5
554
100
AcDbEntity
8
1
100
AcDbLine
6
CONTINUOUS
62
5
10
168.410008
20
157.680819
11
168.847508
21
157.243319
0
POLYLINE
5
555
100
AcDbEntity
8
1
6
CONTINUOUS
62
5
100
AcDb2dPolyline
66
1
10
0.0
20
0.0
30
0.0
70
0
0
VERTEX
5
556
100
AcDbEntity
8
1
100
AcDbVertex
100
AcDb2dVertex
62
5
10
168.300633
20
155.930819
0
VERTEX
5
557
100
AcDbEntity
8
1
100
AcDbVertex
100
AcDb2dVertex
62
5
10
169.066258
20
156.258944
0
VERTEX
5
558
100
AcDbEntity
8
1
100
AcDbVertex
100
AcDb2dVertex
62
5
10
169.722508
20
156.696444
0
VERTEX
5
559
100
AcDbEntity
8
1
100
AcDbVertex
100
AcDb2dVertex
62
5
10
170.378758
20
157.243319
0
SEQEND
5
55a
100
AcDbEntity
8
1
0
POLYLINE
5
55b
100
AcDbEntity
8
1
6
CONTINUOUS
62
5
100
AcDb2dPolyline
66
1
10
0.0
20
0.0
30
0.0
70
0
0
VERTEX
5
55c
100
AcDbEntity
8
1
100
AcDbVertex
100
AcDb2dVertex
62
5
10
169.900000
20
151.274343
0
VERTEX
5
55d
100
AcDbEntity
8
1
100
AcDbVertex
100
AcDb2dVertex
62
5
10
169.900000
20
151.011843
0
VERTEX
5
55e
100
AcDbEntity
8
1
100
AcDbVertex
100
AcDb2dVertex
62
5
10
170.075000
20
150.399343
0
VERTEX
5
55f
100
AcDbEntity
8
1
100
AcDbVertex
100
AcDb2dVertex
62
5
10
170.162500
20
150.136843
0
VERTEX
5
560
100
AcDbEntity
8
1
100
AcDbVertex
100
AcDb2dVertex
62
5
10
170.337500
20
149.961843
0
VERTEX
5
561
100
AcDbEntity
8
1
100
AcDbVertex
100
AcDb2dVertex
62
5
10
170.512500
20
149.961843
0
VERTEX
5
562
100
AcDbEntity
8
1
100
AcDbVertex
100
AcDb2dVertex
62
5
10
170.775000
20
150.224343
0
SEQEND
5
563
100
AcDbEntity
8
1
0
POLYLINE
5
564
100
AcDbEntity
8
1
6
CONTINUOUS
62
5
100
AcDb2dPolyline
66
1
10
0.0
20
0.0
30
0.0
70
0
0
VERTEX
5
565
100
AcDbEntity
8
1
100
AcDbVertex
100
AcDb2dVertex
62
5
10
171.387500
20
151.186843
0
VERTEX
5
566
100
AcDbEntity
8
1
100
AcDbVertex
100
AcDb2dVertex
62
5
10
171.650000
20
150.749343
0
VERTEX
5
567
100
AcDbEntity
8
1
100
AcDbVertex
100
AcDb2dVertex
62
5
10
171.737500
20
150.399343
0
SEQEND
5
568
100
AcDbEntity
8
1
0
LINE
5
569
100
AcDbEntity
8
1
100
AcDbLine
6
CONTINUOUS
62
5
10
169.287500
20
146.774343
11
170.075000
21
146.774343
0
LINE
5
56a
100
AcDbEntity
8
1
100
AcDbLine
6
CONTINUOUS
62
5
10
169.725000
20
147.474343
11
169.725000
21
145.024343
0
POLYLINE
5
56b
100
AcDbEntity
8
1
6
CONTINUOUS
62
5
100
AcDb2dPolyline
66
1
10
0.0
20
0.0
30
0.0
70
0
0
VERTEX
5
56c
100
AcDbEntity
8
1
100
AcDbVertex
100
AcDb2dVertex
62
5
10
169.725000
20
146.774343
0
VERTEX
5
56d
100
AcDbEntity
8
1
100
AcDbVertex
100
AcDb2dVertex
62
5
10
169.550000
20
146.249343
0
VERTEX
5
56e
100
AcDbEntity
8
1
100
AcDbVertex
100
AcDb2dVertex
62
5
10
169.287500
20
145.811843
0
SEQEND
5
56f
100
AcDbEntity
8
1
0
LINE
5
570
100
AcDbEntity
8
1
100
AcDbLine
6
CONTINUOUS
62
5
10
169.725000
20
146.511843
11
169.987500
21
146.161843
0
LINE
5
571
100
AcDbEntity
8
1
100
AcDbLine
6
CONTINUOUS
62
5
10
170.425000
20
147.299343
11
170.162500
21
147.036843
0
LINE
5
572
100
AcDbEntity
8
1
100
AcDbLine
6
CONTINUOUS
62
5
10
170.075000
20
147.124343
11
170.337500
21
146.686843
0
LINE
5
573
100
AcDbEntity
8
1
100
AcDbLine
6
CONTINUOUS
62
5
10
170.600000
20
146.949343
11
170.075000
21
146.336843
0
LINE
5
574
100
AcDbEntity
8
1
100
AcDbLine
6
CONTINUOUS
62
5
10
169.987500
20
146.336843
11
170.600000
21
146.336843
0
LINE
5
575
100
AcDbEntity
8
1
100
AcDbLine
6
CONTINUOUS
62
5
10
170.512500
20
146.511843
11
170.687500
21
146.161843
0
LINE
5
576
100
AcDbEntity
8
1
100
AcDbLine
6
CONTINUOUS
62
5
10
171.387500
20
147.299343
11
171.125000
21
147.036843
0
LINE
5
577
100
AcDbEntity
8
1
100
AcDbLine
6
CONTINUOUS
62
5
10
171.037500
20
147.124343
11
171.300000
21
146.686843
0
LINE
5
578
100
AcDbEntity
8
1
100
AcDbLine
6
CONTINUOUS
62
5
10
171.562500
20
146.949343
11
171.037500
21
146.336843
0
LINE
5
579
100
AcDbEntity
8
1
100
AcDbLine
6
CONTINUOUS
62
5
10
170.950000
20
146.336843
11
171.650000
21
146.336843
0
LINE
5
57a
100
AcDbEntity
8
1
100
AcDbLine
6
CONTINUOUS
62
5
10
171.562500
20
146.511843
11
171.737500
21
146.161843
0
LINE
5
57b
100
AcDbEntity
8
1
100
AcDbLine
6
CONTINUOUS
62
5
10
169.987500
20
145.986843
11
171.737500
21
145.986843
0
POLYLINE
5
57c
100
AcDbEntity
8
1
6
CONTINUOUS
62
5
100
AcDb2dPolyline
66
1
10
0.0
20
0.0
30
0.0
70
0
0
VERTEX
5
57d
100
AcDbEntity
8
1
100
AcDbVertex
100
AcDb2dVertex
62
5
10
170.337500
20
145.986843
0
VERTEX
5
57e
100
AcDbEntity
8
1
100
AcDbVertex
100
AcDb2dVertex
62
5
10
170.337500
20
145.724343
0
VERTEX
5
57f
100
AcDbEntity
8
1
100
AcDbVertex
100
AcDb2dVertex
62
5
10
170.250000
20
145.461843
0
VERTEX
5
580
100
AcDbEntity
8
1
100
AcDbVertex
100
AcDb2dVertex
62
5
10
169.987500
20
145.111843
0
SEQEND
5
581
100
AcDbEntity
8
1
0
LINE
5
582
100
AcDbEntity
8
1
100
AcDbLine
6
CONTINUOUS
62
5
10
170.337500
20
145.724343
11
170.600000
21
145.461843
0
POLYLINE
5
583
100
AcDbEntity
8
1
6
CONTINUOUS
62
5
100
AcDb2dPolyline
66
1
10
0.0
20
0.0
30
0.0
70
0
0
VERTEX
5
584
100
AcDbEntity
8
1
100
AcDbVertex
100
AcDb2dVertex
62
5
10
170.687500
20
147.474343
0
VERTEX
5
585
100
AcDbEntity
8
1
100
AcDbVertex
100
AcDb2dVertex
62
5
10
170.775000
20
146.511843
0
VERTEX
5
586
100
AcDbEntity
8
1
100
AcDbVertex
100
AcDb2dVertex
62
5
10
170.950000
20
145.811843
0
VERTEX
5
587
100
AcDbEntity
8
1
100
AcDbVertex
100
AcDb2dVertex
62
5
10
171.300000
20
145.199343
0
VERTEX
5
588
100
AcDbEntity
8
1
100
AcDbVertex
100
AcDb2dVertex
62
5
10
171.562500
20
145.024343
0
VERTEX
5
589
100
AcDbEntity
8
1
100
AcDbVertex
100
AcDb2dVertex
62
5
10
171.737500
20
145.374343
0
SEQEND
5
58a
100
AcDbEntity
8
1
0
POLYLINE
5
58b
100
AcDbEntity
8
1
6
CONTINUOUS
62
5
100
AcDb2dPolyline
66
1
10
0.0
20
0.0
30
0.0
70
0
0
VERTEX
5
58c
100
AcDbEntity
8
1
100
AcDbVertex
100
AcDb2dVertex
62
5
10
171.387500
20
145.811843
0
VERTEX
5
58d
100
AcDbEntity
8
1
100
AcDbVertex
100
AcDb2dVertex
62
5
10
171.125000
20
145.374343
0
VERTEX
5
58e
100
AcDbEntity
8
1
100
AcDbVertex
100
AcDb2dVertex
62
5
10
170.950000
20
145.199343
0
VERTEX
5
58f
100
AcDbEntity
8
1
100
AcDbVertex
100
AcDb2dVertex
62
5
10
170.600000
20
145.024343
0
SEQEND
5
590
100
AcDbEntity
8
1
0
LINE
5
591
100
AcDbEntity
8
1
100
AcDbLine
6
CONTINUOUS
62
5
10
171.212500
20
146.249343
11
171.387500
21
145.986843
0
LINE
5
592
100
AcDbEntity
8
1
100
AcDbLine
6
CONTINUOUS
62
5
10
167.946971
20
142.198231
11
168.712596
21
142.198231
0
LINE
5
593
100
AcDbEntity
8
1
100
AcDbLine
6
CONTINUOUS
62
5
10
167.837596
20
141.760731
11
168.931346
21
141.760731
0
LINE
5
594
100
AcDbEntity
8
1
100
AcDbLine
6
CONTINUOUS
62
5
10
167.946971
20
141.213856
11
168.712596
21
141.213856
0
LINE
5
595
100
AcDbEntity
8
1
100
AcDbLine
6
CONTINUOUS
62
5
10
167.946971
20
140.776356
11
168.712596
21
140.776356
0
POLYLINE
5
596
100
AcDbEntity
8
1
6
CONTINUOUS
62
5
100
AcDb2dPolyline
66
1
10
0.0
20
0.0
30
0.0
70
1
0
VERTEX
5
597
100
AcDbEntity
8
1
100
AcDbVertex
100
AcDb2dVertex
62
5
10
167.946971
20
140.229481
0
VERTEX
5
598
100
AcDbEntity
8
1
100
AcDbVertex
100
AcDb2dVertex
62
5
10
168.712596
20
140.229481
0
VERTEX
5
599
100
AcDbEntity
8
1
100
AcDbVertex
100
AcDb2dVertex
62
5
10
168.712596
20
139.354481
0
VERTEX
5
59a
100
AcDbEntity
8
1
100
AcDbVertex
100
AcDb2dVertex
62
5
10
167.946971
20
139.354481
0
VERTEX
5
59b
100
AcDbEntity
8
1
100
AcDbVertex
100
AcDb2dVertex
62
5
10
167.946971
20
140.229481
0
SEQEND
5
59c
100
AcDbEntity
8
1
0
POLYLINE
5
59d
100
AcDbEntity
8
1
6
CONTINUOUS
62
5
100
AcDb2dPolyline
66
1
10
0.0
20
0.0
30
0.0
70
1
0
VERTEX
5
59e
100
AcDbEntity
8
1
100
AcDbVertex
100
AcDb2dVertex
62
5
10
169.150096
20
142.198231
0
VERTEX
5
59f
100
AcDbEntity
8
1
100
AcDbVertex
100
AcDb2dVertex
62
5
10
170.681346
20
142.198231
0
VERTEX
5
5a0
100
AcDbEntity
8
1
100
AcDbVertex
100
AcDb2dVertex
62
5
10
170.681346
20
140.885731
0
VERTEX
5
5a1
100
AcDbEntity
8
1
100
AcDbVertex
100
AcDb2dVertex
62
5
10
169.150096
20
140.885731
0
VERTEX
5
5a2
100
AcDbEntity
8
1
100
AcDbVertex
100
AcDb2dVertex
62
5
10
169.150096
20
142.198231
0
SEQEND
5
5a3
100
AcDbEntity
8
1
0
LINE
5
5a4
100
AcDbEntity
8
1
100
AcDbLine
6
CONTINUOUS
62
5
10
169.150096
20
141.541981
11
170.681346
21
141.541981
0
LINE
5
5a5
100
AcDbEntity
8
1
100
AcDbLine
6
CONTINUOUS
62
5
10
169.915721
20
142.198231
11
169.915721
21
139.245106
0
LINE
5
5a6
100
AcDbEntity
8
1
100
AcDbLine
6
CONTINUOUS
62
5
10
168.931346
20
140.557606
11
171.009471
21
140.557606
0
POLYLINE
5
5a7
100
AcDbEntity
8
1
6
CONTINUOUS
62
5
100
AcDb2dPolyline
66
1
10
0.0
20
0.0
30
0.0
70
0
0
VERTEX
5
5a8
100
AcDbEntity
8
1
100
AcDbVertex
100
AcDb2dVertex
62
5
10
169.915721
20
140.557606
0
VERTEX
5
5a9
100
AcDbEntity
8
1
100
AcDbVertex
100
AcDb2dVertex
62
5
10
169.696971
20
140.120106
0
VERTEX
5
5aa
100
AcDbEntity
8
1
100
AcDbVertex
100
AcDb2dVertex
62
5
10
169.368846
20
139.682606
0
VERTEX
5
5ab
100
AcDbEntity
8
1
100
AcDbVertex
100
AcDb2dVertex
62
5
10
169.040721
20
139.354481
0
SEQEND
5
5ac
100
AcDbEntity
8
1
0
POLYLINE
5
5ad
100
AcDbEntity
8
1
6
CONTINUOUS
62
5
100
AcDb2dPolyline
66
1
10
0.0
20
0.0
30
0.0
70
0
0
VERTEX
5
5ae
100
AcDbEntity
8
1
100
AcDbVertex
100
AcDb2dVertex
62
5
10
169.915721
20
140.557606
0
VERTEX
5
5af
100
AcDbEntity
8
1
100
AcDbVertex
100
AcDb2dVertex
62
5
10
170.243846
20
140.010731
0
VERTEX
5
5b0
100
AcDbEntity
8
1
100
AcDbVertex
100
AcDb2dVertex
62
5
10
170.571971
20
139.573231
0
VERTEX
5
5b1
100
AcDbEntity
8
1
100
AcDbVertex
100
AcDb2dVertex
62
5
10
170.900096
20
139.354481
0
SEQEND
5
5b2
100
AcDbEntity
8
1
0
POLYLINE
5
5b3
100
AcDbEntity
8
1
6
CONTINUOUS
62
5
100
AcDb2dPolyline
66
1
10
0.0
20
0.0
30
0.0
70
0
0
VERTEX
5
5b4
100
AcDbEntity
8
1
100
AcDbVertex
100
AcDb2dVertex
62
5
10
187.878758
20
157.571444
0
VERTEX
5
5b5
100
AcDbEntity
8
1
100
AcDbVertex
100
AcDb2dVertex
62
5
10
187.878758
20
157.243319
0
VERTEX
5
5b6
100
AcDbEntity
8
1
100
AcDbVertex
100
AcDb2dVertex
62
5
10
188.097508
20
156.477694
0
VERTEX
5
5b7
100
AcDbEntity
8
1
100
AcDbVertex
100
AcDb2dVertex
62
5
10
188.206883
20
156.149569
0
VERTEX
5
5b8
100
AcDbEntity
8
1
100
AcDbVertex
100
AcDb2dVertex
62
5
10
188.425633
20
155.930819
0
VERTEX
5
5b9
100
AcDbEntity
8
1
100
AcDbVertex
100
AcDb2dVertex
62
5
10
188.644383
20
155.930819
0
VERTEX
5
5ba
100
AcDbEntity
8
1
100
AcDbVertex
100
AcDb2dVertex
62
5
10
188.972508
20
156.258944
0
SEQEND
5
5bb
100
AcDbEntity
8
1
0
POLYLINE
5
5bc
100
AcDbEntity
8
1
6
CONTINUOUS
62
5
100
AcDb2dPolyline
66
1
10
0.0
20
0.0
30
0.0
70
0
0
VERTEX
5
5bd
100
AcDbEntity
8
1
100
AcDbVertex
100
AcDb2dVertex
62
5
10
189.738133
20
157.462069
0
VERTEX
5
5be
100
AcDbEntity
8
1
100
AcDbVertex
100
AcDb2dVertex
62
5
10
190.066258
20
156.915194
0
VERTEX
5
5bf
100
AcDbEntity
8
1
100
AcDbVertex
100
AcDb2dVertex
62
5
10
190.175633
20
156.477694
0
SEQEND
5
5c0
100
AcDbEntity
8
1
0
LINE
5
5c1
100
AcDbEntity
8
1
100
AcDbLine
6
CONTINUOUS
62
5
10
187.925000
20
146.599343
11
188.975000
21
146.686843
0
POLYLINE
5
5c2
100
AcDbEntity
8
1
6
CONTINUOUS
62
5
100
AcDb2dPolyline
66
1
10
0.0
20
0.0
30
0.0
70
0
0
VERTEX
5
5c3
100
AcDbEntity
8
1
100
AcDbVertex
100
AcDb2dVertex
62
5
10
188.537500
20
147.124343
0
VERTEX
5
5c4
100
AcDbEntity
8
1
100
AcDbVertex
100
AcDb2dVertex
62
5
10
188.537500
20
146.861843
0
VERTEX
5
5c5
100
AcDbEntity
8
1
100
AcDbVertex
100
AcDb2dVertex
62
5
10
188.187500
20
145.811843
0
VERTEX
5
5c6
100
AcDbEntity
8
1
100
AcDbVertex
100
AcDb2dVertex
62
5
10
187.837500
20
145.199343
0
SEQEND
5
5c7
100
AcDbEntity
8
1
0
POLYLINE
5
5c8
100
AcDbEntity
8
1
6
CONTINUOUS
62
5
100
AcDb2dPolyline
66
1
10
0.0
20
0.0
30
0.0
70
0
0
VERTEX
5
5c9
100
AcDbEntity
8
1
100
AcDbVertex
100
AcDb2dVertex
62
5
10
188.975000
20
146.336843
0
VERTEX
5
5ca
100
AcDbEntity
8
1
100
AcDbVertex
100
AcDb2dVertex
62
5
10
189.412500
20
146.336843
0
VERTEX
5
5cb
100
AcDbEntity
8
1
100
AcDbVertex
100
AcDb2dVertex
62
5
10
189.587500
20
146.249343
0
SEQEND
5
5cc
100
AcDbEntity
8
1
0
POLYLINE
5
5cd
100
AcDbEntity
8
1
6
CONTINUOUS
62
5
100
AcDb2dPolyline
66
1
10
0.0
20
0.0
30
0.0
70
0
0
VERTEX
5
5ce
100
AcDbEntity
8
1
100
AcDbVertex
100
AcDb2dVertex
62
5
10
188.712500
20
145.549343
0
VERTEX
5
5cf
100
AcDbEntity
8
1
100
AcDbVertex
100
AcDb2dVertex
62
5
10
188.800000
20
145.461843
0
VERTEX
5
5d0
100
AcDbEntity
8
1
100
AcDbVertex
100
AcDb2dVertex
62
5
10
189.150000
20
145.374343
0
VERTEX
5
5d1
100
AcDbEntity
8
1
100
AcDbVertex
100
AcDb2dVertex
62
5
10
189.675000
20
145.374343
0
SEQEND
5
5d2
100
AcDbEntity
8
1
0
LINE
5
5d3
100
AcDbEntity
8
1
100
AcDbLine
6
CONTINUOUS
62
5
10
189.500000
20
146.949343
11
189.675000
21
146.774343
0
LINE
5
5d4
100
AcDbEntity
8
1
100
AcDbLine
6
CONTINUOUS
62
5
10
189.762500
20
147.124343
11
189.937500
21
146.949343
0
LINE
5
5d5
100
AcDbEntity
8
1
100
AcDbLine
6
CONTINUOUS
62
5
10
142.160008
20
157.680819
11
142.597508
21
157.243319
0
POLYLINE
5
5d6
100
AcDbEntity
8
1
6
CONTINUOUS
62
5
100
AcDb2dPolyline
66
1
10
0.0
20
0.0
30
0.0
70
0
0
VERTEX
5
5d7
100
AcDbEntity
8
1
100
AcDbVertex
100
AcDb2dVertex
62
5
10
142.050633
20
155.930819
0
VERTEX
5
5d8
100
AcDbEntity
8
1
100
AcDbVertex
100
AcDb2dVertex
62
5
10
142.816258
20
156.258944
0
VERTEX
5
5d9
100
AcDbEntity
8
1
100
AcDbVertex
100
AcDb2dVertex
62
5
10
143.472508
20
156.696444
0
VERTEX
5
5da
100
AcDbEntity
8
1
100
AcDbVertex
100
AcDb2dVertex
62
5
10
144.128758
20
157.243319
0
SEQEND
5
5db
100
AcDbEntity
8
1
0
POLYLINE
5
5dc
100
AcDbEntity
8
1
6
CONTINUOUS
62
5
100
AcDb2dPolyline
66
1
10
0.0
20
0.0
30
0.0
70
0
0
VERTEX
5
5dd
100
AcDbEntity
8
1
100
AcDbVertex
100
AcDb2dVertex
62
5
10
145.441258
20
156.915194
0
VERTEX
5
5de
100
AcDbEntity
8
1
100
AcDbVertex
100
AcDb2dVertex
62
5
10
145.878758
20
157.352694
0
VERTEX
5
5df
100
AcDbEntity
8
1
100
AcDbVertex
100
AcDb2dVertex
62
5
10
146.097508
20
157.680819
0
VERTEX
5
5e0
100
AcDbEntity
8
1
100
AcDbVertex
100
AcDb2dVertex
62
5
10
147.191258
20
157.680819
0
VERTEX
5
5e1
100
AcDbEntity
8
1
100
AcDbVertex
100
AcDb2dVertex
62
5
10
147.191258
20
157.571444
0
VERTEX
5
5e2
100
AcDbEntity
8
1
100
AcDbVertex
100
AcDb2dVertex
62
5
10
146.863133
20
156.915194
0
VERTEX
5
5e3
100
AcDbEntity
8
1
100
AcDbVertex
100
AcDb2dVertex
62
5
10
146.316258
20
156.258944
0
VERTEX
5
5e4
100
AcDbEntity
8
1
100
AcDbVertex
100
AcDb2dVertex
62
5
10
145.660008
20
155.712069
0
SEQEND
5
5e5
100
AcDbEntity
8
1
0
LINE
5
5e6
100
AcDbEntity
8
1
100
AcDbLine
6
CONTINUOUS
62
5
10
147.191258
20
158.118319
11
147.410008
21
157.899569
0
LINE
5
5e7
100
AcDbEntity
8
1
100
AcDbLine
6
CONTINUOUS
62
5
10
147.519383
20
158.337069
11
147.738133
21
158.118319
0
POLYLINE
5
5e8
100
AcDbEntity
8
1
6
CONTINUOUS
62
5
100
AcDb2dPolyline
66
1
10
0.0
20
0.0
30
0.0
70
0
0
VERTEX
5
5e9
100
AcDbEntity
8
1
100
AcDbVertex
100
AcDb2dVertex
62
5
10
141.987500
20
151.536843
0
VERTEX
5
5ea
100
AcDbEntity
8
1
100
AcDbVertex
100
AcDb2dVertex
62
5
10
141.987500
20
151.011843
0
VERTEX
5
5eb
100
AcDbEntity
8
1
100
AcDbVertex
100
AcDb2dVertex
62
5
10
141.900000
20
150.749343
0
VERTEX
5
5ec
100
AcDbEntity
8
1
100
AcDbVertex
100
AcDb2dVertex
62
5
10
141.725000
20
150.399343
0
VERTEX
5
5ed
100
AcDbEntity
8
1
100
AcDbVertex
100
AcDb2dVertex
62
5
10
141.375000
20
149.961843
0
VERTEX
5
5ee
100
AcDbEntity
8
1
100
AcDbVertex
100
AcDb2dVertex
62
5
10
141.112500
20
150.136843
0
VERTEX
5
5ef
100
AcDbEntity
8
1
100
AcDbVertex
100
AcDb2dVertex
62
5
10
140.937500
20
150.486843
0
VERTEX
5
5f0
100
AcDbEntity
8
1
100
AcDbVertex
100
AcDb2dVertex
62
5
10
140.937500
20
150.749343
0
VERTEX
5
5f1
100
AcDbEntity
8
1
100
AcDbVertex
100
AcDb2dVertex
62
5
10
141.200000
20
151.099343
0
VERTEX
5
5f2
100
AcDbEntity
8
1
100
AcDbVertex
100
AcDb2dVertex
62
5
10
141.462500
20
151.361843
0
VERTEX
5
5f3
100
AcDbEntity
8
1
100
AcDbVertex
100
AcDb2dVertex
62
5
10
141.812500
20
151.536843
0
VERTEX
5
5f4
100
AcDbEntity
8
1
100
AcDbVertex
100
AcDb2dVertex
62
5
10
142.337500
20
151.536843
0
VERTEX
5
5f5
100
AcDbEntity
8
1
100
AcDbVertex
100
AcDb2dVertex
62
5
10
142.600000
20
151.361843
0
VERTEX
5
5f6
100
AcDbEntity
8
1
100
AcDbVertex
100
AcDb2dVertex
62
5
10
142.775000
20
151.186843
0
VERTEX
5
5f7
100
AcDbEntity
8
1
100
AcDbVertex
100
AcDb2dVertex
62
5
10
142.950000
20
150.836843
0
VERTEX
5
5f8
100
AcDbEntity
8
1
100
AcDbVertex
100
AcDb2dVertex
62
5
10
142.950000
20
150.574343
0
VERTEX
5
5f9
100
AcDbEntity
8
1
100
AcDbVertex
100
AcDb2dVertex
62
5
10
142.775000
20
150.224343
0
VERTEX
5
5fa
100
AcDbEntity
8
1
100
AcDbVertex
100
AcDb2dVertex
62
5
10
142.600000
20
150.049343
0
VERTEX
5
5fb
100
AcDbEntity
8
1
100
AcDbVertex
100
AcDb2dVertex
62
5
10
142.337500
20
149.874343
0
SEQEND
5
5fc
100
AcDbEntity
8
1
0
POLYLINE
5
5fd
100
AcDbEntity
8
1
6
CONTINUOUS
62
5
100
AcDb2dPolyline
66
1
10
0.0
20
0.0
30
0.0
70
0
0
VERTEX
5
5fe
100
AcDbEntity
8
1
100
AcDbVertex
100
AcDb2dVertex
62
5
10
143.825000
20
151.274343
0
VERTEX
5
5ff
100
AcDbEntity
8
1
100
AcDbVertex
100
AcDb2dVertex
62
5
10
145.225000
20
151.274343
0
VERTEX
5
600
100
AcDbEntity
8
1
100
AcDbVertex
100
AcDb2dVertex
62
5
10
145.225000
20
150.049343
0
VERTEX
5
601
100
AcDbEntity
8
1
100
AcDbVertex
100
AcDb2dVertex
62
5
10
143.825000
20
150.049343
0
SEQEND
5
602
100
AcDbEntity
8
1
0
LINE
5
603
100
AcDbEntity
8
1
100
AcDbLine
6
CONTINUOUS
62
5
10
146.450000
20
151.361843
11
146.800000
21
151.011843
0
POLYLINE
5
604
100
AcDbEntity
8
1
6
CONTINUOUS
62
5
100
AcDb2dPolyline
66
1
10
0.0
20
0.0
30
0.0
70
0
0
VERTEX
5
605
100
AcDbEntity
8
1
100
AcDbVertex
100
AcDb2dVertex
62
5
10
146.362500
20
149.961843
0
VERTEX
5
606
100
AcDbEntity
8
1
100
AcDbVertex
100
AcDb2dVertex
62
5
10
146.975000
20
150.224343
0
VERTEX
5
607
100
AcDbEntity
8
1
100
AcDbVertex
100
AcDb2dVertex
62
5
10
147.500000
20
150.574343
0
VERTEX
5
608
100
AcDbEntity
8
1
100
AcDbVertex
100
AcDb2dVertex
62
5
10
148.025000
20
151.011843
0
SEQEND
5
609
100
AcDbEntity
8
1
0
POLYLINE
5
60a
100
AcDbEntity
8
1
6
CONTINUOUS
62
5
100
AcDb2dPolyline
66
1
10
0.0
20
0.0
30
0.0
70
0
0
VERTEX
5
60b
100
AcDbEntity
8
1
100
AcDbVertex
100
AcDb2dVertex
62
5
10
132.316258
20
156.915194
0
VERTEX
5
60c
100
AcDbEntity
8
1
100
AcDbVertex
100
AcDb2dVertex
62
5
10
132.753758
20
157.352694
0
VERTEX
5
60d
100
AcDbEntity
8
1
100
AcDbVertex
100
AcDb2dVertex
62
5
10
132.972508
20
157.680819
0
VERTEX
5
60e
100
AcDbEntity
8
1
100
AcDbVertex
100
AcDb2dVertex
62
5
10
134.066258
20
157.680819
0
VERTEX
5
60f
100
AcDbEntity
8
1
100
AcDbVertex
100
AcDb2dVertex
62
5
10
134.066258
20
157.571444
0
VERTEX
5
610
100
AcDbEntity
8
1
100
AcDbVertex
100
AcDb2dVertex
62
5
10
133.738133
20
156.915194
0
VERTEX
5
611
100
AcDbEntity
8
1
100
AcDbVertex
100
AcDb2dVertex
62
5
10
133.191258
20
156.258944
0
VERTEX
5
612
100
AcDbEntity
8
1
100
AcDbVertex
100
AcDb2dVertex
62
5
10
132.535008
20
155.712069
0
SEQEND
5
613
100
AcDbEntity
8
1
0
LINE
5
614
100
AcDbEntity
8
1
100
AcDbLine
6
CONTINUOUS
62
5
10
135.816258
20
157.024569
11
135.925633
21
156.587069
0
LINE
5
615
100
AcDbEntity
8
1
100
AcDbLine
6
CONTINUOUS
62
5
10
136.472508
20
157.133944
11
136.581883
21
156.696444
0
POLYLINE
5
616
100
AcDbEntity
8
1
6
CONTINUOUS
62
5
100
AcDb2dPolyline
66
1
10
0.0
20
0.0
30
0.0
70
0
0
VERTEX
5
617
100
AcDbEntity
8
1
100
AcDbVertex
100
AcDb2dVertex
62
5
10
137.347508
20
157.133944
0
VERTEX
5
618
100
AcDbEntity
8
1
100
AcDbVertex
100
AcDb2dVertex
62
5
10
137.238133
20
156.587069
0
VERTEX
5
619
100
AcDbEntity
8
1
100
AcDbVertex
100
AcDb2dVertex
62
5
10
136.691258
20
155.930819
0
VERTEX
5
61a
100
AcDbEntity
8
1
100
AcDbVertex
100
AcDb2dVertex
62
5
10
136.253758
20
155.602694
0
SEQEND
5
61b
100
AcDbEntity
8
1
0
POLYLINE
5
61c
100
AcDbEntity
8
1
6
CONTINUOUS
62
5
100
AcDb2dPolyline
66
1
10
0.0
20
0.0
30
0.0
70
0
0
VERTEX
5
61d
100
AcDbEntity
8
1
100
AcDbVertex
100
AcDb2dVertex
62
5
10
131.137500
20
151.799343
0
VERTEX
5
61e
100
AcDbEntity
8
1
100
AcDbVertex
100
AcDb2dVertex
62
5
10
131.575000
20
149.699343
0
VERTEX
5
61f
100
AcDbEntity
8
1
100
AcDbVertex
100
AcDb2dVertex
62
5
10
132.012500
20
151.799343
0
SEQEND
5
620
100
AcDbEntity
8
1
0
POLYLINE
5
621
100
AcDbEntity
8
1
6
CONTINUOUS
62
5
100
AcDb2dPolyline
66
1
10
0.0
20
0.0
30
0.0
70
0
0
VERTEX
5
622
100
AcDbEntity
8
1
100
AcDbVertex
100
AcDb2dVertex
62
5
10
132.537500
20
151.624343
0
VERTEX
5
623
100
AcDbEntity
8
1
100
AcDbVertex
100
AcDb2dVertex
62
5
10
132.800000
20
151.799343
0
VERTEX
5
624
100
AcDbEntity
8
1
100
AcDbVertex
100
AcDb2dVertex
62
5
10
132.800000
20
149.699343
0
SEQEND
5
625
100
AcDbEntity
8
1
0
LINE
5
626
100
AcDbEntity
8
1
100
AcDbLine
6
CONTINUOUS
62
5
10
132.625000
20
149.699343
11
132.975000
21
149.699343
0
LINE
5
627
100
AcDbEntity
8
1
100
AcDbLine
6
CONTINUOUS
62
5
10
133.587500
20
151.799343
11
134.375000
21
151.799343
0
POLYLINE
5
628
100
AcDbEntity
8
1
6
CONTINUOUS
62
5
100
AcDb2dPolyline
66
1
10
0.0
20
0.0
30
0.0
70
0
0
VERTEX
5
629
100
AcDbEntity
8
1
100
AcDbVertex
100
AcDb2dVertex
62
5
10
133.587500
20
151.799343
0
VERTEX
5
62a
100
AcDbEntity
8
1
100
AcDbVertex
100
AcDb2dVertex
62
5
10
133.587500
20
150.749343
0
VERTEX
5
62b
100
AcDbEntity
8
1
100
AcDbVertex
100
AcDb2dVertex
62
5
10
133.762500
20
150.924343
0
VERTEX
5
62c
100
AcDbEntity
8
1
100
AcDbVertex
100
AcDb2dVertex
62
5
10
133.937500
20
151.011843
0
VERTEX
5
62d
100
AcDbEntity
8
1
100
AcDbVertex
100
AcDb2dVertex
62
5
10
134.200000
20
151.011843
0
VERTEX
5
62e
100
AcDbEntity
8
1
100
AcDbVertex
100
AcDb2dVertex
62
5
10
134.375000
20
150.924343
0
VERTEX
5
62f
100
AcDbEntity
8
1
100
AcDbVertex
100
AcDb2dVertex
62
5
10
134.462500
20
150.661843
0
VERTEX
5
630
100
AcDbEntity
8
1
100
AcDbVertex
100
AcDb2dVertex
62
5
10
134.462500
20
150.136843
0
VERTEX
5
631
100
AcDbEntity
8
1
100
AcDbVertex
100
AcDb2dVertex
62
5
10
134.287500
20
149.874343
0
VERTEX
5
632
100
AcDbEntity
8
1
100
AcDbVertex
100
AcDb2dVertex
62
5
10
134.025000
20
149.699343
0
VERTEX
5
633
100
AcDbEntity
8
1
100
AcDbVertex
100
AcDb2dVertex
62
5
10
133.587500
20
149.699343
0
SEQEND
5
634
100
AcDbEntity
8
1
0
POLYLINE
5
635
100
AcDbEntity
8
1
6
CONTINUOUS
62
5
100
AcDb2dPolyline
66
1
10
0.0
20
0.0
30
0.0
70
0
0
VERTEX
5
636
100
AcDbEntity
8
1
100
AcDbVertex
100
AcDb2dVertex
62
5
10
134.812500
20
149.699343
0
VERTEX
5
637
100
AcDbEntity
8
1
100
AcDbVertex
100
AcDb2dVertex
62
5
10
135.250000
20
151.799343
0
VERTEX
5
638
100
AcDbEntity
8
1
100
AcDbVertex
100
AcDb2dVertex
62
5
10
135.687500
20
149.699343
0
SEQEND
5
639
100
AcDbEntity
8
1
0
LINE
5
63a
100
AcDbEntity
8
1
100
AcDbLine
6
CONTINUOUS
62
5
10
134.987500
20
150.399343
11
135.512500
21
150.399343
0
LINE
5
63b
100
AcDbEntity
8
1
100
AcDbLine
6
CONTINUOUS
62
5
10
136.912500
20
151.886843
11
136.037500
21
149.611843
0
POLYLINE
5
63c
100
AcDbEntity
8
1
6
CONTINUOUS
62
5
100
AcDb2dPolyline
66
1
10
0.0
20
0.0
30
0.0
70
0
0
VERTEX
5
63d
100
AcDbEntity
8
1
100
AcDbVertex
100
AcDb2dVertex
62
5
10
137.262500
20
151.186843
0
VERTEX
5
63e
100
AcDbEntity
8
1
100
AcDbVertex
100
AcDb2dVertex
62
5
10
137.350000
20
151.624343
0
VERTEX
5
63f
100
AcDbEntity
8
1
100
AcDbVertex
100
AcDb2dVertex
62
5
10
137.612500
20
151.799343
0
VERTEX
5
640
100
AcDbEntity
8
1
100
AcDbVertex
100
AcDb2dVertex
62
5
10
137.875000
20
151.799343
0
VERTEX
5
641
100
AcDbEntity
8
1
100
AcDbVertex
100
AcDb2dVertex
62
5
10
138.050000
20
151.711843
0
VERTEX
5
642
100
AcDbEntity
8
1
100
AcDbVertex
100
AcDb2dVertex
62
5
10
138.137500
20
151.449343
0
VERTEX
5
643
100
AcDbEntity
8
1
100
AcDbVertex
100
AcDb2dVertex
62
5
10
138.137500
20
151.186843
0
VERTEX
5
644
100
AcDbEntity
8
1
100
AcDbVertex
100
AcDb2dVertex
62
5
10
138.050000
20
150.924343
0
VERTEX
5
645
100
AcDbEntity
8
1
100
AcDbVertex
100
AcDb2dVertex
62
5
10
137.262500
20
149.699343
0
VERTEX
5
646
100
AcDbEntity
8
1
100
AcDbVertex
100
AcDb2dVertex
62
5
10
138.137500
20
149.699343
0
VERTEX
5
647
100
AcDbEntity
8
1
100
AcDbVertex
100
AcDb2dVertex
62
5
10
138.137500
20
149.961843
0
SEQEND
5
648
100
AcDbEntity
8
1
0
POLYLINE
5
649
100
AcDbEntity
8
1
6
CONTINUOUS
62
5
100
AcDb2dPolyline
66
1
10
0.0
20
0.0
30
0.0
70
1
0
VERTEX
5
64a
100
AcDbEntity
8
1
100
AcDbVertex
100
AcDb2dVertex
62
5
10
138.837500
20
151.799343
0
VERTEX
5
64b
100
AcDbEntity
8
1
100
AcDbVertex
100
AcDb2dVertex
62
5
10
139.012500
20
151.799343
0
VERTEX
5
64c
100
AcDbEntity
8
1
100
AcDbVertex
100
AcDb2dVertex
62
5
10
139.100000
20
151.711843
0
VERTEX
5
64d
100
AcDbEntity
8
1
100
AcDbVertex
100
AcDb2dVertex
62
5
10
139.275000
20
151.361843
0
VERTEX
5
64e
100
AcDbEntity
8
1
100
AcDbVertex
100
AcDb2dVertex
62
5
10
139.362500
20
151.011843
0
VERTEX
5
64f
100
AcDbEntity
8
1
100
AcDbVertex
100
AcDb2dVertex
62
5
10
139.362500
20
150.486843
0
VERTEX
5
650
100
AcDbEntity
8
1
100
AcDbVertex
100
AcDb2dVertex
62
5
10
139.275000
20
150.136843
0
VERTEX
5
651
100
AcDbEntity
8
1
100
AcDbVertex
100
AcDb2dVertex
62
5
10
139.100000
20
149.786843
0
VERTEX
5
652
100
AcDbEntity
8
1
100
AcDbVertex
100
AcDb2dVertex
62
5
10
139.012500
20
149.699343
0
VERTEX
5
653
100
AcDbEntity
8
1
100
AcDbVertex
100
AcDb2dVertex
62
5
10
138.837500
20
149.699343
0
VERTEX
5
654
100
AcDbEntity
8
1
100
AcDbVertex
100
AcDb2dVertex
62
5
10
138.750000
20
149.786843
0
VERTEX
5
655
100
AcDbEntity
8
1
100
AcDbVertex
100
AcDb2dVertex
62
5
10
138.575000
20
150.136843
0
VERTEX
5
656
100
AcDbEntity
8
1
100
AcDbVertex
100
AcDb2dVertex
62
5
10
138.487500
20
150.486843
0
VERTEX
5
657
100
AcDbEntity
8
1
100
AcDbVertex
100
AcDb2dVertex
62
5
10
138.487500
20
151.011843
0
VERTEX
5
658
100
AcDbEntity
8
1
100
AcDbVertex
100
AcDb2dVertex
62
5
10
138.575000
20
151.361843
0
VERTEX
5
659
100
AcDbEntity
8
1
100
AcDbVertex
100
AcDb2dVertex
62
5
10
138.750000
20
151.711843
0
VERTEX
5
65a
100
AcDbEntity
8
1
100
AcDbVertex
100
AcDb2dVertex
62
5
10
138.837500
20
151.799343
0
SEQEND
5
65b
100
AcDbEntity
8
1
0
LINE
5
65c
100
AcDbEntity
8
1
100
AcDbLine
6
CONTINUOUS
62
5
10
138.769383
20
157.352694
11
140.628758
21
157.571444
0
LINE
5
65d
100
AcDbEntity
8
1
100
AcDbLine
6
CONTINUOUS
62
5
10
138.550633
20
156.587069
11
140.956883
21
156.805819
0
LINE
5
65e
100
AcDbEntity
8
1
100
AcDbLine
6
CONTINUOUS
62
5
10
139.535008
20
158.227694
11
139.863133
21
155.602694
0
POLYLINE
5
65f
100
AcDbEntity
8
1
6
CONTINUOUS
62
5
100
AcDb2dPolyline
66
1
10
0.0
20
0.0
30
0.0
70
0
0
VERTEX
5
660
100
AcDbEntity
8
1
100
AcDbVertex
100
AcDb2dVertex
62
5
10
139.712500
20
149.699343
0
VERTEX
5
661
100
AcDbEntity
8
1
100
AcDbVertex
100
AcDb2dVertex
62
5
10
140.150000
20
151.799343
0
VERTEX
5
662
100
AcDbEntity
8
1
100
AcDbVertex
100
AcDb2dVertex
62
5
10
140.587500
20
149.699343
0
SEQEND
5
663
100
AcDbEntity
8
1
0
LINE
5
664
100
AcDbEntity
8
1
100
AcDbLine
6
CONTINUOUS
62
5
10
139.887500
20
150.399343
11
140.412500
21
150.399343
0
POLYLINE
5
665
100
AcDbEntity
8
1
6
CONTINUOUS
62
5
100
AcDb2dPolyline
66
1
10
0.0
20
0.0
30
0.0
70
0
0
VERTEX
5
666
100
AcDbEntity
8
1
100
AcDbVertex
100
AcDb2dVertex
62
5
10
141.637500
20
147.036843
0
VERTEX
5
667
100
AcDbEntity
8
1
100
AcDbVertex
100
AcDb2dVertex
62
5
10
141.637500
20
146.511843
0
VERTEX
5
668
100
AcDbEntity
8
1
100
AcDbVertex
100
AcDb2dVertex
62
5
10
141.550000
20
146.249343
0
VERTEX
5
669
100
AcDbEntity
8
1
100
AcDbVertex
100
AcDb2dVertex
62
5
10
141.375000
20
145.899343
0
VERTEX
5
66a
100
AcDbEntity
8
1
100
AcDbVertex
100
AcDb2dVertex
62
5
10
141.025000
20
145.461843
0
VERTEX
5
66b
100
AcDbEntity
8
1
100
AcDbVertex
100
AcDb2dVertex
62
5
10
140.762500
20
145.636843
0
VERTEX
5
66c
100
AcDbEntity
8
1
100
AcDbVertex
100
AcDb2dVertex
62
5
10
140.587500
20
145.986843
0
VERTEX
5
66d
100
AcDbEntity
8
1
100
AcDbVertex
100
AcDb2dVertex
62
5
10
140.587500
20
146.249343
0
VERTEX
5
66e
100
AcDbEntity
8
1
100
AcDbVertex
100
AcDb2dVertex
62
5
10
140.850000
20
146.599343
0
VERTEX
5
66f
100
AcDbEntity
8
1
100
AcDbVertex
100
AcDb2dVertex
62
5
10
141.112500
20
146.861843
0
VERTEX
5
670
100
AcDbEntity
8
1
100
AcDbVertex
100
AcDb2dVertex
62
5
10
141.462500
20
147.036843
0
VERTEX
5
671
100
AcDbEntity
8
1
100
AcDbVertex
100
AcDb2dVertex
62
5
10
141.987500
20
147.036843
0
VERTEX
5
672
100
AcDbEntity
8
1
100
AcDbVertex
100
AcDb2dVertex
62
5
10
142.250000
20
146.861843
0
VERTEX
5
673
100
AcDbEntity
8
1
100
AcDbVertex
100
AcDb2dVertex
62
5
10
142.425000
20
146.686843
0
VERTEX
5
674
100
AcDbEntity
8
1
100
AcDbVertex
100
AcDb2dVertex
62
5
10
142.600000
20
146.336843
0
VERTEX
5
675
100
AcDbEntity
8
1
100
AcDbVertex
100
AcDb2dVertex
62
5
10
142.600000
20
146.074343
0
VERTEX
5
676
100
AcDbEntity
8
1
100
AcDbVertex
100
AcDb2dVertex
62
5
10
142.425000
20
145.724343
0
VERTEX
5
677
100
AcDbEntity
8
1
100
AcDbVertex
100
AcDb2dVertex
62
5
10
142.250000
20
145.549343
0
VERTEX
5
678
100
AcDbEntity
8
1
100
AcDbVertex
100
AcDb2dVertex
62
5
10
141.987500
20
145.374343
0
SEQEND
5
679
100
AcDbEntity
8
1
0
LINE
5
67a
100
AcDbEntity
8
1
100
AcDbLine
6
CONTINUOUS
62
5
10
143.037500
20
147.299343
11
144.262500
21
147.299343
0
LINE
5
67b
100
AcDbEntity
8
1
100
AcDbLine
6
CONTINUOUS
62
5
10
142.950000
20
146.424343
11
144.437500
21
146.424343
0
POLYLINE
5
67c
100
AcDbEntity
8
1
6
CONTINUOUS
62
5
100
AcDb2dPolyline
66
1
10
0.0
20
0.0
30
0.0
70
0
0
VERTEX
5
67d
100
AcDbEntity
8
1
100
AcDbVertex
100
AcDb2dVertex
62
5
10
143.387500
20
147.299343
0
VERTEX
5
67e
100
AcDbEntity
8
1
100
AcDbVertex
100
AcDb2dVertex
62
5
10
143.387500
20
146.074343
0
VERTEX
5
67f
100
AcDbEntity
8
1
100
AcDbVertex
100
AcDb2dVertex
62
5
10
143.300000
20
145.461843
0
VERTEX
5
680
100
AcDbEntity
8
1
100
AcDbVertex
100
AcDb2dVertex
62
5
10
143.037500
20
144.936843
0
SEQEND
5
681
100
AcDbEntity
8
1
0
LINE
5
682
100
AcDbEntity
8
1
100
AcDbLine
6
CONTINUOUS
62
5
10
143.912500
20
147.299343
11
143.912500
21
144.936843
0
POLYLINE
5
683
100
AcDbEntity
8
1
6
CONTINUOUS
62
5
100
AcDb2dPolyline
66
1
10
0.0
20
0.0
30
0.0
70
0
0
VERTEX
5
684
100
AcDbEntity
8
1
100
AcDbVertex
100
AcDb2dVertex
62
5
10
145.225000
20
147.386843
0
VERTEX
5
685
100
AcDbEntity
8
1
100
AcDbVertex
100
AcDb2dVertex
62
5
10
144.700000
20
146.949343
0
VERTEX
5
686
100
AcDbEntity
8
1
100
AcDbVertex
100
AcDb2dVertex
62
5
10
144.262500
20
146.686843
0
SEQEND
5
687
100
AcDbEntity
8
1
0
POLYLINE
5
688
100
AcDbEntity
8
1
6
CONTINUOUS
62
5
100
AcDb2dPolyline
66
1
10
0.0
20
0.0
30
0.0
70
0
0
VERTEX
5
689
100
AcDbEntity
8
1
100
AcDbVertex
100
AcDb2dVertex
62
5
10
145.312500
20
146.686843
0
VERTEX
5
68a
100
AcDbEntity
8
1
100
AcDbVertex
100
AcDb2dVertex
62
5
10
144.962500
20
146.336843
0
VERTEX
5
68b
100
AcDbEntity
8
1
100
AcDbVertex
100
AcDb2dVertex
62
5
10
144.700000
20
146.161843
0
VERTEX
5
68c
100
AcDbEntity
8
1
100
AcDbVertex
100
AcDb2dVertex
62
5
10
144.437500
20
145.986843
0
SEQEND
5
68d
100
AcDbEntity
8
1
0
POLYLINE
5
68e
100
AcDbEntity
8
1
6
CONTINUOUS
62
5
100
AcDb2dPolyline
66
1
10
0.0
20
0.0
30
0.0
70
0
0
VERTEX
5
68f
100
AcDbEntity
8
1
100
AcDbVertex
100
AcDb2dVertex
62
5
10
145.400000
20
145.899343
0
VERTEX
5
690
100
AcDbEntity
8
1
100
AcDbVertex
100
AcDb2dVertex
62
5
10
145.137500
20
145.636843
0
VERTEX
5
691
100
AcDbEntity
8
1
100
AcDbVertex
100
AcDb2dVertex
62
5
10
144.875000
20
145.374343
0
VERTEX
5
692
100
AcDbEntity
8
1
100
AcDbVertex
100
AcDb2dVertex
62
5
10
144.350000
20
145.024343
0
SEQEND
5
693
100
AcDbEntity
8
1
0
LINE
5
694
100
AcDbEntity
8
1
100
AcDbLine
6
CONTINUOUS
62
5
10
145.662500
20
146.949343
11
145.925000
21
146.599343
0
POLYLINE
5
695
100
AcDbEntity
8
1
6
CONTINUOUS
62
5
100
AcDb2dPolyline
66
1
10
0.0
20
0.0
30
0.0
70
0
0
VERTEX
5
696
100
AcDbEntity
8
1
100
AcDbVertex
100
AcDb2dVertex
62
5
10
145.575000
20
145.724343
0
VERTEX
5
697
100
AcDbEntity
8
1
100
AcDbVertex
100
AcDb2dVertex
62
5
10
145.925000
20
145.986843
0
VERTEX
5
698
100
AcDbEntity
8
1
100
AcDbVertex
100
AcDb2dVertex
62
5
10
146.100000
20
146.161843
0
SEQEND
5
699
100
AcDbEntity
8
1
0
LINE
5
69a
100
AcDbEntity
8
1
100
AcDbLine
6
CONTINUOUS
62
5
10
146.100000
20
147.386843
11
146.100000
21
145.024343
0
LINE
5
69b
100
AcDbEntity
8
1
100
AcDbLine
6
CONTINUOUS
62
5
10
146.362500
20
146.511843
11
147.937500
21
146.511843
0
POLYLINE
5
69c
100
AcDbEntity
8
1
6
CONTINUOUS
62
5
100
AcDb2dPolyline
66
1
10
0.0
20
0.0
30
0.0
70
0
0
VERTEX
5
69d
100
AcDbEntity
8
1
100
AcDbVertex
100
AcDb2dVertex
62
5
10
147.150000
20
147.386843
0
VERTEX
5
69e
100
AcDbEntity
8
1
100
AcDbVertex
100
AcDb2dVertex
62
5
10
147.150000
20
146.511843
0
VERTEX
5
69f
100
AcDbEntity
8
1
100
AcDbVertex
100
AcDb2dVertex
62
5
10
146.975000
20
145.899343
0
VERTEX
5
6a0
100
AcDbEntity
8
1
100
AcDbVertex
100
AcDb2dVertex
62
5
10
146.712500
20
145.461843
0
VERTEX
5
6a1
100
AcDbEntity
8
1
100
AcDbVertex
100
AcDb2dVertex
62
5
10
146.362500
20
145.111843
0
SEQEND
5
6a2
100
AcDbEntity
8
1
0
POLYLINE
5
6a3
100
AcDbEntity
8
1
6
CONTINUOUS
62
5
100
AcDb2dPolyline
66
1
10
0.0
20
0.0
30
0.0
70
0
0
VERTEX
5
6a4
100
AcDbEntity
8
1
100
AcDbVertex
100
AcDb2dVertex
62
5
10
147.150000
20
146.511843
0
VERTEX
5
6a5
100
AcDbEntity
8
1
100
AcDbVertex
100
AcDb2dVertex
62
5
10
147.675000
20
145.374343
0
VERTEX
5
6a6
100
AcDbEntity
8
1
100
AcDbVertex
100
AcDb2dVertex
62
5
10
148.025000
20
145.024343
0
SEQEND
5
6a7
100
AcDbEntity
8
1
0
LINE
5
6a8
100
AcDbEntity
8
1
100
AcDbLine
6
CONTINUOUS
62
5
10
147.500000
20
147.124343
11
147.762500
21
146.861843
0
LINE
5
6a9
100
AcDbEntity
8
1
100
AcDbLine
6
CONTINUOUS
62
5
10
130.350000
20
146.861843
11
130.700000
21
146.511843
0
POLYLINE
5
6aa
100
AcDbEntity
8
1
6
CONTINUOUS
62
5
100
AcDb2dPolyline
66
1
10
0.0
20
0.0
30
0.0
70
0
0
VERTEX
5
6ab
100
AcDbEntity
8
1
100
AcDbVertex
100
AcDb2dVertex
62
5
10
130.262500
20
145.461843
0
VERTEX
5
6ac
100
AcDbEntity
8
1
100
AcDbVertex
100
AcDb2dVertex
62
5
10
130.875000
20
145.724343
0
VERTEX
5
6ad
100
AcDbEntity
8
1
100
AcDbVertex
100
AcDb2dVertex
62
5
10
131.400000
20
146.074343
0
VERTEX
5
6ae
100
AcDbEntity
8
1
100
AcDbVertex
100
AcDb2dVertex
62
5
10
131.925000
20
146.511843
0
SEQEND
5
6af
100
AcDbEntity
8
1
0
POLYLINE
5
6b0
100
AcDbEntity
8
1
6
CONTINUOUS
62
5
100
AcDb2dPolyline
66
1
10
0.0
20
0.0
30
0.0
70
0
0
VERTEX
5
6b1
100
AcDbEntity
8
1
100
AcDbVertex
100
AcDb2dVertex
62
5
10
132.712500
20
146.336843
0
VERTEX
5
6b2
100
AcDbEntity
8
1
100
AcDbVertex
100
AcDb2dVertex
62
5
10
134.550000
20
146.511843
0
VERTEX
5
6b3
100
AcDbEntity
8
1
100
AcDbVertex
100
AcDb2dVertex
62
5
10
134.550000
20
146.424343
0
VERTEX
5
6b4
100
AcDbEntity
8
1
100
AcDbVertex
100
AcDb2dVertex
62
5
10
134.112500
20
145.986843
0
SEQEND
5
6b5
100
AcDbEntity
8
1
0
POLYLINE
5
6b6
100
AcDbEntity
8
1
6
CONTINUOUS
62
5
100
AcDb2dPolyline
66
1
10
0.0
20
0.0
30
0.0
70
0
0
VERTEX
5
6b7
100
AcDbEntity
8
1
100
AcDbVertex
100
AcDb2dVertex
62
5
10
133.412500
20
147.124343
0
VERTEX
5
6b8
100
AcDbEntity
8
1
100
AcDbVertex
100
AcDb2dVertex
62
5
10
133.412500
20
145.461843
0
VERTEX
5
6b9
100
AcDbEntity
8
1
100
AcDbVertex
100
AcDb2dVertex
62
5
10
133.587500
20
145.286843
0
VERTEX
5
6ba
100
AcDbEntity
8
1
100
AcDbVertex
100
AcDb2dVertex
62
5
10
134.550000
20
145.286843
0
SEQEND
5
6bb
100
AcDbEntity
8
1
0
LINE
5
6bc
100
AcDbEntity
8
1
100
AcDbLine
6
CONTINUOUS
62
5
10
135.600000
20
146.861843
11
135.950000
21
146.511843
0
POLYLINE
5
6bd
100
AcDbEntity
8
1
6
CONTINUOUS
62
5
100
AcDb2dPolyline
66
1
10
0.0
20
0.0
30
0.0
70
0
0
VERTEX
5
6be
100
AcDbEntity
8
1
100
AcDbVertex
100
AcDb2dVertex
62
5
10
135.512500
20
145.461843
0
VERTEX
5
6bf
100
AcDbEntity
8
1
100
AcDbVertex
100
AcDb2dVertex
62
5
10
136.125000
20
145.724343
0
VERTEX
5
6c0
100
AcDbEntity
8
1
100
AcDbVertex
100
AcDb2dVertex
62
5
10
136.650000
20
146.074343
0
VERTEX
5
6c1
100
AcDbEntity
8
1
100
AcDbVertex
100
AcDb2dVertex
62
5
10
137.175000
20
146.511843
0
SEQEND
5
6c2
100
AcDbEntity
8
1
0
POLYLINE
5
6c3
100
AcDbEntity
8
1
6
CONTINUOUS
62
5
100
AcDb2dPolyline
66
1
10
0.0
20
0.0
30
0.0
70
0
0
VERTEX
5
6c4
100
AcDbEntity
8
1
100
AcDbVertex
100
AcDb2dVertex
62
5
10
138.750000
20
146.511843
0
VERTEX
5
6c5
100
AcDbEntity
8
1
100
AcDbVertex
100
AcDb2dVertex
62
5
10
138.837500
20
146.511843
0
VERTEX
5
6c6
100
AcDbEntity
8
1
100
AcDbVertex
100
AcDb2dVertex
62
5
10
139.450000
20
146.161843
0
SEQEND
5
6c7
100
AcDbEntity
8
1
0
LINE
5
6c8
100
AcDbEntity
8
1
100
AcDbLine
6
CONTINUOUS
62
5
10
138.750000
20
147.299343
11
138.750000
21
145.199343
0
LINE
5
6c9
100
AcDbEntity
8
1
100
AcDbLine
6
CONTINUOUS
62
5
10
126.300633
20
158.227694
11
127.175633
21
158.227694
0
LINE
5
6ca
100
AcDbEntity
8
1
100
AcDbLine
6
CONTINUOUS
62
5
10
126.738133
20
158.227694
11
126.738133
21
155.602694
0
LINE
5
6cb
100
AcDbEntity
8
1
100
AcDbLine
6
CONTINUOUS
62
5
10
126.300633
20
155.602694
11
127.175633
21
155.602694
0
POLYLINE
5
6cc
100
AcDbEntity
8
1
6
CONTINUOUS
62
5
100
AcDb2dPolyline
66
1
10
0.0
20
0.0
30
0.0
70
0
0
VERTEX
5
6cd
100
AcDbEntity
8
1
100
AcDbVertex
100
AcDb2dVertex
62
5
10
123.787500
20
151.624343
0
VERTEX
5
6ce
100
AcDbEntity
8
1
100
AcDbVertex
100
AcDb2dVertex
62
5
10
124.050000
20
151.799343
0
VERTEX
5
6cf
100
AcDbEntity
8
1
100
AcDbVertex
100
AcDb2dVertex
62
5
10
124.050000
20
149.699343
0
SEQEND
5
6d0
100
AcDbEntity
8
1
0
LINE
5
6d1
100
AcDbEntity
8
1
100
AcDbLine
6
CONTINUOUS
62
5
10
123.875000
20
149.699343
11
124.225000
21
149.699343
0
LINE
5
6d2
100
AcDbEntity
8
1
100
AcDbLine
6
CONTINUOUS
62
5
10
124.837500
20
150.224343
11
125.275000
21
149.699343
0
POLYLINE
5
6d3
100
AcDbEntity
8
1
6
CONTINUOUS
62
5
100
AcDb2dPolyline
66
1
10
0.0
20
0.0
30
0.0
70
0
0
VERTEX
5
6d4
100
AcDbEntity
8
1
100
AcDbVertex
100
AcDb2dVertex
62
5
10
127.462500
20
151.186843
0
VERTEX
5
6d5
100
AcDbEntity
8
1
100
AcDbVertex
100
AcDb2dVertex
62
5
10
127.550000
20
151.624343
0
VERTEX
5
6d6
100
AcDbEntity
8
1
100
AcDbVertex
100
AcDb2dVertex
62
5
10
127.812500
20
151.799343
0
VERTEX
5
6d7
100
AcDbEntity
8
1
100
AcDbVertex
100
AcDb2dVertex
62
5
10
128.075000
20
151.799343
0
VERTEX
5
6d8
100
AcDbEntity
8
1
100
AcDbVertex
100
AcDb2dVertex
62
5
10
128.250000
20
151.711843
0
VERTEX
5
6d9
100
AcDbEntity
8
1
100
AcDbVertex
100
AcDb2dVertex
62
5
10
128.337500
20
151.449343
0
VERTEX
5
6da
100
AcDbEntity
8
1
100
AcDbVertex
100
AcDb2dVertex
62
5
10
128.337500
20
151.186843
0
VERTEX
5
6db
100
AcDbEntity
8
1
100
AcDbVertex
100
AcDb2dVertex
62
5
10
128.250000
20
150.924343
0
VERTEX
5
6dc
100
AcDbEntity
8
1
100
AcDbVertex
100
AcDb2dVertex
62
5
10
127.462500
20
149.699343
0
VERTEX
5
6dd
100
AcDbEntity
8
1
100
AcDbVertex
100
AcDb2dVertex
62
5
10
128.337500
20
149.699343
0
VERTEX
5
6de
100
AcDbEntity
8
1
100
AcDbVertex
100
AcDb2dVertex
62
5
10
128.337500
20
149.961843
0
SEQEND
5
6df
100
AcDbEntity
8
1
0
POLYLINE
5
6e0
100
AcDbEntity
8
1
6
CONTINUOUS
62
5
100
AcDb2dPolyline
66
1
10
0.0
20
0.0
30
0.0
70
0
0
VERTEX
5
6e1
100
AcDbEntity
8
1
100
AcDbVertex
100
AcDb2dVertex
62
5
10
123.612500
20
146.686843
0
VERTEX
5
6e2
100
AcDbEntity
8
1
100
AcDbVertex
100
AcDb2dVertex
62
5
10
123.700000
20
147.124343
0
VERTEX
5
6e3
100
AcDbEntity
8
1
100
AcDbVertex
100
AcDb2dVertex
62
5
10
123.962500
20
147.299343
0
VERTEX
5
6e4
100
AcDbEntity
8
1
100
AcDbVertex
100
AcDb2dVertex
62
5
10
124.225000
20
147.299343
0
VERTEX
5
6e5
100
AcDbEntity
8
1
100
AcDbVertex
100
AcDb2dVertex
62
5
10
124.400000
20
147.211843
0
VERTEX
5
6e6
100
AcDbEntity
8
1
100
AcDbVertex
100
AcDb2dVertex
62
5
10
124.487500
20
146.949343
0
VERTEX
5
6e7
100
AcDbEntity
8
1
100
AcDbVertex
100
AcDb2dVertex
62
5
10
124.487500
20
146.686843
0
VERTEX
5
6e8
100
AcDbEntity
8
1
100
AcDbVertex
100
AcDb2dVertex
62
5
10
124.400000
20
146.424343
0
VERTEX
5
6e9
100
AcDbEntity
8
1
100
AcDbVertex
100
AcDb2dVertex
62
5
10
123.612500
20
145.199343
0
VERTEX
5
6ea
100
AcDbEntity
8
1
100
AcDbVertex
100
AcDb2dVertex
62
5
10
124.487500
20
145.199343
0
VERTEX
5
6eb
100
AcDbEntity
8
1
100
AcDbVertex
100
AcDb2dVertex
62
5
10
124.487500
20
145.461843
0
SEQEND
5
6ec
100
AcDbEntity
8
1
0
LINE
5
6ed
100
AcDbEntity
8
1
100
AcDbLine
6
CONTINUOUS
62
5
10
124.837500
20
145.724343
11
125.275000
21
145.199343
0
POLYLINE
5
6ee
100
AcDbEntity
8
1
6
CONTINUOUS
62
5
100
AcDb2dPolyline
66
1
10
0.0
20
0.0
30
0.0
70
0
0
VERTEX
5
6ef
100
AcDbEntity
8
1
100
AcDbVertex
100
AcDb2dVertex
62
5
10
127.725000
20
146.774343
0
VERTEX
5
6f0
100
AcDbEntity
8
1
100
AcDbVertex
100
AcDb2dVertex
62
5
10
129.125000
20
146.774343
0
VERTEX
5
6f1
100
AcDbEntity
8
1
100
AcDbVertex
100
AcDb2dVertex
62
5
10
129.125000
20
145.549343
0
VERTEX
5
6f2
100
AcDbEntity
8
1
100
AcDbVertex
100
AcDb2dVertex
62
5
10
127.725000
20
145.549343
0
SEQEND
5
6f3
100
AcDbEntity
8
1
0
LINE
5
6f4
100
AcDbEntity
8
1
100
AcDbLine
6
CONTINUOUS
62
5
10
129.144383
20
158.227694
11
129.144383
21
155.602694
0
LINE
5
6f5
100
AcDbEntity
8
1
100
AcDbLine
6
CONTINUOUS
62
5
10
129.144383
20
156.915194
11
130.894383
21
156.915194
0
LINE
5
6f6
100
AcDbEntity
8
1
100
AcDbLine
6
CONTINUOUS
62
5
10
130.894383
20
158.227694
11
130.894383
21
155.602694
0
LINE
5
6f7
100
AcDbEntity
8
1
100
AcDbLine
6
CONTINUOUS
62
5
10
128.687500
20
151.799343
11
129.475000
21
151.799343
0
POLYLINE
5
6f8
100
AcDbEntity
8
1
6
CONTINUOUS
62
5
100
AcDb2dPolyline
66
1
10
0.0
20
0.0
30
0.0
70
0
0
VERTEX
5
6f9
100
AcDbEntity
8
1
100
AcDbVertex
100
AcDb2dVertex
62
5
10
128.687500
20
151.799343
0
VERTEX
5
6fa
100
AcDbEntity
8
1
100
AcDbVertex
100
AcDb2dVertex
62
5
10
128.687500
20
150.749343
0
VERTEX
5
6fb
100
AcDbEntity
8
1
100
AcDbVertex
100
AcDb2dVertex
62
5
10
128.862500
20
150.924343
0
VERTEX
5
6fc
100
AcDbEntity
8
1
100
AcDbVertex
100
AcDb2dVertex
62
5
10
129.037500
20
151.011843
0
VERTEX
5
6fd
100
AcDbEntity
8
1
100
AcDbVertex
100
AcDb2dVertex
62
5
10
129.300000
20
151.011843
0
VERTEX
5
6fe
100
AcDbEntity
8
1
100
AcDbVertex
100
AcDb2dVertex
62
5
10
129.475000
20
150.924343
0
VERTEX
5
6ff
100
AcDbEntity
8
1
100
AcDbVertex
100
AcDb2dVertex
62
5
10
129.562500
20
150.661843
0
VERTEX
5
700
100
AcDbEntity
8
1
100
AcDbVertex
100
AcDb2dVertex
62
5
10
129.562500
20
150.136843
0
VERTEX
5
701
100
AcDbEntity
8
1
100
AcDbVertex
100
AcDb2dVertex
62
5
10
129.387500
20
149.874343
0
VERTEX
5
702
100
AcDbEntity
8
1
100
AcDbVertex
100
AcDb2dVertex
62
5
10
129.125000
20
149.699343
0
VERTEX
5
703
100
AcDbEntity
8
1
100
AcDbVertex
100
AcDb2dVertex
62
5
10
128.687500
20
149.699343
0
SEQEND
5
704
100
AcDbEntity
8
1
0
POLYLINE
5
705
100
AcDbEntity
8
1
6
CONTINUOUS
62
5
100
AcDb2dPolyline
66
1
10
0.0
20
0.0
30
0.0
70
1
0
VERTEX
5
706
100
AcDbEntity
8
1
100
AcDbVertex
100
AcDb2dVertex
62
5
10
130.262500
20
151.799343
0
VERTEX
5
707
100
AcDbEntity
8
1
100
AcDbVertex
100
AcDb2dVertex
62
5
10
130.437500
20
151.799343
0
VERTEX
5
708
100
AcDbEntity
8
1
100
AcDbVertex
100
AcDb2dVertex
62
5
10
130.525000
20
151.711843
0
VERTEX
5
709
100
AcDbEntity
8
1
100
AcDbVertex
100
AcDb2dVertex
62
5
10
130.700000
20
151.361843
0
VERTEX
5
70a
100
AcDbEntity
8
1
100
AcDbVertex
100
AcDb2dVertex
62
5
10
130.787500
20
151.011843
0
VERTEX
5
70b
100
AcDbEntity
8
1
100
AcDbVertex
100
AcDb2dVertex
62
5
10
130.787500
20
150.486843
0
VERTEX
5
70c
100
AcDbEntity
8
1
100
AcDbVertex
100
AcDb2dVertex
62
5
10
130.700000
20
150.136843
0
VERTEX
5
70d
100
AcDbEntity
8
1
100
AcDbVertex
100
AcDb2dVertex
62
5
10
130.525000
20
149.786843
0
VERTEX
5
70e
100
AcDbEntity
8
1
100
AcDbVertex
100
AcDb2dVertex
62
5
10
130.437500
20
149.699343
0
VERTEX
5
70f
100
AcDbEntity
8
1
100
AcDbVertex
100
AcDb2dVertex
62
5
10
130.262500
20
149.699343
0
VERTEX
5
710
100
AcDbEntity
8
1
100
AcDbVertex
100
AcDb2dVertex
62
5
10
130.175000
20
149.786843
0
VERTEX
5
711
100
AcDbEntity
8
1
100
AcDbVertex
100
AcDb2dVertex
62
5
10
130.000000
20
150.136843
0
VERTEX
5
712
100
AcDbEntity
8
1
100
AcDbVertex
100
AcDb2dVertex
62
5
10
129.912500
20
150.486843
0
VERTEX
5
713
100
AcDbEntity
8
1
100
AcDbVertex
100
AcDb2dVertex
62
5
10
129.912500
20
151.011843
0
VERTEX
5
714
100
AcDbEntity
8
1
100
AcDbVertex
100
AcDb2dVertex
62
5
10
130.000000
20
151.361843
0
VERTEX
5
715
100
AcDbEntity
8
1
100
AcDbVertex
100
AcDb2dVertex
62
5
10
130.175000
20
151.711843
0
VERTEX
5
716
100
AcDbEntity
8
1
100
AcDbVertex
100
AcDb2dVertex
62
5
10
130.262500
20
151.799343
0
SEQEND
5
717
100
AcDbEntity
8
1
0
POLYLINE
5
718
100
AcDbEntity
8
1
6
DOT2
62
5
100
AcDb2dPolyline
66
1
10
0.0
20
0.0
30
0.0
70
1
0
VERTEX
5
719
100
AcDbEntity
8
1
100
AcDbVertex
100
AcDb2dVertex
62
5
10
86.250000
20
152.500000
0
VERTEX
5
71a
100
AcDbEntity
8
1
100
AcDbVertex
100
AcDb2dVertex
62
5
10
86.250000
20
153.125000
0
VERTEX
5
71b
100
AcDbEntity
8
1
100
AcDbVertex
100
AcDb2dVertex
62
5
10
86.562500
20
153.437500
0
VERTEX
5
71c
100
AcDbEntity
8
1
100
AcDbVertex
100
AcDb2dVertex
62
5
10
87.812500
20
154.062500
0
VERTEX
5
71d
100
AcDbEntity
8
1
100
AcDbVertex
100
AcDb2dVertex
62
5
10
89.062500
20
154.375000
0
VERTEX
5
71e
100
AcDbEntity
8
1
100
AcDbVertex
100
AcDb2dVertex
62
5
10
90.937500
20
154.375000
0
VERTEX
5
71f
100
AcDbEntity
8
1
100
AcDbVertex
100
AcDb2dVertex
62
5
10
92.187500
20
154.062500
0
VERTEX
5
720
100
AcDbEntity
8
1
100
AcDbVertex
100
AcDb2dVertex
62
5
10
93.437500
20
153.437500
0
VERTEX
5
721
100
AcDbEntity
8
1
100
AcDbVertex
100
AcDb2dVertex
62
5
10
93.750000
20
153.125000
0
VERTEX
5
722
100
AcDbEntity
8
1
100
AcDbVertex
100
AcDb2dVertex
62
5
10
93.750000
20
152.500000
0
VERTEX
5
723
100
AcDbEntity
8
1
100
AcDbVertex
100
AcDb2dVertex
62
5
10
93.437500
20
152.187500
0
VERTEX
5
724
100
AcDbEntity
8
1
100
AcDbVertex
100
AcDb2dVertex
62
5
10
92.187500
20
151.562500
0
VERTEX
5
725
100
AcDbEntity
8
1
100
AcDbVertex
100
AcDb2dVertex
62
5
10
90.937500
20
151.250000
0
VERTEX
5
726
100
AcDbEntity
8
1
100
AcDbVertex
100
AcDb2dVertex
62
5
10
89.062500
20
151.250000
0
VERTEX
5
727
100
AcDbEntity
8
1
100
AcDbVertex
100
AcDb2dVertex
62
5
10
87.812500
20
151.562500
0
VERTEX
5
728
100
AcDbEntity
8
1
100
AcDbVertex
100
AcDb2dVertex
62
5
10
86.562500
20
152.187500
0
VERTEX
5
729
100
AcDbEntity
8
1
100
AcDbVertex
100
AcDb2dVertex
62
5
10
86.250000
20
152.500000
0
SEQEND
5
72a
100
AcDbEntity
8
1
0
POLYLINE
5
72b
100
AcDbEntity
8
1
6
DOT2
62
5
100
AcDb2dPolyline
66
1
10
0.0
20
0.0
30
0.0
70
0
0
VERTEX
5
72c
100
AcDbEntity
8
1
100
AcDbVertex
100
AcDb2dVertex
62
5
10
88.125000
20
146.250000
0
VERTEX
5
72d
100
AcDbEntity
8
1
100
AcDbVertex
100
AcDb2dVertex
62
5
10
86.875000
20
146.562500
0
VERTEX
5
72e
100
AcDbEntity
8
1
100
AcDbVertex
100
AcDb2dVertex
62
5
10
86.250000
20
147.187500
0
VERTEX
5
72f
100
AcDbEntity
8
1
100
AcDbVertex
100
AcDb2dVertex
62
5
10
86.250000
20
148.125000
0
VERTEX
5
730
100
AcDbEntity
8
1
100
AcDbVertex
100
AcDb2dVertex
62
5
10
86.562500
20
148.750000
0
VERTEX
5
731
100
AcDbEntity
8
1
100
AcDbVertex
100
AcDb2dVertex
62
5
10
87.500000
20
149.062500
0
VERTEX
5
732
100
AcDbEntity
8
1
100
AcDbVertex
100
AcDb2dVertex
62
5
10
88.750000
20
149.062500
0
VERTEX
5
733
100
AcDbEntity
8
1
100
AcDbVertex
100
AcDb2dVertex
62
5
10
89.375000
20
148.750000
0
VERTEX
5
734
100
AcDbEntity
8
1
100
AcDbVertex
100
AcDb2dVertex
62
5
10
90.000000
20
148.125000
0
VERTEX
5
735
100
AcDbEntity
8
1
100
AcDbVertex
100
AcDb2dVertex
62
5
10
90.000000
20
147.187500
0
SEQEND
5
736
100
AcDbEntity
8
1
0
POLYLINE
5
737
100
AcDbEntity
8
1
6
DOT2
62
5
100
AcDb2dPolyline
66
1
10
0.0
20
0.0
30
0.0
70
0
0
VERTEX
5
738
100
AcDbEntity
8
1
100
AcDbVertex
100
AcDb2dVertex
62
5
10
90.000000
20
148.125000
0
VERTEX
5
739
100
AcDbEntity
8
1
100
AcDbVertex
100
AcDb2dVertex
62
5
10
90.625000
20
149.062500
0
VERTEX
5
73a
100
AcDbEntity
8
1
100
AcDbVertex
100
AcDb2dVertex
62
5
10
91.562500
20
149.375000
0
VERTEX
5
73b
100
AcDbEntity
8
1
100
AcDbVertex
100
AcDb2dVertex
62
5
10
92.500000
20
149.375000
0
VERTEX
5
73c
100
AcDbEntity
8
1
100
AcDbVertex
100
AcDb2dVertex
62
5
10
93.125000
20
149.062500
0
VERTEX
5
73d
100
AcDbEntity
8
1
100
AcDbVertex
100
AcDb2dVertex
62
5
10
93.750000
20
148.125000
0
VERTEX
5
73e
100
AcDbEntity
8
1
100
AcDbVertex
100
AcDb2dVertex
62
5
10
93.750000
20
147.187500
0
VERTEX
5
73f
100
AcDbEntity
8
1
100
AcDbVertex
100
AcDb2dVertex
62
5
10
93.437500
20
146.562500
0
VERTEX
5
740
100
AcDbEntity
8
1
100
AcDbVertex
100
AcDb2dVertex
62
5
10
92.500000
20
145.937500
0
SEQEND
5
741
100
AcDbEntity
8
1
0
POLYLINE
5
742
100
AcDbEntity
8
1
6
CONTINUOUS
62
5
100
AcDb2dPolyline
66
1
10
0.0
20
0.0
30
0.0
70
0
0
VERTEX
5
743
100
AcDbEntity
8
1
100
AcDbVertex
100
AcDb2dVertex
62
5
10
148.941258
20
157.790194
0
VERTEX
5
744
100
AcDbEntity
8
1
100
AcDbVertex
100
AcDb2dVertex
62
5
10
148.941258
20
155.930819
0
VERTEX
5
745
100
AcDbEntity
8
1
100
AcDbVertex
100
AcDb2dVertex
62
5
10
149.160008
20
155.712069
0
VERTEX
5
746
100
AcDbEntity
8
1
100
AcDbVertex
100
AcDb2dVertex
62
5
10
150.691258
20
155.712069
0
SEQEND
5
747
100
AcDbEntity
8
1
0
LINE
5
748
100
AcDbEntity
8
1
100
AcDbLine
6
CONTINUOUS
62
5
10
150.472508
20
157.243319
11
148.941258
21
156.915194
0
POLYLINE
5
749
100
AcDbEntity
8
1
6
CONTINUOUS
62
5
100
AcDb2dPolyline
66
1
10
0.0
20
0.0
30
0.0
70
0
0
VERTEX
5
74a
100
AcDbEntity
8
1
100
AcDbVertex
100
AcDb2dVertex
62
5
10
148.812500
20
150.836843
0
VERTEX
5
74b
100
AcDbEntity
8
1
100
AcDbVertex
100
AcDb2dVertex
62
5
10
150.650000
20
151.011843
0
VERTEX
5
74c
100
AcDbEntity
8
1
100
AcDbVertex
100
AcDb2dVertex
62
5
10
150.650000
20
150.924343
0
VERTEX
5
74d
100
AcDbEntity
8
1
100
AcDbVertex
100
AcDb2dVertex
62
5
10
150.212500
20
150.486843
0
SEQEND
5
74e
100
AcDbEntity
8
1
0
POLYLINE
5
74f
100
AcDbEntity
8
1
6
CONTINUOUS
62
5
100
AcDb2dPolyline
66
1
10
0.0
20
0.0
30
0.0
70
0
0
VERTEX
5
750
100
AcDbEntity
8
1
100
AcDbVertex
100
AcDb2dVertex
62
5
10
149.512500
20
151.624343
0
VERTEX
5
751
100
AcDbEntity
8
1
100
AcDbVertex
100
AcDb2dVertex
62
5
10
149.512500
20
149.961843
0
VERTEX
5
752
100
AcDbEntity
8
1
100
AcDbVertex
100
AcDb2dVertex
62
5
10
149.687500
20
149.786843
0
VERTEX
5
753
100
AcDbEntity
8
1
100
AcDbVertex
100
AcDb2dVertex
62
5
10
150.650000
20
149.786843
0
SEQEND
5
754
100
AcDbEntity
8
1
0
LINE
5
755
100
AcDbEntity
8
1
100
AcDbLine
6
CONTINUOUS
62
5
10
148.725000
20
146.861843
11
149.600000
21
145.286843
0
POLYLINE
5
756
100
AcDbEntity
8
1
6
CONTINUOUS
62
5
100
AcDb2dPolyline
66
1
10
0.0
20
0.0
30
0.0
70
0
0
VERTEX
5
757
100
AcDbEntity
8
1
100
AcDbVertex
100
AcDb2dVertex
62
5
10
148.550000
20
146.161843
0
VERTEX
5
758
100
AcDbEntity
8
1
100
AcDbVertex
100
AcDb2dVertex
62
5
10
149.425000
20
146.599343
0
VERTEX
5
759
100
AcDbEntity
8
1
100
AcDbVertex
100
AcDb2dVertex
62
5
10
149.862500
20
146.774343
0
VERTEX
5
75a
100
AcDbEntity
8
1
100
AcDbVertex
100
AcDb2dVertex
62
5
10
150.300000
20
146.774343
0
VERTEX
5
75b
100
AcDbEntity
8
1
100
AcDbVertex
100
AcDb2dVertex
62
5
10
150.475000
20
146.599343
0
VERTEX
5
75c
100
AcDbEntity
8
1
100
AcDbVertex
100
AcDb2dVertex
62
5
10
150.475000
20
146.336843
0
VERTEX
5
75d
100
AcDbEntity
8
1
100
AcDbVertex
100
AcDb2dVertex
62
5
10
150.387500
20
146.161843
0
VERTEX
5
75e
100
AcDbEntity
8
1
100
AcDbVertex
100
AcDb2dVertex
62
5
10
150.125000
20
146.074343
0
VERTEX
5
75f
100
AcDbEntity
8
1
100
AcDbVertex
100
AcDb2dVertex
62
5
10
149.687500
20
145.986843
0
SEQEND
5
760
100
AcDbEntity
8
1
0
LINE
5
761
100
AcDbEntity
8
1
100
AcDbLine
6
CONTINUOUS
62
5
10
149.337500
20
147.124343
11
149.600000
21
146.861843
0
LINE
5
762
100
AcDbEntity
8
1
100
AcDbLine
6
CONTINUOUS
62
5
10
149.134471
20
142.307606
11
149.134471
21
141.760731
0
LINE
5
763
100
AcDbEntity
8
1
100
AcDbLine
6
CONTINUOUS
62
5
10
148.587596
20
141.760731
11
149.790721
21
141.760731
0
POLYLINE
5
764
100
AcDbEntity
8
1
6
CONTINUOUS
62
5
100
AcDb2dPolyline
66
1
10
0.0
20
0.0
30
0.0
70
0
0
VERTEX
5
765
100
AcDbEntity
8
1
100
AcDbVertex
100
AcDb2dVertex
62
5
10
149.134471
20
141.760731
0
VERTEX
5
766
100
AcDbEntity
8
1
100
AcDbVertex
100
AcDb2dVertex
62
5
10
149.134471
20
141.104481
0
VERTEX
5
767
100
AcDbEntity
8
1
100
AcDbVertex
100
AcDb2dVertex
62
5
10
149.025096
20
140.448231
0
VERTEX
5
768
100
AcDbEntity
8
1
100
AcDbVertex
100
AcDb2dVertex
62
5
10
148.806346
20
139.682606
0
VERTEX
5
769
100
AcDbEntity
8
1
100
AcDbVertex
100
AcDb2dVertex
62
5
10
148.587596
20
139.354481
0
SEQEND
5
76a
100
AcDbEntity
8
1
0
POLYLINE
5
76b
100
AcDbEntity
8
1
6
CONTINUOUS
62
5
100
AcDb2dPolyline
66
1
10
0.0
20
0.0
30
0.0
70
0
0
VERTEX
5
76c
100
AcDbEntity
8
1
100
AcDbVertex
100
AcDb2dVertex
62
5
10
149.134471
20
141.104481
0
VERTEX
5
76d
100
AcDbEntity
8
1
100
AcDbVertex
100
AcDb2dVertex
62
5
10
149.681346
20
141.104481
0
VERTEX
5
76e
100
AcDbEntity
8
1
100
AcDbVertex
100
AcDb2dVertex
62
5
10
149.681346
20
140.776356
0
VERTEX
5
76f
100
AcDbEntity
8
1
100
AcDbVertex
100
AcDb2dVertex
62
5
10
149.571971
20
140.120106
0
VERTEX
5
770
100
AcDbEntity
8
1
100
AcDbVertex
100
AcDb2dVertex
62
5
10
149.462596
20
139.682606
0
VERTEX
5
771
100
AcDbEntity
8
1
100
AcDbVertex
100
AcDb2dVertex
62
5
10
149.243846
20
139.354481
0
VERTEX
5
772
100
AcDbEntity
8
1
100
AcDbVertex
100
AcDb2dVertex
62
5
10
149.025096
20
139.354481
0
SEQEND
5
773
100
AcDbEntity
8
1
0
POLYLINE
5
774
100
AcDbEntity
8
1
6
CONTINUOUS
62
5
100
AcDb2dPolyline
66
1
10
0.0
20
0.0
30
0.0
70
0
0
VERTEX
5
775
100
AcDbEntity
8
1
100
AcDbVertex
100
AcDb2dVertex
62
5
10
150.556346
20
142.307606
0
VERTEX
5
776
100
AcDbEntity
8
1
100
AcDbVertex
100
AcDb2dVertex
62
5
10
150.337596
20
141.870106
0
VERTEX
5
777
100
AcDbEntity
8
1
100
AcDbVertex
100
AcDb2dVertex
62
5
10
149.900096
20
141.213856
0
SEQEND
5
778
100
AcDbEntity
8
1
0
LINE
5
779
100
AcDbEntity
8
1
100
AcDbLine
6
CONTINUOUS
62
5
10
150.337596
20
141.870106
11
151.650096
21
141.870106
0
POLYLINE
5
77a
100
AcDbEntity
8
1
6
CONTINUOUS
62
5
100
AcDb2dPolyline
66
1
10
0.0
20
0.0
30
0.0
70
0
0
VERTEX
5
77b
100
AcDbEntity
8
1
100
AcDbVertex
100
AcDb2dVertex
62
5
10
149.900096
20
140.557606
0
VERTEX
5
77c
100
AcDbEntity
8
1
100
AcDbVertex
100
AcDb2dVertex
62
5
10
151.540721
20
140.885731
0
VERTEX
5
77d
100
AcDbEntity
8
1
100
AcDbVertex
100
AcDb2dVertex
62
5
10
151.431346
20
140.010731
0
VERTEX
5
77e
100
AcDbEntity
8
1
100
AcDbVertex
100
AcDb2dVertex
62
5
10
151.212596
20
140.229481
0
SEQEND
5
77f
100
AcDbEntity
8
1
0
LINE
5
780
100
AcDbEntity
8
1
100
AcDbLine
6
CONTINUOUS
62
5
10
150.884471
20
141.541981
11
150.884471
21
139.791981
0
POLYLINE
5
781
100
AcDbEntity
8
1
6
CONTINUOUS
62
5
100
AcDb2dPolyline
66
1
10
0.0
20
0.0
30
0.0
70
0
0
VERTEX
5
782
100
AcDbEntity
8
1
100
AcDbVertex
100
AcDb2dVertex
62
5
10
150.118846
20
141.323231
0
VERTEX
5
783
100
AcDbEntity
8
1
100
AcDbVertex
100
AcDb2dVertex
62
5
10
150.118846
20
139.573231
0
VERTEX
5
784
100
AcDbEntity
8
1
100
AcDbVertex
100
AcDb2dVertex
62
5
10
150.337596
20
139.354481
0
VERTEX
5
785
100
AcDbEntity
8
1
100
AcDbVertex
100
AcDb2dVertex
62
5
10
151.650096
20
139.354481
0
VERTEX
5
786
100
AcDbEntity
8
1
100
AcDbVertex
100
AcDb2dVertex
62
5
10
151.650096
20
139.682606
0
SEQEND
5
787
100
AcDbEntity
8
1
0
LINE
5
788
100
AcDbEntity
8
1
100
AcDbLine
6
CONTINUOUS
62
5
10
40.000000
20
340.000000
11
40.000000
21
308.000000
0
LINE
5
789
100
AcDbEntity
8
1
100
AcDbLine
6
CONTINUOUS
62
5
10
0.000000
20
308.000000
11
320.000000
21
308.000000
0
LINE
5
78a
100
AcDbEntity
8
1
100
AcDbLine
6
CONTINUOUS
62
5
10
120.922715
20
164.999394
11
93.000000
21
164.999394
0
LINE
5
78b
100
AcDbEntity
8
1
100
AcDbLine
6
CONTINUOUS
62
5
10
120.922715
20
135.000606
11
93.000000
21
135.000606
0
POLYLINE
5
78c
100
AcDbEntity
8
1
6
CONTINUOUS
62
5
100
AcDb2dPolyline
66
1
10
0.0
20
0.0
30
0.0
70
0
0
VERTEX
5
78d
100
AcDbEntity
8
1
100
AcDbVertex
100
AcDb2dVertex
62
5
10
95.000000
20
150.000000
0
VERTEX
5
78e
100
AcDbEntity
8
1
100
AcDbVertex
100
AcDb2dVertex
62
5
10
95.000000
20
135.000606
0
VERTEX
5
78f
100
AcDbEntity
8
1
100
AcDbVertex
100
AcDb2dVertex
62
5
10
94.000000
20
141.000606
0
VERTEX
5
790
100
AcDbEntity
8
1
100
AcDbVertex
100
AcDb2dVertex
62
5
10
96.000000
20
141.000606
0
VERTEX
5
791
100
AcDbEntity
8
1
100
AcDbVertex
100
AcDb2dVertex
62
5
10
95.000000
20
135.000606
0
VERTEX
5
792
100
AcDbEntity
8
1
100
AcDbVertex
100
AcDb2dVertex
62
5
10
94.500000
20
141.000606
0
VERTEX
5
793
100
AcDbEntity
8
1
100
AcDbVertex
100
AcDb2dVertex
62
5
10
95.500000
20
141.000606
0
VERTEX
5
794
100
AcDbEntity
8
1
100
AcDbVertex
100
AcDb2dVertex
62
5
10
95.000000
20
135.000606
0
SEQEND
5
795
100
AcDbEntity
8
1
0
POLYLINE
5
796
100
AcDbEntity
8
1
6
CONTINUOUS
62
5
100
AcDb2dPolyline
66
1
10
0.0
20
0.0
30
0.0
70
0
0
VERTEX
5
797
100
AcDbEntity
8
1
100
AcDbVertex
100
AcDb2dVertex
62
5
10
95.000000
20
150.000000
0
VERTEX
5
798
100
AcDbEntity
8
1
100
AcDbVertex
100
AcDb2dVertex
62
5
10
95.000000
20
164.999394
0
VERTEX
5
799
100
AcDbEntity
8
1
100
AcDbVertex
100
AcDb2dVertex
62
5
10
96.000000
20
158.999394
0
VERTEX
5
79a
100
AcDbEntity
8
1
100
AcDbVertex
100
AcDb2dVertex
62
5
10
94.000000
20
158.999394
0
VERTEX
5
79b
100
AcDbEntity
8
1
100
AcDbVertex
100
AcDb2dVertex
62
5
10
95.000000
20
164.999394
0
VERTEX
5
79c
100
AcDbEntity
8
1
100
AcDbVertex
100
AcDb2dVertex
62
5
10
95.500000
20
158.999394
0
VERTEX
5
79d
100
AcDbEntity
8
1
100
AcDbVertex
100
AcDb2dVertex
62
5
10
94.500000
20
158.999394
0
VERTEX
5
79e
100
AcDbEntity
8
1
100
AcDbVertex
100
AcDb2dVertex
62
5
10
95.000000
20
164.999394
0
SEQEND
5
79f
100
AcDbEntity
8
1
0
ARC
5
7a0
100
AcDbEntity
8
1
100
AcDbCircle
6
CONTINUOUS
62
5
10
123.756234
20
161.244221
40
2.256250
100
AcDbArc
50
91.771125
51
-179.784674
0
LINE
5
7a1
100
AcDbEntity
8
1
100
AcDbLine
6
CONTINUOUS
62
5
10
121.500000
20
161.235742
11
121.500000
21
138.498429
0
ARC
5
7a2
100
AcDbEntity
8
1
100
AcDbCircle
6
CONTINUOUS
62
5
10
123.760890
20
138.693564
40
2.269295
100
AcDbArc
50
-175.067107
51
-104.783918
0
LINE
5
7a3
100
AcDbEntity
8
1
100
AcDbLine
6
CONTINUOUS
62
5
10
123.181824
20
136.499394
11
196.852447
21
136.499394
0
ARC
5
7a4
100
AcDbEntity
8
1
100
AcDbCircle
6
CONTINUOUS
62
5
10
196.243750
20
138.671985
40
2.256250
100
AcDbArc
50
-74.348678
51
-0.593932
0
LINE
5
7a5
100
AcDbEntity
8
1
100
AcDbLine
6
CONTINUOUS
62
5
10
198.499879
20
138.648597
11
198.500000
21
161.235742
0
ARC
5
7a6
100
AcDbEntity
8
1
100
AcDbCircle
6
CONTINUOUS
62
5
10
196.227970
20
161.228559
40
2.272041
100
AcDbArc
50
0.181150
51
90.895140
0
LINE
5
7a7
100
AcDbEntity
8
1
100
AcDbLine
6
CONTINUOUS
62
5
10
196.182507
20
163.499394
11
123.686500
21
163.499394
0
ARC
5
7a8
100
AcDbEntity
8
1
100
AcDbCircle
6
CONTINUOUS
62
5
10
122.499982
20
162.500588
40
2.500000
100
AcDbArc
50
91.771125
51
-179.784674
0
LINE
5
7a9
100
AcDbEntity
8
1
100
AcDbLine
6
CONTINUOUS
62
5
10
120.000000
20
162.491193
11
120.000000
21
137.297494
0
ARC
5
7aa
100
AcDbEntity
8
1
100
AcDbCircle
6
CONTINUOUS
62
5
10
122.505141
20
137.513709
40
2.514454
100
AcDbArc
50
-175.067107
51
-89.398853
0
LINE
5
7ab
100
AcDbEntity
8
1
100
AcDbLine
6
CONTINUOUS
62
5
10
122.531522
20
134.999394
11
197.718813
21
134.999394
0
ARC
5
7ac
100
AcDbEntity
8
1
100
AcDbCircle
6
CONTINUOUS
62
5
10
197.500000
20
137.489799
40
2.500000
100
AcDbArc
50
-84.978744
51
0.000000
0
LINE
5
7ad
100
AcDbEntity
8
1
100
AcDbLine
6
CONTINUOUS
62
5
10
200.000000
20
137.489799
11
200.000000
21
162.491193
0
ARC
5
7ae
100
AcDbEntity
8
1
100
AcDbCircle
6
CONTINUOUS
62
5
10
197.484946
20
162.484449
40
2.515063
100
AcDbArc
50
0.153628
51
89.443840
0
LINE
5
7af
100
AcDbEntity
8
1
100
AcDbLine
6
CONTINUOUS
62
5
10
197.509359
20
164.999394
11
194.571823
21
164.999394
0
LINE
5
7b0
100
AcDbEntity
8
1
100
AcDbLine
6
CONTINUOUS
62
5
10
197.509359
20
164.999394
11
122.422715
21
164.999394
0
POLYLINE
5
7b1
100
AcDbEntity
8
1
6
CONTINUOUS
62
5
100
AcDb2dPolyline
66
1
10
0.0
20
0.0
30
0.0
70
1
0
VERTEX
5
7b2
100
AcDbEntity
8
1
100
AcDbVertex
100
AcDb2dVertex
62
5
10
0.000000
20
0.000000
0
VERTEX
5
7b3
100
AcDbEntity
8
1
100
AcDbVertex
100
AcDb2dVertex
62
5
10
0.000000
20
340.000000
0
VERTEX
5
7b4
100
AcDbEntity
8
1
100
AcDbVertex
100
AcDb2dVertex
62
5
10
320.000000
20
340.000000
0
VERTEX
5
7b5
100
AcDbEntity
8
1
100
AcDbVertex
100
AcDb2dVertex
62
5
10
320.000000
20
0.000000
0
VERTEX
5
7b6
100
AcDbEntity
8
1
100
AcDbVertex
100
AcDb2dVertex
62
5
10
0.000000
20
0.000000
0
SEQEND
5
7b7
100
AcDbEntity
8
1
0
ENDSEC
0
SECTION
2
OBJECTS
0
DICTIONARY
5
7b8
100
AcDbDictionary
3
ACAD_GROUP
350
7b9
3
ACAD_MLINESTYLE
350
7ba
0
DICTIONARY
5
7b9
102
{ACAD_REACTORS
330
7b8
102
}
100
AcDbDictionary
0
DICTIONARY
5
7ba
102
{ACAD_REACTORS
330
7b8
102
}
100
AcDbDictionary
3
STANDARD
350
7bb
0
MLINESTYLE
5
7bb
102
{ACAD_REACTORS
330
7ba
102
}
100
AcDbMlineStyle
2
STANDARD
70
0
3

62
0
51
90.0
52
90.0
71
2
49
0.5
62
256
6
BYLAYER
49
-0.5
62
256
6
BYLAYER
0
ENDSEC
0
EOF
