0
SECTION
2
HEADER
9
$ACADVER
1
AC1012
9
$EXTMIN
10
-1.580000
20
-13.390000
30
0.0
9
$EXTMAX
10
11.030000
20
0.010000
30
0.0
9
$LIMMIN
10
-40.132000
20
-340.106000
9
$LIMMAX
10
280.162000
20
0.254000
9
$DIMSCALE
40
1.000000
9
$PDMODE
70
2
9
$PDSIZE
40
0.0
  9
$HANDSEED
  5
843
0
ENDSEC
0
SECTION
2
CLASSES
0
ENDSEC
0
SECTION
2
TABLES
0
TABLE
2
LTYPE
5
1e
100
AcDbSymbolTable
70
12
0
LTYPE
5
1f
100
AcDbSymbolTableRecord
100
AcDbLinetypeTableRecord
2
BYBLOCK
70
0
3

72
65
73
0
40
0.0
0
LTYPE
5
20
100
AcDbSymbolTableRecord
100
AcDbLinetypeTableRecord
2
BYLAYER
70
0
3

72
65
73
0
40
0.0
0
LTYPE
5
21
100
AcDbSymbolTableRecord
100
AcDbLinetypeTableRecord
2
CONTINUOUS
70
64
3
Solid line
72
65
73
0
40
0.0
0
LTYPE
5
22
100
AcDbSymbolTableRecord
100
AcDbLinetypeTableRecord
2
DASHED
70
64
3
__ __ __ __ __ __ __ __ __ __ __ __ __ __ __
72
65
73
2
40
0.75
49
0.5
74
0
49
-0.25
74
0
0
LTYPE
5
23
100
AcDbSymbolTableRecord
100
AcDbLinetypeTableRecord
2
DOT
70
64
3
...............................................
72
65
73
2
40
0.25
49
0.0
74
0
49
-0.25
74
0
0
LTYPE
5
24
100
AcDbSymbolTableRecord
100
AcDbLinetypeTableRecord
2
DASHDOT
70
64
3
__ . __ . __ . __ . __ . __ . __ . __ . __ . --
72
65
73
4
40
1.0
49
0.5
74
0
49
-0.25
74
0
49
0.0
74
0
49
-0.25
74
0
0
LTYPE
5
25
100
AcDbSymbolTableRecord
100
AcDbLinetypeTableRecord
2
CENTER
70
64
3
____ _ ____ _ ____ _ ____ _ ____ _ ____ _ ____
72
65
73
4
40
2.0
49
1.25
74
0
49
-0.25
74
0
49
0.25
74
0
49
-0.25
74
0
0
LTYPE
5
26
100
AcDbSymbolTableRecord
100
AcDbLinetypeTableRecord
2
PHANTOM
70
64
3
_____ _ _ _____ _ _ _____ _ _ _____ _ _ ____
72
65
73
6
40
2.5
49
1.25
74
0
49
-0.25
74
0
49
0.25
74
0
49
-0.25
74
0
49
0.25
74
0
49
-0.25
74
0
0
LTYPE
5
27
100
AcDbSymbolTableRecord
100
AcDbLinetypeTableRecord
2
HIDDEN
70
64
3
_ _ _ _ _ _ _ _ _ _ _ _ _ _ _ _ _ _ _ _ _ _ _
72
65
73
2
40
0.375
49
0.25
74
0
49
-0.125
74
0
0
LTYPE
5
28
100
AcDbSymbolTableRecord
100
AcDbLinetypeTableRecord
2
BORDER
70
64
3
__ __ . __ __ . __ __ . __ __ . __ __ . __ __
72
65
73
6
40
1.75
49
0.5
74
0
49
-0.25
74
0
49
0.5
74
0
49
-0.25
74
0
49
0.0
74
0
49
-0.25
74
0
0
LTYPE
5
29
100
AcDbSymbolTableRecord
100
AcDbLinetypeTableRecord
2
DIVIDE
70
64
3
__ . . __ . . __ . . __ . . __ . . __ . . __
72
65
73
6
40
1.25
49
0.5
74
0
49
-0.25
74
0
49
0.0
74
0
49
-0.25
74
0
49
0.0
74
0
49
-0.25
74
0
0
LTYPE
5
2a
100
AcDbSymbolTableRecord
100
AcDbLinetypeTableRecord
2
DOT2
70
64
3
...............................................
72
65
73
2
40
0.125
49
0.0
74
0
49
-0.125
74
0
0
ENDTAB
0
TABLE
2
STYLE
5
2b
100
AcDbSymbolTable
70
1
0
STYLE
5
2c
100
AcDbSymbolTableRecord
100
AcDbTextStyleTableRecord
2
STANDARD
70
64
40
0.0
41
1.0
50
0.0
71
0
42
5.0
3
txt
4
bigfont
0
ENDTAB
0
TABLE
2
LAYER
5
2d
100
AcDbSymbolTable
70
2
0
LAYER
5
2e
100
AcDbSymbolTableRecord
100
AcDbLayerTableRecord
2
0
70
0
62
7
6
CONTINUOUS
0
LAYER
5
2f
100
AcDbSymbolTableRecord
100
AcDbLayerTableRecord
2
1
70
0
62
7
6
CONTINUOUS
0
ENDTAB
0
TABLE
2
APPID
5
30
100
AcDbSymbolTable
70
1
0
APPID
5
31
100
AcDbSymbolTableRecord
100
AcDbRegAppTableRecord
2
ACAD
70
64
0
ENDTAB
0
TABLE
2
DIMSTYLE
5
32
100
AcDbSymbolTable
70
0
0
ENDTAB
0
TABLE
2
UCS
5
33
100
AcDbSymbolTable
70
0
0
ENDTAB
0
TABLE
2
VIEW
5
34
100
AcDbSymbolTable
70
0
0
ENDTAB
0
TABLE
2
VPORT
5
35
100
AcDbSymbolTable
70
0
0
ENDTAB
0
TABLE
2
BLOCK_RECORD
5
36
100
AcDbSymbolTable
70
0
0
BLOCK_RECORD
5
37
100
AcDbSymbolTableRecord
100
AcDbBlockTableRecord
2
*MODEL_SPACE
0
BLOCK_RECORD
5
38
100
AcDbSymbolTableRecord
100
AcDbBlockTableRecord
2
*PAPER_SPACE
0
BLOCK_RECORD
5
39
100
AcDbSymbolTableRecord
100
AcDbBlockTableRecord
2
OPEN
0
BLOCK_RECORD
5
3a
100
AcDbSymbolTableRecord
100
AcDbBlockTableRecord
2
HALF
0
BLOCK_RECORD
5
3b
100
AcDbSymbolTableRecord
100
AcDbBlockTableRecord
2
CLOSEDBLANK
0
BLOCK_RECORD
5
3c
100
AcDbSymbolTableRecord
100
AcDbBlockTableRecord
2
HALFCLOSE_R
0
BLOCK_RECORD
5
3d
100
AcDbSymbolTableRecord
100
AcDbBlockTableRecord
2
DOT
0
BLOCK_RECORD
5
3e
100
AcDbSymbolTableRecord
100
AcDbBlockTableRecord
2
HALFOPEN_R
0
BLOCK_RECORD
5
3f
100
AcDbSymbolTableRecord
100
AcDbBlockTableRecord
2
CLOSEDF
0
BLOCK_RECORD
5
40
100
AcDbSymbolTableRecord
100
AcDbBlockTableRecord
2
HALF_R
0
ENDTAB
0
ENDSEC
0
SECTION
2
BLOCKS
0
BLOCK
5
41
100
AcDbEntity
8
0
100
AcDbBlockBegin
2
*MODEL_SPACE
70
0
10
0.0
20
0.0
30
0.0
3
*MODEL_SPACE
1

0
ENDBLK
5
42
100
AcDbEntity
8
0
100
AcDbBlockEnd
0
BLOCK
5
43
100
AcDbEntity
67
1
8
0
100
AcDbBlockBegin
2
*PAPER_SPACE
70
0
10
0.0
20
0.0
30
0.0
3
*PAPER_SPACE
1

0
ENDBLK
5
44
100
AcDbEntity
67
1
8
0
100
AcDbBlockEnd
0
BLOCK
5
45
100
AcDbEntity
8
0
100
AcDbBlockBegin
2
OPEN
70
0
10
0.0
20
0.0
30
0.0
3
OPEN
1

0
LINE
5
46
100
AcDbEntity
8
0
6
BYBLOCK
62
0
100
AcDbLine
10
0.000000
20
0.000000
11
-1.000000
21
0.000000
0
LINE
5
47
100
AcDbEntity
8
0
6
BYBLOCK
62
0
100
AcDbLine
10
-1.000000
20
-0.166667
11
0.000000
21
0.000000
0
LINE
5
48
100
AcDbEntity
8
0
6
BYBLOCK
62
0
100
AcDbLine
10
-1.000000
20
0.166667
11
0.000000
21
0.000000
0
ENDBLK
5
49
100
AcDbEntity
8
0
100
AcDbBlockEnd
0
BLOCK
5
4a
100
AcDbEntity
8
0
100
AcDbBlockBegin
2
HALF
70
0
10
0.0
20
0.0
30
0.0
3
HALF
1

0
SOLID
5
4b
100
AcDbEntity
8
0
6
BYBLOCK
62
0
100
AcDbTrace
10
-1.000000
20
0.166667
11
-1.000000
21
-0.166667
12
0.000000
22
0.000000
13
0.000000
23
0.000000
0
ENDBLK
5
4c
100
AcDbEntity
8
0
100
AcDbBlockEnd
0
BLOCK
5
4d
100
AcDbEntity
8
0
100
AcDbBlockBegin
2
CLOSEDBLANK
70
0
10
0.0
20
0.0
30
0.0
3
CLOSEDBLANK
1

0
LINE
5
4e
100
AcDbEntity
8
0
6
BYBLOCK
62
0
100
AcDbLine
10
-1.000000
20
0.166667
11
-1.000000
21
-0.166667
0
LINE
5
4f
100
AcDbEntity
8
0
6
BYBLOCK
62
0
100
AcDbLine
10
0.000000
20
0.000000
11
-1.000000
21
-0.166667
0
LINE
5
50
100
AcDbEntity
8
0
6
BYBLOCK
62
0
100
AcDbLine
10
-1.000000
20
0.166667
11
0.000000
21
0.000000
0
ENDBLK
5
51
100
AcDbEntity
8
0
100
AcDbBlockEnd
0
BLOCK
5
52
100
AcDbEntity
8
0
100
AcDbBlockBegin
2
HALFCLOSE_R
70
0
10
0.0
20
0.0
30
0.0
3
HALFCLOSE_R
1

0
LINE
5
53
100
AcDbEntity
8
0
6
BYBLOCK
62
0
100
AcDbLine
10
-1.000000
20
-0.166667
11
-1.000000
21
0.000000
0
LINE
5
54
100
AcDbEntity
8
0
6
BYBLOCK
62
0
100
AcDbLine
10
-1.000000
20
-0.166667
11
0.000000
21
0.000000
0
LINE
5
55
100
AcDbEntity
8
0
6
BYBLOCK
62
0
100
AcDbLine
10
0.000000
20
0.000000
11
-1.000000
21
0.000000
0
ENDBLK
5
56
100
AcDbEntity
8
0
100
AcDbBlockEnd
0
BLOCK
5
57
100
AcDbEntity
8
0
100
AcDbBlockBegin
2
DOT
70
0
10
0.0
20
0.0
30
0.0
3
DOT
1

0
LINE
5
58
100
AcDbEntity
8
0
6
BYBLOCK
62
0
100
AcDbLine
10
0.000000
20
0.000000
11
-1.000000
21
0.000000
0
POLYLINE
5
59
100
AcDbEntity
8
0
6
BYBLOCK
62
0
100
AcDb2dPolyline
66
1
10
0.0
20
0.0
30
0.0
70
1
40
0.166667
41
0.166667
0
VERTEX
5
5a
100
AcDbEntity
8
0
100
AcDbVertex
100
AcDb2dVertex
62
10
10
-0.083333
20
0.000000
42
1.000000
0
VERTEX
5
5b
100
AcDbEntity
8
0
100
AcDbVertex
100
AcDb2dVertex
62
10
10
0.083333
20
0.000000
42
1.000000
0
SEQEND
5
5c
100
AcDbEntity
8
0
0
ENDBLK
5
5d
100
AcDbEntity
8
0
100
AcDbBlockEnd
0
BLOCK
5
5e
100
AcDbEntity
8
0
100
AcDbBlockBegin
2
HALFOPEN_R
70
0
10
0.0
20
0.0
30
0.0
3
HALFOPEN_R
1

0
LINE
5
5f
100
AcDbEntity
8
0
6
BYBLOCK
62
0
100
AcDbLine
10
-1.000000
20
-0.166667
11
0.000000
21
0.000000
0
LINE
5
60
100
AcDbEntity
8
0
6
BYBLOCK
62
0
100
AcDbLine
10
0.000000
20
0.000000
11
-1.000000
21
0.000000
0
ENDBLK
5
61
100
AcDbEntity
8
0
100
AcDbBlockEnd
0
BLOCK
5
62
100
AcDbEntity
8
0
100
AcDbBlockBegin
2
CLOSEDF
70
0
10
0.0
20
0.0
30
0.0
3
CLOSEDF
1

0
SOLID
5
63
100
AcDbEntity
8
0
6
BYBLOCK
62
0
100
AcDbTrace
10
-1.000000
20
0.166667
11
-1.000000
21
-0.166667
12
0.000000
22
0.000000
13
0.000000
23
0.000000
0
ENDBLK
5
64
100
AcDbEntity
8
0
100
AcDbBlockEnd
0
BLOCK
5
65
100
AcDbEntity
8
0
100
AcDbBlockBegin
2
HALF_R
70
0
10
0.0
20
0.0
30
0.0
3
HALF_R
1

0
SOLID
5
66
100
AcDbEntity
8
0
6
BYBLOCK
62
0
100
AcDbTrace
10
-1.000000
20
-0.166667
11
-1.000000
21
0.000000
12
0.000000
22
0.000000
13
0.000000
23
0.000000
0
ENDBLK
5
67
100
AcDbEntity
8
0
100
AcDbBlockEnd
0
ENDSEC
0
SECTION
2
ENTITIES
0
LINE
5
68
100
AcDbEntity
8
1
100
AcDbLine
6
DOT2
62
5
10
194.825000
20
-107.125000
11
194.200000
21
-107.750000
0
POLYLINE
5
69
100
AcDbEntity
8
1
6
DOT2
62
5
100
AcDb2dPolyline
66
1
10
0.0
20
0.0
30
0.0
70
0
0
VERTEX
5
6a
100
AcDbEntity
8
1
100
AcDbVertex
100
AcDb2dVertex
62
5
10
194.200000
20
-107.125000
0
VERTEX
5
6b
100
AcDbEntity
8
1
100
AcDbVertex
100
AcDb2dVertex
62
5
10
194.825000
20
-107.750000
0
VERTEX
5
6c
100
AcDbEntity
8
1
100
AcDbVertex
100
AcDb2dVertex
62
5
10
194.200000
20
-107.750000
0
VERTEX
5
6d
100
AcDbEntity
8
1
100
AcDbVertex
100
AcDb2dVertex
62
5
10
194.200000
20
-107.125000
0
VERTEX
5
6e
100
AcDbEntity
8
1
100
AcDbVertex
100
AcDb2dVertex
62
5
10
194.825000
20
-107.125000
0
VERTEX
5
6f
100
AcDbEntity
8
1
100
AcDbVertex
100
AcDb2dVertex
62
5
10
194.825000
20
-107.750000
0
SEQEND
5
70
100
AcDbEntity
8
1
0
POLYLINE
5
71
100
AcDbEntity
8
1
6
DOT2
62
5
100
AcDb2dPolyline
66
1
10
0.0
20
0.0
30
0.0
70
0
0
VERTEX
5
72
100
AcDbEntity
8
1
100
AcDbVertex
100
AcDb2dVertex
62
5
10
184.825000
20
-100.875000
0
VERTEX
5
73
100
AcDbEntity
8
1
100
AcDbVertex
100
AcDb2dVertex
62
5
10
185.762500
20
-100.250000
0
VERTEX
5
74
100
AcDbEntity
8
1
100
AcDbVertex
100
AcDb2dVertex
62
5
10
185.762500
20
-107.750000
0
SEQEND
5
75
100
AcDbEntity
8
1
0
LINE
5
76
100
AcDbEntity
8
1
100
AcDbLine
6
DOT2
62
5
10
185.137500
20
-107.750000
11
186.387500
21
-107.750000
0
POLYLINE
5
77
100
AcDbEntity
8
1
6
DOT2
62
5
100
AcDb2dPolyline
66
1
10
0.0
20
0.0
30
0.0
70
0
0
VERTEX
5
78
100
AcDbEntity
8
1
100
AcDbVertex
100
AcDb2dVertex
62
5
10
189.200000
20
-102.437500
0
VERTEX
5
79
100
AcDbEntity
8
1
100
AcDbVertex
100
AcDb2dVertex
62
5
10
189.512500
20
-100.875000
0
VERTEX
5
7a
100
AcDbEntity
8
1
100
AcDbVertex
100
AcDb2dVertex
62
5
10
190.450000
20
-100.250000
0
VERTEX
5
7b
100
AcDbEntity
8
1
100
AcDbVertex
100
AcDb2dVertex
62
5
10
191.387500
20
-100.250000
0
VERTEX
5
7c
100
AcDbEntity
8
1
100
AcDbVertex
100
AcDb2dVertex
62
5
10
192.012500
20
-100.562500
0
VERTEX
5
7d
100
AcDbEntity
8
1
100
AcDbVertex
100
AcDb2dVertex
62
5
10
192.325000
20
-101.500000
0
VERTEX
5
7e
100
AcDbEntity
8
1
100
AcDbVertex
100
AcDb2dVertex
62
5
10
192.325000
20
-102.437500
0
VERTEX
5
7f
100
AcDbEntity
8
1
100
AcDbVertex
100
AcDb2dVertex
62
5
10
192.012500
20
-103.375000
0
VERTEX
5
80
100
AcDbEntity
8
1
100
AcDbVertex
100
AcDb2dVertex
62
5
10
189.200000
20
-107.750000
0
VERTEX
5
81
100
AcDbEntity
8
1
100
AcDbVertex
100
AcDb2dVertex
62
5
10
192.325000
20
-107.750000
0
VERTEX
5
82
100
AcDbEntity
8
1
100
AcDbVertex
100
AcDb2dVertex
62
5
10
192.325000
20
-106.812500
0
SEQEND
5
83
100
AcDbEntity
8
1
0
LINE
5
84
100
AcDbEntity
8
1
100
AcDbLine
6
DOT2
62
5
10
145.975000
20
-107.125000
11
145.350000
21
-107.750000
0
POLYLINE
5
85
100
AcDbEntity
8
1
6
DOT2
62
5
100
AcDb2dPolyline
66
1
10
0.0
20
0.0
30
0.0
70
0
0
VERTEX
5
86
100
AcDbEntity
8
1
100
AcDbVertex
100
AcDb2dVertex
62
5
10
145.350000
20
-107.125000
0
VERTEX
5
87
100
AcDbEntity
8
1
100
AcDbVertex
100
AcDb2dVertex
62
5
10
145.975000
20
-107.750000
0
VERTEX
5
88
100
AcDbEntity
8
1
100
AcDbVertex
100
AcDb2dVertex
62
5
10
145.350000
20
-107.750000
0
VERTEX
5
89
100
AcDbEntity
8
1
100
AcDbVertex
100
AcDb2dVertex
62
5
10
145.350000
20
-107.125000
0
VERTEX
5
8a
100
AcDbEntity
8
1
100
AcDbVertex
100
AcDb2dVertex
62
5
10
145.975000
20
-107.125000
0
VERTEX
5
8b
100
AcDbEntity
8
1
100
AcDbVertex
100
AcDb2dVertex
62
5
10
145.975000
20
-107.750000
0
SEQEND
5
8c
100
AcDbEntity
8
1
0
POLYLINE
5
8d
100
AcDbEntity
8
1
6
DOT2
62
5
100
AcDb2dPolyline
66
1
10
0.0
20
0.0
30
0.0
70
0
0
VERTEX
5
8e
100
AcDbEntity
8
1
100
AcDbVertex
100
AcDb2dVertex
62
5
10
140.350000
20
-102.437500
0
VERTEX
5
8f
100
AcDbEntity
8
1
100
AcDbVertex
100
AcDb2dVertex
62
5
10
140.662500
20
-100.875000
0
VERTEX
5
90
100
AcDbEntity
8
1
100
AcDbVertex
100
AcDb2dVertex
62
5
10
141.600000
20
-100.250000
0
VERTEX
5
91
100
AcDbEntity
8
1
100
AcDbVertex
100
AcDb2dVertex
62
5
10
142.537500
20
-100.250000
0
VERTEX
5
92
100
AcDbEntity
8
1
100
AcDbVertex
100
AcDb2dVertex
62
5
10
143.162500
20
-100.562500
0
VERTEX
5
93
100
AcDbEntity
8
1
100
AcDbVertex
100
AcDb2dVertex
62
5
10
143.475000
20
-101.500000
0
VERTEX
5
94
100
AcDbEntity
8
1
100
AcDbVertex
100
AcDb2dVertex
62
5
10
143.475000
20
-102.437500
0
VERTEX
5
95
100
AcDbEntity
8
1
100
AcDbVertex
100
AcDb2dVertex
62
5
10
143.162500
20
-103.375000
0
VERTEX
5
96
100
AcDbEntity
8
1
100
AcDbVertex
100
AcDb2dVertex
62
5
10
140.350000
20
-107.750000
0
VERTEX
5
97
100
AcDbEntity
8
1
100
AcDbVertex
100
AcDb2dVertex
62
5
10
143.475000
20
-107.750000
0
VERTEX
5
98
100
AcDbEntity
8
1
100
AcDbVertex
100
AcDb2dVertex
62
5
10
143.475000
20
-106.812500
0
SEQEND
5
99
100
AcDbEntity
8
1
0
POLYLINE
5
9a
100
AcDbEntity
8
1
6
DOT2
62
5
100
AcDb2dPolyline
66
1
10
0.0
20
0.0
30
0.0
70
0
0
VERTEX
5
9b
100
AcDbEntity
8
1
100
AcDbVertex
100
AcDb2dVertex
62
5
10
152.850000
20
-100.250000
0
VERTEX
5
9c
100
AcDbEntity
8
1
100
AcDbVertex
100
AcDb2dVertex
62
5
10
150.037500
20
-105.875000
0
VERTEX
5
9d
100
AcDbEntity
8
1
100
AcDbVertex
100
AcDb2dVertex
62
5
10
153.787500
20
-105.875000
0
SEQEND
5
9e
100
AcDbEntity
8
1
0
LINE
5
9f
100
AcDbEntity
8
1
100
AcDbLine
6
DOT2
62
5
10
152.850000
20
-100.250000
11
152.850000
21
-107.750000
0
LINE
5
a0
100
AcDbEntity
8
1
100
AcDbLine
6
DOT2
62
5
10
152.225000
20
-107.750000
11
153.475000
21
-107.750000
0
ARC
5
a1
100
AcDbEntity
8
1
100
AcDbCircle
6
CONTINUOUS
62
5
10
165.200000
20
-136.650000
40
0.100000
100
AcDbArc
50
179.999998
51
-89.999999
0
LINE
5
a2
100
AcDbEntity
8
1
100
AcDbLine
6
CONTINUOUS
62
5
10
166.500000
20
-136.750000
11
165.200000
21
-136.750000
0
ARC
5
a3
100
AcDbEntity
8
1
100
AcDbCircle
6
CONTINUOUS
62
5
10
165.200000
20
-138.900000
40
0.100000
100
AcDbArc
50
179.999998
51
-89.999999
0
LINE
5
a4
100
AcDbEntity
8
1
100
AcDbLine
6
CONTINUOUS
62
5
10
166.500000
20
-139.000000
11
165.200000
21
-139.000000
0
LINE
5
a5
100
AcDbEntity
8
1
100
AcDbLine
6
CONTINUOUS
62
5
10
166.300000
20
-144.000000
11
165.500000
21
-144.000000
0
ARC
5
a6
100
AcDbEntity
8
1
100
AcDbCircle
6
CONTINUOUS
62
5
10
165.100000
20
-142.750014
40
1.400000
100
AcDbArc
50
-31.002719
51
-0.000000
0
LINE
5
a7
100
AcDbEntity
8
1
100
AcDbLine
6
CONTINUOUS
62
5
10
166.300000
20
-143.471124
11
166.300000
21
-144.000000
0
LINE
5
a8
100
AcDbEntity
8
1
100
AcDbLine
6
CONTINUOUS
62
5
10
164.900000
20
-144.000000
11
164.900000
21
-143.471124
0
ARC
5
a9
100
AcDbEntity
8
1
100
AcDbCircle
6
CONTINUOUS
62
5
10
166.300000
20
-143.471124
40
1.400000
100
AcDbArc
50
148.997280
51
-179.999998
0
LINE
5
aa
100
AcDbEntity
8
1
100
AcDbLine
6
CONTINUOUS
62
5
10
165.100000
20
-142.750014
11
165.100000
21
-134.100000
0
ARC
5
ab
100
AcDbEntity
8
1
100
AcDbCircle
6
CONTINUOUS
62
5
10
165.200000
20
-134.100000
40
0.100000
100
AcDbArc
50
89.999999
51
179.999998
0
POLYLINE
5
ac
100
AcDbEntity
8
1
6
CONTINUOUS
62
5
100
AcDb2dPolyline
66
1
10
0.0
20
0.0
30
0.0
70
0
0
VERTEX
5
ad
100
AcDbEntity
8
1
100
AcDbVertex
100
AcDb2dVertex
62
5
10
165.200000
20
-134.000000
0
VERTEX
5
ae
100
AcDbEntity
8
1
100
AcDbVertex
100
AcDb2dVertex
62
5
10
166.500000
20
-134.000000
0
VERTEX
5
af
100
AcDbEntity
8
1
100
AcDbVertex
100
AcDb2dVertex
62
5
10
166.500000
20
-140.750000
0
SEQEND
5
b0
100
AcDbEntity
8
1
0
LINE
5
b1
100
AcDbEntity
8
1
100
AcDbLine
6
CONTINUOUS
62
5
10
166.500000
20
-142.250000
11
166.500000
21
-142.750014
0
ARC
5
b2
100
AcDbEntity
8
1
100
AcDbCircle
6
CONTINUOUS
62
5
10
165.850000
20
-137.250016
40
1.250000
100
AcDbArc
50
126.869897
51
179.999998
0
LINE
5
b3
100
AcDbEntity
8
1
100
AcDbLine
6
CONTINUOUS
62
5
10
164.600000
20
-137.250016
11
164.600000
21
-144.000000
0
ARC
5
b4
100
AcDbEntity
8
1
100
AcDbCircle
6
CONTINUOUS
62
5
10
164.200000
20
-142.650014
40
0.100000
100
AcDbArc
50
179.999998
51
-89.999999
0
LINE
5
b5
100
AcDbEntity
8
1
100
AcDbLine
6
CONTINUOUS
62
5
10
164.200000
20
-142.750014
11
164.600000
21
-142.750014
0
LINE
5
b6
100
AcDbEntity
8
1
100
AcDbLine
6
CONTINUOUS
62
5
10
165.100000
20
-136.250016
11
164.200000
21
-136.250016
0
ARC
5
b7
100
AcDbEntity
8
1
100
AcDbCircle
6
CONTINUOUS
62
5
10
164.200000
20
-136.350016
40
0.100000
100
AcDbArc
50
89.999999
51
179.999998
0
LINE
5
b8
100
AcDbEntity
8
1
100
AcDbLine
6
CONTINUOUS
62
5
10
164.100000
20
-136.350016
11
164.100000
21
-142.650014
0
POLYLINE
5
b9
100
AcDbEntity
8
1
6
CONTINUOUS
62
5
100
AcDb2dPolyline
66
1
10
0.0
20
0.0
30
0.0
70
0
0
VERTEX
5
ba
100
AcDbEntity
8
1
100
AcDbVertex
100
AcDb2dVertex
62
5
10
166.500000
20
-134.000000
0
VERTEX
5
bb
100
AcDbEntity
8
1
100
AcDbVertex
100
AcDb2dVertex
62
5
10
166.700000
20
-134.000000
0
VERTEX
5
bc
100
AcDbEntity
8
1
100
AcDbVertex
100
AcDb2dVertex
62
5
10
166.500000
20
-135.500000
0
SEQEND
5
bd
100
AcDbEntity
8
1
0
LINE
5
be
100
AcDbEntity
8
1
100
AcDbLine
6
CONTINUOUS
62
5
10
177.200000
20
-159.000000
11
177.200000
21
-163.000000
0
LINE
5
bf
100
AcDbEntity
8
1
100
AcDbLine
6
CONTINUOUS
62
5
10
177.050000
20
-159.000000
11
177.050000
21
-163.000000
0
LINE
5
c0
100
AcDbEntity
8
1
100
AcDbLine
6
CONTINUOUS
62
5
10
176.600000
20
-158.800000
11
176.600000
21
-163.000000
0
ARC
5
c1
100
AcDbEntity
8
1
100
AcDbCircle
6
CONTINUOUS
62
5
10
176.850000
20
-159.000000
40
0.200000
100
AcDbArc
50
0.000000
51
89.999999
0
ARC
5
c2
100
AcDbEntity
8
1
100
AcDbCircle
6
CONTINUOUS
62
5
10
177.000000
20
-159.000000
40
0.200000
100
AcDbArc
50
0.000000
51
89.999999
0
POLYLINE
5
c3
100
AcDbEntity
8
1
6
CONTINUOUS
62
5
100
AcDb2dPolyline
66
1
10
0.0
20
0.0
30
0.0
70
0
0
VERTEX
5
c4
100
AcDbEntity
8
1
100
AcDbVertex
100
AcDb2dVertex
62
5
10
177.000000
20
-158.800000
0
VERTEX
5
c5
100
AcDbEntity
8
1
100
AcDbVertex
100
AcDb2dVertex
62
5
10
176.600000
20
-158.800000
0
VERTEX
5
c6
100
AcDbEntity
8
1
100
AcDbVertex
100
AcDb2dVertex
62
5
10
176.600000
20
-158.700000
0
SEQEND
5
c7
100
AcDbEntity
8
1
0
LINE
5
c8
100
AcDbEntity
8
1
100
AcDbLine
6
CONTINUOUS
62
5
10
175.687512
20
-167.000000
11
177.400000
21
-167.000000
0
LINE
5
c9
100
AcDbEntity
8
1
100
AcDbLine
6
CONTINUOUS
62
5
10
176.810000
20
-165.480565
11
176.810000
21
-168.527407
0
ARC
5
ca
100
AcDbEntity
8
1
100
AcDbCircle
6
CONTINUOUS
62
5
10
177.042273
20
-165.900000
40
0.550000
100
AcDbArc
50
89.999999
51
135.790136
0
LINE
5
cb
100
AcDbEntity
8
1
100
AcDbLine
6
CONTINUOUS
62
5
10
176.648038
20
-165.516491
11
175.883209
21
-166.302712
0
ARC
5
cc
100
AcDbEntity
8
1
100
AcDbCircle
6
CONTINUOUS
62
5
10
176.600000
20
-167.000000
40
1.000000
100
AcDbArc
50
135.790136
51
-135.790136
0
LINE
5
cd
100
AcDbEntity
8
1
100
AcDbLine
6
CONTINUOUS
62
5
10
175.883209
20
-167.697288
11
176.648038
21
-168.483509
0
ARC
5
ce
100
AcDbEntity
8
1
100
AcDbCircle
6
CONTINUOUS
62
5
10
177.042273
20
-168.100000
40
0.550000
100
AcDbArc
50
-135.790136
51
-89.999999
0
LINE
5
cf
100
AcDbEntity
8
1
100
AcDbLine
6
CONTINUOUS
62
5
10
177.042273
20
-168.650000
11
177.386603
21
-168.650000
0
LINE
5
d0
100
AcDbEntity
8
1
100
AcDbLine
6
CONTINUOUS
62
5
10
177.386603
20
-165.350000
11
177.042273
21
-165.350000
0
LINE
5
d1
100
AcDbEntity
8
1
100
AcDbLine
6
CONTINUOUS
62
5
10
168.700000
20
-162.299523
11
168.700000
21
-159.500000
0
LINE
5
d2
100
AcDbEntity
8
1
100
AcDbLine
6
CONTINUOUS
62
5
10
170.200000
20
-159.500000
11
170.200000
21
-162.363487
0
ARC
5
d3
100
AcDbEntity
8
1
100
AcDbCircle
6
CONTINUOUS
62
5
10
167.800000
20
-159.800000
40
0.300000
100
AcDbArc
50
89.999999
51
179.999998
0
LINE
5
d4
100
AcDbEntity
8
1
100
AcDbLine
6
CONTINUOUS
62
5
10
167.800000
20
-159.500000
11
170.805860
21
-159.500000
0
POLYLINE
5
d5
100
AcDbEntity
8
1
6
CONTINUOUS
62
5
100
AcDb2dPolyline
66
1
10
0.0
20
0.0
30
0.0
70
0
0
VERTEX
5
d6
100
AcDbEntity
8
1
100
AcDbVertex
100
AcDb2dVertex
62
5
10
167.400000
20
-161.800000
0
VERTEX
5
d7
100
AcDbEntity
8
1
100
AcDbVertex
100
AcDb2dVertex
62
5
10
167.500000
20
-161.800000
0
VERTEX
5
d8
100
AcDbEntity
8
1
100
AcDbVertex
100
AcDb2dVertex
62
5
10
167.500000
20
-159.800000
0
SEQEND
5
d9
100
AcDbEntity
8
1
0
LINE
5
da
100
AcDbEntity
8
1
100
AcDbLine
6
CONTINUOUS
62
5
10
166.550000
20
-161.804196
11
166.550000
21
-158.700000
0
ARC
5
db
100
AcDbEntity
8
1
100
AcDbCircle
6
CONTINUOUS
62
5
10
166.790000
20
-162.100000
40
0.300000
100
AcDbArc
50
89.999999
51
179.999998
0
ARC
5
dc
100
AcDbEntity
8
1
100
AcDbCircle
6
CONTINUOUS
62
5
10
166.600000
20
-162.100000
40
0.300000
100
AcDbArc
50
89.999999
51
179.999998
0
LINE
5
dd
100
AcDbEntity
8
1
100
AcDbLine
6
CONTINUOUS
62
5
10
166.300000
20
-162.100000
11
166.300000
21
-162.096913
0
LINE
5
de
100
AcDbEntity
8
1
100
AcDbLine
6
CONTINUOUS
62
5
10
167.400000
20
-161.800000
11
166.600000
21
-161.800000
0
LINE
5
df
100
AcDbEntity
8
1
100
AcDbLine
6
CONTINUOUS
62
5
10
165.500000
20
-163.000000
11
164.200000
21
-163.000000
0
ARC
5
e0
100
AcDbEntity
8
1
100
AcDbCircle
6
CONTINUOUS
62
5
10
164.200000
20
-162.900000
40
0.100000
100
AcDbArc
50
179.999998
51
-89.999999
0
LINE
5
e1
100
AcDbEntity
8
1
100
AcDbLine
6
CONTINUOUS
62
5
10
170.200000
20
-162.814423
11
170.200000
21
-165.237014
0
POLYLINE
5
e2
100
AcDbEntity
8
1
6
CONTINUOUS
62
5
100
AcDb2dPolyline
66
1
10
0.0
20
0.0
30
0.0
70
0
0
VERTEX
5
e3
100
AcDbEntity
8
1
100
AcDbVertex
100
AcDb2dVertex
62
5
10
169.028919
20
-162.550000
0
VERTEX
5
e4
100
AcDbEntity
8
1
100
AcDbVertex
100
AcDb2dVertex
62
5
10
168.140000
20
-162.550000
0
VERTEX
5
e5
100
AcDbEntity
8
1
100
AcDbVertex
100
AcDb2dVertex
62
5
10
168.140000
20
-165.550000
0
VERTEX
5
e6
100
AcDbEntity
8
1
100
AcDbVertex
100
AcDb2dVertex
62
5
10
169.755256
20
-165.550000
0
SEQEND
5
e7
100
AcDbEntity
8
1
0
POLYLINE
5
e8
100
AcDbEntity
8
1
6
CONTINUOUS
62
5
100
AcDb2dPolyline
66
1
10
0.0
20
0.0
30
0.0
70
0
0
VERTEX
5
e9
100
AcDbEntity
8
1
100
AcDbVertex
100
AcDb2dVertex
62
5
10
170.200000
20
-162.550000
0
VERTEX
5
ea
100
AcDbEntity
8
1
100
AcDbVertex
100
AcDb2dVertex
62
5
10
168.700000
20
-162.550000
0
VERTEX
5
eb
100
AcDbEntity
8
1
100
AcDbVertex
100
AcDb2dVertex
62
5
10
168.700000
20
-165.550000
0
VERTEX
5
ec
100
AcDbEntity
8
1
100
AcDbVertex
100
AcDb2dVertex
62
5
10
170.200000
20
-165.550000
0
SEQEND
5
ed
100
AcDbEntity
8
1
0
LINE
5
ee
100
AcDbEntity
8
1
100
AcDbLine
6
CONTINUOUS
62
5
10
165.900000
20
-152.200000
11
165.900000
21
-150.500000
0
ARC
5
ef
100
AcDbEntity
8
1
100
AcDbCircle
6
CONTINUOUS
62
5
10
171.500000
20
-154.900000
40
0.100000
100
AcDbArc
50
-89.999999
51
0.000000
0
POLYLINE
5
f0
100
AcDbEntity
8
1
6
CONTINUOUS
62
5
100
AcDb2dPolyline
66
1
10
0.0
20
0.0
30
0.0
70
0
0
VERTEX
5
f1
100
AcDbEntity
8
1
100
AcDbVertex
100
AcDb2dVertex
62
5
10
171.600000
20
-154.900000
0
VERTEX
5
f2
100
AcDbEntity
8
1
100
AcDbVertex
100
AcDb2dVertex
62
5
10
171.600000
20
-153.200000
0
VERTEX
5
f3
100
AcDbEntity
8
1
100
AcDbVertex
100
AcDb2dVertex
62
5
10
170.600000
20
-152.200000
0
VERTEX
5
f4
100
AcDbEntity
8
1
100
AcDbVertex
100
AcDb2dVertex
62
5
10
164.100000
20
-152.200000
0
SEQEND
5
f5
100
AcDbEntity
8
1
0
LINE
5
f6
100
AcDbEntity
8
1
100
AcDbLine
6
CONTINUOUS
62
5
10
164.100000
20
-155.000000
11
171.500000
21
-155.000000
0
LINE
5
f7
100
AcDbEntity
8
1
100
AcDbLine
6
CONTINUOUS
62
5
10
165.500000
20
-152.200000
11
165.500000
21
-155.000000
0
LINE
5
f8
100
AcDbEntity
8
1
100
AcDbLine
6
CONTINUOUS
62
5
10
165.650000
20
-150.479020
11
165.650000
21
-152.200000
0
ARC
5
f9
100
AcDbEntity
8
1
100
AcDbCircle
6
CONTINUOUS
62
5
10
164.200000
20
-158.600000
40
0.100000
100
AcDbArc
50
179.999998
51
-89.999999
0
LINE
5
fa
100
AcDbEntity
8
1
100
AcDbLine
6
CONTINUOUS
62
5
10
164.131634
20
-150.341828
11
164.372467
21
-149.137664
0
LINE
5
fb
100
AcDbEntity
8
1
100
AcDbLine
6
CONTINUOUS
62
5
10
163.500000
20
-153.800000
11
163.500000
21
-155.200000
0
LINE
5
fc
100
AcDbEntity
8
1
100
AcDbLine
6
CONTINUOUS
62
5
10
162.100000
20
-153.800000
11
162.100000
21
-155.200000
0
ARC
5
fd
100
AcDbEntity
8
1
100
AcDbCircle
6
CONTINUOUS
62
5
10
161.500000
20
-153.900000
40
0.100000
100
AcDbArc
50
89.999999
51
179.999998
0
LINE
5
fe
100
AcDbEntity
8
1
100
AcDbLine
6
CONTINUOUS
62
5
10
161.500000
20
-153.800000
11
164.100000
21
-153.800000
0
POLYLINE
5
ff
100
AcDbEntity
8
1
6
CONTINUOUS
62
5
100
AcDb2dPolyline
66
1
10
0.0
20
0.0
30
0.0
70
0
0
VERTEX
5
100
100
AcDbEntity
8
1
100
AcDbVertex
100
AcDb2dVertex
62
5
10
164.100000
20
-155.200000
0
VERTEX
5
101
100
AcDbEntity
8
1
100
AcDbVertex
100
AcDb2dVertex
62
5
10
161.400000
20
-155.200000
0
VERTEX
5
102
100
AcDbEntity
8
1
100
AcDbVertex
100
AcDb2dVertex
62
5
10
161.400000
20
-153.900000
0
SEQEND
5
103
100
AcDbEntity
8
1
0
LINE
5
104
100
AcDbEntity
8
1
100
AcDbLine
6
CONTINUOUS
62
5
10
166.300000
20
-152.200000
11
166.300000
21
-155.000000
0
LINE
5
105
100
AcDbEntity
8
1
100
AcDbLine
6
CONTINUOUS
62
5
10
171.600000
20
-154.750000
11
173.366987
21
-154.750000
0
LINE
5
106
100
AcDbEntity
8
1
100
AcDbLine
6
CONTINUOUS
62
5
10
173.300000
20
-154.500000
11
171.600000
21
-154.500000
0
LINE
5
107
100
AcDbEntity
8
1
100
AcDbLine
6
CONTINUOUS
62
5
10
171.600000
20
-154.250000
11
173.300000
21
-154.250000
0
LINE
5
108
100
AcDbEntity
8
1
100
AcDbLine
6
CONTINUOUS
62
5
10
166.150000
20
-150.500000
11
166.150000
21
-152.200000
0
LINE
5
109
100
AcDbEntity
8
1
100
AcDbLine
6
CONTINUOUS
62
5
10
170.200000
20
-165.690883
11
170.200000
21
-168.301505
0
POLYLINE
5
10a
100
AcDbEntity
8
1
6
CONTINUOUS
62
5
100
AcDb2dPolyline
66
1
10
0.0
20
0.0
30
0.0
70
0
0
VERTEX
5
10b
100
AcDbEntity
8
1
100
AcDbVertex
100
AcDb2dVertex
62
5
10
168.700000
20
-165.550000
0
VERTEX
5
10c
100
AcDbEntity
8
1
100
AcDbVertex
100
AcDb2dVertex
62
5
10
168.700000
20
-165.550000
0
VERTEX
5
10d
100
AcDbEntity
8
1
100
AcDbVertex
100
AcDb2dVertex
62
5
10
168.700000
20
-168.450000
0
SEQEND
5
10e
100
AcDbEntity
8
1
0
ARC
5
10f
100
AcDbEntity
8
1
100
AcDbCircle
6
CONTINUOUS
62
5
10
173.000000
20
-159.000000
40
0.500000
100
AcDbArc
50
0.000000
51
36.869897
0
LINE
5
110
100
AcDbEntity
8
1
100
AcDbLine
6
CONTINUOUS
62
5
10
170.805860
20
-159.500000
11
173.000000
21
-159.500000
0
ARC
5
111
100
AcDbEntity
8
1
100
AcDbCircle
6
CONTINUOUS
62
5
10
173.000000
20
-159.000000
40
0.500000
100
AcDbArc
50
-89.999999
51
0.000000
0
LINE
5
112
100
AcDbEntity
8
1
100
AcDbLine
6
CONTINUOUS
62
5
10
173.500000
20
-159.000000
11
173.500000
21
-159.000000
0
ARC
5
113
100
AcDbEntity
8
1
100
AcDbCircle
6
CONTINUOUS
62
5
10
168.724989
20
-148.333339
40
3.000000
100
AcDbArc
50
-167.160527
51
-133.761906
0
LINE
5
114
100
AcDbEntity
8
1
100
AcDbLine
6
CONTINUOUS
62
5
10
165.800000
20
-149.000000
11
164.400000
21
-149.000000
0
ARC
5
115
100
AcDbEntity
8
1
100
AcDbCircle
6
CONTINUOUS
62
5
10
165.900000
20
-149.000000
40
1.500000
100
AcDbArc
50
179.999998
51
-89.999999
0
ARC
5
116
100
AcDbEntity
8
1
100
AcDbCircle
6
CONTINUOUS
62
5
10
160.569444
20
-146.242894
40
5.236193
100
AcDbArc
50
2.658762
51
19.672882
0
LINE
5
117
100
AcDbEntity
8
1
100
AcDbLine
6
CONTINUOUS
62
5
10
165.800000
20
-146.000000
11
165.800000
21
-149.000000
0
LINE
5
118
100
AcDbEntity
8
1
100
AcDbLine
6
CONTINUOUS
62
5
10
165.500000
20
-144.000000
11
165.500000
21
-144.480132
0
ARC
5
119
100
AcDbEntity
8
1
100
AcDbCircle
6
CONTINUOUS
62
5
10
159.592507
20
-146.159387
40
4.810134
100
AcDbArc
50
1.898885
51
20.432759
0
LINE
5
11a
100
AcDbEntity
8
1
100
AcDbLine
6
CONTINUOUS
62
5
10
164.400000
20
-146.000000
11
164.400000
21
-149.000000
0
ARC
5
11b
100
AcDbEntity
8
1
100
AcDbCircle
6
CONTINUOUS
62
5
10
173.700000
20
-145.336270
40
10.000000
100
AcDbArc
50
179.999998
51
-172.405355
0
LINE
5
11c
100
AcDbEntity
8
1
100
AcDbLine
6
CONTINUOUS
62
5
10
163.787721
20
-146.657907
11
164.100000
21
-149.000000
0
LINE
5
11d
100
AcDbEntity
8
1
100
AcDbLine
6
CONTINUOUS
62
5
10
164.439103
20
-144.000000
11
163.800000
21
-144.000000
0
ARC
5
11e
100
AcDbEntity
8
1
100
AcDbCircle
6
CONTINUOUS
62
5
10
163.800000
20
-144.100000
40
0.100000
100
AcDbArc
50
89.999999
51
179.999998
0
LINE
5
11f
100
AcDbEntity
8
1
100
AcDbLine
6
CONTINUOUS
62
5
10
163.700000
20
-144.100000
11
163.700000
21
-145.336270
0
POLYLINE
5
120
100
AcDbEntity
8
1
6
CONTINUOUS
62
5
100
AcDb2dPolyline
66
1
10
0.0
20
0.0
30
0.0
70
1
0
VERTEX
5
121
100
AcDbEntity
8
1
100
AcDbVertex
100
AcDb2dVertex
62
5
10
166.500000
20
-150.345657
0
VERTEX
5
122
100
AcDbEntity
8
1
100
AcDbVertex
100
AcDb2dVertex
62
5
10
166.500000
20
-140.750000
0
SEQEND
5
123
100
AcDbEntity
8
1
0
LINE
5
124
100
AcDbEntity
8
1
100
AcDbLine
6
CONTINUOUS
62
5
10
166.300000
20
-144.000000
11
166.300000
21
-150.099529
0
LINE
5
125
100
AcDbEntity
8
1
100
AcDbLine
6
CONTINUOUS
62
5
10
166.500000
20
-138.555916
11
166.500000
21
-107.000000
0
LINE
5
126
100
AcDbEntity
8
1
100
AcDbLine
6
CONTINUOUS
62
5
10
164.100000
20
-152.304782
11
164.100000
21
-107.000000
0
POLYLINE
5
127
100
AcDbEntity
8
1
6
CONTINUOUS
62
5
100
AcDb2dPolyline
66
1
10
0.0
20
0.0
30
0.0
70
0
0
VERTEX
5
128
100
AcDbEntity
8
1
100
AcDbVertex
100
AcDb2dVertex
62
5
10
137.850000
20
-109.000000
0
VERTEX
5
129
100
AcDbEntity
8
1
100
AcDbVertex
100
AcDb2dVertex
62
5
10
164.100000
20
-109.000000
0
VERTEX
5
12a
100
AcDbEntity
8
1
100
AcDbVertex
100
AcDb2dVertex
62
5
10
158.100000
20
-110.000000
0
VERTEX
5
12b
100
AcDbEntity
8
1
100
AcDbVertex
100
AcDb2dVertex
62
5
10
158.100000
20
-108.000000
0
VERTEX
5
12c
100
AcDbEntity
8
1
100
AcDbVertex
100
AcDb2dVertex
62
5
10
164.100000
20
-109.000000
0
VERTEX
5
12d
100
AcDbEntity
8
1
100
AcDbVertex
100
AcDb2dVertex
62
5
10
158.100000
20
-109.500000
0
VERTEX
5
12e
100
AcDbEntity
8
1
100
AcDbVertex
100
AcDb2dVertex
62
5
10
158.100000
20
-108.500000
0
VERTEX
5
12f
100
AcDbEntity
8
1
100
AcDbVertex
100
AcDb2dVertex
62
5
10
164.100000
20
-109.000000
0
SEQEND
5
130
100
AcDbEntity
8
1
0
LINE
5
131
100
AcDbEntity
8
1
100
AcDbLine
6
CONTINUOUS
62
5
10
164.100000
20
-109.000000
11
166.500000
21
-109.000000
0
LINE
5
132
100
AcDbEntity
8
1
100
AcDbLine
6
CONTINUOUS
62
5
10
171.500000
20
-109.000000
11
166.500000
21
-109.000000
0
POLYLINE
5
133
100
AcDbEntity
8
1
6
CONTINUOUS
62
5
100
AcDb2dPolyline
66
1
10
0.0
20
0.0
30
0.0
70
0
0
VERTEX
5
134
100
AcDbEntity
8
1
100
AcDbVertex
100
AcDb2dVertex
62
5
10
165.500000
20
-109.500000
0
VERTEX
5
135
100
AcDbEntity
8
1
100
AcDbVertex
100
AcDb2dVertex
62
5
10
165.500000
20
-108.500000
0
VERTEX
5
136
100
AcDbEntity
8
1
100
AcDbVertex
100
AcDb2dVertex
62
5
10
166.000000
20
-108.000000
0
VERTEX
5
137
100
AcDbEntity
8
1
100
AcDbVertex
100
AcDb2dVertex
62
5
10
167.000000
20
-108.000000
0
VERTEX
5
138
100
AcDbEntity
8
1
100
AcDbVertex
100
AcDb2dVertex
62
5
10
167.500000
20
-108.500000
0
VERTEX
5
139
100
AcDbEntity
8
1
100
AcDbVertex
100
AcDb2dVertex
62
5
10
167.500000
20
-109.500000
0
VERTEX
5
13a
100
AcDbEntity
8
1
100
AcDbVertex
100
AcDb2dVertex
62
5
10
167.000000
20
-110.000000
0
VERTEX
5
13b
100
AcDbEntity
8
1
100
AcDbVertex
100
AcDb2dVertex
62
5
10
166.000000
20
-110.000000
0
VERTEX
5
13c
100
AcDbEntity
8
1
100
AcDbVertex
100
AcDb2dVertex
62
5
10
165.500000
20
-109.500000
0
VERTEX
5
13d
100
AcDbEntity
8
1
100
AcDbVertex
100
AcDb2dVertex
62
5
10
167.500000
20
-108.500000
0
SEQEND
5
13e
100
AcDbEntity
8
1
0
LINE
5
13f
100
AcDbEntity
8
1
100
AcDbLine
6
CONTINUOUS
62
5
10
167.500000
20
-109.500000
11
165.500000
21
-108.500000
0
LINE
5
140
100
AcDbEntity
8
1
100
AcDbLine
6
CONTINUOUS
62
5
10
166.000000
20
-108.000000
11
167.000000
21
-110.000000
0
LINE
5
141
100
AcDbEntity
8
1
100
AcDbLine
6
CONTINUOUS
62
5
10
166.000000
20
-110.000000
11
167.000000
21
-108.000000
0
POLYLINE
5
142
100
AcDbEntity
8
1
6
DOT2
62
5
100
AcDb2dPolyline
66
1
10
0.0
20
0.0
30
0.0
70
0
0
VERTEX
5
143
100
AcDbEntity
8
1
100
AcDbVertex
100
AcDb2dVertex
62
5
10
202.325000
20
-104.312500
0
VERTEX
5
144
100
AcDbEntity
8
1
100
AcDbVertex
100
AcDb2dVertex
62
5
10
202.325000
20
-104.312500
0
VERTEX
5
145
100
AcDbEntity
8
1
100
AcDbVertex
100
AcDb2dVertex
62
5
10
201.075000
20
-104.625000
0
VERTEX
5
146
100
AcDbEntity
8
1
100
AcDbVertex
100
AcDb2dVertex
62
5
10
200.137500
20
-104.625000
0
VERTEX
5
147
100
AcDbEntity
8
1
100
AcDbVertex
100
AcDb2dVertex
62
5
10
199.512500
20
-104.312500
0
VERTEX
5
148
100
AcDbEntity
8
1
100
AcDbVertex
100
AcDb2dVertex
62
5
10
199.200000
20
-103.375000
0
VERTEX
5
149
100
AcDbEntity
8
1
100
AcDbVertex
100
AcDb2dVertex
62
5
10
199.200000
20
-101.812500
0
VERTEX
5
14a
100
AcDbEntity
8
1
100
AcDbVertex
100
AcDb2dVertex
62
5
10
199.512500
20
-100.875000
0
VERTEX
5
14b
100
AcDbEntity
8
1
100
AcDbVertex
100
AcDb2dVertex
62
5
10
199.825000
20
-100.562500
0
VERTEX
5
14c
100
AcDbEntity
8
1
100
AcDbVertex
100
AcDb2dVertex
62
5
10
200.450000
20
-100.250000
0
VERTEX
5
14d
100
AcDbEntity
8
1
100
AcDbVertex
100
AcDb2dVertex
62
5
10
201.075000
20
-100.250000
0
VERTEX
5
14e
100
AcDbEntity
8
1
100
AcDbVertex
100
AcDb2dVertex
62
5
10
201.700000
20
-100.562500
0
VERTEX
5
14f
100
AcDbEntity
8
1
100
AcDbVertex
100
AcDb2dVertex
62
5
10
202.012500
20
-100.875000
0
VERTEX
5
150
100
AcDbEntity
8
1
100
AcDbVertex
100
AcDb2dVertex
62
5
10
202.325000
20
-101.812500
0
VERTEX
5
151
100
AcDbEntity
8
1
100
AcDbVertex
100
AcDb2dVertex
62
5
10
202.325000
20
-105.250000
0
VERTEX
5
152
100
AcDbEntity
8
1
100
AcDbVertex
100
AcDb2dVertex
62
5
10
202.012500
20
-106.812500
0
VERTEX
5
153
100
AcDbEntity
8
1
100
AcDbVertex
100
AcDb2dVertex
62
5
10
201.387500
20
-107.437500
0
VERTEX
5
154
100
AcDbEntity
8
1
100
AcDbVertex
100
AcDb2dVertex
62
5
10
200.450000
20
-107.750000
0
VERTEX
5
155
100
AcDbEntity
8
1
100
AcDbVertex
100
AcDb2dVertex
62
5
10
199.825000
20
-107.750000
0
SEQEND
5
156
100
AcDbEntity
8
1
0
LINE
5
157
100
AcDbEntity
8
1
100
AcDbLine
6
CONTINUOUS
62
5
10
93.000000
20
-15.062500
11
93.000000
21
-20.062500
0
POLYLINE
5
158
100
AcDbEntity
8
1
6
CONTINUOUS
62
5
100
AcDb2dPolyline
66
1
10
0.0
20
0.0
30
0.0
70
0
0
VERTEX
5
159
100
AcDbEntity
8
1
100
AcDbVertex
100
AcDb2dVertex
62
5
10
89.500000
20
-15.687500
0
VERTEX
5
15a
100
AcDbEntity
8
1
100
AcDbVertex
100
AcDb2dVertex
62
5
10
93.000000
20
-11.937500
0
VERTEX
5
15b
100
AcDbEntity
8
1
100
AcDbVertex
100
AcDb2dVertex
62
5
10
96.250000
20
-15.375000
0
SEQEND
5
15c
100
AcDbEntity
8
1
0
LINE
5
15d
100
AcDbEntity
8
1
100
AcDbLine
6
CONTINUOUS
62
5
10
91.000000
20
-15.062500
11
94.750000
21
-15.062500
0
LINE
5
15e
100
AcDbEntity
8
1
100
AcDbLine
6
CONTINUOUS
62
5
10
90.000000
20
-16.937500
11
95.750000
21
-16.937500
0
LINE
5
15f
100
AcDbEntity
8
1
100
AcDbLine
6
CONTINUOUS
62
5
10
89.750000
20
-20.062500
11
96.250000
21
-20.062500
0
LINE
5
160
100
AcDbEntity
8
1
100
AcDbLine
6
CONTINUOUS
62
5
10
90.750000
20
-17.875000
11
91.750000
21
-19.125000
0
LINE
5
161
100
AcDbEntity
8
1
100
AcDbLine
6
CONTINUOUS
62
5
10
95.000000
20
-17.875000
11
94.250000
21
-19.125000
0
POLYLINE
5
162
100
AcDbEntity
8
1
6
CONTINUOUS
62
5
100
AcDb2dPolyline
66
1
10
0.0
20
0.0
30
0.0
70
0
0
VERTEX
5
163
100
AcDbEntity
8
1
100
AcDbVertex
100
AcDb2dVertex
62
5
10
97.500000
20
-20.062500
0
VERTEX
5
164
100
AcDbEntity
8
1
100
AcDbVertex
100
AcDb2dVertex
62
5
10
98.000000
20
-18.187500
0
VERTEX
5
165
100
AcDbEntity
8
1
100
AcDbVertex
100
AcDb2dVertex
62
5
10
98.250000
20
-16.625000
0
VERTEX
5
166
100
AcDbEntity
8
1
100
AcDbVertex
100
AcDb2dVertex
62
5
10
98.250000
20
-11.937500
0
VERTEX
5
167
100
AcDbEntity
8
1
100
AcDbVertex
100
AcDb2dVertex
62
5
10
103.750000
20
-11.937500
0
VERTEX
5
168
100
AcDbEntity
8
1
100
AcDbVertex
100
AcDb2dVertex
62
5
10
103.750000
20
-13.500000
0
VERTEX
5
169
100
AcDbEntity
8
1
100
AcDbVertex
100
AcDb2dVertex
62
5
10
98.250000
20
-13.500000
0
SEQEND
5
16a
100
AcDbEntity
8
1
0
LINE
5
16b
100
AcDbEntity
8
1
100
AcDbLine
6
CONTINUOUS
62
5
10
103.250000
20
-14.125000
11
99.500000
21
-14.750000
0
POLYLINE
5
16c
100
AcDbEntity
8
1
6
CONTINUOUS
62
5
100
AcDb2dPolyline
66
1
10
0.0
20
0.0
30
0.0
70
1
0
VERTEX
5
16d
100
AcDbEntity
8
1
100
AcDbVertex
100
AcDb2dVertex
62
5
10
99.500000
20
-15.375000
0
VERTEX
5
16e
100
AcDbEntity
8
1
100
AcDbVertex
100
AcDb2dVertex
62
5
10
99.500000
20
-16.625000
0
VERTEX
5
16f
100
AcDbEntity
8
1
100
AcDbVertex
100
AcDb2dVertex
62
5
10
103.500000
20
-16.625000
0
VERTEX
5
170
100
AcDbEntity
8
1
100
AcDbVertex
100
AcDb2dVertex
62
5
10
103.500000
20
-15.375000
0
VERTEX
5
171
100
AcDbEntity
8
1
100
AcDbVertex
100
AcDb2dVertex
62
5
10
99.500000
20
-15.375000
0
SEQEND
5
172
100
AcDbEntity
8
1
0
LINE
5
173
100
AcDbEntity
8
1
100
AcDbLine
6
CONTINUOUS
62
5
10
101.500000
20
-14.437500
11
101.500000
21
-18.812500
0
LINE
5
174
100
AcDbEntity
8
1
100
AcDbLine
6
CONTINUOUS
62
5
10
100.000000
20
-19.125000
11
102.750000
21
-18.812500
0
LINE
5
175
100
AcDbEntity
8
1
100
AcDbLine
6
CONTINUOUS
62
5
10
102.500000
20
-18.187500
11
103.250000
21
-19.437500
0
POLYLINE
5
176
100
AcDbEntity
8
1
6
CONTINUOUS
62
5
100
AcDb2dPolyline
66
1
10
0.0
20
0.0
30
0.0
70
0
0
VERTEX
5
177
100
AcDbEntity
8
1
100
AcDbVertex
100
AcDb2dVertex
62
5
10
99.000000
20
-20.062500
0
VERTEX
5
178
100
AcDbEntity
8
1
100
AcDbVertex
100
AcDb2dVertex
62
5
10
99.000000
20
-17.562500
0
VERTEX
5
179
100
AcDbEntity
8
1
100
AcDbVertex
100
AcDb2dVertex
62
5
10
104.000000
20
-17.562500
0
VERTEX
5
17a
100
AcDbEntity
8
1
100
AcDbVertex
100
AcDb2dVertex
62
5
10
104.000000
20
-19.750000
0
VERTEX
5
17b
100
AcDbEntity
8
1
100
AcDbVertex
100
AcDb2dVertex
62
5
10
103.750000
20
-20.062500
0
VERTEX
5
17c
100
AcDbEntity
8
1
100
AcDbVertex
100
AcDb2dVertex
62
5
10
103.250000
20
-20.062500
0
SEQEND
5
17d
100
AcDbEntity
8
1
0
POLYLINE
5
17e
100
AcDbEntity
8
1
6
CONTINUOUS
62
5
100
AcDb2dPolyline
66
1
10
0.0
20
0.0
30
0.0
70
0
0
VERTEX
5
17f
100
AcDbEntity
8
1
100
AcDbVertex
100
AcDb2dVertex
62
5
10
106.500000
20
-11.625000
0
VERTEX
5
180
100
AcDbEntity
8
1
100
AcDbVertex
100
AcDb2dVertex
62
5
10
106.250000
20
-12.875000
0
VERTEX
5
181
100
AcDbEntity
8
1
100
AcDbVertex
100
AcDb2dVertex
62
5
10
105.500000
20
-13.812500
0
SEQEND
5
182
100
AcDbEntity
8
1
0
LINE
5
183
100
AcDbEntity
8
1
100
AcDbLine
6
CONTINUOUS
62
5
10
106.250000
20
-12.875000
11
109.000000
21
-12.875000
0
LINE
5
184
100
AcDbEntity
8
1
100
AcDbLine
6
CONTINUOUS
62
5
10
109.250000
20
-13.812500
11
106.000000
21
-13.812500
0
POLYLINE
5
185
100
AcDbEntity
8
1
6
CONTINUOUS
62
5
100
AcDb2dPolyline
66
1
10
0.0
20
0.0
30
0.0
70
0
0
VERTEX
5
186
100
AcDbEntity
8
1
100
AcDbVertex
100
AcDb2dVertex
62
5
10
106.250000
20
-16.000000
0
VERTEX
5
187
100
AcDbEntity
8
1
100
AcDbVertex
100
AcDb2dVertex
62
5
10
106.250000
20
-14.750000
0
VERTEX
5
188
100
AcDbEntity
8
1
100
AcDbVertex
100
AcDb2dVertex
62
5
10
108.750000
20
-14.750000
0
VERTEX
5
189
100
AcDbEntity
8
1
100
AcDbVertex
100
AcDb2dVertex
62
5
10
108.750000
20
-15.687500
0
VERTEX
5
18a
100
AcDbEntity
8
1
100
AcDbVertex
100
AcDb2dVertex
62
5
10
108.500000
20
-16.000000
0
VERTEX
5
18b
100
AcDbEntity
8
1
100
AcDbVertex
100
AcDb2dVertex
62
5
10
108.250000
20
-16.000000
0
SEQEND
5
18c
100
AcDbEntity
8
1
0
LINE
5
18d
100
AcDbEntity
8
1
100
AcDbLine
6
CONTINUOUS
62
5
10
107.500000
20
-11.625000
11
107.500000
21
-16.000000
0
LINE
5
18e
100
AcDbEntity
8
1
100
AcDbLine
6
CONTINUOUS
62
5
10
110.250000
20
-12.562500
11
110.250000
21
-14.750000
0
POLYLINE
5
18f
100
AcDbEntity
8
1
6
CONTINUOUS
62
5
100
AcDb2dPolyline
66
1
10
0.0
20
0.0
30
0.0
70
0
0
VERTEX
5
190
100
AcDbEntity
8
1
100
AcDbVertex
100
AcDb2dVertex
62
5
10
111.750000
20
-11.625000
0
VERTEX
5
191
100
AcDbEntity
8
1
100
AcDbVertex
100
AcDb2dVertex
62
5
10
111.750000
20
-15.375000
0
VERTEX
5
192
100
AcDbEntity
8
1
100
AcDbVertex
100
AcDb2dVertex
62
5
10
111.250000
20
-16.312500
0
VERTEX
5
193
100
AcDbEntity
8
1
100
AcDbVertex
100
AcDb2dVertex
62
5
10
111.000000
20
-16.312500
0
SEQEND
5
194
100
AcDbEntity
8
1
0
LINE
5
195
100
AcDbEntity
8
1
100
AcDbLine
6
CONTINUOUS
62
5
10
105.750000
20
-16.937500
11
112.250000
21
-16.937500
0
POLYLINE
5
196
100
AcDbEntity
8
1
6
CONTINUOUS
62
5
100
AcDb2dPolyline
66
1
10
0.0
20
0.0
30
0.0
70
0
0
VERTEX
5
197
100
AcDbEntity
8
1
100
AcDbVertex
100
AcDb2dVertex
62
5
10
109.000000
20
-16.000000
0
VERTEX
5
198
100
AcDbEntity
8
1
100
AcDbVertex
100
AcDb2dVertex
62
5
10
109.000000
20
-16.937500
0
VERTEX
5
199
100
AcDbEntity
8
1
100
AcDbVertex
100
AcDb2dVertex
62
5
10
107.750000
20
-18.500000
0
VERTEX
5
19a
100
AcDbEntity
8
1
100
AcDbVertex
100
AcDb2dVertex
62
5
10
106.500000
20
-19.125000
0
VERTEX
5
19b
100
AcDbEntity
8
1
100
AcDbVertex
100
AcDb2dVertex
62
5
10
105.500000
20
-19.437500
0
SEQEND
5
19c
100
AcDbEntity
8
1
0
LINE
5
19d
100
AcDbEntity
8
1
100
AcDbLine
6
CONTINUOUS
62
5
10
107.750000
20
-18.500000
11
107.750000
21
-20.062500
0
LINE
5
19e
100
AcDbEntity
8
1
100
AcDbLine
6
CONTINUOUS
62
5
10
107.000000
20
-20.375000
11
109.000000
21
-19.437500
0
POLYLINE
5
19f
100
AcDbEntity
8
1
6
CONTINUOUS
62
5
100
AcDb2dPolyline
66
1
10
0.0
20
0.0
30
0.0
70
0
0
VERTEX
5
1a0
100
AcDbEntity
8
1
100
AcDbVertex
100
AcDb2dVertex
62
5
10
108.750000
20
-17.562500
0
VERTEX
5
1a1
100
AcDbEntity
8
1
100
AcDbVertex
100
AcDb2dVertex
62
5
10
110.250000
20
-19.125000
0
VERTEX
5
1a2
100
AcDbEntity
8
1
100
AcDbVertex
100
AcDb2dVertex
62
5
10
111.500000
20
-20.375000
0
VERTEX
5
1a3
100
AcDbEntity
8
1
100
AcDbVertex
100
AcDb2dVertex
62
5
10
112.250000
20
-20.375000
0
SEQEND
5
1a4
100
AcDbEntity
8
1
0
LINE
5
1a5
100
AcDbEntity
8
1
100
AcDbLine
6
CONTINUOUS
62
5
10
111.250000
20
-17.875000
11
110.250000
21
-19.125000
0
POLYLINE
5
1a6
100
AcDbEntity
8
1
6
CONTINUOUS
62
5
100
AcDb2dPolyline
66
1
10
0.0
20
0.0
30
0.0
70
0
0
VERTEX
5
1a7
100
AcDbEntity
8
1
100
AcDbVertex
100
AcDb2dVertex
62
5
10
45.500000
20
-4.250000
0
VERTEX
5
1a8
100
AcDbEntity
8
1
100
AcDbVertex
100
AcDb2dVertex
62
5
10
45.000000
20
-3.250000
0
VERTEX
5
1a9
100
AcDbEntity
8
1
100
AcDbVertex
100
AcDb2dVertex
62
5
10
44.250000
20
-3.000000
0
VERTEX
5
1aa
100
AcDbEntity
8
1
100
AcDbVertex
100
AcDb2dVertex
62
5
10
43.750000
20
-3.000000
0
VERTEX
5
1ab
100
AcDbEntity
8
1
100
AcDbVertex
100
AcDb2dVertex
62
5
10
43.250000
20
-3.250000
0
VERTEX
5
1ac
100
AcDbEntity
8
1
100
AcDbVertex
100
AcDb2dVertex
62
5
10
42.750000
20
-4.000000
0
VERTEX
5
1ad
100
AcDbEntity
8
1
100
AcDbVertex
100
AcDb2dVertex
62
5
10
42.750000
20
-4.750000
0
VERTEX
5
1ae
100
AcDbEntity
8
1
100
AcDbVertex
100
AcDb2dVertex
62
5
10
43.250000
20
-5.500000
0
VERTEX
5
1af
100
AcDbEntity
8
1
100
AcDbVertex
100
AcDb2dVertex
62
5
10
45.000000
20
-6.500000
0
VERTEX
5
1b0
100
AcDbEntity
8
1
100
AcDbVertex
100
AcDb2dVertex
62
5
10
45.500000
20
-7.250000
0
VERTEX
5
1b1
100
AcDbEntity
8
1
100
AcDbVertex
100
AcDb2dVertex
62
5
10
45.500000
20
-8.000000
0
VERTEX
5
1b2
100
AcDbEntity
8
1
100
AcDbVertex
100
AcDb2dVertex
62
5
10
45.000000
20
-8.750000
0
VERTEX
5
1b3
100
AcDbEntity
8
1
100
AcDbVertex
100
AcDb2dVertex
62
5
10
44.250000
20
-9.000000
0
VERTEX
5
1b4
100
AcDbEntity
8
1
100
AcDbVertex
100
AcDb2dVertex
62
5
10
43.750000
20
-9.000000
0
VERTEX
5
1b5
100
AcDbEntity
8
1
100
AcDbVertex
100
AcDb2dVertex
62
5
10
43.000000
20
-8.500000
0
VERTEX
5
1b6
100
AcDbEntity
8
1
100
AcDbVertex
100
AcDb2dVertex
62
5
10
42.750000
20
-7.500000
0
SEQEND
5
1b7
100
AcDbEntity
8
1
0
POLYLINE
5
1b8
100
AcDbEntity
8
1
6
CONTINUOUS
62
5
100
AcDb2dPolyline
66
1
10
0.0
20
0.0
30
0.0
70
0
0
VERTEX
5
1b9
100
AcDbEntity
8
1
100
AcDbVertex
100
AcDb2dVertex
62
5
10
47.000000
20
-3.000000
0
VERTEX
5
1ba
100
AcDbEntity
8
1
100
AcDbVertex
100
AcDb2dVertex
62
5
10
47.000000
20
-9.000000
0
VERTEX
5
1bb
100
AcDbEntity
8
1
100
AcDbVertex
100
AcDb2dVertex
62
5
10
49.500000
20
-9.000000
0
SEQEND
5
1bc
100
AcDbEntity
8
1
0
LINE
5
1bd
100
AcDbEntity
8
1
100
AcDbLine
6
CONTINUOUS
62
5
10
51.500000
20
-3.000000
11
53.000000
21
-3.000000
0
LINE
5
1be
100
AcDbEntity
8
1
100
AcDbLine
6
CONTINUOUS
62
5
10
52.250000
20
-3.000000
11
52.250000
21
-9.000000
0
LINE
5
1bf
100
AcDbEntity
8
1
100
AcDbLine
6
CONTINUOUS
62
5
10
51.500000
20
-9.000000
11
53.000000
21
-9.000000
0
POLYLINE
5
1c0
100
AcDbEntity
8
1
6
CONTINUOUS
62
5
100
AcDb2dPolyline
66
1
10
0.0
20
0.0
30
0.0
70
0
0
VERTEX
5
1c1
100
AcDbEntity
8
1
100
AcDbVertex
100
AcDb2dVertex
62
5
10
55.000000
20
-9.000000
0
VERTEX
5
1c2
100
AcDbEntity
8
1
100
AcDbVertex
100
AcDb2dVertex
62
5
10
55.000000
20
-3.000000
0
VERTEX
5
1c3
100
AcDbEntity
8
1
100
AcDbVertex
100
AcDb2dVertex
62
5
10
56.250000
20
-9.000000
0
VERTEX
5
1c4
100
AcDbEntity
8
1
100
AcDbVertex
100
AcDb2dVertex
62
5
10
57.500000
20
-3.000000
0
VERTEX
5
1c5
100
AcDbEntity
8
1
100
AcDbVertex
100
AcDb2dVertex
62
5
10
57.500000
20
-9.000000
0
SEQEND
5
1c6
100
AcDbEntity
8
1
0
LINE
5
1c7
100
AcDbEntity
8
1
100
AcDbLine
6
CONTINUOUS
62
5
10
43.250000
20
-15.687500
11
43.500000
21
-16.937500
0
LINE
5
1c8
100
AcDbEntity
8
1
100
AcDbLine
6
CONTINUOUS
62
5
10
44.750000
20
-15.375000
11
45.000000
21
-16.625000
0
POLYLINE
5
1c9
100
AcDbEntity
8
1
6
CONTINUOUS
62
5
100
AcDb2dPolyline
66
1
10
0.0
20
0.0
30
0.0
70
0
0
VERTEX
5
1ca
100
AcDbEntity
8
1
100
AcDbVertex
100
AcDb2dVertex
62
5
10
46.750000
20
-15.375000
0
VERTEX
5
1cb
100
AcDbEntity
8
1
100
AcDbVertex
100
AcDb2dVertex
62
5
10
46.500000
20
-16.937500
0
VERTEX
5
1cc
100
AcDbEntity
8
1
100
AcDbVertex
100
AcDb2dVertex
62
5
10
45.250000
20
-18.812500
0
VERTEX
5
1cd
100
AcDbEntity
8
1
100
AcDbVertex
100
AcDb2dVertex
62
5
10
44.250000
20
-19.750000
0
SEQEND
5
1ce
100
AcDbEntity
8
1
0
LINE
5
1cf
100
AcDbEntity
8
1
100
AcDbLine
6
CONTINUOUS
62
5
10
51.000000
20
-13.812500
11
54.750000
21
-13.187500
0
LINE
5
1d0
100
AcDbEntity
8
1
100
AcDbLine
6
CONTINUOUS
62
5
10
49.750000
20
-15.687500
11
55.750000
21
-15.687500
0
POLYLINE
5
1d1
100
AcDbEntity
8
1
6
CONTINUOUS
62
5
100
AcDb2dPolyline
66
1
10
0.0
20
0.0
30
0.0
70
0
0
VERTEX
5
1d2
100
AcDbEntity
8
1
100
AcDbVertex
100
AcDb2dVertex
62
5
10
53.000000
20
-13.500000
0
VERTEX
5
1d3
100
AcDbEntity
8
1
100
AcDbVertex
100
AcDb2dVertex
62
5
10
53.000000
20
-15.687500
0
VERTEX
5
1d4
100
AcDbEntity
8
1
100
AcDbVertex
100
AcDb2dVertex
62
5
10
52.750000
20
-17.250000
0
VERTEX
5
1d5
100
AcDbEntity
8
1
100
AcDbVertex
100
AcDb2dVertex
62
5
10
52.000000
20
-18.500000
0
VERTEX
5
1d6
100
AcDbEntity
8
1
100
AcDbVertex
100
AcDb2dVertex
62
5
10
51.250000
20
-19.437500
0
SEQEND
5
1d7
100
AcDbEntity
8
1
0
LINE
5
1d8
100
AcDbEntity
8
1
100
AcDbLine
6
CONTINUOUS
62
5
10
57.500000
20
-12.250000
11
61.250000
21
-12.250000
0
LINE
5
1d9
100
AcDbEntity
8
1
100
AcDbLine
6
CONTINUOUS
62
5
10
58.250000
20
-12.250000
11
58.250000
21
-18.812500
0
LINE
5
1da
100
AcDbEntity
8
1
100
AcDbLine
6
CONTINUOUS
62
5
10
60.250000
20
-12.250000
11
60.250000
21
-20.375000
0
LINE
5
1db
100
AcDbEntity
8
1
100
AcDbLine
6
CONTINUOUS
62
5
10
58.250000
20
-14.437500
11
60.250000
21
-14.437500
0
LINE
5
1dc
100
AcDbEntity
8
1
100
AcDbLine
6
CONTINUOUS
62
5
10
58.250000
20
-16.312500
11
60.250000
21
-16.312500
0
LINE
5
1dd
100
AcDbEntity
8
1
100
AcDbLine
6
CONTINUOUS
62
5
10
57.250000
20
-19.125000
11
60.250000
21
-18.187500
0
POLYLINE
5
1de
100
AcDbEntity
8
1
6
CONTINUOUS
62
5
100
AcDb2dPolyline
66
1
10
0.0
20
0.0
30
0.0
70
0
0
VERTEX
5
1df
100
AcDbEntity
8
1
100
AcDbVertex
100
AcDb2dVertex
62
5
10
61.000000
20
-13.812500
0
VERTEX
5
1e0
100
AcDbEntity
8
1
100
AcDbVertex
100
AcDb2dVertex
62
5
10
64.250000
20
-13.812500
0
VERTEX
5
1e1
100
AcDbEntity
8
1
100
AcDbVertex
100
AcDb2dVertex
62
5
10
63.750000
20
-16.000000
0
VERTEX
5
1e2
100
AcDbEntity
8
1
100
AcDbVertex
100
AcDb2dVertex
62
5
10
63.250000
20
-17.250000
0
VERTEX
5
1e3
100
AcDbEntity
8
1
100
AcDbVertex
100
AcDb2dVertex
62
5
10
62.250000
20
-19.125000
0
VERTEX
5
1e4
100
AcDbEntity
8
1
100
AcDbVertex
100
AcDb2dVertex
62
5
10
61.000000
20
-20.375000
0
SEQEND
5
1e5
100
AcDbEntity
8
1
0
POLYLINE
5
1e6
100
AcDbEntity
8
1
6
CONTINUOUS
62
5
100
AcDb2dPolyline
66
1
10
0.0
20
0.0
30
0.0
70
0
0
VERTEX
5
1e7
100
AcDbEntity
8
1
100
AcDbVertex
100
AcDb2dVertex
62
5
10
61.250000
20
-15.062500
0
VERTEX
5
1e8
100
AcDbEntity
8
1
100
AcDbVertex
100
AcDb2dVertex
62
5
10
62.000000
20
-16.937500
0
VERTEX
5
1e9
100
AcDbEntity
8
1
100
AcDbVertex
100
AcDb2dVertex
62
5
10
63.000000
20
-18.812500
0
VERTEX
5
1ea
100
AcDbEntity
8
1
100
AcDbVertex
100
AcDb2dVertex
62
5
10
64.500000
20
-20.375000
0
SEQEND
5
1eb
100
AcDbEntity
8
1
0
POLYLINE
5
1ec
100
AcDbEntity
8
1
6
CONTINUOUS
62
5
100
AcDb2dPolyline
66
1
10
0.0
20
0.0
30
0.0
70
0
0
VERTEX
5
1ed
100
AcDbEntity
8
1
100
AcDbVertex
100
AcDb2dVertex
62
5
10
67.500000
20
-11.937500
0
VERTEX
5
1ee
100
AcDbEntity
8
1
100
AcDbVertex
100
AcDb2dVertex
62
5
10
66.500000
20
-14.750000
0
VERTEX
5
1ef
100
AcDbEntity
8
1
100
AcDbVertex
100
AcDb2dVertex
62
5
10
65.250000
20
-16.937500
0
SEQEND
5
1f0
100
AcDbEntity
8
1
0
LINE
5
1f1
100
AcDbEntity
8
1
100
AcDbLine
6
CONTINUOUS
62
5
10
66.500000
20
-14.750000
11
66.500000
21
-20.687500
0
LINE
5
1f2
100
AcDbEntity
8
1
100
AcDbLine
6
CONTINUOUS
62
5
10
67.250000
20
-14.750000
11
72.500000
21
-14.750000
0
POLYLINE
5
1f3
100
AcDbEntity
8
1
6
CONTINUOUS
62
5
100
AcDb2dPolyline
66
1
10
0.0
20
0.0
30
0.0
70
0
0
VERTEX
5
1f4
100
AcDbEntity
8
1
100
AcDbVertex
100
AcDb2dVertex
62
5
10
70.750000
20
-11.937500
0
VERTEX
5
1f5
100
AcDbEntity
8
1
100
AcDbVertex
100
AcDb2dVertex
62
5
10
70.750000
20
-20.375000
0
VERTEX
5
1f6
100
AcDbEntity
8
1
100
AcDbVertex
100
AcDb2dVertex
62
5
10
69.250000
20
-20.062500
0
SEQEND
5
1f7
100
AcDbEntity
8
1
0
LINE
5
1f8
100
AcDbEntity
8
1
100
AcDbLine
6
CONTINUOUS
62
5
10
68.250000
20
-16.000000
11
69.250000
21
-17.875000
0
LINE
5
1f9
100
AcDbEntity
8
1
100
AcDbLine
6
CONTINUOUS
62
5
10
79.250000
20
-15.687500
11
80.000000
21
-15.687500
0
LINE
5
1fa
100
AcDbEntity
8
1
100
AcDbLine
6
CONTINUOUS
62
5
10
73.250000
20
-14.437500
11
75.750000
21
-14.437500
0
LINE
5
1fb
100
AcDbEntity
8
1
100
AcDbLine
6
CONTINUOUS
62
5
10
74.750000
20
-11.937500
11
74.750000
21
-20.687500
0
POLYLINE
5
1fc
100
AcDbEntity
8
1
6
CONTINUOUS
62
5
100
AcDb2dPolyline
66
1
10
0.0
20
0.0
30
0.0
70
0
0
VERTEX
5
1fd
100
AcDbEntity
8
1
100
AcDbVertex
100
AcDb2dVertex
62
5
10
74.750000
20
-14.437500
0
VERTEX
5
1fe
100
AcDbEntity
8
1
100
AcDbVertex
100
AcDb2dVertex
62
5
10
74.000000
20
-16.937500
0
VERTEX
5
1ff
100
AcDbEntity
8
1
100
AcDbVertex
100
AcDb2dVertex
62
5
10
73.250000
20
-18.500000
0
SEQEND
5
200
100
AcDbEntity
8
1
0
LINE
5
201
100
AcDbEntity
8
1
100
AcDbLine
6
CONTINUOUS
62
5
10
74.750000
20
-15.062500
11
75.500000
21
-16.937500
0
POLYLINE
5
202
100
AcDbEntity
8
1
6
CONTINUOUS
62
5
100
AcDb2dPolyline
66
1
10
0.0
20
0.0
30
0.0
70
0
0
VERTEX
5
203
100
AcDbEntity
8
1
100
AcDbVertex
100
AcDb2dVertex
62
5
10
76.000000
20
-13.500000
0
VERTEX
5
204
100
AcDbEntity
8
1
100
AcDbVertex
100
AcDb2dVertex
62
5
10
78.750000
20
-13.500000
0
VERTEX
5
205
100
AcDbEntity
8
1
100
AcDbVertex
100
AcDb2dVertex
62
5
10
78.750000
20
-14.750000
0
VERTEX
5
206
100
AcDbEntity
8
1
100
AcDbVertex
100
AcDb2dVertex
62
5
10
79.250000
20
-15.687500
0
SEQEND
5
207
100
AcDbEntity
8
1
0
POLYLINE
5
208
100
AcDbEntity
8
1
6
CONTINUOUS
62
5
100
AcDb2dPolyline
66
1
10
0.0
20
0.0
30
0.0
70
0
0
VERTEX
5
209
100
AcDbEntity
8
1
100
AcDbVertex
100
AcDb2dVertex
62
5
10
77.500000
20
-11.625000
0
VERTEX
5
20a
100
AcDbEntity
8
1
100
AcDbVertex
100
AcDb2dVertex
62
5
10
77.250000
20
-14.125000
0
VERTEX
5
20b
100
AcDbEntity
8
1
100
AcDbVertex
100
AcDb2dVertex
62
5
10
76.750000
20
-15.375000
0
VERTEX
5
20c
100
AcDbEntity
8
1
100
AcDbVertex
100
AcDb2dVertex
62
5
10
76.000000
20
-16.000000
0
SEQEND
5
20d
100
AcDbEntity
8
1
0
POLYLINE
5
20e
100
AcDbEntity
8
1
6
CONTINUOUS
62
5
100
AcDb2dPolyline
66
1
10
0.0
20
0.0
30
0.0
70
0
0
VERTEX
5
20f
100
AcDbEntity
8
1
100
AcDbVertex
100
AcDb2dVertex
62
5
10
80.000000
20
-15.687500
0
VERTEX
5
210
100
AcDbEntity
8
1
100
AcDbVertex
100
AcDb2dVertex
62
5
10
80.250000
20
-15.375000
0
VERTEX
5
211
100
AcDbEntity
8
1
100
AcDbVertex
100
AcDb2dVertex
62
5
10
80.250000
20
-14.125000
0
SEQEND
5
212
100
AcDbEntity
8
1
0
LINE
5
213
100
AcDbEntity
8
1
100
AcDbLine
6
CONTINUOUS
62
5
10
75.750000
20
-17.562500
11
80.500000
21
-17.562500
0
LINE
5
214
100
AcDbEntity
8
1
100
AcDbLine
6
CONTINUOUS
62
5
10
78.000000
20
-16.000000
11
78.000000
21
-20.687500
0
POLYLINE
5
215
100
AcDbEntity
8
1
6
CONTINUOUS
62
5
100
AcDb2dPolyline
66
1
10
0.0
20
0.0
30
0.0
70
0
0
VERTEX
5
216
100
AcDbEntity
8
1
100
AcDbVertex
100
AcDb2dVertex
62
5
10
22.750000
20
-3.000000
0
VERTEX
5
217
100
AcDbEntity
8
1
100
AcDbVertex
100
AcDb2dVertex
62
5
10
23.500000
20
-9.000000
0
VERTEX
5
218
100
AcDbEntity
8
1
100
AcDbVertex
100
AcDb2dVertex
62
5
10
24.250000
20
-3.000000
0
VERTEX
5
219
100
AcDbEntity
8
1
100
AcDbVertex
100
AcDb2dVertex
62
5
10
25.000000
20
-9.000000
0
VERTEX
5
21a
100
AcDbEntity
8
1
100
AcDbVertex
100
AcDb2dVertex
62
5
10
25.750000
20
-3.000000
0
SEQEND
5
21b
100
AcDbEntity
8
1
0
LINE
5
21c
100
AcDbEntity
8
1
100
AcDbLine
6
CONTINUOUS
62
5
10
27.500000
20
-3.000000
11
29.000000
21
-3.000000
0
LINE
5
21d
100
AcDbEntity
8
1
100
AcDbLine
6
CONTINUOUS
62
5
10
28.250000
20
-3.000000
11
28.250000
21
-9.000000
0
LINE
5
21e
100
AcDbEntity
8
1
100
AcDbLine
6
CONTINUOUS
62
5
10
27.500000
20
-9.000000
11
29.000000
21
-9.000000
0
LINE
5
21f
100
AcDbEntity
8
1
100
AcDbLine
6
CONTINUOUS
62
5
10
31.000000
20
-3.000000
11
31.000000
21
-9.000000
0
POLYLINE
5
220
100
AcDbEntity
8
1
6
CONTINUOUS
62
5
100
AcDb2dPolyline
66
1
10
0.0
20
0.0
30
0.0
70
0
0
VERTEX
5
221
100
AcDbEntity
8
1
100
AcDbVertex
100
AcDb2dVertex
62
5
10
31.000000
20
-3.000000
0
VERTEX
5
222
100
AcDbEntity
8
1
100
AcDbVertex
100
AcDb2dVertex
62
5
10
32.250000
20
-3.000000
0
VERTEX
5
223
100
AcDbEntity
8
1
100
AcDbVertex
100
AcDb2dVertex
62
5
10
32.750000
20
-3.250000
0
VERTEX
5
224
100
AcDbEntity
8
1
100
AcDbVertex
100
AcDb2dVertex
62
5
10
33.250000
20
-3.750000
0
VERTEX
5
225
100
AcDbEntity
8
1
100
AcDbVertex
100
AcDb2dVertex
62
5
10
33.500000
20
-4.750000
0
VERTEX
5
226
100
AcDbEntity
8
1
100
AcDbVertex
100
AcDb2dVertex
62
5
10
33.500000
20
-7.250000
0
VERTEX
5
227
100
AcDbEntity
8
1
100
AcDbVertex
100
AcDb2dVertex
62
5
10
33.250000
20
-8.250000
0
VERTEX
5
228
100
AcDbEntity
8
1
100
AcDbVertex
100
AcDb2dVertex
62
5
10
32.750000
20
-8.750000
0
VERTEX
5
229
100
AcDbEntity
8
1
100
AcDbVertex
100
AcDb2dVertex
62
5
10
32.250000
20
-9.000000
0
VERTEX
5
22a
100
AcDbEntity
8
1
100
AcDbVertex
100
AcDb2dVertex
62
5
10
31.000000
20
-9.000000
0
SEQEND
5
22b
100
AcDbEntity
8
1
0
POLYLINE
5
22c
100
AcDbEntity
8
1
6
CONTINUOUS
62
5
100
AcDb2dPolyline
66
1
10
0.0
20
0.0
30
0.0
70
0
0
VERTEX
5
22d
100
AcDbEntity
8
1
100
AcDbVertex
100
AcDb2dVertex
62
5
10
37.500000
20
-3.000000
0
VERTEX
5
22e
100
AcDbEntity
8
1
100
AcDbVertex
100
AcDb2dVertex
62
5
10
35.000000
20
-3.000000
0
VERTEX
5
22f
100
AcDbEntity
8
1
100
AcDbVertex
100
AcDb2dVertex
62
5
10
35.000000
20
-9.000000
0
VERTEX
5
230
100
AcDbEntity
8
1
100
AcDbVertex
100
AcDb2dVertex
62
5
10
37.750000
20
-9.000000
0
SEQEND
5
231
100
AcDbEntity
8
1
0
LINE
5
232
100
AcDbEntity
8
1
100
AcDbLine
6
CONTINUOUS
62
5
10
35.000000
20
-6.000000
11
37.250000
21
-6.000000
0
POLYLINE
5
233
100
AcDbEntity
8
1
6
CONTINUOUS
62
5
100
AcDb2dPolyline
66
1
10
0.0
20
0.0
30
0.0
70
0
0
VERTEX
5
234
100
AcDbEntity
8
1
100
AcDbVertex
100
AcDb2dVertex
62
5
10
27.000000
20
-14.125000
0
VERTEX
5
235
100
AcDbEntity
8
1
100
AcDbVertex
100
AcDb2dVertex
62
5
10
30.250000
20
-14.125000
0
VERTEX
5
236
100
AcDbEntity
8
1
100
AcDbVertex
100
AcDb2dVertex
62
5
10
30.250000
20
-14.437500
0
VERTEX
5
237
100
AcDbEntity
8
1
100
AcDbVertex
100
AcDb2dVertex
62
5
10
29.750000
20
-15.687500
0
VERTEX
5
238
100
AcDbEntity
8
1
100
AcDbVertex
100
AcDb2dVertex
62
5
10
29.250000
20
-16.625000
0
VERTEX
5
239
100
AcDbEntity
8
1
100
AcDbVertex
100
AcDb2dVertex
62
5
10
28.250000
20
-17.875000
0
VERTEX
5
23a
100
AcDbEntity
8
1
100
AcDbVertex
100
AcDb2dVertex
62
5
10
26.500000
20
-19.437500
0
SEQEND
5
23b
100
AcDbEntity
8
1
0
LINE
5
23c
100
AcDbEntity
8
1
100
AcDbLine
6
CONTINUOUS
62
5
10
29.250000
20
-16.625000
11
31.250000
21
-19.437500
0
POLYLINE
5
23d
100
AcDbEntity
8
1
6
CONTINUOUS
62
5
100
AcDb2dPolyline
66
1
10
0.0
20
0.0
30
0.0
70
0
0
VERTEX
5
23e
100
AcDbEntity
8
1
100
AcDbVertex
100
AcDb2dVertex
62
5
10
38.750000
20
-12.562500
0
VERTEX
5
23f
100
AcDbEntity
8
1
100
AcDbVertex
100
AcDb2dVertex
62
5
10
36.750000
20
-15.062500
0
VERTEX
5
240
100
AcDbEntity
8
1
100
AcDbVertex
100
AcDb2dVertex
62
5
10
34.500000
20
-16.625000
0
SEQEND
5
241
100
AcDbEntity
8
1
0
LINE
5
242
100
AcDbEntity
8
1
100
AcDbLine
6
CONTINUOUS
62
5
10
37.250000
20
-14.437500
11
37.250000
21
-19.750000
0
POLYLINE
5
243
100
AcDbEntity
8
1
6
CONTINUOUS
62
5
100
AcDb2dPolyline
66
1
10
0.0
20
0.0
30
0.0
70
0
0
VERTEX
5
244
100
AcDbEntity
8
1
100
AcDbVertex
100
AcDb2dVertex
62
5
10
13.250000
20
-3.000000
0
VERTEX
5
245
100
AcDbEntity
8
1
100
AcDbVertex
100
AcDb2dVertex
62
5
10
13.250000
20
-7.500000
0
VERTEX
5
246
100
AcDbEntity
8
1
100
AcDbVertex
100
AcDb2dVertex
62
5
10
13.000000
20
-8.500000
0
VERTEX
5
247
100
AcDbEntity
8
1
100
AcDbVertex
100
AcDb2dVertex
62
5
10
12.500000
20
-9.000000
0
VERTEX
5
248
100
AcDbEntity
8
1
100
AcDbVertex
100
AcDb2dVertex
62
5
10
11.750000
20
-9.000000
0
VERTEX
5
249
100
AcDbEntity
8
1
100
AcDbVertex
100
AcDb2dVertex
62
5
10
11.250000
20
-8.500000
0
VERTEX
5
24a
100
AcDbEntity
8
1
100
AcDbVertex
100
AcDb2dVertex
62
5
10
11.000000
20
-7.500000
0
SEQEND
5
24b
100
AcDbEntity
8
1
0
POLYLINE
5
24c
100
AcDbEntity
8
1
6
CONTINUOUS
62
5
100
AcDb2dPolyline
66
1
10
0.0
20
0.0
30
0.0
70
0
0
VERTEX
5
24d
100
AcDbEntity
8
1
100
AcDbVertex
100
AcDb2dVertex
62
5
10
17.250000
20
-6.000000
0
VERTEX
5
24e
100
AcDbEntity
8
1
100
AcDbVertex
100
AcDb2dVertex
62
5
10
17.750000
20
-5.500000
0
VERTEX
5
24f
100
AcDbEntity
8
1
100
AcDbVertex
100
AcDb2dVertex
62
5
10
18.000000
20
-5.500000
0
VERTEX
5
250
100
AcDbEntity
8
1
100
AcDbVertex
100
AcDb2dVertex
62
5
10
18.500000
20
-6.000000
0
VERTEX
5
251
100
AcDbEntity
8
1
100
AcDbVertex
100
AcDb2dVertex
62
5
10
18.500000
20
-6.250000
0
VERTEX
5
252
100
AcDbEntity
8
1
100
AcDbVertex
100
AcDb2dVertex
62
5
10
18.000000
20
-6.750000
0
VERTEX
5
253
100
AcDbEntity
8
1
100
AcDbVertex
100
AcDb2dVertex
62
5
10
17.750000
20
-6.750000
0
VERTEX
5
254
100
AcDbEntity
8
1
100
AcDbVertex
100
AcDb2dVertex
62
5
10
17.250000
20
-6.250000
0
VERTEX
5
255
100
AcDbEntity
8
1
100
AcDbVertex
100
AcDb2dVertex
62
5
10
17.250000
20
-6.000000
0
VERTEX
5
256
100
AcDbEntity
8
1
100
AcDbVertex
100
AcDb2dVertex
62
5
10
18.500000
20
-6.000000
0
SEQEND
5
257
100
AcDbEntity
8
1
0
LINE
5
258
100
AcDbEntity
8
1
100
AcDbLine
6
CONTINUOUS
62
5
10
18.500000
20
-6.250000
11
17.250000
21
-6.250000
0
LINE
5
259
100
AcDbEntity
8
1
100
AcDbLine
6
CONTINUOUS
62
5
10
17.500000
20
-6.500000
11
18.250000
21
-6.500000
0
LINE
5
25a
100
AcDbEntity
8
1
100
AcDbLine
6
CONTINUOUS
62
5
10
18.250000
20
-5.750000
11
17.500000
21
-5.750000
0
LINE
5
25b
100
AcDbEntity
8
1
100
AcDbLine
6
CONTINUOUS
62
5
10
0.000000
20
0.000000
11
0.000000
21
-32.000000
0
POLYLINE
5
25c
100
AcDbEntity
8
1
6
CONTINUOUS
62
5
100
AcDb2dPolyline
66
1
10
0.0
20
0.0
30
0.0
70
0
0
VERTEX
5
25d
100
AcDbEntity
8
1
100
AcDbVertex
100
AcDb2dVertex
62
5
10
25.625000
20
-51.062500
0
VERTEX
5
25e
100
AcDbEntity
8
1
100
AcDbVertex
100
AcDb2dVertex
62
5
10
25.000000
20
-49.812500
0
VERTEX
5
25f
100
AcDbEntity
8
1
100
AcDbVertex
100
AcDb2dVertex
62
5
10
24.062500
20
-49.500000
0
VERTEX
5
260
100
AcDbEntity
8
1
100
AcDbVertex
100
AcDb2dVertex
62
5
10
23.437500
20
-49.500000
0
VERTEX
5
261
100
AcDbEntity
8
1
100
AcDbVertex
100
AcDb2dVertex
62
5
10
22.812500
20
-49.812500
0
VERTEX
5
262
100
AcDbEntity
8
1
100
AcDbVertex
100
AcDb2dVertex
62
5
10
22.187500
20
-50.750000
0
VERTEX
5
263
100
AcDbEntity
8
1
100
AcDbVertex
100
AcDb2dVertex
62
5
10
22.187500
20
-51.687500
0
VERTEX
5
264
100
AcDbEntity
8
1
100
AcDbVertex
100
AcDb2dVertex
62
5
10
22.812500
20
-52.625000
0
VERTEX
5
265
100
AcDbEntity
8
1
100
AcDbVertex
100
AcDb2dVertex
62
5
10
25.000000
20
-53.875000
0
VERTEX
5
266
100
AcDbEntity
8
1
100
AcDbVertex
100
AcDb2dVertex
62
5
10
25.625000
20
-54.812500
0
VERTEX
5
267
100
AcDbEntity
8
1
100
AcDbVertex
100
AcDb2dVertex
62
5
10
25.625000
20
-55.750000
0
VERTEX
5
268
100
AcDbEntity
8
1
100
AcDbVertex
100
AcDb2dVertex
62
5
10
25.000000
20
-56.687500
0
VERTEX
5
269
100
AcDbEntity
8
1
100
AcDbVertex
100
AcDb2dVertex
62
5
10
24.062500
20
-57.000000
0
VERTEX
5
26a
100
AcDbEntity
8
1
100
AcDbVertex
100
AcDb2dVertex
62
5
10
23.437500
20
-57.000000
0
VERTEX
5
26b
100
AcDbEntity
8
1
100
AcDbVertex
100
AcDb2dVertex
62
5
10
22.500000
20
-56.375000
0
VERTEX
5
26c
100
AcDbEntity
8
1
100
AcDbVertex
100
AcDb2dVertex
62
5
10
22.187500
20
-55.125000
0
SEQEND
5
26d
100
AcDbEntity
8
1
0
LINE
5
26e
100
AcDbEntity
8
1
100
AcDbLine
6
CONTINUOUS
62
5
10
27.500000
20
-53.250000
11
30.625000
21
-53.250000
0
POLYLINE
5
26f
100
AcDbEntity
8
1
6
CONTINUOUS
62
5
100
AcDb2dPolyline
66
1
10
0.0
20
0.0
30
0.0
70
0
0
VERTEX
5
270
100
AcDbEntity
8
1
100
AcDbVertex
100
AcDb2dVertex
62
5
10
35.625000
20
-51.062500
0
VERTEX
5
271
100
AcDbEntity
8
1
100
AcDbVertex
100
AcDb2dVertex
62
5
10
35.312500
20
-50.125000
0
VERTEX
5
272
100
AcDbEntity
8
1
100
AcDbVertex
100
AcDb2dVertex
62
5
10
34.687500
20
-49.500000
0
VERTEX
5
273
100
AcDbEntity
8
1
100
AcDbVertex
100
AcDb2dVertex
62
5
10
33.750000
20
-49.500000
0
VERTEX
5
274
100
AcDbEntity
8
1
100
AcDbVertex
100
AcDb2dVertex
62
5
10
32.812500
20
-50.437500
0
VERTEX
5
275
100
AcDbEntity
8
1
100
AcDbVertex
100
AcDb2dVertex
62
5
10
32.500000
20
-52.000000
0
VERTEX
5
276
100
AcDbEntity
8
1
100
AcDbVertex
100
AcDb2dVertex
62
5
10
32.500000
20
-54.500000
0
VERTEX
5
277
100
AcDbEntity
8
1
100
AcDbVertex
100
AcDb2dVertex
62
5
10
32.812500
20
-56.062500
0
VERTEX
5
278
100
AcDbEntity
8
1
100
AcDbVertex
100
AcDb2dVertex
62
5
10
33.750000
20
-57.000000
0
VERTEX
5
279
100
AcDbEntity
8
1
100
AcDbVertex
100
AcDb2dVertex
62
5
10
34.687500
20
-57.000000
0
VERTEX
5
27a
100
AcDbEntity
8
1
100
AcDbVertex
100
AcDb2dVertex
62
5
10
35.312500
20
-56.375000
0
VERTEX
5
27b
100
AcDbEntity
8
1
100
AcDbVertex
100
AcDb2dVertex
62
5
10
35.937500
20
-54.812500
0
SEQEND
5
27c
100
AcDbEntity
8
1
0
POLYLINE
5
27d
100
AcDbEntity
8
1
6
CONTINUOUS
62
5
100
AcDb2dPolyline
66
1
10
0.0
20
0.0
30
0.0
70
0
0
VERTEX
5
27e
100
AcDbEntity
8
1
100
AcDbVertex
100
AcDb2dVertex
62
5
10
12.500000
20
-57.000000
0
VERTEX
5
27f
100
AcDbEntity
8
1
100
AcDbVertex
100
AcDb2dVertex
62
5
10
12.500000
20
-49.500000
0
VERTEX
5
280
100
AcDbEntity
8
1
100
AcDbVertex
100
AcDb2dVertex
62
5
10
15.625000
20
-57.000000
0
VERTEX
5
281
100
AcDbEntity
8
1
100
AcDbVertex
100
AcDb2dVertex
62
5
10
15.625000
20
-49.500000
0
SEQEND
5
282
100
AcDbEntity
8
1
0
POLYLINE
5
283
100
AcDbEntity
8
1
6
CONTINUOUS
62
5
100
AcDb2dPolyline
66
1
10
0.0
20
0.0
30
0.0
70
0
0
VERTEX
5
284
100
AcDbEntity
8
1
100
AcDbVertex
100
AcDb2dVertex
62
5
10
17.187500
20
-49.500000
0
VERTEX
5
285
100
AcDbEntity
8
1
100
AcDbVertex
100
AcDb2dVertex
62
5
10
18.125000
20
-57.000000
0
VERTEX
5
286
100
AcDbEntity
8
1
100
AcDbVertex
100
AcDb2dVertex
62
5
10
19.062500
20
-49.500000
0
VERTEX
5
287
100
AcDbEntity
8
1
100
AcDbVertex
100
AcDb2dVertex
62
5
10
20.000000
20
-57.000000
0
VERTEX
5
288
100
AcDbEntity
8
1
100
AcDbVertex
100
AcDb2dVertex
62
5
10
20.937500
20
-49.500000
0
SEQEND
5
289
100
AcDbEntity
8
1
0
LINE
5
28a
100
AcDbEntity
8
1
100
AcDbLine
6
DOT2
62
5
10
86.725000
20
-107.125000
11
86.100000
21
-107.750000
0
POLYLINE
5
28b
100
AcDbEntity
8
1
6
DOT2
62
5
100
AcDb2dPolyline
66
1
10
0.0
20
0.0
30
0.0
70
0
0
VERTEX
5
28c
100
AcDbEntity
8
1
100
AcDbVertex
100
AcDb2dVertex
62
5
10
86.100000
20
-107.125000
0
VERTEX
5
28d
100
AcDbEntity
8
1
100
AcDbVertex
100
AcDb2dVertex
62
5
10
86.725000
20
-107.750000
0
VERTEX
5
28e
100
AcDbEntity
8
1
100
AcDbVertex
100
AcDb2dVertex
62
5
10
86.100000
20
-107.750000
0
VERTEX
5
28f
100
AcDbEntity
8
1
100
AcDbVertex
100
AcDb2dVertex
62
5
10
86.100000
20
-107.125000
0
VERTEX
5
290
100
AcDbEntity
8
1
100
AcDbVertex
100
AcDb2dVertex
62
5
10
86.725000
20
-107.125000
0
VERTEX
5
291
100
AcDbEntity
8
1
100
AcDbVertex
100
AcDb2dVertex
62
5
10
86.725000
20
-107.750000
0
SEQEND
5
292
100
AcDbEntity
8
1
0
POLYLINE
5
293
100
AcDbEntity
8
1
6
DOT2
62
5
100
AcDb2dPolyline
66
1
10
0.0
20
0.0
30
0.0
70
1
0
VERTEX
5
294
100
AcDbEntity
8
1
100
AcDbVertex
100
AcDb2dVertex
62
5
10
82.350000
20
-100.250000
0
VERTEX
5
295
100
AcDbEntity
8
1
100
AcDbVertex
100
AcDb2dVertex
62
5
10
82.975000
20
-100.250000
0
VERTEX
5
296
100
AcDbEntity
8
1
100
AcDbVertex
100
AcDb2dVertex
62
5
10
83.600000
20
-100.562500
0
VERTEX
5
297
100
AcDbEntity
8
1
100
AcDbVertex
100
AcDb2dVertex
62
5
10
83.912500
20
-101.187500
0
VERTEX
5
298
100
AcDbEntity
8
1
100
AcDbVertex
100
AcDb2dVertex
62
5
10
83.912500
20
-102.437500
0
VERTEX
5
299
100
AcDbEntity
8
1
100
AcDbVertex
100
AcDb2dVertex
62
5
10
83.600000
20
-103.062500
0
VERTEX
5
29a
100
AcDbEntity
8
1
100
AcDbVertex
100
AcDb2dVertex
62
5
10
81.725000
20
-104.312500
0
VERTEX
5
29b
100
AcDbEntity
8
1
100
AcDbVertex
100
AcDb2dVertex
62
5
10
81.100000
20
-105.250000
0
VERTEX
5
29c
100
AcDbEntity
8
1
100
AcDbVertex
100
AcDb2dVertex
62
5
10
81.100000
20
-106.500000
0
VERTEX
5
29d
100
AcDbEntity
8
1
100
AcDbVertex
100
AcDb2dVertex
62
5
10
81.412500
20
-107.125000
0
VERTEX
5
29e
100
AcDbEntity
8
1
100
AcDbVertex
100
AcDb2dVertex
62
5
10
81.725000
20
-107.437500
0
VERTEX
5
29f
100
AcDbEntity
8
1
100
AcDbVertex
100
AcDb2dVertex
62
5
10
82.350000
20
-107.750000
0
VERTEX
5
2a0
100
AcDbEntity
8
1
100
AcDbVertex
100
AcDb2dVertex
62
5
10
82.975000
20
-107.750000
0
VERTEX
5
2a1
100
AcDbEntity
8
1
100
AcDbVertex
100
AcDb2dVertex
62
5
10
83.600000
20
-107.437500
0
VERTEX
5
2a2
100
AcDbEntity
8
1
100
AcDbVertex
100
AcDb2dVertex
62
5
10
83.912500
20
-107.125000
0
VERTEX
5
2a3
100
AcDbEntity
8
1
100
AcDbVertex
100
AcDb2dVertex
62
5
10
84.225000
20
-106.500000
0
VERTEX
5
2a4
100
AcDbEntity
8
1
100
AcDbVertex
100
AcDb2dVertex
62
5
10
84.225000
20
-105.250000
0
VERTEX
5
2a5
100
AcDbEntity
8
1
100
AcDbVertex
100
AcDb2dVertex
62
5
10
83.600000
20
-104.312500
0
VERTEX
5
2a6
100
AcDbEntity
8
1
100
AcDbVertex
100
AcDb2dVertex
62
5
10
81.725000
20
-103.062500
0
VERTEX
5
2a7
100
AcDbEntity
8
1
100
AcDbVertex
100
AcDb2dVertex
62
5
10
81.412500
20
-102.437500
0
VERTEX
5
2a8
100
AcDbEntity
8
1
100
AcDbVertex
100
AcDb2dVertex
62
5
10
81.412500
20
-101.187500
0
VERTEX
5
2a9
100
AcDbEntity
8
1
100
AcDbVertex
100
AcDb2dVertex
62
5
10
81.725000
20
-100.562500
0
VERTEX
5
2aa
100
AcDbEntity
8
1
100
AcDbVertex
100
AcDb2dVertex
62
5
10
82.350000
20
-100.250000
0
SEQEND
5
2ab
100
AcDbEntity
8
1
0
LINE
5
2ac
100
AcDbEntity
8
1
100
AcDbLine
6
DOT2
62
5
10
91.100000
20
-100.250000
11
93.912500
21
-100.250000
0
POLYLINE
5
2ad
100
AcDbEntity
8
1
6
DOT2
62
5
100
AcDb2dPolyline
66
1
10
0.0
20
0.0
30
0.0
70
0
0
VERTEX
5
2ae
100
AcDbEntity
8
1
100
AcDbVertex
100
AcDb2dVertex
62
5
10
91.100000
20
-100.250000
0
VERTEX
5
2af
100
AcDbEntity
8
1
100
AcDbVertex
100
AcDb2dVertex
62
5
10
91.100000
20
-104.000000
0
VERTEX
5
2b0
100
AcDbEntity
8
1
100
AcDbVertex
100
AcDb2dVertex
62
5
10
91.725000
20
-103.375000
0
VERTEX
5
2b1
100
AcDbEntity
8
1
100
AcDbVertex
100
AcDb2dVertex
62
5
10
92.350000
20
-103.062500
0
VERTEX
5
2b2
100
AcDbEntity
8
1
100
AcDbVertex
100
AcDb2dVertex
62
5
10
93.287500
20
-103.062500
0
VERTEX
5
2b3
100
AcDbEntity
8
1
100
AcDbVertex
100
AcDb2dVertex
62
5
10
93.912500
20
-103.375000
0
VERTEX
5
2b4
100
AcDbEntity
8
1
100
AcDbVertex
100
AcDb2dVertex
62
5
10
94.225000
20
-104.312500
0
VERTEX
5
2b5
100
AcDbEntity
8
1
100
AcDbVertex
100
AcDb2dVertex
62
5
10
94.225000
20
-106.187500
0
VERTEX
5
2b6
100
AcDbEntity
8
1
100
AcDbVertex
100
AcDb2dVertex
62
5
10
93.600000
20
-107.125000
0
VERTEX
5
2b7
100
AcDbEntity
8
1
100
AcDbVertex
100
AcDb2dVertex
62
5
10
92.662500
20
-107.750000
0
VERTEX
5
2b8
100
AcDbEntity
8
1
100
AcDbVertex
100
AcDb2dVertex
62
5
10
91.100000
20
-107.750000
0
SEQEND
5
2b9
100
AcDbEntity
8
1
0
POLYLINE
5
2ba
100
AcDbEntity
8
1
6
DOT2
62
5
100
AcDb2dPolyline
66
1
10
0.0
20
0.0
30
0.0
70
0
0
VERTEX
5
2bb
100
AcDbEntity
8
1
100
AcDbVertex
100
AcDb2dVertex
62
5
10
78.600000
20
-100.250000
0
VERTEX
5
2bc
100
AcDbEntity
8
1
100
AcDbVertex
100
AcDb2dVertex
62
5
10
75.787500
20
-105.875000
0
VERTEX
5
2bd
100
AcDbEntity
8
1
100
AcDbVertex
100
AcDb2dVertex
62
5
10
79.537500
20
-105.875000
0
SEQEND
5
2be
100
AcDbEntity
8
1
0
LINE
5
2bf
100
AcDbEntity
8
1
100
AcDbLine
6
DOT2
62
5
10
78.600000
20
-100.250000
11
78.600000
21
-107.750000
0
LINE
5
2c0
100
AcDbEntity
8
1
100
AcDbLine
6
DOT2
62
5
10
77.975000
20
-107.750000
11
79.225000
21
-107.750000
0
ARC
5
2c1
100
AcDbEntity
8
1
100
AcDbCircle
6
CONTINUOUS
62
5
10
101.350000
20
-144.100000
40
0.100000
100
AcDbArc
50
89.999999
51
179.999998
0
LINE
5
2c2
100
AcDbEntity
8
1
100
AcDbLine
6
CONTINUOUS
62
5
10
104.100000
20
-134.000000
11
104.100000
21
-136.750000
0
LINE
5
2c3
100
AcDbEntity
8
1
100
AcDbLine
6
CONTINUOUS
62
5
10
104.350000
20
-134.000000
11
104.350000
21
-136.750000
0
LINE
5
2c4
100
AcDbEntity
8
1
100
AcDbLine
6
CONTINUOUS
62
5
10
103.850000
20
-134.000000
11
103.850000
21
-136.773030
0
ARC
5
2c5
100
AcDbEntity
8
1
100
AcDbCircle
6
CONTINUOUS
62
5
10
103.700000
20
-145.200000
40
0.800000
100
AcDbArc
50
-89.999999
51
0.000000
0
LINE
5
2c6
100
AcDbEntity
8
1
100
AcDbLine
6
CONTINUOUS
62
5
10
104.500000
20
-145.200000
11
104.500000
21
-144.126501
0
LINE
5
2c7
100
AcDbEntity
8
1
100
AcDbLine
6
CONTINUOUS
62
5
10
102.900000
20
-144.000000
11
102.900000
21
-145.200000
0
ARC
5
2c8
100
AcDbEntity
8
1
100
AcDbCircle
6
CONTINUOUS
62
5
10
103.700000
20
-145.200000
40
0.800000
100
AcDbArc
50
179.999998
51
-89.999999
0
LINE
5
2c9
100
AcDbEntity
8
1
100
AcDbLine
6
CONTINUOUS
62
5
10
103.700000
20
-146.000000
11
103.700000
21
-146.000000
0
CIRCLE
5
2ca
100
AcDbEntity
8
1
100
AcDbCircle
6
CONTINUOUS
62
5
10
83.300000
20
-139.500015
40
1.549999
0
CIRCLE
5
2cb
100
AcDbEntity
8
1
100
AcDbCircle
6
CONTINUOUS
62
5
10
83.300000
20
-139.500015
40
2.249999
0
ARC
5
2cc
100
AcDbEntity
8
1
100
AcDbCircle
6
CONTINUOUS
62
5
10
88.800000
20
-135.750016
40
0.500000
100
AcDbArc
50
-89.999999
51
0.000000
0
POLYLINE
5
2cd
100
AcDbEntity
8
1
6
CONTINUOUS
62
5
100
AcDb2dPolyline
66
1
10
0.0
20
0.0
30
0.0
70
0
0
VERTEX
5
2ce
100
AcDbEntity
8
1
100
AcDbVertex
100
AcDb2dVertex
62
5
10
92.555423
20
-134.000000
0
VERTEX
5
2cf
100
AcDbEntity
8
1
100
AcDbVertex
100
AcDb2dVertex
62
5
10
89.300000
20
-134.000000
0
VERTEX
5
2d0
100
AcDbEntity
8
1
100
AcDbVertex
100
AcDb2dVertex
62
5
10
89.300000
20
-135.750016
0
SEQEND
5
2d1
100
AcDbEntity
8
1
0
LINE
5
2d2
100
AcDbEntity
8
1
100
AcDbLine
6
CONTINUOUS
62
5
10
89.300000
20
-135.500000
11
90.800000
21
-134.000000
0
LINE
5
2d3
100
AcDbEntity
8
1
100
AcDbLine
6
CONTINUOUS
62
5
10
87.300000
20
-142.750014
11
87.300000
21
-136.250016
0
LINE
5
2d4
100
AcDbEntity
8
1
100
AcDbLine
6
CONTINUOUS
62
5
10
89.300000
20
-142.750014
11
89.300000
21
-135.750016
0
CIRCLE
5
2d5
100
AcDbEntity
8
1
100
AcDbCircle
6
CONTINUOUS
62
5
10
94.800000
20
-145.900000
40
1.900000
0
ARC
5
2d6
100
AcDbEntity
8
1
100
AcDbCircle
6
CONTINUOUS
62
5
10
108.600000
20
-134.500000
40
0.500000
100
AcDbArc
50
0.000000
51
89.999999
0
LINE
5
2d7
100
AcDbEntity
8
1
100
AcDbLine
6
CONTINUOUS
62
5
10
109.100000
20
-134.500000
11
109.100000
21
-136.250000
0
ARC
5
2d8
100
AcDbEntity
8
1
100
AcDbCircle
6
CONTINUOUS
62
5
10
108.600000
20
-136.250000
40
0.500000
100
AcDbArc
50
-89.999999
51
0.000000
0
LINE
5
2d9
100
AcDbEntity
8
1
100
AcDbLine
6
CONTINUOUS
62
5
10
108.600000
20
-136.750000
11
107.504104
21
-136.750000
0
LINE
5
2da
100
AcDbEntity
8
1
100
AcDbLine
6
CONTINUOUS
62
5
10
92.555423
20
-134.000000
11
108.600000
21
-134.000000
0
LINE
5
2db
100
AcDbEntity
8
1
100
AcDbLine
6
CONTINUOUS
62
5
10
100.700000
20
-142.750014
11
93.300000
21
-142.750014
0
ARC
5
2dc
100
AcDbEntity
8
1
100
AcDbCircle
6
CONTINUOUS
62
5
10
105.200000
20
-159.000000
40
0.200000
100
AcDbArc
50
0.000000
51
89.999999
0
POLYLINE
5
2dd
100
AcDbEntity
8
1
6
CONTINUOUS
62
5
100
AcDb2dPolyline
66
1
10
0.0
20
0.0
30
0.0
70
0
0
VERTEX
5
2de
100
AcDbEntity
8
1
100
AcDbVertex
100
AcDb2dVertex
62
5
10
105.400000
20
-159.000000
0
VERTEX
5
2df
100
AcDbEntity
8
1
100
AcDbVertex
100
AcDb2dVertex
62
5
10
105.400000
20
-163.000000
0
VERTEX
5
2e0
100
AcDbEntity
8
1
100
AcDbVertex
100
AcDb2dVertex
62
5
10
105.100000
20
-163.000000
0
SEQEND
5
2e1
100
AcDbEntity
8
1
0
LINE
5
2e2
100
AcDbEntity
8
1
100
AcDbLine
6
CONTINUOUS
62
5
10
105.100000
20
-158.800000
11
105.200000
21
-158.800000
0
ARC
5
2e3
100
AcDbEntity
8
1
100
AcDbCircle
6
CONTINUOUS
62
5
10
106.400000
20
-165.200000
40
0.100000
100
AcDbArc
50
-89.999999
51
0.000000
0
ARC
5
2e4
100
AcDbEntity
8
1
100
AcDbCircle
6
CONTINUOUS
62
5
10
106.400000
20
-163.400000
40
0.100000
100
AcDbArc
50
0.000000
51
89.999999
0
LINE
5
2e5
100
AcDbEntity
8
1
100
AcDbLine
6
CONTINUOUS
62
5
10
105.100000
20
-165.300000
11
106.400000
21
-165.300000
0
LINE
5
2e6
100
AcDbEntity
8
1
100
AcDbLine
6
CONTINUOUS
62
5
10
105.100000
20
-163.300000
11
106.400000
21
-163.300000
0
LINE
5
2e7
100
AcDbEntity
8
1
100
AcDbLine
6
CONTINUOUS
62
5
10
105.000000
20
-159.500000
11
105.100000
21
-159.500000
0
ARC
5
2e8
100
AcDbEntity
8
1
100
AcDbCircle
6
CONTINUOUS
62
5
10
106.400000
20
-158.600000
40
0.100000
100
AcDbArc
50
-89.999999
51
0.000000
0
LINE
5
2e9
100
AcDbEntity
8
1
100
AcDbLine
6
CONTINUOUS
62
5
10
105.100000
20
-153.200000
11
106.500000
21
-153.200000
0
ARC
5
2ea
100
AcDbEntity
8
1
100
AcDbCircle
6
CONTINUOUS
62
5
10
106.400000
20
-152.100000
40
0.100000
100
AcDbArc
50
-89.999999
51
0.000000
0
LINE
5
2eb
100
AcDbEntity
8
1
100
AcDbLine
6
CONTINUOUS
62
5
10
106.500000
20
-152.100000
11
106.500000
21
-151.890244
0
LINE
5
2ec
100
AcDbEntity
8
1
100
AcDbLine
6
CONTINUOUS
62
5
10
106.500000
20
-155.647765
11
106.500000
21
-155.100000
0
ARC
5
2ed
100
AcDbEntity
8
1
100
AcDbCircle
6
CONTINUOUS
62
5
10
106.400000
20
-155.100000
40
0.100000
100
AcDbArc
50
0.000000
51
89.999999
0
POLYLINE
5
2ee
100
AcDbEntity
8
1
6
CONTINUOUS
62
5
100
AcDb2dPolyline
66
1
10
0.0
20
0.0
30
0.0
70
0
0
VERTEX
5
2ef
100
AcDbEntity
8
1
100
AcDbVertex
100
AcDb2dVertex
62
5
10
106.400000
20
-155.000000
0
VERTEX
5
2f0
100
AcDbEntity
8
1
100
AcDbVertex
100
AcDb2dVertex
62
5
10
105.000000
20
-155.000000
0
VERTEX
5
2f1
100
AcDbEntity
8
1
100
AcDbVertex
100
AcDb2dVertex
62
5
10
105.000000
20
-152.200000
0
VERTEX
5
2f2
100
AcDbEntity
8
1
100
AcDbVertex
100
AcDb2dVertex
62
5
10
106.400000
20
-152.200000
0
SEQEND
5
2f3
100
AcDbEntity
8
1
0
POLYLINE
5
2f4
100
AcDbEntity
8
1
6
CONTINUOUS
62
5
100
AcDb2dPolyline
66
1
10
0.0
20
0.0
30
0.0
70
0
0
VERTEX
5
2f5
100
AcDbEntity
8
1
100
AcDbVertex
100
AcDb2dVertex
62
5
10
106.500000
20
-154.750000
0
VERTEX
5
2f6
100
AcDbEntity
8
1
100
AcDbVertex
100
AcDb2dVertex
62
5
10
106.200000
20
-154.500000
0
VERTEX
5
2f7
100
AcDbEntity
8
1
100
AcDbVertex
100
AcDb2dVertex
62
5
10
106.500000
20
-154.250000
0
SEQEND
5
2f8
100
AcDbEntity
8
1
0
LINE
5
2f9
100
AcDbEntity
8
1
100
AcDbLine
6
CONTINUOUS
62
5
10
105.100000
20
-152.200000
11
105.100000
21
-154.935273
0
ARC
5
2fa
100
AcDbEntity
8
1
100
AcDbCircle
6
CONTINUOUS
62
5
10
106.400000
20
-168.800000
40
0.100000
100
AcDbArc
50
0.000000
51
89.999999
0
LINE
5
2fb
100
AcDbEntity
8
1
100
AcDbLine
6
CONTINUOUS
62
5
10
105.100000
20
-167.000000
11
106.100000
21
-167.000000
0
LINE
5
2fc
100
AcDbEntity
8
1
100
AcDbLine
6
CONTINUOUS
62
5
10
105.100000
20
-168.700000
11
106.400000
21
-168.700000
0
ARC
5
2fd
100
AcDbEntity
8
1
100
AcDbCircle
6
CONTINUOUS
62
5
10
105.600000
20
-168.650000
40
0.500000
100
AcDbArc
50
129.529084
51
-179.999998
0
LINE
5
2fe
100
AcDbEntity
8
1
100
AcDbLine
6
CONTINUOUS
62
5
10
105.281765
20
-168.264349
11
105.645587
21
-167.964127
0
ARC
5
2ff
100
AcDbEntity
8
1
100
AcDbCircle
6
CONTINUOUS
62
5
10
104.850000
20
-167.000000
40
1.250000
100
AcDbArc
50
-50.470914
51
0.000000
0
ARC
5
300
100
AcDbEntity
8
1
100
AcDbCircle
6
CONTINUOUS
62
5
10
105.600000
20
-165.350000
40
0.500000
100
AcDbArc
50
179.999998
51
-129.529084
0
LINE
5
301
100
AcDbEntity
8
1
100
AcDbLine
6
CONTINUOUS
62
5
10
105.281765
20
-165.735651
11
105.645587
21
-166.035873
0
ARC
5
302
100
AcDbEntity
8
1
100
AcDbCircle
6
CONTINUOUS
62
5
10
104.850000
20
-167.000000
40
1.250000
100
AcDbArc
50
-0.000000
51
50.470914
0
LINE
5
303
100
AcDbEntity
8
1
100
AcDbLine
6
CONTINUOUS
62
5
10
92.500000
20
-155.400000
11
83.300000
21
-155.400000
0
LINE
5
304
100
AcDbEntity
8
1
100
AcDbLine
6
CONTINUOUS
62
5
10
83.300000
20
-155.200000
11
83.300000
21
-153.800000
0
LINE
5
305
100
AcDbEntity
8
1
100
AcDbLine
6
CONTINUOUS
62
5
10
91.800000
20
-155.150000
11
91.800000
21
-155.400000
0
LINE
5
306
100
AcDbEntity
8
1
100
AcDbLine
6
CONTINUOUS
62
5
10
90.320695
20
-155.150000
11
92.323030
21
-155.150000
0
LINE
5
307
100
AcDbEntity
8
1
100
AcDbLine
6
CONTINUOUS
62
5
10
87.800000
20
-153.800000
11
87.800000
21
-155.200000
0
ARC
5
308
100
AcDbEntity
8
1
100
AcDbCircle
6
CONTINUOUS
62
5
10
91.603684
20
-153.289699
40
1.400000
100
AcDbArc
50
-158.623144
51
-120.174264
0
ARC
5
309
100
AcDbEntity
8
1
100
AcDbCircle
6
CONTINUOUS
62
5
10
91.603684
20
-155.710301
40
1.400000
100
AcDbArc
50
120.174264
51
158.623144
0
ARC
5
30a
100
AcDbEntity
8
1
100
AcDbCircle
6
CONTINUOUS
62
5
10
92.700000
20
-155.000000
40
0.400000
100
AcDbArc
50
179.999998
51
-89.999999
0
LINE
5
30b
100
AcDbEntity
8
1
100
AcDbLine
6
CONTINUOUS
62
5
10
92.700000
20
-155.400000
11
95.475745
21
-155.400000
0
LINE
5
30c
100
AcDbEntity
8
1
100
AcDbLine
6
CONTINUOUS
62
5
10
90.900000
20
-154.500000
11
91.800000
21
-154.500000
0
ARC
5
30d
100
AcDbEntity
8
1
100
AcDbCircle
6
CONTINUOUS
62
5
10
91.800000
20
-155.000000
40
0.500000
100
AcDbArc
50
0.000000
51
89.999999
0
LINE
5
30e
100
AcDbEntity
8
1
100
AcDbLine
6
CONTINUOUS
62
5
10
92.300000
20
-155.000000
11
92.300000
21
-155.000000
0
ARC
5
30f
100
AcDbEntity
8
1
100
AcDbCircle
6
CONTINUOUS
62
5
10
99.300000
20
-152.500000
40
0.500000
100
AcDbArc
50
-89.999999
51
0.000000
0
LINE
5
310
100
AcDbEntity
8
1
100
AcDbLine
6
CONTINUOUS
62
5
10
99.800000
20
-152.500000
11
99.800000
21
-151.000000
0
ARC
5
311
100
AcDbEntity
8
1
100
AcDbCircle
6
CONTINUOUS
62
5
10
99.300000
20
-151.000000
40
0.500000
100
AcDbArc
50
0.000000
51
89.999999
0
LINE
5
312
100
AcDbEntity
8
1
100
AcDbLine
6
CONTINUOUS
62
5
10
99.300000
20
-150.500000
11
96.300000
21
-150.500000
0
ARC
5
313
100
AcDbEntity
8
1
100
AcDbCircle
6
CONTINUOUS
62
5
10
96.300000
20
-151.000000
40
0.500000
100
AcDbArc
50
89.999999
51
179.999998
0
LINE
5
314
100
AcDbEntity
8
1
100
AcDbLine
6
CONTINUOUS
62
5
10
95.800000
20
-151.000000
11
95.800000
21
-152.500000
0
ARC
5
315
100
AcDbEntity
8
1
100
AcDbCircle
6
CONTINUOUS
62
5
10
96.300000
20
-152.500000
40
0.500000
100
AcDbArc
50
179.999998
51
-89.999999
0
LINE
5
316
100
AcDbEntity
8
1
100
AcDbLine
6
CONTINUOUS
62
5
10
96.300000
20
-153.000000
11
99.300000
21
-153.000000
0
ARC
5
317
100
AcDbEntity
8
1
100
AcDbCircle
6
CONTINUOUS
62
5
10
104.500100
20
-150.519954
40
2.000000
100
AcDbArc
50
0.571637
51
49.462150
0
ARC
5
318
100
AcDbEntity
8
1
100
AcDbCircle
6
CONTINUOUS
62
5
10
103.800100
20
-148.980046
40
2.000000
100
AcDbArc
50
-49.462150
51
-0.571637
0
ARC
5
319
100
AcDbEntity
8
1
100
AcDbCircle
6
CONTINUOUS
62
5
10
103.600000
20
-147.500000
40
1.500000
100
AcDbArc
50
-160.528778
51
-89.999999
0
LINE
5
31a
100
AcDbEntity
8
1
100
AcDbLine
6
CONTINUOUS
62
5
10
103.600000
20
-149.000000
11
103.800000
21
-149.000000
0
ARC
5
31b
100
AcDbEntity
8
1
100
AcDbCircle
6
CONTINUOUS
62
5
10
103.800000
20
-147.500000
40
1.500000
100
AcDbArc
50
-89.999999
51
-29.926435
0
LINE
5
31c
100
AcDbEntity
8
1
100
AcDbLine
6
CONTINUOUS
62
5
10
105.100000
20
-144.780799
11
105.100000
21
-150.187924
0
ARC
5
31d
100
AcDbEntity
8
1
100
AcDbCircle
6
CONTINUOUS
62
5
10
92.300000
20
-137.250016
40
1.000000
100
AcDbArc
50
0.000000
51
89.999999
0
LINE
5
31e
100
AcDbEntity
8
1
100
AcDbLine
6
CONTINUOUS
62
5
10
92.300000
20
-136.250016
11
92.300000
21
-136.250016
0
ARC
5
31f
100
AcDbEntity
8
1
100
AcDbCircle
6
CONTINUOUS
62
5
10
92.300000
20
-137.250016
40
1.000000
100
AcDbArc
50
89.999999
51
179.999998
0
LINE
5
320
100
AcDbEntity
8
1
100
AcDbLine
6
CONTINUOUS
62
5
10
91.300000
20
-137.250016
11
91.300000
21
-154.500000
0
LINE
5
321
100
AcDbEntity
8
1
100
AcDbLine
6
CONTINUOUS
62
5
10
93.300000
20
-142.750014
11
93.300000
21
-137.250016
0
ARC
5
322
100
AcDbEntity
8
1
100
AcDbCircle
6
CONTINUOUS
62
5
10
93.600000
20
-152.500000
40
0.500000
100
AcDbArc
50
179.999998
51
-89.999999
0
LINE
5
323
100
AcDbEntity
8
1
100
AcDbLine
6
CONTINUOUS
62
5
10
93.600000
20
-153.000000
11
98.900000
21
-153.000000
0
ARC
5
324
100
AcDbEntity
8
1
100
AcDbCircle
6
CONTINUOUS
62
5
10
98.900000
20
-154.000000
40
1.000000
100
AcDbArc
50
0.000000
51
89.999999
0
LINE
5
325
100
AcDbEntity
8
1
100
AcDbLine
6
CONTINUOUS
62
5
10
99.900000
20
-154.000000
11
99.900000
21
-158.035786
0
ARC
5
326
100
AcDbEntity
8
1
100
AcDbCircle
6
CONTINUOUS
62
5
10
98.900000
20
-158.035786
40
1.000000
100
AcDbArc
50
-45.000000
51
0.000000
0
LINE
5
327
100
AcDbEntity
8
1
100
AcDbLine
6
CONTINUOUS
62
5
10
99.607107
20
-158.742893
11
99.412132
21
-158.937868
0
ARC
5
328
100
AcDbEntity
8
1
100
AcDbCircle
6
CONTINUOUS
62
5
10
93.800000
20
-143.239912
40
0.700000
100
AcDbArc
50
135.584690
51
-179.999998
0
LINE
5
329
100
AcDbEntity
8
1
100
AcDbLine
6
CONTINUOUS
62
5
10
93.100000
20
-143.239912
11
93.100000
21
-144.594063
0
LINE
5
32a
100
AcDbEntity
8
1
100
AcDbLine
6
CONTINUOUS
62
5
10
93.100000
20
-147.314311
11
93.100000
21
-152.500000
0
ARC
5
32b
100
AcDbEntity
8
1
100
AcDbCircle
6
CONTINUOUS
62
5
10
77.800000
20
-135.750016
40
0.500000
100
AcDbArc
50
179.999998
51
-89.999999
0
LINE
5
32c
100
AcDbEntity
8
1
100
AcDbLine
6
CONTINUOUS
62
5
10
77.300000
20
-142.750014
11
77.300000
21
-135.750016
0
LINE
5
32d
100
AcDbEntity
8
1
100
AcDbLine
6
CONTINUOUS
62
5
10
79.300000
20
-136.250016
11
79.300000
21
-142.750014
0
LINE
5
32e
100
AcDbEntity
8
1
100
AcDbLine
6
CONTINUOUS
62
5
10
75.800000
20
-134.000000
11
77.300000
21
-135.500000
0
ARC
5
32f
100
AcDbEntity
8
1
100
AcDbCircle
6
CONTINUOUS
62
5
10
65.250000
20
-144.100000
40
0.100000
100
AcDbArc
50
0.000000
51
89.999999
0
ARC
5
330
100
AcDbEntity
8
1
100
AcDbCircle
6
CONTINUOUS
62
5
10
63.600000
20
-134.500000
40
0.500000
100
AcDbArc
50
89.999999
51
179.999998
0
LINE
5
331
100
AcDbEntity
8
1
100
AcDbLine
6
CONTINUOUS
62
5
10
63.100000
20
-134.500000
11
63.100000
21
-136.550000
0
ARC
5
332
100
AcDbEntity
8
1
100
AcDbCircle
6
CONTINUOUS
62
5
10
62.800000
20
-136.550000
40
0.300000
100
AcDbArc
50
-89.999999
51
-0.000000
0
POLYLINE
5
333
100
AcDbEntity
8
1
6
CONTINUOUS
62
5
100
AcDb2dPolyline
66
1
10
0.0
20
0.0
30
0.0
70
0
0
VERTEX
5
334
100
AcDbEntity
8
1
100
AcDbVertex
100
AcDb2dVertex
62
5
10
62.800000
20
-136.850000
0
VERTEX
5
335
100
AcDbEntity
8
1
100
AcDbVertex
100
AcDb2dVertex
62
5
10
62.800000
20
-136.850000
0
VERTEX
5
336
100
AcDbEntity
8
1
100
AcDbVertex
100
AcDb2dVertex
62
5
10
62.800000
20
-138.500000
0
SEQEND
5
337
100
AcDbEntity
8
1
0
ARC
5
338
100
AcDbEntity
8
1
100
AcDbCircle
6
CONTINUOUS
62
5
10
63.300000
20
-138.500000
40
0.500000
100
AcDbArc
50
179.999998
51
-89.999999
0
LINE
5
339
100
AcDbEntity
8
1
100
AcDbLine
6
CONTINUOUS
62
5
10
63.300000
20
-139.000000
11
65.400000
21
-139.000000
0
LINE
5
33a
100
AcDbEntity
8
1
100
AcDbLine
6
CONTINUOUS
62
5
10
72.751361
20
-134.000000
11
63.600000
21
-134.000000
0
ARC
5
33b
100
AcDbEntity
8
1
100
AcDbCircle
6
CONTINUOUS
62
5
10
63.100000
20
-145.200000
40
0.800000
100
AcDbArc
50
-89.999999
51
0.000000
0
LINE
5
33c
100
AcDbEntity
8
1
100
AcDbLine
6
CONTINUOUS
62
5
10
63.900000
20
-145.200000
11
63.900000
21
-144.000000
0
LINE
5
33d
100
AcDbEntity
8
1
100
AcDbLine
6
CONTINUOUS
62
5
10
62.300000
20
-144.267949
11
62.300000
21
-145.200000
0
ARC
5
33e
100
AcDbEntity
8
1
100
AcDbCircle
6
CONTINUOUS
62
5
10
63.100000
20
-145.200000
40
0.800000
100
AcDbArc
50
179.999998
51
-89.999999
0
LINE
5
33f
100
AcDbEntity
8
1
100
AcDbLine
6
CONTINUOUS
62
5
10
63.100000
20
-146.000000
11
63.100000
21
-146.000000
0
LINE
5
340
100
AcDbEntity
8
1
100
AcDbLine
6
CONTINUOUS
62
5
10
65.900000
20
-142.750014
11
73.300000
21
-142.750014
0
CIRCLE
5
341
100
AcDbEntity
8
1
100
AcDbCircle
6
CONTINUOUS
62
5
10
71.800000
20
-145.900000
40
1.900000
0
POLYLINE
5
342
100
AcDbEntity
8
1
6
CONTINUOUS
62
5
100
AcDb2dPolyline
66
1
10
0.0
20
0.0
30
0.0
70
0
0
VERTEX
5
343
100
AcDbEntity
8
1
100
AcDbVertex
100
AcDb2dVertex
62
5
10
72.751361
20
-134.000000
0
VERTEX
5
344
100
AcDbEntity
8
1
100
AcDbVertex
100
AcDb2dVertex
62
5
10
77.300000
20
-134.000000
0
VERTEX
5
345
100
AcDbEntity
8
1
100
AcDbVertex
100
AcDb2dVertex
62
5
10
77.300000
20
-135.750016
0
SEQEND
5
346
100
AcDbEntity
8
1
0
LINE
5
347
100
AcDbEntity
8
1
100
AcDbLine
6
CONTINUOUS
62
5
10
78.800000
20
-153.800000
11
78.800000
21
-155.200000
0
LINE
5
348
100
AcDbEntity
8
1
100
AcDbLine
6
CONTINUOUS
62
5
10
74.800000
20
-155.150000
11
74.800000
21
-155.400000
0
LINE
5
349
100
AcDbEntity
8
1
100
AcDbLine
6
CONTINUOUS
62
5
10
76.279305
20
-155.150000
11
74.276970
21
-155.150000
0
ARC
5
34a
100
AcDbEntity
8
1
100
AcDbCircle
6
CONTINUOUS
62
5
10
74.996316
20
-153.289699
40
1.400000
100
AcDbArc
50
-59.825734
51
-21.376855
0
ARC
5
34b
100
AcDbEntity
8
1
100
AcDbCircle
6
CONTINUOUS
62
5
10
74.996316
20
-155.710301
40
1.400000
100
AcDbArc
50
21.376855
51
59.825734
0
ARC
5
34c
100
AcDbEntity
8
1
100
AcDbCircle
6
CONTINUOUS
62
5
10
21.200000
20
-163.150000
40
40.000000
100
AcDbArc
50
-2.190679
51
2.190679
0
ARC
5
34d
100
AcDbEntity
8
1
100
AcDbCircle
6
CONTINUOUS
62
5
10
61.070839
20
-164.675187
40
0.100000
100
AcDbArc
50
-86.999999
51
-2.190679
0
LINE
5
34e
100
AcDbEntity
8
1
100
AcDbLine
6
CONTINUOUS
62
5
10
61.076073
20
-164.775050
11
60.694766
21
-164.795034
0
ARC
5
34f
100
AcDbEntity
8
1
100
AcDbCircle
6
CONTINUOUS
62
5
10
60.700000
20
-164.894896
40
0.100000
100
AcDbArc
50
92.999999
51
179.999998
0
LINE
5
350
100
AcDbEntity
8
1
100
AcDbLine
6
CONTINUOUS
62
5
10
60.600000
20
-164.894896
11
60.600000
21
-164.900000
0
LINE
5
351
100
AcDbEntity
8
1
100
AcDbLine
6
CONTINUOUS
62
5
10
60.600000
20
-161.400000
11
60.600000
21
-161.405104
0
ARC
5
352
100
AcDbEntity
8
1
100
AcDbCircle
6
CONTINUOUS
62
5
10
60.700000
20
-161.405104
40
0.100000
100
AcDbArc
50
179.999998
51
-92.999999
0
LINE
5
353
100
AcDbEntity
8
1
100
AcDbLine
6
CONTINUOUS
62
5
10
60.694766
20
-161.504966
11
61.076073
21
-161.524950
0
ARC
5
354
100
AcDbEntity
8
1
100
AcDbCircle
6
CONTINUOUS
62
5
10
61.070839
20
-161.624813
40
0.100000
100
AcDbArc
50
2.190679
51
86.999999
0
LINE
5
355
100
AcDbEntity
8
1
100
AcDbLine
6
CONTINUOUS
62
5
10
61.400000
20
-164.800000
11
60.700000
21
-164.800000
0
LINE
5
356
100
AcDbEntity
8
1
100
AcDbLine
6
CONTINUOUS
62
5
10
62.000000
20
-152.200000
11
62.000000
21
-150.500000
0
LINE
5
357
100
AcDbEntity
8
1
100
AcDbLine
6
CONTINUOUS
62
5
10
62.000000
20
-158.700000
11
62.000000
21
-155.000000
0
LINE
5
358
100
AcDbEntity
8
1
100
AcDbLine
6
CONTINUOUS
62
5
10
62.000000
20
-158.750000
11
62.000000
21
-160.423607
0
ARC
5
359
100
AcDbEntity
8
1
100
AcDbCircle
6
CONTINUOUS
62
5
10
60.700000
20
-158.600000
40
0.100000
100
AcDbArc
50
179.999998
51
-89.999999
0
LINE
5
35a
100
AcDbEntity
8
1
100
AcDbLine
6
CONTINUOUS
62
5
10
62.000000
20
-152.200000
11
62.000000
21
-154.942681
0
ARC
5
35b
100
AcDbEntity
8
1
100
AcDbCircle
6
CONTINUOUS
62
5
10
69.300000
20
-151.000000
40
0.500000
100
AcDbArc
50
89.999999
51
179.999998
0
LINE
5
35c
100
AcDbEntity
8
1
100
AcDbLine
6
CONTINUOUS
62
5
10
68.800000
20
-151.000000
11
68.800000
21
-152.500000
0
ARC
5
35d
100
AcDbEntity
8
1
100
AcDbCircle
6
CONTINUOUS
62
5
10
69.300000
20
-152.500000
40
0.500000
100
AcDbArc
50
179.999998
51
-89.999999
0
LINE
5
35e
100
AcDbEntity
8
1
100
AcDbLine
6
CONTINUOUS
62
5
10
69.300000
20
-153.000000
11
72.300000
21
-153.000000
0
ARC
5
35f
100
AcDbEntity
8
1
100
AcDbCircle
6
CONTINUOUS
62
5
10
72.300000
20
-152.500000
40
0.500000
100
AcDbArc
50
-89.999999
51
0.000000
0
LINE
5
360
100
AcDbEntity
8
1
100
AcDbLine
6
CONTINUOUS
62
5
10
72.800000
20
-152.500000
11
72.800000
21
-151.000000
0
ARC
5
361
100
AcDbEntity
8
1
100
AcDbCircle
6
CONTINUOUS
62
5
10
72.300000
20
-151.000000
40
0.500000
100
AcDbArc
50
0.000000
51
89.999999
0
LINE
5
362
100
AcDbEntity
8
1
100
AcDbLine
6
CONTINUOUS
62
5
10
72.300000
20
-150.500000
11
69.300000
21
-150.500000
0
LINE
5
363
100
AcDbEntity
8
1
100
AcDbLine
6
CONTINUOUS
62
5
10
60.600000
20
-153.200000
11
62.000000
21
-153.200000
0
ARC
5
364
100
AcDbEntity
8
1
100
AcDbCircle
6
CONTINUOUS
62
5
10
60.700000
20
-152.100000
40
0.100000
100
AcDbArc
50
179.999998
51
-89.999999
0
LINE
5
365
100
AcDbEntity
8
1
100
AcDbLine
6
CONTINUOUS
62
5
10
60.600000
20
-152.100000
11
60.600000
21
-151.938501
0
LINE
5
366
100
AcDbEntity
8
1
100
AcDbLine
6
CONTINUOUS
62
5
10
60.600000
20
-155.647765
11
60.600000
21
-155.100000
0
ARC
5
367
100
AcDbEntity
8
1
100
AcDbCircle
6
CONTINUOUS
62
5
10
60.700000
20
-155.100000
40
0.100000
100
AcDbArc
50
89.999999
51
179.999998
0
POLYLINE
5
368
100
AcDbEntity
8
1
6
CONTINUOUS
62
5
100
AcDb2dPolyline
66
1
10
0.0
20
0.0
30
0.0
70
0
0
VERTEX
5
369
100
AcDbEntity
8
1
100
AcDbVertex
100
AcDb2dVertex
62
5
10
60.700000
20
-155.000000
0
VERTEX
5
36a
100
AcDbEntity
8
1
100
AcDbVertex
100
AcDb2dVertex
62
5
10
62.100000
20
-155.000000
0
VERTEX
5
36b
100
AcDbEntity
8
1
100
AcDbVertex
100
AcDb2dVertex
62
5
10
62.100000
20
-152.200000
0
VERTEX
5
36c
100
AcDbEntity
8
1
100
AcDbVertex
100
AcDb2dVertex
62
5
10
60.700000
20
-152.200000
0
SEQEND
5
36d
100
AcDbEntity
8
1
0
POLYLINE
5
36e
100
AcDbEntity
8
1
6
CONTINUOUS
62
5
100
AcDb2dPolyline
66
1
10
0.0
20
0.0
30
0.0
70
0
0
VERTEX
5
36f
100
AcDbEntity
8
1
100
AcDbVertex
100
AcDb2dVertex
62
5
10
60.600000
20
-154.250000
0
VERTEX
5
370
100
AcDbEntity
8
1
100
AcDbVertex
100
AcDb2dVertex
62
5
10
60.900000
20
-154.500000
0
VERTEX
5
371
100
AcDbEntity
8
1
100
AcDbVertex
100
AcDb2dVertex
62
5
10
60.600000
20
-154.750000
0
SEQEND
5
372
100
AcDbEntity
8
1
0
ARC
5
373
100
AcDbEntity
8
1
100
AcDbCircle
6
CONTINUOUS
62
5
10
62.250000
20
-167.000000
40
1.000000
100
AcDbArc
50
161.384857
51
-161.384857
0
LINE
5
374
100
AcDbEntity
8
1
100
AcDbLine
6
CONTINUOUS
62
5
10
61.400000
20
-169.200000
11
60.700000
21
-169.200000
0
ARC
5
375
100
AcDbEntity
8
1
100
AcDbCircle
6
CONTINUOUS
62
5
10
62.250000
20
-167.000000
40
1.250000
100
AcDbArc
50
138.370695
51
-138.370695
0
ARC
5
376
100
AcDbEntity
8
1
100
AcDbCircle
6
CONTINUOUS
62
5
10
73.900000
20
-155.000000
40
0.400000
100
AcDbArc
50
-89.999999
51
0.000000
0
LINE
5
377
100
AcDbEntity
8
1
100
AcDbLine
6
CONTINUOUS
62
5
10
73.900000
20
-155.400000
11
71.840816
21
-155.400000
0
LINE
5
378
100
AcDbEntity
8
1
100
AcDbLine
6
CONTINUOUS
62
5
10
75.700000
20
-154.500000
11
74.800000
21
-154.500000
0
ARC
5
379
100
AcDbEntity
8
1
100
AcDbCircle
6
CONTINUOUS
62
5
10
74.800000
20
-155.000000
40
0.500000
100
AcDbArc
50
89.999999
51
179.999998
0
LINE
5
37a
100
AcDbEntity
8
1
100
AcDbLine
6
CONTINUOUS
62
5
10
74.300000
20
-155.000000
11
74.300000
21
-155.000000
0
ARC
5
37b
100
AcDbEntity
8
1
100
AcDbCircle
6
CONTINUOUS
62
5
10
63.299900
20
-148.980046
40
2.000000
100
AcDbArc
50
-179.428362
51
-130.537848
0
ARC
5
37c
100
AcDbEntity
8
1
100
AcDbCircle
6
CONTINUOUS
62
5
10
63.000000
20
-147.500000
40
1.500000
100
AcDbArc
50
-131.810314
51
-89.999999
0
ARC
5
37d
100
AcDbEntity
8
1
100
AcDbCircle
6
CONTINUOUS
62
5
10
63.200000
20
-147.500000
40
1.500000
100
AcDbArc
50
-89.999999
51
-19.471220
0
LINE
5
37e
100
AcDbEntity
8
1
100
AcDbLine
6
CONTINUOUS
62
5
10
63.200000
20
-149.000000
11
63.000000
21
-149.000000
0
ARC
5
37f
100
AcDbEntity
8
1
100
AcDbCircle
6
CONTINUOUS
62
5
10
62.599900
20
-150.519954
40
2.000000
100
AcDbArc
50
130.537848
51
179.428362
0
LINE
5
380
100
AcDbEntity
8
1
100
AcDbLine
6
CONTINUOUS
62
5
10
62.000000
20
-144.879019
11
62.000000
21
-150.187924
0
ARC
5
381
100
AcDbEntity
8
1
100
AcDbCircle
6
CONTINUOUS
62
5
10
74.300000
20
-137.250016
40
1.000000
100
AcDbArc
50
89.999999
51
179.999998
0
LINE
5
382
100
AcDbEntity
8
1
100
AcDbLine
6
CONTINUOUS
62
5
10
74.300000
20
-136.250016
11
74.300000
21
-136.250016
0
ARC
5
383
100
AcDbEntity
8
1
100
AcDbCircle
6
CONTINUOUS
62
5
10
74.300000
20
-137.250016
40
1.000000
100
AcDbArc
50
0.000000
51
89.999999
0
LINE
5
384
100
AcDbEntity
8
1
100
AcDbLine
6
CONTINUOUS
62
5
10
75.300000
20
-137.250016
11
75.300000
21
-154.500000
0
LINE
5
385
100
AcDbEntity
8
1
100
AcDbLine
6
CONTINUOUS
62
5
10
73.300000
20
-142.750014
11
73.300000
21
-137.250016
0
ARC
5
386
100
AcDbEntity
8
1
100
AcDbCircle
6
CONTINUOUS
62
5
10
73.000000
20
-152.500000
40
0.500000
100
AcDbArc
50
-89.999999
51
0.000000
0
LINE
5
387
100
AcDbEntity
8
1
100
AcDbLine
6
CONTINUOUS
62
5
10
73.000000
20
-153.000000
11
68.900000
21
-153.000000
0
ARC
5
388
100
AcDbEntity
8
1
100
AcDbCircle
6
CONTINUOUS
62
5
10
68.900000
20
-154.000000
40
1.000000
100
AcDbArc
50
89.999999
51
179.999998
0
LINE
5
389
100
AcDbEntity
8
1
100
AcDbLine
6
CONTINUOUS
62
5
10
67.900000
20
-154.000000
11
67.900000
21
-158.850000
0
ARC
5
38a
100
AcDbEntity
8
1
100
AcDbCircle
6
CONTINUOUS
62
5
10
72.800000
20
-143.239912
40
0.700000
100
AcDbArc
50
-0.000000
51
44.415308
0
LINE
5
38b
100
AcDbEntity
8
1
100
AcDbLine
6
CONTINUOUS
62
5
10
73.500000
20
-143.239912
11
73.500000
21
-144.382610
0
LINE
5
38c
100
AcDbEntity
8
1
100
AcDbLine
6
CONTINUOUS
62
5
10
73.500000
20
-147.287890
11
73.500000
21
-152.500000
0
LINE
5
38d
100
AcDbEntity
8
1
100
AcDbLine
6
CONTINUOUS
62
5
10
77.800000
20
-136.250016
11
88.800000
21
-136.250016
0
LINE
5
38e
100
AcDbEntity
8
1
100
AcDbLine
6
CONTINUOUS
62
5
10
77.300000
20
-142.750014
11
89.300000
21
-142.750014
0
ARC
5
38f
100
AcDbEntity
8
1
100
AcDbCircle
6
CONTINUOUS
62
5
10
87.300000
20
-153.500000
40
0.500000
100
AcDbArc
50
0.000000
51
89.999999
0
LINE
5
390
100
AcDbEntity
8
1
100
AcDbLine
6
CONTINUOUS
62
5
10
87.300000
20
-153.000000
11
79.300000
21
-153.000000
0
ARC
5
391
100
AcDbEntity
8
1
100
AcDbCircle
6
CONTINUOUS
62
5
10
79.300000
20
-153.500000
40
0.500000
100
AcDbArc
50
89.999999
51
179.999998
0
LINE
5
392
100
AcDbEntity
8
1
100
AcDbLine
6
CONTINUOUS
62
5
10
78.800000
20
-153.500000
11
78.800000
21
-153.800000
0
LINE
5
393
100
AcDbEntity
8
1
100
AcDbLine
6
CONTINUOUS
62
5
10
87.800000
20
-153.800000
11
87.800000
21
-153.500000
0
LINE
5
394
100
AcDbEntity
8
1
100
AcDbLine
6
CONTINUOUS
62
5
10
83.300000
20
-155.400000
11
74.100000
21
-155.400000
0
POLYLINE
5
395
100
AcDbEntity
8
1
6
CONTINUOUS
62
5
100
AcDb2dPolyline
66
1
10
0.0
20
0.0
30
0.0
70
1
0
VERTEX
5
396
100
AcDbEntity
8
1
100
AcDbVertex
100
AcDb2dVertex
62
5
10
76.300000
20
-153.800000
0
VERTEX
5
397
100
AcDbEntity
8
1
100
AcDbVertex
100
AcDb2dVertex
62
5
10
90.300000
20
-153.800000
0
VERTEX
5
398
100
AcDbEntity
8
1
100
AcDbVertex
100
AcDb2dVertex
62
5
10
90.300000
20
-155.200000
0
VERTEX
5
399
100
AcDbEntity
8
1
100
AcDbVertex
100
AcDb2dVertex
62
5
10
76.300000
20
-155.200000
0
SEQEND
5
39a
100
AcDbEntity
8
1
0
ARC
5
39b
100
AcDbEntity
8
1
100
AcDbCircle
6
CONTINUOUS
62
5
10
81.300000
20
-148.297932
40
2.500000
100
AcDbArc
50
92.746032
51
-87.254240
0
ARC
5
39c
100
AcDbEntity
8
1
100
AcDbCircle
6
CONTINUOUS
62
5
10
83.299912
20
-189.993995
40
44.243998
100
AcDbArc
50
84.484001
51
92.746032
0
ARC
5
39d
100
AcDbEntity
8
1
100
AcDbCircle
6
CONTINUOUS
62
5
10
87.300000
20
-148.442059
40
2.500000
100
AcDbArc
50
-95.497848
51
84.196157
0
ARC
5
39e
100
AcDbEntity
8
1
100
AcDbCircle
6
CONTINUOUS
62
5
10
83.300000
20
-190.000000
40
39.250000
100
AcDbArc
50
84.502150
51
92.745758
0
ARC
5
39f
100
AcDbEntity
8
1
100
AcDbCircle
6
CONTINUOUS
62
5
10
81.300000
20
-148.297932
40
3.000000
100
AcDbArc
50
92.745758
51
-87.254240
0
ARC
5
3a0
100
AcDbEntity
8
1
100
AcDbCircle
6
CONTINUOUS
62
5
10
83.300000
20
-190.000000
40
44.750000
100
AcDbArc
50
84.502150
51
92.745758
0
ARC
5
3a1
100
AcDbEntity
8
1
100
AcDbCircle
6
CONTINUOUS
62
5
10
87.300000
20
-148.442059
40
3.000000
100
AcDbArc
50
-95.497848
51
84.502150
0
ARC
5
3a2
100
AcDbEntity
8
1
100
AcDbCircle
6
CONTINUOUS
62
5
10
83.300000
20
-190.000000
40
38.750000
100
AcDbArc
50
84.502150
51
92.745758
0
ARC
5
3a3
100
AcDbEntity
8
1
100
AcDbCircle
6
CONTINUOUS
62
5
10
97.300000
20
-154.700000
40
1.000000
100
AcDbArc
50
-89.999999
51
-44.427004
0
LINE
5
3a4
100
AcDbEntity
8
1
100
AcDbLine
6
CONTINUOUS
62
5
10
97.300000
20
-155.700000
11
70.300000
21
-155.700000
0
ARC
5
3a5
100
AcDbEntity
8
1
100
AcDbCircle
6
CONTINUOUS
62
5
10
70.300000
20
-154.700000
40
1.000000
100
AcDbArc
50
-134.699476
51
-89.999999
0
LINE
5
3a6
100
AcDbEntity
8
1
100
AcDbLine
6
CONTINUOUS
62
5
10
60.600000
20
-149.094780
11
60.600000
21
-107.000000
0
LINE
5
3a7
100
AcDbEntity
8
1
100
AcDbLine
6
CONTINUOUS
62
5
10
109.100000
20
-134.750000
11
109.100000
21
-107.000000
0
POLYLINE
5
3a8
100
AcDbEntity
8
1
6
CONTINUOUS
62
5
100
AcDb2dPolyline
66
1
10
0.0
20
0.0
30
0.0
70
0
0
VERTEX
5
3a9
100
AcDbEntity
8
1
100
AcDbVertex
100
AcDb2dVertex
62
5
10
84.850000
20
-109.000000
0
VERTEX
5
3aa
100
AcDbEntity
8
1
100
AcDbVertex
100
AcDb2dVertex
62
5
10
60.600000
20
-109.000000
0
VERTEX
5
3ab
100
AcDbEntity
8
1
100
AcDbVertex
100
AcDb2dVertex
62
5
10
66.600000
20
-108.000000
0
VERTEX
5
3ac
100
AcDbEntity
8
1
100
AcDbVertex
100
AcDb2dVertex
62
5
10
66.600000
20
-110.000000
0
VERTEX
5
3ad
100
AcDbEntity
8
1
100
AcDbVertex
100
AcDb2dVertex
62
5
10
60.600000
20
-109.000000
0
VERTEX
5
3ae
100
AcDbEntity
8
1
100
AcDbVertex
100
AcDb2dVertex
62
5
10
66.600000
20
-108.500000
0
VERTEX
5
3af
100
AcDbEntity
8
1
100
AcDbVertex
100
AcDb2dVertex
62
5
10
66.600000
20
-109.500000
0
VERTEX
5
3b0
100
AcDbEntity
8
1
100
AcDbVertex
100
AcDb2dVertex
62
5
10
60.600000
20
-109.000000
0
SEQEND
5
3b1
100
AcDbEntity
8
1
0
POLYLINE
5
3b2
100
AcDbEntity
8
1
6
CONTINUOUS
62
5
100
AcDb2dPolyline
66
1
10
0.0
20
0.0
30
0.0
70
0
0
VERTEX
5
3b3
100
AcDbEntity
8
1
100
AcDbVertex
100
AcDb2dVertex
62
5
10
84.850000
20
-109.000000
0
VERTEX
5
3b4
100
AcDbEntity
8
1
100
AcDbVertex
100
AcDb2dVertex
62
5
10
109.100000
20
-109.000000
0
VERTEX
5
3b5
100
AcDbEntity
8
1
100
AcDbVertex
100
AcDb2dVertex
62
5
10
103.100000
20
-110.000000
0
VERTEX
5
3b6
100
AcDbEntity
8
1
100
AcDbVertex
100
AcDb2dVertex
62
5
10
103.100000
20
-108.000000
0
VERTEX
5
3b7
100
AcDbEntity
8
1
100
AcDbVertex
100
AcDb2dVertex
62
5
10
109.100000
20
-109.000000
0
VERTEX
5
3b8
100
AcDbEntity
8
1
100
AcDbVertex
100
AcDb2dVertex
62
5
10
103.100000
20
-109.500000
0
VERTEX
5
3b9
100
AcDbEntity
8
1
100
AcDbVertex
100
AcDb2dVertex
62
5
10
103.100000
20
-108.500000
0
VERTEX
5
3ba
100
AcDbEntity
8
1
100
AcDbVertex
100
AcDb2dVertex
62
5
10
109.100000
20
-109.000000
0
SEQEND
5
3bb
100
AcDbEntity
8
1
0
LINE
5
3bc
100
AcDbEntity
8
1
100
AcDbLine
6
CONTINUOUS
62
5
10
-40.000000
20
-32.000000
11
280.000000
21
-32.000000
0
LINE
5
3bd
100
AcDbEntity
8
1
100
AcDbLine
6
CONTINUOUS
62
5
10
-40.000000
20
-32.000000
11
280.000000
21
-32.000000
0
LINE
5
3be
100
AcDbEntity
8
1
100
AcDbLine
6
CONTINUOUS
62
5
10
177.200000
20
-182.000000
11
177.200000
21
-186.000000
0
LINE
5
3bf
100
AcDbEntity
8
1
100
AcDbLine
6
CONTINUOUS
62
5
10
177.200000
20
-171.000000
11
177.200000
21
-175.000000
0
ARC
5
3c0
100
AcDbEntity
8
1
100
AcDbCircle
6
CONTINUOUS
62
5
10
176.850000
20
-182.000000
40
0.200000
100
AcDbArc
50
0.000000
51
89.999999
0
ARC
5
3c1
100
AcDbEntity
8
1
100
AcDbCircle
6
CONTINUOUS
62
5
10
177.000000
20
-182.000000
40
0.200000
100
AcDbArc
50
0.000000
51
89.999999
0
LINE
5
3c2
100
AcDbEntity
8
1
100
AcDbLine
6
CONTINUOUS
62
5
10
177.050000
20
-182.000000
11
177.050000
21
-186.000000
0
POLYLINE
5
3c3
100
AcDbEntity
8
1
6
CONTINUOUS
62
5
100
AcDb2dPolyline
66
1
10
0.0
20
0.0
30
0.0
70
0
0
VERTEX
5
3c4
100
AcDbEntity
8
1
100
AcDbVertex
100
AcDb2dVertex
62
5
10
177.000000
20
-181.800000
0
VERTEX
5
3c5
100
AcDbEntity
8
1
100
AcDbVertex
100
AcDb2dVertex
62
5
10
176.600000
20
-181.800000
0
VERTEX
5
3c6
100
AcDbEntity
8
1
100
AcDbVertex
100
AcDb2dVertex
62
5
10
176.600000
20
-181.700000
0
SEQEND
5
3c7
100
AcDbEntity
8
1
0
LINE
5
3c8
100
AcDbEntity
8
1
100
AcDbLine
6
CONTINUOUS
62
5
10
176.600000
20
-181.800000
11
176.600000
21
-186.000000
0
LINE
5
3c9
100
AcDbEntity
8
1
100
AcDbLine
6
CONTINUOUS
62
5
10
175.687512
20
-190.000000
11
177.400000
21
-190.000000
0
ARC
5
3ca
100
AcDbEntity
8
1
100
AcDbCircle
6
CONTINUOUS
62
5
10
176.850000
20
-175.000000
40
0.200000
100
AcDbArc
50
-89.999999
51
0.000000
0
ARC
5
3cb
100
AcDbEntity
8
1
100
AcDbCircle
6
CONTINUOUS
62
5
10
177.000000
20
-175.000000
40
0.200000
100
AcDbArc
50
-89.999999
51
0.000000
0
LINE
5
3cc
100
AcDbEntity
8
1
100
AcDbLine
6
CONTINUOUS
62
5
10
177.050000
20
-171.000000
11
177.050000
21
-175.000000
0
POLYLINE
5
3cd
100
AcDbEntity
8
1
6
CONTINUOUS
62
5
100
AcDb2dPolyline
66
1
10
0.0
20
0.0
30
0.0
70
0
0
VERTEX
5
3ce
100
AcDbEntity
8
1
100
AcDbVertex
100
AcDb2dVertex
62
5
10
177.000000
20
-175.200000
0
VERTEX
5
3cf
100
AcDbEntity
8
1
100
AcDbVertex
100
AcDb2dVertex
62
5
10
176.600000
20
-175.200000
0
VERTEX
5
3d0
100
AcDbEntity
8
1
100
AcDbVertex
100
AcDb2dVertex
62
5
10
176.600000
20
-175.300000
0
SEQEND
5
3d1
100
AcDbEntity
8
1
0
LINE
5
3d2
100
AcDbEntity
8
1
100
AcDbLine
6
CONTINUOUS
62
5
10
176.600000
20
-171.000000
11
176.600000
21
-175.200000
0
LINE
5
3d3
100
AcDbEntity
8
1
100
AcDbLine
6
CONTINUOUS
62
5
10
165.500000
20
-186.000000
11
164.200000
21
-186.000000
0
LINE
5
3d4
100
AcDbEntity
8
1
100
AcDbLine
6
CONTINUOUS
62
5
10
165.500000
20
-172.128220
11
164.200000
21
-172.128220
0
LINE
5
3d5
100
AcDbEntity
8
1
100
AcDbLine
6
CONTINUOUS
62
5
10
165.500000
20
-171.000000
11
164.200000
21
-171.000000
0
LINE
5
3d6
100
AcDbEntity
8
1
100
AcDbLine
6
CONTINUOUS
62
5
10
165.500000
20
-173.871780
11
164.200000
21
-173.871780
0
ARC
5
3d7
100
AcDbEntity
8
1
100
AcDbCircle
6
CONTINUOUS
62
5
10
164.200000
20
-181.600000
40
0.100000
100
AcDbArc
50
179.999998
51
-89.999999
0
ARC
5
3d8
100
AcDbEntity
8
1
100
AcDbCircle
6
CONTINUOUS
62
5
10
164.200000
20
-185.900000
40
0.100000
100
AcDbArc
50
179.999998
51
-89.999999
0
ARC
5
3d9
100
AcDbEntity
8
1
100
AcDbCircle
6
CONTINUOUS
62
5
10
164.200000
20
-172.228220
40
0.100000
100
AcDbArc
50
89.999999
51
179.999998
0
ARC
5
3da
100
AcDbEntity
8
1
100
AcDbCircle
6
CONTINUOUS
62
5
10
164.200000
20
-171.100000
40
0.100000
100
AcDbArc
50
89.999999
51
179.999998
0
ARC
5
3db
100
AcDbEntity
8
1
100
AcDbCircle
6
CONTINUOUS
62
5
10
164.200000
20
-173.771780
40
0.100000
100
AcDbArc
50
179.999998
51
-89.999999
0
ARC
5
3dc
100
AcDbEntity
8
1
100
AcDbCircle
6
CONTINUOUS
62
5
10
164.200000
20
-175.400000
40
0.100000
100
AcDbArc
50
89.999999
51
179.999998
0
LINE
5
3dd
100
AcDbEntity
8
1
100
AcDbLine
6
CONTINUOUS
62
5
10
170.200000
20
-182.500000
11
170.200000
21
-185.363487
0
LINE
5
3de
100
AcDbEntity
8
1
100
AcDbLine
6
CONTINUOUS
62
5
10
168.700000
20
-185.299523
11
168.700000
21
-182.500000
0
ARC
5
3df
100
AcDbEntity
8
1
100
AcDbCircle
6
CONTINUOUS
62
5
10
167.800000
20
-182.800000
40
0.300000
100
AcDbArc
50
89.999999
51
179.999998
0
LINE
5
3e0
100
AcDbEntity
8
1
100
AcDbLine
6
CONTINUOUS
62
5
10
167.800000
20
-182.500000
11
170.805860
21
-182.500000
0
POLYLINE
5
3e1
100
AcDbEntity
8
1
6
CONTINUOUS
62
5
100
AcDb2dPolyline
66
1
10
0.0
20
0.0
30
0.0
70
0
0
VERTEX
5
3e2
100
AcDbEntity
8
1
100
AcDbVertex
100
AcDb2dVertex
62
5
10
167.400000
20
-184.800000
0
VERTEX
5
3e3
100
AcDbEntity
8
1
100
AcDbVertex
100
AcDb2dVertex
62
5
10
167.500000
20
-184.800000
0
VERTEX
5
3e4
100
AcDbEntity
8
1
100
AcDbVertex
100
AcDb2dVertex
62
5
10
167.500000
20
-182.800000
0
SEQEND
5
3e5
100
AcDbEntity
8
1
0
LINE
5
3e6
100
AcDbEntity
8
1
100
AcDbLine
6
CONTINUOUS
62
5
10
166.550000
20
-184.804196
11
166.550000
21
-181.700000
0
ARC
5
3e7
100
AcDbEntity
8
1
100
AcDbCircle
6
CONTINUOUS
62
5
10
166.790000
20
-185.100000
40
0.300000
100
AcDbArc
50
89.999999
51
179.999998
0
ARC
5
3e8
100
AcDbEntity
8
1
100
AcDbCircle
6
CONTINUOUS
62
5
10
166.600000
20
-185.100000
40
0.300000
100
AcDbArc
50
89.999999
51
179.999998
0
LINE
5
3e9
100
AcDbEntity
8
1
100
AcDbLine
6
CONTINUOUS
62
5
10
166.300000
20
-185.100000
11
166.300000
21
-185.096913
0
LINE
5
3ea
100
AcDbEntity
8
1
100
AcDbLine
6
CONTINUOUS
62
5
10
167.400000
20
-184.800000
11
166.600000
21
-184.800000
0
LINE
5
3eb
100
AcDbEntity
8
1
100
AcDbLine
6
CONTINUOUS
62
5
10
170.200000
20
-171.640379
11
170.200000
21
-174.500000
0
LINE
5
3ec
100
AcDbEntity
8
1
100
AcDbLine
6
CONTINUOUS
62
5
10
168.700000
20
-171.700477
11
168.700000
21
-174.500000
0
ARC
5
3ed
100
AcDbEntity
8
1
100
AcDbCircle
6
CONTINUOUS
62
5
10
167.800000
20
-174.200000
40
0.300000
100
AcDbArc
50
179.999998
51
-89.999999
0
LINE
5
3ee
100
AcDbEntity
8
1
100
AcDbLine
6
CONTINUOUS
62
5
10
167.800000
20
-174.500000
11
170.812602
21
-174.500000
0
POLYLINE
5
3ef
100
AcDbEntity
8
1
6
CONTINUOUS
62
5
100
AcDb2dPolyline
66
1
10
0.0
20
0.0
30
0.0
70
0
0
VERTEX
5
3f0
100
AcDbEntity
8
1
100
AcDbVertex
100
AcDb2dVertex
62
5
10
167.400000
20
-172.200000
0
VERTEX
5
3f1
100
AcDbEntity
8
1
100
AcDbVertex
100
AcDb2dVertex
62
5
10
167.500000
20
-172.200000
0
VERTEX
5
3f2
100
AcDbEntity
8
1
100
AcDbVertex
100
AcDb2dVertex
62
5
10
167.500000
20
-174.200000
0
SEQEND
5
3f3
100
AcDbEntity
8
1
0
LINE
5
3f4
100
AcDbEntity
8
1
100
AcDbLine
6
CONTINUOUS
62
5
10
166.550000
20
-175.300000
11
166.550000
21
-172.195804
0
ARC
5
3f5
100
AcDbEntity
8
1
100
AcDbCircle
6
CONTINUOUS
62
5
10
166.790000
20
-171.900000
40
0.300000
100
AcDbArc
50
179.999998
51
-89.999999
0
ARC
5
3f6
100
AcDbEntity
8
1
100
AcDbCircle
6
CONTINUOUS
62
5
10
166.600000
20
-171.900000
40
0.300000
100
AcDbArc
50
179.999998
51
-89.999999
0
LINE
5
3f7
100
AcDbEntity
8
1
100
AcDbLine
6
CONTINUOUS
62
5
10
166.300000
20
-171.900000
11
166.300000
21
-171.753289
0
LINE
5
3f8
100
AcDbEntity
8
1
100
AcDbLine
6
CONTINUOUS
62
5
10
167.400000
20
-172.200000
11
166.600000
21
-172.200000
0
LINE
5
3f9
100
AcDbEntity
8
1
100
AcDbLine
6
CONTINUOUS
62
5
10
170.200000
20
-185.814423
11
170.200000
21
-188.237014
0
POLYLINE
5
3fa
100
AcDbEntity
8
1
6
CONTINUOUS
62
5
100
AcDb2dPolyline
66
1
10
0.0
20
0.0
30
0.0
70
0
0
VERTEX
5
3fb
100
AcDbEntity
8
1
100
AcDbVertex
100
AcDb2dVertex
62
5
10
169.028919
20
-185.550000
0
VERTEX
5
3fc
100
AcDbEntity
8
1
100
AcDbVertex
100
AcDb2dVertex
62
5
10
168.140000
20
-185.550000
0
VERTEX
5
3fd
100
AcDbEntity
8
1
100
AcDbVertex
100
AcDb2dVertex
62
5
10
168.140000
20
-188.550000
0
VERTEX
5
3fe
100
AcDbEntity
8
1
100
AcDbVertex
100
AcDb2dVertex
62
5
10
169.755256
20
-188.550000
0
SEQEND
5
3ff
100
AcDbEntity
8
1
0
POLYLINE
5
400
100
AcDbEntity
8
1
6
CONTINUOUS
62
5
100
AcDb2dPolyline
66
1
10
0.0
20
0.0
30
0.0
70
0
0
VERTEX
5
401
100
AcDbEntity
8
1
100
AcDbVertex
100
AcDb2dVertex
62
5
10
170.200000
20
-185.550000
0
VERTEX
5
402
100
AcDbEntity
8
1
100
AcDbVertex
100
AcDb2dVertex
62
5
10
168.700000
20
-185.550000
0
VERTEX
5
403
100
AcDbEntity
8
1
100
AcDbVertex
100
AcDb2dVertex
62
5
10
168.700000
20
-188.550000
0
VERTEX
5
404
100
AcDbEntity
8
1
100
AcDbVertex
100
AcDb2dVertex
62
5
10
170.200000
20
-188.550000
0
SEQEND
5
405
100
AcDbEntity
8
1
0
ARC
5
406
100
AcDbEntity
8
1
100
AcDbCircle
6
CONTINUOUS
62
5
10
173.000000
20
-182.000000
40
0.500000
100
AcDbArc
50
0.000000
51
36.869897
0
LINE
5
407
100
AcDbEntity
8
1
100
AcDbLine
6
CONTINUOUS
62
5
10
170.805860
20
-182.500000
11
173.000000
21
-182.500000
0
ARC
5
408
100
AcDbEntity
8
1
100
AcDbCircle
6
CONTINUOUS
62
5
10
173.000000
20
-182.000000
40
0.500000
100
AcDbArc
50
-89.999999
51
0.000000
0
LINE
5
409
100
AcDbEntity
8
1
100
AcDbLine
6
CONTINUOUS
62
5
10
173.500000
20
-182.000000
11
173.500000
21
-182.000000
0
ARC
5
40a
100
AcDbEntity
8
1
100
AcDbCircle
6
CONTINUOUS
62
5
10
173.000000
20
-175.000000
40
0.500000
100
AcDbArc
50
0.000000
51
89.999999
0
LINE
5
40b
100
AcDbEntity
8
1
100
AcDbLine
6
CONTINUOUS
62
5
10
173.500000
20
-175.000000
11
173.500000
21
-175.000000
0
ARC
5
40c
100
AcDbEntity
8
1
100
AcDbCircle
6
CONTINUOUS
62
5
10
173.000000
20
-175.000000
40
0.500000
100
AcDbArc
50
-36.869897
51
0.000000
0
LINE
5
40d
100
AcDbEntity
8
1
100
AcDbLine
6
CONTINUOUS
62
5
10
170.812602
20
-174.500000
11
173.000000
21
-174.500000
0
LINE
5
40e
100
AcDbEntity
8
1
100
AcDbLine
6
CONTINUOUS
62
5
10
177.200000
20
-194.000000
11
177.200000
21
-198.000000
0
LINE
5
40f
100
AcDbEntity
8
1
100
AcDbLine
6
CONTINUOUS
62
5
10
177.200000
20
-205.000000
11
177.200000
21
-209.000000
0
ARC
5
410
100
AcDbEntity
8
1
100
AcDbCircle
6
CONTINUOUS
62
5
10
176.850000
20
-205.000000
40
0.200000
100
AcDbArc
50
0.000000
51
89.999999
0
ARC
5
411
100
AcDbEntity
8
1
100
AcDbCircle
6
CONTINUOUS
62
5
10
177.000000
20
-205.000000
40
0.200000
100
AcDbArc
50
0.000000
51
89.999999
0
POLYLINE
5
412
100
AcDbEntity
8
1
6
CONTINUOUS
62
5
100
AcDb2dPolyline
66
1
10
0.0
20
0.0
30
0.0
70
0
0
VERTEX
5
413
100
AcDbEntity
8
1
100
AcDbVertex
100
AcDb2dVertex
62
5
10
177.000000
20
-204.800000
0
VERTEX
5
414
100
AcDbEntity
8
1
100
AcDbVertex
100
AcDb2dVertex
62
5
10
176.600000
20
-204.800000
0
VERTEX
5
415
100
AcDbEntity
8
1
100
AcDbVertex
100
AcDb2dVertex
62
5
10
176.600000
20
-204.700000
0
SEQEND
5
416
100
AcDbEntity
8
1
0
LINE
5
417
100
AcDbEntity
8
1
100
AcDbLine
6
CONTINUOUS
62
5
10
177.050000
20
-194.000000
11
177.050000
21
-198.000000
0
LINE
5
418
100
AcDbEntity
8
1
100
AcDbLine
6
CONTINUOUS
62
5
10
176.600000
20
-194.000000
11
176.600000
21
-198.200000
0
ARC
5
419
100
AcDbEntity
8
1
100
AcDbCircle
6
CONTINUOUS
62
5
10
176.850000
20
-198.000000
40
0.200000
100
AcDbArc
50
-89.999999
51
0.000000
0
ARC
5
41a
100
AcDbEntity
8
1
100
AcDbCircle
6
CONTINUOUS
62
5
10
177.000000
20
-198.000000
40
0.200000
100
AcDbArc
50
-89.999999
51
0.000000
0
POLYLINE
5
41b
100
AcDbEntity
8
1
6
CONTINUOUS
62
5
100
AcDb2dPolyline
66
1
10
0.0
20
0.0
30
0.0
70
0
0
VERTEX
5
41c
100
AcDbEntity
8
1
100
AcDbVertex
100
AcDb2dVertex
62
5
10
177.000000
20
-198.200000
0
VERTEX
5
41d
100
AcDbEntity
8
1
100
AcDbVertex
100
AcDb2dVertex
62
5
10
176.600000
20
-198.200000
0
VERTEX
5
41e
100
AcDbEntity
8
1
100
AcDbVertex
100
AcDb2dVertex
62
5
10
176.600000
20
-198.300000
0
SEQEND
5
41f
100
AcDbEntity
8
1
0
LINE
5
420
100
AcDbEntity
8
1
100
AcDbLine
6
CONTINUOUS
62
5
10
177.050000
20
-205.000000
11
177.050000
21
-209.000000
0
LINE
5
421
100
AcDbEntity
8
1
100
AcDbLine
6
CONTINUOUS
62
5
10
176.600000
20
-204.800000
11
176.600000
21
-209.000000
0
ARC
5
422
100
AcDbEntity
8
1
100
AcDbCircle
6
CONTINUOUS
62
5
10
164.200000
20
-198.400000
40
0.100000
100
AcDbArc
50
89.999999
51
179.999998
0
LINE
5
423
100
AcDbEntity
8
1
100
AcDbLine
6
CONTINUOUS
62
5
10
165.500000
20
-207.871780
11
164.200000
21
-207.871780
0
LINE
5
424
100
AcDbEntity
8
1
100
AcDbLine
6
CONTINUOUS
62
5
10
165.500000
20
-206.128220
11
164.200000
21
-206.128220
0
ARC
5
425
100
AcDbEntity
8
1
100
AcDbCircle
6
CONTINUOUS
62
5
10
164.200000
20
-207.771780
40
0.100000
100
AcDbArc
50
179.999998
51
-89.999999
0
ARC
5
426
100
AcDbEntity
8
1
100
AcDbCircle
6
CONTINUOUS
62
5
10
164.200000
20
-206.228220
40
0.100000
100
AcDbArc
50
89.999999
51
179.999998
0
ARC
5
427
100
AcDbEntity
8
1
100
AcDbCircle
6
CONTINUOUS
62
5
10
164.200000
20
-204.600000
40
0.100000
100
AcDbArc
50
179.999998
51
-89.999999
0
LINE
5
428
100
AcDbEntity
8
1
100
AcDbLine
6
CONTINUOUS
62
5
10
166.550000
20
-207.804196
11
166.550000
21
-204.700000
0
ARC
5
429
100
AcDbEntity
8
1
100
AcDbCircle
6
CONTINUOUS
62
5
10
167.800000
20
-205.800000
40
0.300000
100
AcDbArc
50
89.999999
51
179.999998
0
LINE
5
42a
100
AcDbEntity
8
1
100
AcDbLine
6
CONTINUOUS
62
5
10
167.800000
20
-205.500000
11
170.805860
21
-205.500000
0
POLYLINE
5
42b
100
AcDbEntity
8
1
6
CONTINUOUS
62
5
100
AcDb2dPolyline
66
1
10
0.0
20
0.0
30
0.0
70
0
0
VERTEX
5
42c
100
AcDbEntity
8
1
100
AcDbVertex
100
AcDb2dVertex
62
5
10
167.400000
20
-207.800000
0
VERTEX
5
42d
100
AcDbEntity
8
1
100
AcDbVertex
100
AcDb2dVertex
62
5
10
167.500000
20
-207.800000
0
VERTEX
5
42e
100
AcDbEntity
8
1
100
AcDbVertex
100
AcDb2dVertex
62
5
10
167.500000
20
-205.800000
0
SEQEND
5
42f
100
AcDbEntity
8
1
0
LINE
5
430
100
AcDbEntity
8
1
100
AcDbLine
6
CONTINUOUS
62
5
10
165.500000
20
-194.000000
11
164.200000
21
-194.000000
0
ARC
5
431
100
AcDbEntity
8
1
100
AcDbCircle
6
CONTINUOUS
62
5
10
164.200000
20
-194.100000
40
0.100000
100
AcDbArc
50
89.999999
51
179.999998
0
LINE
5
432
100
AcDbEntity
8
1
100
AcDbLine
6
CONTINUOUS
62
5
10
170.200000
20
-194.640379
11
170.200000
21
-197.500000
0
LINE
5
433
100
AcDbEntity
8
1
100
AcDbLine
6
CONTINUOUS
62
5
10
168.700000
20
-194.700477
11
168.700000
21
-197.500000
0
ARC
5
434
100
AcDbEntity
8
1
100
AcDbCircle
6
CONTINUOUS
62
5
10
167.800000
20
-197.200000
40
0.300000
100
AcDbArc
50
179.999998
51
-89.999999
0
LINE
5
435
100
AcDbEntity
8
1
100
AcDbLine
6
CONTINUOUS
62
5
10
167.800000
20
-197.500000
11
170.812602
21
-197.500000
0
POLYLINE
5
436
100
AcDbEntity
8
1
6
CONTINUOUS
62
5
100
AcDb2dPolyline
66
1
10
0.0
20
0.0
30
0.0
70
0
0
VERTEX
5
437
100
AcDbEntity
8
1
100
AcDbVertex
100
AcDb2dVertex
62
5
10
167.400000
20
-195.200000
0
VERTEX
5
438
100
AcDbEntity
8
1
100
AcDbVertex
100
AcDb2dVertex
62
5
10
167.500000
20
-195.200000
0
VERTEX
5
439
100
AcDbEntity
8
1
100
AcDbVertex
100
AcDb2dVertex
62
5
10
167.500000
20
-197.200000
0
SEQEND
5
43a
100
AcDbEntity
8
1
0
LINE
5
43b
100
AcDbEntity
8
1
100
AcDbLine
6
CONTINUOUS
62
5
10
166.550000
20
-198.300000
11
166.550000
21
-195.195804
0
LINE
5
43c
100
AcDbEntity
8
1
100
AcDbLine
6
CONTINUOUS
62
5
10
170.200000
20
-191.767448
11
170.200000
21
-194.115938
0
ARC
5
43d
100
AcDbEntity
8
1
100
AcDbCircle
6
CONTINUOUS
62
5
10
166.790000
20
-194.900000
40
0.300000
100
AcDbArc
50
179.999998
51
-89.999999
0
ARC
5
43e
100
AcDbEntity
8
1
100
AcDbCircle
6
CONTINUOUS
62
5
10
166.600000
20
-194.900000
40
0.300000
100
AcDbArc
50
179.999998
51
-89.999999
0
LINE
5
43f
100
AcDbEntity
8
1
100
AcDbLine
6
CONTINUOUS
62
5
10
166.300000
20
-194.900000
11
166.300000
21
-194.753289
0
LINE
5
440
100
AcDbEntity
8
1
100
AcDbLine
6
CONTINUOUS
62
5
10
167.400000
20
-195.200000
11
166.600000
21
-195.200000
0
LINE
5
441
100
AcDbEntity
8
1
100
AcDbLine
6
CONTINUOUS
62
5
10
165.500000
20
-209.000000
11
164.200000
21
-209.000000
0
ARC
5
442
100
AcDbEntity
8
1
100
AcDbCircle
6
CONTINUOUS
62
5
10
164.200000
20
-208.900000
40
0.100000
100
AcDbArc
50
179.999998
51
-89.999999
0
ARC
5
443
100
AcDbEntity
8
1
100
AcDbCircle
6
CONTINUOUS
62
5
10
164.850000
20
-211.000000
40
1.250000
100
AcDbArc
50
126.869897
51
-126.869897
0
ARC
5
444
100
AcDbEntity
8
1
100
AcDbCircle
6
CONTINUOUS
62
5
10
166.790000
20
-208.100000
40
0.300000
100
AcDbArc
50
89.999999
51
179.999998
0
ARC
5
445
100
AcDbEntity
8
1
100
AcDbCircle
6
CONTINUOUS
62
5
10
166.600000
20
-208.100000
40
0.300000
100
AcDbArc
50
89.999999
51
179.999998
0
LINE
5
446
100
AcDbEntity
8
1
100
AcDbLine
6
CONTINUOUS
62
5
10
166.300000
20
-208.100000
11
166.300000
21
-208.096913
0
LINE
5
447
100
AcDbEntity
8
1
100
AcDbLine
6
CONTINUOUS
62
5
10
167.400000
20
-207.800000
11
166.600000
21
-207.800000
0
LINE
5
448
100
AcDbEntity
8
1
100
AcDbLine
6
CONTINUOUS
62
5
10
170.200000
20
-208.814423
11
170.200000
21
-211.237014
0
POLYLINE
5
449
100
AcDbEntity
8
1
6
CONTINUOUS
62
5
100
AcDb2dPolyline
66
1
10
0.0
20
0.0
30
0.0
70
0
0
VERTEX
5
44a
100
AcDbEntity
8
1
100
AcDbVertex
100
AcDb2dVertex
62
5
10
169.028919
20
-208.550000
0
VERTEX
5
44b
100
AcDbEntity
8
1
100
AcDbVertex
100
AcDb2dVertex
62
5
10
168.140000
20
-208.550000
0
VERTEX
5
44c
100
AcDbEntity
8
1
100
AcDbVertex
100
AcDb2dVertex
62
5
10
168.140000
20
-211.550000
0
VERTEX
5
44d
100
AcDbEntity
8
1
100
AcDbVertex
100
AcDb2dVertex
62
5
10
169.755256
20
-211.550000
0
SEQEND
5
44e
100
AcDbEntity
8
1
0
POLYLINE
5
44f
100
AcDbEntity
8
1
6
CONTINUOUS
62
5
100
AcDb2dPolyline
66
1
10
0.0
20
0.0
30
0.0
70
0
0
VERTEX
5
450
100
AcDbEntity
8
1
100
AcDbVertex
100
AcDb2dVertex
62
5
10
170.200000
20
-208.550000
0
VERTEX
5
451
100
AcDbEntity
8
1
100
AcDbVertex
100
AcDb2dVertex
62
5
10
168.700000
20
-208.550000
0
VERTEX
5
452
100
AcDbEntity
8
1
100
AcDbVertex
100
AcDb2dVertex
62
5
10
168.700000
20
-211.550000
0
VERTEX
5
453
100
AcDbEntity
8
1
100
AcDbVertex
100
AcDb2dVertex
62
5
10
170.200000
20
-211.550000
0
SEQEND
5
454
100
AcDbEntity
8
1
0
LINE
5
455
100
AcDbEntity
8
1
100
AcDbLine
6
CONTINUOUS
62
5
10
170.200000
20
-205.500000
11
170.200000
21
-208.363487
0
LINE
5
456
100
AcDbEntity
8
1
100
AcDbLine
6
CONTINUOUS
62
5
10
168.700000
20
-208.299523
11
168.700000
21
-205.500000
0
ARC
5
457
100
AcDbEntity
8
1
100
AcDbCircle
6
CONTINUOUS
62
5
10
173.000000
20
-205.000000
40
0.500000
100
AcDbArc
50
0.000000
51
36.869897
0
LINE
5
458
100
AcDbEntity
8
1
100
AcDbLine
6
CONTINUOUS
62
5
10
170.805860
20
-205.500000
11
173.000000
21
-205.500000
0
ARC
5
459
100
AcDbEntity
8
1
100
AcDbCircle
6
CONTINUOUS
62
5
10
173.000000
20
-205.000000
40
0.500000
100
AcDbArc
50
-89.999999
51
0.000000
0
LINE
5
45a
100
AcDbEntity
8
1
100
AcDbLine
6
CONTINUOUS
62
5
10
173.500000
20
-205.000000
11
173.500000
21
-205.000000
0
ARC
5
45b
100
AcDbEntity
8
1
100
AcDbCircle
6
CONTINUOUS
62
5
10
173.000000
20
-198.000000
40
0.500000
100
AcDbArc
50
0.000000
51
89.999999
0
LINE
5
45c
100
AcDbEntity
8
1
100
AcDbLine
6
CONTINUOUS
62
5
10
173.500000
20
-198.000000
11
173.500000
21
-198.000000
0
ARC
5
45d
100
AcDbEntity
8
1
100
AcDbCircle
6
CONTINUOUS
62
5
10
173.000000
20
-198.000000
40
0.500000
100
AcDbArc
50
-36.869897
51
0.000000
0
LINE
5
45e
100
AcDbEntity
8
1
100
AcDbLine
6
CONTINUOUS
62
5
10
170.812602
20
-197.500000
11
173.000000
21
-197.500000
0
ARC
5
45f
100
AcDbEntity
8
1
100
AcDbCircle
6
CONTINUOUS
62
5
10
164.850000
20
-190.000000
40
1.250000
100
AcDbArc
50
126.869897
51
-126.869897
0
POLYLINE
5
460
100
AcDbEntity
8
1
6
CONTINUOUS
62
5
100
AcDb2dPolyline
66
1
10
0.0
20
0.0
30
0.0
70
0
0
VERTEX
5
461
100
AcDbEntity
8
1
100
AcDbVertex
100
AcDb2dVertex
62
5
10
169.028919
20
-194.450000
0
VERTEX
5
462
100
AcDbEntity
8
1
100
AcDbVertex
100
AcDb2dVertex
62
5
10
168.140000
20
-194.450000
0
VERTEX
5
463
100
AcDbEntity
8
1
100
AcDbVertex
100
AcDb2dVertex
62
5
10
168.140000
20
-191.450000
0
VERTEX
5
464
100
AcDbEntity
8
1
100
AcDbVertex
100
AcDb2dVertex
62
5
10
169.755256
20
-191.450000
0
SEQEND
5
465
100
AcDbEntity
8
1
0
POLYLINE
5
466
100
AcDbEntity
8
1
6
CONTINUOUS
62
5
100
AcDb2dPolyline
66
1
10
0.0
20
0.0
30
0.0
70
0
0
VERTEX
5
467
100
AcDbEntity
8
1
100
AcDbVertex
100
AcDb2dVertex
62
5
10
170.200000
20
-194.450000
0
VERTEX
5
468
100
AcDbEntity
8
1
100
AcDbVertex
100
AcDb2dVertex
62
5
10
168.700000
20
-194.450000
0
VERTEX
5
469
100
AcDbEntity
8
1
100
AcDbVertex
100
AcDb2dVertex
62
5
10
168.700000
20
-191.450000
0
VERTEX
5
46a
100
AcDbEntity
8
1
100
AcDbVertex
100
AcDb2dVertex
62
5
10
170.200000
20
-191.450000
0
SEQEND
5
46b
100
AcDbEntity
8
1
0
LINE
5
46c
100
AcDbEntity
8
1
100
AcDbLine
6
CONTINUOUS
62
5
10
170.200000
20
-188.690883
11
170.200000
21
-191.301505
0
POLYLINE
5
46d
100
AcDbEntity
8
1
6
CONTINUOUS
62
5
100
AcDb2dPolyline
66
1
10
0.0
20
0.0
30
0.0
70
0
0
VERTEX
5
46e
100
AcDbEntity
8
1
100
AcDbVertex
100
AcDb2dVertex
62
5
10
168.700000
20
-188.550000
0
VERTEX
5
46f
100
AcDbEntity
8
1
100
AcDbVertex
100
AcDb2dVertex
62
5
10
168.700000
20
-188.550000
0
VERTEX
5
470
100
AcDbEntity
8
1
100
AcDbVertex
100
AcDb2dVertex
62
5
10
168.700000
20
-191.450000
0
SEQEND
5
471
100
AcDbEntity
8
1
0
LINE
5
472
100
AcDbEntity
8
1
100
AcDbLine
6
CONTINUOUS
62
5
10
165.500000
20
-181.700000
11
165.500000
21
-198.300000
0
LINE
5
473
100
AcDbEntity
8
1
100
AcDbLine
6
CONTINUOUS
62
5
10
166.300000
20
-181.700000
11
166.300000
21
-198.300000
0
LINE
5
474
100
AcDbEntity
8
1
100
AcDbLine
6
CONTINUOUS
62
5
10
166.300000
20
-185.100000
11
166.300000
21
-194.753289
0
LINE
5
475
100
AcDbEntity
8
1
100
AcDbLine
6
CONTINUOUS
62
5
10
166.490000
20
-185.100000
11
166.490000
21
-194.900000
0
LINE
5
476
100
AcDbEntity
8
1
100
AcDbLine
6
CONTINUOUS
62
5
10
167.100000
20
-185.000000
11
167.100000
21
-195.000000
0
ARC
5
477
100
AcDbEntity
8
1
100
AcDbCircle
6
CONTINUOUS
62
5
10
177.300000
20
-188.400000
40
0.100000
100
AcDbArc
50
0.000000
51
89.999999
0
LINE
5
478
100
AcDbEntity
8
1
100
AcDbLine
6
CONTINUOUS
62
5
10
177.400000
20
-188.400000
11
177.400000
21
-191.600000
0
ARC
5
479
100
AcDbEntity
8
1
100
AcDbCircle
6
CONTINUOUS
62
5
10
177.300000
20
-191.600000
40
0.100000
100
AcDbArc
50
-89.999999
51
0.000000
0
LINE
5
47a
100
AcDbEntity
8
1
100
AcDbLine
6
CONTINUOUS
62
5
10
177.300000
20
-191.700000
11
176.400000
21
-191.700000
0
ARC
5
47b
100
AcDbEntity
8
1
100
AcDbCircle
6
CONTINUOUS
62
5
10
176.400000
20
-192.200000
40
0.500000
100
AcDbArc
50
89.999999
51
179.999998
0
LINE
5
47c
100
AcDbEntity
8
1
100
AcDbLine
6
CONTINUOUS
62
5
10
175.900000
20
-192.200000
11
175.900000
21
-193.200000
0
ARC
5
47d
100
AcDbEntity
8
1
100
AcDbCircle
6
CONTINUOUS
62
5
10
176.400000
20
-193.200000
40
0.500000
100
AcDbArc
50
179.999998
51
-89.999999
0
LINE
5
47e
100
AcDbEntity
8
1
100
AcDbLine
6
CONTINUOUS
62
5
10
176.400000
20
-193.700000
11
177.300000
21
-193.700000
0
ARC
5
47f
100
AcDbEntity
8
1
100
AcDbCircle
6
CONTINUOUS
62
5
10
177.300000
20
-193.800000
40
0.100000
100
AcDbArc
50
0.000000
51
89.999999
0
LINE
5
480
100
AcDbEntity
8
1
100
AcDbLine
6
CONTINUOUS
62
5
10
177.400000
20
-193.800000
11
177.400000
21
-198.200000
0
ARC
5
481
100
AcDbEntity
8
1
100
AcDbCircle
6
CONTINUOUS
62
5
10
177.300000
20
-198.200000
40
0.100000
100
AcDbArc
50
-89.999999
51
0.000000
0
LINE
5
482
100
AcDbEntity
8
1
100
AcDbLine
6
CONTINUOUS
62
5
10
177.300000
20
-198.300000
11
164.200000
21
-198.300000
0
LINE
5
483
100
AcDbEntity
8
1
100
AcDbLine
6
CONTINUOUS
62
5
10
164.200000
20
-181.700000
11
177.300000
21
-181.700000
0
ARC
5
484
100
AcDbEntity
8
1
100
AcDbCircle
6
CONTINUOUS
62
5
10
177.300000
20
-181.800000
40
0.100000
100
AcDbArc
50
0.000000
51
89.999999
0
LINE
5
485
100
AcDbEntity
8
1
100
AcDbLine
6
CONTINUOUS
62
5
10
177.400000
20
-181.800000
11
177.400000
21
-186.200000
0
ARC
5
486
100
AcDbEntity
8
1
100
AcDbCircle
6
CONTINUOUS
62
5
10
177.300000
20
-186.200000
40
0.100000
100
AcDbArc
50
-89.999999
51
0.000000
0
LINE
5
487
100
AcDbEntity
8
1
100
AcDbLine
6
CONTINUOUS
62
5
10
177.300000
20
-186.300000
11
176.400000
21
-186.300000
0
ARC
5
488
100
AcDbEntity
8
1
100
AcDbCircle
6
CONTINUOUS
62
5
10
176.400000
20
-186.800000
40
0.500000
100
AcDbArc
50
89.999999
51
179.999998
0
LINE
5
489
100
AcDbEntity
8
1
100
AcDbLine
6
CONTINUOUS
62
5
10
175.900000
20
-186.800000
11
175.900000
21
-187.800000
0
ARC
5
48a
100
AcDbEntity
8
1
100
AcDbCircle
6
CONTINUOUS
62
5
10
176.400000
20
-187.800000
40
0.500000
100
AcDbArc
50
179.999998
51
-89.999999
0
LINE
5
48b
100
AcDbEntity
8
1
100
AcDbLine
6
CONTINUOUS
62
5
10
176.400000
20
-188.300000
11
177.300000
21
-188.300000
0
LINE
5
48c
100
AcDbEntity
8
1
100
AcDbLine
6
CONTINUOUS
62
5
10
176.810000
20
-188.480565
11
176.810000
21
-191.527407
0
ARC
5
48d
100
AcDbEntity
8
1
100
AcDbCircle
6
CONTINUOUS
62
5
10
177.042273
20
-188.900000
40
0.550000
100
AcDbArc
50
89.999999
51
135.790136
0
LINE
5
48e
100
AcDbEntity
8
1
100
AcDbLine
6
CONTINUOUS
62
5
10
176.648038
20
-188.516491
11
175.883209
21
-189.302712
0
ARC
5
48f
100
AcDbEntity
8
1
100
AcDbCircle
6
CONTINUOUS
62
5
10
176.600000
20
-190.000000
40
1.000000
100
AcDbArc
50
135.790136
51
-135.790136
0
LINE
5
490
100
AcDbEntity
8
1
100
AcDbLine
6
CONTINUOUS
62
5
10
175.883209
20
-190.697288
11
176.648038
21
-191.483509
0
ARC
5
491
100
AcDbEntity
8
1
100
AcDbCircle
6
CONTINUOUS
62
5
10
177.042273
20
-191.100000
40
0.550000
100
AcDbArc
50
-135.790136
51
-89.999999
0
LINE
5
492
100
AcDbEntity
8
1
100
AcDbLine
6
CONTINUOUS
62
5
10
177.042273
20
-191.650000
11
177.386603
21
-191.650000
0
LINE
5
493
100
AcDbEntity
8
1
100
AcDbLine
6
CONTINUOUS
62
5
10
177.386603
20
-188.350000
11
177.042273
21
-188.350000
0
LINE
5
494
100
AcDbEntity
8
1
100
AcDbLine
6
CONTINUOUS
62
5
10
177.400000
20
-186.000000
11
176.600000
21
-186.000000
0
LINE
5
495
100
AcDbEntity
8
1
100
AcDbLine
6
CONTINUOUS
62
5
10
176.600000
20
-194.000000
11
177.400000
21
-194.000000
0
LINE
5
496
100
AcDbEntity
8
1
100
AcDbLine
6
CONTINUOUS
62
5
10
177.400000
20
-191.600000
11
177.400000
21
-188.400000
0
LINE
5
497
100
AcDbEntity
8
1
100
AcDbLine
6
CONTINUOUS
62
5
10
177.200000
20
-217.000000
11
177.200000
21
-221.000000
0
LINE
5
498
100
AcDbEntity
8
1
100
AcDbLine
6
CONTINUOUS
62
5
10
177.050000
20
-217.000000
11
177.050000
21
-221.000000
0
LINE
5
499
100
AcDbEntity
8
1
100
AcDbLine
6
CONTINUOUS
62
5
10
176.600000
20
-217.000000
11
176.600000
21
-221.200000
0
ARC
5
49a
100
AcDbEntity
8
1
100
AcDbCircle
6
CONTINUOUS
62
5
10
176.850000
20
-221.000000
40
0.200000
100
AcDbArc
50
-89.999999
51
0.000000
0
ARC
5
49b
100
AcDbEntity
8
1
100
AcDbCircle
6
CONTINUOUS
62
5
10
177.000000
20
-221.000000
40
0.200000
100
AcDbArc
50
-89.999999
51
0.000000
0
POLYLINE
5
49c
100
AcDbEntity
8
1
6
CONTINUOUS
62
5
100
AcDb2dPolyline
66
1
10
0.0
20
0.0
30
0.0
70
0
0
VERTEX
5
49d
100
AcDbEntity
8
1
100
AcDbVertex
100
AcDb2dVertex
62
5
10
177.000000
20
-221.200000
0
VERTEX
5
49e
100
AcDbEntity
8
1
100
AcDbVertex
100
AcDb2dVertex
62
5
10
176.600000
20
-221.200000
0
VERTEX
5
49f
100
AcDbEntity
8
1
100
AcDbVertex
100
AcDb2dVertex
62
5
10
176.600000
20
-221.300000
0
SEQEND
5
4a0
100
AcDbEntity
8
1
0
LINE
5
4a1
100
AcDbEntity
8
1
100
AcDbLine
6
CONTINUOUS
62
5
10
175.687512
20
-213.000000
11
177.400000
21
-213.000000
0
ARC
5
4a2
100
AcDbEntity
8
1
100
AcDbCircle
6
CONTINUOUS
62
5
10
171.500000
20
-225.100000
40
0.100000
100
AcDbArc
50
0.000000
51
89.999999
0
POLYLINE
5
4a3
100
AcDbEntity
8
1
6
CONTINUOUS
62
5
100
AcDb2dPolyline
66
1
10
0.0
20
0.0
30
0.0
70
0
0
VERTEX
5
4a4
100
AcDbEntity
8
1
100
AcDbVertex
100
AcDb2dVertex
62
5
10
171.600000
20
-225.100000
0
VERTEX
5
4a5
100
AcDbEntity
8
1
100
AcDbVertex
100
AcDb2dVertex
62
5
10
171.600000
20
-226.800000
0
VERTEX
5
4a6
100
AcDbEntity
8
1
100
AcDbVertex
100
AcDb2dVertex
62
5
10
170.600000
20
-227.800000
0
VERTEX
5
4a7
100
AcDbEntity
8
1
100
AcDbVertex
100
AcDb2dVertex
62
5
10
164.100000
20
-227.800000
0
SEQEND
5
4a8
100
AcDbEntity
8
1
0
LINE
5
4a9
100
AcDbEntity
8
1
100
AcDbLine
6
CONTINUOUS
62
5
10
164.100000
20
-225.000000
11
171.500000
21
-225.000000
0
LINE
5
4aa
100
AcDbEntity
8
1
100
AcDbLine
6
CONTINUOUS
62
5
10
165.500000
20
-227.800000
11
165.500000
21
-225.000000
0
LINE
5
4ab
100
AcDbEntity
8
1
100
AcDbLine
6
CONTINUOUS
62
5
10
165.500000
20
-217.000000
11
164.200000
21
-217.000000
0
ARC
5
4ac
100
AcDbEntity
8
1
100
AcDbCircle
6
CONTINUOUS
62
5
10
164.200000
20
-217.100000
40
0.100000
100
AcDbArc
50
89.999999
51
179.999998
0
ARC
5
4ad
100
AcDbEntity
8
1
100
AcDbCircle
6
CONTINUOUS
62
5
10
164.200000
20
-221.400000
40
0.100000
100
AcDbArc
50
89.999999
51
179.999998
0
LINE
5
4ae
100
AcDbEntity
8
1
100
AcDbLine
6
CONTINUOUS
62
5
10
163.500000
20
-224.800000
11
163.500000
21
-226.200000
0
LINE
5
4af
100
AcDbEntity
8
1
100
AcDbLine
6
CONTINUOUS
62
5
10
162.100000
20
-224.800000
11
162.100000
21
-226.200000
0
ARC
5
4b0
100
AcDbEntity
8
1
100
AcDbCircle
6
CONTINUOUS
62
5
10
161.500000
20
-226.100000
40
0.100000
100
AcDbArc
50
179.999998
51
-89.999999
0
POLYLINE
5
4b1
100
AcDbEntity
8
1
6
CONTINUOUS
62
5
100
AcDb2dPolyline
66
1
10
0.0
20
0.0
30
0.0
70
0
0
VERTEX
5
4b2
100
AcDbEntity
8
1
100
AcDbVertex
100
AcDb2dVertex
62
5
10
161.400000
20
-226.100000
0
VERTEX
5
4b3
100
AcDbEntity
8
1
100
AcDbVertex
100
AcDb2dVertex
62
5
10
161.400000
20
-224.800000
0
VERTEX
5
4b4
100
AcDbEntity
8
1
100
AcDbVertex
100
AcDb2dVertex
62
5
10
164.100000
20
-224.800000
0
SEQEND
5
4b5
100
AcDbEntity
8
1
0
LINE
5
4b6
100
AcDbEntity
8
1
100
AcDbLine
6
CONTINUOUS
62
5
10
164.100000
20
-226.200000
11
161.500000
21
-226.200000
0
LINE
5
4b7
100
AcDbEntity
8
1
100
AcDbLine
6
CONTINUOUS
62
5
10
170.200000
20
-217.640379
11
170.200000
21
-220.500000
0
LINE
5
4b8
100
AcDbEntity
8
1
100
AcDbLine
6
CONTINUOUS
62
5
10
170.200000
20
-214.767448
11
170.200000
21
-217.115938
0
POLYLINE
5
4b9
100
AcDbEntity
8
1
6
CONTINUOUS
62
5
100
AcDb2dPolyline
66
1
10
0.0
20
0.0
30
0.0
70
0
0
VERTEX
5
4ba
100
AcDbEntity
8
1
100
AcDbVertex
100
AcDb2dVertex
62
5
10
169.028919
20
-217.450000
0
VERTEX
5
4bb
100
AcDbEntity
8
1
100
AcDbVertex
100
AcDb2dVertex
62
5
10
168.140000
20
-217.450000
0
VERTEX
5
4bc
100
AcDbEntity
8
1
100
AcDbVertex
100
AcDb2dVertex
62
5
10
168.140000
20
-214.450000
0
VERTEX
5
4bd
100
AcDbEntity
8
1
100
AcDbVertex
100
AcDb2dVertex
62
5
10
169.755256
20
-214.450000
0
SEQEND
5
4be
100
AcDbEntity
8
1
0
POLYLINE
5
4bf
100
AcDbEntity
8
1
6
CONTINUOUS
62
5
100
AcDb2dPolyline
66
1
10
0.0
20
0.0
30
0.0
70
0
0
VERTEX
5
4c0
100
AcDbEntity
8
1
100
AcDbVertex
100
AcDb2dVertex
62
5
10
170.200000
20
-217.450000
0
VERTEX
5
4c1
100
AcDbEntity
8
1
100
AcDbVertex
100
AcDb2dVertex
62
5
10
168.700000
20
-217.450000
0
VERTEX
5
4c2
100
AcDbEntity
8
1
100
AcDbVertex
100
AcDb2dVertex
62
5
10
168.700000
20
-214.450000
0
VERTEX
5
4c3
100
AcDbEntity
8
1
100
AcDbVertex
100
AcDb2dVertex
62
5
10
170.200000
20
-214.450000
0
SEQEND
5
4c4
100
AcDbEntity
8
1
0
ARC
5
4c5
100
AcDbEntity
8
1
100
AcDbCircle
6
CONTINUOUS
62
5
10
167.800000
20
-220.200000
40
0.300000
100
AcDbArc
50
179.999998
51
-89.999999
0
LINE
5
4c6
100
AcDbEntity
8
1
100
AcDbLine
6
CONTINUOUS
62
5
10
167.800000
20
-220.500000
11
170.812602
21
-220.500000
0
POLYLINE
5
4c7
100
AcDbEntity
8
1
6
CONTINUOUS
62
5
100
AcDb2dPolyline
66
1
10
0.0
20
0.0
30
0.0
70
0
0
VERTEX
5
4c8
100
AcDbEntity
8
1
100
AcDbVertex
100
AcDb2dVertex
62
5
10
167.400000
20
-218.200000
0
VERTEX
5
4c9
100
AcDbEntity
8
1
100
AcDbVertex
100
AcDb2dVertex
62
5
10
167.500000
20
-218.200000
0
VERTEX
5
4ca
100
AcDbEntity
8
1
100
AcDbVertex
100
AcDb2dVertex
62
5
10
167.500000
20
-220.200000
0
SEQEND
5
4cb
100
AcDbEntity
8
1
0
LINE
5
4cc
100
AcDbEntity
8
1
100
AcDbLine
6
CONTINUOUS
62
5
10
166.550000
20
-221.300000
11
166.550000
21
-218.195804
0
LINE
5
4cd
100
AcDbEntity
8
1
100
AcDbLine
6
CONTINUOUS
62
5
10
168.700000
20
-217.700477
11
168.700000
21
-220.500000
0
ARC
5
4ce
100
AcDbEntity
8
1
100
AcDbCircle
6
CONTINUOUS
62
5
10
166.790000
20
-217.900000
40
0.300000
100
AcDbArc
50
179.999998
51
-89.999999
0
ARC
5
4cf
100
AcDbEntity
8
1
100
AcDbCircle
6
CONTINUOUS
62
5
10
166.600000
20
-217.900000
40
0.300000
100
AcDbArc
50
179.999998
51
-89.999999
0
LINE
5
4d0
100
AcDbEntity
8
1
100
AcDbLine
6
CONTINUOUS
62
5
10
166.300000
20
-217.900000
11
166.300000
21
-217.753289
0
LINE
5
4d1
100
AcDbEntity
8
1
100
AcDbLine
6
CONTINUOUS
62
5
10
167.400000
20
-218.200000
11
166.600000
21
-218.200000
0
LINE
5
4d2
100
AcDbEntity
8
1
100
AcDbLine
6
CONTINUOUS
62
5
10
166.300000
20
-227.800000
11
166.300000
21
-225.000000
0
LINE
5
4d3
100
AcDbEntity
8
1
100
AcDbLine
6
CONTINUOUS
62
5
10
171.600000
20
-225.750000
11
173.300000
21
-225.750000
0
LINE
5
4d4
100
AcDbEntity
8
1
100
AcDbLine
6
CONTINUOUS
62
5
10
173.300000
20
-225.500000
11
171.600000
21
-225.500000
0
LINE
5
4d5
100
AcDbEntity
8
1
100
AcDbLine
6
CONTINUOUS
62
5
10
171.600000
20
-225.250000
11
173.366987
21
-225.250000
0
LINE
5
4d6
100
AcDbEntity
8
1
100
AcDbLine
6
CONTINUOUS
62
5
10
165.800000
20
-231.000000
11
164.400000
21
-231.000000
0
LINE
5
4d7
100
AcDbEntity
8
1
100
AcDbLine
6
CONTINUOUS
62
5
10
165.900000
20
-227.800000
11
165.900000
21
-229.500000
0
LINE
5
4d8
100
AcDbEntity
8
1
100
AcDbLine
6
CONTINUOUS
62
5
10
165.650000
20
-229.520980
11
165.650000
21
-227.800000
0
ARC
5
4d9
100
AcDbEntity
8
1
100
AcDbCircle
6
CONTINUOUS
62
5
10
168.724989
20
-231.666661
40
3.000000
100
AcDbArc
50
133.761906
51
167.160527
0
ARC
5
4da
100
AcDbEntity
8
1
100
AcDbCircle
6
CONTINUOUS
62
5
10
165.900000
20
-231.000000
40
1.500000
100
AcDbArc
50
89.999999
51
-179.999998
0
LINE
5
4db
100
AcDbEntity
8
1
100
AcDbLine
6
CONTINUOUS
62
5
10
164.131634
20
-229.658172
11
164.372467
21
-230.862336
0
LINE
5
4dc
100
AcDbEntity
8
1
100
AcDbLine
6
CONTINUOUS
62
5
10
166.150000
20
-229.500000
11
166.150000
21
-227.800000
0
ARC
5
4dd
100
AcDbEntity
8
1
100
AcDbCircle
6
CONTINUOUS
62
5
10
173.000000
20
-221.000000
40
0.500000
100
AcDbArc
50
0.000000
51
89.999999
0
LINE
5
4de
100
AcDbEntity
8
1
100
AcDbLine
6
CONTINUOUS
62
5
10
173.500000
20
-221.000000
11
173.500000
21
-221.000000
0
ARC
5
4df
100
AcDbEntity
8
1
100
AcDbCircle
6
CONTINUOUS
62
5
10
173.000000
20
-221.000000
40
0.500000
100
AcDbArc
50
-36.869897
51
0.000000
0
LINE
5
4e0
100
AcDbEntity
8
1
100
AcDbLine
6
CONTINUOUS
62
5
10
170.812602
20
-220.500000
11
173.000000
21
-220.500000
0
ARC
5
4e1
100
AcDbEntity
8
1
100
AcDbCircle
6
CONTINUOUS
62
5
10
165.100000
20
-237.249986
40
1.400000
100
AcDbArc
50
0.000000
51
31.002719
0
LINE
5
4e2
100
AcDbEntity
8
1
100
AcDbLine
6
CONTINUOUS
62
5
10
166.300000
20
-236.528876
11
166.300000
21
-236.000000
0
LINE
5
4e3
100
AcDbEntity
8
1
100
AcDbLine
6
CONTINUOUS
62
5
10
164.900000
20
-236.000000
11
164.900000
21
-236.528876
0
ARC
5
4e4
100
AcDbEntity
8
1
100
AcDbCircle
6
CONTINUOUS
62
5
10
166.300000
20
-236.528876
40
1.400000
100
AcDbArc
50
179.999998
51
-148.997280
0
LINE
5
4e5
100
AcDbEntity
8
1
100
AcDbLine
6
CONTINUOUS
62
5
10
165.100000
20
-237.249986
11
165.100000
21
-245.900000
0
ARC
5
4e6
100
AcDbEntity
8
1
100
AcDbCircle
6
CONTINUOUS
62
5
10
165.200000
20
-245.900000
40
0.100000
100
AcDbArc
50
179.999998
51
-89.999999
0
POLYLINE
5
4e7
100
AcDbEntity
8
1
6
CONTINUOUS
62
5
100
AcDb2dPolyline
66
1
10
0.0
20
0.0
30
0.0
70
0
0
VERTEX
5
4e8
100
AcDbEntity
8
1
100
AcDbVertex
100
AcDb2dVertex
62
5
10
165.200000
20
-246.000000
0
VERTEX
5
4e9
100
AcDbEntity
8
1
100
AcDbVertex
100
AcDb2dVertex
62
5
10
166.500000
20
-246.000000
0
VERTEX
5
4ea
100
AcDbEntity
8
1
100
AcDbVertex
100
AcDb2dVertex
62
5
10
166.500000
20
-239.250000
0
SEQEND
5
4eb
100
AcDbEntity
8
1
0
LINE
5
4ec
100
AcDbEntity
8
1
100
AcDbLine
6
CONTINUOUS
62
5
10
166.500000
20
-237.750000
11
166.500000
21
-237.249986
0
ARC
5
4ed
100
AcDbEntity
8
1
100
AcDbCircle
6
CONTINUOUS
62
5
10
165.850000
20
-242.749984
40
1.250000
100
AcDbArc
50
-179.999998
51
-126.869897
0
LINE
5
4ee
100
AcDbEntity
8
1
100
AcDbLine
6
CONTINUOUS
62
5
10
164.600000
20
-242.749984
11
164.600000
21
-236.000000
0
LINE
5
4ef
100
AcDbEntity
8
1
100
AcDbLine
6
CONTINUOUS
62
5
10
166.300000
20
-236.000000
11
165.500000
21
-236.000000
0
ARC
5
4f0
100
AcDbEntity
8
1
100
AcDbCircle
6
CONTINUOUS
62
5
10
165.200000
20
-243.350000
40
0.100000
100
AcDbArc
50
89.999999
51
179.999998
0
ARC
5
4f1
100
AcDbEntity
8
1
100
AcDbCircle
6
CONTINUOUS
62
5
10
165.200000
20
-241.100000
40
0.100000
100
AcDbArc
50
89.999999
51
179.999998
0
LINE
5
4f2
100
AcDbEntity
8
1
100
AcDbLine
6
CONTINUOUS
62
5
10
166.500000
20
-243.250000
11
165.200000
21
-243.250000
0
LINE
5
4f3
100
AcDbEntity
8
1
100
AcDbLine
6
CONTINUOUS
62
5
10
166.500000
20
-241.000000
11
165.200000
21
-241.000000
0
ARC
5
4f4
100
AcDbEntity
8
1
100
AcDbCircle
6
CONTINUOUS
62
5
10
164.200000
20
-237.349986
40
0.100000
100
AcDbArc
50
89.999999
51
179.999998
0
LINE
5
4f5
100
AcDbEntity
8
1
100
AcDbLine
6
CONTINUOUS
62
5
10
164.200000
20
-237.249986
11
164.600000
21
-237.249986
0
LINE
5
4f6
100
AcDbEntity
8
1
100
AcDbLine
6
CONTINUOUS
62
5
10
165.100000
20
-243.749984
11
164.200000
21
-243.749984
0
ARC
5
4f7
100
AcDbEntity
8
1
100
AcDbCircle
6
CONTINUOUS
62
5
10
164.200000
20
-243.649984
40
0.100000
100
AcDbArc
50
179.999998
51
-89.999999
0
LINE
5
4f8
100
AcDbEntity
8
1
100
AcDbLine
6
CONTINUOUS
62
5
10
164.100000
20
-243.649984
11
164.100000
21
-237.349986
0
POLYLINE
5
4f9
100
AcDbEntity
8
1
6
CONTINUOUS
62
5
100
AcDb2dPolyline
66
1
10
0.0
20
0.0
30
0.0
70
0
0
VERTEX
5
4fa
100
AcDbEntity
8
1
100
AcDbVertex
100
AcDb2dVertex
62
5
10
166.500000
20
-246.000000
0
VERTEX
5
4fb
100
AcDbEntity
8
1
100
AcDbVertex
100
AcDb2dVertex
62
5
10
166.700000
20
-246.000000
0
VERTEX
5
4fc
100
AcDbEntity
8
1
100
AcDbVertex
100
AcDb2dVertex
62
5
10
166.500000
20
-244.500000
0
SEQEND
5
4fd
100
AcDbEntity
8
1
0
ARC
5
4fe
100
AcDbEntity
8
1
100
AcDbCircle
6
CONTINUOUS
62
5
10
160.569444
20
-233.757106
40
5.236193
100
AcDbArc
50
-19.672882
51
-2.658762
0
LINE
5
4ff
100
AcDbEntity
8
1
100
AcDbLine
6
CONTINUOUS
62
5
10
165.800000
20
-234.000000
11
165.800000
21
-231.000000
0
LINE
5
500
100
AcDbEntity
8
1
100
AcDbLine
6
CONTINUOUS
62
5
10
165.500000
20
-236.000000
11
165.500000
21
-235.519868
0
ARC
5
501
100
AcDbEntity
8
1
100
AcDbCircle
6
CONTINUOUS
62
5
10
173.700000
20
-234.663730
40
10.000000
100
AcDbArc
50
172.405355
51
179.999998
0
LINE
5
502
100
AcDbEntity
8
1
100
AcDbLine
6
CONTINUOUS
62
5
10
163.787721
20
-233.342093
11
164.100000
21
-231.000000
0
LINE
5
503
100
AcDbEntity
8
1
100
AcDbLine
6
CONTINUOUS
62
5
10
164.439103
20
-236.000000
11
163.800000
21
-236.000000
0
ARC
5
504
100
AcDbEntity
8
1
100
AcDbCircle
6
CONTINUOUS
62
5
10
163.800000
20
-235.900000
40
0.100000
100
AcDbArc
50
179.999998
51
-89.999999
0
LINE
5
505
100
AcDbEntity
8
1
100
AcDbLine
6
CONTINUOUS
62
5
10
163.700000
20
-235.900000
11
163.700000
21
-234.663730
0
ARC
5
506
100
AcDbEntity
8
1
100
AcDbCircle
6
CONTINUOUS
62
5
10
159.592507
20
-233.840613
40
4.810134
100
AcDbArc
50
-20.432759
51
-1.898885
0
LINE
5
507
100
AcDbEntity
8
1
100
AcDbLine
6
CONTINUOUS
62
5
10
164.400000
20
-234.000000
11
164.400000
21
-231.000000
0
POLYLINE
5
508
100
AcDbEntity
8
1
6
CONTINUOUS
62
5
100
AcDb2dPolyline
66
1
10
0.0
20
0.0
30
0.0
70
1
0
VERTEX
5
509
100
AcDbEntity
8
1
100
AcDbVertex
100
AcDb2dVertex
62
5
10
166.500000
20
-229.654343
0
VERTEX
5
50a
100
AcDbEntity
8
1
100
AcDbVertex
100
AcDb2dVertex
62
5
10
166.500000
20
-239.250000
0
SEQEND
5
50b
100
AcDbEntity
8
1
0
LINE
5
50c
100
AcDbEntity
8
1
100
AcDbLine
6
CONTINUOUS
62
5
10
166.300000
20
-236.000000
11
166.300000
21
-229.900471
0
LINE
5
50d
100
AcDbEntity
8
1
100
AcDbLine
6
CONTINUOUS
62
5
10
170.200000
20
-211.690883
11
170.200000
21
-214.301505
0
POLYLINE
5
50e
100
AcDbEntity
8
1
6
CONTINUOUS
62
5
100
AcDb2dPolyline
66
1
10
0.0
20
0.0
30
0.0
70
0
0
VERTEX
5
50f
100
AcDbEntity
8
1
100
AcDbVertex
100
AcDb2dVertex
62
5
10
168.700000
20
-211.550000
0
VERTEX
5
510
100
AcDbEntity
8
1
100
AcDbVertex
100
AcDb2dVertex
62
5
10
168.700000
20
-211.550000
0
VERTEX
5
511
100
AcDbEntity
8
1
100
AcDbVertex
100
AcDb2dVertex
62
5
10
168.700000
20
-214.450000
0
SEQEND
5
512
100
AcDbEntity
8
1
0
LINE
5
513
100
AcDbEntity
8
1
100
AcDbLine
6
CONTINUOUS
62
5
10
177.400000
20
-209.000000
11
176.600000
21
-209.000000
0
LINE
5
514
100
AcDbEntity
8
1
100
AcDbLine
6
CONTINUOUS
62
5
10
176.600000
20
-217.000000
11
177.400000
21
-217.000000
0
LINE
5
515
100
AcDbEntity
8
1
100
AcDbLine
6
CONTINUOUS
62
5
10
177.400000
20
-214.600000
11
177.400000
21
-211.400000
0
LINE
5
516
100
AcDbEntity
8
1
100
AcDbLine
6
CONTINUOUS
62
5
10
176.810000
20
-211.480565
11
176.810000
21
-214.527407
0
ARC
5
517
100
AcDbEntity
8
1
100
AcDbCircle
6
CONTINUOUS
62
5
10
177.042273
20
-211.900000
40
0.550000
100
AcDbArc
50
89.999999
51
135.790136
0
LINE
5
518
100
AcDbEntity
8
1
100
AcDbLine
6
CONTINUOUS
62
5
10
176.648038
20
-211.516491
11
175.883209
21
-212.302712
0
ARC
5
519
100
AcDbEntity
8
1
100
AcDbCircle
6
CONTINUOUS
62
5
10
176.600000
20
-213.000000
40
1.000000
100
AcDbArc
50
135.790136
51
-135.790136
0
LINE
5
51a
100
AcDbEntity
8
1
100
AcDbLine
6
CONTINUOUS
62
5
10
175.883209
20
-213.697288
11
176.648038
21
-214.483509
0
ARC
5
51b
100
AcDbEntity
8
1
100
AcDbCircle
6
CONTINUOUS
62
5
10
177.042273
20
-214.100000
40
0.550000
100
AcDbArc
50
-135.790136
51
-89.999999
0
LINE
5
51c
100
AcDbEntity
8
1
100
AcDbLine
6
CONTINUOUS
62
5
10
177.042273
20
-214.650000
11
177.386603
21
-214.650000
0
LINE
5
51d
100
AcDbEntity
8
1
100
AcDbLine
6
CONTINUOUS
62
5
10
177.386603
20
-211.350000
11
177.042273
21
-211.350000
0
ARC
5
51e
100
AcDbEntity
8
1
100
AcDbCircle
6
CONTINUOUS
62
5
10
177.400000
20
-223.000000
40
2.000000
100
AcDbArc
50
-89.999999
51
0.000000
0
LINE
5
51f
100
AcDbEntity
8
1
100
AcDbLine
6
CONTINUOUS
62
5
10
179.400000
20
-223.000000
11
179.400000
21
-190.000000
0
LINE
5
520
100
AcDbEntity
8
1
100
AcDbLine
6
CONTINUOUS
62
5
10
165.900000
20
-229.500000
11
172.300000
21
-229.500000
0
ARC
5
521
100
AcDbEntity
8
1
100
AcDbCircle
6
CONTINUOUS
62
5
10
172.300000
20
-228.500000
40
1.000000
100
AcDbArc
50
-89.999999
51
0.000000
0
LINE
5
522
100
AcDbEntity
8
1
100
AcDbLine
6
CONTINUOUS
62
5
10
173.300000
20
-228.500000
11
173.300000
21
-225.500000
0
ARC
5
523
100
AcDbEntity
8
1
100
AcDbCircle
6
CONTINUOUS
62
5
10
173.800000
20
-225.500000
40
0.500000
100
AcDbArc
50
89.999999
51
179.999998
0
LINE
5
524
100
AcDbEntity
8
1
100
AcDbLine
6
CONTINUOUS
62
5
10
173.800000
20
-225.000000
11
177.400000
21
-225.000000
0
ARC
5
525
100
AcDbEntity
8
1
100
AcDbCircle
6
CONTINUOUS
62
5
10
164.200000
20
-235.900000
40
0.100000
100
AcDbArc
50
179.999998
51
-89.999999
0
LINE
5
526
100
AcDbEntity
8
1
100
AcDbLine
6
CONTINUOUS
62
5
10
164.100000
20
-235.900000
11
164.100000
21
-190.000000
0
LINE
5
527
100
AcDbEntity
8
1
100
AcDbLine
6
CONTINUOUS
62
5
10
165.500000
20
-236.000000
11
164.200000
21
-236.000000
0
ARC
5
528
100
AcDbEntity
8
1
100
AcDbCircle
6
CONTINUOUS
62
5
10
177.300000
20
-214.600000
40
0.100000
100
AcDbArc
50
-89.999999
51
0.000000
0
LINE
5
529
100
AcDbEntity
8
1
100
AcDbLine
6
CONTINUOUS
62
5
10
177.400000
20
-214.600000
11
177.400000
21
-211.400000
0
ARC
5
52a
100
AcDbEntity
8
1
100
AcDbCircle
6
CONTINUOUS
62
5
10
177.300000
20
-211.400000
40
0.100000
100
AcDbArc
50
0.000000
51
89.999999
0
LINE
5
52b
100
AcDbEntity
8
1
100
AcDbLine
6
CONTINUOUS
62
5
10
177.300000
20
-211.300000
11
176.400000
21
-211.300000
0
ARC
5
52c
100
AcDbEntity
8
1
100
AcDbCircle
6
CONTINUOUS
62
5
10
176.400000
20
-210.800000
40
0.500000
100
AcDbArc
50
179.999998
51
-89.999999
0
LINE
5
52d
100
AcDbEntity
8
1
100
AcDbLine
6
CONTINUOUS
62
5
10
175.900000
20
-210.800000
11
175.900000
21
-209.800000
0
ARC
5
52e
100
AcDbEntity
8
1
100
AcDbCircle
6
CONTINUOUS
62
5
10
176.400000
20
-209.800000
40
0.500000
100
AcDbArc
50
89.999999
51
179.999998
0
LINE
5
52f
100
AcDbEntity
8
1
100
AcDbLine
6
CONTINUOUS
62
5
10
176.400000
20
-209.300000
11
177.300000
21
-209.300000
0
ARC
5
530
100
AcDbEntity
8
1
100
AcDbCircle
6
CONTINUOUS
62
5
10
177.300000
20
-209.200000
40
0.100000
100
AcDbArc
50
-89.999999
51
0.000000
0
LINE
5
531
100
AcDbEntity
8
1
100
AcDbLine
6
CONTINUOUS
62
5
10
177.400000
20
-209.200000
11
177.400000
21
-204.800000
0
ARC
5
532
100
AcDbEntity
8
1
100
AcDbCircle
6
CONTINUOUS
62
5
10
177.300000
20
-204.800000
40
0.100000
100
AcDbArc
50
0.000000
51
89.999999
0
LINE
5
533
100
AcDbEntity
8
1
100
AcDbLine
6
CONTINUOUS
62
5
10
177.300000
20
-204.700000
11
164.200000
21
-204.700000
0
LINE
5
534
100
AcDbEntity
8
1
100
AcDbLine
6
CONTINUOUS
62
5
10
164.200000
20
-221.300000
11
177.300000
21
-221.300000
0
ARC
5
535
100
AcDbEntity
8
1
100
AcDbCircle
6
CONTINUOUS
62
5
10
177.300000
20
-221.200000
40
0.100000
100
AcDbArc
50
-89.999999
51
0.000000
0
LINE
5
536
100
AcDbEntity
8
1
100
AcDbLine
6
CONTINUOUS
62
5
10
177.400000
20
-221.200000
11
177.400000
21
-216.800000
0
ARC
5
537
100
AcDbEntity
8
1
100
AcDbCircle
6
CONTINUOUS
62
5
10
177.300000
20
-216.800000
40
0.100000
100
AcDbArc
50
0.000000
51
89.999999
0
LINE
5
538
100
AcDbEntity
8
1
100
AcDbLine
6
CONTINUOUS
62
5
10
177.300000
20
-216.700000
11
176.400000
21
-216.700000
0
ARC
5
539
100
AcDbEntity
8
1
100
AcDbCircle
6
CONTINUOUS
62
5
10
176.400000
20
-216.200000
40
0.500000
100
AcDbArc
50
179.999998
51
-89.999999
0
LINE
5
53a
100
AcDbEntity
8
1
100
AcDbLine
6
CONTINUOUS
62
5
10
175.900000
20
-216.200000
11
175.900000
21
-215.200000
0
ARC
5
53b
100
AcDbEntity
8
1
100
AcDbCircle
6
CONTINUOUS
62
5
10
176.400000
20
-215.200000
40
0.500000
100
AcDbArc
50
89.999999
51
179.999998
0
LINE
5
53c
100
AcDbEntity
8
1
100
AcDbLine
6
CONTINUOUS
62
5
10
176.400000
20
-214.700000
11
177.300000
21
-214.700000
0
LINE
5
53d
100
AcDbEntity
8
1
100
AcDbLine
6
CONTINUOUS
62
5
10
165.500000
20
-221.300000
11
165.500000
21
-204.700000
0
LINE
5
53e
100
AcDbEntity
8
1
100
AcDbLine
6
CONTINUOUS
62
5
10
166.300000
20
-204.700000
11
166.300000
21
-221.300000
0
LINE
5
53f
100
AcDbEntity
8
1
100
AcDbLine
6
CONTINUOUS
62
5
10
166.300000
20
-208.100000
11
166.300000
21
-217.753289
0
LINE
5
540
100
AcDbEntity
8
1
100
AcDbLine
6
CONTINUOUS
62
5
10
166.490000
20
-208.100000
11
166.490000
21
-217.900000
0
LINE
5
541
100
AcDbEntity
8
1
100
AcDbLine
6
CONTINUOUS
62
5
10
167.100000
20
-208.000000
11
167.100000
21
-218.000000
0
LINE
5
542
100
AcDbEntity
8
1
100
AcDbLine
6
CONTINUOUS
62
5
10
105.000000
20
-182.500000
11
105.100000
21
-182.500000
0
ARC
5
543
100
AcDbEntity
8
1
100
AcDbCircle
6
CONTINUOUS
62
5
10
105.200000
20
-182.000000
40
0.200000
100
AcDbArc
50
0.000000
51
89.999999
0
POLYLINE
5
544
100
AcDbEntity
8
1
6
CONTINUOUS
62
5
100
AcDb2dPolyline
66
1
10
0.0
20
0.0
30
0.0
70
0
0
VERTEX
5
545
100
AcDbEntity
8
1
100
AcDbVertex
100
AcDb2dVertex
62
5
10
105.400000
20
-182.000000
0
VERTEX
5
546
100
AcDbEntity
8
1
100
AcDbVertex
100
AcDb2dVertex
62
5
10
105.400000
20
-186.000000
0
VERTEX
5
547
100
AcDbEntity
8
1
100
AcDbVertex
100
AcDb2dVertex
62
5
10
105.100000
20
-186.000000
0
SEQEND
5
548
100
AcDbEntity
8
1
0
LINE
5
549
100
AcDbEntity
8
1
100
AcDbLine
6
CONTINUOUS
62
5
10
105.100000
20
-181.800000
11
105.200000
21
-181.800000
0
ARC
5
54a
100
AcDbEntity
8
1
100
AcDbCircle
6
CONTINUOUS
62
5
10
106.400000
20
-181.600000
40
0.100000
100
AcDbArc
50
-89.999999
51
0.000000
0
ARC
5
54b
100
AcDbEntity
8
1
100
AcDbCircle
6
CONTINUOUS
62
5
10
106.400000
20
-186.400000
40
0.100000
100
AcDbArc
50
0.000000
51
89.999999
0
LINE
5
54c
100
AcDbEntity
8
1
100
AcDbLine
6
CONTINUOUS
62
5
10
105.100000
20
-186.300000
11
106.400000
21
-186.300000
0
LINE
5
54d
100
AcDbEntity
8
1
100
AcDbLine
6
CONTINUOUS
62
5
10
105.000000
20
-174.500000
11
105.100000
21
-174.500000
0
ARC
5
54e
100
AcDbEntity
8
1
100
AcDbCircle
6
CONTINUOUS
62
5
10
105.200000
20
-175.000000
40
0.200000
100
AcDbArc
50
-89.999999
51
0.000000
0
POLYLINE
5
54f
100
AcDbEntity
8
1
6
CONTINUOUS
62
5
100
AcDb2dPolyline
66
1
10
0.0
20
0.0
30
0.0
70
0
0
VERTEX
5
550
100
AcDbEntity
8
1
100
AcDbVertex
100
AcDb2dVertex
62
5
10
105.400000
20
-175.000000
0
VERTEX
5
551
100
AcDbEntity
8
1
100
AcDbVertex
100
AcDb2dVertex
62
5
10
105.400000
20
-171.000000
0
VERTEX
5
552
100
AcDbEntity
8
1
100
AcDbVertex
100
AcDb2dVertex
62
5
10
105.100000
20
-171.000000
0
SEQEND
5
553
100
AcDbEntity
8
1
0
LINE
5
554
100
AcDbEntity
8
1
100
AcDbLine
6
CONTINUOUS
62
5
10
105.100000
20
-175.200000
11
105.200000
21
-175.200000
0
LINE
5
555
100
AcDbEntity
8
1
100
AcDbLine
6
CONTINUOUS
62
5
10
105.100000
20
-175.300000
11
105.100000
21
-174.500000
0
ARC
5
556
100
AcDbEntity
8
1
100
AcDbCircle
6
CONTINUOUS
62
5
10
106.400000
20
-170.600000
40
0.100000
100
AcDbArc
50
-89.999999
51
0.000000
0
LINE
5
557
100
AcDbEntity
8
1
100
AcDbLine
6
CONTINUOUS
62
5
10
105.100000
20
-170.700000
11
106.400000
21
-170.700000
0
ARC
5
558
100
AcDbEntity
8
1
100
AcDbCircle
6
CONTINUOUS
62
5
10
106.400000
20
-175.400000
40
0.100000
100
AcDbArc
50
0.000000
51
89.999999
0
LINE
5
559
100
AcDbEntity
8
1
100
AcDbLine
6
CONTINUOUS
62
5
10
105.100000
20
-190.000000
11
106.100000
21
-190.000000
0
ARC
5
55a
100
AcDbEntity
8
1
100
AcDbCircle
6
CONTINUOUS
62
5
10
106.400000
20
-188.200000
40
0.100000
100
AcDbArc
50
-89.999999
51
0.000000
0
LINE
5
55b
100
AcDbEntity
8
1
100
AcDbLine
6
CONTINUOUS
62
5
10
105.100000
20
-188.300000
11
106.400000
21
-188.300000
0
ARC
5
55c
100
AcDbEntity
8
1
100
AcDbCircle
6
CONTINUOUS
62
5
10
105.600000
20
-188.350000
40
0.500000
100
AcDbArc
50
179.999998
51
-129.529084
0
LINE
5
55d
100
AcDbEntity
8
1
100
AcDbLine
6
CONTINUOUS
62
5
10
105.281765
20
-188.735651
11
105.645587
21
-189.035873
0
ARC
5
55e
100
AcDbEntity
8
1
100
AcDbCircle
6
CONTINUOUS
62
5
10
104.850000
20
-190.000000
40
1.250000
100
AcDbArc
50
-0.000000
51
50.470914
0
LINE
5
55f
100
AcDbEntity
8
1
100
AcDbLine
6
CONTINUOUS
62
5
10
99.300000
20
-179.400000
11
99.500000
21
-179.400000
0
LINE
5
560
100
AcDbEntity
8
1
100
AcDbLine
6
CONTINUOUS
62
5
10
99.300000
20
-177.400000
11
99.500000
21
-177.400000
0
POLYLINE
5
561
100
AcDbEntity
8
1
6
CONTINUOUS
62
5
100
AcDb2dPolyline
66
1
10
0.0
20
0.0
30
0.0
70
1
0
VERTEX
5
562
100
AcDbEntity
8
1
100
AcDbVertex
100
AcDb2dVertex
62
5
10
99.050000
20
-179.400000
0
VERTEX
5
563
100
AcDbEntity
8
1
100
AcDbVertex
100
AcDb2dVertex
62
5
10
99.300000
20
-179.400000
0
VERTEX
5
564
100
AcDbEntity
8
1
100
AcDbVertex
100
AcDb2dVertex
62
5
10
99.300000
20
-177.400000
0
VERTEX
5
565
100
AcDbEntity
8
1
100
AcDbVertex
100
AcDb2dVertex
62
5
10
99.050000
20
-177.400000
0
SEQEND
5
566
100
AcDbEntity
8
1
0
ARC
5
567
100
AcDbEntity
8
1
100
AcDbCircle
6
CONTINUOUS
62
5
10
106.400000
20
-198.400000
40
0.100000
100
AcDbArc
50
0.000000
51
89.999999
0
LINE
5
568
100
AcDbEntity
8
1
100
AcDbLine
6
CONTINUOUS
62
5
10
105.000000
20
-205.500000
11
105.100000
21
-205.500000
0
ARC
5
569
100
AcDbEntity
8
1
100
AcDbCircle
6
CONTINUOUS
62
5
10
106.400000
20
-204.600000
40
0.100000
100
AcDbArc
50
-89.999999
51
0.000000
0
ARC
5
56a
100
AcDbEntity
8
1
100
AcDbCircle
6
CONTINUOUS
62
5
10
105.200000
20
-198.000000
40
0.200000
100
AcDbArc
50
-89.999999
51
0.000000
0
POLYLINE
5
56b
100
AcDbEntity
8
1
6
CONTINUOUS
62
5
100
AcDb2dPolyline
66
1
10
0.0
20
0.0
30
0.0
70
0
0
VERTEX
5
56c
100
AcDbEntity
8
1
100
AcDbVertex
100
AcDb2dVertex
62
5
10
105.400000
20
-198.000000
0
VERTEX
5
56d
100
AcDbEntity
8
1
100
AcDbVertex
100
AcDb2dVertex
62
5
10
105.400000
20
-194.000000
0
VERTEX
5
56e
100
AcDbEntity
8
1
100
AcDbVertex
100
AcDb2dVertex
62
5
10
105.100000
20
-194.000000
0
SEQEND
5
56f
100
AcDbEntity
8
1
0
LINE
5
570
100
AcDbEntity
8
1
100
AcDbLine
6
CONTINUOUS
62
5
10
105.100000
20
-198.200000
11
105.200000
21
-198.200000
0
LINE
5
571
100
AcDbEntity
8
1
100
AcDbLine
6
CONTINUOUS
62
5
10
105.000000
20
-197.500000
11
105.100000
21
-197.500000
0
LINE
5
572
100
AcDbEntity
8
1
100
AcDbLine
6
CONTINUOUS
62
5
10
105.100000
20
-198.300000
11
105.100000
21
-197.500000
0
ARC
5
573
100
AcDbEntity
8
1
100
AcDbCircle
6
CONTINUOUS
62
5
10
106.400000
20
-191.800000
40
0.100000
100
AcDbArc
50
0.000000
51
89.999999
0
LINE
5
574
100
AcDbEntity
8
1
100
AcDbLine
6
CONTINUOUS
62
5
10
105.100000
20
-191.700000
11
106.400000
21
-191.700000
0
ARC
5
575
100
AcDbEntity
8
1
100
AcDbCircle
6
CONTINUOUS
62
5
10
106.400000
20
-193.600000
40
0.100000
100
AcDbArc
50
-89.999999
51
0.000000
0
LINE
5
576
100
AcDbEntity
8
1
100
AcDbLine
6
CONTINUOUS
62
5
10
105.100000
20
-193.700000
11
106.400000
21
-193.700000
0
ARC
5
577
100
AcDbEntity
8
1
100
AcDbCircle
6
CONTINUOUS
62
5
10
106.400000
20
-209.400000
40
0.100000
100
AcDbArc
50
0.000000
51
89.999999
0
LINE
5
578
100
AcDbEntity
8
1
100
AcDbLine
6
CONTINUOUS
62
5
10
105.100000
20
-209.300000
11
106.400000
21
-209.300000
0
ARC
5
579
100
AcDbEntity
8
1
100
AcDbCircle
6
CONTINUOUS
62
5
10
106.400000
20
-211.200000
40
0.100000
100
AcDbArc
50
-89.999999
51
0.000000
0
LINE
5
57a
100
AcDbEntity
8
1
100
AcDbLine
6
CONTINUOUS
62
5
10
105.100000
20
-211.300000
11
106.400000
21
-211.300000
0
ARC
5
57b
100
AcDbEntity
8
1
100
AcDbCircle
6
CONTINUOUS
62
5
10
103.700000
20
-211.000000
40
1.000000
100
AcDbArc
50
60.387857
51
-60.770147
0
ARC
5
57c
100
AcDbEntity
8
1
100
AcDbCircle
6
CONTINUOUS
62
5
10
105.200000
20
-205.000000
40
0.200000
100
AcDbArc
50
0.000000
51
89.999999
0
POLYLINE
5
57d
100
AcDbEntity
8
1
6
CONTINUOUS
62
5
100
AcDb2dPolyline
66
1
10
0.0
20
0.0
30
0.0
70
0
0
VERTEX
5
57e
100
AcDbEntity
8
1
100
AcDbVertex
100
AcDb2dVertex
62
5
10
105.400000
20
-205.000000
0
VERTEX
5
57f
100
AcDbEntity
8
1
100
AcDbVertex
100
AcDb2dVertex
62
5
10
105.400000
20
-209.000000
0
VERTEX
5
580
100
AcDbEntity
8
1
100
AcDbVertex
100
AcDb2dVertex
62
5
10
105.100000
20
-209.000000
0
SEQEND
5
581
100
AcDbEntity
8
1
0
LINE
5
582
100
AcDbEntity
8
1
100
AcDbLine
6
CONTINUOUS
62
5
10
105.100000
20
-204.800000
11
105.200000
21
-204.800000
0
LINE
5
583
100
AcDbEntity
8
1
100
AcDbLine
6
CONTINUOUS
62
5
10
99.300000
20
-200.600000
11
99.500000
21
-200.600000
0
POLYLINE
5
584
100
AcDbEntity
8
1
6
CONTINUOUS
62
5
100
AcDb2dPolyline
66
1
10
0.0
20
0.0
30
0.0
70
1
0
VERTEX
5
585
100
AcDbEntity
8
1
100
AcDbVertex
100
AcDb2dVertex
62
5
10
99.050000
20
-202.600000
0
VERTEX
5
586
100
AcDbEntity
8
1
100
AcDbVertex
100
AcDb2dVertex
62
5
10
99.300000
20
-202.600000
0
VERTEX
5
587
100
AcDbEntity
8
1
100
AcDbVertex
100
AcDb2dVertex
62
5
10
99.300000
20
-200.600000
0
VERTEX
5
588
100
AcDbEntity
8
1
100
AcDbVertex
100
AcDb2dVertex
62
5
10
99.050000
20
-200.600000
0
SEQEND
5
589
100
AcDbEntity
8
1
0
LINE
5
58a
100
AcDbEntity
8
1
100
AcDbLine
6
CONTINUOUS
62
5
10
99.300000
20
-202.600000
11
99.500000
21
-202.600000
0
ARC
5
58b
100
AcDbEntity
8
1
100
AcDbCircle
6
CONTINUOUS
62
5
10
105.600000
20
-191.650000
40
0.500000
100
AcDbArc
50
129.529084
51
179.999998
0
LINE
5
58c
100
AcDbEntity
8
1
100
AcDbLine
6
CONTINUOUS
62
5
10
105.281765
20
-191.264349
11
105.645587
21
-190.964127
0
ARC
5
58d
100
AcDbEntity
8
1
100
AcDbCircle
6
CONTINUOUS
62
5
10
104.850000
20
-190.000000
40
1.250000
100
AcDbArc
50
-50.470914
51
0.000000
0
ARC
5
58e
100
AcDbEntity
8
1
100
AcDbCircle
6
CONTINUOUS
62
5
10
103.700000
20
-190.000000
40
1.000000
100
AcDbArc
50
60.488264
51
-60.615403
0
LINE
5
58f
100
AcDbEntity
8
1
100
AcDbLine
6
CONTINUOUS
62
5
10
105.100000
20
-197.500000
11
105.100000
21
-181.700000
0
ARC
5
590
100
AcDbEntity
8
1
100
AcDbCircle
6
CONTINUOUS
62
5
10
104.700000
20
-185.700000
40
0.300000
100
AcDbArc
50
-89.999999
51
0.000000
0
LINE
5
591
100
AcDbEntity
8
1
100
AcDbLine
6
CONTINUOUS
62
5
10
104.700000
20
-186.000000
11
104.500000
21
-186.000000
0
ARC
5
592
100
AcDbEntity
8
1
100
AcDbCircle
6
CONTINUOUS
62
5
10
104.500000
20
-186.300000
40
0.300000
100
AcDbArc
50
89.999999
51
179.999998
0
LINE
5
593
100
AcDbEntity
8
1
100
AcDbLine
6
CONTINUOUS
62
5
10
104.200000
20
-186.300000
11
104.200000
21
-193.700000
0
ARC
5
594
100
AcDbEntity
8
1
100
AcDbCircle
6
CONTINUOUS
62
5
10
104.500000
20
-193.700000
40
0.300000
100
AcDbArc
50
179.999998
51
-89.999999
0
LINE
5
595
100
AcDbEntity
8
1
100
AcDbLine
6
CONTINUOUS
62
5
10
104.500000
20
-194.000000
11
104.700000
21
-194.000000
0
ARC
5
596
100
AcDbEntity
8
1
100
AcDbCircle
6
CONTINUOUS
62
5
10
104.700000
20
-194.300000
40
0.300000
100
AcDbArc
50
0.000000
51
89.999999
0
POLYLINE
5
597
100
AcDbEntity
8
1
6
CONTINUOUS
62
5
100
AcDb2dPolyline
66
1
10
0.0
20
0.0
30
0.0
70
0
0
VERTEX
5
598
100
AcDbEntity
8
1
100
AcDbVertex
100
AcDb2dVertex
62
5
10
105.000000
20
-194.300000
0
VERTEX
5
599
100
AcDbEntity
8
1
100
AcDbVertex
100
AcDb2dVertex
62
5
10
105.000000
20
-198.300000
0
VERTEX
5
59a
100
AcDbEntity
8
1
100
AcDbVertex
100
AcDb2dVertex
62
5
10
106.400000
20
-198.300000
0
SEQEND
5
59b
100
AcDbEntity
8
1
0
POLYLINE
5
59c
100
AcDbEntity
8
1
6
CONTINUOUS
62
5
100
AcDb2dPolyline
66
1
10
0.0
20
0.0
30
0.0
70
0
0
VERTEX
5
59d
100
AcDbEntity
8
1
100
AcDbVertex
100
AcDb2dVertex
62
5
10
106.400000
20
-181.700000
0
VERTEX
5
59e
100
AcDbEntity
8
1
100
AcDbVertex
100
AcDb2dVertex
62
5
10
105.000000
20
-181.700000
0
VERTEX
5
59f
100
AcDbEntity
8
1
100
AcDbVertex
100
AcDb2dVertex
62
5
10
105.000000
20
-185.700000
0
SEQEND
5
5a0
100
AcDbEntity
8
1
0
LINE
5
5a1
100
AcDbEntity
8
1
100
AcDbLine
6
CONTINUOUS
62
5
10
105.012591
20
-185.772638
11
105.012591
21
-194.193308
0
LINE
5
5a2
100
AcDbEntity
8
1
100
AcDbLine
6
CONTINUOUS
62
5
10
104.850000
20
-194.020709
11
104.850000
21
-185.992480
0
LINE
5
5a3
100
AcDbEntity
8
1
100
AcDbLine
6
CONTINUOUS
62
5
10
62.000000
20
-181.750000
11
62.000000
21
-183.423607
0
ARC
5
5a4
100
AcDbEntity
8
1
100
AcDbCircle
6
CONTINUOUS
62
5
10
60.700000
20
-181.600000
40
0.100000
100
AcDbArc
50
179.999998
51
-89.999999
0
POLYLINE
5
5a5
100
AcDbEntity
8
1
6
CONTINUOUS
62
5
100
AcDb2dPolyline
66
1
10
0.0
20
0.0
30
0.0
70
1
0
VERTEX
5
5a6
100
AcDbEntity
8
1
100
AcDbVertex
100
AcDb2dVertex
62
5
10
67.300000
20
-179.400000
0
VERTEX
5
5a7
100
AcDbEntity
8
1
100
AcDbVertex
100
AcDb2dVertex
62
5
10
67.550000
20
-179.400000
0
VERTEX
5
5a8
100
AcDbEntity
8
1
100
AcDbVertex
100
AcDb2dVertex
62
5
10
67.550000
20
-177.400000
0
VERTEX
5
5a9
100
AcDbEntity
8
1
100
AcDbVertex
100
AcDb2dVertex
62
5
10
67.300000
20
-177.400000
0
SEQEND
5
5aa
100
AcDbEntity
8
1
0
LINE
5
5ab
100
AcDbEntity
8
1
100
AcDbLine
6
CONTINUOUS
62
5
10
62.000000
20
-173.576393
11
62.000000
21
-175.250000
0
ARC
5
5ac
100
AcDbEntity
8
1
100
AcDbCircle
6
CONTINUOUS
62
5
10
60.700000
20
-175.400000
40
0.100000
100
AcDbArc
50
89.999999
51
179.999998
0
ARC
5
5ad
100
AcDbEntity
8
1
100
AcDbCircle
6
CONTINUOUS
62
5
10
62.250000
20
-190.000000
40
1.000000
100
AcDbArc
50
161.384857
51
-161.384857
0
LINE
5
5ae
100
AcDbEntity
8
1
100
AcDbLine
6
CONTINUOUS
62
5
10
61.400000
20
-187.800000
11
60.700000
21
-187.800000
0
ARC
5
5af
100
AcDbEntity
8
1
100
AcDbCircle
6
CONTINUOUS
62
5
10
21.200000
20
-186.150000
40
40.000000
100
AcDbArc
50
-2.190679
51
2.190679
0
ARC
5
5b0
100
AcDbEntity
8
1
100
AcDbCircle
6
CONTINUOUS
62
5
10
61.070839
20
-187.675187
40
0.100000
100
AcDbArc
50
-86.999999
51
-2.190679
0
LINE
5
5b1
100
AcDbEntity
8
1
100
AcDbLine
6
CONTINUOUS
62
5
10
61.076073
20
-187.775050
11
60.694766
21
-187.795034
0
ARC
5
5b2
100
AcDbEntity
8
1
100
AcDbCircle
6
CONTINUOUS
62
5
10
60.700000
20
-187.894896
40
0.100000
100
AcDbArc
50
92.999999
51
179.999998
0
LINE
5
5b3
100
AcDbEntity
8
1
100
AcDbLine
6
CONTINUOUS
62
5
10
60.600000
20
-187.894896
11
60.600000
21
-187.900000
0
LINE
5
5b4
100
AcDbEntity
8
1
100
AcDbLine
6
CONTINUOUS
62
5
10
60.600000
20
-184.400000
11
60.600000
21
-184.405104
0
ARC
5
5b5
100
AcDbEntity
8
1
100
AcDbCircle
6
CONTINUOUS
62
5
10
60.700000
20
-184.405104
40
0.100000
100
AcDbArc
50
179.999998
51
-92.999999
0
LINE
5
5b6
100
AcDbEntity
8
1
100
AcDbLine
6
CONTINUOUS
62
5
10
60.694766
20
-184.504966
11
61.076073
21
-184.524950
0
ARC
5
5b7
100
AcDbEntity
8
1
100
AcDbCircle
6
CONTINUOUS
62
5
10
61.070839
20
-184.624813
40
0.100000
100
AcDbArc
50
2.190679
51
86.999999
0
ARC
5
5b8
100
AcDbEntity
8
1
100
AcDbCircle
6
CONTINUOUS
62
5
10
60.700000
20
-198.400000
40
0.100000
100
AcDbArc
50
89.999999
51
179.999998
0
LINE
5
5b9
100
AcDbEntity
8
1
100
AcDbLine
6
CONTINUOUS
62
5
10
62.000000
20
-204.750000
11
62.000000
21
-206.423607
0
POLYLINE
5
5ba
100
AcDbEntity
8
1
6
CONTINUOUS
62
5
100
AcDb2dPolyline
66
1
10
0.0
20
0.0
30
0.0
70
1
0
VERTEX
5
5bb
100
AcDbEntity
8
1
100
AcDbVertex
100
AcDb2dVertex
62
5
10
67.300000
20
-202.600000
0
VERTEX
5
5bc
100
AcDbEntity
8
1
100
AcDbVertex
100
AcDb2dVertex
62
5
10
67.550000
20
-202.600000
0
VERTEX
5
5bd
100
AcDbEntity
8
1
100
AcDbVertex
100
AcDb2dVertex
62
5
10
67.550000
20
-200.600000
0
VERTEX
5
5be
100
AcDbEntity
8
1
100
AcDbVertex
100
AcDb2dVertex
62
5
10
67.300000
20
-200.600000
0
SEQEND
5
5bf
100
AcDbEntity
8
1
0
ARC
5
5c0
100
AcDbEntity
8
1
100
AcDbCircle
6
CONTINUOUS
62
5
10
60.700000
20
-204.600000
40
0.100000
100
AcDbArc
50
179.999998
51
-89.999999
0
ARC
5
5c1
100
AcDbEntity
8
1
100
AcDbCircle
6
CONTINUOUS
62
5
10
21.200000
20
-193.850000
40
40.000000
100
AcDbArc
50
-2.190679
51
2.190679
0
ARC
5
5c2
100
AcDbEntity
8
1
100
AcDbCircle
6
CONTINUOUS
62
5
10
61.070839
20
-195.375187
40
0.100000
100
AcDbArc
50
-86.999999
51
-2.190679
0
LINE
5
5c3
100
AcDbEntity
8
1
100
AcDbLine
6
CONTINUOUS
62
5
10
61.076073
20
-195.475050
11
60.694766
21
-195.495034
0
ARC
5
5c4
100
AcDbEntity
8
1
100
AcDbCircle
6
CONTINUOUS
62
5
10
60.700000
20
-195.594896
40
0.100000
100
AcDbArc
50
92.999999
51
179.999998
0
LINE
5
5c5
100
AcDbEntity
8
1
100
AcDbLine
6
CONTINUOUS
62
5
10
60.600000
20
-195.594896
11
60.600000
21
-195.600000
0
LINE
5
5c6
100
AcDbEntity
8
1
100
AcDbLine
6
CONTINUOUS
62
5
10
60.600000
20
-192.100000
11
60.600000
21
-192.105104
0
ARC
5
5c7
100
AcDbEntity
8
1
100
AcDbCircle
6
CONTINUOUS
62
5
10
60.700000
20
-192.105104
40
0.100000
100
AcDbArc
50
179.999998
51
-92.999999
0
LINE
5
5c8
100
AcDbEntity
8
1
100
AcDbLine
6
CONTINUOUS
62
5
10
60.694766
20
-192.204966
11
61.076073
21
-192.224950
0
ARC
5
5c9
100
AcDbEntity
8
1
100
AcDbCircle
6
CONTINUOUS
62
5
10
61.070839
20
-192.324813
40
0.100000
100
AcDbArc
50
2.190679
51
86.999999
0
LINE
5
5ca
100
AcDbEntity
8
1
100
AcDbLine
6
CONTINUOUS
62
5
10
62.000000
20
-196.576393
11
62.000000
21
-198.250000
0
LINE
5
5cb
100
AcDbEntity
8
1
100
AcDbLine
6
CONTINUOUS
62
5
10
61.400000
20
-192.200000
11
60.700000
21
-192.200000
0
CIRCLE
5
5cc
100
AcDbEntity
8
1
100
AcDbCircle
6
CONTINUOUS
62
5
10
63.100000
20
-211.000000
40
1.000000
0
LINE
5
5cd
100
AcDbEntity
8
1
100
AcDbLine
6
CONTINUOUS
62
5
10
61.400000
20
-210.800000
11
60.700000
21
-210.800000
0
ARC
5
5ce
100
AcDbEntity
8
1
100
AcDbCircle
6
CONTINUOUS
62
5
10
21.200000
20
-209.150000
40
40.000000
100
AcDbArc
50
-2.190679
51
2.190679
0
ARC
5
5cf
100
AcDbEntity
8
1
100
AcDbCircle
6
CONTINUOUS
62
5
10
61.070839
20
-210.675187
40
0.100000
100
AcDbArc
50
-86.999999
51
-2.190679
0
LINE
5
5d0
100
AcDbEntity
8
1
100
AcDbLine
6
CONTINUOUS
62
5
10
61.076073
20
-210.775050
11
60.694766
21
-210.795034
0
ARC
5
5d1
100
AcDbEntity
8
1
100
AcDbCircle
6
CONTINUOUS
62
5
10
60.700000
20
-210.894896
40
0.100000
100
AcDbArc
50
92.999999
51
179.999998
0
LINE
5
5d2
100
AcDbEntity
8
1
100
AcDbLine
6
CONTINUOUS
62
5
10
60.600000
20
-210.894896
11
60.600000
21
-210.900000
0
LINE
5
5d3
100
AcDbEntity
8
1
100
AcDbLine
6
CONTINUOUS
62
5
10
60.600000
20
-207.400000
11
60.600000
21
-207.405104
0
ARC
5
5d4
100
AcDbEntity
8
1
100
AcDbCircle
6
CONTINUOUS
62
5
10
60.700000
20
-207.405104
40
0.100000
100
AcDbArc
50
179.999998
51
-92.999999
0
LINE
5
5d5
100
AcDbEntity
8
1
100
AcDbLine
6
CONTINUOUS
62
5
10
60.694766
20
-207.504966
11
61.076073
21
-207.524950
0
ARC
5
5d6
100
AcDbEntity
8
1
100
AcDbCircle
6
CONTINUOUS
62
5
10
61.070839
20
-207.624813
40
0.100000
100
AcDbArc
50
2.190679
51
86.999999
0
CIRCLE
5
5d7
100
AcDbEntity
8
1
100
AcDbCircle
6
CONTINUOUS
62
5
10
63.100000
20
-190.000000
40
1.000000
0
ARC
5
5d8
100
AcDbEntity
8
1
100
AcDbCircle
6
CONTINUOUS
62
5
10
62.250000
20
-190.000000
40
1.250000
100
AcDbArc
50
138.370695
51
-138.370695
0
ARC
5
5d9
100
AcDbEntity
8
1
100
AcDbCircle
6
CONTINUOUS
62
5
10
61.700000
20
-183.800000
40
0.300000
100
AcDbArc
50
89.999999
51
179.999998
0
LINE
5
5da
100
AcDbEntity
8
1
100
AcDbLine
6
CONTINUOUS
62
5
10
61.700000
20
-183.500000
11
61.800000
21
-183.500000
0
ARC
5
5db
100
AcDbEntity
8
1
100
AcDbCircle
6
CONTINUOUS
62
5
10
61.800000
20
-183.200000
40
0.300000
100
AcDbArc
50
-89.999999
51
0.000000
0
POLYLINE
5
5dc
100
AcDbEntity
8
1
6
CONTINUOUS
62
5
100
AcDb2dPolyline
66
1
10
0.0
20
0.0
30
0.0
70
0
0
VERTEX
5
5dd
100
AcDbEntity
8
1
100
AcDbVertex
100
AcDb2dVertex
62
5
10
62.100000
20
-183.200000
0
VERTEX
5
5de
100
AcDbEntity
8
1
100
AcDbVertex
100
AcDb2dVertex
62
5
10
62.100000
20
-181.700000
0
VERTEX
5
5df
100
AcDbEntity
8
1
100
AcDbVertex
100
AcDb2dVertex
62
5
10
60.700000
20
-181.700000
0
SEQEND
5
5e0
100
AcDbEntity
8
1
0
POLYLINE
5
5e1
100
AcDbEntity
8
1
6
CONTINUOUS
62
5
100
AcDb2dPolyline
66
1
10
0.0
20
0.0
30
0.0
70
0
0
VERTEX
5
5e2
100
AcDbEntity
8
1
100
AcDbVertex
100
AcDb2dVertex
62
5
10
60.700000
20
-198.300000
0
VERTEX
5
5e3
100
AcDbEntity
8
1
100
AcDbVertex
100
AcDb2dVertex
62
5
10
62.100000
20
-198.300000
0
VERTEX
5
5e4
100
AcDbEntity
8
1
100
AcDbVertex
100
AcDb2dVertex
62
5
10
62.100000
20
-196.800000
0
SEQEND
5
5e5
100
AcDbEntity
8
1
0
ARC
5
5e6
100
AcDbEntity
8
1
100
AcDbCircle
6
CONTINUOUS
62
5
10
61.800000
20
-196.800000
40
0.300000
100
AcDbArc
50
0.000000
51
89.999999
0
LINE
5
5e7
100
AcDbEntity
8
1
100
AcDbLine
6
CONTINUOUS
62
5
10
61.800000
20
-196.500000
11
61.700000
21
-196.500000
0
ARC
5
5e8
100
AcDbEntity
8
1
100
AcDbCircle
6
CONTINUOUS
62
5
10
61.700000
20
-196.200000
40
0.300000
100
AcDbArc
50
179.999998
51
-89.999999
0
LINE
5
5e9
100
AcDbEntity
8
1
100
AcDbLine
6
CONTINUOUS
62
5
10
61.400000
20
-196.200000
11
61.400000
21
-183.800000
0
ARC
5
5ea
100
AcDbEntity
8
1
100
AcDbCircle
6
CONTINUOUS
62
5
10
105.200000
20
-221.000000
40
0.200000
100
AcDbArc
50
-89.999999
51
0.000000
0
POLYLINE
5
5eb
100
AcDbEntity
8
1
6
CONTINUOUS
62
5
100
AcDb2dPolyline
66
1
10
0.0
20
0.0
30
0.0
70
0
0
VERTEX
5
5ec
100
AcDbEntity
8
1
100
AcDbVertex
100
AcDb2dVertex
62
5
10
105.400000
20
-221.000000
0
VERTEX
5
5ed
100
AcDbEntity
8
1
100
AcDbVertex
100
AcDb2dVertex
62
5
10
105.400000
20
-217.000000
0
VERTEX
5
5ee
100
AcDbEntity
8
1
100
AcDbVertex
100
AcDb2dVertex
62
5
10
105.100000
20
-217.000000
0
SEQEND
5
5ef
100
AcDbEntity
8
1
0
LINE
5
5f0
100
AcDbEntity
8
1
100
AcDbLine
6
CONTINUOUS
62
5
10
105.100000
20
-221.200000
11
105.200000
21
-221.200000
0
LINE
5
5f1
100
AcDbEntity
8
1
100
AcDbLine
6
CONTINUOUS
62
5
10
105.100000
20
-221.300000
11
105.100000
21
-220.500000
0
LINE
5
5f2
100
AcDbEntity
8
1
100
AcDbLine
6
CONTINUOUS
62
5
10
105.000000
20
-220.500000
11
105.100000
21
-220.500000
0
ARC
5
5f3
100
AcDbEntity
8
1
100
AcDbCircle
6
CONTINUOUS
62
5
10
106.400000
20
-221.400000
40
0.100000
100
AcDbArc
50
0.000000
51
89.999999
0
LINE
5
5f4
100
AcDbEntity
8
1
100
AcDbLine
6
CONTINUOUS
62
5
10
105.100000
20
-226.800000
11
106.500000
21
-226.800000
0
LINE
5
5f5
100
AcDbEntity
8
1
100
AcDbLine
6
CONTINUOUS
62
5
10
105.100000
20
-225.085805
11
105.100000
21
-227.800000
0
POLYLINE
5
5f6
100
AcDbEntity
8
1
6
CONTINUOUS
62
5
100
AcDb2dPolyline
66
1
10
0.0
20
0.0
30
0.0
70
0
0
VERTEX
5
5f7
100
AcDbEntity
8
1
100
AcDbVertex
100
AcDb2dVertex
62
5
10
106.500000
20
-225.750000
0
VERTEX
5
5f8
100
AcDbEntity
8
1
100
AcDbVertex
100
AcDb2dVertex
62
5
10
106.200000
20
-225.500000
0
VERTEX
5
5f9
100
AcDbEntity
8
1
100
AcDbVertex
100
AcDb2dVertex
62
5
10
106.500000
20
-225.250000
0
SEQEND
5
5fa
100
AcDbEntity
8
1
0
ARC
5
5fb
100
AcDbEntity
8
1
100
AcDbCircle
6
CONTINUOUS
62
5
10
105.100000
20
-227.700000
40
0.100000
100
AcDbArc
50
179.999998
51
-89.999999
0
POLYLINE
5
5fc
100
AcDbEntity
8
1
6
CONTINUOUS
62
5
100
AcDb2dPolyline
66
1
10
0.0
20
0.0
30
0.0
70
0
0
VERTEX
5
5fd
100
AcDbEntity
8
1
100
AcDbVertex
100
AcDb2dVertex
62
5
10
105.100000
20
-227.800000
0
VERTEX
5
5fe
100
AcDbEntity
8
1
100
AcDbVertex
100
AcDb2dVertex
62
5
10
106.500000
20
-227.800000
0
VERTEX
5
5ff
100
AcDbEntity
8
1
100
AcDbVertex
100
AcDb2dVertex
62
5
10
106.500000
20
-228.115960
0
SEQEND
5
600
100
AcDbEntity
8
1
0
LINE
5
601
100
AcDbEntity
8
1
100
AcDbLine
6
CONTINUOUS
62
5
10
106.500000
20
-224.352235
11
106.500000
21
-224.900000
0
ARC
5
602
100
AcDbEntity
8
1
100
AcDbCircle
6
CONTINUOUS
62
5
10
106.400000
20
-224.900000
40
0.100000
100
AcDbArc
50
-89.999999
51
0.000000
0
POLYLINE
5
603
100
AcDbEntity
8
1
6
CONTINUOUS
62
5
100
AcDb2dPolyline
66
1
10
0.0
20
0.0
30
0.0
70
0
0
VERTEX
5
604
100
AcDbEntity
8
1
100
AcDbVertex
100
AcDb2dVertex
62
5
10
106.400000
20
-225.000000
0
VERTEX
5
605
100
AcDbEntity
8
1
100
AcDbVertex
100
AcDb2dVertex
62
5
10
105.000000
20
-225.000000
0
VERTEX
5
606
100
AcDbEntity
8
1
100
AcDbVertex
100
AcDb2dVertex
62
5
10
105.000000
20
-227.700000
0
SEQEND
5
607
100
AcDbEntity
8
1
0
LINE
5
608
100
AcDbEntity
8
1
100
AcDbLine
6
CONTINUOUS
62
5
10
105.100000
20
-213.000000
11
106.100000
21
-213.000000
0
ARC
5
609
100
AcDbEntity
8
1
100
AcDbCircle
6
CONTINUOUS
62
5
10
106.400000
20
-214.800000
40
0.100000
100
AcDbArc
50
0.000000
51
89.999999
0
ARC
5
60a
100
AcDbEntity
8
1
100
AcDbCircle
6
CONTINUOUS
62
5
10
106.400000
20
-216.600000
40
0.100000
100
AcDbArc
50
-89.999999
51
0.000000
0
LINE
5
60b
100
AcDbEntity
8
1
100
AcDbLine
6
CONTINUOUS
62
5
10
105.100000
20
-214.700000
11
106.400000
21
-214.700000
0
LINE
5
60c
100
AcDbEntity
8
1
100
AcDbLine
6
CONTINUOUS
62
5
10
105.100000
20
-216.700000
11
106.400000
21
-216.700000
0
ARC
5
60d
100
AcDbEntity
8
1
100
AcDbCircle
6
CONTINUOUS
62
5
10
105.600000
20
-214.650000
40
0.500000
100
AcDbArc
50
129.529084
51
-179.999998
0
LINE
5
60e
100
AcDbEntity
8
1
100
AcDbLine
6
CONTINUOUS
62
5
10
105.281765
20
-214.264349
11
105.645587
21
-213.964127
0
ARC
5
60f
100
AcDbEntity
8
1
100
AcDbCircle
6
CONTINUOUS
62
5
10
104.850000
20
-213.000000
40
1.250000
100
AcDbArc
50
-50.470914
51
0.000000
0
ARC
5
610
100
AcDbEntity
8
1
100
AcDbCircle
6
CONTINUOUS
62
5
10
103.600000
20
-232.500000
40
1.500000
100
AcDbArc
50
89.999999
51
160.528778
0
LINE
5
611
100
AcDbEntity
8
1
100
AcDbLine
6
CONTINUOUS
62
5
10
103.600000
20
-231.000000
11
103.800000
21
-231.000000
0
ARC
5
612
100
AcDbEntity
8
1
100
AcDbCircle
6
CONTINUOUS
62
5
10
103.800000
20
-232.500000
40
1.500000
100
AcDbArc
50
29.926435
51
89.999999
0
ARC
5
613
100
AcDbEntity
8
1
100
AcDbCircle
6
CONTINUOUS
62
5
10
104.500100
20
-229.480046
40
2.000000
100
AcDbArc
50
-49.462150
51
-0.571637
0
ARC
5
614
100
AcDbEntity
8
1
100
AcDbCircle
6
CONTINUOUS
62
5
10
103.800100
20
-231.019954
40
2.000000
100
AcDbArc
50
0.571637
51
49.462150
0
LINE
5
615
100
AcDbEntity
8
1
100
AcDbLine
6
CONTINUOUS
62
5
10
92.500000
20
-224.600000
11
83.300000
21
-224.600000
0
LINE
5
616
100
AcDbEntity
8
1
100
AcDbLine
6
CONTINUOUS
62
5
10
83.300000
20
-224.800000
11
83.300000
21
-226.200000
0
ARC
5
617
100
AcDbEntity
8
1
100
AcDbCircle
6
CONTINUOUS
62
5
10
91.603684
20
-226.710301
40
1.400000
100
AcDbArc
50
120.174264
51
158.623144
0
LINE
5
618
100
AcDbEntity
8
1
100
AcDbLine
6
CONTINUOUS
62
5
10
91.800000
20
-224.600000
11
91.800000
21
-224.850000
0
LINE
5
619
100
AcDbEntity
8
1
100
AcDbLine
6
CONTINUOUS
62
5
10
90.320695
20
-224.850000
11
92.323030
21
-224.850000
0
ARC
5
61a
100
AcDbEntity
8
1
100
AcDbCircle
6
CONTINUOUS
62
5
10
91.603684
20
-224.289699
40
1.400000
100
AcDbArc
50
-158.623144
51
-120.174264
0
LINE
5
61b
100
AcDbEntity
8
1
100
AcDbLine
6
CONTINUOUS
62
5
10
87.800000
20
-226.200000
11
87.800000
21
-224.800000
0
ARC
5
61c
100
AcDbEntity
8
1
100
AcDbCircle
6
CONTINUOUS
62
5
10
91.800000
20
-225.000000
40
0.500000
100
AcDbArc
50
-89.999999
51
0.000000
0
LINE
5
61d
100
AcDbEntity
8
1
100
AcDbLine
6
CONTINUOUS
62
5
10
92.300000
20
-225.000000
11
92.300000
21
-225.000000
0
ARC
5
61e
100
AcDbEntity
8
1
100
AcDbCircle
6
CONTINUOUS
62
5
10
92.700000
20
-225.000000
40
0.400000
100
AcDbArc
50
89.999999
51
179.999998
0
LINE
5
61f
100
AcDbEntity
8
1
100
AcDbLine
6
CONTINUOUS
62
5
10
92.700000
20
-224.600000
11
95.466890
21
-224.600000
0
LINE
5
620
100
AcDbEntity
8
1
100
AcDbLine
6
CONTINUOUS
62
5
10
90.900000
20
-225.500000
11
91.800000
21
-225.500000
0
ARC
5
621
100
AcDbEntity
8
1
100
AcDbCircle
6
CONTINUOUS
62
5
10
94.300000
20
-227.500000
40
0.500000
100
AcDbArc
50
89.999999
51
179.999998
0
LINE
5
622
100
AcDbEntity
8
1
100
AcDbLine
6
CONTINUOUS
62
5
10
93.800000
20
-227.500000
11
93.800000
21
-229.000000
0
ARC
5
623
100
AcDbEntity
8
1
100
AcDbCircle
6
CONTINUOUS
62
5
10
94.300000
20
-229.000000
40
0.500000
100
AcDbArc
50
179.999998
51
-89.999999
0
LINE
5
624
100
AcDbEntity
8
1
100
AcDbLine
6
CONTINUOUS
62
5
10
94.300000
20
-229.500000
11
97.300000
21
-229.500000
0
ARC
5
625
100
AcDbEntity
8
1
100
AcDbCircle
6
CONTINUOUS
62
5
10
97.300000
20
-229.000000
40
0.500000
100
AcDbArc
50
-89.999999
51
0.000000
0
LINE
5
626
100
AcDbEntity
8
1
100
AcDbLine
6
CONTINUOUS
62
5
10
97.800000
20
-229.000000
11
97.800000
21
-227.500000
0
ARC
5
627
100
AcDbEntity
8
1
100
AcDbCircle
6
CONTINUOUS
62
5
10
97.300000
20
-227.500000
40
0.500000
100
AcDbArc
50
0.000000
51
89.999999
0
LINE
5
628
100
AcDbEntity
8
1
100
AcDbLine
6
CONTINUOUS
62
5
10
97.300000
20
-227.000000
11
94.300000
21
-227.000000
0
ARC
5
629
100
AcDbEntity
8
1
100
AcDbCircle
6
CONTINUOUS
62
5
10
101.350000
20
-235.900000
40
0.100000
100
AcDbArc
50
179.999998
51
-89.999999
0
LINE
5
62a
100
AcDbEntity
8
1
100
AcDbLine
6
CONTINUOUS
62
5
10
104.100000
20
-243.250000
11
104.100000
21
-246.000000
0
LINE
5
62b
100
AcDbEntity
8
1
100
AcDbLine
6
CONTINUOUS
62
5
10
104.350000
20
-243.250000
11
104.350000
21
-246.000000
0
LINE
5
62c
100
AcDbEntity
8
1
100
AcDbLine
6
CONTINUOUS
62
5
10
103.850000
20
-243.226970
11
103.850000
21
-246.000000
0
LINE
5
62d
100
AcDbEntity
8
1
100
AcDbLine
6
CONTINUOUS
62
5
10
89.300000
20
-237.249986
11
89.300000
21
-244.249984
0
LINE
5
62e
100
AcDbEntity
8
1
100
AcDbLine
6
CONTINUOUS
62
5
10
87.300000
20
-237.249986
11
87.300000
21
-243.749984
0
CIRCLE
5
62f
100
AcDbEntity
8
1
100
AcDbCircle
6
CONTINUOUS
62
5
10
83.300000
20
-240.499985
40
1.549999
0
CIRCLE
5
630
100
AcDbEntity
8
1
100
AcDbCircle
6
CONTINUOUS
62
5
10
83.300000
20
-240.499985
40
2.249999
0
ARC
5
631
100
AcDbEntity
8
1
100
AcDbCircle
6
CONTINUOUS
62
5
10
88.800000
20
-244.249984
40
0.500000
100
AcDbArc
50
0.000000
51
89.999999
0
POLYLINE
5
632
100
AcDbEntity
8
1
6
CONTINUOUS
62
5
100
AcDb2dPolyline
66
1
10
0.0
20
0.0
30
0.0
70
0
0
VERTEX
5
633
100
AcDbEntity
8
1
100
AcDbVertex
100
AcDb2dVertex
62
5
10
92.555423
20
-246.000000
0
VERTEX
5
634
100
AcDbEntity
8
1
100
AcDbVertex
100
AcDb2dVertex
62
5
10
89.300000
20
-246.000000
0
VERTEX
5
635
100
AcDbEntity
8
1
100
AcDbVertex
100
AcDb2dVertex
62
5
10
89.300000
20
-244.249984
0
SEQEND
5
636
100
AcDbEntity
8
1
0
LINE
5
637
100
AcDbEntity
8
1
100
AcDbLine
6
CONTINUOUS
62
5
10
89.300000
20
-244.500000
11
90.800000
21
-246.000000
0
ARC
5
638
100
AcDbEntity
8
1
100
AcDbCircle
6
CONTINUOUS
62
5
10
108.600000
20
-245.500000
40
0.500000
100
AcDbArc
50
-89.999999
51
0.000000
0
LINE
5
639
100
AcDbEntity
8
1
100
AcDbLine
6
CONTINUOUS
62
5
10
109.100000
20
-245.500000
11
109.100000
21
-243.750000
0
ARC
5
63a
100
AcDbEntity
8
1
100
AcDbCircle
6
CONTINUOUS
62
5
10
108.600000
20
-243.750000
40
0.500000
100
AcDbArc
50
0.000000
51
89.999999
0
LINE
5
63b
100
AcDbEntity
8
1
100
AcDbLine
6
CONTINUOUS
62
5
10
108.600000
20
-243.250000
11
107.519137
21
-243.250000
0
LINE
5
63c
100
AcDbEntity
8
1
100
AcDbLine
6
CONTINUOUS
62
5
10
92.555423
20
-246.000000
11
108.600000
21
-246.000000
0
LINE
5
63d
100
AcDbEntity
8
1
100
AcDbLine
6
CONTINUOUS
62
5
10
100.700000
20
-237.249986
11
93.300000
21
-237.249986
0
ARC
5
63e
100
AcDbEntity
8
1
100
AcDbCircle
6
CONTINUOUS
62
5
10
103.700000
20
-234.800000
40
0.800000
100
AcDbArc
50
0.000000
51
89.999999
0
LINE
5
63f
100
AcDbEntity
8
1
100
AcDbLine
6
CONTINUOUS
62
5
10
104.500000
20
-234.800000
11
104.500000
21
-235.873499
0
LINE
5
640
100
AcDbEntity
8
1
100
AcDbLine
6
CONTINUOUS
62
5
10
102.900000
20
-236.000000
11
102.900000
21
-234.800000
0
ARC
5
641
100
AcDbEntity
8
1
100
AcDbCircle
6
CONTINUOUS
62
5
10
103.700000
20
-234.800000
40
0.800000
100
AcDbArc
50
89.999999
51
179.999998
0
LINE
5
642
100
AcDbEntity
8
1
100
AcDbLine
6
CONTINUOUS
62
5
10
103.700000
20
-234.000000
11
103.700000
21
-234.000000
0
LINE
5
643
100
AcDbEntity
8
1
100
AcDbLine
6
CONTINUOUS
62
5
10
105.100000
20
-229.729495
11
105.100000
21
-235.270075
0
ARC
5
644
100
AcDbEntity
8
1
100
AcDbCircle
6
CONTINUOUS
62
5
10
92.300000
20
-242.749984
40
1.000000
100
AcDbArc
50
-89.999999
51
0.000000
0
LINE
5
645
100
AcDbEntity
8
1
100
AcDbLine
6
CONTINUOUS
62
5
10
92.300000
20
-243.749984
11
92.300000
21
-243.749984
0
ARC
5
646
100
AcDbEntity
8
1
100
AcDbCircle
6
CONTINUOUS
62
5
10
92.300000
20
-242.749984
40
1.000000
100
AcDbArc
50
179.999998
51
-89.999999
0
LINE
5
647
100
AcDbEntity
8
1
100
AcDbLine
6
CONTINUOUS
62
5
10
91.300000
20
-242.749984
11
91.300000
21
-225.500000
0
LINE
5
648
100
AcDbEntity
8
1
100
AcDbLine
6
CONTINUOUS
62
5
10
93.300000
20
-237.249986
11
93.300000
21
-242.749984
0
ARC
5
649
100
AcDbEntity
8
1
100
AcDbCircle
6
CONTINUOUS
62
5
10
93.600000
20
-227.500000
40
0.500000
100
AcDbArc
50
89.999999
51
179.999998
0
LINE
5
64a
100
AcDbEntity
8
1
100
AcDbLine
6
CONTINUOUS
62
5
10
93.600000
20
-227.000000
11
98.900000
21
-227.000000
0
ARC
5
64b
100
AcDbEntity
8
1
100
AcDbCircle
6
CONTINUOUS
62
5
10
98.900000
20
-226.000000
40
1.000000
100
AcDbArc
50
-89.999999
51
0.000000
0
LINE
5
64c
100
AcDbEntity
8
1
100
AcDbLine
6
CONTINUOUS
62
5
10
99.900000
20
-226.000000
11
99.900000
21
-221.964214
0
ARC
5
64d
100
AcDbEntity
8
1
100
AcDbCircle
6
CONTINUOUS
62
5
10
98.900000
20
-221.964214
40
1.000000
100
AcDbArc
50
0.000000
51
45.000000
0
LINE
5
64e
100
AcDbEntity
8
1
100
AcDbLine
6
CONTINUOUS
62
5
10
99.607107
20
-221.257107
11
99.412132
21
-221.062132
0
ARC
5
64f
100
AcDbEntity
8
1
100
AcDbCircle
6
CONTINUOUS
62
5
10
93.800000
20
-236.760088
40
0.700000
100
AcDbArc
50
179.999998
51
-135.584690
0
LINE
5
650
100
AcDbEntity
8
1
100
AcDbLine
6
CONTINUOUS
62
5
10
93.100000
20
-236.760088
11
93.100000
21
-235.408982
0
LINE
5
651
100
AcDbEntity
8
1
100
AcDbLine
6
CONTINUOUS
62
5
10
93.100000
20
-232.788150
11
93.100000
21
-227.500000
0
CIRCLE
5
652
100
AcDbEntity
8
1
100
AcDbCircle
6
CONTINUOUS
62
5
10
94.800000
20
-234.100000
40
1.900000
0
LINE
5
653
100
AcDbEntity
8
1
100
AcDbLine
6
CONTINUOUS
62
5
10
78.800000
20
-226.200000
11
78.800000
21
-224.800000
0
LINE
5
654
100
AcDbEntity
8
1
100
AcDbLine
6
CONTINUOUS
62
5
10
74.800000
20
-224.600000
11
74.800000
21
-224.850000
0
LINE
5
655
100
AcDbEntity
8
1
100
AcDbLine
6
CONTINUOUS
62
5
10
76.279305
20
-224.850000
11
74.276970
21
-224.850000
0
ARC
5
656
100
AcDbEntity
8
1
100
AcDbCircle
6
CONTINUOUS
62
5
10
74.996316
20
-226.710301
40
1.400000
100
AcDbArc
50
21.376855
51
59.825734
0
ARC
5
657
100
AcDbEntity
8
1
100
AcDbCircle
6
CONTINUOUS
62
5
10
74.996316
20
-224.289699
40
1.400000
100
AcDbArc
50
-59.825734
51
-21.376855
0
ARC
5
658
100
AcDbEntity
8
1
100
AcDbCircle
6
CONTINUOUS
62
5
10
21.200000
20
-216.850000
40
40.000000
100
AcDbArc
50
-2.190679
51
2.190679
0
ARC
5
659
100
AcDbEntity
8
1
100
AcDbCircle
6
CONTINUOUS
62
5
10
61.070839
20
-218.375187
40
0.100000
100
AcDbArc
50
-86.999999
51
-2.190679
0
LINE
5
65a
100
AcDbEntity
8
1
100
AcDbLine
6
CONTINUOUS
62
5
10
61.076073
20
-218.475050
11
60.694766
21
-218.495034
0
ARC
5
65b
100
AcDbEntity
8
1
100
AcDbCircle
6
CONTINUOUS
62
5
10
60.700000
20
-218.594896
40
0.100000
100
AcDbArc
50
92.999999
51
179.999998
0
LINE
5
65c
100
AcDbEntity
8
1
100
AcDbLine
6
CONTINUOUS
62
5
10
60.600000
20
-218.594896
11
60.600000
21
-218.600000
0
LINE
5
65d
100
AcDbEntity
8
1
100
AcDbLine
6
CONTINUOUS
62
5
10
60.600000
20
-215.100000
11
60.600000
21
-215.105104
0
ARC
5
65e
100
AcDbEntity
8
1
100
AcDbCircle
6
CONTINUOUS
62
5
10
60.700000
20
-215.105104
40
0.100000
100
AcDbArc
50
179.999998
51
-92.999999
0
LINE
5
65f
100
AcDbEntity
8
1
100
AcDbLine
6
CONTINUOUS
62
5
10
60.694766
20
-215.204966
11
61.076073
21
-215.224950
0
ARC
5
660
100
AcDbEntity
8
1
100
AcDbCircle
6
CONTINUOUS
62
5
10
61.070839
20
-215.324813
40
0.100000
100
AcDbArc
50
2.190679
51
86.999999
0
LINE
5
661
100
AcDbEntity
8
1
100
AcDbLine
6
CONTINUOUS
62
5
10
62.000000
20
-219.576393
11
62.000000
21
-221.250000
0
LINE
5
662
100
AcDbEntity
8
1
100
AcDbLine
6
CONTINUOUS
62
5
10
62.000000
20
-225.061847
11
62.000000
21
-227.800000
0
LINE
5
663
100
AcDbEntity
8
1
100
AcDbLine
6
CONTINUOUS
62
5
10
60.600000
20
-226.800000
11
62.000000
21
-226.800000
0
ARC
5
664
100
AcDbEntity
8
1
100
AcDbCircle
6
CONTINUOUS
62
5
10
60.700000
20
-224.900000
40
0.100000
100
AcDbArc
50
179.999998
51
-89.999999
0
POLYLINE
5
665
100
AcDbEntity
8
1
6
CONTINUOUS
62
5
100
AcDb2dPolyline
66
1
10
0.0
20
0.0
30
0.0
70
0
0
VERTEX
5
666
100
AcDbEntity
8
1
100
AcDbVertex
100
AcDb2dVertex
62
5
10
60.700000
20
-225.000000
0
VERTEX
5
667
100
AcDbEntity
8
1
100
AcDbVertex
100
AcDb2dVertex
62
5
10
62.100000
20
-225.000000
0
VERTEX
5
668
100
AcDbEntity
8
1
100
AcDbVertex
100
AcDb2dVertex
62
5
10
62.100000
20
-227.800000
0
VERTEX
5
669
100
AcDbEntity
8
1
100
AcDbVertex
100
AcDb2dVertex
62
5
10
60.700000
20
-227.800000
0
SEQEND
5
66a
100
AcDbEntity
8
1
0
ARC
5
66b
100
AcDbEntity
8
1
100
AcDbCircle
6
CONTINUOUS
62
5
10
60.700000
20
-227.900000
40
0.100000
100
AcDbArc
50
89.999999
51
179.999998
0
LINE
5
66c
100
AcDbEntity
8
1
100
AcDbLine
6
CONTINUOUS
62
5
10
60.600000
20
-227.900000
11
60.600000
21
-228.024200
0
LINE
5
66d
100
AcDbEntity
8
1
100
AcDbLine
6
CONTINUOUS
62
5
10
60.600000
20
-224.352235
11
60.600000
21
-224.900000
0
ARC
5
66e
100
AcDbEntity
8
1
100
AcDbCircle
6
CONTINUOUS
62
5
10
60.700000
20
-221.400000
40
0.100000
100
AcDbArc
50
89.999999
51
179.999998
0
POLYLINE
5
66f
100
AcDbEntity
8
1
6
CONTINUOUS
62
5
100
AcDb2dPolyline
66
1
10
0.0
20
0.0
30
0.0
70
0
0
VERTEX
5
670
100
AcDbEntity
8
1
100
AcDbVertex
100
AcDb2dVertex
62
5
10
60.600000
20
-225.250000
0
VERTEX
5
671
100
AcDbEntity
8
1
100
AcDbVertex
100
AcDb2dVertex
62
5
10
60.900000
20
-225.500000
0
VERTEX
5
672
100
AcDbEntity
8
1
100
AcDbVertex
100
AcDb2dVertex
62
5
10
60.600000
20
-225.750000
0
SEQEND
5
673
100
AcDbEntity
8
1
0
LINE
5
674
100
AcDbEntity
8
1
100
AcDbLine
6
CONTINUOUS
62
5
10
61.400000
20
-215.200000
11
60.700000
21
-215.200000
0
ARC
5
675
100
AcDbEntity
8
1
100
AcDbCircle
6
CONTINUOUS
62
5
10
63.000000
20
-232.500000
40
1.500000
100
AcDbArc
50
89.999999
51
131.810314
0
ARC
5
676
100
AcDbEntity
8
1
100
AcDbCircle
6
CONTINUOUS
62
5
10
63.200000
20
-232.500000
40
1.500000
100
AcDbArc
50
19.471220
51
89.999999
0
LINE
5
677
100
AcDbEntity
8
1
100
AcDbLine
6
CONTINUOUS
62
5
10
63.200000
20
-231.000000
11
63.000000
21
-231.000000
0
ARC
5
678
100
AcDbEntity
8
1
100
AcDbCircle
6
CONTINUOUS
62
5
10
63.299900
20
-231.019954
40
2.000000
100
AcDbArc
50
130.537848
51
179.428362
0
ARC
5
679
100
AcDbEntity
8
1
100
AcDbCircle
6
CONTINUOUS
62
5
10
67.300000
20
-227.500000
40
0.500000
100
AcDbArc
50
89.999999
51
179.999998
0
LINE
5
67a
100
AcDbEntity
8
1
100
AcDbLine
6
CONTINUOUS
62
5
10
66.800000
20
-227.500000
11
66.800000
21
-229.000000
0
ARC
5
67b
100
AcDbEntity
8
1
100
AcDbCircle
6
CONTINUOUS
62
5
10
67.300000
20
-229.000000
40
0.500000
100
AcDbArc
50
179.999998
51
-89.999999
0
LINE
5
67c
100
AcDbEntity
8
1
100
AcDbLine
6
CONTINUOUS
62
5
10
67.300000
20
-229.500000
11
70.300000
21
-229.500000
0
ARC
5
67d
100
AcDbEntity
8
1
100
AcDbCircle
6
CONTINUOUS
62
5
10
70.300000
20
-229.000000
40
0.500000
100
AcDbArc
50
-89.999999
51
0.000000
0
LINE
5
67e
100
AcDbEntity
8
1
100
AcDbLine
6
CONTINUOUS
62
5
10
70.800000
20
-229.000000
11
70.800000
21
-227.500000
0
ARC
5
67f
100
AcDbEntity
8
1
100
AcDbCircle
6
CONTINUOUS
62
5
10
70.300000
20
-227.500000
40
0.500000
100
AcDbArc
50
0.000000
51
89.999999
0
LINE
5
680
100
AcDbEntity
8
1
100
AcDbLine
6
CONTINUOUS
62
5
10
70.300000
20
-227.000000
11
67.300000
21
-227.000000
0
ARC
5
681
100
AcDbEntity
8
1
100
AcDbCircle
6
CONTINUOUS
62
5
10
62.599900
20
-229.480046
40
2.000000
100
AcDbArc
50
-179.428362
51
-130.537848
0
ARC
5
682
100
AcDbEntity
8
1
100
AcDbCircle
6
CONTINUOUS
62
5
10
74.800000
20
-225.000000
40
0.500000
100
AcDbArc
50
179.999998
51
-89.999999
0
LINE
5
683
100
AcDbEntity
8
1
100
AcDbLine
6
CONTINUOUS
62
5
10
74.300000
20
-225.000000
11
74.300000
21
-225.000000
0
ARC
5
684
100
AcDbEntity
8
1
100
AcDbCircle
6
CONTINUOUS
62
5
10
73.900000
20
-225.000000
40
0.400000
100
AcDbArc
50
0.000000
51
89.999999
0
LINE
5
685
100
AcDbEntity
8
1
100
AcDbLine
6
CONTINUOUS
62
5
10
73.900000
20
-224.600000
11
71.724097
21
-224.600000
0
LINE
5
686
100
AcDbEntity
8
1
100
AcDbLine
6
CONTINUOUS
62
5
10
75.700000
20
-225.500000
11
74.800000
21
-225.500000
0
LINE
5
687
100
AcDbEntity
8
1
100
AcDbLine
6
CONTINUOUS
62
5
10
77.300000
20
-244.249984
11
77.300000
21
-237.249986
0
LINE
5
688
100
AcDbEntity
8
1
100
AcDbLine
6
CONTINUOUS
62
5
10
79.300000
20
-243.749984
11
79.300000
21
-237.249986
0
ARC
5
689
100
AcDbEntity
8
1
100
AcDbCircle
6
CONTINUOUS
62
5
10
77.800000
20
-244.249984
40
0.500000
100
AcDbArc
50
89.999999
51
179.999998
0
LINE
5
68a
100
AcDbEntity
8
1
100
AcDbLine
6
CONTINUOUS
62
5
10
75.800000
20
-246.000000
11
77.300000
21
-244.500000
0
ARC
5
68b
100
AcDbEntity
8
1
100
AcDbCircle
6
CONTINUOUS
62
5
10
65.250000
20
-235.900000
40
0.100000
100
AcDbArc
50
-89.999999
51
0.000000
0
ARC
5
68c
100
AcDbEntity
8
1
100
AcDbCircle
6
CONTINUOUS
62
5
10
62.800000
20
-243.450000
40
0.300000
100
AcDbArc
50
0.000000
51
89.999999
0
POLYLINE
5
68d
100
AcDbEntity
8
1
6
CONTINUOUS
62
5
100
AcDb2dPolyline
66
1
10
0.0
20
0.0
30
0.0
70
0
0
VERTEX
5
68e
100
AcDbEntity
8
1
100
AcDbVertex
100
AcDb2dVertex
62
5
10
62.800000
20
-243.150000
0
VERTEX
5
68f
100
AcDbEntity
8
1
100
AcDbVertex
100
AcDb2dVertex
62
5
10
62.800000
20
-243.150000
0
VERTEX
5
690
100
AcDbEntity
8
1
100
AcDbVertex
100
AcDb2dVertex
62
5
10
62.800000
20
-241.500000
0
SEQEND
5
691
100
AcDbEntity
8
1
0
ARC
5
692
100
AcDbEntity
8
1
100
AcDbCircle
6
CONTINUOUS
62
5
10
63.300000
20
-241.500000
40
0.500000
100
AcDbArc
50
89.999999
51
179.999998
0
LINE
5
693
100
AcDbEntity
8
1
100
AcDbLine
6
CONTINUOUS
62
5
10
63.300000
20
-241.000000
11
65.400000
21
-241.000000
0
LINE
5
694
100
AcDbEntity
8
1
100
AcDbLine
6
CONTINUOUS
62
5
10
72.751361
20
-246.000000
11
63.600000
21
-246.000000
0
ARC
5
695
100
AcDbEntity
8
1
100
AcDbCircle
6
CONTINUOUS
62
5
10
63.600000
20
-245.500000
40
0.500000
100
AcDbArc
50
179.999998
51
-89.999999
0
LINE
5
696
100
AcDbEntity
8
1
100
AcDbLine
6
CONTINUOUS
62
5
10
63.100000
20
-245.500000
11
63.100000
21
-243.450000
0
LINE
5
697
100
AcDbEntity
8
1
100
AcDbLine
6
CONTINUOUS
62
5
10
65.900000
20
-237.249986
11
73.300000
21
-237.249986
0
POLYLINE
5
698
100
AcDbEntity
8
1
6
CONTINUOUS
62
5
100
AcDb2dPolyline
66
1
10
0.0
20
0.0
30
0.0
70
0
0
VERTEX
5
699
100
AcDbEntity
8
1
100
AcDbVertex
100
AcDb2dVertex
62
5
10
72.751361
20
-246.000000
0
VERTEX
5
69a
100
AcDbEntity
8
1
100
AcDbVertex
100
AcDb2dVertex
62
5
10
77.300000
20
-246.000000
0
VERTEX
5
69b
100
AcDbEntity
8
1
100
AcDbVertex
100
AcDb2dVertex
62
5
10
77.300000
20
-244.249984
0
SEQEND
5
69c
100
AcDbEntity
8
1
0
ARC
5
69d
100
AcDbEntity
8
1
100
AcDbCircle
6
CONTINUOUS
62
5
10
63.100000
20
-234.800000
40
0.800000
100
AcDbArc
50
0.000000
51
89.999999
0
LINE
5
69e
100
AcDbEntity
8
1
100
AcDbLine
6
CONTINUOUS
62
5
10
63.900000
20
-234.800000
11
63.900000
21
-236.000000
0
LINE
5
69f
100
AcDbEntity
8
1
100
AcDbLine
6
CONTINUOUS
62
5
10
62.300000
20
-235.732051
11
62.300000
21
-234.800000
0
ARC
5
6a0
100
AcDbEntity
8
1
100
AcDbCircle
6
CONTINUOUS
62
5
10
63.100000
20
-234.800000
40
0.800000
100
AcDbArc
50
89.999999
51
179.999998
0
LINE
5
6a1
100
AcDbEntity
8
1
100
AcDbLine
6
CONTINUOUS
62
5
10
63.100000
20
-234.000000
11
63.100000
21
-234.000000
0
LINE
5
6a2
100
AcDbEntity
8
1
100
AcDbLine
6
CONTINUOUS
62
5
10
62.000000
20
-229.729495
11
62.000000
21
-235.302176
0
CIRCLE
5
6a3
100
AcDbEntity
8
1
100
AcDbCircle
6
CONTINUOUS
62
5
10
71.800000
20
-234.100000
40
1.900000
0
ARC
5
6a4
100
AcDbEntity
8
1
100
AcDbCircle
6
CONTINUOUS
62
5
10
74.300000
20
-242.749984
40
1.000000
100
AcDbArc
50
179.999998
51
-89.999999
0
LINE
5
6a5
100
AcDbEntity
8
1
100
AcDbLine
6
CONTINUOUS
62
5
10
74.300000
20
-243.749984
11
74.300000
21
-243.749984
0
ARC
5
6a6
100
AcDbEntity
8
1
100
AcDbCircle
6
CONTINUOUS
62
5
10
74.300000
20
-242.749984
40
1.000000
100
AcDbArc
50
-89.999999
51
0.000000
0
LINE
5
6a7
100
AcDbEntity
8
1
100
AcDbLine
6
CONTINUOUS
62
5
10
75.300000
20
-242.749984
11
75.300000
21
-225.500000
0
LINE
5
6a8
100
AcDbEntity
8
1
100
AcDbLine
6
CONTINUOUS
62
5
10
73.300000
20
-237.249986
11
73.300000
21
-242.749984
0
ARC
5
6a9
100
AcDbEntity
8
1
100
AcDbCircle
6
CONTINUOUS
62
5
10
73.000000
20
-227.500000
40
0.500000
100
AcDbArc
50
0.000000
51
89.999999
0
LINE
5
6aa
100
AcDbEntity
8
1
100
AcDbLine
6
CONTINUOUS
62
5
10
73.000000
20
-227.000000
11
68.900000
21
-227.000000
0
ARC
5
6ab
100
AcDbEntity
8
1
100
AcDbCircle
6
CONTINUOUS
62
5
10
68.900000
20
-226.000000
40
1.000000
100
AcDbArc
50
179.999998
51
-89.999999
0
LINE
5
6ac
100
AcDbEntity
8
1
100
AcDbLine
6
CONTINUOUS
62
5
10
67.900000
20
-226.000000
11
67.900000
21
-221.150000
0
ARC
5
6ad
100
AcDbEntity
8
1
100
AcDbCircle
6
CONTINUOUS
62
5
10
72.800000
20
-236.760088
40
0.700000
100
AcDbArc
50
-44.415308
51
0.000000
0
LINE
5
6ae
100
AcDbEntity
8
1
100
AcDbLine
6
CONTINUOUS
62
5
10
73.500000
20
-236.760088
11
73.500000
21
-235.384206
0
LINE
5
6af
100
AcDbEntity
8
1
100
AcDbLine
6
CONTINUOUS
62
5
10
73.500000
20
-232.771446
11
73.500000
21
-227.500000
0
ARC
5
6b0
100
AcDbEntity
8
1
100
AcDbCircle
6
CONTINUOUS
62
5
10
87.300000
20
-226.500000
40
0.500000
100
AcDbArc
50
-89.999999
51
0.000000
0
LINE
5
6b1
100
AcDbEntity
8
1
100
AcDbLine
6
CONTINUOUS
62
5
10
87.300000
20
-227.000000
11
79.300000
21
-227.000000
0
ARC
5
6b2
100
AcDbEntity
8
1
100
AcDbCircle
6
CONTINUOUS
62
5
10
79.300000
20
-226.500000
40
0.500000
100
AcDbArc
50
179.999998
51
-89.999999
0
LINE
5
6b3
100
AcDbEntity
8
1
100
AcDbLine
6
CONTINUOUS
62
5
10
78.800000
20
-226.500000
11
78.800000
21
-226.200000
0
LINE
5
6b4
100
AcDbEntity
8
1
100
AcDbLine
6
CONTINUOUS
62
5
10
87.800000
20
-226.200000
11
87.800000
21
-226.500000
0
LINE
5
6b5
100
AcDbEntity
8
1
100
AcDbLine
6
CONTINUOUS
62
5
10
83.300000
20
-224.600000
11
74.100000
21
-224.600000
0
POLYLINE
5
6b6
100
AcDbEntity
8
1
6
CONTINUOUS
62
5
100
AcDb2dPolyline
66
1
10
0.0
20
0.0
30
0.0
70
1
0
VERTEX
5
6b7
100
AcDbEntity
8
1
100
AcDbVertex
100
AcDb2dVertex
62
5
10
76.300000
20
-226.200000
0
VERTEX
5
6b8
100
AcDbEntity
8
1
100
AcDbVertex
100
AcDb2dVertex
62
5
10
90.300000
20
-226.200000
0
VERTEX
5
6b9
100
AcDbEntity
8
1
100
AcDbVertex
100
AcDb2dVertex
62
5
10
90.300000
20
-224.800000
0
VERTEX
5
6ba
100
AcDbEntity
8
1
100
AcDbVertex
100
AcDb2dVertex
62
5
10
76.300000
20
-224.800000
0
SEQEND
5
6bb
100
AcDbEntity
8
1
0
LINE
5
6bc
100
AcDbEntity
8
1
100
AcDbLine
6
CONTINUOUS
62
5
10
77.300000
20
-237.249986
11
89.300000
21
-237.249986
0
LINE
5
6bd
100
AcDbEntity
8
1
100
AcDbLine
6
CONTINUOUS
62
5
10
77.800000
20
-243.749984
11
88.800000
21
-243.749984
0
ARC
5
6be
100
AcDbEntity
8
1
100
AcDbCircle
6
CONTINUOUS
62
5
10
85.300000
20
-231.702068
40
2.500000
100
AcDbArc
50
-87.253967
51
92.745758
0
ARC
5
6bf
100
AcDbEntity
8
1
100
AcDbCircle
6
CONTINUOUS
62
5
10
83.300088
20
-190.006005
40
44.243998
100
AcDbArc
50
-95.515997
51
-87.253967
0
ARC
5
6c0
100
AcDbEntity
8
1
100
AcDbCircle
6
CONTINUOUS
62
5
10
79.300000
20
-231.557941
40
2.500000
100
AcDbArc
50
84.502150
51
-95.803841
0
ARC
5
6c1
100
AcDbEntity
8
1
100
AcDbCircle
6
CONTINUOUS
62
5
10
83.300000
20
-190.000000
40
39.250000
100
AcDbArc
50
-95.497848
51
-87.254240
0
ARC
5
6c2
100
AcDbEntity
8
1
100
AcDbCircle
6
CONTINUOUS
62
5
10
85.300000
20
-231.702068
40
3.000000
100
AcDbArc
50
-87.254240
51
92.745758
0
ARC
5
6c3
100
AcDbEntity
8
1
100
AcDbCircle
6
CONTINUOUS
62
5
10
83.300000
20
-190.000000
40
44.750000
100
AcDbArc
50
-95.497848
51
-87.254240
0
ARC
5
6c4
100
AcDbEntity
8
1
100
AcDbCircle
6
CONTINUOUS
62
5
10
79.300000
20
-231.557941
40
3.000000
100
AcDbArc
50
84.502150
51
-95.497848
0
ARC
5
6c5
100
AcDbEntity
8
1
100
AcDbCircle
6
CONTINUOUS
62
5
10
83.300000
20
-190.000000
40
38.750000
100
AcDbArc
50
-95.497848
51
-87.254240
0
ARC
5
6c6
100
AcDbEntity
8
1
100
AcDbCircle
6
CONTINUOUS
62
5
10
97.300000
20
-225.300000
40
1.000000
100
AcDbArc
50
44.427004
51
89.999999
0
LINE
5
6c7
100
AcDbEntity
8
1
100
AcDbLine
6
CONTINUOUS
62
5
10
97.300000
20
-224.300000
11
70.300000
21
-224.300000
0
ARC
5
6c8
100
AcDbEntity
8
1
100
AcDbCircle
6
CONTINUOUS
62
5
10
70.300000
20
-225.300000
40
1.000000
100
AcDbArc
50
89.999999
51
134.699476
0
LINE
5
6c9
100
AcDbEntity
8
1
100
AcDbLine
6
CONTINUOUS
62
5
10
104.850000
20
-217.020709
11
104.850000
21
-208.992480
0
ARC
5
6ca
100
AcDbEntity
8
1
100
AcDbCircle
6
CONTINUOUS
62
5
10
105.600000
20
-211.350000
40
0.500000
100
AcDbArc
50
179.999998
51
-129.529084
0
LINE
5
6cb
100
AcDbEntity
8
1
100
AcDbLine
6
CONTINUOUS
62
5
10
105.281765
20
-211.735651
11
105.645587
21
-212.035873
0
ARC
5
6cc
100
AcDbEntity
8
1
100
AcDbCircle
6
CONTINUOUS
62
5
10
104.850000
20
-213.000000
40
1.250000
100
AcDbArc
50
-0.000000
51
50.470914
0
ARC
5
6cd
100
AcDbEntity
8
1
100
AcDbCircle
6
CONTINUOUS
62
5
10
62.250000
20
-213.000000
40
1.000000
100
AcDbArc
50
161.384857
51
-161.384857
0
ARC
5
6ce
100
AcDbEntity
8
1
100
AcDbCircle
6
CONTINUOUS
62
5
10
62.250000
20
-213.000000
40
1.250000
100
AcDbArc
50
138.370695
51
-138.370695
0
ARC
5
6cf
100
AcDbEntity
8
1
100
AcDbCircle
6
CONTINUOUS
62
5
10
61.700000
20
-206.800000
40
0.300000
100
AcDbArc
50
89.999999
51
179.999998
0
LINE
5
6d0
100
AcDbEntity
8
1
100
AcDbLine
6
CONTINUOUS
62
5
10
61.700000
20
-206.500000
11
61.800000
21
-206.500000
0
ARC
5
6d1
100
AcDbEntity
8
1
100
AcDbCircle
6
CONTINUOUS
62
5
10
61.800000
20
-206.200000
40
0.300000
100
AcDbArc
50
-89.999999
51
0.000000
0
POLYLINE
5
6d2
100
AcDbEntity
8
1
6
CONTINUOUS
62
5
100
AcDb2dPolyline
66
1
10
0.0
20
0.0
30
0.0
70
0
0
VERTEX
5
6d3
100
AcDbEntity
8
1
100
AcDbVertex
100
AcDb2dVertex
62
5
10
62.100000
20
-206.200000
0
VERTEX
5
6d4
100
AcDbEntity
8
1
100
AcDbVertex
100
AcDb2dVertex
62
5
10
62.100000
20
-204.700000
0
VERTEX
5
6d5
100
AcDbEntity
8
1
100
AcDbVertex
100
AcDb2dVertex
62
5
10
60.700000
20
-204.700000
0
SEQEND
5
6d6
100
AcDbEntity
8
1
0
POLYLINE
5
6d7
100
AcDbEntity
8
1
6
CONTINUOUS
62
5
100
AcDb2dPolyline
66
1
10
0.0
20
0.0
30
0.0
70
0
0
VERTEX
5
6d8
100
AcDbEntity
8
1
100
AcDbVertex
100
AcDb2dVertex
62
5
10
60.700000
20
-221.300000
0
VERTEX
5
6d9
100
AcDbEntity
8
1
100
AcDbVertex
100
AcDb2dVertex
62
5
10
62.100000
20
-221.300000
0
VERTEX
5
6da
100
AcDbEntity
8
1
100
AcDbVertex
100
AcDb2dVertex
62
5
10
62.100000
20
-219.800000
0
SEQEND
5
6db
100
AcDbEntity
8
1
0
ARC
5
6dc
100
AcDbEntity
8
1
100
AcDbCircle
6
CONTINUOUS
62
5
10
61.800000
20
-219.800000
40
0.300000
100
AcDbArc
50
0.000000
51
89.999999
0
LINE
5
6dd
100
AcDbEntity
8
1
100
AcDbLine
6
CONTINUOUS
62
5
10
61.800000
20
-219.500000
11
61.700000
21
-219.500000
0
ARC
5
6de
100
AcDbEntity
8
1
100
AcDbCircle
6
CONTINUOUS
62
5
10
61.700000
20
-219.200000
40
0.300000
100
AcDbArc
50
179.999998
51
-89.999999
0
LINE
5
6df
100
AcDbEntity
8
1
100
AcDbLine
6
CONTINUOUS
62
5
10
61.400000
20
-219.200000
11
61.400000
21
-206.800000
0
LINE
5
6e0
100
AcDbEntity
8
1
100
AcDbLine
6
CONTINUOUS
62
5
10
105.100000
20
-220.500000
11
105.100000
21
-207.723675
0
LINE
5
6e1
100
AcDbEntity
8
1
100
AcDbLine
6
CONTINUOUS
62
5
10
105.100000
20
-206.269323
11
105.100000
21
-204.700000
0
ARC
5
6e2
100
AcDbEntity
8
1
100
AcDbCircle
6
CONTINUOUS
62
5
10
103.200000
20
-207.000000
40
2.000000
100
AcDbArc
50
-25.841933
51
25.841933
0
LINE
5
6e3
100
AcDbEntity
8
1
100
AcDbLine
6
CONTINUOUS
62
5
10
105.000000
20
-207.871780
11
105.000000
21
-208.700000
0
ARC
5
6e4
100
AcDbEntity
8
1
100
AcDbCircle
6
CONTINUOUS
62
5
10
104.700000
20
-208.700000
40
0.300000
100
AcDbArc
50
-89.999999
51
0.000000
0
LINE
5
6e5
100
AcDbEntity
8
1
100
AcDbLine
6
CONTINUOUS
62
5
10
104.700000
20
-209.000000
11
104.500000
21
-209.000000
0
ARC
5
6e6
100
AcDbEntity
8
1
100
AcDbCircle
6
CONTINUOUS
62
5
10
104.500000
20
-209.300000
40
0.300000
100
AcDbArc
50
89.999999
51
179.999998
0
LINE
5
6e7
100
AcDbEntity
8
1
100
AcDbLine
6
CONTINUOUS
62
5
10
104.200000
20
-209.300000
11
104.200000
21
-216.700000
0
ARC
5
6e8
100
AcDbEntity
8
1
100
AcDbCircle
6
CONTINUOUS
62
5
10
104.500000
20
-216.700000
40
0.300000
100
AcDbArc
50
179.999998
51
-89.999999
0
LINE
5
6e9
100
AcDbEntity
8
1
100
AcDbLine
6
CONTINUOUS
62
5
10
104.500000
20
-217.000000
11
104.700000
21
-217.000000
0
ARC
5
6ea
100
AcDbEntity
8
1
100
AcDbCircle
6
CONTINUOUS
62
5
10
104.700000
20
-217.300000
40
0.300000
100
AcDbArc
50
0.000000
51
89.999999
0
POLYLINE
5
6eb
100
AcDbEntity
8
1
6
CONTINUOUS
62
5
100
AcDb2dPolyline
66
1
10
0.0
20
0.0
30
0.0
70
0
0
VERTEX
5
6ec
100
AcDbEntity
8
1
100
AcDbVertex
100
AcDb2dVertex
62
5
10
105.000000
20
-217.300000
0
VERTEX
5
6ed
100
AcDbEntity
8
1
100
AcDbVertex
100
AcDb2dVertex
62
5
10
105.000000
20
-221.300000
0
VERTEX
5
6ee
100
AcDbEntity
8
1
100
AcDbVertex
100
AcDb2dVertex
62
5
10
106.400000
20
-221.300000
0
SEQEND
5
6ef
100
AcDbEntity
8
1
0
POLYLINE
5
6f0
100
AcDbEntity
8
1
6
CONTINUOUS
62
5
100
AcDb2dPolyline
66
1
10
0.0
20
0.0
30
0.0
70
0
0
VERTEX
5
6f1
100
AcDbEntity
8
1
100
AcDbVertex
100
AcDb2dVertex
62
5
10
106.400000
20
-204.700000
0
VERTEX
5
6f2
100
AcDbEntity
8
1
100
AcDbVertex
100
AcDb2dVertex
62
5
10
105.000000
20
-204.700000
0
VERTEX
5
6f3
100
AcDbEntity
8
1
100
AcDbVertex
100
AcDb2dVertex
62
5
10
105.000000
20
-206.128220
0
SEQEND
5
6f4
100
AcDbEntity
8
1
0
LINE
5
6f5
100
AcDbEntity
8
1
100
AcDbLine
6
CONTINUOUS
62
5
10
105.012591
20
-208.772638
11
105.012591
21
-217.193308
0
POLYLINE
5
6f6
100
AcDbEntity
8
1
6
DOT2
62
5
100
AcDb2dPolyline
66
1
10
0.0
20
0.0
30
0.0
70
0
0
VERTEX
5
6f7
100
AcDbEntity
8
1
100
AcDbVertex
100
AcDb2dVertex
62
5
10
23.149428
20
-190.625000
0
VERTEX
5
6f8
100
AcDbEntity
8
1
100
AcDbVertex
100
AcDb2dVertex
62
5
10
22.524428
20
-189.687500
0
VERTEX
5
6f9
100
AcDbEntity
8
1
100
AcDbVertex
100
AcDb2dVertex
62
5
10
30.024428
20
-189.687500
0
SEQEND
5
6fa
100
AcDbEntity
8
1
0
LINE
5
6fb
100
AcDbEntity
8
1
100
AcDbLine
6
DOT2
62
5
10
30.024428
20
-190.312500
11
30.024428
21
-189.062500
0
POLYLINE
5
6fc
100
AcDbEntity
8
1
6
DOT2
62
5
100
AcDb2dPolyline
66
1
10
0.0
20
0.0
30
0.0
70
0
0
VERTEX
5
6fd
100
AcDbEntity
8
1
100
AcDbVertex
100
AcDb2dVertex
62
5
10
24.711928
20
-186.250000
0
VERTEX
5
6fe
100
AcDbEntity
8
1
100
AcDbVertex
100
AcDb2dVertex
62
5
10
23.149428
20
-185.937500
0
VERTEX
5
6ff
100
AcDbEntity
8
1
100
AcDbVertex
100
AcDb2dVertex
62
5
10
22.524428
20
-185.000000
0
VERTEX
5
700
100
AcDbEntity
8
1
100
AcDbVertex
100
AcDb2dVertex
62
5
10
22.524428
20
-184.062500
0
VERTEX
5
701
100
AcDbEntity
8
1
100
AcDbVertex
100
AcDb2dVertex
62
5
10
22.836928
20
-183.437500
0
VERTEX
5
702
100
AcDbEntity
8
1
100
AcDbVertex
100
AcDb2dVertex
62
5
10
23.774428
20
-183.125000
0
VERTEX
5
703
100
AcDbEntity
8
1
100
AcDbVertex
100
AcDb2dVertex
62
5
10
24.711928
20
-183.125000
0
VERTEX
5
704
100
AcDbEntity
8
1
100
AcDbVertex
100
AcDb2dVertex
62
5
10
25.649428
20
-183.437500
0
VERTEX
5
705
100
AcDbEntity
8
1
100
AcDbVertex
100
AcDb2dVertex
62
5
10
30.024428
20
-186.250000
0
VERTEX
5
706
100
AcDbEntity
8
1
100
AcDbVertex
100
AcDb2dVertex
62
5
10
30.024428
20
-183.125000
0
VERTEX
5
707
100
AcDbEntity
8
1
100
AcDbVertex
100
AcDb2dVertex
62
5
10
29.086928
20
-183.125000
0
SEQEND
5
708
100
AcDbEntity
8
1
0
POLYLINE
5
709
100
AcDbEntity
8
1
6
DOT2
62
5
100
AcDb2dPolyline
66
1
10
0.0
20
0.0
30
0.0
70
0
0
VERTEX
5
70a
100
AcDbEntity
8
1
100
AcDbVertex
100
AcDb2dVertex
62
5
10
23.149428
20
-195.625000
0
VERTEX
5
70b
100
AcDbEntity
8
1
100
AcDbVertex
100
AcDb2dVertex
62
5
10
22.524428
20
-194.687500
0
VERTEX
5
70c
100
AcDbEntity
8
1
100
AcDbVertex
100
AcDb2dVertex
62
5
10
30.024428
20
-194.687500
0
SEQEND
5
70d
100
AcDbEntity
8
1
0
LINE
5
70e
100
AcDbEntity
8
1
100
AcDbLine
6
DOT2
62
5
10
30.024428
20
-195.312500
11
30.024428
21
-194.062500
0
LINE
5
70f
100
AcDbEntity
8
1
100
AcDbLine
6
CONTINUOUS
62
5
10
63.561502
20
-134.000000
11
29.274428
21
-134.000000
0
LINE
5
710
100
AcDbEntity
8
1
100
AcDbLine
6
CONTINUOUS
62
5
10
64.774428
20
-246.000000
11
29.274428
21
-246.000000
0
POLYLINE
5
711
100
AcDbEntity
8
1
6
CONTINUOUS
62
5
100
AcDb2dPolyline
66
1
10
0.0
20
0.0
30
0.0
70
0
0
VERTEX
5
712
100
AcDbEntity
8
1
100
AcDbVertex
100
AcDb2dVertex
62
5
10
31.274428
20
-190.000000
0
VERTEX
5
713
100
AcDbEntity
8
1
100
AcDbVertex
100
AcDb2dVertex
62
5
10
31.274428
20
-246.000000
0
VERTEX
5
714
100
AcDbEntity
8
1
100
AcDbVertex
100
AcDb2dVertex
62
5
10
30.274428
20
-240.000000
0
VERTEX
5
715
100
AcDbEntity
8
1
100
AcDbVertex
100
AcDb2dVertex
62
5
10
32.274428
20
-240.000000
0
VERTEX
5
716
100
AcDbEntity
8
1
100
AcDbVertex
100
AcDb2dVertex
62
5
10
31.274428
20
-246.000000
0
VERTEX
5
717
100
AcDbEntity
8
1
100
AcDbVertex
100
AcDb2dVertex
62
5
10
30.774428
20
-240.000000
0
VERTEX
5
718
100
AcDbEntity
8
1
100
AcDbVertex
100
AcDb2dVertex
62
5
10
31.774428
20
-240.000000
0
VERTEX
5
719
100
AcDbEntity
8
1
100
AcDbVertex
100
AcDb2dVertex
62
5
10
31.274428
20
-246.000000
0
SEQEND
5
71a
100
AcDbEntity
8
1
0
POLYLINE
5
71b
100
AcDbEntity
8
1
6
CONTINUOUS
62
5
100
AcDb2dPolyline
66
1
10
0.0
20
0.0
30
0.0
70
0
0
VERTEX
5
71c
100
AcDbEntity
8
1
100
AcDbVertex
100
AcDb2dVertex
62
5
10
31.274428
20
-190.000000
0
VERTEX
5
71d
100
AcDbEntity
8
1
100
AcDbVertex
100
AcDb2dVertex
62
5
10
31.274428
20
-134.000000
0
VERTEX
5
71e
100
AcDbEntity
8
1
100
AcDbVertex
100
AcDb2dVertex
62
5
10
32.274428
20
-140.000000
0
VERTEX
5
71f
100
AcDbEntity
8
1
100
AcDbVertex
100
AcDb2dVertex
62
5
10
30.274428
20
-140.000000
0
VERTEX
5
720
100
AcDbEntity
8
1
100
AcDbVertex
100
AcDb2dVertex
62
5
10
31.274428
20
-134.000000
0
VERTEX
5
721
100
AcDbEntity
8
1
100
AcDbVertex
100
AcDb2dVertex
62
5
10
31.774428
20
-140.000000
0
VERTEX
5
722
100
AcDbEntity
8
1
100
AcDbVertex
100
AcDb2dVertex
62
5
10
30.774428
20
-140.000000
0
VERTEX
5
723
100
AcDbEntity
8
1
100
AcDbVertex
100
AcDb2dVertex
62
5
10
31.274428
20
-134.000000
0
SEQEND
5
724
100
AcDbEntity
8
1
0
LINE
5
725
100
AcDbEntity
8
1
100
AcDbLine
6
CONTINUOUS
62
5
10
179.400000
20
-188.500000
11
179.400000
21
-107.000000
0
LINE
5
726
100
AcDbEntity
8
1
100
AcDbLine
6
CONTINUOUS
62
5
10
166.500000
20
-132.500000
11
166.500000
21
-107.000000
0
POLYLINE
5
727
100
AcDbEntity
8
1
6
CONTINUOUS
62
5
100
AcDb2dPolyline
66
1
10
0.0
20
0.0
30
0.0
70
0
0
VERTEX
5
728
100
AcDbEntity
8
1
100
AcDbVertex
100
AcDb2dVertex
62
5
10
204.200000
20
-109.000000
0
VERTEX
5
729
100
AcDbEntity
8
1
100
AcDbVertex
100
AcDb2dVertex
62
5
10
179.400000
20
-109.000000
0
VERTEX
5
72a
100
AcDbEntity
8
1
100
AcDbVertex
100
AcDb2dVertex
62
5
10
185.400000
20
-108.000000
0
VERTEX
5
72b
100
AcDbEntity
8
1
100
AcDbVertex
100
AcDb2dVertex
62
5
10
185.400000
20
-110.000000
0
VERTEX
5
72c
100
AcDbEntity
8
1
100
AcDbVertex
100
AcDb2dVertex
62
5
10
179.400000
20
-109.000000
0
VERTEX
5
72d
100
AcDbEntity
8
1
100
AcDbVertex
100
AcDb2dVertex
62
5
10
185.400000
20
-108.500000
0
VERTEX
5
72e
100
AcDbEntity
8
1
100
AcDbVertex
100
AcDb2dVertex
62
5
10
185.400000
20
-109.500000
0
VERTEX
5
72f
100
AcDbEntity
8
1
100
AcDbVertex
100
AcDb2dVertex
62
5
10
179.400000
20
-109.000000
0
SEQEND
5
730
100
AcDbEntity
8
1
0
LINE
5
731
100
AcDbEntity
8
1
100
AcDbLine
6
CONTINUOUS
62
5
10
179.400000
20
-109.000000
11
166.500000
21
-109.000000
0
LINE
5
732
100
AcDbEntity
8
1
100
AcDbLine
6
CONTINUOUS
62
5
10
161.500000
20
-109.000000
11
166.500000
21
-109.000000
0
POLYLINE
5
733
100
AcDbEntity
8
1
6
CONTINUOUS
62
5
100
AcDb2dPolyline
66
1
10
0.0
20
0.0
30
0.0
70
0
0
VERTEX
5
734
100
AcDbEntity
8
1
100
AcDbVertex
100
AcDb2dVertex
62
5
10
167.500000
20
-108.500000
0
VERTEX
5
735
100
AcDbEntity
8
1
100
AcDbVertex
100
AcDb2dVertex
62
5
10
167.500000
20
-109.500000
0
VERTEX
5
736
100
AcDbEntity
8
1
100
AcDbVertex
100
AcDb2dVertex
62
5
10
167.000000
20
-110.000000
0
VERTEX
5
737
100
AcDbEntity
8
1
100
AcDbVertex
100
AcDb2dVertex
62
5
10
166.000000
20
-110.000000
0
VERTEX
5
738
100
AcDbEntity
8
1
100
AcDbVertex
100
AcDb2dVertex
62
5
10
165.500000
20
-109.500000
0
VERTEX
5
739
100
AcDbEntity
8
1
100
AcDbVertex
100
AcDb2dVertex
62
5
10
165.500000
20
-108.500000
0
VERTEX
5
73a
100
AcDbEntity
8
1
100
AcDbVertex
100
AcDb2dVertex
62
5
10
166.000000
20
-108.000000
0
VERTEX
5
73b
100
AcDbEntity
8
1
100
AcDbVertex
100
AcDb2dVertex
62
5
10
167.000000
20
-108.000000
0
VERTEX
5
73c
100
AcDbEntity
8
1
100
AcDbVertex
100
AcDb2dVertex
62
5
10
167.500000
20
-108.500000
0
VERTEX
5
73d
100
AcDbEntity
8
1
100
AcDbVertex
100
AcDb2dVertex
62
5
10
165.500000
20
-109.500000
0
SEQEND
5
73e
100
AcDbEntity
8
1
0
LINE
5
73f
100
AcDbEntity
8
1
100
AcDbLine
6
CONTINUOUS
62
5
10
165.500000
20
-108.500000
11
167.500000
21
-109.500000
0
LINE
5
740
100
AcDbEntity
8
1
100
AcDbLine
6
CONTINUOUS
62
5
10
167.000000
20
-110.000000
11
166.000000
21
-108.000000
0
LINE
5
741
100
AcDbEntity
8
1
100
AcDbLine
6
CONTINUOUS
62
5
10
167.000000
20
-108.000000
11
166.000000
21
-110.000000
0
ARC
5
742
100
AcDbEntity
8
1
100
AcDbCircle
6
CONTINUOUS
62
5
10
164.850000
20
-169.000000
40
1.250000
100
AcDbArc
50
126.869897
51
-126.869897
0
LINE
5
743
100
AcDbEntity
8
1
100
AcDbLine
6
CONTINUOUS
62
5
10
170.200000
20
-168.767448
11
170.200000
21
-171.115938
0
POLYLINE
5
744
100
AcDbEntity
8
1
6
CONTINUOUS
62
5
100
AcDb2dPolyline
66
1
10
0.0
20
0.0
30
0.0
70
0
0
VERTEX
5
745
100
AcDbEntity
8
1
100
AcDbVertex
100
AcDb2dVertex
62
5
10
169.028919
20
-171.450000
0
VERTEX
5
746
100
AcDbEntity
8
1
100
AcDbVertex
100
AcDb2dVertex
62
5
10
168.140000
20
-171.450000
0
VERTEX
5
747
100
AcDbEntity
8
1
100
AcDbVertex
100
AcDb2dVertex
62
5
10
168.140000
20
-168.450000
0
VERTEX
5
748
100
AcDbEntity
8
1
100
AcDbVertex
100
AcDb2dVertex
62
5
10
169.755256
20
-168.450000
0
SEQEND
5
749
100
AcDbEntity
8
1
0
POLYLINE
5
74a
100
AcDbEntity
8
1
6
CONTINUOUS
62
5
100
AcDb2dPolyline
66
1
10
0.0
20
0.0
30
0.0
70
0
0
VERTEX
5
74b
100
AcDbEntity
8
1
100
AcDbVertex
100
AcDb2dVertex
62
5
10
170.200000
20
-171.450000
0
VERTEX
5
74c
100
AcDbEntity
8
1
100
AcDbVertex
100
AcDb2dVertex
62
5
10
168.700000
20
-171.450000
0
VERTEX
5
74d
100
AcDbEntity
8
1
100
AcDbVertex
100
AcDb2dVertex
62
5
10
168.700000
20
-168.450000
0
VERTEX
5
74e
100
AcDbEntity
8
1
100
AcDbVertex
100
AcDb2dVertex
62
5
10
170.200000
20
-168.450000
0
SEQEND
5
74f
100
AcDbEntity
8
1
0
ARC
5
750
100
AcDbEntity
8
1
100
AcDbCircle
6
CONTINUOUS
62
5
10
103.700000
20
-169.000000
40
1.000000
100
AcDbArc
50
60.488264
51
-60.615403
0
CIRCLE
5
751
100
AcDbEntity
8
1
100
AcDbCircle
6
CONTINUOUS
62
5
10
63.100000
20
-169.000000
40
1.000000
0
ARC
5
752
100
AcDbEntity
8
1
100
AcDbCircle
6
CONTINUOUS
62
5
10
21.200000
20
-170.850000
40
40.000000
100
AcDbArc
50
-2.190679
51
2.190679
0
ARC
5
753
100
AcDbEntity
8
1
100
AcDbCircle
6
CONTINUOUS
62
5
10
61.070839
20
-172.375187
40
0.100000
100
AcDbArc
50
-86.999999
51
-2.190679
0
LINE
5
754
100
AcDbEntity
8
1
100
AcDbLine
6
CONTINUOUS
62
5
10
61.076073
20
-172.475050
11
60.694766
21
-172.495034
0
ARC
5
755
100
AcDbEntity
8
1
100
AcDbCircle
6
CONTINUOUS
62
5
10
60.700000
20
-172.594896
40
0.100000
100
AcDbArc
50
92.999999
51
179.999998
0
LINE
5
756
100
AcDbEntity
8
1
100
AcDbLine
6
CONTINUOUS
62
5
10
60.600000
20
-172.594896
11
60.600000
21
-172.600000
0
LINE
5
757
100
AcDbEntity
8
1
100
AcDbLine
6
CONTINUOUS
62
5
10
60.600000
20
-169.100000
11
60.600000
21
-169.105104
0
ARC
5
758
100
AcDbEntity
8
1
100
AcDbCircle
6
CONTINUOUS
62
5
10
60.700000
20
-169.105104
40
0.100000
100
AcDbArc
50
179.999998
51
-92.999999
0
LINE
5
759
100
AcDbEntity
8
1
100
AcDbLine
6
CONTINUOUS
62
5
10
60.694766
20
-169.204966
11
61.076073
21
-169.224950
0
ARC
5
75a
100
AcDbEntity
8
1
100
AcDbCircle
6
CONTINUOUS
62
5
10
61.070839
20
-169.324813
40
0.100000
100
AcDbArc
50
2.190679
51
86.999999
0
ARC
5
75b
100
AcDbEntity
8
1
100
AcDbCircle
6
CONTINUOUS
62
5
10
177.400000
20
-157.000000
40
2.000000
100
AcDbArc
50
0.000000
51
89.999999
0
LINE
5
75c
100
AcDbEntity
8
1
100
AcDbLine
6
CONTINUOUS
62
5
10
179.400000
20
-157.000000
11
179.400000
21
-190.000000
0
LINE
5
75d
100
AcDbEntity
8
1
100
AcDbLine
6
CONTINUOUS
62
5
10
165.900000
20
-150.500000
11
172.300000
21
-150.500000
0
ARC
5
75e
100
AcDbEntity
8
1
100
AcDbCircle
6
CONTINUOUS
62
5
10
172.300000
20
-151.500000
40
1.000000
100
AcDbArc
50
0.000000
51
89.999999
0
LINE
5
75f
100
AcDbEntity
8
1
100
AcDbLine
6
CONTINUOUS
62
5
10
173.300000
20
-151.500000
11
173.300000
21
-154.500000
0
ARC
5
760
100
AcDbEntity
8
1
100
AcDbCircle
6
CONTINUOUS
62
5
10
173.800000
20
-154.500000
40
0.500000
100
AcDbArc
50
179.999998
51
-89.999999
0
LINE
5
761
100
AcDbEntity
8
1
100
AcDbLine
6
CONTINUOUS
62
5
10
173.800000
20
-155.000000
11
177.400000
21
-155.000000
0
ARC
5
762
100
AcDbEntity
8
1
100
AcDbCircle
6
CONTINUOUS
62
5
10
164.200000
20
-144.100000
40
0.100000
100
AcDbArc
50
89.999999
51
179.999998
0
LINE
5
763
100
AcDbEntity
8
1
100
AcDbLine
6
CONTINUOUS
62
5
10
164.100000
20
-144.100000
11
164.100000
21
-190.000000
0
LINE
5
764
100
AcDbEntity
8
1
100
AcDbLine
6
CONTINUOUS
62
5
10
165.500000
20
-144.000000
11
164.200000
21
-144.000000
0
LINE
5
765
100
AcDbEntity
8
1
100
AcDbLine
6
CONTINUOUS
62
5
10
166.300000
20
-158.700000
11
166.300000
21
-175.300000
0
LINE
5
766
100
AcDbEntity
8
1
100
AcDbLine
6
CONTINUOUS
62
5
10
165.500000
20
-158.700000
11
165.500000
21
-175.300000
0
ARC
5
767
100
AcDbEntity
8
1
100
AcDbCircle
6
CONTINUOUS
62
5
10
177.300000
20
-165.400000
40
0.100000
100
AcDbArc
50
0.000000
51
89.999999
0
LINE
5
768
100
AcDbEntity
8
1
100
AcDbLine
6
CONTINUOUS
62
5
10
177.400000
20
-165.400000
11
177.400000
21
-168.600000
0
ARC
5
769
100
AcDbEntity
8
1
100
AcDbCircle
6
CONTINUOUS
62
5
10
177.300000
20
-168.600000
40
0.100000
100
AcDbArc
50
-89.999999
51
0.000000
0
LINE
5
76a
100
AcDbEntity
8
1
100
AcDbLine
6
CONTINUOUS
62
5
10
177.300000
20
-168.700000
11
176.400000
21
-168.700000
0
ARC
5
76b
100
AcDbEntity
8
1
100
AcDbCircle
6
CONTINUOUS
62
5
10
176.400000
20
-169.200000
40
0.500000
100
AcDbArc
50
89.999999
51
179.999998
0
LINE
5
76c
100
AcDbEntity
8
1
100
AcDbLine
6
CONTINUOUS
62
5
10
175.900000
20
-169.200000
11
175.900000
21
-170.200000
0
ARC
5
76d
100
AcDbEntity
8
1
100
AcDbCircle
6
CONTINUOUS
62
5
10
176.400000
20
-170.200000
40
0.500000
100
AcDbArc
50
179.999998
51
-89.999999
0
LINE
5
76e
100
AcDbEntity
8
1
100
AcDbLine
6
CONTINUOUS
62
5
10
176.400000
20
-170.700000
11
177.300000
21
-170.700000
0
ARC
5
76f
100
AcDbEntity
8
1
100
AcDbCircle
6
CONTINUOUS
62
5
10
177.300000
20
-170.800000
40
0.100000
100
AcDbArc
50
0.000000
51
89.999999
0
LINE
5
770
100
AcDbEntity
8
1
100
AcDbLine
6
CONTINUOUS
62
5
10
177.400000
20
-170.800000
11
177.400000
21
-175.200000
0
ARC
5
771
100
AcDbEntity
8
1
100
AcDbCircle
6
CONTINUOUS
62
5
10
177.300000
20
-175.200000
40
0.100000
100
AcDbArc
50
-89.999999
51
0.000000
0
LINE
5
772
100
AcDbEntity
8
1
100
AcDbLine
6
CONTINUOUS
62
5
10
177.300000
20
-175.300000
11
164.200000
21
-175.300000
0
LINE
5
773
100
AcDbEntity
8
1
100
AcDbLine
6
CONTINUOUS
62
5
10
164.200000
20
-158.700000
11
177.300000
21
-158.700000
0
ARC
5
774
100
AcDbEntity
8
1
100
AcDbCircle
6
CONTINUOUS
62
5
10
177.300000
20
-158.800000
40
0.100000
100
AcDbArc
50
0.000000
51
89.999999
0
LINE
5
775
100
AcDbEntity
8
1
100
AcDbLine
6
CONTINUOUS
62
5
10
177.400000
20
-158.800000
11
177.400000
21
-163.200000
0
ARC
5
776
100
AcDbEntity
8
1
100
AcDbCircle
6
CONTINUOUS
62
5
10
177.300000
20
-163.200000
40
0.100000
100
AcDbArc
50
-89.999999
51
0.000000
0
LINE
5
777
100
AcDbEntity
8
1
100
AcDbLine
6
CONTINUOUS
62
5
10
177.300000
20
-163.300000
11
176.400000
21
-163.300000
0
ARC
5
778
100
AcDbEntity
8
1
100
AcDbCircle
6
CONTINUOUS
62
5
10
176.400000
20
-163.800000
40
0.500000
100
AcDbArc
50
89.999999
51
179.999998
0
LINE
5
779
100
AcDbEntity
8
1
100
AcDbLine
6
CONTINUOUS
62
5
10
175.900000
20
-163.800000
11
175.900000
21
-164.800000
0
ARC
5
77a
100
AcDbEntity
8
1
100
AcDbCircle
6
CONTINUOUS
62
5
10
176.400000
20
-164.800000
40
0.500000
100
AcDbArc
50
179.999998
51
-89.999999
0
LINE
5
77b
100
AcDbEntity
8
1
100
AcDbLine
6
CONTINUOUS
62
5
10
176.400000
20
-165.300000
11
177.300000
21
-165.300000
0
LINE
5
77c
100
AcDbEntity
8
1
100
AcDbLine
6
CONTINUOUS
62
5
10
166.300000
20
-162.100000
11
166.300000
21
-171.753289
0
LINE
5
77d
100
AcDbEntity
8
1
100
AcDbLine
6
CONTINUOUS
62
5
10
166.490000
20
-162.100000
11
166.490000
21
-171.900000
0
LINE
5
77e
100
AcDbEntity
8
1
100
AcDbLine
6
CONTINUOUS
62
5
10
167.100000
20
-162.000000
11
167.100000
21
-172.000000
0
LINE
5
77f
100
AcDbEntity
8
1
100
AcDbLine
6
CONTINUOUS
62
5
10
177.400000
20
-163.000000
11
176.600000
21
-163.000000
0
LINE
5
780
100
AcDbEntity
8
1
100
AcDbLine
6
CONTINUOUS
62
5
10
176.600000
20
-171.000000
11
177.400000
21
-171.000000
0
LINE
5
781
100
AcDbEntity
8
1
100
AcDbLine
6
CONTINUOUS
62
5
10
177.400000
20
-168.600000
11
177.400000
21
-165.400000
0
ARC
5
782
100
AcDbEntity
8
1
100
AcDbCircle
6
CONTINUOUS
62
5
10
98.100000
20
-224.100000
40
0.500000
100
AcDbArc
50
-89.999999
51
0.000000
0
LINE
5
783
100
AcDbEntity
8
1
100
AcDbLine
6
CONTINUOUS
62
5
10
98.100000
20
-224.600000
11
95.466890
21
-224.600000
0
LINE
5
784
100
AcDbEntity
8
1
100
AcDbLine
6
CONTINUOUS
62
5
10
95.475745
20
-155.400000
11
98.100000
21
-155.400000
0
ARC
5
785
100
AcDbEntity
8
1
100
AcDbCircle
6
CONTINUOUS
62
5
10
98.100000
20
-155.900000
40
0.500000
100
AcDbArc
50
0.000000
51
89.999999
0
LINE
5
786
100
AcDbEntity
8
1
100
AcDbLine
6
CONTINUOUS
62
5
10
98.600000
20
-155.900000
11
98.600000
21
-158.550000
0
ARC
5
787
100
AcDbEntity
8
1
100
AcDbCircle
6
CONTINUOUS
62
5
10
98.900000
20
-158.550000
40
0.300000
100
AcDbArc
50
179.999998
51
-89.999999
0
LINE
5
788
100
AcDbEntity
8
1
100
AcDbLine
6
CONTINUOUS
62
5
10
98.900000
20
-158.850000
11
99.200000
21
-158.850000
0
ARC
5
789
100
AcDbEntity
8
1
100
AcDbCircle
6
CONTINUOUS
62
5
10
99.200000
20
-159.150000
40
0.300000
100
AcDbArc
50
0.000000
51
89.999999
0
LINE
5
78a
100
AcDbEntity
8
1
100
AcDbLine
6
CONTINUOUS
62
5
10
99.500000
20
-159.150000
11
99.500000
21
-174.850000
0
ARC
5
78b
100
AcDbEntity
8
1
100
AcDbCircle
6
CONTINUOUS
62
5
10
99.200000
20
-174.850000
40
0.300000
100
AcDbArc
50
-89.999999
51
0.000000
0
LINE
5
78c
100
AcDbEntity
8
1
100
AcDbLine
6
CONTINUOUS
62
5
10
99.200000
20
-175.150000
11
98.900000
21
-175.150000
0
ARC
5
78d
100
AcDbEntity
8
1
100
AcDbCircle
6
CONTINUOUS
62
5
10
98.900000
20
-175.450000
40
0.300000
100
AcDbArc
50
89.999999
51
179.999998
0
LINE
5
78e
100
AcDbEntity
8
1
100
AcDbLine
6
CONTINUOUS
62
5
10
98.600000
20
-175.450000
11
98.600000
21
-177.050000
0
ARC
5
78f
100
AcDbEntity
8
1
100
AcDbCircle
6
CONTINUOUS
62
5
10
98.900000
20
-177.050000
40
0.300000
100
AcDbArc
50
179.999998
51
-89.999999
0
POLYLINE
5
790
100
AcDbEntity
8
1
6
CONTINUOUS
62
5
100
AcDb2dPolyline
66
1
10
0.0
20
0.0
30
0.0
70
0
0
VERTEX
5
791
100
AcDbEntity
8
1
100
AcDbVertex
100
AcDb2dVertex
62
5
10
98.900000
20
-177.350000
0
VERTEX
5
792
100
AcDbEntity
8
1
100
AcDbVertex
100
AcDb2dVertex
62
5
10
99.500000
20
-177.350000
0
VERTEX
5
793
100
AcDbEntity
8
1
100
AcDbVertex
100
AcDb2dVertex
62
5
10
99.500000
20
-179.650000
0
VERTEX
5
794
100
AcDbEntity
8
1
100
AcDbVertex
100
AcDb2dVertex
62
5
10
98.900000
20
-179.650000
0
SEQEND
5
795
100
AcDbEntity
8
1
0
ARC
5
796
100
AcDbEntity
8
1
100
AcDbCircle
6
CONTINUOUS
62
5
10
98.900000
20
-179.950000
40
0.300000
100
AcDbArc
50
89.999999
51
179.999998
0
LINE
5
797
100
AcDbEntity
8
1
100
AcDbLine
6
CONTINUOUS
62
5
10
98.600000
20
-179.950000
11
98.600000
21
-181.550000
0
ARC
5
798
100
AcDbEntity
8
1
100
AcDbCircle
6
CONTINUOUS
62
5
10
98.900000
20
-181.550000
40
0.300000
100
AcDbArc
50
179.999998
51
-89.999999
0
LINE
5
799
100
AcDbEntity
8
1
100
AcDbLine
6
CONTINUOUS
62
5
10
98.900000
20
-181.850000
11
99.200000
21
-181.850000
0
ARC
5
79a
100
AcDbEntity
8
1
100
AcDbCircle
6
CONTINUOUS
62
5
10
99.200000
20
-182.150000
40
0.300000
100
AcDbArc
50
0.000000
51
89.999999
0
LINE
5
79b
100
AcDbEntity
8
1
100
AcDbLine
6
CONTINUOUS
62
5
10
99.500000
20
-182.150000
11
99.500000
21
-197.850000
0
ARC
5
79c
100
AcDbEntity
8
1
100
AcDbCircle
6
CONTINUOUS
62
5
10
99.200000
20
-197.850000
40
0.300000
100
AcDbArc
50
-89.999999
51
0.000000
0
LINE
5
79d
100
AcDbEntity
8
1
100
AcDbLine
6
CONTINUOUS
62
5
10
99.200000
20
-198.150000
11
98.900000
21
-198.150000
0
ARC
5
79e
100
AcDbEntity
8
1
100
AcDbCircle
6
CONTINUOUS
62
5
10
98.900000
20
-198.450000
40
0.300000
100
AcDbArc
50
89.999999
51
179.999998
0
LINE
5
79f
100
AcDbEntity
8
1
100
AcDbLine
6
CONTINUOUS
62
5
10
98.600000
20
-198.450000
11
98.600000
21
-200.050000
0
ARC
5
7a0
100
AcDbEntity
8
1
100
AcDbCircle
6
CONTINUOUS
62
5
10
98.900000
20
-200.050000
40
0.300000
100
AcDbArc
50
179.999998
51
-89.999999
0
POLYLINE
5
7a1
100
AcDbEntity
8
1
6
CONTINUOUS
62
5
100
AcDb2dPolyline
66
1
10
0.0
20
0.0
30
0.0
70
0
0
VERTEX
5
7a2
100
AcDbEntity
8
1
100
AcDbVertex
100
AcDb2dVertex
62
5
10
98.900000
20
-200.350000
0
VERTEX
5
7a3
100
AcDbEntity
8
1
100
AcDbVertex
100
AcDb2dVertex
62
5
10
99.500000
20
-200.350000
0
VERTEX
5
7a4
100
AcDbEntity
8
1
100
AcDbVertex
100
AcDb2dVertex
62
5
10
99.500000
20
-202.650000
0
VERTEX
5
7a5
100
AcDbEntity
8
1
100
AcDbVertex
100
AcDb2dVertex
62
5
10
98.900000
20
-202.650000
0
SEQEND
5
7a6
100
AcDbEntity
8
1
0
ARC
5
7a7
100
AcDbEntity
8
1
100
AcDbCircle
6
CONTINUOUS
62
5
10
98.900000
20
-202.950000
40
0.300000
100
AcDbArc
50
89.999999
51
179.999998
0
LINE
5
7a8
100
AcDbEntity
8
1
100
AcDbLine
6
CONTINUOUS
62
5
10
98.600000
20
-202.950000
11
98.600000
21
-204.550000
0
ARC
5
7a9
100
AcDbEntity
8
1
100
AcDbCircle
6
CONTINUOUS
62
5
10
98.900000
20
-204.550000
40
0.300000
100
AcDbArc
50
179.999998
51
-89.999999
0
LINE
5
7aa
100
AcDbEntity
8
1
100
AcDbLine
6
CONTINUOUS
62
5
10
98.900000
20
-204.850000
11
99.200000
21
-204.850000
0
ARC
5
7ab
100
AcDbEntity
8
1
100
AcDbCircle
6
CONTINUOUS
62
5
10
99.200000
20
-205.150000
40
0.300000
100
AcDbArc
50
0.000000
51
89.999999
0
LINE
5
7ac
100
AcDbEntity
8
1
100
AcDbLine
6
CONTINUOUS
62
5
10
99.500000
20
-205.150000
11
99.500000
21
-220.850000
0
ARC
5
7ad
100
AcDbEntity
8
1
100
AcDbCircle
6
CONTINUOUS
62
5
10
99.200000
20
-220.850000
40
0.300000
100
AcDbArc
50
-89.999999
51
0.000000
0
LINE
5
7ae
100
AcDbEntity
8
1
100
AcDbLine
6
CONTINUOUS
62
5
10
99.200000
20
-221.150000
11
98.900000
21
-221.150000
0
ARC
5
7af
100
AcDbEntity
8
1
100
AcDbCircle
6
CONTINUOUS
62
5
10
98.900000
20
-221.450000
40
0.300000
100
AcDbArc
50
89.999999
51
179.999998
0
LINE
5
7b0
100
AcDbEntity
8
1
100
AcDbLine
6
CONTINUOUS
62
5
10
98.600000
20
-221.450000
11
98.600000
21
-224.100000
0
ARC
5
7b1
100
AcDbEntity
8
1
100
AcDbCircle
6
CONTINUOUS
62
5
10
68.700000
20
-181.350000
40
0.500000
100
AcDbArc
50
-89.999999
51
0.000000
0
LINE
5
7b2
100
AcDbEntity
8
1
100
AcDbLine
6
CONTINUOUS
62
5
10
68.700000
20
-181.850000
11
67.800000
21
-181.850000
0
ARC
5
7b3
100
AcDbEntity
8
1
100
AcDbCircle
6
CONTINUOUS
62
5
10
67.800000
20
-182.350000
40
0.500000
100
AcDbArc
50
89.999999
51
179.999998
0
LINE
5
7b4
100
AcDbEntity
8
1
100
AcDbLine
6
CONTINUOUS
62
5
10
67.300000
20
-182.350000
11
67.300000
21
-197.650000
0
ARC
5
7b5
100
AcDbEntity
8
1
100
AcDbCircle
6
CONTINUOUS
62
5
10
67.800000
20
-197.650000
40
0.500000
100
AcDbArc
50
179.999998
51
-89.999999
0
LINE
5
7b6
100
AcDbEntity
8
1
100
AcDbLine
6
CONTINUOUS
62
5
10
67.800000
20
-198.150000
11
68.700000
21
-198.150000
0
ARC
5
7b7
100
AcDbEntity
8
1
100
AcDbCircle
6
CONTINUOUS
62
5
10
68.700000
20
-198.650000
40
0.500000
100
AcDbArc
50
0.000000
51
89.999999
0
LINE
5
7b8
100
AcDbEntity
8
1
100
AcDbLine
6
CONTINUOUS
62
5
10
69.200000
20
-198.650000
11
69.200000
21
-199.850000
0
ARC
5
7b9
100
AcDbEntity
8
1
100
AcDbCircle
6
CONTINUOUS
62
5
10
68.700000
20
-199.850000
40
0.500000
100
AcDbArc
50
-89.999999
51
0.000000
0
POLYLINE
5
7ba
100
AcDbEntity
8
1
6
CONTINUOUS
62
5
100
AcDb2dPolyline
66
1
10
0.0
20
0.0
30
0.0
70
0
0
VERTEX
5
7bb
100
AcDbEntity
8
1
100
AcDbVertex
100
AcDb2dVertex
62
5
10
68.700000
20
-200.350000
0
VERTEX
5
7bc
100
AcDbEntity
8
1
100
AcDbVertex
100
AcDb2dVertex
62
5
10
67.300000
20
-200.350000
0
VERTEX
5
7bd
100
AcDbEntity
8
1
100
AcDbVertex
100
AcDb2dVertex
62
5
10
67.300000
20
-202.650000
0
VERTEX
5
7be
100
AcDbEntity
8
1
100
AcDbVertex
100
AcDb2dVertex
62
5
10
68.700000
20
-202.650000
0
SEQEND
5
7bf
100
AcDbEntity
8
1
0
ARC
5
7c0
100
AcDbEntity
8
1
100
AcDbCircle
6
CONTINUOUS
62
5
10
68.700000
20
-203.150000
40
0.500000
100
AcDbArc
50
0.000000
51
89.999999
0
LINE
5
7c1
100
AcDbEntity
8
1
100
AcDbLine
6
CONTINUOUS
62
5
10
69.200000
20
-203.150000
11
69.200000
21
-204.350000
0
ARC
5
7c2
100
AcDbEntity
8
1
100
AcDbCircle
6
CONTINUOUS
62
5
10
68.700000
20
-204.350000
40
0.500000
100
AcDbArc
50
-89.999999
51
0.000000
0
LINE
5
7c3
100
AcDbEntity
8
1
100
AcDbLine
6
CONTINUOUS
62
5
10
68.700000
20
-204.850000
11
67.800000
21
-204.850000
0
ARC
5
7c4
100
AcDbEntity
8
1
100
AcDbCircle
6
CONTINUOUS
62
5
10
67.800000
20
-205.350000
40
0.500000
100
AcDbArc
50
89.999999
51
179.999998
0
LINE
5
7c5
100
AcDbEntity
8
1
100
AcDbLine
6
CONTINUOUS
62
5
10
67.300000
20
-205.350000
11
67.300000
21
-220.650000
0
ARC
5
7c6
100
AcDbEntity
8
1
100
AcDbCircle
6
CONTINUOUS
62
5
10
67.800000
20
-220.650000
40
0.500000
100
AcDbArc
50
179.999998
51
-89.999999
0
LINE
5
7c7
100
AcDbEntity
8
1
100
AcDbLine
6
CONTINUOUS
62
5
10
67.800000
20
-221.150000
11
68.700000
21
-221.150000
0
ARC
5
7c8
100
AcDbEntity
8
1
100
AcDbCircle
6
CONTINUOUS
62
5
10
68.700000
20
-221.650000
40
0.500000
100
AcDbArc
50
0.000000
51
89.999999
0
LINE
5
7c9
100
AcDbEntity
8
1
100
AcDbLine
6
CONTINUOUS
62
5
10
69.200000
20
-221.650000
11
69.200000
21
-224.100000
0
ARC
5
7ca
100
AcDbEntity
8
1
100
AcDbCircle
6
CONTINUOUS
62
5
10
69.700000
20
-224.100000
40
0.500000
100
AcDbArc
50
179.999998
51
-89.999999
0
LINE
5
7cb
100
AcDbEntity
8
1
100
AcDbLine
6
CONTINUOUS
62
5
10
69.700000
20
-224.600000
11
71.724097
21
-224.600000
0
LINE
5
7cc
100
AcDbEntity
8
1
100
AcDbLine
6
CONTINUOUS
62
5
10
71.840816
20
-155.400000
11
69.700000
21
-155.400000
0
ARC
5
7cd
100
AcDbEntity
8
1
100
AcDbCircle
6
CONTINUOUS
62
5
10
69.700000
20
-155.900000
40
0.500000
100
AcDbArc
50
89.999999
51
179.999998
0
LINE
5
7ce
100
AcDbEntity
8
1
100
AcDbLine
6
CONTINUOUS
62
5
10
69.200000
20
-155.900000
11
69.200000
21
-158.350000
0
ARC
5
7cf
100
AcDbEntity
8
1
100
AcDbCircle
6
CONTINUOUS
62
5
10
68.700000
20
-158.350000
40
0.500000
100
AcDbArc
50
-89.999999
51
0.000000
0
LINE
5
7d0
100
AcDbEntity
8
1
100
AcDbLine
6
CONTINUOUS
62
5
10
68.700000
20
-158.850000
11
67.800000
21
-158.850000
0
ARC
5
7d1
100
AcDbEntity
8
1
100
AcDbCircle
6
CONTINUOUS
62
5
10
67.800000
20
-159.350000
40
0.500000
100
AcDbArc
50
89.999999
51
179.999998
0
LINE
5
7d2
100
AcDbEntity
8
1
100
AcDbLine
6
CONTINUOUS
62
5
10
67.300000
20
-159.350000
11
67.300000
21
-174.650000
0
ARC
5
7d3
100
AcDbEntity
8
1
100
AcDbCircle
6
CONTINUOUS
62
5
10
67.800000
20
-174.650000
40
0.500000
100
AcDbArc
50
179.999998
51
-89.999999
0
LINE
5
7d4
100
AcDbEntity
8
1
100
AcDbLine
6
CONTINUOUS
62
5
10
67.800000
20
-175.150000
11
68.700000
21
-175.150000
0
ARC
5
7d5
100
AcDbEntity
8
1
100
AcDbCircle
6
CONTINUOUS
62
5
10
68.700000
20
-175.650000
40
0.500000
100
AcDbArc
50
0.000000
51
89.999999
0
LINE
5
7d6
100
AcDbEntity
8
1
100
AcDbLine
6
CONTINUOUS
62
5
10
69.200000
20
-175.650000
11
69.200000
21
-176.850000
0
ARC
5
7d7
100
AcDbEntity
8
1
100
AcDbCircle
6
CONTINUOUS
62
5
10
68.700000
20
-176.850000
40
0.500000
100
AcDbArc
50
-89.999999
51
0.000000
0
POLYLINE
5
7d8
100
AcDbEntity
8
1
6
CONTINUOUS
62
5
100
AcDb2dPolyline
66
1
10
0.0
20
0.0
30
0.0
70
0
0
VERTEX
5
7d9
100
AcDbEntity
8
1
100
AcDbVertex
100
AcDb2dVertex
62
5
10
68.700000
20
-177.350000
0
VERTEX
5
7da
100
AcDbEntity
8
1
100
AcDbVertex
100
AcDb2dVertex
62
5
10
67.300000
20
-177.350000
0
VERTEX
5
7db
100
AcDbEntity
8
1
100
AcDbVertex
100
AcDb2dVertex
62
5
10
67.300000
20
-179.650000
0
VERTEX
5
7dc
100
AcDbEntity
8
1
100
AcDbVertex
100
AcDb2dVertex
62
5
10
68.700000
20
-179.650000
0
SEQEND
5
7dd
100
AcDbEntity
8
1
0
ARC
5
7de
100
AcDbEntity
8
1
100
AcDbCircle
6
CONTINUOUS
62
5
10
68.700000
20
-180.150000
40
0.500000
100
AcDbArc
50
0.000000
51
89.999999
0
LINE
5
7df
100
AcDbEntity
8
1
100
AcDbLine
6
CONTINUOUS
62
5
10
69.200000
20
-180.150000
11
69.200000
21
-181.350000
0
LINE
5
7e0
100
AcDbEntity
8
1
100
AcDbLine
6
CONTINUOUS
62
5
10
101.250000
20
-144.100000
11
101.250000
21
-235.900000
0
ARC
5
7e1
100
AcDbEntity
8
1
100
AcDbCircle
6
CONTINUOUS
62
5
10
103.800000
20
-146.000000
40
2.000000
100
AcDbArc
50
0.000000
51
89.999999
0
LINE
5
7e2
100
AcDbEntity
8
1
100
AcDbLine
6
CONTINUOUS
62
5
10
103.800000
20
-144.000000
11
101.200000
21
-144.000000
0
ARC
5
7e3
100
AcDbEntity
8
1
100
AcDbCircle
6
CONTINUOUS
62
5
10
101.200000
20
-143.500000
40
0.500000
100
AcDbArc
50
179.999998
51
-89.999999
0
LINE
5
7e4
100
AcDbEntity
8
1
100
AcDbLine
6
CONTINUOUS
62
5
10
100.700000
20
-143.500000
11
100.700000
21
-139.500000
0
ARC
5
7e5
100
AcDbEntity
8
1
100
AcDbCircle
6
CONTINUOUS
62
5
10
101.200000
20
-139.500000
40
0.500000
100
AcDbArc
50
89.999999
51
179.999998
0
LINE
5
7e6
100
AcDbEntity
8
1
100
AcDbLine
6
CONTINUOUS
62
5
10
101.200000
20
-139.000000
11
103.000000
21
-139.000000
0
ARC
5
7e7
100
AcDbEntity
8
1
100
AcDbCircle
6
CONTINUOUS
62
5
10
103.000000
20
-138.500000
40
0.500000
100
AcDbArc
50
-89.999999
51
0.000000
0
LINE
5
7e8
100
AcDbEntity
8
1
100
AcDbLine
6
CONTINUOUS
62
5
10
103.500000
20
-138.500000
11
103.500000
21
-137.250000
0
ARC
5
7e9
100
AcDbEntity
8
1
100
AcDbCircle
6
CONTINUOUS
62
5
10
104.000000
20
-137.250000
40
0.500000
100
AcDbArc
50
89.999999
51
179.999998
0
LINE
5
7ea
100
AcDbEntity
8
1
100
AcDbLine
6
CONTINUOUS
62
5
10
104.000000
20
-136.750000
11
107.504104
21
-136.750000
0
LINE
5
7eb
100
AcDbEntity
8
1
100
AcDbLine
6
CONTINUOUS
62
5
10
107.519137
20
-243.250000
11
104.000000
21
-243.250000
0
ARC
5
7ec
100
AcDbEntity
8
1
100
AcDbCircle
6
CONTINUOUS
62
5
10
104.000000
20
-242.750000
40
0.500000
100
AcDbArc
50
179.999998
51
-89.999999
0
LINE
5
7ed
100
AcDbEntity
8
1
100
AcDbLine
6
CONTINUOUS
62
5
10
103.500000
20
-242.750000
11
103.500000
21
-241.500000
0
ARC
5
7ee
100
AcDbEntity
8
1
100
AcDbCircle
6
CONTINUOUS
62
5
10
103.000000
20
-241.500000
40
0.500000
100
AcDbArc
50
0.000000
51
89.999999
0
LINE
5
7ef
100
AcDbEntity
8
1
100
AcDbLine
6
CONTINUOUS
62
5
10
103.000000
20
-241.000000
11
101.200000
21
-241.000000
0
ARC
5
7f0
100
AcDbEntity
8
1
100
AcDbCircle
6
CONTINUOUS
62
5
10
101.200000
20
-240.500000
40
0.500000
100
AcDbArc
50
179.999998
51
-89.999999
0
LINE
5
7f1
100
AcDbEntity
8
1
100
AcDbLine
6
CONTINUOUS
62
5
10
100.700000
20
-240.500000
11
100.700000
21
-236.500000
0
ARC
5
7f2
100
AcDbEntity
8
1
100
AcDbCircle
6
CONTINUOUS
62
5
10
101.200000
20
-236.500000
40
0.500000
100
AcDbArc
50
89.999999
51
179.999998
0
LINE
5
7f3
100
AcDbEntity
8
1
100
AcDbLine
6
CONTINUOUS
62
5
10
101.200000
20
-236.000000
11
103.800000
21
-236.000000
0
ARC
5
7f4
100
AcDbEntity
8
1
100
AcDbCircle
6
CONTINUOUS
62
5
10
103.800000
20
-234.000000
40
2.000000
100
AcDbArc
50
-89.999999
51
0.000000
0
LINE
5
7f5
100
AcDbEntity
8
1
100
AcDbLine
6
CONTINUOUS
62
5
10
105.800000
20
-234.000000
11
105.800000
21
-231.000000
0
LINE
5
7f6
100
AcDbEntity
8
1
100
AcDbLine
6
CONTINUOUS
62
5
10
106.500000
20
-229.500000
11
106.500000
21
-225.750000
0
LINE
5
7f7
100
AcDbEntity
8
1
100
AcDbLine
6
CONTINUOUS
62
5
10
106.500000
20
-225.250000
11
106.500000
21
-154.750000
0
LINE
5
7f8
100
AcDbEntity
8
1
100
AcDbLine
6
CONTINUOUS
62
5
10
106.500000
20
-154.250000
11
106.500000
21
-150.500000
0
LINE
5
7f9
100
AcDbEntity
8
1
100
AcDbLine
6
CONTINUOUS
62
5
10
105.800000
20
-149.000000
11
105.800000
21
-146.000000
0
LINE
5
7fa
100
AcDbEntity
8
1
100
AcDbLine
6
CONTINUOUS
62
5
10
65.350000
20
-144.100000
11
65.350000
21
-235.900000
0
ARC
5
7fb
100
AcDbEntity
8
1
100
AcDbCircle
6
CONTINUOUS
62
5
10
63.300000
20
-234.000000
40
2.000000
100
AcDbArc
50
179.999998
51
-89.999999
0
LINE
5
7fc
100
AcDbEntity
8
1
100
AcDbLine
6
CONTINUOUS
62
5
10
63.300000
20
-236.000000
11
65.400000
21
-236.000000
0
ARC
5
7fd
100
AcDbEntity
8
1
100
AcDbCircle
6
CONTINUOUS
62
5
10
65.400000
20
-236.500000
40
0.500000
100
AcDbArc
50
0.000000
51
89.999999
0
LINE
5
7fe
100
AcDbEntity
8
1
100
AcDbLine
6
CONTINUOUS
62
5
10
65.900000
20
-236.500000
11
65.900000
21
-240.500000
0
ARC
5
7ff
100
AcDbEntity
8
1
100
AcDbCircle
6
CONTINUOUS
62
5
10
65.400000
20
-240.500000
40
0.500000
100
AcDbArc
50
-89.999999
51
0.000000
0
ARC
5
800
100
AcDbEntity
8
1
100
AcDbCircle
6
CONTINUOUS
62
5
10
65.400000
20
-139.500000
40
0.500000
100
AcDbArc
50
0.000000
51
89.999999
0
LINE
5
801
100
AcDbEntity
8
1
100
AcDbLine
6
CONTINUOUS
62
5
10
65.900000
20
-139.500000
11
65.900000
21
-143.500000
0
ARC
5
802
100
AcDbEntity
8
1
100
AcDbCircle
6
CONTINUOUS
62
5
10
65.400000
20
-143.500000
40
0.500000
100
AcDbArc
50
-89.999999
51
0.000000
0
LINE
5
803
100
AcDbEntity
8
1
100
AcDbLine
6
CONTINUOUS
62
5
10
65.400000
20
-144.000000
11
63.300000
21
-144.000000
0
ARC
5
804
100
AcDbEntity
8
1
100
AcDbCircle
6
CONTINUOUS
62
5
10
63.300000
20
-146.000000
40
2.000000
100
AcDbArc
50
89.999999
51
179.999998
0
LINE
5
805
100
AcDbEntity
8
1
100
AcDbLine
6
CONTINUOUS
62
5
10
61.300000
20
-146.000000
11
61.300000
21
-149.000000
0
LINE
5
806
100
AcDbEntity
8
1
100
AcDbLine
6
CONTINUOUS
62
5
10
60.600000
20
-150.500000
11
60.600000
21
-154.250000
0
LINE
5
807
100
AcDbEntity
8
1
100
AcDbLine
6
CONTINUOUS
62
5
10
60.600000
20
-154.750000
11
60.600000
21
-161.405104
0
LINE
5
808
100
AcDbEntity
8
1
100
AcDbLine
6
CONTINUOUS
62
5
10
60.600000
20
-164.894896
11
60.600000
21
-169.105104
0
LINE
5
809
100
AcDbEntity
8
1
100
AcDbLine
6
CONTINUOUS
62
5
10
60.600000
20
-172.594896
11
60.600000
21
-184.405104
0
LINE
5
80a
100
AcDbEntity
8
1
100
AcDbLine
6
CONTINUOUS
62
5
10
60.600000
20
-187.894896
11
60.600000
21
-192.105104
0
LINE
5
80b
100
AcDbEntity
8
1
100
AcDbLine
6
CONTINUOUS
62
5
10
60.600000
20
-195.594896
11
60.600000
21
-207.405104
0
LINE
5
80c
100
AcDbEntity
8
1
100
AcDbLine
6
CONTINUOUS
62
5
10
60.600000
20
-210.894896
11
60.600000
21
-215.105104
0
LINE
5
80d
100
AcDbEntity
8
1
100
AcDbLine
6
CONTINUOUS
62
5
10
60.600000
20
-218.594896
11
60.600000
21
-225.250000
0
LINE
5
80e
100
AcDbEntity
8
1
100
AcDbLine
6
CONTINUOUS
62
5
10
60.600000
20
-225.750000
11
60.600000
21
-229.500000
0
LINE
5
80f
100
AcDbEntity
8
1
100
AcDbLine
6
CONTINUOUS
62
5
10
61.300000
20
-231.000000
11
61.300000
21
-234.000000
0
ARC
5
810
100
AcDbEntity
8
1
100
AcDbCircle
6
CONTINUOUS
62
5
10
61.700000
20
-160.800000
40
0.300000
100
AcDbArc
50
89.999999
51
179.999998
0
LINE
5
811
100
AcDbEntity
8
1
100
AcDbLine
6
CONTINUOUS
62
5
10
61.700000
20
-160.500000
11
61.800000
21
-160.500000
0
ARC
5
812
100
AcDbEntity
8
1
100
AcDbCircle
6
CONTINUOUS
62
5
10
61.800000
20
-160.200000
40
0.300000
100
AcDbArc
50
-89.999999
51
0.000000
0
POLYLINE
5
813
100
AcDbEntity
8
1
6
CONTINUOUS
62
5
100
AcDb2dPolyline
66
1
10
0.0
20
0.0
30
0.0
70
0
0
VERTEX
5
814
100
AcDbEntity
8
1
100
AcDbVertex
100
AcDb2dVertex
62
5
10
62.100000
20
-160.200000
0
VERTEX
5
815
100
AcDbEntity
8
1
100
AcDbVertex
100
AcDb2dVertex
62
5
10
62.100000
20
-158.700000
0
VERTEX
5
816
100
AcDbEntity
8
1
100
AcDbVertex
100
AcDb2dVertex
62
5
10
60.700000
20
-158.700000
0
SEQEND
5
817
100
AcDbEntity
8
1
0
POLYLINE
5
818
100
AcDbEntity
8
1
6
CONTINUOUS
62
5
100
AcDb2dPolyline
66
1
10
0.0
20
0.0
30
0.0
70
0
0
VERTEX
5
819
100
AcDbEntity
8
1
100
AcDbVertex
100
AcDb2dVertex
62
5
10
60.700000
20
-175.300000
0
VERTEX
5
81a
100
AcDbEntity
8
1
100
AcDbVertex
100
AcDb2dVertex
62
5
10
62.100000
20
-175.300000
0
VERTEX
5
81b
100
AcDbEntity
8
1
100
AcDbVertex
100
AcDb2dVertex
62
5
10
62.100000
20
-173.800000
0
SEQEND
5
81c
100
AcDbEntity
8
1
0
ARC
5
81d
100
AcDbEntity
8
1
100
AcDbCircle
6
CONTINUOUS
62
5
10
61.800000
20
-173.800000
40
0.300000
100
AcDbArc
50
0.000000
51
89.999999
0
LINE
5
81e
100
AcDbEntity
8
1
100
AcDbLine
6
CONTINUOUS
62
5
10
61.800000
20
-173.500000
11
61.700000
21
-173.500000
0
ARC
5
81f
100
AcDbEntity
8
1
100
AcDbCircle
6
CONTINUOUS
62
5
10
61.700000
20
-173.200000
40
0.300000
100
AcDbArc
50
179.999998
51
-89.999999
0
LINE
5
820
100
AcDbEntity
8
1
100
AcDbLine
6
CONTINUOUS
62
5
10
61.400000
20
-173.200000
11
61.400000
21
-160.800000
0
LINE
5
821
100
AcDbEntity
8
1
100
AcDbLine
6
CONTINUOUS
62
5
10
105.100000
20
-174.500000
11
105.100000
21
-173.729154
0
LINE
5
822
100
AcDbEntity
8
1
100
AcDbLine
6
CONTINUOUS
62
5
10
105.100000
20
-172.291717
11
105.100000
21
-158.700000
0
ARC
5
823
100
AcDbEntity
8
1
100
AcDbCircle
6
CONTINUOUS
62
5
10
103.200000
20
-173.000000
40
2.000000
100
AcDbArc
50
-25.841933
51
25.841933
0
LINE
5
824
100
AcDbEntity
8
1
100
AcDbLine
6
CONTINUOUS
62
5
10
105.000000
20
-172.128220
11
105.000000
21
-171.300000
0
ARC
5
825
100
AcDbEntity
8
1
100
AcDbCircle
6
CONTINUOUS
62
5
10
104.700000
20
-171.300000
40
0.300000
100
AcDbArc
50
0.000000
51
89.999999
0
LINE
5
826
100
AcDbEntity
8
1
100
AcDbLine
6
CONTINUOUS
62
5
10
104.700000
20
-171.000000
11
104.500000
21
-171.000000
0
ARC
5
827
100
AcDbEntity
8
1
100
AcDbCircle
6
CONTINUOUS
62
5
10
104.500000
20
-170.700000
40
0.300000
100
AcDbArc
50
179.999998
51
-89.999999
0
LINE
5
828
100
AcDbEntity
8
1
100
AcDbLine
6
CONTINUOUS
62
5
10
104.200000
20
-170.700000
11
104.200000
21
-163.300000
0
ARC
5
829
100
AcDbEntity
8
1
100
AcDbCircle
6
CONTINUOUS
62
5
10
104.500000
20
-163.300000
40
0.300000
100
AcDbArc
50
89.999999
51
179.999998
0
LINE
5
82a
100
AcDbEntity
8
1
100
AcDbLine
6
CONTINUOUS
62
5
10
104.500000
20
-163.000000
11
104.700000
21
-163.000000
0
ARC
5
82b
100
AcDbEntity
8
1
100
AcDbCircle
6
CONTINUOUS
62
5
10
104.700000
20
-162.700000
40
0.300000
100
AcDbArc
50
-89.999999
51
0.000000
0
POLYLINE
5
82c
100
AcDbEntity
8
1
6
CONTINUOUS
62
5
100
AcDb2dPolyline
66
1
10
0.0
20
0.0
30
0.0
70
0
0
VERTEX
5
82d
100
AcDbEntity
8
1
100
AcDbVertex
100
AcDb2dVertex
62
5
10
105.000000
20
-162.700000
0
VERTEX
5
82e
100
AcDbEntity
8
1
100
AcDbVertex
100
AcDb2dVertex
62
5
10
105.000000
20
-158.700000
0
VERTEX
5
82f
100
AcDbEntity
8
1
100
AcDbVertex
100
AcDb2dVertex
62
5
10
106.400000
20
-158.700000
0
SEQEND
5
830
100
AcDbEntity
8
1
0
POLYLINE
5
831
100
AcDbEntity
8
1
6
CONTINUOUS
62
5
100
AcDb2dPolyline
66
1
10
0.0
20
0.0
30
0.0
70
0
0
VERTEX
5
832
100
AcDbEntity
8
1
100
AcDbVertex
100
AcDb2dVertex
62
5
10
106.400000
20
-175.300000
0
VERTEX
5
833
100
AcDbEntity
8
1
100
AcDbVertex
100
AcDb2dVertex
62
5
10
105.000000
20
-175.300000
0
VERTEX
5
834
100
AcDbEntity
8
1
100
AcDbVertex
100
AcDb2dVertex
62
5
10
105.000000
20
-173.871780
0
SEQEND
5
835
100
AcDbEntity
8
1
0
LINE
5
836
100
AcDbEntity
8
1
100
AcDbLine
6
CONTINUOUS
62
5
10
105.012591
20
-162.772638
11
105.012591
21
-171.193308
0
LINE
5
837
100
AcDbEntity
8
1
100
AcDbLine
6
CONTINUOUS
62
5
10
104.850000
20
-171.020709
11
104.850000
21
-162.992480
0
POLYLINE
5
838
100
AcDbEntity
8
1
6
CONTINUOUS
62
5
100
AcDb2dPolyline
66
1
10
0.0
20
0.0
30
0.0
70
1
0
VERTEX
5
839
100
AcDbEntity
8
1
100
AcDbVertex
100
AcDb2dVertex
62
5
10
-40.000000
20
-340.000000
0
VERTEX
5
83a
100
AcDbEntity
8
1
100
AcDbVertex
100
AcDb2dVertex
62
5
10
-40.000000
20
0.000000
0
VERTEX
5
83b
100
AcDbEntity
8
1
100
AcDbVertex
100
AcDb2dVertex
62
5
10
280.000000
20
0.000000
0
VERTEX
5
83c
100
AcDbEntity
8
1
100
AcDbVertex
100
AcDb2dVertex
62
5
10
280.000000
20
-340.000000
0
VERTEX
5
83d
100
AcDbEntity
8
1
100
AcDbVertex
100
AcDb2dVertex
62
5
10
-40.000000
20
-340.000000
0
SEQEND
5
83e
100
AcDbEntity
8
1
0
ENDSEC
0
SECTION
2
OBJECTS
0
DICTIONARY
5
83f
100
AcDbDictionary
3
ACAD_GROUP
350
840
3
ACAD_MLINESTYLE
350
841
0
DICTIONARY
5
840
102
{ACAD_REACTORS
330
83f
102
}
100
AcDbDictionary
0
DICTIONARY
5
841
102
{ACAD_REACTORS
330
83f
102
}
100
AcDbDictionary
3
STANDARD
350
842
0
MLINESTYLE
5
842
102
{ACAD_REACTORS
330
841
102
}
100
AcDbMlineStyle
2
STANDARD
70
0
3

62
0
51
90.0
52
90.0
71
2
49
0.5
62
256
6
BYLAYER
49
-0.5
62
256
6
BYLAYER
0
ENDSEC
0
EOF
