0
SECTION
2
HEADER
9
$ACADVER
1
AC1012
9
$EXTMIN
10
-0.013701
20
-0.013701
30
0.0
9
$EXTMAX
10
12.606299
20
13.386299
30
0.0
9
$LIMMIN
10
-0.348005
20
-0.348005
9
$LIMMAX
10
320.199995
20
340.011995
9
$DIMSCALE
40
1.000000
9
$PDMODE
70
2
9
$PDSIZE
40
0.0
  9
$HANDSEED
  5
575
0
ENDSEC
0
SECTION
2
CLASSES
0
ENDSEC
0
SECTION
2
TABLES
0
TABLE
2
LTYPE
5
1e
100
AcDbSymbolTable
70
12
0
LTYPE
5
1f
100
AcDbSymbolTableRecord
100
AcDbLinetypeTableRecord
2
BYBLOCK
70
0
3

72
65
73
0
40
0.0
0
LTYPE
5
20
100
AcDbSymbolTableRecord
100
AcDbLinetypeTableRecord
2
BYLAYER
70
0
3

72
65
73
0
40
0.0
0
LTYPE
5
21
100
AcDbSymbolTableRecord
100
AcDbLinetypeTableRecord
2
CONTINUOUS
70
64
3
Solid line
72
65
73
0
40
0.0
0
LTYPE
5
22
100
AcDbSymbolTableRecord
100
AcDbLinetypeTableRecord
2
DASHED
70
64
3
__ __ __ __ __ __ __ __ __ __ __ __ __ __ __
72
65
73
2
40
0.75
49
0.5
74
0
49
-0.25
74
0
0
LTYPE
5
23
100
AcDbSymbolTableRecord
100
AcDbLinetypeTableRecord
2
DOT
70
64
3
...............................................
72
65
73
2
40
0.25
49
0.0
74
0
49
-0.25
74
0
0
LTYPE
5
24
100
AcDbSymbolTableRecord
100
AcDbLinetypeTableRecord
2
DASHDOT
70
64
3
__ . __ . __ . __ . __ . __ . __ . __ . __ . --
72
65
73
4
40
1.0
49
0.5
74
0
49
-0.25
74
0
49
0.0
74
0
49
-0.25
74
0
0
LTYPE
5
25
100
AcDbSymbolTableRecord
100
AcDbLinetypeTableRecord
2
CENTER
70
64
3
____ _ ____ _ ____ _ ____ _ ____ _ ____ _ ____
72
65
73
4
40
2.0
49
1.25
74
0
49
-0.25
74
0
49
0.25
74
0
49
-0.25
74
0
0
LTYPE
5
26
100
AcDbSymbolTableRecord
100
AcDbLinetypeTableRecord
2
PHANTOM
70
64
3
_____ _ _ _____ _ _ _____ _ _ _____ _ _ ____
72
65
73
6
40
2.5
49
1.25
74
0
49
-0.25
74
0
49
0.25
74
0
49
-0.25
74
0
49
0.25
74
0
49
-0.25
74
0
0
LTYPE
5
27
100
AcDbSymbolTableRecord
100
AcDbLinetypeTableRecord
2
HIDDEN
70
64
3
_ _ _ _ _ _ _ _ _ _ _ _ _ _ _ _ _ _ _ _ _ _ _
72
65
73
2
40
0.375
49
0.25
74
0
49
-0.125
74
0
0
LTYPE
5
28
100
AcDbSymbolTableRecord
100
AcDbLinetypeTableRecord
2
BORDER
70
64
3
__ __ . __ __ . __ __ . __ __ . __ __ . __ __
72
65
73
6
40
1.75
49
0.5
74
0
49
-0.25
74
0
49
0.5
74
0
49
-0.25
74
0
49
0.0
74
0
49
-0.25
74
0
0
LTYPE
5
29
100
AcDbSymbolTableRecord
100
AcDbLinetypeTableRecord
2
DIVIDE
70
64
3
__ . . __ . . __ . . __ . . __ . . __ . . __
72
65
73
6
40
1.25
49
0.5
74
0
49
-0.25
74
0
49
0.0
74
0
49
-0.25
74
0
49
0.0
74
0
49
-0.25
74
0
0
LTYPE
5
2a
100
AcDbSymbolTableRecord
100
AcDbLinetypeTableRecord
2
DOT2
70
64
3
...............................................
72
65
73
2
40
0.125
49
0.0
74
0
49
-0.125
74
0
0
ENDTAB
0
TABLE
2
STYLE
5
2b
100
AcDbSymbolTable
70
1
0
STYLE
5
2c
100
AcDbSymbolTableRecord
100
AcDbTextStyleTableRecord
2
STANDARD
70
64
40
0.0
41
1.0
50
0.0
71
0
42
5.0
3
txt
4
bigfont
0
ENDTAB
0
TABLE
2
LAYER
5
2d
100
AcDbSymbolTable
70
3
0
LAYER
5
2e
100
AcDbSymbolTableRecord
100
AcDbLayerTableRecord
2
0
70
0
62
7
6
CONTINUOUS
0
LAYER
5
2f
100
AcDbSymbolTableRecord
100
AcDbLayerTableRecord
2
1
70
0
62
7
6
CONTINUOUS
0
LAYER
5
30
100
AcDbSymbolTableRecord
100
AcDbLayerTableRecord
2
0
70
0
62
7
6
CONTINUOUS
0
ENDTAB
0
TABLE
2
APPID
5
31
100
AcDbSymbolTable
70
1
0
APPID
5
32
100
AcDbSymbolTableRecord
100
AcDbRegAppTableRecord
2
ACAD
70
64
0
ENDTAB
0
TABLE
2
DIMSTYLE
5
33
100
AcDbSymbolTable
70
0
0
ENDTAB
0
TABLE
2
UCS
5
34
100
AcDbSymbolTable
70
0
0
ENDTAB
0
TABLE
2
VIEW
5
35
100
AcDbSymbolTable
70
0
0
ENDTAB
0
TABLE
2
VPORT
5
36
100
AcDbSymbolTable
70
0
0
ENDTAB
0
TABLE
2
BLOCK_RECORD
5
37
100
AcDbSymbolTable
70
0
0
BLOCK_RECORD
5
38
100
AcDbSymbolTableRecord
100
AcDbBlockTableRecord
2
*MODEL_SPACE
0
BLOCK_RECORD
5
39
100
AcDbSymbolTableRecord
100
AcDbBlockTableRecord
2
*PAPER_SPACE
0
BLOCK_RECORD
5
3a
100
AcDbSymbolTableRecord
100
AcDbBlockTableRecord
2
OPEN
0
BLOCK_RECORD
5
3b
100
AcDbSymbolTableRecord
100
AcDbBlockTableRecord
2
HALF
0
BLOCK_RECORD
5
3c
100
AcDbSymbolTableRecord
100
AcDbBlockTableRecord
2
CLOSEDBLANK
0
BLOCK_RECORD
5
3d
100
AcDbSymbolTableRecord
100
AcDbBlockTableRecord
2
HALFCLOSE_R
0
BLOCK_RECORD
5
3e
100
AcDbSymbolTableRecord
100
AcDbBlockTableRecord
2
DOT
0
BLOCK_RECORD
5
3f
100
AcDbSymbolTableRecord
100
AcDbBlockTableRecord
2
HALFOPEN_R
0
BLOCK_RECORD
5
40
100
AcDbSymbolTableRecord
100
AcDbBlockTableRecord
2
CLOSEDF
0
BLOCK_RECORD
5
41
100
AcDbSymbolTableRecord
100
AcDbBlockTableRecord
2
HALF_R
0
ENDTAB
0
ENDSEC
0
SECTION
2
BLOCKS
0
BLOCK
5
42
100
AcDbEntity
8
0
100
AcDbBlockBegin
2
*MODEL_SPACE
70
0
10
0.0
20
0.0
30
0.0
3
*MODEL_SPACE
1

0
ENDBLK
5
43
100
AcDbEntity
8
0
100
AcDbBlockEnd
0
BLOCK
5
44
100
AcDbEntity
67
1
8
0
100
AcDbBlockBegin
2
*PAPER_SPACE
70
0
10
0.0
20
0.0
30
0.0
3
*PAPER_SPACE
1

0
ENDBLK
5
45
100
AcDbEntity
67
1
8
0
100
AcDbBlockEnd
0
BLOCK
5
46
100
AcDbEntity
8
0
100
AcDbBlockBegin
2
OPEN
70
0
10
0.0
20
0.0
30
0.0
3
OPEN
1

0
LINE
5
47
100
AcDbEntity
8
0
6
BYBLOCK
62
0
100
AcDbLine
10
0.000000
20
0.000000
11
-1.000000
21
0.000000
0
LINE
5
48
100
AcDbEntity
8
0
6
BYBLOCK
62
0
100
AcDbLine
10
-1.000000
20
-0.166667
11
0.000000
21
0.000000
0
LINE
5
49
100
AcDbEntity
8
0
6
BYBLOCK
62
0
100
AcDbLine
10
-1.000000
20
0.166667
11
0.000000
21
0.000000
0
ENDBLK
5
4a
100
AcDbEntity
8
0
100
AcDbBlockEnd
0
BLOCK
5
4b
100
AcDbEntity
8
0
100
AcDbBlockBegin
2
HALF
70
0
10
0.0
20
0.0
30
0.0
3
HALF
1

0
SOLID
5
4c
100
AcDbEntity
8
0
6
BYBLOCK
62
0
100
AcDbTrace
10
-1.000000
20
0.166667
11
-1.000000
21
-0.166667
12
0.000000
22
0.000000
13
0.000000
23
0.000000
0
ENDBLK
5
4d
100
AcDbEntity
8
0
100
AcDbBlockEnd
0
BLOCK
5
4e
100
AcDbEntity
8
0
100
AcDbBlockBegin
2
CLOSEDBLANK
70
0
10
0.0
20
0.0
30
0.0
3
CLOSEDBLANK
1

0
LINE
5
4f
100
AcDbEntity
8
0
6
BYBLOCK
62
0
100
AcDbLine
10
-1.000000
20
0.166667
11
-1.000000
21
-0.166667
0
LINE
5
50
100
AcDbEntity
8
0
6
BYBLOCK
62
0
100
AcDbLine
10
0.000000
20
0.000000
11
-1.000000
21
-0.166667
0
LINE
5
51
100
AcDbEntity
8
0
6
BYBLOCK
62
0
100
AcDbLine
10
-1.000000
20
0.166667
11
0.000000
21
0.000000
0
ENDBLK
5
52
100
AcDbEntity
8
0
100
AcDbBlockEnd
0
BLOCK
5
53
100
AcDbEntity
8
0
100
AcDbBlockBegin
2
HALFCLOSE_R
70
0
10
0.0
20
0.0
30
0.0
3
HALFCLOSE_R
1

0
LINE
5
54
100
AcDbEntity
8
0
6
BYBLOCK
62
0
100
AcDbLine
10
-1.000000
20
-0.166667
11
-1.000000
21
0.000000
0
LINE
5
55
100
AcDbEntity
8
0
6
BYBLOCK
62
0
100
AcDbLine
10
-1.000000
20
-0.166667
11
0.000000
21
0.000000
0
LINE
5
56
100
AcDbEntity
8
0
6
BYBLOCK
62
0
100
AcDbLine
10
0.000000
20
0.000000
11
-1.000000
21
0.000000
0
ENDBLK
5
57
100
AcDbEntity
8
0
100
AcDbBlockEnd
0
BLOCK
5
58
100
AcDbEntity
8
0
100
AcDbBlockBegin
2
DOT
70
0
10
0.0
20
0.0
30
0.0
3
DOT
1

0
LINE
5
59
100
AcDbEntity
8
0
6
BYBLOCK
62
0
100
AcDbLine
10
0.000000
20
0.000000
11
-1.000000
21
0.000000
0
POLYLINE
5
5a
100
AcDbEntity
8
0
6
BYBLOCK
62
0
100
AcDb2dPolyline
66
1
10
0.0
20
0.0
30
0.0
70
1
40
0.166667
41
0.166667
0
VERTEX
5
5b
100
AcDbEntity
8
0
100
AcDbVertex
100
AcDb2dVertex
62
10
10
-0.083333
20
0.000000
42
1.000000
0
VERTEX
5
5c
100
AcDbEntity
8
0
100
AcDbVertex
100
AcDb2dVertex
62
10
10
0.083333
20
0.000000
42
1.000000
0
SEQEND
5
5d
100
AcDbEntity
8
0
0
ENDBLK
5
5e
100
AcDbEntity
8
0
100
AcDbBlockEnd
0
BLOCK
5
5f
100
AcDbEntity
8
0
100
AcDbBlockBegin
2
HALFOPEN_R
70
0
10
0.0
20
0.0
30
0.0
3
HALFOPEN_R
1

0
LINE
5
60
100
AcDbEntity
8
0
6
BYBLOCK
62
0
100
AcDbLine
10
-1.000000
20
-0.166667
11
0.000000
21
0.000000
0
LINE
5
61
100
AcDbEntity
8
0
6
BYBLOCK
62
0
100
AcDbLine
10
0.000000
20
0.000000
11
-1.000000
21
0.000000
0
ENDBLK
5
62
100
AcDbEntity
8
0
100
AcDbBlockEnd
0
BLOCK
5
63
100
AcDbEntity
8
0
100
AcDbBlockBegin
2
CLOSEDF
70
0
10
0.0
20
0.0
30
0.0
3
CLOSEDF
1

0
SOLID
5
64
100
AcDbEntity
8
0
6
BYBLOCK
62
0
100
AcDbTrace
10
-1.000000
20
0.166667
11
-1.000000
21
-0.166667
12
0.000000
22
0.000000
13
0.000000
23
0.000000
0
ENDBLK
5
65
100
AcDbEntity
8
0
100
AcDbBlockEnd
0
BLOCK
5
66
100
AcDbEntity
8
0
100
AcDbBlockBegin
2
HALF_R
70
0
10
0.0
20
0.0
30
0.0
3
HALF_R
1

0
SOLID
5
67
100
AcDbEntity
8
0
6
BYBLOCK
62
0
100
AcDbTrace
10
-1.000000
20
-0.166667
11
-1.000000
21
0.000000
12
0.000000
22
0.000000
13
0.000000
23
0.000000
0
ENDBLK
5
68
100
AcDbEntity
8
0
100
AcDbBlockEnd
0
ENDSEC
0
SECTION
2
ENTITIES
0
POLYLINE
5
69
100
AcDbEntity
8
1
6
CONTINUOUS
62
5
100
AcDb2dPolyline
66
1
10
0.0
20
0.0
30
0.0
70
0
0
VERTEX
5
6a
100
AcDbEntity
8
1
100
AcDbVertex
100
AcDb2dVertex
62
5
10
155.000000
20
326.812500
0
VERTEX
5
6b
100
AcDbEntity
8
1
100
AcDbVertex
100
AcDb2dVertex
62
5
10
155.250000
20
328.375000
0
VERTEX
5
6c
100
AcDbEntity
8
1
100
AcDbVertex
100
AcDb2dVertex
62
5
10
156.000000
20
329.000000
0
VERTEX
5
6d
100
AcDbEntity
8
1
100
AcDbVertex
100
AcDb2dVertex
62
5
10
156.750000
20
329.000000
0
VERTEX
5
6e
100
AcDbEntity
8
1
100
AcDbVertex
100
AcDb2dVertex
62
5
10
157.250000
20
328.687500
0
VERTEX
5
6f
100
AcDbEntity
8
1
100
AcDbVertex
100
AcDb2dVertex
62
5
10
157.500000
20
327.750000
0
VERTEX
5
70
100
AcDbEntity
8
1
100
AcDbVertex
100
AcDb2dVertex
62
5
10
157.500000
20
326.812500
0
VERTEX
5
71
100
AcDbEntity
8
1
100
AcDbVertex
100
AcDb2dVertex
62
5
10
157.250000
20
325.875000
0
VERTEX
5
72
100
AcDbEntity
8
1
100
AcDbVertex
100
AcDb2dVertex
62
5
10
155.000000
20
321.500000
0
VERTEX
5
73
100
AcDbEntity
8
1
100
AcDbVertex
100
AcDb2dVertex
62
5
10
157.500000
20
321.500000
0
VERTEX
5
74
100
AcDbEntity
8
1
100
AcDbVertex
100
AcDb2dVertex
62
5
10
157.500000
20
322.437500
0
SEQEND
5
75
100
AcDbEntity
8
1
0
LINE
5
76
100
AcDbEntity
8
1
100
AcDbLine
6
CONTINUOUS
62
5
10
158.750000
20
329.000000
11
159.750000
21
328.062500
0
POLYLINE
5
77
100
AcDbEntity
8
1
6
CONTINUOUS
62
5
100
AcDb2dPolyline
66
1
10
0.0
20
0.0
30
0.0
70
0
0
VERTEX
5
78
100
AcDbEntity
8
1
100
AcDbVertex
100
AcDb2dVertex
62
5
10
158.250000
20
325.250000
0
VERTEX
5
79
100
AcDbEntity
8
1
100
AcDbVertex
100
AcDb2dVertex
62
5
10
159.500000
20
325.250000
0
VERTEX
5
7a
100
AcDbEntity
8
1
100
AcDbVertex
100
AcDb2dVertex
62
5
10
159.500000
20
322.125000
0
VERTEX
5
7b
100
AcDbEntity
8
1
100
AcDbVertex
100
AcDb2dVertex
62
5
10
158.250000
20
321.187500
0
SEQEND
5
7c
100
AcDbEntity
8
1
0
POLYLINE
5
7d
100
AcDbEntity
8
1
6
CONTINUOUS
62
5
100
AcDb2dPolyline
66
1
10
0.0
20
0.0
30
0.0
70
0
0
VERTEX
5
7e
100
AcDbEntity
8
1
100
AcDbVertex
100
AcDb2dVertex
62
5
10
159.500000
20
322.125000
0
VERTEX
5
7f
100
AcDbEntity
8
1
100
AcDbVertex
100
AcDb2dVertex
62
5
10
160.500000
20
321.500000
0
VERTEX
5
80
100
AcDbEntity
8
1
100
AcDbVertex
100
AcDb2dVertex
62
5
10
165.250000
20
320.875000
0
SEQEND
5
81
100
AcDbEntity
8
1
0
LINE
5
82
100
AcDbEntity
8
1
100
AcDbLine
6
CONTINUOUS
62
5
10
160.500000
20
328.375000
11
165.250000
21
328.375000
0
LINE
5
83
100
AcDbEntity
8
1
100
AcDbLine
6
CONTINUOUS
62
5
10
163.000000
20
329.625000
11
163.000000
21
322.125000
0
POLYLINE
5
84
100
AcDbEntity
8
1
6
CONTINUOUS
62
5
100
AcDb2dPolyline
66
1
10
0.0
20
0.0
30
0.0
70
1
0
VERTEX
5
85
100
AcDbEntity
8
1
100
AcDbVertex
100
AcDb2dVertex
62
5
10
161.000000
20
327.125000
0
VERTEX
5
86
100
AcDbEntity
8
1
100
AcDbVertex
100
AcDb2dVertex
62
5
10
161.000000
20
324.625000
0
VERTEX
5
87
100
AcDbEntity
8
1
100
AcDbVertex
100
AcDb2dVertex
62
5
10
164.750000
20
324.625000
0
VERTEX
5
88
100
AcDbEntity
8
1
100
AcDbVertex
100
AcDb2dVertex
62
5
10
164.750000
20
327.125000
0
VERTEX
5
89
100
AcDbEntity
8
1
100
AcDbVertex
100
AcDb2dVertex
62
5
10
161.000000
20
327.125000
0
SEQEND
5
8a
100
AcDbEntity
8
1
0
LINE
5
8b
100
AcDbEntity
8
1
100
AcDbLine
6
CONTINUOUS
62
5
10
161.000000
20
325.875000
11
164.750000
21
325.875000
0
LINE
5
8c
100
AcDbEntity
8
1
100
AcDbLine
6
CONTINUOUS
62
5
10
160.000000
20
323.375000
11
165.500000
21
323.375000
0
POLYLINE
5
8d
100
AcDbEntity
8
1
6
CONTINUOUS
62
5
100
AcDb2dPolyline
66
1
10
0.0
20
0.0
30
0.0
70
0
0
VERTEX
5
8e
100
AcDbEntity
8
1
100
AcDbVertex
100
AcDb2dVertex
62
5
10
167.500000
20
329.000000
0
VERTEX
5
8f
100
AcDbEntity
8
1
100
AcDbVertex
100
AcDb2dVertex
62
5
10
167.500000
20
323.375000
0
VERTEX
5
90
100
AcDbEntity
8
1
100
AcDbVertex
100
AcDb2dVertex
62
5
10
167.000000
20
322.125000
0
VERTEX
5
91
100
AcDbEntity
8
1
100
AcDbVertex
100
AcDb2dVertex
62
5
10
166.500000
20
321.187500
0
SEQEND
5
92
100
AcDbEntity
8
1
0
POLYLINE
5
93
100
AcDbEntity
8
1
6
CONTINUOUS
62
5
100
AcDb2dPolyline
66
1
10
0.0
20
0.0
30
0.0
70
0
0
VERTEX
5
94
100
AcDbEntity
8
1
100
AcDbVertex
100
AcDb2dVertex
62
5
10
171.500000
20
321.500000
0
VERTEX
5
95
100
AcDbEntity
8
1
100
AcDbVertex
100
AcDb2dVertex
62
5
10
172.500000
20
320.875000
0
VERTEX
5
96
100
AcDbEntity
8
1
100
AcDbVertex
100
AcDb2dVertex
62
5
10
172.500000
20
329.000000
0
VERTEX
5
97
100
AcDbEntity
8
1
100
AcDbVertex
100
AcDb2dVertex
62
5
10
167.500000
20
329.000000
0
SEQEND
5
98
100
AcDbEntity
8
1
0
LINE
5
99
100
AcDbEntity
8
1
100
AcDbLine
6
CONTINUOUS
62
5
10
167.500000
20
326.500000
11
172.500000
21
326.500000
0
LINE
5
9a
100
AcDbEntity
8
1
100
AcDbLine
6
CONTINUOUS
62
5
10
170.000000
20
329.000000
11
170.000000
21
320.875000
0
LINE
5
9b
100
AcDbEntity
8
1
100
AcDbLine
6
CONTINUOUS
62
5
10
167.500000
20
324.000000
11
172.500000
21
324.000000
0
POLYLINE
5
9c
100
AcDbEntity
8
1
6
DOT2
62
5
100
AcDb2dPolyline
66
1
10
0.0
20
0.0
30
0.0
70
0
0
VERTEX
5
9d
100
AcDbEntity
8
1
100
AcDbVertex
100
AcDb2dVertex
62
5
10
243.076017
20
242.375000
0
VERTEX
5
9e
100
AcDbEntity
8
1
100
AcDbVertex
100
AcDb2dVertex
62
5
10
243.388517
20
243.625000
0
VERTEX
5
9f
100
AcDbEntity
8
1
100
AcDbVertex
100
AcDb2dVertex
62
5
10
244.013517
20
244.250000
0
VERTEX
5
a0
100
AcDbEntity
8
1
100
AcDbVertex
100
AcDb2dVertex
62
5
10
244.951017
20
244.250000
0
VERTEX
5
a1
100
AcDbEntity
8
1
100
AcDbVertex
100
AcDb2dVertex
62
5
10
245.576017
20
243.937500
0
VERTEX
5
a2
100
AcDbEntity
8
1
100
AcDbVertex
100
AcDb2dVertex
62
5
10
245.888517
20
243.000000
0
VERTEX
5
a3
100
AcDbEntity
8
1
100
AcDbVertex
100
AcDb2dVertex
62
5
10
245.888517
20
241.750000
0
VERTEX
5
a4
100
AcDbEntity
8
1
100
AcDbVertex
100
AcDb2dVertex
62
5
10
245.576017
20
241.125000
0
VERTEX
5
a5
100
AcDbEntity
8
1
100
AcDbVertex
100
AcDb2dVertex
62
5
10
244.951017
20
240.500000
0
VERTEX
5
a6
100
AcDbEntity
8
1
100
AcDbVertex
100
AcDb2dVertex
62
5
10
244.013517
20
240.500000
0
SEQEND
5
a7
100
AcDbEntity
8
1
0
POLYLINE
5
a8
100
AcDbEntity
8
1
6
DOT2
62
5
100
AcDb2dPolyline
66
1
10
0.0
20
0.0
30
0.0
70
0
0
VERTEX
5
a9
100
AcDbEntity
8
1
100
AcDbVertex
100
AcDb2dVertex
62
5
10
244.951017
20
240.500000
0
VERTEX
5
aa
100
AcDbEntity
8
1
100
AcDbVertex
100
AcDb2dVertex
62
5
10
245.888517
20
239.875000
0
VERTEX
5
ab
100
AcDbEntity
8
1
100
AcDbVertex
100
AcDb2dVertex
62
5
10
246.201017
20
238.937500
0
VERTEX
5
ac
100
AcDbEntity
8
1
100
AcDbVertex
100
AcDb2dVertex
62
5
10
246.201017
20
238.000000
0
VERTEX
5
ad
100
AcDbEntity
8
1
100
AcDbVertex
100
AcDb2dVertex
62
5
10
245.888517
20
237.375000
0
VERTEX
5
ae
100
AcDbEntity
8
1
100
AcDbVertex
100
AcDb2dVertex
62
5
10
244.951017
20
236.750000
0
VERTEX
5
af
100
AcDbEntity
8
1
100
AcDbVertex
100
AcDb2dVertex
62
5
10
244.013517
20
236.750000
0
VERTEX
5
b0
100
AcDbEntity
8
1
100
AcDbVertex
100
AcDb2dVertex
62
5
10
243.388517
20
237.062500
0
VERTEX
5
b1
100
AcDbEntity
8
1
100
AcDbVertex
100
AcDb2dVertex
62
5
10
242.763517
20
238.000000
0
SEQEND
5
b2
100
AcDbEntity
8
1
0
POLYLINE
5
b3
100
AcDbEntity
8
1
6
DOT2
62
5
100
AcDb2dPolyline
66
1
10
0.0
20
0.0
30
0.0
70
1
0
VERTEX
5
b4
100
AcDbEntity
8
1
100
AcDbVertex
100
AcDb2dVertex
62
5
10
249.326017
20
244.250000
0
VERTEX
5
b5
100
AcDbEntity
8
1
100
AcDbVertex
100
AcDb2dVertex
62
5
10
249.951017
20
244.250000
0
VERTEX
5
b6
100
AcDbEntity
8
1
100
AcDbVertex
100
AcDb2dVertex
62
5
10
250.576017
20
243.937500
0
VERTEX
5
b7
100
AcDbEntity
8
1
100
AcDbVertex
100
AcDb2dVertex
62
5
10
250.888517
20
243.312500
0
VERTEX
5
b8
100
AcDbEntity
8
1
100
AcDbVertex
100
AcDb2dVertex
62
5
10
250.888517
20
242.062500
0
VERTEX
5
b9
100
AcDbEntity
8
1
100
AcDbVertex
100
AcDb2dVertex
62
5
10
250.576017
20
241.437500
0
VERTEX
5
ba
100
AcDbEntity
8
1
100
AcDbVertex
100
AcDb2dVertex
62
5
10
248.701017
20
240.187500
0
VERTEX
5
bb
100
AcDbEntity
8
1
100
AcDbVertex
100
AcDb2dVertex
62
5
10
248.076017
20
239.250000
0
VERTEX
5
bc
100
AcDbEntity
8
1
100
AcDbVertex
100
AcDb2dVertex
62
5
10
248.076017
20
238.000000
0
VERTEX
5
bd
100
AcDbEntity
8
1
100
AcDbVertex
100
AcDb2dVertex
62
5
10
248.388517
20
237.375000
0
VERTEX
5
be
100
AcDbEntity
8
1
100
AcDbVertex
100
AcDb2dVertex
62
5
10
248.701017
20
237.062500
0
VERTEX
5
bf
100
AcDbEntity
8
1
100
AcDbVertex
100
AcDb2dVertex
62
5
10
249.326017
20
236.750000
0
VERTEX
5
c0
100
AcDbEntity
8
1
100
AcDbVertex
100
AcDb2dVertex
62
5
10
249.951017
20
236.750000
0
VERTEX
5
c1
100
AcDbEntity
8
1
100
AcDbVertex
100
AcDb2dVertex
62
5
10
250.576017
20
237.062500
0
VERTEX
5
c2
100
AcDbEntity
8
1
100
AcDbVertex
100
AcDb2dVertex
62
5
10
250.888517
20
237.375000
0
VERTEX
5
c3
100
AcDbEntity
8
1
100
AcDbVertex
100
AcDb2dVertex
62
5
10
251.201017
20
238.000000
0
VERTEX
5
c4
100
AcDbEntity
8
1
100
AcDbVertex
100
AcDb2dVertex
62
5
10
251.201017
20
239.250000
0
VERTEX
5
c5
100
AcDbEntity
8
1
100
AcDbVertex
100
AcDb2dVertex
62
5
10
250.576017
20
240.187500
0
VERTEX
5
c6
100
AcDbEntity
8
1
100
AcDbVertex
100
AcDb2dVertex
62
5
10
248.701017
20
241.437500
0
VERTEX
5
c7
100
AcDbEntity
8
1
100
AcDbVertex
100
AcDb2dVertex
62
5
10
248.388517
20
242.062500
0
VERTEX
5
c8
100
AcDbEntity
8
1
100
AcDbVertex
100
AcDb2dVertex
62
5
10
248.388517
20
243.312500
0
VERTEX
5
c9
100
AcDbEntity
8
1
100
AcDbVertex
100
AcDb2dVertex
62
5
10
248.701017
20
243.937500
0
VERTEX
5
ca
100
AcDbEntity
8
1
100
AcDbVertex
100
AcDb2dVertex
62
5
10
249.326017
20
244.250000
0
SEQEND
5
cb
100
AcDbEntity
8
1
0
ARC
5
cc
100
AcDbEntity
8
0
100
AcDbCircle
6
CONTINUOUS
62
5
10
159.250000
20
187.000000
40
2.250000
100
AcDbArc
50
-89.999999
51
89.999999
0
LINE
5
cd
100
AcDbEntity
8
0
100
AcDbLine
6
CONTINUOUS
62
5
10
159.250000
20
189.250000
11
157.250000
21
189.250000
0
ARC
5
ce
100
AcDbEntity
8
0
100
AcDbCircle
6
CONTINUOUS
62
5
10
157.250000
20
187.000000
40
2.250000
100
AcDbArc
50
89.999999
51
-89.999999
0
LINE
5
cf
100
AcDbEntity
8
0
100
AcDbLine
6
CONTINUOUS
62
5
10
157.250000
20
184.750000
11
159.250000
21
184.750000
0
ARC
5
d0
100
AcDbEntity
8
0
100
AcDbCircle
6
CONTINUOUS
62
5
10
159.250000
20
187.000000
40
4.000000
100
AcDbArc
50
-89.999999
51
89.999999
0
LINE
5
d1
100
AcDbEntity
8
0
100
AcDbLine
6
CONTINUOUS
62
5
10
159.250000
20
183.000000
11
157.250000
21
183.000000
0
ARC
5
d2
100
AcDbEntity
8
0
100
AcDbCircle
6
CONTINUOUS
62
5
10
157.250000
20
187.000000
40
4.000000
100
AcDbArc
50
89.999999
51
-89.999999
0
LINE
5
d3
100
AcDbEntity
8
0
100
AcDbLine
6
CONTINUOUS
62
5
10
157.250000
20
191.000000
11
159.250000
21
191.000000
0
LINE
5
d4
100
AcDbEntity
8
0
100
AcDbLine
6
CONTINUOUS
62
5
10
167.250000
20
162.000000
11
164.030625
21
162.000000
0
ARC
5
d5
100
AcDbEntity
8
0
100
AcDbCircle
6
CONTINUOUS
62
5
10
161.826017
20
163.000000
40
1.000000
100
AcDbArc
50
-179.999998
51
-104.567156
0
LINE
5
d6
100
AcDbEntity
8
0
100
AcDbLine
6
CONTINUOUS
62
5
10
160.826017
20
163.000000
11
160.826017
21
181.000000
0
ARC
5
d7
100
AcDbEntity
8
0
100
AcDbCircle
6
CONTINUOUS
62
5
10
161.826017
20
181.000000
40
1.000000
100
AcDbArc
50
89.999999
51
179.999998
0
LINE
5
d8
100
AcDbEntity
8
0
100
AcDbLine
6
CONTINUOUS
62
5
10
161.826017
20
182.000000
11
167.250000
21
182.000000
0
ARC
5
d9
100
AcDbEntity
8
0
100
AcDbCircle
6
CONTINUOUS
62
5
10
226.826017
20
199.359901
40
0.500000
100
AcDbArc
50
179.999996
51
-91.636582
0
LINE
5
da
100
AcDbEntity
8
0
100
AcDbLine
6
CONTINUOUS
62
5
10
226.326017
20
199.359901
11
226.326017
21
202.173983
0
ARC
5
db
100
AcDbEntity
8
0
100
AcDbCircle
6
CONTINUOUS
62
5
10
226.826017
20
202.173983
40
0.500000
100
AcDbArc
50
89.999999
51
-179.999998
0
LINE
5
dc
100
AcDbEntity
8
0
100
AcDbLine
6
CONTINUOUS
62
5
10
226.826017
20
202.673983
11
227.826017
21
202.673983
0
LINE
5
dd
100
AcDbEntity
8
0
100
AcDbLine
6
CONTINUOUS
62
5
10
227.826017
20
198.831126
11
226.811737
21
198.860105
0
LINE
5
de
100
AcDbEntity
8
1
100
AcDbLine
6
CONTINUOUS
62
5
10
227.826017
20
211.523983
11
227.826017
21
237.500000
0
LINE
5
df
100
AcDbEntity
8
1
100
AcDbLine
6
CONTINUOUS
62
5
10
265.826017
20
212.000000
11
265.826017
21
237.500000
0
POLYLINE
5
e0
100
AcDbEntity
8
1
6
CONTINUOUS
62
5
100
AcDb2dPolyline
66
1
10
0.0
20
0.0
30
0.0
70
0
0
VERTEX
5
e1
100
AcDbEntity
8
1
100
AcDbVertex
100
AcDb2dVertex
62
5
10
246.826017
20
235.500000
0
VERTEX
5
e2
100
AcDbEntity
8
1
100
AcDbVertex
100
AcDb2dVertex
62
5
10
227.826017
20
235.500000
0
VERTEX
5
e3
100
AcDbEntity
8
1
100
AcDbVertex
100
AcDb2dVertex
62
5
10
233.826017
20
236.500000
0
VERTEX
5
e4
100
AcDbEntity
8
1
100
AcDbVertex
100
AcDb2dVertex
62
5
10
233.826017
20
234.500000
0
VERTEX
5
e5
100
AcDbEntity
8
1
100
AcDbVertex
100
AcDb2dVertex
62
5
10
227.826017
20
235.500000
0
VERTEX
5
e6
100
AcDbEntity
8
1
100
AcDbVertex
100
AcDb2dVertex
62
5
10
233.826017
20
236.000000
0
VERTEX
5
e7
100
AcDbEntity
8
1
100
AcDbVertex
100
AcDb2dVertex
62
5
10
233.826017
20
235.000000
0
VERTEX
5
e8
100
AcDbEntity
8
1
100
AcDbVertex
100
AcDb2dVertex
62
5
10
227.826017
20
235.500000
0
SEQEND
5
e9
100
AcDbEntity
8
1
0
POLYLINE
5
ea
100
AcDbEntity
8
1
6
CONTINUOUS
62
5
100
AcDb2dPolyline
66
1
10
0.0
20
0.0
30
0.0
70
0
0
VERTEX
5
eb
100
AcDbEntity
8
1
100
AcDbVertex
100
AcDb2dVertex
62
5
10
246.826017
20
235.500000
0
VERTEX
5
ec
100
AcDbEntity
8
1
100
AcDbVertex
100
AcDb2dVertex
62
5
10
265.826017
20
235.500000
0
VERTEX
5
ed
100
AcDbEntity
8
1
100
AcDbVertex
100
AcDb2dVertex
62
5
10
259.826017
20
234.500000
0
VERTEX
5
ee
100
AcDbEntity
8
1
100
AcDbVertex
100
AcDb2dVertex
62
5
10
259.826017
20
236.500000
0
VERTEX
5
ef
100
AcDbEntity
8
1
100
AcDbVertex
100
AcDb2dVertex
62
5
10
265.826017
20
235.500000
0
VERTEX
5
f0
100
AcDbEntity
8
1
100
AcDbVertex
100
AcDb2dVertex
62
5
10
259.826017
20
235.000000
0
VERTEX
5
f1
100
AcDbEntity
8
1
100
AcDbVertex
100
AcDb2dVertex
62
5
10
259.826017
20
236.000000
0
VERTEX
5
f2
100
AcDbEntity
8
1
100
AcDbVertex
100
AcDb2dVertex
62
5
10
265.826017
20
235.500000
0
SEQEND
5
f3
100
AcDbEntity
8
1
0
POLYLINE
5
f4
100
AcDbEntity
8
1
6
CONTINUOUS
62
5
100
AcDb2dPolyline
66
1
10
0.0
20
0.0
30
0.0
70
0
0
VERTEX
5
f5
100
AcDbEntity
8
1
100
AcDbVertex
100
AcDb2dVertex
62
5
10
131.750000
20
325.250000
0
VERTEX
5
f6
100
AcDbEntity
8
1
100
AcDbVertex
100
AcDb2dVertex
62
5
10
132.750000
20
326.500000
0
VERTEX
5
f7
100
AcDbEntity
8
1
100
AcDbVertex
100
AcDb2dVertex
62
5
10
133.250000
20
327.437500
0
VERTEX
5
f8
100
AcDbEntity
8
1
100
AcDbVertex
100
AcDb2dVertex
62
5
10
135.750000
20
327.437500
0
VERTEX
5
f9
100
AcDbEntity
8
1
100
AcDbVertex
100
AcDb2dVertex
62
5
10
135.750000
20
327.125000
0
VERTEX
5
fa
100
AcDbEntity
8
1
100
AcDbVertex
100
AcDb2dVertex
62
5
10
135.000000
20
325.250000
0
VERTEX
5
fb
100
AcDbEntity
8
1
100
AcDbVertex
100
AcDb2dVertex
62
5
10
133.750000
20
323.375000
0
VERTEX
5
fc
100
AcDbEntity
8
1
100
AcDbVertex
100
AcDb2dVertex
62
5
10
132.250000
20
321.812500
0
SEQEND
5
fd
100
AcDbEntity
8
1
0
POLYLINE
5
fe
100
AcDbEntity
8
1
6
CONTINUOUS
62
5
100
AcDb2dPolyline
66
1
10
0.0
20
0.0
30
0.0
70
0
0
VERTEX
5
ff
100
AcDbEntity
8
1
100
AcDbVertex
100
AcDb2dVertex
62
5
10
140.000000
20
327.125000
0
VERTEX
5
100
100
AcDbEntity
8
1
100
AcDbVertex
100
AcDb2dVertex
62
5
10
143.250000
20
327.125000
0
VERTEX
5
101
100
AcDbEntity
8
1
100
AcDbVertex
100
AcDb2dVertex
62
5
10
143.250000
20
326.812500
0
VERTEX
5
102
100
AcDbEntity
8
1
100
AcDbVertex
100
AcDb2dVertex
62
5
10
142.750000
20
325.562500
0
VERTEX
5
103
100
AcDbEntity
8
1
100
AcDbVertex
100
AcDb2dVertex
62
5
10
142.250000
20
324.625000
0
VERTEX
5
104
100
AcDbEntity
8
1
100
AcDbVertex
100
AcDb2dVertex
62
5
10
141.250000
20
323.375000
0
VERTEX
5
105
100
AcDbEntity
8
1
100
AcDbVertex
100
AcDb2dVertex
62
5
10
139.500000
20
321.812500
0
SEQEND
5
106
100
AcDbEntity
8
1
0
LINE
5
107
100
AcDbEntity
8
1
100
AcDbLine
6
CONTINUOUS
62
5
10
142.250000
20
324.625000
11
144.250000
21
321.812500
0
LINE
5
108
100
AcDbEntity
8
1
100
AcDbLine
6
CONTINUOUS
62
5
10
124.250000
20
325.562500
11
124.500000
21
324.312500
0
LINE
5
109
100
AcDbEntity
8
1
100
AcDbLine
6
CONTINUOUS
62
5
10
125.750000
20
325.875000
11
126.000000
21
324.625000
0
POLYLINE
5
10a
100
AcDbEntity
8
1
6
CONTINUOUS
62
5
100
AcDb2dPolyline
66
1
10
0.0
20
0.0
30
0.0
70
0
0
VERTEX
5
10b
100
AcDbEntity
8
1
100
AcDbVertex
100
AcDb2dVertex
62
5
10
127.750000
20
325.875000
0
VERTEX
5
10c
100
AcDbEntity
8
1
100
AcDbVertex
100
AcDb2dVertex
62
5
10
127.500000
20
324.312500
0
VERTEX
5
10d
100
AcDbEntity
8
1
100
AcDbVertex
100
AcDb2dVertex
62
5
10
126.250000
20
322.437500
0
VERTEX
5
10e
100
AcDbEntity
8
1
100
AcDbVertex
100
AcDb2dVertex
62
5
10
125.250000
20
321.500000
0
SEQEND
5
10f
100
AcDbEntity
8
1
0
POLYLINE
5
110
100
AcDbEntity
8
1
6
CONTINUOUS
62
5
100
AcDb2dPolyline
66
1
10
0.0
20
0.0
30
0.0
70
0
0
VERTEX
5
111
100
AcDbEntity
8
1
100
AcDbVertex
100
AcDb2dVertex
62
5
10
125.250000
20
319.625000
0
VERTEX
5
112
100
AcDbEntity
8
1
100
AcDbVertex
100
AcDb2dVertex
62
5
10
124.500000
20
318.375000
0
VERTEX
5
113
100
AcDbEntity
8
1
100
AcDbVertex
100
AcDb2dVertex
62
5
10
123.750000
20
317.437500
0
VERTEX
5
114
100
AcDbEntity
8
1
100
AcDbVertex
100
AcDb2dVertex
62
5
10
122.750000
20
316.500000
0
SEQEND
5
115
100
AcDbEntity
8
1
0
POLYLINE
5
116
100
AcDbEntity
8
1
6
CONTINUOUS
62
5
100
AcDb2dPolyline
66
1
10
0.0
20
0.0
30
0.0
70
0
0
VERTEX
5
117
100
AcDbEntity
8
1
100
AcDbVertex
100
AcDb2dVertex
62
5
10
125.000000
20
319.000000
0
VERTEX
5
118
100
AcDbEntity
8
1
100
AcDbVertex
100
AcDb2dVertex
62
5
10
127.250000
20
319.000000
0
VERTEX
5
119
100
AcDbEntity
8
1
100
AcDbVertex
100
AcDb2dVertex
62
5
10
126.000000
20
317.125000
0
SEQEND
5
11a
100
AcDbEntity
8
1
0
POLYLINE
5
11b
100
AcDbEntity
8
1
6
CONTINUOUS
62
5
100
AcDb2dPolyline
66
1
10
0.0
20
0.0
30
0.0
70
0
0
VERTEX
5
11c
100
AcDbEntity
8
1
100
AcDbVertex
100
AcDb2dVertex
62
5
10
123.750000
20
317.125000
0
VERTEX
5
11d
100
AcDbEntity
8
1
100
AcDbVertex
100
AcDb2dVertex
62
5
10
128.250000
20
317.125000
0
VERTEX
5
11e
100
AcDbEntity
8
1
100
AcDbVertex
100
AcDb2dVertex
62
5
10
128.250000
20
314.312500
0
VERTEX
5
11f
100
AcDbEntity
8
1
100
AcDbVertex
100
AcDb2dVertex
62
5
10
123.750000
20
314.312500
0
SEQEND
5
120
100
AcDbEntity
8
1
0
LINE
5
121
100
AcDbEntity
8
1
100
AcDbLine
6
CONTINUOUS
62
5
10
126.000000
20
317.125000
11
126.000000
21
314.312500
0
POLYLINE
5
122
100
AcDbEntity
8
1
6
CONTINUOUS
62
5
100
AcDb2dPolyline
66
1
10
0.0
20
0.0
30
0.0
70
0
0
VERTEX
5
123
100
AcDbEntity
8
1
100
AcDbVertex
100
AcDb2dVertex
62
5
10
123.750000
20
317.125000
0
VERTEX
5
124
100
AcDbEntity
8
1
100
AcDbVertex
100
AcDb2dVertex
62
5
10
123.750000
20
311.812500
0
VERTEX
5
125
100
AcDbEntity
8
1
100
AcDbVertex
100
AcDb2dVertex
62
5
10
124.250000
20
311.187500
0
VERTEX
5
126
100
AcDbEntity
8
1
100
AcDbVertex
100
AcDb2dVertex
62
5
10
129.250000
20
311.187500
0
VERTEX
5
127
100
AcDbEntity
8
1
100
AcDbVertex
100
AcDb2dVertex
62
5
10
129.250000
20
312.437500
0
SEQEND
5
128
100
AcDbEntity
8
1
0
POLYLINE
5
129
100
AcDbEntity
8
1
6
CONTINUOUS
62
5
100
AcDb2dPolyline
66
1
10
0.0
20
0.0
30
0.0
70
0
0
VERTEX
5
12a
100
AcDbEntity
8
1
100
AcDbVertex
100
AcDb2dVertex
62
5
10
117.250000
20
316.187500
0
VERTEX
5
12b
100
AcDbEntity
8
1
100
AcDbVertex
100
AcDb2dVertex
62
5
10
117.500000
20
316.187500
0
VERTEX
5
12c
100
AcDbEntity
8
1
100
AcDbVertex
100
AcDb2dVertex
62
5
10
119.250000
20
314.937500
0
SEQEND
5
12d
100
AcDbEntity
8
1
0
LINE
5
12e
100
AcDbEntity
8
1
100
AcDbLine
6
CONTINUOUS
62
5
10
117.250000
20
319.000000
11
117.250000
21
311.500000
0
LINE
5
12f
100
AcDbEntity
8
1
100
AcDbLine
6
CONTINUOUS
62
5
10
115.250000
20
326.187500
11
120.250000
21
326.187500
0
POLYLINE
5
130
100
AcDbEntity
8
1
6
CONTINUOUS
62
5
100
AcDb2dPolyline
66
1
10
0.0
20
0.0
30
0.0
70
0
0
VERTEX
5
131
100
AcDbEntity
8
1
100
AcDbVertex
100
AcDb2dVertex
62
5
10
117.750000
20
328.062500
0
VERTEX
5
132
100
AcDbEntity
8
1
100
AcDbVertex
100
AcDb2dVertex
62
5
10
117.750000
20
321.812500
0
VERTEX
5
133
100
AcDbEntity
8
1
100
AcDbVertex
100
AcDb2dVertex
62
5
10
117.250000
20
321.812500
0
SEQEND
5
134
100
AcDbEntity
8
1
0
LINE
5
135
100
AcDbEntity
8
1
100
AcDbLine
6
CONTINUOUS
62
5
10
116.250000
20
324.625000
11
115.250000
21
322.750000
0
LINE
5
136
100
AcDbEntity
8
1
100
AcDbLine
6
CONTINUOUS
62
5
10
119.250000
20
324.625000
11
120.500000
21
323.062500
0
LINE
5
137
100
AcDbEntity
8
1
100
AcDbLine
6
CONTINUOUS
62
5
10
119.250000
20
328.062500
11
120.000000
21
327.125000
0
LINE
5
138
100
AcDbEntity
8
1
100
AcDbLine
6
CONTINUOUS
62
5
10
120.000000
20
329.000000
11
120.750000
21
328.062500
0
LINE
5
139
100
AcDbEntity
8
1
100
AcDbLine
6
CONTINUOUS
62
5
10
100.250000
20
325.562500
11
100.500000
21
324.312500
0
LINE
5
13a
100
AcDbEntity
8
1
100
AcDbLine
6
CONTINUOUS
62
5
10
101.750000
20
325.875000
11
102.000000
21
324.625000
0
POLYLINE
5
13b
100
AcDbEntity
8
1
6
CONTINUOUS
62
5
100
AcDb2dPolyline
66
1
10
0.0
20
0.0
30
0.0
70
0
0
VERTEX
5
13c
100
AcDbEntity
8
1
100
AcDbVertex
100
AcDb2dVertex
62
5
10
103.750000
20
325.875000
0
VERTEX
5
13d
100
AcDbEntity
8
1
100
AcDbVertex
100
AcDb2dVertex
62
5
10
103.500000
20
324.312500
0
VERTEX
5
13e
100
AcDbEntity
8
1
100
AcDbVertex
100
AcDb2dVertex
62
5
10
102.250000
20
322.437500
0
VERTEX
5
13f
100
AcDbEntity
8
1
100
AcDbVertex
100
AcDb2dVertex
62
5
10
101.250000
20
321.500000
0
SEQEND
5
140
100
AcDbEntity
8
1
0
POLYLINE
5
141
100
AcDbEntity
8
1
6
CONTINUOUS
62
5
100
AcDb2dPolyline
66
1
10
0.0
20
0.0
30
0.0
70
0
0
VERTEX
5
142
100
AcDbEntity
8
1
100
AcDbVertex
100
AcDb2dVertex
62
5
10
95.750000
20
328.687500
0
VERTEX
5
143
100
AcDbEntity
8
1
100
AcDbVertex
100
AcDb2dVertex
62
5
10
93.750000
20
326.187500
0
VERTEX
5
144
100
AcDbEntity
8
1
100
AcDbVertex
100
AcDb2dVertex
62
5
10
91.500000
20
324.625000
0
SEQEND
5
145
100
AcDbEntity
8
1
0
LINE
5
146
100
AcDbEntity
8
1
100
AcDbLine
6
CONTINUOUS
62
5
10
94.250000
20
326.812500
11
94.250000
21
321.500000
0
LINE
5
147
100
AcDbEntity
8
1
100
AcDbLine
6
CONTINUOUS
62
5
10
91.250000
20
316.187500
11
96.250000
21
316.187500
0
POLYLINE
5
148
100
AcDbEntity
8
1
6
CONTINUOUS
62
5
100
AcDb2dPolyline
66
1
10
0.0
20
0.0
30
0.0
70
0
0
VERTEX
5
149
100
AcDbEntity
8
1
100
AcDbVertex
100
AcDb2dVertex
62
5
10
93.750000
20
318.062500
0
VERTEX
5
14a
100
AcDbEntity
8
1
100
AcDbVertex
100
AcDb2dVertex
62
5
10
93.750000
20
311.812500
0
VERTEX
5
14b
100
AcDbEntity
8
1
100
AcDbVertex
100
AcDb2dVertex
62
5
10
93.250000
20
311.812500
0
SEQEND
5
14c
100
AcDbEntity
8
1
0
LINE
5
14d
100
AcDbEntity
8
1
100
AcDbLine
6
CONTINUOUS
62
5
10
92.500000
20
314.625000
11
91.250000
21
312.750000
0
LINE
5
14e
100
AcDbEntity
8
1
100
AcDbLine
6
CONTINUOUS
62
5
10
95.250000
20
314.625000
11
96.500000
21
313.062500
0
POLYLINE
5
14f
100
AcDbEntity
8
1
6
CONTINUOUS
62
5
100
AcDb2dPolyline
66
1
10
0.0
20
0.0
30
0.0
70
0
0
VERTEX
5
150
100
AcDbEntity
8
1
100
AcDbVertex
100
AcDb2dVertex
62
5
10
99.750000
20
315.562500
0
VERTEX
5
151
100
AcDbEntity
8
1
100
AcDbVertex
100
AcDb2dVertex
62
5
10
99.750000
20
317.750000
0
VERTEX
5
152
100
AcDbEntity
8
1
100
AcDbVertex
100
AcDb2dVertex
62
5
10
103.750000
20
317.750000
0
VERTEX
5
153
100
AcDbEntity
8
1
100
AcDbVertex
100
AcDb2dVertex
62
5
10
103.750000
20
316.812500
0
VERTEX
5
154
100
AcDbEntity
8
1
100
AcDbVertex
100
AcDb2dVertex
62
5
10
103.500000
20
315.250000
0
VERTEX
5
155
100
AcDbEntity
8
1
100
AcDbVertex
100
AcDb2dVertex
62
5
10
103.000000
20
314.000000
0
VERTEX
5
156
100
AcDbEntity
8
1
100
AcDbVertex
100
AcDb2dVertex
62
5
10
102.500000
20
313.062500
0
VERTEX
5
157
100
AcDbEntity
8
1
100
AcDbVertex
100
AcDb2dVertex
62
5
10
101.500000
20
311.812500
0
SEQEND
5
158
100
AcDbEntity
8
1
0
POLYLINE
5
159
100
AcDbEntity
8
1
6
CONTINUOUS
62
5
100
AcDb2dPolyline
66
1
10
0.0
20
0.0
30
0.0
70
0
0
VERTEX
5
15a
100
AcDbEntity
8
1
100
AcDbVertex
100
AcDb2dVertex
62
5
10
84.000000
20
327.125000
0
VERTEX
5
15b
100
AcDbEntity
8
1
100
AcDbVertex
100
AcDb2dVertex
62
5
10
87.250000
20
327.125000
0
VERTEX
5
15c
100
AcDbEntity
8
1
100
AcDbVertex
100
AcDb2dVertex
62
5
10
87.250000
20
326.812500
0
VERTEX
5
15d
100
AcDbEntity
8
1
100
AcDbVertex
100
AcDb2dVertex
62
5
10
86.750000
20
325.562500
0
VERTEX
5
15e
100
AcDbEntity
8
1
100
AcDbVertex
100
AcDb2dVertex
62
5
10
86.250000
20
324.625000
0
VERTEX
5
15f
100
AcDbEntity
8
1
100
AcDbVertex
100
AcDb2dVertex
62
5
10
85.250000
20
323.375000
0
VERTEX
5
160
100
AcDbEntity
8
1
100
AcDbVertex
100
AcDb2dVertex
62
5
10
83.500000
20
321.812500
0
SEQEND
5
161
100
AcDbEntity
8
1
0
LINE
5
162
100
AcDbEntity
8
1
100
AcDbLine
6
CONTINUOUS
62
5
10
86.250000
20
324.625000
11
88.250000
21
321.812500
0
POLYLINE
5
163
100
AcDbEntity
8
1
6
CONTINUOUS
62
5
100
AcDb2dPolyline
66
1
10
0.0
20
0.0
30
0.0
70
0
0
VERTEX
5
164
100
AcDbEntity
8
1
100
AcDbVertex
100
AcDb2dVertex
62
5
10
83.000000
20
317.437500
0
VERTEX
5
165
100
AcDbEntity
8
1
100
AcDbVertex
100
AcDb2dVertex
62
5
10
88.250000
20
317.437500
0
VERTEX
5
166
100
AcDbEntity
8
1
100
AcDbVertex
100
AcDb2dVertex
62
5
10
88.250000
20
317.125000
0
VERTEX
5
167
100
AcDbEntity
8
1
100
AcDbVertex
100
AcDb2dVertex
62
5
10
86.500000
20
315.250000
0
VERTEX
5
168
100
AcDbEntity
8
1
100
AcDbVertex
100
AcDb2dVertex
62
5
10
85.750000
20
315.250000
0
SEQEND
5
169
100
AcDbEntity
8
1
0
POLYLINE
5
16a
100
AcDbEntity
8
1
6
CONTINUOUS
62
5
100
AcDb2dPolyline
66
1
10
0.0
20
0.0
30
0.0
70
0
0
VERTEX
5
16b
100
AcDbEntity
8
1
100
AcDbVertex
100
AcDb2dVertex
62
5
10
85.750000
20
316.187500
0
VERTEX
5
16c
100
AcDbEntity
8
1
100
AcDbVertex
100
AcDb2dVertex
62
5
10
85.750000
20
314.625000
0
VERTEX
5
16d
100
AcDbEntity
8
1
100
AcDbVertex
100
AcDb2dVertex
62
5
10
85.000000
20
312.750000
0
VERTEX
5
16e
100
AcDbEntity
8
1
100
AcDbVertex
100
AcDb2dVertex
62
5
10
84.000000
20
311.500000
0
SEQEND
5
16f
100
AcDbEntity
8
1
0
POLYLINE
5
170
100
AcDbEntity
8
1
6
CONTINUOUS
62
5
100
AcDb2dPolyline
66
1
10
0.0
20
0.0
30
0.0
70
0
0
VERTEX
5
171
100
AcDbEntity
8
1
100
AcDbVertex
100
AcDb2dVertex
62
5
10
75.500000
20
328.375000
0
VERTEX
5
172
100
AcDbEntity
8
1
100
AcDbVertex
100
AcDb2dVertex
62
5
10
75.500000
20
325.562500
0
VERTEX
5
173
100
AcDbEntity
8
1
100
AcDbVertex
100
AcDb2dVertex
62
5
10
80.000000
20
325.562500
0
VERTEX
5
174
100
AcDbEntity
8
1
100
AcDbVertex
100
AcDb2dVertex
62
5
10
80.000000
20
328.375000
0
SEQEND
5
175
100
AcDbEntity
8
1
0
LINE
5
176
100
AcDbEntity
8
1
100
AcDbLine
6
CONTINUOUS
62
5
10
77.750000
20
329.625000
11
77.750000
21
320.875000
0
POLYLINE
5
177
100
AcDbEntity
8
1
6
CONTINUOUS
62
5
100
AcDb2dPolyline
66
1
10
0.0
20
0.0
30
0.0
70
0
0
VERTEX
5
178
100
AcDbEntity
8
1
100
AcDbVertex
100
AcDb2dVertex
62
5
10
75.000000
20
324.000000
0
VERTEX
5
179
100
AcDbEntity
8
1
100
AcDbVertex
100
AcDb2dVertex
62
5
10
75.000000
20
320.875000
0
VERTEX
5
17a
100
AcDbEntity
8
1
100
AcDbVertex
100
AcDb2dVertex
62
5
10
80.500000
20
320.875000
0
VERTEX
5
17b
100
AcDbEntity
8
1
100
AcDbVertex
100
AcDb2dVertex
62
5
10
80.500000
20
324.000000
0
SEQEND
5
17c
100
AcDbEntity
8
1
0
POLYLINE
5
17d
100
AcDbEntity
8
1
6
CONTINUOUS
62
5
100
AcDb2dPolyline
66
1
10
0.0
20
0.0
30
0.0
70
0
0
VERTEX
5
17e
100
AcDbEntity
8
1
100
AcDbVertex
100
AcDb2dVertex
62
5
10
76.500000
20
315.562500
0
VERTEX
5
17f
100
AcDbEntity
8
1
100
AcDbVertex
100
AcDb2dVertex
62
5
10
78.500000
20
315.562500
0
VERTEX
5
180
100
AcDbEntity
8
1
100
AcDbVertex
100
AcDb2dVertex
62
5
10
78.250000
20
312.437500
0
SEQEND
5
181
100
AcDbEntity
8
1
0
LINE
5
182
100
AcDbEntity
8
1
100
AcDbLine
6
CONTINUOUS
62
5
10
75.750000
20
312.437500
11
80.000000
21
312.437500
0
LINE
5
183
100
AcDbEntity
8
1
100
AcDbLine
6
CONTINUOUS
62
5
10
108.000000
20
327.437500
11
111.750000
21
328.062500
0
LINE
5
184
100
AcDbEntity
8
1
100
AcDbLine
6
CONTINUOUS
62
5
10
106.750000
20
325.562500
11
112.750000
21
325.562500
0
POLYLINE
5
185
100
AcDbEntity
8
1
6
CONTINUOUS
62
5
100
AcDb2dPolyline
66
1
10
0.0
20
0.0
30
0.0
70
0
0
VERTEX
5
186
100
AcDbEntity
8
1
100
AcDbVertex
100
AcDb2dVertex
62
5
10
110.000000
20
327.750000
0
VERTEX
5
187
100
AcDbEntity
8
1
100
AcDbVertex
100
AcDb2dVertex
62
5
10
110.000000
20
325.562500
0
VERTEX
5
188
100
AcDbEntity
8
1
100
AcDbVertex
100
AcDb2dVertex
62
5
10
109.750000
20
324.000000
0
VERTEX
5
189
100
AcDbEntity
8
1
100
AcDbVertex
100
AcDb2dVertex
62
5
10
109.000000
20
322.750000
0
VERTEX
5
18a
100
AcDbEntity
8
1
100
AcDbVertex
100
AcDb2dVertex
62
5
10
108.250000
20
321.812500
0
SEQEND
5
18b
100
AcDbEntity
8
1
0
POLYLINE
5
18c
100
AcDbEntity
8
1
6
CONTINUOUS
62
5
100
AcDb2dPolyline
66
1
10
0.0
20
0.0
30
0.0
70
0
0
VERTEX
5
18d
100
AcDbEntity
8
1
100
AcDbVertex
100
AcDb2dVertex
62
5
10
111.750000
20
318.687500
0
VERTEX
5
18e
100
AcDbEntity
8
1
100
AcDbVertex
100
AcDb2dVertex
62
5
10
109.750000
20
316.187500
0
VERTEX
5
18f
100
AcDbEntity
8
1
100
AcDbVertex
100
AcDb2dVertex
62
5
10
107.500000
20
314.625000
0
SEQEND
5
190
100
AcDbEntity
8
1
0
LINE
5
191
100
AcDbEntity
8
1
100
AcDbLine
6
CONTINUOUS
62
5
10
110.250000
20
316.812500
11
110.250000
21
311.500000
0
LINE
5
192
100
AcDbEntity
8
1
100
AcDbLine
6
CONTINUOUS
62
5
10
87.500000
20
290.500000
11
87.500000
21
283.000000
0
POLYLINE
5
193
100
AcDbEntity
8
1
6
CONTINUOUS
62
5
100
AcDb2dPolyline
66
1
10
0.0
20
0.0
30
0.0
70
0
0
VERTEX
5
194
100
AcDbEntity
8
1
100
AcDbVertex
100
AcDb2dVertex
62
5
10
87.500000
20
290.500000
0
VERTEX
5
195
100
AcDbEntity
8
1
100
AcDbVertex
100
AcDb2dVertex
62
5
10
88.750000
20
290.500000
0
VERTEX
5
196
100
AcDbEntity
8
1
100
AcDbVertex
100
AcDb2dVertex
62
5
10
89.687500
20
290.187500
0
VERTEX
5
197
100
AcDbEntity
8
1
100
AcDbVertex
100
AcDb2dVertex
62
5
10
90.312500
20
289.562500
0
VERTEX
5
198
100
AcDbEntity
8
1
100
AcDbVertex
100
AcDb2dVertex
62
5
10
90.625000
20
288.937500
0
VERTEX
5
199
100
AcDbEntity
8
1
100
AcDbVertex
100
AcDb2dVertex
62
5
10
90.625000
20
288.000000
0
VERTEX
5
19a
100
AcDbEntity
8
1
100
AcDbVertex
100
AcDb2dVertex
62
5
10
90.312500
20
287.375000
0
VERTEX
5
19b
100
AcDbEntity
8
1
100
AcDbVertex
100
AcDb2dVertex
62
5
10
89.687500
20
286.750000
0
VERTEX
5
19c
100
AcDbEntity
8
1
100
AcDbVertex
100
AcDb2dVertex
62
5
10
88.750000
20
286.437500
0
VERTEX
5
19d
100
AcDbEntity
8
1
100
AcDbVertex
100
AcDb2dVertex
62
5
10
87.500000
20
286.437500
0
SEQEND
5
19e
100
AcDbEntity
8
1
0
POLYLINE
5
19f
100
AcDbEntity
8
1
6
CONTINUOUS
62
5
100
AcDb2dPolyline
66
1
10
0.0
20
0.0
30
0.0
70
0
0
VERTEX
5
1a0
100
AcDbEntity
8
1
100
AcDbVertex
100
AcDb2dVertex
62
5
10
92.187500
20
290.500000
0
VERTEX
5
1a1
100
AcDbEntity
8
1
100
AcDbVertex
100
AcDb2dVertex
62
5
10
93.125000
20
283.000000
0
VERTEX
5
1a2
100
AcDbEntity
8
1
100
AcDbVertex
100
AcDb2dVertex
62
5
10
94.062500
20
290.500000
0
VERTEX
5
1a3
100
AcDbEntity
8
1
100
AcDbVertex
100
AcDb2dVertex
62
5
10
95.000000
20
283.000000
0
VERTEX
5
1a4
100
AcDbEntity
8
1
100
AcDbVertex
100
AcDb2dVertex
62
5
10
95.937500
20
290.500000
0
SEQEND
5
1a5
100
AcDbEntity
8
1
0
POLYLINE
5
1a6
100
AcDbEntity
8
1
6
CONTINUOUS
62
5
100
AcDb2dPolyline
66
1
10
0.0
20
0.0
30
0.0
70
0
0
VERTEX
5
1a7
100
AcDbEntity
8
1
100
AcDbVertex
100
AcDb2dVertex
62
5
10
75.625000
20
290.500000
0
VERTEX
5
1a8
100
AcDbEntity
8
1
100
AcDbVertex
100
AcDb2dVertex
62
5
10
72.500000
20
290.500000
0
VERTEX
5
1a9
100
AcDbEntity
8
1
100
AcDbVertex
100
AcDb2dVertex
62
5
10
72.500000
20
283.000000
0
SEQEND
5
1aa
100
AcDbEntity
8
1
0
LINE
5
1ab
100
AcDbEntity
8
1
100
AcDbLine
6
CONTINUOUS
62
5
10
72.500000
20
286.750000
11
75.000000
21
286.750000
0
POLYLINE
5
1ac
100
AcDbEntity
8
1
6
CONTINUOUS
62
5
100
AcDb2dPolyline
66
1
10
0.0
20
0.0
30
0.0
70
0
0
VERTEX
5
1ad
100
AcDbEntity
8
1
100
AcDbVertex
100
AcDb2dVertex
62
5
10
77.500000
20
288.312500
0
VERTEX
5
1ae
100
AcDbEntity
8
1
100
AcDbVertex
100
AcDb2dVertex
62
5
10
77.812500
20
289.875000
0
VERTEX
5
1af
100
AcDbEntity
8
1
100
AcDbVertex
100
AcDb2dVertex
62
5
10
78.750000
20
290.500000
0
VERTEX
5
1b0
100
AcDbEntity
8
1
100
AcDbVertex
100
AcDb2dVertex
62
5
10
79.687500
20
290.500000
0
VERTEX
5
1b1
100
AcDbEntity
8
1
100
AcDbVertex
100
AcDb2dVertex
62
5
10
80.312500
20
290.187500
0
VERTEX
5
1b2
100
AcDbEntity
8
1
100
AcDbVertex
100
AcDb2dVertex
62
5
10
80.625000
20
289.250000
0
VERTEX
5
1b3
100
AcDbEntity
8
1
100
AcDbVertex
100
AcDb2dVertex
62
5
10
80.625000
20
288.312500
0
VERTEX
5
1b4
100
AcDbEntity
8
1
100
AcDbVertex
100
AcDb2dVertex
62
5
10
80.312500
20
287.375000
0
VERTEX
5
1b5
100
AcDbEntity
8
1
100
AcDbVertex
100
AcDb2dVertex
62
5
10
77.500000
20
283.000000
0
VERTEX
5
1b6
100
AcDbEntity
8
1
100
AcDbVertex
100
AcDb2dVertex
62
5
10
80.625000
20
283.000000
0
VERTEX
5
1b7
100
AcDbEntity
8
1
100
AcDbVertex
100
AcDb2dVertex
62
5
10
80.625000
20
283.937500
0
SEQEND
5
1b8
100
AcDbEntity
8
1
0
LINE
5
1b9
100
AcDbEntity
8
1
100
AcDbLine
6
CONTINUOUS
62
5
10
62.500000
20
290.500000
11
62.500000
21
283.000000
0
POLYLINE
5
1ba
100
AcDbEntity
8
1
6
CONTINUOUS
62
5
100
AcDb2dPolyline
66
1
10
0.0
20
0.0
30
0.0
70
0
0
VERTEX
5
1bb
100
AcDbEntity
8
1
100
AcDbVertex
100
AcDb2dVertex
62
5
10
62.500000
20
290.500000
0
VERTEX
5
1bc
100
AcDbEntity
8
1
100
AcDbVertex
100
AcDb2dVertex
62
5
10
64.062500
20
290.500000
0
VERTEX
5
1bd
100
AcDbEntity
8
1
100
AcDbVertex
100
AcDb2dVertex
62
5
10
64.687500
20
290.187500
0
VERTEX
5
1be
100
AcDbEntity
8
1
100
AcDbVertex
100
AcDb2dVertex
62
5
10
65.000000
20
289.875000
0
VERTEX
5
1bf
100
AcDbEntity
8
1
100
AcDbVertex
100
AcDb2dVertex
62
5
10
65.312500
20
289.250000
0
VERTEX
5
1c0
100
AcDbEntity
8
1
100
AcDbVertex
100
AcDb2dVertex
62
5
10
65.312500
20
288.312500
0
VERTEX
5
1c1
100
AcDbEntity
8
1
100
AcDbVertex
100
AcDb2dVertex
62
5
10
65.000000
20
287.687500
0
VERTEX
5
1c2
100
AcDbEntity
8
1
100
AcDbVertex
100
AcDb2dVertex
62
5
10
64.687500
20
287.375000
0
VERTEX
5
1c3
100
AcDbEntity
8
1
100
AcDbVertex
100
AcDb2dVertex
62
5
10
64.062500
20
287.062500
0
VERTEX
5
1c4
100
AcDbEntity
8
1
100
AcDbVertex
100
AcDb2dVertex
62
5
10
62.500000
20
287.062500
0
SEQEND
5
1c5
100
AcDbEntity
8
1
0
POLYLINE
5
1c6
100
AcDbEntity
8
1
6
CONTINUOUS
62
5
100
AcDb2dPolyline
66
1
10
0.0
20
0.0
30
0.0
70
0
0
VERTEX
5
1c7
100
AcDbEntity
8
1
100
AcDbVertex
100
AcDb2dVertex
62
5
10
64.062500
20
287.062500
0
VERTEX
5
1c8
100
AcDbEntity
8
1
100
AcDbVertex
100
AcDb2dVertex
62
5
10
64.687500
20
286.750000
0
VERTEX
5
1c9
100
AcDbEntity
8
1
100
AcDbVertex
100
AcDb2dVertex
62
5
10
65.312500
20
286.125000
0
VERTEX
5
1ca
100
AcDbEntity
8
1
100
AcDbVertex
100
AcDb2dVertex
62
5
10
65.625000
20
285.500000
0
VERTEX
5
1cb
100
AcDbEntity
8
1
100
AcDbVertex
100
AcDb2dVertex
62
5
10
65.625000
20
284.250000
0
VERTEX
5
1cc
100
AcDbEntity
8
1
100
AcDbVertex
100
AcDb2dVertex
62
5
10
65.312500
20
283.625000
0
VERTEX
5
1cd
100
AcDbEntity
8
1
100
AcDbVertex
100
AcDb2dVertex
62
5
10
65.000000
20
283.312500
0
VERTEX
5
1ce
100
AcDbEntity
8
1
100
AcDbVertex
100
AcDb2dVertex
62
5
10
64.375000
20
283.000000
0
VERTEX
5
1cf
100
AcDbEntity
8
1
100
AcDbVertex
100
AcDb2dVertex
62
5
10
62.500000
20
283.000000
0
SEQEND
5
1d0
100
AcDbEntity
8
1
0
POLYLINE
5
1d1
100
AcDbEntity
8
1
6
CONTINUOUS
62
5
100
AcDb2dPolyline
66
1
10
0.0
20
0.0
30
0.0
70
0
0
VERTEX
5
1d2
100
AcDbEntity
8
1
100
AcDbVertex
100
AcDb2dVertex
62
5
10
52.500000
20
283.000000
0
VERTEX
5
1d3
100
AcDbEntity
8
1
100
AcDbVertex
100
AcDb2dVertex
62
5
10
52.500000
20
290.500000
0
VERTEX
5
1d4
100
AcDbEntity
8
1
100
AcDbVertex
100
AcDb2dVertex
62
5
10
54.062500
20
283.000000
0
VERTEX
5
1d5
100
AcDbEntity
8
1
100
AcDbVertex
100
AcDb2dVertex
62
5
10
55.625000
20
290.500000
0
VERTEX
5
1d6
100
AcDbEntity
8
1
100
AcDbVertex
100
AcDb2dVertex
62
5
10
55.625000
20
283.000000
0
SEQEND
5
1d7
100
AcDbEntity
8
1
0
POLYLINE
5
1d8
100
AcDbEntity
8
1
6
CONTINUOUS
62
5
100
AcDb2dPolyline
66
1
10
0.0
20
0.0
30
0.0
70
0
0
VERTEX
5
1d9
100
AcDbEntity
8
1
100
AcDbVertex
100
AcDb2dVertex
62
5
10
60.625000
20
288.937500
0
VERTEX
5
1da
100
AcDbEntity
8
1
100
AcDbVertex
100
AcDb2dVertex
62
5
10
60.000000
20
290.187500
0
VERTEX
5
1db
100
AcDbEntity
8
1
100
AcDbVertex
100
AcDb2dVertex
62
5
10
59.062500
20
290.500000
0
VERTEX
5
1dc
100
AcDbEntity
8
1
100
AcDbVertex
100
AcDb2dVertex
62
5
10
58.437500
20
290.500000
0
VERTEX
5
1dd
100
AcDbEntity
8
1
100
AcDbVertex
100
AcDb2dVertex
62
5
10
57.812500
20
290.187500
0
VERTEX
5
1de
100
AcDbEntity
8
1
100
AcDbVertex
100
AcDb2dVertex
62
5
10
57.187500
20
289.250000
0
VERTEX
5
1df
100
AcDbEntity
8
1
100
AcDbVertex
100
AcDb2dVertex
62
5
10
57.187500
20
288.312500
0
VERTEX
5
1e0
100
AcDbEntity
8
1
100
AcDbVertex
100
AcDb2dVertex
62
5
10
57.812500
20
287.375000
0
VERTEX
5
1e1
100
AcDbEntity
8
1
100
AcDbVertex
100
AcDb2dVertex
62
5
10
60.000000
20
286.125000
0
VERTEX
5
1e2
100
AcDbEntity
8
1
100
AcDbVertex
100
AcDb2dVertex
62
5
10
60.625000
20
285.187500
0
VERTEX
5
1e3
100
AcDbEntity
8
1
100
AcDbVertex
100
AcDb2dVertex
62
5
10
60.625000
20
284.250000
0
VERTEX
5
1e4
100
AcDbEntity
8
1
100
AcDbVertex
100
AcDb2dVertex
62
5
10
60.000000
20
283.312500
0
VERTEX
5
1e5
100
AcDbEntity
8
1
100
AcDbVertex
100
AcDb2dVertex
62
5
10
59.062500
20
283.000000
0
VERTEX
5
1e6
100
AcDbEntity
8
1
100
AcDbVertex
100
AcDb2dVertex
62
5
10
58.437500
20
283.000000
0
VERTEX
5
1e7
100
AcDbEntity
8
1
100
AcDbVertex
100
AcDb2dVertex
62
5
10
57.500000
20
283.625000
0
VERTEX
5
1e8
100
AcDbEntity
8
1
100
AcDbVertex
100
AcDb2dVertex
62
5
10
57.187500
20
284.875000
0
SEQEND
5
1e9
100
AcDbEntity
8
1
0
LINE
5
1ea
100
AcDbEntity
8
1
100
AcDbLine
6
CONTINUOUS
62
5
10
67.000000
20
329.312500
11
72.750000
21
329.312500
0
POLYLINE
5
1eb
100
AcDbEntity
8
1
6
CONTINUOUS
62
5
100
AcDb2dPolyline
66
1
10
0.0
20
0.0
30
0.0
70
0
0
VERTEX
5
1ec
100
AcDbEntity
8
1
100
AcDbVertex
100
AcDb2dVertex
62
5
10
66.750000
20
326.500000
0
VERTEX
5
1ed
100
AcDbEntity
8
1
100
AcDbVertex
100
AcDb2dVertex
62
5
10
66.750000
20
328.375000
0
VERTEX
5
1ee
100
AcDbEntity
8
1
100
AcDbVertex
100
AcDb2dVertex
62
5
10
73.250000
20
328.375000
0
VERTEX
5
1ef
100
AcDbEntity
8
1
100
AcDbVertex
100
AcDb2dVertex
62
5
10
73.250000
20
326.500000
0
SEQEND
5
1f0
100
AcDbEntity
8
1
0
LINE
5
1f1
100
AcDbEntity
8
1
100
AcDbLine
6
CONTINUOUS
62
5
10
70.000000
20
329.312500
11
70.000000
21
325.875000
0
LINE
5
1f2
100
AcDbEntity
8
1
100
AcDbLine
6
CONTINUOUS
62
5
10
67.500000
20
327.437500
11
69.250000
21
327.437500
0
LINE
5
1f3
100
AcDbEntity
8
1
100
AcDbLine
6
CONTINUOUS
62
5
10
67.500000
20
326.500000
11
69.250000
21
326.500000
0
LINE
5
1f4
100
AcDbEntity
8
1
100
AcDbLine
6
CONTINUOUS
62
5
10
70.750000
20
327.437500
11
72.500000
21
327.437500
0
LINE
5
1f5
100
AcDbEntity
8
1
100
AcDbLine
6
CONTINUOUS
62
5
10
70.750000
20
326.500000
11
72.500000
21
326.500000
0
POLYLINE
5
1f6
100
AcDbEntity
8
1
6
CONTINUOUS
62
5
100
AcDb2dPolyline
66
1
10
0.0
20
0.0
30
0.0
70
1
0
VERTEX
5
1f7
100
AcDbEntity
8
1
100
AcDbVertex
100
AcDb2dVertex
62
5
10
67.000000
20
325.250000
0
VERTEX
5
1f8
100
AcDbEntity
8
1
100
AcDbVertex
100
AcDb2dVertex
62
5
10
67.000000
20
324.000000
0
VERTEX
5
1f9
100
AcDbEntity
8
1
100
AcDbVertex
100
AcDb2dVertex
62
5
10
69.000000
20
324.000000
0
VERTEX
5
1fa
100
AcDbEntity
8
1
100
AcDbVertex
100
AcDb2dVertex
62
5
10
69.000000
20
325.250000
0
VERTEX
5
1fb
100
AcDbEntity
8
1
100
AcDbVertex
100
AcDb2dVertex
62
5
10
67.000000
20
325.250000
0
SEQEND
5
1fc
100
AcDbEntity
8
1
0
LINE
5
1fd
100
AcDbEntity
8
1
100
AcDbLine
6
CONTINUOUS
62
5
10
68.000000
20
324.000000
11
68.000000
21
321.500000
0
LINE
5
1fe
100
AcDbEntity
8
1
100
AcDbLine
6
CONTINUOUS
62
5
10
68.000000
20
323.062500
11
69.000000
21
323.062500
0
LINE
5
1ff
100
AcDbEntity
8
1
100
AcDbLine
6
CONTINUOUS
62
5
10
67.000000
20
323.375000
11
67.000000
21
321.187500
0
LINE
5
200
100
AcDbEntity
8
1
100
AcDbLine
6
CONTINUOUS
62
5
10
66.500000
20
320.875000
11
69.000000
21
321.812500
0
POLYLINE
5
201
100
AcDbEntity
8
1
6
CONTINUOUS
62
5
100
AcDb2dPolyline
66
1
10
0.0
20
0.0
30
0.0
70
0
0
VERTEX
5
202
100
AcDbEntity
8
1
100
AcDbVertex
100
AcDb2dVertex
62
5
10
71.000000
20
325.562500
0
VERTEX
5
203
100
AcDbEntity
8
1
100
AcDbVertex
100
AcDb2dVertex
62
5
10
70.750000
20
324.937500
0
VERTEX
5
204
100
AcDbEntity
8
1
100
AcDbVertex
100
AcDb2dVertex
62
5
10
70.250000
20
324.312500
0
VERTEX
5
205
100
AcDbEntity
8
1
100
AcDbVertex
100
AcDb2dVertex
62
5
10
69.750000
20
324.000000
0
SEQEND
5
206
100
AcDbEntity
8
1
0
POLYLINE
5
207
100
AcDbEntity
8
1
6
CONTINUOUS
62
5
100
AcDb2dPolyline
66
1
10
0.0
20
0.0
30
0.0
70
0
0
VERTEX
5
208
100
AcDbEntity
8
1
100
AcDbVertex
100
AcDb2dVertex
62
5
10
70.750000
20
324.937500
0
VERTEX
5
209
100
AcDbEntity
8
1
100
AcDbVertex
100
AcDb2dVertex
62
5
10
72.750000
20
324.937500
0
VERTEX
5
20a
100
AcDbEntity
8
1
100
AcDbVertex
100
AcDb2dVertex
62
5
10
72.000000
20
324.000000
0
VERTEX
5
20b
100
AcDbEntity
8
1
100
AcDbVertex
100
AcDb2dVertex
62
5
10
71.250000
20
323.375000
0
VERTEX
5
20c
100
AcDbEntity
8
1
100
AcDbVertex
100
AcDb2dVertex
62
5
10
69.500000
20
322.750000
0
SEQEND
5
20d
100
AcDbEntity
8
1
0
POLYLINE
5
20e
100
AcDbEntity
8
1
6
CONTINUOUS
62
5
100
AcDb2dPolyline
66
1
10
0.0
20
0.0
30
0.0
70
0
0
VERTEX
5
20f
100
AcDbEntity
8
1
100
AcDbVertex
100
AcDb2dVertex
62
5
10
70.500000
20
324.625000
0
VERTEX
5
210
100
AcDbEntity
8
1
100
AcDbVertex
100
AcDb2dVertex
62
5
10
71.000000
20
324.000000
0
VERTEX
5
211
100
AcDbEntity
8
1
100
AcDbVertex
100
AcDb2dVertex
62
5
10
71.750000
20
323.375000
0
VERTEX
5
212
100
AcDbEntity
8
1
100
AcDbVertex
100
AcDb2dVertex
62
5
10
73.500000
20
322.750000
0
SEQEND
5
213
100
AcDbEntity
8
1
0
POLYLINE
5
214
100
AcDbEntity
8
1
6
CONTINUOUS
62
5
100
AcDb2dPolyline
66
1
10
0.0
20
0.0
30
0.0
70
1
0
VERTEX
5
215
100
AcDbEntity
8
1
100
AcDbVertex
100
AcDb2dVertex
62
5
10
70.250000
20
322.750000
0
VERTEX
5
216
100
AcDbEntity
8
1
100
AcDbVertex
100
AcDb2dVertex
62
5
10
70.250000
20
321.187500
0
VERTEX
5
217
100
AcDbEntity
8
1
100
AcDbVertex
100
AcDb2dVertex
62
5
10
72.750000
20
321.187500
0
VERTEX
5
218
100
AcDbEntity
8
1
100
AcDbVertex
100
AcDb2dVertex
62
5
10
72.750000
20
322.750000
0
VERTEX
5
219
100
AcDbEntity
8
1
100
AcDbVertex
100
AcDb2dVertex
62
5
10
70.250000
20
322.750000
0
SEQEND
5
21a
100
AcDbEntity
8
1
0
POLYLINE
5
21b
100
AcDbEntity
8
1
6
CONTINUOUS
62
5
100
AcDb2dPolyline
66
1
10
0.0
20
0.0
30
0.0
70
0
0
VERTEX
5
21c
100
AcDbEntity
8
1
100
AcDbVertex
100
AcDb2dVertex
62
5
10
67.750000
20
317.750000
0
VERTEX
5
21d
100
AcDbEntity
8
1
100
AcDbVertex
100
AcDb2dVertex
62
5
10
67.750000
20
312.437500
0
VERTEX
5
21e
100
AcDbEntity
8
1
100
AcDbVertex
100
AcDb2dVertex
62
5
10
68.250000
20
311.812500
0
VERTEX
5
21f
100
AcDbEntity
8
1
100
AcDbVertex
100
AcDb2dVertex
62
5
10
71.750000
20
311.812500
0
SEQEND
5
220
100
AcDbEntity
8
1
0
LINE
5
221
100
AcDbEntity
8
1
100
AcDbLine
6
CONTINUOUS
62
5
10
71.250000
20
315.875000
11
67.750000
21
314.937500
0
POLYLINE
5
222
100
AcDbEntity
8
1
6
CONTINUOUS
62
5
100
AcDb2dPolyline
66
1
10
0.0
20
0.0
30
0.0
70
1
0
VERTEX
5
223
100
AcDbEntity
8
1
100
AcDbVertex
100
AcDb2dVertex
62
5
10
71.250000
20
317.750000
0
VERTEX
5
224
100
AcDbEntity
8
1
100
AcDbVertex
100
AcDb2dVertex
62
5
10
71.750000
20
318.375000
0
VERTEX
5
225
100
AcDbEntity
8
1
100
AcDbVertex
100
AcDb2dVertex
62
5
10
72.000000
20
318.375000
0
VERTEX
5
226
100
AcDbEntity
8
1
100
AcDbVertex
100
AcDb2dVertex
62
5
10
72.500000
20
317.750000
0
VERTEX
5
227
100
AcDbEntity
8
1
100
AcDbVertex
100
AcDb2dVertex
62
5
10
72.500000
20
317.437500
0
VERTEX
5
228
100
AcDbEntity
8
1
100
AcDbVertex
100
AcDb2dVertex
62
5
10
72.000000
20
316.812500
0
VERTEX
5
229
100
AcDbEntity
8
1
100
AcDbVertex
100
AcDb2dVertex
62
5
10
71.750000
20
316.812500
0
VERTEX
5
22a
100
AcDbEntity
8
1
100
AcDbVertex
100
AcDb2dVertex
62
5
10
71.250000
20
317.437500
0
VERTEX
5
22b
100
AcDbEntity
8
1
100
AcDbVertex
100
AcDb2dVertex
62
5
10
71.250000
20
317.750000
0
SEQEND
5
22c
100
AcDbEntity
8
1
0
LINE
5
22d
100
AcDbEntity
8
1
100
AcDbLine
6
CONTINUOUS
62
5
10
67.500000
20
286.750000
11
70.625000
21
286.750000
0
POLYLINE
5
22e
100
AcDbEntity
8
1
6
DOT2
62
5
100
AcDb2dPolyline
66
1
10
0.0
20
0.0
30
0.0
70
0
0
VERTEX
5
22f
100
AcDbEntity
8
1
100
AcDbVertex
100
AcDb2dVertex
62
5
10
121.500000
20
242.062500
0
VERTEX
5
230
100
AcDbEntity
8
1
100
AcDbVertex
100
AcDb2dVertex
62
5
10
121.812500
20
243.625000
0
VERTEX
5
231
100
AcDbEntity
8
1
100
AcDbVertex
100
AcDb2dVertex
62
5
10
122.750000
20
244.250000
0
VERTEX
5
232
100
AcDbEntity
8
1
100
AcDbVertex
100
AcDb2dVertex
62
5
10
123.687500
20
244.250000
0
VERTEX
5
233
100
AcDbEntity
8
1
100
AcDbVertex
100
AcDb2dVertex
62
5
10
124.312500
20
243.937500
0
VERTEX
5
234
100
AcDbEntity
8
1
100
AcDbVertex
100
AcDb2dVertex
62
5
10
124.625000
20
243.000000
0
VERTEX
5
235
100
AcDbEntity
8
1
100
AcDbVertex
100
AcDb2dVertex
62
5
10
124.625000
20
242.062500
0
VERTEX
5
236
100
AcDbEntity
8
1
100
AcDbVertex
100
AcDb2dVertex
62
5
10
124.312500
20
241.125000
0
VERTEX
5
237
100
AcDbEntity
8
1
100
AcDbVertex
100
AcDb2dVertex
62
5
10
121.500000
20
236.750000
0
VERTEX
5
238
100
AcDbEntity
8
1
100
AcDbVertex
100
AcDb2dVertex
62
5
10
124.625000
20
236.750000
0
VERTEX
5
239
100
AcDbEntity
8
1
100
AcDbVertex
100
AcDb2dVertex
62
5
10
124.625000
20
237.687500
0
SEQEND
5
23a
100
AcDbEntity
8
1
0
POLYLINE
5
23b
100
AcDbEntity
8
1
6
DOT2
62
5
100
AcDb2dPolyline
66
1
10
0.0
20
0.0
30
0.0
70
0
0
VERTEX
5
23c
100
AcDbEntity
8
1
100
AcDbVertex
100
AcDb2dVertex
62
5
10
111.500000
20
243.312500
0
VERTEX
5
23d
100
AcDbEntity
8
1
100
AcDbVertex
100
AcDb2dVertex
62
5
10
111.500000
20
244.250000
0
VERTEX
5
23e
100
AcDbEntity
8
1
100
AcDbVertex
100
AcDb2dVertex
62
5
10
114.625000
20
244.250000
0
VERTEX
5
23f
100
AcDbEntity
8
1
100
AcDbVertex
100
AcDb2dVertex
62
5
10
114.625000
20
243.625000
0
VERTEX
5
240
100
AcDbEntity
8
1
100
AcDbVertex
100
AcDb2dVertex
62
5
10
114.000000
20
242.062500
0
VERTEX
5
241
100
AcDbEntity
8
1
100
AcDbVertex
100
AcDb2dVertex
62
5
10
113.375000
20
239.875000
0
VERTEX
5
242
100
AcDbEntity
8
1
100
AcDbVertex
100
AcDb2dVertex
62
5
10
112.750000
20
236.750000
0
SEQEND
5
243
100
AcDbEntity
8
1
0
LINE
5
244
100
AcDbEntity
8
1
100
AcDbLine
6
DOT2
62
5
10
117.125000
20
237.375000
11
116.500000
21
236.750000
0
POLYLINE
5
245
100
AcDbEntity
8
1
6
DOT2
62
5
100
AcDb2dPolyline
66
1
10
0.0
20
0.0
30
0.0
70
0
0
VERTEX
5
246
100
AcDbEntity
8
1
100
AcDbVertex
100
AcDb2dVertex
62
5
10
116.500000
20
237.375000
0
VERTEX
5
247
100
AcDbEntity
8
1
100
AcDbVertex
100
AcDb2dVertex
62
5
10
117.125000
20
236.750000
0
VERTEX
5
248
100
AcDbEntity
8
1
100
AcDbVertex
100
AcDb2dVertex
62
5
10
116.500000
20
236.750000
0
VERTEX
5
249
100
AcDbEntity
8
1
100
AcDbVertex
100
AcDb2dVertex
62
5
10
116.500000
20
237.375000
0
VERTEX
5
24a
100
AcDbEntity
8
1
100
AcDbVertex
100
AcDb2dVertex
62
5
10
117.125000
20
237.375000
0
VERTEX
5
24b
100
AcDbEntity
8
1
100
AcDbVertex
100
AcDb2dVertex
62
5
10
117.125000
20
236.750000
0
SEQEND
5
24c
100
AcDbEntity
8
1
0
ARC
5
24d
100
AcDbEntity
8
0
100
AcDbCircle
6
CONTINUOUS
62
5
10
145.750000
20
201.000000
40
2.250000
100
AcDbArc
50
50.637431
51
129.362568
0
CIRCLE
5
24e
100
AcDbEntity
8
0
100
AcDbCircle
6
CONTINUOUS
62
5
10
135.750000
20
205.000000
40
1.000000
0
POLYLINE
5
24f
100
AcDbEntity
8
1
6
DOT2
62
5
100
AcDb2dPolyline
66
1
10
0.0
20
0.0
30
0.0
70
0
0
VERTEX
5
250
100
AcDbEntity
8
1
100
AcDbVertex
100
AcDb2dVertex
62
5
10
102.125000
20
243.625000
0
VERTEX
5
251
100
AcDbEntity
8
1
100
AcDbVertex
100
AcDb2dVertex
62
5
10
103.062500
20
244.250000
0
VERTEX
5
252
100
AcDbEntity
8
1
100
AcDbVertex
100
AcDb2dVertex
62
5
10
103.062500
20
236.750000
0
SEQEND
5
253
100
AcDbEntity
8
1
0
LINE
5
254
100
AcDbEntity
8
1
100
AcDbLine
6
DOT2
62
5
10
102.437500
20
236.750000
11
103.687500
21
236.750000
0
POLYLINE
5
255
100
AcDbEntity
8
1
6
DOT2
62
5
100
AcDb2dPolyline
66
1
10
0.0
20
0.0
30
0.0
70
0
0
VERTEX
5
256
100
AcDbEntity
8
1
100
AcDbVertex
100
AcDb2dVertex
62
5
10
107.125000
20
243.625000
0
VERTEX
5
257
100
AcDbEntity
8
1
100
AcDbVertex
100
AcDb2dVertex
62
5
10
108.062500
20
244.250000
0
VERTEX
5
258
100
AcDbEntity
8
1
100
AcDbVertex
100
AcDb2dVertex
62
5
10
108.062500
20
236.750000
0
SEQEND
5
259
100
AcDbEntity
8
1
0
LINE
5
25a
100
AcDbEntity
8
1
100
AcDbLine
6
DOT2
62
5
10
107.437500
20
236.750000
11
108.687500
21
236.750000
0
ARC
5
25b
100
AcDbEntity
8
0
100
AcDbCircle
6
CONTINUOUS
62
5
10
99.750000
20
201.000000
40
2.250000
100
AcDbArc
50
50.637431
51
129.362568
0
CIRCLE
5
25c
100
AcDbEntity
8
0
100
AcDbCircle
6
CONTINUOUS
62
5
10
89.750000
20
205.000000
40
1.000000
0
ARC
5
25d
100
AcDbEntity
8
0
100
AcDbCircle
6
CONTINUOUS
62
5
10
145.750000
20
201.000001
40
2.215715
100
AcDbArc
50
-111.165148
51
-68.834861
0
LINE
5
25e
100
AcDbEntity
8
0
100
AcDbLine
6
CONTINUOUS
62
5
10
146.550000
20
198.933750
11
146.350000
21
197.805865
0
LINE
5
25f
100
AcDbEntity
8
0
100
AcDbLine
6
CONTINUOUS
62
5
10
145.150000
20
197.805865
11
144.950000
21
198.933750
0
ARC
5
260
100
AcDbEntity
8
0
100
AcDbCircle
6
CONTINUOUS
62
5
10
145.750000
20
201.000000
40
2.250000
100
AcDbArc
50
170.637429
51
-110.637430
0
ARC
5
261
100
AcDbEntity
8
0
100
AcDbCircle
6
CONTINUOUS
62
5
10
145.750000
20
201.000000
40
2.250000
100
AcDbArc
50
-69.362568
51
9.362569
0
CIRCLE
5
262
100
AcDbEntity
8
0
100
AcDbCircle
6
CONTINUOUS
62
5
10
135.750000
20
191.750000
40
1.650000
0
CIRCLE
5
263
100
AcDbEntity
8
0
100
AcDbCircle
6
CONTINUOUS
62
5
10
135.750000
20
191.750000
40
2.500000
0
CIRCLE
5
264
100
AcDbEntity
8
0
100
AcDbCircle
6
CONTINUOUS
62
5
10
135.750000
20
191.750000
40
4.000000
0
CIRCLE
5
265
100
AcDbEntity
8
0
100
AcDbCircle
6
CONTINUOUS
62
5
10
145.750000
20
191.750000
40
2.250000
0
ARC
5
266
100
AcDbEntity
8
0
100
AcDbCircle
6
CONTINUOUS
62
5
10
120.750000
20
191.750000
40
2.250000
100
AcDbArc
50
89.999999
51
-89.999999
0
LINE
5
267
100
AcDbEntity
8
0
100
AcDbLine
6
CONTINUOUS
62
5
10
120.750000
20
189.500000
11
125.750000
21
189.500000
0
ARC
5
268
100
AcDbEntity
8
0
100
AcDbCircle
6
CONTINUOUS
62
5
10
125.750000
20
191.750000
40
2.250000
100
AcDbArc
50
-89.999999
51
89.999999
0
LINE
5
269
100
AcDbEntity
8
0
100
AcDbLine
6
CONTINUOUS
62
5
10
125.750000
20
194.000000
11
120.750000
21
194.000000
0
ARC
5
26a
100
AcDbEntity
8
0
100
AcDbCircle
6
CONTINUOUS
62
5
10
135.750000
20
191.750000
40
6.000000
100
AcDbArc
50
-50.805030
51
-0.000001
0
ARC
5
26b
100
AcDbEntity
8
0
100
AcDbCircle
6
CONTINUOUS
62
5
10
138.277845
20
188.650000
40
2.000000
100
AcDbArc
50
-89.999999
51
-50.805033
0
LINE
5
26c
100
AcDbEntity
8
0
100
AcDbLine
6
CONTINUOUS
62
5
10
138.277845
20
186.650000
11
133.222155
21
186.650000
0
ARC
5
26d
100
AcDbEntity
8
0
100
AcDbCircle
6
CONTINUOUS
62
5
10
133.222155
20
188.650000
40
2.000000
100
AcDbArc
50
-129.194966
51
-89.999999
0
ARC
5
26e
100
AcDbEntity
8
0
100
AcDbCircle
6
CONTINUOUS
62
5
10
135.750000
20
191.750000
40
6.000000
100
AcDbArc
50
-179.999998
51
-129.194968
0
LINE
5
26f
100
AcDbEntity
8
0
100
AcDbLine
6
CONTINUOUS
62
5
10
129.750000
20
191.750000
11
129.750000
21
196.500000
0
LINE
5
270
100
AcDbEntity
8
0
100
AcDbLine
6
CONTINUOUS
62
5
10
141.750000
20
196.500000
11
141.750000
21
191.750000
0
ARC
5
271
100
AcDbEntity
8
0
100
AcDbCircle
6
CONTINUOUS
62
5
10
132.250000
20
166.400000
40
0.500000
100
AcDbArc
50
179.999998
51
-89.999999
0
LINE
5
272
100
AcDbEntity
8
0
100
AcDbLine
6
CONTINUOUS
62
5
10
132.250000
20
165.900000
11
139.250000
21
165.900000
0
ARC
5
273
100
AcDbEntity
8
0
100
AcDbCircle
6
CONTINUOUS
62
5
10
139.250000
20
166.400000
40
0.500000
100
AcDbArc
50
-89.999999
51
0.000000
0
LINE
5
274
100
AcDbEntity
8
0
100
AcDbLine
6
CONTINUOUS
62
5
10
139.750000
20
166.400000
11
139.750000
21
167.600000
0
ARC
5
275
100
AcDbEntity
8
0
100
AcDbCircle
6
CONTINUOUS
62
5
10
139.250000
20
167.600000
40
0.500000
100
AcDbArc
50
0.000000
51
89.999999
0
LINE
5
276
100
AcDbEntity
8
0
100
AcDbLine
6
CONTINUOUS
62
5
10
139.250000
20
168.100000
11
132.250000
21
168.100000
0
ARC
5
277
100
AcDbEntity
8
0
100
AcDbCircle
6
CONTINUOUS
62
5
10
132.250000
20
167.600000
40
0.500000
100
AcDbArc
50
89.999999
51
179.999998
0
LINE
5
278
100
AcDbEntity
8
0
100
AcDbLine
6
CONTINUOUS
62
5
10
131.750000
20
167.600000
11
131.750000
21
166.400000
0
ARC
5
279
100
AcDbEntity
8
0
100
AcDbCircle
6
CONTINUOUS
62
5
10
135.750000
20
167.000000
40
8.500000
100
AcDbArc
50
7.604250
51
172.395748
0
LINE
5
27a
100
AcDbEntity
8
0
100
AcDbLine
6
CONTINUOUS
62
5
10
127.324751
20
168.124804
11
126.308205
21
168.050000
0
ARC
5
27b
100
AcDbEntity
8
0
100
AcDbCircle
6
CONTINUOUS
62
5
10
135.750000
20
167.000000
40
9.500000
100
AcDbArc
50
6.345655
51
173.654343
0
LINE
5
27c
100
AcDbEntity
8
0
100
AcDbLine
6
CONTINUOUS
62
5
10
145.191795
20
168.050000
11
144.175249
21
168.124804
0
ARC
5
27d
100
AcDbEntity
8
0
100
AcDbCircle
6
CONTINUOUS
62
5
10
99.750000
20
201.000000
40
2.250000
100
AcDbArc
50
-69.362568
51
9.362569
0
ARC
5
27e
100
AcDbEntity
8
0
100
AcDbCircle
6
CONTINUOUS
62
5
10
99.750000
20
201.000000
40
2.250000
100
AcDbArc
50
170.637429
51
-110.637430
0
ARC
5
27f
100
AcDbEntity
8
0
100
AcDbCircle
6
CONTINUOUS
62
5
10
99.750000
20
201.000001
40
2.215715
100
AcDbArc
50
-111.165148
51
-68.834861
0
LINE
5
280
100
AcDbEntity
8
0
100
AcDbLine
6
CONTINUOUS
62
5
10
100.550000
20
198.933750
11
100.350000
21
197.805865
0
LINE
5
281
100
AcDbEntity
8
0
100
AcDbLine
6
CONTINUOUS
62
5
10
99.150000
20
197.805865
11
98.950000
21
198.933750
0
ARC
5
282
100
AcDbEntity
8
0
100
AcDbCircle
6
CONTINUOUS
62
5
10
99.750000
20
191.750000
40
2.250000
100
AcDbArc
50
89.999999
51
-89.999999
0
LINE
5
283
100
AcDbEntity
8
0
100
AcDbLine
6
CONTINUOUS
62
5
10
99.750000
20
189.500000
11
104.750000
21
189.500000
0
ARC
5
284
100
AcDbEntity
8
0
100
AcDbCircle
6
CONTINUOUS
62
5
10
104.750000
20
191.750000
40
2.250000
100
AcDbArc
50
-89.999999
51
89.999999
0
LINE
5
285
100
AcDbEntity
8
0
100
AcDbLine
6
CONTINUOUS
62
5
10
104.750000
20
194.000000
11
99.750000
21
194.000000
0
CIRCLE
5
286
100
AcDbEntity
8
0
100
AcDbCircle
6
CONTINUOUS
62
5
10
79.750000
20
191.750000
40
2.250000
0
CIRCLE
5
287
100
AcDbEntity
8
0
100
AcDbCircle
6
CONTINUOUS
62
5
10
89.750000
20
191.750000
40
1.650000
0
CIRCLE
5
288
100
AcDbEntity
8
0
100
AcDbCircle
6
CONTINUOUS
62
5
10
89.750000
20
191.750000
40
2.500000
0
CIRCLE
5
289
100
AcDbEntity
8
0
100
AcDbCircle
6
CONTINUOUS
62
5
10
89.750000
20
191.750000
40
4.000000
0
ARC
5
28a
100
AcDbEntity
8
0
100
AcDbCircle
6
CONTINUOUS
62
5
10
89.750000
20
191.750000
40
6.000000
100
AcDbArc
50
-50.805030
51
-0.000001
0
ARC
5
28b
100
AcDbEntity
8
0
100
AcDbCircle
6
CONTINUOUS
62
5
10
92.277845
20
188.650000
40
2.000000
100
AcDbArc
50
-89.999999
51
-50.805033
0
LINE
5
28c
100
AcDbEntity
8
0
100
AcDbLine
6
CONTINUOUS
62
5
10
92.277845
20
186.650000
11
87.222155
21
186.650000
0
ARC
5
28d
100
AcDbEntity
8
0
100
AcDbCircle
6
CONTINUOUS
62
5
10
87.222155
20
188.650000
40
2.000000
100
AcDbArc
50
-129.194966
51
-89.999999
0
ARC
5
28e
100
AcDbEntity
8
0
100
AcDbCircle
6
CONTINUOUS
62
5
10
89.750000
20
191.750000
40
6.000000
100
AcDbArc
50
-179.999998
51
-129.194968
0
LINE
5
28f
100
AcDbEntity
8
0
100
AcDbLine
6
CONTINUOUS
62
5
10
83.750000
20
191.750000
11
83.750000
21
196.500000
0
LINE
5
290
100
AcDbEntity
8
0
100
AcDbLine
6
CONTINUOUS
62
5
10
95.750000
20
196.500000
11
95.750000
21
191.750000
0
POLYLINE
5
291
100
AcDbEntity
8
0
6
CONTINUOUS
62
5
100
AcDb2dPolyline
66
1
10
0.0
20
0.0
30
0.0
70
1
0
VERTEX
5
292
100
AcDbEntity
8
0
100
AcDbVertex
100
AcDb2dVertex
62
5
10
103.550000
20
183.000000
0
VERTEX
5
293
100
AcDbEntity
8
0
100
AcDbVertex
100
AcDb2dVertex
62
5
10
75.950000
20
183.000000
0
VERTEX
5
294
100
AcDbEntity
8
0
100
AcDbVertex
100
AcDb2dVertex
62
5
10
76.130000
20
182.000000
0
VERTEX
5
295
100
AcDbEntity
8
0
100
AcDbVertex
100
AcDb2dVertex
62
5
10
103.370000
20
182.000000
0
SEQEND
5
296
100
AcDbEntity
8
0
0
ARC
5
297
100
AcDbEntity
8
0
100
AcDbCircle
6
CONTINUOUS
62
5
10
86.250000
20
166.400000
40
0.500000
100
AcDbArc
50
179.999998
51
-89.999999
0
LINE
5
298
100
AcDbEntity
8
0
100
AcDbLine
6
CONTINUOUS
62
5
10
86.250000
20
165.900000
11
93.250000
21
165.900000
0
ARC
5
299
100
AcDbEntity
8
0
100
AcDbCircle
6
CONTINUOUS
62
5
10
93.250000
20
166.400000
40
0.500000
100
AcDbArc
50
-89.999999
51
0.000000
0
LINE
5
29a
100
AcDbEntity
8
0
100
AcDbLine
6
CONTINUOUS
62
5
10
93.750000
20
166.400000
11
93.750000
21
167.600000
0
ARC
5
29b
100
AcDbEntity
8
0
100
AcDbCircle
6
CONTINUOUS
62
5
10
93.250000
20
167.600000
40
0.500000
100
AcDbArc
50
0.000000
51
89.999999
0
LINE
5
29c
100
AcDbEntity
8
0
100
AcDbLine
6
CONTINUOUS
62
5
10
93.250000
20
168.100000
11
86.250000
21
168.100000
0
ARC
5
29d
100
AcDbEntity
8
0
100
AcDbCircle
6
CONTINUOUS
62
5
10
86.250000
20
167.600000
40
0.500000
100
AcDbArc
50
89.999999
51
179.999998
0
LINE
5
29e
100
AcDbEntity
8
0
100
AcDbLine
6
CONTINUOUS
62
5
10
85.750000
20
167.600000
11
85.750000
21
166.400000
0
ARC
5
29f
100
AcDbEntity
8
0
100
AcDbCircle
6
CONTINUOUS
62
5
10
89.750000
20
167.000000
40
8.500000
100
AcDbArc
50
7.604250
51
172.395748
0
LINE
5
2a0
100
AcDbEntity
8
0
100
AcDbLine
6
CONTINUOUS
62
5
10
81.324751
20
168.124804
11
80.308205
21
168.050000
0
ARC
5
2a1
100
AcDbEntity
8
0
100
AcDbCircle
6
CONTINUOUS
62
5
10
89.750000
20
167.000000
40
9.500000
100
AcDbArc
50
6.345655
51
173.654343
0
LINE
5
2a2
100
AcDbEntity
8
0
100
AcDbLine
6
CONTINUOUS
62
5
10
99.191795
20
168.050000
11
98.175249
21
168.124804
0
ARC
5
2a3
100
AcDbEntity
8
0
100
AcDbCircle
6
CONTINUOUS
62
5
10
113.750000
20
187.000000
40
2.250000
100
AcDbArc
50
-89.999999
51
89.999999
0
LINE
5
2a4
100
AcDbEntity
8
0
100
AcDbLine
6
CONTINUOUS
62
5
10
113.750000
20
189.250000
11
111.750000
21
189.250000
0
ARC
5
2a5
100
AcDbEntity
8
0
100
AcDbCircle
6
CONTINUOUS
62
5
10
111.750000
20
187.000000
40
2.250000
100
AcDbArc
50
89.999999
51
-89.999999
0
LINE
5
2a6
100
AcDbEntity
8
0
100
AcDbLine
6
CONTINUOUS
62
5
10
111.750000
20
184.750000
11
113.750000
21
184.750000
0
ARC
5
2a7
100
AcDbEntity
8
0
100
AcDbCircle
6
CONTINUOUS
62
5
10
113.750000
20
187.000000
40
4.000000
100
AcDbArc
50
-89.999999
51
89.999999
0
LINE
5
2a8
100
AcDbEntity
8
0
100
AcDbLine
6
CONTINUOUS
62
5
10
113.750000
20
183.000000
11
111.750000
21
183.000000
0
ARC
5
2a9
100
AcDbEntity
8
0
100
AcDbCircle
6
CONTINUOUS
62
5
10
111.750000
20
187.000000
40
4.000000
100
AcDbArc
50
89.999999
51
-89.999999
0
LINE
5
2aa
100
AcDbEntity
8
0
100
AcDbLine
6
CONTINUOUS
62
5
10
111.750000
20
191.000000
11
113.750000
21
191.000000
0
ARC
5
2ab
100
AcDbEntity
8
0
100
AcDbCircle
6
CONTINUOUS
62
5
10
145.749999
20
201.000000
40
2.215713
100
AcDbArc
50
128.834841
51
171.165152
0
LINE
5
2ac
100
AcDbEntity
8
0
100
AcDbLine
6
CONTINUOUS
62
5
10
144.360575
20
202.725945
11
143.283798
21
203.116683
0
LINE
5
2ad
100
AcDbEntity
8
0
100
AcDbLine
6
CONTINUOUS
62
5
10
142.683798
20
202.077452
11
143.560575
21
201.340305
0
ARC
5
2ae
100
AcDbEntity
8
0
100
AcDbCircle
6
CONTINUOUS
62
5
10
145.750000
20
201.000000
40
2.215714
100
AcDbArc
50
8.834852
51
51.165148
0
LINE
5
2af
100
AcDbEntity
8
0
100
AcDbLine
6
CONTINUOUS
62
5
10
147.939425
20
201.340305
11
148.816202
21
202.077452
0
LINE
5
2b0
100
AcDbEntity
8
0
100
AcDbLine
6
CONTINUOUS
62
5
10
148.216202
20
203.116683
11
147.139425
21
202.725945
0
ARC
5
2b1
100
AcDbEntity
8
0
100
AcDbCircle
6
CONTINUOUS
62
5
10
145.750000
20
200.500000
40
2.150000
100
AcDbArc
50
-5.069962
51
-174.930037
0
CIRCLE
5
2b2
100
AcDbEntity
8
0
100
AcDbCircle
6
CONTINUOUS
62
5
10
145.750000
20
201.000000
40
3.250000
0
POLYLINE
5
2b3
100
AcDbEntity
8
0
6
CONTINUOUS
62
5
100
AcDb2dPolyline
66
1
10
0.0
20
0.0
30
0.0
70
1
0
VERTEX
5
2b4
100
AcDbEntity
8
0
100
AcDbVertex
100
AcDb2dVertex
62
5
10
133.846003
20
204.248368
0
VERTEX
5
2b5
100
AcDbEntity
8
0
100
AcDbVertex
100
AcDb2dVertex
62
5
10
131.601632
20
204.248368
0
VERTEX
5
2b6
100
AcDbEntity
8
0
100
AcDbVertex
100
AcDb2dVertex
62
5
10
131.601632
20
198.451632
0
VERTEX
5
2b7
100
AcDbEntity
8
0
100
AcDbVertex
100
AcDb2dVertex
62
5
10
133.846003
20
198.451632
0
SEQEND
5
2b8
100
AcDbEntity
8
0
0
POLYLINE
5
2b9
100
AcDbEntity
8
0
6
CONTINUOUS
62
5
100
AcDb2dPolyline
66
1
10
0.0
20
0.0
30
0.0
70
1
0
VERTEX
5
2ba
100
AcDbEntity
8
0
100
AcDbVertex
100
AcDb2dVertex
62
5
10
137.653997
20
198.451632
0
VERTEX
5
2bb
100
AcDbEntity
8
0
100
AcDbVertex
100
AcDb2dVertex
62
5
10
139.898368
20
198.451632
0
VERTEX
5
2bc
100
AcDbEntity
8
0
100
AcDbVertex
100
AcDb2dVertex
62
5
10
139.898368
20
204.248368
0
VERTEX
5
2bd
100
AcDbEntity
8
0
100
AcDbVertex
100
AcDb2dVertex
62
5
10
137.653997
20
204.248368
0
SEQEND
5
2be
100
AcDbEntity
8
0
0
ARC
5
2bf
100
AcDbEntity
8
0
100
AcDbCircle
6
CONTINUOUS
62
5
10
99.750000
20
201.000000
40
2.215714
100
AcDbArc
50
8.834852
51
51.165148
0
LINE
5
2c0
100
AcDbEntity
8
0
100
AcDbLine
6
CONTINUOUS
62
5
10
101.939425
20
201.340305
11
102.816202
21
202.077452
0
LINE
5
2c1
100
AcDbEntity
8
0
100
AcDbLine
6
CONTINUOUS
62
5
10
102.216202
20
203.116683
11
101.139425
21
202.725945
0
ARC
5
2c2
100
AcDbEntity
8
0
100
AcDbCircle
6
CONTINUOUS
62
5
10
99.749999
20
201.000000
40
2.215713
100
AcDbArc
50
128.834841
51
171.165152
0
LINE
5
2c3
100
AcDbEntity
8
0
100
AcDbLine
6
CONTINUOUS
62
5
10
98.360575
20
202.725945
11
97.283798
21
203.116683
0
LINE
5
2c4
100
AcDbEntity
8
0
100
AcDbLine
6
CONTINUOUS
62
5
10
96.683798
20
202.077452
11
97.560575
21
201.340305
0
POLYLINE
5
2c5
100
AcDbEntity
8
0
6
CONTINUOUS
62
5
100
AcDb2dPolyline
66
1
10
0.0
20
0.0
30
0.0
70
1
0
VERTEX
5
2c6
100
AcDbEntity
8
0
100
AcDbVertex
100
AcDb2dVertex
62
5
10
87.846003
20
204.248368
0
VERTEX
5
2c7
100
AcDbEntity
8
0
100
AcDbVertex
100
AcDb2dVertex
62
5
10
85.601632
20
204.248368
0
VERTEX
5
2c8
100
AcDbEntity
8
0
100
AcDbVertex
100
AcDb2dVertex
62
5
10
85.601632
20
198.451632
0
VERTEX
5
2c9
100
AcDbEntity
8
0
100
AcDbVertex
100
AcDb2dVertex
62
5
10
87.846003
20
198.451632
0
SEQEND
5
2ca
100
AcDbEntity
8
0
0
POLYLINE
5
2cb
100
AcDbEntity
8
0
6
CONTINUOUS
62
5
100
AcDb2dPolyline
66
1
10
0.0
20
0.0
30
0.0
70
1
0
VERTEX
5
2cc
100
AcDbEntity
8
0
100
AcDbVertex
100
AcDb2dVertex
62
5
10
91.653997
20
198.451632
0
VERTEX
5
2cd
100
AcDbEntity
8
0
100
AcDbVertex
100
AcDb2dVertex
62
5
10
93.898368
20
198.451632
0
VERTEX
5
2ce
100
AcDbEntity
8
0
100
AcDbVertex
100
AcDb2dVertex
62
5
10
93.898368
20
204.248368
0
VERTEX
5
2cf
100
AcDbEntity
8
0
100
AcDbVertex
100
AcDb2dVertex
62
5
10
91.653997
20
204.248368
0
SEQEND
5
2d0
100
AcDbEntity
8
0
0
ARC
5
2d1
100
AcDbEntity
8
0
100
AcDbCircle
6
CONTINUOUS
62
5
10
99.750000
20
200.500000
40
2.150000
100
AcDbArc
50
-5.069962
51
-174.930037
0
CIRCLE
5
2d2
100
AcDbEntity
8
0
100
AcDbCircle
6
CONTINUOUS
62
5
10
99.750000
20
201.000000
40
3.250000
0
POLYLINE
5
2d3
100
AcDbEntity
8
0
6
CONTINUOUS
62
5
100
AcDb2dPolyline
66
1
10
0.0
20
0.0
30
0.0
70
1
0
VERTEX
5
2d4
100
AcDbEntity
8
0
100
AcDbVertex
100
AcDb2dVertex
62
5
10
102.750000
20
206.000000
0
VERTEX
5
2d5
100
AcDbEntity
8
0
100
AcDbVertex
100
AcDb2dVertex
62
5
10
122.750000
20
206.000000
0
VERTEX
5
2d6
100
AcDbEntity
8
0
100
AcDbVertex
100
AcDb2dVertex
62
5
10
122.750000
20
204.000000
0
VERTEX
5
2d7
100
AcDbEntity
8
0
100
AcDbVertex
100
AcDb2dVertex
62
5
10
114.750000
20
204.000000
0
VERTEX
5
2d8
100
AcDbEntity
8
0
100
AcDbVertex
100
AcDb2dVertex
62
5
10
114.750000
20
199.000000
0
VERTEX
5
2d9
100
AcDbEntity
8
0
100
AcDbVertex
100
AcDb2dVertex
62
5
10
110.750000
20
199.000000
0
VERTEX
5
2da
100
AcDbEntity
8
0
100
AcDbVertex
100
AcDb2dVertex
62
5
10
110.750000
20
204.000000
0
VERTEX
5
2db
100
AcDbEntity
8
0
100
AcDbVertex
100
AcDb2dVertex
62
5
10
102.750000
20
204.000000
0
SEQEND
5
2dc
100
AcDbEntity
8
0
0
LINE
5
2dd
100
AcDbEntity
8
0
100
AcDbLine
6
CONTINUOUS
62
5
10
58.250000
20
162.000000
11
61.469375
21
162.000000
0
ARC
5
2de
100
AcDbEntity
8
0
100
AcDbCircle
6
CONTINUOUS
62
5
10
63.673983
20
163.000000
40
1.000000
100
AcDbArc
50
-75.432842
51
-0.000000
0
LINE
5
2df
100
AcDbEntity
8
0
100
AcDbLine
6
CONTINUOUS
62
5
10
64.673983
20
163.000000
11
64.673983
21
181.000000
0
ARC
5
2e0
100
AcDbEntity
8
0
100
AcDbCircle
6
CONTINUOUS
62
5
10
63.673983
20
181.000000
40
1.000000
100
AcDbArc
50
0.000000
51
89.999999
0
LINE
5
2e1
100
AcDbEntity
8
0
100
AcDbLine
6
CONTINUOUS
62
5
10
63.673983
20
182.000000
11
58.250000
21
182.000000
0
ARC
5
2e2
100
AcDbEntity
8
0
100
AcDbCircle
6
CONTINUOUS
62
5
10
68.250000
20
187.000000
40
2.250000
100
AcDbArc
50
-89.999999
51
89.999999
0
LINE
5
2e3
100
AcDbEntity
8
0
100
AcDbLine
6
CONTINUOUS
62
5
10
68.250000
20
189.250000
11
66.250000
21
189.250000
0
ARC
5
2e4
100
AcDbEntity
8
0
100
AcDbCircle
6
CONTINUOUS
62
5
10
66.250000
20
187.000000
40
2.250000
100
AcDbArc
50
89.999999
51
-89.999999
0
LINE
5
2e5
100
AcDbEntity
8
0
100
AcDbLine
6
CONTINUOUS
62
5
10
66.250000
20
184.750000
11
68.250000
21
184.750000
0
ARC
5
2e6
100
AcDbEntity
8
0
100
AcDbCircle
6
CONTINUOUS
62
5
10
68.250000
20
187.000000
40
4.000000
100
AcDbArc
50
-89.999999
51
89.999999
0
LINE
5
2e7
100
AcDbEntity
8
0
100
AcDbLine
6
CONTINUOUS
62
5
10
68.250000
20
183.000000
11
66.250000
21
183.000000
0
ARC
5
2e8
100
AcDbEntity
8
0
100
AcDbCircle
6
CONTINUOUS
62
5
10
66.250000
20
187.000000
40
4.000000
100
AcDbArc
50
89.999999
51
-89.999999
0
LINE
5
2e9
100
AcDbEntity
8
0
100
AcDbLine
6
CONTINUOUS
62
5
10
66.250000
20
191.000000
11
68.250000
21
191.000000
0
POLYLINE
5
2ea
100
AcDbEntity
8
0
6
CONTINUOUS
62
5
100
AcDb2dPolyline
66
1
10
0.0
20
0.0
30
0.0
70
1
0
VERTEX
5
2eb
100
AcDbEntity
8
0
100
AcDbVertex
100
AcDb2dVertex
62
5
10
149.550000
20
183.000000
0
VERTEX
5
2ec
100
AcDbEntity
8
0
100
AcDbVertex
100
AcDb2dVertex
62
5
10
121.950000
20
183.000000
0
VERTEX
5
2ed
100
AcDbEntity
8
0
100
AcDbVertex
100
AcDb2dVertex
62
5
10
122.130000
20
182.000000
0
VERTEX
5
2ee
100
AcDbEntity
8
0
100
AcDbVertex
100
AcDb2dVertex
62
5
10
149.370000
20
182.000000
0
SEQEND
5
2ef
100
AcDbEntity
8
0
0
LINE
5
2f0
100
AcDbEntity
8
1
100
AcDbLine
6
CONTINUOUS
62
5
10
171.326017
20
204.400000
11
171.326017
21
237.500000
0
LINE
5
2f1
100
AcDbEntity
8
1
100
AcDbLine
6
CONTINUOUS
62
5
10
54.173983
20
204.400000
11
54.173983
21
237.500000
0
POLYLINE
5
2f2
100
AcDbEntity
8
1
6
CONTINUOUS
62
5
100
AcDb2dPolyline
66
1
10
0.0
20
0.0
30
0.0
70
0
0
VERTEX
5
2f3
100
AcDbEntity
8
1
100
AcDbVertex
100
AcDb2dVertex
62
5
10
112.750000
20
235.500000
0
VERTEX
5
2f4
100
AcDbEntity
8
1
100
AcDbVertex
100
AcDb2dVertex
62
5
10
54.173983
20
235.500000
0
VERTEX
5
2f5
100
AcDbEntity
8
1
100
AcDbVertex
100
AcDb2dVertex
62
5
10
60.173983
20
236.500000
0
VERTEX
5
2f6
100
AcDbEntity
8
1
100
AcDbVertex
100
AcDb2dVertex
62
5
10
60.173983
20
234.500000
0
VERTEX
5
2f7
100
AcDbEntity
8
1
100
AcDbVertex
100
AcDb2dVertex
62
5
10
54.173983
20
235.500000
0
VERTEX
5
2f8
100
AcDbEntity
8
1
100
AcDbVertex
100
AcDb2dVertex
62
5
10
60.173983
20
236.000000
0
VERTEX
5
2f9
100
AcDbEntity
8
1
100
AcDbVertex
100
AcDb2dVertex
62
5
10
60.173983
20
235.000000
0
VERTEX
5
2fa
100
AcDbEntity
8
1
100
AcDbVertex
100
AcDb2dVertex
62
5
10
54.173983
20
235.500000
0
SEQEND
5
2fb
100
AcDbEntity
8
1
0
POLYLINE
5
2fc
100
AcDbEntity
8
1
6
CONTINUOUS
62
5
100
AcDb2dPolyline
66
1
10
0.0
20
0.0
30
0.0
70
0
0
VERTEX
5
2fd
100
AcDbEntity
8
1
100
AcDbVertex
100
AcDb2dVertex
62
5
10
112.750000
20
235.500000
0
VERTEX
5
2fe
100
AcDbEntity
8
1
100
AcDbVertex
100
AcDb2dVertex
62
5
10
171.326017
20
235.500000
0
VERTEX
5
2ff
100
AcDbEntity
8
1
100
AcDbVertex
100
AcDb2dVertex
62
5
10
165.326017
20
234.500000
0
VERTEX
5
300
100
AcDbEntity
8
1
100
AcDbVertex
100
AcDb2dVertex
62
5
10
165.326017
20
236.500000
0
VERTEX
5
301
100
AcDbEntity
8
1
100
AcDbVertex
100
AcDb2dVertex
62
5
10
171.326017
20
235.500000
0
VERTEX
5
302
100
AcDbEntity
8
1
100
AcDbVertex
100
AcDb2dVertex
62
5
10
165.326017
20
235.000000
0
VERTEX
5
303
100
AcDbEntity
8
1
100
AcDbVertex
100
AcDb2dVertex
62
5
10
165.326017
20
236.000000
0
VERTEX
5
304
100
AcDbEntity
8
1
100
AcDbVertex
100
AcDb2dVertex
62
5
10
171.326017
20
235.500000
0
SEQEND
5
305
100
AcDbEntity
8
1
0
POLYLINE
5
306
100
AcDbEntity
8
0
6
CONTINUOUS
62
5
100
AcDb2dPolyline
66
1
10
0.0
20
0.0
30
0.0
70
1
0
VERTEX
5
307
100
AcDbEntity
8
0
100
AcDbVertex
100
AcDb2dVertex
62
5
10
160.750000
20
206.000000
0
VERTEX
5
308
100
AcDbEntity
8
0
100
AcDbVertex
100
AcDb2dVertex
62
5
10
160.750000
20
199.000000
0
VERTEX
5
309
100
AcDbEntity
8
0
100
AcDbVertex
100
AcDb2dVertex
62
5
10
158.750000
20
199.000000
0
VERTEX
5
30a
100
AcDbEntity
8
0
100
AcDbVertex
100
AcDb2dVertex
62
5
10
158.750000
20
204.000000
0
VERTEX
5
30b
100
AcDbEntity
8
0
100
AcDbVertex
100
AcDb2dVertex
62
5
10
148.750000
20
204.000000
0
VERTEX
5
30c
100
AcDbEntity
8
0
100
AcDbVertex
100
AcDb2dVertex
62
5
10
148.750000
20
206.000000
0
SEQEND
5
30d
100
AcDbEntity
8
0
0
ARC
5
30e
100
AcDbEntity
8
0
100
AcDbCircle
6
CONTINUOUS
62
5
10
75.861135
20
195.388865
40
0.500000
100
AcDbArc
50
89.999999
51
179.999998
0
LINE
5
30f
100
AcDbEntity
8
0
100
AcDbLine
6
CONTINUOUS
62
5
10
75.361135
20
195.388865
11
75.361135
21
192.888865
0
ARC
5
310
100
AcDbEntity
8
0
100
AcDbCircle
6
CONTINUOUS
62
5
10
74.861135
20
192.888865
40
0.500000
100
AcDbArc
50
-89.999999
51
0.000000
0
LINE
5
311
100
AcDbEntity
8
0
100
AcDbLine
6
CONTINUOUS
62
5
10
74.861135
20
192.388865
11
58.250000
21
192.388865
0
LINE
5
312
100
AcDbEntity
8
0
100
AcDbLine
6
CONTINUOUS
62
5
10
167.250000
20
192.388865
11
150.638865
21
192.388865
0
ARC
5
313
100
AcDbEntity
8
0
100
AcDbCircle
6
CONTINUOUS
62
5
10
150.638865
20
192.888865
40
0.500000
100
AcDbArc
50
179.999998
51
-89.999999
0
LINE
5
314
100
AcDbEntity
8
0
100
AcDbLine
6
CONTINUOUS
62
5
10
150.138865
20
192.888865
11
150.138865
21
195.388865
0
ARC
5
315
100
AcDbEntity
8
0
100
AcDbCircle
6
CONTINUOUS
62
5
10
149.638865
20
195.388865
40
0.500000
100
AcDbArc
50
0.000000
51
89.999999
0
LINE
5
316
100
AcDbEntity
8
0
100
AcDbLine
6
CONTINUOUS
62
5
10
149.638865
20
195.888865
11
141.750000
21
195.888865
0
LINE
5
317
100
AcDbEntity
8
0
100
AcDbLine
6
CONTINUOUS
62
5
10
129.750000
20
195.888865
11
95.750000
21
195.888865
0
LINE
5
318
100
AcDbEntity
8
0
100
AcDbLine
6
CONTINUOUS
62
5
10
83.750000
20
195.888865
11
75.861135
21
195.888865
0
POLYLINE
5
319
100
AcDbEntity
8
1
6
DOT2
62
5
100
AcDb2dPolyline
66
1
10
0.0
20
0.0
30
0.0
70
0
0
VERTEX
5
31a
100
AcDbEntity
8
1
100
AcDbVertex
100
AcDb2dVertex
62
5
10
193.201017
20
144.398983
0
VERTEX
5
31b
100
AcDbEntity
8
1
100
AcDbVertex
100
AcDb2dVertex
62
5
10
192.576017
20
145.336483
0
VERTEX
5
31c
100
AcDbEntity
8
1
100
AcDbVertex
100
AcDb2dVertex
62
5
10
200.076017
20
145.336483
0
SEQEND
5
31d
100
AcDbEntity
8
1
0
LINE
5
31e
100
AcDbEntity
8
1
100
AcDbLine
6
DOT2
62
5
10
200.076017
20
144.711483
11
200.076017
21
145.961483
0
POLYLINE
5
31f
100
AcDbEntity
8
1
6
DOT2
62
5
100
AcDb2dPolyline
66
1
10
0.0
20
0.0
30
0.0
70
0
0
VERTEX
5
320
100
AcDbEntity
8
1
100
AcDbVertex
100
AcDb2dVertex
62
5
10
194.763517
20
148.773983
0
VERTEX
5
321
100
AcDbEntity
8
1
100
AcDbVertex
100
AcDb2dVertex
62
5
10
193.201017
20
149.086483
0
VERTEX
5
322
100
AcDbEntity
8
1
100
AcDbVertex
100
AcDb2dVertex
62
5
10
192.576017
20
150.023983
0
VERTEX
5
323
100
AcDbEntity
8
1
100
AcDbVertex
100
AcDb2dVertex
62
5
10
192.576017
20
150.961483
0
VERTEX
5
324
100
AcDbEntity
8
1
100
AcDbVertex
100
AcDb2dVertex
62
5
10
192.888517
20
151.586483
0
VERTEX
5
325
100
AcDbEntity
8
1
100
AcDbVertex
100
AcDb2dVertex
62
5
10
193.826017
20
151.898983
0
VERTEX
5
326
100
AcDbEntity
8
1
100
AcDbVertex
100
AcDb2dVertex
62
5
10
194.763517
20
151.898983
0
VERTEX
5
327
100
AcDbEntity
8
1
100
AcDbVertex
100
AcDb2dVertex
62
5
10
195.701017
20
151.586483
0
VERTEX
5
328
100
AcDbEntity
8
1
100
AcDbVertex
100
AcDb2dVertex
62
5
10
200.076017
20
148.773983
0
VERTEX
5
329
100
AcDbEntity
8
1
100
AcDbVertex
100
AcDb2dVertex
62
5
10
200.076017
20
151.898983
0
VERTEX
5
32a
100
AcDbEntity
8
1
100
AcDbVertex
100
AcDb2dVertex
62
5
10
199.138517
20
151.898983
0
SEQEND
5
32b
100
AcDbEntity
8
1
0
POLYLINE
5
32c
100
AcDbEntity
8
1
6
DOT2
62
5
100
AcDb2dPolyline
66
1
10
0.0
20
0.0
30
0.0
70
1
0
VERTEX
5
32d
100
AcDbEntity
8
1
100
AcDbVertex
100
AcDb2dVertex
62
5
10
192.576017
20
155.023983
0
VERTEX
5
32e
100
AcDbEntity
8
1
100
AcDbVertex
100
AcDb2dVertex
62
5
10
192.576017
20
155.648983
0
VERTEX
5
32f
100
AcDbEntity
8
1
100
AcDbVertex
100
AcDb2dVertex
62
5
10
192.888517
20
155.961483
0
VERTEX
5
330
100
AcDbEntity
8
1
100
AcDbVertex
100
AcDb2dVertex
62
5
10
194.138517
20
156.586483
0
VERTEX
5
331
100
AcDbEntity
8
1
100
AcDbVertex
100
AcDb2dVertex
62
5
10
195.388517
20
156.898983
0
VERTEX
5
332
100
AcDbEntity
8
1
100
AcDbVertex
100
AcDb2dVertex
62
5
10
197.263517
20
156.898983
0
VERTEX
5
333
100
AcDbEntity
8
1
100
AcDbVertex
100
AcDb2dVertex
62
5
10
198.513517
20
156.586483
0
VERTEX
5
334
100
AcDbEntity
8
1
100
AcDbVertex
100
AcDb2dVertex
62
5
10
199.763517
20
155.961483
0
VERTEX
5
335
100
AcDbEntity
8
1
100
AcDbVertex
100
AcDb2dVertex
62
5
10
200.076017
20
155.648983
0
VERTEX
5
336
100
AcDbEntity
8
1
100
AcDbVertex
100
AcDb2dVertex
62
5
10
200.076017
20
155.023983
0
VERTEX
5
337
100
AcDbEntity
8
1
100
AcDbVertex
100
AcDb2dVertex
62
5
10
199.763517
20
154.711483
0
VERTEX
5
338
100
AcDbEntity
8
1
100
AcDbVertex
100
AcDb2dVertex
62
5
10
198.513517
20
154.086483
0
VERTEX
5
339
100
AcDbEntity
8
1
100
AcDbVertex
100
AcDb2dVertex
62
5
10
197.263517
20
153.773983
0
VERTEX
5
33a
100
AcDbEntity
8
1
100
AcDbVertex
100
AcDb2dVertex
62
5
10
195.388517
20
153.773983
0
VERTEX
5
33b
100
AcDbEntity
8
1
100
AcDbVertex
100
AcDb2dVertex
62
5
10
194.138517
20
154.086483
0
VERTEX
5
33c
100
AcDbEntity
8
1
100
AcDbVertex
100
AcDb2dVertex
62
5
10
192.888517
20
154.711483
0
VERTEX
5
33d
100
AcDbEntity
8
1
100
AcDbVertex
100
AcDb2dVertex
62
5
10
192.576017
20
155.023983
0
SEQEND
5
33e
100
AcDbEntity
8
1
0
ARC
5
33f
100
AcDbEntity
8
0
100
AcDbCircle
6
CONTINUOUS
62
5
10
162.750000
20
158.000000
40
1.030669
100
AcDbArc
50
150.021453
51
-150.021453
0
ARC
5
340
100
AcDbEntity
8
0
100
AcDbCircle
6
CONTINUOUS
62
5
10
162.750000
20
158.000000
40
1.030669
100
AcDbArc
50
-119.978545
51
-60.021453
0
ARC
5
341
100
AcDbEntity
8
0
100
AcDbCircle
6
CONTINUOUS
62
5
10
162.750000
20
158.000000
40
1.030669
100
AcDbArc
50
60.021453
51
119.978545
0
ARC
5
342
100
AcDbEntity
8
0
100
AcDbCircle
6
CONTINUOUS
62
5
10
162.750000
20
158.000000
40
1.030669
100
AcDbArc
50
-29.978546
51
29.978546
0
ARC
5
343
100
AcDbEntity
8
0
100
AcDbCircle
6
CONTINUOUS
62
5
10
162.750000
20
142.000000
40
1.030669
100
AcDbArc
50
-119.978545
51
-60.021453
0
ARC
5
344
100
AcDbEntity
8
0
100
AcDbCircle
6
CONTINUOUS
62
5
10
162.750000
20
142.000000
40
1.030669
100
AcDbArc
50
60.021453
51
119.978545
0
ARC
5
345
100
AcDbEntity
8
0
100
AcDbCircle
6
CONTINUOUS
62
5
10
162.750000
20
142.000000
40
1.030669
100
AcDbArc
50
150.021453
51
-150.021453
0
ARC
5
346
100
AcDbEntity
8
0
100
AcDbCircle
6
CONTINUOUS
62
5
10
162.750000
20
142.000000
40
1.030669
100
AcDbArc
50
-29.978546
51
29.978546
0
ARC
5
347
100
AcDbEntity
8
0
100
AcDbCircle
6
CONTINUOUS
62
5
10
162.749999
20
142.000005
40
2.249995
100
AcDbArc
50
76.768289
51
103.231681
0
POLYLINE
5
348
100
AcDbEntity
8
0
6
CONTINUOUS
62
5
100
AcDb2dPolyline
66
1
10
0.0
20
0.0
30
0.0
70
0
0
VERTEX
5
349
100
AcDbEntity
8
0
100
AcDbVertex
100
AcDb2dVertex
62
5
10
162.235000
20
144.190268
0
VERTEX
5
34a
100
AcDbEntity
8
0
100
AcDbVertex
100
AcDb2dVertex
62
5
10
162.235000
20
142.515000
0
VERTEX
5
34b
100
AcDbEntity
8
0
100
AcDbVertex
100
AcDb2dVertex
62
5
10
160.559732
20
142.515000
0
SEQEND
5
34c
100
AcDbEntity
8
0
0
ARC
5
34d
100
AcDbEntity
8
0
100
AcDbCircle
6
CONTINUOUS
62
5
10
162.749992
20
142.000001
40
2.249992
100
AcDbArc
50
166.768300
51
-166.768272
0
POLYLINE
5
34e
100
AcDbEntity
8
0
6
CONTINUOUS
62
5
100
AcDb2dPolyline
66
1
10
0.0
20
0.0
30
0.0
70
0
0
VERTEX
5
34f
100
AcDbEntity
8
0
100
AcDbVertex
100
AcDb2dVertex
62
5
10
160.559732
20
141.485000
0
VERTEX
5
350
100
AcDbEntity
8
0
100
AcDbVertex
100
AcDb2dVertex
62
5
10
162.235000
20
141.485000
0
VERTEX
5
351
100
AcDbEntity
8
0
100
AcDbVertex
100
AcDb2dVertex
62
5
10
162.235000
20
139.809732
0
SEQEND
5
352
100
AcDbEntity
8
0
0
ARC
5
353
100
AcDbEntity
8
0
100
AcDbCircle
6
CONTINUOUS
62
5
10
162.749999
20
141.999993
40
2.249993
100
AcDbArc
50
-103.231693
51
-76.768278
0
POLYLINE
5
354
100
AcDbEntity
8
0
6
CONTINUOUS
62
5
100
AcDb2dPolyline
66
1
10
0.0
20
0.0
30
0.0
70
0
0
VERTEX
5
355
100
AcDbEntity
8
0
100
AcDbVertex
100
AcDb2dVertex
62
5
10
163.265000
20
139.809732
0
VERTEX
5
356
100
AcDbEntity
8
0
100
AcDbVertex
100
AcDb2dVertex
62
5
10
163.265000
20
141.485000
0
VERTEX
5
357
100
AcDbEntity
8
0
100
AcDbVertex
100
AcDb2dVertex
62
5
10
164.940268
20
141.485000
0
SEQEND
5
358
100
AcDbEntity
8
0
0
ARC
5
359
100
AcDbEntity
8
0
100
AcDbCircle
6
CONTINUOUS
62
5
10
162.750009
20
142.000000
40
2.249991
100
AcDbArc
50
-13.231719
51
13.231719
0
POLYLINE
5
35a
100
AcDbEntity
8
0
6
CONTINUOUS
62
5
100
AcDb2dPolyline
66
1
10
0.0
20
0.0
30
0.0
70
0
0
VERTEX
5
35b
100
AcDbEntity
8
0
100
AcDbVertex
100
AcDb2dVertex
62
5
10
164.940268
20
142.515000
0
VERTEX
5
35c
100
AcDbEntity
8
0
100
AcDbVertex
100
AcDb2dVertex
62
5
10
163.265000
20
142.515000
0
VERTEX
5
35d
100
AcDbEntity
8
0
100
AcDbVertex
100
AcDb2dVertex
62
5
10
163.265000
20
144.190268
0
SEQEND
5
35e
100
AcDbEntity
8
0
0
CIRCLE
5
35f
100
AcDbEntity
8
0
100
AcDbCircle
6
CONTINUOUS
62
5
10
162.750000
20
150.000000
40
2.250000
0
ARC
5
360
100
AcDbEntity
8
0
100
AcDbCircle
6
CONTINUOUS
62
5
10
162.750000
20
150.000000
40
4.000000
100
AcDbArc
50
-77.001256
51
77.001256
0
ARC
5
361
100
AcDbEntity
8
0
100
AcDbCircle
6
CONTINUOUS
62
5
10
162.750000
20
150.000000
40
4.000000
100
AcDbArc
50
102.998742
51
-102.998742
0
LINE
5
362
100
AcDbEntity
8
0
100
AcDbLine
6
CONTINUOUS
62
5
10
167.250000
20
138.000000
11
164.030625
21
138.000000
0
ARC
5
363
100
AcDbEntity
8
0
100
AcDbCircle
6
CONTINUOUS
62
5
10
161.826017
20
137.000000
40
1.000000
100
AcDbArc
50
104.567156
51
179.999998
0
LINE
5
364
100
AcDbEntity
8
0
100
AcDbLine
6
CONTINUOUS
62
5
10
160.826017
20
137.000000
11
160.826017
21
119.000000
0
ARC
5
365
100
AcDbEntity
8
0
100
AcDbCircle
6
CONTINUOUS
62
5
10
161.826017
20
119.000000
40
1.000000
100
AcDbArc
50
179.999998
51
-89.999999
0
LINE
5
366
100
AcDbEntity
8
0
100
AcDbLine
6
CONTINUOUS
62
5
10
161.826017
20
118.000000
11
167.250000
21
118.000000
0
CIRCLE
5
367
100
AcDbEntity
8
0
100
AcDbCircle
6
CONTINUOUS
62
5
10
162.750000
20
142.000000
40
4.200000
0
ARC
5
368
100
AcDbEntity
8
0
100
AcDbCircle
6
CONTINUOUS
62
5
10
226.826017
20
97.873983
40
0.500000
100
AcDbArc
50
-179.999998
51
-89.999999
0
LINE
5
369
100
AcDbEntity
8
0
100
AcDbLine
6
CONTINUOUS
62
5
10
226.326017
20
97.873983
11
226.326017
21
100.688065
0
ARC
5
36a
100
AcDbEntity
8
0
100
AcDbCircle
6
CONTINUOUS
62
5
10
226.826017
20
100.688065
40
0.500000
100
AcDbArc
50
91.636579
51
-179.999993
0
LINE
5
36b
100
AcDbEntity
8
0
100
AcDbLine
6
CONTINUOUS
62
5
10
226.811737
20
101.187861
11
227.826017
21
101.216840
0
LINE
5
36c
100
AcDbEntity
8
0
100
AcDbLine
6
CONTINUOUS
62
5
10
227.826017
20
97.373983
11
226.826017
21
97.373983
0
ARC
5
36d
100
AcDbEntity
8
0
100
AcDbCircle
6
CONTINUOUS
62
5
10
159.250000
20
113.000000
40
2.250000
100
AcDbArc
50
-89.999999
51
89.999999
0
LINE
5
36e
100
AcDbEntity
8
0
100
AcDbLine
6
CONTINUOUS
62
5
10
159.250000
20
115.250000
11
157.250000
21
115.250000
0
ARC
5
36f
100
AcDbEntity
8
0
100
AcDbCircle
6
CONTINUOUS
62
5
10
157.250000
20
113.000000
40
2.250000
100
AcDbArc
50
89.999999
51
-89.999999
0
LINE
5
370
100
AcDbEntity
8
0
100
AcDbLine
6
CONTINUOUS
62
5
10
157.250000
20
110.750000
11
159.250000
21
110.750000
0
ARC
5
371
100
AcDbEntity
8
0
100
AcDbCircle
6
CONTINUOUS
62
5
10
159.250000
20
113.000000
40
4.000000
100
AcDbArc
50
-89.999999
51
89.999999
0
LINE
5
372
100
AcDbEntity
8
0
100
AcDbLine
6
CONTINUOUS
62
5
10
159.250000
20
109.000000
11
157.250000
21
109.000000
0
ARC
5
373
100
AcDbEntity
8
0
100
AcDbCircle
6
CONTINUOUS
62
5
10
157.250000
20
113.000000
40
4.000000
100
AcDbArc
50
89.999999
51
-89.999999
0
LINE
5
374
100
AcDbEntity
8
0
100
AcDbLine
6
CONTINUOUS
62
5
10
157.250000
20
117.000000
11
159.250000
21
117.000000
0
ARC
5
375
100
AcDbEntity
8
0
100
AcDbCircle
6
CONTINUOUS
62
5
10
114.750000
20
154.250000
40
0.750000
100
AcDbArc
50
0.000000
51
179.999998
0
LINE
5
376
100
AcDbEntity
8
0
100
AcDbLine
6
CONTINUOUS
62
5
10
115.500000
20
154.250000
11
115.500000
21
145.750000
0
ARC
5
377
100
AcDbEntity
8
0
100
AcDbCircle
6
CONTINUOUS
62
5
10
114.750000
20
145.750000
40
0.750000
100
AcDbArc
50
179.999998
51
0.000000
0
LINE
5
378
100
AcDbEntity
8
0
100
AcDbLine
6
CONTINUOUS
62
5
10
114.000000
20
145.750000
11
114.000000
21
154.250000
0
ARC
5
379
100
AcDbEntity
8
0
100
AcDbCircle
6
CONTINUOUS
62
5
10
132.250000
20
132.400000
40
0.500000
100
AcDbArc
50
179.999998
51
-89.999999
0
LINE
5
37a
100
AcDbEntity
8
0
100
AcDbLine
6
CONTINUOUS
62
5
10
132.250000
20
131.900000
11
139.250000
21
131.900000
0
ARC
5
37b
100
AcDbEntity
8
0
100
AcDbCircle
6
CONTINUOUS
62
5
10
139.250000
20
132.400000
40
0.500000
100
AcDbArc
50
-89.999999
51
0.000000
0
LINE
5
37c
100
AcDbEntity
8
0
100
AcDbLine
6
CONTINUOUS
62
5
10
139.750000
20
132.400000
11
139.750000
21
133.600000
0
ARC
5
37d
100
AcDbEntity
8
0
100
AcDbCircle
6
CONTINUOUS
62
5
10
139.250000
20
133.600000
40
0.500000
100
AcDbArc
50
0.000000
51
89.999999
0
LINE
5
37e
100
AcDbEntity
8
0
100
AcDbLine
6
CONTINUOUS
62
5
10
139.250000
20
134.100000
11
132.250000
21
134.100000
0
ARC
5
37f
100
AcDbEntity
8
0
100
AcDbCircle
6
CONTINUOUS
62
5
10
132.250000
20
133.600000
40
0.500000
100
AcDbArc
50
89.999999
51
179.999998
0
LINE
5
380
100
AcDbEntity
8
0
100
AcDbLine
6
CONTINUOUS
62
5
10
131.750000
20
133.600000
11
131.750000
21
132.400000
0
ARC
5
381
100
AcDbEntity
8
0
100
AcDbCircle
6
CONTINUOUS
62
5
10
135.750000
20
133.000000
40
8.500000
100
AcDbArc
50
-172.395749
51
-7.604249
0
LINE
5
382
100
AcDbEntity
8
0
100
AcDbLine
6
CONTINUOUS
62
5
10
144.175249
20
131.875196
11
145.191795
21
131.950000
0
ARC
5
383
100
AcDbEntity
8
0
100
AcDbCircle
6
CONTINUOUS
62
5
10
135.750000
20
133.000000
40
9.500000
100
AcDbArc
50
-173.654342
51
-6.345656
0
LINE
5
384
100
AcDbEntity
8
0
100
AcDbLine
6
CONTINUOUS
62
5
10
126.308205
20
131.950000
11
127.324751
21
131.875196
0
ARC
5
385
100
AcDbEntity
8
0
100
AcDbCircle
6
CONTINUOUS
62
5
10
135.750000
20
133.000000
40
8.500000
100
AcDbArc
50
7.604250
51
172.395748
0
LINE
5
386
100
AcDbEntity
8
0
100
AcDbLine
6
CONTINUOUS
62
5
10
127.324751
20
134.124804
11
126.308205
21
134.050000
0
ARC
5
387
100
AcDbEntity
8
0
100
AcDbCircle
6
CONTINUOUS
62
5
10
135.750000
20
133.000000
40
9.500000
100
AcDbArc
50
6.345655
51
173.654343
0
LINE
5
388
100
AcDbEntity
8
0
100
AcDbLine
6
CONTINUOUS
62
5
10
145.191795
20
134.050000
11
144.175249
21
134.124804
0
ARC
5
389
100
AcDbEntity
8
0
100
AcDbCircle
6
CONTINUOUS
62
5
10
86.250000
20
132.400000
40
0.500000
100
AcDbArc
50
179.999998
51
-89.999999
0
LINE
5
38a
100
AcDbEntity
8
0
100
AcDbLine
6
CONTINUOUS
62
5
10
86.250000
20
131.900000
11
93.250000
21
131.900000
0
ARC
5
38b
100
AcDbEntity
8
0
100
AcDbCircle
6
CONTINUOUS
62
5
10
93.250000
20
132.400000
40
0.500000
100
AcDbArc
50
-89.999999
51
0.000000
0
LINE
5
38c
100
AcDbEntity
8
0
100
AcDbLine
6
CONTINUOUS
62
5
10
93.750000
20
132.400000
11
93.750000
21
133.600000
0
ARC
5
38d
100
AcDbEntity
8
0
100
AcDbCircle
6
CONTINUOUS
62
5
10
93.250000
20
133.600000
40
0.500000
100
AcDbArc
50
0.000000
51
89.999999
0
LINE
5
38e
100
AcDbEntity
8
0
100
AcDbLine
6
CONTINUOUS
62
5
10
93.250000
20
134.100000
11
86.250000
21
134.100000
0
ARC
5
38f
100
AcDbEntity
8
0
100
AcDbCircle
6
CONTINUOUS
62
5
10
86.250000
20
133.600000
40
0.500000
100
AcDbArc
50
89.999999
51
179.999998
0
LINE
5
390
100
AcDbEntity
8
0
100
AcDbLine
6
CONTINUOUS
62
5
10
85.750000
20
133.600000
11
85.750000
21
132.400000
0
ARC
5
391
100
AcDbEntity
8
0
100
AcDbCircle
6
CONTINUOUS
62
5
10
89.750000
20
133.000000
40
8.500000
100
AcDbArc
50
-172.395749
51
-7.604249
0
LINE
5
392
100
AcDbEntity
8
0
100
AcDbLine
6
CONTINUOUS
62
5
10
98.175249
20
131.875196
11
99.191795
21
131.950000
0
ARC
5
393
100
AcDbEntity
8
0
100
AcDbCircle
6
CONTINUOUS
62
5
10
89.750000
20
133.000000
40
9.500000
100
AcDbArc
50
-173.654342
51
-6.345656
0
LINE
5
394
100
AcDbEntity
8
0
100
AcDbLine
6
CONTINUOUS
62
5
10
80.308205
20
131.950000
11
81.324751
21
131.875196
0
ARC
5
395
100
AcDbEntity
8
0
100
AcDbCircle
6
CONTINUOUS
62
5
10
89.750000
20
133.000000
40
8.500000
100
AcDbArc
50
7.604250
51
172.395748
0
LINE
5
396
100
AcDbEntity
8
0
100
AcDbLine
6
CONTINUOUS
62
5
10
81.324751
20
134.124804
11
80.308205
21
134.050000
0
ARC
5
397
100
AcDbEntity
8
0
100
AcDbCircle
6
CONTINUOUS
62
5
10
89.750000
20
133.000000
40
9.500000
100
AcDbArc
50
6.345655
51
173.654343
0
LINE
5
398
100
AcDbEntity
8
0
100
AcDbLine
6
CONTINUOUS
62
5
10
99.191795
20
134.050000
11
98.175249
21
134.124804
0
ARC
5
399
100
AcDbEntity
8
0
100
AcDbCircle
6
CONTINUOUS
62
5
10
110.750000
20
145.750000
40
0.750000
100
AcDbArc
50
179.999998
51
0.000000
0
LINE
5
39a
100
AcDbEntity
8
0
100
AcDbLine
6
CONTINUOUS
62
5
10
111.500000
20
145.750000
11
111.500000
21
154.250000
0
ARC
5
39b
100
AcDbEntity
8
0
100
AcDbCircle
6
CONTINUOUS
62
5
10
110.750000
20
154.250000
40
0.750000
100
AcDbArc
50
0.000000
51
179.999998
0
LINE
5
39c
100
AcDbEntity
8
0
100
AcDbLine
6
CONTINUOUS
62
5
10
110.000000
20
154.250000
11
110.000000
21
145.750000
0
CIRCLE
5
39d
100
AcDbEntity
8
0
100
AcDbCircle
6
CONTINUOUS
62
5
10
135.750000
20
108.250000
40
1.650000
0
CIRCLE
5
39e
100
AcDbEntity
8
0
100
AcDbCircle
6
CONTINUOUS
62
5
10
145.750000
20
108.250000
40
2.250000
0
CIRCLE
5
39f
100
AcDbEntity
8
0
100
AcDbCircle
6
CONTINUOUS
62
5
10
135.750000
20
108.250000
40
2.500000
0
CIRCLE
5
3a0
100
AcDbEntity
8
0
100
AcDbCircle
6
CONTINUOUS
62
5
10
135.750000
20
108.250000
40
4.000000
0
ARC
5
3a1
100
AcDbEntity
8
0
100
AcDbCircle
6
CONTINUOUS
62
5
10
125.750000
20
99.000000
40
2.250000
100
AcDbArc
50
110.637430
51
-170.637429
0
ARC
5
3a2
100
AcDbEntity
8
0
100
AcDbCircle
6
CONTINUOUS
62
5
10
125.750000
20
99.000000
40
2.250000
100
AcDbArc
50
-9.362569
51
69.362568
0
ARC
5
3a3
100
AcDbEntity
8
0
100
AcDbCircle
6
CONTINUOUS
62
5
10
125.750001
20
99.000000
40
2.215713
100
AcDbArc
50
-51.165157
51
-8.834847
0
LINE
5
3a4
100
AcDbEntity
8
0
100
AcDbLine
6
CONTINUOUS
62
5
10
127.139425
20
97.274055
11
128.216202
21
96.883317
0
LINE
5
3a5
100
AcDbEntity
8
0
100
AcDbLine
6
CONTINUOUS
62
5
10
128.816202
20
97.922548
11
127.939425
21
98.659695
0
ARC
5
3a6
100
AcDbEntity
8
0
100
AcDbCircle
6
CONTINUOUS
62
5
10
125.750000
20
99.000000
40
2.215714
100
AcDbArc
50
-171.165146
51
-128.834851
0
LINE
5
3a7
100
AcDbEntity
8
0
100
AcDbLine
6
CONTINUOUS
62
5
10
123.560575
20
98.659695
11
122.683798
21
97.922548
0
LINE
5
3a8
100
AcDbEntity
8
0
100
AcDbLine
6
CONTINUOUS
62
5
10
123.283798
20
96.883317
11
124.360575
21
97.274055
0
ARC
5
3a9
100
AcDbEntity
8
0
100
AcDbCircle
6
CONTINUOUS
62
5
10
125.750000
20
99.000000
40
2.250000
100
AcDbArc
50
-129.362568
51
-50.637431
0
ARC
5
3aa
100
AcDbEntity
8
0
100
AcDbCircle
6
CONTINUOUS
62
5
10
125.750000
20
99.500000
40
2.150000
100
AcDbArc
50
174.930037
51
5.069962
0
ARC
5
3ab
100
AcDbEntity
8
0
100
AcDbCircle
6
CONTINUOUS
62
5
10
125.750000
20
98.999999
40
2.215715
100
AcDbArc
50
68.834851
51
111.165138
0
LINE
5
3ac
100
AcDbEntity
8
0
100
AcDbLine
6
CONTINUOUS
62
5
10
124.950000
20
101.066250
11
125.150000
21
102.194135
0
LINE
5
3ad
100
AcDbEntity
8
0
100
AcDbLine
6
CONTINUOUS
62
5
10
126.350000
20
102.194135
11
126.550000
21
101.066250
0
ARC
5
3ae
100
AcDbEntity
8
0
100
AcDbCircle
6
CONTINUOUS
62
5
10
120.750000
20
108.250000
40
2.250000
100
AcDbArc
50
89.999999
51
-89.999999
0
LINE
5
3af
100
AcDbEntity
8
0
100
AcDbLine
6
CONTINUOUS
62
5
10
120.750000
20
106.000000
11
125.750000
21
106.000000
0
ARC
5
3b0
100
AcDbEntity
8
0
100
AcDbCircle
6
CONTINUOUS
62
5
10
125.750000
20
108.250000
40
2.250000
100
AcDbArc
50
-89.999999
51
89.999999
0
LINE
5
3b1
100
AcDbEntity
8
0
100
AcDbLine
6
CONTINUOUS
62
5
10
125.750000
20
110.500000
11
120.750000
21
110.500000
0
ARC
5
3b2
100
AcDbEntity
8
0
100
AcDbCircle
6
CONTINUOUS
62
5
10
135.750000
20
108.250000
40
6.000000
100
AcDbArc
50
0.000001
51
50.805030
0
ARC
5
3b3
100
AcDbEntity
8
0
100
AcDbCircle
6
CONTINUOUS
62
5
10
138.277845
20
111.350000
40
2.000000
100
AcDbArc
50
50.805033
51
89.999999
0
LINE
5
3b4
100
AcDbEntity
8
0
100
AcDbLine
6
CONTINUOUS
62
5
10
138.277845
20
113.350000
11
133.222155
21
113.350000
0
ARC
5
3b5
100
AcDbEntity
8
0
100
AcDbCircle
6
CONTINUOUS
62
5
10
133.222155
20
111.350000
40
2.000000
100
AcDbArc
50
89.999999
51
129.194966
0
ARC
5
3b6
100
AcDbEntity
8
0
100
AcDbCircle
6
CONTINUOUS
62
5
10
135.750000
20
108.250000
40
6.000000
100
AcDbArc
50
129.194968
51
179.999998
0
LINE
5
3b7
100
AcDbEntity
8
0
100
AcDbLine
6
CONTINUOUS
62
5
10
129.750000
20
108.250000
11
129.750000
21
103.500000
0
LINE
5
3b8
100
AcDbEntity
8
0
100
AcDbLine
6
CONTINUOUS
62
5
10
141.750000
20
103.500000
11
141.750000
21
108.250000
0
CIRCLE
5
3b9
100
AcDbEntity
8
0
100
AcDbCircle
6
CONTINUOUS
62
5
10
135.750000
20
95.000000
40
1.000000
0
POLYLINE
5
3ba
100
AcDbEntity
8
0
6
CONTINUOUS
62
5
100
AcDb2dPolyline
66
1
10
0.0
20
0.0
30
0.0
70
1
0
VERTEX
5
3bb
100
AcDbEntity
8
0
100
AcDbVertex
100
AcDb2dVertex
62
5
10
133.846003
20
101.548368
0
VERTEX
5
3bc
100
AcDbEntity
8
0
100
AcDbVertex
100
AcDb2dVertex
62
5
10
131.601632
20
101.548368
0
VERTEX
5
3bd
100
AcDbEntity
8
0
100
AcDbVertex
100
AcDb2dVertex
62
5
10
131.601632
20
95.751632
0
VERTEX
5
3be
100
AcDbEntity
8
0
100
AcDbVertex
100
AcDb2dVertex
62
5
10
133.846003
20
95.751632
0
SEQEND
5
3bf
100
AcDbEntity
8
0
0
CIRCLE
5
3c0
100
AcDbEntity
8
0
100
AcDbCircle
6
CONTINUOUS
62
5
10
125.750000
20
99.000000
40
3.250000
0
POLYLINE
5
3c1
100
AcDbEntity
8
0
6
CONTINUOUS
62
5
100
AcDb2dPolyline
66
1
10
0.0
20
0.0
30
0.0
70
1
0
VERTEX
5
3c2
100
AcDbEntity
8
0
100
AcDbVertex
100
AcDb2dVertex
62
5
10
137.653997
20
95.751632
0
VERTEX
5
3c3
100
AcDbEntity
8
0
100
AcDbVertex
100
AcDb2dVertex
62
5
10
139.898368
20
95.751632
0
VERTEX
5
3c4
100
AcDbEntity
8
0
100
AcDbVertex
100
AcDb2dVertex
62
5
10
139.898368
20
101.548368
0
VERTEX
5
3c5
100
AcDbEntity
8
0
100
AcDbVertex
100
AcDb2dVertex
62
5
10
137.653997
20
101.548368
0
SEQEND
5
3c6
100
AcDbEntity
8
0
0
ARC
5
3c7
100
AcDbEntity
8
0
100
AcDbCircle
6
CONTINUOUS
62
5
10
99.750000
20
108.250000
40
2.250000
100
AcDbArc
50
89.999999
51
-89.999999
0
LINE
5
3c8
100
AcDbEntity
8
0
100
AcDbLine
6
CONTINUOUS
62
5
10
99.750000
20
106.000000
11
104.750000
21
106.000000
0
ARC
5
3c9
100
AcDbEntity
8
0
100
AcDbCircle
6
CONTINUOUS
62
5
10
104.750000
20
108.250000
40
2.250000
100
AcDbArc
50
-89.999999
51
89.999999
0
LINE
5
3ca
100
AcDbEntity
8
0
100
AcDbLine
6
CONTINUOUS
62
5
10
104.750000
20
110.500000
11
99.750000
21
110.500000
0
ARC
5
3cb
100
AcDbEntity
8
0
100
AcDbCircle
6
CONTINUOUS
62
5
10
79.750000
20
99.000000
40
2.250000
100
AcDbArc
50
-9.362569
51
69.362568
0
ARC
5
3cc
100
AcDbEntity
8
0
100
AcDbCircle
6
CONTINUOUS
62
5
10
79.750001
20
99.000000
40
2.215713
100
AcDbArc
50
-51.165157
51
-8.834847
0
LINE
5
3cd
100
AcDbEntity
8
0
100
AcDbLine
6
CONTINUOUS
62
5
10
81.139425
20
97.274055
11
82.216202
21
96.883317
0
LINE
5
3ce
100
AcDbEntity
8
0
100
AcDbLine
6
CONTINUOUS
62
5
10
82.816202
20
97.922548
11
81.939425
21
98.659695
0
ARC
5
3cf
100
AcDbEntity
8
0
100
AcDbCircle
6
CONTINUOUS
62
5
10
79.750000
20
99.000000
40
2.250000
100
AcDbArc
50
110.637430
51
-170.637429
0
ARC
5
3d0
100
AcDbEntity
8
0
100
AcDbCircle
6
CONTINUOUS
62
5
10
79.750000
20
99.000000
40
2.215714
100
AcDbArc
50
-171.165146
51
-128.834851
0
LINE
5
3d1
100
AcDbEntity
8
0
100
AcDbLine
6
CONTINUOUS
62
5
10
77.560575
20
98.659695
11
76.683798
21
97.922548
0
LINE
5
3d2
100
AcDbEntity
8
0
100
AcDbLine
6
CONTINUOUS
62
5
10
77.283798
20
96.883317
11
78.360575
21
97.274055
0
CIRCLE
5
3d3
100
AcDbEntity
8
0
100
AcDbCircle
6
CONTINUOUS
62
5
10
79.750000
20
108.250000
40
2.250000
0
ARC
5
3d4
100
AcDbEntity
8
0
100
AcDbCircle
6
CONTINUOUS
62
5
10
79.750000
20
99.000000
40
2.250000
100
AcDbArc
50
-129.362568
51
-50.637431
0
ARC
5
3d5
100
AcDbEntity
8
0
100
AcDbCircle
6
CONTINUOUS
62
5
10
79.750000
20
99.500000
40
2.150000
100
AcDbArc
50
174.930037
51
5.069962
0
ARC
5
3d6
100
AcDbEntity
8
0
100
AcDbCircle
6
CONTINUOUS
62
5
10
79.750000
20
98.999999
40
2.215715
100
AcDbArc
50
68.834851
51
111.165138
0
LINE
5
3d7
100
AcDbEntity
8
0
100
AcDbLine
6
CONTINUOUS
62
5
10
78.950000
20
101.066250
11
79.150000
21
102.194135
0
LINE
5
3d8
100
AcDbEntity
8
0
100
AcDbLine
6
CONTINUOUS
62
5
10
80.350000
20
102.194135
11
80.550000
21
101.066250
0
CIRCLE
5
3d9
100
AcDbEntity
8
0
100
AcDbCircle
6
CONTINUOUS
62
5
10
89.750000
20
108.250000
40
1.650000
0
CIRCLE
5
3da
100
AcDbEntity
8
0
100
AcDbCircle
6
CONTINUOUS
62
5
10
89.750000
20
108.250000
40
2.500000
0
CIRCLE
5
3db
100
AcDbEntity
8
0
100
AcDbCircle
6
CONTINUOUS
62
5
10
89.750000
20
108.250000
40
4.000000
0
ARC
5
3dc
100
AcDbEntity
8
0
100
AcDbCircle
6
CONTINUOUS
62
5
10
89.750000
20
108.250000
40
6.000000
100
AcDbArc
50
0.000001
51
50.805030
0
ARC
5
3dd
100
AcDbEntity
8
0
100
AcDbCircle
6
CONTINUOUS
62
5
10
92.277845
20
111.350000
40
2.000000
100
AcDbArc
50
50.805033
51
89.999999
0
LINE
5
3de
100
AcDbEntity
8
0
100
AcDbLine
6
CONTINUOUS
62
5
10
92.277845
20
113.350000
11
87.222155
21
113.350000
0
ARC
5
3df
100
AcDbEntity
8
0
100
AcDbCircle
6
CONTINUOUS
62
5
10
87.222155
20
111.350000
40
2.000000
100
AcDbArc
50
89.999999
51
129.194966
0
ARC
5
3e0
100
AcDbEntity
8
0
100
AcDbCircle
6
CONTINUOUS
62
5
10
89.750000
20
108.250000
40
6.000000
100
AcDbArc
50
129.194968
51
179.999998
0
LINE
5
3e1
100
AcDbEntity
8
0
100
AcDbLine
6
CONTINUOUS
62
5
10
83.750000
20
108.250000
11
83.750000
21
103.500000
0
LINE
5
3e2
100
AcDbEntity
8
0
100
AcDbLine
6
CONTINUOUS
62
5
10
95.750000
20
103.500000
11
95.750000
21
108.250000
0
CIRCLE
5
3e3
100
AcDbEntity
8
0
100
AcDbCircle
6
CONTINUOUS
62
5
10
89.750000
20
95.000000
40
1.000000
0
POLYLINE
5
3e4
100
AcDbEntity
8
0
6
CONTINUOUS
62
5
100
AcDb2dPolyline
66
1
10
0.0
20
0.0
30
0.0
70
1
0
VERTEX
5
3e5
100
AcDbEntity
8
0
100
AcDbVertex
100
AcDb2dVertex
62
5
10
87.846003
20
101.548368
0
VERTEX
5
3e6
100
AcDbEntity
8
0
100
AcDbVertex
100
AcDb2dVertex
62
5
10
85.601632
20
101.548368
0
VERTEX
5
3e7
100
AcDbEntity
8
0
100
AcDbVertex
100
AcDb2dVertex
62
5
10
85.601632
20
95.751632
0
VERTEX
5
3e8
100
AcDbEntity
8
0
100
AcDbVertex
100
AcDb2dVertex
62
5
10
87.846003
20
95.751632
0
SEQEND
5
3e9
100
AcDbEntity
8
0
0
POLYLINE
5
3ea
100
AcDbEntity
8
0
6
CONTINUOUS
62
5
100
AcDb2dPolyline
66
1
10
0.0
20
0.0
30
0.0
70
1
0
VERTEX
5
3eb
100
AcDbEntity
8
0
100
AcDbVertex
100
AcDb2dVertex
62
5
10
91.653997
20
95.751632
0
VERTEX
5
3ec
100
AcDbEntity
8
0
100
AcDbVertex
100
AcDb2dVertex
62
5
10
93.898368
20
95.751632
0
VERTEX
5
3ed
100
AcDbEntity
8
0
100
AcDbVertex
100
AcDb2dVertex
62
5
10
93.898368
20
101.548368
0
VERTEX
5
3ee
100
AcDbEntity
8
0
100
AcDbVertex
100
AcDb2dVertex
62
5
10
91.653997
20
101.548368
0
SEQEND
5
3ef
100
AcDbEntity
8
0
0
CIRCLE
5
3f0
100
AcDbEntity
8
0
100
AcDbCircle
6
CONTINUOUS
62
5
10
79.750000
20
99.000000
40
3.250000
0
ARC
5
3f1
100
AcDbEntity
8
0
100
AcDbCircle
6
CONTINUOUS
62
5
10
113.750000
20
113.000000
40
2.250000
100
AcDbArc
50
-89.999999
51
89.999999
0
LINE
5
3f2
100
AcDbEntity
8
0
100
AcDbLine
6
CONTINUOUS
62
5
10
113.750000
20
115.250000
11
111.750000
21
115.250000
0
ARC
5
3f3
100
AcDbEntity
8
0
100
AcDbCircle
6
CONTINUOUS
62
5
10
111.750000
20
113.000000
40
2.250000
100
AcDbArc
50
89.999999
51
-89.999999
0
LINE
5
3f4
100
AcDbEntity
8
0
100
AcDbLine
6
CONTINUOUS
62
5
10
111.750000
20
110.750000
11
113.750000
21
110.750000
0
POLYLINE
5
3f5
100
AcDbEntity
8
0
6
CONTINUOUS
62
5
100
AcDb2dPolyline
66
1
10
0.0
20
0.0
30
0.0
70
1
0
VERTEX
5
3f6
100
AcDbEntity
8
0
100
AcDbVertex
100
AcDb2dVertex
62
5
10
122.750000
20
94.000000
0
VERTEX
5
3f7
100
AcDbEntity
8
0
100
AcDbVertex
100
AcDb2dVertex
62
5
10
102.750000
20
94.000000
0
VERTEX
5
3f8
100
AcDbEntity
8
0
100
AcDbVertex
100
AcDb2dVertex
62
5
10
102.750000
20
96.000000
0
VERTEX
5
3f9
100
AcDbEntity
8
0
100
AcDbVertex
100
AcDb2dVertex
62
5
10
110.750000
20
96.000000
0
VERTEX
5
3fa
100
AcDbEntity
8
0
100
AcDbVertex
100
AcDb2dVertex
62
5
10
110.750000
20
101.000000
0
VERTEX
5
3fb
100
AcDbEntity
8
0
100
AcDbVertex
100
AcDb2dVertex
62
5
10
114.750000
20
101.000000
0
VERTEX
5
3fc
100
AcDbEntity
8
0
100
AcDbVertex
100
AcDb2dVertex
62
5
10
114.750000
20
96.000000
0
VERTEX
5
3fd
100
AcDbEntity
8
0
100
AcDbVertex
100
AcDb2dVertex
62
5
10
122.750000
20
96.000000
0
SEQEND
5
3fe
100
AcDbEntity
8
0
0
ARC
5
3ff
100
AcDbEntity
8
0
100
AcDbCircle
6
CONTINUOUS
62
5
10
113.750000
20
113.000000
40
4.000000
100
AcDbArc
50
-89.999999
51
89.999999
0
LINE
5
400
100
AcDbEntity
8
0
100
AcDbLine
6
CONTINUOUS
62
5
10
113.750000
20
109.000000
11
111.750000
21
109.000000
0
ARC
5
401
100
AcDbEntity
8
0
100
AcDbCircle
6
CONTINUOUS
62
5
10
111.750000
20
113.000000
40
4.000000
100
AcDbArc
50
89.999999
51
-89.999999
0
LINE
5
402
100
AcDbEntity
8
0
100
AcDbLine
6
CONTINUOUS
62
5
10
111.750000
20
117.000000
11
113.750000
21
117.000000
0
POLYLINE
5
403
100
AcDbEntity
8
0
6
CONTINUOUS
62
5
100
AcDb2dPolyline
66
1
10
0.0
20
0.0
30
0.0
70
1
0
VERTEX
5
404
100
AcDbEntity
8
0
100
AcDbVertex
100
AcDb2dVertex
62
5
10
103.550000
20
117.000000
0
VERTEX
5
405
100
AcDbEntity
8
0
100
AcDbVertex
100
AcDb2dVertex
62
5
10
75.950000
20
117.000000
0
VERTEX
5
406
100
AcDbEntity
8
0
100
AcDbVertex
100
AcDb2dVertex
62
5
10
76.130000
20
118.000000
0
VERTEX
5
407
100
AcDbEntity
8
0
100
AcDbVertex
100
AcDb2dVertex
62
5
10
103.370000
20
118.000000
0
SEQEND
5
408
100
AcDbEntity
8
0
0
ARC
5
409
100
AcDbEntity
8
0
100
AcDbCircle
6
CONTINUOUS
62
5
10
62.750000
20
158.000000
40
1.030669
100
AcDbArc
50
150.021453
51
-150.021453
0
ARC
5
40a
100
AcDbEntity
8
0
100
AcDbCircle
6
CONTINUOUS
62
5
10
62.750000
20
158.000000
40
1.030669
100
AcDbArc
50
-119.978545
51
-60.021453
0
ARC
5
40b
100
AcDbEntity
8
0
100
AcDbCircle
6
CONTINUOUS
62
5
10
62.750000
20
158.000000
40
1.030669
100
AcDbArc
50
-29.978546
51
29.978546
0
ARC
5
40c
100
AcDbEntity
8
0
100
AcDbCircle
6
CONTINUOUS
62
5
10
62.750000
20
158.000000
40
1.030669
100
AcDbArc
50
60.021453
51
119.978545
0
ARC
5
40d
100
AcDbEntity
8
0
100
AcDbCircle
6
CONTINUOUS
62
5
10
62.750000
20
142.000000
40
1.030669
100
AcDbArc
50
-119.978545
51
-60.021453
0
ARC
5
40e
100
AcDbEntity
8
0
100
AcDbCircle
6
CONTINUOUS
62
5
10
62.750000
20
142.000000
40
1.030669
100
AcDbArc
50
150.021453
51
-150.021453
0
ARC
5
40f
100
AcDbEntity
8
0
100
AcDbCircle
6
CONTINUOUS
62
5
10
62.750000
20
142.000000
40
1.030669
100
AcDbArc
50
-29.978546
51
29.978546
0
ARC
5
410
100
AcDbEntity
8
0
100
AcDbCircle
6
CONTINUOUS
62
5
10
62.750000
20
142.000000
40
1.030669
100
AcDbArc
50
60.021453
51
119.978545
0
ARC
5
411
100
AcDbEntity
8
0
100
AcDbCircle
6
CONTINUOUS
62
5
10
62.750001
20
142.000005
40
2.249995
100
AcDbArc
50
76.768317
51
103.231709
0
POLYLINE
5
412
100
AcDbEntity
8
0
6
CONTINUOUS
62
5
100
AcDb2dPolyline
66
1
10
0.0
20
0.0
30
0.0
70
0
0
VERTEX
5
413
100
AcDbEntity
8
0
100
AcDbVertex
100
AcDb2dVertex
62
5
10
63.265000
20
144.190268
0
VERTEX
5
414
100
AcDbEntity
8
0
100
AcDbVertex
100
AcDb2dVertex
62
5
10
63.265000
20
142.515000
0
VERTEX
5
415
100
AcDbEntity
8
0
100
AcDbVertex
100
AcDb2dVertex
62
5
10
64.940268
20
142.515000
0
SEQEND
5
416
100
AcDbEntity
8
0
0
ARC
5
417
100
AcDbEntity
8
0
100
AcDbCircle
6
CONTINUOUS
62
5
10
62.750008
20
142.000001
40
2.249992
100
AcDbArc
50
-13.231726
51
13.231699
0
POLYLINE
5
418
100
AcDbEntity
8
0
6
CONTINUOUS
62
5
100
AcDb2dPolyline
66
1
10
0.0
20
0.0
30
0.0
70
0
0
VERTEX
5
419
100
AcDbEntity
8
0
100
AcDbVertex
100
AcDb2dVertex
62
5
10
64.940268
20
141.485000
0
VERTEX
5
41a
100
AcDbEntity
8
0
100
AcDbVertex
100
AcDb2dVertex
62
5
10
63.265000
20
141.485000
0
VERTEX
5
41b
100
AcDbEntity
8
0
100
AcDbVertex
100
AcDb2dVertex
62
5
10
63.265000
20
139.809732
0
SEQEND
5
41c
100
AcDbEntity
8
0
0
ARC
5
41d
100
AcDbEntity
8
0
100
AcDbCircle
6
CONTINUOUS
62
5
10
62.750001
20
141.999993
40
2.249993
100
AcDbArc
50
-103.231720
51
-76.768306
0
POLYLINE
5
41e
100
AcDbEntity
8
0
6
CONTINUOUS
62
5
100
AcDb2dPolyline
66
1
10
0.0
20
0.0
30
0.0
70
0
0
VERTEX
5
41f
100
AcDbEntity
8
0
100
AcDbVertex
100
AcDb2dVertex
62
5
10
62.235000
20
139.809732
0
VERTEX
5
420
100
AcDbEntity
8
0
100
AcDbVertex
100
AcDb2dVertex
62
5
10
62.235000
20
141.485000
0
VERTEX
5
421
100
AcDbEntity
8
0
100
AcDbVertex
100
AcDb2dVertex
62
5
10
60.559732
20
141.485000
0
SEQEND
5
422
100
AcDbEntity
8
0
0
ARC
5
423
100
AcDbEntity
8
0
100
AcDbCircle
6
CONTINUOUS
62
5
10
62.749991
20
142.000000
40
2.249991
100
AcDbArc
50
166.768279
51
-166.768279
0
POLYLINE
5
424
100
AcDbEntity
8
0
6
CONTINUOUS
62
5
100
AcDb2dPolyline
66
1
10
0.0
20
0.0
30
0.0
70
0
0
VERTEX
5
425
100
AcDbEntity
8
0
100
AcDbVertex
100
AcDb2dVertex
62
5
10
60.559732
20
142.515000
0
VERTEX
5
426
100
AcDbEntity
8
0
100
AcDbVertex
100
AcDb2dVertex
62
5
10
62.235000
20
142.515000
0
VERTEX
5
427
100
AcDbEntity
8
0
100
AcDbVertex
100
AcDb2dVertex
62
5
10
62.235000
20
144.190268
0
SEQEND
5
428
100
AcDbEntity
8
0
0
CIRCLE
5
429
100
AcDbEntity
8
0
100
AcDbCircle
6
CONTINUOUS
62
5
10
62.750000
20
150.000000
40
2.250000
0
ARC
5
42a
100
AcDbEntity
8
0
100
AcDbCircle
6
CONTINUOUS
62
5
10
62.750000
20
150.000000
40
4.000000
100
AcDbArc
50
102.998742
51
-102.998742
0
ARC
5
42b
100
AcDbEntity
8
0
100
AcDbCircle
6
CONTINUOUS
62
5
10
62.750000
20
150.000000
40
4.000000
100
AcDbArc
50
-77.001256
51
77.001256
0
LINE
5
42c
100
AcDbEntity
8
0
100
AcDbLine
6
CONTINUOUS
62
5
10
58.250000
20
138.000000
11
61.469375
21
138.000000
0
ARC
5
42d
100
AcDbEntity
8
0
100
AcDbCircle
6
CONTINUOUS
62
5
10
63.673983
20
137.000000
40
1.000000
100
AcDbArc
50
0.000000
51
75.432842
0
LINE
5
42e
100
AcDbEntity
8
0
100
AcDbLine
6
CONTINUOUS
62
5
10
64.673983
20
137.000000
11
64.673983
21
119.000000
0
ARC
5
42f
100
AcDbEntity
8
0
100
AcDbCircle
6
CONTINUOUS
62
5
10
63.673983
20
119.000000
40
1.000000
100
AcDbArc
50
-89.999999
51
0.000000
0
LINE
5
430
100
AcDbEntity
8
0
100
AcDbLine
6
CONTINUOUS
62
5
10
63.673983
20
118.000000
11
58.250000
21
118.000000
0
CIRCLE
5
431
100
AcDbEntity
8
0
100
AcDbCircle
6
CONTINUOUS
62
5
10
62.750000
20
142.000000
40
4.200000
0
POLYLINE
5
432
100
AcDbEntity
8
1
6
DOT2
62
5
100
AcDb2dPolyline
66
1
10
0.0
20
0.0
30
0.0
70
0
0
VERTEX
5
433
100
AcDbEntity
8
1
100
AcDbVertex
100
AcDb2dVertex
62
5
10
21.048983
20
154.375000
0
VERTEX
5
434
100
AcDbEntity
8
1
100
AcDbVertex
100
AcDb2dVertex
62
5
10
20.423983
20
155.312500
0
VERTEX
5
435
100
AcDbEntity
8
1
100
AcDbVertex
100
AcDb2dVertex
62
5
10
27.923983
20
155.312500
0
SEQEND
5
436
100
AcDbEntity
8
1
0
LINE
5
437
100
AcDbEntity
8
1
100
AcDbLine
6
DOT2
62
5
10
27.923983
20
154.687500
11
27.923983
21
155.937500
0
POLYLINE
5
438
100
AcDbEntity
8
1
6
DOT2
62
5
100
AcDb2dPolyline
66
1
10
0.0
20
0.0
30
0.0
70
0
0
VERTEX
5
439
100
AcDbEntity
8
1
100
AcDbVertex
100
AcDb2dVertex
62
5
10
21.048983
20
144.375000
0
VERTEX
5
43a
100
AcDbEntity
8
1
100
AcDbVertex
100
AcDb2dVertex
62
5
10
20.423983
20
145.312500
0
VERTEX
5
43b
100
AcDbEntity
8
1
100
AcDbVertex
100
AcDb2dVertex
62
5
10
27.923983
20
145.312500
0
SEQEND
5
43c
100
AcDbEntity
8
1
0
LINE
5
43d
100
AcDbEntity
8
1
100
AcDbLine
6
DOT2
62
5
10
27.923983
20
144.687500
11
27.923983
21
145.937500
0
POLYLINE
5
43e
100
AcDbEntity
8
1
6
DOT2
62
5
100
AcDb2dPolyline
66
1
10
0.0
20
0.0
30
0.0
70
0
0
VERTEX
5
43f
100
AcDbEntity
8
1
100
AcDbVertex
100
AcDb2dVertex
62
5
10
22.611483
20
148.750000
0
VERTEX
5
440
100
AcDbEntity
8
1
100
AcDbVertex
100
AcDb2dVertex
62
5
10
21.048983
20
149.062500
0
VERTEX
5
441
100
AcDbEntity
8
1
100
AcDbVertex
100
AcDb2dVertex
62
5
10
20.423983
20
150.000000
0
VERTEX
5
442
100
AcDbEntity
8
1
100
AcDbVertex
100
AcDb2dVertex
62
5
10
20.423983
20
150.937500
0
VERTEX
5
443
100
AcDbEntity
8
1
100
AcDbVertex
100
AcDb2dVertex
62
5
10
20.736483
20
151.562500
0
VERTEX
5
444
100
AcDbEntity
8
1
100
AcDbVertex
100
AcDb2dVertex
62
5
10
21.673983
20
151.875000
0
VERTEX
5
445
100
AcDbEntity
8
1
100
AcDbVertex
100
AcDb2dVertex
62
5
10
22.611483
20
151.875000
0
VERTEX
5
446
100
AcDbEntity
8
1
100
AcDbVertex
100
AcDb2dVertex
62
5
10
23.548983
20
151.562500
0
VERTEX
5
447
100
AcDbEntity
8
1
100
AcDbVertex
100
AcDb2dVertex
62
5
10
27.923983
20
148.750000
0
VERTEX
5
448
100
AcDbEntity
8
1
100
AcDbVertex
100
AcDb2dVertex
62
5
10
27.923983
20
151.875000
0
VERTEX
5
449
100
AcDbEntity
8
1
100
AcDbVertex
100
AcDb2dVertex
62
5
10
26.986483
20
151.875000
0
SEQEND
5
44a
100
AcDbEntity
8
1
0
ARC
5
44b
100
AcDbEntity
8
0
100
AcDbCircle
6
CONTINUOUS
62
5
10
68.250000
20
113.000000
40
2.250000
100
AcDbArc
50
-89.999999
51
89.999999
0
LINE
5
44c
100
AcDbEntity
8
0
100
AcDbLine
6
CONTINUOUS
62
5
10
68.250000
20
115.250000
11
66.250000
21
115.250000
0
ARC
5
44d
100
AcDbEntity
8
0
100
AcDbCircle
6
CONTINUOUS
62
5
10
66.250000
20
113.000000
40
2.250000
100
AcDbArc
50
89.999999
51
-89.999999
0
LINE
5
44e
100
AcDbEntity
8
0
100
AcDbLine
6
CONTINUOUS
62
5
10
66.250000
20
110.750000
11
68.250000
21
110.750000
0
ARC
5
44f
100
AcDbEntity
8
0
100
AcDbCircle
6
CONTINUOUS
62
5
10
68.250000
20
113.000000
40
4.000000
100
AcDbArc
50
-89.999999
51
89.999999
0
LINE
5
450
100
AcDbEntity
8
0
100
AcDbLine
6
CONTINUOUS
62
5
10
68.250000
20
109.000000
11
66.250000
21
109.000000
0
ARC
5
451
100
AcDbEntity
8
0
100
AcDbCircle
6
CONTINUOUS
62
5
10
66.250000
20
113.000000
40
4.000000
100
AcDbArc
50
89.999999
51
-89.999999
0
LINE
5
452
100
AcDbEntity
8
0
100
AcDbLine
6
CONTINUOUS
62
5
10
66.250000
20
117.000000
11
68.250000
21
117.000000
0
POLYLINE
5
453
100
AcDbEntity
8
0
6
CONTINUOUS
62
5
100
AcDb2dPolyline
66
1
10
0.0
20
0.0
30
0.0
70
1
0
VERTEX
5
454
100
AcDbEntity
8
0
100
AcDbVertex
100
AcDb2dVertex
62
5
10
64.750000
20
94.000000
0
VERTEX
5
455
100
AcDbEntity
8
0
100
AcDbVertex
100
AcDb2dVertex
62
5
10
64.750000
20
101.000000
0
VERTEX
5
456
100
AcDbEntity
8
0
100
AcDbVertex
100
AcDb2dVertex
62
5
10
66.750000
20
101.000000
0
VERTEX
5
457
100
AcDbEntity
8
0
100
AcDbVertex
100
AcDb2dVertex
62
5
10
66.750000
20
96.000000
0
VERTEX
5
458
100
AcDbEntity
8
0
100
AcDbVertex
100
AcDb2dVertex
62
5
10
76.750000
20
96.000000
0
VERTEX
5
459
100
AcDbEntity
8
0
100
AcDbVertex
100
AcDb2dVertex
62
5
10
76.750000
20
94.000000
0
SEQEND
5
45a
100
AcDbEntity
8
0
0
POLYLINE
5
45b
100
AcDbEntity
8
0
6
CONTINUOUS
62
5
100
AcDb2dPolyline
66
1
10
0.0
20
0.0
30
0.0
70
1
0
VERTEX
5
45c
100
AcDbEntity
8
0
100
AcDbVertex
100
AcDb2dVertex
62
5
10
149.550000
20
117.000000
0
VERTEX
5
45d
100
AcDbEntity
8
0
100
AcDbVertex
100
AcDb2dVertex
62
5
10
121.950000
20
117.000000
0
VERTEX
5
45e
100
AcDbEntity
8
0
100
AcDbVertex
100
AcDb2dVertex
62
5
10
122.130000
20
118.000000
0
VERTEX
5
45f
100
AcDbEntity
8
0
100
AcDbVertex
100
AcDb2dVertex
62
5
10
149.370000
20
118.000000
0
SEQEND
5
460
100
AcDbEntity
8
0
0
ARC
5
461
100
AcDbEntity
8
0
100
AcDbCircle
6
CONTINUOUS
62
5
10
75.861135
20
104.611135
40
0.500000
100
AcDbArc
50
179.999998
51
-89.999999
0
LINE
5
462
100
AcDbEntity
8
0
100
AcDbLine
6
CONTINUOUS
62
5
10
75.361135
20
104.611135
11
75.361135
21
107.111135
0
ARC
5
463
100
AcDbEntity
8
0
100
AcDbCircle
6
CONTINUOUS
62
5
10
74.861135
20
107.111135
40
0.500000
100
AcDbArc
50
0.000000
51
89.999999
0
LINE
5
464
100
AcDbEntity
8
0
100
AcDbLine
6
CONTINUOUS
62
5
10
74.861135
20
107.611135
11
58.250000
21
107.611135
0
LINE
5
465
100
AcDbEntity
8
0
100
AcDbLine
6
CONTINUOUS
62
5
10
167.250000
20
107.611135
11
150.638865
21
107.611135
0
ARC
5
466
100
AcDbEntity
8
0
100
AcDbCircle
6
CONTINUOUS
62
5
10
150.638865
20
107.111135
40
0.500000
100
AcDbArc
50
89.999999
51
179.999998
0
LINE
5
467
100
AcDbEntity
8
0
100
AcDbLine
6
CONTINUOUS
62
5
10
150.138865
20
107.111135
11
150.138865
21
104.611135
0
ARC
5
468
100
AcDbEntity
8
0
100
AcDbCircle
6
CONTINUOUS
62
5
10
149.638865
20
104.611135
40
0.500000
100
AcDbArc
50
-89.999999
51
0.000000
0
LINE
5
469
100
AcDbEntity
8
0
100
AcDbLine
6
CONTINUOUS
62
5
10
149.638865
20
104.111135
11
141.750000
21
104.111135
0
LINE
5
46a
100
AcDbEntity
8
0
100
AcDbLine
6
CONTINUOUS
62
5
10
129.750000
20
104.111135
11
95.750000
21
104.111135
0
LINE
5
46b
100
AcDbEntity
8
0
100
AcDbLine
6
CONTINUOUS
62
5
10
83.750000
20
104.111135
11
75.861135
21
104.111135
0
LINE
5
46c
100
AcDbEntity
8
1
100
AcDbLine
6
CONTINUOUS
62
5
10
40.000000
20
340.000000
11
40.000000
21
308.000000
0
LINE
5
46d
100
AcDbEntity
8
1
100
AcDbLine
6
CONTINUOUS
62
5
10
0.000000
20
308.000000
11
320.000000
21
308.000000
0
ARC
5
46e
100
AcDbEntity
8
0
100
AcDbCircle
6
CONTINUOUS
62
5
10
162.749999
20
158.000005
40
2.249995
100
AcDbArc
50
76.768289
51
103.231681
0
POLYLINE
5
46f
100
AcDbEntity
8
0
6
CONTINUOUS
62
5
100
AcDb2dPolyline
66
1
10
0.0
20
0.0
30
0.0
70
0
0
VERTEX
5
470
100
AcDbEntity
8
0
100
AcDbVertex
100
AcDb2dVertex
62
5
10
162.235000
20
160.190268
0
VERTEX
5
471
100
AcDbEntity
8
0
100
AcDbVertex
100
AcDb2dVertex
62
5
10
162.235000
20
158.515000
0
VERTEX
5
472
100
AcDbEntity
8
0
100
AcDbVertex
100
AcDb2dVertex
62
5
10
160.559732
20
158.515000
0
SEQEND
5
473
100
AcDbEntity
8
0
0
ARC
5
474
100
AcDbEntity
8
0
100
AcDbCircle
6
CONTINUOUS
62
5
10
162.749992
20
158.000001
40
2.249992
100
AcDbArc
50
166.768300
51
-166.768272
0
POLYLINE
5
475
100
AcDbEntity
8
0
6
CONTINUOUS
62
5
100
AcDb2dPolyline
66
1
10
0.0
20
0.0
30
0.0
70
0
0
VERTEX
5
476
100
AcDbEntity
8
0
100
AcDbVertex
100
AcDb2dVertex
62
5
10
160.559732
20
157.485000
0
VERTEX
5
477
100
AcDbEntity
8
0
100
AcDbVertex
100
AcDb2dVertex
62
5
10
162.235000
20
157.485000
0
VERTEX
5
478
100
AcDbEntity
8
0
100
AcDbVertex
100
AcDb2dVertex
62
5
10
162.235000
20
155.809732
0
SEQEND
5
479
100
AcDbEntity
8
0
0
ARC
5
47a
100
AcDbEntity
8
0
100
AcDbCircle
6
CONTINUOUS
62
5
10
162.749999
20
157.999993
40
2.249993
100
AcDbArc
50
-103.231693
51
-76.768278
0
POLYLINE
5
47b
100
AcDbEntity
8
0
6
CONTINUOUS
62
5
100
AcDb2dPolyline
66
1
10
0.0
20
0.0
30
0.0
70
0
0
VERTEX
5
47c
100
AcDbEntity
8
0
100
AcDbVertex
100
AcDb2dVertex
62
5
10
163.265000
20
155.809732
0
VERTEX
5
47d
100
AcDbEntity
8
0
100
AcDbVertex
100
AcDb2dVertex
62
5
10
163.265000
20
157.485000
0
VERTEX
5
47e
100
AcDbEntity
8
0
100
AcDbVertex
100
AcDb2dVertex
62
5
10
164.940268
20
157.485000
0
SEQEND
5
47f
100
AcDbEntity
8
0
0
ARC
5
480
100
AcDbEntity
8
0
100
AcDbCircle
6
CONTINUOUS
62
5
10
162.750009
20
158.000000
40
2.249991
100
AcDbArc
50
-13.231719
51
13.231719
0
POLYLINE
5
481
100
AcDbEntity
8
0
6
CONTINUOUS
62
5
100
AcDb2dPolyline
66
1
10
0.0
20
0.0
30
0.0
70
0
0
VERTEX
5
482
100
AcDbEntity
8
0
100
AcDbVertex
100
AcDb2dVertex
62
5
10
164.940268
20
158.515000
0
VERTEX
5
483
100
AcDbEntity
8
0
100
AcDbVertex
100
AcDb2dVertex
62
5
10
163.265000
20
158.515000
0
VERTEX
5
484
100
AcDbEntity
8
0
100
AcDbVertex
100
AcDb2dVertex
62
5
10
163.265000
20
160.190268
0
SEQEND
5
485
100
AcDbEntity
8
0
0
ARC
5
486
100
AcDbEntity
8
0
100
AcDbCircle
6
CONTINUOUS
62
5
10
135.750000
20
167.000000
40
8.500000
100
AcDbArc
50
-172.395749
51
-7.604249
0
LINE
5
487
100
AcDbEntity
8
0
100
AcDbLine
6
CONTINUOUS
62
5
10
144.175249
20
165.875196
11
145.191795
21
165.950000
0
ARC
5
488
100
AcDbEntity
8
0
100
AcDbCircle
6
CONTINUOUS
62
5
10
135.750000
20
167.000000
40
9.500000
100
AcDbArc
50
-173.654342
51
-6.345656
0
LINE
5
489
100
AcDbEntity
8
0
100
AcDbLine
6
CONTINUOUS
62
5
10
126.308205
20
165.950000
11
127.324751
21
165.875196
0
ARC
5
48a
100
AcDbEntity
8
0
100
AcDbCircle
6
CONTINUOUS
62
5
10
89.750000
20
167.000000
40
8.500000
100
AcDbArc
50
-172.395749
51
-7.604249
0
LINE
5
48b
100
AcDbEntity
8
0
100
AcDbLine
6
CONTINUOUS
62
5
10
98.175249
20
165.875196
11
99.191795
21
165.950000
0
ARC
5
48c
100
AcDbEntity
8
0
100
AcDbCircle
6
CONTINUOUS
62
5
10
89.750000
20
167.000000
40
9.500000
100
AcDbArc
50
-173.654342
51
-6.345656
0
LINE
5
48d
100
AcDbEntity
8
0
100
AcDbLine
6
CONTINUOUS
62
5
10
80.308205
20
165.950000
11
81.324751
21
165.875196
0
ARC
5
48e
100
AcDbEntity
8
0
100
AcDbCircle
6
CONTINUOUS
62
5
10
62.750001
20
158.000005
40
2.249995
100
AcDbArc
50
76.768317
51
103.231709
0
POLYLINE
5
48f
100
AcDbEntity
8
0
6
CONTINUOUS
62
5
100
AcDb2dPolyline
66
1
10
0.0
20
0.0
30
0.0
70
0
0
VERTEX
5
490
100
AcDbEntity
8
0
100
AcDbVertex
100
AcDb2dVertex
62
5
10
63.265000
20
160.190268
0
VERTEX
5
491
100
AcDbEntity
8
0
100
AcDbVertex
100
AcDb2dVertex
62
5
10
63.265000
20
158.515000
0
VERTEX
5
492
100
AcDbEntity
8
0
100
AcDbVertex
100
AcDb2dVertex
62
5
10
64.940268
20
158.515000
0
SEQEND
5
493
100
AcDbEntity
8
0
0
ARC
5
494
100
AcDbEntity
8
0
100
AcDbCircle
6
CONTINUOUS
62
5
10
62.750008
20
158.000001
40
2.249992
100
AcDbArc
50
-13.231726
51
13.231699
0
POLYLINE
5
495
100
AcDbEntity
8
0
6
CONTINUOUS
62
5
100
AcDb2dPolyline
66
1
10
0.0
20
0.0
30
0.0
70
0
0
VERTEX
5
496
100
AcDbEntity
8
0
100
AcDbVertex
100
AcDb2dVertex
62
5
10
64.940268
20
157.485000
0
VERTEX
5
497
100
AcDbEntity
8
0
100
AcDbVertex
100
AcDb2dVertex
62
5
10
63.265000
20
157.485000
0
VERTEX
5
498
100
AcDbEntity
8
0
100
AcDbVertex
100
AcDb2dVertex
62
5
10
63.265000
20
155.809732
0
SEQEND
5
499
100
AcDbEntity
8
0
0
ARC
5
49a
100
AcDbEntity
8
0
100
AcDbCircle
6
CONTINUOUS
62
5
10
62.750001
20
157.999993
40
2.249993
100
AcDbArc
50
-103.231720
51
-76.768306
0
POLYLINE
5
49b
100
AcDbEntity
8
0
6
CONTINUOUS
62
5
100
AcDb2dPolyline
66
1
10
0.0
20
0.0
30
0.0
70
0
0
VERTEX
5
49c
100
AcDbEntity
8
0
100
AcDbVertex
100
AcDb2dVertex
62
5
10
62.235000
20
155.809732
0
VERTEX
5
49d
100
AcDbEntity
8
0
100
AcDbVertex
100
AcDb2dVertex
62
5
10
62.235000
20
157.485000
0
VERTEX
5
49e
100
AcDbEntity
8
0
100
AcDbVertex
100
AcDb2dVertex
62
5
10
60.559732
20
157.485000
0
SEQEND
5
49f
100
AcDbEntity
8
0
0
ARC
5
4a0
100
AcDbEntity
8
0
100
AcDbCircle
6
CONTINUOUS
62
5
10
62.749991
20
158.000000
40
2.249991
100
AcDbArc
50
166.768279
51
-166.768279
0
POLYLINE
5
4a1
100
AcDbEntity
8
0
6
CONTINUOUS
62
5
100
AcDb2dPolyline
66
1
10
0.0
20
0.0
30
0.0
70
0
0
VERTEX
5
4a2
100
AcDbEntity
8
0
100
AcDbVertex
100
AcDb2dVertex
62
5
10
60.559732
20
158.515000
0
VERTEX
5
4a3
100
AcDbEntity
8
0
100
AcDbVertex
100
AcDb2dVertex
62
5
10
62.235000
20
158.515000
0
VERTEX
5
4a4
100
AcDbEntity
8
0
100
AcDbVertex
100
AcDb2dVertex
62
5
10
62.235000
20
160.190268
0
SEQEND
5
4a5
100
AcDbEntity
8
0
0
CIRCLE
5
4a6
100
AcDbEntity
8
0
100
AcDbCircle
6
CONTINUOUS
62
5
10
62.750000
20
158.000000
40
4.200000
0
CIRCLE
5
4a7
100
AcDbEntity
8
0
100
AcDbCircle
6
CONTINUOUS
62
5
10
162.750000
20
158.000000
40
4.200000
0
LINE
5
4a8
100
AcDbEntity
8
1
100
AcDbLine
6
CONTINUOUS
62
5
10
226.326017
20
210.023983
11
199.326017
21
210.023983
0
LINE
5
4a9
100
AcDbEntity
8
1
100
AcDbLine
6
CONTINUOUS
62
5
10
226.326017
20
90.023983
11
199.326017
21
90.023983
0
POLYLINE
5
4aa
100
AcDbEntity
8
1
6
CONTINUOUS
62
5
100
AcDb2dPolyline
66
1
10
0.0
20
0.0
30
0.0
70
0
0
VERTEX
5
4ab
100
AcDbEntity
8
1
100
AcDbVertex
100
AcDb2dVertex
62
5
10
201.326017
20
150.023983
0
VERTEX
5
4ac
100
AcDbEntity
8
1
100
AcDbVertex
100
AcDb2dVertex
62
5
10
201.326017
20
90.023983
0
VERTEX
5
4ad
100
AcDbEntity
8
1
100
AcDbVertex
100
AcDb2dVertex
62
5
10
200.326017
20
96.023983
0
VERTEX
5
4ae
100
AcDbEntity
8
1
100
AcDbVertex
100
AcDb2dVertex
62
5
10
202.326017
20
96.023983
0
VERTEX
5
4af
100
AcDbEntity
8
1
100
AcDbVertex
100
AcDb2dVertex
62
5
10
201.326017
20
90.023983
0
VERTEX
5
4b0
100
AcDbEntity
8
1
100
AcDbVertex
100
AcDb2dVertex
62
5
10
200.826017
20
96.023983
0
VERTEX
5
4b1
100
AcDbEntity
8
1
100
AcDbVertex
100
AcDb2dVertex
62
5
10
201.826017
20
96.023983
0
VERTEX
5
4b2
100
AcDbEntity
8
1
100
AcDbVertex
100
AcDb2dVertex
62
5
10
201.326017
20
90.023983
0
SEQEND
5
4b3
100
AcDbEntity
8
1
0
POLYLINE
5
4b4
100
AcDbEntity
8
1
6
CONTINUOUS
62
5
100
AcDb2dPolyline
66
1
10
0.0
20
0.0
30
0.0
70
0
0
VERTEX
5
4b5
100
AcDbEntity
8
1
100
AcDbVertex
100
AcDb2dVertex
62
5
10
201.326017
20
150.023983
0
VERTEX
5
4b6
100
AcDbEntity
8
1
100
AcDbVertex
100
AcDb2dVertex
62
5
10
201.326017
20
210.023983
0
VERTEX
5
4b7
100
AcDbEntity
8
1
100
AcDbVertex
100
AcDb2dVertex
62
5
10
202.326017
20
204.023983
0
VERTEX
5
4b8
100
AcDbEntity
8
1
100
AcDbVertex
100
AcDb2dVertex
62
5
10
200.326017
20
204.023983
0
VERTEX
5
4b9
100
AcDbEntity
8
1
100
AcDbVertex
100
AcDb2dVertex
62
5
10
201.326017
20
210.023983
0
VERTEX
5
4ba
100
AcDbEntity
8
1
100
AcDbVertex
100
AcDb2dVertex
62
5
10
201.826017
20
204.023983
0
VERTEX
5
4bb
100
AcDbEntity
8
1
100
AcDbVertex
100
AcDb2dVertex
62
5
10
200.826017
20
204.023983
0
VERTEX
5
4bc
100
AcDbEntity
8
1
100
AcDbVertex
100
AcDb2dVertex
62
5
10
201.326017
20
210.023983
0
SEQEND
5
4bd
100
AcDbEntity
8
1
0
LINE
5
4be
100
AcDbEntity
8
1
100
AcDbLine
6
CONTINUOUS
62
5
10
60.273983
20
210.500000
11
27.173983
21
210.500000
0
LINE
5
4bf
100
AcDbEntity
8
1
100
AcDbLine
6
CONTINUOUS
62
5
10
60.273983
20
89.500000
11
27.173983
21
89.500000
0
POLYLINE
5
4c0
100
AcDbEntity
8
1
6
CONTINUOUS
62
5
100
AcDb2dPolyline
66
1
10
0.0
20
0.0
30
0.0
70
0
0
VERTEX
5
4c1
100
AcDbEntity
8
1
100
AcDbVertex
100
AcDb2dVertex
62
5
10
29.173983
20
150.000000
0
VERTEX
5
4c2
100
AcDbEntity
8
1
100
AcDbVertex
100
AcDb2dVertex
62
5
10
29.173983
20
89.500000
0
VERTEX
5
4c3
100
AcDbEntity
8
1
100
AcDbVertex
100
AcDb2dVertex
62
5
10
28.173983
20
95.500000
0
VERTEX
5
4c4
100
AcDbEntity
8
1
100
AcDbVertex
100
AcDb2dVertex
62
5
10
30.173983
20
95.500000
0
VERTEX
5
4c5
100
AcDbEntity
8
1
100
AcDbVertex
100
AcDb2dVertex
62
5
10
29.173983
20
89.500000
0
VERTEX
5
4c6
100
AcDbEntity
8
1
100
AcDbVertex
100
AcDb2dVertex
62
5
10
28.673983
20
95.500000
0
VERTEX
5
4c7
100
AcDbEntity
8
1
100
AcDbVertex
100
AcDb2dVertex
62
5
10
29.673983
20
95.500000
0
VERTEX
5
4c8
100
AcDbEntity
8
1
100
AcDbVertex
100
AcDb2dVertex
62
5
10
29.173983
20
89.500000
0
SEQEND
5
4c9
100
AcDbEntity
8
1
0
POLYLINE
5
4ca
100
AcDbEntity
8
1
6
CONTINUOUS
62
5
100
AcDb2dPolyline
66
1
10
0.0
20
0.0
30
0.0
70
0
0
VERTEX
5
4cb
100
AcDbEntity
8
1
100
AcDbVertex
100
AcDb2dVertex
62
5
10
29.173983
20
150.000000
0
VERTEX
5
4cc
100
AcDbEntity
8
1
100
AcDbVertex
100
AcDb2dVertex
62
5
10
29.173983
20
210.500000
0
VERTEX
5
4cd
100
AcDbEntity
8
1
100
AcDbVertex
100
AcDb2dVertex
62
5
10
30.173983
20
204.500000
0
VERTEX
5
4ce
100
AcDbEntity
8
1
100
AcDbVertex
100
AcDb2dVertex
62
5
10
28.173983
20
204.500000
0
VERTEX
5
4cf
100
AcDbEntity
8
1
100
AcDbVertex
100
AcDb2dVertex
62
5
10
29.173983
20
210.500000
0
VERTEX
5
4d0
100
AcDbEntity
8
1
100
AcDbVertex
100
AcDb2dVertex
62
5
10
29.673983
20
204.500000
0
VERTEX
5
4d1
100
AcDbEntity
8
1
100
AcDbVertex
100
AcDb2dVertex
62
5
10
28.673983
20
204.500000
0
VERTEX
5
4d2
100
AcDbEntity
8
1
100
AcDbVertex
100
AcDb2dVertex
62
5
10
29.173983
20
210.500000
0
SEQEND
5
4d3
100
AcDbEntity
8
1
0
POLYLINE
5
4d4
100
AcDbEntity
8
0
6
CONTINUOUS
62
5
100
AcDb2dPolyline
66
1
10
0.0
20
0.0
30
0.0
70
1
0
VERTEX
5
4d5
100
AcDbEntity
8
0
100
AcDbVertex
100
AcDb2dVertex
62
5
10
227.826017
20
210.023983
0
VERTEX
5
4d6
100
AcDbEntity
8
0
100
AcDbVertex
100
AcDb2dVertex
62
5
10
227.826017
20
90.023983
0
VERTEX
5
4d7
100
AcDbEntity
8
0
100
AcDbVertex
100
AcDb2dVertex
62
5
10
265.826017
20
89.500000
0
VERTEX
5
4d8
100
AcDbEntity
8
0
100
AcDbVertex
100
AcDb2dVertex
62
5
10
265.826017
20
210.500000
0
SEQEND
5
4d9
100
AcDbEntity
8
0
0
ARC
5
4da
100
AcDbEntity
8
0
100
AcDbCircle
6
CONTINUOUS
62
5
10
150.750000
20
122.000000
40
1.000000
100
AcDbArc
50
-89.999999
51
0.000000
0
LINE
5
4db
100
AcDbEntity
8
0
100
AcDbLine
6
CONTINUOUS
62
5
10
151.750000
20
122.000000
11
151.750000
21
178.000000
0
ARC
5
4dc
100
AcDbEntity
8
0
100
AcDbCircle
6
CONTINUOUS
62
5
10
150.750000
20
178.000000
40
1.000000
100
AcDbArc
50
0.000000
51
89.999999
0
LINE
5
4dd
100
AcDbEntity
8
0
100
AcDbLine
6
CONTINUOUS
62
5
10
150.750000
20
179.000000
11
120.750000
21
179.000000
0
ARC
5
4de
100
AcDbEntity
8
0
100
AcDbCircle
6
CONTINUOUS
62
5
10
120.750000
20
178.000000
40
1.000000
100
AcDbArc
50
89.999999
51
179.999998
0
LINE
5
4df
100
AcDbEntity
8
0
100
AcDbLine
6
CONTINUOUS
62
5
10
119.750000
20
178.000000
11
119.750000
21
122.000000
0
ARC
5
4e0
100
AcDbEntity
8
0
100
AcDbCircle
6
CONTINUOUS
62
5
10
120.750000
20
122.000000
40
1.000000
100
AcDbArc
50
179.999998
51
-89.999999
0
LINE
5
4e1
100
AcDbEntity
8
0
100
AcDbLine
6
CONTINUOUS
62
5
10
120.750000
20
121.000000
11
150.750000
21
121.000000
0
ARC
5
4e2
100
AcDbEntity
8
0
100
AcDbCircle
6
CONTINUOUS
62
5
10
104.750000
20
122.000000
40
1.000000
100
AcDbArc
50
-89.999999
51
0.000000
0
LINE
5
4e3
100
AcDbEntity
8
0
100
AcDbLine
6
CONTINUOUS
62
5
10
105.750000
20
122.000000
11
105.750000
21
178.000000
0
ARC
5
4e4
100
AcDbEntity
8
0
100
AcDbCircle
6
CONTINUOUS
62
5
10
104.750000
20
178.000000
40
1.000000
100
AcDbArc
50
0.000000
51
89.999999
0
LINE
5
4e5
100
AcDbEntity
8
0
100
AcDbLine
6
CONTINUOUS
62
5
10
104.750000
20
179.000000
11
74.750000
21
179.000000
0
ARC
5
4e6
100
AcDbEntity
8
0
100
AcDbCircle
6
CONTINUOUS
62
5
10
74.750000
20
178.000000
40
1.000000
100
AcDbArc
50
89.999999
51
179.999998
0
LINE
5
4e7
100
AcDbEntity
8
0
100
AcDbLine
6
CONTINUOUS
62
5
10
73.750000
20
178.000000
11
73.750000
21
122.000000
0
ARC
5
4e8
100
AcDbEntity
8
0
100
AcDbCircle
6
CONTINUOUS
62
5
10
74.750000
20
122.000000
40
1.000000
100
AcDbArc
50
179.999998
51
-89.999999
0
LINE
5
4e9
100
AcDbEntity
8
0
100
AcDbLine
6
CONTINUOUS
62
5
10
74.750000
20
121.000000
11
104.750000
21
121.000000
0
ARC
5
4ea
100
AcDbEntity
8
0
100
AcDbCircle
6
CONTINUOUS
62
5
10
152.750000
20
180.000000
40
3.000000
100
AcDbArc
50
0.000000
51
89.999999
0
POLYLINE
5
4eb
100
AcDbEntity
8
0
6
CONTINUOUS
62
5
100
AcDb2dPolyline
66
1
10
0.0
20
0.0
30
0.0
70
0
0
VERTEX
5
4ec
100
AcDbEntity
8
0
100
AcDbVertex
100
AcDb2dVertex
62
5
10
152.750000
20
183.000000
0
VERTEX
5
4ed
100
AcDbEntity
8
0
100
AcDbVertex
100
AcDb2dVertex
62
5
10
151.950000
20
183.000000
0
VERTEX
5
4ee
100
AcDbEntity
8
0
100
AcDbVertex
100
AcDb2dVertex
62
5
10
152.130000
20
182.000000
0
VERTEX
5
4ef
100
AcDbEntity
8
0
100
AcDbVertex
100
AcDb2dVertex
62
5
10
152.750000
20
182.000000
0
SEQEND
5
4f0
100
AcDbEntity
8
0
0
ARC
5
4f1
100
AcDbEntity
8
0
100
AcDbCircle
6
CONTINUOUS
62
5
10
152.750000
20
180.000000
40
2.000000
100
AcDbArc
50
0.000000
51
89.999999
0
LINE
5
4f2
100
AcDbEntity
8
0
100
AcDbLine
6
CONTINUOUS
62
5
10
154.750000
20
180.000000
11
154.750000
21
120.000000
0
ARC
5
4f3
100
AcDbEntity
8
0
100
AcDbCircle
6
CONTINUOUS
62
5
10
152.750000
20
120.000000
40
2.000000
100
AcDbArc
50
-89.999999
51
0.000000
0
POLYLINE
5
4f4
100
AcDbEntity
8
0
6
CONTINUOUS
62
5
100
AcDb2dPolyline
66
1
10
0.0
20
0.0
30
0.0
70
0
0
VERTEX
5
4f5
100
AcDbEntity
8
0
100
AcDbVertex
100
AcDb2dVertex
62
5
10
152.750000
20
118.000000
0
VERTEX
5
4f6
100
AcDbEntity
8
0
100
AcDbVertex
100
AcDb2dVertex
62
5
10
152.130000
20
118.000000
0
VERTEX
5
4f7
100
AcDbEntity
8
0
100
AcDbVertex
100
AcDb2dVertex
62
5
10
151.950000
20
117.000000
0
VERTEX
5
4f8
100
AcDbEntity
8
0
100
AcDbVertex
100
AcDb2dVertex
62
5
10
152.750000
20
117.000000
0
SEQEND
5
4f9
100
AcDbEntity
8
0
0
ARC
5
4fa
100
AcDbEntity
8
0
100
AcDbCircle
6
CONTINUOUS
62
5
10
152.750000
20
120.000000
40
3.000000
100
AcDbArc
50
-89.999999
51
0.000000
0
LINE
5
4fb
100
AcDbEntity
8
0
100
AcDbLine
6
CONTINUOUS
62
5
10
155.750000
20
120.000000
11
155.750000
21
180.000000
0
ARC
5
4fc
100
AcDbEntity
8
0
100
AcDbCircle
6
CONTINUOUS
62
5
10
106.750000
20
180.000000
40
3.000000
100
AcDbArc
50
0.000000
51
89.999999
0
POLYLINE
5
4fd
100
AcDbEntity
8
0
6
CONTINUOUS
62
5
100
AcDb2dPolyline
66
1
10
0.0
20
0.0
30
0.0
70
0
0
VERTEX
5
4fe
100
AcDbEntity
8
0
100
AcDbVertex
100
AcDb2dVertex
62
5
10
106.750000
20
183.000000
0
VERTEX
5
4ff
100
AcDbEntity
8
0
100
AcDbVertex
100
AcDb2dVertex
62
5
10
105.950000
20
183.000000
0
VERTEX
5
500
100
AcDbEntity
8
0
100
AcDbVertex
100
AcDb2dVertex
62
5
10
106.130000
20
182.000000
0
VERTEX
5
501
100
AcDbEntity
8
0
100
AcDbVertex
100
AcDb2dVertex
62
5
10
106.750000
20
182.000000
0
SEQEND
5
502
100
AcDbEntity
8
0
0
ARC
5
503
100
AcDbEntity
8
0
100
AcDbCircle
6
CONTINUOUS
62
5
10
106.750000
20
180.000000
40
2.000000
100
AcDbArc
50
0.000000
51
89.999999
0
LINE
5
504
100
AcDbEntity
8
0
100
AcDbLine
6
CONTINUOUS
62
5
10
108.750000
20
180.000000
11
108.750000
21
120.000000
0
ARC
5
505
100
AcDbEntity
8
0
100
AcDbCircle
6
CONTINUOUS
62
5
10
106.750000
20
120.000000
40
2.000000
100
AcDbArc
50
-89.999999
51
0.000000
0
POLYLINE
5
506
100
AcDbEntity
8
0
6
CONTINUOUS
62
5
100
AcDb2dPolyline
66
1
10
0.0
20
0.0
30
0.0
70
0
0
VERTEX
5
507
100
AcDbEntity
8
0
100
AcDbVertex
100
AcDb2dVertex
62
5
10
106.750000
20
118.000000
0
VERTEX
5
508
100
AcDbEntity
8
0
100
AcDbVertex
100
AcDb2dVertex
62
5
10
106.130000
20
118.000000
0
VERTEX
5
509
100
AcDbEntity
8
0
100
AcDbVertex
100
AcDb2dVertex
62
5
10
105.950000
20
117.000000
0
VERTEX
5
50a
100
AcDbEntity
8
0
100
AcDbVertex
100
AcDb2dVertex
62
5
10
106.750000
20
117.000000
0
SEQEND
5
50b
100
AcDbEntity
8
0
0
ARC
5
50c
100
AcDbEntity
8
0
100
AcDbCircle
6
CONTINUOUS
62
5
10
106.750000
20
120.000000
40
3.000000
100
AcDbArc
50
-89.999999
51
0.000000
0
LINE
5
50d
100
AcDbEntity
8
0
100
AcDbLine
6
CONTINUOUS
62
5
10
109.750000
20
120.000000
11
109.750000
21
180.000000
0
ARC
5
50e
100
AcDbEntity
8
0
100
AcDbCircle
6
CONTINUOUS
62
5
10
118.750000
20
180.000000
40
3.000000
100
AcDbArc
50
89.999999
51
179.999998
0
POLYLINE
5
50f
100
AcDbEntity
8
0
6
CONTINUOUS
62
5
100
AcDb2dPolyline
66
1
10
0.0
20
0.0
30
0.0
70
0
0
VERTEX
5
510
100
AcDbEntity
8
0
100
AcDbVertex
100
AcDb2dVertex
62
5
10
118.750000
20
183.000000
0
VERTEX
5
511
100
AcDbEntity
8
0
100
AcDbVertex
100
AcDb2dVertex
62
5
10
119.550000
20
183.000000
0
VERTEX
5
512
100
AcDbEntity
8
0
100
AcDbVertex
100
AcDb2dVertex
62
5
10
119.370000
20
182.000000
0
VERTEX
5
513
100
AcDbEntity
8
0
100
AcDbVertex
100
AcDb2dVertex
62
5
10
118.750000
20
182.000000
0
SEQEND
5
514
100
AcDbEntity
8
0
0
ARC
5
515
100
AcDbEntity
8
0
100
AcDbCircle
6
CONTINUOUS
62
5
10
118.750000
20
180.000000
40
2.000000
100
AcDbArc
50
89.999999
51
179.999998
0
LINE
5
516
100
AcDbEntity
8
0
100
AcDbLine
6
CONTINUOUS
62
5
10
116.750000
20
180.000000
11
116.750000
21
120.000000
0
ARC
5
517
100
AcDbEntity
8
0
100
AcDbCircle
6
CONTINUOUS
62
5
10
118.750000
20
120.000000
40
2.000000
100
AcDbArc
50
179.999998
51
-89.999999
0
POLYLINE
5
518
100
AcDbEntity
8
0
6
CONTINUOUS
62
5
100
AcDb2dPolyline
66
1
10
0.0
20
0.0
30
0.0
70
0
0
VERTEX
5
519
100
AcDbEntity
8
0
100
AcDbVertex
100
AcDb2dVertex
62
5
10
118.750000
20
118.000000
0
VERTEX
5
51a
100
AcDbEntity
8
0
100
AcDbVertex
100
AcDb2dVertex
62
5
10
119.370000
20
118.000000
0
VERTEX
5
51b
100
AcDbEntity
8
0
100
AcDbVertex
100
AcDb2dVertex
62
5
10
119.550000
20
117.000000
0
VERTEX
5
51c
100
AcDbEntity
8
0
100
AcDbVertex
100
AcDb2dVertex
62
5
10
118.750000
20
117.000000
0
SEQEND
5
51d
100
AcDbEntity
8
0
0
ARC
5
51e
100
AcDbEntity
8
0
100
AcDbCircle
6
CONTINUOUS
62
5
10
118.750000
20
120.000000
40
3.000000
100
AcDbArc
50
179.999998
51
-89.999999
0
LINE
5
51f
100
AcDbEntity
8
0
100
AcDbLine
6
CONTINUOUS
62
5
10
115.750000
20
120.000000
11
115.750000
21
180.000000
0
ARC
5
520
100
AcDbEntity
8
0
100
AcDbCircle
6
CONTINUOUS
62
5
10
72.750000
20
180.000000
40
3.000000
100
AcDbArc
50
89.999999
51
179.999998
0
POLYLINE
5
521
100
AcDbEntity
8
0
6
CONTINUOUS
62
5
100
AcDb2dPolyline
66
1
10
0.0
20
0.0
30
0.0
70
0
0
VERTEX
5
522
100
AcDbEntity
8
0
100
AcDbVertex
100
AcDb2dVertex
62
5
10
72.750000
20
183.000000
0
VERTEX
5
523
100
AcDbEntity
8
0
100
AcDbVertex
100
AcDb2dVertex
62
5
10
73.550000
20
183.000000
0
VERTEX
5
524
100
AcDbEntity
8
0
100
AcDbVertex
100
AcDb2dVertex
62
5
10
73.370000
20
182.000000
0
VERTEX
5
525
100
AcDbEntity
8
0
100
AcDbVertex
100
AcDb2dVertex
62
5
10
72.750000
20
182.000000
0
SEQEND
5
526
100
AcDbEntity
8
0
0
ARC
5
527
100
AcDbEntity
8
0
100
AcDbCircle
6
CONTINUOUS
62
5
10
72.750000
20
180.000000
40
2.000000
100
AcDbArc
50
89.999999
51
179.999998
0
LINE
5
528
100
AcDbEntity
8
0
100
AcDbLine
6
CONTINUOUS
62
5
10
70.750000
20
180.000000
11
70.750000
21
120.000000
0
ARC
5
529
100
AcDbEntity
8
0
100
AcDbCircle
6
CONTINUOUS
62
5
10
72.750000
20
120.000000
40
2.000000
100
AcDbArc
50
179.999998
51
-89.999999
0
POLYLINE
5
52a
100
AcDbEntity
8
0
6
CONTINUOUS
62
5
100
AcDb2dPolyline
66
1
10
0.0
20
0.0
30
0.0
70
0
0
VERTEX
5
52b
100
AcDbEntity
8
0
100
AcDbVertex
100
AcDb2dVertex
62
5
10
72.750000
20
118.000000
0
VERTEX
5
52c
100
AcDbEntity
8
0
100
AcDbVertex
100
AcDb2dVertex
62
5
10
73.370000
20
118.000000
0
VERTEX
5
52d
100
AcDbEntity
8
0
100
AcDbVertex
100
AcDb2dVertex
62
5
10
73.550000
20
117.000000
0
VERTEX
5
52e
100
AcDbEntity
8
0
100
AcDbVertex
100
AcDb2dVertex
62
5
10
72.750000
20
117.000000
0
SEQEND
5
52f
100
AcDbEntity
8
0
0
ARC
5
530
100
AcDbEntity
8
0
100
AcDbCircle
6
CONTINUOUS
62
5
10
72.750000
20
120.000000
40
3.000000
100
AcDbArc
50
179.999998
51
-89.999999
0
LINE
5
531
100
AcDbEntity
8
0
100
AcDbLine
6
CONTINUOUS
62
5
10
69.750000
20
120.000000
11
69.750000
21
180.000000
0
ARC
5
532
100
AcDbEntity
8
1
100
AcDbCircle
6
CONTINUOUS
62
5
10
61.773983
20
202.900000
40
7.600000
100
AcDbArc
50
89.999999
51
179.999998
0
LINE
5
533
100
AcDbEntity
8
1
100
AcDbLine
6
CONTINUOUS
62
5
10
54.173983
20
202.900000
11
54.173983
21
97.100000
0
ARC
5
534
100
AcDbEntity
8
1
100
AcDbCircle
6
CONTINUOUS
62
5
10
61.773983
20
97.100000
40
7.600000
100
AcDbArc
50
179.999998
51
-89.999999
0
LINE
5
535
100
AcDbEntity
8
1
100
AcDbLine
6
CONTINUOUS
62
5
10
61.773983
20
89.500000
11
163.726017
21
89.500000
0
ARC
5
536
100
AcDbEntity
8
1
100
AcDbCircle
6
CONTINUOUS
62
5
10
163.726017
20
97.100000
40
7.600000
100
AcDbArc
50
-89.999999
51
0.000000
0
LINE
5
537
100
AcDbEntity
8
1
100
AcDbLine
6
CONTINUOUS
62
5
10
171.326017
20
97.100000
11
171.326017
21
202.900000
0
ARC
5
538
100
AcDbEntity
8
1
100
AcDbCircle
6
CONTINUOUS
62
5
10
163.726017
20
202.900000
40
7.600000
100
AcDbArc
50
0.000000
51
89.999999
0
LINE
5
539
100
AcDbEntity
8
1
100
AcDbLine
6
CONTINUOUS
62
5
10
163.726017
20
210.500000
11
61.773983
21
210.500000
0
ARC
5
53a
100
AcDbEntity
8
0
100
AcDbCircle
6
CONTINUOUS
62
5
10
151.250000
20
106.500000
40
0.500000
100
AcDbArc
50
89.999999
51
179.999998
0
LINE
5
53b
100
AcDbEntity
8
0
100
AcDbLine
6
CONTINUOUS
62
5
10
150.750000
20
106.500000
11
150.750000
21
104.000000
0
ARC
5
53c
100
AcDbEntity
8
0
100
AcDbCircle
6
CONTINUOUS
62
5
10
150.250000
20
104.000000
40
0.500000
100
AcDbArc
50
-89.999999
51
0.000000
0
POLYLINE
5
53d
100
AcDbEntity
8
0
6
CONTINUOUS
62
5
100
AcDb2dPolyline
66
1
10
0.0
20
0.0
30
0.0
70
0
0
VERTEX
5
53e
100
AcDbEntity
8
0
100
AcDbVertex
100
AcDb2dVertex
62
5
10
150.250000
20
103.500000
0
VERTEX
5
53f
100
AcDbEntity
8
0
100
AcDbVertex
100
AcDb2dVertex
62
5
10
114.000000
20
103.500000
0
VERTEX
5
540
100
AcDbEntity
8
0
100
AcDbVertex
100
AcDb2dVertex
62
5
10
114.000000
20
102.500000
0
VERTEX
5
541
100
AcDbEntity
8
0
100
AcDbVertex
100
AcDb2dVertex
62
5
10
111.500000
20
102.500000
0
VERTEX
5
542
100
AcDbEntity
8
0
100
AcDbVertex
100
AcDb2dVertex
62
5
10
111.500000
20
103.500000
0
VERTEX
5
543
100
AcDbEntity
8
0
100
AcDbVertex
100
AcDb2dVertex
62
5
10
75.250000
20
103.500000
0
SEQEND
5
544
100
AcDbEntity
8
0
0
ARC
5
545
100
AcDbEntity
8
0
100
AcDbCircle
6
CONTINUOUS
62
5
10
75.250000
20
104.000000
40
0.500000
100
AcDbArc
50
179.999998
51
-89.999999
0
LINE
5
546
100
AcDbEntity
8
0
100
AcDbLine
6
CONTINUOUS
62
5
10
74.750000
20
104.000000
11
74.750000
21
106.500000
0
ARC
5
547
100
AcDbEntity
8
0
100
AcDbCircle
6
CONTINUOUS
62
5
10
74.250000
20
106.500000
40
0.500000
100
AcDbArc
50
0.000000
51
89.999999
0
POLYLINE
5
548
100
AcDbEntity
8
0
6
CONTINUOUS
62
5
100
AcDb2dPolyline
66
1
10
0.0
20
0.0
30
0.0
70
0
0
VERTEX
5
549
100
AcDbEntity
8
0
100
AcDbVertex
100
AcDb2dVertex
62
5
10
74.250000
20
107.000000
0
VERTEX
5
54a
100
AcDbEntity
8
0
100
AcDbVertex
100
AcDb2dVertex
62
5
10
58.250000
20
107.000000
0
VERTEX
5
54b
100
AcDbEntity
8
0
100
AcDbVertex
100
AcDb2dVertex
62
5
10
58.250000
20
193.000000
0
VERTEX
5
54c
100
AcDbEntity
8
0
100
AcDbVertex
100
AcDb2dVertex
62
5
10
74.250000
20
193.000000
0
SEQEND
5
54d
100
AcDbEntity
8
0
0
ARC
5
54e
100
AcDbEntity
8
0
100
AcDbCircle
6
CONTINUOUS
62
5
10
74.250000
20
193.500000
40
0.500000
100
AcDbArc
50
-89.999999
51
0.000000
0
LINE
5
54f
100
AcDbEntity
8
0
100
AcDbLine
6
CONTINUOUS
62
5
10
74.750000
20
193.500000
11
74.750000
21
196.000000
0
ARC
5
550
100
AcDbEntity
8
0
100
AcDbCircle
6
CONTINUOUS
62
5
10
75.250000
20
196.000000
40
0.500000
100
AcDbArc
50
89.999999
51
179.999998
0
POLYLINE
5
551
100
AcDbEntity
8
0
6
CONTINUOUS
62
5
100
AcDb2dPolyline
66
1
10
0.0
20
0.0
30
0.0
70
0
0
VERTEX
5
552
100
AcDbEntity
8
0
100
AcDbVertex
100
AcDb2dVertex
62
5
10
75.250000
20
196.500000
0
VERTEX
5
553
100
AcDbEntity
8
0
100
AcDbVertex
100
AcDb2dVertex
62
5
10
111.500000
20
196.500000
0
VERTEX
5
554
100
AcDbEntity
8
0
100
AcDbVertex
100
AcDb2dVertex
62
5
10
111.500000
20
197.500000
0
VERTEX
5
555
100
AcDbEntity
8
0
100
AcDbVertex
100
AcDb2dVertex
62
5
10
114.000000
20
197.500000
0
VERTEX
5
556
100
AcDbEntity
8
0
100
AcDbVertex
100
AcDb2dVertex
62
5
10
114.000000
20
196.500000
0
VERTEX
5
557
100
AcDbEntity
8
0
100
AcDbVertex
100
AcDb2dVertex
62
5
10
150.250000
20
196.500000
0
SEQEND
5
558
100
AcDbEntity
8
0
0
ARC
5
559
100
AcDbEntity
8
0
100
AcDbCircle
6
CONTINUOUS
62
5
10
150.250000
20
196.000000
40
0.500000
100
AcDbArc
50
0.000000
51
89.999999
0
LINE
5
55a
100
AcDbEntity
8
0
100
AcDbLine
6
CONTINUOUS
62
5
10
150.750000
20
196.000000
11
150.750000
21
193.500000
0
ARC
5
55b
100
AcDbEntity
8
0
100
AcDbCircle
6
CONTINUOUS
62
5
10
151.250000
20
193.500000
40
0.500000
100
AcDbArc
50
179.999998
51
-89.999999
0
POLYLINE
5
55c
100
AcDbEntity
8
0
6
CONTINUOUS
62
5
100
AcDb2dPolyline
66
1
10
0.0
20
0.0
30
0.0
70
0
0
VERTEX
5
55d
100
AcDbEntity
8
0
100
AcDbVertex
100
AcDb2dVertex
62
5
10
151.250000
20
193.000000
0
VERTEX
5
55e
100
AcDbEntity
8
0
100
AcDbVertex
100
AcDb2dVertex
62
5
10
167.250000
20
193.000000
0
VERTEX
5
55f
100
AcDbEntity
8
0
100
AcDbVertex
100
AcDb2dVertex
62
5
10
167.250000
20
107.000000
0
VERTEX
5
560
100
AcDbEntity
8
0
100
AcDbVertex
100
AcDb2dVertex
62
5
10
151.250000
20
107.000000
0
SEQEND
5
561
100
AcDbEntity
8
0
0
ARC
5
562
100
AcDbEntity
8
1
100
AcDbCircle
6
CONTINUOUS
62
5
10
163.750000
20
97.000000
40
7.000000
100
AcDbArc
50
-89.999999
51
0.000000
0
LINE
5
563
100
AcDbEntity
8
1
100
AcDbLine
6
CONTINUOUS
62
5
10
170.750000
20
97.000000
11
170.750000
21
203.000000
0
ARC
5
564
100
AcDbEntity
8
1
100
AcDbCircle
6
CONTINUOUS
62
5
10
163.750000
20
203.000000
40
7.000000
100
AcDbArc
50
0.000000
51
89.999999
0
LINE
5
565
100
AcDbEntity
8
1
100
AcDbLine
6
CONTINUOUS
62
5
10
163.750000
20
210.000000
11
61.750000
21
210.000000
0
ARC
5
566
100
AcDbEntity
8
1
100
AcDbCircle
6
CONTINUOUS
62
5
10
61.750000
20
203.000000
40
7.000000
100
AcDbArc
50
89.999999
51
179.999998
0
LINE
5
567
100
AcDbEntity
8
1
100
AcDbLine
6
CONTINUOUS
62
5
10
54.750000
20
203.000000
11
54.750000
21
97.000000
0
ARC
5
568
100
AcDbEntity
8
1
100
AcDbCircle
6
CONTINUOUS
62
5
10
61.750000
20
97.000000
40
7.000000
100
AcDbArc
50
179.999998
51
-89.999999
0
LINE
5
569
100
AcDbEntity
8
1
100
AcDbLine
6
CONTINUOUS
62
5
10
61.750000
20
90.000000
11
163.750000
21
90.000000
0
POLYLINE
5
56a
100
AcDbEntity
8
1
6
CONTINUOUS
62
5
100
AcDb2dPolyline
66
1
10
0.0
20
0.0
30
0.0
70
1
0
VERTEX
5
56b
100
AcDbEntity
8
1
100
AcDbVertex
100
AcDb2dVertex
62
5
10
0.000000
20
0.000000
0
VERTEX
5
56c
100
AcDbEntity
8
1
100
AcDbVertex
100
AcDb2dVertex
62
5
10
0.000000
20
340.000000
0
VERTEX
5
56d
100
AcDbEntity
8
1
100
AcDbVertex
100
AcDb2dVertex
62
5
10
320.000000
20
340.000000
0
VERTEX
5
56e
100
AcDbEntity
8
1
100
AcDbVertex
100
AcDb2dVertex
62
5
10
320.000000
20
0.000000
0
VERTEX
5
56f
100
AcDbEntity
8
1
100
AcDbVertex
100
AcDb2dVertex
62
5
10
0.000000
20
0.000000
0
SEQEND
5
570
100
AcDbEntity
8
1
0
ENDSEC
0
SECTION
2
OBJECTS
0
DICTIONARY
5
571
100
AcDbDictionary
3
ACAD_GROUP
350
572
3
ACAD_MLINESTYLE
350
573
0
DICTIONARY
5
572
102
{ACAD_REACTORS
330
571
102
}
100
AcDbDictionary
0
DICTIONARY
5
573
102
{ACAD_REACTORS
330
571
102
}
100
AcDbDictionary
3
STANDARD
350
574
0
MLINESTYLE
5
574
102
{ACAD_REACTORS
330
573
102
}
100
AcDbMlineStyle
2
STANDARD
70
0
3

62
0
51
90.0
52
90.0
71
2
49
0.5
62
256
6
BYLAYER
49
-0.5
62
256
6
BYLAYER
0
ENDSEC
0
EOF
