0
SECTION
2
HEADER
9
$ACADVER
1
AC1012
9
$EXTMIN
10
-0.013701
20
-0.013701
30
0.0
9
$EXTMAX
10
12.606299
20
13.386299
30
0.0
9
$LIMMIN
10
-0.348005
20
-0.348005
9
$LIMMAX
10
320.199995
20
340.011995
9
$DIMSCALE
40
1.000000
9
$PDMODE
70
2
9
$PDSIZE
40
0.0
  9
$HANDSEED
  5
3e9
0
ENDSEC
0
SECTION
2
CLASSES
0
ENDSEC
0
SECTION
2
TABLES
0
TABLE
2
LTYPE
5
1e
100
AcDbSymbolTable
70
12
0
LTYPE
5
1f
100
AcDbSymbolTableRecord
100
AcDbLinetypeTableRecord
2
BYBLOCK
70
0
3

72
65
73
0
40
0.0
0
LTYPE
5
20
100
AcDbSymbolTableRecord
100
AcDbLinetypeTableRecord
2
BYLAYER
70
0
3

72
65
73
0
40
0.0
0
LTYPE
5
21
100
AcDbSymbolTableRecord
100
AcDbLinetypeTableRecord
2
CONTINUOUS
70
64
3
Solid line
72
65
73
0
40
0.0
0
LTYPE
5
22
100
AcDbSymbolTableRecord
100
AcDbLinetypeTableRecord
2
DASHED
70
64
3
__ __ __ __ __ __ __ __ __ __ __ __ __ __ __
72
65
73
2
40
0.75
49
0.5
74
0
49
-0.25
74
0
0
LTYPE
5
23
100
AcDbSymbolTableRecord
100
AcDbLinetypeTableRecord
2
DOT
70
64
3
...............................................
72
65
73
2
40
0.25
49
0.0
74
0
49
-0.25
74
0
0
LTYPE
5
24
100
AcDbSymbolTableRecord
100
AcDbLinetypeTableRecord
2
DASHDOT
70
64
3
__ . __ . __ . __ . __ . __ . __ . __ . __ . --
72
65
73
4
40
1.0
49
0.5
74
0
49
-0.25
74
0
49
0.0
74
0
49
-0.25
74
0
0
LTYPE
5
25
100
AcDbSymbolTableRecord
100
AcDbLinetypeTableRecord
2
CENTER
70
64
3
____ _ ____ _ ____ _ ____ _ ____ _ ____ _ ____
72
65
73
4
40
2.0
49
1.25
74
0
49
-0.25
74
0
49
0.25
74
0
49
-0.25
74
0
0
LTYPE
5
26
100
AcDbSymbolTableRecord
100
AcDbLinetypeTableRecord
2
PHANTOM
70
64
3
_____ _ _ _____ _ _ _____ _ _ _____ _ _ ____
72
65
73
6
40
2.5
49
1.25
74
0
49
-0.25
74
0
49
0.25
74
0
49
-0.25
74
0
49
0.25
74
0
49
-0.25
74
0
0
LTYPE
5
27
100
AcDbSymbolTableRecord
100
AcDbLinetypeTableRecord
2
HIDDEN
70
64
3
_ _ _ _ _ _ _ _ _ _ _ _ _ _ _ _ _ _ _ _ _ _ _
72
65
73
2
40
0.375
49
0.25
74
0
49
-0.125
74
0
0
LTYPE
5
28
100
AcDbSymbolTableRecord
100
AcDbLinetypeTableRecord
2
BORDER
70
64
3
__ __ . __ __ . __ __ . __ __ . __ __ . __ __
72
65
73
6
40
1.75
49
0.5
74
0
49
-0.25
74
0
49
0.5
74
0
49
-0.25
74
0
49
0.0
74
0
49
-0.25
74
0
0
LTYPE
5
29
100
AcDbSymbolTableRecord
100
AcDbLinetypeTableRecord
2
DIVIDE
70
64
3
__ . . __ . . __ . . __ . . __ . . __ . . __
72
65
73
6
40
1.25
49
0.5
74
0
49
-0.25
74
0
49
0.0
74
0
49
-0.25
74
0
49
0.0
74
0
49
-0.25
74
0
0
LTYPE
5
2a
100
AcDbSymbolTableRecord
100
AcDbLinetypeTableRecord
2
DOT2
70
64
3
...............................................
72
65
73
2
40
0.125
49
0.0
74
0
49
-0.125
74
0
0
ENDTAB
0
TABLE
2
STYLE
5
2b
100
AcDbSymbolTable
70
1
0
STYLE
5
2c
100
AcDbSymbolTableRecord
100
AcDbTextStyleTableRecord
2
STANDARD
70
64
40
0.0
41
1.0
50
0.0
71
0
42
5.0
3
txt
4
bigfont
0
ENDTAB
0
TABLE
2
LAYER
5
2d
100
AcDbSymbolTable
70
3
0
LAYER
5
2e
100
AcDbSymbolTableRecord
100
AcDbLayerTableRecord
2
0
70
0
62
7
6
CONTINUOUS
0
LAYER
5
2f
100
AcDbSymbolTableRecord
100
AcDbLayerTableRecord
2
1
70
0
62
7
6
CONTINUOUS
0
LAYER
5
30
100
AcDbSymbolTableRecord
100
AcDbLayerTableRecord
2
0
70
0
62
7
6
CONTINUOUS
0
ENDTAB
0
TABLE
2
APPID
5
31
100
AcDbSymbolTable
70
1
0
APPID
5
32
100
AcDbSymbolTableRecord
100
AcDbRegAppTableRecord
2
ACAD
70
64
0
ENDTAB
0
TABLE
2
DIMSTYLE
5
33
100
AcDbSymbolTable
70
0
0
ENDTAB
0
TABLE
2
UCS
5
34
100
AcDbSymbolTable
70
0
0
ENDTAB
0
TABLE
2
VIEW
5
35
100
AcDbSymbolTable
70
0
0
ENDTAB
0
TABLE
2
VPORT
5
36
100
AcDbSymbolTable
70
0
0
ENDTAB
0
TABLE
2
BLOCK_RECORD
5
37
100
AcDbSymbolTable
70
0
0
BLOCK_RECORD
5
38
100
AcDbSymbolTableRecord
100
AcDbBlockTableRecord
2
*MODEL_SPACE
0
BLOCK_RECORD
5
39
100
AcDbSymbolTableRecord
100
AcDbBlockTableRecord
2
*PAPER_SPACE
0
BLOCK_RECORD
5
3a
100
AcDbSymbolTableRecord
100
AcDbBlockTableRecord
2
OPEN
0
BLOCK_RECORD
5
3b
100
AcDbSymbolTableRecord
100
AcDbBlockTableRecord
2
HALF
0
BLOCK_RECORD
5
3c
100
AcDbSymbolTableRecord
100
AcDbBlockTableRecord
2
CLOSEDBLANK
0
BLOCK_RECORD
5
3d
100
AcDbSymbolTableRecord
100
AcDbBlockTableRecord
2
HALFCLOSE_R
0
BLOCK_RECORD
5
3e
100
AcDbSymbolTableRecord
100
AcDbBlockTableRecord
2
DOT
0
BLOCK_RECORD
5
3f
100
AcDbSymbolTableRecord
100
AcDbBlockTableRecord
2
HALFOPEN_R
0
BLOCK_RECORD
5
40
100
AcDbSymbolTableRecord
100
AcDbBlockTableRecord
2
CLOSEDF
0
BLOCK_RECORD
5
41
100
AcDbSymbolTableRecord
100
AcDbBlockTableRecord
2
HALF_R
0
ENDTAB
0
ENDSEC
0
SECTION
2
BLOCKS
0
BLOCK
5
42
100
AcDbEntity
8
0
100
AcDbBlockBegin
2
*MODEL_SPACE
70
0
10
0.0
20
0.0
30
0.0
3
*MODEL_SPACE
1

0
ENDBLK
5
43
100
AcDbEntity
8
0
100
AcDbBlockEnd
0
BLOCK
5
44
100
AcDbEntity
67
1
8
0
100
AcDbBlockBegin
2
*PAPER_SPACE
70
0
10
0.0
20
0.0
30
0.0
3
*PAPER_SPACE
1

0
ENDBLK
5
45
100
AcDbEntity
67
1
8
0
100
AcDbBlockEnd
0
BLOCK
5
46
100
AcDbEntity
8
0
100
AcDbBlockBegin
2
OPEN
70
0
10
0.0
20
0.0
30
0.0
3
OPEN
1

0
LINE
5
47
100
AcDbEntity
8
0
6
BYBLOCK
62
0
100
AcDbLine
10
0.000000
20
0.000000
11
-1.000000
21
0.000000
0
LINE
5
48
100
AcDbEntity
8
0
6
BYBLOCK
62
0
100
AcDbLine
10
-1.000000
20
-0.166667
11
0.000000
21
0.000000
0
LINE
5
49
100
AcDbEntity
8
0
6
BYBLOCK
62
0
100
AcDbLine
10
-1.000000
20
0.166667
11
0.000000
21
0.000000
0
ENDBLK
5
4a
100
AcDbEntity
8
0
100
AcDbBlockEnd
0
BLOCK
5
4b
100
AcDbEntity
8
0
100
AcDbBlockBegin
2
HALF
70
0
10
0.0
20
0.0
30
0.0
3
HALF
1

0
SOLID
5
4c
100
AcDbEntity
8
0
6
BYBLOCK
62
0
100
AcDbTrace
10
-1.000000
20
0.166667
11
-1.000000
21
-0.166667
12
0.000000
22
0.000000
13
0.000000
23
0.000000
0
ENDBLK
5
4d
100
AcDbEntity
8
0
100
AcDbBlockEnd
0
BLOCK
5
4e
100
AcDbEntity
8
0
100
AcDbBlockBegin
2
CLOSEDBLANK
70
0
10
0.0
20
0.0
30
0.0
3
CLOSEDBLANK
1

0
LINE
5
4f
100
AcDbEntity
8
0
6
BYBLOCK
62
0
100
AcDbLine
10
-1.000000
20
0.166667
11
-1.000000
21
-0.166667
0
LINE
5
50
100
AcDbEntity
8
0
6
BYBLOCK
62
0
100
AcDbLine
10
0.000000
20
0.000000
11
-1.000000
21
-0.166667
0
LINE
5
51
100
AcDbEntity
8
0
6
BYBLOCK
62
0
100
AcDbLine
10
-1.000000
20
0.166667
11
0.000000
21
0.000000
0
ENDBLK
5
52
100
AcDbEntity
8
0
100
AcDbBlockEnd
0
BLOCK
5
53
100
AcDbEntity
8
0
100
AcDbBlockBegin
2
HALFCLOSE_R
70
0
10
0.0
20
0.0
30
0.0
3
HALFCLOSE_R
1

0
LINE
5
54
100
AcDbEntity
8
0
6
BYBLOCK
62
0
100
AcDbLine
10
-1.000000
20
-0.166667
11
-1.000000
21
0.000000
0
LINE
5
55
100
AcDbEntity
8
0
6
BYBLOCK
62
0
100
AcDbLine
10
-1.000000
20
-0.166667
11
0.000000
21
0.000000
0
LINE
5
56
100
AcDbEntity
8
0
6
BYBLOCK
62
0
100
AcDbLine
10
0.000000
20
0.000000
11
-1.000000
21
0.000000
0
ENDBLK
5
57
100
AcDbEntity
8
0
100
AcDbBlockEnd
0
BLOCK
5
58
100
AcDbEntity
8
0
100
AcDbBlockBegin
2
DOT
70
0
10
0.0
20
0.0
30
0.0
3
DOT
1

0
LINE
5
59
100
AcDbEntity
8
0
6
BYBLOCK
62
0
100
AcDbLine
10
0.000000
20
0.000000
11
-1.000000
21
0.000000
0
POLYLINE
5
5a
100
AcDbEntity
8
0
6
BYBLOCK
62
0
100
AcDb2dPolyline
66
1
10
0.0
20
0.0
30
0.0
70
1
40
0.166667
41
0.166667
0
VERTEX
5
5b
100
AcDbEntity
8
0
100
AcDbVertex
100
AcDb2dVertex
62
10
10
-0.083333
20
0.000000
42
1.000000
0
VERTEX
5
5c
100
AcDbEntity
8
0
100
AcDbVertex
100
AcDb2dVertex
62
10
10
0.083333
20
0.000000
42
1.000000
0
SEQEND
5
5d
100
AcDbEntity
8
0
0
ENDBLK
5
5e
100
AcDbEntity
8
0
100
AcDbBlockEnd
0
BLOCK
5
5f
100
AcDbEntity
8
0
100
AcDbBlockBegin
2
HALFOPEN_R
70
0
10
0.0
20
0.0
30
0.0
3
HALFOPEN_R
1

0
LINE
5
60
100
AcDbEntity
8
0
6
BYBLOCK
62
0
100
AcDbLine
10
-1.000000
20
-0.166667
11
0.000000
21
0.000000
0
LINE
5
61
100
AcDbEntity
8
0
6
BYBLOCK
62
0
100
AcDbLine
10
0.000000
20
0.000000
11
-1.000000
21
0.000000
0
ENDBLK
5
62
100
AcDbEntity
8
0
100
AcDbBlockEnd
0
BLOCK
5
63
100
AcDbEntity
8
0
100
AcDbBlockBegin
2
CLOSEDF
70
0
10
0.0
20
0.0
30
0.0
3
CLOSEDF
1

0
SOLID
5
64
100
AcDbEntity
8
0
6
BYBLOCK
62
0
100
AcDbTrace
10
-1.000000
20
0.166667
11
-1.000000
21
-0.166667
12
0.000000
22
0.000000
13
0.000000
23
0.000000
0
ENDBLK
5
65
100
AcDbEntity
8
0
100
AcDbBlockEnd
0
BLOCK
5
66
100
AcDbEntity
8
0
100
AcDbBlockBegin
2
HALF_R
70
0
10
0.0
20
0.0
30
0.0
3
HALF_R
1

0
SOLID
5
67
100
AcDbEntity
8
0
6
BYBLOCK
62
0
100
AcDbTrace
10
-1.000000
20
-0.166667
11
-1.000000
21
0.000000
12
0.000000
22
0.000000
13
0.000000
23
0.000000
0
ENDBLK
5
68
100
AcDbEntity
8
0
100
AcDbBlockEnd
0
ENDSEC
0
SECTION
2
ENTITIES
0
POLYLINE
5
69
100
AcDbEntity
8
1
6
DOT2
62
5
100
AcDb2dPolyline
66
1
10
0.0
20
0.0
30
0.0
70
1
0
VERTEX
5
6a
100
AcDbEntity
8
1
100
AcDbVertex
100
AcDb2dVertex
62
5
10
226.250000
20
244.258684
0
VERTEX
5
6b
100
AcDbEntity
8
1
100
AcDbVertex
100
AcDb2dVertex
62
5
10
226.875000
20
244.258684
0
VERTEX
5
6c
100
AcDbEntity
8
1
100
AcDbVertex
100
AcDb2dVertex
62
5
10
227.500000
20
243.946184
0
VERTEX
5
6d
100
AcDbEntity
8
1
100
AcDbVertex
100
AcDb2dVertex
62
5
10
227.812500
20
243.321184
0
VERTEX
5
6e
100
AcDbEntity
8
1
100
AcDbVertex
100
AcDb2dVertex
62
5
10
227.812500
20
242.071184
0
VERTEX
5
6f
100
AcDbEntity
8
1
100
AcDbVertex
100
AcDb2dVertex
62
5
10
227.500000
20
241.446184
0
VERTEX
5
70
100
AcDbEntity
8
1
100
AcDbVertex
100
AcDb2dVertex
62
5
10
225.625000
20
240.196184
0
VERTEX
5
71
100
AcDbEntity
8
1
100
AcDbVertex
100
AcDb2dVertex
62
5
10
225.000000
20
239.258684
0
VERTEX
5
72
100
AcDbEntity
8
1
100
AcDbVertex
100
AcDb2dVertex
62
5
10
225.000000
20
238.008684
0
VERTEX
5
73
100
AcDbEntity
8
1
100
AcDbVertex
100
AcDb2dVertex
62
5
10
225.312500
20
237.383684
0
VERTEX
5
74
100
AcDbEntity
8
1
100
AcDbVertex
100
AcDb2dVertex
62
5
10
225.625000
20
237.071184
0
VERTEX
5
75
100
AcDbEntity
8
1
100
AcDbVertex
100
AcDb2dVertex
62
5
10
226.250000
20
236.758684
0
VERTEX
5
76
100
AcDbEntity
8
1
100
AcDbVertex
100
AcDb2dVertex
62
5
10
226.875000
20
236.758684
0
VERTEX
5
77
100
AcDbEntity
8
1
100
AcDbVertex
100
AcDb2dVertex
62
5
10
227.500000
20
237.071184
0
VERTEX
5
78
100
AcDbEntity
8
1
100
AcDbVertex
100
AcDb2dVertex
62
5
10
227.812500
20
237.383684
0
VERTEX
5
79
100
AcDbEntity
8
1
100
AcDbVertex
100
AcDb2dVertex
62
5
10
228.125000
20
238.008684
0
VERTEX
5
7a
100
AcDbEntity
8
1
100
AcDbVertex
100
AcDb2dVertex
62
5
10
228.125000
20
239.258684
0
VERTEX
5
7b
100
AcDbEntity
8
1
100
AcDbVertex
100
AcDb2dVertex
62
5
10
227.500000
20
240.196184
0
VERTEX
5
7c
100
AcDbEntity
8
1
100
AcDbVertex
100
AcDb2dVertex
62
5
10
225.625000
20
241.446184
0
VERTEX
5
7d
100
AcDbEntity
8
1
100
AcDbVertex
100
AcDb2dVertex
62
5
10
225.312500
20
242.071184
0
VERTEX
5
7e
100
AcDbEntity
8
1
100
AcDbVertex
100
AcDb2dVertex
62
5
10
225.312500
20
243.321184
0
VERTEX
5
7f
100
AcDbEntity
8
1
100
AcDbVertex
100
AcDb2dVertex
62
5
10
225.625000
20
243.946184
0
VERTEX
5
80
100
AcDbEntity
8
1
100
AcDbVertex
100
AcDb2dVertex
62
5
10
226.250000
20
244.258684
0
SEQEND
5
81
100
AcDbEntity
8
1
0
POLYLINE
5
82
100
AcDbEntity
8
1
6
DOT2
62
5
100
AcDb2dPolyline
66
1
10
0.0
20
0.0
30
0.0
70
0
0
VERTEX
5
83
100
AcDbEntity
8
1
100
AcDbVertex
100
AcDb2dVertex
62
5
10
220.000000
20
242.383684
0
VERTEX
5
84
100
AcDbEntity
8
1
100
AcDbVertex
100
AcDb2dVertex
62
5
10
220.312500
20
243.633684
0
VERTEX
5
85
100
AcDbEntity
8
1
100
AcDbVertex
100
AcDb2dVertex
62
5
10
220.937500
20
244.258684
0
VERTEX
5
86
100
AcDbEntity
8
1
100
AcDbVertex
100
AcDb2dVertex
62
5
10
221.875000
20
244.258684
0
VERTEX
5
87
100
AcDbEntity
8
1
100
AcDbVertex
100
AcDb2dVertex
62
5
10
222.500000
20
243.946184
0
VERTEX
5
88
100
AcDbEntity
8
1
100
AcDbVertex
100
AcDb2dVertex
62
5
10
222.812500
20
243.008684
0
VERTEX
5
89
100
AcDbEntity
8
1
100
AcDbVertex
100
AcDb2dVertex
62
5
10
222.812500
20
241.758684
0
VERTEX
5
8a
100
AcDbEntity
8
1
100
AcDbVertex
100
AcDb2dVertex
62
5
10
222.500000
20
241.133684
0
VERTEX
5
8b
100
AcDbEntity
8
1
100
AcDbVertex
100
AcDb2dVertex
62
5
10
221.875000
20
240.508684
0
VERTEX
5
8c
100
AcDbEntity
8
1
100
AcDbVertex
100
AcDb2dVertex
62
5
10
220.937500
20
240.508684
0
SEQEND
5
8d
100
AcDbEntity
8
1
0
POLYLINE
5
8e
100
AcDbEntity
8
1
6
DOT2
62
5
100
AcDb2dPolyline
66
1
10
0.0
20
0.0
30
0.0
70
0
0
VERTEX
5
8f
100
AcDbEntity
8
1
100
AcDbVertex
100
AcDb2dVertex
62
5
10
221.875000
20
240.508684
0
VERTEX
5
90
100
AcDbEntity
8
1
100
AcDbVertex
100
AcDb2dVertex
62
5
10
222.812500
20
239.883684
0
VERTEX
5
91
100
AcDbEntity
8
1
100
AcDbVertex
100
AcDb2dVertex
62
5
10
223.125000
20
238.946184
0
VERTEX
5
92
100
AcDbEntity
8
1
100
AcDbVertex
100
AcDb2dVertex
62
5
10
223.125000
20
238.008684
0
VERTEX
5
93
100
AcDbEntity
8
1
100
AcDbVertex
100
AcDb2dVertex
62
5
10
222.812500
20
237.383684
0
VERTEX
5
94
100
AcDbEntity
8
1
100
AcDbVertex
100
AcDb2dVertex
62
5
10
221.875000
20
236.758684
0
VERTEX
5
95
100
AcDbEntity
8
1
100
AcDbVertex
100
AcDb2dVertex
62
5
10
220.937500
20
236.758684
0
VERTEX
5
96
100
AcDbEntity
8
1
100
AcDbVertex
100
AcDb2dVertex
62
5
10
220.312500
20
237.071184
0
VERTEX
5
97
100
AcDbEntity
8
1
100
AcDbVertex
100
AcDb2dVertex
62
5
10
219.687500
20
238.008684
0
SEQEND
5
98
100
AcDbEntity
8
1
0
ARC
5
99
100
AcDbEntity
8
0
100
AcDbCircle
6
CONTINUOUS
62
5
10
203.750000
20
202.121225
40
0.500000
100
AcDbArc
50
91.636576
51
-179.999998
0
LINE
5
9a
100
AcDbEntity
8
0
100
AcDbLine
6
CONTINUOUS
62
5
10
203.250000
20
202.121225
11
203.250000
21
199.485918
0
ARC
5
9b
100
AcDbEntity
8
0
100
AcDbCircle
6
CONTINUOUS
62
5
10
203.750000
20
199.485918
40
0.500000
100
AcDbArc
50
-179.999998
51
-91.636576
0
LINE
5
9c
100
AcDbEntity
8
0
100
AcDbLine
6
CONTINUOUS
62
5
10
203.735720
20
198.986122
11
204.750000
21
198.957143
0
LINE
5
9d
100
AcDbEntity
8
0
100
AcDbLine
6
CONTINUOUS
62
5
10
204.750000
20
202.650000
11
203.735720
21
202.621021
0
LINE
5
9e
100
AcDbEntity
8
1
100
AcDbLine
6
CONTINUOUS
62
5
10
204.750000
20
211.500000
11
204.750000
21
237.508684
0
LINE
5
9f
100
AcDbEntity
8
1
100
AcDbLine
6
CONTINUOUS
62
5
10
242.750000
20
212.008684
11
242.750000
21
237.508684
0
POLYLINE
5
a0
100
AcDbEntity
8
1
6
CONTINUOUS
62
5
100
AcDb2dPolyline
66
1
10
0.0
20
0.0
30
0.0
70
0
0
VERTEX
5
a1
100
AcDbEntity
8
1
100
AcDbVertex
100
AcDb2dVertex
62
5
10
223.750000
20
235.508684
0
VERTEX
5
a2
100
AcDbEntity
8
1
100
AcDbVertex
100
AcDb2dVertex
62
5
10
204.750000
20
235.508684
0
VERTEX
5
a3
100
AcDbEntity
8
1
100
AcDbVertex
100
AcDb2dVertex
62
5
10
210.750000
20
236.508684
0
VERTEX
5
a4
100
AcDbEntity
8
1
100
AcDbVertex
100
AcDb2dVertex
62
5
10
210.750000
20
234.508684
0
VERTEX
5
a5
100
AcDbEntity
8
1
100
AcDbVertex
100
AcDb2dVertex
62
5
10
204.750000
20
235.508684
0
VERTEX
5
a6
100
AcDbEntity
8
1
100
AcDbVertex
100
AcDb2dVertex
62
5
10
210.750000
20
236.008684
0
VERTEX
5
a7
100
AcDbEntity
8
1
100
AcDbVertex
100
AcDb2dVertex
62
5
10
210.750000
20
235.008684
0
VERTEX
5
a8
100
AcDbEntity
8
1
100
AcDbVertex
100
AcDb2dVertex
62
5
10
204.750000
20
235.508684
0
SEQEND
5
a9
100
AcDbEntity
8
1
0
POLYLINE
5
aa
100
AcDbEntity
8
1
6
CONTINUOUS
62
5
100
AcDb2dPolyline
66
1
10
0.0
20
0.0
30
0.0
70
0
0
VERTEX
5
ab
100
AcDbEntity
8
1
100
AcDbVertex
100
AcDb2dVertex
62
5
10
223.750000
20
235.508684
0
VERTEX
5
ac
100
AcDbEntity
8
1
100
AcDbVertex
100
AcDb2dVertex
62
5
10
242.750000
20
235.508684
0
VERTEX
5
ad
100
AcDbEntity
8
1
100
AcDbVertex
100
AcDb2dVertex
62
5
10
236.750000
20
234.508684
0
VERTEX
5
ae
100
AcDbEntity
8
1
100
AcDbVertex
100
AcDb2dVertex
62
5
10
236.750000
20
236.508684
0
VERTEX
5
af
100
AcDbEntity
8
1
100
AcDbVertex
100
AcDb2dVertex
62
5
10
242.750000
20
235.508684
0
VERTEX
5
b0
100
AcDbEntity
8
1
100
AcDbVertex
100
AcDb2dVertex
62
5
10
236.750000
20
235.008684
0
VERTEX
5
b1
100
AcDbEntity
8
1
100
AcDbVertex
100
AcDb2dVertex
62
5
10
236.750000
20
236.008684
0
VERTEX
5
b2
100
AcDbEntity
8
1
100
AcDbVertex
100
AcDb2dVertex
62
5
10
242.750000
20
235.508684
0
SEQEND
5
b3
100
AcDbEntity
8
1
0
POLYLINE
5
b4
100
AcDbEntity
8
1
6
CONTINUOUS
62
5
100
AcDb2dPolyline
66
1
10
0.0
20
0.0
30
0.0
70
0
0
VERTEX
5
b5
100
AcDbEntity
8
1
100
AcDbVertex
100
AcDb2dVertex
62
5
10
131.750000
20
325.250000
0
VERTEX
5
b6
100
AcDbEntity
8
1
100
AcDbVertex
100
AcDb2dVertex
62
5
10
132.750000
20
326.500000
0
VERTEX
5
b7
100
AcDbEntity
8
1
100
AcDbVertex
100
AcDb2dVertex
62
5
10
133.250000
20
327.437500
0
VERTEX
5
b8
100
AcDbEntity
8
1
100
AcDbVertex
100
AcDb2dVertex
62
5
10
135.750000
20
327.437500
0
VERTEX
5
b9
100
AcDbEntity
8
1
100
AcDbVertex
100
AcDb2dVertex
62
5
10
135.750000
20
327.125000
0
VERTEX
5
ba
100
AcDbEntity
8
1
100
AcDbVertex
100
AcDb2dVertex
62
5
10
135.000000
20
325.250000
0
VERTEX
5
bb
100
AcDbEntity
8
1
100
AcDbVertex
100
AcDb2dVertex
62
5
10
133.750000
20
323.375000
0
VERTEX
5
bc
100
AcDbEntity
8
1
100
AcDbVertex
100
AcDb2dVertex
62
5
10
132.250000
20
321.812500
0
SEQEND
5
bd
100
AcDbEntity
8
1
0
POLYLINE
5
be
100
AcDbEntity
8
1
6
CONTINUOUS
62
5
100
AcDb2dPolyline
66
1
10
0.0
20
0.0
30
0.0
70
0
0
VERTEX
5
bf
100
AcDbEntity
8
1
100
AcDbVertex
100
AcDb2dVertex
62
5
10
140.000000
20
327.125000
0
VERTEX
5
c0
100
AcDbEntity
8
1
100
AcDbVertex
100
AcDb2dVertex
62
5
10
143.250000
20
327.125000
0
VERTEX
5
c1
100
AcDbEntity
8
1
100
AcDbVertex
100
AcDb2dVertex
62
5
10
143.250000
20
326.812500
0
VERTEX
5
c2
100
AcDbEntity
8
1
100
AcDbVertex
100
AcDb2dVertex
62
5
10
142.750000
20
325.562500
0
VERTEX
5
c3
100
AcDbEntity
8
1
100
AcDbVertex
100
AcDb2dVertex
62
5
10
142.250000
20
324.625000
0
VERTEX
5
c4
100
AcDbEntity
8
1
100
AcDbVertex
100
AcDb2dVertex
62
5
10
141.250000
20
323.375000
0
VERTEX
5
c5
100
AcDbEntity
8
1
100
AcDbVertex
100
AcDb2dVertex
62
5
10
139.500000
20
321.812500
0
SEQEND
5
c6
100
AcDbEntity
8
1
0
LINE
5
c7
100
AcDbEntity
8
1
100
AcDbLine
6
CONTINUOUS
62
5
10
142.250000
20
324.625000
11
144.250000
21
321.812500
0
LINE
5
c8
100
AcDbEntity
8
1
100
AcDbLine
6
CONTINUOUS
62
5
10
124.250000
20
325.562500
11
124.500000
21
324.312500
0
LINE
5
c9
100
AcDbEntity
8
1
100
AcDbLine
6
CONTINUOUS
62
5
10
125.750000
20
325.875000
11
126.000000
21
324.625000
0
POLYLINE
5
ca
100
AcDbEntity
8
1
6
CONTINUOUS
62
5
100
AcDb2dPolyline
66
1
10
0.0
20
0.0
30
0.0
70
0
0
VERTEX
5
cb
100
AcDbEntity
8
1
100
AcDbVertex
100
AcDb2dVertex
62
5
10
127.750000
20
325.875000
0
VERTEX
5
cc
100
AcDbEntity
8
1
100
AcDbVertex
100
AcDb2dVertex
62
5
10
127.500000
20
324.312500
0
VERTEX
5
cd
100
AcDbEntity
8
1
100
AcDbVertex
100
AcDb2dVertex
62
5
10
126.250000
20
322.437500
0
VERTEX
5
ce
100
AcDbEntity
8
1
100
AcDbVertex
100
AcDb2dVertex
62
5
10
125.250000
20
321.500000
0
SEQEND
5
cf
100
AcDbEntity
8
1
0
POLYLINE
5
d0
100
AcDbEntity
8
1
6
CONTINUOUS
62
5
100
AcDb2dPolyline
66
1
10
0.0
20
0.0
30
0.0
70
0
0
VERTEX
5
d1
100
AcDbEntity
8
1
100
AcDbVertex
100
AcDb2dVertex
62
5
10
125.250000
20
319.625000
0
VERTEX
5
d2
100
AcDbEntity
8
1
100
AcDbVertex
100
AcDb2dVertex
62
5
10
124.500000
20
318.375000
0
VERTEX
5
d3
100
AcDbEntity
8
1
100
AcDbVertex
100
AcDb2dVertex
62
5
10
123.750000
20
317.437500
0
VERTEX
5
d4
100
AcDbEntity
8
1
100
AcDbVertex
100
AcDb2dVertex
62
5
10
122.750000
20
316.500000
0
SEQEND
5
d5
100
AcDbEntity
8
1
0
POLYLINE
5
d6
100
AcDbEntity
8
1
6
CONTINUOUS
62
5
100
AcDb2dPolyline
66
1
10
0.0
20
0.0
30
0.0
70
0
0
VERTEX
5
d7
100
AcDbEntity
8
1
100
AcDbVertex
100
AcDb2dVertex
62
5
10
125.000000
20
319.000000
0
VERTEX
5
d8
100
AcDbEntity
8
1
100
AcDbVertex
100
AcDb2dVertex
62
5
10
127.250000
20
319.000000
0
VERTEX
5
d9
100
AcDbEntity
8
1
100
AcDbVertex
100
AcDb2dVertex
62
5
10
126.000000
20
317.125000
0
SEQEND
5
da
100
AcDbEntity
8
1
0
POLYLINE
5
db
100
AcDbEntity
8
1
6
CONTINUOUS
62
5
100
AcDb2dPolyline
66
1
10
0.0
20
0.0
30
0.0
70
0
0
VERTEX
5
dc
100
AcDbEntity
8
1
100
AcDbVertex
100
AcDb2dVertex
62
5
10
123.750000
20
317.125000
0
VERTEX
5
dd
100
AcDbEntity
8
1
100
AcDbVertex
100
AcDb2dVertex
62
5
10
128.250000
20
317.125000
0
VERTEX
5
de
100
AcDbEntity
8
1
100
AcDbVertex
100
AcDb2dVertex
62
5
10
128.250000
20
314.312500
0
VERTEX
5
df
100
AcDbEntity
8
1
100
AcDbVertex
100
AcDb2dVertex
62
5
10
123.750000
20
314.312500
0
SEQEND
5
e0
100
AcDbEntity
8
1
0
LINE
5
e1
100
AcDbEntity
8
1
100
AcDbLine
6
CONTINUOUS
62
5
10
126.000000
20
317.125000
11
126.000000
21
314.312500
0
POLYLINE
5
e2
100
AcDbEntity
8
1
6
CONTINUOUS
62
5
100
AcDb2dPolyline
66
1
10
0.0
20
0.0
30
0.0
70
0
0
VERTEX
5
e3
100
AcDbEntity
8
1
100
AcDbVertex
100
AcDb2dVertex
62
5
10
123.750000
20
317.125000
0
VERTEX
5
e4
100
AcDbEntity
8
1
100
AcDbVertex
100
AcDb2dVertex
62
5
10
123.750000
20
311.812500
0
VERTEX
5
e5
100
AcDbEntity
8
1
100
AcDbVertex
100
AcDb2dVertex
62
5
10
124.250000
20
311.187500
0
VERTEX
5
e6
100
AcDbEntity
8
1
100
AcDbVertex
100
AcDb2dVertex
62
5
10
129.250000
20
311.187500
0
VERTEX
5
e7
100
AcDbEntity
8
1
100
AcDbVertex
100
AcDb2dVertex
62
5
10
129.250000
20
312.437500
0
SEQEND
5
e8
100
AcDbEntity
8
1
0
POLYLINE
5
e9
100
AcDbEntity
8
1
6
CONTINUOUS
62
5
100
AcDb2dPolyline
66
1
10
0.0
20
0.0
30
0.0
70
0
0
VERTEX
5
ea
100
AcDbEntity
8
1
100
AcDbVertex
100
AcDb2dVertex
62
5
10
117.250000
20
316.187500
0
VERTEX
5
eb
100
AcDbEntity
8
1
100
AcDbVertex
100
AcDb2dVertex
62
5
10
117.500000
20
316.187500
0
VERTEX
5
ec
100
AcDbEntity
8
1
100
AcDbVertex
100
AcDb2dVertex
62
5
10
119.250000
20
314.937500
0
SEQEND
5
ed
100
AcDbEntity
8
1
0
LINE
5
ee
100
AcDbEntity
8
1
100
AcDbLine
6
CONTINUOUS
62
5
10
117.250000
20
319.000000
11
117.250000
21
311.500000
0
LINE
5
ef
100
AcDbEntity
8
1
100
AcDbLine
6
CONTINUOUS
62
5
10
115.250000
20
326.187500
11
120.250000
21
326.187500
0
POLYLINE
5
f0
100
AcDbEntity
8
1
6
CONTINUOUS
62
5
100
AcDb2dPolyline
66
1
10
0.0
20
0.0
30
0.0
70
0
0
VERTEX
5
f1
100
AcDbEntity
8
1
100
AcDbVertex
100
AcDb2dVertex
62
5
10
117.750000
20
328.062500
0
VERTEX
5
f2
100
AcDbEntity
8
1
100
AcDbVertex
100
AcDb2dVertex
62
5
10
117.750000
20
321.812500
0
VERTEX
5
f3
100
AcDbEntity
8
1
100
AcDbVertex
100
AcDb2dVertex
62
5
10
117.250000
20
321.812500
0
SEQEND
5
f4
100
AcDbEntity
8
1
0
LINE
5
f5
100
AcDbEntity
8
1
100
AcDbLine
6
CONTINUOUS
62
5
10
116.250000
20
324.625000
11
115.250000
21
322.750000
0
LINE
5
f6
100
AcDbEntity
8
1
100
AcDbLine
6
CONTINUOUS
62
5
10
119.250000
20
324.625000
11
120.500000
21
323.062500
0
LINE
5
f7
100
AcDbEntity
8
1
100
AcDbLine
6
CONTINUOUS
62
5
10
119.250000
20
328.062500
11
120.000000
21
327.125000
0
LINE
5
f8
100
AcDbEntity
8
1
100
AcDbLine
6
CONTINUOUS
62
5
10
120.000000
20
329.000000
11
120.750000
21
328.062500
0
LINE
5
f9
100
AcDbEntity
8
1
100
AcDbLine
6
CONTINUOUS
62
5
10
100.250000
20
325.562500
11
100.500000
21
324.312500
0
LINE
5
fa
100
AcDbEntity
8
1
100
AcDbLine
6
CONTINUOUS
62
5
10
101.750000
20
325.875000
11
102.000000
21
324.625000
0
POLYLINE
5
fb
100
AcDbEntity
8
1
6
CONTINUOUS
62
5
100
AcDb2dPolyline
66
1
10
0.0
20
0.0
30
0.0
70
0
0
VERTEX
5
fc
100
AcDbEntity
8
1
100
AcDbVertex
100
AcDb2dVertex
62
5
10
103.750000
20
325.875000
0
VERTEX
5
fd
100
AcDbEntity
8
1
100
AcDbVertex
100
AcDb2dVertex
62
5
10
103.500000
20
324.312500
0
VERTEX
5
fe
100
AcDbEntity
8
1
100
AcDbVertex
100
AcDb2dVertex
62
5
10
102.250000
20
322.437500
0
VERTEX
5
ff
100
AcDbEntity
8
1
100
AcDbVertex
100
AcDb2dVertex
62
5
10
101.250000
20
321.500000
0
SEQEND
5
100
100
AcDbEntity
8
1
0
POLYLINE
5
101
100
AcDbEntity
8
1
6
CONTINUOUS
62
5
100
AcDb2dPolyline
66
1
10
0.0
20
0.0
30
0.0
70
0
0
VERTEX
5
102
100
AcDbEntity
8
1
100
AcDbVertex
100
AcDb2dVertex
62
5
10
95.750000
20
328.687500
0
VERTEX
5
103
100
AcDbEntity
8
1
100
AcDbVertex
100
AcDb2dVertex
62
5
10
93.750000
20
326.187500
0
VERTEX
5
104
100
AcDbEntity
8
1
100
AcDbVertex
100
AcDb2dVertex
62
5
10
91.500000
20
324.625000
0
SEQEND
5
105
100
AcDbEntity
8
1
0
LINE
5
106
100
AcDbEntity
8
1
100
AcDbLine
6
CONTINUOUS
62
5
10
94.250000
20
326.812500
11
94.250000
21
321.500000
0
LINE
5
107
100
AcDbEntity
8
1
100
AcDbLine
6
CONTINUOUS
62
5
10
91.250000
20
316.187500
11
96.250000
21
316.187500
0
POLYLINE
5
108
100
AcDbEntity
8
1
6
CONTINUOUS
62
5
100
AcDb2dPolyline
66
1
10
0.0
20
0.0
30
0.0
70
0
0
VERTEX
5
109
100
AcDbEntity
8
1
100
AcDbVertex
100
AcDb2dVertex
62
5
10
93.750000
20
318.062500
0
VERTEX
5
10a
100
AcDbEntity
8
1
100
AcDbVertex
100
AcDb2dVertex
62
5
10
93.750000
20
311.812500
0
VERTEX
5
10b
100
AcDbEntity
8
1
100
AcDbVertex
100
AcDb2dVertex
62
5
10
93.250000
20
311.812500
0
SEQEND
5
10c
100
AcDbEntity
8
1
0
LINE
5
10d
100
AcDbEntity
8
1
100
AcDbLine
6
CONTINUOUS
62
5
10
92.500000
20
314.625000
11
91.250000
21
312.750000
0
LINE
5
10e
100
AcDbEntity
8
1
100
AcDbLine
6
CONTINUOUS
62
5
10
95.250000
20
314.625000
11
96.500000
21
313.062500
0
POLYLINE
5
10f
100
AcDbEntity
8
1
6
CONTINUOUS
62
5
100
AcDb2dPolyline
66
1
10
0.0
20
0.0
30
0.0
70
0
0
VERTEX
5
110
100
AcDbEntity
8
1
100
AcDbVertex
100
AcDb2dVertex
62
5
10
99.750000
20
315.562500
0
VERTEX
5
111
100
AcDbEntity
8
1
100
AcDbVertex
100
AcDb2dVertex
62
5
10
99.750000
20
317.750000
0
VERTEX
5
112
100
AcDbEntity
8
1
100
AcDbVertex
100
AcDb2dVertex
62
5
10
103.750000
20
317.750000
0
VERTEX
5
113
100
AcDbEntity
8
1
100
AcDbVertex
100
AcDb2dVertex
62
5
10
103.750000
20
316.812500
0
VERTEX
5
114
100
AcDbEntity
8
1
100
AcDbVertex
100
AcDb2dVertex
62
5
10
103.500000
20
315.250000
0
VERTEX
5
115
100
AcDbEntity
8
1
100
AcDbVertex
100
AcDb2dVertex
62
5
10
103.000000
20
314.000000
0
VERTEX
5
116
100
AcDbEntity
8
1
100
AcDbVertex
100
AcDb2dVertex
62
5
10
102.500000
20
313.062500
0
VERTEX
5
117
100
AcDbEntity
8
1
100
AcDbVertex
100
AcDb2dVertex
62
5
10
101.500000
20
311.812500
0
SEQEND
5
118
100
AcDbEntity
8
1
0
POLYLINE
5
119
100
AcDbEntity
8
1
6
CONTINUOUS
62
5
100
AcDb2dPolyline
66
1
10
0.0
20
0.0
30
0.0
70
0
0
VERTEX
5
11a
100
AcDbEntity
8
1
100
AcDbVertex
100
AcDb2dVertex
62
5
10
84.000000
20
327.125000
0
VERTEX
5
11b
100
AcDbEntity
8
1
100
AcDbVertex
100
AcDb2dVertex
62
5
10
87.250000
20
327.125000
0
VERTEX
5
11c
100
AcDbEntity
8
1
100
AcDbVertex
100
AcDb2dVertex
62
5
10
87.250000
20
326.812500
0
VERTEX
5
11d
100
AcDbEntity
8
1
100
AcDbVertex
100
AcDb2dVertex
62
5
10
86.750000
20
325.562500
0
VERTEX
5
11e
100
AcDbEntity
8
1
100
AcDbVertex
100
AcDb2dVertex
62
5
10
86.250000
20
324.625000
0
VERTEX
5
11f
100
AcDbEntity
8
1
100
AcDbVertex
100
AcDb2dVertex
62
5
10
85.250000
20
323.375000
0
VERTEX
5
120
100
AcDbEntity
8
1
100
AcDbVertex
100
AcDb2dVertex
62
5
10
83.500000
20
321.812500
0
SEQEND
5
121
100
AcDbEntity
8
1
0
LINE
5
122
100
AcDbEntity
8
1
100
AcDbLine
6
CONTINUOUS
62
5
10
86.250000
20
324.625000
11
88.250000
21
321.812500
0
POLYLINE
5
123
100
AcDbEntity
8
1
6
CONTINUOUS
62
5
100
AcDb2dPolyline
66
1
10
0.0
20
0.0
30
0.0
70
0
0
VERTEX
5
124
100
AcDbEntity
8
1
100
AcDbVertex
100
AcDb2dVertex
62
5
10
83.000000
20
317.437500
0
VERTEX
5
125
100
AcDbEntity
8
1
100
AcDbVertex
100
AcDb2dVertex
62
5
10
88.250000
20
317.437500
0
VERTEX
5
126
100
AcDbEntity
8
1
100
AcDbVertex
100
AcDb2dVertex
62
5
10
88.250000
20
317.125000
0
VERTEX
5
127
100
AcDbEntity
8
1
100
AcDbVertex
100
AcDb2dVertex
62
5
10
86.500000
20
315.250000
0
VERTEX
5
128
100
AcDbEntity
8
1
100
AcDbVertex
100
AcDb2dVertex
62
5
10
85.750000
20
315.250000
0
SEQEND
5
129
100
AcDbEntity
8
1
0
POLYLINE
5
12a
100
AcDbEntity
8
1
6
CONTINUOUS
62
5
100
AcDb2dPolyline
66
1
10
0.0
20
0.0
30
0.0
70
0
0
VERTEX
5
12b
100
AcDbEntity
8
1
100
AcDbVertex
100
AcDb2dVertex
62
5
10
85.750000
20
316.187500
0
VERTEX
5
12c
100
AcDbEntity
8
1
100
AcDbVertex
100
AcDb2dVertex
62
5
10
85.750000
20
314.625000
0
VERTEX
5
12d
100
AcDbEntity
8
1
100
AcDbVertex
100
AcDb2dVertex
62
5
10
85.000000
20
312.750000
0
VERTEX
5
12e
100
AcDbEntity
8
1
100
AcDbVertex
100
AcDb2dVertex
62
5
10
84.000000
20
311.500000
0
SEQEND
5
12f
100
AcDbEntity
8
1
0
POLYLINE
5
130
100
AcDbEntity
8
1
6
CONTINUOUS
62
5
100
AcDb2dPolyline
66
1
10
0.0
20
0.0
30
0.0
70
0
0
VERTEX
5
131
100
AcDbEntity
8
1
100
AcDbVertex
100
AcDb2dVertex
62
5
10
76.500000
20
315.562500
0
VERTEX
5
132
100
AcDbEntity
8
1
100
AcDbVertex
100
AcDb2dVertex
62
5
10
78.500000
20
315.562500
0
VERTEX
5
133
100
AcDbEntity
8
1
100
AcDbVertex
100
AcDb2dVertex
62
5
10
78.250000
20
312.437500
0
SEQEND
5
134
100
AcDbEntity
8
1
0
LINE
5
135
100
AcDbEntity
8
1
100
AcDbLine
6
CONTINUOUS
62
5
10
75.750000
20
312.437500
11
80.000000
21
312.437500
0
POLYLINE
5
136
100
AcDbEntity
8
1
6
CONTINUOUS
62
5
100
AcDb2dPolyline
66
1
10
0.0
20
0.0
30
0.0
70
0
0
VERTEX
5
137
100
AcDbEntity
8
1
100
AcDbVertex
100
AcDb2dVertex
62
5
10
75.500000
20
328.375000
0
VERTEX
5
138
100
AcDbEntity
8
1
100
AcDbVertex
100
AcDb2dVertex
62
5
10
75.500000
20
325.562500
0
VERTEX
5
139
100
AcDbEntity
8
1
100
AcDbVertex
100
AcDb2dVertex
62
5
10
80.000000
20
325.562500
0
VERTEX
5
13a
100
AcDbEntity
8
1
100
AcDbVertex
100
AcDb2dVertex
62
5
10
80.000000
20
328.375000
0
SEQEND
5
13b
100
AcDbEntity
8
1
0
LINE
5
13c
100
AcDbEntity
8
1
100
AcDbLine
6
CONTINUOUS
62
5
10
77.750000
20
329.625000
11
77.750000
21
320.875000
0
POLYLINE
5
13d
100
AcDbEntity
8
1
6
CONTINUOUS
62
5
100
AcDb2dPolyline
66
1
10
0.0
20
0.0
30
0.0
70
0
0
VERTEX
5
13e
100
AcDbEntity
8
1
100
AcDbVertex
100
AcDb2dVertex
62
5
10
75.000000
20
324.000000
0
VERTEX
5
13f
100
AcDbEntity
8
1
100
AcDbVertex
100
AcDb2dVertex
62
5
10
75.000000
20
320.875000
0
VERTEX
5
140
100
AcDbEntity
8
1
100
AcDbVertex
100
AcDb2dVertex
62
5
10
80.500000
20
320.875000
0
VERTEX
5
141
100
AcDbEntity
8
1
100
AcDbVertex
100
AcDb2dVertex
62
5
10
80.500000
20
324.000000
0
SEQEND
5
142
100
AcDbEntity
8
1
0
LINE
5
143
100
AcDbEntity
8
1
100
AcDbLine
6
CONTINUOUS
62
5
10
108.000000
20
327.437500
11
111.750000
21
328.062500
0
LINE
5
144
100
AcDbEntity
8
1
100
AcDbLine
6
CONTINUOUS
62
5
10
106.750000
20
325.562500
11
112.750000
21
325.562500
0
POLYLINE
5
145
100
AcDbEntity
8
1
6
CONTINUOUS
62
5
100
AcDb2dPolyline
66
1
10
0.0
20
0.0
30
0.0
70
0
0
VERTEX
5
146
100
AcDbEntity
8
1
100
AcDbVertex
100
AcDb2dVertex
62
5
10
110.000000
20
327.750000
0
VERTEX
5
147
100
AcDbEntity
8
1
100
AcDbVertex
100
AcDb2dVertex
62
5
10
110.000000
20
325.562500
0
VERTEX
5
148
100
AcDbEntity
8
1
100
AcDbVertex
100
AcDb2dVertex
62
5
10
109.750000
20
324.000000
0
VERTEX
5
149
100
AcDbEntity
8
1
100
AcDbVertex
100
AcDb2dVertex
62
5
10
109.000000
20
322.750000
0
VERTEX
5
14a
100
AcDbEntity
8
1
100
AcDbVertex
100
AcDb2dVertex
62
5
10
108.250000
20
321.812500
0
SEQEND
5
14b
100
AcDbEntity
8
1
0
POLYLINE
5
14c
100
AcDbEntity
8
1
6
CONTINUOUS
62
5
100
AcDb2dPolyline
66
1
10
0.0
20
0.0
30
0.0
70
0
0
VERTEX
5
14d
100
AcDbEntity
8
1
100
AcDbVertex
100
AcDb2dVertex
62
5
10
111.750000
20
318.687500
0
VERTEX
5
14e
100
AcDbEntity
8
1
100
AcDbVertex
100
AcDb2dVertex
62
5
10
109.750000
20
316.187500
0
VERTEX
5
14f
100
AcDbEntity
8
1
100
AcDbVertex
100
AcDb2dVertex
62
5
10
107.500000
20
314.625000
0
SEQEND
5
150
100
AcDbEntity
8
1
0
LINE
5
151
100
AcDbEntity
8
1
100
AcDbLine
6
CONTINUOUS
62
5
10
110.250000
20
316.812500
11
110.250000
21
311.500000
0
LINE
5
152
100
AcDbEntity
8
1
100
AcDbLine
6
CONTINUOUS
62
5
10
87.500000
20
290.500000
11
87.500000
21
283.000000
0
POLYLINE
5
153
100
AcDbEntity
8
1
6
CONTINUOUS
62
5
100
AcDb2dPolyline
66
1
10
0.0
20
0.0
30
0.0
70
0
0
VERTEX
5
154
100
AcDbEntity
8
1
100
AcDbVertex
100
AcDb2dVertex
62
5
10
87.500000
20
290.500000
0
VERTEX
5
155
100
AcDbEntity
8
1
100
AcDbVertex
100
AcDb2dVertex
62
5
10
88.750000
20
290.500000
0
VERTEX
5
156
100
AcDbEntity
8
1
100
AcDbVertex
100
AcDb2dVertex
62
5
10
89.687500
20
290.187500
0
VERTEX
5
157
100
AcDbEntity
8
1
100
AcDbVertex
100
AcDb2dVertex
62
5
10
90.312500
20
289.562500
0
VERTEX
5
158
100
AcDbEntity
8
1
100
AcDbVertex
100
AcDb2dVertex
62
5
10
90.625000
20
288.937500
0
VERTEX
5
159
100
AcDbEntity
8
1
100
AcDbVertex
100
AcDb2dVertex
62
5
10
90.625000
20
288.000000
0
VERTEX
5
15a
100
AcDbEntity
8
1
100
AcDbVertex
100
AcDb2dVertex
62
5
10
90.312500
20
287.375000
0
VERTEX
5
15b
100
AcDbEntity
8
1
100
AcDbVertex
100
AcDb2dVertex
62
5
10
89.687500
20
286.750000
0
VERTEX
5
15c
100
AcDbEntity
8
1
100
AcDbVertex
100
AcDb2dVertex
62
5
10
88.750000
20
286.437500
0
VERTEX
5
15d
100
AcDbEntity
8
1
100
AcDbVertex
100
AcDb2dVertex
62
5
10
87.500000
20
286.437500
0
SEQEND
5
15e
100
AcDbEntity
8
1
0
POLYLINE
5
15f
100
AcDbEntity
8
1
6
CONTINUOUS
62
5
100
AcDb2dPolyline
66
1
10
0.0
20
0.0
30
0.0
70
0
0
VERTEX
5
160
100
AcDbEntity
8
1
100
AcDbVertex
100
AcDb2dVertex
62
5
10
92.187500
20
290.500000
0
VERTEX
5
161
100
AcDbEntity
8
1
100
AcDbVertex
100
AcDb2dVertex
62
5
10
93.125000
20
283.000000
0
VERTEX
5
162
100
AcDbEntity
8
1
100
AcDbVertex
100
AcDb2dVertex
62
5
10
94.062500
20
290.500000
0
VERTEX
5
163
100
AcDbEntity
8
1
100
AcDbVertex
100
AcDb2dVertex
62
5
10
95.000000
20
283.000000
0
VERTEX
5
164
100
AcDbEntity
8
1
100
AcDbVertex
100
AcDb2dVertex
62
5
10
95.937500
20
290.500000
0
SEQEND
5
165
100
AcDbEntity
8
1
0
POLYLINE
5
166
100
AcDbEntity
8
1
6
CONTINUOUS
62
5
100
AcDb2dPolyline
66
1
10
0.0
20
0.0
30
0.0
70
0
0
VERTEX
5
167
100
AcDbEntity
8
1
100
AcDbVertex
100
AcDb2dVertex
62
5
10
75.625000
20
290.500000
0
VERTEX
5
168
100
AcDbEntity
8
1
100
AcDbVertex
100
AcDb2dVertex
62
5
10
72.500000
20
290.500000
0
VERTEX
5
169
100
AcDbEntity
8
1
100
AcDbVertex
100
AcDb2dVertex
62
5
10
72.500000
20
283.000000
0
SEQEND
5
16a
100
AcDbEntity
8
1
0
LINE
5
16b
100
AcDbEntity
8
1
100
AcDbLine
6
CONTINUOUS
62
5
10
72.500000
20
286.750000
11
75.000000
21
286.750000
0
POLYLINE
5
16c
100
AcDbEntity
8
1
6
CONTINUOUS
62
5
100
AcDb2dPolyline
66
1
10
0.0
20
0.0
30
0.0
70
0
0
VERTEX
5
16d
100
AcDbEntity
8
1
100
AcDbVertex
100
AcDb2dVertex
62
5
10
78.125000
20
289.875000
0
VERTEX
5
16e
100
AcDbEntity
8
1
100
AcDbVertex
100
AcDb2dVertex
62
5
10
79.062500
20
290.500000
0
VERTEX
5
16f
100
AcDbEntity
8
1
100
AcDbVertex
100
AcDb2dVertex
62
5
10
79.062500
20
283.000000
0
SEQEND
5
170
100
AcDbEntity
8
1
0
LINE
5
171
100
AcDbEntity
8
1
100
AcDbLine
6
CONTINUOUS
62
5
10
78.437500
20
283.000000
11
79.687500
21
283.000000
0
LINE
5
172
100
AcDbEntity
8
1
100
AcDbLine
6
CONTINUOUS
62
5
10
62.500000
20
290.500000
11
62.500000
21
283.000000
0
POLYLINE
5
173
100
AcDbEntity
8
1
6
CONTINUOUS
62
5
100
AcDb2dPolyline
66
1
10
0.0
20
0.0
30
0.0
70
0
0
VERTEX
5
174
100
AcDbEntity
8
1
100
AcDbVertex
100
AcDb2dVertex
62
5
10
62.500000
20
290.500000
0
VERTEX
5
175
100
AcDbEntity
8
1
100
AcDbVertex
100
AcDb2dVertex
62
5
10
64.062500
20
290.500000
0
VERTEX
5
176
100
AcDbEntity
8
1
100
AcDbVertex
100
AcDb2dVertex
62
5
10
64.687500
20
290.187500
0
VERTEX
5
177
100
AcDbEntity
8
1
100
AcDbVertex
100
AcDb2dVertex
62
5
10
65.000000
20
289.875000
0
VERTEX
5
178
100
AcDbEntity
8
1
100
AcDbVertex
100
AcDb2dVertex
62
5
10
65.312500
20
289.250000
0
VERTEX
5
179
100
AcDbEntity
8
1
100
AcDbVertex
100
AcDb2dVertex
62
5
10
65.312500
20
288.312500
0
VERTEX
5
17a
100
AcDbEntity
8
1
100
AcDbVertex
100
AcDb2dVertex
62
5
10
65.000000
20
287.687500
0
VERTEX
5
17b
100
AcDbEntity
8
1
100
AcDbVertex
100
AcDb2dVertex
62
5
10
64.687500
20
287.375000
0
VERTEX
5
17c
100
AcDbEntity
8
1
100
AcDbVertex
100
AcDb2dVertex
62
5
10
64.062500
20
287.062500
0
VERTEX
5
17d
100
AcDbEntity
8
1
100
AcDbVertex
100
AcDb2dVertex
62
5
10
62.500000
20
287.062500
0
SEQEND
5
17e
100
AcDbEntity
8
1
0
POLYLINE
5
17f
100
AcDbEntity
8
1
6
CONTINUOUS
62
5
100
AcDb2dPolyline
66
1
10
0.0
20
0.0
30
0.0
70
0
0
VERTEX
5
180
100
AcDbEntity
8
1
100
AcDbVertex
100
AcDb2dVertex
62
5
10
64.062500
20
287.062500
0
VERTEX
5
181
100
AcDbEntity
8
1
100
AcDbVertex
100
AcDb2dVertex
62
5
10
64.687500
20
286.750000
0
VERTEX
5
182
100
AcDbEntity
8
1
100
AcDbVertex
100
AcDb2dVertex
62
5
10
65.312500
20
286.125000
0
VERTEX
5
183
100
AcDbEntity
8
1
100
AcDbVertex
100
AcDb2dVertex
62
5
10
65.625000
20
285.500000
0
VERTEX
5
184
100
AcDbEntity
8
1
100
AcDbVertex
100
AcDb2dVertex
62
5
10
65.625000
20
284.250000
0
VERTEX
5
185
100
AcDbEntity
8
1
100
AcDbVertex
100
AcDb2dVertex
62
5
10
65.312500
20
283.625000
0
VERTEX
5
186
100
AcDbEntity
8
1
100
AcDbVertex
100
AcDb2dVertex
62
5
10
65.000000
20
283.312500
0
VERTEX
5
187
100
AcDbEntity
8
1
100
AcDbVertex
100
AcDb2dVertex
62
5
10
64.375000
20
283.000000
0
VERTEX
5
188
100
AcDbEntity
8
1
100
AcDbVertex
100
AcDb2dVertex
62
5
10
62.500000
20
283.000000
0
SEQEND
5
189
100
AcDbEntity
8
1
0
POLYLINE
5
18a
100
AcDbEntity
8
1
6
CONTINUOUS
62
5
100
AcDb2dPolyline
66
1
10
0.0
20
0.0
30
0.0
70
0
0
VERTEX
5
18b
100
AcDbEntity
8
1
100
AcDbVertex
100
AcDb2dVertex
62
5
10
52.500000
20
283.000000
0
VERTEX
5
18c
100
AcDbEntity
8
1
100
AcDbVertex
100
AcDb2dVertex
62
5
10
52.500000
20
290.500000
0
VERTEX
5
18d
100
AcDbEntity
8
1
100
AcDbVertex
100
AcDb2dVertex
62
5
10
54.062500
20
283.000000
0
VERTEX
5
18e
100
AcDbEntity
8
1
100
AcDbVertex
100
AcDb2dVertex
62
5
10
55.625000
20
290.500000
0
VERTEX
5
18f
100
AcDbEntity
8
1
100
AcDbVertex
100
AcDb2dVertex
62
5
10
55.625000
20
283.000000
0
SEQEND
5
190
100
AcDbEntity
8
1
0
POLYLINE
5
191
100
AcDbEntity
8
1
6
CONTINUOUS
62
5
100
AcDb2dPolyline
66
1
10
0.0
20
0.0
30
0.0
70
0
0
VERTEX
5
192
100
AcDbEntity
8
1
100
AcDbVertex
100
AcDb2dVertex
62
5
10
60.625000
20
288.937500
0
VERTEX
5
193
100
AcDbEntity
8
1
100
AcDbVertex
100
AcDb2dVertex
62
5
10
60.000000
20
290.187500
0
VERTEX
5
194
100
AcDbEntity
8
1
100
AcDbVertex
100
AcDb2dVertex
62
5
10
59.062500
20
290.500000
0
VERTEX
5
195
100
AcDbEntity
8
1
100
AcDbVertex
100
AcDb2dVertex
62
5
10
58.437500
20
290.500000
0
VERTEX
5
196
100
AcDbEntity
8
1
100
AcDbVertex
100
AcDb2dVertex
62
5
10
57.812500
20
290.187500
0
VERTEX
5
197
100
AcDbEntity
8
1
100
AcDbVertex
100
AcDb2dVertex
62
5
10
57.187500
20
289.250000
0
VERTEX
5
198
100
AcDbEntity
8
1
100
AcDbVertex
100
AcDb2dVertex
62
5
10
57.187500
20
288.312500
0
VERTEX
5
199
100
AcDbEntity
8
1
100
AcDbVertex
100
AcDb2dVertex
62
5
10
57.812500
20
287.375000
0
VERTEX
5
19a
100
AcDbEntity
8
1
100
AcDbVertex
100
AcDb2dVertex
62
5
10
60.000000
20
286.125000
0
VERTEX
5
19b
100
AcDbEntity
8
1
100
AcDbVertex
100
AcDb2dVertex
62
5
10
60.625000
20
285.187500
0
VERTEX
5
19c
100
AcDbEntity
8
1
100
AcDbVertex
100
AcDb2dVertex
62
5
10
60.625000
20
284.250000
0
VERTEX
5
19d
100
AcDbEntity
8
1
100
AcDbVertex
100
AcDb2dVertex
62
5
10
60.000000
20
283.312500
0
VERTEX
5
19e
100
AcDbEntity
8
1
100
AcDbVertex
100
AcDb2dVertex
62
5
10
59.062500
20
283.000000
0
VERTEX
5
19f
100
AcDbEntity
8
1
100
AcDbVertex
100
AcDb2dVertex
62
5
10
58.437500
20
283.000000
0
VERTEX
5
1a0
100
AcDbEntity
8
1
100
AcDbVertex
100
AcDb2dVertex
62
5
10
57.500000
20
283.625000
0
VERTEX
5
1a1
100
AcDbEntity
8
1
100
AcDbVertex
100
AcDb2dVertex
62
5
10
57.187500
20
284.875000
0
SEQEND
5
1a2
100
AcDbEntity
8
1
0
LINE
5
1a3
100
AcDbEntity
8
1
100
AcDbLine
6
CONTINUOUS
62
5
10
67.000000
20
329.312500
11
72.750000
21
329.312500
0
POLYLINE
5
1a4
100
AcDbEntity
8
1
6
CONTINUOUS
62
5
100
AcDb2dPolyline
66
1
10
0.0
20
0.0
30
0.0
70
0
0
VERTEX
5
1a5
100
AcDbEntity
8
1
100
AcDbVertex
100
AcDb2dVertex
62
5
10
66.750000
20
326.500000
0
VERTEX
5
1a6
100
AcDbEntity
8
1
100
AcDbVertex
100
AcDb2dVertex
62
5
10
66.750000
20
328.375000
0
VERTEX
5
1a7
100
AcDbEntity
8
1
100
AcDbVertex
100
AcDb2dVertex
62
5
10
73.250000
20
328.375000
0
VERTEX
5
1a8
100
AcDbEntity
8
1
100
AcDbVertex
100
AcDb2dVertex
62
5
10
73.250000
20
326.500000
0
SEQEND
5
1a9
100
AcDbEntity
8
1
0
LINE
5
1aa
100
AcDbEntity
8
1
100
AcDbLine
6
CONTINUOUS
62
5
10
70.000000
20
329.312500
11
70.000000
21
325.875000
0
LINE
5
1ab
100
AcDbEntity
8
1
100
AcDbLine
6
CONTINUOUS
62
5
10
67.500000
20
327.437500
11
69.250000
21
327.437500
0
LINE
5
1ac
100
AcDbEntity
8
1
100
AcDbLine
6
CONTINUOUS
62
5
10
67.500000
20
326.500000
11
69.250000
21
326.500000
0
LINE
5
1ad
100
AcDbEntity
8
1
100
AcDbLine
6
CONTINUOUS
62
5
10
70.750000
20
327.437500
11
72.500000
21
327.437500
0
LINE
5
1ae
100
AcDbEntity
8
1
100
AcDbLine
6
CONTINUOUS
62
5
10
70.750000
20
326.500000
11
72.500000
21
326.500000
0
POLYLINE
5
1af
100
AcDbEntity
8
1
6
CONTINUOUS
62
5
100
AcDb2dPolyline
66
1
10
0.0
20
0.0
30
0.0
70
1
0
VERTEX
5
1b0
100
AcDbEntity
8
1
100
AcDbVertex
100
AcDb2dVertex
62
5
10
67.000000
20
325.250000
0
VERTEX
5
1b1
100
AcDbEntity
8
1
100
AcDbVertex
100
AcDb2dVertex
62
5
10
67.000000
20
324.000000
0
VERTEX
5
1b2
100
AcDbEntity
8
1
100
AcDbVertex
100
AcDb2dVertex
62
5
10
69.000000
20
324.000000
0
VERTEX
5
1b3
100
AcDbEntity
8
1
100
AcDbVertex
100
AcDb2dVertex
62
5
10
69.000000
20
325.250000
0
VERTEX
5
1b4
100
AcDbEntity
8
1
100
AcDbVertex
100
AcDb2dVertex
62
5
10
67.000000
20
325.250000
0
SEQEND
5
1b5
100
AcDbEntity
8
1
0
LINE
5
1b6
100
AcDbEntity
8
1
100
AcDbLine
6
CONTINUOUS
62
5
10
68.000000
20
324.000000
11
68.000000
21
321.500000
0
LINE
5
1b7
100
AcDbEntity
8
1
100
AcDbLine
6
CONTINUOUS
62
5
10
68.000000
20
323.062500
11
69.000000
21
323.062500
0
LINE
5
1b8
100
AcDbEntity
8
1
100
AcDbLine
6
CONTINUOUS
62
5
10
67.000000
20
323.375000
11
67.000000
21
321.187500
0
LINE
5
1b9
100
AcDbEntity
8
1
100
AcDbLine
6
CONTINUOUS
62
5
10
66.500000
20
320.875000
11
69.000000
21
321.812500
0
POLYLINE
5
1ba
100
AcDbEntity
8
1
6
CONTINUOUS
62
5
100
AcDb2dPolyline
66
1
10
0.0
20
0.0
30
0.0
70
0
0
VERTEX
5
1bb
100
AcDbEntity
8
1
100
AcDbVertex
100
AcDb2dVertex
62
5
10
71.000000
20
325.562500
0
VERTEX
5
1bc
100
AcDbEntity
8
1
100
AcDbVertex
100
AcDb2dVertex
62
5
10
70.750000
20
324.937500
0
VERTEX
5
1bd
100
AcDbEntity
8
1
100
AcDbVertex
100
AcDb2dVertex
62
5
10
70.250000
20
324.312500
0
VERTEX
5
1be
100
AcDbEntity
8
1
100
AcDbVertex
100
AcDb2dVertex
62
5
10
69.750000
20
324.000000
0
SEQEND
5
1bf
100
AcDbEntity
8
1
0
POLYLINE
5
1c0
100
AcDbEntity
8
1
6
CONTINUOUS
62
5
100
AcDb2dPolyline
66
1
10
0.0
20
0.0
30
0.0
70
0
0
VERTEX
5
1c1
100
AcDbEntity
8
1
100
AcDbVertex
100
AcDb2dVertex
62
5
10
70.750000
20
324.937500
0
VERTEX
5
1c2
100
AcDbEntity
8
1
100
AcDbVertex
100
AcDb2dVertex
62
5
10
72.750000
20
324.937500
0
VERTEX
5
1c3
100
AcDbEntity
8
1
100
AcDbVertex
100
AcDb2dVertex
62
5
10
72.000000
20
324.000000
0
VERTEX
5
1c4
100
AcDbEntity
8
1
100
AcDbVertex
100
AcDb2dVertex
62
5
10
71.250000
20
323.375000
0
VERTEX
5
1c5
100
AcDbEntity
8
1
100
AcDbVertex
100
AcDb2dVertex
62
5
10
69.500000
20
322.750000
0
SEQEND
5
1c6
100
AcDbEntity
8
1
0
POLYLINE
5
1c7
100
AcDbEntity
8
1
6
CONTINUOUS
62
5
100
AcDb2dPolyline
66
1
10
0.0
20
0.0
30
0.0
70
0
0
VERTEX
5
1c8
100
AcDbEntity
8
1
100
AcDbVertex
100
AcDb2dVertex
62
5
10
70.500000
20
324.625000
0
VERTEX
5
1c9
100
AcDbEntity
8
1
100
AcDbVertex
100
AcDb2dVertex
62
5
10
71.000000
20
324.000000
0
VERTEX
5
1ca
100
AcDbEntity
8
1
100
AcDbVertex
100
AcDb2dVertex
62
5
10
71.750000
20
323.375000
0
VERTEX
5
1cb
100
AcDbEntity
8
1
100
AcDbVertex
100
AcDb2dVertex
62
5
10
73.500000
20
322.750000
0
SEQEND
5
1cc
100
AcDbEntity
8
1
0
POLYLINE
5
1cd
100
AcDbEntity
8
1
6
CONTINUOUS
62
5
100
AcDb2dPolyline
66
1
10
0.0
20
0.0
30
0.0
70
1
0
VERTEX
5
1ce
100
AcDbEntity
8
1
100
AcDbVertex
100
AcDb2dVertex
62
5
10
70.250000
20
322.750000
0
VERTEX
5
1cf
100
AcDbEntity
8
1
100
AcDbVertex
100
AcDb2dVertex
62
5
10
70.250000
20
321.187500
0
VERTEX
5
1d0
100
AcDbEntity
8
1
100
AcDbVertex
100
AcDb2dVertex
62
5
10
72.750000
20
321.187500
0
VERTEX
5
1d1
100
AcDbEntity
8
1
100
AcDbVertex
100
AcDb2dVertex
62
5
10
72.750000
20
322.750000
0
VERTEX
5
1d2
100
AcDbEntity
8
1
100
AcDbVertex
100
AcDb2dVertex
62
5
10
70.250000
20
322.750000
0
SEQEND
5
1d3
100
AcDbEntity
8
1
0
POLYLINE
5
1d4
100
AcDbEntity
8
1
6
CONTINUOUS
62
5
100
AcDb2dPolyline
66
1
10
0.0
20
0.0
30
0.0
70
0
0
VERTEX
5
1d5
100
AcDbEntity
8
1
100
AcDbVertex
100
AcDb2dVertex
62
5
10
67.750000
20
317.750000
0
VERTEX
5
1d6
100
AcDbEntity
8
1
100
AcDbVertex
100
AcDb2dVertex
62
5
10
67.750000
20
312.437500
0
VERTEX
5
1d7
100
AcDbEntity
8
1
100
AcDbVertex
100
AcDb2dVertex
62
5
10
68.250000
20
311.812500
0
VERTEX
5
1d8
100
AcDbEntity
8
1
100
AcDbVertex
100
AcDb2dVertex
62
5
10
71.750000
20
311.812500
0
SEQEND
5
1d9
100
AcDbEntity
8
1
0
LINE
5
1da
100
AcDbEntity
8
1
100
AcDbLine
6
CONTINUOUS
62
5
10
71.250000
20
315.875000
11
67.750000
21
314.937500
0
POLYLINE
5
1db
100
AcDbEntity
8
1
6
CONTINUOUS
62
5
100
AcDb2dPolyline
66
1
10
0.0
20
0.0
30
0.0
70
1
0
VERTEX
5
1dc
100
AcDbEntity
8
1
100
AcDbVertex
100
AcDb2dVertex
62
5
10
71.250000
20
317.750000
0
VERTEX
5
1dd
100
AcDbEntity
8
1
100
AcDbVertex
100
AcDb2dVertex
62
5
10
71.750000
20
318.375000
0
VERTEX
5
1de
100
AcDbEntity
8
1
100
AcDbVertex
100
AcDb2dVertex
62
5
10
72.000000
20
318.375000
0
VERTEX
5
1df
100
AcDbEntity
8
1
100
AcDbVertex
100
AcDb2dVertex
62
5
10
72.500000
20
317.750000
0
VERTEX
5
1e0
100
AcDbEntity
8
1
100
AcDbVertex
100
AcDb2dVertex
62
5
10
72.500000
20
317.437500
0
VERTEX
5
1e1
100
AcDbEntity
8
1
100
AcDbVertex
100
AcDb2dVertex
62
5
10
72.000000
20
316.812500
0
VERTEX
5
1e2
100
AcDbEntity
8
1
100
AcDbVertex
100
AcDb2dVertex
62
5
10
71.750000
20
316.812500
0
VERTEX
5
1e3
100
AcDbEntity
8
1
100
AcDbVertex
100
AcDb2dVertex
62
5
10
71.250000
20
317.437500
0
VERTEX
5
1e4
100
AcDbEntity
8
1
100
AcDbVertex
100
AcDb2dVertex
62
5
10
71.250000
20
317.750000
0
SEQEND
5
1e5
100
AcDbEntity
8
1
0
LINE
5
1e6
100
AcDbEntity
8
1
100
AcDbLine
6
CONTINUOUS
62
5
10
67.500000
20
286.750000
11
70.625000
21
286.750000
0
POLYLINE
5
1e7
100
AcDbEntity
8
1
6
DOT2
62
5
100
AcDb2dPolyline
66
1
10
0.0
20
0.0
30
0.0
70
0
0
VERTEX
5
1e8
100
AcDbEntity
8
1
100
AcDbVertex
100
AcDb2dVertex
62
5
10
114.625000
20
243.633684
0
VERTEX
5
1e9
100
AcDbEntity
8
1
100
AcDbVertex
100
AcDb2dVertex
62
5
10
115.562500
20
244.258684
0
VERTEX
5
1ea
100
AcDbEntity
8
1
100
AcDbVertex
100
AcDb2dVertex
62
5
10
115.562500
20
236.758684
0
SEQEND
5
1eb
100
AcDbEntity
8
1
0
LINE
5
1ec
100
AcDbEntity
8
1
100
AcDbLine
6
DOT2
62
5
10
114.937500
20
236.758684
11
116.187500
21
236.758684
0
LINE
5
1ed
100
AcDbEntity
8
0
100
AcDbLine
6
CONTINUOUS
62
5
10
125.004510
20
203.499557
11
123.798295
21
203.149558
0
CIRCLE
5
1ee
100
AcDbEntity
8
0
100
AcDbCircle
6
CONTINUOUS
62
5
10
126.750000
20
205.008684
40
1.000000
0
LINE
5
1ef
100
AcDbEntity
8
0
100
AcDbLine
6
CONTINUOUS
62
5
10
120.495490
20
203.499557
11
121.701705
21
203.149558
0
CIRCLE
5
1f0
100
AcDbEntity
8
0
100
AcDbCircle
6
CONTINUOUS
62
5
10
112.750000
20
205.008684
40
1.000000
0
POLYLINE
5
1f1
100
AcDbEntity
8
1
6
DOT2
62
5
100
AcDb2dPolyline
66
1
10
0.0
20
0.0
30
0.0
70
0
0
VERTEX
5
1f2
100
AcDbEntity
8
1
100
AcDbVertex
100
AcDb2dVertex
62
5
10
109.000000
20
243.321184
0
VERTEX
5
1f3
100
AcDbEntity
8
1
100
AcDbVertex
100
AcDb2dVertex
62
5
10
109.000000
20
244.258684
0
VERTEX
5
1f4
100
AcDbEntity
8
1
100
AcDbVertex
100
AcDb2dVertex
62
5
10
112.125000
20
244.258684
0
VERTEX
5
1f5
100
AcDbEntity
8
1
100
AcDbVertex
100
AcDb2dVertex
62
5
10
112.125000
20
243.633684
0
VERTEX
5
1f6
100
AcDbEntity
8
1
100
AcDbVertex
100
AcDb2dVertex
62
5
10
111.500000
20
242.071184
0
VERTEX
5
1f7
100
AcDbEntity
8
1
100
AcDbVertex
100
AcDb2dVertex
62
5
10
110.875000
20
239.883684
0
VERTEX
5
1f8
100
AcDbEntity
8
1
100
AcDbVertex
100
AcDb2dVertex
62
5
10
110.250000
20
236.758684
0
SEQEND
5
1f9
100
AcDbEntity
8
1
0
LINE
5
1fa
100
AcDbEntity
8
1
100
AcDbLine
6
CONTINUOUS
62
5
10
77.250000
20
204.508684
11
77.250000
21
237.508684
0
LINE
5
1fb
100
AcDbEntity
8
1
100
AcDbLine
6
CONTINUOUS
62
5
10
148.250000
20
204.508684
11
148.250000
21
237.508684
0
POLYLINE
5
1fc
100
AcDbEntity
8
1
6
CONTINUOUS
62
5
100
AcDb2dPolyline
66
1
10
0.0
20
0.0
30
0.0
70
0
0
VERTEX
5
1fd
100
AcDbEntity
8
1
100
AcDbVertex
100
AcDb2dVertex
62
5
10
112.750000
20
235.508684
0
VERTEX
5
1fe
100
AcDbEntity
8
1
100
AcDbVertex
100
AcDb2dVertex
62
5
10
77.250000
20
235.508684
0
VERTEX
5
1ff
100
AcDbEntity
8
1
100
AcDbVertex
100
AcDb2dVertex
62
5
10
83.250000
20
236.508684
0
VERTEX
5
200
100
AcDbEntity
8
1
100
AcDbVertex
100
AcDb2dVertex
62
5
10
83.250000
20
234.508684
0
VERTEX
5
201
100
AcDbEntity
8
1
100
AcDbVertex
100
AcDb2dVertex
62
5
10
77.250000
20
235.508684
0
VERTEX
5
202
100
AcDbEntity
8
1
100
AcDbVertex
100
AcDb2dVertex
62
5
10
83.250000
20
236.008684
0
VERTEX
5
203
100
AcDbEntity
8
1
100
AcDbVertex
100
AcDb2dVertex
62
5
10
83.250000
20
235.008684
0
VERTEX
5
204
100
AcDbEntity
8
1
100
AcDbVertex
100
AcDb2dVertex
62
5
10
77.250000
20
235.508684
0
SEQEND
5
205
100
AcDbEntity
8
1
0
POLYLINE
5
206
100
AcDbEntity
8
1
6
CONTINUOUS
62
5
100
AcDb2dPolyline
66
1
10
0.0
20
0.0
30
0.0
70
0
0
VERTEX
5
207
100
AcDbEntity
8
1
100
AcDbVertex
100
AcDb2dVertex
62
5
10
112.750000
20
235.508684
0
VERTEX
5
208
100
AcDbEntity
8
1
100
AcDbVertex
100
AcDb2dVertex
62
5
10
148.250000
20
235.508684
0
VERTEX
5
209
100
AcDbEntity
8
1
100
AcDbVertex
100
AcDb2dVertex
62
5
10
142.250000
20
234.508684
0
VERTEX
5
20a
100
AcDbEntity
8
1
100
AcDbVertex
100
AcDb2dVertex
62
5
10
142.250000
20
236.508684
0
VERTEX
5
20b
100
AcDbEntity
8
1
100
AcDbVertex
100
AcDb2dVertex
62
5
10
148.250000
20
235.508684
0
VERTEX
5
20c
100
AcDbEntity
8
1
100
AcDbVertex
100
AcDb2dVertex
62
5
10
142.250000
20
235.008684
0
VERTEX
5
20d
100
AcDbEntity
8
1
100
AcDbVertex
100
AcDb2dVertex
62
5
10
142.250000
20
236.008684
0
VERTEX
5
20e
100
AcDbEntity
8
1
100
AcDbVertex
100
AcDb2dVertex
62
5
10
148.250000
20
235.508684
0
SEQEND
5
20f
100
AcDbEntity
8
1
0
LINE
5
210
100
AcDbEntity
8
0
100
AcDbLine
6
CONTINUOUS
62
5
10
144.250000
20
193.008684
11
144.014375
21
192.485032
0
ARC
5
211
100
AcDbEntity
8
0
100
AcDbCircle
6
CONTINUOUS
62
5
10
134.250000
20
187.008684
40
2.250000
100
AcDbArc
50
89.999999
51
-89.999999
0
LINE
5
212
100
AcDbEntity
8
0
100
AcDbLine
6
CONTINUOUS
62
5
10
134.250000
20
189.258684
11
136.250000
21
189.258684
0
ARC
5
213
100
AcDbEntity
8
0
100
AcDbCircle
6
CONTINUOUS
62
5
10
136.250000
20
187.008684
40
2.250000
100
AcDbArc
50
-89.999999
51
89.999999
0
LINE
5
214
100
AcDbEntity
8
0
100
AcDbLine
6
CONTINUOUS
62
5
10
136.250000
20
184.758684
11
134.250000
21
184.758684
0
ARC
5
215
100
AcDbEntity
8
0
100
AcDbCircle
6
CONTINUOUS
62
5
10
136.250000
20
187.008684
40
4.000000
100
AcDbArc
50
-89.999999
51
89.999999
0
LINE
5
216
100
AcDbEntity
8
0
100
AcDbLine
6
CONTINUOUS
62
5
10
136.250000
20
183.008684
11
134.250000
21
183.008684
0
ARC
5
217
100
AcDbEntity
8
0
100
AcDbCircle
6
CONTINUOUS
62
5
10
134.250000
20
187.008684
40
4.000000
100
AcDbArc
50
89.999999
51
-89.999999
0
LINE
5
218
100
AcDbEntity
8
0
100
AcDbLine
6
CONTINUOUS
62
5
10
134.250000
20
191.008684
11
136.250000
21
191.008684
0
LINE
5
219
100
AcDbEntity
8
0
100
AcDbLine
6
CONTINUOUS
62
5
10
121.850000
20
198.035785
11
121.550000
21
199.255398
0
LINE
5
21a
100
AcDbEntity
8
0
100
AcDbLine
6
CONTINUOUS
62
5
10
123.650000
20
198.035785
11
123.950000
21
199.255398
0
CIRCLE
5
21b
100
AcDbEntity
8
0
100
AcDbCircle
6
CONTINUOUS
62
5
10
122.750000
20
191.758684
40
2.250000
0
CIRCLE
5
21c
100
AcDbEntity
8
0
100
AcDbCircle
6
CONTINUOUS
62
5
10
112.750000
20
191.750000
40
2.150000
0
ARC
5
21d
100
AcDbEntity
8
0
100
AcDbCircle
6
CONTINUOUS
62
5
10
138.750000
20
163.008684
40
1.000000
100
AcDbArc
50
179.999998
51
-89.999999
0
LINE
5
21e
100
AcDbEntity
8
0
100
AcDbLine
6
CONTINUOUS
62
5
10
137.750000
20
163.008684
11
137.750000
21
181.008684
0
ARC
5
21f
100
AcDbEntity
8
0
100
AcDbCircle
6
CONTINUOUS
62
5
10
138.750000
20
181.008684
40
1.000000
100
AcDbArc
50
89.999999
51
179.999998
0
LINE
5
220
100
AcDbEntity
8
0
100
AcDbLine
6
CONTINUOUS
62
5
10
138.750000
20
182.008684
11
144.014375
21
182.008684
0
LINE
5
221
100
AcDbEntity
8
0
100
AcDbLine
6
CONTINUOUS
62
5
10
144.014375
20
162.008684
11
138.750000
21
162.008684
0
CIRCLE
5
222
100
AcDbEntity
8
0
100
AcDbCircle
6
CONTINUOUS
62
5
10
102.750000
20
191.758684
40
2.250000
0
LINE
5
223
100
AcDbEntity
8
0
100
AcDbLine
6
CONTINUOUS
62
5
10
81.250000
20
193.008684
11
81.485625
21
192.485032
0
ARC
5
224
100
AcDbEntity
8
0
100
AcDbCircle
6
CONTINUOUS
62
5
10
89.250000
20
187.008684
40
2.250000
100
AcDbArc
50
89.999999
51
-89.999999
0
LINE
5
225
100
AcDbEntity
8
0
100
AcDbLine
6
CONTINUOUS
62
5
10
89.250000
20
189.258684
11
91.250000
21
189.258684
0
ARC
5
226
100
AcDbEntity
8
0
100
AcDbCircle
6
CONTINUOUS
62
5
10
91.250000
20
187.008684
40
2.250000
100
AcDbArc
50
-89.999999
51
89.999999
0
LINE
5
227
100
AcDbEntity
8
0
100
AcDbLine
6
CONTINUOUS
62
5
10
91.250000
20
184.758684
11
89.250000
21
184.758684
0
ARC
5
228
100
AcDbEntity
8
0
100
AcDbCircle
6
CONTINUOUS
62
5
10
91.250000
20
187.008684
40
4.000000
100
AcDbArc
50
-89.999999
51
89.999999
0
LINE
5
229
100
AcDbEntity
8
0
100
AcDbLine
6
CONTINUOUS
62
5
10
91.250000
20
183.008684
11
89.250000
21
183.008684
0
ARC
5
22a
100
AcDbEntity
8
0
100
AcDbCircle
6
CONTINUOUS
62
5
10
89.250000
20
187.008684
40
4.000000
100
AcDbArc
50
89.999999
51
-89.999999
0
LINE
5
22b
100
AcDbEntity
8
0
100
AcDbLine
6
CONTINUOUS
62
5
10
89.250000
20
191.008684
11
91.250000
21
191.008684
0
ARC
5
22c
100
AcDbEntity
8
0
100
AcDbCircle
6
CONTINUOUS
62
5
10
86.750000
20
163.008684
40
1.000000
100
AcDbArc
50
-89.999999
51
0.000000
0
LINE
5
22d
100
AcDbEntity
8
0
100
AcDbLine
6
CONTINUOUS
62
5
10
87.750000
20
163.008684
11
87.750000
21
181.008684
0
ARC
5
22e
100
AcDbEntity
8
0
100
AcDbCircle
6
CONTINUOUS
62
5
10
86.750000
20
181.008684
40
1.000000
100
AcDbArc
50
0.000000
51
89.999999
0
LINE
5
22f
100
AcDbEntity
8
0
100
AcDbLine
6
CONTINUOUS
62
5
10
86.750000
20
182.008684
11
81.485625
21
182.008684
0
LINE
5
230
100
AcDbEntity
8
0
100
AcDbLine
6
CONTINUOUS
62
5
10
81.485625
20
162.008684
11
86.750000
21
162.008684
0
LINE
5
231
100
AcDbEntity
8
0
100
AcDbLine
6
CONTINUOUS
62
5
10
106.750000
20
196.358684
11
118.750000
21
196.358684
0
CIRCLE
5
232
100
AcDbEntity
8
0
100
AcDbCircle
6
CONTINUOUS
62
5
10
112.750000
20
191.750000
40
4.000000
0
ARC
5
233
100
AcDbEntity
8
0
100
AcDbCircle
6
CONTINUOUS
62
5
10
112.777820
20
191.750834
40
5.972185
100
AcDbArc
50
-52.564615
51
0.075311
0
ARC
5
234
100
AcDbEntity
8
0
100
AcDbCircle
6
CONTINUOUS
62
5
10
115.277845
20
188.658684
40
2.000000
100
AcDbArc
50
-89.999999
51
-55.588491
0
LINE
5
235
100
AcDbEntity
8
0
100
AcDbLine
6
CONTINUOUS
62
5
10
115.277845
20
186.658684
11
110.222155
21
186.658684
0
ARC
5
236
100
AcDbEntity
8
0
100
AcDbCircle
6
CONTINUOUS
62
5
10
110.222155
20
188.658684
40
2.000000
100
AcDbArc
50
-129.194966
51
-89.999999
0
ARC
5
237
100
AcDbEntity
8
0
100
AcDbCircle
6
CONTINUOUS
62
5
10
112.750000
20
191.758684
40
6.000000
100
AcDbArc
50
179.999998
51
-129.194966
0
LINE
5
238
100
AcDbEntity
8
0
100
AcDbLine
6
CONTINUOUS
62
5
10
106.750000
20
191.758684
11
106.750000
21
196.508684
0
LINE
5
239
100
AcDbEntity
8
0
100
AcDbLine
6
CONTINUOUS
62
5
10
118.750000
20
196.508684
11
118.750000
21
191.758684
0
POLYLINE
5
23a
100
AcDbEntity
8
0
6
CONTINUOUS
62
5
100
AcDb2dPolyline
66
1
10
0.0
20
0.0
30
0.0
70
1
0
VERTEX
5
23b
100
AcDbEntity
8
0
100
AcDbVertex
100
AcDb2dVertex
62
5
10
126.550000
20
183.008684
0
VERTEX
5
23c
100
AcDbEntity
8
0
100
AcDbVertex
100
AcDb2dVertex
62
5
10
98.950000
20
183.008684
0
VERTEX
5
23d
100
AcDbEntity
8
0
100
AcDbVertex
100
AcDb2dVertex
62
5
10
99.130000
20
182.008684
0
VERTEX
5
23e
100
AcDbEntity
8
0
100
AcDbVertex
100
AcDb2dVertex
62
5
10
126.370000
20
182.008684
0
SEQEND
5
23f
100
AcDbEntity
8
0
0
ARC
5
240
100
AcDbEntity
8
0
100
AcDbCircle
6
CONTINUOUS
62
5
10
116.250000
20
167.600000
40
0.500000
100
AcDbArc
50
0.000000
51
89.999999
0
LINE
5
241
100
AcDbEntity
8
0
100
AcDbLine
6
CONTINUOUS
62
5
10
116.750000
20
167.600000
11
116.750000
21
166.400000
0
ARC
5
242
100
AcDbEntity
8
0
100
AcDbCircle
6
CONTINUOUS
62
5
10
116.250000
20
166.400000
40
0.500000
100
AcDbArc
50
-89.999999
51
0.000000
0
LINE
5
243
100
AcDbEntity
8
0
100
AcDbLine
6
CONTINUOUS
62
5
10
116.250000
20
165.900000
11
109.250000
21
165.900000
0
ARC
5
244
100
AcDbEntity
8
0
100
AcDbCircle
6
CONTINUOUS
62
5
10
109.250000
20
166.400000
40
0.500000
100
AcDbArc
50
179.999998
51
-89.999999
0
LINE
5
245
100
AcDbEntity
8
0
100
AcDbLine
6
CONTINUOUS
62
5
10
108.750000
20
166.400000
11
108.750000
21
167.600000
0
ARC
5
246
100
AcDbEntity
8
0
100
AcDbCircle
6
CONTINUOUS
62
5
10
109.250000
20
167.600000
40
0.500000
100
AcDbArc
50
89.999999
51
179.999998
0
LINE
5
247
100
AcDbEntity
8
0
100
AcDbLine
6
CONTINUOUS
62
5
10
109.250000
20
168.100000
11
116.250000
21
168.100000
0
ARC
5
248
100
AcDbEntity
8
0
100
AcDbCircle
6
CONTINUOUS
62
5
10
112.750000
20
166.991316
40
8.500000
100
AcDbArc
50
7.433430
51
172.566569
0
LINE
5
249
100
AcDbEntity
8
0
100
AcDbLine
6
CONTINUOUS
62
5
10
121.178565
20
168.090996
11
122.197222
21
167.991316
0
ARC
5
24a
100
AcDbEntity
8
0
100
AcDbCircle
6
CONTINUOUS
62
5
10
112.750000
20
166.991316
40
9.500000
100
AcDbArc
50
6.042328
51
173.957670
0
LINE
5
24b
100
AcDbEntity
8
0
100
AcDbLine
6
CONTINUOUS
62
5
10
103.302778
20
167.991316
11
104.321435
21
168.090996
0
LINE
5
24c
100
AcDbEntity
8
0
100
AcDbLine
6
CONTINUOUS
62
5
10
125.904510
20
201.940711
11
124.998295
21
201.071097
0
ARC
5
24d
100
AcDbEntity
8
0
100
AcDbCircle
6
CONTINUOUS
62
5
10
122.750000
20
200.508684
40
2.150000
100
AcDbArc
50
8.694318
51
171.305680
0
CIRCLE
5
24e
100
AcDbEntity
8
0
100
AcDbCircle
6
CONTINUOUS
62
5
10
122.750000
20
201.158684
40
2.250000
0
POLYLINE
5
24f
100
AcDbEntity
8
0
6
CONTINUOUS
62
5
100
AcDb2dPolyline
66
1
10
0.0
20
0.0
30
0.0
70
1
0
VERTEX
5
250
100
AcDbEntity
8
0
100
AcDbVertex
100
AcDb2dVertex
62
5
10
110.846003
20
204.257052
0
VERTEX
5
251
100
AcDbEntity
8
0
100
AcDbVertex
100
AcDb2dVertex
62
5
10
108.601632
20
204.257052
0
VERTEX
5
252
100
AcDbEntity
8
0
100
AcDbVertex
100
AcDb2dVertex
62
5
10
108.601632
20
198.460316
0
VERTEX
5
253
100
AcDbEntity
8
0
100
AcDbVertex
100
AcDb2dVertex
62
5
10
110.846003
20
198.460316
0
SEQEND
5
254
100
AcDbEntity
8
0
0
POLYLINE
5
255
100
AcDbEntity
8
0
6
CONTINUOUS
62
5
100
AcDb2dPolyline
66
1
10
0.0
20
0.0
30
0.0
70
1
0
VERTEX
5
256
100
AcDbEntity
8
0
100
AcDbVertex
100
AcDb2dVertex
62
5
10
114.653997
20
198.460316
0
VERTEX
5
257
100
AcDbEntity
8
0
100
AcDbVertex
100
AcDb2dVertex
62
5
10
116.898368
20
198.460316
0
VERTEX
5
258
100
AcDbEntity
8
0
100
AcDbVertex
100
AcDb2dVertex
62
5
10
116.898368
20
204.257052
0
VERTEX
5
259
100
AcDbEntity
8
0
100
AcDbVertex
100
AcDb2dVertex
62
5
10
114.653997
20
204.257052
0
SEQEND
5
25a
100
AcDbEntity
8
0
0
LINE
5
25b
100
AcDbEntity
8
0
100
AcDbLine
6
CONTINUOUS
62
5
10
119.595490
20
201.940711
11
120.501705
21
201.071097
0
CIRCLE
5
25c
100
AcDbEntity
8
0
100
AcDbCircle
6
CONTINUOUS
62
5
10
122.750000
20
201.158684
40
3.250000
0
POLYLINE
5
25d
100
AcDbEntity
8
1
6
DOT2
62
5
100
AcDb2dPolyline
66
1
10
0.0
20
0.0
30
0.0
70
1
0
VERTEX
5
25e
100
AcDbEntity
8
1
100
AcDbVertex
100
AcDb2dVertex
62
5
10
171.000000
20
155.000000
0
VERTEX
5
25f
100
AcDbEntity
8
1
100
AcDbVertex
100
AcDb2dVertex
62
5
10
171.000000
20
155.625000
0
VERTEX
5
260
100
AcDbEntity
8
1
100
AcDbVertex
100
AcDb2dVertex
62
5
10
171.312500
20
155.937500
0
VERTEX
5
261
100
AcDbEntity
8
1
100
AcDbVertex
100
AcDb2dVertex
62
5
10
172.562500
20
156.562500
0
VERTEX
5
262
100
AcDbEntity
8
1
100
AcDbVertex
100
AcDb2dVertex
62
5
10
173.812500
20
156.875000
0
VERTEX
5
263
100
AcDbEntity
8
1
100
AcDbVertex
100
AcDb2dVertex
62
5
10
175.687500
20
156.875000
0
VERTEX
5
264
100
AcDbEntity
8
1
100
AcDbVertex
100
AcDb2dVertex
62
5
10
176.937500
20
156.562500
0
VERTEX
5
265
100
AcDbEntity
8
1
100
AcDbVertex
100
AcDb2dVertex
62
5
10
178.187500
20
155.937500
0
VERTEX
5
266
100
AcDbEntity
8
1
100
AcDbVertex
100
AcDb2dVertex
62
5
10
178.500000
20
155.625000
0
VERTEX
5
267
100
AcDbEntity
8
1
100
AcDbVertex
100
AcDb2dVertex
62
5
10
178.500000
20
155.000000
0
VERTEX
5
268
100
AcDbEntity
8
1
100
AcDbVertex
100
AcDb2dVertex
62
5
10
178.187500
20
154.687500
0
VERTEX
5
269
100
AcDbEntity
8
1
100
AcDbVertex
100
AcDb2dVertex
62
5
10
176.937500
20
154.062500
0
VERTEX
5
26a
100
AcDbEntity
8
1
100
AcDbVertex
100
AcDb2dVertex
62
5
10
175.687500
20
153.750000
0
VERTEX
5
26b
100
AcDbEntity
8
1
100
AcDbVertex
100
AcDb2dVertex
62
5
10
173.812500
20
153.750000
0
VERTEX
5
26c
100
AcDbEntity
8
1
100
AcDbVertex
100
AcDb2dVertex
62
5
10
172.562500
20
154.062500
0
VERTEX
5
26d
100
AcDbEntity
8
1
100
AcDbVertex
100
AcDb2dVertex
62
5
10
171.312500
20
154.687500
0
VERTEX
5
26e
100
AcDbEntity
8
1
100
AcDbVertex
100
AcDb2dVertex
62
5
10
171.000000
20
155.000000
0
SEQEND
5
26f
100
AcDbEntity
8
1
0
POLYLINE
5
270
100
AcDbEntity
8
1
6
DOT2
62
5
100
AcDb2dPolyline
66
1
10
0.0
20
0.0
30
0.0
70
0
0
VERTEX
5
271
100
AcDbEntity
8
1
100
AcDbVertex
100
AcDb2dVertex
62
5
10
171.625000
20
144.375000
0
VERTEX
5
272
100
AcDbEntity
8
1
100
AcDbVertex
100
AcDb2dVertex
62
5
10
171.000000
20
145.312500
0
VERTEX
5
273
100
AcDbEntity
8
1
100
AcDbVertex
100
AcDb2dVertex
62
5
10
178.500000
20
145.312500
0
SEQEND
5
274
100
AcDbEntity
8
1
0
LINE
5
275
100
AcDbEntity
8
1
100
AcDbLine
6
DOT2
62
5
10
178.500000
20
144.687500
11
178.500000
21
145.937500
0
POLYLINE
5
276
100
AcDbEntity
8
1
6
DOT2
62
5
100
AcDb2dPolyline
66
1
10
0.0
20
0.0
30
0.0
70
0
0
VERTEX
5
277
100
AcDbEntity
8
1
100
AcDbVertex
100
AcDb2dVertex
62
5
10
173.187500
20
148.750000
0
VERTEX
5
278
100
AcDbEntity
8
1
100
AcDbVertex
100
AcDb2dVertex
62
5
10
171.625000
20
149.062500
0
VERTEX
5
279
100
AcDbEntity
8
1
100
AcDbVertex
100
AcDb2dVertex
62
5
10
171.000000
20
150.000000
0
VERTEX
5
27a
100
AcDbEntity
8
1
100
AcDbVertex
100
AcDb2dVertex
62
5
10
171.000000
20
150.937500
0
VERTEX
5
27b
100
AcDbEntity
8
1
100
AcDbVertex
100
AcDb2dVertex
62
5
10
171.312500
20
151.562500
0
VERTEX
5
27c
100
AcDbEntity
8
1
100
AcDbVertex
100
AcDb2dVertex
62
5
10
172.250000
20
151.875000
0
VERTEX
5
27d
100
AcDbEntity
8
1
100
AcDbVertex
100
AcDb2dVertex
62
5
10
173.187500
20
151.875000
0
VERTEX
5
27e
100
AcDbEntity
8
1
100
AcDbVertex
100
AcDb2dVertex
62
5
10
174.125000
20
151.562500
0
VERTEX
5
27f
100
AcDbEntity
8
1
100
AcDbVertex
100
AcDb2dVertex
62
5
10
178.500000
20
148.750000
0
VERTEX
5
280
100
AcDbEntity
8
1
100
AcDbVertex
100
AcDb2dVertex
62
5
10
178.500000
20
151.875000
0
VERTEX
5
281
100
AcDbEntity
8
1
100
AcDbVertex
100
AcDb2dVertex
62
5
10
177.562500
20
151.875000
0
SEQEND
5
282
100
AcDbEntity
8
1
0
ARC
5
283
100
AcDbEntity
8
0
100
AcDbCircle
6
CONTINUOUS
62
5
10
203.750000
20
97.878775
40
0.500000
100
AcDbArc
50
-179.999998
51
-91.636576
0
LINE
5
284
100
AcDbEntity
8
0
100
AcDbLine
6
CONTINUOUS
62
5
10
203.250000
20
97.878775
11
203.250000
21
100.514082
0
ARC
5
285
100
AcDbEntity
8
0
100
AcDbCircle
6
CONTINUOUS
62
5
10
203.750000
20
100.514082
40
0.500000
100
AcDbArc
50
91.636576
51
179.999998
0
LINE
5
286
100
AcDbEntity
8
0
100
AcDbLine
6
CONTINUOUS
62
5
10
203.735720
20
101.013878
11
204.750000
21
101.042857
0
LINE
5
287
100
AcDbEntity
8
0
100
AcDbLine
6
CONTINUOUS
62
5
10
204.750000
20
97.350000
11
203.735720
21
97.378979
0
CIRCLE
5
288
100
AcDbEntity
8
0
100
AcDbCircle
6
CONTINUOUS
62
5
10
139.750000
20
150.008684
40
2.250000
0
CIRCLE
5
289
100
AcDbEntity
8
0
100
AcDbCircle
6
CONTINUOUS
62
5
10
139.750000
20
150.008684
40
4.000000
0
ARC
5
28a
100
AcDbEntity
8
0
100
AcDbCircle
6
CONTINUOUS
62
5
10
138.750000
20
119.008684
40
1.000000
100
AcDbArc
50
179.999998
51
-89.999999
0
LINE
5
28b
100
AcDbEntity
8
0
100
AcDbLine
6
CONTINUOUS
62
5
10
137.750000
20
119.008684
11
137.750000
21
137.008684
0
ARC
5
28c
100
AcDbEntity
8
0
100
AcDbCircle
6
CONTINUOUS
62
5
10
138.750000
20
137.008684
40
1.000000
100
AcDbArc
50
89.999999
51
179.999998
0
LINE
5
28d
100
AcDbEntity
8
0
100
AcDbLine
6
CONTINUOUS
62
5
10
138.750000
20
138.008684
11
144.014375
21
138.008684
0
LINE
5
28e
100
AcDbEntity
8
0
100
AcDbLine
6
CONTINUOUS
62
5
10
144.014375
20
118.008684
11
138.750000
21
118.008684
0
ARC
5
28f
100
AcDbEntity
8
0
100
AcDbCircle
6
CONTINUOUS
62
5
10
84.750000
20
143.008684
40
0.500000
100
AcDbArc
50
-89.999999
51
0.000000
0
POLYLINE
5
290
100
AcDbEntity
8
0
6
CONTINUOUS
62
5
100
AcDb2dPolyline
66
1
10
0.0
20
0.0
30
0.0
70
0
0
VERTEX
5
291
100
AcDbEntity
8
0
100
AcDbVertex
100
AcDb2dVertex
62
5
10
84.750000
20
142.508684
0
VERTEX
5
292
100
AcDbEntity
8
0
100
AcDbVertex
100
AcDb2dVertex
62
5
10
83.750000
20
142.508684
0
VERTEX
5
293
100
AcDbEntity
8
0
100
AcDbVertex
100
AcDb2dVertex
62
5
10
83.750000
20
141.508684
0
VERTEX
5
294
100
AcDbEntity
8
0
100
AcDbVertex
100
AcDb2dVertex
62
5
10
84.750000
20
141.508684
0
SEQEND
5
295
100
AcDbEntity
8
0
0
ARC
5
296
100
AcDbEntity
8
0
100
AcDbCircle
6
CONTINUOUS
62
5
10
84.750000
20
141.008684
40
0.500000
100
AcDbArc
50
0.000000
51
89.999999
0
POLYLINE
5
297
100
AcDbEntity
8
0
6
CONTINUOUS
62
5
100
AcDb2dPolyline
66
1
10
0.0
20
0.0
30
0.0
70
0
0
VERTEX
5
298
100
AcDbEntity
8
0
100
AcDbVertex
100
AcDb2dVertex
62
5
10
85.250000
20
141.008684
0
VERTEX
5
299
100
AcDbEntity
8
0
100
AcDbVertex
100
AcDb2dVertex
62
5
10
85.250000
20
140.008684
0
VERTEX
5
29a
100
AcDbEntity
8
0
100
AcDbVertex
100
AcDb2dVertex
62
5
10
86.250000
20
140.008684
0
VERTEX
5
29b
100
AcDbEntity
8
0
100
AcDbVertex
100
AcDb2dVertex
62
5
10
86.250000
20
141.008684
0
SEQEND
5
29c
100
AcDbEntity
8
0
0
ARC
5
29d
100
AcDbEntity
8
0
100
AcDbCircle
6
CONTINUOUS
62
5
10
86.750000
20
141.008684
40
0.500000
100
AcDbArc
50
89.999999
51
-179.999998
0
POLYLINE
5
29e
100
AcDbEntity
8
0
6
CONTINUOUS
62
5
100
AcDb2dPolyline
66
1
10
0.0
20
0.0
30
0.0
70
0
0
VERTEX
5
29f
100
AcDbEntity
8
0
100
AcDbVertex
100
AcDb2dVertex
62
5
10
86.750000
20
141.508684
0
VERTEX
5
2a0
100
AcDbEntity
8
0
100
AcDbVertex
100
AcDb2dVertex
62
5
10
87.750000
20
141.508684
0
VERTEX
5
2a1
100
AcDbEntity
8
0
100
AcDbVertex
100
AcDb2dVertex
62
5
10
87.750000
20
142.508684
0
VERTEX
5
2a2
100
AcDbEntity
8
0
100
AcDbVertex
100
AcDb2dVertex
62
5
10
86.750000
20
142.508684
0
SEQEND
5
2a3
100
AcDbEntity
8
0
0
ARC
5
2a4
100
AcDbEntity
8
0
100
AcDbCircle
6
CONTINUOUS
62
5
10
86.750000
20
143.008684
40
0.500000
100
AcDbArc
50
-179.999998
51
-89.999999
0
POLYLINE
5
2a5
100
AcDbEntity
8
0
6
CONTINUOUS
62
5
100
AcDb2dPolyline
66
1
10
0.0
20
0.0
30
0.0
70
0
0
VERTEX
5
2a6
100
AcDbEntity
8
0
100
AcDbVertex
100
AcDb2dVertex
62
5
10
86.250000
20
143.008684
0
VERTEX
5
2a7
100
AcDbEntity
8
0
100
AcDbVertex
100
AcDb2dVertex
62
5
10
86.250000
20
144.008684
0
VERTEX
5
2a8
100
AcDbEntity
8
0
100
AcDbVertex
100
AcDb2dVertex
62
5
10
85.250000
20
144.008684
0
VERTEX
5
2a9
100
AcDbEntity
8
0
100
AcDbVertex
100
AcDb2dVertex
62
5
10
85.250000
20
143.008684
0
SEQEND
5
2aa
100
AcDbEntity
8
0
0
CIRCLE
5
2ab
100
AcDbEntity
8
0
100
AcDbCircle
6
CONTINUOUS
62
5
10
85.750000
20
150.008684
40
2.250000
0
CIRCLE
5
2ac
100
AcDbEntity
8
0
100
AcDbCircle
6
CONTINUOUS
62
5
10
85.750000
20
150.008684
40
4.000000
0
ARC
5
2ad
100
AcDbEntity
8
0
100
AcDbCircle
6
CONTINUOUS
62
5
10
86.750000
20
119.008684
40
1.000000
100
AcDbArc
50
-89.999999
51
0.000000
0
LINE
5
2ae
100
AcDbEntity
8
0
100
AcDbLine
6
CONTINUOUS
62
5
10
87.750000
20
119.008684
11
87.750000
21
137.008684
0
ARC
5
2af
100
AcDbEntity
8
0
100
AcDbCircle
6
CONTINUOUS
62
5
10
86.750000
20
137.008684
40
1.000000
100
AcDbArc
50
0.000000
51
89.999999
0
LINE
5
2b0
100
AcDbEntity
8
0
100
AcDbLine
6
CONTINUOUS
62
5
10
86.750000
20
138.008684
11
81.485625
21
138.008684
0
LINE
5
2b1
100
AcDbEntity
8
0
100
AcDbLine
6
CONTINUOUS
62
5
10
81.485625
20
118.008684
11
86.750000
21
118.008684
0
CIRCLE
5
2b2
100
AcDbEntity
8
0
100
AcDbCircle
6
CONTINUOUS
62
5
10
85.750000
20
142.008684
40
4.000000
0
ARC
5
2b3
100
AcDbEntity
8
0
100
AcDbCircle
6
CONTINUOUS
62
5
10
116.250000
20
133.617369
40
0.500000
100
AcDbArc
50
0.000000
51
89.999999
0
LINE
5
2b4
100
AcDbEntity
8
0
100
AcDbLine
6
CONTINUOUS
62
5
10
116.750000
20
133.617369
11
116.750000
21
132.417369
0
ARC
5
2b5
100
AcDbEntity
8
0
100
AcDbCircle
6
CONTINUOUS
62
5
10
116.250000
20
132.417369
40
0.500000
100
AcDbArc
50
-89.999999
51
0.000000
0
LINE
5
2b6
100
AcDbEntity
8
0
100
AcDbLine
6
CONTINUOUS
62
5
10
116.250000
20
131.917369
11
109.250000
21
131.917369
0
ARC
5
2b7
100
AcDbEntity
8
0
100
AcDbCircle
6
CONTINUOUS
62
5
10
109.250000
20
132.417369
40
0.500000
100
AcDbArc
50
179.999998
51
-89.999999
0
LINE
5
2b8
100
AcDbEntity
8
0
100
AcDbLine
6
CONTINUOUS
62
5
10
108.750000
20
132.417369
11
108.750000
21
133.617369
0
ARC
5
2b9
100
AcDbEntity
8
0
100
AcDbCircle
6
CONTINUOUS
62
5
10
109.250000
20
133.617369
40
0.500000
100
AcDbArc
50
89.999999
51
179.999998
0
LINE
5
2ba
100
AcDbEntity
8
0
100
AcDbLine
6
CONTINUOUS
62
5
10
109.250000
20
134.117369
11
116.250000
21
134.117369
0
ARC
5
2bb
100
AcDbEntity
8
0
100
AcDbCircle
6
CONTINUOUS
62
5
10
112.750000
20
133.008684
40
8.500000
100
AcDbArc
50
7.433430
51
172.566569
0
LINE
5
2bc
100
AcDbEntity
8
0
100
AcDbLine
6
CONTINUOUS
62
5
10
121.178565
20
134.108365
11
122.197222
21
134.008684
0
ARC
5
2bd
100
AcDbEntity
8
0
100
AcDbCircle
6
CONTINUOUS
62
5
10
112.750000
20
133.008684
40
9.500000
100
AcDbArc
50
6.042328
51
173.957670
0
LINE
5
2be
100
AcDbEntity
8
0
100
AcDbLine
6
CONTINUOUS
62
5
10
103.302778
20
134.008684
11
104.321435
21
134.108365
0
ARC
5
2bf
100
AcDbEntity
8
0
100
AcDbCircle
6
CONTINUOUS
62
5
10
112.750000
20
133.008684
40
8.500000
100
AcDbArc
50
-172.566569
51
-7.433430
0
LINE
5
2c0
100
AcDbEntity
8
0
100
AcDbLine
6
CONTINUOUS
62
5
10
121.178565
20
131.909004
11
122.197222
21
132.008684
0
ARC
5
2c1
100
AcDbEntity
8
0
100
AcDbCircle
6
CONTINUOUS
62
5
10
112.750000
20
133.008684
40
9.500000
100
AcDbArc
50
-173.957670
51
-6.042328
0
LINE
5
2c2
100
AcDbEntity
8
0
100
AcDbLine
6
CONTINUOUS
62
5
10
103.302778
20
132.008684
11
104.321435
21
131.909004
0
LINE
5
2c3
100
AcDbEntity
8
0
100
AcDbLine
6
CONTINUOUS
62
5
10
144.250000
20
107.008684
11
144.014375
21
107.532336
0
ARC
5
2c4
100
AcDbEntity
8
0
100
AcDbCircle
6
CONTINUOUS
62
5
10
134.250000
20
113.008684
40
2.250000
100
AcDbArc
50
89.999999
51
-89.999999
0
LINE
5
2c5
100
AcDbEntity
8
0
100
AcDbLine
6
CONTINUOUS
62
5
10
134.250000
20
115.258684
11
136.250000
21
115.258684
0
ARC
5
2c6
100
AcDbEntity
8
0
100
AcDbCircle
6
CONTINUOUS
62
5
10
136.250000
20
113.008684
40
2.250000
100
AcDbArc
50
-89.999999
51
89.999999
0
LINE
5
2c7
100
AcDbEntity
8
0
100
AcDbLine
6
CONTINUOUS
62
5
10
136.250000
20
110.758684
11
134.250000
21
110.758684
0
CIRCLE
5
2c8
100
AcDbEntity
8
0
100
AcDbCircle
6
CONTINUOUS
62
5
10
122.750000
20
108.258684
40
2.250000
0
CIRCLE
5
2c9
100
AcDbEntity
8
0
100
AcDbCircle
6
CONTINUOUS
62
5
10
112.750000
20
108.250000
40
2.150000
0
CIRCLE
5
2ca
100
AcDbEntity
8
0
100
AcDbCircle
6
CONTINUOUS
62
5
10
112.750000
20
95.008684
40
1.000000
0
POLYLINE
5
2cb
100
AcDbEntity
8
0
6
CONTINUOUS
62
5
100
AcDb2dPolyline
66
1
10
0.0
20
0.0
30
0.0
70
1
0
VERTEX
5
2cc
100
AcDbEntity
8
0
100
AcDbVertex
100
AcDb2dVertex
62
5
10
114.653997
20
95.760316
0
VERTEX
5
2cd
100
AcDbEntity
8
0
100
AcDbVertex
100
AcDb2dVertex
62
5
10
116.898368
20
95.760316
0
VERTEX
5
2ce
100
AcDbEntity
8
0
100
AcDbVertex
100
AcDb2dVertex
62
5
10
116.898368
20
101.557052
0
VERTEX
5
2cf
100
AcDbEntity
8
0
100
AcDbVertex
100
AcDb2dVertex
62
5
10
114.653997
20
101.557052
0
SEQEND
5
2d0
100
AcDbEntity
8
0
0
LINE
5
2d1
100
AcDbEntity
8
0
100
AcDbLine
6
CONTINUOUS
62
5
10
105.004510
20
96.517812
11
103.798295
21
96.867811
0
LINE
5
2d2
100
AcDbEntity
8
0
100
AcDbLine
6
CONTINUOUS
62
5
10
100.495490
20
96.517812
11
101.701705
21
96.867811
0
LINE
5
2d3
100
AcDbEntity
8
0
100
AcDbLine
6
CONTINUOUS
62
5
10
105.904510
20
98.076658
11
104.998295
21
98.946272
0
ARC
5
2d4
100
AcDbEntity
8
0
100
AcDbCircle
6
CONTINUOUS
62
5
10
102.750000
20
99.508684
40
2.150000
100
AcDbArc
50
-171.305680
51
-8.694318
0
CIRCLE
5
2d5
100
AcDbEntity
8
0
100
AcDbCircle
6
CONTINUOUS
62
5
10
102.750000
20
98.858684
40
2.250000
0
LINE
5
2d6
100
AcDbEntity
8
0
100
AcDbLine
6
CONTINUOUS
62
5
10
103.650000
20
101.981584
11
103.950000
21
100.761971
0
LINE
5
2d7
100
AcDbEntity
8
0
100
AcDbLine
6
CONTINUOUS
62
5
10
101.850000
20
101.981584
11
101.550000
21
100.761971
0
LINE
5
2d8
100
AcDbEntity
8
0
100
AcDbLine
6
CONTINUOUS
62
5
10
99.595490
20
98.076658
11
100.501705
21
98.946272
0
CIRCLE
5
2d9
100
AcDbEntity
8
0
100
AcDbCircle
6
CONTINUOUS
62
5
10
102.750000
20
108.258684
40
2.250000
0
LINE
5
2da
100
AcDbEntity
8
0
100
AcDbLine
6
CONTINUOUS
62
5
10
81.250000
20
107.008684
11
81.485625
21
107.532336
0
ARC
5
2db
100
AcDbEntity
8
0
100
AcDbCircle
6
CONTINUOUS
62
5
10
89.250000
20
113.008684
40
2.250000
100
AcDbArc
50
89.999999
51
-89.999999
0
LINE
5
2dc
100
AcDbEntity
8
0
100
AcDbLine
6
CONTINUOUS
62
5
10
89.250000
20
115.258684
11
91.250000
21
115.258684
0
ARC
5
2dd
100
AcDbEntity
8
0
100
AcDbCircle
6
CONTINUOUS
62
5
10
91.250000
20
113.008684
40
2.250000
100
AcDbArc
50
-89.999999
51
89.999999
0
LINE
5
2de
100
AcDbEntity
8
0
100
AcDbLine
6
CONTINUOUS
62
5
10
91.250000
20
110.758684
11
89.250000
21
110.758684
0
CIRCLE
5
2df
100
AcDbEntity
8
0
100
AcDbCircle
6
CONTINUOUS
62
5
10
98.750000
20
95.008684
40
1.000000
0
CIRCLE
5
2e0
100
AcDbEntity
8
0
100
AcDbCircle
6
CONTINUOUS
62
5
10
102.750000
20
98.858684
40
3.250000
0
POLYLINE
5
2e1
100
AcDbEntity
8
0
6
CONTINUOUS
62
5
100
AcDb2dPolyline
66
1
10
0.0
20
0.0
30
0.0
70
1
0
VERTEX
5
2e2
100
AcDbEntity
8
0
100
AcDbVertex
100
AcDb2dVertex
62
5
10
110.846003
20
101.557052
0
VERTEX
5
2e3
100
AcDbEntity
8
0
100
AcDbVertex
100
AcDb2dVertex
62
5
10
108.601632
20
101.557052
0
VERTEX
5
2e4
100
AcDbEntity
8
0
100
AcDbVertex
100
AcDb2dVertex
62
5
10
108.601632
20
95.760316
0
VERTEX
5
2e5
100
AcDbEntity
8
0
100
AcDbVertex
100
AcDb2dVertex
62
5
10
110.846003
20
95.760316
0
SEQEND
5
2e6
100
AcDbEntity
8
0
0
LINE
5
2e7
100
AcDbEntity
8
0
100
AcDbLine
6
CONTINUOUS
62
5
10
106.750000
20
103.658684
11
118.750000
21
103.658684
0
CIRCLE
5
2e8
100
AcDbEntity
8
0
100
AcDbCircle
6
CONTINUOUS
62
5
10
112.750000
20
108.250000
40
4.000000
0
ARC
5
2e9
100
AcDbEntity
8
0
100
AcDbCircle
6
CONTINUOUS
62
5
10
112.777820
20
108.266534
40
5.972185
100
AcDbArc
50
-0.075311
51
52.564615
0
ARC
5
2ea
100
AcDbEntity
8
0
100
AcDbCircle
6
CONTINUOUS
62
5
10
115.277845
20
111.358684
40
2.000000
100
AcDbArc
50
55.588491
51
89.999999
0
LINE
5
2eb
100
AcDbEntity
8
0
100
AcDbLine
6
CONTINUOUS
62
5
10
115.277845
20
113.358684
11
110.222155
21
113.358684
0
ARC
5
2ec
100
AcDbEntity
8
0
100
AcDbCircle
6
CONTINUOUS
62
5
10
110.222155
20
111.358684
40
2.000000
100
AcDbArc
50
89.999999
51
129.194966
0
ARC
5
2ed
100
AcDbEntity
8
0
100
AcDbCircle
6
CONTINUOUS
62
5
10
112.750000
20
108.258684
40
6.000000
100
AcDbArc
50
129.194966
51
-179.999998
0
LINE
5
2ee
100
AcDbEntity
8
0
100
AcDbLine
6
CONTINUOUS
62
5
10
106.750000
20
108.258684
11
106.750000
21
103.508684
0
LINE
5
2ef
100
AcDbEntity
8
0
100
AcDbLine
6
CONTINUOUS
62
5
10
118.750000
20
103.508684
11
118.750000
21
108.258684
0
ARC
5
2f0
100
AcDbEntity
8
0
100
AcDbCircle
6
CONTINUOUS
62
5
10
136.250000
20
113.008684
40
4.000000
100
AcDbArc
50
-89.999999
51
89.999999
0
LINE
5
2f1
100
AcDbEntity
8
0
100
AcDbLine
6
CONTINUOUS
62
5
10
136.250000
20
109.008684
11
134.250000
21
109.008684
0
ARC
5
2f2
100
AcDbEntity
8
0
100
AcDbCircle
6
CONTINUOUS
62
5
10
134.250000
20
113.008684
40
4.000000
100
AcDbArc
50
89.999999
51
-89.999999
0
LINE
5
2f3
100
AcDbEntity
8
0
100
AcDbLine
6
CONTINUOUS
62
5
10
134.250000
20
117.008684
11
136.250000
21
117.008684
0
ARC
5
2f4
100
AcDbEntity
8
0
100
AcDbCircle
6
CONTINUOUS
62
5
10
91.250000
20
113.008684
40
4.000000
100
AcDbArc
50
-89.999999
51
89.999999
0
LINE
5
2f5
100
AcDbEntity
8
0
100
AcDbLine
6
CONTINUOUS
62
5
10
91.250000
20
109.008684
11
89.250000
21
109.008684
0
ARC
5
2f6
100
AcDbEntity
8
0
100
AcDbCircle
6
CONTINUOUS
62
5
10
89.250000
20
113.008684
40
4.000000
100
AcDbArc
50
89.999999
51
-89.999999
0
LINE
5
2f7
100
AcDbEntity
8
0
100
AcDbLine
6
CONTINUOUS
62
5
10
89.250000
20
117.008684
11
91.250000
21
117.008684
0
POLYLINE
5
2f8
100
AcDbEntity
8
0
6
CONTINUOUS
62
5
100
AcDb2dPolyline
66
1
10
0.0
20
0.0
30
0.0
70
1
0
VERTEX
5
2f9
100
AcDbEntity
8
0
100
AcDbVertex
100
AcDb2dVertex
62
5
10
98.950000
20
117.008684
0
VERTEX
5
2fa
100
AcDbEntity
8
0
100
AcDbVertex
100
AcDb2dVertex
62
5
10
126.550000
20
117.008684
0
VERTEX
5
2fb
100
AcDbEntity
8
0
100
AcDbVertex
100
AcDb2dVertex
62
5
10
126.370000
20
118.008684
0
VERTEX
5
2fc
100
AcDbEntity
8
0
100
AcDbVertex
100
AcDb2dVertex
62
5
10
99.130000
20
118.008684
0
SEQEND
5
2fd
100
AcDbEntity
8
0
0
POLYLINE
5
2fe
100
AcDbEntity
8
1
6
DOT2
62
5
100
AcDb2dPolyline
66
1
10
0.0
20
0.0
30
0.0
70
0
0
VERTEX
5
2ff
100
AcDbEntity
8
1
100
AcDbVertex
100
AcDb2dVertex
62
5
10
44.125000
20
154.383684
0
VERTEX
5
300
100
AcDbEntity
8
1
100
AcDbVertex
100
AcDb2dVertex
62
5
10
43.500000
20
155.321184
0
VERTEX
5
301
100
AcDbEntity
8
1
100
AcDbVertex
100
AcDb2dVertex
62
5
10
51.000000
20
155.321184
0
SEQEND
5
302
100
AcDbEntity
8
1
0
LINE
5
303
100
AcDbEntity
8
1
100
AcDbLine
6
DOT2
62
5
10
51.000000
20
154.696184
11
51.000000
21
155.946184
0
POLYLINE
5
304
100
AcDbEntity
8
1
6
DOT2
62
5
100
AcDb2dPolyline
66
1
10
0.0
20
0.0
30
0.0
70
0
0
VERTEX
5
305
100
AcDbEntity
8
1
100
AcDbVertex
100
AcDb2dVertex
62
5
10
44.125000
20
144.383684
0
VERTEX
5
306
100
AcDbEntity
8
1
100
AcDbVertex
100
AcDb2dVertex
62
5
10
43.500000
20
145.321184
0
VERTEX
5
307
100
AcDbEntity
8
1
100
AcDbVertex
100
AcDb2dVertex
62
5
10
51.000000
20
145.321184
0
SEQEND
5
308
100
AcDbEntity
8
1
0
LINE
5
309
100
AcDbEntity
8
1
100
AcDbLine
6
DOT2
62
5
10
51.000000
20
144.696184
11
51.000000
21
145.946184
0
POLYLINE
5
30a
100
AcDbEntity
8
1
6
DOT2
62
5
100
AcDb2dPolyline
66
1
10
0.0
20
0.0
30
0.0
70
0
0
VERTEX
5
30b
100
AcDbEntity
8
1
100
AcDbVertex
100
AcDb2dVertex
62
5
10
45.687500
20
148.758684
0
VERTEX
5
30c
100
AcDbEntity
8
1
100
AcDbVertex
100
AcDb2dVertex
62
5
10
44.125000
20
149.071184
0
VERTEX
5
30d
100
AcDbEntity
8
1
100
AcDbVertex
100
AcDb2dVertex
62
5
10
43.500000
20
150.008684
0
VERTEX
5
30e
100
AcDbEntity
8
1
100
AcDbVertex
100
AcDb2dVertex
62
5
10
43.500000
20
150.946184
0
VERTEX
5
30f
100
AcDbEntity
8
1
100
AcDbVertex
100
AcDb2dVertex
62
5
10
43.812500
20
151.571184
0
VERTEX
5
310
100
AcDbEntity
8
1
100
AcDbVertex
100
AcDb2dVertex
62
5
10
44.750000
20
151.883684
0
VERTEX
5
311
100
AcDbEntity
8
1
100
AcDbVertex
100
AcDb2dVertex
62
5
10
45.687500
20
151.883684
0
VERTEX
5
312
100
AcDbEntity
8
1
100
AcDbVertex
100
AcDb2dVertex
62
5
10
46.625000
20
151.571184
0
VERTEX
5
313
100
AcDbEntity
8
1
100
AcDbVertex
100
AcDb2dVertex
62
5
10
51.000000
20
148.758684
0
VERTEX
5
314
100
AcDbEntity
8
1
100
AcDbVertex
100
AcDb2dVertex
62
5
10
51.000000
20
151.883684
0
VERTEX
5
315
100
AcDbEntity
8
1
100
AcDbVertex
100
AcDb2dVertex
62
5
10
50.062500
20
151.883684
0
SEQEND
5
316
100
AcDbEntity
8
1
0
LINE
5
317
100
AcDbEntity
8
1
100
AcDbLine
6
CONTINUOUS
62
5
10
40.000000
20
340.000000
11
40.000000
21
308.000000
0
LINE
5
318
100
AcDbEntity
8
1
100
AcDbLine
6
CONTINUOUS
62
5
10
0.000000
20
308.000000
11
320.000000
21
308.000000
0
ARC
5
319
100
AcDbEntity
8
0
100
AcDbCircle
6
CONTINUOUS
62
5
10
138.750000
20
159.008684
40
0.500000
100
AcDbArc
50
-89.999999
51
0.000000
0
POLYLINE
5
31a
100
AcDbEntity
8
0
6
CONTINUOUS
62
5
100
AcDb2dPolyline
66
1
10
0.0
20
0.0
30
0.0
70
0
0
VERTEX
5
31b
100
AcDbEntity
8
0
100
AcDbVertex
100
AcDb2dVertex
62
5
10
138.750000
20
158.508684
0
VERTEX
5
31c
100
AcDbEntity
8
0
100
AcDbVertex
100
AcDb2dVertex
62
5
10
137.750000
20
158.508684
0
VERTEX
5
31d
100
AcDbEntity
8
0
100
AcDbVertex
100
AcDb2dVertex
62
5
10
137.750000
20
157.508684
0
VERTEX
5
31e
100
AcDbEntity
8
0
100
AcDbVertex
100
AcDb2dVertex
62
5
10
138.750000
20
157.508684
0
SEQEND
5
31f
100
AcDbEntity
8
0
0
ARC
5
320
100
AcDbEntity
8
0
100
AcDbCircle
6
CONTINUOUS
62
5
10
138.750000
20
157.008684
40
0.500000
100
AcDbArc
50
0.000000
51
89.999999
0
POLYLINE
5
321
100
AcDbEntity
8
0
6
CONTINUOUS
62
5
100
AcDb2dPolyline
66
1
10
0.0
20
0.0
30
0.0
70
0
0
VERTEX
5
322
100
AcDbEntity
8
0
100
AcDbVertex
100
AcDb2dVertex
62
5
10
139.250000
20
157.008684
0
VERTEX
5
323
100
AcDbEntity
8
0
100
AcDbVertex
100
AcDb2dVertex
62
5
10
139.250000
20
156.008684
0
VERTEX
5
324
100
AcDbEntity
8
0
100
AcDbVertex
100
AcDb2dVertex
62
5
10
140.250000
20
156.008684
0
VERTEX
5
325
100
AcDbEntity
8
0
100
AcDbVertex
100
AcDb2dVertex
62
5
10
140.250000
20
157.008684
0
SEQEND
5
326
100
AcDbEntity
8
0
0
ARC
5
327
100
AcDbEntity
8
0
100
AcDbCircle
6
CONTINUOUS
62
5
10
140.750000
20
157.008684
40
0.500000
100
AcDbArc
50
89.999999
51
-179.999998
0
POLYLINE
5
328
100
AcDbEntity
8
0
6
CONTINUOUS
62
5
100
AcDb2dPolyline
66
1
10
0.0
20
0.0
30
0.0
70
0
0
VERTEX
5
329
100
AcDbEntity
8
0
100
AcDbVertex
100
AcDb2dVertex
62
5
10
140.750000
20
157.508684
0
VERTEX
5
32a
100
AcDbEntity
8
0
100
AcDbVertex
100
AcDb2dVertex
62
5
10
141.750000
20
157.508684
0
VERTEX
5
32b
100
AcDbEntity
8
0
100
AcDbVertex
100
AcDb2dVertex
62
5
10
141.750000
20
158.508684
0
VERTEX
5
32c
100
AcDbEntity
8
0
100
AcDbVertex
100
AcDb2dVertex
62
5
10
140.750000
20
158.508684
0
SEQEND
5
32d
100
AcDbEntity
8
0
0
ARC
5
32e
100
AcDbEntity
8
0
100
AcDbCircle
6
CONTINUOUS
62
5
10
140.750000
20
159.008684
40
0.500000
100
AcDbArc
50
-179.999998
51
-89.999999
0
POLYLINE
5
32f
100
AcDbEntity
8
0
6
CONTINUOUS
62
5
100
AcDb2dPolyline
66
1
10
0.0
20
0.0
30
0.0
70
0
0
VERTEX
5
330
100
AcDbEntity
8
0
100
AcDbVertex
100
AcDb2dVertex
62
5
10
140.250000
20
159.008684
0
VERTEX
5
331
100
AcDbEntity
8
0
100
AcDbVertex
100
AcDb2dVertex
62
5
10
140.250000
20
160.008684
0
VERTEX
5
332
100
AcDbEntity
8
0
100
AcDbVertex
100
AcDb2dVertex
62
5
10
139.250000
20
160.008684
0
VERTEX
5
333
100
AcDbEntity
8
0
100
AcDbVertex
100
AcDb2dVertex
62
5
10
139.250000
20
159.008684
0
SEQEND
5
334
100
AcDbEntity
8
0
0
CIRCLE
5
335
100
AcDbEntity
8
0
100
AcDbCircle
6
CONTINUOUS
62
5
10
139.750000
20
158.008684
40
4.000000
0
ARC
5
336
100
AcDbEntity
8
0
100
AcDbCircle
6
CONTINUOUS
62
5
10
112.750000
20
166.991316
40
8.500000
100
AcDbArc
50
-172.566569
51
-7.433430
0
LINE
5
337
100
AcDbEntity
8
0
100
AcDbLine
6
CONTINUOUS
62
5
10
121.178565
20
165.891635
11
122.197222
21
165.991316
0
ARC
5
338
100
AcDbEntity
8
0
100
AcDbCircle
6
CONTINUOUS
62
5
10
112.750000
20
166.991316
40
9.500000
100
AcDbArc
50
-173.957670
51
-6.042328
0
LINE
5
339
100
AcDbEntity
8
0
100
AcDbLine
6
CONTINUOUS
62
5
10
103.302778
20
165.991316
11
104.321435
21
165.891635
0
LINE
5
33a
100
AcDbEntity
8
1
100
AcDbLine
6
CONTINUOUS
62
5
10
203.250000
20
210.000000
11
177.750000
21
210.000000
0
LINE
5
33b
100
AcDbEntity
8
1
100
AcDbLine
6
CONTINUOUS
62
5
10
203.250000
20
90.000000
11
177.750000
21
90.000000
0
POLYLINE
5
33c
100
AcDbEntity
8
1
6
CONTINUOUS
62
5
100
AcDb2dPolyline
66
1
10
0.0
20
0.0
30
0.0
70
0
0
VERTEX
5
33d
100
AcDbEntity
8
1
100
AcDbVertex
100
AcDb2dVertex
62
5
10
179.750000
20
150.000000
0
VERTEX
5
33e
100
AcDbEntity
8
1
100
AcDbVertex
100
AcDb2dVertex
62
5
10
179.750000
20
90.000000
0
VERTEX
5
33f
100
AcDbEntity
8
1
100
AcDbVertex
100
AcDb2dVertex
62
5
10
178.750000
20
96.000000
0
VERTEX
5
340
100
AcDbEntity
8
1
100
AcDbVertex
100
AcDb2dVertex
62
5
10
180.750000
20
96.000000
0
VERTEX
5
341
100
AcDbEntity
8
1
100
AcDbVertex
100
AcDb2dVertex
62
5
10
179.750000
20
90.000000
0
VERTEX
5
342
100
AcDbEntity
8
1
100
AcDbVertex
100
AcDb2dVertex
62
5
10
179.250000
20
96.000000
0
VERTEX
5
343
100
AcDbEntity
8
1
100
AcDbVertex
100
AcDb2dVertex
62
5
10
180.250000
20
96.000000
0
VERTEX
5
344
100
AcDbEntity
8
1
100
AcDbVertex
100
AcDb2dVertex
62
5
10
179.750000
20
90.000000
0
SEQEND
5
345
100
AcDbEntity
8
1
0
POLYLINE
5
346
100
AcDbEntity
8
1
6
CONTINUOUS
62
5
100
AcDb2dPolyline
66
1
10
0.0
20
0.0
30
0.0
70
0
0
VERTEX
5
347
100
AcDbEntity
8
1
100
AcDbVertex
100
AcDb2dVertex
62
5
10
179.750000
20
150.000000
0
VERTEX
5
348
100
AcDbEntity
8
1
100
AcDbVertex
100
AcDb2dVertex
62
5
10
179.750000
20
210.000000
0
VERTEX
5
349
100
AcDbEntity
8
1
100
AcDbVertex
100
AcDb2dVertex
62
5
10
180.750000
20
204.000000
0
VERTEX
5
34a
100
AcDbEntity
8
1
100
AcDbVertex
100
AcDb2dVertex
62
5
10
178.750000
20
204.000000
0
VERTEX
5
34b
100
AcDbEntity
8
1
100
AcDbVertex
100
AcDb2dVertex
62
5
10
179.750000
20
210.000000
0
VERTEX
5
34c
100
AcDbEntity
8
1
100
AcDbVertex
100
AcDb2dVertex
62
5
10
180.250000
20
204.000000
0
VERTEX
5
34d
100
AcDbEntity
8
1
100
AcDbVertex
100
AcDb2dVertex
62
5
10
179.250000
20
204.000000
0
VERTEX
5
34e
100
AcDbEntity
8
1
100
AcDbVertex
100
AcDb2dVertex
62
5
10
179.750000
20
210.000000
0
SEQEND
5
34f
100
AcDbEntity
8
1
0
LINE
5
350
100
AcDbEntity
8
1
100
AcDbLine
6
CONTINUOUS
62
5
10
83.250000
20
89.508684
11
50.250000
21
89.508684
0
LINE
5
351
100
AcDbEntity
8
1
100
AcDbLine
6
CONTINUOUS
62
5
10
83.250000
20
210.508684
11
50.250000
21
210.508684
0
POLYLINE
5
352
100
AcDbEntity
8
1
6
CONTINUOUS
62
5
100
AcDb2dPolyline
66
1
10
0.0
20
0.0
30
0.0
70
0
0
VERTEX
5
353
100
AcDbEntity
8
1
100
AcDbVertex
100
AcDb2dVertex
62
5
10
52.250000
20
150.008684
0
VERTEX
5
354
100
AcDbEntity
8
1
100
AcDbVertex
100
AcDb2dVertex
62
5
10
52.250000
20
89.508684
0
VERTEX
5
355
100
AcDbEntity
8
1
100
AcDbVertex
100
AcDb2dVertex
62
5
10
51.250000
20
95.508684
0
VERTEX
5
356
100
AcDbEntity
8
1
100
AcDbVertex
100
AcDb2dVertex
62
5
10
53.250000
20
95.508684
0
VERTEX
5
357
100
AcDbEntity
8
1
100
AcDbVertex
100
AcDb2dVertex
62
5
10
52.250000
20
89.508684
0
VERTEX
5
358
100
AcDbEntity
8
1
100
AcDbVertex
100
AcDb2dVertex
62
5
10
51.750000
20
95.508684
0
VERTEX
5
359
100
AcDbEntity
8
1
100
AcDbVertex
100
AcDb2dVertex
62
5
10
52.750000
20
95.508684
0
VERTEX
5
35a
100
AcDbEntity
8
1
100
AcDbVertex
100
AcDb2dVertex
62
5
10
52.250000
20
89.508684
0
SEQEND
5
35b
100
AcDbEntity
8
1
0
POLYLINE
5
35c
100
AcDbEntity
8
1
6
CONTINUOUS
62
5
100
AcDb2dPolyline
66
1
10
0.0
20
0.0
30
0.0
70
0
0
VERTEX
5
35d
100
AcDbEntity
8
1
100
AcDbVertex
100
AcDb2dVertex
62
5
10
52.250000
20
150.008684
0
VERTEX
5
35e
100
AcDbEntity
8
1
100
AcDbVertex
100
AcDb2dVertex
62
5
10
52.250000
20
210.508684
0
VERTEX
5
35f
100
AcDbEntity
8
1
100
AcDbVertex
100
AcDb2dVertex
62
5
10
53.250000
20
204.508684
0
VERTEX
5
360
100
AcDbEntity
8
1
100
AcDbVertex
100
AcDb2dVertex
62
5
10
51.250000
20
204.508684
0
VERTEX
5
361
100
AcDbEntity
8
1
100
AcDbVertex
100
AcDb2dVertex
62
5
10
52.250000
20
210.508684
0
VERTEX
5
362
100
AcDbEntity
8
1
100
AcDbVertex
100
AcDb2dVertex
62
5
10
52.750000
20
204.508684
0
VERTEX
5
363
100
AcDbEntity
8
1
100
AcDbVertex
100
AcDb2dVertex
62
5
10
51.750000
20
204.508684
0
VERTEX
5
364
100
AcDbEntity
8
1
100
AcDbVertex
100
AcDb2dVertex
62
5
10
52.250000
20
210.508684
0
SEQEND
5
365
100
AcDbEntity
8
1
0
POLYLINE
5
366
100
AcDbEntity
8
0
6
CONTINUOUS
62
5
100
AcDb2dPolyline
66
1
10
0.0
20
0.0
30
0.0
70
1
0
VERTEX
5
367
100
AcDbEntity
8
0
100
AcDbVertex
100
AcDb2dVertex
62
5
10
204.750000
20
210.000000
0
VERTEX
5
368
100
AcDbEntity
8
0
100
AcDbVertex
100
AcDb2dVertex
62
5
10
204.750000
20
90.000000
0
VERTEX
5
369
100
AcDbEntity
8
0
100
AcDbVertex
100
AcDb2dVertex
62
5
10
242.750000
20
89.508684
0
VERTEX
5
36a
100
AcDbEntity
8
0
100
AcDbVertex
100
AcDb2dVertex
62
5
10
242.750000
20
210.508684
0
SEQEND
5
36b
100
AcDbEntity
8
0
0
ARC
5
36c
100
AcDbEntity
8
0
100
AcDbCircle
6
CONTINUOUS
62
5
10
129.750000
20
180.008684
40
3.000000
100
AcDbArc
50
0.000000
51
89.999999
0
POLYLINE
5
36d
100
AcDbEntity
8
0
6
CONTINUOUS
62
5
100
AcDb2dPolyline
66
1
10
0.0
20
0.0
30
0.0
70
0
0
VERTEX
5
36e
100
AcDbEntity
8
0
100
AcDbVertex
100
AcDb2dVertex
62
5
10
129.750000
20
183.008684
0
VERTEX
5
36f
100
AcDbEntity
8
0
100
AcDbVertex
100
AcDb2dVertex
62
5
10
128.950000
20
183.008684
0
VERTEX
5
370
100
AcDbEntity
8
0
100
AcDbVertex
100
AcDb2dVertex
62
5
10
129.130000
20
182.008684
0
VERTEX
5
371
100
AcDbEntity
8
0
100
AcDbVertex
100
AcDb2dVertex
62
5
10
129.750000
20
182.008684
0
SEQEND
5
372
100
AcDbEntity
8
0
0
ARC
5
373
100
AcDbEntity
8
0
100
AcDbCircle
6
CONTINUOUS
62
5
10
129.750000
20
180.008684
40
2.000000
100
AcDbArc
50
0.000000
51
89.999999
0
LINE
5
374
100
AcDbEntity
8
0
100
AcDbLine
6
CONTINUOUS
62
5
10
131.750000
20
180.008684
11
131.750000
21
120.008684
0
ARC
5
375
100
AcDbEntity
8
0
100
AcDbCircle
6
CONTINUOUS
62
5
10
129.750000
20
120.008684
40
2.000000
100
AcDbArc
50
-89.999999
51
0.000000
0
POLYLINE
5
376
100
AcDbEntity
8
0
6
CONTINUOUS
62
5
100
AcDb2dPolyline
66
1
10
0.0
20
0.0
30
0.0
70
0
0
VERTEX
5
377
100
AcDbEntity
8
0
100
AcDbVertex
100
AcDb2dVertex
62
5
10
129.750000
20
118.008684
0
VERTEX
5
378
100
AcDbEntity
8
0
100
AcDbVertex
100
AcDb2dVertex
62
5
10
129.130000
20
118.008684
0
VERTEX
5
379
100
AcDbEntity
8
0
100
AcDbVertex
100
AcDb2dVertex
62
5
10
128.950000
20
117.008684
0
VERTEX
5
37a
100
AcDbEntity
8
0
100
AcDbVertex
100
AcDb2dVertex
62
5
10
129.750000
20
117.008684
0
SEQEND
5
37b
100
AcDbEntity
8
0
0
ARC
5
37c
100
AcDbEntity
8
0
100
AcDbCircle
6
CONTINUOUS
62
5
10
129.750000
20
120.008684
40
3.000000
100
AcDbArc
50
-89.999999
51
0.000000
0
LINE
5
37d
100
AcDbEntity
8
0
100
AcDbLine
6
CONTINUOUS
62
5
10
132.750000
20
120.008684
11
132.750000
21
180.008684
0
ARC
5
37e
100
AcDbEntity
8
0
100
AcDbCircle
6
CONTINUOUS
62
5
10
95.750000
20
120.008684
40
3.000000
100
AcDbArc
50
179.999998
51
-89.999999
0
POLYLINE
5
37f
100
AcDbEntity
8
0
6
CONTINUOUS
62
5
100
AcDb2dPolyline
66
1
10
0.0
20
0.0
30
0.0
70
0
0
VERTEX
5
380
100
AcDbEntity
8
0
100
AcDbVertex
100
AcDb2dVertex
62
5
10
95.750000
20
117.008684
0
VERTEX
5
381
100
AcDbEntity
8
0
100
AcDbVertex
100
AcDb2dVertex
62
5
10
96.550000
20
117.008684
0
VERTEX
5
382
100
AcDbEntity
8
0
100
AcDbVertex
100
AcDb2dVertex
62
5
10
96.370000
20
118.008684
0
VERTEX
5
383
100
AcDbEntity
8
0
100
AcDbVertex
100
AcDb2dVertex
62
5
10
95.750000
20
118.008684
0
SEQEND
5
384
100
AcDbEntity
8
0
0
ARC
5
385
100
AcDbEntity
8
0
100
AcDbCircle
6
CONTINUOUS
62
5
10
95.750000
20
120.008684
40
2.000000
100
AcDbArc
50
179.999998
51
-89.999999
0
LINE
5
386
100
AcDbEntity
8
0
100
AcDbLine
6
CONTINUOUS
62
5
10
93.750000
20
120.008684
11
93.750000
21
180.008684
0
ARC
5
387
100
AcDbEntity
8
0
100
AcDbCircle
6
CONTINUOUS
62
5
10
95.750000
20
180.008684
40
2.000000
100
AcDbArc
50
89.999999
51
179.999998
0
POLYLINE
5
388
100
AcDbEntity
8
0
6
CONTINUOUS
62
5
100
AcDb2dPolyline
66
1
10
0.0
20
0.0
30
0.0
70
0
0
VERTEX
5
389
100
AcDbEntity
8
0
100
AcDbVertex
100
AcDb2dVertex
62
5
10
95.750000
20
182.008684
0
VERTEX
5
38a
100
AcDbEntity
8
0
100
AcDbVertex
100
AcDb2dVertex
62
5
10
96.370000
20
182.008684
0
VERTEX
5
38b
100
AcDbEntity
8
0
100
AcDbVertex
100
AcDb2dVertex
62
5
10
96.550000
20
183.008684
0
VERTEX
5
38c
100
AcDbEntity
8
0
100
AcDbVertex
100
AcDb2dVertex
62
5
10
95.750000
20
183.008684
0
SEQEND
5
38d
100
AcDbEntity
8
0
0
ARC
5
38e
100
AcDbEntity
8
0
100
AcDbCircle
6
CONTINUOUS
62
5
10
95.750000
20
180.008684
40
3.000000
100
AcDbArc
50
89.999999
51
179.999998
0
LINE
5
38f
100
AcDbEntity
8
0
100
AcDbLine
6
CONTINUOUS
62
5
10
92.750000
20
180.008684
11
92.750000
21
120.008684
0
ARC
5
390
100
AcDbEntity
8
0
100
AcDbCircle
6
CONTINUOUS
62
5
10
97.750000
20
122.008684
40
1.000000
100
AcDbArc
50
179.999998
51
-89.999999
0
LINE
5
391
100
AcDbEntity
8
0
100
AcDbLine
6
CONTINUOUS
62
5
10
96.750000
20
122.008684
11
96.750000
21
178.008684
0
ARC
5
392
100
AcDbEntity
8
0
100
AcDbCircle
6
CONTINUOUS
62
5
10
97.750000
20
178.008684
40
1.000000
100
AcDbArc
50
89.999999
51
179.999998
0
LINE
5
393
100
AcDbEntity
8
0
100
AcDbLine
6
CONTINUOUS
62
5
10
97.750000
20
179.008684
11
127.750000
21
179.008684
0
ARC
5
394
100
AcDbEntity
8
0
100
AcDbCircle
6
CONTINUOUS
62
5
10
127.750000
20
178.008684
40
1.000000
100
AcDbArc
50
0.000000
51
89.999999
0
LINE
5
395
100
AcDbEntity
8
0
100
AcDbLine
6
CONTINUOUS
62
5
10
128.750000
20
178.008684
11
128.750000
21
122.008684
0
ARC
5
396
100
AcDbEntity
8
0
100
AcDbCircle
6
CONTINUOUS
62
5
10
127.750000
20
122.008684
40
1.000000
100
AcDbArc
50
-89.999999
51
0.000000
0
LINE
5
397
100
AcDbEntity
8
0
100
AcDbLine
6
CONTINUOUS
62
5
10
127.750000
20
121.008684
11
97.750000
21
121.008684
0
ARC
5
398
100
AcDbEntity
8
0
100
AcDbCircle
6
CONTINUOUS
62
5
10
126.726348
20
195.485032
40
0.500000
100
AcDbArc
50
0.000000
51
89.999999
0
LINE
5
399
100
AcDbEntity
8
0
100
AcDbLine
6
CONTINUOUS
62
5
10
127.226348
20
195.485032
11
127.226348
21
192.985032
0
ARC
5
39a
100
AcDbEntity
8
0
100
AcDbCircle
6
CONTINUOUS
62
5
10
127.726348
20
192.985032
40
0.500000
100
AcDbArc
50
179.999998
51
-89.999999
0
POLYLINE
5
39b
100
AcDbEntity
8
0
6
CONTINUOUS
62
5
100
AcDb2dPolyline
66
1
10
0.0
20
0.0
30
0.0
70
0
0
VERTEX
5
39c
100
AcDbEntity
8
0
100
AcDbVertex
100
AcDb2dVertex
62
5
10
127.726348
20
192.485032
0
VERTEX
5
39d
100
AcDbEntity
8
0
100
AcDbVertex
100
AcDb2dVertex
62
5
10
144.014375
20
192.485032
0
VERTEX
5
39e
100
AcDbEntity
8
0
100
AcDbVertex
100
AcDb2dVertex
62
5
10
144.014375
20
107.532336
0
VERTEX
5
39f
100
AcDbEntity
8
0
100
AcDbVertex
100
AcDb2dVertex
62
5
10
127.726348
20
107.532336
0
SEQEND
5
3a0
100
AcDbEntity
8
0
0
ARC
5
3a1
100
AcDbEntity
8
0
100
AcDbCircle
6
CONTINUOUS
62
5
10
127.726348
20
107.032336
40
0.500000
100
AcDbArc
50
89.999999
51
179.999998
0
LINE
5
3a2
100
AcDbEntity
8
0
100
AcDbLine
6
CONTINUOUS
62
5
10
127.226348
20
107.032336
11
127.226348
21
104.532336
0
ARC
5
3a3
100
AcDbEntity
8
0
100
AcDbCircle
6
CONTINUOUS
62
5
10
126.726348
20
104.532336
40
0.500000
100
AcDbArc
50
-89.999999
51
0.000000
0
LINE
5
3a4
100
AcDbEntity
8
0
100
AcDbLine
6
CONTINUOUS
62
5
10
126.726348
20
104.032336
11
118.936000
21
104.032336
0
LINE
5
3a5
100
AcDbEntity
8
0
100
AcDbLine
6
CONTINUOUS
62
5
10
106.564000
20
104.032336
11
98.773652
21
104.032336
0
ARC
5
3a6
100
AcDbEntity
8
0
100
AcDbCircle
6
CONTINUOUS
62
5
10
98.773652
20
104.532336
40
0.500000
100
AcDbArc
50
179.999998
51
-89.999999
0
LINE
5
3a7
100
AcDbEntity
8
0
100
AcDbLine
6
CONTINUOUS
62
5
10
98.273652
20
104.532336
11
98.273652
21
107.032336
0
ARC
5
3a8
100
AcDbEntity
8
0
100
AcDbCircle
6
CONTINUOUS
62
5
10
97.773652
20
107.032336
40
0.500000
100
AcDbArc
50
0.000000
51
89.999999
0
POLYLINE
5
3a9
100
AcDbEntity
8
0
6
CONTINUOUS
62
5
100
AcDb2dPolyline
66
1
10
0.0
20
0.0
30
0.0
70
0
0
VERTEX
5
3aa
100
AcDbEntity
8
0
100
AcDbVertex
100
AcDb2dVertex
62
5
10
97.773652
20
107.532336
0
VERTEX
5
3ab
100
AcDbEntity
8
0
100
AcDbVertex
100
AcDb2dVertex
62
5
10
81.485625
20
107.532336
0
VERTEX
5
3ac
100
AcDbEntity
8
0
100
AcDbVertex
100
AcDb2dVertex
62
5
10
81.485625
20
192.485032
0
VERTEX
5
3ad
100
AcDbEntity
8
0
100
AcDbVertex
100
AcDb2dVertex
62
5
10
97.773652
20
192.485032
0
SEQEND
5
3ae
100
AcDbEntity
8
0
0
ARC
5
3af
100
AcDbEntity
8
0
100
AcDbCircle
6
CONTINUOUS
62
5
10
97.773652
20
192.985032
40
0.500000
100
AcDbArc
50
-89.999999
51
0.000000
0
LINE
5
3b0
100
AcDbEntity
8
0
100
AcDbLine
6
CONTINUOUS
62
5
10
98.273652
20
192.985032
11
98.273652
21
195.485032
0
ARC
5
3b1
100
AcDbEntity
8
0
100
AcDbCircle
6
CONTINUOUS
62
5
10
98.773652
20
195.485032
40
0.500000
100
AcDbArc
50
89.999999
51
179.999998
0
LINE
5
3b2
100
AcDbEntity
8
0
100
AcDbLine
6
CONTINUOUS
62
5
10
98.773652
20
195.985032
11
106.564000
21
195.985032
0
LINE
5
3b3
100
AcDbEntity
8
0
100
AcDbLine
6
CONTINUOUS
62
5
10
118.936000
20
195.985032
11
126.726348
21
195.985032
0
ARC
5
3b4
100
AcDbEntity
8
0
100
AcDbCircle
6
CONTINUOUS
62
5
10
127.250000
20
104.008684
40
0.500000
100
AcDbArc
50
-89.999999
51
0.000000
0
LINE
5
3b5
100
AcDbEntity
8
0
100
AcDbLine
6
CONTINUOUS
62
5
10
127.250000
20
103.508684
11
98.250000
21
103.508684
0
ARC
5
3b6
100
AcDbEntity
8
0
100
AcDbCircle
6
CONTINUOUS
62
5
10
98.250000
20
104.008684
40
0.500000
100
AcDbArc
50
179.999998
51
-89.999999
0
LINE
5
3b7
100
AcDbEntity
8
0
100
AcDbLine
6
CONTINUOUS
62
5
10
97.750000
20
104.008684
11
97.750000
21
106.508684
0
ARC
5
3b8
100
AcDbEntity
8
0
100
AcDbCircle
6
CONTINUOUS
62
5
10
97.250000
20
106.508684
40
0.500000
100
AcDbArc
50
0.000000
51
89.999999
0
POLYLINE
5
3b9
100
AcDbEntity
8
0
6
CONTINUOUS
62
5
100
AcDb2dPolyline
66
1
10
0.0
20
0.0
30
0.0
70
0
0
VERTEX
5
3ba
100
AcDbEntity
8
0
100
AcDbVertex
100
AcDb2dVertex
62
5
10
97.250000
20
107.008684
0
VERTEX
5
3bb
100
AcDbEntity
8
0
100
AcDbVertex
100
AcDb2dVertex
62
5
10
81.250000
20
107.008684
0
VERTEX
5
3bc
100
AcDbEntity
8
0
100
AcDbVertex
100
AcDb2dVertex
62
5
10
81.250000
20
193.008684
0
VERTEX
5
3bd
100
AcDbEntity
8
0
100
AcDbVertex
100
AcDb2dVertex
62
5
10
97.250000
20
193.008684
0
SEQEND
5
3be
100
AcDbEntity
8
0
0
ARC
5
3bf
100
AcDbEntity
8
0
100
AcDbCircle
6
CONTINUOUS
62
5
10
97.250000
20
193.508684
40
0.500000
100
AcDbArc
50
-89.999999
51
0.000000
0
LINE
5
3c0
100
AcDbEntity
8
0
100
AcDbLine
6
CONTINUOUS
62
5
10
97.750000
20
193.508684
11
97.750000
21
196.008684
0
ARC
5
3c1
100
AcDbEntity
8
0
100
AcDbCircle
6
CONTINUOUS
62
5
10
98.250000
20
196.008684
40
0.500000
100
AcDbArc
50
89.999999
51
179.999998
0
LINE
5
3c2
100
AcDbEntity
8
0
100
AcDbLine
6
CONTINUOUS
62
5
10
98.250000
20
196.508684
11
127.250000
21
196.508684
0
ARC
5
3c3
100
AcDbEntity
8
0
100
AcDbCircle
6
CONTINUOUS
62
5
10
127.250000
20
196.008684
40
0.500000
100
AcDbArc
50
0.000000
51
89.999999
0
LINE
5
3c4
100
AcDbEntity
8
0
100
AcDbLine
6
CONTINUOUS
62
5
10
127.750000
20
196.008684
11
127.750000
21
193.508684
0
ARC
5
3c5
100
AcDbEntity
8
0
100
AcDbCircle
6
CONTINUOUS
62
5
10
128.250000
20
193.508684
40
0.500000
100
AcDbArc
50
179.999998
51
-89.999999
0
POLYLINE
5
3c6
100
AcDbEntity
8
0
6
CONTINUOUS
62
5
100
AcDb2dPolyline
66
1
10
0.0
20
0.0
30
0.0
70
0
0
VERTEX
5
3c7
100
AcDbEntity
8
0
100
AcDbVertex
100
AcDb2dVertex
62
5
10
128.250000
20
193.008684
0
VERTEX
5
3c8
100
AcDbEntity
8
0
100
AcDbVertex
100
AcDb2dVertex
62
5
10
144.250000
20
193.008684
0
VERTEX
5
3c9
100
AcDbEntity
8
0
100
AcDbVertex
100
AcDb2dVertex
62
5
10
144.250000
20
107.008684
0
VERTEX
5
3ca
100
AcDbEntity
8
0
100
AcDbVertex
100
AcDb2dVertex
62
5
10
128.250000
20
107.008684
0
SEQEND
5
3cb
100
AcDbEntity
8
0
0
ARC
5
3cc
100
AcDbEntity
8
0
100
AcDbCircle
6
CONTINUOUS
62
5
10
128.250000
20
106.508684
40
0.500000
100
AcDbArc
50
89.999999
51
179.999998
0
LINE
5
3cd
100
AcDbEntity
8
0
100
AcDbLine
6
CONTINUOUS
62
5
10
127.750000
20
106.508684
11
127.750000
21
104.008684
0
ARC
5
3ce
100
AcDbEntity
8
0
100
AcDbCircle
6
CONTINUOUS
62
5
10
140.750000
20
203.008684
40
7.500000
100
AcDbArc
50
0.000000
51
89.999999
0
LINE
5
3cf
100
AcDbEntity
8
0
100
AcDbLine
6
CONTINUOUS
62
5
10
148.250000
20
203.008684
11
148.250000
21
97.008684
0
ARC
5
3d0
100
AcDbEntity
8
0
100
AcDbCircle
6
CONTINUOUS
62
5
10
140.750000
20
97.008684
40
7.500000
100
AcDbArc
50
-89.999999
51
0.000000
0
LINE
5
3d1
100
AcDbEntity
8
0
100
AcDbLine
6
CONTINUOUS
62
5
10
140.750000
20
89.508684
11
84.750000
21
89.508684
0
ARC
5
3d2
100
AcDbEntity
8
0
100
AcDbCircle
6
CONTINUOUS
62
5
10
84.750000
20
97.008684
40
7.500000
100
AcDbArc
50
179.999998
51
-89.999999
0
LINE
5
3d3
100
AcDbEntity
8
0
100
AcDbLine
6
CONTINUOUS
62
5
10
77.250000
20
97.008684
11
77.250000
21
203.008684
0
ARC
5
3d4
100
AcDbEntity
8
0
100
AcDbCircle
6
CONTINUOUS
62
5
10
84.750000
20
203.008684
40
7.500000
100
AcDbArc
50
89.999999
51
179.999998
0
LINE
5
3d5
100
AcDbEntity
8
0
100
AcDbLine
6
CONTINUOUS
62
5
10
84.750000
20
210.508684
11
140.750000
21
210.508684
0
ARC
5
3d6
100
AcDbEntity
8
0
100
AcDbCircle
6
CONTINUOUS
62
5
10
84.750000
20
97.008684
40
7.000000
100
AcDbArc
50
179.999998
51
-89.999999
0
LINE
5
3d7
100
AcDbEntity
8
0
100
AcDbLine
6
CONTINUOUS
62
5
10
77.750000
20
97.008684
11
77.750000
21
203.008684
0
ARC
5
3d8
100
AcDbEntity
8
0
100
AcDbCircle
6
CONTINUOUS
62
5
10
84.750000
20
203.008684
40
7.000000
100
AcDbArc
50
89.999999
51
179.999998
0
LINE
5
3d9
100
AcDbEntity
8
0
100
AcDbLine
6
CONTINUOUS
62
5
10
84.750000
20
210.008684
11
140.746626
21
210.008684
0
ARC
5
3da
100
AcDbEntity
8
0
100
AcDbCircle
6
CONTINUOUS
62
5
10
140.746626
20
203.008684
40
7.000000
100
AcDbArc
50
0.000000
51
89.999999
0
LINE
5
3db
100
AcDbEntity
8
0
100
AcDbLine
6
CONTINUOUS
62
5
10
147.746626
20
203.008684
11
147.746626
21
97.008684
0
ARC
5
3dc
100
AcDbEntity
8
0
100
AcDbCircle
6
CONTINUOUS
62
5
10
140.746626
20
97.008684
40
7.000000
100
AcDbArc
50
-89.999999
51
0.000000
0
LINE
5
3dd
100
AcDbEntity
8
0
100
AcDbLine
6
CONTINUOUS
62
5
10
140.746626
20
90.008684
11
84.750000
21
90.008684
0
POLYLINE
5
3de
100
AcDbEntity
8
1
6
CONTINUOUS
62
5
100
AcDb2dPolyline
66
1
10
0.0
20
0.0
30
0.0
70
1
0
VERTEX
5
3df
100
AcDbEntity
8
1
100
AcDbVertex
100
AcDb2dVertex
62
5
10
0.000000
20
0.000000
0
VERTEX
5
3e0
100
AcDbEntity
8
1
100
AcDbVertex
100
AcDb2dVertex
62
5
10
0.000000
20
340.000000
0
VERTEX
5
3e1
100
AcDbEntity
8
1
100
AcDbVertex
100
AcDb2dVertex
62
5
10
320.000000
20
340.000000
0
VERTEX
5
3e2
100
AcDbEntity
8
1
100
AcDbVertex
100
AcDb2dVertex
62
5
10
320.000000
20
0.000000
0
VERTEX
5
3e3
100
AcDbEntity
8
1
100
AcDbVertex
100
AcDb2dVertex
62
5
10
0.000000
20
0.000000
0
SEQEND
5
3e4
100
AcDbEntity
8
1
0
ENDSEC
0
SECTION
2
OBJECTS
0
DICTIONARY
5
3e5
100
AcDbDictionary
3
ACAD_GROUP
350
3e6
3
ACAD_MLINESTYLE
350
3e7
0
DICTIONARY
5
3e6
102
{ACAD_REACTORS
330
3e5
102
}
100
AcDbDictionary
0
DICTIONARY
5
3e7
102
{ACAD_REACTORS
330
3e5
102
}
100
AcDbDictionary
3
STANDARD
350
3e8
0
MLINESTYLE
5
3e8
102
{ACAD_REACTORS
330
3e7
102
}
100
AcDbMlineStyle
2
STANDARD
70
0
3

62
0
51
90.0
52
90.0
71
2
49
0.5
62
256
6
BYLAYER
49
-0.5
62
256
6
BYLAYER
0
ENDSEC
0
EOF
