0
SECTION
2
HEADER
9
$ACADVER
1
AC1012
9
$EXTMIN
10
-0.013701
20
-0.013701
30
0.0
9
$EXTMAX
10
12.606299
20
13.386299
30
0.0
9
$LIMMIN
10
-0.348005
20
-0.348005
9
$LIMMAX
10
320.199995
20
340.011995
9
$DIMSCALE
40
1.000000
9
$PDMODE
70
2
9
$PDSIZE
40
0.0
  9
$HANDSEED
  5
2d9
0
ENDSEC
0
SECTION
2
CLASSES
0
ENDSEC
0
SECTION
2
TABLES
0
TABLE
2
LTYPE
5
1e
100
AcDbSymbolTable
70
12
0
LTYPE
5
1f
100
AcDbSymbolTableRecord
100
AcDbLinetypeTableRecord
2
BYBLOCK
70
0
3

72
65
73
0
40
0.0
0
LTYPE
5
20
100
AcDbSymbolTableRecord
100
AcDbLinetypeTableRecord
2
BYLAYER
70
0
3

72
65
73
0
40
0.0
0
LTYPE
5
21
100
AcDbSymbolTableRecord
100
AcDbLinetypeTableRecord
2
CONTINUOUS
70
64
3
Solid line
72
65
73
0
40
0.0
0
LTYPE
5
22
100
AcDbSymbolTableRecord
100
AcDbLinetypeTableRecord
2
DASHED
70
64
3
__ __ __ __ __ __ __ __ __ __ __ __ __ __ __
72
65
73
2
40
0.75
49
0.5
74
0
49
-0.25
74
0
0
LTYPE
5
23
100
AcDbSymbolTableRecord
100
AcDbLinetypeTableRecord
2
DOT
70
64
3
...............................................
72
65
73
2
40
0.25
49
0.0
74
0
49
-0.25
74
0
0
LTYPE
5
24
100
AcDbSymbolTableRecord
100
AcDbLinetypeTableRecord
2
DASHDOT
70
64
3
__ . __ . __ . __ . __ . __ . __ . __ . __ . --
72
65
73
4
40
1.0
49
0.5
74
0
49
-0.25
74
0
49
0.0
74
0
49
-0.25
74
0
0
LTYPE
5
25
100
AcDbSymbolTableRecord
100
AcDbLinetypeTableRecord
2
CENTER
70
64
3
____ _ ____ _ ____ _ ____ _ ____ _ ____ _ ____
72
65
73
4
40
2.0
49
1.25
74
0
49
-0.25
74
0
49
0.25
74
0
49
-0.25
74
0
0
LTYPE
5
26
100
AcDbSymbolTableRecord
100
AcDbLinetypeTableRecord
2
PHANTOM
70
64
3
_____ _ _ _____ _ _ _____ _ _ _____ _ _ ____
72
65
73
6
40
2.5
49
1.25
74
0
49
-0.25
74
0
49
0.25
74
0
49
-0.25
74
0
49
0.25
74
0
49
-0.25
74
0
0
LTYPE
5
27
100
AcDbSymbolTableRecord
100
AcDbLinetypeTableRecord
2
HIDDEN
70
64
3
_ _ _ _ _ _ _ _ _ _ _ _ _ _ _ _ _ _ _ _ _ _ _
72
65
73
2
40
0.375
49
0.25
74
0
49
-0.125
74
0
0
LTYPE
5
28
100
AcDbSymbolTableRecord
100
AcDbLinetypeTableRecord
2
BORDER
70
64
3
__ __ . __ __ . __ __ . __ __ . __ __ . __ __
72
65
73
6
40
1.75
49
0.5
74
0
49
-0.25
74
0
49
0.5
74
0
49
-0.25
74
0
49
0.0
74
0
49
-0.25
74
0
0
LTYPE
5
29
100
AcDbSymbolTableRecord
100
AcDbLinetypeTableRecord
2
DIVIDE
70
64
3
__ . . __ . . __ . . __ . . __ . . __ . . __
72
65
73
6
40
1.25
49
0.5
74
0
49
-0.25
74
0
49
0.0
74
0
49
-0.25
74
0
49
0.0
74
0
49
-0.25
74
0
0
LTYPE
5
2a
100
AcDbSymbolTableRecord
100
AcDbLinetypeTableRecord
2
DOT2
70
64
3
...............................................
72
65
73
2
40
0.125
49
0.0
74
0
49
-0.125
74
0
0
ENDTAB
0
TABLE
2
STYLE
5
2b
100
AcDbSymbolTable
70
1
0
STYLE
5
2c
100
AcDbSymbolTableRecord
100
AcDbTextStyleTableRecord
2
STANDARD
70
64
40
0.0
41
1.0
50
0.0
71
0
42
5.0
3
txt
4
bigfont
0
ENDTAB
0
TABLE
2
LAYER
5
2d
100
AcDbSymbolTable
70
2
0
LAYER
5
2e
100
AcDbSymbolTableRecord
100
AcDbLayerTableRecord
2
0
70
0
62
7
6
CONTINUOUS
0
LAYER
5
2f
100
AcDbSymbolTableRecord
100
AcDbLayerTableRecord
2
1
70
0
62
7
6
CONTINUOUS
0
ENDTAB
0
TABLE
2
APPID
5
30
100
AcDbSymbolTable
70
1
0
APPID
5
31
100
AcDbSymbolTableRecord
100
AcDbRegAppTableRecord
2
ACAD
70
64
0
ENDTAB
0
TABLE
2
DIMSTYLE
5
32
100
AcDbSymbolTable
70
0
0
ENDTAB
0
TABLE
2
UCS
5
33
100
AcDbSymbolTable
70
0
0
ENDTAB
0
TABLE
2
VIEW
5
34
100
AcDbSymbolTable
70
0
0
ENDTAB
0
TABLE
2
VPORT
5
35
100
AcDbSymbolTable
70
0
0
ENDTAB
0
TABLE
2
BLOCK_RECORD
5
36
100
AcDbSymbolTable
70
0
0
BLOCK_RECORD
5
37
100
AcDbSymbolTableRecord
100
AcDbBlockTableRecord
2
*MODEL_SPACE
0
BLOCK_RECORD
5
38
100
AcDbSymbolTableRecord
100
AcDbBlockTableRecord
2
*PAPER_SPACE
0
BLOCK_RECORD
5
39
100
AcDbSymbolTableRecord
100
AcDbBlockTableRecord
2
OPEN
0
BLOCK_RECORD
5
3a
100
AcDbSymbolTableRecord
100
AcDbBlockTableRecord
2
HALF
0
BLOCK_RECORD
5
3b
100
AcDbSymbolTableRecord
100
AcDbBlockTableRecord
2
CLOSEDBLANK
0
BLOCK_RECORD
5
3c
100
AcDbSymbolTableRecord
100
AcDbBlockTableRecord
2
HALFCLOSE_R
0
BLOCK_RECORD
5
3d
100
AcDbSymbolTableRecord
100
AcDbBlockTableRecord
2
DOT
0
BLOCK_RECORD
5
3e
100
AcDbSymbolTableRecord
100
AcDbBlockTableRecord
2
HALFOPEN_R
0
BLOCK_RECORD
5
3f
100
AcDbSymbolTableRecord
100
AcDbBlockTableRecord
2
CLOSEDF
0
BLOCK_RECORD
5
40
100
AcDbSymbolTableRecord
100
AcDbBlockTableRecord
2
HALF_R
0
ENDTAB
0
ENDSEC
0
SECTION
2
BLOCKS
0
BLOCK
5
41
100
AcDbEntity
8
0
100
AcDbBlockBegin
2
*MODEL_SPACE
70
0
10
0.0
20
0.0
30
0.0
3
*MODEL_SPACE
1

0
ENDBLK
5
42
100
AcDbEntity
8
0
100
AcDbBlockEnd
0
BLOCK
5
43
100
AcDbEntity
67
1
8
0
100
AcDbBlockBegin
2
*PAPER_SPACE
70
0
10
0.0
20
0.0
30
0.0
3
*PAPER_SPACE
1

0
ENDBLK
5
44
100
AcDbEntity
67
1
8
0
100
AcDbBlockEnd
0
BLOCK
5
45
100
AcDbEntity
8
0
100
AcDbBlockBegin
2
OPEN
70
0
10
0.0
20
0.0
30
0.0
3
OPEN
1

0
LINE
5
46
100
AcDbEntity
8
0
6
BYBLOCK
62
0
100
AcDbLine
10
0.000000
20
0.000000
11
-1.000000
21
0.000000
0
LINE
5
47
100
AcDbEntity
8
0
6
BYBLOCK
62
0
100
AcDbLine
10
-1.000000
20
-0.166667
11
0.000000
21
0.000000
0
LINE
5
48
100
AcDbEntity
8
0
6
BYBLOCK
62
0
100
AcDbLine
10
-1.000000
20
0.166667
11
0.000000
21
0.000000
0
ENDBLK
5
49
100
AcDbEntity
8
0
100
AcDbBlockEnd
0
BLOCK
5
4a
100
AcDbEntity
8
0
100
AcDbBlockBegin
2
HALF
70
0
10
0.0
20
0.0
30
0.0
3
HALF
1

0
SOLID
5
4b
100
AcDbEntity
8
0
6
BYBLOCK
62
0
100
AcDbTrace
10
-1.000000
20
0.166667
11
-1.000000
21
-0.166667
12
0.000000
22
0.000000
13
0.000000
23
0.000000
0
ENDBLK
5
4c
100
AcDbEntity
8
0
100
AcDbBlockEnd
0
BLOCK
5
4d
100
AcDbEntity
8
0
100
AcDbBlockBegin
2
CLOSEDBLANK
70
0
10
0.0
20
0.0
30
0.0
3
CLOSEDBLANK
1

0
LINE
5
4e
100
AcDbEntity
8
0
6
BYBLOCK
62
0
100
AcDbLine
10
-1.000000
20
0.166667
11
-1.000000
21
-0.166667
0
LINE
5
4f
100
AcDbEntity
8
0
6
BYBLOCK
62
0
100
AcDbLine
10
0.000000
20
0.000000
11
-1.000000
21
-0.166667
0
LINE
5
50
100
AcDbEntity
8
0
6
BYBLOCK
62
0
100
AcDbLine
10
-1.000000
20
0.166667
11
0.000000
21
0.000000
0
ENDBLK
5
51
100
AcDbEntity
8
0
100
AcDbBlockEnd
0
BLOCK
5
52
100
AcDbEntity
8
0
100
AcDbBlockBegin
2
HALFCLOSE_R
70
0
10
0.0
20
0.0
30
0.0
3
HALFCLOSE_R
1

0
LINE
5
53
100
AcDbEntity
8
0
6
BYBLOCK
62
0
100
AcDbLine
10
-1.000000
20
-0.166667
11
-1.000000
21
0.000000
0
LINE
5
54
100
AcDbEntity
8
0
6
BYBLOCK
62
0
100
AcDbLine
10
-1.000000
20
-0.166667
11
0.000000
21
0.000000
0
LINE
5
55
100
AcDbEntity
8
0
6
BYBLOCK
62
0
100
AcDbLine
10
0.000000
20
0.000000
11
-1.000000
21
0.000000
0
ENDBLK
5
56
100
AcDbEntity
8
0
100
AcDbBlockEnd
0
BLOCK
5
57
100
AcDbEntity
8
0
100
AcDbBlockBegin
2
DOT
70
0
10
0.0
20
0.0
30
0.0
3
DOT
1

0
LINE
5
58
100
AcDbEntity
8
0
6
BYBLOCK
62
0
100
AcDbLine
10
0.000000
20
0.000000
11
-1.000000
21
0.000000
0
POLYLINE
5
59
100
AcDbEntity
8
0
6
BYBLOCK
62
0
100
AcDb2dPolyline
66
1
10
0.0
20
0.0
30
0.0
70
1
40
0.166667
41
0.166667
0
VERTEX
5
5a
100
AcDbEntity
8
0
100
AcDbVertex
100
AcDb2dVertex
62
10
10
-0.083333
20
0.000000
42
1.000000
0
VERTEX
5
5b
100
AcDbEntity
8
0
100
AcDbVertex
100
AcDb2dVertex
62
10
10
0.083333
20
0.000000
42
1.000000
0
SEQEND
5
5c
100
AcDbEntity
8
0
0
ENDBLK
5
5d
100
AcDbEntity
8
0
100
AcDbBlockEnd
0
BLOCK
5
5e
100
AcDbEntity
8
0
100
AcDbBlockBegin
2
HALFOPEN_R
70
0
10
0.0
20
0.0
30
0.0
3
HALFOPEN_R
1

0
LINE
5
5f
100
AcDbEntity
8
0
6
BYBLOCK
62
0
100
AcDbLine
10
-1.000000
20
-0.166667
11
0.000000
21
0.000000
0
LINE
5
60
100
AcDbEntity
8
0
6
BYBLOCK
62
0
100
AcDbLine
10
0.000000
20
0.000000
11
-1.000000
21
0.000000
0
ENDBLK
5
61
100
AcDbEntity
8
0
100
AcDbBlockEnd
0
BLOCK
5
62
100
AcDbEntity
8
0
100
AcDbBlockBegin
2
CLOSEDF
70
0
10
0.0
20
0.0
30
0.0
3
CLOSEDF
1

0
SOLID
5
63
100
AcDbEntity
8
0
6
BYBLOCK
62
0
100
AcDbTrace
10
-1.000000
20
0.166667
11
-1.000000
21
-0.166667
12
0.000000
22
0.000000
13
0.000000
23
0.000000
0
ENDBLK
5
64
100
AcDbEntity
8
0
100
AcDbBlockEnd
0
BLOCK
5
65
100
AcDbEntity
8
0
100
AcDbBlockBegin
2
HALF_R
70
0
10
0.0
20
0.0
30
0.0
3
HALF_R
1

0
SOLID
5
66
100
AcDbEntity
8
0
6
BYBLOCK
62
0
100
AcDbTrace
10
-1.000000
20
-0.166667
11
-1.000000
21
0.000000
12
0.000000
22
0.000000
13
0.000000
23
0.000000
0
ENDBLK
5
67
100
AcDbEntity
8
0
100
AcDbBlockEnd
0
ENDSEC
0
SECTION
2
ENTITIES
0
POLYLINE
5
68
100
AcDbEntity
8
1
6
CONTINUOUS
62
5
100
AcDb2dPolyline
66
1
10
0.0
20
0.0
30
0.0
70
0
0
VERTEX
5
69
100
AcDbEntity
8
1
100
AcDbVertex
100
AcDb2dVertex
62
5
10
177.000000
20
329.000000
0
VERTEX
5
6a
100
AcDbEntity
8
1
100
AcDbVertex
100
AcDb2dVertex
62
5
10
174.750000
20
323.375000
0
VERTEX
5
6b
100
AcDbEntity
8
1
100
AcDbVertex
100
AcDb2dVertex
62
5
10
177.750000
20
323.375000
0
SEQEND
5
6c
100
AcDbEntity
8
1
0
LINE
5
6d
100
AcDbEntity
8
1
100
AcDbLine
6
CONTINUOUS
62
5
10
177.000000
20
329.000000
11
177.000000
21
321.500000
0
LINE
5
6e
100
AcDbEntity
8
1
100
AcDbLine
6
CONTINUOUS
62
5
10
176.500000
20
321.500000
11
177.500000
21
321.500000
0
POLYLINE
5
6f
100
AcDbEntity
8
1
6
CONTINUOUS
62
5
100
AcDb2dPolyline
66
1
10
0.0
20
0.0
30
0.0
70
0
0
VERTEX
5
70
100
AcDbEntity
8
1
100
AcDbVertex
100
AcDb2dVertex
62
5
10
179.250000
20
325.875000
0
VERTEX
5
71
100
AcDbEntity
8
1
100
AcDbVertex
100
AcDb2dVertex
62
5
10
179.000000
20
324.312500
0
VERTEX
5
72
100
AcDbEntity
8
1
100
AcDbVertex
100
AcDb2dVertex
62
5
10
178.500000
20
322.750000
0
SEQEND
5
73
100
AcDbEntity
8
1
0
POLYLINE
5
74
100
AcDbEntity
8
1
6
CONTINUOUS
62
5
100
AcDb2dPolyline
66
1
10
0.0
20
0.0
30
0.0
70
0
0
VERTEX
5
75
100
AcDbEntity
8
1
100
AcDbVertex
100
AcDb2dVertex
62
5
10
180.500000
20
327.437500
0
VERTEX
5
76
100
AcDbEntity
8
1
100
AcDbVertex
100
AcDb2dVertex
62
5
10
180.500000
20
321.500000
0
VERTEX
5
77
100
AcDbEntity
8
1
100
AcDbVertex
100
AcDb2dVertex
62
5
10
181.000000
20
320.875000
0
VERTEX
5
78
100
AcDbEntity
8
1
100
AcDbVertex
100
AcDb2dVertex
62
5
10
183.750000
20
320.875000
0
VERTEX
5
79
100
AcDbEntity
8
1
100
AcDbVertex
100
AcDb2dVertex
62
5
10
183.250000
20
323.062500
0
SEQEND
5
7a
100
AcDbEntity
8
1
0
POLYLINE
5
7b
100
AcDbEntity
8
1
6
CONTINUOUS
62
5
100
AcDb2dPolyline
66
1
10
0.0
20
0.0
30
0.0
70
0
0
VERTEX
5
7c
100
AcDbEntity
8
1
100
AcDbVertex
100
AcDb2dVertex
62
5
10
181.000000
20
329.000000
0
VERTEX
5
7d
100
AcDbEntity
8
1
100
AcDbVertex
100
AcDb2dVertex
62
5
10
181.750000
20
327.750000
0
VERTEX
5
7e
100
AcDbEntity
8
1
100
AcDbVertex
100
AcDb2dVertex
62
5
10
182.000000
20
326.812500
0
SEQEND
5
7f
100
AcDbEntity
8
1
0
POLYLINE
5
80
100
AcDbEntity
8
1
6
CONTINUOUS
62
5
100
AcDb2dPolyline
66
1
10
0.0
20
0.0
30
0.0
70
0
0
VERTEX
5
81
100
AcDbEntity
8
1
100
AcDbVertex
100
AcDb2dVertex
62
5
10
183.500000
20
326.500000
0
VERTEX
5
82
100
AcDbEntity
8
1
100
AcDbVertex
100
AcDb2dVertex
62
5
10
184.500000
20
325.250000
0
VERTEX
5
83
100
AcDbEntity
8
1
100
AcDbVertex
100
AcDb2dVertex
62
5
10
185.250000
20
323.687500
0
SEQEND
5
84
100
AcDbEntity
8
1
0
POLYLINE
5
85
100
AcDbEntity
8
1
6
CONTINUOUS
62
5
100
AcDb2dPolyline
66
1
10
0.0
20
0.0
30
0.0
70
0
0
VERTEX
5
86
100
AcDbEntity
8
1
100
AcDbVertex
100
AcDb2dVertex
62
5
10
165.000000
20
329.000000
0
VERTEX
5
87
100
AcDbEntity
8
1
100
AcDbVertex
100
AcDb2dVertex
62
5
10
164.250000
20
329.000000
0
VERTEX
5
88
100
AcDbEntity
8
1
100
AcDbVertex
100
AcDb2dVertex
62
5
10
163.500000
20
328.687500
0
VERTEX
5
89
100
AcDbEntity
8
1
100
AcDbVertex
100
AcDb2dVertex
62
5
10
163.000000
20
327.437500
0
VERTEX
5
8a
100
AcDbEntity
8
1
100
AcDbVertex
100
AcDb2dVertex
62
5
10
163.000000
20
323.062500
0
VERTEX
5
8b
100
AcDbEntity
8
1
100
AcDbVertex
100
AcDb2dVertex
62
5
10
163.250000
20
322.125000
0
VERTEX
5
8c
100
AcDbEntity
8
1
100
AcDbVertex
100
AcDb2dVertex
62
5
10
163.500000
20
321.812500
0
VERTEX
5
8d
100
AcDbEntity
8
1
100
AcDbVertex
100
AcDb2dVertex
62
5
10
164.000000
20
321.500000
0
VERTEX
5
8e
100
AcDbEntity
8
1
100
AcDbVertex
100
AcDb2dVertex
62
5
10
164.500000
20
321.500000
0
VERTEX
5
8f
100
AcDbEntity
8
1
100
AcDbVertex
100
AcDb2dVertex
62
5
10
165.000000
20
321.812500
0
VERTEX
5
90
100
AcDbEntity
8
1
100
AcDbVertex
100
AcDb2dVertex
62
5
10
165.250000
20
322.125000
0
VERTEX
5
91
100
AcDbEntity
8
1
100
AcDbVertex
100
AcDb2dVertex
62
5
10
165.500000
20
323.062500
0
VERTEX
5
92
100
AcDbEntity
8
1
100
AcDbVertex
100
AcDb2dVertex
62
5
10
165.500000
20
324.937500
0
VERTEX
5
93
100
AcDbEntity
8
1
100
AcDbVertex
100
AcDb2dVertex
62
5
10
165.250000
20
325.562500
0
VERTEX
5
94
100
AcDbEntity
8
1
100
AcDbVertex
100
AcDb2dVertex
62
5
10
164.750000
20
325.875000
0
VERTEX
5
95
100
AcDbEntity
8
1
100
AcDbVertex
100
AcDb2dVertex
62
5
10
163.750000
20
325.875000
0
VERTEX
5
96
100
AcDbEntity
8
1
100
AcDbVertex
100
AcDb2dVertex
62
5
10
163.000000
20
325.562500
0
SEQEND
5
97
100
AcDbEntity
8
1
0
LINE
5
98
100
AcDbEntity
8
1
100
AcDbLine
6
CONTINUOUS
62
5
10
166.250000
20
327.125000
11
168.500000
21
327.125000
0
LINE
5
99
100
AcDbEntity
8
1
100
AcDbLine
6
CONTINUOUS
62
5
10
167.500000
20
329.312500
11
167.500000
21
320.562500
0
POLYLINE
5
9a
100
AcDbEntity
8
1
6
CONTINUOUS
62
5
100
AcDb2dPolyline
66
1
10
0.0
20
0.0
30
0.0
70
0
0
VERTEX
5
9b
100
AcDbEntity
8
1
100
AcDbVertex
100
AcDb2dVertex
62
5
10
167.500000
20
327.125000
0
VERTEX
5
9c
100
AcDbEntity
8
1
100
AcDbVertex
100
AcDb2dVertex
62
5
10
167.000000
20
325.250000
0
VERTEX
5
9d
100
AcDbEntity
8
1
100
AcDbVertex
100
AcDb2dVertex
62
5
10
166.250000
20
323.375000
0
SEQEND
5
9e
100
AcDbEntity
8
1
0
LINE
5
9f
100
AcDbEntity
8
1
100
AcDbLine
6
CONTINUOUS
62
5
10
167.500000
20
326.187500
11
168.500000
21
324.625000
0
LINE
5
a0
100
AcDbEntity
8
1
100
AcDbLine
6
CONTINUOUS
62
5
10
168.500000
20
329.000000
11
173.250000
21
329.000000
0
POLYLINE
5
a1
100
AcDbEntity
8
1
6
CONTINUOUS
62
5
100
AcDb2dPolyline
66
1
10
0.0
20
0.0
30
0.0
70
0
0
VERTEX
5
a2
100
AcDbEntity
8
1
100
AcDbVertex
100
AcDb2dVertex
62
5
10
170.750000
20
329.000000
0
VERTEX
5
a3
100
AcDbEntity
8
1
100
AcDbVertex
100
AcDb2dVertex
62
5
10
169.750000
20
326.812500
0
VERTEX
5
a4
100
AcDbEntity
8
1
100
AcDbVertex
100
AcDb2dVertex
62
5
10
171.250000
20
327.125000
0
VERTEX
5
a5
100
AcDbEntity
8
1
100
AcDbVertex
100
AcDb2dVertex
62
5
10
171.250000
20
324.000000
0
VERTEX
5
a6
100
AcDbEntity
8
1
100
AcDbVertex
100
AcDb2dVertex
62
5
10
170.750000
20
321.812500
0
VERTEX
5
a7
100
AcDbEntity
8
1
100
AcDbVertex
100
AcDb2dVertex
62
5
10
170.250000
20
322.125000
0
SEQEND
5
a8
100
AcDbEntity
8
1
0
POLYLINE
5
a9
100
AcDbEntity
8
1
6
CONTINUOUS
62
5
100
AcDb2dPolyline
66
1
10
0.0
20
0.0
30
0.0
70
1
0
VERTEX
5
aa
100
AcDbEntity
8
1
100
AcDbVertex
100
AcDb2dVertex
62
5
10
169.000000
20
325.250000
0
VERTEX
5
ab
100
AcDbEntity
8
1
100
AcDbVertex
100
AcDb2dVertex
62
5
10
170.250000
20
325.250000
0
VERTEX
5
ac
100
AcDbEntity
8
1
100
AcDbVertex
100
AcDb2dVertex
62
5
10
170.250000
20
323.062500
0
VERTEX
5
ad
100
AcDbEntity
8
1
100
AcDbVertex
100
AcDb2dVertex
62
5
10
169.000000
20
323.062500
0
VERTEX
5
ae
100
AcDbEntity
8
1
100
AcDbVertex
100
AcDb2dVertex
62
5
10
169.000000
20
325.250000
0
SEQEND
5
af
100
AcDbEntity
8
1
0
POLYLINE
5
b0
100
AcDbEntity
8
1
6
CONTINUOUS
62
5
100
AcDb2dPolyline
66
1
10
0.0
20
0.0
30
0.0
70
0
0
VERTEX
5
b1
100
AcDbEntity
8
1
100
AcDbVertex
100
AcDb2dVertex
62
5
10
171.750000
20
326.812500
0
VERTEX
5
b2
100
AcDbEntity
8
1
100
AcDbVertex
100
AcDb2dVertex
62
5
10
173.250000
20
326.812500
0
VERTEX
5
b3
100
AcDbEntity
8
1
100
AcDbVertex
100
AcDb2dVertex
62
5
10
173.000000
20
325.562500
0
VERTEX
5
b4
100
AcDbEntity
8
1
100
AcDbVertex
100
AcDb2dVertex
62
5
10
172.500000
20
324.000000
0
VERTEX
5
b5
100
AcDbEntity
8
1
100
AcDbVertex
100
AcDb2dVertex
62
5
10
171.750000
20
322.437500
0
SEQEND
5
b6
100
AcDbEntity
8
1
0
POLYLINE
5
b7
100
AcDbEntity
8
1
6
CONTINUOUS
62
5
100
AcDb2dPolyline
66
1
10
0.0
20
0.0
30
0.0
70
0
0
VERTEX
5
b8
100
AcDbEntity
8
1
100
AcDbVertex
100
AcDb2dVertex
62
5
10
171.750000
20
325.875000
0
VERTEX
5
b9
100
AcDbEntity
8
1
100
AcDbVertex
100
AcDb2dVertex
62
5
10
172.000000
20
324.625000
0
VERTEX
5
ba
100
AcDbEntity
8
1
100
AcDbVertex
100
AcDb2dVertex
62
5
10
173.500000
20
322.437500
0
SEQEND
5
bb
100
AcDbEntity
8
1
0
LINE
5
bc
100
AcDbEntity
8
1
100
AcDbLine
6
CONTINUOUS
62
5
10
168.250000
20
320.875000
11
173.500000
21
320.875000
0
POLYLINE
5
bd
100
AcDbEntity
8
1
6
DOT2
62
5
100
AcDb2dPolyline
66
1
10
0.0
20
0.0
30
0.0
70
0
0
VERTEX
5
be
100
AcDbEntity
8
1
100
AcDbVertex
100
AcDb2dVertex
62
5
10
236.200000
20
203.125000
0
VERTEX
5
bf
100
AcDbEntity
8
1
100
AcDbVertex
100
AcDb2dVertex
62
5
10
237.137500
20
203.750000
0
VERTEX
5
c0
100
AcDbEntity
8
1
100
AcDbVertex
100
AcDb2dVertex
62
5
10
237.137500
20
196.250000
0
SEQEND
5
c1
100
AcDbEntity
8
1
0
LINE
5
c2
100
AcDbEntity
8
1
100
AcDbLine
6
DOT2
62
5
10
236.512500
20
196.250000
11
237.762500
21
196.250000
0
POLYLINE
5
c3
100
AcDbEntity
8
1
6
DOT2
62
5
100
AcDb2dPolyline
66
1
10
0.0
20
0.0
30
0.0
70
0
0
VERTEX
5
c4
100
AcDbEntity
8
1
100
AcDbVertex
100
AcDb2dVertex
62
5
10
243.700000
20
199.687500
0
VERTEX
5
c5
100
AcDbEntity
8
1
100
AcDbVertex
100
AcDb2dVertex
62
5
10
243.700000
20
199.687500
0
VERTEX
5
c6
100
AcDbEntity
8
1
100
AcDbVertex
100
AcDb2dVertex
62
5
10
242.450000
20
199.375000
0
VERTEX
5
c7
100
AcDbEntity
8
1
100
AcDbVertex
100
AcDb2dVertex
62
5
10
241.512500
20
199.375000
0
VERTEX
5
c8
100
AcDbEntity
8
1
100
AcDbVertex
100
AcDb2dVertex
62
5
10
240.887500
20
199.687500
0
VERTEX
5
c9
100
AcDbEntity
8
1
100
AcDbVertex
100
AcDb2dVertex
62
5
10
240.575000
20
200.625000
0
VERTEX
5
ca
100
AcDbEntity
8
1
100
AcDbVertex
100
AcDb2dVertex
62
5
10
240.575000
20
202.187500
0
VERTEX
5
cb
100
AcDbEntity
8
1
100
AcDbVertex
100
AcDb2dVertex
62
5
10
240.887500
20
203.125000
0
VERTEX
5
cc
100
AcDbEntity
8
1
100
AcDbVertex
100
AcDb2dVertex
62
5
10
241.200000
20
203.437500
0
VERTEX
5
cd
100
AcDbEntity
8
1
100
AcDbVertex
100
AcDb2dVertex
62
5
10
241.825000
20
203.750000
0
VERTEX
5
ce
100
AcDbEntity
8
1
100
AcDbVertex
100
AcDb2dVertex
62
5
10
242.450000
20
203.750000
0
VERTEX
5
cf
100
AcDbEntity
8
1
100
AcDbVertex
100
AcDb2dVertex
62
5
10
243.075000
20
203.437500
0
VERTEX
5
d0
100
AcDbEntity
8
1
100
AcDbVertex
100
AcDb2dVertex
62
5
10
243.387500
20
203.125000
0
VERTEX
5
d1
100
AcDbEntity
8
1
100
AcDbVertex
100
AcDb2dVertex
62
5
10
243.700000
20
202.187500
0
VERTEX
5
d2
100
AcDbEntity
8
1
100
AcDbVertex
100
AcDb2dVertex
62
5
10
243.700000
20
198.750000
0
VERTEX
5
d3
100
AcDbEntity
8
1
100
AcDbVertex
100
AcDb2dVertex
62
5
10
243.387500
20
197.187500
0
VERTEX
5
d4
100
AcDbEntity
8
1
100
AcDbVertex
100
AcDb2dVertex
62
5
10
242.762500
20
196.562500
0
VERTEX
5
d5
100
AcDbEntity
8
1
100
AcDbVertex
100
AcDb2dVertex
62
5
10
241.825000
20
196.250000
0
VERTEX
5
d6
100
AcDbEntity
8
1
100
AcDbVertex
100
AcDb2dVertex
62
5
10
241.200000
20
196.250000
0
SEQEND
5
d7
100
AcDbEntity
8
1
0
POLYLINE
5
d8
100
AcDbEntity
8
1
6
CONTINUOUS
62
5
100
AcDb2dPolyline
66
1
10
0.0
20
0.0
30
0.0
70
0
0
VERTEX
5
d9
100
AcDbEntity
8
1
100
AcDbVertex
100
AcDb2dVertex
62
5
10
224.325000
20
168.200000
0
VERTEX
5
da
100
AcDbEntity
8
1
100
AcDbVertex
100
AcDb2dVertex
62
5
10
224.675000
20
167.800000
0
VERTEX
5
db
100
AcDbEntity
8
1
100
AcDbVertex
100
AcDb2dVertex
62
5
10
224.325000
20
167.400000
0
SEQEND
5
dc
100
AcDbEntity
8
1
0
LINE
5
dd
100
AcDbEntity
8
1
100
AcDbLine
6
CONTINUOUS
62
5
10
205.325000
20
169.056646
11
205.325000
21
197.000000
0
LINE
5
de
100
AcDbEntity
8
1
100
AcDbLine
6
CONTINUOUS
62
5
10
224.325000
20
171.500000
11
224.325000
21
197.000000
0
POLYLINE
5
df
100
AcDbEntity
8
1
6
CONTINUOUS
62
5
100
AcDb2dPolyline
66
1
10
0.0
20
0.0
30
0.0
70
0
0
VERTEX
5
e0
100
AcDbEntity
8
1
100
AcDbVertex
100
AcDb2dVertex
62
5
10
245.575000
20
195.000000
0
VERTEX
5
e1
100
AcDbEntity
8
1
100
AcDbVertex
100
AcDb2dVertex
62
5
10
224.325000
20
195.000000
0
VERTEX
5
e2
100
AcDbEntity
8
1
100
AcDbVertex
100
AcDb2dVertex
62
5
10
230.325000
20
196.000000
0
VERTEX
5
e3
100
AcDbEntity
8
1
100
AcDbVertex
100
AcDb2dVertex
62
5
10
230.325000
20
194.000000
0
VERTEX
5
e4
100
AcDbEntity
8
1
100
AcDbVertex
100
AcDb2dVertex
62
5
10
224.325000
20
195.000000
0
VERTEX
5
e5
100
AcDbEntity
8
1
100
AcDbVertex
100
AcDb2dVertex
62
5
10
230.325000
20
195.500000
0
VERTEX
5
e6
100
AcDbEntity
8
1
100
AcDbVertex
100
AcDb2dVertex
62
5
10
230.325000
20
194.500000
0
VERTEX
5
e7
100
AcDbEntity
8
1
100
AcDbVertex
100
AcDb2dVertex
62
5
10
224.325000
20
195.000000
0
SEQEND
5
e8
100
AcDbEntity
8
1
0
LINE
5
e9
100
AcDbEntity
8
1
100
AcDbLine
6
CONTINUOUS
62
5
10
224.325000
20
195.000000
11
205.325000
21
195.000000
0
POLYLINE
5
ea
100
AcDbEntity
8
1
6
CONTINUOUS
62
5
100
AcDb2dPolyline
66
1
10
0.0
20
0.0
30
0.0
70
0
0
VERTEX
5
eb
100
AcDbEntity
8
1
100
AcDbVertex
100
AcDb2dVertex
62
5
10
196.325000
20
195.000000
0
VERTEX
5
ec
100
AcDbEntity
8
1
100
AcDbVertex
100
AcDb2dVertex
62
5
10
205.325000
20
195.000000
0
VERTEX
5
ed
100
AcDbEntity
8
1
100
AcDbVertex
100
AcDb2dVertex
62
5
10
199.325000
20
194.000000
0
VERTEX
5
ee
100
AcDbEntity
8
1
100
AcDbVertex
100
AcDb2dVertex
62
5
10
199.325000
20
196.000000
0
VERTEX
5
ef
100
AcDbEntity
8
1
100
AcDbVertex
100
AcDb2dVertex
62
5
10
205.325000
20
195.000000
0
VERTEX
5
f0
100
AcDbEntity
8
1
100
AcDbVertex
100
AcDb2dVertex
62
5
10
199.325000
20
194.500000
0
VERTEX
5
f1
100
AcDbEntity
8
1
100
AcDbVertex
100
AcDb2dVertex
62
5
10
199.325000
20
195.500000
0
VERTEX
5
f2
100
AcDbEntity
8
1
100
AcDbVertex
100
AcDb2dVertex
62
5
10
205.325000
20
195.000000
0
SEQEND
5
f3
100
AcDbEntity
8
1
0
POLYLINE
5
f4
100
AcDbEntity
8
1
6
CONTINUOUS
62
5
100
AcDb2dPolyline
66
1
10
0.0
20
0.0
30
0.0
70
0
0
VERTEX
5
f5
100
AcDbEntity
8
1
100
AcDbVertex
100
AcDb2dVertex
62
5
10
131.750000
20
324.625000
0
VERTEX
5
f6
100
AcDbEntity
8
1
100
AcDbVertex
100
AcDb2dVertex
62
5
10
135.500000
20
325.562500
0
VERTEX
5
f7
100
AcDbEntity
8
1
100
AcDbVertex
100
AcDb2dVertex
62
5
10
135.750000
20
325.250000
0
VERTEX
5
f8
100
AcDbEntity
8
1
100
AcDbVertex
100
AcDb2dVertex
62
5
10
134.750000
20
324.000000
0
SEQEND
5
f9
100
AcDbEntity
8
1
0
LINE
5
fa
100
AcDbEntity
8
1
100
AcDbLine
6
CONTINUOUS
62
5
10
133.000000
20
326.500000
11
133.750000
21
322.125000
0
LINE
5
fb
100
AcDbEntity
8
1
100
AcDbLine
6
CONTINUOUS
62
5
10
140.250000
20
325.562500
11
140.500000
21
324.312500
0
LINE
5
fc
100
AcDbEntity
8
1
100
AcDbLine
6
CONTINUOUS
62
5
10
141.750000
20
325.875000
11
142.000000
21
324.625000
0
POLYLINE
5
fd
100
AcDbEntity
8
1
6
CONTINUOUS
62
5
100
AcDb2dPolyline
66
1
10
0.0
20
0.0
30
0.0
70
0
0
VERTEX
5
fe
100
AcDbEntity
8
1
100
AcDbVertex
100
AcDb2dVertex
62
5
10
143.750000
20
325.875000
0
VERTEX
5
ff
100
AcDbEntity
8
1
100
AcDbVertex
100
AcDb2dVertex
62
5
10
143.500000
20
324.312500
0
VERTEX
5
100
100
AcDbEntity
8
1
100
AcDbVertex
100
AcDb2dVertex
62
5
10
142.250000
20
322.437500
0
VERTEX
5
101
100
AcDbEntity
8
1
100
AcDbVertex
100
AcDb2dVertex
62
5
10
141.250000
20
321.500000
0
SEQEND
5
102
100
AcDbEntity
8
1
0
LINE
5
103
100
AcDbEntity
8
1
100
AcDbLine
6
CONTINUOUS
62
5
10
124.250000
20
328.062500
11
125.250000
21
326.812500
0
LINE
5
104
100
AcDbEntity
8
1
100
AcDbLine
6
CONTINUOUS
62
5
10
123.000000
20
326.187500
11
124.000000
21
324.937500
0
POLYLINE
5
105
100
AcDbEntity
8
1
6
CONTINUOUS
62
5
100
AcDb2dPolyline
66
1
10
0.0
20
0.0
30
0.0
70
0
0
VERTEX
5
106
100
AcDbEntity
8
1
100
AcDbVertex
100
AcDb2dVertex
62
5
10
123.250000
20
322.125000
0
VERTEX
5
107
100
AcDbEntity
8
1
100
AcDbVertex
100
AcDb2dVertex
62
5
10
125.000000
20
322.750000
0
VERTEX
5
108
100
AcDbEntity
8
1
100
AcDbVertex
100
AcDb2dVertex
62
5
10
126.500000
20
323.687500
0
VERTEX
5
109
100
AcDbEntity
8
1
100
AcDbVertex
100
AcDb2dVertex
62
5
10
128.500000
20
325.562500
0
SEQEND
5
10a
100
AcDbEntity
8
1
0
LINE
5
10b
100
AcDbEntity
8
1
100
AcDbLine
6
CONTINUOUS
62
5
10
127.000000
20
327.125000
11
127.500000
21
326.500000
0
LINE
5
10c
100
AcDbEntity
8
1
100
AcDbLine
6
CONTINUOUS
62
5
10
127.500000
20
328.062500
11
128.000000
21
327.437500
0
POLYLINE
5
10d
100
AcDbEntity
8
1
6
CONTINUOUS
62
5
100
AcDb2dPolyline
66
1
10
0.0
20
0.0
30
0.0
70
0
0
VERTEX
5
10e
100
AcDbEntity
8
1
100
AcDbVertex
100
AcDb2dVertex
62
5
10
115.500000
20
325.875000
0
VERTEX
5
10f
100
AcDbEntity
8
1
100
AcDbVertex
100
AcDb2dVertex
62
5
10
120.250000
20
325.875000
0
VERTEX
5
110
100
AcDbEntity
8
1
100
AcDbVertex
100
AcDb2dVertex
62
5
10
120.250000
20
325.562500
0
VERTEX
5
111
100
AcDbEntity
8
1
100
AcDbVertex
100
AcDb2dVertex
62
5
10
119.000000
20
323.375000
0
VERTEX
5
112
100
AcDbEntity
8
1
100
AcDbVertex
100
AcDb2dVertex
62
5
10
118.000000
20
322.437500
0
VERTEX
5
113
100
AcDbEntity
8
1
100
AcDbVertex
100
AcDb2dVertex
62
5
10
117.000000
20
321.812500
0
SEQEND
5
114
100
AcDbEntity
8
1
0
LINE
5
115
100
AcDbEntity
8
1
100
AcDbLine
6
CONTINUOUS
62
5
10
116.250000
20
328.062500
11
119.750000
21
328.062500
0
LINE
5
116
100
AcDbEntity
8
1
100
AcDbLine
6
CONTINUOUS
62
5
10
92.250000
20
327.750000
11
96.000000
21
327.750000
0
LINE
5
117
100
AcDbEntity
8
1
100
AcDbLine
6
CONTINUOUS
62
5
10
91.250000
20
325.562500
11
96.750000
21
325.562500
0
POLYLINE
5
118
100
AcDbEntity
8
1
6
CONTINUOUS
62
5
100
AcDb2dPolyline
66
1
10
0.0
20
0.0
30
0.0
70
0
0
VERTEX
5
119
100
AcDbEntity
8
1
100
AcDbVertex
100
AcDb2dVertex
62
5
10
93.500000
20
327.750000
0
VERTEX
5
11a
100
AcDbEntity
8
1
100
AcDbVertex
100
AcDb2dVertex
62
5
10
93.500000
20
322.750000
0
VERTEX
5
11b
100
AcDbEntity
8
1
100
AcDbVertex
100
AcDb2dVertex
62
5
10
94.000000
20
322.437500
0
VERTEX
5
11c
100
AcDbEntity
8
1
100
AcDbVertex
100
AcDb2dVertex
62
5
10
96.250000
20
322.437500
0
SEQEND
5
11d
100
AcDbEntity
8
1
0
LINE
5
11e
100
AcDbEntity
8
1
100
AcDbLine
6
CONTINUOUS
62
5
10
100.250000
20
328.062500
11
101.250000
21
326.812500
0
LINE
5
11f
100
AcDbEntity
8
1
100
AcDbLine
6
CONTINUOUS
62
5
10
99.000000
20
326.187500
11
100.000000
21
324.937500
0
POLYLINE
5
120
100
AcDbEntity
8
1
6
CONTINUOUS
62
5
100
AcDb2dPolyline
66
1
10
0.0
20
0.0
30
0.0
70
0
0
VERTEX
5
121
100
AcDbEntity
8
1
100
AcDbVertex
100
AcDb2dVertex
62
5
10
99.250000
20
322.125000
0
VERTEX
5
122
100
AcDbEntity
8
1
100
AcDbVertex
100
AcDb2dVertex
62
5
10
101.000000
20
322.750000
0
VERTEX
5
123
100
AcDbEntity
8
1
100
AcDbVertex
100
AcDb2dVertex
62
5
10
102.500000
20
323.687500
0
VERTEX
5
124
100
AcDbEntity
8
1
100
AcDbVertex
100
AcDb2dVertex
62
5
10
104.500000
20
325.562500
0
SEQEND
5
125
100
AcDbEntity
8
1
0
LINE
5
126
100
AcDbEntity
8
1
100
AcDbLine
6
CONTINUOUS
62
5
10
103.000000
20
327.125000
11
103.500000
21
326.500000
0
LINE
5
127
100
AcDbEntity
8
1
100
AcDbLine
6
CONTINUOUS
62
5
10
103.500000
20
328.062500
11
104.000000
21
327.437500
0
LINE
5
128
100
AcDbEntity
8
1
100
AcDbLine
6
CONTINUOUS
62
5
10
82.500000
20
329.000000
11
86.000000
21
329.000000
0
LINE
5
129
100
AcDbEntity
8
1
100
AcDbLine
6
CONTINUOUS
62
5
10
82.250000
20
325.875000
11
86.500000
21
325.875000
0
POLYLINE
5
12a
100
AcDbEntity
8
1
6
CONTINUOUS
62
5
100
AcDb2dPolyline
66
1
10
0.0
20
0.0
30
0.0
70
0
0
VERTEX
5
12b
100
AcDbEntity
8
1
100
AcDbVertex
100
AcDb2dVertex
62
5
10
83.500000
20
329.000000
0
VERTEX
5
12c
100
AcDbEntity
8
1
100
AcDbVertex
100
AcDb2dVertex
62
5
10
83.500000
20
324.625000
0
VERTEX
5
12d
100
AcDbEntity
8
1
100
AcDbVertex
100
AcDb2dVertex
62
5
10
83.250000
20
322.437500
0
VERTEX
5
12e
100
AcDbEntity
8
1
100
AcDbVertex
100
AcDb2dVertex
62
5
10
82.500000
20
320.562500
0
SEQEND
5
12f
100
AcDbEntity
8
1
0
LINE
5
130
100
AcDbEntity
8
1
100
AcDbLine
6
CONTINUOUS
62
5
10
85.000000
20
329.000000
11
85.000000
21
320.562500
0
POLYLINE
5
131
100
AcDbEntity
8
1
6
CONTINUOUS
62
5
100
AcDb2dPolyline
66
1
10
0.0
20
0.0
30
0.0
70
0
0
VERTEX
5
132
100
AcDbEntity
8
1
100
AcDbVertex
100
AcDb2dVertex
62
5
10
88.750000
20
329.312500
0
VERTEX
5
133
100
AcDbEntity
8
1
100
AcDbVertex
100
AcDb2dVertex
62
5
10
87.250000
20
327.750000
0
VERTEX
5
134
100
AcDbEntity
8
1
100
AcDbVertex
100
AcDb2dVertex
62
5
10
86.000000
20
326.812500
0
SEQEND
5
135
100
AcDbEntity
8
1
0
POLYLINE
5
136
100
AcDbEntity
8
1
6
CONTINUOUS
62
5
100
AcDb2dPolyline
66
1
10
0.0
20
0.0
30
0.0
70
0
0
VERTEX
5
137
100
AcDbEntity
8
1
100
AcDbVertex
100
AcDb2dVertex
62
5
10
89.000000
20
326.812500
0
VERTEX
5
138
100
AcDbEntity
8
1
100
AcDbVertex
100
AcDb2dVertex
62
5
10
88.000000
20
325.562500
0
VERTEX
5
139
100
AcDbEntity
8
1
100
AcDbVertex
100
AcDb2dVertex
62
5
10
87.250000
20
324.937500
0
VERTEX
5
13a
100
AcDbEntity
8
1
100
AcDbVertex
100
AcDb2dVertex
62
5
10
86.500000
20
324.312500
0
SEQEND
5
13b
100
AcDbEntity
8
1
0
POLYLINE
5
13c
100
AcDbEntity
8
1
6
CONTINUOUS
62
5
100
AcDb2dPolyline
66
1
10
0.0
20
0.0
30
0.0
70
0
0
VERTEX
5
13d
100
AcDbEntity
8
1
100
AcDbVertex
100
AcDb2dVertex
62
5
10
89.250000
20
324.000000
0
VERTEX
5
13e
100
AcDbEntity
8
1
100
AcDbVertex
100
AcDb2dVertex
62
5
10
88.500000
20
323.062500
0
VERTEX
5
13f
100
AcDbEntity
8
1
100
AcDbVertex
100
AcDb2dVertex
62
5
10
87.750000
20
322.125000
0
VERTEX
5
140
100
AcDbEntity
8
1
100
AcDbVertex
100
AcDb2dVertex
62
5
10
86.250000
20
320.875000
0
SEQEND
5
141
100
AcDbEntity
8
1
0
POLYLINE
5
142
100
AcDbEntity
8
1
6
CONTINUOUS
62
5
100
AcDb2dPolyline
66
1
10
0.0
20
0.0
30
0.0
70
0
0
VERTEX
5
143
100
AcDbEntity
8
1
100
AcDbVertex
100
AcDb2dVertex
62
5
10
75.500000
20
328.375000
0
VERTEX
5
144
100
AcDbEntity
8
1
100
AcDbVertex
100
AcDb2dVertex
62
5
10
75.500000
20
325.562500
0
VERTEX
5
145
100
AcDbEntity
8
1
100
AcDbVertex
100
AcDb2dVertex
62
5
10
80.000000
20
325.562500
0
VERTEX
5
146
100
AcDbEntity
8
1
100
AcDbVertex
100
AcDb2dVertex
62
5
10
80.000000
20
328.375000
0
SEQEND
5
147
100
AcDbEntity
8
1
0
LINE
5
148
100
AcDbEntity
8
1
100
AcDbLine
6
CONTINUOUS
62
5
10
77.750000
20
329.625000
11
77.750000
21
320.875000
0
POLYLINE
5
149
100
AcDbEntity
8
1
6
CONTINUOUS
62
5
100
AcDb2dPolyline
66
1
10
0.0
20
0.0
30
0.0
70
0
0
VERTEX
5
14a
100
AcDbEntity
8
1
100
AcDbVertex
100
AcDb2dVertex
62
5
10
75.000000
20
324.000000
0
VERTEX
5
14b
100
AcDbEntity
8
1
100
AcDbVertex
100
AcDb2dVertex
62
5
10
75.000000
20
320.875000
0
VERTEX
5
14c
100
AcDbEntity
8
1
100
AcDbVertex
100
AcDb2dVertex
62
5
10
80.500000
20
320.875000
0
VERTEX
5
14d
100
AcDbEntity
8
1
100
AcDbVertex
100
AcDb2dVertex
62
5
10
80.500000
20
324.000000
0
SEQEND
5
14e
100
AcDbEntity
8
1
0
POLYLINE
5
14f
100
AcDbEntity
8
1
6
CONTINUOUS
62
5
100
AcDb2dPolyline
66
1
10
0.0
20
0.0
30
0.0
70
0
0
VERTEX
5
150
100
AcDbEntity
8
1
100
AcDbVertex
100
AcDb2dVertex
62
5
10
108.500000
20
325.562500
0
VERTEX
5
151
100
AcDbEntity
8
1
100
AcDbVertex
100
AcDb2dVertex
62
5
10
110.500000
20
325.562500
0
VERTEX
5
152
100
AcDbEntity
8
1
100
AcDbVertex
100
AcDb2dVertex
62
5
10
110.250000
20
322.437500
0
SEQEND
5
153
100
AcDbEntity
8
1
0
LINE
5
154
100
AcDbEntity
8
1
100
AcDbLine
6
CONTINUOUS
62
5
10
107.750000
20
322.437500
11
112.000000
21
322.437500
0
POLYLINE
5
155
100
AcDbEntity
8
1
6
CONTINUOUS
62
5
100
AcDb2dPolyline
66
1
10
0.0
20
0.0
30
0.0
70
0
0
VERTEX
5
156
100
AcDbEntity
8
1
100
AcDbVertex
100
AcDb2dVertex
62
5
10
75.000000
20
290.500000
0
VERTEX
5
157
100
AcDbEntity
8
1
100
AcDbVertex
100
AcDb2dVertex
62
5
10
72.187500
20
284.875000
0
VERTEX
5
158
100
AcDbEntity
8
1
100
AcDbVertex
100
AcDb2dVertex
62
5
10
75.937500
20
284.875000
0
SEQEND
5
159
100
AcDbEntity
8
1
0
LINE
5
15a
100
AcDbEntity
8
1
100
AcDbLine
6
CONTINUOUS
62
5
10
75.000000
20
290.500000
11
75.000000
21
283.000000
0
LINE
5
15b
100
AcDbEntity
8
1
100
AcDbLine
6
CONTINUOUS
62
5
10
74.375000
20
283.000000
11
75.625000
21
283.000000
0
POLYLINE
5
15c
100
AcDbEntity
8
1
6
CONTINUOUS
62
5
100
AcDb2dPolyline
66
1
10
0.0
20
0.0
30
0.0
70
0
0
VERTEX
5
15d
100
AcDbEntity
8
1
100
AcDbVertex
100
AcDb2dVertex
62
5
10
80.625000
20
288.937500
0
VERTEX
5
15e
100
AcDbEntity
8
1
100
AcDbVertex
100
AcDb2dVertex
62
5
10
80.000000
20
290.187500
0
VERTEX
5
15f
100
AcDbEntity
8
1
100
AcDbVertex
100
AcDb2dVertex
62
5
10
79.062500
20
290.500000
0
VERTEX
5
160
100
AcDbEntity
8
1
100
AcDbVertex
100
AcDb2dVertex
62
5
10
78.437500
20
290.500000
0
VERTEX
5
161
100
AcDbEntity
8
1
100
AcDbVertex
100
AcDb2dVertex
62
5
10
77.812500
20
290.187500
0
VERTEX
5
162
100
AcDbEntity
8
1
100
AcDbVertex
100
AcDb2dVertex
62
5
10
77.187500
20
289.250000
0
VERTEX
5
163
100
AcDbEntity
8
1
100
AcDbVertex
100
AcDb2dVertex
62
5
10
77.187500
20
288.312500
0
VERTEX
5
164
100
AcDbEntity
8
1
100
AcDbVertex
100
AcDb2dVertex
62
5
10
77.812500
20
287.375000
0
VERTEX
5
165
100
AcDbEntity
8
1
100
AcDbVertex
100
AcDb2dVertex
62
5
10
80.000000
20
286.125000
0
VERTEX
5
166
100
AcDbEntity
8
1
100
AcDbVertex
100
AcDb2dVertex
62
5
10
80.625000
20
285.187500
0
VERTEX
5
167
100
AcDbEntity
8
1
100
AcDbVertex
100
AcDb2dVertex
62
5
10
80.625000
20
284.250000
0
VERTEX
5
168
100
AcDbEntity
8
1
100
AcDbVertex
100
AcDb2dVertex
62
5
10
80.000000
20
283.312500
0
VERTEX
5
169
100
AcDbEntity
8
1
100
AcDbVertex
100
AcDb2dVertex
62
5
10
79.062500
20
283.000000
0
VERTEX
5
16a
100
AcDbEntity
8
1
100
AcDbVertex
100
AcDb2dVertex
62
5
10
78.437500
20
283.000000
0
VERTEX
5
16b
100
AcDbEntity
8
1
100
AcDbVertex
100
AcDb2dVertex
62
5
10
77.500000
20
283.625000
0
VERTEX
5
16c
100
AcDbEntity
8
1
100
AcDbVertex
100
AcDb2dVertex
62
5
10
77.187500
20
284.875000
0
SEQEND
5
16d
100
AcDbEntity
8
1
0
POLYLINE
5
16e
100
AcDbEntity
8
1
6
CONTINUOUS
62
5
100
AcDb2dPolyline
66
1
10
0.0
20
0.0
30
0.0
70
0
0
VERTEX
5
16f
100
AcDbEntity
8
1
100
AcDbVertex
100
AcDb2dVertex
62
5
10
65.312500
20
290.500000
0
VERTEX
5
170
100
AcDbEntity
8
1
100
AcDbVertex
100
AcDb2dVertex
62
5
10
65.312500
20
284.875000
0
VERTEX
5
171
100
AcDbEntity
8
1
100
AcDbVertex
100
AcDb2dVertex
62
5
10
65.000000
20
283.625000
0
VERTEX
5
172
100
AcDbEntity
8
1
100
AcDbVertex
100
AcDb2dVertex
62
5
10
64.375000
20
283.000000
0
VERTEX
5
173
100
AcDbEntity
8
1
100
AcDbVertex
100
AcDb2dVertex
62
5
10
63.437500
20
283.000000
0
VERTEX
5
174
100
AcDbEntity
8
1
100
AcDbVertex
100
AcDb2dVertex
62
5
10
62.812500
20
283.625000
0
VERTEX
5
175
100
AcDbEntity
8
1
100
AcDbVertex
100
AcDb2dVertex
62
5
10
62.500000
20
284.875000
0
SEQEND
5
176
100
AcDbEntity
8
1
0
POLYLINE
5
177
100
AcDbEntity
8
1
6
CONTINUOUS
62
5
100
AcDb2dPolyline
66
1
10
0.0
20
0.0
30
0.0
70
0
0
VERTEX
5
178
100
AcDbEntity
8
1
100
AcDbVertex
100
AcDb2dVertex
62
5
10
52.500000
20
283.000000
0
VERTEX
5
179
100
AcDbEntity
8
1
100
AcDbVertex
100
AcDb2dVertex
62
5
10
52.500000
20
290.500000
0
VERTEX
5
17a
100
AcDbEntity
8
1
100
AcDbVertex
100
AcDb2dVertex
62
5
10
54.062500
20
283.000000
0
VERTEX
5
17b
100
AcDbEntity
8
1
100
AcDbVertex
100
AcDb2dVertex
62
5
10
55.625000
20
290.500000
0
VERTEX
5
17c
100
AcDbEntity
8
1
100
AcDbVertex
100
AcDb2dVertex
62
5
10
55.625000
20
283.000000
0
SEQEND
5
17d
100
AcDbEntity
8
1
0
POLYLINE
5
17e
100
AcDbEntity
8
1
6
CONTINUOUS
62
5
100
AcDb2dPolyline
66
1
10
0.0
20
0.0
30
0.0
70
0
0
VERTEX
5
17f
100
AcDbEntity
8
1
100
AcDbVertex
100
AcDb2dVertex
62
5
10
57.500000
20
283.000000
0
VERTEX
5
180
100
AcDbEntity
8
1
100
AcDbVertex
100
AcDb2dVertex
62
5
10
57.500000
20
290.500000
0
VERTEX
5
181
100
AcDbEntity
8
1
100
AcDbVertex
100
AcDb2dVertex
62
5
10
59.062500
20
283.000000
0
VERTEX
5
182
100
AcDbEntity
8
1
100
AcDbVertex
100
AcDb2dVertex
62
5
10
60.625000
20
290.500000
0
VERTEX
5
183
100
AcDbEntity
8
1
100
AcDbVertex
100
AcDb2dVertex
62
5
10
60.625000
20
283.000000
0
SEQEND
5
184
100
AcDbEntity
8
1
0
LINE
5
185
100
AcDbEntity
8
1
100
AcDbLine
6
CONTINUOUS
62
5
10
67.000000
20
329.312500
11
72.750000
21
329.312500
0
POLYLINE
5
186
100
AcDbEntity
8
1
6
CONTINUOUS
62
5
100
AcDb2dPolyline
66
1
10
0.0
20
0.0
30
0.0
70
0
0
VERTEX
5
187
100
AcDbEntity
8
1
100
AcDbVertex
100
AcDb2dVertex
62
5
10
66.750000
20
326.500000
0
VERTEX
5
188
100
AcDbEntity
8
1
100
AcDbVertex
100
AcDb2dVertex
62
5
10
66.750000
20
328.375000
0
VERTEX
5
189
100
AcDbEntity
8
1
100
AcDbVertex
100
AcDb2dVertex
62
5
10
73.250000
20
328.375000
0
VERTEX
5
18a
100
AcDbEntity
8
1
100
AcDbVertex
100
AcDb2dVertex
62
5
10
73.250000
20
326.500000
0
SEQEND
5
18b
100
AcDbEntity
8
1
0
LINE
5
18c
100
AcDbEntity
8
1
100
AcDbLine
6
CONTINUOUS
62
5
10
70.000000
20
329.312500
11
70.000000
21
325.875000
0
LINE
5
18d
100
AcDbEntity
8
1
100
AcDbLine
6
CONTINUOUS
62
5
10
67.500000
20
327.437500
11
69.250000
21
327.437500
0
LINE
5
18e
100
AcDbEntity
8
1
100
AcDbLine
6
CONTINUOUS
62
5
10
67.500000
20
326.500000
11
69.250000
21
326.500000
0
LINE
5
18f
100
AcDbEntity
8
1
100
AcDbLine
6
CONTINUOUS
62
5
10
70.750000
20
327.437500
11
72.500000
21
327.437500
0
LINE
5
190
100
AcDbEntity
8
1
100
AcDbLine
6
CONTINUOUS
62
5
10
70.750000
20
326.500000
11
72.500000
21
326.500000
0
POLYLINE
5
191
100
AcDbEntity
8
1
6
CONTINUOUS
62
5
100
AcDb2dPolyline
66
1
10
0.0
20
0.0
30
0.0
70
1
0
VERTEX
5
192
100
AcDbEntity
8
1
100
AcDbVertex
100
AcDb2dVertex
62
5
10
67.000000
20
325.250000
0
VERTEX
5
193
100
AcDbEntity
8
1
100
AcDbVertex
100
AcDb2dVertex
62
5
10
67.000000
20
324.000000
0
VERTEX
5
194
100
AcDbEntity
8
1
100
AcDbVertex
100
AcDb2dVertex
62
5
10
69.000000
20
324.000000
0
VERTEX
5
195
100
AcDbEntity
8
1
100
AcDbVertex
100
AcDb2dVertex
62
5
10
69.000000
20
325.250000
0
VERTEX
5
196
100
AcDbEntity
8
1
100
AcDbVertex
100
AcDb2dVertex
62
5
10
67.000000
20
325.250000
0
SEQEND
5
197
100
AcDbEntity
8
1
0
LINE
5
198
100
AcDbEntity
8
1
100
AcDbLine
6
CONTINUOUS
62
5
10
68.000000
20
324.000000
11
68.000000
21
321.500000
0
LINE
5
199
100
AcDbEntity
8
1
100
AcDbLine
6
CONTINUOUS
62
5
10
68.000000
20
323.062500
11
69.000000
21
323.062500
0
LINE
5
19a
100
AcDbEntity
8
1
100
AcDbLine
6
CONTINUOUS
62
5
10
67.000000
20
323.375000
11
67.000000
21
321.187500
0
LINE
5
19b
100
AcDbEntity
8
1
100
AcDbLine
6
CONTINUOUS
62
5
10
66.500000
20
320.875000
11
69.000000
21
321.812500
0
POLYLINE
5
19c
100
AcDbEntity
8
1
6
CONTINUOUS
62
5
100
AcDb2dPolyline
66
1
10
0.0
20
0.0
30
0.0
70
0
0
VERTEX
5
19d
100
AcDbEntity
8
1
100
AcDbVertex
100
AcDb2dVertex
62
5
10
71.000000
20
325.562500
0
VERTEX
5
19e
100
AcDbEntity
8
1
100
AcDbVertex
100
AcDb2dVertex
62
5
10
70.750000
20
324.937500
0
VERTEX
5
19f
100
AcDbEntity
8
1
100
AcDbVertex
100
AcDb2dVertex
62
5
10
70.250000
20
324.312500
0
VERTEX
5
1a0
100
AcDbEntity
8
1
100
AcDbVertex
100
AcDb2dVertex
62
5
10
69.750000
20
324.000000
0
SEQEND
5
1a1
100
AcDbEntity
8
1
0
POLYLINE
5
1a2
100
AcDbEntity
8
1
6
CONTINUOUS
62
5
100
AcDb2dPolyline
66
1
10
0.0
20
0.0
30
0.0
70
0
0
VERTEX
5
1a3
100
AcDbEntity
8
1
100
AcDbVertex
100
AcDb2dVertex
62
5
10
70.750000
20
324.937500
0
VERTEX
5
1a4
100
AcDbEntity
8
1
100
AcDbVertex
100
AcDb2dVertex
62
5
10
72.750000
20
324.937500
0
VERTEX
5
1a5
100
AcDbEntity
8
1
100
AcDbVertex
100
AcDb2dVertex
62
5
10
72.000000
20
324.000000
0
VERTEX
5
1a6
100
AcDbEntity
8
1
100
AcDbVertex
100
AcDb2dVertex
62
5
10
71.250000
20
323.375000
0
VERTEX
5
1a7
100
AcDbEntity
8
1
100
AcDbVertex
100
AcDb2dVertex
62
5
10
69.500000
20
322.750000
0
SEQEND
5
1a8
100
AcDbEntity
8
1
0
POLYLINE
5
1a9
100
AcDbEntity
8
1
6
CONTINUOUS
62
5
100
AcDb2dPolyline
66
1
10
0.0
20
0.0
30
0.0
70
0
0
VERTEX
5
1aa
100
AcDbEntity
8
1
100
AcDbVertex
100
AcDb2dVertex
62
5
10
70.500000
20
324.625000
0
VERTEX
5
1ab
100
AcDbEntity
8
1
100
AcDbVertex
100
AcDb2dVertex
62
5
10
71.000000
20
324.000000
0
VERTEX
5
1ac
100
AcDbEntity
8
1
100
AcDbVertex
100
AcDb2dVertex
62
5
10
71.750000
20
323.375000
0
VERTEX
5
1ad
100
AcDbEntity
8
1
100
AcDbVertex
100
AcDb2dVertex
62
5
10
73.500000
20
322.750000
0
SEQEND
5
1ae
100
AcDbEntity
8
1
0
POLYLINE
5
1af
100
AcDbEntity
8
1
6
CONTINUOUS
62
5
100
AcDb2dPolyline
66
1
10
0.0
20
0.0
30
0.0
70
1
0
VERTEX
5
1b0
100
AcDbEntity
8
1
100
AcDbVertex
100
AcDb2dVertex
62
5
10
70.250000
20
322.750000
0
VERTEX
5
1b1
100
AcDbEntity
8
1
100
AcDbVertex
100
AcDb2dVertex
62
5
10
70.250000
20
321.187500
0
VERTEX
5
1b2
100
AcDbEntity
8
1
100
AcDbVertex
100
AcDb2dVertex
62
5
10
72.750000
20
321.187500
0
VERTEX
5
1b3
100
AcDbEntity
8
1
100
AcDbVertex
100
AcDb2dVertex
62
5
10
72.750000
20
322.750000
0
VERTEX
5
1b4
100
AcDbEntity
8
1
100
AcDbVertex
100
AcDb2dVertex
62
5
10
70.250000
20
322.750000
0
SEQEND
5
1b5
100
AcDbEntity
8
1
0
LINE
5
1b6
100
AcDbEntity
8
1
100
AcDbLine
6
CONTINUOUS
62
5
10
67.500000
20
286.750000
11
70.625000
21
286.750000
0
LINE
5
1b7
100
AcDbEntity
8
1
100
AcDbLine
6
DOT2
62
5
10
124.075000
20
203.750000
11
126.887500
21
203.750000
0
POLYLINE
5
1b8
100
AcDbEntity
8
1
6
DOT2
62
5
100
AcDb2dPolyline
66
1
10
0.0
20
0.0
30
0.0
70
0
0
VERTEX
5
1b9
100
AcDbEntity
8
1
100
AcDbVertex
100
AcDb2dVertex
62
5
10
124.075000
20
203.750000
0
VERTEX
5
1ba
100
AcDbEntity
8
1
100
AcDbVertex
100
AcDb2dVertex
62
5
10
124.075000
20
200.000000
0
VERTEX
5
1bb
100
AcDbEntity
8
1
100
AcDbVertex
100
AcDb2dVertex
62
5
10
124.700000
20
200.625000
0
VERTEX
5
1bc
100
AcDbEntity
8
1
100
AcDbVertex
100
AcDb2dVertex
62
5
10
125.325000
20
200.937500
0
VERTEX
5
1bd
100
AcDbEntity
8
1
100
AcDbVertex
100
AcDb2dVertex
62
5
10
126.262500
20
200.937500
0
VERTEX
5
1be
100
AcDbEntity
8
1
100
AcDbVertex
100
AcDb2dVertex
62
5
10
126.887500
20
200.625000
0
VERTEX
5
1bf
100
AcDbEntity
8
1
100
AcDbVertex
100
AcDb2dVertex
62
5
10
127.200000
20
199.687500
0
VERTEX
5
1c0
100
AcDbEntity
8
1
100
AcDbVertex
100
AcDb2dVertex
62
5
10
127.200000
20
197.812500
0
VERTEX
5
1c1
100
AcDbEntity
8
1
100
AcDbVertex
100
AcDb2dVertex
62
5
10
126.575000
20
196.875000
0
VERTEX
5
1c2
100
AcDbEntity
8
1
100
AcDbVertex
100
AcDb2dVertex
62
5
10
125.637500
20
196.250000
0
VERTEX
5
1c3
100
AcDbEntity
8
1
100
AcDbVertex
100
AcDb2dVertex
62
5
10
124.075000
20
196.250000
0
SEQEND
5
1c4
100
AcDbEntity
8
1
0
LINE
5
1c5
100
AcDbEntity
8
1
100
AcDbLine
6
DOT2
62
5
10
119.075000
20
203.750000
11
121.887500
21
203.750000
0
POLYLINE
5
1c6
100
AcDbEntity
8
1
6
DOT2
62
5
100
AcDb2dPolyline
66
1
10
0.0
20
0.0
30
0.0
70
0
0
VERTEX
5
1c7
100
AcDbEntity
8
1
100
AcDbVertex
100
AcDb2dVertex
62
5
10
119.075000
20
203.750000
0
VERTEX
5
1c8
100
AcDbEntity
8
1
100
AcDbVertex
100
AcDb2dVertex
62
5
10
119.075000
20
200.000000
0
VERTEX
5
1c9
100
AcDbEntity
8
1
100
AcDbVertex
100
AcDb2dVertex
62
5
10
119.700000
20
200.625000
0
VERTEX
5
1ca
100
AcDbEntity
8
1
100
AcDbVertex
100
AcDb2dVertex
62
5
10
120.325000
20
200.937500
0
VERTEX
5
1cb
100
AcDbEntity
8
1
100
AcDbVertex
100
AcDb2dVertex
62
5
10
121.262500
20
200.937500
0
VERTEX
5
1cc
100
AcDbEntity
8
1
100
AcDbVertex
100
AcDb2dVertex
62
5
10
121.887500
20
200.625000
0
VERTEX
5
1cd
100
AcDbEntity
8
1
100
AcDbVertex
100
AcDb2dVertex
62
5
10
122.200000
20
199.687500
0
VERTEX
5
1ce
100
AcDbEntity
8
1
100
AcDbVertex
100
AcDb2dVertex
62
5
10
122.200000
20
197.812500
0
VERTEX
5
1cf
100
AcDbEntity
8
1
100
AcDbVertex
100
AcDb2dVertex
62
5
10
121.575000
20
196.875000
0
VERTEX
5
1d0
100
AcDbEntity
8
1
100
AcDbVertex
100
AcDb2dVertex
62
5
10
120.637500
20
196.250000
0
VERTEX
5
1d1
100
AcDbEntity
8
1
100
AcDbVertex
100
AcDb2dVertex
62
5
10
119.075000
20
196.250000
0
SEQEND
5
1d2
100
AcDbEntity
8
1
0
POLYLINE
5
1d3
100
AcDbEntity
8
1
6
CONTINUOUS
62
5
100
AcDb2dPolyline
66
1
10
0.0
20
0.0
30
0.0
70
0
0
VERTEX
5
1d4
100
AcDbEntity
8
1
100
AcDbVertex
100
AcDb2dVertex
62
5
10
147.750000
20
325.250000
0
VERTEX
5
1d5
100
AcDbEntity
8
1
100
AcDbVertex
100
AcDb2dVertex
62
5
10
148.750000
20
326.500000
0
VERTEX
5
1d6
100
AcDbEntity
8
1
100
AcDbVertex
100
AcDb2dVertex
62
5
10
149.250000
20
327.437500
0
VERTEX
5
1d7
100
AcDbEntity
8
1
100
AcDbVertex
100
AcDb2dVertex
62
5
10
151.750000
20
327.437500
0
VERTEX
5
1d8
100
AcDbEntity
8
1
100
AcDbVertex
100
AcDb2dVertex
62
5
10
151.750000
20
327.125000
0
VERTEX
5
1d9
100
AcDbEntity
8
1
100
AcDbVertex
100
AcDb2dVertex
62
5
10
151.000000
20
325.250000
0
VERTEX
5
1da
100
AcDbEntity
8
1
100
AcDbVertex
100
AcDb2dVertex
62
5
10
149.750000
20
323.375000
0
VERTEX
5
1db
100
AcDbEntity
8
1
100
AcDbVertex
100
AcDb2dVertex
62
5
10
148.250000
20
321.812500
0
SEQEND
5
1dc
100
AcDbEntity
8
1
0
LINE
5
1dd
100
AcDbEntity
8
1
100
AcDbLine
6
CONTINUOUS
62
5
10
150.325000
20
170.000000
11
150.325000
21
197.000000
0
LINE
5
1de
100
AcDbEntity
8
1
100
AcDbLine
6
CONTINUOUS
62
5
10
95.325000
20
170.000000
11
95.325000
21
197.000000
0
POLYLINE
5
1df
100
AcDbEntity
8
1
6
CONTINUOUS
62
5
100
AcDb2dPolyline
66
1
10
0.0
20
0.0
30
0.0
70
0
0
VERTEX
5
1e0
100
AcDbEntity
8
1
100
AcDbVertex
100
AcDb2dVertex
62
5
10
122.825000
20
195.000000
0
VERTEX
5
1e1
100
AcDbEntity
8
1
100
AcDbVertex
100
AcDb2dVertex
62
5
10
95.325000
20
195.000000
0
VERTEX
5
1e2
100
AcDbEntity
8
1
100
AcDbVertex
100
AcDb2dVertex
62
5
10
101.325000
20
196.000000
0
VERTEX
5
1e3
100
AcDbEntity
8
1
100
AcDbVertex
100
AcDb2dVertex
62
5
10
101.325000
20
194.000000
0
VERTEX
5
1e4
100
AcDbEntity
8
1
100
AcDbVertex
100
AcDb2dVertex
62
5
10
95.325000
20
195.000000
0
VERTEX
5
1e5
100
AcDbEntity
8
1
100
AcDbVertex
100
AcDb2dVertex
62
5
10
101.325000
20
195.500000
0
VERTEX
5
1e6
100
AcDbEntity
8
1
100
AcDbVertex
100
AcDb2dVertex
62
5
10
101.325000
20
194.500000
0
VERTEX
5
1e7
100
AcDbEntity
8
1
100
AcDbVertex
100
AcDb2dVertex
62
5
10
95.325000
20
195.000000
0
SEQEND
5
1e8
100
AcDbEntity
8
1
0
POLYLINE
5
1e9
100
AcDbEntity
8
1
6
CONTINUOUS
62
5
100
AcDb2dPolyline
66
1
10
0.0
20
0.0
30
0.0
70
0
0
VERTEX
5
1ea
100
AcDbEntity
8
1
100
AcDbVertex
100
AcDb2dVertex
62
5
10
122.825000
20
195.000000
0
VERTEX
5
1eb
100
AcDbEntity
8
1
100
AcDbVertex
100
AcDb2dVertex
62
5
10
150.325000
20
195.000000
0
VERTEX
5
1ec
100
AcDbEntity
8
1
100
AcDbVertex
100
AcDb2dVertex
62
5
10
144.325000
20
194.000000
0
VERTEX
5
1ed
100
AcDbEntity
8
1
100
AcDbVertex
100
AcDb2dVertex
62
5
10
144.325000
20
196.000000
0
VERTEX
5
1ee
100
AcDbEntity
8
1
100
AcDbVertex
100
AcDb2dVertex
62
5
10
150.325000
20
195.000000
0
VERTEX
5
1ef
100
AcDbEntity
8
1
100
AcDbVertex
100
AcDb2dVertex
62
5
10
144.325000
20
194.500000
0
VERTEX
5
1f0
100
AcDbEntity
8
1
100
AcDbVertex
100
AcDb2dVertex
62
5
10
144.325000
20
195.500000
0
VERTEX
5
1f1
100
AcDbEntity
8
1
100
AcDbVertex
100
AcDb2dVertex
62
5
10
150.325000
20
195.000000
0
SEQEND
5
1f2
100
AcDbEntity
8
1
0
POLYLINE
5
1f3
100
AcDbEntity
8
1
6
CONTINUOUS
62
5
100
AcDb2dPolyline
66
1
10
0.0
20
0.0
30
0.0
70
0
0
VERTEX
5
1f4
100
AcDbEntity
8
1
100
AcDbVertex
100
AcDb2dVertex
62
5
10
224.325000
20
150.400000
0
VERTEX
5
1f5
100
AcDbEntity
8
1
100
AcDbVertex
100
AcDb2dVertex
62
5
10
224.675000
20
150.000000
0
VERTEX
5
1f6
100
AcDbEntity
8
1
100
AcDbVertex
100
AcDb2dVertex
62
5
10
224.325000
20
149.600000
0
SEQEND
5
1f7
100
AcDbEntity
8
1
0
LINE
5
1f8
100
AcDbEntity
8
1
100
AcDbLine
6
CONTINUOUS
62
5
10
217.525000
20
150.750000
11
217.525000
21
151.250000
0
LINE
5
1f9
100
AcDbEntity
8
1
100
AcDbLine
6
CONTINUOUS
62
5
10
217.525000
20
151.700000
11
217.525000
21
154.950000
0
POLYLINE
5
1fa
100
AcDbEntity
8
1
6
CONTINUOUS
62
5
100
AcDb2dPolyline
66
1
10
0.0
20
0.0
30
0.0
70
0
0
VERTEX
5
1fb
100
AcDbEntity
8
1
100
AcDbVertex
100
AcDb2dVertex
62
5
10
219.725000
20
149.250000
0
VERTEX
5
1fc
100
AcDbEntity
8
1
100
AcDbVertex
100
AcDb2dVertex
62
5
10
216.393012
20
149.250000
0
VERTEX
5
1fd
100
AcDbEntity
8
1
100
AcDbVertex
100
AcDb2dVertex
62
5
10
216.393012
20
149.750000
0
VERTEX
5
1fe
100
AcDbEntity
8
1
100
AcDbVertex
100
AcDb2dVertex
62
5
10
219.725000
20
149.750000
0
SEQEND
5
1ff
100
AcDbEntity
8
1
0
POLYLINE
5
200
100
AcDbEntity
8
1
6
CONTINUOUS
62
5
100
AcDb2dPolyline
66
1
10
0.0
20
0.0
30
0.0
70
0
0
VERTEX
5
201
100
AcDbEntity
8
1
100
AcDbVertex
100
AcDb2dVertex
62
5
10
219.725000
20
150.750000
0
VERTEX
5
202
100
AcDbEntity
8
1
100
AcDbVertex
100
AcDb2dVertex
62
5
10
216.393012
20
150.750000
0
VERTEX
5
203
100
AcDbEntity
8
1
100
AcDbVertex
100
AcDb2dVertex
62
5
10
216.393012
20
150.250000
0
VERTEX
5
204
100
AcDbEntity
8
1
100
AcDbVertex
100
AcDb2dVertex
62
5
10
219.725000
20
150.250000
0
SEQEND
5
205
100
AcDbEntity
8
1
0
POLYLINE
5
206
100
AcDbEntity
8
1
6
CONTINUOUS
62
5
100
AcDb2dPolyline
66
1
10
0.0
20
0.0
30
0.0
70
0
0
VERTEX
5
207
100
AcDbEntity
8
1
100
AcDbVertex
100
AcDb2dVertex
62
5
10
219.725000
20
151.250000
0
VERTEX
5
208
100
AcDbEntity
8
1
100
AcDbVertex
100
AcDb2dVertex
62
5
10
216.393012
20
151.250000
0
VERTEX
5
209
100
AcDbEntity
8
1
100
AcDbVertex
100
AcDb2dVertex
62
5
10
216.393012
20
151.700000
0
VERTEX
5
20a
100
AcDbEntity
8
1
100
AcDbVertex
100
AcDb2dVertex
62
5
10
219.725000
20
151.700000
0
SEQEND
5
20b
100
AcDbEntity
8
1
0
POLYLINE
5
20c
100
AcDbEntity
8
1
6
CONTINUOUS
62
5
100
AcDb2dPolyline
66
1
10
0.0
20
0.0
30
0.0
70
0
0
VERTEX
5
20d
100
AcDbEntity
8
1
100
AcDbVertex
100
AcDb2dVertex
62
5
10
219.725000
20
151.200000
0
VERTEX
5
20e
100
AcDbEntity
8
1
100
AcDbVertex
100
AcDb2dVertex
62
5
10
218.525000
20
151.200000
0
VERTEX
5
20f
100
AcDbEntity
8
1
100
AcDbVertex
100
AcDb2dVertex
62
5
10
218.525000
20
150.800000
0
VERTEX
5
210
100
AcDbEntity
8
1
100
AcDbVertex
100
AcDb2dVertex
62
5
10
219.725000
20
150.800000
0
SEQEND
5
211
100
AcDbEntity
8
1
0
POLYLINE
5
212
100
AcDbEntity
8
1
6
CONTINUOUS
62
5
100
AcDb2dPolyline
66
1
10
0.0
20
0.0
30
0.0
70
0
0
VERTEX
5
213
100
AcDbEntity
8
1
100
AcDbVertex
100
AcDb2dVertex
62
5
10
219.725000
20
151.750000
0
VERTEX
5
214
100
AcDbEntity
8
1
100
AcDbVertex
100
AcDb2dVertex
62
5
10
218.525000
20
151.750000
0
VERTEX
5
215
100
AcDbEntity
8
1
100
AcDbVertex
100
AcDb2dVertex
62
5
10
218.525000
20
154.000000
0
SEQEND
5
216
100
AcDbEntity
8
1
0
LINE
5
217
100
AcDbEntity
8
1
100
AcDbLine
6
CONTINUOUS
62
5
10
217.525000
20
150.250000
11
217.525000
21
149.750000
0
POLYLINE
5
218
100
AcDbEntity
8
1
6
CONTINUOUS
62
5
100
AcDb2dPolyline
66
1
10
0.0
20
0.0
30
0.0
70
0
0
VERTEX
5
219
100
AcDbEntity
8
1
100
AcDbVertex
100
AcDb2dVertex
62
5
10
219.725000
20
149.800000
0
VERTEX
5
21a
100
AcDbEntity
8
1
100
AcDbVertex
100
AcDb2dVertex
62
5
10
218.525000
20
149.800000
0
VERTEX
5
21b
100
AcDbEntity
8
1
100
AcDbVertex
100
AcDb2dVertex
62
5
10
218.525000
20
150.200000
0
VERTEX
5
21c
100
AcDbEntity
8
1
100
AcDbVertex
100
AcDb2dVertex
62
5
10
219.725000
20
150.200000
0
SEQEND
5
21d
100
AcDbEntity
8
1
0
LINE
5
21e
100
AcDbEntity
8
1
100
AcDbLine
6
CONTINUOUS
62
5
10
211.525000
20
151.000000
11
212.025000
21
151.000000
0
POLYLINE
5
21f
100
AcDbEntity
8
1
6
CONTINUOUS
62
5
100
AcDb2dPolyline
66
1
10
0.0
20
0.0
30
0.0
70
0
0
VERTEX
5
220
100
AcDbEntity
8
1
100
AcDbVertex
100
AcDb2dVertex
62
5
10
211.525000
20
151.500000
0
VERTEX
5
221
100
AcDbEntity
8
1
100
AcDbVertex
100
AcDb2dVertex
62
5
10
211.525000
20
150.650000
0
VERTEX
5
222
100
AcDbEntity
8
1
100
AcDbVertex
100
AcDb2dVertex
62
5
10
210.725000
20
150.650000
0
VERTEX
5
223
100
AcDbEntity
8
1
100
AcDbVertex
100
AcDb2dVertex
62
5
10
210.725000
20
153.250000
0
SEQEND
5
224
100
AcDbEntity
8
1
0
POLYLINE
5
225
100
AcDbEntity
8
1
6
CONTINUOUS
62
5
100
AcDb2dPolyline
66
1
10
0.0
20
0.0
30
0.0
70
0
0
VERTEX
5
226
100
AcDbEntity
8
1
100
AcDbVertex
100
AcDb2dVertex
62
5
10
211.625000
20
153.250000
0
VERTEX
5
227
100
AcDbEntity
8
1
100
AcDbVertex
100
AcDb2dVertex
62
5
10
212.825000
20
153.250000
0
VERTEX
5
228
100
AcDbEntity
8
1
100
AcDbVertex
100
AcDb2dVertex
62
5
10
212.825000
20
154.950000
0
SEQEND
5
229
100
AcDbEntity
8
1
0
LINE
5
22a
100
AcDbEntity
8
1
100
AcDbLine
6
CONTINUOUS
62
5
10
212.825000
20
153.250000
11
216.025000
21
152.160060
0
POLYLINE
5
22b
100
AcDbEntity
8
1
6
CONTINUOUS
62
5
100
AcDb2dPolyline
66
1
10
0.0
20
0.0
30
0.0
70
0
0
VERTEX
5
22c
100
AcDbEntity
8
1
100
AcDbVertex
100
AcDb2dVertex
62
5
10
211.525000
20
153.250000
0
VERTEX
5
22d
100
AcDbEntity
8
1
100
AcDbVertex
100
AcDb2dVertex
62
5
10
211.525000
20
151.500000
0
VERTEX
5
22e
100
AcDbEntity
8
1
100
AcDbVertex
100
AcDb2dVertex
62
5
10
213.025000
20
151.500000
0
VERTEX
5
22f
100
AcDbEntity
8
1
100
AcDbVertex
100
AcDb2dVertex
62
5
10
216.025000
20
151.000000
0
SEQEND
5
230
100
AcDbEntity
8
1
0
POLYLINE
5
231
100
AcDbEntity
8
1
6
CONTINUOUS
62
5
100
AcDb2dPolyline
66
1
10
0.0
20
0.0
30
0.0
70
0
0
VERTEX
5
232
100
AcDbEntity
8
1
100
AcDbVertex
100
AcDb2dVertex
62
5
10
211.625000
20
146.750000
0
VERTEX
5
233
100
AcDbEntity
8
1
100
AcDbVertex
100
AcDb2dVertex
62
5
10
212.825000
20
146.750000
0
VERTEX
5
234
100
AcDbEntity
8
1
100
AcDbVertex
100
AcDb2dVertex
62
5
10
212.825000
20
145.050000
0
SEQEND
5
235
100
AcDbEntity
8
1
0
LINE
5
236
100
AcDbEntity
8
1
100
AcDbLine
6
CONTINUOUS
62
5
10
212.825000
20
146.750000
11
216.025000
21
147.839940
0
POLYLINE
5
237
100
AcDbEntity
8
1
6
CONTINUOUS
62
5
100
AcDb2dPolyline
66
1
10
0.0
20
0.0
30
0.0
70
0
0
VERTEX
5
238
100
AcDbEntity
8
1
100
AcDbVertex
100
AcDb2dVertex
62
5
10
219.725000
20
148.750000
0
VERTEX
5
239
100
AcDbEntity
8
1
100
AcDbVertex
100
AcDb2dVertex
62
5
10
216.393012
20
148.750000
0
VERTEX
5
23a
100
AcDbEntity
8
1
100
AcDbVertex
100
AcDb2dVertex
62
5
10
216.393012
20
148.300000
0
VERTEX
5
23b
100
AcDbEntity
8
1
100
AcDbVertex
100
AcDb2dVertex
62
5
10
219.725000
20
148.300000
0
SEQEND
5
23c
100
AcDbEntity
8
1
0
POLYLINE
5
23d
100
AcDbEntity
8
1
6
CONTINUOUS
62
5
100
AcDb2dPolyline
66
1
10
0.0
20
0.0
30
0.0
70
0
0
VERTEX
5
23e
100
AcDbEntity
8
1
100
AcDbVertex
100
AcDb2dVertex
62
5
10
219.725000
20
148.800000
0
VERTEX
5
23f
100
AcDbEntity
8
1
100
AcDbVertex
100
AcDb2dVertex
62
5
10
218.525000
20
148.800000
0
VERTEX
5
240
100
AcDbEntity
8
1
100
AcDbVertex
100
AcDb2dVertex
62
5
10
218.525000
20
149.200000
0
VERTEX
5
241
100
AcDbEntity
8
1
100
AcDbVertex
100
AcDb2dVertex
62
5
10
219.725000
20
149.200000
0
SEQEND
5
242
100
AcDbEntity
8
1
0
LINE
5
243
100
AcDbEntity
8
1
100
AcDbLine
6
CONTINUOUS
62
5
10
211.525000
20
149.000000
11
212.025000
21
149.000000
0
LINE
5
244
100
AcDbEntity
8
1
100
AcDbLine
6
CONTINUOUS
62
5
10
217.525000
20
149.250000
11
217.525000
21
148.750000
0
LINE
5
245
100
AcDbEntity
8
1
100
AcDbLine
6
CONTINUOUS
62
5
10
217.525000
20
148.300000
11
217.525000
21
145.050000
0
POLYLINE
5
246
100
AcDbEntity
8
1
6
CONTINUOUS
62
5
100
AcDb2dPolyline
66
1
10
0.0
20
0.0
30
0.0
70
0
0
VERTEX
5
247
100
AcDbEntity
8
1
100
AcDbVertex
100
AcDb2dVertex
62
5
10
219.725000
20
148.250000
0
VERTEX
5
248
100
AcDbEntity
8
1
100
AcDbVertex
100
AcDb2dVertex
62
5
10
218.525000
20
148.250000
0
VERTEX
5
249
100
AcDbEntity
8
1
100
AcDbVertex
100
AcDb2dVertex
62
5
10
218.525000
20
146.000000
0
SEQEND
5
24a
100
AcDbEntity
8
1
0
LINE
5
24b
100
AcDbEntity
8
1
100
AcDbLine
6
CONTINUOUS
62
5
10
216.025000
20
154.950000
11
216.025000
21
145.050000
0
POLYLINE
5
24c
100
AcDbEntity
8
1
6
CONTINUOUS
62
5
100
AcDb2dPolyline
66
1
10
0.0
20
0.0
30
0.0
70
0
0
VERTEX
5
24d
100
AcDbEntity
8
1
100
AcDbVertex
100
AcDb2dVertex
62
5
10
211.525000
20
148.500000
0
VERTEX
5
24e
100
AcDbEntity
8
1
100
AcDbVertex
100
AcDb2dVertex
62
5
10
211.525000
20
149.350000
0
VERTEX
5
24f
100
AcDbEntity
8
1
100
AcDbVertex
100
AcDb2dVertex
62
5
10
210.725000
20
149.350000
0
VERTEX
5
250
100
AcDbEntity
8
1
100
AcDbVertex
100
AcDb2dVertex
62
5
10
210.725000
20
146.750000
0
SEQEND
5
251
100
AcDbEntity
8
1
0
POLYLINE
5
252
100
AcDbEntity
8
1
6
CONTINUOUS
62
5
100
AcDb2dPolyline
66
1
10
0.0
20
0.0
30
0.0
70
0
0
VERTEX
5
253
100
AcDbEntity
8
1
100
AcDbVertex
100
AcDb2dVertex
62
5
10
211.525000
20
146.750000
0
VERTEX
5
254
100
AcDbEntity
8
1
100
AcDbVertex
100
AcDb2dVertex
62
5
10
211.525000
20
148.500000
0
VERTEX
5
255
100
AcDbEntity
8
1
100
AcDbVertex
100
AcDb2dVertex
62
5
10
213.025000
20
148.500000
0
VERTEX
5
256
100
AcDbEntity
8
1
100
AcDbVertex
100
AcDb2dVertex
62
5
10
216.025000
20
149.000000
0
SEQEND
5
257
100
AcDbEntity
8
1
0
LINE
5
258
100
AcDbEntity
8
1
100
AcDbLine
6
CONTINUOUS
62
5
10
209.025000
20
151.800000
11
209.025000
21
148.200000
0
POLYLINE
5
259
100
AcDbEntity
8
1
6
CONTINUOUS
62
5
100
AcDb2dPolyline
66
1
10
0.0
20
0.0
30
0.0
70
0
0
VERTEX
5
25a
100
AcDbEntity
8
1
100
AcDbVertex
100
AcDb2dVertex
62
5
10
212.025000
20
151.500000
0
VERTEX
5
25b
100
AcDbEntity
8
1
100
AcDbVertex
100
AcDb2dVertex
62
5
10
212.025000
20
150.450000
0
VERTEX
5
25c
100
AcDbEntity
8
1
100
AcDbVertex
100
AcDb2dVertex
62
5
10
209.025000
20
150.450000
0
SEQEND
5
25d
100
AcDbEntity
8
1
0
POLYLINE
5
25e
100
AcDbEntity
8
1
6
CONTINUOUS
62
5
100
AcDb2dPolyline
66
1
10
0.0
20
0.0
30
0.0
70
0
0
VERTEX
5
25f
100
AcDbEntity
8
1
100
AcDbVertex
100
AcDb2dVertex
62
5
10
209.025000
20
149.550000
0
VERTEX
5
260
100
AcDbEntity
8
1
100
AcDbVertex
100
AcDb2dVertex
62
5
10
212.025000
20
149.550000
0
VERTEX
5
261
100
AcDbEntity
8
1
100
AcDbVertex
100
AcDb2dVertex
62
5
10
212.025000
20
148.500000
0
SEQEND
5
262
100
AcDbEntity
8
1
0
POLYLINE
5
263
100
AcDbEntity
8
1
6
CONTINUOUS
62
5
100
AcDb2dPolyline
66
1
10
0.0
20
0.0
30
0.0
70
0
0
VERTEX
5
264
100
AcDbEntity
8
1
100
AcDbVertex
100
AcDb2dVertex
62
5
10
219.725000
20
146.000000
0
VERTEX
5
265
100
AcDbEntity
8
1
100
AcDbVertex
100
AcDb2dVertex
62
5
10
218.525000
20
146.000000
0
VERTEX
5
266
100
AcDbEntity
8
1
100
AcDbVertex
100
AcDb2dVertex
62
5
10
218.525000
20
145.050000
0
VERTEX
5
267
100
AcDbEntity
8
1
100
AcDbVertex
100
AcDb2dVertex
62
5
10
211.625000
20
145.050000
0
VERTEX
5
268
100
AcDbEntity
8
1
100
AcDbVertex
100
AcDb2dVertex
62
5
10
211.625000
20
146.750000
0
VERTEX
5
269
100
AcDbEntity
8
1
100
AcDbVertex
100
AcDb2dVertex
62
5
10
210.125000
20
146.750000
0
VERTEX
5
26a
100
AcDbEntity
8
1
100
AcDbVertex
100
AcDb2dVertex
62
5
10
210.125000
20
148.200000
0
VERTEX
5
26b
100
AcDbEntity
8
1
100
AcDbVertex
100
AcDb2dVertex
62
5
10
208.025000
20
148.200000
0
VERTEX
5
26c
100
AcDbEntity
8
1
100
AcDbVertex
100
AcDb2dVertex
62
5
10
208.025000
20
151.800000
0
VERTEX
5
26d
100
AcDbEntity
8
1
100
AcDbVertex
100
AcDb2dVertex
62
5
10
210.125000
20
151.800000
0
VERTEX
5
26e
100
AcDbEntity
8
1
100
AcDbVertex
100
AcDb2dVertex
62
5
10
210.125000
20
153.250000
0
VERTEX
5
26f
100
AcDbEntity
8
1
100
AcDbVertex
100
AcDb2dVertex
62
5
10
211.625000
20
153.250000
0
VERTEX
5
270
100
AcDbEntity
8
1
100
AcDbVertex
100
AcDb2dVertex
62
5
10
211.625000
20
154.950000
0
VERTEX
5
271
100
AcDbEntity
8
1
100
AcDbVertex
100
AcDb2dVertex
62
5
10
218.525000
20
154.950000
0
VERTEX
5
272
100
AcDbEntity
8
1
100
AcDbVertex
100
AcDb2dVertex
62
5
10
218.525000
20
154.000000
0
VERTEX
5
273
100
AcDbEntity
8
1
100
AcDbVertex
100
AcDb2dVertex
62
5
10
219.725000
20
154.000000
0
SEQEND
5
274
100
AcDbEntity
8
1
0
POLYLINE
5
275
100
AcDbEntity
8
1
6
CONTINUOUS
62
5
100
AcDb2dPolyline
66
1
10
0.0
20
0.0
30
0.0
70
1
0
VERTEX
5
276
100
AcDbEntity
8
1
100
AcDbVertex
100
AcDb2dVertex
62
5
10
219.725000
20
144.000000
0
VERTEX
5
277
100
AcDbEntity
8
1
100
AcDbVertex
100
AcDb2dVertex
62
5
10
207.725000
20
144.000000
0
VERTEX
5
278
100
AcDbEntity
8
1
100
AcDbVertex
100
AcDb2dVertex
62
5
10
207.725000
20
156.000000
0
VERTEX
5
279
100
AcDbEntity
8
1
100
AcDbVertex
100
AcDb2dVertex
62
5
10
219.725000
20
156.000000
0
SEQEND
5
27a
100
AcDbEntity
8
1
0
POLYLINE
5
27b
100
AcDbEntity
8
1
6
CONTINUOUS
62
5
100
AcDb2dPolyline
66
1
10
0.0
20
0.0
30
0.0
70
0
0
VERTEX
5
27c
100
AcDbEntity
8
1
100
AcDbVertex
100
AcDb2dVertex
62
5
10
224.325000
20
131.800000
0
VERTEX
5
27d
100
AcDbEntity
8
1
100
AcDbVertex
100
AcDb2dVertex
62
5
10
224.675000
20
132.200000
0
VERTEX
5
27e
100
AcDbEntity
8
1
100
AcDbVertex
100
AcDb2dVertex
62
5
10
224.325000
20
132.600000
0
SEQEND
5
27f
100
AcDbEntity
8
1
0
POLYLINE
5
280
100
AcDbEntity
8
1
6
DOT2
62
5
100
AcDb2dPolyline
66
1
10
0.0
20
0.0
30
0.0
70
1
0
VERTEX
5
281
100
AcDbEntity
8
1
100
AcDbVertex
100
AcDb2dVertex
62
5
10
61.575000
20
152.500000
0
VERTEX
5
282
100
AcDbEntity
8
1
100
AcDbVertex
100
AcDb2dVertex
62
5
10
61.575000
20
153.125000
0
VERTEX
5
283
100
AcDbEntity
8
1
100
AcDbVertex
100
AcDb2dVertex
62
5
10
61.887500
20
153.437500
0
VERTEX
5
284
100
AcDbEntity
8
1
100
AcDbVertex
100
AcDb2dVertex
62
5
10
63.137500
20
154.062500
0
VERTEX
5
285
100
AcDbEntity
8
1
100
AcDbVertex
100
AcDb2dVertex
62
5
10
64.387500
20
154.375000
0
VERTEX
5
286
100
AcDbEntity
8
1
100
AcDbVertex
100
AcDb2dVertex
62
5
10
66.262500
20
154.375000
0
VERTEX
5
287
100
AcDbEntity
8
1
100
AcDbVertex
100
AcDb2dVertex
62
5
10
67.512500
20
154.062500
0
VERTEX
5
288
100
AcDbEntity
8
1
100
AcDbVertex
100
AcDb2dVertex
62
5
10
68.762500
20
153.437500
0
VERTEX
5
289
100
AcDbEntity
8
1
100
AcDbVertex
100
AcDb2dVertex
62
5
10
69.075000
20
153.125000
0
VERTEX
5
28a
100
AcDbEntity
8
1
100
AcDbVertex
100
AcDb2dVertex
62
5
10
69.075000
20
152.500000
0
VERTEX
5
28b
100
AcDbEntity
8
1
100
AcDbVertex
100
AcDb2dVertex
62
5
10
68.762500
20
152.187500
0
VERTEX
5
28c
100
AcDbEntity
8
1
100
AcDbVertex
100
AcDb2dVertex
62
5
10
67.512500
20
151.562500
0
VERTEX
5
28d
100
AcDbEntity
8
1
100
AcDbVertex
100
AcDb2dVertex
62
5
10
66.262500
20
151.250000
0
VERTEX
5
28e
100
AcDbEntity
8
1
100
AcDbVertex
100
AcDb2dVertex
62
5
10
64.387500
20
151.250000
0
VERTEX
5
28f
100
AcDbEntity
8
1
100
AcDbVertex
100
AcDb2dVertex
62
5
10
63.137500
20
151.562500
0
VERTEX
5
290
100
AcDbEntity
8
1
100
AcDbVertex
100
AcDb2dVertex
62
5
10
61.887500
20
152.187500
0
VERTEX
5
291
100
AcDbEntity
8
1
100
AcDbVertex
100
AcDb2dVertex
62
5
10
61.575000
20
152.500000
0
SEQEND
5
292
100
AcDbEntity
8
1
0
POLYLINE
5
293
100
AcDbEntity
8
1
6
DOT2
62
5
100
AcDb2dPolyline
66
1
10
0.0
20
0.0
30
0.0
70
0
0
VERTEX
5
294
100
AcDbEntity
8
1
100
AcDbVertex
100
AcDb2dVertex
62
5
10
61.575000
20
148.750000
0
VERTEX
5
295
100
AcDbEntity
8
1
100
AcDbVertex
100
AcDb2dVertex
62
5
10
67.200000
20
145.937500
0
VERTEX
5
296
100
AcDbEntity
8
1
100
AcDbVertex
100
AcDb2dVertex
62
5
10
67.200000
20
149.687500
0
SEQEND
5
297
100
AcDbEntity
8
1
0
LINE
5
298
100
AcDbEntity
8
1
100
AcDbLine
6
DOT2
62
5
10
61.575000
20
148.750000
11
69.075000
21
148.750000
0
LINE
5
299
100
AcDbEntity
8
1
100
AcDbLine
6
DOT2
62
5
10
69.075000
20
148.125000
11
69.075000
21
149.375000
0
LINE
5
29a
100
AcDbEntity
8
1
100
AcDbLine
6
CONTINUOUS
62
5
10
40.000000
20
340.000000
11
40.000000
21
308.000000
0
LINE
5
29b
100
AcDbEntity
8
1
100
AcDbLine
6
CONTINUOUS
62
5
10
0.000000
20
308.000000
11
320.000000
21
308.000000
0
ARC
5
29c
100
AcDbEntity
8
1
100
AcDbCircle
6
CONTINUOUS
62
5
10
148.325000
20
132.000000
40
1.500000
100
AcDbArc
50
-89.999999
51
-0.000000
0
LINE
5
29d
100
AcDbEntity
8
1
100
AcDbLine
6
CONTINUOUS
62
5
10
149.825000
20
132.000000
11
149.825000
21
168.000000
0
ARC
5
29e
100
AcDbEntity
8
1
100
AcDbCircle
6
CONTINUOUS
62
5
10
148.325000
20
168.000000
40
1.500000
100
AcDbArc
50
0.000000
51
89.999999
0
LINE
5
29f
100
AcDbEntity
8
1
100
AcDbLine
6
CONTINUOUS
62
5
10
148.325000
20
169.500000
11
97.325000
21
169.500000
0
ARC
5
2a0
100
AcDbEntity
8
1
100
AcDbCircle
6
CONTINUOUS
62
5
10
97.325000
20
168.000000
40
1.500000
100
AcDbArc
50
89.999999
51
179.999998
0
LINE
5
2a1
100
AcDbEntity
8
1
100
AcDbLine
6
CONTINUOUS
62
5
10
95.825000
20
168.000000
11
95.825000
21
132.000000
0
ARC
5
2a2
100
AcDbEntity
8
1
100
AcDbCircle
6
CONTINUOUS
62
5
10
97.325000
20
132.000000
40
1.500000
100
AcDbArc
50
179.999998
51
-89.999999
0
LINE
5
2a3
100
AcDbEntity
8
1
100
AcDbLine
6
CONTINUOUS
62
5
10
97.325000
20
130.500000
11
148.325000
21
130.500000
0
LINE
5
2a4
100
AcDbEntity
8
1
100
AcDbLine
6
CONTINUOUS
62
5
10
95.325000
20
170.000000
11
68.325000
21
170.000000
0
LINE
5
2a5
100
AcDbEntity
8
1
100
AcDbLine
6
CONTINUOUS
62
5
10
95.325000
20
130.000000
11
68.325000
21
130.000000
0
POLYLINE
5
2a6
100
AcDbEntity
8
1
6
CONTINUOUS
62
5
100
AcDb2dPolyline
66
1
10
0.0
20
0.0
30
0.0
70
0
0
VERTEX
5
2a7
100
AcDbEntity
8
1
100
AcDbVertex
100
AcDb2dVertex
62
5
10
70.325000
20
150.000000
0
VERTEX
5
2a8
100
AcDbEntity
8
1
100
AcDbVertex
100
AcDb2dVertex
62
5
10
70.325000
20
130.000000
0
VERTEX
5
2a9
100
AcDbEntity
8
1
100
AcDbVertex
100
AcDb2dVertex
62
5
10
69.325000
20
136.000000
0
VERTEX
5
2aa
100
AcDbEntity
8
1
100
AcDbVertex
100
AcDb2dVertex
62
5
10
71.325000
20
136.000000
0
VERTEX
5
2ab
100
AcDbEntity
8
1
100
AcDbVertex
100
AcDb2dVertex
62
5
10
70.325000
20
130.000000
0
VERTEX
5
2ac
100
AcDbEntity
8
1
100
AcDbVertex
100
AcDb2dVertex
62
5
10
69.825000
20
136.000000
0
VERTEX
5
2ad
100
AcDbEntity
8
1
100
AcDbVertex
100
AcDb2dVertex
62
5
10
70.825000
20
136.000000
0
VERTEX
5
2ae
100
AcDbEntity
8
1
100
AcDbVertex
100
AcDb2dVertex
62
5
10
70.325000
20
130.000000
0
SEQEND
5
2af
100
AcDbEntity
8
1
0
POLYLINE
5
2b0
100
AcDbEntity
8
1
6
CONTINUOUS
62
5
100
AcDb2dPolyline
66
1
10
0.0
20
0.0
30
0.0
70
0
0
VERTEX
5
2b1
100
AcDbEntity
8
1
100
AcDbVertex
100
AcDb2dVertex
62
5
10
70.325000
20
150.000000
0
VERTEX
5
2b2
100
AcDbEntity
8
1
100
AcDbVertex
100
AcDb2dVertex
62
5
10
70.325000
20
170.000000
0
VERTEX
5
2b3
100
AcDbEntity
8
1
100
AcDbVertex
100
AcDb2dVertex
62
5
10
71.325000
20
164.000000
0
VERTEX
5
2b4
100
AcDbEntity
8
1
100
AcDbVertex
100
AcDb2dVertex
62
5
10
69.325000
20
164.000000
0
VERTEX
5
2b5
100
AcDbEntity
8
1
100
AcDbVertex
100
AcDb2dVertex
62
5
10
70.325000
20
170.000000
0
VERTEX
5
2b6
100
AcDbEntity
8
1
100
AcDbVertex
100
AcDb2dVertex
62
5
10
70.825000
20
164.000000
0
VERTEX
5
2b7
100
AcDbEntity
8
1
100
AcDbVertex
100
AcDb2dVertex
62
5
10
69.825000
20
164.000000
0
VERTEX
5
2b8
100
AcDbEntity
8
1
100
AcDbVertex
100
AcDb2dVertex
62
5
10
70.325000
20
170.000000
0
SEQEND
5
2b9
100
AcDbEntity
8
1
0
LINE
5
2ba
100
AcDbEntity
8
1
100
AcDbLine
6
CONTINUOUS
62
5
10
222.725000
20
130.000000
11
222.725000
21
170.000000
0
ARC
5
2bb
100
AcDbEntity
8
1
100
AcDbCircle
6
CONTINUOUS
62
5
10
207.325000
20
132.443354
40
2.000000
100
AcDbArc
50
-179.999998
51
-91.645977
0
POLYLINE
5
2bc
100
AcDbEntity
8
1
6
CONTINUOUS
62
5
100
AcDb2dPolyline
66
1
10
0.0
20
0.0
30
0.0
70
0
0
VERTEX
5
2bd
100
AcDbEntity
8
1
100
AcDbVertex
100
AcDb2dVertex
62
5
10
207.267552
20
130.444180
0
VERTEX
5
2be
100
AcDbEntity
8
1
100
AcDbVertex
100
AcDb2dVertex
62
5
10
222.725000
20
130.000000
0
VERTEX
5
2bf
100
AcDbEntity
8
1
100
AcDbVertex
100
AcDb2dVertex
62
5
10
224.325000
20
130.000000
0
VERTEX
5
2c0
100
AcDbEntity
8
1
100
AcDbVertex
100
AcDb2dVertex
62
5
10
224.325000
20
170.000000
0
VERTEX
5
2c1
100
AcDbEntity
8
1
100
AcDbVertex
100
AcDb2dVertex
62
5
10
222.725000
20
170.000000
0
VERTEX
5
2c2
100
AcDbEntity
8
1
100
AcDbVertex
100
AcDb2dVertex
62
5
10
207.267552
20
169.555820
0
SEQEND
5
2c3
100
AcDbEntity
8
1
0
ARC
5
2c4
100
AcDbEntity
8
1
100
AcDbCircle
6
CONTINUOUS
62
5
10
207.325000
20
167.556646
40
2.000000
100
AcDbArc
50
91.645977
51
179.999998
0
LINE
5
2c5
100
AcDbEntity
8
1
100
AcDbLine
6
CONTINUOUS
62
5
10
205.325000
20
167.556646
11
205.325000
21
132.443354
0
ARC
5
2c6
100
AcDbEntity
8
1
100
AcDbCircle
6
CONTINUOUS
62
5
10
148.825000
20
131.500000
40
1.500000
100
AcDbArc
50
-89.999999
51
-0.000000
0
LINE
5
2c7
100
AcDbEntity
8
1
100
AcDbLine
6
CONTINUOUS
62
5
10
148.825000
20
130.000000
11
96.825000
21
130.000000
0
ARC
5
2c8
100
AcDbEntity
8
1
100
AcDbCircle
6
CONTINUOUS
62
5
10
96.825000
20
131.500000
40
1.500000
100
AcDbArc
50
179.999998
51
-89.999999
0
LINE
5
2c9
100
AcDbEntity
8
1
100
AcDbLine
6
CONTINUOUS
62
5
10
95.325000
20
131.500000
11
95.325000
21
168.500000
0
ARC
5
2ca
100
AcDbEntity
8
1
100
AcDbCircle
6
CONTINUOUS
62
5
10
96.825000
20
168.500000
40
1.500000
100
AcDbArc
50
89.999999
51
179.999998
0
LINE
5
2cb
100
AcDbEntity
8
1
100
AcDbLine
6
CONTINUOUS
62
5
10
96.825000
20
170.000000
11
148.825000
21
170.000000
0
ARC
5
2cc
100
AcDbEntity
8
1
100
AcDbCircle
6
CONTINUOUS
62
5
10
148.825000
20
168.500000
40
1.500000
100
AcDbArc
50
0.000000
51
89.999999
0
LINE
5
2cd
100
AcDbEntity
8
1
100
AcDbLine
6
CONTINUOUS
62
5
10
150.325000
20
168.500000
11
150.325000
21
131.500000
0
POLYLINE
5
2ce
100
AcDbEntity
8
1
6
CONTINUOUS
62
5
100
AcDb2dPolyline
66
1
10
0.0
20
0.0
30
0.0
70
1
0
VERTEX
5
2cf
100
AcDbEntity
8
1
100
AcDbVertex
100
AcDb2dVertex
62
5
10
0.000000
20
0.000000
0
VERTEX
5
2d0
100
AcDbEntity
8
1
100
AcDbVertex
100
AcDb2dVertex
62
5
10
0.000000
20
340.000000
0
VERTEX
5
2d1
100
AcDbEntity
8
1
100
AcDbVertex
100
AcDb2dVertex
62
5
10
320.000000
20
340.000000
0
VERTEX
5
2d2
100
AcDbEntity
8
1
100
AcDbVertex
100
AcDb2dVertex
62
5
10
320.000000
20
0.000000
0
VERTEX
5
2d3
100
AcDbEntity
8
1
100
AcDbVertex
100
AcDb2dVertex
62
5
10
0.000000
20
0.000000
0
SEQEND
5
2d4
100
AcDbEntity
8
1
0
ENDSEC
0
SECTION
2
OBJECTS
0
DICTIONARY
5
2d5
100
AcDbDictionary
3
ACAD_GROUP
350
2d6
3
ACAD_MLINESTYLE
350
2d7
0
DICTIONARY
5
2d6
102
{ACAD_REACTORS
330
2d5
102
}
100
AcDbDictionary
0
DICTIONARY
5
2d7
102
{ACAD_REACTORS
330
2d5
102
}
100
AcDbDictionary
3
STANDARD
350
2d8
0
MLINESTYLE
5
2d8
102
{ACAD_REACTORS
330
2d7
102
}
100
AcDbMlineStyle
2
STANDARD
70
0
3

62
0
51
90.0
52
90.0
71
2
49
0.5
62
256
6
BYLAYER
49
-0.5
62
256
6
BYLAYER
0
ENDSEC
0
EOF
