0
SECTION
2
HEADER
9
$ACADVER
1
AC1012
9
$EXTMIN
10
-0.013701
20
-0.013701
30
0.0
9
$EXTMAX
10
12.606299
20
13.386299
30
0.0
9
$LIMMIN
10
-0.348005
20
-0.348005
9
$LIMMAX
10
320.199995
20
340.011995
9
$DIMSCALE
40
1.000000
9
$PDMODE
70
2
9
$PDSIZE
40
0.0
  9
$HANDSEED
  5
33f
0
ENDSEC
0
SECTION
2
CLASSES
0
ENDSEC
0
SECTION
2
TABLES
0
TABLE
2
LTYPE
5
1e
100
AcDbSymbolTable
70
12
0
LTYPE
5
1f
100
AcDbSymbolTableRecord
100
AcDbLinetypeTableRecord
2
BYBLOCK
70
0
3

72
65
73
0
40
0.0
0
LTYPE
5
20
100
AcDbSymbolTableRecord
100
AcDbLinetypeTableRecord
2
BYLAYER
70
0
3

72
65
73
0
40
0.0
0
LTYPE
5
21
100
AcDbSymbolTableRecord
100
AcDbLinetypeTableRecord
2
CONTINUOUS
70
64
3
Solid line
72
65
73
0
40
0.0
0
LTYPE
5
22
100
AcDbSymbolTableRecord
100
AcDbLinetypeTableRecord
2
DASHED
70
64
3
__ __ __ __ __ __ __ __ __ __ __ __ __ __ __
72
65
73
2
40
0.75
49
0.5
74
0
49
-0.25
74
0
0
LTYPE
5
23
100
AcDbSymbolTableRecord
100
AcDbLinetypeTableRecord
2
DOT
70
64
3
...............................................
72
65
73
2
40
0.25
49
0.0
74
0
49
-0.25
74
0
0
LTYPE
5
24
100
AcDbSymbolTableRecord
100
AcDbLinetypeTableRecord
2
DASHDOT
70
64
3
__ . __ . __ . __ . __ . __ . __ . __ . __ . --
72
65
73
4
40
1.0
49
0.5
74
0
49
-0.25
74
0
49
0.0
74
0
49
-0.25
74
0
0
LTYPE
5
25
100
AcDbSymbolTableRecord
100
AcDbLinetypeTableRecord
2
CENTER
70
64
3
____ _ ____ _ ____ _ ____ _ ____ _ ____ _ ____
72
65
73
4
40
2.0
49
1.25
74
0
49
-0.25
74
0
49
0.25
74
0
49
-0.25
74
0
0
LTYPE
5
26
100
AcDbSymbolTableRecord
100
AcDbLinetypeTableRecord
2
PHANTOM
70
64
3
_____ _ _ _____ _ _ _____ _ _ _____ _ _ ____
72
65
73
6
40
2.5
49
1.25
74
0
49
-0.25
74
0
49
0.25
74
0
49
-0.25
74
0
49
0.25
74
0
49
-0.25
74
0
0
LTYPE
5
27
100
AcDbSymbolTableRecord
100
AcDbLinetypeTableRecord
2
HIDDEN
70
64
3
_ _ _ _ _ _ _ _ _ _ _ _ _ _ _ _ _ _ _ _ _ _ _
72
65
73
2
40
0.375
49
0.25
74
0
49
-0.125
74
0
0
LTYPE
5
28
100
AcDbSymbolTableRecord
100
AcDbLinetypeTableRecord
2
BORDER
70
64
3
__ __ . __ __ . __ __ . __ __ . __ __ . __ __
72
65
73
6
40
1.75
49
0.5
74
0
49
-0.25
74
0
49
0.5
74
0
49
-0.25
74
0
49
0.0
74
0
49
-0.25
74
0
0
LTYPE
5
29
100
AcDbSymbolTableRecord
100
AcDbLinetypeTableRecord
2
DIVIDE
70
64
3
__ . . __ . . __ . . __ . . __ . . __ . . __
72
65
73
6
40
1.25
49
0.5
74
0
49
-0.25
74
0
49
0.0
74
0
49
-0.25
74
0
49
0.0
74
0
49
-0.25
74
0
0
LTYPE
5
2a
100
AcDbSymbolTableRecord
100
AcDbLinetypeTableRecord
2
DOT2
70
64
3
...............................................
72
65
73
2
40
0.125
49
0.0
74
0
49
-0.125
74
0
0
ENDTAB
0
TABLE
2
STYLE
5
2b
100
AcDbSymbolTable
70
1
0
STYLE
5
2c
100
AcDbSymbolTableRecord
100
AcDbTextStyleTableRecord
2
STANDARD
70
64
40
0.0
41
1.0
50
0.0
71
0
42
5.0
3
txt
4
bigfont
0
ENDTAB
0
TABLE
2
LAYER
5
2d
100
AcDbSymbolTable
70
5
0
LAYER
5
2e
100
AcDbSymbolTableRecord
100
AcDbLayerTableRecord
2
0
70
0
62
7
6
CONTINUOUS
0
LAYER
5
2f
100
AcDbSymbolTableRecord
100
AcDbLayerTableRecord
2
1
70
0
62
7
6
CONTINUOUS
0
LAYER
5
30
100
AcDbSymbolTableRecord
100
AcDbLayerTableRecord
2
0
70
0
62
7
6
CONTINUOUS
0
LAYER
5
31
100
AcDbSymbolTableRecord
100
AcDbLayerTableRecord
2
29
70
0
62
7
6
CONTINUOUS
0
LAYER
5
32
100
AcDbSymbolTableRecord
100
AcDbLayerTableRecord
2
2
70
0
62
7
6
CONTINUOUS
0
ENDTAB
0
TABLE
2
APPID
5
33
100
AcDbSymbolTable
70
1
0
APPID
5
34
100
AcDbSymbolTableRecord
100
AcDbRegAppTableRecord
2
ACAD
70
64
0
ENDTAB
0
TABLE
2
DIMSTYLE
5
35
100
AcDbSymbolTable
70
0
0
ENDTAB
0
TABLE
2
UCS
5
36
100
AcDbSymbolTable
70
0
0
ENDTAB
0
TABLE
2
VIEW
5
37
100
AcDbSymbolTable
70
0
0
ENDTAB
0
TABLE
2
VPORT
5
38
100
AcDbSymbolTable
70
0
0
ENDTAB
0
TABLE
2
BLOCK_RECORD
5
39
100
AcDbSymbolTable
70
0
0
BLOCK_RECORD
5
3a
100
AcDbSymbolTableRecord
100
AcDbBlockTableRecord
2
*MODEL_SPACE
0
BLOCK_RECORD
5
3b
100
AcDbSymbolTableRecord
100
AcDbBlockTableRecord
2
*PAPER_SPACE
0
BLOCK_RECORD
5
3c
100
AcDbSymbolTableRecord
100
AcDbBlockTableRecord
2
OPEN
0
BLOCK_RECORD
5
3d
100
AcDbSymbolTableRecord
100
AcDbBlockTableRecord
2
HALF
0
BLOCK_RECORD
5
3e
100
AcDbSymbolTableRecord
100
AcDbBlockTableRecord
2
CLOSEDBLANK
0
BLOCK_RECORD
5
3f
100
AcDbSymbolTableRecord
100
AcDbBlockTableRecord
2
HALFCLOSE_R
0
BLOCK_RECORD
5
40
100
AcDbSymbolTableRecord
100
AcDbBlockTableRecord
2
DOT
0
BLOCK_RECORD
5
41
100
AcDbSymbolTableRecord
100
AcDbBlockTableRecord
2
HALFOPEN_R
0
BLOCK_RECORD
5
42
100
AcDbSymbolTableRecord
100
AcDbBlockTableRecord
2
CLOSEDF
0
BLOCK_RECORD
5
43
100
AcDbSymbolTableRecord
100
AcDbBlockTableRecord
2
HALF_R
0
ENDTAB
0
ENDSEC
0
SECTION
2
BLOCKS
0
BLOCK
5
44
100
AcDbEntity
8
0
100
AcDbBlockBegin
2
*MODEL_SPACE
70
0
10
0.0
20
0.0
30
0.0
3
*MODEL_SPACE
1

0
ENDBLK
5
45
100
AcDbEntity
8
0
100
AcDbBlockEnd
0
BLOCK
5
46
100
AcDbEntity
67
1
8
0
100
AcDbBlockBegin
2
*PAPER_SPACE
70
0
10
0.0
20
0.0
30
0.0
3
*PAPER_SPACE
1

0
ENDBLK
5
47
100
AcDbEntity
67
1
8
0
100
AcDbBlockEnd
0
BLOCK
5
48
100
AcDbEntity
8
0
100
AcDbBlockBegin
2
OPEN
70
0
10
0.0
20
0.0
30
0.0
3
OPEN
1

0
LINE
5
49
100
AcDbEntity
8
0
6
BYBLOCK
62
0
100
AcDbLine
10
0.000000
20
0.000000
11
-1.000000
21
0.000000
0
LINE
5
4a
100
AcDbEntity
8
0
6
BYBLOCK
62
0
100
AcDbLine
10
-1.000000
20
-0.166667
11
0.000000
21
0.000000
0
LINE
5
4b
100
AcDbEntity
8
0
6
BYBLOCK
62
0
100
AcDbLine
10
-1.000000
20
0.166667
11
0.000000
21
0.000000
0
ENDBLK
5
4c
100
AcDbEntity
8
0
100
AcDbBlockEnd
0
BLOCK
5
4d
100
AcDbEntity
8
0
100
AcDbBlockBegin
2
HALF
70
0
10
0.0
20
0.0
30
0.0
3
HALF
1

0
SOLID
5
4e
100
AcDbEntity
8
0
6
BYBLOCK
62
0
100
AcDbTrace
10
-1.000000
20
0.166667
11
-1.000000
21
-0.166667
12
0.000000
22
0.000000
13
0.000000
23
0.000000
0
ENDBLK
5
4f
100
AcDbEntity
8
0
100
AcDbBlockEnd
0
BLOCK
5
50
100
AcDbEntity
8
0
100
AcDbBlockBegin
2
CLOSEDBLANK
70
0
10
0.0
20
0.0
30
0.0
3
CLOSEDBLANK
1

0
LINE
5
51
100
AcDbEntity
8
0
6
BYBLOCK
62
0
100
AcDbLine
10
-1.000000
20
0.166667
11
-1.000000
21
-0.166667
0
LINE
5
52
100
AcDbEntity
8
0
6
BYBLOCK
62
0
100
AcDbLine
10
0.000000
20
0.000000
11
-1.000000
21
-0.166667
0
LINE
5
53
100
AcDbEntity
8
0
6
BYBLOCK
62
0
100
AcDbLine
10
-1.000000
20
0.166667
11
0.000000
21
0.000000
0
ENDBLK
5
54
100
AcDbEntity
8
0
100
AcDbBlockEnd
0
BLOCK
5
55
100
AcDbEntity
8
0
100
AcDbBlockBegin
2
HALFCLOSE_R
70
0
10
0.0
20
0.0
30
0.0
3
HALFCLOSE_R
1

0
LINE
5
56
100
AcDbEntity
8
0
6
BYBLOCK
62
0
100
AcDbLine
10
-1.000000
20
-0.166667
11
-1.000000
21
0.000000
0
LINE
5
57
100
AcDbEntity
8
0
6
BYBLOCK
62
0
100
AcDbLine
10
-1.000000
20
-0.166667
11
0.000000
21
0.000000
0
LINE
5
58
100
AcDbEntity
8
0
6
BYBLOCK
62
0
100
AcDbLine
10
0.000000
20
0.000000
11
-1.000000
21
0.000000
0
ENDBLK
5
59
100
AcDbEntity
8
0
100
AcDbBlockEnd
0
BLOCK
5
5a
100
AcDbEntity
8
0
100
AcDbBlockBegin
2
DOT
70
0
10
0.0
20
0.0
30
0.0
3
DOT
1

0
LINE
5
5b
100
AcDbEntity
8
0
6
BYBLOCK
62
0
100
AcDbLine
10
0.000000
20
0.000000
11
-1.000000
21
0.000000
0
POLYLINE
5
5c
100
AcDbEntity
8
0
6
BYBLOCK
62
0
100
AcDb2dPolyline
66
1
10
0.0
20
0.0
30
0.0
70
1
40
0.166667
41
0.166667
0
VERTEX
5
5d
100
AcDbEntity
8
0
100
AcDbVertex
100
AcDb2dVertex
62
10
10
-0.083333
20
0.000000
42
1.000000
0
VERTEX
5
5e
100
AcDbEntity
8
0
100
AcDbVertex
100
AcDb2dVertex
62
10
10
0.083333
20
0.000000
42
1.000000
0
SEQEND
5
5f
100
AcDbEntity
8
0
0
ENDBLK
5
60
100
AcDbEntity
8
0
100
AcDbBlockEnd
0
BLOCK
5
61
100
AcDbEntity
8
0
100
AcDbBlockBegin
2
HALFOPEN_R
70
0
10
0.0
20
0.0
30
0.0
3
HALFOPEN_R
1

0
LINE
5
62
100
AcDbEntity
8
0
6
BYBLOCK
62
0
100
AcDbLine
10
-1.000000
20
-0.166667
11
0.000000
21
0.000000
0
LINE
5
63
100
AcDbEntity
8
0
6
BYBLOCK
62
0
100
AcDbLine
10
0.000000
20
0.000000
11
-1.000000
21
0.000000
0
ENDBLK
5
64
100
AcDbEntity
8
0
100
AcDbBlockEnd
0
BLOCK
5
65
100
AcDbEntity
8
0
100
AcDbBlockBegin
2
CLOSEDF
70
0
10
0.0
20
0.0
30
0.0
3
CLOSEDF
1

0
SOLID
5
66
100
AcDbEntity
8
0
6
BYBLOCK
62
0
100
AcDbTrace
10
-1.000000
20
0.166667
11
-1.000000
21
-0.166667
12
0.000000
22
0.000000
13
0.000000
23
0.000000
0
ENDBLK
5
67
100
AcDbEntity
8
0
100
AcDbBlockEnd
0
BLOCK
5
68
100
AcDbEntity
8
0
100
AcDbBlockBegin
2
HALF_R
70
0
10
0.0
20
0.0
30
0.0
3
HALF_R
1

0
SOLID
5
69
100
AcDbEntity
8
0
6
BYBLOCK
62
0
100
AcDbTrace
10
-1.000000
20
-0.166667
11
-1.000000
21
0.000000
12
0.000000
22
0.000000
13
0.000000
23
0.000000
0
ENDBLK
5
6a
100
AcDbEntity
8
0
100
AcDbBlockEnd
0
ENDSEC
0
SECTION
2
ENTITIES
0
POLYLINE
5
6b
100
AcDbEntity
8
1
6
CONTINUOUS
62
5
100
AcDb2dPolyline
66
1
10
0.0
20
0.0
30
0.0
70
1
0
VERTEX
5
6c
100
AcDbEntity
8
1
100
AcDbVertex
100
AcDb2dVertex
62
5
10
183.250000
20
321.500000
0
VERTEX
5
6d
100
AcDbEntity
8
1
100
AcDbVertex
100
AcDb2dVertex
62
5
10
188.500000
20
321.500000
0
VERTEX
5
6e
100
AcDbEntity
8
1
100
AcDbVertex
100
AcDb2dVertex
62
5
10
188.500000
20
327.750000
0
VERTEX
5
6f
100
AcDbEntity
8
1
100
AcDbVertex
100
AcDb2dVertex
62
5
10
183.250000
20
327.750000
0
VERTEX
5
70
100
AcDbEntity
8
1
100
AcDbVertex
100
AcDb2dVertex
62
5
10
183.250000
20
321.500000
0
SEQEND
5
71
100
AcDbEntity
8
1
0
POLYLINE
5
72
100
AcDbEntity
8
1
6
CONTINUOUS
62
5
100
AcDb2dPolyline
66
1
10
0.0
20
0.0
30
0.0
70
0
0
VERTEX
5
73
100
AcDbEntity
8
1
100
AcDbVertex
100
AcDb2dVertex
62
5
10
179.500000
20
328.375000
0
VERTEX
5
74
100
AcDbEntity
8
1
100
AcDbVertex
100
AcDb2dVertex
62
5
10
180.250000
20
329.000000
0
VERTEX
5
75
100
AcDbEntity
8
1
100
AcDbVertex
100
AcDb2dVertex
62
5
10
180.250000
20
321.500000
0
SEQEND
5
76
100
AcDbEntity
8
1
0
LINE
5
77
100
AcDbEntity
8
1
100
AcDbLine
6
CONTINUOUS
62
5
10
179.750000
20
321.500000
11
180.750000
21
321.500000
0
LINE
5
78
100
AcDbEntity
8
1
100
AcDbLine
6
CONTINUOUS
62
5
10
164.250000
20
327.125000
11
167.000000
21
327.750000
0
LINE
5
79
100
AcDbEntity
8
1
100
AcDbLine
6
CONTINUOUS
62
5
10
164.250000
20
325.250000
11
167.750000
21
326.187500
0
POLYLINE
5
7a
100
AcDbEntity
8
1
6
CONTINUOUS
62
5
100
AcDb2dPolyline
66
1
10
0.0
20
0.0
30
0.0
70
0
0
VERTEX
5
7b
100
AcDbEntity
8
1
100
AcDbVertex
100
AcDb2dVertex
62
5
10
165.250000
20
328.687500
0
VERTEX
5
7c
100
AcDbEntity
8
1
100
AcDbVertex
100
AcDb2dVertex
62
5
10
167.500000
20
323.687500
0
VERTEX
5
7d
100
AcDbEntity
8
1
100
AcDbVertex
100
AcDb2dVertex
62
5
10
167.000000
20
323.687500
0
VERTEX
5
7e
100
AcDbEntity
8
1
100
AcDbVertex
100
AcDb2dVertex
62
5
10
165.500000
20
324.312500
0
VERTEX
5
7f
100
AcDbEntity
8
1
100
AcDbVertex
100
AcDb2dVertex
62
5
10
164.750000
20
324.312500
0
VERTEX
5
80
100
AcDbEntity
8
1
100
AcDbVertex
100
AcDb2dVertex
62
5
10
163.750000
20
323.375000
0
VERTEX
5
81
100
AcDbEntity
8
1
100
AcDbVertex
100
AcDb2dVertex
62
5
10
163.750000
20
322.750000
0
VERTEX
5
82
100
AcDbEntity
8
1
100
AcDbVertex
100
AcDb2dVertex
62
5
10
164.250000
20
322.125000
0
VERTEX
5
83
100
AcDbEntity
8
1
100
AcDbVertex
100
AcDb2dVertex
62
5
10
164.750000
20
321.812500
0
VERTEX
5
84
100
AcDbEntity
8
1
100
AcDbVertex
100
AcDb2dVertex
62
5
10
166.250000
20
321.812500
0
SEQEND
5
85
100
AcDbEntity
8
1
0
POLYLINE
5
86
100
AcDbEntity
8
1
6
CONTINUOUS
62
5
100
AcDb2dPolyline
66
1
10
0.0
20
0.0
30
0.0
70
0
0
VERTEX
5
87
100
AcDbEntity
8
1
100
AcDbVertex
100
AcDb2dVertex
62
5
10
156.500000
20
329.312500
0
VERTEX
5
88
100
AcDbEntity
8
1
100
AcDbVertex
100
AcDb2dVertex
62
5
10
155.500000
20
326.500000
0
VERTEX
5
89
100
AcDbEntity
8
1
100
AcDbVertex
100
AcDb2dVertex
62
5
10
154.250000
20
324.312500
0
SEQEND
5
8a
100
AcDbEntity
8
1
0
LINE
5
8b
100
AcDbEntity
8
1
100
AcDbLine
6
CONTINUOUS
62
5
10
155.500000
20
326.500000
11
155.500000
21
320.562500
0
LINE
5
8c
100
AcDbEntity
8
1
100
AcDbLine
6
CONTINUOUS
62
5
10
156.250000
20
326.500000
11
161.500000
21
326.500000
0
POLYLINE
5
8d
100
AcDbEntity
8
1
6
CONTINUOUS
62
5
100
AcDb2dPolyline
66
1
10
0.0
20
0.0
30
0.0
70
0
0
VERTEX
5
8e
100
AcDbEntity
8
1
100
AcDbVertex
100
AcDb2dVertex
62
5
10
159.750000
20
329.312500
0
VERTEX
5
8f
100
AcDbEntity
8
1
100
AcDbVertex
100
AcDb2dVertex
62
5
10
159.750000
20
320.875000
0
VERTEX
5
90
100
AcDbEntity
8
1
100
AcDbVertex
100
AcDb2dVertex
62
5
10
158.250000
20
321.187500
0
SEQEND
5
91
100
AcDbEntity
8
1
0
LINE
5
92
100
AcDbEntity
8
1
100
AcDbLine
6
CONTINUOUS
62
5
10
157.250000
20
325.250000
11
158.250000
21
323.375000
0
CIRCLE
5
93
100
AcDbEntity
8
0
100
AcDbCircle
6
CONTINUOUS
62
5
10
230.250000
20
212.300000
40
1.400000
0
LINE
5
94
100
AcDbEntity
8
1
100
AcDbLine
6
CONTINUOUS
62
5
10
139.500000
20
326.500000
11
143.750000
21
327.125000
0
LINE
5
95
100
AcDbEntity
8
1
100
AcDbLine
6
CONTINUOUS
62
5
10
139.000000
20
324.312500
11
144.500000
21
324.937500
0
LINE
5
96
100
AcDbEntity
8
1
100
AcDbLine
6
CONTINUOUS
62
5
10
141.250000
20
329.000000
11
142.000000
21
321.500000
0
POLYLINE
5
97
100
AcDbEntity
8
1
6
CONTINUOUS
62
5
100
AcDb2dPolyline
66
1
10
0.0
20
0.0
30
0.0
70
0
0
VERTEX
5
98
100
AcDbEntity
8
1
100
AcDbVertex
100
AcDb2dVertex
62
5
10
125.250000
20
326.187500
0
VERTEX
5
99
100
AcDbEntity
8
1
100
AcDbVertex
100
AcDb2dVertex
62
5
10
125.500000
20
326.187500
0
VERTEX
5
9a
100
AcDbEntity
8
1
100
AcDbVertex
100
AcDb2dVertex
62
5
10
127.250000
20
324.937500
0
SEQEND
5
9b
100
AcDbEntity
8
1
0
LINE
5
9c
100
AcDbEntity
8
1
100
AcDbLine
6
CONTINUOUS
62
5
10
125.250000
20
329.000000
11
125.250000
21
321.500000
0
POLYLINE
5
9d
100
AcDbEntity
8
1
6
CONTINUOUS
62
5
100
AcDb2dPolyline
66
1
10
0.0
20
0.0
30
0.0
70
0
0
VERTEX
5
9e
100
AcDbEntity
8
1
100
AcDbVertex
100
AcDb2dVertex
62
5
10
114.750000
20
325.562500
0
VERTEX
5
9f
100
AcDbEntity
8
1
100
AcDbVertex
100
AcDb2dVertex
62
5
10
115.000000
20
325.250000
0
VERTEX
5
a0
100
AcDbEntity
8
1
100
AcDbVertex
100
AcDb2dVertex
62
5
10
121.750000
20
325.250000
0
SEQEND
5
a1
100
AcDbEntity
8
1
0
LINE
5
a2
100
AcDbEntity
8
1
100
AcDbLine
6
CONTINUOUS
62
5
10
90.750000
20
329.000000
11
91.500000
21
327.750000
0
LINE
5
a3
100
AcDbEntity
8
1
100
AcDbLine
6
CONTINUOUS
62
5
10
90.250000
20
326.500000
11
91.250000
21
325.875000
0
POLYLINE
5
a4
100
AcDbEntity
8
1
6
CONTINUOUS
62
5
100
AcDb2dPolyline
66
1
10
0.0
20
0.0
30
0.0
70
0
0
VERTEX
5
a5
100
AcDbEntity
8
1
100
AcDbVertex
100
AcDb2dVertex
62
5
10
90.250000
20
320.875000
0
VERTEX
5
a6
100
AcDbEntity
8
1
100
AcDbVertex
100
AcDb2dVertex
62
5
10
91.000000
20
322.125000
0
VERTEX
5
a7
100
AcDbEntity
8
1
100
AcDbVertex
100
AcDb2dVertex
62
5
10
91.750000
20
324.625000
0
SEQEND
5
a8
100
AcDbEntity
8
1
0
LINE
5
a9
100
AcDbEntity
8
1
100
AcDbLine
6
CONTINUOUS
62
5
10
94.500000
20
329.625000
11
94.500000
21
328.375000
0
LINE
5
aa
100
AcDbEntity
8
1
100
AcDbLine
6
CONTINUOUS
62
5
10
92.000000
20
328.375000
11
97.000000
21
328.375000
0
LINE
5
ab
100
AcDbEntity
8
1
100
AcDbLine
6
CONTINUOUS
62
5
10
93.500000
20
328.062500
11
94.000000
21
326.500000
0
LINE
5
ac
100
AcDbEntity
8
1
100
AcDbLine
6
CONTINUOUS
62
5
10
95.750000
20
328.062500
11
95.250000
21
326.500000
0
POLYLINE
5
ad
100
AcDbEntity
8
1
6
CONTINUOUS
62
5
100
AcDb2dPolyline
66
1
10
0.0
20
0.0
30
0.0
70
0
0
VERTEX
5
ae
100
AcDbEntity
8
1
100
AcDbVertex
100
AcDb2dVertex
62
5
10
92.250000
20
320.875000
0
VERTEX
5
af
100
AcDbEntity
8
1
100
AcDbVertex
100
AcDb2dVertex
62
5
10
92.250000
20
326.500000
0
VERTEX
5
b0
100
AcDbEntity
8
1
100
AcDbVertex
100
AcDb2dVertex
62
5
10
96.750000
20
326.500000
0
VERTEX
5
b1
100
AcDbEntity
8
1
100
AcDbVertex
100
AcDb2dVertex
62
5
10
96.750000
20
320.875000
0
VERTEX
5
b2
100
AcDbEntity
8
1
100
AcDbVertex
100
AcDb2dVertex
62
5
10
95.750000
20
320.875000
0
SEQEND
5
b3
100
AcDbEntity
8
1
0
LINE
5
b4
100
AcDbEntity
8
1
100
AcDbLine
6
CONTINUOUS
62
5
10
93.000000
20
324.937500
11
96.000000
21
324.937500
0
LINE
5
b5
100
AcDbEntity
8
1
100
AcDbLine
6
CONTINUOUS
62
5
10
94.500000
20
325.875000
11
94.500000
21
323.687500
0
POLYLINE
5
b6
100
AcDbEntity
8
1
6
CONTINUOUS
62
5
100
AcDb2dPolyline
66
1
10
0.0
20
0.0
30
0.0
70
1
0
VERTEX
5
b7
100
AcDbEntity
8
1
100
AcDbVertex
100
AcDb2dVertex
62
5
10
93.500000
20
323.687500
0
VERTEX
5
b8
100
AcDbEntity
8
1
100
AcDbVertex
100
AcDb2dVertex
62
5
10
93.500000
20
322.125000
0
VERTEX
5
b9
100
AcDbEntity
8
1
100
AcDbVertex
100
AcDb2dVertex
62
5
10
95.500000
20
322.125000
0
VERTEX
5
ba
100
AcDbEntity
8
1
100
AcDbVertex
100
AcDb2dVertex
62
5
10
95.500000
20
323.687500
0
VERTEX
5
bb
100
AcDbEntity
8
1
100
AcDbVertex
100
AcDb2dVertex
62
5
10
93.500000
20
323.687500
0
SEQEND
5
bc
100
AcDbEntity
8
1
0
POLYLINE
5
bd
100
AcDbEntity
8
1
6
CONTINUOUS
62
5
100
AcDb2dPolyline
66
1
10
0.0
20
0.0
30
0.0
70
0
0
VERTEX
5
be
100
AcDbEntity
8
1
100
AcDbVertex
100
AcDb2dVertex
62
5
10
99.000000
20
327.125000
0
VERTEX
5
bf
100
AcDbEntity
8
1
100
AcDbVertex
100
AcDb2dVertex
62
5
10
103.250000
20
327.125000
0
VERTEX
5
c0
100
AcDbEntity
8
1
100
AcDbVertex
100
AcDb2dVertex
62
5
10
103.250000
20
326.500000
0
VERTEX
5
c1
100
AcDbEntity
8
1
100
AcDbVertex
100
AcDb2dVertex
62
5
10
103.000000
20
325.562500
0
VERTEX
5
c2
100
AcDbEntity
8
1
100
AcDbVertex
100
AcDb2dVertex
62
5
10
102.500000
20
324.625000
0
VERTEX
5
c3
100
AcDbEntity
8
1
100
AcDbVertex
100
AcDb2dVertex
62
5
10
101.750000
20
323.375000
0
VERTEX
5
c4
100
AcDbEntity
8
1
100
AcDbVertex
100
AcDb2dVertex
62
5
10
101.000000
20
322.750000
0
VERTEX
5
c5
100
AcDbEntity
8
1
100
AcDbVertex
100
AcDb2dVertex
62
5
10
99.750000
20
321.812500
0
SEQEND
5
c6
100
AcDbEntity
8
1
0
POLYLINE
5
c7
100
AcDbEntity
8
1
6
CONTINUOUS
62
5
100
AcDb2dPolyline
66
1
10
0.0
20
0.0
30
0.0
70
1
0
VERTEX
5
c8
100
AcDbEntity
8
1
100
AcDbVertex
100
AcDb2dVertex
62
5
10
104.000000
20
328.687500
0
VERTEX
5
c9
100
AcDbEntity
8
1
100
AcDbVertex
100
AcDb2dVertex
62
5
10
104.500000
20
328.687500
0
VERTEX
5
ca
100
AcDbEntity
8
1
100
AcDbVertex
100
AcDb2dVertex
62
5
10
104.750000
20
328.375000
0
VERTEX
5
cb
100
AcDbEntity
8
1
100
AcDbVertex
100
AcDb2dVertex
62
5
10
104.750000
20
327.750000
0
VERTEX
5
cc
100
AcDbEntity
8
1
100
AcDbVertex
100
AcDb2dVertex
62
5
10
104.500000
20
327.437500
0
VERTEX
5
cd
100
AcDbEntity
8
1
100
AcDbVertex
100
AcDb2dVertex
62
5
10
104.000000
20
327.437500
0
VERTEX
5
ce
100
AcDbEntity
8
1
100
AcDbVertex
100
AcDb2dVertex
62
5
10
103.750000
20
327.750000
0
VERTEX
5
cf
100
AcDbEntity
8
1
100
AcDbVertex
100
AcDb2dVertex
62
5
10
103.750000
20
328.375000
0
VERTEX
5
d0
100
AcDbEntity
8
1
100
AcDbVertex
100
AcDb2dVertex
62
5
10
104.000000
20
328.687500
0
SEQEND
5
d1
100
AcDbEntity
8
1
0
POLYLINE
5
d2
100
AcDbEntity
8
1
6
CONTINUOUS
62
5
100
AcDb2dPolyline
66
1
10
0.0
20
0.0
30
0.0
70
0
0
VERTEX
5
d3
100
AcDbEntity
8
1
100
AcDbVertex
100
AcDb2dVertex
62
5
10
74.500000
20
321.187500
0
VERTEX
5
d4
100
AcDbEntity
8
1
100
AcDbVertex
100
AcDb2dVertex
62
5
10
75.000000
20
323.062500
0
VERTEX
5
d5
100
AcDbEntity
8
1
100
AcDbVertex
100
AcDb2dVertex
62
5
10
75.250000
20
324.625000
0
VERTEX
5
d6
100
AcDbEntity
8
1
100
AcDbVertex
100
AcDb2dVertex
62
5
10
75.250000
20
329.312500
0
VERTEX
5
d7
100
AcDbEntity
8
1
100
AcDbVertex
100
AcDb2dVertex
62
5
10
80.750000
20
329.312500
0
VERTEX
5
d8
100
AcDbEntity
8
1
100
AcDbVertex
100
AcDb2dVertex
62
5
10
80.750000
20
327.750000
0
VERTEX
5
d9
100
AcDbEntity
8
1
100
AcDbVertex
100
AcDb2dVertex
62
5
10
75.250000
20
327.750000
0
SEQEND
5
da
100
AcDbEntity
8
1
0
LINE
5
db
100
AcDbEntity
8
1
100
AcDbLine
6
CONTINUOUS
62
5
10
80.250000
20
327.125000
11
76.500000
21
326.500000
0
POLYLINE
5
dc
100
AcDbEntity
8
1
6
CONTINUOUS
62
5
100
AcDb2dPolyline
66
1
10
0.0
20
0.0
30
0.0
70
1
0
VERTEX
5
dd
100
AcDbEntity
8
1
100
AcDbVertex
100
AcDb2dVertex
62
5
10
76.500000
20
325.875000
0
VERTEX
5
de
100
AcDbEntity
8
1
100
AcDbVertex
100
AcDb2dVertex
62
5
10
76.500000
20
324.625000
0
VERTEX
5
df
100
AcDbEntity
8
1
100
AcDbVertex
100
AcDb2dVertex
62
5
10
80.500000
20
324.625000
0
VERTEX
5
e0
100
AcDbEntity
8
1
100
AcDbVertex
100
AcDb2dVertex
62
5
10
80.500000
20
325.875000
0
VERTEX
5
e1
100
AcDbEntity
8
1
100
AcDbVertex
100
AcDb2dVertex
62
5
10
76.500000
20
325.875000
0
SEQEND
5
e2
100
AcDbEntity
8
1
0
LINE
5
e3
100
AcDbEntity
8
1
100
AcDbLine
6
CONTINUOUS
62
5
10
78.500000
20
326.812500
11
78.500000
21
322.437500
0
LINE
5
e4
100
AcDbEntity
8
1
100
AcDbLine
6
CONTINUOUS
62
5
10
77.000000
20
322.125000
11
79.750000
21
322.437500
0
LINE
5
e5
100
AcDbEntity
8
1
100
AcDbLine
6
CONTINUOUS
62
5
10
79.500000
20
323.062500
11
80.250000
21
321.812500
0
POLYLINE
5
e6
100
AcDbEntity
8
1
6
CONTINUOUS
62
5
100
AcDb2dPolyline
66
1
10
0.0
20
0.0
30
0.0
70
0
0
VERTEX
5
e7
100
AcDbEntity
8
1
100
AcDbVertex
100
AcDb2dVertex
62
5
10
76.000000
20
321.187500
0
VERTEX
5
e8
100
AcDbEntity
8
1
100
AcDbVertex
100
AcDb2dVertex
62
5
10
76.000000
20
323.687500
0
VERTEX
5
e9
100
AcDbEntity
8
1
100
AcDbVertex
100
AcDb2dVertex
62
5
10
81.000000
20
323.687500
0
VERTEX
5
ea
100
AcDbEntity
8
1
100
AcDbVertex
100
AcDb2dVertex
62
5
10
81.000000
20
321.500000
0
VERTEX
5
eb
100
AcDbEntity
8
1
100
AcDbVertex
100
AcDb2dVertex
62
5
10
80.750000
20
321.187500
0
VERTEX
5
ec
100
AcDbEntity
8
1
100
AcDbVertex
100
AcDb2dVertex
62
5
10
80.250000
20
321.187500
0
SEQEND
5
ed
100
AcDbEntity
8
1
0
POLYLINE
5
ee
100
AcDbEntity
8
1
6
CONTINUOUS
62
5
100
AcDb2dPolyline
66
1
10
0.0
20
0.0
30
0.0
70
0
0
VERTEX
5
ef
100
AcDbEntity
8
1
100
AcDbVertex
100
AcDb2dVertex
62
5
10
83.000000
20
326.500000
0
VERTEX
5
f0
100
AcDbEntity
8
1
100
AcDbVertex
100
AcDb2dVertex
62
5
10
84.250000
20
324.937500
0
VERTEX
5
f1
100
AcDbEntity
8
1
100
AcDbVertex
100
AcDb2dVertex
62
5
10
84.250000
20
323.687500
0
VERTEX
5
f2
100
AcDbEntity
8
1
100
AcDbVertex
100
AcDb2dVertex
62
5
10
83.750000
20
323.062500
0
VERTEX
5
f3
100
AcDbEntity
8
1
100
AcDbVertex
100
AcDb2dVertex
62
5
10
83.000000
20
323.062500
0
SEQEND
5
f4
100
AcDbEntity
8
1
0
POLYLINE
5
f5
100
AcDbEntity
8
1
6
CONTINUOUS
62
5
100
AcDb2dPolyline
66
1
10
0.0
20
0.0
30
0.0
70
0
0
VERTEX
5
f6
100
AcDbEntity
8
1
100
AcDbVertex
100
AcDb2dVertex
62
5
10
88.500000
20
325.250000
0
VERTEX
5
f7
100
AcDbEntity
8
1
100
AcDbVertex
100
AcDb2dVertex
62
5
10
88.500000
20
323.375000
0
VERTEX
5
f8
100
AcDbEntity
8
1
100
AcDbVertex
100
AcDb2dVertex
62
5
10
88.250000
20
321.812500
0
VERTEX
5
f9
100
AcDbEntity
8
1
100
AcDbVertex
100
AcDb2dVertex
62
5
10
87.750000
20
320.875000
0
VERTEX
5
fa
100
AcDbEntity
8
1
100
AcDbVertex
100
AcDb2dVertex
62
5
10
86.750000
20
321.500000
0
SEQEND
5
fb
100
AcDbEntity
8
1
0
POLYLINE
5
fc
100
AcDbEntity
8
1
6
CONTINUOUS
62
5
100
AcDb2dPolyline
66
1
10
0.0
20
0.0
30
0.0
70
0
0
VERTEX
5
fd
100
AcDbEntity
8
1
100
AcDbVertex
100
AcDb2dVertex
62
5
10
82.500000
20
320.562500
0
VERTEX
5
fe
100
AcDbEntity
8
1
100
AcDbVertex
100
AcDb2dVertex
62
5
10
82.500000
20
328.687500
0
VERTEX
5
ff
100
AcDbEntity
8
1
100
AcDbVertex
100
AcDb2dVertex
62
5
10
84.500000
20
328.687500
0
VERTEX
5
100
100
AcDbEntity
8
1
100
AcDbVertex
100
AcDb2dVertex
62
5
10
83.000000
20
326.500000
0
SEQEND
5
101
100
AcDbEntity
8
1
0
LINE
5
102
100
AcDbEntity
8
1
100
AcDbLine
6
CONTINUOUS
62
5
10
84.750000
20
328.062500
11
89.500000
21
328.062500
0
LINE
5
103
100
AcDbEntity
8
1
100
AcDbLine
6
CONTINUOUS
62
5
10
87.000000
20
329.625000
11
87.000000
21
328.062500
0
POLYLINE
5
104
100
AcDbEntity
8
1
6
CONTINUOUS
62
5
100
AcDb2dPolyline
66
1
10
0.0
20
0.0
30
0.0
70
0
0
VERTEX
5
105
100
AcDbEntity
8
1
100
AcDbVertex
100
AcDb2dVertex
62
5
10
86.250000
20
328.062500
0
VERTEX
5
106
100
AcDbEntity
8
1
100
AcDbVertex
100
AcDb2dVertex
62
5
10
86.250000
20
325.250000
0
VERTEX
5
107
100
AcDbEntity
8
1
100
AcDbVertex
100
AcDb2dVertex
62
5
10
85.750000
20
322.750000
0
VERTEX
5
108
100
AcDbEntity
8
1
100
AcDbVertex
100
AcDb2dVertex
62
5
10
85.000000
20
321.500000
0
VERTEX
5
109
100
AcDbEntity
8
1
100
AcDbVertex
100
AcDb2dVertex
62
5
10
84.000000
20
320.875000
0
SEQEND
5
10a
100
AcDbEntity
8
1
0
LINE
5
10b
100
AcDbEntity
8
1
100
AcDbLine
6
CONTINUOUS
62
5
10
86.250000
20
325.250000
11
88.500000
21
325.250000
0
POLYLINE
5
10c
100
AcDbEntity
8
1
6
CONTINUOUS
62
5
100
AcDb2dPolyline
66
1
10
0.0
20
0.0
30
0.0
70
0
0
VERTEX
5
10d
100
AcDbEntity
8
1
100
AcDbVertex
100
AcDb2dVertex
62
5
10
108.250000
20
328.375000
0
VERTEX
5
10e
100
AcDbEntity
8
1
100
AcDbVertex
100
AcDb2dVertex
62
5
10
108.250000
20
322.125000
0
VERTEX
5
10f
100
AcDbEntity
8
1
100
AcDbVertex
100
AcDb2dVertex
62
5
10
108.750000
20
321.812500
0
VERTEX
5
110
100
AcDbEntity
8
1
100
AcDbVertex
100
AcDb2dVertex
62
5
10
110.000000
20
322.437500
0
VERTEX
5
111
100
AcDbEntity
8
1
100
AcDbVertex
100
AcDb2dVertex
62
5
10
111.250000
20
323.375000
0
VERTEX
5
112
100
AcDbEntity
8
1
100
AcDbVertex
100
AcDb2dVertex
62
5
10
112.500000
20
324.625000
0
SEQEND
5
113
100
AcDbEntity
8
1
0
POLYLINE
5
114
100
AcDbEntity
8
1
6
CONTINUOUS
62
5
100
AcDb2dPolyline
66
1
10
0.0
20
0.0
30
0.0
70
0
0
VERTEX
5
115
100
AcDbEntity
8
1
100
AcDbVertex
100
AcDb2dVertex
62
5
10
82.187500
20
290.500000
0
VERTEX
5
116
100
AcDbEntity
8
1
100
AcDbVertex
100
AcDb2dVertex
62
5
10
83.125000
20
283.000000
0
VERTEX
5
117
100
AcDbEntity
8
1
100
AcDbVertex
100
AcDb2dVertex
62
5
10
84.062500
20
290.500000
0
VERTEX
5
118
100
AcDbEntity
8
1
100
AcDbVertex
100
AcDb2dVertex
62
5
10
85.000000
20
283.000000
0
VERTEX
5
119
100
AcDbEntity
8
1
100
AcDbVertex
100
AcDb2dVertex
62
5
10
85.937500
20
290.500000
0
SEQEND
5
11a
100
AcDbEntity
8
1
0
LINE
5
11b
100
AcDbEntity
8
1
100
AcDbLine
6
CONTINUOUS
62
5
10
87.500000
20
290.500000
11
87.500000
21
283.000000
0
LINE
5
11c
100
AcDbEntity
8
1
100
AcDbLine
6
CONTINUOUS
62
5
10
90.625000
20
290.500000
11
87.500000
21
286.125000
0
LINE
5
11d
100
AcDbEntity
8
1
100
AcDbLine
6
CONTINUOUS
62
5
10
88.437500
20
287.375000
11
90.937500
21
283.000000
0
LINE
5
11e
100
AcDbEntity
8
1
100
AcDbLine
6
CONTINUOUS
62
5
10
92.500000
20
290.500000
11
94.062500
21
286.437500
0
POLYLINE
5
11f
100
AcDbEntity
8
1
6
CONTINUOUS
62
5
100
AcDb2dPolyline
66
1
10
0.0
20
0.0
30
0.0
70
0
0
VERTEX
5
120
100
AcDbEntity
8
1
100
AcDbVertex
100
AcDb2dVertex
62
5
10
95.625000
20
290.500000
0
VERTEX
5
121
100
AcDbEntity
8
1
100
AcDbVertex
100
AcDb2dVertex
62
5
10
94.062500
20
286.437500
0
VERTEX
5
122
100
AcDbEntity
8
1
100
AcDbVertex
100
AcDb2dVertex
62
5
10
94.062500
20
283.000000
0
SEQEND
5
123
100
AcDbEntity
8
1
0
POLYLINE
5
124
100
AcDbEntity
8
1
6
CONTINUOUS
62
5
100
AcDb2dPolyline
66
1
10
0.0
20
0.0
30
0.0
70
0
0
VERTEX
5
125
100
AcDbEntity
8
1
100
AcDbVertex
100
AcDb2dVertex
62
5
10
73.125000
20
289.875000
0
VERTEX
5
126
100
AcDbEntity
8
1
100
AcDbVertex
100
AcDb2dVertex
62
5
10
74.062500
20
290.500000
0
VERTEX
5
127
100
AcDbEntity
8
1
100
AcDbVertex
100
AcDb2dVertex
62
5
10
74.062500
20
283.000000
0
SEQEND
5
128
100
AcDbEntity
8
1
0
LINE
5
129
100
AcDbEntity
8
1
100
AcDbLine
6
CONTINUOUS
62
5
10
73.437500
20
283.000000
11
74.687500
21
283.000000
0
POLYLINE
5
12a
100
AcDbEntity
8
1
6
CONTINUOUS
62
5
100
AcDb2dPolyline
66
1
10
0.0
20
0.0
30
0.0
70
0
0
VERTEX
5
12b
100
AcDbEntity
8
1
100
AcDbVertex
100
AcDb2dVertex
62
5
10
77.500000
20
290.500000
0
VERTEX
5
12c
100
AcDbEntity
8
1
100
AcDbVertex
100
AcDb2dVertex
62
5
10
77.500000
20
284.562500
0
VERTEX
5
12d
100
AcDbEntity
8
1
100
AcDbVertex
100
AcDb2dVertex
62
5
10
77.812500
20
283.625000
0
VERTEX
5
12e
100
AcDbEntity
8
1
100
AcDbVertex
100
AcDb2dVertex
62
5
10
78.125000
20
283.312500
0
VERTEX
5
12f
100
AcDbEntity
8
1
100
AcDbVertex
100
AcDb2dVertex
62
5
10
78.750000
20
283.000000
0
VERTEX
5
130
100
AcDbEntity
8
1
100
AcDbVertex
100
AcDb2dVertex
62
5
10
79.375000
20
283.000000
0
VERTEX
5
131
100
AcDbEntity
8
1
100
AcDbVertex
100
AcDb2dVertex
62
5
10
80.000000
20
283.312500
0
VERTEX
5
132
100
AcDbEntity
8
1
100
AcDbVertex
100
AcDb2dVertex
62
5
10
80.312500
20
283.625000
0
VERTEX
5
133
100
AcDbEntity
8
1
100
AcDbVertex
100
AcDb2dVertex
62
5
10
80.625000
20
284.562500
0
VERTEX
5
134
100
AcDbEntity
8
1
100
AcDbVertex
100
AcDb2dVertex
62
5
10
80.625000
20
290.500000
0
SEQEND
5
135
100
AcDbEntity
8
1
0
LINE
5
136
100
AcDbEntity
8
1
100
AcDbLine
6
CONTINUOUS
62
5
10
62.500000
20
290.500000
11
62.500000
21
283.000000
0
POLYLINE
5
137
100
AcDbEntity
8
1
6
CONTINUOUS
62
5
100
AcDb2dPolyline
66
1
10
0.0
20
0.0
30
0.0
70
0
0
VERTEX
5
138
100
AcDbEntity
8
1
100
AcDbVertex
100
AcDb2dVertex
62
5
10
62.500000
20
290.500000
0
VERTEX
5
139
100
AcDbEntity
8
1
100
AcDbVertex
100
AcDb2dVertex
62
5
10
63.750000
20
290.500000
0
VERTEX
5
13a
100
AcDbEntity
8
1
100
AcDbVertex
100
AcDb2dVertex
62
5
10
64.687500
20
290.187500
0
VERTEX
5
13b
100
AcDbEntity
8
1
100
AcDbVertex
100
AcDb2dVertex
62
5
10
65.312500
20
289.562500
0
VERTEX
5
13c
100
AcDbEntity
8
1
100
AcDbVertex
100
AcDb2dVertex
62
5
10
65.625000
20
288.937500
0
VERTEX
5
13d
100
AcDbEntity
8
1
100
AcDbVertex
100
AcDb2dVertex
62
5
10
65.625000
20
288.000000
0
VERTEX
5
13e
100
AcDbEntity
8
1
100
AcDbVertex
100
AcDb2dVertex
62
5
10
65.312500
20
287.375000
0
VERTEX
5
13f
100
AcDbEntity
8
1
100
AcDbVertex
100
AcDb2dVertex
62
5
10
64.687500
20
286.750000
0
VERTEX
5
140
100
AcDbEntity
8
1
100
AcDbVertex
100
AcDb2dVertex
62
5
10
63.750000
20
286.437500
0
VERTEX
5
141
100
AcDbEntity
8
1
100
AcDbVertex
100
AcDb2dVertex
62
5
10
62.500000
20
286.437500
0
SEQEND
5
142
100
AcDbEntity
8
1
0
POLYLINE
5
143
100
AcDbEntity
8
1
6
CONTINUOUS
62
5
100
AcDb2dPolyline
66
1
10
0.0
20
0.0
30
0.0
70
0
0
VERTEX
5
144
100
AcDbEntity
8
1
100
AcDbVertex
100
AcDb2dVertex
62
5
10
52.500000
20
283.000000
0
VERTEX
5
145
100
AcDbEntity
8
1
100
AcDbVertex
100
AcDb2dVertex
62
5
10
52.500000
20
290.500000
0
VERTEX
5
146
100
AcDbEntity
8
1
100
AcDbVertex
100
AcDb2dVertex
62
5
10
54.062500
20
283.000000
0
VERTEX
5
147
100
AcDbEntity
8
1
100
AcDbVertex
100
AcDb2dVertex
62
5
10
55.625000
20
290.500000
0
VERTEX
5
148
100
AcDbEntity
8
1
100
AcDbVertex
100
AcDb2dVertex
62
5
10
55.625000
20
283.000000
0
SEQEND
5
149
100
AcDbEntity
8
1
0
LINE
5
14a
100
AcDbEntity
8
1
100
AcDbLine
6
CONTINUOUS
62
5
10
57.500000
20
290.500000
11
57.500000
21
283.000000
0
POLYLINE
5
14b
100
AcDbEntity
8
1
6
CONTINUOUS
62
5
100
AcDb2dPolyline
66
1
10
0.0
20
0.0
30
0.0
70
0
0
VERTEX
5
14c
100
AcDbEntity
8
1
100
AcDbVertex
100
AcDb2dVertex
62
5
10
57.500000
20
290.500000
0
VERTEX
5
14d
100
AcDbEntity
8
1
100
AcDbVertex
100
AcDb2dVertex
62
5
10
59.062500
20
290.500000
0
VERTEX
5
14e
100
AcDbEntity
8
1
100
AcDbVertex
100
AcDb2dVertex
62
5
10
59.687500
20
290.187500
0
VERTEX
5
14f
100
AcDbEntity
8
1
100
AcDbVertex
100
AcDb2dVertex
62
5
10
60.000000
20
289.875000
0
VERTEX
5
150
100
AcDbEntity
8
1
100
AcDbVertex
100
AcDb2dVertex
62
5
10
60.312500
20
289.250000
0
VERTEX
5
151
100
AcDbEntity
8
1
100
AcDbVertex
100
AcDb2dVertex
62
5
10
60.312500
20
288.312500
0
VERTEX
5
152
100
AcDbEntity
8
1
100
AcDbVertex
100
AcDb2dVertex
62
5
10
60.000000
20
287.687500
0
VERTEX
5
153
100
AcDbEntity
8
1
100
AcDbVertex
100
AcDb2dVertex
62
5
10
59.687500
20
287.375000
0
VERTEX
5
154
100
AcDbEntity
8
1
100
AcDbVertex
100
AcDb2dVertex
62
5
10
59.062500
20
287.062500
0
VERTEX
5
155
100
AcDbEntity
8
1
100
AcDbVertex
100
AcDb2dVertex
62
5
10
57.500000
20
287.062500
0
SEQEND
5
156
100
AcDbEntity
8
1
0
POLYLINE
5
157
100
AcDbEntity
8
1
6
CONTINUOUS
62
5
100
AcDb2dPolyline
66
1
10
0.0
20
0.0
30
0.0
70
0
0
VERTEX
5
158
100
AcDbEntity
8
1
100
AcDbVertex
100
AcDb2dVertex
62
5
10
59.062500
20
287.062500
0
VERTEX
5
159
100
AcDbEntity
8
1
100
AcDbVertex
100
AcDb2dVertex
62
5
10
59.687500
20
286.750000
0
VERTEX
5
15a
100
AcDbEntity
8
1
100
AcDbVertex
100
AcDb2dVertex
62
5
10
60.312500
20
286.125000
0
VERTEX
5
15b
100
AcDbEntity
8
1
100
AcDbVertex
100
AcDb2dVertex
62
5
10
60.625000
20
285.500000
0
VERTEX
5
15c
100
AcDbEntity
8
1
100
AcDbVertex
100
AcDb2dVertex
62
5
10
60.625000
20
284.250000
0
VERTEX
5
15d
100
AcDbEntity
8
1
100
AcDbVertex
100
AcDb2dVertex
62
5
10
60.312500
20
283.625000
0
VERTEX
5
15e
100
AcDbEntity
8
1
100
AcDbVertex
100
AcDb2dVertex
62
5
10
60.000000
20
283.312500
0
VERTEX
5
15f
100
AcDbEntity
8
1
100
AcDbVertex
100
AcDb2dVertex
62
5
10
59.375000
20
283.000000
0
VERTEX
5
160
100
AcDbEntity
8
1
100
AcDbVertex
100
AcDb2dVertex
62
5
10
57.500000
20
283.000000
0
SEQEND
5
161
100
AcDbEntity
8
1
0
LINE
5
162
100
AcDbEntity
8
1
100
AcDbLine
6
CONTINUOUS
62
5
10
70.000000
20
326.187500
11
70.000000
21
321.187500
0
POLYLINE
5
163
100
AcDbEntity
8
1
6
CONTINUOUS
62
5
100
AcDb2dPolyline
66
1
10
0.0
20
0.0
30
0.0
70
0
0
VERTEX
5
164
100
AcDbEntity
8
1
100
AcDbVertex
100
AcDb2dVertex
62
5
10
66.500000
20
325.562500
0
VERTEX
5
165
100
AcDbEntity
8
1
100
AcDbVertex
100
AcDb2dVertex
62
5
10
70.000000
20
329.312500
0
VERTEX
5
166
100
AcDbEntity
8
1
100
AcDbVertex
100
AcDb2dVertex
62
5
10
73.250000
20
325.875000
0
SEQEND
5
167
100
AcDbEntity
8
1
0
LINE
5
168
100
AcDbEntity
8
1
100
AcDbLine
6
CONTINUOUS
62
5
10
68.000000
20
326.187500
11
71.750000
21
326.187500
0
LINE
5
169
100
AcDbEntity
8
1
100
AcDbLine
6
CONTINUOUS
62
5
10
67.000000
20
324.312500
11
72.750000
21
324.312500
0
LINE
5
16a
100
AcDbEntity
8
1
100
AcDbLine
6
CONTINUOUS
62
5
10
66.750000
20
321.187500
11
73.250000
21
321.187500
0
LINE
5
16b
100
AcDbEntity
8
1
100
AcDbLine
6
CONTINUOUS
62
5
10
67.750000
20
323.375000
11
68.750000
21
322.125000
0
LINE
5
16c
100
AcDbEntity
8
1
100
AcDbLine
6
CONTINUOUS
62
5
10
72.000000
20
323.375000
11
71.250000
21
322.125000
0
LINE
5
16d
100
AcDbEntity
8
1
100
AcDbLine
6
CONTINUOUS
62
5
10
67.500000
20
286.750000
11
70.625000
21
286.750000
0
LINE
5
16e
100
AcDbEntity
8
0
100
AcDbLine
6
CONTINUOUS
62
5
10
126.150000
20
215.000000
11
139.250000
21
215.000000
0
LINE
5
16f
100
AcDbEntity
8
0
100
AcDbLine
6
CONTINUOUS
62
5
10
101.350000
20
215.000000
11
88.250000
21
215.000000
0
POLYLINE
5
170
100
AcDbEntity
8
1
6
CONTINUOUS
62
5
100
AcDb2dPolyline
66
1
10
0.0
20
0.0
30
0.0
70
0
0
VERTEX
5
171
100
AcDbEntity
8
1
100
AcDbVertex
100
AcDb2dVertex
62
5
10
146.750000
20
325.562500
0
VERTEX
5
172
100
AcDbEntity
8
1
100
AcDbVertex
100
AcDb2dVertex
62
5
10
147.000000
20
325.250000
0
VERTEX
5
173
100
AcDbEntity
8
1
100
AcDbVertex
100
AcDb2dVertex
62
5
10
153.750000
20
325.250000
0
SEQEND
5
174
100
AcDbEntity
8
1
0
POLYLINE
5
175
100
AcDbEntity
8
29
6
CONTINUOUS
62
5
100
AcDb2dPolyline
66
1
10
0.0
20
0.0
30
0.0
70
0
0
VERTEX
5
176
100
AcDbEntity
8
29
100
AcDbVertex
100
AcDb2dVertex
62
5
10
243.749837
20
88.500000
0
VERTEX
5
177
100
AcDbEntity
8
29
100
AcDbVertex
100
AcDb2dVertex
62
5
10
243.749837
20
88.000000
0
VERTEX
5
178
100
AcDbEntity
8
29
100
AcDbVertex
100
AcDb2dVertex
62
5
10
245.249837
20
88.000000
0
VERTEX
5
179
100
AcDbEntity
8
29
100
AcDbVertex
100
AcDb2dVertex
62
5
10
245.250000
20
88.500000
0
SEQEND
5
17a
100
AcDbEntity
8
29
0
POLYLINE
5
17b
100
AcDbEntity
8
1
6
DOT2
62
5
100
AcDb2dPolyline
66
1
10
0.0
20
0.0
30
0.0
70
0
0
VERTEX
5
17c
100
AcDbEntity
8
1
100
AcDbVertex
100
AcDb2dVertex
62
5
10
257.124837
20
69.125000
0
VERTEX
5
17d
100
AcDbEntity
8
1
100
AcDbVertex
100
AcDb2dVertex
62
5
10
258.062337
20
69.750000
0
VERTEX
5
17e
100
AcDbEntity
8
1
100
AcDbVertex
100
AcDb2dVertex
62
5
10
258.062337
20
62.250000
0
SEQEND
5
17f
100
AcDbEntity
8
1
0
LINE
5
180
100
AcDbEntity
8
1
100
AcDbLine
6
DOT2
62
5
10
257.437337
20
62.250000
11
258.687337
21
62.250000
0
POLYLINE
5
181
100
AcDbEntity
8
1
6
DOT2
62
5
100
AcDb2dPolyline
66
1
10
0.0
20
0.0
30
0.0
70
0
0
VERTEX
5
182
100
AcDbEntity
8
1
100
AcDbVertex
100
AcDb2dVertex
62
5
10
262.124837
20
69.125000
0
VERTEX
5
183
100
AcDbEntity
8
1
100
AcDbVertex
100
AcDb2dVertex
62
5
10
263.062337
20
69.750000
0
VERTEX
5
184
100
AcDbEntity
8
1
100
AcDbVertex
100
AcDb2dVertex
62
5
10
263.062337
20
62.250000
0
SEQEND
5
185
100
AcDbEntity
8
1
0
LINE
5
186
100
AcDbEntity
8
1
100
AcDbLine
6
DOT2
62
5
10
262.437337
20
62.250000
11
263.687337
21
62.250000
0
CIRCLE
5
187
100
AcDbEntity
8
0
100
AcDbCircle
6
CONTINUOUS
62
5
10
253.189296
20
25.578788
40
2.000000
0
ARC
5
188
100
AcDbEntity
8
0
100
AcDbCircle
6
CONTINUOUS
62
5
10
238.371872
20
20.078788
40
2.500000
100
AcDbArc
50
-165.850994
51
-89.999999
0
ARC
5
189
100
AcDbEntity
8
0
100
AcDbCircle
6
CONTINUOUS
62
5
10
260.189296
20
25.578788
40
25.000000
100
AcDbArc
50
165.850994
51
-165.850994
0
ARC
5
18a
100
AcDbEntity
8
0
100
AcDbCircle
6
CONTINUOUS
62
5
10
238.371872
20
31.078788
40
2.500000
100
AcDbArc
50
89.999999
51
165.850994
0
LINE
5
18b
100
AcDbEntity
8
0
100
AcDbLine
6
CONTINUOUS
62
5
10
238.371872
20
33.578788
11
246.006720
21
33.578788
0
ARC
5
18c
100
AcDbEntity
8
0
100
AcDbCircle
6
CONTINUOUS
62
5
10
246.006720
20
31.078788
40
2.500000
100
AcDbArc
50
14.149004
51
89.999999
0
ARC
5
18d
100
AcDbEntity
8
0
100
AcDbCircle
6
CONTINUOUS
62
5
10
224.189296
20
25.578788
40
25.000000
100
AcDbArc
50
-14.149004
51
14.149004
0
ARC
5
18e
100
AcDbEntity
8
0
100
AcDbCircle
6
CONTINUOUS
62
5
10
246.006720
20
20.078788
40
2.500000
100
AcDbArc
50
-89.999999
51
-14.149004
0
LINE
5
18f
100
AcDbEntity
8
0
100
AcDbLine
6
CONTINUOUS
62
5
10
246.006720
20
17.578788
11
238.371872
21
17.578788
0
POLYLINE
5
190
100
AcDbEntity
8
1
6
DOT2
62
5
100
AcDb2dPolyline
66
1
10
0.0
20
0.0
30
0.0
70
0
0
VERTEX
5
191
100
AcDbEntity
8
1
100
AcDbVertex
100
AcDb2dVertex
62
5
10
197.000000
20
69.750000
0
VERTEX
5
192
100
AcDbEntity
8
1
100
AcDbVertex
100
AcDb2dVertex
62
5
10
196.062500
20
69.750000
0
VERTEX
5
193
100
AcDbEntity
8
1
100
AcDbVertex
100
AcDb2dVertex
62
5
10
195.125000
20
69.437500
0
VERTEX
5
194
100
AcDbEntity
8
1
100
AcDbVertex
100
AcDb2dVertex
62
5
10
194.500000
20
68.187500
0
VERTEX
5
195
100
AcDbEntity
8
1
100
AcDbVertex
100
AcDb2dVertex
62
5
10
194.500000
20
63.812500
0
VERTEX
5
196
100
AcDbEntity
8
1
100
AcDbVertex
100
AcDb2dVertex
62
5
10
194.812500
20
62.875000
0
VERTEX
5
197
100
AcDbEntity
8
1
100
AcDbVertex
100
AcDb2dVertex
62
5
10
195.125000
20
62.562500
0
VERTEX
5
198
100
AcDbEntity
8
1
100
AcDbVertex
100
AcDb2dVertex
62
5
10
195.750000
20
62.250000
0
VERTEX
5
199
100
AcDbEntity
8
1
100
AcDbVertex
100
AcDb2dVertex
62
5
10
196.375000
20
62.250000
0
VERTEX
5
19a
100
AcDbEntity
8
1
100
AcDbVertex
100
AcDb2dVertex
62
5
10
197.000000
20
62.562500
0
VERTEX
5
19b
100
AcDbEntity
8
1
100
AcDbVertex
100
AcDb2dVertex
62
5
10
197.312500
20
62.875000
0
VERTEX
5
19c
100
AcDbEntity
8
1
100
AcDbVertex
100
AcDb2dVertex
62
5
10
197.625000
20
63.812500
0
VERTEX
5
19d
100
AcDbEntity
8
1
100
AcDbVertex
100
AcDb2dVertex
62
5
10
197.625000
20
65.687500
0
VERTEX
5
19e
100
AcDbEntity
8
1
100
AcDbVertex
100
AcDb2dVertex
62
5
10
197.312500
20
66.312500
0
VERTEX
5
19f
100
AcDbEntity
8
1
100
AcDbVertex
100
AcDb2dVertex
62
5
10
196.687500
20
66.625000
0
VERTEX
5
1a0
100
AcDbEntity
8
1
100
AcDbVertex
100
AcDb2dVertex
62
5
10
195.437500
20
66.625000
0
VERTEX
5
1a1
100
AcDbEntity
8
1
100
AcDbVertex
100
AcDb2dVertex
62
5
10
194.500000
20
66.312500
0
SEQEND
5
1a2
100
AcDbEntity
8
1
0
POLYLINE
5
1a3
100
AcDbEntity
8
1
6
DOT2
62
5
100
AcDb2dPolyline
66
1
10
0.0
20
0.0
30
0.0
70
0
0
VERTEX
5
1a4
100
AcDbEntity
8
1
100
AcDbVertex
100
AcDb2dVertex
62
5
10
189.500000
20
67.562500
0
VERTEX
5
1a5
100
AcDbEntity
8
1
100
AcDbVertex
100
AcDb2dVertex
62
5
10
189.812500
20
69.125000
0
VERTEX
5
1a6
100
AcDbEntity
8
1
100
AcDbVertex
100
AcDb2dVertex
62
5
10
190.750000
20
69.750000
0
VERTEX
5
1a7
100
AcDbEntity
8
1
100
AcDbVertex
100
AcDb2dVertex
62
5
10
191.687500
20
69.750000
0
VERTEX
5
1a8
100
AcDbEntity
8
1
100
AcDbVertex
100
AcDb2dVertex
62
5
10
192.312500
20
69.437500
0
VERTEX
5
1a9
100
AcDbEntity
8
1
100
AcDbVertex
100
AcDb2dVertex
62
5
10
192.625000
20
68.500000
0
VERTEX
5
1aa
100
AcDbEntity
8
1
100
AcDbVertex
100
AcDb2dVertex
62
5
10
192.625000
20
67.562500
0
VERTEX
5
1ab
100
AcDbEntity
8
1
100
AcDbVertex
100
AcDb2dVertex
62
5
10
192.312500
20
66.625000
0
VERTEX
5
1ac
100
AcDbEntity
8
1
100
AcDbVertex
100
AcDb2dVertex
62
5
10
189.500000
20
62.250000
0
VERTEX
5
1ad
100
AcDbEntity
8
1
100
AcDbVertex
100
AcDb2dVertex
62
5
10
192.625000
20
62.250000
0
VERTEX
5
1ae
100
AcDbEntity
8
1
100
AcDbVertex
100
AcDb2dVertex
62
5
10
192.625000
20
63.187500
0
SEQEND
5
1af
100
AcDbEntity
8
1
0
ARC
5
1b0
100
AcDbEntity
8
0
100
AcDbCircle
6
CONTINUOUS
62
5
10
227.489296
20
19.078788
40
0.500000
100
AcDbArc
50
-179.999998
51
-89.999999
0
LINE
5
1b1
100
AcDbEntity
8
0
100
AcDbLine
6
CONTINUOUS
62
5
10
226.989296
20
19.078788
11
226.989296
21
19.328788
0
ARC
5
1b2
100
AcDbEntity
8
0
100
AcDbCircle
6
CONTINUOUS
62
5
10
224.989296
20
19.328788
40
2.000000
100
AcDbArc
50
0.000000
51
89.999999
0
LINE
5
1b3
100
AcDbEntity
8
0
100
AcDbLine
6
CONTINUOUS
62
5
10
224.989296
20
21.328788
11
215.989296
21
21.328788
0
ARC
5
1b4
100
AcDbEntity
8
0
100
AcDbCircle
6
CONTINUOUS
62
5
10
215.989296
20
21.828788
40
0.500000
100
AcDbArc
50
179.999998
51
-89.999999
0
LINE
5
1b5
100
AcDbEntity
8
0
100
AcDbLine
6
CONTINUOUS
62
5
10
215.489296
20
21.828788
11
215.489296
21
22.576423
0
ARC
5
1b6
100
AcDbEntity
8
0
100
AcDbCircle
6
CONTINUOUS
62
5
10
215.990610
20
22.625117
40
0.503673
100
AcDbArc
50
90.149432
51
-174.452036
0
LINE
5
1b7
100
AcDbEntity
8
0
100
AcDbLine
6
CONTINUOUS
62
5
10
215.989296
20
23.128788
11
218.489296
21
23.128788
0
ARC
5
1b8
100
AcDbEntity
8
0
100
AcDbCircle
6
CONTINUOUS
62
5
10
218.489296
20
24.128788
40
1.000000
100
AcDbArc
50
-89.999999
51
0.000000
0
LINE
5
1b9
100
AcDbEntity
8
0
100
AcDbLine
6
CONTINUOUS
62
5
10
219.489296
20
24.128788
11
219.489296
21
27.028788
0
ARC
5
1ba
100
AcDbEntity
8
0
100
AcDbCircle
6
CONTINUOUS
62
5
10
218.489296
20
27.028788
40
1.000000
100
AcDbArc
50
0.000000
51
89.999999
0
LINE
5
1bb
100
AcDbEntity
8
0
100
AcDbLine
6
CONTINUOUS
62
5
10
218.489296
20
28.028788
11
215.989296
21
28.028788
0
ARC
5
1bc
100
AcDbEntity
8
0
100
AcDbCircle
6
CONTINUOUS
62
5
10
215.989296
20
28.528788
40
0.500000
100
AcDbArc
50
179.999998
51
-89.999999
0
LINE
5
1bd
100
AcDbEntity
8
0
100
AcDbLine
6
CONTINUOUS
62
5
10
215.489296
20
28.528788
11
215.489296
21
29.328788
0
ARC
5
1be
100
AcDbEntity
8
0
100
AcDbCircle
6
CONTINUOUS
62
5
10
215.989296
20
29.328788
40
0.500000
100
AcDbArc
50
89.999999
51
-179.999998
0
LINE
5
1bf
100
AcDbEntity
8
0
100
AcDbLine
6
CONTINUOUS
62
5
10
215.989296
20
29.828788
11
224.989296
21
29.828788
0
ARC
5
1c0
100
AcDbEntity
8
0
100
AcDbCircle
6
CONTINUOUS
62
5
10
224.989296
20
31.828788
40
2.000000
100
AcDbArc
50
-89.999999
51
0.000000
0
LINE
5
1c1
100
AcDbEntity
8
0
100
AcDbLine
6
CONTINUOUS
62
5
10
226.989296
20
31.828788
11
226.989296
21
32.078788
0
ARC
5
1c2
100
AcDbEntity
8
0
100
AcDbCircle
6
CONTINUOUS
62
5
10
227.489296
20
32.078788
40
0.500000
100
AcDbArc
50
89.999999
51
-179.999998
0
LINE
5
1c3
100
AcDbEntity
8
0
100
AcDbLine
6
CONTINUOUS
62
5
10
227.489296
20
32.578788
11
228.489296
21
32.578788
0
LINE
5
1c4
100
AcDbEntity
8
0
100
AcDbLine
6
CONTINUOUS
62
5
10
228.489296
20
18.578788
11
227.489296
21
18.578788
0
ARC
5
1c5
100
AcDbEntity
8
0
100
AcDbCircle
6
CONTINUOUS
62
5
10
230.489296
20
18.078788
40
0.500000
100
AcDbArc
50
179.999998
51
-89.999999
0
LINE
5
1c6
100
AcDbEntity
8
0
100
AcDbLine
6
CONTINUOUS
62
5
10
229.989296
20
18.078788
11
229.989296
21
33.078788
0
ARC
5
1c7
100
AcDbEntity
8
0
100
AcDbCircle
6
CONTINUOUS
62
5
10
230.489296
20
33.078788
40
0.500000
100
AcDbArc
50
89.999999
51
-179.999998
0
LINE
5
1c8
100
AcDbEntity
8
0
100
AcDbLine
6
CONTINUOUS
62
5
10
230.489296
20
33.578788
11
233.489296
21
33.578788
0
ARC
5
1c9
100
AcDbEntity
8
0
100
AcDbCircle
6
CONTINUOUS
62
5
10
233.489296
20
33.078788
40
0.500000
100
AcDbArc
50
0.000000
51
89.999999
0
LINE
5
1ca
100
AcDbEntity
8
0
100
AcDbLine
6
CONTINUOUS
62
5
10
233.989296
20
33.078788
11
233.989296
21
18.078788
0
ARC
5
1cb
100
AcDbEntity
8
0
100
AcDbCircle
6
CONTINUOUS
62
5
10
233.489296
20
18.078788
40
0.500000
100
AcDbArc
50
-89.999999
51
0.000000
0
LINE
5
1cc
100
AcDbEntity
8
0
100
AcDbLine
6
CONTINUOUS
62
5
10
233.489296
20
17.578788
11
230.489296
21
17.578788
0
ARC
5
1cd
100
AcDbEntity
8
0
100
AcDbCircle
6
CONTINUOUS
62
5
10
231.489296
20
18.157577
40
3.000000
100
AcDbArc
50
-179.999998
51
-88.514838
0
LINE
5
1ce
100
AcDbEntity
8
0
100
AcDbLine
6
CONTINUOUS
62
5
10
228.489296
20
18.157577
11
228.489296
21
33.000000
0
ARC
5
1cf
100
AcDbEntity
8
0
100
AcDbCircle
6
CONTINUOUS
62
5
10
231.489296
20
33.000000
40
3.000000
100
AcDbArc
50
88.514838
51
-179.999998
0
LINE
5
1d0
100
AcDbEntity
8
0
100
AcDbLine
6
CONTINUOUS
62
5
10
231.567050
20
35.998992
11
251.237666
21
35.488997
0
ARC
5
1d1
100
AcDbEntity
8
0
100
AcDbCircle
6
CONTINUOUS
62
5
10
251.082158
20
29.491012
40
6.000000
100
AcDbArc
50
11.882571
51
88.514838
0
ARC
5
1d2
100
AcDbEntity
8
0
100
AcDbCircle
6
CONTINUOUS
62
5
10
232.489296
20
25.578788
40
25.000000
100
AcDbArc
50
-11.882571
51
11.882571
0
ARC
5
1d3
100
AcDbEntity
8
0
100
AcDbCircle
6
CONTINUOUS
62
5
10
251.082158
20
21.666564
40
6.000000
100
AcDbArc
50
-88.514838
51
-11.882571
0
LINE
5
1d4
100
AcDbEntity
8
0
100
AcDbLine
6
CONTINUOUS
62
5
10
251.237666
20
15.668580
11
231.567050
21
15.158585
0
LINE
5
1d5
100
AcDbEntity
8
1
100
AcDbLine
6
CONTINUOUS
62
5
10
245.249837
20
86.500000
11
245.249837
21
59.000000
0
POLYLINE
5
1d6
100
AcDbEntity
8
1
6
CONTINUOUS
62
5
100
AcDb2dPolyline
66
1
10
0.0
20
0.0
30
0.0
70
0
0
VERTEX
5
1d7
100
AcDbEntity
8
1
100
AcDbVertex
100
AcDb2dVertex
62
5
10
266.499837
20
61.000000
0
VERTEX
5
1d8
100
AcDbEntity
8
1
100
AcDbVertex
100
AcDb2dVertex
62
5
10
245.249837
20
61.000000
0
VERTEX
5
1d9
100
AcDbEntity
8
1
100
AcDbVertex
100
AcDb2dVertex
62
5
10
251.249837
20
62.000000
0
VERTEX
5
1da
100
AcDbEntity
8
1
100
AcDbVertex
100
AcDb2dVertex
62
5
10
251.249837
20
60.000000
0
VERTEX
5
1db
100
AcDbEntity
8
1
100
AcDbVertex
100
AcDb2dVertex
62
5
10
245.249837
20
61.000000
0
VERTEX
5
1dc
100
AcDbEntity
8
1
100
AcDbVertex
100
AcDb2dVertex
62
5
10
251.249837
20
61.500000
0
VERTEX
5
1dd
100
AcDbEntity
8
1
100
AcDbVertex
100
AcDb2dVertex
62
5
10
251.249837
20
60.500000
0
VERTEX
5
1de
100
AcDbEntity
8
1
100
AcDbVertex
100
AcDb2dVertex
62
5
10
245.249837
20
61.000000
0
SEQEND
5
1df
100
AcDbEntity
8
1
0
LINE
5
1e0
100
AcDbEntity
8
1
100
AcDbLine
6
CONTINUOUS
62
5
10
245.249837
20
61.000000
11
234.250000
21
61.000000
0
LINE
5
1e1
100
AcDbEntity
8
1
100
AcDbLine
6
CONTINUOUS
62
5
10
231.250000
20
61.000000
11
234.250000
21
61.000000
0
LINE
5
1e2
100
AcDbEntity
8
1
100
AcDbLine
6
CONTINUOUS
62
5
10
208.250000
20
85.500000
11
208.250000
21
59.000000
0
LINE
5
1e3
100
AcDbEntity
8
1
100
AcDbLine
6
CONTINUOUS
62
5
10
234.250000
20
89.000000
11
234.250000
21
59.000000
0
POLYLINE
5
1e4
100
AcDbEntity
8
1
6
CONTINUOUS
62
5
100
AcDb2dPolyline
66
1
10
0.0
20
0.0
30
0.0
70
0
0
VERTEX
5
1e5
100
AcDbEntity
8
1
100
AcDbVertex
100
AcDb2dVertex
62
5
10
187.000000
20
61.000000
0
VERTEX
5
1e6
100
AcDbEntity
8
1
100
AcDbVertex
100
AcDb2dVertex
62
5
10
208.250000
20
61.000000
0
VERTEX
5
1e7
100
AcDbEntity
8
1
100
AcDbVertex
100
AcDb2dVertex
62
5
10
202.250000
20
60.000000
0
VERTEX
5
1e8
100
AcDbEntity
8
1
100
AcDbVertex
100
AcDb2dVertex
62
5
10
202.250000
20
62.000000
0
VERTEX
5
1e9
100
AcDbEntity
8
1
100
AcDbVertex
100
AcDb2dVertex
62
5
10
208.250000
20
61.000000
0
VERTEX
5
1ea
100
AcDbEntity
8
1
100
AcDbVertex
100
AcDb2dVertex
62
5
10
202.250000
20
60.500000
0
VERTEX
5
1eb
100
AcDbEntity
8
1
100
AcDbVertex
100
AcDb2dVertex
62
5
10
202.250000
20
61.500000
0
VERTEX
5
1ec
100
AcDbEntity
8
1
100
AcDbVertex
100
AcDb2dVertex
62
5
10
208.250000
20
61.000000
0
SEQEND
5
1ed
100
AcDbEntity
8
1
0
LINE
5
1ee
100
AcDbEntity
8
1
100
AcDbLine
6
CONTINUOUS
62
5
10
208.250000
20
61.000000
11
234.250000
21
61.000000
0
LINE
5
1ef
100
AcDbEntity
8
1
100
AcDbLine
6
CONTINUOUS
62
5
10
239.250000
20
61.000000
11
234.250000
21
61.000000
0
POLYLINE
5
1f0
100
AcDbEntity
8
1
6
CONTINUOUS
62
5
100
AcDb2dPolyline
66
1
10
0.0
20
0.0
30
0.0
70
0
0
VERTEX
5
1f1
100
AcDbEntity
8
1
100
AcDbVertex
100
AcDb2dVertex
62
5
10
233.250000
20
60.500000
0
VERTEX
5
1f2
100
AcDbEntity
8
1
100
AcDbVertex
100
AcDb2dVertex
62
5
10
233.250000
20
61.500000
0
VERTEX
5
1f3
100
AcDbEntity
8
1
100
AcDbVertex
100
AcDb2dVertex
62
5
10
233.750000
20
62.000000
0
VERTEX
5
1f4
100
AcDbEntity
8
1
100
AcDbVertex
100
AcDb2dVertex
62
5
10
234.750000
20
62.000000
0
VERTEX
5
1f5
100
AcDbEntity
8
1
100
AcDbVertex
100
AcDb2dVertex
62
5
10
235.250000
20
61.500000
0
VERTEX
5
1f6
100
AcDbEntity
8
1
100
AcDbVertex
100
AcDb2dVertex
62
5
10
235.250000
20
60.500000
0
VERTEX
5
1f7
100
AcDbEntity
8
1
100
AcDbVertex
100
AcDb2dVertex
62
5
10
234.750000
20
60.000000
0
VERTEX
5
1f8
100
AcDbEntity
8
1
100
AcDbVertex
100
AcDb2dVertex
62
5
10
233.750000
20
60.000000
0
VERTEX
5
1f9
100
AcDbEntity
8
1
100
AcDbVertex
100
AcDb2dVertex
62
5
10
233.250000
20
60.500000
0
VERTEX
5
1fa
100
AcDbEntity
8
1
100
AcDbVertex
100
AcDb2dVertex
62
5
10
235.250000
20
61.500000
0
SEQEND
5
1fb
100
AcDbEntity
8
1
0
LINE
5
1fc
100
AcDbEntity
8
1
100
AcDbLine
6
CONTINUOUS
62
5
10
235.250000
20
60.500000
11
233.250000
21
61.500000
0
LINE
5
1fd
100
AcDbEntity
8
1
100
AcDbLine
6
CONTINUOUS
62
5
10
233.750000
20
62.000000
11
234.750000
21
60.000000
0
LINE
5
1fe
100
AcDbEntity
8
1
100
AcDbLine
6
CONTINUOUS
62
5
10
233.750000
20
60.000000
11
234.750000
21
62.000000
0
POLYLINE
5
1ff
100
AcDbEntity
8
0
6
CONTINUOUS
62
5
100
AcDb2dPolyline
66
1
10
0.0
20
0.0
30
0.0
70
0
0
VERTEX
5
200
100
AcDbEntity
8
0
100
AcDbVertex
100
AcDb2dVertex
62
5
10
140.432489
20
112.164023
0
VERTEX
5
201
100
AcDbEntity
8
0
100
AcDbVertex
100
AcDb2dVertex
62
5
10
140.432489
20
113.814023
0
VERTEX
5
202
100
AcDbEntity
8
0
100
AcDbVertex
100
AcDb2dVertex
62
5
10
141.202489
20
112.164023
0
VERTEX
5
203
100
AcDbEntity
8
0
100
AcDbVertex
100
AcDb2dVertex
62
5
10
141.202489
20
113.814023
0
SEQEND
5
204
100
AcDbEntity
8
0
0
POLYLINE
5
205
100
AcDbEntity
8
0
6
CONTINUOUS
62
5
100
AcDb2dPolyline
66
1
10
0.0
20
0.0
30
0.0
70
1
0
VERTEX
5
206
100
AcDbEntity
8
0
100
AcDbVertex
100
AcDb2dVertex
62
5
10
136.101239
20
113.814023
0
VERTEX
5
207
100
AcDbEntity
8
0
100
AcDbVertex
100
AcDb2dVertex
62
5
10
136.293739
20
113.814023
0
VERTEX
5
208
100
AcDbEntity
8
0
100
AcDbVertex
100
AcDb2dVertex
62
5
10
136.438114
20
113.745273
0
VERTEX
5
209
100
AcDbEntity
8
0
100
AcDbVertex
100
AcDb2dVertex
62
5
10
136.582489
20
113.470273
0
VERTEX
5
20a
100
AcDbEntity
8
0
100
AcDbVertex
100
AcDb2dVertex
62
5
10
136.630614
20
113.195273
0
VERTEX
5
20b
100
AcDbEntity
8
0
100
AcDbVertex
100
AcDb2dVertex
62
5
10
136.630614
20
112.782773
0
VERTEX
5
20c
100
AcDbEntity
8
0
100
AcDbVertex
100
AcDb2dVertex
62
5
10
136.582489
20
112.507773
0
VERTEX
5
20d
100
AcDbEntity
8
0
100
AcDbVertex
100
AcDb2dVertex
62
5
10
136.438114
20
112.232773
0
VERTEX
5
20e
100
AcDbEntity
8
0
100
AcDbVertex
100
AcDb2dVertex
62
5
10
136.293739
20
112.164023
0
VERTEX
5
20f
100
AcDbEntity
8
0
100
AcDbVertex
100
AcDb2dVertex
62
5
10
136.101239
20
112.164023
0
VERTEX
5
210
100
AcDbEntity
8
0
100
AcDbVertex
100
AcDb2dVertex
62
5
10
135.956864
20
112.232773
0
VERTEX
5
211
100
AcDbEntity
8
0
100
AcDbVertex
100
AcDb2dVertex
62
5
10
135.812489
20
112.507773
0
VERTEX
5
212
100
AcDbEntity
8
0
100
AcDbVertex
100
AcDb2dVertex
62
5
10
135.764364
20
112.782773
0
VERTEX
5
213
100
AcDbEntity
8
0
100
AcDbVertex
100
AcDb2dVertex
62
5
10
135.764364
20
113.195273
0
VERTEX
5
214
100
AcDbEntity
8
0
100
AcDbVertex
100
AcDb2dVertex
62
5
10
135.812489
20
113.470273
0
VERTEX
5
215
100
AcDbEntity
8
0
100
AcDbVertex
100
AcDb2dVertex
62
5
10
135.956864
20
113.745273
0
VERTEX
5
216
100
AcDbEntity
8
0
100
AcDbVertex
100
AcDb2dVertex
62
5
10
136.101239
20
113.814023
0
SEQEND
5
217
100
AcDbEntity
8
0
0
LINE
5
218
100
AcDbEntity
8
0
100
AcDbLine
6
CONTINUOUS
62
5
10
137.400614
20
113.814023
11
137.400614
21
112.164023
0
POLYLINE
5
219
100
AcDbEntity
8
0
6
CONTINUOUS
62
5
100
AcDb2dPolyline
66
1
10
0.0
20
0.0
30
0.0
70
0
0
VERTEX
5
21a
100
AcDbEntity
8
0
100
AcDbVertex
100
AcDb2dVertex
62
5
10
137.400614
20
113.814023
0
VERTEX
5
21b
100
AcDbEntity
8
0
100
AcDbVertex
100
AcDb2dVertex
62
5
10
137.881864
20
113.814023
0
VERTEX
5
21c
100
AcDbEntity
8
0
100
AcDbVertex
100
AcDb2dVertex
62
5
10
138.026239
20
113.745273
0
VERTEX
5
21d
100
AcDbEntity
8
0
100
AcDbVertex
100
AcDb2dVertex
62
5
10
138.122489
20
113.676523
0
VERTEX
5
21e
100
AcDbEntity
8
0
100
AcDbVertex
100
AcDb2dVertex
62
5
10
138.218739
20
113.470273
0
VERTEX
5
21f
100
AcDbEntity
8
0
100
AcDbVertex
100
AcDb2dVertex
62
5
10
138.218739
20
113.195273
0
VERTEX
5
220
100
AcDbEntity
8
0
100
AcDbVertex
100
AcDb2dVertex
62
5
10
138.122489
20
112.989023
0
VERTEX
5
221
100
AcDbEntity
8
0
100
AcDbVertex
100
AcDb2dVertex
62
5
10
137.881864
20
112.851523
0
VERTEX
5
222
100
AcDbEntity
8
0
100
AcDbVertex
100
AcDb2dVertex
62
5
10
137.400614
20
112.851523
0
SEQEND
5
223
100
AcDbEntity
8
0
0
CIRCLE
5
224
100
AcDbEntity
8
0
100
AcDbCircle
6
CONTINUOUS
62
5
10
138.750000
20
110.650914
40
0.250000
0
POLYLINE
5
225
100
AcDbEntity
8
0
6
CONTINUOUS
62
5
100
AcDb2dPolyline
66
1
10
0.0
20
0.0
30
0.0
70
0
0
VERTEX
5
226
100
AcDbEntity
8
0
100
AcDbVertex
100
AcDb2dVertex
62
5
10
139.614364
20
113.814023
0
VERTEX
5
227
100
AcDbEntity
8
0
100
AcDbVertex
100
AcDb2dVertex
62
5
10
138.892489
20
113.814023
0
VERTEX
5
228
100
AcDbEntity
8
0
100
AcDbVertex
100
AcDb2dVertex
62
5
10
138.892489
20
112.164023
0
VERTEX
5
229
100
AcDbEntity
8
0
100
AcDbVertex
100
AcDb2dVertex
62
5
10
139.662489
20
112.164023
0
SEQEND
5
22a
100
AcDbEntity
8
0
0
LINE
5
22b
100
AcDbEntity
8
0
100
AcDbLine
6
CONTINUOUS
62
5
10
138.892489
20
112.989023
11
139.421864
21
112.989023
0
POLYLINE
5
22c
100
AcDbEntity
8
0
6
CONTINUOUS
62
5
100
AcDb2dPolyline
66
1
10
0.0
20
0.0
30
0.0
70
0
0
VERTEX
5
22d
100
AcDbEntity
8
0
100
AcDbVertex
100
AcDb2dVertex
62
5
10
144.450575
20
102.877393
0
VERTEX
5
22e
100
AcDbEntity
8
0
100
AcDbVertex
100
AcDb2dVertex
62
5
10
144.450575
20
101.227393
0
VERTEX
5
22f
100
AcDbEntity
8
0
100
AcDbVertex
100
AcDb2dVertex
62
5
10
145.034950
20
101.227393
0
SEQEND
5
230
100
AcDbEntity
8
0
0
POLYLINE
5
231
100
AcDbEntity
8
0
6
CONTINUOUS
62
5
100
AcDb2dPolyline
66
1
10
0.0
20
0.0
30
0.0
70
1
0
VERTEX
5
232
100
AcDbEntity
8
0
100
AcDbVertex
100
AcDb2dVertex
62
5
10
145.722450
20
102.877393
0
VERTEX
5
233
100
AcDbEntity
8
0
100
AcDbVertex
100
AcDb2dVertex
62
5
10
145.859950
20
102.877393
0
VERTEX
5
234
100
AcDbEntity
8
0
100
AcDbVertex
100
AcDb2dVertex
62
5
10
145.963075
20
102.808643
0
VERTEX
5
235
100
AcDbEntity
8
0
100
AcDbVertex
100
AcDb2dVertex
62
5
10
146.066200
20
102.533643
0
VERTEX
5
236
100
AcDbEntity
8
0
100
AcDbVertex
100
AcDb2dVertex
62
5
10
146.100575
20
102.258643
0
VERTEX
5
237
100
AcDbEntity
8
0
100
AcDbVertex
100
AcDb2dVertex
62
5
10
146.100575
20
101.846143
0
VERTEX
5
238
100
AcDbEntity
8
0
100
AcDbVertex
100
AcDb2dVertex
62
5
10
146.066200
20
101.571143
0
VERTEX
5
239
100
AcDbEntity
8
0
100
AcDbVertex
100
AcDb2dVertex
62
5
10
145.963075
20
101.296143
0
VERTEX
5
23a
100
AcDbEntity
8
0
100
AcDbVertex
100
AcDb2dVertex
62
5
10
145.859950
20
101.227393
0
VERTEX
5
23b
100
AcDbEntity
8
0
100
AcDbVertex
100
AcDb2dVertex
62
5
10
145.722450
20
101.227393
0
VERTEX
5
23c
100
AcDbEntity
8
0
100
AcDbVertex
100
AcDb2dVertex
62
5
10
145.619325
20
101.296143
0
VERTEX
5
23d
100
AcDbEntity
8
0
100
AcDbVertex
100
AcDb2dVertex
62
5
10
145.516200
20
101.571143
0
VERTEX
5
23e
100
AcDbEntity
8
0
100
AcDbVertex
100
AcDb2dVertex
62
5
10
145.481825
20
101.846143
0
VERTEX
5
23f
100
AcDbEntity
8
0
100
AcDbVertex
100
AcDb2dVertex
62
5
10
145.481825
20
102.258643
0
VERTEX
5
240
100
AcDbEntity
8
0
100
AcDbVertex
100
AcDb2dVertex
62
5
10
145.516200
20
102.533643
0
VERTEX
5
241
100
AcDbEntity
8
0
100
AcDbVertex
100
AcDb2dVertex
62
5
10
145.619325
20
102.808643
0
VERTEX
5
242
100
AcDbEntity
8
0
100
AcDbVertex
100
AcDb2dVertex
62
5
10
145.722450
20
102.877393
0
SEQEND
5
243
100
AcDbEntity
8
0
0
POLYLINE
5
244
100
AcDbEntity
8
0
6
CONTINUOUS
62
5
100
AcDb2dPolyline
66
1
10
0.0
20
0.0
30
0.0
70
0
0
VERTEX
5
245
100
AcDbEntity
8
0
100
AcDbVertex
100
AcDb2dVertex
62
5
10
147.166200
20
102.602393
0
VERTEX
5
246
100
AcDbEntity
8
0
100
AcDbVertex
100
AcDb2dVertex
62
5
10
147.097450
20
102.739893
0
VERTEX
5
247
100
AcDbEntity
8
0
100
AcDbVertex
100
AcDb2dVertex
62
5
10
146.959950
20
102.877393
0
VERTEX
5
248
100
AcDbEntity
8
0
100
AcDbVertex
100
AcDb2dVertex
62
5
10
146.822450
20
102.877393
0
VERTEX
5
249
100
AcDbEntity
8
0
100
AcDbVertex
100
AcDb2dVertex
62
5
10
146.684950
20
102.739893
0
VERTEX
5
24a
100
AcDbEntity
8
0
100
AcDbVertex
100
AcDb2dVertex
62
5
10
146.616200
20
102.602393
0
VERTEX
5
24b
100
AcDbEntity
8
0
100
AcDbVertex
100
AcDb2dVertex
62
5
10
146.547450
20
102.258643
0
VERTEX
5
24c
100
AcDbEntity
8
0
100
AcDbVertex
100
AcDb2dVertex
62
5
10
146.547450
20
101.846143
0
VERTEX
5
24d
100
AcDbEntity
8
0
100
AcDbVertex
100
AcDb2dVertex
62
5
10
146.616200
20
101.502393
0
VERTEX
5
24e
100
AcDbEntity
8
0
100
AcDbVertex
100
AcDb2dVertex
62
5
10
146.684950
20
101.364893
0
VERTEX
5
24f
100
AcDbEntity
8
0
100
AcDbVertex
100
AcDb2dVertex
62
5
10
146.822450
20
101.227393
0
VERTEX
5
250
100
AcDbEntity
8
0
100
AcDbVertex
100
AcDb2dVertex
62
5
10
146.959950
20
101.227393
0
VERTEX
5
251
100
AcDbEntity
8
0
100
AcDbVertex
100
AcDb2dVertex
62
5
10
147.097450
20
101.364893
0
VERTEX
5
252
100
AcDbEntity
8
0
100
AcDbVertex
100
AcDb2dVertex
62
5
10
147.234950
20
101.639893
0
SEQEND
5
253
100
AcDbEntity
8
0
0
LINE
5
254
100
AcDbEntity
8
0
100
AcDbLine
6
CONTINUOUS
62
5
10
147.716200
20
102.877393
11
147.716200
21
101.227393
0
LINE
5
255
100
AcDbEntity
8
0
100
AcDbLine
6
CONTINUOUS
62
5
10
147.716200
20
101.846143
11
148.231825
21
102.877393
0
LINE
5
256
100
AcDbEntity
8
0
100
AcDbLine
6
CONTINUOUS
62
5
10
147.853700
20
102.121143
11
148.266200
21
101.227393
0
CIRCLE
5
257
100
AcDbEntity
8
0
100
AcDbCircle
6
CONTINUOUS
62
5
10
144.884550
20
104.500000
40
0.500000
0
ARC
5
258
100
AcDbEntity
8
0
100
AcDbCircle
6
CONTINUOUS
62
5
10
138.952661
20
104.753208
40
5.516281
100
AcDbArc
50
8.322070
51
81.111510
0
POLYLINE
5
259
100
AcDbEntity
8
0
6
CONTINUOUS
62
5
100
AcDb2dPolyline
66
1
10
0.0
20
0.0
30
0.0
70
0
0
VERTEX
5
25a
100
AcDbEntity
8
0
100
AcDbVertex
100
AcDb2dVertex
62
5
10
139.804993
20
110.203244
0
VERTEX
5
25b
100
AcDbEntity
8
0
100
AcDbVertex
100
AcDb2dVertex
62
5
10
141.415584
20
110.863930
0
VERTEX
5
25c
100
AcDbEntity
8
0
100
AcDbVertex
100
AcDb2dVertex
62
5
10
141.415584
20
110.537770
0
SEQEND
5
25d
100
AcDbEntity
8
0
0
ARC
5
25e
100
AcDbEntity
8
0
100
AcDbCircle
6
CONTINUOUS
62
5
10
139.029338
20
104.774079
40
6.238133
100
AcDbArc
50
7.160158
51
67.509783
0
LINE
5
25f
100
AcDbEntity
8
0
100
AcDbLine
6
CONTINUOUS
62
5
10
145.218824
20
105.551620
11
144.410857
21
105.551620
0
ARC
5
260
100
AcDbEntity
8
2
100
AcDbCircle
6
CONTINUOUS
62
5
10
138.750000
20
104.500000
40
4.000000
100
AcDbArc
50
14.477512
51
165.522486
0
POLYLINE
5
261
100
AcDbEntity
8
2
6
CONTINUOUS
62
5
100
AcDb2dPolyline
66
1
10
0.0
20
0.0
30
0.0
70
0
0
VERTEX
5
262
100
AcDbEntity
8
2
100
AcDbVertex
100
AcDb2dVertex
62
5
10
134.877017
20
105.500000
0
VERTEX
5
263
100
AcDbEntity
8
2
100
AcDbVertex
100
AcDb2dVertex
62
5
10
136.750000
20
105.500000
0
VERTEX
5
264
100
AcDbEntity
8
2
100
AcDbVertex
100
AcDb2dVertex
62
5
10
136.750000
20
103.500000
0
VERTEX
5
265
100
AcDbEntity
8
2
100
AcDbVertex
100
AcDb2dVertex
62
5
10
134.877017
20
103.500000
0
SEQEND
5
266
100
AcDbEntity
8
2
0
ARC
5
267
100
AcDbEntity
8
2
100
AcDbCircle
6
CONTINUOUS
62
5
10
138.750000
20
104.500000
40
4.000000
100
AcDbArc
50
-165.522486
51
-14.477512
0
POLYLINE
5
268
100
AcDbEntity
8
2
6
CONTINUOUS
62
5
100
AcDb2dPolyline
66
1
10
0.0
20
0.0
30
0.0
70
0
0
VERTEX
5
269
100
AcDbEntity
8
2
100
AcDbVertex
100
AcDb2dVertex
62
5
10
142.622983
20
103.500000
0
VERTEX
5
26a
100
AcDbEntity
8
2
100
AcDbVertex
100
AcDb2dVertex
62
5
10
140.750000
20
103.500000
0
VERTEX
5
26b
100
AcDbEntity
8
2
100
AcDbVertex
100
AcDb2dVertex
62
5
10
140.750000
20
105.500000
0
VERTEX
5
26c
100
AcDbEntity
8
2
100
AcDbVertex
100
AcDb2dVertex
62
5
10
142.622983
20
105.500000
0
SEQEND
5
26d
100
AcDbEntity
8
2
0
CIRCLE
5
26e
100
AcDbEntity
8
0
100
AcDbCircle
6
CONTINUOUS
62
5
10
138.750000
20
104.500000
40
4.700000
0
POLYLINE
5
26f
100
AcDbEntity
8
1
6
DOT2
62
5
100
AcDb2dPolyline
66
1
10
0.0
20
0.0
30
0.0
70
0
0
VERTEX
5
270
100
AcDbEntity
8
1
100
AcDbVertex
100
AcDb2dVertex
62
5
10
42.375000
20
152.000000
0
VERTEX
5
271
100
AcDbEntity
8
1
100
AcDbVertex
100
AcDb2dVertex
62
5
10
41.125000
20
152.312500
0
VERTEX
5
272
100
AcDbEntity
8
1
100
AcDbVertex
100
AcDb2dVertex
62
5
10
40.500000
20
152.937500
0
VERTEX
5
273
100
AcDbEntity
8
1
100
AcDbVertex
100
AcDb2dVertex
62
5
10
40.500000
20
153.875000
0
VERTEX
5
274
100
AcDbEntity
8
1
100
AcDbVertex
100
AcDb2dVertex
62
5
10
40.812500
20
154.500000
0
VERTEX
5
275
100
AcDbEntity
8
1
100
AcDbVertex
100
AcDb2dVertex
62
5
10
41.750000
20
154.812500
0
VERTEX
5
276
100
AcDbEntity
8
1
100
AcDbVertex
100
AcDb2dVertex
62
5
10
43.000000
20
154.812500
0
VERTEX
5
277
100
AcDbEntity
8
1
100
AcDbVertex
100
AcDb2dVertex
62
5
10
43.625000
20
154.500000
0
VERTEX
5
278
100
AcDbEntity
8
1
100
AcDbVertex
100
AcDb2dVertex
62
5
10
44.250000
20
153.875000
0
VERTEX
5
279
100
AcDbEntity
8
1
100
AcDbVertex
100
AcDb2dVertex
62
5
10
44.250000
20
152.937500
0
SEQEND
5
27a
100
AcDbEntity
8
1
0
POLYLINE
5
27b
100
AcDbEntity
8
1
6
DOT2
62
5
100
AcDb2dPolyline
66
1
10
0.0
20
0.0
30
0.0
70
0
0
VERTEX
5
27c
100
AcDbEntity
8
1
100
AcDbVertex
100
AcDb2dVertex
62
5
10
44.250000
20
153.875000
0
VERTEX
5
27d
100
AcDbEntity
8
1
100
AcDbVertex
100
AcDb2dVertex
62
5
10
44.875000
20
154.812500
0
VERTEX
5
27e
100
AcDbEntity
8
1
100
AcDbVertex
100
AcDb2dVertex
62
5
10
45.812500
20
155.125000
0
VERTEX
5
27f
100
AcDbEntity
8
1
100
AcDbVertex
100
AcDb2dVertex
62
5
10
46.750000
20
155.125000
0
VERTEX
5
280
100
AcDbEntity
8
1
100
AcDbVertex
100
AcDb2dVertex
62
5
10
47.375000
20
154.812500
0
VERTEX
5
281
100
AcDbEntity
8
1
100
AcDbVertex
100
AcDb2dVertex
62
5
10
48.000000
20
153.875000
0
VERTEX
5
282
100
AcDbEntity
8
1
100
AcDbVertex
100
AcDb2dVertex
62
5
10
48.000000
20
152.937500
0
VERTEX
5
283
100
AcDbEntity
8
1
100
AcDbVertex
100
AcDb2dVertex
62
5
10
47.687500
20
152.312500
0
VERTEX
5
284
100
AcDbEntity
8
1
100
AcDbVertex
100
AcDb2dVertex
62
5
10
46.750000
20
151.687500
0
SEQEND
5
285
100
AcDbEntity
8
1
0
POLYLINE
5
286
100
AcDbEntity
8
1
6
DOT2
62
5
100
AcDb2dPolyline
66
1
10
0.0
20
0.0
30
0.0
70
0
0
VERTEX
5
287
100
AcDbEntity
8
1
100
AcDbVertex
100
AcDb2dVertex
62
5
10
41.125000
20
147.625000
0
VERTEX
5
288
100
AcDbEntity
8
1
100
AcDbVertex
100
AcDb2dVertex
62
5
10
40.500000
20
148.562500
0
VERTEX
5
289
100
AcDbEntity
8
1
100
AcDbVertex
100
AcDb2dVertex
62
5
10
48.000000
20
148.562500
0
SEQEND
5
28a
100
AcDbEntity
8
1
0
LINE
5
28b
100
AcDbEntity
8
1
100
AcDbLine
6
DOT2
62
5
10
48.000000
20
147.937500
11
48.000000
21
149.187500
0
POLYLINE
5
28c
100
AcDbEntity
8
1
6
DOT2
62
5
100
AcDb2dPolyline
66
1
10
0.0
20
0.0
30
0.0
70
0
0
VERTEX
5
28d
100
AcDbEntity
8
1
100
AcDbVertex
100
AcDb2dVertex
62
5
10
118.125000
20
65.687500
0
VERTEX
5
28e
100
AcDbEntity
8
1
100
AcDbVertex
100
AcDb2dVertex
62
5
10
118.125000
20
65.687500
0
VERTEX
5
28f
100
AcDbEntity
8
1
100
AcDbVertex
100
AcDb2dVertex
62
5
10
116.875000
20
65.375000
0
VERTEX
5
290
100
AcDbEntity
8
1
100
AcDbVertex
100
AcDb2dVertex
62
5
10
115.937500
20
65.375000
0
VERTEX
5
291
100
AcDbEntity
8
1
100
AcDbVertex
100
AcDb2dVertex
62
5
10
115.312500
20
65.687500
0
VERTEX
5
292
100
AcDbEntity
8
1
100
AcDbVertex
100
AcDb2dVertex
62
5
10
115.000000
20
66.625000
0
VERTEX
5
293
100
AcDbEntity
8
1
100
AcDbVertex
100
AcDb2dVertex
62
5
10
115.000000
20
68.187500
0
VERTEX
5
294
100
AcDbEntity
8
1
100
AcDbVertex
100
AcDb2dVertex
62
5
10
115.312500
20
69.125000
0
VERTEX
5
295
100
AcDbEntity
8
1
100
AcDbVertex
100
AcDb2dVertex
62
5
10
115.625000
20
69.437500
0
VERTEX
5
296
100
AcDbEntity
8
1
100
AcDbVertex
100
AcDb2dVertex
62
5
10
116.250000
20
69.750000
0
VERTEX
5
297
100
AcDbEntity
8
1
100
AcDbVertex
100
AcDb2dVertex
62
5
10
116.875000
20
69.750000
0
VERTEX
5
298
100
AcDbEntity
8
1
100
AcDbVertex
100
AcDb2dVertex
62
5
10
117.500000
20
69.437500
0
VERTEX
5
299
100
AcDbEntity
8
1
100
AcDbVertex
100
AcDb2dVertex
62
5
10
117.812500
20
69.125000
0
VERTEX
5
29a
100
AcDbEntity
8
1
100
AcDbVertex
100
AcDb2dVertex
62
5
10
118.125000
20
68.187500
0
VERTEX
5
29b
100
AcDbEntity
8
1
100
AcDbVertex
100
AcDb2dVertex
62
5
10
118.125000
20
64.750000
0
VERTEX
5
29c
100
AcDbEntity
8
1
100
AcDbVertex
100
AcDb2dVertex
62
5
10
117.812500
20
63.187500
0
VERTEX
5
29d
100
AcDbEntity
8
1
100
AcDbVertex
100
AcDb2dVertex
62
5
10
117.187500
20
62.562500
0
VERTEX
5
29e
100
AcDbEntity
8
1
100
AcDbVertex
100
AcDb2dVertex
62
5
10
116.250000
20
62.250000
0
VERTEX
5
29f
100
AcDbEntity
8
1
100
AcDbVertex
100
AcDb2dVertex
62
5
10
115.625000
20
62.250000
0
SEQEND
5
2a0
100
AcDbEntity
8
1
0
POLYLINE
5
2a1
100
AcDbEntity
8
1
6
DOT2
62
5
100
AcDb2dPolyline
66
1
10
0.0
20
0.0
30
0.0
70
0
0
VERTEX
5
2a2
100
AcDbEntity
8
1
100
AcDbVertex
100
AcDb2dVertex
62
5
10
110.000000
20
68.812500
0
VERTEX
5
2a3
100
AcDbEntity
8
1
100
AcDbVertex
100
AcDb2dVertex
62
5
10
110.000000
20
69.750000
0
VERTEX
5
2a4
100
AcDbEntity
8
1
100
AcDbVertex
100
AcDb2dVertex
62
5
10
113.125000
20
69.750000
0
VERTEX
5
2a5
100
AcDbEntity
8
1
100
AcDbVertex
100
AcDb2dVertex
62
5
10
113.125000
20
69.125000
0
VERTEX
5
2a6
100
AcDbEntity
8
1
100
AcDbVertex
100
AcDb2dVertex
62
5
10
112.500000
20
67.562500
0
VERTEX
5
2a7
100
AcDbEntity
8
1
100
AcDbVertex
100
AcDb2dVertex
62
5
10
111.875000
20
65.375000
0
VERTEX
5
2a8
100
AcDbEntity
8
1
100
AcDbVertex
100
AcDb2dVertex
62
5
10
111.250000
20
62.250000
0
SEQEND
5
2a9
100
AcDbEntity
8
1
0
ARC
5
2aa
100
AcDbEntity
8
0
100
AcDbCircle
6
CONTINUOUS
62
5
10
138.750000
20
104.500000
40
11.000000
100
AcDbArc
50
89.999999
51
179.999998
0
LINE
5
2ab
100
AcDbEntity
8
0
100
AcDbLine
6
CONTINUOUS
62
5
10
127.750000
20
104.500000
11
127.750000
21
86.727888
0
LINE
5
2ac
100
AcDbEntity
8
0
100
AcDbLine
6
CONTINUOUS
62
5
10
150.750000
20
115.500000
11
138.750000
21
115.500000
0
LINE
5
2ad
100
AcDbEntity
8
1
100
AcDbLine
6
CONTINUOUS
62
5
10
74.250000
20
92.000000
11
74.250000
21
59.000000
0
LINE
5
2ae
100
AcDbEntity
8
1
100
AcDbLine
6
CONTINUOUS
62
5
10
153.250000
20
92.000000
11
153.250000
21
59.000000
0
POLYLINE
5
2af
100
AcDbEntity
8
1
6
CONTINUOUS
62
5
100
AcDb2dPolyline
66
1
10
0.0
20
0.0
30
0.0
70
0
0
VERTEX
5
2b0
100
AcDbEntity
8
1
100
AcDbVertex
100
AcDb2dVertex
62
5
10
113.750000
20
61.000000
0
VERTEX
5
2b1
100
AcDbEntity
8
1
100
AcDbVertex
100
AcDb2dVertex
62
5
10
74.250000
20
61.000000
0
VERTEX
5
2b2
100
AcDbEntity
8
1
100
AcDbVertex
100
AcDb2dVertex
62
5
10
80.250000
20
62.000000
0
VERTEX
5
2b3
100
AcDbEntity
8
1
100
AcDbVertex
100
AcDb2dVertex
62
5
10
80.250000
20
60.000000
0
VERTEX
5
2b4
100
AcDbEntity
8
1
100
AcDbVertex
100
AcDb2dVertex
62
5
10
74.250000
20
61.000000
0
VERTEX
5
2b5
100
AcDbEntity
8
1
100
AcDbVertex
100
AcDb2dVertex
62
5
10
80.250000
20
61.500000
0
VERTEX
5
2b6
100
AcDbEntity
8
1
100
AcDbVertex
100
AcDb2dVertex
62
5
10
80.250000
20
60.500000
0
VERTEX
5
2b7
100
AcDbEntity
8
1
100
AcDbVertex
100
AcDb2dVertex
62
5
10
74.250000
20
61.000000
0
SEQEND
5
2b8
100
AcDbEntity
8
1
0
POLYLINE
5
2b9
100
AcDbEntity
8
1
6
CONTINUOUS
62
5
100
AcDb2dPolyline
66
1
10
0.0
20
0.0
30
0.0
70
0
0
VERTEX
5
2ba
100
AcDbEntity
8
1
100
AcDbVertex
100
AcDb2dVertex
62
5
10
113.750000
20
61.000000
0
VERTEX
5
2bb
100
AcDbEntity
8
1
100
AcDbVertex
100
AcDb2dVertex
62
5
10
153.250000
20
61.000000
0
VERTEX
5
2bc
100
AcDbEntity
8
1
100
AcDbVertex
100
AcDb2dVertex
62
5
10
147.250000
20
60.000000
0
VERTEX
5
2bd
100
AcDbEntity
8
1
100
AcDbVertex
100
AcDb2dVertex
62
5
10
147.250000
20
62.000000
0
VERTEX
5
2be
100
AcDbEntity
8
1
100
AcDbVertex
100
AcDb2dVertex
62
5
10
153.250000
20
61.000000
0
VERTEX
5
2bf
100
AcDbEntity
8
1
100
AcDbVertex
100
AcDb2dVertex
62
5
10
147.250000
20
60.500000
0
VERTEX
5
2c0
100
AcDbEntity
8
1
100
AcDbVertex
100
AcDb2dVertex
62
5
10
147.250000
20
61.500000
0
VERTEX
5
2c1
100
AcDbEntity
8
1
100
AcDbVertex
100
AcDb2dVertex
62
5
10
153.250000
20
61.000000
0
SEQEND
5
2c2
100
AcDbEntity
8
1
0
LINE
5
2c3
100
AcDbEntity
8
1
100
AcDbLine
6
CONTINUOUS
62
5
10
40.000000
20
340.000000
11
40.000000
21
308.000000
0
LINE
5
2c4
100
AcDbEntity
8
1
100
AcDbLine
6
CONTINUOUS
62
5
10
0.000000
20
308.000000
11
320.000000
21
308.000000
0
LINE
5
2c5
100
AcDbEntity
8
1
100
AcDbLine
6
DOT2
62
5
10
40.500000
20
157.000000
11
40.500000
21
159.812500
0
POLYLINE
5
2c6
100
AcDbEntity
8
1
6
DOT2
62
5
100
AcDb2dPolyline
66
1
10
0.0
20
0.0
30
0.0
70
0
0
VERTEX
5
2c7
100
AcDbEntity
8
1
100
AcDbVertex
100
AcDb2dVertex
62
5
10
40.500000
20
157.000000
0
VERTEX
5
2c8
100
AcDbEntity
8
1
100
AcDbVertex
100
AcDb2dVertex
62
5
10
44.250000
20
157.000000
0
VERTEX
5
2c9
100
AcDbEntity
8
1
100
AcDbVertex
100
AcDb2dVertex
62
5
10
43.625000
20
157.625000
0
VERTEX
5
2ca
100
AcDbEntity
8
1
100
AcDbVertex
100
AcDb2dVertex
62
5
10
43.312500
20
158.250000
0
VERTEX
5
2cb
100
AcDbEntity
8
1
100
AcDbVertex
100
AcDb2dVertex
62
5
10
43.312500
20
159.187500
0
VERTEX
5
2cc
100
AcDbEntity
8
1
100
AcDbVertex
100
AcDb2dVertex
62
5
10
43.625000
20
159.812500
0
VERTEX
5
2cd
100
AcDbEntity
8
1
100
AcDbVertex
100
AcDb2dVertex
62
5
10
44.562500
20
160.125000
0
VERTEX
5
2ce
100
AcDbEntity
8
1
100
AcDbVertex
100
AcDb2dVertex
62
5
10
46.437500
20
160.125000
0
VERTEX
5
2cf
100
AcDbEntity
8
1
100
AcDbVertex
100
AcDb2dVertex
62
5
10
47.375000
20
159.500000
0
VERTEX
5
2d0
100
AcDbEntity
8
1
100
AcDbVertex
100
AcDb2dVertex
62
5
10
48.000000
20
158.562500
0
VERTEX
5
2d1
100
AcDbEntity
8
1
100
AcDbVertex
100
AcDb2dVertex
62
5
10
48.000000
20
157.000000
0
SEQEND
5
2d2
100
AcDbEntity
8
1
0
LINE
5
2d3
100
AcDbEntity
8
1
100
AcDbLine
6
CONTINUOUS
62
5
10
77.750000
20
220.500000
11
47.250000
21
220.500000
0
LINE
5
2d4
100
AcDbEntity
8
1
100
AcDbLine
6
CONTINUOUS
62
5
10
112.250000
20
86.000000
11
47.250000
21
86.000000
0
POLYLINE
5
2d5
100
AcDbEntity
8
1
6
CONTINUOUS
62
5
100
AcDb2dPolyline
66
1
10
0.0
20
0.0
30
0.0
70
0
0
VERTEX
5
2d6
100
AcDbEntity
8
1
100
AcDbVertex
100
AcDb2dVertex
62
5
10
49.250000
20
153.250000
0
VERTEX
5
2d7
100
AcDbEntity
8
1
100
AcDbVertex
100
AcDb2dVertex
62
5
10
49.250000
20
86.000000
0
VERTEX
5
2d8
100
AcDbEntity
8
1
100
AcDbVertex
100
AcDb2dVertex
62
5
10
48.250000
20
92.000000
0
VERTEX
5
2d9
100
AcDbEntity
8
1
100
AcDbVertex
100
AcDb2dVertex
62
5
10
50.250000
20
92.000000
0
VERTEX
5
2da
100
AcDbEntity
8
1
100
AcDbVertex
100
AcDb2dVertex
62
5
10
49.250000
20
86.000000
0
VERTEX
5
2db
100
AcDbEntity
8
1
100
AcDbVertex
100
AcDb2dVertex
62
5
10
48.750000
20
92.000000
0
VERTEX
5
2dc
100
AcDbEntity
8
1
100
AcDbVertex
100
AcDb2dVertex
62
5
10
49.750000
20
92.000000
0
VERTEX
5
2dd
100
AcDbEntity
8
1
100
AcDbVertex
100
AcDb2dVertex
62
5
10
49.250000
20
86.000000
0
SEQEND
5
2de
100
AcDbEntity
8
1
0
POLYLINE
5
2df
100
AcDbEntity
8
1
6
CONTINUOUS
62
5
100
AcDb2dPolyline
66
1
10
0.0
20
0.0
30
0.0
70
0
0
VERTEX
5
2e0
100
AcDbEntity
8
1
100
AcDbVertex
100
AcDb2dVertex
62
5
10
49.250000
20
153.250000
0
VERTEX
5
2e1
100
AcDbEntity
8
1
100
AcDbVertex
100
AcDb2dVertex
62
5
10
49.250000
20
220.500000
0
VERTEX
5
2e2
100
AcDbEntity
8
1
100
AcDbVertex
100
AcDb2dVertex
62
5
10
50.250000
20
214.500000
0
VERTEX
5
2e3
100
AcDbEntity
8
1
100
AcDbVertex
100
AcDb2dVertex
62
5
10
48.250000
20
214.500000
0
VERTEX
5
2e4
100
AcDbEntity
8
1
100
AcDbVertex
100
AcDb2dVertex
62
5
10
49.250000
20
220.500000
0
VERTEX
5
2e5
100
AcDbEntity
8
1
100
AcDbVertex
100
AcDb2dVertex
62
5
10
49.750000
20
214.500000
0
VERTEX
5
2e6
100
AcDbEntity
8
1
100
AcDbVertex
100
AcDb2dVertex
62
5
10
48.750000
20
214.500000
0
VERTEX
5
2e7
100
AcDbEntity
8
1
100
AcDbVertex
100
AcDb2dVertex
62
5
10
49.250000
20
220.500000
0
SEQEND
5
2e8
100
AcDbEntity
8
1
0
ARC
5
2e9
100
AcDbEntity
8
2
100
AcDbCircle
6
CONTINUOUS
62
5
10
239.250000
20
89.500000
40
1.000000
100
AcDbArc
50
-179.999998
51
-89.999999
0
LINE
5
2ea
100
AcDbEntity
8
2
100
AcDbLine
6
CONTINUOUS
62
5
10
238.250000
20
89.500000
11
238.250000
21
219.500000
0
ARC
5
2eb
100
AcDbEntity
8
2
100
AcDbCircle
6
CONTINUOUS
62
5
10
239.250000
20
219.500000
40
1.000000
100
AcDbArc
50
89.999999
51
-179.999998
0
POLYLINE
5
2ec
100
AcDbEntity
8
2
6
CONTINUOUS
62
5
100
AcDb2dPolyline
66
1
10
0.0
20
0.0
30
0.0
70
0
0
VERTEX
5
2ed
100
AcDbEntity
8
2
100
AcDbVertex
100
AcDb2dVertex
62
5
10
239.250000
20
220.500000
0
VERTEX
5
2ee
100
AcDbEntity
8
2
100
AcDbVertex
100
AcDb2dVertex
62
5
10
245.250000
20
220.500000
0
VERTEX
5
2ef
100
AcDbEntity
8
2
100
AcDbVertex
100
AcDb2dVertex
62
5
10
245.250000
20
88.500000
0
VERTEX
5
2f0
100
AcDbEntity
8
2
100
AcDbVertex
100
AcDb2dVertex
62
5
10
239.250000
20
88.500000
0
SEQEND
5
2f1
100
AcDbEntity
8
2
0
POLYLINE
5
2f2
100
AcDbEntity
8
0
6
CONTINUOUS
62
5
100
AcDb2dPolyline
66
1
10
0.0
20
0.0
30
0.0
70
0
0
VERTEX
5
2f3
100
AcDbEntity
8
0
100
AcDbVertex
100
AcDb2dVertex
62
5
10
245.250000
20
90.000000
0
VERTEX
5
2f4
100
AcDbEntity
8
0
100
AcDbVertex
100
AcDb2dVertex
62
5
10
245.750000
20
90.000000
0
VERTEX
5
2f5
100
AcDbEntity
8
0
100
AcDbVertex
100
AcDb2dVertex
62
5
10
245.750000
20
218.000000
0
VERTEX
5
2f6
100
AcDbEntity
8
0
100
AcDbVertex
100
AcDb2dVertex
62
5
10
245.750000
20
218.000000
0
VERTEX
5
2f7
100
AcDbEntity
8
0
100
AcDbVertex
100
AcDb2dVertex
62
5
10
245.250000
20
218.000000
0
SEQEND
5
2f8
100
AcDbEntity
8
0
0
POLYLINE
5
2f9
100
AcDbEntity
8
0
6
CONTINUOUS
62
5
100
AcDb2dPolyline
66
1
10
0.0
20
0.0
30
0.0
70
0
0
VERTEX
5
2fa
100
AcDbEntity
8
0
100
AcDbVertex
100
AcDb2dVertex
62
5
10
238.250000
20
90.500000
0
VERTEX
5
2fb
100
AcDbEntity
8
0
100
AcDbVertex
100
AcDb2dVertex
62
5
10
234.250000
20
90.500000
0
VERTEX
5
2fc
100
AcDbEntity
8
0
100
AcDbVertex
100
AcDb2dVertex
62
5
10
234.250000
20
218.500000
0
VERTEX
5
2fd
100
AcDbEntity
8
0
100
AcDbVertex
100
AcDb2dVertex
62
5
10
238.250000
20
218.500000
0
SEQEND
5
2fe
100
AcDbEntity
8
0
0
ARC
5
2ff
100
AcDbEntity
8
0
100
AcDbCircle
6
CONTINUOUS
62
5
10
243.250000
20
182.789741
40
33.700000
100
AcDbArc
50
129.999999
51
-179.999998
0
LINE
5
300
100
AcDbEntity
8
0
100
AcDbLine
6
CONTINUOUS
62
5
10
221.588058
20
208.605439
11
229.914403
21
215.592072
0
ARC
5
301
100
AcDbEntity
8
0
100
AcDbCircle
6
CONTINUOUS
62
5
10
231.199978
20
214.059983
40
2.000000
100
AcDbArc
50
61.641352
51
129.999999
0
ARC
5
302
100
AcDbEntity
8
0
100
AcDbCircle
6
CONTINUOUS
62
5
10
230.250000
20
212.300000
40
4.000000
100
AcDbArc
50
-0.000000
51
61.641352
0
LINE
5
303
100
AcDbEntity
8
0
100
AcDbLine
6
CONTINUOUS
62
5
10
209.550000
20
86.000000
11
209.550000
21
182.789741
0
ARC
5
304
100
AcDbEntity
8
0
100
AcDbCircle
6
CONTINUOUS
62
5
10
212.284792
20
90.000000
40
1.000000
100
AcDbArc
50
89.999999
51
-179.999998
0
POLYLINE
5
305
100
AcDbEntity
8
0
6
CONTINUOUS
62
5
100
AcDb2dPolyline
66
1
10
0.0
20
0.0
30
0.0
70
0
0
VERTEX
5
306
100
AcDbEntity
8
0
100
AcDbVertex
100
AcDb2dVertex
62
5
10
211.284792
20
90.000000
0
VERTEX
5
307
100
AcDbEntity
8
0
100
AcDbVertex
100
AcDb2dVertex
62
5
10
211.284792
20
86.000000
0
VERTEX
5
308
100
AcDbEntity
8
0
100
AcDbVertex
100
AcDb2dVertex
62
5
10
209.250000
20
86.000000
0
SEQEND
5
309
100
AcDbEntity
8
0
0
ARC
5
30a
100
AcDbEntity
8
0
100
AcDbCircle
6
CONTINUOUS
62
5
10
209.250000
20
87.000000
40
1.000000
100
AcDbArc
50
-179.999998
51
-89.999999
0
LINE
5
30b
100
AcDbEntity
8
0
100
AcDbLine
6
CONTINUOUS
62
5
10
208.250000
20
87.000000
11
208.250000
21
182.789741
0
ARC
5
30c
100
AcDbEntity
8
0
100
AcDbCircle
6
CONTINUOUS
62
5
10
243.250000
20
182.789741
40
35.000000
100
AcDbArc
50
129.999999
51
-179.999998
0
LINE
5
30d
100
AcDbEntity
8
0
100
AcDbLine
6
CONTINUOUS
62
5
10
220.752434
20
209.601296
11
229.922224
21
217.295664
0
ARC
5
30e
100
AcDbEntity
8
0
100
AcDbCircle
6
CONTINUOUS
62
5
10
231.250000
20
215.800000
40
2.000000
100
AcDbArc
50
58.759008
51
131.597053
0
LINE
5
30f
100
AcDbEntity
8
0
100
AcDbLine
6
CONTINUOUS
62
5
10
232.287278
20
217.509987
11
234.250000
21
216.376809
0
LINE
5
310
100
AcDbEntity
8
0
100
AcDbLine
6
CONTINUOUS
62
5
10
234.250000
20
91.000000
11
212.284792
21
91.000000
0
ARC
5
311
100
AcDbEntity
8
0
100
AcDbCircle
6
CONTINUOUS
62
5
10
77.750000
20
215.200000
40
1.000000
100
AcDbArc
50
89.999999
51
-179.999998
0
POLYLINE
5
312
100
AcDbEntity
8
0
6
CONTINUOUS
62
5
100
AcDb2dPolyline
66
1
10
0.0
20
0.0
30
0.0
70
0
0
VERTEX
5
313
100
AcDbEntity
8
0
100
AcDbVertex
100
AcDb2dVertex
62
5
10
77.750000
20
216.200000
0
VERTEX
5
314
100
AcDbEntity
8
0
100
AcDbVertex
100
AcDb2dVertex
62
5
10
88.250000
20
216.200000
0
VERTEX
5
315
100
AcDbEntity
8
0
100
AcDbVertex
100
AcDb2dVertex
62
5
10
88.250000
20
209.000000
0
VERTEX
5
316
100
AcDbEntity
8
0
100
AcDbVertex
100
AcDb2dVertex
62
5
10
101.350000
20
209.000000
0
VERTEX
5
317
100
AcDbEntity
8
0
100
AcDbVertex
100
AcDb2dVertex
62
5
10
101.350000
20
217.800000
0
VERTEX
5
318
100
AcDbEntity
8
0
100
AcDbVertex
100
AcDb2dVertex
62
5
10
126.150000
20
217.800000
0
VERTEX
5
319
100
AcDbEntity
8
0
100
AcDbVertex
100
AcDb2dVertex
62
5
10
126.150000
20
209.000000
0
VERTEX
5
31a
100
AcDbEntity
8
0
100
AcDbVertex
100
AcDb2dVertex
62
5
10
139.250000
20
209.000000
0
VERTEX
5
31b
100
AcDbEntity
8
0
100
AcDbVertex
100
AcDb2dVertex
62
5
10
139.250000
20
216.200000
0
VERTEX
5
31c
100
AcDbEntity
8
0
100
AcDbVertex
100
AcDb2dVertex
62
5
10
149.750000
20
216.200000
0
SEQEND
5
31d
100
AcDbEntity
8
0
0
ARC
5
31e
100
AcDbEntity
8
0
100
AcDbCircle
6
CONTINUOUS
62
5
10
149.750000
20
215.200000
40
1.000000
100
AcDbArc
50
0.000000
51
89.999999
0
LINE
5
31f
100
AcDbEntity
8
0
100
AcDbLine
6
CONTINUOUS
62
5
10
150.750000
20
215.200000
11
150.750000
21
91.926378
0
ARC
5
320
100
AcDbEntity
8
0
100
AcDbCircle
6
CONTINUOUS
62
5
10
149.750000
20
91.926378
40
1.000000
100
AcDbArc
50
-74.415650
51
0.000000
0
ARC
5
321
100
AcDbEntity
8
0
100
AcDbCircle
6
CONTINUOUS
62
5
10
113.750000
20
221.000000
40
135.000000
100
AcDbArc
50
-105.584348
51
-74.415650
0
ARC
5
322
100
AcDbEntity
8
0
100
AcDbCircle
6
CONTINUOUS
62
5
10
77.750000
20
91.926378
40
1.000000
100
AcDbArc
50
-179.999998
51
-105.584348
0
LINE
5
323
100
AcDbEntity
8
0
100
AcDbLine
6
CONTINUOUS
62
5
10
76.750000
20
91.926378
11
76.750000
21
215.200000
0
ARC
5
324
100
AcDbEntity
8
2
100
AcDbCircle
6
CONTINUOUS
62
5
10
79.350000
20
93.500000
40
3.100000
100
AcDbArc
50
-179.999998
51
-86.450669
0
LINE
5
325
100
AcDbEntity
8
2
100
AcDbLine
6
CONTINUOUS
62
5
10
76.250000
20
93.500000
11
76.250000
21
215.400000
0
ARC
5
326
100
AcDbEntity
8
2
100
AcDbCircle
6
CONTINUOUS
62
5
10
79.350000
20
215.400000
40
3.100000
100
AcDbArc
50
89.999999
51
179.999998
0
LINE
5
327
100
AcDbEntity
8
2
100
AcDbLine
6
CONTINUOUS
62
5
10
79.350000
20
218.500000
11
148.150000
21
218.500000
0
ARC
5
328
100
AcDbEntity
8
2
100
AcDbCircle
6
CONTINUOUS
62
5
10
148.150000
20
215.400000
40
3.100000
100
AcDbArc
50
0.000000
51
89.999999
0
LINE
5
329
100
AcDbEntity
8
2
100
AcDbLine
6
CONTINUOUS
62
5
10
151.250000
20
215.400000
11
151.250000
21
93.500000
0
ARC
5
32a
100
AcDbEntity
8
2
100
AcDbCircle
6
CONTINUOUS
62
5
10
148.150000
20
93.500000
40
3.100000
100
AcDbArc
50
-93.549330
51
-0.000000
0
ARC
5
32b
100
AcDbEntity
8
0
100
AcDbCircle
6
CONTINUOUS
62
5
10
79.250000
20
93.500000
40
5.000000
100
AcDbArc
50
179.999998
51
-89.999999
0
LINE
5
32c
100
AcDbEntity
8
0
100
AcDbLine
6
CONTINUOUS
62
5
10
74.250000
20
93.500000
11
74.250000
21
215.500000
0
ARC
5
32d
100
AcDbEntity
8
0
100
AcDbCircle
6
CONTINUOUS
62
5
10
79.250000
20
215.500000
40
5.000000
100
AcDbArc
50
89.999999
51
-179.999998
0
LINE
5
32e
100
AcDbEntity
8
0
100
AcDbLine
6
CONTINUOUS
62
5
10
79.250000
20
220.500000
11
148.250000
21
220.500000
0
ARC
5
32f
100
AcDbEntity
8
0
100
AcDbCircle
6
CONTINUOUS
62
5
10
148.250000
20
215.500000
40
5.000000
100
AcDbArc
50
0.000000
51
89.999999
0
LINE
5
330
100
AcDbEntity
8
0
100
AcDbLine
6
CONTINUOUS
62
5
10
153.250000
20
215.500000
11
153.250000
21
93.500000
0
ARC
5
331
100
AcDbEntity
8
0
100
AcDbCircle
6
CONTINUOUS
62
5
10
148.248217
20
93.500819
40
5.001783
100
AcDbArc
50
-91.125154
51
-0.009378
0
LINE
5
332
100
AcDbEntity
8
0
100
AcDbLine
6
CONTINUOUS
62
5
10
148.150000
20
88.500000
11
139.610201
21
88.500000
0
LINE
5
333
100
AcDbEntity
8
0
100
AcDbLine
6
CONTINUOUS
62
5
10
87.889799
20
88.500000
11
79.250000
21
88.500000
0
POLYLINE
5
334
100
AcDbEntity
8
1
6
CONTINUOUS
62
5
100
AcDb2dPolyline
66
1
10
0.0
20
0.0
30
0.0
70
1
0
VERTEX
5
335
100
AcDbEntity
8
1
100
AcDbVertex
100
AcDb2dVertex
62
5
10
0.000000
20
0.000000
0
VERTEX
5
336
100
AcDbEntity
8
1
100
AcDbVertex
100
AcDb2dVertex
62
5
10
0.000000
20
340.000000
0
VERTEX
5
337
100
AcDbEntity
8
1
100
AcDbVertex
100
AcDb2dVertex
62
5
10
320.000000
20
340.000000
0
VERTEX
5
338
100
AcDbEntity
8
1
100
AcDbVertex
100
AcDb2dVertex
62
5
10
320.000000
20
0.000000
0
VERTEX
5
339
100
AcDbEntity
8
1
100
AcDbVertex
100
AcDb2dVertex
62
5
10
0.000000
20
0.000000
0
SEQEND
5
33a
100
AcDbEntity
8
1
0
ENDSEC
0
SECTION
2
OBJECTS
0
DICTIONARY
5
33b
100
AcDbDictionary
3
ACAD_GROUP
350
33c
3
ACAD_MLINESTYLE
350
33d
0
DICTIONARY
5
33c
102
{ACAD_REACTORS
330
33b
102
}
100
AcDbDictionary
0
DICTIONARY
5
33d
102
{ACAD_REACTORS
330
33b
102
}
100
AcDbDictionary
3
STANDARD
350
33e
0
MLINESTYLE
5
33e
102
{ACAD_REACTORS
330
33d
102
}
100
AcDbMlineStyle
2
STANDARD
70
0
3

62
0
51
90.0
52
90.0
71
2
49
0.5
62
256
6
BYLAYER
49
-0.5
62
256
6
BYLAYER
0
ENDSEC
0
EOF
