0
SECTION
2
HEADER
9
$ACADVER
1
AC1012
9
$EXTMIN
10
-0.013701
20
-0.013701
30
0.0
9
$EXTMAX
10
12.606299
20
13.386299
30
0.0
9
$LIMMIN
10
-0.348005
20
-0.348005
9
$LIMMAX
10
320.199995
20
340.011995
9
$DIMSCALE
40
1.000000
9
$PDMODE
70
2
9
$PDSIZE
40
0.0
  9
$HANDSEED
  5
d7f
0
ENDSEC
0
SECTION
2
CLASSES
0
ENDSEC
0
SECTION
2
TABLES
0
TABLE
2
LTYPE
5
1e
100
AcDbSymbolTable
70
12
0
LTYPE
5
1f
100
AcDbSymbolTableRecord
100
AcDbLinetypeTableRecord
2
BYBLOCK
70
0
3

72
65
73
0
40
0.0
0
LTYPE
5
20
100
AcDbSymbolTableRecord
100
AcDbLinetypeTableRecord
2
BYLAYER
70
0
3

72
65
73
0
40
0.0
0
LTYPE
5
21
100
AcDbSymbolTableRecord
100
AcDbLinetypeTableRecord
2
CONTINUOUS
70
64
3
Solid line
72
65
73
0
40
0.0
0
LTYPE
5
22
100
AcDbSymbolTableRecord
100
AcDbLinetypeTableRecord
2
DASHED
70
64
3
__ __ __ __ __ __ __ __ __ __ __ __ __ __ __
72
65
73
2
40
0.75
49
0.5
74
0
49
-0.25
74
0
0
LTYPE
5
23
100
AcDbSymbolTableRecord
100
AcDbLinetypeTableRecord
2
DOT
70
64
3
...............................................
72
65
73
2
40
0.25
49
0.0
74
0
49
-0.25
74
0
0
LTYPE
5
24
100
AcDbSymbolTableRecord
100
AcDbLinetypeTableRecord
2
DASHDOT
70
64
3
__ . __ . __ . __ . __ . __ . __ . __ . __ . --
72
65
73
4
40
1.0
49
0.5
74
0
49
-0.25
74
0
49
0.0
74
0
49
-0.25
74
0
0
LTYPE
5
25
100
AcDbSymbolTableRecord
100
AcDbLinetypeTableRecord
2
CENTER
70
64
3
____ _ ____ _ ____ _ ____ _ ____ _ ____ _ ____
72
65
73
4
40
2.0
49
1.25
74
0
49
-0.25
74
0
49
0.25
74
0
49
-0.25
74
0
0
LTYPE
5
26
100
AcDbSymbolTableRecord
100
AcDbLinetypeTableRecord
2
PHANTOM
70
64
3
_____ _ _ _____ _ _ _____ _ _ _____ _ _ ____
72
65
73
6
40
2.5
49
1.25
74
0
49
-0.25
74
0
49
0.25
74
0
49
-0.25
74
0
49
0.25
74
0
49
-0.25
74
0
0
LTYPE
5
27
100
AcDbSymbolTableRecord
100
AcDbLinetypeTableRecord
2
HIDDEN
70
64
3
_ _ _ _ _ _ _ _ _ _ _ _ _ _ _ _ _ _ _ _ _ _ _
72
65
73
2
40
0.375
49
0.25
74
0
49
-0.125
74
0
0
LTYPE
5
28
100
AcDbSymbolTableRecord
100
AcDbLinetypeTableRecord
2
BORDER
70
64
3
__ __ . __ __ . __ __ . __ __ . __ __ . __ __
72
65
73
6
40
1.75
49
0.5
74
0
49
-0.25
74
0
49
0.5
74
0
49
-0.25
74
0
49
0.0
74
0
49
-0.25
74
0
0
LTYPE
5
29
100
AcDbSymbolTableRecord
100
AcDbLinetypeTableRecord
2
DIVIDE
70
64
3
__ . . __ . . __ . . __ . . __ . . __ . . __
72
65
73
6
40
1.25
49
0.5
74
0
49
-0.25
74
0
49
0.0
74
0
49
-0.25
74
0
49
0.0
74
0
49
-0.25
74
0
0
LTYPE
5
2a
100
AcDbSymbolTableRecord
100
AcDbLinetypeTableRecord
2
DOT2
70
64
3
...............................................
72
65
73
2
40
0.125
49
0.0
74
0
49
-0.125
74
0
0
ENDTAB
0
TABLE
2
STYLE
5
2b
100
AcDbSymbolTable
70
1
0
STYLE
5
2c
100
AcDbSymbolTableRecord
100
AcDbTextStyleTableRecord
2
STANDARD
70
64
40
0.0
41
1.0
50
0.0
71
0
42
5.0
3
txt
4
bigfont
0
ENDTAB
0
TABLE
2
LAYER
5
2d
100
AcDbSymbolTable
70
3
0
LAYER
5
2e
100
AcDbSymbolTableRecord
100
AcDbLayerTableRecord
2
0
70
0
62
7
6
CONTINUOUS
0
LAYER
5
2f
100
AcDbSymbolTableRecord
100
AcDbLayerTableRecord
2
1
70
0
62
7
6
CONTINUOUS
0
LAYER
5
30
100
AcDbSymbolTableRecord
100
AcDbLayerTableRecord
2
0
70
0
62
7
6
CONTINUOUS
0
ENDTAB
0
TABLE
2
APPID
5
31
100
AcDbSymbolTable
70
1
0
APPID
5
32
100
AcDbSymbolTableRecord
100
AcDbRegAppTableRecord
2
ACAD
70
64
0
ENDTAB
0
TABLE
2
DIMSTYLE
5
33
100
AcDbSymbolTable
70
0
0
ENDTAB
0
TABLE
2
UCS
5
34
100
AcDbSymbolTable
70
0
0
ENDTAB
0
TABLE
2
VIEW
5
35
100
AcDbSymbolTable
70
0
0
ENDTAB
0
TABLE
2
VPORT
5
36
100
AcDbSymbolTable
70
0
0
ENDTAB
0
TABLE
2
BLOCK_RECORD
5
37
100
AcDbSymbolTable
70
0
0
BLOCK_RECORD
5
38
100
AcDbSymbolTableRecord
100
AcDbBlockTableRecord
2
*MODEL_SPACE
0
BLOCK_RECORD
5
39
100
AcDbSymbolTableRecord
100
AcDbBlockTableRecord
2
*PAPER_SPACE
0
BLOCK_RECORD
5
3a
100
AcDbSymbolTableRecord
100
AcDbBlockTableRecord
2
OPEN
0
BLOCK_RECORD
5
3b
100
AcDbSymbolTableRecord
100
AcDbBlockTableRecord
2
HALF
0
BLOCK_RECORD
5
3c
100
AcDbSymbolTableRecord
100
AcDbBlockTableRecord
2
CLOSEDBLANK
0
BLOCK_RECORD
5
3d
100
AcDbSymbolTableRecord
100
AcDbBlockTableRecord
2
HALFCLOSE_R
0
BLOCK_RECORD
5
3e
100
AcDbSymbolTableRecord
100
AcDbBlockTableRecord
2
DOT
0
BLOCK_RECORD
5
3f
100
AcDbSymbolTableRecord
100
AcDbBlockTableRecord
2
HALFOPEN_R
0
BLOCK_RECORD
5
40
100
AcDbSymbolTableRecord
100
AcDbBlockTableRecord
2
CLOSEDF
0
BLOCK_RECORD
5
41
100
AcDbSymbolTableRecord
100
AcDbBlockTableRecord
2
HALF_R
0
ENDTAB
0
ENDSEC
0
SECTION
2
BLOCKS
0
BLOCK
5
42
100
AcDbEntity
8
0
100
AcDbBlockBegin
2
*MODEL_SPACE
70
0
10
0.0
20
0.0
30
0.0
3
*MODEL_SPACE
1

0
ENDBLK
5
43
100
AcDbEntity
8
0
100
AcDbBlockEnd
0
BLOCK
5
44
100
AcDbEntity
67
1
8
0
100
AcDbBlockBegin
2
*PAPER_SPACE
70
0
10
0.0
20
0.0
30
0.0
3
*PAPER_SPACE
1

0
ENDBLK
5
45
100
AcDbEntity
67
1
8
0
100
AcDbBlockEnd
0
BLOCK
5
46
100
AcDbEntity
8
0
100
AcDbBlockBegin
2
OPEN
70
0
10
0.0
20
0.0
30
0.0
3
OPEN
1

0
LINE
5
47
100
AcDbEntity
8
0
6
BYBLOCK
62
0
100
AcDbLine
10
0.000000
20
0.000000
11
-1.000000
21
0.000000
0
LINE
5
48
100
AcDbEntity
8
0
6
BYBLOCK
62
0
100
AcDbLine
10
-1.000000
20
-0.166667
11
0.000000
21
0.000000
0
LINE
5
49
100
AcDbEntity
8
0
6
BYBLOCK
62
0
100
AcDbLine
10
-1.000000
20
0.166667
11
0.000000
21
0.000000
0
ENDBLK
5
4a
100
AcDbEntity
8
0
100
AcDbBlockEnd
0
BLOCK
5
4b
100
AcDbEntity
8
0
100
AcDbBlockBegin
2
HALF
70
0
10
0.0
20
0.0
30
0.0
3
HALF
1

0
SOLID
5
4c
100
AcDbEntity
8
0
6
BYBLOCK
62
0
100
AcDbTrace
10
-1.000000
20
0.166667
11
-1.000000
21
-0.166667
12
0.000000
22
0.000000
13
0.000000
23
0.000000
0
ENDBLK
5
4d
100
AcDbEntity
8
0
100
AcDbBlockEnd
0
BLOCK
5
4e
100
AcDbEntity
8
0
100
AcDbBlockBegin
2
CLOSEDBLANK
70
0
10
0.0
20
0.0
30
0.0
3
CLOSEDBLANK
1

0
LINE
5
4f
100
AcDbEntity
8
0
6
BYBLOCK
62
0
100
AcDbLine
10
-1.000000
20
0.166667
11
-1.000000
21
-0.166667
0
LINE
5
50
100
AcDbEntity
8
0
6
BYBLOCK
62
0
100
AcDbLine
10
0.000000
20
0.000000
11
-1.000000
21
-0.166667
0
LINE
5
51
100
AcDbEntity
8
0
6
BYBLOCK
62
0
100
AcDbLine
10
-1.000000
20
0.166667
11
0.000000
21
0.000000
0
ENDBLK
5
52
100
AcDbEntity
8
0
100
AcDbBlockEnd
0
BLOCK
5
53
100
AcDbEntity
8
0
100
AcDbBlockBegin
2
HALFCLOSE_R
70
0
10
0.0
20
0.0
30
0.0
3
HALFCLOSE_R
1

0
LINE
5
54
100
AcDbEntity
8
0
6
BYBLOCK
62
0
100
AcDbLine
10
-1.000000
20
-0.166667
11
-1.000000
21
0.000000
0
LINE
5
55
100
AcDbEntity
8
0
6
BYBLOCK
62
0
100
AcDbLine
10
-1.000000
20
-0.166667
11
0.000000
21
0.000000
0
LINE
5
56
100
AcDbEntity
8
0
6
BYBLOCK
62
0
100
AcDbLine
10
0.000000
20
0.000000
11
-1.000000
21
0.000000
0
ENDBLK
5
57
100
AcDbEntity
8
0
100
AcDbBlockEnd
0
BLOCK
5
58
100
AcDbEntity
8
0
100
AcDbBlockBegin
2
DOT
70
0
10
0.0
20
0.0
30
0.0
3
DOT
1

0
LINE
5
59
100
AcDbEntity
8
0
6
BYBLOCK
62
0
100
AcDbLine
10
0.000000
20
0.000000
11
-1.000000
21
0.000000
0
POLYLINE
5
5a
100
AcDbEntity
8
0
6
BYBLOCK
62
0
100
AcDb2dPolyline
66
1
10
0.0
20
0.0
30
0.0
70
1
40
0.166667
41
0.166667
0
VERTEX
5
5b
100
AcDbEntity
8
0
100
AcDbVertex
100
AcDb2dVertex
62
10
10
-0.083333
20
0.000000
42
1.000000
0
VERTEX
5
5c
100
AcDbEntity
8
0
100
AcDbVertex
100
AcDb2dVertex
62
10
10
0.083333
20
0.000000
42
1.000000
0
SEQEND
5
5d
100
AcDbEntity
8
0
0
ENDBLK
5
5e
100
AcDbEntity
8
0
100
AcDbBlockEnd
0
BLOCK
5
5f
100
AcDbEntity
8
0
100
AcDbBlockBegin
2
HALFOPEN_R
70
0
10
0.0
20
0.0
30
0.0
3
HALFOPEN_R
1

0
LINE
5
60
100
AcDbEntity
8
0
6
BYBLOCK
62
0
100
AcDbLine
10
-1.000000
20
-0.166667
11
0.000000
21
0.000000
0
LINE
5
61
100
AcDbEntity
8
0
6
BYBLOCK
62
0
100
AcDbLine
10
0.000000
20
0.000000
11
-1.000000
21
0.000000
0
ENDBLK
5
62
100
AcDbEntity
8
0
100
AcDbBlockEnd
0
BLOCK
5
63
100
AcDbEntity
8
0
100
AcDbBlockBegin
2
CLOSEDF
70
0
10
0.0
20
0.0
30
0.0
3
CLOSEDF
1

0
SOLID
5
64
100
AcDbEntity
8
0
6
BYBLOCK
62
0
100
AcDbTrace
10
-1.000000
20
0.166667
11
-1.000000
21
-0.166667
12
0.000000
22
0.000000
13
0.000000
23
0.000000
0
ENDBLK
5
65
100
AcDbEntity
8
0
100
AcDbBlockEnd
0
BLOCK
5
66
100
AcDbEntity
8
0
100
AcDbBlockBegin
2
HALF_R
70
0
10
0.0
20
0.0
30
0.0
3
HALF_R
1

0
SOLID
5
67
100
AcDbEntity
8
0
6
BYBLOCK
62
0
100
AcDbTrace
10
-1.000000
20
-0.166667
11
-1.000000
21
0.000000
12
0.000000
22
0.000000
13
0.000000
23
0.000000
0
ENDBLK
5
68
100
AcDbEntity
8
0
100
AcDbBlockEnd
0
ENDSEC
0
SECTION
2
ENTITIES
0
LINE
5
69
100
AcDbEntity
8
1
100
AcDbLine
6
CONTINUOUS
62
5
10
234.250000
20
314.937500
11
233.750000
21
313.375000
0
LINE
5
6a
100
AcDbEntity
8
1
100
AcDbLine
6
CONTINUOUS
62
5
10
232.250000
20
318.062500
11
235.750000
21
318.062500
0
LINE
5
6b
100
AcDbEntity
8
1
100
AcDbLine
6
CONTINUOUS
62
5
10
231.000000
20
315.875000
11
236.750000
21
315.875000
0
POLYLINE
5
6c
100
AcDbEntity
8
1
6
CONTINUOUS
62
5
100
AcDb2dPolyline
66
1
10
0.0
20
0.0
30
0.0
70
0
0
VERTEX
5
6d
100
AcDbEntity
8
1
100
AcDbVertex
100
AcDb2dVertex
62
5
10
233.750000
20
313.375000
0
VERTEX
5
6e
100
AcDbEntity
8
1
100
AcDbVertex
100
AcDb2dVertex
62
5
10
233.000000
20
312.437500
0
VERTEX
5
6f
100
AcDbEntity
8
1
100
AcDbVertex
100
AcDb2dVertex
62
5
10
232.000000
20
311.500000
0
SEQEND
5
70
100
AcDbEntity
8
1
0
LINE
5
71
100
AcDbEntity
8
1
100
AcDbLine
6
CONTINUOUS
62
5
10
234.250000
20
315.875000
11
234.250000
21
314.937500
0
POLYLINE
5
72
100
AcDbEntity
8
1
6
CONTINUOUS
62
5
100
AcDb2dPolyline
66
1
10
0.0
20
0.0
30
0.0
70
0
0
VERTEX
5
73
100
AcDbEntity
8
1
100
AcDbVertex
100
AcDb2dVertex
62
5
10
241.750000
20
318.062500
0
VERTEX
5
74
100
AcDbEntity
8
1
100
AcDbVertex
100
AcDb2dVertex
62
5
10
241.250000
20
315.875000
0
VERTEX
5
75
100
AcDbEntity
8
1
100
AcDbVertex
100
AcDb2dVertex
62
5
10
240.750000
20
314.312500
0
VERTEX
5
76
100
AcDbEntity
8
1
100
AcDbVertex
100
AcDb2dVertex
62
5
10
240.000000
20
312.750000
0
SEQEND
5
77
100
AcDbEntity
8
1
0
LINE
5
78
100
AcDbEntity
8
1
100
AcDbLine
6
CONTINUOUS
62
5
10
239.500000
20
312.750000
11
244.250000
21
313.375000
0
LINE
5
79
100
AcDbEntity
8
1
100
AcDbLine
6
CONTINUOUS
62
5
10
243.250000
20
314.937500
11
244.750000
21
312.437500
0
POLYLINE
5
7a
100
AcDbEntity
8
1
6
CONTINUOUS
62
5
100
AcDb2dPolyline
66
1
10
0.0
20
0.0
30
0.0
70
0
0
VERTEX
5
7b
100
AcDbEntity
8
1
100
AcDbVertex
100
AcDb2dVertex
62
5
10
247.500000
20
319.000000
0
VERTEX
5
7c
100
AcDbEntity
8
1
100
AcDbVertex
100
AcDb2dVertex
62
5
10
247.500000
20
313.375000
0
VERTEX
5
7d
100
AcDbEntity
8
1
100
AcDbVertex
100
AcDb2dVertex
62
5
10
247.000000
20
312.125000
0
VERTEX
5
7e
100
AcDbEntity
8
1
100
AcDbVertex
100
AcDb2dVertex
62
5
10
246.500000
20
311.187500
0
SEQEND
5
7f
100
AcDbEntity
8
1
0
POLYLINE
5
80
100
AcDbEntity
8
1
6
CONTINUOUS
62
5
100
AcDb2dPolyline
66
1
10
0.0
20
0.0
30
0.0
70
0
0
VERTEX
5
81
100
AcDbEntity
8
1
100
AcDbVertex
100
AcDb2dVertex
62
5
10
251.500000
20
311.500000
0
VERTEX
5
82
100
AcDbEntity
8
1
100
AcDbVertex
100
AcDb2dVertex
62
5
10
252.500000
20
310.875000
0
VERTEX
5
83
100
AcDbEntity
8
1
100
AcDbVertex
100
AcDb2dVertex
62
5
10
252.500000
20
319.000000
0
VERTEX
5
84
100
AcDbEntity
8
1
100
AcDbVertex
100
AcDb2dVertex
62
5
10
247.500000
20
319.000000
0
SEQEND
5
85
100
AcDbEntity
8
1
0
LINE
5
86
100
AcDbEntity
8
1
100
AcDbLine
6
CONTINUOUS
62
5
10
247.500000
20
316.500000
11
252.500000
21
316.500000
0
LINE
5
87
100
AcDbEntity
8
1
100
AcDbLine
6
CONTINUOUS
62
5
10
250.000000
20
319.000000
11
250.000000
21
310.875000
0
LINE
5
88
100
AcDbEntity
8
1
100
AcDbLine
6
CONTINUOUS
62
5
10
247.500000
20
314.000000
11
252.500000
21
314.000000
0
POLYLINE
5
89
100
AcDbEntity
8
1
6
CONTINUOUS
62
5
100
AcDb2dPolyline
66
1
10
0.0
20
0.0
30
0.0
70
0
0
VERTEX
5
8a
100
AcDbEntity
8
1
100
AcDbVertex
100
AcDb2dVertex
62
5
10
227.250000
20
329.312500
0
VERTEX
5
8b
100
AcDbEntity
8
1
100
AcDbVertex
100
AcDb2dVertex
62
5
10
228.000000
20
328.062500
0
VERTEX
5
8c
100
AcDbEntity
8
1
100
AcDbVertex
100
AcDb2dVertex
62
5
10
228.750000
20
326.500000
0
VERTEX
5
8d
100
AcDbEntity
8
1
100
AcDbVertex
100
AcDb2dVertex
62
5
10
229.000000
20
325.250000
0
VERTEX
5
8e
100
AcDbEntity
8
1
100
AcDbVertex
100
AcDb2dVertex
62
5
10
228.750000
20
324.000000
0
VERTEX
5
8f
100
AcDbEntity
8
1
100
AcDbVertex
100
AcDb2dVertex
62
5
10
228.250000
20
322.437500
0
VERTEX
5
90
100
AcDbEntity
8
1
100
AcDbVertex
100
AcDb2dVertex
62
5
10
227.250000
20
320.875000
0
SEQEND
5
91
100
AcDbEntity
8
1
0
POLYLINE
5
92
100
AcDbEntity
8
1
6
CONTINUOUS
62
5
100
AcDb2dPolyline
66
1
10
0.0
20
0.0
30
0.0
70
0
0
VERTEX
5
93
100
AcDbEntity
8
1
100
AcDbVertex
100
AcDb2dVertex
62
5
10
211.750000
20
327.125000
0
VERTEX
5
94
100
AcDbEntity
8
1
100
AcDbVertex
100
AcDb2dVertex
62
5
10
215.750000
20
327.125000
0
VERTEX
5
95
100
AcDbEntity
8
1
100
AcDbVertex
100
AcDb2dVertex
62
5
10
215.750000
20
322.750000
0
VERTEX
5
96
100
AcDbEntity
8
1
100
AcDbVertex
100
AcDb2dVertex
62
5
10
211.750000
20
322.750000
0
SEQEND
5
97
100
AcDbEntity
8
1
0
POLYLINE
5
98
100
AcDbEntity
8
1
6
CONTINUOUS
62
5
100
AcDb2dPolyline
66
1
10
0.0
20
0.0
30
0.0
70
0
0
VERTEX
5
99
100
AcDbEntity
8
1
100
AcDbVertex
100
AcDb2dVertex
62
5
10
219.500000
20
329.000000
0
VERTEX
5
9a
100
AcDbEntity
8
1
100
AcDbVertex
100
AcDb2dVertex
62
5
10
219.500000
20
323.375000
0
VERTEX
5
9b
100
AcDbEntity
8
1
100
AcDbVertex
100
AcDb2dVertex
62
5
10
219.000000
20
322.125000
0
VERTEX
5
9c
100
AcDbEntity
8
1
100
AcDbVertex
100
AcDb2dVertex
62
5
10
218.500000
20
321.187500
0
SEQEND
5
9d
100
AcDbEntity
8
1
0
POLYLINE
5
9e
100
AcDbEntity
8
1
6
CONTINUOUS
62
5
100
AcDb2dPolyline
66
1
10
0.0
20
0.0
30
0.0
70
0
0
VERTEX
5
9f
100
AcDbEntity
8
1
100
AcDbVertex
100
AcDb2dVertex
62
5
10
223.500000
20
321.500000
0
VERTEX
5
a0
100
AcDbEntity
8
1
100
AcDbVertex
100
AcDb2dVertex
62
5
10
224.500000
20
320.875000
0
VERTEX
5
a1
100
AcDbEntity
8
1
100
AcDbVertex
100
AcDb2dVertex
62
5
10
224.500000
20
329.000000
0
VERTEX
5
a2
100
AcDbEntity
8
1
100
AcDbVertex
100
AcDb2dVertex
62
5
10
219.500000
20
329.000000
0
SEQEND
5
a3
100
AcDbEntity
8
1
0
LINE
5
a4
100
AcDbEntity
8
1
100
AcDbLine
6
CONTINUOUS
62
5
10
219.500000
20
326.500000
11
224.500000
21
326.500000
0
LINE
5
a5
100
AcDbEntity
8
1
100
AcDbLine
6
CONTINUOUS
62
5
10
222.000000
20
329.000000
11
222.000000
21
320.875000
0
LINE
5
a6
100
AcDbEntity
8
1
100
AcDbLine
6
CONTINUOUS
62
5
10
219.500000
20
324.000000
11
224.500000
21
324.000000
0
POLYLINE
5
a7
100
AcDbEntity
8
1
6
CONTINUOUS
62
5
100
AcDb2dPolyline
66
1
10
0.0
20
0.0
30
0.0
70
0
0
VERTEX
5
a8
100
AcDbEntity
8
1
100
AcDbVertex
100
AcDb2dVertex
62
5
10
224.000000
20
317.125000
0
VERTEX
5
a9
100
AcDbEntity
8
1
100
AcDbVertex
100
AcDb2dVertex
62
5
10
227.250000
20
317.125000
0
VERTEX
5
aa
100
AcDbEntity
8
1
100
AcDbVertex
100
AcDb2dVertex
62
5
10
227.250000
20
316.812500
0
VERTEX
5
ab
100
AcDbEntity
8
1
100
AcDbVertex
100
AcDb2dVertex
62
5
10
226.750000
20
315.562500
0
VERTEX
5
ac
100
AcDbEntity
8
1
100
AcDbVertex
100
AcDb2dVertex
62
5
10
226.250000
20
314.625000
0
VERTEX
5
ad
100
AcDbEntity
8
1
100
AcDbVertex
100
AcDb2dVertex
62
5
10
225.250000
20
313.375000
0
VERTEX
5
ae
100
AcDbEntity
8
1
100
AcDbVertex
100
AcDb2dVertex
62
5
10
223.500000
20
311.812500
0
SEQEND
5
af
100
AcDbEntity
8
1
0
LINE
5
b0
100
AcDbEntity
8
1
100
AcDbLine
6
CONTINUOUS
62
5
10
226.250000
20
314.625000
11
228.250000
21
311.812500
0
LINE
5
b1
100
AcDbEntity
8
1
100
AcDbLine
6
CONTINUOUS
62
5
10
216.500000
20
318.062500
11
217.750000
21
316.812500
0
LINE
5
b2
100
AcDbEntity
8
1
100
AcDbLine
6
CONTINUOUS
62
5
10
215.500000
20
316.187500
11
216.500000
21
314.937500
0
POLYLINE
5
b3
100
AcDbEntity
8
1
6
CONTINUOUS
62
5
100
AcDb2dPolyline
66
1
10
0.0
20
0.0
30
0.0
70
0
0
VERTEX
5
b4
100
AcDbEntity
8
1
100
AcDbVertex
100
AcDb2dVertex
62
5
10
216.000000
20
311.812500
0
VERTEX
5
b5
100
AcDbEntity
8
1
100
AcDbVertex
100
AcDb2dVertex
62
5
10
217.250000
20
312.437500
0
VERTEX
5
b6
100
AcDbEntity
8
1
100
AcDbVertex
100
AcDb2dVertex
62
5
10
219.250000
20
314.000000
0
VERTEX
5
b7
100
AcDbEntity
8
1
100
AcDbVertex
100
AcDb2dVertex
62
5
10
221.000000
20
315.875000
0
SEQEND
5
b8
100
AcDbEntity
8
1
0
POLYLINE
5
b9
100
AcDbEntity
8
1
6
CONTINUOUS
62
5
100
AcDb2dPolyline
66
1
10
0.0
20
0.0
30
0.0
70
0
0
VERTEX
5
ba
100
AcDbEntity
8
1
100
AcDbVertex
100
AcDb2dVertex
62
5
10
204.500000
20
329.312500
0
VERTEX
5
bb
100
AcDbEntity
8
1
100
AcDbVertex
100
AcDb2dVertex
62
5
10
203.750000
20
328.062500
0
VERTEX
5
bc
100
AcDbEntity
8
1
100
AcDbVertex
100
AcDb2dVertex
62
5
10
203.000000
20
326.500000
0
VERTEX
5
bd
100
AcDbEntity
8
1
100
AcDbVertex
100
AcDb2dVertex
62
5
10
202.750000
20
325.250000
0
VERTEX
5
be
100
AcDbEntity
8
1
100
AcDbVertex
100
AcDb2dVertex
62
5
10
203.000000
20
324.000000
0
VERTEX
5
bf
100
AcDbEntity
8
1
100
AcDbVertex
100
AcDb2dVertex
62
5
10
203.500000
20
322.437500
0
VERTEX
5
c0
100
AcDbEntity
8
1
100
AcDbVertex
100
AcDb2dVertex
62
5
10
204.500000
20
320.875000
0
SEQEND
5
c1
100
AcDbEntity
8
1
0
POLYLINE
5
c2
100
AcDbEntity
8
1
6
CONTINUOUS
62
5
100
AcDb2dPolyline
66
1
10
0.0
20
0.0
30
0.0
70
0
0
VERTEX
5
c3
100
AcDbEntity
8
1
100
AcDbVertex
100
AcDb2dVertex
62
5
10
207.000000
20
326.812500
0
VERTEX
5
c4
100
AcDbEntity
8
1
100
AcDbVertex
100
AcDb2dVertex
62
5
10
207.250000
20
328.375000
0
VERTEX
5
c5
100
AcDbEntity
8
1
100
AcDbVertex
100
AcDb2dVertex
62
5
10
208.000000
20
329.000000
0
VERTEX
5
c6
100
AcDbEntity
8
1
100
AcDbVertex
100
AcDb2dVertex
62
5
10
208.750000
20
329.000000
0
VERTEX
5
c7
100
AcDbEntity
8
1
100
AcDbVertex
100
AcDb2dVertex
62
5
10
209.250000
20
328.687500
0
VERTEX
5
c8
100
AcDbEntity
8
1
100
AcDbVertex
100
AcDb2dVertex
62
5
10
209.500000
20
327.750000
0
VERTEX
5
c9
100
AcDbEntity
8
1
100
AcDbVertex
100
AcDb2dVertex
62
5
10
209.500000
20
326.812500
0
VERTEX
5
ca
100
AcDbEntity
8
1
100
AcDbVertex
100
AcDb2dVertex
62
5
10
209.250000
20
325.875000
0
VERTEX
5
cb
100
AcDbEntity
8
1
100
AcDbVertex
100
AcDb2dVertex
62
5
10
207.000000
20
321.500000
0
VERTEX
5
cc
100
AcDbEntity
8
1
100
AcDbVertex
100
AcDb2dVertex
62
5
10
209.500000
20
321.500000
0
VERTEX
5
cd
100
AcDbEntity
8
1
100
AcDbVertex
100
AcDb2dVertex
62
5
10
209.500000
20
322.437500
0
SEQEND
5
ce
100
AcDbEntity
8
1
0
LINE
5
cf
100
AcDbEntity
8
1
100
AcDbLine
6
CONTINUOUS
62
5
10
191.000000
20
329.000000
11
192.250000
21
328.062500
0
LINE
5
d0
100
AcDbEntity
8
1
100
AcDbLine
6
CONTINUOUS
62
5
10
190.500000
20
326.500000
11
191.750000
21
325.875000
0
POLYLINE
5
d1
100
AcDbEntity
8
1
6
CONTINUOUS
62
5
100
AcDb2dPolyline
66
1
10
0.0
20
0.0
30
0.0
70
0
0
VERTEX
5
d2
100
AcDbEntity
8
1
100
AcDbVertex
100
AcDb2dVertex
62
5
10
190.500000
20
321.500000
0
VERTEX
5
d3
100
AcDbEntity
8
1
100
AcDbVertex
100
AcDb2dVertex
62
5
10
191.500000
20
323.062500
0
VERTEX
5
d4
100
AcDbEntity
8
1
100
AcDbVertex
100
AcDb2dVertex
62
5
10
192.000000
20
324.625000
0
SEQEND
5
d5
100
AcDbEntity
8
1
0
LINE
5
d6
100
AcDbEntity
8
1
100
AcDbLine
6
CONTINUOUS
62
5
10
193.000000
20
327.437500
11
196.500000
21
327.437500
0
LINE
5
d7
100
AcDbEntity
8
1
100
AcDbLine
6
CONTINUOUS
62
5
10
194.750000
20
329.312500
11
194.750000
21
325.250000
0
LINE
5
d8
100
AcDbEntity
8
1
100
AcDbLine
6
CONTINUOUS
62
5
10
192.500000
20
325.250000
11
197.250000
21
325.250000
0
LINE
5
d9
100
AcDbEntity
8
1
100
AcDbLine
6
CONTINUOUS
62
5
10
194.750000
20
325.250000
11
192.750000
21
321.500000
0
POLYLINE
5
da
100
AcDbEntity
8
1
6
CONTINUOUS
62
5
100
AcDb2dPolyline
66
1
10
0.0
20
0.0
30
0.0
70
0
0
VERTEX
5
db
100
AcDbEntity
8
1
100
AcDbVertex
100
AcDb2dVertex
62
5
10
192.000000
20
321.500000
0
VERTEX
5
dc
100
AcDbEntity
8
1
100
AcDbVertex
100
AcDb2dVertex
62
5
10
192.750000
20
321.500000
0
VERTEX
5
dd
100
AcDbEntity
8
1
100
AcDbVertex
100
AcDb2dVertex
62
5
10
196.500000
20
322.125000
0
SEQEND
5
de
100
AcDbEntity
8
1
0
LINE
5
df
100
AcDbEntity
8
1
100
AcDbLine
6
CONTINUOUS
62
5
10
196.000000
20
323.062500
11
197.250000
21
321.187500
0
LINE
5
e0
100
AcDbEntity
8
1
100
AcDbLine
6
CONTINUOUS
62
5
10
192.250000
20
317.750000
11
196.000000
21
317.750000
0
LINE
5
e1
100
AcDbEntity
8
1
100
AcDbLine
6
CONTINUOUS
62
5
10
191.250000
20
315.562500
11
196.750000
21
315.562500
0
POLYLINE
5
e2
100
AcDbEntity
8
1
6
CONTINUOUS
62
5
100
AcDb2dPolyline
66
1
10
0.0
20
0.0
30
0.0
70
0
0
VERTEX
5
e3
100
AcDbEntity
8
1
100
AcDbVertex
100
AcDb2dVertex
62
5
10
193.500000
20
317.750000
0
VERTEX
5
e4
100
AcDbEntity
8
1
100
AcDbVertex
100
AcDb2dVertex
62
5
10
193.500000
20
312.750000
0
VERTEX
5
e5
100
AcDbEntity
8
1
100
AcDbVertex
100
AcDb2dVertex
62
5
10
194.000000
20
312.437500
0
VERTEX
5
e6
100
AcDbEntity
8
1
100
AcDbVertex
100
AcDb2dVertex
62
5
10
196.250000
20
312.437500
0
SEQEND
5
e7
100
AcDbEntity
8
1
0
POLYLINE
5
e8
100
AcDbEntity
8
1
6
CONTINUOUS
62
5
100
AcDb2dPolyline
66
1
10
0.0
20
0.0
30
0.0
70
0
0
VERTEX
5
e9
100
AcDbEntity
8
1
100
AcDbVertex
100
AcDb2dVertex
62
5
10
199.750000
20
317.125000
0
VERTEX
5
ea
100
AcDbEntity
8
1
100
AcDbVertex
100
AcDb2dVertex
62
5
10
203.750000
20
317.125000
0
VERTEX
5
eb
100
AcDbEntity
8
1
100
AcDbVertex
100
AcDb2dVertex
62
5
10
203.750000
20
312.750000
0
VERTEX
5
ec
100
AcDbEntity
8
1
100
AcDbVertex
100
AcDb2dVertex
62
5
10
199.750000
20
312.750000
0
SEQEND
5
ed
100
AcDbEntity
8
1
0
LINE
5
ee
100
AcDbEntity
8
1
100
AcDbLine
6
CONTINUOUS
62
5
10
207.750000
20
317.437500
11
208.750000
21
316.187500
0
POLYLINE
5
ef
100
AcDbEntity
8
1
6
CONTINUOUS
62
5
100
AcDb2dPolyline
66
1
10
0.0
20
0.0
30
0.0
70
0
0
VERTEX
5
f0
100
AcDbEntity
8
1
100
AcDbVertex
100
AcDb2dVertex
62
5
10
207.500000
20
312.437500
0
VERTEX
5
f1
100
AcDbEntity
8
1
100
AcDbVertex
100
AcDb2dVertex
62
5
10
209.250000
20
313.375000
0
VERTEX
5
f2
100
AcDbEntity
8
1
100
AcDbVertex
100
AcDb2dVertex
62
5
10
210.750000
20
314.625000
0
VERTEX
5
f3
100
AcDbEntity
8
1
100
AcDbVertex
100
AcDb2dVertex
62
5
10
212.250000
20
316.187500
0
SEQEND
5
f4
100
AcDbEntity
8
1
0
LINE
5
f5
100
AcDbEntity
8
1
100
AcDbLine
6
CONTINUOUS
62
5
10
182.500000
20
327.437500
11
189.500000
21
327.437500
0
POLYLINE
5
f6
100
AcDbEntity
8
1
6
CONTINUOUS
62
5
100
AcDb2dPolyline
66
1
10
0.0
20
0.0
30
0.0
70
0
0
VERTEX
5
f7
100
AcDbEntity
8
1
100
AcDbVertex
100
AcDb2dVertex
62
5
10
187.250000
20
329.625000
0
VERTEX
5
f8
100
AcDbEntity
8
1
100
AcDbVertex
100
AcDb2dVertex
62
5
10
187.250000
20
321.812500
0
VERTEX
5
f9
100
AcDbEntity
8
1
100
AcDbVertex
100
AcDb2dVertex
62
5
10
186.500000
20
320.875000
0
VERTEX
5
fa
100
AcDbEntity
8
1
100
AcDbVertex
100
AcDb2dVertex
62
5
10
185.750000
20
320.875000
0
SEQEND
5
fb
100
AcDbEntity
8
1
0
LINE
5
fc
100
AcDbEntity
8
1
100
AcDbLine
6
CONTINUOUS
62
5
10
184.000000
20
325.562500
11
185.000000
21
323.687500
0
LINE
5
fd
100
AcDbEntity
8
1
100
AcDbLine
6
CONTINUOUS
62
5
10
176.250000
20
329.625000
11
174.750000
21
327.437500
0
LINE
5
fe
100
AcDbEntity
8
1
100
AcDbLine
6
CONTINUOUS
62
5
10
174.250000
20
327.750000
11
175.750000
21
326.187500
0
LINE
5
ff
100
AcDbEntity
8
1
100
AcDbLine
6
CONTINUOUS
62
5
10
177.000000
20
328.062500
11
175.000000
21
324.937500
0
LINE
5
100
100
AcDbEntity
8
1
100
AcDbLine
6
CONTINUOUS
62
5
10
174.250000
20
324.937500
11
177.500000
21
324.937500
0
LINE
5
101
100
AcDbEntity
8
1
100
AcDbLine
6
CONTINUOUS
62
5
10
177.000000
20
326.187500
11
177.750000
21
324.000000
0
LINE
5
102
100
AcDbEntity
8
1
100
AcDbLine
6
CONTINUOUS
62
5
10
176.000000
20
324.937500
11
176.000000
21
320.562500
0
LINE
5
103
100
AcDbEntity
8
1
100
AcDbLine
6
CONTINUOUS
62
5
10
175.000000
20
324.000000
11
174.500000
21
321.500000
0
LINE
5
104
100
AcDbEntity
8
1
100
AcDbLine
6
CONTINUOUS
62
5
10
177.000000
20
324.000000
11
177.250000
21
321.812500
0
POLYLINE
5
105
100
AcDbEntity
8
1
6
CONTINUOUS
62
5
100
AcDb2dPolyline
66
1
10
0.0
20
0.0
30
0.0
70
0
0
VERTEX
5
106
100
AcDbEntity
8
1
100
AcDbVertex
100
AcDb2dVertex
62
5
10
179.250000
20
329.625000
0
VERTEX
5
107
100
AcDbEntity
8
1
100
AcDbVertex
100
AcDb2dVertex
62
5
10
178.500000
20
327.437500
0
VERTEX
5
108
100
AcDbEntity
8
1
100
AcDbVertex
100
AcDb2dVertex
62
5
10
177.750000
20
326.187500
0
SEQEND
5
109
100
AcDbEntity
8
1
0
POLYLINE
5
10a
100
AcDbEntity
8
1
6
CONTINUOUS
62
5
100
AcDb2dPolyline
66
1
10
0.0
20
0.0
30
0.0
70
0
0
VERTEX
5
10b
100
AcDbEntity
8
1
100
AcDbVertex
100
AcDb2dVertex
62
5
10
178.500000
20
327.437500
0
VERTEX
5
10c
100
AcDbEntity
8
1
100
AcDbVertex
100
AcDb2dVertex
62
5
10
181.250000
20
327.437500
0
VERTEX
5
10d
100
AcDbEntity
8
1
100
AcDbVertex
100
AcDb2dVertex
62
5
10
181.000000
20
323.062500
0
VERTEX
5
10e
100
AcDbEntity
8
1
100
AcDbVertex
100
AcDb2dVertex
62
5
10
180.000000
20
320.875000
0
VERTEX
5
10f
100
AcDbEntity
8
1
100
AcDbVertex
100
AcDb2dVertex
62
5
10
178.750000
20
321.500000
0
SEQEND
5
110
100
AcDbEntity
8
1
0
LINE
5
111
100
AcDbEntity
8
1
100
AcDbLine
6
CONTINUOUS
62
5
10
178.750000
20
325.250000
11
179.500000
21
323.687500
0
LINE
5
112
100
AcDbEntity
8
1
100
AcDbLine
6
CONTINUOUS
62
5
10
174.500000
20
317.437500
11
181.000000
21
317.437500
0
POLYLINE
5
113
100
AcDbEntity
8
1
6
CONTINUOUS
62
5
100
AcDb2dPolyline
66
1
10
0.0
20
0.0
30
0.0
70
0
0
VERTEX
5
114
100
AcDbEntity
8
1
100
AcDbVertex
100
AcDb2dVertex
62
5
10
178.250000
20
319.312500
0
VERTEX
5
115
100
AcDbEntity
8
1
100
AcDbVertex
100
AcDb2dVertex
62
5
10
178.250000
20
316.500000
0
VERTEX
5
116
100
AcDbEntity
8
1
100
AcDbVertex
100
AcDb2dVertex
62
5
10
178.500000
20
314.312500
0
VERTEX
5
117
100
AcDbEntity
8
1
100
AcDbVertex
100
AcDb2dVertex
62
5
10
179.000000
20
312.750000
0
VERTEX
5
118
100
AcDbEntity
8
1
100
AcDbVertex
100
AcDb2dVertex
62
5
10
179.750000
20
311.500000
0
VERTEX
5
119
100
AcDbEntity
8
1
100
AcDbVertex
100
AcDb2dVertex
62
5
10
180.250000
20
310.875000
0
VERTEX
5
11a
100
AcDbEntity
8
1
100
AcDbVertex
100
AcDb2dVertex
62
5
10
181.000000
20
312.125000
0
SEQEND
5
11b
100
AcDbEntity
8
1
0
LINE
5
11c
100
AcDbEntity
8
1
100
AcDbLine
6
CONTINUOUS
62
5
10
174.750000
20
315.250000
11
177.750000
21
315.250000
0
LINE
5
11d
100
AcDbEntity
8
1
100
AcDbLine
6
CONTINUOUS
62
5
10
176.250000
20
315.250000
11
176.250000
21
311.812500
0
POLYLINE
5
11e
100
AcDbEntity
8
1
6
CONTINUOUS
62
5
100
AcDb2dPolyline
66
1
10
0.0
20
0.0
30
0.0
70
0
0
VERTEX
5
11f
100
AcDbEntity
8
1
100
AcDbVertex
100
AcDb2dVertex
62
5
10
174.750000
20
311.187500
0
VERTEX
5
120
100
AcDbEntity
8
1
100
AcDbVertex
100
AcDb2dVertex
62
5
10
176.250000
20
311.812500
0
VERTEX
5
121
100
AcDbEntity
8
1
100
AcDbVertex
100
AcDb2dVertex
62
5
10
177.750000
20
312.437500
0
SEQEND
5
122
100
AcDbEntity
8
1
0
LINE
5
123
100
AcDbEntity
8
1
100
AcDbLine
6
CONTINUOUS
62
5
10
179.250000
20
318.687500
11
180.000000
21
318.062500
0
LINE
5
124
100
AcDbEntity
8
1
100
AcDbLine
6
CONTINUOUS
62
5
10
184.250000
20
318.375000
11
184.250000
21
314.625000
0
POLYLINE
5
125
100
AcDbEntity
8
1
6
CONTINUOUS
62
5
100
AcDb2dPolyline
66
1
10
0.0
20
0.0
30
0.0
70
0
0
VERTEX
5
126
100
AcDbEntity
8
1
100
AcDbVertex
100
AcDb2dVertex
62
5
10
187.000000
20
318.687500
0
VERTEX
5
127
100
AcDbEntity
8
1
100
AcDbVertex
100
AcDb2dVertex
62
5
10
187.000000
20
314.937500
0
VERTEX
5
128
100
AcDbEntity
8
1
100
AcDbVertex
100
AcDb2dVertex
62
5
10
186.750000
20
313.687500
0
VERTEX
5
129
100
AcDbEntity
8
1
100
AcDbVertex
100
AcDb2dVertex
62
5
10
186.250000
20
312.437500
0
VERTEX
5
12a
100
AcDbEntity
8
1
100
AcDbVertex
100
AcDb2dVertex
62
5
10
185.500000
20
311.500000
0
SEQEND
5
12b
100
AcDbEntity
8
1
0
POLYLINE
5
12c
100
AcDbEntity
8
1
6
CONTINUOUS
62
5
100
AcDb2dPolyline
66
1
10
0.0
20
0.0
30
0.0
70
0
0
VERTEX
5
12d
100
AcDbEntity
8
1
100
AcDbVertex
100
AcDb2dVertex
62
5
10
165.500000
20
327.437500
0
VERTEX
5
12e
100
AcDbEntity
8
1
100
AcDbVertex
100
AcDb2dVertex
62
5
10
165.000000
20
328.687500
0
VERTEX
5
12f
100
AcDbEntity
8
1
100
AcDbVertex
100
AcDb2dVertex
62
5
10
164.250000
20
329.000000
0
VERTEX
5
130
100
AcDbEntity
8
1
100
AcDbVertex
100
AcDb2dVertex
62
5
10
163.750000
20
329.000000
0
VERTEX
5
131
100
AcDbEntity
8
1
100
AcDbVertex
100
AcDb2dVertex
62
5
10
163.250000
20
328.687500
0
VERTEX
5
132
100
AcDbEntity
8
1
100
AcDbVertex
100
AcDb2dVertex
62
5
10
162.750000
20
327.750000
0
VERTEX
5
133
100
AcDbEntity
8
1
100
AcDbVertex
100
AcDb2dVertex
62
5
10
162.750000
20
326.812500
0
VERTEX
5
134
100
AcDbEntity
8
1
100
AcDbVertex
100
AcDb2dVertex
62
5
10
163.250000
20
325.875000
0
VERTEX
5
135
100
AcDbEntity
8
1
100
AcDbVertex
100
AcDb2dVertex
62
5
10
165.000000
20
324.625000
0
VERTEX
5
136
100
AcDbEntity
8
1
100
AcDbVertex
100
AcDb2dVertex
62
5
10
165.500000
20
323.687500
0
VERTEX
5
137
100
AcDbEntity
8
1
100
AcDbVertex
100
AcDb2dVertex
62
5
10
165.500000
20
322.750000
0
VERTEX
5
138
100
AcDbEntity
8
1
100
AcDbVertex
100
AcDb2dVertex
62
5
10
165.000000
20
321.812500
0
VERTEX
5
139
100
AcDbEntity
8
1
100
AcDbVertex
100
AcDb2dVertex
62
5
10
164.250000
20
321.500000
0
VERTEX
5
13a
100
AcDbEntity
8
1
100
AcDbVertex
100
AcDb2dVertex
62
5
10
163.750000
20
321.500000
0
VERTEX
5
13b
100
AcDbEntity
8
1
100
AcDbVertex
100
AcDb2dVertex
62
5
10
163.000000
20
322.125000
0
VERTEX
5
13c
100
AcDbEntity
8
1
100
AcDbVertex
100
AcDb2dVertex
62
5
10
162.750000
20
323.375000
0
SEQEND
5
13d
100
AcDbEntity
8
1
0
POLYLINE
5
13e
100
AcDbEntity
8
1
6
CONTINUOUS
62
5
100
AcDb2dPolyline
66
1
10
0.0
20
0.0
30
0.0
70
0
0
VERTEX
5
13f
100
AcDbEntity
8
1
100
AcDbVertex
100
AcDb2dVertex
62
5
10
163.000000
20
316.812500
0
VERTEX
5
140
100
AcDbEntity
8
1
100
AcDbVertex
100
AcDb2dVertex
62
5
10
163.250000
20
318.375000
0
VERTEX
5
141
100
AcDbEntity
8
1
100
AcDbVertex
100
AcDb2dVertex
62
5
10
164.000000
20
319.000000
0
VERTEX
5
142
100
AcDbEntity
8
1
100
AcDbVertex
100
AcDb2dVertex
62
5
10
164.750000
20
319.000000
0
VERTEX
5
143
100
AcDbEntity
8
1
100
AcDbVertex
100
AcDb2dVertex
62
5
10
165.250000
20
318.687500
0
VERTEX
5
144
100
AcDbEntity
8
1
100
AcDbVertex
100
AcDb2dVertex
62
5
10
165.500000
20
317.750000
0
VERTEX
5
145
100
AcDbEntity
8
1
100
AcDbVertex
100
AcDb2dVertex
62
5
10
165.500000
20
316.812500
0
VERTEX
5
146
100
AcDbEntity
8
1
100
AcDbVertex
100
AcDb2dVertex
62
5
10
165.250000
20
315.875000
0
VERTEX
5
147
100
AcDbEntity
8
1
100
AcDbVertex
100
AcDb2dVertex
62
5
10
163.000000
20
311.500000
0
VERTEX
5
148
100
AcDbEntity
8
1
100
AcDbVertex
100
AcDb2dVertex
62
5
10
165.500000
20
311.500000
0
VERTEX
5
149
100
AcDbEntity
8
1
100
AcDbVertex
100
AcDb2dVertex
62
5
10
165.500000
20
312.437500
0
SEQEND
5
14a
100
AcDbEntity
8
1
0
POLYLINE
5
14b
100
AcDbEntity
8
1
6
CONTINUOUS
62
5
100
AcDb2dPolyline
66
1
10
0.0
20
0.0
30
0.0
70
0
0
VERTEX
5
14c
100
AcDbEntity
8
1
100
AcDbVertex
100
AcDb2dVertex
62
5
10
157.250000
20
329.000000
0
VERTEX
5
14d
100
AcDbEntity
8
1
100
AcDbVertex
100
AcDb2dVertex
62
5
10
157.250000
20
323.375000
0
VERTEX
5
14e
100
AcDbEntity
8
1
100
AcDbVertex
100
AcDb2dVertex
62
5
10
157.000000
20
322.125000
0
VERTEX
5
14f
100
AcDbEntity
8
1
100
AcDbVertex
100
AcDb2dVertex
62
5
10
156.500000
20
321.500000
0
VERTEX
5
150
100
AcDbEntity
8
1
100
AcDbVertex
100
AcDb2dVertex
62
5
10
155.750000
20
321.500000
0
VERTEX
5
151
100
AcDbEntity
8
1
100
AcDbVertex
100
AcDb2dVertex
62
5
10
155.250000
20
322.125000
0
VERTEX
5
152
100
AcDbEntity
8
1
100
AcDbVertex
100
AcDb2dVertex
62
5
10
155.000000
20
323.375000
0
SEQEND
5
153
100
AcDbEntity
8
1
0
POLYLINE
5
154
100
AcDbEntity
8
1
6
CONTINUOUS
62
5
100
AcDb2dPolyline
66
1
10
0.0
20
0.0
30
0.0
70
0
0
VERTEX
5
155
100
AcDbEntity
8
1
100
AcDbVertex
100
AcDb2dVertex
62
5
10
155.750000
20
315.250000
0
VERTEX
5
156
100
AcDbEntity
8
1
100
AcDbVertex
100
AcDb2dVertex
62
5
10
156.750000
20
316.500000
0
VERTEX
5
157
100
AcDbEntity
8
1
100
AcDbVertex
100
AcDb2dVertex
62
5
10
157.250000
20
317.437500
0
VERTEX
5
158
100
AcDbEntity
8
1
100
AcDbVertex
100
AcDb2dVertex
62
5
10
159.750000
20
317.437500
0
VERTEX
5
159
100
AcDbEntity
8
1
100
AcDbVertex
100
AcDb2dVertex
62
5
10
159.750000
20
317.125000
0
VERTEX
5
15a
100
AcDbEntity
8
1
100
AcDbVertex
100
AcDb2dVertex
62
5
10
159.000000
20
315.250000
0
VERTEX
5
15b
100
AcDbEntity
8
1
100
AcDbVertex
100
AcDb2dVertex
62
5
10
157.750000
20
313.375000
0
VERTEX
5
15c
100
AcDbEntity
8
1
100
AcDbVertex
100
AcDb2dVertex
62
5
10
156.250000
20
311.812500
0
SEQEND
5
15d
100
AcDbEntity
8
1
0
LINE
5
15e
100
AcDbEntity
8
1
100
AcDbLine
6
CONTINUOUS
62
5
10
159.750000
20
318.687500
11
160.250000
21
318.062500
0
LINE
5
15f
100
AcDbEntity
8
1
100
AcDbLine
6
CONTINUOUS
62
5
10
160.500000
20
319.312500
11
161.000000
21
318.687500
0
LINE
5
160
100
AcDbEntity
8
1
100
AcDbLine
6
CONTINUOUS
62
5
10
159.500000
20
329.000000
11
161.000000
21
329.000000
0
LINE
5
161
100
AcDbEntity
8
1
100
AcDbLine
6
CONTINUOUS
62
5
10
160.250000
20
329.000000
11
160.250000
21
321.500000
0
LINE
5
162
100
AcDbEntity
8
1
100
AcDbLine
6
CONTINUOUS
62
5
10
159.500000
20
321.500000
11
161.000000
21
321.500000
0
LINE
5
163
100
AcDbEntity
8
1
100
AcDbLine
6
CONTINUOUS
62
5
10
166.250000
20
326.812500
11
168.500000
21
326.812500
0
LINE
5
164
100
AcDbEntity
8
1
100
AcDbLine
6
CONTINUOUS
62
5
10
167.250000
20
329.312500
11
167.250000
21
320.562500
0
POLYLINE
5
165
100
AcDbEntity
8
1
6
CONTINUOUS
62
5
100
AcDb2dPolyline
66
1
10
0.0
20
0.0
30
0.0
70
0
0
VERTEX
5
166
100
AcDbEntity
8
1
100
AcDbVertex
100
AcDb2dVertex
62
5
10
169.250000
20
328.062500
0
VERTEX
5
167
100
AcDbEntity
8
1
100
AcDbVertex
100
AcDb2dVertex
62
5
10
172.500000
20
328.062500
0
VERTEX
5
168
100
AcDbEntity
8
1
100
AcDbVertex
100
AcDb2dVertex
62
5
10
172.500000
20
326.812500
0
VERTEX
5
169
100
AcDbEntity
8
1
100
AcDbVertex
100
AcDb2dVertex
62
5
10
172.250000
20
325.562500
0
VERTEX
5
16a
100
AcDbEntity
8
1
100
AcDbVertex
100
AcDb2dVertex
62
5
10
171.500000
20
325.562500
0
SEQEND
5
16b
100
AcDbEntity
8
1
0
POLYLINE
5
16c
100
AcDbEntity
8
1
6
CONTINUOUS
62
5
100
AcDb2dPolyline
66
1
10
0.0
20
0.0
30
0.0
70
0
0
VERTEX
5
16d
100
AcDbEntity
8
1
100
AcDbVertex
100
AcDb2dVertex
62
5
10
170.750000
20
329.312500
0
VERTEX
5
16e
100
AcDbEntity
8
1
100
AcDbVertex
100
AcDb2dVertex
62
5
10
170.750000
20
327.437500
0
VERTEX
5
16f
100
AcDbEntity
8
1
100
AcDbVertex
100
AcDb2dVertex
62
5
10
170.500000
20
326.500000
0
VERTEX
5
170
100
AcDbEntity
8
1
100
AcDbVertex
100
AcDb2dVertex
62
5
10
169.500000
20
325.250000
0
SEQEND
5
171
100
AcDbEntity
8
1
0
POLYLINE
5
172
100
AcDbEntity
8
1
6
CONTINUOUS
62
5
100
AcDb2dPolyline
66
1
10
0.0
20
0.0
30
0.0
70
0
0
VERTEX
5
173
100
AcDbEntity
8
1
100
AcDbVertex
100
AcDb2dVertex
62
5
10
168.000000
20
324.000000
0
VERTEX
5
174
100
AcDbEntity
8
1
100
AcDbVertex
100
AcDb2dVertex
62
5
10
170.500000
20
324.000000
0
VERTEX
5
175
100
AcDbEntity
8
1
100
AcDbVertex
100
AcDb2dVertex
62
5
10
170.500000
20
322.437500
0
VERTEX
5
176
100
AcDbEntity
8
1
100
AcDbVertex
100
AcDb2dVertex
62
5
10
170.250000
20
320.875000
0
VERTEX
5
177
100
AcDbEntity
8
1
100
AcDbVertex
100
AcDb2dVertex
62
5
10
169.750000
20
320.875000
0
SEQEND
5
178
100
AcDbEntity
8
1
0
POLYLINE
5
179
100
AcDbEntity
8
1
6
CONTINUOUS
62
5
100
AcDb2dPolyline
66
1
10
0.0
20
0.0
30
0.0
70
0
0
VERTEX
5
17a
100
AcDbEntity
8
1
100
AcDbVertex
100
AcDb2dVertex
62
5
10
169.250000
20
324.625000
0
VERTEX
5
17b
100
AcDbEntity
8
1
100
AcDbVertex
100
AcDb2dVertex
62
5
10
169.250000
20
323.375000
0
VERTEX
5
17c
100
AcDbEntity
8
1
100
AcDbVertex
100
AcDb2dVertex
62
5
10
168.750000
20
321.812500
0
VERTEX
5
17d
100
AcDbEntity
8
1
100
AcDbVertex
100
AcDb2dVertex
62
5
10
168.000000
20
320.875000
0
SEQEND
5
17e
100
AcDbEntity
8
1
0
POLYLINE
5
17f
100
AcDbEntity
8
1
6
CONTINUOUS
62
5
100
AcDb2dPolyline
66
1
10
0.0
20
0.0
30
0.0
70
0
0
VERTEX
5
180
100
AcDbEntity
8
1
100
AcDbVertex
100
AcDb2dVertex
62
5
10
171.000000
20
324.000000
0
VERTEX
5
181
100
AcDbEntity
8
1
100
AcDbVertex
100
AcDb2dVertex
62
5
10
173.500000
20
324.000000
0
VERTEX
5
182
100
AcDbEntity
8
1
100
AcDbVertex
100
AcDb2dVertex
62
5
10
173.500000
20
322.437500
0
VERTEX
5
183
100
AcDbEntity
8
1
100
AcDbVertex
100
AcDb2dVertex
62
5
10
173.250000
20
320.875000
0
VERTEX
5
184
100
AcDbEntity
8
1
100
AcDbVertex
100
AcDb2dVertex
62
5
10
172.750000
20
320.875000
0
SEQEND
5
185
100
AcDbEntity
8
1
0
POLYLINE
5
186
100
AcDbEntity
8
1
6
CONTINUOUS
62
5
100
AcDb2dPolyline
66
1
10
0.0
20
0.0
30
0.0
70
0
0
VERTEX
5
187
100
AcDbEntity
8
1
100
AcDbVertex
100
AcDb2dVertex
62
5
10
172.250000
20
324.625000
0
VERTEX
5
188
100
AcDbEntity
8
1
100
AcDbVertex
100
AcDb2dVertex
62
5
10
172.250000
20
323.375000
0
VERTEX
5
189
100
AcDbEntity
8
1
100
AcDbVertex
100
AcDb2dVertex
62
5
10
171.750000
20
321.812500
0
VERTEX
5
18a
100
AcDbEntity
8
1
100
AcDbVertex
100
AcDb2dVertex
62
5
10
171.000000
20
320.875000
0
SEQEND
5
18b
100
AcDbEntity
8
1
0
LINE
5
18c
100
AcDbEntity
8
1
100
AcDbLine
6
CONTINUOUS
62
5
10
168.000000
20
319.312500
11
167.000000
21
317.750000
0
LINE
5
18d
100
AcDbEntity
8
1
100
AcDbLine
6
CONTINUOUS
62
5
10
166.750000
20
318.062500
11
167.750000
21
316.812500
0
LINE
5
18e
100
AcDbEntity
8
1
100
AcDbLine
6
CONTINUOUS
62
5
10
168.750000
20
318.375000
11
166.750000
21
315.250000
0
LINE
5
18f
100
AcDbEntity
8
1
100
AcDbLine
6
CONTINUOUS
62
5
10
166.500000
20
315.250000
11
169.000000
21
315.250000
0
LINE
5
190
100
AcDbEntity
8
1
100
AcDbLine
6
CONTINUOUS
62
5
10
168.750000
20
316.187500
11
169.250000
21
314.625000
0
LINE
5
191
100
AcDbEntity
8
1
100
AcDbLine
6
CONTINUOUS
62
5
10
168.000000
20
315.250000
11
168.000000
21
310.875000
0
LINE
5
192
100
AcDbEntity
8
1
100
AcDbLine
6
CONTINUOUS
62
5
10
167.250000
20
314.312500
11
166.750000
21
312.437500
0
LINE
5
193
100
AcDbEntity
8
1
100
AcDbLine
6
CONTINUOUS
62
5
10
168.750000
20
314.312500
11
169.250000
21
312.750000
0
LINE
5
194
100
AcDbEntity
8
1
100
AcDbLine
6
CONTINUOUS
62
5
10
171.000000
20
319.625000
11
170.500000
21
318.687500
0
POLYLINE
5
195
100
AcDbEntity
8
1
6
CONTINUOUS
62
5
100
AcDb2dPolyline
66
1
10
0.0
20
0.0
30
0.0
70
1
0
VERTEX
5
196
100
AcDbEntity
8
1
100
AcDbVertex
100
AcDb2dVertex
62
5
10
169.750000
20
318.687500
0
VERTEX
5
197
100
AcDbEntity
8
1
100
AcDbVertex
100
AcDb2dVertex
62
5
10
169.750000
20
315.562500
0
VERTEX
5
198
100
AcDbEntity
8
1
100
AcDbVertex
100
AcDb2dVertex
62
5
10
172.750000
20
315.562500
0
VERTEX
5
199
100
AcDbEntity
8
1
100
AcDbVertex
100
AcDb2dVertex
62
5
10
172.750000
20
318.687500
0
VERTEX
5
19a
100
AcDbEntity
8
1
100
AcDbVertex
100
AcDb2dVertex
62
5
10
169.750000
20
318.687500
0
SEQEND
5
19b
100
AcDbEntity
8
1
0
LINE
5
19c
100
AcDbEntity
8
1
100
AcDbLine
6
CONTINUOUS
62
5
10
169.750000
20
317.125000
11
172.750000
21
317.125000
0
POLYLINE
5
19d
100
AcDbEntity
8
1
6
CONTINUOUS
62
5
100
AcDb2dPolyline
66
1
10
0.0
20
0.0
30
0.0
70
0
0
VERTEX
5
19e
100
AcDbEntity
8
1
100
AcDbVertex
100
AcDb2dVertex
62
5
10
171.250000
20
315.562500
0
VERTEX
5
19f
100
AcDbEntity
8
1
100
AcDbVertex
100
AcDb2dVertex
62
5
10
171.250000
20
311.500000
0
VERTEX
5
1a0
100
AcDbEntity
8
1
100
AcDbVertex
100
AcDb2dVertex
62
5
10
171.000000
20
311.187500
0
VERTEX
5
1a1
100
AcDbEntity
8
1
100
AcDbVertex
100
AcDb2dVertex
62
5
10
170.500000
20
311.187500
0
SEQEND
5
1a2
100
AcDbEntity
8
1
0
POLYLINE
5
1a3
100
AcDbEntity
8
1
6
CONTINUOUS
62
5
100
AcDb2dPolyline
66
1
10
0.0
20
0.0
30
0.0
70
0
0
VERTEX
5
1a4
100
AcDbEntity
8
1
100
AcDbVertex
100
AcDb2dVertex
62
5
10
169.750000
20
314.312500
0
VERTEX
5
1a5
100
AcDbEntity
8
1
100
AcDbVertex
100
AcDb2dVertex
62
5
10
170.750000
20
314.312500
0
VERTEX
5
1a6
100
AcDbEntity
8
1
100
AcDbVertex
100
AcDb2dVertex
62
5
10
170.250000
20
312.750000
0
VERTEX
5
1a7
100
AcDbEntity
8
1
100
AcDbVertex
100
AcDb2dVertex
62
5
10
169.500000
20
311.812500
0
SEQEND
5
1a8
100
AcDbEntity
8
1
0
LINE
5
1a9
100
AcDbEntity
8
1
100
AcDbLine
6
CONTINUOUS
62
5
10
172.750000
20
314.625000
11
172.000000
21
314.000000
0
POLYLINE
5
1aa
100
AcDbEntity
8
1
6
CONTINUOUS
62
5
100
AcDb2dPolyline
66
1
10
0.0
20
0.0
30
0.0
70
0
0
VERTEX
5
1ab
100
AcDbEntity
8
1
100
AcDbVertex
100
AcDb2dVertex
62
5
10
171.500000
20
315.250000
0
VERTEX
5
1ac
100
AcDbEntity
8
1
100
AcDbVertex
100
AcDb2dVertex
62
5
10
172.250000
20
313.062500
0
VERTEX
5
1ad
100
AcDbEntity
8
1
100
AcDbVertex
100
AcDb2dVertex
62
5
10
173.500000
20
311.500000
0
SEQEND
5
1ae
100
AcDbEntity
8
1
0
POLYLINE
5
1af
100
AcDbEntity
8
1
6
DOT2
62
5
100
AcDb2dPolyline
66
1
10
0.0
20
0.0
30
0.0
70
0
0
VERTEX
5
1b0
100
AcDbEntity
8
1
100
AcDbVertex
100
AcDb2dVertex
62
5
10
211.250000
20
231.250000
0
VERTEX
5
1b1
100
AcDbEntity
8
1
100
AcDbVertex
100
AcDb2dVertex
62
5
10
210.312500
20
231.250000
0
VERTEX
5
1b2
100
AcDbEntity
8
1
100
AcDbVertex
100
AcDb2dVertex
62
5
10
209.375000
20
230.937500
0
VERTEX
5
1b3
100
AcDbEntity
8
1
100
AcDbVertex
100
AcDb2dVertex
62
5
10
208.750000
20
229.687500
0
VERTEX
5
1b4
100
AcDbEntity
8
1
100
AcDbVertex
100
AcDb2dVertex
62
5
10
208.750000
20
225.312500
0
VERTEX
5
1b5
100
AcDbEntity
8
1
100
AcDbVertex
100
AcDb2dVertex
62
5
10
209.062500
20
224.375000
0
VERTEX
5
1b6
100
AcDbEntity
8
1
100
AcDbVertex
100
AcDb2dVertex
62
5
10
209.375000
20
224.062500
0
VERTEX
5
1b7
100
AcDbEntity
8
1
100
AcDbVertex
100
AcDb2dVertex
62
5
10
210.000000
20
223.750000
0
VERTEX
5
1b8
100
AcDbEntity
8
1
100
AcDbVertex
100
AcDb2dVertex
62
5
10
210.625000
20
223.750000
0
VERTEX
5
1b9
100
AcDbEntity
8
1
100
AcDbVertex
100
AcDb2dVertex
62
5
10
211.250000
20
224.062500
0
VERTEX
5
1ba
100
AcDbEntity
8
1
100
AcDbVertex
100
AcDb2dVertex
62
5
10
211.562500
20
224.375000
0
VERTEX
5
1bb
100
AcDbEntity
8
1
100
AcDbVertex
100
AcDb2dVertex
62
5
10
211.875000
20
225.312500
0
VERTEX
5
1bc
100
AcDbEntity
8
1
100
AcDbVertex
100
AcDb2dVertex
62
5
10
211.875000
20
227.187500
0
VERTEX
5
1bd
100
AcDbEntity
8
1
100
AcDbVertex
100
AcDb2dVertex
62
5
10
211.562500
20
227.812500
0
VERTEX
5
1be
100
AcDbEntity
8
1
100
AcDbVertex
100
AcDb2dVertex
62
5
10
210.937500
20
228.125000
0
VERTEX
5
1bf
100
AcDbEntity
8
1
100
AcDbVertex
100
AcDb2dVertex
62
5
10
209.687500
20
228.125000
0
VERTEX
5
1c0
100
AcDbEntity
8
1
100
AcDbVertex
100
AcDb2dVertex
62
5
10
208.750000
20
227.812500
0
SEQEND
5
1c1
100
AcDbEntity
8
1
0
POLYLINE
5
1c2
100
AcDbEntity
8
1
6
DOT2
62
5
100
AcDb2dPolyline
66
1
10
0.0
20
0.0
30
0.0
70
1
0
VERTEX
5
1c3
100
AcDbEntity
8
1
100
AcDbVertex
100
AcDb2dVertex
62
5
10
215.000000
20
231.250000
0
VERTEX
5
1c4
100
AcDbEntity
8
1
100
AcDbVertex
100
AcDb2dVertex
62
5
10
215.625000
20
231.250000
0
VERTEX
5
1c5
100
AcDbEntity
8
1
100
AcDbVertex
100
AcDb2dVertex
62
5
10
215.937500
20
230.937500
0
VERTEX
5
1c6
100
AcDbEntity
8
1
100
AcDbVertex
100
AcDb2dVertex
62
5
10
216.562500
20
229.687500
0
VERTEX
5
1c7
100
AcDbEntity
8
1
100
AcDbVertex
100
AcDb2dVertex
62
5
10
216.875000
20
228.437500
0
VERTEX
5
1c8
100
AcDbEntity
8
1
100
AcDbVertex
100
AcDb2dVertex
62
5
10
216.875000
20
226.562500
0
VERTEX
5
1c9
100
AcDbEntity
8
1
100
AcDbVertex
100
AcDb2dVertex
62
5
10
216.562500
20
225.312500
0
VERTEX
5
1ca
100
AcDbEntity
8
1
100
AcDbVertex
100
AcDb2dVertex
62
5
10
215.937500
20
224.062500
0
VERTEX
5
1cb
100
AcDbEntity
8
1
100
AcDbVertex
100
AcDb2dVertex
62
5
10
215.625000
20
223.750000
0
VERTEX
5
1cc
100
AcDbEntity
8
1
100
AcDbVertex
100
AcDb2dVertex
62
5
10
215.000000
20
223.750000
0
VERTEX
5
1cd
100
AcDbEntity
8
1
100
AcDbVertex
100
AcDb2dVertex
62
5
10
214.687500
20
224.062500
0
VERTEX
5
1ce
100
AcDbEntity
8
1
100
AcDbVertex
100
AcDb2dVertex
62
5
10
214.062500
20
225.312500
0
VERTEX
5
1cf
100
AcDbEntity
8
1
100
AcDbVertex
100
AcDb2dVertex
62
5
10
213.750000
20
226.562500
0
VERTEX
5
1d0
100
AcDbEntity
8
1
100
AcDbVertex
100
AcDb2dVertex
62
5
10
213.750000
20
228.437500
0
VERTEX
5
1d1
100
AcDbEntity
8
1
100
AcDbVertex
100
AcDb2dVertex
62
5
10
214.062500
20
229.687500
0
VERTEX
5
1d2
100
AcDbEntity
8
1
100
AcDbVertex
100
AcDb2dVertex
62
5
10
214.687500
20
230.937500
0
VERTEX
5
1d3
100
AcDbEntity
8
1
100
AcDbVertex
100
AcDb2dVertex
62
5
10
215.000000
20
231.250000
0
SEQEND
5
1d4
100
AcDbEntity
8
1
0
ARC
5
1d5
100
AcDbEntity
8
0
100
AcDbCircle
6
CONTINUOUS
62
5
10
184.400000
20
180.000000
40
0.200000
100
AcDbArc
50
160.213954
51
179.999998
0
LINE
5
1d6
100
AcDbEntity
8
0
100
AcDbLine
6
CONTINUOUS
62
5
10
184.200000
20
180.000000
11
184.200000
21
179.836000
0
LINE
5
1d7
100
AcDbEntity
8
0
100
AcDbLine
6
CONTINUOUS
62
5
10
186.500000
20
179.900000
11
185.767077
21
180.046585
0
LINE
5
1d8
100
AcDbEntity
8
0
100
AcDbLine
6
CONTINUOUS
62
5
10
184.000000
20
180.071698
11
184.000000
21
179.820000
0
LINE
5
1d9
100
AcDbEntity
8
0
100
AcDbLine
6
CONTINUOUS
62
5
10
186.000000
20
180.000000
11
186.000000
21
180.033962
0
LINE
5
1da
100
AcDbEntity
8
1
100
AcDbLine
6
CONTINUOUS
62
5
10
182.500000
20
195.682669
11
182.500000
21
224.500000
0
LINE
5
1db
100
AcDbEntity
8
1
100
AcDbLine
6
CONTINUOUS
62
5
10
242.500000
20
196.006211
11
242.500000
21
224.500000
0
POLYLINE
5
1dc
100
AcDbEntity
8
1
6
CONTINUOUS
62
5
100
AcDb2dPolyline
66
1
10
0.0
20
0.0
30
0.0
70
0
0
VERTEX
5
1dd
100
AcDbEntity
8
1
100
AcDbVertex
100
AcDb2dVertex
62
5
10
212.500000
20
222.500000
0
VERTEX
5
1de
100
AcDbEntity
8
1
100
AcDbVertex
100
AcDb2dVertex
62
5
10
182.500000
20
222.500000
0
VERTEX
5
1df
100
AcDbEntity
8
1
100
AcDbVertex
100
AcDb2dVertex
62
5
10
188.500000
20
223.500000
0
VERTEX
5
1e0
100
AcDbEntity
8
1
100
AcDbVertex
100
AcDb2dVertex
62
5
10
188.500000
20
221.500000
0
VERTEX
5
1e1
100
AcDbEntity
8
1
100
AcDbVertex
100
AcDb2dVertex
62
5
10
182.500000
20
222.500000
0
VERTEX
5
1e2
100
AcDbEntity
8
1
100
AcDbVertex
100
AcDb2dVertex
62
5
10
188.500000
20
223.000000
0
VERTEX
5
1e3
100
AcDbEntity
8
1
100
AcDbVertex
100
AcDb2dVertex
62
5
10
188.500000
20
222.000000
0
VERTEX
5
1e4
100
AcDbEntity
8
1
100
AcDbVertex
100
AcDb2dVertex
62
5
10
182.500000
20
222.500000
0
SEQEND
5
1e5
100
AcDbEntity
8
1
0
POLYLINE
5
1e6
100
AcDbEntity
8
1
6
CONTINUOUS
62
5
100
AcDb2dPolyline
66
1
10
0.0
20
0.0
30
0.0
70
0
0
VERTEX
5
1e7
100
AcDbEntity
8
1
100
AcDbVertex
100
AcDb2dVertex
62
5
10
212.500000
20
222.500000
0
VERTEX
5
1e8
100
AcDbEntity
8
1
100
AcDbVertex
100
AcDb2dVertex
62
5
10
242.500000
20
222.500000
0
VERTEX
5
1e9
100
AcDbEntity
8
1
100
AcDbVertex
100
AcDb2dVertex
62
5
10
236.500000
20
221.500000
0
VERTEX
5
1ea
100
AcDbEntity
8
1
100
AcDbVertex
100
AcDb2dVertex
62
5
10
236.500000
20
223.500000
0
VERTEX
5
1eb
100
AcDbEntity
8
1
100
AcDbVertex
100
AcDb2dVertex
62
5
10
242.500000
20
222.500000
0
VERTEX
5
1ec
100
AcDbEntity
8
1
100
AcDbVertex
100
AcDb2dVertex
62
5
10
236.500000
20
222.000000
0
VERTEX
5
1ed
100
AcDbEntity
8
1
100
AcDbVertex
100
AcDb2dVertex
62
5
10
236.500000
20
223.000000
0
VERTEX
5
1ee
100
AcDbEntity
8
1
100
AcDbVertex
100
AcDb2dVertex
62
5
10
242.500000
20
222.500000
0
SEQEND
5
1ef
100
AcDbEntity
8
1
0
POLYLINE
5
1f0
100
AcDbEntity
8
1
6
CONTINUOUS
62
5
100
AcDb2dPolyline
66
1
10
0.0
20
0.0
30
0.0
70
0
0
VERTEX
5
1f1
100
AcDbEntity
8
1
100
AcDbVertex
100
AcDb2dVertex
62
5
10
141.250000
20
326.187500
0
VERTEX
5
1f2
100
AcDbEntity
8
1
100
AcDbVertex
100
AcDb2dVertex
62
5
10
141.500000
20
326.187500
0
VERTEX
5
1f3
100
AcDbEntity
8
1
100
AcDbVertex
100
AcDb2dVertex
62
5
10
143.250000
20
324.937500
0
SEQEND
5
1f4
100
AcDbEntity
8
1
0
LINE
5
1f5
100
AcDbEntity
8
1
100
AcDbLine
6
CONTINUOUS
62
5
10
141.250000
20
329.000000
11
141.250000
21
321.500000
0
LINE
5
1f6
100
AcDbEntity
8
1
100
AcDbLine
6
CONTINUOUS
62
5
10
132.250000
20
325.562500
11
132.500000
21
324.312500
0
LINE
5
1f7
100
AcDbEntity
8
1
100
AcDbLine
6
CONTINUOUS
62
5
10
133.750000
20
325.875000
11
134.000000
21
324.625000
0
POLYLINE
5
1f8
100
AcDbEntity
8
1
6
CONTINUOUS
62
5
100
AcDb2dPolyline
66
1
10
0.0
20
0.0
30
0.0
70
0
0
VERTEX
5
1f9
100
AcDbEntity
8
1
100
AcDbVertex
100
AcDb2dVertex
62
5
10
135.750000
20
325.875000
0
VERTEX
5
1fa
100
AcDbEntity
8
1
100
AcDbVertex
100
AcDb2dVertex
62
5
10
135.500000
20
324.312500
0
VERTEX
5
1fb
100
AcDbEntity
8
1
100
AcDbVertex
100
AcDb2dVertex
62
5
10
134.250000
20
322.437500
0
VERTEX
5
1fc
100
AcDbEntity
8
1
100
AcDbVertex
100
AcDb2dVertex
62
5
10
133.250000
20
321.500000
0
SEQEND
5
1fd
100
AcDbEntity
8
1
0
POLYLINE
5
1fe
100
AcDbEntity
8
1
6
CONTINUOUS
62
5
100
AcDb2dPolyline
66
1
10
0.0
20
0.0
30
0.0
70
0
0
VERTEX
5
1ff
100
AcDbEntity
8
1
100
AcDbVertex
100
AcDb2dVertex
62
5
10
131.000000
20
317.437500
0
VERTEX
5
200
100
AcDbEntity
8
1
100
AcDbVertex
100
AcDb2dVertex
62
5
10
136.250000
20
317.437500
0
VERTEX
5
201
100
AcDbEntity
8
1
100
AcDbVertex
100
AcDb2dVertex
62
5
10
136.250000
20
317.125000
0
VERTEX
5
202
100
AcDbEntity
8
1
100
AcDbVertex
100
AcDb2dVertex
62
5
10
134.500000
20
315.250000
0
VERTEX
5
203
100
AcDbEntity
8
1
100
AcDbVertex
100
AcDb2dVertex
62
5
10
133.750000
20
315.250000
0
SEQEND
5
204
100
AcDbEntity
8
1
0
POLYLINE
5
205
100
AcDbEntity
8
1
6
CONTINUOUS
62
5
100
AcDb2dPolyline
66
1
10
0.0
20
0.0
30
0.0
70
0
0
VERTEX
5
206
100
AcDbEntity
8
1
100
AcDbVertex
100
AcDb2dVertex
62
5
10
133.750000
20
316.187500
0
VERTEX
5
207
100
AcDbEntity
8
1
100
AcDbVertex
100
AcDb2dVertex
62
5
10
133.750000
20
314.625000
0
VERTEX
5
208
100
AcDbEntity
8
1
100
AcDbVertex
100
AcDb2dVertex
62
5
10
133.000000
20
312.750000
0
VERTEX
5
209
100
AcDbEntity
8
1
100
AcDbVertex
100
AcDb2dVertex
62
5
10
132.000000
20
311.500000
0
SEQEND
5
20a
100
AcDbEntity
8
1
0
LINE
5
20b
100
AcDbEntity
8
1
100
AcDbLine
6
CONTINUOUS
62
5
10
139.000000
20
316.187500
11
145.000000
21
316.187500
0
POLYLINE
5
20c
100
AcDbEntity
8
1
6
CONTINUOUS
62
5
100
AcDb2dPolyline
66
1
10
0.0
20
0.0
30
0.0
70
0
0
VERTEX
5
20d
100
AcDbEntity
8
1
100
AcDbVertex
100
AcDb2dVertex
62
5
10
142.250000
20
318.375000
0
VERTEX
5
20e
100
AcDbEntity
8
1
100
AcDbVertex
100
AcDb2dVertex
62
5
10
142.250000
20
315.250000
0
VERTEX
5
20f
100
AcDbEntity
8
1
100
AcDbVertex
100
AcDb2dVertex
62
5
10
141.750000
20
313.687500
0
VERTEX
5
210
100
AcDbEntity
8
1
100
AcDbVertex
100
AcDb2dVertex
62
5
10
141.000000
20
312.437500
0
VERTEX
5
211
100
AcDbEntity
8
1
100
AcDbVertex
100
AcDb2dVertex
62
5
10
140.250000
20
311.812500
0
SEQEND
5
212
100
AcDbEntity
8
1
0
LINE
5
213
100
AcDbEntity
8
1
100
AcDbLine
6
CONTINUOUS
62
5
10
124.000000
20
327.125000
11
127.500000
21
327.125000
0
LINE
5
214
100
AcDbEntity
8
1
100
AcDbLine
6
CONTINUOUS
62
5
10
123.000000
20
323.062500
11
128.500000
21
323.062500
0
LINE
5
215
100
AcDbEntity
8
1
100
AcDbLine
6
CONTINUOUS
62
5
10
123.750000
20
319.312500
11
122.250000
21
317.437500
0
POLYLINE
5
216
100
AcDbEntity
8
1
6
CONTINUOUS
62
5
100
AcDb2dPolyline
66
1
10
0.0
20
0.0
30
0.0
70
0
0
VERTEX
5
217
100
AcDbEntity
8
1
100
AcDbVertex
100
AcDb2dVertex
62
5
10
123.750000
20
317.125000
0
VERTEX
5
218
100
AcDbEntity
8
1
100
AcDbVertex
100
AcDb2dVertex
62
5
10
123.250000
20
315.875000
0
VERTEX
5
219
100
AcDbEntity
8
1
100
AcDbVertex
100
AcDb2dVertex
62
5
10
122.250000
20
314.000000
0
SEQEND
5
21a
100
AcDbEntity
8
1
0
LINE
5
21b
100
AcDbEntity
8
1
100
AcDbLine
6
CONTINUOUS
62
5
10
123.250000
20
315.875000
11
123.250000
21
310.562500
0
LINE
5
21c
100
AcDbEntity
8
1
100
AcDbLine
6
CONTINUOUS
62
5
10
125.250000
20
319.312500
11
124.250000
21
317.125000
0
LINE
5
21d
100
AcDbEntity
8
1
100
AcDbLine
6
CONTINUOUS
62
5
10
124.750000
20
318.062500
11
127.000000
21
318.062500
0
LINE
5
21e
100
AcDbEntity
8
1
100
AcDbLine
6
CONTINUOUS
62
5
10
124.250000
20
315.875000
11
127.000000
21
315.875000
0
LINE
5
21f
100
AcDbEntity
8
1
100
AcDbLine
6
CONTINUOUS
62
5
10
125.750000
20
318.062500
11
125.750000
21
312.437500
0
LINE
5
220
100
AcDbEntity
8
1
100
AcDbLine
6
CONTINUOUS
62
5
10
125.750000
20
314.312500
11
127.000000
21
314.312500
0
LINE
5
221
100
AcDbEntity
8
1
100
AcDbLine
6
CONTINUOUS
62
5
10
124.500000
20
314.625000
11
124.500000
21
311.812500
0
LINE
5
222
100
AcDbEntity
8
1
100
AcDbLine
6
CONTINUOUS
62
5
10
124.000000
20
311.500000
11
127.000000
21
312.750000
0
POLYLINE
5
223
100
AcDbEntity
8
1
6
CONTINUOUS
62
5
100
AcDb2dPolyline
66
1
10
0.0
20
0.0
30
0.0
70
0
0
VERTEX
5
224
100
AcDbEntity
8
1
100
AcDbVertex
100
AcDb2dVertex
62
5
10
127.500000
20
310.562500
0
VERTEX
5
225
100
AcDbEntity
8
1
100
AcDbVertex
100
AcDb2dVertex
62
5
10
127.500000
20
318.687500
0
VERTEX
5
226
100
AcDbEntity
8
1
100
AcDbVertex
100
AcDb2dVertex
62
5
10
129.250000
20
318.687500
0
VERTEX
5
227
100
AcDbEntity
8
1
100
AcDbVertex
100
AcDb2dVertex
62
5
10
129.250000
20
313.062500
0
VERTEX
5
228
100
AcDbEntity
8
1
100
AcDbVertex
100
AcDb2dVertex
62
5
10
128.250000
20
313.062500
0
SEQEND
5
229
100
AcDbEntity
8
1
0
POLYLINE
5
22a
100
AcDbEntity
8
1
6
CONTINUOUS
62
5
100
AcDb2dPolyline
66
1
10
0.0
20
0.0
30
0.0
70
0
0
VERTEX
5
22b
100
AcDbEntity
8
1
100
AcDbVertex
100
AcDb2dVertex
62
5
10
115.250000
20
319.000000
0
VERTEX
5
22c
100
AcDbEntity
8
1
100
AcDbVertex
100
AcDb2dVertex
62
5
10
115.000000
20
318.062500
0
VERTEX
5
22d
100
AcDbEntity
8
1
100
AcDbVertex
100
AcDb2dVertex
62
5
10
114.250000
20
317.125000
0
SEQEND
5
22e
100
AcDbEntity
8
1
0
LINE
5
22f
100
AcDbEntity
8
1
100
AcDbLine
6
CONTINUOUS
62
5
10
115.000000
20
318.062500
11
118.250000
21
318.062500
0
LINE
5
230
100
AcDbEntity
8
1
100
AcDbLine
6
CONTINUOUS
62
5
10
114.750000
20
316.187500
11
118.500000
21
316.187500
0
POLYLINE
5
231
100
AcDbEntity
8
1
6
CONTINUOUS
62
5
100
AcDb2dPolyline
66
1
10
0.0
20
0.0
30
0.0
70
0
0
VERTEX
5
232
100
AcDbEntity
8
1
100
AcDbVertex
100
AcDb2dVertex
62
5
10
114.750000
20
311.812500
0
VERTEX
5
233
100
AcDbEntity
8
1
100
AcDbVertex
100
AcDb2dVertex
62
5
10
114.750000
20
314.625000
0
VERTEX
5
234
100
AcDbEntity
8
1
100
AcDbVertex
100
AcDb2dVertex
62
5
10
118.250000
20
314.625000
0
VERTEX
5
235
100
AcDbEntity
8
1
100
AcDbVertex
100
AcDb2dVertex
62
5
10
118.250000
20
312.125000
0
VERTEX
5
236
100
AcDbEntity
8
1
100
AcDbVertex
100
AcDb2dVertex
62
5
10
117.750000
20
311.500000
0
VERTEX
5
237
100
AcDbEntity
8
1
100
AcDbVertex
100
AcDb2dVertex
62
5
10
117.250000
20
311.500000
0
SEQEND
5
238
100
AcDbEntity
8
1
0
LINE
5
239
100
AcDbEntity
8
1
100
AcDbLine
6
CONTINUOUS
62
5
10
116.500000
20
319.312500
11
116.500000
21
310.875000
0
LINE
5
23a
100
AcDbEntity
8
1
100
AcDbLine
6
CONTINUOUS
62
5
10
119.500000
20
313.375000
11
119.500000
21
318.375000
0
POLYLINE
5
23b
100
AcDbEntity
8
1
6
CONTINUOUS
62
5
100
AcDb2dPolyline
66
1
10
0.0
20
0.0
30
0.0
70
0
0
VERTEX
5
23c
100
AcDbEntity
8
1
100
AcDbVertex
100
AcDb2dVertex
62
5
10
121.000000
20
319.312500
0
VERTEX
5
23d
100
AcDbEntity
8
1
100
AcDbVertex
100
AcDb2dVertex
62
5
10
121.000000
20
310.875000
0
VERTEX
5
23e
100
AcDbEntity
8
1
100
AcDbVertex
100
AcDb2dVertex
62
5
10
120.250000
20
311.500000
0
SEQEND
5
23f
100
AcDbEntity
8
1
0
POLYLINE
5
240
100
AcDbEntity
8
1
6
CONTINUOUS
62
5
100
AcDb2dPolyline
66
1
10
0.0
20
0.0
30
0.0
70
0
0
VERTEX
5
241
100
AcDbEntity
8
1
100
AcDbVertex
100
AcDb2dVertex
62
5
10
115.750000
20
327.437500
0
VERTEX
5
242
100
AcDbEntity
8
1
100
AcDbVertex
100
AcDb2dVertex
62
5
10
119.000000
20
327.437500
0
VERTEX
5
243
100
AcDbEntity
8
1
100
AcDbVertex
100
AcDb2dVertex
62
5
10
118.750000
20
322.125000
0
SEQEND
5
244
100
AcDbEntity
8
1
0
LINE
5
245
100
AcDbEntity
8
1
100
AcDbLine
6
CONTINUOUS
62
5
10
115.000000
20
322.125000
11
120.500000
21
322.125000
0
LINE
5
246
100
AcDbEntity
8
1
100
AcDbLine
6
CONTINUOUS
62
5
10
91.750000
20
327.437500
11
92.750000
21
326.187500
0
POLYLINE
5
247
100
AcDbEntity
8
1
6
CONTINUOUS
62
5
100
AcDb2dPolyline
66
1
10
0.0
20
0.0
30
0.0
70
0
0
VERTEX
5
248
100
AcDbEntity
8
1
100
AcDbVertex
100
AcDb2dVertex
62
5
10
91.500000
20
322.437500
0
VERTEX
5
249
100
AcDbEntity
8
1
100
AcDbVertex
100
AcDb2dVertex
62
5
10
93.250000
20
323.375000
0
VERTEX
5
24a
100
AcDbEntity
8
1
100
AcDbVertex
100
AcDb2dVertex
62
5
10
94.750000
20
324.625000
0
VERTEX
5
24b
100
AcDbEntity
8
1
100
AcDbVertex
100
AcDb2dVertex
62
5
10
96.250000
20
326.187500
0
SEQEND
5
24c
100
AcDbEntity
8
1
0
LINE
5
24d
100
AcDbEntity
8
1
100
AcDbLine
6
CONTINUOUS
62
5
10
98.500000
20
329.000000
11
100.500000
21
329.000000
0
LINE
5
24e
100
AcDbEntity
8
1
100
AcDbLine
6
CONTINUOUS
62
5
10
98.250000
20
327.750000
11
101.000000
21
327.750000
0
LINE
5
24f
100
AcDbEntity
8
1
100
AcDbLine
6
CONTINUOUS
62
5
10
98.750000
20
326.500000
11
100.500000
21
326.500000
0
LINE
5
250
100
AcDbEntity
8
1
100
AcDbLine
6
CONTINUOUS
62
5
10
98.750000
20
324.937500
11
100.500000
21
324.937500
0
POLYLINE
5
251
100
AcDbEntity
8
1
6
CONTINUOUS
62
5
100
AcDb2dPolyline
66
1
10
0.0
20
0.0
30
0.0
70
1
0
VERTEX
5
252
100
AcDbEntity
8
1
100
AcDbVertex
100
AcDb2dVertex
62
5
10
98.500000
20
323.375000
0
VERTEX
5
253
100
AcDbEntity
8
1
100
AcDbVertex
100
AcDb2dVertex
62
5
10
100.750000
20
323.375000
0
VERTEX
5
254
100
AcDbEntity
8
1
100
AcDbVertex
100
AcDb2dVertex
62
5
10
100.750000
20
321.187500
0
VERTEX
5
255
100
AcDbEntity
8
1
100
AcDbVertex
100
AcDb2dVertex
62
5
10
98.500000
20
321.187500
0
VERTEX
5
256
100
AcDbEntity
8
1
100
AcDbVertex
100
AcDb2dVertex
62
5
10
98.500000
20
323.375000
0
SEQEND
5
257
100
AcDbEntity
8
1
0
POLYLINE
5
258
100
AcDbEntity
8
1
6
CONTINUOUS
62
5
100
AcDb2dPolyline
66
1
10
0.0
20
0.0
30
0.0
70
0
0
VERTEX
5
259
100
AcDbEntity
8
1
100
AcDbVertex
100
AcDb2dVertex
62
5
10
101.250000
20
325.875000
0
VERTEX
5
25a
100
AcDbEntity
8
1
100
AcDbVertex
100
AcDb2dVertex
62
5
10
101.750000
20
326.187500
0
VERTEX
5
25b
100
AcDbEntity
8
1
100
AcDbVertex
100
AcDb2dVertex
62
5
10
102.000000
20
327.125000
0
VERTEX
5
25c
100
AcDbEntity
8
1
100
AcDbVertex
100
AcDb2dVertex
62
5
10
102.000000
20
329.000000
0
VERTEX
5
25d
100
AcDbEntity
8
1
100
AcDbVertex
100
AcDb2dVertex
62
5
10
104.000000
20
329.000000
0
VERTEX
5
25e
100
AcDbEntity
8
1
100
AcDbVertex
100
AcDb2dVertex
62
5
10
104.000000
20
325.875000
0
VERTEX
5
25f
100
AcDbEntity
8
1
100
AcDbVertex
100
AcDb2dVertex
62
5
10
105.250000
20
325.875000
0
VERTEX
5
260
100
AcDbEntity
8
1
100
AcDbVertex
100
AcDb2dVertex
62
5
10
105.500000
20
326.812500
0
SEQEND
5
261
100
AcDbEntity
8
1
0
POLYLINE
5
262
100
AcDbEntity
8
1
6
CONTINUOUS
62
5
100
AcDb2dPolyline
66
1
10
0.0
20
0.0
30
0.0
70
0
0
VERTEX
5
263
100
AcDbEntity
8
1
100
AcDbVertex
100
AcDb2dVertex
62
5
10
101.250000
20
324.937500
0
VERTEX
5
264
100
AcDbEntity
8
1
100
AcDbVertex
100
AcDb2dVertex
62
5
10
104.750000
20
324.937500
0
VERTEX
5
265
100
AcDbEntity
8
1
100
AcDbVertex
100
AcDb2dVertex
62
5
10
103.250000
20
322.437500
0
VERTEX
5
266
100
AcDbEntity
8
1
100
AcDbVertex
100
AcDb2dVertex
62
5
10
102.750000
20
321.812500
0
VERTEX
5
267
100
AcDbEntity
8
1
100
AcDbVertex
100
AcDb2dVertex
62
5
10
102.000000
20
321.187500
0
VERTEX
5
268
100
AcDbEntity
8
1
100
AcDbVertex
100
AcDb2dVertex
62
5
10
101.250000
20
320.875000
0
SEQEND
5
269
100
AcDbEntity
8
1
0
POLYLINE
5
26a
100
AcDbEntity
8
1
6
CONTINUOUS
62
5
100
AcDb2dPolyline
66
1
10
0.0
20
0.0
30
0.0
70
0
0
VERTEX
5
26b
100
AcDbEntity
8
1
100
AcDbVertex
100
AcDb2dVertex
62
5
10
102.250000
20
324.000000
0
VERTEX
5
26c
100
AcDbEntity
8
1
100
AcDbVertex
100
AcDb2dVertex
62
5
10
103.250000
20
322.437500
0
VERTEX
5
26d
100
AcDbEntity
8
1
100
AcDbVertex
100
AcDb2dVertex
62
5
10
104.250000
20
321.187500
0
VERTEX
5
26e
100
AcDbEntity
8
1
100
AcDbVertex
100
AcDb2dVertex
62
5
10
105.250000
20
320.875000
0
SEQEND
5
26f
100
AcDbEntity
8
1
0
LINE
5
270
100
AcDbEntity
8
1
100
AcDbLine
6
CONTINUOUS
62
5
10
100.250000
20
315.562500
11
100.500000
21
314.312500
0
LINE
5
271
100
AcDbEntity
8
1
100
AcDbLine
6
CONTINUOUS
62
5
10
101.750000
20
315.875000
11
102.000000
21
314.625000
0
POLYLINE
5
272
100
AcDbEntity
8
1
6
CONTINUOUS
62
5
100
AcDb2dPolyline
66
1
10
0.0
20
0.0
30
0.0
70
0
0
VERTEX
5
273
100
AcDbEntity
8
1
100
AcDbVertex
100
AcDb2dVertex
62
5
10
103.750000
20
315.875000
0
VERTEX
5
274
100
AcDbEntity
8
1
100
AcDbVertex
100
AcDb2dVertex
62
5
10
103.500000
20
314.312500
0
VERTEX
5
275
100
AcDbEntity
8
1
100
AcDbVertex
100
AcDb2dVertex
62
5
10
102.250000
20
312.437500
0
VERTEX
5
276
100
AcDbEntity
8
1
100
AcDbVertex
100
AcDb2dVertex
62
5
10
101.250000
20
311.500000
0
SEQEND
5
277
100
AcDbEntity
8
1
0
POLYLINE
5
278
100
AcDbEntity
8
1
6
CONTINUOUS
62
5
100
AcDb2dPolyline
66
1
10
0.0
20
0.0
30
0.0
70
0
0
VERTEX
5
279
100
AcDbEntity
8
1
100
AcDbVertex
100
AcDb2dVertex
62
5
10
92.500000
20
315.875000
0
VERTEX
5
27a
100
AcDbEntity
8
1
100
AcDbVertex
100
AcDb2dVertex
62
5
10
95.250000
20
315.875000
0
VERTEX
5
27b
100
AcDbEntity
8
1
100
AcDbVertex
100
AcDb2dVertex
62
5
10
95.250000
20
312.125000
0
VERTEX
5
27c
100
AcDbEntity
8
1
100
AcDbVertex
100
AcDb2dVertex
62
5
10
92.500000
20
312.125000
0
SEQEND
5
27d
100
AcDbEntity
8
1
0
LINE
5
27e
100
AcDbEntity
8
1
100
AcDbLine
6
CONTINUOUS
62
5
10
92.500000
20
314.000000
11
95.250000
21
314.000000
0
LINE
5
27f
100
AcDbEntity
8
1
100
AcDbLine
6
CONTINUOUS
62
5
10
84.500000
20
318.062500
11
85.750000
21
316.812500
0
LINE
5
280
100
AcDbEntity
8
1
100
AcDbLine
6
CONTINUOUS
62
5
10
83.500000
20
316.187500
11
84.500000
21
314.937500
0
POLYLINE
5
281
100
AcDbEntity
8
1
6
CONTINUOUS
62
5
100
AcDb2dPolyline
66
1
10
0.0
20
0.0
30
0.0
70
0
0
VERTEX
5
282
100
AcDbEntity
8
1
100
AcDbVertex
100
AcDb2dVertex
62
5
10
84.000000
20
311.812500
0
VERTEX
5
283
100
AcDbEntity
8
1
100
AcDbVertex
100
AcDb2dVertex
62
5
10
85.250000
20
312.437500
0
VERTEX
5
284
100
AcDbEntity
8
1
100
AcDbVertex
100
AcDb2dVertex
62
5
10
87.250000
20
314.000000
0
VERTEX
5
285
100
AcDbEntity
8
1
100
AcDbVertex
100
AcDb2dVertex
62
5
10
89.000000
20
315.875000
0
SEQEND
5
286
100
AcDbEntity
8
1
0
LINE
5
287
100
AcDbEntity
8
1
100
AcDbLine
6
CONTINUOUS
62
5
10
75.750000
20
317.437500
11
76.750000
21
316.187500
0
POLYLINE
5
288
100
AcDbEntity
8
1
6
CONTINUOUS
62
5
100
AcDb2dPolyline
66
1
10
0.0
20
0.0
30
0.0
70
0
0
VERTEX
5
289
100
AcDbEntity
8
1
100
AcDbVertex
100
AcDb2dVertex
62
5
10
75.500000
20
312.437500
0
VERTEX
5
28a
100
AcDbEntity
8
1
100
AcDbVertex
100
AcDb2dVertex
62
5
10
77.250000
20
313.375000
0
VERTEX
5
28b
100
AcDbEntity
8
1
100
AcDbVertex
100
AcDb2dVertex
62
5
10
78.750000
20
314.625000
0
VERTEX
5
28c
100
AcDbEntity
8
1
100
AcDbVertex
100
AcDb2dVertex
62
5
10
80.250000
20
316.187500
0
SEQEND
5
28d
100
AcDbEntity
8
1
0
POLYLINE
5
28e
100
AcDbEntity
8
1
6
CONTINUOUS
62
5
100
AcDb2dPolyline
66
1
10
0.0
20
0.0
30
0.0
70
0
0
VERTEX
5
28f
100
AcDbEntity
8
1
100
AcDbVertex
100
AcDb2dVertex
62
5
10
75.750000
20
324.937500
0
VERTEX
5
290
100
AcDbEntity
8
1
100
AcDbVertex
100
AcDb2dVertex
62
5
10
76.750000
20
326.187500
0
VERTEX
5
291
100
AcDbEntity
8
1
100
AcDbVertex
100
AcDb2dVertex
62
5
10
77.500000
20
327.437500
0
VERTEX
5
292
100
AcDbEntity
8
1
100
AcDbVertex
100
AcDb2dVertex
62
5
10
80.000000
20
327.437500
0
VERTEX
5
293
100
AcDbEntity
8
1
100
AcDbVertex
100
AcDb2dVertex
62
5
10
80.000000
20
327.125000
0
VERTEX
5
294
100
AcDbEntity
8
1
100
AcDbVertex
100
AcDb2dVertex
62
5
10
79.000000
20
324.625000
0
VERTEX
5
295
100
AcDbEntity
8
1
100
AcDbVertex
100
AcDb2dVertex
62
5
10
77.750000
20
322.750000
0
VERTEX
5
296
100
AcDbEntity
8
1
100
AcDbVertex
100
AcDb2dVertex
62
5
10
76.250000
20
321.500000
0
SEQEND
5
297
100
AcDbEntity
8
1
0
LINE
5
298
100
AcDbEntity
8
1
100
AcDbLine
6
CONTINUOUS
62
5
10
77.500000
20
325.562500
11
78.750000
21
324.312500
0
POLYLINE
5
299
100
AcDbEntity
8
1
6
CONTINUOUS
62
5
100
AcDb2dPolyline
66
1
10
0.0
20
0.0
30
0.0
70
0
0
VERTEX
5
29a
100
AcDbEntity
8
1
100
AcDbVertex
100
AcDb2dVertex
62
5
10
82.750000
20
325.562500
0
VERTEX
5
29b
100
AcDbEntity
8
1
100
AcDbVertex
100
AcDb2dVertex
62
5
10
83.000000
20
325.250000
0
VERTEX
5
29c
100
AcDbEntity
8
1
100
AcDbVertex
100
AcDb2dVertex
62
5
10
89.750000
20
325.250000
0
SEQEND
5
29d
100
AcDbEntity
8
1
0
LINE
5
29e
100
AcDbEntity
8
1
100
AcDbLine
6
CONTINUOUS
62
5
10
109.750000
20
329.625000
11
109.750000
21
328.687500
0
POLYLINE
5
29f
100
AcDbEntity
8
1
6
CONTINUOUS
62
5
100
AcDb2dPolyline
66
1
10
0.0
20
0.0
30
0.0
70
0
0
VERTEX
5
2a0
100
AcDbEntity
8
1
100
AcDbVertex
100
AcDb2dVertex
62
5
10
106.750000
20
326.500000
0
VERTEX
5
2a1
100
AcDbEntity
8
1
100
AcDbVertex
100
AcDb2dVertex
62
5
10
106.750000
20
328.687500
0
VERTEX
5
2a2
100
AcDbEntity
8
1
100
AcDbVertex
100
AcDb2dVertex
62
5
10
112.750000
20
328.687500
0
VERTEX
5
2a3
100
AcDbEntity
8
1
100
AcDbVertex
100
AcDb2dVertex
62
5
10
112.750000
20
326.500000
0
SEQEND
5
2a4
100
AcDbEntity
8
1
0
LINE
5
2a5
100
AcDbEntity
8
1
100
AcDbLine
6
CONTINUOUS
62
5
10
107.500000
20
326.812500
11
112.000000
21
326.812500
0
LINE
5
2a6
100
AcDbEntity
8
1
100
AcDbLine
6
CONTINUOUS
62
5
10
109.750000
20
326.812500
11
109.750000
21
321.500000
0
LINE
5
2a7
100
AcDbEntity
8
1
100
AcDbLine
6
CONTINUOUS
62
5
10
109.750000
20
324.312500
11
112.000000
21
324.312500
0
POLYLINE
5
2a8
100
AcDbEntity
8
1
6
CONTINUOUS
62
5
100
AcDb2dPolyline
66
1
10
0.0
20
0.0
30
0.0
70
0
0
VERTEX
5
2a9
100
AcDbEntity
8
1
100
AcDbVertex
100
AcDb2dVertex
62
5
10
108.000000
20
324.937500
0
VERTEX
5
2aa
100
AcDbEntity
8
1
100
AcDbVertex
100
AcDb2dVertex
62
5
10
107.750000
20
323.062500
0
VERTEX
5
2ab
100
AcDbEntity
8
1
100
AcDbVertex
100
AcDb2dVertex
62
5
10
107.250000
20
321.812500
0
VERTEX
5
2ac
100
AcDbEntity
8
1
100
AcDbVertex
100
AcDb2dVertex
62
5
10
106.500000
20
320.875000
0
SEQEND
5
2ad
100
AcDbEntity
8
1
0
POLYLINE
5
2ae
100
AcDbEntity
8
1
6
CONTINUOUS
62
5
100
AcDb2dPolyline
66
1
10
0.0
20
0.0
30
0.0
70
0
0
VERTEX
5
2af
100
AcDbEntity
8
1
100
AcDbVertex
100
AcDb2dVertex
62
5
10
107.750000
20
323.062500
0
VERTEX
5
2b0
100
AcDbEntity
8
1
100
AcDbVertex
100
AcDb2dVertex
62
5
10
109.750000
20
321.500000
0
VERTEX
5
2b1
100
AcDbEntity
8
1
100
AcDbVertex
100
AcDb2dVertex
62
5
10
110.750000
20
321.187500
0
VERTEX
5
2b2
100
AcDbEntity
8
1
100
AcDbVertex
100
AcDb2dVertex
62
5
10
113.250000
20
320.875000
0
SEQEND
5
2b3
100
AcDbEntity
8
1
0
POLYLINE
5
2b4
100
AcDbEntity
8
1
6
CONTINUOUS
62
5
100
AcDb2dPolyline
66
1
10
0.0
20
0.0
30
0.0
70
0
0
VERTEX
5
2b5
100
AcDbEntity
8
1
100
AcDbVertex
100
AcDb2dVertex
62
5
10
109.250000
20
316.187500
0
VERTEX
5
2b6
100
AcDbEntity
8
1
100
AcDbVertex
100
AcDb2dVertex
62
5
10
109.500000
20
316.187500
0
VERTEX
5
2b7
100
AcDbEntity
8
1
100
AcDbVertex
100
AcDb2dVertex
62
5
10
111.250000
20
314.937500
0
SEQEND
5
2b8
100
AcDbEntity
8
1
0
LINE
5
2b9
100
AcDbEntity
8
1
100
AcDbLine
6
CONTINUOUS
62
5
10
109.250000
20
319.000000
11
109.250000
21
311.500000
0
LINE
5
2ba
100
AcDbEntity
8
1
100
AcDbLine
6
CONTINUOUS
62
5
10
72.500000
20
286.750000
11
75.625000
21
286.750000
0
POLYLINE
5
2bb
100
AcDbEntity
8
1
6
CONTINUOUS
62
5
100
AcDb2dPolyline
66
1
10
0.0
20
0.0
30
0.0
70
0
0
VERTEX
5
2bc
100
AcDbEntity
8
1
100
AcDbVertex
100
AcDb2dVertex
62
5
10
78.125000
20
289.875000
0
VERTEX
5
2bd
100
AcDbEntity
8
1
100
AcDbVertex
100
AcDb2dVertex
62
5
10
79.062500
20
290.500000
0
VERTEX
5
2be
100
AcDbEntity
8
1
100
AcDbVertex
100
AcDb2dVertex
62
5
10
79.062500
20
283.000000
0
SEQEND
5
2bf
100
AcDbEntity
8
1
0
LINE
5
2c0
100
AcDbEntity
8
1
100
AcDbLine
6
CONTINUOUS
62
5
10
78.437500
20
283.000000
11
79.687500
21
283.000000
0
POLYLINE
5
2c1
100
AcDbEntity
8
1
6
CONTINUOUS
62
5
100
AcDb2dPolyline
66
1
10
0.0
20
0.0
30
0.0
70
0
0
VERTEX
5
2c2
100
AcDbEntity
8
1
100
AcDbVertex
100
AcDb2dVertex
62
5
10
65.625000
20
288.937500
0
VERTEX
5
2c3
100
AcDbEntity
8
1
100
AcDbVertex
100
AcDb2dVertex
62
5
10
65.312500
20
289.875000
0
VERTEX
5
2c4
100
AcDbEntity
8
1
100
AcDbVertex
100
AcDb2dVertex
62
5
10
64.687500
20
290.500000
0
VERTEX
5
2c5
100
AcDbEntity
8
1
100
AcDbVertex
100
AcDb2dVertex
62
5
10
63.750000
20
290.500000
0
VERTEX
5
2c6
100
AcDbEntity
8
1
100
AcDbVertex
100
AcDb2dVertex
62
5
10
62.812500
20
289.562500
0
VERTEX
5
2c7
100
AcDbEntity
8
1
100
AcDbVertex
100
AcDb2dVertex
62
5
10
62.500000
20
288.000000
0
VERTEX
5
2c8
100
AcDbEntity
8
1
100
AcDbVertex
100
AcDb2dVertex
62
5
10
62.500000
20
285.500000
0
VERTEX
5
2c9
100
AcDbEntity
8
1
100
AcDbVertex
100
AcDb2dVertex
62
5
10
62.812500
20
283.937500
0
VERTEX
5
2ca
100
AcDbEntity
8
1
100
AcDbVertex
100
AcDb2dVertex
62
5
10
63.750000
20
283.000000
0
VERTEX
5
2cb
100
AcDbEntity
8
1
100
AcDbVertex
100
AcDb2dVertex
62
5
10
64.687500
20
283.000000
0
VERTEX
5
2cc
100
AcDbEntity
8
1
100
AcDbVertex
100
AcDb2dVertex
62
5
10
65.312500
20
283.625000
0
VERTEX
5
2cd
100
AcDbEntity
8
1
100
AcDbVertex
100
AcDb2dVertex
62
5
10
65.937500
20
285.187500
0
SEQEND
5
2ce
100
AcDbEntity
8
1
0
POLYLINE
5
2cf
100
AcDbEntity
8
1
6
CONTINUOUS
62
5
100
AcDb2dPolyline
66
1
10
0.0
20
0.0
30
0.0
70
0
0
VERTEX
5
2d0
100
AcDbEntity
8
1
100
AcDbVertex
100
AcDb2dVertex
62
5
10
55.312500
20
290.500000
0
VERTEX
5
2d1
100
AcDbEntity
8
1
100
AcDbVertex
100
AcDb2dVertex
62
5
10
55.312500
20
284.875000
0
VERTEX
5
2d2
100
AcDbEntity
8
1
100
AcDbVertex
100
AcDb2dVertex
62
5
10
55.000000
20
283.625000
0
VERTEX
5
2d3
100
AcDbEntity
8
1
100
AcDbVertex
100
AcDb2dVertex
62
5
10
54.375000
20
283.000000
0
VERTEX
5
2d4
100
AcDbEntity
8
1
100
AcDbVertex
100
AcDb2dVertex
62
5
10
53.437500
20
283.000000
0
VERTEX
5
2d5
100
AcDbEntity
8
1
100
AcDbVertex
100
AcDb2dVertex
62
5
10
52.812500
20
283.625000
0
VERTEX
5
2d6
100
AcDbEntity
8
1
100
AcDbVertex
100
AcDb2dVertex
62
5
10
52.500000
20
284.875000
0
SEQEND
5
2d7
100
AcDbEntity
8
1
0
LINE
5
2d8
100
AcDbEntity
8
1
100
AcDbLine
6
CONTINUOUS
62
5
10
57.500000
20
290.500000
11
57.500000
21
283.000000
0
POLYLINE
5
2d9
100
AcDbEntity
8
1
6
CONTINUOUS
62
5
100
AcDb2dPolyline
66
1
10
0.0
20
0.0
30
0.0
70
0
0
VERTEX
5
2da
100
AcDbEntity
8
1
100
AcDbVertex
100
AcDb2dVertex
62
5
10
57.500000
20
290.500000
0
VERTEX
5
2db
100
AcDbEntity
8
1
100
AcDbVertex
100
AcDb2dVertex
62
5
10
58.750000
20
290.500000
0
VERTEX
5
2dc
100
AcDbEntity
8
1
100
AcDbVertex
100
AcDb2dVertex
62
5
10
59.687500
20
290.187500
0
VERTEX
5
2dd
100
AcDbEntity
8
1
100
AcDbVertex
100
AcDb2dVertex
62
5
10
60.000000
20
289.875000
0
VERTEX
5
2de
100
AcDbEntity
8
1
100
AcDbVertex
100
AcDb2dVertex
62
5
10
60.312500
20
288.937500
0
VERTEX
5
2df
100
AcDbEntity
8
1
100
AcDbVertex
100
AcDb2dVertex
62
5
10
60.312500
20
288.000000
0
VERTEX
5
2e0
100
AcDbEntity
8
1
100
AcDbVertex
100
AcDb2dVertex
62
5
10
60.000000
20
287.375000
0
VERTEX
5
2e1
100
AcDbEntity
8
1
100
AcDbVertex
100
AcDb2dVertex
62
5
10
59.062500
20
286.750000
0
VERTEX
5
2e2
100
AcDbEntity
8
1
100
AcDbVertex
100
AcDb2dVertex
62
5
10
57.500000
20
286.750000
0
SEQEND
5
2e3
100
AcDbEntity
8
1
0
POLYLINE
5
2e4
100
AcDbEntity
8
1
6
CONTINUOUS
62
5
100
AcDb2dPolyline
66
1
10
0.0
20
0.0
30
0.0
70
0
0
VERTEX
5
2e5
100
AcDbEntity
8
1
100
AcDbVertex
100
AcDb2dVertex
62
5
10
59.062500
20
286.750000
0
VERTEX
5
2e6
100
AcDbEntity
8
1
100
AcDbVertex
100
AcDb2dVertex
62
5
10
59.687500
20
286.437500
0
VERTEX
5
2e7
100
AcDbEntity
8
1
100
AcDbVertex
100
AcDb2dVertex
62
5
10
60.000000
20
285.812500
0
VERTEX
5
2e8
100
AcDbEntity
8
1
100
AcDbVertex
100
AcDb2dVertex
62
5
10
60.000000
20
283.625000
0
VERTEX
5
2e9
100
AcDbEntity
8
1
100
AcDbVertex
100
AcDb2dVertex
62
5
10
60.312500
20
283.000000
0
VERTEX
5
2ea
100
AcDbEntity
8
1
100
AcDbVertex
100
AcDb2dVertex
62
5
10
60.625000
20
283.000000
0
VERTEX
5
2eb
100
AcDbEntity
8
1
100
AcDbVertex
100
AcDb2dVertex
62
5
10
60.937500
20
283.625000
0
SEQEND
5
2ec
100
AcDbEntity
8
1
0
POLYLINE
5
2ed
100
AcDbEntity
8
1
6
CONTINUOUS
62
5
100
AcDb2dPolyline
66
1
10
0.0
20
0.0
30
0.0
70
0
0
VERTEX
5
2ee
100
AcDbEntity
8
1
100
AcDbVertex
100
AcDb2dVertex
62
5
10
68.750000
20
326.187500
0
VERTEX
5
2ef
100
AcDbEntity
8
1
100
AcDbVertex
100
AcDb2dVertex
62
5
10
67.750000
20
324.000000
0
VERTEX
5
2f0
100
AcDbEntity
8
1
100
AcDbVertex
100
AcDb2dVertex
62
5
10
66.750000
20
322.750000
0
SEQEND
5
2f1
100
AcDbEntity
8
1
0
POLYLINE
5
2f2
100
AcDbEntity
8
1
6
CONTINUOUS
62
5
100
AcDb2dPolyline
66
1
10
0.0
20
0.0
30
0.0
70
0
0
VERTEX
5
2f3
100
AcDbEntity
8
1
100
AcDbVertex
100
AcDb2dVertex
62
5
10
70.750000
20
326.187500
0
VERTEX
5
2f4
100
AcDbEntity
8
1
100
AcDbVertex
100
AcDb2dVertex
62
5
10
72.000000
20
324.312500
0
VERTEX
5
2f5
100
AcDbEntity
8
1
100
AcDbVertex
100
AcDb2dVertex
62
5
10
72.500000
20
322.750000
0
SEQEND
5
2f6
100
AcDbEntity
8
1
0
POLYLINE
5
2f7
100
AcDbEntity
8
1
6
CONTINUOUS
62
5
100
AcDb2dPolyline
66
1
10
0.0
20
0.0
30
0.0
70
1
0
VERTEX
5
2f8
100
AcDbEntity
8
1
100
AcDbVertex
100
AcDb2dVertex
62
5
10
72.250000
20
328.062500
0
VERTEX
5
2f9
100
AcDbEntity
8
1
100
AcDbVertex
100
AcDb2dVertex
62
5
10
72.750000
20
328.062500
0
VERTEX
5
2fa
100
AcDbEntity
8
1
100
AcDbVertex
100
AcDb2dVertex
62
5
10
73.000000
20
327.750000
0
VERTEX
5
2fb
100
AcDbEntity
8
1
100
AcDbVertex
100
AcDb2dVertex
62
5
10
73.000000
20
327.125000
0
VERTEX
5
2fc
100
AcDbEntity
8
1
100
AcDbVertex
100
AcDb2dVertex
62
5
10
72.750000
20
326.812500
0
VERTEX
5
2fd
100
AcDbEntity
8
1
100
AcDbVertex
100
AcDb2dVertex
62
5
10
72.250000
20
326.812500
0
VERTEX
5
2fe
100
AcDbEntity
8
1
100
AcDbVertex
100
AcDb2dVertex
62
5
10
72.000000
20
327.125000
0
VERTEX
5
2ff
100
AcDbEntity
8
1
100
AcDbVertex
100
AcDb2dVertex
62
5
10
72.000000
20
327.750000
0
VERTEX
5
300
100
AcDbEntity
8
1
100
AcDbVertex
100
AcDb2dVertex
62
5
10
72.250000
20
328.062500
0
SEQEND
5
301
100
AcDbEntity
8
1
0
POLYLINE
5
302
100
AcDbEntity
8
1
6
CONTINUOUS
62
5
100
AcDb2dPolyline
66
1
10
0.0
20
0.0
30
0.0
70
0
0
VERTEX
5
303
100
AcDbEntity
8
1
100
AcDbVertex
100
AcDb2dVertex
62
5
10
67.750000
20
315.562500
0
VERTEX
5
304
100
AcDbEntity
8
1
100
AcDbVertex
100
AcDb2dVertex
62
5
10
67.750000
20
317.750000
0
VERTEX
5
305
100
AcDbEntity
8
1
100
AcDbVertex
100
AcDb2dVertex
62
5
10
71.750000
20
317.750000
0
VERTEX
5
306
100
AcDbEntity
8
1
100
AcDbVertex
100
AcDb2dVertex
62
5
10
71.750000
20
316.812500
0
VERTEX
5
307
100
AcDbEntity
8
1
100
AcDbVertex
100
AcDb2dVertex
62
5
10
71.500000
20
315.250000
0
VERTEX
5
308
100
AcDbEntity
8
1
100
AcDbVertex
100
AcDb2dVertex
62
5
10
71.000000
20
314.000000
0
VERTEX
5
309
100
AcDbEntity
8
1
100
AcDbVertex
100
AcDb2dVertex
62
5
10
70.500000
20
313.062500
0
VERTEX
5
30a
100
AcDbEntity
8
1
100
AcDbVertex
100
AcDb2dVertex
62
5
10
69.500000
20
311.812500
0
SEQEND
5
30b
100
AcDbEntity
8
1
0
POLYLINE
5
30c
100
AcDbEntity
8
1
6
CONTINUOUS
62
5
100
AcDb2dPolyline
66
1
10
0.0
20
0.0
30
0.0
70
0
0
VERTEX
5
30d
100
AcDbEntity
8
1
100
AcDbVertex
100
AcDb2dVertex
62
5
10
67.500000
20
290.500000
0
VERTEX
5
30e
100
AcDbEntity
8
1
100
AcDbVertex
100
AcDb2dVertex
62
5
10
67.500000
20
284.562500
0
VERTEX
5
30f
100
AcDbEntity
8
1
100
AcDbVertex
100
AcDb2dVertex
62
5
10
67.812500
20
283.625000
0
VERTEX
5
310
100
AcDbEntity
8
1
100
AcDbVertex
100
AcDb2dVertex
62
5
10
68.125000
20
283.312500
0
VERTEX
5
311
100
AcDbEntity
8
1
100
AcDbVertex
100
AcDb2dVertex
62
5
10
68.750000
20
283.000000
0
VERTEX
5
312
100
AcDbEntity
8
1
100
AcDbVertex
100
AcDb2dVertex
62
5
10
69.375000
20
283.000000
0
VERTEX
5
313
100
AcDbEntity
8
1
100
AcDbVertex
100
AcDb2dVertex
62
5
10
70.000000
20
283.312500
0
VERTEX
5
314
100
AcDbEntity
8
1
100
AcDbVertex
100
AcDb2dVertex
62
5
10
70.312500
20
283.625000
0
VERTEX
5
315
100
AcDbEntity
8
1
100
AcDbVertex
100
AcDb2dVertex
62
5
10
70.625000
20
284.562500
0
VERTEX
5
316
100
AcDbEntity
8
1
100
AcDbVertex
100
AcDb2dVertex
62
5
10
70.625000
20
290.500000
0
SEQEND
5
317
100
AcDbEntity
8
1
0
POLYLINE
5
318
100
AcDbEntity
8
1
6
DOT2
62
5
100
AcDb2dPolyline
66
1
10
0.0
20
0.0
30
0.0
70
1
0
VERTEX
5
319
100
AcDbEntity
8
1
100
AcDbVertex
100
AcDb2dVertex
62
5
10
105.000000
20
231.250000
0
VERTEX
5
31a
100
AcDbEntity
8
1
100
AcDbVertex
100
AcDb2dVertex
62
5
10
105.625000
20
231.250000
0
VERTEX
5
31b
100
AcDbEntity
8
1
100
AcDbVertex
100
AcDb2dVertex
62
5
10
105.937500
20
230.937500
0
VERTEX
5
31c
100
AcDbEntity
8
1
100
AcDbVertex
100
AcDb2dVertex
62
5
10
106.562500
20
229.687500
0
VERTEX
5
31d
100
AcDbEntity
8
1
100
AcDbVertex
100
AcDb2dVertex
62
5
10
106.875000
20
228.437500
0
VERTEX
5
31e
100
AcDbEntity
8
1
100
AcDbVertex
100
AcDb2dVertex
62
5
10
106.875000
20
226.562500
0
VERTEX
5
31f
100
AcDbEntity
8
1
100
AcDbVertex
100
AcDb2dVertex
62
5
10
106.562500
20
225.312500
0
VERTEX
5
320
100
AcDbEntity
8
1
100
AcDbVertex
100
AcDb2dVertex
62
5
10
105.937500
20
224.062500
0
VERTEX
5
321
100
AcDbEntity
8
1
100
AcDbVertex
100
AcDb2dVertex
62
5
10
105.625000
20
223.750000
0
VERTEX
5
322
100
AcDbEntity
8
1
100
AcDbVertex
100
AcDb2dVertex
62
5
10
105.000000
20
223.750000
0
VERTEX
5
323
100
AcDbEntity
8
1
100
AcDbVertex
100
AcDb2dVertex
62
5
10
104.687500
20
224.062500
0
VERTEX
5
324
100
AcDbEntity
8
1
100
AcDbVertex
100
AcDb2dVertex
62
5
10
104.062500
20
225.312500
0
VERTEX
5
325
100
AcDbEntity
8
1
100
AcDbVertex
100
AcDb2dVertex
62
5
10
103.750000
20
226.562500
0
VERTEX
5
326
100
AcDbEntity
8
1
100
AcDbVertex
100
AcDb2dVertex
62
5
10
103.750000
20
228.437500
0
VERTEX
5
327
100
AcDbEntity
8
1
100
AcDbVertex
100
AcDb2dVertex
62
5
10
104.062500
20
229.687500
0
VERTEX
5
328
100
AcDbEntity
8
1
100
AcDbVertex
100
AcDb2dVertex
62
5
10
104.687500
20
230.937500
0
VERTEX
5
329
100
AcDbEntity
8
1
100
AcDbVertex
100
AcDb2dVertex
62
5
10
105.000000
20
231.250000
0
SEQEND
5
32a
100
AcDbEntity
8
1
0
LINE
5
32b
100
AcDbEntity
8
1
100
AcDbLine
6
DOT2
62
5
10
98.750000
20
231.250000
11
101.562500
21
231.250000
0
POLYLINE
5
32c
100
AcDbEntity
8
1
6
DOT2
62
5
100
AcDb2dPolyline
66
1
10
0.0
20
0.0
30
0.0
70
0
0
VERTEX
5
32d
100
AcDbEntity
8
1
100
AcDbVertex
100
AcDb2dVertex
62
5
10
98.750000
20
231.250000
0
VERTEX
5
32e
100
AcDbEntity
8
1
100
AcDbVertex
100
AcDb2dVertex
62
5
10
98.750000
20
227.500000
0
VERTEX
5
32f
100
AcDbEntity
8
1
100
AcDbVertex
100
AcDb2dVertex
62
5
10
99.375000
20
228.125000
0
VERTEX
5
330
100
AcDbEntity
8
1
100
AcDbVertex
100
AcDb2dVertex
62
5
10
100.000000
20
228.437500
0
VERTEX
5
331
100
AcDbEntity
8
1
100
AcDbVertex
100
AcDb2dVertex
62
5
10
100.937500
20
228.437500
0
VERTEX
5
332
100
AcDbEntity
8
1
100
AcDbVertex
100
AcDb2dVertex
62
5
10
101.562500
20
228.125000
0
VERTEX
5
333
100
AcDbEntity
8
1
100
AcDbVertex
100
AcDb2dVertex
62
5
10
101.875000
20
227.187500
0
VERTEX
5
334
100
AcDbEntity
8
1
100
AcDbVertex
100
AcDb2dVertex
62
5
10
101.875000
20
225.312500
0
VERTEX
5
335
100
AcDbEntity
8
1
100
AcDbVertex
100
AcDb2dVertex
62
5
10
101.250000
20
224.375000
0
VERTEX
5
336
100
AcDbEntity
8
1
100
AcDbVertex
100
AcDb2dVertex
62
5
10
100.312500
20
223.750000
0
VERTEX
5
337
100
AcDbEntity
8
1
100
AcDbVertex
100
AcDb2dVertex
62
5
10
98.750000
20
223.750000
0
SEQEND
5
338
100
AcDbEntity
8
1
0
POLYLINE
5
339
100
AcDbEntity
8
1
6
CONTINUOUS
62
5
100
AcDb2dPolyline
66
1
10
0.0
20
0.0
30
0.0
70
0
0
VERTEX
5
33a
100
AcDbEntity
8
1
100
AcDbVertex
100
AcDb2dVertex
62
5
10
122.030386
20
183.181904
0
VERTEX
5
33b
100
AcDbEntity
8
1
100
AcDbVertex
100
AcDb2dVertex
62
5
10
122.090599
20
183.090667
0
VERTEX
5
33c
100
AcDbEntity
8
1
100
AcDbVertex
100
AcDb2dVertex
62
5
10
122.182628
20
182.926508
0
SEQEND
5
33d
100
AcDbEntity
8
1
0
POLYLINE
5
33e
100
AcDbEntity
8
1
6
CONTINUOUS
62
5
100
AcDb2dPolyline
66
1
10
0.0
20
0.0
30
0.0
70
0
0
VERTEX
5
33f
100
AcDbEntity
8
1
100
AcDbVertex
100
AcDb2dVertex
62
5
10
122.511253
20
182.926508
0
VERTEX
5
340
100
AcDbEntity
8
1
100
AcDbVertex
100
AcDb2dVertex
62
5
10
122.588107
20
183.059922
0
VERTEX
5
341
100
AcDbEntity
8
1
100
AcDbVertex
100
AcDb2dVertex
62
5
10
122.655182
20
183.190291
0
SEQEND
5
342
100
AcDbEntity
8
1
0
POLYLINE
5
343
100
AcDbEntity
8
1
6
CONTINUOUS
62
5
100
AcDb2dPolyline
66
1
10
0.0
20
0.0
30
0.0
70
1
0
VERTEX
5
344
100
AcDbEntity
8
1
100
AcDbVertex
100
AcDb2dVertex
62
5
10
121.890567
20
182.926508
0
VERTEX
5
345
100
AcDbEntity
8
1
100
AcDbVertex
100
AcDb2dVertex
62
5
10
122.823698
20
182.926508
0
VERTEX
5
346
100
AcDbEntity
8
1
100
AcDbVertex
100
AcDb2dVertex
62
5
10
122.823698
20
182.405496
0
VERTEX
5
347
100
AcDbEntity
8
1
100
AcDbVertex
100
AcDb2dVertex
62
5
10
121.890567
20
182.405496
0
VERTEX
5
348
100
AcDbEntity
8
1
100
AcDbVertex
100
AcDb2dVertex
62
5
10
121.890567
20
182.926508
0
SEQEND
5
349
100
AcDbEntity
8
1
0
LINE
5
34a
100
AcDbEntity
8
1
100
AcDbLine
6
CONTINUOUS
62
5
10
121.890567
20
182.672292
11
122.823698
21
182.672292
0
LINE
5
34b
100
AcDbEntity
8
1
100
AcDbLine
6
CONTINUOUS
62
5
10
122.346978
20
182.926508
11
122.346978
21
182.405496
0
POLYLINE
5
34c
100
AcDbEntity
8
1
6
CONTINUOUS
62
5
100
AcDb2dPolyline
66
1
10
0.0
20
0.0
30
0.0
70
0
0
VERTEX
5
34d
100
AcDbEntity
8
1
100
AcDbVertex
100
AcDb2dVertex
62
5
10
121.973739
20
182.172508
0
VERTEX
5
34e
100
AcDbEntity
8
1
100
AcDbVertex
100
AcDb2dVertex
62
5
10
122.748541
20
182.172508
0
VERTEX
5
34f
100
AcDbEntity
8
1
100
AcDbVertex
100
AcDb2dVertex
62
5
10
122.748541
20
181.480751
0
SEQEND
5
350
100
AcDbEntity
8
1
0
LINE
5
351
100
AcDbEntity
8
1
100
AcDbLine
6
CONTINUOUS
62
5
10
122.748541
20
181.637605
11
121.973739
21
181.637605
0
LINE
5
352
100
AcDbEntity
8
1
100
AcDbLine
6
CONTINUOUS
62
5
10
121.973739
20
181.480751
11
121.973739
21
182.172508
0
LINE
5
353
100
AcDbEntity
8
1
100
AcDbLine
6
CONTINUOUS
62
5
10
121.973739
20
181.902435
11
122.748541
21
181.902435
0
POLYLINE
5
354
100
AcDbEntity
8
1
6
CONTINUOUS
62
5
100
AcDb2dPolyline
66
1
10
0.0
20
0.0
30
0.0
70
0
0
VERTEX
5
355
100
AcDbEntity
8
1
100
AcDbVertex
100
AcDb2dVertex
62
5
10
121.250178
20
181.802321
0
VERTEX
5
356
100
AcDbEntity
8
1
100
AcDbVertex
100
AcDb2dVertex
62
5
10
121.550011
20
181.903272
0
VERTEX
5
357
100
AcDbEntity
8
1
100
AcDbVertex
100
AcDb2dVertex
62
5
10
121.805654
20
182.011591
0
SEQEND
5
358
100
AcDbEntity
8
1
0
LINE
5
359
100
AcDbEntity
8
1
100
AcDbLine
6
CONTINUOUS
62
5
10
121.530995
20
181.896870
11
121.530995
21
183.193436
0
LINE
5
35a
100
AcDbEntity
8
1
100
AcDbLine
6
CONTINUOUS
62
5
10
121.247950
20
182.702300
11
121.774204
21
182.702300
0
POLYLINE
5
35b
100
AcDbEntity
8
0
6
CONTINUOUS
62
5
100
AcDb2dPolyline
66
1
10
0.0
20
0.0
30
0.0
70
0
0
VERTEX
5
35c
100
AcDbEntity
8
0
100
AcDbVertex
100
AcDb2dVertex
62
5
10
121.170947
20
184.080945
0
VERTEX
5
35d
100
AcDbEntity
8
0
100
AcDbVertex
100
AcDb2dVertex
62
5
10
121.170947
20
185.658866
0
VERTEX
5
35e
100
AcDbEntity
8
0
100
AcDbVertex
100
AcDb2dVertex
62
5
10
121.614015
20
185.658866
0
VERTEX
5
35f
100
AcDbEntity
8
0
100
AcDbVertex
100
AcDb2dVertex
62
5
10
121.730974
20
185.653644
0
VERTEX
5
360
100
AcDbEntity
8
0
100
AcDbVertex
100
AcDb2dVertex
62
5
10
121.846440
20
185.634295
0
VERTEX
5
361
100
AcDbEntity
8
0
100
AcDbVertex
100
AcDb2dVertex
62
5
10
121.910774
20
185.614315
0
VERTEX
5
362
100
AcDbEntity
8
0
100
AcDbVertex
100
AcDb2dVertex
62
5
10
121.969850
20
185.587558
0
VERTEX
5
363
100
AcDbEntity
8
0
100
AcDbVertex
100
AcDb2dVertex
62
5
10
122.029358
20
185.547780
0
VERTEX
5
364
100
AcDbEntity
8
0
100
AcDbVertex
100
AcDb2dVertex
62
5
10
122.077294
20
185.499197
0
VERTEX
5
365
100
AcDbEntity
8
0
100
AcDbVertex
100
AcDb2dVertex
62
5
10
122.116749
20
185.439026
0
VERTEX
5
366
100
AcDbEntity
8
0
100
AcDbVertex
100
AcDb2dVertex
62
5
10
122.143367
20
185.373562
0
VERTEX
5
367
100
AcDbEntity
8
0
100
AcDbVertex
100
AcDb2dVertex
62
5
10
122.158001
20
185.303363
0
VERTEX
5
368
100
AcDbEntity
8
0
100
AcDbVertex
100
AcDb2dVertex
62
5
10
122.161085
20
185.231722
0
VERTEX
5
369
100
AcDbEntity
8
0
100
AcDbVertex
100
AcDb2dVertex
62
5
10
122.158001
20
185.160081
0
VERTEX
5
36a
100
AcDbEntity
8
0
100
AcDbVertex
100
AcDb2dVertex
62
5
10
122.143367
20
185.089883
0
VERTEX
5
36b
100
AcDbEntity
8
0
100
AcDbVertex
100
AcDb2dVertex
62
5
10
122.116749
20
185.024418
0
VERTEX
5
36c
100
AcDbEntity
8
0
100
AcDbVertex
100
AcDb2dVertex
62
5
10
122.077294
20
184.964248
0
VERTEX
5
36d
100
AcDbEntity
8
0
100
AcDbVertex
100
AcDb2dVertex
62
5
10
122.029358
20
184.915664
0
VERTEX
5
36e
100
AcDbEntity
8
0
100
AcDbVertex
100
AcDb2dVertex
62
5
10
121.969850
20
184.875886
0
VERTEX
5
36f
100
AcDbEntity
8
0
100
AcDbVertex
100
AcDb2dVertex
62
5
10
121.910774
20
184.849129
0
VERTEX
5
370
100
AcDbEntity
8
0
100
AcDbVertex
100
AcDb2dVertex
62
5
10
121.846440
20
184.829149
0
VERTEX
5
371
100
AcDbEntity
8
0
100
AcDbVertex
100
AcDb2dVertex
62
5
10
121.730974
20
184.809800
0
VERTEX
5
372
100
AcDbEntity
8
0
100
AcDbVertex
100
AcDb2dVertex
62
5
10
121.614015
20
184.804578
0
VERTEX
5
373
100
AcDbEntity
8
0
100
AcDbVertex
100
AcDb2dVertex
62
5
10
121.170947
20
184.804578
0
SEQEND
5
374
100
AcDbEntity
8
0
0
LINE
5
375
100
AcDbEntity
8
0
100
AcDbLine
6
CONTINUOUS
62
5
10
123.024998
20
185.662865
11
123.024998
21
184.080945
0
LINE
5
376
100
AcDbEntity
8
0
100
AcDbLine
6
CONTINUOUS
62
5
10
122.376023
20
185.662865
11
123.673972
21
185.662865
0
POLYLINE
5
377
100
AcDbEntity
8
1
6
CONTINUOUS
62
5
100
AcDb2dPolyline
66
1
10
0.0
20
0.0
30
0.0
70
0
0
VERTEX
5
378
100
AcDbEntity
8
1
100
AcDbVertex
100
AcDb2dVertex
62
5
10
123.918057
20
182.327920
0
VERTEX
5
379
100
AcDbEntity
8
1
100
AcDbVertex
100
AcDb2dVertex
62
5
10
124.644737
20
182.327920
0
VERTEX
5
37a
100
AcDbEntity
8
1
100
AcDbVertex
100
AcDb2dVertex
62
5
10
124.670198
20
182.284121
0
VERTEX
5
37b
100
AcDbEntity
8
1
100
AcDbVertex
100
AcDb2dVertex
62
5
10
124.608925
20
182.169453
0
VERTEX
5
37c
100
AcDbEntity
8
1
100
AcDbVertex
100
AcDb2dVertex
62
5
10
124.558274
20
182.090533
0
VERTEX
5
37d
100
AcDbEntity
8
1
100
AcDbVertex
100
AcDb2dVertex
62
5
10
124.493592
20
182.003717
0
VERTEX
5
37e
100
AcDbEntity
8
1
100
AcDbVertex
100
AcDb2dVertex
62
5
10
124.414691
20
181.910714
0
VERTEX
5
37f
100
AcDbEntity
8
1
100
AcDbVertex
100
AcDb2dVertex
62
5
10
124.318906
20
181.813460
0
VERTEX
5
380
100
AcDbEntity
8
1
100
AcDbVertex
100
AcDb2dVertex
62
5
10
124.210778
20
181.725136
0
VERTEX
5
381
100
AcDbEntity
8
1
100
AcDbVertex
100
AcDb2dVertex
62
5
10
124.089748
20
181.640589
0
VERTEX
5
382
100
AcDbEntity
8
1
100
AcDbVertex
100
AcDb2dVertex
62
5
10
123.990992
20
181.587207
0
VERTEX
5
383
100
AcDbEntity
8
1
100
AcDbVertex
100
AcDb2dVertex
62
5
10
123.890669
20
181.539980
0
SEQEND
5
384
100
AcDbEntity
8
1
0
POLYLINE
5
385
100
AcDbEntity
8
1
6
CONTINUOUS
62
5
100
AcDb2dPolyline
66
1
10
0.0
20
0.0
30
0.0
70
0
0
VERTEX
5
386
100
AcDbEntity
8
1
100
AcDbVertex
100
AcDb2dVertex
62
5
10
124.050846
20
182.327920
0
VERTEX
5
387
100
AcDbEntity
8
1
100
AcDbVertex
100
AcDb2dVertex
62
5
10
124.102126
20
182.209058
0
VERTEX
5
388
100
AcDbEntity
8
1
100
AcDbVertex
100
AcDb2dVertex
62
5
10
124.134374
20
182.150904
0
VERTEX
5
389
100
AcDbEntity
8
1
100
AcDbVertex
100
AcDb2dVertex
62
5
10
124.202934
20
182.046130
0
VERTEX
5
38a
100
AcDbEntity
8
1
100
AcDbVertex
100
AcDb2dVertex
62
5
10
124.251104
20
181.987256
0
VERTEX
5
38b
100
AcDbEntity
8
1
100
AcDbVertex
100
AcDb2dVertex
62
5
10
124.292365
20
181.936826
0
VERTEX
5
38c
100
AcDbEntity
8
1
100
AcDbVertex
100
AcDb2dVertex
62
5
10
124.416701
20
181.815414
0
VERTEX
5
38d
100
AcDbEntity
8
1
100
AcDbVertex
100
AcDb2dVertex
62
5
10
124.523288
20
181.733558
0
VERTEX
5
38e
100
AcDbEntity
8
1
100
AcDbVertex
100
AcDb2dVertex
62
5
10
124.671623
20
181.640803
0
VERTEX
5
38f
100
AcDbEntity
8
1
100
AcDbVertex
100
AcDb2dVertex
62
5
10
124.741915
20
181.603444
0
VERTEX
5
390
100
AcDbEntity
8
1
100
AcDbVertex
100
AcDb2dVertex
62
5
10
124.845553
20
181.554526
0
SEQEND
5
391
100
AcDbEntity
8
1
0
LINE
5
392
100
AcDbEntity
8
1
100
AcDbLine
6
CONTINUOUS
62
5
10
123.273343
20
183.064100
11
123.802218
21
183.064100
0
LINE
5
393
100
AcDbEntity
8
1
100
AcDbLine
6
CONTINUOUS
62
5
10
123.167987
20
182.798483
11
123.894207
21
182.798483
0
LINE
5
394
100
AcDbEntity
8
1
100
AcDbLine
6
CONTINUOUS
62
5
10
123.273343
20
182.544266
11
123.802218
21
182.544266
0
LINE
5
395
100
AcDbEntity
8
1
100
AcDbLine
6
CONTINUOUS
62
5
10
123.273343
20
182.291753
11
123.802218
21
182.291753
0
POLYLINE
5
396
100
AcDbEntity
8
1
6
CONTINUOUS
62
5
100
AcDb2dPolyline
66
1
10
0.0
20
0.0
30
0.0
70
0
0
VERTEX
5
397
100
AcDbEntity
8
1
100
AcDbVertex
100
AcDb2dVertex
62
5
10
123.305578
20
182.025088
0
VERTEX
5
398
100
AcDbEntity
8
1
100
AcDbVertex
100
AcDb2dVertex
62
5
10
123.766836
20
182.025088
0
VERTEX
5
399
100
AcDbEntity
8
1
100
AcDbVertex
100
AcDb2dVertex
62
5
10
123.766836
20
181.639308
0
VERTEX
5
39a
100
AcDbEntity
8
1
100
AcDbVertex
100
AcDb2dVertex
62
5
10
123.305578
20
181.639308
0
SEQEND
5
39b
100
AcDbEntity
8
1
0
LINE
5
39c
100
AcDbEntity
8
1
100
AcDbLine
6
CONTINUOUS
62
5
10
123.305578
20
181.482585
11
123.305578
21
182.025088
0
POLYLINE
5
39d
100
AcDbEntity
8
1
6
CONTINUOUS
62
5
100
AcDb2dPolyline
66
1
10
0.0
20
0.0
30
0.0
70
0
0
VERTEX
5
39e
100
AcDbEntity
8
1
100
AcDbVertex
100
AcDb2dVertex
62
5
10
123.921333
20
182.494340
0
VERTEX
5
39f
100
AcDbEntity
8
1
100
AcDbVertex
100
AcDb2dVertex
62
5
10
123.978509
20
182.540458
0
VERTEX
5
3a0
100
AcDbEntity
8
1
100
AcDbVertex
100
AcDb2dVertex
62
5
10
124.026311
20
182.594107
0
VERTEX
5
3a1
100
AcDbEntity
8
1
100
AcDbVertex
100
AcDb2dVertex
62
5
10
124.058459
20
182.647380
0
VERTEX
5
3a2
100
AcDbEntity
8
1
100
AcDbVertex
100
AcDb2dVertex
62
5
10
124.077407
20
182.687797
0
VERTEX
5
3a3
100
AcDbEntity
8
1
100
AcDbVertex
100
AcDb2dVertex
62
5
10
124.083422
20
182.713515
0
VERTEX
5
3a4
100
AcDbEntity
8
1
100
AcDbVertex
100
AcDb2dVertex
62
5
10
124.089873
20
182.746613
0
VERTEX
5
3a5
100
AcDbEntity
8
1
100
AcDbVertex
100
AcDb2dVertex
62
5
10
124.101909
20
182.822997
0
VERTEX
5
3a6
100
AcDbEntity
8
1
100
AcDbVertex
100
AcDb2dVertex
62
5
10
124.109790
20
182.940911
0
VERTEX
5
3a7
100
AcDbEntity
8
1
100
AcDbVertex
100
AcDb2dVertex
62
5
10
124.111108
20
183.067638
0
VERTEX
5
3a8
100
AcDbEntity
8
1
100
AcDbVertex
100
AcDb2dVertex
62
5
10
124.505506
20
183.067638
0
VERTEX
5
3a9
100
AcDbEntity
8
1
100
AcDbVertex
100
AcDb2dVertex
62
5
10
124.505506
20
182.635988
0
VERTEX
5
3aa
100
AcDbEntity
8
1
100
AcDbVertex
100
AcDb2dVertex
62
5
10
124.507513
20
182.617960
0
VERTEX
5
3ab
100
AcDbEntity
8
1
100
AcDbVertex
100
AcDb2dVertex
62
5
10
124.513345
20
182.602224
0
VERTEX
5
3ac
100
AcDbEntity
8
1
100
AcDbVertex
100
AcDb2dVertex
62
5
10
124.519396
20
182.592358
0
VERTEX
5
3ad
100
AcDbEntity
8
1
100
AcDbVertex
100
AcDb2dVertex
62
5
10
124.527041
20
182.585441
0
VERTEX
5
3ae
100
AcDbEntity
8
1
100
AcDbVertex
100
AcDb2dVertex
62
5
10
124.546733
20
182.576693
0
VERTEX
5
3af
100
AcDbEntity
8
1
100
AcDbVertex
100
AcDb2dVertex
62
5
10
124.573824
20
182.571315
0
VERTEX
5
3b0
100
AcDbEntity
8
1
100
AcDbVertex
100
AcDb2dVertex
62
5
10
124.628067
20
182.566483
0
VERTEX
5
3b1
100
AcDbEntity
8
1
100
AcDbVertex
100
AcDb2dVertex
62
5
10
124.671896
20
182.567454
0
VERTEX
5
3b2
100
AcDbEntity
8
1
100
AcDbVertex
100
AcDb2dVertex
62
5
10
124.703481
20
182.570720
0
VERTEX
5
3b3
100
AcDbEntity
8
1
100
AcDbVertex
100
AcDb2dVertex
62
5
10
124.739805
20
182.579647
0
VERTEX
5
3b4
100
AcDbEntity
8
1
100
AcDbVertex
100
AcDb2dVertex
62
5
10
124.762564
20
182.591170
0
VERTEX
5
3b5
100
AcDbEntity
8
1
100
AcDbVertex
100
AcDb2dVertex
62
5
10
124.779668
20
182.623994
0
VERTEX
5
3b6
100
AcDbEntity
8
1
100
AcDbVertex
100
AcDb2dVertex
62
5
10
124.794261
20
182.686406
0
VERTEX
5
3b7
100
AcDbEntity
8
1
100
AcDbVertex
100
AcDb2dVertex
62
5
10
124.797716
20
182.741613
0
VERTEX
5
3b8
100
AcDbEntity
8
1
100
AcDbVertex
100
AcDb2dVertex
62
5
10
124.800083
20
182.825084
0
SEQEND
5
3b9
100
AcDbEntity
8
1
0
POLYLINE
5
3ba
100
AcDbEntity
8
0
6
CONTINUOUS
62
5
100
AcDb2dPolyline
66
1
10
0.0
20
0.0
30
0.0
70
0
0
VERTEX
5
3bb
100
AcDbEntity
8
0
100
AcDbVertex
100
AcDb2dVertex
62
5
10
123.891994
20
184.081931
0
VERTEX
5
3bc
100
AcDbEntity
8
0
100
AcDbVertex
100
AcDb2dVertex
62
5
10
123.891994
20
185.662865
0
VERTEX
5
3bd
100
AcDbEntity
8
0
100
AcDbVertex
100
AcDb2dVertex
62
5
10
123.966890
20
185.662865
0
VERTEX
5
3be
100
AcDbEntity
8
0
100
AcDbVertex
100
AcDb2dVertex
62
5
10
125.029053
20
184.081931
0
VERTEX
5
3bf
100
AcDbEntity
8
0
100
AcDbVertex
100
AcDb2dVertex
62
5
10
125.029053
20
185.702186
0
SEQEND
5
3c0
100
AcDbEntity
8
0
0
LINE
5
3c1
100
AcDbEntity
8
0
100
AcDbLine
6
CONTINUOUS
62
5
10
118.390836
20
183.121480
11
118.390836
21
181.540038
0
POLYLINE
5
3c2
100
AcDbEntity
8
0
6
CONTINUOUS
62
5
100
AcDb2dPolyline
66
1
10
0.0
20
0.0
30
0.0
70
0
0
VERTEX
5
3c3
100
AcDbEntity
8
0
100
AcDbVertex
100
AcDb2dVertex
62
5
10
118.390836
20
182.540114
0
VERTEX
5
3c4
100
AcDbEntity
8
0
100
AcDbVertex
100
AcDb2dVertex
62
5
10
118.486969
20
182.480531
0
VERTEX
5
3c5
100
AcDbEntity
8
0
100
AcDbVertex
100
AcDb2dVertex
62
5
10
118.661556
20
182.368257
0
VERTEX
5
3c6
100
AcDbEntity
8
0
100
AcDbVertex
100
AcDb2dVertex
62
5
10
118.858731
20
182.215963
0
SEQEND
5
3c7
100
AcDbEntity
8
0
0
LINE
5
3c8
100
AcDbEntity
8
0
100
AcDbLine
6
CONTINUOUS
62
5
10
113.050150
20
183.204800
11
113.050150
21
181.656845
0
POLYLINE
5
3c9
100
AcDbEntity
8
0
6
CONTINUOUS
62
5
100
AcDb2dPolyline
66
1
10
0.0
20
0.0
30
0.0
70
0
0
VERTEX
5
3ca
100
AcDbEntity
8
0
100
AcDbVertex
100
AcDb2dVertex
62
5
10
112.134719
20
183.117062
0
VERTEX
5
3cb
100
AcDbEntity
8
0
100
AcDbVertex
100
AcDb2dVertex
62
5
10
112.273330
20
182.957951
0
VERTEX
5
3cc
100
AcDbEntity
8
0
100
AcDbVertex
100
AcDb2dVertex
62
5
10
112.387085
20
182.802809
0
SEQEND
5
3cd
100
AcDbEntity
8
0
0
POLYLINE
5
3ce
100
AcDbEntity
8
0
6
CONTINUOUS
62
5
100
AcDb2dPolyline
66
1
10
0.0
20
0.0
30
0.0
70
0
0
VERTEX
5
3cf
100
AcDbEntity
8
0
100
AcDbVertex
100
AcDb2dVertex
62
5
10
112.029030
20
182.347104
0
VERTEX
5
3d0
100
AcDbEntity
8
0
100
AcDbVertex
100
AcDb2dVertex
62
5
10
112.341541
20
182.347104
0
VERTEX
5
3d1
100
AcDbEntity
8
0
100
AcDbVertex
100
AcDb2dVertex
62
5
10
112.341541
20
181.783325
0
VERTEX
5
3d2
100
AcDbEntity
8
0
100
AcDbVertex
100
AcDb2dVertex
62
5
10
112.194135
20
181.619929
0
VERTEX
5
3d3
100
AcDbEntity
8
0
100
AcDbVertex
100
AcDb2dVertex
62
5
10
112.061447
20
181.508962
0
SEQEND
5
3d4
100
AcDbEntity
8
0
0
POLYLINE
5
3d5
100
AcDbEntity
8
0
6
CONTINUOUS
62
5
100
AcDb2dPolyline
66
1
10
0.0
20
0.0
30
0.0
70
0
0
VERTEX
5
3d6
100
AcDbEntity
8
0
100
AcDbVertex
100
AcDb2dVertex
62
5
10
112.341541
20
181.783325
0
VERTEX
5
3d7
100
AcDbEntity
8
0
100
AcDbVertex
100
AcDb2dVertex
62
5
10
112.341541
20
181.783325
0
VERTEX
5
3d8
100
AcDbEntity
8
0
100
AcDbVertex
100
AcDb2dVertex
62
5
10
112.460772
20
181.693761
0
VERTEX
5
3d9
100
AcDbEntity
8
0
100
AcDbVertex
100
AcDb2dVertex
62
5
10
112.561251
20
181.630881
0
VERTEX
5
3da
100
AcDbEntity
8
0
100
AcDbVertex
100
AcDb2dVertex
62
5
10
112.747190
20
181.568163
0
VERTEX
5
3db
100
AcDbEntity
8
0
100
AcDbVertex
100
AcDb2dVertex
62
5
10
113.001525
20
181.548744
0
VERTEX
5
3dc
100
AcDbEntity
8
0
100
AcDbVertex
100
AcDb2dVertex
62
5
10
113.682158
20
181.548745
0
SEQEND
5
3dd
100
AcDbEntity
8
0
0
LINE
5
3de
100
AcDbEntity
8
0
100
AcDbLine
6
CONTINUOUS
62
5
10
112.495988
20
182.976412
11
113.624137
21
182.976412
0
POLYLINE
5
3df
100
AcDbEntity
8
0
6
CONTINUOUS
62
5
100
AcDb2dPolyline
66
1
10
0.0
20
0.0
30
0.0
70
0
0
VERTEX
5
3e0
100
AcDbEntity
8
0
100
AcDbVertex
100
AcDb2dVertex
62
5
10
112.638112
20
182.212345
0
VERTEX
5
3e1
100
AcDbEntity
8
0
100
AcDbVertex
100
AcDb2dVertex
62
5
10
112.638112
20
182.725919
0
VERTEX
5
3e2
100
AcDbEntity
8
0
100
AcDbVertex
100
AcDb2dVertex
62
5
10
113.479735
20
182.725919
0
VERTEX
5
3e3
100
AcDbEntity
8
0
100
AcDbVertex
100
AcDb2dVertex
62
5
10
113.479735
20
182.212345
0
SEQEND
5
3e4
100
AcDbEntity
8
0
0
LINE
5
3e5
100
AcDbEntity
8
0
100
AcDbLine
6
CONTINUOUS
62
5
10
112.638112
20
182.468196
11
113.479735
21
182.468196
0
LINE
5
3e6
100
AcDbEntity
8
0
100
AcDbLine
6
CONTINUOUS
62
5
10
112.638112
20
182.212345
11
113.479735
21
182.212345
0
LINE
5
3e7
100
AcDbEntity
8
0
100
AcDbLine
6
CONTINUOUS
62
5
10
112.481521
20
181.951139
11
113.664322
21
181.951139
0
LINE
5
3e8
100
AcDbEntity
8
0
100
AcDbLine
6
CONTINUOUS
62
5
10
115.535103
20
181.717793
11
116.306401
21
181.717793
0
POLYLINE
5
3e9
100
AcDbEntity
8
0
6
CONTINUOUS
62
5
100
AcDb2dPolyline
66
1
10
0.0
20
0.0
30
0.0
70
0
0
VERTEX
5
3ea
100
AcDbEntity
8
0
100
AcDbVertex
100
AcDb2dVertex
62
5
10
115.624047
20
182.875143
0
VERTEX
5
3eb
100
AcDbEntity
8
0
100
AcDbVertex
100
AcDb2dVertex
62
5
10
116.086756
20
182.875143
0
VERTEX
5
3ec
100
AcDbEntity
8
0
100
AcDbVertex
100
AcDb2dVertex
62
5
10
116.067991
20
182.324566
0
VERTEX
5
3ed
100
AcDbEntity
8
0
100
AcDbVertex
100
AcDb2dVertex
62
5
10
116.032602
20
181.717793
0
SEQEND
5
3ee
100
AcDbEntity
8
0
0
POLYLINE
5
3ef
100
AcDbEntity
8
0
6
CONTINUOUS
62
5
100
AcDb2dPolyline
66
1
10
0.0
20
0.0
30
0.0
70
0
0
VERTEX
5
3f0
100
AcDbEntity
8
0
100
AcDbVertex
100
AcDb2dVertex
62
5
10
115.036129
20
183.195692
0
VERTEX
5
3f1
100
AcDbEntity
8
0
100
AcDbVertex
100
AcDb2dVertex
62
5
10
115.026619
20
182.795174
0
VERTEX
5
3f2
100
AcDbEntity
8
0
100
AcDbVertex
100
AcDb2dVertex
62
5
10
115.020189
20
182.663899
0
VERTEX
5
3f3
100
AcDbEntity
8
0
100
AcDbVertex
100
AcDb2dVertex
62
5
10
115.002651
20
182.408233
0
VERTEX
5
3f4
100
AcDbEntity
8
0
100
AcDbVertex
100
AcDb2dVertex
62
5
10
114.965542
20
182.149275
0
VERTEX
5
3f5
100
AcDbEntity
8
0
100
AcDbVertex
100
AcDb2dVertex
62
5
10
114.936738
20
182.009777
0
VERTEX
5
3f6
100
AcDbEntity
8
0
100
AcDbVertex
100
AcDb2dVertex
62
5
10
114.891355
20
181.881497
0
VERTEX
5
3f7
100
AcDbEntity
8
0
100
AcDbVertex
100
AcDb2dVertex
62
5
10
114.812560
20
181.707752
0
VERTEX
5
3f8
100
AcDbEntity
8
0
100
AcDbVertex
100
AcDb2dVertex
62
5
10
114.667224
20
181.503872
0
SEQEND
5
3f9
100
AcDbEntity
8
0
0
POLYLINE
5
3fa
100
AcDbEntity
8
0
6
CONTINUOUS
62
5
100
AcDb2dPolyline
66
1
10
0.0
20
0.0
30
0.0
70
0
0
VERTEX
5
3fb
100
AcDbEntity
8
0
100
AcDbVertex
100
AcDb2dVertex
62
5
10
113.848239
20
183.034279
0
VERTEX
5
3fc
100
AcDbEntity
8
0
100
AcDbVertex
100
AcDb2dVertex
62
5
10
114.251463
20
183.074468
0
VERTEX
5
3fd
100
AcDbEntity
8
0
100
AcDbVertex
100
AcDb2dVertex
62
5
10
114.610428
20
183.147334
0
SEQEND
5
3fe
100
AcDbEntity
8
0
0
LINE
5
3ff
100
AcDbEntity
8
0
100
AcDbLine
6
CONTINUOUS
62
5
10
113.783004
20
182.841655
11
114.722279
21
182.841655
0
POLYLINE
5
400
100
AcDbEntity
8
0
6
CONTINUOUS
62
5
100
AcDb2dPolyline
66
1
10
0.0
20
0.0
30
0.0
70
0
0
VERTEX
5
401
100
AcDbEntity
8
0
100
AcDbVertex
100
AcDb2dVertex
62
5
10
113.917492
20
182.133716
0
VERTEX
5
402
100
AcDbEntity
8
0
100
AcDbVertex
100
AcDb2dVertex
62
5
10
113.917492
20
182.616614
0
VERTEX
5
403
100
AcDbEntity
8
0
100
AcDbVertex
100
AcDb2dVertex
62
5
10
114.605740
20
182.616614
0
VERTEX
5
404
100
AcDbEntity
8
0
100
AcDbVertex
100
AcDb2dVertex
62
5
10
114.605740
20
182.133716
0
SEQEND
5
405
100
AcDbEntity
8
0
0
LINE
5
406
100
AcDbEntity
8
0
100
AcDbLine
6
CONTINUOUS
62
5
10
113.917492
20
182.380993
11
114.605740
21
182.380993
0
LINE
5
407
100
AcDbEntity
8
0
100
AcDbLine
6
CONTINUOUS
62
5
10
113.917492
20
182.133716
11
114.605740
21
182.133716
0
LINE
5
408
100
AcDbEntity
8
0
100
AcDbLine
6
CONTINUOUS
62
5
10
113.828280
20
181.905059
11
114.682093
21
181.905059
0
POLYLINE
5
409
100
AcDbEntity
8
0
6
CONTINUOUS
62
5
100
AcDb2dPolyline
66
1
10
0.0
20
0.0
30
0.0
70
0
0
VERTEX
5
40a
100
AcDbEntity
8
0
100
AcDbVertex
100
AcDb2dVertex
62
5
10
113.792782
20
181.587057
0
VERTEX
5
40b
100
AcDbEntity
8
0
100
AcDbVertex
100
AcDb2dVertex
62
5
10
114.202332
20
181.634551
0
VERTEX
5
40c
100
AcDbEntity
8
0
100
AcDbVertex
100
AcDb2dVertex
62
5
10
114.717716
20
181.719613
0
SEQEND
5
40d
100
AcDbEntity
8
0
0
LINE
5
40e
100
AcDbEntity
8
0
100
AcDbLine
6
CONTINUOUS
62
5
10
114.258669
20
183.075931
11
114.258669
21
181.643849
0
POLYLINE
5
40f
100
AcDbEntity
8
0
6
CONTINUOUS
62
5
100
AcDb2dPolyline
66
1
10
0.0
20
0.0
30
0.0
70
0
0
VERTEX
5
410
100
AcDbEntity
8
0
100
AcDbVertex
100
AcDb2dVertex
62
5
10
114.717189
20
182.729537
0
VERTEX
5
411
100
AcDbEntity
8
0
100
AcDbVertex
100
AcDb2dVertex
62
5
10
115.340298
20
182.729537
0
VERTEX
5
412
100
AcDbEntity
8
0
100
AcDbVertex
100
AcDb2dVertex
62
5
10
115.326613
20
182.207503
0
VERTEX
5
413
100
AcDbEntity
8
0
100
AcDbVertex
100
AcDb2dVertex
62
5
10
115.293496
20
181.755278
0
VERTEX
5
414
100
AcDbEntity
8
0
100
AcDbVertex
100
AcDb2dVertex
62
5
10
115.286761
20
181.698322
0
VERTEX
5
415
100
AcDbEntity
8
0
100
AcDbVertex
100
AcDb2dVertex
62
5
10
115.282026
20
181.651947
0
VERTEX
5
416
100
AcDbEntity
8
0
100
AcDbVertex
100
AcDb2dVertex
62
5
10
115.261495
20
181.590593
0
VERTEX
5
417
100
AcDbEntity
8
0
100
AcDbVertex
100
AcDb2dVertex
62
5
10
115.242743
20
181.565592
0
VERTEX
5
418
100
AcDbEntity
8
0
100
AcDbVertex
100
AcDb2dVertex
62
5
10
115.193136
20
181.542285
0
VERTEX
5
419
100
AcDbEntity
8
0
100
AcDbVertex
100
AcDb2dVertex
62
5
10
115.140211
20
181.536421
0
VERTEX
5
41a
100
AcDbEntity
8
0
100
AcDbVertex
100
AcDb2dVertex
62
5
10
114.982012
20
181.547779
0
VERTEX
5
41b
100
AcDbEntity
8
0
100
AcDbVertex
100
AcDb2dVertex
62
5
10
114.958437
20
181.551024
0
SEQEND
5
41c
100
AcDbEntity
8
0
0
LINE
5
41d
100
AcDbEntity
8
0
100
AcDbLine
6
CONTINUOUS
62
5
10
111.162893
20
182.686269
11
111.934191
21
182.686269
0
LINE
5
41e
100
AcDbEntity
8
0
100
AcDbLine
6
CONTINUOUS
62
5
10
111.372663
20
183.102462
11
111.372663
21
182.139609
0
POLYLINE
5
41f
100
AcDbEntity
8
0
6
CONTINUOUS
62
5
100
AcDb2dPolyline
66
1
10
0.0
20
0.0
30
0.0
70
0
0
VERTEX
5
420
100
AcDbEntity
8
0
100
AcDbVertex
100
AcDb2dVertex
62
5
10
111.722815
20
183.115318
0
VERTEX
5
421
100
AcDbEntity
8
0
100
AcDbVertex
100
AcDb2dVertex
62
5
10
111.722815
20
182.529346
0
VERTEX
5
422
100
AcDbEntity
8
0
100
AcDbVertex
100
AcDb2dVertex
62
5
10
111.714384
20
182.266416
0
VERTEX
5
423
100
AcDbEntity
8
0
100
AcDbVertex
100
AcDb2dVertex
62
5
10
111.680084
20
182.004854
0
VERTEX
5
424
100
AcDbEntity
8
0
100
AcDbVertex
100
AcDb2dVertex
62
5
10
111.596401
20
181.784017
0
VERTEX
5
425
100
AcDbEntity
8
0
100
AcDbVertex
100
AcDb2dVertex
62
5
10
111.452901
20
181.598442
0
SEQEND
5
426
100
AcDbEntity
8
0
0
LINE
5
427
100
AcDbEntity
8
0
100
AcDbLine
6
CONTINUOUS
62
5
10
112.172427
20
184.985350
11
113.029190
21
184.985350
0
POLYLINE
5
428
100
AcDbEntity
8
0
6
CONTINUOUS
62
5
100
AcDb2dPolyline
66
1
10
0.0
20
0.0
30
0.0
70
0
0
VERTEX
5
429
100
AcDbEntity
8
0
100
AcDbVertex
100
AcDb2dVertex
62
5
10
113.121616
20
185.680946
0
VERTEX
5
42a
100
AcDbEntity
8
0
100
AcDbVertex
100
AcDb2dVertex
62
5
10
112.172427
20
185.680946
0
VERTEX
5
42b
100
AcDbEntity
8
0
100
AcDbVertex
100
AcDb2dVertex
62
5
10
112.172427
20
184.240689
0
VERTEX
5
42c
100
AcDbEntity
8
0
100
AcDbVertex
100
AcDb2dVertex
62
5
10
113.147573
20
184.240689
0
SEQEND
5
42d
100
AcDbEntity
8
0
0
LINE
5
42e
100
AcDbEntity
8
1
100
AcDbLine
6
CONTINUOUS
62
5
10
115.200000
20
185.800000
11
115.200000
21
183.650000
0
LINE
5
42f
100
AcDbEntity
8
0
100
AcDbLine
6
CONTINUOUS
62
5
10
116.419189
20
181.754364
11
117.173074
21
181.754364
0
LINE
5
430
100
AcDbEntity
8
0
100
AcDbLine
6
CONTINUOUS
62
5
10
116.482147
20
182.838038
11
117.111724
21
182.838038
0
POLYLINE
5
431
100
AcDbEntity
8
0
6
CONTINUOUS
62
5
100
AcDb2dPolyline
66
1
10
0.0
20
0.0
30
0.0
70
0
0
VERTEX
5
432
100
AcDbEntity
8
0
100
AcDbVertex
100
AcDb2dVertex
62
5
10
117.600516
20
182.754856
0
VERTEX
5
433
100
AcDbEntity
8
0
100
AcDbVertex
100
AcDb2dVertex
62
5
10
117.651657
20
182.515709
0
VERTEX
5
434
100
AcDbEntity
8
0
100
AcDbVertex
100
AcDb2dVertex
62
5
10
117.686781
20
182.273831
0
SEQEND
5
435
100
AcDbEntity
8
0
0
POLYLINE
5
436
100
AcDbEntity
8
0
6
CONTINUOUS
62
5
100
AcDb2dPolyline
66
1
10
0.0
20
0.0
30
0.0
70
0
0
VERTEX
5
437
100
AcDbEntity
8
0
100
AcDbVertex
100
AcDb2dVertex
62
5
10
117.935262
20
182.748558
0
VERTEX
5
438
100
AcDbEntity
8
0
100
AcDbVertex
100
AcDb2dVertex
62
5
10
117.912672
20
182.417249
0
VERTEX
5
439
100
AcDbEntity
8
0
100
AcDbVertex
100
AcDb2dVertex
62
5
10
117.881383
20
182.171345
0
VERTEX
5
43a
100
AcDbEntity
8
0
100
AcDbVertex
100
AcDb2dVertex
62
5
10
117.833079
20
182.015827
0
VERTEX
5
43b
100
AcDbEntity
8
0
100
AcDbVertex
100
AcDb2dVertex
62
5
10
117.790476
20
181.907464
0
VERTEX
5
43c
100
AcDbEntity
8
0
100
AcDbVertex
100
AcDb2dVertex
62
5
10
117.723382
20
181.795503
0
VERTEX
5
43d
100
AcDbEntity
8
0
100
AcDbVertex
100
AcDb2dVertex
62
5
10
117.662805
20
181.721593
0
VERTEX
5
43e
100
AcDbEntity
8
0
100
AcDbVertex
100
AcDb2dVertex
62
5
10
117.524833
20
181.599379
0
SEQEND
5
43f
100
AcDbEntity
8
0
0
POLYLINE
5
440
100
AcDbEntity
8
0
6
CONTINUOUS
62
5
100
AcDb2dPolyline
66
1
10
0.0
20
0.0
30
0.0
70
0
0
VERTEX
5
441
100
AcDbEntity
8
0
100
AcDbVertex
100
AcDb2dVertex
62
5
10
117.383513
20
182.682518
0
VERTEX
5
442
100
AcDbEntity
8
0
100
AcDbVertex
100
AcDb2dVertex
62
5
10
117.436174
20
182.445366
0
VERTEX
5
443
100
AcDbEntity
8
0
100
AcDbVertex
100
AcDb2dVertex
62
5
10
117.471520
20
182.205247
0
SEQEND
5
444
100
AcDbEntity
8
0
0
LINE
5
445
100
AcDbEntity
8
0
100
AcDbLine
6
CONTINUOUS
62
5
10
117.243662
20
184.985350
11
118.065910
21
184.985350
0
POLYLINE
5
446
100
AcDbEntity
8
0
6
CONTINUOUS
62
5
100
AcDb2dPolyline
66
1
10
0.0
20
0.0
30
0.0
70
0
0
VERTEX
5
447
100
AcDbEntity
8
0
100
AcDbVertex
100
AcDb2dVertex
62
5
10
118.156338
20
185.680946
0
VERTEX
5
448
100
AcDbEntity
8
0
100
AcDbVertex
100
AcDb2dVertex
62
5
10
117.243662
20
185.680946
0
VERTEX
5
449
100
AcDbEntity
8
0
100
AcDbVertex
100
AcDb2dVertex
62
5
10
117.243662
20
184.159819
0
SEQEND
5
44a
100
AcDbEntity
8
0
0
POLYLINE
5
44b
100
AcDbEntity
8
0
6
CONTINUOUS
62
5
100
AcDb2dPolyline
66
1
10
0.0
20
0.0
30
0.0
70
0
0
VERTEX
5
44c
100
AcDbEntity
8
0
100
AcDbVertex
100
AcDb2dVertex
62
5
10
110.350069
20
181.672517
0
VERTEX
5
44d
100
AcDbEntity
8
0
100
AcDbVertex
100
AcDb2dVertex
62
5
10
110.516191
20
181.733109
0
VERTEX
5
44e
100
AcDbEntity
8
0
100
AcDbVertex
100
AcDb2dVertex
62
5
10
110.692165
20
181.854624
0
VERTEX
5
44f
100
AcDbEntity
8
0
100
AcDbVertex
100
AcDb2dVertex
62
5
10
110.802222
20
181.988717
0
VERTEX
5
450
100
AcDbEntity
8
0
100
AcDbVertex
100
AcDb2dVertex
62
5
10
110.893896
20
182.190169
0
VERTEX
5
451
100
AcDbEntity
8
0
100
AcDbVertex
100
AcDb2dVertex
62
5
10
110.958458
20
182.438133
0
VERTEX
5
452
100
AcDbEntity
8
0
100
AcDbVertex
100
AcDb2dVertex
62
5
10
110.996926
20
182.710918
0
SEQEND
5
453
100
AcDbEntity
8
0
0
POLYLINE
5
454
100
AcDbEntity
8
0
6
CONTINUOUS
62
5
100
AcDb2dPolyline
66
1
10
0.0
20
0.0
30
0.0
70
0
0
VERTEX
5
455
100
AcDbEntity
8
0
100
AcDbVertex
100
AcDb2dVertex
62
5
10
110.339487
20
182.925778
0
VERTEX
5
456
100
AcDbEntity
8
0
100
AcDbVertex
100
AcDb2dVertex
62
5
10
110.509780
20
182.849586
0
VERTEX
5
457
100
AcDbEntity
8
0
100
AcDbVertex
100
AcDb2dVertex
62
5
10
110.670752
20
182.755793
0
SEQEND
5
458
100
AcDbEntity
8
0
0
POLYLINE
5
459
100
AcDbEntity
8
0
6
CONTINUOUS
62
5
100
AcDb2dPolyline
66
1
10
0.0
20
0.0
30
0.0
70
1
0
VERTEX
5
45a
100
AcDbEntity
8
0
100
AcDbVertex
100
AcDb2dVertex
62
5
10
124.600000
20
180.050000
0
VERTEX
5
45b
100
AcDbEntity
8
0
100
AcDbVertex
100
AcDb2dVertex
62
5
10
123.400000
20
180.050000
0
VERTEX
5
45c
100
AcDbEntity
8
0
100
AcDbVertex
100
AcDb2dVertex
62
5
10
123.400000
20
179.836000
0
VERTEX
5
45d
100
AcDbEntity
8
0
100
AcDbVertex
100
AcDb2dVertex
62
5
10
124.600000
20
179.836000
0
SEQEND
5
45e
100
AcDbEntity
8
0
0
LINE
5
45f
100
AcDbEntity
8
0
100
AcDbLine
6
CONTINUOUS
62
5
10
119.576443
20
162.706078
11
119.576599
21
162.705856
0
POLYLINE
5
460
100
AcDbEntity
8
1
6
CONTINUOUS
62
5
100
AcDb2dPolyline
66
1
10
0.0
20
0.0
30
0.0
70
1
0
VERTEX
5
461
100
AcDbEntity
8
1
100
AcDbVertex
100
AcDb2dVertex
62
5
10
120.700000
20
181.050000
0
VERTEX
5
462
100
AcDbEntity
8
1
100
AcDbVertex
100
AcDb2dVertex
62
5
10
125.500000
20
181.050000
0
VERTEX
5
463
100
AcDbEntity
8
1
100
AcDbVertex
100
AcDb2dVertex
62
5
10
125.500000
20
186.250000
0
VERTEX
5
464
100
AcDbEntity
8
1
100
AcDbVertex
100
AcDb2dVertex
62
5
10
120.700000
20
186.250000
0
SEQEND
5
465
100
AcDbEntity
8
1
0
LINE
5
466
100
AcDbEntity
8
0
100
AcDbLine
6
CONTINUOUS
62
5
10
107.674770
20
182.417562
11
108.427851
21
182.417562
0
POLYLINE
5
467
100
AcDbEntity
8
0
6
CONTINUOUS
62
5
100
AcDb2dPolyline
66
1
10
0.0
20
0.0
30
0.0
70
0
0
VERTEX
5
468
100
AcDbEntity
8
0
100
AcDbVertex
100
AcDb2dVertex
62
5
10
107.730628
20
182.885993
0
VERTEX
5
469
100
AcDbEntity
8
0
100
AcDbVertex
100
AcDb2dVertex
62
5
10
107.873408
20
182.907680
0
VERTEX
5
46a
100
AcDbEntity
8
0
100
AcDbVertex
100
AcDb2dVertex
62
5
10
108.017836
20
182.938715
0
VERTEX
5
46b
100
AcDbEntity
8
0
100
AcDbVertex
100
AcDb2dVertex
62
5
10
108.144221
20
182.973687
0
VERTEX
5
46c
100
AcDbEntity
8
0
100
AcDbVertex
100
AcDb2dVertex
62
5
10
108.313456
20
183.036959
0
SEQEND
5
46d
100
AcDbEntity
8
0
0
POLYLINE
5
46e
100
AcDbEntity
8
0
6
CONTINUOUS
62
5
100
AcDb2dPolyline
66
1
10
0.0
20
0.0
30
0.0
70
0
0
VERTEX
5
46f
100
AcDbEntity
8
0
100
AcDbVertex
100
AcDb2dVertex
62
5
10
108.061089
20
182.950683
0
VERTEX
5
470
100
AcDbEntity
8
0
100
AcDbVertex
100
AcDb2dVertex
62
5
10
108.061089
20
182.352863
0
VERTEX
5
471
100
AcDbEntity
8
0
100
AcDbVertex
100
AcDb2dVertex
62
5
10
108.048725
20
182.146628
0
VERTEX
5
472
100
AcDbEntity
8
0
100
AcDbVertex
100
AcDb2dVertex
62
5
10
108.016617
20
181.949666
0
VERTEX
5
473
100
AcDbEntity
8
0
100
AcDbVertex
100
AcDb2dVertex
62
5
10
107.937818
20
181.756243
0
VERTEX
5
474
100
AcDbEntity
8
0
100
AcDbVertex
100
AcDb2dVertex
62
5
10
107.809125
20
181.592148
0
SEQEND
5
475
100
AcDbEntity
8
0
0
LINE
5
476
100
AcDbEntity
8
0
100
AcDbLine
6
CONTINUOUS
62
5
10
109.253534
20
183.165284
11
108.597703
21
181.485519
0
POLYLINE
5
477
100
AcDbEntity
8
0
6
CONTINUOUS
62
5
100
AcDb2dPolyline
66
1
10
0.0
20
0.0
30
0.0
70
0
0
VERTEX
5
478
100
AcDbEntity
8
0
100
AcDbVertex
100
AcDb2dVertex
62
5
10
106.596453
20
183.040977
0
VERTEX
5
479
100
AcDbEntity
8
0
100
AcDbVertex
100
AcDb2dVertex
62
5
10
106.466890
20
182.814915
0
VERTEX
5
47a
100
AcDbEntity
8
0
100
AcDbVertex
100
AcDb2dVertex
62
5
10
106.336049
20
182.623714
0
VERTEX
5
47b
100
AcDbEntity
8
0
100
AcDbVertex
100
AcDb2dVertex
62
5
10
106.128343
20
182.396803
0
VERTEX
5
47c
100
AcDbEntity
8
0
100
AcDbVertex
100
AcDb2dVertex
62
5
10
105.960714
20
182.259364
0
SEQEND
5
47d
100
AcDbEntity
8
0
0
POLYLINE
5
47e
100
AcDbEntity
8
0
6
CONTINUOUS
62
5
100
AcDb2dPolyline
66
1
10
0.0
20
0.0
30
0.0
70
0
0
VERTEX
5
47f
100
AcDbEntity
8
0
100
AcDbVertex
100
AcDb2dVertex
62
5
10
106.336049
20
182.623714
0
VERTEX
5
480
100
AcDbEntity
8
0
100
AcDbVertex
100
AcDb2dVertex
62
5
10
106.346230
20
182.604387
0
VERTEX
5
481
100
AcDbEntity
8
0
100
AcDbVertex
100
AcDb2dVertex
62
5
10
106.346230
20
181.571651
0
SEQEND
5
482
100
AcDbEntity
8
0
0
POLYLINE
5
483
100
AcDbEntity
8
0
6
CONTINUOUS
62
5
100
AcDb2dPolyline
66
1
10
0.0
20
0.0
30
0.0
70
0
0
VERTEX
5
484
100
AcDbEntity
8
0
100
AcDbVertex
100
AcDb2dVertex
62
5
10
106.890210
20
182.682518
0
VERTEX
5
485
100
AcDbEntity
8
0
100
AcDbVertex
100
AcDb2dVertex
62
5
10
106.944145
20
182.436680
0
VERTEX
5
486
100
AcDbEntity
8
0
100
AcDbVertex
100
AcDb2dVertex
62
5
10
106.978217
20
182.205247
0
SEQEND
5
487
100
AcDbEntity
8
0
0
POLYLINE
5
488
100
AcDbEntity
8
0
6
CONTINUOUS
62
5
100
AcDb2dPolyline
66
1
10
0.0
20
0.0
30
0.0
70
0
0
VERTEX
5
489
100
AcDbEntity
8
0
100
AcDbVertex
100
AcDb2dVertex
62
5
10
107.107214
20
182.754856
0
VERTEX
5
48a
100
AcDbEntity
8
0
100
AcDbVertex
100
AcDb2dVertex
62
5
10
107.158355
20
182.515709
0
VERTEX
5
48b
100
AcDbEntity
8
0
100
AcDbVertex
100
AcDb2dVertex
62
5
10
107.193479
20
182.273831
0
SEQEND
5
48c
100
AcDbEntity
8
0
0
POLYLINE
5
48d
100
AcDbEntity
8
0
6
CONTINUOUS
62
5
100
AcDb2dPolyline
66
1
10
0.0
20
0.0
30
0.0
70
0
0
VERTEX
5
48e
100
AcDbEntity
8
0
100
AcDbVertex
100
AcDb2dVertex
62
5
10
107.441961
20
182.748558
0
VERTEX
5
48f
100
AcDbEntity
8
0
100
AcDbVertex
100
AcDb2dVertex
62
5
10
107.424732
20
182.466195
0
VERTEX
5
490
100
AcDbEntity
8
0
100
AcDbVertex
100
AcDb2dVertex
62
5
10
107.382136
20
182.172627
0
VERTEX
5
491
100
AcDbEntity
8
0
100
AcDbVertex
100
AcDb2dVertex
62
5
10
107.339016
20
182.002150
0
VERTEX
5
492
100
AcDbEntity
8
0
100
AcDbVertex
100
AcDb2dVertex
62
5
10
107.315108
20
181.941494
0
VERTEX
5
493
100
AcDbEntity
8
0
100
AcDbVertex
100
AcDb2dVertex
62
5
10
107.199298
20
181.749491
0
VERTEX
5
494
100
AcDbEntity
8
0
100
AcDbVertex
100
AcDb2dVertex
62
5
10
107.031530
20
181.599379
0
SEQEND
5
495
100
AcDbEntity
8
0
0
POLYLINE
5
496
100
AcDbEntity
8
0
6
CONTINUOUS
62
5
100
AcDb2dPolyline
66
1
10
0.0
20
0.0
30
0.0
70
1
0
VERTEX
5
497
100
AcDbEntity
8
0
100
AcDbVertex
100
AcDb2dVertex
62
5
10
107.000217
20
184.237485
0
VERTEX
5
498
100
AcDbEntity
8
0
100
AcDbVertex
100
AcDb2dVertex
62
5
10
107.000217
20
185.680946
0
VERTEX
5
499
100
AcDbEntity
8
0
100
AcDbVertex
100
AcDb2dVertex
62
5
10
107.380605
20
185.680946
0
VERTEX
5
49a
100
AcDbEntity
8
0
100
AcDbVertex
100
AcDb2dVertex
62
5
10
107.623182
20
185.657259
0
VERTEX
5
49b
100
AcDbEntity
8
0
100
AcDbVertex
100
AcDb2dVertex
62
5
10
107.716294
20
185.623214
0
VERTEX
5
49c
100
AcDbEntity
8
0
100
AcDbVertex
100
AcDb2dVertex
62
5
10
107.787336
20
185.594247
0
VERTEX
5
49d
100
AcDbEntity
8
0
100
AcDbVertex
100
AcDb2dVertex
62
5
10
107.870106
20
185.559427
0
VERTEX
5
49e
100
AcDbEntity
8
0
100
AcDbVertex
100
AcDb2dVertex
62
5
10
107.960670
20
185.459569
0
VERTEX
5
49f
100
AcDbEntity
8
0
100
AcDbVertex
100
AcDb2dVertex
62
5
10
108.074512
20
185.339921
0
VERTEX
5
4a0
100
AcDbEntity
8
0
100
AcDbVertex
100
AcDb2dVertex
62
5
10
108.131912
20
185.152730
0
VERTEX
5
4a1
100
AcDbEntity
8
0
100
AcDbVertex
100
AcDb2dVertex
62
5
10
108.159783
20
184.961816
0
VERTEX
5
4a2
100
AcDbEntity
8
0
100
AcDbVertex
100
AcDb2dVertex
62
5
10
108.144525
20
184.823822
0
VERTEX
5
4a3
100
AcDbEntity
8
0
100
AcDbVertex
100
AcDb2dVertex
62
5
10
108.111754
20
184.670921
0
VERTEX
5
4a4
100
AcDbEntity
8
0
100
AcDbVertex
100
AcDb2dVertex
62
5
10
108.024921
20
184.506564
0
VERTEX
5
4a5
100
AcDbEntity
8
0
100
AcDbVertex
100
AcDb2dVertex
62
5
10
108.004716
20
184.483459
0
VERTEX
5
4a6
100
AcDbEntity
8
0
100
AcDbVertex
100
AcDb2dVertex
62
5
10
107.922586
20
184.396182
0
VERTEX
5
4a7
100
AcDbEntity
8
0
100
AcDbVertex
100
AcDb2dVertex
62
5
10
107.849540
20
184.351954
0
VERTEX
5
4a8
100
AcDbEntity
8
0
100
AcDbVertex
100
AcDb2dVertex
62
5
10
107.638111
20
184.264244
0
VERTEX
5
4a9
100
AcDbEntity
8
0
100
AcDbVertex
100
AcDb2dVertex
62
5
10
107.410086
20
184.237485
0
SEQEND
5
4aa
100
AcDbEntity
8
0
0
LINE
5
4ab
100
AcDbEntity
8
1
100
AcDbLine
6
CONTINUOUS
62
5
10
105.040000
20
185.800000
11
105.040000
21
183.650000
0
POLYLINE
5
4ac
100
AcDbEntity
8
0
6
CONTINUOUS
62
5
100
AcDb2dPolyline
66
1
10
0.0
20
0.0
30
0.0
70
0
0
VERTEX
5
4ad
100
AcDbEntity
8
0
100
AcDbVertex
100
AcDb2dVertex
62
5
10
105.101811
20
182.919348
0
VERTEX
5
4ae
100
AcDbEntity
8
0
100
AcDbVertex
100
AcDb2dVertex
62
5
10
105.586224
20
182.919348
0
VERTEX
5
4af
100
AcDbEntity
8
0
100
AcDbVertex
100
AcDb2dVertex
62
5
10
105.619726
20
182.881452
0
VERTEX
5
4b0
100
AcDbEntity
8
0
100
AcDbVertex
100
AcDb2dVertex
62
5
10
105.561269
20
182.569264
0
VERTEX
5
4b1
100
AcDbEntity
8
0
100
AcDbVertex
100
AcDb2dVertex
62
5
10
105.440309
20
182.195602
0
VERTEX
5
4b2
100
AcDbEntity
8
0
100
AcDbVertex
100
AcDb2dVertex
62
5
10
105.306226
20
181.938604
0
VERTEX
5
4b3
100
AcDbEntity
8
0
100
AcDbVertex
100
AcDb2dVertex
62
5
10
105.176137
20
181.769413
0
VERTEX
5
4b4
100
AcDbEntity
8
0
100
AcDbVertex
100
AcDb2dVertex
62
5
10
105.074351
20
181.655372
0
SEQEND
5
4b5
100
AcDbEntity
8
0
0
POLYLINE
5
4b6
100
AcDbEntity
8
0
6
CONTINUOUS
62
5
100
AcDb2dPolyline
66
1
10
0.0
20
0.0
30
0.0
70
0
0
VERTEX
5
4b7
100
AcDbEntity
8
0
100
AcDbVertex
100
AcDb2dVertex
62
5
10
105.461935
20
182.262409
0
VERTEX
5
4b8
100
AcDbEntity
8
0
100
AcDbVertex
100
AcDb2dVertex
62
5
10
105.521350
20
182.239940
0
VERTEX
5
4b9
100
AcDbEntity
8
0
100
AcDbVertex
100
AcDb2dVertex
62
5
10
105.654273
20
181.955192
0
VERTEX
5
4ba
100
AcDbEntity
8
0
100
AcDbVertex
100
AcDb2dVertex
62
5
10
105.768091
20
181.665821
0
SEQEND
5
4bb
100
AcDbEntity
8
0
0
POLYLINE
5
4bc
100
AcDbEntity
8
0
6
CONTINUOUS
62
5
100
AcDb2dPolyline
66
1
10
0.0
20
0.0
30
0.0
70
0
0
VERTEX
5
4bd
100
AcDbEntity
8
0
100
AcDbVertex
100
AcDb2dVertex
62
5
10
102.688791
20
182.472751
0
VERTEX
5
4be
100
AcDbEntity
8
0
100
AcDbVertex
100
AcDb2dVertex
62
5
10
102.802357
20
182.348630
0
VERTEX
5
4bf
100
AcDbEntity
8
0
100
AcDbVertex
100
AcDb2dVertex
62
5
10
102.942318
20
182.151291
0
SEQEND
5
4c0
100
AcDbEntity
8
0
0
POLYLINE
5
4c1
100
AcDbEntity
8
0
6
CONTINUOUS
62
5
100
AcDb2dPolyline
66
1
10
0.0
20
0.0
30
0.0
70
0
0
VERTEX
5
4c2
100
AcDbEntity
8
0
100
AcDbVertex
100
AcDb2dVertex
62
5
10
102.765679
20
183.116660
0
VERTEX
5
4c3
100
AcDbEntity
8
0
100
AcDbVertex
100
AcDb2dVertex
62
5
10
102.720667
20
182.928857
0
VERTEX
5
4c4
100
AcDbEntity
8
0
100
AcDbVertex
100
AcDb2dVertex
62
5
10
102.666644
20
182.742467
0
VERTEX
5
4c5
100
AcDbEntity
8
0
100
AcDbVertex
100
AcDb2dVertex
62
5
10
102.620053
20
182.632134
0
VERTEX
5
4c6
100
AcDbEntity
8
0
100
AcDbVertex
100
AcDb2dVertex
62
5
10
102.564187
20
182.500962
0
VERTEX
5
4c7
100
AcDbEntity
8
0
100
AcDbVertex
100
AcDb2dVertex
62
5
10
102.445935
20
182.305578
0
SEQEND
5
4c8
100
AcDbEntity
8
0
0
POLYLINE
5
4c9
100
AcDbEntity
8
0
6
CONTINUOUS
62
5
100
AcDb2dPolyline
66
1
10
0.0
20
0.0
30
0.0
70
0
0
VERTEX
5
4ca
100
AcDbEntity
8
0
100
AcDbVertex
100
AcDb2dVertex
62
5
10
102.707529
20
182.883528
0
VERTEX
5
4cb
100
AcDbEntity
8
0
100
AcDbVertex
100
AcDb2dVertex
62
5
10
102.769680
20
182.865373
0
VERTEX
5
4cc
100
AcDbEntity
8
0
100
AcDbVertex
100
AcDb2dVertex
62
5
10
103.048871
20
182.866033
0
VERTEX
5
4cd
100
AcDbEntity
8
0
100
AcDbVertex
100
AcDb2dVertex
62
5
10
103.075286
20
182.862084
0
VERTEX
5
4ce
100
AcDbEntity
8
0
100
AcDbVertex
100
AcDb2dVertex
62
5
10
103.105249
20
182.827188
0
VERTEX
5
4cf
100
AcDbEntity
8
0
100
AcDbVertex
100
AcDb2dVertex
62
5
10
103.062175
20
182.560603
0
VERTEX
5
4d0
100
AcDbEntity
8
0
100
AcDbVertex
100
AcDb2dVertex
62
5
10
103.029763
20
182.408751
0
VERTEX
5
4d1
100
AcDbEntity
8
0
100
AcDbVertex
100
AcDb2dVertex
62
5
10
102.931711
20
182.120063
0
VERTEX
5
4d2
100
AcDbEntity
8
0
100
AcDbVertex
100
AcDb2dVertex
62
5
10
102.923743
20
182.094868
0
VERTEX
5
4d3
100
AcDbEntity
8
0
100
AcDbVertex
100
AcDb2dVertex
62
5
10
102.757637
20
181.824751
0
VERTEX
5
4d4
100
AcDbEntity
8
0
100
AcDbVertex
100
AcDb2dVertex
62
5
10
102.528717
20
181.608355
0
SEQEND
5
4d5
100
AcDbEntity
8
0
0
ARC
5
4d6
100
AcDbEntity
8
0
100
AcDbCircle
6
CONTINUOUS
62
5
10
101.911022
20
182.999045
40
0.168635
100
AcDbArc
50
-89.999999
51
89.999999
0
ARC
5
4d7
100
AcDbEntity
8
0
100
AcDbCircle
6
CONTINUOUS
62
5
10
101.911022
20
182.999045
40
0.168635
100
AcDbArc
50
89.999999
51
-89.999999
0
POLYLINE
5
4d8
100
AcDbEntity
8
0
6
CONTINUOUS
62
5
100
AcDb2dPolyline
66
1
10
0.0
20
0.0
30
0.0
70
0
0
VERTEX
5
4d9
100
AcDbEntity
8
0
100
AcDbVertex
100
AcDb2dVertex
62
5
10
101.105883
20
182.987262
0
VERTEX
5
4da
100
AcDbEntity
8
0
100
AcDbVertex
100
AcDb2dVertex
62
5
10
101.066393
20
182.418016
0
VERTEX
5
4db
100
AcDbEntity
8
0
100
AcDbVertex
100
AcDb2dVertex
62
5
10
100.995159
20
181.997503
0
VERTEX
5
4dc
100
AcDbEntity
8
0
100
AcDbVertex
100
AcDb2dVertex
62
5
10
100.945641
20
181.772916
0
VERTEX
5
4dd
100
AcDbEntity
8
0
100
AcDbVertex
100
AcDb2dVertex
62
5
10
100.906830
20
181.645460
0
SEQEND
5
4de
100
AcDbEntity
8
0
0
POLYLINE
5
4df
100
AcDbEntity
8
0
6
CONTINUOUS
62
5
100
AcDb2dPolyline
66
1
10
0.0
20
0.0
30
0.0
70
0
0
VERTEX
5
4e0
100
AcDbEntity
8
0
100
AcDbVertex
100
AcDb2dVertex
62
5
10
101.362804
20
182.995299
0
VERTEX
5
4e1
100
AcDbEntity
8
0
100
AcDbVertex
100
AcDb2dVertex
62
5
10
101.433997
20
182.370277
0
VERTEX
5
4e2
100
AcDbEntity
8
0
100
AcDbVertex
100
AcDb2dVertex
62
5
10
101.592532
20
181.662204
0
SEQEND
5
4e3
100
AcDbEntity
8
0
0
POLYLINE
5
4e4
100
AcDbEntity
8
0
6
CONTINUOUS
62
5
100
AcDb2dPolyline
66
1
10
0.0
20
0.0
30
0.0
70
0
0
VERTEX
5
4e5
100
AcDbEntity
8
0
100
AcDbVertex
100
AcDb2dVertex
62
5
10
103.064451
20
185.511932
0
VERTEX
5
4e6
100
AcDbEntity
8
0
100
AcDbVertex
100
AcDb2dVertex
62
5
10
102.949081
20
185.609574
0
VERTEX
5
4e7
100
AcDbEntity
8
0
100
AcDbVertex
100
AcDb2dVertex
62
5
10
102.919397
20
185.622714
0
VERTEX
5
4e8
100
AcDbEntity
8
0
100
AcDbVertex
100
AcDb2dVertex
62
5
10
102.823912
20
185.664984
0
VERTEX
5
4e9
100
AcDbEntity
8
0
100
AcDbVertex
100
AcDb2dVertex
62
5
10
102.758164
20
185.693145
0
VERTEX
5
4ea
100
AcDbEntity
8
0
100
AcDbVertex
100
AcDb2dVertex
62
5
10
102.639992
20
185.712612
0
VERTEX
5
4eb
100
AcDbEntity
8
0
100
AcDbVertex
100
AcDb2dVertex
62
5
10
102.567455
20
185.719956
0
VERTEX
5
4ec
100
AcDbEntity
8
0
100
AcDbVertex
100
AcDb2dVertex
62
5
10
102.559118
20
185.719456
0
VERTEX
5
4ed
100
AcDbEntity
8
0
100
AcDbVertex
100
AcDb2dVertex
62
5
10
102.312977
20
185.672127
0
VERTEX
5
4ee
100
AcDbEntity
8
0
100
AcDbVertex
100
AcDb2dVertex
62
5
10
102.102140
20
185.527906
0
VERTEX
5
4ef
100
AcDbEntity
8
0
100
AcDbVertex
100
AcDb2dVertex
62
5
10
102.047800
20
185.463438
0
VERTEX
5
4f0
100
AcDbEntity
8
0
100
AcDbVertex
100
AcDb2dVertex
62
5
10
101.930255
20
185.227760
0
VERTEX
5
4f1
100
AcDbEntity
8
0
100
AcDbVertex
100
AcDb2dVertex
62
5
10
101.894188
20
184.965667
0
VERTEX
5
4f2
100
AcDbEntity
8
0
100
AcDbVertex
100
AcDb2dVertex
62
5
10
101.928852
20
184.707095
0
VERTEX
5
4f3
100
AcDbEntity
8
0
100
AcDbVertex
100
AcDb2dVertex
62
5
10
102.052647
20
184.467610
0
VERTEX
5
4f4
100
AcDbEntity
8
0
100
AcDbVertex
100
AcDb2dVertex
62
5
10
102.150521
20
184.375109
0
VERTEX
5
4f5
100
AcDbEntity
8
0
100
AcDbVertex
100
AcDb2dVertex
62
5
10
102.213775
20
184.327511
0
VERTEX
5
4f6
100
AcDbEntity
8
0
100
AcDbVertex
100
AcDb2dVertex
62
5
10
102.260103
20
184.296263
0
VERTEX
5
4f7
100
AcDbEntity
8
0
100
AcDbVertex
100
AcDb2dVertex
62
5
10
102.418115
20
184.249684
0
VERTEX
5
4f8
100
AcDbEntity
8
0
100
AcDbVertex
100
AcDb2dVertex
62
5
10
102.564823
20
184.223289
0
VERTEX
5
4f9
100
AcDbEntity
8
0
100
AcDbVertex
100
AcDb2dVertex
62
5
10
102.852482
20
184.274972
0
VERTEX
5
4fa
100
AcDbEntity
8
0
100
AcDbVertex
100
AcDb2dVertex
62
5
10
103.105812
20
184.431240
0
SEQEND
5
4fb
100
AcDbEntity
8
0
0
LINE
5
4fc
100
AcDbEntity
8
0
100
AcDbLine
6
CONTINUOUS
62
5
10
103.321314
20
182.360631
11
104.036889
21
182.360631
0
POLYLINE
5
4fd
100
AcDbEntity
8
0
6
CONTINUOUS
62
5
100
AcDb2dPolyline
66
1
10
0.0
20
0.0
30
0.0
70
0
0
VERTEX
5
4fe
100
AcDbEntity
8
0
100
AcDbVertex
100
AcDb2dVertex
62
5
10
104.218394
20
182.925778
0
VERTEX
5
4ff
100
AcDbEntity
8
0
100
AcDbVertex
100
AcDb2dVertex
62
5
10
104.371451
20
182.857298
0
VERTEX
5
500
100
AcDbEntity
8
0
100
AcDbVertex
100
AcDb2dVertex
62
5
10
104.399257
20
182.843519
0
VERTEX
5
501
100
AcDbEntity
8
0
100
AcDbVertex
100
AcDb2dVertex
62
5
10
104.549659
20
182.755793
0
SEQEND
5
502
100
AcDbEntity
8
0
0
POLYLINE
5
503
100
AcDbEntity
8
0
6
CONTINUOUS
62
5
100
AcDb2dPolyline
66
1
10
0.0
20
0.0
30
0.0
70
0
0
VERTEX
5
504
100
AcDbEntity
8
0
100
AcDbVertex
100
AcDb2dVertex
62
5
10
104.228976
20
181.672517
0
VERTEX
5
505
100
AcDbEntity
8
0
100
AcDbVertex
100
AcDb2dVertex
62
5
10
104.395098
20
181.733109
0
VERTEX
5
506
100
AcDbEntity
8
0
100
AcDbVertex
100
AcDb2dVertex
62
5
10
104.571072
20
181.854624
0
VERTEX
5
507
100
AcDbEntity
8
0
100
AcDbVertex
100
AcDb2dVertex
62
5
10
104.681129
20
181.988717
0
VERTEX
5
508
100
AcDbEntity
8
0
100
AcDbVertex
100
AcDb2dVertex
62
5
10
104.771787
20
182.190457
0
VERTEX
5
509
100
AcDbEntity
8
0
100
AcDbVertex
100
AcDb2dVertex
62
5
10
104.837267
20
182.438027
0
VERTEX
5
50a
100
AcDbEntity
8
0
100
AcDbVertex
100
AcDb2dVertex
62
5
10
104.875833
20
182.710918
0
SEQEND
5
50b
100
AcDbEntity
8
0
0
POLYLINE
5
50c
100
AcDbEntity
8
0
6
CONTINUOUS
62
5
100
AcDb2dPolyline
66
1
10
0.0
20
0.0
30
0.0
70
0
0
VERTEX
5
50d
100
AcDbEntity
8
0
100
AcDbVertex
100
AcDb2dVertex
62
5
10
96.793149
20
182.918543
0
VERTEX
5
50e
100
AcDbEntity
8
0
100
AcDbVertex
100
AcDb2dVertex
62
5
10
98.093811
20
182.917256
0
VERTEX
5
50f
100
AcDbEntity
8
0
100
AcDbVertex
100
AcDb2dVertex
62
5
10
98.132307
20
182.893761
0
VERTEX
5
510
100
AcDbEntity
8
0
100
AcDbVertex
100
AcDb2dVertex
62
5
10
98.103391
20
182.787932
0
VERTEX
5
511
100
AcDbEntity
8
0
100
AcDbVertex
100
AcDb2dVertex
62
5
10
98.065651
20
182.672800
0
VERTEX
5
512
100
AcDbEntity
8
0
100
AcDbVertex
100
AcDb2dVertex
62
5
10
97.885695
20
182.464947
0
VERTEX
5
513
100
AcDbEntity
8
0
100
AcDbVertex
100
AcDb2dVertex
62
5
10
97.768747
20
182.383823
0
VERTEX
5
514
100
AcDbEntity
8
0
100
AcDbVertex
100
AcDb2dVertex
62
5
10
97.641085
20
182.323300
0
SEQEND
5
515
100
AcDbEntity
8
0
0
POLYLINE
5
516
100
AcDbEntity
8
0
6
CONTINUOUS
62
5
100
AcDb2dPolyline
66
1
10
0.0
20
0.0
30
0.0
70
0
0
VERTEX
5
517
100
AcDbEntity
8
0
100
AcDbVertex
100
AcDb2dVertex
62
5
10
97.426740
20
182.647822
0
VERTEX
5
518
100
AcDbEntity
8
0
100
AcDbVertex
100
AcDb2dVertex
62
5
10
97.426740
20
182.496191
0
VERTEX
5
519
100
AcDbEntity
8
0
100
AcDbVertex
100
AcDb2dVertex
62
5
10
97.426740
20
182.412464
0
VERTEX
5
51a
100
AcDbEntity
8
0
100
AcDbVertex
100
AcDb2dVertex
62
5
10
97.409721
20
182.211223
0
VERTEX
5
51b
100
AcDbEntity
8
0
100
AcDbVertex
100
AcDb2dVertex
62
5
10
97.389961
20
182.101902
0
VERTEX
5
51c
100
AcDbEntity
8
0
100
AcDbVertex
100
AcDb2dVertex
62
5
10
97.361804
20
181.996626
0
VERTEX
5
51d
100
AcDbEntity
8
0
100
AcDbVertex
100
AcDb2dVertex
62
5
10
97.302259
20
181.881019
0
VERTEX
5
51e
100
AcDbEntity
8
0
100
AcDbVertex
100
AcDb2dVertex
62
5
10
97.193076
20
181.759183
0
VERTEX
5
51f
100
AcDbEntity
8
0
100
AcDbVertex
100
AcDb2dVertex
62
5
10
97.025968
20
181.623973
0
SEQEND
5
520
100
AcDbEntity
8
0
0
POLYLINE
5
521
100
AcDbEntity
8
0
6
CONTINUOUS
62
5
100
AcDb2dPolyline
66
1
10
0.0
20
0.0
30
0.0
70
0
0
VERTEX
5
522
100
AcDbEntity
8
0
100
AcDbVertex
100
AcDb2dVertex
62
5
10
97.399079
20
184.999319
0
VERTEX
5
523
100
AcDbEntity
8
0
100
AcDbVertex
100
AcDb2dVertex
62
5
10
97.536794
20
184.954059
0
VERTEX
5
524
100
AcDbEntity
8
0
100
AcDbVertex
100
AcDb2dVertex
62
5
10
97.708289
20
184.900130
0
VERTEX
5
525
100
AcDbEntity
8
0
100
AcDbVertex
100
AcDb2dVertex
62
5
10
97.768952
20
184.863463
0
VERTEX
5
526
100
AcDbEntity
8
0
100
AcDbVertex
100
AcDb2dVertex
62
5
10
97.853804
20
184.775963
0
VERTEX
5
527
100
AcDbEntity
8
0
100
AcDbVertex
100
AcDb2dVertex
62
5
10
97.901332
20
184.667322
0
VERTEX
5
528
100
AcDbEntity
8
0
100
AcDbVertex
100
AcDb2dVertex
62
5
10
97.909762
20
184.609139
0
VERTEX
5
529
100
AcDbEntity
8
0
100
AcDbVertex
100
AcDb2dVertex
62
5
10
97.904280
20
184.550348
0
VERTEX
5
52a
100
AcDbEntity
8
0
100
AcDbVertex
100
AcDb2dVertex
62
5
10
97.888363
20
184.481426
0
VERTEX
5
52b
100
AcDbEntity
8
0
100
AcDbVertex
100
AcDb2dVertex
62
5
10
97.848118
20
184.412937
0
VERTEX
5
52c
100
AcDbEntity
8
0
100
AcDbVertex
100
AcDb2dVertex
62
5
10
97.777839
20
184.337551
0
VERTEX
5
52d
100
AcDbEntity
8
0
100
AcDbVertex
100
AcDb2dVertex
62
5
10
97.654834
20
184.279965
0
VERTEX
5
52e
100
AcDbEntity
8
0
100
AcDbVertex
100
AcDb2dVertex
62
5
10
97.553102
20
184.247818
0
VERTEX
5
52f
100
AcDbEntity
8
0
100
AcDbVertex
100
AcDb2dVertex
62
5
10
97.384649
20
184.234841
0
VERTEX
5
530
100
AcDbEntity
8
0
100
AcDbVertex
100
AcDb2dVertex
62
5
10
96.930238
20
184.234841
0
VERTEX
5
531
100
AcDbEntity
8
0
100
AcDbVertex
100
AcDb2dVertex
62
5
10
96.930238
20
185.690276
0
VERTEX
5
532
100
AcDbEntity
8
0
100
AcDbVertex
100
AcDb2dVertex
62
5
10
97.379987
20
185.694496
0
VERTEX
5
533
100
AcDbEntity
8
0
100
AcDbVertex
100
AcDb2dVertex
62
5
10
97.476640
20
185.677291
0
VERTEX
5
534
100
AcDbEntity
8
0
100
AcDbVertex
100
AcDb2dVertex
62
5
10
97.637673
20
185.646233
0
VERTEX
5
535
100
AcDbEntity
8
0
100
AcDbVertex
100
AcDb2dVertex
62
5
10
97.690867
20
185.620362
0
VERTEX
5
536
100
AcDbEntity
8
0
100
AcDbVertex
100
AcDb2dVertex
62
5
10
97.722090
20
185.598612
0
VERTEX
5
537
100
AcDbEntity
8
0
100
AcDbVertex
100
AcDb2dVertex
62
5
10
97.780654
20
185.538891
0
VERTEX
5
538
100
AcDbEntity
8
0
100
AcDbVertex
100
AcDb2dVertex
62
5
10
97.824958
20
185.435690
0
VERTEX
5
539
100
AcDbEntity
8
0
100
AcDbVertex
100
AcDb2dVertex
62
5
10
97.838491
20
185.354185
0
VERTEX
5
53a
100
AcDbEntity
8
0
100
AcDbVertex
100
AcDb2dVertex
62
5
10
97.816118
20
185.235581
0
VERTEX
5
53b
100
AcDbEntity
8
0
100
AcDbVertex
100
AcDb2dVertex
62
5
10
97.760897
20
185.152036
0
VERTEX
5
53c
100
AcDbEntity
8
0
100
AcDbVertex
100
AcDb2dVertex
62
5
10
97.670752
20
185.087651
0
VERTEX
5
53d
100
AcDbEntity
8
0
100
AcDbVertex
100
AcDb2dVertex
62
5
10
97.399079
20
184.999319
0
VERTEX
5
53e
100
AcDbEntity
8
0
100
AcDbVertex
100
AcDb2dVertex
62
5
10
96.930238
20
184.999319
0
SEQEND
5
53f
100
AcDbEntity
8
0
0
ARC
5
540
100
AcDbEntity
8
0
100
AcDbCircle
6
CONTINUOUS
62
5
10
91.581280
20
181.153433
40
1.481828
100
AcDbArc
50
16.544664
51
36.559858
0
POLYLINE
5
541
100
AcDbEntity
8
0
6
CONTINUOUS
62
5
100
AcDb2dPolyline
66
1
10
0.0
20
0.0
30
0.0
70
0
0
VERTEX
5
542
100
AcDbEntity
8
0
100
AcDbVertex
100
AcDb2dVertex
62
5
10
92.091818
20
181.575403
0
VERTEX
5
543
100
AcDbEntity
8
0
100
AcDbVertex
100
AcDb2dVertex
62
5
10
92.091818
20
183.004005
0
VERTEX
5
544
100
AcDbEntity
8
0
100
AcDbVertex
100
AcDb2dVertex
62
5
10
92.473181
20
183.004005
0
VERTEX
5
545
100
AcDbEntity
8
0
100
AcDbVertex
100
AcDb2dVertex
62
5
10
92.733087
20
182.952317
0
VERTEX
5
546
100
AcDbEntity
8
0
100
AcDbVertex
100
AcDb2dVertex
62
5
10
92.778654
20
182.932692
0
VERTEX
5
547
100
AcDbEntity
8
0
100
AcDbVertex
100
AcDb2dVertex
62
5
10
92.814686
20
182.903633
0
VERTEX
5
548
100
AcDbEntity
8
0
100
AcDbVertex
100
AcDb2dVertex
62
5
10
92.873143
20
182.832755
0
VERTEX
5
549
100
AcDbEntity
8
0
100
AcDbVertex
100
AcDb2dVertex
62
5
10
92.914688
20
182.664033
0
VERTEX
5
54a
100
AcDbEntity
8
0
100
AcDbVertex
100
AcDb2dVertex
62
5
10
92.912448
20
182.645916
0
VERTEX
5
54b
100
AcDbEntity
8
0
100
AcDbVertex
100
AcDb2dVertex
62
5
10
92.884971
20
182.518254
0
VERTEX
5
54c
100
AcDbEntity
8
0
100
AcDbVertex
100
AcDb2dVertex
62
5
10
92.813192
20
182.425266
0
VERTEX
5
54d
100
AcDbEntity
8
0
100
AcDbVertex
100
AcDb2dVertex
62
5
10
92.741772
20
182.382757
0
VERTEX
5
54e
100
AcDbEntity
8
0
100
AcDbVertex
100
AcDb2dVertex
62
5
10
92.704788
20
182.365881
0
VERTEX
5
54f
100
AcDbEntity
8
0
100
AcDbVertex
100
AcDb2dVertex
62
5
10
92.605491
20
182.333367
0
VERTEX
5
550
100
AcDbEntity
8
0
100
AcDbVertex
100
AcDb2dVertex
62
5
10
92.373856
20
182.297004
0
VERTEX
5
551
100
AcDbEntity
8
0
100
AcDbVertex
100
AcDb2dVertex
62
5
10
92.091818
20
182.297004
0
VERTEX
5
552
100
AcDbEntity
8
0
100
AcDbVertex
100
AcDb2dVertex
62
5
10
92.373856
20
182.297004
0
VERTEX
5
553
100
AcDbEntity
8
0
100
AcDbVertex
100
AcDb2dVertex
62
5
10
92.474425
20
182.297004
0
VERTEX
5
554
100
AcDbEntity
8
0
100
AcDbVertex
100
AcDb2dVertex
62
5
10
92.576236
20
182.221782
0
VERTEX
5
555
100
AcDbEntity
8
0
100
AcDbVertex
100
AcDb2dVertex
62
5
10
92.695936
20
182.142085
0
VERTEX
5
556
100
AcDbEntity
8
0
100
AcDbVertex
100
AcDb2dVertex
62
5
10
92.771536
20
182.036102
0
SEQEND
5
557
100
AcDbEntity
8
0
0
LINE
5
558
100
AcDbEntity
8
0
100
AcDbLine
6
CONTINUOUS
62
5
10
93.426789
20
182.352863
11
94.186701
21
182.352863
0
POLYLINE
5
559
100
AcDbEntity
8
0
6
CONTINUOUS
62
5
100
AcDb2dPolyline
66
1
10
0.0
20
0.0
30
0.0
70
0
0
VERTEX
5
55a
100
AcDbEntity
8
0
100
AcDbVertex
100
AcDb2dVertex
62
5
10
94.268680
20
183.001326
0
VERTEX
5
55b
100
AcDbEntity
8
0
100
AcDbVertex
100
AcDb2dVertex
62
5
10
93.426789
20
183.001326
0
VERTEX
5
55c
100
AcDbEntity
8
0
100
AcDbVertex
100
AcDb2dVertex
62
5
10
93.426789
20
181.651354
0
VERTEX
5
55d
100
AcDbEntity
8
0
100
AcDbVertex
100
AcDb2dVertex
62
5
10
94.291720
20
181.651354
0
SEQEND
5
55e
100
AcDbEntity
8
0
0
LINE
5
55f
100
AcDbEntity
8
0
100
AcDbLine
6
CONTINUOUS
62
5
10
91.968907
20
184.710648
11
92.811093
21
184.710648
0
POLYLINE
5
560
100
AcDbEntity
8
0
6
CONTINUOUS
62
5
100
AcDb2dPolyline
66
1
10
0.0
20
0.0
30
0.0
70
0
0
VERTEX
5
561
100
AcDbEntity
8
0
100
AcDbVertex
100
AcDb2dVertex
62
5
10
91.765145
20
184.159819
0
VERTEX
5
562
100
AcDbEntity
8
0
100
AcDbVertex
100
AcDb2dVertex
62
5
10
92.325516
20
185.674670
0
VERTEX
5
563
100
AcDbEntity
8
0
100
AcDbVertex
100
AcDb2dVertex
62
5
10
92.454484
20
185.674670
0
VERTEX
5
564
100
AcDbEntity
8
0
100
AcDbVertex
100
AcDb2dVertex
62
5
10
93.014855
20
184.159819
0
SEQEND
5
565
100
AcDbEntity
8
0
0
LINE
5
566
100
AcDbEntity
8
1
100
AcDbLine
6
CONTINUOUS
62
5
10
94.880000
20
185.800000
11
94.880000
21
183.650000
0
POLYLINE
5
567
100
AcDbEntity
8
0
6
CONTINUOUS
62
5
100
AcDb2dPolyline
66
1
10
0.0
20
0.0
30
0.0
70
0
0
VERTEX
5
568
100
AcDbEntity
8
0
100
AcDbVertex
100
AcDb2dVertex
62
5
10
91.710991
20
183.132466
0
VERTEX
5
569
100
AcDbEntity
8
0
100
AcDbVertex
100
AcDb2dVertex
62
5
10
91.275645
20
183.132466
0
VERTEX
5
56a
100
AcDbEntity
8
0
100
AcDbVertex
100
AcDb2dVertex
62
5
10
91.275645
20
181.517534
0
VERTEX
5
56b
100
AcDbEntity
8
0
100
AcDbVertex
100
AcDb2dVertex
62
5
10
91.710991
20
181.517534
0
SEQEND
5
56c
100
AcDbEntity
8
0
0
LINE
5
56d
100
AcDbEntity
8
0
100
AcDbLine
6
CONTINUOUS
62
5
10
96.413260
20
182.040218
11
96.186076
21
181.797765
0
POLYLINE
5
56e
100
AcDbEntity
8
0
6
CONTINUOUS
62
5
100
AcDb2dPolyline
66
1
10
0.0
20
0.0
30
0.0
70
0
0
VERTEX
5
56f
100
AcDbEntity
8
0
100
AcDbVertex
100
AcDb2dVertex
62
5
10
96.186076
20
182.040218
0
VERTEX
5
570
100
AcDbEntity
8
0
100
AcDbVertex
100
AcDb2dVertex
62
5
10
96.413260
20
182.040218
0
VERTEX
5
571
100
AcDbEntity
8
0
100
AcDbVertex
100
AcDb2dVertex
62
5
10
96.413260
20
181.797765
0
VERTEX
5
572
100
AcDbEntity
8
0
100
AcDbVertex
100
AcDb2dVertex
62
5
10
96.186076
20
181.797765
0
VERTEX
5
573
100
AcDbEntity
8
0
100
AcDbVertex
100
AcDb2dVertex
62
5
10
96.186076
20
182.040218
0
VERTEX
5
574
100
AcDbEntity
8
0
100
AcDbVertex
100
AcDb2dVertex
62
5
10
96.413260
20
181.797765
0
SEQEND
5
575
100
AcDbEntity
8
0
0
LINE
5
576
100
AcDbEntity
8
0
100
AcDbLine
6
CONTINUOUS
62
5
10
96.413260
20
182.853039
11
96.186076
21
182.610586
0
POLYLINE
5
577
100
AcDbEntity
8
0
6
CONTINUOUS
62
5
100
AcDb2dPolyline
66
1
10
0.0
20
0.0
30
0.0
70
0
0
VERTEX
5
578
100
AcDbEntity
8
0
100
AcDbVertex
100
AcDb2dVertex
62
5
10
96.186076
20
182.853039
0
VERTEX
5
579
100
AcDbEntity
8
0
100
AcDbVertex
100
AcDb2dVertex
62
5
10
96.413260
20
182.853039
0
VERTEX
5
57a
100
AcDbEntity
8
0
100
AcDbVertex
100
AcDb2dVertex
62
5
10
96.413260
20
182.610586
0
VERTEX
5
57b
100
AcDbEntity
8
0
100
AcDbVertex
100
AcDb2dVertex
62
5
10
96.186076
20
182.610586
0
VERTEX
5
57c
100
AcDbEntity
8
0
100
AcDbVertex
100
AcDb2dVertex
62
5
10
96.186076
20
182.853039
0
VERTEX
5
57d
100
AcDbEntity
8
0
100
AcDbVertex
100
AcDb2dVertex
62
5
10
96.413260
20
182.610586
0
SEQEND
5
57e
100
AcDbEntity
8
0
0
POLYLINE
5
57f
100
AcDbEntity
8
0
6
CONTINUOUS
62
5
100
AcDb2dPolyline
66
1
10
0.0
20
0.0
30
0.0
70
1
0
VERTEX
5
580
100
AcDbEntity
8
0
100
AcDbVertex
100
AcDb2dVertex
62
5
10
95.154717
20
182.984951
0
VERTEX
5
581
100
AcDbEntity
8
0
100
AcDbVertex
100
AcDb2dVertex
62
5
10
95.385172
20
182.899726
0
VERTEX
5
582
100
AcDbEntity
8
0
100
AcDbVertex
100
AcDb2dVertex
62
5
10
95.420408
20
182.877945
0
VERTEX
5
583
100
AcDbEntity
8
0
100
AcDbVertex
100
AcDb2dVertex
62
5
10
95.530346
20
182.777603
0
VERTEX
5
584
100
AcDbEntity
8
0
100
AcDbVertex
100
AcDb2dVertex
62
5
10
95.594956
20
182.679847
0
VERTEX
5
585
100
AcDbEntity
8
0
100
AcDbVertex
100
AcDb2dVertex
62
5
10
95.658852
20
182.491612
0
VERTEX
5
586
100
AcDbEntity
8
0
100
AcDbVertex
100
AcDb2dVertex
62
5
10
95.669267
20
182.335966
0
VERTEX
5
587
100
AcDbEntity
8
0
100
AcDbVertex
100
AcDb2dVertex
62
5
10
95.654192
20
182.192495
0
VERTEX
5
588
100
AcDbEntity
8
0
100
AcDbVertex
100
AcDb2dVertex
62
5
10
95.608344
20
182.017698
0
VERTEX
5
589
100
AcDbEntity
8
0
100
AcDbVertex
100
AcDb2dVertex
62
5
10
95.549090
20
181.900974
0
VERTEX
5
58a
100
AcDbEntity
8
0
100
AcDbVertex
100
AcDb2dVertex
62
5
10
95.401403
20
181.751448
0
VERTEX
5
58b
100
AcDbEntity
8
0
100
AcDbVertex
100
AcDb2dVertex
62
5
10
95.208819
20
181.674633
0
VERTEX
5
58c
100
AcDbEntity
8
0
100
AcDbVertex
100
AcDb2dVertex
62
5
10
94.949198
20
181.649327
0
VERTEX
5
58d
100
AcDbEntity
8
0
100
AcDbVertex
100
AcDb2dVertex
62
5
10
94.639862
20
181.650415
0
VERTEX
5
58e
100
AcDbEntity
8
0
100
AcDbVertex
100
AcDb2dVertex
62
5
10
94.639862
20
183.001326
0
VERTEX
5
58f
100
AcDbEntity
8
0
100
AcDbVertex
100
AcDb2dVertex
62
5
10
94.977155
20
183.001326
0
SEQEND
5
590
100
AcDbEntity
8
0
0
POLYLINE
5
591
100
AcDbEntity
8
0
6
CONTINUOUS
62
5
100
AcDb2dPolyline
66
1
10
0.0
20
0.0
30
0.0
70
0
0
VERTEX
5
592
100
AcDbEntity
8
0
100
AcDbVertex
100
AcDb2dVertex
62
5
10
98.436478
20
182.709713
0
VERTEX
5
593
100
AcDbEntity
8
0
100
AcDbVertex
100
AcDb2dVertex
62
5
10
99.659224
20
182.709713
0
VERTEX
5
594
100
AcDbEntity
8
0
100
AcDbVertex
100
AcDb2dVertex
62
5
10
99.659224
20
182.486527
0
VERTEX
5
595
100
AcDbEntity
8
0
100
AcDbVertex
100
AcDb2dVertex
62
5
10
99.645310
20
182.303992
0
VERTEX
5
596
100
AcDbEntity
8
0
100
AcDbVertex
100
AcDb2dVertex
62
5
10
99.608424
20
181.820130
0
VERTEX
5
597
100
AcDbEntity
8
0
100
AcDbVertex
100
AcDb2dVertex
62
5
10
99.567840
20
181.687119
0
VERTEX
5
598
100
AcDbEntity
8
0
100
AcDbVertex
100
AcDb2dVertex
62
5
10
99.550601
20
181.673133
0
VERTEX
5
599
100
AcDbEntity
8
0
100
AcDbVertex
100
AcDb2dVertex
62
5
10
99.488062
20
181.645067
0
VERTEX
5
59a
100
AcDbEntity
8
0
100
AcDbVertex
100
AcDb2dVertex
62
5
10
99.411030
20
181.635006
0
VERTEX
5
59b
100
AcDbEntity
8
0
100
AcDbVertex
100
AcDb2dVertex
62
5
10
99.216420
20
181.657460
0
VERTEX
5
59c
100
AcDbEntity
8
0
100
AcDbVertex
100
AcDb2dVertex
62
5
10
99.195051
20
181.659926
0
SEQEND
5
59d
100
AcDbEntity
8
0
0
POLYLINE
5
59e
100
AcDbEntity
8
0
6
CONTINUOUS
62
5
100
AcDb2dPolyline
66
1
10
0.0
20
0.0
30
0.0
70
0
0
VERTEX
5
59f
100
AcDbEntity
8
0
100
AcDbVertex
100
AcDb2dVertex
62
5
10
99.048641
20
183.142379
0
VERTEX
5
5a0
100
AcDbEntity
8
0
100
AcDbVertex
100
AcDb2dVertex
62
5
10
99.037523
20
182.709713
0
VERTEX
5
5a1
100
AcDbEntity
8
0
100
AcDbVertex
100
AcDb2dVertex
62
5
10
98.975650
20
182.317947
0
VERTEX
5
5a2
100
AcDbEntity
8
0
100
AcDbVertex
100
AcDb2dVertex
62
5
10
98.863786
20
182.021197
0
VERTEX
5
5a3
100
AcDbEntity
8
0
100
AcDbVertex
100
AcDb2dVertex
62
5
10
98.839195
20
181.984771
0
VERTEX
5
5a4
100
AcDbEntity
8
0
100
AcDbVertex
100
AcDb2dVertex
62
5
10
98.668492
20
181.777908
0
VERTEX
5
5a5
100
AcDbEntity
8
0
100
AcDbVertex
100
AcDb2dVertex
62
5
10
98.468358
20
181.625634
0
SEQEND
5
5a6
100
AcDbEntity
8
0
0
POLYLINE
5
5a7
100
AcDbEntity
8
0
6
CONTINUOUS
62
5
100
AcDb2dPolyline
66
1
10
0.0
20
0.0
30
0.0
70
0
0
VERTEX
5
5a8
100
AcDbEntity
8
0
100
AcDbVertex
100
AcDb2dVertex
62
5
10
100.065340
20
183.132466
0
VERTEX
5
5a9
100
AcDbEntity
8
0
100
AcDbVertex
100
AcDb2dVertex
62
5
10
100.500686
20
183.132466
0
VERTEX
5
5aa
100
AcDbEntity
8
0
100
AcDbVertex
100
AcDb2dVertex
62
5
10
100.500686
20
181.517534
0
VERTEX
5
5ab
100
AcDbEntity
8
0
100
AcDbVertex
100
AcDb2dVertex
62
5
10
100.065340
20
181.517534
0
SEQEND
5
5ac
100
AcDbEntity
8
0
0
LINE
5
5ad
100
AcDbEntity
8
1
100
AcDbLine
6
CONTINUOUS
62
5
10
99.960000
20
185.800000
11
99.960000
21
183.650000
0
POLYLINE
5
5ae
100
AcDbEntity
8
0
6
CONTINUOUS
62
5
100
AcDb2dPolyline
66
1
10
0.0
20
0.0
30
0.0
70
0
0
VERTEX
5
5af
100
AcDbEntity
8
0
100
AcDbVertex
100
AcDb2dVertex
62
5
10
88.081439
20
182.668396
0
VERTEX
5
5b0
100
AcDbEntity
8
0
100
AcDbVertex
100
AcDb2dVertex
62
5
10
87.929418
20
182.472207
0
VERTEX
5
5b1
100
AcDbEntity
8
0
100
AcDbVertex
100
AcDb2dVertex
62
5
10
87.828583
20
182.342075
0
VERTEX
5
5b2
100
AcDbEntity
8
0
100
AcDbVertex
100
AcDb2dVertex
62
5
10
87.627781
20
182.135414
0
VERTEX
5
5b3
100
AcDbEntity
8
0
100
AcDbVertex
100
AcDb2dVertex
62
5
10
87.403541
20
181.955177
0
VERTEX
5
5b4
100
AcDbEntity
8
0
100
AcDbVertex
100
AcDb2dVertex
62
5
10
87.154969
20
181.805275
0
SEQEND
5
5b5
100
AcDbEntity
8
0
0
LINE
5
5b6
100
AcDbEntity
8
0
100
AcDbLine
6
CONTINUOUS
62
5
10
87.141195
20
182.668396
11
88.658575
21
182.668396
0
POLYLINE
5
5b7
100
AcDbEntity
8
0
6
CONTINUOUS
62
5
100
AcDb2dPolyline
66
1
10
0.0
20
0.0
30
0.0
70
0
0
VERTEX
5
5b8
100
AcDbEntity
8
0
100
AcDbVertex
100
AcDb2dVertex
62
5
10
88.144984
20
183.099222
0
VERTEX
5
5b9
100
AcDbEntity
8
0
100
AcDbVertex
100
AcDb2dVertex
62
5
10
88.144984
20
181.668172
0
VERTEX
5
5ba
100
AcDbEntity
8
0
100
AcDbVertex
100
AcDb2dVertex
62
5
10
88.129595
20
181.634715
0
VERTEX
5
5bb
100
AcDbEntity
8
0
100
AcDbVertex
100
AcDb2dVertex
62
5
10
88.117615
20
181.617533
0
VERTEX
5
5bc
100
AcDbEntity
8
0
100
AcDbVertex
100
AcDb2dVertex
62
5
10
88.076375
20
181.600778
0
VERTEX
5
5bd
100
AcDbEntity
8
0
100
AcDbVertex
100
AcDb2dVertex
62
5
10
88.032132
20
181.595879
0
VERTEX
5
5be
100
AcDbEntity
8
0
100
AcDbVertex
100
AcDb2dVertex
62
5
10
87.772489
20
181.607270
0
SEQEND
5
5bf
100
AcDbEntity
8
0
0
POLYLINE
5
5c0
100
AcDbEntity
8
0
6
CONTINUOUS
62
5
100
AcDb2dPolyline
66
1
10
0.0
20
0.0
30
0.0
70
0
0
VERTEX
5
5c1
100
AcDbEntity
8
0
100
AcDbVertex
100
AcDb2dVertex
62
5
10
85.441425
20
182.890762
0
VERTEX
5
5c2
100
AcDbEntity
8
0
100
AcDbVertex
100
AcDb2dVertex
62
5
10
86.822061
20
182.890762
0
VERTEX
5
5c3
100
AcDbEntity
8
0
100
AcDbVertex
100
AcDb2dVertex
62
5
10
86.855612
20
182.846009
0
VERTEX
5
5c4
100
AcDbEntity
8
0
100
AcDbVertex
100
AcDb2dVertex
62
5
10
86.824997
20
182.758087
0
VERTEX
5
5c5
100
AcDbEntity
8
0
100
AcDbVertex
100
AcDb2dVertex
62
5
10
86.754398
20
182.606776
0
VERTEX
5
5c6
100
AcDbEntity
8
0
100
AcDbVertex
100
AcDb2dVertex
62
5
10
86.595960
20
182.438514
0
VERTEX
5
5c7
100
AcDbEntity
8
0
100
AcDbVertex
100
AcDb2dVertex
62
5
10
86.457218
20
182.357329
0
VERTEX
5
5c8
100
AcDbEntity
8
0
100
AcDbVertex
100
AcDb2dVertex
62
5
10
86.329555
20
182.296806
0
SEQEND
5
5c9
100
AcDbEntity
8
0
0
POLYLINE
5
5ca
100
AcDbEntity
8
0
6
CONTINUOUS
62
5
100
AcDb2dPolyline
66
1
10
0.0
20
0.0
30
0.0
70
0
0
VERTEX
5
5cb
100
AcDbEntity
8
0
100
AcDbVertex
100
AcDb2dVertex
62
5
10
86.115210
20
182.621329
0
VERTEX
5
5cc
100
AcDbEntity
8
0
100
AcDbVertex
100
AcDb2dVertex
62
5
10
86.115210
20
182.469697
0
VERTEX
5
5cd
100
AcDbEntity
8
0
100
AcDbVertex
100
AcDb2dVertex
62
5
10
86.115210
20
182.385970
0
VERTEX
5
5ce
100
AcDbEntity
8
0
100
AcDbVertex
100
AcDb2dVertex
62
5
10
86.098191
20
182.184730
0
VERTEX
5
5cf
100
AcDbEntity
8
0
100
AcDbVertex
100
AcDb2dVertex
62
5
10
86.078431
20
182.075408
0
VERTEX
5
5d0
100
AcDbEntity
8
0
100
AcDbVertex
100
AcDb2dVertex
62
5
10
86.050274
20
181.970132
0
VERTEX
5
5d1
100
AcDbEntity
8
0
100
AcDbVertex
100
AcDb2dVertex
62
5
10
85.984677
20
181.863860
0
VERTEX
5
5d2
100
AcDbEntity
8
0
100
AcDbVertex
100
AcDb2dVertex
62
5
10
85.874897
20
181.724232
0
VERTEX
5
5d3
100
AcDbEntity
8
0
100
AcDbVertex
100
AcDb2dVertex
62
5
10
85.681846
20
181.596815
0
SEQEND
5
5d4
100
AcDbEntity
8
0
0
POLYLINE
5
5d5
100
AcDbEntity
8
0
6
CONTINUOUS
62
5
100
AcDb2dPolyline
66
1
10
0.0
20
0.0
30
0.0
70
0
0
VERTEX
5
5d6
100
AcDbEntity
8
0
100
AcDbVertex
100
AcDb2dVertex
62
5
10
86.683802
20
185.713282
0
VERTEX
5
5d7
100
AcDbEntity
8
0
100
AcDbVertex
100
AcDb2dVertex
62
5
10
86.683802
20
184.188589
0
VERTEX
5
5d8
100
AcDbEntity
8
0
100
AcDbVertex
100
AcDb2dVertex
62
5
10
87.545847
20
184.188589
0
SEQEND
5
5d9
100
AcDbEntity
8
0
0
POLYLINE
5
5da
100
AcDbEntity
8
0
6
CONTINUOUS
62
5
100
AcDb2dPolyline
66
1
10
0.0
20
0.0
30
0.0
70
0
0
VERTEX
5
5db
100
AcDbEntity
8
0
100
AcDbVertex
100
AcDb2dVertex
62
5
10
87.864191
20
185.713282
0
VERTEX
5
5dc
100
AcDbEntity
8
0
100
AcDbVertex
100
AcDb2dVertex
62
5
10
87.864191
20
184.681939
0
VERTEX
5
5dd
100
AcDbEntity
8
0
100
AcDbVertex
100
AcDb2dVertex
62
5
10
87.884919
20
184.506721
0
VERTEX
5
5de
100
AcDbEntity
8
0
100
AcDbVertex
100
AcDb2dVertex
62
5
10
87.895470
20
184.449300
0
VERTEX
5
5df
100
AcDbEntity
8
0
100
AcDbVertex
100
AcDb2dVertex
62
5
10
87.965313
20
184.357130
0
VERTEX
5
5e0
100
AcDbEntity
8
0
100
AcDbVertex
100
AcDb2dVertex
62
5
10
88.024095
20
184.307546
0
VERTEX
5
5e1
100
AcDbEntity
8
0
100
AcDbVertex
100
AcDb2dVertex
62
5
10
88.117419
20
184.240016
0
VERTEX
5
5e2
100
AcDbEntity
8
0
100
AcDbVertex
100
AcDb2dVertex
62
5
10
88.238759
20
184.198456
0
VERTEX
5
5e3
100
AcDbEntity
8
0
100
AcDbVertex
100
AcDb2dVertex
62
5
10
88.396622
20
184.169335
0
VERTEX
5
5e4
100
AcDbEntity
8
0
100
AcDbVertex
100
AcDb2dVertex
62
5
10
88.518921
20
184.184481
0
VERTEX
5
5e5
100
AcDbEntity
8
0
100
AcDbVertex
100
AcDb2dVertex
62
5
10
88.645940
20
184.210967
0
VERTEX
5
5e6
100
AcDbEntity
8
0
100
AcDbVertex
100
AcDb2dVertex
62
5
10
88.814099
20
184.334498
0
VERTEX
5
5e7
100
AcDbEntity
8
0
100
AcDbVertex
100
AcDb2dVertex
62
5
10
88.897096
20
184.488427
0
VERTEX
5
5e8
100
AcDbEntity
8
0
100
AcDbVertex
100
AcDb2dVertex
62
5
10
88.929053
20
184.681939
0
VERTEX
5
5e9
100
AcDbEntity
8
0
100
AcDbVertex
100
AcDb2dVertex
62
5
10
88.929053
20
185.713282
0
SEQEND
5
5ea
100
AcDbEntity
8
0
0
POLYLINE
5
5eb
100
AcDbEntity
8
0
6
CONTINUOUS
62
5
100
AcDb2dPolyline
66
1
10
0.0
20
0.0
30
0.0
70
1
0
VERTEX
5
5ec
100
AcDbEntity
8
0
100
AcDbVertex
100
AcDb2dVertex
62
5
10
85.170947
20
184.945658
0
VERTEX
5
5ed
100
AcDbEntity
8
0
100
AcDbVertex
100
AcDb2dVertex
62
5
10
85.607519
20
184.945658
0
VERTEX
5
5ee
100
AcDbEntity
8
0
100
AcDbVertex
100
AcDb2dVertex
62
5
10
85.824192
20
184.885310
0
VERTEX
5
5ef
100
AcDbEntity
8
0
100
AcDbVertex
100
AcDb2dVertex
62
5
10
85.964807
20
184.838698
0
VERTEX
5
5f0
100
AcDbEntity
8
0
100
AcDbVertex
100
AcDb2dVertex
62
5
10
86.051470
20
184.780468
0
VERTEX
5
5f1
100
AcDbEntity
8
0
100
AcDbVertex
100
AcDb2dVertex
62
5
10
86.131897
20
184.664452
0
VERTEX
5
5f2
100
AcDbEntity
8
0
100
AcDbVertex
100
AcDb2dVertex
62
5
10
86.150251
20
184.555496
0
VERTEX
5
5f3
100
AcDbEntity
8
0
100
AcDbVertex
100
AcDb2dVertex
62
5
10
86.148650
20
184.476919
0
VERTEX
5
5f4
100
AcDbEntity
8
0
100
AcDbVertex
100
AcDb2dVertex
62
5
10
86.129073
20
184.428330
0
VERTEX
5
5f5
100
AcDbEntity
8
0
100
AcDbVertex
100
AcDb2dVertex
62
5
10
86.018553
20
184.284453
0
VERTEX
5
5f6
100
AcDbEntity
8
0
100
AcDbVertex
100
AcDb2dVertex
62
5
10
85.908540
20
184.230788
0
VERTEX
5
5f7
100
AcDbEntity
8
0
100
AcDbVertex
100
AcDb2dVertex
62
5
10
85.793493
20
184.196070
0
VERTEX
5
5f8
100
AcDbEntity
8
0
100
AcDbVertex
100
AcDb2dVertex
62
5
10
85.625364
20
184.181743
0
VERTEX
5
5f9
100
AcDbEntity
8
0
100
AcDbVertex
100
AcDb2dVertex
62
5
10
85.170947
20
184.181743
0
VERTEX
5
5fa
100
AcDbEntity
8
0
100
AcDbVertex
100
AcDb2dVertex
62
5
10
85.170947
20
185.641397
0
VERTEX
5
5fb
100
AcDbEntity
8
0
100
AcDbVertex
100
AcDb2dVertex
62
5
10
85.570021
20
185.641397
0
VERTEX
5
5fc
100
AcDbEntity
8
0
100
AcDbVertex
100
AcDb2dVertex
62
5
10
85.718235
20
185.629146
0
VERTEX
5
5fd
100
AcDbEntity
8
0
100
AcDbVertex
100
AcDb2dVertex
62
5
10
85.878386
20
185.593135
0
VERTEX
5
5fe
100
AcDbEntity
8
0
100
AcDbVertex
100
AcDb2dVertex
62
5
10
85.962803
20
185.545513
0
VERTEX
5
5ff
100
AcDbEntity
8
0
100
AcDbVertex
100
AcDb2dVertex
62
5
10
86.021369
20
185.485793
0
VERTEX
5
600
100
AcDbEntity
8
0
100
AcDbVertex
100
AcDb2dVertex
62
5
10
86.071747
20
185.355899
0
VERTEX
5
601
100
AcDbEntity
8
0
100
AcDbVertex
100
AcDb2dVertex
62
5
10
86.079206
20
185.301087
0
VERTEX
5
602
100
AcDbEntity
8
0
100
AcDbVertex
100
AcDb2dVertex
62
5
10
86.056829
20
185.182482
0
VERTEX
5
603
100
AcDbEntity
8
0
100
AcDbVertex
100
AcDb2dVertex
62
5
10
86.001613
20
185.098938
0
VERTEX
5
604
100
AcDbEntity
8
0
100
AcDbVertex
100
AcDb2dVertex
62
5
10
85.911463
20
185.034552
0
VERTEX
5
605
100
AcDbEntity
8
0
100
AcDbVertex
100
AcDb2dVertex
62
5
10
85.826365
20
185.005041
0
VERTEX
5
606
100
AcDbEntity
8
0
100
AcDbVertex
100
AcDb2dVertex
62
5
10
85.607519
20
184.945658
0
SEQEND
5
607
100
AcDbEntity
8
0
0
LINE
5
608
100
AcDbEntity
8
0
100
AcDbLine
6
CONTINUOUS
62
5
10
83.380852
20
185.634551
11
83.380852
21
184.115564
0
LINE
5
609
100
AcDbEntity
8
0
100
AcDbLine
6
CONTINUOUS
62
5
10
82.812323
20
185.634551
11
83.949383
21
185.634551
0
POLYLINE
5
60a
100
AcDbEntity
8
0
6
CONTINUOUS
62
5
100
AcDb2dPolyline
66
1
10
0.0
20
0.0
30
0.0
70
0
0
VERTEX
5
60b
100
AcDbEntity
8
0
100
AcDbVertex
100
AcDb2dVertex
62
5
10
80.505362
20
182.984388
0
VERTEX
5
60c
100
AcDbEntity
8
0
100
AcDbVertex
100
AcDb2dVertex
62
5
10
80.759002
20
182.912414
0
VERTEX
5
60d
100
AcDbEntity
8
0
100
AcDbVertex
100
AcDb2dVertex
62
5
10
81.002041
20
182.811035
0
SEQEND
5
60e
100
AcDbEntity
8
0
0
POLYLINE
5
60f
100
AcDbEntity
8
0
6
CONTINUOUS
62
5
100
AcDb2dPolyline
66
1
10
0.0
20
0.0
30
0.0
70
0
0
VERTEX
5
610
100
AcDbEntity
8
0
100
AcDbVertex
100
AcDb2dVertex
62
5
10
80.325183
20
182.532107
0
VERTEX
5
611
100
AcDbEntity
8
0
100
AcDbVertex
100
AcDb2dVertex
62
5
10
80.573401
20
182.449076
0
VERTEX
5
612
100
AcDbEntity
8
0
100
AcDbVertex
100
AcDb2dVertex
62
5
10
80.815110
20
182.348787
0
SEQEND
5
613
100
AcDbEntity
8
0
0
POLYLINE
5
614
100
AcDbEntity
8
0
6
CONTINUOUS
62
5
100
AcDb2dPolyline
66
1
10
0.0
20
0.0
30
0.0
70
0
0
VERTEX
5
615
100
AcDbEntity
8
0
100
AcDbVertex
100
AcDb2dVertex
62
5
10
80.437101
20
181.639301
0
VERTEX
5
616
100
AcDbEntity
8
0
100
AcDbVertex
100
AcDb2dVertex
62
5
10
80.721151
20
181.675321
0
VERTEX
5
617
100
AcDbEntity
8
0
100
AcDbVertex
100
AcDb2dVertex
62
5
10
81.002041
20
181.748545
0
VERTEX
5
618
100
AcDbEntity
8
0
100
AcDbVertex
100
AcDb2dVertex
62
5
10
81.295525
20
181.915061
0
VERTEX
5
619
100
AcDbEntity
8
0
100
AcDbVertex
100
AcDb2dVertex
62
5
10
81.518310
20
182.165064
0
VERTEX
5
61a
100
AcDbEntity
8
0
100
AcDbVertex
100
AcDb2dVertex
62
5
10
81.645780
20
182.433123
0
VERTEX
5
61b
100
AcDbEntity
8
0
100
AcDbVertex
100
AcDb2dVertex
62
5
10
81.727171
20
182.724254
0
SEQEND
5
61c
100
AcDbEntity
8
0
0
LINE
5
61d
100
AcDbEntity
8
0
100
AcDbLine
6
CONTINUOUS
62
5
10
81.659974
20
185.715565
11
81.659974
21
184.115564
0
POLYLINE
5
61e
100
AcDbEntity
8
0
6
CONTINUOUS
62
5
100
AcDb2dPolyline
66
1
10
0.0
20
0.0
30
0.0
70
0
0
VERTEX
5
61f
100
AcDbEntity
8
0
100
AcDbVertex
100
AcDb2dVertex
62
5
10
81.659974
20
184.944857
0
VERTEX
5
620
100
AcDbEntity
8
0
100
AcDbVertex
100
AcDb2dVertex
62
5
10
82.564440
20
184.944857
0
VERTEX
5
621
100
AcDbEntity
8
0
100
AcDbVertex
100
AcDb2dVertex
62
5
10
82.564440
20
185.715565
0
VERTEX
5
622
100
AcDbEntity
8
0
100
AcDbVertex
100
AcDb2dVertex
62
5
10
82.564440
20
184.115564
0
SEQEND
5
623
100
AcDbEntity
8
0
0
POLYLINE
5
624
100
AcDbEntity
8
0
6
CONTINUOUS
62
5
100
AcDb2dPolyline
66
1
10
0.0
20
0.0
30
0.0
70
1
0
VERTEX
5
625
100
AcDbEntity
8
0
100
AcDbVertex
100
AcDb2dVertex
62
5
10
82.134730
20
181.687038
0
VERTEX
5
626
100
AcDbEntity
8
0
100
AcDbVertex
100
AcDb2dVertex
62
5
10
82.134730
20
182.884177
0
VERTEX
5
627
100
AcDbEntity
8
0
100
AcDbVertex
100
AcDb2dVertex
62
5
10
83.334142
20
182.884177
0
VERTEX
5
628
100
AcDbEntity
8
0
100
AcDbVertex
100
AcDb2dVertex
62
5
10
83.334142
20
181.687038
0
SEQEND
5
629
100
AcDbEntity
8
0
0
POLYLINE
5
62a
100
AcDbEntity
8
0
6
CONTINUOUS
62
5
100
AcDb2dPolyline
66
1
10
0.0
20
0.0
30
0.0
70
0
0
VERTEX
5
62b
100
AcDbEntity
8
0
100
AcDbVertex
100
AcDb2dVertex
62
5
10
79.853360
20
185.715565
0
VERTEX
5
62c
100
AcDbEntity
8
0
100
AcDbVertex
100
AcDb2dVertex
62
5
10
80.202825
20
184.091886
0
VERTEX
5
62d
100
AcDbEntity
8
0
100
AcDbVertex
100
AcDb2dVertex
62
5
10
80.598069
20
185.587255
0
VERTEX
5
62e
100
AcDbEntity
8
0
100
AcDbVertex
100
AcDb2dVertex
62
5
10
80.983935
20
184.089688
0
VERTEX
5
62f
100
AcDbEntity
8
0
100
AcDbVertex
100
AcDb2dVertex
62
5
10
81.334159
20
185.715565
0
SEQEND
5
630
100
AcDbEntity
8
0
0
LINE
5
631
100
AcDbEntity
8
1
100
AcDbLine
6
CONTINUOUS
62
5
10
79.500000
20
183.650000
11
84.200000
21
183.650000
0
LINE
5
632
100
AcDbEntity
8
1
100
AcDbLine
6
CONTINUOUS
62
5
10
84.700000
20
183.650000
11
89.400000
21
183.650000
0
POLYLINE
5
633
100
AcDbEntity
8
1
6
CONTINUOUS
62
5
100
AcDb2dPolyline
66
1
10
0.0
20
0.0
30
0.0
70
1
0
VERTEX
5
634
100
AcDbEntity
8
1
100
AcDbVertex
100
AcDb2dVertex
62
5
10
84.700000
20
181.050000
0
VERTEX
5
635
100
AcDbEntity
8
1
100
AcDbVertex
100
AcDb2dVertex
62
5
10
89.400000
20
181.050000
0
VERTEX
5
636
100
AcDbEntity
8
1
100
AcDbVertex
100
AcDb2dVertex
62
5
10
89.400000
20
186.250000
0
VERTEX
5
637
100
AcDbEntity
8
1
100
AcDbVertex
100
AcDb2dVertex
62
5
10
84.700000
20
186.250000
0
SEQEND
5
638
100
AcDbEntity
8
1
0
POLYLINE
5
639
100
AcDbEntity
8
1
6
CONTINUOUS
62
5
100
AcDb2dPolyline
66
1
10
0.0
20
0.0
30
0.0
70
1
0
VERTEX
5
63a
100
AcDbEntity
8
1
100
AcDbVertex
100
AcDb2dVertex
62
5
10
79.500000
20
181.050000
0
VERTEX
5
63b
100
AcDbEntity
8
1
100
AcDbVertex
100
AcDb2dVertex
62
5
10
84.200000
20
181.050000
0
VERTEX
5
63c
100
AcDbEntity
8
1
100
AcDbVertex
100
AcDb2dVertex
62
5
10
84.200000
20
186.250000
0
VERTEX
5
63d
100
AcDbEntity
8
1
100
AcDbVertex
100
AcDb2dVertex
62
5
10
79.500000
20
186.250000
0
SEQEND
5
63e
100
AcDbEntity
8
1
0
POLYLINE
5
63f
100
AcDbEntity
8
0
6
CONTINUOUS
62
5
100
AcDb2dPolyline
66
1
10
0.0
20
0.0
30
0.0
70
0
0
VERTEX
5
640
100
AcDbEntity
8
0
100
AcDbVertex
100
AcDb2dVertex
62
5
10
109.659107
20
183.116123
0
VERTEX
5
641
100
AcDbEntity
8
0
100
AcDbVertex
100
AcDb2dVertex
62
5
10
109.658741
20
181.776406
0
VERTEX
5
642
100
AcDbEntity
8
0
100
AcDbVertex
100
AcDb2dVertex
62
5
10
109.661817
20
181.769568
0
VERTEX
5
643
100
AcDbEntity
8
0
100
AcDbVertex
100
AcDb2dVertex
62
5
10
109.686953
20
181.714010
0
VERTEX
5
644
100
AcDbEntity
8
0
100
AcDbVertex
100
AcDb2dVertex
62
5
10
109.747429
20
181.695225
0
VERTEX
5
645
100
AcDbEntity
8
0
100
AcDbVertex
100
AcDb2dVertex
62
5
10
109.911241
20
181.678411
0
VERTEX
5
646
100
AcDbEntity
8
0
100
AcDbVertex
100
AcDb2dVertex
62
5
10
110.134138
20
181.692704
0
SEQEND
5
647
100
AcDbEntity
8
0
0
POLYLINE
5
648
100
AcDbEntity
8
0
6
CONTINUOUS
62
5
100
AcDb2dPolyline
66
1
10
0.0
20
0.0
30
0.0
70
0
0
VERTEX
5
649
100
AcDbEntity
8
0
100
AcDbVertex
100
AcDb2dVertex
62
5
10
109.420171
20
182.560491
0
VERTEX
5
64a
100
AcDbEntity
8
0
100
AcDbVertex
100
AcDb2dVertex
62
5
10
110.060514
20
182.720117
0
VERTEX
5
64b
100
AcDbEntity
8
0
100
AcDbVertex
100
AcDb2dVertex
62
5
10
110.097723
20
182.683408
0
VERTEX
5
64c
100
AcDbEntity
8
0
100
AcDbVertex
100
AcDb2dVertex
62
5
10
110.034855
20
182.410006
0
VERTEX
5
64d
100
AcDbEntity
8
0
100
AcDbVertex
100
AcDb2dVertex
62
5
10
109.918474
20
182.165865
0
SEQEND
5
64e
100
AcDbEntity
8
0
0
LINE
5
64f
100
AcDbEntity
8
1
100
AcDbLine
6
CONTINUOUS
62
5
10
110.120000
20
185.800000
11
110.120000
21
183.650000
0
LINE
5
650
100
AcDbEntity
8
1
100
AcDbLine
6
CONTINUOUS
62
5
10
90.400000
20
183.650000
11
119.700000
21
183.650000
0
POLYLINE
5
651
100
AcDbEntity
8
1
6
CONTINUOUS
62
5
100
AcDb2dPolyline
66
1
10
0.0
20
0.0
30
0.0
70
1
0
VERTEX
5
652
100
AcDbEntity
8
1
100
AcDbVertex
100
AcDb2dVertex
62
5
10
119.200000
20
181.000000
0
VERTEX
5
653
100
AcDbEntity
8
1
100
AcDbVertex
100
AcDb2dVertex
62
5
10
89.900000
20
181.000000
0
VERTEX
5
654
100
AcDbEntity
8
1
100
AcDbVertex
100
AcDb2dVertex
62
5
10
89.900000
20
186.300000
0
VERTEX
5
655
100
AcDbEntity
8
1
100
AcDbVertex
100
AcDb2dVertex
62
5
10
120.200000
20
186.300000
0
VERTEX
5
656
100
AcDbEntity
8
1
100
AcDbVertex
100
AcDb2dVertex
62
5
10
120.200000
20
182.000000
0
SEQEND
5
657
100
AcDbEntity
8
1
0
LINE
5
658
100
AcDbEntity
8
0
100
AcDbLine
6
CONTINUOUS
62
5
10
124.860000
20
197.400000
11
80.140000
21
197.400000
0
POLYLINE
5
659
100
AcDbEntity
8
0
6
CONTINUOUS
62
5
100
AcDb2dPolyline
66
1
10
0.0
20
0.0
30
0.0
70
1
0
VERTEX
5
65a
100
AcDbEntity
8
0
100
AcDbVertex
100
AcDb2dVertex
62
5
10
125.400000
20
187.000000
0
VERTEX
5
65b
100
AcDbEntity
8
0
100
AcDbVertex
100
AcDb2dVertex
62
5
10
125.400000
20
192.200000
0
VERTEX
5
65c
100
AcDbEntity
8
0
100
AcDbVertex
100
AcDb2dVertex
62
5
10
79.600000
20
192.200000
0
VERTEX
5
65d
100
AcDbEntity
8
0
100
AcDbVertex
100
AcDb2dVertex
62
5
10
79.600000
20
187.000000
0
SEQEND
5
65e
100
AcDbEntity
8
0
0
CIRCLE
5
65f
100
AcDbEntity
8
0
100
AcDbCircle
6
CONTINUOUS
62
5
10
122.820089
20
189.500000
40
1.850000
0
LINE
5
660
100
AcDbEntity
8
0
100
AcDbLine
6
CONTINUOUS
62
5
10
121.055840
20
188.943291
11
124.184338
21
190.749530
0
LINE
5
661
100
AcDbEntity
8
0
100
AcDbLine
6
CONTINUOUS
62
5
10
121.455840
20
188.250470
11
124.584338
21
190.056709
0
LINE
5
662
100
AcDbEntity
8
0
100
AcDbLine
6
CONTINUOUS
62
5
10
125.350089
20
192.200000
11
125.350089
21
187.000000
0
LINE
5
663
100
AcDbEntity
8
0
100
AcDbLine
6
CONTINUOUS
62
5
10
79.650089
20
187.000000
11
79.650089
21
192.200000
0
LINE
5
664
100
AcDbEntity
8
0
100
AcDbLine
6
CONTINUOUS
62
5
10
79.650089
20
192.050000
11
125.350089
21
192.050000
0
LINE
5
665
100
AcDbEntity
8
0
100
AcDbLine
6
CONTINUOUS
62
5
10
79.650089
20
187.150000
11
125.350089
21
187.150000
0
CIRCLE
5
666
100
AcDbEntity
8
0
100
AcDbCircle
6
CONTINUOUS
62
5
10
82.180089
20
189.500000
40
1.850000
0
LINE
5
667
100
AcDbEntity
8
0
100
AcDbLine
6
CONTINUOUS
62
5
10
80.415840
20
188.943291
11
83.544338
21
190.749530
0
LINE
5
668
100
AcDbEntity
8
0
100
AcDbLine
6
CONTINUOUS
62
5
10
80.815840
20
188.250470
11
83.944338
21
190.056709
0
CIRCLE
5
669
100
AcDbEntity
8
0
100
AcDbCircle
6
CONTINUOUS
62
5
10
87.260089
20
189.500000
40
1.850000
0
LINE
5
66a
100
AcDbEntity
8
0
100
AcDbLine
6
CONTINUOUS
62
5
10
85.495840
20
188.943291
11
88.624338
21
190.749530
0
LINE
5
66b
100
AcDbEntity
8
0
100
AcDbLine
6
CONTINUOUS
62
5
10
85.895840
20
188.250470
11
89.024338
21
190.056709
0
CIRCLE
5
66c
100
AcDbEntity
8
0
100
AcDbCircle
6
CONTINUOUS
62
5
10
92.340089
20
189.500000
40
1.850000
0
LINE
5
66d
100
AcDbEntity
8
0
100
AcDbLine
6
CONTINUOUS
62
5
10
90.575840
20
188.943291
11
93.704338
21
190.749530
0
LINE
5
66e
100
AcDbEntity
8
0
100
AcDbLine
6
CONTINUOUS
62
5
10
90.975840
20
188.250470
11
94.104338
21
190.056709
0
CIRCLE
5
66f
100
AcDbEntity
8
0
100
AcDbCircle
6
CONTINUOUS
62
5
10
97.420089
20
189.500000
40
1.850000
0
LINE
5
670
100
AcDbEntity
8
0
100
AcDbLine
6
CONTINUOUS
62
5
10
95.655840
20
188.943291
11
98.784338
21
190.749530
0
LINE
5
671
100
AcDbEntity
8
0
100
AcDbLine
6
CONTINUOUS
62
5
10
96.055840
20
188.250470
11
99.184338
21
190.056709
0
CIRCLE
5
672
100
AcDbEntity
8
0
100
AcDbCircle
6
CONTINUOUS
62
5
10
102.500089
20
189.500000
40
1.850000
0
LINE
5
673
100
AcDbEntity
8
0
100
AcDbLine
6
CONTINUOUS
62
5
10
100.735840
20
188.943291
11
103.864338
21
190.749530
0
LINE
5
674
100
AcDbEntity
8
0
100
AcDbLine
6
CONTINUOUS
62
5
10
101.135840
20
188.250470
11
104.264338
21
190.056709
0
CIRCLE
5
675
100
AcDbEntity
8
0
100
AcDbCircle
6
CONTINUOUS
62
5
10
107.580089
20
189.500000
40
1.850000
0
LINE
5
676
100
AcDbEntity
8
0
100
AcDbLine
6
CONTINUOUS
62
5
10
105.815840
20
188.943291
11
108.944338
21
190.749530
0
LINE
5
677
100
AcDbEntity
8
0
100
AcDbLine
6
CONTINUOUS
62
5
10
106.215840
20
188.250470
11
109.344338
21
190.056709
0
CIRCLE
5
678
100
AcDbEntity
8
0
100
AcDbCircle
6
CONTINUOUS
62
5
10
112.660089
20
189.500000
40
1.850000
0
LINE
5
679
100
AcDbEntity
8
0
100
AcDbLine
6
CONTINUOUS
62
5
10
110.895840
20
188.943291
11
114.024338
21
190.749530
0
LINE
5
67a
100
AcDbEntity
8
0
100
AcDbLine
6
CONTINUOUS
62
5
10
111.295840
20
188.250470
11
114.424338
21
190.056709
0
CIRCLE
5
67b
100
AcDbEntity
8
0
100
AcDbCircle
6
CONTINUOUS
62
5
10
117.740089
20
189.500000
40
1.850000
0
LINE
5
67c
100
AcDbEntity
8
0
100
AcDbLine
6
CONTINUOUS
62
5
10
115.975840
20
188.943291
11
119.104338
21
190.749530
0
LINE
5
67d
100
AcDbEntity
8
0
100
AcDbLine
6
CONTINUOUS
62
5
10
116.375840
20
188.250470
11
119.504338
21
190.056709
0
ARC
5
67e
100
AcDbEntity
8
0
100
AcDbCircle
6
CONTINUOUS
62
5
10
114.700000
20
197.200000
40
0.200000
100
AcDbArc
50
89.999999
51
179.999998
0
LINE
5
67f
100
AcDbEntity
8
0
100
AcDbLine
6
CONTINUOUS
62
5
10
114.700000
20
197.400000
11
115.700000
21
197.400000
0
ARC
5
680
100
AcDbEntity
8
0
100
AcDbCircle
6
CONTINUOUS
62
5
10
115.700000
20
197.200000
40
0.200000
100
AcDbArc
50
0.000000
51
89.999999
0
POLYLINE
5
681
100
AcDbEntity
8
0
6
CONTINUOUS
62
5
100
AcDb2dPolyline
66
1
10
0.0
20
0.0
30
0.0
70
0
0
VERTEX
5
682
100
AcDbEntity
8
0
100
AcDbVertex
100
AcDb2dVertex
62
5
10
115.900000
20
197.200000
0
VERTEX
5
683
100
AcDbEntity
8
0
100
AcDbVertex
100
AcDb2dVertex
62
5
10
115.900000
20
193.900000
0
VERTEX
5
684
100
AcDbEntity
8
0
100
AcDbVertex
100
AcDb2dVertex
62
5
10
115.830001
20
193.700000
0
VERTEX
5
685
100
AcDbEntity
8
0
100
AcDbVertex
100
AcDb2dVertex
62
5
10
115.900000
20
193.900000
0
VERTEX
5
686
100
AcDbEntity
8
0
100
AcDbVertex
100
AcDb2dVertex
62
5
10
119.580000
20
193.900000
0
VERTEX
5
687
100
AcDbEntity
8
0
100
AcDbVertex
100
AcDb2dVertex
62
5
10
119.649999
20
193.700000
0
VERTEX
5
688
100
AcDbEntity
8
0
100
AcDbVertex
100
AcDb2dVertex
62
5
10
119.580000
20
193.900000
0
VERTEX
5
689
100
AcDbEntity
8
0
100
AcDbVertex
100
AcDb2dVertex
62
5
10
119.580000
20
197.200000
0
SEQEND
5
68a
100
AcDbEntity
8
0
0
ARC
5
68b
100
AcDbEntity
8
0
100
AcDbCircle
6
CONTINUOUS
62
5
10
119.780000
20
197.200000
40
0.200000
100
AcDbArc
50
89.999999
51
179.999998
0
LINE
5
68c
100
AcDbEntity
8
0
100
AcDbLine
6
CONTINUOUS
62
5
10
119.780000
20
197.400000
11
120.780000
21
197.400000
0
ARC
5
68d
100
AcDbEntity
8
0
100
AcDbCircle
6
CONTINUOUS
62
5
10
120.780000
20
197.200000
40
0.200000
100
AcDbArc
50
0.000000
51
89.999999
0
POLYLINE
5
68e
100
AcDbEntity
8
0
6
CONTINUOUS
62
5
100
AcDb2dPolyline
66
1
10
0.0
20
0.0
30
0.0
70
0
0
VERTEX
5
68f
100
AcDbEntity
8
0
100
AcDbVertex
100
AcDb2dVertex
62
5
10
120.980000
20
197.200000
0
VERTEX
5
690
100
AcDbEntity
8
0
100
AcDbVertex
100
AcDb2dVertex
62
5
10
120.980000
20
193.900000
0
VERTEX
5
691
100
AcDbEntity
8
0
100
AcDbVertex
100
AcDb2dVertex
62
5
10
120.910000
20
193.700000
0
VERTEX
5
692
100
AcDbEntity
8
0
100
AcDbVertex
100
AcDb2dVertex
62
5
10
120.980000
20
193.900000
0
VERTEX
5
693
100
AcDbEntity
8
0
100
AcDbVertex
100
AcDb2dVertex
62
5
10
124.660000
20
193.900000
0
VERTEX
5
694
100
AcDbEntity
8
0
100
AcDbVertex
100
AcDb2dVertex
62
5
10
124.760000
20
193.746153
0
VERTEX
5
695
100
AcDbEntity
8
0
100
AcDbVertex
100
AcDb2dVertex
62
5
10
124.660000
20
193.900000
0
VERTEX
5
696
100
AcDbEntity
8
0
100
AcDbVertex
100
AcDb2dVertex
62
5
10
124.660000
20
197.200000
0
SEQEND
5
697
100
AcDbEntity
8
0
0
ARC
5
698
100
AcDbEntity
8
0
100
AcDbCircle
6
CONTINUOUS
62
5
10
124.860000
20
197.200000
40
0.200000
100
AcDbArc
50
89.999999
51
179.999998
0
LINE
5
699
100
AcDbEntity
8
0
100
AcDbLine
6
CONTINUOUS
62
5
10
124.860000
20
197.400000
11
126.800000
21
197.400000
0
ARC
5
69a
100
AcDbEntity
8
0
100
AcDbCircle
6
CONTINUOUS
62
5
10
126.800000
20
196.900000
40
0.500000
100
AcDbArc
50
-0.000000
51
89.999999
0
LINE
5
69b
100
AcDbEntity
8
0
100
AcDbLine
6
CONTINUOUS
62
5
10
127.300000
20
196.900000
11
127.300000
21
194.235338
0
ARC
5
69c
100
AcDbEntity
8
0
100
AcDbCircle
6
CONTINUOUS
62
5
10
126.880000
20
193.964045
40
0.500000
100
AcDbArc
50
32.859878
51
89.999998
0
LINE
5
69d
100
AcDbEntity
8
0
100
AcDbLine
6
CONTINUOUS
62
5
10
126.880000
20
194.464045
11
126.800000
21
194.464045
0
LINE
5
69e
100
AcDbEntity
8
0
100
AcDbLine
6
CONTINUOUS
62
5
10
78.200000
20
194.464045
11
78.120000
21
194.464045
0
ARC
5
69f
100
AcDbEntity
8
0
100
AcDbCircle
6
CONTINUOUS
62
5
10
78.120000
20
193.964045
40
0.500000
100
AcDbArc
50
89.999999
51
147.140120
0
LINE
5
6a0
100
AcDbEntity
8
0
100
AcDbLine
6
CONTINUOUS
62
5
10
77.700000
20
194.235338
11
77.700000
21
196.900000
0
ARC
5
6a1
100
AcDbEntity
8
0
100
AcDbCircle
6
CONTINUOUS
62
5
10
78.200000
20
196.900000
40
0.500000
100
AcDbArc
50
89.999999
51
-179.999998
0
LINE
5
6a2
100
AcDbEntity
8
0
100
AcDbLine
6
CONTINUOUS
62
5
10
78.200000
20
197.400000
11
80.140000
21
197.400000
0
ARC
5
6a3
100
AcDbEntity
8
0
100
AcDbCircle
6
CONTINUOUS
62
5
10
80.140000
20
197.200000
40
0.200000
100
AcDbArc
50
0.000000
51
89.999999
0
POLYLINE
5
6a4
100
AcDbEntity
8
0
6
CONTINUOUS
62
5
100
AcDb2dPolyline
66
1
10
0.0
20
0.0
30
0.0
70
0
0
VERTEX
5
6a5
100
AcDbEntity
8
0
100
AcDbVertex
100
AcDb2dVertex
62
5
10
80.340000
20
197.200000
0
VERTEX
5
6a6
100
AcDbEntity
8
0
100
AcDbVertex
100
AcDb2dVertex
62
5
10
80.340000
20
193.900000
0
VERTEX
5
6a7
100
AcDbEntity
8
0
100
AcDbVertex
100
AcDb2dVertex
62
5
10
80.270001
20
193.700000
0
VERTEX
5
6a8
100
AcDbEntity
8
0
100
AcDbVertex
100
AcDb2dVertex
62
5
10
80.340000
20
193.900000
0
VERTEX
5
6a9
100
AcDbEntity
8
0
100
AcDbVertex
100
AcDb2dVertex
62
5
10
84.020000
20
193.900000
0
VERTEX
5
6aa
100
AcDbEntity
8
0
100
AcDbVertex
100
AcDb2dVertex
62
5
10
84.090000
20
193.700000
0
VERTEX
5
6ab
100
AcDbEntity
8
0
100
AcDbVertex
100
AcDb2dVertex
62
5
10
84.020000
20
193.900000
0
VERTEX
5
6ac
100
AcDbEntity
8
0
100
AcDbVertex
100
AcDb2dVertex
62
5
10
84.020000
20
197.200000
0
SEQEND
5
6ad
100
AcDbEntity
8
0
0
ARC
5
6ae
100
AcDbEntity
8
0
100
AcDbCircle
6
CONTINUOUS
62
5
10
84.220000
20
197.200000
40
0.200000
100
AcDbArc
50
89.999999
51
179.999998
0
LINE
5
6af
100
AcDbEntity
8
0
100
AcDbLine
6
CONTINUOUS
62
5
10
84.220000
20
197.400000
11
85.220000
21
197.400000
0
ARC
5
6b0
100
AcDbEntity
8
0
100
AcDbCircle
6
CONTINUOUS
62
5
10
85.220000
20
197.200000
40
0.200000
100
AcDbArc
50
0.000000
51
89.999999
0
POLYLINE
5
6b1
100
AcDbEntity
8
0
6
CONTINUOUS
62
5
100
AcDb2dPolyline
66
1
10
0.0
20
0.0
30
0.0
70
0
0
VERTEX
5
6b2
100
AcDbEntity
8
0
100
AcDbVertex
100
AcDb2dVertex
62
5
10
85.420000
20
197.200000
0
VERTEX
5
6b3
100
AcDbEntity
8
0
100
AcDbVertex
100
AcDb2dVertex
62
5
10
85.420000
20
193.900000
0
VERTEX
5
6b4
100
AcDbEntity
8
0
100
AcDbVertex
100
AcDb2dVertex
62
5
10
85.350001
20
193.700000
0
VERTEX
5
6b5
100
AcDbEntity
8
0
100
AcDbVertex
100
AcDb2dVertex
62
5
10
85.420000
20
193.900000
0
VERTEX
5
6b6
100
AcDbEntity
8
0
100
AcDbVertex
100
AcDb2dVertex
62
5
10
89.100000
20
193.900000
0
VERTEX
5
6b7
100
AcDbEntity
8
0
100
AcDbVertex
100
AcDb2dVertex
62
5
10
89.169999
20
193.700000
0
VERTEX
5
6b8
100
AcDbEntity
8
0
100
AcDbVertex
100
AcDb2dVertex
62
5
10
89.100000
20
193.900000
0
VERTEX
5
6b9
100
AcDbEntity
8
0
100
AcDbVertex
100
AcDb2dVertex
62
5
10
89.100000
20
197.200000
0
SEQEND
5
6ba
100
AcDbEntity
8
0
0
ARC
5
6bb
100
AcDbEntity
8
0
100
AcDbCircle
6
CONTINUOUS
62
5
10
89.300000
20
197.200000
40
0.200000
100
AcDbArc
50
89.999999
51
179.999998
0
LINE
5
6bc
100
AcDbEntity
8
0
100
AcDbLine
6
CONTINUOUS
62
5
10
89.300000
20
197.400000
11
90.300000
21
197.400000
0
ARC
5
6bd
100
AcDbEntity
8
0
100
AcDbCircle
6
CONTINUOUS
62
5
10
90.300000
20
197.200000
40
0.200000
100
AcDbArc
50
0.000000
51
89.999999
0
POLYLINE
5
6be
100
AcDbEntity
8
0
6
CONTINUOUS
62
5
100
AcDb2dPolyline
66
1
10
0.0
20
0.0
30
0.0
70
0
0
VERTEX
5
6bf
100
AcDbEntity
8
0
100
AcDbVertex
100
AcDb2dVertex
62
5
10
90.500000
20
197.200000
0
VERTEX
5
6c0
100
AcDbEntity
8
0
100
AcDbVertex
100
AcDb2dVertex
62
5
10
90.500000
20
193.900000
0
VERTEX
5
6c1
100
AcDbEntity
8
0
100
AcDbVertex
100
AcDb2dVertex
62
5
10
90.430000
20
193.700000
0
VERTEX
5
6c2
100
AcDbEntity
8
0
100
AcDbVertex
100
AcDb2dVertex
62
5
10
90.500000
20
193.900000
0
VERTEX
5
6c3
100
AcDbEntity
8
0
100
AcDbVertex
100
AcDb2dVertex
62
5
10
90.500000
20
193.900000
0
VERTEX
5
6c4
100
AcDbEntity
8
0
100
AcDbVertex
100
AcDb2dVertex
62
5
10
94.180000
20
193.900000
0
VERTEX
5
6c5
100
AcDbEntity
8
0
100
AcDbVertex
100
AcDb2dVertex
62
5
10
94.250000
20
193.700000
0
VERTEX
5
6c6
100
AcDbEntity
8
0
100
AcDbVertex
100
AcDb2dVertex
62
5
10
94.180000
20
193.900000
0
VERTEX
5
6c7
100
AcDbEntity
8
0
100
AcDbVertex
100
AcDb2dVertex
62
5
10
94.180000
20
197.200000
0
SEQEND
5
6c8
100
AcDbEntity
8
0
0
ARC
5
6c9
100
AcDbEntity
8
0
100
AcDbCircle
6
CONTINUOUS
62
5
10
94.380000
20
197.200000
40
0.200000
100
AcDbArc
50
89.999999
51
179.999998
0
LINE
5
6ca
100
AcDbEntity
8
0
100
AcDbLine
6
CONTINUOUS
62
5
10
94.380000
20
197.400000
11
95.380000
21
197.400000
0
ARC
5
6cb
100
AcDbEntity
8
0
100
AcDbCircle
6
CONTINUOUS
62
5
10
95.380000
20
197.200000
40
0.200000
100
AcDbArc
50
0.000000
51
89.999999
0
POLYLINE
5
6cc
100
AcDbEntity
8
0
6
CONTINUOUS
62
5
100
AcDb2dPolyline
66
1
10
0.0
20
0.0
30
0.0
70
0
0
VERTEX
5
6cd
100
AcDbEntity
8
0
100
AcDbVertex
100
AcDb2dVertex
62
5
10
95.580000
20
197.200000
0
VERTEX
5
6ce
100
AcDbEntity
8
0
100
AcDbVertex
100
AcDb2dVertex
62
5
10
95.580000
20
193.900000
0
VERTEX
5
6cf
100
AcDbEntity
8
0
100
AcDbVertex
100
AcDb2dVertex
62
5
10
95.510000
20
193.700000
0
VERTEX
5
6d0
100
AcDbEntity
8
0
100
AcDbVertex
100
AcDb2dVertex
62
5
10
95.580000
20
193.900000
0
VERTEX
5
6d1
100
AcDbEntity
8
0
100
AcDbVertex
100
AcDb2dVertex
62
5
10
99.260000
20
193.900000
0
VERTEX
5
6d2
100
AcDbEntity
8
0
100
AcDbVertex
100
AcDb2dVertex
62
5
10
99.330000
20
193.700000
0
VERTEX
5
6d3
100
AcDbEntity
8
0
100
AcDbVertex
100
AcDb2dVertex
62
5
10
99.260000
20
193.900000
0
VERTEX
5
6d4
100
AcDbEntity
8
0
100
AcDbVertex
100
AcDb2dVertex
62
5
10
99.260000
20
197.200000
0
SEQEND
5
6d5
100
AcDbEntity
8
0
0
ARC
5
6d6
100
AcDbEntity
8
0
100
AcDbCircle
6
CONTINUOUS
62
5
10
99.460000
20
197.200000
40
0.200000
100
AcDbArc
50
89.999999
51
179.999998
0
LINE
5
6d7
100
AcDbEntity
8
0
100
AcDbLine
6
CONTINUOUS
62
5
10
99.460000
20
197.400000
11
100.460000
21
197.400000
0
ARC
5
6d8
100
AcDbEntity
8
0
100
AcDbCircle
6
CONTINUOUS
62
5
10
100.460000
20
197.200000
40
0.200000
100
AcDbArc
50
0.000000
51
89.999999
0
POLYLINE
5
6d9
100
AcDbEntity
8
0
6
CONTINUOUS
62
5
100
AcDb2dPolyline
66
1
10
0.0
20
0.0
30
0.0
70
0
0
VERTEX
5
6da
100
AcDbEntity
8
0
100
AcDbVertex
100
AcDb2dVertex
62
5
10
100.660000
20
197.200000
0
VERTEX
5
6db
100
AcDbEntity
8
0
100
AcDbVertex
100
AcDb2dVertex
62
5
10
100.660000
20
193.900000
0
VERTEX
5
6dc
100
AcDbEntity
8
0
100
AcDbVertex
100
AcDb2dVertex
62
5
10
100.590001
20
193.700000
0
VERTEX
5
6dd
100
AcDbEntity
8
0
100
AcDbVertex
100
AcDb2dVertex
62
5
10
100.660000
20
193.900000
0
VERTEX
5
6de
100
AcDbEntity
8
0
100
AcDbVertex
100
AcDb2dVertex
62
5
10
104.340000
20
193.900000
0
VERTEX
5
6df
100
AcDbEntity
8
0
100
AcDbVertex
100
AcDb2dVertex
62
5
10
104.409999
20
193.700000
0
VERTEX
5
6e0
100
AcDbEntity
8
0
100
AcDbVertex
100
AcDb2dVertex
62
5
10
104.340000
20
193.900000
0
VERTEX
5
6e1
100
AcDbEntity
8
0
100
AcDbVertex
100
AcDb2dVertex
62
5
10
104.340000
20
197.200000
0
SEQEND
5
6e2
100
AcDbEntity
8
0
0
ARC
5
6e3
100
AcDbEntity
8
0
100
AcDbCircle
6
CONTINUOUS
62
5
10
104.540000
20
197.200000
40
0.200000
100
AcDbArc
50
89.999999
51
179.999998
0
LINE
5
6e4
100
AcDbEntity
8
0
100
AcDbLine
6
CONTINUOUS
62
5
10
104.540000
20
197.400000
11
105.540000
21
197.400000
0
ARC
5
6e5
100
AcDbEntity
8
0
100
AcDbCircle
6
CONTINUOUS
62
5
10
105.540000
20
197.200000
40
0.200000
100
AcDbArc
50
0.000000
51
89.999999
0
POLYLINE
5
6e6
100
AcDbEntity
8
0
6
CONTINUOUS
62
5
100
AcDb2dPolyline
66
1
10
0.0
20
0.0
30
0.0
70
0
0
VERTEX
5
6e7
100
AcDbEntity
8
0
100
AcDbVertex
100
AcDb2dVertex
62
5
10
105.740000
20
197.200000
0
VERTEX
5
6e8
100
AcDbEntity
8
0
100
AcDbVertex
100
AcDb2dVertex
62
5
10
105.740000
20
193.900000
0
VERTEX
5
6e9
100
AcDbEntity
8
0
100
AcDbVertex
100
AcDb2dVertex
62
5
10
105.670000
20
193.700000
0
VERTEX
5
6ea
100
AcDbEntity
8
0
100
AcDbVertex
100
AcDb2dVertex
62
5
10
105.740000
20
193.900000
0
VERTEX
5
6eb
100
AcDbEntity
8
0
100
AcDbVertex
100
AcDb2dVertex
62
5
10
109.420000
20
193.900000
0
VERTEX
5
6ec
100
AcDbEntity
8
0
100
AcDbVertex
100
AcDb2dVertex
62
5
10
109.490000
20
193.700000
0
VERTEX
5
6ed
100
AcDbEntity
8
0
100
AcDbVertex
100
AcDb2dVertex
62
5
10
109.420000
20
193.900000
0
VERTEX
5
6ee
100
AcDbEntity
8
0
100
AcDbVertex
100
AcDb2dVertex
62
5
10
109.420000
20
197.200000
0
SEQEND
5
6ef
100
AcDbEntity
8
0
0
ARC
5
6f0
100
AcDbEntity
8
0
100
AcDbCircle
6
CONTINUOUS
62
5
10
109.620000
20
197.200000
40
0.200000
100
AcDbArc
50
89.999999
51
179.999998
0
LINE
5
6f1
100
AcDbEntity
8
0
100
AcDbLine
6
CONTINUOUS
62
5
10
109.620000
20
197.400000
11
110.620000
21
197.400000
0
ARC
5
6f2
100
AcDbEntity
8
0
100
AcDbCircle
6
CONTINUOUS
62
5
10
110.620000
20
197.200000
40
0.200000
100
AcDbArc
50
0.000000
51
89.999999
0
POLYLINE
5
6f3
100
AcDbEntity
8
0
6
CONTINUOUS
62
5
100
AcDb2dPolyline
66
1
10
0.0
20
0.0
30
0.0
70
0
0
VERTEX
5
6f4
100
AcDbEntity
8
0
100
AcDbVertex
100
AcDb2dVertex
62
5
10
110.820000
20
197.200000
0
VERTEX
5
6f5
100
AcDbEntity
8
0
100
AcDbVertex
100
AcDb2dVertex
62
5
10
110.820000
20
193.900000
0
VERTEX
5
6f6
100
AcDbEntity
8
0
100
AcDbVertex
100
AcDb2dVertex
62
5
10
110.750000
20
193.700000
0
VERTEX
5
6f7
100
AcDbEntity
8
0
100
AcDbVertex
100
AcDb2dVertex
62
5
10
110.820000
20
193.900000
0
VERTEX
5
6f8
100
AcDbEntity
8
0
100
AcDbVertex
100
AcDb2dVertex
62
5
10
114.500000
20
193.900000
0
VERTEX
5
6f9
100
AcDbEntity
8
0
100
AcDbVertex
100
AcDb2dVertex
62
5
10
114.570000
20
193.700000
0
VERTEX
5
6fa
100
AcDbEntity
8
0
100
AcDbVertex
100
AcDb2dVertex
62
5
10
114.500000
20
193.900000
0
VERTEX
5
6fb
100
AcDbEntity
8
0
100
AcDbVertex
100
AcDb2dVertex
62
5
10
114.500000
20
197.200000
0
SEQEND
5
6fc
100
AcDbEntity
8
0
0
ARC
5
6fd
100
AcDbEntity
8
0
100
AcDbCircle
6
CONTINUOUS
62
5
10
110.520000
20
194.264045
40
0.200000
100
AcDbArc
50
0.000000
51
89.999999
0
LINE
5
6fe
100
AcDbEntity
8
0
100
AcDbLine
6
CONTINUOUS
62
5
10
110.520000
20
194.464045
11
109.720000
21
194.464045
0
ARC
5
6ff
100
AcDbEntity
8
0
100
AcDbCircle
6
CONTINUOUS
62
5
10
109.720000
20
194.264045
40
0.200000
100
AcDbArc
50
89.999999
51
179.999998
0
POLYLINE
5
700
100
AcDbEntity
8
0
6
CONTINUOUS
62
5
100
AcDb2dPolyline
66
1
10
0.0
20
0.0
30
0.0
70
0
0
VERTEX
5
701
100
AcDbEntity
8
0
100
AcDbVertex
100
AcDb2dVertex
62
5
10
109.520000
20
194.264045
0
VERTEX
5
702
100
AcDbEntity
8
0
100
AcDbVertex
100
AcDb2dVertex
62
5
10
109.520000
20
193.700000
0
VERTEX
5
703
100
AcDbEntity
8
0
100
AcDbVertex
100
AcDb2dVertex
62
5
10
109.720000
20
193.700000
0
VERTEX
5
704
100
AcDbEntity
8
0
100
AcDbVertex
100
AcDb2dVertex
62
5
10
105.440000
20
193.700000
0
VERTEX
5
705
100
AcDbEntity
8
0
100
AcDbVertex
100
AcDb2dVertex
62
5
10
105.640000
20
193.700000
0
VERTEX
5
706
100
AcDbEntity
8
0
100
AcDbVertex
100
AcDb2dVertex
62
5
10
105.640000
20
194.264045
0
SEQEND
5
707
100
AcDbEntity
8
0
0
ARC
5
708
100
AcDbEntity
8
0
100
AcDbCircle
6
CONTINUOUS
62
5
10
105.440000
20
194.264045
40
0.200000
100
AcDbArc
50
0.000000
51
89.999999
0
LINE
5
709
100
AcDbEntity
8
0
100
AcDbLine
6
CONTINUOUS
62
5
10
105.440000
20
194.464045
11
104.640000
21
194.464045
0
ARC
5
70a
100
AcDbEntity
8
0
100
AcDbCircle
6
CONTINUOUS
62
5
10
104.640000
20
194.264045
40
0.200000
100
AcDbArc
50
89.999999
51
179.999998
0
POLYLINE
5
70b
100
AcDbEntity
8
0
6
CONTINUOUS
62
5
100
AcDb2dPolyline
66
1
10
0.0
20
0.0
30
0.0
70
0
0
VERTEX
5
70c
100
AcDbEntity
8
0
100
AcDbVertex
100
AcDb2dVertex
62
5
10
104.440000
20
194.264045
0
VERTEX
5
70d
100
AcDbEntity
8
0
100
AcDbVertex
100
AcDb2dVertex
62
5
10
104.440000
20
193.700000
0
VERTEX
5
70e
100
AcDbEntity
8
0
100
AcDbVertex
100
AcDb2dVertex
62
5
10
104.640000
20
193.700000
0
VERTEX
5
70f
100
AcDbEntity
8
0
100
AcDbVertex
100
AcDb2dVertex
62
5
10
100.360000
20
193.700000
0
VERTEX
5
710
100
AcDbEntity
8
0
100
AcDbVertex
100
AcDb2dVertex
62
5
10
100.560000
20
193.700000
0
VERTEX
5
711
100
AcDbEntity
8
0
100
AcDbVertex
100
AcDb2dVertex
62
5
10
100.560000
20
194.264045
0
SEQEND
5
712
100
AcDbEntity
8
0
0
ARC
5
713
100
AcDbEntity
8
0
100
AcDbCircle
6
CONTINUOUS
62
5
10
100.360000
20
194.264045
40
0.200000
100
AcDbArc
50
0.000000
51
89.999999
0
LINE
5
714
100
AcDbEntity
8
0
100
AcDbLine
6
CONTINUOUS
62
5
10
100.360000
20
194.464045
11
99.560000
21
194.464045
0
ARC
5
715
100
AcDbEntity
8
0
100
AcDbCircle
6
CONTINUOUS
62
5
10
99.560000
20
194.264045
40
0.200000
100
AcDbArc
50
89.999999
51
179.999998
0
POLYLINE
5
716
100
AcDbEntity
8
0
6
CONTINUOUS
62
5
100
AcDb2dPolyline
66
1
10
0.0
20
0.0
30
0.0
70
0
0
VERTEX
5
717
100
AcDbEntity
8
0
100
AcDbVertex
100
AcDb2dVertex
62
5
10
99.360000
20
194.264045
0
VERTEX
5
718
100
AcDbEntity
8
0
100
AcDbVertex
100
AcDb2dVertex
62
5
10
99.360000
20
193.700000
0
VERTEX
5
719
100
AcDbEntity
8
0
100
AcDbVertex
100
AcDb2dVertex
62
5
10
95.280000
20
193.700000
0
VERTEX
5
71a
100
AcDbEntity
8
0
100
AcDbVertex
100
AcDb2dVertex
62
5
10
95.480000
20
193.700000
0
VERTEX
5
71b
100
AcDbEntity
8
0
100
AcDbVertex
100
AcDb2dVertex
62
5
10
95.480000
20
194.264045
0
SEQEND
5
71c
100
AcDbEntity
8
0
0
ARC
5
71d
100
AcDbEntity
8
0
100
AcDbCircle
6
CONTINUOUS
62
5
10
95.280000
20
194.264045
40
0.200000
100
AcDbArc
50
0.000000
51
89.999999
0
LINE
5
71e
100
AcDbEntity
8
0
100
AcDbLine
6
CONTINUOUS
62
5
10
95.280000
20
194.464045
11
94.480000
21
194.464045
0
ARC
5
71f
100
AcDbEntity
8
0
100
AcDbCircle
6
CONTINUOUS
62
5
10
94.480000
20
194.264045
40
0.200000
100
AcDbArc
50
89.999999
51
179.999998
0
POLYLINE
5
720
100
AcDbEntity
8
0
6
CONTINUOUS
62
5
100
AcDb2dPolyline
66
1
10
0.0
20
0.0
30
0.0
70
0
0
VERTEX
5
721
100
AcDbEntity
8
0
100
AcDbVertex
100
AcDb2dVertex
62
5
10
94.280000
20
194.264045
0
VERTEX
5
722
100
AcDbEntity
8
0
100
AcDbVertex
100
AcDb2dVertex
62
5
10
94.280000
20
193.700000
0
VERTEX
5
723
100
AcDbEntity
8
0
100
AcDbVertex
100
AcDb2dVertex
62
5
10
94.480000
20
193.700000
0
VERTEX
5
724
100
AcDbEntity
8
0
100
AcDbVertex
100
AcDb2dVertex
62
5
10
90.200000
20
193.700000
0
VERTEX
5
725
100
AcDbEntity
8
0
100
AcDbVertex
100
AcDb2dVertex
62
5
10
90.400000
20
193.700000
0
VERTEX
5
726
100
AcDbEntity
8
0
100
AcDbVertex
100
AcDb2dVertex
62
5
10
90.400000
20
194.264045
0
SEQEND
5
727
100
AcDbEntity
8
0
0
ARC
5
728
100
AcDbEntity
8
0
100
AcDbCircle
6
CONTINUOUS
62
5
10
90.200000
20
194.264045
40
0.200000
100
AcDbArc
50
0.000000
51
89.999999
0
LINE
5
729
100
AcDbEntity
8
0
100
AcDbLine
6
CONTINUOUS
62
5
10
90.200000
20
194.464045
11
89.400000
21
194.464045
0
ARC
5
72a
100
AcDbEntity
8
0
100
AcDbCircle
6
CONTINUOUS
62
5
10
89.400000
20
194.264045
40
0.200000
100
AcDbArc
50
89.999999
51
179.999998
0
POLYLINE
5
72b
100
AcDbEntity
8
0
6
CONTINUOUS
62
5
100
AcDb2dPolyline
66
1
10
0.0
20
0.0
30
0.0
70
0
0
VERTEX
5
72c
100
AcDbEntity
8
0
100
AcDbVertex
100
AcDb2dVertex
62
5
10
89.200000
20
194.264045
0
VERTEX
5
72d
100
AcDbEntity
8
0
100
AcDbVertex
100
AcDb2dVertex
62
5
10
89.200000
20
193.700000
0
VERTEX
5
72e
100
AcDbEntity
8
0
100
AcDbVertex
100
AcDb2dVertex
62
5
10
89.400000
20
193.700000
0
VERTEX
5
72f
100
AcDbEntity
8
0
100
AcDbVertex
100
AcDb2dVertex
62
5
10
85.120000
20
193.700000
0
VERTEX
5
730
100
AcDbEntity
8
0
100
AcDbVertex
100
AcDb2dVertex
62
5
10
85.320000
20
193.700000
0
VERTEX
5
731
100
AcDbEntity
8
0
100
AcDbVertex
100
AcDb2dVertex
62
5
10
85.320000
20
194.264045
0
SEQEND
5
732
100
AcDbEntity
8
0
0
ARC
5
733
100
AcDbEntity
8
0
100
AcDbCircle
6
CONTINUOUS
62
5
10
85.120000
20
194.264045
40
0.200000
100
AcDbArc
50
0.000000
51
89.999999
0
LINE
5
734
100
AcDbEntity
8
0
100
AcDbLine
6
CONTINUOUS
62
5
10
85.120000
20
194.464045
11
84.320000
21
194.464045
0
ARC
5
735
100
AcDbEntity
8
0
100
AcDbCircle
6
CONTINUOUS
62
5
10
84.320000
20
194.264045
40
0.200000
100
AcDbArc
50
89.999999
51
179.999998
0
POLYLINE
5
736
100
AcDbEntity
8
0
6
CONTINUOUS
62
5
100
AcDb2dPolyline
66
1
10
0.0
20
0.0
30
0.0
70
0
0
VERTEX
5
737
100
AcDbEntity
8
0
100
AcDbVertex
100
AcDb2dVertex
62
5
10
84.120000
20
194.264045
0
VERTEX
5
738
100
AcDbEntity
8
0
100
AcDbVertex
100
AcDb2dVertex
62
5
10
84.120000
20
193.700000
0
VERTEX
5
739
100
AcDbEntity
8
0
100
AcDbVertex
100
AcDb2dVertex
62
5
10
84.320000
20
193.700000
0
VERTEX
5
73a
100
AcDbEntity
8
0
100
AcDbVertex
100
AcDb2dVertex
62
5
10
80.040000
20
193.700000
0
VERTEX
5
73b
100
AcDbEntity
8
0
100
AcDbVertex
100
AcDb2dVertex
62
5
10
80.240000
20
193.700000
0
VERTEX
5
73c
100
AcDbEntity
8
0
100
AcDbVertex
100
AcDb2dVertex
62
5
10
80.240000
20
194.264045
0
SEQEND
5
73d
100
AcDbEntity
8
0
0
ARC
5
73e
100
AcDbEntity
8
0
100
AcDbCircle
6
CONTINUOUS
62
5
10
80.040000
20
194.264045
40
0.200000
100
AcDbArc
50
0.000000
51
89.999999
0
LINE
5
73f
100
AcDbEntity
8
0
100
AcDbLine
6
CONTINUOUS
62
5
10
80.040000
20
194.464045
11
78.200000
21
194.464045
0
ARC
5
740
100
AcDbEntity
8
0
100
AcDbCircle
6
CONTINUOUS
62
5
10
78.200000
20
193.964045
40
0.500000
100
AcDbArc
50
89.999999
51
179.999998
0
POLYLINE
5
741
100
AcDbEntity
8
0
6
CONTINUOUS
62
5
100
AcDb2dPolyline
66
1
10
0.0
20
0.0
30
0.0
70
0
0
VERTEX
5
742
100
AcDbEntity
8
0
100
AcDbVertex
100
AcDb2dVertex
62
5
10
77.700000
20
193.964045
0
VERTEX
5
743
100
AcDbEntity
8
0
100
AcDbVertex
100
AcDb2dVertex
62
5
10
77.700000
20
193.700000
0
VERTEX
5
744
100
AcDbEntity
8
0
100
AcDbVertex
100
AcDb2dVertex
62
5
10
77.700000
20
180.600000
0
SEQEND
5
745
100
AcDbEntity
8
0
0
ARC
5
746
100
AcDbEntity
8
0
100
AcDbCircle
6
CONTINUOUS
62
5
10
78.200000
20
180.600000
40
0.500000
100
AcDbArc
50
179.999998
51
-89.999999
0
LINE
5
747
100
AcDbEntity
8
0
100
AcDbLine
6
CONTINUOUS
62
5
10
78.200000
20
180.100000
11
126.800000
21
180.100000
0
ARC
5
748
100
AcDbEntity
8
0
100
AcDbCircle
6
CONTINUOUS
62
5
10
126.800000
20
180.600000
40
0.500000
100
AcDbArc
50
-89.999999
51
0.000000
0
LINE
5
749
100
AcDbEntity
8
0
100
AcDbLine
6
CONTINUOUS
62
5
10
127.300000
20
180.600000
11
127.300000
21
193.964045
0
ARC
5
74a
100
AcDbEntity
8
0
100
AcDbCircle
6
CONTINUOUS
62
5
10
126.800000
20
193.964045
40
0.500000
100
AcDbArc
50
0.000000
51
89.999999
0
LINE
5
74b
100
AcDbEntity
8
0
100
AcDbLine
6
CONTINUOUS
62
5
10
126.800000
20
194.464045
11
124.960000
21
194.464045
0
ARC
5
74c
100
AcDbEntity
8
0
100
AcDbCircle
6
CONTINUOUS
62
5
10
124.960000
20
194.264045
40
0.200000
100
AcDbArc
50
89.999999
51
179.999998
0
POLYLINE
5
74d
100
AcDbEntity
8
0
6
CONTINUOUS
62
5
100
AcDb2dPolyline
66
1
10
0.0
20
0.0
30
0.0
70
0
0
VERTEX
5
74e
100
AcDbEntity
8
0
100
AcDbVertex
100
AcDb2dVertex
62
5
10
124.760000
20
194.264045
0
VERTEX
5
74f
100
AcDbEntity
8
0
100
AcDbVertex
100
AcDb2dVertex
62
5
10
124.760000
20
193.700000
0
VERTEX
5
750
100
AcDbEntity
8
0
100
AcDbVertex
100
AcDb2dVertex
62
5
10
120.680000
20
193.700000
0
VERTEX
5
751
100
AcDbEntity
8
0
100
AcDbVertex
100
AcDb2dVertex
62
5
10
120.880000
20
193.700000
0
VERTEX
5
752
100
AcDbEntity
8
0
100
AcDbVertex
100
AcDb2dVertex
62
5
10
120.880000
20
194.264045
0
SEQEND
5
753
100
AcDbEntity
8
0
0
ARC
5
754
100
AcDbEntity
8
0
100
AcDbCircle
6
CONTINUOUS
62
5
10
120.680000
20
194.264045
40
0.200000
100
AcDbArc
50
0.000000
51
89.999999
0
LINE
5
755
100
AcDbEntity
8
0
100
AcDbLine
6
CONTINUOUS
62
5
10
120.680000
20
194.464045
11
119.880000
21
194.464045
0
ARC
5
756
100
AcDbEntity
8
0
100
AcDbCircle
6
CONTINUOUS
62
5
10
119.880000
20
194.264045
40
0.200000
100
AcDbArc
50
89.999999
51
179.999998
0
POLYLINE
5
757
100
AcDbEntity
8
0
6
CONTINUOUS
62
5
100
AcDb2dPolyline
66
1
10
0.0
20
0.0
30
0.0
70
0
0
VERTEX
5
758
100
AcDbEntity
8
0
100
AcDbVertex
100
AcDb2dVertex
62
5
10
119.680000
20
194.264045
0
VERTEX
5
759
100
AcDbEntity
8
0
100
AcDbVertex
100
AcDb2dVertex
62
5
10
119.680000
20
193.700000
0
VERTEX
5
75a
100
AcDbEntity
8
0
100
AcDbVertex
100
AcDb2dVertex
62
5
10
119.880000
20
193.700000
0
VERTEX
5
75b
100
AcDbEntity
8
0
100
AcDbVertex
100
AcDb2dVertex
62
5
10
115.600000
20
193.700000
0
VERTEX
5
75c
100
AcDbEntity
8
0
100
AcDbVertex
100
AcDb2dVertex
62
5
10
115.800000
20
193.700000
0
VERTEX
5
75d
100
AcDbEntity
8
0
100
AcDbVertex
100
AcDb2dVertex
62
5
10
115.800000
20
194.264045
0
SEQEND
5
75e
100
AcDbEntity
8
0
0
ARC
5
75f
100
AcDbEntity
8
0
100
AcDbCircle
6
CONTINUOUS
62
5
10
115.600000
20
194.264045
40
0.200000
100
AcDbArc
50
0.000000
51
89.999999
0
LINE
5
760
100
AcDbEntity
8
0
100
AcDbLine
6
CONTINUOUS
62
5
10
115.600000
20
194.464045
11
114.800000
21
194.464045
0
ARC
5
761
100
AcDbEntity
8
0
100
AcDbCircle
6
CONTINUOUS
62
5
10
114.800000
20
194.264045
40
0.200000
100
AcDbArc
50
89.999999
51
179.999998
0
POLYLINE
5
762
100
AcDbEntity
8
0
6
CONTINUOUS
62
5
100
AcDb2dPolyline
66
1
10
0.0
20
0.0
30
0.0
70
0
0
VERTEX
5
763
100
AcDbEntity
8
0
100
AcDbVertex
100
AcDb2dVertex
62
5
10
114.600000
20
194.264045
0
VERTEX
5
764
100
AcDbEntity
8
0
100
AcDbVertex
100
AcDb2dVertex
62
5
10
114.600000
20
193.700000
0
VERTEX
5
765
100
AcDbEntity
8
0
100
AcDbVertex
100
AcDb2dVertex
62
5
10
114.800000
20
193.700000
0
VERTEX
5
766
100
AcDbEntity
8
0
100
AcDbVertex
100
AcDb2dVertex
62
5
10
110.520000
20
193.700000
0
VERTEX
5
767
100
AcDbEntity
8
0
100
AcDbVertex
100
AcDb2dVertex
62
5
10
110.720000
20
193.700000
0
VERTEX
5
768
100
AcDbEntity
8
0
100
AcDbVertex
100
AcDb2dVertex
62
5
10
110.720000
20
194.264045
0
SEQEND
5
769
100
AcDbEntity
8
0
0
LINE
5
76a
100
AcDbEntity
8
1
100
AcDbLine
6
CONTINUOUS
62
5
10
77.500000
20
198.500000
11
77.500000
21
224.500000
0
LINE
5
76b
100
AcDbEntity
8
1
100
AcDbLine
6
CONTINUOUS
62
5
10
127.500000
20
198.500000
11
127.500000
21
224.500000
0
POLYLINE
5
76c
100
AcDbEntity
8
1
6
CONTINUOUS
62
5
100
AcDb2dPolyline
66
1
10
0.0
20
0.0
30
0.0
70
0
0
VERTEX
5
76d
100
AcDbEntity
8
1
100
AcDbVertex
100
AcDb2dVertex
62
5
10
102.500000
20
222.500000
0
VERTEX
5
76e
100
AcDbEntity
8
1
100
AcDbVertex
100
AcDb2dVertex
62
5
10
77.500000
20
222.500000
0
VERTEX
5
76f
100
AcDbEntity
8
1
100
AcDbVertex
100
AcDb2dVertex
62
5
10
83.500000
20
223.500000
0
VERTEX
5
770
100
AcDbEntity
8
1
100
AcDbVertex
100
AcDb2dVertex
62
5
10
83.500000
20
221.500000
0
VERTEX
5
771
100
AcDbEntity
8
1
100
AcDbVertex
100
AcDb2dVertex
62
5
10
77.500000
20
222.500000
0
VERTEX
5
772
100
AcDbEntity
8
1
100
AcDbVertex
100
AcDb2dVertex
62
5
10
83.500000
20
223.000000
0
VERTEX
5
773
100
AcDbEntity
8
1
100
AcDbVertex
100
AcDb2dVertex
62
5
10
83.500000
20
222.000000
0
VERTEX
5
774
100
AcDbEntity
8
1
100
AcDbVertex
100
AcDb2dVertex
62
5
10
77.500000
20
222.500000
0
SEQEND
5
775
100
AcDbEntity
8
1
0
POLYLINE
5
776
100
AcDbEntity
8
1
6
CONTINUOUS
62
5
100
AcDb2dPolyline
66
1
10
0.0
20
0.0
30
0.0
70
0
0
VERTEX
5
777
100
AcDbEntity
8
1
100
AcDbVertex
100
AcDb2dVertex
62
5
10
102.500000
20
222.500000
0
VERTEX
5
778
100
AcDbEntity
8
1
100
AcDbVertex
100
AcDb2dVertex
62
5
10
127.500000
20
222.500000
0
VERTEX
5
779
100
AcDbEntity
8
1
100
AcDbVertex
100
AcDb2dVertex
62
5
10
121.500000
20
221.500000
0
VERTEX
5
77a
100
AcDbEntity
8
1
100
AcDbVertex
100
AcDb2dVertex
62
5
10
121.500000
20
223.500000
0
VERTEX
5
77b
100
AcDbEntity
8
1
100
AcDbVertex
100
AcDb2dVertex
62
5
10
127.500000
20
222.500000
0
VERTEX
5
77c
100
AcDbEntity
8
1
100
AcDbVertex
100
AcDb2dVertex
62
5
10
121.500000
20
222.000000
0
VERTEX
5
77d
100
AcDbEntity
8
1
100
AcDbVertex
100
AcDb2dVertex
62
5
10
121.500000
20
223.000000
0
VERTEX
5
77e
100
AcDbEntity
8
1
100
AcDbVertex
100
AcDb2dVertex
62
5
10
127.500000
20
222.500000
0
SEQEND
5
77f
100
AcDbEntity
8
1
0
POLYLINE
5
780
100
AcDbEntity
8
1
6
CONTINUOUS
62
5
100
AcDb2dPolyline
66
1
10
0.0
20
0.0
30
0.0
70
1
0
VERTEX
5
781
100
AcDbEntity
8
1
100
AcDbVertex
100
AcDb2dVertex
62
5
10
148.000000
20
312.750000
0
VERTEX
5
782
100
AcDbEntity
8
1
100
AcDbVertex
100
AcDb2dVertex
62
5
10
148.000000
20
317.750000
0
VERTEX
5
783
100
AcDbEntity
8
1
100
AcDbVertex
100
AcDb2dVertex
62
5
10
152.000000
20
317.750000
0
VERTEX
5
784
100
AcDbEntity
8
1
100
AcDbVertex
100
AcDb2dVertex
62
5
10
152.000000
20
312.750000
0
VERTEX
5
785
100
AcDbEntity
8
1
100
AcDbVertex
100
AcDb2dVertex
62
5
10
148.000000
20
312.750000
0
SEQEND
5
786
100
AcDbEntity
8
1
0
POLYLINE
5
787
100
AcDbEntity
8
1
6
DOT2
62
5
100
AcDb2dPolyline
66
1
10
0.0
20
0.0
30
0.0
70
1
0
VERTEX
5
788
100
AcDbEntity
8
1
100
AcDbVertex
100
AcDb2dVertex
62
5
10
258.750000
20
152.500000
0
VERTEX
5
789
100
AcDbEntity
8
1
100
AcDbVertex
100
AcDb2dVertex
62
5
10
258.750000
20
153.125000
0
VERTEX
5
78a
100
AcDbEntity
8
1
100
AcDbVertex
100
AcDb2dVertex
62
5
10
259.062500
20
153.437500
0
VERTEX
5
78b
100
AcDbEntity
8
1
100
AcDbVertex
100
AcDb2dVertex
62
5
10
260.312500
20
154.062500
0
VERTEX
5
78c
100
AcDbEntity
8
1
100
AcDbVertex
100
AcDb2dVertex
62
5
10
261.562500
20
154.375000
0
VERTEX
5
78d
100
AcDbEntity
8
1
100
AcDbVertex
100
AcDb2dVertex
62
5
10
263.437500
20
154.375000
0
VERTEX
5
78e
100
AcDbEntity
8
1
100
AcDbVertex
100
AcDb2dVertex
62
5
10
264.687500
20
154.062500
0
VERTEX
5
78f
100
AcDbEntity
8
1
100
AcDbVertex
100
AcDb2dVertex
62
5
10
265.937500
20
153.437500
0
VERTEX
5
790
100
AcDbEntity
8
1
100
AcDbVertex
100
AcDb2dVertex
62
5
10
266.250000
20
153.125000
0
VERTEX
5
791
100
AcDbEntity
8
1
100
AcDbVertex
100
AcDb2dVertex
62
5
10
266.250000
20
152.500000
0
VERTEX
5
792
100
AcDbEntity
8
1
100
AcDbVertex
100
AcDb2dVertex
62
5
10
265.937500
20
152.187500
0
VERTEX
5
793
100
AcDbEntity
8
1
100
AcDbVertex
100
AcDb2dVertex
62
5
10
264.687500
20
151.562500
0
VERTEX
5
794
100
AcDbEntity
8
1
100
AcDbVertex
100
AcDb2dVertex
62
5
10
263.437500
20
151.250000
0
VERTEX
5
795
100
AcDbEntity
8
1
100
AcDbVertex
100
AcDb2dVertex
62
5
10
261.562500
20
151.250000
0
VERTEX
5
796
100
AcDbEntity
8
1
100
AcDbVertex
100
AcDb2dVertex
62
5
10
260.312500
20
151.562500
0
VERTEX
5
797
100
AcDbEntity
8
1
100
AcDbVertex
100
AcDb2dVertex
62
5
10
259.062500
20
152.187500
0
VERTEX
5
798
100
AcDbEntity
8
1
100
AcDbVertex
100
AcDb2dVertex
62
5
10
258.750000
20
152.500000
0
SEQEND
5
799
100
AcDbEntity
8
1
0
POLYLINE
5
79a
100
AcDbEntity
8
1
6
DOT2
62
5
100
AcDb2dPolyline
66
1
10
0.0
20
0.0
30
0.0
70
0
0
VERTEX
5
79b
100
AcDbEntity
8
1
100
AcDbVertex
100
AcDb2dVertex
62
5
10
262.812500
20
149.375000
0
VERTEX
5
79c
100
AcDbEntity
8
1
100
AcDbVertex
100
AcDb2dVertex
62
5
10
262.812500
20
149.375000
0
VERTEX
5
79d
100
AcDbEntity
8
1
100
AcDbVertex
100
AcDb2dVertex
62
5
10
263.125000
20
148.125000
0
VERTEX
5
79e
100
AcDbEntity
8
1
100
AcDbVertex
100
AcDb2dVertex
62
5
10
263.125000
20
147.187500
0
VERTEX
5
79f
100
AcDbEntity
8
1
100
AcDbVertex
100
AcDb2dVertex
62
5
10
262.812500
20
146.562500
0
VERTEX
5
7a0
100
AcDbEntity
8
1
100
AcDbVertex
100
AcDb2dVertex
62
5
10
261.875000
20
146.250000
0
VERTEX
5
7a1
100
AcDbEntity
8
1
100
AcDbVertex
100
AcDb2dVertex
62
5
10
260.312500
20
146.250000
0
VERTEX
5
7a2
100
AcDbEntity
8
1
100
AcDbVertex
100
AcDb2dVertex
62
5
10
259.375000
20
146.562500
0
VERTEX
5
7a3
100
AcDbEntity
8
1
100
AcDbVertex
100
AcDb2dVertex
62
5
10
259.062500
20
146.875000
0
VERTEX
5
7a4
100
AcDbEntity
8
1
100
AcDbVertex
100
AcDb2dVertex
62
5
10
258.750000
20
147.500000
0
VERTEX
5
7a5
100
AcDbEntity
8
1
100
AcDbVertex
100
AcDb2dVertex
62
5
10
258.750000
20
148.125000
0
VERTEX
5
7a6
100
AcDbEntity
8
1
100
AcDbVertex
100
AcDb2dVertex
62
5
10
259.062500
20
148.750000
0
VERTEX
5
7a7
100
AcDbEntity
8
1
100
AcDbVertex
100
AcDb2dVertex
62
5
10
259.375000
20
149.062500
0
VERTEX
5
7a8
100
AcDbEntity
8
1
100
AcDbVertex
100
AcDb2dVertex
62
5
10
260.312500
20
149.375000
0
VERTEX
5
7a9
100
AcDbEntity
8
1
100
AcDbVertex
100
AcDb2dVertex
62
5
10
263.750000
20
149.375000
0
VERTEX
5
7aa
100
AcDbEntity
8
1
100
AcDbVertex
100
AcDb2dVertex
62
5
10
265.312500
20
149.062500
0
VERTEX
5
7ab
100
AcDbEntity
8
1
100
AcDbVertex
100
AcDb2dVertex
62
5
10
265.937500
20
148.437500
0
VERTEX
5
7ac
100
AcDbEntity
8
1
100
AcDbVertex
100
AcDb2dVertex
62
5
10
266.250000
20
147.500000
0
VERTEX
5
7ad
100
AcDbEntity
8
1
100
AcDbVertex
100
AcDb2dVertex
62
5
10
266.250000
20
146.875000
0
SEQEND
5
7ae
100
AcDbEntity
8
1
0
POLYLINE
5
7af
100
AcDbEntity
8
0
6
CONTINUOUS
62
5
100
AcDb2dPolyline
66
1
10
0.0
20
0.0
30
0.0
70
0
0
VERTEX
5
7b0
100
AcDbEntity
8
0
100
AcDbVertex
100
AcDb2dVertex
62
5
10
183.816619
20
158.650039
0
VERTEX
5
7b1
100
AcDbEntity
8
0
100
AcDbVertex
100
AcDb2dVertex
62
5
10
184.000000
20
158.500000
0
VERTEX
5
7b2
100
AcDbEntity
8
0
100
AcDbVertex
100
AcDb2dVertex
62
5
10
184.000000
20
158.263060
0
SEQEND
5
7b3
100
AcDbEntity
8
0
0
ARC
5
7b4
100
AcDbEntity
8
0
100
AcDbCircle
6
CONTINUOUS
62
5
10
183.500000
20
158.263060
40
0.500000
100
AcDbArc
50
0.000000
51
50.710592
0
LINE
5
7b5
100
AcDbEntity
8
0
100
AcDbLine
6
CONTINUOUS
62
5
10
184.000000
20
158.263060
11
184.000000
21
150.000000
0
LINE
5
7b6
100
AcDbEntity
8
0
100
AcDbLine
6
CONTINUOUS
62
5
10
183.500000
20
158.909091
11
183.816619
21
158.650039
0
ARC
5
7b7
100
AcDbEntity
8
0
100
AcDbCircle
6
CONTINUOUS
62
5
10
183.000000
20
159.409091
40
0.500000
100
AcDbArc
50
179.999998
51
-89.999999
0
POLYLINE
5
7b8
100
AcDbEntity
8
0
6
CONTINUOUS
62
5
100
AcDb2dPolyline
66
1
10
0.0
20
0.0
30
0.0
70
0
0
VERTEX
5
7b9
100
AcDbEntity
8
0
100
AcDbVertex
100
AcDb2dVertex
62
5
10
183.000000
20
158.909091
0
VERTEX
5
7ba
100
AcDbEntity
8
0
100
AcDbVertex
100
AcDb2dVertex
62
5
10
183.500000
20
158.909091
0
VERTEX
5
7bb
100
AcDbEntity
8
0
100
AcDbVertex
100
AcDb2dVertex
62
5
10
183.500000
20
150.000000
0
SEQEND
5
7bc
100
AcDbEntity
8
0
0
LINE
5
7bd
100
AcDbEntity
8
0
100
AcDbLine
6
CONTINUOUS
62
5
10
184.000000
20
158.500000
11
187.500000
21
158.500000
0
POLYLINE
5
7be
100
AcDbEntity
8
0
6
CONTINUOUS
62
5
100
AcDb2dPolyline
66
1
10
0.0
20
0.0
30
0.0
70
0
0
VERTEX
5
7bf
100
AcDbEntity
8
0
100
AcDbVertex
100
AcDb2dVertex
62
5
10
183.816619
20
141.349961
0
VERTEX
5
7c0
100
AcDbEntity
8
0
100
AcDbVertex
100
AcDb2dVertex
62
5
10
184.000000
20
141.500000
0
VERTEX
5
7c1
100
AcDbEntity
8
0
100
AcDbVertex
100
AcDb2dVertex
62
5
10
184.000000
20
141.736940
0
SEQEND
5
7c2
100
AcDbEntity
8
0
0
LINE
5
7c3
100
AcDbEntity
8
0
100
AcDbLine
6
CONTINUOUS
62
5
10
184.000000
20
141.500000
11
187.500000
21
141.500000
0
ARC
5
7c4
100
AcDbEntity
8
0
100
AcDbCircle
6
CONTINUOUS
62
5
10
183.000000
20
139.543517
40
0.500000
100
AcDbArc
50
88.750108
51
179.999998
0
POLYLINE
5
7c5
100
AcDbEntity
8
0
6
CONTINUOUS
62
5
100
AcDb2dPolyline
66
1
10
0.0
20
0.0
30
0.0
70
0
0
VERTEX
5
7c6
100
AcDbEntity
8
0
100
AcDbVertex
100
AcDb2dVertex
62
5
10
183.010907
20
140.043398
0
VERTEX
5
7c7
100
AcDbEntity
8
0
100
AcDbVertex
100
AcDb2dVertex
62
5
10
185.000000
20
140.000000
0
VERTEX
5
7c8
100
AcDbEntity
8
0
100
AcDbVertex
100
AcDb2dVertex
62
5
10
187.500000
20
140.000000
0
SEQEND
5
7c9
100
AcDbEntity
8
0
0
ARC
5
7ca
100
AcDbEntity
8
0
100
AcDbCircle
6
CONTINUOUS
62
5
10
183.500000
20
141.736940
40
0.500000
100
AcDbArc
50
-50.710592
51
-0.000000
0
LINE
5
7cb
100
AcDbEntity
8
0
100
AcDbLine
6
CONTINUOUS
62
5
10
184.000000
20
141.736940
11
184.000000
21
150.000000
0
LINE
5
7cc
100
AcDbEntity
8
0
100
AcDbLine
6
CONTINUOUS
62
5
10
183.500000
20
141.090909
11
183.816619
21
141.349961
0
ARC
5
7cd
100
AcDbEntity
8
0
100
AcDbCircle
6
CONTINUOUS
62
5
10
183.000000
20
140.590909
40
0.500000
100
AcDbArc
50
89.999999
51
179.999998
0
POLYLINE
5
7ce
100
AcDbEntity
8
0
6
CONTINUOUS
62
5
100
AcDb2dPolyline
66
1
10
0.0
20
0.0
30
0.0
70
0
0
VERTEX
5
7cf
100
AcDbEntity
8
0
100
AcDbVertex
100
AcDb2dVertex
62
5
10
183.000000
20
141.090909
0
VERTEX
5
7d0
100
AcDbEntity
8
0
100
AcDbVertex
100
AcDb2dVertex
62
5
10
183.500000
20
141.090909
0
VERTEX
5
7d1
100
AcDbEntity
8
0
100
AcDbVertex
100
AcDb2dVertex
62
5
10
183.500000
20
150.000000
0
SEQEND
5
7d2
100
AcDbEntity
8
0
0
ARC
5
7d3
100
AcDbEntity
8
0
100
AcDbCircle
6
CONTINUOUS
62
5
10
184.400000
20
120.000000
40
0.200000
100
AcDbArc
50
-179.999998
51
-160.213954
0
LINE
5
7d4
100
AcDbEntity
8
0
100
AcDbLine
6
CONTINUOUS
62
5
10
184.200000
20
120.000000
11
184.200000
21
120.164000
0
LINE
5
7d5
100
AcDbEntity
8
0
100
AcDbLine
6
CONTINUOUS
62
5
10
186.500000
20
120.100000
11
185.812500
21
119.962500
0
LINE
5
7d6
100
AcDbEntity
8
0
100
AcDbLine
6
CONTINUOUS
62
5
10
184.000000
20
119.928302
11
184.000000
21
120.180000
0
LINE
5
7d7
100
AcDbEntity
8
0
100
AcDbLine
6
CONTINUOUS
62
5
10
186.000000
20
120.000000
11
186.000000
21
119.966038
0
POLYLINE
5
7d8
100
AcDbEntity
8
0
6
CONTINUOUS
62
5
100
AcDb2dPolyline
66
1
10
0.0
20
0.0
30
0.0
70
1
0
VERTEX
5
7d9
100
AcDbEntity
8
0
100
AcDbVertex
100
AcDb2dVertex
62
5
10
185.000000
20
119.947170
0
VERTEX
5
7da
100
AcDbEntity
8
0
100
AcDbVertex
100
AcDb2dVertex
62
5
10
185.000000
20
140.000000
0
SEQEND
5
7db
100
AcDbEntity
8
0
0
ARC
5
7dc
100
AcDbEntity
8
0
100
AcDbCircle
6
CONTINUOUS
62
5
10
183.000000
20
120.761597
40
0.500000
100
AcDbArc
50
179.999998
51
-94.573917
0
POLYLINE
5
7dd
100
AcDbEntity
8
0
6
CONTINUOUS
62
5
100
AcDb2dPolyline
66
1
10
0.0
20
0.0
30
0.0
70
0
0
VERTEX
5
7de
100
AcDbEntity
8
0
100
AcDbVertex
100
AcDb2dVertex
62
5
10
182.960127
20
120.263190
0
VERTEX
5
7df
100
AcDbEntity
8
0
100
AcDbVertex
100
AcDb2dVertex
62
5
10
185.000000
20
120.100000
0
VERTEX
5
7e0
100
AcDbEntity
8
0
100
AcDbVertex
100
AcDb2dVertex
62
5
10
187.500000
20
120.100000
0
VERTEX
5
7e1
100
AcDbEntity
8
0
100
AcDbVertex
100
AcDb2dVertex
62
5
10
187.500000
20
150.000000
0
SEQEND
5
7e2
100
AcDbEntity
8
0
0
LINE
5
7e3
100
AcDbEntity
8
0
100
AcDbLine
6
CONTINUOUS
62
5
10
182.500000
20
150.000000
11
182.500000
21
120.761597
0
ARC
5
7e4
100
AcDbEntity
8
0
100
AcDbCircle
6
CONTINUOUS
62
5
10
242.000000
20
123.796836
40
0.500000
100
AcDbArc
50
-89.636219
51
0.000000
0
ARC
5
7e5
100
AcDbEntity
8
0
100
AcDbCircle
6
CONTINUOUS
62
5
10
242.000000
20
116.203163
40
0.500000
100
AcDbArc
50
0.000000
51
89.636222
0
POLYLINE
5
7e6
100
AcDbEntity
8
0
6
CONTINUOUS
62
5
100
AcDb2dPolyline
66
1
10
0.0
20
0.0
30
0.0
70
0
0
VERTEX
5
7e7
100
AcDbEntity
8
0
100
AcDbVertex
100
AcDb2dVertex
62
5
10
242.003175
20
116.703153
0
VERTEX
5
7e8
100
AcDbEntity
8
0
100
AcDbVertex
100
AcDb2dVertex
62
5
10
210.999999
20
116.899998
0
VERTEX
5
7e9
100
AcDbEntity
8
0
100
AcDbVertex
100
AcDb2dVertex
62
5
10
210.999999
20
115.899978
0
VERTEX
5
7ea
100
AcDbEntity
8
0
100
AcDbVertex
100
AcDb2dVertex
62
5
10
210.999999
20
124.100019
0
VERTEX
5
7eb
100
AcDbEntity
8
0
100
AcDbVertex
100
AcDb2dVertex
62
5
10
210.999999
20
123.099999
0
VERTEX
5
7ec
100
AcDbEntity
8
0
100
AcDbVertex
100
AcDb2dVertex
62
5
10
242.003175
20
123.296846
0
SEQEND
5
7ed
100
AcDbEntity
8
0
0
POLYLINE
5
7ee
100
AcDbEntity
8
1
6
CONTINUOUS
62
5
100
AcDb2dPolyline
66
1
10
0.0
20
0.0
30
0.0
70
0
0
VERTEX
5
7ef
100
AcDbEntity
8
1
100
AcDbVertex
100
AcDb2dVertex
62
5
10
151.875000
20
33.562500
0
VERTEX
5
7f0
100
AcDbEntity
8
1
100
AcDbVertex
100
AcDb2dVertex
62
5
10
152.187500
20
32.937500
0
VERTEX
5
7f1
100
AcDbEntity
8
1
100
AcDbVertex
100
AcDb2dVertex
62
5
10
152.187500
20
28.250000
0
SEQEND
5
7f2
100
AcDbEntity
8
1
0
POLYLINE
5
7f3
100
AcDbEntity
8
1
6
CONTINUOUS
62
5
100
AcDb2dPolyline
66
1
10
0.0
20
0.0
30
0.0
70
0
0
VERTEX
5
7f4
100
AcDbEntity
8
1
100
AcDbVertex
100
AcDb2dVertex
62
5
10
152.187500
20
32.937500
0
VERTEX
5
7f5
100
AcDbEntity
8
1
100
AcDbVertex
100
AcDb2dVertex
62
5
10
153.125000
20
33.562500
0
VERTEX
5
7f6
100
AcDbEntity
8
1
100
AcDbVertex
100
AcDb2dVertex
62
5
10
153.437500
20
33.562500
0
VERTEX
5
7f7
100
AcDbEntity
8
1
100
AcDbVertex
100
AcDb2dVertex
62
5
10
154.062500
20
32.937500
0
VERTEX
5
7f8
100
AcDbEntity
8
1
100
AcDbVertex
100
AcDb2dVertex
62
5
10
154.062500
20
28.250000
0
SEQEND
5
7f9
100
AcDbEntity
8
1
0
POLYLINE
5
7fa
100
AcDbEntity
8
1
6
CONTINUOUS
62
5
100
AcDb2dPolyline
66
1
10
0.0
20
0.0
30
0.0
70
0
0
VERTEX
5
7fb
100
AcDbEntity
8
1
100
AcDbVertex
100
AcDb2dVertex
62
5
10
154.062500
20
32.937500
0
VERTEX
5
7fc
100
AcDbEntity
8
1
100
AcDbVertex
100
AcDb2dVertex
62
5
10
155.000000
20
33.562500
0
VERTEX
5
7fd
100
AcDbEntity
8
1
100
AcDbVertex
100
AcDb2dVertex
62
5
10
155.312500
20
33.562500
0
VERTEX
5
7fe
100
AcDbEntity
8
1
100
AcDbVertex
100
AcDb2dVertex
62
5
10
155.937500
20
32.937500
0
VERTEX
5
7ff
100
AcDbEntity
8
1
100
AcDbVertex
100
AcDb2dVertex
62
5
10
155.937500
20
28.250000
0
SEQEND
5
800
100
AcDbEntity
8
1
0
POLYLINE
5
801
100
AcDbEntity
8
1
6
CONTINUOUS
62
5
100
AcDb2dPolyline
66
1
10
0.0
20
0.0
30
0.0
70
0
0
VERTEX
5
802
100
AcDbEntity
8
1
100
AcDbVertex
100
AcDb2dVertex
62
5
10
157.500000
20
28.250000
0
VERTEX
5
803
100
AcDbEntity
8
1
100
AcDbVertex
100
AcDb2dVertex
62
5
10
159.062500
20
35.750000
0
VERTEX
5
804
100
AcDbEntity
8
1
100
AcDbVertex
100
AcDb2dVertex
62
5
10
160.625000
20
28.250000
0
SEQEND
5
805
100
AcDbEntity
8
1
0
LINE
5
806
100
AcDbEntity
8
1
100
AcDbLine
6
CONTINUOUS
62
5
10
158.125000
20
30.750000
11
160.000000
21
30.750000
0
POLYLINE
5
807
100
AcDbEntity
8
0
6
CONTINUOUS
62
5
100
AcDb2dPolyline
66
1
10
0.0
20
0.0
30
0.0
70
1
0
VERTEX
5
808
100
AcDbEntity
8
0
100
AcDbVertex
100
AcDb2dVertex
62
5
10
123.400000
20
119.950000
0
VERTEX
5
809
100
AcDbEntity
8
0
100
AcDbVertex
100
AcDb2dVertex
62
5
10
124.600000
20
119.950000
0
VERTEX
5
80a
100
AcDbEntity
8
0
100
AcDbVertex
100
AcDb2dVertex
62
5
10
124.600000
20
120.180000
0
VERTEX
5
80b
100
AcDbEntity
8
0
100
AcDbVertex
100
AcDb2dVertex
62
5
10
123.400000
20
120.180000
0
SEQEND
5
80c
100
AcDbEntity
8
0
0
POLYLINE
5
80d
100
AcDbEntity
8
0
6
CONTINUOUS
62
5
100
AcDb2dPolyline
66
1
10
0.0
20
0.0
30
0.0
70
1
0
VERTEX
5
80e
100
AcDbEntity
8
0
100
AcDbVertex
100
AcDb2dVertex
62
5
10
123.000000
20
120.761591
0
VERTEX
5
80f
100
AcDbEntity
8
0
100
AcDbVertex
100
AcDb2dVertex
62
5
10
122.999999
20
126.299999
0
VERTEX
5
810
100
AcDbEntity
8
0
100
AcDbVertex
100
AcDb2dVertex
62
5
10
125.000000
20
126.299999
0
VERTEX
5
811
100
AcDbEntity
8
0
100
AcDbVertex
100
AcDb2dVertex
62
5
10
125.000000
20
120.761597
0
VERTEX
5
812
100
AcDbEntity
8
0
100
AcDbVertex
100
AcDb2dVertex
62
5
10
124.981597
20
120.608769
0
VERTEX
5
813
100
AcDbEntity
8
0
100
AcDbVertex
100
AcDb2dVertex
62
5
10
124.919411
20
120.465822
0
VERTEX
5
814
100
AcDbEntity
8
0
100
AcDbVertex
100
AcDb2dVertex
62
5
10
124.819651
20
120.366358
0
VERTEX
5
815
100
AcDbEntity
8
0
100
AcDbVertex
100
AcDb2dVertex
62
5
10
124.661386
20
120.298819
0
VERTEX
5
816
100
AcDbEntity
8
0
100
AcDbVertex
100
AcDb2dVertex
62
5
10
124.313189
20
120.263189
0
VERTEX
5
817
100
AcDbEntity
8
0
100
AcDbVertex
100
AcDb2dVertex
62
5
10
124.076083
20
120.260185
0
VERTEX
5
818
100
AcDbEntity
8
0
100
AcDbVertex
100
AcDb2dVertex
62
5
10
124.000000
20
120.260006
0
VERTEX
5
819
100
AcDbEntity
8
0
100
AcDbVertex
100
AcDb2dVertex
62
5
10
123.763407
20
120.261807
0
VERTEX
5
81a
100
AcDbEntity
8
0
100
AcDbVertex
100
AcDb2dVertex
62
5
10
123.686831
20
120.263189
0
VERTEX
5
81b
100
AcDbEntity
8
0
100
AcDbVertex
100
AcDb2dVertex
62
5
10
123.510088
20
120.271701
0
VERTEX
5
81c
100
AcDbEntity
8
0
100
AcDbVertex
100
AcDb2dVertex
62
5
10
123.266093
20
120.321945
0
VERTEX
5
81d
100
AcDbEntity
8
0
100
AcDbVertex
100
AcDb2dVertex
62
5
10
123.129032
20
120.407877
0
VERTEX
5
81e
100
AcDbEntity
8
0
100
AcDbVertex
100
AcDb2dVertex
62
5
10
123.057510
20
120.504600
0
VERTEX
5
81f
100
AcDbEntity
8
0
100
AcDbVertex
100
AcDb2dVertex
62
5
10
123.014502
20
120.625225
0
SEQEND
5
820
100
AcDbEntity
8
0
0
LINE
5
821
100
AcDbEntity
8
0
100
AcDbLine
6
CONTINUOUS
62
5
10
117.206165
20
117.703347
11
117.962715
21
117.703347
0
LINE
5
822
100
AcDbEntity
8
0
100
AcDbLine
6
CONTINUOUS
62
5
10
104.466959
20
117.703347
11
105.223509
21
117.703347
0
LINE
5
823
100
AcDbEntity
8
0
100
AcDbLine
6
CONTINUOUS
62
5
10
96.348898
20
117.703347
11
97.105451
21
117.703347
0
LINE
5
824
100
AcDbEntity
8
0
100
AcDbLine
6
CONTINUOUS
62
5
10
86.063647
20
118.204237
11
85.836463
21
117.961784
0
POLYLINE
5
825
100
AcDbEntity
8
0
6
CONTINUOUS
62
5
100
AcDb2dPolyline
66
1
10
0.0
20
0.0
30
0.0
70
0
0
VERTEX
5
826
100
AcDbEntity
8
0
100
AcDbVertex
100
AcDb2dVertex
62
5
10
85.836463
20
118.204237
0
VERTEX
5
827
100
AcDbEntity
8
0
100
AcDbVertex
100
AcDb2dVertex
62
5
10
86.063647
20
118.204237
0
VERTEX
5
828
100
AcDbEntity
8
0
100
AcDbVertex
100
AcDb2dVertex
62
5
10
86.063647
20
117.961784
0
VERTEX
5
829
100
AcDbEntity
8
0
100
AcDbVertex
100
AcDb2dVertex
62
5
10
85.836463
20
117.961784
0
VERTEX
5
82a
100
AcDbEntity
8
0
100
AcDbVertex
100
AcDb2dVertex
62
5
10
85.836463
20
118.204237
0
VERTEX
5
82b
100
AcDbEntity
8
0
100
AcDbVertex
100
AcDb2dVertex
62
5
10
86.063647
20
117.961784
0
SEQEND
5
82c
100
AcDbEntity
8
0
0
LINE
5
82d
100
AcDbEntity
8
0
100
AcDbLine
6
CONTINUOUS
62
5
10
122.909974
20
115.823680
11
122.909974
21
114.223678
0
POLYLINE
5
82e
100
AcDbEntity
8
0
6
CONTINUOUS
62
5
100
AcDb2dPolyline
66
1
10
0.0
20
0.0
30
0.0
70
0
0
VERTEX
5
82f
100
AcDbEntity
8
0
100
AcDbVertex
100
AcDb2dVertex
62
5
10
122.909974
20
115.052971
0
VERTEX
5
830
100
AcDbEntity
8
0
100
AcDbVertex
100
AcDb2dVertex
62
5
10
123.814440
20
115.052971
0
VERTEX
5
831
100
AcDbEntity
8
0
100
AcDbVertex
100
AcDb2dVertex
62
5
10
123.814440
20
115.823680
0
VERTEX
5
832
100
AcDbEntity
8
0
100
AcDbVertex
100
AcDb2dVertex
62
5
10
123.814440
20
114.223678
0
SEQEND
5
833
100
AcDbEntity
8
0
0
POLYLINE
5
834
100
AcDbEntity
8
0
6
CONTINUOUS
62
5
100
AcDb2dPolyline
66
1
10
0.0
20
0.0
30
0.0
70
0
0
VERTEX
5
835
100
AcDbEntity
8
0
100
AcDbVertex
100
AcDb2dVertex
62
5
10
121.103360
20
115.823680
0
VERTEX
5
836
100
AcDbEntity
8
0
100
AcDbVertex
100
AcDb2dVertex
62
5
10
121.452279
20
114.202534
0
VERTEX
5
837
100
AcDbEntity
8
0
100
AcDbVertex
100
AcDb2dVertex
62
5
10
121.848069
20
115.695369
0
VERTEX
5
838
100
AcDbEntity
8
0
100
AcDbVertex
100
AcDb2dVertex
62
5
10
122.234954
20
114.202534
0
VERTEX
5
839
100
AcDbEntity
8
0
100
AcDbVertex
100
AcDb2dVertex
62
5
10
122.584159
20
115.823680
0
SEQEND
5
83a
100
AcDbEntity
8
0
0
LINE
5
83b
100
AcDbEntity
8
0
100
AcDbLine
6
CONTINUOUS
62
5
10
124.630852
20
115.742666
11
124.630852
21
114.223678
0
LINE
5
83c
100
AcDbEntity
8
0
100
AcDbLine
6
CONTINUOUS
62
5
10
124.062323
20
115.742666
11
125.199383
21
115.742666
0
LINE
5
83d
100
AcDbEntity
8
1
100
AcDbLine
6
CONTINUOUS
62
5
10
120.700000
20
116.350000
11
125.500000
21
116.350000
0
POLYLINE
5
83e
100
AcDbEntity
8
0
6
CONTINUOUS
62
5
100
AcDb2dPolyline
66
1
10
0.0
20
0.0
30
0.0
70
0
0
VERTEX
5
83f
100
AcDbEntity
8
0
100
AcDbVertex
100
AcDb2dVertex
62
5
10
112.178346
20
115.289107
0
VERTEX
5
840
100
AcDbEntity
8
0
100
AcDbVertex
100
AcDb2dVertex
62
5
10
112.178346
20
115.721125
0
VERTEX
5
841
100
AcDbEntity
8
0
100
AcDbVertex
100
AcDb2dVertex
62
5
10
113.141654
20
115.721125
0
VERTEX
5
842
100
AcDbEntity
8
0
100
AcDbVertex
100
AcDb2dVertex
62
5
10
113.141654
20
115.639662
0
VERTEX
5
843
100
AcDbEntity
8
0
100
AcDbVertex
100
AcDb2dVertex
62
5
10
113.054666
20
115.462527
0
VERTEX
5
844
100
AcDbEntity
8
0
100
AcDbVertex
100
AcDb2dVertex
62
5
10
112.973994
20
115.298255
0
VERTEX
5
845
100
AcDbEntity
8
0
100
AcDbVertex
100
AcDb2dVertex
62
5
10
112.829770
20
114.944201
0
VERTEX
5
846
100
AcDbEntity
8
0
100
AcDbVertex
100
AcDb2dVertex
62
5
10
112.704981
20
114.575012
0
VERTEX
5
847
100
AcDbEntity
8
0
100
AcDbVertex
100
AcDb2dVertex
62
5
10
112.611583
20
114.200000
0
SEQEND
5
848
100
AcDbEntity
8
0
0
LINE
5
849
100
AcDbEntity
8
1
100
AcDbLine
6
CONTINUOUS
62
5
10
115.200000
20
116.350000
11
115.200000
21
114.200000
0
ARC
5
84a
100
AcDbEntity
8
0
100
AcDbCircle
6
CONTINUOUS
62
5
10
117.647169
20
114.591823
40
0.297025
100
AcDbArc
50
-63.884097
51
49.554300
0
POLYLINE
5
84b
100
AcDbEntity
8
0
6
CONTINUOUS
62
5
100
AcDb2dPolyline
66
1
10
0.0
20
0.0
30
0.0
70
0
0
VERTEX
5
84c
100
AcDbEntity
8
0
100
AcDbVertex
100
AcDb2dVertex
62
5
10
117.839858
20
114.817865
0
VERTEX
5
84d
100
AcDbEntity
8
0
100
AcDbVertex
100
AcDb2dVertex
62
5
10
117.722873
20
114.909435
0
VERTEX
5
84e
100
AcDbEntity
8
0
100
AcDbVertex
100
AcDb2dVertex
62
5
10
117.588709
20
114.967435
0
VERTEX
5
84f
100
AcDbEntity
8
0
100
AcDbVertex
100
AcDb2dVertex
62
5
10
117.436230
20
115.022678
0
SEQEND
5
850
100
AcDbEntity
8
0
0
POLYLINE
5
851
100
AcDbEntity
8
0
6
CONTINUOUS
62
5
100
AcDb2dPolyline
66
1
10
0.0
20
0.0
30
0.0
70
0
0
VERTEX
5
852
100
AcDbEntity
8
0
100
AcDbVertex
100
AcDb2dVertex
62
5
10
117.436230
20
115.022678
0
VERTEX
5
853
100
AcDbEntity
8
0
100
AcDbVertex
100
AcDb2dVertex
62
5
10
117.277255
20
115.074057
0
VERTEX
5
854
100
AcDbEntity
8
0
100
AcDbVertex
100
AcDb2dVertex
62
5
10
117.140447
20
115.148830
0
VERTEX
5
855
100
AcDbEntity
8
0
100
AcDbVertex
100
AcDb2dVertex
62
5
10
117.063256
20
115.222772
0
VERTEX
5
856
100
AcDbEntity
8
0
100
AcDbVertex
100
AcDb2dVertex
62
5
10
117.007558
20
115.349153
0
VERTEX
5
857
100
AcDbEntity
8
0
100
AcDbVertex
100
AcDb2dVertex
62
5
10
116.998557
20
115.410210
0
SEQEND
5
858
100
AcDbEntity
8
0
0
ARC
5
859
100
AcDbEntity
8
0
100
AcDbCircle
6
CONTINUOUS
62
5
10
117.341299
20
115.411506
40
0.342745
100
AcDbArc
50
97.332058
51
-179.783189
0
POLYLINE
5
85a
100
AcDbEntity
8
0
6
CONTINUOUS
62
5
100
AcDb2dPolyline
66
1
10
0.0
20
0.0
30
0.0
70
0
0
VERTEX
5
85b
100
AcDbEntity
8
0
100
AcDbVertex
100
AcDb2dVertex
62
5
10
117.297558
20
115.751449
0
VERTEX
5
85c
100
AcDbEntity
8
0
100
AcDbVertex
100
AcDb2dVertex
62
5
10
117.443393
20
115.768229
0
VERTEX
5
85d
100
AcDbEntity
8
0
100
AcDbVertex
100
AcDb2dVertex
62
5
10
117.600965
20
115.748543
0
VERTEX
5
85e
100
AcDbEntity
8
0
100
AcDbVertex
100
AcDb2dVertex
62
5
10
117.739808
20
115.682556
0
VERTEX
5
85f
100
AcDbEntity
8
0
100
AcDbVertex
100
AcDb2dVertex
62
5
10
117.850229
20
115.565542
0
VERTEX
5
860
100
AcDbEntity
8
0
100
AcDbVertex
100
AcDb2dVertex
62
5
10
117.884997
20
115.415202
0
VERTEX
5
861
100
AcDbEntity
8
0
100
AcDbVertex
100
AcDb2dVertex
62
5
10
117.854349
20
115.282148
0
VERTEX
5
862
100
AcDbEntity
8
0
100
AcDbVertex
100
AcDb2dVertex
62
5
10
117.769750
20
115.178264
0
VERTEX
5
863
100
AcDbEntity
8
0
100
AcDbVertex
100
AcDb2dVertex
62
5
10
117.649987
20
115.104441
0
VERTEX
5
864
100
AcDbEntity
8
0
100
AcDbVertex
100
AcDb2dVertex
62
5
10
117.436230
20
115.022678
0
VERTEX
5
865
100
AcDbEntity
8
0
100
AcDbVertex
100
AcDb2dVertex
62
5
10
117.329354
20
114.979268
0
VERTEX
5
866
100
AcDbEntity
8
0
100
AcDbVertex
100
AcDb2dVertex
62
5
10
117.198604
20
114.919287
0
VERTEX
5
867
100
AcDbEntity
8
0
100
AcDbVertex
100
AcDb2dVertex
62
5
10
117.096319
20
114.860100
0
VERTEX
5
868
100
AcDbEntity
8
0
100
AcDbVertex
100
AcDb2dVertex
62
5
10
116.983808
20
114.731579
0
SEQEND
5
869
100
AcDbEntity
8
0
0
ARC
5
86a
100
AcDbEntity
8
0
100
AcDbCircle
6
CONTINUOUS
62
5
10
117.334957
20
114.610450
40
0.371453
100
AcDbArc
50
160.968177
51
-130.276912
0
POLYLINE
5
86b
100
AcDbEntity
8
0
6
CONTINUOUS
62
5
100
AcDb2dPolyline
66
1
10
0.0
20
0.0
30
0.0
70
0
0
VERTEX
5
86c
100
AcDbEntity
8
0
100
AcDbVertex
100
AcDb2dVertex
62
5
10
117.094819
20
114.327058
0
VERTEX
5
86d
100
AcDbEntity
8
0
100
AcDbVertex
100
AcDb2dVertex
62
5
10
117.266530
20
114.253790
0
VERTEX
5
86e
100
AcDbEntity
8
0
100
AcDbVertex
100
AcDb2dVertex
62
5
10
117.441960
20
114.235009
0
VERTEX
5
86f
100
AcDbEntity
8
0
100
AcDbVertex
100
AcDb2dVertex
62
5
10
117.611918
20
114.253756
0
VERTEX
5
870
100
AcDbEntity
8
0
100
AcDbVertex
100
AcDb2dVertex
62
5
10
117.777916
20
114.325122
0
SEQEND
5
871
100
AcDbEntity
8
0
0
POLYLINE
5
872
100
AcDbEntity
8
0
6
CONTINUOUS
62
5
100
AcDb2dPolyline
66
1
10
0.0
20
0.0
30
0.0
70
0
0
VERTEX
5
873
100
AcDbEntity
8
0
100
AcDbVertex
100
AcDb2dVertex
62
5
10
107.868930
20
115.800121
0
VERTEX
5
874
100
AcDbEntity
8
0
100
AcDbVertex
100
AcDb2dVertex
62
5
10
107.560300
20
115.662422
0
VERTEX
5
875
100
AcDbEntity
8
0
100
AcDbVertex
100
AcDb2dVertex
62
5
10
107.342289
20
115.481552
0
VERTEX
5
876
100
AcDbEntity
8
0
100
AcDbVertex
100
AcDb2dVertex
62
5
10
107.179057
20
115.234992
0
VERTEX
5
877
100
AcDbEntity
8
0
100
AcDbVertex
100
AcDb2dVertex
62
5
10
107.104563
20
114.972853
0
VERTEX
5
878
100
AcDbEntity
8
0
100
AcDbVertex
100
AcDb2dVertex
62
5
10
107.120308
20
114.745766
0
VERTEX
5
879
100
AcDbEntity
8
0
100
AcDbVertex
100
AcDb2dVertex
62
5
10
107.148256
20
114.599621
0
VERTEX
5
87a
100
AcDbEntity
8
0
100
AcDbVertex
100
AcDb2dVertex
62
5
10
107.168384
20
114.551120
0
VERTEX
5
87b
100
AcDbEntity
8
0
100
AcDbVertex
100
AcDb2dVertex
62
5
10
107.228679
20
114.448278
0
VERTEX
5
87c
100
AcDbEntity
8
0
100
AcDbVertex
100
AcDb2dVertex
62
5
10
107.387798
20
114.308474
0
VERTEX
5
87d
100
AcDbEntity
8
0
100
AcDbVertex
100
AcDb2dVertex
62
5
10
107.603461
20
114.259885
0
VERTEX
5
87e
100
AcDbEntity
8
0
100
AcDbVertex
100
AcDb2dVertex
62
5
10
107.779734
20
114.291830
0
VERTEX
5
87f
100
AcDbEntity
8
0
100
AcDbVertex
100
AcDb2dVertex
62
5
10
107.933113
20
114.399425
0
VERTEX
5
880
100
AcDbEntity
8
0
100
AcDbVertex
100
AcDb2dVertex
62
5
10
108.020762
20
114.546133
0
VERTEX
5
881
100
AcDbEntity
8
0
100
AcDbVertex
100
AcDb2dVertex
62
5
10
108.051163
20
114.722057
0
VERTEX
5
882
100
AcDbEntity
8
0
100
AcDbVertex
100
AcDb2dVertex
62
5
10
108.021915
20
114.891218
0
VERTEX
5
883
100
AcDbEntity
8
0
100
AcDbVertex
100
AcDb2dVertex
62
5
10
107.920218
20
115.037667
0
VERTEX
5
884
100
AcDbEntity
8
0
100
AcDbVertex
100
AcDb2dVertex
62
5
10
107.780653
20
115.123925
0
VERTEX
5
885
100
AcDbEntity
8
0
100
AcDbVertex
100
AcDb2dVertex
62
5
10
107.613632
20
115.154717
0
VERTEX
5
886
100
AcDbEntity
8
0
100
AcDbVertex
100
AcDb2dVertex
62
5
10
107.566599
20
115.150268
0
VERTEX
5
887
100
AcDbEntity
8
0
100
AcDbVertex
100
AcDb2dVertex
62
5
10
107.426383
20
115.112598
0
VERTEX
5
888
100
AcDbEntity
8
0
100
AcDbVertex
100
AcDb2dVertex
62
5
10
107.371247
20
115.079098
0
VERTEX
5
889
100
AcDbEntity
8
0
100
AcDbVertex
100
AcDb2dVertex
62
5
10
107.290730
20
115.006823
0
VERTEX
5
88a
100
AcDbEntity
8
0
100
AcDbVertex
100
AcDb2dVertex
62
5
10
107.202576
20
114.889199
0
VERTEX
5
88b
100
AcDbEntity
8
0
100
AcDbVertex
100
AcDb2dVertex
62
5
10
107.120308
20
114.745766
0
SEQEND
5
88c
100
AcDbEntity
8
0
0
LINE
5
88d
100
AcDbEntity
8
1
100
AcDbLine
6
CONTINUOUS
62
5
10
105.040000
20
116.350000
11
105.040000
21
114.200000
0
POLYLINE
5
88e
100
AcDbEntity
8
0
6
CONTINUOUS
62
5
100
AcDb2dPolyline
66
1
10
0.0
20
0.0
30
0.0
70
0
0
VERTEX
5
88f
100
AcDbEntity
8
0
100
AcDbVertex
100
AcDb2dVertex
62
5
10
102.986527
20
115.721125
0
VERTEX
5
890
100
AcDbEntity
8
0
100
AcDbVertex
100
AcDb2dVertex
62
5
10
102.163473
20
115.721125
0
VERTEX
5
891
100
AcDbEntity
8
0
100
AcDbVertex
100
AcDb2dVertex
62
5
10
102.086337
20
115.027652
0
VERTEX
5
892
100
AcDbEntity
8
0
100
AcDbVertex
100
AcDb2dVertex
62
5
10
102.172463
20
115.018383
0
VERTEX
5
893
100
AcDbEntity
8
0
100
AcDbVertex
100
AcDb2dVertex
62
5
10
102.245713
20
115.061207
0
VERTEX
5
894
100
AcDbEntity
8
0
100
AcDbVertex
100
AcDb2dVertex
62
5
10
102.343961
20
115.108509
0
VERTEX
5
895
100
AcDbEntity
8
0
100
AcDbVertex
100
AcDb2dVertex
62
5
10
102.411340
20
115.131306
0
VERTEX
5
896
100
AcDbEntity
8
0
100
AcDbVertex
100
AcDb2dVertex
62
5
10
102.532378
20
115.147925
0
VERTEX
5
897
100
AcDbEntity
8
0
100
AcDbVertex
100
AcDb2dVertex
62
5
10
102.703731
20
115.120526
0
VERTEX
5
898
100
AcDbEntity
8
0
100
AcDbVertex
100
AcDb2dVertex
62
5
10
102.848133
20
115.033169
0
VERTEX
5
899
100
AcDbEntity
8
0
100
AcDbVertex
100
AcDb2dVertex
62
5
10
102.950537
20
114.881728
0
VERTEX
5
89a
100
AcDbEntity
8
0
100
AcDbVertex
100
AcDb2dVertex
62
5
10
102.979077
20
114.710250
0
VERTEX
5
89b
100
AcDbEntity
8
0
100
AcDbVertex
100
AcDb2dVertex
62
5
10
102.957691
20
114.564788
0
VERTEX
5
89c
100
AcDbEntity
8
0
100
AcDbVertex
100
AcDb2dVertex
62
5
10
102.910866
20
114.472738
0
VERTEX
5
89d
100
AcDbEntity
8
0
100
AcDbVertex
100
AcDb2dVertex
62
5
10
102.821497
20
114.364339
0
VERTEX
5
89e
100
AcDbEntity
8
0
100
AcDbVertex
100
AcDb2dVertex
62
5
10
102.696158
20
114.288912
0
VERTEX
5
89f
100
AcDbEntity
8
0
100
AcDbVertex
100
AcDb2dVertex
62
5
10
102.581515
20
114.263895
0
VERTEX
5
8a0
100
AcDbEntity
8
0
100
AcDbVertex
100
AcDb2dVertex
62
5
10
102.500859
20
114.254241
0
VERTEX
5
8a1
100
AcDbEntity
8
0
100
AcDbVertex
100
AcDb2dVertex
62
5
10
102.353603
20
114.276446
0
VERTEX
5
8a2
100
AcDbEntity
8
0
100
AcDbVertex
100
AcDb2dVertex
62
5
10
102.216724
20
114.303714
0
VERTEX
5
8a3
100
AcDbEntity
8
0
100
AcDbVertex
100
AcDb2dVertex
62
5
10
102.109089
20
114.355448
0
VERTEX
5
8a4
100
AcDbEntity
8
0
100
AcDbVertex
100
AcDb2dVertex
62
5
10
102.013473
20
114.425870
0
SEQEND
5
8a5
100
AcDbEntity
8
0
0
POLYLINE
5
8a6
100
AcDbEntity
8
0
6
CONTINUOUS
62
5
100
AcDb2dPolyline
66
1
10
0.0
20
0.0
30
0.0
70
0
0
VERTEX
5
8a7
100
AcDbEntity
8
0
100
AcDbVertex
100
AcDb2dVertex
62
5
10
98.017844
20
114.659405
0
VERTEX
5
8a8
100
AcDbEntity
8
0
100
AcDbVertex
100
AcDb2dVertex
62
5
10
96.822156
20
114.659405
0
VERTEX
5
8a9
100
AcDbEntity
8
0
100
AcDbVertex
100
AcDb2dVertex
62
5
10
96.822156
20
114.728593
0
VERTEX
5
8aa
100
AcDbEntity
8
0
100
AcDbVertex
100
AcDb2dVertex
62
5
10
97.516560
20
115.725422
0
VERTEX
5
8ab
100
AcDbEntity
8
0
100
AcDbVertex
100
AcDb2dVertex
62
5
10
97.626045
20
115.725422
0
VERTEX
5
8ac
100
AcDbEntity
8
0
100
AcDbVertex
100
AcDb2dVertex
62
5
10
97.626045
20
114.200000
0
SEQEND
5
8ad
100
AcDbEntity
8
0
0
ARC
5
8ae
100
AcDbEntity
8
0
100
AcDbCircle
6
CONTINUOUS
62
5
10
92.529350
20
115.432494
40
0.273805
100
AcDbArc
50
-50.565862
51
66.879663
0
POLYLINE
5
8af
100
AcDbEntity
8
0
6
CONTINUOUS
62
5
100
AcDb2dPolyline
66
1
10
0.0
20
0.0
30
0.0
70
0
0
VERTEX
5
8b0
100
AcDbEntity
8
0
100
AcDbVertex
100
AcDb2dVertex
62
5
10
92.703268
20
115.221019
0
VERTEX
5
8b1
100
AcDbEntity
8
0
100
AcDbVertex
100
AcDb2dVertex
62
5
10
92.594302
20
115.131405
0
VERTEX
5
8b2
100
AcDbEntity
8
0
100
AcDbVertex
100
AcDb2dVertex
62
5
10
92.461761
20
115.091565
0
VERTEX
5
8b3
100
AcDbEntity
8
0
100
AcDbVertex
100
AcDb2dVertex
62
5
10
92.337056
20
115.038898
0
VERTEX
5
8b4
100
AcDbEntity
8
0
100
AcDbVertex
100
AcDb2dVertex
62
5
10
92.124693
20
115.038898
0
SEQEND
5
8b5
100
AcDbEntity
8
0
0
POLYLINE
5
8b6
100
AcDbEntity
8
0
6
CONTINUOUS
62
5
100
AcDb2dPolyline
66
1
10
0.0
20
0.0
30
0.0
70
0
0
VERTEX
5
8b7
100
AcDbEntity
8
0
100
AcDbVertex
100
AcDb2dVertex
62
5
10
92.337056
20
115.038898
0
VERTEX
5
8b8
100
AcDbEntity
8
0
100
AcDbVertex
100
AcDb2dVertex
62
5
10
92.337056
20
115.038898
0
VERTEX
5
8b9
100
AcDbEntity
8
0
100
AcDbVertex
100
AcDb2dVertex
62
5
10
92.584470
20
114.965261
0
VERTEX
5
8ba
100
AcDbEntity
8
0
100
AcDbVertex
100
AcDb2dVertex
62
5
10
92.635120
20
114.953706
0
VERTEX
5
8bb
100
AcDbEntity
8
0
100
AcDbVertex
100
AcDb2dVertex
62
5
10
92.716971
20
114.896275
0
VERTEX
5
8bc
100
AcDbEntity
8
0
100
AcDbVertex
100
AcDb2dVertex
62
5
10
92.763656
20
114.860761
0
VERTEX
5
8bd
100
AcDbEntity
8
0
100
AcDbVertex
100
AcDb2dVertex
62
5
10
92.830106
20
114.746799
0
VERTEX
5
8be
100
AcDbEntity
8
0
100
AcDbVertex
100
AcDb2dVertex
62
5
10
92.845850
20
114.631610
0
VERTEX
5
8bf
100
AcDbEntity
8
0
100
AcDbVertex
100
AcDb2dVertex
62
5
10
92.803180
20
114.456769
0
VERTEX
5
8c0
100
AcDbEntity
8
0
100
AcDbVertex
100
AcDb2dVertex
62
5
10
92.706489
20
114.350225
0
VERTEX
5
8c1
100
AcDbEntity
8
0
100
AcDbVertex
100
AcDb2dVertex
62
5
10
92.533173
20
114.274136
0
VERTEX
5
8c2
100
AcDbEntity
8
0
100
AcDbVertex
100
AcDb2dVertex
62
5
10
92.351048
20
114.254097
0
VERTEX
5
8c3
100
AcDbEntity
8
0
100
AcDbVertex
100
AcDb2dVertex
62
5
10
92.191408
20
114.278969
0
VERTEX
5
8c4
100
AcDbEntity
8
0
100
AcDbVertex
100
AcDb2dVertex
62
5
10
92.018139
20
114.328845
0
VERTEX
5
8c5
100
AcDbEntity
8
0
100
AcDbVertex
100
AcDb2dVertex
62
5
10
91.935117
20
114.385574
0
VERTEX
5
8c6
100
AcDbEntity
8
0
100
AcDbVertex
100
AcDb2dVertex
62
5
10
91.834150
20
114.461974
0
SEQEND
5
8c7
100
AcDbEntity
8
0
0
POLYLINE
5
8c8
100
AcDbEntity
8
0
6
CONTINUOUS
62
5
100
AcDb2dPolyline
66
1
10
0.0
20
0.0
30
0.0
70
0
0
VERTEX
5
8c9
100
AcDbEntity
8
0
100
AcDbVertex
100
AcDb2dVertex
62
5
10
91.886444
20
115.564967
0
VERTEX
5
8ca
100
AcDbEntity
8
0
100
AcDbVertex
100
AcDb2dVertex
62
5
10
91.973788
20
115.632061
0
VERTEX
5
8cb
100
AcDbEntity
8
0
100
AcDbVertex
100
AcDb2dVertex
62
5
10
92.055038
20
115.684497
0
VERTEX
5
8cc
100
AcDbEntity
8
0
100
AcDbVertex
100
AcDb2dVertex
62
5
10
92.272995
20
115.746974
0
VERTEX
5
8cd
100
AcDbEntity
8
0
100
AcDbVertex
100
AcDb2dVertex
62
5
10
92.352483
20
115.754936
0
VERTEX
5
8ce
100
AcDbEntity
8
0
100
AcDbVertex
100
AcDb2dVertex
62
5
10
92.502276
20
115.738614
0
VERTEX
5
8cf
100
AcDbEntity
8
0
100
AcDbVertex
100
AcDb2dVertex
62
5
10
92.636863
20
115.684307
0
SEQEND
5
8d0
100
AcDbEntity
8
0
0
LINE
5
8d1
100
AcDbEntity
8
1
100
AcDbLine
6
CONTINUOUS
62
5
10
94.880000
20
116.350000
11
94.880000
21
114.200000
0
LINE
5
8d2
100
AcDbEntity
8
1
100
AcDbLine
6
CONTINUOUS
62
5
10
99.960000
20
116.350000
11
99.960000
21
114.200000
0
ARC
5
8d3
100
AcDbEntity
8
0
100
AcDbCircle
6
CONTINUOUS
62
5
10
87.353259
20
115.410713
40
0.309576
100
AcDbArc
50
-33.569557
51
61.416559
0
POLYLINE
5
8d4
100
AcDbEntity
8
0
6
CONTINUOUS
62
5
100
AcDb2dPolyline
66
1
10
0.0
20
0.0
30
0.0
70
0
0
VERTEX
5
8d5
100
AcDbEntity
8
0
100
AcDbVertex
100
AcDb2dVertex
62
5
10
87.611202
20
115.239534
0
VERTEX
5
8d6
100
AcDbEntity
8
0
100
AcDbVertex
100
AcDb2dVertex
62
5
10
87.530455
20
115.141161
0
VERTEX
5
8d7
100
AcDbEntity
8
0
100
AcDbVertex
100
AcDb2dVertex
62
5
10
87.202639
20
114.897126
0
VERTEX
5
8d8
100
AcDbEntity
8
0
100
AcDbVertex
100
AcDb2dVertex
62
5
10
86.932669
20
114.671473
0
VERTEX
5
8d9
100
AcDbEntity
8
0
100
AcDbVertex
100
AcDb2dVertex
62
5
10
86.751694
20
114.367701
0
VERTEX
5
8da
100
AcDbEntity
8
0
100
AcDbVertex
100
AcDb2dVertex
62
5
10
86.751694
20
114.281167
0
VERTEX
5
8db
100
AcDbEntity
8
0
100
AcDbVertex
100
AcDb2dVertex
62
5
10
87.771281
20
114.281167
0
SEQEND
5
8dc
100
AcDbEntity
8
0
0
POLYLINE
5
8dd
100
AcDbEntity
8
0
6
CONTINUOUS
62
5
100
AcDb2dPolyline
66
1
10
0.0
20
0.0
30
0.0
70
0
0
VERTEX
5
8de
100
AcDbEntity
8
0
100
AcDbVertex
100
AcDb2dVertex
62
5
10
86.732182
20
115.531127
0
VERTEX
5
8df
100
AcDbEntity
8
0
100
AcDbVertex
100
AcDb2dVertex
62
5
10
86.951059
20
115.703980
0
VERTEX
5
8e0
100
AcDbEntity
8
0
100
AcDbVertex
100
AcDb2dVertex
62
5
10
87.214698
20
115.763360
0
VERTEX
5
8e1
100
AcDbEntity
8
0
100
AcDbVertex
100
AcDb2dVertex
62
5
10
87.366774
20
115.744901
0
VERTEX
5
8e2
100
AcDbEntity
8
0
100
AcDbVertex
100
AcDb2dVertex
62
5
10
87.501371
20
115.682558
0
SEQEND
5
8e3
100
AcDbEntity
8
0
0
LINE
5
8e4
100
AcDbEntity
8
1
100
AcDbLine
6
CONTINUOUS
62
5
10
84.720000
20
116.350000
11
84.720000
21
114.200000
0
POLYLINE
5
8e5
100
AcDbEntity
8
0
6
CONTINUOUS
62
5
100
AcDb2dPolyline
66
1
10
0.0
20
0.0
30
0.0
70
0
0
VERTEX
5
8e6
100
AcDbEntity
8
0
100
AcDbVertex
100
AcDb2dVertex
62
5
10
81.911722
20
115.585082
0
VERTEX
5
8e7
100
AcDbEntity
8
0
100
AcDbVertex
100
AcDb2dVertex
62
5
10
82.050389
20
115.623941
0
VERTEX
5
8e8
100
AcDbEntity
8
0
100
AcDbVertex
100
AcDb2dVertex
62
5
10
82.242312
20
115.684535
0
VERTEX
5
8e9
100
AcDbEntity
8
0
100
AcDbVertex
100
AcDb2dVertex
62
5
10
82.408278
20
115.746889
0
VERTEX
5
8ea
100
AcDbEntity
8
0
100
AcDbVertex
100
AcDb2dVertex
62
5
10
82.408278
20
114.200000
0
SEQEND
5
8eb
100
AcDbEntity
8
0
0
LINE
5
8ec
100
AcDbEntity
8
1
100
AcDbLine
6
CONTINUOUS
62
5
10
89.800000
20
116.350000
11
89.800000
21
114.200000
0
LINE
5
8ed
100
AcDbEntity
8
1
100
AcDbLine
6
CONTINUOUS
62
5
10
110.120000
20
116.350000
11
110.120000
21
114.200000
0
LINE
5
8ee
100
AcDbEntity
8
1
100
AcDbLine
6
CONTINUOUS
62
5
10
80.100000
20
116.350000
11
119.700000
21
116.350000
0
POLYLINE
5
8ef
100
AcDbEntity
8
0
6
CONTINUOUS
62
5
100
AcDb2dPolyline
66
1
10
0.0
20
0.0
30
0.0
70
1
0
VERTEX
5
8f0
100
AcDbEntity
8
0
100
AcDbVertex
100
AcDb2dVertex
62
5
10
125.400000
20
107.800000
0
VERTEX
5
8f1
100
AcDbEntity
8
0
100
AcDbVertex
100
AcDb2dVertex
62
5
10
125.400000
20
113.000000
0
VERTEX
5
8f2
100
AcDbEntity
8
0
100
AcDbVertex
100
AcDb2dVertex
62
5
10
79.600000
20
113.000000
0
VERTEX
5
8f3
100
AcDbEntity
8
0
100
AcDbVertex
100
AcDb2dVertex
62
5
10
79.600000
20
107.800000
0
SEQEND
5
8f4
100
AcDbEntity
8
0
0
CIRCLE
5
8f5
100
AcDbEntity
8
0
100
AcDbCircle
6
CONTINUOUS
62
5
10
82.180089
20
110.500000
40
1.850000
0
LINE
5
8f6
100
AcDbEntity
8
0
100
AcDbLine
6
CONTINUOUS
62
5
10
83.944338
20
111.056709
11
80.815840
21
109.250470
0
LINE
5
8f7
100
AcDbEntity
8
0
100
AcDbLine
6
CONTINUOUS
62
5
10
83.544338
20
111.749530
11
80.415840
21
109.943291
0
LINE
5
8f8
100
AcDbEntity
8
0
100
AcDbLine
6
CONTINUOUS
62
5
10
79.650089
20
107.800000
11
79.650089
21
113.000000
0
LINE
5
8f9
100
AcDbEntity
8
0
100
AcDbLine
6
CONTINUOUS
62
5
10
125.350089
20
113.000000
11
125.350089
21
107.800000
0
LINE
5
8fa
100
AcDbEntity
8
0
100
AcDbLine
6
CONTINUOUS
62
5
10
125.350089
20
107.950000
11
79.650089
21
107.950000
0
LINE
5
8fb
100
AcDbEntity
8
0
100
AcDbLine
6
CONTINUOUS
62
5
10
125.350089
20
112.850000
11
79.650089
21
112.850000
0
CIRCLE
5
8fc
100
AcDbEntity
8
0
100
AcDbCircle
6
CONTINUOUS
62
5
10
122.820089
20
110.500000
40
1.850000
0
LINE
5
8fd
100
AcDbEntity
8
0
100
AcDbLine
6
CONTINUOUS
62
5
10
124.584338
20
111.056709
11
121.455840
21
109.250470
0
LINE
5
8fe
100
AcDbEntity
8
0
100
AcDbLine
6
CONTINUOUS
62
5
10
124.184338
20
111.749530
11
121.055840
21
109.943291
0
CIRCLE
5
8ff
100
AcDbEntity
8
0
100
AcDbCircle
6
CONTINUOUS
62
5
10
117.740089
20
110.500000
40
1.850000
0
LINE
5
900
100
AcDbEntity
8
0
100
AcDbLine
6
CONTINUOUS
62
5
10
119.504338
20
111.056709
11
116.375840
21
109.250470
0
LINE
5
901
100
AcDbEntity
8
0
100
AcDbLine
6
CONTINUOUS
62
5
10
119.104338
20
111.749530
11
115.975840
21
109.943291
0
CIRCLE
5
902
100
AcDbEntity
8
0
100
AcDbCircle
6
CONTINUOUS
62
5
10
112.660089
20
110.500000
40
1.850000
0
LINE
5
903
100
AcDbEntity
8
0
100
AcDbLine
6
CONTINUOUS
62
5
10
114.424338
20
111.056709
11
111.295840
21
109.250470
0
LINE
5
904
100
AcDbEntity
8
0
100
AcDbLine
6
CONTINUOUS
62
5
10
114.024338
20
111.749530
11
110.895840
21
109.943291
0
CIRCLE
5
905
100
AcDbEntity
8
0
100
AcDbCircle
6
CONTINUOUS
62
5
10
107.580089
20
110.500000
40
1.850000
0
LINE
5
906
100
AcDbEntity
8
0
100
AcDbLine
6
CONTINUOUS
62
5
10
109.344338
20
111.056709
11
106.215840
21
109.250470
0
LINE
5
907
100
AcDbEntity
8
0
100
AcDbLine
6
CONTINUOUS
62
5
10
108.944338
20
111.749530
11
105.815840
21
109.943291
0
CIRCLE
5
908
100
AcDbEntity
8
0
100
AcDbCircle
6
CONTINUOUS
62
5
10
102.500089
20
110.500000
40
1.850000
0
LINE
5
909
100
AcDbEntity
8
0
100
AcDbLine
6
CONTINUOUS
62
5
10
104.264338
20
111.056709
11
101.135840
21
109.250470
0
LINE
5
90a
100
AcDbEntity
8
0
100
AcDbLine
6
CONTINUOUS
62
5
10
103.864338
20
111.749530
11
100.735840
21
109.943291
0
CIRCLE
5
90b
100
AcDbEntity
8
0
100
AcDbCircle
6
CONTINUOUS
62
5
10
97.420089
20
110.500000
40
1.850000
0
LINE
5
90c
100
AcDbEntity
8
0
100
AcDbLine
6
CONTINUOUS
62
5
10
99.184338
20
111.056709
11
96.055840
21
109.250470
0
LINE
5
90d
100
AcDbEntity
8
0
100
AcDbLine
6
CONTINUOUS
62
5
10
98.784338
20
111.749530
11
95.655840
21
109.943291
0
CIRCLE
5
90e
100
AcDbEntity
8
0
100
AcDbCircle
6
CONTINUOUS
62
5
10
92.340089
20
110.500000
40
1.850000
0
LINE
5
90f
100
AcDbEntity
8
0
100
AcDbLine
6
CONTINUOUS
62
5
10
94.104338
20
111.056709
11
90.975840
21
109.250470
0
LINE
5
910
100
AcDbEntity
8
0
100
AcDbLine
6
CONTINUOUS
62
5
10
93.704338
20
111.749530
11
90.575840
21
109.943291
0
CIRCLE
5
911
100
AcDbEntity
8
0
100
AcDbCircle
6
CONTINUOUS
62
5
10
87.260089
20
110.500000
40
1.850000
0
LINE
5
912
100
AcDbEntity
8
0
100
AcDbLine
6
CONTINUOUS
62
5
10
89.024338
20
111.056709
11
85.895840
21
109.250470
0
LINE
5
913
100
AcDbEntity
8
0
100
AcDbLine
6
CONTINUOUS
62
5
10
88.624338
20
111.749530
11
85.495840
21
109.943291
0
LINE
5
914
100
AcDbEntity
8
0
100
AcDbLine
6
CONTINUOUS
62
5
10
80.140000
20
102.600000
11
124.860000
21
102.600000
0
ARC
5
915
100
AcDbEntity
8
0
100
AcDbCircle
6
CONTINUOUS
62
5
10
90.300000
20
102.800000
40
0.200000
100
AcDbArc
50
-89.999999
51
0.000000
0
LINE
5
916
100
AcDbEntity
8
0
100
AcDbLine
6
CONTINUOUS
62
5
10
90.300000
20
102.600000
11
89.300000
21
102.600000
0
ARC
5
917
100
AcDbEntity
8
0
100
AcDbCircle
6
CONTINUOUS
62
5
10
89.300000
20
102.800000
40
0.200000
100
AcDbArc
50
179.999998
51
-89.999999
0
POLYLINE
5
918
100
AcDbEntity
8
0
6
CONTINUOUS
62
5
100
AcDb2dPolyline
66
1
10
0.0
20
0.0
30
0.0
70
0
0
VERTEX
5
919
100
AcDbEntity
8
0
100
AcDbVertex
100
AcDb2dVertex
62
5
10
89.100000
20
102.800000
0
VERTEX
5
91a
100
AcDbEntity
8
0
100
AcDbVertex
100
AcDb2dVertex
62
5
10
89.100000
20
106.100000
0
VERTEX
5
91b
100
AcDbEntity
8
0
100
AcDbVertex
100
AcDb2dVertex
62
5
10
89.169999
20
106.300000
0
VERTEX
5
91c
100
AcDbEntity
8
0
100
AcDbVertex
100
AcDb2dVertex
62
5
10
89.100000
20
106.100000
0
VERTEX
5
91d
100
AcDbEntity
8
0
100
AcDbVertex
100
AcDb2dVertex
62
5
10
85.420000
20
106.100000
0
VERTEX
5
91e
100
AcDbEntity
8
0
100
AcDbVertex
100
AcDb2dVertex
62
5
10
85.350001
20
106.300000
0
VERTEX
5
91f
100
AcDbEntity
8
0
100
AcDbVertex
100
AcDb2dVertex
62
5
10
85.420000
20
106.100000
0
VERTEX
5
920
100
AcDbEntity
8
0
100
AcDbVertex
100
AcDb2dVertex
62
5
10
85.420000
20
102.800000
0
SEQEND
5
921
100
AcDbEntity
8
0
0
ARC
5
922
100
AcDbEntity
8
0
100
AcDbCircle
6
CONTINUOUS
62
5
10
85.220000
20
102.800000
40
0.200000
100
AcDbArc
50
-89.999999
51
0.000000
0
LINE
5
923
100
AcDbEntity
8
0
100
AcDbLine
6
CONTINUOUS
62
5
10
85.220000
20
102.600000
11
84.220000
21
102.600000
0
ARC
5
924
100
AcDbEntity
8
0
100
AcDbCircle
6
CONTINUOUS
62
5
10
84.220000
20
102.800000
40
0.200000
100
AcDbArc
50
179.999998
51
-89.999999
0
POLYLINE
5
925
100
AcDbEntity
8
0
6
CONTINUOUS
62
5
100
AcDb2dPolyline
66
1
10
0.0
20
0.0
30
0.0
70
0
0
VERTEX
5
926
100
AcDbEntity
8
0
100
AcDbVertex
100
AcDb2dVertex
62
5
10
84.020000
20
102.800000
0
VERTEX
5
927
100
AcDbEntity
8
0
100
AcDbVertex
100
AcDb2dVertex
62
5
10
84.020000
20
106.100000
0
VERTEX
5
928
100
AcDbEntity
8
0
100
AcDbVertex
100
AcDb2dVertex
62
5
10
84.090000
20
106.300000
0
VERTEX
5
929
100
AcDbEntity
8
0
100
AcDbVertex
100
AcDb2dVertex
62
5
10
84.020000
20
106.100000
0
VERTEX
5
92a
100
AcDbEntity
8
0
100
AcDbVertex
100
AcDb2dVertex
62
5
10
80.340000
20
106.100000
0
VERTEX
5
92b
100
AcDbEntity
8
0
100
AcDbVertex
100
AcDb2dVertex
62
5
10
80.240000
20
106.253847
0
VERTEX
5
92c
100
AcDbEntity
8
0
100
AcDbVertex
100
AcDb2dVertex
62
5
10
80.340000
20
106.100000
0
VERTEX
5
92d
100
AcDbEntity
8
0
100
AcDbVertex
100
AcDb2dVertex
62
5
10
80.340000
20
102.800000
0
SEQEND
5
92e
100
AcDbEntity
8
0
0
ARC
5
92f
100
AcDbEntity
8
0
100
AcDbCircle
6
CONTINUOUS
62
5
10
80.140000
20
102.800000
40
0.200000
100
AcDbArc
50
-89.999999
51
0.000000
0
LINE
5
930
100
AcDbEntity
8
0
100
AcDbLine
6
CONTINUOUS
62
5
10
80.140000
20
102.600000
11
78.200000
21
102.600000
0
ARC
5
931
100
AcDbEntity
8
0
100
AcDbCircle
6
CONTINUOUS
62
5
10
78.200000
20
103.100000
40
0.500000
100
AcDbArc
50
179.999998
51
-89.999999
0
LINE
5
932
100
AcDbEntity
8
0
100
AcDbLine
6
CONTINUOUS
62
5
10
77.700000
20
103.100000
11
77.700000
21
105.764662
0
ARC
5
933
100
AcDbEntity
8
0
100
AcDbCircle
6
CONTINUOUS
62
5
10
78.120000
20
106.035955
40
0.500000
100
AcDbArc
50
-147.140120
51
-90.000001
0
LINE
5
934
100
AcDbEntity
8
0
100
AcDbLine
6
CONTINUOUS
62
5
10
78.120000
20
105.535955
11
78.200000
21
105.535955
0
LINE
5
935
100
AcDbEntity
8
0
100
AcDbLine
6
CONTINUOUS
62
5
10
126.800000
20
105.535955
11
126.880000
21
105.535955
0
ARC
5
936
100
AcDbEntity
8
0
100
AcDbCircle
6
CONTINUOUS
62
5
10
126.880000
20
106.035955
40
0.500000
100
AcDbArc
50
-89.999999
51
-32.859878
0
LINE
5
937
100
AcDbEntity
8
0
100
AcDbLine
6
CONTINUOUS
62
5
10
127.300000
20
105.764662
11
127.300000
21
103.100000
0
ARC
5
938
100
AcDbEntity
8
0
100
AcDbCircle
6
CONTINUOUS
62
5
10
126.800000
20
103.100000
40
0.500000
100
AcDbArc
50
-89.999999
51
0.000000
0
LINE
5
939
100
AcDbEntity
8
0
100
AcDbLine
6
CONTINUOUS
62
5
10
126.800000
20
102.600000
11
124.860000
21
102.600000
0
ARC
5
93a
100
AcDbEntity
8
0
100
AcDbCircle
6
CONTINUOUS
62
5
10
124.860000
20
102.800000
40
0.200000
100
AcDbArc
50
179.999998
51
-89.999999
0
POLYLINE
5
93b
100
AcDbEntity
8
0
6
CONTINUOUS
62
5
100
AcDb2dPolyline
66
1
10
0.0
20
0.0
30
0.0
70
0
0
VERTEX
5
93c
100
AcDbEntity
8
0
100
AcDbVertex
100
AcDb2dVertex
62
5
10
124.660000
20
102.800000
0
VERTEX
5
93d
100
AcDbEntity
8
0
100
AcDbVertex
100
AcDb2dVertex
62
5
10
124.660000
20
106.100000
0
VERTEX
5
93e
100
AcDbEntity
8
0
100
AcDbVertex
100
AcDb2dVertex
62
5
10
124.729999
20
106.300000
0
VERTEX
5
93f
100
AcDbEntity
8
0
100
AcDbVertex
100
AcDb2dVertex
62
5
10
124.660000
20
106.100000
0
VERTEX
5
940
100
AcDbEntity
8
0
100
AcDbVertex
100
AcDb2dVertex
62
5
10
120.980000
20
106.100000
0
VERTEX
5
941
100
AcDbEntity
8
0
100
AcDbVertex
100
AcDb2dVertex
62
5
10
120.910000
20
106.300000
0
VERTEX
5
942
100
AcDbEntity
8
0
100
AcDbVertex
100
AcDb2dVertex
62
5
10
120.980000
20
106.100000
0
VERTEX
5
943
100
AcDbEntity
8
0
100
AcDbVertex
100
AcDb2dVertex
62
5
10
120.980000
20
102.800000
0
SEQEND
5
944
100
AcDbEntity
8
0
0
ARC
5
945
100
AcDbEntity
8
0
100
AcDbCircle
6
CONTINUOUS
62
5
10
120.780000
20
102.800000
40
0.200000
100
AcDbArc
50
-89.999999
51
0.000000
0
LINE
5
946
100
AcDbEntity
8
0
100
AcDbLine
6
CONTINUOUS
62
5
10
120.780000
20
102.600000
11
119.780000
21
102.600000
0
ARC
5
947
100
AcDbEntity
8
0
100
AcDbCircle
6
CONTINUOUS
62
5
10
119.780000
20
102.800000
40
0.200000
100
AcDbArc
50
179.999998
51
-89.999999
0
POLYLINE
5
948
100
AcDbEntity
8
0
6
CONTINUOUS
62
5
100
AcDb2dPolyline
66
1
10
0.0
20
0.0
30
0.0
70
0
0
VERTEX
5
949
100
AcDbEntity
8
0
100
AcDbVertex
100
AcDb2dVertex
62
5
10
119.580000
20
102.800000
0
VERTEX
5
94a
100
AcDbEntity
8
0
100
AcDbVertex
100
AcDb2dVertex
62
5
10
119.580000
20
106.100000
0
VERTEX
5
94b
100
AcDbEntity
8
0
100
AcDbVertex
100
AcDb2dVertex
62
5
10
119.649999
20
106.300000
0
VERTEX
5
94c
100
AcDbEntity
8
0
100
AcDbVertex
100
AcDb2dVertex
62
5
10
119.580000
20
106.100000
0
VERTEX
5
94d
100
AcDbEntity
8
0
100
AcDbVertex
100
AcDb2dVertex
62
5
10
115.900000
20
106.100000
0
VERTEX
5
94e
100
AcDbEntity
8
0
100
AcDbVertex
100
AcDb2dVertex
62
5
10
115.830001
20
106.300000
0
VERTEX
5
94f
100
AcDbEntity
8
0
100
AcDbVertex
100
AcDb2dVertex
62
5
10
115.900000
20
106.100000
0
VERTEX
5
950
100
AcDbEntity
8
0
100
AcDbVertex
100
AcDb2dVertex
62
5
10
115.900000
20
102.800000
0
SEQEND
5
951
100
AcDbEntity
8
0
0
ARC
5
952
100
AcDbEntity
8
0
100
AcDbCircle
6
CONTINUOUS
62
5
10
115.700000
20
102.800000
40
0.200000
100
AcDbArc
50
-89.999999
51
0.000000
0
LINE
5
953
100
AcDbEntity
8
0
100
AcDbLine
6
CONTINUOUS
62
5
10
115.700000
20
102.600000
11
114.700000
21
102.600000
0
ARC
5
954
100
AcDbEntity
8
0
100
AcDbCircle
6
CONTINUOUS
62
5
10
114.700000
20
102.800000
40
0.200000
100
AcDbArc
50
179.999998
51
-89.999999
0
POLYLINE
5
955
100
AcDbEntity
8
0
6
CONTINUOUS
62
5
100
AcDb2dPolyline
66
1
10
0.0
20
0.0
30
0.0
70
0
0
VERTEX
5
956
100
AcDbEntity
8
0
100
AcDbVertex
100
AcDb2dVertex
62
5
10
114.500000
20
102.800000
0
VERTEX
5
957
100
AcDbEntity
8
0
100
AcDbVertex
100
AcDb2dVertex
62
5
10
114.500000
20
106.100000
0
VERTEX
5
958
100
AcDbEntity
8
0
100
AcDbVertex
100
AcDb2dVertex
62
5
10
114.570000
20
106.300000
0
VERTEX
5
959
100
AcDbEntity
8
0
100
AcDbVertex
100
AcDb2dVertex
62
5
10
114.500000
20
106.100000
0
VERTEX
5
95a
100
AcDbEntity
8
0
100
AcDbVertex
100
AcDb2dVertex
62
5
10
114.500000
20
106.100000
0
VERTEX
5
95b
100
AcDbEntity
8
0
100
AcDbVertex
100
AcDb2dVertex
62
5
10
110.820000
20
106.100000
0
VERTEX
5
95c
100
AcDbEntity
8
0
100
AcDbVertex
100
AcDb2dVertex
62
5
10
110.750000
20
106.300000
0
VERTEX
5
95d
100
AcDbEntity
8
0
100
AcDbVertex
100
AcDb2dVertex
62
5
10
110.820000
20
106.100000
0
VERTEX
5
95e
100
AcDbEntity
8
0
100
AcDbVertex
100
AcDb2dVertex
62
5
10
110.820000
20
102.800000
0
SEQEND
5
95f
100
AcDbEntity
8
0
0
ARC
5
960
100
AcDbEntity
8
0
100
AcDbCircle
6
CONTINUOUS
62
5
10
110.620000
20
102.800000
40
0.200000
100
AcDbArc
50
-89.999999
51
0.000000
0
LINE
5
961
100
AcDbEntity
8
0
100
AcDbLine
6
CONTINUOUS
62
5
10
110.620000
20
102.600000
11
109.620000
21
102.600000
0
ARC
5
962
100
AcDbEntity
8
0
100
AcDbCircle
6
CONTINUOUS
62
5
10
109.620000
20
102.800000
40
0.200000
100
AcDbArc
50
179.999998
51
-89.999999
0
POLYLINE
5
963
100
AcDbEntity
8
0
6
CONTINUOUS
62
5
100
AcDb2dPolyline
66
1
10
0.0
20
0.0
30
0.0
70
0
0
VERTEX
5
964
100
AcDbEntity
8
0
100
AcDbVertex
100
AcDb2dVertex
62
5
10
109.420000
20
102.800000
0
VERTEX
5
965
100
AcDbEntity
8
0
100
AcDbVertex
100
AcDb2dVertex
62
5
10
109.420000
20
106.100000
0
VERTEX
5
966
100
AcDbEntity
8
0
100
AcDbVertex
100
AcDb2dVertex
62
5
10
109.490000
20
106.300000
0
VERTEX
5
967
100
AcDbEntity
8
0
100
AcDbVertex
100
AcDb2dVertex
62
5
10
109.420000
20
106.100000
0
VERTEX
5
968
100
AcDbEntity
8
0
100
AcDbVertex
100
AcDb2dVertex
62
5
10
105.740000
20
106.100000
0
VERTEX
5
969
100
AcDbEntity
8
0
100
AcDbVertex
100
AcDb2dVertex
62
5
10
105.670000
20
106.300000
0
VERTEX
5
96a
100
AcDbEntity
8
0
100
AcDbVertex
100
AcDb2dVertex
62
5
10
105.740000
20
106.100000
0
VERTEX
5
96b
100
AcDbEntity
8
0
100
AcDbVertex
100
AcDb2dVertex
62
5
10
105.740000
20
102.800000
0
SEQEND
5
96c
100
AcDbEntity
8
0
0
ARC
5
96d
100
AcDbEntity
8
0
100
AcDbCircle
6
CONTINUOUS
62
5
10
105.540000
20
102.800000
40
0.200000
100
AcDbArc
50
-89.999999
51
0.000000
0
LINE
5
96e
100
AcDbEntity
8
0
100
AcDbLine
6
CONTINUOUS
62
5
10
105.540000
20
102.600000
11
104.540000
21
102.600000
0
ARC
5
96f
100
AcDbEntity
8
0
100
AcDbCircle
6
CONTINUOUS
62
5
10
104.540000
20
102.800000
40
0.200000
100
AcDbArc
50
179.999998
51
-89.999999
0
POLYLINE
5
970
100
AcDbEntity
8
0
6
CONTINUOUS
62
5
100
AcDb2dPolyline
66
1
10
0.0
20
0.0
30
0.0
70
0
0
VERTEX
5
971
100
AcDbEntity
8
0
100
AcDbVertex
100
AcDb2dVertex
62
5
10
104.340000
20
102.800000
0
VERTEX
5
972
100
AcDbEntity
8
0
100
AcDbVertex
100
AcDb2dVertex
62
5
10
104.340000
20
106.100000
0
VERTEX
5
973
100
AcDbEntity
8
0
100
AcDbVertex
100
AcDb2dVertex
62
5
10
104.409999
20
106.300000
0
VERTEX
5
974
100
AcDbEntity
8
0
100
AcDbVertex
100
AcDb2dVertex
62
5
10
104.340000
20
106.100000
0
VERTEX
5
975
100
AcDbEntity
8
0
100
AcDbVertex
100
AcDb2dVertex
62
5
10
100.660000
20
106.100000
0
VERTEX
5
976
100
AcDbEntity
8
0
100
AcDbVertex
100
AcDb2dVertex
62
5
10
100.590001
20
106.300000
0
VERTEX
5
977
100
AcDbEntity
8
0
100
AcDbVertex
100
AcDb2dVertex
62
5
10
100.660000
20
106.100000
0
VERTEX
5
978
100
AcDbEntity
8
0
100
AcDbVertex
100
AcDb2dVertex
62
5
10
100.660000
20
102.800000
0
SEQEND
5
979
100
AcDbEntity
8
0
0
ARC
5
97a
100
AcDbEntity
8
0
100
AcDbCircle
6
CONTINUOUS
62
5
10
100.460000
20
102.800000
40
0.200000
100
AcDbArc
50
-89.999999
51
0.000000
0
LINE
5
97b
100
AcDbEntity
8
0
100
AcDbLine
6
CONTINUOUS
62
5
10
100.460000
20
102.600000
11
99.460000
21
102.600000
0
ARC
5
97c
100
AcDbEntity
8
0
100
AcDbCircle
6
CONTINUOUS
62
5
10
99.460000
20
102.800000
40
0.200000
100
AcDbArc
50
179.999998
51
-89.999999
0
POLYLINE
5
97d
100
AcDbEntity
8
0
6
CONTINUOUS
62
5
100
AcDb2dPolyline
66
1
10
0.0
20
0.0
30
0.0
70
0
0
VERTEX
5
97e
100
AcDbEntity
8
0
100
AcDbVertex
100
AcDb2dVertex
62
5
10
99.260000
20
102.800000
0
VERTEX
5
97f
100
AcDbEntity
8
0
100
AcDbVertex
100
AcDb2dVertex
62
5
10
99.260000
20
106.100000
0
VERTEX
5
980
100
AcDbEntity
8
0
100
AcDbVertex
100
AcDb2dVertex
62
5
10
99.330000
20
106.300000
0
VERTEX
5
981
100
AcDbEntity
8
0
100
AcDbVertex
100
AcDb2dVertex
62
5
10
99.260000
20
106.100000
0
VERTEX
5
982
100
AcDbEntity
8
0
100
AcDbVertex
100
AcDb2dVertex
62
5
10
95.580000
20
106.100000
0
VERTEX
5
983
100
AcDbEntity
8
0
100
AcDbVertex
100
AcDb2dVertex
62
5
10
95.510000
20
106.300000
0
VERTEX
5
984
100
AcDbEntity
8
0
100
AcDbVertex
100
AcDb2dVertex
62
5
10
95.580000
20
106.100000
0
VERTEX
5
985
100
AcDbEntity
8
0
100
AcDbVertex
100
AcDb2dVertex
62
5
10
95.580000
20
102.800000
0
SEQEND
5
986
100
AcDbEntity
8
0
0
ARC
5
987
100
AcDbEntity
8
0
100
AcDbCircle
6
CONTINUOUS
62
5
10
95.380000
20
102.800000
40
0.200000
100
AcDbArc
50
-89.999999
51
0.000000
0
LINE
5
988
100
AcDbEntity
8
0
100
AcDbLine
6
CONTINUOUS
62
5
10
95.380000
20
102.600000
11
94.380000
21
102.600000
0
ARC
5
989
100
AcDbEntity
8
0
100
AcDbCircle
6
CONTINUOUS
62
5
10
94.380000
20
102.800000
40
0.200000
100
AcDbArc
50
179.999998
51
-89.999999
0
POLYLINE
5
98a
100
AcDbEntity
8
0
6
CONTINUOUS
62
5
100
AcDb2dPolyline
66
1
10
0.0
20
0.0
30
0.0
70
0
0
VERTEX
5
98b
100
AcDbEntity
8
0
100
AcDbVertex
100
AcDb2dVertex
62
5
10
94.180000
20
102.800000
0
VERTEX
5
98c
100
AcDbEntity
8
0
100
AcDbVertex
100
AcDb2dVertex
62
5
10
94.180000
20
106.100000
0
VERTEX
5
98d
100
AcDbEntity
8
0
100
AcDbVertex
100
AcDb2dVertex
62
5
10
94.250000
20
106.300000
0
VERTEX
5
98e
100
AcDbEntity
8
0
100
AcDbVertex
100
AcDb2dVertex
62
5
10
94.180000
20
106.100000
0
VERTEX
5
98f
100
AcDbEntity
8
0
100
AcDbVertex
100
AcDb2dVertex
62
5
10
90.500000
20
106.100000
0
VERTEX
5
990
100
AcDbEntity
8
0
100
AcDbVertex
100
AcDb2dVertex
62
5
10
90.430000
20
106.300000
0
VERTEX
5
991
100
AcDbEntity
8
0
100
AcDbVertex
100
AcDb2dVertex
62
5
10
90.500000
20
106.100000
0
VERTEX
5
992
100
AcDbEntity
8
0
100
AcDbVertex
100
AcDb2dVertex
62
5
10
90.500000
20
102.800000
0
SEQEND
5
993
100
AcDbEntity
8
0
0
POLYLINE
5
994
100
AcDbEntity
8
0
6
CONTINUOUS
62
5
100
AcDb2dPolyline
66
1
10
0.0
20
0.0
30
0.0
70
1
0
VERTEX
5
995
100
AcDbEntity
8
0
100
AcDbVertex
100
AcDb2dVertex
62
5
10
123.384730
20
116.987038
0
VERTEX
5
996
100
AcDbEntity
8
0
100
AcDbVertex
100
AcDb2dVertex
62
5
10
123.384730
20
118.184177
0
VERTEX
5
997
100
AcDbEntity
8
0
100
AcDbVertex
100
AcDb2dVertex
62
5
10
124.584142
20
118.184177
0
VERTEX
5
998
100
AcDbEntity
8
0
100
AcDbVertex
100
AcDb2dVertex
62
5
10
124.584142
20
116.987038
0
SEQEND
5
999
100
AcDbEntity
8
0
0
POLYLINE
5
99a
100
AcDbEntity
8
0
6
CONTINUOUS
62
5
100
AcDb2dPolyline
66
1
10
0.0
20
0.0
30
0.0
70
0
0
VERTEX
5
99b
100
AcDbEntity
8
0
100
AcDbVertex
100
AcDb2dVertex
62
5
10
121.755362
20
118.284388
0
VERTEX
5
99c
100
AcDbEntity
8
0
100
AcDbVertex
100
AcDb2dVertex
62
5
10
122.009002
20
118.212414
0
VERTEX
5
99d
100
AcDbEntity
8
0
100
AcDbVertex
100
AcDb2dVertex
62
5
10
122.252041
20
118.111035
0
SEQEND
5
99e
100
AcDbEntity
8
0
0
POLYLINE
5
99f
100
AcDbEntity
8
0
6
CONTINUOUS
62
5
100
AcDb2dPolyline
66
1
10
0.0
20
0.0
30
0.0
70
0
0
VERTEX
5
9a0
100
AcDbEntity
8
0
100
AcDbVertex
100
AcDb2dVertex
62
5
10
121.575183
20
117.832107
0
VERTEX
5
9a1
100
AcDbEntity
8
0
100
AcDbVertex
100
AcDb2dVertex
62
5
10
121.823401
20
117.749076
0
VERTEX
5
9a2
100
AcDbEntity
8
0
100
AcDbVertex
100
AcDb2dVertex
62
5
10
122.065110
20
117.648787
0
SEQEND
5
9a3
100
AcDbEntity
8
0
0
POLYLINE
5
9a4
100
AcDbEntity
8
0
6
CONTINUOUS
62
5
100
AcDb2dPolyline
66
1
10
0.0
20
0.0
30
0.0
70
0
0
VERTEX
5
9a5
100
AcDbEntity
8
0
100
AcDbVertex
100
AcDb2dVertex
62
5
10
121.687101
20
116.939301
0
VERTEX
5
9a6
100
AcDbEntity
8
0
100
AcDbVertex
100
AcDb2dVertex
62
5
10
121.971151
20
116.975321
0
VERTEX
5
9a7
100
AcDbEntity
8
0
100
AcDbVertex
100
AcDb2dVertex
62
5
10
122.252041
20
117.048545
0
VERTEX
5
9a8
100
AcDbEntity
8
0
100
AcDbVertex
100
AcDb2dVertex
62
5
10
122.545525
20
117.215061
0
VERTEX
5
9a9
100
AcDbEntity
8
0
100
AcDbVertex
100
AcDb2dVertex
62
5
10
122.768310
20
117.465064
0
VERTEX
5
9aa
100
AcDbEntity
8
0
100
AcDbVertex
100
AcDb2dVertex
62
5
10
122.895780
20
117.733123
0
VERTEX
5
9ab
100
AcDbEntity
8
0
100
AcDbVertex
100
AcDb2dVertex
62
5
10
122.977171
20
118.024254
0
SEQEND
5
9ac
100
AcDbEntity
8
0
0
POLYLINE
5
9ad
100
AcDbEntity
8
1
6
CONTINUOUS
62
5
100
AcDb2dPolyline
66
1
10
0.0
20
0.0
30
0.0
70
1
0
VERTEX
5
9ae
100
AcDbEntity
8
1
100
AcDbVertex
100
AcDb2dVertex
62
5
10
120.700000
20
118.950000
0
VERTEX
5
9af
100
AcDbEntity
8
1
100
AcDbVertex
100
AcDb2dVertex
62
5
10
125.500000
20
118.950000
0
VERTEX
5
9b0
100
AcDbEntity
8
1
100
AcDbVertex
100
AcDb2dVertex
62
5
10
125.500000
20
113.750000
0
VERTEX
5
9b1
100
AcDbEntity
8
1
100
AcDbVertex
100
AcDb2dVertex
62
5
10
120.700000
20
113.750000
0
SEQEND
5
9b2
100
AcDbEntity
8
1
0
ARC
5
9b3
100
AcDbEntity
8
0
100
AcDbCircle
6
CONTINUOUS
62
5
10
93.632493
20
118.940717
40
25.192166
100
AcDbArc
50
-4.217543
51
-2.492492
0
POLYLINE
5
9b4
100
AcDbEntity
8
0
6
CONTINUOUS
62
5
100
AcDb2dPolyline
66
1
10
0.0
20
0.0
30
0.0
70
0
0
VERTEX
5
9b5
100
AcDbEntity
8
0
100
AcDbVertex
100
AcDb2dVertex
62
5
10
118.756439
20
117.087995
0
VERTEX
5
9b6
100
AcDbEntity
8
0
100
AcDbVertex
100
AcDb2dVertex
62
5
10
118.742675
20
117.048379
0
VERTEX
5
9b7
100
AcDbEntity
8
0
100
AcDbVertex
100
AcDb2dVertex
62
5
10
118.720834
20
117.021669
0
VERTEX
5
9b8
100
AcDbEntity
8
0
100
AcDbVertex
100
AcDb2dVertex
62
5
10
118.671792
20
117.005013
0
VERTEX
5
9b9
100
AcDbEntity
8
0
100
AcDbVertex
100
AcDb2dVertex
62
5
10
118.571023
20
117.007288
0
VERTEX
5
9ba
100
AcDbEntity
8
0
100
AcDbVertex
100
AcDb2dVertex
62
5
10
118.496502
20
117.018198
0
SEQEND
5
9bb
100
AcDbEntity
8
0
0
POLYLINE
5
9bc
100
AcDbEntity
8
0
6
CONTINUOUS
62
5
100
AcDb2dPolyline
66
1
10
0.0
20
0.0
30
0.0
70
0
0
VERTEX
5
9bd
100
AcDbEntity
8
0
100
AcDbVertex
100
AcDb2dVertex
62
5
10
118.472566
20
118.458560
0
VERTEX
5
9be
100
AcDbEntity
8
0
100
AcDbVertex
100
AcDb2dVertex
62
5
10
118.464008
20
118.121871
0
VERTEX
5
9bf
100
AcDbEntity
8
0
100
AcDbVertex
100
AcDb2dVertex
62
5
10
118.459462
20
117.996446
0
VERTEX
5
9c0
100
AcDbEntity
8
0
100
AcDbVertex
100
AcDb2dVertex
62
5
10
118.435450
20
117.714509
0
VERTEX
5
9c1
100
AcDbEntity
8
0
100
AcDbVertex
100
AcDb2dVertex
62
5
10
118.384181
20
117.440065
0
VERTEX
5
9c2
100
AcDbEntity
8
0
100
AcDbVertex
100
AcDb2dVertex
62
5
10
118.286671
20
117.200951
0
VERTEX
5
9c3
100
AcDbEntity
8
0
100
AcDbVertex
100
AcDb2dVertex
62
5
10
118.137613
20
116.994932
0
SEQEND
5
9c4
100
AcDbEntity
8
0
0
POLYLINE
5
9c5
100
AcDbEntity
8
0
6
CONTINUOUS
62
5
100
AcDb2dPolyline
66
1
10
0.0
20
0.0
30
0.0
70
0
0
VERTEX
5
9c6
100
AcDbEntity
8
0
100
AcDbVertex
100
AcDb2dVertex
62
5
10
118.134137
20
118.059159
0
VERTEX
5
9c7
100
AcDbEntity
8
0
100
AcDbVertex
100
AcDb2dVertex
62
5
10
118.800826
20
118.059159
0
VERTEX
5
9c8
100
AcDbEntity
8
0
100
AcDbVertex
100
AcDb2dVertex
62
5
10
118.800826
20
117.845148
0
SEQEND
5
9c9
100
AcDbEntity
8
0
0
LINE
5
9ca
100
AcDbEntity
8
0
100
AcDbLine
6
CONTINUOUS
62
5
10
112.967405
20
118.444657
11
114.282345
21
118.444657
0
POLYLINE
5
9cb
100
AcDbEntity
8
0
6
CONTINUOUS
62
5
100
AcDb2dPolyline
66
1
10
0.0
20
0.0
30
0.0
70
0
0
VERTEX
5
9cc
100
AcDbEntity
8
0
100
AcDbVertex
100
AcDb2dVertex
62
5
10
112.869928
20
117.950182
0
VERTEX
5
9cd
100
AcDbEntity
8
0
100
AcDbVertex
100
AcDb2dVertex
62
5
10
112.869928
20
118.237534
0
VERTEX
5
9ce
100
AcDbEntity
8
0
100
AcDbVertex
100
AcDb2dVertex
62
5
10
114.377282
20
118.237534
0
VERTEX
5
9cf
100
AcDbEntity
8
0
100
AcDbVertex
100
AcDb2dVertex
62
5
10
114.377282
20
117.948310
0
SEQEND
5
9d0
100
AcDbEntity
8
0
0
LINE
5
9d1
100
AcDbEntity
8
0
100
AcDbLine
6
CONTINUOUS
62
5
10
113.618189
20
118.444657
11
113.618189
21
117.772342
0
LINE
5
9d2
100
AcDbEntity
8
0
100
AcDbLine
6
CONTINUOUS
62
5
10
113.044156
20
118.044317
11
113.451182
21
118.044317
0
LINE
5
9d3
100
AcDbEntity
8
0
100
AcDbLine
6
CONTINUOUS
62
5
10
113.044156
20
117.854178
11
113.451182
21
117.854178
0
LINE
5
9d4
100
AcDbEntity
8
0
100
AcDbLine
6
CONTINUOUS
62
5
10
113.786001
20
118.044317
11
114.205861
21
118.044317
0
LINE
5
9d5
100
AcDbEntity
8
0
100
AcDbLine
6
CONTINUOUS
62
5
10
113.786001
20
117.854178
11
114.205861
21
117.854178
0
POLYLINE
5
9d6
100
AcDbEntity
8
0
6
CONTINUOUS
62
5
100
AcDb2dPolyline
66
1
10
0.0
20
0.0
30
0.0
70
0
0
VERTEX
5
9d7
100
AcDbEntity
8
0
100
AcDbVertex
100
AcDb2dVertex
62
5
10
113.015275
20
117.012583
0
VERTEX
5
9d8
100
AcDbEntity
8
0
100
AcDbVertex
100
AcDb2dVertex
62
5
10
113.015275
20
117.657351
0
VERTEX
5
9d9
100
AcDbEntity
8
0
100
AcDbVertex
100
AcDb2dVertex
62
5
10
114.220302
20
117.657351
0
VERTEX
5
9da
100
AcDbEntity
8
0
100
AcDbVertex
100
AcDb2dVertex
62
5
10
114.220302
20
117.161004
0
SEQEND
5
9db
100
AcDbEntity
8
0
0
LINE
5
9dc
100
AcDbEntity
8
0
100
AcDbLine
6
CONTINUOUS
62
5
10
113.015275
20
117.418672
11
114.220302
21
117.418672
0
LINE
5
9dd
100
AcDbEntity
8
0
100
AcDbLine
6
CONTINUOUS
62
5
10
113.015275
20
117.161004
11
114.220302
21
117.161004
0
POLYLINE
5
9de
100
AcDbEntity
8
0
6
CONTINUOUS
62
5
100
AcDb2dPolyline
66
1
10
0.0
20
0.0
30
0.0
70
0
0
VERTEX
5
9df
100
AcDbEntity
8
0
100
AcDbVertex
100
AcDb2dVertex
62
5
10
113.612306
20
117.657351
0
VERTEX
5
9e0
100
AcDbEntity
8
0
100
AcDbVertex
100
AcDb2dVertex
62
5
10
113.612306
20
116.972548
0
VERTEX
5
9e1
100
AcDbEntity
8
0
100
AcDbVertex
100
AcDb2dVertex
62
5
10
113.624403
20
116.930394
0
VERTEX
5
9e2
100
AcDbEntity
8
0
100
AcDbVertex
100
AcDb2dVertex
62
5
10
113.630156
20
116.921559
0
VERTEX
5
9e3
100
AcDbEntity
8
0
100
AcDbVertex
100
AcDb2dVertex
62
5
10
113.678227
20
116.893043
0
VERTEX
5
9e4
100
AcDbEntity
8
0
100
AcDbVertex
100
AcDb2dVertex
62
5
10
113.821370
20
116.880651
0
VERTEX
5
9e5
100
AcDbEntity
8
0
100
AcDbVertex
100
AcDb2dVertex
62
5
10
114.144901
20
116.880911
0
VERTEX
5
9e6
100
AcDbEntity
8
0
100
AcDbVertex
100
AcDb2dVertex
62
5
10
114.324466
20
116.893979
0
VERTEX
5
9e7
100
AcDbEntity
8
0
100
AcDbVertex
100
AcDb2dVertex
62
5
10
114.362021
20
116.904541
0
VERTEX
5
9e8
100
AcDbEntity
8
0
100
AcDbVertex
100
AcDb2dVertex
62
5
10
114.397303
20
116.929157
0
VERTEX
5
9e9
100
AcDbEntity
8
0
100
AcDbVertex
100
AcDb2dVertex
62
5
10
114.417117
20
116.952388
0
VERTEX
5
9ea
100
AcDbEntity
8
0
100
AcDbVertex
100
AcDb2dVertex
62
5
10
114.424697
20
117.000712
0
VERTEX
5
9eb
100
AcDbEntity
8
0
100
AcDbVertex
100
AcDb2dVertex
62
5
10
114.437721
20
117.148836
0
SEQEND
5
9ec
100
AcDbEntity
8
0
0
POLYLINE
5
9ed
100
AcDbEntity
8
0
6
CONTINUOUS
62
5
100
AcDb2dPolyline
66
1
10
0.0
20
0.0
30
0.0
70
0
0
VERTEX
5
9ee
100
AcDbEntity
8
0
100
AcDbVertex
100
AcDb2dVertex
62
5
10
114.644174
20
118.232540
0
VERTEX
5
9ef
100
AcDbEntity
8
0
100
AcDbVertex
100
AcDb2dVertex
62
5
10
115.284191
20
118.232540
0
VERTEX
5
9f0
100
AcDbEntity
8
0
100
AcDbVertex
100
AcDb2dVertex
62
5
10
115.279179
20
117.927665
0
VERTEX
5
9f1
100
AcDbEntity
8
0
100
AcDbVertex
100
AcDb2dVertex
62
5
10
115.251101
20
117.631231
0
VERTEX
5
9f2
100
AcDbEntity
8
0
100
AcDbVertex
100
AcDb2dVertex
62
5
10
115.186335
20
117.393470
0
VERTEX
5
9f3
100
AcDbEntity
8
0
100
AcDbVertex
100
AcDb2dVertex
62
5
10
115.063366
20
117.186231
0
VERTEX
5
9f4
100
AcDbEntity
8
0
100
AcDbVertex
100
AcDb2dVertex
62
5
10
114.929011
20
117.065241
0
VERTEX
5
9f5
100
AcDbEntity
8
0
100
AcDbVertex
100
AcDb2dVertex
62
5
10
114.776550
20
116.974073
0
SEQEND
5
9f6
100
AcDbEntity
8
0
0
POLYLINE
5
9f7
100
AcDbEntity
8
0
6
CONTINUOUS
62
5
100
AcDb2dPolyline
66
1
10
0.0
20
0.0
30
0.0
70
0
0
VERTEX
5
9f8
100
AcDbEntity
8
0
100
AcDbVertex
100
AcDb2dVertex
62
5
10
115.547411
20
118.468457
0
VERTEX
5
9f9
100
AcDbEntity
8
0
100
AcDbVertex
100
AcDb2dVertex
62
5
10
115.636580
20
118.325550
0
VERTEX
5
9fa
100
AcDbEntity
8
0
100
AcDbVertex
100
AcDb2dVertex
62
5
10
115.708134
20
118.172949
0
SEQEND
5
9fb
100
AcDbEntity
8
0
0
POLYLINE
5
9fc
100
AcDbEntity
8
0
6
CONTINUOUS
62
5
100
AcDb2dPolyline
66
1
10
0.0
20
0.0
30
0.0
70
0
0
VERTEX
5
9fd
100
AcDbEntity
8
0
100
AcDbVertex
100
AcDb2dVertex
62
5
10
115.764428
20
118.541865
0
VERTEX
5
9fe
100
AcDbEntity
8
0
100
AcDbVertex
100
AcDb2dVertex
62
5
10
115.853808
20
118.401039
0
VERTEX
5
9ff
100
AcDbEntity
8
0
100
AcDbVertex
100
AcDb2dVertex
62
5
10
115.924616
20
118.249566
0
SEQEND
5
a00
100
AcDbEntity
8
0
0
POLYLINE
5
a01
100
AcDbEntity
8
0
6
CONTINUOUS
62
5
100
AcDb2dPolyline
66
1
10
0.0
20
0.0
30
0.0
70
0
0
VERTEX
5
a02
100
AcDbEntity
8
0
100
AcDbVertex
100
AcDb2dVertex
62
5
10
112.165925
20
117.216496
0
VERTEX
5
a03
100
AcDbEntity
8
0
100
AcDbVertex
100
AcDb2dVertex
62
5
10
112.280820
20
117.138445
0
VERTEX
5
a04
100
AcDbEntity
8
0
100
AcDbVertex
100
AcDb2dVertex
62
5
10
112.389761
20
117.051894
0
SEQEND
5
a05
100
AcDbEntity
8
0
0
POLYLINE
5
a06
100
AcDbEntity
8
0
6
CONTINUOUS
62
5
100
AcDb2dPolyline
66
1
10
0.0
20
0.0
30
0.0
70
0
0
VERTEX
5
a07
100
AcDbEntity
8
0
100
AcDbVertex
100
AcDb2dVertex
62
5
10
110.990314
20
118.481026
0
VERTEX
5
a08
100
AcDbEntity
8
0
100
AcDbVertex
100
AcDb2dVertex
62
5
10
111.122500
20
118.351600
0
VERTEX
5
a09
100
AcDbEntity
8
0
100
AcDbVertex
100
AcDb2dVertex
62
5
10
111.241295
20
118.209187
0
SEQEND
5
a0a
100
AcDbEntity
8
0
0
POLYLINE
5
a0b
100
AcDbEntity
8
0
6
CONTINUOUS
62
5
100
AcDb2dPolyline
66
1
10
0.0
20
0.0
30
0.0
70
0
0
VERTEX
5
a0c
100
AcDbEntity
8
0
100
AcDbVertex
100
AcDb2dVertex
62
5
10
110.935330
20
118.018808
0
VERTEX
5
a0d
100
AcDbEntity
8
0
100
AcDbVertex
100
AcDb2dVertex
62
5
10
111.067410
20
117.889485
0
VERTEX
5
a0e
100
AcDbEntity
8
0
100
AcDbVertex
100
AcDb2dVertex
62
5
10
111.187113
20
117.745984
0
SEQEND
5
a0f
100
AcDbEntity
8
0
0
POLYLINE
5
a10
100
AcDbEntity
8
0
6
CONTINUOUS
62
5
100
AcDb2dPolyline
66
1
10
0.0
20
0.0
30
0.0
70
0
0
VERTEX
5
a11
100
AcDbEntity
8
0
100
AcDbVertex
100
AcDb2dVertex
62
5
10
110.963705
20
116.874724
0
VERTEX
5
a12
100
AcDbEntity
8
0
100
AcDbVertex
100
AcDb2dVertex
62
5
10
111.100993
20
117.184154
0
VERTEX
5
a13
100
AcDbEntity
8
0
100
AcDbVertex
100
AcDb2dVertex
62
5
10
111.200646
20
117.509195
0
SEQEND
5
a14
100
AcDbEntity
8
0
0
POLYLINE
5
a15
100
AcDbEntity
8
0
6
CONTINUOUS
62
5
100
AcDb2dPolyline
66
1
10
0.0
20
0.0
30
0.0
70
0
0
VERTEX
5
a16
100
AcDbEntity
8
0
100
AcDbVertex
100
AcDb2dVertex
62
5
10
111.223243
20
116.884753
0
VERTEX
5
a17
100
AcDbEntity
8
0
100
AcDbVertex
100
AcDb2dVertex
62
5
10
111.331048
20
117.112928
0
VERTEX
5
a18
100
AcDbEntity
8
0
100
AcDbVertex
100
AcDb2dVertex
62
5
10
111.397873
20
117.357831
0
VERTEX
5
a19
100
AcDbEntity
8
0
100
AcDbVertex
100
AcDb2dVertex
62
5
10
111.424700
20
117.587284
0
VERTEX
5
a1a
100
AcDbEntity
8
0
100
AcDbVertex
100
AcDb2dVertex
62
5
10
111.433040
20
117.821686
0
VERTEX
5
a1b
100
AcDbEntity
8
0
100
AcDbVertex
100
AcDb2dVertex
62
5
10
111.433040
20
118.414035
0
VERTEX
5
a1c
100
AcDbEntity
8
0
100
AcDbVertex
100
AcDb2dVertex
62
5
10
112.487239
20
118.414035
0
VERTEX
5
a1d
100
AcDbEntity
8
0
100
AcDbVertex
100
AcDb2dVertex
62
5
10
112.487239
20
118.121337
0
VERTEX
5
a1e
100
AcDbEntity
8
0
100
AcDbVertex
100
AcDb2dVertex
62
5
10
111.433040
20
118.121337
0
SEQEND
5
a1f
100
AcDbEntity
8
0
0
LINE
5
a20
100
AcDbEntity
8
0
100
AcDbLine
6
CONTINUOUS
62
5
10
111.433040
20
117.865409
11
112.656119
21
117.865409
0
POLYLINE
5
a21
100
AcDbEntity
8
0
6
CONTINUOUS
62
5
100
AcDb2dPolyline
66
1
10
0.0
20
0.0
30
0.0
70
0
0
VERTEX
5
a22
100
AcDbEntity
8
0
100
AcDbVertex
100
AcDb2dVertex
62
5
10
111.594165
20
116.798373
0
VERTEX
5
a23
100
AcDbEntity
8
0
100
AcDbVertex
100
AcDb2dVertex
62
5
10
111.594165
20
117.607073
0
VERTEX
5
a24
100
AcDbEntity
8
0
100
AcDbVertex
100
AcDb2dVertex
62
5
10
112.516656
20
117.607073
0
VERTEX
5
a25
100
AcDbEntity
8
0
100
AcDbVertex
100
AcDb2dVertex
62
5
10
112.516656
20
116.956907
0
VERTEX
5
a26
100
AcDbEntity
8
0
100
AcDbVertex
100
AcDb2dVertex
62
5
10
112.509633
20
116.913208
0
VERTEX
5
a27
100
AcDbEntity
8
0
100
AcDbVertex
100
AcDb2dVertex
62
5
10
112.477344
20
116.885822
0
VERTEX
5
a28
100
AcDbEntity
8
0
100
AcDbVertex
100
AcDb2dVertex
62
5
10
112.445750
20
116.877478
0
VERTEX
5
a29
100
AcDbEntity
8
0
100
AcDbVertex
100
AcDb2dVertex
62
5
10
112.245485
20
116.885822
0
SEQEND
5
a2a
100
AcDbEntity
8
0
0
LINE
5
a2b
100
AcDbEntity
8
0
100
AcDbLine
6
CONTINUOUS
62
5
10
112.049059
20
117.865409
11
112.049059
21
116.830999
0
POLYLINE
5
a2c
100
AcDbEntity
8
0
6
CONTINUOUS
62
5
100
AcDb2dPolyline
66
1
10
0.0
20
0.0
30
0.0
70
0
0
VERTEX
5
a2d
100
AcDbEntity
8
0
100
AcDbVertex
100
AcDb2dVertex
62
5
10
111.717850
20
117.463064
0
VERTEX
5
a2e
100
AcDbEntity
8
0
100
AcDbVertex
100
AcDb2dVertex
62
5
10
111.825836
20
117.388940
0
VERTEX
5
a2f
100
AcDbEntity
8
0
100
AcDbVertex
100
AcDb2dVertex
62
5
10
111.931257
20
117.302874
0
SEQEND
5
a30
100
AcDbEntity
8
0
0
POLYLINE
5
a31
100
AcDbEntity
8
0
6
CONTINUOUS
62
5
100
AcDb2dPolyline
66
1
10
0.0
20
0.0
30
0.0
70
0
0
VERTEX
5
a32
100
AcDbEntity
8
0
100
AcDbVertex
100
AcDb2dVertex
62
5
10
111.709693
20
117.199381
0
VERTEX
5
a33
100
AcDbEntity
8
0
100
AcDbVertex
100
AcDb2dVertex
62
5
10
111.824359
20
117.124248
0
VERTEX
5
a34
100
AcDbEntity
8
0
100
AcDbVertex
100
AcDb2dVertex
62
5
10
111.932193
20
117.039860
0
SEQEND
5
a35
100
AcDbEntity
8
0
0
POLYLINE
5
a36
100
AcDbEntity
8
0
6
CONTINUOUS
62
5
100
AcDb2dPolyline
66
1
10
0.0
20
0.0
30
0.0
70
0
0
VERTEX
5
a37
100
AcDbEntity
8
0
100
AcDbVertex
100
AcDb2dVertex
62
5
10
112.169134
20
117.461727
0
VERTEX
5
a38
100
AcDbEntity
8
0
100
AcDbVertex
100
AcDb2dVertex
62
5
10
112.284096
20
117.388098
0
VERTEX
5
a39
100
AcDbEntity
8
0
100
AcDbVertex
100
AcDb2dVertex
62
5
10
112.392569
20
117.305281
0
SEQEND
5
a3a
100
AcDbEntity
8
0
0
POLYLINE
5
a3b
100
AcDbEntity
8
0
6
CONTINUOUS
62
5
100
AcDb2dPolyline
66
1
10
0.0
20
0.0
30
0.0
70
0
0
VERTEX
5
a3c
100
AcDbEntity
8
0
100
AcDbVertex
100
AcDb2dVertex
62
5
10
116.411102
20
118.424332
0
VERTEX
5
a3d
100
AcDbEntity
8
0
100
AcDbVertex
100
AcDb2dVertex
62
5
10
116.411102
20
117.109530
0
VERTEX
5
a3e
100
AcDbEntity
8
0
100
AcDbVertex
100
AcDb2dVertex
62
5
10
116.411102
20
117.061120
0
VERTEX
5
a3f
100
AcDbEntity
8
0
100
AcDbVertex
100
AcDb2dVertex
62
5
10
116.459458
20
117.016572
0
VERTEX
5
a40
100
AcDbEntity
8
0
100
AcDbVertex
100
AcDb2dVertex
62
5
10
116.531904
20
117.066479
0
VERTEX
5
a41
100
AcDbEntity
8
0
100
AcDbVertex
100
AcDb2dVertex
62
5
10
116.695909
20
117.228929
0
VERTEX
5
a42
100
AcDbEntity
8
0
100
AcDbVertex
100
AcDb2dVertex
62
5
10
116.830796
20
117.403328
0
VERTEX
5
a43
100
AcDbEntity
8
0
100
AcDbVertex
100
AcDb2dVertex
62
5
10
116.932162
20
117.572004
0
VERTEX
5
a44
100
AcDbEntity
8
0
100
AcDbVertex
100
AcDb2dVertex
62
5
10
117.011342
20
117.724475
0
SEQEND
5
a45
100
AcDbEntity
8
0
0
LINE
5
a46
100
AcDbEntity
8
0
100
AcDbLine
6
CONTINUOUS
62
5
10
108.179385
20
118.316824
11
108.866142
21
118.316824
0
LINE
5
a47
100
AcDbEntity
8
0
100
AcDbLine
6
CONTINUOUS
62
5
10
108.140608
20
117.752020
11
108.943694
21
117.752020
0
POLYLINE
5
a48
100
AcDbEntity
8
0
6
CONTINUOUS
62
5
100
AcDb2dPolyline
66
1
10
0.0
20
0.0
30
0.0
70
0
0
VERTEX
5
a49
100
AcDbEntity
8
0
100
AcDbVertex
100
AcDb2dVertex
62
5
10
108.457778
20
118.316824
0
VERTEX
5
a4a
100
AcDbEntity
8
0
100
AcDbVertex
100
AcDb2dVertex
62
5
10
108.457778
20
117.137364
0
VERTEX
5
a4b
100
AcDbEntity
8
0
100
AcDbVertex
100
AcDb2dVertex
62
5
10
108.468748
20
117.064902
0
VERTEX
5
a4c
100
AcDbEntity
8
0
100
AcDbVertex
100
AcDb2dVertex
62
5
10
108.510696
20
117.033575
0
VERTEX
5
a4d
100
AcDbEntity
8
0
100
AcDbVertex
100
AcDb2dVertex
62
5
10
108.533250
20
117.029645
0
VERTEX
5
a4e
100
AcDbEntity
8
0
100
AcDbVertex
100
AcDb2dVertex
62
5
10
108.626645
20
117.023565
0
VERTEX
5
a4f
100
AcDbEntity
8
0
100
AcDbVertex
100
AcDb2dVertex
62
5
10
108.797524
20
117.024436
0
VERTEX
5
a50
100
AcDbEntity
8
0
100
AcDbVertex
100
AcDb2dVertex
62
5
10
108.894221
20
117.033575
0
SEQEND
5
a51
100
AcDbEntity
8
0
0
LINE
5
a52
100
AcDbEntity
8
0
100
AcDbLine
6
CONTINUOUS
62
5
10
107.384591
20
118.421658
11
107.384591
21
117.550914
0
POLYLINE
5
a53
100
AcDbEntity
8
0
6
CONTINUOUS
62
5
100
AcDb2dPolyline
66
1
10
0.0
20
0.0
30
0.0
70
0
0
VERTEX
5
a54
100
AcDbEntity
8
0
100
AcDbVertex
100
AcDb2dVertex
62
5
10
107.845903
20
118.458562
0
VERTEX
5
a55
100
AcDbEntity
8
0
100
AcDbVertex
100
AcDb2dVertex
62
5
10
107.845903
20
117.783976
0
VERTEX
5
a56
100
AcDbEntity
8
0
100
AcDbVertex
100
AcDb2dVertex
62
5
10
107.837845
20
117.544705
0
VERTEX
5
a57
100
AcDbEntity
8
0
100
AcDbVertex
100
AcDb2dVertex
62
5
10
107.802044
20
117.314510
0
VERTEX
5
a58
100
AcDbEntity
8
0
100
AcDbVertex
100
AcDb2dVertex
62
5
10
107.687393
20
117.100793
0
VERTEX
5
a59
100
AcDbEntity
8
0
100
AcDbVertex
100
AcDb2dVertex
62
5
10
107.506939
20
116.939575
0
SEQEND
5
a5a
100
AcDbEntity
8
0
0
LINE
5
a5b
100
AcDbEntity
8
0
100
AcDbLine
6
CONTINUOUS
62
5
10
107.040278
20
118.507638
11
106.347107
21
116.834877
0
ARC
5
a5c
100
AcDbEntity
8
0
100
AcDbCircle
6
CONTINUOUS
62
5
10
80.893288
20
118.940717
40
25.192166
100
AcDbArc
50
-4.217543
51
-2.492492
0
POLYLINE
5
a5d
100
AcDbEntity
8
0
6
CONTINUOUS
62
5
100
AcDb2dPolyline
66
1
10
0.0
20
0.0
30
0.0
70
0
0
VERTEX
5
a5e
100
AcDbEntity
8
0
100
AcDbVertex
100
AcDb2dVertex
62
5
10
106.017234
20
117.087995
0
VERTEX
5
a5f
100
AcDbEntity
8
0
100
AcDbVertex
100
AcDb2dVertex
62
5
10
106.003470
20
117.048379
0
VERTEX
5
a60
100
AcDbEntity
8
0
100
AcDbVertex
100
AcDb2dVertex
62
5
10
105.981629
20
117.021669
0
VERTEX
5
a61
100
AcDbEntity
8
0
100
AcDbVertex
100
AcDb2dVertex
62
5
10
105.932587
20
117.005013
0
VERTEX
5
a62
100
AcDbEntity
8
0
100
AcDbVertex
100
AcDb2dVertex
62
5
10
105.831818
20
117.007288
0
VERTEX
5
a63
100
AcDbEntity
8
0
100
AcDbVertex
100
AcDb2dVertex
62
5
10
105.757297
20
117.018198
0
SEQEND
5
a64
100
AcDbEntity
8
0
0
POLYLINE
5
a65
100
AcDbEntity
8
0
6
CONTINUOUS
62
5
100
AcDb2dPolyline
66
1
10
0.0
20
0.0
30
0.0
70
0
0
VERTEX
5
a66
100
AcDbEntity
8
0
100
AcDbVertex
100
AcDb2dVertex
62
5
10
105.733361
20
118.458560
0
VERTEX
5
a67
100
AcDbEntity
8
0
100
AcDbVertex
100
AcDb2dVertex
62
5
10
105.724803
20
118.121871
0
VERTEX
5
a68
100
AcDbEntity
8
0
100
AcDbVertex
100
AcDb2dVertex
62
5
10
105.720257
20
117.996446
0
VERTEX
5
a69
100
AcDbEntity
8
0
100
AcDbVertex
100
AcDb2dVertex
62
5
10
105.696245
20
117.714509
0
VERTEX
5
a6a
100
AcDbEntity
8
0
100
AcDbVertex
100
AcDb2dVertex
62
5
10
105.644976
20
117.440065
0
VERTEX
5
a6b
100
AcDbEntity
8
0
100
AcDbVertex
100
AcDb2dVertex
62
5
10
105.547466
20
117.200951
0
VERTEX
5
a6c
100
AcDbEntity
8
0
100
AcDbVertex
100
AcDb2dVertex
62
5
10
105.398408
20
116.994932
0
SEQEND
5
a6d
100
AcDbEntity
8
0
0
POLYLINE
5
a6e
100
AcDbEntity
8
0
6
CONTINUOUS
62
5
100
AcDb2dPolyline
66
1
10
0.0
20
0.0
30
0.0
70
0
0
VERTEX
5
a6f
100
AcDbEntity
8
0
100
AcDbVertex
100
AcDb2dVertex
62
5
10
105.394932
20
118.059159
0
VERTEX
5
a70
100
AcDbEntity
8
0
100
AcDbVertex
100
AcDb2dVertex
62
5
10
106.061621
20
118.059159
0
VERTEX
5
a71
100
AcDbEntity
8
0
100
AcDbVertex
100
AcDb2dVertex
62
5
10
106.061621
20
117.845148
0
SEQEND
5
a72
100
AcDbEntity
8
0
0
POLYLINE
5
a73
100
AcDbEntity
8
0
6
CONTINUOUS
62
5
100
AcDb2dPolyline
66
1
10
0.0
20
0.0
30
0.0
70
0
0
VERTEX
5
a74
100
AcDbEntity
8
0
100
AcDbVertex
100
AcDb2dVertex
62
5
10
101.905237
20
118.232185
0
VERTEX
5
a75
100
AcDbEntity
8
0
100
AcDbVertex
100
AcDb2dVertex
62
5
10
102.545253
20
118.232185
0
VERTEX
5
a76
100
AcDbEntity
8
0
100
AcDbVertex
100
AcDb2dVertex
62
5
10
102.540242
20
117.927310
0
VERTEX
5
a77
100
AcDbEntity
8
0
100
AcDbVertex
100
AcDb2dVertex
62
5
10
102.512163
20
117.630876
0
VERTEX
5
a78
100
AcDbEntity
8
0
100
AcDbVertex
100
AcDb2dVertex
62
5
10
102.447397
20
117.393115
0
VERTEX
5
a79
100
AcDbEntity
8
0
100
AcDbVertex
100
AcDb2dVertex
62
5
10
102.324429
20
117.185876
0
VERTEX
5
a7a
100
AcDbEntity
8
0
100
AcDbVertex
100
AcDb2dVertex
62
5
10
102.190074
20
117.064886
0
VERTEX
5
a7b
100
AcDbEntity
8
0
100
AcDbVertex
100
AcDb2dVertex
62
5
10
102.037613
20
116.973718
0
SEQEND
5
a7c
100
AcDbEntity
8
0
0
POLYLINE
5
a7d
100
AcDbEntity
8
0
6
CONTINUOUS
62
5
100
AcDb2dPolyline
66
1
10
0.0
20
0.0
30
0.0
70
0
0
VERTEX
5
a7e
100
AcDbEntity
8
0
100
AcDbVertex
100
AcDb2dVertex
62
5
10
102.808206
20
118.468457
0
VERTEX
5
a7f
100
AcDbEntity
8
0
100
AcDbVertex
100
AcDb2dVertex
62
5
10
102.897375
20
118.325550
0
VERTEX
5
a80
100
AcDbEntity
8
0
100
AcDbVertex
100
AcDb2dVertex
62
5
10
102.968929
20
118.172949
0
SEQEND
5
a81
100
AcDbEntity
8
0
0
POLYLINE
5
a82
100
AcDbEntity
8
0
6
CONTINUOUS
62
5
100
AcDb2dPolyline
66
1
10
0.0
20
0.0
30
0.0
70
0
0
VERTEX
5
a83
100
AcDbEntity
8
0
100
AcDbVertex
100
AcDb2dVertex
62
5
10
103.025223
20
118.541866
0
VERTEX
5
a84
100
AcDbEntity
8
0
100
AcDbVertex
100
AcDb2dVertex
62
5
10
103.114603
20
118.401040
0
VERTEX
5
a85
100
AcDbEntity
8
0
100
AcDbVertex
100
AcDb2dVertex
62
5
10
103.185411
20
118.249567
0
SEQEND
5
a86
100
AcDbEntity
8
0
0
POLYLINE
5
a87
100
AcDbEntity
8
0
6
CONTINUOUS
62
5
100
AcDb2dPolyline
66
1
10
0.0
20
0.0
30
0.0
70
0
0
VERTEX
5
a88
100
AcDbEntity
8
0
100
AcDbVertex
100
AcDb2dVertex
62
5
10
100.993976
20
118.276844
0
VERTEX
5
a89
100
AcDbEntity
8
0
100
AcDbVertex
100
AcDb2dVertex
62
5
10
101.173650
20
118.200994
0
VERTEX
5
a8a
100
AcDbEntity
8
0
100
AcDbVertex
100
AcDb2dVertex
62
5
10
101.344308
20
118.107163
0
SEQEND
5
a8b
100
AcDbEntity
8
0
0
POLYLINE
5
a8c
100
AcDbEntity
8
0
6
CONTINUOUS
62
5
100
AcDb2dPolyline
66
1
10
0.0
20
0.0
30
0.0
70
0
0
VERTEX
5
a8d
100
AcDbEntity
8
0
100
AcDbVertex
100
AcDb2dVertex
62
5
10
101.689019
20
118.056217
0
VERTEX
5
a8e
100
AcDbEntity
8
0
100
AcDbVertex
100
AcDb2dVertex
62
5
10
101.652092
20
117.768408
0
VERTEX
5
a8f
100
AcDbEntity
8
0
100
AcDbVertex
100
AcDb2dVertex
62
5
10
101.579999
20
117.539713
0
VERTEX
5
a90
100
AcDbEntity
8
0
100
AcDbVertex
100
AcDb2dVertex
62
5
10
101.483824
20
117.337184
0
VERTEX
5
a91
100
AcDbEntity
8
0
100
AcDbVertex
100
AcDb2dVertex
62
5
10
101.369002
20
117.203700
0
VERTEX
5
a92
100
AcDbEntity
8
0
100
AcDbVertex
100
AcDb2dVertex
62
5
10
101.182437
20
117.080541
0
VERTEX
5
a93
100
AcDbEntity
8
0
100
AcDbVertex
100
AcDb2dVertex
62
5
10
101.005342
20
117.019669
0
SEQEND
5
a94
100
AcDbEntity
8
0
0
POLYLINE
5
a95
100
AcDbEntity
8
0
6
CONTINUOUS
62
5
100
AcDb2dPolyline
66
1
10
0.0
20
0.0
30
0.0
70
0
0
VERTEX
5
a96
100
AcDbEntity
8
0
100
AcDbVertex
100
AcDb2dVertex
62
5
10
103.671897
20
118.424332
0
VERTEX
5
a97
100
AcDbEntity
8
0
100
AcDbVertex
100
AcDb2dVertex
62
5
10
103.671897
20
117.109530
0
VERTEX
5
a98
100
AcDbEntity
8
0
100
AcDbVertex
100
AcDb2dVertex
62
5
10
103.671897
20
117.061120
0
VERTEX
5
a99
100
AcDbEntity
8
0
100
AcDbVertex
100
AcDb2dVertex
62
5
10
103.720253
20
117.016572
0
VERTEX
5
a9a
100
AcDbEntity
8
0
100
AcDbVertex
100
AcDb2dVertex
62
5
10
103.792699
20
117.066479
0
VERTEX
5
a9b
100
AcDbEntity
8
0
100
AcDbVertex
100
AcDb2dVertex
62
5
10
103.956704
20
117.228929
0
VERTEX
5
a9c
100
AcDbEntity
8
0
100
AcDbVertex
100
AcDb2dVertex
62
5
10
104.091591
20
117.403328
0
VERTEX
5
a9d
100
AcDbEntity
8
0
100
AcDbVertex
100
AcDb2dVertex
62
5
10
104.192957
20
117.572004
0
VERTEX
5
a9e
100
AcDbEntity
8
0
100
AcDbVertex
100
AcDb2dVertex
62
5
10
104.272137
20
117.724475
0
SEQEND
5
a9f
100
AcDbEntity
8
0
0
POLYLINE
5
aa0
100
AcDbEntity
8
0
6
CONTINUOUS
62
5
100
AcDb2dPolyline
66
1
10
0.0
20
0.0
30
0.0
70
0
0
VERTEX
5
aa1
100
AcDbEntity
8
0
100
AcDbVertex
100
AcDb2dVertex
62
5
10
109.127950
20
118.215068
0
VERTEX
5
aa2
100
AcDbEntity
8
0
100
AcDbVertex
100
AcDb2dVertex
62
5
10
109.722309
20
118.215068
0
VERTEX
5
aa3
100
AcDbEntity
8
0
100
AcDbVertex
100
AcDb2dVertex
62
5
10
109.722309
20
117.085455
0
VERTEX
5
aa4
100
AcDbEntity
8
0
100
AcDbVertex
100
AcDb2dVertex
62
5
10
109.113509
20
117.085455
0
SEQEND
5
aa5
100
AcDbEntity
8
0
0
POLYLINE
5
aa6
100
AcDbEntity
8
0
6
CONTINUOUS
62
5
100
AcDb2dPolyline
66
1
10
0.0
20
0.0
30
0.0
70
0
0
VERTEX
5
aa7
100
AcDbEntity
8
0
100
AcDbVertex
100
AcDb2dVertex
62
5
10
110.036267
20
118.276844
0
VERTEX
5
aa8
100
AcDbEntity
8
0
100
AcDbVertex
100
AcDb2dVertex
62
5
10
110.215941
20
118.200994
0
VERTEX
5
aa9
100
AcDbEntity
8
0
100
AcDbVertex
100
AcDb2dVertex
62
5
10
110.386599
20
118.107162
0
SEQEND
5
aaa
100
AcDbEntity
8
0
0
POLYLINE
5
aab
100
AcDbEntity
8
0
6
CONTINUOUS
62
5
100
AcDb2dPolyline
66
1
10
0.0
20
0.0
30
0.0
70
0
0
VERTEX
5
aac
100
AcDbEntity
8
0
100
AcDbVertex
100
AcDb2dVertex
62
5
10
110.731310
20
118.056216
0
VERTEX
5
aad
100
AcDbEntity
8
0
100
AcDbVertex
100
AcDb2dVertex
62
5
10
110.694383
20
117.768408
0
VERTEX
5
aae
100
AcDbEntity
8
0
100
AcDbVertex
100
AcDb2dVertex
62
5
10
110.622290
20
117.539713
0
VERTEX
5
aaf
100
AcDbEntity
8
0
100
AcDbVertex
100
AcDb2dVertex
62
5
10
110.526115
20
117.337184
0
VERTEX
5
ab0
100
AcDbEntity
8
0
100
AcDbVertex
100
AcDb2dVertex
62
5
10
110.411293
20
117.203700
0
VERTEX
5
ab1
100
AcDbEntity
8
0
100
AcDbVertex
100
AcDb2dVertex
62
5
10
110.224728
20
117.080541
0
VERTEX
5
ab2
100
AcDbEntity
8
0
100
AcDbVertex
100
AcDb2dVertex
62
5
10
110.047633
20
117.019668
0
SEQEND
5
ab3
100
AcDbEntity
8
0
0
POLYLINE
5
ab4
100
AcDbEntity
8
0
6
CONTINUOUS
62
5
100
AcDb2dPolyline
66
1
10
0.0
20
0.0
30
0.0
70
0
0
VERTEX
5
ab5
100
AcDbEntity
8
0
100
AcDbVertex
100
AcDb2dVertex
62
5
10
89.923689
20
118.479421
0
VERTEX
5
ab6
100
AcDbEntity
8
0
100
AcDbVertex
100
AcDb2dVertex
62
5
10
90.383931
20
118.479421
0
VERTEX
5
ab7
100
AcDbEntity
8
0
100
AcDbVertex
100
AcDb2dVertex
62
5
10
90.383931
20
116.870579
0
VERTEX
5
ab8
100
AcDbEntity
8
0
100
AcDbVertex
100
AcDb2dVertex
62
5
10
89.923689
20
116.870579
0
SEQEND
5
ab9
100
AcDbEntity
8
0
0
LINE
5
aba
100
AcDbEntity
8
0
100
AcDbLine
6
CONTINUOUS
62
5
10
90.948471
20
118.421656
11
90.948471
21
117.550912
0
POLYLINE
5
abb
100
AcDbEntity
8
0
6
CONTINUOUS
62
5
100
AcDb2dPolyline
66
1
10
0.0
20
0.0
30
0.0
70
0
0
VERTEX
5
abc
100
AcDbEntity
8
0
100
AcDbVertex
100
AcDb2dVertex
62
5
10
91.409783
20
118.458560
0
VERTEX
5
abd
100
AcDbEntity
8
0
100
AcDbVertex
100
AcDb2dVertex
62
5
10
91.409783
20
117.783975
0
VERTEX
5
abe
100
AcDbEntity
8
0
100
AcDbVertex
100
AcDb2dVertex
62
5
10
91.401724
20
117.544703
0
VERTEX
5
abf
100
AcDbEntity
8
0
100
AcDbVertex
100
AcDb2dVertex
62
5
10
91.365924
20
117.314508
0
VERTEX
5
ac0
100
AcDbEntity
8
0
100
AcDbVertex
100
AcDb2dVertex
62
5
10
91.251273
20
117.100792
0
VERTEX
5
ac1
100
AcDbEntity
8
0
100
AcDbVertex
100
AcDb2dVertex
62
5
10
91.070819
20
116.939574
0
SEQEND
5
ac2
100
AcDbEntity
8
0
0
LINE
5
ac3
100
AcDbEntity
8
0
100
AcDbLine
6
CONTINUOUS
62
5
10
86.063647
20
117.391416
11
85.836463
21
117.148963
0
POLYLINE
5
ac4
100
AcDbEntity
8
0
6
CONTINUOUS
62
5
100
AcDb2dPolyline
66
1
10
0.0
20
0.0
30
0.0
70
0
0
VERTEX
5
ac5
100
AcDbEntity
8
0
100
AcDbVertex
100
AcDb2dVertex
62
5
10
85.836463
20
117.391416
0
VERTEX
5
ac6
100
AcDbEntity
8
0
100
AcDbVertex
100
AcDb2dVertex
62
5
10
86.063647
20
117.391416
0
VERTEX
5
ac7
100
AcDbEntity
8
0
100
AcDbVertex
100
AcDb2dVertex
62
5
10
86.063647
20
117.148963
0
VERTEX
5
ac8
100
AcDbEntity
8
0
100
AcDbVertex
100
AcDb2dVertex
62
5
10
85.836463
20
117.148963
0
VERTEX
5
ac9
100
AcDbEntity
8
0
100
AcDbVertex
100
AcDb2dVertex
62
5
10
85.836463
20
117.391416
0
VERTEX
5
aca
100
AcDbEntity
8
0
100
AcDbVertex
100
AcDb2dVertex
62
5
10
86.063647
20
117.148963
0
SEQEND
5
acb
100
AcDbEntity
8
0
0
POLYLINE
5
acc
100
AcDbEntity
8
0
6
CONTINUOUS
62
5
100
AcDb2dPolyline
66
1
10
0.0
20
0.0
30
0.0
70
0
0
VERTEX
5
acd
100
AcDbEntity
8
0
100
AcDbVertex
100
AcDb2dVertex
62
5
10
87.139102
20
117.997784
0
VERTEX
5
ace
100
AcDbEntity
8
0
100
AcDbVertex
100
AcDb2dVertex
62
5
10
87.139102
20
117.697804
0
VERTEX
5
acf
100
AcDbEntity
8
0
100
AcDbVertex
100
AcDb2dVertex
62
5
10
87.120909
20
117.551963
0
VERTEX
5
ad0
100
AcDbEntity
8
0
100
AcDbVertex
100
AcDb2dVertex
62
5
10
87.104441
20
117.461133
0
VERTEX
5
ad1
100
AcDbEntity
8
0
100
AcDbVertex
100
AcDb2dVertex
62
5
10
87.074166
20
117.346589
0
VERTEX
5
ad2
100
AcDbEntity
8
0
100
AcDbVertex
100
AcDb2dVertex
62
5
10
87.003597
20
117.233269
0
VERTEX
5
ad3
100
AcDbEntity
8
0
100
AcDbVertex
100
AcDb2dVertex
62
5
10
86.898791
20
117.100688
0
VERTEX
5
ad4
100
AcDbEntity
8
0
100
AcDbVertex
100
AcDb2dVertex
62
5
10
86.705736
20
116.973270
0
SEQEND
5
ad5
100
AcDbEntity
8
0
0
POLYLINE
5
ad6
100
AcDbEntity
8
0
6
CONTINUOUS
62
5
100
AcDb2dPolyline
66
1
10
0.0
20
0.0
30
0.0
70
0
0
VERTEX
5
ad7
100
AcDbEntity
8
0
100
AcDbVertex
100
AcDb2dVertex
62
5
10
86.465319
20
118.267218
0
VERTEX
5
ad8
100
AcDbEntity
8
0
100
AcDbVertex
100
AcDb2dVertex
62
5
10
87.856283
20
118.265841
0
VERTEX
5
ad9
100
AcDbEntity
8
0
100
AcDbVertex
100
AcDb2dVertex
62
5
10
87.894780
20
118.242347
0
VERTEX
5
ada
100
AcDbEntity
8
0
100
AcDbVertex
100
AcDb2dVertex
62
5
10
87.829872
20
118.085675
0
VERTEX
5
adb
100
AcDbEntity
8
0
100
AcDbVertex
100
AcDb2dVertex
62
5
10
87.778288
20
117.983232
0
VERTEX
5
adc
100
AcDbEntity
8
0
100
AcDbVertex
100
AcDb2dVertex
62
5
10
87.619852
20
117.814968
0
VERTEX
5
add
100
AcDbEntity
8
0
100
AcDbVertex
100
AcDb2dVertex
62
5
10
87.496732
20
117.741632
0
VERTEX
5
ade
100
AcDbEntity
8
0
100
AcDbVertex
100
AcDb2dVertex
62
5
10
87.353445
20
117.673261
0
SEQEND
5
adf
100
AcDbEntity
8
0
0
POLYLINE
5
ae0
100
AcDbEntity
8
0
6
CONTINUOUS
62
5
100
AcDb2dPolyline
66
1
10
0.0
20
0.0
30
0.0
70
0
0
VERTEX
5
ae1
100
AcDbEntity
8
0
100
AcDbVertex
100
AcDb2dVertex
62
5
10
88.195841
20
118.061967
0
VERTEX
5
ae2
100
AcDbEntity
8
0
100
AcDbVertex
100
AcDb2dVertex
62
5
10
89.488458
20
118.061967
0
VERTEX
5
ae3
100
AcDbEntity
8
0
100
AcDbVertex
100
AcDb2dVertex
62
5
10
89.477379
20
117.654075
0
VERTEX
5
ae4
100
AcDbEntity
8
0
100
AcDbVertex
100
AcDb2dVertex
62
5
10
89.439512
20
117.201386
0
VERTEX
5
ae5
100
AcDbEntity
8
0
100
AcDbVertex
100
AcDb2dVertex
62
5
10
89.423252
20
117.114188
0
VERTEX
5
ae6
100
AcDbEntity
8
0
100
AcDbVertex
100
AcDb2dVertex
62
5
10
89.391776
20
117.035181
0
VERTEX
5
ae7
100
AcDbEntity
8
0
100
AcDbVertex
100
AcDb2dVertex
62
5
10
89.303792
20
116.992377
0
VERTEX
5
ae8
100
AcDbEntity
8
0
100
AcDbVertex
100
AcDb2dVertex
62
5
10
89.119335
20
116.994977
0
VERTEX
5
ae9
100
AcDbEntity
8
0
100
AcDbVertex
100
AcDb2dVertex
62
5
10
88.997933
20
117.008437
0
SEQEND
5
aea
100
AcDbEntity
8
0
0
POLYLINE
5
aeb
100
AcDbEntity
8
0
6
CONTINUOUS
62
5
100
AcDb2dPolyline
66
1
10
0.0
20
0.0
30
0.0
70
0
0
VERTEX
5
aec
100
AcDbEntity
8
0
100
AcDbVertex
100
AcDb2dVertex
62
5
10
88.843015
20
118.491054
0
VERTEX
5
aed
100
AcDbEntity
8
0
100
AcDbVertex
100
AcDb2dVertex
62
5
10
88.831897
20
118.058387
0
VERTEX
5
aee
100
AcDbEntity
8
0
100
AcDbVertex
100
AcDb2dVertex
62
5
10
88.770024
20
117.666622
0
VERTEX
5
aef
100
AcDbEntity
8
0
100
AcDbVertex
100
AcDb2dVertex
62
5
10
88.647659
20
117.372139
0
VERTEX
5
af0
100
AcDbEntity
8
0
100
AcDbVertex
100
AcDb2dVertex
62
5
10
88.633569
20
117.333446
0
VERTEX
5
af1
100
AcDbEntity
8
0
100
AcDbVertex
100
AcDb2dVertex
62
5
10
88.506037
20
117.191850
0
VERTEX
5
af2
100
AcDbEntity
8
0
100
AcDbVertex
100
AcDb2dVertex
62
5
10
88.440756
20
117.127897
0
VERTEX
5
af3
100
AcDbEntity
8
0
100
AcDbVertex
100
AcDb2dVertex
62
5
10
88.229671
20
116.975677
0
SEQEND
5
af4
100
AcDbEntity
8
0
0
POLYLINE
5
af5
100
AcDbEntity
8
0
6
CONTINUOUS
62
5
100
AcDb2dPolyline
66
1
10
0.0
20
0.0
30
0.0
70
1
0
VERTEX
5
af6
100
AcDbEntity
8
0
100
AcDbVertex
100
AcDb2dVertex
62
5
10
84.546795
20
118.344237
0
VERTEX
5
af7
100
AcDbEntity
8
0
100
AcDbVertex
100
AcDb2dVertex
62
5
10
84.785544
20
118.320923
0
VERTEX
5
af8
100
AcDbEntity
8
0
100
AcDbVertex
100
AcDb2dVertex
62
5
10
84.998481
20
118.238272
0
VERTEX
5
af9
100
AcDbEntity
8
0
100
AcDbVertex
100
AcDb2dVertex
62
5
10
85.197332
20
118.024525
0
VERTEX
5
afa
100
AcDbEntity
8
0
100
AcDbVertex
100
AcDb2dVertex
62
5
10
85.251144
20
117.849034
0
VERTEX
5
afb
100
AcDbEntity
8
0
100
AcDbVertex
100
AcDb2dVertex
62
5
10
85.277273
20
117.670053
0
VERTEX
5
afc
100
AcDbEntity
8
0
100
AcDbVertex
100
AcDb2dVertex
62
5
10
85.278394
20
117.600291
0
VERTEX
5
afd
100
AcDbEntity
8
0
100
AcDbVertex
100
AcDb2dVertex
62
5
10
85.247048
20
117.445560
0
VERTEX
5
afe
100
AcDbEntity
8
0
100
AcDbVertex
100
AcDb2dVertex
62
5
10
85.183296
20
117.291289
0
VERTEX
5
aff
100
AcDbEntity
8
0
100
AcDbVertex
100
AcDb2dVertex
62
5
10
85.064717
20
117.159813
0
VERTEX
5
b00
100
AcDbEntity
8
0
100
AcDbVertex
100
AcDb2dVertex
62
5
10
84.889244
20
117.053049
0
VERTEX
5
b01
100
AcDbEntity
8
0
100
AcDbVertex
100
AcDb2dVertex
62
5
10
84.711191
20
116.993060
0
VERTEX
5
b02
100
AcDbEntity
8
0
100
AcDbVertex
100
AcDb2dVertex
62
5
10
84.190180
20
116.993060
0
VERTEX
5
b03
100
AcDbEntity
8
0
100
AcDbVertex
100
AcDb2dVertex
62
5
10
84.190180
20
118.344237
0
SEQEND
5
b04
100
AcDbEntity
8
0
0
POLYLINE
5
b05
100
AcDbEntity
8
0
6
CONTINUOUS
62
5
100
AcDb2dPolyline
66
1
10
0.0
20
0.0
30
0.0
70
0
0
VERTEX
5
b06
100
AcDbEntity
8
0
100
AcDbVertex
100
AcDb2dVertex
62
5
10
81.090565
20
118.479421
0
VERTEX
5
b07
100
AcDbEntity
8
0
100
AcDbVertex
100
AcDb2dVertex
62
5
10
80.630321
20
118.479421
0
VERTEX
5
b08
100
AcDbEntity
8
0
100
AcDbVertex
100
AcDb2dVertex
62
5
10
80.630321
20
116.870579
0
VERTEX
5
b09
100
AcDbEntity
8
0
100
AcDbVertex
100
AcDb2dVertex
62
5
10
81.090565
20
116.870579
0
SEQEND
5
b0a
100
AcDbEntity
8
0
0
LINE
5
b0b
100
AcDbEntity
8
0
100
AcDbLine
6
CONTINUOUS
62
5
10
82.893960
20
117.692115
11
83.697180
21
117.692115
0
POLYLINE
5
b0c
100
AcDbEntity
8
0
6
CONTINUOUS
62
5
100
AcDb2dPolyline
66
1
10
0.0
20
0.0
30
0.0
70
0
0
VERTEX
5
b0d
100
AcDbEntity
8
0
100
AcDbVertex
100
AcDb2dVertex
62
5
10
83.783825
20
118.344237
0
VERTEX
5
b0e
100
AcDbEntity
8
0
100
AcDbVertex
100
AcDb2dVertex
62
5
10
82.893960
20
118.344237
0
VERTEX
5
b0f
100
AcDbEntity
8
0
100
AcDbVertex
100
AcDb2dVertex
62
5
10
82.893960
20
116.993996
0
VERTEX
5
b10
100
AcDbEntity
8
0
100
AcDbVertex
100
AcDb2dVertex
62
5
10
83.808160
20
116.993996
0
SEQEND
5
b11
100
AcDbEntity
8
0
0
ARC
5
b12
100
AcDbEntity
8
0
100
AcDbCircle
6
CONTINUOUS
62
5
10
82.074981
20
118.000471
40
0.299103
100
AcDbArc
50
-73.496565
51
44.455606
0
POLYLINE
5
b13
100
AcDbEntity
8
0
6
CONTINUOUS
62
5
100
AcDb2dPolyline
66
1
10
0.0
20
0.0
30
0.0
70
0
0
VERTEX
5
b14
100
AcDbEntity
8
0
100
AcDbVertex
100
AcDb2dVertex
62
5
10
82.159948
20
117.713690
0
VERTEX
5
b15
100
AcDbEntity
8
0
100
AcDbVertex
100
AcDb2dVertex
62
5
10
82.035599
20
117.673964
0
VERTEX
5
b16
100
AcDbEntity
8
0
100
AcDbVertex
100
AcDb2dVertex
62
5
10
81.851662
20
117.637158
0
VERTEX
5
b17
100
AcDbEntity
8
0
100
AcDbVertex
100
AcDb2dVertex
62
5
10
81.493176
20
117.637158
0
SEQEND
5
b18
100
AcDbEntity
8
0
0
POLYLINE
5
b19
100
AcDbEntity
8
0
6
CONTINUOUS
62
5
100
AcDb2dPolyline
66
1
10
0.0
20
0.0
30
0.0
70
0
0
VERTEX
5
b1a
100
AcDbEntity
8
0
100
AcDbVertex
100
AcDb2dVertex
62
5
10
81.851662
20
117.637158
0
VERTEX
5
b1b
100
AcDbEntity
8
0
100
AcDbVertex
100
AcDb2dVertex
62
5
10
82.031441
20
117.544710
0
VERTEX
5
b1c
100
AcDbEntity
8
0
100
AcDbVertex
100
AcDb2dVertex
62
5
10
82.138685
20
117.482411
0
SEQEND
5
b1d
100
AcDbEntity
8
0
0
ARC
5
b1e
100
AcDbEntity
8
0
100
AcDbCircle
6
CONTINUOUS
62
5
10
80.665042
20
116.335108
40
1.867600
100
AcDbArc
50
18.192167
51
37.902502
0
POLYLINE
5
b1f
100
AcDbEntity
8
0
6
CONTINUOUS
62
5
100
AcDb2dPolyline
66
1
10
0.0
20
0.0
30
0.0
70
0
0
VERTEX
5
b20
100
AcDbEntity
8
0
100
AcDbVertex
100
AcDb2dVertex
62
5
10
81.493176
20
116.918182
0
VERTEX
5
b21
100
AcDbEntity
8
0
100
AcDbVertex
100
AcDb2dVertex
62
5
10
81.493176
20
118.341563
0
VERTEX
5
b22
100
AcDbEntity
8
0
100
AcDbVertex
100
AcDb2dVertex
62
5
10
81.896187
20
118.341563
0
VERTEX
5
b23
100
AcDbEntity
8
0
100
AcDbVertex
100
AcDb2dVertex
62
5
10
82.140751
20
118.306573
0
VERTEX
5
b24
100
AcDbEntity
8
0
100
AcDbVertex
100
AcDb2dVertex
62
5
10
82.237916
20
118.255070
0
VERTEX
5
b25
100
AcDbEntity
8
0
100
AcDbVertex
100
AcDb2dVertex
62
5
10
82.288479
20
118.209950
0
SEQEND
5
b26
100
AcDbEntity
8
0
0
LINE
5
b27
100
AcDbEntity
8
0
100
AcDbLine
6
CONTINUOUS
62
5
10
98.342302
20
118.421657
11
98.342302
21
117.550913
0
POLYLINE
5
b28
100
AcDbEntity
8
0
6
CONTINUOUS
62
5
100
AcDb2dPolyline
66
1
10
0.0
20
0.0
30
0.0
70
0
0
VERTEX
5
b29
100
AcDbEntity
8
0
100
AcDbVertex
100
AcDb2dVertex
62
5
10
98.803614
20
118.458562
0
VERTEX
5
b2a
100
AcDbEntity
8
0
100
AcDbVertex
100
AcDb2dVertex
62
5
10
98.803614
20
117.783976
0
VERTEX
5
b2b
100
AcDbEntity
8
0
100
AcDbVertex
100
AcDb2dVertex
62
5
10
98.795555
20
117.544705
0
VERTEX
5
b2c
100
AcDbEntity
8
0
100
AcDbVertex
100
AcDb2dVertex
62
5
10
98.759755
20
117.314510
0
VERTEX
5
b2d
100
AcDbEntity
8
0
100
AcDbVertex
100
AcDb2dVertex
62
5
10
98.645104
20
117.100793
0
VERTEX
5
b2e
100
AcDbEntity
8
0
100
AcDbVertex
100
AcDb2dVertex
62
5
10
98.464650
20
116.939575
0
SEQEND
5
b2f
100
AcDbEntity
8
0
0
LINE
5
b30
100
AcDbEntity
8
0
100
AcDbLine
6
CONTINUOUS
62
5
10
97.997989
20
118.507638
11
97.304818
21
116.834877
0
LINE
5
b31
100
AcDbEntity
8
0
100
AcDbLine
6
CONTINUOUS
62
5
10
91.743264
20
118.316824
11
92.430021
21
118.316824
0
LINE
5
b32
100
AcDbEntity
8
0
100
AcDbLine
6
CONTINUOUS
62
5
10
91.704487
20
117.752020
11
92.507574
21
117.752020
0
POLYLINE
5
b33
100
AcDbEntity
8
0
6
CONTINUOUS
62
5
100
AcDb2dPolyline
66
1
10
0.0
20
0.0
30
0.0
70
0
0
VERTEX
5
b34
100
AcDbEntity
8
0
100
AcDbVertex
100
AcDb2dVertex
62
5
10
92.021657
20
118.316824
0
VERTEX
5
b35
100
AcDbEntity
8
0
100
AcDbVertex
100
AcDb2dVertex
62
5
10
92.021657
20
117.137364
0
VERTEX
5
b36
100
AcDbEntity
8
0
100
AcDbVertex
100
AcDb2dVertex
62
5
10
92.032627
20
117.064902
0
VERTEX
5
b37
100
AcDbEntity
8
0
100
AcDbVertex
100
AcDb2dVertex
62
5
10
92.074575
20
117.033575
0
VERTEX
5
b38
100
AcDbEntity
8
0
100
AcDbVertex
100
AcDb2dVertex
62
5
10
92.097129
20
117.029645
0
VERTEX
5
b39
100
AcDbEntity
8
0
100
AcDbVertex
100
AcDb2dVertex
62
5
10
92.190524
20
117.023566
0
VERTEX
5
b3a
100
AcDbEntity
8
0
100
AcDbVertex
100
AcDb2dVertex
62
5
10
92.361403
20
117.024437
0
VERTEX
5
b3b
100
AcDbEntity
8
0
100
AcDbVertex
100
AcDb2dVertex
62
5
10
92.458100
20
117.033575
0
SEQEND
5
b3c
100
AcDbEntity
8
0
0
POLYLINE
5
b3d
100
AcDbEntity
8
0
6
CONTINUOUS
62
5
100
AcDb2dPolyline
66
1
10
0.0
20
0.0
30
0.0
70
0
0
VERTEX
5
b3e
100
AcDbEntity
8
0
100
AcDbVertex
100
AcDb2dVertex
62
5
10
92.704144
20
118.215070
0
VERTEX
5
b3f
100
AcDbEntity
8
0
100
AcDbVertex
100
AcDb2dVertex
62
5
10
93.298503
20
118.215070
0
VERTEX
5
b40
100
AcDbEntity
8
0
100
AcDbVertex
100
AcDb2dVertex
62
5
10
93.298503
20
117.085457
0
VERTEX
5
b41
100
AcDbEntity
8
0
100
AcDbVertex
100
AcDb2dVertex
62
5
10
92.689704
20
117.085457
0
SEQEND
5
b42
100
AcDbEntity
8
0
0
POLYLINE
5
b43
100
AcDbEntity
8
0
6
CONTINUOUS
62
5
100
AcDb2dPolyline
66
1
10
0.0
20
0.0
30
0.0
70
0
0
VERTEX
5
b44
100
AcDbEntity
8
0
100
AcDbVertex
100
AcDb2dVertex
62
5
10
93.600145
20
118.276844
0
VERTEX
5
b45
100
AcDbEntity
8
0
100
AcDbVertex
100
AcDb2dVertex
62
5
10
93.779819
20
118.200994
0
VERTEX
5
b46
100
AcDbEntity
8
0
100
AcDbVertex
100
AcDb2dVertex
62
5
10
93.950476
20
118.107163
0
SEQEND
5
b47
100
AcDbEntity
8
0
0
POLYLINE
5
b48
100
AcDbEntity
8
0
6
CONTINUOUS
62
5
100
AcDb2dPolyline
66
1
10
0.0
20
0.0
30
0.0
70
0
0
VERTEX
5
b49
100
AcDbEntity
8
0
100
AcDbVertex
100
AcDb2dVertex
62
5
10
94.295188
20
118.056217
0
VERTEX
5
b4a
100
AcDbEntity
8
0
100
AcDbVertex
100
AcDb2dVertex
62
5
10
94.258261
20
117.768408
0
VERTEX
5
b4b
100
AcDbEntity
8
0
100
AcDbVertex
100
AcDb2dVertex
62
5
10
94.186168
20
117.539713
0
VERTEX
5
b4c
100
AcDbEntity
8
0
100
AcDbVertex
100
AcDb2dVertex
62
5
10
94.089993
20
117.337184
0
VERTEX
5
b4d
100
AcDbEntity
8
0
100
AcDbVertex
100
AcDb2dVertex
62
5
10
93.975170
20
117.203700
0
VERTEX
5
b4e
100
AcDbEntity
8
0
100
AcDbVertex
100
AcDb2dVertex
62
5
10
93.788606
20
117.080541
0
VERTEX
5
b4f
100
AcDbEntity
8
0
100
AcDbVertex
100
AcDb2dVertex
62
5
10
93.611510
20
117.019669
0
SEQEND
5
b50
100
AcDbEntity
8
0
0
LINE
5
b51
100
AcDbEntity
8
0
100
AcDbLine
6
CONTINUOUS
62
5
10
94.657499
20
118.421656
11
94.657499
21
117.550912
0
POLYLINE
5
b52
100
AcDbEntity
8
0
6
CONTINUOUS
62
5
100
AcDb2dPolyline
66
1
10
0.0
20
0.0
30
0.0
70
0
0
VERTEX
5
b53
100
AcDbEntity
8
0
100
AcDbVertex
100
AcDb2dVertex
62
5
10
95.118811
20
118.458560
0
VERTEX
5
b54
100
AcDbEntity
8
0
100
AcDbVertex
100
AcDb2dVertex
62
5
10
95.118811
20
117.783974
0
VERTEX
5
b55
100
AcDbEntity
8
0
100
AcDbVertex
100
AcDb2dVertex
62
5
10
95.110752
20
117.544703
0
VERTEX
5
b56
100
AcDbEntity
8
0
100
AcDbVertex
100
AcDb2dVertex
62
5
10
95.074951
20
117.314508
0
VERTEX
5
b57
100
AcDbEntity
8
0
100
AcDbVertex
100
AcDb2dVertex
62
5
10
94.960301
20
117.100791
0
VERTEX
5
b58
100
AcDbEntity
8
0
100
AcDbVertex
100
AcDb2dVertex
62
5
10
94.779847
20
116.939574
0
SEQEND
5
b59
100
AcDbEntity
8
0
0
POLYLINE
5
b5a
100
AcDbEntity
8
0
6
CONTINUOUS
62
5
100
AcDb2dPolyline
66
1
10
0.0
20
0.0
30
0.0
70
0
0
VERTEX
5
b5b
100
AcDbEntity
8
0
100
AcDbVertex
100
AcDb2dVertex
62
5
10
89.923689
20
118.479421
0
VERTEX
5
b5c
100
AcDbEntity
8
0
100
AcDbVertex
100
AcDb2dVertex
62
5
10
90.383931
20
118.479421
0
VERTEX
5
b5d
100
AcDbEntity
8
0
100
AcDbVertex
100
AcDb2dVertex
62
5
10
90.383931
20
116.870579
0
VERTEX
5
b5e
100
AcDbEntity
8
0
100
AcDbVertex
100
AcDb2dVertex
62
5
10
89.923689
20
116.870579
0
SEQEND
5
b5f
100
AcDbEntity
8
0
0
POLYLINE
5
b60
100
AcDbEntity
8
0
6
CONTINUOUS
62
5
100
AcDb2dPolyline
66
1
10
0.0
20
0.0
30
0.0
70
0
0
VERTEX
5
b61
100
AcDbEntity
8
0
100
AcDbVertex
100
AcDb2dVertex
62
5
10
95.553837
20
118.424332
0
VERTEX
5
b62
100
AcDbEntity
8
0
100
AcDbVertex
100
AcDb2dVertex
62
5
10
95.553837
20
117.109530
0
VERTEX
5
b63
100
AcDbEntity
8
0
100
AcDbVertex
100
AcDb2dVertex
62
5
10
95.553837
20
117.061120
0
VERTEX
5
b64
100
AcDbEntity
8
0
100
AcDbVertex
100
AcDb2dVertex
62
5
10
95.602193
20
117.016572
0
VERTEX
5
b65
100
AcDbEntity
8
0
100
AcDbVertex
100
AcDb2dVertex
62
5
10
95.674639
20
117.066479
0
VERTEX
5
b66
100
AcDbEntity
8
0
100
AcDbVertex
100
AcDb2dVertex
62
5
10
95.838644
20
117.228929
0
VERTEX
5
b67
100
AcDbEntity
8
0
100
AcDbVertex
100
AcDb2dVertex
62
5
10
95.973531
20
117.403328
0
VERTEX
5
b68
100
AcDbEntity
8
0
100
AcDbVertex
100
AcDb2dVertex
62
5
10
96.074897
20
117.572004
0
VERTEX
5
b69
100
AcDbEntity
8
0
100
AcDbVertex
100
AcDb2dVertex
62
5
10
96.154077
20
117.724475
0
SEQEND
5
b6a
100
AcDbEntity
8
0
0
LINE
5
b6b
100
AcDbEntity
8
0
100
AcDbLine
6
CONTINUOUS
62
5
10
99.137095
20
118.316826
11
99.823852
21
118.316826
0
LINE
5
b6c
100
AcDbEntity
8
0
100
AcDbLine
6
CONTINUOUS
62
5
10
99.098319
20
117.752021
11
99.901405
21
117.752021
0
POLYLINE
5
b6d
100
AcDbEntity
8
0
6
CONTINUOUS
62
5
100
AcDb2dPolyline
66
1
10
0.0
20
0.0
30
0.0
70
0
0
VERTEX
5
b6e
100
AcDbEntity
8
0
100
AcDbVertex
100
AcDb2dVertex
62
5
10
99.415488
20
118.316826
0
VERTEX
5
b6f
100
AcDbEntity
8
0
100
AcDbVertex
100
AcDb2dVertex
62
5
10
99.415488
20
117.137366
0
VERTEX
5
b70
100
AcDbEntity
8
0
100
AcDbVertex
100
AcDb2dVertex
62
5
10
99.426458
20
117.064904
0
VERTEX
5
b71
100
AcDbEntity
8
0
100
AcDbVertex
100
AcDb2dVertex
62
5
10
99.468406
20
117.033576
0
VERTEX
5
b72
100
AcDbEntity
8
0
100
AcDbVertex
100
AcDb2dVertex
62
5
10
99.490960
20
117.029646
0
VERTEX
5
b73
100
AcDbEntity
8
0
100
AcDbVertex
100
AcDb2dVertex
62
5
10
99.584356
20
117.023567
0
VERTEX
5
b74
100
AcDbEntity
8
0
100
AcDbVertex
100
AcDb2dVertex
62
5
10
99.755234
20
117.024438
0
VERTEX
5
b75
100
AcDbEntity
8
0
100
AcDbVertex
100
AcDb2dVertex
62
5
10
99.851932
20
117.033576
0
SEQEND
5
b76
100
AcDbEntity
8
0
0
POLYLINE
5
b77
100
AcDbEntity
8
0
6
CONTINUOUS
62
5
100
AcDb2dPolyline
66
1
10
0.0
20
0.0
30
0.0
70
0
0
VERTEX
5
b78
100
AcDbEntity
8
0
100
AcDbVertex
100
AcDb2dVertex
62
5
10
100.085659
20
118.215071
0
VERTEX
5
b79
100
AcDbEntity
8
0
100
AcDbVertex
100
AcDb2dVertex
62
5
10
100.680018
20
118.215071
0
VERTEX
5
b7a
100
AcDbEntity
8
0
100
AcDbVertex
100
AcDb2dVertex
62
5
10
100.680018
20
117.085458
0
VERTEX
5
b7b
100
AcDbEntity
8
0
100
AcDbVertex
100
AcDb2dVertex
62
5
10
100.071219
20
117.085458
0
SEQEND
5
b7c
100
AcDbEntity
8
0
0
POLYLINE
5
b7d
100
AcDbEntity
8
1
6
CONTINUOUS
62
5
100
AcDb2dPolyline
66
1
10
0.0
20
0.0
30
0.0
70
1
0
VERTEX
5
b7e
100
AcDbEntity
8
1
100
AcDbVertex
100
AcDb2dVertex
62
5
10
120.200000
20
118.000000
0
VERTEX
5
b7f
100
AcDbEntity
8
1
100
AcDbVertex
100
AcDb2dVertex
62
5
10
119.200000
20
119.000000
0
VERTEX
5
b80
100
AcDbEntity
8
1
100
AcDbVertex
100
AcDb2dVertex
62
5
10
79.600000
20
119.000000
0
VERTEX
5
b81
100
AcDbEntity
8
1
100
AcDbVertex
100
AcDb2dVertex
62
5
10
79.600000
20
113.700000
0
VERTEX
5
b82
100
AcDbEntity
8
1
100
AcDbVertex
100
AcDb2dVertex
62
5
10
120.200000
20
113.700000
0
SEQEND
5
b83
100
AcDbEntity
8
1
0
ARC
5
b84
100
AcDbEntity
8
0
100
AcDbCircle
6
CONTINUOUS
62
5
10
99.560000
20
105.735955
40
0.200000
100
AcDbArc
50
179.999998
51
-89.999999
0
LINE
5
b85
100
AcDbEntity
8
0
100
AcDbLine
6
CONTINUOUS
62
5
10
99.560000
20
105.535955
11
100.360000
21
105.535955
0
ARC
5
b86
100
AcDbEntity
8
0
100
AcDbCircle
6
CONTINUOUS
62
5
10
100.360000
20
105.735955
40
0.200000
100
AcDbArc
50
-89.999999
51
0.000000
0
POLYLINE
5
b87
100
AcDbEntity
8
0
6
CONTINUOUS
62
5
100
AcDb2dPolyline
66
1
10
0.0
20
0.0
30
0.0
70
0
0
VERTEX
5
b88
100
AcDbEntity
8
0
100
AcDbVertex
100
AcDb2dVertex
62
5
10
100.560000
20
105.735955
0
VERTEX
5
b89
100
AcDbEntity
8
0
100
AcDbVertex
100
AcDb2dVertex
62
5
10
100.560000
20
106.300000
0
VERTEX
5
b8a
100
AcDbEntity
8
0
100
AcDbVertex
100
AcDb2dVertex
62
5
10
100.418579
20
106.441421
0
VERTEX
5
b8b
100
AcDbEntity
8
0
100
AcDbVertex
100
AcDb2dVertex
62
5
10
100.560000
20
106.300000
0
VERTEX
5
b8c
100
AcDbEntity
8
0
100
AcDbVertex
100
AcDb2dVertex
62
5
10
104.440000
20
106.300000
0
VERTEX
5
b8d
100
AcDbEntity
8
0
100
AcDbVertex
100
AcDb2dVertex
62
5
10
104.581421
20
106.441421
0
VERTEX
5
b8e
100
AcDbEntity
8
0
100
AcDbVertex
100
AcDb2dVertex
62
5
10
104.440000
20
106.300000
0
VERTEX
5
b8f
100
AcDbEntity
8
0
100
AcDbVertex
100
AcDb2dVertex
62
5
10
104.440000
20
105.735955
0
SEQEND
5
b90
100
AcDbEntity
8
0
0
ARC
5
b91
100
AcDbEntity
8
0
100
AcDbCircle
6
CONTINUOUS
62
5
10
104.640000
20
105.735955
40
0.200000
100
AcDbArc
50
179.999998
51
-89.999999
0
LINE
5
b92
100
AcDbEntity
8
0
100
AcDbLine
6
CONTINUOUS
62
5
10
104.640000
20
105.535955
11
105.440000
21
105.535955
0
ARC
5
b93
100
AcDbEntity
8
0
100
AcDbCircle
6
CONTINUOUS
62
5
10
105.440000
20
105.735955
40
0.200000
100
AcDbArc
50
-89.999999
51
0.000000
0
POLYLINE
5
b94
100
AcDbEntity
8
0
6
CONTINUOUS
62
5
100
AcDb2dPolyline
66
1
10
0.0
20
0.0
30
0.0
70
0
0
VERTEX
5
b95
100
AcDbEntity
8
0
100
AcDbVertex
100
AcDb2dVertex
62
5
10
105.640000
20
105.735955
0
VERTEX
5
b96
100
AcDbEntity
8
0
100
AcDbVertex
100
AcDb2dVertex
62
5
10
105.640000
20
106.300000
0
VERTEX
5
b97
100
AcDbEntity
8
0
100
AcDbVertex
100
AcDb2dVertex
62
5
10
105.498579
20
106.441421
0
VERTEX
5
b98
100
AcDbEntity
8
0
100
AcDbVertex
100
AcDb2dVertex
62
5
10
105.640000
20
106.300000
0
VERTEX
5
b99
100
AcDbEntity
8
0
100
AcDbVertex
100
AcDb2dVertex
62
5
10
109.520000
20
106.300000
0
SEQEND
5
b9a
100
AcDbEntity
8
0
0
POLYLINE
5
b9b
100
AcDbEntity
8
0
6
CONTINUOUS
62
5
100
AcDb2dPolyline
66
1
10
0.0
20
0.0
30
0.0
70
0
0
VERTEX
5
b9c
100
AcDbEntity
8
0
100
AcDbVertex
100
AcDb2dVertex
62
5
10
109.661421
20
106.441421
0
VERTEX
5
b9d
100
AcDbEntity
8
0
100
AcDbVertex
100
AcDb2dVertex
62
5
10
109.520000
20
106.300000
0
VERTEX
5
b9e
100
AcDbEntity
8
0
100
AcDbVertex
100
AcDb2dVertex
62
5
10
109.520000
20
105.735955
0
SEQEND
5
b9f
100
AcDbEntity
8
0
0
ARC
5
ba0
100
AcDbEntity
8
0
100
AcDbCircle
6
CONTINUOUS
62
5
10
109.720000
20
105.735955
40
0.200000
100
AcDbArc
50
179.999998
51
-89.999999
0
LINE
5
ba1
100
AcDbEntity
8
0
100
AcDbLine
6
CONTINUOUS
62
5
10
109.720000
20
105.535955
11
110.520000
21
105.535955
0
ARC
5
ba2
100
AcDbEntity
8
0
100
AcDbCircle
6
CONTINUOUS
62
5
10
110.520000
20
105.735955
40
0.200000
100
AcDbArc
50
-89.999999
51
0.000000
0
LINE
5
ba3
100
AcDbEntity
8
0
100
AcDbLine
6
CONTINUOUS
62
5
10
110.720000
20
105.735955
11
110.720000
21
106.300000
0
POLYLINE
5
ba4
100
AcDbEntity
8
0
6
CONTINUOUS
62
5
100
AcDb2dPolyline
66
1
10
0.0
20
0.0
30
0.0
70
0
0
VERTEX
5
ba5
100
AcDbEntity
8
0
100
AcDbVertex
100
AcDb2dVertex
62
5
10
110.578579
20
106.441421
0
VERTEX
5
ba6
100
AcDbEntity
8
0
100
AcDbVertex
100
AcDb2dVertex
62
5
10
110.720000
20
106.300000
0
VERTEX
5
ba7
100
AcDbEntity
8
0
100
AcDbVertex
100
AcDb2dVertex
62
5
10
114.600000
20
106.300000
0
VERTEX
5
ba8
100
AcDbEntity
8
0
100
AcDbVertex
100
AcDb2dVertex
62
5
10
114.741421
20
106.441421
0
VERTEX
5
ba9
100
AcDbEntity
8
0
100
AcDbVertex
100
AcDb2dVertex
62
5
10
114.600000
20
106.300000
0
VERTEX
5
baa
100
AcDbEntity
8
0
100
AcDbVertex
100
AcDb2dVertex
62
5
10
114.600000
20
105.735955
0
SEQEND
5
bab
100
AcDbEntity
8
0
0
ARC
5
bac
100
AcDbEntity
8
0
100
AcDbCircle
6
CONTINUOUS
62
5
10
114.800000
20
105.735955
40
0.200000
100
AcDbArc
50
179.999998
51
-89.999999
0
LINE
5
bad
100
AcDbEntity
8
0
100
AcDbLine
6
CONTINUOUS
62
5
10
114.800000
20
105.535955
11
115.600000
21
105.535955
0
ARC
5
bae
100
AcDbEntity
8
0
100
AcDbCircle
6
CONTINUOUS
62
5
10
115.600000
20
105.735955
40
0.200000
100
AcDbArc
50
-89.999999
51
0.000000
0
POLYLINE
5
baf
100
AcDbEntity
8
0
6
CONTINUOUS
62
5
100
AcDb2dPolyline
66
1
10
0.0
20
0.0
30
0.0
70
0
0
VERTEX
5
bb0
100
AcDbEntity
8
0
100
AcDbVertex
100
AcDb2dVertex
62
5
10
115.800000
20
105.735955
0
VERTEX
5
bb1
100
AcDbEntity
8
0
100
AcDbVertex
100
AcDb2dVertex
62
5
10
115.800000
20
106.300000
0
VERTEX
5
bb2
100
AcDbEntity
8
0
100
AcDbVertex
100
AcDb2dVertex
62
5
10
115.658579
20
106.441421
0
VERTEX
5
bb3
100
AcDbEntity
8
0
100
AcDbVertex
100
AcDb2dVertex
62
5
10
115.800000
20
106.300000
0
VERTEX
5
bb4
100
AcDbEntity
8
0
100
AcDbVertex
100
AcDb2dVertex
62
5
10
119.680000
20
106.300000
0
SEQEND
5
bb5
100
AcDbEntity
8
0
0
POLYLINE
5
bb6
100
AcDbEntity
8
0
6
CONTINUOUS
62
5
100
AcDb2dPolyline
66
1
10
0.0
20
0.0
30
0.0
70
0
0
VERTEX
5
bb7
100
AcDbEntity
8
0
100
AcDbVertex
100
AcDb2dVertex
62
5
10
119.821421
20
106.441421
0
VERTEX
5
bb8
100
AcDbEntity
8
0
100
AcDbVertex
100
AcDb2dVertex
62
5
10
119.680000
20
106.300000
0
VERTEX
5
bb9
100
AcDbEntity
8
0
100
AcDbVertex
100
AcDb2dVertex
62
5
10
119.680000
20
105.735955
0
SEQEND
5
bba
100
AcDbEntity
8
0
0
ARC
5
bbb
100
AcDbEntity
8
0
100
AcDbCircle
6
CONTINUOUS
62
5
10
119.880000
20
105.735955
40
0.200000
100
AcDbArc
50
179.999998
51
-89.999999
0
LINE
5
bbc
100
AcDbEntity
8
0
100
AcDbLine
6
CONTINUOUS
62
5
10
119.880000
20
105.535955
11
120.680000
21
105.535955
0
ARC
5
bbd
100
AcDbEntity
8
0
100
AcDbCircle
6
CONTINUOUS
62
5
10
120.680000
20
105.735955
40
0.200000
100
AcDbArc
50
-89.999999
51
0.000000
0
POLYLINE
5
bbe
100
AcDbEntity
8
0
6
CONTINUOUS
62
5
100
AcDb2dPolyline
66
1
10
0.0
20
0.0
30
0.0
70
0
0
VERTEX
5
bbf
100
AcDbEntity
8
0
100
AcDbVertex
100
AcDb2dVertex
62
5
10
120.880000
20
105.735955
0
VERTEX
5
bc0
100
AcDbEntity
8
0
100
AcDbVertex
100
AcDb2dVertex
62
5
10
120.880000
20
106.300000
0
VERTEX
5
bc1
100
AcDbEntity
8
0
100
AcDbVertex
100
AcDb2dVertex
62
5
10
120.738579
20
106.441421
0
VERTEX
5
bc2
100
AcDbEntity
8
0
100
AcDbVertex
100
AcDb2dVertex
62
5
10
120.880000
20
106.300000
0
VERTEX
5
bc3
100
AcDbEntity
8
0
100
AcDbVertex
100
AcDb2dVertex
62
5
10
124.760000
20
106.300000
0
VERTEX
5
bc4
100
AcDbEntity
8
0
100
AcDbVertex
100
AcDb2dVertex
62
5
10
124.901421
20
106.441421
0
VERTEX
5
bc5
100
AcDbEntity
8
0
100
AcDbVertex
100
AcDb2dVertex
62
5
10
124.760000
20
106.300000
0
VERTEX
5
bc6
100
AcDbEntity
8
0
100
AcDbVertex
100
AcDb2dVertex
62
5
10
124.760000
20
105.735955
0
SEQEND
5
bc7
100
AcDbEntity
8
0
0
ARC
5
bc8
100
AcDbEntity
8
0
100
AcDbCircle
6
CONTINUOUS
62
5
10
124.960000
20
105.735955
40
0.200000
100
AcDbArc
50
179.999998
51
-89.999999
0
LINE
5
bc9
100
AcDbEntity
8
0
100
AcDbLine
6
CONTINUOUS
62
5
10
124.960000
20
105.535955
11
126.800000
21
105.535955
0
ARC
5
bca
100
AcDbEntity
8
0
100
AcDbCircle
6
CONTINUOUS
62
5
10
126.800000
20
106.035955
40
0.500000
100
AcDbArc
50
-89.999999
51
0.000000
0
POLYLINE
5
bcb
100
AcDbEntity
8
0
6
CONTINUOUS
62
5
100
AcDb2dPolyline
66
1
10
0.0
20
0.0
30
0.0
70
0
0
VERTEX
5
bcc
100
AcDbEntity
8
0
100
AcDbVertex
100
AcDb2dVertex
62
5
10
127.300000
20
106.035955
0
VERTEX
5
bcd
100
AcDbEntity
8
0
100
AcDbVertex
100
AcDb2dVertex
62
5
10
127.300000
20
106.300000
0
VERTEX
5
bce
100
AcDbEntity
8
0
100
AcDbVertex
100
AcDb2dVertex
62
5
10
127.300000
20
119.400000
0
SEQEND
5
bcf
100
AcDbEntity
8
0
0
ARC
5
bd0
100
AcDbEntity
8
0
100
AcDbCircle
6
CONTINUOUS
62
5
10
126.800000
20
119.400000
40
0.500000
100
AcDbArc
50
0.000000
51
89.999999
0
LINE
5
bd1
100
AcDbEntity
8
0
100
AcDbLine
6
CONTINUOUS
62
5
10
126.800000
20
119.900000
11
78.200000
21
119.900000
0
ARC
5
bd2
100
AcDbEntity
8
0
100
AcDbCircle
6
CONTINUOUS
62
5
10
78.200000
20
119.400000
40
0.500000
100
AcDbArc
50
89.999999
51
179.999998
0
LINE
5
bd3
100
AcDbEntity
8
0
100
AcDbLine
6
CONTINUOUS
62
5
10
77.700000
20
119.400000
11
77.700000
21
106.035955
0
ARC
5
bd4
100
AcDbEntity
8
0
100
AcDbCircle
6
CONTINUOUS
62
5
10
78.200000
20
106.035955
40
0.500000
100
AcDbArc
50
179.999998
51
-89.999999
0
LINE
5
bd5
100
AcDbEntity
8
0
100
AcDbLine
6
CONTINUOUS
62
5
10
78.200000
20
105.535955
11
80.040000
21
105.535955
0
ARC
5
bd6
100
AcDbEntity
8
0
100
AcDbCircle
6
CONTINUOUS
62
5
10
80.040000
20
105.735955
40
0.200000
100
AcDbArc
50
-89.999999
51
0.000000
0
POLYLINE
5
bd7
100
AcDbEntity
8
0
6
CONTINUOUS
62
5
100
AcDb2dPolyline
66
1
10
0.0
20
0.0
30
0.0
70
0
0
VERTEX
5
bd8
100
AcDbEntity
8
0
100
AcDbVertex
100
AcDb2dVertex
62
5
10
80.240000
20
105.735955
0
VERTEX
5
bd9
100
AcDbEntity
8
0
100
AcDbVertex
100
AcDb2dVertex
62
5
10
80.240000
20
106.300000
0
VERTEX
5
bda
100
AcDbEntity
8
0
100
AcDbVertex
100
AcDb2dVertex
62
5
10
80.098579
20
106.441421
0
VERTEX
5
bdb
100
AcDbEntity
8
0
100
AcDbVertex
100
AcDb2dVertex
62
5
10
80.240000
20
106.300000
0
VERTEX
5
bdc
100
AcDbEntity
8
0
100
AcDbVertex
100
AcDb2dVertex
62
5
10
84.120000
20
106.300000
0
VERTEX
5
bdd
100
AcDbEntity
8
0
100
AcDbVertex
100
AcDb2dVertex
62
5
10
84.261421
20
106.441421
0
VERTEX
5
bde
100
AcDbEntity
8
0
100
AcDbVertex
100
AcDb2dVertex
62
5
10
84.120000
20
106.300000
0
VERTEX
5
bdf
100
AcDbEntity
8
0
100
AcDbVertex
100
AcDb2dVertex
62
5
10
84.120000
20
105.735955
0
SEQEND
5
be0
100
AcDbEntity
8
0
0
ARC
5
be1
100
AcDbEntity
8
0
100
AcDbCircle
6
CONTINUOUS
62
5
10
84.320000
20
105.735955
40
0.200000
100
AcDbArc
50
179.999998
51
-89.999999
0
LINE
5
be2
100
AcDbEntity
8
0
100
AcDbLine
6
CONTINUOUS
62
5
10
84.320000
20
105.535955
11
85.120000
21
105.535955
0
ARC
5
be3
100
AcDbEntity
8
0
100
AcDbCircle
6
CONTINUOUS
62
5
10
85.120000
20
105.735955
40
0.200000
100
AcDbArc
50
-89.999999
51
0.000000
0
POLYLINE
5
be4
100
AcDbEntity
8
0
6
CONTINUOUS
62
5
100
AcDb2dPolyline
66
1
10
0.0
20
0.0
30
0.0
70
0
0
VERTEX
5
be5
100
AcDbEntity
8
0
100
AcDbVertex
100
AcDb2dVertex
62
5
10
85.320000
20
105.735955
0
VERTEX
5
be6
100
AcDbEntity
8
0
100
AcDbVertex
100
AcDb2dVertex
62
5
10
85.320000
20
106.300000
0
VERTEX
5
be7
100
AcDbEntity
8
0
100
AcDbVertex
100
AcDb2dVertex
62
5
10
85.178579
20
106.441421
0
VERTEX
5
be8
100
AcDbEntity
8
0
100
AcDbVertex
100
AcDb2dVertex
62
5
10
85.320000
20
106.300000
0
VERTEX
5
be9
100
AcDbEntity
8
0
100
AcDbVertex
100
AcDb2dVertex
62
5
10
89.200000
20
106.300000
0
VERTEX
5
bea
100
AcDbEntity
8
0
100
AcDbVertex
100
AcDb2dVertex
62
5
10
89.341421
20
106.441421
0
VERTEX
5
beb
100
AcDbEntity
8
0
100
AcDbVertex
100
AcDb2dVertex
62
5
10
89.200000
20
106.300000
0
VERTEX
5
bec
100
AcDbEntity
8
0
100
AcDbVertex
100
AcDb2dVertex
62
5
10
89.200000
20
105.735955
0
SEQEND
5
bed
100
AcDbEntity
8
0
0
ARC
5
bee
100
AcDbEntity
8
0
100
AcDbCircle
6
CONTINUOUS
62
5
10
89.400000
20
105.735955
40
0.200000
100
AcDbArc
50
179.999998
51
-89.999999
0
LINE
5
bef
100
AcDbEntity
8
0
100
AcDbLine
6
CONTINUOUS
62
5
10
89.400000
20
105.535955
11
90.200000
21
105.535955
0
ARC
5
bf0
100
AcDbEntity
8
0
100
AcDbCircle
6
CONTINUOUS
62
5
10
90.200000
20
105.735955
40
0.200000
100
AcDbArc
50
-89.999999
51
0.000000
0
POLYLINE
5
bf1
100
AcDbEntity
8
0
6
CONTINUOUS
62
5
100
AcDb2dPolyline
66
1
10
0.0
20
0.0
30
0.0
70
0
0
VERTEX
5
bf2
100
AcDbEntity
8
0
100
AcDbVertex
100
AcDb2dVertex
62
5
10
90.400000
20
105.735955
0
VERTEX
5
bf3
100
AcDbEntity
8
0
100
AcDbVertex
100
AcDb2dVertex
62
5
10
90.400000
20
106.300000
0
VERTEX
5
bf4
100
AcDbEntity
8
0
100
AcDbVertex
100
AcDb2dVertex
62
5
10
90.258579
20
106.441421
0
VERTEX
5
bf5
100
AcDbEntity
8
0
100
AcDbVertex
100
AcDb2dVertex
62
5
10
90.400000
20
106.300000
0
VERTEX
5
bf6
100
AcDbEntity
8
0
100
AcDbVertex
100
AcDb2dVertex
62
5
10
94.280000
20
106.300000
0
VERTEX
5
bf7
100
AcDbEntity
8
0
100
AcDbVertex
100
AcDb2dVertex
62
5
10
94.421421
20
106.441421
0
VERTEX
5
bf8
100
AcDbEntity
8
0
100
AcDbVertex
100
AcDb2dVertex
62
5
10
94.280000
20
106.300000
0
VERTEX
5
bf9
100
AcDbEntity
8
0
100
AcDbVertex
100
AcDb2dVertex
62
5
10
94.280000
20
105.735955
0
SEQEND
5
bfa
100
AcDbEntity
8
0
0
ARC
5
bfb
100
AcDbEntity
8
0
100
AcDbCircle
6
CONTINUOUS
62
5
10
94.480000
20
105.735955
40
0.200000
100
AcDbArc
50
179.999998
51
-89.999999
0
LINE
5
bfc
100
AcDbEntity
8
0
100
AcDbLine
6
CONTINUOUS
62
5
10
94.480000
20
105.535955
11
95.280000
21
105.535955
0
ARC
5
bfd
100
AcDbEntity
8
0
100
AcDbCircle
6
CONTINUOUS
62
5
10
95.280000
20
105.735955
40
0.200000
100
AcDbArc
50
-89.999999
51
0.000000
0
POLYLINE
5
bfe
100
AcDbEntity
8
0
6
CONTINUOUS
62
5
100
AcDb2dPolyline
66
1
10
0.0
20
0.0
30
0.0
70
0
0
VERTEX
5
bff
100
AcDbEntity
8
0
100
AcDbVertex
100
AcDb2dVertex
62
5
10
95.480000
20
105.735955
0
VERTEX
5
c00
100
AcDbEntity
8
0
100
AcDbVertex
100
AcDb2dVertex
62
5
10
95.480000
20
106.300000
0
VERTEX
5
c01
100
AcDbEntity
8
0
100
AcDbVertex
100
AcDb2dVertex
62
5
10
95.338579
20
106.441421
0
VERTEX
5
c02
100
AcDbEntity
8
0
100
AcDbVertex
100
AcDb2dVertex
62
5
10
95.480000
20
106.300000
0
VERTEX
5
c03
100
AcDbEntity
8
0
100
AcDbVertex
100
AcDb2dVertex
62
5
10
99.360000
20
106.300000
0
VERTEX
5
c04
100
AcDbEntity
8
0
100
AcDbVertex
100
AcDb2dVertex
62
5
10
99.501421
20
106.441421
0
VERTEX
5
c05
100
AcDbEntity
8
0
100
AcDbVertex
100
AcDb2dVertex
62
5
10
99.360000
20
106.300000
0
VERTEX
5
c06
100
AcDbEntity
8
0
100
AcDbVertex
100
AcDb2dVertex
62
5
10
99.360000
20
105.735955
0
SEQEND
5
c07
100
AcDbEntity
8
0
0
LINE
5
c08
100
AcDbEntity
8
1
100
AcDbLine
6
DOT2
62
5
10
43.750000
20
151.250000
11
43.750000
21
154.062500
0
POLYLINE
5
c09
100
AcDbEntity
8
1
6
DOT2
62
5
100
AcDb2dPolyline
66
1
10
0.0
20
0.0
30
0.0
70
0
0
VERTEX
5
c0a
100
AcDbEntity
8
1
100
AcDbVertex
100
AcDb2dVertex
62
5
10
43.750000
20
151.250000
0
VERTEX
5
c0b
100
AcDbEntity
8
1
100
AcDbVertex
100
AcDb2dVertex
62
5
10
47.500000
20
151.250000
0
VERTEX
5
c0c
100
AcDbEntity
8
1
100
AcDbVertex
100
AcDb2dVertex
62
5
10
46.875000
20
151.875000
0
VERTEX
5
c0d
100
AcDbEntity
8
1
100
AcDbVertex
100
AcDb2dVertex
62
5
10
46.562500
20
152.500000
0
VERTEX
5
c0e
100
AcDbEntity
8
1
100
AcDbVertex
100
AcDb2dVertex
62
5
10
46.562500
20
153.437500
0
VERTEX
5
c0f
100
AcDbEntity
8
1
100
AcDbVertex
100
AcDb2dVertex
62
5
10
46.875000
20
154.062500
0
VERTEX
5
c10
100
AcDbEntity
8
1
100
AcDbVertex
100
AcDb2dVertex
62
5
10
47.812500
20
154.375000
0
VERTEX
5
c11
100
AcDbEntity
8
1
100
AcDbVertex
100
AcDb2dVertex
62
5
10
49.687500
20
154.375000
0
VERTEX
5
c12
100
AcDbEntity
8
1
100
AcDbVertex
100
AcDb2dVertex
62
5
10
50.625000
20
153.750000
0
VERTEX
5
c13
100
AcDbEntity
8
1
100
AcDbVertex
100
AcDb2dVertex
62
5
10
51.250000
20
152.812500
0
VERTEX
5
c14
100
AcDbEntity
8
1
100
AcDbVertex
100
AcDb2dVertex
62
5
10
51.250000
20
151.250000
0
SEQEND
5
c15
100
AcDbEntity
8
1
0
POLYLINE
5
c16
100
AcDbEntity
8
1
6
DOT2
62
5
100
AcDb2dPolyline
66
1
10
0.0
20
0.0
30
0.0
70
0
0
VERTEX
5
c17
100
AcDbEntity
8
1
100
AcDbVertex
100
AcDb2dVertex
62
5
10
47.812500
20
149.375000
0
VERTEX
5
c18
100
AcDbEntity
8
1
100
AcDbVertex
100
AcDb2dVertex
62
5
10
47.812500
20
149.375000
0
VERTEX
5
c19
100
AcDbEntity
8
1
100
AcDbVertex
100
AcDb2dVertex
62
5
10
48.125000
20
148.125000
0
VERTEX
5
c1a
100
AcDbEntity
8
1
100
AcDbVertex
100
AcDb2dVertex
62
5
10
48.125000
20
147.187500
0
VERTEX
5
c1b
100
AcDbEntity
8
1
100
AcDbVertex
100
AcDb2dVertex
62
5
10
47.812500
20
146.562500
0
VERTEX
5
c1c
100
AcDbEntity
8
1
100
AcDbVertex
100
AcDb2dVertex
62
5
10
46.875000
20
146.250000
0
VERTEX
5
c1d
100
AcDbEntity
8
1
100
AcDbVertex
100
AcDb2dVertex
62
5
10
45.312500
20
146.250000
0
VERTEX
5
c1e
100
AcDbEntity
8
1
100
AcDbVertex
100
AcDb2dVertex
62
5
10
44.375000
20
146.562500
0
VERTEX
5
c1f
100
AcDbEntity
8
1
100
AcDbVertex
100
AcDb2dVertex
62
5
10
44.062500
20
146.875000
0
VERTEX
5
c20
100
AcDbEntity
8
1
100
AcDbVertex
100
AcDb2dVertex
62
5
10
43.750000
20
147.500000
0
VERTEX
5
c21
100
AcDbEntity
8
1
100
AcDbVertex
100
AcDb2dVertex
62
5
10
43.750000
20
148.125000
0
VERTEX
5
c22
100
AcDbEntity
8
1
100
AcDbVertex
100
AcDb2dVertex
62
5
10
44.062500
20
148.750000
0
VERTEX
5
c23
100
AcDbEntity
8
1
100
AcDbVertex
100
AcDb2dVertex
62
5
10
44.375000
20
149.062500
0
VERTEX
5
c24
100
AcDbEntity
8
1
100
AcDbVertex
100
AcDb2dVertex
62
5
10
45.312500
20
149.375000
0
VERTEX
5
c25
100
AcDbEntity
8
1
100
AcDbVertex
100
AcDb2dVertex
62
5
10
48.750000
20
149.375000
0
VERTEX
5
c26
100
AcDbEntity
8
1
100
AcDbVertex
100
AcDb2dVertex
62
5
10
50.312500
20
149.062500
0
VERTEX
5
c27
100
AcDbEntity
8
1
100
AcDbVertex
100
AcDb2dVertex
62
5
10
50.937500
20
148.437500
0
VERTEX
5
c28
100
AcDbEntity
8
1
100
AcDbVertex
100
AcDb2dVertex
62
5
10
51.250000
20
147.500000
0
VERTEX
5
c29
100
AcDbEntity
8
1
100
AcDbVertex
100
AcDb2dVertex
62
5
10
51.250000
20
146.875000
0
SEQEND
5
c2a
100
AcDbEntity
8
1
0
POLYLINE
5
c2b
100
AcDbEntity
8
1
6
CONTINUOUS
62
5
100
AcDb2dPolyline
66
1
10
0.0
20
0.0
30
0.0
70
1
0
VERTEX
5
c2c
100
AcDbEntity
8
1
100
AcDbVertex
100
AcDb2dVertex
62
5
10
143.750000
20
35.750000
0
VERTEX
5
c2d
100
AcDbEntity
8
1
100
AcDbVertex
100
AcDb2dVertex
62
5
10
144.375000
20
35.750000
0
VERTEX
5
c2e
100
AcDbEntity
8
1
100
AcDbVertex
100
AcDb2dVertex
62
5
10
144.687500
20
35.437500
0
VERTEX
5
c2f
100
AcDbEntity
8
1
100
AcDbVertex
100
AcDb2dVertex
62
5
10
145.312500
20
34.187500
0
VERTEX
5
c30
100
AcDbEntity
8
1
100
AcDbVertex
100
AcDb2dVertex
62
5
10
145.625000
20
32.937500
0
VERTEX
5
c31
100
AcDbEntity
8
1
100
AcDbVertex
100
AcDb2dVertex
62
5
10
145.625000
20
31.062500
0
VERTEX
5
c32
100
AcDbEntity
8
1
100
AcDbVertex
100
AcDb2dVertex
62
5
10
145.312500
20
29.812500
0
VERTEX
5
c33
100
AcDbEntity
8
1
100
AcDbVertex
100
AcDb2dVertex
62
5
10
144.687500
20
28.562500
0
VERTEX
5
c34
100
AcDbEntity
8
1
100
AcDbVertex
100
AcDb2dVertex
62
5
10
144.375000
20
28.250000
0
VERTEX
5
c35
100
AcDbEntity
8
1
100
AcDbVertex
100
AcDb2dVertex
62
5
10
143.750000
20
28.250000
0
VERTEX
5
c36
100
AcDbEntity
8
1
100
AcDbVertex
100
AcDb2dVertex
62
5
10
143.437500
20
28.562500
0
VERTEX
5
c37
100
AcDbEntity
8
1
100
AcDbVertex
100
AcDb2dVertex
62
5
10
142.812500
20
29.812500
0
VERTEX
5
c38
100
AcDbEntity
8
1
100
AcDbVertex
100
AcDb2dVertex
62
5
10
142.500000
20
31.062500
0
VERTEX
5
c39
100
AcDbEntity
8
1
100
AcDbVertex
100
AcDb2dVertex
62
5
10
142.500000
20
32.937500
0
VERTEX
5
c3a
100
AcDbEntity
8
1
100
AcDbVertex
100
AcDb2dVertex
62
5
10
142.812500
20
34.187500
0
VERTEX
5
c3b
100
AcDbEntity
8
1
100
AcDbVertex
100
AcDb2dVertex
62
5
10
143.437500
20
35.437500
0
VERTEX
5
c3c
100
AcDbEntity
8
1
100
AcDbVertex
100
AcDb2dVertex
62
5
10
143.750000
20
35.750000
0
SEQEND
5
c3d
100
AcDbEntity
8
1
0
POLYLINE
5
c3e
100
AcDbEntity
8
1
6
CONTINUOUS
62
5
100
AcDb2dPolyline
66
1
10
0.0
20
0.0
30
0.0
70
0
0
VERTEX
5
c3f
100
AcDbEntity
8
1
100
AcDbVertex
100
AcDb2dVertex
62
5
10
122.500000
20
35.750000
0
VERTEX
5
c40
100
AcDbEntity
8
1
100
AcDbVertex
100
AcDb2dVertex
62
5
10
124.062500
20
28.250000
0
VERTEX
5
c41
100
AcDbEntity
8
1
100
AcDbVertex
100
AcDb2dVertex
62
5
10
125.625000
20
35.750000
0
SEQEND
5
c42
100
AcDbEntity
8
1
0
POLYLINE
5
c43
100
AcDbEntity
8
1
6
CONTINUOUS
62
5
100
AcDb2dPolyline
66
1
10
0.0
20
0.0
30
0.0
70
0
0
VERTEX
5
c44
100
AcDbEntity
8
1
100
AcDbVertex
100
AcDb2dVertex
62
5
10
138.125000
20
35.125000
0
VERTEX
5
c45
100
AcDbEntity
8
1
100
AcDbVertex
100
AcDb2dVertex
62
5
10
139.062500
20
35.750000
0
VERTEX
5
c46
100
AcDbEntity
8
1
100
AcDbVertex
100
AcDb2dVertex
62
5
10
139.062500
20
28.250000
0
SEQEND
5
c47
100
AcDbEntity
8
1
0
LINE
5
c48
100
AcDbEntity
8
1
100
AcDbLine
6
CONTINUOUS
62
5
10
138.437500
20
28.250000
11
139.687500
21
28.250000
0
POLYLINE
5
c49
100
AcDbEntity
8
1
6
CONTINUOUS
62
5
100
AcDb2dPolyline
66
1
10
0.0
20
0.0
30
0.0
70
0
0
VERTEX
5
c4a
100
AcDbEntity
8
1
100
AcDbVertex
100
AcDb2dVertex
62
5
10
102.500000
20
28.250000
0
VERTEX
5
c4b
100
AcDbEntity
8
1
100
AcDbVertex
100
AcDb2dVertex
62
5
10
104.062500
20
35.750000
0
VERTEX
5
c4c
100
AcDbEntity
8
1
100
AcDbVertex
100
AcDb2dVertex
62
5
10
105.625000
20
28.250000
0
SEQEND
5
c4d
100
AcDbEntity
8
1
0
LINE
5
c4e
100
AcDbEntity
8
1
100
AcDbLine
6
CONTINUOUS
62
5
10
103.125000
20
30.750000
11
105.000000
21
30.750000
0
POLYLINE
5
c4f
100
AcDbEntity
8
1
6
CONTINUOUS
62
5
100
AcDb2dPolyline
66
1
10
0.0
20
0.0
30
0.0
70
0
0
VERTEX
5
c50
100
AcDbEntity
8
1
100
AcDbVertex
100
AcDb2dVertex
62
5
10
110.625000
20
34.187500
0
VERTEX
5
c51
100
AcDbEntity
8
1
100
AcDbVertex
100
AcDb2dVertex
62
5
10
110.312500
20
35.125000
0
VERTEX
5
c52
100
AcDbEntity
8
1
100
AcDbVertex
100
AcDb2dVertex
62
5
10
109.687500
20
35.750000
0
VERTEX
5
c53
100
AcDbEntity
8
1
100
AcDbVertex
100
AcDb2dVertex
62
5
10
108.750000
20
35.750000
0
VERTEX
5
c54
100
AcDbEntity
8
1
100
AcDbVertex
100
AcDb2dVertex
62
5
10
107.812500
20
34.812500
0
VERTEX
5
c55
100
AcDbEntity
8
1
100
AcDbVertex
100
AcDb2dVertex
62
5
10
107.500000
20
33.250000
0
VERTEX
5
c56
100
AcDbEntity
8
1
100
AcDbVertex
100
AcDb2dVertex
62
5
10
107.500000
20
30.750000
0
VERTEX
5
c57
100
AcDbEntity
8
1
100
AcDbVertex
100
AcDb2dVertex
62
5
10
107.812500
20
29.187500
0
VERTEX
5
c58
100
AcDbEntity
8
1
100
AcDbVertex
100
AcDb2dVertex
62
5
10
108.750000
20
28.250000
0
VERTEX
5
c59
100
AcDbEntity
8
1
100
AcDbVertex
100
AcDb2dVertex
62
5
10
109.687500
20
28.250000
0
VERTEX
5
c5a
100
AcDbEntity
8
1
100
AcDbVertex
100
AcDb2dVertex
62
5
10
110.312500
20
28.875000
0
VERTEX
5
c5b
100
AcDbEntity
8
1
100
AcDbVertex
100
AcDb2dVertex
62
5
10
110.937500
20
30.437500
0
SEQEND
5
c5c
100
AcDbEntity
8
1
0
POLYLINE
5
c5d
100
AcDbEntity
8
1
6
CONTINUOUS
62
5
100
AcDb2dPolyline
66
1
10
0.0
20
0.0
30
0.0
70
0
0
VERTEX
5
c5e
100
AcDbEntity
8
1
100
AcDbVertex
100
AcDb2dVertex
62
5
10
112.500000
20
33.562500
0
VERTEX
5
c5f
100
AcDbEntity
8
1
100
AcDbVertex
100
AcDb2dVertex
62
5
10
112.812500
20
35.125000
0
VERTEX
5
c60
100
AcDbEntity
8
1
100
AcDbVertex
100
AcDb2dVertex
62
5
10
113.750000
20
35.750000
0
VERTEX
5
c61
100
AcDbEntity
8
1
100
AcDbVertex
100
AcDb2dVertex
62
5
10
114.687500
20
35.750000
0
VERTEX
5
c62
100
AcDbEntity
8
1
100
AcDbVertex
100
AcDb2dVertex
62
5
10
115.312500
20
35.437500
0
VERTEX
5
c63
100
AcDbEntity
8
1
100
AcDbVertex
100
AcDb2dVertex
62
5
10
115.625000
20
34.500000
0
VERTEX
5
c64
100
AcDbEntity
8
1
100
AcDbVertex
100
AcDb2dVertex
62
5
10
115.625000
20
33.562500
0
VERTEX
5
c65
100
AcDbEntity
8
1
100
AcDbVertex
100
AcDb2dVertex
62
5
10
115.312500
20
32.625000
0
VERTEX
5
c66
100
AcDbEntity
8
1
100
AcDbVertex
100
AcDb2dVertex
62
5
10
112.500000
20
28.250000
0
VERTEX
5
c67
100
AcDbEntity
8
1
100
AcDbVertex
100
AcDb2dVertex
62
5
10
115.625000
20
28.250000
0
VERTEX
5
c68
100
AcDbEntity
8
1
100
AcDbVertex
100
AcDb2dVertex
62
5
10
115.625000
20
29.187500
0
SEQEND
5
c69
100
AcDbEntity
8
1
0
POLYLINE
5
c6a
100
AcDbEntity
8
1
6
CONTINUOUS
62
5
100
AcDb2dPolyline
66
1
10
0.0
20
0.0
30
0.0
70
0
0
VERTEX
5
c6b
100
AcDbEntity
8
1
100
AcDbVertex
100
AcDb2dVertex
62
5
10
120.000000
20
35.750000
0
VERTEX
5
c6c
100
AcDbEntity
8
1
100
AcDbVertex
100
AcDb2dVertex
62
5
10
117.187500
20
30.125000
0
VERTEX
5
c6d
100
AcDbEntity
8
1
100
AcDbVertex
100
AcDb2dVertex
62
5
10
120.937500
20
30.125000
0
SEQEND
5
c6e
100
AcDbEntity
8
1
0
LINE
5
c6f
100
AcDbEntity
8
1
100
AcDbLine
6
CONTINUOUS
62
5
10
120.000000
20
35.750000
11
120.000000
21
28.250000
0
LINE
5
c70
100
AcDbEntity
8
1
100
AcDbLine
6
CONTINUOUS
62
5
10
119.375000
20
28.250000
11
120.625000
21
28.250000
0
LINE
5
c71
100
AcDbEntity
8
1
100
AcDbLine
6
CONTINUOUS
62
5
10
90.000000
20
44.000000
11
90.000000
21
20.000000
0
LINE
5
c72
100
AcDbEntity
8
1
100
AcDbLine
6
CONTINUOUS
62
5
10
70.625000
20
34.187500
11
73.750000
21
34.187500
0
LINE
5
c73
100
AcDbEntity
8
1
100
AcDbLine
6
CONTINUOUS
62
5
10
72.500000
20
36.375000
11
72.500000
21
27.625000
0
POLYLINE
5
c74
100
AcDbEntity
8
1
6
CONTINUOUS
62
5
100
AcDb2dPolyline
66
1
10
0.0
20
0.0
30
0.0
70
0
0
VERTEX
5
c75
100
AcDbEntity
8
1
100
AcDbVertex
100
AcDb2dVertex
62
5
10
72.500000
20
34.187500
0
VERTEX
5
c76
100
AcDbEntity
8
1
100
AcDbVertex
100
AcDb2dVertex
62
5
10
71.562500
20
32.000000
0
VERTEX
5
c77
100
AcDbEntity
8
1
100
AcDbVertex
100
AcDb2dVertex
62
5
10
70.625000
20
30.750000
0
SEQEND
5
c78
100
AcDbEntity
8
1
0
LINE
5
c79
100
AcDbEntity
8
1
100
AcDbLine
6
CONTINUOUS
62
5
10
72.500000
20
33.250000
11
73.437500
21
32.000000
0
POLYLINE
5
c7a
100
AcDbEntity
8
1
6
CONTINUOUS
62
5
100
AcDb2dPolyline
66
1
10
0.0
20
0.0
30
0.0
70
0
0
VERTEX
5
c7b
100
AcDbEntity
8
1
100
AcDbVertex
100
AcDb2dVertex
62
5
10
75.937500
20
36.375000
0
VERTEX
5
c7c
100
AcDbEntity
8
1
100
AcDbVertex
100
AcDb2dVertex
62
5
10
75.312500
20
35.125000
0
VERTEX
5
c7d
100
AcDbEntity
8
1
100
AcDbVertex
100
AcDb2dVertex
62
5
10
73.750000
20
33.250000
0
SEQEND
5
c7e
100
AcDbEntity
8
1
0
POLYLINE
5
c7f
100
AcDbEntity
8
1
6
CONTINUOUS
62
5
100
AcDb2dPolyline
66
1
10
0.0
20
0.0
30
0.0
70
0
0
VERTEX
5
c80
100
AcDbEntity
8
1
100
AcDbVertex
100
AcDb2dVertex
62
5
10
75.312500
20
35.125000
0
VERTEX
5
c81
100
AcDbEntity
8
1
100
AcDbVertex
100
AcDb2dVertex
62
5
10
78.437500
20
35.125000
0
VERTEX
5
c82
100
AcDbEntity
8
1
100
AcDbVertex
100
AcDb2dVertex
62
5
10
77.500000
20
33.562500
0
VERTEX
5
c83
100
AcDbEntity
8
1
100
AcDbVertex
100
AcDb2dVertex
62
5
10
75.937500
20
32.000000
0
VERTEX
5
c84
100
AcDbEntity
8
1
100
AcDbVertex
100
AcDb2dVertex
62
5
10
73.750000
20
30.750000
0
SEQEND
5
c85
100
AcDbEntity
8
1
0
POLYLINE
5
c86
100
AcDbEntity
8
1
6
CONTINUOUS
62
5
100
AcDb2dPolyline
66
1
10
0.0
20
0.0
30
0.0
70
0
0
VERTEX
5
c87
100
AcDbEntity
8
1
100
AcDbVertex
100
AcDb2dVertex
62
5
10
75.312500
20
35.125000
0
VERTEX
5
c88
100
AcDbEntity
8
1
100
AcDbVertex
100
AcDb2dVertex
62
5
10
75.937500
20
33.562500
0
VERTEX
5
c89
100
AcDbEntity
8
1
100
AcDbVertex
100
AcDb2dVertex
62
5
10
77.187500
20
32.000000
0
VERTEX
5
c8a
100
AcDbEntity
8
1
100
AcDbVertex
100
AcDb2dVertex
62
5
10
78.125000
20
31.375000
0
VERTEX
5
c8b
100
AcDbEntity
8
1
100
AcDbVertex
100
AcDb2dVertex
62
5
10
79.375000
20
30.750000
0
SEQEND
5
c8c
100
AcDbEntity
8
1
0
POLYLINE
5
c8d
100
AcDbEntity
8
1
6
CONTINUOUS
62
5
100
AcDb2dPolyline
66
1
10
0.0
20
0.0
30
0.0
70
1
0
VERTEX
5
c8e
100
AcDbEntity
8
1
100
AcDbVertex
100
AcDb2dVertex
62
5
10
75.000000
20
30.750000
0
VERTEX
5
c8f
100
AcDbEntity
8
1
100
AcDbVertex
100
AcDb2dVertex
62
5
10
75.000000
20
27.937500
0
VERTEX
5
c90
100
AcDbEntity
8
1
100
AcDbVertex
100
AcDb2dVertex
62
5
10
78.437500
20
27.937500
0
VERTEX
5
c91
100
AcDbEntity
8
1
100
AcDbVertex
100
AcDb2dVertex
62
5
10
78.437500
20
30.750000
0
VERTEX
5
c92
100
AcDbEntity
8
1
100
AcDbVertex
100
AcDb2dVertex
62
5
10
75.000000
20
30.750000
0
SEQEND
5
c93
100
AcDbEntity
8
1
0
LINE
5
c94
100
AcDbEntity
8
1
100
AcDbLine
6
CONTINUOUS
62
5
10
54.687500
20
36.375000
11
54.687500
21
35.437500
0
POLYLINE
5
c95
100
AcDbEntity
8
1
6
CONTINUOUS
62
5
100
AcDb2dPolyline
66
1
10
0.0
20
0.0
30
0.0
70
0
0
VERTEX
5
c96
100
AcDbEntity
8
1
100
AcDbVertex
100
AcDb2dVertex
62
5
10
50.937500
20
33.250000
0
VERTEX
5
c97
100
AcDbEntity
8
1
100
AcDbVertex
100
AcDb2dVertex
62
5
10
50.937500
20
35.437500
0
VERTEX
5
c98
100
AcDbEntity
8
1
100
AcDbVertex
100
AcDb2dVertex
62
5
10
58.437500
20
35.437500
0
VERTEX
5
c99
100
AcDbEntity
8
1
100
AcDbVertex
100
AcDb2dVertex
62
5
10
58.437500
20
33.250000
0
SEQEND
5
c9a
100
AcDbEntity
8
1
0
LINE
5
c9b
100
AcDbEntity
8
1
100
AcDbLine
6
CONTINUOUS
62
5
10
51.875000
20
33.562500
11
57.500000
21
33.562500
0
LINE
5
c9c
100
AcDbEntity
8
1
100
AcDbLine
6
CONTINUOUS
62
5
10
54.687500
20
33.562500
11
54.687500
21
28.250000
0
LINE
5
c9d
100
AcDbEntity
8
1
100
AcDbLine
6
CONTINUOUS
62
5
10
54.687500
20
31.062500
11
57.500000
21
31.062500
0
POLYLINE
5
c9e
100
AcDbEntity
8
1
6
CONTINUOUS
62
5
100
AcDb2dPolyline
66
1
10
0.0
20
0.0
30
0.0
70
0
0
VERTEX
5
c9f
100
AcDbEntity
8
1
100
AcDbVertex
100
AcDb2dVertex
62
5
10
52.500000
20
31.687500
0
VERTEX
5
ca0
100
AcDbEntity
8
1
100
AcDbVertex
100
AcDb2dVertex
62
5
10
52.187500
20
29.812500
0
VERTEX
5
ca1
100
AcDbEntity
8
1
100
AcDbVertex
100
AcDb2dVertex
62
5
10
51.562500
20
28.562500
0
VERTEX
5
ca2
100
AcDbEntity
8
1
100
AcDbVertex
100
AcDb2dVertex
62
5
10
50.625000
20
27.625000
0
SEQEND
5
ca3
100
AcDbEntity
8
1
0
POLYLINE
5
ca4
100
AcDbEntity
8
1
6
CONTINUOUS
62
5
100
AcDb2dPolyline
66
1
10
0.0
20
0.0
30
0.0
70
0
0
VERTEX
5
ca5
100
AcDbEntity
8
1
100
AcDbVertex
100
AcDb2dVertex
62
5
10
52.187500
20
29.812500
0
VERTEX
5
ca6
100
AcDbEntity
8
1
100
AcDbVertex
100
AcDb2dVertex
62
5
10
54.687500
20
28.250000
0
VERTEX
5
ca7
100
AcDbEntity
8
1
100
AcDbVertex
100
AcDb2dVertex
62
5
10
55.937500
20
27.937500
0
VERTEX
5
ca8
100
AcDbEntity
8
1
100
AcDbVertex
100
AcDb2dVertex
62
5
10
59.062500
20
27.625000
0
SEQEND
5
ca9
100
AcDbEntity
8
1
0
POLYLINE
5
caa
100
AcDbEntity
8
1
6
CONTINUOUS
62
5
100
AcDb2dPolyline
66
1
10
0.0
20
0.0
30
0.0
70
1
0
VERTEX
5
cab
100
AcDbEntity
8
1
100
AcDbVertex
100
AcDb2dVertex
62
5
10
148.750000
20
35.750000
0
VERTEX
5
cac
100
AcDbEntity
8
1
100
AcDbVertex
100
AcDb2dVertex
62
5
10
149.375000
20
35.750000
0
VERTEX
5
cad
100
AcDbEntity
8
1
100
AcDbVertex
100
AcDb2dVertex
62
5
10
149.687500
20
35.437500
0
VERTEX
5
cae
100
AcDbEntity
8
1
100
AcDbVertex
100
AcDb2dVertex
62
5
10
150.312500
20
34.187500
0
VERTEX
5
caf
100
AcDbEntity
8
1
100
AcDbVertex
100
AcDb2dVertex
62
5
10
150.625000
20
32.937500
0
VERTEX
5
cb0
100
AcDbEntity
8
1
100
AcDbVertex
100
AcDb2dVertex
62
5
10
150.625000
20
31.062500
0
VERTEX
5
cb1
100
AcDbEntity
8
1
100
AcDbVertex
100
AcDb2dVertex
62
5
10
150.312500
20
29.812500
0
VERTEX
5
cb2
100
AcDbEntity
8
1
100
AcDbVertex
100
AcDb2dVertex
62
5
10
149.687500
20
28.562500
0
VERTEX
5
cb3
100
AcDbEntity
8
1
100
AcDbVertex
100
AcDb2dVertex
62
5
10
149.375000
20
28.250000
0
VERTEX
5
cb4
100
AcDbEntity
8
1
100
AcDbVertex
100
AcDb2dVertex
62
5
10
148.750000
20
28.250000
0
VERTEX
5
cb5
100
AcDbEntity
8
1
100
AcDbVertex
100
AcDb2dVertex
62
5
10
148.437500
20
28.562500
0
VERTEX
5
cb6
100
AcDbEntity
8
1
100
AcDbVertex
100
AcDb2dVertex
62
5
10
147.812500
20
29.812500
0
VERTEX
5
cb7
100
AcDbEntity
8
1
100
AcDbVertex
100
AcDb2dVertex
62
5
10
147.500000
20
31.062500
0
VERTEX
5
cb8
100
AcDbEntity
8
1
100
AcDbVertex
100
AcDb2dVertex
62
5
10
147.500000
20
32.937500
0
VERTEX
5
cb9
100
AcDbEntity
8
1
100
AcDbVertex
100
AcDb2dVertex
62
5
10
147.812500
20
34.187500
0
VERTEX
5
cba
100
AcDbEntity
8
1
100
AcDbVertex
100
AcDb2dVertex
62
5
10
148.437500
20
35.437500
0
VERTEX
5
cbb
100
AcDbEntity
8
1
100
AcDbVertex
100
AcDb2dVertex
62
5
10
148.750000
20
35.750000
0
SEQEND
5
cbc
100
AcDbEntity
8
1
0
POLYLINE
5
cbd
100
AcDbEntity
8
1
6
CONTINUOUS
62
5
100
AcDb2dPolyline
66
1
10
0.0
20
0.0
30
0.0
70
1
0
VERTEX
5
cbe
100
AcDbEntity
8
1
100
AcDbVertex
100
AcDb2dVertex
62
5
10
280.000000
20
20.000000
0
VERTEX
5
cbf
100
AcDbEntity
8
1
100
AcDbVertex
100
AcDb2dVertex
62
5
10
280.000000
20
44.000000
0
VERTEX
5
cc0
100
AcDbEntity
8
1
100
AcDbVertex
100
AcDb2dVertex
62
5
10
40.000000
20
44.000000
0
VERTEX
5
cc1
100
AcDbEntity
8
1
100
AcDbVertex
100
AcDb2dVertex
62
5
10
40.000000
20
20.000000
0
VERTEX
5
cc2
100
AcDbEntity
8
1
100
AcDbVertex
100
AcDb2dVertex
62
5
10
280.000000
20
20.000000
0
SEQEND
5
cc3
100
AcDbEntity
8
1
0
LINE
5
cc4
100
AcDbEntity
8
1
100
AcDbLine
6
CONTINUOUS
62
5
10
40.000000
20
340.000000
11
40.000000
21
308.000000
0
LINE
5
cc5
100
AcDbEntity
8
1
100
AcDbLine
6
CONTINUOUS
62
5
10
0.000000
20
308.000000
11
320.000000
21
308.000000
0
ARC
5
cc6
100
AcDbEntity
8
0
100
AcDbCircle
6
CONTINUOUS
62
5
10
183.000000
20
160.456483
40
0.500000
100
AcDbArc
50
-179.999998
51
-88.750108
0
POLYLINE
5
cc7
100
AcDbEntity
8
0
6
CONTINUOUS
62
5
100
AcDb2dPolyline
66
1
10
0.0
20
0.0
30
0.0
70
0
0
VERTEX
5
cc8
100
AcDbEntity
8
0
100
AcDbVertex
100
AcDb2dVertex
62
5
10
183.010907
20
159.956602
0
VERTEX
5
cc9
100
AcDbEntity
8
0
100
AcDbVertex
100
AcDb2dVertex
62
5
10
185.000000
20
160.000000
0
VERTEX
5
cca
100
AcDbEntity
8
0
100
AcDbVertex
100
AcDb2dVertex
62
5
10
187.500000
20
160.000000
0
SEQEND
5
ccb
100
AcDbEntity
8
0
0
LINE
5
ccc
100
AcDbEntity
8
0
100
AcDbLine
6
CONTINUOUS
62
5
10
126.250000
20
159.795454
11
126.250000
21
140.204546
0
LINE
5
ccd
100
AcDbEntity
8
1
100
AcDbLine
6
CONTINUOUS
62
5
10
76.500000
20
197.500000
11
50.500000
21
197.500000
0
LINE
5
cce
100
AcDbEntity
8
1
100
AcDbLine
6
CONTINUOUS
62
5
10
76.500000
20
102.500000
11
50.500000
21
102.500000
0
POLYLINE
5
ccf
100
AcDbEntity
8
1
6
CONTINUOUS
62
5
100
AcDb2dPolyline
66
1
10
0.0
20
0.0
30
0.0
70
0
0
VERTEX
5
cd0
100
AcDbEntity
8
1
100
AcDbVertex
100
AcDb2dVertex
62
5
10
52.500000
20
150.000000
0
VERTEX
5
cd1
100
AcDbEntity
8
1
100
AcDbVertex
100
AcDb2dVertex
62
5
10
52.500000
20
102.500000
0
VERTEX
5
cd2
100
AcDbEntity
8
1
100
AcDbVertex
100
AcDb2dVertex
62
5
10
51.500000
20
108.500000
0
VERTEX
5
cd3
100
AcDbEntity
8
1
100
AcDbVertex
100
AcDb2dVertex
62
5
10
53.500000
20
108.500000
0
VERTEX
5
cd4
100
AcDbEntity
8
1
100
AcDbVertex
100
AcDb2dVertex
62
5
10
52.500000
20
102.500000
0
VERTEX
5
cd5
100
AcDbEntity
8
1
100
AcDbVertex
100
AcDb2dVertex
62
5
10
52.000000
20
108.500000
0
VERTEX
5
cd6
100
AcDbEntity
8
1
100
AcDbVertex
100
AcDb2dVertex
62
5
10
53.000000
20
108.500000
0
VERTEX
5
cd7
100
AcDbEntity
8
1
100
AcDbVertex
100
AcDb2dVertex
62
5
10
52.500000
20
102.500000
0
SEQEND
5
cd8
100
AcDbEntity
8
1
0
POLYLINE
5
cd9
100
AcDbEntity
8
1
6
CONTINUOUS
62
5
100
AcDb2dPolyline
66
1
10
0.0
20
0.0
30
0.0
70
0
0
VERTEX
5
cda
100
AcDbEntity
8
1
100
AcDbVertex
100
AcDb2dVertex
62
5
10
52.500000
20
150.000000
0
VERTEX
5
cdb
100
AcDbEntity
8
1
100
AcDbVertex
100
AcDb2dVertex
62
5
10
52.500000
20
197.500000
0
VERTEX
5
cdc
100
AcDbEntity
8
1
100
AcDbVertex
100
AcDb2dVertex
62
5
10
53.500000
20
191.500000
0
VERTEX
5
cdd
100
AcDbEntity
8
1
100
AcDbVertex
100
AcDb2dVertex
62
5
10
51.500000
20
191.500000
0
VERTEX
5
cde
100
AcDbEntity
8
1
100
AcDbVertex
100
AcDb2dVertex
62
5
10
52.500000
20
197.500000
0
VERTEX
5
cdf
100
AcDbEntity
8
1
100
AcDbVertex
100
AcDb2dVertex
62
5
10
53.000000
20
191.500000
0
VERTEX
5
ce0
100
AcDbEntity
8
1
100
AcDbVertex
100
AcDb2dVertex
62
5
10
52.000000
20
191.500000
0
VERTEX
5
ce1
100
AcDbEntity
8
1
100
AcDbVertex
100
AcDb2dVertex
62
5
10
52.500000
20
197.500000
0
SEQEND
5
ce2
100
AcDbEntity
8
1
0
LINE
5
ce3
100
AcDbEntity
8
1
100
AcDbLine
6
CONTINUOUS
62
5
10
243.506249
20
195.006172
11
269.500000
21
195.006172
0
LINE
5
ce4
100
AcDbEntity
8
1
100
AcDbLine
6
CONTINUOUS
62
5
10
243.506249
20
104.993828
11
269.500000
21
104.993828
0
POLYLINE
5
ce5
100
AcDbEntity
8
1
6
CONTINUOUS
62
5
100
AcDb2dPolyline
66
1
10
0.0
20
0.0
30
0.0
70
0
0
VERTEX
5
ce6
100
AcDbEntity
8
1
100
AcDbVertex
100
AcDb2dVertex
62
5
10
267.500000
20
150.000000
0
VERTEX
5
ce7
100
AcDbEntity
8
1
100
AcDbVertex
100
AcDb2dVertex
62
5
10
267.500000
20
104.993828
0
VERTEX
5
ce8
100
AcDbEntity
8
1
100
AcDbVertex
100
AcDb2dVertex
62
5
10
266.500000
20
110.993828
0
VERTEX
5
ce9
100
AcDbEntity
8
1
100
AcDbVertex
100
AcDb2dVertex
62
5
10
268.500000
20
110.993828
0
VERTEX
5
cea
100
AcDbEntity
8
1
100
AcDbVertex
100
AcDb2dVertex
62
5
10
267.500000
20
104.993828
0
VERTEX
5
ceb
100
AcDbEntity
8
1
100
AcDbVertex
100
AcDb2dVertex
62
5
10
267.000000
20
110.993828
0
VERTEX
5
cec
100
AcDbEntity
8
1
100
AcDbVertex
100
AcDb2dVertex
62
5
10
268.000000
20
110.993828
0
VERTEX
5
ced
100
AcDbEntity
8
1
100
AcDbVertex
100
AcDb2dVertex
62
5
10
267.500000
20
104.993828
0
SEQEND
5
cee
100
AcDbEntity
8
1
0
POLYLINE
5
cef
100
AcDbEntity
8
1
6
CONTINUOUS
62
5
100
AcDb2dPolyline
66
1
10
0.0
20
0.0
30
0.0
70
0
0
VERTEX
5
cf0
100
AcDbEntity
8
1
100
AcDbVertex
100
AcDb2dVertex
62
5
10
267.500000
20
150.000000
0
VERTEX
5
cf1
100
AcDbEntity
8
1
100
AcDbVertex
100
AcDb2dVertex
62
5
10
267.500000
20
195.006172
0
VERTEX
5
cf2
100
AcDbEntity
8
1
100
AcDbVertex
100
AcDb2dVertex
62
5
10
268.500000
20
189.006172
0
VERTEX
5
cf3
100
AcDbEntity
8
1
100
AcDbVertex
100
AcDb2dVertex
62
5
10
266.500000
20
189.006172
0
VERTEX
5
cf4
100
AcDbEntity
8
1
100
AcDbVertex
100
AcDb2dVertex
62
5
10
267.500000
20
195.006172
0
VERTEX
5
cf5
100
AcDbEntity
8
1
100
AcDbVertex
100
AcDb2dVertex
62
5
10
268.000000
20
189.006172
0
VERTEX
5
cf6
100
AcDbEntity
8
1
100
AcDbVertex
100
AcDb2dVertex
62
5
10
267.000000
20
189.006172
0
VERTEX
5
cf7
100
AcDbEntity
8
1
100
AcDbVertex
100
AcDb2dVertex
62
5
10
267.500000
20
195.006172
0
SEQEND
5
cf8
100
AcDbEntity
8
1
0
LINE
5
cf9
100
AcDbEntity
8
0
100
AcDbLine
6
CONTINUOUS
62
5
10
208.000001
20
103.500000
11
207.500000
21
103.500000
0
LINE
5
cfa
100
AcDbEntity
8
0
100
AcDbLine
6
CONTINUOUS
62
5
10
207.500000
20
196.500000
11
208.000001
21
196.500000
0
POLYLINE
5
cfb
100
AcDbEntity
8
0
6
CONTINUOUS
62
5
100
AcDb2dPolyline
66
1
10
0.0
20
0.0
30
0.0
70
1
0
VERTEX
5
cfc
100
AcDbEntity
8
0
100
AcDbVertex
100
AcDb2dVertex
62
5
10
185.000000
20
180.046585
0
VERTEX
5
cfd
100
AcDbEntity
8
0
100
AcDbVertex
100
AcDb2dVertex
62
5
10
185.000000
20
160.000000
0
SEQEND
5
cfe
100
AcDbEntity
8
0
0
ARC
5
cff
100
AcDbEntity
8
0
100
AcDbCircle
6
CONTINUOUS
62
5
10
183.000000
20
179.238403
40
0.500000
100
AcDbArc
50
94.573917
51
179.999998
0
POLYLINE
5
d00
100
AcDbEntity
8
0
6
CONTINUOUS
62
5
100
AcDb2dPolyline
66
1
10
0.0
20
0.0
30
0.0
70
0
0
VERTEX
5
d01
100
AcDbEntity
8
0
100
AcDbVertex
100
AcDb2dVertex
62
5
10
182.960127
20
179.736810
0
VERTEX
5
d02
100
AcDbEntity
8
0
100
AcDbVertex
100
AcDb2dVertex
62
5
10
185.000000
20
179.900000
0
VERTEX
5
d03
100
AcDbEntity
8
0
100
AcDbVertex
100
AcDb2dVertex
62
5
10
187.500000
20
179.900000
0
VERTEX
5
d04
100
AcDbEntity
8
0
100
AcDbVertex
100
AcDb2dVertex
62
5
10
187.500000
20
150.000000
0
SEQEND
5
d05
100
AcDbEntity
8
0
0
LINE
5
d06
100
AcDbEntity
8
0
100
AcDbLine
6
CONTINUOUS
62
5
10
182.500000
20
150.000000
11
182.500000
21
179.238403
0
POLYLINE
5
d07
100
AcDbEntity
8
0
6
CONTINUOUS
62
5
100
AcDb2dPolyline
66
1
10
0.0
20
0.0
30
0.0
70
0
0
VERTEX
5
d08
100
AcDbEntity
8
0
100
AcDbVertex
100
AcDb2dVertex
62
5
10
82.000000
20
120.100000
0
VERTEX
5
d09
100
AcDbEntity
8
0
100
AcDbVertex
100
AcDb2dVertex
62
5
10
82.000000
20
119.950000
0
VERTEX
5
d0a
100
AcDbEntity
8
0
100
AcDbVertex
100
AcDb2dVertex
62
5
10
80.000000
20
119.950000
0
VERTEX
5
d0b
100
AcDbEntity
8
0
100
AcDbVertex
100
AcDb2dVertex
62
5
10
80.000000
20
120.100000
0
SEQEND
5
d0c
100
AcDbEntity
8
0
0
POLYLINE
5
d0d
100
AcDbEntity
8
0
6
CONTINUOUS
62
5
100
AcDb2dPolyline
66
1
10
0.0
20
0.0
30
0.0
70
0
0
VERTEX
5
d0e
100
AcDbEntity
8
0
100
AcDbVertex
100
AcDb2dVertex
62
5
10
80.000000
20
179.900000
0
VERTEX
5
d0f
100
AcDbEntity
8
0
100
AcDbVertex
100
AcDb2dVertex
62
5
10
80.000000
20
180.050000
0
VERTEX
5
d10
100
AcDbEntity
8
0
100
AcDbVertex
100
AcDb2dVertex
62
5
10
82.000000
20
180.050000
0
VERTEX
5
d11
100
AcDbEntity
8
0
100
AcDbVertex
100
AcDb2dVertex
62
5
10
82.000000
20
179.900000
0
SEQEND
5
d12
100
AcDbEntity
8
0
0
POLYLINE
5
d13
100
AcDbEntity
8
0
6
CONTINUOUS
62
5
100
AcDb2dPolyline
66
1
10
0.0
20
0.0
30
0.0
70
1
0
VERTEX
5
d14
100
AcDbEntity
8
0
100
AcDbVertex
100
AcDb2dVertex
62
5
10
117.000000
20
122.250000
0
VERTEX
5
d15
100
AcDbEntity
8
0
100
AcDbVertex
100
AcDb2dVertex
62
5
10
82.000000
20
122.250000
0
VERTEX
5
d16
100
AcDbEntity
8
0
100
AcDbVertex
100
AcDb2dVertex
62
5
10
82.000000
20
177.750000
0
VERTEX
5
d17
100
AcDbEntity
8
0
100
AcDbVertex
100
AcDb2dVertex
62
5
10
117.000000
20
177.750000
0
SEQEND
5
d18
100
AcDbEntity
8
0
0
ARC
5
d19
100
AcDbEntity
8
0
100
AcDbCircle
6
CONTINUOUS
62
5
10
78.800000
20
120.600000
40
0.300000
100
AcDbArc
50
179.999998
51
-89.999999
0
ARC
5
d1a
100
AcDbEntity
8
0
100
AcDbCircle
6
CONTINUOUS
62
5
10
78.800000
20
179.400000
40
0.300000
100
AcDbArc
50
89.999999
51
179.999998
0
LINE
5
d1b
100
AcDbEntity
8
0
100
AcDbLine
6
CONTINUOUS
62
5
10
78.800000
20
179.700000
11
126.500000
21
179.700000
0
ARC
5
d1c
100
AcDbEntity
8
0
100
AcDbCircle
6
CONTINUOUS
62
5
10
126.500000
20
179.400000
40
0.300000
100
AcDbArc
50
0.000000
51
89.999999
0
LINE
5
d1d
100
AcDbEntity
8
0
100
AcDbLine
6
CONTINUOUS
62
5
10
126.800000
20
179.400000
11
126.800000
21
160.327352
0
ARC
5
d1e
100
AcDbEntity
8
0
100
AcDbCircle
6
CONTINUOUS
62
5
10
126.300000
20
160.327352
40
0.500000
100
AcDbArc
50
-74.744881
51
0.000000
0
ARC
5
d1f
100
AcDbEntity
8
0
100
AcDbCircle
6
CONTINUOUS
62
5
10
126.300000
20
139.672648
40
0.500000
100
AcDbArc
50
-0.000000
51
74.744881
0
LINE
5
d20
100
AcDbEntity
8
0
100
AcDbLine
6
CONTINUOUS
62
5
10
126.800000
20
139.672648
11
126.800000
21
120.600000
0
ARC
5
d21
100
AcDbEntity
8
0
100
AcDbCircle
6
CONTINUOUS
62
5
10
126.500000
20
120.600000
40
0.300000
100
AcDbArc
50
-89.999999
51
0.000000
0
LINE
5
d22
100
AcDbEntity
8
0
100
AcDbLine
6
CONTINUOUS
62
5
10
126.500000
20
120.300000
11
124.664153
21
120.300000
0
LINE
5
d23
100
AcDbEntity
8
0
100
AcDbLine
6
CONTINUOUS
62
5
10
123.372663
20
120.300000
11
78.800000
21
120.300000
0
ARC
5
d24
100
AcDbEntity
8
0
100
AcDbCircle
6
CONTINUOUS
62
5
10
126.500000
20
139.618102
40
0.500000
100
AcDbArc
50
-0.000000
51
74.744881
0
LINE
5
d25
100
AcDbEntity
8
0
100
AcDbLine
6
CONTINUOUS
62
5
10
127.000000
20
139.618102
11
127.000000
21
120.600000
0
ARC
5
d26
100
AcDbEntity
8
0
100
AcDbCircle
6
CONTINUOUS
62
5
10
126.500000
20
120.600000
40
0.500000
100
AcDbArc
50
-89.999999
51
0.000000
0
LINE
5
d27
100
AcDbEntity
8
0
100
AcDbLine
6
CONTINUOUS
62
5
10
126.500000
20
120.100000
11
124.600000
21
120.100000
0
LINE
5
d28
100
AcDbEntity
8
0
100
AcDbLine
6
CONTINUOUS
62
5
10
123.400000
20
120.100000
11
79.000000
21
120.100000
0
ARC
5
d29
100
AcDbEntity
8
0
100
AcDbCircle
6
CONTINUOUS
62
5
10
79.000000
20
120.600000
40
0.500000
100
AcDbArc
50
179.999998
51
-89.999999
0
LINE
5
d2a
100
AcDbEntity
8
0
100
AcDbLine
6
CONTINUOUS
62
5
10
78.500000
20
120.600000
11
78.500000
21
179.400000
0
ARC
5
d2b
100
AcDbEntity
8
0
100
AcDbCircle
6
CONTINUOUS
62
5
10
79.000000
20
179.400000
40
0.500000
100
AcDbArc
50
89.999999
51
179.999998
0
LINE
5
d2c
100
AcDbEntity
8
0
100
AcDbLine
6
CONTINUOUS
62
5
10
79.000000
20
179.900000
11
123.400000
21
179.900000
0
LINE
5
d2d
100
AcDbEntity
8
0
100
AcDbLine
6
CONTINUOUS
62
5
10
124.600000
20
179.900000
11
126.500000
21
179.900000
0
ARC
5
d2e
100
AcDbEntity
8
0
100
AcDbCircle
6
CONTINUOUS
62
5
10
126.500000
20
179.400000
40
0.500000
100
AcDbArc
50
0.000000
51
89.999999
0
LINE
5
d2f
100
AcDbEntity
8
0
100
AcDbLine
6
CONTINUOUS
62
5
10
127.000000
20
179.400000
11
127.000000
21
160.381898
0
ARC
5
d30
100
AcDbEntity
8
0
100
AcDbCircle
6
CONTINUOUS
62
5
10
126.500000
20
160.381898
40
0.500000
100
AcDbArc
50
-74.744881
51
0.000000
0
POLYLINE
5
d31
100
AcDbEntity
8
0
6
CONTINUOUS
62
5
100
AcDb2dPolyline
66
1
10
0.0
20
0.0
30
0.0
70
0
0
VERTEX
5
d32
100
AcDbEntity
8
0
100
AcDbVertex
100
AcDb2dVertex
62
5
10
126.631559
20
159.899516
0
VERTEX
5
d33
100
AcDbEntity
8
0
100
AcDbVertex
100
AcDb2dVertex
62
5
10
123.000000
20
158.909091
0
VERTEX
5
d34
100
AcDbEntity
8
0
100
AcDbVertex
100
AcDb2dVertex
62
5
10
123.000000
20
141.090909
0
VERTEX
5
d35
100
AcDbEntity
8
0
100
AcDbVertex
100
AcDb2dVertex
62
5
10
126.631559
20
140.100484
0
SEQEND
5
d36
100
AcDbEntity
8
0
0
ARC
5
d37
100
AcDbEntity
8
0
100
AcDbCircle
6
CONTINUOUS
62
5
10
126.842400
20
180.500000
40
0.500000
100
AcDbArc
50
-89.999999
51
0.000000
0
LINE
5
d38
100
AcDbEntity
8
0
100
AcDbLine
6
CONTINUOUS
62
5
10
127.342400
20
180.500000
11
127.342400
21
119.500000
0
ARC
5
d39
100
AcDbEntity
8
0
100
AcDbCircle
6
CONTINUOUS
62
5
10
126.842400
20
119.500000
40
0.500000
100
AcDbArc
50
0.000000
51
89.999999
0
LINE
5
d3a
100
AcDbEntity
8
0
100
AcDbLine
6
CONTINUOUS
62
5
10
126.842400
20
120.000000
11
124.600000
21
120.000000
0
LINE
5
d3b
100
AcDbEntity
8
0
100
AcDbLine
6
CONTINUOUS
62
5
10
123.400000
20
120.000000
11
82.000000
21
120.000000
0
LINE
5
d3c
100
AcDbEntity
8
0
100
AcDbLine
6
CONTINUOUS
62
5
10
80.000000
20
120.000000
11
78.157600
21
120.000000
0
ARC
5
d3d
100
AcDbEntity
8
0
100
AcDbCircle
6
CONTINUOUS
62
5
10
78.157600
20
119.500000
40
0.500000
100
AcDbArc
50
89.999999
51
179.999998
0
LINE
5
d3e
100
AcDbEntity
8
0
100
AcDbLine
6
CONTINUOUS
62
5
10
77.657600
20
119.500000
11
77.657600
21
180.500000
0
ARC
5
d3f
100
AcDbEntity
8
0
100
AcDbCircle
6
CONTINUOUS
62
5
10
78.157600
20
180.500000
40
0.500000
100
AcDbArc
50
179.999998
51
-89.999999
0
LINE
5
d40
100
AcDbEntity
8
0
100
AcDbLine
6
CONTINUOUS
62
5
10
78.157600
20
180.000000
11
80.000000
21
180.000000
0
LINE
5
d41
100
AcDbEntity
8
0
100
AcDbLine
6
CONTINUOUS
62
5
10
82.000000
20
180.000000
11
123.400000
21
180.000000
0
LINE
5
d42
100
AcDbEntity
8
0
100
AcDbLine
6
CONTINUOUS
62
5
10
124.600000
20
180.000000
11
126.842400
21
180.000000
0
ARC
5
d43
100
AcDbEntity
8
0
100
AcDbCircle
6
CONTINUOUS
62
5
10
78.000000
20
197.000000
40
0.500000
100
AcDbArc
50
89.999999
51
179.999998
0
LINE
5
d44
100
AcDbEntity
8
0
100
AcDbLine
6
CONTINUOUS
62
5
10
77.500000
20
197.000000
11
77.500000
21
103.000000
0
ARC
5
d45
100
AcDbEntity
8
0
100
AcDbCircle
6
CONTINUOUS
62
5
10
78.000000
20
103.000000
40
0.500000
100
AcDbArc
50
179.999998
51
-89.999999
0
LINE
5
d46
100
AcDbEntity
8
0
100
AcDbLine
6
CONTINUOUS
62
5
10
78.000000
20
102.500000
11
127.000000
21
102.500000
0
ARC
5
d47
100
AcDbEntity
8
0
100
AcDbCircle
6
CONTINUOUS
62
5
10
127.000000
20
103.000000
40
0.500000
100
AcDbArc
50
-89.999999
51
0.000000
0
LINE
5
d48
100
AcDbEntity
8
0
100
AcDbLine
6
CONTINUOUS
62
5
10
127.500000
20
103.000000
11
127.500000
21
197.000000
0
ARC
5
d49
100
AcDbEntity
8
0
100
AcDbCircle
6
CONTINUOUS
62
5
10
127.000000
20
197.000000
40
0.500000
100
AcDbArc
50
0.000000
51
89.999999
0
LINE
5
d4a
100
AcDbEntity
8
0
100
AcDbLine
6
CONTINUOUS
62
5
10
127.000000
20
197.500000
11
78.000000
21
197.500000
0
ARC
5
d4b
100
AcDbEntity
8
0
100
AcDbCircle
6
CONTINUOUS
62
5
10
183.000000
20
180.590655
40
0.500000
100
AcDbArc
50
179.999998
51
-91.080923
0
LINE
5
d4c
100
AcDbEntity
8
0
100
AcDbLine
6
CONTINUOUS
62
5
10
182.500000
20
180.590655
11
182.500000
21
194.182669
0
ARC
5
d4d
100
AcDbEntity
8
0
100
AcDbCircle
6
CONTINUOUS
62
5
10
183.000000
20
194.182669
40
0.500000
100
AcDbArc
50
120.851885
51
179.999998
0
ARC
5
d4e
100
AcDbEntity
8
0
100
AcDbCircle
6
CONTINUOUS
62
5
10
193.000000
20
177.442000
40
20.000000
100
AcDbArc
50
90.458363
51
120.851885
0
POLYLINE
5
d4f
100
AcDbEntity
8
0
6
CONTINUOUS
62
5
100
AcDb2dPolyline
66
1
10
0.0
20
0.0
30
0.0
70
0
0
VERTEX
5
d50
100
AcDbEntity
8
0
100
AcDbVertex
100
AcDb2dVertex
62
5
10
192.840003
20
197.441360
0
VERTEX
5
d51
100
AcDbEntity
8
0
100
AcDbVertex
100
AcDb2dVertex
62
5
10
207.500000
20
197.500000
0
VERTEX
5
d52
100
AcDbEntity
8
0
100
AcDbVertex
100
AcDb2dVertex
62
5
10
207.500000
20
102.500000
0
VERTEX
5
d53
100
AcDbEntity
8
0
100
AcDbVertex
100
AcDb2dVertex
62
5
10
192.840003
20
102.558640
0
SEQEND
5
d54
100
AcDbEntity
8
0
0
ARC
5
d55
100
AcDbEntity
8
0
100
AcDbCircle
6
CONTINUOUS
62
5
10
193.000000
20
122.558000
40
20.000000
100
AcDbArc
50
-120.851885
51
-90.458363
0
ARC
5
d56
100
AcDbEntity
8
0
100
AcDbCircle
6
CONTINUOUS
62
5
10
183.000000
20
105.817331
40
0.500000
100
AcDbArc
50
179.999998
51
-120.851885
0
LINE
5
d57
100
AcDbEntity
8
0
100
AcDbLine
6
CONTINUOUS
62
5
10
182.500000
20
105.817331
11
182.500000
21
119.409345
0
ARC
5
d58
100
AcDbEntity
8
0
100
AcDbCircle
6
CONTINUOUS
62
5
10
183.000000
20
119.409345
40
0.500000
100
AcDbArc
50
91.080923
51
179.999998
0
POLYLINE
5
d59
100
AcDbEntity
8
0
6
CONTINUOUS
62
5
100
AcDb2dPolyline
66
1
10
0.0
20
0.0
30
0.0
70
0
0
VERTEX
5
d5a
100
AcDbEntity
8
0
100
AcDbVertex
100
AcDb2dVertex
62
5
10
182.990568
20
119.909256
0
VERTEX
5
d5b
100
AcDbEntity
8
0
100
AcDbVertex
100
AcDb2dVertex
62
5
10
187.800000
20
120.000000
0
VERTEX
5
d5c
100
AcDbEntity
8
0
100
AcDbVertex
100
AcDb2dVertex
62
5
10
187.800000
20
180.000000
0
VERTEX
5
d5d
100
AcDbEntity
8
0
100
AcDbVertex
100
AcDb2dVertex
62
5
10
182.990568
20
180.090744
0
SEQEND
5
d5e
100
AcDbEntity
8
0
0
ARC
5
d5f
100
AcDbEntity
8
0
100
AcDbCircle
6
CONTINUOUS
62
5
10
224.385316
20
103.698683
40
1.000000
100
AcDbArc
50
-89.305539
51
-77.592578
0
POLYLINE
5
d60
100
AcDbEntity
8
0
6
CONTINUOUS
62
5
100
AcDb2dPolyline
66
1
10
0.0
20
0.0
30
0.0
70
0
0
VERTEX
5
d61
100
AcDbEntity
8
0
100
AcDbVertex
100
AcDb2dVertex
62
5
10
224.600177
20
102.722039
0
VERTEX
5
d62
100
AcDbEntity
8
0
100
AcDbVertex
100
AcDb2dVertex
62
5
10
234.500000
20
104.900000
0
VERTEX
5
d63
100
AcDbEntity
8
0
100
AcDbVertex
100
AcDb2dVertex
62
5
10
242.006249
20
104.993828
0
SEQEND
5
d64
100
AcDbEntity
8
0
0
ARC
5
d65
100
AcDbEntity
8
0
100
AcDbCircle
6
CONTINUOUS
62
5
10
242.000000
20
105.493789
40
0.500000
100
AcDbArc
50
-89.283841
51
0.000000
0
LINE
5
d66
100
AcDbEntity
8
0
100
AcDbLine
6
CONTINUOUS
62
5
10
242.500000
20
105.493789
11
242.500000
21
194.506211
0
ARC
5
d67
100
AcDbEntity
8
0
100
AcDbCircle
6
CONTINUOUS
62
5
10
242.000000
20
194.506211
40
0.500000
100
AcDbArc
50
0.000000
51
89.283841
0
POLYLINE
5
d68
100
AcDbEntity
8
0
6
CONTINUOUS
62
5
100
AcDb2dPolyline
66
1
10
0.0
20
0.0
30
0.0
70
0
0
VERTEX
5
d69
100
AcDbEntity
8
0
100
AcDbVertex
100
AcDb2dVertex
62
5
10
242.006249
20
195.006172
0
VERTEX
5
d6a
100
AcDbEntity
8
0
100
AcDbVertex
100
AcDb2dVertex
62
5
10
234.500000
20
195.100000
0
VERTEX
5
d6b
100
AcDbEntity
8
0
100
AcDbVertex
100
AcDb2dVertex
62
5
10
224.600177
20
197.277961
0
SEQEND
5
d6c
100
AcDbEntity
8
0
0
ARC
5
d6d
100
AcDbEntity
8
0
100
AcDbCircle
6
CONTINUOUS
62
5
10
224.385316
20
196.301317
40
1.000000
100
AcDbArc
50
77.592578
51
89.305539
0
POLYLINE
5
d6e
100
AcDbEntity
8
0
6
CONTINUOUS
62
5
100
AcDb2dPolyline
66
1
10
0.0
20
0.0
30
0.0
70
0
0
VERTEX
5
d6f
100
AcDbEntity
8
0
100
AcDbVertex
100
AcDb2dVertex
62
5
10
224.397436
20
197.301243
0
VERTEX
5
d70
100
AcDbEntity
8
0
100
AcDbVertex
100
AcDb2dVertex
62
5
10
208.000001
20
197.500000
0
VERTEX
5
d71
100
AcDbEntity
8
0
100
AcDbVertex
100
AcDb2dVertex
62
5
10
208.000001
20
102.500000
0
VERTEX
5
d72
100
AcDbEntity
8
0
100
AcDbVertex
100
AcDb2dVertex
62
5
10
224.397436
20
102.698757
0
SEQEND
5
d73
100
AcDbEntity
8
0
0
POLYLINE
5
d74
100
AcDbEntity
8
1
6
CONTINUOUS
62
5
100
AcDb2dPolyline
66
1
10
0.0
20
0.0
30
0.0
70
1
0
VERTEX
5
d75
100
AcDbEntity
8
1
100
AcDbVertex
100
AcDb2dVertex
62
5
10
0.000000
20
0.000000
0
VERTEX
5
d76
100
AcDbEntity
8
1
100
AcDbVertex
100
AcDb2dVertex
62
5
10
0.000000
20
340.000000
0
VERTEX
5
d77
100
AcDbEntity
8
1
100
AcDbVertex
100
AcDb2dVertex
62
5
10
320.000000
20
340.000000
0
VERTEX
5
d78
100
AcDbEntity
8
1
100
AcDbVertex
100
AcDb2dVertex
62
5
10
320.000000
20
0.000000
0
VERTEX
5
d79
100
AcDbEntity
8
1
100
AcDbVertex
100
AcDb2dVertex
62
5
10
0.000000
20
0.000000
0
SEQEND
5
d7a
100
AcDbEntity
8
1
0
ENDSEC
0
SECTION
2
OBJECTS
0
DICTIONARY
5
d7b
100
AcDbDictionary
3
ACAD_GROUP
350
d7c
3
ACAD_MLINESTYLE
350
d7d
0
DICTIONARY
5
d7c
102
{ACAD_REACTORS
330
d7b
102
}
100
AcDbDictionary
0
DICTIONARY
5
d7d
102
{ACAD_REACTORS
330
d7b
102
}
100
AcDbDictionary
3
STANDARD
350
d7e
0
MLINESTYLE
5
d7e
102
{ACAD_REACTORS
330
d7d
102
}
100
AcDbMlineStyle
2
STANDARD
70
0
3

62
0
51
90.0
52
90.0
71
2
49
0.5
62
256
6
BYLAYER
49
-0.5
62
256
6
BYLAYER
0
ENDSEC
0
EOF
