0
SECTION
2
HEADER
9
$ACADVER
1
AC1012
9
$EXTMIN
10
-0.013701
20
-0.013701
30
0.0
9
$EXTMAX
10
12.606299
20
13.386299
30
0.0
9
$LIMMIN
10
-0.348005
20
-0.348005
9
$LIMMAX
10
320.199995
20
340.011995
9
$DIMSCALE
40
1.000000
9
$PDMODE
70
2
9
$PDSIZE
40
0.0
  9
$HANDSEED
  5
7e6
0
ENDSEC
0
SECTION
2
CLASSES
0
ENDSEC
0
SECTION
2
TABLES
0
TABLE
2
LTYPE
5
1e
100
AcDbSymbolTable
70
12
0
LTYPE
5
1f
100
AcDbSymbolTableRecord
100
AcDbLinetypeTableRecord
2
BYBLOCK
70
0
3

72
65
73
0
40
0.0
0
LTYPE
5
20
100
AcDbSymbolTableRecord
100
AcDbLinetypeTableRecord
2
BYLAYER
70
0
3

72
65
73
0
40
0.0
0
LTYPE
5
21
100
AcDbSymbolTableRecord
100
AcDbLinetypeTableRecord
2
CONTINUOUS
70
64
3
Solid line
72
65
73
0
40
0.0
0
LTYPE
5
22
100
AcDbSymbolTableRecord
100
AcDbLinetypeTableRecord
2
DASHED
70
64
3
__ __ __ __ __ __ __ __ __ __ __ __ __ __ __
72
65
73
2
40
0.75
49
0.5
74
0
49
-0.25
74
0
0
LTYPE
5
23
100
AcDbSymbolTableRecord
100
AcDbLinetypeTableRecord
2
DOT
70
64
3
...............................................
72
65
73
2
40
0.25
49
0.0
74
0
49
-0.25
74
0
0
LTYPE
5
24
100
AcDbSymbolTableRecord
100
AcDbLinetypeTableRecord
2
DASHDOT
70
64
3
__ . __ . __ . __ . __ . __ . __ . __ . __ . --
72
65
73
4
40
1.0
49
0.5
74
0
49
-0.25
74
0
49
0.0
74
0
49
-0.25
74
0
0
LTYPE
5
25
100
AcDbSymbolTableRecord
100
AcDbLinetypeTableRecord
2
CENTER
70
64
3
____ _ ____ _ ____ _ ____ _ ____ _ ____ _ ____
72
65
73
4
40
2.0
49
1.25
74
0
49
-0.25
74
0
49
0.25
74
0
49
-0.25
74
0
0
LTYPE
5
26
100
AcDbSymbolTableRecord
100
AcDbLinetypeTableRecord
2
PHANTOM
70
64
3
_____ _ _ _____ _ _ _____ _ _ _____ _ _ ____
72
65
73
6
40
2.5
49
1.25
74
0
49
-0.25
74
0
49
0.25
74
0
49
-0.25
74
0
49
0.25
74
0
49
-0.25
74
0
0
LTYPE
5
27
100
AcDbSymbolTableRecord
100
AcDbLinetypeTableRecord
2
HIDDEN
70
64
3
_ _ _ _ _ _ _ _ _ _ _ _ _ _ _ _ _ _ _ _ _ _ _
72
65
73
2
40
0.375
49
0.25
74
0
49
-0.125
74
0
0
LTYPE
5
28
100
AcDbSymbolTableRecord
100
AcDbLinetypeTableRecord
2
BORDER
70
64
3
__ __ . __ __ . __ __ . __ __ . __ __ . __ __
72
65
73
6
40
1.75
49
0.5
74
0
49
-0.25
74
0
49
0.5
74
0
49
-0.25
74
0
49
0.0
74
0
49
-0.25
74
0
0
LTYPE
5
29
100
AcDbSymbolTableRecord
100
AcDbLinetypeTableRecord
2
DIVIDE
70
64
3
__ . . __ . . __ . . __ . . __ . . __ . . __
72
65
73
6
40
1.25
49
0.5
74
0
49
-0.25
74
0
49
0.0
74
0
49
-0.25
74
0
49
0.0
74
0
49
-0.25
74
0
0
LTYPE
5
2a
100
AcDbSymbolTableRecord
100
AcDbLinetypeTableRecord
2
DOT2
70
64
3
...............................................
72
65
73
2
40
0.125
49
0.0
74
0
49
-0.125
74
0
0
ENDTAB
0
TABLE
2
STYLE
5
2b
100
AcDbSymbolTable
70
1
0
STYLE
5
2c
100
AcDbSymbolTableRecord
100
AcDbTextStyleTableRecord
2
STANDARD
70
64
40
0.0
41
1.0
50
0.0
71
0
42
5.0
3
txt
4
bigfont
0
ENDTAB
0
TABLE
2
LAYER
5
2d
100
AcDbSymbolTable
70
4
0
LAYER
5
2e
100
AcDbSymbolTableRecord
100
AcDbLayerTableRecord
2
0
70
0
62
7
6
CONTINUOUS
0
LAYER
5
2f
100
AcDbSymbolTableRecord
100
AcDbLayerTableRecord
2
1
70
0
62
7
6
CONTINUOUS
0
LAYER
5
30
100
AcDbSymbolTableRecord
100
AcDbLayerTableRecord
2
3
70
0
62
7
6
CONTINUOUS
0
LAYER
5
31
100
AcDbSymbolTableRecord
100
AcDbLayerTableRecord
2
2
70
0
62
7
6
CONTINUOUS
0
ENDTAB
0
TABLE
2
APPID
5
32
100
AcDbSymbolTable
70
1
0
APPID
5
33
100
AcDbSymbolTableRecord
100
AcDbRegAppTableRecord
2
ACAD
70
64
0
ENDTAB
0
TABLE
2
DIMSTYLE
5
34
100
AcDbSymbolTable
70
0
0
ENDTAB
0
TABLE
2
UCS
5
35
100
AcDbSymbolTable
70
0
0
ENDTAB
0
TABLE
2
VIEW
5
36
100
AcDbSymbolTable
70
0
0
ENDTAB
0
TABLE
2
VPORT
5
37
100
AcDbSymbolTable
70
0
0
ENDTAB
0
TABLE
2
BLOCK_RECORD
5
38
100
AcDbSymbolTable
70
0
0
BLOCK_RECORD
5
39
100
AcDbSymbolTableRecord
100
AcDbBlockTableRecord
2
*MODEL_SPACE
0
BLOCK_RECORD
5
3a
100
AcDbSymbolTableRecord
100
AcDbBlockTableRecord
2
*PAPER_SPACE
0
BLOCK_RECORD
5
3b
100
AcDbSymbolTableRecord
100
AcDbBlockTableRecord
2
OPEN
0
BLOCK_RECORD
5
3c
100
AcDbSymbolTableRecord
100
AcDbBlockTableRecord
2
HALF
0
BLOCK_RECORD
5
3d
100
AcDbSymbolTableRecord
100
AcDbBlockTableRecord
2
CLOSEDBLANK
0
BLOCK_RECORD
5
3e
100
AcDbSymbolTableRecord
100
AcDbBlockTableRecord
2
HALFCLOSE_R
0
BLOCK_RECORD
5
3f
100
AcDbSymbolTableRecord
100
AcDbBlockTableRecord
2
DOT
0
BLOCK_RECORD
5
40
100
AcDbSymbolTableRecord
100
AcDbBlockTableRecord
2
HALFOPEN_R
0
BLOCK_RECORD
5
41
100
AcDbSymbolTableRecord
100
AcDbBlockTableRecord
2
CLOSEDF
0
BLOCK_RECORD
5
42
100
AcDbSymbolTableRecord
100
AcDbBlockTableRecord
2
HALF_R
0
ENDTAB
0
ENDSEC
0
SECTION
2
BLOCKS
0
BLOCK
5
43
100
AcDbEntity
8
0
100
AcDbBlockBegin
2
*MODEL_SPACE
70
0
10
0.0
20
0.0
30
0.0
3
*MODEL_SPACE
1

0
ENDBLK
5
44
100
AcDbEntity
8
0
100
AcDbBlockEnd
0
BLOCK
5
45
100
AcDbEntity
67
1
8
0
100
AcDbBlockBegin
2
*PAPER_SPACE
70
0
10
0.0
20
0.0
30
0.0
3
*PAPER_SPACE
1

0
ENDBLK
5
46
100
AcDbEntity
67
1
8
0
100
AcDbBlockEnd
0
BLOCK
5
47
100
AcDbEntity
8
0
100
AcDbBlockBegin
2
OPEN
70
0
10
0.0
20
0.0
30
0.0
3
OPEN
1

0
LINE
5
48
100
AcDbEntity
8
0
6
BYBLOCK
62
0
100
AcDbLine
10
0.000000
20
0.000000
11
-1.000000
21
0.000000
0
LINE
5
49
100
AcDbEntity
8
0
6
BYBLOCK
62
0
100
AcDbLine
10
-1.000000
20
-0.166667
11
0.000000
21
0.000000
0
LINE
5
4a
100
AcDbEntity
8
0
6
BYBLOCK
62
0
100
AcDbLine
10
-1.000000
20
0.166667
11
0.000000
21
0.000000
0
ENDBLK
5
4b
100
AcDbEntity
8
0
100
AcDbBlockEnd
0
BLOCK
5
4c
100
AcDbEntity
8
0
100
AcDbBlockBegin
2
HALF
70
0
10
0.0
20
0.0
30
0.0
3
HALF
1

0
SOLID
5
4d
100
AcDbEntity
8
0
6
BYBLOCK
62
0
100
AcDbTrace
10
-1.000000
20
0.166667
11
-1.000000
21
-0.166667
12
0.000000
22
0.000000
13
0.000000
23
0.000000
0
ENDBLK
5
4e
100
AcDbEntity
8
0
100
AcDbBlockEnd
0
BLOCK
5
4f
100
AcDbEntity
8
0
100
AcDbBlockBegin
2
CLOSEDBLANK
70
0
10
0.0
20
0.0
30
0.0
3
CLOSEDBLANK
1

0
LINE
5
50
100
AcDbEntity
8
0
6
BYBLOCK
62
0
100
AcDbLine
10
-1.000000
20
0.166667
11
-1.000000
21
-0.166667
0
LINE
5
51
100
AcDbEntity
8
0
6
BYBLOCK
62
0
100
AcDbLine
10
0.000000
20
0.000000
11
-1.000000
21
-0.166667
0
LINE
5
52
100
AcDbEntity
8
0
6
BYBLOCK
62
0
100
AcDbLine
10
-1.000000
20
0.166667
11
0.000000
21
0.000000
0
ENDBLK
5
53
100
AcDbEntity
8
0
100
AcDbBlockEnd
0
BLOCK
5
54
100
AcDbEntity
8
0
100
AcDbBlockBegin
2
HALFCLOSE_R
70
0
10
0.0
20
0.0
30
0.0
3
HALFCLOSE_R
1

0
LINE
5
55
100
AcDbEntity
8
0
6
BYBLOCK
62
0
100
AcDbLine
10
-1.000000
20
-0.166667
11
-1.000000
21
0.000000
0
LINE
5
56
100
AcDbEntity
8
0
6
BYBLOCK
62
0
100
AcDbLine
10
-1.000000
20
-0.166667
11
0.000000
21
0.000000
0
LINE
5
57
100
AcDbEntity
8
0
6
BYBLOCK
62
0
100
AcDbLine
10
0.000000
20
0.000000
11
-1.000000
21
0.000000
0
ENDBLK
5
58
100
AcDbEntity
8
0
100
AcDbBlockEnd
0
BLOCK
5
59
100
AcDbEntity
8
0
100
AcDbBlockBegin
2
DOT
70
0
10
0.0
20
0.0
30
0.0
3
DOT
1

0
LINE
5
5a
100
AcDbEntity
8
0
6
BYBLOCK
62
0
100
AcDbLine
10
0.000000
20
0.000000
11
-1.000000
21
0.000000
0
POLYLINE
5
5b
100
AcDbEntity
8
0
6
BYBLOCK
62
0
100
AcDb2dPolyline
66
1
10
0.0
20
0.0
30
0.0
70
1
40
0.166667
41
0.166667
0
VERTEX
5
5c
100
AcDbEntity
8
0
100
AcDbVertex
100
AcDb2dVertex
62
10
10
-0.083333
20
0.000000
42
1.000000
0
VERTEX
5
5d
100
AcDbEntity
8
0
100
AcDbVertex
100
AcDb2dVertex
62
10
10
0.083333
20
0.000000
42
1.000000
0
SEQEND
5
5e
100
AcDbEntity
8
0
0
ENDBLK
5
5f
100
AcDbEntity
8
0
100
AcDbBlockEnd
0
BLOCK
5
60
100
AcDbEntity
8
0
100
AcDbBlockBegin
2
HALFOPEN_R
70
0
10
0.0
20
0.0
30
0.0
3
HALFOPEN_R
1

0
LINE
5
61
100
AcDbEntity
8
0
6
BYBLOCK
62
0
100
AcDbLine
10
-1.000000
20
-0.166667
11
0.000000
21
0.000000
0
LINE
5
62
100
AcDbEntity
8
0
6
BYBLOCK
62
0
100
AcDbLine
10
0.000000
20
0.000000
11
-1.000000
21
0.000000
0
ENDBLK
5
63
100
AcDbEntity
8
0
100
AcDbBlockEnd
0
BLOCK
5
64
100
AcDbEntity
8
0
100
AcDbBlockBegin
2
CLOSEDF
70
0
10
0.0
20
0.0
30
0.0
3
CLOSEDF
1

0
SOLID
5
65
100
AcDbEntity
8
0
6
BYBLOCK
62
0
100
AcDbTrace
10
-1.000000
20
0.166667
11
-1.000000
21
-0.166667
12
0.000000
22
0.000000
13
0.000000
23
0.000000
0
ENDBLK
5
66
100
AcDbEntity
8
0
100
AcDbBlockEnd
0
BLOCK
5
67
100
AcDbEntity
8
0
100
AcDbBlockBegin
2
HALF_R
70
0
10
0.0
20
0.0
30
0.0
3
HALF_R
1

0
SOLID
5
68
100
AcDbEntity
8
0
6
BYBLOCK
62
0
100
AcDbTrace
10
-1.000000
20
-0.166667
11
-1.000000
21
0.000000
12
0.000000
22
0.000000
13
0.000000
23
0.000000
0
ENDBLK
5
69
100
AcDbEntity
8
0
100
AcDbBlockEnd
0
ENDSEC
0
SECTION
2
ENTITIES
0
POLYLINE
5
6a
100
AcDbEntity
8
1
6
CONTINUOUS
62
5
100
AcDb2dPolyline
66
1
10
0.0
20
0.0
30
0.0
70
0
0
VERTEX
5
6b
100
AcDbEntity
8
1
100
AcDbVertex
100
AcDb2dVertex
62
5
10
271.250000
20
329.312500
0
VERTEX
5
6c
100
AcDbEntity
8
1
100
AcDbVertex
100
AcDb2dVertex
62
5
10
272.000000
20
328.062500
0
VERTEX
5
6d
100
AcDbEntity
8
1
100
AcDbVertex
100
AcDb2dVertex
62
5
10
272.750000
20
326.500000
0
VERTEX
5
6e
100
AcDbEntity
8
1
100
AcDbVertex
100
AcDb2dVertex
62
5
10
273.000000
20
325.250000
0
VERTEX
5
6f
100
AcDbEntity
8
1
100
AcDbVertex
100
AcDb2dVertex
62
5
10
272.750000
20
324.000000
0
VERTEX
5
70
100
AcDbEntity
8
1
100
AcDbVertex
100
AcDb2dVertex
62
5
10
272.250000
20
322.437500
0
VERTEX
5
71
100
AcDbEntity
8
1
100
AcDbVertex
100
AcDb2dVertex
62
5
10
271.250000
20
320.875000
0
SEQEND
5
72
100
AcDbEntity
8
1
0
POLYLINE
5
73
100
AcDbEntity
8
1
6
CONTINUOUS
62
5
100
AcDb2dPolyline
66
1
10
0.0
20
0.0
30
0.0
70
0
0
VERTEX
5
74
100
AcDbEntity
8
1
100
AcDbVertex
100
AcDb2dVertex
62
5
10
262.500000
20
326.812500
0
VERTEX
5
75
100
AcDbEntity
8
1
100
AcDbVertex
100
AcDb2dVertex
62
5
10
262.750000
20
326.187500
0
VERTEX
5
76
100
AcDbEntity
8
1
100
AcDbVertex
100
AcDb2dVertex
62
5
10
262.750000
20
321.500000
0
SEQEND
5
77
100
AcDbEntity
8
1
0
POLYLINE
5
78
100
AcDbEntity
8
1
6
CONTINUOUS
62
5
100
AcDb2dPolyline
66
1
10
0.0
20
0.0
30
0.0
70
0
0
VERTEX
5
79
100
AcDbEntity
8
1
100
AcDbVertex
100
AcDb2dVertex
62
5
10
262.750000
20
326.187500
0
VERTEX
5
7a
100
AcDbEntity
8
1
100
AcDbVertex
100
AcDb2dVertex
62
5
10
263.500000
20
326.812500
0
VERTEX
5
7b
100
AcDbEntity
8
1
100
AcDbVertex
100
AcDb2dVertex
62
5
10
263.750000
20
326.812500
0
VERTEX
5
7c
100
AcDbEntity
8
1
100
AcDbVertex
100
AcDb2dVertex
62
5
10
264.250000
20
326.187500
0
VERTEX
5
7d
100
AcDbEntity
8
1
100
AcDbVertex
100
AcDb2dVertex
62
5
10
264.250000
20
321.500000
0
SEQEND
5
7e
100
AcDbEntity
8
1
0
POLYLINE
5
7f
100
AcDbEntity
8
1
6
CONTINUOUS
62
5
100
AcDb2dPolyline
66
1
10
0.0
20
0.0
30
0.0
70
0
0
VERTEX
5
80
100
AcDbEntity
8
1
100
AcDbVertex
100
AcDb2dVertex
62
5
10
264.250000
20
326.187500
0
VERTEX
5
81
100
AcDbEntity
8
1
100
AcDbVertex
100
AcDb2dVertex
62
5
10
265.000000
20
326.812500
0
VERTEX
5
82
100
AcDbEntity
8
1
100
AcDbVertex
100
AcDb2dVertex
62
5
10
265.250000
20
326.812500
0
VERTEX
5
83
100
AcDbEntity
8
1
100
AcDbVertex
100
AcDb2dVertex
62
5
10
265.750000
20
326.187500
0
VERTEX
5
84
100
AcDbEntity
8
1
100
AcDbVertex
100
AcDb2dVertex
62
5
10
265.750000
20
321.500000
0
SEQEND
5
85
100
AcDbEntity
8
1
0
POLYLINE
5
86
100
AcDbEntity
8
1
6
CONTINUOUS
62
5
100
AcDb2dPolyline
66
1
10
0.0
20
0.0
30
0.0
70
0
0
VERTEX
5
87
100
AcDbEntity
8
1
100
AcDbVertex
100
AcDb2dVertex
62
5
10
266.500000
20
326.812500
0
VERTEX
5
88
100
AcDbEntity
8
1
100
AcDbVertex
100
AcDb2dVertex
62
5
10
266.750000
20
326.187500
0
VERTEX
5
89
100
AcDbEntity
8
1
100
AcDbVertex
100
AcDb2dVertex
62
5
10
266.750000
20
321.500000
0
SEQEND
5
8a
100
AcDbEntity
8
1
0
POLYLINE
5
8b
100
AcDbEntity
8
1
6
CONTINUOUS
62
5
100
AcDb2dPolyline
66
1
10
0.0
20
0.0
30
0.0
70
0
0
VERTEX
5
8c
100
AcDbEntity
8
1
100
AcDbVertex
100
AcDb2dVertex
62
5
10
266.750000
20
326.187500
0
VERTEX
5
8d
100
AcDbEntity
8
1
100
AcDbVertex
100
AcDb2dVertex
62
5
10
267.500000
20
326.812500
0
VERTEX
5
8e
100
AcDbEntity
8
1
100
AcDbVertex
100
AcDb2dVertex
62
5
10
267.750000
20
326.812500
0
VERTEX
5
8f
100
AcDbEntity
8
1
100
AcDbVertex
100
AcDb2dVertex
62
5
10
268.250000
20
326.187500
0
VERTEX
5
90
100
AcDbEntity
8
1
100
AcDbVertex
100
AcDb2dVertex
62
5
10
268.250000
20
321.500000
0
SEQEND
5
91
100
AcDbEntity
8
1
0
POLYLINE
5
92
100
AcDbEntity
8
1
6
CONTINUOUS
62
5
100
AcDb2dPolyline
66
1
10
0.0
20
0.0
30
0.0
70
0
0
VERTEX
5
93
100
AcDbEntity
8
1
100
AcDbVertex
100
AcDb2dVertex
62
5
10
268.250000
20
326.187500
0
VERTEX
5
94
100
AcDbEntity
8
1
100
AcDbVertex
100
AcDb2dVertex
62
5
10
269.000000
20
326.812500
0
VERTEX
5
95
100
AcDbEntity
8
1
100
AcDbVertex
100
AcDb2dVertex
62
5
10
269.250000
20
326.812500
0
VERTEX
5
96
100
AcDbEntity
8
1
100
AcDbVertex
100
AcDb2dVertex
62
5
10
269.750000
20
326.187500
0
VERTEX
5
97
100
AcDbEntity
8
1
100
AcDbVertex
100
AcDb2dVertex
62
5
10
269.750000
20
321.500000
0
SEQEND
5
98
100
AcDbEntity
8
1
0
POLYLINE
5
99
100
AcDbEntity
8
1
6
CONTINUOUS
62
5
100
AcDb2dPolyline
66
1
10
0.0
20
0.0
30
0.0
70
0
0
VERTEX
5
9a
100
AcDbEntity
8
1
100
AcDbVertex
100
AcDb2dVertex
62
5
10
251.500000
20
328.375000
0
VERTEX
5
9b
100
AcDbEntity
8
1
100
AcDbVertex
100
AcDb2dVertex
62
5
10
252.250000
20
329.000000
0
VERTEX
5
9c
100
AcDbEntity
8
1
100
AcDbVertex
100
AcDb2dVertex
62
5
10
252.250000
20
321.500000
0
SEQEND
5
9d
100
AcDbEntity
8
1
0
LINE
5
9e
100
AcDbEntity
8
1
100
AcDbLine
6
CONTINUOUS
62
5
10
251.750000
20
321.500000
11
252.750000
21
321.500000
0
LINE
5
9f
100
AcDbEntity
8
1
100
AcDbLine
6
CONTINUOUS
62
5
10
255.000000
20
329.000000
11
257.250000
21
329.000000
0
POLYLINE
5
a0
100
AcDbEntity
8
1
6
CONTINUOUS
62
5
100
AcDb2dPolyline
66
1
10
0.0
20
0.0
30
0.0
70
0
0
VERTEX
5
a1
100
AcDbEntity
8
1
100
AcDbVertex
100
AcDb2dVertex
62
5
10
255.000000
20
329.000000
0
VERTEX
5
a2
100
AcDbEntity
8
1
100
AcDbVertex
100
AcDb2dVertex
62
5
10
255.000000
20
325.250000
0
VERTEX
5
a3
100
AcDbEntity
8
1
100
AcDbVertex
100
AcDb2dVertex
62
5
10
255.500000
20
325.875000
0
VERTEX
5
a4
100
AcDbEntity
8
1
100
AcDbVertex
100
AcDb2dVertex
62
5
10
256.000000
20
326.187500
0
VERTEX
5
a5
100
AcDbEntity
8
1
100
AcDbVertex
100
AcDb2dVertex
62
5
10
256.750000
20
326.187500
0
VERTEX
5
a6
100
AcDbEntity
8
1
100
AcDbVertex
100
AcDb2dVertex
62
5
10
257.250000
20
325.875000
0
VERTEX
5
a7
100
AcDbEntity
8
1
100
AcDbVertex
100
AcDb2dVertex
62
5
10
257.500000
20
324.937500
0
VERTEX
5
a8
100
AcDbEntity
8
1
100
AcDbVertex
100
AcDb2dVertex
62
5
10
257.500000
20
323.062500
0
VERTEX
5
a9
100
AcDbEntity
8
1
100
AcDbVertex
100
AcDb2dVertex
62
5
10
257.000000
20
322.125000
0
VERTEX
5
aa
100
AcDbEntity
8
1
100
AcDbVertex
100
AcDb2dVertex
62
5
10
256.250000
20
321.500000
0
VERTEX
5
ab
100
AcDbEntity
8
1
100
AcDbVertex
100
AcDb2dVertex
62
5
10
255.000000
20
321.500000
0
SEQEND
5
ac
100
AcDbEntity
8
1
0
POLYLINE
5
ad
100
AcDbEntity
8
1
6
CONTINUOUS
62
5
100
AcDb2dPolyline
66
1
10
0.0
20
0.0
30
0.0
70
1
0
VERTEX
5
ae
100
AcDbEntity
8
1
100
AcDbVertex
100
AcDb2dVertex
62
5
10
260.000000
20
329.000000
0
VERTEX
5
af
100
AcDbEntity
8
1
100
AcDbVertex
100
AcDb2dVertex
62
5
10
260.500000
20
329.000000
0
VERTEX
5
b0
100
AcDbEntity
8
1
100
AcDbVertex
100
AcDb2dVertex
62
5
10
260.750000
20
328.687500
0
VERTEX
5
b1
100
AcDbEntity
8
1
100
AcDbVertex
100
AcDb2dVertex
62
5
10
261.250000
20
327.437500
0
VERTEX
5
b2
100
AcDbEntity
8
1
100
AcDbVertex
100
AcDb2dVertex
62
5
10
261.500000
20
326.187500
0
VERTEX
5
b3
100
AcDbEntity
8
1
100
AcDbVertex
100
AcDb2dVertex
62
5
10
261.500000
20
324.312500
0
VERTEX
5
b4
100
AcDbEntity
8
1
100
AcDbVertex
100
AcDb2dVertex
62
5
10
261.250000
20
323.062500
0
VERTEX
5
b5
100
AcDbEntity
8
1
100
AcDbVertex
100
AcDb2dVertex
62
5
10
260.750000
20
321.812500
0
VERTEX
5
b6
100
AcDbEntity
8
1
100
AcDbVertex
100
AcDb2dVertex
62
5
10
260.500000
20
321.500000
0
VERTEX
5
b7
100
AcDbEntity
8
1
100
AcDbVertex
100
AcDb2dVertex
62
5
10
260.000000
20
321.500000
0
VERTEX
5
b8
100
AcDbEntity
8
1
100
AcDbVertex
100
AcDb2dVertex
62
5
10
259.750000
20
321.812500
0
VERTEX
5
b9
100
AcDbEntity
8
1
100
AcDbVertex
100
AcDb2dVertex
62
5
10
259.250000
20
323.062500
0
VERTEX
5
ba
100
AcDbEntity
8
1
100
AcDbVertex
100
AcDb2dVertex
62
5
10
259.000000
20
324.312500
0
VERTEX
5
bb
100
AcDbEntity
8
1
100
AcDbVertex
100
AcDb2dVertex
62
5
10
259.000000
20
326.187500
0
VERTEX
5
bc
100
AcDbEntity
8
1
100
AcDbVertex
100
AcDb2dVertex
62
5
10
259.250000
20
327.437500
0
VERTEX
5
bd
100
AcDbEntity
8
1
100
AcDbVertex
100
AcDb2dVertex
62
5
10
259.750000
20
328.687500
0
VERTEX
5
be
100
AcDbEntity
8
1
100
AcDbVertex
100
AcDb2dVertex
62
5
10
260.000000
20
329.000000
0
SEQEND
5
bf
100
AcDbEntity
8
1
0
POLYLINE
5
c0
100
AcDbEntity
8
1
6
CONTINUOUS
62
5
100
AcDb2dPolyline
66
1
10
0.0
20
0.0
30
0.0
70
0
0
VERTEX
5
c1
100
AcDbEntity
8
1
100
AcDbVertex
100
AcDb2dVertex
62
5
10
248.500000
20
329.312500
0
VERTEX
5
c2
100
AcDbEntity
8
1
100
AcDbVertex
100
AcDb2dVertex
62
5
10
247.750000
20
328.062500
0
VERTEX
5
c3
100
AcDbEntity
8
1
100
AcDbVertex
100
AcDb2dVertex
62
5
10
247.000000
20
326.500000
0
VERTEX
5
c4
100
AcDbEntity
8
1
100
AcDbVertex
100
AcDb2dVertex
62
5
10
246.750000
20
325.250000
0
VERTEX
5
c5
100
AcDbEntity
8
1
100
AcDbVertex
100
AcDb2dVertex
62
5
10
247.000000
20
324.000000
0
VERTEX
5
c6
100
AcDbEntity
8
1
100
AcDbVertex
100
AcDb2dVertex
62
5
10
247.500000
20
322.437500
0
VERTEX
5
c7
100
AcDbEntity
8
1
100
AcDbVertex
100
AcDb2dVertex
62
5
10
248.500000
20
320.875000
0
SEQEND
5
c8
100
AcDbEntity
8
1
0
POLYLINE
5
c9
100
AcDbEntity
8
1
6
CONTINUOUS
62
5
100
AcDb2dPolyline
66
1
10
0.0
20
0.0
30
0.0
70
0
0
VERTEX
5
ca
100
AcDbEntity
8
1
100
AcDbVertex
100
AcDb2dVertex
62
5
10
236.500000
20
329.312500
0
VERTEX
5
cb
100
AcDbEntity
8
1
100
AcDbVertex
100
AcDb2dVertex
62
5
10
235.500000
20
326.500000
0
VERTEX
5
cc
100
AcDbEntity
8
1
100
AcDbVertex
100
AcDb2dVertex
62
5
10
234.250000
20
324.312500
0
SEQEND
5
cd
100
AcDbEntity
8
1
0
LINE
5
ce
100
AcDbEntity
8
1
100
AcDbLine
6
CONTINUOUS
62
5
10
235.500000
20
326.500000
11
235.500000
21
320.562500
0
LINE
5
cf
100
AcDbEntity
8
1
100
AcDbLine
6
CONTINUOUS
62
5
10
236.250000
20
326.500000
11
241.500000
21
326.500000
0
POLYLINE
5
d0
100
AcDbEntity
8
1
6
CONTINUOUS
62
5
100
AcDb2dPolyline
66
1
10
0.0
20
0.0
30
0.0
70
0
0
VERTEX
5
d1
100
AcDbEntity
8
1
100
AcDbVertex
100
AcDb2dVertex
62
5
10
239.750000
20
329.312500
0
VERTEX
5
d2
100
AcDbEntity
8
1
100
AcDbVertex
100
AcDb2dVertex
62
5
10
239.750000
20
320.875000
0
VERTEX
5
d3
100
AcDbEntity
8
1
100
AcDbVertex
100
AcDb2dVertex
62
5
10
238.250000
20
321.187500
0
SEQEND
5
d4
100
AcDbEntity
8
1
0
LINE
5
d5
100
AcDbEntity
8
1
100
AcDbLine
6
CONTINUOUS
62
5
10
237.250000
20
325.250000
11
238.250000
21
323.375000
0
LINE
5
d6
100
AcDbEntity
8
1
100
AcDbLine
6
CONTINUOUS
62
5
10
221.250000
20
328.687500
11
221.250000
21
321.500000
0
POLYLINE
5
d7
100
AcDbEntity
8
1
6
CONTINUOUS
62
5
100
AcDb2dPolyline
66
1
10
0.0
20
0.0
30
0.0
70
0
0
VERTEX
5
d8
100
AcDbEntity
8
1
100
AcDbVertex
100
AcDb2dVertex
62
5
10
221.250000
20
325.875000
0
VERTEX
5
d9
100
AcDbEntity
8
1
100
AcDbVertex
100
AcDb2dVertex
62
5
10
221.500000
20
325.875000
0
VERTEX
5
da
100
AcDbEntity
8
1
100
AcDbVertex
100
AcDb2dVertex
62
5
10
223.000000
20
324.937500
0
SEQEND
5
db
100
AcDbEntity
8
1
0
LINE
5
dc
100
AcDbEntity
8
1
100
AcDbLine
6
CONTINUOUS
62
5
10
223.250000
20
328.062500
11
223.750000
21
327.437500
0
LINE
5
dd
100
AcDbEntity
8
1
100
AcDbLine
6
CONTINUOUS
62
5
10
224.250000
20
328.687500
11
224.750000
21
328.062500
0
POLYLINE
5
de
100
AcDbEntity
8
1
6
CONTINUOUS
62
5
100
AcDb2dPolyline
66
1
10
0.0
20
0.0
30
0.0
70
0
0
VERTEX
5
df
100
AcDbEntity
8
1
100
AcDbVertex
100
AcDb2dVertex
62
5
10
210.750000
20
325.562500
0
VERTEX
5
e0
100
AcDbEntity
8
1
100
AcDbVertex
100
AcDb2dVertex
62
5
10
211.000000
20
325.250000
0
VERTEX
5
e1
100
AcDbEntity
8
1
100
AcDbVertex
100
AcDb2dVertex
62
5
10
217.750000
20
325.250000
0
SEQEND
5
e2
100
AcDbEntity
8
1
0
LINE
5
e3
100
AcDbEntity
8
1
100
AcDbLine
6
CONTINUOUS
62
5
10
204.250000
20
328.375000
11
204.250000
21
324.625000
0
POLYLINE
5
e4
100
AcDbEntity
8
1
6
CONTINUOUS
62
5
100
AcDb2dPolyline
66
1
10
0.0
20
0.0
30
0.0
70
0
0
VERTEX
5
e5
100
AcDbEntity
8
1
100
AcDbVertex
100
AcDb2dVertex
62
5
10
207.000000
20
328.687500
0
VERTEX
5
e6
100
AcDbEntity
8
1
100
AcDbVertex
100
AcDb2dVertex
62
5
10
207.000000
20
324.937500
0
VERTEX
5
e7
100
AcDbEntity
8
1
100
AcDbVertex
100
AcDb2dVertex
62
5
10
206.750000
20
323.687500
0
VERTEX
5
e8
100
AcDbEntity
8
1
100
AcDbVertex
100
AcDb2dVertex
62
5
10
206.250000
20
322.437500
0
VERTEX
5
e9
100
AcDbEntity
8
1
100
AcDbVertex
100
AcDb2dVertex
62
5
10
205.500000
20
321.500000
0
SEQEND
5
ea
100
AcDbEntity
8
1
0
LINE
5
eb
100
AcDbEntity
8
1
100
AcDbLine
6
CONTINUOUS
62
5
10
194.250000
20
326.500000
11
196.500000
21
326.500000
0
LINE
5
ec
100
AcDbEntity
8
1
100
AcDbLine
6
CONTINUOUS
62
5
10
194.500000
20
321.500000
11
196.500000
21
323.062500
0
LINE
5
ed
100
AcDbEntity
8
1
100
AcDbLine
6
CONTINUOUS
62
5
10
195.500000
20
329.000000
11
195.500000
21
322.125000
0
POLYLINE
5
ee
100
AcDbEntity
8
1
6
CONTINUOUS
62
5
100
AcDb2dPolyline
66
1
10
0.0
20
0.0
30
0.0
70
0
0
VERTEX
5
ef
100
AcDbEntity
8
1
100
AcDbVertex
100
AcDb2dVertex
62
5
10
196.250000
20
324.937500
0
VERTEX
5
f0
100
AcDbEntity
8
1
100
AcDbVertex
100
AcDb2dVertex
62
5
10
200.750000
20
327.750000
0
VERTEX
5
f1
100
AcDbEntity
8
1
100
AcDbVertex
100
AcDb2dVertex
62
5
10
200.750000
20
324.625000
0
VERTEX
5
f2
100
AcDbEntity
8
1
100
AcDbVertex
100
AcDb2dVertex
62
5
10
200.250000
20
324.000000
0
VERTEX
5
f3
100
AcDbEntity
8
1
100
AcDbVertex
100
AcDb2dVertex
62
5
10
199.750000
20
324.000000
0
SEQEND
5
f4
100
AcDbEntity
8
1
0
LINE
5
f5
100
AcDbEntity
8
1
100
AcDbLine
6
CONTINUOUS
62
5
10
198.750000
20
329.312500
11
198.750000
21
322.750000
0
POLYLINE
5
f6
100
AcDbEntity
8
1
6
CONTINUOUS
62
5
100
AcDb2dPolyline
66
1
10
0.0
20
0.0
30
0.0
70
0
0
VERTEX
5
f7
100
AcDbEntity
8
1
100
AcDbVertex
100
AcDb2dVertex
62
5
10
197.250000
20
328.062500
0
VERTEX
5
f8
100
AcDbEntity
8
1
100
AcDbVertex
100
AcDb2dVertex
62
5
10
197.250000
20
321.500000
0
VERTEX
5
f9
100
AcDbEntity
8
1
100
AcDbVertex
100
AcDb2dVertex
62
5
10
197.750000
20
320.875000
0
VERTEX
5
fa
100
AcDbEntity
8
1
100
AcDbVertex
100
AcDb2dVertex
62
5
10
200.750000
20
320.875000
0
VERTEX
5
fb
100
AcDbEntity
8
1
100
AcDbVertex
100
AcDb2dVertex
62
5
10
201.250000
20
321.500000
0
VERTEX
5
fc
100
AcDbEntity
8
1
100
AcDbVertex
100
AcDb2dVertex
62
5
10
201.250000
20
322.437500
0
SEQEND
5
fd
100
AcDbEntity
8
1
0
POLYLINE
5
fe
100
AcDbEntity
8
1
6
CONTINUOUS
62
5
100
AcDb2dPolyline
66
1
10
0.0
20
0.0
30
0.0
70
0
0
VERTEX
5
ff
100
AcDbEntity
8
1
100
AcDbVertex
100
AcDb2dVertex
62
5
10
173.250000
20
326.187500
0
VERTEX
5
100
100
AcDbEntity
8
1
100
AcDbVertex
100
AcDb2dVertex
62
5
10
173.500000
20
326.187500
0
VERTEX
5
101
100
AcDbEntity
8
1
100
AcDbVertex
100
AcDb2dVertex
62
5
10
175.250000
20
324.937500
0
SEQEND
5
102
100
AcDbEntity
8
1
0
LINE
5
103
100
AcDbEntity
8
1
100
AcDbLine
6
CONTINUOUS
62
5
10
173.250000
20
329.000000
11
173.250000
21
321.500000
0
LINE
5
104
100
AcDbEntity
8
1
100
AcDbLine
6
CONTINUOUS
62
5
10
163.750000
20
327.437500
11
164.750000
21
326.187500
0
POLYLINE
5
105
100
AcDbEntity
8
1
6
CONTINUOUS
62
5
100
AcDb2dPolyline
66
1
10
0.0
20
0.0
30
0.0
70
0
0
VERTEX
5
106
100
AcDbEntity
8
1
100
AcDbVertex
100
AcDb2dVertex
62
5
10
163.500000
20
322.437500
0
VERTEX
5
107
100
AcDbEntity
8
1
100
AcDbVertex
100
AcDb2dVertex
62
5
10
165.250000
20
323.375000
0
VERTEX
5
108
100
AcDbEntity
8
1
100
AcDbVertex
100
AcDb2dVertex
62
5
10
166.750000
20
324.625000
0
VERTEX
5
109
100
AcDbEntity
8
1
100
AcDbVertex
100
AcDb2dVertex
62
5
10
168.250000
20
326.187500
0
SEQEND
5
10a
100
AcDbEntity
8
1
0
POLYLINE
5
10b
100
AcDbEntity
8
1
6
CONTINUOUS
62
5
100
AcDb2dPolyline
66
1
10
0.0
20
0.0
30
0.0
70
0
0
VERTEX
5
10c
100
AcDbEntity
8
1
100
AcDbVertex
100
AcDb2dVertex
62
5
10
155.000000
20
325.562500
0
VERTEX
5
10d
100
AcDbEntity
8
1
100
AcDbVertex
100
AcDb2dVertex
62
5
10
160.250000
20
326.187500
0
VERTEX
5
10e
100
AcDbEntity
8
1
100
AcDbVertex
100
AcDb2dVertex
62
5
10
160.250000
20
325.875000
0
VERTEX
5
10f
100
AcDbEntity
8
1
100
AcDbVertex
100
AcDb2dVertex
62
5
10
159.000000
20
324.312500
0
SEQEND
5
110
100
AcDbEntity
8
1
0
POLYLINE
5
111
100
AcDbEntity
8
1
6
CONTINUOUS
62
5
100
AcDb2dPolyline
66
1
10
0.0
20
0.0
30
0.0
70
0
0
VERTEX
5
112
100
AcDbEntity
8
1
100
AcDbVertex
100
AcDb2dVertex
62
5
10
157.000000
20
328.375000
0
VERTEX
5
113
100
AcDbEntity
8
1
100
AcDbVertex
100
AcDb2dVertex
62
5
10
157.000000
20
322.437500
0
VERTEX
5
114
100
AcDbEntity
8
1
100
AcDbVertex
100
AcDb2dVertex
62
5
10
157.500000
20
321.812500
0
VERTEX
5
115
100
AcDbEntity
8
1
100
AcDbVertex
100
AcDb2dVertex
62
5
10
160.250000
20
321.812500
0
SEQEND
5
116
100
AcDbEntity
8
1
0
LINE
5
117
100
AcDbEntity
8
1
100
AcDbLine
6
CONTINUOUS
62
5
10
186.250000
20
327.437500
11
188.500000
21
327.437500
0
POLYLINE
5
118
100
AcDbEntity
8
1
6
CONTINUOUS
62
5
100
AcDb2dPolyline
66
1
10
0.0
20
0.0
30
0.0
70
0
0
VERTEX
5
119
100
AcDbEntity
8
1
100
AcDbVertex
100
AcDb2dVertex
62
5
10
187.500000
20
329.312500
0
VERTEX
5
11a
100
AcDbEntity
8
1
100
AcDbVertex
100
AcDb2dVertex
62
5
10
187.500000
20
321.500000
0
VERTEX
5
11b
100
AcDbEntity
8
1
100
AcDbVertex
100
AcDb2dVertex
62
5
10
187.000000
20
320.875000
0
VERTEX
5
11c
100
AcDbEntity
8
1
100
AcDbVertex
100
AcDb2dVertex
62
5
10
186.500000
20
320.875000
0
SEQEND
5
11d
100
AcDbEntity
8
1
0
LINE
5
11e
100
AcDbEntity
8
1
100
AcDbLine
6
CONTINUOUS
62
5
10
186.500000
20
324.312500
11
188.250000
21
325.562500
0
LINE
5
11f
100
AcDbEntity
8
1
100
AcDbLine
6
CONTINUOUS
62
5
10
189.000000
20
328.375000
11
193.000000
21
328.375000
0
LINE
5
120
100
AcDbEntity
8
1
100
AcDbLine
6
CONTINUOUS
62
5
10
188.750000
20
326.187500
11
193.250000
21
326.187500
0
LINE
5
121
100
AcDbEntity
8
1
100
AcDbLine
6
CONTINUOUS
62
5
10
189.750000
20
328.375000
11
190.500000
21
326.187500
0
LINE
5
122
100
AcDbEntity
8
1
100
AcDbLine
6
CONTINUOUS
62
5
10
191.500000
20
326.187500
11
192.250000
21
328.375000
0
LINE
5
123
100
AcDbEntity
8
1
100
AcDbLine
6
CONTINUOUS
62
5
10
191.000000
20
328.375000
11
191.000000
21
329.625000
0
POLYLINE
5
124
100
AcDbEntity
8
1
6
CONTINUOUS
62
5
100
AcDb2dPolyline
66
1
10
0.0
20
0.0
30
0.0
70
0
0
VERTEX
5
125
100
AcDbEntity
8
1
100
AcDbVertex
100
AcDb2dVertex
62
5
10
191.000000
20
326.187500
0
VERTEX
5
126
100
AcDbEntity
8
1
100
AcDbVertex
100
AcDb2dVertex
62
5
10
189.750000
20
323.062500
0
VERTEX
5
127
100
AcDbEntity
8
1
100
AcDbVertex
100
AcDb2dVertex
62
5
10
191.250000
20
322.750000
0
VERTEX
5
128
100
AcDbEntity
8
1
100
AcDbVertex
100
AcDb2dVertex
62
5
10
192.500000
20
322.125000
0
VERTEX
5
129
100
AcDbEntity
8
1
100
AcDbVertex
100
AcDb2dVertex
62
5
10
193.250000
20
321.187500
0
SEQEND
5
12a
100
AcDbEntity
8
1
0
POLYLINE
5
12b
100
AcDbEntity
8
1
6
CONTINUOUS
62
5
100
AcDb2dPolyline
66
1
10
0.0
20
0.0
30
0.0
70
0
0
VERTEX
5
12c
100
AcDbEntity
8
1
100
AcDbVertex
100
AcDb2dVertex
62
5
10
192.000000
20
324.625000
0
VERTEX
5
12d
100
AcDbEntity
8
1
100
AcDbVertex
100
AcDb2dVertex
62
5
10
191.250000
20
322.750000
0
VERTEX
5
12e
100
AcDbEntity
8
1
100
AcDbVertex
100
AcDb2dVertex
62
5
10
190.500000
20
321.500000
0
VERTEX
5
12f
100
AcDbEntity
8
1
100
AcDbVertex
100
AcDb2dVertex
62
5
10
189.750000
20
321.187500
0
VERTEX
5
130
100
AcDbEntity
8
1
100
AcDbVertex
100
AcDb2dVertex
62
5
10
189.000000
20
321.187500
0
SEQEND
5
131
100
AcDbEntity
8
1
0
LINE
5
132
100
AcDbEntity
8
1
100
AcDbLine
6
CONTINUOUS
62
5
10
189.000000
20
324.625000
11
193.250000
21
324.625000
0
LINE
5
133
100
AcDbEntity
8
1
100
AcDbLine
6
CONTINUOUS
62
5
10
228.000000
20
329.312500
11
227.000000
21
327.750000
0
LINE
5
134
100
AcDbEntity
8
1
100
AcDbLine
6
CONTINUOUS
62
5
10
226.750000
20
328.062500
11
227.750000
21
326.812500
0
LINE
5
135
100
AcDbEntity
8
1
100
AcDbLine
6
CONTINUOUS
62
5
10
228.750000
20
328.375000
11
226.750000
21
325.250000
0
LINE
5
136
100
AcDbEntity
8
1
100
AcDbLine
6
CONTINUOUS
62
5
10
226.500000
20
325.250000
11
229.000000
21
325.250000
0
LINE
5
137
100
AcDbEntity
8
1
100
AcDbLine
6
CONTINUOUS
62
5
10
228.750000
20
326.187500
11
229.250000
21
324.625000
0
LINE
5
138
100
AcDbEntity
8
1
100
AcDbLine
6
CONTINUOUS
62
5
10
228.000000
20
325.250000
11
228.000000
21
320.875000
0
LINE
5
139
100
AcDbEntity
8
1
100
AcDbLine
6
CONTINUOUS
62
5
10
227.250000
20
324.312500
11
226.750000
21
322.437500
0
LINE
5
13a
100
AcDbEntity
8
1
100
AcDbLine
6
CONTINUOUS
62
5
10
228.750000
20
324.312500
11
229.250000
21
322.750000
0
LINE
5
13b
100
AcDbEntity
8
1
100
AcDbLine
6
CONTINUOUS
62
5
10
231.000000
20
329.625000
11
230.500000
21
328.687500
0
POLYLINE
5
13c
100
AcDbEntity
8
1
6
CONTINUOUS
62
5
100
AcDb2dPolyline
66
1
10
0.0
20
0.0
30
0.0
70
1
0
VERTEX
5
13d
100
AcDbEntity
8
1
100
AcDbVertex
100
AcDb2dVertex
62
5
10
229.750000
20
328.687500
0
VERTEX
5
13e
100
AcDbEntity
8
1
100
AcDbVertex
100
AcDb2dVertex
62
5
10
229.750000
20
325.562500
0
VERTEX
5
13f
100
AcDbEntity
8
1
100
AcDbVertex
100
AcDb2dVertex
62
5
10
232.750000
20
325.562500
0
VERTEX
5
140
100
AcDbEntity
8
1
100
AcDbVertex
100
AcDb2dVertex
62
5
10
232.750000
20
328.687500
0
VERTEX
5
141
100
AcDbEntity
8
1
100
AcDbVertex
100
AcDb2dVertex
62
5
10
229.750000
20
328.687500
0
SEQEND
5
142
100
AcDbEntity
8
1
0
LINE
5
143
100
AcDbEntity
8
1
100
AcDbLine
6
CONTINUOUS
62
5
10
229.750000
20
327.125000
11
232.750000
21
327.125000
0
POLYLINE
5
144
100
AcDbEntity
8
1
6
CONTINUOUS
62
5
100
AcDb2dPolyline
66
1
10
0.0
20
0.0
30
0.0
70
0
0
VERTEX
5
145
100
AcDbEntity
8
1
100
AcDbVertex
100
AcDb2dVertex
62
5
10
231.250000
20
325.562500
0
VERTEX
5
146
100
AcDbEntity
8
1
100
AcDbVertex
100
AcDb2dVertex
62
5
10
231.250000
20
321.500000
0
VERTEX
5
147
100
AcDbEntity
8
1
100
AcDbVertex
100
AcDb2dVertex
62
5
10
231.000000
20
321.187500
0
VERTEX
5
148
100
AcDbEntity
8
1
100
AcDbVertex
100
AcDb2dVertex
62
5
10
230.500000
20
321.187500
0
SEQEND
5
149
100
AcDbEntity
8
1
0
POLYLINE
5
14a
100
AcDbEntity
8
1
6
CONTINUOUS
62
5
100
AcDb2dPolyline
66
1
10
0.0
20
0.0
30
0.0
70
0
0
VERTEX
5
14b
100
AcDbEntity
8
1
100
AcDbVertex
100
AcDb2dVertex
62
5
10
229.750000
20
324.312500
0
VERTEX
5
14c
100
AcDbEntity
8
1
100
AcDbVertex
100
AcDb2dVertex
62
5
10
230.750000
20
324.312500
0
VERTEX
5
14d
100
AcDbEntity
8
1
100
AcDbVertex
100
AcDb2dVertex
62
5
10
230.250000
20
322.750000
0
VERTEX
5
14e
100
AcDbEntity
8
1
100
AcDbVertex
100
AcDb2dVertex
62
5
10
229.500000
20
321.812500
0
SEQEND
5
14f
100
AcDbEntity
8
1
0
LINE
5
150
100
AcDbEntity
8
1
100
AcDbLine
6
CONTINUOUS
62
5
10
232.750000
20
324.625000
11
232.000000
21
324.000000
0
POLYLINE
5
151
100
AcDbEntity
8
1
6
CONTINUOUS
62
5
100
AcDb2dPolyline
66
1
10
0.0
20
0.0
30
0.0
70
0
0
VERTEX
5
152
100
AcDbEntity
8
1
100
AcDbVertex
100
AcDb2dVertex
62
5
10
231.500000
20
325.250000
0
VERTEX
5
153
100
AcDbEntity
8
1
100
AcDbVertex
100
AcDb2dVertex
62
5
10
232.250000
20
323.062500
0
VERTEX
5
154
100
AcDbEntity
8
1
100
AcDbVertex
100
AcDb2dVertex
62
5
10
233.500000
20
321.500000
0
SEQEND
5
155
100
AcDbEntity
8
1
0
ARC
5
156
100
AcDbEntity
8
3
100
AcDbCircle
6
CONTINUOUS
62
5
10
221.892386
20
197.350831
40
0.974834
100
AcDbArc
50
31.864963
51
148.189266
0
LINE
5
157
100
AcDbEntity
8
1
100
AcDbLine
6
CONTINUOUS
62
5
10
214.820307
20
184.250000
11
214.820307
21
185.850000
0
LINE
5
158
100
AcDbEntity
8
1
100
AcDbLine
6
CONTINUOUS
62
5
10
212.320307
20
184.250000
11
212.320307
21
185.850000
0
LINE
5
159
100
AcDbEntity
8
3
100
AcDbLine
6
CONTINUOUS
62
5
10
200.420307
20
199.300000
11
198.820307
21
199.300000
0
LINE
5
15a
100
AcDbEntity
8
1
100
AcDbLine
6
CONTINUOUS
62
5
10
198.820307
20
191.750000
11
200.420307
21
191.750000
0
ARC
5
15b
100
AcDbEntity
8
3
100
AcDbCircle
6
CONTINUOUS
62
5
10
218.420307
20
183.250000
40
1.000000
100
AcDbArc
50
0.000000
51
89.999999
0
LINE
5
15c
100
AcDbEntity
8
3
100
AcDbLine
6
CONTINUOUS
62
5
10
205.320308
20
184.250000
11
218.420307
21
184.250000
0
ARC
5
15d
100
AcDbEntity
8
3
100
AcDbCircle
6
CONTINUOUS
62
5
10
217.920306
20
182.246673
40
1.500001
100
AcDbArc
50
0.000011
51
88.999955
0
LINE
5
15e
100
AcDbEntity
8
3
100
AcDbLine
6
CONTINUOUS
62
5
10
205.608502
20
183.961805
11
217.946486
21
183.746445
0
ARC
5
15f
100
AcDbEntity
8
3
100
AcDbCircle
6
CONTINUOUS
62
5
10
218.420307
20
183.250000
40
2.600000
100
AcDbArc
50
67.380134
51
89.999999
0
LINE
5
160
100
AcDbEntity
8
3
100
AcDbLine
6
CONTINUOUS
62
5
10
218.420307
20
185.850000
11
200.920307
21
185.850000
0
ARC
5
161
100
AcDbEntity
8
3
100
AcDbCircle
6
CONTINUOUS
62
5
10
200.920307
20
186.350000
40
0.500000
100
AcDbArc
50
-109.365003
51
-89.999999
0
ARC
5
162
100
AcDbEntity
8
3
100
AcDbCircle
6
CONTINUOUS
62
5
10
218.920307
20
178.750000
40
0.500000
100
AcDbArc
50
0.000000
51
89.999999
0
LINE
5
163
100
AcDbEntity
8
3
100
AcDbLine
6
CONTINUOUS
62
5
10
218.920307
20
179.250000
11
218.420307
21
179.250000
0
ARC
5
164
100
AcDbEntity
8
3
100
AcDbCircle
6
CONTINUOUS
62
5
10
218.920307
20
171.250000
40
0.500000
100
AcDbArc
50
-89.999999
51
0.000000
0
LINE
5
165
100
AcDbEntity
8
3
100
AcDbLine
6
CONTINUOUS
62
5
10
218.420307
20
170.750000
11
218.920307
21
170.750000
0
POLYLINE
5
166
100
AcDbEntity
8
1
6
CONTINUOUS
62
5
100
AcDb2dPolyline
66
1
10
0.0
20
0.0
30
0.0
70
1
0
VERTEX
5
167
100
AcDbEntity
8
1
100
AcDbVertex
100
AcDb2dVertex
62
5
10
218.920307
20
173.000000
0
VERTEX
5
168
100
AcDbEntity
8
1
100
AcDbVertex
100
AcDb2dVertex
62
5
10
223.420307
20
173.000000
0
VERTEX
5
169
100
AcDbEntity
8
1
100
AcDbVertex
100
AcDb2dVertex
62
5
10
223.420307
20
177.000000
0
VERTEX
5
16a
100
AcDbEntity
8
1
100
AcDbVertex
100
AcDb2dVertex
62
5
10
218.920307
20
177.000000
0
SEQEND
5
16b
100
AcDbEntity
8
1
0
ARC
5
16c
100
AcDbEntity
8
3
100
AcDbCircle
6
CONTINUOUS
62
5
10
221.891900
20
198.377780
40
0.974026
100
AcDbArc
50
-148.211668
51
-31.734084
0
ARC
5
16d
100
AcDbEntity
8
3
100
AcDbCircle
6
CONTINUOUS
62
5
10
220.236056
20
197.351580
40
0.974026
100
AcDbArc
50
31.788320
51
146.877235
0
LINE
5
16e
100
AcDbEntity
8
3
100
AcDbLine
6
CONTINUOUS
62
5
10
219.420308
20
197.883822
11
219.420307
21
177.000000
0
LINE
5
16f
100
AcDbEntity
8
3
100
AcDbLine
6
CONTINUOUS
62
5
10
222.720307
20
177.000000
11
222.720308
21
197.865464
0
ARC
5
170
100
AcDbEntity
8
3
100
AcDbCircle
6
CONTINUOUS
62
5
10
200.334370
20
181.657716
40
2.314063
100
AcDbArc
50
179.999998
51
-130.865656
0
LINE
5
171
100
AcDbEntity
8
3
100
AcDbLine
6
CONTINUOUS
62
5
10
198.020307
20
181.657716
11
198.020307
21
193.000000
0
ARC
5
172
100
AcDbEntity
8
3
100
AcDbCircle
6
CONTINUOUS
62
5
10
200.334370
20
193.000000
40
2.314063
100
AcDbArc
50
130.865656
51
179.999998
0
LINE
5
173
100
AcDbEntity
8
1
100
AcDbLine
6
CONTINUOUS
62
5
10
203.820307
20
185.048893
11
203.820307
21
166.050953
0
POLYLINE
5
174
100
AcDbEntity
8
3
6
CONTINUOUS
62
5
100
AcDb2dPolyline
66
1
10
0.0
20
0.0
30
0.0
70
0
0
VERTEX
5
175
100
AcDbEntity
8
3
100
AcDbVertex
100
AcDb2dVertex
62
5
10
198.820307
20
197.350000
0
VERTEX
5
176
100
AcDbEntity
8
3
100
AcDbVertex
100
AcDb2dVertex
62
5
10
197.720307
20
197.350000
0
VERTEX
5
177
100
AcDbEntity
8
3
100
AcDbVertex
100
AcDb2dVertex
62
5
10
197.720307
20
203.650000
0
VERTEX
5
178
100
AcDbEntity
8
3
100
AcDbVertex
100
AcDb2dVertex
62
5
10
198.820307
20
203.650000
0
SEQEND
5
179
100
AcDbEntity
8
3
0
POLYLINE
5
17a
100
AcDbEntity
8
1
6
CONTINUOUS
62
5
100
AcDb2dPolyline
66
1
10
0.0
20
0.0
30
0.0
70
0
0
VERTEX
5
17b
100
AcDbEntity
8
1
100
AcDbVertex
100
AcDb2dVertex
62
5
10
132.500000
20
328.062500
0
VERTEX
5
17c
100
AcDbEntity
8
1
100
AcDbVertex
100
AcDb2dVertex
62
5
10
132.500000
20
326.187500
0
VERTEX
5
17d
100
AcDbEntity
8
1
100
AcDbVertex
100
AcDb2dVertex
62
5
10
132.250000
20
324.625000
0
VERTEX
5
17e
100
AcDbEntity
8
1
100
AcDbVertex
100
AcDb2dVertex
62
5
10
131.750000
20
323.375000
0
VERTEX
5
17f
100
AcDbEntity
8
1
100
AcDbVertex
100
AcDb2dVertex
62
5
10
131.000000
20
322.125000
0
VERTEX
5
180
100
AcDbEntity
8
1
100
AcDbVertex
100
AcDb2dVertex
62
5
10
130.750000
20
321.812500
0
SEQEND
5
181
100
AcDbEntity
8
1
0
POLYLINE
5
182
100
AcDbEntity
8
1
6
CONTINUOUS
62
5
100
AcDb2dPolyline
66
1
10
0.0
20
0.0
30
0.0
70
0
0
VERTEX
5
183
100
AcDbEntity
8
1
100
AcDbVertex
100
AcDb2dVertex
62
5
10
134.000000
20
328.375000
0
VERTEX
5
184
100
AcDbEntity
8
1
100
AcDbVertex
100
AcDb2dVertex
62
5
10
134.000000
20
322.125000
0
VERTEX
5
185
100
AcDbEntity
8
1
100
AcDbVertex
100
AcDb2dVertex
62
5
10
134.750000
20
322.437500
0
VERTEX
5
186
100
AcDbEntity
8
1
100
AcDbVertex
100
AcDb2dVertex
62
5
10
135.750000
20
323.375000
0
VERTEX
5
187
100
AcDbEntity
8
1
100
AcDbVertex
100
AcDb2dVertex
62
5
10
136.500000
20
324.312500
0
VERTEX
5
188
100
AcDbEntity
8
1
100
AcDbVertex
100
AcDb2dVertex
62
5
10
137.000000
20
325.250000
0
SEQEND
5
189
100
AcDbEntity
8
1
0
POLYLINE
5
18a
100
AcDbEntity
8
1
6
CONTINUOUS
62
5
100
AcDb2dPolyline
66
1
10
0.0
20
0.0
30
0.0
70
0
0
VERTEX
5
18b
100
AcDbEntity
8
1
100
AcDbVertex
100
AcDb2dVertex
62
5
10
139.750000
20
327.125000
0
VERTEX
5
18c
100
AcDbEntity
8
1
100
AcDbVertex
100
AcDb2dVertex
62
5
10
143.750000
20
327.125000
0
VERTEX
5
18d
100
AcDbEntity
8
1
100
AcDbVertex
100
AcDb2dVertex
62
5
10
143.750000
20
322.750000
0
VERTEX
5
18e
100
AcDbEntity
8
1
100
AcDbVertex
100
AcDb2dVertex
62
5
10
139.750000
20
322.750000
0
SEQEND
5
18f
100
AcDbEntity
8
1
0
POLYLINE
5
190
100
AcDbEntity
8
1
6
CONTINUOUS
62
5
100
AcDb2dPolyline
66
1
10
0.0
20
0.0
30
0.0
70
0
0
VERTEX
5
191
100
AcDbEntity
8
1
100
AcDbVertex
100
AcDb2dVertex
62
5
10
123.250000
20
327.125000
0
VERTEX
5
192
100
AcDbEntity
8
1
100
AcDbVertex
100
AcDb2dVertex
62
5
10
127.000000
20
327.125000
0
VERTEX
5
193
100
AcDbEntity
8
1
100
AcDbVertex
100
AcDb2dVertex
62
5
10
127.000000
20
326.187500
0
VERTEX
5
194
100
AcDbEntity
8
1
100
AcDbVertex
100
AcDb2dVertex
62
5
10
126.750000
20
324.937500
0
VERTEX
5
195
100
AcDbEntity
8
1
100
AcDbVertex
100
AcDb2dVertex
62
5
10
126.250000
20
324.000000
0
VERTEX
5
196
100
AcDbEntity
8
1
100
AcDbVertex
100
AcDb2dVertex
62
5
10
125.750000
20
323.062500
0
VERTEX
5
197
100
AcDbEntity
8
1
100
AcDbVertex
100
AcDb2dVertex
62
5
10
124.250000
20
321.812500
0
SEQEND
5
198
100
AcDbEntity
8
1
0
LINE
5
199
100
AcDbEntity
8
1
100
AcDbLine
6
CONTINUOUS
62
5
10
127.500000
20
328.375000
11
128.250000
21
327.437500
0
LINE
5
19a
100
AcDbEntity
8
1
100
AcDbLine
6
CONTINUOUS
62
5
10
128.500000
20
329.000000
11
129.000000
21
328.062500
0
POLYLINE
5
19b
100
AcDbEntity
8
1
6
CONTINUOUS
62
5
100
AcDb2dPolyline
66
1
10
0.0
20
0.0
30
0.0
70
0
0
VERTEX
5
19c
100
AcDbEntity
8
1
100
AcDbVertex
100
AcDb2dVertex
62
5
10
125.250000
20
319.625000
0
VERTEX
5
19d
100
AcDbEntity
8
1
100
AcDbVertex
100
AcDb2dVertex
62
5
10
124.500000
20
318.375000
0
VERTEX
5
19e
100
AcDbEntity
8
1
100
AcDbVertex
100
AcDb2dVertex
62
5
10
123.750000
20
317.437500
0
VERTEX
5
19f
100
AcDbEntity
8
1
100
AcDbVertex
100
AcDb2dVertex
62
5
10
122.750000
20
316.500000
0
SEQEND
5
1a0
100
AcDbEntity
8
1
0
POLYLINE
5
1a1
100
AcDbEntity
8
1
6
CONTINUOUS
62
5
100
AcDb2dPolyline
66
1
10
0.0
20
0.0
30
0.0
70
0
0
VERTEX
5
1a2
100
AcDbEntity
8
1
100
AcDbVertex
100
AcDb2dVertex
62
5
10
125.000000
20
319.000000
0
VERTEX
5
1a3
100
AcDbEntity
8
1
100
AcDbVertex
100
AcDb2dVertex
62
5
10
127.250000
20
319.000000
0
VERTEX
5
1a4
100
AcDbEntity
8
1
100
AcDbVertex
100
AcDb2dVertex
62
5
10
126.000000
20
317.125000
0
SEQEND
5
1a5
100
AcDbEntity
8
1
0
POLYLINE
5
1a6
100
AcDbEntity
8
1
6
CONTINUOUS
62
5
100
AcDb2dPolyline
66
1
10
0.0
20
0.0
30
0.0
70
0
0
VERTEX
5
1a7
100
AcDbEntity
8
1
100
AcDbVertex
100
AcDb2dVertex
62
5
10
123.750000
20
317.125000
0
VERTEX
5
1a8
100
AcDbEntity
8
1
100
AcDbVertex
100
AcDb2dVertex
62
5
10
128.250000
20
317.125000
0
VERTEX
5
1a9
100
AcDbEntity
8
1
100
AcDbVertex
100
AcDb2dVertex
62
5
10
128.250000
20
314.312500
0
VERTEX
5
1aa
100
AcDbEntity
8
1
100
AcDbVertex
100
AcDb2dVertex
62
5
10
123.750000
20
314.312500
0
SEQEND
5
1ab
100
AcDbEntity
8
1
0
LINE
5
1ac
100
AcDbEntity
8
1
100
AcDbLine
6
CONTINUOUS
62
5
10
126.000000
20
317.125000
11
126.000000
21
314.312500
0
POLYLINE
5
1ad
100
AcDbEntity
8
1
6
CONTINUOUS
62
5
100
AcDb2dPolyline
66
1
10
0.0
20
0.0
30
0.0
70
0
0
VERTEX
5
1ae
100
AcDbEntity
8
1
100
AcDbVertex
100
AcDb2dVertex
62
5
10
123.750000
20
317.125000
0
VERTEX
5
1af
100
AcDbEntity
8
1
100
AcDbVertex
100
AcDb2dVertex
62
5
10
123.750000
20
311.812500
0
VERTEX
5
1b0
100
AcDbEntity
8
1
100
AcDbVertex
100
AcDb2dVertex
62
5
10
124.250000
20
311.187500
0
VERTEX
5
1b1
100
AcDbEntity
8
1
100
AcDbVertex
100
AcDb2dVertex
62
5
10
129.250000
20
311.187500
0
VERTEX
5
1b2
100
AcDbEntity
8
1
100
AcDbVertex
100
AcDb2dVertex
62
5
10
129.250000
20
312.437500
0
SEQEND
5
1b3
100
AcDbEntity
8
1
0
POLYLINE
5
1b4
100
AcDbEntity
8
1
6
CONTINUOUS
62
5
100
AcDb2dPolyline
66
1
10
0.0
20
0.0
30
0.0
70
0
0
VERTEX
5
1b5
100
AcDbEntity
8
1
100
AcDbVertex
100
AcDb2dVertex
62
5
10
117.250000
20
316.187500
0
VERTEX
5
1b6
100
AcDbEntity
8
1
100
AcDbVertex
100
AcDb2dVertex
62
5
10
117.500000
20
316.187500
0
VERTEX
5
1b7
100
AcDbEntity
8
1
100
AcDbVertex
100
AcDb2dVertex
62
5
10
119.250000
20
314.937500
0
SEQEND
5
1b8
100
AcDbEntity
8
1
0
LINE
5
1b9
100
AcDbEntity
8
1
100
AcDbLine
6
CONTINUOUS
62
5
10
117.250000
20
319.000000
11
117.250000
21
311.500000
0
LINE
5
1ba
100
AcDbEntity
8
1
100
AcDbLine
6
CONTINUOUS
62
5
10
117.250000
20
327.125000
11
119.750000
21
327.125000
0
POLYLINE
5
1bb
100
AcDbEntity
8
1
6
CONTINUOUS
62
5
100
AcDb2dPolyline
66
1
10
0.0
20
0.0
30
0.0
70
0
0
VERTEX
5
1bc
100
AcDbEntity
8
1
100
AcDbVertex
100
AcDb2dVertex
62
5
10
117.250000
20
327.125000
0
VERTEX
5
1bd
100
AcDbEntity
8
1
100
AcDbVertex
100
AcDb2dVertex
62
5
10
116.500000
20
325.875000
0
VERTEX
5
1be
100
AcDbEntity
8
1
100
AcDbVertex
100
AcDb2dVertex
62
5
10
115.750000
20
324.937500
0
SEQEND
5
1bf
100
AcDbEntity
8
1
0
POLYLINE
5
1c0
100
AcDbEntity
8
1
6
CONTINUOUS
62
5
100
AcDb2dPolyline
66
1
10
0.0
20
0.0
30
0.0
70
0
0
VERTEX
5
1c1
100
AcDbEntity
8
1
100
AcDbVertex
100
AcDb2dVertex
62
5
10
119.750000
20
327.125000
0
VERTEX
5
1c2
100
AcDbEntity
8
1
100
AcDbVertex
100
AcDb2dVertex
62
5
10
120.000000
20
326.812500
0
VERTEX
5
1c3
100
AcDbEntity
8
1
100
AcDbVertex
100
AcDb2dVertex
62
5
10
119.500000
20
325.875000
0
VERTEX
5
1c4
100
AcDbEntity
8
1
100
AcDbVertex
100
AcDb2dVertex
62
5
10
118.750000
20
324.312500
0
VERTEX
5
1c5
100
AcDbEntity
8
1
100
AcDbVertex
100
AcDb2dVertex
62
5
10
117.500000
20
322.750000
0
VERTEX
5
1c6
100
AcDbEntity
8
1
100
AcDbVertex
100
AcDb2dVertex
62
5
10
116.000000
20
321.500000
0
SEQEND
5
1c7
100
AcDbEntity
8
1
0
LINE
5
1c8
100
AcDbEntity
8
1
100
AcDbLine
6
CONTINUOUS
62
5
10
117.250000
20
325.250000
11
118.250000
21
323.687500
0
LINE
5
1c9
100
AcDbEntity
8
1
100
AcDbLine
6
CONTINUOUS
62
5
10
119.750000
20
328.687500
11
120.500000
21
327.750000
0
LINE
5
1ca
100
AcDbEntity
8
1
100
AcDbLine
6
CONTINUOUS
62
5
10
120.500000
20
329.312500
11
121.250000
21
328.375000
0
LINE
5
1cb
100
AcDbEntity
8
1
100
AcDbLine
6
CONTINUOUS
62
5
10
91.000000
20
329.000000
11
92.000000
21
328.062500
0
POLYLINE
5
1cc
100
AcDbEntity
8
1
6
CONTINUOUS
62
5
100
AcDb2dPolyline
66
1
10
0.0
20
0.0
30
0.0
70
0
0
VERTEX
5
1cd
100
AcDbEntity
8
1
100
AcDbVertex
100
AcDb2dVertex
62
5
10
90.750000
20
325.875000
0
VERTEX
5
1ce
100
AcDbEntity
8
1
100
AcDbVertex
100
AcDb2dVertex
62
5
10
92.000000
20
325.875000
0
VERTEX
5
1cf
100
AcDbEntity
8
1
100
AcDbVertex
100
AcDb2dVertex
62
5
10
92.000000
20
322.750000
0
VERTEX
5
1d0
100
AcDbEntity
8
1
100
AcDbVertex
100
AcDb2dVertex
62
5
10
90.750000
20
321.187500
0
SEQEND
5
1d1
100
AcDbEntity
8
1
0
POLYLINE
5
1d2
100
AcDbEntity
8
1
6
CONTINUOUS
62
5
100
AcDb2dPolyline
66
1
10
0.0
20
0.0
30
0.0
70
0
0
VERTEX
5
1d3
100
AcDbEntity
8
1
100
AcDbVertex
100
AcDb2dVertex
62
5
10
92.000000
20
322.750000
0
VERTEX
5
1d4
100
AcDbEntity
8
1
100
AcDbVertex
100
AcDb2dVertex
62
5
10
92.750000
20
321.500000
0
VERTEX
5
1d5
100
AcDbEntity
8
1
100
AcDbVertex
100
AcDb2dVertex
62
5
10
93.750000
20
321.187500
0
VERTEX
5
1d6
100
AcDbEntity
8
1
100
AcDbVertex
100
AcDb2dVertex
62
5
10
97.500000
20
321.187500
0
SEQEND
5
1d7
100
AcDbEntity
8
1
0
POLYLINE
5
1d8
100
AcDbEntity
8
1
6
CONTINUOUS
62
5
100
AcDb2dPolyline
66
1
10
0.0
20
0.0
30
0.0
70
0
0
VERTEX
5
1d9
100
AcDbEntity
8
1
100
AcDbVertex
100
AcDb2dVertex
62
5
10
94.750000
20
326.500000
0
VERTEX
5
1da
100
AcDbEntity
8
1
100
AcDbVertex
100
AcDb2dVertex
62
5
10
94.000000
20
324.625000
0
VERTEX
5
1db
100
AcDbEntity
8
1
100
AcDbVertex
100
AcDb2dVertex
62
5
10
93.250000
20
323.375000
0
VERTEX
5
1dc
100
AcDbEntity
8
1
100
AcDbVertex
100
AcDb2dVertex
62
5
10
92.750000
20
322.750000
0
SEQEND
5
1dd
100
AcDbEntity
8
1
0
POLYLINE
5
1de
100
AcDbEntity
8
1
6
CONTINUOUS
62
5
100
AcDb2dPolyline
66
1
10
0.0
20
0.0
30
0.0
70
0
0
VERTEX
5
1df
100
AcDbEntity
8
1
100
AcDbVertex
100
AcDb2dVertex
62
5
10
93.500000
20
329.312500
0
VERTEX
5
1e0
100
AcDbEntity
8
1
100
AcDbVertex
100
AcDb2dVertex
62
5
10
94.750000
20
329.312500
0
VERTEX
5
1e1
100
AcDbEntity
8
1
100
AcDbVertex
100
AcDb2dVertex
62
5
10
94.750000
20
326.500000
0
VERTEX
5
1e2
100
AcDbEntity
8
1
100
AcDbVertex
100
AcDb2dVertex
62
5
10
95.500000
20
324.625000
0
VERTEX
5
1e3
100
AcDbEntity
8
1
100
AcDbVertex
100
AcDb2dVertex
62
5
10
96.500000
20
323.375000
0
VERTEX
5
1e4
100
AcDbEntity
8
1
100
AcDbVertex
100
AcDb2dVertex
62
5
10
97.250000
20
322.750000
0
SEQEND
5
1e5
100
AcDbEntity
8
1
0
LINE
5
1e6
100
AcDbEntity
8
1
100
AcDbLine
6
CONTINUOUS
62
5
10
98.250000
20
327.437500
11
100.500000
21
327.437500
0
POLYLINE
5
1e7
100
AcDbEntity
8
1
6
CONTINUOUS
62
5
100
AcDb2dPolyline
66
1
10
0.0
20
0.0
30
0.0
70
0
0
VERTEX
5
1e8
100
AcDbEntity
8
1
100
AcDbVertex
100
AcDb2dVertex
62
5
10
99.500000
20
329.312500
0
VERTEX
5
1e9
100
AcDbEntity
8
1
100
AcDbVertex
100
AcDb2dVertex
62
5
10
99.500000
20
321.500000
0
VERTEX
5
1ea
100
AcDbEntity
8
1
100
AcDbVertex
100
AcDb2dVertex
62
5
10
99.000000
20
320.875000
0
VERTEX
5
1eb
100
AcDbEntity
8
1
100
AcDbVertex
100
AcDb2dVertex
62
5
10
98.500000
20
320.875000
0
SEQEND
5
1ec
100
AcDbEntity
8
1
0
LINE
5
1ed
100
AcDbEntity
8
1
100
AcDbLine
6
CONTINUOUS
62
5
10
98.500000
20
324.312500
11
100.250000
21
325.562500
0
LINE
5
1ee
100
AcDbEntity
8
1
100
AcDbLine
6
CONTINUOUS
62
5
10
101.000000
20
328.375000
11
105.000000
21
328.375000
0
LINE
5
1ef
100
AcDbEntity
8
1
100
AcDbLine
6
CONTINUOUS
62
5
10
100.750000
20
326.187500
11
105.250000
21
326.187500
0
LINE
5
1f0
100
AcDbEntity
8
1
100
AcDbLine
6
CONTINUOUS
62
5
10
101.750000
20
328.375000
11
102.500000
21
326.187500
0
LINE
5
1f1
100
AcDbEntity
8
1
100
AcDbLine
6
CONTINUOUS
62
5
10
103.500000
20
326.187500
11
104.250000
21
328.375000
0
LINE
5
1f2
100
AcDbEntity
8
1
100
AcDbLine
6
CONTINUOUS
62
5
10
103.000000
20
328.375000
11
103.000000
21
329.625000
0
POLYLINE
5
1f3
100
AcDbEntity
8
1
6
CONTINUOUS
62
5
100
AcDb2dPolyline
66
1
10
0.0
20
0.0
30
0.0
70
0
0
VERTEX
5
1f4
100
AcDbEntity
8
1
100
AcDbVertex
100
AcDb2dVertex
62
5
10
103.000000
20
326.187500
0
VERTEX
5
1f5
100
AcDbEntity
8
1
100
AcDbVertex
100
AcDb2dVertex
62
5
10
101.750000
20
323.062500
0
VERTEX
5
1f6
100
AcDbEntity
8
1
100
AcDbVertex
100
AcDb2dVertex
62
5
10
103.250000
20
322.750000
0
VERTEX
5
1f7
100
AcDbEntity
8
1
100
AcDbVertex
100
AcDb2dVertex
62
5
10
104.500000
20
322.125000
0
VERTEX
5
1f8
100
AcDbEntity
8
1
100
AcDbVertex
100
AcDb2dVertex
62
5
10
105.250000
20
321.187500
0
SEQEND
5
1f9
100
AcDbEntity
8
1
0
POLYLINE
5
1fa
100
AcDbEntity
8
1
6
CONTINUOUS
62
5
100
AcDb2dPolyline
66
1
10
0.0
20
0.0
30
0.0
70
0
0
VERTEX
5
1fb
100
AcDbEntity
8
1
100
AcDbVertex
100
AcDb2dVertex
62
5
10
104.000000
20
324.625000
0
VERTEX
5
1fc
100
AcDbEntity
8
1
100
AcDbVertex
100
AcDb2dVertex
62
5
10
103.250000
20
322.750000
0
VERTEX
5
1fd
100
AcDbEntity
8
1
100
AcDbVertex
100
AcDb2dVertex
62
5
10
102.500000
20
321.500000
0
VERTEX
5
1fe
100
AcDbEntity
8
1
100
AcDbVertex
100
AcDb2dVertex
62
5
10
101.750000
20
321.187500
0
VERTEX
5
1ff
100
AcDbEntity
8
1
100
AcDbVertex
100
AcDb2dVertex
62
5
10
101.000000
20
321.187500
0
SEQEND
5
200
100
AcDbEntity
8
1
0
LINE
5
201
100
AcDbEntity
8
1
100
AcDbLine
6
CONTINUOUS
62
5
10
101.000000
20
324.625000
11
105.250000
21
324.625000
0
LINE
5
202
100
AcDbEntity
8
1
100
AcDbLine
6
CONTINUOUS
62
5
10
91.250000
20
316.187500
11
96.250000
21
316.187500
0
POLYLINE
5
203
100
AcDbEntity
8
1
6
CONTINUOUS
62
5
100
AcDb2dPolyline
66
1
10
0.0
20
0.0
30
0.0
70
0
0
VERTEX
5
204
100
AcDbEntity
8
1
100
AcDbVertex
100
AcDb2dVertex
62
5
10
93.750000
20
318.062500
0
VERTEX
5
205
100
AcDbEntity
8
1
100
AcDbVertex
100
AcDb2dVertex
62
5
10
93.750000
20
311.812500
0
VERTEX
5
206
100
AcDbEntity
8
1
100
AcDbVertex
100
AcDb2dVertex
62
5
10
93.250000
20
311.812500
0
SEQEND
5
207
100
AcDbEntity
8
1
0
LINE
5
208
100
AcDbEntity
8
1
100
AcDbLine
6
CONTINUOUS
62
5
10
92.500000
20
314.625000
11
91.250000
21
312.750000
0
LINE
5
209
100
AcDbEntity
8
1
100
AcDbLine
6
CONTINUOUS
62
5
10
95.250000
20
314.625000
11
96.500000
21
313.062500
0
POLYLINE
5
20a
100
AcDbEntity
8
1
6
CONTINUOUS
62
5
100
AcDb2dPolyline
66
1
10
0.0
20
0.0
30
0.0
70
0
0
VERTEX
5
20b
100
AcDbEntity
8
1
100
AcDbVertex
100
AcDb2dVertex
62
5
10
99.750000
20
315.562500
0
VERTEX
5
20c
100
AcDbEntity
8
1
100
AcDbVertex
100
AcDb2dVertex
62
5
10
99.750000
20
317.750000
0
VERTEX
5
20d
100
AcDbEntity
8
1
100
AcDbVertex
100
AcDb2dVertex
62
5
10
103.750000
20
317.750000
0
VERTEX
5
20e
100
AcDbEntity
8
1
100
AcDbVertex
100
AcDb2dVertex
62
5
10
103.750000
20
316.812500
0
VERTEX
5
20f
100
AcDbEntity
8
1
100
AcDbVertex
100
AcDb2dVertex
62
5
10
103.500000
20
315.250000
0
VERTEX
5
210
100
AcDbEntity
8
1
100
AcDbVertex
100
AcDb2dVertex
62
5
10
103.000000
20
314.000000
0
VERTEX
5
211
100
AcDbEntity
8
1
100
AcDbVertex
100
AcDb2dVertex
62
5
10
102.500000
20
313.062500
0
VERTEX
5
212
100
AcDbEntity
8
1
100
AcDbVertex
100
AcDb2dVertex
62
5
10
101.500000
20
311.812500
0
SEQEND
5
213
100
AcDbEntity
8
1
0
POLYLINE
5
214
100
AcDbEntity
8
1
6
CONTINUOUS
62
5
100
AcDb2dPolyline
66
1
10
0.0
20
0.0
30
0.0
70
0
0
VERTEX
5
215
100
AcDbEntity
8
1
100
AcDbVertex
100
AcDb2dVertex
62
5
10
83.000000
20
317.437500
0
VERTEX
5
216
100
AcDbEntity
8
1
100
AcDbVertex
100
AcDb2dVertex
62
5
10
88.250000
20
317.437500
0
VERTEX
5
217
100
AcDbEntity
8
1
100
AcDbVertex
100
AcDb2dVertex
62
5
10
88.250000
20
317.125000
0
VERTEX
5
218
100
AcDbEntity
8
1
100
AcDbVertex
100
AcDb2dVertex
62
5
10
86.500000
20
315.250000
0
VERTEX
5
219
100
AcDbEntity
8
1
100
AcDbVertex
100
AcDb2dVertex
62
5
10
85.750000
20
315.250000
0
SEQEND
5
21a
100
AcDbEntity
8
1
0
POLYLINE
5
21b
100
AcDbEntity
8
1
6
CONTINUOUS
62
5
100
AcDb2dPolyline
66
1
10
0.0
20
0.0
30
0.0
70
0
0
VERTEX
5
21c
100
AcDbEntity
8
1
100
AcDbVertex
100
AcDb2dVertex
62
5
10
85.750000
20
316.187500
0
VERTEX
5
21d
100
AcDbEntity
8
1
100
AcDbVertex
100
AcDb2dVertex
62
5
10
85.750000
20
314.625000
0
VERTEX
5
21e
100
AcDbEntity
8
1
100
AcDbVertex
100
AcDb2dVertex
62
5
10
85.000000
20
312.750000
0
VERTEX
5
21f
100
AcDbEntity
8
1
100
AcDbVertex
100
AcDb2dVertex
62
5
10
84.000000
20
311.500000
0
SEQEND
5
220
100
AcDbEntity
8
1
0
POLYLINE
5
221
100
AcDbEntity
8
1
6
CONTINUOUS
62
5
100
AcDb2dPolyline
66
1
10
0.0
20
0.0
30
0.0
70
0
0
VERTEX
5
222
100
AcDbEntity
8
1
100
AcDbVertex
100
AcDb2dVertex
62
5
10
75.500000
20
329.000000
0
VERTEX
5
223
100
AcDbEntity
8
1
100
AcDbVertex
100
AcDb2dVertex
62
5
10
75.500000
20
323.375000
0
VERTEX
5
224
100
AcDbEntity
8
1
100
AcDbVertex
100
AcDb2dVertex
62
5
10
75.000000
20
322.125000
0
VERTEX
5
225
100
AcDbEntity
8
1
100
AcDbVertex
100
AcDb2dVertex
62
5
10
74.500000
20
321.187500
0
SEQEND
5
226
100
AcDbEntity
8
1
0
POLYLINE
5
227
100
AcDbEntity
8
1
6
CONTINUOUS
62
5
100
AcDb2dPolyline
66
1
10
0.0
20
0.0
30
0.0
70
0
0
VERTEX
5
228
100
AcDbEntity
8
1
100
AcDbVertex
100
AcDb2dVertex
62
5
10
79.500000
20
321.500000
0
VERTEX
5
229
100
AcDbEntity
8
1
100
AcDbVertex
100
AcDb2dVertex
62
5
10
80.500000
20
320.875000
0
VERTEX
5
22a
100
AcDbEntity
8
1
100
AcDbVertex
100
AcDb2dVertex
62
5
10
80.500000
20
329.000000
0
VERTEX
5
22b
100
AcDbEntity
8
1
100
AcDbVertex
100
AcDb2dVertex
62
5
10
75.500000
20
329.000000
0
SEQEND
5
22c
100
AcDbEntity
8
1
0
LINE
5
22d
100
AcDbEntity
8
1
100
AcDbLine
6
CONTINUOUS
62
5
10
75.500000
20
326.500000
11
80.500000
21
326.500000
0
LINE
5
22e
100
AcDbEntity
8
1
100
AcDbLine
6
CONTINUOUS
62
5
10
78.000000
20
329.000000
11
78.000000
21
320.875000
0
LINE
5
22f
100
AcDbEntity
8
1
100
AcDbLine
6
CONTINUOUS
62
5
10
75.500000
20
324.000000
11
80.500000
21
324.000000
0
POLYLINE
5
230
100
AcDbEntity
8
1
6
CONTINUOUS
62
5
100
AcDb2dPolyline
66
1
10
0.0
20
0.0
30
0.0
70
0
0
VERTEX
5
231
100
AcDbEntity
8
1
100
AcDbVertex
100
AcDb2dVertex
62
5
10
76.500000
20
315.562500
0
VERTEX
5
232
100
AcDbEntity
8
1
100
AcDbVertex
100
AcDb2dVertex
62
5
10
78.500000
20
315.562500
0
VERTEX
5
233
100
AcDbEntity
8
1
100
AcDbVertex
100
AcDb2dVertex
62
5
10
78.250000
20
312.437500
0
SEQEND
5
234
100
AcDbEntity
8
1
0
LINE
5
235
100
AcDbEntity
8
1
100
AcDbLine
6
CONTINUOUS
62
5
10
75.750000
20
312.437500
11
80.000000
21
312.437500
0
LINE
5
236
100
AcDbEntity
8
1
100
AcDbLine
6
CONTINUOUS
62
5
10
82.500000
20
326.500000
11
84.500000
21
326.500000
0
LINE
5
237
100
AcDbEntity
8
1
100
AcDbLine
6
CONTINUOUS
62
5
10
82.250000
20
322.125000
11
84.500000
21
323.375000
0
LINE
5
238
100
AcDbEntity
8
1
100
AcDbLine
6
CONTINUOUS
62
5
10
83.500000
20
329.000000
11
83.500000
21
322.750000
0
POLYLINE
5
239
100
AcDbEntity
8
1
6
CONTINUOUS
62
5
100
AcDb2dPolyline
66
1
10
0.0
20
0.0
30
0.0
70
1
0
VERTEX
5
23a
100
AcDbEntity
8
1
100
AcDbVertex
100
AcDb2dVertex
62
5
10
85.500000
20
328.687500
0
VERTEX
5
23b
100
AcDbEntity
8
1
100
AcDbVertex
100
AcDb2dVertex
62
5
10
85.500000
20
325.250000
0
VERTEX
5
23c
100
AcDbEntity
8
1
100
AcDbVertex
100
AcDb2dVertex
62
5
10
88.500000
20
325.250000
0
VERTEX
5
23d
100
AcDbEntity
8
1
100
AcDbVertex
100
AcDb2dVertex
62
5
10
88.500000
20
328.687500
0
VERTEX
5
23e
100
AcDbEntity
8
1
100
AcDbVertex
100
AcDb2dVertex
62
5
10
85.500000
20
328.687500
0
SEQEND
5
23f
100
AcDbEntity
8
1
0
LINE
5
240
100
AcDbEntity
8
1
100
AcDbLine
6
CONTINUOUS
62
5
10
85.500000
20
327.125000
11
88.500000
21
327.125000
0
LINE
5
241
100
AcDbEntity
8
1
100
AcDbLine
6
CONTINUOUS
62
5
10
87.000000
20
328.687500
11
87.000000
21
321.500000
0
LINE
5
242
100
AcDbEntity
8
1
100
AcDbLine
6
CONTINUOUS
62
5
10
85.000000
20
323.687500
11
89.000000
21
323.687500
0
LINE
5
243
100
AcDbEntity
8
1
100
AcDbLine
6
CONTINUOUS
62
5
10
84.250000
20
321.500000
11
89.500000
21
321.500000
0
LINE
5
244
100
AcDbEntity
8
1
100
AcDbLine
6
CONTINUOUS
62
5
10
106.250000
20
326.500000
11
108.500000
21
326.500000
0
LINE
5
245
100
AcDbEntity
8
1
100
AcDbLine
6
CONTINUOUS
62
5
10
106.500000
20
321.500000
11
108.500000
21
323.062500
0
LINE
5
246
100
AcDbEntity
8
1
100
AcDbLine
6
CONTINUOUS
62
5
10
107.500000
20
329.000000
11
107.500000
21
322.125000
0
POLYLINE
5
247
100
AcDbEntity
8
1
6
CONTINUOUS
62
5
100
AcDb2dPolyline
66
1
10
0.0
20
0.0
30
0.0
70
0
0
VERTEX
5
248
100
AcDbEntity
8
1
100
AcDbVertex
100
AcDb2dVertex
62
5
10
108.250000
20
324.937500
0
VERTEX
5
249
100
AcDbEntity
8
1
100
AcDbVertex
100
AcDb2dVertex
62
5
10
112.750000
20
327.750000
0
VERTEX
5
24a
100
AcDbEntity
8
1
100
AcDbVertex
100
AcDb2dVertex
62
5
10
112.750000
20
324.625000
0
VERTEX
5
24b
100
AcDbEntity
8
1
100
AcDbVertex
100
AcDb2dVertex
62
5
10
112.250000
20
324.000000
0
VERTEX
5
24c
100
AcDbEntity
8
1
100
AcDbVertex
100
AcDb2dVertex
62
5
10
111.750000
20
324.000000
0
SEQEND
5
24d
100
AcDbEntity
8
1
0
LINE
5
24e
100
AcDbEntity
8
1
100
AcDbLine
6
CONTINUOUS
62
5
10
110.750000
20
329.312500
11
110.750000
21
322.750000
0
POLYLINE
5
24f
100
AcDbEntity
8
1
6
CONTINUOUS
62
5
100
AcDb2dPolyline
66
1
10
0.0
20
0.0
30
0.0
70
0
0
VERTEX
5
250
100
AcDbEntity
8
1
100
AcDbVertex
100
AcDb2dVertex
62
5
10
109.250000
20
328.062500
0
VERTEX
5
251
100
AcDbEntity
8
1
100
AcDbVertex
100
AcDb2dVertex
62
5
10
109.250000
20
321.500000
0
VERTEX
5
252
100
AcDbEntity
8
1
100
AcDbVertex
100
AcDb2dVertex
62
5
10
109.750000
20
320.875000
0
VERTEX
5
253
100
AcDbEntity
8
1
100
AcDbVertex
100
AcDb2dVertex
62
5
10
112.750000
20
320.875000
0
VERTEX
5
254
100
AcDbEntity
8
1
100
AcDbVertex
100
AcDb2dVertex
62
5
10
113.250000
20
321.500000
0
VERTEX
5
255
100
AcDbEntity
8
1
100
AcDbVertex
100
AcDb2dVertex
62
5
10
113.250000
20
322.437500
0
SEQEND
5
256
100
AcDbEntity
8
1
0
POLYLINE
5
257
100
AcDbEntity
8
1
6
CONTINUOUS
62
5
100
AcDb2dPolyline
66
1
10
0.0
20
0.0
30
0.0
70
0
0
VERTEX
5
258
100
AcDbEntity
8
1
100
AcDbVertex
100
AcDb2dVertex
62
5
10
111.750000
20
318.687500
0
VERTEX
5
259
100
AcDbEntity
8
1
100
AcDbVertex
100
AcDb2dVertex
62
5
10
109.750000
20
316.187500
0
VERTEX
5
25a
100
AcDbEntity
8
1
100
AcDbVertex
100
AcDb2dVertex
62
5
10
107.500000
20
314.625000
0
SEQEND
5
25b
100
AcDbEntity
8
1
0
LINE
5
25c
100
AcDbEntity
8
1
100
AcDbLine
6
CONTINUOUS
62
5
10
110.250000
20
316.812500
11
110.250000
21
311.500000
0
LINE
5
25d
100
AcDbEntity
8
1
100
AcDbLine
6
CONTINUOUS
62
5
10
82.500000
20
286.750000
11
85.625000
21
286.750000
0
LINE
5
25e
100
AcDbEntity
8
1
100
AcDbLine
6
CONTINUOUS
62
5
10
102.500000
20
290.500000
11
102.500000
21
283.000000
0
LINE
5
25f
100
AcDbEntity
8
1
100
AcDbLine
6
CONTINUOUS
62
5
10
102.500000
20
286.750000
11
105.312500
21
286.750000
0
LINE
5
260
100
AcDbEntity
8
1
100
AcDbLine
6
CONTINUOUS
62
5
10
105.312500
20
290.500000
11
105.312500
21
283.000000
0
LINE
5
261
100
AcDbEntity
8
1
100
AcDbLine
6
CONTINUOUS
62
5
10
112.500000
20
290.500000
11
112.500000
21
283.000000
0
POLYLINE
5
262
100
AcDbEntity
8
1
6
CONTINUOUS
62
5
100
AcDb2dPolyline
66
1
10
0.0
20
0.0
30
0.0
70
0
0
VERTEX
5
263
100
AcDbEntity
8
1
100
AcDbVertex
100
AcDb2dVertex
62
5
10
112.500000
20
290.500000
0
VERTEX
5
264
100
AcDbEntity
8
1
100
AcDbVertex
100
AcDb2dVertex
62
5
10
113.750000
20
290.500000
0
VERTEX
5
265
100
AcDbEntity
8
1
100
AcDbVertex
100
AcDb2dVertex
62
5
10
114.687500
20
290.187500
0
VERTEX
5
266
100
AcDbEntity
8
1
100
AcDbVertex
100
AcDb2dVertex
62
5
10
115.312500
20
289.562500
0
VERTEX
5
267
100
AcDbEntity
8
1
100
AcDbVertex
100
AcDb2dVertex
62
5
10
115.625000
20
288.937500
0
VERTEX
5
268
100
AcDbEntity
8
1
100
AcDbVertex
100
AcDb2dVertex
62
5
10
115.625000
20
288.000000
0
VERTEX
5
269
100
AcDbEntity
8
1
100
AcDbVertex
100
AcDb2dVertex
62
5
10
115.312500
20
287.375000
0
VERTEX
5
26a
100
AcDbEntity
8
1
100
AcDbVertex
100
AcDb2dVertex
62
5
10
114.687500
20
286.750000
0
VERTEX
5
26b
100
AcDbEntity
8
1
100
AcDbVertex
100
AcDb2dVertex
62
5
10
113.750000
20
286.437500
0
VERTEX
5
26c
100
AcDbEntity
8
1
100
AcDbVertex
100
AcDb2dVertex
62
5
10
112.500000
20
286.437500
0
SEQEND
5
26d
100
AcDbEntity
8
1
0
LINE
5
26e
100
AcDbEntity
8
1
100
AcDbLine
6
CONTINUOUS
62
5
10
87.500000
20
290.500000
11
90.312500
21
290.500000
0
POLYLINE
5
26f
100
AcDbEntity
8
1
6
CONTINUOUS
62
5
100
AcDb2dPolyline
66
1
10
0.0
20
0.0
30
0.0
70
0
0
VERTEX
5
270
100
AcDbEntity
8
1
100
AcDbVertex
100
AcDb2dVertex
62
5
10
87.500000
20
290.500000
0
VERTEX
5
271
100
AcDbEntity
8
1
100
AcDbVertex
100
AcDb2dVertex
62
5
10
87.500000
20
286.750000
0
VERTEX
5
272
100
AcDbEntity
8
1
100
AcDbVertex
100
AcDb2dVertex
62
5
10
88.125000
20
287.375000
0
VERTEX
5
273
100
AcDbEntity
8
1
100
AcDbVertex
100
AcDb2dVertex
62
5
10
88.750000
20
287.687500
0
VERTEX
5
274
100
AcDbEntity
8
1
100
AcDbVertex
100
AcDb2dVertex
62
5
10
89.687500
20
287.687500
0
VERTEX
5
275
100
AcDbEntity
8
1
100
AcDbVertex
100
AcDb2dVertex
62
5
10
90.312500
20
287.375000
0
VERTEX
5
276
100
AcDbEntity
8
1
100
AcDbVertex
100
AcDb2dVertex
62
5
10
90.625000
20
286.437500
0
VERTEX
5
277
100
AcDbEntity
8
1
100
AcDbVertex
100
AcDb2dVertex
62
5
10
90.625000
20
284.562500
0
VERTEX
5
278
100
AcDbEntity
8
1
100
AcDbVertex
100
AcDb2dVertex
62
5
10
90.000000
20
283.625000
0
VERTEX
5
279
100
AcDbEntity
8
1
100
AcDbVertex
100
AcDb2dVertex
62
5
10
89.062500
20
283.000000
0
VERTEX
5
27a
100
AcDbEntity
8
1
100
AcDbVertex
100
AcDb2dVertex
62
5
10
87.500000
20
283.000000
0
SEQEND
5
27b
100
AcDbEntity
8
1
0
LINE
5
27c
100
AcDbEntity
8
1
100
AcDbLine
6
CONTINUOUS
62
5
10
92.500000
20
290.500000
11
95.312500
21
290.500000
0
POLYLINE
5
27d
100
AcDbEntity
8
1
6
CONTINUOUS
62
5
100
AcDb2dPolyline
66
1
10
0.0
20
0.0
30
0.0
70
0
0
VERTEX
5
27e
100
AcDbEntity
8
1
100
AcDbVertex
100
AcDb2dVertex
62
5
10
92.500000
20
290.500000
0
VERTEX
5
27f
100
AcDbEntity
8
1
100
AcDbVertex
100
AcDb2dVertex
62
5
10
92.500000
20
286.750000
0
VERTEX
5
280
100
AcDbEntity
8
1
100
AcDbVertex
100
AcDb2dVertex
62
5
10
93.125000
20
287.375000
0
VERTEX
5
281
100
AcDbEntity
8
1
100
AcDbVertex
100
AcDb2dVertex
62
5
10
93.750000
20
287.687500
0
VERTEX
5
282
100
AcDbEntity
8
1
100
AcDbVertex
100
AcDb2dVertex
62
5
10
94.687500
20
287.687500
0
VERTEX
5
283
100
AcDbEntity
8
1
100
AcDbVertex
100
AcDb2dVertex
62
5
10
95.312500
20
287.375000
0
VERTEX
5
284
100
AcDbEntity
8
1
100
AcDbVertex
100
AcDb2dVertex
62
5
10
95.625000
20
286.437500
0
VERTEX
5
285
100
AcDbEntity
8
1
100
AcDbVertex
100
AcDb2dVertex
62
5
10
95.625000
20
284.562500
0
VERTEX
5
286
100
AcDbEntity
8
1
100
AcDbVertex
100
AcDb2dVertex
62
5
10
95.000000
20
283.625000
0
VERTEX
5
287
100
AcDbEntity
8
1
100
AcDbVertex
100
AcDb2dVertex
62
5
10
94.062500
20
283.000000
0
VERTEX
5
288
100
AcDbEntity
8
1
100
AcDbVertex
100
AcDb2dVertex
62
5
10
92.500000
20
283.000000
0
SEQEND
5
289
100
AcDbEntity
8
1
0
POLYLINE
5
28a
100
AcDbEntity
8
1
6
CONTINUOUS
62
5
100
AcDb2dPolyline
66
1
10
0.0
20
0.0
30
0.0
70
0
0
VERTEX
5
28b
100
AcDbEntity
8
1
100
AcDbVertex
100
AcDb2dVertex
62
5
10
100.312500
20
288.937500
0
VERTEX
5
28c
100
AcDbEntity
8
1
100
AcDbVertex
100
AcDb2dVertex
62
5
10
100.000000
20
289.875000
0
VERTEX
5
28d
100
AcDbEntity
8
1
100
AcDbVertex
100
AcDb2dVertex
62
5
10
99.375000
20
290.500000
0
VERTEX
5
28e
100
AcDbEntity
8
1
100
AcDbVertex
100
AcDb2dVertex
62
5
10
98.437500
20
290.500000
0
VERTEX
5
28f
100
AcDbEntity
8
1
100
AcDbVertex
100
AcDb2dVertex
62
5
10
97.812500
20
289.875000
0
VERTEX
5
290
100
AcDbEntity
8
1
100
AcDbVertex
100
AcDb2dVertex
62
5
10
97.500000
20
289.250000
0
VERTEX
5
291
100
AcDbEntity
8
1
100
AcDbVertex
100
AcDb2dVertex
62
5
10
97.187500
20
287.687500
0
VERTEX
5
292
100
AcDbEntity
8
1
100
AcDbVertex
100
AcDb2dVertex
62
5
10
97.187500
20
285.812500
0
VERTEX
5
293
100
AcDbEntity
8
1
100
AcDbVertex
100
AcDb2dVertex
62
5
10
97.500000
20
284.250000
0
VERTEX
5
294
100
AcDbEntity
8
1
100
AcDbVertex
100
AcDb2dVertex
62
5
10
97.812500
20
283.625000
0
VERTEX
5
295
100
AcDbEntity
8
1
100
AcDbVertex
100
AcDb2dVertex
62
5
10
98.437500
20
283.000000
0
VERTEX
5
296
100
AcDbEntity
8
1
100
AcDbVertex
100
AcDb2dVertex
62
5
10
99.375000
20
283.000000
0
VERTEX
5
297
100
AcDbEntity
8
1
100
AcDbVertex
100
AcDb2dVertex
62
5
10
100.000000
20
283.625000
0
VERTEX
5
298
100
AcDbEntity
8
1
100
AcDbVertex
100
AcDb2dVertex
62
5
10
100.312500
20
284.250000
0
SEQEND
5
299
100
AcDbEntity
8
1
0
LINE
5
29a
100
AcDbEntity
8
1
100
AcDbLine
6
CONTINUOUS
62
5
10
99.687500
20
286.437500
11
100.937500
21
286.437500
0
LINE
5
29b
100
AcDbEntity
8
1
100
AcDbLine
6
CONTINUOUS
62
5
10
100.312500
20
286.437500
11
100.312500
21
283.000000
0
POLYLINE
5
29c
100
AcDbEntity
8
1
6
CONTINUOUS
62
5
100
AcDb2dPolyline
66
1
10
0.0
20
0.0
30
0.0
70
0
0
VERTEX
5
29d
100
AcDbEntity
8
1
100
AcDbVertex
100
AcDb2dVertex
62
5
10
117.187500
20
290.500000
0
VERTEX
5
29e
100
AcDbEntity
8
1
100
AcDbVertex
100
AcDb2dVertex
62
5
10
118.125000
20
283.000000
0
VERTEX
5
29f
100
AcDbEntity
8
1
100
AcDbVertex
100
AcDb2dVertex
62
5
10
119.062500
20
290.500000
0
VERTEX
5
2a0
100
AcDbEntity
8
1
100
AcDbVertex
100
AcDb2dVertex
62
5
10
120.000000
20
283.000000
0
VERTEX
5
2a1
100
AcDbEntity
8
1
100
AcDbVertex
100
AcDb2dVertex
62
5
10
120.937500
20
290.500000
0
SEQEND
5
2a2
100
AcDbEntity
8
1
0
LINE
5
2a3
100
AcDbEntity
8
1
100
AcDbLine
6
CONTINUOUS
62
5
10
72.500000
20
290.500000
11
72.500000
21
283.000000
0
POLYLINE
5
2a4
100
AcDbEntity
8
1
6
CONTINUOUS
62
5
100
AcDb2dPolyline
66
1
10
0.0
20
0.0
30
0.0
70
0
0
VERTEX
5
2a5
100
AcDbEntity
8
1
100
AcDbVertex
100
AcDb2dVertex
62
5
10
72.500000
20
290.500000
0
VERTEX
5
2a6
100
AcDbEntity
8
1
100
AcDbVertex
100
AcDb2dVertex
62
5
10
74.062500
20
290.500000
0
VERTEX
5
2a7
100
AcDbEntity
8
1
100
AcDbVertex
100
AcDb2dVertex
62
5
10
74.687500
20
290.187500
0
VERTEX
5
2a8
100
AcDbEntity
8
1
100
AcDbVertex
100
AcDb2dVertex
62
5
10
75.000000
20
289.875000
0
VERTEX
5
2a9
100
AcDbEntity
8
1
100
AcDbVertex
100
AcDb2dVertex
62
5
10
75.312500
20
289.250000
0
VERTEX
5
2aa
100
AcDbEntity
8
1
100
AcDbVertex
100
AcDb2dVertex
62
5
10
75.312500
20
288.312500
0
VERTEX
5
2ab
100
AcDbEntity
8
1
100
AcDbVertex
100
AcDb2dVertex
62
5
10
75.000000
20
287.687500
0
VERTEX
5
2ac
100
AcDbEntity
8
1
100
AcDbVertex
100
AcDb2dVertex
62
5
10
74.687500
20
287.375000
0
VERTEX
5
2ad
100
AcDbEntity
8
1
100
AcDbVertex
100
AcDb2dVertex
62
5
10
74.062500
20
287.062500
0
VERTEX
5
2ae
100
AcDbEntity
8
1
100
AcDbVertex
100
AcDb2dVertex
62
5
10
72.500000
20
287.062500
0
SEQEND
5
2af
100
AcDbEntity
8
1
0
POLYLINE
5
2b0
100
AcDbEntity
8
1
6
CONTINUOUS
62
5
100
AcDb2dPolyline
66
1
10
0.0
20
0.0
30
0.0
70
0
0
VERTEX
5
2b1
100
AcDbEntity
8
1
100
AcDbVertex
100
AcDb2dVertex
62
5
10
74.062500
20
287.062500
0
VERTEX
5
2b2
100
AcDbEntity
8
1
100
AcDbVertex
100
AcDb2dVertex
62
5
10
74.687500
20
286.750000
0
VERTEX
5
2b3
100
AcDbEntity
8
1
100
AcDbVertex
100
AcDb2dVertex
62
5
10
75.312500
20
286.125000
0
VERTEX
5
2b4
100
AcDbEntity
8
1
100
AcDbVertex
100
AcDb2dVertex
62
5
10
75.625000
20
285.500000
0
VERTEX
5
2b5
100
AcDbEntity
8
1
100
AcDbVertex
100
AcDb2dVertex
62
5
10
75.625000
20
284.250000
0
VERTEX
5
2b6
100
AcDbEntity
8
1
100
AcDbVertex
100
AcDb2dVertex
62
5
10
75.312500
20
283.625000
0
VERTEX
5
2b7
100
AcDbEntity
8
1
100
AcDbVertex
100
AcDb2dVertex
62
5
10
75.000000
20
283.312500
0
VERTEX
5
2b8
100
AcDbEntity
8
1
100
AcDbVertex
100
AcDb2dVertex
62
5
10
74.375000
20
283.000000
0
VERTEX
5
2b9
100
AcDbEntity
8
1
100
AcDbVertex
100
AcDb2dVertex
62
5
10
72.500000
20
283.000000
0
SEQEND
5
2ba
100
AcDbEntity
8
1
0
POLYLINE
5
2bb
100
AcDbEntity
8
1
6
CONTINUOUS
62
5
100
AcDb2dPolyline
66
1
10
0.0
20
0.0
30
0.0
70
0
0
VERTEX
5
2bc
100
AcDbEntity
8
1
100
AcDbVertex
100
AcDb2dVertex
62
5
10
77.500000
20
283.000000
0
VERTEX
5
2bd
100
AcDbEntity
8
1
100
AcDbVertex
100
AcDb2dVertex
62
5
10
77.500000
20
290.500000
0
VERTEX
5
2be
100
AcDbEntity
8
1
100
AcDbVertex
100
AcDb2dVertex
62
5
10
80.625000
20
283.000000
0
VERTEX
5
2bf
100
AcDbEntity
8
1
100
AcDbVertex
100
AcDb2dVertex
62
5
10
80.625000
20
290.500000
0
SEQEND
5
2c0
100
AcDbEntity
8
1
0
POLYLINE
5
2c1
100
AcDbEntity
8
1
6
CONTINUOUS
62
5
100
AcDb2dPolyline
66
1
10
0.0
20
0.0
30
0.0
70
0
0
VERTEX
5
2c2
100
AcDbEntity
8
1
100
AcDbVertex
100
AcDb2dVertex
62
5
10
65.625000
20
290.500000
0
VERTEX
5
2c3
100
AcDbEntity
8
1
100
AcDbVertex
100
AcDb2dVertex
62
5
10
62.500000
20
290.500000
0
VERTEX
5
2c4
100
AcDbEntity
8
1
100
AcDbVertex
100
AcDb2dVertex
62
5
10
62.500000
20
283.000000
0
VERTEX
5
2c5
100
AcDbEntity
8
1
100
AcDbVertex
100
AcDb2dVertex
62
5
10
65.937500
20
283.000000
0
SEQEND
5
2c6
100
AcDbEntity
8
1
0
LINE
5
2c7
100
AcDbEntity
8
1
100
AcDbLine
6
CONTINUOUS
62
5
10
62.500000
20
286.750000
11
65.312500
21
286.750000
0
POLYLINE
5
2c8
100
AcDbEntity
8
1
6
CONTINUOUS
62
5
100
AcDb2dPolyline
66
1
10
0.0
20
0.0
30
0.0
70
0
0
VERTEX
5
2c9
100
AcDbEntity
8
1
100
AcDbVertex
100
AcDb2dVertex
62
5
10
55.312500
20
290.500000
0
VERTEX
5
2ca
100
AcDbEntity
8
1
100
AcDbVertex
100
AcDb2dVertex
62
5
10
55.312500
20
284.875000
0
VERTEX
5
2cb
100
AcDbEntity
8
1
100
AcDbVertex
100
AcDb2dVertex
62
5
10
55.000000
20
283.625000
0
VERTEX
5
2cc
100
AcDbEntity
8
1
100
AcDbVertex
100
AcDb2dVertex
62
5
10
54.375000
20
283.000000
0
VERTEX
5
2cd
100
AcDbEntity
8
1
100
AcDbVertex
100
AcDb2dVertex
62
5
10
53.437500
20
283.000000
0
VERTEX
5
2ce
100
AcDbEntity
8
1
100
AcDbVertex
100
AcDb2dVertex
62
5
10
52.812500
20
283.625000
0
VERTEX
5
2cf
100
AcDbEntity
8
1
100
AcDbVertex
100
AcDb2dVertex
62
5
10
52.500000
20
284.875000
0
SEQEND
5
2d0
100
AcDbEntity
8
1
0
POLYLINE
5
2d1
100
AcDbEntity
8
1
6
CONTINUOUS
62
5
100
AcDb2dPolyline
66
1
10
0.0
20
0.0
30
0.0
70
0
0
VERTEX
5
2d2
100
AcDbEntity
8
1
100
AcDbVertex
100
AcDb2dVertex
62
5
10
57.500000
20
283.000000
0
VERTEX
5
2d3
100
AcDbEntity
8
1
100
AcDbVertex
100
AcDb2dVertex
62
5
10
57.500000
20
290.500000
0
VERTEX
5
2d4
100
AcDbEntity
8
1
100
AcDbVertex
100
AcDb2dVertex
62
5
10
59.062500
20
283.000000
0
VERTEX
5
2d5
100
AcDbEntity
8
1
100
AcDbVertex
100
AcDb2dVertex
62
5
10
60.625000
20
290.500000
0
VERTEX
5
2d6
100
AcDbEntity
8
1
100
AcDbVertex
100
AcDb2dVertex
62
5
10
60.625000
20
283.000000
0
SEQEND
5
2d7
100
AcDbEntity
8
1
0
POLYLINE
5
2d8
100
AcDbEntity
8
1
6
CONTINUOUS
62
5
100
AcDb2dPolyline
66
1
10
0.0
20
0.0
30
0.0
70
0
0
VERTEX
5
2d9
100
AcDbEntity
8
1
100
AcDbVertex
100
AcDb2dVertex
62
5
10
73.250000
20
320.875000
0
VERTEX
5
2da
100
AcDbEntity
8
1
100
AcDbVertex
100
AcDb2dVertex
62
5
10
66.750000
20
320.875000
0
VERTEX
5
2db
100
AcDbEntity
8
1
100
AcDbVertex
100
AcDb2dVertex
62
5
10
66.750000
20
329.000000
0
VERTEX
5
2dc
100
AcDbEntity
8
1
100
AcDbVertex
100
AcDb2dVertex
62
5
10
73.000000
20
329.000000
0
SEQEND
5
2dd
100
AcDbEntity
8
1
0
POLYLINE
5
2de
100
AcDbEntity
8
1
6
CONTINUOUS
62
5
100
AcDb2dPolyline
66
1
10
0.0
20
0.0
30
0.0
70
0
0
VERTEX
5
2df
100
AcDbEntity
8
1
100
AcDbVertex
100
AcDb2dVertex
62
5
10
69.000000
20
328.375000
0
VERTEX
5
2e0
100
AcDbEntity
8
1
100
AcDbVertex
100
AcDb2dVertex
62
5
10
68.250000
20
326.812500
0
VERTEX
5
2e1
100
AcDbEntity
8
1
100
AcDbVertex
100
AcDb2dVertex
62
5
10
67.500000
20
325.562500
0
SEQEND
5
2e2
100
AcDbEntity
8
1
0
LINE
5
2e3
100
AcDbEntity
8
1
100
AcDbLine
6
CONTINUOUS
62
5
10
68.250000
20
326.812500
11
72.250000
21
326.812500
0
LINE
5
2e4
100
AcDbEntity
8
1
100
AcDbLine
6
CONTINUOUS
62
5
10
67.500000
20
324.937500
11
73.000000
21
324.937500
0
POLYLINE
5
2e5
100
AcDbEntity
8
1
6
CONTINUOUS
62
5
100
AcDb2dPolyline
66
1
10
0.0
20
0.0
30
0.0
70
0
0
VERTEX
5
2e6
100
AcDbEntity
8
1
100
AcDbVertex
100
AcDb2dVertex
62
5
10
70.250000
20
326.812500
0
VERTEX
5
2e7
100
AcDbEntity
8
1
100
AcDbVertex
100
AcDb2dVertex
62
5
10
70.250000
20
324.937500
0
VERTEX
5
2e8
100
AcDbEntity
8
1
100
AcDbVertex
100
AcDb2dVertex
62
5
10
69.750000
20
324.000000
0
VERTEX
5
2e9
100
AcDbEntity
8
1
100
AcDbVertex
100
AcDb2dVertex
62
5
10
69.000000
20
323.062500
0
VERTEX
5
2ea
100
AcDbEntity
8
1
100
AcDbVertex
100
AcDb2dVertex
62
5
10
67.750000
20
321.812500
0
SEQEND
5
2eb
100
AcDbEntity
8
1
0
POLYLINE
5
2ec
100
AcDbEntity
8
1
6
CONTINUOUS
62
5
100
AcDb2dPolyline
66
1
10
0.0
20
0.0
30
0.0
70
0
0
VERTEX
5
2ed
100
AcDbEntity
8
1
100
AcDbVertex
100
AcDb2dVertex
62
5
10
70.250000
20
324.937500
0
VERTEX
5
2ee
100
AcDbEntity
8
1
100
AcDbVertex
100
AcDb2dVertex
62
5
10
71.500000
20
323.687500
0
VERTEX
5
2ef
100
AcDbEntity
8
1
100
AcDbVertex
100
AcDb2dVertex
62
5
10
72.500000
20
322.125000
0
SEQEND
5
2f0
100
AcDbEntity
8
1
0
POLYLINE
5
2f1
100
AcDbEntity
8
1
6
CONTINUOUS
62
5
100
AcDb2dPolyline
66
1
10
0.0
20
0.0
30
0.0
70
0
0
VERTEX
5
2f2
100
AcDbEntity
8
1
100
AcDbVertex
100
AcDb2dVertex
62
5
10
67.750000
20
317.750000
0
VERTEX
5
2f3
100
AcDbEntity
8
1
100
AcDbVertex
100
AcDb2dVertex
62
5
10
67.750000
20
312.437500
0
VERTEX
5
2f4
100
AcDbEntity
8
1
100
AcDbVertex
100
AcDb2dVertex
62
5
10
68.250000
20
311.812500
0
VERTEX
5
2f5
100
AcDbEntity
8
1
100
AcDbVertex
100
AcDb2dVertex
62
5
10
71.750000
20
311.812500
0
SEQEND
5
2f6
100
AcDbEntity
8
1
0
LINE
5
2f7
100
AcDbEntity
8
1
100
AcDbLine
6
CONTINUOUS
62
5
10
71.250000
20
315.875000
11
67.750000
21
314.937500
0
POLYLINE
5
2f8
100
AcDbEntity
8
1
6
CONTINUOUS
62
5
100
AcDb2dPolyline
66
1
10
0.0
20
0.0
30
0.0
70
1
0
VERTEX
5
2f9
100
AcDbEntity
8
1
100
AcDbVertex
100
AcDb2dVertex
62
5
10
71.250000
20
317.750000
0
VERTEX
5
2fa
100
AcDbEntity
8
1
100
AcDbVertex
100
AcDb2dVertex
62
5
10
71.750000
20
318.375000
0
VERTEX
5
2fb
100
AcDbEntity
8
1
100
AcDbVertex
100
AcDb2dVertex
62
5
10
72.000000
20
318.375000
0
VERTEX
5
2fc
100
AcDbEntity
8
1
100
AcDbVertex
100
AcDb2dVertex
62
5
10
72.500000
20
317.750000
0
VERTEX
5
2fd
100
AcDbEntity
8
1
100
AcDbVertex
100
AcDb2dVertex
62
5
10
72.500000
20
317.437500
0
VERTEX
5
2fe
100
AcDbEntity
8
1
100
AcDbVertex
100
AcDb2dVertex
62
5
10
72.000000
20
316.812500
0
VERTEX
5
2ff
100
AcDbEntity
8
1
100
AcDbVertex
100
AcDb2dVertex
62
5
10
71.750000
20
316.812500
0
VERTEX
5
300
100
AcDbEntity
8
1
100
AcDbVertex
100
AcDb2dVertex
62
5
10
71.250000
20
317.437500
0
VERTEX
5
301
100
AcDbEntity
8
1
100
AcDbVertex
100
AcDb2dVertex
62
5
10
71.250000
20
317.750000
0
SEQEND
5
302
100
AcDbEntity
8
1
0
LINE
5
303
100
AcDbEntity
8
1
100
AcDbLine
6
CONTINUOUS
62
5
10
67.500000
20
286.750000
11
70.625000
21
286.750000
0
CIRCLE
5
304
100
AcDbEntity
8
3
100
AcDbCircle
6
CONTINUOUS
62
5
10
116.570307
20
200.500000
40
1.250000
0
ARC
5
305
100
AcDbEntity
8
3
100
AcDbCircle
6
CONTINUOUS
62
5
10
119.070307
20
191.750000
40
2.500000
100
AcDbArc
50
-89.999999
51
89.999999
0
LINE
5
306
100
AcDbEntity
8
3
100
AcDbLine
6
CONTINUOUS
62
5
10
119.070307
20
189.250000
11
114.070307
21
189.250000
0
ARC
5
307
100
AcDbEntity
8
3
100
AcDbCircle
6
CONTINUOUS
62
5
10
114.070307
20
191.750000
40
2.500000
100
AcDbArc
50
89.999999
51
-89.999999
0
LINE
5
308
100
AcDbEntity
8
3
100
AcDbLine
6
CONTINUOUS
62
5
10
114.070307
20
194.250000
11
119.070307
21
194.250000
0
ARC
5
309
100
AcDbEntity
8
3
100
AcDbCircle
6
CONTINUOUS
62
5
10
119.070307
20
191.750000
40
3.300000
100
AcDbArc
50
-89.999999
51
89.999999
0
LINE
5
30a
100
AcDbEntity
8
3
100
AcDbLine
6
CONTINUOUS
62
5
10
119.070307
20
188.450000
11
114.070307
21
188.450000
0
ARC
5
30b
100
AcDbEntity
8
3
100
AcDbCircle
6
CONTINUOUS
62
5
10
114.070307
20
191.750000
40
3.300000
100
AcDbArc
50
89.999999
51
-89.999999
0
LINE
5
30c
100
AcDbEntity
8
3
100
AcDbLine
6
CONTINUOUS
62
5
10
114.070307
20
195.050000
11
119.070307
21
195.050000
0
POLYLINE
5
30d
100
AcDbEntity
8
1
6
CONTINUOUS
62
5
100
AcDb2dPolyline
66
1
10
0.0
20
0.0
30
0.0
70
1
0
VERTEX
5
30e
100
AcDbEntity
8
1
100
AcDbVertex
100
AcDb2dVertex
62
5
10
121.820307
20
176.000000
0
VERTEX
5
30f
100
AcDbEntity
8
1
100
AcDbVertex
100
AcDb2dVertex
62
5
10
124.020293
20
176.000000
0
VERTEX
5
310
100
AcDbEntity
8
1
100
AcDbVertex
100
AcDb2dVertex
62
5
10
124.020293
20
169.000000
0
VERTEX
5
311
100
AcDbEntity
8
1
100
AcDbVertex
100
AcDb2dVertex
62
5
10
121.820307
20
169.000000
0
VERTEX
5
312
100
AcDbEntity
8
1
100
AcDbVertex
100
AcDb2dVertex
62
5
10
121.820307
20
176.000000
0
SEQEND
5
313
100
AcDbEntity
8
1
0
ARC
5
314
100
AcDbEntity
8
3
100
AcDbCircle
6
CONTINUOUS
62
5
10
120.070307
20
167.500000
40
1.500000
100
AcDbArc
50
179.999998
51
-91.506069
0
LINE
5
315
100
AcDbEntity
8
3
100
AcDbLine
6
CONTINUOUS
62
5
10
120.030883
20
166.000518
11
126.104179
21
166.000382
0
ARC
5
316
100
AcDbEntity
8
3
100
AcDbCircle
6
CONTINUOUS
62
5
10
126.070307
20
167.500000
40
1.500000
100
AcDbArc
50
-88.706090
51
-0.768985
0
LINE
5
317
100
AcDbEntity
8
3
100
AcDbLine
6
CONTINUOUS
62
5
10
127.570172
20
167.479869
11
127.568477
21
177.574079
0
ARC
5
318
100
AcDbEntity
8
3
100
AcDbCircle
6
CONTINUOUS
62
5
10
126.070307
20
177.500000
40
1.500000
100
AcDbArc
50
2.830764
51
89.999999
0
LINE
5
319
100
AcDbEntity
8
3
100
AcDbLine
6
CONTINUOUS
62
5
10
126.070307
20
179.000000
11
120.070307
21
179.000000
0
ARC
5
31a
100
AcDbEntity
8
3
100
AcDbCircle
6
CONTINUOUS
62
5
10
120.070307
20
177.500000
40
1.500000
100
AcDbArc
50
89.999999
51
179.999998
0
LINE
5
31b
100
AcDbEntity
8
3
100
AcDbLine
6
CONTINUOUS
62
5
10
118.570307
20
177.500000
11
118.570307
21
167.500000
0
ARC
5
31c
100
AcDbEntity
8
3
100
AcDbCircle
6
CONTINUOUS
62
5
10
132.468355
20
181.657716
40
1.750000
100
AcDbArc
50
-160.346089
51
9.500001
0
LINE
5
31d
100
AcDbEntity
8
3
100
AcDbLine
6
CONTINUOUS
62
5
10
134.194355
20
181.946549
11
132.296308
21
193.288832
0
ARC
5
31e
100
AcDbEntity
8
3
100
AcDbCircle
6
CONTINUOUS
62
5
10
130.570307
20
193.000000
40
1.750000
100
AcDbArc
50
9.499959
51
-170.500006
0
LINE
5
31f
100
AcDbEntity
8
3
100
AcDbLine
6
CONTINUOUS
62
5
10
128.844307
20
192.711167
11
130.179218
21
184.734058
0
LINE
5
320
100
AcDbEntity
8
1
100
AcDbLine
6
CONTINUOUS
62
5
10
135.570307
20
185.750000
11
135.570307
21
165.738067
0
LINE
5
321
100
AcDbEntity
8
1
100
AcDbLine
6
CONTINUOUS
62
5
10
135.570307
20
185.750000
11
135.570307
21
165.738067
0
ARC
5
322
100
AcDbEntity
8
3
100
AcDbCircle
6
CONTINUOUS
62
5
10
126.962044
20
185.700000
40
0.800000
100
AcDbArc
50
89.999999
51
167.471191
0
LINE
5
323
100
AcDbEntity
8
3
100
AcDbLine
6
CONTINUOUS
62
5
10
126.962044
20
186.500000
11
127.066006
21
186.500000
0
ARC
5
324
100
AcDbEntity
8
3
100
AcDbCircle
6
CONTINUOUS
62
5
10
127.066006
20
185.499999
40
1.000001
100
AcDbArc
50
15.945487
51
89.999977
0
LINE
5
325
100
AcDbEntity
8
3
100
AcDbLine
6
CONTINUOUS
62
5
10
128.027530
20
185.774722
11
128.216696
21
185.112640
0
ARC
5
326
100
AcDbEntity
8
3
100
AcDbCircle
6
CONTINUOUS
62
5
10
128.697458
20
185.250000
40
0.500000
100
AcDbArc
50
-164.054711
51
-89.999974
0
LINE
5
327
100
AcDbEntity
8
3
100
AcDbLine
6
CONTINUOUS
62
5
10
128.697458
20
184.750000
11
130.020307
21
184.750000
0
ARC
5
328
100
AcDbEntity
8
3
100
AcDbCircle
6
CONTINUOUS
62
5
10
130.020307
20
183.950000
40
0.800000
100
AcDbArc
50
0.000000
51
89.999999
0
LINE
5
329
100
AcDbEntity
8
3
100
AcDbLine
6
CONTINUOUS
62
5
10
130.820307
20
183.950000
11
130.820307
21
167.000000
0
ARC
5
32a
100
AcDbEntity
8
3
100
AcDbCircle
6
CONTINUOUS
62
5
10
132.820307
20
167.000000
40
2.000000
100
AcDbArc
50
179.999998
51
-89.999999
0
LINE
5
32b
100
AcDbEntity
8
3
100
AcDbLine
6
CONTINUOUS
62
5
10
132.820307
20
165.000000
11
137.420307
21
165.000000
0
LINE
5
32c
100
AcDbEntity
8
3
100
AcDbLine
6
CONTINUOUS
62
5
10
125.842529
20
184.350000
11
126.181095
21
185.873544
0
ARC
5
32d
100
AcDbEntity
8
3
100
AcDbCircle
6
CONTINUOUS
62
5
10
102.570307
20
193.000000
40
1.750000
100
AcDbArc
50
-9.500003
51
170.500000
0
LINE
5
32e
100
AcDbEntity
8
3
100
AcDbLine
6
CONTINUOUS
62
5
10
100.844307
20
193.288833
11
98.946260
21
181.946549
0
ARC
5
32f
100
AcDbEntity
8
3
100
AcDbCircle
6
CONTINUOUS
62
5
10
100.672260
20
181.657716
40
1.750000
100
AcDbArc
50
170.500014
51
-19.653959
0
LINE
5
330
100
AcDbEntity
8
3
100
AcDbLine
6
CONTINUOUS
62
5
10
102.961396
20
184.734058
11
104.296307
21
192.711167
0
LINE
5
331
100
AcDbEntity
8
1
100
AcDbLine
6
CONTINUOUS
62
5
10
97.570307
20
185.750000
11
97.570307
21
165.738067
0
LINE
5
332
100
AcDbEntity
8
1
100
AcDbLine
6
CONTINUOUS
62
5
10
97.570307
20
185.750000
11
97.570307
21
165.738067
0
ARC
5
333
100
AcDbEntity
8
3
100
AcDbCircle
6
CONTINUOUS
62
5
10
100.320307
20
167.000000
40
2.000000
100
AcDbArc
50
-89.999999
51
-0.000000
0
LINE
5
334
100
AcDbEntity
8
3
100
AcDbLine
6
CONTINUOUS
62
5
10
102.320307
20
167.000000
11
102.320307
21
183.950000
0
ARC
5
335
100
AcDbEntity
8
3
100
AcDbCircle
6
CONTINUOUS
62
5
10
103.120307
20
183.950000
40
0.800000
100
AcDbArc
50
89.999999
51
179.999998
0
LINE
5
336
100
AcDbEntity
8
3
100
AcDbLine
6
CONTINUOUS
62
5
10
103.120307
20
184.750000
11
104.443156
21
184.750000
0
ARC
5
337
100
AcDbEntity
8
3
100
AcDbCircle
6
CONTINUOUS
62
5
10
104.443156
20
185.250000
40
0.500000
100
AcDbArc
50
-89.999999
51
-15.945396
0
LINE
5
338
100
AcDbEntity
8
3
100
AcDbLine
6
CONTINUOUS
62
5
10
104.923918
20
185.112639
11
105.113084
21
185.774721
0
ARC
5
339
100
AcDbEntity
8
3
100
AcDbCircle
6
CONTINUOUS
62
5
10
106.074608
20
185.500000
40
1.000000
100
AcDbArc
50
89.999999
51
164.054603
0
LINE
5
33a
100
AcDbEntity
8
3
100
AcDbLine
6
CONTINUOUS
62
5
10
106.074608
20
186.500000
11
106.178570
21
186.500000
0
ARC
5
33b
100
AcDbEntity
8
3
100
AcDbCircle
6
CONTINUOUS
62
5
10
106.178572
20
185.700003
40
0.799997
100
AcDbArc
50
12.528696
51
90.000121
0
LINE
5
33c
100
AcDbEntity
8
3
100
AcDbLine
6
CONTINUOUS
62
5
10
106.959519
20
185.873545
11
107.298085
21
184.350000
0
LINE
5
33d
100
AcDbEntity
8
3
100
AcDbLine
6
CONTINUOUS
62
5
10
95.720307
20
165.000000
11
100.320307
21
165.000000
0
POLYLINE
5
33e
100
AcDbEntity
8
1
6
CONTINUOUS
62
5
100
AcDb2dPolyline
66
1
10
0.0
20
0.0
30
0.0
70
1
0
VERTEX
5
33f
100
AcDbEntity
8
1
100
AcDbVertex
100
AcDb2dVertex
62
5
10
111.320321
20
168.150000
0
VERTEX
5
340
100
AcDbEntity
8
1
100
AcDbVertex
100
AcDb2dVertex
62
5
10
111.320321
20
176.850000
0
VERTEX
5
341
100
AcDbEntity
8
1
100
AcDbVertex
100
AcDb2dVertex
62
5
10
109.120321
20
176.850000
0
VERTEX
5
342
100
AcDbEntity
8
1
100
AcDbVertex
100
AcDb2dVertex
62
5
10
109.120321
20
168.150000
0
SEQEND
5
343
100
AcDbEntity
8
1
0
ARC
5
344
100
AcDbEntity
8
3
100
AcDbCircle
6
CONTINUOUS
62
5
10
107.070307
20
167.500000
40
1.500000
100
AcDbArc
50
179.999998
51
-91.254859
0
LINE
5
345
100
AcDbEntity
8
3
100
AcDbLine
6
CONTINUOUS
62
5
10
105.570307
20
167.500000
11
105.570307
21
177.500000
0
ARC
5
346
100
AcDbEntity
8
3
100
AcDbCircle
6
CONTINUOUS
62
5
10
107.070307
20
177.500000
40
1.500000
100
AcDbArc
50
89.999999
51
179.999998
0
LINE
5
347
100
AcDbEntity
8
3
100
AcDbLine
6
CONTINUOUS
62
5
10
107.070307
20
179.000000
11
113.070307
21
179.000000
0
ARC
5
348
100
AcDbEntity
8
3
100
AcDbCircle
6
CONTINUOUS
62
5
10
113.070307
20
177.500000
40
1.500000
100
AcDbArc
50
0.000000
51
89.999999
0
LINE
5
349
100
AcDbEntity
8
3
100
AcDbLine
6
CONTINUOUS
62
5
10
114.570307
20
177.500000
11
114.569603
21
167.454038
0
ARC
5
34a
100
AcDbEntity
8
3
100
AcDbCircle
6
CONTINUOUS
62
5
10
113.070307
20
167.500000
40
1.500000
100
AcDbArc
50
-89.999999
51
-1.755889
0
POLYLINE
5
34b
100
AcDbEntity
8
3
6
CONTINUOUS
62
5
100
AcDb2dPolyline
66
1
10
0.0
20
0.0
30
0.0
70
0
0
VERTEX
5
34c
100
AcDbEntity
8
3
100
AcDbVertex
100
AcDb2dVertex
62
5
10
107.070307
20
166.000000
0
VERTEX
5
34d
100
AcDbEntity
8
3
100
AcDbVertex
100
AcDb2dVertex
62
5
10
113.070307
20
166.000000
0
VERTEX
5
34e
100
AcDbEntity
8
3
100
AcDbVertex
100
AcDb2dVertex
62
5
10
107.037458
20
166.000360
0
SEQEND
5
34f
100
AcDbEntity
8
3
0
CIRCLE
5
350
100
AcDbEntity
8
3
100
AcDbCircle
6
CONTINUOUS
62
5
10
129.570307
20
200.500000
40
2.250000
0
LINE
5
351
100
AcDbEntity
8
2
100
AcDbLine
6
CONTINUOUS
62
5
10
125.922880
20
204.071691
11
127.376096
21
202.618475
0
LINE
5
352
100
AcDbEntity
8
2
100
AcDbLine
6
CONTINUOUS
62
5
10
131.688783
20
198.305790
11
134.570307
21
195.424267
0
LINE
5
353
100
AcDbEntity
8
2
100
AcDbLine
6
CONTINUOUS
62
5
10
134.570307
20
195.000001
11
131.462444
21
198.107863
0
LINE
5
354
100
AcDbEntity
8
2
100
AcDbLine
6
CONTINUOUS
62
5
10
127.178170
20
202.392137
11
125.920307
21
203.650000
0
CIRCLE
5
355
100
AcDbEntity
8
3
100
AcDbCircle
6
CONTINUOUS
62
5
10
129.570307
20
200.500000
40
3.050000
0
LINE
5
356
100
AcDbEntity
8
2
100
AcDbLine
6
CONTINUOUS
62
5
10
125.496043
20
203.650000
11
127.001594
21
202.144449
0
LINE
5
357
100
AcDbEntity
8
2
100
AcDbLine
6
CONTINUOUS
62
5
10
131.214756
20
197.931287
11
134.570307
21
194.575736
0
LINE
5
358
100
AcDbEntity
8
3
100
AcDbLine
6
CONTINUOUS
62
5
10
113.570307
20
203.650000
11
113.570307
21
197.350000
0
CIRCLE
5
359
100
AcDbEntity
8
3
100
AcDbCircle
6
CONTINUOUS
62
5
10
103.570307
20
200.500000
40
2.250000
0
CIRCLE
5
35a
100
AcDbEntity
8
3
100
AcDbCircle
6
CONTINUOUS
62
5
10
103.570307
20
200.500000
40
3.050000
0
CIRCLE
5
35b
100
AcDbEntity
8
1
100
AcDbCircle
6
CONTINUOUS
62
5
10
116.570307
20
200.500000
40
1.750000
0
LINE
5
35c
100
AcDbEntity
8
2
100
AcDbLine
6
CONTINUOUS
62
5
10
98.570307
20
195.424265
11
101.451832
21
198.305789
0
LINE
5
35d
100
AcDbEntity
8
2
100
AcDbLine
6
CONTINUOUS
62
5
10
105.764519
20
202.618474
11
107.217734
21
204.071689
0
LINE
5
35e
100
AcDbEntity
8
2
100
AcDbLine
6
CONTINUOUS
62
5
10
107.220307
20
203.650000
11
105.962444
21
202.392137
0
LINE
5
35f
100
AcDbEntity
8
2
100
AcDbLine
6
CONTINUOUS
62
5
10
101.678170
20
198.107863
11
98.570307
21
195.000001
0
LINE
5
360
100
AcDbEntity
8
2
100
AcDbLine
6
CONTINUOUS
62
5
10
98.570307
20
194.575736
11
101.925858
21
197.931287
0
LINE
5
361
100
AcDbEntity
8
2
100
AcDbLine
6
CONTINUOUS
62
5
10
106.139020
20
202.144449
11
107.644571
21
203.650000
0
LINE
5
362
100
AcDbEntity
8
3
100
AcDbLine
6
CONTINUOUS
62
5
10
119.570307
20
203.650000
11
119.570307
21
197.350000
0
POLYLINE
5
363
100
AcDbEntity
8
3
6
CONTINUOUS
62
5
100
AcDb2dPolyline
66
1
10
0.0
20
0.0
30
0.0
70
0
0
VERTEX
5
364
100
AcDbEntity
8
3
100
AcDbVertex
100
AcDb2dVertex
62
5
10
122.070307
20
203.650000
0
VERTEX
5
365
100
AcDbEntity
8
3
100
AcDbVertex
100
AcDb2dVertex
62
5
10
122.070307
20
197.350000
0
VERTEX
5
366
100
AcDbEntity
8
3
100
AcDbVertex
100
AcDb2dVertex
62
5
10
111.070307
20
197.350000
0
VERTEX
5
367
100
AcDbEntity
8
3
100
AcDbVertex
100
AcDb2dVertex
62
5
10
111.070307
20
203.650000
0
SEQEND
5
368
100
AcDbEntity
8
3
0
LINE
5
369
100
AcDbEntity
8
1
100
AcDbLine
6
CONTINUOUS
62
5
10
147.750000
20
327.437500
11
148.750000
21
326.187500
0
POLYLINE
5
36a
100
AcDbEntity
8
1
6
CONTINUOUS
62
5
100
AcDb2dPolyline
66
1
10
0.0
20
0.0
30
0.0
70
0
0
VERTEX
5
36b
100
AcDbEntity
8
1
100
AcDbVertex
100
AcDb2dVertex
62
5
10
147.500000
20
322.437500
0
VERTEX
5
36c
100
AcDbEntity
8
1
100
AcDbVertex
100
AcDb2dVertex
62
5
10
149.250000
20
323.375000
0
VERTEX
5
36d
100
AcDbEntity
8
1
100
AcDbVertex
100
AcDb2dVertex
62
5
10
150.750000
20
324.625000
0
VERTEX
5
36e
100
AcDbEntity
8
1
100
AcDbVertex
100
AcDb2dVertex
62
5
10
152.250000
20
326.187500
0
SEQEND
5
36f
100
AcDbEntity
8
1
0
ARC
5
370
100
AcDbEntity
8
3
100
AcDbCircle
6
CONTINUOUS
62
5
10
219.920307
20
145.000000
40
1.000000
100
AcDbArc
50
0.000000
51
89.999999
0
LINE
5
371
100
AcDbEntity
8
3
100
AcDbLine
6
CONTINUOUS
62
5
10
219.920307
20
146.000000
11
211.820307
21
146.000000
0
ARC
5
372
100
AcDbEntity
8
3
100
AcDbCircle
6
CONTINUOUS
62
5
10
219.920307
20
150.000000
40
1.000000
100
AcDbArc
50
-89.999999
51
-0.000000
0
LINE
5
373
100
AcDbEntity
8
3
100
AcDbLine
6
CONTINUOUS
62
5
10
211.820307
20
149.000000
11
219.920307
21
149.000000
0
LINE
5
374
100
AcDbEntity
8
3
100
AcDbLine
6
CONTINUOUS
62
5
10
219.920307
20
149.000000
11
211.820307
21
149.000000
0
LINE
5
375
100
AcDbEntity
8
3
100
AcDbLine
6
CONTINUOUS
62
5
10
200.420307
20
151.000000
11
200.420307
21
144.000000
0
LINE
5
376
100
AcDbEntity
8
2
100
AcDbLine
6
CONTINUOUS
62
5
10
223.354193
20
135.694383
11
223.354193
21
135.278606
0
LINE
5
377
100
AcDbEntity
8
2
100
AcDbLine
6
CONTINUOUS
62
5
10
223.390828
20
135.701955
11
223.390828
21
135.287785
0
LINE
5
378
100
AcDbEntity
8
2
100
AcDbLine
6
CONTINUOUS
62
5
10
222.654193
20
135.627282
11
222.654193
21
135.297536
0
LINE
5
379
100
AcDbEntity
8
2
100
AcDbLine
6
CONTINUOUS
62
5
10
222.053496
20
135.673384
11
222.053496
21
135.518075
0
POLYLINE
5
37a
100
AcDbEntity
8
2
6
CONTINUOUS
62
5
100
AcDb2dPolyline
66
1
10
0.0
20
0.0
30
0.0
70
0
0
VERTEX
5
37b
100
AcDbEntity
8
2
100
AcDbVertex
100
AcDb2dVertex
62
5
10
222.654193
20
129.979752
0
VERTEX
5
37c
100
AcDbEntity
8
2
100
AcDbVertex
100
AcDb2dVertex
62
5
10
222.654884
20
129.970529
0
VERTEX
5
37d
100
AcDbEntity
8
2
100
AcDbVertex
100
AcDb2dVertex
62
5
10
222.656953
20
129.961342
0
VERTEX
5
37e
100
AcDbEntity
8
2
100
AcDbVertex
100
AcDb2dVertex
62
5
10
222.660393
20
129.952228
0
VERTEX
5
37f
100
AcDbEntity
8
2
100
AcDbVertex
100
AcDb2dVertex
62
5
10
222.665189
20
129.943223
0
VERTEX
5
380
100
AcDbEntity
8
2
100
AcDbVertex
100
AcDb2dVertex
62
5
10
222.671323
20
129.934362
0
VERTEX
5
381
100
AcDbEntity
8
2
100
AcDbVertex
100
AcDb2dVertex
62
5
10
222.678771
20
129.925680
0
VERTEX
5
382
100
AcDbEntity
8
2
100
AcDbVertex
100
AcDb2dVertex
62
5
10
222.687504
20
129.917211
0
VERTEX
5
383
100
AcDbEntity
8
2
100
AcDbVertex
100
AcDb2dVertex
62
5
10
222.697486
20
129.908990
0
VERTEX
5
384
100
AcDbEntity
8
2
100
AcDbVertex
100
AcDb2dVertex
62
5
10
222.708678
20
129.901047
0
VERTEX
5
385
100
AcDbEntity
8
2
100
AcDbVertex
100
AcDb2dVertex
62
5
10
222.721037
20
129.893415
0
VERTEX
5
386
100
AcDbEntity
8
2
100
AcDbVertex
100
AcDb2dVertex
62
5
10
222.734514
20
129.886124
0
VERTEX
5
387
100
AcDbEntity
8
2
100
AcDbVertex
100
AcDb2dVertex
62
5
10
222.749054
20
129.879202
0
VERTEX
5
388
100
AcDbEntity
8
2
100
AcDbVertex
100
AcDb2dVertex
62
5
10
222.764602
20
129.872677
0
VERTEX
5
389
100
AcDbEntity
8
2
100
AcDbVertex
100
AcDb2dVertex
62
5
10
222.781095
20
129.866575
0
VERTEX
5
38a
100
AcDbEntity
8
2
100
AcDbVertex
100
AcDb2dVertex
62
5
10
222.798468
20
129.860919
0
VERTEX
5
38b
100
AcDbEntity
8
2
100
AcDbVertex
100
AcDb2dVertex
62
5
10
222.816654
20
129.855733
0
VERTEX
5
38c
100
AcDbEntity
8
2
100
AcDbVertex
100
AcDb2dVertex
62
5
10
222.835579
20
129.851036
0
VERTEX
5
38d
100
AcDbEntity
8
2
100
AcDbVertex
100
AcDb2dVertex
62
5
10
222.855170
20
129.846846
0
VERTEX
5
38e
100
AcDbEntity
8
2
100
AcDbVertex
100
AcDb2dVertex
62
5
10
222.875350
20
129.843182
0
VERTEX
5
38f
100
AcDbEntity
8
2
100
AcDbVertex
100
AcDb2dVertex
62
5
10
222.896037
20
129.840056
0
VERTEX
5
390
100
AcDbEntity
8
2
100
AcDbVertex
100
AcDb2dVertex
62
5
10
222.917152
20
129.837481
0
VERTEX
5
391
100
AcDbEntity
8
2
100
AcDbVertex
100
AcDb2dVertex
62
5
10
222.938610
20
129.835469
0
VERTEX
5
392
100
AcDbEntity
8
2
100
AcDbVertex
100
AcDb2dVertex
62
5
10
222.960327
20
129.834025
0
VERTEX
5
393
100
AcDbEntity
8
2
100
AcDbVertex
100
AcDb2dVertex
62
5
10
222.982217
20
129.833157
0
VERTEX
5
394
100
AcDbEntity
8
2
100
AcDbVertex
100
AcDb2dVertex
62
5
10
223.004193
20
129.832867
0
VERTEX
5
395
100
AcDbEntity
8
2
100
AcDbVertex
100
AcDb2dVertex
62
5
10
223.026170
20
129.833157
0
VERTEX
5
396
100
AcDbEntity
8
2
100
AcDbVertex
100
AcDb2dVertex
62
5
10
223.048060
20
129.834025
0
VERTEX
5
397
100
AcDbEntity
8
2
100
AcDbVertex
100
AcDb2dVertex
62
5
10
223.069777
20
129.835469
0
VERTEX
5
398
100
AcDbEntity
8
2
100
AcDbVertex
100
AcDb2dVertex
62
5
10
223.091235
20
129.837481
0
VERTEX
5
399
100
AcDbEntity
8
2
100
AcDbVertex
100
AcDb2dVertex
62
5
10
223.112349
20
129.840056
0
VERTEX
5
39a
100
AcDbEntity
8
2
100
AcDbVertex
100
AcDb2dVertex
62
5
10
223.133037
20
129.843182
0
VERTEX
5
39b
100
AcDbEntity
8
2
100
AcDbVertex
100
AcDb2dVertex
62
5
10
223.153216
20
129.846846
0
VERTEX
5
39c
100
AcDbEntity
8
2
100
AcDbVertex
100
AcDb2dVertex
62
5
10
223.172807
20
129.851036
0
VERTEX
5
39d
100
AcDbEntity
8
2
100
AcDbVertex
100
AcDb2dVertex
62
5
10
223.191733
20
129.855733
0
VERTEX
5
39e
100
AcDbEntity
8
2
100
AcDbVertex
100
AcDb2dVertex
62
5
10
223.209918
20
129.860919
0
VERTEX
5
39f
100
AcDbEntity
8
2
100
AcDbVertex
100
AcDb2dVertex
62
5
10
223.227292
20
129.866575
0
VERTEX
5
3a0
100
AcDbEntity
8
2
100
AcDbVertex
100
AcDb2dVertex
62
5
10
223.243785
20
129.872677
0
VERTEX
5
3a1
100
AcDbEntity
8
2
100
AcDbVertex
100
AcDb2dVertex
62
5
10
223.259332
20
129.879202
0
VERTEX
5
3a2
100
AcDbEntity
8
2
100
AcDbVertex
100
AcDb2dVertex
62
5
10
223.273873
20
129.886124
0
VERTEX
5
3a3
100
AcDbEntity
8
2
100
AcDbVertex
100
AcDb2dVertex
62
5
10
223.287349
20
129.893415
0
VERTEX
5
3a4
100
AcDbEntity
8
2
100
AcDbVertex
100
AcDb2dVertex
62
5
10
223.299708
20
129.901047
0
VERTEX
5
3a5
100
AcDbEntity
8
2
100
AcDbVertex
100
AcDb2dVertex
62
5
10
223.310901
20
129.908990
0
VERTEX
5
3a6
100
AcDbEntity
8
2
100
AcDbVertex
100
AcDb2dVertex
62
5
10
223.320883
20
129.917211
0
VERTEX
5
3a7
100
AcDbEntity
8
2
100
AcDbVertex
100
AcDb2dVertex
62
5
10
223.329615
20
129.925680
0
VERTEX
5
3a8
100
AcDbEntity
8
2
100
AcDbVertex
100
AcDb2dVertex
62
5
10
223.337063
20
129.934362
0
VERTEX
5
3a9
100
AcDbEntity
8
2
100
AcDbVertex
100
AcDb2dVertex
62
5
10
223.343197
20
129.943223
0
VERTEX
5
3aa
100
AcDbEntity
8
2
100
AcDbVertex
100
AcDb2dVertex
62
5
10
223.347994
20
129.952228
0
VERTEX
5
3ab
100
AcDbEntity
8
2
100
AcDbVertex
100
AcDb2dVertex
62
5
10
223.351433
20
129.961342
0
VERTEX
5
3ac
100
AcDbEntity
8
2
100
AcDbVertex
100
AcDb2dVertex
62
5
10
223.353503
20
129.970529
0
VERTEX
5
3ad
100
AcDbEntity
8
2
100
AcDbVertex
100
AcDb2dVertex
62
5
10
223.354193
20
129.979752
0
VERTEX
5
3ae
100
AcDbEntity
8
2
100
AcDbVertex
100
AcDb2dVertex
62
5
10
223.354193
20
129.979752
0
SEQEND
5
3af
100
AcDbEntity
8
2
0
POLYLINE
5
3b0
100
AcDbEntity
8
2
6
CONTINUOUS
62
5
100
AcDb2dPolyline
66
1
10
0.0
20
0.0
30
0.0
70
0
0
VERTEX
5
3b1
100
AcDbEntity
8
2
100
AcDbVertex
100
AcDb2dVertex
62
5
10
222.053811
20
130.149690
0
VERTEX
5
3b2
100
AcDbEntity
8
2
100
AcDbVertex
100
AcDb2dVertex
62
5
10
222.053569
20
130.140463
0
VERTEX
5
3b3
100
AcDbEntity
8
2
100
AcDbVertex
100
AcDb2dVertex
62
5
10
222.054709
20
130.131247
0
VERTEX
5
3b4
100
AcDbEntity
8
2
100
AcDbVertex
100
AcDb2dVertex
62
5
10
222.057225
20
130.122081
0
VERTEX
5
3b5
100
AcDbEntity
8
2
100
AcDbVertex
100
AcDb2dVertex
62
5
10
222.061107
20
130.112998
0
VERTEX
5
3b6
100
AcDbEntity
8
2
100
AcDbVertex
100
AcDb2dVertex
62
5
10
222.066341
20
130.104036
0
VERTEX
5
3b7
100
AcDbEntity
8
2
100
AcDbVertex
100
AcDb2dVertex
62
5
10
222.072905
20
130.095229
0
VERTEX
5
3b8
100
AcDbEntity
8
2
100
AcDbVertex
100
AcDb2dVertex
62
5
10
222.080774
20
130.086613
0
VERTEX
5
3b9
100
AcDbEntity
8
2
100
AcDbVertex
100
AcDb2dVertex
62
5
10
222.089917
20
130.078221
0
VERTEX
5
3ba
100
AcDbEntity
8
2
100
AcDbVertex
100
AcDb2dVertex
62
5
10
222.100297
20
130.070086
0
VERTEX
5
3bb
100
AcDbEntity
8
2
100
AcDbVertex
100
AcDb2dVertex
62
5
10
222.111874
20
130.062241
0
VERTEX
5
3bc
100
AcDbEntity
8
2
100
AcDbVertex
100
AcDb2dVertex
62
5
10
222.124602
20
130.054717
0
VERTEX
5
3bd
100
AcDbEntity
8
2
100
AcDbVertex
100
AcDb2dVertex
62
5
10
222.138430
20
130.047543
0
VERTEX
5
3be
100
AcDbEntity
8
2
100
AcDbVertex
100
AcDb2dVertex
62
5
10
222.153304
20
130.040747
0
VERTEX
5
3bf
100
AcDbEntity
8
2
100
AcDbVertex
100
AcDb2dVertex
62
5
10
222.169166
20
130.034357
0
VERTEX
5
3c0
100
AcDbEntity
8
2
100
AcDbVertex
100
AcDb2dVertex
62
5
10
222.185953
20
130.028397
0
VERTEX
5
3c1
100
AcDbEntity
8
2
100
AcDbVertex
100
AcDb2dVertex
62
5
10
222.203598
20
130.022892
0
VERTEX
5
3c2
100
AcDbEntity
8
2
100
AcDbVertex
100
AcDb2dVertex
62
5
10
222.222032
20
130.017862
0
VERTEX
5
3c3
100
AcDbEntity
8
2
100
AcDbVertex
100
AcDb2dVertex
62
5
10
222.241183
20
130.013328
0
VERTEX
5
3c4
100
AcDbEntity
8
2
100
AcDbVertex
100
AcDb2dVertex
62
5
10
222.260973
20
130.009308
0
VERTEX
5
3c5
100
AcDbEntity
8
2
100
AcDbVertex
100
AcDb2dVertex
62
5
10
222.281327
20
130.005817
0
VERTEX
5
3c6
100
AcDbEntity
8
2
100
AcDbVertex
100
AcDb2dVertex
62
5
10
222.302162
20
130.002869
0
VERTEX
5
3c7
100
AcDbEntity
8
2
100
AcDbVertex
100
AcDb2dVertex
62
5
10
222.323398
20
130.000476
0
VERTEX
5
3c8
100
AcDbEntity
8
2
100
AcDbVertex
100
AcDb2dVertex
62
5
10
222.344949
20
129.998647
0
VERTEX
5
3c9
100
AcDbEntity
8
2
100
AcDbVertex
100
AcDb2dVertex
62
5
10
222.366732
20
129.997390
0
VERTEX
5
3ca
100
AcDbEntity
8
2
100
AcDbVertex
100
AcDb2dVertex
62
5
10
222.388659
20
129.996710
0
VERTEX
5
3cb
100
AcDbEntity
8
2
100
AcDbVertex
100
AcDb2dVertex
62
5
10
222.410646
20
129.996608
0
VERTEX
5
3cc
100
AcDbEntity
8
2
100
AcDbVertex
100
AcDb2dVertex
62
5
10
222.432603
20
129.997087
0
VERTEX
5
3cd
100
AcDbEntity
8
2
100
AcDbVertex
100
AcDb2dVertex
62
5
10
222.454447
20
129.998142
0
VERTEX
5
3ce
100
AcDbEntity
8
2
100
AcDbVertex
100
AcDb2dVertex
62
5
10
222.476089
20
129.999772
0
VERTEX
5
3cf
100
AcDbEntity
8
2
100
AcDbVertex
100
AcDb2dVertex
62
5
10
222.497444
20
130.001968
0
VERTEX
5
3d0
100
AcDbEntity
8
2
100
AcDbVertex
100
AcDb2dVertex
62
5
10
222.518429
20
130.004723
0
VERTEX
5
3d1
100
AcDbEntity
8
2
100
AcDbVertex
100
AcDb2dVertex
62
5
10
222.538960
20
130.008026
0
VERTEX
5
3d2
100
AcDbEntity
8
2
100
AcDbVertex
100
AcDb2dVertex
62
5
10
222.558957
20
130.011863
0
VERTEX
5
3d3
100
AcDbEntity
8
2
100
AcDbVertex
100
AcDb2dVertex
62
5
10
222.578340
20
130.016219
0
VERTEX
5
3d4
100
AcDbEntity
8
2
100
AcDbVertex
100
AcDb2dVertex
62
5
10
222.597033
20
130.021077
0
VERTEX
5
3d5
100
AcDbEntity
8
2
100
AcDbVertex
100
AcDb2dVertex
62
5
10
222.614962
20
130.026419
0
VERTEX
5
3d6
100
AcDbEntity
8
2
100
AcDbVertex
100
AcDb2dVertex
62
5
10
222.632057
20
130.032222
0
VERTEX
5
3d7
100
AcDbEntity
8
2
100
AcDbVertex
100
AcDb2dVertex
62
5
10
222.648249
20
130.038465
0
VERTEX
5
3d8
100
AcDbEntity
8
2
100
AcDbVertex
100
AcDb2dVertex
62
5
10
222.654319
20
130.041019
0
SEQEND
5
3d9
100
AcDbEntity
8
2
0
LINE
5
3da
100
AcDbEntity
8
2
100
AcDbLine
6
CONTINUOUS
62
5
10
222.654193
20
129.979752
11
222.654193
21
130.352697
0
LINE
5
3db
100
AcDbEntity
8
2
100
AcDbLine
6
CONTINUOUS
62
5
10
223.354193
20
129.979752
11
223.354193
21
130.398511
0
POLYLINE
5
3dc
100
AcDbEntity
8
3
6
CONTINUOUS
62
5
100
AcDb2dPolyline
66
1
10
0.0
20
0.0
30
0.0
70
0
0
VERTEX
5
3dd
100
AcDbEntity
8
3
100
AcDbVertex
100
AcDb2dVertex
62
5
10
223.470307
20
135.719849
0
VERTEX
5
3de
100
AcDbEntity
8
3
100
AcDbVertex
100
AcDb2dVertex
62
5
10
223.470308
20
135.340999
0
VERTEX
5
3df
100
AcDbEntity
8
3
100
AcDbVertex
100
AcDb2dVertex
62
5
10
223.469617
20
135.335733
0
VERTEX
5
3e0
100
AcDbEntity
8
3
100
AcDbVertex
100
AcDb2dVertex
62
5
10
223.467548
20
135.330487
0
VERTEX
5
3e1
100
AcDbEntity
8
3
100
AcDbVertex
100
AcDb2dVertex
62
5
10
223.464108
20
135.325284
0
VERTEX
5
3e2
100
AcDbEntity
8
3
100
AcDbVertex
100
AcDb2dVertex
62
5
10
223.459312
20
135.320142
0
VERTEX
5
3e3
100
AcDbEntity
8
3
100
AcDbVertex
100
AcDb2dVertex
62
5
10
223.453177
20
135.315082
0
VERTEX
5
3e4
100
AcDbEntity
8
3
100
AcDbVertex
100
AcDb2dVertex
62
5
10
223.445729
20
135.310125
0
VERTEX
5
3e5
100
AcDbEntity
8
3
100
AcDbVertex
100
AcDb2dVertex
62
5
10
223.436997
20
135.305289
0
VERTEX
5
3e6
100
AcDbEntity
8
3
100
AcDbVertex
100
AcDb2dVertex
62
5
10
223.427015
20
135.300595
0
VERTEX
5
3e7
100
AcDbEntity
8
3
100
AcDbVertex
100
AcDb2dVertex
62
5
10
223.415822
20
135.296060
0
VERTEX
5
3e8
100
AcDbEntity
8
3
100
AcDbVertex
100
AcDb2dVertex
62
5
10
223.403463
20
135.291702
0
VERTEX
5
3e9
100
AcDbEntity
8
3
100
AcDbVertex
100
AcDb2dVertex
62
5
10
223.389987
20
135.287539
0
VERTEX
5
3ea
100
AcDbEntity
8
3
100
AcDbVertex
100
AcDb2dVertex
62
5
10
223.375447
20
135.283587
0
VERTEX
5
3eb
100
AcDbEntity
8
3
100
AcDbVertex
100
AcDb2dVertex
62
5
10
223.359899
20
135.279861
0
VERTEX
5
3ec
100
AcDbEntity
8
3
100
AcDbVertex
100
AcDb2dVertex
62
5
10
223.343406
20
135.276377
0
VERTEX
5
3ed
100
AcDbEntity
8
3
100
AcDbVertex
100
AcDb2dVertex
62
5
10
223.326032
20
135.273148
0
VERTEX
5
3ee
100
AcDbEntity
8
3
100
AcDbVertex
100
AcDb2dVertex
62
5
10
223.307847
20
135.270186
0
VERTEX
5
3ef
100
AcDbEntity
8
3
100
AcDbVertex
100
AcDb2dVertex
62
5
10
223.288921
20
135.267504
0
VERTEX
5
3f0
100
AcDbEntity
8
3
100
AcDbVertex
100
AcDb2dVertex
62
5
10
223.269330
20
135.265112
0
VERTEX
5
3f1
100
AcDbEntity
8
3
100
AcDbVertex
100
AcDb2dVertex
62
5
10
223.249151
20
135.263020
0
VERTEX
5
3f2
100
AcDbEntity
8
3
100
AcDbVertex
100
AcDb2dVertex
62
5
10
223.228463
20
135.261235
0
VERTEX
5
3f3
100
AcDbEntity
8
3
100
AcDbVertex
100
AcDb2dVertex
62
5
10
223.207349
20
135.259765
0
VERTEX
5
3f4
100
AcDbEntity
8
3
100
AcDbVertex
100
AcDb2dVertex
62
5
10
223.185891
20
135.258616
0
VERTEX
5
3f5
100
AcDbEntity
8
3
100
AcDbVertex
100
AcDb2dVertex
62
5
10
223.164174
20
135.257791
0
VERTEX
5
3f6
100
AcDbEntity
8
3
100
AcDbVertex
100
AcDb2dVertex
62
5
10
223.142284
20
135.257296
0
VERTEX
5
3f7
100
AcDbEntity
8
3
100
AcDbVertex
100
AcDb2dVertex
62
5
10
223.120307
20
135.257130
0
VERTEX
5
3f8
100
AcDbEntity
8
3
100
AcDbVertex
100
AcDb2dVertex
62
5
10
223.048545
20
135.258003
0
VERTEX
5
3f9
100
AcDbEntity
8
3
100
AcDbVertex
100
AcDb2dVertex
62
5
10
222.967184
20
135.261311
0
VERTEX
5
3fa
100
AcDbEntity
8
3
100
AcDbVertex
100
AcDb2dVertex
62
5
10
222.886427
20
135.267004
0
VERTEX
5
3fb
100
AcDbEntity
8
3
100
AcDbVertex
100
AcDb2dVertex
62
5
10
222.806592
20
135.275060
0
VERTEX
5
3fc
100
AcDbEntity
8
3
100
AcDbVertex
100
AcDb2dVertex
62
5
10
222.727996
20
135.285446
0
VERTEX
5
3fd
100
AcDbEntity
8
3
100
AcDbVertex
100
AcDb2dVertex
62
5
10
222.650948
20
135.298121
0
VERTEX
5
3fe
100
AcDbEntity
8
3
100
AcDbVertex
100
AcDb2dVertex
62
5
10
222.575753
20
135.313036
0
VERTEX
5
3ff
100
AcDbEntity
8
3
100
AcDbVertex
100
AcDb2dVertex
62
5
10
222.502706
20
135.330132
0
VERTEX
5
400
100
AcDbEntity
8
3
100
AcDbVertex
100
AcDb2dVertex
62
5
10
222.432097
20
135.349342
0
VERTEX
5
401
100
AcDbEntity
8
3
100
AcDbVertex
100
AcDb2dVertex
62
5
10
222.364204
20
135.370588
0
VERTEX
5
402
100
AcDbEntity
8
3
100
AcDbVertex
100
AcDb2dVertex
62
5
10
222.299295
20
135.393788
0
VERTEX
5
403
100
AcDbEntity
8
3
100
AcDbVertex
100
AcDb2dVertex
62
5
10
222.237626
20
135.418851
0
VERTEX
5
404
100
AcDbEntity
8
3
100
AcDbVertex
100
AcDb2dVertex
62
5
10
222.179441
20
135.445676
0
VERTEX
5
405
100
AcDbEntity
8
3
100
AcDbVertex
100
AcDb2dVertex
62
5
10
222.124969
20
135.474159
0
VERTEX
5
406
100
AcDbEntity
8
3
100
AcDbVertex
100
AcDb2dVertex
62
5
10
222.074425
20
135.504186
0
VERTEX
5
407
100
AcDbEntity
8
3
100
AcDbVertex
100
AcDb2dVertex
62
5
10
222.028009
20
135.535640
0
VERTEX
5
408
100
AcDbEntity
8
3
100
AcDbVertex
100
AcDb2dVertex
62
5
10
221.985903
20
135.568396
0
VERTEX
5
409
100
AcDbEntity
8
3
100
AcDbVertex
100
AcDb2dVertex
62
5
10
221.948274
20
135.602325
0
VERTEX
5
40a
100
AcDbEntity
8
3
100
AcDbVertex
100
AcDb2dVertex
62
5
10
221.915271
20
135.637293
0
VERTEX
5
40b
100
AcDbEntity
8
3
100
AcDbVertex
100
AcDb2dVertex
62
5
10
221.887024
20
135.673162
0
VERTEX
5
40c
100
AcDbEntity
8
3
100
AcDbVertex
100
AcDb2dVertex
62
5
10
221.863644
20
135.709790
0
SEQEND
5
40d
100
AcDbEntity
8
3
0
POLYLINE
5
40e
100
AcDbEntity
8
3
6
CONTINUOUS
62
5
100
AcDb2dPolyline
66
1
10
0.0
20
0.0
30
0.0
70
0
0
VERTEX
5
40f
100
AcDbEntity
8
3
100
AcDbVertex
100
AcDb2dVertex
62
5
10
224.277457
20
135.340999
0
VERTEX
5
410
100
AcDbEntity
8
3
100
AcDbVertex
100
AcDb2dVertex
62
5
10
224.275187
20
135.314647
0
VERTEX
5
411
100
AcDbEntity
8
3
100
AcDbVertex
100
AcDb2dVertex
62
5
10
224.268389
20
135.288399
0
VERTEX
5
412
100
AcDbEntity
8
3
100
AcDbVertex
100
AcDb2dVertex
62
5
10
224.257087
20
135.262358
0
VERTEX
5
413
100
AcDbEntity
8
3
100
AcDbVertex
100
AcDb2dVertex
62
5
10
224.241327
20
135.236628
0
VERTEX
5
414
100
AcDbEntity
8
3
100
AcDbVertex
100
AcDb2dVertex
62
5
10
224.221172
20
135.211310
0
VERTEX
5
415
100
AcDbEntity
8
3
100
AcDbVertex
100
AcDb2dVertex
62
5
10
224.196700
20
135.186503
0
VERTEX
5
416
100
AcDbEntity
8
3
100
AcDbVertex
100
AcDb2dVertex
62
5
10
224.168008
20
135.162306
0
VERTEX
5
417
100
AcDbEntity
8
3
100
AcDbVertex
100
AcDb2dVertex
62
5
10
224.135209
20
135.138815
0
VERTEX
5
418
100
AcDbEntity
8
3
100
AcDbVertex
100
AcDb2dVertex
62
5
10
224.098434
20
135.116121
0
VERTEX
5
419
100
AcDbEntity
8
3
100
AcDbVertex
100
AcDb2dVertex
62
5
10
224.057826
20
135.094315
0
VERTEX
5
41a
100
AcDbEntity
8
3
100
AcDbVertex
100
AcDb2dVertex
62
5
10
224.013547
20
135.073483
0
VERTEX
5
41b
100
AcDbEntity
8
3
100
AcDbVertex
100
AcDb2dVertex
62
5
10
223.965771
20
135.053706
0
VERTEX
5
41c
100
AcDbEntity
8
3
100
AcDbVertex
100
AcDb2dVertex
62
5
10
223.914686
20
135.035063
0
VERTEX
5
41d
100
AcDbEntity
8
3
100
AcDbVertex
100
AcDb2dVertex
62
5
10
223.860494
20
135.017627
0
VERTEX
5
41e
100
AcDbEntity
8
3
100
AcDbVertex
100
AcDb2dVertex
62
5
10
223.803410
20
135.001468
0
VERTEX
5
41f
100
AcDbEntity
8
3
100
AcDbVertex
100
AcDb2dVertex
62
5
10
223.743657
20
134.986649
0
VERTEX
5
420
100
AcDbEntity
8
3
100
AcDbVertex
100
AcDb2dVertex
62
5
10
223.681473
20
134.973228
0
VERTEX
5
421
100
AcDbEntity
8
3
100
AcDbVertex
100
AcDb2dVertex
62
5
10
223.617103
20
134.961258
0
VERTEX
5
422
100
AcDbEntity
8
3
100
AcDbVertex
100
AcDb2dVertex
62
5
10
223.550800
20
134.950787
0
VERTEX
5
423
100
AcDbEntity
8
3
100
AcDbVertex
100
AcDb2dVertex
62
5
10
223.482826
20
134.941856
0
VERTEX
5
424
100
AcDbEntity
8
3
100
AcDbVertex
100
AcDb2dVertex
62
5
10
223.413450
20
134.934501
0
VERTEX
5
425
100
AcDbEntity
8
3
100
AcDbVertex
100
AcDb2dVertex
62
5
10
223.342945
20
134.928749
0
VERTEX
5
426
100
AcDbEntity
8
3
100
AcDbVertex
100
AcDb2dVertex
62
5
10
223.271590
20
134.924625
0
VERTEX
5
427
100
AcDbEntity
8
3
100
AcDbVertex
100
AcDb2dVertex
62
5
10
223.199665
20
134.922144
0
VERTEX
5
428
100
AcDbEntity
8
3
100
AcDbVertex
100
AcDb2dVertex
62
5
10
223.127456
20
134.921316
0
VERTEX
5
429
100
AcDbEntity
8
3
100
AcDbVertex
100
AcDb2dVertex
62
5
10
222.995597
20
134.923180
0
VERTEX
5
42a
100
AcDbEntity
8
3
100
AcDbVertex
100
AcDb2dVertex
62
5
10
222.864257
20
134.928762
0
VERTEX
5
42b
100
AcDbEntity
8
3
100
AcDbVertex
100
AcDb2dVertex
62
5
10
222.733956
20
134.938042
0
VERTEX
5
42c
100
AcDbEntity
8
3
100
AcDbVertex
100
AcDb2dVertex
62
5
10
222.605208
20
134.950982
0
VERTEX
5
42d
100
AcDbEntity
8
3
100
AcDbVertex
100
AcDb2dVertex
62
5
10
222.478521
20
134.967532
0
VERTEX
5
42e
100
AcDbEntity
8
3
100
AcDbVertex
100
AcDb2dVertex
62
5
10
222.354396
20
134.987626
0
VERTEX
5
42f
100
AcDbEntity
8
3
100
AcDbVertex
100
AcDb2dVertex
62
5
10
222.233321
20
135.011184
0
VERTEX
5
430
100
AcDbEntity
8
3
100
AcDbVertex
100
AcDb2dVertex
62
5
10
222.115774
20
135.038115
0
VERTEX
5
431
100
AcDbEntity
8
3
100
AcDbVertex
100
AcDb2dVertex
62
5
10
222.002221
20
135.068311
0
VERTEX
5
432
100
AcDbEntity
8
3
100
AcDbVertex
100
AcDb2dVertex
62
5
10
221.893108
20
135.101654
0
VERTEX
5
433
100
AcDbEntity
8
3
100
AcDbVertex
100
AcDb2dVertex
62
5
10
221.788867
20
135.138012
0
VERTEX
5
434
100
AcDbEntity
8
3
100
AcDbVertex
100
AcDb2dVertex
62
5
10
221.689908
20
135.177241
0
VERTEX
5
435
100
AcDbEntity
8
3
100
AcDbVertex
100
AcDb2dVertex
62
5
10
221.596623
20
135.219186
0
VERTEX
5
436
100
AcDbEntity
8
3
100
AcDbVertex
100
AcDb2dVertex
62
5
10
221.509379
20
135.263683
0
VERTEX
5
437
100
AcDbEntity
8
3
100
AcDbVertex
100
AcDb2dVertex
62
5
10
221.428521
20
135.310555
0
VERTEX
5
438
100
AcDbEntity
8
3
100
AcDbVertex
100
AcDb2dVertex
62
5
10
221.354368
20
135.359617
0
VERTEX
5
439
100
AcDbEntity
8
3
100
AcDbVertex
100
AcDb2dVertex
62
5
10
221.287213
20
135.410677
0
VERTEX
5
43a
100
AcDbEntity
8
3
100
AcDbVertex
100
AcDb2dVertex
62
5
10
221.227320
20
135.463531
0
VERTEX
5
43b
100
AcDbEntity
8
3
100
AcDbVertex
100
AcDb2dVertex
62
5
10
221.174926
20
135.517972
0
VERTEX
5
43c
100
AcDbEntity
8
3
100
AcDbVertex
100
AcDb2dVertex
62
5
10
221.130238
20
135.573785
0
VERTEX
5
43d
100
AcDbEntity
8
3
100
AcDbVertex
100
AcDb2dVertex
62
5
10
221.093432
20
135.630750
0
VERTEX
5
43e
100
AcDbEntity
8
3
100
AcDbVertex
100
AcDb2dVertex
62
5
10
221.064654
20
135.688642
0
VERTEX
5
43f
100
AcDbEntity
8
3
100
AcDbVertex
100
AcDb2dVertex
62
5
10
221.044016
20
135.747231
0
VERTEX
5
440
100
AcDbEntity
8
3
100
AcDbVertex
100
AcDb2dVertex
62
5
10
221.031601
20
135.806288
0
VERTEX
5
441
100
AcDbEntity
8
3
100
AcDbVertex
100
AcDb2dVertex
62
5
10
221.027457
20
135.865579
0
VERTEX
5
442
100
AcDbEntity
8
3
100
AcDbVertex
100
AcDb2dVertex
62
5
10
221.031724
20
135.925748
0
VERTEX
5
443
100
AcDbEntity
8
3
100
AcDbVertex
100
AcDb2dVertex
62
5
10
221.044262
20
135.984800
0
VERTEX
5
444
100
AcDbEntity
8
3
100
AcDbVertex
100
AcDb2dVertex
62
5
10
221.065021
20
136.043381
0
VERTEX
5
445
100
AcDbEntity
8
3
100
AcDbVertex
100
AcDb2dVertex
62
5
10
221.088550
20
136.090505
0
SEQEND
5
446
100
AcDbEntity
8
3
0
POLYLINE
5
447
100
AcDbEntity
8
3
6
CONTINUOUS
62
5
100
AcDb2dPolyline
66
1
10
0.0
20
0.0
30
0.0
70
0
0
VERTEX
5
448
100
AcDbEntity
8
3
100
AcDbVertex
100
AcDb2dVertex
62
5
10
224.278848
20
136.222940
0
VERTEX
5
449
100
AcDbEntity
8
3
100
AcDbVertex
100
AcDb2dVertex
62
5
10
224.266081
20
136.189156
0
VERTEX
5
44a
100
AcDbEntity
8
3
100
AcDbVertex
100
AcDb2dVertex
62
5
10
224.243469
20
136.146759
0
VERTEX
5
44b
100
AcDbEntity
8
3
100
AcDbVertex
100
AcDb2dVertex
62
5
10
224.214550
20
136.105040
0
VERTEX
5
44c
100
AcDbEntity
8
3
100
AcDbVertex
100
AcDb2dVertex
62
5
10
224.179438
20
136.064165
0
VERTEX
5
44d
100
AcDbEntity
8
3
100
AcDbVertex
100
AcDb2dVertex
62
5
10
224.138272
20
136.024295
0
VERTEX
5
44e
100
AcDbEntity
8
3
100
AcDbVertex
100
AcDb2dVertex
62
5
10
224.091213
20
135.985587
0
VERTEX
5
44f
100
AcDbEntity
8
3
100
AcDbVertex
100
AcDb2dVertex
62
5
10
224.038448
20
135.948193
0
VERTEX
5
450
100
AcDbEntity
8
3
100
AcDbVertex
100
AcDb2dVertex
62
5
10
223.980185
20
135.912262
0
VERTEX
5
451
100
AcDbEntity
8
3
100
AcDbVertex
100
AcDb2dVertex
62
5
10
223.916654
20
135.877935
0
VERTEX
5
452
100
AcDbEntity
8
3
100
AcDbVertex
100
AcDb2dVertex
62
5
10
223.848105
20
135.845348
0
VERTEX
5
453
100
AcDbEntity
8
3
100
AcDbVertex
100
AcDb2dVertex
62
5
10
223.774810
20
135.814629
0
VERTEX
5
454
100
AcDbEntity
8
3
100
AcDbVertex
100
AcDb2dVertex
62
5
10
223.697057
20
135.785899
0
VERTEX
5
455
100
AcDbEntity
8
3
100
AcDbVertex
100
AcDb2dVertex
62
5
10
223.615153
20
135.759272
0
VERTEX
5
456
100
AcDbEntity
8
3
100
AcDbVertex
100
AcDb2dVertex
62
5
10
223.529421
20
135.734853
0
VERTEX
5
457
100
AcDbEntity
8
3
100
AcDbVertex
100
AcDb2dVertex
62
5
10
223.440201
20
135.712739
0
VERTEX
5
458
100
AcDbEntity
8
3
100
AcDbVertex
100
AcDb2dVertex
62
5
10
223.347843
20
135.693016
0
VERTEX
5
459
100
AcDbEntity
8
3
100
AcDbVertex
100
AcDb2dVertex
62
5
10
223.252713
20
135.675763
0
VERTEX
5
45a
100
AcDbEntity
8
3
100
AcDbVertex
100
AcDb2dVertex
62
5
10
223.155185
20
135.661047
0
VERTEX
5
45b
100
AcDbEntity
8
3
100
AcDbVertex
100
AcDb2dVertex
62
5
10
223.055646
20
135.648926
0
VERTEX
5
45c
100
AcDbEntity
8
3
100
AcDbVertex
100
AcDb2dVertex
62
5
10
222.954486
20
135.639450
0
VERTEX
5
45d
100
AcDbEntity
8
3
100
AcDbVertex
100
AcDb2dVertex
62
5
10
222.852107
20
135.632654
0
VERTEX
5
45e
100
AcDbEntity
8
3
100
AcDbVertex
100
AcDb2dVertex
62
5
10
222.748912
20
135.628565
0
VERTEX
5
45f
100
AcDbEntity
8
3
100
AcDbVertex
100
AcDb2dVertex
62
5
10
222.645307
20
135.627201
0
VERTEX
5
460
100
AcDbEntity
8
3
100
AcDbVertex
100
AcDb2dVertex
62
5
10
222.541703
20
135.628565
0
VERTEX
5
461
100
AcDbEntity
8
3
100
AcDbVertex
100
AcDb2dVertex
62
5
10
222.438507
20
135.632654
0
VERTEX
5
462
100
AcDbEntity
8
3
100
AcDbVertex
100
AcDb2dVertex
62
5
10
222.336128
20
135.639450
0
VERTEX
5
463
100
AcDbEntity
8
3
100
AcDbVertex
100
AcDb2dVertex
62
5
10
222.234969
20
135.648926
0
VERTEX
5
464
100
AcDbEntity
8
3
100
AcDbVertex
100
AcDb2dVertex
62
5
10
222.135429
20
135.661047
0
VERTEX
5
465
100
AcDbEntity
8
3
100
AcDbVertex
100
AcDb2dVertex
62
5
10
222.037902
20
135.675763
0
VERTEX
5
466
100
AcDbEntity
8
3
100
AcDbVertex
100
AcDb2dVertex
62
5
10
221.942771
20
135.693016
0
VERTEX
5
467
100
AcDbEntity
8
3
100
AcDbVertex
100
AcDb2dVertex
62
5
10
221.850414
20
135.712739
0
VERTEX
5
468
100
AcDbEntity
8
3
100
AcDbVertex
100
AcDb2dVertex
62
5
10
221.761193
20
135.734853
0
VERTEX
5
469
100
AcDbEntity
8
3
100
AcDbVertex
100
AcDb2dVertex
62
5
10
221.675462
20
135.759272
0
VERTEX
5
46a
100
AcDbEntity
8
3
100
AcDbVertex
100
AcDb2dVertex
62
5
10
221.593558
20
135.785899
0
VERTEX
5
46b
100
AcDbEntity
8
3
100
AcDbVertex
100
AcDb2dVertex
62
5
10
221.515804
20
135.814629
0
VERTEX
5
46c
100
AcDbEntity
8
3
100
AcDbVertex
100
AcDb2dVertex
62
5
10
221.442509
20
135.845348
0
VERTEX
5
46d
100
AcDbEntity
8
3
100
AcDbVertex
100
AcDb2dVertex
62
5
10
221.373960
20
135.877935
0
VERTEX
5
46e
100
AcDbEntity
8
3
100
AcDbVertex
100
AcDb2dVertex
62
5
10
221.310429
20
135.912262
0
VERTEX
5
46f
100
AcDbEntity
8
3
100
AcDbVertex
100
AcDb2dVertex
62
5
10
221.252166
20
135.948193
0
VERTEX
5
470
100
AcDbEntity
8
3
100
AcDbVertex
100
AcDb2dVertex
62
5
10
221.199401
20
135.985587
0
VERTEX
5
471
100
AcDbEntity
8
3
100
AcDbVertex
100
AcDb2dVertex
62
5
10
221.152343
20
136.024295
0
VERTEX
5
472
100
AcDbEntity
8
3
100
AcDbVertex
100
AcDb2dVertex
62
5
10
221.111176
20
136.064165
0
VERTEX
5
473
100
AcDbEntity
8
3
100
AcDbVertex
100
AcDb2dVertex
62
5
10
221.076064
20
136.105040
0
VERTEX
5
474
100
AcDbEntity
8
3
100
AcDbVertex
100
AcDb2dVertex
62
5
10
221.047145
20
136.146759
0
VERTEX
5
475
100
AcDbEntity
8
3
100
AcDbVertex
100
AcDb2dVertex
62
5
10
221.024533
20
136.189156
0
VERTEX
5
476
100
AcDbEntity
8
3
100
AcDbVertex
100
AcDb2dVertex
62
5
10
221.008318
20
136.232065
0
VERTEX
5
477
100
AcDbEntity
8
3
100
AcDbVertex
100
AcDb2dVertex
62
5
10
220.999114
20
136.272872
0
SEQEND
5
478
100
AcDbEntity
8
3
0
ARC
5
479
100
AcDbEntity
8
3
100
AcDbCircle
6
CONTINUOUS
62
5
10
217.420307
20
136.544524
40
1.000000
100
AcDbArc
50
-88.999999
51
0.000000
0
LINE
5
47a
100
AcDbEntity
8
3
100
AcDbLine
6
CONTINUOUS
62
5
10
211.813693
20
135.446508
11
217.437760
21
135.544676
0
ARC
5
47b
100
AcDbEntity
8
3
100
AcDbCircle
6
CONTINUOUS
62
5
10
220.936379
20
126.900000
40
2.983929
100
AcDbArc
50
-72.768703
51
72.768703
0
POLYLINE
5
47c
100
AcDbEntity
8
3
6
CONTINUOUS
62
5
100
AcDb2dPolyline
66
1
10
0.0
20
0.0
30
0.0
70
0
0
VERTEX
5
47d
100
AcDbEntity
8
3
100
AcDbVertex
100
AcDb2dVertex
62
5
10
223.120163
20
130.389734
0
VERTEX
5
47e
100
AcDbEntity
8
3
100
AcDbVertex
100
AcDb2dVertex
62
5
10
223.038680
20
130.388637
0
VERTEX
5
47f
100
AcDbEntity
8
3
100
AcDbVertex
100
AcDb2dVertex
62
5
10
222.957374
20
130.385343
0
VERTEX
5
480
100
AcDbEntity
8
3
100
AcDbVertex
100
AcDb2dVertex
62
5
10
222.876712
20
130.379869
0
VERTEX
5
481
100
AcDbEntity
8
3
100
AcDbVertex
100
AcDb2dVertex
62
5
10
222.797010
20
130.372235
0
VERTEX
5
482
100
AcDbEntity
8
3
100
AcDbVertex
100
AcDb2dVertex
62
5
10
222.718585
20
130.362472
0
VERTEX
5
483
100
AcDbEntity
8
3
100
AcDbVertex
100
AcDb2dVertex
62
5
10
222.641745
20
130.350618
0
VERTEX
5
484
100
AcDbEntity
8
3
100
AcDbVertex
100
AcDb2dVertex
62
5
10
222.566794
20
130.336719
0
VERTEX
5
485
100
AcDbEntity
8
3
100
AcDbVertex
100
AcDb2dVertex
62
5
10
222.494028
20
130.320832
0
VERTEX
5
486
100
AcDbEntity
8
3
100
AcDbVertex
100
AcDb2dVertex
62
5
10
222.423733
20
130.303018
0
VERTEX
5
487
100
AcDbEntity
8
3
100
AcDbVertex
100
AcDb2dVertex
62
5
10
222.356187
20
130.283348
0
VERTEX
5
488
100
AcDbEntity
8
3
100
AcDbVertex
100
AcDb2dVertex
62
5
10
222.291656
20
130.261899
0
VERTEX
5
489
100
AcDbEntity
8
3
100
AcDbVertex
100
AcDb2dVertex
62
5
10
222.230396
20
130.238757
0
VERTEX
5
48a
100
AcDbEntity
8
3
100
AcDbVertex
100
AcDb2dVertex
62
5
10
222.172648
20
130.214011
0
VERTEX
5
48b
100
AcDbEntity
8
3
100
AcDbVertex
100
AcDb2dVertex
62
5
10
222.118640
20
130.187761
0
VERTEX
5
48c
100
AcDbEntity
8
3
100
AcDbVertex
100
AcDb2dVertex
62
5
10
222.068585
20
130.160110
0
VERTEX
5
48d
100
AcDbEntity
8
3
100
AcDbVertex
100
AcDb2dVertex
62
5
10
222.022681
20
130.131166
0
VERTEX
5
48e
100
AcDbEntity
8
3
100
AcDbVertex
100
AcDb2dVertex
62
5
10
221.981109
20
130.101044
0
VERTEX
5
48f
100
AcDbEntity
8
3
100
AcDbVertex
100
AcDb2dVertex
62
5
10
221.944032
20
130.069864
0
VERTEX
5
490
100
AcDbEntity
8
3
100
AcDbVertex
100
AcDb2dVertex
62
5
10
221.911598
20
130.037747
0
VERTEX
5
491
100
AcDbEntity
8
3
100
AcDbVertex
100
AcDb2dVertex
62
5
10
221.883934
20
130.004820
0
VERTEX
5
492
100
AcDbEntity
8
3
100
AcDbVertex
100
AcDb2dVertex
62
5
10
221.861149
20
129.971215
0
VERTEX
5
493
100
AcDbEntity
8
3
100
AcDbVertex
100
AcDb2dVertex
62
5
10
221.843334
20
129.937063
0
VERTEX
5
494
100
AcDbEntity
8
3
100
AcDbVertex
100
AcDb2dVertex
62
5
10
221.830558
20
129.902499
0
VERTEX
5
495
100
AcDbEntity
8
3
100
AcDbVertex
100
AcDb2dVertex
62
5
10
221.822873
20
129.867659
0
VERTEX
5
496
100
AcDbEntity
8
3
100
AcDbVertex
100
AcDb2dVertex
62
5
10
221.820308
20
129.832681
0
VERTEX
5
497
100
AcDbEntity
8
3
100
AcDbVertex
100
AcDb2dVertex
62
5
10
221.820307
20
123.600000
0
VERTEX
5
498
100
AcDbEntity
8
3
100
AcDbVertex
100
AcDb2dVertex
62
5
10
221.020307
20
123.600000
0
SEQEND
5
499
100
AcDbEntity
8
3
0
ARC
5
49a
100
AcDbEntity
8
3
100
AcDbCircle
6
CONTINUOUS
62
5
10
218.920307
20
156.737862
40
0.500000
100
AcDbArc
50
179.999998
51
-90.999999
0
LINE
5
49b
100
AcDbEntity
8
3
100
AcDbLine
6
CONTINUOUS
62
5
10
218.911581
20
156.237938
11
219.937760
21
156.220027
0
ARC
5
49c
100
AcDbEntity
8
3
100
AcDbCircle
6
CONTINUOUS
62
5
10
219.920307
20
155.220179
40
1.000000
100
AcDbArc
50
0.000000
51
88.999999
0
POLYLINE
5
49d
100
AcDbEntity
8
3
6
CONTINUOUS
62
5
100
AcDb2dPolyline
66
1
10
0.0
20
0.0
30
0.0
70
0
0
VERTEX
5
49e
100
AcDbEntity
8
3
100
AcDbVertex
100
AcDb2dVertex
62
5
10
220.920307
20
155.220179
0
VERTEX
5
49f
100
AcDbEntity
8
3
100
AcDbVertex
100
AcDb2dVertex
62
5
10
220.920307
20
139.779831
0
VERTEX
5
4a0
100
AcDbEntity
8
3
100
AcDbVertex
100
AcDb2dVertex
62
5
10
219.920307
20
139.779831
0
VERTEX
5
4a1
100
AcDbEntity
8
3
100
AcDbVertex
100
AcDb2dVertex
62
5
10
219.937760
20
138.779983
0
VERTEX
5
4a2
100
AcDbEntity
8
3
100
AcDbVertex
100
AcDb2dVertex
62
5
10
218.911581
20
138.762071
0
SEQEND
5
4a3
100
AcDbEntity
8
3
0
ARC
5
4a4
100
AcDbEntity
8
3
100
AcDbCircle
6
CONTINUOUS
62
5
10
218.920308
20
138.262147
40
0.500000
100
AcDbArc
50
91.000011
51
179.999980
0
LINE
5
4a5
100
AcDbEntity
8
1
100
AcDbLine
6
CONTINUOUS
62
5
10
214.820307
20
115.750000
11
214.820307
21
114.150000
0
LINE
5
4a6
100
AcDbEntity
8
1
100
AcDbLine
6
CONTINUOUS
62
5
10
214.820307
20
115.750000
11
214.820307
21
114.150000
0
LINE
5
4a7
100
AcDbEntity
8
1
100
AcDbLine
6
CONTINUOUS
62
5
10
212.320307
20
115.750000
11
212.320307
21
114.150000
0
LINE
5
4a8
100
AcDbEntity
8
1
100
AcDbLine
6
CONTINUOUS
62
5
10
212.320307
20
115.750000
11
212.320307
21
114.150000
0
POLYLINE
5
4a9
100
AcDbEntity
8
3
6
CONTINUOUS
62
5
100
AcDb2dPolyline
66
1
10
0.0
20
0.0
30
0.0
70
0
0
VERTEX
5
4aa
100
AcDbEntity
8
3
100
AcDbVertex
100
AcDb2dVertex
62
5
10
198.820307
20
102.650000
0
VERTEX
5
4ab
100
AcDbEntity
8
3
100
AcDbVertex
100
AcDb2dVertex
62
5
10
197.720307
20
102.650000
0
VERTEX
5
4ac
100
AcDbEntity
8
3
100
AcDbVertex
100
AcDb2dVertex
62
5
10
197.720307
20
96.350000
0
VERTEX
5
4ad
100
AcDbEntity
8
3
100
AcDbVertex
100
AcDb2dVertex
62
5
10
198.820307
20
96.350000
0
SEQEND
5
4ae
100
AcDbEntity
8
3
0
LINE
5
4af
100
AcDbEntity
8
1
100
AcDbLine
6
CONTINUOUS
62
5
10
198.820307
20
108.250000
11
200.420307
21
108.250000
0
LINE
5
4b0
100
AcDbEntity
8
3
100
AcDbLine
6
CONTINUOUS
62
5
10
200.420307
20
100.700000
11
198.820307
21
100.700000
0
ARC
5
4b1
100
AcDbEntity
8
3
100
AcDbCircle
6
CONTINUOUS
62
5
10
217.920307
20
117.753327
40
1.500000
100
AcDbArc
50
-88.999999
51
0.000000
0
LINE
5
4b2
100
AcDbEntity
8
3
100
AcDbLine
6
CONTINUOUS
62
5
10
217.946486
20
116.253555
11
217.573353
21
116.256305
0
ARC
5
4b3
100
AcDbEntity
8
3
100
AcDbCircle
6
CONTINUOUS
62
5
10
200.334370
20
118.342285
40
2.314063
100
AcDbArc
50
130.865656
51
179.999998
0
LINE
5
4b4
100
AcDbEntity
8
3
100
AcDbLine
6
CONTINUOUS
62
5
10
198.020307
20
118.342285
11
198.020307
21
107.000000
0
ARC
5
4b5
100
AcDbEntity
8
3
100
AcDbCircle
6
CONTINUOUS
62
5
10
200.334370
20
107.000000
40
2.314063
100
AcDbArc
50
179.999998
51
-130.865656
0
LINE
5
4b6
100
AcDbEntity
8
1
100
AcDbLine
6
CONTINUOUS
62
5
10
203.820307
20
114.951108
11
203.820307
21
134.181565
0
ARC
5
4b7
100
AcDbEntity
8
3
100
AcDbCircle
6
CONTINUOUS
62
5
10
218.420307
20
116.750000
40
1.000000
100
AcDbArc
50
-89.999999
51
-0.000000
0
LINE
5
4b8
100
AcDbEntity
8
3
100
AcDbLine
6
CONTINUOUS
62
5
10
219.420307
20
116.750000
11
219.420307
21
138.770951
0
LINE
5
4b9
100
AcDbEntity
8
3
100
AcDbLine
6
CONTINUOUS
62
5
10
205.320307
20
115.750000
11
218.420307
21
115.750000
0
ARC
5
4ba
100
AcDbEntity
8
3
100
AcDbCircle
6
CONTINUOUS
62
5
10
217.414581
20
117.246861
40
1.005729
100
AcDbArc
50
-93.637018
51
-0.133166
0
LINE
5
4bb
100
AcDbEntity
8
3
100
AcDbLine
6
CONTINUOUS
62
5
10
217.350782
20
116.243158
11
205.608503
21
116.038196
0
LINE
5
4bc
100
AcDbEntity
8
3
100
AcDbLine
6
CONTINUOUS
62
5
10
218.420307
20
141.000000
11
218.420307
21
117.244524
0
ARC
5
4bd
100
AcDbEntity
8
3
100
AcDbCircle
6
CONTINUOUS
62
5
10
218.420307
20
116.750000
40
2.600000
100
AcDbArc
50
-89.999999
51
0.000000
0
LINE
5
4be
100
AcDbEntity
8
3
100
AcDbLine
6
CONTINUOUS
62
5
10
218.420307
20
114.150000
11
200.920307
21
114.150000
0
ARC
5
4bf
100
AcDbEntity
8
3
100
AcDbCircle
6
CONTINUOUS
62
5
10
200.920307
20
113.650000
40
0.500000
100
AcDbArc
50
89.999999
51
109.365187
0
LINE
5
4c0
100
AcDbEntity
8
3
100
AcDbLine
6
CONTINUOUS
62
5
10
220.995307
20
139.779831
11
221.020307
21
116.750000
0
LINE
5
4c1
100
AcDbEntity
8
3
100
AcDbLine
6
DOT2
62
5
10
242.895307
20
71.875000
11
242.270307
21
71.250000
0
POLYLINE
5
4c2
100
AcDbEntity
8
3
6
DOT2
62
5
100
AcDb2dPolyline
66
1
10
0.0
20
0.0
30
0.0
70
0
0
VERTEX
5
4c3
100
AcDbEntity
8
3
100
AcDbVertex
100
AcDb2dVertex
62
5
10
242.270307
20
71.875000
0
VERTEX
5
4c4
100
AcDbEntity
8
3
100
AcDbVertex
100
AcDb2dVertex
62
5
10
242.895307
20
71.250000
0
VERTEX
5
4c5
100
AcDbEntity
8
3
100
AcDbVertex
100
AcDb2dVertex
62
5
10
242.270307
20
71.250000
0
VERTEX
5
4c6
100
AcDbEntity
8
3
100
AcDbVertex
100
AcDb2dVertex
62
5
10
242.270307
20
71.875000
0
VERTEX
5
4c7
100
AcDbEntity
8
3
100
AcDbVertex
100
AcDb2dVertex
62
5
10
242.895307
20
71.875000
0
VERTEX
5
4c8
100
AcDbEntity
8
3
100
AcDbVertex
100
AcDb2dVertex
62
5
10
242.895307
20
71.250000
0
SEQEND
5
4c9
100
AcDbEntity
8
3
0
POLYLINE
5
4ca
100
AcDbEntity
8
1
6
CONTINUOUS
62
5
100
AcDb2dPolyline
66
1
10
0.0
20
0.0
30
0.0
70
0
0
VERTEX
5
4cb
100
AcDbEntity
8
1
100
AcDbVertex
100
AcDb2dVertex
62
5
10
155.625000
20
34.187500
0
VERTEX
5
4cc
100
AcDbEntity
8
1
100
AcDbVertex
100
AcDb2dVertex
62
5
10
155.312500
20
35.125000
0
VERTEX
5
4cd
100
AcDbEntity
8
1
100
AcDbVertex
100
AcDb2dVertex
62
5
10
154.687500
20
35.750000
0
VERTEX
5
4ce
100
AcDbEntity
8
1
100
AcDbVertex
100
AcDb2dVertex
62
5
10
153.750000
20
35.750000
0
VERTEX
5
4cf
100
AcDbEntity
8
1
100
AcDbVertex
100
AcDb2dVertex
62
5
10
152.812500
20
34.812500
0
VERTEX
5
4d0
100
AcDbEntity
8
1
100
AcDbVertex
100
AcDb2dVertex
62
5
10
152.500000
20
33.250000
0
VERTEX
5
4d1
100
AcDbEntity
8
1
100
AcDbVertex
100
AcDb2dVertex
62
5
10
152.500000
20
30.750000
0
VERTEX
5
4d2
100
AcDbEntity
8
1
100
AcDbVertex
100
AcDb2dVertex
62
5
10
152.812500
20
29.187500
0
VERTEX
5
4d3
100
AcDbEntity
8
1
100
AcDbVertex
100
AcDb2dVertex
62
5
10
153.750000
20
28.250000
0
VERTEX
5
4d4
100
AcDbEntity
8
1
100
AcDbVertex
100
AcDb2dVertex
62
5
10
154.687500
20
28.250000
0
VERTEX
5
4d5
100
AcDbEntity
8
1
100
AcDbVertex
100
AcDb2dVertex
62
5
10
155.312500
20
28.875000
0
VERTEX
5
4d6
100
AcDbEntity
8
1
100
AcDbVertex
100
AcDb2dVertex
62
5
10
155.937500
20
30.437500
0
SEQEND
5
4d7
100
AcDbEntity
8
1
0
POLYLINE
5
4d8
100
AcDbEntity
8
3
6
DOT2
62
5
100
AcDb2dPolyline
66
1
10
0.0
20
0.0
30
0.0
70
0
0
VERTEX
5
4d9
100
AcDbEntity
8
3
100
AcDbVertex
100
AcDb2dVertex
62
5
10
249.770307
20
78.750000
0
VERTEX
5
4da
100
AcDbEntity
8
3
100
AcDbVertex
100
AcDb2dVertex
62
5
10
248.832807
20
78.750000
0
VERTEX
5
4db
100
AcDbEntity
8
3
100
AcDbVertex
100
AcDb2dVertex
62
5
10
247.895307
20
78.437500
0
VERTEX
5
4dc
100
AcDbEntity
8
3
100
AcDbVertex
100
AcDb2dVertex
62
5
10
247.270307
20
77.187500
0
VERTEX
5
4dd
100
AcDbEntity
8
3
100
AcDbVertex
100
AcDb2dVertex
62
5
10
247.270307
20
72.812500
0
VERTEX
5
4de
100
AcDbEntity
8
3
100
AcDbVertex
100
AcDb2dVertex
62
5
10
247.582807
20
71.875000
0
VERTEX
5
4df
100
AcDbEntity
8
3
100
AcDbVertex
100
AcDb2dVertex
62
5
10
247.895307
20
71.562500
0
VERTEX
5
4e0
100
AcDbEntity
8
3
100
AcDbVertex
100
AcDb2dVertex
62
5
10
248.520307
20
71.250000
0
VERTEX
5
4e1
100
AcDbEntity
8
3
100
AcDbVertex
100
AcDb2dVertex
62
5
10
249.145307
20
71.250000
0
VERTEX
5
4e2
100
AcDbEntity
8
3
100
AcDbVertex
100
AcDb2dVertex
62
5
10
249.770307
20
71.562500
0
VERTEX
5
4e3
100
AcDbEntity
8
3
100
AcDbVertex
100
AcDb2dVertex
62
5
10
250.082807
20
71.875000
0
VERTEX
5
4e4
100
AcDbEntity
8
3
100
AcDbVertex
100
AcDb2dVertex
62
5
10
250.395307
20
72.812500
0
VERTEX
5
4e5
100
AcDbEntity
8
3
100
AcDbVertex
100
AcDb2dVertex
62
5
10
250.395307
20
74.687500
0
VERTEX
5
4e6
100
AcDbEntity
8
3
100
AcDbVertex
100
AcDb2dVertex
62
5
10
250.082807
20
75.312500
0
VERTEX
5
4e7
100
AcDbEntity
8
3
100
AcDbVertex
100
AcDb2dVertex
62
5
10
249.457807
20
75.625000
0
VERTEX
5
4e8
100
AcDbEntity
8
3
100
AcDbVertex
100
AcDb2dVertex
62
5
10
248.207807
20
75.625000
0
VERTEX
5
4e9
100
AcDbEntity
8
3
100
AcDbVertex
100
AcDb2dVertex
62
5
10
247.270307
20
75.312500
0
SEQEND
5
4ea
100
AcDbEntity
8
3
0
POLYLINE
5
4eb
100
AcDbEntity
8
3
6
DOT2
62
5
100
AcDb2dPolyline
66
1
10
0.0
20
0.0
30
0.0
70
0
0
VERTEX
5
4ec
100
AcDbEntity
8
3
100
AcDbVertex
100
AcDb2dVertex
62
5
10
232.270307
20
76.562500
0
VERTEX
5
4ed
100
AcDbEntity
8
3
100
AcDbVertex
100
AcDb2dVertex
62
5
10
232.582807
20
78.125000
0
VERTEX
5
4ee
100
AcDbEntity
8
3
100
AcDbVertex
100
AcDb2dVertex
62
5
10
233.520307
20
78.750000
0
VERTEX
5
4ef
100
AcDbEntity
8
3
100
AcDbVertex
100
AcDb2dVertex
62
5
10
234.457807
20
78.750000
0
VERTEX
5
4f0
100
AcDbEntity
8
3
100
AcDbVertex
100
AcDb2dVertex
62
5
10
235.082807
20
78.437500
0
VERTEX
5
4f1
100
AcDbEntity
8
3
100
AcDbVertex
100
AcDb2dVertex
62
5
10
235.395307
20
77.500000
0
VERTEX
5
4f2
100
AcDbEntity
8
3
100
AcDbVertex
100
AcDb2dVertex
62
5
10
235.395307
20
76.562500
0
VERTEX
5
4f3
100
AcDbEntity
8
3
100
AcDbVertex
100
AcDb2dVertex
62
5
10
235.082807
20
75.625000
0
VERTEX
5
4f4
100
AcDbEntity
8
3
100
AcDbVertex
100
AcDb2dVertex
62
5
10
232.270307
20
71.250000
0
VERTEX
5
4f5
100
AcDbEntity
8
3
100
AcDbVertex
100
AcDb2dVertex
62
5
10
235.395307
20
71.250000
0
VERTEX
5
4f6
100
AcDbEntity
8
3
100
AcDbVertex
100
AcDb2dVertex
62
5
10
235.395307
20
72.187500
0
SEQEND
5
4f7
100
AcDbEntity
8
3
0
POLYLINE
5
4f8
100
AcDbEntity
8
3
6
DOT2
62
5
100
AcDb2dPolyline
66
1
10
0.0
20
0.0
30
0.0
70
1
0
VERTEX
5
4f9
100
AcDbEntity
8
3
100
AcDbVertex
100
AcDb2dVertex
62
5
10
179.920307
20
78.750000
0
VERTEX
5
4fa
100
AcDbEntity
8
3
100
AcDbVertex
100
AcDb2dVertex
62
5
10
180.545307
20
78.750000
0
VERTEX
5
4fb
100
AcDbEntity
8
3
100
AcDbVertex
100
AcDb2dVertex
62
5
10
181.170307
20
78.437500
0
VERTEX
5
4fc
100
AcDbEntity
8
3
100
AcDbVertex
100
AcDb2dVertex
62
5
10
181.482807
20
77.812500
0
VERTEX
5
4fd
100
AcDbEntity
8
3
100
AcDbVertex
100
AcDb2dVertex
62
5
10
181.482807
20
76.562500
0
VERTEX
5
4fe
100
AcDbEntity
8
3
100
AcDbVertex
100
AcDb2dVertex
62
5
10
181.170307
20
75.937500
0
VERTEX
5
4ff
100
AcDbEntity
8
3
100
AcDbVertex
100
AcDb2dVertex
62
5
10
179.295307
20
74.687500
0
VERTEX
5
500
100
AcDbEntity
8
3
100
AcDbVertex
100
AcDb2dVertex
62
5
10
178.670307
20
73.750000
0
VERTEX
5
501
100
AcDbEntity
8
3
100
AcDbVertex
100
AcDb2dVertex
62
5
10
178.670307
20
72.500000
0
VERTEX
5
502
100
AcDbEntity
8
3
100
AcDbVertex
100
AcDb2dVertex
62
5
10
178.982807
20
71.875000
0
VERTEX
5
503
100
AcDbEntity
8
3
100
AcDbVertex
100
AcDb2dVertex
62
5
10
179.295307
20
71.562500
0
VERTEX
5
504
100
AcDbEntity
8
3
100
AcDbVertex
100
AcDb2dVertex
62
5
10
179.920307
20
71.250000
0
VERTEX
5
505
100
AcDbEntity
8
3
100
AcDbVertex
100
AcDb2dVertex
62
5
10
180.545307
20
71.250000
0
VERTEX
5
506
100
AcDbEntity
8
3
100
AcDbVertex
100
AcDb2dVertex
62
5
10
181.170307
20
71.562500
0
VERTEX
5
507
100
AcDbEntity
8
3
100
AcDbVertex
100
AcDb2dVertex
62
5
10
181.482807
20
71.875000
0
VERTEX
5
508
100
AcDbEntity
8
3
100
AcDbVertex
100
AcDb2dVertex
62
5
10
181.795307
20
72.500000
0
VERTEX
5
509
100
AcDbEntity
8
3
100
AcDbVertex
100
AcDb2dVertex
62
5
10
181.795307
20
73.750000
0
VERTEX
5
50a
100
AcDbEntity
8
3
100
AcDbVertex
100
AcDb2dVertex
62
5
10
181.170307
20
74.687500
0
VERTEX
5
50b
100
AcDbEntity
8
3
100
AcDbVertex
100
AcDb2dVertex
62
5
10
179.295307
20
75.937500
0
VERTEX
5
50c
100
AcDbEntity
8
3
100
AcDbVertex
100
AcDb2dVertex
62
5
10
178.982807
20
76.562500
0
VERTEX
5
50d
100
AcDbEntity
8
3
100
AcDbVertex
100
AcDb2dVertex
62
5
10
178.982807
20
77.812500
0
VERTEX
5
50e
100
AcDbEntity
8
3
100
AcDbVertex
100
AcDb2dVertex
62
5
10
179.295307
20
78.437500
0
VERTEX
5
50f
100
AcDbEntity
8
3
100
AcDbVertex
100
AcDb2dVertex
62
5
10
179.920307
20
78.750000
0
SEQEND
5
510
100
AcDbEntity
8
3
0
POLYLINE
5
511
100
AcDbEntity
8
3
6
DOT2
62
5
100
AcDb2dPolyline
66
1
10
0.0
20
0.0
30
0.0
70
1
0
VERTEX
5
512
100
AcDbEntity
8
3
100
AcDbVertex
100
AcDb2dVertex
62
5
10
238.520307
20
78.750000
0
VERTEX
5
513
100
AcDbEntity
8
3
100
AcDbVertex
100
AcDb2dVertex
62
5
10
239.145307
20
78.750000
0
VERTEX
5
514
100
AcDbEntity
8
3
100
AcDbVertex
100
AcDb2dVertex
62
5
10
239.457807
20
78.437500
0
VERTEX
5
515
100
AcDbEntity
8
3
100
AcDbVertex
100
AcDb2dVertex
62
5
10
240.082807
20
77.187500
0
VERTEX
5
516
100
AcDbEntity
8
3
100
AcDbVertex
100
AcDb2dVertex
62
5
10
240.395307
20
75.937500
0
VERTEX
5
517
100
AcDbEntity
8
3
100
AcDbVertex
100
AcDb2dVertex
62
5
10
240.395307
20
74.062500
0
VERTEX
5
518
100
AcDbEntity
8
3
100
AcDbVertex
100
AcDb2dVertex
62
5
10
240.082807
20
72.812500
0
VERTEX
5
519
100
AcDbEntity
8
3
100
AcDbVertex
100
AcDb2dVertex
62
5
10
239.457807
20
71.562500
0
VERTEX
5
51a
100
AcDbEntity
8
3
100
AcDbVertex
100
AcDb2dVertex
62
5
10
239.145307
20
71.250000
0
VERTEX
5
51b
100
AcDbEntity
8
3
100
AcDbVertex
100
AcDb2dVertex
62
5
10
238.520307
20
71.250000
0
VERTEX
5
51c
100
AcDbEntity
8
3
100
AcDbVertex
100
AcDb2dVertex
62
5
10
238.207807
20
71.562500
0
VERTEX
5
51d
100
AcDbEntity
8
3
100
AcDbVertex
100
AcDb2dVertex
62
5
10
237.582807
20
72.812500
0
VERTEX
5
51e
100
AcDbEntity
8
3
100
AcDbVertex
100
AcDb2dVertex
62
5
10
237.270307
20
74.062500
0
VERTEX
5
51f
100
AcDbEntity
8
3
100
AcDbVertex
100
AcDb2dVertex
62
5
10
237.270307
20
75.937500
0
VERTEX
5
520
100
AcDbEntity
8
3
100
AcDbVertex
100
AcDb2dVertex
62
5
10
237.582807
20
77.187500
0
VERTEX
5
521
100
AcDbEntity
8
3
100
AcDbVertex
100
AcDb2dVertex
62
5
10
238.207807
20
78.437500
0
VERTEX
5
522
100
AcDbEntity
8
3
100
AcDbVertex
100
AcDb2dVertex
62
5
10
238.520307
20
78.750000
0
SEQEND
5
523
100
AcDbEntity
8
3
0
LINE
5
524
100
AcDbEntity
8
3
100
AcDbLine
6
CONTINUOUS
62
5
10
192.420307
20
114.550000
11
192.420307
21
68.000000
0
LINE
5
525
100
AcDbEntity
8
3
100
AcDbLine
6
CONTINUOUS
62
5
10
200.420307
20
93.500000
11
200.420307
21
68.000000
0
POLYLINE
5
526
100
AcDbEntity
8
3
6
CONTINUOUS
62
5
100
AcDb2dPolyline
66
1
10
0.0
20
0.0
30
0.0
70
0
0
VERTEX
5
527
100
AcDbEntity
8
3
100
AcDbVertex
100
AcDb2dVertex
62
5
10
176.170307
20
70.000000
0
VERTEX
5
528
100
AcDbEntity
8
3
100
AcDbVertex
100
AcDb2dVertex
62
5
10
192.420307
20
70.000000
0
VERTEX
5
529
100
AcDbEntity
8
3
100
AcDbVertex
100
AcDb2dVertex
62
5
10
186.420307
20
69.000000
0
VERTEX
5
52a
100
AcDbEntity
8
3
100
AcDbVertex
100
AcDb2dVertex
62
5
10
186.420307
20
71.000000
0
VERTEX
5
52b
100
AcDbEntity
8
3
100
AcDbVertex
100
AcDb2dVertex
62
5
10
192.420307
20
70.000000
0
VERTEX
5
52c
100
AcDbEntity
8
3
100
AcDbVertex
100
AcDb2dVertex
62
5
10
186.420307
20
69.500000
0
VERTEX
5
52d
100
AcDbEntity
8
3
100
AcDbVertex
100
AcDb2dVertex
62
5
10
186.420307
20
70.500000
0
VERTEX
5
52e
100
AcDbEntity
8
3
100
AcDbVertex
100
AcDb2dVertex
62
5
10
192.420307
20
70.000000
0
SEQEND
5
52f
100
AcDbEntity
8
3
0
LINE
5
530
100
AcDbEntity
8
3
100
AcDbLine
6
CONTINUOUS
62
5
10
192.420307
20
70.000000
11
200.420307
21
70.000000
0
LINE
5
531
100
AcDbEntity
8
3
100
AcDbLine
6
CONTINUOUS
62
5
10
203.420307
20
70.000000
11
200.420307
21
70.000000
0
ARC
5
532
100
AcDbEntity
8
3
100
AcDbCircle
6
CONTINUOUS
62
5
10
131.070307
20
147.000000
40
0.500000
100
AcDbArc
50
179.999998
51
-89.999999
0
ARC
5
533
100
AcDbEntity
8
3
100
AcDbCircle
6
CONTINUOUS
62
5
10
133.070307
20
144.000000
40
2.500000
100
AcDbArc
50
0.000000
51
89.999999
0
LINE
5
534
100
AcDbEntity
8
3
100
AcDbLine
6
CONTINUOUS
62
5
10
133.070307
20
146.500000
11
131.070307
21
146.500000
0
POLYLINE
5
535
100
AcDbEntity
8
1
6
CONTINUOUS
62
5
100
AcDb2dPolyline
66
1
10
0.0
20
0.0
30
0.0
70
1
0
VERTEX
5
536
100
AcDbEntity
8
1
100
AcDbVertex
100
AcDb2dVertex
62
5
10
121.820307
20
137.000000
0
VERTEX
5
537
100
AcDbEntity
8
1
100
AcDbVertex
100
AcDb2dVertex
62
5
10
124.020293
20
137.000000
0
VERTEX
5
538
100
AcDbEntity
8
1
100
AcDbVertex
100
AcDb2dVertex
62
5
10
124.020293
20
130.000000
0
VERTEX
5
539
100
AcDbEntity
8
1
100
AcDbVertex
100
AcDb2dVertex
62
5
10
121.820307
20
130.000000
0
VERTEX
5
53a
100
AcDbEntity
8
1
100
AcDbVertex
100
AcDb2dVertex
62
5
10
121.820307
20
137.000000
0
SEQEND
5
53b
100
AcDbEntity
8
1
0
ARC
5
53c
100
AcDbEntity
8
1
100
AcDbCircle
6
CONTINUOUS
62
5
10
116.570307
20
121.600003
40
2.700000
100
AcDbArc
50
-0.000000
51
-179.999998
0
POLYLINE
5
53d
100
AcDbEntity
8
1
6
CONTINUOUS
62
5
100
AcDb2dPolyline
66
1
10
0.0
20
0.0
30
0.0
70
0
0
VERTEX
5
53e
100
AcDbEntity
8
1
100
AcDbVertex
100
AcDb2dVertex
62
5
10
113.870307
20
121.600003
0
VERTEX
5
53f
100
AcDbEntity
8
1
100
AcDbVertex
100
AcDb2dVertex
62
5
10
113.870307
20
118.900003
0
VERTEX
5
540
100
AcDbEntity
8
1
100
AcDbVertex
100
AcDb2dVertex
62
5
10
119.270307
20
118.900003
0
VERTEX
5
541
100
AcDbEntity
8
1
100
AcDbVertex
100
AcDb2dVertex
62
5
10
119.270307
20
121.600003
0
SEQEND
5
542
100
AcDbEntity
8
1
0
ARC
5
543
100
AcDbEntity
8
3
100
AcDbCircle
6
CONTINUOUS
62
5
10
120.070307
20
128.500000
40
1.500000
100
AcDbArc
50
179.999998
51
-91.506069
0
LINE
5
544
100
AcDbEntity
8
3
100
AcDbLine
6
CONTINUOUS
62
5
10
120.030883
20
127.000518
11
126.104179
21
127.000382
0
ARC
5
545
100
AcDbEntity
8
3
100
AcDbCircle
6
CONTINUOUS
62
5
10
126.070307
20
128.500000
40
1.500000
100
AcDbArc
50
-88.706090
51
-0.768985
0
LINE
5
546
100
AcDbEntity
8
3
100
AcDbLine
6
CONTINUOUS
62
5
10
127.570172
20
128.479869
11
127.568477
21
138.574079
0
ARC
5
547
100
AcDbEntity
8
3
100
AcDbCircle
6
CONTINUOUS
62
5
10
126.070307
20
138.500000
40
1.500000
100
AcDbArc
50
2.830764
51
89.999999
0
LINE
5
548
100
AcDbEntity
8
3
100
AcDbLine
6
CONTINUOUS
62
5
10
126.070307
20
140.000000
11
120.070307
21
140.000000
0
ARC
5
549
100
AcDbEntity
8
3
100
AcDbCircle
6
CONTINUOUS
62
5
10
120.070307
20
138.500000
40
1.500000
100
AcDbArc
50
89.999999
51
-179.999998
0
LINE
5
54a
100
AcDbEntity
8
3
100
AcDbLine
6
CONTINUOUS
62
5
10
118.570307
20
138.500000
11
118.570307
21
128.500000
0
ARC
5
54b
100
AcDbEntity
8
3
100
AcDbCircle
6
CONTINUOUS
62
5
10
102.070307
20
147.000000
40
0.500000
100
AcDbArc
50
-89.999999
51
0.000000
0
LINE
5
54c
100
AcDbEntity
8
3
100
AcDbLine
6
CONTINUOUS
62
5
10
102.070307
20
146.500000
11
100.070307
21
146.500000
0
ARC
5
54d
100
AcDbEntity
8
3
100
AcDbCircle
6
CONTINUOUS
62
5
10
100.070307
20
144.000000
40
2.500000
100
AcDbArc
50
89.999999
51
179.999998
0
ARC
5
54e
100
AcDbEntity
8
3
100
AcDbCircle
6
CONTINUOUS
62
5
10
100.070307
20
151.000000
40
2.500000
100
AcDbArc
50
179.999998
51
-89.999999
0
LINE
5
54f
100
AcDbEntity
8
3
100
AcDbLine
6
CONTINUOUS
62
5
10
100.070307
20
148.500000
11
102.070307
21
148.500000
0
ARC
5
550
100
AcDbEntity
8
3
100
AcDbCircle
6
CONTINUOUS
62
5
10
102.070307
20
148.000000
40
0.500000
100
AcDbArc
50
0.000000
51
89.999999
0
POLYLINE
5
551
100
AcDbEntity
8
1
6
CONTINUOUS
62
5
100
AcDb2dPolyline
66
1
10
0.0
20
0.0
30
0.0
70
1
0
VERTEX
5
552
100
AcDbEntity
8
1
100
AcDbVertex
100
AcDb2dVertex
62
5
10
111.320321
20
129.150000
0
VERTEX
5
553
100
AcDbEntity
8
1
100
AcDbVertex
100
AcDb2dVertex
62
5
10
111.320321
20
137.850000
0
VERTEX
5
554
100
AcDbEntity
8
1
100
AcDbVertex
100
AcDb2dVertex
62
5
10
109.120321
20
137.850000
0
VERTEX
5
555
100
AcDbEntity
8
1
100
AcDbVertex
100
AcDb2dVertex
62
5
10
109.120321
20
129.150000
0
SEQEND
5
556
100
AcDbEntity
8
1
0
POLYLINE
5
557
100
AcDbEntity
8
1
6
CONTINUOUS
62
5
100
AcDb2dPolyline
66
1
10
0.0
20
0.0
30
0.0
70
0
0
VERTEX
5
558
100
AcDbEntity
8
1
100
AcDbVertex
100
AcDb2dVertex
62
5
10
109.828640
20
147.550002
0
VERTEX
5
559
100
AcDbEntity
8
1
100
AcDbVertex
100
AcDb2dVertex
62
5
10
109.828640
20
149.120835
0
VERTEX
5
55a
100
AcDbEntity
8
1
100
AcDbVertex
100
AcDb2dVertex
62
5
10
108.311974
20
149.120835
0
VERTEX
5
55b
100
AcDbEntity
8
1
100
AcDbVertex
100
AcDb2dVertex
62
5
10
108.311974
20
147.550002
0
SEQEND
5
55c
100
AcDbEntity
8
1
0
POLYLINE
5
55d
100
AcDbEntity
8
1
6
CONTINUOUS
62
5
100
AcDb2dPolyline
66
1
10
0.0
20
0.0
30
0.0
70
0
0
VERTEX
5
55e
100
AcDbEntity
8
1
100
AcDbVertex
100
AcDb2dVertex
62
5
10
109.828640
20
147.550002
0
VERTEX
5
55f
100
AcDbEntity
8
1
100
AcDbVertex
100
AcDb2dVertex
62
5
10
110.586974
20
147.550002
0
VERTEX
5
560
100
AcDbEntity
8
1
100
AcDbVertex
100
AcDb2dVertex
62
5
10
110.586974
20
151.450002
0
VERTEX
5
561
100
AcDbEntity
8
1
100
AcDbVertex
100
AcDb2dVertex
62
5
10
109.828640
20
151.450002
0
VERTEX
5
562
100
AcDbEntity
8
1
100
AcDbVertex
100
AcDb2dVertex
62
5
10
109.828640
20
149.879168
0
VERTEX
5
563
100
AcDbEntity
8
1
100
AcDbVertex
100
AcDb2dVertex
62
5
10
108.311974
20
149.879168
0
VERTEX
5
564
100
AcDbEntity
8
1
100
AcDbVertex
100
AcDb2dVertex
62
5
10
108.311974
20
151.450002
0
VERTEX
5
565
100
AcDbEntity
8
1
100
AcDbVertex
100
AcDb2dVertex
62
5
10
107.553640
20
151.450002
0
VERTEX
5
566
100
AcDbEntity
8
1
100
AcDbVertex
100
AcDb2dVertex
62
5
10
107.553640
20
147.550002
0
VERTEX
5
567
100
AcDbEntity
8
1
100
AcDbVertex
100
AcDb2dVertex
62
5
10
108.311974
20
147.550002
0
SEQEND
5
568
100
AcDbEntity
8
1
0
POLYLINE
5
569
100
AcDbEntity
8
1
6
CONTINUOUS
62
5
100
AcDb2dPolyline
66
1
10
0.0
20
0.0
30
0.0
70
0
0
VERTEX
5
56a
100
AcDbEntity
8
1
100
AcDbVertex
100
AcDb2dVertex
62
5
10
111.345307
20
152.316668
0
VERTEX
5
56b
100
AcDbEntity
8
1
100
AcDbVertex
100
AcDb2dVertex
62
5
10
111.345307
20
146.683335
0
VERTEX
5
56c
100
AcDbEntity
8
1
100
AcDbVertex
100
AcDb2dVertex
62
5
10
106.795307
20
146.683335
0
VERTEX
5
56d
100
AcDbEntity
8
1
100
AcDbVertex
100
AcDb2dVertex
62
5
10
106.795307
20
152.316668
0
VERTEX
5
56e
100
AcDbEntity
8
1
100
AcDbVertex
100
AcDb2dVertex
62
5
10
111.345307
20
152.316668
0
VERTEX
5
56f
100
AcDbEntity
8
1
100
AcDbVertex
100
AcDb2dVertex
62
5
10
106.795307
20
152.316668
0
SEQEND
5
570
100
AcDbEntity
8
1
0
POLYLINE
5
571
100
AcDbEntity
8
1
6
CONTINUOUS
62
5
100
AcDb2dPolyline
66
1
10
0.0
20
0.0
30
0.0
70
1
0
VERTEX
5
572
100
AcDbEntity
8
1
100
AcDbVertex
100
AcDb2dVertex
62
5
10
106.361974
20
152.750002
0
VERTEX
5
573
100
AcDbEntity
8
1
100
AcDbVertex
100
AcDb2dVertex
62
5
10
111.778640
20
152.750002
0
VERTEX
5
574
100
AcDbEntity
8
1
100
AcDbVertex
100
AcDb2dVertex
62
5
10
111.778640
20
146.250002
0
VERTEX
5
575
100
AcDbEntity
8
1
100
AcDbVertex
100
AcDb2dVertex
62
5
10
106.361974
20
146.250002
0
SEQEND
5
576
100
AcDbEntity
8
1
0
ARC
5
577
100
AcDbEntity
8
1
100
AcDbCircle
6
CONTINUOUS
62
5
10
125.570307
20
151.000003
40
3.500000
100
AcDbArc
50
3.064471
51
89.999999
0
LINE
5
578
100
AcDbEntity
8
1
100
AcDbLine
6
CONTINUOUS
62
5
10
129.065302
20
151.187112
11
129.045997
21
144.588200
0
ARC
5
579
100
AcDbEntity
8
1
100
AcDbCircle
6
CONTINUOUS
62
5
10
125.570307
20
145.000000
40
3.500000
100
AcDbArc
50
-79.415076
51
-6.756903
0
LINE
5
57a
100
AcDbEntity
8
1
100
AcDbLine
6
CONTINUOUS
62
5
10
126.213232
20
141.559557
11
107.135365
21
141.527130
0
ARC
5
57b
100
AcDbEntity
8
1
100
AcDbCircle
6
CONTINUOUS
62
5
10
107.570307
20
145.000000
40
3.500000
100
AcDbArc
50
179.999998
51
-97.138548
0
LINE
5
57c
100
AcDbEntity
8
1
100
AcDbLine
6
CONTINUOUS
62
5
10
104.070307
20
145.000000
11
104.070307
21
151.000003
0
ARC
5
57d
100
AcDbEntity
8
1
100
AcDbCircle
6
CONTINUOUS
62
5
10
107.570307
20
151.000003
40
3.500000
100
AcDbArc
50
89.999999
51
179.999998
0
LINE
5
57e
100
AcDbEntity
8
1
100
AcDbLine
6
CONTINUOUS
62
5
10
107.570307
20
154.500003
11
125.570307
21
154.500003
0
ARC
5
57f
100
AcDbEntity
8
3
100
AcDbCircle
6
CONTINUOUS
62
5
10
107.070307
20
128.500000
40
1.500000
100
AcDbArc
50
179.999998
51
-91.254859
0
LINE
5
580
100
AcDbEntity
8
3
100
AcDbLine
6
CONTINUOUS
62
5
10
105.570307
20
128.500000
11
105.570307
21
138.500000
0
ARC
5
581
100
AcDbEntity
8
3
100
AcDbCircle
6
CONTINUOUS
62
5
10
107.070307
20
138.500000
40
1.500000
100
AcDbArc
50
89.999999
51
179.999998
0
LINE
5
582
100
AcDbEntity
8
3
100
AcDbLine
6
CONTINUOUS
62
5
10
107.070307
20
140.000000
11
113.070307
21
140.000000
0
ARC
5
583
100
AcDbEntity
8
3
100
AcDbCircle
6
CONTINUOUS
62
5
10
113.070307
20
138.500000
40
1.500000
100
AcDbArc
50
0.000000
51
89.999999
0
LINE
5
584
100
AcDbEntity
8
3
100
AcDbLine
6
CONTINUOUS
62
5
10
114.570307
20
138.500000
11
114.569603
21
128.454038
0
ARC
5
585
100
AcDbEntity
8
3
100
AcDbCircle
6
CONTINUOUS
62
5
10
113.070307
20
128.500000
40
1.500000
100
AcDbArc
50
-89.999999
51
-1.755889
0
POLYLINE
5
586
100
AcDbEntity
8
3
6
CONTINUOUS
62
5
100
AcDb2dPolyline
66
1
10
0.0
20
0.0
30
0.0
70
0
0
VERTEX
5
587
100
AcDbEntity
8
3
100
AcDbVertex
100
AcDb2dVertex
62
5
10
107.070307
20
127.000000
0
VERTEX
5
588
100
AcDbEntity
8
3
100
AcDbVertex
100
AcDb2dVertex
62
5
10
113.070307
20
127.000000
0
VERTEX
5
589
100
AcDbEntity
8
3
100
AcDbVertex
100
AcDb2dVertex
62
5
10
107.037458
20
127.000360
0
SEQEND
5
58a
100
AcDbEntity
8
3
0
LINE
5
58b
100
AcDbEntity
8
3
100
AcDbLine
6
CONTINUOUS
62
5
10
113.570307
20
96.350000
11
113.570307
21
102.650000
0
CIRCLE
5
58c
100
AcDbEntity
8
3
100
AcDbCircle
6
CONTINUOUS
62
5
10
116.570307
20
99.500000
40
1.250000
0
CIRCLE
5
58d
100
AcDbEntity
8
1
100
AcDbCircle
6
CONTINUOUS
62
5
10
116.570307
20
99.500000
40
1.750000
0
LINE
5
58e
100
AcDbEntity
8
3
100
AcDbLine
6
CONTINUOUS
62
5
10
119.570307
20
96.350000
11
119.570307
21
102.650000
0
ARC
5
58f
100
AcDbEntity
8
3
100
AcDbCircle
6
CONTINUOUS
62
5
10
119.070307
20
108.250000
40
2.500000
100
AcDbArc
50
-89.999999
51
89.999999
0
LINE
5
590
100
AcDbEntity
8
3
100
AcDbLine
6
CONTINUOUS
62
5
10
119.070307
20
110.750000
11
114.070307
21
110.750000
0
ARC
5
591
100
AcDbEntity
8
3
100
AcDbCircle
6
CONTINUOUS
62
5
10
114.070307
20
108.250000
40
2.500000
100
AcDbArc
50
89.999999
51
-89.999999
0
LINE
5
592
100
AcDbEntity
8
3
100
AcDbLine
6
CONTINUOUS
62
5
10
114.070307
20
105.750000
11
119.070307
21
105.750000
0
ARC
5
593
100
AcDbEntity
8
3
100
AcDbCircle
6
CONTINUOUS
62
5
10
114.070307
20
108.250000
40
3.300000
100
AcDbArc
50
89.999999
51
-89.999999
0
LINE
5
594
100
AcDbEntity
8
3
100
AcDbLine
6
CONTINUOUS
62
5
10
114.070307
20
104.950000
11
119.070307
21
104.950000
0
ARC
5
595
100
AcDbEntity
8
3
100
AcDbCircle
6
CONTINUOUS
62
5
10
119.070307
20
108.250000
40
3.300000
100
AcDbArc
50
-89.999999
51
89.999999
0
LINE
5
596
100
AcDbEntity
8
3
100
AcDbLine
6
CONTINUOUS
62
5
10
119.070307
20
111.550000
11
114.070307
21
111.550000
0
POLYLINE
5
597
100
AcDbEntity
8
3
6
CONTINUOUS
62
5
100
AcDb2dPolyline
66
1
10
0.0
20
0.0
30
0.0
70
0
0
VERTEX
5
598
100
AcDbEntity
8
3
100
AcDbVertex
100
AcDb2dVertex
62
5
10
111.070307
20
96.350000
0
VERTEX
5
599
100
AcDbEntity
8
3
100
AcDbVertex
100
AcDb2dVertex
62
5
10
111.070307
20
102.650000
0
VERTEX
5
59a
100
AcDbEntity
8
3
100
AcDbVertex
100
AcDb2dVertex
62
5
10
122.070307
20
102.650000
0
VERTEX
5
59b
100
AcDbEntity
8
3
100
AcDbVertex
100
AcDb2dVertex
62
5
10
122.070307
20
96.350000
0
SEQEND
5
59c
100
AcDbEntity
8
3
0
CIRCLE
5
59d
100
AcDbEntity
8
3
100
AcDbCircle
6
CONTINUOUS
62
5
10
129.570307
20
99.500000
40
2.250000
0
CIRCLE
5
59e
100
AcDbEntity
8
3
100
AcDbCircle
6
CONTINUOUS
62
5
10
129.570307
20
99.500000
40
3.050000
0
LINE
5
59f
100
AcDbEntity
8
2
100
AcDbLine
6
CONTINUOUS
62
5
10
125.920307
20
96.350000
11
127.178170
21
97.607863
0
LINE
5
5a0
100
AcDbEntity
8
2
100
AcDbLine
6
CONTINUOUS
62
5
10
131.462444
20
101.892137
11
134.570307
21
105.000000
0
LINE
5
5a1
100
AcDbEntity
8
2
100
AcDbLine
6
CONTINUOUS
62
5
10
134.570307
20
105.424265
11
131.214756
21
102.068713
0
LINE
5
5a2
100
AcDbEntity
8
2
100
AcDbLine
6
CONTINUOUS
62
5
10
127.001594
20
97.855551
11
125.496043
21
96.350000
0
LINE
5
5a3
100
AcDbEntity
8
2
100
AcDbLine
6
CONTINUOUS
62
5
10
134.570307
20
104.575736
11
131.688782
21
101.694211
0
LINE
5
5a4
100
AcDbEntity
8
2
100
AcDbLine
6
CONTINUOUS
62
5
10
127.376096
20
97.381525
11
125.922880
21
95.928310
0
CIRCLE
5
5a5
100
AcDbEntity
8
3
100
AcDbCircle
6
CONTINUOUS
62
5
10
103.570307
20
99.500000
40
2.250000
0
CIRCLE
5
5a6
100
AcDbEntity
8
3
100
AcDbCircle
6
CONTINUOUS
62
5
10
103.570307
20
99.500000
40
3.050000
0
LINE
5
5a7
100
AcDbEntity
8
2
100
AcDbLine
6
CONTINUOUS
62
5
10
107.644571
20
96.350000
11
106.139020
21
97.855551
0
LINE
5
5a8
100
AcDbEntity
8
2
100
AcDbLine
6
CONTINUOUS
62
5
10
101.925858
20
102.068713
11
98.570307
21
105.424265
0
LINE
5
5a9
100
AcDbEntity
8
2
100
AcDbLine
6
CONTINUOUS
62
5
10
98.570307
20
105.000000
11
101.678170
21
101.892137
0
LINE
5
5aa
100
AcDbEntity
8
2
100
AcDbLine
6
CONTINUOUS
62
5
10
105.962444
20
97.607863
11
107.220307
21
96.350000
0
LINE
5
5ab
100
AcDbEntity
8
2
100
AcDbLine
6
CONTINUOUS
62
5
10
107.217734
20
95.928309
11
105.764518
21
97.381525
0
LINE
5
5ac
100
AcDbEntity
8
2
100
AcDbLine
6
CONTINUOUS
62
5
10
101.451832
20
101.694211
11
98.570309
21
104.575734
0
ARC
5
5ad
100
AcDbEntity
8
3
100
AcDbCircle
6
CONTINUOUS
62
5
10
132.468355
20
118.342285
40
1.750000
100
AcDbArc
50
-9.500000
51
160.346089
0
LINE
5
5ae
100
AcDbEntity
8
3
100
AcDbLine
6
CONTINUOUS
62
5
10
134.194355
20
118.053452
11
132.296307
21
106.711167
0
ARC
5
5af
100
AcDbEntity
8
3
100
AcDbCircle
6
CONTINUOUS
62
5
10
130.570307
20
107.000000
40
1.750000
100
AcDbArc
50
170.499983
51
-9.500006
0
LINE
5
5b0
100
AcDbEntity
8
3
100
AcDbLine
6
CONTINUOUS
62
5
10
128.844307
20
107.288834
11
130.179218
21
115.265942
0
ARC
5
5b1
100
AcDbEntity
8
3
100
AcDbCircle
6
CONTINUOUS
62
5
10
100.672260
20
118.342285
40
1.750000
100
AcDbArc
50
19.653910
51
-170.499998
0
LINE
5
5b2
100
AcDbEntity
8
3
100
AcDbLine
6
CONTINUOUS
62
5
10
98.946260
20
118.053452
11
100.844307
21
106.711167
0
ARC
5
5b3
100
AcDbEntity
8
3
100
AcDbCircle
6
CONTINUOUS
62
5
10
102.570307
20
107.000000
40
1.750000
100
AcDbArc
50
-170.499998
51
9.500000
0
LINE
5
5b4
100
AcDbEntity
8
3
100
AcDbLine
6
CONTINUOUS
62
5
10
104.296307
20
107.288834
11
102.964064
21
115.250000
0
ARC
5
5b5
100
AcDbEntity
8
3
100
AcDbCircle
6
CONTINUOUS
62
5
10
100.672260
20
118.342285
40
1.750000
100
AcDbArc
50
19.653955
51
-170.499998
0
LINE
5
5b6
100
AcDbEntity
8
3
100
AcDbLine
6
CONTINUOUS
62
5
10
98.946260
20
118.053452
11
100.844307
21
106.711167
0
ARC
5
5b7
100
AcDbEntity
8
3
100
AcDbCircle
6
CONTINUOUS
62
5
10
102.570307
20
107.000000
40
1.750000
100
AcDbArc
50
-170.500008
51
9.499998
0
LINE
5
5b8
100
AcDbEntity
8
3
100
AcDbLine
6
CONTINUOUS
62
5
10
104.296307
20
107.288833
11
102.961396
21
115.265942
0
ARC
5
5b9
100
AcDbEntity
8
3
100
AcDbCircle
6
CONTINUOUS
62
5
10
113.370307
20
118.400003
40
1.500000
100
AcDbArc
50
179.999998
51
-89.999999
0
POLYLINE
5
5ba
100
AcDbEntity
8
3
6
CONTINUOUS
62
5
100
AcDb2dPolyline
66
1
10
0.0
20
0.0
30
0.0
70
0
0
VERTEX
5
5bb
100
AcDbEntity
8
3
100
AcDbVertex
100
AcDb2dVertex
62
5
10
113.370307
20
116.900003
0
VERTEX
5
5bc
100
AcDbEntity
8
3
100
AcDbVertex
100
AcDb2dVertex
62
5
10
113.370307
20
116.900003
0
VERTEX
5
5bd
100
AcDbEntity
8
3
100
AcDbVertex
100
AcDb2dVertex
62
5
10
119.770307
20
116.900003
0
SEQEND
5
5be
100
AcDbEntity
8
3
0
ARC
5
5bf
100
AcDbEntity
8
3
100
AcDbCircle
6
CONTINUOUS
62
5
10
119.770307
20
118.400003
40
1.500000
100
AcDbArc
50
-89.999999
51
0.000000
0
LINE
5
5c0
100
AcDbEntity
8
3
100
AcDbLine
6
CONTINUOUS
62
5
10
121.270307
20
118.400003
11
121.270307
21
121.600003
0
ARC
5
5c1
100
AcDbEntity
8
3
100
AcDbCircle
6
CONTINUOUS
62
5
10
116.570307
20
121.600003
40
4.700000
100
AcDbArc
50
0.000000
51
89.999999
0
ARC
5
5c2
100
AcDbEntity
8
3
100
AcDbCircle
6
CONTINUOUS
62
5
10
116.570307
20
121.600003
40
4.700000
100
AcDbArc
50
89.999999
51
179.999998
0
LINE
5
5c3
100
AcDbEntity
8
3
100
AcDbLine
6
CONTINUOUS
62
5
10
111.870307
20
121.600003
11
111.870307
21
118.400003
0
LINE
5
5c4
100
AcDbEntity
8
1
100
AcDbLine
6
CONTINUOUS
62
5
10
135.570307
20
114.250000
11
135.570307
21
134.261934
0
ARC
5
5c5
100
AcDbEntity
8
3
100
AcDbCircle
6
CONTINUOUS
62
5
10
132.820307
20
133.000000
40
2.000000
100
AcDbArc
50
89.999999
51
179.999998
0
LINE
5
5c6
100
AcDbEntity
8
3
100
AcDbLine
6
CONTINUOUS
62
5
10
130.820307
20
133.000000
11
130.820307
21
116.050000
0
ARC
5
5c7
100
AcDbEntity
8
3
100
AcDbCircle
6
CONTINUOUS
62
5
10
130.020307
20
116.050000
40
0.800000
100
AcDbArc
50
-89.999999
51
-0.000000
0
LINE
5
5c8
100
AcDbEntity
8
3
100
AcDbLine
6
CONTINUOUS
62
5
10
130.020307
20
115.250000
11
128.697458
21
115.250000
0
ARC
5
5c9
100
AcDbEntity
8
3
100
AcDbCircle
6
CONTINUOUS
62
5
10
128.697458
20
114.750000
40
0.500000
100
AcDbArc
50
90.000016
51
164.054516
0
LINE
5
5ca
100
AcDbEntity
8
3
100
AcDbLine
6
CONTINUOUS
62
5
10
128.216696
20
114.887361
11
128.027530
21
114.225279
0
ARC
5
5cb
100
AcDbEntity
8
3
100
AcDbCircle
6
CONTINUOUS
62
5
10
127.066006
20
114.500000
40
1.000000
100
AcDbArc
50
-89.999999
51
-15.945396
0
LINE
5
5cc
100
AcDbEntity
8
3
100
AcDbLine
6
CONTINUOUS
62
5
10
127.066006
20
113.500000
11
126.962044
21
113.500000
0
ARC
5
5cd
100
AcDbEntity
8
3
100
AcDbCircle
6
CONTINUOUS
62
5
10
126.962044
20
114.300000
40
0.800000
100
AcDbArc
50
-167.471191
51
-89.999999
0
LINE
5
5ce
100
AcDbEntity
8
3
100
AcDbLine
6
CONTINUOUS
62
5
10
126.181095
20
114.126456
11
125.842529
21
115.650000
0
LINE
5
5cf
100
AcDbEntity
8
3
100
AcDbLine
6
CONTINUOUS
62
5
10
137.420307
20
135.000000
11
132.820307
21
135.000000
0
LINE
5
5d0
100
AcDbEntity
8
1
100
AcDbLine
6
CONTINUOUS
62
5
10
97.570307
20
114.250000
11
97.570307
21
134.261934
0
ARC
5
5d1
100
AcDbEntity
8
3
100
AcDbCircle
6
CONTINUOUS
62
5
10
100.320307
20
133.000000
40
2.000000
100
AcDbArc
50
0.000000
51
89.999999
0
LINE
5
5d2
100
AcDbEntity
8
3
100
AcDbLine
6
CONTINUOUS
62
5
10
102.320307
20
133.000000
11
102.320307
21
116.050000
0
ARC
5
5d3
100
AcDbEntity
8
3
100
AcDbCircle
6
CONTINUOUS
62
5
10
103.120307
20
116.050000
40
0.800000
100
AcDbArc
50
-179.999998
51
-89.999999
0
LINE
5
5d4
100
AcDbEntity
8
3
100
AcDbLine
6
CONTINUOUS
62
5
10
103.120307
20
115.250000
11
104.443156
21
115.250000
0
ARC
5
5d5
100
AcDbEntity
8
3
100
AcDbCircle
6
CONTINUOUS
62
5
10
104.443156
20
114.750000
40
0.500000
100
AcDbArc
50
15.945396
51
89.999999
0
LINE
5
5d6
100
AcDbEntity
8
3
100
AcDbLine
6
CONTINUOUS
62
5
10
104.923918
20
114.887361
11
105.113084
21
114.225279
0
ARC
5
5d7
100
AcDbEntity
8
3
100
AcDbCircle
6
CONTINUOUS
62
5
10
106.074608
20
114.500000
40
1.000000
100
AcDbArc
50
-164.054603
51
-89.999999
0
LINE
5
5d8
100
AcDbEntity
8
3
100
AcDbLine
6
CONTINUOUS
62
5
10
106.074608
20
113.500000
11
106.178570
21
113.500000
0
ARC
5
5d9
100
AcDbEntity
8
3
100
AcDbCircle
6
CONTINUOUS
62
5
10
106.178570
20
114.300000
40
0.800000
100
AcDbArc
50
-89.999999
51
-12.528808
0
LINE
5
5da
100
AcDbEntity
8
3
100
AcDbLine
6
CONTINUOUS
62
5
10
106.959520
20
114.126456
11
107.298085
21
115.650000
0
LINE
5
5db
100
AcDbEntity
8
3
100
AcDbLine
6
CONTINUOUS
62
5
10
95.720307
20
135.000000
11
100.320307
21
135.000000
0
POLYLINE
5
5dc
100
AcDbEntity
8
1
6
DOT2
62
5
100
AcDb2dPolyline
66
1
10
0.0
20
0.0
30
0.0
70
0
0
VERTEX
5
5dd
100
AcDbEntity
8
1
100
AcDbVertex
100
AcDb2dVertex
62
5
10
62.595307
20
149.375000
0
VERTEX
5
5de
100
AcDbEntity
8
1
100
AcDbVertex
100
AcDb2dVertex
62
5
10
61.970307
20
150.312500
0
VERTEX
5
5df
100
AcDbEntity
8
1
100
AcDbVertex
100
AcDb2dVertex
62
5
10
69.470307
20
150.312500
0
SEQEND
5
5e0
100
AcDbEntity
8
1
0
LINE
5
5e1
100
AcDbEntity
8
1
100
AcDbLine
6
DOT2
62
5
10
69.470307
20
149.687500
11
69.470307
21
150.937500
0
POLYLINE
5
5e2
100
AcDbEntity
8
1
6
DOT2
62
5
100
AcDb2dPolyline
66
1
10
0.0
20
0.0
30
0.0
70
1
0
VERTEX
5
5e3
100
AcDbEntity
8
1
100
AcDbVertex
100
AcDb2dVertex
62
5
10
61.970307
20
155.000000
0
VERTEX
5
5e4
100
AcDbEntity
8
1
100
AcDbVertex
100
AcDb2dVertex
62
5
10
61.970307
20
155.625000
0
VERTEX
5
5e5
100
AcDbEntity
8
1
100
AcDbVertex
100
AcDb2dVertex
62
5
10
62.282807
20
155.937500
0
VERTEX
5
5e6
100
AcDbEntity
8
1
100
AcDbVertex
100
AcDb2dVertex
62
5
10
63.532807
20
156.562500
0
VERTEX
5
5e7
100
AcDbEntity
8
1
100
AcDbVertex
100
AcDb2dVertex
62
5
10
64.782807
20
156.875000
0
VERTEX
5
5e8
100
AcDbEntity
8
1
100
AcDbVertex
100
AcDb2dVertex
62
5
10
66.657807
20
156.875000
0
VERTEX
5
5e9
100
AcDbEntity
8
1
100
AcDbVertex
100
AcDb2dVertex
62
5
10
67.907807
20
156.562500
0
VERTEX
5
5ea
100
AcDbEntity
8
1
100
AcDbVertex
100
AcDb2dVertex
62
5
10
69.157807
20
155.937500
0
VERTEX
5
5eb
100
AcDbEntity
8
1
100
AcDbVertex
100
AcDb2dVertex
62
5
10
69.470307
20
155.625000
0
VERTEX
5
5ec
100
AcDbEntity
8
1
100
AcDbVertex
100
AcDb2dVertex
62
5
10
69.470307
20
155.000000
0
VERTEX
5
5ed
100
AcDbEntity
8
1
100
AcDbVertex
100
AcDb2dVertex
62
5
10
69.157807
20
154.687500
0
VERTEX
5
5ee
100
AcDbEntity
8
1
100
AcDbVertex
100
AcDb2dVertex
62
5
10
67.907807
20
154.062500
0
VERTEX
5
5ef
100
AcDbEntity
8
1
100
AcDbVertex
100
AcDb2dVertex
62
5
10
66.657807
20
153.750000
0
VERTEX
5
5f0
100
AcDbEntity
8
1
100
AcDbVertex
100
AcDb2dVertex
62
5
10
64.782807
20
153.750000
0
VERTEX
5
5f1
100
AcDbEntity
8
1
100
AcDbVertex
100
AcDb2dVertex
62
5
10
63.532807
20
154.062500
0
VERTEX
5
5f2
100
AcDbEntity
8
1
100
AcDbVertex
100
AcDb2dVertex
62
5
10
62.282807
20
154.687500
0
VERTEX
5
5f3
100
AcDbEntity
8
1
100
AcDbVertex
100
AcDb2dVertex
62
5
10
61.970307
20
155.000000
0
SEQEND
5
5f4
100
AcDbEntity
8
1
0
POLYLINE
5
5f5
100
AcDbEntity
8
1
6
DOT2
62
5
100
AcDb2dPolyline
66
1
10
0.0
20
0.0
30
0.0
70
0
0
VERTEX
5
5f6
100
AcDbEntity
8
1
100
AcDbVertex
100
AcDb2dVertex
62
5
10
62.595307
20
144.375000
0
VERTEX
5
5f7
100
AcDbEntity
8
1
100
AcDbVertex
100
AcDb2dVertex
62
5
10
61.970307
20
145.312500
0
VERTEX
5
5f8
100
AcDbEntity
8
1
100
AcDbVertex
100
AcDb2dVertex
62
5
10
69.470307
20
145.312500
0
SEQEND
5
5f9
100
AcDbEntity
8
1
0
LINE
5
5fa
100
AcDbEntity
8
1
100
AcDbLine
6
DOT2
62
5
10
69.470307
20
144.687500
11
69.470307
21
145.937500
0
LINE
5
5fb
100
AcDbEntity
8
3
100
AcDbLine
6
DOT2
62
5
10
118.445307
20
71.875000
11
117.820307
21
71.250000
0
POLYLINE
5
5fc
100
AcDbEntity
8
3
6
DOT2
62
5
100
AcDb2dPolyline
66
1
10
0.0
20
0.0
30
0.0
70
0
0
VERTEX
5
5fd
100
AcDbEntity
8
3
100
AcDbVertex
100
AcDb2dVertex
62
5
10
117.820307
20
71.875000
0
VERTEX
5
5fe
100
AcDbEntity
8
3
100
AcDbVertex
100
AcDb2dVertex
62
5
10
118.445307
20
71.250000
0
VERTEX
5
5ff
100
AcDbEntity
8
3
100
AcDbVertex
100
AcDb2dVertex
62
5
10
117.820307
20
71.250000
0
VERTEX
5
600
100
AcDbEntity
8
3
100
AcDbVertex
100
AcDb2dVertex
62
5
10
117.820307
20
71.875000
0
VERTEX
5
601
100
AcDbEntity
8
3
100
AcDbVertex
100
AcDb2dVertex
62
5
10
118.445307
20
71.875000
0
VERTEX
5
602
100
AcDbEntity
8
3
100
AcDbVertex
100
AcDb2dVertex
62
5
10
118.445307
20
71.250000
0
SEQEND
5
603
100
AcDbEntity
8
3
0
POLYLINE
5
604
100
AcDbEntity
8
1
6
CONTINUOUS
62
5
100
AcDb2dPolyline
66
1
10
0.0
20
0.0
30
0.0
70
0
0
VERTEX
5
605
100
AcDbEntity
8
1
100
AcDbVertex
100
AcDb2dVertex
62
5
10
123.125000
20
35.125000
0
VERTEX
5
606
100
AcDbEntity
8
1
100
AcDbVertex
100
AcDb2dVertex
62
5
10
124.062500
20
35.750000
0
VERTEX
5
607
100
AcDbEntity
8
1
100
AcDbVertex
100
AcDb2dVertex
62
5
10
124.062500
20
28.250000
0
SEQEND
5
608
100
AcDbEntity
8
1
0
LINE
5
609
100
AcDbEntity
8
1
100
AcDbLine
6
CONTINUOUS
62
5
10
123.437500
20
28.250000
11
124.687500
21
28.250000
0
POLYLINE
5
60a
100
AcDbEntity
8
1
6
CONTINUOUS
62
5
100
AcDb2dPolyline
66
1
10
0.0
20
0.0
30
0.0
70
0
0
VERTEX
5
60b
100
AcDbEntity
8
1
100
AcDbVertex
100
AcDb2dVertex
62
5
10
127.500000
20
33.562500
0
VERTEX
5
60c
100
AcDbEntity
8
1
100
AcDbVertex
100
AcDb2dVertex
62
5
10
127.812500
20
35.125000
0
VERTEX
5
60d
100
AcDbEntity
8
1
100
AcDbVertex
100
AcDb2dVertex
62
5
10
128.750000
20
35.750000
0
VERTEX
5
60e
100
AcDbEntity
8
1
100
AcDbVertex
100
AcDb2dVertex
62
5
10
129.687500
20
35.750000
0
VERTEX
5
60f
100
AcDbEntity
8
1
100
AcDbVertex
100
AcDb2dVertex
62
5
10
130.312500
20
35.437500
0
VERTEX
5
610
100
AcDbEntity
8
1
100
AcDbVertex
100
AcDb2dVertex
62
5
10
130.625000
20
34.500000
0
VERTEX
5
611
100
AcDbEntity
8
1
100
AcDbVertex
100
AcDb2dVertex
62
5
10
130.625000
20
33.562500
0
VERTEX
5
612
100
AcDbEntity
8
1
100
AcDbVertex
100
AcDb2dVertex
62
5
10
130.312500
20
32.625000
0
VERTEX
5
613
100
AcDbEntity
8
1
100
AcDbVertex
100
AcDb2dVertex
62
5
10
127.500000
20
28.250000
0
VERTEX
5
614
100
AcDbEntity
8
1
100
AcDbVertex
100
AcDb2dVertex
62
5
10
130.625000
20
28.250000
0
VERTEX
5
615
100
AcDbEntity
8
1
100
AcDbVertex
100
AcDb2dVertex
62
5
10
130.625000
20
29.187500
0
SEQEND
5
616
100
AcDbEntity
8
1
0
LINE
5
617
100
AcDbEntity
8
1
100
AcDbLine
6
CONTINUOUS
62
5
10
132.500000
20
35.750000
11
135.312500
21
35.750000
0
POLYLINE
5
618
100
AcDbEntity
8
1
6
CONTINUOUS
62
5
100
AcDb2dPolyline
66
1
10
0.0
20
0.0
30
0.0
70
0
0
VERTEX
5
619
100
AcDbEntity
8
1
100
AcDbVertex
100
AcDb2dVertex
62
5
10
132.500000
20
35.750000
0
VERTEX
5
61a
100
AcDbEntity
8
1
100
AcDbVertex
100
AcDb2dVertex
62
5
10
132.500000
20
32.000000
0
VERTEX
5
61b
100
AcDbEntity
8
1
100
AcDbVertex
100
AcDb2dVertex
62
5
10
133.125000
20
32.625000
0
VERTEX
5
61c
100
AcDbEntity
8
1
100
AcDbVertex
100
AcDb2dVertex
62
5
10
133.750000
20
32.937500
0
VERTEX
5
61d
100
AcDbEntity
8
1
100
AcDbVertex
100
AcDb2dVertex
62
5
10
134.687500
20
32.937500
0
VERTEX
5
61e
100
AcDbEntity
8
1
100
AcDbVertex
100
AcDb2dVertex
62
5
10
135.312500
20
32.625000
0
VERTEX
5
61f
100
AcDbEntity
8
1
100
AcDbVertex
100
AcDb2dVertex
62
5
10
135.625000
20
31.687500
0
VERTEX
5
620
100
AcDbEntity
8
1
100
AcDbVertex
100
AcDb2dVertex
62
5
10
135.625000
20
29.812500
0
VERTEX
5
621
100
AcDbEntity
8
1
100
AcDbVertex
100
AcDb2dVertex
62
5
10
135.000000
20
28.875000
0
VERTEX
5
622
100
AcDbEntity
8
1
100
AcDbVertex
100
AcDb2dVertex
62
5
10
134.062500
20
28.250000
0
VERTEX
5
623
100
AcDbEntity
8
1
100
AcDbVertex
100
AcDb2dVertex
62
5
10
132.500000
20
28.250000
0
SEQEND
5
624
100
AcDbEntity
8
1
0
POLYLINE
5
625
100
AcDbEntity
8
1
6
CONTINUOUS
62
5
100
AcDb2dPolyline
66
1
10
0.0
20
0.0
30
0.0
70
0
0
VERTEX
5
626
100
AcDbEntity
8
1
100
AcDbVertex
100
AcDb2dVertex
62
5
10
137.500000
20
35.750000
0
VERTEX
5
627
100
AcDbEntity
8
1
100
AcDbVertex
100
AcDb2dVertex
62
5
10
139.062500
20
28.250000
0
VERTEX
5
628
100
AcDbEntity
8
1
100
AcDbVertex
100
AcDb2dVertex
62
5
10
140.625000
20
35.750000
0
SEQEND
5
629
100
AcDbEntity
8
1
0
POLYLINE
5
62a
100
AcDbEntity
8
1
6
CONTINUOUS
62
5
100
AcDb2dPolyline
66
1
10
0.0
20
0.0
30
0.0
70
0
0
VERTEX
5
62b
100
AcDbEntity
8
1
100
AcDbVertex
100
AcDb2dVertex
62
5
10
103.125000
20
35.125000
0
VERTEX
5
62c
100
AcDbEntity
8
1
100
AcDbVertex
100
AcDb2dVertex
62
5
10
104.062500
20
35.750000
0
VERTEX
5
62d
100
AcDbEntity
8
1
100
AcDbVertex
100
AcDb2dVertex
62
5
10
104.062500
20
28.250000
0
SEQEND
5
62e
100
AcDbEntity
8
1
0
LINE
5
62f
100
AcDbEntity
8
1
100
AcDbLine
6
CONTINUOUS
62
5
10
103.437500
20
28.250000
11
104.687500
21
28.250000
0
LINE
5
630
100
AcDbEntity
8
1
100
AcDbLine
6
CONTINUOUS
62
5
10
107.500000
20
35.750000
11
110.312500
21
35.750000
0
POLYLINE
5
631
100
AcDbEntity
8
1
6
CONTINUOUS
62
5
100
AcDb2dPolyline
66
1
10
0.0
20
0.0
30
0.0
70
0
0
VERTEX
5
632
100
AcDbEntity
8
1
100
AcDbVertex
100
AcDb2dVertex
62
5
10
107.500000
20
35.750000
0
VERTEX
5
633
100
AcDbEntity
8
1
100
AcDbVertex
100
AcDb2dVertex
62
5
10
107.500000
20
32.000000
0
VERTEX
5
634
100
AcDbEntity
8
1
100
AcDbVertex
100
AcDb2dVertex
62
5
10
108.125000
20
32.625000
0
VERTEX
5
635
100
AcDbEntity
8
1
100
AcDbVertex
100
AcDb2dVertex
62
5
10
108.750000
20
32.937500
0
VERTEX
5
636
100
AcDbEntity
8
1
100
AcDbVertex
100
AcDb2dVertex
62
5
10
109.687500
20
32.937500
0
VERTEX
5
637
100
AcDbEntity
8
1
100
AcDbVertex
100
AcDb2dVertex
62
5
10
110.312500
20
32.625000
0
VERTEX
5
638
100
AcDbEntity
8
1
100
AcDbVertex
100
AcDb2dVertex
62
5
10
110.625000
20
31.687500
0
VERTEX
5
639
100
AcDbEntity
8
1
100
AcDbVertex
100
AcDb2dVertex
62
5
10
110.625000
20
29.812500
0
VERTEX
5
63a
100
AcDbEntity
8
1
100
AcDbVertex
100
AcDb2dVertex
62
5
10
110.000000
20
28.875000
0
VERTEX
5
63b
100
AcDbEntity
8
1
100
AcDbVertex
100
AcDb2dVertex
62
5
10
109.062500
20
28.250000
0
VERTEX
5
63c
100
AcDbEntity
8
1
100
AcDbVertex
100
AcDb2dVertex
62
5
10
107.500000
20
28.250000
0
SEQEND
5
63d
100
AcDbEntity
8
1
0
POLYLINE
5
63e
100
AcDbEntity
8
1
6
CONTINUOUS
62
5
100
AcDb2dPolyline
66
1
10
0.0
20
0.0
30
0.0
70
0
0
VERTEX
5
63f
100
AcDbEntity
8
1
100
AcDbVertex
100
AcDb2dVertex
62
5
10
112.500000
20
28.250000
0
VERTEX
5
640
100
AcDbEntity
8
1
100
AcDbVertex
100
AcDb2dVertex
62
5
10
114.062500
20
35.750000
0
VERTEX
5
641
100
AcDbEntity
8
1
100
AcDbVertex
100
AcDb2dVertex
62
5
10
115.625000
20
28.250000
0
SEQEND
5
642
100
AcDbEntity
8
1
0
LINE
5
643
100
AcDbEntity
8
1
100
AcDbLine
6
CONTINUOUS
62
5
10
113.125000
20
30.750000
11
115.000000
21
30.750000
0
LINE
5
644
100
AcDbEntity
8
1
100
AcDbLine
6
CONTINUOUS
62
5
10
117.500000
20
32.000000
11
120.625000
21
32.000000
0
LINE
5
645
100
AcDbEntity
8
1
100
AcDbLine
6
CONTINUOUS
62
5
10
90.000000
20
44.000000
11
90.000000
21
20.000000
0
LINE
5
646
100
AcDbEntity
8
1
100
AcDbLine
6
CONTINUOUS
62
5
10
70.625000
20
34.187500
11
73.750000
21
34.187500
0
LINE
5
647
100
AcDbEntity
8
1
100
AcDbLine
6
CONTINUOUS
62
5
10
72.500000
20
36.375000
11
72.500000
21
27.625000
0
POLYLINE
5
648
100
AcDbEntity
8
1
6
CONTINUOUS
62
5
100
AcDb2dPolyline
66
1
10
0.0
20
0.0
30
0.0
70
0
0
VERTEX
5
649
100
AcDbEntity
8
1
100
AcDbVertex
100
AcDb2dVertex
62
5
10
72.500000
20
34.187500
0
VERTEX
5
64a
100
AcDbEntity
8
1
100
AcDbVertex
100
AcDb2dVertex
62
5
10
71.562500
20
32.000000
0
VERTEX
5
64b
100
AcDbEntity
8
1
100
AcDbVertex
100
AcDb2dVertex
62
5
10
70.625000
20
30.750000
0
SEQEND
5
64c
100
AcDbEntity
8
1
0
LINE
5
64d
100
AcDbEntity
8
1
100
AcDbLine
6
CONTINUOUS
62
5
10
72.500000
20
33.250000
11
73.437500
21
32.000000
0
POLYLINE
5
64e
100
AcDbEntity
8
1
6
CONTINUOUS
62
5
100
AcDb2dPolyline
66
1
10
0.0
20
0.0
30
0.0
70
0
0
VERTEX
5
64f
100
AcDbEntity
8
1
100
AcDbVertex
100
AcDb2dVertex
62
5
10
75.937500
20
36.375000
0
VERTEX
5
650
100
AcDbEntity
8
1
100
AcDbVertex
100
AcDb2dVertex
62
5
10
75.312500
20
35.125000
0
VERTEX
5
651
100
AcDbEntity
8
1
100
AcDbVertex
100
AcDb2dVertex
62
5
10
73.750000
20
33.250000
0
SEQEND
5
652
100
AcDbEntity
8
1
0
POLYLINE
5
653
100
AcDbEntity
8
1
6
CONTINUOUS
62
5
100
AcDb2dPolyline
66
1
10
0.0
20
0.0
30
0.0
70
0
0
VERTEX
5
654
100
AcDbEntity
8
1
100
AcDbVertex
100
AcDb2dVertex
62
5
10
75.312500
20
35.125000
0
VERTEX
5
655
100
AcDbEntity
8
1
100
AcDbVertex
100
AcDb2dVertex
62
5
10
78.437500
20
35.125000
0
VERTEX
5
656
100
AcDbEntity
8
1
100
AcDbVertex
100
AcDb2dVertex
62
5
10
77.500000
20
33.562500
0
VERTEX
5
657
100
AcDbEntity
8
1
100
AcDbVertex
100
AcDb2dVertex
62
5
10
75.937500
20
32.000000
0
VERTEX
5
658
100
AcDbEntity
8
1
100
AcDbVertex
100
AcDb2dVertex
62
5
10
73.750000
20
30.750000
0
SEQEND
5
659
100
AcDbEntity
8
1
0
POLYLINE
5
65a
100
AcDbEntity
8
1
6
CONTINUOUS
62
5
100
AcDb2dPolyline
66
1
10
0.0
20
0.0
30
0.0
70
0
0
VERTEX
5
65b
100
AcDbEntity
8
1
100
AcDbVertex
100
AcDb2dVertex
62
5
10
75.312500
20
35.125000
0
VERTEX
5
65c
100
AcDbEntity
8
1
100
AcDbVertex
100
AcDb2dVertex
62
5
10
75.937500
20
33.562500
0
VERTEX
5
65d
100
AcDbEntity
8
1
100
AcDbVertex
100
AcDb2dVertex
62
5
10
77.187500
20
32.000000
0
VERTEX
5
65e
100
AcDbEntity
8
1
100
AcDbVertex
100
AcDb2dVertex
62
5
10
78.125000
20
31.375000
0
VERTEX
5
65f
100
AcDbEntity
8
1
100
AcDbVertex
100
AcDb2dVertex
62
5
10
79.375000
20
30.750000
0
SEQEND
5
660
100
AcDbEntity
8
1
0
POLYLINE
5
661
100
AcDbEntity
8
1
6
CONTINUOUS
62
5
100
AcDb2dPolyline
66
1
10
0.0
20
0.0
30
0.0
70
1
0
VERTEX
5
662
100
AcDbEntity
8
1
100
AcDbVertex
100
AcDb2dVertex
62
5
10
75.000000
20
30.750000
0
VERTEX
5
663
100
AcDbEntity
8
1
100
AcDbVertex
100
AcDb2dVertex
62
5
10
75.000000
20
27.937500
0
VERTEX
5
664
100
AcDbEntity
8
1
100
AcDbVertex
100
AcDb2dVertex
62
5
10
78.437500
20
27.937500
0
VERTEX
5
665
100
AcDbEntity
8
1
100
AcDbVertex
100
AcDb2dVertex
62
5
10
78.437500
20
30.750000
0
VERTEX
5
666
100
AcDbEntity
8
1
100
AcDbVertex
100
AcDb2dVertex
62
5
10
75.000000
20
30.750000
0
SEQEND
5
667
100
AcDbEntity
8
1
0
LINE
5
668
100
AcDbEntity
8
1
100
AcDbLine
6
CONTINUOUS
62
5
10
54.687500
20
36.375000
11
54.687500
21
35.437500
0
POLYLINE
5
669
100
AcDbEntity
8
1
6
CONTINUOUS
62
5
100
AcDb2dPolyline
66
1
10
0.0
20
0.0
30
0.0
70
0
0
VERTEX
5
66a
100
AcDbEntity
8
1
100
AcDbVertex
100
AcDb2dVertex
62
5
10
50.937500
20
33.250000
0
VERTEX
5
66b
100
AcDbEntity
8
1
100
AcDbVertex
100
AcDb2dVertex
62
5
10
50.937500
20
35.437500
0
VERTEX
5
66c
100
AcDbEntity
8
1
100
AcDbVertex
100
AcDb2dVertex
62
5
10
58.437500
20
35.437500
0
VERTEX
5
66d
100
AcDbEntity
8
1
100
AcDbVertex
100
AcDb2dVertex
62
5
10
58.437500
20
33.250000
0
SEQEND
5
66e
100
AcDbEntity
8
1
0
LINE
5
66f
100
AcDbEntity
8
1
100
AcDbLine
6
CONTINUOUS
62
5
10
51.875000
20
33.562500
11
57.500000
21
33.562500
0
LINE
5
670
100
AcDbEntity
8
1
100
AcDbLine
6
CONTINUOUS
62
5
10
54.687500
20
33.562500
11
54.687500
21
28.250000
0
LINE
5
671
100
AcDbEntity
8
1
100
AcDbLine
6
CONTINUOUS
62
5
10
54.687500
20
31.062500
11
57.500000
21
31.062500
0
POLYLINE
5
672
100
AcDbEntity
8
1
6
CONTINUOUS
62
5
100
AcDb2dPolyline
66
1
10
0.0
20
0.0
30
0.0
70
0
0
VERTEX
5
673
100
AcDbEntity
8
1
100
AcDbVertex
100
AcDb2dVertex
62
5
10
52.500000
20
31.687500
0
VERTEX
5
674
100
AcDbEntity
8
1
100
AcDbVertex
100
AcDb2dVertex
62
5
10
52.187500
20
29.812500
0
VERTEX
5
675
100
AcDbEntity
8
1
100
AcDbVertex
100
AcDb2dVertex
62
5
10
51.562500
20
28.562500
0
VERTEX
5
676
100
AcDbEntity
8
1
100
AcDbVertex
100
AcDb2dVertex
62
5
10
50.625000
20
27.625000
0
SEQEND
5
677
100
AcDbEntity
8
1
0
POLYLINE
5
678
100
AcDbEntity
8
1
6
CONTINUOUS
62
5
100
AcDb2dPolyline
66
1
10
0.0
20
0.0
30
0.0
70
0
0
VERTEX
5
679
100
AcDbEntity
8
1
100
AcDbVertex
100
AcDb2dVertex
62
5
10
52.187500
20
29.812500
0
VERTEX
5
67a
100
AcDbEntity
8
1
100
AcDbVertex
100
AcDb2dVertex
62
5
10
54.687500
20
28.250000
0
VERTEX
5
67b
100
AcDbEntity
8
1
100
AcDbVertex
100
AcDb2dVertex
62
5
10
55.937500
20
27.937500
0
VERTEX
5
67c
100
AcDbEntity
8
1
100
AcDbVertex
100
AcDb2dVertex
62
5
10
59.062500
20
27.625000
0
SEQEND
5
67d
100
AcDbEntity
8
1
0
POLYLINE
5
67e
100
AcDbEntity
8
3
6
DOT2
62
5
100
AcDb2dPolyline
66
1
10
0.0
20
0.0
30
0.0
70
0
0
VERTEX
5
67f
100
AcDbEntity
8
3
100
AcDbVertex
100
AcDb2dVertex
62
5
10
122.820307
20
77.812500
0
VERTEX
5
680
100
AcDbEntity
8
3
100
AcDbVertex
100
AcDb2dVertex
62
5
10
122.820307
20
78.750000
0
VERTEX
5
681
100
AcDbEntity
8
3
100
AcDbVertex
100
AcDb2dVertex
62
5
10
125.945307
20
78.750000
0
VERTEX
5
682
100
AcDbEntity
8
3
100
AcDbVertex
100
AcDb2dVertex
62
5
10
125.945307
20
78.125000
0
VERTEX
5
683
100
AcDbEntity
8
3
100
AcDbVertex
100
AcDb2dVertex
62
5
10
125.320307
20
76.562500
0
VERTEX
5
684
100
AcDbEntity
8
3
100
AcDbVertex
100
AcDb2dVertex
62
5
10
124.695307
20
74.375000
0
VERTEX
5
685
100
AcDbEntity
8
3
100
AcDbVertex
100
AcDb2dVertex
62
5
10
124.070307
20
71.250000
0
SEQEND
5
686
100
AcDbEntity
8
3
0
POLYLINE
5
687
100
AcDbEntity
8
3
6
DOT2
62
5
100
AcDb2dPolyline
66
1
10
0.0
20
0.0
30
0.0
70
0
0
VERTEX
5
688
100
AcDbEntity
8
3
100
AcDbVertex
100
AcDb2dVertex
62
5
10
110.320307
20
78.750000
0
VERTEX
5
689
100
AcDbEntity
8
3
100
AcDbVertex
100
AcDb2dVertex
62
5
10
107.507807
20
73.125000
0
VERTEX
5
68a
100
AcDbEntity
8
3
100
AcDbVertex
100
AcDb2dVertex
62
5
10
111.257807
20
73.125000
0
SEQEND
5
68b
100
AcDbEntity
8
3
0
LINE
5
68c
100
AcDbEntity
8
3
100
AcDbLine
6
DOT2
62
5
10
110.320307
20
78.750000
11
110.320307
21
71.250000
0
LINE
5
68d
100
AcDbEntity
8
3
100
AcDbLine
6
DOT2
62
5
10
109.695307
20
71.250000
11
110.945307
21
71.250000
0
POLYLINE
5
68e
100
AcDbEntity
8
3
6
DOT2
62
5
100
AcDb2dPolyline
66
1
10
0.0
20
0.0
30
0.0
70
0
0
VERTEX
5
68f
100
AcDbEntity
8
3
100
AcDbVertex
100
AcDb2dVertex
62
5
10
113.445307
20
78.125000
0
VERTEX
5
690
100
AcDbEntity
8
3
100
AcDbVertex
100
AcDb2dVertex
62
5
10
114.382807
20
78.750000
0
VERTEX
5
691
100
AcDbEntity
8
3
100
AcDbVertex
100
AcDb2dVertex
62
5
10
114.382807
20
71.250000
0
SEQEND
5
692
100
AcDbEntity
8
3
0
LINE
5
693
100
AcDbEntity
8
3
100
AcDbLine
6
DOT2
62
5
10
113.757807
20
71.250000
11
115.007807
21
71.250000
0
LINE
5
694
100
AcDbEntity
8
3
100
AcDbLine
6
CONTINUOUS
62
5
10
95.720307
20
112.750000
11
95.720307
21
68.000000
0
LINE
5
695
100
AcDbEntity
8
3
100
AcDbLine
6
CONTINUOUS
62
5
10
137.420307
20
112.750000
11
137.420307
21
68.000000
0
POLYLINE
5
696
100
AcDbEntity
8
3
6
CONTINUOUS
62
5
100
AcDb2dPolyline
66
1
10
0.0
20
0.0
30
0.0
70
0
0
VERTEX
5
697
100
AcDbEntity
8
3
100
AcDbVertex
100
AcDb2dVertex
62
5
10
116.570307
20
70.000000
0
VERTEX
5
698
100
AcDbEntity
8
3
100
AcDbVertex
100
AcDb2dVertex
62
5
10
95.720307
20
70.000000
0
VERTEX
5
699
100
AcDbEntity
8
3
100
AcDbVertex
100
AcDb2dVertex
62
5
10
101.720307
20
71.000000
0
VERTEX
5
69a
100
AcDbEntity
8
3
100
AcDbVertex
100
AcDb2dVertex
62
5
10
101.720307
20
69.000000
0
VERTEX
5
69b
100
AcDbEntity
8
3
100
AcDbVertex
100
AcDb2dVertex
62
5
10
95.720307
20
70.000000
0
VERTEX
5
69c
100
AcDbEntity
8
3
100
AcDbVertex
100
AcDb2dVertex
62
5
10
101.720307
20
70.500000
0
VERTEX
5
69d
100
AcDbEntity
8
3
100
AcDbVertex
100
AcDb2dVertex
62
5
10
101.720307
20
69.500000
0
VERTEX
5
69e
100
AcDbEntity
8
3
100
AcDbVertex
100
AcDb2dVertex
62
5
10
95.720307
20
70.000000
0
SEQEND
5
69f
100
AcDbEntity
8
3
0
POLYLINE
5
6a0
100
AcDbEntity
8
3
6
CONTINUOUS
62
5
100
AcDb2dPolyline
66
1
10
0.0
20
0.0
30
0.0
70
0
0
VERTEX
5
6a1
100
AcDbEntity
8
3
100
AcDbVertex
100
AcDb2dVertex
62
5
10
116.570307
20
70.000000
0
VERTEX
5
6a2
100
AcDbEntity
8
3
100
AcDbVertex
100
AcDb2dVertex
62
5
10
137.420307
20
70.000000
0
VERTEX
5
6a3
100
AcDbEntity
8
3
100
AcDbVertex
100
AcDb2dVertex
62
5
10
131.420307
20
69.000000
0
VERTEX
5
6a4
100
AcDbEntity
8
3
100
AcDbVertex
100
AcDb2dVertex
62
5
10
131.420307
20
71.000000
0
VERTEX
5
6a5
100
AcDbEntity
8
3
100
AcDbVertex
100
AcDb2dVertex
62
5
10
137.420307
20
70.000000
0
VERTEX
5
6a6
100
AcDbEntity
8
3
100
AcDbVertex
100
AcDb2dVertex
62
5
10
131.420307
20
69.500000
0
VERTEX
5
6a7
100
AcDbEntity
8
3
100
AcDbVertex
100
AcDb2dVertex
62
5
10
131.420307
20
70.500000
0
VERTEX
5
6a8
100
AcDbEntity
8
3
100
AcDbVertex
100
AcDb2dVertex
62
5
10
137.420307
20
70.000000
0
SEQEND
5
6a9
100
AcDbEntity
8
3
0
POLYLINE
5
6aa
100
AcDbEntity
8
1
6
CONTINUOUS
62
5
100
AcDb2dPolyline
66
1
10
0.0
20
0.0
30
0.0
70
0
0
VERTEX
5
6ab
100
AcDbEntity
8
1
100
AcDbVertex
100
AcDb2dVertex
62
5
10
147.500000
20
28.250000
0
VERTEX
5
6ac
100
AcDbEntity
8
1
100
AcDbVertex
100
AcDb2dVertex
62
5
10
149.062500
20
35.750000
0
VERTEX
5
6ad
100
AcDbEntity
8
1
100
AcDbVertex
100
AcDb2dVertex
62
5
10
150.625000
20
28.250000
0
SEQEND
5
6ae
100
AcDbEntity
8
1
0
LINE
5
6af
100
AcDbEntity
8
1
100
AcDbLine
6
CONTINUOUS
62
5
10
148.125000
20
30.750000
11
150.000000
21
30.750000
0
POLYLINE
5
6b0
100
AcDbEntity
8
1
6
CONTINUOUS
62
5
100
AcDb2dPolyline
66
1
10
0.0
20
0.0
30
0.0
70
1
0
VERTEX
5
6b1
100
AcDbEntity
8
1
100
AcDbVertex
100
AcDb2dVertex
62
5
10
280.000000
20
20.000000
0
VERTEX
5
6b2
100
AcDbEntity
8
1
100
AcDbVertex
100
AcDb2dVertex
62
5
10
280.000000
20
44.000000
0
VERTEX
5
6b3
100
AcDbEntity
8
1
100
AcDbVertex
100
AcDb2dVertex
62
5
10
40.000000
20
44.000000
0
VERTEX
5
6b4
100
AcDbEntity
8
1
100
AcDbVertex
100
AcDb2dVertex
62
5
10
40.000000
20
20.000000
0
VERTEX
5
6b5
100
AcDbEntity
8
1
100
AcDbVertex
100
AcDb2dVertex
62
5
10
280.000000
20
20.000000
0
SEQEND
5
6b6
100
AcDbEntity
8
1
0
LINE
5
6b7
100
AcDbEntity
8
1
100
AcDbLine
6
CONTINUOUS
62
5
10
40.000000
20
340.000000
11
40.000000
21
308.000000
0
LINE
5
6b8
100
AcDbEntity
8
1
100
AcDbLine
6
CONTINUOUS
62
5
10
0.000000
20
308.000000
11
320.000000
21
308.000000
0
ARC
5
6b9
100
AcDbEntity
8
3
100
AcDbCircle
6
CONTINUOUS
62
5
10
217.420307
20
158.455477
40
1.000000
100
AcDbArc
50
0.000000
51
88.999999
0
LINE
5
6ba
100
AcDbEntity
8
3
100
AcDbLine
6
CONTINUOUS
62
5
10
211.848244
20
159.552890
11
217.437760
21
159.455325
0
ARC
5
6bb
100
AcDbEntity
8
3
100
AcDbCircle
6
CONTINUOUS
62
5
10
198.920307
20
136.250000
40
1.000000
100
AcDbArc
50
-179.999998
51
-89.999999
0
LINE
5
6bc
100
AcDbEntity
8
3
100
AcDbLine
6
CONTINUOUS
62
5
10
197.920307
20
136.250000
11
197.920307
21
145.500000
0
ARC
5
6bd
100
AcDbEntity
8
3
100
AcDbCircle
6
CONTINUOUS
62
5
10
198.920307
20
145.500000
40
1.000000
100
AcDbArc
50
89.999999
51
-179.999998
0
LINE
5
6be
100
AcDbEntity
8
3
100
AcDbLine
6
CONTINUOUS
62
5
10
198.920307
20
146.500000
11
199.420307
21
146.500000
0
ARC
5
6bf
100
AcDbEntity
8
3
100
AcDbCircle
6
CONTINUOUS
62
5
10
199.420307
20
147.500000
40
1.000000
100
AcDbArc
50
-89.999999
51
89.999999
0
LINE
5
6c0
100
AcDbEntity
8
3
100
AcDbLine
6
CONTINUOUS
62
5
10
199.420307
20
148.500000
11
198.920307
21
148.500000
0
ARC
5
6c1
100
AcDbEntity
8
3
100
AcDbCircle
6
CONTINUOUS
62
5
10
198.920307
20
149.500000
40
1.000000
100
AcDbArc
50
179.999998
51
-89.999999
0
LINE
5
6c2
100
AcDbEntity
8
3
100
AcDbLine
6
CONTINUOUS
62
5
10
197.920307
20
149.500000
11
197.920307
21
158.750000
0
ARC
5
6c3
100
AcDbEntity
8
3
100
AcDbCircle
6
CONTINUOUS
62
5
10
198.920307
20
158.750000
40
1.000000
100
AcDbArc
50
89.999999
51
179.999998
0
LINE
5
6c4
100
AcDbEntity
8
3
100
AcDbLine
6
CONTINUOUS
62
5
10
198.920307
20
159.750000
11
203.820307
21
159.750000
0
LINE
5
6c5
100
AcDbEntity
8
3
100
AcDbLine
6
CONTINUOUS
62
5
10
203.420307
20
135.250000
11
198.920307
21
135.250000
0
LINE
5
6c6
100
AcDbEntity
8
3
100
AcDbLine
6
CONTINUOUS
62
5
10
135.820307
20
165.000000
11
135.820307
21
135.000000
0
ARC
5
6c7
100
AcDbEntity
8
3
100
AcDbCircle
6
CONTINUOUS
62
5
10
133.070307
20
137.750000
40
2.500000
100
AcDbArc
50
-89.999999
51
0.000000
0
LINE
5
6c8
100
AcDbEntity
8
3
100
AcDbLine
6
CONTINUOUS
62
5
10
135.570307
20
137.750000
11
135.570307
21
157.250000
0
ARC
5
6c9
100
AcDbEntity
8
3
100
AcDbCircle
6
CONTINUOUS
62
5
10
133.070307
20
157.250000
40
2.500000
100
AcDbArc
50
0.000000
51
89.999999
0
LINE
5
6ca
100
AcDbEntity
8
3
100
AcDbLine
6
CONTINUOUS
62
5
10
133.070307
20
159.750000
11
131.570307
21
159.750000
0
ARC
5
6cb
100
AcDbEntity
8
3
100
AcDbCircle
6
CONTINUOUS
62
5
10
131.570307
20
160.750000
40
1.000000
100
AcDbArc
50
179.999998
51
-89.999999
0
ARC
5
6cc
100
AcDbEntity
8
3
100
AcDbCircle
6
CONTINUOUS
62
5
10
131.070307
20
148.000000
40
0.500000
100
AcDbArc
50
89.999999
51
179.999998
0
LINE
5
6cd
100
AcDbEntity
8
3
100
AcDbLine
6
CONTINUOUS
62
5
10
131.070307
20
148.500000
11
133.070307
21
148.500000
0
ARC
5
6ce
100
AcDbEntity
8
3
100
AcDbCircle
6
CONTINUOUS
62
5
10
133.070307
20
151.000000
40
2.500000
100
AcDbArc
50
-89.999999
51
0.000000
0
ARC
5
6cf
100
AcDbEntity
8
3
100
AcDbCircle
6
CONTINUOUS
62
5
10
131.570307
20
134.250000
40
1.000000
100
AcDbArc
50
89.999999
51
179.999998
0
LINE
5
6d0
100
AcDbEntity
8
3
100
AcDbLine
6
CONTINUOUS
62
5
10
131.570307
20
135.250000
11
133.070307
21
135.250000
0
ARC
5
6d1
100
AcDbEntity
8
1
100
AcDbCircle
6
CONTINUOUS
62
5
10
116.570307
20
160.600003
40
2.700000
100
AcDbArc
50
-0.000000
51
-179.999998
0
POLYLINE
5
6d2
100
AcDbEntity
8
1
6
CONTINUOUS
62
5
100
AcDb2dPolyline
66
1
10
0.0
20
0.0
30
0.0
70
0
0
VERTEX
5
6d3
100
AcDbEntity
8
1
100
AcDbVertex
100
AcDb2dVertex
62
5
10
113.870307
20
160.600003
0
VERTEX
5
6d4
100
AcDbEntity
8
1
100
AcDbVertex
100
AcDb2dVertex
62
5
10
113.870307
20
157.900003
0
VERTEX
5
6d5
100
AcDbEntity
8
1
100
AcDbVertex
100
AcDb2dVertex
62
5
10
119.270307
20
157.900003
0
VERTEX
5
6d6
100
AcDbEntity
8
1
100
AcDbVertex
100
AcDb2dVertex
62
5
10
119.270307
20
160.600003
0
SEQEND
5
6d7
100
AcDbEntity
8
1
0
LINE
5
6d8
100
AcDbEntity
8
3
100
AcDbLine
6
CONTINUOUS
62
5
10
97.320307
20
165.000000
11
97.320307
21
135.000000
0
ARC
5
6d9
100
AcDbEntity
8
3
100
AcDbCircle
6
CONTINUOUS
62
5
10
100.070307
20
137.750000
40
2.500000
100
AcDbArc
50
179.999998
51
-89.999999
0
LINE
5
6da
100
AcDbEntity
8
3
100
AcDbLine
6
CONTINUOUS
62
5
10
97.570307
20
137.750000
11
97.570307
21
157.250000
0
ARC
5
6db
100
AcDbEntity
8
3
100
AcDbCircle
6
CONTINUOUS
62
5
10
100.070307
20
157.250000
40
2.500000
100
AcDbArc
50
89.999999
51
179.999998
0
LINE
5
6dc
100
AcDbEntity
8
3
100
AcDbLine
6
CONTINUOUS
62
5
10
100.070307
20
159.750000
11
101.570307
21
159.750000
0
ARC
5
6dd
100
AcDbEntity
8
3
100
AcDbCircle
6
CONTINUOUS
62
5
10
101.570307
20
160.750000
40
1.000000
100
AcDbArc
50
-89.999999
51
0.000000
0
ARC
5
6de
100
AcDbEntity
8
3
100
AcDbCircle
6
CONTINUOUS
62
5
10
101.570307
20
134.250000
40
1.000000
100
AcDbArc
50
0.000000
51
89.999999
0
LINE
5
6df
100
AcDbEntity
8
3
100
AcDbLine
6
CONTINUOUS
62
5
10
101.570307
20
135.250000
11
100.070307
21
135.250000
0
ARC
5
6e0
100
AcDbEntity
8
3
100
AcDbCircle
6
CONTINUOUS
62
5
10
113.370307
20
157.400003
40
1.500000
100
AcDbArc
50
179.999998
51
-89.999999
0
POLYLINE
5
6e1
100
AcDbEntity
8
3
6
CONTINUOUS
62
5
100
AcDb2dPolyline
66
1
10
0.0
20
0.0
30
0.0
70
0
0
VERTEX
5
6e2
100
AcDbEntity
8
3
100
AcDbVertex
100
AcDb2dVertex
62
5
10
113.370307
20
155.900003
0
VERTEX
5
6e3
100
AcDbEntity
8
3
100
AcDbVertex
100
AcDb2dVertex
62
5
10
113.370307
20
155.900003
0
VERTEX
5
6e4
100
AcDbEntity
8
3
100
AcDbVertex
100
AcDb2dVertex
62
5
10
119.770307
20
155.900003
0
SEQEND
5
6e5
100
AcDbEntity
8
3
0
ARC
5
6e6
100
AcDbEntity
8
3
100
AcDbCircle
6
CONTINUOUS
62
5
10
119.770307
20
157.400003
40
1.500000
100
AcDbArc
50
-89.999999
51
0.000000
0
LINE
5
6e7
100
AcDbEntity
8
3
100
AcDbLine
6
CONTINUOUS
62
5
10
121.270307
20
157.400003
11
121.270307
21
160.600003
0
ARC
5
6e8
100
AcDbEntity
8
3
100
AcDbCircle
6
CONTINUOUS
62
5
10
116.570307
20
160.600003
40
4.700000
100
AcDbArc
50
0.000000
51
89.999999
0
ARC
5
6e9
100
AcDbEntity
8
3
100
AcDbCircle
6
CONTINUOUS
62
5
10
116.570307
20
160.600003
40
4.700000
100
AcDbArc
50
89.999999
51
179.999998
0
LINE
5
6ea
100
AcDbEntity
8
3
100
AcDbLine
6
CONTINUOUS
62
5
10
111.870307
20
160.600003
11
111.870307
21
157.400003
0
LINE
5
6eb
100
AcDbEntity
8
1
100
AcDbLine
6
CONTINUOUS
62
5
10
97.270307
20
205.000000
11
68.720307
21
205.000000
0
LINE
5
6ec
100
AcDbEntity
8
1
100
AcDbLine
6
CONTINUOUS
62
5
10
97.270307
20
95.000000
11
68.720307
21
95.000000
0
POLYLINE
5
6ed
100
AcDbEntity
8
1
6
CONTINUOUS
62
5
100
AcDb2dPolyline
66
1
10
0.0
20
0.0
30
0.0
70
0
0
VERTEX
5
6ee
100
AcDbEntity
8
1
100
AcDbVertex
100
AcDb2dVertex
62
5
10
70.720307
20
150.000000
0
VERTEX
5
6ef
100
AcDbEntity
8
1
100
AcDbVertex
100
AcDb2dVertex
62
5
10
70.720307
20
95.000000
0
VERTEX
5
6f0
100
AcDbEntity
8
1
100
AcDbVertex
100
AcDb2dVertex
62
5
10
69.720307
20
101.000000
0
VERTEX
5
6f1
100
AcDbEntity
8
1
100
AcDbVertex
100
AcDb2dVertex
62
5
10
71.720307
20
101.000000
0
VERTEX
5
6f2
100
AcDbEntity
8
1
100
AcDbVertex
100
AcDb2dVertex
62
5
10
70.720307
20
95.000000
0
VERTEX
5
6f3
100
AcDbEntity
8
1
100
AcDbVertex
100
AcDb2dVertex
62
5
10
70.220307
20
101.000000
0
VERTEX
5
6f4
100
AcDbEntity
8
1
100
AcDbVertex
100
AcDb2dVertex
62
5
10
71.220307
20
101.000000
0
VERTEX
5
6f5
100
AcDbEntity
8
1
100
AcDbVertex
100
AcDb2dVertex
62
5
10
70.720307
20
95.000000
0
SEQEND
5
6f6
100
AcDbEntity
8
1
0
POLYLINE
5
6f7
100
AcDbEntity
8
1
6
CONTINUOUS
62
5
100
AcDb2dPolyline
66
1
10
0.0
20
0.0
30
0.0
70
0
0
VERTEX
5
6f8
100
AcDbEntity
8
1
100
AcDbVertex
100
AcDb2dVertex
62
5
10
70.720307
20
150.000000
0
VERTEX
5
6f9
100
AcDbEntity
8
1
100
AcDbVertex
100
AcDb2dVertex
62
5
10
70.720307
20
205.000000
0
VERTEX
5
6fa
100
AcDbEntity
8
1
100
AcDbVertex
100
AcDb2dVertex
62
5
10
71.720307
20
199.000000
0
VERTEX
5
6fb
100
AcDbEntity
8
1
100
AcDbVertex
100
AcDb2dVertex
62
5
10
69.720307
20
199.000000
0
VERTEX
5
6fc
100
AcDbEntity
8
1
100
AcDbVertex
100
AcDb2dVertex
62
5
10
70.720307
20
205.000000
0
VERTEX
5
6fd
100
AcDbEntity
8
1
100
AcDbVertex
100
AcDb2dVertex
62
5
10
71.220307
20
199.000000
0
VERTEX
5
6fe
100
AcDbEntity
8
1
100
AcDbVertex
100
AcDb2dVertex
62
5
10
70.220307
20
199.000000
0
VERTEX
5
6ff
100
AcDbEntity
8
1
100
AcDbVertex
100
AcDb2dVertex
62
5
10
70.720307
20
205.000000
0
SEQEND
5
700
100
AcDbEntity
8
1
0
LINE
5
701
100
AcDbEntity
8
3
100
AcDbLine
6
CONTINUOUS
62
5
10
200.420307
20
203.500000
11
200.420307
21
68.000000
0
LINE
5
702
100
AcDbEntity
8
3
100
AcDbLine
6
CONTINUOUS
62
5
10
221.020307
20
115.250000
11
221.020307
21
68.000000
0
POLYLINE
5
703
100
AcDbEntity
8
3
6
CONTINUOUS
62
5
100
AcDb2dPolyline
66
1
10
0.0
20
0.0
30
0.0
70
0
0
VERTEX
5
704
100
AcDbEntity
8
3
100
AcDbVertex
100
AcDb2dVertex
62
5
10
252.270307
20
70.000000
0
VERTEX
5
705
100
AcDbEntity
8
3
100
AcDbVertex
100
AcDb2dVertex
62
5
10
221.020307
20
70.000000
0
VERTEX
5
706
100
AcDbEntity
8
3
100
AcDbVertex
100
AcDb2dVertex
62
5
10
227.020307
20
71.000000
0
VERTEX
5
707
100
AcDbEntity
8
3
100
AcDbVertex
100
AcDb2dVertex
62
5
10
227.020307
20
69.000000
0
VERTEX
5
708
100
AcDbEntity
8
3
100
AcDbVertex
100
AcDb2dVertex
62
5
10
221.020307
20
70.000000
0
VERTEX
5
709
100
AcDbEntity
8
3
100
AcDbVertex
100
AcDb2dVertex
62
5
10
227.020307
20
70.500000
0
VERTEX
5
70a
100
AcDbEntity
8
3
100
AcDbVertex
100
AcDb2dVertex
62
5
10
227.020307
20
69.500000
0
VERTEX
5
70b
100
AcDbEntity
8
3
100
AcDbVertex
100
AcDb2dVertex
62
5
10
221.020307
20
70.000000
0
SEQEND
5
70c
100
AcDbEntity
8
3
0
LINE
5
70d
100
AcDbEntity
8
3
100
AcDbLine
6
CONTINUOUS
62
5
10
221.020307
20
70.000000
11
200.420307
21
70.000000
0
LINE
5
70e
100
AcDbEntity
8
3
100
AcDbLine
6
CONTINUOUS
62
5
10
195.420307
20
70.000000
11
200.420307
21
70.000000
0
POLYLINE
5
70f
100
AcDbEntity
8
3
6
CONTINUOUS
62
5
100
AcDb2dPolyline
66
1
10
0.0
20
0.0
30
0.0
70
0
0
VERTEX
5
710
100
AcDbEntity
8
3
100
AcDbVertex
100
AcDb2dVertex
62
5
10
201.420307
20
70.500000
0
VERTEX
5
711
100
AcDbEntity
8
3
100
AcDbVertex
100
AcDb2dVertex
62
5
10
201.420307
20
69.500000
0
VERTEX
5
712
100
AcDbEntity
8
3
100
AcDbVertex
100
AcDb2dVertex
62
5
10
200.920307
20
69.000000
0
VERTEX
5
713
100
AcDbEntity
8
3
100
AcDbVertex
100
AcDb2dVertex
62
5
10
199.920307
20
69.000000
0
VERTEX
5
714
100
AcDbEntity
8
3
100
AcDbVertex
100
AcDb2dVertex
62
5
10
199.420307
20
69.500000
0
VERTEX
5
715
100
AcDbEntity
8
3
100
AcDbVertex
100
AcDb2dVertex
62
5
10
199.420307
20
70.500000
0
VERTEX
5
716
100
AcDbEntity
8
3
100
AcDbVertex
100
AcDb2dVertex
62
5
10
199.920307
20
71.000000
0
VERTEX
5
717
100
AcDbEntity
8
3
100
AcDbVertex
100
AcDb2dVertex
62
5
10
200.920307
20
71.000000
0
VERTEX
5
718
100
AcDbEntity
8
3
100
AcDbVertex
100
AcDb2dVertex
62
5
10
201.420307
20
70.500000
0
VERTEX
5
719
100
AcDbEntity
8
3
100
AcDbVertex
100
AcDb2dVertex
62
5
10
199.420307
20
69.500000
0
SEQEND
5
71a
100
AcDbEntity
8
3
0
LINE
5
71b
100
AcDbEntity
8
3
100
AcDbLine
6
CONTINUOUS
62
5
10
199.420307
20
70.500000
11
201.420307
21
69.500000
0
LINE
5
71c
100
AcDbEntity
8
3
100
AcDbLine
6
CONTINUOUS
62
5
10
200.920307
20
69.000000
11
199.920307
21
71.000000
0
LINE
5
71d
100
AcDbEntity
8
3
100
AcDbLine
6
CONTINUOUS
62
5
10
200.920307
20
71.000000
11
199.920307
21
69.000000
0
ARC
5
71e
100
AcDbEntity
8
3
100
AcDbCircle
6
CONTINUOUS
62
5
10
297.720307
20
168.574113
40
78.300000
100
AcDbArc
50
-179.999998
51
-171.779855
0
LINE
5
71f
100
AcDbEntity
8
3
100
AcDbLine
6
CONTINUOUS
62
5
10
219.420307
20
168.574113
11
219.420307
21
173.000000
0
LINE
5
720
100
AcDbEntity
8
3
100
AcDbLine
6
CONTINUOUS
62
5
10
220.398505
20
156.098431
11
220.224759
21
157.379022
0
ARC
5
721
100
AcDbEntity
8
3
100
AcDbCircle
6
CONTINUOUS
62
5
10
217.420307
20
182.755477
40
1.000000
100
AcDbArc
50
0.000000
51
88.999999
0
LINE
5
722
100
AcDbEntity
8
3
100
AcDbLine
6
CONTINUOUS
62
5
10
218.420307
20
182.755477
11
218.420307
21
154.000000
0
ARC
5
723
100
AcDbEntity
8
3
100
AcDbCircle
6
CONTINUOUS
62
5
10
297.720307
20
168.574113
40
75.000000
100
AcDbArc
50
-179.959128
51
-171.779855
0
ARC
5
724
100
AcDbEntity
8
3
100
AcDbCircle
6
CONTINUOUS
62
5
10
145.995288
20
146.655755
40
78.300020
100
AcDbArc
50
0.000000
51
8.220141
0
POLYLINE
5
725
100
AcDbEntity
8
3
6
CONTINUOUS
62
5
100
AcDb2dPolyline
66
1
10
0.0
20
0.0
30
0.0
70
0
0
VERTEX
5
726
100
AcDbEntity
8
3
100
AcDbVertex
100
AcDb2dVertex
62
5
10
224.295307
20
146.655755
0
VERTEX
5
727
100
AcDbEntity
8
3
100
AcDbVertex
100
AcDb2dVertex
62
5
10
224.270308
20
130.809419
0
VERTEX
5
728
100
AcDbEntity
8
3
100
AcDbVertex
100
AcDb2dVertex
62
5
10
224.268038
20
130.783067
0
VERTEX
5
729
100
AcDbEntity
8
3
100
AcDbVertex
100
AcDb2dVertex
62
5
10
224.261239
20
130.756819
0
VERTEX
5
72a
100
AcDbEntity
8
3
100
AcDbVertex
100
AcDb2dVertex
62
5
10
224.249938
20
130.730778
0
VERTEX
5
72b
100
AcDbEntity
8
3
100
AcDbVertex
100
AcDb2dVertex
62
5
10
224.234178
20
130.705048
0
VERTEX
5
72c
100
AcDbEntity
8
3
100
AcDbVertex
100
AcDb2dVertex
62
5
10
224.214023
20
130.679730
0
VERTEX
5
72d
100
AcDbEntity
8
3
100
AcDbVertex
100
AcDb2dVertex
62
5
10
224.189551
20
130.654923
0
VERTEX
5
72e
100
AcDbEntity
8
3
100
AcDbVertex
100
AcDb2dVertex
62
5
10
224.160859
20
130.630726
0
VERTEX
5
72f
100
AcDbEntity
8
3
100
AcDbVertex
100
AcDb2dVertex
62
5
10
224.128060
20
130.607235
0
VERTEX
5
730
100
AcDbEntity
8
3
100
AcDbVertex
100
AcDb2dVertex
62
5
10
224.091285
20
130.584541
0
VERTEX
5
731
100
AcDbEntity
8
3
100
AcDbVertex
100
AcDb2dVertex
62
5
10
224.050677
20
130.562735
0
VERTEX
5
732
100
AcDbEntity
8
3
100
AcDbVertex
100
AcDb2dVertex
62
5
10
224.006398
20
130.541903
0
VERTEX
5
733
100
AcDbEntity
8
3
100
AcDbVertex
100
AcDb2dVertex
62
5
10
223.958621
20
130.522126
0
VERTEX
5
734
100
AcDbEntity
8
3
100
AcDbVertex
100
AcDb2dVertex
62
5
10
223.907537
20
130.503483
0
VERTEX
5
735
100
AcDbEntity
8
3
100
AcDbVertex
100
AcDb2dVertex
62
5
10
223.853345
20
130.486047
0
VERTEX
5
736
100
AcDbEntity
8
3
100
AcDbVertex
100
AcDb2dVertex
62
5
10
223.796260
20
130.469888
0
VERTEX
5
737
100
AcDbEntity
8
3
100
AcDbVertex
100
AcDb2dVertex
62
5
10
223.736508
20
130.455069
0
VERTEX
5
738
100
AcDbEntity
8
3
100
AcDbVertex
100
AcDb2dVertex
62
5
10
223.674324
20
130.441648
0
VERTEX
5
739
100
AcDbEntity
8
3
100
AcDbVertex
100
AcDb2dVertex
62
5
10
223.609954
20
130.429678
0
VERTEX
5
73a
100
AcDbEntity
8
3
100
AcDbVertex
100
AcDb2dVertex
62
5
10
223.543651
20
130.419207
0
VERTEX
5
73b
100
AcDbEntity
8
3
100
AcDbVertex
100
AcDb2dVertex
62
5
10
223.475677
20
130.410276
0
VERTEX
5
73c
100
AcDbEntity
8
3
100
AcDbVertex
100
AcDb2dVertex
62
5
10
223.406301
20
130.402921
0
VERTEX
5
73d
100
AcDbEntity
8
3
100
AcDbVertex
100
AcDb2dVertex
62
5
10
223.335796
20
130.397169
0
VERTEX
5
73e
100
AcDbEntity
8
3
100
AcDbVertex
100
AcDb2dVertex
62
5
10
223.264440
20
130.393045
0
VERTEX
5
73f
100
AcDbEntity
8
3
100
AcDbVertex
100
AcDb2dVertex
62
5
10
223.192516
20
130.390564
0
VERTEX
5
740
100
AcDbEntity
8
3
100
AcDbVertex
100
AcDb2dVertex
62
5
10
223.120307
20
130.389735
0
VERTEX
5
741
100
AcDbEntity
8
3
100
AcDbVertex
100
AcDb2dVertex
62
5
10
222.988447
20
130.388636
0
VERTEX
5
742
100
AcDbEntity
8
3
100
AcDbVertex
100
AcDb2dVertex
62
5
10
222.857107
20
130.385343
0
VERTEX
5
743
100
AcDbEntity
8
3
100
AcDbVertex
100
AcDb2dVertex
62
5
10
222.726807
20
130.379868
0
VERTEX
5
744
100
AcDbEntity
8
3
100
AcDbVertex
100
AcDb2dVertex
62
5
10
222.598059
20
130.372234
0
VERTEX
5
745
100
AcDbEntity
8
3
100
AcDbVertex
100
AcDb2dVertex
62
5
10
222.471372
20
130.362471
0
VERTEX
5
746
100
AcDbEntity
8
3
100
AcDbVertex
100
AcDb2dVertex
62
5
10
222.347246
20
130.350617
0
VERTEX
5
747
100
AcDbEntity
8
3
100
AcDbVertex
100
AcDb2dVertex
62
5
10
222.226171
20
130.336719
0
VERTEX
5
748
100
AcDbEntity
8
3
100
AcDbVertex
100
AcDb2dVertex
62
5
10
222.108625
20
130.320831
0
VERTEX
5
749
100
AcDbEntity
8
3
100
AcDbVertex
100
AcDb2dVertex
62
5
10
221.995071
20
130.303018
0
VERTEX
5
74a
100
AcDbEntity
8
3
100
AcDbVertex
100
AcDb2dVertex
62
5
10
221.885958
20
130.283347
0
VERTEX
5
74b
100
AcDbEntity
8
3
100
AcDbVertex
100
AcDb2dVertex
62
5
10
221.781717
20
130.261899
0
VERTEX
5
74c
100
AcDbEntity
8
3
100
AcDbVertex
100
AcDb2dVertex
62
5
10
221.682759
20
130.238756
0
VERTEX
5
74d
100
AcDbEntity
8
3
100
AcDbVertex
100
AcDb2dVertex
62
5
10
221.589473
20
130.214011
0
VERTEX
5
74e
100
AcDbEntity
8
3
100
AcDbVertex
100
AcDb2dVertex
62
5
10
221.502230
20
130.187761
0
VERTEX
5
74f
100
AcDbEntity
8
3
100
AcDbVertex
100
AcDb2dVertex
62
5
10
221.421372
20
130.160109
0
VERTEX
5
750
100
AcDbEntity
8
3
100
AcDbVertex
100
AcDb2dVertex
62
5
10
221.347219
20
130.131166
0
VERTEX
5
751
100
AcDbEntity
8
3
100
AcDbVertex
100
AcDb2dVertex
62
5
10
221.280064
20
130.101044
0
VERTEX
5
752
100
AcDbEntity
8
3
100
AcDbVertex
100
AcDb2dVertex
62
5
10
221.220171
20
130.069863
0
VERTEX
5
753
100
AcDbEntity
8
3
100
AcDbVertex
100
AcDb2dVertex
62
5
10
221.167777
20
130.037746
0
VERTEX
5
754
100
AcDbEntity
8
3
100
AcDbVertex
100
AcDb2dVertex
62
5
10
221.123089
20
130.004820
0
VERTEX
5
755
100
AcDbEntity
8
3
100
AcDbVertex
100
AcDb2dVertex
62
5
10
221.086283
20
129.971215
0
VERTEX
5
756
100
AcDbEntity
8
3
100
AcDbVertex
100
AcDb2dVertex
62
5
10
221.057504
20
129.937063
0
VERTEX
5
757
100
AcDbEntity
8
3
100
AcDbVertex
100
AcDb2dVertex
62
5
10
221.036867
20
129.902498
0
VERTEX
5
758
100
AcDbEntity
8
3
100
AcDbVertex
100
AcDb2dVertex
62
5
10
221.024451
20
129.867659
0
VERTEX
5
759
100
AcDbEntity
8
3
100
AcDbVertex
100
AcDb2dVertex
62
5
10
221.020308
20
129.832681
0
SEQEND
5
75a
100
AcDbEntity
8
3
0
LINE
5
75b
100
AcDbEntity
8
3
100
AcDbLine
6
CONTINUOUS
62
5
10
222.720307
20
173.000000
11
222.720326
21
168.520614
0
ARC
5
75c
100
AcDbEntity
8
3
100
AcDbCircle
6
CONTINUOUS
62
5
10
192.820307
20
183.950000
40
0.400000
100
AcDbArc
50
89.999999
51
179.999998
0
LINE
5
75d
100
AcDbEntity
8
3
100
AcDbLine
6
CONTINUOUS
62
5
10
192.420307
20
183.950000
11
192.420307
21
116.050000
0
ARC
5
75e
100
AcDbEntity
8
3
100
AcDbCircle
6
CONTINUOUS
62
5
10
192.820307
20
116.050000
40
0.400000
100
AcDbArc
50
179.999998
51
-89.999999
0
LINE
5
75f
100
AcDbEntity
8
3
100
AcDbLine
6
CONTINUOUS
62
5
10
192.820307
20
115.650000
11
198.020307
21
115.650000
0
LINE
5
760
100
AcDbEntity
8
3
100
AcDbLine
6
CONTINUOUS
62
5
10
198.020307
20
184.350000
11
192.820307
21
184.350000
0
ARC
5
761
100
AcDbEntity
8
3
100
AcDbCircle
6
CONTINUOUS
62
5
10
199.590698
20
186.558401
40
0.808735
100
AcDbArc
50
-162.286113
51
-88.352494
0
LINE
5
762
100
AcDbEntity
8
3
100
AcDbLine
6
CONTINUOUS
62
5
10
199.613950
20
185.750000
11
202.991880
21
185.750000
0
ARC
5
763
100
AcDbEntity
8
3
100
AcDbCircle
6
CONTINUOUS
62
5
10
202.991880
20
183.750000
40
2.000000
100
AcDbArc
50
45.000000
51
89.999999
0
LINE
5
764
100
AcDbEntity
8
3
100
AcDbLine
6
CONTINUOUS
62
5
10
204.406094
20
185.164214
11
211.234521
21
178.335787
0
ARC
5
765
100
AcDbEntity
8
3
100
AcDbCircle
6
CONTINUOUS
62
5
10
209.820307
20
176.921573
40
2.000000
100
AcDbArc
50
0.000000
51
45.000000
0
LINE
5
766
100
AcDbEntity
8
3
100
AcDbLine
6
CONTINUOUS
62
5
10
211.820307
20
176.921573
11
211.820307
21
123.078428
0
ARC
5
767
100
AcDbEntity
8
3
100
AcDbCircle
6
CONTINUOUS
62
5
10
209.820307
20
123.078428
40
2.000000
100
AcDbArc
50
-45.000000
51
0.000000
0
LINE
5
768
100
AcDbEntity
8
3
100
AcDbLine
6
CONTINUOUS
62
5
10
211.234521
20
121.664214
11
204.406094
21
114.835787
0
ARC
5
769
100
AcDbEntity
8
3
100
AcDbCircle
6
CONTINUOUS
62
5
10
202.991880
20
116.250000
40
2.000000
100
AcDbArc
50
-89.999999
51
-45.000000
0
LINE
5
76a
100
AcDbEntity
8
3
100
AcDbLine
6
CONTINUOUS
62
5
10
202.991880
20
114.250000
11
199.613950
21
114.250000
0
ARC
5
76b
100
AcDbEntity
8
3
100
AcDbCircle
6
CONTINUOUS
62
5
10
199.590698
20
113.441600
40
0.808735
100
AcDbArc
50
88.352494
51
162.286113
0
ARC
5
76c
100
AcDbEntity
8
3
100
AcDbCircle
6
CONTINUOUS
62
5
10
103.070307
20
183.850000
40
0.500000
100
AcDbArc
50
89.999999
51
179.999998
0
LINE
5
76d
100
AcDbEntity
8
3
100
AcDbLine
6
CONTINUOUS
62
5
10
102.570307
20
183.850000
11
102.570307
21
116.150000
0
ARC
5
76e
100
AcDbEntity
8
3
100
AcDbCircle
6
CONTINUOUS
62
5
10
103.070307
20
116.150000
40
0.500000
100
AcDbArc
50
179.999998
51
-89.999999
0
LINE
5
76f
100
AcDbEntity
8
3
100
AcDbLine
6
CONTINUOUS
62
5
10
103.070307
20
115.650000
11
130.070307
21
115.650000
0
ARC
5
770
100
AcDbEntity
8
3
100
AcDbCircle
6
CONTINUOUS
62
5
10
130.070307
20
116.150000
40
0.500000
100
AcDbArc
50
-89.999999
51
0.000000
0
LINE
5
771
100
AcDbEntity
8
3
100
AcDbLine
6
CONTINUOUS
62
5
10
130.570307
20
116.150000
11
130.570307
21
183.850000
0
ARC
5
772
100
AcDbEntity
8
3
100
AcDbCircle
6
CONTINUOUS
62
5
10
130.070307
20
183.850000
40
0.500000
100
AcDbArc
50
0.000000
51
89.999999
0
LINE
5
773
100
AcDbEntity
8
3
100
AcDbLine
6
CONTINUOUS
62
5
10
130.070307
20
184.350000
11
103.070307
21
184.350000
0
ARC
5
774
100
AcDbEntity
8
3
100
AcDbCircle
6
CONTINUOUS
62
5
10
201.192119
20
186.558401
40
0.808735
100
AcDbArc
50
-162.286113
51
-88.352494
0
POLYLINE
5
775
100
AcDbEntity
8
3
6
CONTINUOUS
62
5
100
AcDb2dPolyline
66
1
10
0.0
20
0.0
30
0.0
70
0
0
VERTEX
5
776
100
AcDbEntity
8
3
100
AcDbVertex
100
AcDb2dVertex
62
5
10
200.421728
20
186.312332
0
VERTEX
5
777
100
AcDbEntity
8
3
100
AcDbVertex
100
AcDb2dVertex
62
5
10
200.420307
20
205.000000
0
VERTEX
5
778
100
AcDbEntity
8
3
100
AcDbVertex
100
AcDb2dVertex
62
5
10
198.820307
20
205.000000
0
VERTEX
5
779
100
AcDbEntity
8
3
100
AcDbVertex
100
AcDb2dVertex
62
5
10
198.820307
20
165.000000
0
VERTEX
5
77a
100
AcDbEntity
8
3
100
AcDbVertex
100
AcDb2dVertex
62
5
10
202.820307
20
165.000000
0
SEQEND
5
77b
100
AcDbEntity
8
3
0
ARC
5
77c
100
AcDbEntity
8
3
100
AcDbCircle
6
CONTINUOUS
62
5
10
202.820307
20
164.000000
40
1.000000
100
AcDbArc
50
0.000000
51
89.999999
0
LINE
5
77d
100
AcDbEntity
8
3
100
AcDbLine
6
CONTINUOUS
62
5
10
203.820307
20
164.000000
11
203.820307
21
136.000000
0
ARC
5
77e
100
AcDbEntity
8
3
100
AcDbCircle
6
CONTINUOUS
62
5
10
202.820307
20
136.000000
40
1.000000
100
AcDbArc
50
-89.999999
51
0.000000
0
POLYLINE
5
77f
100
AcDbEntity
8
3
6
CONTINUOUS
62
5
100
AcDb2dPolyline
66
1
10
0.0
20
0.0
30
0.0
70
0
0
VERTEX
5
780
100
AcDbEntity
8
3
100
AcDbVertex
100
AcDb2dVertex
62
5
10
202.820307
20
135.000000
0
VERTEX
5
781
100
AcDbEntity
8
3
100
AcDbVertex
100
AcDb2dVertex
62
5
10
198.820307
20
135.000000
0
VERTEX
5
782
100
AcDbEntity
8
3
100
AcDbVertex
100
AcDb2dVertex
62
5
10
198.820307
20
95.000000
0
VERTEX
5
783
100
AcDbEntity
8
3
100
AcDbVertex
100
AcDb2dVertex
62
5
10
200.420307
20
95.000000
0
VERTEX
5
784
100
AcDbEntity
8
3
100
AcDbVertex
100
AcDb2dVertex
62
5
10
200.420307
20
113.687669
0
SEQEND
5
785
100
AcDbEntity
8
3
0
ARC
5
786
100
AcDbEntity
8
3
100
AcDbCircle
6
CONTINUOUS
62
5
10
201.193683
20
113.437441
40
0.812849
100
AcDbArc
50
88.471089
51
162.070842
0
ARC
5
787
100
AcDbEntity
8
3
100
AcDbCircle
6
CONTINUOUS
62
5
10
126.920307
20
204.000000
40
1.000000
100
AcDbArc
50
89.999999
51
-179.999998
0
POLYLINE
5
788
100
AcDbEntity
8
3
6
CONTINUOUS
62
5
100
AcDb2dPolyline
66
1
10
0.0
20
0.0
30
0.0
70
0
0
VERTEX
5
789
100
AcDbEntity
8
3
100
AcDbVertex
100
AcDb2dVertex
62
5
10
125.920307
20
204.000000
0
VERTEX
5
78a
100
AcDbEntity
8
3
100
AcDbVertex
100
AcDb2dVertex
62
5
10
125.920307
20
203.650000
0
VERTEX
5
78b
100
AcDbEntity
8
3
100
AcDbVertex
100
AcDb2dVertex
62
5
10
107.220307
20
203.650000
0
VERTEX
5
78c
100
AcDbEntity
8
3
100
AcDbVertex
100
AcDb2dVertex
62
5
10
107.220307
20
204.000000
0
SEQEND
5
78d
100
AcDbEntity
8
3
0
ARC
5
78e
100
AcDbEntity
8
3
100
AcDbCircle
6
CONTINUOUS
62
5
10
106.220307
20
204.000000
40
1.000000
100
AcDbArc
50
-0.000000
51
89.999999
0
POLYLINE
5
78f
100
AcDbEntity
8
3
6
CONTINUOUS
62
5
100
AcDb2dPolyline
66
1
10
0.0
20
0.0
30
0.0
70
0
0
VERTEX
5
790
100
AcDbEntity
8
3
100
AcDbVertex
100
AcDb2dVertex
62
5
10
106.220307
20
205.000000
0
VERTEX
5
791
100
AcDbEntity
8
3
100
AcDbVertex
100
AcDb2dVertex
62
5
10
98.770307
20
205.000000
0
VERTEX
5
792
100
AcDbEntity
8
3
100
AcDbVertex
100
AcDb2dVertex
62
5
10
98.270307
20
204.500000
0
VERTEX
5
793
100
AcDbEntity
8
3
100
AcDbVertex
100
AcDb2dVertex
62
5
10
98.270307
20
201.714143
0
SEQEND
5
794
100
AcDbEntity
8
3
0
ARC
5
795
100
AcDbEntity
8
3
100
AcDbCircle
6
CONTINUOUS
62
5
10
97.570307
20
201.000000
40
1.000000
100
AcDbArc
50
0.000000
51
45.572996
0
POLYLINE
5
796
100
AcDbEntity
8
3
6
CONTINUOUS
62
5
100
AcDb2dPolyline
66
1
10
0.0
20
0.0
30
0.0
70
0
0
VERTEX
5
797
100
AcDbEntity
8
3
100
AcDbVertex
100
AcDb2dVertex
62
5
10
98.570307
20
201.000000
0
VERTEX
5
798
100
AcDbEntity
8
3
100
AcDbVertex
100
AcDb2dVertex
62
5
10
98.570307
20
191.750000
0
VERTEX
5
799
100
AcDbEntity
8
3
100
AcDbVertex
100
AcDb2dVertex
62
5
10
97.737427
20
186.752722
0
SEQEND
5
79a
100
AcDbEntity
8
3
0
ARC
5
79b
100
AcDbEntity
8
3
100
AcDbCircle
6
CONTINUOUS
62
5
10
96.553756
20
186.949998
40
1.199998
100
AcDbArc
50
-90.000032
51
-9.462211
0
POLYLINE
5
79c
100
AcDbEntity
8
3
6
CONTINUOUS
62
5
100
AcDb2dPolyline
66
1
10
0.0
20
0.0
30
0.0
70
0
0
VERTEX
5
79d
100
AcDbEntity
8
3
100
AcDbVertex
100
AcDb2dVertex
62
5
10
96.553755
20
185.750000
0
VERTEX
5
79e
100
AcDbEntity
8
3
100
AcDbVertex
100
AcDb2dVertex
62
5
10
95.720307
20
185.750000
0
VERTEX
5
79f
100
AcDbEntity
8
3
100
AcDbVertex
100
AcDb2dVertex
62
5
10
95.720307
20
114.250000
0
VERTEX
5
7a0
100
AcDbEntity
8
3
100
AcDbVertex
100
AcDb2dVertex
62
5
10
96.553755
20
114.250000
0
SEQEND
5
7a1
100
AcDbEntity
8
3
0
ARC
5
7a2
100
AcDbEntity
8
3
100
AcDbCircle
6
CONTINUOUS
62
5
10
96.553755
20
113.050000
40
1.200000
100
AcDbArc
50
9.462322
51
89.999999
0
POLYLINE
5
7a3
100
AcDbEntity
8
3
6
CONTINUOUS
62
5
100
AcDb2dPolyline
66
1
10
0.0
20
0.0
30
0.0
70
0
0
VERTEX
5
7a4
100
AcDbEntity
8
3
100
AcDbVertex
100
AcDb2dVertex
62
5
10
97.737428
20
113.247279
0
VERTEX
5
7a5
100
AcDbEntity
8
3
100
AcDbVertex
100
AcDb2dVertex
62
5
10
98.570307
20
108.250000
0
VERTEX
5
7a6
100
AcDbEntity
8
3
100
AcDbVertex
100
AcDb2dVertex
62
5
10
98.570307
20
99.000000
0
SEQEND
5
7a7
100
AcDbEntity
8
3
0
ARC
5
7a8
100
AcDbEntity
8
3
100
AcDbCircle
6
CONTINUOUS
62
5
10
97.570307
20
99.000000
40
1.000000
100
AcDbArc
50
-45.572996
51
0.000000
0
POLYLINE
5
7a9
100
AcDbEntity
8
3
6
CONTINUOUS
62
5
100
AcDb2dPolyline
66
1
10
0.0
20
0.0
30
0.0
70
0
0
VERTEX
5
7aa
100
AcDbEntity
8
3
100
AcDbVertex
100
AcDb2dVertex
62
5
10
98.270307
20
98.285857
0
VERTEX
5
7ab
100
AcDbEntity
8
3
100
AcDbVertex
100
AcDb2dVertex
62
5
10
98.270307
20
95.500000
0
VERTEX
5
7ac
100
AcDbEntity
8
3
100
AcDbVertex
100
AcDb2dVertex
62
5
10
98.770307
20
95.000000
0
VERTEX
5
7ad
100
AcDbEntity
8
3
100
AcDbVertex
100
AcDb2dVertex
62
5
10
106.220307
20
95.000000
0
SEQEND
5
7ae
100
AcDbEntity
8
3
0
ARC
5
7af
100
AcDbEntity
8
3
100
AcDbCircle
6
CONTINUOUS
62
5
10
106.220307
20
96.000000
40
1.000000
100
AcDbArc
50
-89.999999
51
0.000000
0
POLYLINE
5
7b0
100
AcDbEntity
8
3
6
CONTINUOUS
62
5
100
AcDb2dPolyline
66
1
10
0.0
20
0.0
30
0.0
70
0
0
VERTEX
5
7b1
100
AcDbEntity
8
3
100
AcDbVertex
100
AcDb2dVertex
62
5
10
107.220307
20
96.000000
0
VERTEX
5
7b2
100
AcDbEntity
8
3
100
AcDbVertex
100
AcDb2dVertex
62
5
10
107.220307
20
96.350000
0
VERTEX
5
7b3
100
AcDbEntity
8
3
100
AcDbVertex
100
AcDb2dVertex
62
5
10
125.920307
20
96.350000
0
VERTEX
5
7b4
100
AcDbEntity
8
3
100
AcDbVertex
100
AcDb2dVertex
62
5
10
125.920307
20
96.000000
0
SEQEND
5
7b5
100
AcDbEntity
8
3
0
ARC
5
7b6
100
AcDbEntity
8
3
100
AcDbCircle
6
CONTINUOUS
62
5
10
126.920307
20
96.000000
40
1.000000
100
AcDbArc
50
179.999998
51
-89.999999
0
POLYLINE
5
7b7
100
AcDbEntity
8
3
6
CONTINUOUS
62
5
100
AcDb2dPolyline
66
1
10
0.0
20
0.0
30
0.0
70
0
0
VERTEX
5
7b8
100
AcDbEntity
8
3
100
AcDbVertex
100
AcDb2dVertex
62
5
10
126.920307
20
95.000000
0
VERTEX
5
7b9
100
AcDbEntity
8
3
100
AcDbVertex
100
AcDb2dVertex
62
5
10
136.070307
20
95.000000
0
VERTEX
5
7ba
100
AcDbEntity
8
3
100
AcDbVertex
100
AcDb2dVertex
62
5
10
136.570307
20
95.500000
0
VERTEX
5
7bb
100
AcDbEntity
8
3
100
AcDbVertex
100
AcDb2dVertex
62
5
10
136.570307
20
100.200000
0
VERTEX
5
7bc
100
AcDbEntity
8
3
100
AcDbVertex
100
AcDb2dVertex
62
5
10
136.070307
20
100.700000
0
VERTEX
5
7bd
100
AcDbEntity
8
3
100
AcDbVertex
100
AcDb2dVertex
62
5
10
135.570307
20
100.700000
0
SEQEND
5
7be
100
AcDbEntity
8
3
0
ARC
5
7bf
100
AcDbEntity
8
3
100
AcDbCircle
6
CONTINUOUS
62
5
10
135.570307
20
101.700000
40
1.000000
100
AcDbArc
50
179.999998
51
-89.999999
0
POLYLINE
5
7c0
100
AcDbEntity
8
3
6
CONTINUOUS
62
5
100
AcDb2dPolyline
66
1
10
0.0
20
0.0
30
0.0
70
0
0
VERTEX
5
7c1
100
AcDbEntity
8
3
100
AcDbVertex
100
AcDb2dVertex
62
5
10
134.570307
20
101.700000
0
VERTEX
5
7c2
100
AcDbEntity
8
3
100
AcDbVertex
100
AcDb2dVertex
62
5
10
134.570307
20
108.250000
0
VERTEX
5
7c3
100
AcDbEntity
8
3
100
AcDbVertex
100
AcDb2dVertex
62
5
10
135.403187
20
113.247279
0
SEQEND
5
7c4
100
AcDbEntity
8
3
0
ARC
5
7c5
100
AcDbEntity
8
3
100
AcDbCircle
6
CONTINUOUS
62
5
10
136.586860
20
113.049999
40
1.200001
100
AcDbArc
50
90.000007
51
170.537643
0
POLYLINE
5
7c6
100
AcDbEntity
8
3
6
CONTINUOUS
62
5
100
AcDb2dPolyline
66
1
10
0.0
20
0.0
30
0.0
70
0
0
VERTEX
5
7c7
100
AcDbEntity
8
3
100
AcDbVertex
100
AcDb2dVertex
62
5
10
136.586860
20
114.250000
0
VERTEX
5
7c8
100
AcDbEntity
8
3
100
AcDbVertex
100
AcDb2dVertex
62
5
10
137.420307
20
114.250000
0
VERTEX
5
7c9
100
AcDbEntity
8
3
100
AcDbVertex
100
AcDb2dVertex
62
5
10
137.420307
20
185.750000
0
VERTEX
5
7ca
100
AcDbEntity
8
3
100
AcDbVertex
100
AcDb2dVertex
62
5
10
136.586860
20
185.750000
0
SEQEND
5
7cb
100
AcDbEntity
8
3
0
ARC
5
7cc
100
AcDbEntity
8
3
100
AcDbCircle
6
CONTINUOUS
62
5
10
136.586860
20
186.950000
40
1.200000
100
AcDbArc
50
-170.537698
51
-90.000008
0
POLYLINE
5
7cd
100
AcDbEntity
8
3
6
CONTINUOUS
62
5
100
AcDb2dPolyline
66
1
10
0.0
20
0.0
30
0.0
70
0
0
VERTEX
5
7ce
100
AcDbEntity
8
3
100
AcDbVertex
100
AcDb2dVertex
62
5
10
135.403187
20
186.752722
0
VERTEX
5
7cf
100
AcDbEntity
8
3
100
AcDbVertex
100
AcDb2dVertex
62
5
10
134.570307
20
191.750000
0
VERTEX
5
7d0
100
AcDbEntity
8
3
100
AcDbVertex
100
AcDb2dVertex
62
5
10
134.570307
20
198.300000
0
SEQEND
5
7d1
100
AcDbEntity
8
3
0
ARC
5
7d2
100
AcDbEntity
8
3
100
AcDbCircle
6
CONTINUOUS
62
5
10
135.570307
20
198.300000
40
1.000000
100
AcDbArc
50
89.999999
51
179.999998
0
POLYLINE
5
7d3
100
AcDbEntity
8
3
6
CONTINUOUS
62
5
100
AcDb2dPolyline
66
1
10
0.0
20
0.0
30
0.0
70
0
0
VERTEX
5
7d4
100
AcDbEntity
8
3
100
AcDbVertex
100
AcDb2dVertex
62
5
10
135.570307
20
199.300000
0
VERTEX
5
7d5
100
AcDbEntity
8
3
100
AcDbVertex
100
AcDb2dVertex
62
5
10
136.070307
20
199.300000
0
VERTEX
5
7d6
100
AcDbEntity
8
3
100
AcDbVertex
100
AcDb2dVertex
62
5
10
136.570307
20
199.800000
0
VERTEX
5
7d7
100
AcDbEntity
8
3
100
AcDbVertex
100
AcDb2dVertex
62
5
10
136.570307
20
204.500000
0
VERTEX
5
7d8
100
AcDbEntity
8
3
100
AcDbVertex
100
AcDb2dVertex
62
5
10
136.070307
20
205.000000
0
VERTEX
5
7d9
100
AcDbEntity
8
3
100
AcDbVertex
100
AcDb2dVertex
62
5
10
126.920307
20
205.000000
0
SEQEND
5
7da
100
AcDbEntity
8
3
0
POLYLINE
5
7db
100
AcDbEntity
8
1
6
CONTINUOUS
62
5
100
AcDb2dPolyline
66
1
10
0.0
20
0.0
30
0.0
70
1
0
VERTEX
5
7dc
100
AcDbEntity
8
1
100
AcDbVertex
100
AcDb2dVertex
62
5
10
0.000000
20
0.000000
0
VERTEX
5
7dd
100
AcDbEntity
8
1
100
AcDbVertex
100
AcDb2dVertex
62
5
10
0.000000
20
340.000000
0
VERTEX
5
7de
100
AcDbEntity
8
1
100
AcDbVertex
100
AcDb2dVertex
62
5
10
320.000000
20
340.000000
0
VERTEX
5
7df
100
AcDbEntity
8
1
100
AcDbVertex
100
AcDb2dVertex
62
5
10
320.000000
20
0.000000
0
VERTEX
5
7e0
100
AcDbEntity
8
1
100
AcDbVertex
100
AcDb2dVertex
62
5
10
0.000000
20
0.000000
0
SEQEND
5
7e1
100
AcDbEntity
8
1
0
ENDSEC
0
SECTION
2
OBJECTS
0
DICTIONARY
5
7e2
100
AcDbDictionary
3
ACAD_GROUP
350
7e3
3
ACAD_MLINESTYLE
350
7e4
0
DICTIONARY
5
7e3
102
{ACAD_REACTORS
330
7e2
102
}
100
AcDbDictionary
0
DICTIONARY
5
7e4
102
{ACAD_REACTORS
330
7e2
102
}
100
AcDbDictionary
3
STANDARD
350
7e5
0
MLINESTYLE
5
7e5
102
{ACAD_REACTORS
330
7e4
102
}
100
AcDbMlineStyle
2
STANDARD
70
0
3

62
0
51
90.0
52
90.0
71
2
49
0.5
62
256
6
BYLAYER
49
-0.5
62
256
6
BYLAYER
0
ENDSEC
0
EOF
