0
SECTION
2
HEADER
9
$ACADVER
1
AC1012
9
$EXTMIN
10
-0.013701
20
-0.013701
30
0.0
9
$EXTMAX
10
12.606299
20
13.386299
30
0.0
9
$LIMMIN
10
-0.348005
20
-0.348005
9
$LIMMAX
10
320.199995
20
340.011995
9
$DIMSCALE
40
1.000000
9
$PDMODE
70
2
9
$PDSIZE
40
0.0
  9
$HANDSEED
  5
935
0
ENDSEC
0
SECTION
2
CLASSES
0
ENDSEC
0
SECTION
2
TABLES
0
TABLE
2
LTYPE
5
1e
100
AcDbSymbolTable
70
12
0
LTYPE
5
1f
100
AcDbSymbolTableRecord
100
AcDbLinetypeTableRecord
2
BYBLOCK
70
0
3

72
65
73
0
40
0.0
0
LTYPE
5
20
100
AcDbSymbolTableRecord
100
AcDbLinetypeTableRecord
2
BYLAYER
70
0
3

72
65
73
0
40
0.0
0
LTYPE
5
21
100
AcDbSymbolTableRecord
100
AcDbLinetypeTableRecord
2
CONTINUOUS
70
64
3
Solid line
72
65
73
0
40
0.0
0
LTYPE
5
22
100
AcDbSymbolTableRecord
100
AcDbLinetypeTableRecord
2
DASHED
70
64
3
__ __ __ __ __ __ __ __ __ __ __ __ __ __ __
72
65
73
2
40
0.75
49
0.5
74
0
49
-0.25
74
0
0
LTYPE
5
23
100
AcDbSymbolTableRecord
100
AcDbLinetypeTableRecord
2
DOT
70
64
3
...............................................
72
65
73
2
40
0.25
49
0.0
74
0
49
-0.25
74
0
0
LTYPE
5
24
100
AcDbSymbolTableRecord
100
AcDbLinetypeTableRecord
2
DASHDOT
70
64
3
__ . __ . __ . __ . __ . __ . __ . __ . __ . --
72
65
73
4
40
1.0
49
0.5
74
0
49
-0.25
74
0
49
0.0
74
0
49
-0.25
74
0
0
LTYPE
5
25
100
AcDbSymbolTableRecord
100
AcDbLinetypeTableRecord
2
CENTER
70
64
3
____ _ ____ _ ____ _ ____ _ ____ _ ____ _ ____
72
65
73
4
40
2.0
49
1.25
74
0
49
-0.25
74
0
49
0.25
74
0
49
-0.25
74
0
0
LTYPE
5
26
100
AcDbSymbolTableRecord
100
AcDbLinetypeTableRecord
2
PHANTOM
70
64
3
_____ _ _ _____ _ _ _____ _ _ _____ _ _ ____
72
65
73
6
40
2.5
49
1.25
74
0
49
-0.25
74
0
49
0.25
74
0
49
-0.25
74
0
49
0.25
74
0
49
-0.25
74
0
0
LTYPE
5
27
100
AcDbSymbolTableRecord
100
AcDbLinetypeTableRecord
2
HIDDEN
70
64
3
_ _ _ _ _ _ _ _ _ _ _ _ _ _ _ _ _ _ _ _ _ _ _
72
65
73
2
40
0.375
49
0.25
74
0
49
-0.125
74
0
0
LTYPE
5
28
100
AcDbSymbolTableRecord
100
AcDbLinetypeTableRecord
2
BORDER
70
64
3
__ __ . __ __ . __ __ . __ __ . __ __ . __ __
72
65
73
6
40
1.75
49
0.5
74
0
49
-0.25
74
0
49
0.5
74
0
49
-0.25
74
0
49
0.0
74
0
49
-0.25
74
0
0
LTYPE
5
29
100
AcDbSymbolTableRecord
100
AcDbLinetypeTableRecord
2
DIVIDE
70
64
3
__ . . __ . . __ . . __ . . __ . . __ . . __
72
65
73
6
40
1.25
49
0.5
74
0
49
-0.25
74
0
49
0.0
74
0
49
-0.25
74
0
49
0.0
74
0
49
-0.25
74
0
0
LTYPE
5
2a
100
AcDbSymbolTableRecord
100
AcDbLinetypeTableRecord
2
DOT2
70
64
3
...............................................
72
65
73
2
40
0.125
49
0.0
74
0
49
-0.125
74
0
0
ENDTAB
0
TABLE
2
STYLE
5
2b
100
AcDbSymbolTable
70
1
0
STYLE
5
2c
100
AcDbSymbolTableRecord
100
AcDbTextStyleTableRecord
2
STANDARD
70
64
40
0.0
41
1.0
50
0.0
71
0
42
5.0
3
txt
4
bigfont
0
ENDTAB
0
TABLE
2
LAYER
5
2d
100
AcDbSymbolTable
70
2
0
LAYER
5
2e
100
AcDbSymbolTableRecord
100
AcDbLayerTableRecord
2
0
70
0
62
7
6
CONTINUOUS
0
LAYER
5
2f
100
AcDbSymbolTableRecord
100
AcDbLayerTableRecord
2
1
70
0
62
7
6
CONTINUOUS
0
ENDTAB
0
TABLE
2
APPID
5
30
100
AcDbSymbolTable
70
1
0
APPID
5
31
100
AcDbSymbolTableRecord
100
AcDbRegAppTableRecord
2
ACAD
70
64
0
ENDTAB
0
TABLE
2
DIMSTYLE
5
32
100
AcDbSymbolTable
70
0
0
ENDTAB
0
TABLE
2
UCS
5
33
100
AcDbSymbolTable
70
0
0
ENDTAB
0
TABLE
2
VIEW
5
34
100
AcDbSymbolTable
70
0
0
ENDTAB
0
TABLE
2
VPORT
5
35
100
AcDbSymbolTable
70
0
0
ENDTAB
0
TABLE
2
BLOCK_RECORD
5
36
100
AcDbSymbolTable
70
0
0
BLOCK_RECORD
5
37
100
AcDbSymbolTableRecord
100
AcDbBlockTableRecord
2
*MODEL_SPACE
0
BLOCK_RECORD
5
38
100
AcDbSymbolTableRecord
100
AcDbBlockTableRecord
2
*PAPER_SPACE
0
BLOCK_RECORD
5
39
100
AcDbSymbolTableRecord
100
AcDbBlockTableRecord
2
OPEN
0
BLOCK_RECORD
5
3a
100
AcDbSymbolTableRecord
100
AcDbBlockTableRecord
2
HALF
0
BLOCK_RECORD
5
3b
100
AcDbSymbolTableRecord
100
AcDbBlockTableRecord
2
CLOSEDBLANK
0
BLOCK_RECORD
5
3c
100
AcDbSymbolTableRecord
100
AcDbBlockTableRecord
2
HALFCLOSE_R
0
BLOCK_RECORD
5
3d
100
AcDbSymbolTableRecord
100
AcDbBlockTableRecord
2
DOT
0
BLOCK_RECORD
5
3e
100
AcDbSymbolTableRecord
100
AcDbBlockTableRecord
2
HALFOPEN_R
0
BLOCK_RECORD
5
3f
100
AcDbSymbolTableRecord
100
AcDbBlockTableRecord
2
CLOSEDF
0
BLOCK_RECORD
5
40
100
AcDbSymbolTableRecord
100
AcDbBlockTableRecord
2
HALF_R
0
ENDTAB
0
ENDSEC
0
SECTION
2
BLOCKS
0
BLOCK
5
41
100
AcDbEntity
8
0
100
AcDbBlockBegin
2
*MODEL_SPACE
70
0
10
0.0
20
0.0
30
0.0
3
*MODEL_SPACE
1

0
ENDBLK
5
42
100
AcDbEntity
8
0
100
AcDbBlockEnd
0
BLOCK
5
43
100
AcDbEntity
67
1
8
0
100
AcDbBlockBegin
2
*PAPER_SPACE
70
0
10
0.0
20
0.0
30
0.0
3
*PAPER_SPACE
1

0
ENDBLK
5
44
100
AcDbEntity
67
1
8
0
100
AcDbBlockEnd
0
BLOCK
5
45
100
AcDbEntity
8
0
100
AcDbBlockBegin
2
OPEN
70
0
10
0.0
20
0.0
30
0.0
3
OPEN
1

0
LINE
5
46
100
AcDbEntity
8
0
6
BYBLOCK
62
0
100
AcDbLine
10
0.000000
20
0.000000
11
-1.000000
21
0.000000
0
LINE
5
47
100
AcDbEntity
8
0
6
BYBLOCK
62
0
100
AcDbLine
10
-1.000000
20
-0.166667
11
0.000000
21
0.000000
0
LINE
5
48
100
AcDbEntity
8
0
6
BYBLOCK
62
0
100
AcDbLine
10
-1.000000
20
0.166667
11
0.000000
21
0.000000
0
ENDBLK
5
49
100
AcDbEntity
8
0
100
AcDbBlockEnd
0
BLOCK
5
4a
100
AcDbEntity
8
0
100
AcDbBlockBegin
2
HALF
70
0
10
0.0
20
0.0
30
0.0
3
HALF
1

0
SOLID
5
4b
100
AcDbEntity
8
0
6
BYBLOCK
62
0
100
AcDbTrace
10
-1.000000
20
0.166667
11
-1.000000
21
-0.166667
12
0.000000
22
0.000000
13
0.000000
23
0.000000
0
ENDBLK
5
4c
100
AcDbEntity
8
0
100
AcDbBlockEnd
0
BLOCK
5
4d
100
AcDbEntity
8
0
100
AcDbBlockBegin
2
CLOSEDBLANK
70
0
10
0.0
20
0.0
30
0.0
3
CLOSEDBLANK
1

0
LINE
5
4e
100
AcDbEntity
8
0
6
BYBLOCK
62
0
100
AcDbLine
10
-1.000000
20
0.166667
11
-1.000000
21
-0.166667
0
LINE
5
4f
100
AcDbEntity
8
0
6
BYBLOCK
62
0
100
AcDbLine
10
0.000000
20
0.000000
11
-1.000000
21
-0.166667
0
LINE
5
50
100
AcDbEntity
8
0
6
BYBLOCK
62
0
100
AcDbLine
10
-1.000000
20
0.166667
11
0.000000
21
0.000000
0
ENDBLK
5
51
100
AcDbEntity
8
0
100
AcDbBlockEnd
0
BLOCK
5
52
100
AcDbEntity
8
0
100
AcDbBlockBegin
2
HALFCLOSE_R
70
0
10
0.0
20
0.0
30
0.0
3
HALFCLOSE_R
1

0
LINE
5
53
100
AcDbEntity
8
0
6
BYBLOCK
62
0
100
AcDbLine
10
-1.000000
20
-0.166667
11
-1.000000
21
0.000000
0
LINE
5
54
100
AcDbEntity
8
0
6
BYBLOCK
62
0
100
AcDbLine
10
-1.000000
20
-0.166667
11
0.000000
21
0.000000
0
LINE
5
55
100
AcDbEntity
8
0
6
BYBLOCK
62
0
100
AcDbLine
10
0.000000
20
0.000000
11
-1.000000
21
0.000000
0
ENDBLK
5
56
100
AcDbEntity
8
0
100
AcDbBlockEnd
0
BLOCK
5
57
100
AcDbEntity
8
0
100
AcDbBlockBegin
2
DOT
70
0
10
0.0
20
0.0
30
0.0
3
DOT
1

0
LINE
5
58
100
AcDbEntity
8
0
6
BYBLOCK
62
0
100
AcDbLine
10
0.000000
20
0.000000
11
-1.000000
21
0.000000
0
POLYLINE
5
59
100
AcDbEntity
8
0
6
BYBLOCK
62
0
100
AcDb2dPolyline
66
1
10
0.0
20
0.0
30
0.0
70
1
40
0.166667
41
0.166667
0
VERTEX
5
5a
100
AcDbEntity
8
0
100
AcDbVertex
100
AcDb2dVertex
62
10
10
-0.083333
20
0.000000
42
1.000000
0
VERTEX
5
5b
100
AcDbEntity
8
0
100
AcDbVertex
100
AcDb2dVertex
62
10
10
0.083333
20
0.000000
42
1.000000
0
SEQEND
5
5c
100
AcDbEntity
8
0
0
ENDBLK
5
5d
100
AcDbEntity
8
0
100
AcDbBlockEnd
0
BLOCK
5
5e
100
AcDbEntity
8
0
100
AcDbBlockBegin
2
HALFOPEN_R
70
0
10
0.0
20
0.0
30
0.0
3
HALFOPEN_R
1

0
LINE
5
5f
100
AcDbEntity
8
0
6
BYBLOCK
62
0
100
AcDbLine
10
-1.000000
20
-0.166667
11
0.000000
21
0.000000
0
LINE
5
60
100
AcDbEntity
8
0
6
BYBLOCK
62
0
100
AcDbLine
10
0.000000
20
0.000000
11
-1.000000
21
0.000000
0
ENDBLK
5
61
100
AcDbEntity
8
0
100
AcDbBlockEnd
0
BLOCK
5
62
100
AcDbEntity
8
0
100
AcDbBlockBegin
2
CLOSEDF
70
0
10
0.0
20
0.0
30
0.0
3
CLOSEDF
1

0
SOLID
5
63
100
AcDbEntity
8
0
6
BYBLOCK
62
0
100
AcDbTrace
10
-1.000000
20
0.166667
11
-1.000000
21
-0.166667
12
0.000000
22
0.000000
13
0.000000
23
0.000000
0
ENDBLK
5
64
100
AcDbEntity
8
0
100
AcDbBlockEnd
0
BLOCK
5
65
100
AcDbEntity
8
0
100
AcDbBlockBegin
2
HALF_R
70
0
10
0.0
20
0.0
30
0.0
3
HALF_R
1

0
SOLID
5
66
100
AcDbEntity
8
0
6
BYBLOCK
62
0
100
AcDbTrace
10
-1.000000
20
-0.166667
11
-1.000000
21
0.000000
12
0.000000
22
0.000000
13
0.000000
23
0.000000
0
ENDBLK
5
67
100
AcDbEntity
8
0
100
AcDbBlockEnd
0
ENDSEC
0
SECTION
2
ENTITIES
0
LINE
5
68
100
AcDbEntity
8
1
100
AcDbLine
6
CONTINUOUS
62
5
10
182.500000
20
329.000000
11
186.000000
21
329.000000
0
LINE
5
69
100
AcDbEntity
8
1
100
AcDbLine
6
CONTINUOUS
62
5
10
182.250000
20
325.875000
11
186.500000
21
325.875000
0
POLYLINE
5
6a
100
AcDbEntity
8
1
6
CONTINUOUS
62
5
100
AcDb2dPolyline
66
1
10
0.0
20
0.0
30
0.0
70
0
0
VERTEX
5
6b
100
AcDbEntity
8
1
100
AcDbVertex
100
AcDb2dVertex
62
5
10
183.500000
20
329.000000
0
VERTEX
5
6c
100
AcDbEntity
8
1
100
AcDbVertex
100
AcDb2dVertex
62
5
10
183.500000
20
324.625000
0
VERTEX
5
6d
100
AcDbEntity
8
1
100
AcDbVertex
100
AcDb2dVertex
62
5
10
183.250000
20
322.437500
0
VERTEX
5
6e
100
AcDbEntity
8
1
100
AcDbVertex
100
AcDb2dVertex
62
5
10
182.500000
20
320.562500
0
SEQEND
5
6f
100
AcDbEntity
8
1
0
LINE
5
70
100
AcDbEntity
8
1
100
AcDbLine
6
CONTINUOUS
62
5
10
185.000000
20
329.000000
11
185.000000
21
320.562500
0
POLYLINE
5
71
100
AcDbEntity
8
1
6
CONTINUOUS
62
5
100
AcDb2dPolyline
66
1
10
0.0
20
0.0
30
0.0
70
0
0
VERTEX
5
72
100
AcDbEntity
8
1
100
AcDbVertex
100
AcDb2dVertex
62
5
10
188.750000
20
329.312500
0
VERTEX
5
73
100
AcDbEntity
8
1
100
AcDbVertex
100
AcDb2dVertex
62
5
10
187.250000
20
327.750000
0
VERTEX
5
74
100
AcDbEntity
8
1
100
AcDbVertex
100
AcDb2dVertex
62
5
10
186.000000
20
326.812500
0
SEQEND
5
75
100
AcDbEntity
8
1
0
POLYLINE
5
76
100
AcDbEntity
8
1
6
CONTINUOUS
62
5
100
AcDb2dPolyline
66
1
10
0.0
20
0.0
30
0.0
70
0
0
VERTEX
5
77
100
AcDbEntity
8
1
100
AcDbVertex
100
AcDb2dVertex
62
5
10
189.000000
20
326.812500
0
VERTEX
5
78
100
AcDbEntity
8
1
100
AcDbVertex
100
AcDb2dVertex
62
5
10
188.000000
20
325.562500
0
VERTEX
5
79
100
AcDbEntity
8
1
100
AcDbVertex
100
AcDb2dVertex
62
5
10
187.250000
20
324.937500
0
VERTEX
5
7a
100
AcDbEntity
8
1
100
AcDbVertex
100
AcDb2dVertex
62
5
10
186.500000
20
324.312500
0
SEQEND
5
7b
100
AcDbEntity
8
1
0
POLYLINE
5
7c
100
AcDbEntity
8
1
6
CONTINUOUS
62
5
100
AcDb2dPolyline
66
1
10
0.0
20
0.0
30
0.0
70
0
0
VERTEX
5
7d
100
AcDbEntity
8
1
100
AcDbVertex
100
AcDb2dVertex
62
5
10
189.250000
20
324.000000
0
VERTEX
5
7e
100
AcDbEntity
8
1
100
AcDbVertex
100
AcDb2dVertex
62
5
10
188.500000
20
323.062500
0
VERTEX
5
7f
100
AcDbEntity
8
1
100
AcDbVertex
100
AcDb2dVertex
62
5
10
187.750000
20
322.125000
0
VERTEX
5
80
100
AcDbEntity
8
1
100
AcDbVertex
100
AcDb2dVertex
62
5
10
186.250000
20
320.875000
0
SEQEND
5
81
100
AcDbEntity
8
1
0
POLYLINE
5
82
100
AcDbEntity
8
1
6
CONTINUOUS
62
5
100
AcDb2dPolyline
66
1
10
0.0
20
0.0
30
0.0
70
0
0
VERTEX
5
83
100
AcDbEntity
8
1
100
AcDbVertex
100
AcDb2dVertex
62
5
10
175.500000
20
329.000000
0
VERTEX
5
84
100
AcDbEntity
8
1
100
AcDbVertex
100
AcDb2dVertex
62
5
10
175.500000
20
323.375000
0
VERTEX
5
85
100
AcDbEntity
8
1
100
AcDbVertex
100
AcDb2dVertex
62
5
10
175.000000
20
322.125000
0
VERTEX
5
86
100
AcDbEntity
8
1
100
AcDbVertex
100
AcDb2dVertex
62
5
10
174.500000
20
321.187500
0
SEQEND
5
87
100
AcDbEntity
8
1
0
POLYLINE
5
88
100
AcDbEntity
8
1
6
CONTINUOUS
62
5
100
AcDb2dPolyline
66
1
10
0.0
20
0.0
30
0.0
70
0
0
VERTEX
5
89
100
AcDbEntity
8
1
100
AcDbVertex
100
AcDb2dVertex
62
5
10
179.500000
20
321.500000
0
VERTEX
5
8a
100
AcDbEntity
8
1
100
AcDbVertex
100
AcDb2dVertex
62
5
10
180.500000
20
320.875000
0
VERTEX
5
8b
100
AcDbEntity
8
1
100
AcDbVertex
100
AcDb2dVertex
62
5
10
180.500000
20
329.000000
0
VERTEX
5
8c
100
AcDbEntity
8
1
100
AcDbVertex
100
AcDb2dVertex
62
5
10
175.500000
20
329.000000
0
SEQEND
5
8d
100
AcDbEntity
8
1
0
LINE
5
8e
100
AcDbEntity
8
1
100
AcDbLine
6
CONTINUOUS
62
5
10
175.500000
20
326.500000
11
180.500000
21
326.500000
0
LINE
5
8f
100
AcDbEntity
8
1
100
AcDbLine
6
CONTINUOUS
62
5
10
178.000000
20
329.000000
11
178.000000
21
320.875000
0
LINE
5
90
100
AcDbEntity
8
1
100
AcDbLine
6
CONTINUOUS
62
5
10
175.500000
20
324.000000
11
180.500000
21
324.000000
0
LINE
5
91
100
AcDbEntity
8
1
100
AcDbLine
6
CONTINUOUS
62
5
10
166.750000
20
329.000000
11
172.750000
21
329.000000
0
POLYLINE
5
92
100
AcDbEntity
8
1
6
CONTINUOUS
62
5
100
AcDb2dPolyline
66
1
10
0.0
20
0.0
30
0.0
70
0
0
VERTEX
5
93
100
AcDbEntity
8
1
100
AcDbVertex
100
AcDb2dVertex
62
5
10
167.500000
20
320.875000
0
VERTEX
5
94
100
AcDbEntity
8
1
100
AcDbVertex
100
AcDb2dVertex
62
5
10
167.500000
20
327.750000
0
VERTEX
5
95
100
AcDbEntity
8
1
100
AcDbVertex
100
AcDb2dVertex
62
5
10
172.000000
20
327.750000
0
VERTEX
5
96
100
AcDbEntity
8
1
100
AcDbVertex
100
AcDb2dVertex
62
5
10
172.000000
20
320.875000
0
VERTEX
5
97
100
AcDbEntity
8
1
100
AcDbVertex
100
AcDb2dVertex
62
5
10
171.000000
20
320.875000
0
SEQEND
5
98
100
AcDbEntity
8
1
0
LINE
5
99
100
AcDbEntity
8
1
100
AcDbLine
6
CONTINUOUS
62
5
10
167.500000
20
325.875000
11
172.000000
21
325.875000
0
LINE
5
9a
100
AcDbEntity
8
1
100
AcDbLine
6
CONTINUOUS
62
5
10
166.250000
20
324.000000
11
173.250000
21
324.000000
0
LINE
5
9b
100
AcDbEntity
8
1
100
AcDbLine
6
CONTINUOUS
62
5
10
169.750000
20
329.000000
11
169.750000
21
324.000000
0
POLYLINE
5
9c
100
AcDbEntity
8
1
6
DOT2
62
5
100
AcDb2dPolyline
66
1
10
0.0
20
0.0
30
0.0
70
0
0
VERTEX
5
9d
100
AcDbEntity
8
1
100
AcDbVertex
100
AcDb2dVertex
62
5
10
161.250000
20
222.075000
0
VERTEX
5
9e
100
AcDbEntity
8
1
100
AcDbVertex
100
AcDb2dVertex
62
5
10
161.562500
20
223.325000
0
VERTEX
5
9f
100
AcDbEntity
8
1
100
AcDbVertex
100
AcDb2dVertex
62
5
10
162.187500
20
223.950000
0
VERTEX
5
a0
100
AcDbEntity
8
1
100
AcDbVertex
100
AcDb2dVertex
62
5
10
163.125000
20
223.950000
0
VERTEX
5
a1
100
AcDbEntity
8
1
100
AcDbVertex
100
AcDb2dVertex
62
5
10
163.750000
20
223.637500
0
VERTEX
5
a2
100
AcDbEntity
8
1
100
AcDbVertex
100
AcDb2dVertex
62
5
10
164.062500
20
222.700000
0
VERTEX
5
a3
100
AcDbEntity
8
1
100
AcDbVertex
100
AcDb2dVertex
62
5
10
164.062500
20
221.450000
0
VERTEX
5
a4
100
AcDbEntity
8
1
100
AcDbVertex
100
AcDb2dVertex
62
5
10
163.750000
20
220.825000
0
VERTEX
5
a5
100
AcDbEntity
8
1
100
AcDbVertex
100
AcDb2dVertex
62
5
10
163.125000
20
220.200000
0
VERTEX
5
a6
100
AcDbEntity
8
1
100
AcDbVertex
100
AcDb2dVertex
62
5
10
162.187500
20
220.200000
0
SEQEND
5
a7
100
AcDbEntity
8
1
0
POLYLINE
5
a8
100
AcDbEntity
8
1
6
DOT2
62
5
100
AcDb2dPolyline
66
1
10
0.0
20
0.0
30
0.0
70
0
0
VERTEX
5
a9
100
AcDbEntity
8
1
100
AcDbVertex
100
AcDb2dVertex
62
5
10
163.125000
20
220.200000
0
VERTEX
5
aa
100
AcDbEntity
8
1
100
AcDbVertex
100
AcDb2dVertex
62
5
10
164.062500
20
219.575000
0
VERTEX
5
ab
100
AcDbEntity
8
1
100
AcDbVertex
100
AcDb2dVertex
62
5
10
164.375000
20
218.637500
0
VERTEX
5
ac
100
AcDbEntity
8
1
100
AcDbVertex
100
AcDb2dVertex
62
5
10
164.375000
20
217.700000
0
VERTEX
5
ad
100
AcDbEntity
8
1
100
AcDbVertex
100
AcDb2dVertex
62
5
10
164.062500
20
217.075000
0
VERTEX
5
ae
100
AcDbEntity
8
1
100
AcDbVertex
100
AcDb2dVertex
62
5
10
163.125000
20
216.450000
0
VERTEX
5
af
100
AcDbEntity
8
1
100
AcDbVertex
100
AcDb2dVertex
62
5
10
162.187500
20
216.450000
0
VERTEX
5
b0
100
AcDbEntity
8
1
100
AcDbVertex
100
AcDb2dVertex
62
5
10
161.562500
20
216.762500
0
VERTEX
5
b1
100
AcDbEntity
8
1
100
AcDbVertex
100
AcDb2dVertex
62
5
10
160.937500
20
217.700000
0
SEQEND
5
b2
100
AcDbEntity
8
1
0
POLYLINE
5
b3
100
AcDbEntity
8
1
6
DOT2
62
5
100
AcDb2dPolyline
66
1
10
0.0
20
0.0
30
0.0
70
0
0
VERTEX
5
b4
100
AcDbEntity
8
1
100
AcDbVertex
100
AcDb2dVertex
62
5
10
158.750000
20
223.950000
0
VERTEX
5
b5
100
AcDbEntity
8
1
100
AcDbVertex
100
AcDb2dVertex
62
5
10
155.937500
20
218.325000
0
VERTEX
5
b6
100
AcDbEntity
8
1
100
AcDbVertex
100
AcDb2dVertex
62
5
10
159.687500
20
218.325000
0
SEQEND
5
b7
100
AcDbEntity
8
1
0
LINE
5
b8
100
AcDbEntity
8
1
100
AcDbLine
6
DOT2
62
5
10
158.750000
20
223.950000
11
158.750000
21
216.450000
0
LINE
5
b9
100
AcDbEntity
8
1
100
AcDbLine
6
DOT2
62
5
10
158.125000
20
216.450000
11
159.375000
21
216.450000
0
CIRCLE
5
ba
100
AcDbEntity
8
1
100
AcDbCircle
6
CONTINUOUS
62
5
10
176.800000
20
184.000000
40
1.000000
0
ARC
5
bb
100
AcDbEntity
8
1
100
AcDbCircle
6
CONTINUOUS
62
5
10
162.400000
20
181.900000
40
0.400000
100
AcDbArc
50
-179.999998
51
-75.522487
0
LINE
5
bc
100
AcDbEntity
8
1
100
AcDbLine
6
CONTINUOUS
62
5
10
162.000000
20
181.900000
11
162.000000
21
186.100000
0
ARC
5
bd
100
AcDbEntity
8
1
100
AcDbCircle
6
CONTINUOUS
62
5
10
162.400000
20
186.100000
40
0.400000
100
AcDbArc
50
75.522487
51
-179.999998
0
LINE
5
be
100
AcDbEntity
8
1
100
AcDbLine
6
CONTINUOUS
62
5
10
160.900000
20
187.779191
11
160.900000
21
188.500000
0
ARC
5
bf
100
AcDbEntity
8
1
100
AcDbCircle
6
CONTINUOUS
62
5
10
157.600000
20
181.900000
40
0.400000
100
AcDbArc
50
-104.477511
51
-0.000000
0
LINE
5
c0
100
AcDbEntity
8
1
100
AcDbLine
6
CONTINUOUS
62
5
10
158.000000
20
181.900000
11
158.000000
21
186.100000
0
ARC
5
c1
100
AcDbEntity
8
1
100
AcDbCircle
6
CONTINUOUS
62
5
10
157.600000
20
186.100000
40
0.400000
100
AcDbArc
50
-0.000000
51
104.477511
0
LINE
5
c2
100
AcDbEntity
8
1
100
AcDbLine
6
CONTINUOUS
62
5
10
159.100000
20
187.779191
11
159.100000
21
188.500000
0
LINE
5
c3
100
AcDbEntity
8
1
100
AcDbLine
6
CONTINUOUS
62
5
10
160.900000
20
180.220809
11
160.900000
21
179.500000
0
LINE
5
c4
100
AcDbEntity
8
1
100
AcDbLine
6
CONTINUOUS
62
5
10
159.100000
20
180.220809
11
159.100000
21
179.500000
0
POLYLINE
5
c5
100
AcDbEntity
8
1
6
CONTINUOUS
62
5
100
AcDb2dPolyline
66
1
10
0.0
20
0.0
30
0.0
70
0
0
VERTEX
5
c6
100
AcDbEntity
8
1
100
AcDbVertex
100
AcDb2dVertex
62
5
10
160.750000
20
187.789595
0
VERTEX
5
c7
100
AcDbEntity
8
1
100
AcDbVertex
100
AcDb2dVertex
62
5
10
162.500000
20
187.668208
0
VERTEX
5
c8
100
AcDbEntity
8
1
100
AcDbVertex
100
AcDb2dVertex
62
5
10
162.500000
20
180.331792
0
VERTEX
5
c9
100
AcDbEntity
8
1
100
AcDbVertex
100
AcDb2dVertex
62
5
10
160.750000
20
180.210405
0
SEQEND
5
ca
100
AcDbEntity
8
1
0
LINE
5
cb
100
AcDbEntity
8
1
100
AcDbLine
6
CONTINUOUS
62
5
10
160.850000
20
187.782659
11
160.850000
21
180.217341
0
POLYLINE
5
cc
100
AcDbEntity
8
1
6
CONTINUOUS
62
5
100
AcDb2dPolyline
66
1
10
0.0
20
0.0
30
0.0
70
0
0
VERTEX
5
cd
100
AcDbEntity
8
1
100
AcDbVertex
100
AcDb2dVertex
62
5
10
160.750000
20
188.500000
0
VERTEX
5
ce
100
AcDbEntity
8
1
100
AcDbVertex
100
AcDb2dVertex
62
5
10
172.500000
20
188.500000
0
VERTEX
5
cf
100
AcDbEntity
8
1
100
AcDbVertex
100
AcDb2dVertex
62
5
10
172.500000
20
179.500000
0
VERTEX
5
d0
100
AcDbEntity
8
1
100
AcDbVertex
100
AcDb2dVertex
62
5
10
160.750000
20
179.500000
0
SEQEND
5
d1
100
AcDbEntity
8
1
0
POLYLINE
5
d2
100
AcDbEntity
8
1
6
CONTINUOUS
62
5
100
AcDb2dPolyline
66
1
10
0.0
20
0.0
30
0.0
70
1
0
VERTEX
5
d3
100
AcDbEntity
8
1
100
AcDbVertex
100
AcDb2dVertex
62
5
10
160.750000
20
188.600000
0
VERTEX
5
d4
100
AcDbEntity
8
1
100
AcDbVertex
100
AcDb2dVertex
62
5
10
172.600000
20
188.600000
0
VERTEX
5
d5
100
AcDbEntity
8
1
100
AcDbVertex
100
AcDb2dVertex
62
5
10
172.600000
20
179.400000
0
VERTEX
5
d6
100
AcDbEntity
8
1
100
AcDbVertex
100
AcDb2dVertex
62
5
10
160.750000
20
179.400000
0
SEQEND
5
d7
100
AcDbEntity
8
1
0
ARC
5
d8
100
AcDbEntity
8
1
100
AcDbCircle
6
CONTINUOUS
62
5
10
174.500000
20
178.800000
40
1.000000
100
AcDbArc
50
-89.999999
51
0.000000
0
LINE
5
d9
100
AcDbEntity
8
1
100
AcDbLine
6
CONTINUOUS
62
5
10
175.500000
20
178.800000
11
175.500000
21
189.200000
0
ARC
5
da
100
AcDbEntity
8
1
100
AcDbCircle
6
CONTINUOUS
62
5
10
174.500000
20
189.200000
40
1.000000
100
AcDbArc
50
0.000000
51
89.999999
0
ARC
5
db
100
AcDbEntity
8
1
100
AcDbCircle
6
CONTINUOUS
62
5
10
174.000000
20
178.800000
40
1.000000
100
AcDbArc
50
-89.999999
51
-0.000000
0
LINE
5
dc
100
AcDbEntity
8
1
100
AcDbLine
6
CONTINUOUS
62
5
10
175.000000
20
178.800000
11
175.000000
21
189.200000
0
ARC
5
dd
100
AcDbEntity
8
1
100
AcDbCircle
6
CONTINUOUS
62
5
10
174.000000
20
189.200000
40
1.000000
100
AcDbArc
50
0.000000
51
89.999999
0
ARC
5
de
100
AcDbEntity
8
1
100
AcDbCircle
6
CONTINUOUS
62
5
10
181.000000
20
178.500000
40
0.500000
100
AcDbArc
50
-89.999999
51
-0.000000
0
LINE
5
df
100
AcDbEntity
8
1
100
AcDbLine
6
CONTINUOUS
62
5
10
181.500000
20
178.500000
11
181.500000
21
189.500000
0
ARC
5
e0
100
AcDbEntity
8
1
100
AcDbCircle
6
CONTINUOUS
62
5
10
181.000000
20
189.500000
40
0.500000
100
AcDbArc
50
0.000000
51
89.999999
0
LINE
5
e1
100
AcDbEntity
8
1
100
AcDbLine
6
CONTINUOUS
62
5
10
181.000000
20
190.000000
11
179.100000
21
190.000000
0
LINE
5
e2
100
AcDbEntity
8
1
100
AcDbLine
6
CONTINUOUS
62
5
10
179.100000
20
178.000000
11
181.000000
21
178.000000
0
POLYLINE
5
e3
100
AcDbEntity
8
1
6
CONTINUOUS
62
5
100
AcDb2dPolyline
66
1
10
0.0
20
0.0
30
0.0
70
0
0
VERTEX
5
e4
100
AcDbEntity
8
1
100
AcDbVertex
100
AcDb2dVertex
62
5
10
159.250000
20
187.789595
0
VERTEX
5
e5
100
AcDbEntity
8
1
100
AcDbVertex
100
AcDb2dVertex
62
5
10
157.500000
20
187.668208
0
VERTEX
5
e6
100
AcDbEntity
8
1
100
AcDbVertex
100
AcDb2dVertex
62
5
10
157.500000
20
180.331792
0
VERTEX
5
e7
100
AcDbEntity
8
1
100
AcDbVertex
100
AcDb2dVertex
62
5
10
159.250000
20
180.210405
0
SEQEND
5
e8
100
AcDbEntity
8
1
0
LINE
5
e9
100
AcDbEntity
8
1
100
AcDbLine
6
CONTINUOUS
62
5
10
159.150000
20
187.782659
11
159.150000
21
180.217341
0
LINE
5
ea
100
AcDbEntity
8
1
100
AcDbLine
6
CONTINUOUS
62
5
10
144.000000
20
328.687500
11
144.000000
21
327.125000
0
LINE
5
eb
100
AcDbEntity
8
1
100
AcDbLine
6
CONTINUOUS
62
5
10
142.750000
20
327.125000
11
145.000000
21
327.125000
0
POLYLINE
5
ec
100
AcDbEntity
8
1
6
CONTINUOUS
62
5
100
AcDb2dPolyline
66
1
10
0.0
20
0.0
30
0.0
70
0
0
VERTEX
5
ed
100
AcDbEntity
8
1
100
AcDbVertex
100
AcDb2dVertex
62
5
10
143.000000
20
325.875000
0
VERTEX
5
ee
100
AcDbEntity
8
1
100
AcDbVertex
100
AcDb2dVertex
62
5
10
143.250000
20
324.937500
0
VERTEX
5
ef
100
AcDbEntity
8
1
100
AcDbVertex
100
AcDb2dVertex
62
5
10
143.500000
20
323.375000
0
SEQEND
5
f0
100
AcDbEntity
8
1
0
LINE
5
f1
100
AcDbEntity
8
1
100
AcDbLine
6
CONTINUOUS
62
5
10
144.500000
20
326.500000
11
144.000000
21
323.062500
0
LINE
5
f2
100
AcDbEntity
8
1
100
AcDbLine
6
CONTINUOUS
62
5
10
142.500000
20
322.437500
11
145.000000
21
323.375000
0
POLYLINE
5
f3
100
AcDbEntity
8
1
6
CONTINUOUS
62
5
100
AcDb2dPolyline
66
1
10
0.0
20
0.0
30
0.0
70
0
0
VERTEX
5
f4
100
AcDbEntity
8
1
100
AcDbVertex
100
AcDb2dVertex
62
5
10
145.500000
20
328.687500
0
VERTEX
5
f5
100
AcDbEntity
8
1
100
AcDbVertex
100
AcDb2dVertex
62
5
10
145.500000
20
326.812500
0
VERTEX
5
f6
100
AcDbEntity
8
1
100
AcDbVertex
100
AcDb2dVertex
62
5
10
149.000000
20
326.812500
0
VERTEX
5
f7
100
AcDbEntity
8
1
100
AcDbVertex
100
AcDb2dVertex
62
5
10
149.000000
20
328.687500
0
SEQEND
5
f8
100
AcDbEntity
8
1
0
LINE
5
f9
100
AcDbEntity
8
1
100
AcDbLine
6
CONTINUOUS
62
5
10
147.250000
20
329.312500
11
147.250000
21
326.812500
0
LINE
5
fa
100
AcDbEntity
8
1
100
AcDbLine
6
CONTINUOUS
62
5
10
145.250000
20
325.875000
11
149.500000
21
325.875000
0
LINE
5
fb
100
AcDbEntity
8
1
100
AcDbLine
6
CONTINUOUS
62
5
10
147.250000
20
325.875000
11
146.250000
21
324.625000
0
POLYLINE
5
fc
100
AcDbEntity
8
1
6
CONTINUOUS
62
5
100
AcDb2dPolyline
66
1
10
0.0
20
0.0
30
0.0
70
0
0
VERTEX
5
fd
100
AcDbEntity
8
1
100
AcDbVertex
100
AcDb2dVertex
62
5
10
145.500000
20
321.187500
0
VERTEX
5
fe
100
AcDbEntity
8
1
100
AcDbVertex
100
AcDb2dVertex
62
5
10
145.500000
20
324.625000
0
VERTEX
5
ff
100
AcDbEntity
8
1
100
AcDbVertex
100
AcDb2dVertex
62
5
10
149.250000
20
324.625000
0
VERTEX
5
100
100
AcDbEntity
8
1
100
AcDbVertex
100
AcDb2dVertex
62
5
10
149.250000
20
321.187500
0
VERTEX
5
101
100
AcDbEntity
8
1
100
AcDbVertex
100
AcDb2dVertex
62
5
10
149.000000
20
321.187500
0
SEQEND
5
102
100
AcDbEntity
8
1
0
LINE
5
103
100
AcDbEntity
8
1
100
AcDbLine
6
CONTINUOUS
62
5
10
146.750000
20
324.625000
11
146.750000
21
321.187500
0
LINE
5
104
100
AcDbEntity
8
1
100
AcDbLine
6
CONTINUOUS
62
5
10
148.000000
20
324.625000
11
148.000000
21
321.187500
0
LINE
5
105
100
AcDbEntity
8
1
100
AcDbLine
6
CONTINUOUS
62
5
10
130.250000
20
327.125000
11
132.500000
21
327.125000
0
LINE
5
106
100
AcDbEntity
8
1
100
AcDbLine
6
CONTINUOUS
62
5
10
131.500000
20
329.312500
11
131.500000
21
320.562500
0
POLYLINE
5
107
100
AcDbEntity
8
1
6
CONTINUOUS
62
5
100
AcDb2dPolyline
66
1
10
0.0
20
0.0
30
0.0
70
0
0
VERTEX
5
108
100
AcDbEntity
8
1
100
AcDbVertex
100
AcDb2dVertex
62
5
10
131.500000
20
327.125000
0
VERTEX
5
109
100
AcDbEntity
8
1
100
AcDbVertex
100
AcDb2dVertex
62
5
10
131.000000
20
325.250000
0
VERTEX
5
10a
100
AcDbEntity
8
1
100
AcDbVertex
100
AcDb2dVertex
62
5
10
130.250000
20
323.375000
0
SEQEND
5
10b
100
AcDbEntity
8
1
0
LINE
5
10c
100
AcDbEntity
8
1
100
AcDbLine
6
CONTINUOUS
62
5
10
131.500000
20
326.187500
11
132.500000
21
324.625000
0
LINE
5
10d
100
AcDbEntity
8
1
100
AcDbLine
6
CONTINUOUS
62
5
10
132.500000
20
329.000000
11
137.250000
21
329.000000
0
POLYLINE
5
10e
100
AcDbEntity
8
1
6
CONTINUOUS
62
5
100
AcDb2dPolyline
66
1
10
0.0
20
0.0
30
0.0
70
0
0
VERTEX
5
10f
100
AcDbEntity
8
1
100
AcDbVertex
100
AcDb2dVertex
62
5
10
134.750000
20
329.000000
0
VERTEX
5
110
100
AcDbEntity
8
1
100
AcDbVertex
100
AcDb2dVertex
62
5
10
133.750000
20
326.812500
0
VERTEX
5
111
100
AcDbEntity
8
1
100
AcDbVertex
100
AcDb2dVertex
62
5
10
135.250000
20
327.125000
0
VERTEX
5
112
100
AcDbEntity
8
1
100
AcDbVertex
100
AcDb2dVertex
62
5
10
135.250000
20
324.000000
0
VERTEX
5
113
100
AcDbEntity
8
1
100
AcDbVertex
100
AcDb2dVertex
62
5
10
134.750000
20
321.812500
0
VERTEX
5
114
100
AcDbEntity
8
1
100
AcDbVertex
100
AcDb2dVertex
62
5
10
134.250000
20
322.125000
0
SEQEND
5
115
100
AcDbEntity
8
1
0
POLYLINE
5
116
100
AcDbEntity
8
1
6
CONTINUOUS
62
5
100
AcDb2dPolyline
66
1
10
0.0
20
0.0
30
0.0
70
1
0
VERTEX
5
117
100
AcDbEntity
8
1
100
AcDbVertex
100
AcDb2dVertex
62
5
10
133.000000
20
325.250000
0
VERTEX
5
118
100
AcDbEntity
8
1
100
AcDbVertex
100
AcDb2dVertex
62
5
10
134.250000
20
325.250000
0
VERTEX
5
119
100
AcDbEntity
8
1
100
AcDbVertex
100
AcDb2dVertex
62
5
10
134.250000
20
323.062500
0
VERTEX
5
11a
100
AcDbEntity
8
1
100
AcDbVertex
100
AcDb2dVertex
62
5
10
133.000000
20
323.062500
0
VERTEX
5
11b
100
AcDbEntity
8
1
100
AcDbVertex
100
AcDb2dVertex
62
5
10
133.000000
20
325.250000
0
SEQEND
5
11c
100
AcDbEntity
8
1
0
POLYLINE
5
11d
100
AcDbEntity
8
1
6
CONTINUOUS
62
5
100
AcDb2dPolyline
66
1
10
0.0
20
0.0
30
0.0
70
0
0
VERTEX
5
11e
100
AcDbEntity
8
1
100
AcDbVertex
100
AcDb2dVertex
62
5
10
135.750000
20
326.812500
0
VERTEX
5
11f
100
AcDbEntity
8
1
100
AcDbVertex
100
AcDb2dVertex
62
5
10
137.250000
20
326.812500
0
VERTEX
5
120
100
AcDbEntity
8
1
100
AcDbVertex
100
AcDb2dVertex
62
5
10
137.000000
20
325.562500
0
VERTEX
5
121
100
AcDbEntity
8
1
100
AcDbVertex
100
AcDb2dVertex
62
5
10
136.500000
20
324.000000
0
VERTEX
5
122
100
AcDbEntity
8
1
100
AcDbVertex
100
AcDb2dVertex
62
5
10
135.750000
20
322.437500
0
SEQEND
5
123
100
AcDbEntity
8
1
0
POLYLINE
5
124
100
AcDbEntity
8
1
6
CONTINUOUS
62
5
100
AcDb2dPolyline
66
1
10
0.0
20
0.0
30
0.0
70
0
0
VERTEX
5
125
100
AcDbEntity
8
1
100
AcDbVertex
100
AcDb2dVertex
62
5
10
135.750000
20
325.875000
0
VERTEX
5
126
100
AcDbEntity
8
1
100
AcDbVertex
100
AcDb2dVertex
62
5
10
136.000000
20
324.625000
0
VERTEX
5
127
100
AcDbEntity
8
1
100
AcDbVertex
100
AcDb2dVertex
62
5
10
137.500000
20
322.437500
0
SEQEND
5
128
100
AcDbEntity
8
1
0
LINE
5
129
100
AcDbEntity
8
1
100
AcDbLine
6
CONTINUOUS
62
5
10
132.250000
20
320.875000
11
137.500000
21
320.875000
0
POLYLINE
5
12a
100
AcDbEntity
8
1
6
CONTINUOUS
62
5
100
AcDb2dPolyline
66
1
10
0.0
20
0.0
30
0.0
70
0
0
VERTEX
5
12b
100
AcDbEntity
8
1
100
AcDbVertex
100
AcDb2dVertex
62
5
10
141.000000
20
329.000000
0
VERTEX
5
12c
100
AcDbEntity
8
1
100
AcDbVertex
100
AcDb2dVertex
62
5
10
138.750000
20
323.375000
0
VERTEX
5
12d
100
AcDbEntity
8
1
100
AcDbVertex
100
AcDb2dVertex
62
5
10
141.750000
20
323.375000
0
SEQEND
5
12e
100
AcDbEntity
8
1
0
LINE
5
12f
100
AcDbEntity
8
1
100
AcDbLine
6
CONTINUOUS
62
5
10
141.000000
20
329.000000
11
141.000000
21
321.500000
0
LINE
5
130
100
AcDbEntity
8
1
100
AcDbLine
6
CONTINUOUS
62
5
10
140.500000
20
321.500000
11
141.500000
21
321.500000
0
LINE
5
131
100
AcDbEntity
8
1
100
AcDbLine
6
CONTINUOUS
62
5
10
123.000000
20
329.625000
11
124.000000
21
328.062500
0
LINE
5
132
100
AcDbEntity
8
1
100
AcDbLine
6
CONTINUOUS
62
5
10
125.000000
20
329.625000
11
125.750000
21
328.375000
0
LINE
5
133
100
AcDbEntity
8
1
100
AcDbLine
6
CONTINUOUS
62
5
10
127.750000
20
328.375000
11
128.750000
21
329.625000
0
POLYLINE
5
134
100
AcDbEntity
8
1
6
CONTINUOUS
62
5
100
AcDb2dPolyline
66
1
10
0.0
20
0.0
30
0.0
70
1
0
VERTEX
5
135
100
AcDbEntity
8
1
100
AcDbVertex
100
AcDb2dVertex
62
5
10
123.000000
20
327.750000
0
VERTEX
5
136
100
AcDbEntity
8
1
100
AcDbVertex
100
AcDb2dVertex
62
5
10
128.500000
20
327.750000
0
VERTEX
5
137
100
AcDbEntity
8
1
100
AcDbVertex
100
AcDb2dVertex
62
5
10
128.500000
20
324.000000
0
VERTEX
5
138
100
AcDbEntity
8
1
100
AcDbVertex
100
AcDb2dVertex
62
5
10
123.000000
20
324.000000
0
VERTEX
5
139
100
AcDbEntity
8
1
100
AcDbVertex
100
AcDb2dVertex
62
5
10
123.000000
20
327.750000
0
SEQEND
5
13a
100
AcDbEntity
8
1
0
LINE
5
13b
100
AcDbEntity
8
1
100
AcDbLine
6
CONTINUOUS
62
5
10
123.000000
20
325.875000
11
128.500000
21
325.875000
0
LINE
5
13c
100
AcDbEntity
8
1
100
AcDbLine
6
CONTINUOUS
62
5
10
125.750000
20
327.750000
11
125.750000
21
320.562500
0
LINE
5
13d
100
AcDbEntity
8
1
100
AcDbLine
6
CONTINUOUS
62
5
10
122.250000
20
322.750000
11
129.500000
21
322.750000
0
LINE
5
13e
100
AcDbEntity
8
1
100
AcDbLine
6
CONTINUOUS
62
5
10
91.750000
20
327.437500
11
92.750000
21
326.187500
0
POLYLINE
5
13f
100
AcDbEntity
8
1
6
CONTINUOUS
62
5
100
AcDb2dPolyline
66
1
10
0.0
20
0.0
30
0.0
70
0
0
VERTEX
5
140
100
AcDbEntity
8
1
100
AcDbVertex
100
AcDb2dVertex
62
5
10
91.500000
20
322.437500
0
VERTEX
5
141
100
AcDbEntity
8
1
100
AcDbVertex
100
AcDb2dVertex
62
5
10
93.250000
20
323.375000
0
VERTEX
5
142
100
AcDbEntity
8
1
100
AcDbVertex
100
AcDb2dVertex
62
5
10
94.750000
20
324.625000
0
VERTEX
5
143
100
AcDbEntity
8
1
100
AcDbVertex
100
AcDb2dVertex
62
5
10
96.250000
20
326.187500
0
SEQEND
5
144
100
AcDbEntity
8
1
0
POLYLINE
5
145
100
AcDbEntity
8
1
6
CONTINUOUS
62
5
100
AcDb2dPolyline
66
1
10
0.0
20
0.0
30
0.0
70
0
0
VERTEX
5
146
100
AcDbEntity
8
1
100
AcDbVertex
100
AcDb2dVertex
62
5
10
99.750000
20
324.937500
0
VERTEX
5
147
100
AcDbEntity
8
1
100
AcDbVertex
100
AcDb2dVertex
62
5
10
100.750000
20
326.187500
0
VERTEX
5
148
100
AcDbEntity
8
1
100
AcDbVertex
100
AcDb2dVertex
62
5
10
101.500000
20
327.437500
0
VERTEX
5
149
100
AcDbEntity
8
1
100
AcDbVertex
100
AcDb2dVertex
62
5
10
104.000000
20
327.437500
0
VERTEX
5
14a
100
AcDbEntity
8
1
100
AcDbVertex
100
AcDb2dVertex
62
5
10
104.000000
20
327.125000
0
VERTEX
5
14b
100
AcDbEntity
8
1
100
AcDbVertex
100
AcDb2dVertex
62
5
10
103.000000
20
324.625000
0
VERTEX
5
14c
100
AcDbEntity
8
1
100
AcDbVertex
100
AcDb2dVertex
62
5
10
101.750000
20
322.750000
0
VERTEX
5
14d
100
AcDbEntity
8
1
100
AcDbVertex
100
AcDb2dVertex
62
5
10
100.250000
20
321.500000
0
SEQEND
5
14e
100
AcDbEntity
8
1
0
LINE
5
14f
100
AcDbEntity
8
1
100
AcDbLine
6
CONTINUOUS
62
5
10
101.500000
20
325.562500
11
102.750000
21
324.312500
0
POLYLINE
5
150
100
AcDbEntity
8
1
6
CONTINUOUS
62
5
100
AcDb2dPolyline
66
1
10
0.0
20
0.0
30
0.0
70
0
0
VERTEX
5
151
100
AcDbEntity
8
1
100
AcDbVertex
100
AcDb2dVertex
62
5
10
87.750000
20
328.687500
0
VERTEX
5
152
100
AcDbEntity
8
1
100
AcDbVertex
100
AcDb2dVertex
62
5
10
85.750000
20
326.187500
0
VERTEX
5
153
100
AcDbEntity
8
1
100
AcDbVertex
100
AcDb2dVertex
62
5
10
83.500000
20
324.625000
0
SEQEND
5
154
100
AcDbEntity
8
1
0
LINE
5
155
100
AcDbEntity
8
1
100
AcDbLine
6
CONTINUOUS
62
5
10
86.250000
20
326.812500
11
86.250000
21
321.500000
0
POLYLINE
5
156
100
AcDbEntity
8
1
6
CONTINUOUS
62
5
100
AcDb2dPolyline
66
1
10
0.0
20
0.0
30
0.0
70
0
0
VERTEX
5
157
100
AcDbEntity
8
1
100
AcDbVertex
100
AcDb2dVertex
62
5
10
76.500000
20
325.875000
0
VERTEX
5
158
100
AcDbEntity
8
1
100
AcDbVertex
100
AcDb2dVertex
62
5
10
79.250000
20
325.875000
0
VERTEX
5
159
100
AcDbEntity
8
1
100
AcDbVertex
100
AcDb2dVertex
62
5
10
79.250000
20
322.125000
0
VERTEX
5
15a
100
AcDbEntity
8
1
100
AcDbVertex
100
AcDb2dVertex
62
5
10
76.500000
20
322.125000
0
SEQEND
5
15b
100
AcDbEntity
8
1
0
LINE
5
15c
100
AcDbEntity
8
1
100
AcDbLine
6
CONTINUOUS
62
5
10
76.500000
20
324.000000
11
79.250000
21
324.000000
0
POLYLINE
5
15d
100
AcDbEntity
8
1
6
CONTINUOUS
62
5
100
AcDb2dPolyline
66
1
10
0.0
20
0.0
30
0.0
70
0
0
VERTEX
5
15e
100
AcDbEntity
8
1
100
AcDbVertex
100
AcDb2dVertex
62
5
10
106.750000
20
325.562500
0
VERTEX
5
15f
100
AcDbEntity
8
1
100
AcDbVertex
100
AcDb2dVertex
62
5
10
107.000000
20
325.250000
0
VERTEX
5
160
100
AcDbEntity
8
1
100
AcDbVertex
100
AcDb2dVertex
62
5
10
113.750000
20
325.250000
0
SEQEND
5
161
100
AcDbEntity
8
1
0
LINE
5
162
100
AcDbEntity
8
1
100
AcDbLine
6
CONTINUOUS
62
5
10
72.500000
20
286.750000
11
75.625000
21
286.750000
0
LINE
5
163
100
AcDbEntity
8
1
100
AcDbLine
6
CONTINUOUS
62
5
10
87.500000
20
290.500000
11
87.500000
21
283.000000
0
POLYLINE
5
164
100
AcDbEntity
8
1
6
CONTINUOUS
62
5
100
AcDb2dPolyline
66
1
10
0.0
20
0.0
30
0.0
70
0
0
VERTEX
5
165
100
AcDbEntity
8
1
100
AcDbVertex
100
AcDb2dVertex
62
5
10
87.500000
20
290.500000
0
VERTEX
5
166
100
AcDbEntity
8
1
100
AcDbVertex
100
AcDb2dVertex
62
5
10
88.750000
20
290.500000
0
VERTEX
5
167
100
AcDbEntity
8
1
100
AcDbVertex
100
AcDb2dVertex
62
5
10
89.687500
20
290.187500
0
VERTEX
5
168
100
AcDbEntity
8
1
100
AcDbVertex
100
AcDb2dVertex
62
5
10
90.312500
20
289.562500
0
VERTEX
5
169
100
AcDbEntity
8
1
100
AcDbVertex
100
AcDb2dVertex
62
5
10
90.625000
20
288.937500
0
VERTEX
5
16a
100
AcDbEntity
8
1
100
AcDbVertex
100
AcDb2dVertex
62
5
10
90.625000
20
288.000000
0
VERTEX
5
16b
100
AcDbEntity
8
1
100
AcDbVertex
100
AcDb2dVertex
62
5
10
90.312500
20
287.375000
0
VERTEX
5
16c
100
AcDbEntity
8
1
100
AcDbVertex
100
AcDb2dVertex
62
5
10
89.687500
20
286.750000
0
VERTEX
5
16d
100
AcDbEntity
8
1
100
AcDbVertex
100
AcDb2dVertex
62
5
10
88.750000
20
286.437500
0
VERTEX
5
16e
100
AcDbEntity
8
1
100
AcDbVertex
100
AcDb2dVertex
62
5
10
87.500000
20
286.437500
0
SEQEND
5
16f
100
AcDbEntity
8
1
0
POLYLINE
5
170
100
AcDbEntity
8
1
6
CONTINUOUS
62
5
100
AcDb2dPolyline
66
1
10
0.0
20
0.0
30
0.0
70
0
0
VERTEX
5
171
100
AcDbEntity
8
1
100
AcDbVertex
100
AcDb2dVertex
62
5
10
92.187500
20
290.500000
0
VERTEX
5
172
100
AcDbEntity
8
1
100
AcDbVertex
100
AcDb2dVertex
62
5
10
93.125000
20
283.000000
0
VERTEX
5
173
100
AcDbEntity
8
1
100
AcDbVertex
100
AcDb2dVertex
62
5
10
94.062500
20
290.500000
0
VERTEX
5
174
100
AcDbEntity
8
1
100
AcDbVertex
100
AcDb2dVertex
62
5
10
95.000000
20
283.000000
0
VERTEX
5
175
100
AcDbEntity
8
1
100
AcDbVertex
100
AcDb2dVertex
62
5
10
95.937500
20
290.500000
0
SEQEND
5
176
100
AcDbEntity
8
1
0
POLYLINE
5
177
100
AcDbEntity
8
1
6
CONTINUOUS
62
5
100
AcDb2dPolyline
66
1
10
0.0
20
0.0
30
0.0
70
0
0
VERTEX
5
178
100
AcDbEntity
8
1
100
AcDbVertex
100
AcDb2dVertex
62
5
10
80.000000
20
290.500000
0
VERTEX
5
179
100
AcDbEntity
8
1
100
AcDbVertex
100
AcDb2dVertex
62
5
10
77.187500
20
284.875000
0
VERTEX
5
17a
100
AcDbEntity
8
1
100
AcDbVertex
100
AcDb2dVertex
62
5
10
80.937500
20
284.875000
0
SEQEND
5
17b
100
AcDbEntity
8
1
0
LINE
5
17c
100
AcDbEntity
8
1
100
AcDbLine
6
CONTINUOUS
62
5
10
80.000000
20
290.500000
11
80.000000
21
283.000000
0
LINE
5
17d
100
AcDbEntity
8
1
100
AcDbLine
6
CONTINUOUS
62
5
10
79.375000
20
283.000000
11
80.625000
21
283.000000
0
LINE
5
17e
100
AcDbEntity
8
1
100
AcDbLine
6
CONTINUOUS
62
5
10
62.500000
20
286.750000
11
65.625000
21
286.750000
0
POLYLINE
5
17f
100
AcDbEntity
8
1
6
CONTINUOUS
62
5
100
AcDb2dPolyline
66
1
10
0.0
20
0.0
30
0.0
70
0
0
VERTEX
5
180
100
AcDbEntity
8
1
100
AcDbVertex
100
AcDb2dVertex
62
5
10
55.312500
20
290.500000
0
VERTEX
5
181
100
AcDbEntity
8
1
100
AcDbVertex
100
AcDb2dVertex
62
5
10
55.312500
20
284.875000
0
VERTEX
5
182
100
AcDbEntity
8
1
100
AcDbVertex
100
AcDb2dVertex
62
5
10
55.000000
20
283.625000
0
VERTEX
5
183
100
AcDbEntity
8
1
100
AcDbVertex
100
AcDb2dVertex
62
5
10
54.375000
20
283.000000
0
VERTEX
5
184
100
AcDbEntity
8
1
100
AcDbVertex
100
AcDb2dVertex
62
5
10
53.437500
20
283.000000
0
VERTEX
5
185
100
AcDbEntity
8
1
100
AcDbVertex
100
AcDb2dVertex
62
5
10
52.812500
20
283.625000
0
VERTEX
5
186
100
AcDbEntity
8
1
100
AcDbVertex
100
AcDb2dVertex
62
5
10
52.500000
20
284.875000
0
SEQEND
5
187
100
AcDbEntity
8
1
0
POLYLINE
5
188
100
AcDbEntity
8
1
6
CONTINUOUS
62
5
100
AcDb2dPolyline
66
1
10
0.0
20
0.0
30
0.0
70
0
0
VERTEX
5
189
100
AcDbEntity
8
1
100
AcDbVertex
100
AcDb2dVertex
62
5
10
60.312500
20
290.500000
0
VERTEX
5
18a
100
AcDbEntity
8
1
100
AcDbVertex
100
AcDb2dVertex
62
5
10
60.312500
20
284.875000
0
VERTEX
5
18b
100
AcDbEntity
8
1
100
AcDbVertex
100
AcDb2dVertex
62
5
10
60.000000
20
283.625000
0
VERTEX
5
18c
100
AcDbEntity
8
1
100
AcDbVertex
100
AcDb2dVertex
62
5
10
59.375000
20
283.000000
0
VERTEX
5
18d
100
AcDbEntity
8
1
100
AcDbVertex
100
AcDb2dVertex
62
5
10
58.437500
20
283.000000
0
VERTEX
5
18e
100
AcDbEntity
8
1
100
AcDbVertex
100
AcDb2dVertex
62
5
10
57.812500
20
283.625000
0
VERTEX
5
18f
100
AcDbEntity
8
1
100
AcDbVertex
100
AcDb2dVertex
62
5
10
57.500000
20
284.875000
0
SEQEND
5
190
100
AcDbEntity
8
1
0
LINE
5
191
100
AcDbEntity
8
1
100
AcDbLine
6
CONTINUOUS
62
5
10
68.250000
20
328.062500
11
69.250000
21
326.812500
0
LINE
5
192
100
AcDbEntity
8
1
100
AcDbLine
6
CONTINUOUS
62
5
10
67.000000
20
326.187500
11
68.000000
21
324.937500
0
POLYLINE
5
193
100
AcDbEntity
8
1
6
CONTINUOUS
62
5
100
AcDb2dPolyline
66
1
10
0.0
20
0.0
30
0.0
70
0
0
VERTEX
5
194
100
AcDbEntity
8
1
100
AcDbVertex
100
AcDb2dVertex
62
5
10
67.250000
20
322.125000
0
VERTEX
5
195
100
AcDbEntity
8
1
100
AcDbVertex
100
AcDb2dVertex
62
5
10
69.000000
20
322.750000
0
VERTEX
5
196
100
AcDbEntity
8
1
100
AcDbVertex
100
AcDb2dVertex
62
5
10
70.500000
20
323.687500
0
VERTEX
5
197
100
AcDbEntity
8
1
100
AcDbVertex
100
AcDb2dVertex
62
5
10
72.500000
20
325.562500
0
SEQEND
5
198
100
AcDbEntity
8
1
0
LINE
5
199
100
AcDbEntity
8
1
100
AcDbLine
6
CONTINUOUS
62
5
10
71.000000
20
327.125000
11
71.500000
21
326.500000
0
LINE
5
19a
100
AcDbEntity
8
1
100
AcDbLine
6
CONTINUOUS
62
5
10
71.500000
20
328.062500
11
72.000000
21
327.437500
0
POLYLINE
5
19b
100
AcDbEntity
8
1
6
CONTINUOUS
62
5
100
AcDb2dPolyline
66
1
10
0.0
20
0.0
30
0.0
70
0
0
VERTEX
5
19c
100
AcDbEntity
8
1
100
AcDbVertex
100
AcDb2dVertex
62
5
10
68.125000
20
289.875000
0
VERTEX
5
19d
100
AcDbEntity
8
1
100
AcDbVertex
100
AcDb2dVertex
62
5
10
69.062500
20
290.500000
0
VERTEX
5
19e
100
AcDbEntity
8
1
100
AcDbVertex
100
AcDb2dVertex
62
5
10
69.062500
20
283.000000
0
SEQEND
5
19f
100
AcDbEntity
8
1
0
LINE
5
1a0
100
AcDbEntity
8
1
100
AcDbLine
6
CONTINUOUS
62
5
10
68.437500
20
283.000000
11
69.687500
21
283.000000
0
LINE
5
1a1
100
AcDbEntity
8
1
100
AcDbLine
6
DOT2
62
5
10
111.625000
20
212.075000
11
112.250000
21
211.450000
0
POLYLINE
5
1a2
100
AcDbEntity
8
1
6
DOT2
62
5
100
AcDb2dPolyline
66
1
10
0.0
20
0.0
30
0.0
70
0
0
VERTEX
5
1a3
100
AcDbEntity
8
1
100
AcDbVertex
100
AcDb2dVertex
62
5
10
111.625000
20
211.450000
0
VERTEX
5
1a4
100
AcDbEntity
8
1
100
AcDbVertex
100
AcDb2dVertex
62
5
10
112.250000
20
212.075000
0
VERTEX
5
1a5
100
AcDbEntity
8
1
100
AcDbVertex
100
AcDb2dVertex
62
5
10
112.250000
20
211.450000
0
VERTEX
5
1a6
100
AcDbEntity
8
1
100
AcDbVertex
100
AcDb2dVertex
62
5
10
111.625000
20
211.450000
0
VERTEX
5
1a7
100
AcDbEntity
8
1
100
AcDbVertex
100
AcDb2dVertex
62
5
10
111.625000
20
212.075000
0
VERTEX
5
1a8
100
AcDbEntity
8
1
100
AcDbVertex
100
AcDb2dVertex
62
5
10
112.250000
20
212.075000
0
SEQEND
5
1a9
100
AcDbEntity
8
1
0
POLYLINE
5
1aa
100
AcDbEntity
8
1
6
DOT2
62
5
100
AcDb2dPolyline
66
1
10
0.0
20
0.0
30
0.0
70
0
0
VERTEX
5
1ab
100
AcDbEntity
8
1
100
AcDbVertex
100
AcDb2dVertex
62
5
10
104.750000
20
218.950000
0
VERTEX
5
1ac
100
AcDbEntity
8
1
100
AcDbVertex
100
AcDb2dVertex
62
5
10
110.375000
20
216.137500
0
VERTEX
5
1ad
100
AcDbEntity
8
1
100
AcDbVertex
100
AcDb2dVertex
62
5
10
110.375000
20
219.887500
0
SEQEND
5
1ae
100
AcDbEntity
8
1
0
LINE
5
1af
100
AcDbEntity
8
1
100
AcDbLine
6
DOT2
62
5
10
104.750000
20
218.950000
11
112.250000
21
218.950000
0
LINE
5
1b0
100
AcDbEntity
8
1
100
AcDbLine
6
DOT2
62
5
10
112.250000
20
218.325000
11
112.250000
21
219.575000
0
POLYLINE
5
1b1
100
AcDbEntity
8
1
6
DOT2
62
5
100
AcDb2dPolyline
66
1
10
0.0
20
0.0
30
0.0
70
0
0
VERTEX
5
1b2
100
AcDbEntity
8
1
100
AcDbVertex
100
AcDb2dVertex
62
5
10
106.937500
20
206.450000
0
VERTEX
5
1b3
100
AcDbEntity
8
1
100
AcDbVertex
100
AcDb2dVertex
62
5
10
105.375000
20
206.762500
0
VERTEX
5
1b4
100
AcDbEntity
8
1
100
AcDbVertex
100
AcDb2dVertex
62
5
10
104.750000
20
207.700000
0
VERTEX
5
1b5
100
AcDbEntity
8
1
100
AcDbVertex
100
AcDb2dVertex
62
5
10
104.750000
20
208.637500
0
VERTEX
5
1b6
100
AcDbEntity
8
1
100
AcDbVertex
100
AcDb2dVertex
62
5
10
105.062500
20
209.262500
0
VERTEX
5
1b7
100
AcDbEntity
8
1
100
AcDbVertex
100
AcDb2dVertex
62
5
10
106.000000
20
209.575000
0
VERTEX
5
1b8
100
AcDbEntity
8
1
100
AcDbVertex
100
AcDb2dVertex
62
5
10
106.937500
20
209.575000
0
VERTEX
5
1b9
100
AcDbEntity
8
1
100
AcDbVertex
100
AcDb2dVertex
62
5
10
107.875000
20
209.262500
0
VERTEX
5
1ba
100
AcDbEntity
8
1
100
AcDbVertex
100
AcDb2dVertex
62
5
10
112.250000
20
206.450000
0
VERTEX
5
1bb
100
AcDbEntity
8
1
100
AcDbVertex
100
AcDb2dVertex
62
5
10
112.250000
20
209.575000
0
VERTEX
5
1bc
100
AcDbEntity
8
1
100
AcDbVertex
100
AcDb2dVertex
62
5
10
111.312500
20
209.575000
0
SEQEND
5
1bd
100
AcDbEntity
8
1
0
CIRCLE
5
1be
100
AcDbEntity
8
1
100
AcDbCircle
6
CONTINUOUS
62
5
10
143.200000
20
184.000000
40
1.000000
0
ARC
5
1bf
100
AcDbEntity
8
1
100
AcDbCircle
6
CONTINUOUS
62
5
10
146.000000
20
178.800000
40
1.000000
100
AcDbArc
50
-179.999998
51
-89.999999
0
LINE
5
1c0
100
AcDbEntity
8
1
100
AcDbLine
6
CONTINUOUS
62
5
10
145.000000
20
178.800000
11
145.000000
21
189.200000
0
ARC
5
1c1
100
AcDbEntity
8
1
100
AcDbCircle
6
CONTINUOUS
62
5
10
146.000000
20
189.200000
40
1.000000
100
AcDbArc
50
89.999999
51
179.999998
0
ARC
5
1c2
100
AcDbEntity
8
1
100
AcDbCircle
6
CONTINUOUS
62
5
10
145.500000
20
189.200000
40
1.000000
100
AcDbArc
50
89.999999
51
179.999998
0
LINE
5
1c3
100
AcDbEntity
8
1
100
AcDbLine
6
CONTINUOUS
62
5
10
144.500000
20
189.200000
11
144.500000
21
178.800000
0
ARC
5
1c4
100
AcDbEntity
8
1
100
AcDbCircle
6
CONTINUOUS
62
5
10
145.500000
20
178.800000
40
1.000000
100
AcDbArc
50
-179.999998
51
-89.999999
0
ARC
5
1c5
100
AcDbEntity
8
1
100
AcDbCircle
6
CONTINUOUS
62
5
10
139.000000
20
178.500000
40
0.500000
100
AcDbArc
50
179.999998
51
-89.999999
0
LINE
5
1c6
100
AcDbEntity
8
1
100
AcDbLine
6
CONTINUOUS
62
5
10
138.500000
20
178.500000
11
138.500000
21
189.500000
0
ARC
5
1c7
100
AcDbEntity
8
1
100
AcDbCircle
6
CONTINUOUS
62
5
10
139.000000
20
189.500000
40
0.500000
100
AcDbArc
50
89.999999
51
179.999998
0
LINE
5
1c8
100
AcDbEntity
8
1
100
AcDbLine
6
CONTINUOUS
62
5
10
139.000000
20
190.000000
11
140.900000
21
190.000000
0
LINE
5
1c9
100
AcDbEntity
8
1
100
AcDbLine
6
CONTINUOUS
62
5
10
140.900000
20
178.000000
11
139.000000
21
178.000000
0
POLYLINE
5
1ca
100
AcDbEntity
8
1
6
DOT2
62
5
100
AcDb2dPolyline
66
1
10
0.0
20
0.0
30
0.0
70
0
0
VERTEX
5
1cb
100
AcDbEntity
8
1
100
AcDbVertex
100
AcDb2dVertex
62
5
10
105.375000
20
202.075000
0
VERTEX
5
1cc
100
AcDbEntity
8
1
100
AcDbVertex
100
AcDb2dVertex
62
5
10
104.750000
20
203.012500
0
VERTEX
5
1cd
100
AcDbEntity
8
1
100
AcDbVertex
100
AcDb2dVertex
62
5
10
112.250000
20
203.012500
0
SEQEND
5
1ce
100
AcDbEntity
8
1
0
LINE
5
1cf
100
AcDbEntity
8
1
100
AcDbLine
6
DOT2
62
5
10
112.250000
20
202.387500
11
112.250000
21
203.637500
0
LINE
5
1d0
100
AcDbEntity
8
1
100
AcDbLine
6
CONTINUOUS
62
5
10
140.000000
20
190.200000
11
111.500000
21
190.200000
0
LINE
5
1d1
100
AcDbEntity
8
1
100
AcDbLine
6
CONTINUOUS
62
5
10
140.000000
20
177.800000
11
111.500000
21
177.800000
0
POLYLINE
5
1d2
100
AcDbEntity
8
1
6
CONTINUOUS
62
5
100
AcDb2dPolyline
66
1
10
0.0
20
0.0
30
0.0
70
0
0
VERTEX
5
1d3
100
AcDbEntity
8
1
100
AcDbVertex
100
AcDb2dVertex
62
5
10
113.500000
20
221.450000
0
VERTEX
5
1d4
100
AcDbEntity
8
1
100
AcDbVertex
100
AcDb2dVertex
62
5
10
113.500000
20
190.200000
0
VERTEX
5
1d5
100
AcDbEntity
8
1
100
AcDbVertex
100
AcDb2dVertex
62
5
10
112.500000
20
196.200000
0
VERTEX
5
1d6
100
AcDbEntity
8
1
100
AcDbVertex
100
AcDb2dVertex
62
5
10
114.500000
20
196.200000
0
VERTEX
5
1d7
100
AcDbEntity
8
1
100
AcDbVertex
100
AcDb2dVertex
62
5
10
113.500000
20
190.200000
0
VERTEX
5
1d8
100
AcDbEntity
8
1
100
AcDbVertex
100
AcDb2dVertex
62
5
10
113.000000
20
196.200000
0
VERTEX
5
1d9
100
AcDbEntity
8
1
100
AcDbVertex
100
AcDb2dVertex
62
5
10
114.000000
20
196.200000
0
VERTEX
5
1da
100
AcDbEntity
8
1
100
AcDbVertex
100
AcDb2dVertex
62
5
10
113.500000
20
190.200000
0
SEQEND
5
1db
100
AcDbEntity
8
1
0
LINE
5
1dc
100
AcDbEntity
8
1
100
AcDbLine
6
CONTINUOUS
62
5
10
113.500000
20
177.800000
11
113.500000
21
190.200000
0
POLYLINE
5
1dd
100
AcDbEntity
8
1
6
CONTINUOUS
62
5
100
AcDb2dPolyline
66
1
10
0.0
20
0.0
30
0.0
70
0
0
VERTEX
5
1de
100
AcDbEntity
8
1
100
AcDbVertex
100
AcDb2dVertex
62
5
10
113.500000
20
168.800000
0
VERTEX
5
1df
100
AcDbEntity
8
1
100
AcDbVertex
100
AcDb2dVertex
62
5
10
113.500000
20
177.800000
0
VERTEX
5
1e0
100
AcDbEntity
8
1
100
AcDbVertex
100
AcDb2dVertex
62
5
10
114.500000
20
171.800000
0
VERTEX
5
1e1
100
AcDbEntity
8
1
100
AcDbVertex
100
AcDb2dVertex
62
5
10
112.500000
20
171.800000
0
VERTEX
5
1e2
100
AcDbEntity
8
1
100
AcDbVertex
100
AcDb2dVertex
62
5
10
113.500000
20
177.800000
0
VERTEX
5
1e3
100
AcDbEntity
8
1
100
AcDbVertex
100
AcDb2dVertex
62
5
10
114.000000
20
171.800000
0
VERTEX
5
1e4
100
AcDbEntity
8
1
100
AcDbVertex
100
AcDb2dVertex
62
5
10
113.000000
20
171.800000
0
VERTEX
5
1e5
100
AcDbEntity
8
1
100
AcDbVertex
100
AcDb2dVertex
62
5
10
113.500000
20
177.800000
0
SEQEND
5
1e6
100
AcDbEntity
8
1
0
POLYLINE
5
1e7
100
AcDbEntity
8
1
6
CONTINUOUS
62
5
100
AcDb2dPolyline
66
1
10
0.0
20
0.0
30
0.0
70
0
0
VERTEX
5
1e8
100
AcDbEntity
8
1
100
AcDbVertex
100
AcDb2dVertex
62
5
10
151.500000
20
329.000000
0
VERTEX
5
1e9
100
AcDbEntity
8
1
100
AcDbVertex
100
AcDb2dVertex
62
5
10
156.250000
20
329.000000
0
VERTEX
5
1ea
100
AcDbEntity
8
1
100
AcDbVertex
100
AcDb2dVertex
62
5
10
153.750000
20
327.125000
0
VERTEX
5
1eb
100
AcDbEntity
8
1
100
AcDbVertex
100
AcDb2dVertex
62
5
10
153.750000
20
320.875000
0
VERTEX
5
1ec
100
AcDbEntity
8
1
100
AcDbVertex
100
AcDb2dVertex
62
5
10
152.750000
20
321.187500
0
SEQEND
5
1ed
100
AcDbEntity
8
1
0
LINE
5
1ee
100
AcDbEntity
8
1
100
AcDbLine
6
CONTINUOUS
62
5
10
150.250000
20
325.250000
11
157.250000
21
325.250000
0
POLYLINE
5
1ef
100
AcDbEntity
8
1
6
CONTINUOUS
62
5
100
AcDb2dPolyline
66
1
10
0.0
20
0.0
30
0.0
70
1
0
VERTEX
5
1f0
100
AcDbEntity
8
1
100
AcDbVertex
100
AcDb2dVertex
62
5
10
159.250000
20
188.600000
0
VERTEX
5
1f1
100
AcDbEntity
8
1
100
AcDbVertex
100
AcDb2dVertex
62
5
10
147.400000
20
188.600000
0
VERTEX
5
1f2
100
AcDbEntity
8
1
100
AcDbVertex
100
AcDb2dVertex
62
5
10
147.400000
20
179.400000
0
VERTEX
5
1f3
100
AcDbEntity
8
1
100
AcDbVertex
100
AcDb2dVertex
62
5
10
159.250000
20
179.400000
0
SEQEND
5
1f4
100
AcDbEntity
8
1
0
POLYLINE
5
1f5
100
AcDbEntity
8
1
6
CONTINUOUS
62
5
100
AcDb2dPolyline
66
1
10
0.0
20
0.0
30
0.0
70
0
0
VERTEX
5
1f6
100
AcDbEntity
8
1
100
AcDbVertex
100
AcDb2dVertex
62
5
10
159.250000
20
188.500000
0
VERTEX
5
1f7
100
AcDbEntity
8
1
100
AcDbVertex
100
AcDb2dVertex
62
5
10
147.500000
20
188.500000
0
VERTEX
5
1f8
100
AcDbEntity
8
1
100
AcDbVertex
100
AcDb2dVertex
62
5
10
147.500000
20
179.500000
0
VERTEX
5
1f9
100
AcDbEntity
8
1
100
AcDbVertex
100
AcDb2dVertex
62
5
10
159.250000
20
179.500000
0
SEQEND
5
1fa
100
AcDbEntity
8
1
0
LINE
5
1fb
100
AcDbEntity
8
1
100
AcDbLine
6
CONTINUOUS
62
5
10
181.500000
20
191.000000
11
181.500000
21
217.200000
0
LINE
5
1fc
100
AcDbEntity
8
1
100
AcDbLine
6
CONTINUOUS
62
5
10
138.500000
20
191.000000
11
138.500000
21
217.200000
0
POLYLINE
5
1fd
100
AcDbEntity
8
1
6
CONTINUOUS
62
5
100
AcDb2dPolyline
66
1
10
0.0
20
0.0
30
0.0
70
0
0
VERTEX
5
1fe
100
AcDbEntity
8
1
100
AcDbVertex
100
AcDb2dVertex
62
5
10
160.000000
20
215.200000
0
VERTEX
5
1ff
100
AcDbEntity
8
1
100
AcDbVertex
100
AcDb2dVertex
62
5
10
138.500000
20
215.200000
0
VERTEX
5
200
100
AcDbEntity
8
1
100
AcDbVertex
100
AcDb2dVertex
62
5
10
144.500000
20
216.200000
0
VERTEX
5
201
100
AcDbEntity
8
1
100
AcDbVertex
100
AcDb2dVertex
62
5
10
144.500000
20
214.200000
0
VERTEX
5
202
100
AcDbEntity
8
1
100
AcDbVertex
100
AcDb2dVertex
62
5
10
138.500000
20
215.200000
0
VERTEX
5
203
100
AcDbEntity
8
1
100
AcDbVertex
100
AcDb2dVertex
62
5
10
144.500000
20
215.700000
0
VERTEX
5
204
100
AcDbEntity
8
1
100
AcDbVertex
100
AcDb2dVertex
62
5
10
144.500000
20
214.700000
0
VERTEX
5
205
100
AcDbEntity
8
1
100
AcDbVertex
100
AcDb2dVertex
62
5
10
138.500000
20
215.200000
0
SEQEND
5
206
100
AcDbEntity
8
1
0
POLYLINE
5
207
100
AcDbEntity
8
1
6
CONTINUOUS
62
5
100
AcDb2dPolyline
66
1
10
0.0
20
0.0
30
0.0
70
0
0
VERTEX
5
208
100
AcDbEntity
8
1
100
AcDbVertex
100
AcDb2dVertex
62
5
10
160.000000
20
215.200000
0
VERTEX
5
209
100
AcDbEntity
8
1
100
AcDbVertex
100
AcDb2dVertex
62
5
10
181.500000
20
215.200000
0
VERTEX
5
20a
100
AcDbEntity
8
1
100
AcDbVertex
100
AcDb2dVertex
62
5
10
175.500000
20
214.200000
0
VERTEX
5
20b
100
AcDbEntity
8
1
100
AcDbVertex
100
AcDb2dVertex
62
5
10
175.500000
20
216.200000
0
VERTEX
5
20c
100
AcDbEntity
8
1
100
AcDbVertex
100
AcDb2dVertex
62
5
10
181.500000
20
215.200000
0
VERTEX
5
20d
100
AcDbEntity
8
1
100
AcDbVertex
100
AcDb2dVertex
62
5
10
175.500000
20
214.700000
0
VERTEX
5
20e
100
AcDbEntity
8
1
100
AcDbVertex
100
AcDb2dVertex
62
5
10
175.500000
20
215.700000
0
VERTEX
5
20f
100
AcDbEntity
8
1
100
AcDbVertex
100
AcDb2dVertex
62
5
10
181.500000
20
215.200000
0
SEQEND
5
210
100
AcDbEntity
8
1
0
ARC
5
211
100
AcDbEntity
8
1
100
AcDbCircle
6
CONTINUOUS
62
5
10
141.500000
20
178.800000
40
1.000000
100
AcDbArc
50
179.999998
51
-89.999999
0
LINE
5
212
100
AcDbEntity
8
1
100
AcDbLine
6
CONTINUOUS
62
5
10
140.500000
20
178.800000
11
140.500000
21
189.200000
0
ARC
5
213
100
AcDbEntity
8
1
100
AcDbCircle
6
CONTINUOUS
62
5
10
141.500000
20
189.200000
40
1.000000
100
AcDbArc
50
89.999999
51
179.999998
0
LINE
5
214
100
AcDbEntity
8
1
100
AcDbLine
6
CONTINUOUS
62
5
10
141.500000
20
190.200000
11
178.500000
21
190.200000
0
ARC
5
215
100
AcDbEntity
8
1
100
AcDbCircle
6
CONTINUOUS
62
5
10
178.500000
20
189.200000
40
1.000000
100
AcDbArc
50
0.000000
51
89.999999
0
LINE
5
216
100
AcDbEntity
8
1
100
AcDbLine
6
CONTINUOUS
62
5
10
179.500000
20
189.200000
11
179.500000
21
178.800000
0
ARC
5
217
100
AcDbEntity
8
1
100
AcDbCircle
6
CONTINUOUS
62
5
10
178.500000
20
178.800000
40
1.000000
100
AcDbArc
50
-89.999999
51
0.000000
0
LINE
5
218
100
AcDbEntity
8
1
100
AcDbLine
6
CONTINUOUS
62
5
10
178.500000
20
177.800000
11
141.500000
21
177.800000
0
POLYLINE
5
219
100
AcDbEntity
8
1
6
DOT2
62
5
100
AcDb2dPolyline
66
1
10
0.0
20
0.0
30
0.0
70
0
0
VERTEX
5
21a
100
AcDbEntity
8
1
100
AcDbVertex
100
AcDb2dVertex
62
5
10
164.375000
20
89.487500
0
VERTEX
5
21b
100
AcDbEntity
8
1
100
AcDbVertex
100
AcDb2dVertex
62
5
10
164.375000
20
89.487500
0
VERTEX
5
21c
100
AcDbEntity
8
1
100
AcDbVertex
100
AcDb2dVertex
62
5
10
163.125000
20
89.175000
0
VERTEX
5
21d
100
AcDbEntity
8
1
100
AcDbVertex
100
AcDb2dVertex
62
5
10
162.187500
20
89.175000
0
VERTEX
5
21e
100
AcDbEntity
8
1
100
AcDbVertex
100
AcDb2dVertex
62
5
10
161.562500
20
89.487500
0
VERTEX
5
21f
100
AcDbEntity
8
1
100
AcDbVertex
100
AcDb2dVertex
62
5
10
161.250000
20
90.425000
0
VERTEX
5
220
100
AcDbEntity
8
1
100
AcDbVertex
100
AcDb2dVertex
62
5
10
161.250000
20
91.987500
0
VERTEX
5
221
100
AcDbEntity
8
1
100
AcDbVertex
100
AcDb2dVertex
62
5
10
161.562500
20
92.925000
0
VERTEX
5
222
100
AcDbEntity
8
1
100
AcDbVertex
100
AcDb2dVertex
62
5
10
161.875000
20
93.237500
0
VERTEX
5
223
100
AcDbEntity
8
1
100
AcDbVertex
100
AcDb2dVertex
62
5
10
162.500000
20
93.550000
0
VERTEX
5
224
100
AcDbEntity
8
1
100
AcDbVertex
100
AcDb2dVertex
62
5
10
163.125000
20
93.550000
0
VERTEX
5
225
100
AcDbEntity
8
1
100
AcDbVertex
100
AcDb2dVertex
62
5
10
163.750000
20
93.237500
0
VERTEX
5
226
100
AcDbEntity
8
1
100
AcDbVertex
100
AcDb2dVertex
62
5
10
164.062500
20
92.925000
0
VERTEX
5
227
100
AcDbEntity
8
1
100
AcDbVertex
100
AcDb2dVertex
62
5
10
164.375000
20
91.987500
0
VERTEX
5
228
100
AcDbEntity
8
1
100
AcDbVertex
100
AcDb2dVertex
62
5
10
164.375000
20
88.550000
0
VERTEX
5
229
100
AcDbEntity
8
1
100
AcDbVertex
100
AcDb2dVertex
62
5
10
164.062500
20
86.987500
0
VERTEX
5
22a
100
AcDbEntity
8
1
100
AcDbVertex
100
AcDb2dVertex
62
5
10
163.437500
20
86.362500
0
VERTEX
5
22b
100
AcDbEntity
8
1
100
AcDbVertex
100
AcDb2dVertex
62
5
10
162.500000
20
86.050000
0
VERTEX
5
22c
100
AcDbEntity
8
1
100
AcDbVertex
100
AcDb2dVertex
62
5
10
161.875000
20
86.050000
0
SEQEND
5
22d
100
AcDbEntity
8
1
0
POLYLINE
5
22e
100
AcDbEntity
8
1
6
DOT2
62
5
100
AcDb2dPolyline
66
1
10
0.0
20
0.0
30
0.0
70
0
0
VERTEX
5
22f
100
AcDbEntity
8
1
100
AcDbVertex
100
AcDb2dVertex
62
5
10
156.250000
20
91.675000
0
VERTEX
5
230
100
AcDbEntity
8
1
100
AcDbVertex
100
AcDb2dVertex
62
5
10
156.562500
20
92.925000
0
VERTEX
5
231
100
AcDbEntity
8
1
100
AcDbVertex
100
AcDb2dVertex
62
5
10
157.187500
20
93.550000
0
VERTEX
5
232
100
AcDbEntity
8
1
100
AcDbVertex
100
AcDb2dVertex
62
5
10
158.125000
20
93.550000
0
VERTEX
5
233
100
AcDbEntity
8
1
100
AcDbVertex
100
AcDb2dVertex
62
5
10
158.750000
20
93.237500
0
VERTEX
5
234
100
AcDbEntity
8
1
100
AcDbVertex
100
AcDb2dVertex
62
5
10
159.062500
20
92.300000
0
VERTEX
5
235
100
AcDbEntity
8
1
100
AcDbVertex
100
AcDb2dVertex
62
5
10
159.062500
20
91.050000
0
VERTEX
5
236
100
AcDbEntity
8
1
100
AcDbVertex
100
AcDb2dVertex
62
5
10
158.750000
20
90.425000
0
VERTEX
5
237
100
AcDbEntity
8
1
100
AcDbVertex
100
AcDb2dVertex
62
5
10
158.125000
20
89.800000
0
VERTEX
5
238
100
AcDbEntity
8
1
100
AcDbVertex
100
AcDb2dVertex
62
5
10
157.187500
20
89.800000
0
SEQEND
5
239
100
AcDbEntity
8
1
0
POLYLINE
5
23a
100
AcDbEntity
8
1
6
DOT2
62
5
100
AcDb2dPolyline
66
1
10
0.0
20
0.0
30
0.0
70
0
0
VERTEX
5
23b
100
AcDbEntity
8
1
100
AcDbVertex
100
AcDb2dVertex
62
5
10
158.125000
20
89.800000
0
VERTEX
5
23c
100
AcDbEntity
8
1
100
AcDbVertex
100
AcDb2dVertex
62
5
10
159.062500
20
89.175000
0
VERTEX
5
23d
100
AcDbEntity
8
1
100
AcDbVertex
100
AcDb2dVertex
62
5
10
159.375000
20
88.237500
0
VERTEX
5
23e
100
AcDbEntity
8
1
100
AcDbVertex
100
AcDb2dVertex
62
5
10
159.375000
20
87.300000
0
VERTEX
5
23f
100
AcDbEntity
8
1
100
AcDbVertex
100
AcDb2dVertex
62
5
10
159.062500
20
86.675000
0
VERTEX
5
240
100
AcDbEntity
8
1
100
AcDbVertex
100
AcDb2dVertex
62
5
10
158.125000
20
86.050000
0
VERTEX
5
241
100
AcDbEntity
8
1
100
AcDbVertex
100
AcDb2dVertex
62
5
10
157.187500
20
86.050000
0
VERTEX
5
242
100
AcDbEntity
8
1
100
AcDbVertex
100
AcDb2dVertex
62
5
10
156.562500
20
86.362500
0
VERTEX
5
243
100
AcDbEntity
8
1
100
AcDbVertex
100
AcDb2dVertex
62
5
10
155.937500
20
87.300000
0
SEQEND
5
244
100
AcDbEntity
8
1
0
POLYLINE
5
245
100
AcDbEntity
8
1
6
DOT2
62
5
100
AcDb2dPolyline
66
1
10
0.0
20
0.0
30
0.0
70
0
0
VERTEX
5
246
100
AcDbEntity
8
1
100
AcDbVertex
100
AcDb2dVertex
62
5
10
105.375000
20
134.675000
0
VERTEX
5
247
100
AcDbEntity
8
1
100
AcDbVertex
100
AcDb2dVertex
62
5
10
104.750000
20
135.612500
0
VERTEX
5
248
100
AcDbEntity
8
1
100
AcDbVertex
100
AcDb2dVertex
62
5
10
112.250000
20
135.612500
0
SEQEND
5
249
100
AcDbEntity
8
1
0
LINE
5
24a
100
AcDbEntity
8
1
100
AcDbLine
6
DOT2
62
5
10
112.250000
20
134.987500
11
112.250000
21
136.237500
0
POLYLINE
5
24b
100
AcDbEntity
8
1
6
DOT2
62
5
100
AcDb2dPolyline
66
1
10
0.0
20
0.0
30
0.0
70
0
0
VERTEX
5
24c
100
AcDbEntity
8
1
100
AcDbVertex
100
AcDb2dVertex
62
5
10
106.625000
20
139.050000
0
VERTEX
5
24d
100
AcDbEntity
8
1
100
AcDbVertex
100
AcDb2dVertex
62
5
10
105.375000
20
139.362500
0
VERTEX
5
24e
100
AcDbEntity
8
1
100
AcDbVertex
100
AcDb2dVertex
62
5
10
104.750000
20
139.987500
0
VERTEX
5
24f
100
AcDbEntity
8
1
100
AcDbVertex
100
AcDb2dVertex
62
5
10
104.750000
20
140.925000
0
VERTEX
5
250
100
AcDbEntity
8
1
100
AcDbVertex
100
AcDb2dVertex
62
5
10
105.062500
20
141.550000
0
VERTEX
5
251
100
AcDbEntity
8
1
100
AcDbVertex
100
AcDb2dVertex
62
5
10
106.000000
20
141.862500
0
VERTEX
5
252
100
AcDbEntity
8
1
100
AcDbVertex
100
AcDb2dVertex
62
5
10
107.250000
20
141.862500
0
VERTEX
5
253
100
AcDbEntity
8
1
100
AcDbVertex
100
AcDb2dVertex
62
5
10
107.875000
20
141.550000
0
VERTEX
5
254
100
AcDbEntity
8
1
100
AcDbVertex
100
AcDb2dVertex
62
5
10
108.500000
20
140.925000
0
VERTEX
5
255
100
AcDbEntity
8
1
100
AcDbVertex
100
AcDb2dVertex
62
5
10
108.500000
20
139.987500
0
SEQEND
5
256
100
AcDbEntity
8
1
0
POLYLINE
5
257
100
AcDbEntity
8
1
6
DOT2
62
5
100
AcDb2dPolyline
66
1
10
0.0
20
0.0
30
0.0
70
0
0
VERTEX
5
258
100
AcDbEntity
8
1
100
AcDbVertex
100
AcDb2dVertex
62
5
10
108.500000
20
140.925000
0
VERTEX
5
259
100
AcDbEntity
8
1
100
AcDbVertex
100
AcDb2dVertex
62
5
10
109.125000
20
141.862500
0
VERTEX
5
25a
100
AcDbEntity
8
1
100
AcDbVertex
100
AcDb2dVertex
62
5
10
110.062500
20
142.175000
0
VERTEX
5
25b
100
AcDbEntity
8
1
100
AcDbVertex
100
AcDb2dVertex
62
5
10
111.000000
20
142.175000
0
VERTEX
5
25c
100
AcDbEntity
8
1
100
AcDbVertex
100
AcDb2dVertex
62
5
10
111.625000
20
141.862500
0
VERTEX
5
25d
100
AcDbEntity
8
1
100
AcDbVertex
100
AcDb2dVertex
62
5
10
112.250000
20
140.925000
0
VERTEX
5
25e
100
AcDbEntity
8
1
100
AcDbVertex
100
AcDb2dVertex
62
5
10
112.250000
20
139.987500
0
VERTEX
5
25f
100
AcDbEntity
8
1
100
AcDbVertex
100
AcDb2dVertex
62
5
10
111.937500
20
139.362500
0
VERTEX
5
260
100
AcDbEntity
8
1
100
AcDbVertex
100
AcDb2dVertex
62
5
10
111.000000
20
138.737500
0
SEQEND
5
261
100
AcDbEntity
8
1
0
LINE
5
262
100
AcDbEntity
8
1
100
AcDbLine
6
CONTINUOUS
62
5
10
144.000000
20
122.800000
11
111.500000
21
122.800000
0
LINE
5
263
100
AcDbEntity
8
1
100
AcDbLine
6
CONTINUOUS
62
5
10
139.000000
20
109.800000
11
111.500000
21
109.800000
0
POLYLINE
5
264
100
AcDbEntity
8
1
6
CONTINUOUS
62
5
100
AcDb2dPolyline
66
1
10
0.0
20
0.0
30
0.0
70
0
0
VERTEX
5
265
100
AcDbEntity
8
1
100
AcDbVertex
100
AcDb2dVertex
62
5
10
113.500000
20
144.050000
0
VERTEX
5
266
100
AcDbEntity
8
1
100
AcDbVertex
100
AcDb2dVertex
62
5
10
113.500000
20
122.800000
0
VERTEX
5
267
100
AcDbEntity
8
1
100
AcDbVertex
100
AcDb2dVertex
62
5
10
112.500000
20
128.800000
0
VERTEX
5
268
100
AcDbEntity
8
1
100
AcDbVertex
100
AcDb2dVertex
62
5
10
114.500000
20
128.800000
0
VERTEX
5
269
100
AcDbEntity
8
1
100
AcDbVertex
100
AcDb2dVertex
62
5
10
113.500000
20
122.800000
0
VERTEX
5
26a
100
AcDbEntity
8
1
100
AcDbVertex
100
AcDb2dVertex
62
5
10
113.000000
20
128.800000
0
VERTEX
5
26b
100
AcDbEntity
8
1
100
AcDbVertex
100
AcDb2dVertex
62
5
10
114.000000
20
128.800000
0
VERTEX
5
26c
100
AcDbEntity
8
1
100
AcDbVertex
100
AcDb2dVertex
62
5
10
113.500000
20
122.800000
0
SEQEND
5
26d
100
AcDbEntity
8
1
0
LINE
5
26e
100
AcDbEntity
8
1
100
AcDbLine
6
CONTINUOUS
62
5
10
113.500000
20
109.800000
11
113.500000
21
122.800000
0
POLYLINE
5
26f
100
AcDbEntity
8
1
6
CONTINUOUS
62
5
100
AcDb2dPolyline
66
1
10
0.0
20
0.0
30
0.0
70
0
0
VERTEX
5
270
100
AcDbEntity
8
1
100
AcDbVertex
100
AcDb2dVertex
62
5
10
113.500000
20
100.800000
0
VERTEX
5
271
100
AcDbEntity
8
1
100
AcDbVertex
100
AcDb2dVertex
62
5
10
113.500000
20
109.800000
0
VERTEX
5
272
100
AcDbEntity
8
1
100
AcDbVertex
100
AcDb2dVertex
62
5
10
114.500000
20
103.800000
0
VERTEX
5
273
100
AcDbEntity
8
1
100
AcDbVertex
100
AcDb2dVertex
62
5
10
112.500000
20
103.800000
0
VERTEX
5
274
100
AcDbEntity
8
1
100
AcDbVertex
100
AcDb2dVertex
62
5
10
113.500000
20
109.800000
0
VERTEX
5
275
100
AcDbEntity
8
1
100
AcDbVertex
100
AcDb2dVertex
62
5
10
114.000000
20
103.800000
0
VERTEX
5
276
100
AcDbEntity
8
1
100
AcDbVertex
100
AcDb2dVertex
62
5
10
113.000000
20
103.800000
0
VERTEX
5
277
100
AcDbEntity
8
1
100
AcDbVertex
100
AcDb2dVertex
62
5
10
113.500000
20
109.800000
0
SEQEND
5
278
100
AcDbEntity
8
1
0
POLYLINE
5
279
100
AcDbEntity
8
1
6
CONTINUOUS
62
5
100
AcDb2dPolyline
66
1
10
0.0
20
0.0
30
0.0
70
0
0
VERTEX
5
27a
100
AcDbEntity
8
1
100
AcDbVertex
100
AcDb2dVertex
62
5
10
122.500000
20
33.875000
0
VERTEX
5
27b
100
AcDbEntity
8
1
100
AcDbVertex
100
AcDb2dVertex
62
5
10
122.812500
20
35.125000
0
VERTEX
5
27c
100
AcDbEntity
8
1
100
AcDbVertex
100
AcDb2dVertex
62
5
10
123.437500
20
35.750000
0
VERTEX
5
27d
100
AcDbEntity
8
1
100
AcDbVertex
100
AcDb2dVertex
62
5
10
124.375000
20
35.750000
0
VERTEX
5
27e
100
AcDbEntity
8
1
100
AcDbVertex
100
AcDb2dVertex
62
5
10
125.000000
20
35.437500
0
VERTEX
5
27f
100
AcDbEntity
8
1
100
AcDbVertex
100
AcDb2dVertex
62
5
10
125.312500
20
34.500000
0
VERTEX
5
280
100
AcDbEntity
8
1
100
AcDbVertex
100
AcDb2dVertex
62
5
10
125.312500
20
33.250000
0
VERTEX
5
281
100
AcDbEntity
8
1
100
AcDbVertex
100
AcDb2dVertex
62
5
10
125.000000
20
32.625000
0
VERTEX
5
282
100
AcDbEntity
8
1
100
AcDbVertex
100
AcDb2dVertex
62
5
10
124.375000
20
32.000000
0
VERTEX
5
283
100
AcDbEntity
8
1
100
AcDbVertex
100
AcDb2dVertex
62
5
10
123.437500
20
32.000000
0
SEQEND
5
284
100
AcDbEntity
8
1
0
POLYLINE
5
285
100
AcDbEntity
8
1
6
CONTINUOUS
62
5
100
AcDb2dPolyline
66
1
10
0.0
20
0.0
30
0.0
70
0
0
VERTEX
5
286
100
AcDbEntity
8
1
100
AcDbVertex
100
AcDb2dVertex
62
5
10
124.375000
20
32.000000
0
VERTEX
5
287
100
AcDbEntity
8
1
100
AcDbVertex
100
AcDb2dVertex
62
5
10
125.312500
20
31.375000
0
VERTEX
5
288
100
AcDbEntity
8
1
100
AcDbVertex
100
AcDb2dVertex
62
5
10
125.625000
20
30.437500
0
VERTEX
5
289
100
AcDbEntity
8
1
100
AcDbVertex
100
AcDb2dVertex
62
5
10
125.625000
20
29.500000
0
VERTEX
5
28a
100
AcDbEntity
8
1
100
AcDbVertex
100
AcDb2dVertex
62
5
10
125.312500
20
28.875000
0
VERTEX
5
28b
100
AcDbEntity
8
1
100
AcDbVertex
100
AcDb2dVertex
62
5
10
124.375000
20
28.250000
0
VERTEX
5
28c
100
AcDbEntity
8
1
100
AcDbVertex
100
AcDb2dVertex
62
5
10
123.437500
20
28.250000
0
VERTEX
5
28d
100
AcDbEntity
8
1
100
AcDbVertex
100
AcDb2dVertex
62
5
10
122.812500
20
28.562500
0
VERTEX
5
28e
100
AcDbEntity
8
1
100
AcDbVertex
100
AcDb2dVertex
62
5
10
122.187500
20
29.500000
0
SEQEND
5
28f
100
AcDbEntity
8
1
0
POLYLINE
5
290
100
AcDbEntity
8
1
6
CONTINUOUS
62
5
100
AcDb2dPolyline
66
1
10
0.0
20
0.0
30
0.0
70
1
0
VERTEX
5
291
100
AcDbEntity
8
1
100
AcDbVertex
100
AcDb2dVertex
62
5
10
128.750000
20
35.750000
0
VERTEX
5
292
100
AcDbEntity
8
1
100
AcDbVertex
100
AcDb2dVertex
62
5
10
129.375000
20
35.750000
0
VERTEX
5
293
100
AcDbEntity
8
1
100
AcDbVertex
100
AcDb2dVertex
62
5
10
129.687500
20
35.437500
0
VERTEX
5
294
100
AcDbEntity
8
1
100
AcDbVertex
100
AcDb2dVertex
62
5
10
130.312500
20
34.187500
0
VERTEX
5
295
100
AcDbEntity
8
1
100
AcDbVertex
100
AcDb2dVertex
62
5
10
130.625000
20
32.937500
0
VERTEX
5
296
100
AcDbEntity
8
1
100
AcDbVertex
100
AcDb2dVertex
62
5
10
130.625000
20
31.062500
0
VERTEX
5
297
100
AcDbEntity
8
1
100
AcDbVertex
100
AcDb2dVertex
62
5
10
130.312500
20
29.812500
0
VERTEX
5
298
100
AcDbEntity
8
1
100
AcDbVertex
100
AcDb2dVertex
62
5
10
129.687500
20
28.562500
0
VERTEX
5
299
100
AcDbEntity
8
1
100
AcDbVertex
100
AcDb2dVertex
62
5
10
129.375000
20
28.250000
0
VERTEX
5
29a
100
AcDbEntity
8
1
100
AcDbVertex
100
AcDb2dVertex
62
5
10
128.750000
20
28.250000
0
VERTEX
5
29b
100
AcDbEntity
8
1
100
AcDbVertex
100
AcDb2dVertex
62
5
10
128.437500
20
28.562500
0
VERTEX
5
29c
100
AcDbEntity
8
1
100
AcDbVertex
100
AcDb2dVertex
62
5
10
127.812500
20
29.812500
0
VERTEX
5
29d
100
AcDbEntity
8
1
100
AcDbVertex
100
AcDb2dVertex
62
5
10
127.500000
20
31.062500
0
VERTEX
5
29e
100
AcDbEntity
8
1
100
AcDbVertex
100
AcDb2dVertex
62
5
10
127.500000
20
32.937500
0
VERTEX
5
29f
100
AcDbEntity
8
1
100
AcDbVertex
100
AcDb2dVertex
62
5
10
127.812500
20
34.187500
0
VERTEX
5
2a0
100
AcDbEntity
8
1
100
AcDbVertex
100
AcDb2dVertex
62
5
10
128.437500
20
35.437500
0
VERTEX
5
2a1
100
AcDbEntity
8
1
100
AcDbVertex
100
AcDb2dVertex
62
5
10
128.750000
20
35.750000
0
SEQEND
5
2a2
100
AcDbEntity
8
1
0
POLYLINE
5
2a3
100
AcDbEntity
8
1
6
CONTINUOUS
62
5
100
AcDb2dPolyline
66
1
10
0.0
20
0.0
30
0.0
70
1
0
VERTEX
5
2a4
100
AcDbEntity
8
1
100
AcDbVertex
100
AcDb2dVertex
62
5
10
133.750000
20
35.750000
0
VERTEX
5
2a5
100
AcDbEntity
8
1
100
AcDbVertex
100
AcDb2dVertex
62
5
10
134.375000
20
35.750000
0
VERTEX
5
2a6
100
AcDbEntity
8
1
100
AcDbVertex
100
AcDb2dVertex
62
5
10
134.687500
20
35.437500
0
VERTEX
5
2a7
100
AcDbEntity
8
1
100
AcDbVertex
100
AcDb2dVertex
62
5
10
135.312500
20
34.187500
0
VERTEX
5
2a8
100
AcDbEntity
8
1
100
AcDbVertex
100
AcDb2dVertex
62
5
10
135.625000
20
32.937500
0
VERTEX
5
2a9
100
AcDbEntity
8
1
100
AcDbVertex
100
AcDb2dVertex
62
5
10
135.625000
20
31.062500
0
VERTEX
5
2aa
100
AcDbEntity
8
1
100
AcDbVertex
100
AcDb2dVertex
62
5
10
135.312500
20
29.812500
0
VERTEX
5
2ab
100
AcDbEntity
8
1
100
AcDbVertex
100
AcDb2dVertex
62
5
10
134.687500
20
28.562500
0
VERTEX
5
2ac
100
AcDbEntity
8
1
100
AcDbVertex
100
AcDb2dVertex
62
5
10
134.375000
20
28.250000
0
VERTEX
5
2ad
100
AcDbEntity
8
1
100
AcDbVertex
100
AcDb2dVertex
62
5
10
133.750000
20
28.250000
0
VERTEX
5
2ae
100
AcDbEntity
8
1
100
AcDbVertex
100
AcDb2dVertex
62
5
10
133.437500
20
28.562500
0
VERTEX
5
2af
100
AcDbEntity
8
1
100
AcDbVertex
100
AcDb2dVertex
62
5
10
132.812500
20
29.812500
0
VERTEX
5
2b0
100
AcDbEntity
8
1
100
AcDbVertex
100
AcDb2dVertex
62
5
10
132.500000
20
31.062500
0
VERTEX
5
2b1
100
AcDbEntity
8
1
100
AcDbVertex
100
AcDb2dVertex
62
5
10
132.500000
20
32.937500
0
VERTEX
5
2b2
100
AcDbEntity
8
1
100
AcDbVertex
100
AcDb2dVertex
62
5
10
132.812500
20
34.187500
0
VERTEX
5
2b3
100
AcDbEntity
8
1
100
AcDbVertex
100
AcDb2dVertex
62
5
10
133.437500
20
35.437500
0
VERTEX
5
2b4
100
AcDbEntity
8
1
100
AcDbVertex
100
AcDb2dVertex
62
5
10
133.750000
20
35.750000
0
SEQEND
5
2b5
100
AcDbEntity
8
1
0
POLYLINE
5
2b6
100
AcDbEntity
8
1
6
CONTINUOUS
62
5
100
AcDb2dPolyline
66
1
10
0.0
20
0.0
30
0.0
70
0
0
VERTEX
5
2b7
100
AcDbEntity
8
1
100
AcDbVertex
100
AcDb2dVertex
62
5
10
137.500000
20
35.750000
0
VERTEX
5
2b8
100
AcDbEntity
8
1
100
AcDbVertex
100
AcDb2dVertex
62
5
10
139.062500
20
28.250000
0
VERTEX
5
2b9
100
AcDbEntity
8
1
100
AcDbVertex
100
AcDb2dVertex
62
5
10
140.625000
20
35.750000
0
SEQEND
5
2ba
100
AcDbEntity
8
1
0
POLYLINE
5
2bb
100
AcDbEntity
8
1
6
CONTINUOUS
62
5
100
AcDb2dPolyline
66
1
10
0.0
20
0.0
30
0.0
70
0
0
VERTEX
5
2bc
100
AcDbEntity
8
1
100
AcDbVertex
100
AcDb2dVertex
62
5
10
102.500000
20
33.562500
0
VERTEX
5
2bd
100
AcDbEntity
8
1
100
AcDbVertex
100
AcDb2dVertex
62
5
10
102.812500
20
35.125000
0
VERTEX
5
2be
100
AcDbEntity
8
1
100
AcDbVertex
100
AcDb2dVertex
62
5
10
103.750000
20
35.750000
0
VERTEX
5
2bf
100
AcDbEntity
8
1
100
AcDbVertex
100
AcDb2dVertex
62
5
10
104.687500
20
35.750000
0
VERTEX
5
2c0
100
AcDbEntity
8
1
100
AcDbVertex
100
AcDb2dVertex
62
5
10
105.312500
20
35.437500
0
VERTEX
5
2c1
100
AcDbEntity
8
1
100
AcDbVertex
100
AcDb2dVertex
62
5
10
105.625000
20
34.500000
0
VERTEX
5
2c2
100
AcDbEntity
8
1
100
AcDbVertex
100
AcDb2dVertex
62
5
10
105.625000
20
33.562500
0
VERTEX
5
2c3
100
AcDbEntity
8
1
100
AcDbVertex
100
AcDb2dVertex
62
5
10
105.312500
20
32.625000
0
VERTEX
5
2c4
100
AcDbEntity
8
1
100
AcDbVertex
100
AcDb2dVertex
62
5
10
102.500000
20
28.250000
0
VERTEX
5
2c5
100
AcDbEntity
8
1
100
AcDbVertex
100
AcDb2dVertex
62
5
10
105.625000
20
28.250000
0
VERTEX
5
2c6
100
AcDbEntity
8
1
100
AcDbVertex
100
AcDb2dVertex
62
5
10
105.625000
20
29.187500
0
SEQEND
5
2c7
100
AcDbEntity
8
1
0
POLYLINE
5
2c8
100
AcDbEntity
8
1
6
CONTINUOUS
62
5
100
AcDb2dPolyline
66
1
10
0.0
20
0.0
30
0.0
70
1
0
VERTEX
5
2c9
100
AcDbEntity
8
1
100
AcDbVertex
100
AcDb2dVertex
62
5
10
108.750000
20
35.750000
0
VERTEX
5
2ca
100
AcDbEntity
8
1
100
AcDbVertex
100
AcDb2dVertex
62
5
10
109.375000
20
35.750000
0
VERTEX
5
2cb
100
AcDbEntity
8
1
100
AcDbVertex
100
AcDb2dVertex
62
5
10
109.687500
20
35.437500
0
VERTEX
5
2cc
100
AcDbEntity
8
1
100
AcDbVertex
100
AcDb2dVertex
62
5
10
110.312500
20
34.187500
0
VERTEX
5
2cd
100
AcDbEntity
8
1
100
AcDbVertex
100
AcDb2dVertex
62
5
10
110.625000
20
32.937500
0
VERTEX
5
2ce
100
AcDbEntity
8
1
100
AcDbVertex
100
AcDb2dVertex
62
5
10
110.625000
20
31.062500
0
VERTEX
5
2cf
100
AcDbEntity
8
1
100
AcDbVertex
100
AcDb2dVertex
62
5
10
110.312500
20
29.812500
0
VERTEX
5
2d0
100
AcDbEntity
8
1
100
AcDbVertex
100
AcDb2dVertex
62
5
10
109.687500
20
28.562500
0
VERTEX
5
2d1
100
AcDbEntity
8
1
100
AcDbVertex
100
AcDb2dVertex
62
5
10
109.375000
20
28.250000
0
VERTEX
5
2d2
100
AcDbEntity
8
1
100
AcDbVertex
100
AcDb2dVertex
62
5
10
108.750000
20
28.250000
0
VERTEX
5
2d3
100
AcDbEntity
8
1
100
AcDbVertex
100
AcDb2dVertex
62
5
10
108.437500
20
28.562500
0
VERTEX
5
2d4
100
AcDbEntity
8
1
100
AcDbVertex
100
AcDb2dVertex
62
5
10
107.812500
20
29.812500
0
VERTEX
5
2d5
100
AcDbEntity
8
1
100
AcDbVertex
100
AcDb2dVertex
62
5
10
107.500000
20
31.062500
0
VERTEX
5
2d6
100
AcDbEntity
8
1
100
AcDbVertex
100
AcDb2dVertex
62
5
10
107.500000
20
32.937500
0
VERTEX
5
2d7
100
AcDbEntity
8
1
100
AcDbVertex
100
AcDb2dVertex
62
5
10
107.812500
20
34.187500
0
VERTEX
5
2d8
100
AcDbEntity
8
1
100
AcDbVertex
100
AcDb2dVertex
62
5
10
108.437500
20
35.437500
0
VERTEX
5
2d9
100
AcDbEntity
8
1
100
AcDbVertex
100
AcDb2dVertex
62
5
10
108.750000
20
35.750000
0
SEQEND
5
2da
100
AcDbEntity
8
1
0
POLYLINE
5
2db
100
AcDbEntity
8
1
6
CONTINUOUS
62
5
100
AcDb2dPolyline
66
1
10
0.0
20
0.0
30
0.0
70
0
0
VERTEX
5
2dc
100
AcDbEntity
8
1
100
AcDbVertex
100
AcDb2dVertex
62
5
10
112.500000
20
28.250000
0
VERTEX
5
2dd
100
AcDbEntity
8
1
100
AcDbVertex
100
AcDb2dVertex
62
5
10
114.062500
20
35.750000
0
VERTEX
5
2de
100
AcDbEntity
8
1
100
AcDbVertex
100
AcDb2dVertex
62
5
10
115.625000
20
28.250000
0
SEQEND
5
2df
100
AcDbEntity
8
1
0
LINE
5
2e0
100
AcDbEntity
8
1
100
AcDbLine
6
CONTINUOUS
62
5
10
113.125000
20
30.750000
11
115.000000
21
30.750000
0
LINE
5
2e1
100
AcDbEntity
8
1
100
AcDbLine
6
CONTINUOUS
62
5
10
117.500000
20
32.000000
11
120.625000
21
32.000000
0
LINE
5
2e2
100
AcDbEntity
8
1
100
AcDbLine
6
CONTINUOUS
62
5
10
90.000000
20
44.000000
11
90.000000
21
20.000000
0
LINE
5
2e3
100
AcDbEntity
8
1
100
AcDbLine
6
CONTINUOUS
62
5
10
70.625000
20
34.187500
11
73.750000
21
34.187500
0
LINE
5
2e4
100
AcDbEntity
8
1
100
AcDbLine
6
CONTINUOUS
62
5
10
72.500000
20
36.375000
11
72.500000
21
27.625000
0
POLYLINE
5
2e5
100
AcDbEntity
8
1
6
CONTINUOUS
62
5
100
AcDb2dPolyline
66
1
10
0.0
20
0.0
30
0.0
70
0
0
VERTEX
5
2e6
100
AcDbEntity
8
1
100
AcDbVertex
100
AcDb2dVertex
62
5
10
72.500000
20
34.187500
0
VERTEX
5
2e7
100
AcDbEntity
8
1
100
AcDbVertex
100
AcDb2dVertex
62
5
10
71.562500
20
32.000000
0
VERTEX
5
2e8
100
AcDbEntity
8
1
100
AcDbVertex
100
AcDb2dVertex
62
5
10
70.625000
20
30.750000
0
SEQEND
5
2e9
100
AcDbEntity
8
1
0
LINE
5
2ea
100
AcDbEntity
8
1
100
AcDbLine
6
CONTINUOUS
62
5
10
72.500000
20
33.250000
11
73.437500
21
32.000000
0
POLYLINE
5
2eb
100
AcDbEntity
8
1
6
CONTINUOUS
62
5
100
AcDb2dPolyline
66
1
10
0.0
20
0.0
30
0.0
70
0
0
VERTEX
5
2ec
100
AcDbEntity
8
1
100
AcDbVertex
100
AcDb2dVertex
62
5
10
75.937500
20
36.375000
0
VERTEX
5
2ed
100
AcDbEntity
8
1
100
AcDbVertex
100
AcDb2dVertex
62
5
10
75.312500
20
35.125000
0
VERTEX
5
2ee
100
AcDbEntity
8
1
100
AcDbVertex
100
AcDb2dVertex
62
5
10
73.750000
20
33.250000
0
SEQEND
5
2ef
100
AcDbEntity
8
1
0
POLYLINE
5
2f0
100
AcDbEntity
8
1
6
CONTINUOUS
62
5
100
AcDb2dPolyline
66
1
10
0.0
20
0.0
30
0.0
70
0
0
VERTEX
5
2f1
100
AcDbEntity
8
1
100
AcDbVertex
100
AcDb2dVertex
62
5
10
75.312500
20
35.125000
0
VERTEX
5
2f2
100
AcDbEntity
8
1
100
AcDbVertex
100
AcDb2dVertex
62
5
10
78.437500
20
35.125000
0
VERTEX
5
2f3
100
AcDbEntity
8
1
100
AcDbVertex
100
AcDb2dVertex
62
5
10
77.500000
20
33.562500
0
VERTEX
5
2f4
100
AcDbEntity
8
1
100
AcDbVertex
100
AcDb2dVertex
62
5
10
75.937500
20
32.000000
0
VERTEX
5
2f5
100
AcDbEntity
8
1
100
AcDbVertex
100
AcDb2dVertex
62
5
10
73.750000
20
30.750000
0
SEQEND
5
2f6
100
AcDbEntity
8
1
0
POLYLINE
5
2f7
100
AcDbEntity
8
1
6
CONTINUOUS
62
5
100
AcDb2dPolyline
66
1
10
0.0
20
0.0
30
0.0
70
0
0
VERTEX
5
2f8
100
AcDbEntity
8
1
100
AcDbVertex
100
AcDb2dVertex
62
5
10
75.312500
20
35.125000
0
VERTEX
5
2f9
100
AcDbEntity
8
1
100
AcDbVertex
100
AcDb2dVertex
62
5
10
75.937500
20
33.562500
0
VERTEX
5
2fa
100
AcDbEntity
8
1
100
AcDbVertex
100
AcDb2dVertex
62
5
10
77.187500
20
32.000000
0
VERTEX
5
2fb
100
AcDbEntity
8
1
100
AcDbVertex
100
AcDb2dVertex
62
5
10
78.125000
20
31.375000
0
VERTEX
5
2fc
100
AcDbEntity
8
1
100
AcDbVertex
100
AcDb2dVertex
62
5
10
79.375000
20
30.750000
0
SEQEND
5
2fd
100
AcDbEntity
8
1
0
POLYLINE
5
2fe
100
AcDbEntity
8
1
6
CONTINUOUS
62
5
100
AcDb2dPolyline
66
1
10
0.0
20
0.0
30
0.0
70
1
0
VERTEX
5
2ff
100
AcDbEntity
8
1
100
AcDbVertex
100
AcDb2dVertex
62
5
10
75.000000
20
30.750000
0
VERTEX
5
300
100
AcDbEntity
8
1
100
AcDbVertex
100
AcDb2dVertex
62
5
10
75.000000
20
27.937500
0
VERTEX
5
301
100
AcDbEntity
8
1
100
AcDbVertex
100
AcDb2dVertex
62
5
10
78.437500
20
27.937500
0
VERTEX
5
302
100
AcDbEntity
8
1
100
AcDbVertex
100
AcDb2dVertex
62
5
10
78.437500
20
30.750000
0
VERTEX
5
303
100
AcDbEntity
8
1
100
AcDbVertex
100
AcDb2dVertex
62
5
10
75.000000
20
30.750000
0
SEQEND
5
304
100
AcDbEntity
8
1
0
LINE
5
305
100
AcDbEntity
8
1
100
AcDbLine
6
CONTINUOUS
62
5
10
54.687500
20
36.375000
11
54.687500
21
35.437500
0
POLYLINE
5
306
100
AcDbEntity
8
1
6
CONTINUOUS
62
5
100
AcDb2dPolyline
66
1
10
0.0
20
0.0
30
0.0
70
0
0
VERTEX
5
307
100
AcDbEntity
8
1
100
AcDbVertex
100
AcDb2dVertex
62
5
10
50.937500
20
33.250000
0
VERTEX
5
308
100
AcDbEntity
8
1
100
AcDbVertex
100
AcDb2dVertex
62
5
10
50.937500
20
35.437500
0
VERTEX
5
309
100
AcDbEntity
8
1
100
AcDbVertex
100
AcDb2dVertex
62
5
10
58.437500
20
35.437500
0
VERTEX
5
30a
100
AcDbEntity
8
1
100
AcDbVertex
100
AcDb2dVertex
62
5
10
58.437500
20
33.250000
0
SEQEND
5
30b
100
AcDbEntity
8
1
0
LINE
5
30c
100
AcDbEntity
8
1
100
AcDbLine
6
CONTINUOUS
62
5
10
51.875000
20
33.562500
11
57.500000
21
33.562500
0
LINE
5
30d
100
AcDbEntity
8
1
100
AcDbLine
6
CONTINUOUS
62
5
10
54.687500
20
33.562500
11
54.687500
21
28.250000
0
LINE
5
30e
100
AcDbEntity
8
1
100
AcDbLine
6
CONTINUOUS
62
5
10
54.687500
20
31.062500
11
57.500000
21
31.062500
0
POLYLINE
5
30f
100
AcDbEntity
8
1
6
CONTINUOUS
62
5
100
AcDb2dPolyline
66
1
10
0.0
20
0.0
30
0.0
70
0
0
VERTEX
5
310
100
AcDbEntity
8
1
100
AcDbVertex
100
AcDb2dVertex
62
5
10
52.500000
20
31.687500
0
VERTEX
5
311
100
AcDbEntity
8
1
100
AcDbVertex
100
AcDb2dVertex
62
5
10
52.187500
20
29.812500
0
VERTEX
5
312
100
AcDbEntity
8
1
100
AcDbVertex
100
AcDb2dVertex
62
5
10
51.562500
20
28.562500
0
VERTEX
5
313
100
AcDbEntity
8
1
100
AcDbVertex
100
AcDb2dVertex
62
5
10
50.625000
20
27.625000
0
SEQEND
5
314
100
AcDbEntity
8
1
0
POLYLINE
5
315
100
AcDbEntity
8
1
6
CONTINUOUS
62
5
100
AcDb2dPolyline
66
1
10
0.0
20
0.0
30
0.0
70
0
0
VERTEX
5
316
100
AcDbEntity
8
1
100
AcDbVertex
100
AcDb2dVertex
62
5
10
52.187500
20
29.812500
0
VERTEX
5
317
100
AcDbEntity
8
1
100
AcDbVertex
100
AcDb2dVertex
62
5
10
54.687500
20
28.250000
0
VERTEX
5
318
100
AcDbEntity
8
1
100
AcDbVertex
100
AcDb2dVertex
62
5
10
55.937500
20
27.937500
0
VERTEX
5
319
100
AcDbEntity
8
1
100
AcDbVertex
100
AcDb2dVertex
62
5
10
59.062500
20
27.625000
0
SEQEND
5
31a
100
AcDbEntity
8
1
0
LINE
5
31b
100
AcDbEntity
8
1
100
AcDbLine
6
CONTINUOUS
62
5
10
140.500000
20
108.300000
11
140.500000
21
82.800000
0
LINE
5
31c
100
AcDbEntity
8
1
100
AcDbLine
6
CONTINUOUS
62
5
10
179.500000
20
108.300000
11
179.500000
21
82.800000
0
POLYLINE
5
31d
100
AcDbEntity
8
1
6
CONTINUOUS
62
5
100
AcDb2dPolyline
66
1
10
0.0
20
0.0
30
0.0
70
0
0
VERTEX
5
31e
100
AcDbEntity
8
1
100
AcDbVertex
100
AcDb2dVertex
62
5
10
160.000000
20
84.800000
0
VERTEX
5
31f
100
AcDbEntity
8
1
100
AcDbVertex
100
AcDb2dVertex
62
5
10
140.500000
20
84.800000
0
VERTEX
5
320
100
AcDbEntity
8
1
100
AcDbVertex
100
AcDb2dVertex
62
5
10
146.500000
20
85.800000
0
VERTEX
5
321
100
AcDbEntity
8
1
100
AcDbVertex
100
AcDb2dVertex
62
5
10
146.500000
20
83.800000
0
VERTEX
5
322
100
AcDbEntity
8
1
100
AcDbVertex
100
AcDb2dVertex
62
5
10
140.500000
20
84.800000
0
VERTEX
5
323
100
AcDbEntity
8
1
100
AcDbVertex
100
AcDb2dVertex
62
5
10
146.500000
20
85.300000
0
VERTEX
5
324
100
AcDbEntity
8
1
100
AcDbVertex
100
AcDb2dVertex
62
5
10
146.500000
20
84.300000
0
VERTEX
5
325
100
AcDbEntity
8
1
100
AcDbVertex
100
AcDb2dVertex
62
5
10
140.500000
20
84.800000
0
SEQEND
5
326
100
AcDbEntity
8
1
0
POLYLINE
5
327
100
AcDbEntity
8
1
6
CONTINUOUS
62
5
100
AcDb2dPolyline
66
1
10
0.0
20
0.0
30
0.0
70
0
0
VERTEX
5
328
100
AcDbEntity
8
1
100
AcDbVertex
100
AcDb2dVertex
62
5
10
160.000000
20
84.800000
0
VERTEX
5
329
100
AcDbEntity
8
1
100
AcDbVertex
100
AcDb2dVertex
62
5
10
179.500000
20
84.800000
0
VERTEX
5
32a
100
AcDbEntity
8
1
100
AcDbVertex
100
AcDb2dVertex
62
5
10
173.500000
20
83.800000
0
VERTEX
5
32b
100
AcDbEntity
8
1
100
AcDbVertex
100
AcDb2dVertex
62
5
10
173.500000
20
85.800000
0
VERTEX
5
32c
100
AcDbEntity
8
1
100
AcDbVertex
100
AcDb2dVertex
62
5
10
179.500000
20
84.800000
0
VERTEX
5
32d
100
AcDbEntity
8
1
100
AcDbVertex
100
AcDb2dVertex
62
5
10
173.500000
20
84.300000
0
VERTEX
5
32e
100
AcDbEntity
8
1
100
AcDbVertex
100
AcDb2dVertex
62
5
10
173.500000
20
85.300000
0
VERTEX
5
32f
100
AcDbEntity
8
1
100
AcDbVertex
100
AcDb2dVertex
62
5
10
179.500000
20
84.800000
0
SEQEND
5
330
100
AcDbEntity
8
1
0
ARC
5
331
100
AcDbEntity
8
1
100
AcDbCircle
6
CONTINUOUS
62
5
10
145.500000
20
122.300000
40
0.500000
100
AcDbArc
50
89.999999
51
179.999998
0
LINE
5
332
100
AcDbEntity
8
1
100
AcDbLine
6
CONTINUOUS
62
5
10
145.500000
20
122.800000
11
174.500000
21
122.800000
0
ARC
5
333
100
AcDbEntity
8
1
100
AcDbCircle
6
CONTINUOUS
62
5
10
174.500000
20
122.300000
40
0.500000
100
AcDbArc
50
0.000000
51
89.999999
0
POLYLINE
5
334
100
AcDbEntity
8
1
6
CONTINUOUS
62
5
100
AcDb2dPolyline
66
1
10
0.0
20
0.0
30
0.0
70
0
0
VERTEX
5
335
100
AcDbEntity
8
1
100
AcDbVertex
100
AcDb2dVertex
62
5
10
175.000000
20
122.300000
0
VERTEX
5
336
100
AcDbEntity
8
1
100
AcDbVertex
100
AcDb2dVertex
62
5
10
175.000000
20
120.800000
0
VERTEX
5
337
100
AcDbEntity
8
1
100
AcDbVertex
100
AcDb2dVertex
62
5
10
175.500000
20
120.300000
0
VERTEX
5
338
100
AcDbEntity
8
1
100
AcDbVertex
100
AcDb2dVertex
62
5
10
181.000000
20
120.300000
0
SEQEND
5
339
100
AcDbEntity
8
1
0
ARC
5
33a
100
AcDbEntity
8
1
100
AcDbCircle
6
CONTINUOUS
62
5
10
181.000000
20
119.800000
40
0.500000
100
AcDbArc
50
0.000000
51
89.999999
0
LINE
5
33b
100
AcDbEntity
8
1
100
AcDbLine
6
CONTINUOUS
62
5
10
181.500000
20
119.800000
11
181.500000
21
114.100000
0
ARC
5
33c
100
AcDbEntity
8
1
100
AcDbCircle
6
CONTINUOUS
62
5
10
181.000000
20
114.100000
40
0.500000
100
AcDbArc
50
-89.999999
51
0.000000
0
LINE
5
33d
100
AcDbEntity
8
1
100
AcDbLine
6
CONTINUOUS
62
5
10
181.000000
20
113.600000
11
180.000000
21
113.600000
0
ARC
5
33e
100
AcDbEntity
8
1
100
AcDbCircle
6
CONTINUOUS
62
5
10
180.000000
20
113.100000
40
0.500000
100
AcDbArc
50
89.999999
51
179.999998
0
POLYLINE
5
33f
100
AcDbEntity
8
1
6
CONTINUOUS
62
5
100
AcDb2dPolyline
66
1
10
0.0
20
0.0
30
0.0
70
0
0
VERTEX
5
340
100
AcDbEntity
8
1
100
AcDbVertex
100
AcDb2dVertex
62
5
10
179.500000
20
113.100000
0
VERTEX
5
341
100
AcDbEntity
8
1
100
AcDbVertex
100
AcDb2dVertex
62
5
10
179.500000
20
109.800000
0
VERTEX
5
342
100
AcDbEntity
8
1
100
AcDbVertex
100
AcDb2dVertex
62
5
10
140.500000
20
109.800000
0
VERTEX
5
343
100
AcDbEntity
8
1
100
AcDbVertex
100
AcDb2dVertex
62
5
10
140.500000
20
113.100000
0
SEQEND
5
344
100
AcDbEntity
8
1
0
ARC
5
345
100
AcDbEntity
8
1
100
AcDbCircle
6
CONTINUOUS
62
5
10
140.000000
20
113.100000
40
0.500000
100
AcDbArc
50
0.000000
51
89.999999
0
LINE
5
346
100
AcDbEntity
8
1
100
AcDbLine
6
CONTINUOUS
62
5
10
140.000000
20
113.600000
11
139.000000
21
113.600000
0
ARC
5
347
100
AcDbEntity
8
1
100
AcDbCircle
6
CONTINUOUS
62
5
10
139.000000
20
114.100000
40
0.500000
100
AcDbArc
50
179.999998
51
-89.999999
0
LINE
5
348
100
AcDbEntity
8
1
100
AcDbLine
6
CONTINUOUS
62
5
10
138.500000
20
114.100000
11
138.500000
21
119.800000
0
ARC
5
349
100
AcDbEntity
8
1
100
AcDbCircle
6
CONTINUOUS
62
5
10
139.000000
20
119.800000
40
0.500000
100
AcDbArc
50
89.999999
51
179.999998
0
POLYLINE
5
34a
100
AcDbEntity
8
1
6
CONTINUOUS
62
5
100
AcDb2dPolyline
66
1
10
0.0
20
0.0
30
0.0
70
0
0
VERTEX
5
34b
100
AcDbEntity
8
1
100
AcDbVertex
100
AcDb2dVertex
62
5
10
139.000000
20
120.300000
0
VERTEX
5
34c
100
AcDbEntity
8
1
100
AcDbVertex
100
AcDb2dVertex
62
5
10
144.500000
20
120.300000
0
VERTEX
5
34d
100
AcDbEntity
8
1
100
AcDbVertex
100
AcDb2dVertex
62
5
10
145.000000
20
120.800000
0
VERTEX
5
34e
100
AcDbEntity
8
1
100
AcDbVertex
100
AcDb2dVertex
62
5
10
145.000000
20
122.300000
0
SEQEND
5
34f
100
AcDbEntity
8
1
0
POLYLINE
5
350
100
AcDbEntity
8
1
6
CONTINUOUS
62
5
100
AcDb2dPolyline
66
1
10
0.0
20
0.0
30
0.0
70
1
0
VERTEX
5
351
100
AcDbEntity
8
1
100
AcDbVertex
100
AcDb2dVertex
62
5
10
280.000000
20
20.000000
0
VERTEX
5
352
100
AcDbEntity
8
1
100
AcDbVertex
100
AcDb2dVertex
62
5
10
280.000000
20
44.000000
0
VERTEX
5
353
100
AcDbEntity
8
1
100
AcDbVertex
100
AcDb2dVertex
62
5
10
40.000000
20
44.000000
0
VERTEX
5
354
100
AcDbEntity
8
1
100
AcDbVertex
100
AcDb2dVertex
62
5
10
40.000000
20
20.000000
0
VERTEX
5
355
100
AcDbEntity
8
1
100
AcDbVertex
100
AcDb2dVertex
62
5
10
280.000000
20
20.000000
0
SEQEND
5
356
100
AcDbEntity
8
1
0
LINE
5
357
100
AcDbEntity
8
1
100
AcDbLine
6
CONTINUOUS
62
5
10
40.000000
20
340.000000
11
40.000000
21
308.000000
0
LINE
5
358
100
AcDbEntity
8
1
100
AcDbLine
6
CONTINUOUS
62
5
10
0.000000
20
308.000000
11
320.000000
21
308.000000
0
POLYLINE
5
359
100
AcDbEntity
8
1
6
CONTINUOUS
62
5
100
AcDb2dPolyline
66
1
10
0.0
20
0.0
30
0.0
70
1
0
VERTEX
5
35a
100
AcDbEntity
8
1
100
AcDbVertex
100
AcDb2dVertex
62
5
10
0.000000
20
0.000000
0
VERTEX
5
35b
100
AcDbEntity
8
1
100
AcDbVertex
100
AcDb2dVertex
62
5
10
0.000000
20
340.000000
0
VERTEX
5
35c
100
AcDbEntity
8
1
100
AcDbVertex
100
AcDb2dVertex
62
5
10
320.000000
20
340.000000
0
VERTEX
5
35d
100
AcDbEntity
8
1
100
AcDbVertex
100
AcDb2dVertex
62
5
10
320.000000
20
0.000000
0
VERTEX
5
35e
100
AcDbEntity
8
1
100
AcDbVertex
100
AcDb2dVertex
62
5
10
0.000000
20
0.000000
0
SEQEND
5
35f
100
AcDbEntity
8
1
0
LINE
5
360
100
AcDbEntity
8
1
100
AcDbLine
6
DOT2
62
6
10
2644.134977
20
-541.683262
11
2644.076139
21
-541.624424
0
LINE
5
361
100
AcDbEntity
8
1
100
AcDbLine
6
DOT2
62
6
10
2647.835114
20
-540.857917
11
2647.520433
21
-540.543235
0
LINE
5
362
100
AcDbEntity
8
1
100
AcDbLine
6
DOT2
62
6
10
2647.552529
20
-540.858174
11
2647.391510
21
-540.697155
0
LINE
5
363
100
AcDbEntity
8
1
100
AcDbLine
6
DOT2
62
6
10
2647.269943
20
-540.858431
11
2647.117213
21
-540.705700
0
LINE
5
364
100
AcDbEntity
8
1
100
AcDbLine
6
DOT2
62
6
10
2647.981722
20
-541.853053
11
2647.910805
21
-541.782135
0
LINE
5
365
100
AcDbEntity
8
1
100
AcDbLine
6
DOT2
62
6
10
2647.363087
20
-541.234417
11
2647.130483
21
-541.001814
0
LINE
5
366
100
AcDbEntity
8
1
100
AcDbLine
6
DOT2
62
6
10
2646.987358
20
-540.858688
11
2646.834370
21
-540.705700
0
LINE
5
367
100
AcDbEntity
8
1
100
AcDbLine
6
DOT2
62
6
10
2647.873424
20
-542.027597
11
2647.582622
21
-541.736795
0
LINE
5
368
100
AcDbEntity
8
1
100
AcDbLine
6
DOT2
62
6
10
2647.129567
20
-541.283740
11
2646.958937
21
-541.113110
0
LINE
5
369
100
AcDbEntity
8
1
100
AcDbLine
6
DOT2
62
6
10
2646.704772
20
-540.858945
11
2646.551527
21
-540.705700
0
LINE
5
36a
100
AcDbEntity
8
1
100
AcDbLine
6
DOT2
62
6
10
2646.302130
20
-540.456303
11
2646.143856
21
-540.298029
0
LINE
5
36b
100
AcDbEntity
8
1
100
AcDbLine
6
DOT2
62
6
10
2647.661187
20
-542.098202
11
2647.175804
21
-541.612820
0
LINE
5
36c
100
AcDbEntity
8
1
100
AcDbLine
6
DOT2
62
6
10
2646.911964
20
-541.348980
11
2646.782628
21
-541.219643
0
LINE
5
36d
100
AcDbEntity
8
1
100
AcDbLine
6
DOT2
62
6
10
2646.422187
20
-540.859202
11
2646.268685
21
-540.705700
0
LINE
5
36e
100
AcDbEntity
8
1
100
AcDbLine
6
DOT2
62
6
10
2646.211413
20
-540.648428
11
2645.898900
21
-540.335915
0
LINE
5
36f
100
AcDbEntity
8
1
100
AcDbLine
6
DOT2
62
6
10
2647.267691
20
-541.987549
11
2645.898900
21
-540.618758
0
LINE
5
370
100
AcDbEntity
8
1
100
AcDbLine
6
DOT2
62
6
10
2646.619805
20
-541.622507
11
2646.217396
21
-541.220097
0
LINE
5
371
100
AcDbEntity
8
1
100
AcDbLine
6
DOT2
62
6
10
2645.908281
20
-540.910982
11
2645.702999
21
-540.705700
0
LINE
5
372
100
AcDbEntity
8
1
100
AcDbLine
6
DOT2
62
6
10
2646.369473
20
-541.655017
11
2646.317721
21
-541.603265
0
LINE
5
373
100
AcDbEntity
8
1
100
AcDbLine
6
DOT2
62
6
10
2645.739594
20
-541.025137
11
2645.420157
21
-540.705700
0
LINE
5
374
100
AcDbEntity
8
1
100
AcDbLine
6
DOT2
62
6
10
2646.176955
20
-541.745342
11
2646.062938
21
-541.631324
0
LINE
5
375
100
AcDbEntity
8
1
100
AcDbLine
6
DOT2
62
6
10
2645.563765
20
-541.132152
11
2645.373229
21
-540.941616
0
LINE
5
376
100
AcDbEntity
8
1
100
AcDbLine
6
DOT2
62
6
10
2645.289512
20
-540.857898
11
2645.137314
21
-540.705700
0
LINE
5
377
100
AcDbEntity
8
1
100
AcDbLine
6
DOT2
62
6
10
2645.945173
20
-541.796402
11
2645.808155
21
-541.659384
0
LINE
5
378
100
AcDbEntity
8
1
100
AcDbLine
6
DOT2
62
6
10
2645.421272
20
-541.272501
11
2645.202798
21
-541.054027
0
LINE
5
379
100
AcDbEntity
8
1
100
AcDbLine
6
DOT2
62
6
10
2645.006669
20
-540.857898
11
2644.854471
21
-540.705700
0
LINE
5
37a
100
AcDbEntity
8
1
100
AcDbLine
6
DOT2
62
6
10
2645.713391
20
-541.847463
11
2645.553372
21
-541.687444
0
LINE
5
37b
100
AcDbEntity
8
1
100
AcDbLine
6
DOT2
62
6
10
2645.421272
20
-541.555344
11
2645.025778
21
-541.159850
0
LINE
5
37c
100
AcDbEntity
8
1
100
AcDbLine
6
DOT2
62
6
10
2644.723826
20
-540.857898
11
2644.571628
21
-540.705700
0
LINE
5
37d
100
AcDbEntity
8
1
100
AcDbLine
6
DOT2
62
6
10
2645.481609
20
-541.898524
11
2645.122690
21
-541.539605
0
LINE
5
37e
100
AcDbEntity
8
1
100
AcDbLine
6
DOT2
62
6
10
2644.995504
20
-541.412419
11
2644.841944
21
-541.258859
0
LINE
5
37f
100
AcDbEntity
8
1
100
AcDbLine
6
DOT2
62
6
10
2644.440984
20
-540.857898
11
2644.288786
21
-540.705700
0
LINE
5
380
100
AcDbEntity
8
1
100
AcDbLine
6
DOT2
62
6
10
2645.249828
20
-541.949585
11
2645.043806
21
-541.743564
0
LINE
5
381
100
AcDbEntity
8
1
100
AcDbLine
6
DOT2
62
6
10
2644.792303
20
-541.492061
11
2644.651013
21
-541.350771
0
LINE
5
382
100
AcDbEntity
8
1
100
AcDbLine
6
DOT2
62
6
10
2644.158141
20
-540.857898
11
2644.099477
21
-540.799234
0
LINE
5
383
100
AcDbEntity
8
1
100
AcDbLine
6
DOT2
62
6
10
2645.018046
20
-542.000646
11
2644.789023
21
-541.771623
0
LINE
5
384
100
AcDbEntity
8
1
100
AcDbLine
6
DOT2
62
6
10
2644.581512
20
-541.564113
11
2644.452636
21
-541.435236
0
LINE
5
385
100
AcDbEntity
8
1
100
AcDbLine
6
DOT2
62
6
10
2644.786264
20
-542.051707
11
2644.534240
21
-541.799683
0
LINE
5
386
100
AcDbEntity
8
1
100
AcDbLine
6
DOT2
62
6
10
2644.362615
20
-541.628058
11
2644.246380
21
-541.511823
0
LINE
5
387
100
AcDbEntity
8
1
100
AcDbLine
6
DOT2
62
6
10
2644.628754
20
-542.177040
11
2644.467115
21
-542.015401
0
LINE
5
388
100
AcDbEntity
8
1
100
AcDbLine
6
DOT2
62
6
10
2644.073000
20
-540.735943
11
2644.103242
21
-540.705700
0
LINE
5
389
100
AcDbEntity
8
1
100
AcDbLine
6
DOT2
62
6
10
2647.781905
20
-542.118206
11
2647.874911
21
-542.025200
0
LINE
5
38a
100
AcDbEntity
8
1
100
AcDbLine
6
DOT2
62
6
10
2647.544460
20
-542.072808
11
2647.840917
21
-541.776352
0
LINE
5
38b
100
AcDbEntity
8
1
100
AcDbLine
6
DOT2
62
6
10
2647.325897
20
-542.008529
11
2647.595058
21
-541.739368
0
LINE
5
38c
100
AcDbEntity
8
1
100
AcDbLine
6
DOT2
62
6
10
2647.123480
20
-541.928103
11
2647.369756
21
-541.681828
0
LINE
5
38d
100
AcDbEntity
8
1
100
AcDbLine
6
DOT2
62
6
10
2646.935414
20
-541.833327
11
2647.161691
21
-541.607050
0
LINE
5
38e
100
AcDbEntity
8
1
100
AcDbLine
6
DOT2
62
6
10
2647.537139
20
-541.231601
11
2647.549260
21
-541.219480
0
LINE
5
38f
100
AcDbEntity
8
1
100
AcDbLine
6
DOT2
62
6
10
2646.760502
20
-541.725396
11
2646.968723
21
-541.517174
0
LINE
5
390
100
AcDbEntity
8
1
100
AcDbLine
6
DOT2
62
6
10
2647.244316
20
-541.241582
11
2647.440653
21
-541.045245
0
LINE
5
391
100
AcDbEntity
8
1
100
AcDbLine
6
DOT2
62
6
10
2647.627792
20
-540.858105
11
2647.832086
21
-540.653812
0
LINE
5
392
100
AcDbEntity
8
1
100
AcDbLine
6
DOT2
62
6
10
2646.597966
20
-541.605089
11
2646.789437
21
-541.413618
0
LINE
5
393
100
AcDbEntity
8
1
100
AcDbLine
6
DOT2
62
6
10
2646.835526
20
-541.367529
11
2647.290905
21
-540.912150
0
LINE
5
394
100
AcDbEntity
8
1
100
AcDbLine
6
DOT2
62
6
10
2647.344692
20
-540.858363
11
2647.696962
21
-540.506093
0
LINE
5
395
100
AcDbEntity
8
1
100
AcDbLine
6
DOT2
62
6
10
2646.174282
20
-541.745931
11
2646.316852
21
-541.603360
0
LINE
5
396
100
AcDbEntity
8
1
100
AcDbLine
6
DOT2
62
6
10
2646.447349
20
-541.472863
11
2646.622903
21
-541.297309
0
LINE
5
397
100
AcDbEntity
8
1
100
AcDbLine
6
DOT2
62
6
10
2647.061592
20
-540.858621
11
2647.214512
21
-540.705700
0
LINE
5
398
100
AcDbEntity
8
1
100
AcDbLine
6
DOT2
62
6
10
2645.811525
20
-541.825845
11
2645.999004
21
-541.638366
0
LINE
5
399
100
AcDbEntity
8
1
100
AcDbLine
6
DOT2
62
6
10
2646.308457
20
-541.328913
11
2646.468552
21
-541.168817
0
LINE
5
39a
100
AcDbEntity
8
1
100
AcDbLine
6
DOT2
62
6
10
2646.778491
20
-540.858878
11
2646.931669
21
-540.705700
0
LINE
5
39b
100
AcDbEntity
8
1
100
AcDbLine
6
DOT2
62
6
10
2645.448768
20
-541.905759
11
2645.681156
21
-541.673371
0
LINE
5
39c
100
AcDbEntity
8
1
100
AcDbLine
6
DOT2
62
6
10
2646.181343
20
-541.173184
11
2646.326105
21
-541.028422
0
LINE
5
39d
100
AcDbEntity
8
1
100
AcDbLine
6
DOT2
62
6
10
2646.495391
20
-540.859136
11
2646.648826
21
-540.705700
0
LINE
5
39e
100
AcDbEntity
8
1
100
AcDbLine
6
DOT2
62
6
10
2645.086011
20
-541.985673
11
2645.421272
21
-541.650413
0
LINE
5
39f
100
AcDbEntity
8
1
100
AcDbLine
6
DOT2
62
6
10
2646.066311
20
-541.005373
11
2646.195539
21
-540.876145
0
LINE
5
3a0
100
AcDbEntity
8
1
100
AcDbLine
6
DOT2
62
6
10
2646.212291
20
-540.859393
11
2646.365984
21
-540.705700
0
LINE
5
3a1
100
AcDbEntity
8
1
100
AcDbLine
6
DOT2
62
6
10
2644.536049
20
-542.252793
11
2644.656663
21
-542.132178
0
LINE
5
3a2
100
AcDbEntity
8
1
100
AcDbLine
6
DOT2
62
6
10
2644.723254
20
-542.065588
11
2645.045460
21
-541.743381
0
LINE
5
3a3
100
AcDbEntity
8
1
100
AcDbLine
6
DOT2
62
6
10
2645.122690
20
-541.666151
11
2645.421272
21
-541.367570
0
LINE
5
3a4
100
AcDbEntity
8
1
100
AcDbLine
6
DOT2
62
6
10
2645.809758
20
-540.979083
11
2646.211413
21
-540.577429
0
LINE
5
3a5
100
AcDbEntity
8
1
100
AcDbLine
6
DOT2
62
6
10
2644.472150
20
-542.033848
11
2644.727612
21
-541.778387
0
LINE
5
3a6
100
AcDbEntity
8
1
100
AcDbLine
6
DOT2
62
6
10
2645.122690
20
-541.383309
11
2645.800298
21
-540.705700
0
LINE
5
3a7
100
AcDbEntity
8
1
100
AcDbLine
6
DOT2
62
6
10
2645.898900
20
-540.607099
11
2646.193973
21
-540.312026
0
LINE
5
3a8
100
AcDbEntity
8
1
100
AcDbLine
6
DOT2
62
6
10
2644.697331
20
-541.525825
11
2645.115763
21
-541.107393
0
LINE
5
3a9
100
AcDbEntity
8
1
100
AcDbLine
6
DOT2
62
6
10
2645.365258
20
-540.857898
11
2645.517456
21
-540.705700
0
LINE
5
3aa
100
AcDbEntity
8
1
100
AcDbLine
6
DOT2
62
6
10
2645.898900
20
-540.324256
11
2645.933463
21
-540.289693
0
LINE
5
3ab
100
AcDbEntity
8
1
100
AcDbLine
6
DOT2
62
6
10
2644.294565
20
-541.645749
11
2644.541616
21
-541.398697
0
LINE
5
3ac
100
AcDbEntity
8
1
100
AcDbLine
6
DOT2
62
6
10
2645.082415
20
-540.857898
11
2645.234613
21
-540.705700
0
LINE
5
3ad
100
AcDbEntity
8
1
100
AcDbLine
6
DOT2
62
6
10
2644.058895
20
-541.598576
11
2644.096993
21
-541.560477
0
LINE
5
3ae
100
AcDbEntity
8
1
100
AcDbLine
6
DOT2
62
6
10
2644.799572
20
-540.857898
11
2644.951770
21
-540.705700
0
LINE
5
3af
100
AcDbEntity
8
1
100
AcDbLine
6
DOT2
62
6
10
2644.516729
20
-540.857898
11
2644.668927
21
-540.705700
0
LINE
5
3b0
100
AcDbEntity
8
1
100
AcDbLine
6
DOT2
62
6
10
2644.233887
20
-540.857898
11
2644.386085
21
-540.705700
0
LINE
5
3b1
100
AcDbEntity
8
1
100
AcDbLine
6
DOT2
62
6
10
2642.231690
20
-532.960601
11
2642.476089
21
-532.716201
0
LINE
5
3b2
100
AcDbEntity
8
1
100
AcDbLine
6
DOT2
62
6
10
2642.231690
20
-540.597354
11
2642.531690
21
-540.297354
0
LINE
5
3b3
100
AcDbEntity
8
1
100
AcDbLine
6
DOT2
62
6
10
2649.531690
20
-533.297354
11
2649.831690
21
-532.997354
0
LINE
5
3b4
100
AcDbEntity
8
1
100
AcDbLine
6
DOT2
62
6
10
2642.231690
20
-540.314511
11
2642.531690
21
-540.014511
0
LINE
5
3b5
100
AcDbEntity
8
1
100
AcDbLine
6
DOT2
62
6
10
2649.530000
20
-533.016201
11
2649.830000
21
-532.716201
0
LINE
5
3b6
100
AcDbEntity
8
1
100
AcDbLine
6
DOT2
62
6
10
2642.231690
20
-540.031668
11
2642.531690
21
-539.731668
0
LINE
5
3b7
100
AcDbEntity
8
1
100
AcDbLine
6
DOT2
62
6
10
2649.247157
20
-533.016201
11
2649.547157
21
-532.716201
0
LINE
5
3b8
100
AcDbEntity
8
1
100
AcDbLine
6
DOT2
62
6
10
2642.231690
20
-539.748826
11
2642.531690
21
-539.448826
0
LINE
5
3b9
100
AcDbEntity
8
1
100
AcDbLine
6
DOT2
62
6
10
2648.964314
20
-533.016201
11
2649.264314
21
-532.716201
0
LINE
5
3ba
100
AcDbEntity
8
1
100
AcDbLine
6
DOT2
62
6
10
2642.231690
20
-539.465983
11
2642.531690
21
-539.165983
0
LINE
5
3bb
100
AcDbEntity
8
1
100
AcDbLine
6
DOT2
62
6
10
2648.681472
20
-533.016201
11
2648.981472
21
-532.716201
0
LINE
5
3bc
100
AcDbEntity
8
1
100
AcDbLine
6
DOT2
62
6
10
2642.231690
20
-539.183140
11
2642.531690
21
-538.883140
0
LINE
5
3bd
100
AcDbEntity
8
1
100
AcDbLine
6
DOT2
62
6
10
2648.398629
20
-533.016201
11
2648.698629
21
-532.716201
0
LINE
5
3be
100
AcDbEntity
8
1
100
AcDbLine
6
DOT2
62
6
10
2642.231690
20
-538.900297
11
2642.531690
21
-538.600297
0
LINE
5
3bf
100
AcDbEntity
8
1
100
AcDbLine
6
DOT2
62
6
10
2648.115786
20
-533.016201
11
2648.415786
21
-532.716201
0
LINE
5
3c0
100
AcDbEntity
8
1
100
AcDbLine
6
DOT2
62
6
10
2642.231690
20
-538.617455
11
2642.531690
21
-538.317455
0
LINE
5
3c1
100
AcDbEntity
8
1
100
AcDbLine
6
DOT2
62
6
10
2647.832943
20
-533.016201
11
2648.132943
21
-532.716201
0
LINE
5
3c2
100
AcDbEntity
8
1
100
AcDbLine
6
DOT2
62
6
10
2642.231690
20
-538.334612
11
2642.531690
21
-538.034612
0
LINE
5
3c3
100
AcDbEntity
8
1
100
AcDbLine
6
DOT2
62
6
10
2647.550101
20
-533.016201
11
2647.850101
21
-532.716201
0
LINE
5
3c4
100
AcDbEntity
8
1
100
AcDbLine
6
DOT2
62
6
10
2642.231690
20
-538.051769
11
2642.531690
21
-537.751769
0
LINE
5
3c5
100
AcDbEntity
8
1
100
AcDbLine
6
DOT2
62
6
10
2647.267258
20
-533.016201
11
2647.567258
21
-532.716201
0
LINE
5
3c6
100
AcDbEntity
8
1
100
AcDbLine
6
DOT2
62
6
10
2642.231690
20
-537.768927
11
2642.531690
21
-537.468927
0
LINE
5
3c7
100
AcDbEntity
8
1
100
AcDbLine
6
DOT2
62
6
10
2646.984415
20
-533.016201
11
2647.284415
21
-532.716201
0
LINE
5
3c8
100
AcDbEntity
8
1
100
AcDbLine
6
DOT2
62
6
10
2642.231690
20
-537.486084
11
2642.531690
21
-537.186084
0
LINE
5
3c9
100
AcDbEntity
8
1
100
AcDbLine
6
DOT2
62
6
10
2646.701573
20
-533.016201
11
2647.001573
21
-532.716201
0
LINE
5
3ca
100
AcDbEntity
8
1
100
AcDbLine
6
DOT2
62
6
10
2642.231690
20
-537.203241
11
2642.531690
21
-536.903241
0
LINE
5
3cb
100
AcDbEntity
8
1
100
AcDbLine
6
DOT2
62
6
10
2646.418730
20
-533.016201
11
2646.718730
21
-532.716201
0
LINE
5
3cc
100
AcDbEntity
8
1
100
AcDbLine
6
DOT2
62
6
10
2642.231690
20
-536.920398
11
2642.531690
21
-536.620398
0
LINE
5
3cd
100
AcDbEntity
8
1
100
AcDbLine
6
DOT2
62
6
10
2646.135887
20
-533.016201
11
2646.435887
21
-532.716201
0
LINE
5
3ce
100
AcDbEntity
8
1
100
AcDbLine
6
DOT2
62
6
10
2642.231690
20
-536.637556
11
2642.531690
21
-536.337556
0
LINE
5
3cf
100
AcDbEntity
8
1
100
AcDbLine
6
DOT2
62
6
10
2645.853044
20
-533.016201
11
2646.153044
21
-532.716201
0
LINE
5
3d0
100
AcDbEntity
8
1
100
AcDbLine
6
DOT2
62
6
10
2642.231690
20
-536.354713
11
2642.531690
21
-536.054713
0
LINE
5
3d1
100
AcDbEntity
8
1
100
AcDbLine
6
DOT2
62
6
10
2645.570202
20
-533.016201
11
2645.870202
21
-532.716201
0
LINE
5
3d2
100
AcDbEntity
8
1
100
AcDbLine
6
DOT2
62
6
10
2642.231690
20
-536.071870
11
2642.531690
21
-535.771870
0
LINE
5
3d3
100
AcDbEntity
8
1
100
AcDbLine
6
DOT2
62
6
10
2645.287359
20
-533.016201
11
2645.587359
21
-532.716201
0
LINE
5
3d4
100
AcDbEntity
8
1
100
AcDbLine
6
DOT2
62
6
10
2642.231690
20
-535.789028
11
2642.531690
21
-535.489028
0
LINE
5
3d5
100
AcDbEntity
8
1
100
AcDbLine
6
DOT2
62
6
10
2645.004516
20
-533.016201
11
2645.304516
21
-532.716201
0
LINE
5
3d6
100
AcDbEntity
8
1
100
AcDbLine
6
DOT2
62
6
10
2642.231690
20
-535.506185
11
2642.531690
21
-535.206185
0
LINE
5
3d7
100
AcDbEntity
8
1
100
AcDbLine
6
DOT2
62
6
10
2644.721674
20
-533.016201
11
2645.021674
21
-532.716201
0
LINE
5
3d8
100
AcDbEntity
8
1
100
AcDbLine
6
DOT2
62
6
10
2642.231690
20
-535.223342
11
2642.531690
21
-534.923342
0
LINE
5
3d9
100
AcDbEntity
8
1
100
AcDbLine
6
DOT2
62
6
10
2644.438831
20
-533.016201
11
2644.738831
21
-532.716201
0
LINE
5
3da
100
AcDbEntity
8
1
100
AcDbLine
6
DOT2
62
6
10
2642.231690
20
-534.940500
11
2642.531690
21
-534.640500
0
LINE
5
3db
100
AcDbEntity
8
1
100
AcDbLine
6
DOT2
62
6
10
2644.155988
20
-533.016201
11
2644.455988
21
-532.716201
0
LINE
5
3dc
100
AcDbEntity
8
1
100
AcDbLine
6
DOT2
62
6
10
2642.231690
20
-534.657657
11
2642.531690
21
-534.357657
0
LINE
5
3dd
100
AcDbEntity
8
1
100
AcDbLine
6
DOT2
62
6
10
2643.873145
20
-533.016201
11
2644.173145
21
-532.716201
0
LINE
5
3de
100
AcDbEntity
8
1
100
AcDbLine
6
DOT2
62
6
10
2642.231690
20
-534.374814
11
2642.531690
21
-534.074814
0
LINE
5
3df
100
AcDbEntity
8
1
100
AcDbLine
6
DOT2
62
6
10
2643.590303
20
-533.016201
11
2643.890303
21
-532.716201
0
LINE
5
3e0
100
AcDbEntity
8
1
100
AcDbLine
6
DOT2
62
6
10
2642.231690
20
-534.091971
11
2642.531690
21
-533.791971
0
LINE
5
3e1
100
AcDbEntity
8
1
100
AcDbLine
6
DOT2
62
6
10
2643.307460
20
-533.016201
11
2643.607460
21
-532.716201
0
LINE
5
3e2
100
AcDbEntity
8
1
100
AcDbLine
6
DOT2
62
6
10
2642.231690
20
-533.809129
11
2642.531690
21
-533.509129
0
LINE
5
3e3
100
AcDbEntity
8
1
100
AcDbLine
6
DOT2
62
6
10
2643.024617
20
-533.016201
11
2643.324617
21
-532.716201
0
LINE
5
3e4
100
AcDbEntity
8
1
100
AcDbLine
6
DOT2
62
6
10
2642.231690
20
-533.526286
11
2642.531690
21
-533.226286
0
LINE
5
3e5
100
AcDbEntity
8
1
100
AcDbLine
6
DOT2
62
6
10
2642.741775
20
-533.016201
11
2643.041775
21
-532.716201
0
LINE
5
3e6
100
AcDbEntity
8
1
100
AcDbLine
6
DOT2
62
6
10
2642.231690
20
-533.243443
11
2642.758932
21
-532.716201
0
LINE
5
3e7
100
AcDbEntity
8
1
100
AcDbLine
6
DOT2
62
6
10
2649.531690
20
-533.580196
11
2649.831690
21
-533.280196
0
LINE
5
3e8
100
AcDbEntity
8
1
100
AcDbLine
6
DOT2
62
6
10
2649.820663
20
-547.716201
11
2649.831690
21
-547.705175
0
LINE
5
3e9
100
AcDbEntity
8
1
100
AcDbLine
6
DOT2
62
6
10
2649.537821
20
-547.716201
11
2649.831690
21
-547.422332
0
LINE
5
3ea
100
AcDbEntity
8
1
100
AcDbLine
6
DOT2
62
6
10
2649.254978
20
-547.716201
11
2649.831690
21
-547.139489
0
LINE
5
3eb
100
AcDbEntity
8
1
100
AcDbLine
6
DOT2
62
6
10
2648.972135
20
-547.716201
11
2649.272135
21
-547.416201
0
LINE
5
3ec
100
AcDbEntity
8
1
100
AcDbLine
6
DOT2
62
6
10
2649.531690
20
-547.156647
11
2649.831690
21
-546.856647
0
LINE
5
3ed
100
AcDbEntity
8
1
100
AcDbLine
6
DOT2
62
6
10
2648.689293
20
-547.716201
11
2648.989293
21
-547.416201
0
LINE
5
3ee
100
AcDbEntity
8
1
100
AcDbLine
6
DOT2
62
6
10
2649.531690
20
-546.873804
11
2649.831690
21
-546.573804
0
LINE
5
3ef
100
AcDbEntity
8
1
100
AcDbLine
6
DOT2
62
6
10
2648.406450
20
-547.716201
11
2648.706450
21
-547.416201
0
LINE
5
3f0
100
AcDbEntity
8
1
100
AcDbLine
6
DOT2
62
6
10
2649.531690
20
-546.590961
11
2649.831690
21
-546.290961
0
LINE
5
3f1
100
AcDbEntity
8
1
100
AcDbLine
6
DOT2
62
6
10
2648.123607
20
-547.716201
11
2648.423607
21
-547.416201
0
LINE
5
3f2
100
AcDbEntity
8
1
100
AcDbLine
6
DOT2
62
6
10
2649.531690
20
-546.308119
11
2649.831690
21
-546.008119
0
LINE
5
3f3
100
AcDbEntity
8
1
100
AcDbLine
6
DOT2
62
6
10
2647.840764
20
-547.716201
11
2648.140764
21
-547.416201
0
LINE
5
3f4
100
AcDbEntity
8
1
100
AcDbLine
6
DOT2
62
6
10
2649.531690
20
-546.025276
11
2649.831690
21
-545.725276
0
LINE
5
3f5
100
AcDbEntity
8
1
100
AcDbLine
6
DOT2
62
6
10
2647.557922
20
-547.716201
11
2647.857922
21
-547.416201
0
LINE
5
3f6
100
AcDbEntity
8
1
100
AcDbLine
6
DOT2
62
6
10
2649.531690
20
-545.742433
11
2649.831690
21
-545.442433
0
LINE
5
3f7
100
AcDbEntity
8
1
100
AcDbLine
6
DOT2
62
6
10
2647.275079
20
-547.716201
11
2647.575079
21
-547.416201
0
LINE
5
3f8
100
AcDbEntity
8
1
100
AcDbLine
6
DOT2
62
6
10
2649.531690
20
-545.459590
11
2649.831690
21
-545.159590
0
LINE
5
3f9
100
AcDbEntity
8
1
100
AcDbLine
6
DOT2
62
6
10
2646.992236
20
-547.716201
11
2647.292236
21
-547.416201
0
LINE
5
3fa
100
AcDbEntity
8
1
100
AcDbLine
6
DOT2
62
6
10
2649.531690
20
-545.176748
11
2649.831690
21
-544.876748
0
LINE
5
3fb
100
AcDbEntity
8
1
100
AcDbLine
6
DOT2
62
6
10
2646.709394
20
-547.716201
11
2647.009394
21
-547.416201
0
LINE
5
3fc
100
AcDbEntity
8
1
100
AcDbLine
6
DOT2
62
6
10
2649.531690
20
-544.893905
11
2649.831690
21
-544.593905
0
LINE
5
3fd
100
AcDbEntity
8
1
100
AcDbLine
6
DOT2
62
6
10
2646.426551
20
-547.716201
11
2646.726551
21
-547.416201
0
LINE
5
3fe
100
AcDbEntity
8
1
100
AcDbLine
6
DOT2
62
6
10
2649.531690
20
-544.611062
11
2649.831690
21
-544.311062
0
LINE
5
3ff
100
AcDbEntity
8
1
100
AcDbLine
6
DOT2
62
6
10
2646.143708
20
-547.716201
11
2646.443708
21
-547.416201
0
LINE
5
400
100
AcDbEntity
8
1
100
AcDbLine
6
DOT2
62
6
10
2649.531690
20
-544.328220
11
2649.831690
21
-544.028220
0
LINE
5
401
100
AcDbEntity
8
1
100
AcDbLine
6
DOT2
62
6
10
2645.860865
20
-547.716201
11
2646.160865
21
-547.416201
0
LINE
5
402
100
AcDbEntity
8
1
100
AcDbLine
6
DOT2
62
6
10
2649.531690
20
-544.045377
11
2649.831690
21
-543.745377
0
LINE
5
403
100
AcDbEntity
8
1
100
AcDbLine
6
DOT2
62
6
10
2645.578023
20
-547.716201
11
2645.878023
21
-547.416201
0
LINE
5
404
100
AcDbEntity
8
1
100
AcDbLine
6
DOT2
62
6
10
2649.531690
20
-543.762534
11
2649.831690
21
-543.462534
0
LINE
5
405
100
AcDbEntity
8
1
100
AcDbLine
6
DOT2
62
6
10
2645.295180
20
-547.716201
11
2645.595180
21
-547.416201
0
LINE
5
406
100
AcDbEntity
8
1
100
AcDbLine
6
DOT2
62
6
10
2649.531690
20
-543.479691
11
2649.831690
21
-543.179691
0
LINE
5
407
100
AcDbEntity
8
1
100
AcDbLine
6
DOT2
62
6
10
2645.012337
20
-547.716201
11
2645.312337
21
-547.416201
0
LINE
5
408
100
AcDbEntity
8
1
100
AcDbLine
6
DOT2
62
6
10
2649.531690
20
-543.196849
11
2649.831690
21
-542.896849
0
LINE
5
409
100
AcDbEntity
8
1
100
AcDbLine
6
DOT2
62
6
10
2644.729495
20
-547.716201
11
2645.029495
21
-547.416201
0
LINE
5
40a
100
AcDbEntity
8
1
100
AcDbLine
6
DOT2
62
6
10
2649.531690
20
-542.914006
11
2649.831690
21
-542.614006
0
LINE
5
40b
100
AcDbEntity
8
1
100
AcDbLine
6
DOT2
62
6
10
2644.446652
20
-547.716201
11
2644.746652
21
-547.416201
0
LINE
5
40c
100
AcDbEntity
8
1
100
AcDbLine
6
DOT2
62
6
10
2649.531690
20
-542.631163
11
2649.831690
21
-542.331163
0
LINE
5
40d
100
AcDbEntity
8
1
100
AcDbLine
6
DOT2
62
6
10
2644.163809
20
-547.716201
11
2644.463809
21
-547.416201
0
LINE
5
40e
100
AcDbEntity
8
1
100
AcDbLine
6
DOT2
62
6
10
2649.531690
20
-542.348321
11
2649.831690
21
-542.048321
0
LINE
5
40f
100
AcDbEntity
8
1
100
AcDbLine
6
DOT2
62
6
10
2643.880966
20
-547.716201
11
2644.180966
21
-547.416201
0
LINE
5
410
100
AcDbEntity
8
1
100
AcDbLine
6
DOT2
62
6
10
2649.531690
20
-542.065478
11
2649.831690
21
-541.765478
0
LINE
5
411
100
AcDbEntity
8
1
100
AcDbLine
6
DOT2
62
6
10
2643.598124
20
-547.716201
11
2643.898124
21
-547.416201
0
LINE
5
412
100
AcDbEntity
8
1
100
AcDbLine
6
DOT2
62
6
10
2649.531690
20
-541.782635
11
2649.831690
21
-541.482635
0
LINE
5
413
100
AcDbEntity
8
1
100
AcDbLine
6
DOT2
62
6
10
2643.315281
20
-547.716201
11
2643.615281
21
-547.416201
0
LINE
5
414
100
AcDbEntity
8
1
100
AcDbLine
6
DOT2
62
6
10
2649.531690
20
-541.499792
11
2649.831690
21
-541.199792
0
LINE
5
415
100
AcDbEntity
8
1
100
AcDbLine
6
DOT2
62
6
10
2643.032438
20
-547.716201
11
2643.332438
21
-547.416201
0
LINE
5
416
100
AcDbEntity
8
1
100
AcDbLine
6
DOT2
62
6
10
2649.531690
20
-541.216950
11
2649.831690
21
-540.916950
0
LINE
5
417
100
AcDbEntity
8
1
100
AcDbLine
6
DOT2
62
6
10
2642.749596
20
-547.716201
11
2643.049596
21
-547.416201
0
LINE
5
418
100
AcDbEntity
8
1
100
AcDbLine
6
DOT2
62
6
10
2649.531690
20
-540.934107
11
2649.831690
21
-540.634107
0
LINE
5
419
100
AcDbEntity
8
1
100
AcDbLine
6
DOT2
62
6
10
2642.466753
20
-547.716201
11
2642.766753
21
-547.416201
0
LINE
5
41a
100
AcDbEntity
8
1
100
AcDbLine
6
DOT2
62
6
10
2649.531690
20
-540.651264
11
2649.831690
21
-540.351264
0
LINE
5
41b
100
AcDbEntity
8
1
100
AcDbLine
6
DOT2
62
6
10
2642.231690
20
-547.668422
11
2642.531690
21
-547.368422
0
LINE
5
41c
100
AcDbEntity
8
1
100
AcDbLine
6
DOT2
62
6
10
2649.531690
20
-540.368422
11
2649.831690
21
-540.068422
0
LINE
5
41d
100
AcDbEntity
8
1
100
AcDbLine
6
DOT2
62
6
10
2642.231690
20
-547.385579
11
2642.531690
21
-547.085579
0
LINE
5
41e
100
AcDbEntity
8
1
100
AcDbLine
6
DOT2
62
6
10
2649.531690
20
-540.085579
11
2649.831690
21
-539.785579
0
LINE
5
41f
100
AcDbEntity
8
1
100
AcDbLine
6
DOT2
62
6
10
2642.231690
20
-547.102736
11
2642.531690
21
-546.802736
0
LINE
5
420
100
AcDbEntity
8
1
100
AcDbLine
6
DOT2
62
6
10
2649.531690
20
-539.802736
11
2649.831690
21
-539.502736
0
LINE
5
421
100
AcDbEntity
8
1
100
AcDbLine
6
DOT2
62
6
10
2642.231690
20
-546.819893
11
2642.531690
21
-546.519893
0
LINE
5
422
100
AcDbEntity
8
1
100
AcDbLine
6
DOT2
62
6
10
2649.531690
20
-539.519893
11
2649.831690
21
-539.219893
0
LINE
5
423
100
AcDbEntity
8
1
100
AcDbLine
6
DOT2
62
6
10
2642.231690
20
-546.537051
11
2642.531690
21
-546.237051
0
LINE
5
424
100
AcDbEntity
8
1
100
AcDbLine
6
DOT2
62
6
10
2649.531690
20
-539.237051
11
2649.831690
21
-538.937051
0
LINE
5
425
100
AcDbEntity
8
1
100
AcDbLine
6
DOT2
62
6
10
2642.231690
20
-546.254208
11
2642.531690
21
-545.954208
0
LINE
5
426
100
AcDbEntity
8
1
100
AcDbLine
6
DOT2
62
6
10
2649.531690
20
-538.954208
11
2649.831690
21
-538.654208
0
LINE
5
427
100
AcDbEntity
8
1
100
AcDbLine
6
DOT2
62
6
10
2642.231690
20
-545.971365
11
2642.531690
21
-545.671365
0
LINE
5
428
100
AcDbEntity
8
1
100
AcDbLine
6
DOT2
62
6
10
2649.531690
20
-538.671365
11
2649.831690
21
-538.371365
0
LINE
5
429
100
AcDbEntity
8
1
100
AcDbLine
6
DOT2
62
6
10
2642.231690
20
-545.688523
11
2642.531690
21
-545.388523
0
LINE
5
42a
100
AcDbEntity
8
1
100
AcDbLine
6
DOT2
62
6
10
2649.531690
20
-538.388523
11
2649.831690
21
-538.088523
0
LINE
5
42b
100
AcDbEntity
8
1
100
AcDbLine
6
DOT2
62
6
10
2642.231690
20
-545.405680
11
2642.531690
21
-545.105680
0
LINE
5
42c
100
AcDbEntity
8
1
100
AcDbLine
6
DOT2
62
6
10
2649.531690
20
-538.105680
11
2649.831690
21
-537.805680
0
LINE
5
42d
100
AcDbEntity
8
1
100
AcDbLine
6
DOT2
62
6
10
2642.231690
20
-545.122837
11
2642.531690
21
-544.822837
0
LINE
5
42e
100
AcDbEntity
8
1
100
AcDbLine
6
DOT2
62
6
10
2649.531690
20
-537.822837
11
2649.831690
21
-537.522837
0
LINE
5
42f
100
AcDbEntity
8
1
100
AcDbLine
6
DOT2
62
6
10
2642.231690
20
-544.839994
11
2642.531690
21
-544.539994
0
LINE
5
430
100
AcDbEntity
8
1
100
AcDbLine
6
DOT2
62
6
10
2649.531690
20
-537.539994
11
2649.831690
21
-537.239994
0
LINE
5
431
100
AcDbEntity
8
1
100
AcDbLine
6
DOT2
62
6
10
2642.231690
20
-544.557152
11
2642.531690
21
-544.257152
0
LINE
5
432
100
AcDbEntity
8
1
100
AcDbLine
6
DOT2
62
6
10
2649.531690
20
-537.257152
11
2649.831690
21
-536.957152
0
LINE
5
433
100
AcDbEntity
8
1
100
AcDbLine
6
DOT2
62
6
10
2642.231690
20
-544.274309
11
2642.531690
21
-543.974309
0
LINE
5
434
100
AcDbEntity
8
1
100
AcDbLine
6
DOT2
62
6
10
2649.531690
20
-536.974309
11
2649.831690
21
-536.674309
0
LINE
5
435
100
AcDbEntity
8
1
100
AcDbLine
6
DOT2
62
6
10
2642.231690
20
-543.991466
11
2642.531690
21
-543.691466
0
LINE
5
436
100
AcDbEntity
8
1
100
AcDbLine
6
DOT2
62
6
10
2649.531690
20
-536.691466
11
2649.831690
21
-536.391466
0
LINE
5
437
100
AcDbEntity
8
1
100
AcDbLine
6
DOT2
62
6
10
2642.231690
20
-543.708624
11
2642.531690
21
-543.408624
0
LINE
5
438
100
AcDbEntity
8
1
100
AcDbLine
6
DOT2
62
6
10
2649.531690
20
-536.408624
11
2649.831690
21
-536.108624
0
LINE
5
439
100
AcDbEntity
8
1
100
AcDbLine
6
DOT2
62
6
10
2642.231690
20
-543.425781
11
2642.531690
21
-543.125781
0
LINE
5
43a
100
AcDbEntity
8
1
100
AcDbLine
6
DOT2
62
6
10
2649.531690
20
-536.125781
11
2649.831690
21
-535.825781
0
LINE
5
43b
100
AcDbEntity
8
1
100
AcDbLine
6
DOT2
62
6
10
2642.231690
20
-543.142938
11
2642.531690
21
-542.842938
0
LINE
5
43c
100
AcDbEntity
8
1
100
AcDbLine
6
DOT2
62
6
10
2649.531690
20
-535.842938
11
2649.831690
21
-535.542938
0
LINE
5
43d
100
AcDbEntity
8
1
100
AcDbLine
6
DOT2
62
6
10
2642.231690
20
-542.860095
11
2642.531690
21
-542.560095
0
LINE
5
43e
100
AcDbEntity
8
1
100
AcDbLine
6
DOT2
62
6
10
2649.531690
20
-535.560095
11
2649.831690
21
-535.260095
0
LINE
5
43f
100
AcDbEntity
8
1
100
AcDbLine
6
DOT2
62
6
10
2642.231690
20
-542.577253
11
2642.531690
21
-542.277253
0
LINE
5
440
100
AcDbEntity
8
1
100
AcDbLine
6
DOT2
62
6
10
2649.531690
20
-535.277253
11
2649.831690
21
-534.977253
0
LINE
5
441
100
AcDbEntity
8
1
100
AcDbLine
6
DOT2
62
6
10
2642.231690
20
-542.294410
11
2642.531690
21
-541.994410
0
LINE
5
442
100
AcDbEntity
8
1
100
AcDbLine
6
DOT2
62
6
10
2649.531690
20
-534.994410
11
2649.831690
21
-534.694410
0
LINE
5
443
100
AcDbEntity
8
1
100
AcDbLine
6
DOT2
62
6
10
2642.231690
20
-542.011567
11
2642.531690
21
-541.711567
0
LINE
5
444
100
AcDbEntity
8
1
100
AcDbLine
6
DOT2
62
6
10
2649.531690
20
-534.711567
11
2649.831690
21
-534.411567
0
LINE
5
445
100
AcDbEntity
8
1
100
AcDbLine
6
DOT2
62
6
10
2642.231690
20
-541.728725
11
2642.531690
21
-541.428725
0
LINE
5
446
100
AcDbEntity
8
1
100
AcDbLine
6
DOT2
62
6
10
2649.531690
20
-534.428725
11
2649.831690
21
-534.128725
0
LINE
5
447
100
AcDbEntity
8
1
100
AcDbLine
6
DOT2
62
6
10
2642.231690
20
-541.445882
11
2642.531690
21
-541.145882
0
LINE
5
448
100
AcDbEntity
8
1
100
AcDbLine
6
DOT2
62
6
10
2649.531690
20
-534.145882
11
2649.831690
21
-533.845882
0
LINE
5
449
100
AcDbEntity
8
1
100
AcDbLine
6
DOT2
62
6
10
2642.231690
20
-541.163039
11
2642.531690
21
-540.863039
0
LINE
5
44a
100
AcDbEntity
8
1
100
AcDbLine
6
DOT2
62
6
10
2649.531690
20
-533.863039
11
2649.831690
21
-533.563039
0
LINE
5
44b
100
AcDbEntity
8
1
100
AcDbLine
6
DOT2
62
6
10
2642.231690
20
-540.880196
11
2642.531690
21
-540.580196
0
LINE
5
44c
100
AcDbEntity
8
1
100
AcDbLine
6
DOT2
62
6
10
2649.592894
20
-532.716201
11
2649.831690
21
-532.954997
0
LINE
5
44d
100
AcDbEntity
8
1
100
AcDbLine
6
DOT2
62
6
10
2642.231690
20
-532.991750
11
2642.531690
21
-533.291750
0
LINE
5
44e
100
AcDbEntity
8
1
100
AcDbLine
6
DOT2
62
6
10
2649.531690
20
-540.291750
11
2649.831690
21
-540.591750
0
LINE
5
44f
100
AcDbEntity
8
1
100
AcDbLine
6
DOT2
62
6
10
2642.238983
20
-532.716201
11
2642.538983
21
-533.016201
0
LINE
5
450
100
AcDbEntity
8
1
100
AcDbLine
6
DOT2
62
6
10
2649.531690
20
-540.008908
11
2649.831690
21
-540.308908
0
LINE
5
451
100
AcDbEntity
8
1
100
AcDbLine
6
DOT2
62
6
10
2642.521826
20
-532.716201
11
2642.821826
21
-533.016201
0
LINE
5
452
100
AcDbEntity
8
1
100
AcDbLine
6
DOT2
62
6
10
2649.531690
20
-539.726065
11
2649.831690
21
-540.026065
0
LINE
5
453
100
AcDbEntity
8
1
100
AcDbLine
6
DOT2
62
6
10
2642.804669
20
-532.716201
11
2643.104669
21
-533.016201
0
LINE
5
454
100
AcDbEntity
8
1
100
AcDbLine
6
DOT2
62
6
10
2649.531690
20
-539.443222
11
2649.831690
21
-539.743222
0
LINE
5
455
100
AcDbEntity
8
1
100
AcDbLine
6
DOT2
62
6
10
2643.087511
20
-532.716201
11
2643.387511
21
-533.016201
0
LINE
5
456
100
AcDbEntity
8
1
100
AcDbLine
6
DOT2
62
6
10
2649.531690
20
-539.160379
11
2649.831690
21
-539.460379
0
LINE
5
457
100
AcDbEntity
8
1
100
AcDbLine
6
DOT2
62
6
10
2643.370354
20
-532.716201
11
2643.670354
21
-533.016201
0
LINE
5
458
100
AcDbEntity
8
1
100
AcDbLine
6
DOT2
62
6
10
2649.531690
20
-538.877537
11
2649.831690
21
-539.177537
0
LINE
5
459
100
AcDbEntity
8
1
100
AcDbLine
6
DOT2
62
6
10
2643.653197
20
-532.716201
11
2643.953197
21
-533.016201
0
LINE
5
45a
100
AcDbEntity
8
1
100
AcDbLine
6
DOT2
62
6
10
2649.531690
20
-538.594694
11
2649.831690
21
-538.894694
0
LINE
5
45b
100
AcDbEntity
8
1
100
AcDbLine
6
DOT2
62
6
10
2643.936040
20
-532.716201
11
2644.236040
21
-533.016201
0
LINE
5
45c
100
AcDbEntity
8
1
100
AcDbLine
6
DOT2
62
6
10
2649.531690
20
-538.311851
11
2649.831690
21
-538.611851
0
LINE
5
45d
100
AcDbEntity
8
1
100
AcDbLine
6
DOT2
62
6
10
2644.218882
20
-532.716201
11
2644.518882
21
-533.016201
0
LINE
5
45e
100
AcDbEntity
8
1
100
AcDbLine
6
DOT2
62
6
10
2649.531690
20
-538.029009
11
2649.831690
21
-538.329009
0
LINE
5
45f
100
AcDbEntity
8
1
100
AcDbLine
6
DOT2
62
6
10
2644.501725
20
-532.716201
11
2644.801725
21
-533.016201
0
LINE
5
460
100
AcDbEntity
8
1
100
AcDbLine
6
DOT2
62
6
10
2649.531690
20
-537.746166
11
2649.831690
21
-538.046166
0
LINE
5
461
100
AcDbEntity
8
1
100
AcDbLine
6
DOT2
62
6
10
2644.784568
20
-532.716201
11
2645.084568
21
-533.016201
0
LINE
5
462
100
AcDbEntity
8
1
100
AcDbLine
6
DOT2
62
6
10
2649.531690
20
-537.463323
11
2649.831690
21
-537.763323
0
LINE
5
463
100
AcDbEntity
8
1
100
AcDbLine
6
DOT2
62
6
10
2645.067410
20
-532.716201
11
2645.367410
21
-533.016201
0
LINE
5
464
100
AcDbEntity
8
1
100
AcDbLine
6
DOT2
62
6
10
2649.531690
20
-537.180480
11
2649.831690
21
-537.480480
0
LINE
5
465
100
AcDbEntity
8
1
100
AcDbLine
6
DOT2
62
6
10
2645.350253
20
-532.716201
11
2645.650253
21
-533.016201
0
LINE
5
466
100
AcDbEntity
8
1
100
AcDbLine
6
DOT2
62
6
10
2649.531690
20
-536.897638
11
2649.831690
21
-537.197638
0
LINE
5
467
100
AcDbEntity
8
1
100
AcDbLine
6
DOT2
62
6
10
2645.633096
20
-532.716201
11
2645.933096
21
-533.016201
0
LINE
5
468
100
AcDbEntity
8
1
100
AcDbLine
6
DOT2
62
6
10
2649.531690
20
-536.614795
11
2649.831690
21
-536.914795
0
LINE
5
469
100
AcDbEntity
8
1
100
AcDbLine
6
DOT2
62
6
10
2645.915939
20
-532.716201
11
2646.215939
21
-533.016201
0
LINE
5
46a
100
AcDbEntity
8
1
100
AcDbLine
6
DOT2
62
6
10
2649.531690
20
-536.331952
11
2649.831690
21
-536.631952
0
LINE
5
46b
100
AcDbEntity
8
1
100
AcDbLine
6
DOT2
62
6
10
2646.198781
20
-532.716201
11
2646.498781
21
-533.016201
0
LINE
5
46c
100
AcDbEntity
8
1
100
AcDbLine
6
DOT2
62
6
10
2649.531690
20
-536.049110
11
2649.831690
21
-536.349110
0
LINE
5
46d
100
AcDbEntity
8
1
100
AcDbLine
6
DOT2
62
6
10
2646.481624
20
-532.716201
11
2646.781624
21
-533.016201
0
LINE
5
46e
100
AcDbEntity
8
1
100
AcDbLine
6
DOT2
62
6
10
2649.531690
20
-535.766267
11
2649.831690
21
-536.066267
0
LINE
5
46f
100
AcDbEntity
8
1
100
AcDbLine
6
DOT2
62
6
10
2646.764467
20
-532.716201
11
2647.064467
21
-533.016201
0
LINE
5
470
100
AcDbEntity
8
1
100
AcDbLine
6
DOT2
62
6
10
2649.531690
20
-535.483424
11
2649.831690
21
-535.783424
0
LINE
5
471
100
AcDbEntity
8
1
100
AcDbLine
6
DOT2
62
6
10
2647.047309
20
-532.716201
11
2647.347309
21
-533.016201
0
LINE
5
472
100
AcDbEntity
8
1
100
AcDbLine
6
DOT2
62
6
10
2649.531690
20
-535.200581
11
2649.831690
21
-535.500581
0
LINE
5
473
100
AcDbEntity
8
1
100
AcDbLine
6
DOT2
62
6
10
2647.330152
20
-532.716201
11
2647.630152
21
-533.016201
0
LINE
5
474
100
AcDbEntity
8
1
100
AcDbLine
6
DOT2
62
6
10
2649.531690
20
-534.917739
11
2649.831690
21
-535.217739
0
LINE
5
475
100
AcDbEntity
8
1
100
AcDbLine
6
DOT2
62
6
10
2647.612995
20
-532.716201
11
2647.912995
21
-533.016201
0
LINE
5
476
100
AcDbEntity
8
1
100
AcDbLine
6
DOT2
62
6
10
2649.531690
20
-534.634896
11
2649.831690
21
-534.934896
0
LINE
5
477
100
AcDbEntity
8
1
100
AcDbLine
6
DOT2
62
6
10
2647.895838
20
-532.716201
11
2648.195838
21
-533.016201
0
LINE
5
478
100
AcDbEntity
8
1
100
AcDbLine
6
DOT2
62
6
10
2649.531690
20
-534.352053
11
2649.831690
21
-534.652053
0
LINE
5
479
100
AcDbEntity
8
1
100
AcDbLine
6
DOT2
62
6
10
2648.178680
20
-532.716201
11
2648.478680
21
-533.016201
0
LINE
5
47a
100
AcDbEntity
8
1
100
AcDbLine
6
DOT2
62
6
10
2649.531690
20
-534.069211
11
2649.831690
21
-534.369211
0
LINE
5
47b
100
AcDbEntity
8
1
100
AcDbLine
6
DOT2
62
6
10
2648.461523
20
-532.716201
11
2648.761523
21
-533.016201
0
LINE
5
47c
100
AcDbEntity
8
1
100
AcDbLine
6
DOT2
62
6
10
2649.531690
20
-533.786368
11
2649.831690
21
-534.086368
0
LINE
5
47d
100
AcDbEntity
8
1
100
AcDbLine
6
DOT2
62
6
10
2648.744366
20
-532.716201
11
2649.044366
21
-533.016201
0
LINE
5
47e
100
AcDbEntity
8
1
100
AcDbLine
6
DOT2
62
6
10
2649.531690
20
-533.503525
11
2649.831690
21
-533.803525
0
LINE
5
47f
100
AcDbEntity
8
1
100
AcDbLine
6
DOT2
62
6
10
2649.027208
20
-532.716201
11
2649.327208
21
-533.016201
0
LINE
5
480
100
AcDbEntity
8
1
100
AcDbLine
6
DOT2
62
6
10
2649.531690
20
-533.220682
11
2649.831690
21
-533.520682
0
LINE
5
481
100
AcDbEntity
8
1
100
AcDbLine
6
DOT2
62
6
10
2649.310051
20
-532.716201
11
2649.831690
21
-533.237840
0
LINE
5
482
100
AcDbEntity
8
1
100
AcDbLine
6
DOT2
62
6
10
2649.531690
20
-540.574593
11
2649.831690
21
-540.874593
0
LINE
5
483
100
AcDbEntity
8
1
100
AcDbLine
6
DOT2
62
6
10
2642.231690
20
-547.699571
11
2642.248320
21
-547.716201
0
LINE
5
484
100
AcDbEntity
8
1
100
AcDbLine
6
DOT2
62
6
10
2642.231690
20
-547.416729
11
2642.531162
21
-547.716201
0
LINE
5
485
100
AcDbEntity
8
1
100
AcDbLine
6
DOT2
62
6
10
2642.231690
20
-547.133886
11
2642.814005
21
-547.716201
0
LINE
5
486
100
AcDbEntity
8
1
100
AcDbLine
6
DOT2
62
6
10
2642.231690
20
-546.851043
11
2642.531690
21
-547.151043
0
LINE
5
487
100
AcDbEntity
8
1
100
AcDbLine
6
DOT2
62
6
10
2642.796848
20
-547.416201
11
2643.096848
21
-547.716201
0
LINE
5
488
100
AcDbEntity
8
1
100
AcDbLine
6
DOT2
62
6
10
2642.231690
20
-546.568200
11
2642.531690
21
-546.868200
0
LINE
5
489
100
AcDbEntity
8
1
100
AcDbLine
6
DOT2
62
6
10
2643.079690
20
-547.416201
11
2643.379690
21
-547.716201
0
LINE
5
48a
100
AcDbEntity
8
1
100
AcDbLine
6
DOT2
62
6
10
2642.231690
20
-546.285358
11
2642.531690
21
-546.585358
0
LINE
5
48b
100
AcDbEntity
8
1
100
AcDbLine
6
DOT2
62
6
10
2643.362533
20
-547.416201
11
2643.662533
21
-547.716201
0
LINE
5
48c
100
AcDbEntity
8
1
100
AcDbLine
6
DOT2
62
6
10
2642.231690
20
-546.002515
11
2642.531690
21
-546.302515
0
LINE
5
48d
100
AcDbEntity
8
1
100
AcDbLine
6
DOT2
62
6
10
2643.645376
20
-547.416201
11
2643.945376
21
-547.716201
0
LINE
5
48e
100
AcDbEntity
8
1
100
AcDbLine
6
DOT2
62
6
10
2642.231690
20
-545.719672
11
2642.531690
21
-546.019672
0
LINE
5
48f
100
AcDbEntity
8
1
100
AcDbLine
6
DOT2
62
6
10
2643.928219
20
-547.416201
11
2644.228219
21
-547.716201
0
LINE
5
490
100
AcDbEntity
8
1
100
AcDbLine
6
DOT2
62
6
10
2642.231690
20
-545.436830
11
2642.531690
21
-545.736830
0
LINE
5
491
100
AcDbEntity
8
1
100
AcDbLine
6
DOT2
62
6
10
2644.211061
20
-547.416201
11
2644.511061
21
-547.716201
0
LINE
5
492
100
AcDbEntity
8
1
100
AcDbLine
6
DOT2
62
6
10
2642.231690
20
-545.153987
11
2642.531690
21
-545.453987
0
LINE
5
493
100
AcDbEntity
8
1
100
AcDbLine
6
DOT2
62
6
10
2644.493904
20
-547.416201
11
2644.793904
21
-547.716201
0
LINE
5
494
100
AcDbEntity
8
1
100
AcDbLine
6
DOT2
62
6
10
2642.231690
20
-544.871144
11
2642.531690
21
-545.171144
0
LINE
5
495
100
AcDbEntity
8
1
100
AcDbLine
6
DOT2
62
6
10
2644.776747
20
-547.416201
11
2645.076747
21
-547.716201
0
LINE
5
496
100
AcDbEntity
8
1
100
AcDbLine
6
DOT2
62
6
10
2642.231690
20
-544.588301
11
2642.531690
21
-544.888301
0
LINE
5
497
100
AcDbEntity
8
1
100
AcDbLine
6
DOT2
62
6
10
2645.059589
20
-547.416201
11
2645.359589
21
-547.716201
0
LINE
5
498
100
AcDbEntity
8
1
100
AcDbLine
6
DOT2
62
6
10
2642.231690
20
-544.305459
11
2642.531690
21
-544.605459
0
LINE
5
499
100
AcDbEntity
8
1
100
AcDbLine
6
DOT2
62
6
10
2645.342432
20
-547.416201
11
2645.642432
21
-547.716201
0
LINE
5
49a
100
AcDbEntity
8
1
100
AcDbLine
6
DOT2
62
6
10
2642.231690
20
-544.022616
11
2642.531690
21
-544.322616
0
LINE
5
49b
100
AcDbEntity
8
1
100
AcDbLine
6
DOT2
62
6
10
2645.625275
20
-547.416201
11
2645.925275
21
-547.716201
0
LINE
5
49c
100
AcDbEntity
8
1
100
AcDbLine
6
DOT2
62
6
10
2642.231690
20
-543.739773
11
2642.531690
21
-544.039773
0
LINE
5
49d
100
AcDbEntity
8
1
100
AcDbLine
6
DOT2
62
6
10
2645.908118
20
-547.416201
11
2646.208118
21
-547.716201
0
LINE
5
49e
100
AcDbEntity
8
1
100
AcDbLine
6
DOT2
62
6
10
2642.231690
20
-543.456931
11
2642.531690
21
-543.756931
0
LINE
5
49f
100
AcDbEntity
8
1
100
AcDbLine
6
DOT2
62
6
10
2646.190960
20
-547.416201
11
2646.490960
21
-547.716201
0
LINE
5
4a0
100
AcDbEntity
8
1
100
AcDbLine
6
DOT2
62
6
10
2642.231690
20
-543.174088
11
2642.531690
21
-543.474088
0
LINE
5
4a1
100
AcDbEntity
8
1
100
AcDbLine
6
DOT2
62
6
10
2646.473803
20
-547.416201
11
2646.773803
21
-547.716201
0
LINE
5
4a2
100
AcDbEntity
8
1
100
AcDbLine
6
DOT2
62
6
10
2642.231690
20
-542.891245
11
2642.531690
21
-543.191245
0
LINE
5
4a3
100
AcDbEntity
8
1
100
AcDbLine
6
DOT2
62
6
10
2646.756646
20
-547.416201
11
2647.056646
21
-547.716201
0
LINE
5
4a4
100
AcDbEntity
8
1
100
AcDbLine
6
DOT2
62
6
10
2642.231690
20
-542.608402
11
2642.531690
21
-542.908402
0
LINE
5
4a5
100
AcDbEntity
8
1
100
AcDbLine
6
DOT2
62
6
10
2647.039488
20
-547.416201
11
2647.339488
21
-547.716201
0
LINE
5
4a6
100
AcDbEntity
8
1
100
AcDbLine
6
DOT2
62
6
10
2642.231690
20
-542.325560
11
2642.531690
21
-542.625560
0
LINE
5
4a7
100
AcDbEntity
8
1
100
AcDbLine
6
DOT2
62
6
10
2647.322331
20
-547.416201
11
2647.622331
21
-547.716201
0
LINE
5
4a8
100
AcDbEntity
8
1
100
AcDbLine
6
DOT2
62
6
10
2642.231690
20
-542.042717
11
2642.531690
21
-542.342717
0
LINE
5
4a9
100
AcDbEntity
8
1
100
AcDbLine
6
DOT2
62
6
10
2647.605174
20
-547.416201
11
2647.905174
21
-547.716201
0
LINE
5
4aa
100
AcDbEntity
8
1
100
AcDbLine
6
DOT2
62
6
10
2642.231690
20
-541.759874
11
2642.531690
21
-542.059874
0
LINE
5
4ab
100
AcDbEntity
8
1
100
AcDbLine
6
DOT2
62
6
10
2647.888017
20
-547.416201
11
2648.188017
21
-547.716201
0
LINE
5
4ac
100
AcDbEntity
8
1
100
AcDbLine
6
DOT2
62
6
10
2642.231690
20
-541.477032
11
2642.531690
21
-541.777032
0
LINE
5
4ad
100
AcDbEntity
8
1
100
AcDbLine
6
DOT2
62
6
10
2648.170859
20
-547.416201
11
2648.470859
21
-547.716201
0
LINE
5
4ae
100
AcDbEntity
8
1
100
AcDbLine
6
DOT2
62
6
10
2642.231690
20
-541.194189
11
2642.531690
21
-541.494189
0
LINE
5
4af
100
AcDbEntity
8
1
100
AcDbLine
6
DOT2
62
6
10
2648.453702
20
-547.416201
11
2648.753702
21
-547.716201
0
LINE
5
4b0
100
AcDbEntity
8
1
100
AcDbLine
6
DOT2
62
6
10
2642.231690
20
-540.911346
11
2642.531690
21
-541.211346
0
LINE
5
4b1
100
AcDbEntity
8
1
100
AcDbLine
6
DOT2
62
6
10
2648.736545
20
-547.416201
11
2649.036545
21
-547.716201
0
LINE
5
4b2
100
AcDbEntity
8
1
100
AcDbLine
6
DOT2
62
6
10
2642.231690
20
-540.628503
11
2642.531690
21
-540.928503
0
LINE
5
4b3
100
AcDbEntity
8
1
100
AcDbLine
6
DOT2
62
6
10
2649.019387
20
-547.416201
11
2649.319387
21
-547.716201
0
LINE
5
4b4
100
AcDbEntity
8
1
100
AcDbLine
6
DOT2
62
6
10
2642.231690
20
-540.345661
11
2642.531690
21
-540.645661
0
LINE
5
4b5
100
AcDbEntity
8
1
100
AcDbLine
6
DOT2
62
6
10
2649.302230
20
-547.416201
11
2649.602230
21
-547.716201
0
LINE
5
4b6
100
AcDbEntity
8
1
100
AcDbLine
6
DOT2
62
6
10
2642.231690
20
-540.062818
11
2642.531690
21
-540.362818
0
LINE
5
4b7
100
AcDbEntity
8
1
100
AcDbLine
6
DOT2
62
6
10
2649.531690
20
-547.362818
11
2649.831690
21
-547.662818
0
LINE
5
4b8
100
AcDbEntity
8
1
100
AcDbLine
6
DOT2
62
6
10
2642.231690
20
-539.779975
11
2642.531690
21
-540.079975
0
LINE
5
4b9
100
AcDbEntity
8
1
100
AcDbLine
6
DOT2
62
6
10
2649.531690
20
-547.079975
11
2649.831690
21
-547.379975
0
LINE
5
4ba
100
AcDbEntity
8
1
100
AcDbLine
6
DOT2
62
6
10
2642.231690
20
-539.497133
11
2642.531690
21
-539.797133
0
LINE
5
4bb
100
AcDbEntity
8
1
100
AcDbLine
6
DOT2
62
6
10
2649.531690
20
-546.797133
11
2649.831690
21
-547.097133
0
LINE
5
4bc
100
AcDbEntity
8
1
100
AcDbLine
6
DOT2
62
6
10
2642.231690
20
-539.214290
11
2642.531690
21
-539.514290
0
LINE
5
4bd
100
AcDbEntity
8
1
100
AcDbLine
6
DOT2
62
6
10
2649.531690
20
-546.514290
11
2649.831690
21
-546.814290
0
LINE
5
4be
100
AcDbEntity
8
1
100
AcDbLine
6
DOT2
62
6
10
2642.231690
20
-538.931447
11
2642.531690
21
-539.231447
0
LINE
5
4bf
100
AcDbEntity
8
1
100
AcDbLine
6
DOT2
62
6
10
2649.531690
20
-546.231447
11
2649.831690
21
-546.531447
0
LINE
5
4c0
100
AcDbEntity
8
1
100
AcDbLine
6
DOT2
62
6
10
2642.231690
20
-538.648604
11
2642.531690
21
-538.948604
0
LINE
5
4c1
100
AcDbEntity
8
1
100
AcDbLine
6
DOT2
62
6
10
2649.531690
20
-545.948604
11
2649.831690
21
-546.248604
0
LINE
5
4c2
100
AcDbEntity
8
1
100
AcDbLine
6
DOT2
62
6
10
2642.231690
20
-538.365762
11
2642.531690
21
-538.665762
0
LINE
5
4c3
100
AcDbEntity
8
1
100
AcDbLine
6
DOT2
62
6
10
2649.531690
20
-545.665762
11
2649.831690
21
-545.965762
0
LINE
5
4c4
100
AcDbEntity
8
1
100
AcDbLine
6
DOT2
62
6
10
2642.231690
20
-538.082919
11
2642.531690
21
-538.382919
0
LINE
5
4c5
100
AcDbEntity
8
1
100
AcDbLine
6
DOT2
62
6
10
2649.531690
20
-545.382919
11
2649.831690
21
-545.682919
0
LINE
5
4c6
100
AcDbEntity
8
1
100
AcDbLine
6
DOT2
62
6
10
2642.231690
20
-537.800076
11
2642.531690
21
-538.100076
0
LINE
5
4c7
100
AcDbEntity
8
1
100
AcDbLine
6
DOT2
62
6
10
2649.531690
20
-545.100076
11
2649.831690
21
-545.400076
0
LINE
5
4c8
100
AcDbEntity
8
1
100
AcDbLine
6
DOT2
62
6
10
2642.231690
20
-537.517234
11
2642.531690
21
-537.817234
0
LINE
5
4c9
100
AcDbEntity
8
1
100
AcDbLine
6
DOT2
62
6
10
2649.531690
20
-544.817234
11
2649.831690
21
-545.117234
0
LINE
5
4ca
100
AcDbEntity
8
1
100
AcDbLine
6
DOT2
62
6
10
2642.231690
20
-537.234391
11
2642.531690
21
-537.534391
0
LINE
5
4cb
100
AcDbEntity
8
1
100
AcDbLine
6
DOT2
62
6
10
2649.531690
20
-544.534391
11
2649.831690
21
-544.834391
0
LINE
5
4cc
100
AcDbEntity
8
1
100
AcDbLine
6
DOT2
62
6
10
2642.231690
20
-536.951548
11
2642.531690
21
-537.251548
0
LINE
5
4cd
100
AcDbEntity
8
1
100
AcDbLine
6
DOT2
62
6
10
2649.531690
20
-544.251548
11
2649.831690
21
-544.551548
0
LINE
5
4ce
100
AcDbEntity
8
1
100
AcDbLine
6
DOT2
62
6
10
2642.231690
20
-536.668705
11
2642.531690
21
-536.968705
0
LINE
5
4cf
100
AcDbEntity
8
1
100
AcDbLine
6
DOT2
62
6
10
2649.531690
20
-543.968705
11
2649.831690
21
-544.268705
0
LINE
5
4d0
100
AcDbEntity
8
1
100
AcDbLine
6
DOT2
62
6
10
2642.231690
20
-536.385863
11
2642.531690
21
-536.685863
0
LINE
5
4d1
100
AcDbEntity
8
1
100
AcDbLine
6
DOT2
62
6
10
2649.531690
20
-543.685863
11
2649.831690
21
-543.985863
0
LINE
5
4d2
100
AcDbEntity
8
1
100
AcDbLine
6
DOT2
62
6
10
2642.231690
20
-536.103020
11
2642.531690
21
-536.403020
0
LINE
5
4d3
100
AcDbEntity
8
1
100
AcDbLine
6
DOT2
62
6
10
2649.531690
20
-543.403020
11
2649.831690
21
-543.703020
0
LINE
5
4d4
100
AcDbEntity
8
1
100
AcDbLine
6
DOT2
62
6
10
2642.231690
20
-535.820177
11
2642.531690
21
-536.120177
0
LINE
5
4d5
100
AcDbEntity
8
1
100
AcDbLine
6
DOT2
62
6
10
2649.531690
20
-543.120177
11
2649.831690
21
-543.420177
0
LINE
5
4d6
100
AcDbEntity
8
1
100
AcDbLine
6
DOT2
62
6
10
2642.231690
20
-535.537335
11
2642.531690
21
-535.837335
0
LINE
5
4d7
100
AcDbEntity
8
1
100
AcDbLine
6
DOT2
62
6
10
2649.531690
20
-542.837335
11
2649.831690
21
-543.137335
0
LINE
5
4d8
100
AcDbEntity
8
1
100
AcDbLine
6
DOT2
62
6
10
2642.231690
20
-535.254492
11
2642.531690
21
-535.554492
0
LINE
5
4d9
100
AcDbEntity
8
1
100
AcDbLine
6
DOT2
62
6
10
2649.531690
20
-542.554492
11
2649.831690
21
-542.854492
0
LINE
5
4da
100
AcDbEntity
8
1
100
AcDbLine
6
DOT2
62
6
10
2642.231690
20
-534.971649
11
2642.531690
21
-535.271649
0
LINE
5
4db
100
AcDbEntity
8
1
100
AcDbLine
6
DOT2
62
6
10
2649.531690
20
-542.271649
11
2649.831690
21
-542.571649
0
LINE
5
4dc
100
AcDbEntity
8
1
100
AcDbLine
6
DOT2
62
6
10
2642.231690
20
-534.688806
11
2642.531690
21
-534.988806
0
LINE
5
4dd
100
AcDbEntity
8
1
100
AcDbLine
6
DOT2
62
6
10
2649.531690
20
-541.988806
11
2649.831690
21
-542.288806
0
LINE
5
4de
100
AcDbEntity
8
1
100
AcDbLine
6
DOT2
62
6
10
2642.231690
20
-534.405964
11
2642.531690
21
-534.705964
0
LINE
5
4df
100
AcDbEntity
8
1
100
AcDbLine
6
DOT2
62
6
10
2649.531690
20
-541.705964
11
2649.831690
21
-542.005964
0
LINE
5
4e0
100
AcDbEntity
8
1
100
AcDbLine
6
DOT2
62
6
10
2642.231690
20
-534.123121
11
2642.531690
21
-534.423121
0
LINE
5
4e1
100
AcDbEntity
8
1
100
AcDbLine
6
DOT2
62
6
10
2649.531690
20
-541.423121
11
2649.831690
21
-541.723121
0
LINE
5
4e2
100
AcDbEntity
8
1
100
AcDbLine
6
DOT2
62
6
10
2642.231690
20
-533.840278
11
2642.531690
21
-534.140278
0
LINE
5
4e3
100
AcDbEntity
8
1
100
AcDbLine
6
DOT2
62
6
10
2649.531690
20
-541.140278
11
2649.831690
21
-541.440278
0
LINE
5
4e4
100
AcDbEntity
8
1
100
AcDbLine
6
DOT2
62
6
10
2642.231690
20
-533.557436
11
2642.531690
21
-533.857436
0
LINE
5
4e5
100
AcDbEntity
8
1
100
AcDbLine
6
DOT2
62
6
10
2649.531690
20
-540.857436
11
2649.831690
21
-541.157436
0
LINE
5
4e6
100
AcDbEntity
8
1
100
AcDbLine
6
DOT2
62
6
10
2642.231690
20
-533.274593
11
2642.531690
21
-533.574593
0
LINE
5
4e7
100
AcDbEntity
8
1
100
AcDbLine
6
DOT2
62
6
10
2646.391099
20
-546.767812
11
2646.259482
21
-546.636195
0
LINE
5
4e8
100
AcDbEntity
8
1
100
AcDbLine
6
DOT2
62
6
10
2647.892825
20
-543.744055
11
2647.570922
21
-543.422151
0
LINE
5
4e9
100
AcDbEntity
8
1
100
AcDbLine
6
DOT2
62
6
10
2647.654719
20
-543.788791
11
2647.448706
21
-543.582778
0
LINE
5
4ea
100
AcDbEntity
8
1
100
AcDbLine
6
DOT2
62
6
10
2647.371876
20
-543.788791
11
2647.237942
21
-543.654856
0
LINE
5
4eb
100
AcDbEntity
8
1
100
AcDbLine
6
DOT2
62
6
10
2647.089033
20
-543.788791
11
2646.955099
21
-543.654856
0
LINE
5
4ec
100
AcDbEntity
8
1
100
AcDbLine
6
DOT2
62
6
10
2646.346742
20
-543.046499
11
2646.325381
21
-543.025138
0
LINE
5
4ed
100
AcDbEntity
8
1
100
AcDbLine
6
DOT2
62
6
10
2647.721186
20
-544.703786
11
2647.409120
21
-544.391720
0
LINE
5
4ee
100
AcDbEntity
8
1
100
AcDbLine
6
DOT2
62
6
10
2646.806190
20
-543.788791
11
2646.672256
21
-543.654856
0
LINE
5
4ef
100
AcDbEntity
8
1
100
AcDbLine
6
DOT2
62
6
10
2646.191395
20
-543.173995
11
2645.917863
21
-542.900463
0
LINE
5
4f0
100
AcDbEntity
8
1
100
AcDbLine
6
DOT2
62
6
10
2647.464946
20
-544.730389
11
2647.293123
21
-544.558566
0
LINE
5
4f1
100
AcDbEntity
8
1
100
AcDbLine
6
DOT2
62
6
10
2646.580112
20
-543.845555
11
2646.389414
21
-543.654856
0
LINE
5
4f2
100
AcDbEntity
8
1
100
AcDbLine
6
DOT2
62
6
10
2646.117855
20
-543.383298
11
2645.869952
21
-543.135395
0
LINE
5
4f3
100
AcDbEntity
8
1
100
AcDbLine
6
DOT2
62
6
10
2647.182103
20
-544.730389
11
2647.015700
21
-544.563985
0
LINE
5
4f4
100
AcDbEntity
8
1
100
AcDbLine
6
DOT2
62
6
10
2646.580112
20
-544.128398
11
2646.259482
21
-543.807767
0
LINE
5
4f5
100
AcDbEntity
8
1
100
AcDbLine
6
DOT2
62
6
10
2646.240505
20
-543.788791
11
2646.106571
21
-543.654856
0
LINE
5
4f6
100
AcDbEntity
8
1
100
AcDbLine
6
DOT2
62
6
10
2646.054846
20
-543.603131
11
2645.816003
21
-543.364288
0
LINE
5
4f7
100
AcDbEntity
8
1
100
AcDbLine
6
DOT2
62
6
10
2647.760684
20
-545.591812
11
2647.445334
21
-545.276462
0
LINE
5
4f8
100
AcDbEntity
8
1
100
AcDbLine
6
DOT2
62
6
10
2646.899260
20
-544.730389
11
2646.732857
21
-544.563985
0
LINE
5
4f9
100
AcDbEntity
8
1
100
AcDbLine
6
DOT2
62
6
10
2646.580112
20
-544.411240
11
2646.259482
21
-544.090610
0
LINE
5
4fa
100
AcDbEntity
8
1
100
AcDbLine
6
DOT2
62
6
10
2645.980499
20
-543.811627
11
2645.753832
21
-543.584960
0
LINE
5
4fb
100
AcDbEntity
8
1
100
AcDbLine
6
DOT2
62
6
10
2647.501195
20
-545.615166
11
2647.322423
21
-545.436394
0
LINE
5
4fc
100
AcDbEntity
8
1
100
AcDbLine
6
DOT2
62
6
10
2646.616418
20
-544.730389
11
2646.259482
21
-544.373453
0
LINE
5
4fd
100
AcDbEntity
8
1
100
AcDbLine
6
DOT2
62
6
10
2645.895782
20
-544.009753
11
2645.684010
21
-543.797981
0
LINE
5
4fe
100
AcDbEntity
8
1
100
AcDbLine
6
DOT2
62
6
10
2647.218352
20
-545.615166
11
2647.064125
21
-545.460939
0
LINE
5
4ff
100
AcDbEntity
8
1
100
AcDbLine
6
DOT2
62
6
10
2646.580112
20
-544.976926
11
2646.259482
21
-544.656296
0
LINE
5
500
100
AcDbEntity
8
1
100
AcDbLine
6
DOT2
62
6
10
2645.801429
20
-544.198243
11
2645.607007
21
-544.003820
0
LINE
5
501
100
AcDbEntity
8
1
100
AcDbLine
6
DOT2
62
6
10
2646.935509
20
-545.615166
11
2646.781282
21
-545.460939
0
LINE
5
502
100
AcDbEntity
8
1
100
AcDbLine
6
DOT2
62
6
10
2646.580112
20
-545.259769
11
2646.259482
21
-544.939138
0
LINE
5
503
100
AcDbEntity
8
1
100
AcDbLine
6
DOT2
62
6
10
2645.697998
20
-544.377654
11
2645.523212
21
-544.202869
0
LINE
5
504
100
AcDbEntity
8
1
100
AcDbLine
6
DOT2
62
6
10
2646.652667
20
-545.615166
11
2646.259482
21
-545.221981
0
LINE
5
505
100
AcDbEntity
8
1
100
AcDbLine
6
DOT2
62
6
10
2645.585906
20
-544.548405
11
2645.432953
21
-544.395452
0
LINE
5
506
100
AcDbEntity
8
1
100
AcDbLine
6
DOT2
62
6
10
2646.580112
20
-545.825454
11
2646.259482
21
-545.504824
0
LINE
5
507
100
AcDbEntity
8
1
100
AcDbLine
6
DOT2
62
6
10
2645.465460
20
-544.710801
11
2645.336501
21
-544.581843
0
LINE
5
508
100
AcDbEntity
8
1
100
AcDbLine
6
DOT2
62
6
10
2646.580112
20
-546.108297
11
2646.259482
21
-545.787666
0
LINE
5
509
100
AcDbEntity
8
1
100
AcDbLine
6
DOT2
62
6
10
2645.336869
20
-544.865053
11
2645.234083
21
-544.762267
0
LINE
5
50a
100
AcDbEntity
8
1
100
AcDbLine
6
DOT2
62
6
10
2646.580112
20
-546.391139
11
2646.259482
21
-546.070509
0
LINE
5
50b
100
AcDbEntity
8
1
100
AcDbLine
6
DOT2
62
6
10
2646.580112
20
-546.673982
11
2646.259482
21
-546.353352
0
LINE
5
50c
100
AcDbEntity
8
1
100
AcDbLine
6
DOT2
62
6
10
2645.857014
20
-543.194569
11
2646.113318
21
-542.938265
0
LINE
5
50d
100
AcDbEntity
8
1
100
AcDbLine
6
DOT2
62
6
10
2646.526412
20
-546.767812
11
2646.580112
21
-546.714112
0
LINE
5
50e
100
AcDbEntity
8
1
100
AcDbLine
6
DOT2
62
6
10
2647.679058
20
-545.615166
11
2647.779221
21
-545.515002
0
LINE
5
50f
100
AcDbEntity
8
1
100
AcDbLine
6
DOT2
62
6
10
2646.259482
20
-546.751899
11
2646.580112
21
-546.431269
0
LINE
5
510
100
AcDbEntity
8
1
100
AcDbLine
6
DOT2
62
6
10
2647.396215
20
-545.615166
11
2647.652430
21
-545.358951
0
LINE
5
511
100
AcDbEntity
8
1
100
AcDbLine
6
DOT2
62
6
10
2646.259482
20
-546.469057
11
2646.580112
21
-546.148426
0
LINE
5
512
100
AcDbEntity
8
1
100
AcDbLine
6
DOT2
62
6
10
2647.113373
20
-545.615166
11
2647.267600
21
-545.460939
0
LINE
5
513
100
AcDbEntity
8
1
100
AcDbLine
6
DOT2
62
6
10
2647.422947
20
-545.305592
11
2647.486765
21
-545.241774
0
LINE
5
514
100
AcDbEntity
8
1
100
AcDbLine
6
DOT2
62
6
10
2646.259482
20
-546.186214
11
2646.580112
21
-545.865584
0
LINE
5
515
100
AcDbEntity
8
1
100
AcDbLine
6
DOT2
62
6
10
2646.830530
20
-545.615166
11
2646.984757
21
-545.460939
0
LINE
5
516
100
AcDbEntity
8
1
100
AcDbLine
6
DOT2
62
6
10
2646.259482
20
-545.903371
11
2646.701914
21
-545.460939
0
LINE
5
517
100
AcDbEntity
8
1
100
AcDbLine
6
DOT2
62
6
10
2647.432464
20
-544.730389
11
2647.670712
21
-544.492141
0
LINE
5
518
100
AcDbEntity
8
1
100
AcDbLine
6
DOT2
62
6
10
2646.259482
20
-545.620528
11
2646.580112
21
-545.299898
0
LINE
5
519
100
AcDbEntity
8
1
100
AcDbLine
6
DOT2
62
6
10
2647.149622
20
-544.730389
11
2647.529102
21
-544.350908
0
LINE
5
51a
100
AcDbEntity
8
1
100
AcDbLine
6
DOT2
62
6
10
2646.259482
20
-545.337686
11
2646.580112
21
-545.017055
0
LINE
5
51b
100
AcDbEntity
8
1
100
AcDbLine
6
DOT2
62
6
10
2646.866779
20
-544.730389
11
2647.033182
21
-544.563985
0
LINE
5
51c
100
AcDbEntity
8
1
100
AcDbLine
6
DOT2
62
6
10
2647.808377
20
-543.788791
11
2647.911102
21
-543.686065
0
LINE
5
51d
100
AcDbEntity
8
1
100
AcDbLine
6
DOT2
62
6
10
2646.259482
20
-545.054843
11
2646.580112
21
-544.734213
0
LINE
5
51e
100
AcDbEntity
8
1
100
AcDbLine
6
DOT2
62
6
10
2646.583936
20
-544.730389
11
2646.750339
21
-544.563985
0
LINE
5
51f
100
AcDbEntity
8
1
100
AcDbLine
6
DOT2
62
6
10
2647.525534
20
-543.788791
11
2647.778923
21
-543.535402
0
LINE
5
520
100
AcDbEntity
8
1
100
AcDbLine
6
DOT2
62
6
10
2646.259482
20
-544.772000
11
2646.580112
21
-544.451370
0
LINE
5
521
100
AcDbEntity
8
1
100
AcDbLine
6
DOT2
62
6
10
2647.242691
20
-543.788791
11
2647.376626
21
-543.654856
0
LINE
5
522
100
AcDbEntity
8
1
100
AcDbLine
6
DOT2
62
6
10
2647.448712
20
-543.582770
11
2647.609996
21
-543.421486
0
LINE
5
523
100
AcDbEntity
8
1
100
AcDbLine
6
DOT2
62
6
10
2646.259482
20
-544.489158
11
2646.580112
21
-544.168527
0
LINE
5
524
100
AcDbEntity
8
1
100
AcDbLine
6
DOT2
62
6
10
2646.959849
20
-543.788791
11
2647.093783
21
-543.654856
0
LINE
5
525
100
AcDbEntity
8
1
100
AcDbLine
6
DOT2
62
6
10
2646.259482
20
-544.206315
11
2646.580112
21
-543.885685
0
LINE
5
526
100
AcDbEntity
8
1
100
AcDbLine
6
DOT2
62
6
10
2646.677006
20
-543.788791
11
2646.810940
21
-543.654856
0
LINE
5
527
100
AcDbEntity
8
1
100
AcDbLine
6
DOT2
62
6
10
2645.212382
20
-544.970572
11
2645.439276
21
-544.743678
0
LINE
5
528
100
AcDbEntity
8
1
100
AcDbLine
6
DOT2
62
6
10
2646.259482
20
-543.923472
11
2646.528098
21
-543.654856
0
LINE
5
529
100
AcDbEntity
8
1
100
AcDbLine
6
DOT2
62
6
10
2645.357655
20
-544.542456
11
2645.900441
21
-543.999671
0
LINE
5
52a
100
AcDbEntity
8
1
100
AcDbLine
6
DOT2
62
6
10
2646.111321
20
-543.788791
11
2646.245255
21
-543.654856
0
LINE
5
52b
100
AcDbEntity
8
1
100
AcDbLine
6
DOT2
62
6
10
2645.602734
20
-544.014535
11
2646.073324
21
-543.543944
0
LINE
5
52c
100
AcDbEntity
8
1
100
AcDbLine
6
DOT2
62
6
10
2645.755741
20
-543.578685
11
2646.313964
21
-543.020461
0
LINE
5
52d
100
AcDbEntity
8
1
100
AcDbLine
6
DOT2
62
6
10
2645.808451
20
-533.740085
11
2646.117370
21
-534.049003
0
LINE
5
52e
100
AcDbEntity
8
1
100
AcDbLine
6
DOT2
62
6
10
2644.147224
20
-536.321498
11
2644.270055
21
-536.444329
0
LINE
5
52f
100
AcDbEntity
8
1
100
AcDbLine
6
DOT2
62
6
10
2644.275953
20
-536.167385
11
2644.425569
21
-536.317000
0
LINE
5
530
100
AcDbEntity
8
1
100
AcDbLine
6
DOT2
62
6
10
2644.380280
20
-535.988869
11
2644.561510
21
-536.170099
0
LINE
5
531
100
AcDbEntity
8
1
100
AcDbLine
6
DOT2
62
6
10
2644.465944
20
-535.791690
11
2644.677557
21
-536.003303
0
LINE
5
532
100
AcDbEntity
8
1
100
AcDbLine
6
DOT2
62
6
10
2644.532795
20
-535.575698
11
2644.772115
21
-535.815018
0
LINE
5
533
100
AcDbEntity
8
1
100
AcDbLine
6
DOT2
62
6
10
2644.121052
20
-534.881113
11
2644.278040
21
-535.038101
0
LINE
5
534
100
AcDbEntity
8
1
100
AcDbLine
6
DOT2
62
6
10
2644.573128
20
-535.333189
11
2644.841752
21
-535.601812
0
LINE
5
535
100
AcDbEntity
8
1
100
AcDbLine
6
DOT2
62
6
10
2645.381312
20
-536.141372
11
2645.527713
21
-536.287773
0
LINE
5
536
100
AcDbEntity
8
1
100
AcDbLine
6
DOT2
62
6
10
2644.403895
20
-534.881113
11
2644.560883
21
-535.038101
0
LINE
5
537
100
AcDbEntity
8
1
100
AcDbLine
6
DOT2
62
6
10
2644.581421
20
-535.058639
11
2644.880306
21
-535.357524
0
LINE
5
538
100
AcDbEntity
8
1
100
AcDbLine
6
DOT2
62
6
10
2645.381312
20
-535.858529
11
2645.705255
21
-536.182473
0
LINE
5
539
100
AcDbEntity
8
1
100
AcDbLine
6
DOT2
62
6
10
2644.616308
20
-534.810683
11
2644.909149
21
-535.103524
0
LINE
5
53a
100
AcDbEntity
8
1
100
AcDbLine
6
DOT2
62
6
10
2645.381312
20
-535.575687
11
2645.705255
21
-535.899630
0
LINE
5
53b
100
AcDbEntity
8
1
100
AcDbLine
6
DOT2
62
6
10
2644.170895
20
-534.082427
11
2644.180904
21
-534.092436
0
LINE
5
53c
100
AcDbEntity
8
1
100
AcDbLine
6
DOT2
62
6
10
2644.616308
20
-534.527840
11
2644.920316
21
-534.831848
0
LINE
5
53d
100
AcDbEntity
8
1
100
AcDbLine
6
DOT2
62
6
10
2644.969581
20
-534.881113
11
2645.126568
21
-535.038101
0
LINE
5
53e
100
AcDbEntity
8
1
100
AcDbLine
6
DOT2
62
6
10
2645.381312
20
-535.292844
11
2645.705255
21
-535.616787
0
LINE
5
53f
100
AcDbEntity
8
1
100
AcDbLine
6
DOT2
62
6
10
2644.290561
20
-533.919251
11
2644.463746
21
-534.092436
0
LINE
5
540
100
AcDbEntity
8
1
100
AcDbLine
6
DOT2
62
6
10
2644.616308
20
-534.244997
11
2644.920316
21
-534.549005
0
LINE
5
541
100
AcDbEntity
8
1
100
AcDbLine
6
DOT2
62
6
10
2645.252423
20
-534.881113
11
2645.705255
21
-535.333944
0
LINE
5
542
100
AcDbEntity
8
1
100
AcDbLine
6
DOT2
62
6
10
2644.573404
20
-533.919251
11
2644.920316
21
-534.266163
0
LINE
5
543
100
AcDbEntity
8
1
100
AcDbLine
6
DOT2
62
6
10
2645.381312
20
-534.727159
11
2645.705255
21
-535.051102
0
LINE
5
544
100
AcDbEntity
8
1
100
AcDbLine
6
DOT2
62
6
10
2644.856247
20
-533.919251
11
2645.029432
21
-534.092436
0
LINE
5
545
100
AcDbEntity
8
1
100
AcDbLine
6
DOT2
62
6
10
2645.381312
20
-534.444316
11
2645.705255
21
-534.768259
0
LINE
5
546
100
AcDbEntity
8
1
100
AcDbLine
6
DOT2
62
6
10
2645.802757
20
-534.865761
11
2645.975096
21
-535.038101
0
LINE
5
547
100
AcDbEntity
8
1
100
AcDbLine
6
DOT2
62
6
10
2645.139090
20
-533.919251
11
2645.312275
21
-534.092436
0
LINE
5
548
100
AcDbEntity
8
1
100
AcDbLine
6
DOT2
62
6
10
2645.381312
20
-534.161473
11
2645.705255
21
-534.485416
0
LINE
5
549
100
AcDbEntity
8
1
100
AcDbLine
6
DOT2
62
6
10
2645.924093
20
-534.704254
11
2646.229217
21
-535.009379
0
LINE
5
54a
100
AcDbEntity
8
1
100
AcDbLine
6
DOT2
62
6
10
2645.421932
20
-533.919251
11
2645.705255
21
-534.202574
0
LINE
5
54b
100
AcDbEntity
8
1
100
AcDbLine
6
DOT2
62
6
10
2645.691197
20
-533.905673
11
2645.877960
21
-534.092436
0
LINE
5
54c
100
AcDbEntity
8
1
100
AcDbLine
6
DOT2
62
6
10
2644.211124
20
-534.092436
11
2644.384309
21
-533.919251
0
LINE
5
54d
100
AcDbEntity
8
1
100
AcDbLine
6
DOT2
62
6
10
2645.692742
20
-536.287773
11
2645.705255
21
-536.275261
0
LINE
5
54e
100
AcDbEntity
8
1
100
AcDbLine
6
DOT2
62
6
10
2645.409899
20
-536.287773
11
2645.705255
21
-535.992418
0
LINE
5
54f
100
AcDbEntity
8
1
100
AcDbLine
6
DOT2
62
6
10
2645.381312
20
-536.033518
11
2645.705255
21
-535.709575
0
LINE
5
550
100
AcDbEntity
8
1
100
AcDbLine
6
DOT2
62
6
10
2645.381312
20
-535.750676
11
2645.705255
21
-535.426732
0
LINE
5
551
100
AcDbEntity
8
1
100
AcDbLine
6
DOT2
62
6
10
2646.093887
20
-535.038101
11
2646.234387
21
-534.897601
0
LINE
5
552
100
AcDbEntity
8
1
100
AcDbLine
6
DOT2
62
6
10
2645.381312
20
-535.467833
11
2645.705255
21
-535.143890
0
LINE
5
553
100
AcDbEntity
8
1
100
AcDbLine
6
DOT2
62
6
10
2645.811044
20
-535.038101
11
2646.104831
21
-534.744314
0
LINE
5
554
100
AcDbEntity
8
1
100
AcDbLine
6
DOT2
62
6
10
2644.128728
20
-536.437574
11
2644.785972
21
-535.780330
0
LINE
5
555
100
AcDbEntity
8
1
100
AcDbLine
6
DOT2
62
6
10
2645.381312
20
-535.184990
11
2645.705255
21
-534.861047
0
LINE
5
556
100
AcDbEntity
8
1
100
AcDbLine
6
DOT2
62
6
10
2644.449773
20
-535.833686
11
2644.875151
21
-535.408308
0
LINE
5
557
100
AcDbEntity
8
1
100
AcDbLine
6
DOT2
62
6
10
2645.245358
20
-535.038101
11
2645.705255
21
-534.578204
0
LINE
5
558
100
AcDbEntity
8
1
100
AcDbLine
6
DOT2
62
6
10
2644.561857
20
-535.438759
11
2644.910693
21
-535.089923
0
LINE
5
559
100
AcDbEntity
8
1
100
AcDbLine
6
DOT2
62
6
10
2644.962516
20
-535.038101
11
2645.119503
21
-534.881113
0
LINE
5
55a
100
AcDbEntity
8
1
100
AcDbLine
6
DOT2
62
6
10
2645.381312
20
-534.619305
11
2645.705255
21
-534.295362
0
LINE
5
55b
100
AcDbEntity
8
1
100
AcDbLine
6
DOT2
62
6
10
2645.908180
20
-534.092436
11
2646.097502
21
-533.903114
0
LINE
5
55c
100
AcDbEntity
8
1
100
AcDbLine
6
DOT2
62
6
10
2644.581421
20
-535.136352
11
2644.920316
21
-534.797458
0
LINE
5
55d
100
AcDbEntity
8
1
100
AcDbLine
6
DOT2
62
6
10
2645.381312
20
-534.336462
11
2645.961291
21
-533.756483
0
LINE
5
55e
100
AcDbEntity
8
1
100
AcDbLine
6
DOT2
62
6
10
2644.396830
20
-535.038101
11
2644.553818
21
-534.881113
0
LINE
5
55f
100
AcDbEntity
8
1
100
AcDbLine
6
DOT2
62
6
10
2644.616308
20
-534.818623
11
2644.920316
21
-534.514615
0
LINE
5
560
100
AcDbEntity
8
1
100
AcDbLine
6
DOT2
62
6
10
2645.342495
20
-534.092436
11
2645.515680
21
-533.919251
0
LINE
5
561
100
AcDbEntity
8
1
100
AcDbLine
6
DOT2
62
6
10
2644.113988
20
-535.038101
11
2644.270975
21
-534.881113
0
LINE
5
562
100
AcDbEntity
8
1
100
AcDbLine
6
DOT2
62
6
10
2644.616308
20
-534.535781
11
2644.920316
21
-534.231772
0
LINE
5
563
100
AcDbEntity
8
1
100
AcDbLine
6
DOT2
62
6
10
2645.059652
20
-534.092436
11
2645.232837
21
-533.919251
0
LINE
5
564
100
AcDbEntity
8
1
100
AcDbLine
6
DOT2
62
6
10
2644.616308
20
-534.252938
11
2644.949994
21
-533.919251
0
LINE
5
565
100
AcDbEntity
8
1
100
AcDbLine
6
DOT2
62
6
10
2644.493967
20
-534.092436
11
2644.667152
21
-533.919251
0
LINE
5
566
100
AcDbEntity
8
1
100
AcDbLine
6
DOT2
62
6
10
2647.258007
20
-536.321012
11
2647.533171
21
-536.596176
0
LINE
5
567
100
AcDbEntity
8
1
100
AcDbLine
6
DOT2
62
6
10
2644.115929
20
-537.421574
11
2644.280393
21
-537.586038
0
LINE
5
568
100
AcDbEntity
8
1
100
AcDbLine
6
DOT2
62
6
10
2644.398772
20
-537.421574
11
2644.563235
21
-537.586038
0
LINE
5
569
100
AcDbEntity
8
1
100
AcDbLine
6
DOT2
62
6
10
2644.681615
20
-537.421574
11
2644.846078
21
-537.586038
0
LINE
5
56a
100
AcDbEntity
8
1
100
AcDbLine
6
DOT2
62
6
10
2644.964457
20
-537.421574
11
2645.128921
21
-537.586038
0
LINE
5
56b
100
AcDbEntity
8
1
100
AcDbLine
6
DOT2
62
6
10
2645.247300
20
-537.421574
11
2645.411764
21
-537.586038
0
LINE
5
56c
100
AcDbEntity
8
1
100
AcDbLine
6
DOT2
62
6
10
2644.672940
20
-536.564371
11
2644.852354
21
-536.743786
0
LINE
5
56d
100
AcDbEntity
8
1
100
AcDbLine
6
DOT2
62
6
10
2645.530143
20
-537.421574
11
2645.694606
21
-537.586038
0
LINE
5
56e
100
AcDbEntity
8
1
100
AcDbLine
6
DOT2
62
6
10
2644.955782
20
-536.564371
11
2645.135197
21
-536.743786
0
LINE
5
56f
100
AcDbEntity
8
1
100
AcDbLine
6
DOT2
62
6
10
2645.812986
20
-537.421574
11
2645.977449
21
-537.586038
0
LINE
5
570
100
AcDbEntity
8
1
100
AcDbLine
6
DOT2
62
6
10
2645.238625
20
-536.564371
11
2645.418040
21
-536.743786
0
LINE
5
571
100
AcDbEntity
8
1
100
AcDbLine
6
DOT2
62
6
10
2645.862243
20
-537.187988
11
2646.260292
21
-537.586038
0
LINE
5
572
100
AcDbEntity
8
1
100
AcDbLine
6
DOT2
62
6
10
2645.521468
20
-536.564371
11
2645.700882
21
-536.743786
0
LINE
5
573
100
AcDbEntity
8
1
100
AcDbLine
6
DOT2
62
6
10
2645.862243
20
-536.905146
11
2646.201137
21
-537.244040
0
LINE
5
574
100
AcDbEntity
8
1
100
AcDbLine
6
DOT2
62
6
10
2646.378671
20
-537.421574
11
2646.543134
21
-537.586038
0
LINE
5
575
100
AcDbEntity
8
1
100
AcDbLine
6
DOT2
62
6
10
2645.804310
20
-536.564371
11
2646.201137
21
-536.961197
0
LINE
5
576
100
AcDbEntity
8
1
100
AcDbLine
6
DOT2
62
6
10
2646.661514
20
-537.421574
11
2646.825977
21
-537.586038
0
LINE
5
577
100
AcDbEntity
8
1
100
AcDbLine
6
DOT2
62
6
10
2645.862243
20
-536.339460
11
2646.266568
21
-536.743786
0
LINE
5
578
100
AcDbEntity
8
1
100
AcDbLine
6
DOT2
62
6
10
2646.944356
20
-537.421574
11
2647.108820
21
-537.586038
0
LINE
5
579
100
AcDbEntity
8
1
100
AcDbLine
6
DOT2
62
6
10
2645.862243
20
-536.056618
11
2646.201137
21
-536.395512
0
LINE
5
57a
100
AcDbEntity
8
1
100
AcDbLine
6
DOT2
62
6
10
2646.369996
20
-536.564371
11
2646.549411
21
-536.743786
0
LINE
5
57b
100
AcDbEntity
8
1
100
AcDbLine
6
DOT2
62
6
10
2647.227199
20
-537.421574
11
2647.391663
21
-537.586038
0
LINE
5
57c
100
AcDbEntity
8
1
100
AcDbLine
6
DOT2
62
6
10
2646.074725
20
-535.986257
11
2646.297317
21
-536.208850
0
LINE
5
57d
100
AcDbEntity
8
1
100
AcDbLine
6
DOT2
62
6
10
2646.652839
20
-536.564371
11
2646.832253
21
-536.743786
0
LINE
5
57e
100
AcDbEntity
8
1
100
AcDbLine
6
DOT2
62
6
10
2647.509684
20
-537.421217
11
2647.674505
21
-537.586038
0
LINE
5
57f
100
AcDbEntity
8
1
100
AcDbLine
6
DOT2
62
6
10
2646.935681
20
-536.564371
11
2647.115096
21
-536.743786
0
LINE
5
580
100
AcDbEntity
8
1
100
AcDbLine
6
DOT2
62
6
10
2647.642309
20
-537.270999
11
2647.957348
21
-537.586038
0
LINE
5
581
100
AcDbEntity
8
1
100
AcDbLine
6
DOT2
62
6
10
2647.122692
20
-536.468539
11
2647.397939
21
-536.743786
0
LINE
5
582
100
AcDbEntity
8
1
100
AcDbLine
6
DOT2
62
6
10
2647.799130
20
-537.144977
11
2647.804140
21
-537.149987
0
LINE
5
583
100
AcDbEntity
8
1
100
AcDbLine
6
DOT2
62
6
10
2644.671044
20
-536.743786
11
2644.850459
21
-536.564371
0
LINE
5
584
100
AcDbEntity
8
1
100
AcDbLine
6
DOT2
62
6
10
2647.788590
20
-537.586038
11
2648.002376
21
-537.372252
0
LINE
5
585
100
AcDbEntity
8
1
100
AcDbLine
6
DOT2
62
6
10
2647.505748
20
-537.586038
11
2647.869036
21
-537.222749
0
LINE
5
586
100
AcDbEntity
8
1
100
AcDbLine
6
DOT2
62
6
10
2647.222905
20
-537.586038
11
2647.387368
21
-537.421574
0
LINE
5
587
100
AcDbEntity
8
1
100
AcDbLine
6
DOT2
62
6
10
2646.940062
20
-537.586038
11
2647.104526
21
-537.421574
0
LINE
5
588
100
AcDbEntity
8
1
100
AcDbLine
6
DOT2
62
6
10
2646.657219
20
-537.586038
11
2646.821683
21
-537.421574
0
LINE
5
589
100
AcDbEntity
8
1
100
AcDbLine
6
DOT2
62
6
10
2646.374377
20
-537.586038
11
2646.538840
21
-537.421574
0
LINE
5
58a
100
AcDbEntity
8
1
100
AcDbLine
6
DOT2
62
6
10
2647.216629
20
-536.743786
11
2647.465885
21
-536.494529
0
LINE
5
58b
100
AcDbEntity
8
1
100
AcDbLine
6
DOT2
62
6
10
2646.091534
20
-537.586038
11
2646.255997
21
-537.421574
0
LINE
5
58c
100
AcDbEntity
8
1
100
AcDbLine
6
DOT2
62
6
10
2646.933786
20
-536.743786
11
2647.325937
21
-536.351634
0
LINE
5
58d
100
AcDbEntity
8
1
100
AcDbLine
6
DOT2
62
6
10
2645.808691
20
-537.586038
11
2646.201137
21
-537.193592
0
LINE
5
58e
100
AcDbEntity
8
1
100
AcDbLine
6
DOT2
62
6
10
2646.650943
20
-536.743786
11
2646.830358
21
-536.564371
0
LINE
5
58f
100
AcDbEntity
8
1
100
AcDbLine
6
DOT2
62
6
10
2645.525849
20
-537.586038
11
2645.690312
21
-537.421574
0
LINE
5
590
100
AcDbEntity
8
1
100
AcDbLine
6
DOT2
62
6
10
2645.862243
20
-537.249644
11
2646.201137
21
-536.910749
0
LINE
5
591
100
AcDbEntity
8
1
100
AcDbLine
6
DOT2
62
6
10
2646.368101
20
-536.743786
11
2646.547515
21
-536.564371
0
LINE
5
592
100
AcDbEntity
8
1
100
AcDbLine
6
DOT2
62
6
10
2645.243006
20
-537.586038
11
2645.407469
21
-537.421574
0
LINE
5
593
100
AcDbEntity
8
1
100
AcDbLine
6
DOT2
62
6
10
2645.862243
20
-536.966801
11
2646.264673
21
-536.564371
0
LINE
5
594
100
AcDbEntity
8
1
100
AcDbLine
6
DOT2
62
6
10
2644.960163
20
-537.586038
11
2645.124627
21
-537.421574
0
LINE
5
595
100
AcDbEntity
8
1
100
AcDbLine
6
DOT2
62
6
10
2645.802415
20
-536.743786
11
2646.201137
21
-536.345064
0
LINE
5
596
100
AcDbEntity
8
1
100
AcDbLine
6
DOT2
62
6
10
2644.677320
20
-537.586038
11
2644.841784
21
-537.421574
0
LINE
5
597
100
AcDbEntity
8
1
100
AcDbLine
6
DOT2
62
6
10
2645.519572
20
-536.743786
11
2645.698987
21
-536.564371
0
LINE
5
598
100
AcDbEntity
8
1
100
AcDbLine
6
DOT2
62
6
10
2645.862243
20
-536.401115
11
2646.254712
21
-536.008647
0
LINE
5
599
100
AcDbEntity
8
1
100
AcDbLine
6
DOT2
62
6
10
2644.394478
20
-537.586038
11
2644.558941
21
-537.421574
0
LINE
5
59a
100
AcDbEntity
8
1
100
AcDbLine
6
DOT2
62
6
10
2645.236730
20
-536.743786
11
2645.416144
21
-536.564371
0
LINE
5
59b
100
AcDbEntity
8
1
100
AcDbLine
6
DOT2
62
6
10
2645.862243
20
-536.118273
11
2645.994258
21
-535.986257
0
LINE
5
59c
100
AcDbEntity
8
1
100
AcDbLine
6
DOT2
62
6
10
2644.126925
20
-537.570748
11
2644.276098
21
-537.421574
0
LINE
5
59d
100
AcDbEntity
8
1
100
AcDbLine
6
DOT2
62
6
10
2644.953887
20
-536.743786
11
2645.133302
21
-536.564371
0
LINE
5
59e
100
AcDbEntity
8
1
100
AcDbLine
6
DOT2
62
6
10
2644.589139
20
-540.440369
11
2644.399750
21
-540.250979
0
LINE
5
59f
100
AcDbEntity
8
1
100
AcDbLine
6
DOT2
62
6
10
2646.152049
20
-538.892008
11
2645.904909
21
-538.644869
0
LINE
5
5a0
100
AcDbEntity
8
1
100
AcDbLine
6
DOT2
62
6
10
2646.301448
20
-539.324251
11
2646.046909
21
-539.069712
0
LINE
5
5a1
100
AcDbEntity
8
1
100
AcDbLine
6
DOT2
62
6
10
2645.869206
20
-538.892008
11
2645.699609
21
-538.722411
0
LINE
5
5a2
100
AcDbEntity
8
1
100
AcDbLine
6
DOT2
62
6
10
2645.399367
20
-538.422170
11
2645.196491
21
-538.219294
0
LINE
5
5a3
100
AcDbEntity
8
1
100
AcDbLine
6
DOT2
62
6
10
2646.018606
20
-539.324251
11
2645.866408
21
-539.172053
0
LINE
5
5a4
100
AcDbEntity
8
1
100
AcDbLine
6
DOT2
62
6
10
2645.586364
20
-538.892008
11
2645.416766
21
-538.722411
0
LINE
5
5a5
100
AcDbEntity
8
1
100
AcDbLine
6
DOT2
62
6
10
2645.371787
20
-538.677432
11
2645.081597
21
-538.387242
0
LINE
5
5a6
100
AcDbEntity
8
1
100
AcDbLine
6
DOT2
62
6
10
2646.133395
20
-539.721882
11
2645.883038
21
-539.471526
0
LINE
5
5a7
100
AcDbEntity
8
1
100
AcDbLine
6
DOT2
62
6
10
2645.735763
20
-539.324251
11
2645.583565
21
-539.172053
0
LINE
5
5a8
100
AcDbEntity
8
1
100
AcDbLine
6
DOT2
62
6
10
2645.371787
20
-538.960275
11
2645.081597
21
-538.670084
0
LINE
5
5a9
100
AcDbEntity
8
1
100
AcDbLine
6
DOT2
62
6
10
2644.910400
20
-538.498887
11
2644.708934
21
-538.297422
0
LINE
5
5aa
100
AcDbEntity
8
1
100
AcDbLine
6
DOT2
62
6
10
2646.069869
20
-539.941199
11
2645.709627
21
-539.580958
0
LINE
5
5ab
100
AcDbEntity
8
1
100
AcDbLine
6
DOT2
62
6
10
2645.452920
20
-539.324251
11
2645.081597
21
-538.952927
0
LINE
5
5ac
100
AcDbEntity
8
1
100
AcDbLine
6
DOT2
62
6
10
2645.020678
20
-538.892008
11
2644.851081
21
-538.722411
0
LINE
5
5ad
100
AcDbEntity
8
1
100
AcDbLine
6
DOT2
62
6
10
2644.734560
20
-538.605891
11
2644.544315
21
-538.415645
0
LINE
5
5ae
100
AcDbEntity
8
1
100
AcDbLine
6
DOT2
62
6
10
2646.049552
20
-540.203725
11
2645.787795
21
-539.941968
0
LINE
5
5af
100
AcDbEntity
8
1
100
AcDbLine
6
DOT2
62
6
10
2645.589129
20
-539.743302
11
2645.426785
21
-539.580958
0
LINE
5
5b0
100
AcDbEntity
8
1
100
AcDbLine
6
DOT2
62
6
10
2645.371787
20
-539.525960
11
2645.017880
21
-539.172053
0
LINE
5
5b1
100
AcDbEntity
8
1
100
AcDbLine
6
DOT2
62
6
10
2644.737835
20
-538.892008
11
2644.450710
21
-538.604883
0
LINE
5
5b2
100
AcDbEntity
8
1
100
AcDbLine
6
DOT2
62
6
10
2645.886644
20
-540.323660
11
2645.573140
21
-540.010156
0
LINE
5
5b3
100
AcDbEntity
8
1
100
AcDbLine
6
DOT2
62
6
10
2645.371787
20
-539.808803
11
2645.081597
21
-539.518612
0
LINE
5
5b4
100
AcDbEntity
8
1
100
AcDbLine
6
DOT2
62
6
10
2644.887235
20
-539.324251
11
2644.735037
21
-539.172053
0
LINE
5
5b5
100
AcDbEntity
8
1
100
AcDbLine
6
DOT2
62
6
10
2644.469887
20
-538.906903
11
2644.338051
21
-538.775066
0
LINE
5
5b6
100
AcDbEntity
8
1
100
AcDbLine
6
DOT2
62
6
10
2645.371787
20
-540.091646
11
2645.081597
21
-539.801455
0
LINE
5
5b7
100
AcDbEntity
8
1
100
AcDbLine
6
DOT2
62
6
10
2645.023444
20
-539.743302
11
2644.861099
21
-539.580958
0
LINE
5
5b8
100
AcDbEntity
8
1
100
AcDbLine
6
DOT2
62
6
10
2644.604392
20
-539.324251
11
2644.452194
21
-539.172053
0
LINE
5
5b9
100
AcDbEntity
8
1
100
AcDbLine
6
DOT2
62
6
10
2644.315228
20
-539.035087
11
2644.207742
21
-538.927600
0
LINE
5
5ba
100
AcDbEntity
8
1
100
AcDbLine
6
DOT2
62
6
10
2645.371787
20
-540.374489
11
2645.081597
21
-540.084298
0
LINE
5
5bb
100
AcDbEntity
8
1
100
AcDbLine
6
DOT2
62
6
10
2644.740601
20
-539.743302
11
2644.492862
21
-539.495563
0
LINE
5
5bc
100
AcDbEntity
8
1
100
AcDbLine
6
DOT2
62
6
10
2644.321549
20
-539.324251
11
2644.169351
21
-539.172053
0
LINE
5
5bd
100
AcDbEntity
8
1
100
AcDbLine
6
DOT2
62
6
10
2645.154825
20
-540.440369
11
2645.081597
21
-540.367141
0
LINE
5
5be
100
AcDbEntity
8
1
100
AcDbLine
6
DOT2
62
6
10
2644.687911
20
-539.973455
11
2644.399750
21
-539.685294
0
LINE
5
5bf
100
AcDbEntity
8
1
100
AcDbLine
6
DOT2
62
6
10
2644.687911
20
-540.256298
11
2644.399750
21
-539.968136
0
LINE
5
5c0
100
AcDbEntity
8
1
100
AcDbLine
6
DOT2
62
6
10
2644.341775
20
-538.770111
11
2644.783228
21
-538.328658
0
LINE
5
5c1
100
AcDbEntity
8
1
100
AcDbLine
6
DOT2
62
6
10
2645.902285
20
-540.320871
11
2646.065027
21
-540.158129
0
LINE
5
5c2
100
AcDbEntity
8
1
100
AcDbLine
6
DOT2
62
6
10
2645.683523
20
-540.256790
11
2646.069869
21
-539.870445
0
LINE
5
5c3
100
AcDbEntity
8
1
100
AcDbLine
6
DOT2
62
6
10
2645.217102
20
-540.440369
11
2645.371787
21
-540.285683
0
LINE
5
5c4
100
AcDbEntity
8
1
100
AcDbLine
6
DOT2
62
6
10
2645.506905
20
-540.150565
11
2645.647315
21
-540.010156
0
LINE
5
5c5
100
AcDbEntity
8
1
100
AcDbLine
6
DOT2
62
6
10
2645.787795
20
-539.869676
11
2646.081703
21
-539.575767
0
LINE
5
5c6
100
AcDbEntity
8
1
100
AcDbLine
6
DOT2
62
6
10
2645.081597
20
-540.293031
11
2645.371787
21
-540.002841
0
LINE
5
5c7
100
AcDbEntity
8
1
100
AcDbLine
6
DOT2
62
6
10
2645.631326
20
-539.743302
11
2645.912385
21
-539.462243
0
LINE
5
5c8
100
AcDbEntity
8
1
100
AcDbLine
6
DOT2
62
6
10
2646.050377
20
-539.324251
11
2646.267112
21
-539.107516
0
LINE
5
5c9
100
AcDbEntity
8
1
100
AcDbLine
6
DOT2
62
6
10
2644.651416
20
-540.440369
11
2644.687911
21
-540.403874
0
LINE
5
5ca
100
AcDbEntity
8
1
100
AcDbLine
6
DOT2
62
6
10
2645.081597
20
-540.010189
11
2645.510827
21
-539.580958
0
LINE
5
5cb
100
AcDbEntity
8
1
100
AcDbLine
6
DOT2
62
6
10
2645.767535
20
-539.324251
11
2645.919733
21
-539.172053
0
LINE
5
5cc
100
AcDbEntity
8
1
100
AcDbLine
6
DOT2
62
6
10
2644.399750
20
-540.409193
11
2644.687911
21
-540.121031
0
LINE
5
5cd
100
AcDbEntity
8
1
100
AcDbLine
6
DOT2
62
6
10
2645.065640
20
-539.743302
11
2645.371787
21
-539.437155
0
LINE
5
5ce
100
AcDbEntity
8
1
100
AcDbLine
6
DOT2
62
6
10
2645.484692
20
-539.324251
11
2645.636890
21
-539.172053
0
LINE
5
5cf
100
AcDbEntity
8
1
100
AcDbLine
6
DOT2
62
6
10
2645.916934
20
-538.892008
11
2646.136957
21
-538.671985
0
LINE
5
5d0
100
AcDbEntity
8
1
100
AcDbLine
6
DOT2
62
6
10
2644.399750
20
-540.126350
11
2644.687911
21
-539.838188
0
LINE
5
5d1
100
AcDbEntity
8
1
100
AcDbLine
6
DOT2
62
6
10
2644.782798
20
-539.743302
11
2644.945142
21
-539.580958
0
LINE
5
5d2
100
AcDbEntity
8
1
100
AcDbLine
6
DOT2
62
6
10
2645.081597
20
-539.444503
11
2645.371787
21
-539.154312
0
LINE
5
5d3
100
AcDbEntity
8
1
100
AcDbLine
6
DOT2
62
6
10
2645.634091
20
-538.892008
11
2645.803689
21
-538.722411
0
LINE
5
5d4
100
AcDbEntity
8
1
100
AcDbLine
6
DOT2
62
6
10
2644.399750
20
-539.843507
11
2644.670098
21
-539.573159
0
LINE
5
5d5
100
AcDbEntity
8
1
100
AcDbLine
6
DOT2
62
6
10
2644.919006
20
-539.324251
11
2645.071204
21
-539.172053
0
LINE
5
5d6
100
AcDbEntity
8
1
100
AcDbLine
6
DOT2
62
6
10
2645.081597
20
-539.161660
11
2645.520846
21
-538.722411
0
LINE
5
5d7
100
AcDbEntity
8
1
100
AcDbLine
6
DOT2
62
6
10
2644.399750
20
-539.560664
11
2644.468746
21
-539.491668
0
LINE
5
5d8
100
AcDbEntity
8
1
100
AcDbLine
6
DOT2
62
6
10
2644.636164
20
-539.324251
11
2644.788362
21
-539.172053
0
LINE
5
5d9
100
AcDbEntity
8
1
100
AcDbLine
6
DOT2
62
6
10
2645.068406
20
-538.892008
11
2645.371787
21
-538.588627
0
LINE
5
5da
100
AcDbEntity
8
1
100
AcDbLine
6
DOT2
62
6
10
2644.353321
20
-539.324251
11
2644.505519
21
-539.172053
0
LINE
5
5db
100
AcDbEntity
8
1
100
AcDbLine
6
DOT2
62
6
10
2644.785563
20
-538.892008
11
2644.955160
21
-538.722411
0
LINE
5
5dc
100
AcDbEntity
8
1
100
AcDbLine
6
DOT2
62
6
10
2645.081597
20
-538.595975
11
2645.436777
21
-538.240795
0
LINE
5
5dd
100
AcDbEntity
8
1
100
AcDbLine
6
DOT2
62
6
10
2644.147004
20
-539.247724
11
2644.222676
21
-539.172053
0
LINE
5
5de
100
AcDbEntity
8
1
100
AcDbLine
6
DOT2
62
6
10
2644.502720
20
-538.892008
11
2644.672318
21
-538.722411
0
LINE
5
5df
100
AcDbEntity
8
1
100
AcDbLine
6
DOT2
62
6
10
2644.888988
20
-538.505741
11
2644.962882
21
-538.431847
0
LINE
5
5e0
100
AcDbEntity
8
1
100
AcDbLine
6
DOT2
62
6
10
2645.081597
20
-538.313132
11
2645.175435
21
-538.219294
0
LINE
5
5e1
100
AcDbEntity
8
1
100
AcDbLine
6
DOT2
62
6
10
2644.694043
20
-546.767812
11
2644.561968
21
-546.635737
0
LINE
5
5e2
100
AcDbEntity
8
1
100
AcDbLine
6
DOT2
62
6
10
2645.292641
20
-543.123769
11
2645.111579
21
-542.942707
0
LINE
5
5e3
100
AcDbEntity
8
1
100
AcDbLine
6
DOT2
62
6
10
2645.170703
20
-543.284674
11
2644.906076
21
-543.020047
0
LINE
5
5e4
100
AcDbEntity
8
1
100
AcDbLine
6
DOT2
62
6
10
2645.089177
20
-543.485991
11
2644.845050
21
-543.241864
0
LINE
5
5e5
100
AcDbEntity
8
1
100
AcDbLine
6
DOT2
62
6
10
2645.001970
20
-543.681627
11
2644.777345
21
-543.457001
0
LINE
5
5e6
100
AcDbEntity
8
1
100
AcDbLine
6
DOT2
62
6
10
2644.909303
20
-543.871802
11
2644.703328
21
-543.665827
0
LINE
5
5e7
100
AcDbEntity
8
1
100
AcDbLine
6
DOT2
62
6
10
2644.940880
20
-544.186222
11
2644.623311
21
-543.868652
0
LINE
5
5e8
100
AcDbEntity
8
1
100
AcDbLine
6
DOT2
62
6
10
2644.880569
20
-544.408753
11
2644.537560
21
-544.065745
0
LINE
5
5e9
100
AcDbEntity
8
1
100
AcDbLine
6
DOT2
62
6
10
2644.880569
20
-544.691596
11
2644.446305
21
-544.257333
0
LINE
5
5ea
100
AcDbEntity
8
1
100
AcDbLine
6
DOT2
62
6
10
2644.880569
20
-544.974439
11
2644.561968
21
-544.655838
0
LINE
5
5eb
100
AcDbEntity
8
1
100
AcDbLine
6
DOT2
62
6
10
2644.485530
20
-544.579400
11
2644.349741
21
-544.443611
0
LINE
5
5ec
100
AcDbEntity
8
1
100
AcDbLine
6
DOT2
62
6
10
2644.880569
20
-545.257281
11
2644.561968
21
-544.938680
0
LINE
5
5ed
100
AcDbEntity
8
1
100
AcDbLine
6
DOT2
62
6
10
2644.368967
20
-544.745680
11
2644.248035
21
-544.624747
0
LINE
5
5ee
100
AcDbEntity
8
1
100
AcDbLine
6
DOT2
62
6
10
2644.880569
20
-545.540124
11
2644.561968
21
-545.221523
0
LINE
5
5ef
100
AcDbEntity
8
1
100
AcDbLine
6
DOT2
62
6
10
2644.244811
20
-544.904366
11
2644.141328
21
-544.800883
0
LINE
5
5f0
100
AcDbEntity
8
1
100
AcDbLine
6
DOT2
62
6
10
2644.880569
20
-545.822967
11
2644.561968
21
-545.504366
0
LINE
5
5f1
100
AcDbEntity
8
1
100
AcDbLine
6
DOT2
62
6
10
2644.118769
20
-545.061167
11
2644.029741
21
-544.972139
0
LINE
5
5f2
100
AcDbEntity
8
1
100
AcDbLine
6
DOT2
62
6
10
2644.880569
20
-546.105809
11
2644.561968
21
-545.787208
0
LINE
5
5f3
100
AcDbEntity
8
1
100
AcDbLine
6
DOT2
62
6
10
2644.880569
20
-546.388652
11
2644.561968
21
-546.070051
0
LINE
5
5f4
100
AcDbEntity
8
1
100
AcDbLine
6
DOT2
62
6
10
2644.880569
20
-546.671495
11
2644.561968
21
-546.352894
0
LINE
5
5f5
100
AcDbEntity
8
1
100
AcDbLine
6
DOT2
62
6
10
2644.908097
20
-543.012115
11
2645.007810
21
-542.912403
0
LINE
5
5f6
100
AcDbEntity
8
1
100
AcDbLine
6
DOT2
62
6
10
2644.829356
20
-546.767812
11
2644.880569
21
-546.716599
0
LINE
5
5f7
100
AcDbEntity
8
1
100
AcDbLine
6
DOT2
62
6
10
2644.561968
20
-546.752357
11
2644.880569
21
-546.433756
0
LINE
5
5f8
100
AcDbEntity
8
1
100
AcDbLine
6
DOT2
62
6
10
2644.561968
20
-546.469515
11
2644.880569
21
-546.150914
0
LINE
5
5f9
100
AcDbEntity
8
1
100
AcDbLine
6
DOT2
62
6
10
2644.561968
20
-546.186672
11
2644.880569
21
-545.868071
0
LINE
5
5fa
100
AcDbEntity
8
1
100
AcDbLine
6
DOT2
62
6
10
2644.561968
20
-545.903829
11
2644.880569
21
-545.585228
0
LINE
5
5fb
100
AcDbEntity
8
1
100
AcDbLine
6
DOT2
62
6
10
2644.561968
20
-545.620986
11
2644.880569
21
-545.302385
0
LINE
5
5fc
100
AcDbEntity
8
1
100
AcDbLine
6
DOT2
62
6
10
2644.561968
20
-545.338144
11
2644.880569
21
-545.019543
0
LINE
5
5fd
100
AcDbEntity
8
1
100
AcDbLine
6
DOT2
62
6
10
2644.561968
20
-545.055301
11
2644.880569
21
-544.736700
0
LINE
5
5fe
100
AcDbEntity
8
1
100
AcDbLine
6
DOT2
62
6
10
2644.561968
20
-544.772458
11
2644.880569
21
-544.453857
0
LINE
5
5ff
100
AcDbEntity
8
1
100
AcDbLine
6
DOT2
62
6
10
2643.994540
20
-545.057043
11
2644.516825
21
-544.534758
0
LINE
5
600
100
AcDbEntity
8
1
100
AcDbLine
6
DOT2
62
6
10
2644.561968
20
-544.489616
11
2645.025126
21
-544.026457
0
LINE
5
601
100
AcDbEntity
8
1
100
AcDbLine
6
DOT2
62
6
10
2644.377910
20
-544.390831
11
2644.921948
21
-543.846793
0
LINE
5
602
100
AcDbEntity
8
1
100
AcDbLine
6
DOT2
62
6
10
2644.627591
20
-543.858307
11
2645.151205
21
-543.334692
0
LINE
5
603
100
AcDbEntity
8
1
100
AcDbLine
6
DOT2
62
6
10
2644.792776
20
-543.410279
11
2645.226722
21
-542.976333
0
LINE
5
604
100
AcDbEntity
8
1
100
AcDbLine
6
DOT2
62
6
10
2647.341261
20
-540.364063
11
2646.926765
21
-539.949567
0
LINE
5
605
100
AcDbEntity
8
1
100
AcDbLine
6
DOT2
62
6
10
2647.718295
20
-538.478356
11
2647.536347
21
-538.296407
0
LINE
5
606
100
AcDbEntity
8
1
100
AcDbLine
6
DOT2
62
6
10
2647.632434
20
-538.675337
11
2647.323980
21
-538.366883
0
LINE
5
607
100
AcDbEntity
8
1
100
AcDbLine
6
DOT2
62
6
10
2647.632434
20
-538.958180
11
2647.323980
21
-538.649726
0
LINE
5
608
100
AcDbEntity
8
1
100
AcDbLine
6
DOT2
62
6
10
2647.632434
20
-539.241023
11
2647.323980
21
-538.932568
0
LINE
5
609
100
AcDbEntity
8
1
100
AcDbLine
6
DOT2
62
6
10
2647.632434
20
-539.523865
11
2647.323980
21
-539.215411
0
LINE
5
60a
100
AcDbEntity
8
1
100
AcDbLine
6
DOT2
62
6
10
2647.632434
20
-539.806708
11
2647.323980
21
-539.498254
0
LINE
5
60b
100
AcDbEntity
8
1
100
AcDbLine
6
DOT2
62
6
10
2647.629825
20
-540.086942
11
2647.323980
21
-539.781096
0
LINE
5
60c
100
AcDbEntity
8
1
100
AcDbLine
6
DOT2
62
6
10
2647.535400
20
-540.275359
11
2647.235298
21
-539.975258
0
LINE
5
60d
100
AcDbEntity
8
1
100
AcDbLine
6
DOT2
62
6
10
2647.323980
20
-538.333491
11
2647.361063
21
-538.296407
0
LINE
5
60e
100
AcDbEntity
8
1
100
AcDbLine
6
DOT2
62
6
10
2647.272085
20
-540.365284
11
2647.632434
21
-540.004936
0
LINE
5
60f
100
AcDbEntity
8
1
100
AcDbLine
6
DOT2
62
6
10
2647.151141
20
-540.203386
11
2647.632434
21
-539.722093
0
LINE
5
610
100
AcDbEntity
8
1
100
AcDbLine
6
DOT2
62
6
10
2646.953294
20
-540.118391
11
2647.105159
21
-539.966525
0
LINE
5
611
100
AcDbEntity
8
1
100
AcDbLine
6
DOT2
62
6
10
2647.323980
20
-539.747705
11
2647.632434
21
-539.439250
0
LINE
5
612
100
AcDbEntity
8
1
100
AcDbLine
6
DOT2
62
6
10
2646.779618
20
-540.009223
11
2646.846870
21
-539.941972
0
LINE
5
613
100
AcDbEntity
8
1
100
AcDbLine
6
DOT2
62
6
10
2647.323980
20
-539.464862
11
2647.632434
21
-539.156407
0
LINE
5
614
100
AcDbEntity
8
1
100
AcDbLine
6
DOT2
62
6
10
2647.323980
20
-539.182019
11
2647.632434
21
-538.873565
0
LINE
5
615
100
AcDbEntity
8
1
100
AcDbLine
6
DOT2
62
6
10
2647.323980
20
-538.899176
11
2647.632434
21
-538.590722
0
LINE
5
616
100
AcDbEntity
8
1
100
AcDbLine
6
DOT2
62
6
10
2647.323980
20
-538.616334
11
2647.626748
21
-538.313566
0
LINE
5
617
100
AcDbEntity
8
1
100
AcDbLine
6
DOT2
62
6
10
2646.791526
20
-539.814328
11
2646.515301
21
-539.538103
0
LINE
5
618
100
AcDbEntity
8
1
100
AcDbLine
6
DOT2
62
6
10
2646.938411
20
-538.547000
11
2646.896930
21
-538.505518
0
LINE
5
619
100
AcDbEntity
8
1
100
AcDbLine
6
DOT2
62
6
10
2646.809961
20
-538.701392
11
2646.561232
21
-538.452664
0
LINE
5
61a
100
AcDbEntity
8
1
100
AcDbLine
6
DOT2
62
6
10
2646.803463
20
-538.977737
11
2646.515301
21
-538.689575
0
LINE
5
61b
100
AcDbEntity
8
1
100
AcDbLine
6
DOT2
62
6
10
2646.803463
20
-539.260579
11
2646.515301
21
-538.972418
0
LINE
5
61c
100
AcDbEntity
8
1
100
AcDbLine
6
DOT2
62
6
10
2646.803463
20
-539.543422
11
2646.515301
21
-539.255261
0
LINE
5
61d
100
AcDbEntity
8
1
100
AcDbLine
6
DOT2
62
6
10
2646.515301
20
-538.576484
11
2646.639121
21
-538.452664
0
LINE
5
61e
100
AcDbEntity
8
1
100
AcDbLine
6
DOT2
62
6
10
2646.691671
20
-539.814328
11
2646.803463
21
-539.702536
0
LINE
5
61f
100
AcDbEntity
8
1
100
AcDbLine
6
DOT2
62
6
10
2646.515301
20
-539.707855
11
2646.803463
21
-539.419693
0
LINE
5
620
100
AcDbEntity
8
1
100
AcDbLine
6
DOT2
62
6
10
2646.515301
20
-539.425012
11
2646.803463
21
-539.136851
0
LINE
5
621
100
AcDbEntity
8
1
100
AcDbLine
6
DOT2
62
6
10
2646.515301
20
-539.142169
11
2646.803463
21
-538.854008
0
LINE
5
622
100
AcDbEntity
8
1
100
AcDbLine
6
DOT2
62
6
10
2646.515301
20
-538.859327
11
2646.876172
21
-538.498456
0
LINE
5
623
100
AcDbEntity
8
1
100
AcDbLine
6
DOT2
62
6
10
2647.712100
20
-533.663834
11
2647.859443
21
-533.811177
0
LINE
5
624
100
AcDbEntity
8
1
100
AcDbLine
6
DOT2
62
6
10
2646.783708
20
-535.846712
11
2646.948850
21
-536.011854
0
LINE
5
625
100
AcDbEntity
8
1
100
AcDbLine
6
DOT2
62
6
10
2647.082568
20
-535.862730
11
2647.487777
21
-536.267938
0
LINE
5
626
100
AcDbEntity
8
1
100
AcDbLine
6
DOT2
62
6
10
2647.356975
20
-535.854294
11
2647.655924
21
-536.153243
0
LINE
5
627
100
AcDbEntity
8
1
100
AcDbLine
6
DOT2
62
6
10
2647.384775
20
-535.599251
11
2647.703734
21
-535.918210
0
LINE
5
628
100
AcDbEntity
8
1
100
AcDbLine
6
DOT2
62
6
10
2647.384775
20
-535.316408
11
2647.703734
21
-535.635368
0
LINE
5
629
100
AcDbEntity
8
1
100
AcDbLine
6
DOT2
62
6
10
2647.384775
20
-535.033566
11
2647.703734
21
-535.352525
0
LINE
5
62a
100
AcDbEntity
8
1
100
AcDbLine
6
DOT2
62
6
10
2647.384775
20
-534.750723
11
2647.703734
21
-535.069682
0
LINE
5
62b
100
AcDbEntity
8
1
100
AcDbLine
6
DOT2
62
6
10
2647.384775
20
-534.467880
11
2647.703734
21
-534.786840
0
LINE
5
62c
100
AcDbEntity
8
1
100
AcDbLine
6
DOT2
62
6
10
2647.384775
20
-534.185038
11
2647.703734
21
-534.503997
0
LINE
5
62d
100
AcDbEntity
8
1
100
AcDbLine
6
DOT2
62
6
10
2647.384775
20
-533.902195
11
2647.703734
21
-534.221154
0
LINE
5
62e
100
AcDbEntity
8
1
100
AcDbLine
6
DOT2
62
6
10
2647.429257
20
-533.663834
11
2647.703734
21
-533.938312
0
LINE
5
62f
100
AcDbEntity
8
1
100
AcDbLine
6
DOT2
62
6
10
2647.384775
20
-533.747212
11
2647.468153
21
-533.663834
0
LINE
5
630
100
AcDbEntity
8
1
100
AcDbLine
6
DOT2
62
6
10
2647.396028
20
-536.281544
11
2647.703734
21
-535.973837
0
LINE
5
631
100
AcDbEntity
8
1
100
AcDbLine
6
DOT2
62
6
10
2647.235845
20
-536.158884
11
2647.703734
21
-535.690994
0
LINE
5
632
100
AcDbEntity
8
1
100
AcDbLine
6
DOT2
62
6
10
2647.054304
20
-536.057582
11
2647.249877
21
-535.862009
0
LINE
5
633
100
AcDbEntity
8
1
100
AcDbLine
6
DOT2
62
6
10
2647.384775
20
-535.727111
11
2647.703734
21
-535.408152
0
LINE
5
634
100
AcDbEntity
8
1
100
AcDbLine
6
DOT2
62
6
10
2646.841836
20
-535.987207
11
2646.977704
21
-535.851339
0
LINE
5
635
100
AcDbEntity
8
1
100
AcDbLine
6
DOT2
62
6
10
2647.384775
20
-535.444268
11
2647.703734
21
-535.125309
0
LINE
5
636
100
AcDbEntity
8
1
100
AcDbLine
6
DOT2
62
6
10
2647.384775
20
-535.161426
11
2647.703734
21
-534.842466
0
LINE
5
637
100
AcDbEntity
8
1
100
AcDbLine
6
DOT2
62
6
10
2647.384775
20
-534.878583
11
2647.703734
21
-534.559624
0
LINE
5
638
100
AcDbEntity
8
1
100
AcDbLine
6
DOT2
62
6
10
2647.384775
20
-534.595740
11
2647.703734
21
-534.276781
0
LINE
5
639
100
AcDbEntity
8
1
100
AcDbLine
6
DOT2
62
6
10
2647.384775
20
-534.312898
11
2647.703734
21
-533.993938
0
LINE
5
63a
100
AcDbEntity
8
1
100
AcDbLine
6
DOT2
62
6
10
2647.384775
20
-534.030055
11
2647.750995
21
-533.663834
0
LINE
5
63b
100
AcDbEntity
8
1
100
AcDbLine
6
DOT2
62
6
10
2646.609370
20
-533.975318
11
2646.806056
21
-534.172004
0
LINE
5
63c
100
AcDbEntity
8
1
100
AcDbLine
6
DOT2
62
6
10
2646.407962
20
-535.470966
11
2646.537013
21
-535.600017
0
LINE
5
63d
100
AcDbEntity
8
1
100
AcDbLine
6
DOT2
62
6
10
2646.407962
20
-535.188124
11
2646.726921
21
-535.507083
0
LINE
5
63e
100
AcDbEntity
8
1
100
AcDbLine
6
DOT2
62
6
10
2646.407962
20
-534.905281
11
2646.726921
21
-535.224240
0
LINE
5
63f
100
AcDbEntity
8
1
100
AcDbLine
6
DOT2
62
6
10
2646.407962
20
-534.622438
11
2646.726921
21
-534.941397
0
LINE
5
640
100
AcDbEntity
8
1
100
AcDbLine
6
DOT2
62
6
10
2646.407962
20
-534.339595
11
2646.726921
21
-534.658555
0
LINE
5
641
100
AcDbEntity
8
1
100
AcDbLine
6
DOT2
62
6
10
2646.407962
20
-534.056753
11
2646.726921
21
-534.375712
0
LINE
5
642
100
AcDbEntity
8
1
100
AcDbLine
6
DOT2
62
6
10
2646.407962
20
-534.158340
11
2646.590984
21
-533.975318
0
LINE
5
643
100
AcDbEntity
8
1
100
AcDbLine
6
DOT2
62
6
10
2646.663341
20
-535.600017
11
2646.726921
21
-535.536437
0
LINE
5
644
100
AcDbEntity
8
1
100
AcDbLine
6
DOT2
62
6
10
2646.407962
20
-535.572553
11
2646.726921
21
-535.253594
0
LINE
5
645
100
AcDbEntity
8
1
100
AcDbLine
6
DOT2
62
6
10
2646.407962
20
-535.289711
11
2646.726921
21
-534.970751
0
LINE
5
646
100
AcDbEntity
8
1
100
AcDbLine
6
DOT2
62
6
10
2646.407962
20
-535.006868
11
2646.726921
21
-534.687908
0
LINE
5
647
100
AcDbEntity
8
1
100
AcDbLine
6
DOT2
62
6
10
2646.407962
20
-534.724025
11
2646.726921
21
-534.405066
0
LINE
5
648
100
AcDbEntity
8
1
100
AcDbLine
6
DOT2
62
6
10
2646.407962
20
-534.441182
11
2646.838495
21
-534.010650
0
LINE
5
649
100
AcDbEntity
8
1
100
AcDbLine
6
DOT2
62
6
10
2566.764179
20
-432.499944
11
2566.804810
21
-432.459313
0
LINE
5
64a
100
AcDbEntity
8
1
100
AcDbLine
6
DOT2
62
6
10
2566.877167
20
-434.084012
11
2567.083138
21
-433.878041
0
LINE
5
64b
100
AcDbEntity
8
1
100
AcDbLine
6
DOT2
62
6
10
2566.764179
20
-433.914158
11
2567.083138
21
-433.595198
0
LINE
5
64c
100
AcDbEntity
8
1
100
AcDbLine
6
DOT2
62
6
10
2566.764179
20
-433.631315
11
2567.083138
21
-433.312356
0
LINE
5
64d
100
AcDbEntity
8
1
100
AcDbLine
6
DOT2
62
6
10
2566.764179
20
-433.348472
11
2567.083138
21
-433.029513
0
LINE
5
64e
100
AcDbEntity
8
1
100
AcDbLine
6
DOT2
62
6
10
2566.764179
20
-433.065629
11
2567.083138
21
-432.746670
0
LINE
5
64f
100
AcDbEntity
8
1
100
AcDbLine
6
DOT2
62
6
10
2567.226691
20
-432.603117
11
2567.250094
21
-432.579715
0
LINE
5
650
100
AcDbEntity
8
1
100
AcDbLine
6
DOT2
62
6
10
2566.764179
20
-432.782787
11
2567.086567
21
-432.460399
0
LINE
5
651
100
AcDbEntity
8
1
100
AcDbLine
6
DOT2
62
6
10
2567.188443
20
-432.492659
11
2567.250094
21
-432.554310
0
LINE
5
652
100
AcDbEntity
8
1
100
AcDbLine
6
DOT2
62
6
10
2566.764179
20
-434.048294
11
2566.799897
21
-434.084012
0
LINE
5
653
100
AcDbEntity
8
1
100
AcDbLine
6
DOT2
62
6
10
2566.764179
20
-433.765452
11
2567.082739
21
-434.084012
0
LINE
5
654
100
AcDbEntity
8
1
100
AcDbLine
6
DOT2
62
6
10
2566.764179
20
-433.482609
11
2567.083138
21
-433.801568
0
LINE
5
655
100
AcDbEntity
8
1
100
AcDbLine
6
DOT2
62
6
10
2566.764179
20
-433.199766
11
2567.083138
21
-433.518726
0
LINE
5
656
100
AcDbEntity
8
1
100
AcDbLine
6
DOT2
62
6
10
2566.764179
20
-432.916924
11
2567.083138
21
-433.235883
0
LINE
5
657
100
AcDbEntity
8
1
100
AcDbLine
6
DOT2
62
6
10
2566.764179
20
-432.634081
11
2567.083138
21
-432.953040
0
LINE
5
658
100
AcDbEntity
8
1
100
AcDbLine
6
DOT2
62
6
10
2566.872254
20
-432.459313
11
2567.111016
21
-432.698075
0
LINE
5
659
100
AcDbEntity
8
1
100
AcDbLine
6
DOT2
62
6
10
2567.740992
20
-432.371659
11
2567.964822
21
-432.147829
0
LINE
5
65a
100
AcDbEntity
8
1
100
AcDbLine
6
DOT2
62
6
10
2567.638275
20
-434.737118
11
2568.059951
21
-434.315442
0
LINE
5
65b
100
AcDbEntity
8
1
100
AcDbLine
6
DOT2
62
6
10
2567.506878
20
-434.585673
11
2568.059951
21
-434.032599
0
LINE
5
65c
100
AcDbEntity
8
1
100
AcDbLine
6
DOT2
62
6
10
2567.311247
20
-434.498460
11
2567.463088
21
-434.346620
0
LINE
5
65d
100
AcDbEntity
8
1
100
AcDbLine
6
DOT2
62
6
10
2567.740992
20
-434.068715
11
2568.059951
21
-433.749756
0
LINE
5
65e
100
AcDbEntity
8
1
100
AcDbLine
6
DOT2
62
6
10
2567.134881
20
-434.391984
11
2567.196158
21
-434.330707
0
LINE
5
65f
100
AcDbEntity
8
1
100
AcDbLine
6
DOT2
62
6
10
2567.740992
20
-433.785873
11
2568.059951
21
-433.466913
0
LINE
5
660
100
AcDbEntity
8
1
100
AcDbLine
6
DOT2
62
6
10
2567.740992
20
-433.503030
11
2568.059951
21
-433.184071
0
LINE
5
661
100
AcDbEntity
8
1
100
AcDbLine
6
DOT2
62
6
10
2567.740992
20
-433.220187
11
2568.059951
21
-432.901228
0
LINE
5
662
100
AcDbEntity
8
1
100
AcDbLine
6
DOT2
62
6
10
2567.740992
20
-432.937345
11
2568.059951
21
-432.618385
0
LINE
5
663
100
AcDbEntity
8
1
100
AcDbLine
6
DOT2
62
6
10
2567.740992
20
-432.654502
11
2568.199518
21
-432.195976
0
LINE
5
664
100
AcDbEntity
8
1
100
AcDbLine
6
DOT2
62
6
10
2567.974984
20
-432.147829
11
2568.169329
21
-432.342175
0
LINE
5
665
100
AcDbEntity
8
1
100
AcDbLine
6
DOT2
62
6
10
2567.135174
20
-434.419290
11
2567.184419
21
-434.468535
0
LINE
5
666
100
AcDbEntity
8
1
100
AcDbLine
6
DOT2
62
6
10
2567.334093
20
-434.335365
11
2567.764266
21
-434.765538
0
LINE
5
667
100
AcDbEntity
8
1
100
AcDbLine
6
DOT2
62
6
10
2567.627481
20
-434.345911
11
2567.964010
21
-434.682440
0
LINE
5
668
100
AcDbEntity
8
1
100
AcDbLine
6
DOT2
62
6
10
2567.740992
20
-434.176579
11
2568.059951
21
-434.495539
0
LINE
5
669
100
AcDbEntity
8
1
100
AcDbLine
6
DOT2
62
6
10
2567.740992
20
-433.893737
11
2568.059951
21
-434.212696
0
LINE
5
66a
100
AcDbEntity
8
1
100
AcDbLine
6
DOT2
62
6
10
2567.740992
20
-433.610894
11
2568.059951
21
-433.929853
0
LINE
5
66b
100
AcDbEntity
8
1
100
AcDbLine
6
DOT2
62
6
10
2567.740992
20
-433.328051
11
2568.059951
21
-433.647010
0
LINE
5
66c
100
AcDbEntity
8
1
100
AcDbLine
6
DOT2
62
6
10
2567.740992
20
-433.045208
11
2568.059951
21
-433.364168
0
LINE
5
66d
100
AcDbEntity
8
1
100
AcDbLine
6
DOT2
62
6
10
2567.740992
20
-432.762366
11
2568.059951
21
-433.081325
0
LINE
5
66e
100
AcDbEntity
8
1
100
AcDbLine
6
DOT2
62
6
10
2567.740992
20
-432.479523
11
2568.059951
21
-432.798482
0
LINE
5
66f
100
AcDbEntity
8
1
100
AcDbLine
6
DOT2
62
6
10
2567.740992
20
-432.196680
11
2568.059951
21
-432.515640
0
LINE
5
670
100
AcDbEntity
8
1
100
AcDbLine
6
DOT2
62
6
10
2566.871518
20
-437.200931
11
2567.126143
21
-436.946306
0
LINE
5
671
100
AcDbEntity
8
1
100
AcDbLine
6
DOT2
62
6
10
2566.905497
20
-438.298323
11
2567.159680
21
-438.044140
0
LINE
5
672
100
AcDbEntity
8
1
100
AcDbLine
6
DOT2
62
6
10
2566.871518
20
-438.049459
11
2567.159680
21
-437.761298
0
LINE
5
673
100
AcDbEntity
8
1
100
AcDbLine
6
DOT2
62
6
10
2566.871518
20
-437.766616
11
2567.159680
21
-437.478455
0
LINE
5
674
100
AcDbEntity
8
1
100
AcDbLine
6
DOT2
62
6
10
2566.871518
20
-437.483774
11
2567.159680
21
-437.195612
0
LINE
5
675
100
AcDbEntity
8
1
100
AcDbLine
6
DOT2
62
6
10
2567.181669
20
-437.173623
11
2567.294628
21
-437.060663
0
LINE
5
676
100
AcDbEntity
8
1
100
AcDbLine
6
DOT2
62
6
10
2567.054409
20
-438.298323
11
2566.871518
21
-438.115431
0
LINE
5
677
100
AcDbEntity
8
1
100
AcDbLine
6
DOT2
62
6
10
2567.273890
20
-437.103590
11
2567.111688
21
-436.941388
0
LINE
5
678
100
AcDbEntity
8
1
100
AcDbLine
6
DOT2
62
6
10
2567.159680
20
-437.272222
11
2566.871518
21
-436.984061
0
LINE
5
679
100
AcDbEntity
8
1
100
AcDbLine
6
DOT2
62
6
10
2567.159680
20
-437.555065
11
2566.871518
21
-437.266903
0
LINE
5
67a
100
AcDbEntity
8
1
100
AcDbLine
6
DOT2
62
6
10
2567.159680
20
-437.837907
11
2566.871518
21
-437.549746
0
LINE
5
67b
100
AcDbEntity
8
1
100
AcDbLine
6
DOT2
62
6
10
2567.159680
20
-438.120750
11
2566.871518
21
-437.832589
0
LINE
5
67c
100
AcDbEntity
8
1
100
AcDbLine
6
DOT2
62
6
10
2567.680197
20
-436.957938
11
2567.857733
21
-436.780402
0
LINE
5
67d
100
AcDbEntity
8
1
100
AcDbLine
6
DOT2
62
6
10
2567.794018
20
-438.824016
11
2567.963387
21
-438.654646
0
LINE
5
67e
100
AcDbEntity
8
1
100
AcDbLine
6
DOT2
62
6
10
2567.555394
20
-438.779797
11
2567.988651
21
-438.346540
0
LINE
5
67f
100
AcDbEntity
8
1
100
AcDbLine
6
DOT2
62
6
10
2567.421148
20
-438.631201
11
2567.593438
21
-438.458910
0
LINE
5
680
100
AcDbEntity
8
1
100
AcDbLine
6
DOT2
62
6
10
2567.678376
20
-438.373973
11
2567.988651
21
-438.063697
0
LINE
5
681
100
AcDbEntity
8
1
100
AcDbLine
6
DOT2
62
6
10
2567.195267
20
-438.574238
11
2567.331346
21
-438.438159
0
LINE
5
682
100
AcDbEntity
8
1
100
AcDbLine
6
DOT2
62
6
10
2567.680197
20
-438.089309
11
2567.988651
21
-437.780854
0
LINE
5
683
100
AcDbEntity
8
1
100
AcDbLine
6
DOT2
62
6
10
2567.680197
20
-437.806466
11
2567.988651
21
-437.498012
0
LINE
5
684
100
AcDbEntity
8
1
100
AcDbLine
6
DOT2
62
6
10
2567.680197
20
-437.523624
11
2567.988651
21
-437.215169
0
LINE
5
685
100
AcDbEntity
8
1
100
AcDbLine
6
DOT2
62
6
10
2567.680197
20
-437.240781
11
2568.092693
21
-436.828284
0
LINE
5
686
100
AcDbEntity
8
1
100
AcDbLine
6
DOT2
62
6
10
2567.374479
20
-438.618392
11
2567.179844
21
-438.423757
0
LINE
5
687
100
AcDbEntity
8
1
100
AcDbLine
6
DOT2
62
6
10
2568.011979
20
-436.993150
11
2567.799230
21
-436.780402
0
LINE
5
688
100
AcDbEntity
8
1
100
AcDbLine
6
DOT2
62
6
10
2567.988651
20
-437.252665
11
2567.680197
21
-436.944211
0
LINE
5
689
100
AcDbEntity
8
1
100
AcDbLine
6
DOT2
62
6
10
2567.988651
20
-437.535508
11
2567.680197
21
-437.227054
0
LINE
5
68a
100
AcDbEntity
8
1
100
AcDbLine
6
DOT2
62
6
10
2567.988651
20
-437.818351
11
2567.680197
21
-437.509896
0
LINE
5
68b
100
AcDbEntity
8
1
100
AcDbLine
6
DOT2
62
6
10
2567.988651
20
-438.101193
11
2567.680197
21
-437.792739
0
LINE
5
68c
100
AcDbEntity
8
1
100
AcDbLine
6
DOT2
62
6
10
2567.988651
20
-438.384036
11
2567.680197
21
-438.075582
0
LINE
5
68d
100
AcDbEntity
8
1
100
AcDbLine
6
DOT2
62
6
10
2567.967145
20
-438.645373
11
2567.680122
21
-438.358350
0
LINE
5
68e
100
AcDbEntity
8
1
100
AcDbLine
6
DOT2
62
6
10
2567.839317
20
-438.800388
11
2567.492398
21
-438.453469
0
LINE
5
68f
100
AcDbEntity
8
1
100
AcDbLine
6
DOT2
62
6
10
2567.605366
20
-438.849279
11
2567.555394
21
-438.799308
0
LINE
5
690
100
AcDbEntity
8
1
100
AcDbLine
6
DOT2
62
6
10
2565.212075
20
-441.688801
11
2565.472733
21
-441.428144
0
LINE
5
691
100
AcDbEntity
8
1
100
AcDbLine
6
DOT2
62
6
10
2565.043183
20
-445.251806
11
2565.236785
21
-445.058203
0
LINE
5
692
100
AcDbEntity
8
1
100
AcDbLine
6
DOT2
62
6
10
2564.918184
20
-445.093962
11
2565.236785
21
-444.775361
0
LINE
5
693
100
AcDbEntity
8
1
100
AcDbLine
6
DOT2
62
6
10
2564.918184
20
-444.811119
11
2565.236785
21
-444.492518
0
LINE
5
694
100
AcDbEntity
8
1
100
AcDbLine
6
DOT2
62
6
10
2564.918184
20
-444.528276
11
2565.236785
21
-444.209675
0
LINE
5
695
100
AcDbEntity
8
1
100
AcDbLine
6
DOT2
62
6
10
2564.918184
20
-444.245434
11
2565.236785
21
-443.926833
0
LINE
5
696
100
AcDbEntity
8
1
100
AcDbLine
6
DOT2
62
6
10
2564.918184
20
-443.962591
11
2565.236785
21
-443.643990
0
LINE
5
697
100
AcDbEntity
8
1
100
AcDbLine
6
DOT2
62
6
10
2564.918184
20
-443.679748
11
2565.236785
21
-443.361147
0
LINE
5
698
100
AcDbEntity
8
1
100
AcDbLine
6
DOT2
62
6
10
2564.918184
20
-443.396905
11
2565.236785
21
-443.078304
0
LINE
5
699
100
AcDbEntity
8
1
100
AcDbLine
6
DOT2
62
6
10
2564.424096
20
-443.608151
11
2564.425410
21
-443.606837
0
LINE
5
69a
100
AcDbEntity
8
1
100
AcDbLine
6
DOT2
62
6
10
2564.918184
20
-443.114063
11
2565.236785
21
-442.795462
0
LINE
5
69b
100
AcDbEntity
8
1
100
AcDbLine
6
DOT2
62
6
10
2564.550805
20
-443.198600
11
2565.286425
21
-442.462979
0
LINE
5
69c
100
AcDbEntity
8
1
100
AcDbLine
6
DOT2
62
6
10
2564.874130
20
-442.592432
11
2565.406033
21
-442.060529
0
LINE
5
69d
100
AcDbEntity
8
1
100
AcDbLine
6
DOT2
62
6
10
2565.074643
20
-442.109076
11
2565.691645
21
-441.492074
0
LINE
5
69e
100
AcDbEntity
8
1
100
AcDbLine
6
DOT2
62
6
10
2564.956926
20
-445.251806
11
2564.918184
21
-445.213065
0
LINE
5
69f
100
AcDbEntity
8
1
100
AcDbLine
6
DOT2
62
6
10
2565.749195
20
-441.518592
11
2565.735478
21
-441.504874
0
LINE
5
6a0
100
AcDbEntity
8
1
100
AcDbLine
6
DOT2
62
6
10
2565.582565
20
-441.634804
11
2565.335962
21
-441.388202
0
LINE
5
6a1
100
AcDbEntity
8
1
100
AcDbLine
6
DOT2
62
6
10
2565.500661
20
-441.835743
11
2565.242919
21
-441.578001
0
LINE
5
6a2
100
AcDbEntity
8
1
100
AcDbLine
6
DOT2
62
6
10
2565.417234
20
-442.035159
11
2565.179645
21
-441.797570
0
LINE
5
6a3
100
AcDbEntity
8
1
100
AcDbLine
6
DOT2
62
6
10
2565.328203
20
-442.228970
11
2565.109819
21
-442.010587
0
LINE
5
6a4
100
AcDbEntity
8
1
100
AcDbLine
6
DOT2
62
6
10
2565.388983
20
-442.572594
11
2565.272309
21
-442.455920
0
LINE
5
6a5
100
AcDbEntity
8
1
100
AcDbLine
6
DOT2
62
6
10
2565.233776
20
-442.417386
11
2565.033790
21
-442.217400
0
LINE
5
6a6
100
AcDbEntity
8
1
100
AcDbLine
6
DOT2
62
6
10
2565.247452
20
-442.713905
11
2564.951853
21
-442.418306
0
LINE
5
6a7
100
AcDbEntity
8
1
100
AcDbLine
6
DOT2
62
6
10
2565.236785
20
-442.986081
11
2564.864263
21
-442.613559
0
LINE
5
6a8
100
AcDbEntity
8
1
100
AcDbLine
6
DOT2
62
6
10
2565.236785
20
-443.268924
11
2564.771236
21
-442.803374
0
LINE
5
6a9
100
AcDbEntity
8
1
100
AcDbLine
6
DOT2
62
6
10
2565.236785
20
-443.551767
11
2564.918184
21
-443.233166
0
LINE
5
6aa
100
AcDbEntity
8
1
100
AcDbLine
6
DOT2
62
6
10
2564.803283
20
-443.118265
11
2564.672958
21
-442.987939
0
LINE
5
6ab
100
AcDbEntity
8
1
100
AcDbLine
6
DOT2
62
6
10
2565.236785
20
-443.834609
11
2564.918184
21
-443.516008
0
LINE
5
6ac
100
AcDbEntity
8
1
100
AcDbLine
6
DOT2
62
6
10
2564.685478
20
-443.283302
11
2564.569587
21
-443.167411
0
LINE
5
6ad
100
AcDbEntity
8
1
100
AcDbLine
6
DOT2
62
6
10
2565.236785
20
-444.117452
11
2564.918184
21
-443.798851
0
LINE
5
6ae
100
AcDbEntity
8
1
100
AcDbLine
6
DOT2
62
6
10
2564.559436
20
-443.440103
11
2564.461257
21
-443.341924
0
LINE
5
6af
100
AcDbEntity
8
1
100
AcDbLine
6
DOT2
62
6
10
2565.236785
20
-444.400295
11
2564.918184
21
-444.081694
0
LINE
5
6b0
100
AcDbEntity
8
1
100
AcDbLine
6
DOT2
62
6
10
2564.433395
20
-443.596904
11
2564.348083
21
-443.511592
0
LINE
5
6b1
100
AcDbEntity
8
1
100
AcDbLine
6
DOT2
62
6
10
2565.236785
20
-444.683137
11
2564.918184
21
-444.364536
0
LINE
5
6b2
100
AcDbEntity
8
1
100
AcDbLine
6
DOT2
62
6
10
2565.236785
20
-444.965980
11
2564.918184
21
-444.647379
0
LINE
5
6b3
100
AcDbEntity
8
1
100
AcDbLine
6
DOT2
62
6
10
2565.236785
20
-445.248823
11
2564.918184
21
-444.930222
0
LINE
5
6b4
100
AcDbEntity
8
1
100
AcDbLine
6
DOT2
62
6
10
2564.893512
20
-436.916195
11
2565.028291
21
-436.781417
0
LINE
5
6b5
100
AcDbEntity
8
1
100
AcDbLine
6
DOT2
62
6
10
2566.128805
20
-438.792173
11
2566.426086
21
-438.494892
0
LINE
5
6b6
100
AcDbEntity
8
1
100
AcDbLine
6
DOT2
62
6
10
2565.713771
20
-438.924363
11
2565.728004
21
-438.910130
0
LINE
5
6b7
100
AcDbEntity
8
1
100
AcDbLine
6
DOT2
62
6
10
2565.950826
20
-438.687308
11
2566.505228
21
-438.132906
0
LINE
5
6b8
100
AcDbEntity
8
1
100
AcDbLine
6
DOT2
62
6
10
2565.437814
20
-438.917478
11
2565.728004
21
-438.627288
0
LINE
5
6b9
100
AcDbEntity
8
1
100
AcDbLine
6
DOT2
62
6
10
2565.805118
20
-438.550174
11
2565.861141
21
-438.494151
0
LINE
5
6ba
100
AcDbEntity
8
1
100
AcDbLine
6
DOT2
62
6
10
2566.127995
20
-438.227297
11
2566.360147
21
-437.995145
0
LINE
5
6bb
100
AcDbEntity
8
1
100
AcDbLine
6
DOT2
62
6
10
2566.547047
20
-437.808245
11
2566.693555
21
-437.661737
0
LINE
5
6bc
100
AcDbEntity
8
1
100
AcDbLine
6
DOT2
62
6
10
2565.437814
20
-438.634636
11
2565.728004
21
-438.344445
0
LINE
5
6bd
100
AcDbEntity
8
1
100
AcDbLine
6
DOT2
62
6
10
2565.845152
20
-438.227297
11
2566.007497
21
-438.064952
0
LINE
5
6be
100
AcDbEntity
8
1
100
AcDbLine
6
DOT2
62
6
10
2566.264204
20
-437.808245
11
2566.552134
21
-437.520315
0
LINE
5
6bf
100
AcDbEntity
8
1
100
AcDbLine
6
DOT2
62
6
10
2564.865243
20
-438.924363
11
2565.044128
21
-438.745478
0
LINE
5
6c0
100
AcDbEntity
8
1
100
AcDbLine
6
DOT2
62
6
10
2565.437814
20
-438.351793
11
2565.728004
21
-438.061602
0
LINE
5
6c1
100
AcDbEntity
8
1
100
AcDbLine
6
DOT2
62
6
10
2565.981361
20
-437.808245
11
2566.133559
21
-437.656047
0
LINE
5
6c2
100
AcDbEntity
8
1
100
AcDbLine
6
DOT2
62
6
10
2566.413603
20
-437.376003
11
2566.559984
21
-437.229623
0
LINE
5
6c3
100
AcDbEntity
8
1
100
AcDbLine
6
DOT2
62
6
10
2564.755967
20
-438.750797
11
2565.044128
21
-438.462636
0
LINE
5
6c4
100
AcDbEntity
8
1
100
AcDbLine
6
DOT2
62
6
10
2565.279467
20
-438.227297
11
2565.850716
21
-437.656047
0
LINE
5
6c5
100
AcDbEntity
8
1
100
AcDbLine
6
DOT2
62
6
10
2566.130761
20
-437.376003
11
2566.425442
21
-437.081321
0
LINE
5
6c6
100
AcDbEntity
8
1
100
AcDbLine
6
DOT2
62
6
10
2564.755967
20
-438.467954
11
2565.158969
21
-438.064952
0
LINE
5
6c7
100
AcDbEntity
8
1
100
AcDbLine
6
DOT2
62
6
10
2565.415676
20
-437.808245
11
2565.728004
21
-437.495917
0
LINE
5
6c8
100
AcDbEntity
8
1
100
AcDbLine
6
DOT2
62
6
10
2565.847918
20
-437.376003
11
2566.017515
21
-437.206406
0
LINE
5
6c9
100
AcDbEntity
8
1
100
AcDbLine
6
DOT2
62
6
10
2564.755967
20
-438.185112
11
2564.927282
21
-438.013796
0
LINE
5
6ca
100
AcDbEntity
8
1
100
AcDbLine
6
DOT2
62
6
10
2565.132833
20
-437.808245
11
2565.285031
21
-437.656047
0
LINE
5
6cb
100
AcDbEntity
8
1
100
AcDbLine
6
DOT2
62
6
10
2565.437814
20
-437.503265
11
2565.734672
21
-437.206406
0
LINE
5
6cc
100
AcDbEntity
8
1
100
AcDbLine
6
DOT2
62
6
10
2564.849990
20
-437.808245
11
2565.002188
21
-437.656047
0
LINE
5
6cd
100
AcDbEntity
8
1
100
AcDbLine
6
DOT2
62
6
10
2565.282233
20
-437.376003
11
2565.728004
21
-436.930231
0
LINE
5
6ce
100
AcDbEntity
8
1
100
AcDbLine
6
DOT2
62
6
10
2565.747003
20
-436.911232
11
2565.879188
21
-436.779048
0
LINE
5
6cf
100
AcDbEntity
8
1
100
AcDbLine
6
DOT2
62
6
10
2564.567148
20
-437.808245
11
2564.719346
21
-437.656047
0
LINE
5
6d0
100
AcDbEntity
8
1
100
AcDbLine
6
DOT2
62
6
10
2564.999390
20
-437.376003
11
2565.168987
21
-437.206406
0
LINE
5
6d1
100
AcDbEntity
8
1
100
AcDbLine
6
DOT2
62
6
10
2565.437814
20
-436.937579
11
2565.672105
21
-436.703288
0
LINE
5
6d2
100
AcDbEntity
8
1
100
AcDbLine
6
DOT2
62
6
10
2564.498137
20
-437.594413
11
2565.229459
21
-436.863092
0
LINE
5
6d3
100
AcDbEntity
8
1
100
AcDbLine
6
DOT2
62
6
10
2564.852023
20
-438.924363
11
2564.755967
21
-438.828307
0
LINE
5
6d4
100
AcDbEntity
8
1
100
AcDbLine
6
DOT2
62
6
10
2566.572196
20
-437.250423
11
2566.368013
21
-437.046241
0
LINE
5
6d5
100
AcDbEntity
8
1
100
AcDbLine
6
DOT2
62
6
10
2566.414932
20
-437.376003
11
2566.218797
21
-437.179868
0
LINE
5
6d6
100
AcDbEntity
8
1
100
AcDbLine
6
DOT2
62
6
10
2565.874727
20
-436.835798
11
2565.742218
21
-436.703288
0
LINE
5
6d7
100
AcDbEntity
8
1
100
AcDbLine
6
DOT2
62
6
10
2566.564332
20
-437.808245
11
2566.359278
21
-437.603192
0
LINE
5
6d8
100
AcDbEntity
8
1
100
AcDbLine
6
DOT2
62
6
10
2566.132090
20
-437.376003
11
2565.962493
21
-437.206406
0
LINE
5
6d9
100
AcDbEntity
8
1
100
AcDbLine
6
DOT2
62
6
10
2565.728004
20
-436.971918
11
2565.459375
21
-436.703288
0
LINE
5
6da
100
AcDbEntity
8
1
100
AcDbLine
6
DOT2
62
6
10
2566.281489
20
-437.808245
11
2566.129291
21
-437.656047
0
LINE
5
6db
100
AcDbEntity
8
1
100
AcDbLine
6
DOT2
62
6
10
2565.849247
20
-437.376003
11
2565.437814
21
-436.964570
0
LINE
5
6dc
100
AcDbEntity
8
1
100
AcDbLine
6
DOT2
62
6
10
2566.452086
20
-438.261685
11
2566.195334
21
-438.004933
0
LINE
5
6dd
100
AcDbEntity
8
1
100
AcDbLine
6
DOT2
62
6
10
2565.998647
20
-437.808245
11
2565.846449
21
-437.656047
0
LINE
5
6de
100
AcDbEntity
8
1
100
AcDbLine
6
DOT2
62
6
10
2565.728004
20
-437.537603
11
2565.396807
21
-437.206406
0
LINE
5
6df
100
AcDbEntity
8
1
100
AcDbLine
6
DOT2
62
6
10
2565.195914
20
-437.005513
11
2564.971818
21
-436.781417
0
LINE
5
6e0
100
AcDbEntity
8
1
100
AcDbLine
6
DOT2
62
6
10
2566.426086
20
-438.518527
11
2566.144012
21
-438.236453
0
LINE
5
6e1
100
AcDbEntity
8
1
100
AcDbLine
6
DOT2
62
6
10
2566.134855
20
-438.227297
11
2565.972511
21
-438.064952
0
LINE
5
6e2
100
AcDbEntity
8
1
100
AcDbLine
6
DOT2
62
6
10
2565.728004
20
-437.820446
11
2565.437814
21
-437.530255
0
LINE
5
6e3
100
AcDbEntity
8
1
100
AcDbLine
6
DOT2
62
6
10
2565.283562
20
-437.376003
11
2565.113964
21
-437.206406
0
LINE
5
6e4
100
AcDbEntity
8
1
100
AcDbLine
6
DOT2
62
6
10
2565.051243
20
-437.143684
11
2564.871883
21
-436.964324
0
LINE
5
6e5
100
AcDbEntity
8
1
100
AcDbLine
6
DOT2
62
6
10
2566.367896
20
-438.743180
11
2566.113700
21
-438.488984
0
LINE
5
6e6
100
AcDbEntity
8
1
100
AcDbLine
6
DOT2
62
6
10
2565.852013
20
-438.227297
11
2565.437814
21
-437.813098
0
LINE
5
6e7
100
AcDbEntity
8
1
100
AcDbLine
6
DOT2
62
6
10
2565.432961
20
-437.808245
11
2565.280763
21
-437.656047
0
LINE
5
6e8
100
AcDbEntity
8
1
100
AcDbLine
6
DOT2
62
6
10
2565.000719
20
-437.376003
11
2564.771768
21
-437.147052
0
LINE
5
6e9
100
AcDbEntity
8
1
100
AcDbLine
6
DOT2
62
6
10
2566.137642
20
-438.795769
11
2565.836024
21
-438.494151
0
LINE
5
6ea
100
AcDbEntity
8
1
100
AcDbLine
6
DOT2
62
6
10
2565.728004
20
-438.386131
11
2565.406826
21
-438.064952
0
LINE
5
6eb
100
AcDbEntity
8
1
100
AcDbLine
6
DOT2
62
6
10
2565.150118
20
-437.808245
11
2564.997920
21
-437.656047
0
LINE
5
6ec
100
AcDbEntity
8
1
100
AcDbLine
6
DOT2
62
6
10
2564.776724
20
-437.434851
11
2564.653178
21
-437.311305
0
LINE
5
6ed
100
AcDbEntity
8
1
100
AcDbLine
6
DOT2
62
6
10
2565.728004
20
-438.668974
11
2565.437814
21
-438.378783
0
LINE
5
6ee
100
AcDbEntity
8
1
100
AcDbLine
6
DOT2
62
6
10
2565.286327
20
-438.227297
11
2565.123983
21
-438.064952
0
LINE
5
6ef
100
AcDbEntity
8
1
100
AcDbLine
6
DOT2
62
6
10
2564.867276
20
-437.808245
11
2564.715078
21
-437.656047
0
LINE
5
6f0
100
AcDbEntity
8
1
100
AcDbLine
6
DOT2
62
6
10
2564.617087
20
-437.558057
11
2564.517194
21
-437.458164
0
LINE
5
6f1
100
AcDbEntity
8
1
100
AcDbLine
6
DOT2
62
6
10
2565.700551
20
-438.924363
11
2565.437814
21
-438.661626
0
LINE
5
6f2
100
AcDbEntity
8
1
100
AcDbLine
6
DOT2
62
6
10
2565.044128
20
-438.267941
11
2564.755967
21
-437.979779
0
LINE
5
6f3
100
AcDbEntity
8
1
100
AcDbLine
6
DOT2
62
6
10
2564.584433
20
-437.808245
11
2564.501848
21
-437.725660
0
LINE
5
6f4
100
AcDbEntity
8
1
100
AcDbLine
6
DOT2
62
6
10
2565.044128
20
-438.550783
11
2564.755967
21
-438.262622
0
LINE
5
6f5
100
AcDbEntity
8
1
100
AcDbLine
6
DOT2
62
6
10
2565.044128
20
-438.833626
11
2564.755967
21
-438.545465
0
LINE
5
6f6
100
AcDbEntity
8
1
100
AcDbLine
6
DOT2
62
6
10
2564.963838
20
-435.148813
11
2565.064286
21
-435.048366
0
LINE
5
6f7
100
AcDbEntity
8
1
100
AcDbLine
6
DOT2
62
6
10
2568.285260
20
-436.070032
11
2568.402583
21
-435.952708
0
LINE
5
6f8
100
AcDbEntity
8
1
100
AcDbLine
6
DOT2
62
6
10
2568.002417
20
-436.070032
11
2568.291466
21
-435.780983
0
LINE
5
6f9
100
AcDbEntity
8
1
100
AcDbLine
6
DOT2
62
6
10
2567.719574
20
-436.070032
11
2568.158126
21
-435.631480
0
LINE
5
6fa
100
AcDbEntity
8
1
100
AcDbLine
6
DOT2
62
6
10
2567.436731
20
-436.070032
11
2567.601195
21
-435.905569
0
LINE
5
6fb
100
AcDbEntity
8
1
100
AcDbLine
6
DOT2
62
6
10
2567.153889
20
-436.070032
11
2567.318352
21
-435.905569
0
LINE
5
6fc
100
AcDbEntity
8
1
100
AcDbLine
6
DOT2
62
6
10
2566.871046
20
-436.070032
11
2567.035509
21
-435.905569
0
LINE
5
6fd
100
AcDbEntity
8
1
100
AcDbLine
6
DOT2
62
6
10
2567.713298
20
-435.227780
11
2567.890424
21
-435.050654
0
LINE
5
6fe
100
AcDbEntity
8
1
100
AcDbLine
6
DOT2
62
6
10
2566.588203
20
-436.070032
11
2566.752667
21
-435.905569
0
LINE
5
6ff
100
AcDbEntity
8
1
100
AcDbLine
6
DOT2
62
6
10
2567.430455
20
-435.227780
11
2567.751649
21
-434.906587
0
LINE
5
700
100
AcDbEntity
8
1
100
AcDbLine
6
DOT2
62
6
10
2566.305361
20
-436.070032
11
2566.557354
21
-435.818039
0
LINE
5
701
100
AcDbEntity
8
1
100
AcDbLine
6
DOT2
62
6
10
2567.147613
20
-435.227780
11
2567.327027
21
-435.048366
0
LINE
5
702
100
AcDbEntity
8
1
100
AcDbLine
6
DOT2
62
6
10
2566.022518
20
-436.070032
11
2566.186981
21
-435.905569
0
LINE
5
703
100
AcDbEntity
8
1
100
AcDbLine
6
DOT2
62
6
10
2566.218460
20
-435.874091
11
2566.557354
21
-435.535196
0
LINE
5
704
100
AcDbEntity
8
1
100
AcDbLine
6
DOT2
62
6
10
2566.864770
20
-435.227780
11
2567.044185
21
-435.048366
0
LINE
5
705
100
AcDbEntity
8
1
100
AcDbLine
6
DOT2
62
6
10
2565.739675
20
-436.070032
11
2565.904139
21
-435.905569
0
LINE
5
706
100
AcDbEntity
8
1
100
AcDbLine
6
DOT2
62
6
10
2566.218460
20
-435.591248
11
2566.557354
21
-435.252354
0
LINE
5
707
100
AcDbEntity
8
1
100
AcDbLine
6
DOT2
62
6
10
2566.581927
20
-435.227780
11
2566.761342
21
-435.048366
0
LINE
5
708
100
AcDbEntity
8
1
100
AcDbLine
6
DOT2
62
6
10
2565.456832
20
-436.070032
11
2565.621296
21
-435.905569
0
LINE
5
709
100
AcDbEntity
8
1
100
AcDbLine
6
DOT2
62
6
10
2566.218460
20
-435.308405
11
2566.557354
21
-434.969511
0
LINE
5
70a
100
AcDbEntity
8
1
100
AcDbLine
6
DOT2
62
6
10
2565.173990
20
-436.070032
11
2565.338453
21
-435.905569
0
LINE
5
70b
100
AcDbEntity
8
1
100
AcDbLine
6
DOT2
62
6
10
2566.016242
20
-435.227780
11
2566.195656
21
-435.048366
0
LINE
5
70c
100
AcDbEntity
8
1
100
AcDbLine
6
DOT2
62
6
10
2566.218460
20
-435.025563
11
2566.709984
21
-434.534038
0
LINE
5
70d
100
AcDbEntity
8
1
100
AcDbLine
6
DOT2
62
6
10
2564.891147
20
-436.070032
11
2565.055610
21
-435.905569
0
LINE
5
70e
100
AcDbEntity
8
1
100
AcDbLine
6
DOT2
62
6
10
2565.733399
20
-435.227780
11
2565.912814
21
-435.048366
0
LINE
5
70f
100
AcDbEntity
8
1
100
AcDbLine
6
DOT2
62
6
10
2566.218460
20
-434.742720
11
2566.490927
21
-434.470252
0
LINE
5
710
100
AcDbEntity
8
1
100
AcDbLine
6
DOT2
62
6
10
2564.608304
20
-436.070032
11
2564.772768
21
-435.905569
0
LINE
5
711
100
AcDbEntity
8
1
100
AcDbLine
6
DOT2
62
6
10
2565.450556
20
-435.227780
11
2565.629971
21
-435.048366
0
LINE
5
712
100
AcDbEntity
8
1
100
AcDbLine
6
DOT2
62
6
10
2564.439264
20
-435.956230
11
2564.489925
21
-435.905569
0
LINE
5
713
100
AcDbEntity
8
1
100
AcDbLine
6
DOT2
62
6
10
2565.167714
20
-435.227780
11
2565.347128
21
-435.048366
0
LINE
5
714
100
AcDbEntity
8
1
100
AcDbLine
6
DOT2
62
6
10
2567.561683
20
-434.845798
11
2567.886224
21
-435.170340
0
LINE
5
715
100
AcDbEntity
8
1
100
AcDbLine
6
DOT2
62
6
10
2564.443172
20
-435.969928
11
2564.543276
21
-436.070032
0
LINE
5
716
100
AcDbEntity
8
1
100
AcDbLine
6
DOT2
62
6
10
2564.661656
20
-435.905569
11
2564.826119
21
-436.070032
0
LINE
5
717
100
AcDbEntity
8
1
100
AcDbLine
6
DOT2
62
6
10
2564.944498
20
-435.905569
11
2565.108962
21
-436.070032
0
LINE
5
718
100
AcDbEntity
8
1
100
AcDbLine
6
DOT2
62
6
10
2565.227341
20
-435.905569
11
2565.391804
21
-436.070032
0
LINE
5
719
100
AcDbEntity
8
1
100
AcDbLine
6
DOT2
62
6
10
2565.510184
20
-435.905569
11
2565.674647
21
-436.070032
0
LINE
5
71a
100
AcDbEntity
8
1
100
AcDbLine
6
DOT2
62
6
10
2564.957573
20
-435.070116
11
2565.115238
21
-435.227780
0
LINE
5
71b
100
AcDbEntity
8
1
100
AcDbLine
6
DOT2
62
6
10
2565.793026
20
-435.905569
11
2565.957490
21
-436.070032
0
LINE
5
71c
100
AcDbEntity
8
1
100
AcDbLine
6
DOT2
62
6
10
2565.218666
20
-435.048366
11
2565.398081
21
-435.227780
0
LINE
5
71d
100
AcDbEntity
8
1
100
AcDbLine
6
DOT2
62
6
10
2566.075869
20
-435.905569
11
2566.240333
21
-436.070032
0
LINE
5
71e
100
AcDbEntity
8
1
100
AcDbLine
6
DOT2
62
6
10
2565.501509
20
-435.048366
11
2565.680923
21
-435.227780
0
LINE
5
71f
100
AcDbEntity
8
1
100
AcDbLine
6
DOT2
62
6
10
2566.218460
20
-435.765317
11
2566.523175
21
-436.070032
0
LINE
5
720
100
AcDbEntity
8
1
100
AcDbLine
6
DOT2
62
6
10
2565.784351
20
-435.048366
11
2565.963766
21
-435.227780
0
LINE
5
721
100
AcDbEntity
8
1
100
AcDbLine
6
DOT2
62
6
10
2566.218460
20
-435.482474
11
2566.557354
21
-435.821368
0
LINE
5
722
100
AcDbEntity
8
1
100
AcDbLine
6
DOT2
62
6
10
2566.641555
20
-435.905569
11
2566.806018
21
-436.070032
0
LINE
5
723
100
AcDbEntity
8
1
100
AcDbLine
6
DOT2
62
6
10
2566.067194
20
-435.048366
11
2566.557354
21
-435.538525
0
LINE
5
724
100
AcDbEntity
8
1
100
AcDbLine
6
DOT2
62
6
10
2566.924397
20
-435.905569
11
2567.088861
21
-436.070032
0
LINE
5
725
100
AcDbEntity
8
1
100
AcDbLine
6
DOT2
62
6
10
2566.218460
20
-434.916788
11
2566.557354
21
-435.255683
0
LINE
5
726
100
AcDbEntity
8
1
100
AcDbLine
6
DOT2
62
6
10
2567.207240
20
-435.905569
11
2567.371703
21
-436.070032
0
LINE
5
727
100
AcDbEntity
8
1
100
AcDbLine
6
DOT2
62
6
10
2566.218460
20
-434.633946
11
2566.557354
21
-434.972840
0
LINE
5
728
100
AcDbEntity
8
1
100
AcDbLine
6
DOT2
62
6
10
2566.632879
20
-435.048366
11
2566.812294
21
-435.227780
0
LINE
5
729
100
AcDbEntity
8
1
100
AcDbLine
6
DOT2
62
6
10
2567.490083
20
-435.905569
11
2567.654546
21
-436.070032
0
LINE
5
72a
100
AcDbEntity
8
1
100
AcDbLine
6
DOT2
62
6
10
2566.337608
20
-434.470252
11
2566.599982
21
-434.732626
0
LINE
5
72b
100
AcDbEntity
8
1
100
AcDbLine
6
DOT2
62
6
10
2566.915722
20
-435.048366
11
2567.095137
21
-435.227780
0
LINE
5
72c
100
AcDbEntity
8
1
100
AcDbLine
6
DOT2
62
6
10
2567.772925
20
-435.905569
11
2567.937389
21
-436.070032
0
LINE
5
72d
100
AcDbEntity
8
1
100
AcDbLine
6
DOT2
62
6
10
2566.665752
20
-434.515552
11
2566.727231
21
-434.577031
0
LINE
5
72e
100
AcDbEntity
8
1
100
AcDbLine
6
DOT2
62
6
10
2567.198565
20
-435.048366
11
2567.377980
21
-435.227780
0
LINE
5
72f
100
AcDbEntity
8
1
100
AcDbLine
6
DOT2
62
6
10
2567.954762
20
-435.804563
11
2568.220232
21
-436.070032
0
LINE
5
730
100
AcDbEntity
8
1
100
AcDbLine
6
DOT2
62
6
10
2567.438142
20
-435.005100
11
2567.660822
21
-435.227780
0
LINE
5
731
100
AcDbEntity
8
1
100
AcDbLine
6
DOT2
62
6
10
2568.087387
20
-435.654345
11
2568.402583
21
-435.969542
0
LINE
5
732
100
AcDbEntity
8
1
100
AcDbLine
6
DOT2
62
6
10
2564.499187
20
-432.502194
11
2564.598136
21
-432.403246
0
LINE
5
733
100
AcDbEntity
8
1
100
AcDbLine
6
DOT2
62
6
10
2565.906569
20
-434.771768
11
2566.061472
21
-434.616865
0
LINE
5
734
100
AcDbEntity
8
1
100
AcDbLine
6
DOT2
62
6
10
2565.737529
20
-434.657965
11
2566.061472
21
-434.334022
0
LINE
5
735
100
AcDbEntity
8
1
100
AcDbLine
6
DOT2
62
6
10
2565.737529
20
-434.375123
11
2566.061472
21
-434.051180
0
LINE
5
736
100
AcDbEntity
8
1
100
AcDbLine
6
DOT2
62
6
10
2565.737529
20
-434.092280
11
2566.061472
21
-433.768337
0
LINE
5
737
100
AcDbEntity
8
1
100
AcDbLine
6
DOT2
62
6
10
2566.307713
20
-433.522095
11
2566.525382
21
-433.304427
0
LINE
5
738
100
AcDbEntity
8
1
100
AcDbLine
6
DOT2
62
6
10
2564.601360
20
-434.945606
11
2564.988385
21
-434.558581
0
LINE
5
739
100
AcDbEntity
8
1
100
AcDbLine
6
DOT2
62
6
10
2565.737529
20
-433.809437
11
2566.395826
21
-433.151140
0
LINE
5
73a
100
AcDbEntity
8
1
100
AcDbLine
6
DOT2
62
6
10
2564.671522
20
-434.592601
11
2565.203958
21
-434.060166
0
LINE
5
73b
100
AcDbEntity
8
1
100
AcDbLine
6
DOT2
62
6
10
2565.737529
20
-433.526594
11
2566.061472
21
-433.202651
0
LINE
5
73c
100
AcDbEntity
8
1
100
AcDbLine
6
DOT2
62
6
10
2564.877511
20
-434.103770
11
2565.248918
21
-433.732362
0
LINE
5
73d
100
AcDbEntity
8
1
100
AcDbLine
6
DOT2
62
6
10
2565.459185
20
-433.522095
11
2565.616173
21
-433.365108
0
LINE
5
73e
100
AcDbEntity
8
1
100
AcDbLine
6
DOT2
62
6
10
2565.737529
20
-433.243752
11
2566.061472
21
-432.919809
0
LINE
5
73f
100
AcDbEntity
8
1
100
AcDbLine
6
DOT2
62
6
10
2566.404850
20
-432.576431
11
2566.481616
21
-432.499664
0
LINE
5
740
100
AcDbEntity
8
1
100
AcDbLine
6
DOT2
62
6
10
2564.932780
20
-433.765657
11
2565.333330
21
-433.365108
0
LINE
5
741
100
AcDbEntity
8
1
100
AcDbLine
6
DOT2
62
6
10
2565.737529
20
-432.960909
11
2566.061472
21
-432.636966
0
LINE
5
742
100
AcDbEntity
8
1
100
AcDbLine
6
DOT2
62
6
10
2566.122007
20
-432.576431
11
2566.385147
21
-432.313291
0
LINE
5
743
100
AcDbEntity
8
1
100
AcDbLine
6
DOT2
62
6
10
2564.893500
20
-433.522095
11
2565.276533
21
-433.139062
0
LINE
5
744
100
AcDbEntity
8
1
100
AcDbLine
6
DOT2
62
6
10
2565.737529
20
-432.678066
11
2566.012349
21
-432.403246
0
LINE
5
745
100
AcDbEntity
8
1
100
AcDbLine
6
DOT2
62
6
10
2566.099538
20
-432.316057
11
2566.242847
21
-432.172748
0
LINE
5
746
100
AcDbEntity
8
1
100
AcDbLine
6
DOT2
62
6
10
2564.610657
20
-433.522095
11
2564.767645
21
-433.365108
0
LINE
5
747
100
AcDbEntity
8
1
100
AcDbLine
6
DOT2
62
6
10
2564.972525
20
-433.160228
11
2565.276533
21
-432.856220
0
LINE
5
748
100
AcDbEntity
8
1
100
AcDbLine
6
DOT2
62
6
10
2565.556321
20
-432.576431
11
2565.729506
21
-432.403246
0
LINE
5
749
100
AcDbEntity
8
1
100
AcDbLine
6
DOT2
62
6
10
2564.387109
20
-433.462801
11
2564.484802
21
-433.365108
0
LINE
5
74a
100
AcDbEntity
8
1
100
AcDbLine
6
DOT2
62
6
10
2564.972525
20
-432.877385
11
2565.446664
21
-432.403246
0
LINE
5
74b
100
AcDbEntity
8
1
100
AcDbLine
6
DOT2
62
6
10
2564.972525
20
-432.594542
11
2565.163821
21
-432.403246
0
LINE
5
74c
100
AcDbEntity
8
1
100
AcDbLine
6
DOT2
62
6
10
2564.707793
20
-432.576431
11
2564.880978
21
-432.403246
0
LINE
5
74d
100
AcDbEntity
8
1
100
AcDbLine
6
DOT2
62
6
10
2566.125976
20
-432.278721
11
2566.423686
21
-432.576431
0
LINE
5
74e
100
AcDbEntity
8
1
100
AcDbLine
6
DOT2
62
6
10
2564.469167
20
-434.864552
11
2564.570553
21
-434.965938
0
LINE
5
74f
100
AcDbEntity
8
1
100
AcDbLine
6
DOT2
62
6
10
2564.589692
20
-434.702234
11
2564.732649
21
-434.845192
0
LINE
5
750
100
AcDbEntity
8
1
100
AcDbLine
6
DOT2
62
6
10
2564.704516
20
-434.534216
11
2564.875029
21
-434.704729
0
LINE
5
751
100
AcDbEntity
8
1
100
AcDbLine
6
DOT2
62
6
10
2564.795839
20
-434.342696
11
2564.997748
21
-434.544605
0
LINE
5
752
100
AcDbEntity
8
1
100
AcDbLine
6
DOT2
62
6
10
2564.869223
20
-434.133237
11
2565.099667
21
-434.363682
0
LINE
5
753
100
AcDbEntity
8
1
100
AcDbLine
6
DOT2
62
6
10
2564.383936
20
-433.365108
11
2564.540924
21
-433.522095
0
LINE
5
754
100
AcDbEntity
8
1
100
AcDbLine
6
DOT2
62
6
10
2564.921505
20
-433.902677
11
2565.178068
21
-434.159239
0
LINE
5
755
100
AcDbEntity
8
1
100
AcDbLine
6
DOT2
62
6
10
2565.737529
20
-434.718700
11
2565.790596
21
-434.771768
0
LINE
5
756
100
AcDbEntity
8
1
100
AcDbLine
6
DOT2
62
6
10
2564.666779
20
-433.365108
11
2564.823766
21
-433.522095
0
LINE
5
757
100
AcDbEntity
8
1
100
AcDbLine
6
DOT2
62
6
10
2564.937638
20
-433.635967
11
2565.227497
21
-433.925826
0
LINE
5
758
100
AcDbEntity
8
1
100
AcDbLine
6
DOT2
62
6
10
2565.737529
20
-434.435858
11
2566.061472
21
-434.759801
0
LINE
5
759
100
AcDbEntity
8
1
100
AcDbLine
6
DOT2
62
6
10
2564.949621
20
-433.365108
11
2565.255848
21
-433.671335
0
LINE
5
75a
100
AcDbEntity
8
1
100
AcDbLine
6
DOT2
62
6
10
2565.737529
20
-434.153015
11
2566.061472
21
-434.476958
0
LINE
5
75b
100
AcDbEntity
8
1
100
AcDbLine
6
DOT2
62
6
10
2564.972525
20
-433.105168
11
2565.389452
21
-433.522095
0
LINE
5
75c
100
AcDbEntity
8
1
100
AcDbLine
6
DOT2
62
6
10
2565.737529
20
-433.870172
11
2566.061472
21
-434.194115
0
LINE
5
75d
100
AcDbEntity
8
1
100
AcDbLine
6
DOT2
62
6
10
2564.553445
20
-432.403246
11
2564.726630
21
-432.576431
0
LINE
5
75e
100
AcDbEntity
8
1
100
AcDbLine
6
DOT2
62
6
10
2564.972525
20
-432.822325
11
2565.276533
21
-433.126333
0
LINE
5
75f
100
AcDbEntity
8
1
100
AcDbLine
6
DOT2
62
6
10
2565.515307
20
-433.365108
11
2565.672295
21
-433.522095
0
LINE
5
760
100
AcDbEntity
8
1
100
AcDbLine
6
DOT2
62
6
10
2565.737529
20
-433.587329
11
2566.061472
21
-433.911272
0
LINE
5
761
100
AcDbEntity
8
1
100
AcDbLine
6
DOT2
62
6
10
2564.836288
20
-432.403246
11
2565.276533
21
-432.843491
0
LINE
5
762
100
AcDbEntity
8
1
100
AcDbLine
6
DOT2
62
6
10
2565.737529
20
-433.304487
11
2566.061472
21
-433.628430
0
LINE
5
763
100
AcDbEntity
8
1
100
AcDbLine
6
DOT2
62
6
10
2565.119130
20
-432.403246
11
2565.292315
21
-432.576431
0
LINE
5
764
100
AcDbEntity
8
1
100
AcDbLine
6
DOT2
62
6
10
2565.737529
20
-433.021644
11
2566.061472
21
-433.345587
0
LINE
5
765
100
AcDbEntity
8
1
100
AcDbLine
6
DOT2
62
6
10
2566.080992
20
-433.365108
11
2566.237980
21
-433.522095
0
LINE
5
766
100
AcDbEntity
8
1
100
AcDbLine
6
DOT2
62
6
10
2565.401973
20
-432.403246
11
2565.575158
21
-432.576431
0
LINE
5
767
100
AcDbEntity
8
1
100
AcDbLine
6
DOT2
62
6
10
2565.737529
20
-432.738801
11
2566.061472
21
-433.062744
0
LINE
5
768
100
AcDbEntity
8
1
100
AcDbLine
6
DOT2
62
6
10
2566.240271
20
-433.241544
11
2566.520823
21
-433.522095
0
LINE
5
769
100
AcDbEntity
8
1
100
AcDbLine
6
DOT2
62
6
10
2565.684816
20
-432.403246
11
2566.061472
21
-432.779902
0
LINE
5
76a
100
AcDbEntity
8
1
100
AcDbLine
6
DOT2
62
6
10
2565.967659
20
-432.403246
11
2566.140844
21
-432.576431
0
LINE
5
76b
100
AcDbEntity
8
1
100
AcDbLine
6
DOT2
62
6
10
2566.250337
20
-441.499068
11
2566.364947
21
-441.384457
0
LINE
5
76c
100
AcDbEntity
8
1
100
AcDbLine
6
DOT2
62
6
10
2566.740239
20
-445.251806
11
2566.936329
21
-445.055716
0
LINE
5
76d
100
AcDbEntity
8
1
100
AcDbLine
6
DOT2
62
6
10
2567.892885
20
-444.099161
11
2568.071608
21
-443.920437
0
LINE
5
76e
100
AcDbEntity
8
1
100
AcDbLine
6
DOT2
62
6
10
2566.615699
20
-445.093504
11
2566.936329
21
-444.772873
0
LINE
5
76f
100
AcDbEntity
8
1
100
AcDbLine
6
DOT2
62
6
10
2567.610042
20
-444.099161
11
2567.944817
21
-443.764386
0
LINE
5
770
100
AcDbEntity
8
1
100
AcDbLine
6
DOT2
62
6
10
2566.615699
20
-444.810661
11
2566.936329
21
-444.490031
0
LINE
5
771
100
AcDbEntity
8
1
100
AcDbLine
6
DOT2
62
6
10
2567.327199
20
-444.099161
11
2567.481426
21
-443.944933
0
LINE
5
772
100
AcDbEntity
8
1
100
AcDbLine
6
DOT2
62
6
10
2566.615699
20
-444.527818
11
2566.936329
21
-444.207188
0
LINE
5
773
100
AcDbEntity
8
1
100
AcDbLine
6
DOT2
62
6
10
2567.044356
20
-444.099161
11
2567.198584
21
-443.944933
0
LINE
5
774
100
AcDbEntity
8
1
100
AcDbLine
6
DOT2
62
6
10
2567.929134
20
-443.214383
11
2568.092201
21
-443.051316
0
LINE
5
775
100
AcDbEntity
8
1
100
AcDbLine
6
DOT2
62
6
10
2566.615699
20
-444.244976
11
2566.936329
21
-443.924345
0
LINE
5
776
100
AcDbEntity
8
1
100
AcDbLine
6
DOT2
62
6
10
2567.646291
20
-443.214383
11
2567.960756
21
-442.899919
0
LINE
5
777
100
AcDbEntity
8
1
100
AcDbLine
6
DOT2
62
6
10
2566.615699
20
-443.962133
11
2566.936329
21
-443.641502
0
LINE
5
778
100
AcDbEntity
8
1
100
AcDbLine
6
DOT2
62
6
10
2567.363448
20
-443.214383
11
2567.529851
21
-443.047980
0
LINE
5
779
100
AcDbEntity
8
1
100
AcDbLine
6
DOT2
62
6
10
2566.615699
20
-443.679290
11
2566.936329
21
-443.358660
0
LINE
5
77a
100
AcDbEntity
8
1
100
AcDbLine
6
DOT2
62
6
10
2567.080606
20
-443.214383
11
2567.247009
21
-443.047980
0
LINE
5
77b
100
AcDbEntity
8
1
100
AcDbLine
6
DOT2
62
6
10
2568.022204
20
-442.272785
11
2568.200777
21
-442.094212
0
LINE
5
77c
100
AcDbEntity
8
1
100
AcDbLine
6
DOT2
62
6
10
2566.615699
20
-443.396447
11
2566.964166
21
-443.047980
0
LINE
5
77d
100
AcDbEntity
8
1
100
AcDbLine
6
DOT2
62
6
10
2567.739361
20
-442.272785
11
2568.068597
21
-441.943550
0
LINE
5
77e
100
AcDbEntity
8
1
100
AcDbLine
6
DOT2
62
6
10
2566.615699
20
-443.113605
11
2566.936329
21
-442.792974
0
LINE
5
77f
100
AcDbEntity
8
1
100
AcDbLine
6
DOT2
62
6
10
2567.456518
20
-442.272785
11
2567.590452
21
-442.138851
0
LINE
5
780
100
AcDbEntity
8
1
100
AcDbLine
6
DOT2
62
6
10
2566.615699
20
-442.830762
11
2566.936329
21
-442.510132
0
LINE
5
781
100
AcDbEntity
8
1
100
AcDbLine
6
DOT2
62
6
10
2567.173675
20
-442.272785
11
2567.307610
21
-442.138851
0
LINE
5
782
100
AcDbEntity
8
1
100
AcDbLine
6
DOT2
62
6
10
2566.615699
20
-442.547919
11
2567.024767
21
-442.138851
0
LINE
5
783
100
AcDbEntity
8
1
100
AcDbLine
6
DOT2
62
6
10
2565.521075
20
-443.359701
11
2566.106094
21
-442.774681
0
LINE
5
784
100
AcDbEntity
8
1
100
AcDbLine
6
DOT2
62
6
10
2566.607990
20
-442.272785
11
2566.741924
21
-442.138851
0
LINE
5
785
100
AcDbEntity
8
1
100
AcDbLine
6
DOT2
62
6
10
2565.853347
20
-442.744586
11
2566.459081
21
-442.138851
0
LINE
5
786
100
AcDbEntity
8
1
100
AcDbLine
6
DOT2
62
6
10
2566.044053
20
-442.271036
11
2566.482676
21
-441.832414
0
LINE
5
787
100
AcDbEntity
8
1
100
AcDbLine
6
DOT2
62
6
10
2566.168082
20
-441.864165
11
2566.569171
21
-441.463077
0
LINE
5
788
100
AcDbEntity
8
1
100
AcDbLine
6
DOT2
62
6
10
2566.653982
20
-445.251806
11
2566.615699
21
-445.213523
0
LINE
5
789
100
AcDbEntity
8
1
100
AcDbLine
6
DOT2
62
6
10
2568.200445
20
-442.272785
11
2567.886810
21
-441.959150
0
LINE
5
78a
100
AcDbEntity
8
1
100
AcDbLine
6
DOT2
62
6
10
2567.917602
20
-442.272785
11
2567.764594
21
-442.119777
0
LINE
5
78b
100
AcDbEntity
8
1
100
AcDbLine
6
DOT2
62
6
10
2567.634759
20
-442.272785
11
2567.500825
21
-442.138851
0
LINE
5
78c
100
AcDbEntity
8
1
100
AcDbLine
6
DOT2
62
6
10
2567.351917
20
-442.272785
11
2567.217983
21
-442.138851
0
LINE
5
78d
100
AcDbEntity
8
1
100
AcDbLine
6
DOT2
62
6
10
2566.673115
20
-441.593983
11
2566.523498
21
-441.444366
0
LINE
5
78e
100
AcDbEntity
8
1
100
AcDbLine
6
DOT2
62
6
10
2568.010672
20
-443.214383
11
2567.727060
21
-442.930771
0
LINE
5
78f
100
AcDbEntity
8
1
100
AcDbLine
6
DOT2
62
6
10
2567.069074
20
-442.272785
11
2566.935140
21
-442.138851
0
LINE
5
790
100
AcDbEntity
8
1
100
AcDbLine
6
DOT2
62
6
10
2566.509320
20
-441.713031
11
2566.257375
21
-441.461087
0
LINE
5
791
100
AcDbEntity
8
1
100
AcDbLine
6
DOT2
62
6
10
2567.727829
20
-443.214383
11
2567.561426
21
-443.047980
0
LINE
5
792
100
AcDbEntity
8
1
100
AcDbLine
6
DOT2
62
6
10
2566.936329
20
-442.422883
11
2566.652297
21
-442.138851
0
LINE
5
793
100
AcDbEntity
8
1
100
AcDbLine
6
DOT2
62
6
10
2566.454605
20
-441.941159
11
2566.209315
21
-441.695869
0
LINE
5
794
100
AcDbEntity
8
1
100
AcDbLine
6
DOT2
62
6
10
2567.444987
20
-443.214383
11
2567.278583
21
-443.047980
0
LINE
5
795
100
AcDbEntity
8
1
100
AcDbLine
6
DOT2
62
6
10
2566.936329
20
-442.705726
11
2566.615699
21
-442.385096
0
LINE
5
796
100
AcDbEntity
8
1
100
AcDbLine
6
DOT2
62
6
10
2566.503389
20
-442.272785
11
2566.152583
21
-441.921980
0
LINE
5
797
100
AcDbEntity
8
1
100
AcDbLine
6
DOT2
62
6
10
2568.046921
20
-444.099161
11
2567.760992
21
-443.813231
0
LINE
5
798
100
AcDbEntity
8
1
100
AcDbLine
6
DOT2
62
6
10
2567.162144
20
-443.214383
11
2566.995741
21
-443.047980
0
LINE
5
799
100
AcDbEntity
8
1
100
AcDbLine
6
DOT2
62
6
10
2566.936329
20
-442.988569
11
2566.615699
21
-442.667938
0
LINE
5
79a
100
AcDbEntity
8
1
100
AcDbLine
6
DOT2
62
6
10
2566.309867
20
-442.362106
11
2566.087830
21
-442.140069
0
LINE
5
79b
100
AcDbEntity
8
1
100
AcDbLine
6
DOT2
62
6
10
2567.764078
20
-444.099161
11
2567.609851
21
-443.944933
0
LINE
5
79c
100
AcDbEntity
8
1
100
AcDbLine
6
DOT2
62
6
10
2566.936329
20
-443.271411
11
2566.615699
21
-442.950781
0
LINE
5
79d
100
AcDbEntity
8
1
100
AcDbLine
6
DOT2
62
6
10
2566.221899
20
-442.556981
11
2566.015590
21
-442.350673
0
LINE
5
79e
100
AcDbEntity
8
1
100
AcDbLine
6
DOT2
62
6
10
2567.481236
20
-444.099161
11
2567.327008
21
-443.944933
0
LINE
5
79f
100
AcDbEntity
8
1
100
AcDbLine
6
DOT2
62
6
10
2566.936329
20
-443.554254
11
2566.615699
21
-443.233624
0
LINE
5
7a0
100
AcDbEntity
8
1
100
AcDbLine
6
DOT2
62
6
10
2566.124496
20
-442.742421
11
2565.936306
21
-442.554231
0
LINE
5
7a1
100
AcDbEntity
8
1
100
AcDbLine
6
DOT2
62
6
10
2567.198393
20
-444.099161
11
2567.044166
21
-443.944933
0
LINE
5
7a2
100
AcDbEntity
8
1
100
AcDbLine
6
DOT2
62
6
10
2566.936329
20
-443.837097
11
2566.615699
21
-443.516466
0
LINE
5
7a3
100
AcDbEntity
8
1
100
AcDbLine
6
DOT2
62
6
10
2566.018166
20
-442.918934
11
2565.850346
21
-442.751113
0
LINE
5
7a4
100
AcDbEntity
8
1
100
AcDbLine
6
DOT2
62
6
10
2566.936329
20
-444.119939
11
2566.615699
21
-443.799309
0
LINE
5
7a5
100
AcDbEntity
8
1
100
AcDbLine
6
DOT2
62
6
10
2565.903289
20
-443.086899
11
2565.758015
21
-442.941626
0
LINE
5
7a6
100
AcDbEntity
8
1
100
AcDbLine
6
DOT2
62
6
10
2566.936329
20
-444.402782
11
2566.615699
21
-444.082152
0
LINE
5
7a7
100
AcDbEntity
8
1
100
AcDbLine
6
DOT2
62
6
10
2565.780136
20
-443.246589
11
2565.659571
21
-443.126024
0
LINE
5
7a8
100
AcDbEntity
8
1
100
AcDbLine
6
DOT2
62
6
10
2566.936329
20
-444.685625
11
2566.615699
21
-444.364995
0
LINE
5
7a9
100
AcDbEntity
8
1
100
AcDbLine
6
DOT2
62
6
10
2565.648889
20
-443.398185
11
2565.555227
21
-443.304522
0
LINE
5
7aa
100
AcDbEntity
8
1
100
AcDbLine
6
DOT2
62
6
10
2566.936329
20
-444.968468
11
2566.615699
21
-444.647837
0
LINE
5
7ab
100
AcDbEntity
8
1
100
AcDbLine
6
DOT2
62
6
10
2566.936329
20
-445.251310
11
2566.615699
21
-444.930680
0
LINE
5
7ac
100
AcDbEntity
8
1
100
AcDbLine
6
DOT2
62
6
10
2570.138620
20
-431.200196
11
2570.187907
21
-431.249482
0
LINE
5
7ad
100
AcDbEntity
8
1
100
AcDbLine
6
DOT2
62
6
10
2569.887907
20
-438.869078
11
2570.187907
21
-439.169078
0
LINE
5
7ae
100
AcDbEntity
8
1
100
AcDbLine
6
DOT2
62
6
10
2562.587907
20
-431.286236
11
2562.887907
21
-431.586236
0
LINE
5
7af
100
AcDbEntity
8
1
100
AcDbLine
6
DOT2
62
6
10
2569.887907
20
-438.586236
11
2570.187907
21
-438.886236
0
LINE
5
7b0
100
AcDbEntity
8
1
100
AcDbLine
6
DOT2
62
6
10
2562.784710
20
-431.200196
11
2563.084710
21
-431.500196
0
LINE
5
7b1
100
AcDbEntity
8
1
100
AcDbLine
6
DOT2
62
6
10
2569.887907
20
-438.303393
11
2570.187907
21
-438.603393
0
LINE
5
7b2
100
AcDbEntity
8
1
100
AcDbLine
6
DOT2
62
6
10
2563.067552
20
-431.200196
11
2563.367552
21
-431.500196
0
LINE
5
7b3
100
AcDbEntity
8
1
100
AcDbLine
6
DOT2
62
6
10
2569.887907
20
-438.020550
11
2570.187907
21
-438.320550
0
LINE
5
7b4
100
AcDbEntity
8
1
100
AcDbLine
6
DOT2
62
6
10
2563.350395
20
-431.200196
11
2563.650395
21
-431.500196
0
LINE
5
7b5
100
AcDbEntity
8
1
100
AcDbLine
6
DOT2
62
6
10
2569.887907
20
-437.737707
11
2570.187907
21
-438.037707
0
LINE
5
7b6
100
AcDbEntity
8
1
100
AcDbLine
6
DOT2
62
6
10
2563.633238
20
-431.200196
11
2563.933238
21
-431.500196
0
LINE
5
7b7
100
AcDbEntity
8
1
100
AcDbLine
6
DOT2
62
6
10
2569.887907
20
-437.454865
11
2570.187907
21
-437.754865
0
LINE
5
7b8
100
AcDbEntity
8
1
100
AcDbLine
6
DOT2
62
6
10
2563.916080
20
-431.200196
11
2564.216080
21
-431.500196
0
LINE
5
7b9
100
AcDbEntity
8
1
100
AcDbLine
6
DOT2
62
6
10
2569.887907
20
-437.172022
11
2570.187907
21
-437.472022
0
LINE
5
7ba
100
AcDbEntity
8
1
100
AcDbLine
6
DOT2
62
6
10
2564.198923
20
-431.200196
11
2564.498923
21
-431.500196
0
LINE
5
7bb
100
AcDbEntity
8
1
100
AcDbLine
6
DOT2
62
6
10
2569.887907
20
-436.889179
11
2570.187907
21
-437.189179
0
LINE
5
7bc
100
AcDbEntity
8
1
100
AcDbLine
6
DOT2
62
6
10
2564.481766
20
-431.200196
11
2564.781766
21
-431.500196
0
LINE
5
7bd
100
AcDbEntity
8
1
100
AcDbLine
6
DOT2
62
6
10
2569.887907
20
-436.606337
11
2570.187907
21
-436.906337
0
LINE
5
7be
100
AcDbEntity
8
1
100
AcDbLine
6
DOT2
62
6
10
2564.764609
20
-431.200196
11
2565.064609
21
-431.500196
0
LINE
5
7bf
100
AcDbEntity
8
1
100
AcDbLine
6
DOT2
62
6
10
2569.887907
20
-436.323494
11
2570.187907
21
-436.623494
0
LINE
5
7c0
100
AcDbEntity
8
1
100
AcDbLine
6
DOT2
62
6
10
2565.047451
20
-431.200196
11
2565.347451
21
-431.500196
0
LINE
5
7c1
100
AcDbEntity
8
1
100
AcDbLine
6
DOT2
62
6
10
2569.887907
20
-436.040651
11
2570.187907
21
-436.340651
0
LINE
5
7c2
100
AcDbEntity
8
1
100
AcDbLine
6
DOT2
62
6
10
2565.330294
20
-431.200196
11
2565.630294
21
-431.500196
0
LINE
5
7c3
100
AcDbEntity
8
1
100
AcDbLine
6
DOT2
62
6
10
2569.887907
20
-435.757808
11
2570.187907
21
-436.057808
0
LINE
5
7c4
100
AcDbEntity
8
1
100
AcDbLine
6
DOT2
62
6
10
2565.613137
20
-431.200196
11
2565.913137
21
-431.500196
0
LINE
5
7c5
100
AcDbEntity
8
1
100
AcDbLine
6
DOT2
62
6
10
2569.887907
20
-435.474966
11
2570.187907
21
-435.774966
0
LINE
5
7c6
100
AcDbEntity
8
1
100
AcDbLine
6
DOT2
62
6
10
2565.895979
20
-431.200196
11
2566.195979
21
-431.500196
0
LINE
5
7c7
100
AcDbEntity
8
1
100
AcDbLine
6
DOT2
62
6
10
2569.887907
20
-435.192123
11
2570.187907
21
-435.492123
0
LINE
5
7c8
100
AcDbEntity
8
1
100
AcDbLine
6
DOT2
62
6
10
2566.178822
20
-431.200196
11
2566.478822
21
-431.500196
0
LINE
5
7c9
100
AcDbEntity
8
1
100
AcDbLine
6
DOT2
62
6
10
2569.887907
20
-434.909280
11
2570.187907
21
-435.209280
0
LINE
5
7ca
100
AcDbEntity
8
1
100
AcDbLine
6
DOT2
62
6
10
2566.461665
20
-431.200196
11
2566.761665
21
-431.500196
0
LINE
5
7cb
100
AcDbEntity
8
1
100
AcDbLine
6
DOT2
62
6
10
2569.887907
20
-434.626438
11
2570.187907
21
-434.926438
0
LINE
5
7cc
100
AcDbEntity
8
1
100
AcDbLine
6
DOT2
62
6
10
2566.744508
20
-431.200196
11
2567.044508
21
-431.500196
0
LINE
5
7cd
100
AcDbEntity
8
1
100
AcDbLine
6
DOT2
62
6
10
2569.887907
20
-434.343595
11
2570.187907
21
-434.643595
0
LINE
5
7ce
100
AcDbEntity
8
1
100
AcDbLine
6
DOT2
62
6
10
2567.027350
20
-431.200196
11
2567.327350
21
-431.500196
0
LINE
5
7cf
100
AcDbEntity
8
1
100
AcDbLine
6
DOT2
62
6
10
2569.887907
20
-434.060752
11
2570.187907
21
-434.360752
0
LINE
5
7d0
100
AcDbEntity
8
1
100
AcDbLine
6
DOT2
62
6
10
2567.310193
20
-431.200196
11
2567.610193
21
-431.500196
0
LINE
5
7d1
100
AcDbEntity
8
1
100
AcDbLine
6
DOT2
62
6
10
2569.887907
20
-433.777909
11
2570.187907
21
-434.077909
0
LINE
5
7d2
100
AcDbEntity
8
1
100
AcDbLine
6
DOT2
62
6
10
2567.593036
20
-431.200196
11
2567.893036
21
-431.500196
0
LINE
5
7d3
100
AcDbEntity
8
1
100
AcDbLine
6
DOT2
62
6
10
2569.887907
20
-433.495067
11
2570.187907
21
-433.795067
0
LINE
5
7d4
100
AcDbEntity
8
1
100
AcDbLine
6
DOT2
62
6
10
2567.875878
20
-431.200196
11
2568.175878
21
-431.500196
0
LINE
5
7d5
100
AcDbEntity
8
1
100
AcDbLine
6
DOT2
62
6
10
2569.887907
20
-433.212224
11
2570.187907
21
-433.512224
0
LINE
5
7d6
100
AcDbEntity
8
1
100
AcDbLine
6
DOT2
62
6
10
2568.158721
20
-431.200196
11
2568.458721
21
-431.500196
0
LINE
5
7d7
100
AcDbEntity
8
1
100
AcDbLine
6
DOT2
62
6
10
2569.887907
20
-432.929381
11
2570.187907
21
-433.229381
0
LINE
5
7d8
100
AcDbEntity
8
1
100
AcDbLine
6
DOT2
62
6
10
2568.441564
20
-431.200196
11
2568.741564
21
-431.500196
0
LINE
5
7d9
100
AcDbEntity
8
1
100
AcDbLine
6
DOT2
62
6
10
2569.887907
20
-432.646539
11
2570.187907
21
-432.946539
0
LINE
5
7da
100
AcDbEntity
8
1
100
AcDbLine
6
DOT2
62
6
10
2568.724407
20
-431.200196
11
2569.024407
21
-431.500196
0
LINE
5
7db
100
AcDbEntity
8
1
100
AcDbLine
6
DOT2
62
6
10
2569.887907
20
-432.363696
11
2570.187907
21
-432.663696
0
LINE
5
7dc
100
AcDbEntity
8
1
100
AcDbLine
6
DOT2
62
6
10
2569.007249
20
-431.200196
11
2569.307249
21
-431.500196
0
LINE
5
7dd
100
AcDbEntity
8
1
100
AcDbLine
6
DOT2
62
6
10
2569.887907
20
-432.080853
11
2570.187907
21
-432.380853
0
LINE
5
7de
100
AcDbEntity
8
1
100
AcDbLine
6
DOT2
62
6
10
2569.290092
20
-431.200196
11
2569.590092
21
-431.500196
0
LINE
5
7df
100
AcDbEntity
8
1
100
AcDbLine
6
DOT2
62
6
10
2569.887907
20
-431.798010
11
2570.187907
21
-432.098010
0
LINE
5
7e0
100
AcDbEntity
8
1
100
AcDbLine
6
DOT2
62
6
10
2569.572935
20
-431.200196
11
2569.872935
21
-431.500196
0
LINE
5
7e1
100
AcDbEntity
8
1
100
AcDbLine
6
DOT2
62
6
10
2569.887907
20
-431.515168
11
2570.187907
21
-431.815168
0
LINE
5
7e2
100
AcDbEntity
8
1
100
AcDbLine
6
DOT2
62
6
10
2569.855777
20
-431.200196
11
2570.187907
21
-431.532325
0
LINE
5
7e3
100
AcDbEntity
8
1
100
AcDbLine
6
DOT2
62
6
10
2562.587907
20
-431.569078
11
2562.887907
21
-431.869078
0
LINE
5
7e4
100
AcDbEntity
8
1
100
AcDbLine
6
DOT2
62
6
10
2562.587907
20
-445.994057
11
2562.794046
21
-446.200196
0
LINE
5
7e5
100
AcDbEntity
8
1
100
AcDbLine
6
DOT2
62
6
10
2562.587907
20
-445.711214
11
2563.076889
21
-446.200196
0
LINE
5
7e6
100
AcDbEntity
8
1
100
AcDbLine
6
DOT2
62
6
10
2562.587907
20
-445.428371
11
2562.887907
21
-445.728371
0
LINE
5
7e7
100
AcDbEntity
8
1
100
AcDbLine
6
DOT2
62
6
10
2563.059731
20
-445.900196
11
2563.359731
21
-446.200196
0
LINE
5
7e8
100
AcDbEntity
8
1
100
AcDbLine
6
DOT2
62
6
10
2562.587907
20
-445.145528
11
2562.887907
21
-445.445528
0
LINE
5
7e9
100
AcDbEntity
8
1
100
AcDbLine
6
DOT2
62
6
10
2563.342574
20
-445.900196
11
2563.642574
21
-446.200196
0
LINE
5
7ea
100
AcDbEntity
8
1
100
AcDbLine
6
DOT2
62
6
10
2562.587907
20
-444.862686
11
2562.887907
21
-445.162686
0
LINE
5
7eb
100
AcDbEntity
8
1
100
AcDbLine
6
DOT2
62
6
10
2563.625417
20
-445.900196
11
2563.925417
21
-446.200196
0
LINE
5
7ec
100
AcDbEntity
8
1
100
AcDbLine
6
DOT2
62
6
10
2562.587907
20
-444.579843
11
2562.887907
21
-444.879843
0
LINE
5
7ed
100
AcDbEntity
8
1
100
AcDbLine
6
DOT2
62
6
10
2563.908259
20
-445.900196
11
2564.208259
21
-446.200196
0
LINE
5
7ee
100
AcDbEntity
8
1
100
AcDbLine
6
DOT2
62
6
10
2562.587907
20
-444.297000
11
2562.887907
21
-444.597000
0
LINE
5
7ef
100
AcDbEntity
8
1
100
AcDbLine
6
DOT2
62
6
10
2564.191102
20
-445.900196
11
2564.491102
21
-446.200196
0
LINE
5
7f0
100
AcDbEntity
8
1
100
AcDbLine
6
DOT2
62
6
10
2562.587907
20
-444.014158
11
2562.887907
21
-444.314158
0
LINE
5
7f1
100
AcDbEntity
8
1
100
AcDbLine
6
DOT2
62
6
10
2564.473945
20
-445.900196
11
2564.773945
21
-446.200196
0
LINE
5
7f2
100
AcDbEntity
8
1
100
AcDbLine
6
DOT2
62
6
10
2562.587907
20
-443.731315
11
2562.887907
21
-444.031315
0
LINE
5
7f3
100
AcDbEntity
8
1
100
AcDbLine
6
DOT2
62
6
10
2564.756788
20
-445.900196
11
2565.056788
21
-446.200196
0
LINE
5
7f4
100
AcDbEntity
8
1
100
AcDbLine
6
DOT2
62
6
10
2562.587907
20
-443.448472
11
2562.887907
21
-443.748472
0
LINE
5
7f5
100
AcDbEntity
8
1
100
AcDbLine
6
DOT2
62
6
10
2565.039630
20
-445.900196
11
2565.339630
21
-446.200196
0
LINE
5
7f6
100
AcDbEntity
8
1
100
AcDbLine
6
DOT2
62
6
10
2562.587907
20
-443.165629
11
2562.887907
21
-443.465629
0
LINE
5
7f7
100
AcDbEntity
8
1
100
AcDbLine
6
DOT2
62
6
10
2565.322473
20
-445.900196
11
2565.622473
21
-446.200196
0
LINE
5
7f8
100
AcDbEntity
8
1
100
AcDbLine
6
DOT2
62
6
10
2562.587907
20
-442.882787
11
2562.887907
21
-443.182787
0
LINE
5
7f9
100
AcDbEntity
8
1
100
AcDbLine
6
DOT2
62
6
10
2565.605316
20
-445.900196
11
2565.905316
21
-446.200196
0
LINE
5
7fa
100
AcDbEntity
8
1
100
AcDbLine
6
DOT2
62
6
10
2562.587907
20
-442.599944
11
2562.887907
21
-442.899944
0
LINE
5
7fb
100
AcDbEntity
8
1
100
AcDbLine
6
DOT2
62
6
10
2565.888158
20
-445.900196
11
2566.188158
21
-446.200196
0
LINE
5
7fc
100
AcDbEntity
8
1
100
AcDbLine
6
DOT2
62
6
10
2562.587907
20
-442.317101
11
2562.887907
21
-442.617101
0
LINE
5
7fd
100
AcDbEntity
8
1
100
AcDbLine
6
DOT2
62
6
10
2566.171001
20
-445.900196
11
2566.471001
21
-446.200196
0
LINE
5
7fe
100
AcDbEntity
8
1
100
AcDbLine
6
DOT2
62
6
10
2562.587907
20
-442.034259
11
2562.887907
21
-442.334259
0
LINE
5
7ff
100
AcDbEntity
8
1
100
AcDbLine
6
DOT2
62
6
10
2566.453844
20
-445.900196
11
2566.753844
21
-446.200196
0
LINE
5
800
100
AcDbEntity
8
1
100
AcDbLine
6
DOT2
62
6
10
2562.587907
20
-441.751416
11
2562.887907
21
-442.051416
0
LINE
5
801
100
AcDbEntity
8
1
100
AcDbLine
6
DOT2
62
6
10
2566.736687
20
-445.900196
11
2567.036687
21
-446.200196
0
LINE
5
802
100
AcDbEntity
8
1
100
AcDbLine
6
DOT2
62
6
10
2562.587907
20
-441.468573
11
2562.887907
21
-441.768573
0
LINE
5
803
100
AcDbEntity
8
1
100
AcDbLine
6
DOT2
62
6
10
2567.019529
20
-445.900196
11
2567.319529
21
-446.200196
0
LINE
5
804
100
AcDbEntity
8
1
100
AcDbLine
6
DOT2
62
6
10
2562.587907
20
-441.185731
11
2562.887907
21
-441.485731
0
LINE
5
805
100
AcDbEntity
8
1
100
AcDbLine
6
DOT2
62
6
10
2567.302372
20
-445.900196
11
2567.602372
21
-446.200196
0
LINE
5
806
100
AcDbEntity
8
1
100
AcDbLine
6
DOT2
62
6
10
2562.587907
20
-440.902888
11
2562.887907
21
-441.202888
0
LINE
5
807
100
AcDbEntity
8
1
100
AcDbLine
6
DOT2
62
6
10
2567.585215
20
-445.900196
11
2567.885215
21
-446.200196
0
LINE
5
808
100
AcDbEntity
8
1
100
AcDbLine
6
DOT2
62
6
10
2562.587907
20
-440.620045
11
2562.887907
21
-440.920045
0
LINE
5
809
100
AcDbEntity
8
1
100
AcDbLine
6
DOT2
62
6
10
2567.868057
20
-445.900196
11
2568.168057
21
-446.200196
0
LINE
5
80a
100
AcDbEntity
8
1
100
AcDbLine
6
DOT2
62
6
10
2562.587907
20
-440.337202
11
2562.887907
21
-440.637202
0
LINE
5
80b
100
AcDbEntity
8
1
100
AcDbLine
6
DOT2
62
6
10
2568.150900
20
-445.900196
11
2568.450900
21
-446.200196
0
LINE
5
80c
100
AcDbEntity
8
1
100
AcDbLine
6
DOT2
62
6
10
2562.587907
20
-440.054360
11
2562.887907
21
-440.354360
0
LINE
5
80d
100
AcDbEntity
8
1
100
AcDbLine
6
DOT2
62
6
10
2568.433743
20
-445.900196
11
2568.733743
21
-446.200196
0
LINE
5
80e
100
AcDbEntity
8
1
100
AcDbLine
6
DOT2
62
6
10
2562.587907
20
-439.771517
11
2562.887907
21
-440.071517
0
LINE
5
80f
100
AcDbEntity
8
1
100
AcDbLine
6
DOT2
62
6
10
2568.716585
20
-445.900196
11
2569.016585
21
-446.200196
0
LINE
5
810
100
AcDbEntity
8
1
100
AcDbLine
6
DOT2
62
6
10
2562.587907
20
-439.488674
11
2562.887907
21
-439.788674
0
LINE
5
811
100
AcDbEntity
8
1
100
AcDbLine
6
DOT2
62
6
10
2568.999428
20
-445.900196
11
2569.299428
21
-446.200196
0
LINE
5
812
100
AcDbEntity
8
1
100
AcDbLine
6
DOT2
62
6
10
2562.587907
20
-439.205832
11
2562.887907
21
-439.505832
0
LINE
5
813
100
AcDbEntity
8
1
100
AcDbLine
6
DOT2
62
6
10
2569.282271
20
-445.900196
11
2569.582271
21
-446.200196
0
LINE
5
814
100
AcDbEntity
8
1
100
AcDbLine
6
DOT2
62
6
10
2562.587907
20
-438.922989
11
2562.887907
21
-439.222989
0
LINE
5
815
100
AcDbEntity
8
1
100
AcDbLine
6
DOT2
62
6
10
2569.565114
20
-445.900196
11
2569.865114
21
-446.200196
0
LINE
5
816
100
AcDbEntity
8
1
100
AcDbLine
6
DOT2
62
6
10
2562.587907
20
-438.640146
11
2562.887907
21
-438.940146
0
LINE
5
817
100
AcDbEntity
8
1
100
AcDbLine
6
DOT2
62
6
10
2569.847956
20
-445.900196
11
2570.147956
21
-446.200196
0
LINE
5
818
100
AcDbEntity
8
1
100
AcDbLine
6
DOT2
62
6
10
2562.587907
20
-438.357303
11
2562.887907
21
-438.657303
0
LINE
5
819
100
AcDbEntity
8
1
100
AcDbLine
6
DOT2
62
6
10
2569.887907
20
-445.657303
11
2570.187907
21
-445.957303
0
LINE
5
81a
100
AcDbEntity
8
1
100
AcDbLine
6
DOT2
62
6
10
2562.587907
20
-438.074461
11
2562.887907
21
-438.374461
0
LINE
5
81b
100
AcDbEntity
8
1
100
AcDbLine
6
DOT2
62
6
10
2569.887907
20
-445.374461
11
2570.187907
21
-445.674461
0
LINE
5
81c
100
AcDbEntity
8
1
100
AcDbLine
6
DOT2
62
6
10
2562.587907
20
-437.791618
11
2562.887907
21
-438.091618
0
LINE
5
81d
100
AcDbEntity
8
1
100
AcDbLine
6
DOT2
62
6
10
2569.887907
20
-445.091618
11
2570.187907
21
-445.391618
0
LINE
5
81e
100
AcDbEntity
8
1
100
AcDbLine
6
DOT2
62
6
10
2562.587907
20
-437.508775
11
2562.887907
21
-437.808775
0
LINE
5
81f
100
AcDbEntity
8
1
100
AcDbLine
6
DOT2
62
6
10
2569.887907
20
-444.808775
11
2570.187907
21
-445.108775
0
LINE
5
820
100
AcDbEntity
8
1
100
AcDbLine
6
DOT2
62
6
10
2562.587907
20
-437.225933
11
2562.887907
21
-437.525933
0
LINE
5
821
100
AcDbEntity
8
1
100
AcDbLine
6
DOT2
62
6
10
2569.887907
20
-444.525933
11
2570.187907
21
-444.825933
0
LINE
5
822
100
AcDbEntity
8
1
100
AcDbLine
6
DOT2
62
6
10
2562.587907
20
-436.943090
11
2562.887907
21
-437.243090
0
LINE
5
823
100
AcDbEntity
8
1
100
AcDbLine
6
DOT2
62
6
10
2569.887907
20
-444.243090
11
2570.187907
21
-444.543090
0
LINE
5
824
100
AcDbEntity
8
1
100
AcDbLine
6
DOT2
62
6
10
2562.587907
20
-436.660247
11
2562.887907
21
-436.960247
0
LINE
5
825
100
AcDbEntity
8
1
100
AcDbLine
6
DOT2
62
6
10
2569.887907
20
-443.960247
11
2570.187907
21
-444.260247
0
LINE
5
826
100
AcDbEntity
8
1
100
AcDbLine
6
DOT2
62
6
10
2562.587907
20
-436.377404
11
2562.887907
21
-436.677404
0
LINE
5
827
100
AcDbEntity
8
1
100
AcDbLine
6
DOT2
62
6
10
2569.887907
20
-443.677404
11
2570.187907
21
-443.977404
0
LINE
5
828
100
AcDbEntity
8
1
100
AcDbLine
6
DOT2
62
6
10
2562.587907
20
-436.094562
11
2562.887907
21
-436.394562
0
LINE
5
829
100
AcDbEntity
8
1
100
AcDbLine
6
DOT2
62
6
10
2569.887907
20
-443.394562
11
2570.187907
21
-443.694562
0
LINE
5
82a
100
AcDbEntity
8
1
100
AcDbLine
6
DOT2
62
6
10
2562.587907
20
-435.811719
11
2562.887907
21
-436.111719
0
LINE
5
82b
100
AcDbEntity
8
1
100
AcDbLine
6
DOT2
62
6
10
2569.887907
20
-443.111719
11
2570.187907
21
-443.411719
0
LINE
5
82c
100
AcDbEntity
8
1
100
AcDbLine
6
DOT2
62
6
10
2562.587907
20
-435.528876
11
2562.887907
21
-435.828876
0
LINE
5
82d
100
AcDbEntity
8
1
100
AcDbLine
6
DOT2
62
6
10
2569.887907
20
-442.828876
11
2570.187907
21
-443.128876
0
LINE
5
82e
100
AcDbEntity
8
1
100
AcDbLine
6
DOT2
62
6
10
2562.587907
20
-435.246034
11
2562.887907
21
-435.546034
0
LINE
5
82f
100
AcDbEntity
8
1
100
AcDbLine
6
DOT2
62
6
10
2569.887907
20
-442.546034
11
2570.187907
21
-442.846034
0
LINE
5
830
100
AcDbEntity
8
1
100
AcDbLine
6
DOT2
62
6
10
2562.587907
20
-434.963191
11
2562.887907
21
-435.263191
0
LINE
5
831
100
AcDbEntity
8
1
100
AcDbLine
6
DOT2
62
6
10
2569.887907
20
-442.263191
11
2570.187907
21
-442.563191
0
LINE
5
832
100
AcDbEntity
8
1
100
AcDbLine
6
DOT2
62
6
10
2562.587907
20
-434.680348
11
2562.887907
21
-434.980348
0
LINE
5
833
100
AcDbEntity
8
1
100
AcDbLine
6
DOT2
62
6
10
2569.887907
20
-441.980348
11
2570.187907
21
-442.280348
0
LINE
5
834
100
AcDbEntity
8
1
100
AcDbLine
6
DOT2
62
6
10
2562.587907
20
-434.397505
11
2562.887907
21
-434.697505
0
LINE
5
835
100
AcDbEntity
8
1
100
AcDbLine
6
DOT2
62
6
10
2569.887907
20
-441.697505
11
2570.187907
21
-441.997505
0
LINE
5
836
100
AcDbEntity
8
1
100
AcDbLine
6
DOT2
62
6
10
2562.587907
20
-434.114663
11
2562.887907
21
-434.414663
0
LINE
5
837
100
AcDbEntity
8
1
100
AcDbLine
6
DOT2
62
6
10
2569.887907
20
-441.414663
11
2570.187907
21
-441.714663
0
LINE
5
838
100
AcDbEntity
8
1
100
AcDbLine
6
DOT2
62
6
10
2562.587907
20
-433.831820
11
2562.887907
21
-434.131820
0
LINE
5
839
100
AcDbEntity
8
1
100
AcDbLine
6
DOT2
62
6
10
2569.887907
20
-441.131820
11
2570.187907
21
-441.431820
0
LINE
5
83a
100
AcDbEntity
8
1
100
AcDbLine
6
DOT2
62
6
10
2562.587907
20
-433.548977
11
2562.887907
21
-433.848977
0
LINE
5
83b
100
AcDbEntity
8
1
100
AcDbLine
6
DOT2
62
6
10
2569.887907
20
-440.848977
11
2570.187907
21
-441.148977
0
LINE
5
83c
100
AcDbEntity
8
1
100
AcDbLine
6
DOT2
62
6
10
2562.587907
20
-433.266135
11
2562.887907
21
-433.566135
0
LINE
5
83d
100
AcDbEntity
8
1
100
AcDbLine
6
DOT2
62
6
10
2569.887907
20
-440.566135
11
2570.187907
21
-440.866135
0
LINE
5
83e
100
AcDbEntity
8
1
100
AcDbLine
6
DOT2
62
6
10
2562.587907
20
-432.983292
11
2562.887907
21
-433.283292
0
LINE
5
83f
100
AcDbEntity
8
1
100
AcDbLine
6
DOT2
62
6
10
2569.887907
20
-440.283292
11
2570.187907
21
-440.583292
0
LINE
5
840
100
AcDbEntity
8
1
100
AcDbLine
6
DOT2
62
6
10
2562.587907
20
-432.700449
11
2562.887907
21
-433.000449
0
LINE
5
841
100
AcDbEntity
8
1
100
AcDbLine
6
DOT2
62
6
10
2569.887907
20
-440.000449
11
2570.187907
21
-440.300449
0
LINE
5
842
100
AcDbEntity
8
1
100
AcDbLine
6
DOT2
62
6
10
2562.587907
20
-432.417606
11
2562.887907
21
-432.717606
0
LINE
5
843
100
AcDbEntity
8
1
100
AcDbLine
6
DOT2
62
6
10
2569.887907
20
-439.717606
11
2570.187907
21
-440.017606
0
LINE
5
844
100
AcDbEntity
8
1
100
AcDbLine
6
DOT2
62
6
10
2562.587907
20
-432.134764
11
2562.887907
21
-432.434764
0
LINE
5
845
100
AcDbEntity
8
1
100
AcDbLine
6
DOT2
62
6
10
2569.887907
20
-439.434764
11
2570.187907
21
-439.734764
0
LINE
5
846
100
AcDbEntity
8
1
100
AcDbLine
6
DOT2
62
6
10
2562.587907
20
-431.851921
11
2562.887907
21
-432.151921
0
LINE
5
847
100
AcDbEntity
8
1
100
AcDbLine
6
DOT2
62
6
10
2569.887907
20
-439.151921
11
2570.187907
21
-439.451921
0
LINE
5
848
100
AcDbEntity
8
1
100
AcDbLine
6
DOT2
62
6
10
2562.587907
20
-431.302205
11
2562.689916
21
-431.200196
0
LINE
5
849
100
AcDbEntity
8
1
100
AcDbLine
6
DOT2
62
6
10
2569.887907
20
-431.921801
11
2570.187907
21
-431.621801
0
LINE
5
84a
100
AcDbEntity
8
1
100
AcDbLine
6
DOT2
62
6
10
2562.587907
20
-438.938958
11
2562.887907
21
-438.638958
0
LINE
5
84b
100
AcDbEntity
8
1
100
AcDbLine
6
DOT2
62
6
10
2569.887907
20
-431.638958
11
2570.187907
21
-431.338958
0
LINE
5
84c
100
AcDbEntity
8
1
100
AcDbLine
6
DOT2
62
6
10
2562.587907
20
-438.656115
11
2562.887907
21
-438.356115
0
LINE
5
84d
100
AcDbEntity
8
1
100
AcDbLine
6
DOT2
62
6
10
2569.743826
20
-431.500196
11
2570.043826
21
-431.200196
0
LINE
5
84e
100
AcDbEntity
8
1
100
AcDbLine
6
DOT2
62
6
10
2562.587907
20
-438.373273
11
2562.887907
21
-438.073273
0
LINE
5
84f
100
AcDbEntity
8
1
100
AcDbLine
6
DOT2
62
6
10
2569.460984
20
-431.500196
11
2569.760984
21
-431.200196
0
LINE
5
850
100
AcDbEntity
8
1
100
AcDbLine
6
DOT2
62
6
10
2562.587907
20
-438.090430
11
2562.887907
21
-437.790430
0
LINE
5
851
100
AcDbEntity
8
1
100
AcDbLine
6
DOT2
62
6
10
2569.178141
20
-431.500196
11
2569.478141
21
-431.200196
0
LINE
5
852
100
AcDbEntity
8
1
100
AcDbLine
6
DOT2
62
6
10
2562.587907
20
-437.807587
11
2562.887907
21
-437.507587
0
LINE
5
853
100
AcDbEntity
8
1
100
AcDbLine
6
DOT2
62
6
10
2568.895298
20
-431.500196
11
2569.195298
21
-431.200196
0
LINE
5
854
100
AcDbEntity
8
1
100
AcDbLine
6
DOT2
62
6
10
2562.587907
20
-437.524745
11
2562.887907
21
-437.224745
0
LINE
5
855
100
AcDbEntity
8
1
100
AcDbLine
6
DOT2
62
6
10
2568.612455
20
-431.500196
11
2568.912455
21
-431.200196
0
LINE
5
856
100
AcDbEntity
8
1
100
AcDbLine
6
DOT2
62
6
10
2562.587907
20
-437.241902
11
2562.887907
21
-436.941902
0
LINE
5
857
100
AcDbEntity
8
1
100
AcDbLine
6
DOT2
62
6
10
2568.329613
20
-431.500196
11
2568.629613
21
-431.200196
0
LINE
5
858
100
AcDbEntity
8
1
100
AcDbLine
6
DOT2
62
6
10
2562.587907
20
-436.959059
11
2562.887907
21
-436.659059
0
LINE
5
859
100
AcDbEntity
8
1
100
AcDbLine
6
DOT2
62
6
10
2568.046770
20
-431.500196
11
2568.346770
21
-431.200196
0
LINE
5
85a
100
AcDbEntity
8
1
100
AcDbLine
6
DOT2
62
6
10
2562.587907
20
-436.676216
11
2562.887907
21
-436.376216
0
LINE
5
85b
100
AcDbEntity
8
1
100
AcDbLine
6
DOT2
62
6
10
2567.763927
20
-431.500196
11
2568.063927
21
-431.200196
0
LINE
5
85c
100
AcDbEntity
8
1
100
AcDbLine
6
DOT2
62
6
10
2562.587907
20
-436.393374
11
2562.887907
21
-436.093374
0
LINE
5
85d
100
AcDbEntity
8
1
100
AcDbLine
6
DOT2
62
6
10
2567.481085
20
-431.500196
11
2567.781085
21
-431.200196
0
LINE
5
85e
100
AcDbEntity
8
1
100
AcDbLine
6
DOT2
62
6
10
2562.587907
20
-436.110531
11
2562.887907
21
-435.810531
0
LINE
5
85f
100
AcDbEntity
8
1
100
AcDbLine
6
DOT2
62
6
10
2567.198242
20
-431.500196
11
2567.498242
21
-431.200196
0
LINE
5
860
100
AcDbEntity
8
1
100
AcDbLine
6
DOT2
62
6
10
2562.587907
20
-435.827688
11
2562.887907
21
-435.527688
0
LINE
5
861
100
AcDbEntity
8
1
100
AcDbLine
6
DOT2
62
6
10
2566.915399
20
-431.500196
11
2567.215399
21
-431.200196
0
LINE
5
862
100
AcDbEntity
8
1
100
AcDbLine
6
DOT2
62
6
10
2562.587907
20
-435.544846
11
2562.887907
21
-435.244846
0
LINE
5
863
100
AcDbEntity
8
1
100
AcDbLine
6
DOT2
62
6
10
2566.632556
20
-431.500196
11
2566.932556
21
-431.200196
0
LINE
5
864
100
AcDbEntity
8
1
100
AcDbLine
6
DOT2
62
6
10
2562.587907
20
-435.262003
11
2562.887907
21
-434.962003
0
LINE
5
865
100
AcDbEntity
8
1
100
AcDbLine
6
DOT2
62
6
10
2566.349714
20
-431.500196
11
2566.649714
21
-431.200196
0
LINE
5
866
100
AcDbEntity
8
1
100
AcDbLine
6
DOT2
62
6
10
2562.587907
20
-434.979160
11
2562.887907
21
-434.679160
0
LINE
5
867
100
AcDbEntity
8
1
100
AcDbLine
6
DOT2
62
6
10
2566.066871
20
-431.500196
11
2566.366871
21
-431.200196
0
LINE
5
868
100
AcDbEntity
8
1
100
AcDbLine
6
DOT2
62
6
10
2562.587907
20
-434.696317
11
2562.887907
21
-434.396317
0
LINE
5
869
100
AcDbEntity
8
1
100
AcDbLine
6
DOT2
62
6
10
2565.784028
20
-431.500196
11
2566.084028
21
-431.200196
0
LINE
5
86a
100
AcDbEntity
8
1
100
AcDbLine
6
DOT2
62
6
10
2562.587907
20
-434.413475
11
2562.887907
21
-434.113475
0
LINE
5
86b
100
AcDbEntity
8
1
100
AcDbLine
6
DOT2
62
6
10
2565.501186
20
-431.500196
11
2565.801186
21
-431.200196
0
LINE
5
86c
100
AcDbEntity
8
1
100
AcDbLine
6
DOT2
62
6
10
2562.587907
20
-434.130632
11
2562.887907
21
-433.830632
0
LINE
5
86d
100
AcDbEntity
8
1
100
AcDbLine
6
DOT2
62
6
10
2565.218343
20
-431.500196
11
2565.518343
21
-431.200196
0
LINE
5
86e
100
AcDbEntity
8
1
100
AcDbLine
6
DOT2
62
6
10
2562.587907
20
-433.847789
11
2562.887907
21
-433.547789
0
LINE
5
86f
100
AcDbEntity
8
1
100
AcDbLine
6
DOT2
62
6
10
2564.935500
20
-431.500196
11
2565.235500
21
-431.200196
0
LINE
5
870
100
AcDbEntity
8
1
100
AcDbLine
6
DOT2
62
6
10
2562.587907
20
-433.564947
11
2562.887907
21
-433.264947
0
LINE
5
871
100
AcDbEntity
8
1
100
AcDbLine
6
DOT2
62
6
10
2564.652657
20
-431.500196
11
2564.952657
21
-431.200196
0
LINE
5
872
100
AcDbEntity
8
1
100
AcDbLine
6
DOT2
62
6
10
2562.587907
20
-433.282104
11
2562.887907
21
-432.982104
0
LINE
5
873
100
AcDbEntity
8
1
100
AcDbLine
6
DOT2
62
6
10
2564.369815
20
-431.500196
11
2564.669815
21
-431.200196
0
LINE
5
874
100
AcDbEntity
8
1
100
AcDbLine
6
DOT2
62
6
10
2562.587907
20
-432.999261
11
2562.887907
21
-432.699261
0
LINE
5
875
100
AcDbEntity
8
1
100
AcDbLine
6
DOT2
62
6
10
2564.086972
20
-431.500196
11
2564.386972
21
-431.200196
0
LINE
5
876
100
AcDbEntity
8
1
100
AcDbLine
6
DOT2
62
6
10
2562.587907
20
-432.716418
11
2562.887907
21
-432.416418
0
LINE
5
877
100
AcDbEntity
8
1
100
AcDbLine
6
DOT2
62
6
10
2563.804129
20
-431.500196
11
2564.104129
21
-431.200196
0
LINE
5
878
100
AcDbEntity
8
1
100
AcDbLine
6
DOT2
62
6
10
2562.587907
20
-432.433576
11
2562.887907
21
-432.133576
0
LINE
5
879
100
AcDbEntity
8
1
100
AcDbLine
6
DOT2
62
6
10
2563.521287
20
-431.500196
11
2563.821287
21
-431.200196
0
LINE
5
87a
100
AcDbEntity
8
1
100
AcDbLine
6
DOT2
62
6
10
2562.587907
20
-432.150733
11
2562.887907
21
-431.850733
0
LINE
5
87b
100
AcDbEntity
8
1
100
AcDbLine
6
DOT2
62
6
10
2563.238444
20
-431.500196
11
2563.538444
21
-431.200196
0
LINE
5
87c
100
AcDbEntity
8
1
100
AcDbLine
6
DOT2
62
6
10
2562.587907
20
-431.867890
11
2562.887907
21
-431.567890
0
LINE
5
87d
100
AcDbEntity
8
1
100
AcDbLine
6
DOT2
62
6
10
2562.955601
20
-431.500196
11
2563.255601
21
-431.200196
0
LINE
5
87e
100
AcDbEntity
8
1
100
AcDbLine
6
DOT2
62
6
10
2562.587907
20
-431.585048
11
2562.972758
21
-431.200196
0
LINE
5
87f
100
AcDbEntity
8
1
100
AcDbLine
6
DOT2
62
6
10
2562.587907
20
-439.221801
11
2562.887907
21
-438.921801
0
LINE
5
880
100
AcDbEntity
8
1
100
AcDbLine
6
DOT2
62
6
10
2570.034490
20
-446.200196
11
2570.187907
21
-446.046779
0
LINE
5
881
100
AcDbEntity
8
1
100
AcDbLine
6
DOT2
62
6
10
2569.751647
20
-446.200196
11
2570.187907
21
-445.763936
0
LINE
5
882
100
AcDbEntity
8
1
100
AcDbLine
6
DOT2
62
6
10
2569.468805
20
-446.200196
11
2569.768805
21
-445.900196
0
LINE
5
883
100
AcDbEntity
8
1
100
AcDbLine
6
DOT2
62
6
10
2569.887907
20
-445.781094
11
2570.187907
21
-445.481094
0
LINE
5
884
100
AcDbEntity
8
1
100
AcDbLine
6
DOT2
62
6
10
2569.185962
20
-446.200196
11
2569.485962
21
-445.900196
0
LINE
5
885
100
AcDbEntity
8
1
100
AcDbLine
6
DOT2
62
6
10
2569.887907
20
-445.498251
11
2570.187907
21
-445.198251
0
LINE
5
886
100
AcDbEntity
8
1
100
AcDbLine
6
DOT2
62
6
10
2568.903119
20
-446.200196
11
2569.203119
21
-445.900196
0
LINE
5
887
100
AcDbEntity
8
1
100
AcDbLine
6
DOT2
62
6
10
2569.887907
20
-445.215408
11
2570.187907
21
-444.915408
0
LINE
5
888
100
AcDbEntity
8
1
100
AcDbLine
6
DOT2
62
6
10
2568.620276
20
-446.200196
11
2568.920276
21
-445.900196
0
LINE
5
889
100
AcDbEntity
8
1
100
AcDbLine
6
DOT2
62
6
10
2569.887907
20
-444.932566
11
2570.187907
21
-444.632566
0
LINE
5
88a
100
AcDbEntity
8
1
100
AcDbLine
6
DOT2
62
6
10
2568.337434
20
-446.200196
11
2568.637434
21
-445.900196
0
LINE
5
88b
100
AcDbEntity
8
1
100
AcDbLine
6
DOT2
62
6
10
2569.887907
20
-444.649723
11
2570.187907
21
-444.349723
0
LINE
5
88c
100
AcDbEntity
8
1
100
AcDbLine
6
DOT2
62
6
10
2568.054591
20
-446.200196
11
2568.354591
21
-445.900196
0
LINE
5
88d
100
AcDbEntity
8
1
100
AcDbLine
6
DOT2
62
6
10
2569.887907
20
-444.366880
11
2570.187907
21
-444.066880
0
LINE
5
88e
100
AcDbEntity
8
1
100
AcDbLine
6
DOT2
62
6
10
2567.771748
20
-446.200196
11
2568.071748
21
-445.900196
0
LINE
5
88f
100
AcDbEntity
8
1
100
AcDbLine
6
DOT2
62
6
10
2569.887907
20
-444.084037
11
2570.187907
21
-443.784037
0
LINE
5
890
100
AcDbEntity
8
1
100
AcDbLine
6
DOT2
62
6
10
2567.488906
20
-446.200196
11
2567.788906
21
-445.900196
0
LINE
5
891
100
AcDbEntity
8
1
100
AcDbLine
6
DOT2
62
6
10
2569.887907
20
-443.801195
11
2570.187907
21
-443.501195
0
LINE
5
892
100
AcDbEntity
8
1
100
AcDbLine
6
DOT2
62
6
10
2567.206063
20
-446.200196
11
2567.506063
21
-445.900196
0
LINE
5
893
100
AcDbEntity
8
1
100
AcDbLine
6
DOT2
62
6
10
2569.887907
20
-443.518352
11
2570.187907
21
-443.218352
0
LINE
5
894
100
AcDbEntity
8
1
100
AcDbLine
6
DOT2
62
6
10
2566.923220
20
-446.200196
11
2567.223220
21
-445.900196
0
LINE
5
895
100
AcDbEntity
8
1
100
AcDbLine
6
DOT2
62
6
10
2569.887907
20
-443.235509
11
2570.187907
21
-442.935509
0
LINE
5
896
100
AcDbEntity
8
1
100
AcDbLine
6
DOT2
62
6
10
2566.640377
20
-446.200196
11
2566.940377
21
-445.900196
0
LINE
5
897
100
AcDbEntity
8
1
100
AcDbLine
6
DOT2
62
6
10
2569.887907
20
-442.952667
11
2570.187907
21
-442.652667
0
LINE
5
898
100
AcDbEntity
8
1
100
AcDbLine
6
DOT2
62
6
10
2566.357535
20
-446.200196
11
2566.657535
21
-445.900196
0
LINE
5
899
100
AcDbEntity
8
1
100
AcDbLine
6
DOT2
62
6
10
2569.887907
20
-442.669824
11
2570.187907
21
-442.369824
0
LINE
5
89a
100
AcDbEntity
8
1
100
AcDbLine
6
DOT2
62
6
10
2566.074692
20
-446.200196
11
2566.374692
21
-445.900196
0
LINE
5
89b
100
AcDbEntity
8
1
100
AcDbLine
6
DOT2
62
6
10
2569.887907
20
-442.386981
11
2570.187907
21
-442.086981
0
LINE
5
89c
100
AcDbEntity
8
1
100
AcDbLine
6
DOT2
62
6
10
2565.791849
20
-446.200196
11
2566.091849
21
-445.900196
0
LINE
5
89d
100
AcDbEntity
8
1
100
AcDbLine
6
DOT2
62
6
10
2569.887907
20
-442.104138
11
2570.187907
21
-441.804138
0
LINE
5
89e
100
AcDbEntity
8
1
100
AcDbLine
6
DOT2
62
6
10
2565.509007
20
-446.200196
11
2565.809007
21
-445.900196
0
LINE
5
89f
100
AcDbEntity
8
1
100
AcDbLine
6
DOT2
62
6
10
2569.887907
20
-441.821296
11
2570.187907
21
-441.521296
0
LINE
5
8a0
100
AcDbEntity
8
1
100
AcDbLine
6
DOT2
62
6
10
2565.226164
20
-446.200196
11
2565.526164
21
-445.900196
0
LINE
5
8a1
100
AcDbEntity
8
1
100
AcDbLine
6
DOT2
62
6
10
2569.887907
20
-441.538453
11
2570.187907
21
-441.238453
0
LINE
5
8a2
100
AcDbEntity
8
1
100
AcDbLine
6
DOT2
62
6
10
2564.943321
20
-446.200196
11
2565.243321
21
-445.900196
0
LINE
5
8a3
100
AcDbEntity
8
1
100
AcDbLine
6
DOT2
62
6
10
2569.887907
20
-441.255610
11
2570.187907
21
-440.955610
0
LINE
5
8a4
100
AcDbEntity
8
1
100
AcDbLine
6
DOT2
62
6
10
2564.660479
20
-446.200196
11
2564.960479
21
-445.900196
0
LINE
5
8a5
100
AcDbEntity
8
1
100
AcDbLine
6
DOT2
62
6
10
2569.887907
20
-440.972768
11
2570.187907
21
-440.672768
0
LINE
5
8a6
100
AcDbEntity
8
1
100
AcDbLine
6
DOT2
62
6
10
2564.377636
20
-446.200196
11
2564.677636
21
-445.900196
0
LINE
5
8a7
100
AcDbEntity
8
1
100
AcDbLine
6
DOT2
62
6
10
2569.887907
20
-440.689925
11
2570.187907
21
-440.389925
0
LINE
5
8a8
100
AcDbEntity
8
1
100
AcDbLine
6
DOT2
62
6
10
2564.094793
20
-446.200196
11
2564.394793
21
-445.900196
0
LINE
5
8a9
100
AcDbEntity
8
1
100
AcDbLine
6
DOT2
62
6
10
2569.887907
20
-440.407082
11
2570.187907
21
-440.107082
0
LINE
5
8aa
100
AcDbEntity
8
1
100
AcDbLine
6
DOT2
62
6
10
2563.811950
20
-446.200196
11
2564.111950
21
-445.900196
0
LINE
5
8ab
100
AcDbEntity
8
1
100
AcDbLine
6
DOT2
62
6
10
2569.887907
20
-440.124240
11
2570.187907
21
-439.824240
0
LINE
5
8ac
100
AcDbEntity
8
1
100
AcDbLine
6
DOT2
62
6
10
2563.529108
20
-446.200196
11
2563.829108
21
-445.900196
0
LINE
5
8ad
100
AcDbEntity
8
1
100
AcDbLine
6
DOT2
62
6
10
2569.887907
20
-439.841397
11
2570.187907
21
-439.541397
0
LINE
5
8ae
100
AcDbEntity
8
1
100
AcDbLine
6
DOT2
62
6
10
2563.246265
20
-446.200196
11
2563.546265
21
-445.900196
0
LINE
5
8af
100
AcDbEntity
8
1
100
AcDbLine
6
DOT2
62
6
10
2569.887907
20
-439.558554
11
2570.187907
21
-439.258554
0
LINE
5
8b0
100
AcDbEntity
8
1
100
AcDbLine
6
DOT2
62
6
10
2562.963422
20
-446.200196
11
2563.263422
21
-445.900196
0
LINE
5
8b1
100
AcDbEntity
8
1
100
AcDbLine
6
DOT2
62
6
10
2569.887907
20
-439.275711
11
2570.187907
21
-438.975711
0
LINE
5
8b2
100
AcDbEntity
8
1
100
AcDbLine
6
DOT2
62
6
10
2562.680580
20
-446.200196
11
2562.980580
21
-445.900196
0
LINE
5
8b3
100
AcDbEntity
8
1
100
AcDbLine
6
DOT2
62
6
10
2569.887907
20
-438.992869
11
2570.187907
21
-438.692869
0
LINE
5
8b4
100
AcDbEntity
8
1
100
AcDbLine
6
DOT2
62
6
10
2562.587907
20
-446.010026
11
2562.887907
21
-445.710026
0
LINE
5
8b5
100
AcDbEntity
8
1
100
AcDbLine
6
DOT2
62
6
10
2569.887907
20
-438.710026
11
2570.187907
21
-438.410026
0
LINE
5
8b6
100
AcDbEntity
8
1
100
AcDbLine
6
DOT2
62
6
10
2562.587907
20
-445.727183
11
2562.887907
21
-445.427183
0
LINE
5
8b7
100
AcDbEntity
8
1
100
AcDbLine
6
DOT2
62
6
10
2569.887907
20
-438.427183
11
2570.187907
21
-438.127183
0
LINE
5
8b8
100
AcDbEntity
8
1
100
AcDbLine
6
DOT2
62
6
10
2562.587907
20
-445.444341
11
2562.887907
21
-445.144341
0
LINE
5
8b9
100
AcDbEntity
8
1
100
AcDbLine
6
DOT2
62
6
10
2569.887907
20
-438.144341
11
2570.187907
21
-437.844341
0
LINE
5
8ba
100
AcDbEntity
8
1
100
AcDbLine
6
DOT2
62
6
10
2562.587907
20
-445.161498
11
2562.887907
21
-444.861498
0
LINE
5
8bb
100
AcDbEntity
8
1
100
AcDbLine
6
DOT2
62
6
10
2569.887907
20
-437.861498
11
2570.187907
21
-437.561498
0
LINE
5
8bc
100
AcDbEntity
8
1
100
AcDbLine
6
DOT2
62
6
10
2562.587907
20
-444.878655
11
2562.887907
21
-444.578655
0
LINE
5
8bd
100
AcDbEntity
8
1
100
AcDbLine
6
DOT2
62
6
10
2569.887907
20
-437.578655
11
2570.187907
21
-437.278655
0
LINE
5
8be
100
AcDbEntity
8
1
100
AcDbLine
6
DOT2
62
6
10
2562.587907
20
-444.595812
11
2562.887907
21
-444.295812
0
LINE
5
8bf
100
AcDbEntity
8
1
100
AcDbLine
6
DOT2
62
6
10
2569.887907
20
-437.295812
11
2570.187907
21
-436.995812
0
LINE
5
8c0
100
AcDbEntity
8
1
100
AcDbLine
6
DOT2
62
6
10
2562.587907
20
-444.312970
11
2562.887907
21
-444.012970
0
LINE
5
8c1
100
AcDbEntity
8
1
100
AcDbLine
6
DOT2
62
6
10
2569.887907
20
-437.012970
11
2570.187907
21
-436.712970
0
LINE
5
8c2
100
AcDbEntity
8
1
100
AcDbLine
6
DOT2
62
6
10
2562.587907
20
-444.030127
11
2562.887907
21
-443.730127
0
LINE
5
8c3
100
AcDbEntity
8
1
100
AcDbLine
6
DOT2
62
6
10
2569.887907
20
-436.730127
11
2570.187907
21
-436.430127
0
LINE
5
8c4
100
AcDbEntity
8
1
100
AcDbLine
6
DOT2
62
6
10
2562.587907
20
-443.747284
11
2562.887907
21
-443.447284
0
LINE
5
8c5
100
AcDbEntity
8
1
100
AcDbLine
6
DOT2
62
6
10
2569.887907
20
-436.447284
11
2570.187907
21
-436.147284
0
LINE
5
8c6
100
AcDbEntity
8
1
100
AcDbLine
6
DOT2
62
6
10
2562.587907
20
-443.464442
11
2562.887907
21
-443.164442
0
LINE
5
8c7
100
AcDbEntity
8
1
100
AcDbLine
6
DOT2
62
6
10
2569.887907
20
-436.164442
11
2570.187907
21
-435.864442
0
LINE
5
8c8
100
AcDbEntity
8
1
100
AcDbLine
6
DOT2
62
6
10
2562.587907
20
-443.181599
11
2562.887907
21
-442.881599
0
LINE
5
8c9
100
AcDbEntity
8
1
100
AcDbLine
6
DOT2
62
6
10
2569.887907
20
-435.881599
11
2570.187907
21
-435.581599
0
LINE
5
8ca
100
AcDbEntity
8
1
100
AcDbLine
6
DOT2
62
6
10
2562.587907
20
-442.898756
11
2562.887907
21
-442.598756
0
LINE
5
8cb
100
AcDbEntity
8
1
100
AcDbLine
6
DOT2
62
6
10
2569.887907
20
-435.598756
11
2570.187907
21
-435.298756
0
LINE
5
8cc
100
AcDbEntity
8
1
100
AcDbLine
6
DOT2
62
6
10
2562.587907
20
-442.615913
11
2562.887907
21
-442.315913
0
LINE
5
8cd
100
AcDbEntity
8
1
100
AcDbLine
6
DOT2
62
6
10
2569.887907
20
-435.315913
11
2570.187907
21
-435.015913
0
LINE
5
8ce
100
AcDbEntity
8
1
100
AcDbLine
6
DOT2
62
6
10
2562.587907
20
-442.333071
11
2562.887907
21
-442.033071
0
LINE
5
8cf
100
AcDbEntity
8
1
100
AcDbLine
6
DOT2
62
6
10
2569.887907
20
-435.033071
11
2570.187907
21
-434.733071
0
LINE
5
8d0
100
AcDbEntity
8
1
100
AcDbLine
6
DOT2
62
6
10
2562.587907
20
-442.050228
11
2562.887907
21
-441.750228
0
LINE
5
8d1
100
AcDbEntity
8
1
100
AcDbLine
6
DOT2
62
6
10
2569.887907
20
-434.750228
11
2570.187907
21
-434.450228
0
LINE
5
8d2
100
AcDbEntity
8
1
100
AcDbLine
6
DOT2
62
6
10
2562.587907
20
-441.767385
11
2562.887907
21
-441.467385
0
LINE
5
8d3
100
AcDbEntity
8
1
100
AcDbLine
6
DOT2
62
6
10
2569.887907
20
-434.467385
11
2570.187907
21
-434.167385
0
LINE
5
8d4
100
AcDbEntity
8
1
100
AcDbLine
6
DOT2
62
6
10
2562.587907
20
-441.484543
11
2562.887907
21
-441.184543
0
LINE
5
8d5
100
AcDbEntity
8
1
100
AcDbLine
6
DOT2
62
6
10
2569.887907
20
-434.184543
11
2570.187907
21
-433.884543
0
LINE
5
8d6
100
AcDbEntity
8
1
100
AcDbLine
6
DOT2
62
6
10
2562.587907
20
-441.201700
11
2562.887907
21
-440.901700
0
LINE
5
8d7
100
AcDbEntity
8
1
100
AcDbLine
6
DOT2
62
6
10
2569.887907
20
-433.901700
11
2570.187907
21
-433.601700
0
LINE
5
8d8
100
AcDbEntity
8
1
100
AcDbLine
6
DOT2
62
6
10
2562.587907
20
-440.918857
11
2562.887907
21
-440.618857
0
LINE
5
8d9
100
AcDbEntity
8
1
100
AcDbLine
6
DOT2
62
6
10
2569.887907
20
-433.618857
11
2570.187907
21
-433.318857
0
LINE
5
8da
100
AcDbEntity
8
1
100
AcDbLine
6
DOT2
62
6
10
2562.587907
20
-440.636014
11
2562.887907
21
-440.336014
0
LINE
5
8db
100
AcDbEntity
8
1
100
AcDbLine
6
DOT2
62
6
10
2569.887907
20
-433.336014
11
2570.187907
21
-433.036014
0
LINE
5
8dc
100
AcDbEntity
8
1
100
AcDbLine
6
DOT2
62
6
10
2562.587907
20
-440.353172
11
2562.887907
21
-440.053172
0
LINE
5
8dd
100
AcDbEntity
8
1
100
AcDbLine
6
DOT2
62
6
10
2569.887907
20
-433.053172
11
2570.187907
21
-432.753172
0
LINE
5
8de
100
AcDbEntity
8
1
100
AcDbLine
6
DOT2
62
6
10
2562.587907
20
-440.070329
11
2562.887907
21
-439.770329
0
LINE
5
8df
100
AcDbEntity
8
1
100
AcDbLine
6
DOT2
62
6
10
2569.887907
20
-432.770329
11
2570.187907
21
-432.470329
0
LINE
5
8e0
100
AcDbEntity
8
1
100
AcDbLine
6
DOT2
62
6
10
2562.587907
20
-439.787486
11
2562.887907
21
-439.487486
0
LINE
5
8e1
100
AcDbEntity
8
1
100
AcDbLine
6
DOT2
62
6
10
2569.887907
20
-432.487486
11
2570.187907
21
-432.187486
0
LINE
5
8e2
100
AcDbEntity
8
1
100
AcDbLine
6
DOT2
62
6
10
2562.587907
20
-439.504644
11
2562.887907
21
-439.204644
0
LINE
5
8e3
100
AcDbEntity
8
1
100
AcDbLine
6
DOT2
62
6
10
2569.887907
20
-432.204644
11
2570.187907
21
-431.904644
0
LINE
5
8e4
100
AcDbEntity
8
1
100
AcDbLine
6
DOT2
62
6
10
2564.470643
20
-439.318964
11
2564.599911
21
-439.189695
0
LINE
5
8e5
100
AcDbEntity
8
1
100
AcDbLine
6
DOT2
62
6
10
2568.016004
20
-440.581928
11
2568.328421
21
-440.269512
0
LINE
5
8e6
100
AcDbEntity
8
1
100
AcDbLine
6
DOT2
62
6
10
2567.788485
20
-440.526604
11
2568.070519
21
-440.244571
0
LINE
5
8e7
100
AcDbEntity
8
1
100
AcDbLine
6
DOT2
62
6
10
2567.578323
20
-440.453924
11
2567.835525
21
-440.196722
0
LINE
5
8e8
100
AcDbEntity
8
1
100
AcDbLine
6
DOT2
62
6
10
2567.383312
20
-440.366092
11
2567.619228
21
-440.130177
0
LINE
5
8e9
100
AcDbEntity
8
1
100
AcDbLine
6
DOT2
62
6
10
2567.201988
20
-440.264574
11
2567.418978
21
-440.047584
0
LINE
5
8ea
100
AcDbEntity
8
1
100
AcDbLine
6
DOT2
62
6
10
2567.745592
20
-439.720969
11
2567.868890
21
-439.597672
0
LINE
5
8eb
100
AcDbEntity
8
1
100
AcDbLine
6
DOT2
62
6
10
2568.124590
20
-439.341972
11
2568.255401
21
-439.211161
0
LINE
5
8ec
100
AcDbEntity
8
1
100
AcDbLine
6
DOT2
62
6
10
2567.033382
20
-440.150337
11
2567.233040
21
-439.950679
0
LINE
5
8ed
100
AcDbEntity
8
1
100
AcDbLine
6
DOT2
62
6
10
2567.382757
20
-439.800962
11
2567.723857
21
-439.459862
0
LINE
5
8ee
100
AcDbEntity
8
1
100
AcDbLine
6
DOT2
62
6
10
2567.841489
20
-439.342230
11
2568.120278
21
-439.063441
0
LINE
5
8ef
100
AcDbEntity
8
1
100
AcDbLine
6
DOT2
62
6
10
2566.710634
20
-440.190242
11
2566.725690
21
-440.175186
0
LINE
5
8f0
100
AcDbEntity
8
1
100
AcDbLine
6
DOT2
62
6
10
2566.876887
20
-440.023990
11
2567.284998
21
-439.615878
0
LINE
5
8f1
100
AcDbEntity
8
1
100
AcDbLine
6
DOT2
62
6
10
2567.558389
20
-439.342487
11
2567.711181
21
-439.189695
0
LINE
5
8f2
100
AcDbEntity
8
1
100
AcDbLine
6
DOT2
62
6
10
2567.892145
20
-439.008732
11
2567.948610
21
-438.952266
0
LINE
5
8f3
100
AcDbEntity
8
1
100
AcDbLine
6
DOT2
62
6
10
2566.347877
20
-440.270156
11
2566.513056
21
-440.104978
0
LINE
5
8f4
100
AcDbEntity
8
1
100
AcDbLine
6
DOT2
62
6
10
2566.732181
20
-439.885853
11
2566.899917
21
-439.718117
0
LINE
5
8f5
100
AcDbEntity
8
1
100
AcDbLine
6
DOT2
62
6
10
2567.275289
20
-439.342745
11
2567.428338
21
-439.189695
0
LINE
5
8f6
100
AcDbEntity
8
1
100
AcDbLine
6
DOT2
62
6
10
2565.985120
20
-440.350070
11
2566.195208
21
-440.139983
0
LINE
5
8f7
100
AcDbEntity
8
1
100
AcDbLine
6
DOT2
62
6
10
2566.599197
20
-439.735994
11
2566.751577
21
-439.583614
0
LINE
5
8f8
100
AcDbEntity
8
1
100
AcDbLine
6
DOT2
62
6
10
2566.992188
20
-439.343002
11
2567.145496
21
-439.189695
0
LINE
5
8f9
100
AcDbEntity
8
1
100
AcDbLine
6
DOT2
62
6
10
2565.622363
20
-440.429985
11
2565.877360
21
-440.174988
0
LINE
5
8fa
100
AcDbEntity
8
1
100
AcDbLine
6
DOT2
62
6
10
2566.478110
20
-439.574238
11
2566.615098
21
-439.437250
0
LINE
5
8fb
100
AcDbEntity
8
1
100
AcDbLine
6
DOT2
62
6
10
2566.709088
20
-439.343260
11
2566.862653
21
-439.189695
0
LINE
5
8fc
100
AcDbEntity
8
1
100
AcDbLine
6
DOT2
62
6
10
2565.259606
20
-440.509899
11
2565.777488
21
-439.992017
0
LINE
5
8fd
100
AcDbEntity
8
1
100
AcDbLine
6
DOT2
62
6
10
2566.369362
20
-439.400143
11
2566.579810
21
-439.189695
0
LINE
5
8fe
100
AcDbEntity
8
1
100
AcDbLine
6
DOT2
62
6
10
2564.858482
20
-440.628180
11
2565.241664
21
-440.244999
0
LINE
5
8ff
100
AcDbEntity
8
1
100
AcDbLine
6
DOT2
62
6
10
2565.478907
20
-440.007756
11
2565.777488
21
-439.709174
0
LINE
5
900
100
AcDbEntity
8
1
100
AcDbLine
6
DOT2
62
6
10
2565.808547
20
-439.678115
11
2566.659980
21
-438.826683
0
LINE
5
901
100
AcDbEntity
8
1
100
AcDbLine
6
DOT2
62
6
10
2564.797837
20
-440.405984
11
2564.923816
21
-440.280004
0
LINE
5
902
100
AcDbEntity
8
1
100
AcDbLine
6
DOT2
62
6
10
2565.276878
20
-439.926942
11
2566.014125
21
-439.189695
0
LINE
5
903
100
AcDbEntity
8
1
100
AcDbLine
6
DOT2
62
6
10
2566.255117
20
-438.948704
11
2566.430133
21
-438.773688
0
LINE
5
904
100
AcDbEntity
8
1
100
AcDbLine
6
DOT2
62
6
10
2564.844226
20
-440.076751
11
2565.157785
21
-439.763192
0
LINE
5
905
100
AcDbEntity
8
1
100
AcDbLine
6
DOT2
62
6
10
2565.579084
20
-439.341893
11
2565.731282
21
-439.189695
0
LINE
5
906
100
AcDbEntity
8
1
100
AcDbLine
6
DOT2
62
6
10
2564.471316
20
-440.166819
11
2564.663932
21
-439.974203
0
LINE
5
907
100
AcDbEntity
8
1
100
AcDbLine
6
DOT2
62
6
10
2565.296241
20
-439.341893
11
2565.448439
21
-439.189695
0
LINE
5
908
100
AcDbEntity
8
1
100
AcDbLine
6
DOT2
62
6
10
2565.013399
20
-439.341893
11
2565.165597
21
-439.189695
0
LINE
5
909
100
AcDbEntity
8
1
100
AcDbLine
6
DOT2
62
6
10
2564.730556
20
-439.341893
11
2564.882754
21
-439.189695
0
LINE
5
90a
100
AcDbEntity
8
1
100
AcDbLine
6
DOT2
62
6
10
2564.949175
20
-440.718572
11
2564.858369
21
-440.627766
0
LINE
5
90b
100
AcDbEntity
8
1
100
AcDbLine
6
DOT2
62
6
10
2568.256687
20
-439.217757
11
2567.991196
21
-438.952266
0
LINE
5
90c
100
AcDbEntity
8
1
100
AcDbLine
6
DOT2
62
6
10
2568.098083
20
-439.341996
11
2567.834108
21
-439.078021
0
LINE
5
90d
100
AcDbEntity
8
1
100
AcDbLine
6
DOT2
62
6
10
2567.815497
20
-439.342253
11
2567.662939
21
-439.189695
0
LINE
5
90e
100
AcDbEntity
8
1
100
AcDbLine
6
DOT2
62
6
10
2567.902779
20
-439.712378
11
2567.599022
21
-439.408621
0
LINE
5
90f
100
AcDbEntity
8
1
100
AcDbLine
6
DOT2
62
6
10
2567.532912
20
-439.342510
11
2567.380096
21
-439.189695
0
LINE
5
910
100
AcDbEntity
8
1
100
AcDbLine
6
DOT2
62
6
10
2568.302203
20
-440.394644
11
2568.164494
21
-440.256936
0
LINE
5
911
100
AcDbEntity
8
1
100
AcDbLine
6
DOT2
62
6
10
2567.623874
20
-439.716315
11
2567.430613
21
-439.523055
0
LINE
5
912
100
AcDbEntity
8
1
100
AcDbLine
6
DOT2
62
6
10
2567.250326
20
-439.342768
11
2567.097254
21
-439.189695
0
LINE
5
913
100
AcDbEntity
8
1
100
AcDbLine
6
DOT2
62
6
10
2568.193904
20
-440.569189
11
2567.816465
21
-440.191749
0
LINE
5
914
100
AcDbEntity
8
1
100
AcDbLine
6
DOT2
62
6
10
2567.415562
20
-439.790846
11
2567.257507
21
-439.632791
0
LINE
5
915
100
AcDbEntity
8
1
100
AcDbLine
6
DOT2
62
6
10
2566.967741
20
-439.343025
11
2566.814411
21
-439.189695
0
LINE
5
916
100
AcDbEntity
8
1
100
AcDbLine
6
DOT2
62
6
10
2566.607216
20
-438.982500
11
2566.398403
21
-438.773688
0
LINE
5
917
100
AcDbEntity
8
1
100
AcDbLine
6
DOT2
62
6
10
2567.898030
20
-440.556157
11
2567.361897
21
-440.020024
0
LINE
5
918
100
AcDbEntity
8
1
100
AcDbLine
6
DOT2
62
6
10
2567.193089
20
-439.851216
11
2567.079601
21
-439.737728
0
LINE
5
919
100
AcDbEntity
8
1
100
AcDbLine
6
DOT2
62
6
10
2566.685155
20
-439.343282
11
2566.255117
21
-438.913243
0
LINE
5
91a
100
AcDbEntity
8
1
100
AcDbLine
6
DOT2
62
6
10
2567.463981
20
-440.404951
11
2566.248726
21
-439.189695
0
LINE
5
91b
100
AcDbEntity
8
1
100
AcDbLine
6
DOT2
62
6
10
2566.209610
20
-439.433422
11
2565.965883
21
-439.189695
0
LINE
5
91c
100
AcDbEntity
8
1
100
AcDbLine
6
DOT2
62
6
10
2566.688470
20
-440.195125
11
2566.589864
21
-440.096519
0
LINE
5
91d
100
AcDbEntity
8
1
100
AcDbLine
6
DOT2
62
6
10
2566.038591
20
-439.545246
11
2565.840042
21
-439.346697
0
LINE
5
91e
100
AcDbEntity
8
1
100
AcDbLine
6
DOT2
62
6
10
2565.835238
20
-439.341893
11
2565.683040
21
-439.189695
0
LINE
5
91f
100
AcDbEntity
8
1
100
AcDbLine
6
DOT2
62
6
10
2566.456688
20
-440.246186
11
2566.335081
21
-440.124578
0
LINE
5
920
100
AcDbEntity
8
1
100
AcDbLine
6
DOT2
62
6
10
2565.860353
20
-439.649851
11
2565.673923
21
-439.463421
0
LINE
5
921
100
AcDbEntity
8
1
100
AcDbLine
6
DOT2
62
6
10
2565.552395
20
-439.341893
11
2565.400197
21
-439.189695
0
LINE
5
922
100
AcDbEntity
8
1
100
AcDbLine
6
DOT2
62
6
10
2566.224906
20
-440.297246
11
2566.080298
21
-440.152638
0
LINE
5
923
100
AcDbEntity
8
1
100
AcDbLine
6
DOT2
62
6
10
2565.777488
20
-439.849829
11
2565.501339
21
-439.573680
0
LINE
5
924
100
AcDbEntity
8
1
100
AcDbLine
6
DOT2
62
6
10
2565.269553
20
-439.341893
11
2565.117355
21
-439.189695
0
LINE
5
925
100
AcDbEntity
8
1
100
AcDbLine
6
DOT2
62
6
10
2565.993124
20
-440.348307
11
2565.825515
21
-440.180698
0
LINE
5
926
100
AcDbEntity
8
1
100
AcDbLine
6
DOT2
62
6
10
2565.777488
20
-440.132672
11
2565.322099
21
-439.677282
0
LINE
5
927
100
AcDbEntity
8
1
100
AcDbLine
6
DOT2
62
6
10
2564.986710
20
-439.341893
11
2564.834512
21
-439.189695
0
LINE
5
928
100
AcDbEntity
8
1
100
AcDbLine
6
DOT2
62
6
10
2565.761342
20
-440.399368
11
2565.478907
21
-440.116933
0
LINE
5
929
100
AcDbEntity
8
1
100
AcDbLine
6
DOT2
62
6
10
2565.285479
20
-439.923505
11
2565.135957
21
-439.773983
0
LINE
5
92a
100
AcDbEntity
8
1
100
AcDbLine
6
DOT2
62
6
10
2564.703867
20
-439.341893
11
2564.551669
21
-439.189695
0
LINE
5
92b
100
AcDbEntity
8
1
100
AcDbLine
6
DOT2
62
6
10
2565.529560
20
-440.450429
11
2565.315949
21
-440.236818
0
LINE
5
92c
100
AcDbEntity
8
1
100
AcDbLine
6
DOT2
62
6
10
2565.079825
20
-440.000693
11
2564.942612
21
-439.863480
0
LINE
5
92d
100
AcDbEntity
8
1
100
AcDbLine
6
DOT2
62
6
10
2565.297779
20
-440.501490
11
2565.061166
21
-440.264877
0
LINE
5
92e
100
AcDbEntity
8
1
100
AcDbLine
6
DOT2
62
6
10
2564.866421
20
-440.070133
11
2564.741687
21
-439.945398
0
LINE
5
92f
100
AcDbEntity
8
1
100
AcDbLine
6
DOT2
62
6
10
2565.065997
20
-440.552551
11
2564.806383
21
-440.292937
0
LINE
5
930
100
AcDbEntity
8
1
100
AcDbLine
6
DOT2
62
6
10
2564.644716
20
-440.131271
11
2564.532720
21
-440.019274
0
ENDSEC
0
SECTION
2
OBJECTS
0
DICTIONARY
5
931
100
AcDbDictionary
3
ACAD_GROUP
350
932
3
ACAD_MLINESTYLE
350
933
0
DICTIONARY
5
932
102
{ACAD_REACTORS
330
931
102
}
100
AcDbDictionary
0
DICTIONARY
5
933
102
{ACAD_REACTORS
330
931
102
}
100
AcDbDictionary
3
STANDARD
350
934
0
MLINESTYLE
5
934
102
{ACAD_REACTORS
330
933
102
}
100
AcDbMlineStyle
2
STANDARD
70
0
3

62
0
51
90.0
52
90.0
71
2
49
0.5
62
256
6
BYLAYER
49
-0.5
62
256
6
BYLAYER
0
ENDSEC
0
EOF
