0
SECTION
2
HEADER
9
$ACADVER
1
AC1012
9
$EXTMIN
10
-0.013701
20
-0.013701
30
0.0
9
$EXTMAX
10
12.606299
20
13.386299
30
0.0
9
$LIMMIN
10
-0.348005
20
-0.348005
9
$LIMMAX
10
320.199995
20
340.011995
9
$DIMSCALE
40
1.000000
9
$PDMODE
70
2
9
$PDSIZE
40
0.0
  9
$HANDSEED
  5
c26
0
ENDSEC
0
SECTION
2
CLASSES
0
ENDSEC
0
SECTION
2
TABLES
0
TABLE
2
LTYPE
5
1e
100
AcDbSymbolTable
70
12
0
LTYPE
5
1f
100
AcDbSymbolTableRecord
100
AcDbLinetypeTableRecord
2
BYBLOCK
70
0
3

72
65
73
0
40
0.0
0
LTYPE
5
20
100
AcDbSymbolTableRecord
100
AcDbLinetypeTableRecord
2
BYLAYER
70
0
3

72
65
73
0
40
0.0
0
LTYPE
5
21
100
AcDbSymbolTableRecord
100
AcDbLinetypeTableRecord
2
CONTINUOUS
70
64
3
Solid line
72
65
73
0
40
0.0
0
LTYPE
5
22
100
AcDbSymbolTableRecord
100
AcDbLinetypeTableRecord
2
DASHED
70
64
3
__ __ __ __ __ __ __ __ __ __ __ __ __ __ __
72
65
73
2
40
0.75
49
0.5
74
0
49
-0.25
74
0
0
LTYPE
5
23
100
AcDbSymbolTableRecord
100
AcDbLinetypeTableRecord
2
DOT
70
64
3
...............................................
72
65
73
2
40
0.25
49
0.0
74
0
49
-0.25
74
0
0
LTYPE
5
24
100
AcDbSymbolTableRecord
100
AcDbLinetypeTableRecord
2
DASHDOT
70
64
3
__ . __ . __ . __ . __ . __ . __ . __ . __ . --
72
65
73
4
40
1.0
49
0.5
74
0
49
-0.25
74
0
49
0.0
74
0
49
-0.25
74
0
0
LTYPE
5
25
100
AcDbSymbolTableRecord
100
AcDbLinetypeTableRecord
2
CENTER
70
64
3
____ _ ____ _ ____ _ ____ _ ____ _ ____ _ ____
72
65
73
4
40
2.0
49
1.25
74
0
49
-0.25
74
0
49
0.25
74
0
49
-0.25
74
0
0
LTYPE
5
26
100
AcDbSymbolTableRecord
100
AcDbLinetypeTableRecord
2
PHANTOM
70
64
3
_____ _ _ _____ _ _ _____ _ _ _____ _ _ ____
72
65
73
6
40
2.5
49
1.25
74
0
49
-0.25
74
0
49
0.25
74
0
49
-0.25
74
0
49
0.25
74
0
49
-0.25
74
0
0
LTYPE
5
27
100
AcDbSymbolTableRecord
100
AcDbLinetypeTableRecord
2
HIDDEN
70
64
3
_ _ _ _ _ _ _ _ _ _ _ _ _ _ _ _ _ _ _ _ _ _ _
72
65
73
2
40
0.375
49
0.25
74
0
49
-0.125
74
0
0
LTYPE
5
28
100
AcDbSymbolTableRecord
100
AcDbLinetypeTableRecord
2
BORDER
70
64
3
__ __ . __ __ . __ __ . __ __ . __ __ . __ __
72
65
73
6
40
1.75
49
0.5
74
0
49
-0.25
74
0
49
0.5
74
0
49
-0.25
74
0
49
0.0
74
0
49
-0.25
74
0
0
LTYPE
5
29
100
AcDbSymbolTableRecord
100
AcDbLinetypeTableRecord
2
DIVIDE
70
64
3
__ . . __ . . __ . . __ . . __ . . __ . . __
72
65
73
6
40
1.25
49
0.5
74
0
49
-0.25
74
0
49
0.0
74
0
49
-0.25
74
0
49
0.0
74
0
49
-0.25
74
0
0
LTYPE
5
2a
100
AcDbSymbolTableRecord
100
AcDbLinetypeTableRecord
2
DOT2
70
64
3
...............................................
72
65
73
2
40
0.125
49
0.0
74
0
49
-0.125
74
0
0
ENDTAB
0
TABLE
2
STYLE
5
2b
100
AcDbSymbolTable
70
1
0
STYLE
5
2c
100
AcDbSymbolTableRecord
100
AcDbTextStyleTableRecord
2
STANDARD
70
64
40
0.0
41
1.0
50
0.0
71
0
42
5.0
3
txt
4
bigfont
0
ENDTAB
0
TABLE
2
LAYER
5
2d
100
AcDbSymbolTable
70
3
0
LAYER
5
2e
100
AcDbSymbolTableRecord
100
AcDbLayerTableRecord
2
0
70
0
62
7
6
CONTINUOUS
0
LAYER
5
2f
100
AcDbSymbolTableRecord
100
AcDbLayerTableRecord
2
1
70
0
62
7
6
CONTINUOUS
0
LAYER
5
30
100
AcDbSymbolTableRecord
100
AcDbLayerTableRecord
2
0
70
0
62
7
6
CONTINUOUS
0
ENDTAB
0
TABLE
2
APPID
5
31
100
AcDbSymbolTable
70
1
0
APPID
5
32
100
AcDbSymbolTableRecord
100
AcDbRegAppTableRecord
2
ACAD
70
64
0
ENDTAB
0
TABLE
2
DIMSTYLE
5
33
100
AcDbSymbolTable
70
0
0
ENDTAB
0
TABLE
2
UCS
5
34
100
AcDbSymbolTable
70
0
0
ENDTAB
0
TABLE
2
VIEW
5
35
100
AcDbSymbolTable
70
0
0
ENDTAB
0
TABLE
2
VPORT
5
36
100
AcDbSymbolTable
70
0
0
ENDTAB
0
TABLE
2
BLOCK_RECORD
5
37
100
AcDbSymbolTable
70
0
0
BLOCK_RECORD
5
38
100
AcDbSymbolTableRecord
100
AcDbBlockTableRecord
2
*MODEL_SPACE
0
BLOCK_RECORD
5
39
100
AcDbSymbolTableRecord
100
AcDbBlockTableRecord
2
*PAPER_SPACE
0
BLOCK_RECORD
5
3a
100
AcDbSymbolTableRecord
100
AcDbBlockTableRecord
2
OPEN
0
BLOCK_RECORD
5
3b
100
AcDbSymbolTableRecord
100
AcDbBlockTableRecord
2
HALF
0
BLOCK_RECORD
5
3c
100
AcDbSymbolTableRecord
100
AcDbBlockTableRecord
2
CLOSEDBLANK
0
BLOCK_RECORD
5
3d
100
AcDbSymbolTableRecord
100
AcDbBlockTableRecord
2
HALFCLOSE_R
0
BLOCK_RECORD
5
3e
100
AcDbSymbolTableRecord
100
AcDbBlockTableRecord
2
DOT
0
BLOCK_RECORD
5
3f
100
AcDbSymbolTableRecord
100
AcDbBlockTableRecord
2
HALFOPEN_R
0
BLOCK_RECORD
5
40
100
AcDbSymbolTableRecord
100
AcDbBlockTableRecord
2
CLOSEDF
0
BLOCK_RECORD
5
41
100
AcDbSymbolTableRecord
100
AcDbBlockTableRecord
2
HALF_R
0
ENDTAB
0
ENDSEC
0
SECTION
2
BLOCKS
0
BLOCK
5
42
100
AcDbEntity
8
0
100
AcDbBlockBegin
2
*MODEL_SPACE
70
0
10
0.0
20
0.0
30
0.0
3
*MODEL_SPACE
1

0
ENDBLK
5
43
100
AcDbEntity
8
0
100
AcDbBlockEnd
0
BLOCK
5
44
100
AcDbEntity
67
1
8
0
100
AcDbBlockBegin
2
*PAPER_SPACE
70
0
10
0.0
20
0.0
30
0.0
3
*PAPER_SPACE
1

0
ENDBLK
5
45
100
AcDbEntity
67
1
8
0
100
AcDbBlockEnd
0
BLOCK
5
46
100
AcDbEntity
8
0
100
AcDbBlockBegin
2
OPEN
70
0
10
0.0
20
0.0
30
0.0
3
OPEN
1

0
LINE
5
47
100
AcDbEntity
8
0
6
BYBLOCK
62
0
100
AcDbLine
10
0.000000
20
0.000000
11
-1.000000
21
0.000000
0
LINE
5
48
100
AcDbEntity
8
0
6
BYBLOCK
62
0
100
AcDbLine
10
-1.000000
20
-0.166667
11
0.000000
21
0.000000
0
LINE
5
49
100
AcDbEntity
8
0
6
BYBLOCK
62
0
100
AcDbLine
10
-1.000000
20
0.166667
11
0.000000
21
0.000000
0
ENDBLK
5
4a
100
AcDbEntity
8
0
100
AcDbBlockEnd
0
BLOCK
5
4b
100
AcDbEntity
8
0
100
AcDbBlockBegin
2
HALF
70
0
10
0.0
20
0.0
30
0.0
3
HALF
1

0
SOLID
5
4c
100
AcDbEntity
8
0
6
BYBLOCK
62
0
100
AcDbTrace
10
-1.000000
20
0.166667
11
-1.000000
21
-0.166667
12
0.000000
22
0.000000
13
0.000000
23
0.000000
0
ENDBLK
5
4d
100
AcDbEntity
8
0
100
AcDbBlockEnd
0
BLOCK
5
4e
100
AcDbEntity
8
0
100
AcDbBlockBegin
2
CLOSEDBLANK
70
0
10
0.0
20
0.0
30
0.0
3
CLOSEDBLANK
1

0
LINE
5
4f
100
AcDbEntity
8
0
6
BYBLOCK
62
0
100
AcDbLine
10
-1.000000
20
0.166667
11
-1.000000
21
-0.166667
0
LINE
5
50
100
AcDbEntity
8
0
6
BYBLOCK
62
0
100
AcDbLine
10
0.000000
20
0.000000
11
-1.000000
21
-0.166667
0
LINE
5
51
100
AcDbEntity
8
0
6
BYBLOCK
62
0
100
AcDbLine
10
-1.000000
20
0.166667
11
0.000000
21
0.000000
0
ENDBLK
5
52
100
AcDbEntity
8
0
100
AcDbBlockEnd
0
BLOCK
5
53
100
AcDbEntity
8
0
100
AcDbBlockBegin
2
HALFCLOSE_R
70
0
10
0.0
20
0.0
30
0.0
3
HALFCLOSE_R
1

0
LINE
5
54
100
AcDbEntity
8
0
6
BYBLOCK
62
0
100
AcDbLine
10
-1.000000
20
-0.166667
11
-1.000000
21
0.000000
0
LINE
5
55
100
AcDbEntity
8
0
6
BYBLOCK
62
0
100
AcDbLine
10
-1.000000
20
-0.166667
11
0.000000
21
0.000000
0
LINE
5
56
100
AcDbEntity
8
0
6
BYBLOCK
62
0
100
AcDbLine
10
0.000000
20
0.000000
11
-1.000000
21
0.000000
0
ENDBLK
5
57
100
AcDbEntity
8
0
100
AcDbBlockEnd
0
BLOCK
5
58
100
AcDbEntity
8
0
100
AcDbBlockBegin
2
DOT
70
0
10
0.0
20
0.0
30
0.0
3
DOT
1

0
LINE
5
59
100
AcDbEntity
8
0
6
BYBLOCK
62
0
100
AcDbLine
10
0.000000
20
0.000000
11
-1.000000
21
0.000000
0
POLYLINE
5
5a
100
AcDbEntity
8
0
6
BYBLOCK
62
0
100
AcDb2dPolyline
66
1
10
0.0
20
0.0
30
0.0
70
1
40
0.166667
41
0.166667
0
VERTEX
5
5b
100
AcDbEntity
8
0
100
AcDbVertex
100
AcDb2dVertex
62
10
10
-0.083333
20
0.000000
42
1.000000
0
VERTEX
5
5c
100
AcDbEntity
8
0
100
AcDbVertex
100
AcDb2dVertex
62
10
10
0.083333
20
0.000000
42
1.000000
0
SEQEND
5
5d
100
AcDbEntity
8
0
0
ENDBLK
5
5e
100
AcDbEntity
8
0
100
AcDbBlockEnd
0
BLOCK
5
5f
100
AcDbEntity
8
0
100
AcDbBlockBegin
2
HALFOPEN_R
70
0
10
0.0
20
0.0
30
0.0
3
HALFOPEN_R
1

0
LINE
5
60
100
AcDbEntity
8
0
6
BYBLOCK
62
0
100
AcDbLine
10
-1.000000
20
-0.166667
11
0.000000
21
0.000000
0
LINE
5
61
100
AcDbEntity
8
0
6
BYBLOCK
62
0
100
AcDbLine
10
0.000000
20
0.000000
11
-1.000000
21
0.000000
0
ENDBLK
5
62
100
AcDbEntity
8
0
100
AcDbBlockEnd
0
BLOCK
5
63
100
AcDbEntity
8
0
100
AcDbBlockBegin
2
CLOSEDF
70
0
10
0.0
20
0.0
30
0.0
3
CLOSEDF
1

0
SOLID
5
64
100
AcDbEntity
8
0
6
BYBLOCK
62
0
100
AcDbTrace
10
-1.000000
20
0.166667
11
-1.000000
21
-0.166667
12
0.000000
22
0.000000
13
0.000000
23
0.000000
0
ENDBLK
5
65
100
AcDbEntity
8
0
100
AcDbBlockEnd
0
BLOCK
5
66
100
AcDbEntity
8
0
100
AcDbBlockBegin
2
HALF_R
70
0
10
0.0
20
0.0
30
0.0
3
HALF_R
1

0
SOLID
5
67
100
AcDbEntity
8
0
6
BYBLOCK
62
0
100
AcDbTrace
10
-1.000000
20
-0.166667
11
-1.000000
21
0.000000
12
0.000000
22
0.000000
13
0.000000
23
0.000000
0
ENDBLK
5
68
100
AcDbEntity
8
0
100
AcDbBlockEnd
0
ENDSEC
0
SECTION
2
ENTITIES
0
POLYLINE
5
69
100
AcDbEntity
8
1
6
CONTINUOUS
62
5
100
AcDb2dPolyline
66
1
10
0.0
20
0.0
30
0.0
70
0
0
VERTEX
5
6a
100
AcDbEntity
8
1
100
AcDbVertex
100
AcDb2dVertex
62
5
10
264.500000
20
329.312500
0
VERTEX
5
6b
100
AcDbEntity
8
1
100
AcDbVertex
100
AcDb2dVertex
62
5
10
263.500000
20
326.500000
0
VERTEX
5
6c
100
AcDbEntity
8
1
100
AcDbVertex
100
AcDb2dVertex
62
5
10
262.250000
20
324.312500
0
SEQEND
5
6d
100
AcDbEntity
8
1
0
LINE
5
6e
100
AcDbEntity
8
1
100
AcDbLine
6
CONTINUOUS
62
5
10
263.500000
20
326.500000
11
263.500000
21
320.562500
0
LINE
5
6f
100
AcDbEntity
8
1
100
AcDbLine
6
CONTINUOUS
62
5
10
264.250000
20
326.500000
11
269.500000
21
326.500000
0
POLYLINE
5
70
100
AcDbEntity
8
1
6
CONTINUOUS
62
5
100
AcDb2dPolyline
66
1
10
0.0
20
0.0
30
0.0
70
0
0
VERTEX
5
71
100
AcDbEntity
8
1
100
AcDbVertex
100
AcDb2dVertex
62
5
10
267.750000
20
329.312500
0
VERTEX
5
72
100
AcDbEntity
8
1
100
AcDbVertex
100
AcDb2dVertex
62
5
10
267.750000
20
320.875000
0
VERTEX
5
73
100
AcDbEntity
8
1
100
AcDbVertex
100
AcDb2dVertex
62
5
10
266.250000
20
321.187500
0
SEQEND
5
74
100
AcDbEntity
8
1
0
LINE
5
75
100
AcDbEntity
8
1
100
AcDbLine
6
CONTINUOUS
62
5
10
265.250000
20
325.250000
11
266.250000
21
323.375000
0
LINE
5
76
100
AcDbEntity
8
1
100
AcDbLine
6
CONTINUOUS
62
5
10
256.500000
20
328.375000
11
256.500000
21
324.312500
0
LINE
5
77
100
AcDbEntity
8
1
100
AcDbLine
6
CONTINUOUS
62
5
10
254.750000
20
326.500000
11
261.000000
21
326.500000
0
POLYLINE
5
78
100
AcDbEntity
8
1
6
CONTINUOUS
62
5
100
AcDb2dPolyline
66
1
10
0.0
20
0.0
30
0.0
70
0
0
VERTEX
5
79
100
AcDbEntity
8
1
100
AcDbVertex
100
AcDb2dVertex
62
5
10
259.250000
20
328.687500
0
VERTEX
5
7a
100
AcDbEntity
8
1
100
AcDbVertex
100
AcDb2dVertex
62
5
10
259.250000
20
324.937500
0
VERTEX
5
7b
100
AcDbEntity
8
1
100
AcDbVertex
100
AcDb2dVertex
62
5
10
259.000000
20
323.687500
0
VERTEX
5
7c
100
AcDbEntity
8
1
100
AcDbVertex
100
AcDb2dVertex
62
5
10
258.250000
20
322.437500
0
VERTEX
5
7d
100
AcDbEntity
8
1
100
AcDbVertex
100
AcDb2dVertex
62
5
10
257.500000
20
321.500000
0
SEQEND
5
7e
100
AcDbEntity
8
1
0
POLYLINE
5
7f
100
AcDbEntity
8
1
6
CONTINUOUS
62
5
100
AcDb2dPolyline
66
1
10
0.0
20
0.0
30
0.0
70
0
0
VERTEX
5
80
100
AcDbEntity
8
1
100
AcDbVertex
100
AcDb2dVertex
62
5
10
232.000000
20
326.187500
0
VERTEX
5
81
100
AcDbEntity
8
1
100
AcDbVertex
100
AcDb2dVertex
62
5
10
235.000000
20
326.812500
0
VERTEX
5
82
100
AcDbEntity
8
1
100
AcDbVertex
100
AcDb2dVertex
62
5
10
235.750000
20
327.125000
0
SEQEND
5
83
100
AcDbEntity
8
1
0
POLYLINE
5
84
100
AcDbEntity
8
1
6
CONTINUOUS
62
5
100
AcDb2dPolyline
66
1
10
0.0
20
0.0
30
0.0
70
0
0
VERTEX
5
85
100
AcDbEntity
8
1
100
AcDbVertex
100
AcDb2dVertex
62
5
10
233.500000
20
328.687500
0
VERTEX
5
86
100
AcDbEntity
8
1
100
AcDbVertex
100
AcDb2dVertex
62
5
10
234.500000
20
326.187500
0
VERTEX
5
87
100
AcDbEntity
8
1
100
AcDbVertex
100
AcDb2dVertex
62
5
10
235.750000
20
324.000000
0
VERTEX
5
88
100
AcDbEntity
8
1
100
AcDbVertex
100
AcDb2dVertex
62
5
10
234.000000
20
324.625000
0
VERTEX
5
89
100
AcDbEntity
8
1
100
AcDbVertex
100
AcDb2dVertex
62
5
10
232.750000
20
324.625000
0
VERTEX
5
8a
100
AcDbEntity
8
1
100
AcDbVertex
100
AcDb2dVertex
62
5
10
232.000000
20
324.000000
0
VERTEX
5
8b
100
AcDbEntity
8
1
100
AcDbVertex
100
AcDb2dVertex
62
5
10
231.750000
20
323.375000
0
VERTEX
5
8c
100
AcDbEntity
8
1
100
AcDbVertex
100
AcDb2dVertex
62
5
10
231.750000
20
323.062500
0
VERTEX
5
8d
100
AcDbEntity
8
1
100
AcDbVertex
100
AcDb2dVertex
62
5
10
232.250000
20
322.437500
0
VERTEX
5
8e
100
AcDbEntity
8
1
100
AcDbVertex
100
AcDb2dVertex
62
5
10
233.000000
20
322.125000
0
VERTEX
5
8f
100
AcDbEntity
8
1
100
AcDbVertex
100
AcDb2dVertex
62
5
10
234.750000
20
321.812500
0
SEQEND
5
90
100
AcDbEntity
8
1
0
POLYLINE
5
91
100
AcDbEntity
8
1
6
CONTINUOUS
62
5
100
AcDb2dPolyline
66
1
10
0.0
20
0.0
30
0.0
70
0
0
VERTEX
5
92
100
AcDbEntity
8
1
100
AcDbVertex
100
AcDb2dVertex
62
5
10
239.000000
20
325.562500
0
VERTEX
5
93
100
AcDbEntity
8
1
100
AcDbVertex
100
AcDb2dVertex
62
5
10
244.250000
20
326.187500
0
VERTEX
5
94
100
AcDbEntity
8
1
100
AcDbVertex
100
AcDb2dVertex
62
5
10
244.250000
20
325.875000
0
VERTEX
5
95
100
AcDbEntity
8
1
100
AcDbVertex
100
AcDb2dVertex
62
5
10
243.000000
20
324.312500
0
SEQEND
5
96
100
AcDbEntity
8
1
0
POLYLINE
5
97
100
AcDbEntity
8
1
6
CONTINUOUS
62
5
100
AcDb2dPolyline
66
1
10
0.0
20
0.0
30
0.0
70
0
0
VERTEX
5
98
100
AcDbEntity
8
1
100
AcDbVertex
100
AcDb2dVertex
62
5
10
241.000000
20
328.375000
0
VERTEX
5
99
100
AcDbEntity
8
1
100
AcDbVertex
100
AcDb2dVertex
62
5
10
241.000000
20
322.437500
0
VERTEX
5
9a
100
AcDbEntity
8
1
100
AcDbVertex
100
AcDb2dVertex
62
5
10
241.500000
20
321.812500
0
VERTEX
5
9b
100
AcDbEntity
8
1
100
AcDbVertex
100
AcDb2dVertex
62
5
10
244.250000
20
321.812500
0
SEQEND
5
9c
100
AcDbEntity
8
1
0
POLYLINE
5
9d
100
AcDbEntity
8
1
6
CONTINUOUS
62
5
100
AcDb2dPolyline
66
1
10
0.0
20
0.0
30
0.0
70
0
0
VERTEX
5
9e
100
AcDbEntity
8
1
100
AcDbVertex
100
AcDb2dVertex
62
5
10
237.250000
20
319.625000
0
VERTEX
5
9f
100
AcDbEntity
8
1
100
AcDbVertex
100
AcDb2dVertex
62
5
10
236.500000
20
318.375000
0
VERTEX
5
a0
100
AcDbEntity
8
1
100
AcDbVertex
100
AcDb2dVertex
62
5
10
235.750000
20
317.437500
0
VERTEX
5
a1
100
AcDbEntity
8
1
100
AcDbVertex
100
AcDb2dVertex
62
5
10
234.750000
20
316.500000
0
SEQEND
5
a2
100
AcDbEntity
8
1
0
POLYLINE
5
a3
100
AcDbEntity
8
1
6
CONTINUOUS
62
5
100
AcDb2dPolyline
66
1
10
0.0
20
0.0
30
0.0
70
0
0
VERTEX
5
a4
100
AcDbEntity
8
1
100
AcDbVertex
100
AcDb2dVertex
62
5
10
237.000000
20
319.000000
0
VERTEX
5
a5
100
AcDbEntity
8
1
100
AcDbVertex
100
AcDb2dVertex
62
5
10
239.250000
20
319.000000
0
VERTEX
5
a6
100
AcDbEntity
8
1
100
AcDbVertex
100
AcDb2dVertex
62
5
10
238.000000
20
317.125000
0
SEQEND
5
a7
100
AcDbEntity
8
1
0
POLYLINE
5
a8
100
AcDbEntity
8
1
6
CONTINUOUS
62
5
100
AcDb2dPolyline
66
1
10
0.0
20
0.0
30
0.0
70
0
0
VERTEX
5
a9
100
AcDbEntity
8
1
100
AcDbVertex
100
AcDb2dVertex
62
5
10
235.750000
20
317.125000
0
VERTEX
5
aa
100
AcDbEntity
8
1
100
AcDbVertex
100
AcDb2dVertex
62
5
10
240.250000
20
317.125000
0
VERTEX
5
ab
100
AcDbEntity
8
1
100
AcDbVertex
100
AcDb2dVertex
62
5
10
240.250000
20
314.312500
0
VERTEX
5
ac
100
AcDbEntity
8
1
100
AcDbVertex
100
AcDb2dVertex
62
5
10
235.750000
20
314.312500
0
SEQEND
5
ad
100
AcDbEntity
8
1
0
LINE
5
ae
100
AcDbEntity
8
1
100
AcDbLine
6
CONTINUOUS
62
5
10
238.000000
20
317.125000
11
238.000000
21
314.312500
0
POLYLINE
5
af
100
AcDbEntity
8
1
6
CONTINUOUS
62
5
100
AcDb2dPolyline
66
1
10
0.0
20
0.0
30
0.0
70
0
0
VERTEX
5
b0
100
AcDbEntity
8
1
100
AcDbVertex
100
AcDb2dVertex
62
5
10
235.750000
20
317.125000
0
VERTEX
5
b1
100
AcDbEntity
8
1
100
AcDbVertex
100
AcDb2dVertex
62
5
10
235.750000
20
311.812500
0
VERTEX
5
b2
100
AcDbEntity
8
1
100
AcDbVertex
100
AcDb2dVertex
62
5
10
236.250000
20
311.187500
0
VERTEX
5
b3
100
AcDbEntity
8
1
100
AcDbVertex
100
AcDb2dVertex
62
5
10
241.250000
20
311.187500
0
VERTEX
5
b4
100
AcDbEntity
8
1
100
AcDbVertex
100
AcDb2dVertex
62
5
10
241.250000
20
312.437500
0
SEQEND
5
b5
100
AcDbEntity
8
1
0
LINE
5
b6
100
AcDbEntity
8
1
100
AcDbLine
6
CONTINUOUS
62
5
10
247.750000
20
327.437500
11
248.750000
21
326.187500
0
POLYLINE
5
b7
100
AcDbEntity
8
1
6
CONTINUOUS
62
5
100
AcDb2dPolyline
66
1
10
0.0
20
0.0
30
0.0
70
0
0
VERTEX
5
b8
100
AcDbEntity
8
1
100
AcDbVertex
100
AcDb2dVertex
62
5
10
247.500000
20
322.437500
0
VERTEX
5
b9
100
AcDbEntity
8
1
100
AcDbVertex
100
AcDb2dVertex
62
5
10
249.250000
20
323.375000
0
VERTEX
5
ba
100
AcDbEntity
8
1
100
AcDbVertex
100
AcDb2dVertex
62
5
10
250.750000
20
324.625000
0
VERTEX
5
bb
100
AcDbEntity
8
1
100
AcDbVertex
100
AcDb2dVertex
62
5
10
252.250000
20
326.187500
0
SEQEND
5
bc
100
AcDbEntity
8
1
0
POLYLINE
5
bd
100
AcDbEntity
8
1
6
CONTINUOUS
62
5
100
AcDb2dPolyline
66
1
10
0.0
20
0.0
30
0.0
70
0
0
VERTEX
5
be
100
AcDbEntity
8
1
100
AcDbVertex
100
AcDb2dVertex
62
5
10
224.000000
20
328.062500
0
VERTEX
5
bf
100
AcDbEntity
8
1
100
AcDbVertex
100
AcDb2dVertex
62
5
10
226.500000
20
328.375000
0
VERTEX
5
c0
100
AcDbEntity
8
1
100
AcDbVertex
100
AcDb2dVertex
62
5
10
223.750000
20
324.937500
0
VERTEX
5
c1
100
AcDbEntity
8
1
100
AcDbVertex
100
AcDb2dVertex
62
5
10
225.000000
20
325.875000
0
VERTEX
5
c2
100
AcDbEntity
8
1
100
AcDbVertex
100
AcDb2dVertex
62
5
10
225.750000
20
326.187500
0
VERTEX
5
c3
100
AcDbEntity
8
1
100
AcDbVertex
100
AcDb2dVertex
62
5
10
226.500000
20
326.187500
0
VERTEX
5
c4
100
AcDbEntity
8
1
100
AcDbVertex
100
AcDb2dVertex
62
5
10
227.250000
20
325.875000
0
VERTEX
5
c5
100
AcDbEntity
8
1
100
AcDbVertex
100
AcDb2dVertex
62
5
10
227.750000
20
325.250000
0
VERTEX
5
c6
100
AcDbEntity
8
1
100
AcDbVertex
100
AcDb2dVertex
62
5
10
228.000000
20
324.625000
0
VERTEX
5
c7
100
AcDbEntity
8
1
100
AcDbVertex
100
AcDb2dVertex
62
5
10
228.000000
20
324.000000
0
VERTEX
5
c8
100
AcDbEntity
8
1
100
AcDbVertex
100
AcDb2dVertex
62
5
10
227.750000
20
323.062500
0
VERTEX
5
c9
100
AcDbEntity
8
1
100
AcDbVertex
100
AcDb2dVertex
62
5
10
227.250000
20
322.437500
0
VERTEX
5
ca
100
AcDbEntity
8
1
100
AcDbVertex
100
AcDb2dVertex
62
5
10
226.500000
20
322.125000
0
VERTEX
5
cb
100
AcDbEntity
8
1
100
AcDbVertex
100
AcDb2dVertex
62
5
10
225.250000
20
322.125000
0
VERTEX
5
cc
100
AcDbEntity
8
1
100
AcDbVertex
100
AcDb2dVertex
62
5
10
224.750000
20
322.437500
0
VERTEX
5
cd
100
AcDbEntity
8
1
100
AcDbVertex
100
AcDb2dVertex
62
5
10
224.500000
20
323.062500
0
VERTEX
5
ce
100
AcDbEntity
8
1
100
AcDbVertex
100
AcDb2dVertex
62
5
10
224.500000
20
323.375000
0
VERTEX
5
cf
100
AcDbEntity
8
1
100
AcDbVertex
100
AcDb2dVertex
62
5
10
224.750000
20
323.687500
0
VERTEX
5
d0
100
AcDbEntity
8
1
100
AcDbVertex
100
AcDb2dVertex
62
5
10
225.250000
20
324.000000
0
VERTEX
5
d1
100
AcDbEntity
8
1
100
AcDbVertex
100
AcDb2dVertex
62
5
10
225.750000
20
324.000000
0
VERTEX
5
d2
100
AcDbEntity
8
1
100
AcDbVertex
100
AcDb2dVertex
62
5
10
226.250000
20
323.687500
0
VERTEX
5
d3
100
AcDbEntity
8
1
100
AcDbVertex
100
AcDb2dVertex
62
5
10
226.500000
20
323.375000
0
VERTEX
5
d4
100
AcDbEntity
8
1
100
AcDbVertex
100
AcDb2dVertex
62
5
10
226.750000
20
322.750000
0
VERTEX
5
d5
100
AcDbEntity
8
1
100
AcDbVertex
100
AcDb2dVertex
62
5
10
226.750000
20
322.437500
0
SEQEND
5
d6
100
AcDbEntity
8
1
0
POLYLINE
5
d7
100
AcDbEntity
8
1
6
CONTINUOUS
62
5
100
AcDb2dPolyline
66
1
10
0.0
20
0.0
30
0.0
70
1
0
VERTEX
5
d8
100
AcDbEntity
8
1
100
AcDbVertex
100
AcDb2dVertex
62
5
10
214.750000
20
328.687500
0
VERTEX
5
d9
100
AcDbEntity
8
1
100
AcDbVertex
100
AcDb2dVertex
62
5
10
214.750000
20
323.687500
0
VERTEX
5
da
100
AcDbEntity
8
1
100
AcDbVertex
100
AcDb2dVertex
62
5
10
216.750000
20
323.687500
0
VERTEX
5
db
100
AcDbEntity
8
1
100
AcDbVertex
100
AcDb2dVertex
62
5
10
216.750000
20
328.687500
0
VERTEX
5
dc
100
AcDbEntity
8
1
100
AcDbVertex
100
AcDb2dVertex
62
5
10
214.750000
20
328.687500
0
SEQEND
5
dd
100
AcDbEntity
8
1
0
LINE
5
de
100
AcDbEntity
8
1
100
AcDbLine
6
CONTINUOUS
62
5
10
214.750000
20
326.187500
11
216.750000
21
326.187500
0
POLYLINE
5
df
100
AcDbEntity
8
1
6
CONTINUOUS
62
5
100
AcDb2dPolyline
66
1
10
0.0
20
0.0
30
0.0
70
0
0
VERTEX
5
e0
100
AcDbEntity
8
1
100
AcDbVertex
100
AcDb2dVertex
62
5
10
219.500000
20
321.500000
0
VERTEX
5
e1
100
AcDbEntity
8
1
100
AcDbVertex
100
AcDb2dVertex
62
5
10
220.750000
20
320.875000
0
VERTEX
5
e2
100
AcDbEntity
8
1
100
AcDbVertex
100
AcDb2dVertex
62
5
10
220.750000
20
329.312500
0
VERTEX
5
e3
100
AcDbEntity
8
1
100
AcDbVertex
100
AcDb2dVertex
62
5
10
218.250000
20
329.312500
0
VERTEX
5
e4
100
AcDbEntity
8
1
100
AcDbVertex
100
AcDb2dVertex
62
5
10
218.250000
20
323.062500
0
VERTEX
5
e5
100
AcDbEntity
8
1
100
AcDbVertex
100
AcDb2dVertex
62
5
10
218.000000
20
322.125000
0
VERTEX
5
e6
100
AcDbEntity
8
1
100
AcDbVertex
100
AcDb2dVertex
62
5
10
217.750000
20
321.500000
0
VERTEX
5
e7
100
AcDbEntity
8
1
100
AcDbVertex
100
AcDb2dVertex
62
5
10
217.250000
20
320.875000
0
SEQEND
5
e8
100
AcDbEntity
8
1
0
LINE
5
e9
100
AcDbEntity
8
1
100
AcDbLine
6
CONTINUOUS
62
5
10
218.250000
20
326.812500
11
220.750000
21
326.812500
0
LINE
5
ea
100
AcDbEntity
8
1
100
AcDbLine
6
CONTINUOUS
62
5
10
218.250000
20
324.312500
11
220.750000
21
324.312500
0
POLYLINE
5
eb
100
AcDbEntity
8
1
6
CONTINUOUS
62
5
100
AcDb2dPolyline
66
1
10
0.0
20
0.0
30
0.0
70
0
0
VERTEX
5
ec
100
AcDbEntity
8
1
100
AcDbVertex
100
AcDb2dVertex
62
5
10
211.750000
20
315.562500
0
VERTEX
5
ed
100
AcDbEntity
8
1
100
AcDbVertex
100
AcDb2dVertex
62
5
10
211.750000
20
317.750000
0
VERTEX
5
ee
100
AcDbEntity
8
1
100
AcDbVertex
100
AcDb2dVertex
62
5
10
215.750000
20
317.750000
0
VERTEX
5
ef
100
AcDbEntity
8
1
100
AcDbVertex
100
AcDb2dVertex
62
5
10
215.750000
20
316.812500
0
VERTEX
5
f0
100
AcDbEntity
8
1
100
AcDbVertex
100
AcDb2dVertex
62
5
10
215.500000
20
315.250000
0
VERTEX
5
f1
100
AcDbEntity
8
1
100
AcDbVertex
100
AcDb2dVertex
62
5
10
215.000000
20
314.000000
0
VERTEX
5
f2
100
AcDbEntity
8
1
100
AcDbVertex
100
AcDb2dVertex
62
5
10
214.500000
20
313.062500
0
VERTEX
5
f3
100
AcDbEntity
8
1
100
AcDbVertex
100
AcDb2dVertex
62
5
10
213.500000
20
311.812500
0
SEQEND
5
f4
100
AcDbEntity
8
1
0
POLYLINE
5
f5
100
AcDbEntity
8
1
6
CONTINUOUS
62
5
100
AcDb2dPolyline
66
1
10
0.0
20
0.0
30
0.0
70
0
0
VERTEX
5
f6
100
AcDbEntity
8
1
100
AcDbVertex
100
AcDb2dVertex
62
5
10
223.750000
20
318.687500
0
VERTEX
5
f7
100
AcDbEntity
8
1
100
AcDbVertex
100
AcDb2dVertex
62
5
10
221.750000
20
316.187500
0
VERTEX
5
f8
100
AcDbEntity
8
1
100
AcDbVertex
100
AcDb2dVertex
62
5
10
219.500000
20
314.625000
0
SEQEND
5
f9
100
AcDbEntity
8
1
0
LINE
5
fa
100
AcDbEntity
8
1
100
AcDbLine
6
CONTINUOUS
62
5
10
222.250000
20
316.812500
11
222.250000
21
311.500000
0
LINE
5
fb
100
AcDbEntity
8
1
100
AcDbLine
6
CONTINUOUS
62
5
10
203.250000
20
316.187500
11
208.250000
21
316.187500
0
POLYLINE
5
fc
100
AcDbEntity
8
1
6
CONTINUOUS
62
5
100
AcDb2dPolyline
66
1
10
0.0
20
0.0
30
0.0
70
0
0
VERTEX
5
fd
100
AcDbEntity
8
1
100
AcDbVertex
100
AcDb2dVertex
62
5
10
205.750000
20
318.062500
0
VERTEX
5
fe
100
AcDbEntity
8
1
100
AcDbVertex
100
AcDb2dVertex
62
5
10
205.750000
20
311.812500
0
VERTEX
5
ff
100
AcDbEntity
8
1
100
AcDbVertex
100
AcDb2dVertex
62
5
10
205.250000
20
311.812500
0
SEQEND
5
100
100
AcDbEntity
8
1
0
LINE
5
101
100
AcDbEntity
8
1
100
AcDbLine
6
CONTINUOUS
62
5
10
204.500000
20
314.625000
11
203.250000
21
312.750000
0
LINE
5
102
100
AcDbEntity
8
1
100
AcDbLine
6
CONTINUOUS
62
5
10
207.250000
20
314.625000
11
208.500000
21
313.062500
0
LINE
5
103
100
AcDbEntity
8
1
100
AcDbLine
6
CONTINUOUS
62
5
10
192.000000
20
329.312500
11
191.000000
21
327.750000
0
LINE
5
104
100
AcDbEntity
8
1
100
AcDbLine
6
CONTINUOUS
62
5
10
190.750000
20
328.062500
11
191.750000
21
326.812500
0
LINE
5
105
100
AcDbEntity
8
1
100
AcDbLine
6
CONTINUOUS
62
5
10
192.750000
20
328.375000
11
190.750000
21
325.250000
0
LINE
5
106
100
AcDbEntity
8
1
100
AcDbLine
6
CONTINUOUS
62
5
10
190.500000
20
325.250000
11
193.000000
21
325.250000
0
LINE
5
107
100
AcDbEntity
8
1
100
AcDbLine
6
CONTINUOUS
62
5
10
192.750000
20
326.187500
11
193.250000
21
324.625000
0
LINE
5
108
100
AcDbEntity
8
1
100
AcDbLine
6
CONTINUOUS
62
5
10
192.000000
20
325.250000
11
192.000000
21
320.875000
0
LINE
5
109
100
AcDbEntity
8
1
100
AcDbLine
6
CONTINUOUS
62
5
10
191.250000
20
324.312500
11
190.750000
21
322.437500
0
LINE
5
10a
100
AcDbEntity
8
1
100
AcDbLine
6
CONTINUOUS
62
5
10
192.750000
20
324.312500
11
193.250000
21
322.750000
0
LINE
5
10b
100
AcDbEntity
8
1
100
AcDbLine
6
CONTINUOUS
62
5
10
195.000000
20
329.625000
11
194.500000
21
328.687500
0
POLYLINE
5
10c
100
AcDbEntity
8
1
6
CONTINUOUS
62
5
100
AcDb2dPolyline
66
1
10
0.0
20
0.0
30
0.0
70
1
0
VERTEX
5
10d
100
AcDbEntity
8
1
100
AcDbVertex
100
AcDb2dVertex
62
5
10
193.750000
20
328.687500
0
VERTEX
5
10e
100
AcDbEntity
8
1
100
AcDbVertex
100
AcDb2dVertex
62
5
10
193.750000
20
325.562500
0
VERTEX
5
10f
100
AcDbEntity
8
1
100
AcDbVertex
100
AcDb2dVertex
62
5
10
196.750000
20
325.562500
0
VERTEX
5
110
100
AcDbEntity
8
1
100
AcDbVertex
100
AcDb2dVertex
62
5
10
196.750000
20
328.687500
0
VERTEX
5
111
100
AcDbEntity
8
1
100
AcDbVertex
100
AcDb2dVertex
62
5
10
193.750000
20
328.687500
0
SEQEND
5
112
100
AcDbEntity
8
1
0
LINE
5
113
100
AcDbEntity
8
1
100
AcDbLine
6
CONTINUOUS
62
5
10
193.750000
20
327.125000
11
196.750000
21
327.125000
0
POLYLINE
5
114
100
AcDbEntity
8
1
6
CONTINUOUS
62
5
100
AcDb2dPolyline
66
1
10
0.0
20
0.0
30
0.0
70
0
0
VERTEX
5
115
100
AcDbEntity
8
1
100
AcDbVertex
100
AcDb2dVertex
62
5
10
195.250000
20
325.562500
0
VERTEX
5
116
100
AcDbEntity
8
1
100
AcDbVertex
100
AcDb2dVertex
62
5
10
195.250000
20
321.500000
0
VERTEX
5
117
100
AcDbEntity
8
1
100
AcDbVertex
100
AcDb2dVertex
62
5
10
195.000000
20
321.187500
0
VERTEX
5
118
100
AcDbEntity
8
1
100
AcDbVertex
100
AcDb2dVertex
62
5
10
194.500000
20
321.187500
0
SEQEND
5
119
100
AcDbEntity
8
1
0
POLYLINE
5
11a
100
AcDbEntity
8
1
6
CONTINUOUS
62
5
100
AcDb2dPolyline
66
1
10
0.0
20
0.0
30
0.0
70
0
0
VERTEX
5
11b
100
AcDbEntity
8
1
100
AcDbVertex
100
AcDb2dVertex
62
5
10
193.750000
20
324.312500
0
VERTEX
5
11c
100
AcDbEntity
8
1
100
AcDbVertex
100
AcDb2dVertex
62
5
10
194.750000
20
324.312500
0
VERTEX
5
11d
100
AcDbEntity
8
1
100
AcDbVertex
100
AcDb2dVertex
62
5
10
194.250000
20
322.750000
0
VERTEX
5
11e
100
AcDbEntity
8
1
100
AcDbVertex
100
AcDb2dVertex
62
5
10
193.500000
20
321.812500
0
SEQEND
5
11f
100
AcDbEntity
8
1
0
LINE
5
120
100
AcDbEntity
8
1
100
AcDbLine
6
CONTINUOUS
62
5
10
196.750000
20
324.625000
11
196.000000
21
324.000000
0
POLYLINE
5
121
100
AcDbEntity
8
1
6
CONTINUOUS
62
5
100
AcDb2dPolyline
66
1
10
0.0
20
0.0
30
0.0
70
0
0
VERTEX
5
122
100
AcDbEntity
8
1
100
AcDbVertex
100
AcDb2dVertex
62
5
10
195.500000
20
325.250000
0
VERTEX
5
123
100
AcDbEntity
8
1
100
AcDbVertex
100
AcDb2dVertex
62
5
10
196.250000
20
323.062500
0
VERTEX
5
124
100
AcDbEntity
8
1
100
AcDbVertex
100
AcDb2dVertex
62
5
10
197.500000
20
321.500000
0
SEQEND
5
125
100
AcDbEntity
8
1
0
LINE
5
126
100
AcDbEntity
8
1
100
AcDbLine
6
CONTINUOUS
62
5
10
198.500000
20
327.437500
11
205.000000
21
327.437500
0
POLYLINE
5
127
100
AcDbEntity
8
1
6
CONTINUOUS
62
5
100
AcDb2dPolyline
66
1
10
0.0
20
0.0
30
0.0
70
0
0
VERTEX
5
128
100
AcDbEntity
8
1
100
AcDbVertex
100
AcDb2dVertex
62
5
10
202.250000
20
329.312500
0
VERTEX
5
129
100
AcDbEntity
8
1
100
AcDbVertex
100
AcDb2dVertex
62
5
10
202.250000
20
326.500000
0
VERTEX
5
12a
100
AcDbEntity
8
1
100
AcDbVertex
100
AcDb2dVertex
62
5
10
202.500000
20
324.312500
0
VERTEX
5
12b
100
AcDbEntity
8
1
100
AcDbVertex
100
AcDb2dVertex
62
5
10
203.000000
20
322.750000
0
VERTEX
5
12c
100
AcDbEntity
8
1
100
AcDbVertex
100
AcDb2dVertex
62
5
10
203.750000
20
321.500000
0
VERTEX
5
12d
100
AcDbEntity
8
1
100
AcDbVertex
100
AcDb2dVertex
62
5
10
204.250000
20
320.875000
0
VERTEX
5
12e
100
AcDbEntity
8
1
100
AcDbVertex
100
AcDb2dVertex
62
5
10
205.000000
20
322.125000
0
SEQEND
5
12f
100
AcDbEntity
8
1
0
LINE
5
130
100
AcDbEntity
8
1
100
AcDbLine
6
CONTINUOUS
62
5
10
198.750000
20
325.250000
11
201.750000
21
325.250000
0
LINE
5
131
100
AcDbEntity
8
1
100
AcDbLine
6
CONTINUOUS
62
5
10
200.250000
20
325.250000
11
200.250000
21
321.812500
0
POLYLINE
5
132
100
AcDbEntity
8
1
6
CONTINUOUS
62
5
100
AcDb2dPolyline
66
1
10
0.0
20
0.0
30
0.0
70
0
0
VERTEX
5
133
100
AcDbEntity
8
1
100
AcDbVertex
100
AcDb2dVertex
62
5
10
198.750000
20
321.187500
0
VERTEX
5
134
100
AcDbEntity
8
1
100
AcDbVertex
100
AcDb2dVertex
62
5
10
200.250000
20
321.812500
0
VERTEX
5
135
100
AcDbEntity
8
1
100
AcDbVertex
100
AcDb2dVertex
62
5
10
201.750000
20
322.437500
0
SEQEND
5
136
100
AcDbEntity
8
1
0
LINE
5
137
100
AcDbEntity
8
1
100
AcDbLine
6
CONTINUOUS
62
5
10
203.250000
20
328.687500
11
204.000000
21
328.062500
0
POLYLINE
5
138
100
AcDbEntity
8
1
6
CONTINUOUS
62
5
100
AcDb2dPolyline
66
1
10
0.0
20
0.0
30
0.0
70
0
0
VERTEX
5
139
100
AcDbEntity
8
1
100
AcDbVertex
100
AcDb2dVertex
62
5
10
195.000000
20
317.437500
0
VERTEX
5
13a
100
AcDbEntity
8
1
100
AcDbVertex
100
AcDb2dVertex
62
5
10
200.250000
20
317.437500
0
VERTEX
5
13b
100
AcDbEntity
8
1
100
AcDbVertex
100
AcDb2dVertex
62
5
10
200.250000
20
317.125000
0
VERTEX
5
13c
100
AcDbEntity
8
1
100
AcDbVertex
100
AcDb2dVertex
62
5
10
198.500000
20
315.250000
0
VERTEX
5
13d
100
AcDbEntity
8
1
100
AcDbVertex
100
AcDb2dVertex
62
5
10
197.750000
20
315.250000
0
SEQEND
5
13e
100
AcDbEntity
8
1
0
POLYLINE
5
13f
100
AcDbEntity
8
1
6
CONTINUOUS
62
5
100
AcDb2dPolyline
66
1
10
0.0
20
0.0
30
0.0
70
0
0
VERTEX
5
140
100
AcDbEntity
8
1
100
AcDbVertex
100
AcDb2dVertex
62
5
10
197.750000
20
316.187500
0
VERTEX
5
141
100
AcDbEntity
8
1
100
AcDbVertex
100
AcDb2dVertex
62
5
10
197.750000
20
314.625000
0
VERTEX
5
142
100
AcDbEntity
8
1
100
AcDbVertex
100
AcDb2dVertex
62
5
10
197.000000
20
312.750000
0
VERTEX
5
143
100
AcDbEntity
8
1
100
AcDbVertex
100
AcDb2dVertex
62
5
10
196.000000
20
311.500000
0
SEQEND
5
144
100
AcDbEntity
8
1
0
POLYLINE
5
145
100
AcDbEntity
8
1
6
CONTINUOUS
62
5
100
AcDb2dPolyline
66
1
10
0.0
20
0.0
30
0.0
70
0
0
VERTEX
5
146
100
AcDbEntity
8
1
100
AcDbVertex
100
AcDb2dVertex
62
5
10
187.000000
20
326.812500
0
VERTEX
5
147
100
AcDbEntity
8
1
100
AcDbVertex
100
AcDb2dVertex
62
5
10
187.250000
20
328.375000
0
VERTEX
5
148
100
AcDbEntity
8
1
100
AcDbVertex
100
AcDb2dVertex
62
5
10
188.000000
20
329.000000
0
VERTEX
5
149
100
AcDbEntity
8
1
100
AcDbVertex
100
AcDb2dVertex
62
5
10
188.750000
20
329.000000
0
VERTEX
5
14a
100
AcDbEntity
8
1
100
AcDbVertex
100
AcDb2dVertex
62
5
10
189.250000
20
328.687500
0
VERTEX
5
14b
100
AcDbEntity
8
1
100
AcDbVertex
100
AcDb2dVertex
62
5
10
189.500000
20
327.750000
0
VERTEX
5
14c
100
AcDbEntity
8
1
100
AcDbVertex
100
AcDb2dVertex
62
5
10
189.500000
20
326.812500
0
VERTEX
5
14d
100
AcDbEntity
8
1
100
AcDbVertex
100
AcDb2dVertex
62
5
10
189.250000
20
325.875000
0
VERTEX
5
14e
100
AcDbEntity
8
1
100
AcDbVertex
100
AcDb2dVertex
62
5
10
187.000000
20
321.500000
0
VERTEX
5
14f
100
AcDbEntity
8
1
100
AcDbVertex
100
AcDb2dVertex
62
5
10
189.500000
20
321.500000
0
VERTEX
5
150
100
AcDbEntity
8
1
100
AcDbVertex
100
AcDb2dVertex
62
5
10
189.500000
20
322.437500
0
SEQEND
5
151
100
AcDbEntity
8
1
0
POLYLINE
5
152
100
AcDbEntity
8
1
6
CONTINUOUS
62
5
100
AcDb2dPolyline
66
1
10
0.0
20
0.0
30
0.0
70
0
0
VERTEX
5
153
100
AcDbEntity
8
1
100
AcDbVertex
100
AcDb2dVertex
62
5
10
171.500000
20
329.000000
0
VERTEX
5
154
100
AcDbEntity
8
1
100
AcDbVertex
100
AcDb2dVertex
62
5
10
171.500000
20
323.375000
0
VERTEX
5
155
100
AcDbEntity
8
1
100
AcDbVertex
100
AcDb2dVertex
62
5
10
171.000000
20
322.125000
0
VERTEX
5
156
100
AcDbEntity
8
1
100
AcDbVertex
100
AcDb2dVertex
62
5
10
170.500000
20
321.187500
0
SEQEND
5
157
100
AcDbEntity
8
1
0
POLYLINE
5
158
100
AcDbEntity
8
1
6
CONTINUOUS
62
5
100
AcDb2dPolyline
66
1
10
0.0
20
0.0
30
0.0
70
0
0
VERTEX
5
159
100
AcDbEntity
8
1
100
AcDbVertex
100
AcDb2dVertex
62
5
10
175.500000
20
321.500000
0
VERTEX
5
15a
100
AcDbEntity
8
1
100
AcDbVertex
100
AcDb2dVertex
62
5
10
176.500000
20
320.875000
0
VERTEX
5
15b
100
AcDbEntity
8
1
100
AcDbVertex
100
AcDb2dVertex
62
5
10
176.500000
20
329.000000
0
VERTEX
5
15c
100
AcDbEntity
8
1
100
AcDbVertex
100
AcDb2dVertex
62
5
10
171.500000
20
329.000000
0
SEQEND
5
15d
100
AcDbEntity
8
1
0
LINE
5
15e
100
AcDbEntity
8
1
100
AcDbLine
6
CONTINUOUS
62
5
10
171.500000
20
326.500000
11
176.500000
21
326.500000
0
LINE
5
15f
100
AcDbEntity
8
1
100
AcDbLine
6
CONTINUOUS
62
5
10
174.000000
20
329.000000
11
174.000000
21
320.875000
0
LINE
5
160
100
AcDbEntity
8
1
100
AcDbLine
6
CONTINUOUS
62
5
10
171.500000
20
324.000000
11
176.500000
21
324.000000
0
POLYLINE
5
161
100
AcDbEntity
8
1
6
CONTINUOUS
62
5
100
AcDb2dPolyline
66
1
10
0.0
20
0.0
30
0.0
70
0
0
VERTEX
5
162
100
AcDbEntity
8
1
100
AcDbVertex
100
AcDb2dVertex
62
5
10
179.750000
20
317.750000
0
VERTEX
5
163
100
AcDbEntity
8
1
100
AcDbVertex
100
AcDb2dVertex
62
5
10
179.750000
20
312.437500
0
VERTEX
5
164
100
AcDbEntity
8
1
100
AcDbVertex
100
AcDb2dVertex
62
5
10
180.250000
20
311.812500
0
VERTEX
5
165
100
AcDbEntity
8
1
100
AcDbVertex
100
AcDb2dVertex
62
5
10
183.750000
20
311.812500
0
SEQEND
5
166
100
AcDbEntity
8
1
0
LINE
5
167
100
AcDbEntity
8
1
100
AcDbLine
6
CONTINUOUS
62
5
10
183.250000
20
315.875000
11
179.750000
21
314.937500
0
POLYLINE
5
168
100
AcDbEntity
8
1
6
CONTINUOUS
62
5
100
AcDb2dPolyline
66
1
10
0.0
20
0.0
30
0.0
70
1
0
VERTEX
5
169
100
AcDbEntity
8
1
100
AcDbVertex
100
AcDb2dVertex
62
5
10
183.250000
20
317.750000
0
VERTEX
5
16a
100
AcDbEntity
8
1
100
AcDbVertex
100
AcDb2dVertex
62
5
10
183.750000
20
318.375000
0
VERTEX
5
16b
100
AcDbEntity
8
1
100
AcDbVertex
100
AcDb2dVertex
62
5
10
184.000000
20
318.375000
0
VERTEX
5
16c
100
AcDbEntity
8
1
100
AcDbVertex
100
AcDb2dVertex
62
5
10
184.500000
20
317.750000
0
VERTEX
5
16d
100
AcDbEntity
8
1
100
AcDbVertex
100
AcDb2dVertex
62
5
10
184.500000
20
317.437500
0
VERTEX
5
16e
100
AcDbEntity
8
1
100
AcDbVertex
100
AcDb2dVertex
62
5
10
184.000000
20
316.812500
0
VERTEX
5
16f
100
AcDbEntity
8
1
100
AcDbVertex
100
AcDb2dVertex
62
5
10
183.750000
20
316.812500
0
VERTEX
5
170
100
AcDbEntity
8
1
100
AcDbVertex
100
AcDb2dVertex
62
5
10
183.250000
20
317.437500
0
VERTEX
5
171
100
AcDbEntity
8
1
100
AcDbVertex
100
AcDb2dVertex
62
5
10
183.250000
20
317.750000
0
SEQEND
5
172
100
AcDbEntity
8
1
0
POLYLINE
5
173
100
AcDbEntity
8
1
6
CONTINUOUS
62
5
100
AcDb2dPolyline
66
1
10
0.0
20
0.0
30
0.0
70
0
0
VERTEX
5
174
100
AcDbEntity
8
1
100
AcDbVertex
100
AcDb2dVertex
62
5
10
163.250000
20
327.437500
0
VERTEX
5
175
100
AcDbEntity
8
1
100
AcDbVertex
100
AcDb2dVertex
62
5
10
165.250000
20
327.437500
0
VERTEX
5
176
100
AcDbEntity
8
1
100
AcDbVertex
100
AcDb2dVertex
62
5
10
165.250000
20
328.687500
0
VERTEX
5
177
100
AcDbEntity
8
1
100
AcDbVertex
100
AcDb2dVertex
62
5
10
163.250000
20
328.687500
0
VERTEX
5
178
100
AcDbEntity
8
1
100
AcDbVertex
100
AcDb2dVertex
62
5
10
163.250000
20
326.812500
0
VERTEX
5
179
100
AcDbEntity
8
1
100
AcDbVertex
100
AcDb2dVertex
62
5
10
163.000000
20
325.562500
0
VERTEX
5
17a
100
AcDbEntity
8
1
100
AcDbVertex
100
AcDb2dVertex
62
5
10
162.250000
20
324.312500
0
SEQEND
5
17b
100
AcDbEntity
8
1
0
POLYLINE
5
17c
100
AcDbEntity
8
1
6
CONTINUOUS
62
5
100
AcDb2dPolyline
66
1
10
0.0
20
0.0
30
0.0
70
1
0
VERTEX
5
17d
100
AcDbEntity
8
1
100
AcDbVertex
100
AcDb2dVertex
62
5
10
163.500000
20
326.187500
0
VERTEX
5
17e
100
AcDbEntity
8
1
100
AcDbVertex
100
AcDb2dVertex
62
5
10
163.500000
20
324.625000
0
VERTEX
5
17f
100
AcDbEntity
8
1
100
AcDbVertex
100
AcDb2dVertex
62
5
10
165.250000
20
324.625000
0
VERTEX
5
180
100
AcDbEntity
8
1
100
AcDbVertex
100
AcDb2dVertex
62
5
10
165.250000
20
326.187500
0
VERTEX
5
181
100
AcDbEntity
8
1
100
AcDbVertex
100
AcDb2dVertex
62
5
10
163.500000
20
326.187500
0
SEQEND
5
182
100
AcDbEntity
8
1
0
LINE
5
183
100
AcDbEntity
8
1
100
AcDbLine
6
CONTINUOUS
62
5
10
167.500000
20
329.625000
11
167.500000
21
328.375000
0
LINE
5
184
100
AcDbEntity
8
1
100
AcDbLine
6
CONTINUOUS
62
5
10
166.000000
20
328.375000
11
169.250000
21
328.375000
0
LINE
5
185
100
AcDbEntity
8
1
100
AcDbLine
6
CONTINUOUS
62
5
10
166.500000
20
328.062500
11
167.000000
21
327.125000
0
LINE
5
186
100
AcDbEntity
8
1
100
AcDbLine
6
CONTINUOUS
62
5
10
168.500000
20
328.062500
11
168.000000
21
327.125000
0
LINE
5
187
100
AcDbEntity
8
1
100
AcDbLine
6
CONTINUOUS
62
5
10
165.750000
20
326.812500
11
169.500000
21
326.812500
0
LINE
5
188
100
AcDbEntity
8
1
100
AcDbLine
6
CONTINUOUS
62
5
10
166.250000
20
325.250000
11
169.250000
21
325.250000
0
LINE
5
189
100
AcDbEntity
8
1
100
AcDbLine
6
CONTINUOUS
62
5
10
167.500000
20
326.500000
11
167.500000
21
324.000000
0
LINE
5
18a
100
AcDbEntity
8
1
100
AcDbLine
6
CONTINUOUS
62
5
10
166.000000
20
324.000000
11
166.000000
21
321.187500
0
LINE
5
18b
100
AcDbEntity
8
1
100
AcDbLine
6
CONTINUOUS
62
5
10
163.750000
20
323.062500
11
168.500000
21
323.062500
0
LINE
5
18c
100
AcDbEntity
8
1
100
AcDbLine
6
CONTINUOUS
62
5
10
162.250000
20
321.187500
11
169.500000
21
321.187500
0
LINE
5
18d
100
AcDbEntity
8
1
100
AcDbLine
6
CONTINUOUS
62
5
10
162.750000
20
318.687500
11
165.500000
21
318.687500
0
LINE
5
18e
100
AcDbEntity
8
1
100
AcDbLine
6
CONTINUOUS
62
5
10
164.250000
20
319.625000
11
164.250000
21
317.125000
0
LINE
5
18f
100
AcDbEntity
8
1
100
AcDbLine
6
CONTINUOUS
62
5
10
162.500000
20
317.125000
11
165.500000
21
317.125000
0
POLYLINE
5
190
100
AcDbEntity
8
1
6
CONTINUOUS
62
5
100
AcDb2dPolyline
66
1
10
0.0
20
0.0
30
0.0
70
0
0
VERTEX
5
191
100
AcDbEntity
8
1
100
AcDbVertex
100
AcDb2dVertex
62
5
10
164.250000
20
317.125000
0
VERTEX
5
192
100
AcDbEntity
8
1
100
AcDbVertex
100
AcDb2dVertex
62
5
10
163.250000
20
315.250000
0
VERTEX
5
193
100
AcDbEntity
8
1
100
AcDbVertex
100
AcDb2dVertex
62
5
10
162.750000
20
314.625000
0
SEQEND
5
194
100
AcDbEntity
8
1
0
POLYLINE
5
195
100
AcDbEntity
8
1
6
CONTINUOUS
62
5
100
AcDb2dPolyline
66
1
10
0.0
20
0.0
30
0.0
70
0
0
VERTEX
5
196
100
AcDbEntity
8
1
100
AcDbVertex
100
AcDb2dVertex
62
5
10
164.250000
20
316.812500
0
VERTEX
5
197
100
AcDbEntity
8
1
100
AcDbVertex
100
AcDb2dVertex
62
5
10
164.750000
20
315.875000
0
VERTEX
5
198
100
AcDbEntity
8
1
100
AcDbVertex
100
AcDb2dVertex
62
5
10
165.250000
20
315.562500
0
SEQEND
5
199
100
AcDbEntity
8
1
0
LINE
5
19a
100
AcDbEntity
8
1
100
AcDbLine
6
CONTINUOUS
62
5
10
166.000000
20
318.687500
11
169.000000
21
318.687500
0
LINE
5
19b
100
AcDbEntity
8
1
100
AcDbLine
6
CONTINUOUS
62
5
10
166.000000
20
317.125000
11
169.250000
21
317.125000
0
POLYLINE
5
19c
100
AcDbEntity
8
1
6
CONTINUOUS
62
5
100
AcDb2dPolyline
66
1
10
0.0
20
0.0
30
0.0
70
0
0
VERTEX
5
19d
100
AcDbEntity
8
1
100
AcDbVertex
100
AcDb2dVertex
62
5
10
167.500000
20
319.625000
0
VERTEX
5
19e
100
AcDbEntity
8
1
100
AcDbVertex
100
AcDb2dVertex
62
5
10
167.500000
20
316.812500
0
VERTEX
5
19f
100
AcDbEntity
8
1
100
AcDbVertex
100
AcDb2dVertex
62
5
10
166.500000
20
315.562500
0
VERTEX
5
1a0
100
AcDbEntity
8
1
100
AcDbVertex
100
AcDb2dVertex
62
5
10
165.750000
20
314.937500
0
SEQEND
5
1a1
100
AcDbEntity
8
1
0
POLYLINE
5
1a2
100
AcDbEntity
8
1
6
CONTINUOUS
62
5
100
AcDb2dPolyline
66
1
10
0.0
20
0.0
30
0.0
70
0
0
VERTEX
5
1a3
100
AcDbEntity
8
1
100
AcDbVertex
100
AcDb2dVertex
62
5
10
167.500000
20
316.812500
0
VERTEX
5
1a4
100
AcDbEntity
8
1
100
AcDbVertex
100
AcDb2dVertex
62
5
10
168.500000
20
315.562500
0
VERTEX
5
1a5
100
AcDbEntity
8
1
100
AcDbVertex
100
AcDb2dVertex
62
5
10
169.250000
20
314.937500
0
SEQEND
5
1a6
100
AcDbEntity
8
1
0
POLYLINE
5
1a7
100
AcDbEntity
8
1
6
CONTINUOUS
62
5
100
AcDb2dPolyline
66
1
10
0.0
20
0.0
30
0.0
70
1
0
VERTEX
5
1a8
100
AcDbEntity
8
1
100
AcDbVertex
100
AcDb2dVertex
62
5
10
163.500000
20
314.625000
0
VERTEX
5
1a9
100
AcDbEntity
8
1
100
AcDbVertex
100
AcDb2dVertex
62
5
10
168.250000
20
314.625000
0
VERTEX
5
1aa
100
AcDbEntity
8
1
100
AcDbVertex
100
AcDb2dVertex
62
5
10
168.250000
20
310.562500
0
VERTEX
5
1ab
100
AcDbEntity
8
1
100
AcDbVertex
100
AcDb2dVertex
62
5
10
163.500000
20
310.562500
0
VERTEX
5
1ac
100
AcDbEntity
8
1
100
AcDbVertex
100
AcDb2dVertex
62
5
10
163.500000
20
314.625000
0
SEQEND
5
1ad
100
AcDbEntity
8
1
0
LINE
5
1ae
100
AcDbEntity
8
1
100
AcDbLine
6
CONTINUOUS
62
5
10
163.500000
20
312.750000
11
168.250000
21
312.750000
0
POLYLINE
5
1af
100
AcDbEntity
8
1
6
CONTINUOUS
62
5
100
AcDb2dPolyline
66
1
10
0.0
20
0.0
30
0.0
70
0
0
VERTEX
5
1b0
100
AcDbEntity
8
1
100
AcDbVertex
100
AcDb2dVertex
62
5
10
154.250000
20
316.500000
0
VERTEX
5
1b1
100
AcDbEntity
8
1
100
AcDbVertex
100
AcDb2dVertex
62
5
10
155.750000
20
316.812500
0
VERTEX
5
1b2
100
AcDbEntity
8
1
100
AcDbVertex
100
AcDb2dVertex
62
5
10
157.000000
20
317.437500
0
SEQEND
5
1b3
100
AcDbEntity
8
1
0
POLYLINE
5
1b4
100
AcDbEntity
8
1
6
CONTINUOUS
62
5
100
AcDb2dPolyline
66
1
10
0.0
20
0.0
30
0.0
70
0
0
VERTEX
5
1b5
100
AcDbEntity
8
1
100
AcDbVertex
100
AcDb2dVertex
62
5
10
155.250000
20
319.312500
0
VERTEX
5
1b6
100
AcDbEntity
8
1
100
AcDbVertex
100
AcDb2dVertex
62
5
10
155.250000
20
313.687500
0
VERTEX
5
1b7
100
AcDbEntity
8
1
100
AcDbVertex
100
AcDb2dVertex
62
5
10
155.750000
20
313.062500
0
VERTEX
5
1b8
100
AcDbEntity
8
1
100
AcDbVertex
100
AcDb2dVertex
62
5
10
157.000000
20
313.062500
0
VERTEX
5
1b9
100
AcDbEntity
8
1
100
AcDbVertex
100
AcDb2dVertex
62
5
10
157.250000
20
314.312500
0
SEQEND
5
1ba
100
AcDbEntity
8
1
0
POLYLINE
5
1bb
100
AcDbEntity
8
1
6
CONTINUOUS
62
5
100
AcDb2dPolyline
66
1
10
0.0
20
0.0
30
0.0
70
0
0
VERTEX
5
1bc
100
AcDbEntity
8
1
100
AcDbVertex
100
AcDb2dVertex
62
5
10
158.500000
20
318.375000
0
VERTEX
5
1bd
100
AcDbEntity
8
1
100
AcDbVertex
100
AcDb2dVertex
62
5
10
158.500000
20
314.625000
0
VERTEX
5
1be
100
AcDbEntity
8
1
100
AcDbVertex
100
AcDb2dVertex
62
5
10
158.000000
20
313.062500
0
VERTEX
5
1bf
100
AcDbEntity
8
1
100
AcDbVertex
100
AcDb2dVertex
62
5
10
157.250000
20
311.812500
0
VERTEX
5
1c0
100
AcDbEntity
8
1
100
AcDbVertex
100
AcDb2dVertex
62
5
10
156.000000
20
310.875000
0
SEQEND
5
1c1
100
AcDbEntity
8
1
0
POLYLINE
5
1c2
100
AcDbEntity
8
1
6
CONTINUOUS
62
5
100
AcDb2dPolyline
66
1
10
0.0
20
0.0
30
0.0
70
0
0
VERTEX
5
1c3
100
AcDbEntity
8
1
100
AcDbVertex
100
AcDb2dVertex
62
5
10
157.000000
20
318.375000
0
VERTEX
5
1c4
100
AcDbEntity
8
1
100
AcDbVertex
100
AcDb2dVertex
62
5
10
160.750000
20
318.375000
0
VERTEX
5
1c5
100
AcDbEntity
8
1
100
AcDbVertex
100
AcDb2dVertex
62
5
10
160.750000
20
313.062500
0
VERTEX
5
1c6
100
AcDbEntity
8
1
100
AcDbVertex
100
AcDb2dVertex
62
5
10
160.500000
20
312.125000
0
VERTEX
5
1c7
100
AcDbEntity
8
1
100
AcDbVertex
100
AcDb2dVertex
62
5
10
160.000000
20
311.812500
0
VERTEX
5
1c8
100
AcDbEntity
8
1
100
AcDbVertex
100
AcDb2dVertex
62
5
10
159.000000
20
311.812500
0
SEQEND
5
1c9
100
AcDbEntity
8
1
0
POLYLINE
5
1ca
100
AcDbEntity
8
1
6
CONTINUOUS
62
5
100
AcDb2dPolyline
66
1
10
0.0
20
0.0
30
0.0
70
0
0
VERTEX
5
1cb
100
AcDbEntity
8
1
100
AcDbVertex
100
AcDb2dVertex
62
5
10
188.500000
20
315.562500
0
VERTEX
5
1cc
100
AcDbEntity
8
1
100
AcDbVertex
100
AcDb2dVertex
62
5
10
190.500000
20
315.562500
0
VERTEX
5
1cd
100
AcDbEntity
8
1
100
AcDbVertex
100
AcDb2dVertex
62
5
10
190.250000
20
312.437500
0
SEQEND
5
1ce
100
AcDbEntity
8
1
0
LINE
5
1cf
100
AcDbEntity
8
1
100
AcDbLine
6
CONTINUOUS
62
5
10
187.750000
20
312.437500
11
192.000000
21
312.437500
0
POLYLINE
5
1d0
100
AcDbEntity
8
1
6
CONTINUOUS
62
5
100
AcDb2dPolyline
66
1
10
0.0
20
0.0
30
0.0
70
0
0
VERTEX
5
1d1
100
AcDbEntity
8
1
100
AcDbVertex
100
AcDb2dVertex
62
5
10
229.250000
20
316.187500
0
VERTEX
5
1d2
100
AcDbEntity
8
1
100
AcDbVertex
100
AcDb2dVertex
62
5
10
229.500000
20
316.187500
0
VERTEX
5
1d3
100
AcDbEntity
8
1
100
AcDbVertex
100
AcDb2dVertex
62
5
10
231.250000
20
314.937500
0
SEQEND
5
1d4
100
AcDbEntity
8
1
0
LINE
5
1d5
100
AcDbEntity
8
1
100
AcDbLine
6
CONTINUOUS
62
5
10
229.250000
20
319.000000
11
229.250000
21
311.500000
0
LINE
5
1d6
100
AcDbEntity
8
1
100
AcDbLine
6
DOT2
62
5
10
254.225000
20
199.775000
11
253.600000
21
199.150000
0
POLYLINE
5
1d7
100
AcDbEntity
8
1
6
DOT2
62
5
100
AcDb2dPolyline
66
1
10
0.0
20
0.0
30
0.0
70
0
0
VERTEX
5
1d8
100
AcDbEntity
8
1
100
AcDbVertex
100
AcDb2dVertex
62
5
10
253.600000
20
199.775000
0
VERTEX
5
1d9
100
AcDbEntity
8
1
100
AcDbVertex
100
AcDb2dVertex
62
5
10
254.225000
20
199.150000
0
VERTEX
5
1da
100
AcDbEntity
8
1
100
AcDbVertex
100
AcDb2dVertex
62
5
10
253.600000
20
199.150000
0
VERTEX
5
1db
100
AcDbEntity
8
1
100
AcDbVertex
100
AcDb2dVertex
62
5
10
253.600000
20
199.775000
0
VERTEX
5
1dc
100
AcDbEntity
8
1
100
AcDbVertex
100
AcDb2dVertex
62
5
10
254.225000
20
199.775000
0
VERTEX
5
1dd
100
AcDbEntity
8
1
100
AcDbVertex
100
AcDb2dVertex
62
5
10
254.225000
20
199.150000
0
SEQEND
5
1de
100
AcDbEntity
8
1
0
POLYLINE
5
1df
100
AcDbEntity
8
1
6
DOT2
62
5
100
AcDb2dPolyline
66
1
10
0.0
20
0.0
30
0.0
70
0
0
VERTEX
5
1e0
100
AcDbEntity
8
1
100
AcDbVertex
100
AcDb2dVertex
62
5
10
243.600000
20
204.462500
0
VERTEX
5
1e1
100
AcDbEntity
8
1
100
AcDbVertex
100
AcDb2dVertex
62
5
10
243.912500
20
206.025000
0
VERTEX
5
1e2
100
AcDbEntity
8
1
100
AcDbVertex
100
AcDb2dVertex
62
5
10
244.850000
20
206.650000
0
VERTEX
5
1e3
100
AcDbEntity
8
1
100
AcDbVertex
100
AcDb2dVertex
62
5
10
245.787500
20
206.650000
0
VERTEX
5
1e4
100
AcDbEntity
8
1
100
AcDbVertex
100
AcDb2dVertex
62
5
10
246.412500
20
206.337500
0
VERTEX
5
1e5
100
AcDbEntity
8
1
100
AcDbVertex
100
AcDb2dVertex
62
5
10
246.725000
20
205.400000
0
VERTEX
5
1e6
100
AcDbEntity
8
1
100
AcDbVertex
100
AcDb2dVertex
62
5
10
246.725000
20
204.462500
0
VERTEX
5
1e7
100
AcDbEntity
8
1
100
AcDbVertex
100
AcDb2dVertex
62
5
10
246.412500
20
203.525000
0
VERTEX
5
1e8
100
AcDbEntity
8
1
100
AcDbVertex
100
AcDb2dVertex
62
5
10
243.600000
20
199.150000
0
VERTEX
5
1e9
100
AcDbEntity
8
1
100
AcDbVertex
100
AcDb2dVertex
62
5
10
246.725000
20
199.150000
0
VERTEX
5
1ea
100
AcDbEntity
8
1
100
AcDbVertex
100
AcDb2dVertex
62
5
10
246.725000
20
200.087500
0
SEQEND
5
1eb
100
AcDbEntity
8
1
0
POLYLINE
5
1ec
100
AcDbEntity
8
1
6
DOT2
62
5
100
AcDb2dPolyline
66
1
10
0.0
20
0.0
30
0.0
70
0
0
VERTEX
5
1ed
100
AcDbEntity
8
1
100
AcDbVertex
100
AcDb2dVertex
62
5
10
251.725000
20
202.587500
0
VERTEX
5
1ee
100
AcDbEntity
8
1
100
AcDbVertex
100
AcDb2dVertex
62
5
10
251.725000
20
202.587500
0
VERTEX
5
1ef
100
AcDbEntity
8
1
100
AcDbVertex
100
AcDb2dVertex
62
5
10
250.475000
20
202.275000
0
VERTEX
5
1f0
100
AcDbEntity
8
1
100
AcDbVertex
100
AcDb2dVertex
62
5
10
249.537500
20
202.275000
0
VERTEX
5
1f1
100
AcDbEntity
8
1
100
AcDbVertex
100
AcDb2dVertex
62
5
10
248.912500
20
202.587500
0
VERTEX
5
1f2
100
AcDbEntity
8
1
100
AcDbVertex
100
AcDb2dVertex
62
5
10
248.600000
20
203.525000
0
VERTEX
5
1f3
100
AcDbEntity
8
1
100
AcDbVertex
100
AcDb2dVertex
62
5
10
248.600000
20
205.087500
0
VERTEX
5
1f4
100
AcDbEntity
8
1
100
AcDbVertex
100
AcDb2dVertex
62
5
10
248.912500
20
206.025000
0
VERTEX
5
1f5
100
AcDbEntity
8
1
100
AcDbVertex
100
AcDb2dVertex
62
5
10
249.225000
20
206.337500
0
VERTEX
5
1f6
100
AcDbEntity
8
1
100
AcDbVertex
100
AcDb2dVertex
62
5
10
249.850000
20
206.650000
0
VERTEX
5
1f7
100
AcDbEntity
8
1
100
AcDbVertex
100
AcDb2dVertex
62
5
10
250.475000
20
206.650000
0
VERTEX
5
1f8
100
AcDbEntity
8
1
100
AcDbVertex
100
AcDb2dVertex
62
5
10
251.100000
20
206.337500
0
VERTEX
5
1f9
100
AcDbEntity
8
1
100
AcDbVertex
100
AcDb2dVertex
62
5
10
251.412500
20
206.025000
0
VERTEX
5
1fa
100
AcDbEntity
8
1
100
AcDbVertex
100
AcDb2dVertex
62
5
10
251.725000
20
205.087500
0
VERTEX
5
1fb
100
AcDbEntity
8
1
100
AcDbVertex
100
AcDb2dVertex
62
5
10
251.725000
20
201.650000
0
VERTEX
5
1fc
100
AcDbEntity
8
1
100
AcDbVertex
100
AcDb2dVertex
62
5
10
251.412500
20
200.087500
0
VERTEX
5
1fd
100
AcDbEntity
8
1
100
AcDbVertex
100
AcDb2dVertex
62
5
10
250.787500
20
199.462500
0
VERTEX
5
1fe
100
AcDbEntity
8
1
100
AcDbVertex
100
AcDb2dVertex
62
5
10
249.850000
20
199.150000
0
VERTEX
5
1ff
100
AcDbEntity
8
1
100
AcDbVertex
100
AcDb2dVertex
62
5
10
249.225000
20
199.150000
0
SEQEND
5
200
100
AcDbEntity
8
1
0
POLYLINE
5
201
100
AcDbEntity
8
1
6
DOT2
62
5
100
AcDb2dPolyline
66
1
10
0.0
20
0.0
30
0.0
70
0
0
VERTEX
5
202
100
AcDbEntity
8
1
100
AcDbVertex
100
AcDb2dVertex
62
5
10
258.600000
20
204.775000
0
VERTEX
5
203
100
AcDbEntity
8
1
100
AcDbVertex
100
AcDb2dVertex
62
5
10
258.912500
20
206.025000
0
VERTEX
5
204
100
AcDbEntity
8
1
100
AcDbVertex
100
AcDb2dVertex
62
5
10
259.537500
20
206.650000
0
VERTEX
5
205
100
AcDbEntity
8
1
100
AcDbVertex
100
AcDb2dVertex
62
5
10
260.475000
20
206.650000
0
VERTEX
5
206
100
AcDbEntity
8
1
100
AcDbVertex
100
AcDb2dVertex
62
5
10
261.100000
20
206.337500
0
VERTEX
5
207
100
AcDbEntity
8
1
100
AcDbVertex
100
AcDb2dVertex
62
5
10
261.412500
20
205.400000
0
VERTEX
5
208
100
AcDbEntity
8
1
100
AcDbVertex
100
AcDb2dVertex
62
5
10
261.412500
20
204.150000
0
VERTEX
5
209
100
AcDbEntity
8
1
100
AcDbVertex
100
AcDb2dVertex
62
5
10
261.100000
20
203.525000
0
VERTEX
5
20a
100
AcDbEntity
8
1
100
AcDbVertex
100
AcDb2dVertex
62
5
10
260.475000
20
202.900000
0
VERTEX
5
20b
100
AcDbEntity
8
1
100
AcDbVertex
100
AcDb2dVertex
62
5
10
259.537500
20
202.900000
0
SEQEND
5
20c
100
AcDbEntity
8
1
0
POLYLINE
5
20d
100
AcDbEntity
8
1
6
DOT2
62
5
100
AcDb2dPolyline
66
1
10
0.0
20
0.0
30
0.0
70
0
0
VERTEX
5
20e
100
AcDbEntity
8
1
100
AcDbVertex
100
AcDb2dVertex
62
5
10
260.475000
20
202.900000
0
VERTEX
5
20f
100
AcDbEntity
8
1
100
AcDbVertex
100
AcDb2dVertex
62
5
10
261.412500
20
202.275000
0
VERTEX
5
210
100
AcDbEntity
8
1
100
AcDbVertex
100
AcDb2dVertex
62
5
10
261.725000
20
201.337500
0
VERTEX
5
211
100
AcDbEntity
8
1
100
AcDbVertex
100
AcDb2dVertex
62
5
10
261.725000
20
200.400000
0
VERTEX
5
212
100
AcDbEntity
8
1
100
AcDbVertex
100
AcDb2dVertex
62
5
10
261.412500
20
199.775000
0
VERTEX
5
213
100
AcDbEntity
8
1
100
AcDbVertex
100
AcDb2dVertex
62
5
10
260.475000
20
199.150000
0
VERTEX
5
214
100
AcDbEntity
8
1
100
AcDbVertex
100
AcDb2dVertex
62
5
10
259.537500
20
199.150000
0
VERTEX
5
215
100
AcDbEntity
8
1
100
AcDbVertex
100
AcDb2dVertex
62
5
10
258.912500
20
199.462500
0
VERTEX
5
216
100
AcDbEntity
8
1
100
AcDbVertex
100
AcDb2dVertex
62
5
10
258.287500
20
200.400000
0
SEQEND
5
217
100
AcDbEntity
8
1
0
LINE
5
218
100
AcDbEntity
8
1
100
AcDbLine
6
CONTINUOUS
62
5
10
211.850000
20
172.650000
11
211.850000
21
172.900000
0
LINE
5
219
100
AcDbEntity
8
1
100
AcDbLine
6
CONTINUOUS
62
5
10
211.850000
20
171.300000
11
211.850000
21
171.493333
0
LINE
5
21a
100
AcDbEntity
8
1
100
AcDbLine
6
CONTINUOUS
62
5
10
212.850000
20
171.285366
11
212.850000
21
171.466667
0
LINE
5
21b
100
AcDbEntity
8
1
100
AcDbLine
6
CONTINUOUS
62
5
10
208.450000
20
171.300000
11
208.886364
21
171.500000
0
ARC
5
21c
100
AcDbEntity
8
1
100
AcDbCircle
6
CONTINUOUS
62
5
10
195.091838
20
172.150000
40
0.700000
100
AcDbArc
50
89.999999
51
128.118273
0
LINE
5
21d
100
AcDbEntity
8
1
100
AcDbLine
6
CONTINUOUS
62
5
10
194.659737
20
172.700717
11
194.188620
21
172.331071
0
LINE
5
21e
100
AcDbEntity
8
1
100
AcDbLine
6
CONTINUOUS
62
5
10
195.550000
20
172.850000
11
195.091838
21
172.850000
0
LINE
5
21f
100
AcDbEntity
8
1
100
AcDbLine
6
CONTINUOUS
62
5
10
194.150000
20
167.850000
11
194.337959
21
167.918349
0
LINE
5
220
100
AcDbEntity
8
1
100
AcDbLine
6
CONTINUOUS
62
5
10
191.850000
20
163.950000
11
190.850000
21
163.950000
0
LINE
5
221
100
AcDbEntity
8
1
100
AcDbLine
6
CONTINUOUS
62
5
10
191.850000
20
161.350000
11
190.850000
21
161.350000
0
ARC
5
222
100
AcDbEntity
8
1
100
AcDbCircle
6
CONTINUOUS
62
5
10
203.450000
20
169.250000
40
0.400000
100
AcDbArc
50
89.999999
51
179.999998
0
LINE
5
223
100
AcDbEntity
8
1
100
AcDbLine
6
CONTINUOUS
62
5
10
203.450000
20
169.650000
11
203.850000
21
169.650000
0
LINE
5
224
100
AcDbEntity
8
1
100
AcDbLine
6
CONTINUOUS
62
5
10
203.850000
20
166.850000
11
203.450000
21
166.850000
0
ARC
5
225
100
AcDbEntity
8
1
100
AcDbCircle
6
CONTINUOUS
62
5
10
203.450000
20
167.250000
40
0.400000
100
AcDbArc
50
179.999998
51
-89.999999
0
LINE
5
226
100
AcDbEntity
8
1
100
AcDbLine
6
CONTINUOUS
62
5
10
203.050000
20
167.250000
11
203.050000
21
169.250000
0
POLYLINE
5
227
100
AcDbEntity
8
1
6
CONTINUOUS
62
5
100
AcDb2dPolyline
66
1
10
0.0
20
0.0
30
0.0
70
0
0
VERTEX
5
228
100
AcDbEntity
8
1
100
AcDbVertex
100
AcDb2dVertex
62
5
10
203.850000
20
169.650000
0
VERTEX
5
229
100
AcDbEntity
8
1
100
AcDbVertex
100
AcDb2dVertex
62
5
10
204.150000
20
169.650000
0
VERTEX
5
22a
100
AcDbEntity
8
1
100
AcDbVertex
100
AcDb2dVertex
62
5
10
204.150000
20
166.850000
0
VERTEX
5
22b
100
AcDbEntity
8
1
100
AcDbVertex
100
AcDb2dVertex
62
5
10
203.850000
20
166.850000
0
SEQEND
5
22c
100
AcDbEntity
8
1
0
LINE
5
22d
100
AcDbEntity
8
1
100
AcDbLine
6
CONTINUOUS
62
5
10
194.150000
20
172.318415
11
194.150000
21
167.850000
0
ARC
5
22e
100
AcDbEntity
8
1
100
AcDbCircle
6
CONTINUOUS
62
5
10
208.150000
20
171.200000
40
0.300000
100
AcDbArc
50
89.999999
51
179.999996
0
LINE
5
22f
100
AcDbEntity
8
1
100
AcDbLine
6
CONTINUOUS
62
5
10
207.850000
20
171.200000
11
207.850000
21
171.200000
0
POLYLINE
5
230
100
AcDbEntity
8
1
6
CONTINUOUS
62
5
100
AcDb2dPolyline
66
1
10
0.0
20
0.0
30
0.0
70
0
0
VERTEX
5
231
100
AcDbEntity
8
1
100
AcDbVertex
100
AcDb2dVertex
62
5
10
207.850000
20
172.850000
0
VERTEX
5
232
100
AcDbEntity
8
1
100
AcDbVertex
100
AcDb2dVertex
62
5
10
208.350000
20
172.700000
0
VERTEX
5
233
100
AcDbEntity
8
1
100
AcDbVertex
100
AcDb2dVertex
62
5
10
215.350000
20
172.600000
0
VERTEX
5
234
100
AcDbEntity
8
1
100
AcDbVertex
100
AcDb2dVertex
62
5
10
215.350000
20
171.726667
0
VERTEX
5
235
100
AcDbEntity
8
1
100
AcDbVertex
100
AcDb2dVertex
62
5
10
214.350000
20
171.426667
0
VERTEX
5
236
100
AcDbEntity
8
1
100
AcDbVertex
100
AcDb2dVertex
62
5
10
211.600000
20
171.500000
0
VERTEX
5
237
100
AcDbEntity
8
1
100
AcDbVertex
100
AcDb2dVertex
62
5
10
208.150000
20
171.500000
0
SEQEND
5
238
100
AcDbEntity
8
1
0
LINE
5
239
100
AcDbEntity
8
1
100
AcDbLine
6
DOT2
62
5
10
168.425000
20
199.775000
11
167.800000
21
199.150000
0
POLYLINE
5
23a
100
AcDbEntity
8
1
6
DOT2
62
5
100
AcDb2dPolyline
66
1
10
0.0
20
0.0
30
0.0
70
0
0
VERTEX
5
23b
100
AcDbEntity
8
1
100
AcDbVertex
100
AcDb2dVertex
62
5
10
167.800000
20
199.775000
0
VERTEX
5
23c
100
AcDbEntity
8
1
100
AcDbVertex
100
AcDb2dVertex
62
5
10
168.425000
20
199.150000
0
VERTEX
5
23d
100
AcDbEntity
8
1
100
AcDbVertex
100
AcDb2dVertex
62
5
10
167.800000
20
199.150000
0
VERTEX
5
23e
100
AcDbEntity
8
1
100
AcDbVertex
100
AcDb2dVertex
62
5
10
167.800000
20
199.775000
0
VERTEX
5
23f
100
AcDbEntity
8
1
100
AcDbVertex
100
AcDb2dVertex
62
5
10
168.425000
20
199.775000
0
VERTEX
5
240
100
AcDbEntity
8
1
100
AcDbVertex
100
AcDb2dVertex
62
5
10
168.425000
20
199.150000
0
SEQEND
5
241
100
AcDbEntity
8
1
0
POLYLINE
5
242
100
AcDbEntity
8
1
6
CONTINUOUS
62
5
100
AcDb2dPolyline
66
1
10
0.0
20
0.0
30
0.0
70
0
0
VERTEX
5
243
100
AcDbEntity
8
1
100
AcDbVertex
100
AcDb2dVertex
62
5
10
187.953242
20
162.650000
0
VERTEX
5
244
100
AcDbEntity
8
1
100
AcDbVertex
100
AcDb2dVertex
62
5
10
188.246923
20
162.650000
0
VERTEX
5
245
100
AcDbEntity
8
1
100
AcDbVertex
100
AcDb2dVertex
62
5
10
190.050000
20
161.213713
0
SEQEND
5
246
100
AcDbEntity
8
1
0
POLYLINE
5
247
100
AcDbEntity
8
1
6
CONTINUOUS
62
5
100
AcDb2dPolyline
66
1
10
0.0
20
0.0
30
0.0
70
0
0
VERTEX
5
248
100
AcDbEntity
8
1
100
AcDbVertex
100
AcDb2dVertex
62
5
10
187.953242
20
162.650000
0
VERTEX
5
249
100
AcDbEntity
8
1
100
AcDbVertex
100
AcDb2dVertex
62
5
10
188.246923
20
162.650000
0
VERTEX
5
24a
100
AcDbEntity
8
1
100
AcDbVertex
100
AcDb2dVertex
62
5
10
190.050000
20
164.086287
0
SEQEND
5
24b
100
AcDbEntity
8
1
0
POLYLINE
5
24c
100
AcDbEntity
8
1
6
CONTINUOUS
62
5
100
AcDb2dPolyline
66
1
10
0.0
20
0.0
30
0.0
70
1
0
VERTEX
5
24d
100
AcDbEntity
8
1
100
AcDbVertex
100
AcDb2dVertex
62
5
10
190.050000
20
161.050000
0
VERTEX
5
24e
100
AcDbEntity
8
1
100
AcDbVertex
100
AcDb2dVertex
62
5
10
190.050000
20
164.250000
0
VERTEX
5
24f
100
AcDbEntity
8
1
100
AcDbVertex
100
AcDb2dVertex
62
5
10
187.953242
20
162.650000
0
VERTEX
5
250
100
AcDbEntity
8
1
100
AcDbVertex
100
AcDb2dVertex
62
5
10
190.050000
20
161.050000
0
SEQEND
5
251
100
AcDbEntity
8
1
0
POLYLINE
5
252
100
AcDbEntity
8
1
6
DOT2
62
5
100
AcDb2dPolyline
66
1
10
0.0
20
0.0
30
0.0
70
0
0
VERTEX
5
253
100
AcDbEntity
8
1
100
AcDbVertex
100
AcDb2dVertex
62
5
10
165.300000
20
206.650000
0
VERTEX
5
254
100
AcDbEntity
8
1
100
AcDbVertex
100
AcDb2dVertex
62
5
10
164.362500
20
206.650000
0
VERTEX
5
255
100
AcDbEntity
8
1
100
AcDbVertex
100
AcDb2dVertex
62
5
10
163.425000
20
206.337500
0
VERTEX
5
256
100
AcDbEntity
8
1
100
AcDbVertex
100
AcDb2dVertex
62
5
10
162.800000
20
205.087500
0
VERTEX
5
257
100
AcDbEntity
8
1
100
AcDbVertex
100
AcDb2dVertex
62
5
10
162.800000
20
200.712500
0
VERTEX
5
258
100
AcDbEntity
8
1
100
AcDbVertex
100
AcDb2dVertex
62
5
10
163.112500
20
199.775000
0
VERTEX
5
259
100
AcDbEntity
8
1
100
AcDbVertex
100
AcDb2dVertex
62
5
10
163.425000
20
199.462500
0
VERTEX
5
25a
100
AcDbEntity
8
1
100
AcDbVertex
100
AcDb2dVertex
62
5
10
164.050000
20
199.150000
0
VERTEX
5
25b
100
AcDbEntity
8
1
100
AcDbVertex
100
AcDb2dVertex
62
5
10
164.675000
20
199.150000
0
VERTEX
5
25c
100
AcDbEntity
8
1
100
AcDbVertex
100
AcDb2dVertex
62
5
10
165.300000
20
199.462500
0
VERTEX
5
25d
100
AcDbEntity
8
1
100
AcDbVertex
100
AcDb2dVertex
62
5
10
165.612500
20
199.775000
0
VERTEX
5
25e
100
AcDbEntity
8
1
100
AcDbVertex
100
AcDb2dVertex
62
5
10
165.925000
20
200.712500
0
VERTEX
5
25f
100
AcDbEntity
8
1
100
AcDbVertex
100
AcDb2dVertex
62
5
10
165.925000
20
202.587500
0
VERTEX
5
260
100
AcDbEntity
8
1
100
AcDbVertex
100
AcDb2dVertex
62
5
10
165.612500
20
203.212500
0
VERTEX
5
261
100
AcDbEntity
8
1
100
AcDbVertex
100
AcDb2dVertex
62
5
10
164.987500
20
203.525000
0
VERTEX
5
262
100
AcDbEntity
8
1
100
AcDbVertex
100
AcDb2dVertex
62
5
10
163.737500
20
203.525000
0
VERTEX
5
263
100
AcDbEntity
8
1
100
AcDbVertex
100
AcDb2dVertex
62
5
10
162.800000
20
203.212500
0
SEQEND
5
264
100
AcDbEntity
8
1
0
LINE
5
265
100
AcDbEntity
8
1
100
AcDbLine
6
DOT2
62
5
10
172.800000
20
206.650000
11
175.612500
21
206.650000
0
POLYLINE
5
266
100
AcDbEntity
8
1
6
DOT2
62
5
100
AcDb2dPolyline
66
1
10
0.0
20
0.0
30
0.0
70
0
0
VERTEX
5
267
100
AcDbEntity
8
1
100
AcDbVertex
100
AcDb2dVertex
62
5
10
172.800000
20
206.650000
0
VERTEX
5
268
100
AcDbEntity
8
1
100
AcDbVertex
100
AcDb2dVertex
62
5
10
172.800000
20
202.900000
0
VERTEX
5
269
100
AcDbEntity
8
1
100
AcDbVertex
100
AcDb2dVertex
62
5
10
173.425000
20
203.525000
0
VERTEX
5
26a
100
AcDbEntity
8
1
100
AcDbVertex
100
AcDb2dVertex
62
5
10
174.050000
20
203.837500
0
VERTEX
5
26b
100
AcDbEntity
8
1
100
AcDbVertex
100
AcDb2dVertex
62
5
10
174.987500
20
203.837500
0
VERTEX
5
26c
100
AcDbEntity
8
1
100
AcDbVertex
100
AcDb2dVertex
62
5
10
175.612500
20
203.525000
0
VERTEX
5
26d
100
AcDbEntity
8
1
100
AcDbVertex
100
AcDb2dVertex
62
5
10
175.925000
20
202.587500
0
VERTEX
5
26e
100
AcDbEntity
8
1
100
AcDbVertex
100
AcDb2dVertex
62
5
10
175.925000
20
200.712500
0
VERTEX
5
26f
100
AcDbEntity
8
1
100
AcDbVertex
100
AcDb2dVertex
62
5
10
175.300000
20
199.775000
0
VERTEX
5
270
100
AcDbEntity
8
1
100
AcDbVertex
100
AcDb2dVertex
62
5
10
174.362500
20
199.150000
0
VERTEX
5
271
100
AcDbEntity
8
1
100
AcDbVertex
100
AcDb2dVertex
62
5
10
172.800000
20
199.150000
0
SEQEND
5
272
100
AcDbEntity
8
1
0
POLYLINE
5
273
100
AcDbEntity
8
1
6
DOT2
62
5
100
AcDb2dPolyline
66
1
10
0.0
20
0.0
30
0.0
70
0
0
VERTEX
5
274
100
AcDbEntity
8
1
100
AcDbVertex
100
AcDb2dVertex
62
5
10
158.425000
20
206.025000
0
VERTEX
5
275
100
AcDbEntity
8
1
100
AcDbVertex
100
AcDb2dVertex
62
5
10
159.362500
20
206.650000
0
VERTEX
5
276
100
AcDbEntity
8
1
100
AcDbVertex
100
AcDb2dVertex
62
5
10
159.362500
20
199.150000
0
SEQEND
5
277
100
AcDbEntity
8
1
0
LINE
5
278
100
AcDbEntity
8
1
100
AcDbLine
6
DOT2
62
5
10
158.737500
20
199.150000
11
159.987500
21
199.150000
0
LINE
5
279
100
AcDbEntity
8
1
100
AcDbLine
6
CONTINUOUS
62
5
10
203.050000
20
173.200000
11
203.050000
21
199.900000
0
LINE
5
27a
100
AcDbEntity
8
1
100
AcDbLine
6
CONTINUOUS
62
5
10
232.350000
20
173.114527
11
232.350000
21
199.900000
0
POLYLINE
5
27b
100
AcDbEntity
8
1
6
CONTINUOUS
62
5
100
AcDb2dPolyline
66
1
10
0.0
20
0.0
30
0.0
70
0
0
VERTEX
5
27c
100
AcDbEntity
8
1
100
AcDbVertex
100
AcDb2dVertex
62
5
10
263.600000
20
197.900000
0
VERTEX
5
27d
100
AcDbEntity
8
1
100
AcDbVertex
100
AcDb2dVertex
62
5
10
232.350000
20
197.900000
0
VERTEX
5
27e
100
AcDbEntity
8
1
100
AcDbVertex
100
AcDb2dVertex
62
5
10
238.350000
20
198.900000
0
VERTEX
5
27f
100
AcDbEntity
8
1
100
AcDbVertex
100
AcDb2dVertex
62
5
10
238.350000
20
196.900000
0
VERTEX
5
280
100
AcDbEntity
8
1
100
AcDbVertex
100
AcDb2dVertex
62
5
10
232.350000
20
197.900000
0
VERTEX
5
281
100
AcDbEntity
8
1
100
AcDbVertex
100
AcDb2dVertex
62
5
10
238.350000
20
198.400000
0
VERTEX
5
282
100
AcDbEntity
8
1
100
AcDbVertex
100
AcDb2dVertex
62
5
10
238.350000
20
197.400000
0
VERTEX
5
283
100
AcDbEntity
8
1
100
AcDbVertex
100
AcDb2dVertex
62
5
10
232.350000
20
197.900000
0
SEQEND
5
284
100
AcDbEntity
8
1
0
LINE
5
285
100
AcDbEntity
8
1
100
AcDbLine
6
CONTINUOUS
62
5
10
232.350000
20
197.900000
11
203.050000
21
197.900000
0
LINE
5
286
100
AcDbEntity
8
1
100
AcDbLine
6
CONTINUOUS
62
5
10
200.050000
20
197.900000
11
203.050000
21
197.900000
0
ARC
5
287
100
AcDbEntity
8
1
100
AcDbCircle
6
CONTINUOUS
62
5
10
231.350000
20
170.014527
40
1.000000
100
AcDbArc
50
-0.000000
51
89.161584
0
POLYLINE
5
288
100
AcDbEntity
8
1
6
CONTINUOUS
62
5
100
AcDb2dPolyline
66
1
10
0.0
20
0.0
30
0.0
70
0
0
VERTEX
5
289
100
AcDbEntity
8
1
100
AcDbVertex
100
AcDb2dVertex
62
5
10
231.364633
20
171.014420
0
VERTEX
5
28a
100
AcDbEntity
8
1
100
AcDbVertex
100
AcDb2dVertex
62
5
10
211.850000
20
171.300000
0
VERTEX
5
28b
100
AcDbEntity
8
1
100
AcDbVertex
100
AcDb2dVertex
62
5
10
208.050000
20
171.300000
0
SEQEND
5
28c
100
AcDbEntity
8
1
0
ARC
5
28d
100
AcDbEntity
8
1
100
AcDbCircle
6
CONTINUOUS
62
5
10
208.050000
20
171.100000
40
0.200000
100
AcDbArc
50
89.999999
51
179.999998
0
POLYLINE
5
28e
100
AcDbEntity
8
1
6
CONTINUOUS
62
5
100
AcDb2dPolyline
66
1
10
0.0
20
0.0
30
0.0
70
0
0
VERTEX
5
28f
100
AcDbEntity
8
1
100
AcDbVertex
100
AcDb2dVertex
62
5
10
135.750000
20
328.687500
0
VERTEX
5
290
100
AcDbEntity
8
1
100
AcDbVertex
100
AcDb2dVertex
62
5
10
133.750000
20
326.187500
0
VERTEX
5
291
100
AcDbEntity
8
1
100
AcDbVertex
100
AcDb2dVertex
62
5
10
131.500000
20
324.625000
0
SEQEND
5
292
100
AcDbEntity
8
1
0
LINE
5
293
100
AcDbEntity
8
1
100
AcDbLine
6
CONTINUOUS
62
5
10
134.250000
20
326.812500
11
134.250000
21
321.500000
0
LINE
5
294
100
AcDbEntity
8
1
100
AcDbLine
6
CONTINUOUS
62
5
10
140.250000
20
325.562500
11
140.500000
21
324.312500
0
LINE
5
295
100
AcDbEntity
8
1
100
AcDbLine
6
CONTINUOUS
62
5
10
141.750000
20
325.875000
11
142.000000
21
324.625000
0
POLYLINE
5
296
100
AcDbEntity
8
1
6
CONTINUOUS
62
5
100
AcDb2dPolyline
66
1
10
0.0
20
0.0
30
0.0
70
0
0
VERTEX
5
297
100
AcDbEntity
8
1
100
AcDbVertex
100
AcDb2dVertex
62
5
10
143.750000
20
325.875000
0
VERTEX
5
298
100
AcDbEntity
8
1
100
AcDbVertex
100
AcDb2dVertex
62
5
10
143.500000
20
324.312500
0
VERTEX
5
299
100
AcDbEntity
8
1
100
AcDbVertex
100
AcDb2dVertex
62
5
10
142.250000
20
322.437500
0
VERTEX
5
29a
100
AcDbEntity
8
1
100
AcDbVertex
100
AcDb2dVertex
62
5
10
141.250000
20
321.500000
0
SEQEND
5
29b
100
AcDbEntity
8
1
0
LINE
5
29c
100
AcDbEntity
8
1
100
AcDbLine
6
CONTINUOUS
62
5
10
130.250000
20
317.125000
11
132.500000
21
317.125000
0
LINE
5
29d
100
AcDbEntity
8
1
100
AcDbLine
6
CONTINUOUS
62
5
10
132.500000
20
315.250000
11
130.250000
21
313.687500
0
POLYLINE
5
29e
100
AcDbEntity
8
1
6
CONTINUOUS
62
5
100
AcDb2dPolyline
66
1
10
0.0
20
0.0
30
0.0
70
0
0
VERTEX
5
29f
100
AcDbEntity
8
1
100
AcDbVertex
100
AcDb2dVertex
62
5
10
131.500000
20
319.312500
0
VERTEX
5
2a0
100
AcDbEntity
8
1
100
AcDbVertex
100
AcDb2dVertex
62
5
10
131.500000
20
310.875000
0
VERTEX
5
2a1
100
AcDbEntity
8
1
100
AcDbVertex
100
AcDb2dVertex
62
5
10
130.750000
20
310.875000
0
SEQEND
5
2a2
100
AcDbEntity
8
1
0
LINE
5
2a3
100
AcDbEntity
8
1
100
AcDbLine
6
CONTINUOUS
62
5
10
133.250000
20
318.062500
11
137.000000
21
318.062500
0
LINE
5
2a4
100
AcDbEntity
8
1
100
AcDbLine
6
CONTINUOUS
62
5
10
132.750000
20
316.187500
11
137.500000
21
316.187500
0
LINE
5
2a5
100
AcDbEntity
8
1
100
AcDbLine
6
CONTINUOUS
62
5
10
135.000000
20
319.312500
11
135.000000
21
316.187500
0
LINE
5
2a6
100
AcDbEntity
8
1
100
AcDbLine
6
CONTINUOUS
62
5
10
133.000000
20
314.312500
11
137.250000
21
314.312500
0
POLYLINE
5
2a7
100
AcDbEntity
8
1
6
CONTINUOUS
62
5
100
AcDb2dPolyline
66
1
10
0.0
20
0.0
30
0.0
70
0
0
VERTEX
5
2a8
100
AcDbEntity
8
1
100
AcDbVertex
100
AcDb2dVertex
62
5
10
135.750000
20
315.562500
0
VERTEX
5
2a9
100
AcDbEntity
8
1
100
AcDbVertex
100
AcDb2dVertex
62
5
10
135.750000
20
311.500000
0
VERTEX
5
2aa
100
AcDbEntity
8
1
100
AcDbVertex
100
AcDb2dVertex
62
5
10
135.250000
20
310.875000
0
VERTEX
5
2ab
100
AcDbEntity
8
1
100
AcDbVertex
100
AcDb2dVertex
62
5
10
134.750000
20
310.875000
0
SEQEND
5
2ac
100
AcDbEntity
8
1
0
LINE
5
2ad
100
AcDbEntity
8
1
100
AcDbLine
6
CONTINUOUS
62
5
10
133.500000
20
313.375000
11
134.250000
21
312.437500
0
POLYLINE
5
2ae
100
AcDbEntity
8
1
6
CONTINUOUS
62
5
100
AcDb2dPolyline
66
1
10
0.0
20
0.0
30
0.0
70
1
0
VERTEX
5
2af
100
AcDbEntity
8
1
100
AcDbVertex
100
AcDb2dVertex
62
5
10
138.500000
20
318.687500
0
VERTEX
5
2b0
100
AcDbEntity
8
1
100
AcDbVertex
100
AcDb2dVertex
62
5
10
138.500000
20
312.437500
0
VERTEX
5
2b1
100
AcDbEntity
8
1
100
AcDbVertex
100
AcDb2dVertex
62
5
10
140.250000
20
312.437500
0
VERTEX
5
2b2
100
AcDbEntity
8
1
100
AcDbVertex
100
AcDb2dVertex
62
5
10
140.250000
20
318.687500
0
VERTEX
5
2b3
100
AcDbEntity
8
1
100
AcDbVertex
100
AcDb2dVertex
62
5
10
138.500000
20
318.687500
0
SEQEND
5
2b4
100
AcDbEntity
8
1
0
LINE
5
2b5
100
AcDbEntity
8
1
100
AcDbLine
6
CONTINUOUS
62
5
10
138.500000
20
315.562500
11
140.250000
21
315.562500
0
LINE
5
2b6
100
AcDbEntity
8
1
100
AcDbLine
6
CONTINUOUS
62
5
10
141.250000
20
318.062500
11
145.000000
21
318.062500
0
LINE
5
2b7
100
AcDbEntity
8
1
100
AcDbLine
6
CONTINUOUS
62
5
10
140.750000
20
316.187500
11
145.500000
21
316.187500
0
LINE
5
2b8
100
AcDbEntity
8
1
100
AcDbLine
6
CONTINUOUS
62
5
10
143.000000
20
319.625000
11
143.000000
21
316.187500
0
LINE
5
2b9
100
AcDbEntity
8
1
100
AcDbLine
6
CONTINUOUS
62
5
10
141.000000
20
314.312500
11
145.250000
21
314.312500
0
POLYLINE
5
2ba
100
AcDbEntity
8
1
6
CONTINUOUS
62
5
100
AcDb2dPolyline
66
1
10
0.0
20
0.0
30
0.0
70
0
0
VERTEX
5
2bb
100
AcDbEntity
8
1
100
AcDbVertex
100
AcDb2dVertex
62
5
10
144.000000
20
315.562500
0
VERTEX
5
2bc
100
AcDbEntity
8
1
100
AcDbVertex
100
AcDb2dVertex
62
5
10
144.000000
20
311.500000
0
VERTEX
5
2bd
100
AcDbEntity
8
1
100
AcDbVertex
100
AcDb2dVertex
62
5
10
143.500000
20
310.875000
0
VERTEX
5
2be
100
AcDbEntity
8
1
100
AcDbVertex
100
AcDb2dVertex
62
5
10
143.000000
20
310.875000
0
SEQEND
5
2bf
100
AcDbEntity
8
1
0
LINE
5
2c0
100
AcDbEntity
8
1
100
AcDbLine
6
CONTINUOUS
62
5
10
141.750000
20
313.062500
11
142.250000
21
312.125000
0
POLYLINE
5
2c1
100
AcDbEntity
8
1
6
CONTINUOUS
62
5
100
AcDb2dPolyline
66
1
10
0.0
20
0.0
30
0.0
70
0
0
VERTEX
5
2c2
100
AcDbEntity
8
1
100
AcDbVertex
100
AcDb2dVertex
62
5
10
124.000000
20
327.125000
0
VERTEX
5
2c3
100
AcDbEntity
8
1
100
AcDbVertex
100
AcDb2dVertex
62
5
10
127.250000
20
327.125000
0
VERTEX
5
2c4
100
AcDbEntity
8
1
100
AcDbVertex
100
AcDb2dVertex
62
5
10
127.250000
20
326.812500
0
VERTEX
5
2c5
100
AcDbEntity
8
1
100
AcDbVertex
100
AcDb2dVertex
62
5
10
126.750000
20
325.562500
0
VERTEX
5
2c6
100
AcDbEntity
8
1
100
AcDbVertex
100
AcDb2dVertex
62
5
10
126.250000
20
324.625000
0
VERTEX
5
2c7
100
AcDbEntity
8
1
100
AcDbVertex
100
AcDb2dVertex
62
5
10
125.250000
20
323.375000
0
VERTEX
5
2c8
100
AcDbEntity
8
1
100
AcDbVertex
100
AcDb2dVertex
62
5
10
123.500000
20
321.812500
0
SEQEND
5
2c9
100
AcDbEntity
8
1
0
LINE
5
2ca
100
AcDbEntity
8
1
100
AcDbLine
6
CONTINUOUS
62
5
10
126.250000
20
324.625000
11
128.250000
21
321.812500
0
LINE
5
2cb
100
AcDbEntity
8
1
100
AcDbLine
6
CONTINUOUS
62
5
10
116.500000
20
328.375000
11
116.500000
21
324.312500
0
LINE
5
2cc
100
AcDbEntity
8
1
100
AcDbLine
6
CONTINUOUS
62
5
10
114.750000
20
326.500000
11
121.000000
21
326.500000
0
POLYLINE
5
2cd
100
AcDbEntity
8
1
6
CONTINUOUS
62
5
100
AcDb2dPolyline
66
1
10
0.0
20
0.0
30
0.0
70
0
0
VERTEX
5
2ce
100
AcDbEntity
8
1
100
AcDbVertex
100
AcDb2dVertex
62
5
10
119.250000
20
328.687500
0
VERTEX
5
2cf
100
AcDbEntity
8
1
100
AcDbVertex
100
AcDb2dVertex
62
5
10
119.250000
20
324.937500
0
VERTEX
5
2d0
100
AcDbEntity
8
1
100
AcDbVertex
100
AcDb2dVertex
62
5
10
119.000000
20
323.687500
0
VERTEX
5
2d1
100
AcDbEntity
8
1
100
AcDbVertex
100
AcDb2dVertex
62
5
10
118.250000
20
322.437500
0
VERTEX
5
2d2
100
AcDbEntity
8
1
100
AcDbVertex
100
AcDb2dVertex
62
5
10
117.500000
20
321.500000
0
SEQEND
5
2d3
100
AcDbEntity
8
1
0
POLYLINE
5
2d4
100
AcDbEntity
8
1
6
CONTINUOUS
62
5
100
AcDb2dPolyline
66
1
10
0.0
20
0.0
30
0.0
70
0
0
VERTEX
5
2d5
100
AcDbEntity
8
1
100
AcDbVertex
100
AcDb2dVertex
62
5
10
116.250000
20
319.625000
0
VERTEX
5
2d6
100
AcDbEntity
8
1
100
AcDbVertex
100
AcDb2dVertex
62
5
10
115.500000
20
317.750000
0
VERTEX
5
2d7
100
AcDbEntity
8
1
100
AcDbVertex
100
AcDb2dVertex
62
5
10
114.250000
20
315.250000
0
SEQEND
5
2d8
100
AcDbEntity
8
1
0
LINE
5
2d9
100
AcDbEntity
8
1
100
AcDbLine
6
CONTINUOUS
62
5
10
115.500000
20
317.750000
11
115.500000
21
310.875000
0
POLYLINE
5
2da
100
AcDbEntity
8
1
6
CONTINUOUS
62
5
100
AcDb2dPolyline
66
1
10
0.0
20
0.0
30
0.0
70
0
0
VERTEX
5
2db
100
AcDbEntity
8
1
100
AcDbVertex
100
AcDb2dVertex
62
5
10
118.500000
20
319.625000
0
VERTEX
5
2dc
100
AcDbEntity
8
1
100
AcDbVertex
100
AcDb2dVertex
62
5
10
117.750000
20
318.062500
0
VERTEX
5
2dd
100
AcDbEntity
8
1
100
AcDbVertex
100
AcDb2dVertex
62
5
10
116.250000
20
316.187500
0
SEQEND
5
2de
100
AcDbEntity
8
1
0
LINE
5
2df
100
AcDbEntity
8
1
100
AcDbLine
6
CONTINUOUS
62
5
10
117.750000
20
318.062500
11
121.500000
21
318.062500
0
LINE
5
2e0
100
AcDbEntity
8
1
100
AcDbLine
6
CONTINUOUS
62
5
10
118.250000
20
318.062500
11
118.250000
21
310.875000
0
LINE
5
2e1
100
AcDbEntity
8
1
100
AcDbLine
6
CONTINUOUS
62
5
10
118.250000
20
315.875000
11
120.750000
21
315.875000
0
LINE
5
2e2
100
AcDbEntity
8
1
100
AcDbLine
6
CONTINUOUS
62
5
10
118.250000
20
313.375000
11
120.750000
21
313.375000
0
POLYLINE
5
2e3
100
AcDbEntity
8
1
6
CONTINUOUS
62
5
100
AcDb2dPolyline
66
1
10
0.0
20
0.0
30
0.0
70
0
0
VERTEX
5
2e4
100
AcDbEntity
8
1
100
AcDbVertex
100
AcDb2dVertex
62
5
10
124.000000
20
319.625000
0
VERTEX
5
2e5
100
AcDbEntity
8
1
100
AcDbVertex
100
AcDb2dVertex
62
5
10
123.250000
20
316.500000
0
VERTEX
5
2e6
100
AcDbEntity
8
1
100
AcDbVertex
100
AcDb2dVertex
62
5
10
122.250000
20
314.937500
0
SEQEND
5
2e7
100
AcDbEntity
8
1
0
LINE
5
2e8
100
AcDbEntity
8
1
100
AcDbLine
6
CONTINUOUS
62
5
10
123.250000
20
316.500000
11
123.250000
21
310.875000
0
LINE
5
2e9
100
AcDbEntity
8
1
100
AcDbLine
6
CONTINUOUS
62
5
10
128.500000
20
319.000000
11
128.500000
21
316.812500
0
LINE
5
2ea
100
AcDbEntity
8
1
100
AcDbLine
6
CONTINUOUS
62
5
10
124.000000
20
314.937500
11
129.250000
21
314.937500
0
LINE
5
2eb
100
AcDbEntity
8
1
100
AcDbLine
6
CONTINUOUS
62
5
10
126.750000
20
316.187500
11
126.750000
21
310.875000
0
POLYLINE
5
2ec
100
AcDbEntity
8
1
6
CONTINUOUS
62
5
100
AcDb2dPolyline
66
1
10
0.0
20
0.0
30
0.0
70
0
0
VERTEX
5
2ed
100
AcDbEntity
8
1
100
AcDbVertex
100
AcDb2dVertex
62
5
10
126.750000
20
314.937500
0
VERTEX
5
2ee
100
AcDbEntity
8
1
100
AcDbVertex
100
AcDb2dVertex
62
5
10
125.000000
20
312.750000
0
VERTEX
5
2ef
100
AcDbEntity
8
1
100
AcDbVertex
100
AcDb2dVertex
62
5
10
124.000000
20
311.812500
0
SEQEND
5
2f0
100
AcDbEntity
8
1
0
LINE
5
2f1
100
AcDbEntity
8
1
100
AcDbLine
6
CONTINUOUS
62
5
10
126.750000
20
314.937500
11
128.500000
21
312.437500
0
POLYLINE
5
2f2
100
AcDbEntity
8
1
6
CONTINUOUS
62
5
100
AcDb2dPolyline
66
1
10
0.0
20
0.0
30
0.0
70
0
0
VERTEX
5
2f3
100
AcDbEntity
8
1
100
AcDbVertex
100
AcDb2dVertex
62
5
10
128.500000
20
316.812500
0
VERTEX
5
2f4
100
AcDbEntity
8
1
100
AcDbVertex
100
AcDb2dVertex
62
5
10
125.000000
20
316.812500
0
VERTEX
5
2f5
100
AcDbEntity
8
1
100
AcDbVertex
100
AcDb2dVertex
62
5
10
125.000000
20
319.000000
0
VERTEX
5
2f6
100
AcDbEntity
8
1
100
AcDbVertex
100
AcDb2dVertex
62
5
10
128.500000
20
319.000000
0
SEQEND
5
2f7
100
AcDbEntity
8
1
0
LINE
5
2f8
100
AcDbEntity
8
1
100
AcDbLine
6
CONTINUOUS
62
5
10
128.500000
20
312.437500
11
129.500000
21
311.500000
0
LINE
5
2f9
100
AcDbEntity
8
1
100
AcDbLine
6
CONTINUOUS
62
5
10
91.000000
20
328.687500
11
93.500000
21
328.687500
0
LINE
5
2fa
100
AcDbEntity
8
1
100
AcDbLine
6
CONTINUOUS
62
5
10
92.250000
20
329.625000
11
92.250000
21
327.437500
0
LINE
5
2fb
100
AcDbEntity
8
1
100
AcDbLine
6
CONTINUOUS
62
5
10
90.500000
20
327.437500
11
93.750000
21
327.437500
0
POLYLINE
5
2fc
100
AcDbEntity
8
1
6
CONTINUOUS
62
5
100
AcDb2dPolyline
66
1
10
0.0
20
0.0
30
0.0
70
0
0
VERTEX
5
2fd
100
AcDbEntity
8
1
100
AcDbVertex
100
AcDb2dVertex
62
5
10
91.750000
20
327.125000
0
VERTEX
5
2fe
100
AcDbEntity
8
1
100
AcDbVertex
100
AcDb2dVertex
62
5
10
91.500000
20
326.500000
0
VERTEX
5
2ff
100
AcDbEntity
8
1
100
AcDbVertex
100
AcDb2dVertex
62
5
10
90.750000
20
325.875000
0
SEQEND
5
300
100
AcDbEntity
8
1
0
POLYLINE
5
301
100
AcDbEntity
8
1
6
CONTINUOUS
62
5
100
AcDb2dPolyline
66
1
10
0.0
20
0.0
30
0.0
70
0
0
VERTEX
5
302
100
AcDbEntity
8
1
100
AcDbVertex
100
AcDb2dVertex
62
5
10
92.750000
20
327.125000
0
VERTEX
5
303
100
AcDbEntity
8
1
100
AcDbVertex
100
AcDb2dVertex
62
5
10
92.750000
20
326.187500
0
VERTEX
5
304
100
AcDbEntity
8
1
100
AcDbVertex
100
AcDb2dVertex
62
5
10
93.000000
20
325.875000
0
VERTEX
5
305
100
AcDbEntity
8
1
100
AcDbVertex
100
AcDb2dVertex
62
5
10
93.750000
20
325.875000
0
VERTEX
5
306
100
AcDbEntity
8
1
100
AcDbVertex
100
AcDb2dVertex
62
5
10
93.750000
20
326.500000
0
SEQEND
5
307
100
AcDbEntity
8
1
0
LINE
5
308
100
AcDbEntity
8
1
100
AcDbLine
6
CONTINUOUS
62
5
10
91.000000
20
325.250000
11
93.500000
21
325.250000
0
LINE
5
309
100
AcDbEntity
8
1
100
AcDbLine
6
CONTINUOUS
62
5
10
92.250000
20
325.875000
11
92.250000
21
324.000000
0
LINE
5
30a
100
AcDbEntity
8
1
100
AcDbLine
6
CONTINUOUS
62
5
10
90.750000
20
323.687500
11
93.500000
21
324.312500
0
POLYLINE
5
30b
100
AcDbEntity
8
1
6
CONTINUOUS
62
5
100
AcDb2dPolyline
66
1
10
0.0
20
0.0
30
0.0
70
0
0
VERTEX
5
30c
100
AcDbEntity
8
1
100
AcDbVertex
100
AcDb2dVertex
62
5
10
94.250000
20
328.062500
0
VERTEX
5
30d
100
AcDbEntity
8
1
100
AcDbVertex
100
AcDb2dVertex
62
5
10
96.500000
20
328.062500
0
VERTEX
5
30e
100
AcDbEntity
8
1
100
AcDbVertex
100
AcDb2dVertex
62
5
10
96.500000
20
323.687500
0
VERTEX
5
30f
100
AcDbEntity
8
1
100
AcDbVertex
100
AcDb2dVertex
62
5
10
97.000000
20
323.062500
0
VERTEX
5
310
100
AcDbEntity
8
1
100
AcDbVertex
100
AcDb2dVertex
62
5
10
97.500000
20
323.062500
0
VERTEX
5
311
100
AcDbEntity
8
1
100
AcDbVertex
100
AcDb2dVertex
62
5
10
97.500000
20
324.000000
0
SEQEND
5
312
100
AcDbEntity
8
1
0
POLYLINE
5
313
100
AcDbEntity
8
1
6
CONTINUOUS
62
5
100
AcDb2dPolyline
66
1
10
0.0
20
0.0
30
0.0
70
0
0
VERTEX
5
314
100
AcDbEntity
8
1
100
AcDbVertex
100
AcDb2dVertex
62
5
10
95.500000
20
329.312500
0
VERTEX
5
315
100
AcDbEntity
8
1
100
AcDbVertex
100
AcDb2dVertex
62
5
10
95.250000
20
326.500000
0
VERTEX
5
316
100
AcDbEntity
8
1
100
AcDbVertex
100
AcDb2dVertex
62
5
10
94.750000
20
324.625000
0
VERTEX
5
317
100
AcDbEntity
8
1
100
AcDbVertex
100
AcDb2dVertex
62
5
10
94.000000
20
323.062500
0
SEQEND
5
318
100
AcDbEntity
8
1
0
LINE
5
319
100
AcDbEntity
8
1
100
AcDbLine
6
CONTINUOUS
62
5
10
94.500000
20
326.187500
11
95.750000
21
324.937500
0
LINE
5
31a
100
AcDbEntity
8
1
100
AcDbLine
6
CONTINUOUS
62
5
10
91.500000
20
322.750000
11
90.750000
21
321.187500
0
LINE
5
31b
100
AcDbEntity
8
1
100
AcDbLine
6
CONTINUOUS
62
5
10
92.750000
20
322.750000
11
93.250000
21
321.187500
0
LINE
5
31c
100
AcDbEntity
8
1
100
AcDbLine
6
CONTINUOUS
62
5
10
94.250000
20
322.750000
11
95.000000
21
321.187500
0
LINE
5
31d
100
AcDbEntity
8
1
100
AcDbLine
6
CONTINUOUS
62
5
10
95.750000
20
322.750000
11
97.000000
21
321.187500
0
POLYLINE
5
31e
100
AcDbEntity
8
1
6
CONTINUOUS
62
5
100
AcDb2dPolyline
66
1
10
0.0
20
0.0
30
0.0
70
0
0
VERTEX
5
31f
100
AcDbEntity
8
1
100
AcDbVertex
100
AcDb2dVertex
62
5
10
99.000000
20
325.562500
0
VERTEX
5
320
100
AcDbEntity
8
1
100
AcDbVertex
100
AcDb2dVertex
62
5
10
104.250000
20
326.187500
0
VERTEX
5
321
100
AcDbEntity
8
1
100
AcDbVertex
100
AcDb2dVertex
62
5
10
104.250000
20
325.875000
0
VERTEX
5
322
100
AcDbEntity
8
1
100
AcDbVertex
100
AcDb2dVertex
62
5
10
103.000000
20
324.312500
0
SEQEND
5
323
100
AcDbEntity
8
1
0
POLYLINE
5
324
100
AcDbEntity
8
1
6
CONTINUOUS
62
5
100
AcDb2dPolyline
66
1
10
0.0
20
0.0
30
0.0
70
0
0
VERTEX
5
325
100
AcDbEntity
8
1
100
AcDbVertex
100
AcDb2dVertex
62
5
10
101.000000
20
328.375000
0
VERTEX
5
326
100
AcDbEntity
8
1
100
AcDbVertex
100
AcDb2dVertex
62
5
10
101.000000
20
322.437500
0
VERTEX
5
327
100
AcDbEntity
8
1
100
AcDbVertex
100
AcDb2dVertex
62
5
10
101.500000
20
321.812500
0
VERTEX
5
328
100
AcDbEntity
8
1
100
AcDbVertex
100
AcDb2dVertex
62
5
10
104.250000
20
321.812500
0
SEQEND
5
329
100
AcDbEntity
8
1
0
POLYLINE
5
32a
100
AcDbEntity
8
1
6
CONTINUOUS
62
5
100
AcDb2dPolyline
66
1
10
0.0
20
0.0
30
0.0
70
0
0
VERTEX
5
32b
100
AcDbEntity
8
1
100
AcDbVertex
100
AcDb2dVertex
62
5
10
101.250000
20
315.250000
0
VERTEX
5
32c
100
AcDbEntity
8
1
100
AcDbVertex
100
AcDb2dVertex
62
5
10
101.750000
20
315.875000
0
VERTEX
5
32d
100
AcDbEntity
8
1
100
AcDbVertex
100
AcDb2dVertex
62
5
10
102.000000
20
315.875000
0
VERTEX
5
32e
100
AcDbEntity
8
1
100
AcDbVertex
100
AcDb2dVertex
62
5
10
102.500000
20
315.250000
0
VERTEX
5
32f
100
AcDbEntity
8
1
100
AcDbVertex
100
AcDb2dVertex
62
5
10
102.500000
20
314.937500
0
VERTEX
5
330
100
AcDbEntity
8
1
100
AcDbVertex
100
AcDb2dVertex
62
5
10
102.000000
20
314.312500
0
VERTEX
5
331
100
AcDbEntity
8
1
100
AcDbVertex
100
AcDb2dVertex
62
5
10
101.750000
20
314.312500
0
VERTEX
5
332
100
AcDbEntity
8
1
100
AcDbVertex
100
AcDb2dVertex
62
5
10
101.250000
20
314.937500
0
VERTEX
5
333
100
AcDbEntity
8
1
100
AcDbVertex
100
AcDb2dVertex
62
5
10
101.250000
20
315.250000
0
VERTEX
5
334
100
AcDbEntity
8
1
100
AcDbVertex
100
AcDb2dVertex
62
5
10
102.500000
20
315.250000
0
SEQEND
5
335
100
AcDbEntity
8
1
0
LINE
5
336
100
AcDbEntity
8
1
100
AcDbLine
6
CONTINUOUS
62
5
10
102.500000
20
314.937500
11
101.250000
21
314.937500
0
LINE
5
337
100
AcDbEntity
8
1
100
AcDbLine
6
CONTINUOUS
62
5
10
101.500000
20
314.625000
11
102.250000
21
314.625000
0
LINE
5
338
100
AcDbEntity
8
1
100
AcDbLine
6
CONTINUOUS
62
5
10
102.250000
20
315.562500
11
101.500000
21
315.562500
0
LINE
5
339
100
AcDbEntity
8
1
100
AcDbLine
6
CONTINUOUS
62
5
10
94.000000
20
319.625000
11
94.000000
21
318.375000
0
LINE
5
33a
100
AcDbEntity
8
1
100
AcDbLine
6
CONTINUOUS
62
5
10
91.250000
20
318.375000
11
97.000000
21
318.375000
0
POLYLINE
5
33b
100
AcDbEntity
8
1
6
CONTINUOUS
62
5
100
AcDb2dPolyline
66
1
10
0.0
20
0.0
30
0.0
70
0
0
VERTEX
5
33c
100
AcDbEntity
8
1
100
AcDbVertex
100
AcDb2dVertex
62
5
10
91.250000
20
318.375000
0
VERTEX
5
33d
100
AcDbEntity
8
1
100
AcDbVertex
100
AcDb2dVertex
62
5
10
91.250000
20
314.312500
0
VERTEX
5
33e
100
AcDbEntity
8
1
100
AcDbVertex
100
AcDb2dVertex
62
5
10
91.000000
20
312.437500
0
VERTEX
5
33f
100
AcDbEntity
8
1
100
AcDbVertex
100
AcDb2dVertex
62
5
10
90.750000
20
311.500000
0
VERTEX
5
340
100
AcDbEntity
8
1
100
AcDbVertex
100
AcDb2dVertex
62
5
10
90.250000
20
310.875000
0
SEQEND
5
341
100
AcDbEntity
8
1
0
LINE
5
342
100
AcDbEntity
8
1
100
AcDbLine
6
CONTINUOUS
62
5
10
91.750000
20
316.500000
11
96.750000
21
316.500000
0
POLYLINE
5
343
100
AcDbEntity
8
1
6
CONTINUOUS
62
5
100
AcDb2dPolyline
66
1
10
0.0
20
0.0
30
0.0
70
0
0
VERTEX
5
344
100
AcDbEntity
8
1
100
AcDbVertex
100
AcDb2dVertex
62
5
10
93.000000
20
317.750000
0
VERTEX
5
345
100
AcDbEntity
8
1
100
AcDbVertex
100
AcDb2dVertex
62
5
10
93.000000
20
314.937500
0
VERTEX
5
346
100
AcDbEntity
8
1
100
AcDbVertex
100
AcDb2dVertex
62
5
10
95.500000
20
314.937500
0
VERTEX
5
347
100
AcDbEntity
8
1
100
AcDbVertex
100
AcDb2dVertex
62
5
10
95.500000
20
318.062500
0
SEQEND
5
348
100
AcDbEntity
8
1
0
POLYLINE
5
349
100
AcDbEntity
8
1
6
CONTINUOUS
62
5
100
AcDb2dPolyline
66
1
10
0.0
20
0.0
30
0.0
70
0
0
VERTEX
5
34a
100
AcDbEntity
8
1
100
AcDbVertex
100
AcDb2dVertex
62
5
10
92.250000
20
313.687500
0
VERTEX
5
34b
100
AcDbEntity
8
1
100
AcDbVertex
100
AcDb2dVertex
62
5
10
96.000000
20
313.687500
0
VERTEX
5
34c
100
AcDbEntity
8
1
100
AcDbVertex
100
AcDb2dVertex
62
5
10
95.250000
20
312.750000
0
VERTEX
5
34d
100
AcDbEntity
8
1
100
AcDbVertex
100
AcDb2dVertex
62
5
10
94.250000
20
311.812500
0
VERTEX
5
34e
100
AcDbEntity
8
1
100
AcDbVertex
100
AcDb2dVertex
62
5
10
93.000000
20
311.187500
0
VERTEX
5
34f
100
AcDbEntity
8
1
100
AcDbVertex
100
AcDb2dVertex
62
5
10
91.500000
20
310.875000
0
SEQEND
5
350
100
AcDbEntity
8
1
0
POLYLINE
5
351
100
AcDbEntity
8
1
6
CONTINUOUS
62
5
100
AcDb2dPolyline
66
1
10
0.0
20
0.0
30
0.0
70
0
0
VERTEX
5
352
100
AcDbEntity
8
1
100
AcDbVertex
100
AcDb2dVertex
62
5
10
93.250000
20
313.062500
0
VERTEX
5
353
100
AcDbEntity
8
1
100
AcDbVertex
100
AcDb2dVertex
62
5
10
94.000000
20
312.125000
0
VERTEX
5
354
100
AcDbEntity
8
1
100
AcDbVertex
100
AcDb2dVertex
62
5
10
95.000000
20
311.500000
0
VERTEX
5
355
100
AcDbEntity
8
1
100
AcDbVertex
100
AcDb2dVertex
62
5
10
97.250000
20
310.875000
0
SEQEND
5
356
100
AcDbEntity
8
1
0
POLYLINE
5
357
100
AcDbEntity
8
1
6
CONTINUOUS
62
5
100
AcDb2dPolyline
66
1
10
0.0
20
0.0
30
0.0
70
0
0
VERTEX
5
358
100
AcDbEntity
8
1
100
AcDbVertex
100
AcDb2dVertex
62
5
10
82.250000
20
323.375000
0
VERTEX
5
359
100
AcDbEntity
8
1
100
AcDbVertex
100
AcDb2dVertex
62
5
10
82.750000
20
324.312500
0
VERTEX
5
35a
100
AcDbEntity
8
1
100
AcDbVertex
100
AcDb2dVertex
62
5
10
83.250000
20
325.875000
0
VERTEX
5
35b
100
AcDbEntity
8
1
100
AcDbVertex
100
AcDb2dVertex
62
5
10
83.250000
20
328.375000
0
VERTEX
5
35c
100
AcDbEntity
8
1
100
AcDbVertex
100
AcDb2dVertex
62
5
10
89.000000
20
328.375000
0
SEQEND
5
35d
100
AcDbEntity
8
1
0
LINE
5
35e
100
AcDbEntity
8
1
100
AcDbLine
6
CONTINUOUS
62
5
10
87.750000
20
329.312500
11
88.250000
21
329.000000
0
POLYLINE
5
35f
100
AcDbEntity
8
1
6
CONTINUOUS
62
5
100
AcDb2dPolyline
66
1
10
0.0
20
0.0
30
0.0
70
0
0
VERTEX
5
360
100
AcDbEntity
8
1
100
AcDbVertex
100
AcDb2dVertex
62
5
10
86.500000
20
329.312500
0
VERTEX
5
361
100
AcDbEntity
8
1
100
AcDbVertex
100
AcDb2dVertex
62
5
10
86.500000
20
327.125000
0
VERTEX
5
362
100
AcDbEntity
8
1
100
AcDbVertex
100
AcDb2dVertex
62
5
10
87.000000
20
325.562500
0
VERTEX
5
363
100
AcDbEntity
8
1
100
AcDbVertex
100
AcDb2dVertex
62
5
10
88.000000
20
324.000000
0
VERTEX
5
364
100
AcDbEntity
8
1
100
AcDbVertex
100
AcDb2dVertex
62
5
10
89.250000
20
324.000000
0
VERTEX
5
365
100
AcDbEntity
8
1
100
AcDbVertex
100
AcDb2dVertex
62
5
10
89.000000
20
324.937500
0
SEQEND
5
366
100
AcDbEntity
8
1
0
POLYLINE
5
367
100
AcDbEntity
8
1
6
CONTINUOUS
62
5
100
AcDb2dPolyline
66
1
10
0.0
20
0.0
30
0.0
70
0
0
VERTEX
5
368
100
AcDbEntity
8
1
100
AcDbVertex
100
AcDb2dVertex
62
5
10
88.250000
20
327.125000
0
VERTEX
5
369
100
AcDbEntity
8
1
100
AcDbVertex
100
AcDb2dVertex
62
5
10
87.500000
20
325.562500
0
VERTEX
5
36a
100
AcDbEntity
8
1
100
AcDbVertex
100
AcDb2dVertex
62
5
10
86.750000
20
324.625000
0
VERTEX
5
36b
100
AcDbEntity
8
1
100
AcDbVertex
100
AcDb2dVertex
62
5
10
86.000000
20
324.000000
0
SEQEND
5
36c
100
AcDbEntity
8
1
0
LINE
5
36d
100
AcDbEntity
8
1
100
AcDbLine
6
CONTINUOUS
62
5
10
84.000000
20
326.812500
11
85.750000
21
326.812500
0
POLYLINE
5
36e
100
AcDbEntity
8
1
6
CONTINUOUS
62
5
100
AcDb2dPolyline
66
1
10
0.0
20
0.0
30
0.0
70
1
0
VERTEX
5
36f
100
AcDbEntity
8
1
100
AcDbVertex
100
AcDb2dVertex
62
5
10
84.000000
20
325.875000
0
VERTEX
5
370
100
AcDbEntity
8
1
100
AcDbVertex
100
AcDb2dVertex
62
5
10
85.750000
20
325.875000
0
VERTEX
5
371
100
AcDbEntity
8
1
100
AcDbVertex
100
AcDb2dVertex
62
5
10
85.750000
20
324.312500
0
VERTEX
5
372
100
AcDbEntity
8
1
100
AcDbVertex
100
AcDb2dVertex
62
5
10
84.000000
20
324.312500
0
VERTEX
5
373
100
AcDbEntity
8
1
100
AcDbVertex
100
AcDb2dVertex
62
5
10
84.000000
20
325.875000
0
SEQEND
5
374
100
AcDbEntity
8
1
0
POLYLINE
5
375
100
AcDbEntity
8
1
6
CONTINUOUS
62
5
100
AcDb2dPolyline
66
1
10
0.0
20
0.0
30
0.0
70
0
0
VERTEX
5
376
100
AcDbEntity
8
1
100
AcDbVertex
100
AcDb2dVertex
62
5
10
83.250000
20
322.750000
0
VERTEX
5
377
100
AcDbEntity
8
1
100
AcDbVertex
100
AcDb2dVertex
62
5
10
83.000000
20
321.812500
0
VERTEX
5
378
100
AcDbEntity
8
1
100
AcDbVertex
100
AcDb2dVertex
62
5
10
82.500000
20
321.187500
0
SEQEND
5
379
100
AcDbEntity
8
1
0
POLYLINE
5
37a
100
AcDbEntity
8
1
6
CONTINUOUS
62
5
100
AcDb2dPolyline
66
1
10
0.0
20
0.0
30
0.0
70
0
0
VERTEX
5
37b
100
AcDbEntity
8
1
100
AcDbVertex
100
AcDb2dVertex
62
5
10
84.250000
20
323.062500
0
VERTEX
5
37c
100
AcDbEntity
8
1
100
AcDbVertex
100
AcDb2dVertex
62
5
10
84.250000
20
321.500000
0
VERTEX
5
37d
100
AcDbEntity
8
1
100
AcDbVertex
100
AcDb2dVertex
62
5
10
84.750000
20
320.875000
0
VERTEX
5
37e
100
AcDbEntity
8
1
100
AcDbVertex
100
AcDb2dVertex
62
5
10
87.750000
20
320.875000
0
VERTEX
5
37f
100
AcDbEntity
8
1
100
AcDbVertex
100
AcDb2dVertex
62
5
10
87.500000
20
321.812500
0
SEQEND
5
380
100
AcDbEntity
8
1
0
LINE
5
381
100
AcDbEntity
8
1
100
AcDbLine
6
CONTINUOUS
62
5
10
85.750000
20
323.062500
11
86.500000
21
322.125000
0
POLYLINE
5
382
100
AcDbEntity
8
1
6
CONTINUOUS
62
5
100
AcDb2dPolyline
66
1
10
0.0
20
0.0
30
0.0
70
0
0
VERTEX
5
383
100
AcDbEntity
8
1
100
AcDbVertex
100
AcDb2dVertex
62
5
10
88.500000
20
322.750000
0
VERTEX
5
384
100
AcDbEntity
8
1
100
AcDbVertex
100
AcDb2dVertex
62
5
10
89.000000
20
321.812500
0
VERTEX
5
385
100
AcDbEntity
8
1
100
AcDbVertex
100
AcDb2dVertex
62
5
10
89.250000
20
321.187500
0
SEQEND
5
386
100
AcDbEntity
8
1
0
POLYLINE
5
387
100
AcDbEntity
8
1
6
CONTINUOUS
62
5
100
AcDb2dPolyline
66
1
10
0.0
20
0.0
30
0.0
70
1
0
VERTEX
5
388
100
AcDbEntity
8
1
100
AcDbVertex
100
AcDb2dVertex
62
5
10
82.750000
20
318.687500
0
VERTEX
5
389
100
AcDbEntity
8
1
100
AcDbVertex
100
AcDb2dVertex
62
5
10
82.750000
20
313.687500
0
VERTEX
5
38a
100
AcDbEntity
8
1
100
AcDbVertex
100
AcDb2dVertex
62
5
10
84.500000
20
313.687500
0
VERTEX
5
38b
100
AcDbEntity
8
1
100
AcDbVertex
100
AcDb2dVertex
62
5
10
84.500000
20
318.687500
0
VERTEX
5
38c
100
AcDbEntity
8
1
100
AcDbVertex
100
AcDb2dVertex
62
5
10
82.750000
20
318.687500
0
SEQEND
5
38d
100
AcDbEntity
8
1
0
LINE
5
38e
100
AcDbEntity
8
1
100
AcDbLine
6
CONTINUOUS
62
5
10
82.750000
20
316.187500
11
84.500000
21
316.187500
0
POLYLINE
5
38f
100
AcDbEntity
8
1
6
CONTINUOUS
62
5
100
AcDb2dPolyline
66
1
10
0.0
20
0.0
30
0.0
70
0
0
VERTEX
5
390
100
AcDbEntity
8
1
100
AcDbVertex
100
AcDb2dVertex
62
5
10
85.250000
20
319.312500
0
VERTEX
5
391
100
AcDbEntity
8
1
100
AcDbVertex
100
AcDb2dVertex
62
5
10
89.000000
20
319.312500
0
VERTEX
5
392
100
AcDbEntity
8
1
100
AcDbVertex
100
AcDb2dVertex
62
5
10
88.750000
20
317.437500
0
VERTEX
5
393
100
AcDbEntity
8
1
100
AcDbVertex
100
AcDb2dVertex
62
5
10
88.250000
20
316.500000
0
VERTEX
5
394
100
AcDbEntity
8
1
100
AcDbVertex
100
AcDb2dVertex
62
5
10
87.750000
20
316.812500
0
SEQEND
5
395
100
AcDbEntity
8
1
0
POLYLINE
5
396
100
AcDbEntity
8
1
6
CONTINUOUS
62
5
100
AcDb2dPolyline
66
1
10
0.0
20
0.0
30
0.0
70
0
0
VERTEX
5
397
100
AcDbEntity
8
1
100
AcDbVertex
100
AcDb2dVertex
62
5
10
86.750000
20
319.312500
0
VERTEX
5
398
100
AcDbEntity
8
1
100
AcDbVertex
100
AcDb2dVertex
62
5
10
86.500000
20
317.437500
0
VERTEX
5
399
100
AcDbEntity
8
1
100
AcDbVertex
100
AcDb2dVertex
62
5
10
86.000000
20
316.500000
0
VERTEX
5
39a
100
AcDbEntity
8
1
100
AcDbVertex
100
AcDb2dVertex
62
5
10
85.500000
20
315.875000
0
SEQEND
5
39b
100
AcDbEntity
8
1
0
POLYLINE
5
39c
100
AcDbEntity
8
1
6
CONTINUOUS
62
5
100
AcDb2dPolyline
66
1
10
0.0
20
0.0
30
0.0
70
1
0
VERTEX
5
39d
100
AcDbEntity
8
1
100
AcDbVertex
100
AcDb2dVertex
62
5
10
85.750000
20
315.562500
0
VERTEX
5
39e
100
AcDbEntity
8
1
100
AcDbVertex
100
AcDb2dVertex
62
5
10
85.750000
20
313.062500
0
VERTEX
5
39f
100
AcDbEntity
8
1
100
AcDbVertex
100
AcDb2dVertex
62
5
10
88.750000
20
313.062500
0
VERTEX
5
3a0
100
AcDbEntity
8
1
100
AcDbVertex
100
AcDb2dVertex
62
5
10
88.750000
20
315.562500
0
VERTEX
5
3a1
100
AcDbEntity
8
1
100
AcDbVertex
100
AcDb2dVertex
62
5
10
85.750000
20
315.562500
0
SEQEND
5
3a2
100
AcDbEntity
8
1
0
POLYLINE
5
3a3
100
AcDbEntity
8
1
6
CONTINUOUS
62
5
100
AcDb2dPolyline
66
1
10
0.0
20
0.0
30
0.0
70
0
0
VERTEX
5
3a4
100
AcDbEntity
8
1
100
AcDbVertex
100
AcDb2dVertex
62
5
10
83.250000
20
312.125000
0
VERTEX
5
3a5
100
AcDbEntity
8
1
100
AcDbVertex
100
AcDb2dVertex
62
5
10
83.000000
20
311.500000
0
VERTEX
5
3a6
100
AcDbEntity
8
1
100
AcDbVertex
100
AcDb2dVertex
62
5
10
82.500000
20
310.875000
0
SEQEND
5
3a7
100
AcDbEntity
8
1
0
LINE
5
3a8
100
AcDbEntity
8
1
100
AcDbLine
6
CONTINUOUS
62
5
10
85.000000
20
312.125000
11
84.750000
21
310.875000
0
LINE
5
3a9
100
AcDbEntity
8
1
100
AcDbLine
6
CONTINUOUS
62
5
10
86.750000
20
312.125000
11
87.250000
21
310.875000
0
POLYLINE
5
3aa
100
AcDbEntity
8
1
6
CONTINUOUS
62
5
100
AcDb2dPolyline
66
1
10
0.0
20
0.0
30
0.0
70
0
0
VERTEX
5
3ab
100
AcDbEntity
8
1
100
AcDbVertex
100
AcDb2dVertex
62
5
10
88.250000
20
312.125000
0
VERTEX
5
3ac
100
AcDbEntity
8
1
100
AcDbVertex
100
AcDb2dVertex
62
5
10
88.750000
20
311.812500
0
VERTEX
5
3ad
100
AcDbEntity
8
1
100
AcDbVertex
100
AcDb2dVertex
62
5
10
89.250000
20
310.875000
0
SEQEND
5
3ae
100
AcDbEntity
8
1
0
LINE
5
3af
100
AcDbEntity
8
1
100
AcDbLine
6
CONTINUOUS
62
5
10
75.000000
20
329.000000
11
76.000000
21
328.062500
0
POLYLINE
5
3b0
100
AcDbEntity
8
1
6
CONTINUOUS
62
5
100
AcDb2dPolyline
66
1
10
0.0
20
0.0
30
0.0
70
0
0
VERTEX
5
3b1
100
AcDbEntity
8
1
100
AcDbVertex
100
AcDb2dVertex
62
5
10
74.750000
20
325.875000
0
VERTEX
5
3b2
100
AcDbEntity
8
1
100
AcDbVertex
100
AcDb2dVertex
62
5
10
76.000000
20
325.875000
0
VERTEX
5
3b3
100
AcDbEntity
8
1
100
AcDbVertex
100
AcDb2dVertex
62
5
10
76.000000
20
322.750000
0
VERTEX
5
3b4
100
AcDbEntity
8
1
100
AcDbVertex
100
AcDb2dVertex
62
5
10
74.750000
20
321.187500
0
SEQEND
5
3b5
100
AcDbEntity
8
1
0
POLYLINE
5
3b6
100
AcDbEntity
8
1
6
CONTINUOUS
62
5
100
AcDb2dPolyline
66
1
10
0.0
20
0.0
30
0.0
70
0
0
VERTEX
5
3b7
100
AcDbEntity
8
1
100
AcDbVertex
100
AcDb2dVertex
62
5
10
76.000000
20
322.750000
0
VERTEX
5
3b8
100
AcDbEntity
8
1
100
AcDbVertex
100
AcDb2dVertex
62
5
10
76.750000
20
321.500000
0
VERTEX
5
3b9
100
AcDbEntity
8
1
100
AcDbVertex
100
AcDb2dVertex
62
5
10
77.750000
20
321.187500
0
VERTEX
5
3ba
100
AcDbEntity
8
1
100
AcDbVertex
100
AcDb2dVertex
62
5
10
81.500000
20
321.187500
0
SEQEND
5
3bb
100
AcDbEntity
8
1
0
POLYLINE
5
3bc
100
AcDbEntity
8
1
6
CONTINUOUS
62
5
100
AcDb2dPolyline
66
1
10
0.0
20
0.0
30
0.0
70
0
0
VERTEX
5
3bd
100
AcDbEntity
8
1
100
AcDbVertex
100
AcDb2dVertex
62
5
10
78.750000
20
326.500000
0
VERTEX
5
3be
100
AcDbEntity
8
1
100
AcDbVertex
100
AcDb2dVertex
62
5
10
78.000000
20
324.625000
0
VERTEX
5
3bf
100
AcDbEntity
8
1
100
AcDbVertex
100
AcDb2dVertex
62
5
10
77.250000
20
323.375000
0
VERTEX
5
3c0
100
AcDbEntity
8
1
100
AcDbVertex
100
AcDb2dVertex
62
5
10
76.750000
20
322.750000
0
SEQEND
5
3c1
100
AcDbEntity
8
1
0
POLYLINE
5
3c2
100
AcDbEntity
8
1
6
CONTINUOUS
62
5
100
AcDb2dPolyline
66
1
10
0.0
20
0.0
30
0.0
70
0
0
VERTEX
5
3c3
100
AcDbEntity
8
1
100
AcDbVertex
100
AcDb2dVertex
62
5
10
77.500000
20
329.312500
0
VERTEX
5
3c4
100
AcDbEntity
8
1
100
AcDbVertex
100
AcDb2dVertex
62
5
10
78.750000
20
329.312500
0
VERTEX
5
3c5
100
AcDbEntity
8
1
100
AcDbVertex
100
AcDb2dVertex
62
5
10
78.750000
20
326.500000
0
VERTEX
5
3c6
100
AcDbEntity
8
1
100
AcDbVertex
100
AcDb2dVertex
62
5
10
79.500000
20
324.625000
0
VERTEX
5
3c7
100
AcDbEntity
8
1
100
AcDbVertex
100
AcDb2dVertex
62
5
10
80.500000
20
323.375000
0
VERTEX
5
3c8
100
AcDbEntity
8
1
100
AcDbVertex
100
AcDb2dVertex
62
5
10
81.250000
20
322.750000
0
SEQEND
5
3c9
100
AcDbEntity
8
1
0
POLYLINE
5
3ca
100
AcDbEntity
8
1
6
CONTINUOUS
62
5
100
AcDb2dPolyline
66
1
10
0.0
20
0.0
30
0.0
70
0
0
VERTEX
5
3cb
100
AcDbEntity
8
1
100
AcDbVertex
100
AcDb2dVertex
62
5
10
76.250000
20
319.625000
0
VERTEX
5
3cc
100
AcDbEntity
8
1
100
AcDbVertex
100
AcDb2dVertex
62
5
10
75.500000
20
317.750000
0
VERTEX
5
3cd
100
AcDbEntity
8
1
100
AcDbVertex
100
AcDb2dVertex
62
5
10
74.250000
20
315.250000
0
SEQEND
5
3ce
100
AcDbEntity
8
1
0
LINE
5
3cf
100
AcDbEntity
8
1
100
AcDbLine
6
CONTINUOUS
62
5
10
75.500000
20
317.750000
11
75.500000
21
310.875000
0
POLYLINE
5
3d0
100
AcDbEntity
8
1
6
CONTINUOUS
62
5
100
AcDb2dPolyline
66
1
10
0.0
20
0.0
30
0.0
70
0
0
VERTEX
5
3d1
100
AcDbEntity
8
1
100
AcDbVertex
100
AcDb2dVertex
62
5
10
78.500000
20
319.625000
0
VERTEX
5
3d2
100
AcDbEntity
8
1
100
AcDbVertex
100
AcDb2dVertex
62
5
10
77.750000
20
318.062500
0
VERTEX
5
3d3
100
AcDbEntity
8
1
100
AcDbVertex
100
AcDb2dVertex
62
5
10
76.250000
20
316.187500
0
SEQEND
5
3d4
100
AcDbEntity
8
1
0
LINE
5
3d5
100
AcDbEntity
8
1
100
AcDbLine
6
CONTINUOUS
62
5
10
77.750000
20
318.062500
11
81.500000
21
318.062500
0
LINE
5
3d6
100
AcDbEntity
8
1
100
AcDbLine
6
CONTINUOUS
62
5
10
78.250000
20
318.062500
11
78.250000
21
310.875000
0
LINE
5
3d7
100
AcDbEntity
8
1
100
AcDbLine
6
CONTINUOUS
62
5
10
78.250000
20
315.875000
11
80.750000
21
315.875000
0
LINE
5
3d8
100
AcDbEntity
8
1
100
AcDbLine
6
CONTINUOUS
62
5
10
78.250000
20
313.375000
11
80.750000
21
313.375000
0
LINE
5
3d9
100
AcDbEntity
8
1
100
AcDbLine
6
CONTINUOUS
62
5
10
107.750000
20
327.437500
11
108.750000
21
326.187500
0
POLYLINE
5
3da
100
AcDbEntity
8
1
6
CONTINUOUS
62
5
100
AcDb2dPolyline
66
1
10
0.0
20
0.0
30
0.0
70
0
0
VERTEX
5
3db
100
AcDbEntity
8
1
100
AcDbVertex
100
AcDb2dVertex
62
5
10
107.500000
20
322.437500
0
VERTEX
5
3dc
100
AcDbEntity
8
1
100
AcDbVertex
100
AcDb2dVertex
62
5
10
109.250000
20
323.375000
0
VERTEX
5
3dd
100
AcDbEntity
8
1
100
AcDbVertex
100
AcDb2dVertex
62
5
10
110.750000
20
324.625000
0
VERTEX
5
3de
100
AcDbEntity
8
1
100
AcDbVertex
100
AcDb2dVertex
62
5
10
112.250000
20
326.187500
0
SEQEND
5
3df
100
AcDbEntity
8
1
0
POLYLINE
5
3e0
100
AcDbEntity
8
1
6
CONTINUOUS
62
5
100
AcDb2dPolyline
66
1
10
0.0
20
0.0
30
0.0
70
0
0
VERTEX
5
3e1
100
AcDbEntity
8
1
100
AcDbVertex
100
AcDb2dVertex
62
5
10
109.500000
20
319.312500
0
VERTEX
5
3e2
100
AcDbEntity
8
1
100
AcDbVertex
100
AcDb2dVertex
62
5
10
108.250000
20
318.687500
0
VERTEX
5
3e3
100
AcDbEntity
8
1
100
AcDbVertex
100
AcDb2dVertex
62
5
10
106.500000
20
318.375000
0
SEQEND
5
3e4
100
AcDbEntity
8
1
0
LINE
5
3e5
100
AcDbEntity
8
1
100
AcDbLine
6
CONTINUOUS
62
5
10
106.250000
20
317.437500
11
110.000000
21
317.437500
0
POLYLINE
5
3e6
100
AcDbEntity
8
1
6
CONTINUOUS
62
5
100
AcDb2dPolyline
66
1
10
0.0
20
0.0
30
0.0
70
1
0
VERTEX
5
3e7
100
AcDbEntity
8
1
100
AcDbVertex
100
AcDb2dVertex
62
5
10
106.500000
20
316.500000
0
VERTEX
5
3e8
100
AcDbEntity
8
1
100
AcDbVertex
100
AcDb2dVertex
62
5
10
106.500000
20
314.000000
0
VERTEX
5
3e9
100
AcDbEntity
8
1
100
AcDbVertex
100
AcDb2dVertex
62
5
10
109.750000
20
314.000000
0
VERTEX
5
3ea
100
AcDbEntity
8
1
100
AcDbVertex
100
AcDb2dVertex
62
5
10
109.750000
20
316.500000
0
VERTEX
5
3eb
100
AcDbEntity
8
1
100
AcDbVertex
100
AcDb2dVertex
62
5
10
106.500000
20
316.500000
0
SEQEND
5
3ec
100
AcDbEntity
8
1
0
LINE
5
3ed
100
AcDbEntity
8
1
100
AcDbLine
6
CONTINUOUS
62
5
10
106.500000
20
315.250000
11
109.750000
21
315.250000
0
LINE
5
3ee
100
AcDbEntity
8
1
100
AcDbLine
6
CONTINUOUS
62
5
10
108.250000
20
318.687500
11
108.250000
21
311.500000
0
LINE
5
3ef
100
AcDbEntity
8
1
100
AcDbLine
6
CONTINUOUS
62
5
10
106.500000
20
313.062500
11
109.750000
21
313.062500
0
POLYLINE
5
3f0
100
AcDbEntity
8
1
6
CONTINUOUS
62
5
100
AcDb2dPolyline
66
1
10
0.0
20
0.0
30
0.0
70
0
0
VERTEX
5
3f1
100
AcDbEntity
8
1
100
AcDbVertex
100
AcDb2dVertex
62
5
10
106.500000
20
311.187500
0
VERTEX
5
3f2
100
AcDbEntity
8
1
100
AcDbVertex
100
AcDb2dVertex
62
5
10
107.250000
20
311.187500
0
VERTEX
5
3f3
100
AcDbEntity
8
1
100
AcDbVertex
100
AcDb2dVertex
62
5
10
109.750000
20
311.812500
0
SEQEND
5
3f4
100
AcDbEntity
8
1
0
POLYLINE
5
3f5
100
AcDbEntity
8
1
6
CONTINUOUS
62
5
100
AcDb2dPolyline
66
1
10
0.0
20
0.0
30
0.0
70
0
0
VERTEX
5
3f6
100
AcDbEntity
8
1
100
AcDbVertex
100
AcDb2dVertex
62
5
10
110.250000
20
317.125000
0
VERTEX
5
3f7
100
AcDbEntity
8
1
100
AcDbVertex
100
AcDb2dVertex
62
5
10
113.250000
20
317.125000
0
VERTEX
5
3f8
100
AcDbEntity
8
1
100
AcDbVertex
100
AcDb2dVertex
62
5
10
113.250000
20
313.687500
0
VERTEX
5
3f9
100
AcDbEntity
8
1
100
AcDbVertex
100
AcDb2dVertex
62
5
10
113.000000
20
311.812500
0
VERTEX
5
3fa
100
AcDbEntity
8
1
100
AcDbVertex
100
AcDb2dVertex
62
5
10
112.250000
20
310.875000
0
VERTEX
5
3fb
100
AcDbEntity
8
1
100
AcDbVertex
100
AcDb2dVertex
62
5
10
111.500000
20
311.812500
0
SEQEND
5
3fc
100
AcDbEntity
8
1
0
POLYLINE
5
3fd
100
AcDbEntity
8
1
6
CONTINUOUS
62
5
100
AcDb2dPolyline
66
1
10
0.0
20
0.0
30
0.0
70
0
0
VERTEX
5
3fe
100
AcDbEntity
8
1
100
AcDbVertex
100
AcDb2dVertex
62
5
10
111.250000
20
319.625000
0
VERTEX
5
3ff
100
AcDbEntity
8
1
100
AcDbVertex
100
AcDb2dVertex
62
5
10
111.250000
20
315.250000
0
VERTEX
5
400
100
AcDbEntity
8
1
100
AcDbVertex
100
AcDb2dVertex
62
5
10
110.500000
20
312.125000
0
VERTEX
5
401
100
AcDbEntity
8
1
100
AcDbVertex
100
AcDb2dVertex
62
5
10
109.750000
20
310.875000
0
SEQEND
5
402
100
AcDbEntity
8
1
0
LINE
5
403
100
AcDbEntity
8
1
100
AcDbLine
6
CONTINUOUS
62
5
10
102.500000
20
286.750000
11
105.625000
21
286.750000
0
LINE
5
404
100
AcDbEntity
8
1
100
AcDbLine
6
CONTINUOUS
62
5
10
82.500000
20
286.750000
11
85.625000
21
286.750000
0
POLYLINE
5
405
100
AcDbEntity
8
1
6
CONTINUOUS
62
5
100
AcDb2dPolyline
66
1
10
0.0
20
0.0
30
0.0
70
0
0
VERTEX
5
406
100
AcDbEntity
8
1
100
AcDbVertex
100
AcDb2dVertex
62
5
10
122.187500
20
290.500000
0
VERTEX
5
407
100
AcDbEntity
8
1
100
AcDbVertex
100
AcDb2dVertex
62
5
10
123.125000
20
283.000000
0
VERTEX
5
408
100
AcDbEntity
8
1
100
AcDbVertex
100
AcDb2dVertex
62
5
10
124.062500
20
290.500000
0
VERTEX
5
409
100
AcDbEntity
8
1
100
AcDbVertex
100
AcDb2dVertex
62
5
10
125.000000
20
283.000000
0
VERTEX
5
40a
100
AcDbEntity
8
1
100
AcDbVertex
100
AcDb2dVertex
62
5
10
125.937500
20
290.500000
0
SEQEND
5
40b
100
AcDbEntity
8
1
0
POLYLINE
5
40c
100
AcDbEntity
8
1
6
CONTINUOUS
62
5
100
AcDb2dPolyline
66
1
10
0.0
20
0.0
30
0.0
70
0
0
VERTEX
5
40d
100
AcDbEntity
8
1
100
AcDbVertex
100
AcDb2dVertex
62
5
10
107.500000
20
288.625000
0
VERTEX
5
40e
100
AcDbEntity
8
1
100
AcDbVertex
100
AcDb2dVertex
62
5
10
107.812500
20
289.875000
0
VERTEX
5
40f
100
AcDbEntity
8
1
100
AcDbVertex
100
AcDb2dVertex
62
5
10
108.437500
20
290.500000
0
VERTEX
5
410
100
AcDbEntity
8
1
100
AcDbVertex
100
AcDb2dVertex
62
5
10
109.375000
20
290.500000
0
VERTEX
5
411
100
AcDbEntity
8
1
100
AcDbVertex
100
AcDb2dVertex
62
5
10
110.000000
20
290.187500
0
VERTEX
5
412
100
AcDbEntity
8
1
100
AcDbVertex
100
AcDb2dVertex
62
5
10
110.312500
20
289.250000
0
VERTEX
5
413
100
AcDbEntity
8
1
100
AcDbVertex
100
AcDb2dVertex
62
5
10
110.312500
20
288.000000
0
VERTEX
5
414
100
AcDbEntity
8
1
100
AcDbVertex
100
AcDb2dVertex
62
5
10
110.000000
20
287.375000
0
VERTEX
5
415
100
AcDbEntity
8
1
100
AcDbVertex
100
AcDb2dVertex
62
5
10
109.375000
20
286.750000
0
VERTEX
5
416
100
AcDbEntity
8
1
100
AcDbVertex
100
AcDb2dVertex
62
5
10
108.437500
20
286.750000
0
SEQEND
5
417
100
AcDbEntity
8
1
0
POLYLINE
5
418
100
AcDbEntity
8
1
6
CONTINUOUS
62
5
100
AcDb2dPolyline
66
1
10
0.0
20
0.0
30
0.0
70
0
0
VERTEX
5
419
100
AcDbEntity
8
1
100
AcDbVertex
100
AcDb2dVertex
62
5
10
109.375000
20
286.750000
0
VERTEX
5
41a
100
AcDbEntity
8
1
100
AcDbVertex
100
AcDb2dVertex
62
5
10
110.312500
20
286.125000
0
VERTEX
5
41b
100
AcDbEntity
8
1
100
AcDbVertex
100
AcDb2dVertex
62
5
10
110.625000
20
285.187500
0
VERTEX
5
41c
100
AcDbEntity
8
1
100
AcDbVertex
100
AcDb2dVertex
62
5
10
110.625000
20
284.250000
0
VERTEX
5
41d
100
AcDbEntity
8
1
100
AcDbVertex
100
AcDb2dVertex
62
5
10
110.312500
20
283.625000
0
VERTEX
5
41e
100
AcDbEntity
8
1
100
AcDbVertex
100
AcDb2dVertex
62
5
10
109.375000
20
283.000000
0
VERTEX
5
41f
100
AcDbEntity
8
1
100
AcDbVertex
100
AcDb2dVertex
62
5
10
108.437500
20
283.000000
0
VERTEX
5
420
100
AcDbEntity
8
1
100
AcDbVertex
100
AcDb2dVertex
62
5
10
107.812500
20
283.312500
0
VERTEX
5
421
100
AcDbEntity
8
1
100
AcDbVertex
100
AcDb2dVertex
62
5
10
107.187500
20
284.250000
0
SEQEND
5
422
100
AcDbEntity
8
1
0
LINE
5
423
100
AcDbEntity
8
1
100
AcDbLine
6
CONTINUOUS
62
5
10
87.500000
20
290.500000
11
87.500000
21
283.000000
0
POLYLINE
5
424
100
AcDbEntity
8
1
6
CONTINUOUS
62
5
100
AcDb2dPolyline
66
1
10
0.0
20
0.0
30
0.0
70
0
0
VERTEX
5
425
100
AcDbEntity
8
1
100
AcDbVertex
100
AcDb2dVertex
62
5
10
87.500000
20
290.500000
0
VERTEX
5
426
100
AcDbEntity
8
1
100
AcDbVertex
100
AcDb2dVertex
62
5
10
88.750000
20
290.500000
0
VERTEX
5
427
100
AcDbEntity
8
1
100
AcDbVertex
100
AcDb2dVertex
62
5
10
89.687500
20
290.187500
0
VERTEX
5
428
100
AcDbEntity
8
1
100
AcDbVertex
100
AcDb2dVertex
62
5
10
90.312500
20
289.562500
0
VERTEX
5
429
100
AcDbEntity
8
1
100
AcDbVertex
100
AcDb2dVertex
62
5
10
90.625000
20
288.937500
0
VERTEX
5
42a
100
AcDbEntity
8
1
100
AcDbVertex
100
AcDb2dVertex
62
5
10
90.625000
20
288.000000
0
VERTEX
5
42b
100
AcDbEntity
8
1
100
AcDbVertex
100
AcDb2dVertex
62
5
10
90.312500
20
287.375000
0
VERTEX
5
42c
100
AcDbEntity
8
1
100
AcDbVertex
100
AcDb2dVertex
62
5
10
89.687500
20
286.750000
0
VERTEX
5
42d
100
AcDbEntity
8
1
100
AcDbVertex
100
AcDb2dVertex
62
5
10
88.750000
20
286.437500
0
VERTEX
5
42e
100
AcDbEntity
8
1
100
AcDbVertex
100
AcDb2dVertex
62
5
10
87.500000
20
286.437500
0
SEQEND
5
42f
100
AcDbEntity
8
1
0
POLYLINE
5
430
100
AcDbEntity
8
1
6
CONTINUOUS
62
5
100
AcDb2dPolyline
66
1
10
0.0
20
0.0
30
0.0
70
0
0
VERTEX
5
431
100
AcDbEntity
8
1
100
AcDbVertex
100
AcDb2dVertex
62
5
10
92.500000
20
283.000000
0
VERTEX
5
432
100
AcDbEntity
8
1
100
AcDbVertex
100
AcDb2dVertex
62
5
10
94.062500
20
290.500000
0
VERTEX
5
433
100
AcDbEntity
8
1
100
AcDbVertex
100
AcDb2dVertex
62
5
10
95.625000
20
283.000000
0
SEQEND
5
434
100
AcDbEntity
8
1
0
LINE
5
435
100
AcDbEntity
8
1
100
AcDbLine
6
CONTINUOUS
62
5
10
93.125000
20
285.500000
11
95.000000
21
285.500000
0
POLYLINE
5
436
100
AcDbEntity
8
1
6
CONTINUOUS
62
5
100
AcDb2dPolyline
66
1
10
0.0
20
0.0
30
0.0
70
0
0
VERTEX
5
437
100
AcDbEntity
8
1
100
AcDbVertex
100
AcDb2dVertex
62
5
10
100.625000
20
288.937500
0
VERTEX
5
438
100
AcDbEntity
8
1
100
AcDbVertex
100
AcDb2dVertex
62
5
10
100.000000
20
290.187500
0
VERTEX
5
439
100
AcDbEntity
8
1
100
AcDbVertex
100
AcDb2dVertex
62
5
10
99.062500
20
290.500000
0
VERTEX
5
43a
100
AcDbEntity
8
1
100
AcDbVertex
100
AcDb2dVertex
62
5
10
98.437500
20
290.500000
0
VERTEX
5
43b
100
AcDbEntity
8
1
100
AcDbVertex
100
AcDb2dVertex
62
5
10
97.812500
20
290.187500
0
VERTEX
5
43c
100
AcDbEntity
8
1
100
AcDbVertex
100
AcDb2dVertex
62
5
10
97.187500
20
289.250000
0
VERTEX
5
43d
100
AcDbEntity
8
1
100
AcDbVertex
100
AcDb2dVertex
62
5
10
97.187500
20
288.312500
0
VERTEX
5
43e
100
AcDbEntity
8
1
100
AcDbVertex
100
AcDb2dVertex
62
5
10
97.812500
20
287.375000
0
VERTEX
5
43f
100
AcDbEntity
8
1
100
AcDbVertex
100
AcDb2dVertex
62
5
10
100.000000
20
286.125000
0
VERTEX
5
440
100
AcDbEntity
8
1
100
AcDbVertex
100
AcDb2dVertex
62
5
10
100.625000
20
285.187500
0
VERTEX
5
441
100
AcDbEntity
8
1
100
AcDbVertex
100
AcDb2dVertex
62
5
10
100.625000
20
284.250000
0
VERTEX
5
442
100
AcDbEntity
8
1
100
AcDbVertex
100
AcDb2dVertex
62
5
10
100.000000
20
283.312500
0
VERTEX
5
443
100
AcDbEntity
8
1
100
AcDbVertex
100
AcDb2dVertex
62
5
10
99.062500
20
283.000000
0
VERTEX
5
444
100
AcDbEntity
8
1
100
AcDbVertex
100
AcDb2dVertex
62
5
10
98.437500
20
283.000000
0
VERTEX
5
445
100
AcDbEntity
8
1
100
AcDbVertex
100
AcDb2dVertex
62
5
10
97.500000
20
283.625000
0
VERTEX
5
446
100
AcDbEntity
8
1
100
AcDbVertex
100
AcDb2dVertex
62
5
10
97.187500
20
284.875000
0
SEQEND
5
447
100
AcDbEntity
8
1
0
LINE
5
448
100
AcDbEntity
8
1
100
AcDbLine
6
CONTINUOUS
62
5
10
117.500000
20
290.500000
11
117.500000
21
283.000000
0
POLYLINE
5
449
100
AcDbEntity
8
1
6
CONTINUOUS
62
5
100
AcDb2dPolyline
66
1
10
0.0
20
0.0
30
0.0
70
0
0
VERTEX
5
44a
100
AcDbEntity
8
1
100
AcDbVertex
100
AcDb2dVertex
62
5
10
117.500000
20
290.500000
0
VERTEX
5
44b
100
AcDbEntity
8
1
100
AcDbVertex
100
AcDb2dVertex
62
5
10
118.750000
20
290.500000
0
VERTEX
5
44c
100
AcDbEntity
8
1
100
AcDbVertex
100
AcDb2dVertex
62
5
10
119.687500
20
290.187500
0
VERTEX
5
44d
100
AcDbEntity
8
1
100
AcDbVertex
100
AcDb2dVertex
62
5
10
120.312500
20
289.562500
0
VERTEX
5
44e
100
AcDbEntity
8
1
100
AcDbVertex
100
AcDb2dVertex
62
5
10
120.625000
20
288.937500
0
VERTEX
5
44f
100
AcDbEntity
8
1
100
AcDbVertex
100
AcDb2dVertex
62
5
10
120.625000
20
288.000000
0
VERTEX
5
450
100
AcDbEntity
8
1
100
AcDbVertex
100
AcDb2dVertex
62
5
10
120.312500
20
287.375000
0
VERTEX
5
451
100
AcDbEntity
8
1
100
AcDbVertex
100
AcDb2dVertex
62
5
10
119.687500
20
286.750000
0
VERTEX
5
452
100
AcDbEntity
8
1
100
AcDbVertex
100
AcDb2dVertex
62
5
10
118.750000
20
286.437500
0
VERTEX
5
453
100
AcDbEntity
8
1
100
AcDbVertex
100
AcDb2dVertex
62
5
10
117.500000
20
286.437500
0
SEQEND
5
454
100
AcDbEntity
8
1
0
LINE
5
455
100
AcDbEntity
8
1
100
AcDbLine
6
CONTINUOUS
62
5
10
72.500000
20
290.500000
11
72.500000
21
283.000000
0
POLYLINE
5
456
100
AcDbEntity
8
1
6
CONTINUOUS
62
5
100
AcDb2dPolyline
66
1
10
0.0
20
0.0
30
0.0
70
0
0
VERTEX
5
457
100
AcDbEntity
8
1
100
AcDbVertex
100
AcDb2dVertex
62
5
10
72.500000
20
290.500000
0
VERTEX
5
458
100
AcDbEntity
8
1
100
AcDbVertex
100
AcDb2dVertex
62
5
10
74.062500
20
290.500000
0
VERTEX
5
459
100
AcDbEntity
8
1
100
AcDbVertex
100
AcDb2dVertex
62
5
10
74.687500
20
290.187500
0
VERTEX
5
45a
100
AcDbEntity
8
1
100
AcDbVertex
100
AcDb2dVertex
62
5
10
75.000000
20
289.875000
0
VERTEX
5
45b
100
AcDbEntity
8
1
100
AcDbVertex
100
AcDb2dVertex
62
5
10
75.312500
20
289.250000
0
VERTEX
5
45c
100
AcDbEntity
8
1
100
AcDbVertex
100
AcDb2dVertex
62
5
10
75.312500
20
288.312500
0
VERTEX
5
45d
100
AcDbEntity
8
1
100
AcDbVertex
100
AcDb2dVertex
62
5
10
75.000000
20
287.687500
0
VERTEX
5
45e
100
AcDbEntity
8
1
100
AcDbVertex
100
AcDb2dVertex
62
5
10
74.687500
20
287.375000
0
VERTEX
5
45f
100
AcDbEntity
8
1
100
AcDbVertex
100
AcDb2dVertex
62
5
10
74.062500
20
287.062500
0
VERTEX
5
460
100
AcDbEntity
8
1
100
AcDbVertex
100
AcDb2dVertex
62
5
10
72.500000
20
287.062500
0
SEQEND
5
461
100
AcDbEntity
8
1
0
POLYLINE
5
462
100
AcDbEntity
8
1
6
CONTINUOUS
62
5
100
AcDb2dPolyline
66
1
10
0.0
20
0.0
30
0.0
70
0
0
VERTEX
5
463
100
AcDbEntity
8
1
100
AcDbVertex
100
AcDb2dVertex
62
5
10
74.062500
20
287.062500
0
VERTEX
5
464
100
AcDbEntity
8
1
100
AcDbVertex
100
AcDb2dVertex
62
5
10
74.687500
20
286.750000
0
VERTEX
5
465
100
AcDbEntity
8
1
100
AcDbVertex
100
AcDb2dVertex
62
5
10
75.312500
20
286.125000
0
VERTEX
5
466
100
AcDbEntity
8
1
100
AcDbVertex
100
AcDb2dVertex
62
5
10
75.625000
20
285.500000
0
VERTEX
5
467
100
AcDbEntity
8
1
100
AcDbVertex
100
AcDb2dVertex
62
5
10
75.625000
20
284.250000
0
VERTEX
5
468
100
AcDbEntity
8
1
100
AcDbVertex
100
AcDb2dVertex
62
5
10
75.312500
20
283.625000
0
VERTEX
5
469
100
AcDbEntity
8
1
100
AcDbVertex
100
AcDb2dVertex
62
5
10
75.000000
20
283.312500
0
VERTEX
5
46a
100
AcDbEntity
8
1
100
AcDbVertex
100
AcDb2dVertex
62
5
10
74.375000
20
283.000000
0
VERTEX
5
46b
100
AcDbEntity
8
1
100
AcDbVertex
100
AcDb2dVertex
62
5
10
72.500000
20
283.000000
0
SEQEND
5
46c
100
AcDbEntity
8
1
0
POLYLINE
5
46d
100
AcDbEntity
8
1
6
CONTINUOUS
62
5
100
AcDb2dPolyline
66
1
10
0.0
20
0.0
30
0.0
70
0
0
VERTEX
5
46e
100
AcDbEntity
8
1
100
AcDbVertex
100
AcDb2dVertex
62
5
10
77.500000
20
283.000000
0
VERTEX
5
46f
100
AcDbEntity
8
1
100
AcDbVertex
100
AcDb2dVertex
62
5
10
77.500000
20
290.500000
0
VERTEX
5
470
100
AcDbEntity
8
1
100
AcDbVertex
100
AcDb2dVertex
62
5
10
80.625000
20
283.000000
0
VERTEX
5
471
100
AcDbEntity
8
1
100
AcDbVertex
100
AcDb2dVertex
62
5
10
80.625000
20
290.500000
0
SEQEND
5
472
100
AcDbEntity
8
1
0
POLYLINE
5
473
100
AcDbEntity
8
1
6
CONTINUOUS
62
5
100
AcDb2dPolyline
66
1
10
0.0
20
0.0
30
0.0
70
0
0
VERTEX
5
474
100
AcDbEntity
8
1
100
AcDbVertex
100
AcDb2dVertex
62
5
10
65.625000
20
288.937500
0
VERTEX
5
475
100
AcDbEntity
8
1
100
AcDbVertex
100
AcDb2dVertex
62
5
10
65.312500
20
289.875000
0
VERTEX
5
476
100
AcDbEntity
8
1
100
AcDbVertex
100
AcDb2dVertex
62
5
10
64.687500
20
290.500000
0
VERTEX
5
477
100
AcDbEntity
8
1
100
AcDbVertex
100
AcDb2dVertex
62
5
10
63.750000
20
290.500000
0
VERTEX
5
478
100
AcDbEntity
8
1
100
AcDbVertex
100
AcDb2dVertex
62
5
10
62.812500
20
289.562500
0
VERTEX
5
479
100
AcDbEntity
8
1
100
AcDbVertex
100
AcDb2dVertex
62
5
10
62.500000
20
288.000000
0
VERTEX
5
47a
100
AcDbEntity
8
1
100
AcDbVertex
100
AcDb2dVertex
62
5
10
62.500000
20
285.500000
0
VERTEX
5
47b
100
AcDbEntity
8
1
100
AcDbVertex
100
AcDb2dVertex
62
5
10
62.812500
20
283.937500
0
VERTEX
5
47c
100
AcDbEntity
8
1
100
AcDbVertex
100
AcDb2dVertex
62
5
10
63.750000
20
283.000000
0
VERTEX
5
47d
100
AcDbEntity
8
1
100
AcDbVertex
100
AcDb2dVertex
62
5
10
64.687500
20
283.000000
0
VERTEX
5
47e
100
AcDbEntity
8
1
100
AcDbVertex
100
AcDb2dVertex
62
5
10
65.312500
20
283.625000
0
VERTEX
5
47f
100
AcDbEntity
8
1
100
AcDbVertex
100
AcDb2dVertex
62
5
10
65.937500
20
285.187500
0
SEQEND
5
480
100
AcDbEntity
8
1
0
POLYLINE
5
481
100
AcDbEntity
8
1
6
CONTINUOUS
62
5
100
AcDb2dPolyline
66
1
10
0.0
20
0.0
30
0.0
70
0
0
VERTEX
5
482
100
AcDbEntity
8
1
100
AcDbVertex
100
AcDb2dVertex
62
5
10
55.312500
20
290.500000
0
VERTEX
5
483
100
AcDbEntity
8
1
100
AcDbVertex
100
AcDb2dVertex
62
5
10
55.312500
20
284.875000
0
VERTEX
5
484
100
AcDbEntity
8
1
100
AcDbVertex
100
AcDb2dVertex
62
5
10
55.000000
20
283.625000
0
VERTEX
5
485
100
AcDbEntity
8
1
100
AcDbVertex
100
AcDb2dVertex
62
5
10
54.375000
20
283.000000
0
VERTEX
5
486
100
AcDbEntity
8
1
100
AcDbVertex
100
AcDb2dVertex
62
5
10
53.437500
20
283.000000
0
VERTEX
5
487
100
AcDbEntity
8
1
100
AcDbVertex
100
AcDb2dVertex
62
5
10
52.812500
20
283.625000
0
VERTEX
5
488
100
AcDbEntity
8
1
100
AcDbVertex
100
AcDb2dVertex
62
5
10
52.500000
20
284.875000
0
SEQEND
5
489
100
AcDbEntity
8
1
0
POLYLINE
5
48a
100
AcDbEntity
8
1
6
CONTINUOUS
62
5
100
AcDb2dPolyline
66
1
10
0.0
20
0.0
30
0.0
70
0
0
VERTEX
5
48b
100
AcDbEntity
8
1
100
AcDbVertex
100
AcDb2dVertex
62
5
10
60.625000
20
290.500000
0
VERTEX
5
48c
100
AcDbEntity
8
1
100
AcDbVertex
100
AcDb2dVertex
62
5
10
57.500000
20
290.500000
0
VERTEX
5
48d
100
AcDbEntity
8
1
100
AcDbVertex
100
AcDb2dVertex
62
5
10
57.500000
20
283.000000
0
VERTEX
5
48e
100
AcDbEntity
8
1
100
AcDbVertex
100
AcDb2dVertex
62
5
10
60.937500
20
283.000000
0
SEQEND
5
48f
100
AcDbEntity
8
1
0
LINE
5
490
100
AcDbEntity
8
1
100
AcDbLine
6
CONTINUOUS
62
5
10
57.500000
20
286.750000
11
60.312500
21
286.750000
0
LINE
5
491
100
AcDbEntity
8
1
100
AcDbLine
6
CONTINUOUS
62
5
10
66.500000
20
326.500000
11
68.500000
21
326.500000
0
LINE
5
492
100
AcDbEntity
8
1
100
AcDbLine
6
CONTINUOUS
62
5
10
66.250000
20
322.125000
11
68.500000
21
323.375000
0
LINE
5
493
100
AcDbEntity
8
1
100
AcDbLine
6
CONTINUOUS
62
5
10
67.500000
20
329.000000
11
67.500000
21
322.750000
0
POLYLINE
5
494
100
AcDbEntity
8
1
6
CONTINUOUS
62
5
100
AcDb2dPolyline
66
1
10
0.0
20
0.0
30
0.0
70
1
0
VERTEX
5
495
100
AcDbEntity
8
1
100
AcDbVertex
100
AcDb2dVertex
62
5
10
69.500000
20
328.687500
0
VERTEX
5
496
100
AcDbEntity
8
1
100
AcDbVertex
100
AcDb2dVertex
62
5
10
69.500000
20
325.250000
0
VERTEX
5
497
100
AcDbEntity
8
1
100
AcDbVertex
100
AcDb2dVertex
62
5
10
72.500000
20
325.250000
0
VERTEX
5
498
100
AcDbEntity
8
1
100
AcDbVertex
100
AcDb2dVertex
62
5
10
72.500000
20
328.687500
0
VERTEX
5
499
100
AcDbEntity
8
1
100
AcDbVertex
100
AcDb2dVertex
62
5
10
69.500000
20
328.687500
0
SEQEND
5
49a
100
AcDbEntity
8
1
0
LINE
5
49b
100
AcDbEntity
8
1
100
AcDbLine
6
CONTINUOUS
62
5
10
69.500000
20
327.125000
11
72.500000
21
327.125000
0
LINE
5
49c
100
AcDbEntity
8
1
100
AcDbLine
6
CONTINUOUS
62
5
10
71.000000
20
328.687500
11
71.000000
21
321.500000
0
LINE
5
49d
100
AcDbEntity
8
1
100
AcDbLine
6
CONTINUOUS
62
5
10
69.000000
20
323.687500
11
73.000000
21
323.687500
0
LINE
5
49e
100
AcDbEntity
8
1
100
AcDbLine
6
CONTINUOUS
62
5
10
68.250000
20
321.500000
11
73.500000
21
321.500000
0
POLYLINE
5
49f
100
AcDbEntity
8
1
6
CONTINUOUS
62
5
100
AcDb2dPolyline
66
1
10
0.0
20
0.0
30
0.0
70
0
0
VERTEX
5
4a0
100
AcDbEntity
8
1
100
AcDbVertex
100
AcDb2dVertex
62
5
10
69.500000
20
319.312500
0
VERTEX
5
4a1
100
AcDbEntity
8
1
100
AcDbVertex
100
AcDb2dVertex
62
5
10
68.250000
20
318.687500
0
VERTEX
5
4a2
100
AcDbEntity
8
1
100
AcDbVertex
100
AcDb2dVertex
62
5
10
66.500000
20
318.375000
0
SEQEND
5
4a3
100
AcDbEntity
8
1
0
LINE
5
4a4
100
AcDbEntity
8
1
100
AcDbLine
6
CONTINUOUS
62
5
10
66.250000
20
317.437500
11
70.000000
21
317.437500
0
POLYLINE
5
4a5
100
AcDbEntity
8
1
6
CONTINUOUS
62
5
100
AcDb2dPolyline
66
1
10
0.0
20
0.0
30
0.0
70
1
0
VERTEX
5
4a6
100
AcDbEntity
8
1
100
AcDbVertex
100
AcDb2dVertex
62
5
10
66.500000
20
316.500000
0
VERTEX
5
4a7
100
AcDbEntity
8
1
100
AcDbVertex
100
AcDb2dVertex
62
5
10
66.500000
20
314.000000
0
VERTEX
5
4a8
100
AcDbEntity
8
1
100
AcDbVertex
100
AcDb2dVertex
62
5
10
69.750000
20
314.000000
0
VERTEX
5
4a9
100
AcDbEntity
8
1
100
AcDbVertex
100
AcDb2dVertex
62
5
10
69.750000
20
316.500000
0
VERTEX
5
4aa
100
AcDbEntity
8
1
100
AcDbVertex
100
AcDb2dVertex
62
5
10
66.500000
20
316.500000
0
SEQEND
5
4ab
100
AcDbEntity
8
1
0
LINE
5
4ac
100
AcDbEntity
8
1
100
AcDbLine
6
CONTINUOUS
62
5
10
66.500000
20
315.250000
11
69.750000
21
315.250000
0
LINE
5
4ad
100
AcDbEntity
8
1
100
AcDbLine
6
CONTINUOUS
62
5
10
68.250000
20
318.687500
11
68.250000
21
311.500000
0
LINE
5
4ae
100
AcDbEntity
8
1
100
AcDbLine
6
CONTINUOUS
62
5
10
66.500000
20
313.062500
11
69.750000
21
313.062500
0
POLYLINE
5
4af
100
AcDbEntity
8
1
6
CONTINUOUS
62
5
100
AcDb2dPolyline
66
1
10
0.0
20
0.0
30
0.0
70
0
0
VERTEX
5
4b0
100
AcDbEntity
8
1
100
AcDbVertex
100
AcDb2dVertex
62
5
10
66.500000
20
311.187500
0
VERTEX
5
4b1
100
AcDbEntity
8
1
100
AcDbVertex
100
AcDb2dVertex
62
5
10
67.250000
20
311.187500
0
VERTEX
5
4b2
100
AcDbEntity
8
1
100
AcDbVertex
100
AcDb2dVertex
62
5
10
69.750000
20
311.812500
0
SEQEND
5
4b3
100
AcDbEntity
8
1
0
POLYLINE
5
4b4
100
AcDbEntity
8
1
6
CONTINUOUS
62
5
100
AcDb2dPolyline
66
1
10
0.0
20
0.0
30
0.0
70
0
0
VERTEX
5
4b5
100
AcDbEntity
8
1
100
AcDbVertex
100
AcDb2dVertex
62
5
10
70.250000
20
317.125000
0
VERTEX
5
4b6
100
AcDbEntity
8
1
100
AcDbVertex
100
AcDb2dVertex
62
5
10
73.250000
20
317.125000
0
VERTEX
5
4b7
100
AcDbEntity
8
1
100
AcDbVertex
100
AcDb2dVertex
62
5
10
73.250000
20
313.687500
0
VERTEX
5
4b8
100
AcDbEntity
8
1
100
AcDbVertex
100
AcDb2dVertex
62
5
10
73.000000
20
311.812500
0
VERTEX
5
4b9
100
AcDbEntity
8
1
100
AcDbVertex
100
AcDb2dVertex
62
5
10
72.250000
20
310.875000
0
VERTEX
5
4ba
100
AcDbEntity
8
1
100
AcDbVertex
100
AcDb2dVertex
62
5
10
71.500000
20
311.812500
0
SEQEND
5
4bb
100
AcDbEntity
8
1
0
POLYLINE
5
4bc
100
AcDbEntity
8
1
6
CONTINUOUS
62
5
100
AcDb2dPolyline
66
1
10
0.0
20
0.0
30
0.0
70
0
0
VERTEX
5
4bd
100
AcDbEntity
8
1
100
AcDbVertex
100
AcDb2dVertex
62
5
10
71.250000
20
319.625000
0
VERTEX
5
4be
100
AcDbEntity
8
1
100
AcDbVertex
100
AcDb2dVertex
62
5
10
71.250000
20
315.250000
0
VERTEX
5
4bf
100
AcDbEntity
8
1
100
AcDbVertex
100
AcDb2dVertex
62
5
10
70.500000
20
312.125000
0
VERTEX
5
4c0
100
AcDbEntity
8
1
100
AcDbVertex
100
AcDb2dVertex
62
5
10
69.750000
20
310.875000
0
SEQEND
5
4c1
100
AcDbEntity
8
1
0
LINE
5
4c2
100
AcDbEntity
8
1
100
AcDbLine
6
CONTINUOUS
62
5
10
67.500000
20
286.750000
11
70.625000
21
286.750000
0
ARC
5
4c3
100
AcDbEntity
8
1
100
AcDbCircle
6
CONTINUOUS
62
5
10
129.600000
20
169.800000
40
1.500000
100
AcDbArc
50
0.000000
51
50.703519
0
LINE
5
4c4
100
AcDbEntity
8
1
100
AcDbLine
6
CONTINUOUS
62
5
10
131.100000
20
169.697494
11
131.100000
21
169.800000
0
LINE
5
4c5
100
AcDbEntity
8
0
100
AcDbLine
6
CONTINUOUS
62
5
10
122.000000
20
161.350000
11
122.000000
21
163.950000
0
ARC
5
4c6
100
AcDbEntity
8
1
100
AcDbCircle
6
CONTINUOUS
62
5
10
122.300000
20
164.450000
40
0.500000
100
AcDbArc
50
-90.000000
51
0.000000
0
LINE
5
4c7
100
AcDbEntity
8
1
100
AcDbLine
6
CONTINUOUS
62
5
10
122.300000
20
163.950000
11
121.900036
21
163.950000
0
POLYLINE
5
4c8
100
AcDbEntity
8
1
6
CONTINUOUS
62
5
100
AcDb2dPolyline
66
1
10
0.0
20
0.0
30
0.0
70
0
0
VERTEX
5
4c9
100
AcDbEntity
8
1
100
AcDbVertex
100
AcDb2dVertex
62
5
10
123.000000
20
167.850000
0
VERTEX
5
4ca
100
AcDbEntity
8
1
100
AcDbVertex
100
AcDb2dVertex
62
5
10
122.800000
20
166.650000
0
VERTEX
5
4cb
100
AcDbEntity
8
1
100
AcDbVertex
100
AcDb2dVertex
62
5
10
122.800000
20
164.450000
0
SEQEND
5
4cc
100
AcDbEntity
8
1
0
LINE
5
4cd
100
AcDbEntity
8
1
100
AcDbLine
6
CONTINUOUS
62
5
10
110.931563
20
163.648750
11
110.931563
21
161.650000
0
POLYLINE
5
4ce
100
AcDbEntity
8
1
6
CONTINUOUS
62
5
100
AcDb2dPolyline
66
1
10
0.0
20
0.0
30
0.0
70
0
0
VERTEX
5
4cf
100
AcDbEntity
8
1
100
AcDbVertex
100
AcDb2dVertex
62
5
10
110.931563
20
163.648750
0
VERTEX
5
4d0
100
AcDbEntity
8
1
100
AcDbVertex
100
AcDb2dVertex
62
5
10
111.764375
20
163.648750
0
VERTEX
5
4d1
100
AcDbEntity
8
1
100
AcDbVertex
100
AcDb2dVertex
62
5
10
112.014219
20
163.565469
0
VERTEX
5
4d2
100
AcDbEntity
8
1
100
AcDbVertex
100
AcDb2dVertex
62
5
10
112.180781
20
163.482187
0
VERTEX
5
4d3
100
AcDbEntity
8
1
100
AcDbVertex
100
AcDb2dVertex
62
5
10
112.347344
20
163.232344
0
VERTEX
5
4d4
100
AcDbEntity
8
1
100
AcDbVertex
100
AcDb2dVertex
62
5
10
112.347344
20
162.899219
0
VERTEX
5
4d5
100
AcDbEntity
8
1
100
AcDbVertex
100
AcDb2dVertex
62
5
10
112.180781
20
162.649375
0
VERTEX
5
4d6
100
AcDbEntity
8
1
100
AcDbVertex
100
AcDb2dVertex
62
5
10
111.764375
20
162.482812
0
VERTEX
5
4d7
100
AcDbEntity
8
1
100
AcDbVertex
100
AcDb2dVertex
62
5
10
110.931563
20
162.482812
0
SEQEND
5
4d8
100
AcDbEntity
8
1
0
POLYLINE
5
4d9
100
AcDbEntity
8
1
6
CONTINUOUS
62
5
100
AcDb2dPolyline
66
1
10
0.0
20
0.0
30
0.0
70
0
0
VERTEX
5
4da
100
AcDbEntity
8
1
100
AcDbVertex
100
AcDb2dVertex
62
5
10
114.051719
20
163.648750
0
VERTEX
5
4db
100
AcDbEntity
8
1
100
AcDbVertex
100
AcDb2dVertex
62
5
10
112.802500
20
163.648750
0
VERTEX
5
4dc
100
AcDbEntity
8
1
100
AcDbVertex
100
AcDb2dVertex
62
5
10
112.802500
20
161.650000
0
VERTEX
5
4dd
100
AcDbEntity
8
1
100
AcDbVertex
100
AcDb2dVertex
62
5
10
114.135000
20
161.650000
0
SEQEND
5
4de
100
AcDbEntity
8
1
0
LINE
5
4df
100
AcDbEntity
8
1
100
AcDbLine
6
CONTINUOUS
62
5
10
112.802500
20
162.649375
11
113.718594
21
162.649375
0
POLYLINE
5
4e0
100
AcDbEntity
8
1
6
CONTINUOUS
62
5
100
AcDb2dPolyline
66
1
10
0.0
20
0.0
30
0.0
70
0
0
VERTEX
5
4e1
100
AcDbEntity
8
1
100
AcDbVertex
100
AcDb2dVertex
62
5
10
114.517500
20
161.650000
0
VERTEX
5
4e2
100
AcDbEntity
8
1
100
AcDbVertex
100
AcDb2dVertex
62
5
10
114.517500
20
163.648750
0
VERTEX
5
4e3
100
AcDbEntity
8
1
100
AcDbVertex
100
AcDb2dVertex
62
5
10
115.850000
20
161.650000
0
VERTEX
5
4e4
100
AcDbEntity
8
1
100
AcDbVertex
100
AcDb2dVertex
62
5
10
115.850000
20
163.648750
0
SEQEND
5
4e5
100
AcDbEntity
8
1
0
POLYLINE
5
4e6
100
AcDbEntity
8
1
6
CONTINUOUS
62
5
100
AcDb2dPolyline
66
1
10
0.0
20
0.0
30
0.0
70
1
0
VERTEX
5
4e7
100
AcDbEntity
8
1
100
AcDbVertex
100
AcDb2dVertex
62
5
10
119.197102
20
161.050000
0
VERTEX
5
4e8
100
AcDbEntity
8
1
100
AcDbVertex
100
AcDb2dVertex
62
5
10
119.197102
20
164.250000
0
VERTEX
5
4e9
100
AcDbEntity
8
1
100
AcDbVertex
100
AcDb2dVertex
62
5
10
116.974923
20
162.650000
0
VERTEX
5
4ea
100
AcDbEntity
8
1
100
AcDbVertex
100
AcDb2dVertex
62
5
10
119.197102
20
161.050000
0
SEQEND
5
4eb
100
AcDbEntity
8
1
0
LINE
5
4ec
100
AcDbEntity
8
1
100
AcDbLine
6
CONTINUOUS
62
5
10
116.600000
20
166.850000
11
122.842291
21
172.214468
0
ARC
5
4ed
100
AcDbEntity
8
1
100
AcDbCircle
6
CONTINUOUS
62
5
10
129.550000
20
171.850000
40
1.000000
100
AcDbArc
50
0.000000
51
89.999999
0
LINE
5
4ee
100
AcDbEntity
8
1
100
AcDbLine
6
CONTINUOUS
62
5
10
129.550000
20
172.850000
11
126.600000
21
172.850000
0
LINE
5
4ef
100
AcDbEntity
8
1
100
AcDbLine
6
CONTINUOUS
62
5
10
130.550000
20
171.200000
11
130.550000
21
171.850000
0
ARC
5
4f0
100
AcDbEntity
8
1
100
AcDbCircle
6
CONTINUOUS
62
5
10
130.050000
20
166.600000
40
0.500000
100
AcDbArc
50
-89.999999
51
0.000000
0
LINE
5
4f1
100
AcDbEntity
8
1
100
AcDbLine
6
CONTINUOUS
62
5
10
130.550000
20
166.600000
11
130.550000
21
166.800000
0
LINE
5
4f2
100
AcDbEntity
8
1
100
AcDbLine
6
CONTINUOUS
62
5
10
129.600000
20
166.100000
11
130.050000
21
166.100000
0
ARC
5
4f3
100
AcDbEntity
8
1
100
AcDbCircle
6
CONTINUOUS
62
5
10
129.550000
20
171.200000
40
1.000000
100
AcDbArc
50
0.000000
51
89.999999
0
LINE
5
4f4
100
AcDbEntity
8
1
100
AcDbLine
6
CONTINUOUS
62
5
10
129.550000
20
172.200000
11
129.100000
21
172.200000
0
LINE
5
4f5
100
AcDbEntity
8
1
100
AcDbLine
6
CONTINUOUS
62
5
10
130.550000
20
169.700000
11
130.550000
21
171.200000
0
ARC
5
4f6
100
AcDbEntity
8
1
100
AcDbCircle
6
CONTINUOUS
62
5
10
101.200962
20
172.150000
40
0.700000
100
AcDbArc
50
-0.062683
51
89.999999
0
LINE
5
4f7
100
AcDbEntity
8
1
100
AcDbLine
6
CONTINUOUS
62
5
10
101.900962
20
172.149234
11
101.900574
21
171.827088
0
ARC
5
4f8
100
AcDbEntity
8
1
100
AcDbCircle
6
CONTINUOUS
62
5
10
99.158333
20
169.950000
40
0.200000
100
AcDbArc
50
-149.999999
51
-89.999999
0
ARC
5
4f9
100
AcDbEntity
8
1
100
AcDbCircle
6
CONTINUOUS
62
5
10
96.841667
20
169.950000
40
0.200000
100
AcDbArc
50
-89.999999
51
-30.000000
0
LINE
5
4fa
100
AcDbEntity
8
0
100
AcDbLine
6
CONTINUOUS
62
5
10
96.885325
20
169.754823
11
96.885325
21
169.850000
0
LINE
5
4fb
100
AcDbEntity
8
1
100
AcDbLine
6
CONTINUOUS
62
5
10
100.160270
20
170.300000
11
100.160270
21
170.088389
0
LINE
5
4fc
100
AcDbEntity
8
1
100
AcDbLine
6
CONTINUOUS
62
5
10
98.338463
20
170.300000
11
98.338463
21
169.850000
0
POLYLINE
5
4fd
100
AcDbEntity
8
1
6
CONTINUOUS
62
5
100
AcDb2dPolyline
66
1
10
0.0
20
0.0
30
0.0
70
0
0
VERTEX
5
4fe
100
AcDbEntity
8
1
100
AcDbVertex
100
AcDb2dVertex
62
5
10
100.160270
20
170.300000
0
VERTEX
5
4ff
100
AcDbEntity
8
1
100
AcDbVertex
100
AcDb2dVertex
62
5
10
98.338463
20
170.300000
0
VERTEX
5
500
100
AcDbEntity
8
1
100
AcDbVertex
100
AcDb2dVertex
62
5
10
98.338463
20
169.850000
0
SEQEND
5
501
100
AcDbEntity
8
1
0
ARC
5
502
100
AcDbEntity
8
1
100
AcDbCircle
6
CONTINUOUS
62
5
10
95.900000
20
170.150000
40
0.300000
100
AcDbArc
50
-179.999998
51
-89.999999
0
LINE
5
503
100
AcDbEntity
8
1
100
AcDbLine
6
CONTINUOUS
62
5
10
99.561873
20
169.850000
11
95.900000
21
169.850000
0
LINE
5
504
100
AcDbEntity
8
1
100
AcDbLine
6
CONTINUOUS
62
5
10
100.160270
20
170.300000
11
101.732879
21
172.605043
0
LINE
5
505
100
AcDbEntity
8
1
100
AcDbLine
6
CONTINUOUS
62
5
10
98.338463
20
170.300000
11
95.812482
21
172.652321
0
LINE
5
506
100
AcDbEntity
8
1
100
AcDbLine
6
CONTINUOUS
62
5
10
99.224608
20
169.750727
11
102.600000
21
166.850000
0
ARC
5
507
100
AcDbEntity
8
1
100
AcDbCircle
6
CONTINUOUS
62
5
10
89.600000
20
169.800000
40
1.500000
100
AcDbArc
50
129.296479
51
179.999998
0
LINE
5
508
100
AcDbEntity
8
1
100
AcDbLine
6
CONTINUOUS
62
5
10
88.100000
20
169.697494
11
88.100000
21
169.800000
0
ARC
5
509
100
AcDbEntity
8
1
100
AcDbCircle
6
CONTINUOUS
62
5
10
89.650000
20
171.850000
40
1.000000
100
AcDbArc
50
89.999999
51
179.999998
0
LINE
5
50a
100
AcDbEntity
8
1
100
AcDbLine
6
CONTINUOUS
62
5
10
89.650000
20
172.850000
11
92.600000
21
172.850000
0
LINE
5
50b
100
AcDbEntity
8
1
100
AcDbLine
6
CONTINUOUS
62
5
10
88.650000
20
171.200000
11
88.650000
21
171.850000
0
ARC
5
50c
100
AcDbEntity
8
1
100
AcDbCircle
6
CONTINUOUS
62
5
10
89.150000
20
166.600000
40
0.500000
100
AcDbArc
50
179.999998
51
-89.999999
0
LINE
5
50d
100
AcDbEntity
8
1
100
AcDbLine
6
CONTINUOUS
62
5
10
88.650000
20
166.600000
11
88.650000
21
166.800000
0
LINE
5
50e
100
AcDbEntity
8
1
100
AcDbLine
6
CONTINUOUS
62
5
10
89.600000
20
166.100000
11
89.150000
21
166.100000
0
ARC
5
50f
100
AcDbEntity
8
1
100
AcDbCircle
6
CONTINUOUS
62
5
10
89.650000
20
171.200000
40
1.000000
100
AcDbArc
50
89.999999
51
179.999998
0
LINE
5
510
100
AcDbEntity
8
1
100
AcDbLine
6
CONTINUOUS
62
5
10
89.650000
20
172.200000
11
90.100000
21
172.200000
0
LINE
5
511
100
AcDbEntity
8
1
100
AcDbLine
6
CONTINUOUS
62
5
10
88.650000
20
169.700000
11
88.650000
21
171.200000
0
LINE
5
512
100
AcDbEntity
8
1
100
AcDbLine
6
CONTINUOUS
62
5
10
123.600000
20
173.650000
11
123.600000
21
199.900000
0
LINE
5
513
100
AcDbEntity
8
1
100
AcDbLine
6
CONTINUOUS
62
5
10
95.600000
20
173.650000
11
95.600000
21
199.900000
0
POLYLINE
5
514
100
AcDbEntity
8
1
6
CONTINUOUS
62
5
100
AcDb2dPolyline
66
1
10
0.0
20
0.0
30
0.0
70
0
0
VERTEX
5
515
100
AcDbEntity
8
1
100
AcDbVertex
100
AcDb2dVertex
62
5
10
109.600000
20
197.900000
0
VERTEX
5
516
100
AcDbEntity
8
1
100
AcDbVertex
100
AcDb2dVertex
62
5
10
95.600000
20
197.900000
0
VERTEX
5
517
100
AcDbEntity
8
1
100
AcDbVertex
100
AcDb2dVertex
62
5
10
101.600000
20
198.900000
0
VERTEX
5
518
100
AcDbEntity
8
1
100
AcDbVertex
100
AcDb2dVertex
62
5
10
101.600000
20
196.900000
0
VERTEX
5
519
100
AcDbEntity
8
1
100
AcDbVertex
100
AcDb2dVertex
62
5
10
95.600000
20
197.900000
0
VERTEX
5
51a
100
AcDbEntity
8
1
100
AcDbVertex
100
AcDb2dVertex
62
5
10
101.600000
20
198.400000
0
VERTEX
5
51b
100
AcDbEntity
8
1
100
AcDbVertex
100
AcDb2dVertex
62
5
10
101.600000
20
197.400000
0
VERTEX
5
51c
100
AcDbEntity
8
1
100
AcDbVertex
100
AcDb2dVertex
62
5
10
95.600000
20
197.900000
0
SEQEND
5
51d
100
AcDbEntity
8
1
0
POLYLINE
5
51e
100
AcDbEntity
8
1
6
CONTINUOUS
62
5
100
AcDb2dPolyline
66
1
10
0.0
20
0.0
30
0.0
70
0
0
VERTEX
5
51f
100
AcDbEntity
8
1
100
AcDbVertex
100
AcDb2dVertex
62
5
10
109.600000
20
197.900000
0
VERTEX
5
520
100
AcDbEntity
8
1
100
AcDbVertex
100
AcDb2dVertex
62
5
10
123.600000
20
197.900000
0
VERTEX
5
521
100
AcDbEntity
8
1
100
AcDbVertex
100
AcDb2dVertex
62
5
10
117.600000
20
196.900000
0
VERTEX
5
522
100
AcDbEntity
8
1
100
AcDbVertex
100
AcDb2dVertex
62
5
10
117.600000
20
198.900000
0
VERTEX
5
523
100
AcDbEntity
8
1
100
AcDbVertex
100
AcDb2dVertex
62
5
10
123.600000
20
197.900000
0
VERTEX
5
524
100
AcDbEntity
8
1
100
AcDbVertex
100
AcDb2dVertex
62
5
10
117.600000
20
197.400000
0
VERTEX
5
525
100
AcDbEntity
8
1
100
AcDbVertex
100
AcDb2dVertex
62
5
10
117.600000
20
198.400000
0
VERTEX
5
526
100
AcDbEntity
8
1
100
AcDbVertex
100
AcDb2dVertex
62
5
10
123.600000
20
197.900000
0
SEQEND
5
527
100
AcDbEntity
8
1
0
ARC
5
528
100
AcDbEntity
8
1
100
AcDbCircle
6
CONTINUOUS
62
5
10
121.100000
20
172.400000
40
0.500000
100
AcDbArc
50
64.158067
51
89.999999
0
LINE
5
529
100
AcDbEntity
8
1
100
AcDbLine
6
CONTINUOUS
62
5
10
121.100000
20
172.900000
11
98.100000
21
172.900000
0
ARC
5
52a
100
AcDbEntity
8
1
100
AcDbCircle
6
CONTINUOUS
62
5
10
98.100000
20
172.400000
40
0.500000
100
AcDbArc
50
89.999999
51
115.841932
0
POLYLINE
5
52b
100
AcDbEntity
8
1
6
CONTINUOUS
62
5
100
AcDb2dPolyline
66
1
10
0.0
20
0.0
30
0.0
70
1
0
VERTEX
5
52c
100
AcDbEntity
8
1
100
AcDbVertex
100
AcDb2dVertex
62
5
10
109.432969
20
163.648750
0
VERTEX
5
52d
100
AcDbEntity
8
1
100
AcDbVertex
100
AcDb2dVertex
62
5
10
109.766094
20
163.648750
0
VERTEX
5
52e
100
AcDbEntity
8
1
100
AcDbVertex
100
AcDb2dVertex
62
5
10
110.015938
20
163.565469
0
VERTEX
5
52f
100
AcDbEntity
8
1
100
AcDbVertex
100
AcDb2dVertex
62
5
10
110.265781
20
163.232344
0
VERTEX
5
530
100
AcDbEntity
8
1
100
AcDbVertex
100
AcDb2dVertex
62
5
10
110.349063
20
162.899219
0
VERTEX
5
531
100
AcDbEntity
8
1
100
AcDbVertex
100
AcDb2dVertex
62
5
10
110.349063
20
162.399531
0
VERTEX
5
532
100
AcDbEntity
8
1
100
AcDbVertex
100
AcDb2dVertex
62
5
10
110.265781
20
162.066406
0
VERTEX
5
533
100
AcDbEntity
8
1
100
AcDbVertex
100
AcDb2dVertex
62
5
10
110.015938
20
161.733281
0
VERTEX
5
534
100
AcDbEntity
8
1
100
AcDbVertex
100
AcDb2dVertex
62
5
10
109.766094
20
161.650000
0
VERTEX
5
535
100
AcDbEntity
8
1
100
AcDbVertex
100
AcDb2dVertex
62
5
10
109.432969
20
161.650000
0
VERTEX
5
536
100
AcDbEntity
8
1
100
AcDbVertex
100
AcDb2dVertex
62
5
10
109.183125
20
161.733281
0
VERTEX
5
537
100
AcDbEntity
8
1
100
AcDbVertex
100
AcDb2dVertex
62
5
10
108.933281
20
162.066406
0
VERTEX
5
538
100
AcDbEntity
8
1
100
AcDbVertex
100
AcDb2dVertex
62
5
10
108.850000
20
162.399531
0
VERTEX
5
539
100
AcDbEntity
8
1
100
AcDbVertex
100
AcDb2dVertex
62
5
10
108.850000
20
162.899219
0
VERTEX
5
53a
100
AcDbEntity
8
1
100
AcDbVertex
100
AcDb2dVertex
62
5
10
108.933281
20
163.232344
0
VERTEX
5
53b
100
AcDbEntity
8
1
100
AcDbVertex
100
AcDb2dVertex
62
5
10
109.183125
20
163.565469
0
VERTEX
5
53c
100
AcDbEntity
8
1
100
AcDbVertex
100
AcDb2dVertex
62
5
10
109.432969
20
163.648750
0
SEQEND
5
53d
100
AcDbEntity
8
1
0
POLYLINE
5
53e
100
AcDbEntity
8
1
6
DOT2
62
5
100
AcDb2dPolyline
66
1
10
0.0
20
0.0
30
0.0
70
0
0
VERTEX
5
53f
100
AcDbEntity
8
1
100
AcDbVertex
100
AcDb2dVertex
62
5
10
105.850000
20
204.462500
0
VERTEX
5
540
100
AcDbEntity
8
1
100
AcDbVertex
100
AcDb2dVertex
62
5
10
106.162500
20
206.025000
0
VERTEX
5
541
100
AcDbEntity
8
1
100
AcDbVertex
100
AcDb2dVertex
62
5
10
107.100000
20
206.650000
0
VERTEX
5
542
100
AcDbEntity
8
1
100
AcDbVertex
100
AcDb2dVertex
62
5
10
108.037500
20
206.650000
0
VERTEX
5
543
100
AcDbEntity
8
1
100
AcDbVertex
100
AcDb2dVertex
62
5
10
108.662500
20
206.337500
0
VERTEX
5
544
100
AcDbEntity
8
1
100
AcDbVertex
100
AcDb2dVertex
62
5
10
108.975000
20
205.400000
0
VERTEX
5
545
100
AcDbEntity
8
1
100
AcDbVertex
100
AcDb2dVertex
62
5
10
108.975000
20
204.462500
0
VERTEX
5
546
100
AcDbEntity
8
1
100
AcDbVertex
100
AcDb2dVertex
62
5
10
108.662500
20
203.525000
0
VERTEX
5
547
100
AcDbEntity
8
1
100
AcDbVertex
100
AcDb2dVertex
62
5
10
105.850000
20
199.150000
0
VERTEX
5
548
100
AcDbEntity
8
1
100
AcDbVertex
100
AcDb2dVertex
62
5
10
108.975000
20
199.150000
0
VERTEX
5
549
100
AcDbEntity
8
1
100
AcDbVertex
100
AcDb2dVertex
62
5
10
108.975000
20
200.087500
0
SEQEND
5
54a
100
AcDbEntity
8
1
0
POLYLINE
5
54b
100
AcDbEntity
8
1
6
DOT2
62
5
100
AcDb2dPolyline
66
1
10
0.0
20
0.0
30
0.0
70
1
0
VERTEX
5
54c
100
AcDbEntity
8
1
100
AcDbVertex
100
AcDb2dVertex
62
5
10
112.100000
20
206.650000
0
VERTEX
5
54d
100
AcDbEntity
8
1
100
AcDbVertex
100
AcDb2dVertex
62
5
10
112.725000
20
206.650000
0
VERTEX
5
54e
100
AcDbEntity
8
1
100
AcDbVertex
100
AcDb2dVertex
62
5
10
113.350000
20
206.337500
0
VERTEX
5
54f
100
AcDbEntity
8
1
100
AcDbVertex
100
AcDb2dVertex
62
5
10
113.662500
20
205.712500
0
VERTEX
5
550
100
AcDbEntity
8
1
100
AcDbVertex
100
AcDb2dVertex
62
5
10
113.662500
20
204.462500
0
VERTEX
5
551
100
AcDbEntity
8
1
100
AcDbVertex
100
AcDb2dVertex
62
5
10
113.350000
20
203.837500
0
VERTEX
5
552
100
AcDbEntity
8
1
100
AcDbVertex
100
AcDb2dVertex
62
5
10
111.475000
20
202.587500
0
VERTEX
5
553
100
AcDbEntity
8
1
100
AcDbVertex
100
AcDb2dVertex
62
5
10
110.850000
20
201.650000
0
VERTEX
5
554
100
AcDbEntity
8
1
100
AcDbVertex
100
AcDb2dVertex
62
5
10
110.850000
20
200.400000
0
VERTEX
5
555
100
AcDbEntity
8
1
100
AcDbVertex
100
AcDb2dVertex
62
5
10
111.162500
20
199.775000
0
VERTEX
5
556
100
AcDbEntity
8
1
100
AcDbVertex
100
AcDb2dVertex
62
5
10
111.475000
20
199.462500
0
VERTEX
5
557
100
AcDbEntity
8
1
100
AcDbVertex
100
AcDb2dVertex
62
5
10
112.100000
20
199.150000
0
VERTEX
5
558
100
AcDbEntity
8
1
100
AcDbVertex
100
AcDb2dVertex
62
5
10
112.725000
20
199.150000
0
VERTEX
5
559
100
AcDbEntity
8
1
100
AcDbVertex
100
AcDb2dVertex
62
5
10
113.350000
20
199.462500
0
VERTEX
5
55a
100
AcDbEntity
8
1
100
AcDbVertex
100
AcDb2dVertex
62
5
10
113.662500
20
199.775000
0
VERTEX
5
55b
100
AcDbEntity
8
1
100
AcDbVertex
100
AcDb2dVertex
62
5
10
113.975000
20
200.400000
0
VERTEX
5
55c
100
AcDbEntity
8
1
100
AcDbVertex
100
AcDb2dVertex
62
5
10
113.975000
20
201.650000
0
VERTEX
5
55d
100
AcDbEntity
8
1
100
AcDbVertex
100
AcDb2dVertex
62
5
10
113.350000
20
202.587500
0
VERTEX
5
55e
100
AcDbEntity
8
1
100
AcDbVertex
100
AcDb2dVertex
62
5
10
111.475000
20
203.837500
0
VERTEX
5
55f
100
AcDbEntity
8
1
100
AcDbVertex
100
AcDb2dVertex
62
5
10
111.162500
20
204.462500
0
VERTEX
5
560
100
AcDbEntity
8
1
100
AcDbVertex
100
AcDb2dVertex
62
5
10
111.162500
20
205.712500
0
VERTEX
5
561
100
AcDbEntity
8
1
100
AcDbVertex
100
AcDb2dVertex
62
5
10
111.475000
20
206.337500
0
VERTEX
5
562
100
AcDbEntity
8
1
100
AcDbVertex
100
AcDb2dVertex
62
5
10
112.100000
20
206.650000
0
SEQEND
5
563
100
AcDbEntity
8
1
0
LINE
5
564
100
AcDbEntity
8
1
100
AcDbLine
6
CONTINUOUS
62
5
10
148.000000
20
327.437500
11
151.750000
21
328.062500
0
LINE
5
565
100
AcDbEntity
8
1
100
AcDbLine
6
CONTINUOUS
62
5
10
146.750000
20
325.562500
11
152.750000
21
325.562500
0
POLYLINE
5
566
100
AcDbEntity
8
1
6
CONTINUOUS
62
5
100
AcDb2dPolyline
66
1
10
0.0
20
0.0
30
0.0
70
0
0
VERTEX
5
567
100
AcDbEntity
8
1
100
AcDbVertex
100
AcDb2dVertex
62
5
10
150.000000
20
327.750000
0
VERTEX
5
568
100
AcDbEntity
8
1
100
AcDbVertex
100
AcDb2dVertex
62
5
10
150.000000
20
325.562500
0
VERTEX
5
569
100
AcDbEntity
8
1
100
AcDbVertex
100
AcDb2dVertex
62
5
10
149.750000
20
324.000000
0
VERTEX
5
56a
100
AcDbEntity
8
1
100
AcDbVertex
100
AcDb2dVertex
62
5
10
149.000000
20
322.750000
0
VERTEX
5
56b
100
AcDbEntity
8
1
100
AcDbVertex
100
AcDb2dVertex
62
5
10
148.250000
20
321.812500
0
SEQEND
5
56c
100
AcDbEntity
8
1
0
POLYLINE
5
56d
100
AcDbEntity
8
1
6
CONTINUOUS
62
5
100
AcDb2dPolyline
66
1
10
0.0
20
0.0
30
0.0
70
0
0
VERTEX
5
56e
100
AcDbEntity
8
1
100
AcDbVertex
100
AcDb2dVertex
62
5
10
146.500000
20
310.562500
0
VERTEX
5
56f
100
AcDbEntity
8
1
100
AcDbVertex
100
AcDb2dVertex
62
5
10
146.500000
20
319.312500
0
VERTEX
5
570
100
AcDbEntity
8
1
100
AcDbVertex
100
AcDb2dVertex
62
5
10
149.250000
20
319.312500
0
VERTEX
5
571
100
AcDbEntity
8
1
100
AcDbVertex
100
AcDb2dVertex
62
5
10
149.250000
20
316.187500
0
VERTEX
5
572
100
AcDbEntity
8
1
100
AcDbVertex
100
AcDb2dVertex
62
5
10
146.500000
20
316.187500
0
SEQEND
5
573
100
AcDbEntity
8
1
0
LINE
5
574
100
AcDbEntity
8
1
100
AcDbLine
6
CONTINUOUS
62
5
10
146.500000
20
317.750000
11
149.250000
21
317.750000
0
POLYLINE
5
575
100
AcDbEntity
8
1
6
CONTINUOUS
62
5
100
AcDb2dPolyline
66
1
10
0.0
20
0.0
30
0.0
70
0
0
VERTEX
5
576
100
AcDbEntity
8
1
100
AcDbVertex
100
AcDb2dVertex
62
5
10
153.250000
20
316.187500
0
VERTEX
5
577
100
AcDbEntity
8
1
100
AcDbVertex
100
AcDb2dVertex
62
5
10
150.250000
20
316.187500
0
VERTEX
5
578
100
AcDbEntity
8
1
100
AcDbVertex
100
AcDb2dVertex
62
5
10
150.250000
20
319.312500
0
VERTEX
5
579
100
AcDbEntity
8
1
100
AcDbVertex
100
AcDb2dVertex
62
5
10
153.250000
20
319.312500
0
VERTEX
5
57a
100
AcDbEntity
8
1
100
AcDbVertex
100
AcDb2dVertex
62
5
10
153.250000
20
310.562500
0
VERTEX
5
57b
100
AcDbEntity
8
1
100
AcDbVertex
100
AcDb2dVertex
62
5
10
152.500000
20
310.562500
0
SEQEND
5
57c
100
AcDbEntity
8
1
0
LINE
5
57d
100
AcDbEntity
8
1
100
AcDbLine
6
CONTINUOUS
62
5
10
153.250000
20
317.750000
11
150.250000
21
317.750000
0
POLYLINE
5
57e
100
AcDbEntity
8
1
6
CONTINUOUS
62
5
100
AcDb2dPolyline
66
1
10
0.0
20
0.0
30
0.0
70
1
0
VERTEX
5
57f
100
AcDbEntity
8
1
100
AcDbVertex
100
AcDb2dVertex
62
5
10
148.250000
20
314.625000
0
VERTEX
5
580
100
AcDbEntity
8
1
100
AcDbVertex
100
AcDb2dVertex
62
5
10
151.500000
20
314.625000
0
VERTEX
5
581
100
AcDbEntity
8
1
100
AcDbVertex
100
AcDb2dVertex
62
5
10
151.500000
20
311.500000
0
VERTEX
5
582
100
AcDbEntity
8
1
100
AcDbVertex
100
AcDb2dVertex
62
5
10
148.250000
20
311.500000
0
VERTEX
5
583
100
AcDbEntity
8
1
100
AcDbVertex
100
AcDb2dVertex
62
5
10
148.250000
20
314.625000
0
SEQEND
5
584
100
AcDbEntity
8
1
0
LINE
5
585
100
AcDbEntity
8
1
100
AcDbLine
6
CONTINUOUS
62
5
10
148.250000
20
313.062500
11
151.500000
21
313.062500
0
ARC
5
586
100
AcDbEntity
8
1
100
AcDbCircle
6
CONTINUOUS
62
5
10
203.450000
20
155.650000
40
0.400000
100
AcDbArc
50
89.999999
51
179.999998
0
LINE
5
587
100
AcDbEntity
8
1
100
AcDbLine
6
CONTINUOUS
62
5
10
203.450000
20
156.050000
11
203.850000
21
156.050000
0
LINE
5
588
100
AcDbEntity
8
1
100
AcDbLine
6
CONTINUOUS
62
5
10
203.850000
20
153.250000
11
203.450000
21
153.250000
0
ARC
5
589
100
AcDbEntity
8
1
100
AcDbCircle
6
CONTINUOUS
62
5
10
203.450000
20
153.650000
40
0.400000
100
AcDbArc
50
179.999998
51
-89.999999
0
LINE
5
58a
100
AcDbEntity
8
1
100
AcDbLine
6
CONTINUOUS
62
5
10
203.050000
20
153.650000
11
203.050000
21
155.650000
0
POLYLINE
5
58b
100
AcDbEntity
8
1
6
CONTINUOUS
62
5
100
AcDb2dPolyline
66
1
10
0.0
20
0.0
30
0.0
70
0
0
VERTEX
5
58c
100
AcDbEntity
8
1
100
AcDbVertex
100
AcDb2dVertex
62
5
10
203.850000
20
156.050000
0
VERTEX
5
58d
100
AcDbEntity
8
1
100
AcDbVertex
100
AcDb2dVertex
62
5
10
204.150000
20
156.050000
0
VERTEX
5
58e
100
AcDbEntity
8
1
100
AcDbVertex
100
AcDb2dVertex
62
5
10
204.150000
20
153.250000
0
VERTEX
5
58f
100
AcDbEntity
8
1
100
AcDbVertex
100
AcDb2dVertex
62
5
10
203.850000
20
153.250000
0
SEQEND
5
590
100
AcDbEntity
8
1
0
ARC
5
591
100
AcDbEntity
8
1
100
AcDbCircle
6
CONTINUOUS
62
5
10
203.550000
20
151.500000
40
0.500000
100
AcDbArc
50
179.999998
51
-89.999999
0
LINE
5
592
100
AcDbEntity
8
1
100
AcDbLine
6
CONTINUOUS
62
5
10
204.350000
20
151.000000
11
203.550000
21
151.000000
0
ARC
5
593
100
AcDbEntity
8
1
100
AcDbCircle
6
CONTINUOUS
62
5
10
203.450000
20
146.250000
40
0.400000
100
AcDbArc
50
89.999999
51
179.999998
0
LINE
5
594
100
AcDbEntity
8
1
100
AcDbLine
6
CONTINUOUS
62
5
10
203.450000
20
146.650000
11
203.850000
21
146.650000
0
LINE
5
595
100
AcDbEntity
8
1
100
AcDbLine
6
CONTINUOUS
62
5
10
203.850000
20
143.850000
11
203.450000
21
143.850000
0
ARC
5
596
100
AcDbEntity
8
1
100
AcDbCircle
6
CONTINUOUS
62
5
10
203.450000
20
144.250000
40
0.400000
100
AcDbArc
50
179.999998
51
-89.999999
0
LINE
5
597
100
AcDbEntity
8
1
100
AcDbLine
6
CONTINUOUS
62
5
10
203.050000
20
144.250000
11
203.050000
21
146.250000
0
POLYLINE
5
598
100
AcDbEntity
8
1
6
CONTINUOUS
62
5
100
AcDb2dPolyline
66
1
10
0.0
20
0.0
30
0.0
70
0
0
VERTEX
5
599
100
AcDbEntity
8
1
100
AcDbVertex
100
AcDb2dVertex
62
5
10
203.850000
20
146.650000
0
VERTEX
5
59a
100
AcDbEntity
8
1
100
AcDbVertex
100
AcDb2dVertex
62
5
10
204.150000
20
146.650000
0
VERTEX
5
59b
100
AcDbEntity
8
1
100
AcDbVertex
100
AcDb2dVertex
62
5
10
204.150000
20
143.850000
0
VERTEX
5
59c
100
AcDbEntity
8
1
100
AcDbVertex
100
AcDb2dVertex
62
5
10
203.850000
20
143.850000
0
SEQEND
5
59d
100
AcDbEntity
8
1
0
ARC
5
59e
100
AcDbEntity
8
1
100
AcDbCircle
6
CONTINUOUS
62
5
10
203.550000
20
148.500000
40
0.500000
100
AcDbArc
50
89.999999
51
179.999998
0
LINE
5
59f
100
AcDbEntity
8
1
100
AcDbLine
6
CONTINUOUS
62
5
10
204.350000
20
149.000000
11
203.550000
21
149.000000
0
LINE
5
5a0
100
AcDbEntity
8
1
100
AcDbLine
6
CONTINUOUS
62
5
10
191.036386
20
155.216211
11
191.036386
21
155.500179
0
LINE
5
5a1
100
AcDbEntity
8
1
100
AcDbLine
6
CONTINUOUS
62
5
10
194.150000
20
157.450000
11
194.337959
21
157.381651
0
LINE
5
5a2
100
AcDbEntity
8
1
100
AcDbLine
6
CONTINUOUS
62
5
10
194.150000
20
157.450000
11
194.150000
21
155.459211
0
LINE
5
5a3
100
AcDbEntity
8
1
100
AcDbLine
6
CONTINUOUS
62
5
10
194.850000
20
152.200000
11
194.472257
21
152.200000
0
ARC
5
5a4
100
AcDbEntity
8
1
100
AcDbCircle
6
CONTINUOUS
62
5
10
194.985331
20
139.340853
40
0.500000
100
AcDbArc
50
-175.665583
51
-105.703650
0
POLYLINE
5
5a5
100
AcDbEntity
8
1
6
CONTINUOUS
62
5
100
AcDb2dPolyline
66
1
10
0.0
20
0.0
30
0.0
70
0
0
VERTEX
5
5a6
100
AcDbEntity
8
1
100
AcDbVertex
100
AcDb2dVertex
62
5
10
194.486761
20
139.303064
0
VERTEX
5
5a7
100
AcDbEntity
8
1
100
AcDbVertex
100
AcDb2dVertex
62
5
10
194.289927
20
141.900000
0
VERTEX
5
5a8
100
AcDbEntity
8
1
100
AcDbVertex
100
AcDb2dVertex
62
5
10
194.289927
20
149.100000
0
VERTEX
5
5a9
100
AcDbEntity
8
1
100
AcDbVertex
100
AcDb2dVertex
62
5
10
194.486761
20
151.696936
0
SEQEND
5
5aa
100
AcDbEntity
8
1
0
ARC
5
5ab
100
AcDbEntity
8
1
100
AcDbCircle
6
CONTINUOUS
62
5
10
194.985331
20
151.659147
40
0.500000
100
AcDbArc
50
105.703605
51
175.665583
0
LINE
5
5ac
100
AcDbEntity
8
1
100
AcDbLine
6
CONTINUOUS
62
5
10
211.850000
20
128.506667
11
211.850000
21
128.700000
0
LINE
5
5ad
100
AcDbEntity
8
1
100
AcDbLine
6
CONTINUOUS
62
5
10
212.850000
20
128.714634
11
212.850000
21
128.533333
0
LINE
5
5ae
100
AcDbEntity
8
1
100
AcDbLine
6
CONTINUOUS
62
5
10
211.850000
20
127.350000
11
211.850000
21
127.100000
0
LINE
5
5af
100
AcDbEntity
8
1
100
AcDbLine
6
CONTINUOUS
62
5
10
208.886364
20
128.500000
11
208.450000
21
128.700000
0
ARC
5
5b0
100
AcDbEntity
8
1
100
AcDbCircle
6
CONTINUOUS
62
5
10
203.450000
20
132.650000
40
0.400000
100
AcDbArc
50
89.999999
51
179.999998
0
LINE
5
5b1
100
AcDbEntity
8
1
100
AcDbLine
6
CONTINUOUS
62
5
10
203.450000
20
133.050000
11
203.850000
21
133.050000
0
LINE
5
5b2
100
AcDbEntity
8
1
100
AcDbLine
6
CONTINUOUS
62
5
10
203.850000
20
130.250000
11
203.450000
21
130.250000
0
ARC
5
5b3
100
AcDbEntity
8
1
100
AcDbCircle
6
CONTINUOUS
62
5
10
203.450000
20
130.650000
40
0.400000
100
AcDbArc
50
179.999998
51
-89.999999
0
LINE
5
5b4
100
AcDbEntity
8
1
100
AcDbLine
6
CONTINUOUS
62
5
10
203.050000
20
130.650000
11
203.050000
21
132.650000
0
POLYLINE
5
5b5
100
AcDbEntity
8
1
6
CONTINUOUS
62
5
100
AcDb2dPolyline
66
1
10
0.0
20
0.0
30
0.0
70
0
0
VERTEX
5
5b6
100
AcDbEntity
8
1
100
AcDbVertex
100
AcDb2dVertex
62
5
10
203.850000
20
133.050000
0
VERTEX
5
5b7
100
AcDbEntity
8
1
100
AcDbVertex
100
AcDb2dVertex
62
5
10
204.150000
20
133.050000
0
VERTEX
5
5b8
100
AcDbEntity
8
1
100
AcDbVertex
100
AcDb2dVertex
62
5
10
204.150000
20
130.250000
0
VERTEX
5
5b9
100
AcDbEntity
8
1
100
AcDbVertex
100
AcDb2dVertex
62
5
10
203.850000
20
130.250000
0
SEQEND
5
5ba
100
AcDbEntity
8
1
0
ARC
5
5bb
100
AcDbEntity
8
1
100
AcDbCircle
6
CONTINUOUS
62
5
10
195.050000
20
128.750000
40
0.300000
100
AcDbArc
50
171.677908
51
179.954522
0
LINE
5
5bc
100
AcDbEntity
8
1
100
AcDbLine
6
CONTINUOUS
62
5
10
192.650000
20
128.510000
11
192.650000
21
135.550000
0
LINE
5
5bd
100
AcDbEntity
8
1
100
AcDbLine
6
CONTINUOUS
62
5
10
191.950000
20
135.550000
11
191.950000
21
128.630000
0
LINE
5
5be
100
AcDbEntity
8
1
100
AcDbLine
6
CONTINUOUS
62
5
10
193.350000
20
135.550000
11
193.350000
21
128.390000
0
POLYLINE
5
5bf
100
AcDbEntity
8
1
6
CONTINUOUS
62
5
100
AcDb2dPolyline
66
1
10
0.0
20
0.0
30
0.0
70
0
0
VERTEX
5
5c0
100
AcDbEntity
8
1
100
AcDbVertex
100
AcDb2dVertex
62
5
10
194.060569
20
135.550000
0
VERTEX
5
5c1
100
AcDbEntity
8
1
100
AcDbVertex
100
AcDb2dVertex
62
5
10
191.250000
20
135.550000
0
VERTEX
5
5c2
100
AcDbEntity
8
1
100
AcDbVertex
100
AcDb2dVertex
62
5
10
191.250000
20
128.750000
0
VERTEX
5
5c3
100
AcDbEntity
8
1
100
AcDbVertex
100
AcDb2dVertex
62
5
10
194.750000
20
128.150000
0
VERTEX
5
5c4
100
AcDbEntity
8
1
100
AcDbVertex
100
AcDb2dVertex
62
5
10
194.750000
20
128.824195
0
SEQEND
5
5c5
100
AcDbEntity
8
1
0
ARC
5
5c6
100
AcDbEntity
8
1
100
AcDbCircle
6
CONTINUOUS
62
5
10
208.150000
20
128.800000
40
0.300000
100
AcDbArc
50
179.999998
51
-89.999999
0
LINE
5
5c7
100
AcDbEntity
8
1
100
AcDbLine
6
CONTINUOUS
62
5
10
207.850000
20
128.800000
11
207.850000
21
128.800000
0
POLYLINE
5
5c8
100
AcDbEntity
8
1
6
CONTINUOUS
62
5
100
AcDb2dPolyline
66
1
10
0.0
20
0.0
30
0.0
70
0
0
VERTEX
5
5c9
100
AcDbEntity
8
1
100
AcDbVertex
100
AcDb2dVertex
62
5
10
207.850000
20
127.150000
0
VERTEX
5
5ca
100
AcDbEntity
8
1
100
AcDbVertex
100
AcDb2dVertex
62
5
10
208.350000
20
127.300000
0
VERTEX
5
5cb
100
AcDbEntity
8
1
100
AcDbVertex
100
AcDb2dVertex
62
5
10
215.350000
20
127.400000
0
VERTEX
5
5cc
100
AcDbEntity
8
1
100
AcDbVertex
100
AcDb2dVertex
62
5
10
215.350000
20
128.273333
0
VERTEX
5
5cd
100
AcDbEntity
8
1
100
AcDbVertex
100
AcDb2dVertex
62
5
10
214.350000
20
128.573333
0
VERTEX
5
5ce
100
AcDbEntity
8
1
100
AcDbVertex
100
AcDb2dVertex
62
5
10
211.600000
20
128.500000
0
VERTEX
5
5cf
100
AcDbEntity
8
1
100
AcDbVertex
100
AcDb2dVertex
62
5
10
208.150000
20
128.500000
0
SEQEND
5
5d0
100
AcDbEntity
8
1
0
ARC
5
5d1
100
AcDbEntity
8
1
100
AcDbCircle
6
CONTINUOUS
62
5
10
227.050000
20
138.400000
40
0.500000
100
AcDbArc
50
0.000000
51
89.999999
0
LINE
5
5d2
100
AcDbEntity
8
1
100
AcDbLine
6
CONTINUOUS
62
5
10
227.050000
20
138.900000
11
226.550000
21
138.900000
0
LINE
5
5d3
100
AcDbEntity
8
1
100
AcDbLine
6
CONTINUOUS
62
5
10
226.550000
20
137.500000
11
227.050000
21
137.500000
0
ARC
5
5d4
100
AcDbEntity
8
1
100
AcDbCircle
6
CONTINUOUS
62
5
10
227.050000
20
138.000000
40
0.500000
100
AcDbArc
50
-89.999999
51
0.000000
0
LINE
5
5d5
100
AcDbEntity
8
1
100
AcDbLine
6
CONTINUOUS
62
5
10
227.550000
20
138.000000
11
227.550000
21
138.400000
0
POLYLINE
5
5d6
100
AcDbEntity
8
1
6
CONTINUOUS
62
5
100
AcDb2dPolyline
66
1
10
0.0
20
0.0
30
0.0
70
0
0
VERTEX
5
5d7
100
AcDbEntity
8
1
100
AcDbVertex
100
AcDb2dVertex
62
5
10
203.050000
20
136.000000
0
VERTEX
5
5d8
100
AcDbEntity
8
1
100
AcDbVertex
100
AcDb2dVertex
62
5
10
207.050000
20
136.000000
0
VERTEX
5
5d9
100
AcDbEntity
8
1
100
AcDbVertex
100
AcDb2dVertex
62
5
10
207.050000
20
141.000000
0
VERTEX
5
5da
100
AcDbEntity
8
1
100
AcDbVertex
100
AcDb2dVertex
62
5
10
203.050000
20
141.000000
0
SEQEND
5
5db
100
AcDbEntity
8
1
0
LINE
5
5dc
100
AcDbEntity
8
1
100
AcDbLine
6
CONTINUOUS
62
5
10
201.650000
20
135.000000
11
201.650000
21
142.000000
0
POLYLINE
5
5dd
100
AcDbEntity
8
1
6
CONTINUOUS
62
5
100
AcDb2dPolyline
66
1
10
0.0
20
0.0
30
0.0
70
0
0
VERTEX
5
5de
100
AcDbEntity
8
1
100
AcDbVertex
100
AcDb2dVertex
62
5
10
203.050000
20
142.000000
0
VERTEX
5
5df
100
AcDbEntity
8
1
100
AcDbVertex
100
AcDb2dVertex
62
5
10
201.450000
20
142.000000
0
VERTEX
5
5e0
100
AcDbEntity
8
1
100
AcDbVertex
100
AcDb2dVertex
62
5
10
201.450000
20
135.000000
0
VERTEX
5
5e1
100
AcDbEntity
8
1
100
AcDbVertex
100
AcDb2dVertex
62
5
10
203.050000
20
135.000000
0
SEQEND
5
5e2
100
AcDbEntity
8
1
0
LINE
5
5e3
100
AcDbEntity
8
1
100
AcDbLine
6
CONTINUOUS
62
5
10
194.850000
20
138.800000
11
194.472257
21
138.800000
0
ARC
5
5e4
100
AcDbEntity
8
1
100
AcDbCircle
6
CONTINUOUS
62
5
10
194.513162
20
151.696585
40
0.500000
100
AcDbArc
50
102.773518
51
177.370519
0
LINE
5
5e5
100
AcDbEntity
8
1
100
AcDbLine
6
CONTINUOUS
62
5
10
194.402613
20
152.184211
11
194.472257
21
152.200000
0
LINE
5
5e6
100
AcDbEntity
8
1
100
AcDbLine
6
CONTINUOUS
62
5
10
194.472257
20
138.800000
11
194.402613
21
138.815789
0
ARC
5
5e7
100
AcDbEntity
8
1
100
AcDbCircle
6
CONTINUOUS
62
5
10
194.513162
20
139.303415
40
0.500000
100
AcDbArc
50
-177.370519
51
-102.773518
0
POLYLINE
5
5e8
100
AcDbEntity
8
1
6
CONTINUOUS
62
5
100
AcDb2dPolyline
66
1
10
0.0
20
0.0
30
0.0
70
0
0
VERTEX
5
5e9
100
AcDbEntity
8
1
100
AcDbVertex
100
AcDb2dVertex
62
5
10
194.013688
20
139.280476
0
VERTEX
5
5ea
100
AcDbEntity
8
1
100
AcDbVertex
100
AcDb2dVertex
62
5
10
193.893386
20
141.900000
0
VERTEX
5
5eb
100
AcDbEntity
8
1
100
AcDbVertex
100
AcDb2dVertex
62
5
10
193.893386
20
149.100000
0
VERTEX
5
5ec
100
AcDbEntity
8
1
100
AcDbVertex
100
AcDb2dVertex
62
5
10
194.013688
20
151.719524
0
SEQEND
5
5ed
100
AcDbEntity
8
1
0
ARC
5
5ee
100
AcDbEntity
8
1
100
AcDbCircle
6
CONTINUOUS
62
5
10
194.513162
20
139.303415
40
0.500000
100
AcDbArc
50
-177.370519
51
-102.773518
0
POLYLINE
5
5ef
100
AcDbEntity
8
1
6
CONTINUOUS
62
5
100
AcDb2dPolyline
66
1
10
0.0
20
0.0
30
0.0
70
0
0
VERTEX
5
5f0
100
AcDbEntity
8
1
100
AcDbVertex
100
AcDb2dVertex
62
5
10
194.013688
20
139.280476
0
VERTEX
5
5f1
100
AcDbEntity
8
1
100
AcDbVertex
100
AcDb2dVertex
62
5
10
193.893386
20
141.900000
0
VERTEX
5
5f2
100
AcDbEntity
8
1
100
AcDbVertex
100
AcDb2dVertex
62
5
10
193.893386
20
149.100000
0
VERTEX
5
5f3
100
AcDbEntity
8
1
100
AcDbVertex
100
AcDb2dVertex
62
5
10
194.013688
20
151.719524
0
SEQEND
5
5f4
100
AcDbEntity
8
1
0
ARC
5
5f5
100
AcDbEntity
8
1
100
AcDbCircle
6
CONTINUOUS
62
5
10
194.513162
20
151.696585
40
0.500000
100
AcDbArc
50
102.773518
51
177.370519
0
POLYLINE
5
5f6
100
AcDbEntity
8
1
6
CONTINUOUS
62
5
100
AcDb2dPolyline
66
1
10
0.0
20
0.0
30
0.0
70
0
0
VERTEX
5
5f7
100
AcDbEntity
8
1
100
AcDbVertex
100
AcDb2dVertex
62
5
10
194.402613
20
152.184211
0
VERTEX
5
5f8
100
AcDbEntity
8
1
100
AcDbVertex
100
AcDb2dVertex
62
5
10
194.472257
20
152.200000
0
VERTEX
5
5f9
100
AcDbEntity
8
1
100
AcDbVertex
100
AcDb2dVertex
62
5
10
194.472257
20
152.350000
0
SEQEND
5
5fa
100
AcDbEntity
8
1
0
POLYLINE
5
5fb
100
AcDbEntity
8
1
6
CONTINUOUS
62
5
100
AcDb2dPolyline
66
1
10
0.0
20
0.0
30
0.0
70
0
0
VERTEX
5
5fc
100
AcDbEntity
8
1
100
AcDbVertex
100
AcDb2dVertex
62
5
10
194.472257
20
138.650000
0
VERTEX
5
5fd
100
AcDbEntity
8
1
100
AcDbVertex
100
AcDb2dVertex
62
5
10
194.472257
20
138.800000
0
VERTEX
5
5fe
100
AcDbEntity
8
1
100
AcDbVertex
100
AcDb2dVertex
62
5
10
194.402613
20
138.815789
0
SEQEND
5
5ff
100
AcDbEntity
8
1
0
ARC
5
600
100
AcDbEntity
8
1
100
AcDbCircle
6
CONTINUOUS
62
5
10
200.550000
20
143.800000
40
0.700000
100
AcDbArc
50
89.999999
51
179.999998
0
LINE
5
601
100
AcDbEntity
8
1
100
AcDbLine
6
CONTINUOUS
62
5
10
200.550000
20
144.500000
11
203.050000
21
144.500000
0
LINE
5
602
100
AcDbEntity
8
1
100
AcDbLine
6
CONTINUOUS
62
5
10
203.050000
20
132.500000
11
200.550000
21
132.500000
0
ARC
5
603
100
AcDbEntity
8
1
100
AcDbCircle
6
CONTINUOUS
62
5
10
200.550000
20
133.200000
40
0.700000
100
AcDbArc
50
179.999998
51
-89.999999
0
LINE
5
604
100
AcDbEntity
8
1
100
AcDbLine
6
CONTINUOUS
62
5
10
199.850000
20
133.200000
11
199.850000
21
143.800000
0
ARC
5
605
100
AcDbEntity
8
1
100
AcDbCircle
6
CONTINUOUS
62
5
10
199.750000
20
143.000000
40
11.650000
100
AcDbArc
50
167.608390
51
-158.075124
0
ARC
5
606
100
AcDbEntity
8
1
100
AcDbCircle
6
CONTINUOUS
62
5
10
199.750000
20
148.000000
40
11.650000
100
AcDbArc
50
158.075124
51
-167.608390
0
POLYLINE
5
607
100
AcDbEntity
8
1
6
CONTINUOUS
62
5
100
AcDb2dPolyline
66
1
10
0.0
20
0.0
30
0.0
70
0
0
VERTEX
5
608
100
AcDbEntity
8
1
100
AcDbVertex
100
AcDb2dVertex
62
5
10
186.823244
20
152.500000
0
VERTEX
5
609
100
AcDbEntity
8
1
100
AcDbVertex
100
AcDb2dVertex
62
5
10
194.850000
20
152.500000
0
VERTEX
5
60a
100
AcDbEntity
8
1
100
AcDbVertex
100
AcDb2dVertex
62
5
10
194.850000
20
152.350000
0
SEQEND
5
60b
100
AcDbEntity
8
1
0
ARC
5
60c
100
AcDbEntity
8
1
100
AcDbCircle
6
CONTINUOUS
62
5
10
187.050000
20
152.945625
40
0.500000
100
AcDbArc
50
-179.999998
51
-96.581945
0
LINE
5
60d
100
AcDbEntity
8
1
100
AcDbLine
6
CONTINUOUS
62
5
10
186.550000
20
152.945625
11
186.550000
21
154.332923
0
ARC
5
60e
100
AcDbEntity
8
1
100
AcDbCircle
6
CONTINUOUS
62
5
10
187.250000
20
154.332923
40
0.700000
100
AcDbArc
50
92.759107
51
-179.999998
0
LINE
5
60f
100
AcDbEntity
8
1
100
AcDbLine
6
CONTINUOUS
62
5
10
187.216304
20
155.032111
11
194.850000
21
155.400000
0
POLYLINE
5
610
100
AcDbEntity
8
1
6
CONTINUOUS
62
5
100
AcDb2dPolyline
66
1
10
0.0
20
0.0
30
0.0
70
0
0
VERTEX
5
611
100
AcDbEntity
8
1
100
AcDbVertex
100
AcDb2dVertex
62
5
10
194.850000
20
152.350000
0
VERTEX
5
612
100
AcDbEntity
8
1
100
AcDbVertex
100
AcDb2dVertex
62
5
10
187.850000
20
152.350000
0
VERTEX
5
613
100
AcDbEntity
8
1
100
AcDbVertex
100
AcDb2dVertex
62
5
10
186.992688
20
152.448921
0
SEQEND
5
614
100
AcDbEntity
8
1
0
LINE
5
615
100
AcDbEntity
8
1
100
AcDbLine
6
CONTINUOUS
62
5
10
188.371401
20
145.500000
11
193.893386
21
145.500000
0
POLYLINE
5
616
100
AcDbEntity
8
1
6
CONTINUOUS
62
5
100
AcDb2dPolyline
66
1
10
0.0
20
0.0
30
0.0
70
0
0
VERTEX
5
617
100
AcDbEntity
8
1
100
AcDbVertex
100
AcDb2dVertex
62
5
10
189.350000
20
135.865019
0
VERTEX
5
618
100
AcDbEntity
8
1
100
AcDbVertex
100
AcDb2dVertex
62
5
10
189.350000
20
135.500000
0
VERTEX
5
619
100
AcDbEntity
8
1
100
AcDbVertex
100
AcDb2dVertex
62
5
10
191.250000
20
135.398484
0
SEQEND
5
61a
100
AcDbEntity
8
1
0
POLYLINE
5
61b
100
AcDbEntity
8
1
6
CONTINUOUS
62
5
100
AcDb2dPolyline
66
1
10
0.0
20
0.0
30
0.0
70
0
0
VERTEX
5
61c
100
AcDbEntity
8
1
100
AcDbVertex
100
AcDb2dVertex
62
5
10
186.823244
20
138.500000
0
VERTEX
5
61d
100
AcDbEntity
8
1
100
AcDbVertex
100
AcDb2dVertex
62
5
10
194.850000
20
138.500000
0
VERTEX
5
61e
100
AcDbEntity
8
1
100
AcDbVertex
100
AcDb2dVertex
62
5
10
194.850000
20
138.650000
0
SEQEND
5
61f
100
AcDbEntity
8
1
0
ARC
5
620
100
AcDbEntity
8
1
100
AcDbCircle
6
CONTINUOUS
62
5
10
187.250000
20
136.667068
40
0.700000
100
AcDbArc
50
-179.999998
51
-92.759942
0
LINE
5
621
100
AcDbEntity
8
1
100
AcDbLine
6
CONTINUOUS
62
5
10
186.550000
20
136.667068
11
186.550000
21
138.054375
0
ARC
5
622
100
AcDbEntity
8
1
100
AcDbCircle
6
CONTINUOUS
62
5
10
187.050000
20
138.054375
40
0.500000
100
AcDbArc
50
96.581945
51
-179.999998
0
POLYLINE
5
623
100
AcDbEntity
8
1
6
CONTINUOUS
62
5
100
AcDb2dPolyline
66
1
10
0.0
20
0.0
30
0.0
70
0
0
VERTEX
5
624
100
AcDbEntity
8
1
100
AcDbVertex
100
AcDb2dVertex
62
5
10
186.992688
20
138.551079
0
VERTEX
5
625
100
AcDbEntity
8
1
100
AcDbVertex
100
AcDb2dVertex
62
5
10
187.850000
20
138.650000
0
VERTEX
5
626
100
AcDbEntity
8
1
100
AcDbVertex
100
AcDb2dVertex
62
5
10
194.850000
20
138.650000
0
SEQEND
5
627
100
AcDbEntity
8
1
0
POLYLINE
5
628
100
AcDbEntity
8
1
6
CONTINUOUS
62
5
100
AcDb2dPolyline
66
1
10
0.0
20
0.0
30
0.0
70
0
0
VERTEX
5
629
100
AcDbEntity
8
1
100
AcDbVertex
100
AcDb2dVertex
62
5
10
194.850000
20
127.850000
0
VERTEX
5
62a
100
AcDbEntity
8
1
100
AcDbVertex
100
AcDb2dVertex
62
5
10
194.051509
20
135.638372
0
VERTEX
5
62b
100
AcDbEntity
8
1
100
AcDbVertex
100
AcDb2dVertex
62
5
10
187.216294
20
135.967880
0
SEQEND
5
62c
100
AcDbEntity
8
1
0
ARC
5
62d
100
AcDbEntity
8
1
100
AcDbCircle
6
CONTINUOUS
62
5
10
231.350000
20
145.500000
40
1.000000
100
AcDbArc
50
-89.999999
51
-0.000000
0
LINE
5
62e
100
AcDbEntity
8
1
100
AcDbLine
6
CONTINUOUS
62
5
10
226.550000
20
144.500000
11
231.350000
21
144.500000
0
ARC
5
62f
100
AcDbEntity
8
1
100
AcDbCircle
6
CONTINUOUS
62
5
10
231.350000
20
146.500000
40
1.000000
100
AcDbArc
50
-89.999999
51
0.000000
0
POLYLINE
5
630
100
AcDbEntity
8
1
6
CONTINUOUS
62
5
100
AcDb2dPolyline
66
1
10
0.0
20
0.0
30
0.0
70
0
0
VERTEX
5
631
100
AcDbEntity
8
1
100
AcDbVertex
100
AcDb2dVertex
62
5
10
231.350000
20
145.500000
0
VERTEX
5
632
100
AcDbEntity
8
1
100
AcDbVertex
100
AcDb2dVertex
62
5
10
226.550000
20
145.500000
0
VERTEX
5
633
100
AcDbEntity
8
1
100
AcDbVertex
100
AcDb2dVertex
62
5
10
226.550000
20
129.979800
0
SEQEND
5
634
100
AcDbEntity
8
1
0
ARC
5
635
100
AcDbEntity
8
1
100
AcDbCircle
6
CONTINUOUS
62
5
10
225.550000
20
129.979800
40
1.000000
100
AcDbArc
50
-88.830860
51
-0.000000
0
POLYLINE
5
636
100
AcDbEntity
8
1
6
CONTINUOUS
62
5
100
AcDb2dPolyline
66
1
10
0.0
20
0.0
30
0.0
70
0
0
VERTEX
5
637
100
AcDbEntity
8
1
100
AcDbVertex
100
AcDb2dVertex
62
5
10
225.570404
20
128.980008
0
VERTEX
5
638
100
AcDbEntity
8
1
100
AcDbVertex
100
AcDb2dVertex
62
5
10
211.850000
20
128.700000
0
VERTEX
5
639
100
AcDbEntity
8
1
100
AcDbVertex
100
AcDb2dVertex
62
5
10
208.050000
20
128.700000
0
SEQEND
5
63a
100
AcDbEntity
8
1
0
ARC
5
63b
100
AcDbEntity
8
1
100
AcDbCircle
6
CONTINUOUS
62
5
10
208.050000
20
128.900000
40
0.200000
100
AcDbArc
50
179.999998
51
-89.999999
0
LINE
5
63c
100
AcDbEntity
8
1
100
AcDbLine
6
CONTINUOUS
62
5
10
130.550000
20
152.000000
11
130.550000
21
148.000000
0
LINE
5
63d
100
AcDbEntity
8
1
100
AcDbLine
6
CONTINUOUS
62
5
10
131.100000
20
146.697494
11
131.100000
21
153.302506
0
LINE
5
63e
100
AcDbEntity
8
0
100
AcDbLine
6
CONTINUOUS
62
5
10
122.200000
20
155.400000
11
122.200000
21
155.450000
0
ARC
5
63f
100
AcDbEntity
8
1
100
AcDbCircle
6
CONTINUOUS
62
5
10
122.900000
20
154.700000
40
0.700000
100
AcDbArc
50
0.000000
51
89.999999
0
LINE
5
640
100
AcDbEntity
8
1
100
AcDbLine
6
CONTINUOUS
62
5
10
122.900000
20
155.400000
11
122.200000
21
155.400000
0
LINE
5
641
100
AcDbEntity
8
1
100
AcDbLine
6
CONTINUOUS
62
5
10
123.600000
20
154.700000
11
123.600000
21
154.700000
0
LINE
5
642
100
AcDbEntity
8
0
100
AcDbLine
6
CONTINUOUS
62
5
10
122.200000
20
155.400000
11
122.148125
21
155.450000
0
LINE
5
643
100
AcDbEntity
8
0
100
AcDbLine
6
CONTINUOUS
62
5
10
121.830303
20
152.159851
11
121.830303
21
152.350000
0
LINE
5
644
100
AcDbEntity
8
0
100
AcDbLine
6
CONTINUOUS
62
5
10
121.581235
20
152.177009
11
121.581235
21
152.350000
0
LINE
5
645
100
AcDbEntity
8
0
100
AcDbLine
6
CONTINUOUS
62
5
10
116.600000
20
152.500000
11
116.600000
21
155.000000
0
ARC
5
646
100
AcDbEntity
8
1
100
AcDbCircle
6
CONTINUOUS
62
5
10
130.050000
20
156.400000
40
0.500000
100
AcDbArc
50
0.000000
51
89.999999
0
LINE
5
647
100
AcDbEntity
8
1
100
AcDbLine
6
CONTINUOUS
62
5
10
130.550000
20
156.400000
11
130.550000
21
156.200000
0
LINE
5
648
100
AcDbEntity
8
1
100
AcDbLine
6
CONTINUOUS
62
5
10
129.600000
20
156.900000
11
130.050000
21
156.900000
0
ARC
5
649
100
AcDbEntity
8
1
100
AcDbCircle
6
CONTINUOUS
62
5
10
129.550000
20
152.000000
40
1.000000
100
AcDbArc
50
-89.999999
51
0.000000
0
LINE
5
64a
100
AcDbEntity
8
1
100
AcDbLine
6
CONTINUOUS
62
5
10
129.550000
20
151.000000
11
129.100000
21
151.000000
0
LINE
5
64b
100
AcDbEntity
8
1
100
AcDbLine
6
CONTINUOUS
62
5
10
130.550000
20
153.300000
11
130.550000
21
152.000000
0
ARC
5
64c
100
AcDbEntity
8
1
100
AcDbCircle
6
CONTINUOUS
62
5
10
130.050000
20
143.600000
40
0.500000
100
AcDbArc
50
-89.999999
51
0.000000
0
LINE
5
64d
100
AcDbEntity
8
1
100
AcDbLine
6
CONTINUOUS
62
5
10
130.550000
20
143.600000
11
130.550000
21
143.800000
0
LINE
5
64e
100
AcDbEntity
8
1
100
AcDbLine
6
CONTINUOUS
62
5
10
129.600000
20
143.100000
11
130.050000
21
143.100000
0
ARC
5
64f
100
AcDbEntity
8
1
100
AcDbCircle
6
CONTINUOUS
62
5
10
129.550000
20
148.000000
40
1.000000
100
AcDbArc
50
0.000000
51
89.999999
0
LINE
5
650
100
AcDbEntity
8
1
100
AcDbLine
6
CONTINUOUS
62
5
10
129.550000
20
149.000000
11
129.100000
21
149.000000
0
LINE
5
651
100
AcDbEntity
8
1
100
AcDbLine
6
CONTINUOUS
62
5
10
130.550000
20
146.700000
11
130.550000
21
148.000000
0
ARC
5
652
100
AcDbEntity
8
1
100
AcDbCircle
6
CONTINUOUS
62
5
10
129.600000
20
130.200000
40
1.500000
100
AcDbArc
50
-50.703519
51
-0.000000
0
LINE
5
653
100
AcDbEntity
8
1
100
AcDbLine
6
CONTINUOUS
62
5
10
131.100000
20
130.200000
11
131.100000
21
130.302506
0
POLYLINE
5
654
100
AcDbEntity
8
1
6
CONTINUOUS
62
5
100
AcDb2dPolyline
66
1
10
0.0
20
0.0
30
0.0
70
1
0
VERTEX
5
655
100
AcDbEntity
8
1
100
AcDbVertex
100
AcDb2dVertex
62
5
10
118.600000
20
135.550000
0
VERTEX
5
656
100
AcDbEntity
8
1
100
AcDbVertex
100
AcDb2dVertex
62
5
10
118.600000
20
128.510000
0
SEQEND
5
657
100
AcDbEntity
8
1
0
LINE
5
658
100
AcDbEntity
8
1
100
AcDbLine
6
CONTINUOUS
62
5
10
119.100000
20
135.550000
11
119.100000
21
128.390000
0
POLYLINE
5
659
100
AcDbEntity
8
1
6
CONTINUOUS
62
5
100
AcDb2dPolyline
66
1
10
0.0
20
0.0
30
0.0
70
1
0
VERTEX
5
65a
100
AcDbEntity
8
1
100
AcDbVertex
100
AcDb2dVertex
62
5
10
116.048438
20
133.921875
0
VERTEX
5
65b
100
AcDbEntity
8
1
100
AcDbVertex
100
AcDb2dVertex
62
5
10
116.628125
20
133.921875
0
VERTEX
5
65c
100
AcDbEntity
8
1
100
AcDbVertex
100
AcDb2dVertex
62
5
10
116.628125
20
134.184375
0
VERTEX
5
65d
100
AcDbEntity
8
1
100
AcDbVertex
100
AcDb2dVertex
62
5
10
116.048438
20
134.184375
0
SEQEND
5
65e
100
AcDbEntity
8
1
0
POLYLINE
5
65f
100
AcDbEntity
8
1
6
CONTINUOUS
62
5
100
AcDb2dPolyline
66
1
10
0.0
20
0.0
30
0.0
70
1
0
VERTEX
5
660
100
AcDbEntity
8
1
100
AcDbVertex
100
AcDb2dVertex
62
5
10
116.048438
20
133.559375
0
VERTEX
5
661
100
AcDbEntity
8
1
100
AcDbVertex
100
AcDb2dVertex
62
5
10
116.628125
20
133.559375
0
VERTEX
5
662
100
AcDbEntity
8
1
100
AcDbVertex
100
AcDb2dVertex
62
5
10
116.628125
20
133.821875
0
VERTEX
5
663
100
AcDbEntity
8
1
100
AcDbVertex
100
AcDb2dVertex
62
5
10
116.048438
20
133.821875
0
SEQEND
5
664
100
AcDbEntity
8
1
0
ARC
5
665
100
AcDbEntity
8
1
100
AcDbCircle
6
CONTINUOUS
62
5
10
116.306250
20
130.437500
40
0.050000
100
AcDbArc
50
0.000002
51
179.999997
0
POLYLINE
5
666
100
AcDbEntity
8
1
6
CONTINUOUS
62
5
100
AcDb2dPolyline
66
1
10
0.0
20
0.0
30
0.0
70
0
0
VERTEX
5
667
100
AcDbEntity
8
1
100
AcDbVertex
100
AcDb2dVertex
62
5
10
116.356250
20
130.437500
0
VERTEX
5
668
100
AcDbEntity
8
1
100
AcDbVertex
100
AcDb2dVertex
62
5
10
116.356250
20
129.588693
0
VERTEX
5
669
100
AcDbEntity
8
1
100
AcDbVertex
100
AcDb2dVertex
62
5
10
116.377610
20
129.530601
0
VERTEX
5
66a
100
AcDbEntity
8
1
100
AcDbVertex
100
AcDb2dVertex
62
5
10
116.406593
20
129.501617
0
VERTEX
5
66b
100
AcDbEntity
8
1
100
AcDbVertex
100
AcDb2dVertex
62
5
10
116.435039
20
129.490625
0
VERTEX
5
66c
100
AcDbEntity
8
1
100
AcDbVertex
100
AcDb2dVertex
62
5
10
116.800000
20
129.490625
0
VERTEX
5
66d
100
AcDbEntity
8
1
100
AcDbVertex
100
AcDb2dVertex
62
5
10
116.800000
20
129.712500
0
SEQEND
5
66e
100
AcDbEntity
8
1
0
ARC
5
66f
100
AcDbEntity
8
1
100
AcDbCircle
6
CONTINUOUS
62
5
10
116.850000
20
129.712500
40
0.050000
100
AcDbArc
50
0.000000
51
179.999998
0
LINE
5
670
100
AcDbEntity
8
1
100
AcDbLine
6
CONTINUOUS
62
5
10
116.900000
20
129.712500
11
116.900000
21
129.440625
0
ARC
5
671
100
AcDbEntity
8
1
100
AcDbCircle
6
CONTINUOUS
62
5
10
116.850000
20
129.440625
40
0.050000
100
AcDbArc
50
-89.999999
51
0.000000
0
POLYLINE
5
672
100
AcDbEntity
8
1
6
CONTINUOUS
62
5
100
AcDb2dPolyline
66
1
10
0.0
20
0.0
30
0.0
70
0
0
VERTEX
5
673
100
AcDbEntity
8
1
100
AcDbVertex
100
AcDb2dVertex
62
5
10
116.850000
20
129.390625
0
VERTEX
5
674
100
AcDbEntity
8
1
100
AcDbVertex
100
AcDb2dVertex
62
5
10
116.425715
20
129.390625
0
VERTEX
5
675
100
AcDbEntity
8
1
100
AcDbVertex
100
AcDb2dVertex
62
5
10
116.360689
20
129.412149
0
VERTEX
5
676
100
AcDbEntity
8
1
100
AcDbVertex
100
AcDb2dVertex
62
5
10
116.299122
20
129.467668
0
VERTEX
5
677
100
AcDbEntity
8
1
100
AcDbVertex
100
AcDb2dVertex
62
5
10
116.259322
20
129.562537
0
VERTEX
5
678
100
AcDbEntity
8
1
100
AcDbVertex
100
AcDb2dVertex
62
5
10
116.256250
20
130.437500
0
SEQEND
5
679
100
AcDbEntity
8
1
0
LINE
5
67a
100
AcDbEntity
8
0
100
AcDbLine
6
CONTINUOUS
62
5
10
110.700000
20
135.200000
11
110.600000
21
135.500000
0
ARC
5
67b
100
AcDbEntity
8
1
100
AcDbCircle
6
CONTINUOUS
62
5
10
114.584375
20
130.346875
40
0.050000
100
AcDbArc
50
-18.434949
51
161.565050
0
LINE
5
67c
100
AcDbEntity
8
1
100
AcDbLine
6
CONTINUOUS
62
5
10
114.631809
20
130.331064
11
114.450559
21
129.787314
0
ARC
5
67d
100
AcDbEntity
8
1
100
AcDbCircle
6
CONTINUOUS
62
5
10
114.403125
20
129.803125
40
0.050000
100
AcDbArc
50
161.565050
51
-18.434949
0
LINE
5
67e
100
AcDbEntity
8
1
100
AcDbLine
6
CONTINUOUS
62
5
10
114.355691
20
129.818936
11
114.536941
21
130.362686
0
LINE
5
67f
100
AcDbEntity
8
1
100
AcDbLine
6
CONTINUOUS
62
5
10
114.595982
20
130.668750
11
114.493750
21
130.618750
0
POLYLINE
5
680
100
AcDbEntity
8
1
6
CONTINUOUS
62
5
100
AcDb2dPolyline
66
1
10
0.0
20
0.0
30
0.0
70
1
0
VERTEX
5
681
100
AcDbEntity
8
1
100
AcDbVertex
100
AcDb2dVertex
62
5
10
110.400000
20
130.306250
0
VERTEX
5
682
100
AcDbEntity
8
1
100
AcDbVertex
100
AcDb2dVertex
62
5
10
110.889063
20
130.306250
0
VERTEX
5
683
100
AcDbEntity
8
1
100
AcDbVertex
100
AcDb2dVertex
62
5
10
110.889063
20
130.568750
0
VERTEX
5
684
100
AcDbEntity
8
1
100
AcDbVertex
100
AcDb2dVertex
62
5
10
110.400000
20
130.568750
0
SEQEND
5
685
100
AcDbEntity
8
1
0
POLYLINE
5
686
100
AcDbEntity
8
1
6
CONTINUOUS
62
5
100
AcDb2dPolyline
66
1
10
0.0
20
0.0
30
0.0
70
1
0
VERTEX
5
687
100
AcDbEntity
8
1
100
AcDbVertex
100
AcDb2dVertex
62
5
10
110.400000
20
130.668750
0
VERTEX
5
688
100
AcDbEntity
8
1
100
AcDbVertex
100
AcDb2dVertex
62
5
10
110.889063
20
130.668750
0
VERTEX
5
689
100
AcDbEntity
8
1
100
AcDbVertex
100
AcDb2dVertex
62
5
10
110.889063
20
130.931250
0
VERTEX
5
68a
100
AcDbEntity
8
1
100
AcDbVertex
100
AcDb2dVertex
62
5
10
110.400000
20
130.931250
0
SEQEND
5
68b
100
AcDbEntity
8
1
0
ARC
5
68c
100
AcDbEntity
8
1
100
AcDbCircle
6
CONTINUOUS
62
5
10
111.482813
20
131.887500
40
0.050000
100
AcDbArc
50
-0.000000
51
-179.999998
0
POLYLINE
5
68d
100
AcDbEntity
8
1
6
CONTINUOUS
62
5
100
AcDb2dPolyline
66
1
10
0.0
20
0.0
30
0.0
70
0
0
VERTEX
5
68e
100
AcDbEntity
8
1
100
AcDbVertex
100
AcDb2dVertex
62
5
10
111.532813
20
131.887500
0
VERTEX
5
68f
100
AcDbEntity
8
1
100
AcDbVertex
100
AcDb2dVertex
62
5
10
111.532453
20
131.212500
0
VERTEX
5
690
100
AcDbEntity
8
1
100
AcDbVertex
100
AcDb2dVertex
62
5
10
112.207780
20
131.212500
0
SEQEND
5
691
100
AcDbEntity
8
1
0
ARC
5
692
100
AcDbEntity
8
1
100
AcDbCircle
6
CONTINUOUS
62
5
10
112.207780
20
131.162500
40
0.050000
100
AcDbArc
50
-0.036943
51
89.999999
0
POLYLINE
5
693
100
AcDbEntity
8
1
6
CONTINUOUS
62
5
100
AcDb2dPolyline
66
1
10
0.0
20
0.0
30
0.0
70
0
0
VERTEX
5
694
100
AcDbEntity
8
1
100
AcDbVertex
100
AcDb2dVertex
62
5
10
112.257780
20
131.162468
0
VERTEX
5
695
100
AcDbEntity
8
1
100
AcDbVertex
100
AcDb2dVertex
62
5
10
112.257132
20
130.157405
0
VERTEX
5
696
100
AcDbEntity
8
1
100
AcDbVertex
100
AcDb2dVertex
62
5
10
112.184893
20
129.737463
0
VERTEX
5
697
100
AcDbEntity
8
1
100
AcDbVertex
100
AcDb2dVertex
62
5
10
112.060278
20
129.494255
0
VERTEX
5
698
100
AcDbEntity
8
1
100
AcDbVertex
100
AcDb2dVertex
62
5
10
111.890814
20
129.324791
0
VERTEX
5
699
100
AcDbEntity
8
1
100
AcDbVertex
100
AcDb2dVertex
62
5
10
111.801489
20
129.310212
0
VERTEX
5
69a
100
AcDbEntity
8
1
100
AcDbVertex
100
AcDb2dVertex
62
5
10
111.541973
20
129.381722
0
SEQEND
5
69b
100
AcDbEntity
8
1
0
ARC
5
69c
100
AcDbEntity
8
1
100
AcDbCircle
6
CONTINUOUS
62
5
10
111.555256
20
129.429926
40
0.050000
100
AcDbArc
50
74.594336
51
-105.405662
0
POLYLINE
5
69d
100
AcDbEntity
8
1
6
CONTINUOUS
62
5
100
AcDb2dPolyline
66
1
10
0.0
20
0.0
30
0.0
70
0
0
VERTEX
5
69e
100
AcDbEntity
8
1
100
AcDbVertex
100
AcDb2dVertex
62
5
10
111.568538
20
129.478129
0
VERTEX
5
69f
100
AcDbEntity
8
1
100
AcDbVertex
100
AcDb2dVertex
62
5
10
111.806968
20
129.412429
0
VERTEX
5
6a0
100
AcDbEntity
8
1
100
AcDbVertex
100
AcDb2dVertex
62
5
10
111.842895
20
129.418293
0
VERTEX
5
6a1
100
AcDbEntity
8
1
100
AcDbVertex
100
AcDb2dVertex
62
5
10
111.983839
20
129.559237
0
VERTEX
5
6a2
100
AcDbEntity
8
1
100
AcDbVertex
100
AcDb2dVertex
62
5
10
112.092101
20
129.775495
0
VERTEX
5
6a3
100
AcDbEntity
8
1
100
AcDbVertex
100
AcDb2dVertex
62
5
10
112.157813
20
130.169763
0
VERTEX
5
6a4
100
AcDbEntity
8
1
100
AcDbVertex
100
AcDb2dVertex
62
5
10
112.157813
20
131.112500
0
VERTEX
5
6a5
100
AcDbEntity
8
1
100
AcDbVertex
100
AcDb2dVertex
62
5
10
111.532400
20
131.112500
0
VERTEX
5
6a6
100
AcDbEntity
8
1
100
AcDbVertex
100
AcDb2dVertex
62
5
10
111.532277
20
130.881634
0
VERTEX
5
6a7
100
AcDbEntity
8
1
100
AcDbVertex
100
AcDb2dVertex
62
5
10
111.452253
20
130.342878
0
VERTEX
5
6a8
100
AcDbEntity
8
1
100
AcDbVertex
100
AcDb2dVertex
62
5
10
111.314135
20
129.885123
0
VERTEX
5
6a9
100
AcDbEntity
8
1
100
AcDbVertex
100
AcDb2dVertex
62
5
10
111.131148
20
129.522780
0
VERTEX
5
6aa
100
AcDbEntity
8
1
100
AcDbVertex
100
AcDb2dVertex
62
5
10
110.979063
20
129.320000
0
SEQEND
5
6ab
100
AcDbEntity
8
1
0
ARC
5
6ac
100
AcDbEntity
8
1
100
AcDbCircle
6
CONTINUOUS
62
5
10
110.939063
20
129.350000
40
0.050000
100
AcDbArc
50
143.130101
51
-36.869897
0
POLYLINE
5
6ad
100
AcDbEntity
8
1
6
CONTINUOUS
62
5
100
AcDb2dPolyline
66
1
10
0.0
20
0.0
30
0.0
70
0
0
VERTEX
5
6ae
100
AcDbEntity
8
1
100
AcDbVertex
100
AcDb2dVertex
62
5
10
110.899063
20
129.380000
0
VERTEX
5
6af
100
AcDbEntity
8
1
100
AcDbVertex
100
AcDb2dVertex
62
5
10
111.048474
20
129.579215
0
VERTEX
5
6b0
100
AcDbEntity
8
1
100
AcDbVertex
100
AcDb2dVertex
62
5
10
111.222824
20
129.926126
0
VERTEX
5
6b1
100
AcDbEntity
8
1
100
AcDbVertex
100
AcDb2dVertex
62
5
10
111.355427
20
130.368136
0
VERTEX
5
6b2
100
AcDbEntity
8
1
100
AcDbVertex
100
AcDb2dVertex
62
5
10
111.432813
20
130.892601
0
VERTEX
5
6b3
100
AcDbEntity
8
1
100
AcDbVertex
100
AcDb2dVertex
62
5
10
111.432813
20
131.112500
0
VERTEX
5
6b4
100
AcDbEntity
8
1
100
AcDbVertex
100
AcDb2dVertex
62
5
10
111.120313
20
131.112500
0
SEQEND
5
6b5
100
AcDbEntity
8
1
0
ARC
5
6b6
100
AcDbEntity
8
1
100
AcDbCircle
6
CONTINUOUS
62
5
10
111.120313
20
131.162500
40
0.050000
100
AcDbArc
50
89.999999
51
-89.999999
0
POLYLINE
5
6b7
100
AcDbEntity
8
1
6
CONTINUOUS
62
5
100
AcDb2dPolyline
66
1
10
0.0
20
0.0
30
0.0
70
0
0
VERTEX
5
6b8
100
AcDbEntity
8
1
100
AcDbVertex
100
AcDb2dVertex
62
5
10
111.120313
20
131.212500
0
VERTEX
5
6b9
100
AcDbEntity
8
1
100
AcDbVertex
100
AcDb2dVertex
62
5
10
111.432813
20
131.212500
0
VERTEX
5
6ba
100
AcDbEntity
8
1
100
AcDbVertex
100
AcDb2dVertex
62
5
10
111.432813
20
131.887500
0
SEQEND
5
6bb
100
AcDbEntity
8
1
0
POLYLINE
5
6bc
100
AcDbEntity
8
1
6
CONTINUOUS
62
5
100
AcDb2dPolyline
66
1
10
0.0
20
0.0
30
0.0
70
1
0
VERTEX
5
6bd
100
AcDbEntity
8
1
100
AcDbVertex
100
AcDb2dVertex
62
5
10
112.500000
20
132.850000
0
VERTEX
5
6be
100
AcDbEntity
8
1
100
AcDbVertex
100
AcDb2dVertex
62
5
10
111.400000
20
132.850000
0
VERTEX
5
6bf
100
AcDbEntity
8
1
100
AcDbVertex
100
AcDb2dVertex
62
5
10
111.400000
20
132.350000
0
VERTEX
5
6c0
100
AcDbEntity
8
1
100
AcDbVertex
100
AcDb2dVertex
62
5
10
113.600000
20
132.350000
0
VERTEX
5
6c1
100
AcDbEntity
8
1
100
AcDbVertex
100
AcDb2dVertex
62
5
10
112.500000
20
133.450000
0
SEQEND
5
6c2
100
AcDbEntity
8
1
0
ARC
5
6c3
100
AcDbEntity
8
1
100
AcDbCircle
6
CONTINUOUS
62
5
10
114.503125
20
134.778125
40
0.050000
100
AcDbArc
50
53.130102
51
-126.869897
0
LINE
5
6c4
100
AcDbEntity
8
1
100
AcDbLine
6
CONTINUOUS
62
5
10
114.533125
20
134.818125
11
114.895625
21
134.546250
0
ARC
5
6c5
100
AcDbEntity
8
1
100
AcDbCircle
6
CONTINUOUS
62
5
10
114.865625
20
134.506250
40
0.050000
100
AcDbArc
50
-126.869896
51
53.130102
0
LINE
5
6c6
100
AcDbEntity
8
1
100
AcDbLine
6
CONTINUOUS
62
5
10
114.835625
20
134.466250
11
114.473125
21
134.738125
0
POLYLINE
5
6c7
100
AcDbEntity
8
1
6
CONTINUOUS
62
5
100
AcDb2dPolyline
66
1
10
0.0
20
0.0
30
0.0
70
1
0
VERTEX
5
6c8
100
AcDbEntity
8
1
100
AcDbVertex
100
AcDb2dVertex
62
5
10
115.368750
20
133.921875
0
VERTEX
5
6c9
100
AcDbEntity
8
1
100
AcDbVertex
100
AcDb2dVertex
62
5
10
115.948438
20
133.921875
0
VERTEX
5
6ca
100
AcDbEntity
8
1
100
AcDbVertex
100
AcDb2dVertex
62
5
10
115.948438
20
134.184375
0
VERTEX
5
6cb
100
AcDbEntity
8
1
100
AcDbVertex
100
AcDb2dVertex
62
5
10
115.368750
20
134.184375
0
SEQEND
5
6cc
100
AcDbEntity
8
1
0
POLYLINE
5
6cd
100
AcDbEntity
8
1
6
CONTINUOUS
62
5
100
AcDb2dPolyline
66
1
10
0.0
20
0.0
30
0.0
70
1
0
VERTEX
5
6ce
100
AcDbEntity
8
1
100
AcDbVertex
100
AcDb2dVertex
62
5
10
115.368750
20
133.559375
0
VERTEX
5
6cf
100
AcDbEntity
8
1
100
AcDbVertex
100
AcDb2dVertex
62
5
10
115.948438
20
133.559375
0
VERTEX
5
6d0
100
AcDbEntity
8
1
100
AcDbVertex
100
AcDb2dVertex
62
5
10
115.948438
20
133.821875
0
VERTEX
5
6d1
100
AcDbEntity
8
1
100
AcDbVertex
100
AcDb2dVertex
62
5
10
115.368750
20
133.821875
0
SEQEND
5
6d2
100
AcDbEntity
8
1
0
ARC
5
6d3
100
AcDbEntity
8
1
100
AcDbCircle
6
CONTINUOUS
62
5
10
114.946875
20
131.796875
40
0.050000
100
AcDbArc
50
-38.659808
51
141.340191
0
POLYLINE
5
6d4
100
AcDbEntity
8
1
6
CONTINUOUS
62
5
100
AcDb2dPolyline
66
1
10
0.0
20
0.0
30
0.0
70
0
0
VERTEX
5
6d5
100
AcDbEntity
8
1
100
AcDbVertex
100
AcDb2dVertex
62
5
10
114.985918
20
131.765640
0
VERTEX
5
6d6
100
AcDbEntity
8
1
100
AcDbVertex
100
AcDb2dVertex
62
5
10
114.651375
20
131.347461
0
VERTEX
5
6d7
100
AcDbEntity
8
1
100
AcDbVertex
100
AcDb2dVertex
62
5
10
114.845891
20
131.152944
0
VERTEX
5
6d8
100
AcDbEntity
8
1
100
AcDbVertex
100
AcDb2dVertex
62
5
10
115.088657
20
131.465072
0
SEQEND
5
6d9
100
AcDbEntity
8
1
0
ARC
5
6da
100
AcDbEntity
8
1
100
AcDbCircle
6
CONTINUOUS
62
5
10
115.128125
20
131.434375
40
0.050000
100
AcDbArc
50
-37.874983
51
142.125015
0
POLYLINE
5
6db
100
AcDbEntity
8
1
6
CONTINUOUS
62
5
100
AcDb2dPolyline
66
1
10
0.0
20
0.0
30
0.0
70
0
0
VERTEX
5
6dc
100
AcDbEntity
8
1
100
AcDbVertex
100
AcDb2dVertex
62
5
10
115.167593
20
131.403678
0
VERTEX
5
6dd
100
AcDbEntity
8
1
100
AcDbVertex
100
AcDb2dVertex
62
5
10
114.595982
20
130.668750
0
VERTEX
5
6de
100
AcDbEntity
8
1
100
AcDbVertex
100
AcDb2dVertex
62
5
10
115.163023
20
130.668750
0
VERTEX
5
6df
100
AcDbEntity
8
1
100
AcDbVertex
100
AcDb2dVertex
62
5
10
115.081701
20
130.872055
0
SEQEND
5
6e0
100
AcDbEntity
8
1
0
ARC
5
6e1
100
AcDbEntity
8
1
100
AcDbCircle
6
CONTINUOUS
62
5
10
115.128125
20
130.890625
40
0.050000
100
AcDbArc
50
21.801409
51
-158.198589
0
LINE
5
6e2
100
AcDbEntity
8
1
100
AcDbLine
6
CONTINUOUS
62
5
10
115.174549
20
130.909195
11
115.355799
21
130.456070
0
ARC
5
6e3
100
AcDbEntity
8
1
100
AcDbCircle
6
CONTINUOUS
62
5
10
115.309375
20
130.437500
40
0.050000
100
AcDbArc
50
-158.198589
51
21.801409
0
POLYLINE
5
6e4
100
AcDbEntity
8
1
6
CONTINUOUS
62
5
100
AcDb2dPolyline
66
1
10
0.0
20
0.0
30
0.0
70
0
0
VERTEX
5
6e5
100
AcDbEntity
8
1
100
AcDbVertex
100
AcDb2dVertex
62
5
10
115.262951
20
130.418930
0
VERTEX
5
6e6
100
AcDbEntity
8
1
100
AcDbVertex
100
AcDb2dVertex
62
5
10
115.203023
20
130.568750
0
VERTEX
5
6e7
100
AcDbEntity
8
1
100
AcDbVertex
100
AcDb2dVertex
62
5
10
114.906250
20
130.568750
0
VERTEX
5
6e8
100
AcDbEntity
8
1
100
AcDbVertex
100
AcDb2dVertex
62
5
10
114.906250
20
129.350000
0
SEQEND
5
6e9
100
AcDbEntity
8
1
0
ARC
5
6ea
100
AcDbEntity
8
1
100
AcDbCircle
6
CONTINUOUS
62
5
10
114.856250
20
129.350000
40
0.050000
100
AcDbArc
50
179.999998
51
0.000000
0
POLYLINE
5
6eb
100
AcDbEntity
8
1
6
CONTINUOUS
62
5
100
AcDb2dPolyline
66
1
10
0.0
20
0.0
30
0.0
70
0
0
VERTEX
5
6ec
100
AcDbEntity
8
1
100
AcDbVertex
100
AcDb2dVertex
62
5
10
114.806250
20
129.350000
0
VERTEX
5
6ed
100
AcDbEntity
8
1
100
AcDbVertex
100
AcDb2dVertex
62
5
10
114.806250
20
130.568750
0
VERTEX
5
6ee
100
AcDbEntity
8
1
100
AcDbVertex
100
AcDb2dVertex
62
5
10
114.312500
20
130.568750
0
SEQEND
5
6ef
100
AcDbEntity
8
1
0
ARC
5
6f0
100
AcDbEntity
8
1
100
AcDbCircle
6
CONTINUOUS
62
5
10
114.312500
20
130.618750
40
0.050000
100
AcDbArc
50
89.999999
51
-89.999999
0
POLYLINE
5
6f1
100
AcDbEntity
8
1
6
CONTINUOUS
62
5
100
AcDb2dPolyline
66
1
10
0.0
20
0.0
30
0.0
70
0
0
VERTEX
5
6f2
100
AcDbEntity
8
1
100
AcDbVertex
100
AcDb2dVertex
62
5
10
114.312500
20
130.668750
0
VERTEX
5
6f3
100
AcDbEntity
8
1
100
AcDbVertex
100
AcDb2dVertex
62
5
10
114.469296
20
130.668750
0
VERTEX
5
6f4
100
AcDbEntity
8
1
100
AcDbVertex
100
AcDb2dVertex
62
5
10
114.784020
20
131.073395
0
VERTEX
5
6f5
100
AcDbEntity
8
1
100
AcDbVertex
100
AcDb2dVertex
62
5
10
114.458395
20
131.399020
0
SEQEND
5
6f6
100
AcDbEntity
8
1
0
ARC
5
6f7
100
AcDbEntity
8
1
100
AcDbCircle
6
CONTINUOUS
62
5
10
114.493750
20
131.434375
40
0.050000
100
AcDbArc
50
45.000000
51
-134.999999
0
POLYLINE
5
6f8
100
AcDbEntity
8
1
6
CONTINUOUS
62
5
100
AcDb2dPolyline
66
1
10
0.0
20
0.0
30
0.0
70
0
0
VERTEX
5
6f9
100
AcDbEntity
8
1
100
AcDbVertex
100
AcDb2dVertex
62
5
10
114.529105
20
131.469730
0
VERTEX
5
6fa
100
AcDbEntity
8
1
100
AcDbVertex
100
AcDb2dVertex
62
5
10
114.580229
20
131.418607
0
VERTEX
5
6fb
100
AcDbEntity
8
1
100
AcDbVertex
100
AcDb2dVertex
62
5
10
114.907832
20
131.828110
0
SEQEND
5
6fc
100
AcDbEntity
8
1
0
ARC
5
6fd
100
AcDbEntity
8
1
100
AcDbCircle
6
CONTINUOUS
62
5
10
115.309375
20
129.893750
40
0.050000
100
AcDbArc
50
-158.198589
51
21.801409
0
LINE
5
6fe
100
AcDbEntity
8
1
100
AcDbLine
6
CONTINUOUS
62
5
10
115.262951
20
129.875180
11
115.081701
21
130.328305
0
ARC
5
6ff
100
AcDbEntity
8
1
100
AcDbCircle
6
CONTINUOUS
62
5
10
115.128125
20
130.346875
40
0.050000
100
AcDbArc
50
21.801409
51
-158.198589
0
LINE
5
700
100
AcDbEntity
8
1
100
AcDbLine
6
CONTINUOUS
62
5
10
115.174549
20
130.365445
11
115.355799
21
129.912320
0
LINE
5
701
100
AcDbEntity
8
1
100
AcDbLine
6
CONTINUOUS
62
5
10
115.163023
20
130.668750
11
115.236875
21
130.618750
0
ARC
5
702
100
AcDbEntity
8
1
100
AcDbCircle
6
CONTINUOUS
62
5
10
115.943750
20
130.437500
40
0.050000
100
AcDbArc
50
0.000002
51
179.999997
0
POLYLINE
5
703
100
AcDbEntity
8
1
6
CONTINUOUS
62
5
100
AcDb2dPolyline
66
1
10
0.0
20
0.0
30
0.0
70
0
0
VERTEX
5
704
100
AcDbEntity
8
1
100
AcDbVertex
100
AcDb2dVertex
62
5
10
115.993750
20
130.437500
0
VERTEX
5
705
100
AcDbEntity
8
1
100
AcDbVertex
100
AcDb2dVertex
62
5
10
115.992401
20
130.092462
0
VERTEX
5
706
100
AcDbEntity
8
1
100
AcDbVertex
100
AcDb2dVertex
62
5
10
115.934524
20
129.854119
0
VERTEX
5
707
100
AcDbEntity
8
1
100
AcDbVertex
100
AcDb2dVertex
62
5
10
115.844849
20
129.678590
0
VERTEX
5
708
100
AcDbEntity
8
1
100
AcDbVertex
100
AcDb2dVertex
62
5
10
115.704960
20
129.523422
0
VERTEX
5
709
100
AcDbEntity
8
1
100
AcDbVertex
100
AcDb2dVertex
62
5
10
115.518360
20
129.399022
0
SEQEND
5
70a
100
AcDbEntity
8
1
0
ARC
5
70b
100
AcDbEntity
8
1
100
AcDbCircle
6
CONTINUOUS
62
5
10
115.490625
20
129.440625
40
0.050000
100
AcDbArc
50
123.690066
51
-56.309932
0
POLYLINE
5
70c
100
AcDbEntity
8
1
6
CONTINUOUS
62
5
100
AcDb2dPolyline
66
1
10
0.0
20
0.0
30
0.0
70
0
0
VERTEX
5
70d
100
AcDbEntity
8
1
100
AcDbVertex
100
AcDb2dVertex
62
5
10
115.462890
20
129.482228
0
VERTEX
5
70e
100
AcDbEntity
8
1
100
AcDbVertex
100
AcDb2dVertex
62
5
10
115.644115
20
129.603044
0
VERTEX
5
70f
100
AcDbEntity
8
1
100
AcDbVertex
100
AcDb2dVertex
62
5
10
115.765677
20
129.740033
0
VERTEX
5
710
100
AcDbEntity
8
1
100
AcDbVertex
100
AcDb2dVertex
62
5
10
115.842489
20
129.893656
0
VERTEX
5
711
100
AcDbEntity
8
1
100
AcDbVertex
100
AcDb2dVertex
62
5
10
115.893750
20
130.109844
0
VERTEX
5
712
100
AcDbEntity
8
1
100
AcDbVertex
100
AcDb2dVertex
62
5
10
115.893750
20
130.437500
0
SEQEND
5
713
100
AcDbEntity
8
1
0
ARC
5
714
100
AcDbEntity
8
1
100
AcDbCircle
6
CONTINUOUS
62
5
10
116.850000
20
130.771875
40
0.050000
100
AcDbArc
50
0.000000
51
89.999999
0
LINE
5
715
100
AcDbEntity
8
1
100
AcDbLine
6
CONTINUOUS
62
5
10
116.900000
20
130.771875
11
116.900000
21
130.437500
0
ARC
5
716
100
AcDbEntity
8
1
100
AcDbCircle
6
CONTINUOUS
62
5
10
116.850000
20
130.437500
40
0.050000
100
AcDbArc
50
-179.999998
51
-0.000000
0
POLYLINE
5
717
100
AcDbEntity
8
1
6
CONTINUOUS
62
5
100
AcDb2dPolyline
66
1
10
0.0
20
0.0
30
0.0
70
0
0
VERTEX
5
718
100
AcDbEntity
8
1
100
AcDbVertex
100
AcDb2dVertex
62
5
10
116.800000
20
130.437500
0
VERTEX
5
719
100
AcDbEntity
8
1
100
AcDbVertex
100
AcDb2dVertex
62
5
10
116.800000
20
130.721875
0
VERTEX
5
71a
100
AcDbEntity
8
1
100
AcDbVertex
100
AcDb2dVertex
62
5
10
115.540625
20
130.721875
0
VERTEX
5
71b
100
AcDbEntity
8
1
100
AcDbVertex
100
AcDb2dVertex
62
5
10
115.540625
20
130.437500
0
SEQEND
5
71c
100
AcDbEntity
8
1
0
ARC
5
71d
100
AcDbEntity
8
1
100
AcDbCircle
6
CONTINUOUS
62
5
10
115.490625
20
130.437500
40
0.050000
100
AcDbArc
50
-179.999998
51
-0.000000
0
LINE
5
71e
100
AcDbEntity
8
1
100
AcDbLine
6
CONTINUOUS
62
5
10
115.440625
20
130.437500
11
115.440625
21
130.771875
0
ARC
5
71f
100
AcDbEntity
8
1
100
AcDbCircle
6
CONTINUOUS
62
5
10
115.490625
20
130.771875
40
0.050000
100
AcDbArc
50
89.999999
51
179.999998
0
LINE
5
720
100
AcDbEntity
8
1
100
AcDbLine
6
CONTINUOUS
62
5
10
115.490625
20
130.821875
11
116.850000
21
130.821875
0
ARC
5
721
100
AcDbEntity
8
1
100
AcDbCircle
6
CONTINUOUS
62
5
10
116.125000
20
131.887500
40
0.050000
100
AcDbArc
50
-0.000000
51
-179.999998
0
POLYLINE
5
722
100
AcDbEntity
8
1
6
CONTINUOUS
62
5
100
AcDb2dPolyline
66
1
10
0.0
20
0.0
30
0.0
70
0
0
VERTEX
5
723
100
AcDbEntity
8
1
100
AcDbVertex
100
AcDb2dVertex
62
5
10
116.175000
20
131.887500
0
VERTEX
5
724
100
AcDbEntity
8
1
100
AcDbVertex
100
AcDb2dVertex
62
5
10
116.175000
20
131.575000
0
VERTEX
5
725
100
AcDbEntity
8
1
100
AcDbVertex
100
AcDb2dVertex
62
5
10
116.850000
20
131.575000
0
SEQEND
5
726
100
AcDbEntity
8
1
0
ARC
5
727
100
AcDbEntity
8
1
100
AcDbCircle
6
CONTINUOUS
62
5
10
116.850000
20
131.525000
40
0.050000
100
AcDbArc
50
-89.999999
51
89.999999
0
POLYLINE
5
728
100
AcDbEntity
8
1
6
CONTINUOUS
62
5
100
AcDb2dPolyline
66
1
10
0.0
20
0.0
30
0.0
70
0
0
VERTEX
5
729
100
AcDbEntity
8
1
100
AcDbVertex
100
AcDb2dVertex
62
5
10
116.850000
20
131.475000
0
VERTEX
5
72a
100
AcDbEntity
8
1
100
AcDbVertex
100
AcDb2dVertex
62
5
10
116.175000
20
131.475000
0
VERTEX
5
72b
100
AcDbEntity
8
1
100
AcDbVertex
100
AcDb2dVertex
62
5
10
116.175000
20
131.171875
0
VERTEX
5
72c
100
AcDbEntity
8
1
100
AcDbVertex
100
AcDb2dVertex
62
5
10
116.668750
20
131.171875
0
SEQEND
5
72d
100
AcDbEntity
8
1
0
ARC
5
72e
100
AcDbEntity
8
1
100
AcDbCircle
6
CONTINUOUS
62
5
10
116.668750
20
131.121875
40
0.050000
100
AcDbArc
50
-89.999999
51
89.999999
0
LINE
5
72f
100
AcDbEntity
8
1
100
AcDbLine
6
CONTINUOUS
62
5
10
116.668750
20
131.071875
11
115.581250
21
131.071875
0
ARC
5
730
100
AcDbEntity
8
1
100
AcDbCircle
6
CONTINUOUS
62
5
10
115.581250
20
131.121875
40
0.050000
100
AcDbArc
50
89.999999
51
-89.999999
0
POLYLINE
5
731
100
AcDbEntity
8
1
6
CONTINUOUS
62
5
100
AcDb2dPolyline
66
1
10
0.0
20
0.0
30
0.0
70
0
0
VERTEX
5
732
100
AcDbEntity
8
1
100
AcDbVertex
100
AcDb2dVertex
62
5
10
115.581250
20
131.171875
0
VERTEX
5
733
100
AcDbEntity
8
1
100
AcDbVertex
100
AcDb2dVertex
62
5
10
116.075000
20
131.171875
0
VERTEX
5
734
100
AcDbEntity
8
1
100
AcDbVertex
100
AcDb2dVertex
62
5
10
116.075000
20
131.475000
0
VERTEX
5
735
100
AcDbEntity
8
1
100
AcDbVertex
100
AcDb2dVertex
62
5
10
115.400000
20
131.475000
0
SEQEND
5
736
100
AcDbEntity
8
1
0
ARC
5
737
100
AcDbEntity
8
1
100
AcDbCircle
6
CONTINUOUS
62
5
10
115.400000
20
131.525000
40
0.050000
100
AcDbArc
50
89.999999
51
-89.999999
0
POLYLINE
5
738
100
AcDbEntity
8
1
6
CONTINUOUS
62
5
100
AcDb2dPolyline
66
1
10
0.0
20
0.0
30
0.0
70
0
0
VERTEX
5
739
100
AcDbEntity
8
1
100
AcDbVertex
100
AcDb2dVertex
62
5
10
115.400000
20
131.575000
0
VERTEX
5
73a
100
AcDbEntity
8
1
100
AcDbVertex
100
AcDb2dVertex
62
5
10
116.075000
20
131.575000
0
VERTEX
5
73b
100
AcDbEntity
8
1
100
AcDbVertex
100
AcDb2dVertex
62
5
10
116.075000
20
131.887500
0
SEQEND
5
73c
100
AcDbEntity
8
1
0
ARC
5
73d
100
AcDbEntity
8
1
100
AcDbCircle
6
CONTINUOUS
62
5
10
116.678125
20
134.234375
40
0.050000
100
AcDbArc
50
0.000000
51
89.999999
0
LINE
5
73e
100
AcDbEntity
8
1
100
AcDbLine
6
CONTINUOUS
62
5
10
116.728125
20
134.234375
11
116.728125
21
133.509375
0
ARC
5
73f
100
AcDbEntity
8
1
100
AcDbCircle
6
CONTINUOUS
62
5
10
116.678125
20
133.509375
40
0.050000
100
AcDbArc
50
-89.999999
51
0.000000
0
POLYLINE
5
740
100
AcDbEntity
8
1
6
CONTINUOUS
62
5
100
AcDb2dPolyline
66
1
10
0.0
20
0.0
30
0.0
70
0
0
VERTEX
5
741
100
AcDbEntity
8
1
100
AcDbVertex
100
AcDb2dVertex
62
5
10
116.678125
20
133.459375
0
VERTEX
5
742
100
AcDbEntity
8
1
100
AcDbVertex
100
AcDb2dVertex
62
5
10
116.048438
20
133.459375
0
VERTEX
5
743
100
AcDbEntity
8
1
100
AcDbVertex
100
AcDb2dVertex
62
5
10
116.048438
20
133.196875
0
VERTEX
5
744
100
AcDbEntity
8
1
100
AcDbVertex
100
AcDb2dVertex
62
5
10
116.950000
20
133.196875
0
SEQEND
5
745
100
AcDbEntity
8
1
0
ARC
5
746
100
AcDbEntity
8
1
100
AcDbCircle
6
CONTINUOUS
62
5
10
116.950000
20
133.146875
40
0.050000
100
AcDbArc
50
-89.999999
51
89.999999
0
POLYLINE
5
747
100
AcDbEntity
8
1
6
CONTINUOUS
62
5
100
AcDb2dPolyline
66
1
10
0.0
20
0.0
30
0.0
70
0
0
VERTEX
5
748
100
AcDbEntity
8
1
100
AcDbVertex
100
AcDb2dVertex
62
5
10
116.950000
20
133.096875
0
VERTEX
5
749
100
AcDbEntity
8
1
100
AcDbVertex
100
AcDb2dVertex
62
5
10
116.048438
20
133.096875
0
VERTEX
5
74a
100
AcDbEntity
8
1
100
AcDbVertex
100
AcDb2dVertex
62
5
10
116.048438
20
132.784375
0
SEQEND
5
74b
100
AcDbEntity
8
1
0
ARC
5
74c
100
AcDbEntity
8
1
100
AcDbCircle
6
CONTINUOUS
62
5
10
115.998438
20
132.784375
40
0.050000
100
AcDbArc
50
-179.999998
51
-0.000000
0
POLYLINE
5
74d
100
AcDbEntity
8
1
6
CONTINUOUS
62
5
100
AcDb2dPolyline
66
1
10
0.0
20
0.0
30
0.0
70
0
0
VERTEX
5
74e
100
AcDbEntity
8
1
100
AcDbVertex
100
AcDb2dVertex
62
5
10
115.948438
20
132.784375
0
VERTEX
5
74f
100
AcDbEntity
8
1
100
AcDbVertex
100
AcDb2dVertex
62
5
10
115.948438
20
133.096875
0
VERTEX
5
750
100
AcDbEntity
8
1
100
AcDbVertex
100
AcDb2dVertex
62
5
10
115.046875
20
133.096875
0
SEQEND
5
751
100
AcDbEntity
8
1
0
ARC
5
752
100
AcDbEntity
8
1
100
AcDbCircle
6
CONTINUOUS
62
5
10
115.046875
20
133.146875
40
0.050000
100
AcDbArc
50
89.999999
51
-89.999999
0
POLYLINE
5
753
100
AcDbEntity
8
1
6
CONTINUOUS
62
5
100
AcDb2dPolyline
66
1
10
0.0
20
0.0
30
0.0
70
0
0
VERTEX
5
754
100
AcDbEntity
8
1
100
AcDbVertex
100
AcDb2dVertex
62
5
10
115.046875
20
133.196875
0
VERTEX
5
755
100
AcDbEntity
8
1
100
AcDbVertex
100
AcDb2dVertex
62
5
10
115.948438
20
133.196875
0
VERTEX
5
756
100
AcDbEntity
8
1
100
AcDbVertex
100
AcDb2dVertex
62
5
10
115.948438
20
133.459375
0
VERTEX
5
757
100
AcDbEntity
8
1
100
AcDbVertex
100
AcDb2dVertex
62
5
10
115.318750
20
133.459375
0
SEQEND
5
758
100
AcDbEntity
8
1
0
ARC
5
759
100
AcDbEntity
8
1
100
AcDbCircle
6
CONTINUOUS
62
5
10
115.318750
20
133.509375
40
0.050000
100
AcDbArc
50
179.999998
51
-89.999999
0
LINE
5
75a
100
AcDbEntity
8
1
100
AcDbLine
6
CONTINUOUS
62
5
10
115.268750
20
133.509375
11
115.268750
21
134.234375
0
ARC
5
75b
100
AcDbEntity
8
1
100
AcDbCircle
6
CONTINUOUS
62
5
10
115.318750
20
134.234375
40
0.050000
100
AcDbArc
50
89.999999
51
179.999998
0
POLYLINE
5
75c
100
AcDbEntity
8
1
6
CONTINUOUS
62
5
100
AcDb2dPolyline
66
1
10
0.0
20
0.0
30
0.0
70
0
0
VERTEX
5
75d
100
AcDbEntity
8
1
100
AcDbVertex
100
AcDb2dVertex
62
5
10
115.318750
20
134.284375
0
VERTEX
5
75e
100
AcDbEntity
8
1
100
AcDbVertex
100
AcDb2dVertex
62
5
10
115.948438
20
134.284375
0
VERTEX
5
75f
100
AcDbEntity
8
1
100
AcDbVertex
100
AcDb2dVertex
62
5
10
115.948438
20
134.546875
0
VERTEX
5
760
100
AcDbEntity
8
1
100
AcDbVertex
100
AcDb2dVertex
62
5
10
115.137500
20
134.546875
0
SEQEND
5
761
100
AcDbEntity
8
1
0
ARC
5
762
100
AcDbEntity
8
1
100
AcDbCircle
6
CONTINUOUS
62
5
10
115.137500
20
134.596875
40
0.050000
100
AcDbArc
50
89.999999
51
-89.999999
0
POLYLINE
5
763
100
AcDbEntity
8
1
6
CONTINUOUS
62
5
100
AcDb2dPolyline
66
1
10
0.0
20
0.0
30
0.0
70
0
0
VERTEX
5
764
100
AcDbEntity
8
1
100
AcDbVertex
100
AcDb2dVertex
62
5
10
115.137500
20
134.646875
0
VERTEX
5
765
100
AcDbEntity
8
1
100
AcDbVertex
100
AcDb2dVertex
62
5
10
115.948438
20
134.646875
0
VERTEX
5
766
100
AcDbEntity
8
1
100
AcDbVertex
100
AcDb2dVertex
62
5
10
115.948438
20
134.959375
0
SEQEND
5
767
100
AcDbEntity
8
1
0
ARC
5
768
100
AcDbEntity
8
1
100
AcDbCircle
6
CONTINUOUS
62
5
10
115.998438
20
134.959375
40
0.050000
100
AcDbArc
50
0.000000
51
179.999998
0
POLYLINE
5
769
100
AcDbEntity
8
1
6
CONTINUOUS
62
5
100
AcDb2dPolyline
66
1
10
0.0
20
0.0
30
0.0
70
0
0
VERTEX
5
76a
100
AcDbEntity
8
1
100
AcDbVertex
100
AcDb2dVertex
62
5
10
116.048438
20
134.959375
0
VERTEX
5
76b
100
AcDbEntity
8
1
100
AcDbVertex
100
AcDb2dVertex
62
5
10
116.048438
20
134.646875
0
VERTEX
5
76c
100
AcDbEntity
8
1
100
AcDbVertex
100
AcDb2dVertex
62
5
10
116.859375
20
134.646875
0
SEQEND
5
76d
100
AcDbEntity
8
1
0
ARC
5
76e
100
AcDbEntity
8
1
100
AcDbCircle
6
CONTINUOUS
62
5
10
116.859375
20
134.596875
40
0.050000
100
AcDbArc
50
-89.999999
51
89.999999
0
POLYLINE
5
76f
100
AcDbEntity
8
1
6
CONTINUOUS
62
5
100
AcDb2dPolyline
66
1
10
0.0
20
0.0
30
0.0
70
0
0
VERTEX
5
770
100
AcDbEntity
8
1
100
AcDbVertex
100
AcDb2dVertex
62
5
10
116.859375
20
134.546875
0
VERTEX
5
771
100
AcDbEntity
8
1
100
AcDbVertex
100
AcDb2dVertex
62
5
10
116.048438
20
134.546875
0
VERTEX
5
772
100
AcDbEntity
8
1
100
AcDbVertex
100
AcDb2dVertex
62
5
10
116.048438
20
134.284375
0
VERTEX
5
773
100
AcDbEntity
8
1
100
AcDbVertex
100
AcDb2dVertex
62
5
10
116.678125
20
134.284375
0
SEQEND
5
774
100
AcDbEntity
8
1
0
ARC
5
775
100
AcDbEntity
8
1
100
AcDbCircle
6
CONTINUOUS
62
5
10
114.775000
20
133.690625
40
0.050000
100
AcDbArc
50
0.000000
51
89.999999
0
POLYLINE
5
776
100
AcDbEntity
8
1
6
CONTINUOUS
62
5
100
AcDb2dPolyline
66
1
10
0.0
20
0.0
30
0.0
70
0
0
VERTEX
5
777
100
AcDbEntity
8
1
100
AcDbVertex
100
AcDb2dVertex
62
5
10
114.825000
20
133.690625
0
VERTEX
5
778
100
AcDbEntity
8
1
100
AcDbVertex
100
AcDb2dVertex
62
5
10
114.825000
20
132.815277
0
VERTEX
5
779
100
AcDbEntity
8
1
100
AcDbVertex
100
AcDb2dVertex
62
5
10
115.026414
20
132.714570
0
VERTEX
5
77a
100
AcDbEntity
8
1
100
AcDbVertex
100
AcDb2dVertex
62
5
10
115.433563
20
132.622237
0
VERTEX
5
77b
100
AcDbEntity
8
1
100
AcDbVertex
100
AcDb2dVertex
62
5
10
116.265196
20
132.534696
0
VERTEX
5
77c
100
AcDbEntity
8
1
100
AcDbVertex
100
AcDb2dVertex
62
5
10
116.950000
20
132.534696
0
SEQEND
5
77d
100
AcDbEntity
8
1
0
ARC
5
77e
100
AcDbEntity
8
1
100
AcDbCircle
6
CONTINUOUS
62
5
10
116.950000
20
132.484696
40
0.050000
100
AcDbArc
50
-89.999999
51
89.999999
0
POLYLINE
5
77f
100
AcDbEntity
8
1
6
CONTINUOUS
62
5
100
AcDb2dPolyline
66
1
10
0.0
20
0.0
30
0.0
70
0
0
VERTEX
5
780
100
AcDbEntity
8
1
100
AcDbVertex
100
AcDb2dVertex
62
5
10
116.950000
20
132.434696
0
VERTEX
5
781
100
AcDbEntity
8
1
100
AcDbVertex
100
AcDb2dVertex
62
5
10
116.259948
20
132.434696
0
VERTEX
5
782
100
AcDbEntity
8
1
100
AcDbVertex
100
AcDb2dVertex
62
5
10
115.420154
20
132.523096
0
VERTEX
5
783
100
AcDbEntity
8
1
100
AcDbVertex
100
AcDb2dVertex
62
5
10
114.998402
20
132.618383
0
VERTEX
5
784
100
AcDbEntity
8
1
100
AcDbVertex
100
AcDb2dVertex
62
5
10
114.777336
20
132.727467
0
VERTEX
5
785
100
AcDbEntity
8
1
100
AcDbVertex
100
AcDb2dVertex
62
5
10
114.347600
20
132.469625
0
SEQEND
5
786
100
AcDbEntity
8
1
0
ARC
5
787
100
AcDbEntity
8
1
100
AcDbCircle
6
CONTINUOUS
62
5
10
114.321875
20
132.512500
40
0.050000
100
AcDbArc
50
120.963755
51
-59.036243
0
POLYLINE
5
788
100
AcDbEntity
8
1
6
CONTINUOUS
62
5
100
AcDb2dPolyline
66
1
10
0.0
20
0.0
30
0.0
70
0
0
VERTEX
5
789
100
AcDbEntity
8
1
100
AcDbVertex
100
AcDb2dVertex
62
5
10
114.296150
20
132.555375
0
VERTEX
5
78a
100
AcDbEntity
8
1
100
AcDbVertex
100
AcDb2dVertex
62
5
10
114.725000
20
132.812685
0
VERTEX
5
78b
100
AcDbEntity
8
1
100
AcDbVertex
100
AcDb2dVertex
62
5
10
114.725000
20
133.640625
0
VERTEX
5
78c
100
AcDbEntity
8
1
100
AcDbVertex
100
AcDb2dVertex
62
5
10
114.321875
20
133.640625
0
SEQEND
5
78d
100
AcDbEntity
8
1
0
ARC
5
78e
100
AcDbEntity
8
1
100
AcDbCircle
6
CONTINUOUS
62
5
10
114.321875
20
133.690625
40
0.050000
100
AcDbArc
50
89.999999
51
-89.999999
0
LINE
5
78f
100
AcDbEntity
8
1
100
AcDbLine
6
CONTINUOUS
62
5
10
114.321875
20
133.740625
11
114.775000
21
133.740625
0
POLYLINE
5
790
100
AcDbEntity
8
1
6
CONTINUOUS
62
5
100
AcDb2dPolyline
66
1
10
0.0
20
0.0
30
0.0
70
0
0
VERTEX
5
791
100
AcDbEntity
8
1
100
AcDbVertex
100
AcDb2dVertex
62
5
10
118.100000
20
128.750000
0
VERTEX
5
792
100
AcDbEntity
8
1
100
AcDbVertex
100
AcDb2dVertex
62
5
10
118.100000
20
128.630000
0
VERTEX
5
793
100
AcDbEntity
8
1
100
AcDbVertex
100
AcDb2dVertex
62
5
10
118.600000
20
128.630000
0
VERTEX
5
794
100
AcDbEntity
8
1
100
AcDbVertex
100
AcDb2dVertex
62
5
10
118.600000
20
128.510000
0
VERTEX
5
795
100
AcDbEntity
8
1
100
AcDbVertex
100
AcDb2dVertex
62
5
10
119.100000
20
128.510000
0
VERTEX
5
796
100
AcDbEntity
8
1
100
AcDbVertex
100
AcDb2dVertex
62
5
10
119.100000
20
128.390000
0
VERTEX
5
797
100
AcDbEntity
8
1
100
AcDbVertex
100
AcDb2dVertex
62
5
10
119.600000
20
128.390000
0
VERTEX
5
798
100
AcDbEntity
8
1
100
AcDbVertex
100
AcDb2dVertex
62
5
10
119.600000
20
128.150000
0
SEQEND
5
799
100
AcDbEntity
8
1
0
POLYLINE
5
79a
100
AcDbEntity
8
0
6
CONTINUOUS
62
5
100
AcDb2dPolyline
66
1
10
0.0
20
0.0
30
0.0
70
0
0
VERTEX
5
79b
100
AcDbEntity
8
0
100
AcDbVertex
100
AcDb2dVertex
62
5
10
122.900000
20
127.850000
0
VERTEX
5
79c
100
AcDbEntity
8
0
100
AcDbVertex
100
AcDb2dVertex
62
5
10
121.800000
20
135.600000
0
VERTEX
5
79d
100
AcDbEntity
8
0
100
AcDbVertex
100
AcDb2dVertex
62
5
10
110.700000
20
135.600000
0
SEQEND
5
79e
100
AcDbEntity
8
0
0
ARC
5
79f
100
AcDbEntity
8
1
100
AcDbCircle
6
CONTINUOUS
62
5
10
129.550000
20
128.800000
40
1.000000
100
AcDbArc
50
-89.999999
51
0.000000
0
LINE
5
7a0
100
AcDbEntity
8
1
100
AcDbLine
6
CONTINUOUS
62
5
10
129.550000
20
127.800000
11
129.100000
21
127.800000
0
LINE
5
7a1
100
AcDbEntity
8
1
100
AcDbLine
6
CONTINUOUS
62
5
10
130.550000
20
130.300000
11
130.550000
21
128.800000
0
ARC
5
7a2
100
AcDbEntity
8
1
100
AcDbCircle
6
CONTINUOUS
62
5
10
130.050000
20
133.400000
40
0.500000
100
AcDbArc
50
0.000000
51
89.999999
0
LINE
5
7a3
100
AcDbEntity
8
1
100
AcDbLine
6
CONTINUOUS
62
5
10
130.550000
20
133.400000
11
130.550000
21
133.200000
0
LINE
5
7a4
100
AcDbEntity
8
1
100
AcDbLine
6
CONTINUOUS
62
5
10
129.600000
20
133.900000
11
130.050000
21
133.900000
0
ARC
5
7a5
100
AcDbEntity
8
1
100
AcDbCircle
6
CONTINUOUS
62
5
10
129.550000
20
128.150000
40
1.000000
100
AcDbArc
50
-89.999999
51
0.000000
0
LINE
5
7a6
100
AcDbEntity
8
1
100
AcDbLine
6
CONTINUOUS
62
5
10
129.550000
20
127.150000
11
126.600000
21
127.150000
0
LINE
5
7a7
100
AcDbEntity
8
1
100
AcDbLine
6
CONTINUOUS
62
5
10
130.550000
20
128.800000
11
130.550000
21
128.150000
0
LINE
5
7a8
100
AcDbEntity
8
1
100
AcDbLine
6
CONTINUOUS
62
5
10
130.550000
20
143.500000
11
130.550000
21
133.500000
0
LINE
5
7a9
100
AcDbEntity
8
0
100
AcDbLine
6
CONTINUOUS
62
5
10
121.830303
20
138.840149
11
121.830303
21
138.650000
0
LINE
5
7aa
100
AcDbEntity
8
0
100
AcDbLine
6
CONTINUOUS
62
5
10
121.581235
20
138.650000
11
121.581235
21
138.822991
0
LINE
5
7ab
100
AcDbEntity
8
1
100
AcDbLine
6
CONTINUOUS
62
5
10
131.100000
20
133.197494
11
131.100000
21
143.802506
0
ARC
5
7ac
100
AcDbEntity
8
1
100
AcDbCircle
6
CONTINUOUS
62
5
10
124.800000
20
143.800000
40
0.700000
100
AcDbArc
50
-0.000000
51
89.999999
0
LINE
5
7ad
100
AcDbEntity
8
1
100
AcDbLine
6
CONTINUOUS
62
5
10
125.500000
20
143.800000
11
125.500000
21
133.200000
0
ARC
5
7ae
100
AcDbEntity
8
1
100
AcDbCircle
6
CONTINUOUS
62
5
10
124.800000
20
133.200000
40
0.700000
100
AcDbArc
50
-89.999999
51
0.000000
0
LINE
5
7af
100
AcDbEntity
8
1
100
AcDbLine
6
CONTINUOUS
62
5
10
124.800000
20
132.500000
11
123.600000
21
132.500000
0
LINE
5
7b0
100
AcDbEntity
8
1
100
AcDbLine
6
CONTINUOUS
62
5
10
123.600000
20
144.500000
11
124.800000
21
144.500000
0
ARC
5
7b1
100
AcDbEntity
8
1
100
AcDbCircle
6
CONTINUOUS
62
5
10
122.088702
20
139.373203
40
0.500000
100
AcDbArc
50
-86.297780
51
-9.140950
0
POLYLINE
5
7b2
100
AcDbEntity
8
1
6
CONTINUOUS
62
5
100
AcDb2dPolyline
66
1
10
0.0
20
0.0
30
0.0
70
0
0
VERTEX
5
7b3
100
AcDbEntity
8
1
100
AcDbVertex
100
AcDb2dVertex
62
5
10
122.582353
20
139.293771
0
VERTEX
5
7b4
100
AcDbEntity
8
1
100
AcDbVertex
100
AcDb2dVertex
62
5
10
123.001713
20
141.900000
0
VERTEX
5
7b5
100
AcDbEntity
8
1
100
AcDbVertex
100
AcDb2dVertex
62
5
10
123.001713
20
149.100000
0
VERTEX
5
7b6
100
AcDbEntity
8
1
100
AcDbVertex
100
AcDb2dVertex
62
5
10
122.582353
20
151.706229
0
SEQEND
5
7b7
100
AcDbEntity
8
1
0
ARC
5
7b8
100
AcDbEntity
8
1
100
AcDbCircle
6
CONTINUOUS
62
5
10
122.088702
20
151.626797
40
0.500000
100
AcDbArc
50
9.140950
51
86.297780
0
POLYLINE
5
7b9
100
AcDbEntity
8
1
6
CONTINUOUS
62
5
100
AcDb2dPolyline
66
1
10
0.0
20
0.0
30
0.0
70
0
0
VERTEX
5
7ba
100
AcDbEntity
8
1
100
AcDbVertex
100
AcDb2dVertex
62
5
10
122.120988
20
152.125753
0
VERTEX
5
7bb
100
AcDbEntity
8
1
100
AcDbVertex
100
AcDb2dVertex
62
5
10
120.973540
20
152.200000
0
VERTEX
5
7bc
100
AcDbEntity
8
1
100
AcDbVertex
100
AcDb2dVertex
62
5
10
120.973540
20
152.350000
0
SEQEND
5
7bd
100
AcDbEntity
8
1
0
POLYLINE
5
7be
100
AcDbEntity
8
1
6
CONTINUOUS
62
5
100
AcDb2dPolyline
66
1
10
0.0
20
0.0
30
0.0
70
0
0
VERTEX
5
7bf
100
AcDbEntity
8
1
100
AcDbVertex
100
AcDb2dVertex
62
5
10
120.973540
20
138.650000
0
VERTEX
5
7c0
100
AcDbEntity
8
1
100
AcDbVertex
100
AcDb2dVertex
62
5
10
120.973540
20
138.800000
0
VERTEX
5
7c1
100
AcDbEntity
8
1
100
AcDbVertex
100
AcDb2dVertex
62
5
10
122.120988
20
138.874247
0
SEQEND
5
7c2
100
AcDbEntity
8
1
0
ARC
5
7c3
100
AcDbEntity
8
1
100
AcDbCircle
6
CONTINUOUS
62
5
10
122.264192
20
139.371223
40
0.500000
100
AcDbArc
50
-86.059295
51
-8.525696
0
POLYLINE
5
7c4
100
AcDbEntity
8
1
6
CONTINUOUS
62
5
100
AcDb2dPolyline
66
1
10
0.0
20
0.0
30
0.0
70
0
0
VERTEX
5
7c5
100
AcDbEntity
8
1
100
AcDbVertex
100
AcDb2dVertex
62
5
10
122.758667
20
139.297096
0
VERTEX
5
7c6
100
AcDbEntity
8
1
100
AcDbVertex
100
AcDb2dVertex
62
5
10
123.148867
20
141.900000
0
VERTEX
5
7c7
100
AcDbEntity
8
1
100
AcDbVertex
100
AcDb2dVertex
62
5
10
123.148867
20
149.100000
0
VERTEX
5
7c8
100
AcDbEntity
8
1
100
AcDbVertex
100
AcDb2dVertex
62
5
10
122.758667
20
151.702904
0
SEQEND
5
7c9
100
AcDbEntity
8
1
0
ARC
5
7ca
100
AcDbEntity
8
1
100
AcDbCircle
6
CONTINUOUS
62
5
10
122.264192
20
151.628777
40
0.500000
100
AcDbArc
50
8.525696
51
86.059295
0
POLYLINE
5
7cb
100
AcDbEntity
8
1
6
CONTINUOUS
62
5
100
AcDb2dPolyline
66
1
10
0.0
20
0.0
30
0.0
70
0
0
VERTEX
5
7cc
100
AcDbEntity
8
1
100
AcDbVertex
100
AcDb2dVertex
62
5
10
122.298554
20
152.127595
0
VERTEX
5
7cd
100
AcDbEntity
8
1
100
AcDbVertex
100
AcDb2dVertex
62
5
10
121.247484
20
152.200000
0
VERTEX
5
7ce
100
AcDbEntity
8
1
100
AcDbVertex
100
AcDb2dVertex
62
5
10
120.973540
20
152.200000
0
SEQEND
5
7cf
100
AcDbEntity
8
1
0
POLYLINE
5
7d0
100
AcDbEntity
8
1
6
CONTINUOUS
62
5
100
AcDb2dPolyline
66
1
10
0.0
20
0.0
30
0.0
70
0
0
VERTEX
5
7d1
100
AcDbEntity
8
1
100
AcDbVertex
100
AcDb2dVertex
62
5
10
120.973540
20
138.800000
0
VERTEX
5
7d2
100
AcDbEntity
8
1
100
AcDbVertex
100
AcDb2dVertex
62
5
10
121.247484
20
138.800000
0
VERTEX
5
7d3
100
AcDbEntity
8
1
100
AcDbVertex
100
AcDb2dVertex
62
5
10
122.298554
20
138.872405
0
SEQEND
5
7d4
100
AcDbEntity
8
1
0
LINE
5
7d5
100
AcDbEntity
8
1
100
AcDbLine
6
CONTINUOUS
62
5
10
120.400000
20
138.650000
11
120.400000
21
152.350000
0
LINE
5
7d6
100
AcDbEntity
8
1
100
AcDbLine
6
CONTINUOUS
62
5
10
120.491089
20
138.650000
11
120.491089
21
152.350000
0
LINE
5
7d7
100
AcDbEntity
8
0
100
AcDbLine
6
CONTINUOUS
62
5
10
116.600000
20
136.000000
11
116.600000
21
138.500000
0
LINE
5
7d8
100
AcDbEntity
8
0
100
AcDbLine
6
CONTINUOUS
62
5
10
102.600000
20
155.000000
11
102.600000
21
152.500000
0
ARC
5
7d9
100
AcDbEntity
8
1
100
AcDbCircle
6
CONTINUOUS
62
5
10
99.158333
20
156.150000
40
0.200000
100
AcDbArc
50
89.999999
51
157.380134
0
LINE
5
7da
100
AcDbEntity
8
1
100
AcDbLine
6
CONTINUOUS
62
5
10
98.973718
20
156.226923
11
98.962500
21
156.200000
0
LINE
5
7db
100
AcDbEntity
8
0
100
AcDbLine
6
CONTINUOUS
62
5
10
99.000000
20
156.200000
11
99.000000
21
156.272191
0
LINE
5
7dc
100
AcDbEntity
8
0
100
AcDbLine
6
CONTINUOUS
62
5
10
97.000000
20
156.200000
11
97.000000
21
156.272191
0
ARC
5
7dd
100
AcDbEntity
8
1
100
AcDbCircle
6
CONTINUOUS
62
5
10
96.841667
20
156.150000
40
0.200000
100
AcDbArc
50
22.619864
51
89.999999
0
LINE
5
7de
100
AcDbEntity
8
1
100
AcDbLine
6
CONTINUOUS
62
5
10
97.026282
20
156.226923
11
97.037500
21
156.200000
0
LINE
5
7df
100
AcDbEntity
8
0
100
AcDbLine
6
CONTINUOUS
62
5
10
96.885325
20
156.200000
11
96.885325
21
156.345177
0
LINE
5
7e0
100
AcDbEntity
8
0
100
AcDbLine
6
CONTINUOUS
62
5
10
97.369697
20
152.350000
11
97.369697
21
152.159851
0
LINE
5
7e1
100
AcDbEntity
8
0
100
AcDbLine
6
CONTINUOUS
62
5
10
97.618765
20
152.350000
11
97.618765
21
152.177009
0
ARC
5
7e2
100
AcDbEntity
8
0
100
AcDbCircle
6
CONTINUOUS
62
5
10
96.300000
20
155.500000
40
0.700000
100
AcDbArc
50
90.000000
51
-179.999998
0
LINE
5
7e3
100
AcDbEntity
8
0
100
AcDbLine
6
CONTINUOUS
62
5
10
95.600000
20
155.500000
11
95.600000
21
155.500000
0
LINE
5
7e4
100
AcDbEntity
8
0
100
AcDbLine
6
CONTINUOUS
62
5
10
99.222138
20
156.200000
11
96.300000
21
156.200000
0
LINE
5
7e5
100
AcDbEntity
8
0
100
AcDbLine
6
CONTINUOUS
62
5
10
98.816301
20
155.191620
11
101.677319
21
155.474378
0
LINE
5
7e6
100
AcDbEntity
8
1
100
AcDbLine
6
CONTINUOUS
62
5
10
88.650000
20
152.000000
11
88.650000
21
148.000000
0
LINE
5
7e7
100
AcDbEntity
8
1
100
AcDbLine
6
CONTINUOUS
62
5
10
88.100000
20
146.697494
11
88.100000
21
153.302506
0
ARC
5
7e8
100
AcDbEntity
8
1
100
AcDbCircle
6
CONTINUOUS
62
5
10
89.150000
20
156.400000
40
0.500000
100
AcDbArc
50
89.999999
51
179.999998
0
LINE
5
7e9
100
AcDbEntity
8
1
100
AcDbLine
6
CONTINUOUS
62
5
10
88.650000
20
156.400000
11
88.650000
21
156.200000
0
LINE
5
7ea
100
AcDbEntity
8
1
100
AcDbLine
6
CONTINUOUS
62
5
10
89.600000
20
156.900000
11
89.150000
21
156.900000
0
ARC
5
7eb
100
AcDbEntity
8
1
100
AcDbCircle
6
CONTINUOUS
62
5
10
89.650000
20
152.000000
40
1.000000
100
AcDbArc
50
179.999998
51
-89.999999
0
LINE
5
7ec
100
AcDbEntity
8
1
100
AcDbLine
6
CONTINUOUS
62
5
10
89.650000
20
151.000000
11
90.100000
21
151.000000
0
LINE
5
7ed
100
AcDbEntity
8
1
100
AcDbLine
6
CONTINUOUS
62
5
10
88.650000
20
153.300000
11
88.650000
21
152.000000
0
ARC
5
7ee
100
AcDbEntity
8
1
100
AcDbCircle
6
CONTINUOUS
62
5
10
89.150000
20
143.600000
40
0.500000
100
AcDbArc
50
179.999998
51
-89.999999
0
LINE
5
7ef
100
AcDbEntity
8
1
100
AcDbLine
6
CONTINUOUS
62
5
10
88.650000
20
143.600000
11
88.650000
21
143.800000
0
LINE
5
7f0
100
AcDbEntity
8
1
100
AcDbLine
6
CONTINUOUS
62
5
10
89.600000
20
143.100000
11
89.150000
21
143.100000
0
ARC
5
7f1
100
AcDbEntity
8
1
100
AcDbCircle
6
CONTINUOUS
62
5
10
89.650000
20
148.000000
40
1.000000
100
AcDbArc
50
89.999999
51
179.999998
0
LINE
5
7f2
100
AcDbEntity
8
1
100
AcDbLine
6
CONTINUOUS
62
5
10
89.650000
20
149.000000
11
90.100000
21
149.000000
0
LINE
5
7f3
100
AcDbEntity
8
1
100
AcDbLine
6
CONTINUOUS
62
5
10
88.650000
20
146.700000
11
88.650000
21
148.000000
0
LINE
5
7f4
100
AcDbEntity
8
0
100
AcDbLine
6
CONTINUOUS
62
5
10
109.200000
20
136.300000
11
109.250000
21
136.000000
0
LINE
5
7f5
100
AcDbEntity
8
0
100
AcDbLine
6
CONTINUOUS
62
5
10
108.500000
20
135.200000
11
108.600000
21
135.500000
0
POLYLINE
5
7f6
100
AcDbEntity
8
0
6
CONTINUOUS
62
5
100
AcDb2dPolyline
66
1
10
0.0
20
0.0
30
0.0
70
0
0
VERTEX
5
7f7
100
AcDbEntity
8
0
100
AcDbVertex
100
AcDb2dVertex
62
5
10
108.600000
20
135.500000
0
VERTEX
5
7f8
100
AcDbEntity
8
0
100
AcDbVertex
100
AcDb2dVertex
62
5
10
108.600000
20
135.798795
0
VERTEX
5
7f9
100
AcDbEntity
8
0
100
AcDbVertex
100
AcDb2dVertex
62
5
10
109.222222
20
135.798795
0
SEQEND
5
7fa
100
AcDbEntity
8
0
0
LINE
5
7fb
100
AcDbEntity
8
0
100
AcDbLine
6
CONTINUOUS
62
5
10
109.222222
20
135.500000
11
108.600000
21
135.500000
0
POLYLINE
5
7fc
100
AcDbEntity
8
1
6
CONTINUOUS
62
5
100
AcDb2dPolyline
66
1
10
0.0
20
0.0
30
0.0
70
1
0
VERTEX
5
7fd
100
AcDbEntity
8
1
100
AcDbVertex
100
AcDb2dVertex
62
5
10
107.435938
20
129.400000
0
VERTEX
5
7fe
100
AcDbEntity
8
1
100
AcDbVertex
100
AcDb2dVertex
62
5
10
108.895313
20
129.400000
0
VERTEX
5
7ff
100
AcDbEntity
8
1
100
AcDbVertex
100
AcDb2dVertex
62
5
10
108.895313
20
130.025000
0
VERTEX
5
800
100
AcDbEntity
8
1
100
AcDbVertex
100
AcDb2dVertex
62
5
10
107.435938
20
130.025000
0
SEQEND
5
801
100
AcDbEntity
8
1
0
POLYLINE
5
802
100
AcDbEntity
8
1
6
CONTINUOUS
62
5
100
AcDb2dPolyline
66
1
10
0.0
20
0.0
30
0.0
70
1
0
VERTEX
5
803
100
AcDbEntity
8
1
100
AcDbVertex
100
AcDb2dVertex
62
5
10
107.435938
20
130.125000
0
VERTEX
5
804
100
AcDbEntity
8
1
100
AcDbVertex
100
AcDb2dVertex
62
5
10
108.895313
20
130.125000
0
VERTEX
5
805
100
AcDbEntity
8
1
100
AcDbVertex
100
AcDb2dVertex
62
5
10
108.895313
20
130.750000
0
VERTEX
5
806
100
AcDbEntity
8
1
100
AcDbVertex
100
AcDb2dVertex
62
5
10
107.435938
20
130.750000
0
SEQEND
5
807
100
AcDbEntity
8
1
0
ARC
5
808
100
AcDbEntity
8
1
100
AcDbCircle
6
CONTINUOUS
62
5
10
108.945313
20
129.350000
40
0.050000
100
AcDbArc
50
-89.999999
51
0.000000
0
LINE
5
809
100
AcDbEntity
8
1
100
AcDbLine
6
CONTINUOUS
62
5
10
108.945313
20
129.300000
11
107.385938
21
129.300000
0
ARC
5
80a
100
AcDbEntity
8
1
100
AcDbCircle
6
CONTINUOUS
62
5
10
107.385938
20
129.350000
40
0.050000
100
AcDbArc
50
179.999998
51
-89.999999
0
LINE
5
80b
100
AcDbEntity
8
1
100
AcDbLine
6
CONTINUOUS
62
5
10
107.335938
20
129.350000
11
107.335938
21
131.525000
0
ARC
5
80c
100
AcDbEntity
8
1
100
AcDbCircle
6
CONTINUOUS
62
5
10
107.385938
20
131.525000
40
0.050000
100
AcDbArc
50
89.999999
51
179.999998
0
POLYLINE
5
80d
100
AcDbEntity
8
1
6
CONTINUOUS
62
5
100
AcDb2dPolyline
66
1
10
0.0
20
0.0
30
0.0
70
0
0
VERTEX
5
80e
100
AcDbEntity
8
1
100
AcDbVertex
100
AcDb2dVertex
62
5
10
107.385938
20
131.575000
0
VERTEX
5
80f
100
AcDbEntity
8
1
100
AcDbVertex
100
AcDb2dVertex
62
5
10
107.998786
20
131.575000
0
VERTEX
5
810
100
AcDbEntity
8
1
100
AcDbVertex
100
AcDb2dVertex
62
5
10
108.166216
20
131.909861
0
SEQEND
5
811
100
AcDbEntity
8
1
0
ARC
5
812
100
AcDbEntity
8
1
100
AcDbCircle
6
CONTINUOUS
62
5
10
108.210938
20
131.887500
40
0.050000
100
AcDbArc
50
-26.565051
51
153.434947
0
POLYLINE
5
813
100
AcDbEntity
8
1
6
CONTINUOUS
62
5
100
AcDb2dPolyline
66
1
10
0.0
20
0.0
30
0.0
70
0
0
VERTEX
5
814
100
AcDbEntity
8
1
100
AcDbVertex
100
AcDb2dVertex
62
5
10
108.255659
20
131.865139
0
VERTEX
5
815
100
AcDbEntity
8
1
100
AcDbVertex
100
AcDb2dVertex
62
5
10
108.110589
20
131.575000
0
VERTEX
5
816
100
AcDbEntity
8
1
100
AcDbVertex
100
AcDb2dVertex
62
5
10
108.945313
20
131.575000
0
SEQEND
5
817
100
AcDbEntity
8
1
0
ARC
5
818
100
AcDbEntity
8
1
100
AcDbCircle
6
CONTINUOUS
62
5
10
108.945313
20
131.525000
40
0.050000
100
AcDbArc
50
0.000000
51
89.999999
0
LINE
5
819
100
AcDbEntity
8
1
100
AcDbLine
6
CONTINUOUS
62
5
10
108.995313
20
131.525000
11
108.995313
21
129.350000
0
POLYLINE
5
81a
100
AcDbEntity
8
1
6
CONTINUOUS
62
5
100
AcDb2dPolyline
66
1
10
0.0
20
0.0
30
0.0
70
1
0
VERTEX
5
81b
100
AcDbEntity
8
1
100
AcDbVertex
100
AcDb2dVertex
62
5
10
107.435938
20
130.850000
0
VERTEX
5
81c
100
AcDbEntity
8
1
100
AcDbVertex
100
AcDb2dVertex
62
5
10
108.895313
20
130.850000
0
VERTEX
5
81d
100
AcDbEntity
8
1
100
AcDbVertex
100
AcDb2dVertex
62
5
10
108.895313
20
131.475000
0
VERTEX
5
81e
100
AcDbEntity
8
1
100
AcDbVertex
100
AcDb2dVertex
62
5
10
107.435938
20
131.475000
0
SEQEND
5
81f
100
AcDbEntity
8
1
0
POLYLINE
5
820
100
AcDbEntity
8
1
6
CONTINUOUS
62
5
100
AcDb2dPolyline
66
1
10
0.0
20
0.0
30
0.0
70
1
0
VERTEX
5
821
100
AcDbEntity
8
1
100
AcDbVertex
100
AcDb2dVertex
62
5
10
106.700000
20
132.850000
0
VERTEX
5
822
100
AcDbEntity
8
1
100
AcDbVertex
100
AcDb2dVertex
62
5
10
107.800000
20
132.850000
0
VERTEX
5
823
100
AcDbEntity
8
1
100
AcDbVertex
100
AcDb2dVertex
62
5
10
107.800000
20
132.350000
0
VERTEX
5
824
100
AcDbEntity
8
1
100
AcDbVertex
100
AcDb2dVertex
62
5
10
105.600000
20
132.350000
0
VERTEX
5
825
100
AcDbEntity
8
1
100
AcDbVertex
100
AcDb2dVertex
62
5
10
106.700000
20
133.450000
0
SEQEND
5
826
100
AcDbEntity
8
1
0
ARC
5
827
100
AcDbEntity
8
1
100
AcDbCircle
6
CONTINUOUS
62
5
10
102.250000
20
132.603320
40
0.050000
100
AcDbArc
50
99.462321
51
-80.537677
0
POLYLINE
5
828
100
AcDbEntity
8
1
6
CONTINUOUS
62
5
100
AcDb2dPolyline
66
1
10
0.0
20
0.0
30
0.0
70
0
0
VERTEX
5
829
100
AcDbEntity
8
1
100
AcDbVertex
100
AcDb2dVertex
62
5
10
102.241780
20
132.652640
0
VERTEX
5
82a
100
AcDbEntity
8
1
100
AcDbVertex
100
AcDb2dVertex
62
5
10
102.600032
20
132.712349
0
VERTEX
5
82b
100
AcDbEntity
8
1
100
AcDbVertex
100
AcDb2dVertex
62
5
10
102.598750
20
133.500508
0
SEQEND
5
82c
100
AcDbEntity
8
1
0
ARC
5
82d
100
AcDbEntity
8
1
100
AcDbCircle
6
CONTINUOUS
62
5
10
102.648750
20
133.500508
40
0.050000
100
AcDbArc
50
0.000000
51
179.999998
0
POLYLINE
5
82e
100
AcDbEntity
8
1
6
CONTINUOUS
62
5
100
AcDb2dPolyline
66
1
10
0.0
20
0.0
30
0.0
70
0
0
VERTEX
5
82f
100
AcDbEntity
8
1
100
AcDbVertex
100
AcDb2dVertex
62
5
10
102.698750
20
133.500508
0
VERTEX
5
830
100
AcDbEntity
8
1
100
AcDbVertex
100
AcDb2dVertex
62
5
10
102.698750
20
132.735395
0
VERTEX
5
831
100
AcDbEntity
8
1
100
AcDbVertex
100
AcDb2dVertex
62
5
10
103.005437
20
132.819784
0
VERTEX
5
832
100
AcDbEntity
8
1
100
AcDbVertex
100
AcDb2dVertex
62
5
10
103.327993
20
132.948807
0
SEQEND
5
833
100
AcDbEntity
8
1
0
ARC
5
834
100
AcDbEntity
8
1
100
AcDbCircle
6
CONTINUOUS
62
5
10
103.346563
20
132.902383
40
0.050000
100
AcDbArc
50
-68.198590
51
111.801409
0
POLYLINE
5
835
100
AcDbEntity
8
1
6
CONTINUOUS
62
5
100
AcDb2dPolyline
66
1
10
0.0
20
0.0
30
0.0
70
0
0
VERTEX
5
836
100
AcDbEntity
8
1
100
AcDbVertex
100
AcDb2dVertex
62
5
10
103.365132
20
132.855959
0
VERTEX
5
837
100
AcDbEntity
8
1
100
AcDbVertex
100
AcDb2dVertex
62
5
10
103.039974
20
132.725896
0
VERTEX
5
838
100
AcDbEntity
8
1
100
AcDbVertex
100
AcDb2dVertex
62
5
10
102.698750
20
132.631710
0
VERTEX
5
839
100
AcDbEntity
8
1
100
AcDbVertex
100
AcDb2dVertex
62
5
10
102.698750
20
131.801411
0
VERTEX
5
83a
100
AcDbEntity
8
1
100
AcDbVertex
100
AcDb2dVertex
62
5
10
102.738876
20
131.686718
0
VERTEX
5
83b
100
AcDbEntity
8
1
100
AcDbVertex
100
AcDb2dVertex
62
5
10
102.819856
20
131.605737
0
VERTEX
5
83c
100
AcDbEntity
8
1
100
AcDbVertex
100
AcDb2dVertex
62
5
10
102.935034
20
131.556758
0
VERTEX
5
83d
100
AcDbEntity
8
1
100
AcDbVertex
100
AcDb2dVertex
62
5
10
103.251564
20
131.556758
0
VERTEX
5
83e
100
AcDbEntity
8
1
100
AcDbVertex
100
AcDb2dVertex
62
5
10
103.288031
20
131.568382
0
VERTEX
5
83f
100
AcDbEntity
8
1
100
AcDbVertex
100
AcDb2dVertex
62
5
10
103.319084
20
131.602998
0
VERTEX
5
840
100
AcDbEntity
8
1
100
AcDbVertex
100
AcDb2dVertex
62
5
10
103.397743
20
131.917635
0
SEQEND
5
841
100
AcDbEntity
8
1
0
ARC
5
842
100
AcDbEntity
8
1
100
AcDbCircle
6
CONTINUOUS
62
5
10
103.446250
20
131.905508
40
0.050000
100
AcDbArc
50
-14.036243
51
165.963755
0
POLYLINE
5
843
100
AcDbEntity
8
1
6
CONTINUOUS
62
5
100
AcDb2dPolyline
66
1
10
0.0
20
0.0
30
0.0
70
0
0
VERTEX
5
844
100
AcDbEntity
8
1
100
AcDbVertex
100
AcDb2dVertex
62
5
10
103.494757
20
131.893381
0
VERTEX
5
845
100
AcDbEntity
8
1
100
AcDbVertex
100
AcDb2dVertex
62
5
10
103.414338
20
131.571706
0
VERTEX
5
846
100
AcDbEntity
8
1
100
AcDbVertex
100
AcDb2dVertex
62
5
10
103.392629
20
131.530866
0
VERTEX
5
847
100
AcDbEntity
8
1
100
AcDbVertex
100
AcDb2dVertex
62
5
10
103.346656
20
131.486672
0
VERTEX
5
848
100
AcDbEntity
8
1
100
AcDbVertex
100
AcDb2dVertex
62
5
10
103.274525
20
131.459119
0
VERTEX
5
849
100
AcDbEntity
8
1
100
AcDbVertex
100
AcDb2dVertex
62
5
10
102.924844
20
131.456758
0
VERTEX
5
84a
100
AcDbEntity
8
1
100
AcDbVertex
100
AcDb2dVertex
62
5
10
102.771794
20
131.517509
0
VERTEX
5
84b
100
AcDbEntity
8
1
100
AcDbVertex
100
AcDb2dVertex
62
5
10
102.660094
20
131.624078
0
VERTEX
5
84c
100
AcDbEntity
8
1
100
AcDbVertex
100
AcDb2dVertex
62
5
10
102.601555
20
131.776405
0
VERTEX
5
84d
100
AcDbEntity
8
1
100
AcDbVertex
100
AcDb2dVertex
62
5
10
102.600197
20
132.611226
0
VERTEX
5
84e
100
AcDbEntity
8
1
100
AcDbVertex
100
AcDb2dVertex
62
5
10
102.258220
20
132.554001
0
SEQEND
5
84f
100
AcDbEntity
8
1
0
POLYLINE
5
850
100
AcDbEntity
8
1
6
CONTINUOUS
62
5
100
AcDb2dPolyline
66
1
10
0.0
20
0.0
30
0.0
70
1
0
VERTEX
5
851
100
AcDbEntity
8
1
100
AcDbVertex
100
AcDb2dVertex
62
5
10
100.600000
20
135.550000
0
VERTEX
5
852
100
AcDbEntity
8
1
100
AcDbVertex
100
AcDb2dVertex
62
5
10
100.600000
20
128.510000
0
SEQEND
5
853
100
AcDbEntity
8
1
0
ARC
5
854
100
AcDbEntity
8
1
100
AcDbCircle
6
CONTINUOUS
62
5
10
103.533661
20
133.440757
40
0.050000
100
AcDbArc
50
89.999999
51
-89.999999
0
LINE
5
855
100
AcDbEntity
8
1
100
AcDbLine
6
CONTINUOUS
62
5
10
103.533661
20
133.490757
11
105.028973
21
133.490757
0
ARC
5
856
100
AcDbEntity
8
1
100
AcDbCircle
6
CONTINUOUS
62
5
10
105.028973
20
133.440757
40
0.050000
100
AcDbArc
50
0.000000
51
89.999999
0
POLYLINE
5
857
100
AcDbEntity
8
1
6
CONTINUOUS
62
5
100
AcDb2dPolyline
66
1
10
0.0
20
0.0
30
0.0
70
0
0
VERTEX
5
858
100
AcDbEntity
8
1
100
AcDbVertex
100
AcDb2dVertex
62
5
10
105.078973
20
133.440757
0
VERTEX
5
859
100
AcDbEntity
8
1
100
AcDbVertex
100
AcDb2dVertex
62
5
10
105.078973
20
131.321158
0
VERTEX
5
85a
100
AcDbEntity
8
1
100
AcDbVertex
100
AcDb2dVertex
62
5
10
105.049429
20
131.131575
0
VERTEX
5
85b
100
AcDbEntity
8
1
100
AcDbVertex
100
AcDb2dVertex
62
5
10
104.992650
20
130.970161
0
VERTEX
5
85c
100
AcDbEntity
8
1
100
AcDbVertex
100
AcDb2dVertex
62
5
10
104.900057
20
130.858742
0
VERTEX
5
85d
100
AcDbEntity
8
1
100
AcDbVertex
100
AcDb2dVertex
62
5
10
104.791561
20
130.806093
0
VERTEX
5
85e
100
AcDbEntity
8
1
100
AcDbVertex
100
AcDb2dVertex
62
5
10
104.669441
20
130.779570
0
VERTEX
5
85f
100
AcDbEntity
8
1
100
AcDbVertex
100
AcDb2dVertex
62
5
10
104.331161
20
130.779570
0
SEQEND
5
860
100
AcDbEntity
8
1
0
ARC
5
861
100
AcDbEntity
8
1
100
AcDbCircle
6
CONTINUOUS
62
5
10
104.331161
20
130.829570
40
0.050000
100
AcDbArc
50
89.999999
51
-89.999999
0
POLYLINE
5
862
100
AcDbEntity
8
1
6
CONTINUOUS
62
5
100
AcDb2dPolyline
66
1
10
0.0
20
0.0
30
0.0
70
0
0
VERTEX
5
863
100
AcDbEntity
8
1
100
AcDbVertex
100
AcDb2dVertex
62
5
10
104.331161
20
130.879570
0
VERTEX
5
864
100
AcDbEntity
8
1
100
AcDbVertex
100
AcDb2dVertex
62
5
10
104.663821
20
130.879570
0
VERTEX
5
865
100
AcDbEntity
8
1
100
AcDbVertex
100
AcDb2dVertex
62
5
10
104.763489
20
130.902261
0
VERTEX
5
866
100
AcDbEntity
8
1
100
AcDbVertex
100
AcDb2dVertex
62
5
10
104.845152
20
130.943092
0
VERTEX
5
867
100
AcDbEntity
8
1
100
AcDbVertex
100
AcDb2dVertex
62
5
10
104.908390
20
131.024686
0
VERTEX
5
868
100
AcDbEntity
8
1
100
AcDbVertex
100
AcDb2dVertex
62
5
10
104.953206
20
131.159133
0
VERTEX
5
869
100
AcDbEntity
8
1
100
AcDbVertex
100
AcDb2dVertex
62
5
10
104.978973
20
131.328712
0
VERTEX
5
86a
100
AcDbEntity
8
1
100
AcDbVertex
100
AcDb2dVertex
62
5
10
104.978973
20
133.390757
0
VERTEX
5
86b
100
AcDbEntity
8
1
100
AcDbVertex
100
AcDb2dVertex
62
5
10
104.181767
20
133.390757
0
VERTEX
5
86c
100
AcDbEntity
8
1
100
AcDbVertex
100
AcDb2dVertex
62
5
10
104.181344
20
132.285272
0
VERTEX
5
86d
100
AcDbEntity
8
1
100
AcDbVertex
100
AcDb2dVertex
62
5
10
104.134535
20
131.939620
0
VERTEX
5
86e
100
AcDbEntity
8
1
100
AcDbVertex
100
AcDb2dVertex
62
5
10
104.069059
20
131.713750
0
VERTEX
5
86f
100
AcDbEntity
8
1
100
AcDbVertex
100
AcDb2dVertex
62
5
10
103.977086
20
131.484305
0
VERTEX
5
870
100
AcDbEntity
8
1
100
AcDbVertex
100
AcDb2dVertex
62
5
10
103.848986
20
131.235226
0
VERTEX
5
871
100
AcDbEntity
8
1
100
AcDbVertex
100
AcDb2dVertex
62
5
10
103.659098
20
131.047837
0
VERTEX
5
872
100
AcDbEntity
8
1
100
AcDbVertex
100
AcDb2dVertex
62
5
10
103.515169
20
130.943482
0
VERTEX
5
873
100
AcDbEntity
8
1
100
AcDbVertex
100
AcDb2dVertex
62
5
10
103.246714
20
130.809023
0
SEQEND
5
874
100
AcDbEntity
8
1
0
ARC
5
875
100
AcDbEntity
8
1
100
AcDbCircle
6
CONTINUOUS
62
5
10
103.224323
20
130.853728
40
0.050000
100
AcDbArc
50
116.604643
51
-63.395355
0
POLYLINE
5
876
100
AcDbEntity
8
1
6
CONTINUOUS
62
5
100
AcDb2dPolyline
66
1
10
0.0
20
0.0
30
0.0
70
0
0
VERTEX
5
877
100
AcDbEntity
8
1
100
AcDbVertex
100
AcDb2dVertex
62
5
10
103.201931
20
130.898434
0
VERTEX
5
878
100
AcDbEntity
8
1
100
AcDbVertex
100
AcDb2dVertex
62
5
10
103.466647
20
131.031021
0
VERTEX
5
879
100
AcDbEntity
8
1
100
AcDbVertex
100
AcDb2dVertex
62
5
10
103.597058
20
131.126355
0
VERTEX
5
87a
100
AcDbEntity
8
1
100
AcDbVertex
100
AcDb2dVertex
62
5
10
103.772788
20
131.300500
0
VERTEX
5
87b
100
AcDbEntity
8
1
100
AcDbVertex
100
AcDb2dVertex
62
5
10
103.886779
20
131.527306
0
VERTEX
5
87c
100
AcDbEntity
8
1
100
AcDbVertex
100
AcDb2dVertex
62
5
10
103.975288
20
131.748580
0
VERTEX
5
87d
100
AcDbEntity
8
1
100
AcDbVertex
100
AcDb2dVertex
62
5
10
104.037431
20
131.963798
0
VERTEX
5
87e
100
AcDbEntity
8
1
100
AcDbVertex
100
AcDb2dVertex
62
5
10
104.081786
20
132.295235
0
VERTEX
5
87f
100
AcDbEntity
8
1
100
AcDbVertex
100
AcDb2dVertex
62
5
10
104.081786
20
133.390757
0
VERTEX
5
880
100
AcDbEntity
8
1
100
AcDbVertex
100
AcDb2dVertex
62
5
10
103.533661
20
133.390757
0
SEQEND
5
881
100
AcDbEntity
8
1
0
POLYLINE
5
882
100
AcDbEntity
8
1
6
CONTINUOUS
62
5
100
AcDb2dPolyline
66
1
10
0.0
20
0.0
30
0.0
70
0
0
VERTEX
5
883
100
AcDbEntity
8
1
100
AcDbVertex
100
AcDb2dVertex
62
5
10
101.100000
20
128.750000
0
VERTEX
5
884
100
AcDbEntity
8
1
100
AcDbVertex
100
AcDb2dVertex
62
5
10
101.100000
20
128.630000
0
VERTEX
5
885
100
AcDbEntity
8
1
100
AcDbVertex
100
AcDb2dVertex
62
5
10
100.600000
20
128.630000
0
VERTEX
5
886
100
AcDbEntity
8
1
100
AcDbVertex
100
AcDb2dVertex
62
5
10
100.600000
20
128.510000
0
VERTEX
5
887
100
AcDbEntity
8
1
100
AcDbVertex
100
AcDb2dVertex
62
5
10
100.100000
20
128.510000
0
VERTEX
5
888
100
AcDbEntity
8
1
100
AcDbVertex
100
AcDb2dVertex
62
5
10
100.100000
20
128.390000
0
VERTEX
5
889
100
AcDbEntity
8
1
100
AcDbVertex
100
AcDb2dVertex
62
5
10
99.600000
20
128.390000
0
VERTEX
5
88a
100
AcDbEntity
8
1
100
AcDbVertex
100
AcDb2dVertex
62
5
10
99.600000
20
128.150000
0
SEQEND
5
88b
100
AcDbEntity
8
1
0
LINE
5
88c
100
AcDbEntity
8
1
100
AcDbLine
6
CONTINUOUS
62
5
10
100.100000
20
135.550000
11
100.100000
21
128.390000
0
POLYLINE
5
88d
100
AcDbEntity
8
0
6
CONTINUOUS
62
5
100
AcDb2dPolyline
66
1
10
0.0
20
0.0
30
0.0
70
0
0
VERTEX
5
88e
100
AcDbEntity
8
0
100
AcDbVertex
100
AcDb2dVertex
62
5
10
96.300000
20
127.850000
0
VERTEX
5
88f
100
AcDbEntity
8
0
100
AcDbVertex
100
AcDb2dVertex
62
5
10
97.400000
20
135.600000
0
VERTEX
5
890
100
AcDbEntity
8
0
100
AcDbVertex
100
AcDb2dVertex
62
5
10
108.500000
20
135.600000
0
SEQEND
5
891
100
AcDbEntity
8
0
0
POLYLINE
5
892
100
AcDbEntity
8
0
6
CONTINUOUS
62
5
100
AcDb2dPolyline
66
1
10
0.0
20
0.0
30
0.0
70
0
0
VERTEX
5
893
100
AcDbEntity
8
0
100
AcDbVertex
100
AcDb2dVertex
62
5
10
109.200000
20
136.000000
0
VERTEX
5
894
100
AcDbEntity
8
0
100
AcDbVertex
100
AcDb2dVertex
62
5
10
102.600000
20
136.000000
0
VERTEX
5
895
100
AcDbEntity
8
0
100
AcDbVertex
100
AcDb2dVertex
62
5
10
96.800000
20
135.638419
0
VERTEX
5
896
100
AcDbEntity
8
0
100
AcDbVertex
100
AcDb2dVertex
62
5
10
96.300000
20
127.850000
0
SEQEND
5
897
100
AcDbEntity
8
0
0
ARC
5
898
100
AcDbEntity
8
1
100
AcDbCircle
6
CONTINUOUS
62
5
10
89.600000
20
130.200000
40
1.500000
100
AcDbArc
50
-179.999998
51
-129.296479
0
LINE
5
899
100
AcDbEntity
8
1
100
AcDbLine
6
CONTINUOUS
62
5
10
88.100000
20
130.200000
11
88.100000
21
130.302506
0
ARC
5
89a
100
AcDbEntity
8
1
100
AcDbCircle
6
CONTINUOUS
62
5
10
89.650000
20
128.800000
40
1.000000
100
AcDbArc
50
179.999998
51
-89.999999
0
LINE
5
89b
100
AcDbEntity
8
1
100
AcDbLine
6
CONTINUOUS
62
5
10
89.650000
20
127.800000
11
90.100000
21
127.800000
0
LINE
5
89c
100
AcDbEntity
8
1
100
AcDbLine
6
CONTINUOUS
62
5
10
88.650000
20
130.300000
11
88.650000
21
128.800000
0
ARC
5
89d
100
AcDbEntity
8
1
100
AcDbCircle
6
CONTINUOUS
62
5
10
89.150000
20
133.400000
40
0.500000
100
AcDbArc
50
89.999999
51
179.999998
0
LINE
5
89e
100
AcDbEntity
8
1
100
AcDbLine
6
CONTINUOUS
62
5
10
88.650000
20
133.400000
11
88.650000
21
133.200000
0
LINE
5
89f
100
AcDbEntity
8
1
100
AcDbLine
6
CONTINUOUS
62
5
10
89.600000
20
133.900000
11
89.150000
21
133.900000
0
ARC
5
8a0
100
AcDbEntity
8
1
100
AcDbCircle
6
CONTINUOUS
62
5
10
89.650000
20
128.150000
40
1.000000
100
AcDbArc
50
179.999998
51
-89.999999
0
LINE
5
8a1
100
AcDbEntity
8
1
100
AcDbLine
6
CONTINUOUS
62
5
10
89.650000
20
127.150000
11
92.600000
21
127.150000
0
LINE
5
8a2
100
AcDbEntity
8
1
100
AcDbLine
6
CONTINUOUS
62
5
10
88.650000
20
128.800000
11
88.650000
21
128.150000
0
LINE
5
8a3
100
AcDbEntity
8
0
100
AcDbLine
6
CONTINUOUS
62
5
10
102.600000
20
136.000000
11
102.600000
21
138.500000
0
LINE
5
8a4
100
AcDbEntity
8
0
100
AcDbLine
6
CONTINUOUS
62
5
10
97.369697
20
138.840149
11
97.369697
21
138.650000
0
LINE
5
8a5
100
AcDbEntity
8
0
100
AcDbLine
6
CONTINUOUS
62
5
10
97.618765
20
138.822991
11
97.618765
21
138.650000
0
ARC
5
8a6
100
AcDbEntity
8
1
100
AcDbCircle
6
CONTINUOUS
62
5
10
91.100000
20
140.500000
40
0.500000
100
AcDbArc
50
0.000000
51
89.999999
0
LINE
5
8a7
100
AcDbEntity
8
1
100
AcDbLine
6
CONTINUOUS
62
5
10
91.600000
20
140.500000
11
91.600000
21
136.500000
0
ARC
5
8a8
100
AcDbEntity
8
1
100
AcDbCircle
6
CONTINUOUS
62
5
10
91.100000
20
136.500000
40
0.500000
100
AcDbArc
50
-89.999999
51
0.000000
0
POLYLINE
5
8a9
100
AcDbEntity
8
1
6
CONTINUOUS
62
5
100
AcDb2dPolyline
66
1
10
0.0
20
0.0
30
0.0
70
0
0
VERTEX
5
8aa
100
AcDbEntity
8
1
100
AcDbVertex
100
AcDb2dVertex
62
5
10
91.100000
20
136.000000
0
VERTEX
5
8ab
100
AcDbEntity
8
1
100
AcDbVertex
100
AcDb2dVertex
62
5
10
89.600000
20
136.000000
0
VERTEX
5
8ac
100
AcDbEntity
8
1
100
AcDbVertex
100
AcDb2dVertex
62
5
10
89.600000
20
135.900000
0
SEQEND
5
8ad
100
AcDbEntity
8
1
0
POLYLINE
5
8ae
100
AcDbEntity
8
1
6
CONTINUOUS
62
5
100
AcDb2dPolyline
66
1
10
0.0
20
0.0
30
0.0
70
0
0
VERTEX
5
8af
100
AcDbEntity
8
1
100
AcDbVertex
100
AcDb2dVertex
62
5
10
89.600000
20
141.100000
0
VERTEX
5
8b0
100
AcDbEntity
8
1
100
AcDbVertex
100
AcDb2dVertex
62
5
10
89.600000
20
141.000000
0
VERTEX
5
8b1
100
AcDbEntity
8
1
100
AcDbVertex
100
AcDb2dVertex
62
5
10
91.100000
20
141.000000
0
SEQEND
5
8b2
100
AcDbEntity
8
1
0
LINE
5
8b3
100
AcDbEntity
8
1
100
AcDbLine
6
CONTINUOUS
62
5
10
88.650000
20
143.500000
11
88.650000
21
133.500000
0
LINE
5
8b4
100
AcDbEntity
8
1
100
AcDbLine
6
CONTINUOUS
62
5
10
88.100000
20
133.197494
11
88.100000
21
143.802506
0
ARC
5
8b5
100
AcDbEntity
8
1
100
AcDbCircle
6
CONTINUOUS
62
5
10
94.400000
20
133.200000
40
0.700000
100
AcDbArc
50
179.999998
51
-89.999999
0
LINE
5
8b6
100
AcDbEntity
8
1
100
AcDbLine
6
CONTINUOUS
62
5
10
93.700000
20
133.200000
11
93.700000
21
143.800000
0
ARC
5
8b7
100
AcDbEntity
8
1
100
AcDbCircle
6
CONTINUOUS
62
5
10
94.400000
20
143.800000
40
0.700000
100
AcDbArc
50
89.999999
51
-179.999998
0
LINE
5
8b8
100
AcDbEntity
8
1
100
AcDbLine
6
CONTINUOUS
62
5
10
94.400000
20
144.500000
11
95.600000
21
144.500000
0
LINE
5
8b9
100
AcDbEntity
8
1
100
AcDbLine
6
CONTINUOUS
62
5
10
95.600000
20
132.500000
11
94.400000
21
132.500000
0
ARC
5
8ba
100
AcDbEntity
8
1
100
AcDbCircle
6
CONTINUOUS
62
5
10
96.935808
20
139.371223
40
0.500000
100
AcDbArc
50
-171.474302
51
-93.940703
0
POLYLINE
5
8bb
100
AcDbEntity
8
1
6
CONTINUOUS
62
5
100
AcDb2dPolyline
66
1
10
0.0
20
0.0
30
0.0
70
0
0
VERTEX
5
8bc
100
AcDbEntity
8
1
100
AcDbVertex
100
AcDb2dVertex
62
5
10
96.441333
20
139.297096
0
VERTEX
5
8bd
100
AcDbEntity
8
1
100
AcDbVertex
100
AcDb2dVertex
62
5
10
96.051133
20
141.900000
0
VERTEX
5
8be
100
AcDbEntity
8
1
100
AcDbVertex
100
AcDb2dVertex
62
5
10
96.051133
20
149.100000
0
VERTEX
5
8bf
100
AcDbEntity
8
1
100
AcDbVertex
100
AcDb2dVertex
62
5
10
96.441333
20
151.702904
0
SEQEND
5
8c0
100
AcDbEntity
8
1
0
ARC
5
8c1
100
AcDbEntity
8
1
100
AcDbCircle
6
CONTINUOUS
62
5
10
96.935808
20
151.628777
40
0.500000
100
AcDbArc
50
93.940703
51
171.474302
0
POLYLINE
5
8c2
100
AcDbEntity
8
1
6
CONTINUOUS
62
5
100
AcDb2dPolyline
66
1
10
0.0
20
0.0
30
0.0
70
0
0
VERTEX
5
8c3
100
AcDbEntity
8
1
100
AcDbVertex
100
AcDb2dVertex
62
5
10
96.901446
20
152.127595
0
VERTEX
5
8c4
100
AcDbEntity
8
1
100
AcDbVertex
100
AcDb2dVertex
62
5
10
97.952516
20
152.200000
0
VERTEX
5
8c5
100
AcDbEntity
8
1
100
AcDbVertex
100
AcDb2dVertex
62
5
10
98.226460
20
152.200000
0
SEQEND
5
8c6
100
AcDbEntity
8
1
0
POLYLINE
5
8c7
100
AcDbEntity
8
1
6
CONTINUOUS
62
5
100
AcDb2dPolyline
66
1
10
0.0
20
0.0
30
0.0
70
0
0
VERTEX
5
8c8
100
AcDbEntity
8
1
100
AcDbVertex
100
AcDb2dVertex
62
5
10
98.226460
20
138.800000
0
VERTEX
5
8c9
100
AcDbEntity
8
1
100
AcDbVertex
100
AcDb2dVertex
62
5
10
97.952516
20
138.800000
0
VERTEX
5
8ca
100
AcDbEntity
8
1
100
AcDbVertex
100
AcDb2dVertex
62
5
10
96.901446
20
138.872405
0
SEQEND
5
8cb
100
AcDbEntity
8
1
0
ARC
5
8cc
100
AcDbEntity
8
1
100
AcDbCircle
6
CONTINUOUS
62
5
10
97.111298
20
139.373203
40
0.500000
100
AcDbArc
50
-170.859048
51
-93.702218
0
POLYLINE
5
8cd
100
AcDbEntity
8
1
6
CONTINUOUS
62
5
100
AcDb2dPolyline
66
1
10
0.0
20
0.0
30
0.0
70
0
0
VERTEX
5
8ce
100
AcDbEntity
8
1
100
AcDbVertex
100
AcDb2dVertex
62
5
10
96.617647
20
139.293771
0
VERTEX
5
8cf
100
AcDbEntity
8
1
100
AcDbVertex
100
AcDb2dVertex
62
5
10
96.198287
20
141.900000
0
VERTEX
5
8d0
100
AcDbEntity
8
1
100
AcDbVertex
100
AcDb2dVertex
62
5
10
96.198287
20
149.100000
0
VERTEX
5
8d1
100
AcDbEntity
8
1
100
AcDbVertex
100
AcDb2dVertex
62
5
10
96.617647
20
151.706229
0
SEQEND
5
8d2
100
AcDbEntity
8
1
0
ARC
5
8d3
100
AcDbEntity
8
1
100
AcDbCircle
6
CONTINUOUS
62
5
10
97.111298
20
151.626797
40
0.500000
100
AcDbArc
50
93.702218
51
170.859048
0
POLYLINE
5
8d4
100
AcDbEntity
8
1
6
CONTINUOUS
62
5
100
AcDb2dPolyline
66
1
10
0.0
20
0.0
30
0.0
70
0
0
VERTEX
5
8d5
100
AcDbEntity
8
1
100
AcDbVertex
100
AcDb2dVertex
62
5
10
97.079012
20
152.125753
0
VERTEX
5
8d6
100
AcDbEntity
8
1
100
AcDbVertex
100
AcDb2dVertex
62
5
10
98.226460
20
152.200000
0
VERTEX
5
8d7
100
AcDbEntity
8
1
100
AcDbVertex
100
AcDb2dVertex
62
5
10
98.226460
20
152.350000
0
SEQEND
5
8d8
100
AcDbEntity
8
1
0
POLYLINE
5
8d9
100
AcDbEntity
8
1
6
CONTINUOUS
62
5
100
AcDb2dPolyline
66
1
10
0.0
20
0.0
30
0.0
70
0
0
VERTEX
5
8da
100
AcDbEntity
8
1
100
AcDbVertex
100
AcDb2dVertex
62
5
10
98.226460
20
138.650000
0
VERTEX
5
8db
100
AcDbEntity
8
1
100
AcDbVertex
100
AcDb2dVertex
62
5
10
98.226460
20
138.800000
0
VERTEX
5
8dc
100
AcDbEntity
8
1
100
AcDbVertex
100
AcDb2dVertex
62
5
10
97.079012
20
138.874247
0
SEQEND
5
8dd
100
AcDbEntity
8
1
0
LINE
5
8de
100
AcDbEntity
8
1
100
AcDbLine
6
CONTINUOUS
62
5
10
98.800000
20
138.650000
11
98.800000
21
152.350000
0
LINE
5
8df
100
AcDbEntity
8
1
100
AcDbLine
6
CONTINUOUS
62
5
10
98.708911
20
138.650000
11
98.708911
21
152.350000
0
LINE
5
8e0
100
AcDbEntity
8
0
100
AcDbLine
6
CONTINUOUS
62
5
10
109.950000
20
136.000000
11
110.000000
21
136.300000
0
LINE
5
8e1
100
AcDbEntity
8
0
100
AcDbLine
6
CONTINUOUS
62
5
10
109.250000
20
135.312996
11
109.950000
21
135.312996
0
POLYLINE
5
8e2
100
AcDbEntity
8
0
6
CONTINUOUS
62
5
100
AcDb2dPolyline
66
1
10
0.0
20
0.0
30
0.0
70
0
0
VERTEX
5
8e3
100
AcDbEntity
8
0
100
AcDbVertex
100
AcDb2dVertex
62
5
10
109.250000
20
135.312996
0
VERTEX
5
8e4
100
AcDbEntity
8
0
100
AcDbVertex
100
AcDb2dVertex
62
5
10
109.250000
20
136.000000
0
VERTEX
5
8e5
100
AcDbEntity
8
0
100
AcDbVertex
100
AcDb2dVertex
62
5
10
109.950000
20
136.000000
0
VERTEX
5
8e6
100
AcDbEntity
8
0
100
AcDbVertex
100
AcDb2dVertex
62
5
10
109.950000
20
135.312996
0
SEQEND
5
8e7
100
AcDbEntity
8
0
0
POLYLINE
5
8e8
100
AcDbEntity
8
0
6
CONTINUOUS
62
5
100
AcDb2dPolyline
66
1
10
0.0
20
0.0
30
0.0
70
0
0
VERTEX
5
8e9
100
AcDbEntity
8
0
100
AcDbVertex
100
AcDb2dVertex
62
5
10
110.600000
20
135.500000
0
VERTEX
5
8ea
100
AcDbEntity
8
0
100
AcDbVertex
100
AcDb2dVertex
62
5
10
110.600000
20
135.798795
0
VERTEX
5
8eb
100
AcDbEntity
8
0
100
AcDbVertex
100
AcDb2dVertex
62
5
10
109.977778
20
135.798795
0
SEQEND
5
8ec
100
AcDbEntity
8
0
0
LINE
5
8ed
100
AcDbEntity
8
0
100
AcDbLine
6
CONTINUOUS
62
5
10
110.600000
20
135.500000
11
109.977778
21
135.500000
0
POLYLINE
5
8ee
100
AcDbEntity
8
0
6
CONTINUOUS
62
5
100
AcDb2dPolyline
66
1
10
0.0
20
0.0
30
0.0
70
1
0
VERTEX
5
8ef
100
AcDbEntity
8
0
100
AcDbVertex
100
AcDb2dVertex
62
5
10
109.200000
20
136.300000
0
VERTEX
5
8f0
100
AcDbEntity
8
0
100
AcDbVertex
100
AcDb2dVertex
62
5
10
109.200000
20
136.000000
0
VERTEX
5
8f1
100
AcDbEntity
8
0
100
AcDbVertex
100
AcDb2dVertex
62
5
10
109.222222
20
135.798795
0
VERTEX
5
8f2
100
AcDbEntity
8
0
100
AcDbVertex
100
AcDb2dVertex
62
5
10
109.222222
20
135.500000
0
VERTEX
5
8f3
100
AcDbEntity
8
0
100
AcDbVertex
100
AcDb2dVertex
62
5
10
109.250000
20
135.312996
0
VERTEX
5
8f4
100
AcDbEntity
8
0
100
AcDbVertex
100
AcDb2dVertex
62
5
10
109.950000
20
135.312996
0
VERTEX
5
8f5
100
AcDbEntity
8
0
100
AcDbVertex
100
AcDb2dVertex
62
5
10
109.977778
20
135.500000
0
VERTEX
5
8f6
100
AcDbEntity
8
0
100
AcDbVertex
100
AcDb2dVertex
62
5
10
109.977778
20
135.798795
0
VERTEX
5
8f7
100
AcDbEntity
8
0
100
AcDbVertex
100
AcDb2dVertex
62
5
10
110.000000
20
136.000000
0
VERTEX
5
8f8
100
AcDbEntity
8
0
100
AcDbVertex
100
AcDb2dVertex
62
5
10
110.000000
20
136.300000
0
VERTEX
5
8f9
100
AcDbEntity
8
0
100
AcDbVertex
100
AcDb2dVertex
62
5
10
109.200000
20
136.300000
0
SEQEND
5
8fa
100
AcDbEntity
8
0
0
POLYLINE
5
8fb
100
AcDbEntity
8
0
6
CONTINUOUS
62
5
100
AcDb2dPolyline
66
1
10
0.0
20
0.0
30
0.0
70
0
0
VERTEX
5
8fc
100
AcDbEntity
8
0
100
AcDbVertex
100
AcDb2dVertex
62
5
10
110.600000
20
135.798795
0
VERTEX
5
8fd
100
AcDbEntity
8
0
100
AcDbVertex
100
AcDb2dVertex
62
5
10
110.700000
20
135.600000
0
VERTEX
5
8fe
100
AcDbEntity
8
0
100
AcDbVertex
100
AcDb2dVertex
62
5
10
110.700000
20
135.200000
0
VERTEX
5
8ff
100
AcDbEntity
8
0
100
AcDbVertex
100
AcDb2dVertex
62
5
10
108.500000
20
135.200000
0
VERTEX
5
900
100
AcDbEntity
8
0
100
AcDbVertex
100
AcDb2dVertex
62
5
10
108.500000
20
135.600000
0
VERTEX
5
901
100
AcDbEntity
8
0
100
AcDbVertex
100
AcDb2dVertex
62
5
10
108.600000
20
135.798795
0
SEQEND
5
902
100
AcDbEntity
8
0
0
POLYLINE
5
903
100
AcDbEntity
8
1
6
CONTINUOUS
62
5
100
AcDb2dPolyline
66
1
10
0.0
20
0.0
30
0.0
70
1
0
VERTEX
5
904
100
AcDbEntity
8
1
100
AcDbVertex
100
AcDb2dVertex
62
5
10
109.810938
20
130.306250
0
VERTEX
5
905
100
AcDbEntity
8
1
100
AcDbVertex
100
AcDb2dVertex
62
5
10
110.300000
20
130.306250
0
VERTEX
5
906
100
AcDbEntity
8
1
100
AcDbVertex
100
AcDb2dVertex
62
5
10
110.300000
20
130.568750
0
VERTEX
5
907
100
AcDbEntity
8
1
100
AcDbVertex
100
AcDb2dVertex
62
5
10
109.810938
20
130.568750
0
SEQEND
5
908
100
AcDbEntity
8
1
0
POLYLINE
5
909
100
AcDbEntity
8
1
6
CONTINUOUS
62
5
100
AcDb2dPolyline
66
1
10
0.0
20
0.0
30
0.0
70
1
0
VERTEX
5
90a
100
AcDbEntity
8
1
100
AcDbVertex
100
AcDb2dVertex
62
5
10
110.300000
20
130.668750
0
VERTEX
5
90b
100
AcDbEntity
8
1
100
AcDbVertex
100
AcDb2dVertex
62
5
10
110.300000
20
130.931250
0
VERTEX
5
90c
100
AcDbEntity
8
1
100
AcDbVertex
100
AcDb2dVertex
62
5
10
109.810938
20
130.931250
0
VERTEX
5
90d
100
AcDbEntity
8
1
100
AcDbVertex
100
AcDb2dVertex
62
5
10
109.810938
20
130.668750
0
SEQEND
5
90e
100
AcDbEntity
8
1
0
ARC
5
90f
100
AcDbEntity
8
1
100
AcDbCircle
6
CONTINUOUS
62
5
10
109.760938
20
130.981250
40
0.050000
100
AcDbArc
50
89.999999
51
-179.999998
0
POLYLINE
5
910
100
AcDbEntity
8
1
6
CONTINUOUS
62
5
100
AcDb2dPolyline
66
1
10
0.0
20
0.0
30
0.0
70
0
0
VERTEX
5
911
100
AcDbEntity
8
1
100
AcDbVertex
100
AcDb2dVertex
62
5
10
109.760938
20
131.031250
0
VERTEX
5
912
100
AcDbEntity
8
1
100
AcDbVertex
100
AcDb2dVertex
62
5
10
110.300000
20
131.031250
0
VERTEX
5
913
100
AcDbEntity
8
1
100
AcDbVertex
100
AcDb2dVertex
62
5
10
110.300000
20
131.203125
0
VERTEX
5
914
100
AcDbEntity
8
1
100
AcDbVertex
100
AcDb2dVertex
62
5
10
109.670313
20
131.203125
0
SEQEND
5
915
100
AcDbEntity
8
1
0
ARC
5
916
100
AcDbEntity
8
1
100
AcDbCircle
6
CONTINUOUS
62
5
10
109.670313
20
131.253125
40
0.050000
100
AcDbArc
50
89.999999
51
-89.999999
0
POLYLINE
5
917
100
AcDbEntity
8
1
6
CONTINUOUS
62
5
100
AcDb2dPolyline
66
1
10
0.0
20
0.0
30
0.0
70
0
0
VERTEX
5
918
100
AcDbEntity
8
1
100
AcDbVertex
100
AcDb2dVertex
62
5
10
109.670313
20
131.303125
0
VERTEX
5
919
100
AcDbEntity
8
1
100
AcDbVertex
100
AcDb2dVertex
62
5
10
110.300000
20
131.303125
0
VERTEX
5
91a
100
AcDbEntity
8
1
100
AcDbVertex
100
AcDb2dVertex
62
5
10
110.300000
20
131.559549
0
VERTEX
5
91b
100
AcDbEntity
8
1
100
AcDbVertex
100
AcDb2dVertex
62
5
10
110.214559
20
131.539296
0
VERTEX
5
91c
100
AcDbEntity
8
1
100
AcDbVertex
100
AcDb2dVertex
62
5
10
109.768009
20
131.475503
0
SEQEND
5
91d
100
AcDbEntity
8
1
0
ARC
5
91e
100
AcDbEntity
8
1
100
AcDbCircle
6
CONTINUOUS
62
5
10
109.760938
20
131.525000
40
0.050000
100
AcDbArc
50
98.130101
51
-81.869897
0
POLYLINE
5
91f
100
AcDbEntity
8
1
6
CONTINUOUS
62
5
100
AcDb2dPolyline
66
1
10
0.0
20
0.0
30
0.0
70
0
0
VERTEX
5
920
100
AcDbEntity
8
1
100
AcDbVertex
100
AcDb2dVertex
62
5
10
109.753866
20
131.574497
0
VERTEX
5
921
100
AcDbEntity
8
1
100
AcDbVertex
100
AcDb2dVertex
62
5
10
110.198151
20
131.637967
0
VERTEX
5
922
100
AcDbEntity
8
1
100
AcDbVertex
100
AcDb2dVertex
62
5
10
110.490031
20
131.707364
0
VERTEX
5
923
100
AcDbEntity
8
1
100
AcDbVertex
100
AcDb2dVertex
62
5
10
110.829868
20
131.843299
0
SEQEND
5
924
100
AcDbEntity
8
1
0
ARC
5
925
100
AcDbEntity
8
1
100
AcDbCircle
6
CONTINUOUS
62
5
10
110.848438
20
131.796875
40
0.050000
100
AcDbArc
50
-68.198590
51
111.801409
0
POLYLINE
5
926
100
AcDbEntity
8
1
6
CONTINUOUS
62
5
100
AcDb2dPolyline
66
1
10
0.0
20
0.0
30
0.0
70
0
0
VERTEX
5
927
100
AcDbEntity
8
1
100
AcDbVertex
100
AcDb2dVertex
62
5
10
110.867007
20
131.750451
0
VERTEX
5
928
100
AcDbEntity
8
1
100
AcDbVertex
100
AcDb2dVertex
62
5
10
110.516746
20
131.610928
0
VERTEX
5
929
100
AcDbEntity
8
1
100
AcDbVertex
100
AcDb2dVertex
62
5
10
110.400000
20
131.583254
0
VERTEX
5
92a
100
AcDbEntity
8
1
100
AcDbVertex
100
AcDb2dVertex
62
5
10
110.400000
20
131.303125
0
VERTEX
5
92b
100
AcDbEntity
8
1
100
AcDbVertex
100
AcDb2dVertex
62
5
10
111.029688
20
131.303125
0
SEQEND
5
92c
100
AcDbEntity
8
1
0
ARC
5
92d
100
AcDbEntity
8
1
100
AcDbCircle
6
CONTINUOUS
62
5
10
111.029688
20
131.253125
40
0.050000
100
AcDbArc
50
-89.999999
51
89.999999
0
POLYLINE
5
92e
100
AcDbEntity
8
1
6
CONTINUOUS
62
5
100
AcDb2dPolyline
66
1
10
0.0
20
0.0
30
0.0
70
0
0
VERTEX
5
92f
100
AcDbEntity
8
1
100
AcDbVertex
100
AcDb2dVertex
62
5
10
111.029688
20
131.203125
0
VERTEX
5
930
100
AcDbEntity
8
1
100
AcDbVertex
100
AcDb2dVertex
62
5
10
110.400000
20
131.203125
0
VERTEX
5
931
100
AcDbEntity
8
1
100
AcDbVertex
100
AcDb2dVertex
62
5
10
110.400000
20
131.031250
0
VERTEX
5
932
100
AcDbEntity
8
1
100
AcDbVertex
100
AcDb2dVertex
62
5
10
110.939063
20
131.031250
0
SEQEND
5
933
100
AcDbEntity
8
1
0
ARC
5
934
100
AcDbEntity
8
1
100
AcDbCircle
6
CONTINUOUS
62
5
10
110.939063
20
130.981250
40
0.050000
100
AcDbArc
50
0.000000
51
89.999999
0
LINE
5
935
100
AcDbEntity
8
1
100
AcDbLine
6
CONTINUOUS
62
5
10
110.989063
20
130.981250
11
110.989063
21
130.256250
0
ARC
5
936
100
AcDbEntity
8
1
100
AcDbCircle
6
CONTINUOUS
62
5
10
110.939063
20
130.256250
40
0.050000
100
AcDbArc
50
-89.999999
51
0.000000
0
POLYLINE
5
937
100
AcDbEntity
8
1
6
CONTINUOUS
62
5
100
AcDb2dPolyline
66
1
10
0.0
20
0.0
30
0.0
70
0
0
VERTEX
5
938
100
AcDbEntity
8
1
100
AcDbVertex
100
AcDb2dVertex
62
5
10
110.939063
20
130.206250
0
VERTEX
5
939
100
AcDbEntity
8
1
100
AcDbVertex
100
AcDb2dVertex
62
5
10
110.400000
20
130.206250
0
VERTEX
5
93a
100
AcDbEntity
8
1
100
AcDbVertex
100
AcDb2dVertex
62
5
10
110.400000
20
130.034375
0
VERTEX
5
93b
100
AcDbEntity
8
1
100
AcDbVertex
100
AcDb2dVertex
62
5
10
110.939063
20
130.034375
0
SEQEND
5
93c
100
AcDbEntity
8
1
0
ARC
5
93d
100
AcDbEntity
8
1
100
AcDbCircle
6
CONTINUOUS
62
5
10
110.939063
20
129.984375
40
0.050000
100
AcDbArc
50
-89.999999
51
89.999999
0
POLYLINE
5
93e
100
AcDbEntity
8
1
6
CONTINUOUS
62
5
100
AcDb2dPolyline
66
1
10
0.0
20
0.0
30
0.0
70
0
0
VERTEX
5
93f
100
AcDbEntity
8
1
100
AcDbVertex
100
AcDb2dVertex
62
5
10
110.939063
20
129.934375
0
VERTEX
5
940
100
AcDbEntity
8
1
100
AcDbVertex
100
AcDb2dVertex
62
5
10
110.400000
20
129.934375
0
VERTEX
5
941
100
AcDbEntity
8
1
100
AcDbVertex
100
AcDb2dVertex
62
5
10
110.400000
20
129.565053
0
VERTEX
5
942
100
AcDbEntity
8
1
100
AcDbVertex
100
AcDb2dVertex
62
5
10
110.929257
20
129.670904
0
SEQEND
5
943
100
AcDbEntity
8
1
0
ARC
5
944
100
AcDbEntity
8
1
100
AcDbCircle
6
CONTINUOUS
62
5
10
110.939063
20
129.621875
40
0.050000
100
AcDbArc
50
-78.690067
51
101.309932
0
POLYLINE
5
945
100
AcDbEntity
8
1
6
CONTINUOUS
62
5
100
AcDb2dPolyline
66
1
10
0.0
20
0.0
30
0.0
70
0
0
VERTEX
5
946
100
AcDbEntity
8
1
100
AcDbVertex
100
AcDb2dVertex
62
5
10
110.948868
20
129.572846
0
VERTEX
5
947
100
AcDbEntity
8
1
100
AcDbVertex
100
AcDb2dVertex
62
5
10
110.155079
20
129.414088
0
VERTEX
5
948
100
AcDbEntity
8
1
100
AcDbVertex
100
AcDb2dVertex
62
5
10
109.939576
20
129.390907
0
VERTEX
5
949
100
AcDbEntity
8
1
100
AcDbVertex
100
AcDb2dVertex
62
5
10
109.760938
20
129.390625
0
SEQEND
5
94a
100
AcDbEntity
8
1
0
ARC
5
94b
100
AcDbEntity
8
1
100
AcDbCircle
6
CONTINUOUS
62
5
10
109.760938
20
129.440625
40
0.050000
100
AcDbArc
50
90.000000
51
-90.000000
0
POLYLINE
5
94c
100
AcDbEntity
8
1
6
CONTINUOUS
62
5
100
AcDb2dPolyline
66
1
10
0.0
20
0.0
30
0.0
70
0
0
VERTEX
5
94d
100
AcDbEntity
8
1
100
AcDbVertex
100
AcDb2dVertex
62
5
10
109.760938
20
129.490625
0
VERTEX
5
94e
100
AcDbEntity
8
1
100
AcDbVertex
100
AcDb2dVertex
62
5
10
109.931619
20
129.490625
0
VERTEX
5
94f
100
AcDbEntity
8
1
100
AcDbVertex
100
AcDb2dVertex
62
5
10
110.137704
20
129.512594
0
VERTEX
5
950
100
AcDbEntity
8
1
100
AcDbVertex
100
AcDb2dVertex
62
5
10
110.300000
20
129.545053
0
VERTEX
5
951
100
AcDbEntity
8
1
100
AcDbVertex
100
AcDb2dVertex
62
5
10
110.300000
20
129.934375
0
VERTEX
5
952
100
AcDbEntity
8
1
100
AcDbVertex
100
AcDb2dVertex
62
5
10
109.760938
20
129.934375
0
SEQEND
5
953
100
AcDbEntity
8
1
0
ARC
5
954
100
AcDbEntity
8
1
100
AcDbCircle
6
CONTINUOUS
62
5
10
109.760938
20
129.984375
40
0.050000
100
AcDbArc
50
89.999999
51
-89.999999
0
POLYLINE
5
955
100
AcDbEntity
8
1
6
CONTINUOUS
62
5
100
AcDb2dPolyline
66
1
10
0.0
20
0.0
30
0.0
70
0
0
VERTEX
5
956
100
AcDbEntity
8
1
100
AcDbVertex
100
AcDb2dVertex
62
5
10
109.760938
20
130.034375
0
VERTEX
5
957
100
AcDbEntity
8
1
100
AcDbVertex
100
AcDb2dVertex
62
5
10
110.300000
20
130.034375
0
VERTEX
5
958
100
AcDbEntity
8
1
100
AcDbVertex
100
AcDb2dVertex
62
5
10
110.300000
20
130.206250
0
VERTEX
5
959
100
AcDbEntity
8
1
100
AcDbVertex
100
AcDb2dVertex
62
5
10
109.760938
20
130.206250
0
SEQEND
5
95a
100
AcDbEntity
8
1
0
ARC
5
95b
100
AcDbEntity
8
1
100
AcDbCircle
6
CONTINUOUS
62
5
10
109.760938
20
130.256250
40
0.050000
100
AcDbArc
50
-179.999998
51
-89.999999
0
LINE
5
95c
100
AcDbEntity
8
1
100
AcDbLine
6
CONTINUOUS
62
5
10
109.710938
20
130.256250
11
109.710938
21
130.981250
0
POLYLINE
5
95d
100
AcDbEntity
8
1
6
CONTINUOUS
62
5
100
AcDb2dPolyline
66
1
10
0.0
20
0.0
30
0.0
70
1
0
VERTEX
5
95e
100
AcDbEntity
8
1
100
AcDbVertex
100
AcDb2dVertex
62
5
10
109.300000
20
132.350000
0
VERTEX
5
95f
100
AcDbEntity
8
1
100
AcDbVertex
100
AcDb2dVertex
62
5
10
109.900000
20
132.350000
0
VERTEX
5
960
100
AcDbEntity
8
1
100
AcDbVertex
100
AcDb2dVertex
62
5
10
109.900000
20
134.350000
0
VERTEX
5
961
100
AcDbEntity
8
1
100
AcDbVertex
100
AcDb2dVertex
62
5
10
109.300000
20
134.350000
0
SEQEND
5
962
100
AcDbEntity
8
1
0
POLYLINE
5
963
100
AcDbEntity
8
1
6
CONTINUOUS
62
5
100
AcDb2dPolyline
66
1
10
0.0
20
0.0
30
0.0
70
0
0
VERTEX
5
964
100
AcDbEntity
8
1
100
AcDbVertex
100
AcDb2dVertex
62
5
10
101.100000
20
135.550000
0
VERTEX
5
965
100
AcDbEntity
8
1
100
AcDbVertex
100
AcDb2dVertex
62
5
10
101.100000
20
128.750000
0
VERTEX
5
966
100
AcDbEntity
8
1
100
AcDbVertex
100
AcDb2dVertex
62
5
10
118.100000
20
128.750000
0
VERTEX
5
967
100
AcDbEntity
8
1
100
AcDbVertex
100
AcDb2dVertex
62
5
10
118.100000
20
135.550000
0
SEQEND
5
968
100
AcDbEntity
8
1
0
POLYLINE
5
969
100
AcDbEntity
8
1
6
CONTINUOUS
62
5
100
AcDb2dPolyline
66
1
10
0.0
20
0.0
30
0.0
70
0
0
VERTEX
5
96a
100
AcDbEntity
8
1
100
AcDbVertex
100
AcDb2dVertex
62
5
10
101.100000
20
135.550000
0
VERTEX
5
96b
100
AcDbEntity
8
1
100
AcDbVertex
100
AcDb2dVertex
62
5
10
101.100000
20
128.750000
0
VERTEX
5
96c
100
AcDbEntity
8
1
100
AcDbVertex
100
AcDb2dVertex
62
5
10
118.100000
20
128.750000
0
VERTEX
5
96d
100
AcDbEntity
8
1
100
AcDbVertex
100
AcDb2dVertex
62
5
10
118.100000
20
135.550000
0
SEQEND
5
96e
100
AcDbEntity
8
1
0
POLYLINE
5
96f
100
AcDbEntity
8
1
6
CONTINUOUS
62
5
100
AcDb2dPolyline
66
1
10
0.0
20
0.0
30
0.0
70
0
0
VERTEX
5
970
100
AcDbEntity
8
1
100
AcDbVertex
100
AcDb2dVertex
62
5
10
99.461474
20
155.500961
0
VERTEX
5
971
100
AcDbEntity
8
1
100
AcDbVertex
100
AcDb2dVertex
62
5
10
102.600000
20
155.550000
0
VERTEX
5
972
100
AcDbEntity
8
1
100
AcDbVertex
100
AcDb2dVertex
62
5
10
116.600000
20
155.550000
0
VERTEX
5
973
100
AcDbEntity
8
1
100
AcDbVertex
100
AcDb2dVertex
62
5
10
122.580678
20
155.456552
0
SEQEND
5
974
100
AcDbEntity
8
1
0
POLYLINE
5
975
100
AcDbEntity
8
0
6
CONTINUOUS
62
5
100
AcDb2dPolyline
66
1
10
0.0
20
0.0
30
0.0
70
0
0
VERTEX
5
976
100
AcDbEntity
8
0
100
AcDbVertex
100
AcDb2dVertex
62
5
10
123.098281
20
155.371330
0
VERTEX
5
977
100
AcDbEntity
8
0
100
AcDbVertex
100
AcDb2dVertex
62
5
10
116.600000
20
155.000000
0
VERTEX
5
978
100
AcDbEntity
8
0
100
AcDbVertex
100
AcDb2dVertex
62
5
10
102.600000
20
155.000000
0
VERTEX
5
979
100
AcDbEntity
8
0
100
AcDbVertex
100
AcDb2dVertex
62
5
10
98.816301
20
155.191620
0
VERTEX
5
97a
100
AcDbEntity
8
0
100
AcDbVertex
100
AcDb2dVertex
62
5
10
98.816301
20
156.200000
0
SEQEND
5
97b
100
AcDbEntity
8
0
0
LINE
5
97c
100
AcDbEntity
8
0
100
AcDbLine
6
CONTINUOUS
62
5
10
123.600000
20
152.500000
11
95.600000
21
152.500000
0
POLYLINE
5
97d
100
AcDbEntity
8
0
6
CONTINUOUS
62
5
100
AcDb2dPolyline
66
1
10
0.0
20
0.0
30
0.0
70
0
0
VERTEX
5
97e
100
AcDbEntity
8
0
100
AcDbVertex
100
AcDb2dVertex
62
5
10
123.600000
20
152.500000
0
VERTEX
5
97f
100
AcDbEntity
8
0
100
AcDbVertex
100
AcDb2dVertex
62
5
10
121.830303
20
152.350000
0
VERTEX
5
980
100
AcDbEntity
8
0
100
AcDbVertex
100
AcDb2dVertex
62
5
10
97.369697
20
152.350000
0
VERTEX
5
981
100
AcDbEntity
8
0
100
AcDbVertex
100
AcDb2dVertex
62
5
10
95.600000
20
152.500000
0
SEQEND
5
982
100
AcDbEntity
8
0
0
POLYLINE
5
983
100
AcDbEntity
8
0
6
CONTINUOUS
62
5
100
AcDb2dPolyline
66
1
10
0.0
20
0.0
30
0.0
70
0
0
VERTEX
5
984
100
AcDbEntity
8
0
100
AcDbVertex
100
AcDb2dVertex
62
5
10
95.600000
20
138.500000
0
VERTEX
5
985
100
AcDbEntity
8
0
100
AcDbVertex
100
AcDb2dVertex
62
5
10
97.369697
20
138.650000
0
VERTEX
5
986
100
AcDbEntity
8
0
100
AcDbVertex
100
AcDb2dVertex
62
5
10
121.830303
20
138.650000
0
VERTEX
5
987
100
AcDbEntity
8
0
100
AcDbVertex
100
AcDb2dVertex
62
5
10
123.600000
20
138.500000
0
SEQEND
5
988
100
AcDbEntity
8
0
0
LINE
5
989
100
AcDbEntity
8
0
100
AcDbLine
6
CONTINUOUS
62
5
10
123.600000
20
138.500000
11
95.600000
21
138.500000
0
LINE
5
98a
100
AcDbEntity
8
1
100
AcDbLine
6
CONTINUOUS
62
5
10
120.400000
20
145.500000
11
98.800000
21
145.500000
0
ARC
5
98b
100
AcDbEntity
8
1
100
AcDbCircle
6
CONTINUOUS
62
5
10
100.100000
20
135.050000
40
0.500000
100
AcDbArc
50
89.999999
51
179.999998
0
POLYLINE
5
98c
100
AcDbEntity
8
1
6
CONTINUOUS
62
5
100
AcDb2dPolyline
66
1
10
0.0
20
0.0
30
0.0
70
0
0
VERTEX
5
98d
100
AcDbEntity
8
1
100
AcDbVertex
100
AcDb2dVertex
62
5
10
100.100000
20
135.550000
0
VERTEX
5
98e
100
AcDbEntity
8
1
100
AcDbVertex
100
AcDb2dVertex
62
5
10
106.200000
20
135.550000
0
VERTEX
5
98f
100
AcDbEntity
8
1
100
AcDbVertex
100
AcDb2dVertex
62
5
10
106.200000
20
135.150000
0
VERTEX
5
990
100
AcDbEntity
8
1
100
AcDbVertex
100
AcDb2dVertex
62
5
10
113.000000
20
135.150000
0
VERTEX
5
991
100
AcDbEntity
8
1
100
AcDbVertex
100
AcDb2dVertex
62
5
10
113.000000
20
135.550000
0
VERTEX
5
992
100
AcDbEntity
8
1
100
AcDbVertex
100
AcDb2dVertex
62
5
10
119.100000
20
135.550000
0
SEQEND
5
993
100
AcDbEntity
8
1
0
ARC
5
994
100
AcDbEntity
8
1
100
AcDbCircle
6
CONTINUOUS
62
5
10
119.100000
20
135.050000
40
0.500000
100
AcDbArc
50
0.000000
51
89.999999
0
POLYLINE
5
995
100
AcDbEntity
8
1
6
CONTINUOUS
62
5
100
AcDb2dPolyline
66
1
10
0.0
20
0.0
30
0.0
70
0
0
VERTEX
5
996
100
AcDbEntity
8
1
100
AcDbVertex
100
AcDb2dVertex
62
5
10
119.600000
20
135.050000
0
VERTEX
5
997
100
AcDbEntity
8
1
100
AcDbVertex
100
AcDb2dVertex
62
5
10
119.600000
20
128.150000
0
VERTEX
5
998
100
AcDbEntity
8
1
100
AcDbVertex
100
AcDb2dVertex
62
5
10
110.000000
20
128.150000
0
VERTEX
5
999
100
AcDbEntity
8
1
100
AcDbVertex
100
AcDb2dVertex
62
5
10
110.000000
20
128.650000
0
VERTEX
5
99a
100
AcDbEntity
8
1
100
AcDbVertex
100
AcDb2dVertex
62
5
10
109.600000
20
128.650000
0
SEQEND
5
99b
100
AcDbEntity
8
1
0
POLYLINE
5
99c
100
AcDbEntity
8
1
6
CONTINUOUS
62
5
100
AcDb2dPolyline
66
1
10
0.0
20
0.0
30
0.0
70
0
0
VERTEX
5
99d
100
AcDbEntity
8
1
100
AcDbVertex
100
AcDb2dVertex
62
5
10
109.600000
20
128.650000
0
VERTEX
5
99e
100
AcDbEntity
8
1
100
AcDbVertex
100
AcDb2dVertex
62
5
10
109.200000
20
128.650000
0
VERTEX
5
99f
100
AcDbEntity
8
1
100
AcDbVertex
100
AcDb2dVertex
62
5
10
109.200000
20
128.150000
0
VERTEX
5
9a0
100
AcDbEntity
8
1
100
AcDbVertex
100
AcDb2dVertex
62
5
10
99.600000
20
128.150000
0
VERTEX
5
9a1
100
AcDbEntity
8
1
100
AcDbVertex
100
AcDb2dVertex
62
5
10
99.600000
20
135.050000
0
SEQEND
5
9a2
100
AcDbEntity
8
1
0
POLYLINE
5
9a3
100
AcDbEntity
8
0
6
CONTINUOUS
62
5
100
AcDb2dPolyline
66
1
10
0.0
20
0.0
30
0.0
70
0
0
VERTEX
5
9a4
100
AcDbEntity
8
0
100
AcDbVertex
100
AcDb2dVertex
62
5
10
110.000000
20
136.000000
0
VERTEX
5
9a5
100
AcDbEntity
8
0
100
AcDbVertex
100
AcDb2dVertex
62
5
10
116.600000
20
136.000000
0
VERTEX
5
9a6
100
AcDbEntity
8
0
100
AcDbVertex
100
AcDb2dVertex
62
5
10
122.400000
20
135.638419
0
VERTEX
5
9a7
100
AcDbEntity
8
0
100
AcDbVertex
100
AcDb2dVertex
62
5
10
122.900000
20
127.850000
0
SEQEND
5
9a8
100
AcDbEntity
8
0
0
POLYLINE
5
9a9
100
AcDbEntity
8
1
6
CONTINUOUS
62
5
100
AcDb2dPolyline
66
1
10
0.0
20
0.0
30
0.0
70
0
0
VERTEX
5
9aa
100
AcDbEntity
8
1
100
AcDbVertex
100
AcDb2dVertex
62
5
10
109.250000
20
128.650000
0
VERTEX
5
9ab
100
AcDbEntity
8
1
100
AcDbVertex
100
AcDb2dVertex
62
5
10
109.250000
20
127.179180
0
VERTEX
5
9ac
100
AcDbEntity
8
1
100
AcDbVertex
100
AcDb2dVertex
62
5
10
109.950000
20
127.179180
0
VERTEX
5
9ad
100
AcDbEntity
8
1
100
AcDbVertex
100
AcDb2dVertex
62
5
10
109.950000
20
128.650000
0
SEQEND
5
9ae
100
AcDbEntity
8
1
0
ARC
5
9af
100
AcDbEntity
8
1
100
AcDbCircle
6
CONTINUOUS
62
5
10
121.100000
20
127.600000
40
0.500000
100
AcDbArc
50
-89.999999
51
-64.158067
0
LINE
5
9b0
100
AcDbEntity
8
1
100
AcDbLine
6
CONTINUOUS
62
5
10
121.100000
20
127.100000
11
98.100000
21
127.100000
0
ARC
5
9b1
100
AcDbEntity
8
1
100
AcDbCircle
6
CONTINUOUS
62
5
10
98.100000
20
127.600000
40
0.500000
100
AcDbArc
50
-115.841932
51
-89.999999
0
LINE
5
9b2
100
AcDbEntity
8
1
100
AcDbLine
6
DOT2
62
5
10
60.775000
20
151.875000
11
61.400000
21
151.250000
0
POLYLINE
5
9b3
100
AcDbEntity
8
1
6
DOT2
62
5
100
AcDb2dPolyline
66
1
10
0.0
20
0.0
30
0.0
70
0
0
VERTEX
5
9b4
100
AcDbEntity
8
1
100
AcDbVertex
100
AcDb2dVertex
62
5
10
60.775000
20
151.250000
0
VERTEX
5
9b5
100
AcDbEntity
8
1
100
AcDbVertex
100
AcDb2dVertex
62
5
10
61.400000
20
151.875000
0
VERTEX
5
9b6
100
AcDbEntity
8
1
100
AcDbVertex
100
AcDb2dVertex
62
5
10
61.400000
20
151.250000
0
VERTEX
5
9b7
100
AcDbEntity
8
1
100
AcDbVertex
100
AcDb2dVertex
62
5
10
60.775000
20
151.250000
0
VERTEX
5
9b8
100
AcDbEntity
8
1
100
AcDbVertex
100
AcDb2dVertex
62
5
10
60.775000
20
151.875000
0
VERTEX
5
9b9
100
AcDbEntity
8
1
100
AcDbVertex
100
AcDb2dVertex
62
5
10
61.400000
20
151.875000
0
SEQEND
5
9ba
100
AcDbEntity
8
1
0
POLYLINE
5
9bb
100
AcDbEntity
8
1
6
DOT2
62
5
100
AcDb2dPolyline
66
1
10
0.0
20
0.0
30
0.0
70
0
0
VERTEX
5
9bc
100
AcDbEntity
8
1
100
AcDbVertex
100
AcDb2dVertex
62
5
10
54.837500
20
156.250000
0
VERTEX
5
9bd
100
AcDbEntity
8
1
100
AcDbVertex
100
AcDb2dVertex
62
5
10
53.900000
20
156.250000
0
VERTEX
5
9be
100
AcDbEntity
8
1
100
AcDbVertex
100
AcDb2dVertex
62
5
10
53.900000
20
159.375000
0
VERTEX
5
9bf
100
AcDbEntity
8
1
100
AcDbVertex
100
AcDb2dVertex
62
5
10
54.525000
20
159.375000
0
VERTEX
5
9c0
100
AcDbEntity
8
1
100
AcDbVertex
100
AcDb2dVertex
62
5
10
56.087500
20
158.750000
0
VERTEX
5
9c1
100
AcDbEntity
8
1
100
AcDbVertex
100
AcDb2dVertex
62
5
10
58.275000
20
158.125000
0
VERTEX
5
9c2
100
AcDbEntity
8
1
100
AcDbVertex
100
AcDb2dVertex
62
5
10
61.400000
20
157.500000
0
SEQEND
5
9c3
100
AcDbEntity
8
1
0
POLYLINE
5
9c4
100
AcDbEntity
8
1
6
DOT2
62
5
100
AcDb2dPolyline
66
1
10
0.0
20
0.0
30
0.0
70
0
0
VERTEX
5
9c5
100
AcDbEntity
8
1
100
AcDbVertex
100
AcDb2dVertex
62
5
10
53.900000
20
143.750000
0
VERTEX
5
9c6
100
AcDbEntity
8
1
100
AcDbVertex
100
AcDb2dVertex
62
5
10
59.525000
20
140.937500
0
VERTEX
5
9c7
100
AcDbEntity
8
1
100
AcDbVertex
100
AcDb2dVertex
62
5
10
59.525000
20
144.687500
0
SEQEND
5
9c8
100
AcDbEntity
8
1
0
LINE
5
9c9
100
AcDbEntity
8
1
100
AcDbLine
6
DOT2
62
5
10
53.900000
20
143.750000
11
61.400000
21
143.750000
0
LINE
5
9ca
100
AcDbEntity
8
1
100
AcDbLine
6
DOT2
62
5
10
61.400000
20
143.125000
11
61.400000
21
144.375000
0
LINE
5
9cb
100
AcDbEntity
8
1
100
AcDbLine
6
DOT2
62
5
10
53.900000
20
146.250000
11
53.900000
21
149.062500
0
POLYLINE
5
9cc
100
AcDbEntity
8
1
6
DOT2
62
5
100
AcDb2dPolyline
66
1
10
0.0
20
0.0
30
0.0
70
0
0
VERTEX
5
9cd
100
AcDbEntity
8
1
100
AcDbVertex
100
AcDb2dVertex
62
5
10
53.900000
20
146.250000
0
VERTEX
5
9ce
100
AcDbEntity
8
1
100
AcDbVertex
100
AcDb2dVertex
62
5
10
57.650000
20
146.250000
0
VERTEX
5
9cf
100
AcDbEntity
8
1
100
AcDbVertex
100
AcDb2dVertex
62
5
10
57.025000
20
146.875000
0
VERTEX
5
9d0
100
AcDbEntity
8
1
100
AcDbVertex
100
AcDb2dVertex
62
5
10
56.712500
20
147.500000
0
VERTEX
5
9d1
100
AcDbEntity
8
1
100
AcDbVertex
100
AcDb2dVertex
62
5
10
56.712500
20
148.437500
0
VERTEX
5
9d2
100
AcDbEntity
8
1
100
AcDbVertex
100
AcDb2dVertex
62
5
10
57.025000
20
149.062500
0
VERTEX
5
9d3
100
AcDbEntity
8
1
100
AcDbVertex
100
AcDb2dVertex
62
5
10
57.962500
20
149.375000
0
VERTEX
5
9d4
100
AcDbEntity
8
1
100
AcDbVertex
100
AcDb2dVertex
62
5
10
59.837500
20
149.375000
0
VERTEX
5
9d5
100
AcDbEntity
8
1
100
AcDbVertex
100
AcDb2dVertex
62
5
10
60.775000
20
148.750000
0
VERTEX
5
9d6
100
AcDbEntity
8
1
100
AcDbVertex
100
AcDb2dVertex
62
5
10
61.400000
20
147.812500
0
VERTEX
5
9d7
100
AcDbEntity
8
1
100
AcDbVertex
100
AcDb2dVertex
62
5
10
61.400000
20
146.250000
0
SEQEND
5
9d8
100
AcDbEntity
8
1
0
POLYLINE
5
9d9
100
AcDbEntity
8
1
6
CONTINUOUS
62
5
100
AcDb2dPolyline
66
1
10
0.0
20
0.0
30
0.0
70
0
0
VERTEX
5
9da
100
AcDbEntity
8
1
100
AcDbVertex
100
AcDb2dVertex
62
5
10
142.500000
20
28.250000
0
VERTEX
5
9db
100
AcDbEntity
8
1
100
AcDbVertex
100
AcDb2dVertex
62
5
10
144.062500
20
35.750000
0
VERTEX
5
9dc
100
AcDbEntity
8
1
100
AcDbVertex
100
AcDb2dVertex
62
5
10
145.625000
20
28.250000
0
SEQEND
5
9dd
100
AcDbEntity
8
1
0
LINE
5
9de
100
AcDbEntity
8
1
100
AcDbLine
6
CONTINUOUS
62
5
10
143.125000
20
30.750000
11
145.000000
21
30.750000
0
POLYLINE
5
9df
100
AcDbEntity
8
1
6
CONTINUOUS
62
5
100
AcDb2dPolyline
66
1
10
0.0
20
0.0
30
0.0
70
1
0
VERTEX
5
9e0
100
AcDbEntity
8
1
100
AcDbVertex
100
AcDb2dVertex
62
5
10
123.750000
20
35.750000
0
VERTEX
5
9e1
100
AcDbEntity
8
1
100
AcDbVertex
100
AcDb2dVertex
62
5
10
124.375000
20
35.750000
0
VERTEX
5
9e2
100
AcDbEntity
8
1
100
AcDbVertex
100
AcDb2dVertex
62
5
10
124.687500
20
35.437500
0
VERTEX
5
9e3
100
AcDbEntity
8
1
100
AcDbVertex
100
AcDb2dVertex
62
5
10
125.312500
20
34.187500
0
VERTEX
5
9e4
100
AcDbEntity
8
1
100
AcDbVertex
100
AcDb2dVertex
62
5
10
125.625000
20
32.937500
0
VERTEX
5
9e5
100
AcDbEntity
8
1
100
AcDbVertex
100
AcDb2dVertex
62
5
10
125.625000
20
31.062500
0
VERTEX
5
9e6
100
AcDbEntity
8
1
100
AcDbVertex
100
AcDb2dVertex
62
5
10
125.312500
20
29.812500
0
VERTEX
5
9e7
100
AcDbEntity
8
1
100
AcDbVertex
100
AcDb2dVertex
62
5
10
124.687500
20
28.562500
0
VERTEX
5
9e8
100
AcDbEntity
8
1
100
AcDbVertex
100
AcDb2dVertex
62
5
10
124.375000
20
28.250000
0
VERTEX
5
9e9
100
AcDbEntity
8
1
100
AcDbVertex
100
AcDb2dVertex
62
5
10
123.750000
20
28.250000
0
VERTEX
5
9ea
100
AcDbEntity
8
1
100
AcDbVertex
100
AcDb2dVertex
62
5
10
123.437500
20
28.562500
0
VERTEX
5
9eb
100
AcDbEntity
8
1
100
AcDbVertex
100
AcDb2dVertex
62
5
10
122.812500
20
29.812500
0
VERTEX
5
9ec
100
AcDbEntity
8
1
100
AcDbVertex
100
AcDb2dVertex
62
5
10
122.500000
20
31.062500
0
VERTEX
5
9ed
100
AcDbEntity
8
1
100
AcDbVertex
100
AcDb2dVertex
62
5
10
122.500000
20
32.937500
0
VERTEX
5
9ee
100
AcDbEntity
8
1
100
AcDbVertex
100
AcDb2dVertex
62
5
10
122.812500
20
34.187500
0
VERTEX
5
9ef
100
AcDbEntity
8
1
100
AcDbVertex
100
AcDb2dVertex
62
5
10
123.437500
20
35.437500
0
VERTEX
5
9f0
100
AcDbEntity
8
1
100
AcDbVertex
100
AcDb2dVertex
62
5
10
123.750000
20
35.750000
0
SEQEND
5
9f1
100
AcDbEntity
8
1
0
POLYLINE
5
9f2
100
AcDbEntity
8
1
6
CONTINUOUS
62
5
100
AcDb2dPolyline
66
1
10
0.0
20
0.0
30
0.0
70
1
0
VERTEX
5
9f3
100
AcDbEntity
8
1
100
AcDbVertex
100
AcDb2dVertex
62
5
10
128.750000
20
35.750000
0
VERTEX
5
9f4
100
AcDbEntity
8
1
100
AcDbVertex
100
AcDb2dVertex
62
5
10
129.375000
20
35.750000
0
VERTEX
5
9f5
100
AcDbEntity
8
1
100
AcDbVertex
100
AcDb2dVertex
62
5
10
129.687500
20
35.437500
0
VERTEX
5
9f6
100
AcDbEntity
8
1
100
AcDbVertex
100
AcDb2dVertex
62
5
10
130.312500
20
34.187500
0
VERTEX
5
9f7
100
AcDbEntity
8
1
100
AcDbVertex
100
AcDb2dVertex
62
5
10
130.625000
20
32.937500
0
VERTEX
5
9f8
100
AcDbEntity
8
1
100
AcDbVertex
100
AcDb2dVertex
62
5
10
130.625000
20
31.062500
0
VERTEX
5
9f9
100
AcDbEntity
8
1
100
AcDbVertex
100
AcDb2dVertex
62
5
10
130.312500
20
29.812500
0
VERTEX
5
9fa
100
AcDbEntity
8
1
100
AcDbVertex
100
AcDb2dVertex
62
5
10
129.687500
20
28.562500
0
VERTEX
5
9fb
100
AcDbEntity
8
1
100
AcDbVertex
100
AcDb2dVertex
62
5
10
129.375000
20
28.250000
0
VERTEX
5
9fc
100
AcDbEntity
8
1
100
AcDbVertex
100
AcDb2dVertex
62
5
10
128.750000
20
28.250000
0
VERTEX
5
9fd
100
AcDbEntity
8
1
100
AcDbVertex
100
AcDb2dVertex
62
5
10
128.437500
20
28.562500
0
VERTEX
5
9fe
100
AcDbEntity
8
1
100
AcDbVertex
100
AcDb2dVertex
62
5
10
127.812500
20
29.812500
0
VERTEX
5
9ff
100
AcDbEntity
8
1
100
AcDbVertex
100
AcDb2dVertex
62
5
10
127.500000
20
31.062500
0
VERTEX
5
a00
100
AcDbEntity
8
1
100
AcDbVertex
100
AcDb2dVertex
62
5
10
127.500000
20
32.937500
0
VERTEX
5
a01
100
AcDbEntity
8
1
100
AcDbVertex
100
AcDb2dVertex
62
5
10
127.812500
20
34.187500
0
VERTEX
5
a02
100
AcDbEntity
8
1
100
AcDbVertex
100
AcDb2dVertex
62
5
10
128.437500
20
35.437500
0
VERTEX
5
a03
100
AcDbEntity
8
1
100
AcDbVertex
100
AcDb2dVertex
62
5
10
128.750000
20
35.750000
0
SEQEND
5
a04
100
AcDbEntity
8
1
0
POLYLINE
5
a05
100
AcDbEntity
8
1
6
CONTINUOUS
62
5
100
AcDb2dPolyline
66
1
10
0.0
20
0.0
30
0.0
70
0
0
VERTEX
5
a06
100
AcDbEntity
8
1
100
AcDbVertex
100
AcDb2dVertex
62
5
10
132.500000
20
35.750000
0
VERTEX
5
a07
100
AcDbEntity
8
1
100
AcDbVertex
100
AcDb2dVertex
62
5
10
134.062500
20
28.250000
0
VERTEX
5
a08
100
AcDbEntity
8
1
100
AcDbVertex
100
AcDb2dVertex
62
5
10
135.625000
20
35.750000
0
SEQEND
5
a09
100
AcDbEntity
8
1
0
POLYLINE
5
a0a
100
AcDbEntity
8
1
6
CONTINUOUS
62
5
100
AcDb2dPolyline
66
1
10
0.0
20
0.0
30
0.0
70
0
0
VERTEX
5
a0b
100
AcDbEntity
8
1
100
AcDbVertex
100
AcDb2dVertex
62
5
10
102.500000
20
33.562500
0
VERTEX
5
a0c
100
AcDbEntity
8
1
100
AcDbVertex
100
AcDb2dVertex
62
5
10
102.812500
20
35.125000
0
VERTEX
5
a0d
100
AcDbEntity
8
1
100
AcDbVertex
100
AcDb2dVertex
62
5
10
103.750000
20
35.750000
0
VERTEX
5
a0e
100
AcDbEntity
8
1
100
AcDbVertex
100
AcDb2dVertex
62
5
10
104.687500
20
35.750000
0
VERTEX
5
a0f
100
AcDbEntity
8
1
100
AcDbVertex
100
AcDb2dVertex
62
5
10
105.312500
20
35.437500
0
VERTEX
5
a10
100
AcDbEntity
8
1
100
AcDbVertex
100
AcDb2dVertex
62
5
10
105.625000
20
34.500000
0
VERTEX
5
a11
100
AcDbEntity
8
1
100
AcDbVertex
100
AcDb2dVertex
62
5
10
105.625000
20
33.562500
0
VERTEX
5
a12
100
AcDbEntity
8
1
100
AcDbVertex
100
AcDb2dVertex
62
5
10
105.312500
20
32.625000
0
VERTEX
5
a13
100
AcDbEntity
8
1
100
AcDbVertex
100
AcDb2dVertex
62
5
10
102.500000
20
28.250000
0
VERTEX
5
a14
100
AcDbEntity
8
1
100
AcDbVertex
100
AcDb2dVertex
62
5
10
105.625000
20
28.250000
0
VERTEX
5
a15
100
AcDbEntity
8
1
100
AcDbVertex
100
AcDb2dVertex
62
5
10
105.625000
20
29.187500
0
SEQEND
5
a16
100
AcDbEntity
8
1
0
POLYLINE
5
a17
100
AcDbEntity
8
1
6
CONTINUOUS
62
5
100
AcDb2dPolyline
66
1
10
0.0
20
0.0
30
0.0
70
0
0
VERTEX
5
a18
100
AcDbEntity
8
1
100
AcDbVertex
100
AcDb2dVertex
62
5
10
107.500000
20
28.250000
0
VERTEX
5
a19
100
AcDbEntity
8
1
100
AcDbVertex
100
AcDb2dVertex
62
5
10
109.062500
20
35.750000
0
VERTEX
5
a1a
100
AcDbEntity
8
1
100
AcDbVertex
100
AcDb2dVertex
62
5
10
110.625000
20
28.250000
0
SEQEND
5
a1b
100
AcDbEntity
8
1
0
LINE
5
a1c
100
AcDbEntity
8
1
100
AcDbLine
6
CONTINUOUS
62
5
10
108.125000
20
30.750000
11
110.000000
21
30.750000
0
LINE
5
a1d
100
AcDbEntity
8
1
100
AcDbLine
6
CONTINUOUS
62
5
10
112.500000
20
32.000000
11
115.625000
21
32.000000
0
POLYLINE
5
a1e
100
AcDbEntity
8
1
6
CONTINUOUS
62
5
100
AcDb2dPolyline
66
1
10
0.0
20
0.0
30
0.0
70
0
0
VERTEX
5
a1f
100
AcDbEntity
8
1
100
AcDbVertex
100
AcDb2dVertex
62
5
10
118.125000
20
35.125000
0
VERTEX
5
a20
100
AcDbEntity
8
1
100
AcDbVertex
100
AcDb2dVertex
62
5
10
119.062500
20
35.750000
0
VERTEX
5
a21
100
AcDbEntity
8
1
100
AcDbVertex
100
AcDb2dVertex
62
5
10
119.062500
20
28.250000
0
SEQEND
5
a22
100
AcDbEntity
8
1
0
LINE
5
a23
100
AcDbEntity
8
1
100
AcDbLine
6
CONTINUOUS
62
5
10
118.437500
20
28.250000
11
119.687500
21
28.250000
0
LINE
5
a24
100
AcDbEntity
8
1
100
AcDbLine
6
CONTINUOUS
62
5
10
90.000000
20
44.000000
11
90.000000
21
20.000000
0
LINE
5
a25
100
AcDbEntity
8
1
100
AcDbLine
6
CONTINUOUS
62
5
10
70.625000
20
34.187500
11
73.750000
21
34.187500
0
LINE
5
a26
100
AcDbEntity
8
1
100
AcDbLine
6
CONTINUOUS
62
5
10
72.500000
20
36.375000
11
72.500000
21
27.625000
0
POLYLINE
5
a27
100
AcDbEntity
8
1
6
CONTINUOUS
62
5
100
AcDb2dPolyline
66
1
10
0.0
20
0.0
30
0.0
70
0
0
VERTEX
5
a28
100
AcDbEntity
8
1
100
AcDbVertex
100
AcDb2dVertex
62
5
10
72.500000
20
34.187500
0
VERTEX
5
a29
100
AcDbEntity
8
1
100
AcDbVertex
100
AcDb2dVertex
62
5
10
71.562500
20
32.000000
0
VERTEX
5
a2a
100
AcDbEntity
8
1
100
AcDbVertex
100
AcDb2dVertex
62
5
10
70.625000
20
30.750000
0
SEQEND
5
a2b
100
AcDbEntity
8
1
0
LINE
5
a2c
100
AcDbEntity
8
1
100
AcDbLine
6
CONTINUOUS
62
5
10
72.500000
20
33.250000
11
73.437500
21
32.000000
0
POLYLINE
5
a2d
100
AcDbEntity
8
1
6
CONTINUOUS
62
5
100
AcDb2dPolyline
66
1
10
0.0
20
0.0
30
0.0
70
0
0
VERTEX
5
a2e
100
AcDbEntity
8
1
100
AcDbVertex
100
AcDb2dVertex
62
5
10
75.937500
20
36.375000
0
VERTEX
5
a2f
100
AcDbEntity
8
1
100
AcDbVertex
100
AcDb2dVertex
62
5
10
75.312500
20
35.125000
0
VERTEX
5
a30
100
AcDbEntity
8
1
100
AcDbVertex
100
AcDb2dVertex
62
5
10
73.750000
20
33.250000
0
SEQEND
5
a31
100
AcDbEntity
8
1
0
POLYLINE
5
a32
100
AcDbEntity
8
1
6
CONTINUOUS
62
5
100
AcDb2dPolyline
66
1
10
0.0
20
0.0
30
0.0
70
0
0
VERTEX
5
a33
100
AcDbEntity
8
1
100
AcDbVertex
100
AcDb2dVertex
62
5
10
75.312500
20
35.125000
0
VERTEX
5
a34
100
AcDbEntity
8
1
100
AcDbVertex
100
AcDb2dVertex
62
5
10
78.437500
20
35.125000
0
VERTEX
5
a35
100
AcDbEntity
8
1
100
AcDbVertex
100
AcDb2dVertex
62
5
10
77.500000
20
33.562500
0
VERTEX
5
a36
100
AcDbEntity
8
1
100
AcDbVertex
100
AcDb2dVertex
62
5
10
75.937500
20
32.000000
0
VERTEX
5
a37
100
AcDbEntity
8
1
100
AcDbVertex
100
AcDb2dVertex
62
5
10
73.750000
20
30.750000
0
SEQEND
5
a38
100
AcDbEntity
8
1
0
POLYLINE
5
a39
100
AcDbEntity
8
1
6
CONTINUOUS
62
5
100
AcDb2dPolyline
66
1
10
0.0
20
0.0
30
0.0
70
0
0
VERTEX
5
a3a
100
AcDbEntity
8
1
100
AcDbVertex
100
AcDb2dVertex
62
5
10
75.312500
20
35.125000
0
VERTEX
5
a3b
100
AcDbEntity
8
1
100
AcDbVertex
100
AcDb2dVertex
62
5
10
75.937500
20
33.562500
0
VERTEX
5
a3c
100
AcDbEntity
8
1
100
AcDbVertex
100
AcDb2dVertex
62
5
10
77.187500
20
32.000000
0
VERTEX
5
a3d
100
AcDbEntity
8
1
100
AcDbVertex
100
AcDb2dVertex
62
5
10
78.125000
20
31.375000
0
VERTEX
5
a3e
100
AcDbEntity
8
1
100
AcDbVertex
100
AcDb2dVertex
62
5
10
79.375000
20
30.750000
0
SEQEND
5
a3f
100
AcDbEntity
8
1
0
POLYLINE
5
a40
100
AcDbEntity
8
1
6
CONTINUOUS
62
5
100
AcDb2dPolyline
66
1
10
0.0
20
0.0
30
0.0
70
1
0
VERTEX
5
a41
100
AcDbEntity
8
1
100
AcDbVertex
100
AcDb2dVertex
62
5
10
75.000000
20
30.750000
0
VERTEX
5
a42
100
AcDbEntity
8
1
100
AcDbVertex
100
AcDb2dVertex
62
5
10
75.000000
20
27.937500
0
VERTEX
5
a43
100
AcDbEntity
8
1
100
AcDbVertex
100
AcDb2dVertex
62
5
10
78.437500
20
27.937500
0
VERTEX
5
a44
100
AcDbEntity
8
1
100
AcDbVertex
100
AcDb2dVertex
62
5
10
78.437500
20
30.750000
0
VERTEX
5
a45
100
AcDbEntity
8
1
100
AcDbVertex
100
AcDb2dVertex
62
5
10
75.000000
20
30.750000
0
SEQEND
5
a46
100
AcDbEntity
8
1
0
LINE
5
a47
100
AcDbEntity
8
1
100
AcDbLine
6
CONTINUOUS
62
5
10
54.687500
20
36.375000
11
54.687500
21
35.437500
0
POLYLINE
5
a48
100
AcDbEntity
8
1
6
CONTINUOUS
62
5
100
AcDb2dPolyline
66
1
10
0.0
20
0.0
30
0.0
70
0
0
VERTEX
5
a49
100
AcDbEntity
8
1
100
AcDbVertex
100
AcDb2dVertex
62
5
10
50.937500
20
33.250000
0
VERTEX
5
a4a
100
AcDbEntity
8
1
100
AcDbVertex
100
AcDb2dVertex
62
5
10
50.937500
20
35.437500
0
VERTEX
5
a4b
100
AcDbEntity
8
1
100
AcDbVertex
100
AcDb2dVertex
62
5
10
58.437500
20
35.437500
0
VERTEX
5
a4c
100
AcDbEntity
8
1
100
AcDbVertex
100
AcDb2dVertex
62
5
10
58.437500
20
33.250000
0
SEQEND
5
a4d
100
AcDbEntity
8
1
0
LINE
5
a4e
100
AcDbEntity
8
1
100
AcDbLine
6
CONTINUOUS
62
5
10
51.875000
20
33.562500
11
57.500000
21
33.562500
0
LINE
5
a4f
100
AcDbEntity
8
1
100
AcDbLine
6
CONTINUOUS
62
5
10
54.687500
20
33.562500
11
54.687500
21
28.250000
0
LINE
5
a50
100
AcDbEntity
8
1
100
AcDbLine
6
CONTINUOUS
62
5
10
54.687500
20
31.062500
11
57.500000
21
31.062500
0
POLYLINE
5
a51
100
AcDbEntity
8
1
6
CONTINUOUS
62
5
100
AcDb2dPolyline
66
1
10
0.0
20
0.0
30
0.0
70
0
0
VERTEX
5
a52
100
AcDbEntity
8
1
100
AcDbVertex
100
AcDb2dVertex
62
5
10
52.500000
20
31.687500
0
VERTEX
5
a53
100
AcDbEntity
8
1
100
AcDbVertex
100
AcDb2dVertex
62
5
10
52.187500
20
29.812500
0
VERTEX
5
a54
100
AcDbEntity
8
1
100
AcDbVertex
100
AcDb2dVertex
62
5
10
51.562500
20
28.562500
0
VERTEX
5
a55
100
AcDbEntity
8
1
100
AcDbVertex
100
AcDb2dVertex
62
5
10
50.625000
20
27.625000
0
SEQEND
5
a56
100
AcDbEntity
8
1
0
POLYLINE
5
a57
100
AcDbEntity
8
1
6
CONTINUOUS
62
5
100
AcDb2dPolyline
66
1
10
0.0
20
0.0
30
0.0
70
0
0
VERTEX
5
a58
100
AcDbEntity
8
1
100
AcDbVertex
100
AcDb2dVertex
62
5
10
52.187500
20
29.812500
0
VERTEX
5
a59
100
AcDbEntity
8
1
100
AcDbVertex
100
AcDb2dVertex
62
5
10
54.687500
20
28.250000
0
VERTEX
5
a5a
100
AcDbEntity
8
1
100
AcDbVertex
100
AcDb2dVertex
62
5
10
55.937500
20
27.937500
0
VERTEX
5
a5b
100
AcDbEntity
8
1
100
AcDbVertex
100
AcDb2dVertex
62
5
10
59.062500
20
27.625000
0
SEQEND
5
a5c
100
AcDbEntity
8
1
0
POLYLINE
5
a5d
100
AcDbEntity
8
1
6
CONTINUOUS
62
5
100
AcDb2dPolyline
66
1
10
0.0
20
0.0
30
0.0
70
0
0
VERTEX
5
a5e
100
AcDbEntity
8
1
100
AcDbVertex
100
AcDb2dVertex
62
5
10
150.625000
20
34.187500
0
VERTEX
5
a5f
100
AcDbEntity
8
1
100
AcDbVertex
100
AcDb2dVertex
62
5
10
150.312500
20
35.125000
0
VERTEX
5
a60
100
AcDbEntity
8
1
100
AcDbVertex
100
AcDb2dVertex
62
5
10
149.687500
20
35.750000
0
VERTEX
5
a61
100
AcDbEntity
8
1
100
AcDbVertex
100
AcDb2dVertex
62
5
10
148.750000
20
35.750000
0
VERTEX
5
a62
100
AcDbEntity
8
1
100
AcDbVertex
100
AcDb2dVertex
62
5
10
147.812500
20
34.812500
0
VERTEX
5
a63
100
AcDbEntity
8
1
100
AcDbVertex
100
AcDb2dVertex
62
5
10
147.500000
20
33.250000
0
VERTEX
5
a64
100
AcDbEntity
8
1
100
AcDbVertex
100
AcDb2dVertex
62
5
10
147.500000
20
30.750000
0
VERTEX
5
a65
100
AcDbEntity
8
1
100
AcDbVertex
100
AcDb2dVertex
62
5
10
147.812500
20
29.187500
0
VERTEX
5
a66
100
AcDbEntity
8
1
100
AcDbVertex
100
AcDb2dVertex
62
5
10
148.750000
20
28.250000
0
VERTEX
5
a67
100
AcDbEntity
8
1
100
AcDbVertex
100
AcDb2dVertex
62
5
10
149.687500
20
28.250000
0
VERTEX
5
a68
100
AcDbEntity
8
1
100
AcDbVertex
100
AcDb2dVertex
62
5
10
150.312500
20
28.875000
0
VERTEX
5
a69
100
AcDbEntity
8
1
100
AcDbVertex
100
AcDb2dVertex
62
5
10
150.937500
20
30.437500
0
SEQEND
5
a6a
100
AcDbEntity
8
1
0
POLYLINE
5
a6b
100
AcDbEntity
8
1
6
CONTINUOUS
62
5
100
AcDb2dPolyline
66
1
10
0.0
20
0.0
30
0.0
70
1
0
VERTEX
5
a6c
100
AcDbEntity
8
1
100
AcDbVertex
100
AcDb2dVertex
62
5
10
280.000000
20
20.000000
0
VERTEX
5
a6d
100
AcDbEntity
8
1
100
AcDbVertex
100
AcDb2dVertex
62
5
10
280.000000
20
44.000000
0
VERTEX
5
a6e
100
AcDbEntity
8
1
100
AcDbVertex
100
AcDb2dVertex
62
5
10
40.000000
20
44.000000
0
VERTEX
5
a6f
100
AcDbEntity
8
1
100
AcDbVertex
100
AcDb2dVertex
62
5
10
40.000000
20
20.000000
0
VERTEX
5
a70
100
AcDbEntity
8
1
100
AcDbVertex
100
AcDb2dVertex
62
5
10
280.000000
20
20.000000
0
SEQEND
5
a71
100
AcDbEntity
8
1
0
LINE
5
a72
100
AcDbEntity
8
1
100
AcDbLine
6
CONTINUOUS
62
5
10
40.000000
20
340.000000
11
40.000000
21
308.000000
0
LINE
5
a73
100
AcDbEntity
8
1
100
AcDbLine
6
CONTINUOUS
62
5
10
0.000000
20
308.000000
11
320.000000
21
308.000000
0
LINE
5
a74
100
AcDbEntity
8
1
100
AcDbLine
6
CONTINUOUS
62
5
10
201.650000
20
158.000000
11
201.650000
21
165.000000
0
POLYLINE
5
a75
100
AcDbEntity
8
1
6
CONTINUOUS
62
5
100
AcDb2dPolyline
66
1
10
0.0
20
0.0
30
0.0
70
0
0
VERTEX
5
a76
100
AcDbEntity
8
1
100
AcDbVertex
100
AcDb2dVertex
62
5
10
203.050000
20
165.000000
0
VERTEX
5
a77
100
AcDbEntity
8
1
100
AcDbVertex
100
AcDb2dVertex
62
5
10
201.450000
20
165.000000
0
VERTEX
5
a78
100
AcDbEntity
8
1
100
AcDbVertex
100
AcDb2dVertex
62
5
10
201.450000
20
158.000000
0
VERTEX
5
a79
100
AcDbEntity
8
1
100
AcDbVertex
100
AcDb2dVertex
62
5
10
203.050000
20
158.000000
0
SEQEND
5
a7a
100
AcDbEntity
8
1
0
LINE
5
a7b
100
AcDbEntity
8
1
100
AcDbLine
6
CONTINUOUS
62
5
10
230.250000
20
148.828188
11
230.250000
21
163.971812
0
ARC
5
a7c
100
AcDbEntity
8
1
100
AcDbCircle
6
CONTINUOUS
62
5
10
218.450000
20
162.813333
40
1.000000
100
AcDbArc
50
90.769024
51
179.999998
0
LINE
5
a7d
100
AcDbEntity
8
1
100
AcDbLine
6
CONTINUOUS
62
5
10
218.436578
20
163.813243
11
231.363422
21
163.986757
0
ARC
5
a7e
100
AcDbEntity
8
1
100
AcDbCircle
6
CONTINUOUS
62
5
10
231.350000
20
164.986667
40
1.000000
100
AcDbArc
50
-89.230975
51
-0.000000
0
LINE
5
a7f
100
AcDbEntity
8
1
100
AcDbLine
6
CONTINUOUS
62
5
10
232.350000
20
164.986667
11
232.350000
21
165.000000
0
LINE
5
a80
100
AcDbEntity
8
1
100
AcDbLine
6
CONTINUOUS
62
5
10
232.350000
20
147.800000
11
232.350000
21
147.813333
0
ARC
5
a81
100
AcDbEntity
8
1
100
AcDbCircle
6
CONTINUOUS
62
5
10
231.350000
20
147.813333
40
1.000000
100
AcDbArc
50
0.000000
51
89.230975
0
LINE
5
a82
100
AcDbEntity
8
1
100
AcDbLine
6
CONTINUOUS
62
5
10
231.363422
20
148.813243
11
218.436578
21
148.986757
0
ARC
5
a83
100
AcDbEntity
8
1
100
AcDbCircle
6
CONTINUOUS
62
5
10
218.450000
20
149.986667
40
1.000000
100
AcDbArc
50
179.999998
51
-90.769024
0
LINE
5
a84
100
AcDbEntity
8
1
100
AcDbLine
6
CONTINUOUS
62
5
10
217.450000
20
149.986667
11
217.450000
21
162.813333
0
ARC
5
a85
100
AcDbEntity
8
1
100
AcDbCircle
6
CONTINUOUS
62
5
10
192.350000
20
159.610380
40
0.500000
100
AcDbArc
50
179.999998
51
-108.434948
0
LINE
5
a86
100
AcDbEntity
8
1
100
AcDbLine
6
CONTINUOUS
62
5
10
192.191886
20
159.136038
11
194.850000
21
158.250000
0
LINE
5
a87
100
AcDbEntity
8
1
100
AcDbLine
6
CONTINUOUS
62
5
10
194.850000
20
167.050000
11
192.191886
21
166.163962
0
ARC
5
a88
100
AcDbEntity
8
1
100
AcDbCircle
6
CONTINUOUS
62
5
10
192.350000
20
165.689620
40
0.500000
100
AcDbArc
50
108.434950
51
179.999998
0
LINE
5
a89
100
AcDbEntity
8
1
100
AcDbLine
6
CONTINUOUS
62
5
10
191.850000
20
165.689620
11
191.850000
21
159.610380
0
ARC
5
a8a
100
AcDbEntity
8
1
100
AcDbCircle
6
CONTINUOUS
62
5
10
193.850000
20
160.850000
40
0.500000
100
AcDbArc
50
89.999999
51
179.999998
0
LINE
5
a8b
100
AcDbEntity
8
1
100
AcDbLine
6
CONTINUOUS
62
5
10
193.350000
20
160.850000
11
193.350000
21
160.850000
0
ARC
5
a8c
100
AcDbEntity
8
1
100
AcDbCircle
6
CONTINUOUS
62
5
10
193.850000
20
160.850000
40
0.500000
100
AcDbArc
50
179.999998
51
-89.999999
0
POLYLINE
5
a8d
100
AcDbEntity
8
1
6
CONTINUOUS
62
5
100
AcDb2dPolyline
66
1
10
0.0
20
0.0
30
0.0
70
0
0
VERTEX
5
a8e
100
AcDbEntity
8
1
100
AcDbVertex
100
AcDb2dVertex
62
5
10
193.850000
20
160.350000
0
VERTEX
5
a8f
100
AcDbEntity
8
1
100
AcDbVertex
100
AcDb2dVertex
62
5
10
194.850000
20
160.350000
0
VERTEX
5
a90
100
AcDbEntity
8
1
100
AcDbVertex
100
AcDb2dVertex
62
5
10
194.850000
20
158.250000
0
SEQEND
5
a91
100
AcDbEntity
8
1
0
POLYLINE
5
a92
100
AcDbEntity
8
1
6
CONTINUOUS
62
5
100
AcDb2dPolyline
66
1
10
0.0
20
0.0
30
0.0
70
0
0
VERTEX
5
a93
100
AcDbEntity
8
1
100
AcDbVertex
100
AcDb2dVertex
62
5
10
194.850000
20
167.050000
0
VERTEX
5
a94
100
AcDbEntity
8
1
100
AcDbVertex
100
AcDb2dVertex
62
5
10
194.850000
20
164.950000
0
VERTEX
5
a95
100
AcDbEntity
8
1
100
AcDbVertex
100
AcDb2dVertex
62
5
10
193.850000
20
164.950000
0
SEQEND
5
a96
100
AcDbEntity
8
1
0
ARC
5
a97
100
AcDbEntity
8
1
100
AcDbCircle
6
CONTINUOUS
62
5
10
193.850000
20
164.450000
40
0.500000
100
AcDbArc
50
89.999999
51
179.999998
0
LINE
5
a98
100
AcDbEntity
8
1
100
AcDbLine
6
CONTINUOUS
62
5
10
193.350000
20
164.450000
11
193.350000
21
164.450000
0
ARC
5
a99
100
AcDbEntity
8
1
100
AcDbCircle
6
CONTINUOUS
62
5
10
193.850000
20
164.450000
40
0.500000
100
AcDbArc
50
179.999998
51
-89.999999
0
LINE
5
a9a
100
AcDbEntity
8
1
100
AcDbLine
6
CONTINUOUS
62
5
10
193.850000
20
163.950000
11
194.850000
21
163.950000
0
LINE
5
a9b
100
AcDbEntity
8
1
100
AcDbLine
6
CONTINUOUS
62
5
10
194.850000
20
161.350000
11
193.850000
21
161.350000
0
ARC
5
a9c
100
AcDbEntity
8
1
100
AcDbCircle
6
CONTINUOUS
62
5
10
191.350000
20
166.299786
40
0.500000
100
AcDbArc
50
109.983108
51
-179.999998
0
LINE
5
a9d
100
AcDbEntity
8
1
100
AcDbLine
6
CONTINUOUS
62
5
10
191.179129
20
166.769683
11
194.150000
21
167.850000
0
LINE
5
a9e
100
AcDbEntity
8
1
100
AcDbLine
6
CONTINUOUS
62
5
10
194.150000
20
157.450000
11
191.179129
21
158.530317
0
ARC
5
a9f
100
AcDbEntity
8
1
100
AcDbCircle
6
CONTINUOUS
62
5
10
191.350000
20
159.000214
40
0.500000
100
AcDbArc
50
-179.999998
51
-109.983106
0
LINE
5
aa0
100
AcDbEntity
8
1
100
AcDbLine
6
CONTINUOUS
62
5
10
190.850000
20
159.000214
11
190.850000
21
166.299786
0
ARC
5
aa1
100
AcDbEntity
8
1
100
AcDbCircle
6
CONTINUOUS
62
5
10
200.550000
20
166.800000
40
0.700000
100
AcDbArc
50
89.999999
51
179.999998
0
LINE
5
aa2
100
AcDbEntity
8
1
100
AcDbLine
6
CONTINUOUS
62
5
10
200.550000
20
167.500000
11
203.050000
21
167.500000
0
LINE
5
aa3
100
AcDbEntity
8
1
100
AcDbLine
6
CONTINUOUS
62
5
10
203.050000
20
155.500000
11
200.550000
21
155.500000
0
ARC
5
aa4
100
AcDbEntity
8
1
100
AcDbCircle
6
CONTINUOUS
62
5
10
200.550000
20
156.200000
40
0.700000
100
AcDbArc
50
179.999998
51
-89.999999
0
LINE
5
aa5
100
AcDbEntity
8
1
100
AcDbLine
6
CONTINUOUS
62
5
10
199.850000
20
156.200000
11
199.850000
21
166.800000
0
LINE
5
aa6
100
AcDbEntity
8
1
100
AcDbLine
6
CONTINUOUS
62
5
10
130.550000
20
166.500000
11
130.550000
21
156.500000
0
LINE
5
aa7
100
AcDbEntity
8
1
100
AcDbLine
6
CONTINUOUS
62
5
10
131.100000
20
156.197494
11
131.100000
21
166.802506
0
ARC
5
aa8
100
AcDbEntity
8
1
100
AcDbCircle
6
CONTINUOUS
62
5
10
122.300000
20
160.850000
40
0.500000
100
AcDbArc
50
0.000000
51
89.999996
0
LINE
5
aa9
100
AcDbEntity
8
1
100
AcDbLine
6
CONTINUOUS
62
5
10
122.300000
20
161.350000
11
121.900000
21
161.350000
0
POLYLINE
5
aaa
100
AcDbEntity
8
1
6
CONTINUOUS
62
5
100
AcDb2dPolyline
66
1
10
0.0
20
0.0
30
0.0
70
0
0
VERTEX
5
aab
100
AcDbEntity
8
1
100
AcDbVertex
100
AcDb2dVertex
62
5
10
123.000000
20
157.450000
0
VERTEX
5
aac
100
AcDbEntity
8
1
100
AcDbVertex
100
AcDb2dVertex
62
5
10
122.800000
20
158.650000
0
VERTEX
5
aad
100
AcDbEntity
8
1
100
AcDbVertex
100
AcDb2dVertex
62
5
10
122.800000
20
160.850000
0
SEQEND
5
aae
100
AcDbEntity
8
1
0
ARC
5
aaf
100
AcDbEntity
8
1
100
AcDbCircle
6
CONTINUOUS
62
5
10
124.800000
20
166.800000
40
0.700000
100
AcDbArc
50
0.000000
51
89.999999
0
LINE
5
ab0
100
AcDbEntity
8
1
100
AcDbLine
6
CONTINUOUS
62
5
10
125.500000
20
166.800000
11
125.500000
21
156.200000
0
ARC
5
ab1
100
AcDbEntity
8
1
100
AcDbCircle
6
CONTINUOUS
62
5
10
124.800000
20
156.200000
40
0.700000
100
AcDbArc
50
-89.999999
51
0.000000
0
LINE
5
ab2
100
AcDbEntity
8
1
100
AcDbLine
6
CONTINUOUS
62
5
10
124.800000
20
155.500000
11
123.600000
21
155.500000
0
LINE
5
ab3
100
AcDbEntity
8
1
100
AcDbLine
6
CONTINUOUS
62
5
10
123.600000
20
167.500000
11
124.800000
21
167.500000
0
POLYLINE
5
ab4
100
AcDbEntity
8
1
6
CONTINUOUS
62
5
100
AcDb2dPolyline
66
1
10
0.0
20
0.0
30
0.0
70
0
0
VERTEX
5
ab5
100
AcDbEntity
8
1
100
AcDbVertex
100
AcDb2dVertex
62
5
10
102.600000
20
155.550000
0
VERTEX
5
ab6
100
AcDbEntity
8
1
100
AcDbVertex
100
AcDb2dVertex
62
5
10
102.600000
20
166.850000
0
VERTEX
5
ab7
100
AcDbEntity
8
1
100
AcDbVertex
100
AcDb2dVertex
62
5
10
116.600000
20
166.850000
0
VERTEX
5
ab8
100
AcDbEntity
8
1
100
AcDbVertex
100
AcDb2dVertex
62
5
10
116.600000
20
155.550000
0
SEQEND
5
ab9
100
AcDbEntity
8
1
0
LINE
5
aba
100
AcDbEntity
8
1
100
AcDbLine
6
CONTINUOUS
62
5
10
88.100000
20
156.197494
11
88.100000
21
166.802506
0
LINE
5
abb
100
AcDbEntity
8
1
100
AcDbLine
6
CONTINUOUS
62
5
10
88.650000
20
166.500000
11
88.650000
21
156.500000
0
ARC
5
abc
100
AcDbEntity
8
1
100
AcDbCircle
6
CONTINUOUS
62
5
10
94.400000
20
166.800000
40
0.700000
100
AcDbArc
50
89.999999
51
179.999998
0
LINE
5
abd
100
AcDbEntity
8
1
100
AcDbLine
6
CONTINUOUS
62
5
10
93.700000
20
166.800000
11
93.700000
21
156.200000
0
ARC
5
abe
100
AcDbEntity
8
1
100
AcDbCircle
6
CONTINUOUS
62
5
10
94.400000
20
156.200000
40
0.700000
100
AcDbArc
50
179.999998
51
-89.999999
0
LINE
5
abf
100
AcDbEntity
8
1
100
AcDbLine
6
CONTINUOUS
62
5
10
94.400000
20
155.500000
11
95.600000
21
155.500000
0
LINE
5
ac0
100
AcDbEntity
8
1
100
AcDbLine
6
CONTINUOUS
62
5
10
95.600000
20
167.500000
11
94.400000
21
167.500000
0
POLYLINE
5
ac1
100
AcDbEntity
8
1
6
CONTINUOUS
62
5
100
AcDb2dPolyline
66
1
10
0.0
20
0.0
30
0.0
70
0
0
VERTEX
5
ac2
100
AcDbEntity
8
1
100
AcDbVertex
100
AcDb2dVertex
62
5
10
122.800000
20
158.650000
0
VERTEX
5
ac3
100
AcDbEntity
8
1
100
AcDbVertex
100
AcDb2dVertex
62
5
10
119.939131
20
158.650000
0
VERTEX
5
ac4
100
AcDbEntity
8
1
100
AcDbVertex
100
AcDb2dVertex
62
5
10
119.939131
20
166.650000
0
VERTEX
5
ac5
100
AcDbEntity
8
1
100
AcDbVertex
100
AcDb2dVertex
62
5
10
122.800000
20
166.650000
0
SEQEND
5
ac6
100
AcDbEntity
8
1
0
POLYLINE
5
ac7
100
AcDbEntity
8
1
6
CONTINUOUS
62
5
100
AcDb2dPolyline
66
1
10
0.0
20
0.0
30
0.0
70
0
0
VERTEX
5
ac8
100
AcDbEntity
8
1
100
AcDbVertex
100
AcDb2dVertex
62
5
10
123.000000
20
157.450000
0
VERTEX
5
ac9
100
AcDbEntity
8
1
100
AcDbVertex
100
AcDb2dVertex
62
5
10
119.939131
20
158.650000
0
VERTEX
5
aca
100
AcDbEntity
8
1
100
AcDbVertex
100
AcDb2dVertex
62
5
10
119.939131
20
166.650000
0
VERTEX
5
acb
100
AcDbEntity
8
1
100
AcDbVertex
100
AcDb2dVertex
62
5
10
123.000000
20
167.850000
0
SEQEND
5
acc
100
AcDbEntity
8
1
0
LINE
5
acd
100
AcDbEntity
8
1
100
AcDbLine
6
CONTINUOUS
62
5
10
88.150000
20
172.850000
11
60.650000
21
172.850000
0
LINE
5
ace
100
AcDbEntity
8
1
100
AcDbLine
6
CONTINUOUS
62
5
10
88.150000
20
127.150000
11
60.650000
21
127.150000
0
POLYLINE
5
acf
100
AcDbEntity
8
1
6
CONTINUOUS
62
5
100
AcDb2dPolyline
66
1
10
0.0
20
0.0
30
0.0
70
0
0
VERTEX
5
ad0
100
AcDbEntity
8
1
100
AcDbVertex
100
AcDb2dVertex
62
5
10
62.650000
20
150.000000
0
VERTEX
5
ad1
100
AcDbEntity
8
1
100
AcDbVertex
100
AcDb2dVertex
62
5
10
62.650000
20
127.150000
0
VERTEX
5
ad2
100
AcDbEntity
8
1
100
AcDbVertex
100
AcDb2dVertex
62
5
10
61.650000
20
133.150000
0
VERTEX
5
ad3
100
AcDbEntity
8
1
100
AcDbVertex
100
AcDb2dVertex
62
5
10
63.650000
20
133.150000
0
VERTEX
5
ad4
100
AcDbEntity
8
1
100
AcDbVertex
100
AcDb2dVertex
62
5
10
62.650000
20
127.150000
0
VERTEX
5
ad5
100
AcDbEntity
8
1
100
AcDbVertex
100
AcDb2dVertex
62
5
10
62.150000
20
133.150000
0
VERTEX
5
ad6
100
AcDbEntity
8
1
100
AcDbVertex
100
AcDb2dVertex
62
5
10
63.150000
20
133.150000
0
VERTEX
5
ad7
100
AcDbEntity
8
1
100
AcDbVertex
100
AcDb2dVertex
62
5
10
62.650000
20
127.150000
0
SEQEND
5
ad8
100
AcDbEntity
8
1
0
POLYLINE
5
ad9
100
AcDbEntity
8
1
6
CONTINUOUS
62
5
100
AcDb2dPolyline
66
1
10
0.0
20
0.0
30
0.0
70
0
0
VERTEX
5
ada
100
AcDbEntity
8
1
100
AcDbVertex
100
AcDb2dVertex
62
5
10
62.650000
20
150.000000
0
VERTEX
5
adb
100
AcDbEntity
8
1
100
AcDbVertex
100
AcDb2dVertex
62
5
10
62.650000
20
172.850000
0
VERTEX
5
adc
100
AcDbEntity
8
1
100
AcDbVertex
100
AcDb2dVertex
62
5
10
63.650000
20
166.850000
0
VERTEX
5
add
100
AcDbEntity
8
1
100
AcDbVertex
100
AcDb2dVertex
62
5
10
61.650000
20
166.850000
0
VERTEX
5
ade
100
AcDbEntity
8
1
100
AcDbVertex
100
AcDb2dVertex
62
5
10
62.650000
20
172.850000
0
VERTEX
5
adf
100
AcDbEntity
8
1
100
AcDbVertex
100
AcDb2dVertex
62
5
10
63.150000
20
166.850000
0
VERTEX
5
ae0
100
AcDbEntity
8
1
100
AcDbVertex
100
AcDb2dVertex
62
5
10
62.150000
20
166.850000
0
VERTEX
5
ae1
100
AcDbEntity
8
1
100
AcDbVertex
100
AcDb2dVertex
62
5
10
62.650000
20
172.850000
0
SEQEND
5
ae2
100
AcDbEntity
8
1
0
LINE
5
ae3
100
AcDbEntity
8
1
100
AcDbLine
6
CONTINUOUS
62
5
10
203.050000
20
173.850000
11
203.050000
21
199.900000
0
LINE
5
ae4
100
AcDbEntity
8
1
100
AcDbLine
6
CONTINUOUS
62
5
10
186.550000
20
155.832923
11
186.550000
21
199.900000
0
POLYLINE
5
ae5
100
AcDbEntity
8
1
6
CONTINUOUS
62
5
100
AcDb2dPolyline
66
1
10
0.0
20
0.0
30
0.0
70
0
0
VERTEX
5
ae6
100
AcDbEntity
8
1
100
AcDbVertex
100
AcDb2dVertex
62
5
10
155.300000
20
197.900000
0
VERTEX
5
ae7
100
AcDbEntity
8
1
100
AcDbVertex
100
AcDb2dVertex
62
5
10
186.550000
20
197.900000
0
VERTEX
5
ae8
100
AcDbEntity
8
1
100
AcDbVertex
100
AcDb2dVertex
62
5
10
180.550000
20
196.900000
0
VERTEX
5
ae9
100
AcDbEntity
8
1
100
AcDbVertex
100
AcDb2dVertex
62
5
10
180.550000
20
198.900000
0
VERTEX
5
aea
100
AcDbEntity
8
1
100
AcDbVertex
100
AcDb2dVertex
62
5
10
186.550000
20
197.900000
0
VERTEX
5
aeb
100
AcDbEntity
8
1
100
AcDbVertex
100
AcDb2dVertex
62
5
10
180.550000
20
197.400000
0
VERTEX
5
aec
100
AcDbEntity
8
1
100
AcDbVertex
100
AcDb2dVertex
62
5
10
180.550000
20
198.400000
0
VERTEX
5
aed
100
AcDbEntity
8
1
100
AcDbVertex
100
AcDb2dVertex
62
5
10
186.550000
20
197.900000
0
SEQEND
5
aee
100
AcDbEntity
8
1
0
LINE
5
aef
100
AcDbEntity
8
1
100
AcDbLine
6
CONTINUOUS
62
5
10
186.550000
20
197.900000
11
203.050000
21
197.900000
0
LINE
5
af0
100
AcDbEntity
8
1
100
AcDbLine
6
CONTINUOUS
62
5
10
208.050000
20
197.900000
11
203.050000
21
197.900000
0
POLYLINE
5
af1
100
AcDbEntity
8
1
6
CONTINUOUS
62
5
100
AcDb2dPolyline
66
1
10
0.0
20
0.0
30
0.0
70
0
0
VERTEX
5
af2
100
AcDbEntity
8
1
100
AcDbVertex
100
AcDb2dVertex
62
5
10
202.050000
20
197.400000
0
VERTEX
5
af3
100
AcDbEntity
8
1
100
AcDbVertex
100
AcDb2dVertex
62
5
10
202.050000
20
198.400000
0
VERTEX
5
af4
100
AcDbEntity
8
1
100
AcDbVertex
100
AcDb2dVertex
62
5
10
202.550000
20
198.900000
0
VERTEX
5
af5
100
AcDbEntity
8
1
100
AcDbVertex
100
AcDb2dVertex
62
5
10
203.550000
20
198.900000
0
VERTEX
5
af6
100
AcDbEntity
8
1
100
AcDbVertex
100
AcDb2dVertex
62
5
10
204.050000
20
198.400000
0
VERTEX
5
af7
100
AcDbEntity
8
1
100
AcDbVertex
100
AcDb2dVertex
62
5
10
204.050000
20
197.400000
0
VERTEX
5
af8
100
AcDbEntity
8
1
100
AcDbVertex
100
AcDb2dVertex
62
5
10
203.550000
20
196.900000
0
VERTEX
5
af9
100
AcDbEntity
8
1
100
AcDbVertex
100
AcDb2dVertex
62
5
10
202.550000
20
196.900000
0
VERTEX
5
afa
100
AcDbEntity
8
1
100
AcDbVertex
100
AcDb2dVertex
62
5
10
202.050000
20
197.400000
0
VERTEX
5
afb
100
AcDbEntity
8
1
100
AcDbVertex
100
AcDb2dVertex
62
5
10
204.050000
20
198.400000
0
SEQEND
5
afc
100
AcDbEntity
8
1
0
LINE
5
afd
100
AcDbEntity
8
1
100
AcDbLine
6
CONTINUOUS
62
5
10
204.050000
20
197.400000
11
202.050000
21
198.400000
0
LINE
5
afe
100
AcDbEntity
8
1
100
AcDbLine
6
CONTINUOUS
62
5
10
202.550000
20
198.900000
11
203.550000
21
196.900000
0
LINE
5
aff
100
AcDbEntity
8
1
100
AcDbLine
6
CONTINUOUS
62
5
10
202.550000
20
196.900000
11
203.550000
21
198.900000
0
ARC
5
b00
100
AcDbEntity
8
1
100
AcDbCircle
6
CONTINUOUS
62
5
10
194.324894
20
171.850000
40
0.500000
100
AcDbArc
50
89.999999
51
128.558399
0
LINE
5
b01
100
AcDbEntity
8
1
100
AcDbLine
6
CONTINUOUS
62
5
10
194.013238
20
172.240987
11
189.133440
21
168.351293
0
ARC
5
b02
100
AcDbEntity
8
1
100
AcDbCircle
6
CONTINUOUS
62
5
10
192.250000
20
164.441427
40
5.000000
100
AcDbArc
50
128.558399
51
179.999996
0
LINE
5
b03
100
AcDbEntity
8
1
100
AcDbLine
6
CONTINUOUS
62
5
10
187.250000
20
164.441427
11
187.250000
21
156.043464
0
ARC
5
b04
100
AcDbEntity
8
1
100
AcDbCircle
6
CONTINUOUS
62
5
10
187.750000
20
156.043464
40
0.500000
100
AcDbArc
50
179.999997
51
-90.753848
0
POLYLINE
5
b05
100
AcDbEntity
8
1
6
CONTINUOUS
62
5
100
AcDb2dPolyline
66
1
10
0.0
20
0.0
30
0.0
70
0
0
VERTEX
5
b06
100
AcDbEntity
8
1
100
AcDbVertex
100
AcDb2dVertex
62
5
10
187.743421
20
155.543508
0
VERTEX
5
b07
100
AcDbEntity
8
1
100
AcDbVertex
100
AcDb2dVertex
62
5
10
194.850000
20
155.450000
0
VERTEX
5
b08
100
AcDbEntity
8
1
100
AcDbVertex
100
AcDb2dVertex
62
5
10
194.850000
20
172.350000
0
SEQEND
5
b09
100
AcDbEntity
8
1
0
LINE
5
b0a
100
AcDbEntity
8
1
100
AcDbLine
6
CONTINUOUS
62
5
10
194.850000
20
172.350000
11
194.324894
21
172.350000
0
ARC
5
b0b
100
AcDbEntity
8
1
100
AcDbCircle
6
CONTINUOUS
62
5
10
122.500000
20
155.950000
40
0.500000
100
AcDbArc
50
-89.999999
51
0.000000
0
POLYLINE
5
b0c
100
AcDbEntity
8
1
6
CONTINUOUS
62
5
100
AcDb2dPolyline
66
1
10
0.0
20
0.0
30
0.0
70
0
0
VERTEX
5
b0d
100
AcDbEntity
8
1
100
AcDbVertex
100
AcDb2dVertex
62
5
10
123.000000
20
155.950000
0
VERTEX
5
b0e
100
AcDbEntity
8
1
100
AcDbVertex
100
AcDb2dVertex
62
5
10
123.000000
20
157.450000
0
VERTEX
5
b0f
100
AcDbEntity
8
1
100
AcDbVertex
100
AcDb2dVertex
62
5
10
122.999993
20
158.250000
0
VERTEX
5
b10
100
AcDbEntity
8
1
100
AcDbVertex
100
AcDb2dVertex
62
5
10
122.857441
20
159.250000
0
VERTEX
5
b11
100
AcDbEntity
8
1
100
AcDbVertex
100
AcDb2dVertex
62
5
10
122.857441
20
160.850000
0
SEQEND
5
b12
100
AcDbEntity
8
1
0
ARC
5
b13
100
AcDbEntity
8
1
100
AcDbCircle
6
CONTINUOUS
62
5
10
122.357441
20
160.850000
40
0.500000
100
AcDbArc
50
0.000000
51
89.999999
0
POLYLINE
5
b14
100
AcDbEntity
8
1
6
CONTINUOUS
62
5
100
AcDb2dPolyline
66
1
10
0.0
20
0.0
30
0.0
70
0
0
VERTEX
5
b15
100
AcDbEntity
8
1
100
AcDbVertex
100
AcDb2dVertex
62
5
10
122.357441
20
161.350000
0
VERTEX
5
b16
100
AcDbEntity
8
1
100
AcDbVertex
100
AcDb2dVertex
62
5
10
121.900000
20
161.350000
0
VERTEX
5
b17
100
AcDbEntity
8
1
100
AcDbVertex
100
AcDb2dVertex
62
5
10
121.900000
20
163.950000
0
VERTEX
5
b18
100
AcDbEntity
8
1
100
AcDbVertex
100
AcDb2dVertex
62
5
10
122.357441
20
163.950000
0
SEQEND
5
b19
100
AcDbEntity
8
1
0
ARC
5
b1a
100
AcDbEntity
8
1
100
AcDbCircle
6
CONTINUOUS
62
5
10
122.357441
20
164.450000
40
0.500000
100
AcDbArc
50
-89.999999
51
0.000000
0
POLYLINE
5
b1b
100
AcDbEntity
8
1
6
CONTINUOUS
62
5
100
AcDb2dPolyline
66
1
10
0.0
20
0.0
30
0.0
70
0
0
VERTEX
5
b1c
100
AcDbEntity
8
1
100
AcDbVertex
100
AcDb2dVertex
62
5
10
122.857441
20
164.450000
0
VERTEX
5
b1d
100
AcDbEntity
8
1
100
AcDbVertex
100
AcDb2dVertex
62
5
10
122.857441
20
166.050000
0
VERTEX
5
b1e
100
AcDbEntity
8
1
100
AcDbVertex
100
AcDb2dVertex
62
5
10
123.000000
20
167.050000
0
VERTEX
5
b1f
100
AcDbEntity
8
1
100
AcDbVertex
100
AcDb2dVertex
62
5
10
123.000000
20
167.850000
0
VERTEX
5
b20
100
AcDbEntity
8
1
100
AcDbVertex
100
AcDb2dVertex
62
5
10
123.000000
20
171.850000
0
SEQEND
5
b21
100
AcDbEntity
8
1
0
ARC
5
b22
100
AcDbEntity
8
1
100
AcDbCircle
6
CONTINUOUS
62
5
10
122.500000
20
171.850000
40
0.500000
100
AcDbArc
50
0.000000
51
89.999999
0
POLYLINE
5
b23
100
AcDbEntity
8
1
6
CONTINUOUS
62
5
100
AcDb2dPolyline
66
1
10
0.0
20
0.0
30
0.0
70
0
0
VERTEX
5
b24
100
AcDbEntity
8
1
100
AcDbVertex
100
AcDb2dVertex
62
5
10
122.500000
20
172.350000
0
VERTEX
5
b25
100
AcDbEntity
8
1
100
AcDbVertex
100
AcDb2dVertex
62
5
10
102.146037
20
172.350000
0
VERTEX
5
b26
100
AcDbEntity
8
1
100
AcDbVertex
100
AcDb2dVertex
62
5
10
102.086517
20
172.350000
0
VERTEX
5
b27
100
AcDbEntity
8
1
100
AcDbVertex
100
AcDb2dVertex
62
5
10
101.846037
20
171.673718
0
VERTEX
5
b28
100
AcDbEntity
8
1
100
AcDbVertex
100
AcDb2dVertex
62
5
10
101.646037
20
171.334622
0
VERTEX
5
b29
100
AcDbEntity
8
1
100
AcDbVertex
100
AcDb2dVertex
62
5
10
101.546037
20
171.195548
0
VERTEX
5
b2a
100
AcDbEntity
8
1
100
AcDbVertex
100
AcDb2dVertex
62
5
10
101.346037
20
170.956511
0
VERTEX
5
b2b
100
AcDbEntity
8
1
100
AcDbVertex
100
AcDb2dVertex
62
5
10
101.146037
20
170.755491
0
VERTEX
5
b2c
100
AcDbEntity
8
1
100
AcDbVertex
100
AcDb2dVertex
62
5
10
100.646037
20
170.363717
0
VERTEX
5
b2d
100
AcDbEntity
8
1
100
AcDbVertex
100
AcDb2dVertex
62
5
10
100.146037
20
170.080322
0
VERTEX
5
b2e
100
AcDbEntity
8
1
100
AcDbVertex
100
AcDb2dVertex
62
5
10
99.646037
20
169.874773
0
VERTEX
5
b2f
100
AcDbEntity
8
1
100
AcDbVertex
100
AcDb2dVertex
62
5
10
99.222138
20
169.750000
0
VERTEX
5
b30
100
AcDbEntity
8
1
100
AcDbVertex
100
AcDb2dVertex
62
5
10
96.200000
20
169.750000
0
VERTEX
5
b31
100
AcDbEntity
8
1
100
AcDbVertex
100
AcDb2dVertex
62
5
10
96.200000
20
156.350000
0
VERTEX
5
b32
100
AcDbEntity
8
1
100
AcDbVertex
100
AcDb2dVertex
62
5
10
99.222138
20
156.350000
0
VERTEX
5
b33
100
AcDbEntity
8
1
100
AcDbVertex
100
AcDb2dVertex
62
5
10
99.222138
20
155.502129
0
VERTEX
5
b34
100
AcDbEntity
8
1
100
AcDbVertex
100
AcDb2dVertex
62
5
10
99.646037
20
155.500070
0
VERTEX
5
b35
100
AcDbEntity
8
1
100
AcDbVertex
100
AcDb2dVertex
62
5
10
100.146037
20
155.496677
0
VERTEX
5
b36
100
AcDbEntity
8
1
100
AcDbVertex
100
AcDb2dVertex
62
5
10
100.646037
20
155.491999
0
VERTEX
5
b37
100
AcDbEntity
8
1
100
AcDbVertex
100
AcDb2dVertex
62
5
10
101.146037
20
155.485531
0
VERTEX
5
b38
100
AcDbEntity
8
1
100
AcDbVertex
100
AcDb2dVertex
62
5
10
101.646037
20
155.475972
0
VERTEX
5
b39
100
AcDbEntity
8
1
100
AcDbVertex
100
AcDb2dVertex
62
5
10
102.146037
20
155.450000
0
VERTEX
5
b3a
100
AcDbEntity
8
1
100
AcDbVertex
100
AcDb2dVertex
62
5
10
122.500000
20
155.450000
0
SEQEND
5
b3b
100
AcDbEntity
8
1
0
ARC
5
b3c
100
AcDbEntity
8
1
100
AcDbCircle
6
CONTINUOUS
62
5
10
203.550000
20
172.350000
40
0.500000
100
AcDbArc
50
90.000000
51
179.999998
0
LINE
5
b3d
100
AcDbEntity
8
1
100
AcDbLine
6
CONTINUOUS
62
5
10
203.550000
20
172.850000
11
207.850000
21
172.850000
0
LINE
5
b3e
100
AcDbEntity
8
1
100
AcDbLine
6
CONTINUOUS
62
5
10
207.850000
20
127.150000
11
203.550000
21
127.150000
0
ARC
5
b3f
100
AcDbEntity
8
1
100
AcDbCircle
6
CONTINUOUS
62
5
10
203.550000
20
127.650000
40
0.500000
100
AcDbArc
50
179.999998
51
-89.999999
0
LINE
5
b40
100
AcDbEntity
8
1
100
AcDbLine
6
CONTINUOUS
62
5
10
203.050000
20
127.650000
11
203.050000
21
172.350000
0
ARC
5
b41
100
AcDbEntity
8
1
100
AcDbCircle
6
CONTINUOUS
62
5
10
204.350000
20
171.700000
40
0.500000
100
AcDbArc
50
89.999999
51
179.999998
0
LINE
5
b42
100
AcDbEntity
8
1
100
AcDbLine
6
CONTINUOUS
62
5
10
203.850000
20
171.700000
11
203.850000
21
166.600000
0
ARC
5
b43
100
AcDbEntity
8
1
100
AcDbCircle
6
CONTINUOUS
62
5
10
204.350000
20
166.600000
40
0.500000
100
AcDbArc
50
179.999998
51
-89.999999
0
LINE
5
b44
100
AcDbEntity
8
1
100
AcDbLine
6
CONTINUOUS
62
5
10
204.350000
20
166.100000
11
206.550000
21
166.100000
0
ARC
5
b45
100
AcDbEntity
8
1
100
AcDbCircle
6
CONTINUOUS
62
5
10
206.550000
20
165.600000
40
0.500000
100
AcDbArc
50
0.000000
51
89.999999
0
LINE
5
b46
100
AcDbEntity
8
1
100
AcDbLine
6
CONTINUOUS
62
5
10
207.050000
20
165.600000
11
207.050000
21
157.400000
0
ARC
5
b47
100
AcDbEntity
8
1
100
AcDbCircle
6
CONTINUOUS
62
5
10
206.550000
20
157.400000
40
0.500000
100
AcDbArc
50
-89.999999
51
0.000000
0
LINE
5
b48
100
AcDbEntity
8
1
100
AcDbLine
6
CONTINUOUS
62
5
10
206.550000
20
156.900000
11
204.350000
21
156.900000
0
ARC
5
b49
100
AcDbEntity
8
1
100
AcDbCircle
6
CONTINUOUS
62
5
10
204.350000
20
156.400000
40
0.500000
100
AcDbArc
50
89.999999
51
179.999998
0
LINE
5
b4a
100
AcDbEntity
8
1
100
AcDbLine
6
CONTINUOUS
62
5
10
203.850000
20
156.400000
11
203.850000
21
151.500000
0
ARC
5
b4b
100
AcDbEntity
8
1
100
AcDbCircle
6
CONTINUOUS
62
5
10
204.350000
20
151.500000
40
0.500000
100
AcDbArc
50
179.999998
51
-89.999999
0
LINE
5
b4c
100
AcDbEntity
8
1
100
AcDbLine
6
CONTINUOUS
62
5
10
204.350000
20
151.000000
11
206.550000
21
151.000000
0
ARC
5
b4d
100
AcDbEntity
8
1
100
AcDbCircle
6
CONTINUOUS
62
5
10
206.550000
20
150.500000
40
0.500000
100
AcDbArc
50
0.000000
51
89.999999
0
LINE
5
b4e
100
AcDbEntity
8
1
100
AcDbLine
6
CONTINUOUS
62
5
10
207.050000
20
150.500000
11
207.050000
21
149.500000
0
ARC
5
b4f
100
AcDbEntity
8
1
100
AcDbCircle
6
CONTINUOUS
62
5
10
206.550000
20
149.500000
40
0.500000
100
AcDbArc
50
-89.999999
51
0.000000
0
LINE
5
b50
100
AcDbEntity
8
1
100
AcDbLine
6
CONTINUOUS
62
5
10
206.550000
20
149.000000
11
204.350000
21
149.000000
0
ARC
5
b51
100
AcDbEntity
8
1
100
AcDbCircle
6
CONTINUOUS
62
5
10
204.350000
20
148.500000
40
0.500000
100
AcDbArc
50
89.999999
51
179.999998
0
LINE
5
b52
100
AcDbEntity
8
1
100
AcDbLine
6
CONTINUOUS
62
5
10
203.850000
20
148.500000
11
203.850000
21
143.600000
0
ARC
5
b53
100
AcDbEntity
8
1
100
AcDbCircle
6
CONTINUOUS
62
5
10
204.350000
20
143.600000
40
0.500000
100
AcDbArc
50
179.999998
51
-89.999999
0
LINE
5
b54
100
AcDbEntity
8
1
100
AcDbLine
6
CONTINUOUS
62
5
10
204.350000
20
143.100000
11
206.550000
21
143.100000
0
ARC
5
b55
100
AcDbEntity
8
1
100
AcDbCircle
6
CONTINUOUS
62
5
10
206.550000
20
142.600000
40
0.500000
100
AcDbArc
50
0.000000
51
89.999999
0
LINE
5
b56
100
AcDbEntity
8
1
100
AcDbLine
6
CONTINUOUS
62
5
10
207.050000
20
142.600000
11
207.050000
21
134.400000
0
ARC
5
b57
100
AcDbEntity
8
1
100
AcDbCircle
6
CONTINUOUS
62
5
10
206.550000
20
134.400000
40
0.500000
100
AcDbArc
50
-89.999999
51
0.000000
0
LINE
5
b58
100
AcDbEntity
8
1
100
AcDbLine
6
CONTINUOUS
62
5
10
206.550000
20
133.900000
11
204.350000
21
133.900000
0
ARC
5
b59
100
AcDbEntity
8
1
100
AcDbCircle
6
CONTINUOUS
62
5
10
204.350000
20
133.400000
40
0.500000
100
AcDbArc
50
89.999999
51
179.999998
0
LINE
5
b5a
100
AcDbEntity
8
1
100
AcDbLine
6
CONTINUOUS
62
5
10
203.850000
20
133.400000
11
203.850000
21
128.300000
0
ARC
5
b5b
100
AcDbEntity
8
1
100
AcDbCircle
6
CONTINUOUS
62
5
10
204.350000
20
128.300000
40
0.500000
100
AcDbArc
50
179.999998
51
-89.999999
0
POLYLINE
5
b5c
100
AcDbEntity
8
1
6
CONTINUOUS
62
5
100
AcDb2dPolyline
66
1
10
0.0
20
0.0
30
0.0
70
0
0
VERTEX
5
b5d
100
AcDbEntity
8
1
100
AcDbVertex
100
AcDb2dVertex
62
5
10
204.350000
20
127.800000
0
VERTEX
5
b5e
100
AcDbEntity
8
1
100
AcDbVertex
100
AcDb2dVertex
62
5
10
206.850000
20
127.800000
0
VERTEX
5
b5f
100
AcDbEntity
8
1
100
AcDbVertex
100
AcDb2dVertex
62
5
10
207.250000
20
127.150000
0
VERTEX
5
b60
100
AcDbEntity
8
1
100
AcDbVertex
100
AcDb2dVertex
62
5
10
207.850000
20
127.150000
0
SEQEND
5
b61
100
AcDbEntity
8
1
0
ARC
5
b62
100
AcDbEntity
8
1
100
AcDbCircle
6
CONTINUOUS
62
5
10
203.550000
20
128.300000
40
0.500000
100
AcDbArc
50
179.999998
51
-89.999999
0
POLYLINE
5
b63
100
AcDbEntity
8
1
6
CONTINUOUS
62
5
100
AcDb2dPolyline
66
1
10
0.0
20
0.0
30
0.0
70
0
0
VERTEX
5
b64
100
AcDbEntity
8
1
100
AcDbVertex
100
AcDb2dVertex
62
5
10
203.550000
20
127.800000
0
VERTEX
5
b65
100
AcDbEntity
8
1
100
AcDbVertex
100
AcDb2dVertex
62
5
10
206.850000
20
127.800000
0
VERTEX
5
b66
100
AcDbEntity
8
1
100
AcDbVertex
100
AcDb2dVertex
62
5
10
207.250000
20
127.150000
0
VERTEX
5
b67
100
AcDbEntity
8
1
100
AcDbVertex
100
AcDb2dVertex
62
5
10
207.850000
20
127.150000
0
SEQEND
5
b68
100
AcDbEntity
8
1
0
POLYLINE
5
b69
100
AcDbEntity
8
1
6
CONTINUOUS
62
5
100
AcDb2dPolyline
66
1
10
0.0
20
0.0
30
0.0
70
0
0
VERTEX
5
b6a
100
AcDbEntity
8
1
100
AcDbVertex
100
AcDb2dVertex
62
5
10
207.850000
20
172.850000
0
VERTEX
5
b6b
100
AcDbEntity
8
1
100
AcDbVertex
100
AcDb2dVertex
62
5
10
207.250000
20
172.850000
0
VERTEX
5
b6c
100
AcDbEntity
8
1
100
AcDbVertex
100
AcDb2dVertex
62
5
10
206.850000
20
172.200000
0
VERTEX
5
b6d
100
AcDbEntity
8
1
100
AcDbVertex
100
AcDb2dVertex
62
5
10
203.550000
20
172.200000
0
SEQEND
5
b6e
100
AcDbEntity
8
1
0
ARC
5
b6f
100
AcDbEntity
8
1
100
AcDbCircle
6
CONTINUOUS
62
5
10
203.550000
20
171.700000
40
0.500000
100
AcDbArc
50
89.999999
51
179.999998
0
LINE
5
b70
100
AcDbEntity
8
1
100
AcDbLine
6
CONTINUOUS
62
5
10
203.050000
20
171.700000
11
203.050000
21
128.300000
0
ARC
5
b71
100
AcDbEntity
8
1
100
AcDbCircle
6
CONTINUOUS
62
5
10
208.050000
20
172.700000
40
0.200000
100
AcDbArc
50
89.999999
51
179.999998
0
POLYLINE
5
b72
100
AcDbEntity
8
1
6
CONTINUOUS
62
5
100
AcDb2dPolyline
66
1
10
0.0
20
0.0
30
0.0
70
0
0
VERTEX
5
b73
100
AcDbEntity
8
1
100
AcDbVertex
100
AcDb2dVertex
62
5
10
208.050000
20
172.900000
0
VERTEX
5
b74
100
AcDbEntity
8
1
100
AcDbVertex
100
AcDb2dVertex
62
5
10
211.850000
20
172.900000
0
VERTEX
5
b75
100
AcDbEntity
8
1
100
AcDbVertex
100
AcDb2dVertex
62
5
10
231.364633
20
172.614420
0
SEQEND
5
b76
100
AcDbEntity
8
1
0
ARC
5
b77
100
AcDbEntity
8
1
100
AcDbCircle
6
CONTINUOUS
62
5
10
231.350000
20
171.614527
40
1.000000
100
AcDbArc
50
-0.000000
51
89.161584
0
LINE
5
b78
100
AcDbEntity
8
1
100
AcDbLine
6
CONTINUOUS
62
5
10
232.350000
20
171.614527
11
232.350000
21
128.385473
0
ARC
5
b79
100
AcDbEntity
8
1
100
AcDbCircle
6
CONTINUOUS
62
5
10
231.350000
20
128.385473
40
1.000000
100
AcDbArc
50
-89.161584
51
0.000000
0
POLYLINE
5
b7a
100
AcDbEntity
8
1
6
CONTINUOUS
62
5
100
AcDb2dPolyline
66
1
10
0.0
20
0.0
30
0.0
70
0
0
VERTEX
5
b7b
100
AcDbEntity
8
1
100
AcDbVertex
100
AcDb2dVertex
62
5
10
231.364633
20
127.385580
0
VERTEX
5
b7c
100
AcDbEntity
8
1
100
AcDbVertex
100
AcDb2dVertex
62
5
10
211.850000
20
127.100000
0
VERTEX
5
b7d
100
AcDbEntity
8
1
100
AcDbVertex
100
AcDb2dVertex
62
5
10
208.050000
20
127.100000
0
SEQEND
5
b7e
100
AcDbEntity
8
1
0
ARC
5
b7f
100
AcDbEntity
8
1
100
AcDbCircle
6
CONTINUOUS
62
5
10
208.050000
20
127.300000
40
0.200000
100
AcDbArc
50
179.999998
51
-89.999999
0
ARC
5
b80
100
AcDbEntity
8
1
100
AcDbCircle
6
CONTINUOUS
62
5
10
195.550000
20
127.850000
40
0.700000
100
AcDbArc
50
179.999998
51
-89.999999
0
POLYLINE
5
b81
100
AcDbEntity
8
1
6
CONTINUOUS
62
5
100
AcDb2dPolyline
66
1
10
0.0
20
0.0
30
0.0
70
0
0
VERTEX
5
b82
100
AcDbEntity
8
1
100
AcDbVertex
100
AcDb2dVertex
62
5
10
195.550000
20
127.150000
0
VERTEX
5
b83
100
AcDbEntity
8
1
100
AcDbVertex
100
AcDb2dVertex
62
5
10
207.850000
20
127.150000
0
VERTEX
5
b84
100
AcDbEntity
8
1
100
AcDbVertex
100
AcDb2dVertex
62
5
10
207.850000
20
172.850000
0
SEQEND
5
b85
100
AcDbEntity
8
1
0
LINE
5
b86
100
AcDbEntity
8
1
100
AcDbLine
6
CONTINUOUS
62
5
10
207.850000
20
172.850000
11
195.550000
21
172.850000
0
ARC
5
b87
100
AcDbEntity
8
1
100
AcDbCircle
6
CONTINUOUS
62
5
10
195.550000
20
172.150000
40
0.700000
100
AcDbArc
50
89.999999
51
179.999998
0
LINE
5
b88
100
AcDbEntity
8
1
100
AcDbLine
6
CONTINUOUS
62
5
10
194.850000
20
172.150000
11
194.850000
21
127.850000
0
ARC
5
b89
100
AcDbEntity
8
1
100
AcDbCircle
6
CONTINUOUS
62
5
10
122.900000
20
127.850000
40
0.700000
100
AcDbArc
50
-89.999999
51
-0.000000
0
LINE
5
b8a
100
AcDbEntity
8
1
100
AcDbLine
6
CONTINUOUS
62
5
10
122.900000
20
127.150000
11
96.300000
21
127.150000
0
ARC
5
b8b
100
AcDbEntity
8
1
100
AcDbCircle
6
CONTINUOUS
62
5
10
96.300000
20
127.850000
40
0.700000
100
AcDbArc
50
-179.999998
51
-89.999999
0
LINE
5
b8c
100
AcDbEntity
8
1
100
AcDbLine
6
CONTINUOUS
62
5
10
95.600000
20
127.850000
11
95.600000
21
172.150000
0
ARC
5
b8d
100
AcDbEntity
8
1
100
AcDbCircle
6
CONTINUOUS
62
5
10
96.300000
20
172.150000
40
0.700000
100
AcDbArc
50
90.000000
51
179.999998
0
LINE
5
b8e
100
AcDbEntity
8
1
100
AcDbLine
6
CONTINUOUS
62
5
10
96.300000
20
172.850000
11
122.900000
21
172.850000
0
ARC
5
b8f
100
AcDbEntity
8
1
100
AcDbCircle
6
CONTINUOUS
62
5
10
122.900000
20
172.150000
40
0.700000
100
AcDbArc
50
0.000000
51
89.999999
0
LINE
5
b90
100
AcDbEntity
8
1
100
AcDbLine
6
CONTINUOUS
62
5
10
123.600000
20
172.150000
11
123.600000
21
127.850000
0
ARC
5
b91
100
AcDbEntity
8
1
100
AcDbCircle
6
CONTINUOUS
62
5
10
92.600000
20
127.650000
40
0.500000
100
AcDbArc
50
179.999998
51
-89.999999
0
POLYLINE
5
b92
100
AcDbEntity
8
1
6
CONTINUOUS
62
5
100
AcDb2dPolyline
66
1
10
0.0
20
0.0
30
0.0
70
0
0
VERTEX
5
b93
100
AcDbEntity
8
1
100
AcDbVertex
100
AcDb2dVertex
62
5
10
92.100000
20
127.650000
0
VERTEX
5
b94
100
AcDbEntity
8
1
100
AcDbVertex
100
AcDb2dVertex
62
5
10
92.100000
20
127.800000
0
VERTEX
5
b95
100
AcDbEntity
8
1
100
AcDbVertex
100
AcDb2dVertex
62
5
10
90.100000
20
127.800000
0
SEQEND
5
b96
100
AcDbEntity
8
1
0
ARC
5
b97
100
AcDbEntity
8
1
100
AcDbCircle
6
CONTINUOUS
62
5
10
90.100000
20
128.300000
40
0.500000
100
AcDbArc
50
179.999998
51
-89.999999
0
LINE
5
b98
100
AcDbEntity
8
1
100
AcDbLine
6
CONTINUOUS
62
5
10
89.600000
20
128.300000
11
89.600000
21
129.800000
0
ARC
5
b99
100
AcDbEntity
8
1
100
AcDbCircle
6
CONTINUOUS
62
5
10
89.100000
20
129.800000
40
0.500000
100
AcDbArc
50
0.000000
51
89.999999
0
LINE
5
b9a
100
AcDbEntity
8
1
100
AcDbLine
6
CONTINUOUS
62
5
10
89.100000
20
130.300000
11
88.150000
21
130.300000
0
ARC
5
b9b
100
AcDbEntity
8
1
100
AcDbCircle
6
CONTINUOUS
62
5
10
88.150000
20
130.800000
40
0.500000
100
AcDbArc
50
-179.999998
51
-89.999999
0
LINE
5
b9c
100
AcDbEntity
8
1
100
AcDbLine
6
CONTINUOUS
62
5
10
87.650000
20
130.800000
11
87.650000
21
132.700000
0
ARC
5
b9d
100
AcDbEntity
8
1
100
AcDbCircle
6
CONTINUOUS
62
5
10
88.150000
20
132.700000
40
0.500000
100
AcDbArc
50
89.999999
51
179.999998
0
LINE
5
b9e
100
AcDbEntity
8
1
100
AcDbLine
6
CONTINUOUS
62
5
10
88.150000
20
133.200000
11
89.100000
21
133.200000
0
ARC
5
b9f
100
AcDbEntity
8
1
100
AcDbCircle
6
CONTINUOUS
62
5
10
89.100000
20
133.700000
40
0.500000
100
AcDbArc
50
-89.999999
51
0.000000
0
POLYLINE
5
ba0
100
AcDbEntity
8
1
6
CONTINUOUS
62
5
100
AcDb2dPolyline
66
1
10
0.0
20
0.0
30
0.0
70
0
0
VERTEX
5
ba1
100
AcDbEntity
8
1
100
AcDbVertex
100
AcDb2dVertex
62
5
10
89.600000
20
133.700000
0
VERTEX
5
ba2
100
AcDbEntity
8
1
100
AcDbVertex
100
AcDb2dVertex
62
5
10
89.600000
20
136.000000
0
VERTEX
5
ba3
100
AcDbEntity
8
1
100
AcDbVertex
100
AcDb2dVertex
62
5
10
91.100000
20
136.000000
0
SEQEND
5
ba4
100
AcDbEntity
8
1
0
ARC
5
ba5
100
AcDbEntity
8
1
100
AcDbCircle
6
CONTINUOUS
62
5
10
91.100000
20
136.500000
40
0.500000
100
AcDbArc
50
-89.999999
51
-0.000000
0
LINE
5
ba6
100
AcDbEntity
8
1
100
AcDbLine
6
CONTINUOUS
62
5
10
91.600000
20
136.500000
11
91.600000
21
140.500000
0
ARC
5
ba7
100
AcDbEntity
8
1
100
AcDbCircle
6
CONTINUOUS
62
5
10
91.100000
20
140.500000
40
0.500000
100
AcDbArc
50
0.000000
51
89.999999
0
POLYLINE
5
ba8
100
AcDbEntity
8
1
6
CONTINUOUS
62
5
100
AcDb2dPolyline
66
1
10
0.0
20
0.0
30
0.0
70
0
0
VERTEX
5
ba9
100
AcDbEntity
8
1
100
AcDbVertex
100
AcDb2dVertex
62
5
10
91.100000
20
141.000000
0
VERTEX
5
baa
100
AcDbEntity
8
1
100
AcDbVertex
100
AcDb2dVertex
62
5
10
89.600000
20
141.000000
0
VERTEX
5
bab
100
AcDbEntity
8
1
100
AcDbVertex
100
AcDb2dVertex
62
5
10
89.600000
20
143.300000
0
SEQEND
5
bac
100
AcDbEntity
8
1
0
ARC
5
bad
100
AcDbEntity
8
1
100
AcDbCircle
6
CONTINUOUS
62
5
10
89.100000
20
143.300000
40
0.500000
100
AcDbArc
50
-0.000000
51
89.999999
0
LINE
5
bae
100
AcDbEntity
8
1
100
AcDbLine
6
CONTINUOUS
62
5
10
89.100000
20
143.800000
11
88.150000
21
143.800000
0
ARC
5
baf
100
AcDbEntity
8
1
100
AcDbCircle
6
CONTINUOUS
62
5
10
88.150000
20
144.300000
40
0.500000
100
AcDbArc
50
-179.999998
51
-89.999999
0
LINE
5
bb0
100
AcDbEntity
8
1
100
AcDbLine
6
CONTINUOUS
62
5
10
87.650000
20
144.300000
11
87.650000
21
146.200000
0
ARC
5
bb1
100
AcDbEntity
8
1
100
AcDbCircle
6
CONTINUOUS
62
5
10
88.150000
20
146.200000
40
0.500000
100
AcDbArc
50
89.999999
51
179.999998
0
LINE
5
bb2
100
AcDbEntity
8
1
100
AcDbLine
6
CONTINUOUS
62
5
10
88.150000
20
146.700000
11
89.100000
21
146.700000
0
ARC
5
bb3
100
AcDbEntity
8
1
100
AcDbCircle
6
CONTINUOUS
62
5
10
89.100000
20
147.200000
40
0.500000
100
AcDbArc
50
-89.999999
51
0.000000
0
LINE
5
bb4
100
AcDbEntity
8
1
100
AcDbLine
6
CONTINUOUS
62
5
10
89.600000
20
147.200000
11
89.600000
21
148.500000
0
ARC
5
bb5
100
AcDbEntity
8
1
100
AcDbCircle
6
CONTINUOUS
62
5
10
90.100000
20
148.500000
40
0.500000
100
AcDbArc
50
89.999999
51
-179.999998
0
LINE
5
bb6
100
AcDbEntity
8
1
100
AcDbLine
6
CONTINUOUS
62
5
10
90.100000
20
149.000000
11
91.100000
21
149.000000
0
ARC
5
bb7
100
AcDbEntity
8
1
100
AcDbCircle
6
CONTINUOUS
62
5
10
91.100000
20
149.500000
40
0.500000
100
AcDbArc
50
-89.999999
51
0.000000
0
LINE
5
bb8
100
AcDbEntity
8
1
100
AcDbLine
6
CONTINUOUS
62
5
10
91.600000
20
149.500000
11
91.600000
21
150.500000
0
ARC
5
bb9
100
AcDbEntity
8
1
100
AcDbCircle
6
CONTINUOUS
62
5
10
91.100000
20
150.500000
40
0.500000
100
AcDbArc
50
-0.000001
51
89.999999
0
LINE
5
bba
100
AcDbEntity
8
1
100
AcDbLine
6
CONTINUOUS
62
5
10
91.100000
20
151.000000
11
90.100000
21
151.000000
0
ARC
5
bbb
100
AcDbEntity
8
1
100
AcDbCircle
6
CONTINUOUS
62
5
10
90.100000
20
151.500000
40
0.500000
100
AcDbArc
50
179.999998
51
-89.999999
0
LINE
5
bbc
100
AcDbEntity
8
1
100
AcDbLine
6
CONTINUOUS
62
5
10
89.600000
20
151.500000
11
89.600000
21
152.800000
0
ARC
5
bbd
100
AcDbEntity
8
1
100
AcDbCircle
6
CONTINUOUS
62
5
10
89.100000
20
152.800000
40
0.500000
100
AcDbArc
50
-0.000000
51
89.999999
0
LINE
5
bbe
100
AcDbEntity
8
1
100
AcDbLine
6
CONTINUOUS
62
5
10
89.100000
20
153.300000
11
88.150000
21
153.300000
0
ARC
5
bbf
100
AcDbEntity
8
1
100
AcDbCircle
6
CONTINUOUS
62
5
10
88.150000
20
153.800000
40
0.500000
100
AcDbArc
50
179.999998
51
-89.999999
0
LINE
5
bc0
100
AcDbEntity
8
1
100
AcDbLine
6
CONTINUOUS
62
5
10
87.650000
20
153.800000
11
87.650000
21
155.700000
0
ARC
5
bc1
100
AcDbEntity
8
1
100
AcDbCircle
6
CONTINUOUS
62
5
10
88.150000
20
155.700000
40
0.500000
100
AcDbArc
50
89.999999
51
-179.999998
0
LINE
5
bc2
100
AcDbEntity
8
1
100
AcDbLine
6
CONTINUOUS
62
5
10
88.150000
20
156.200000
11
89.100000
21
156.200000
0
ARC
5
bc3
100
AcDbEntity
8
1
100
AcDbCircle
6
CONTINUOUS
62
5
10
89.100000
20
156.700000
40
0.500000
100
AcDbArc
50
-89.999999
51
-0.000000
0
LINE
5
bc4
100
AcDbEntity
8
1
100
AcDbLine
6
CONTINUOUS
62
5
10
89.600000
20
156.700000
11
89.600000
21
166.300000
0
ARC
5
bc5
100
AcDbEntity
8
1
100
AcDbCircle
6
CONTINUOUS
62
5
10
89.100000
20
166.300000
40
0.500000
100
AcDbArc
50
-0.000000
51
89.999999
0
LINE
5
bc6
100
AcDbEntity
8
1
100
AcDbLine
6
CONTINUOUS
62
5
10
89.100000
20
166.800000
11
88.150000
21
166.800000
0
ARC
5
bc7
100
AcDbEntity
8
1
100
AcDbCircle
6
CONTINUOUS
62
5
10
88.150000
20
167.300000
40
0.500000
100
AcDbArc
50
179.999998
51
-89.999999
0
LINE
5
bc8
100
AcDbEntity
8
1
100
AcDbLine
6
CONTINUOUS
62
5
10
87.650000
20
167.300000
11
87.650000
21
169.200000
0
ARC
5
bc9
100
AcDbEntity
8
1
100
AcDbCircle
6
CONTINUOUS
62
5
10
88.150000
20
169.200000
40
0.500000
100
AcDbArc
50
89.999999
51
179.999998
0
LINE
5
bca
100
AcDbEntity
8
1
100
AcDbLine
6
CONTINUOUS
62
5
10
88.150000
20
169.700000
11
89.100000
21
169.700000
0
ARC
5
bcb
100
AcDbEntity
8
1
100
AcDbCircle
6
CONTINUOUS
62
5
10
89.100000
20
170.200000
40
0.500000
100
AcDbArc
50
-89.999999
51
0.000000
0
LINE
5
bcc
100
AcDbEntity
8
1
100
AcDbLine
6
CONTINUOUS
62
5
10
89.600000
20
170.200000
11
89.600000
21
171.700000
0
ARC
5
bcd
100
AcDbEntity
8
1
100
AcDbCircle
6
CONTINUOUS
62
5
10
90.100000
20
171.700000
40
0.500000
100
AcDbArc
50
89.999999
51
179.999998
0
POLYLINE
5
bce
100
AcDbEntity
8
1
6
CONTINUOUS
62
5
100
AcDb2dPolyline
66
1
10
0.0
20
0.0
30
0.0
70
0
0
VERTEX
5
bcf
100
AcDbEntity
8
1
100
AcDbVertex
100
AcDb2dVertex
62
5
10
90.100000
20
172.200000
0
VERTEX
5
bd0
100
AcDbEntity
8
1
100
AcDbVertex
100
AcDb2dVertex
62
5
10
92.100000
20
172.200000
0
VERTEX
5
bd1
100
AcDbEntity
8
1
100
AcDbVertex
100
AcDb2dVertex
62
5
10
92.100000
20
172.350000
0
SEQEND
5
bd2
100
AcDbEntity
8
1
0
ARC
5
bd3
100
AcDbEntity
8
1
100
AcDbCircle
6
CONTINUOUS
62
5
10
92.600000
20
172.350000
40
0.500000
100
AcDbArc
50
89.999999
51
-179.999998
0
LINE
5
bd4
100
AcDbEntity
8
1
100
AcDbLine
6
CONTINUOUS
62
5
10
92.600000
20
172.850000
11
96.300000
21
172.850000
0
LINE
5
bd5
100
AcDbEntity
8
1
100
AcDbLine
6
CONTINUOUS
62
5
10
96.300000
20
127.150000
11
92.600000
21
127.150000
0
ARC
5
bd6
100
AcDbEntity
8
1
100
AcDbCircle
6
CONTINUOUS
62
5
10
126.600000
20
127.650000
40
0.500000
100
AcDbArc
50
-89.999999
51
0.000000
0
POLYLINE
5
bd7
100
AcDbEntity
8
1
6
CONTINUOUS
62
5
100
AcDb2dPolyline
66
1
10
0.0
20
0.0
30
0.0
70
0
0
VERTEX
5
bd8
100
AcDbEntity
8
1
100
AcDbVertex
100
AcDb2dVertex
62
5
10
127.100000
20
127.650000
0
VERTEX
5
bd9
100
AcDbEntity
8
1
100
AcDbVertex
100
AcDb2dVertex
62
5
10
127.100000
20
127.800000
0
VERTEX
5
bda
100
AcDbEntity
8
1
100
AcDbVertex
100
AcDb2dVertex
62
5
10
129.100000
20
127.800000
0
SEQEND
5
bdb
100
AcDbEntity
8
1
0
ARC
5
bdc
100
AcDbEntity
8
1
100
AcDbCircle
6
CONTINUOUS
62
5
10
129.100000
20
128.300000
40
0.500000
100
AcDbArc
50
-89.999999
51
0.000000
0
LINE
5
bdd
100
AcDbEntity
8
1
100
AcDbLine
6
CONTINUOUS
62
5
10
129.600000
20
128.300000
11
129.600000
21
129.800000
0
ARC
5
bde
100
AcDbEntity
8
1
100
AcDbCircle
6
CONTINUOUS
62
5
10
130.100000
20
129.800000
40
0.500000
100
AcDbArc
50
89.999999
51
179.999998
0
LINE
5
bdf
100
AcDbEntity
8
1
100
AcDbLine
6
CONTINUOUS
62
5
10
130.100000
20
130.300000
11
131.050000
21
130.300000
0
ARC
5
be0
100
AcDbEntity
8
1
100
AcDbCircle
6
CONTINUOUS
62
5
10
131.050000
20
130.800000
40
0.500000
100
AcDbArc
50
-89.999999
51
-0.000000
0
LINE
5
be1
100
AcDbEntity
8
1
100
AcDbLine
6
CONTINUOUS
62
5
10
131.550000
20
130.800000
11
131.550000
21
132.700000
0
ARC
5
be2
100
AcDbEntity
8
1
100
AcDbCircle
6
CONTINUOUS
62
5
10
131.050000
20
132.700000
40
0.500000
100
AcDbArc
50
0.000000
51
89.999999
0
LINE
5
be3
100
AcDbEntity
8
1
100
AcDbLine
6
CONTINUOUS
62
5
10
131.050000
20
133.200000
11
130.100000
21
133.200000
0
ARC
5
be4
100
AcDbEntity
8
1
100
AcDbCircle
6
CONTINUOUS
62
5
10
130.100000
20
133.700000
40
0.500000
100
AcDbArc
50
179.999998
51
-89.999999
0
POLYLINE
5
be5
100
AcDbEntity
8
1
6
CONTINUOUS
62
5
100
AcDb2dPolyline
66
1
10
0.0
20
0.0
30
0.0
70
0
0
VERTEX
5
be6
100
AcDbEntity
8
1
100
AcDbVertex
100
AcDb2dVertex
62
5
10
129.600000
20
133.700000
0
VERTEX
5
be7
100
AcDbEntity
8
1
100
AcDbVertex
100
AcDb2dVertex
62
5
10
129.600000
20
136.000000
0
VERTEX
5
be8
100
AcDbEntity
8
1
100
AcDbVertex
100
AcDb2dVertex
62
5
10
128.100000
20
136.000000
0
SEQEND
5
be9
100
AcDbEntity
8
1
0
ARC
5
bea
100
AcDbEntity
8
1
100
AcDbCircle
6
CONTINUOUS
62
5
10
128.100000
20
136.500000
40
0.500000
100
AcDbArc
50
-179.999998
51
-89.999999
0
LINE
5
beb
100
AcDbEntity
8
1
100
AcDbLine
6
CONTINUOUS
62
5
10
127.600000
20
136.500000
11
127.600000
21
140.500000
0
ARC
5
bec
100
AcDbEntity
8
1
100
AcDbCircle
6
CONTINUOUS
62
5
10
128.100000
20
140.500000
40
0.500000
100
AcDbArc
50
89.999999
51
179.999998
0
POLYLINE
5
bed
100
AcDbEntity
8
1
6
CONTINUOUS
62
5
100
AcDb2dPolyline
66
1
10
0.0
20
0.0
30
0.0
70
0
0
VERTEX
5
bee
100
AcDbEntity
8
1
100
AcDbVertex
100
AcDb2dVertex
62
5
10
128.100000
20
141.000000
0
VERTEX
5
bef
100
AcDbEntity
8
1
100
AcDbVertex
100
AcDb2dVertex
62
5
10
129.600000
20
141.000000
0
VERTEX
5
bf0
100
AcDbEntity
8
1
100
AcDbVertex
100
AcDb2dVertex
62
5
10
129.600000
20
143.300000
0
SEQEND
5
bf1
100
AcDbEntity
8
1
0
ARC
5
bf2
100
AcDbEntity
8
1
100
AcDbCircle
6
CONTINUOUS
62
5
10
130.100000
20
143.300000
40
0.500000
100
AcDbArc
50
89.999999
51
-179.999998
0
LINE
5
bf3
100
AcDbEntity
8
1
100
AcDbLine
6
CONTINUOUS
62
5
10
130.100000
20
143.800000
11
131.050000
21
143.800000
0
ARC
5
bf4
100
AcDbEntity
8
1
100
AcDbCircle
6
CONTINUOUS
62
5
10
131.050000
20
144.300000
40
0.500000
100
AcDbArc
50
-89.999999
51
-0.000000
0
LINE
5
bf5
100
AcDbEntity
8
1
100
AcDbLine
6
CONTINUOUS
62
5
10
131.550000
20
144.300000
11
131.550000
21
146.200000
0
ARC
5
bf6
100
AcDbEntity
8
1
100
AcDbCircle
6
CONTINUOUS
62
5
10
131.050000
20
146.200000
40
0.500000
100
AcDbArc
50
0.000000
51
89.999999
0
LINE
5
bf7
100
AcDbEntity
8
1
100
AcDbLine
6
CONTINUOUS
62
5
10
131.050000
20
146.700000
11
130.100000
21
146.700000
0
ARC
5
bf8
100
AcDbEntity
8
1
100
AcDbCircle
6
CONTINUOUS
62
5
10
130.100000
20
147.200000
40
0.500000
100
AcDbArc
50
179.999998
51
-89.999999
0
LINE
5
bf9
100
AcDbEntity
8
1
100
AcDbLine
6
CONTINUOUS
62
5
10
129.600000
20
147.200000
11
129.600000
21
148.500000
0
ARC
5
bfa
100
AcDbEntity
8
1
100
AcDbCircle
6
CONTINUOUS
62
5
10
129.100000
20
148.500000
40
0.500000
100
AcDbArc
50
-0.000000
51
89.999999
0
LINE
5
bfb
100
AcDbEntity
8
1
100
AcDbLine
6
CONTINUOUS
62
5
10
129.100000
20
149.000000
11
128.100000
21
149.000000
0
ARC
5
bfc
100
AcDbEntity
8
1
100
AcDbCircle
6
CONTINUOUS
62
5
10
128.100000
20
149.500000
40
0.500000
100
AcDbArc
50
179.999998
51
-89.999999
0
LINE
5
bfd
100
AcDbEntity
8
1
100
AcDbLine
6
CONTINUOUS
62
5
10
127.600000
20
149.500000
11
127.600000
21
150.500000
0
ARC
5
bfe
100
AcDbEntity
8
1
100
AcDbCircle
6
CONTINUOUS
62
5
10
128.100000
20
150.500000
40
0.500000
100
AcDbArc
50
89.999999
51
-179.999998
0
LINE
5
bff
100
AcDbEntity
8
1
100
AcDbLine
6
CONTINUOUS
62
5
10
128.100000
20
151.000000
11
129.100000
21
151.000000
0
ARC
5
c00
100
AcDbEntity
8
1
100
AcDbCircle
6
CONTINUOUS
62
5
10
129.100000
20
151.500000
40
0.500000
100
AcDbArc
50
-89.999999
51
0.000000
0
LINE
5
c01
100
AcDbEntity
8
1
100
AcDbLine
6
CONTINUOUS
62
5
10
129.600000
20
151.500000
11
129.600000
21
152.800000
0
ARC
5
c02
100
AcDbEntity
8
1
100
AcDbCircle
6
CONTINUOUS
62
5
10
130.100000
20
152.800000
40
0.500000
100
AcDbArc
50
89.999999
51
-179.999998
0
LINE
5
c03
100
AcDbEntity
8
1
100
AcDbLine
6
CONTINUOUS
62
5
10
130.100000
20
153.300000
11
131.050000
21
153.300000
0
ARC
5
c04
100
AcDbEntity
8
1
100
AcDbCircle
6
CONTINUOUS
62
5
10
131.050000
20
153.800000
40
0.500000
100
AcDbArc
50
-89.999999
51
0.000000
0
LINE
5
c05
100
AcDbEntity
8
1
100
AcDbLine
6
CONTINUOUS
62
5
10
131.550000
20
153.800000
11
131.550000
21
155.700000
0
ARC
5
c06
100
AcDbEntity
8
1
100
AcDbCircle
6
CONTINUOUS
62
5
10
131.050000
20
155.700000
40
0.500000
100
AcDbArc
50
-0.000000
51
89.999999
0
LINE
5
c07
100
AcDbEntity
8
1
100
AcDbLine
6
CONTINUOUS
62
5
10
131.050000
20
156.200000
11
130.100000
21
156.200000
0
ARC
5
c08
100
AcDbEntity
8
1
100
AcDbCircle
6
CONTINUOUS
62
5
10
130.100000
20
156.700000
40
0.500000
100
AcDbArc
50
-179.999998
51
-89.999999
0
LINE
5
c09
100
AcDbEntity
8
1
100
AcDbLine
6
CONTINUOUS
62
5
10
129.600000
20
156.700000
11
129.600000
21
166.300000
0
ARC
5
c0a
100
AcDbEntity
8
1
100
AcDbCircle
6
CONTINUOUS
62
5
10
130.100000
20
166.300000
40
0.500000
100
AcDbArc
50
89.999999
51
-179.999998
0
LINE
5
c0b
100
AcDbEntity
8
1
100
AcDbLine
6
CONTINUOUS
62
5
10
130.100000
20
166.800000
11
131.050000
21
166.800000
0
ARC
5
c0c
100
AcDbEntity
8
1
100
AcDbCircle
6
CONTINUOUS
62
5
10
131.050000
20
167.300000
40
0.500000
100
AcDbArc
50
-89.999999
51
0.000000
0
LINE
5
c0d
100
AcDbEntity
8
1
100
AcDbLine
6
CONTINUOUS
62
5
10
131.550000
20
167.300000
11
131.550000
21
169.200000
0
ARC
5
c0e
100
AcDbEntity
8
1
100
AcDbCircle
6
CONTINUOUS
62
5
10
131.050000
20
169.200000
40
0.500000
100
AcDbArc
50
0.000000
51
89.999999
0
LINE
5
c0f
100
AcDbEntity
8
1
100
AcDbLine
6
CONTINUOUS
62
5
10
131.050000
20
169.700000
11
130.100000
21
169.700000
0
ARC
5
c10
100
AcDbEntity
8
1
100
AcDbCircle
6
CONTINUOUS
62
5
10
130.100000
20
170.200000
40
0.500000
100
AcDbArc
50
179.999998
51
-89.999999
0
LINE
5
c11
100
AcDbEntity
8
1
100
AcDbLine
6
CONTINUOUS
62
5
10
129.600000
20
170.200000
11
129.600000
21
171.700000
0
ARC
5
c12
100
AcDbEntity
8
1
100
AcDbCircle
6
CONTINUOUS
62
5
10
129.100000
20
171.700000
40
0.500000
100
AcDbArc
50
0.000000
51
89.999999
0
POLYLINE
5
c13
100
AcDbEntity
8
1
6
CONTINUOUS
62
5
100
AcDb2dPolyline
66
1
10
0.0
20
0.0
30
0.0
70
0
0
VERTEX
5
c14
100
AcDbEntity
8
1
100
AcDbVertex
100
AcDb2dVertex
62
5
10
129.100000
20
172.200000
0
VERTEX
5
c15
100
AcDbEntity
8
1
100
AcDbVertex
100
AcDb2dVertex
62
5
10
127.100000
20
172.200000
0
VERTEX
5
c16
100
AcDbEntity
8
1
100
AcDbVertex
100
AcDb2dVertex
62
5
10
127.100000
20
172.350000
0
SEQEND
5
c17
100
AcDbEntity
8
1
0
ARC
5
c18
100
AcDbEntity
8
1
100
AcDbCircle
6
CONTINUOUS
62
5
10
126.600000
20
172.350000
40
0.500000
100
AcDbArc
50
-0.000000
51
89.999999
0
LINE
5
c19
100
AcDbEntity
8
1
100
AcDbLine
6
CONTINUOUS
62
5
10
126.600000
20
172.850000
11
122.900000
21
172.850000
0
LINE
5
c1a
100
AcDbEntity
8
1
100
AcDbLine
6
CONTINUOUS
62
5
10
122.900000
20
127.150000
11
126.600000
21
127.150000
0
POLYLINE
5
c1b
100
AcDbEntity
8
1
6
CONTINUOUS
62
5
100
AcDb2dPolyline
66
1
10
0.0
20
0.0
30
0.0
70
1
0
VERTEX
5
c1c
100
AcDbEntity
8
1
100
AcDbVertex
100
AcDb2dVertex
62
5
10
0.000000
20
0.000000
0
VERTEX
5
c1d
100
AcDbEntity
8
1
100
AcDbVertex
100
AcDb2dVertex
62
5
10
0.000000
20
340.000000
0
VERTEX
5
c1e
100
AcDbEntity
8
1
100
AcDbVertex
100
AcDb2dVertex
62
5
10
320.000000
20
340.000000
0
VERTEX
5
c1f
100
AcDbEntity
8
1
100
AcDbVertex
100
AcDb2dVertex
62
5
10
320.000000
20
0.000000
0
VERTEX
5
c20
100
AcDbEntity
8
1
100
AcDbVertex
100
AcDb2dVertex
62
5
10
0.000000
20
0.000000
0
SEQEND
5
c21
100
AcDbEntity
8
1
0
ENDSEC
0
SECTION
2
OBJECTS
0
DICTIONARY
5
c22
100
AcDbDictionary
3
ACAD_GROUP
350
c23
3
ACAD_MLINESTYLE
350
c24
0
DICTIONARY
5
c23
102
{ACAD_REACTORS
330
c22
102
}
100
AcDbDictionary
0
DICTIONARY
5
c24
102
{ACAD_REACTORS
330
c22
102
}
100
AcDbDictionary
3
STANDARD
350
c25
0
MLINESTYLE
5
c25
102
{ACAD_REACTORS
330
c24
102
}
100
AcDbMlineStyle
2
STANDARD
70
0
3

62
0
51
90.0
52
90.0
71
2
49
0.5
62
256
6
BYLAYER
49
-0.5
62
256
6
BYLAYER
0
ENDSEC
0
EOF
