0
SECTION
2
HEADER
9
$ACADVER
1
AC1012
9
$EXTMIN
10
-0.013701
20
-0.013701
30
0.0
9
$EXTMAX
10
12.606299
20
13.386299
30
0.0
9
$LIMMIN
10
-0.348005
20
-0.348005
9
$LIMMAX
10
320.199995
20
340.011995
9
$DIMSCALE
40
1.000000
9
$PDMODE
70
2
9
$PDSIZE
40
0.0
  9
$HANDSEED
  5
792
0
ENDSEC
0
SECTION
2
CLASSES
0
ENDSEC
0
SECTION
2
TABLES
0
TABLE
2
LTYPE
5
1e
100
AcDbSymbolTable
70
12
0
LTYPE
5
1f
100
AcDbSymbolTableRecord
100
AcDbLinetypeTableRecord
2
BYBLOCK
70
0
3

72
65
73
0
40
0.0
0
LTYPE
5
20
100
AcDbSymbolTableRecord
100
AcDbLinetypeTableRecord
2
BYLAYER
70
0
3

72
65
73
0
40
0.0
0
LTYPE
5
21
100
AcDbSymbolTableRecord
100
AcDbLinetypeTableRecord
2
CONTINUOUS
70
64
3
Solid line
72
65
73
0
40
0.0
0
LTYPE
5
22
100
AcDbSymbolTableRecord
100
AcDbLinetypeTableRecord
2
DASHED
70
64
3
__ __ __ __ __ __ __ __ __ __ __ __ __ __ __
72
65
73
2
40
0.75
49
0.5
74
0
49
-0.25
74
0
0
LTYPE
5
23
100
AcDbSymbolTableRecord
100
AcDbLinetypeTableRecord
2
DOT
70
64
3
...............................................
72
65
73
2
40
0.25
49
0.0
74
0
49
-0.25
74
0
0
LTYPE
5
24
100
AcDbSymbolTableRecord
100
AcDbLinetypeTableRecord
2
DASHDOT
70
64
3
__ . __ . __ . __ . __ . __ . __ . __ . __ . --
72
65
73
4
40
1.0
49
0.5
74
0
49
-0.25
74
0
49
0.0
74
0
49
-0.25
74
0
0
LTYPE
5
25
100
AcDbSymbolTableRecord
100
AcDbLinetypeTableRecord
2
CENTER
70
64
3
____ _ ____ _ ____ _ ____ _ ____ _ ____ _ ____
72
65
73
4
40
2.0
49
1.25
74
0
49
-0.25
74
0
49
0.25
74
0
49
-0.25
74
0
0
LTYPE
5
26
100
AcDbSymbolTableRecord
100
AcDbLinetypeTableRecord
2
PHANTOM
70
64
3
_____ _ _ _____ _ _ _____ _ _ _____ _ _ ____
72
65
73
6
40
2.5
49
1.25
74
0
49
-0.25
74
0
49
0.25
74
0
49
-0.25
74
0
49
0.25
74
0
49
-0.25
74
0
0
LTYPE
5
27
100
AcDbSymbolTableRecord
100
AcDbLinetypeTableRecord
2
HIDDEN
70
64
3
_ _ _ _ _ _ _ _ _ _ _ _ _ _ _ _ _ _ _ _ _ _ _
72
65
73
2
40
0.375
49
0.25
74
0
49
-0.125
74
0
0
LTYPE
5
28
100
AcDbSymbolTableRecord
100
AcDbLinetypeTableRecord
2
BORDER
70
64
3
__ __ . __ __ . __ __ . __ __ . __ __ . __ __
72
65
73
6
40
1.75
49
0.5
74
0
49
-0.25
74
0
49
0.5
74
0
49
-0.25
74
0
49
0.0
74
0
49
-0.25
74
0
0
LTYPE
5
29
100
AcDbSymbolTableRecord
100
AcDbLinetypeTableRecord
2
DIVIDE
70
64
3
__ . . __ . . __ . . __ . . __ . . __ . . __
72
65
73
6
40
1.25
49
0.5
74
0
49
-0.25
74
0
49
0.0
74
0
49
-0.25
74
0
49
0.0
74
0
49
-0.25
74
0
0
LTYPE
5
2a
100
AcDbSymbolTableRecord
100
AcDbLinetypeTableRecord
2
DOT2
70
64
3
...............................................
72
65
73
2
40
0.125
49
0.0
74
0
49
-0.125
74
0
0
ENDTAB
0
TABLE
2
STYLE
5
2b
100
AcDbSymbolTable
70
1
0
STYLE
5
2c
100
AcDbSymbolTableRecord
100
AcDbTextStyleTableRecord
2
STANDARD
70
64
40
0.0
41
1.0
50
0.0
71
0
42
5.0
3
txt
4
bigfont
0
ENDTAB
0
TABLE
2
LAYER
5
2d
100
AcDbSymbolTable
70
4
0
LAYER
5
2e
100
AcDbSymbolTableRecord
100
AcDbLayerTableRecord
2
0
70
0
62
7
6
CONTINUOUS
0
LAYER
5
2f
100
AcDbSymbolTableRecord
100
AcDbLayerTableRecord
2
1
70
0
62
7
6
CONTINUOUS
0
LAYER
5
30
100
AcDbSymbolTableRecord
100
AcDbLayerTableRecord
2
3
70
0
62
7
6
CONTINUOUS
0
LAYER
5
31
100
AcDbSymbolTableRecord
100
AcDbLayerTableRecord
2
0
70
0
62
7
6
CONTINUOUS
0
ENDTAB
0
TABLE
2
APPID
5
32
100
AcDbSymbolTable
70
1
0
APPID
5
33
100
AcDbSymbolTableRecord
100
AcDbRegAppTableRecord
2
ACAD
70
64
0
ENDTAB
0
TABLE
2
DIMSTYLE
5
34
100
AcDbSymbolTable
70
0
0
ENDTAB
0
TABLE
2
UCS
5
35
100
AcDbSymbolTable
70
0
0
ENDTAB
0
TABLE
2
VIEW
5
36
100
AcDbSymbolTable
70
0
0
ENDTAB
0
TABLE
2
VPORT
5
37
100
AcDbSymbolTable
70
0
0
ENDTAB
0
TABLE
2
BLOCK_RECORD
5
38
100
AcDbSymbolTable
70
0
0
BLOCK_RECORD
5
39
100
AcDbSymbolTableRecord
100
AcDbBlockTableRecord
2
*MODEL_SPACE
0
BLOCK_RECORD
5
3a
100
AcDbSymbolTableRecord
100
AcDbBlockTableRecord
2
*PAPER_SPACE
0
BLOCK_RECORD
5
3b
100
AcDbSymbolTableRecord
100
AcDbBlockTableRecord
2
OPEN
0
BLOCK_RECORD
5
3c
100
AcDbSymbolTableRecord
100
AcDbBlockTableRecord
2
HALF
0
BLOCK_RECORD
5
3d
100
AcDbSymbolTableRecord
100
AcDbBlockTableRecord
2
CLOSEDBLANK
0
BLOCK_RECORD
5
3e
100
AcDbSymbolTableRecord
100
AcDbBlockTableRecord
2
HALFCLOSE_R
0
BLOCK_RECORD
5
3f
100
AcDbSymbolTableRecord
100
AcDbBlockTableRecord
2
DOT
0
BLOCK_RECORD
5
40
100
AcDbSymbolTableRecord
100
AcDbBlockTableRecord
2
HALFOPEN_R
0
BLOCK_RECORD
5
41
100
AcDbSymbolTableRecord
100
AcDbBlockTableRecord
2
CLOSEDF
0
BLOCK_RECORD
5
42
100
AcDbSymbolTableRecord
100
AcDbBlockTableRecord
2
HALF_R
0
ENDTAB
0
ENDSEC
0
SECTION
2
BLOCKS
0
BLOCK
5
43
100
AcDbEntity
8
0
100
AcDbBlockBegin
2
*MODEL_SPACE
70
0
10
0.0
20
0.0
30
0.0
3
*MODEL_SPACE
1

0
ENDBLK
5
44
100
AcDbEntity
8
0
100
AcDbBlockEnd
0
BLOCK
5
45
100
AcDbEntity
67
1
8
0
100
AcDbBlockBegin
2
*PAPER_SPACE
70
0
10
0.0
20
0.0
30
0.0
3
*PAPER_SPACE
1

0
ENDBLK
5
46
100
AcDbEntity
67
1
8
0
100
AcDbBlockEnd
0
BLOCK
5
47
100
AcDbEntity
8
0
100
AcDbBlockBegin
2
OPEN
70
0
10
0.0
20
0.0
30
0.0
3
OPEN
1

0
LINE
5
48
100
AcDbEntity
8
0
6
BYBLOCK
62
0
100
AcDbLine
10
0.000000
20
0.000000
11
-1.000000
21
0.000000
0
LINE
5
49
100
AcDbEntity
8
0
6
BYBLOCK
62
0
100
AcDbLine
10
-1.000000
20
-0.166667
11
0.000000
21
0.000000
0
LINE
5
4a
100
AcDbEntity
8
0
6
BYBLOCK
62
0
100
AcDbLine
10
-1.000000
20
0.166667
11
0.000000
21
0.000000
0
ENDBLK
5
4b
100
AcDbEntity
8
0
100
AcDbBlockEnd
0
BLOCK
5
4c
100
AcDbEntity
8
0
100
AcDbBlockBegin
2
HALF
70
0
10
0.0
20
0.0
30
0.0
3
HALF
1

0
SOLID
5
4d
100
AcDbEntity
8
0
6
BYBLOCK
62
0
100
AcDbTrace
10
-1.000000
20
0.166667
11
-1.000000
21
-0.166667
12
0.000000
22
0.000000
13
0.000000
23
0.000000
0
ENDBLK
5
4e
100
AcDbEntity
8
0
100
AcDbBlockEnd
0
BLOCK
5
4f
100
AcDbEntity
8
0
100
AcDbBlockBegin
2
CLOSEDBLANK
70
0
10
0.0
20
0.0
30
0.0
3
CLOSEDBLANK
1

0
LINE
5
50
100
AcDbEntity
8
0
6
BYBLOCK
62
0
100
AcDbLine
10
-1.000000
20
0.166667
11
-1.000000
21
-0.166667
0
LINE
5
51
100
AcDbEntity
8
0
6
BYBLOCK
62
0
100
AcDbLine
10
0.000000
20
0.000000
11
-1.000000
21
-0.166667
0
LINE
5
52
100
AcDbEntity
8
0
6
BYBLOCK
62
0
100
AcDbLine
10
-1.000000
20
0.166667
11
0.000000
21
0.000000
0
ENDBLK
5
53
100
AcDbEntity
8
0
100
AcDbBlockEnd
0
BLOCK
5
54
100
AcDbEntity
8
0
100
AcDbBlockBegin
2
HALFCLOSE_R
70
0
10
0.0
20
0.0
30
0.0
3
HALFCLOSE_R
1

0
LINE
5
55
100
AcDbEntity
8
0
6
BYBLOCK
62
0
100
AcDbLine
10
-1.000000
20
-0.166667
11
-1.000000
21
0.000000
0
LINE
5
56
100
AcDbEntity
8
0
6
BYBLOCK
62
0
100
AcDbLine
10
-1.000000
20
-0.166667
11
0.000000
21
0.000000
0
LINE
5
57
100
AcDbEntity
8
0
6
BYBLOCK
62
0
100
AcDbLine
10
0.000000
20
0.000000
11
-1.000000
21
0.000000
0
ENDBLK
5
58
100
AcDbEntity
8
0
100
AcDbBlockEnd
0
BLOCK
5
59
100
AcDbEntity
8
0
100
AcDbBlockBegin
2
DOT
70
0
10
0.0
20
0.0
30
0.0
3
DOT
1

0
LINE
5
5a
100
AcDbEntity
8
0
6
BYBLOCK
62
0
100
AcDbLine
10
0.000000
20
0.000000
11
-1.000000
21
0.000000
0
POLYLINE
5
5b
100
AcDbEntity
8
0
6
BYBLOCK
62
0
100
AcDb2dPolyline
66
1
10
0.0
20
0.0
30
0.0
70
1
40
0.166667
41
0.166667
0
VERTEX
5
5c
100
AcDbEntity
8
0
100
AcDbVertex
100
AcDb2dVertex
62
10
10
-0.083333
20
0.000000
42
1.000000
0
VERTEX
5
5d
100
AcDbEntity
8
0
100
AcDbVertex
100
AcDb2dVertex
62
10
10
0.083333
20
0.000000
42
1.000000
0
SEQEND
5
5e
100
AcDbEntity
8
0
0
ENDBLK
5
5f
100
AcDbEntity
8
0
100
AcDbBlockEnd
0
BLOCK
5
60
100
AcDbEntity
8
0
100
AcDbBlockBegin
2
HALFOPEN_R
70
0
10
0.0
20
0.0
30
0.0
3
HALFOPEN_R
1

0
LINE
5
61
100
AcDbEntity
8
0
6
BYBLOCK
62
0
100
AcDbLine
10
-1.000000
20
-0.166667
11
0.000000
21
0.000000
0
LINE
5
62
100
AcDbEntity
8
0
6
BYBLOCK
62
0
100
AcDbLine
10
0.000000
20
0.000000
11
-1.000000
21
0.000000
0
ENDBLK
5
63
100
AcDbEntity
8
0
100
AcDbBlockEnd
0
BLOCK
5
64
100
AcDbEntity
8
0
100
AcDbBlockBegin
2
CLOSEDF
70
0
10
0.0
20
0.0
30
0.0
3
CLOSEDF
1

0
SOLID
5
65
100
AcDbEntity
8
0
6
BYBLOCK
62
0
100
AcDbTrace
10
-1.000000
20
0.166667
11
-1.000000
21
-0.166667
12
0.000000
22
0.000000
13
0.000000
23
0.000000
0
ENDBLK
5
66
100
AcDbEntity
8
0
100
AcDbBlockEnd
0
BLOCK
5
67
100
AcDbEntity
8
0
100
AcDbBlockBegin
2
HALF_R
70
0
10
0.0
20
0.0
30
0.0
3
HALF_R
1

0
SOLID
5
68
100
AcDbEntity
8
0
6
BYBLOCK
62
0
100
AcDbTrace
10
-1.000000
20
-0.166667
11
-1.000000
21
0.000000
12
0.000000
22
0.000000
13
0.000000
23
0.000000
0
ENDBLK
5
69
100
AcDbEntity
8
0
100
AcDbBlockEnd
0
ENDSEC
0
SECTION
2
ENTITIES
0
POLYLINE
5
6a
100
AcDbEntity
8
1
6
CONTINUOUS
62
5
100
AcDb2dPolyline
66
1
10
0.0
20
0.0
30
0.0
70
0
0
VERTEX
5
6b
100
AcDbEntity
8
1
100
AcDbVertex
100
AcDb2dVertex
62
5
10
214.250000
20
320.875000
0
VERTEX
5
6c
100
AcDbEntity
8
1
100
AcDbVertex
100
AcDb2dVertex
62
5
10
215.000000
20
323.375000
0
VERTEX
5
6d
100
AcDbEntity
8
1
100
AcDbVertex
100
AcDb2dVertex
62
5
10
215.250000
20
325.250000
0
VERTEX
5
6e
100
AcDbEntity
8
1
100
AcDbVertex
100
AcDb2dVertex
62
5
10
215.250000
20
328.687500
0
VERTEX
5
6f
100
AcDbEntity
8
1
100
AcDbVertex
100
AcDb2dVertex
62
5
10
221.250000
20
328.687500
0
SEQEND
5
70
100
AcDbEntity
8
1
0
LINE
5
71
100
AcDbEntity
8
1
100
AcDbLine
6
CONTINUOUS
62
5
10
218.250000
20
329.625000
11
218.250000
21
328.687500
0
POLYLINE
5
72
100
AcDbEntity
8
1
6
CONTINUOUS
62
5
100
AcDb2dPolyline
66
1
10
0.0
20
0.0
30
0.0
70
0
0
VERTEX
5
73
100
AcDbEntity
8
1
100
AcDbVertex
100
AcDb2dVertex
62
5
10
216.250000
20
324.625000
0
VERTEX
5
74
100
AcDbEntity
8
1
100
AcDbVertex
100
AcDb2dVertex
62
5
10
216.000000
20
323.062500
0
VERTEX
5
75
100
AcDbEntity
8
1
100
AcDbVertex
100
AcDb2dVertex
62
5
10
215.500000
20
321.812500
0
SEQEND
5
76
100
AcDbEntity
8
1
0
POLYLINE
5
77
100
AcDbEntity
8
1
6
CONTINUOUS
62
5
100
AcDb2dPolyline
66
1
10
0.0
20
0.0
30
0.0
70
0
0
VERTEX
5
78
100
AcDbEntity
8
1
100
AcDbVertex
100
AcDb2dVertex
62
5
10
217.250000
20
326.500000
0
VERTEX
5
79
100
AcDbEntity
8
1
100
AcDbVertex
100
AcDb2dVertex
62
5
10
217.250000
20
321.500000
0
VERTEX
5
7a
100
AcDbEntity
8
1
100
AcDbVertex
100
AcDb2dVertex
62
5
10
217.750000
20
320.875000
0
VERTEX
5
7b
100
AcDbEntity
8
1
100
AcDbVertex
100
AcDb2dVertex
62
5
10
220.000000
20
320.875000
0
VERTEX
5
7c
100
AcDbEntity
8
1
100
AcDbVertex
100
AcDb2dVertex
62
5
10
220.250000
20
321.187500
0
VERTEX
5
7d
100
AcDbEntity
8
1
100
AcDbVertex
100
AcDb2dVertex
62
5
10
220.250000
20
321.812500
0
SEQEND
5
7e
100
AcDbEntity
8
1
0
LINE
5
7f
100
AcDbEntity
8
1
100
AcDbLine
6
CONTINUOUS
62
5
10
218.000000
20
327.125000
11
219.000000
21
325.875000
0
POLYLINE
5
80
100
AcDbEntity
8
1
6
CONTINUOUS
62
5
100
AcDb2dPolyline
66
1
10
0.0
20
0.0
30
0.0
70
0
0
VERTEX
5
81
100
AcDbEntity
8
1
100
AcDbVertex
100
AcDb2dVertex
62
5
10
220.250000
20
324.937500
0
VERTEX
5
82
100
AcDbEntity
8
1
100
AcDbVertex
100
AcDb2dVertex
62
5
10
221.000000
20
323.687500
0
VERTEX
5
83
100
AcDbEntity
8
1
100
AcDbVertex
100
AcDb2dVertex
62
5
10
221.500000
20
322.437500
0
SEQEND
5
84
100
AcDbEntity
8
1
0
POLYLINE
5
85
100
AcDbEntity
8
1
6
CONTINUOUS
62
5
100
AcDb2dPolyline
66
1
10
0.0
20
0.0
30
0.0
70
0
0
VERTEX
5
86
100
AcDbEntity
8
1
100
AcDbVertex
100
AcDb2dVertex
62
5
10
203.000000
20
321.500000
0
VERTEX
5
87
100
AcDbEntity
8
1
100
AcDbVertex
100
AcDb2dVertex
62
5
10
204.250000
20
329.000000
0
VERTEX
5
88
100
AcDbEntity
8
1
100
AcDbVertex
100
AcDb2dVertex
62
5
10
205.500000
20
321.500000
0
SEQEND
5
89
100
AcDbEntity
8
1
0
LINE
5
8a
100
AcDbEntity
8
1
100
AcDbLine
6
CONTINUOUS
62
5
10
203.500000
20
324.000000
11
205.000000
21
324.000000
0
POLYLINE
5
8b
100
AcDbEntity
8
1
6
CONTINUOUS
62
5
100
AcDb2dPolyline
66
1
10
0.0
20
0.0
30
0.0
70
0
0
VERTEX
5
8c
100
AcDbEntity
8
1
100
AcDbVertex
100
AcDb2dVertex
62
5
10
191.000000
20
325.875000
0
VERTEX
5
8d
100
AcDbEntity
8
1
100
AcDbVertex
100
AcDb2dVertex
62
5
10
191.500000
20
326.500000
0
VERTEX
5
8e
100
AcDbEntity
8
1
100
AcDbVertex
100
AcDb2dVertex
62
5
10
192.000000
20
326.812500
0
VERTEX
5
8f
100
AcDbEntity
8
1
100
AcDbVertex
100
AcDb2dVertex
62
5
10
192.500000
20
326.812500
0
VERTEX
5
90
100
AcDbEntity
8
1
100
AcDbVertex
100
AcDb2dVertex
62
5
10
193.000000
20
326.500000
0
VERTEX
5
91
100
AcDbEntity
8
1
100
AcDbVertex
100
AcDb2dVertex
62
5
10
193.250000
20
325.875000
0
VERTEX
5
92
100
AcDbEntity
8
1
100
AcDbVertex
100
AcDb2dVertex
62
5
10
193.250000
20
321.812500
0
VERTEX
5
93
100
AcDbEntity
8
1
100
AcDbVertex
100
AcDb2dVertex
62
5
10
193.500000
20
321.500000
0
VERTEX
5
94
100
AcDbEntity
8
1
100
AcDbVertex
100
AcDb2dVertex
62
5
10
193.750000
20
321.500000
0
VERTEX
5
95
100
AcDbEntity
8
1
100
AcDbVertex
100
AcDb2dVertex
62
5
10
194.000000
20
321.812500
0
VERTEX
5
96
100
AcDbEntity
8
1
100
AcDbVertex
100
AcDb2dVertex
62
5
10
194.000000
20
322.437500
0
SEQEND
5
97
100
AcDbEntity
8
1
0
POLYLINE
5
98
100
AcDbEntity
8
1
6
CONTINUOUS
62
5
100
AcDb2dPolyline
66
1
10
0.0
20
0.0
30
0.0
70
0
0
VERTEX
5
99
100
AcDbEntity
8
1
100
AcDbVertex
100
AcDb2dVertex
62
5
10
193.250000
20
324.625000
0
VERTEX
5
9a
100
AcDbEntity
8
1
100
AcDbVertex
100
AcDb2dVertex
62
5
10
192.250000
20
324.625000
0
VERTEX
5
9b
100
AcDbEntity
8
1
100
AcDbVertex
100
AcDb2dVertex
62
5
10
191.500000
20
324.312500
0
VERTEX
5
9c
100
AcDbEntity
8
1
100
AcDbVertex
100
AcDb2dVertex
62
5
10
191.000000
20
323.375000
0
VERTEX
5
9d
100
AcDbEntity
8
1
100
AcDbVertex
100
AcDb2dVertex
62
5
10
191.000000
20
322.437500
0
VERTEX
5
9e
100
AcDbEntity
8
1
100
AcDbVertex
100
AcDb2dVertex
62
5
10
191.250000
20
321.812500
0
VERTEX
5
9f
100
AcDbEntity
8
1
100
AcDbVertex
100
AcDb2dVertex
62
5
10
191.750000
20
321.500000
0
VERTEX
5
a0
100
AcDbEntity
8
1
100
AcDbVertex
100
AcDb2dVertex
62
5
10
192.250000
20
321.500000
0
VERTEX
5
a1
100
AcDbEntity
8
1
100
AcDbVertex
100
AcDb2dVertex
62
5
10
192.750000
20
321.812500
0
VERTEX
5
a2
100
AcDbEntity
8
1
100
AcDbVertex
100
AcDb2dVertex
62
5
10
193.250000
20
322.437500
0
SEQEND
5
a3
100
AcDbEntity
8
1
0
POLYLINE
5
a4
100
AcDbEntity
8
1
6
CONTINUOUS
62
5
100
AcDb2dPolyline
66
1
10
0.0
20
0.0
30
0.0
70
0
0
VERTEX
5
a5
100
AcDbEntity
8
1
100
AcDbVertex
100
AcDb2dVertex
62
5
10
196.000000
20
328.375000
0
VERTEX
5
a6
100
AcDbEntity
8
1
100
AcDbVertex
100
AcDb2dVertex
62
5
10
196.000000
20
322.437500
0
VERTEX
5
a7
100
AcDbEntity
8
1
100
AcDbVertex
100
AcDb2dVertex
62
5
10
196.250000
20
321.812500
0
VERTEX
5
a8
100
AcDbEntity
8
1
100
AcDbVertex
100
AcDb2dVertex
62
5
10
196.500000
20
321.500000
0
VERTEX
5
a9
100
AcDbEntity
8
1
100
AcDbVertex
100
AcDb2dVertex
62
5
10
197.000000
20
321.500000
0
VERTEX
5
aa
100
AcDbEntity
8
1
100
AcDbVertex
100
AcDb2dVertex
62
5
10
197.250000
20
321.812500
0
VERTEX
5
ab
100
AcDbEntity
8
1
100
AcDbVertex
100
AcDb2dVertex
62
5
10
197.500000
20
322.437500
0
SEQEND
5
ac
100
AcDbEntity
8
1
0
LINE
5
ad
100
AcDbEntity
8
1
100
AcDbLine
6
CONTINUOUS
62
5
10
194.750000
20
326.500000
11
197.250000
21
326.500000
0
POLYLINE
5
ae
100
AcDbEntity
8
1
6
CONTINUOUS
62
5
100
AcDb2dPolyline
66
1
10
0.0
20
0.0
30
0.0
70
0
0
VERTEX
5
af
100
AcDbEntity
8
1
100
AcDbVertex
100
AcDb2dVertex
62
5
10
201.000000
20
329.000000
0
VERTEX
5
b0
100
AcDbEntity
8
1
100
AcDbVertex
100
AcDb2dVertex
62
5
10
200.250000
20
329.000000
0
VERTEX
5
b1
100
AcDbEntity
8
1
100
AcDbVertex
100
AcDb2dVertex
62
5
10
199.500000
20
328.687500
0
VERTEX
5
b2
100
AcDbEntity
8
1
100
AcDbVertex
100
AcDb2dVertex
62
5
10
199.000000
20
327.437500
0
VERTEX
5
b3
100
AcDbEntity
8
1
100
AcDbVertex
100
AcDb2dVertex
62
5
10
199.000000
20
323.062500
0
VERTEX
5
b4
100
AcDbEntity
8
1
100
AcDbVertex
100
AcDb2dVertex
62
5
10
199.250000
20
322.125000
0
VERTEX
5
b5
100
AcDbEntity
8
1
100
AcDbVertex
100
AcDb2dVertex
62
5
10
199.500000
20
321.812500
0
VERTEX
5
b6
100
AcDbEntity
8
1
100
AcDbVertex
100
AcDb2dVertex
62
5
10
200.000000
20
321.500000
0
VERTEX
5
b7
100
AcDbEntity
8
1
100
AcDbVertex
100
AcDb2dVertex
62
5
10
200.500000
20
321.500000
0
VERTEX
5
b8
100
AcDbEntity
8
1
100
AcDbVertex
100
AcDb2dVertex
62
5
10
201.000000
20
321.812500
0
VERTEX
5
b9
100
AcDbEntity
8
1
100
AcDbVertex
100
AcDb2dVertex
62
5
10
201.250000
20
322.125000
0
VERTEX
5
ba
100
AcDbEntity
8
1
100
AcDbVertex
100
AcDb2dVertex
62
5
10
201.500000
20
323.062500
0
VERTEX
5
bb
100
AcDbEntity
8
1
100
AcDbVertex
100
AcDb2dVertex
62
5
10
201.500000
20
324.937500
0
VERTEX
5
bc
100
AcDbEntity
8
1
100
AcDbVertex
100
AcDb2dVertex
62
5
10
201.250000
20
325.562500
0
VERTEX
5
bd
100
AcDbEntity
8
1
100
AcDbVertex
100
AcDb2dVertex
62
5
10
200.750000
20
325.875000
0
VERTEX
5
be
100
AcDbEntity
8
1
100
AcDbVertex
100
AcDb2dVertex
62
5
10
199.750000
20
325.875000
0
VERTEX
5
bf
100
AcDbEntity
8
1
100
AcDbVertex
100
AcDb2dVertex
62
5
10
199.000000
20
325.562500
0
SEQEND
5
c0
100
AcDbEntity
8
1
0
POLYLINE
5
c1
100
AcDbEntity
8
1
6
CONTINUOUS
62
5
100
AcDb2dPolyline
66
1
10
0.0
20
0.0
30
0.0
70
0
0
VERTEX
5
c2
100
AcDbEntity
8
1
100
AcDbVertex
100
AcDb2dVertex
62
5
10
197.250000
20
319.625000
0
VERTEX
5
c3
100
AcDbEntity
8
1
100
AcDbVertex
100
AcDb2dVertex
62
5
10
196.500000
20
318.375000
0
VERTEX
5
c4
100
AcDbEntity
8
1
100
AcDbVertex
100
AcDb2dVertex
62
5
10
195.750000
20
317.437500
0
VERTEX
5
c5
100
AcDbEntity
8
1
100
AcDbVertex
100
AcDb2dVertex
62
5
10
194.750000
20
316.500000
0
SEQEND
5
c6
100
AcDbEntity
8
1
0
POLYLINE
5
c7
100
AcDbEntity
8
1
6
CONTINUOUS
62
5
100
AcDb2dPolyline
66
1
10
0.0
20
0.0
30
0.0
70
0
0
VERTEX
5
c8
100
AcDbEntity
8
1
100
AcDbVertex
100
AcDb2dVertex
62
5
10
197.000000
20
319.000000
0
VERTEX
5
c9
100
AcDbEntity
8
1
100
AcDbVertex
100
AcDb2dVertex
62
5
10
199.250000
20
319.000000
0
VERTEX
5
ca
100
AcDbEntity
8
1
100
AcDbVertex
100
AcDb2dVertex
62
5
10
198.000000
20
317.125000
0
SEQEND
5
cb
100
AcDbEntity
8
1
0
POLYLINE
5
cc
100
AcDbEntity
8
1
6
CONTINUOUS
62
5
100
AcDb2dPolyline
66
1
10
0.0
20
0.0
30
0.0
70
0
0
VERTEX
5
cd
100
AcDbEntity
8
1
100
AcDbVertex
100
AcDb2dVertex
62
5
10
195.750000
20
317.125000
0
VERTEX
5
ce
100
AcDbEntity
8
1
100
AcDbVertex
100
AcDb2dVertex
62
5
10
200.250000
20
317.125000
0
VERTEX
5
cf
100
AcDbEntity
8
1
100
AcDbVertex
100
AcDb2dVertex
62
5
10
200.250000
20
314.312500
0
VERTEX
5
d0
100
AcDbEntity
8
1
100
AcDbVertex
100
AcDb2dVertex
62
5
10
195.750000
20
314.312500
0
SEQEND
5
d1
100
AcDbEntity
8
1
0
LINE
5
d2
100
AcDbEntity
8
1
100
AcDbLine
6
CONTINUOUS
62
5
10
198.000000
20
317.125000
11
198.000000
21
314.312500
0
POLYLINE
5
d3
100
AcDbEntity
8
1
6
CONTINUOUS
62
5
100
AcDb2dPolyline
66
1
10
0.0
20
0.0
30
0.0
70
0
0
VERTEX
5
d4
100
AcDbEntity
8
1
100
AcDbVertex
100
AcDb2dVertex
62
5
10
195.750000
20
317.125000
0
VERTEX
5
d5
100
AcDbEntity
8
1
100
AcDbVertex
100
AcDb2dVertex
62
5
10
195.750000
20
311.812500
0
VERTEX
5
d6
100
AcDbEntity
8
1
100
AcDbVertex
100
AcDb2dVertex
62
5
10
196.250000
20
311.187500
0
VERTEX
5
d7
100
AcDbEntity
8
1
100
AcDbVertex
100
AcDb2dVertex
62
5
10
201.250000
20
311.187500
0
VERTEX
5
d8
100
AcDbEntity
8
1
100
AcDbVertex
100
AcDb2dVertex
62
5
10
201.250000
20
312.437500
0
SEQEND
5
d9
100
AcDbEntity
8
1
0
LINE
5
da
100
AcDbEntity
8
1
100
AcDbLine
6
CONTINUOUS
62
5
10
208.250000
20
329.312500
11
208.250000
21
327.750000
0
LINE
5
db
100
AcDbEntity
8
1
100
AcDbLine
6
CONTINUOUS
62
5
10
206.250000
20
327.750000
11
210.000000
21
327.750000
0
POLYLINE
5
dc
100
AcDbEntity
8
1
6
CONTINUOUS
62
5
100
AcDb2dPolyline
66
1
10
0.0
20
0.0
30
0.0
70
0
0
VERTEX
5
dd
100
AcDbEntity
8
1
100
AcDbVertex
100
AcDb2dVertex
62
5
10
209.250000
20
327.125000
0
VERTEX
5
de
100
AcDbEntity
8
1
100
AcDbVertex
100
AcDb2dVertex
62
5
10
209.000000
20
325.562500
0
VERTEX
5
df
100
AcDbEntity
8
1
100
AcDbVertex
100
AcDb2dVertex
62
5
10
208.250000
20
324.000000
0
VERTEX
5
e0
100
AcDbEntity
8
1
100
AcDbVertex
100
AcDb2dVertex
62
5
10
207.250000
20
322.125000
0
VERTEX
5
e1
100
AcDbEntity
8
1
100
AcDbVertex
100
AcDb2dVertex
62
5
10
206.500000
20
321.187500
0
SEQEND
5
e2
100
AcDbEntity
8
1
0
POLYLINE
5
e3
100
AcDbEntity
8
1
6
CONTINUOUS
62
5
100
AcDb2dPolyline
66
1
10
0.0
20
0.0
30
0.0
70
0
0
VERTEX
5
e4
100
AcDbEntity
8
1
100
AcDbVertex
100
AcDb2dVertex
62
5
10
209.500000
20
322.437500
0
VERTEX
5
e5
100
AcDbEntity
8
1
100
AcDbVertex
100
AcDb2dVertex
62
5
10
208.250000
20
324.000000
0
VERTEX
5
e6
100
AcDbEntity
8
1
100
AcDbVertex
100
AcDb2dVertex
62
5
10
206.750000
20
326.187500
0
SEQEND
5
e7
100
AcDbEntity
8
1
0
LINE
5
e8
100
AcDbEntity
8
1
100
AcDbLine
6
CONTINUOUS
62
5
10
210.000000
20
326.812500
11
213.500000
21
326.812500
0
POLYLINE
5
e9
100
AcDbEntity
8
1
6
CONTINUOUS
62
5
100
AcDb2dPolyline
66
1
10
0.0
20
0.0
30
0.0
70
0
0
VERTEX
5
ea
100
AcDbEntity
8
1
100
AcDbVertex
100
AcDb2dVertex
62
5
10
212.500000
20
329.625000
0
VERTEX
5
eb
100
AcDbEntity
8
1
100
AcDbVertex
100
AcDb2dVertex
62
5
10
212.500000
20
321.500000
0
VERTEX
5
ec
100
AcDbEntity
8
1
100
AcDbVertex
100
AcDb2dVertex
62
5
10
212.000000
20
320.875000
0
VERTEX
5
ed
100
AcDbEntity
8
1
100
AcDbVertex
100
AcDb2dVertex
62
5
10
211.500000
20
320.875000
0
SEQEND
5
ee
100
AcDbEntity
8
1
0
LINE
5
ef
100
AcDbEntity
8
1
100
AcDbLine
6
CONTINUOUS
62
5
10
211.000000
20
324.000000
11
210.000000
21
325.562500
0
POLYLINE
5
f0
100
AcDbEntity
8
1
6
CONTINUOUS
62
5
100
AcDb2dPolyline
66
1
10
0.0
20
0.0
30
0.0
70
0
0
VERTEX
5
f1
100
AcDbEntity
8
1
100
AcDbVertex
100
AcDb2dVertex
62
5
10
171.250000
20
325.875000
0
VERTEX
5
f2
100
AcDbEntity
8
1
100
AcDbVertex
100
AcDb2dVertex
62
5
10
171.000000
20
324.312500
0
VERTEX
5
f3
100
AcDbEntity
8
1
100
AcDbVertex
100
AcDb2dVertex
62
5
10
170.500000
20
322.750000
0
SEQEND
5
f4
100
AcDbEntity
8
1
0
POLYLINE
5
f5
100
AcDbEntity
8
1
6
CONTINUOUS
62
5
100
AcDb2dPolyline
66
1
10
0.0
20
0.0
30
0.0
70
0
0
VERTEX
5
f6
100
AcDbEntity
8
1
100
AcDbVertex
100
AcDb2dVertex
62
5
10
172.500000
20
327.437500
0
VERTEX
5
f7
100
AcDbEntity
8
1
100
AcDbVertex
100
AcDb2dVertex
62
5
10
172.500000
20
321.500000
0
VERTEX
5
f8
100
AcDbEntity
8
1
100
AcDbVertex
100
AcDb2dVertex
62
5
10
173.000000
20
320.875000
0
VERTEX
5
f9
100
AcDbEntity
8
1
100
AcDbVertex
100
AcDb2dVertex
62
5
10
175.750000
20
320.875000
0
VERTEX
5
fa
100
AcDbEntity
8
1
100
AcDbVertex
100
AcDb2dVertex
62
5
10
175.250000
20
323.062500
0
SEQEND
5
fb
100
AcDbEntity
8
1
0
POLYLINE
5
fc
100
AcDbEntity
8
1
6
CONTINUOUS
62
5
100
AcDb2dPolyline
66
1
10
0.0
20
0.0
30
0.0
70
0
0
VERTEX
5
fd
100
AcDbEntity
8
1
100
AcDbVertex
100
AcDb2dVertex
62
5
10
173.000000
20
329.000000
0
VERTEX
5
fe
100
AcDbEntity
8
1
100
AcDbVertex
100
AcDb2dVertex
62
5
10
173.750000
20
327.750000
0
VERTEX
5
ff
100
AcDbEntity
8
1
100
AcDbVertex
100
AcDb2dVertex
62
5
10
174.000000
20
326.812500
0
SEQEND
5
100
100
AcDbEntity
8
1
0
POLYLINE
5
101
100
AcDbEntity
8
1
6
CONTINUOUS
62
5
100
AcDb2dPolyline
66
1
10
0.0
20
0.0
30
0.0
70
0
0
VERTEX
5
102
100
AcDbEntity
8
1
100
AcDbVertex
100
AcDb2dVertex
62
5
10
175.500000
20
326.500000
0
VERTEX
5
103
100
AcDbEntity
8
1
100
AcDbVertex
100
AcDb2dVertex
62
5
10
176.500000
20
325.250000
0
VERTEX
5
104
100
AcDbEntity
8
1
100
AcDbVertex
100
AcDb2dVertex
62
5
10
177.250000
20
323.687500
0
SEQEND
5
105
100
AcDbEntity
8
1
0
POLYLINE
5
106
100
AcDbEntity
8
1
6
CONTINUOUS
62
5
100
AcDb2dPolyline
66
1
10
0.0
20
0.0
30
0.0
70
0
0
VERTEX
5
107
100
AcDbEntity
8
1
100
AcDbVertex
100
AcDb2dVertex
62
5
10
171.500000
20
315.875000
0
VERTEX
5
108
100
AcDbEntity
8
1
100
AcDbVertex
100
AcDb2dVertex
62
5
10
176.250000
20
315.875000
0
VERTEX
5
109
100
AcDbEntity
8
1
100
AcDbVertex
100
AcDb2dVertex
62
5
10
176.250000
20
315.562500
0
VERTEX
5
10a
100
AcDbEntity
8
1
100
AcDbVertex
100
AcDb2dVertex
62
5
10
175.000000
20
313.375000
0
VERTEX
5
10b
100
AcDbEntity
8
1
100
AcDbVertex
100
AcDb2dVertex
62
5
10
174.000000
20
312.437500
0
VERTEX
5
10c
100
AcDbEntity
8
1
100
AcDbVertex
100
AcDb2dVertex
62
5
10
173.000000
20
311.812500
0
SEQEND
5
10d
100
AcDbEntity
8
1
0
LINE
5
10e
100
AcDbEntity
8
1
100
AcDbLine
6
CONTINUOUS
62
5
10
172.250000
20
318.062500
11
175.750000
21
318.062500
0
LINE
5
10f
100
AcDbEntity
8
1
100
AcDbLine
6
CONTINUOUS
62
5
10
180.250000
20
315.562500
11
180.500000
21
314.312500
0
LINE
5
110
100
AcDbEntity
8
1
100
AcDbLine
6
CONTINUOUS
62
5
10
181.750000
20
315.875000
11
182.000000
21
314.625000
0
POLYLINE
5
111
100
AcDbEntity
8
1
6
CONTINUOUS
62
5
100
AcDb2dPolyline
66
1
10
0.0
20
0.0
30
0.0
70
0
0
VERTEX
5
112
100
AcDbEntity
8
1
100
AcDbVertex
100
AcDb2dVertex
62
5
10
183.750000
20
315.875000
0
VERTEX
5
113
100
AcDbEntity
8
1
100
AcDbVertex
100
AcDb2dVertex
62
5
10
183.500000
20
314.312500
0
VERTEX
5
114
100
AcDbEntity
8
1
100
AcDbVertex
100
AcDb2dVertex
62
5
10
182.250000
20
312.437500
0
VERTEX
5
115
100
AcDbEntity
8
1
100
AcDbVertex
100
AcDb2dVertex
62
5
10
181.250000
20
311.500000
0
SEQEND
5
116
100
AcDbEntity
8
1
0
POLYLINE
5
117
100
AcDbEntity
8
1
6
CONTINUOUS
62
5
100
AcDb2dPolyline
66
1
10
0.0
20
0.0
30
0.0
70
1
0
VERTEX
5
118
100
AcDbEntity
8
1
100
AcDbVertex
100
AcDb2dVertex
62
5
10
168.000000
20
329.000000
0
VERTEX
5
119
100
AcDbEntity
8
1
100
AcDbVertex
100
AcDb2dVertex
62
5
10
168.500000
20
329.000000
0
VERTEX
5
11a
100
AcDbEntity
8
1
100
AcDbVertex
100
AcDb2dVertex
62
5
10
169.000000
20
328.687500
0
VERTEX
5
11b
100
AcDbEntity
8
1
100
AcDbVertex
100
AcDb2dVertex
62
5
10
169.250000
20
328.062500
0
VERTEX
5
11c
100
AcDbEntity
8
1
100
AcDbVertex
100
AcDb2dVertex
62
5
10
169.250000
20
326.812500
0
VERTEX
5
11d
100
AcDbEntity
8
1
100
AcDbVertex
100
AcDb2dVertex
62
5
10
169.000000
20
326.187500
0
VERTEX
5
11e
100
AcDbEntity
8
1
100
AcDbVertex
100
AcDb2dVertex
62
5
10
167.500000
20
324.937500
0
VERTEX
5
11f
100
AcDbEntity
8
1
100
AcDbVertex
100
AcDb2dVertex
62
5
10
167.000000
20
324.000000
0
VERTEX
5
120
100
AcDbEntity
8
1
100
AcDbVertex
100
AcDb2dVertex
62
5
10
167.000000
20
322.750000
0
VERTEX
5
121
100
AcDbEntity
8
1
100
AcDbVertex
100
AcDb2dVertex
62
5
10
167.250000
20
322.125000
0
VERTEX
5
122
100
AcDbEntity
8
1
100
AcDbVertex
100
AcDb2dVertex
62
5
10
167.500000
20
321.812500
0
VERTEX
5
123
100
AcDbEntity
8
1
100
AcDbVertex
100
AcDb2dVertex
62
5
10
168.000000
20
321.500000
0
VERTEX
5
124
100
AcDbEntity
8
1
100
AcDbVertex
100
AcDb2dVertex
62
5
10
168.500000
20
321.500000
0
VERTEX
5
125
100
AcDbEntity
8
1
100
AcDbVertex
100
AcDb2dVertex
62
5
10
169.000000
20
321.812500
0
VERTEX
5
126
100
AcDbEntity
8
1
100
AcDbVertex
100
AcDb2dVertex
62
5
10
169.250000
20
322.125000
0
VERTEX
5
127
100
AcDbEntity
8
1
100
AcDbVertex
100
AcDb2dVertex
62
5
10
169.500000
20
322.750000
0
VERTEX
5
128
100
AcDbEntity
8
1
100
AcDbVertex
100
AcDb2dVertex
62
5
10
169.500000
20
324.000000
0
VERTEX
5
129
100
AcDbEntity
8
1
100
AcDbVertex
100
AcDb2dVertex
62
5
10
169.000000
20
324.937500
0
VERTEX
5
12a
100
AcDbEntity
8
1
100
AcDbVertex
100
AcDb2dVertex
62
5
10
167.500000
20
326.187500
0
VERTEX
5
12b
100
AcDbEntity
8
1
100
AcDbVertex
100
AcDb2dVertex
62
5
10
167.250000
20
326.812500
0
VERTEX
5
12c
100
AcDbEntity
8
1
100
AcDbVertex
100
AcDb2dVertex
62
5
10
167.250000
20
328.062500
0
VERTEX
5
12d
100
AcDbEntity
8
1
100
AcDbVertex
100
AcDb2dVertex
62
5
10
167.500000
20
328.687500
0
VERTEX
5
12e
100
AcDbEntity
8
1
100
AcDbVertex
100
AcDb2dVertex
62
5
10
168.000000
20
329.000000
0
SEQEND
5
12f
100
AcDbEntity
8
1
0
POLYLINE
5
130
100
AcDbEntity
8
1
6
CONTINUOUS
62
5
100
AcDb2dPolyline
66
1
10
0.0
20
0.0
30
0.0
70
0
0
VERTEX
5
131
100
AcDbEntity
8
1
100
AcDbVertex
100
AcDb2dVertex
62
5
10
163.250000
20
317.125000
0
VERTEX
5
132
100
AcDbEntity
8
1
100
AcDbVertex
100
AcDb2dVertex
62
5
10
167.000000
20
317.125000
0
VERTEX
5
133
100
AcDbEntity
8
1
100
AcDbVertex
100
AcDb2dVertex
62
5
10
167.000000
20
316.187500
0
VERTEX
5
134
100
AcDbEntity
8
1
100
AcDbVertex
100
AcDb2dVertex
62
5
10
166.750000
20
314.937500
0
VERTEX
5
135
100
AcDbEntity
8
1
100
AcDbVertex
100
AcDb2dVertex
62
5
10
166.250000
20
314.000000
0
VERTEX
5
136
100
AcDbEntity
8
1
100
AcDbVertex
100
AcDb2dVertex
62
5
10
165.750000
20
313.062500
0
VERTEX
5
137
100
AcDbEntity
8
1
100
AcDbVertex
100
AcDb2dVertex
62
5
10
164.250000
20
311.812500
0
SEQEND
5
138
100
AcDbEntity
8
1
0
LINE
5
139
100
AcDbEntity
8
1
100
AcDbLine
6
CONTINUOUS
62
5
10
167.500000
20
318.375000
11
168.250000
21
317.437500
0
LINE
5
13a
100
AcDbEntity
8
1
100
AcDbLine
6
CONTINUOUS
62
5
10
168.500000
20
319.000000
11
169.000000
21
318.062500
0
POLYLINE
5
13b
100
AcDbEntity
8
1
6
CONTINUOUS
62
5
100
AcDb2dPolyline
66
1
10
0.0
20
0.0
30
0.0
70
1
0
VERTEX
5
13c
100
AcDbEntity
8
1
100
AcDbVertex
100
AcDb2dVertex
62
5
10
156.000000
20
329.000000
0
VERTEX
5
13d
100
AcDbEntity
8
1
100
AcDbVertex
100
AcDb2dVertex
62
5
10
156.500000
20
329.000000
0
VERTEX
5
13e
100
AcDbEntity
8
1
100
AcDbVertex
100
AcDb2dVertex
62
5
10
157.000000
20
328.687500
0
VERTEX
5
13f
100
AcDbEntity
8
1
100
AcDbVertex
100
AcDb2dVertex
62
5
10
157.250000
20
328.062500
0
VERTEX
5
140
100
AcDbEntity
8
1
100
AcDbVertex
100
AcDb2dVertex
62
5
10
157.250000
20
326.812500
0
VERTEX
5
141
100
AcDbEntity
8
1
100
AcDbVertex
100
AcDb2dVertex
62
5
10
157.000000
20
326.187500
0
VERTEX
5
142
100
AcDbEntity
8
1
100
AcDbVertex
100
AcDb2dVertex
62
5
10
155.500000
20
324.937500
0
VERTEX
5
143
100
AcDbEntity
8
1
100
AcDbVertex
100
AcDb2dVertex
62
5
10
155.000000
20
324.000000
0
VERTEX
5
144
100
AcDbEntity
8
1
100
AcDbVertex
100
AcDb2dVertex
62
5
10
155.000000
20
322.750000
0
VERTEX
5
145
100
AcDbEntity
8
1
100
AcDbVertex
100
AcDb2dVertex
62
5
10
155.250000
20
322.125000
0
VERTEX
5
146
100
AcDbEntity
8
1
100
AcDbVertex
100
AcDb2dVertex
62
5
10
155.500000
20
321.812500
0
VERTEX
5
147
100
AcDbEntity
8
1
100
AcDbVertex
100
AcDb2dVertex
62
5
10
156.000000
20
321.500000
0
VERTEX
5
148
100
AcDbEntity
8
1
100
AcDbVertex
100
AcDb2dVertex
62
5
10
156.500000
20
321.500000
0
VERTEX
5
149
100
AcDbEntity
8
1
100
AcDbVertex
100
AcDb2dVertex
62
5
10
157.000000
20
321.812500
0
VERTEX
5
14a
100
AcDbEntity
8
1
100
AcDbVertex
100
AcDb2dVertex
62
5
10
157.250000
20
322.125000
0
VERTEX
5
14b
100
AcDbEntity
8
1
100
AcDbVertex
100
AcDb2dVertex
62
5
10
157.500000
20
322.750000
0
VERTEX
5
14c
100
AcDbEntity
8
1
100
AcDbVertex
100
AcDb2dVertex
62
5
10
157.500000
20
324.000000
0
VERTEX
5
14d
100
AcDbEntity
8
1
100
AcDbVertex
100
AcDb2dVertex
62
5
10
157.000000
20
324.937500
0
VERTEX
5
14e
100
AcDbEntity
8
1
100
AcDbVertex
100
AcDb2dVertex
62
5
10
155.500000
20
326.187500
0
VERTEX
5
14f
100
AcDbEntity
8
1
100
AcDbVertex
100
AcDb2dVertex
62
5
10
155.250000
20
326.812500
0
VERTEX
5
150
100
AcDbEntity
8
1
100
AcDbVertex
100
AcDb2dVertex
62
5
10
155.250000
20
328.062500
0
VERTEX
5
151
100
AcDbEntity
8
1
100
AcDbVertex
100
AcDb2dVertex
62
5
10
155.500000
20
328.687500
0
VERTEX
5
152
100
AcDbEntity
8
1
100
AcDbVertex
100
AcDb2dVertex
62
5
10
156.000000
20
329.000000
0
SEQEND
5
153
100
AcDbEntity
8
1
0
POLYLINE
5
154
100
AcDbEntity
8
1
6
CONTINUOUS
62
5
100
AcDb2dPolyline
66
1
10
0.0
20
0.0
30
0.0
70
0
0
VERTEX
5
155
100
AcDbEntity
8
1
100
AcDbVertex
100
AcDb2dVertex
62
5
10
157.250000
20
316.187500
0
VERTEX
5
156
100
AcDbEntity
8
1
100
AcDbVertex
100
AcDb2dVertex
62
5
10
157.500000
20
316.187500
0
VERTEX
5
157
100
AcDbEntity
8
1
100
AcDbVertex
100
AcDb2dVertex
62
5
10
159.250000
20
314.937500
0
SEQEND
5
158
100
AcDbEntity
8
1
0
LINE
5
159
100
AcDbEntity
8
1
100
AcDbLine
6
CONTINUOUS
62
5
10
157.250000
20
319.000000
11
157.250000
21
311.500000
0
LINE
5
15a
100
AcDbEntity
8
1
100
AcDbLine
6
CONTINUOUS
62
5
10
158.250000
20
327.125000
11
160.500000
21
327.125000
0
LINE
5
15b
100
AcDbEntity
8
1
100
AcDbLine
6
CONTINUOUS
62
5
10
159.500000
20
329.312500
11
159.500000
21
320.562500
0
POLYLINE
5
15c
100
AcDbEntity
8
1
6
CONTINUOUS
62
5
100
AcDb2dPolyline
66
1
10
0.0
20
0.0
30
0.0
70
0
0
VERTEX
5
15d
100
AcDbEntity
8
1
100
AcDbVertex
100
AcDb2dVertex
62
5
10
159.500000
20
327.125000
0
VERTEX
5
15e
100
AcDbEntity
8
1
100
AcDbVertex
100
AcDb2dVertex
62
5
10
159.000000
20
325.250000
0
VERTEX
5
15f
100
AcDbEntity
8
1
100
AcDbVertex
100
AcDb2dVertex
62
5
10
158.250000
20
323.375000
0
SEQEND
5
160
100
AcDbEntity
8
1
0
LINE
5
161
100
AcDbEntity
8
1
100
AcDbLine
6
CONTINUOUS
62
5
10
159.500000
20
326.187500
11
160.500000
21
324.625000
0
LINE
5
162
100
AcDbEntity
8
1
100
AcDbLine
6
CONTINUOUS
62
5
10
160.500000
20
329.000000
11
165.250000
21
329.000000
0
POLYLINE
5
163
100
AcDbEntity
8
1
6
CONTINUOUS
62
5
100
AcDb2dPolyline
66
1
10
0.0
20
0.0
30
0.0
70
0
0
VERTEX
5
164
100
AcDbEntity
8
1
100
AcDbVertex
100
AcDb2dVertex
62
5
10
162.750000
20
329.000000
0
VERTEX
5
165
100
AcDbEntity
8
1
100
AcDbVertex
100
AcDb2dVertex
62
5
10
161.750000
20
326.812500
0
VERTEX
5
166
100
AcDbEntity
8
1
100
AcDbVertex
100
AcDb2dVertex
62
5
10
163.250000
20
327.125000
0
VERTEX
5
167
100
AcDbEntity
8
1
100
AcDbVertex
100
AcDb2dVertex
62
5
10
163.250000
20
324.000000
0
VERTEX
5
168
100
AcDbEntity
8
1
100
AcDbVertex
100
AcDb2dVertex
62
5
10
162.750000
20
321.812500
0
VERTEX
5
169
100
AcDbEntity
8
1
100
AcDbVertex
100
AcDb2dVertex
62
5
10
162.250000
20
322.125000
0
SEQEND
5
16a
100
AcDbEntity
8
1
0
POLYLINE
5
16b
100
AcDbEntity
8
1
6
CONTINUOUS
62
5
100
AcDb2dPolyline
66
1
10
0.0
20
0.0
30
0.0
70
1
0
VERTEX
5
16c
100
AcDbEntity
8
1
100
AcDbVertex
100
AcDb2dVertex
62
5
10
161.000000
20
325.250000
0
VERTEX
5
16d
100
AcDbEntity
8
1
100
AcDbVertex
100
AcDb2dVertex
62
5
10
162.250000
20
325.250000
0
VERTEX
5
16e
100
AcDbEntity
8
1
100
AcDbVertex
100
AcDb2dVertex
62
5
10
162.250000
20
323.062500
0
VERTEX
5
16f
100
AcDbEntity
8
1
100
AcDbVertex
100
AcDb2dVertex
62
5
10
161.000000
20
323.062500
0
VERTEX
5
170
100
AcDbEntity
8
1
100
AcDbVertex
100
AcDb2dVertex
62
5
10
161.000000
20
325.250000
0
SEQEND
5
171
100
AcDbEntity
8
1
0
POLYLINE
5
172
100
AcDbEntity
8
1
6
CONTINUOUS
62
5
100
AcDb2dPolyline
66
1
10
0.0
20
0.0
30
0.0
70
0
0
VERTEX
5
173
100
AcDbEntity
8
1
100
AcDbVertex
100
AcDb2dVertex
62
5
10
163.750000
20
326.812500
0
VERTEX
5
174
100
AcDbEntity
8
1
100
AcDbVertex
100
AcDb2dVertex
62
5
10
165.250000
20
326.812500
0
VERTEX
5
175
100
AcDbEntity
8
1
100
AcDbVertex
100
AcDb2dVertex
62
5
10
165.000000
20
325.562500
0
VERTEX
5
176
100
AcDbEntity
8
1
100
AcDbVertex
100
AcDb2dVertex
62
5
10
164.500000
20
324.000000
0
VERTEX
5
177
100
AcDbEntity
8
1
100
AcDbVertex
100
AcDb2dVertex
62
5
10
163.750000
20
322.437500
0
SEQEND
5
178
100
AcDbEntity
8
1
0
POLYLINE
5
179
100
AcDbEntity
8
1
6
CONTINUOUS
62
5
100
AcDb2dPolyline
66
1
10
0.0
20
0.0
30
0.0
70
0
0
VERTEX
5
17a
100
AcDbEntity
8
1
100
AcDbVertex
100
AcDb2dVertex
62
5
10
163.750000
20
325.875000
0
VERTEX
5
17b
100
AcDbEntity
8
1
100
AcDbVertex
100
AcDb2dVertex
62
5
10
164.000000
20
324.625000
0
VERTEX
5
17c
100
AcDbEntity
8
1
100
AcDbVertex
100
AcDb2dVertex
62
5
10
165.500000
20
322.437500
0
SEQEND
5
17d
100
AcDbEntity
8
1
0
LINE
5
17e
100
AcDbEntity
8
1
100
AcDbLine
6
CONTINUOUS
62
5
10
160.250000
20
320.875000
11
165.500000
21
320.875000
0
POLYLINE
5
17f
100
AcDbEntity
8
1
6
CONTINUOUS
62
5
100
AcDb2dPolyline
66
1
10
0.0
20
0.0
30
0.0
70
0
0
VERTEX
5
180
100
AcDbEntity
8
1
100
AcDbVertex
100
AcDb2dVertex
62
5
10
189.500000
20
327.437500
0
VERTEX
5
181
100
AcDbEntity
8
1
100
AcDbVertex
100
AcDb2dVertex
62
5
10
189.250000
20
328.375000
0
VERTEX
5
182
100
AcDbEntity
8
1
100
AcDbVertex
100
AcDb2dVertex
62
5
10
188.750000
20
329.000000
0
VERTEX
5
183
100
AcDbEntity
8
1
100
AcDbVertex
100
AcDb2dVertex
62
5
10
188.000000
20
329.000000
0
VERTEX
5
184
100
AcDbEntity
8
1
100
AcDbVertex
100
AcDb2dVertex
62
5
10
187.250000
20
328.062500
0
VERTEX
5
185
100
AcDbEntity
8
1
100
AcDbVertex
100
AcDb2dVertex
62
5
10
187.000000
20
326.500000
0
VERTEX
5
186
100
AcDbEntity
8
1
100
AcDbVertex
100
AcDb2dVertex
62
5
10
187.000000
20
324.000000
0
VERTEX
5
187
100
AcDbEntity
8
1
100
AcDbVertex
100
AcDb2dVertex
62
5
10
187.250000
20
322.437500
0
VERTEX
5
188
100
AcDbEntity
8
1
100
AcDbVertex
100
AcDb2dVertex
62
5
10
188.000000
20
321.500000
0
VERTEX
5
189
100
AcDbEntity
8
1
100
AcDbVertex
100
AcDb2dVertex
62
5
10
188.750000
20
321.500000
0
VERTEX
5
18a
100
AcDbEntity
8
1
100
AcDbVertex
100
AcDb2dVertex
62
5
10
189.250000
20
322.125000
0
VERTEX
5
18b
100
AcDbEntity
8
1
100
AcDbVertex
100
AcDb2dVertex
62
5
10
189.750000
20
323.687500
0
SEQEND
5
18c
100
AcDbEntity
8
1
0
POLYLINE
5
18d
100
AcDbEntity
8
1
6
CONTINUOUS
62
5
100
AcDb2dPolyline
66
1
10
0.0
20
0.0
30
0.0
70
0
0
VERTEX
5
18e
100
AcDbEntity
8
1
100
AcDbVertex
100
AcDb2dVertex
62
5
10
187.750000
20
315.250000
0
VERTEX
5
18f
100
AcDbEntity
8
1
100
AcDbVertex
100
AcDb2dVertex
62
5
10
188.750000
20
316.500000
0
VERTEX
5
190
100
AcDbEntity
8
1
100
AcDbVertex
100
AcDb2dVertex
62
5
10
189.250000
20
317.437500
0
VERTEX
5
191
100
AcDbEntity
8
1
100
AcDbVertex
100
AcDb2dVertex
62
5
10
191.750000
20
317.437500
0
VERTEX
5
192
100
AcDbEntity
8
1
100
AcDbVertex
100
AcDb2dVertex
62
5
10
191.750000
20
317.125000
0
VERTEX
5
193
100
AcDbEntity
8
1
100
AcDbVertex
100
AcDb2dVertex
62
5
10
191.000000
20
315.250000
0
VERTEX
5
194
100
AcDbEntity
8
1
100
AcDbVertex
100
AcDb2dVertex
62
5
10
189.750000
20
313.375000
0
VERTEX
5
195
100
AcDbEntity
8
1
100
AcDbVertex
100
AcDb2dVertex
62
5
10
188.250000
20
311.812500
0
SEQEND
5
196
100
AcDbEntity
8
1
0
LINE
5
197
100
AcDbEntity
8
3
100
AcDbLine
6
DOT2
62
5
10
252.350724
20
188.275377
11
251.725724
21
187.650377
0
POLYLINE
5
198
100
AcDbEntity
8
3
6
DOT2
62
5
100
AcDb2dPolyline
66
1
10
0.0
20
0.0
30
0.0
70
0
0
VERTEX
5
199
100
AcDbEntity
8
3
100
AcDbVertex
100
AcDb2dVertex
62
5
10
251.725724
20
188.275377
0
VERTEX
5
19a
100
AcDbEntity
8
3
100
AcDbVertex
100
AcDb2dVertex
62
5
10
252.350724
20
187.650377
0
VERTEX
5
19b
100
AcDbEntity
8
3
100
AcDbVertex
100
AcDb2dVertex
62
5
10
251.725724
20
187.650377
0
VERTEX
5
19c
100
AcDbEntity
8
3
100
AcDbVertex
100
AcDb2dVertex
62
5
10
251.725724
20
188.275377
0
VERTEX
5
19d
100
AcDbEntity
8
3
100
AcDbVertex
100
AcDb2dVertex
62
5
10
252.350724
20
188.275377
0
VERTEX
5
19e
100
AcDbEntity
8
3
100
AcDbVertex
100
AcDb2dVertex
62
5
10
252.350724
20
187.650377
0
SEQEND
5
19f
100
AcDbEntity
8
3
0
POLYLINE
5
1a0
100
AcDbEntity
8
3
6
DOT2
62
5
100
AcDb2dPolyline
66
1
10
0.0
20
0.0
30
0.0
70
0
0
VERTEX
5
1a1
100
AcDbEntity
8
3
100
AcDbVertex
100
AcDb2dVertex
62
5
10
256.725724
20
193.275377
0
VERTEX
5
1a2
100
AcDbEntity
8
3
100
AcDbVertex
100
AcDb2dVertex
62
5
10
257.038224
20
194.525377
0
VERTEX
5
1a3
100
AcDbEntity
8
3
100
AcDbVertex
100
AcDb2dVertex
62
5
10
257.663224
20
195.150377
0
VERTEX
5
1a4
100
AcDbEntity
8
3
100
AcDbVertex
100
AcDb2dVertex
62
5
10
258.600724
20
195.150377
0
VERTEX
5
1a5
100
AcDbEntity
8
3
100
AcDbVertex
100
AcDb2dVertex
62
5
10
259.225724
20
194.837877
0
VERTEX
5
1a6
100
AcDbEntity
8
3
100
AcDbVertex
100
AcDb2dVertex
62
5
10
259.538224
20
193.900377
0
VERTEX
5
1a7
100
AcDbEntity
8
3
100
AcDbVertex
100
AcDb2dVertex
62
5
10
259.538224
20
192.650377
0
VERTEX
5
1a8
100
AcDbEntity
8
3
100
AcDbVertex
100
AcDb2dVertex
62
5
10
259.225724
20
192.025377
0
VERTEX
5
1a9
100
AcDbEntity
8
3
100
AcDbVertex
100
AcDb2dVertex
62
5
10
258.600724
20
191.400377
0
VERTEX
5
1aa
100
AcDbEntity
8
3
100
AcDbVertex
100
AcDb2dVertex
62
5
10
257.663224
20
191.400377
0
SEQEND
5
1ab
100
AcDbEntity
8
3
0
POLYLINE
5
1ac
100
AcDbEntity
8
3
6
DOT2
62
5
100
AcDb2dPolyline
66
1
10
0.0
20
0.0
30
0.0
70
0
0
VERTEX
5
1ad
100
AcDbEntity
8
3
100
AcDbVertex
100
AcDb2dVertex
62
5
10
258.600724
20
191.400377
0
VERTEX
5
1ae
100
AcDbEntity
8
3
100
AcDbVertex
100
AcDb2dVertex
62
5
10
259.538224
20
190.775377
0
VERTEX
5
1af
100
AcDbEntity
8
3
100
AcDbVertex
100
AcDb2dVertex
62
5
10
259.850724
20
189.837877
0
VERTEX
5
1b0
100
AcDbEntity
8
3
100
AcDbVertex
100
AcDb2dVertex
62
5
10
259.850724
20
188.900377
0
VERTEX
5
1b1
100
AcDbEntity
8
3
100
AcDbVertex
100
AcDb2dVertex
62
5
10
259.538224
20
188.275377
0
VERTEX
5
1b2
100
AcDbEntity
8
3
100
AcDbVertex
100
AcDb2dVertex
62
5
10
258.600724
20
187.650377
0
VERTEX
5
1b3
100
AcDbEntity
8
3
100
AcDbVertex
100
AcDb2dVertex
62
5
10
257.663224
20
187.650377
0
VERTEX
5
1b4
100
AcDbEntity
8
3
100
AcDbVertex
100
AcDb2dVertex
62
5
10
257.038224
20
187.962877
0
VERTEX
5
1b5
100
AcDbEntity
8
3
100
AcDbVertex
100
AcDb2dVertex
62
5
10
256.413224
20
188.900377
0
SEQEND
5
1b6
100
AcDbEntity
8
3
0
POLYLINE
5
1b7
100
AcDbEntity
8
3
6
DOT2
62
5
100
AcDb2dPolyline
66
1
10
0.0
20
0.0
30
0.0
70
0
0
VERTEX
5
1b8
100
AcDbEntity
8
3
100
AcDbVertex
100
AcDb2dVertex
62
5
10
241.725724
20
193.275377
0
VERTEX
5
1b9
100
AcDbEntity
8
3
100
AcDbVertex
100
AcDb2dVertex
62
5
10
242.038224
20
194.525377
0
VERTEX
5
1ba
100
AcDbEntity
8
3
100
AcDbVertex
100
AcDb2dVertex
62
5
10
242.663224
20
195.150377
0
VERTEX
5
1bb
100
AcDbEntity
8
3
100
AcDbVertex
100
AcDb2dVertex
62
5
10
243.600724
20
195.150377
0
VERTEX
5
1bc
100
AcDbEntity
8
3
100
AcDbVertex
100
AcDb2dVertex
62
5
10
244.225724
20
194.837877
0
VERTEX
5
1bd
100
AcDbEntity
8
3
100
AcDbVertex
100
AcDb2dVertex
62
5
10
244.538224
20
193.900377
0
VERTEX
5
1be
100
AcDbEntity
8
3
100
AcDbVertex
100
AcDb2dVertex
62
5
10
244.538224
20
192.650377
0
VERTEX
5
1bf
100
AcDbEntity
8
3
100
AcDbVertex
100
AcDb2dVertex
62
5
10
244.225724
20
192.025377
0
VERTEX
5
1c0
100
AcDbEntity
8
3
100
AcDbVertex
100
AcDb2dVertex
62
5
10
243.600724
20
191.400377
0
VERTEX
5
1c1
100
AcDbEntity
8
3
100
AcDbVertex
100
AcDb2dVertex
62
5
10
242.663224
20
191.400377
0
SEQEND
5
1c2
100
AcDbEntity
8
3
0
POLYLINE
5
1c3
100
AcDbEntity
8
3
6
DOT2
62
5
100
AcDb2dPolyline
66
1
10
0.0
20
0.0
30
0.0
70
0
0
VERTEX
5
1c4
100
AcDbEntity
8
3
100
AcDbVertex
100
AcDb2dVertex
62
5
10
243.600724
20
191.400377
0
VERTEX
5
1c5
100
AcDbEntity
8
3
100
AcDbVertex
100
AcDb2dVertex
62
5
10
244.538224
20
190.775377
0
VERTEX
5
1c6
100
AcDbEntity
8
3
100
AcDbVertex
100
AcDb2dVertex
62
5
10
244.850724
20
189.837877
0
VERTEX
5
1c7
100
AcDbEntity
8
3
100
AcDbVertex
100
AcDb2dVertex
62
5
10
244.850724
20
188.900377
0
VERTEX
5
1c8
100
AcDbEntity
8
3
100
AcDbVertex
100
AcDb2dVertex
62
5
10
244.538224
20
188.275377
0
VERTEX
5
1c9
100
AcDbEntity
8
3
100
AcDbVertex
100
AcDb2dVertex
62
5
10
243.600724
20
187.650377
0
VERTEX
5
1ca
100
AcDbEntity
8
3
100
AcDbVertex
100
AcDb2dVertex
62
5
10
242.663224
20
187.650377
0
VERTEX
5
1cb
100
AcDbEntity
8
3
100
AcDbVertex
100
AcDb2dVertex
62
5
10
242.038224
20
187.962877
0
VERTEX
5
1cc
100
AcDbEntity
8
3
100
AcDbVertex
100
AcDb2dVertex
62
5
10
241.413224
20
188.900377
0
SEQEND
5
1cd
100
AcDbEntity
8
3
0
POLYLINE
5
1ce
100
AcDbEntity
8
3
6
DOT2
62
5
100
AcDb2dPolyline
66
1
10
0.0
20
0.0
30
0.0
70
0
0
VERTEX
5
1cf
100
AcDbEntity
8
3
100
AcDbVertex
100
AcDb2dVertex
62
5
10
246.725724
20
193.275377
0
VERTEX
5
1d0
100
AcDbEntity
8
3
100
AcDbVertex
100
AcDb2dVertex
62
5
10
247.038224
20
194.525377
0
VERTEX
5
1d1
100
AcDbEntity
8
3
100
AcDbVertex
100
AcDb2dVertex
62
5
10
247.663224
20
195.150377
0
VERTEX
5
1d2
100
AcDbEntity
8
3
100
AcDbVertex
100
AcDb2dVertex
62
5
10
248.600724
20
195.150377
0
VERTEX
5
1d3
100
AcDbEntity
8
3
100
AcDbVertex
100
AcDb2dVertex
62
5
10
249.225724
20
194.837877
0
VERTEX
5
1d4
100
AcDbEntity
8
3
100
AcDbVertex
100
AcDb2dVertex
62
5
10
249.538224
20
193.900377
0
VERTEX
5
1d5
100
AcDbEntity
8
3
100
AcDbVertex
100
AcDb2dVertex
62
5
10
249.538224
20
192.650377
0
VERTEX
5
1d6
100
AcDbEntity
8
3
100
AcDbVertex
100
AcDb2dVertex
62
5
10
249.225724
20
192.025377
0
VERTEX
5
1d7
100
AcDbEntity
8
3
100
AcDbVertex
100
AcDb2dVertex
62
5
10
248.600724
20
191.400377
0
VERTEX
5
1d8
100
AcDbEntity
8
3
100
AcDbVertex
100
AcDb2dVertex
62
5
10
247.663224
20
191.400377
0
SEQEND
5
1d9
100
AcDbEntity
8
3
0
POLYLINE
5
1da
100
AcDbEntity
8
3
6
DOT2
62
5
100
AcDb2dPolyline
66
1
10
0.0
20
0.0
30
0.0
70
0
0
VERTEX
5
1db
100
AcDbEntity
8
3
100
AcDbVertex
100
AcDb2dVertex
62
5
10
248.600724
20
191.400377
0
VERTEX
5
1dc
100
AcDbEntity
8
3
100
AcDbVertex
100
AcDb2dVertex
62
5
10
249.538224
20
190.775377
0
VERTEX
5
1dd
100
AcDbEntity
8
3
100
AcDbVertex
100
AcDb2dVertex
62
5
10
249.850724
20
189.837877
0
VERTEX
5
1de
100
AcDbEntity
8
3
100
AcDbVertex
100
AcDb2dVertex
62
5
10
249.850724
20
188.900377
0
VERTEX
5
1df
100
AcDbEntity
8
3
100
AcDbVertex
100
AcDb2dVertex
62
5
10
249.538224
20
188.275377
0
VERTEX
5
1e0
100
AcDbEntity
8
3
100
AcDbVertex
100
AcDb2dVertex
62
5
10
248.600724
20
187.650377
0
VERTEX
5
1e1
100
AcDbEntity
8
3
100
AcDbVertex
100
AcDb2dVertex
62
5
10
247.663224
20
187.650377
0
VERTEX
5
1e2
100
AcDbEntity
8
3
100
AcDbVertex
100
AcDb2dVertex
62
5
10
247.038224
20
187.962877
0
VERTEX
5
1e3
100
AcDbEntity
8
3
100
AcDbVertex
100
AcDb2dVertex
62
5
10
246.413224
20
188.900377
0
SEQEND
5
1e4
100
AcDbEntity
8
3
0
LINE
5
1e5
100
AcDbEntity
8
3
100
AcDbLine
6
DOT2
62
5
10
174.974276
20
195.150377
11
177.786776
21
195.150377
0
POLYLINE
5
1e6
100
AcDbEntity
8
3
6
DOT2
62
5
100
AcDb2dPolyline
66
1
10
0.0
20
0.0
30
0.0
70
0
0
VERTEX
5
1e7
100
AcDbEntity
8
3
100
AcDbVertex
100
AcDb2dVertex
62
5
10
174.974276
20
195.150377
0
VERTEX
5
1e8
100
AcDbEntity
8
3
100
AcDbVertex
100
AcDb2dVertex
62
5
10
174.974276
20
191.400377
0
VERTEX
5
1e9
100
AcDbEntity
8
3
100
AcDbVertex
100
AcDb2dVertex
62
5
10
175.599276
20
192.025377
0
VERTEX
5
1ea
100
AcDbEntity
8
3
100
AcDbVertex
100
AcDb2dVertex
62
5
10
176.224276
20
192.337877
0
VERTEX
5
1eb
100
AcDbEntity
8
3
100
AcDbVertex
100
AcDb2dVertex
62
5
10
177.161776
20
192.337877
0
VERTEX
5
1ec
100
AcDbEntity
8
3
100
AcDbVertex
100
AcDb2dVertex
62
5
10
177.786776
20
192.025377
0
VERTEX
5
1ed
100
AcDbEntity
8
3
100
AcDbVertex
100
AcDb2dVertex
62
5
10
178.099276
20
191.087877
0
VERTEX
5
1ee
100
AcDbEntity
8
3
100
AcDbVertex
100
AcDb2dVertex
62
5
10
178.099276
20
189.212877
0
VERTEX
5
1ef
100
AcDbEntity
8
3
100
AcDbVertex
100
AcDb2dVertex
62
5
10
177.474276
20
188.275377
0
VERTEX
5
1f0
100
AcDbEntity
8
3
100
AcDbVertex
100
AcDb2dVertex
62
5
10
176.536776
20
187.650377
0
VERTEX
5
1f1
100
AcDbEntity
8
3
100
AcDbVertex
100
AcDb2dVertex
62
5
10
174.974276
20
187.650377
0
SEQEND
5
1f2
100
AcDbEntity
8
3
0
POLYLINE
5
1f3
100
AcDbEntity
8
3
6
DOT2
62
5
100
AcDb2dPolyline
66
1
10
0.0
20
0.0
30
0.0
70
1
0
VERTEX
5
1f4
100
AcDbEntity
8
3
100
AcDbVertex
100
AcDb2dVertex
62
5
10
166.224276
20
195.150377
0
VERTEX
5
1f5
100
AcDbEntity
8
3
100
AcDbVertex
100
AcDb2dVertex
62
5
10
166.849276
20
195.150377
0
VERTEX
5
1f6
100
AcDbEntity
8
3
100
AcDbVertex
100
AcDb2dVertex
62
5
10
167.474276
20
194.837877
0
VERTEX
5
1f7
100
AcDbEntity
8
3
100
AcDbVertex
100
AcDb2dVertex
62
5
10
167.786776
20
194.212877
0
VERTEX
5
1f8
100
AcDbEntity
8
3
100
AcDbVertex
100
AcDb2dVertex
62
5
10
167.786776
20
192.962877
0
VERTEX
5
1f9
100
AcDbEntity
8
3
100
AcDbVertex
100
AcDb2dVertex
62
5
10
167.474276
20
192.337877
0
VERTEX
5
1fa
100
AcDbEntity
8
3
100
AcDbVertex
100
AcDb2dVertex
62
5
10
165.599276
20
191.087877
0
VERTEX
5
1fb
100
AcDbEntity
8
3
100
AcDbVertex
100
AcDb2dVertex
62
5
10
164.974276
20
190.150377
0
VERTEX
5
1fc
100
AcDbEntity
8
3
100
AcDbVertex
100
AcDb2dVertex
62
5
10
164.974276
20
188.900377
0
VERTEX
5
1fd
100
AcDbEntity
8
3
100
AcDbVertex
100
AcDb2dVertex
62
5
10
165.286776
20
188.275377
0
VERTEX
5
1fe
100
AcDbEntity
8
3
100
AcDbVertex
100
AcDb2dVertex
62
5
10
165.599276
20
187.962877
0
VERTEX
5
1ff
100
AcDbEntity
8
3
100
AcDbVertex
100
AcDb2dVertex
62
5
10
166.224276
20
187.650377
0
VERTEX
5
200
100
AcDbEntity
8
3
100
AcDbVertex
100
AcDb2dVertex
62
5
10
166.849276
20
187.650377
0
VERTEX
5
201
100
AcDbEntity
8
3
100
AcDbVertex
100
AcDb2dVertex
62
5
10
167.474276
20
187.962877
0
VERTEX
5
202
100
AcDbEntity
8
3
100
AcDbVertex
100
AcDb2dVertex
62
5
10
167.786776
20
188.275377
0
VERTEX
5
203
100
AcDbEntity
8
3
100
AcDbVertex
100
AcDb2dVertex
62
5
10
168.099276
20
188.900377
0
VERTEX
5
204
100
AcDbEntity
8
3
100
AcDbVertex
100
AcDb2dVertex
62
5
10
168.099276
20
190.150377
0
VERTEX
5
205
100
AcDbEntity
8
3
100
AcDbVertex
100
AcDb2dVertex
62
5
10
167.474276
20
191.087877
0
VERTEX
5
206
100
AcDbEntity
8
3
100
AcDbVertex
100
AcDb2dVertex
62
5
10
165.599276
20
192.337877
0
VERTEX
5
207
100
AcDbEntity
8
3
100
AcDbVertex
100
AcDb2dVertex
62
5
10
165.286776
20
192.962877
0
VERTEX
5
208
100
AcDbEntity
8
3
100
AcDbVertex
100
AcDb2dVertex
62
5
10
165.286776
20
194.212877
0
VERTEX
5
209
100
AcDbEntity
8
3
100
AcDbVertex
100
AcDb2dVertex
62
5
10
165.599276
20
194.837877
0
VERTEX
5
20a
100
AcDbEntity
8
3
100
AcDbVertex
100
AcDb2dVertex
62
5
10
166.224276
20
195.150377
0
SEQEND
5
20b
100
AcDbEntity
8
3
0
LINE
5
20c
100
AcDbEntity
8
3
100
AcDbLine
6
DOT2
62
5
10
170.599276
20
188.275377
11
169.974276
21
187.650377
0
POLYLINE
5
20d
100
AcDbEntity
8
3
6
DOT2
62
5
100
AcDb2dPolyline
66
1
10
0.0
20
0.0
30
0.0
70
0
0
VERTEX
5
20e
100
AcDbEntity
8
3
100
AcDbVertex
100
AcDb2dVertex
62
5
10
169.974276
20
188.275377
0
VERTEX
5
20f
100
AcDbEntity
8
3
100
AcDbVertex
100
AcDb2dVertex
62
5
10
170.599276
20
187.650377
0
VERTEX
5
210
100
AcDbEntity
8
3
100
AcDbVertex
100
AcDb2dVertex
62
5
10
169.974276
20
187.650377
0
VERTEX
5
211
100
AcDbEntity
8
3
100
AcDbVertex
100
AcDb2dVertex
62
5
10
169.974276
20
188.275377
0
VERTEX
5
212
100
AcDbEntity
8
3
100
AcDbVertex
100
AcDb2dVertex
62
5
10
170.599276
20
188.275377
0
VERTEX
5
213
100
AcDbEntity
8
3
100
AcDbVertex
100
AcDb2dVertex
62
5
10
170.599276
20
187.650377
0
SEQEND
5
214
100
AcDbEntity
8
3
0
LINE
5
215
100
AcDbEntity
8
3
100
AcDbLine
6
CONTINUOUS
62
5
10
197.224276
20
162.200000
11
197.224276
21
188.400377
0
LINE
5
216
100
AcDbEntity
8
3
100
AcDbLine
6
CONTINUOUS
62
5
10
188.724276
20
162.134437
11
188.724276
21
188.400377
0
POLYLINE
5
217
100
AcDbEntity
8
3
6
CONTINUOUS
62
5
100
AcDb2dPolyline
66
1
10
0.0
20
0.0
30
0.0
70
0
0
VERTEX
5
218
100
AcDbEntity
8
3
100
AcDbVertex
100
AcDb2dVertex
62
5
10
162.474276
20
186.400377
0
VERTEX
5
219
100
AcDbEntity
8
3
100
AcDbVertex
100
AcDb2dVertex
62
5
10
188.724276
20
186.400377
0
VERTEX
5
21a
100
AcDbEntity
8
3
100
AcDbVertex
100
AcDb2dVertex
62
5
10
182.724276
20
185.400377
0
VERTEX
5
21b
100
AcDbEntity
8
3
100
AcDbVertex
100
AcDb2dVertex
62
5
10
182.724276
20
187.400377
0
VERTEX
5
21c
100
AcDbEntity
8
3
100
AcDbVertex
100
AcDb2dVertex
62
5
10
188.724276
20
186.400377
0
VERTEX
5
21d
100
AcDbEntity
8
3
100
AcDbVertex
100
AcDb2dVertex
62
5
10
182.724276
20
185.900377
0
VERTEX
5
21e
100
AcDbEntity
8
3
100
AcDbVertex
100
AcDb2dVertex
62
5
10
182.724276
20
186.900377
0
VERTEX
5
21f
100
AcDbEntity
8
3
100
AcDbVertex
100
AcDb2dVertex
62
5
10
188.724276
20
186.400377
0
SEQEND
5
220
100
AcDbEntity
8
3
0
LINE
5
221
100
AcDbEntity
8
3
100
AcDbLine
6
CONTINUOUS
62
5
10
188.724276
20
186.400377
11
197.224276
21
186.400377
0
LINE
5
222
100
AcDbEntity
8
3
100
AcDbLine
6
CONTINUOUS
62
5
10
202.224276
20
186.400377
11
197.224276
21
186.400377
0
POLYLINE
5
223
100
AcDbEntity
8
3
6
CONTINUOUS
62
5
100
AcDb2dPolyline
66
1
10
0.0
20
0.0
30
0.0
70
0
0
VERTEX
5
224
100
AcDbEntity
8
3
100
AcDbVertex
100
AcDb2dVertex
62
5
10
196.224276
20
185.900377
0
VERTEX
5
225
100
AcDbEntity
8
3
100
AcDbVertex
100
AcDb2dVertex
62
5
10
196.224276
20
186.900377
0
VERTEX
5
226
100
AcDbEntity
8
3
100
AcDbVertex
100
AcDb2dVertex
62
5
10
196.724276
20
187.400377
0
VERTEX
5
227
100
AcDbEntity
8
3
100
AcDbVertex
100
AcDb2dVertex
62
5
10
197.724276
20
187.400377
0
VERTEX
5
228
100
AcDbEntity
8
3
100
AcDbVertex
100
AcDb2dVertex
62
5
10
198.224276
20
186.900377
0
VERTEX
5
229
100
AcDbEntity
8
3
100
AcDbVertex
100
AcDb2dVertex
62
5
10
198.224276
20
185.900377
0
VERTEX
5
22a
100
AcDbEntity
8
3
100
AcDbVertex
100
AcDb2dVertex
62
5
10
197.724276
20
185.400377
0
VERTEX
5
22b
100
AcDbEntity
8
3
100
AcDbVertex
100
AcDb2dVertex
62
5
10
196.724276
20
185.400377
0
VERTEX
5
22c
100
AcDbEntity
8
3
100
AcDbVertex
100
AcDb2dVertex
62
5
10
196.224276
20
185.900377
0
VERTEX
5
22d
100
AcDbEntity
8
3
100
AcDbVertex
100
AcDb2dVertex
62
5
10
198.224276
20
186.900377
0
SEQEND
5
22e
100
AcDbEntity
8
3
0
LINE
5
22f
100
AcDbEntity
8
3
100
AcDbLine
6
CONTINUOUS
62
5
10
198.224276
20
185.900377
11
196.224276
21
186.900377
0
LINE
5
230
100
AcDbEntity
8
3
100
AcDbLine
6
CONTINUOUS
62
5
10
196.724276
20
187.400377
11
197.724276
21
185.400377
0
LINE
5
231
100
AcDbEntity
8
3
100
AcDbLine
6
CONTINUOUS
62
5
10
196.724276
20
185.400377
11
197.724276
21
187.400377
0
LINE
5
232
100
AcDbEntity
8
1
100
AcDbLine
6
CONTINUOUS
62
5
10
132.250000
20
325.562500
11
132.500000
21
324.312500
0
LINE
5
233
100
AcDbEntity
8
1
100
AcDbLine
6
CONTINUOUS
62
5
10
133.750000
20
325.875000
11
134.000000
21
324.625000
0
POLYLINE
5
234
100
AcDbEntity
8
1
6
CONTINUOUS
62
5
100
AcDb2dPolyline
66
1
10
0.0
20
0.0
30
0.0
70
0
0
VERTEX
5
235
100
AcDbEntity
8
1
100
AcDbVertex
100
AcDb2dVertex
62
5
10
135.750000
20
325.875000
0
VERTEX
5
236
100
AcDbEntity
8
1
100
AcDbVertex
100
AcDb2dVertex
62
5
10
135.500000
20
324.312500
0
VERTEX
5
237
100
AcDbEntity
8
1
100
AcDbVertex
100
AcDb2dVertex
62
5
10
134.250000
20
322.437500
0
VERTEX
5
238
100
AcDbEntity
8
1
100
AcDbVertex
100
AcDb2dVertex
62
5
10
133.250000
20
321.500000
0
SEQEND
5
239
100
AcDbEntity
8
1
0
POLYLINE
5
23a
100
AcDbEntity
8
1
6
CONTINUOUS
62
5
100
AcDb2dPolyline
66
1
10
0.0
20
0.0
30
0.0
70
0
0
VERTEX
5
23b
100
AcDbEntity
8
1
100
AcDbVertex
100
AcDb2dVertex
62
5
10
139.750000
20
325.250000
0
VERTEX
5
23c
100
AcDbEntity
8
1
100
AcDbVertex
100
AcDb2dVertex
62
5
10
140.750000
20
326.500000
0
VERTEX
5
23d
100
AcDbEntity
8
1
100
AcDbVertex
100
AcDb2dVertex
62
5
10
141.250000
20
327.437500
0
VERTEX
5
23e
100
AcDbEntity
8
1
100
AcDbVertex
100
AcDb2dVertex
62
5
10
143.750000
20
327.437500
0
VERTEX
5
23f
100
AcDbEntity
8
1
100
AcDbVertex
100
AcDb2dVertex
62
5
10
143.750000
20
327.125000
0
VERTEX
5
240
100
AcDbEntity
8
1
100
AcDbVertex
100
AcDb2dVertex
62
5
10
143.000000
20
325.250000
0
VERTEX
5
241
100
AcDbEntity
8
1
100
AcDbVertex
100
AcDb2dVertex
62
5
10
141.750000
20
323.375000
0
VERTEX
5
242
100
AcDbEntity
8
1
100
AcDbVertex
100
AcDb2dVertex
62
5
10
140.250000
20
321.812500
0
SEQEND
5
243
100
AcDbEntity
8
1
0
LINE
5
244
100
AcDbEntity
8
1
100
AcDbLine
6
CONTINUOUS
62
5
10
139.750000
20
317.437500
11
140.750000
21
315.875000
0
POLYLINE
5
245
100
AcDbEntity
8
1
6
CONTINUOUS
62
5
100
AcDb2dPolyline
66
1
10
0.0
20
0.0
30
0.0
70
0
0
VERTEX
5
246
100
AcDbEntity
8
1
100
AcDbVertex
100
AcDb2dVertex
62
5
10
144.000000
20
317.750000
0
VERTEX
5
247
100
AcDbEntity
8
1
100
AcDbVertex
100
AcDb2dVertex
62
5
10
143.750000
20
315.875000
0
VERTEX
5
248
100
AcDbEntity
8
1
100
AcDbVertex
100
AcDb2dVertex
62
5
10
142.000000
20
313.062500
0
VERTEX
5
249
100
AcDbEntity
8
1
100
AcDbVertex
100
AcDb2dVertex
62
5
10
140.750000
20
312.125000
0
SEQEND
5
24a
100
AcDbEntity
8
1
0
POLYLINE
5
24b
100
AcDbEntity
8
1
6
CONTINUOUS
62
5
100
AcDb2dPolyline
66
1
10
0.0
20
0.0
30
0.0
70
0
0
VERTEX
5
24c
100
AcDbEntity
8
1
100
AcDbVertex
100
AcDb2dVertex
62
5
10
123.750000
20
324.625000
0
VERTEX
5
24d
100
AcDbEntity
8
1
100
AcDbVertex
100
AcDb2dVertex
62
5
10
127.500000
20
325.562500
0
VERTEX
5
24e
100
AcDbEntity
8
1
100
AcDbVertex
100
AcDb2dVertex
62
5
10
127.750000
20
325.250000
0
VERTEX
5
24f
100
AcDbEntity
8
1
100
AcDbVertex
100
AcDb2dVertex
62
5
10
126.750000
20
324.000000
0
SEQEND
5
250
100
AcDbEntity
8
1
0
LINE
5
251
100
AcDbEntity
8
1
100
AcDbLine
6
CONTINUOUS
62
5
10
125.000000
20
326.500000
11
125.750000
21
322.125000
0
LINE
5
252
100
AcDbEntity
8
1
100
AcDbLine
6
CONTINUOUS
62
5
10
116.250000
20
328.062500
11
117.250000
21
326.812500
0
LINE
5
253
100
AcDbEntity
8
1
100
AcDbLine
6
CONTINUOUS
62
5
10
115.000000
20
326.187500
11
116.000000
21
324.937500
0
POLYLINE
5
254
100
AcDbEntity
8
1
6
CONTINUOUS
62
5
100
AcDb2dPolyline
66
1
10
0.0
20
0.0
30
0.0
70
0
0
VERTEX
5
255
100
AcDbEntity
8
1
100
AcDbVertex
100
AcDb2dVertex
62
5
10
115.250000
20
322.125000
0
VERTEX
5
256
100
AcDbEntity
8
1
100
AcDbVertex
100
AcDb2dVertex
62
5
10
117.000000
20
322.750000
0
VERTEX
5
257
100
AcDbEntity
8
1
100
AcDbVertex
100
AcDb2dVertex
62
5
10
118.500000
20
323.687500
0
VERTEX
5
258
100
AcDbEntity
8
1
100
AcDbVertex
100
AcDb2dVertex
62
5
10
120.500000
20
325.562500
0
SEQEND
5
259
100
AcDbEntity
8
1
0
LINE
5
25a
100
AcDbEntity
8
1
100
AcDbLine
6
CONTINUOUS
62
5
10
119.000000
20
327.125000
11
119.500000
21
326.500000
0
LINE
5
25b
100
AcDbEntity
8
1
100
AcDbLine
6
CONTINUOUS
62
5
10
119.500000
20
328.062500
11
120.000000
21
327.437500
0
LINE
5
25c
100
AcDbEntity
8
1
100
AcDbLine
6
CONTINUOUS
62
5
10
115.500000
20
319.000000
11
120.000000
21
319.000000
0
LINE
5
25d
100
AcDbEntity
8
1
100
AcDbLine
6
CONTINUOUS
62
5
10
114.250000
20
316.812500
11
121.250000
21
316.812500
0
POLYLINE
5
25e
100
AcDbEntity
8
1
6
CONTINUOUS
62
5
100
AcDb2dPolyline
66
1
10
0.0
20
0.0
30
0.0
70
0
0
VERTEX
5
25f
100
AcDbEntity
8
1
100
AcDbVertex
100
AcDb2dVertex
62
5
10
117.750000
20
316.812500
0
VERTEX
5
260
100
AcDbEntity
8
1
100
AcDbVertex
100
AcDb2dVertex
62
5
10
117.750000
20
311.187500
0
VERTEX
5
261
100
AcDbEntity
8
1
100
AcDbVertex
100
AcDb2dVertex
62
5
10
117.250000
20
310.562500
0
VERTEX
5
262
100
AcDbEntity
8
1
100
AcDbVertex
100
AcDb2dVertex
62
5
10
116.750000
20
310.562500
0
SEQEND
5
263
100
AcDbEntity
8
1
0
POLYLINE
5
264
100
AcDbEntity
8
1
6
CONTINUOUS
62
5
100
AcDb2dPolyline
66
1
10
0.0
20
0.0
30
0.0
70
0
0
VERTEX
5
265
100
AcDbEntity
8
1
100
AcDbVertex
100
AcDb2dVertex
62
5
10
116.000000
20
314.312500
0
VERTEX
5
266
100
AcDbEntity
8
1
100
AcDbVertex
100
AcDb2dVertex
62
5
10
115.500000
20
313.062500
0
VERTEX
5
267
100
AcDbEntity
8
1
100
AcDbVertex
100
AcDb2dVertex
62
5
10
114.500000
20
311.812500
0
SEQEND
5
268
100
AcDbEntity
8
1
0
POLYLINE
5
269
100
AcDbEntity
8
1
6
CONTINUOUS
62
5
100
AcDb2dPolyline
66
1
10
0.0
20
0.0
30
0.0
70
0
0
VERTEX
5
26a
100
AcDbEntity
8
1
100
AcDbVertex
100
AcDb2dVertex
62
5
10
119.250000
20
314.312500
0
VERTEX
5
26b
100
AcDbEntity
8
1
100
AcDbVertex
100
AcDb2dVertex
62
5
10
120.250000
20
313.375000
0
VERTEX
5
26c
100
AcDbEntity
8
1
100
AcDbVertex
100
AcDb2dVertex
62
5
10
121.000000
20
311.812500
0
SEQEND
5
26d
100
AcDbEntity
8
1
0
POLYLINE
5
26e
100
AcDbEntity
8
1
6
CONTINUOUS
62
5
100
AcDb2dPolyline
66
1
10
0.0
20
0.0
30
0.0
70
0
0
VERTEX
5
26f
100
AcDbEntity
8
1
100
AcDbVertex
100
AcDb2dVertex
62
5
10
124.500000
20
319.312500
0
VERTEX
5
270
100
AcDbEntity
8
1
100
AcDbVertex
100
AcDb2dVertex
62
5
10
123.500000
20
316.500000
0
VERTEX
5
271
100
AcDbEntity
8
1
100
AcDbVertex
100
AcDb2dVertex
62
5
10
122.250000
20
314.312500
0
SEQEND
5
272
100
AcDbEntity
8
1
0
LINE
5
273
100
AcDbEntity
8
1
100
AcDbLine
6
CONTINUOUS
62
5
10
123.500000
20
316.500000
11
123.500000
21
310.562500
0
LINE
5
274
100
AcDbEntity
8
1
100
AcDbLine
6
CONTINUOUS
62
5
10
124.250000
20
316.500000
11
129.500000
21
316.500000
0
POLYLINE
5
275
100
AcDbEntity
8
1
6
CONTINUOUS
62
5
100
AcDb2dPolyline
66
1
10
0.0
20
0.0
30
0.0
70
0
0
VERTEX
5
276
100
AcDbEntity
8
1
100
AcDbVertex
100
AcDb2dVertex
62
5
10
127.750000
20
319.312500
0
VERTEX
5
277
100
AcDbEntity
8
1
100
AcDbVertex
100
AcDb2dVertex
62
5
10
127.750000
20
310.875000
0
VERTEX
5
278
100
AcDbEntity
8
1
100
AcDbVertex
100
AcDb2dVertex
62
5
10
126.250000
20
311.187500
0
SEQEND
5
279
100
AcDbEntity
8
1
0
LINE
5
27a
100
AcDbEntity
8
1
100
AcDbLine
6
CONTINUOUS
62
5
10
125.250000
20
315.250000
11
126.250000
21
313.375000
0
LINE
5
27b
100
AcDbEntity
8
1
100
AcDbLine
6
CONTINUOUS
62
5
10
92.250000
20
328.062500
11
93.250000
21
326.812500
0
LINE
5
27c
100
AcDbEntity
8
1
100
AcDbLine
6
CONTINUOUS
62
5
10
91.000000
20
326.187500
11
92.000000
21
324.937500
0
POLYLINE
5
27d
100
AcDbEntity
8
1
6
CONTINUOUS
62
5
100
AcDb2dPolyline
66
1
10
0.0
20
0.0
30
0.0
70
0
0
VERTEX
5
27e
100
AcDbEntity
8
1
100
AcDbVertex
100
AcDb2dVertex
62
5
10
91.250000
20
322.125000
0
VERTEX
5
27f
100
AcDbEntity
8
1
100
AcDbVertex
100
AcDb2dVertex
62
5
10
93.000000
20
322.750000
0
VERTEX
5
280
100
AcDbEntity
8
1
100
AcDbVertex
100
AcDb2dVertex
62
5
10
94.500000
20
323.687500
0
VERTEX
5
281
100
AcDbEntity
8
1
100
AcDbVertex
100
AcDb2dVertex
62
5
10
96.500000
20
325.562500
0
SEQEND
5
282
100
AcDbEntity
8
1
0
LINE
5
283
100
AcDbEntity
8
1
100
AcDbLine
6
CONTINUOUS
62
5
10
95.000000
20
327.125000
11
95.500000
21
326.500000
0
LINE
5
284
100
AcDbEntity
8
1
100
AcDbLine
6
CONTINUOUS
62
5
10
95.500000
20
328.062500
11
96.000000
21
327.437500
0
POLYLINE
5
285
100
AcDbEntity
8
1
6
CONTINUOUS
62
5
100
AcDb2dPolyline
66
1
10
0.0
20
0.0
30
0.0
70
0
0
VERTEX
5
286
100
AcDbEntity
8
1
100
AcDbVertex
100
AcDb2dVertex
62
5
10
100.500000
20
325.562500
0
VERTEX
5
287
100
AcDbEntity
8
1
100
AcDbVertex
100
AcDb2dVertex
62
5
10
102.500000
20
325.562500
0
VERTEX
5
288
100
AcDbEntity
8
1
100
AcDbVertex
100
AcDb2dVertex
62
5
10
102.250000
20
322.437500
0
SEQEND
5
289
100
AcDbEntity
8
1
0
LINE
5
28a
100
AcDbEntity
8
1
100
AcDbLine
6
CONTINUOUS
62
5
10
99.750000
20
322.437500
11
104.000000
21
322.437500
0
POLYLINE
5
28b
100
AcDbEntity
8
1
6
CONTINUOUS
62
5
100
AcDb2dPolyline
66
1
10
0.0
20
0.0
30
0.0
70
0
0
VERTEX
5
28c
100
AcDbEntity
8
1
100
AcDbVertex
100
AcDb2dVertex
62
5
10
101.250000
20
316.500000
0
VERTEX
5
28d
100
AcDbEntity
8
1
100
AcDbVertex
100
AcDb2dVertex
62
5
10
101.250000
20
310.875000
0
VERTEX
5
28e
100
AcDbEntity
8
1
100
AcDbVertex
100
AcDb2dVertex
62
5
10
99.250000
20
310.875000
0
SEQEND
5
28f
100
AcDbEntity
8
1
0
POLYLINE
5
290
100
AcDbEntity
8
1
6
CONTINUOUS
62
5
100
AcDb2dPolyline
66
1
10
0.0
20
0.0
30
0.0
70
0
0
VERTEX
5
291
100
AcDbEntity
8
1
100
AcDbVertex
100
AcDb2dVertex
62
5
10
92.000000
20
311.500000
0
VERTEX
5
292
100
AcDbEntity
8
1
100
AcDbVertex
100
AcDb2dVertex
62
5
10
92.000000
20
319.000000
0
VERTEX
5
293
100
AcDbEntity
8
1
100
AcDbVertex
100
AcDb2dVertex
62
5
10
96.000000
20
311.500000
0
VERTEX
5
294
100
AcDbEntity
8
1
100
AcDbVertex
100
AcDb2dVertex
62
5
10
96.000000
20
319.000000
0
SEQEND
5
295
100
AcDbEntity
8
1
0
LINE
5
296
100
AcDbEntity
8
1
100
AcDbLine
6
CONTINUOUS
62
5
10
84.250000
20
327.750000
11
88.000000
21
327.750000
0
LINE
5
297
100
AcDbEntity
8
1
100
AcDbLine
6
CONTINUOUS
62
5
10
83.250000
20
325.562500
11
88.750000
21
325.562500
0
POLYLINE
5
298
100
AcDbEntity
8
1
6
CONTINUOUS
62
5
100
AcDb2dPolyline
66
1
10
0.0
20
0.0
30
0.0
70
0
0
VERTEX
5
299
100
AcDbEntity
8
1
100
AcDbVertex
100
AcDb2dVertex
62
5
10
85.500000
20
327.750000
0
VERTEX
5
29a
100
AcDbEntity
8
1
100
AcDbVertex
100
AcDb2dVertex
62
5
10
85.500000
20
322.750000
0
VERTEX
5
29b
100
AcDbEntity
8
1
100
AcDbVertex
100
AcDb2dVertex
62
5
10
86.000000
20
322.437500
0
VERTEX
5
29c
100
AcDbEntity
8
1
100
AcDbVertex
100
AcDb2dVertex
62
5
10
88.250000
20
322.437500
0
SEQEND
5
29d
100
AcDbEntity
8
1
0
POLYLINE
5
29e
100
AcDbEntity
8
1
6
CONTINUOUS
62
5
100
AcDb2dPolyline
66
1
10
0.0
20
0.0
30
0.0
70
0
0
VERTEX
5
29f
100
AcDbEntity
8
1
100
AcDbVertex
100
AcDb2dVertex
62
5
10
83.500000
20
311.500000
0
VERTEX
5
2a0
100
AcDbEntity
8
1
100
AcDbVertex
100
AcDb2dVertex
62
5
10
83.500000
20
311.500000
0
VERTEX
5
2a1
100
AcDbEntity
8
1
100
AcDbVertex
100
AcDb2dVertex
62
5
10
86.000000
20
319.000000
0
VERTEX
5
2a2
100
AcDbEntity
8
1
100
AcDbVertex
100
AcDb2dVertex
62
5
10
88.500000
20
311.500000
0
SEQEND
5
2a3
100
AcDbEntity
8
1
0
LINE
5
2a4
100
AcDbEntity
8
1
100
AcDbLine
6
CONTINUOUS
62
5
10
84.500000
20
314.312500
11
87.500000
21
314.312500
0
POLYLINE
5
2a5
100
AcDbEntity
8
1
6
CONTINUOUS
62
5
100
AcDb2dPolyline
66
1
10
0.0
20
0.0
30
0.0
70
0
0
VERTEX
5
2a6
100
AcDbEntity
8
1
100
AcDbVertex
100
AcDb2dVertex
62
5
10
70.750000
20
314.000000
0
VERTEX
5
2a7
100
AcDbEntity
8
1
100
AcDbVertex
100
AcDb2dVertex
62
5
10
70.750000
20
319.625000
0
VERTEX
5
2a8
100
AcDbEntity
8
1
100
AcDbVertex
100
AcDb2dVertex
62
5
10
72.750000
20
319.625000
0
SEQEND
5
2a9
100
AcDbEntity
8
1
0
LINE
5
2aa
100
AcDbEntity
8
1
100
AcDbLine
6
CONTINUOUS
62
5
10
75.000000
20
329.000000
11
76.000000
21
328.062500
0
POLYLINE
5
2ab
100
AcDbEntity
8
1
6
CONTINUOUS
62
5
100
AcDb2dPolyline
66
1
10
0.0
20
0.0
30
0.0
70
0
0
VERTEX
5
2ac
100
AcDbEntity
8
1
100
AcDbVertex
100
AcDb2dVertex
62
5
10
74.750000
20
325.875000
0
VERTEX
5
2ad
100
AcDbEntity
8
1
100
AcDbVertex
100
AcDb2dVertex
62
5
10
76.000000
20
325.875000
0
VERTEX
5
2ae
100
AcDbEntity
8
1
100
AcDbVertex
100
AcDb2dVertex
62
5
10
76.000000
20
322.750000
0
VERTEX
5
2af
100
AcDbEntity
8
1
100
AcDbVertex
100
AcDb2dVertex
62
5
10
74.750000
20
321.187500
0
SEQEND
5
2b0
100
AcDbEntity
8
1
0
POLYLINE
5
2b1
100
AcDbEntity
8
1
6
CONTINUOUS
62
5
100
AcDb2dPolyline
66
1
10
0.0
20
0.0
30
0.0
70
0
0
VERTEX
5
2b2
100
AcDbEntity
8
1
100
AcDbVertex
100
AcDb2dVertex
62
5
10
76.000000
20
322.750000
0
VERTEX
5
2b3
100
AcDbEntity
8
1
100
AcDbVertex
100
AcDb2dVertex
62
5
10
76.750000
20
321.500000
0
VERTEX
5
2b4
100
AcDbEntity
8
1
100
AcDbVertex
100
AcDb2dVertex
62
5
10
77.750000
20
321.187500
0
VERTEX
5
2b5
100
AcDbEntity
8
1
100
AcDbVertex
100
AcDb2dVertex
62
5
10
81.500000
20
321.187500
0
SEQEND
5
2b6
100
AcDbEntity
8
1
0
POLYLINE
5
2b7
100
AcDbEntity
8
1
6
CONTINUOUS
62
5
100
AcDb2dPolyline
66
1
10
0.0
20
0.0
30
0.0
70
0
0
VERTEX
5
2b8
100
AcDbEntity
8
1
100
AcDbVertex
100
AcDb2dVertex
62
5
10
78.750000
20
326.500000
0
VERTEX
5
2b9
100
AcDbEntity
8
1
100
AcDbVertex
100
AcDb2dVertex
62
5
10
78.000000
20
324.625000
0
VERTEX
5
2ba
100
AcDbEntity
8
1
100
AcDbVertex
100
AcDb2dVertex
62
5
10
77.250000
20
323.375000
0
VERTEX
5
2bb
100
AcDbEntity
8
1
100
AcDbVertex
100
AcDb2dVertex
62
5
10
76.750000
20
322.750000
0
SEQEND
5
2bc
100
AcDbEntity
8
1
0
POLYLINE
5
2bd
100
AcDbEntity
8
1
6
CONTINUOUS
62
5
100
AcDb2dPolyline
66
1
10
0.0
20
0.0
30
0.0
70
0
0
VERTEX
5
2be
100
AcDbEntity
8
1
100
AcDbVertex
100
AcDb2dVertex
62
5
10
77.500000
20
329.312500
0
VERTEX
5
2bf
100
AcDbEntity
8
1
100
AcDbVertex
100
AcDb2dVertex
62
5
10
78.750000
20
329.312500
0
VERTEX
5
2c0
100
AcDbEntity
8
1
100
AcDbVertex
100
AcDb2dVertex
62
5
10
78.750000
20
326.500000
0
VERTEX
5
2c1
100
AcDbEntity
8
1
100
AcDbVertex
100
AcDb2dVertex
62
5
10
79.500000
20
324.625000
0
VERTEX
5
2c2
100
AcDbEntity
8
1
100
AcDbVertex
100
AcDb2dVertex
62
5
10
80.500000
20
323.375000
0
VERTEX
5
2c3
100
AcDbEntity
8
1
100
AcDbVertex
100
AcDb2dVertex
62
5
10
81.250000
20
322.750000
0
SEQEND
5
2c4
100
AcDbEntity
8
1
0
POLYLINE
5
2c5
100
AcDbEntity
8
1
6
CONTINUOUS
62
5
100
AcDb2dPolyline
66
1
10
0.0
20
0.0
30
0.0
70
0
0
VERTEX
5
2c6
100
AcDbEntity
8
1
100
AcDbVertex
100
AcDb2dVertex
62
5
10
76.250000
20
319.000000
0
VERTEX
5
2c7
100
AcDbEntity
8
1
100
AcDbVertex
100
AcDb2dVertex
62
5
10
76.250000
20
311.500000
0
VERTEX
5
2c8
100
AcDbEntity
8
1
100
AcDbVertex
100
AcDb2dVertex
62
5
10
80.500000
20
311.500000
0
SEQEND
5
2c9
100
AcDbEntity
8
1
0
POLYLINE
5
2ca
100
AcDbEntity
8
1
6
CONTINUOUS
62
5
100
AcDb2dPolyline
66
1
10
0.0
20
0.0
30
0.0
70
0
0
VERTEX
5
2cb
100
AcDbEntity
8
1
100
AcDbVertex
100
AcDb2dVertex
62
5
10
107.500000
20
325.875000
0
VERTEX
5
2cc
100
AcDbEntity
8
1
100
AcDbVertex
100
AcDb2dVertex
62
5
10
112.250000
20
325.875000
0
VERTEX
5
2cd
100
AcDbEntity
8
1
100
AcDbVertex
100
AcDb2dVertex
62
5
10
112.250000
20
325.562500
0
VERTEX
5
2ce
100
AcDbEntity
8
1
100
AcDbVertex
100
AcDb2dVertex
62
5
10
111.000000
20
323.375000
0
VERTEX
5
2cf
100
AcDbEntity
8
1
100
AcDbVertex
100
AcDb2dVertex
62
5
10
110.000000
20
322.437500
0
VERTEX
5
2d0
100
AcDbEntity
8
1
100
AcDbVertex
100
AcDb2dVertex
62
5
10
109.000000
20
321.812500
0
SEQEND
5
2d1
100
AcDbEntity
8
1
0
LINE
5
2d2
100
AcDbEntity
8
1
100
AcDbLine
6
CONTINUOUS
62
5
10
108.250000
20
328.062500
11
111.750000
21
328.062500
0
LINE
5
2d3
100
AcDbEntity
8
1
100
AcDbLine
6
CONTINUOUS
62
5
10
109.750000
20
319.625000
11
109.750000
21
314.937500
0
LINE
5
2d4
100
AcDbEntity
8
1
100
AcDbLine
6
CONTINUOUS
62
5
10
106.750000
20
318.062500
11
112.750000
21
318.062500
0
LINE
5
2d5
100
AcDbEntity
8
1
100
AcDbLine
6
CONTINUOUS
62
5
10
107.500000
20
316.500000
11
112.250000
21
316.500000
0
LINE
5
2d6
100
AcDbEntity
8
1
100
AcDbLine
6
CONTINUOUS
62
5
10
106.250000
20
314.937500
11
113.500000
21
314.937500
0
POLYLINE
5
2d7
100
AcDbEntity
8
1
6
CONTINUOUS
62
5
100
AcDb2dPolyline
66
1
10
0.0
20
0.0
30
0.0
70
0
0
VERTEX
5
2d8
100
AcDbEntity
8
1
100
AcDbVertex
100
AcDb2dVertex
62
5
10
109.750000
20
314.937500
0
VERTEX
5
2d9
100
AcDbEntity
8
1
100
AcDbVertex
100
AcDb2dVertex
62
5
10
108.250000
20
313.375000
0
VERTEX
5
2da
100
AcDbEntity
8
1
100
AcDbVertex
100
AcDb2dVertex
62
5
10
106.250000
20
312.125000
0
SEQEND
5
2db
100
AcDbEntity
8
1
0
LINE
5
2dc
100
AcDbEntity
8
1
100
AcDbLine
6
CONTINUOUS
62
5
10
108.250000
20
313.375000
11
108.250000
21
311.187500
0
POLYLINE
5
2dd
100
AcDbEntity
8
1
6
CONTINUOUS
62
5
100
AcDb2dPolyline
66
1
10
0.0
20
0.0
30
0.0
70
0
0
VERTEX
5
2de
100
AcDbEntity
8
1
100
AcDbVertex
100
AcDb2dVertex
62
5
10
107.000000
20
310.875000
0
VERTEX
5
2df
100
AcDbEntity
8
1
100
AcDbVertex
100
AcDb2dVertex
62
5
10
108.250000
20
311.187500
0
VERTEX
5
2e0
100
AcDbEntity
8
1
100
AcDbVertex
100
AcDb2dVertex
62
5
10
109.250000
20
311.500000
0
VERTEX
5
2e1
100
AcDbEntity
8
1
100
AcDbVertex
100
AcDb2dVertex
62
5
10
110.250000
20
312.125000
0
SEQEND
5
2e2
100
AcDbEntity
8
1
0
LINE
5
2e3
100
AcDbEntity
8
1
100
AcDbLine
6
CONTINUOUS
62
5
10
112.500000
20
314.000000
11
111.000000
21
312.750000
0
POLYLINE
5
2e4
100
AcDbEntity
8
1
6
CONTINUOUS
62
5
100
AcDb2dPolyline
66
1
10
0.0
20
0.0
30
0.0
70
0
0
VERTEX
5
2e5
100
AcDbEntity
8
1
100
AcDbVertex
100
AcDb2dVertex
62
5
10
110.000000
20
314.312500
0
VERTEX
5
2e6
100
AcDbEntity
8
1
100
AcDbVertex
100
AcDb2dVertex
62
5
10
111.000000
20
312.125000
0
VERTEX
5
2e7
100
AcDbEntity
8
1
100
AcDbVertex
100
AcDb2dVertex
62
5
10
112.250000
20
311.187500
0
VERTEX
5
2e8
100
AcDbEntity
8
1
100
AcDbVertex
100
AcDb2dVertex
62
5
10
113.250000
20
310.875000
0
SEQEND
5
2e9
100
AcDbEntity
8
1
0
LINE
5
2ea
100
AcDbEntity
8
1
100
AcDbLine
6
CONTINUOUS
62
5
10
82.500000
20
286.750000
11
85.625000
21
286.750000
0
LINE
5
2eb
100
AcDbEntity
8
1
100
AcDbLine
6
CONTINUOUS
62
5
10
122.500000
20
290.500000
11
122.500000
21
283.000000
0
POLYLINE
5
2ec
100
AcDbEntity
8
1
6
CONTINUOUS
62
5
100
AcDb2dPolyline
66
1
10
0.0
20
0.0
30
0.0
70
0
0
VERTEX
5
2ed
100
AcDbEntity
8
1
100
AcDbVertex
100
AcDb2dVertex
62
5
10
122.500000
20
290.500000
0
VERTEX
5
2ee
100
AcDbEntity
8
1
100
AcDbVertex
100
AcDb2dVertex
62
5
10
124.062500
20
290.500000
0
VERTEX
5
2ef
100
AcDbEntity
8
1
100
AcDbVertex
100
AcDb2dVertex
62
5
10
124.687500
20
290.187500
0
VERTEX
5
2f0
100
AcDbEntity
8
1
100
AcDbVertex
100
AcDb2dVertex
62
5
10
125.000000
20
289.875000
0
VERTEX
5
2f1
100
AcDbEntity
8
1
100
AcDbVertex
100
AcDb2dVertex
62
5
10
125.312500
20
289.250000
0
VERTEX
5
2f2
100
AcDbEntity
8
1
100
AcDbVertex
100
AcDb2dVertex
62
5
10
125.312500
20
288.312500
0
VERTEX
5
2f3
100
AcDbEntity
8
1
100
AcDbVertex
100
AcDb2dVertex
62
5
10
125.000000
20
287.687500
0
VERTEX
5
2f4
100
AcDbEntity
8
1
100
AcDbVertex
100
AcDb2dVertex
62
5
10
124.687500
20
287.375000
0
VERTEX
5
2f5
100
AcDbEntity
8
1
100
AcDbVertex
100
AcDb2dVertex
62
5
10
124.062500
20
287.062500
0
VERTEX
5
2f6
100
AcDbEntity
8
1
100
AcDbVertex
100
AcDb2dVertex
62
5
10
122.500000
20
287.062500
0
SEQEND
5
2f7
100
AcDbEntity
8
1
0
POLYLINE
5
2f8
100
AcDbEntity
8
1
6
CONTINUOUS
62
5
100
AcDb2dPolyline
66
1
10
0.0
20
0.0
30
0.0
70
0
0
VERTEX
5
2f9
100
AcDbEntity
8
1
100
AcDbVertex
100
AcDb2dVertex
62
5
10
124.062500
20
287.062500
0
VERTEX
5
2fa
100
AcDbEntity
8
1
100
AcDbVertex
100
AcDb2dVertex
62
5
10
124.687500
20
286.750000
0
VERTEX
5
2fb
100
AcDbEntity
8
1
100
AcDbVertex
100
AcDb2dVertex
62
5
10
125.312500
20
286.125000
0
VERTEX
5
2fc
100
AcDbEntity
8
1
100
AcDbVertex
100
AcDb2dVertex
62
5
10
125.625000
20
285.500000
0
VERTEX
5
2fd
100
AcDbEntity
8
1
100
AcDbVertex
100
AcDb2dVertex
62
5
10
125.625000
20
284.250000
0
VERTEX
5
2fe
100
AcDbEntity
8
1
100
AcDbVertex
100
AcDb2dVertex
62
5
10
125.312500
20
283.625000
0
VERTEX
5
2ff
100
AcDbEntity
8
1
100
AcDbVertex
100
AcDb2dVertex
62
5
10
125.000000
20
283.312500
0
VERTEX
5
300
100
AcDbEntity
8
1
100
AcDbVertex
100
AcDb2dVertex
62
5
10
124.375000
20
283.000000
0
VERTEX
5
301
100
AcDbEntity
8
1
100
AcDbVertex
100
AcDb2dVertex
62
5
10
122.500000
20
283.000000
0
SEQEND
5
302
100
AcDbEntity
8
1
0
POLYLINE
5
303
100
AcDbEntity
8
1
6
CONTINUOUS
62
5
100
AcDb2dPolyline
66
1
10
0.0
20
0.0
30
0.0
70
0
0
VERTEX
5
304
100
AcDbEntity
8
1
100
AcDbVertex
100
AcDb2dVertex
62
5
10
102.500000
20
283.000000
0
VERTEX
5
305
100
AcDbEntity
8
1
100
AcDbVertex
100
AcDb2dVertex
62
5
10
104.062500
20
290.500000
0
VERTEX
5
306
100
AcDbEntity
8
1
100
AcDbVertex
100
AcDb2dVertex
62
5
10
105.625000
20
283.000000
0
SEQEND
5
307
100
AcDbEntity
8
1
0
LINE
5
308
100
AcDbEntity
8
1
100
AcDbLine
6
CONTINUOUS
62
5
10
103.125000
20
285.500000
11
105.000000
21
285.500000
0
POLYLINE
5
309
100
AcDbEntity
8
1
6
CONTINUOUS
62
5
100
AcDb2dPolyline
66
1
10
0.0
20
0.0
30
0.0
70
0
0
VERTEX
5
30a
100
AcDbEntity
8
1
100
AcDbVertex
100
AcDb2dVertex
62
5
10
107.500000
20
290.500000
0
VERTEX
5
30b
100
AcDbEntity
8
1
100
AcDbVertex
100
AcDb2dVertex
62
5
10
107.500000
20
283.000000
0
VERTEX
5
30c
100
AcDbEntity
8
1
100
AcDbVertex
100
AcDb2dVertex
62
5
10
110.625000
20
283.000000
0
SEQEND
5
30d
100
AcDbEntity
8
1
0
POLYLINE
5
30e
100
AcDbEntity
8
1
6
CONTINUOUS
62
5
100
AcDb2dPolyline
66
1
10
0.0
20
0.0
30
0.0
70
0
0
VERTEX
5
30f
100
AcDbEntity
8
1
100
AcDbVertex
100
AcDb2dVertex
62
5
10
87.500000
20
290.500000
0
VERTEX
5
310
100
AcDbEntity
8
1
100
AcDbVertex
100
AcDb2dVertex
62
5
10
87.500000
20
283.000000
0
VERTEX
5
311
100
AcDbEntity
8
1
100
AcDbVertex
100
AcDb2dVertex
62
5
10
90.625000
20
283.000000
0
SEQEND
5
312
100
AcDbEntity
8
1
0
POLYLINE
5
313
100
AcDbEntity
8
1
6
CONTINUOUS
62
5
100
AcDb2dPolyline
66
1
10
0.0
20
0.0
30
0.0
70
0
0
VERTEX
5
314
100
AcDbEntity
8
1
100
AcDbVertex
100
AcDb2dVertex
62
5
10
92.187500
20
290.500000
0
VERTEX
5
315
100
AcDbEntity
8
1
100
AcDbVertex
100
AcDb2dVertex
62
5
10
93.125000
20
283.000000
0
VERTEX
5
316
100
AcDbEntity
8
1
100
AcDbVertex
100
AcDb2dVertex
62
5
10
94.062500
20
290.500000
0
VERTEX
5
317
100
AcDbEntity
8
1
100
AcDbVertex
100
AcDb2dVertex
62
5
10
95.000000
20
283.000000
0
VERTEX
5
318
100
AcDbEntity
8
1
100
AcDbVertex
100
AcDb2dVertex
62
5
10
95.937500
20
290.500000
0
SEQEND
5
319
100
AcDbEntity
8
1
0
POLYLINE
5
31a
100
AcDbEntity
8
1
6
CONTINUOUS
62
5
100
AcDb2dPolyline
66
1
10
0.0
20
0.0
30
0.0
70
0
0
VERTEX
5
31b
100
AcDbEntity
8
1
100
AcDbVertex
100
AcDb2dVertex
62
5
10
100.000000
20
290.500000
0
VERTEX
5
31c
100
AcDbEntity
8
1
100
AcDbVertex
100
AcDb2dVertex
62
5
10
99.062500
20
290.500000
0
VERTEX
5
31d
100
AcDbEntity
8
1
100
AcDbVertex
100
AcDb2dVertex
62
5
10
98.125000
20
290.187500
0
VERTEX
5
31e
100
AcDbEntity
8
1
100
AcDbVertex
100
AcDb2dVertex
62
5
10
97.500000
20
288.937500
0
VERTEX
5
31f
100
AcDbEntity
8
1
100
AcDbVertex
100
AcDb2dVertex
62
5
10
97.500000
20
284.562500
0
VERTEX
5
320
100
AcDbEntity
8
1
100
AcDbVertex
100
AcDb2dVertex
62
5
10
97.812500
20
283.625000
0
VERTEX
5
321
100
AcDbEntity
8
1
100
AcDbVertex
100
AcDb2dVertex
62
5
10
98.125000
20
283.312500
0
VERTEX
5
322
100
AcDbEntity
8
1
100
AcDbVertex
100
AcDb2dVertex
62
5
10
98.750000
20
283.000000
0
VERTEX
5
323
100
AcDbEntity
8
1
100
AcDbVertex
100
AcDb2dVertex
62
5
10
99.375000
20
283.000000
0
VERTEX
5
324
100
AcDbEntity
8
1
100
AcDbVertex
100
AcDb2dVertex
62
5
10
100.000000
20
283.312500
0
VERTEX
5
325
100
AcDbEntity
8
1
100
AcDbVertex
100
AcDb2dVertex
62
5
10
100.312500
20
283.625000
0
VERTEX
5
326
100
AcDbEntity
8
1
100
AcDbVertex
100
AcDb2dVertex
62
5
10
100.625000
20
284.562500
0
VERTEX
5
327
100
AcDbEntity
8
1
100
AcDbVertex
100
AcDb2dVertex
62
5
10
100.625000
20
286.437500
0
VERTEX
5
328
100
AcDbEntity
8
1
100
AcDbVertex
100
AcDb2dVertex
62
5
10
100.312500
20
287.062500
0
VERTEX
5
329
100
AcDbEntity
8
1
100
AcDbVertex
100
AcDb2dVertex
62
5
10
99.687500
20
287.375000
0
VERTEX
5
32a
100
AcDbEntity
8
1
100
AcDbVertex
100
AcDb2dVertex
62
5
10
98.437500
20
287.375000
0
VERTEX
5
32b
100
AcDbEntity
8
1
100
AcDbVertex
100
AcDb2dVertex
62
5
10
97.500000
20
287.062500
0
SEQEND
5
32c
100
AcDbEntity
8
1
0
POLYLINE
5
32d
100
AcDbEntity
8
1
6
CONTINUOUS
62
5
100
AcDb2dPolyline
66
1
10
0.0
20
0.0
30
0.0
70
0
0
VERTEX
5
32e
100
AcDbEntity
8
1
100
AcDbVertex
100
AcDb2dVertex
62
5
10
120.625000
20
288.937500
0
VERTEX
5
32f
100
AcDbEntity
8
1
100
AcDbVertex
100
AcDb2dVertex
62
5
10
120.000000
20
290.187500
0
VERTEX
5
330
100
AcDbEntity
8
1
100
AcDbVertex
100
AcDb2dVertex
62
5
10
119.062500
20
290.500000
0
VERTEX
5
331
100
AcDbEntity
8
1
100
AcDbVertex
100
AcDb2dVertex
62
5
10
118.437500
20
290.500000
0
VERTEX
5
332
100
AcDbEntity
8
1
100
AcDbVertex
100
AcDb2dVertex
62
5
10
117.812500
20
290.187500
0
VERTEX
5
333
100
AcDbEntity
8
1
100
AcDbVertex
100
AcDb2dVertex
62
5
10
117.187500
20
289.250000
0
VERTEX
5
334
100
AcDbEntity
8
1
100
AcDbVertex
100
AcDb2dVertex
62
5
10
117.187500
20
288.312500
0
VERTEX
5
335
100
AcDbEntity
8
1
100
AcDbVertex
100
AcDb2dVertex
62
5
10
117.812500
20
287.375000
0
VERTEX
5
336
100
AcDbEntity
8
1
100
AcDbVertex
100
AcDb2dVertex
62
5
10
120.000000
20
286.125000
0
VERTEX
5
337
100
AcDbEntity
8
1
100
AcDbVertex
100
AcDb2dVertex
62
5
10
120.625000
20
285.187500
0
VERTEX
5
338
100
AcDbEntity
8
1
100
AcDbVertex
100
AcDb2dVertex
62
5
10
120.625000
20
284.250000
0
VERTEX
5
339
100
AcDbEntity
8
1
100
AcDbVertex
100
AcDb2dVertex
62
5
10
120.000000
20
283.312500
0
VERTEX
5
33a
100
AcDbEntity
8
1
100
AcDbVertex
100
AcDb2dVertex
62
5
10
119.062500
20
283.000000
0
VERTEX
5
33b
100
AcDbEntity
8
1
100
AcDbVertex
100
AcDb2dVertex
62
5
10
118.437500
20
283.000000
0
VERTEX
5
33c
100
AcDbEntity
8
1
100
AcDbVertex
100
AcDb2dVertex
62
5
10
117.500000
20
283.625000
0
VERTEX
5
33d
100
AcDbEntity
8
1
100
AcDbVertex
100
AcDb2dVertex
62
5
10
117.187500
20
284.875000
0
SEQEND
5
33e
100
AcDbEntity
8
1
0
LINE
5
33f
100
AcDbEntity
8
1
100
AcDbLine
6
CONTINUOUS
62
5
10
72.500000
20
290.500000
11
72.500000
21
283.000000
0
POLYLINE
5
340
100
AcDbEntity
8
1
6
CONTINUOUS
62
5
100
AcDb2dPolyline
66
1
10
0.0
20
0.0
30
0.0
70
0
0
VERTEX
5
341
100
AcDbEntity
8
1
100
AcDbVertex
100
AcDb2dVertex
62
5
10
72.500000
20
290.500000
0
VERTEX
5
342
100
AcDbEntity
8
1
100
AcDbVertex
100
AcDb2dVertex
62
5
10
74.062500
20
290.500000
0
VERTEX
5
343
100
AcDbEntity
8
1
100
AcDbVertex
100
AcDb2dVertex
62
5
10
74.687500
20
290.187500
0
VERTEX
5
344
100
AcDbEntity
8
1
100
AcDbVertex
100
AcDb2dVertex
62
5
10
75.000000
20
289.875000
0
VERTEX
5
345
100
AcDbEntity
8
1
100
AcDbVertex
100
AcDb2dVertex
62
5
10
75.312500
20
289.250000
0
VERTEX
5
346
100
AcDbEntity
8
1
100
AcDbVertex
100
AcDb2dVertex
62
5
10
75.312500
20
288.312500
0
VERTEX
5
347
100
AcDbEntity
8
1
100
AcDbVertex
100
AcDb2dVertex
62
5
10
75.000000
20
287.687500
0
VERTEX
5
348
100
AcDbEntity
8
1
100
AcDbVertex
100
AcDb2dVertex
62
5
10
74.687500
20
287.375000
0
VERTEX
5
349
100
AcDbEntity
8
1
100
AcDbVertex
100
AcDb2dVertex
62
5
10
74.062500
20
287.062500
0
VERTEX
5
34a
100
AcDbEntity
8
1
100
AcDbVertex
100
AcDb2dVertex
62
5
10
72.500000
20
287.062500
0
SEQEND
5
34b
100
AcDbEntity
8
1
0
POLYLINE
5
34c
100
AcDbEntity
8
1
6
CONTINUOUS
62
5
100
AcDb2dPolyline
66
1
10
0.0
20
0.0
30
0.0
70
0
0
VERTEX
5
34d
100
AcDbEntity
8
1
100
AcDbVertex
100
AcDb2dVertex
62
5
10
74.062500
20
287.062500
0
VERTEX
5
34e
100
AcDbEntity
8
1
100
AcDbVertex
100
AcDb2dVertex
62
5
10
74.687500
20
286.750000
0
VERTEX
5
34f
100
AcDbEntity
8
1
100
AcDbVertex
100
AcDb2dVertex
62
5
10
75.312500
20
286.125000
0
VERTEX
5
350
100
AcDbEntity
8
1
100
AcDbVertex
100
AcDb2dVertex
62
5
10
75.625000
20
285.500000
0
VERTEX
5
351
100
AcDbEntity
8
1
100
AcDbVertex
100
AcDb2dVertex
62
5
10
75.625000
20
284.250000
0
VERTEX
5
352
100
AcDbEntity
8
1
100
AcDbVertex
100
AcDb2dVertex
62
5
10
75.312500
20
283.625000
0
VERTEX
5
353
100
AcDbEntity
8
1
100
AcDbVertex
100
AcDb2dVertex
62
5
10
75.000000
20
283.312500
0
VERTEX
5
354
100
AcDbEntity
8
1
100
AcDbVertex
100
AcDb2dVertex
62
5
10
74.375000
20
283.000000
0
VERTEX
5
355
100
AcDbEntity
8
1
100
AcDbVertex
100
AcDb2dVertex
62
5
10
72.500000
20
283.000000
0
SEQEND
5
356
100
AcDbEntity
8
1
0
POLYLINE
5
357
100
AcDbEntity
8
1
6
CONTINUOUS
62
5
100
AcDb2dPolyline
66
1
10
0.0
20
0.0
30
0.0
70
0
0
VERTEX
5
358
100
AcDbEntity
8
1
100
AcDbVertex
100
AcDb2dVertex
62
5
10
77.500000
20
283.000000
0
VERTEX
5
359
100
AcDbEntity
8
1
100
AcDbVertex
100
AcDb2dVertex
62
5
10
77.500000
20
290.500000
0
VERTEX
5
35a
100
AcDbEntity
8
1
100
AcDbVertex
100
AcDb2dVertex
62
5
10
80.625000
20
283.000000
0
VERTEX
5
35b
100
AcDbEntity
8
1
100
AcDbVertex
100
AcDb2dVertex
62
5
10
80.625000
20
290.500000
0
SEQEND
5
35c
100
AcDbEntity
8
1
0
POLYLINE
5
35d
100
AcDbEntity
8
1
6
CONTINUOUS
62
5
100
AcDb2dPolyline
66
1
10
0.0
20
0.0
30
0.0
70
0
0
VERTEX
5
35e
100
AcDbEntity
8
1
100
AcDbVertex
100
AcDb2dVertex
62
5
10
65.625000
20
288.937500
0
VERTEX
5
35f
100
AcDbEntity
8
1
100
AcDbVertex
100
AcDb2dVertex
62
5
10
65.312500
20
289.875000
0
VERTEX
5
360
100
AcDbEntity
8
1
100
AcDbVertex
100
AcDb2dVertex
62
5
10
64.687500
20
290.500000
0
VERTEX
5
361
100
AcDbEntity
8
1
100
AcDbVertex
100
AcDb2dVertex
62
5
10
63.750000
20
290.500000
0
VERTEX
5
362
100
AcDbEntity
8
1
100
AcDbVertex
100
AcDb2dVertex
62
5
10
62.812500
20
289.562500
0
VERTEX
5
363
100
AcDbEntity
8
1
100
AcDbVertex
100
AcDb2dVertex
62
5
10
62.500000
20
288.000000
0
VERTEX
5
364
100
AcDbEntity
8
1
100
AcDbVertex
100
AcDb2dVertex
62
5
10
62.500000
20
285.500000
0
VERTEX
5
365
100
AcDbEntity
8
1
100
AcDbVertex
100
AcDb2dVertex
62
5
10
62.812500
20
283.937500
0
VERTEX
5
366
100
AcDbEntity
8
1
100
AcDbVertex
100
AcDb2dVertex
62
5
10
63.750000
20
283.000000
0
VERTEX
5
367
100
AcDbEntity
8
1
100
AcDbVertex
100
AcDb2dVertex
62
5
10
64.687500
20
283.000000
0
VERTEX
5
368
100
AcDbEntity
8
1
100
AcDbVertex
100
AcDb2dVertex
62
5
10
65.312500
20
283.625000
0
VERTEX
5
369
100
AcDbEntity
8
1
100
AcDbVertex
100
AcDb2dVertex
62
5
10
65.937500
20
285.187500
0
SEQEND
5
36a
100
AcDbEntity
8
1
0
POLYLINE
5
36b
100
AcDbEntity
8
1
6
CONTINUOUS
62
5
100
AcDb2dPolyline
66
1
10
0.0
20
0.0
30
0.0
70
0
0
VERTEX
5
36c
100
AcDbEntity
8
1
100
AcDbVertex
100
AcDb2dVertex
62
5
10
55.312500
20
290.500000
0
VERTEX
5
36d
100
AcDbEntity
8
1
100
AcDbVertex
100
AcDb2dVertex
62
5
10
55.312500
20
284.875000
0
VERTEX
5
36e
100
AcDbEntity
8
1
100
AcDbVertex
100
AcDb2dVertex
62
5
10
55.000000
20
283.625000
0
VERTEX
5
36f
100
AcDbEntity
8
1
100
AcDbVertex
100
AcDb2dVertex
62
5
10
54.375000
20
283.000000
0
VERTEX
5
370
100
AcDbEntity
8
1
100
AcDbVertex
100
AcDb2dVertex
62
5
10
53.437500
20
283.000000
0
VERTEX
5
371
100
AcDbEntity
8
1
100
AcDbVertex
100
AcDb2dVertex
62
5
10
52.812500
20
283.625000
0
VERTEX
5
372
100
AcDbEntity
8
1
100
AcDbVertex
100
AcDb2dVertex
62
5
10
52.500000
20
284.875000
0
SEQEND
5
373
100
AcDbEntity
8
1
0
POLYLINE
5
374
100
AcDbEntity
8
1
6
CONTINUOUS
62
5
100
AcDb2dPolyline
66
1
10
0.0
20
0.0
30
0.0
70
0
0
VERTEX
5
375
100
AcDbEntity
8
1
100
AcDbVertex
100
AcDb2dVertex
62
5
10
60.625000
20
290.500000
0
VERTEX
5
376
100
AcDbEntity
8
1
100
AcDbVertex
100
AcDb2dVertex
62
5
10
57.500000
20
290.500000
0
VERTEX
5
377
100
AcDbEntity
8
1
100
AcDbVertex
100
AcDb2dVertex
62
5
10
57.500000
20
283.000000
0
VERTEX
5
378
100
AcDbEntity
8
1
100
AcDbVertex
100
AcDb2dVertex
62
5
10
60.937500
20
283.000000
0
SEQEND
5
379
100
AcDbEntity
8
1
0
LINE
5
37a
100
AcDbEntity
8
1
100
AcDbLine
6
CONTINUOUS
62
5
10
57.500000
20
286.750000
11
60.312500
21
286.750000
0
LINE
5
37b
100
AcDbEntity
8
1
100
AcDbLine
6
CONTINUOUS
62
5
10
66.500000
20
326.500000
11
68.500000
21
326.500000
0
LINE
5
37c
100
AcDbEntity
8
1
100
AcDbLine
6
CONTINUOUS
62
5
10
66.250000
20
322.125000
11
68.500000
21
323.375000
0
LINE
5
37d
100
AcDbEntity
8
1
100
AcDbLine
6
CONTINUOUS
62
5
10
67.500000
20
329.000000
11
67.500000
21
322.750000
0
POLYLINE
5
37e
100
AcDbEntity
8
1
6
CONTINUOUS
62
5
100
AcDb2dPolyline
66
1
10
0.0
20
0.0
30
0.0
70
1
0
VERTEX
5
37f
100
AcDbEntity
8
1
100
AcDbVertex
100
AcDb2dVertex
62
5
10
69.500000
20
328.687500
0
VERTEX
5
380
100
AcDbEntity
8
1
100
AcDbVertex
100
AcDb2dVertex
62
5
10
69.500000
20
325.250000
0
VERTEX
5
381
100
AcDbEntity
8
1
100
AcDbVertex
100
AcDb2dVertex
62
5
10
72.500000
20
325.250000
0
VERTEX
5
382
100
AcDbEntity
8
1
100
AcDbVertex
100
AcDb2dVertex
62
5
10
72.500000
20
328.687500
0
VERTEX
5
383
100
AcDbEntity
8
1
100
AcDbVertex
100
AcDb2dVertex
62
5
10
69.500000
20
328.687500
0
SEQEND
5
384
100
AcDbEntity
8
1
0
LINE
5
385
100
AcDbEntity
8
1
100
AcDbLine
6
CONTINUOUS
62
5
10
69.500000
20
327.125000
11
72.500000
21
327.125000
0
LINE
5
386
100
AcDbEntity
8
1
100
AcDbLine
6
CONTINUOUS
62
5
10
71.000000
20
328.687500
11
71.000000
21
321.500000
0
LINE
5
387
100
AcDbEntity
8
1
100
AcDbLine
6
CONTINUOUS
62
5
10
69.000000
20
323.687500
11
73.000000
21
323.687500
0
LINE
5
388
100
AcDbEntity
8
1
100
AcDbLine
6
CONTINUOUS
62
5
10
68.250000
20
321.500000
11
73.500000
21
321.500000
0
LINE
5
389
100
AcDbEntity
8
1
100
AcDbLine
6
CONTINUOUS
62
5
10
67.500000
20
286.750000
11
70.625000
21
286.750000
0
POLYLINE
5
38a
100
AcDbEntity
8
3
6
DOT2
62
5
100
AcDb2dPolyline
66
1
10
0.0
20
0.0
30
0.0
70
1
0
VERTEX
5
38b
100
AcDbEntity
8
3
100
AcDbVertex
100
AcDb2dVertex
62
5
10
114.124276
20
195.150377
0
VERTEX
5
38c
100
AcDbEntity
8
3
100
AcDbVertex
100
AcDb2dVertex
62
5
10
114.749276
20
195.150377
0
VERTEX
5
38d
100
AcDbEntity
8
3
100
AcDbVertex
100
AcDb2dVertex
62
5
10
115.374276
20
194.837877
0
VERTEX
5
38e
100
AcDbEntity
8
3
100
AcDbVertex
100
AcDb2dVertex
62
5
10
115.686776
20
194.212877
0
VERTEX
5
38f
100
AcDbEntity
8
3
100
AcDbVertex
100
AcDb2dVertex
62
5
10
115.686776
20
192.962877
0
VERTEX
5
390
100
AcDbEntity
8
3
100
AcDbVertex
100
AcDb2dVertex
62
5
10
115.374276
20
192.337877
0
VERTEX
5
391
100
AcDbEntity
8
3
100
AcDbVertex
100
AcDb2dVertex
62
5
10
113.499276
20
191.087877
0
VERTEX
5
392
100
AcDbEntity
8
3
100
AcDbVertex
100
AcDb2dVertex
62
5
10
112.874276
20
190.150377
0
VERTEX
5
393
100
AcDbEntity
8
3
100
AcDbVertex
100
AcDb2dVertex
62
5
10
112.874276
20
188.900377
0
VERTEX
5
394
100
AcDbEntity
8
3
100
AcDbVertex
100
AcDb2dVertex
62
5
10
113.186776
20
188.275377
0
VERTEX
5
395
100
AcDbEntity
8
3
100
AcDbVertex
100
AcDb2dVertex
62
5
10
113.499276
20
187.962877
0
VERTEX
5
396
100
AcDbEntity
8
3
100
AcDbVertex
100
AcDb2dVertex
62
5
10
114.124276
20
187.650377
0
VERTEX
5
397
100
AcDbEntity
8
3
100
AcDbVertex
100
AcDb2dVertex
62
5
10
114.749276
20
187.650377
0
VERTEX
5
398
100
AcDbEntity
8
3
100
AcDbVertex
100
AcDb2dVertex
62
5
10
115.374276
20
187.962877
0
VERTEX
5
399
100
AcDbEntity
8
3
100
AcDbVertex
100
AcDb2dVertex
62
5
10
115.686776
20
188.275377
0
VERTEX
5
39a
100
AcDbEntity
8
3
100
AcDbVertex
100
AcDb2dVertex
62
5
10
115.999276
20
188.900377
0
VERTEX
5
39b
100
AcDbEntity
8
3
100
AcDbVertex
100
AcDb2dVertex
62
5
10
115.999276
20
190.150377
0
VERTEX
5
39c
100
AcDbEntity
8
3
100
AcDbVertex
100
AcDb2dVertex
62
5
10
115.374276
20
191.087877
0
VERTEX
5
39d
100
AcDbEntity
8
3
100
AcDbVertex
100
AcDb2dVertex
62
5
10
113.499276
20
192.337877
0
VERTEX
5
39e
100
AcDbEntity
8
3
100
AcDbVertex
100
AcDb2dVertex
62
5
10
113.186776
20
192.962877
0
VERTEX
5
39f
100
AcDbEntity
8
3
100
AcDbVertex
100
AcDb2dVertex
62
5
10
113.186776
20
194.212877
0
VERTEX
5
3a0
100
AcDbEntity
8
3
100
AcDbVertex
100
AcDb2dVertex
62
5
10
113.499276
20
194.837877
0
VERTEX
5
3a1
100
AcDbEntity
8
3
100
AcDbVertex
100
AcDb2dVertex
62
5
10
114.124276
20
195.150377
0
SEQEND
5
3a2
100
AcDbEntity
8
3
0
POLYLINE
5
3a3
100
AcDbEntity
8
3
6
CONTINUOUS
62
5
100
AcDb2dPolyline
66
1
10
0.0
20
0.0
30
0.0
70
0
0
VERTEX
5
3a4
100
AcDbEntity
8
3
100
AcDbVertex
100
AcDb2dVertex
62
5
10
123.549276
20
161.400377
0
VERTEX
5
3a5
100
AcDbEntity
8
3
100
AcDbVertex
100
AcDb2dVertex
62
5
10
123.470116
20
161.374012
0
VERTEX
5
3a6
100
AcDbEntity
8
3
100
AcDbVertex
100
AcDb2dVertex
62
5
10
123.469065
20
161.373794
0
VERTEX
5
3a7
100
AcDbEntity
8
3
100
AcDbVertex
100
AcDb2dVertex
62
5
10
123.467229
20
161.373577
0
VERTEX
5
3a8
100
AcDbEntity
8
3
100
AcDbVertex
100
AcDb2dVertex
62
5
10
123.464617
20
161.373362
0
VERTEX
5
3a9
100
AcDbEntity
8
3
100
AcDbVertex
100
AcDb2dVertex
62
5
10
123.461238
20
161.373151
0
VERTEX
5
3aa
100
AcDbEntity
8
3
100
AcDbVertex
100
AcDb2dVertex
62
5
10
123.457106
20
161.372944
0
VERTEX
5
3ab
100
AcDbEntity
8
3
100
AcDbVertex
100
AcDb2dVertex
62
5
10
123.452237
20
161.372742
0
VERTEX
5
3ac
100
AcDbEntity
8
3
100
AcDbVertex
100
AcDb2dVertex
62
5
10
123.446651
20
161.372545
0
VERTEX
5
3ad
100
AcDbEntity
8
3
100
AcDbVertex
100
AcDb2dVertex
62
5
10
123.440369
20
161.372355
0
VERTEX
5
3ae
100
AcDbEntity
8
3
100
AcDbVertex
100
AcDb2dVertex
62
5
10
123.433416
20
161.372173
0
VERTEX
5
3af
100
AcDbEntity
8
3
100
AcDbVertex
100
AcDb2dVertex
62
5
10
123.425819
20
161.371998
0
VERTEX
5
3b0
100
AcDbEntity
8
3
100
AcDbVertex
100
AcDb2dVertex
62
5
10
123.417609
20
161.371832
0
VERTEX
5
3b1
100
AcDbEntity
8
3
100
AcDbVertex
100
AcDb2dVertex
62
5
10
123.408819
20
161.371675
0
VERTEX
5
3b2
100
AcDbEntity
8
3
100
AcDbVertex
100
AcDb2dVertex
62
5
10
123.399482
20
161.371529
0
VERTEX
5
3b3
100
AcDbEntity
8
3
100
AcDbVertex
100
AcDb2dVertex
62
5
10
123.389635
20
161.371392
0
VERTEX
5
3b4
100
AcDbEntity
8
3
100
AcDbVertex
100
AcDb2dVertex
62
5
10
123.379318
20
161.371267
0
VERTEX
5
3b5
100
AcDbEntity
8
3
100
AcDbVertex
100
AcDb2dVertex
62
5
10
123.368571
20
161.371154
0
VERTEX
5
3b6
100
AcDbEntity
8
3
100
AcDbVertex
100
AcDb2dVertex
62
5
10
123.357436
20
161.371052
0
VERTEX
5
3b7
100
AcDbEntity
8
3
100
AcDbVertex
100
AcDb2dVertex
62
5
10
123.345958
20
161.370963
0
VERTEX
5
3b8
100
AcDbEntity
8
3
100
AcDbVertex
100
AcDb2dVertex
62
5
10
123.334182
20
161.370886
0
VERTEX
5
3b9
100
AcDbEntity
8
3
100
AcDbVertex
100
AcDb2dVertex
62
5
10
123.322154
20
161.370823
0
VERTEX
5
3ba
100
AcDbEntity
8
3
100
AcDbVertex
100
AcDb2dVertex
62
5
10
123.309922
20
161.370773
0
VERTEX
5
3bb
100
AcDbEntity
8
3
100
AcDbVertex
100
AcDb2dVertex
62
5
10
123.297533
20
161.370736
0
VERTEX
5
3bc
100
AcDbEntity
8
3
100
AcDbVertex
100
AcDb2dVertex
62
5
10
123.285038
20
161.370713
0
VERTEX
5
3bd
100
AcDbEntity
8
3
100
AcDbVertex
100
AcDb2dVertex
62
5
10
123.272484
20
161.370704
0
VERTEX
5
3be
100
AcDbEntity
8
3
100
AcDbVertex
100
AcDb2dVertex
62
5
10
122.515604
20
161.370711
0
VERTEX
5
3bf
100
AcDbEntity
8
3
100
AcDbVertex
100
AcDb2dVertex
62
5
10
122.503095
20
161.370732
0
VERTEX
5
3c0
100
AcDbEntity
8
3
100
AcDbVertex
100
AcDb2dVertex
62
5
10
122.490686
20
161.370766
0
VERTEX
5
3c1
100
AcDbEntity
8
3
100
AcDbVertex
100
AcDb2dVertex
62
5
10
122.478424
20
161.370814
0
VERTEX
5
3c2
100
AcDbEntity
8
3
100
AcDbVertex
100
AcDb2dVertex
62
5
10
122.466359
20
161.370875
0
VERTEX
5
3c3
100
AcDbEntity
8
3
100
AcDbVertex
100
AcDb2dVertex
62
5
10
122.452867
20
161.370962
0
VERTEX
5
3c4
100
AcDbEntity
8
3
100
AcDbVertex
100
AcDb2dVertex
62
5
10
122.443006
20
161.371036
0
VERTEX
5
3c5
100
AcDbEntity
8
3
100
AcDbVertex
100
AcDb2dVertex
62
5
10
122.431811
20
161.371136
0
VERTEX
5
3c6
100
AcDbEntity
8
3
100
AcDbVertex
100
AcDb2dVertex
62
5
10
122.420997
20
161.371248
0
VERTEX
5
3c7
100
AcDbEntity
8
3
100
AcDbVertex
100
AcDb2dVertex
62
5
10
122.410605
20
161.371371
0
VERTEX
5
3c8
100
AcDbEntity
8
3
100
AcDbVertex
100
AcDb2dVertex
62
5
10
122.400677
20
161.371505
0
VERTEX
5
3c9
100
AcDbEntity
8
3
100
AcDbVertex
100
AcDb2dVertex
62
5
10
122.391253
20
161.371650
0
VERTEX
5
3ca
100
AcDbEntity
8
3
100
AcDbVertex
100
AcDb2dVertex
62
5
10
122.382368
20
161.371805
0
VERTEX
5
3cb
100
AcDbEntity
8
3
100
AcDbVertex
100
AcDb2dVertex
62
5
10
122.374059
20
161.371970
0
VERTEX
5
3cc
100
AcDbEntity
8
3
100
AcDbVertex
100
AcDb2dVertex
62
5
10
122.366359
20
161.372143
0
VERTEX
5
3cd
100
AcDbEntity
8
3
100
AcDbVertex
100
AcDb2dVertex
62
5
10
122.359296
20
161.372324
0
VERTEX
5
3ce
100
AcDbEntity
8
3
100
AcDbVertex
100
AcDb2dVertex
62
5
10
122.352901
20
161.372513
0
VERTEX
5
3cf
100
AcDbEntity
8
3
100
AcDbVertex
100
AcDb2dVertex
62
5
10
122.347197
20
161.372709
0
VERTEX
5
3d0
100
AcDbEntity
8
3
100
AcDbVertex
100
AcDb2dVertex
62
5
10
122.342207
20
161.372910
0
VERTEX
5
3d1
100
AcDbEntity
8
3
100
AcDbVertex
100
AcDb2dVertex
62
5
10
122.337951
20
161.373116
0
VERTEX
5
3d2
100
AcDbEntity
8
3
100
AcDbVertex
100
AcDb2dVertex
62
5
10
122.334445
20
161.373327
0
VERTEX
5
3d3
100
AcDbEntity
8
3
100
AcDbVertex
100
AcDb2dVertex
62
5
10
122.331705
20
161.373541
0
VERTEX
5
3d4
100
AcDbEntity
8
3
100
AcDbVertex
100
AcDb2dVertex
62
5
10
122.329739
20
161.373758
0
VERTEX
5
3d5
100
AcDbEntity
8
3
100
AcDbVertex
100
AcDb2dVertex
62
5
10
122.328557
20
161.373976
0
VERTEX
5
3d6
100
AcDbEntity
8
3
100
AcDbVertex
100
AcDb2dVertex
62
5
10
122.249276
20
161.400377
0
SEQEND
5
3d7
100
AcDbEntity
8
3
0
LINE
5
3d8
100
AcDbEntity
8
3
100
AcDbLine
6
CONTINUOUS
62
5
10
124.974276
20
161.400377
11
124.974383
21
161.400377
0
LINE
5
3d9
100
AcDbEntity
8
3
100
AcDbLine
6
CONTINUOUS
62
5
10
124.974383
20
161.400377
11
124.974276
21
161.400377
0
LINE
5
3da
100
AcDbEntity
8
3
100
AcDbLine
6
CONTINUOUS
62
5
10
125.674276
20
160.700377
11
125.674276
21
160.700483
0
LINE
5
3db
100
AcDbEntity
8
3
100
AcDbLine
6
CONTINUOUS
62
5
10
98.274170
20
161.400377
11
98.274276
21
161.400377
0
LINE
5
3dc
100
AcDbEntity
8
3
100
AcDbLine
6
CONTINUOUS
62
5
10
97.574276
20
160.700483
11
97.574276
21
160.700377
0
LINE
5
3dd
100
AcDbEntity
8
3
100
AcDbLine
6
CONTINUOUS
62
5
10
98.274276
20
161.400377
11
98.274170
21
161.400377
0
POLYLINE
5
3de
100
AcDbEntity
8
3
6
CONTINUOUS
62
5
100
AcDb2dPolyline
66
1
10
0.0
20
0.0
30
0.0
70
0
0
VERTEX
5
3df
100
AcDbEntity
8
3
100
AcDbVertex
100
AcDb2dVertex
62
5
10
100.999276
20
161.400377
0
VERTEX
5
3e0
100
AcDbEntity
8
3
100
AcDbVertex
100
AcDb2dVertex
62
5
10
100.920116
20
161.374012
0
VERTEX
5
3e1
100
AcDbEntity
8
3
100
AcDbVertex
100
AcDb2dVertex
62
5
10
100.919065
20
161.373794
0
VERTEX
5
3e2
100
AcDbEntity
8
3
100
AcDbVertex
100
AcDb2dVertex
62
5
10
100.917229
20
161.373577
0
VERTEX
5
3e3
100
AcDbEntity
8
3
100
AcDbVertex
100
AcDb2dVertex
62
5
10
100.914617
20
161.373362
0
VERTEX
5
3e4
100
AcDbEntity
8
3
100
AcDbVertex
100
AcDb2dVertex
62
5
10
100.911238
20
161.373151
0
VERTEX
5
3e5
100
AcDbEntity
8
3
100
AcDbVertex
100
AcDb2dVertex
62
5
10
100.907106
20
161.372944
0
VERTEX
5
3e6
100
AcDbEntity
8
3
100
AcDbVertex
100
AcDb2dVertex
62
5
10
100.902237
20
161.372742
0
VERTEX
5
3e7
100
AcDbEntity
8
3
100
AcDbVertex
100
AcDb2dVertex
62
5
10
100.896651
20
161.372545
0
VERTEX
5
3e8
100
AcDbEntity
8
3
100
AcDbVertex
100
AcDb2dVertex
62
5
10
100.890369
20
161.372355
0
VERTEX
5
3e9
100
AcDbEntity
8
3
100
AcDbVertex
100
AcDb2dVertex
62
5
10
100.883416
20
161.372173
0
VERTEX
5
3ea
100
AcDbEntity
8
3
100
AcDbVertex
100
AcDb2dVertex
62
5
10
100.875819
20
161.371998
0
VERTEX
5
3eb
100
AcDbEntity
8
3
100
AcDbVertex
100
AcDb2dVertex
62
5
10
100.867609
20
161.371832
0
VERTEX
5
3ec
100
AcDbEntity
8
3
100
AcDbVertex
100
AcDb2dVertex
62
5
10
100.858819
20
161.371675
0
VERTEX
5
3ed
100
AcDbEntity
8
3
100
AcDbVertex
100
AcDb2dVertex
62
5
10
100.849482
20
161.371529
0
VERTEX
5
3ee
100
AcDbEntity
8
3
100
AcDbVertex
100
AcDb2dVertex
62
5
10
100.839635
20
161.371392
0
VERTEX
5
3ef
100
AcDbEntity
8
3
100
AcDbVertex
100
AcDb2dVertex
62
5
10
100.829318
20
161.371267
0
VERTEX
5
3f0
100
AcDbEntity
8
3
100
AcDbVertex
100
AcDb2dVertex
62
5
10
100.818571
20
161.371154
0
VERTEX
5
3f1
100
AcDbEntity
8
3
100
AcDbVertex
100
AcDb2dVertex
62
5
10
100.807436
20
161.371052
0
VERTEX
5
3f2
100
AcDbEntity
8
3
100
AcDbVertex
100
AcDb2dVertex
62
5
10
100.795958
20
161.370963
0
VERTEX
5
3f3
100
AcDbEntity
8
3
100
AcDbVertex
100
AcDb2dVertex
62
5
10
100.784182
20
161.370886
0
VERTEX
5
3f4
100
AcDbEntity
8
3
100
AcDbVertex
100
AcDb2dVertex
62
5
10
100.772154
20
161.370823
0
VERTEX
5
3f5
100
AcDbEntity
8
3
100
AcDbVertex
100
AcDb2dVertex
62
5
10
100.759922
20
161.370773
0
VERTEX
5
3f6
100
AcDbEntity
8
3
100
AcDbVertex
100
AcDb2dVertex
62
5
10
100.747533
20
161.370736
0
VERTEX
5
3f7
100
AcDbEntity
8
3
100
AcDbVertex
100
AcDb2dVertex
62
5
10
100.735038
20
161.370713
0
VERTEX
5
3f8
100
AcDbEntity
8
3
100
AcDbVertex
100
AcDb2dVertex
62
5
10
100.722484
20
161.370704
0
VERTEX
5
3f9
100
AcDbEntity
8
3
100
AcDbVertex
100
AcDb2dVertex
62
5
10
99.965604
20
161.370711
0
VERTEX
5
3fa
100
AcDbEntity
8
3
100
AcDbVertex
100
AcDb2dVertex
62
5
10
99.953095
20
161.370732
0
VERTEX
5
3fb
100
AcDbEntity
8
3
100
AcDbVertex
100
AcDb2dVertex
62
5
10
99.940686
20
161.370766
0
VERTEX
5
3fc
100
AcDbEntity
8
3
100
AcDbVertex
100
AcDb2dVertex
62
5
10
99.928424
20
161.370814
0
VERTEX
5
3fd
100
AcDbEntity
8
3
100
AcDbVertex
100
AcDb2dVertex
62
5
10
99.916359
20
161.370875
0
VERTEX
5
3fe
100
AcDbEntity
8
3
100
AcDbVertex
100
AcDb2dVertex
62
5
10
99.902867
20
161.370962
0
VERTEX
5
3ff
100
AcDbEntity
8
3
100
AcDbVertex
100
AcDb2dVertex
62
5
10
99.893006
20
161.371036
0
VERTEX
5
400
100
AcDbEntity
8
3
100
AcDbVertex
100
AcDb2dVertex
62
5
10
99.881811
20
161.371136
0
VERTEX
5
401
100
AcDbEntity
8
3
100
AcDbVertex
100
AcDb2dVertex
62
5
10
99.870997
20
161.371248
0
VERTEX
5
402
100
AcDbEntity
8
3
100
AcDbVertex
100
AcDb2dVertex
62
5
10
99.860605
20
161.371371
0
VERTEX
5
403
100
AcDbEntity
8
3
100
AcDbVertex
100
AcDb2dVertex
62
5
10
99.850677
20
161.371505
0
VERTEX
5
404
100
AcDbEntity
8
3
100
AcDbVertex
100
AcDb2dVertex
62
5
10
99.841253
20
161.371650
0
VERTEX
5
405
100
AcDbEntity
8
3
100
AcDbVertex
100
AcDb2dVertex
62
5
10
99.832368
20
161.371805
0
VERTEX
5
406
100
AcDbEntity
8
3
100
AcDbVertex
100
AcDb2dVertex
62
5
10
99.824059
20
161.371970
0
VERTEX
5
407
100
AcDbEntity
8
3
100
AcDbVertex
100
AcDb2dVertex
62
5
10
99.816359
20
161.372143
0
VERTEX
5
408
100
AcDbEntity
8
3
100
AcDbVertex
100
AcDb2dVertex
62
5
10
99.809296
20
161.372324
0
VERTEX
5
409
100
AcDbEntity
8
3
100
AcDbVertex
100
AcDb2dVertex
62
5
10
99.802901
20
161.372513
0
VERTEX
5
40a
100
AcDbEntity
8
3
100
AcDbVertex
100
AcDb2dVertex
62
5
10
99.797197
20
161.372709
0
VERTEX
5
40b
100
AcDbEntity
8
3
100
AcDbVertex
100
AcDb2dVertex
62
5
10
99.792207
20
161.372910
0
VERTEX
5
40c
100
AcDbEntity
8
3
100
AcDbVertex
100
AcDb2dVertex
62
5
10
99.787951
20
161.373116
0
VERTEX
5
40d
100
AcDbEntity
8
3
100
AcDbVertex
100
AcDb2dVertex
62
5
10
99.784445
20
161.373327
0
VERTEX
5
40e
100
AcDbEntity
8
3
100
AcDbVertex
100
AcDb2dVertex
62
5
10
99.781705
20
161.373541
0
VERTEX
5
40f
100
AcDbEntity
8
3
100
AcDbVertex
100
AcDb2dVertex
62
5
10
99.779739
20
161.373758
0
VERTEX
5
410
100
AcDbEntity
8
3
100
AcDbVertex
100
AcDb2dVertex
62
5
10
99.778557
20
161.373976
0
VERTEX
5
411
100
AcDbEntity
8
3
100
AcDbVertex
100
AcDb2dVertex
62
5
10
99.699276
20
161.400377
0
SEQEND
5
412
100
AcDbEntity
8
3
0
POLYLINE
5
413
100
AcDbEntity
8
3
6
DOT2
62
5
100
AcDb2dPolyline
66
1
10
0.0
20
0.0
30
0.0
70
0
0
VERTEX
5
414
100
AcDbEntity
8
3
100
AcDbVertex
100
AcDb2dVertex
62
5
10
107.874276
20
192.962877
0
VERTEX
5
415
100
AcDbEntity
8
3
100
AcDbVertex
100
AcDb2dVertex
62
5
10
108.186776
20
194.525377
0
VERTEX
5
416
100
AcDbEntity
8
3
100
AcDbVertex
100
AcDb2dVertex
62
5
10
109.124276
20
195.150377
0
VERTEX
5
417
100
AcDbEntity
8
3
100
AcDbVertex
100
AcDb2dVertex
62
5
10
110.061776
20
195.150377
0
VERTEX
5
418
100
AcDbEntity
8
3
100
AcDbVertex
100
AcDb2dVertex
62
5
10
110.686776
20
194.837877
0
VERTEX
5
419
100
AcDbEntity
8
3
100
AcDbVertex
100
AcDb2dVertex
62
5
10
110.999276
20
193.900377
0
VERTEX
5
41a
100
AcDbEntity
8
3
100
AcDbVertex
100
AcDb2dVertex
62
5
10
110.999276
20
192.962877
0
VERTEX
5
41b
100
AcDbEntity
8
3
100
AcDbVertex
100
AcDb2dVertex
62
5
10
110.686776
20
192.025377
0
VERTEX
5
41c
100
AcDbEntity
8
3
100
AcDbVertex
100
AcDb2dVertex
62
5
10
107.874276
20
187.650377
0
VERTEX
5
41d
100
AcDbEntity
8
3
100
AcDbVertex
100
AcDb2dVertex
62
5
10
110.999276
20
187.650377
0
VERTEX
5
41e
100
AcDbEntity
8
3
100
AcDbVertex
100
AcDb2dVertex
62
5
10
110.999276
20
188.587877
0
SEQEND
5
41f
100
AcDbEntity
8
3
0
LINE
5
420
100
AcDbEntity
8
3
100
AcDbLine
6
CONTINUOUS
62
5
10
97.574276
20
162.200483
11
97.574276
21
188.400377
0
LINE
5
421
100
AcDbEntity
8
3
100
AcDbLine
6
CONTINUOUS
62
5
10
125.674276
20
162.200483
11
125.674276
21
188.400377
0
POLYLINE
5
422
100
AcDbEntity
8
3
6
CONTINUOUS
62
5
100
AcDb2dPolyline
66
1
10
0.0
20
0.0
30
0.0
70
0
0
VERTEX
5
423
100
AcDbEntity
8
3
100
AcDbVertex
100
AcDb2dVertex
62
5
10
111.624276
20
186.400377
0
VERTEX
5
424
100
AcDbEntity
8
3
100
AcDbVertex
100
AcDb2dVertex
62
5
10
97.574276
20
186.400377
0
VERTEX
5
425
100
AcDbEntity
8
3
100
AcDbVertex
100
AcDb2dVertex
62
5
10
103.574276
20
187.400377
0
VERTEX
5
426
100
AcDbEntity
8
3
100
AcDbVertex
100
AcDb2dVertex
62
5
10
103.574276
20
185.400377
0
VERTEX
5
427
100
AcDbEntity
8
3
100
AcDbVertex
100
AcDb2dVertex
62
5
10
97.574276
20
186.400377
0
VERTEX
5
428
100
AcDbEntity
8
3
100
AcDbVertex
100
AcDb2dVertex
62
5
10
103.574276
20
186.900377
0
VERTEX
5
429
100
AcDbEntity
8
3
100
AcDbVertex
100
AcDb2dVertex
62
5
10
103.574276
20
185.900377
0
VERTEX
5
42a
100
AcDbEntity
8
3
100
AcDbVertex
100
AcDb2dVertex
62
5
10
97.574276
20
186.400377
0
SEQEND
5
42b
100
AcDbEntity
8
3
0
POLYLINE
5
42c
100
AcDbEntity
8
3
6
CONTINUOUS
62
5
100
AcDb2dPolyline
66
1
10
0.0
20
0.0
30
0.0
70
0
0
VERTEX
5
42d
100
AcDbEntity
8
3
100
AcDbVertex
100
AcDb2dVertex
62
5
10
111.624276
20
186.400377
0
VERTEX
5
42e
100
AcDbEntity
8
3
100
AcDbVertex
100
AcDb2dVertex
62
5
10
125.674276
20
186.400377
0
VERTEX
5
42f
100
AcDbEntity
8
3
100
AcDbVertex
100
AcDb2dVertex
62
5
10
119.674276
20
185.400377
0
VERTEX
5
430
100
AcDbEntity
8
3
100
AcDbVertex
100
AcDb2dVertex
62
5
10
119.674276
20
187.400377
0
VERTEX
5
431
100
AcDbEntity
8
3
100
AcDbVertex
100
AcDb2dVertex
62
5
10
125.674276
20
186.400377
0
VERTEX
5
432
100
AcDbEntity
8
3
100
AcDbVertex
100
AcDb2dVertex
62
5
10
119.674276
20
185.900377
0
VERTEX
5
433
100
AcDbEntity
8
3
100
AcDbVertex
100
AcDb2dVertex
62
5
10
119.674276
20
186.900377
0
VERTEX
5
434
100
AcDbEntity
8
3
100
AcDbVertex
100
AcDb2dVertex
62
5
10
125.674276
20
186.400377
0
SEQEND
5
435
100
AcDbEntity
8
3
0
LINE
5
436
100
AcDbEntity
8
3
100
AcDbLine
6
DOT2
62
5
10
62.649276
20
183.275377
11
63.274276
21
182.650377
0
POLYLINE
5
437
100
AcDbEntity
8
3
6
DOT2
62
5
100
AcDb2dPolyline
66
1
10
0.0
20
0.0
30
0.0
70
0
0
VERTEX
5
438
100
AcDbEntity
8
3
100
AcDbVertex
100
AcDb2dVertex
62
5
10
62.649276
20
182.650377
0
VERTEX
5
439
100
AcDbEntity
8
3
100
AcDbVertex
100
AcDb2dVertex
62
5
10
63.274276
20
183.275377
0
VERTEX
5
43a
100
AcDbEntity
8
3
100
AcDbVertex
100
AcDb2dVertex
62
5
10
63.274276
20
182.650377
0
VERTEX
5
43b
100
AcDbEntity
8
3
100
AcDbVertex
100
AcDb2dVertex
62
5
10
62.649276
20
182.650377
0
VERTEX
5
43c
100
AcDbEntity
8
3
100
AcDbVertex
100
AcDb2dVertex
62
5
10
62.649276
20
183.275377
0
VERTEX
5
43d
100
AcDbEntity
8
3
100
AcDbVertex
100
AcDb2dVertex
62
5
10
63.274276
20
183.275377
0
SEQEND
5
43e
100
AcDbEntity
8
3
0
POLYLINE
5
43f
100
AcDbEntity
8
3
6
DOT2
62
5
100
AcDb2dPolyline
66
1
10
0.0
20
0.0
30
0.0
70
1
0
VERTEX
5
440
100
AcDbEntity
8
3
100
AcDbVertex
100
AcDb2dVertex
62
5
10
55.774276
20
188.900377
0
VERTEX
5
441
100
AcDbEntity
8
3
100
AcDbVertex
100
AcDb2dVertex
62
5
10
55.774276
20
189.525377
0
VERTEX
5
442
100
AcDbEntity
8
3
100
AcDbVertex
100
AcDb2dVertex
62
5
10
56.086776
20
190.150377
0
VERTEX
5
443
100
AcDbEntity
8
3
100
AcDbVertex
100
AcDb2dVertex
62
5
10
56.711776
20
190.462877
0
VERTEX
5
444
100
AcDbEntity
8
3
100
AcDbVertex
100
AcDb2dVertex
62
5
10
57.961776
20
190.462877
0
VERTEX
5
445
100
AcDbEntity
8
3
100
AcDbVertex
100
AcDb2dVertex
62
5
10
58.586776
20
190.150377
0
VERTEX
5
446
100
AcDbEntity
8
3
100
AcDbVertex
100
AcDb2dVertex
62
5
10
59.836776
20
188.275377
0
VERTEX
5
447
100
AcDbEntity
8
3
100
AcDbVertex
100
AcDb2dVertex
62
5
10
60.774276
20
187.650377
0
VERTEX
5
448
100
AcDbEntity
8
3
100
AcDbVertex
100
AcDb2dVertex
62
5
10
62.024276
20
187.650377
0
VERTEX
5
449
100
AcDbEntity
8
3
100
AcDbVertex
100
AcDb2dVertex
62
5
10
62.649276
20
187.962877
0
VERTEX
5
44a
100
AcDbEntity
8
3
100
AcDbVertex
100
AcDb2dVertex
62
5
10
62.961776
20
188.275377
0
VERTEX
5
44b
100
AcDbEntity
8
3
100
AcDbVertex
100
AcDb2dVertex
62
5
10
63.274276
20
188.900377
0
VERTEX
5
44c
100
AcDbEntity
8
3
100
AcDbVertex
100
AcDb2dVertex
62
5
10
63.274276
20
189.525377
0
VERTEX
5
44d
100
AcDbEntity
8
3
100
AcDbVertex
100
AcDb2dVertex
62
5
10
62.961776
20
190.150377
0
VERTEX
5
44e
100
AcDbEntity
8
3
100
AcDbVertex
100
AcDb2dVertex
62
5
10
62.649276
20
190.462877
0
VERTEX
5
44f
100
AcDbEntity
8
3
100
AcDbVertex
100
AcDb2dVertex
62
5
10
62.024276
20
190.775377
0
VERTEX
5
450
100
AcDbEntity
8
3
100
AcDbVertex
100
AcDb2dVertex
62
5
10
60.774276
20
190.775377
0
VERTEX
5
451
100
AcDbEntity
8
3
100
AcDbVertex
100
AcDb2dVertex
62
5
10
59.836776
20
190.150377
0
VERTEX
5
452
100
AcDbEntity
8
3
100
AcDbVertex
100
AcDb2dVertex
62
5
10
58.586776
20
188.275377
0
VERTEX
5
453
100
AcDbEntity
8
3
100
AcDbVertex
100
AcDb2dVertex
62
5
10
57.961776
20
187.962877
0
VERTEX
5
454
100
AcDbEntity
8
3
100
AcDbVertex
100
AcDb2dVertex
62
5
10
56.711776
20
187.962877
0
VERTEX
5
455
100
AcDbEntity
8
3
100
AcDbVertex
100
AcDb2dVertex
62
5
10
56.086776
20
188.275377
0
VERTEX
5
456
100
AcDbEntity
8
3
100
AcDbVertex
100
AcDb2dVertex
62
5
10
55.774276
20
188.900377
0
SEQEND
5
457
100
AcDbEntity
8
3
0
POLYLINE
5
458
100
AcDbEntity
8
3
6
DOT2
62
5
100
AcDb2dPolyline
66
1
10
0.0
20
0.0
30
0.0
70
0
0
VERTEX
5
459
100
AcDbEntity
8
3
100
AcDbVertex
100
AcDb2dVertex
62
5
10
57.961776
20
172.650377
0
VERTEX
5
45a
100
AcDbEntity
8
3
100
AcDbVertex
100
AcDb2dVertex
62
5
10
56.399276
20
172.962877
0
VERTEX
5
45b
100
AcDbEntity
8
3
100
AcDbVertex
100
AcDb2dVertex
62
5
10
55.774276
20
173.900377
0
VERTEX
5
45c
100
AcDbEntity
8
3
100
AcDbVertex
100
AcDb2dVertex
62
5
10
55.774276
20
174.837877
0
VERTEX
5
45d
100
AcDbEntity
8
3
100
AcDbVertex
100
AcDb2dVertex
62
5
10
56.086776
20
175.462877
0
VERTEX
5
45e
100
AcDbEntity
8
3
100
AcDbVertex
100
AcDb2dVertex
62
5
10
57.024276
20
175.775377
0
VERTEX
5
45f
100
AcDbEntity
8
3
100
AcDbVertex
100
AcDb2dVertex
62
5
10
57.961776
20
175.775377
0
VERTEX
5
460
100
AcDbEntity
8
3
100
AcDbVertex
100
AcDb2dVertex
62
5
10
58.899276
20
175.462877
0
VERTEX
5
461
100
AcDbEntity
8
3
100
AcDbVertex
100
AcDb2dVertex
62
5
10
63.274276
20
172.650377
0
VERTEX
5
462
100
AcDbEntity
8
3
100
AcDbVertex
100
AcDb2dVertex
62
5
10
63.274276
20
175.775377
0
VERTEX
5
463
100
AcDbEntity
8
3
100
AcDbVertex
100
AcDb2dVertex
62
5
10
62.336776
20
175.775377
0
SEQEND
5
464
100
AcDbEntity
8
3
0
POLYLINE
5
465
100
AcDbEntity
8
3
6
DOT2
62
5
100
AcDb2dPolyline
66
1
10
0.0
20
0.0
30
0.0
70
0
0
VERTEX
5
466
100
AcDbEntity
8
3
100
AcDbVertex
100
AcDb2dVertex
62
5
10
57.961776
20
177.650377
0
VERTEX
5
467
100
AcDbEntity
8
3
100
AcDbVertex
100
AcDb2dVertex
62
5
10
56.399276
20
177.962877
0
VERTEX
5
468
100
AcDbEntity
8
3
100
AcDbVertex
100
AcDb2dVertex
62
5
10
55.774276
20
178.900377
0
VERTEX
5
469
100
AcDbEntity
8
3
100
AcDbVertex
100
AcDb2dVertex
62
5
10
55.774276
20
179.837877
0
VERTEX
5
46a
100
AcDbEntity
8
3
100
AcDbVertex
100
AcDb2dVertex
62
5
10
56.086776
20
180.462877
0
VERTEX
5
46b
100
AcDbEntity
8
3
100
AcDbVertex
100
AcDb2dVertex
62
5
10
57.024276
20
180.775377
0
VERTEX
5
46c
100
AcDbEntity
8
3
100
AcDbVertex
100
AcDb2dVertex
62
5
10
57.961776
20
180.775377
0
VERTEX
5
46d
100
AcDbEntity
8
3
100
AcDbVertex
100
AcDb2dVertex
62
5
10
58.899276
20
180.462877
0
VERTEX
5
46e
100
AcDbEntity
8
3
100
AcDbVertex
100
AcDb2dVertex
62
5
10
63.274276
20
177.650377
0
VERTEX
5
46f
100
AcDbEntity
8
3
100
AcDbVertex
100
AcDb2dVertex
62
5
10
63.274276
20
180.775377
0
VERTEX
5
470
100
AcDbEntity
8
3
100
AcDbVertex
100
AcDb2dVertex
62
5
10
62.336776
20
180.775377
0
SEQEND
5
471
100
AcDbEntity
8
3
0
POLYLINE
5
472
100
AcDbEntity
8
1
6
CONTINUOUS
62
5
100
AcDb2dPolyline
66
1
10
0.0
20
0.0
30
0.0
70
0
0
VERTEX
5
473
100
AcDbEntity
8
1
100
AcDbVertex
100
AcDb2dVertex
62
5
10
147.500000
20
317.125000
0
VERTEX
5
474
100
AcDbEntity
8
1
100
AcDbVertex
100
AcDb2dVertex
62
5
10
151.750000
20
317.125000
0
VERTEX
5
475
100
AcDbEntity
8
1
100
AcDbVertex
100
AcDb2dVertex
62
5
10
151.750000
20
316.500000
0
VERTEX
5
476
100
AcDbEntity
8
1
100
AcDbVertex
100
AcDb2dVertex
62
5
10
151.250000
20
314.625000
0
VERTEX
5
477
100
AcDbEntity
8
1
100
AcDbVertex
100
AcDb2dVertex
62
5
10
150.250000
20
313.062500
0
VERTEX
5
478
100
AcDbEntity
8
1
100
AcDbVertex
100
AcDb2dVertex
62
5
10
149.000000
20
312.125000
0
VERTEX
5
479
100
AcDbEntity
8
1
100
AcDbVertex
100
AcDb2dVertex
62
5
10
148.250000
20
311.812500
0
SEQEND
5
47a
100
AcDbEntity
8
1
0
POLYLINE
5
47b
100
AcDbEntity
8
3
6
CONTINUOUS
62
5
100
AcDb2dPolyline
66
1
10
0.0
20
0.0
30
0.0
70
0
0
VERTEX
5
47c
100
AcDbEntity
8
3
100
AcDbVertex
100
AcDb2dVertex
62
5
10
226.618200
20
157.961243
0
VERTEX
5
47d
100
AcDbEntity
8
3
100
AcDbVertex
100
AcDb2dVertex
62
5
10
226.876671
20
158.098022
0
VERTEX
5
47e
100
AcDbEntity
8
3
100
AcDbVertex
100
AcDb2dVertex
62
5
10
226.982004
20
158.157966
0
SEQEND
5
47f
100
AcDbEntity
8
3
0
POLYLINE
5
480
100
AcDbEntity
8
3
6
CONTINUOUS
62
5
100
AcDb2dPolyline
66
1
10
0.0
20
0.0
30
0.0
70
0
0
VERTEX
5
481
100
AcDbEntity
8
3
100
AcDbVertex
100
AcDb2dVertex
62
5
10
225.986451
20
158.592991
0
VERTEX
5
482
100
AcDbEntity
8
3
100
AcDbVertex
100
AcDb2dVertex
62
5
10
226.099862
20
158.876811
0
VERTEX
5
483
100
AcDbEntity
8
3
100
AcDbVertex
100
AcDb2dVertex
62
5
10
226.140731
20
158.999264
0
SEQEND
5
484
100
AcDbEntity
8
3
0
POLYLINE
5
485
100
AcDbEntity
8
3
6
CONTINUOUS
62
5
100
AcDb2dPolyline
66
1
10
0.0
20
0.0
30
0.0
70
0
0
VERTEX
5
486
100
AcDbEntity
8
3
100
AcDbVertex
100
AcDb2dVertex
62
5
10
227.508140
20
152.914212
0
VERTEX
5
487
100
AcDbEntity
8
3
100
AcDbVertex
100
AcDb2dVertex
62
5
10
227.786295
20
152.938926
0
VERTEX
5
488
100
AcDbEntity
8
3
100
AcDbVertex
100
AcDb2dVertex
62
5
10
227.900341
20
152.949772
0
SEQEND
5
489
100
AcDbEntity
8
3
0
POLYLINE
5
48a
100
AcDbEntity
8
3
6
CONTINUOUS
62
5
100
AcDb2dPolyline
66
1
10
0.0
20
0.0
30
0.0
70
0
0
VERTEX
5
48b
100
AcDbEntity
8
3
100
AcDbVertex
100
AcDb2dVertex
62
5
10
227.059906
20
157.716209
0
VERTEX
5
48c
100
AcDbEntity
8
3
100
AcDbVertex
100
AcDb2dVertex
62
5
10
227.177203
20
157.718266
0
VERTEX
5
48d
100
AcDbEntity
8
3
100
AcDbVertex
100
AcDb2dVertex
62
5
10
227.177203
20
158.343792
0
VERTEX
5
48e
100
AcDbEntity
8
3
100
AcDbVertex
100
AcDb2dVertex
62
5
10
226.140604
20
158.999391
0
VERTEX
5
48f
100
AcDbEntity
8
3
100
AcDbVertex
100
AcDb2dVertex
62
5
10
224.704742
20
158.999391
0
VERTEX
5
490
100
AcDbEntity
8
3
100
AcDbVertex
100
AcDb2dVertex
62
5
10
224.704742
20
156.943642
0
VERTEX
5
491
100
AcDbEntity
8
3
100
AcDbVertex
100
AcDb2dVertex
62
5
10
222.910969
20
156.943642
0
SEQEND
5
492
100
AcDbEntity
8
3
0
LINE
5
493
100
AcDbEntity
8
3
100
AcDbLine
6
CONTINUOUS
62
5
10
215.893304
20
158.415141
11
215.893304
21
158.745391
0
LINE
5
494
100
AcDbEntity
8
3
100
AcDbLine
6
CONTINUOUS
62
5
10
212.325984
20
158.352887
11
211.378403
21
158.336350
0
LINE
5
495
100
AcDbEntity
8
3
100
AcDbLine
6
CONTINUOUS
62
5
10
211.378403
20
158.666601
11
211.378403
21
158.146330
0
POLYLINE
5
496
100
AcDbEntity
8
3
6
CONTINUOUS
62
5
100
AcDb2dPolyline
66
1
10
0.0
20
0.0
30
0.0
70
0
0
VERTEX
5
497
100
AcDbEntity
8
3
100
AcDbVertex
100
AcDb2dVertex
62
5
10
218.850062
20
158.363532
0
VERTEX
5
498
100
AcDbEntity
8
3
100
AcDbVertex
100
AcDb2dVertex
62
5
10
215.893304
20
158.415141
0
VERTEX
5
499
100
AcDbEntity
8
3
100
AcDbVertex
100
AcDb2dVertex
62
5
10
212.935980
20
158.363532
0
SEQEND
5
49a
100
AcDbEntity
8
3
0
LINE
5
49b
100
AcDbEntity
8
3
100
AcDbLine
6
CONTINUOUS
62
5
10
219.845705
20
158.346153
11
224.471697
21
158.265408
0
POLYLINE
5
49c
100
AcDbEntity
8
3
6
CONTINUOUS
62
5
100
AcDb2dPolyline
66
1
10
0.0
20
0.0
30
0.0
70
0
0
VERTEX
5
49d
100
AcDbEntity
8
3
100
AcDbVertex
100
AcDb2dVertex
62
5
10
223.232304
20
157.264927
0
VERTEX
5
49e
100
AcDbEntity
8
3
100
AcDbVertex
100
AcDb2dVertex
62
5
10
223.333218
20
157.266680
0
VERTEX
5
49f
100
AcDbEntity
8
3
100
AcDbVertex
100
AcDb2dVertex
62
5
10
224.471697
20
157.924006
0
VERTEX
5
4a0
100
AcDbEntity
8
3
100
AcDbVertex
100
AcDb2dVertex
62
5
10
224.471697
20
158.595658
0
VERTEX
5
4a1
100
AcDbEntity
8
3
100
AcDbVertex
100
AcDb2dVertex
62
5
10
215.893304
20
158.745391
0
VERTEX
5
4a2
100
AcDbEntity
8
3
100
AcDbVertex
100
AcDb2dVertex
62
5
10
210.652167
20
158.653926
0
SEQEND
5
4a3
100
AcDbEntity
8
3
0
POLYLINE
5
4a4
100
AcDbEntity
8
3
6
CONTINUOUS
62
5
100
AcDb2dPolyline
66
1
10
0.0
20
0.0
30
0.0
70
0
0
VERTEX
5
4a5
100
AcDbEntity
8
3
100
AcDbVertex
100
AcDb2dVertex
62
5
10
227.300724
20
144.477627
0
VERTEX
5
4a6
100
AcDbEntity
8
3
100
AcDbVertex
100
AcDb2dVertex
62
5
10
225.852949
20
144.471303
0
VERTEX
5
4a7
100
AcDbEntity
8
3
100
AcDbVertex
100
AcDb2dVertex
62
5
10
225.812309
20
144.472369
0
SEQEND
5
4a8
100
AcDbEntity
8
3
0
LINE
5
4a9
100
AcDbEntity
8
3
100
AcDbLine
6
CONTINUOUS
62
5
10
225.852949
20
144.561650
11
227.300724
21
144.558958
0
LINE
5
4aa
100
AcDbEntity
8
3
100
AcDbLine
6
CONTINUOUS
62
5
10
225.852949
20
144.187153
11
225.852949
21
144.606735
0
POLYLINE
5
4ab
100
AcDbEntity
8
3
6
CONTINUOUS
62
5
100
AcDb2dPolyline
66
1
10
0.0
20
0.0
30
0.0
70
0
0
VERTEX
5
4ac
100
AcDbEntity
8
3
100
AcDbVertex
100
AcDb2dVertex
62
5
10
227.300724
20
144.149231
0
VERTEX
5
4ad
100
AcDbEntity
8
3
100
AcDbVertex
100
AcDb2dVertex
62
5
10
227.228689
20
144.151136
0
VERTEX
5
4ae
100
AcDbEntity
8
3
100
AcDbVertex
100
AcDb2dVertex
62
5
10
225.852949
20
144.187153
0
VERTEX
5
4af
100
AcDbEntity
8
3
100
AcDbVertex
100
AcDb2dVertex
62
5
10
225.812309
20
144.186086
0
SEQEND
5
4b0
100
AcDbEntity
8
3
0
LINE
5
4b1
100
AcDbEntity
8
3
100
AcDbLine
6
CONTINUOUS
62
5
10
227.866509
20
144.487508
11
227.442684
21
144.480091
0
POLYLINE
5
4b2
100
AcDbEntity
8
3
6
CONTINUOUS
62
5
100
AcDb2dPolyline
66
1
10
0.0
20
0.0
30
0.0
70
0
0
VERTEX
5
4b3
100
AcDbEntity
8
3
100
AcDbVertex
100
AcDb2dVertex
62
5
10
227.053378
20
144.155733
0
VERTEX
5
4b4
100
AcDbEntity
8
3
100
AcDbVertex
100
AcDb2dVertex
62
5
10
227.056147
20
143.494774
0
VERTEX
5
4b5
100
AcDbEntity
8
3
100
AcDbVertex
100
AcDb2dVertex
62
5
10
227.053378
20
143.420338
0
SEQEND
5
4b6
100
AcDbEntity
8
3
0
POLYLINE
5
4b7
100
AcDbEntity
8
3
6
CONTINUOUS
62
5
100
AcDb2dPolyline
66
1
10
0.0
20
0.0
30
0.0
70
0
0
VERTEX
5
4b8
100
AcDbEntity
8
3
100
AcDbVertex
100
AcDb2dVertex
62
5
10
225.812334
20
143.496980
0
VERTEX
5
4b9
100
AcDbEntity
8
3
100
AcDbVertex
100
AcDb2dVertex
62
5
10
226.050942
20
143.550857
0
VERTEX
5
4ba
100
AcDbEntity
8
3
100
AcDbVertex
100
AcDb2dVertex
62
5
10
227.053378
20
143.674251
0
VERTEX
5
4bb
100
AcDbEntity
8
3
100
AcDbVertex
100
AcDb2dVertex
62
5
10
227.300724
20
143.674251
0
SEQEND
5
4bc
100
AcDbEntity
8
3
0
ARC
5
4bd
100
AcDbEntity
8
3
100
AcDbCircle
6
CONTINUOUS
62
5
10
227.046749
20
143.674251
40
0.254000
100
AcDbArc
50
-88.499999
51
-0.000000
0
LINE
5
4be
100
AcDbEntity
8
3
100
AcDbLine
6
CONTINUOUS
62
5
10
227.300749
20
143.674251
11
227.300724
21
145.084509
0
POLYLINE
5
4bf
100
AcDbEntity
8
3
6
CONTINUOUS
62
5
100
AcDb2dPolyline
66
1
10
0.0
20
0.0
30
0.0
70
0
0
VERTEX
5
4c0
100
AcDbEntity
8
3
100
AcDbVertex
100
AcDb2dVertex
62
5
10
225.725060
20
143.385529
0
VERTEX
5
4c1
100
AcDbEntity
8
3
100
AcDbVertex
100
AcDb2dVertex
62
5
10
226.265394
20
143.399702
0
VERTEX
5
4c2
100
AcDbEntity
8
3
100
AcDbVertex
100
AcDb2dVertex
62
5
10
227.053398
20
143.420338
0
SEQEND
5
4c3
100
AcDbEntity
8
3
0
POLYLINE
5
4c4
100
AcDbEntity
8
3
6
CONTINUOUS
62
5
100
AcDb2dPolyline
66
1
10
0.0
20
0.0
30
0.0
70
0
0
VERTEX
5
4c5
100
AcDbEntity
8
3
100
AcDbVertex
100
AcDb2dVertex
62
5
10
225.564964
20
144.607167
0
VERTEX
5
4c6
100
AcDbEntity
8
3
100
AcDbVertex
100
AcDb2dVertex
62
5
10
225.564964
20
143.478747
0
VERTEX
5
4c7
100
AcDbEntity
8
3
100
AcDbVertex
100
AcDb2dVertex
62
5
10
225.565751
20
143.442907
0
VERTEX
5
4c8
100
AcDbEntity
8
3
100
AcDbVertex
100
AcDb2dVertex
62
5
10
225.565954
20
143.425483
0
VERTEX
5
4c9
100
AcDbEntity
8
3
100
AcDbVertex
100
AcDb2dVertex
62
5
10
225.566031
20
143.409887
0
VERTEX
5
4ca
100
AcDbEntity
8
3
100
AcDbVertex
100
AcDb2dVertex
62
5
10
225.565954
20
143.397264
0
VERTEX
5
4cb
100
AcDbEntity
8
3
100
AcDbVertex
100
AcDb2dVertex
62
5
10
225.565751
20
143.388196
0
VERTEX
5
4cc
100
AcDbEntity
8
3
100
AcDbVertex
100
AcDb2dVertex
62
5
10
225.564964
20
143.381338
0
SEQEND
5
4cd
100
AcDbEntity
8
3
0
POLYLINE
5
4ce
100
AcDbEntity
8
3
6
CONTINUOUS
62
5
100
AcDb2dPolyline
66
1
10
0.0
20
0.0
30
0.0
70
0
0
VERTEX
5
4cf
100
AcDbEntity
8
3
100
AcDbVertex
100
AcDb2dVertex
62
5
10
225.141724
20
143.370263
0
VERTEX
5
4d0
100
AcDbEntity
8
3
100
AcDbVertex
100
AcDb2dVertex
62
5
10
225.142155
20
143.372880
0
VERTEX
5
4d1
100
AcDbEntity
8
3
100
AcDbVertex
100
AcDb2dVertex
62
5
10
225.142282
20
143.386418
0
VERTEX
5
4d2
100
AcDbEntity
8
3
100
AcDbVertex
100
AcDb2dVertex
62
5
10
225.142282
20
143.410091
0
VERTEX
5
4d3
100
AcDbEntity
8
3
100
AcDbVertex
100
AcDb2dVertex
62
5
10
225.142232
20
143.441104
0
VERTEX
5
4d4
100
AcDbEntity
8
3
100
AcDbVertex
100
AcDb2dVertex
62
5
10
225.141724
20
143.476181
0
VERTEX
5
4d5
100
AcDbEntity
8
3
100
AcDbVertex
100
AcDb2dVertex
62
5
10
225.141724
20
144.607774
0
SEQEND
5
4d6
100
AcDbEntity
8
3
0
LINE
5
4d7
100
AcDbEntity
8
3
100
AcDbLine
6
CONTINUOUS
62
5
10
222.390370
20
144.611790
11
222.390802
21
145.225403
0
POLYLINE
5
4d8
100
AcDbEntity
8
3
6
CONTINUOUS
62
5
100
AcDb2dPolyline
66
1
10
0.0
20
0.0
30
0.0
70
0
0
VERTEX
5
4d9
100
AcDbEntity
8
3
100
AcDbVertex
100
AcDb2dVertex
62
5
10
227.275449
20
144.941066
0
VERTEX
5
4da
100
AcDbEntity
8
3
100
AcDbVertex
100
AcDb2dVertex
62
5
10
226.889396
20
145.011637
0
VERTEX
5
4db
100
AcDbEntity
8
3
100
AcDbVertex
100
AcDb2dVertex
62
5
10
223.561742
20
145.016488
0
SEQEND
5
4dc
100
AcDbEntity
8
3
0
POLYLINE
5
4dd
100
AcDbEntity
8
3
6
CONTINUOUS
62
5
100
AcDb2dPolyline
66
1
10
0.0
20
0.0
30
0.0
70
0
0
VERTEX
5
4de
100
AcDbEntity
8
3
100
AcDbVertex
100
AcDb2dVertex
62
5
10
221.296570
20
145.225403
0
VERTEX
5
4df
100
AcDbEntity
8
3
100
AcDbVertex
100
AcDb2dVertex
62
5
10
222.390802
20
145.225403
0
VERTEX
5
4e0
100
AcDbEntity
8
3
100
AcDbVertex
100
AcDb2dVertex
62
5
10
223.187371
20
145.224235
0
VERTEX
5
4e1
100
AcDbEntity
8
3
100
AcDbVertex
100
AcDb2dVertex
62
5
10
223.452471
20
145.177042
0
VERTEX
5
4e2
100
AcDbEntity
8
3
100
AcDbVertex
100
AcDb2dVertex
62
5
10
223.561742
20
145.066425
0
SEQEND
5
4e3
100
AcDbEntity
8
3
0
POLYLINE
5
4e4
100
AcDbEntity
8
3
6
CONTINUOUS
62
5
100
AcDb2dPolyline
66
1
10
0.0
20
0.0
30
0.0
70
0
0
VERTEX
5
4e5
100
AcDbEntity
8
3
100
AcDbVertex
100
AcDb2dVertex
62
5
10
223.559405
20
143.548241
0
VERTEX
5
4e6
100
AcDbEntity
8
3
100
AcDbVertex
100
AcDb2dVertex
62
5
10
223.559481
20
143.529013
0
VERTEX
5
4e7
100
AcDbEntity
8
3
100
AcDbVertex
100
AcDb2dVertex
62
5
10
223.562352
20
143.510370
0
VERTEX
5
4e8
100
AcDbEntity
8
3
100
AcDbVertex
100
AcDb2dVertex
62
5
10
223.568448
20
143.491066
0
VERTEX
5
4e9
100
AcDbEntity
8
3
100
AcDbVertex
100
AcDb2dVertex
62
5
10
223.577592
20
143.472829
0
VERTEX
5
4ea
100
AcDbEntity
8
3
100
AcDbVertex
100
AcDb2dVertex
62
5
10
223.589911
20
143.455785
0
VERTEX
5
4eb
100
AcDbEntity
8
3
100
AcDbVertex
100
AcDb2dVertex
62
5
10
223.604795
20
143.440926
0
VERTEX
5
4ec
100
AcDbEntity
8
3
100
AcDbVertex
100
AcDb2dVertex
62
5
10
223.640330
20
143.419158
0
VERTEX
5
4ed
100
AcDbEntity
8
3
100
AcDbVertex
100
AcDb2dVertex
62
5
10
223.690977
20
143.408262
0
VERTEX
5
4ee
100
AcDbEntity
8
3
100
AcDbVertex
100
AcDb2dVertex
62
5
10
223.698750
20
143.408059
0
VERTEX
5
4ef
100
AcDbEntity
8
3
100
AcDbVertex
100
AcDb2dVertex
62
5
10
223.721559
20
143.407474
0
VERTEX
5
4f0
100
AcDbEntity
8
3
100
AcDbVertex
100
AcDb2dVertex
62
5
10
223.738501
20
143.407017
0
VERTEX
5
4f1
100
AcDbEntity
8
3
100
AcDbVertex
100
AcDb2dVertex
62
5
10
223.757474
20
143.406509
0
VERTEX
5
4f2
100
AcDbEntity
8
3
100
AcDbVertex
100
AcDb2dVertex
62
5
10
223.778506
20
143.405976
0
VERTEX
5
4f3
100
AcDbEntity
8
3
100
AcDbVertex
100
AcDb2dVertex
62
5
10
223.801594
20
143.405366
0
VERTEX
5
4f4
100
AcDbEntity
8
3
100
AcDbVertex
100
AcDb2dVertex
62
5
10
224.552190
20
143.385707
0
VERTEX
5
4f5
100
AcDbEntity
8
3
100
AcDbVertex
100
AcDb2dVertex
62
5
10
225.141749
20
143.370263
0
VERTEX
5
4f6
100
AcDbEntity
8
3
100
AcDbVertex
100
AcDb2dVertex
62
5
10
225.378807
20
143.376486
0
VERTEX
5
4f7
100
AcDbEntity
8
3
100
AcDbVertex
100
AcDb2dVertex
62
5
10
225.564964
20
143.381338
0
VERTEX
5
4f8
100
AcDbEntity
8
3
100
AcDbVertex
100
AcDb2dVertex
62
5
10
225.725060
20
143.385529
0
VERTEX
5
4f9
100
AcDbEntity
8
3
100
AcDbVertex
100
AcDb2dVertex
62
5
10
225.757394
20
143.392488
0
VERTEX
5
4fa
100
AcDbEntity
8
3
100
AcDbVertex
100
AcDb2dVertex
62
5
10
225.773015
20
143.400947
0
VERTEX
5
4fb
100
AcDbEntity
8
3
100
AcDbVertex
100
AcDb2dVertex
62
5
10
225.786909
20
143.412605
0
VERTEX
5
4fc
100
AcDbEntity
8
3
100
AcDbVertex
100
AcDb2dVertex
62
5
10
225.798161
20
143.426778
0
VERTEX
5
4fd
100
AcDbEntity
8
3
100
AcDbVertex
100
AcDb2dVertex
62
5
10
225.806238
20
143.442603
0
VERTEX
5
4fe
100
AcDbEntity
8
3
100
AcDbVertex
100
AcDb2dVertex
62
5
10
225.812334
20
143.475115
0
VERTEX
5
4ff
100
AcDbEntity
8
3
100
AcDbVertex
100
AcDb2dVertex
62
5
10
225.812334
20
144.606793
0
SEQEND
5
500
100
AcDbEntity
8
3
0
POLYLINE
5
501
100
AcDbEntity
8
3
6
CONTINUOUS
62
5
100
AcDb2dPolyline
66
1
10
0.0
20
0.0
30
0.0
70
0
0
VERTEX
5
502
100
AcDbEntity
8
3
100
AcDbVertex
100
AcDb2dVertex
62
5
10
223.554224
20
144.610094
0
VERTEX
5
503
100
AcDbEntity
8
3
100
AcDbVertex
100
AcDb2dVertex
62
5
10
223.554224
20
143.548648
0
VERTEX
5
504
100
AcDbEntity
8
3
100
AcDbVertex
100
AcDb2dVertex
62
5
10
223.572943
20
143.545955
0
VERTEX
5
505
100
AcDbEntity
8
3
100
AcDbVertex
100
AcDb2dVertex
62
5
10
223.626309
20
143.543263
0
VERTEX
5
506
100
AcDbEntity
8
3
100
AcDbVertex
100
AcDb2dVertex
62
5
10
223.706446
20
143.540596
0
VERTEX
5
507
100
AcDbEntity
8
3
100
AcDbVertex
100
AcDb2dVertex
62
5
10
223.801594
20
143.537929
0
VERTEX
5
508
100
AcDbEntity
8
3
100
AcDbVertex
100
AcDb2dVertex
62
5
10
224.391382
20
143.515882
0
VERTEX
5
509
100
AcDbEntity
8
3
100
AcDbVertex
100
AcDb2dVertex
62
5
10
225.141724
20
143.476004
0
VERTEX
5
50a
100
AcDbEntity
8
3
100
AcDbVertex
100
AcDb2dVertex
62
5
10
225.328007
20
143.475724
0
VERTEX
5
50b
100
AcDbEntity
8
3
100
AcDbVertex
100
AcDb2dVertex
62
5
10
225.564964
20
143.478747
0
VERTEX
5
50c
100
AcDbEntity
8
3
100
AcDbVertex
100
AcDb2dVertex
62
5
10
225.740275
20
143.476943
0
VERTEX
5
50d
100
AcDbEntity
8
3
100
AcDbVertex
100
AcDb2dVertex
62
5
10
225.793615
20
143.476029
0
VERTEX
5
50e
100
AcDbEntity
8
3
100
AcDbVertex
100
AcDb2dVertex
62
5
10
225.807229
20
143.475369
0
VERTEX
5
50f
100
AcDbEntity
8
3
100
AcDbVertex
100
AcDb2dVertex
62
5
10
225.812334
20
143.475115
0
SEQEND
5
510
100
AcDbEntity
8
3
0
POLYLINE
5
511
100
AcDbEntity
8
3
6
CONTINUOUS
62
5
100
AcDb2dPolyline
66
1
10
0.0
20
0.0
30
0.0
70
0
0
VERTEX
5
512
100
AcDbEntity
8
3
100
AcDbVertex
100
AcDb2dVertex
62
5
10
225.812334
20
144.606837
0
VERTEX
5
513
100
AcDbEntity
8
3
100
AcDbVertex
100
AcDb2dVertex
62
5
10
223.801594
20
144.609809
0
VERTEX
5
514
100
AcDbEntity
8
3
100
AcDbVertex
100
AcDb2dVertex
62
5
10
223.801594
20
143.537929
0
VERTEX
5
515
100
AcDbEntity
8
3
100
AcDbVertex
100
AcDb2dVertex
62
5
10
223.800553
20
143.489135
0
VERTEX
5
516
100
AcDbEntity
8
3
100
AcDbVertex
100
AcDb2dVertex
62
5
10
223.800248
20
143.465412
0
VERTEX
5
517
100
AcDbEntity
8
3
100
AcDbVertex
100
AcDb2dVertex
62
5
10
223.800146
20
143.444228
0
VERTEX
5
518
100
AcDbEntity
8
3
100
AcDbVertex
100
AcDb2dVertex
62
5
10
223.800248
20
143.427007
0
VERTEX
5
519
100
AcDbEntity
8
3
100
AcDbVertex
100
AcDb2dVertex
62
5
10
223.800553
20
143.414688
0
VERTEX
5
51a
100
AcDbEntity
8
3
100
AcDbVertex
100
AcDb2dVertex
62
5
10
223.801594
20
143.405366
0
SEQEND
5
51b
100
AcDbEntity
8
3
0
LINE
5
51c
100
AcDbEntity
8
3
100
AcDbLine
6
CONTINUOUS
62
5
10
217.969729
20
142.822639
11
217.639529
21
142.805342
0
LINE
5
51d
100
AcDbEntity
8
3
100
AcDbLine
6
CONTINUOUS
62
5
10
217.639529
20
143.449661
11
217.639529
21
142.805342
0
LINE
5
51e
100
AcDbEntity
8
3
100
AcDbLine
6
CONTINUOUS
62
5
10
217.969729
20
143.468036
11
217.969729
21
142.822639
0
LINE
5
51f
100
AcDbEntity
8
1
100
AcDbLine
6
CONTINUOUS
62
5
10
211.300318
20
142.596708
11
211.298079
21
142.596708
0
LINE
5
520
100
AcDbEntity
8
1
100
AcDbLine
6
CONTINUOUS
62
5
10
211.334080
20
142.758283
11
211.336320
21
142.758283
0
LINE
5
521
100
AcDbEntity
8
1
100
AcDbLine
6
CONTINUOUS
62
5
10
211.336320
20
142.768790
11
211.334080
21
142.768790
0
LINE
5
522
100
AcDbEntity
8
1
100
AcDbLine
6
CONTINUOUS
62
5
10
211.447941
20
143.038197
11
211.445701
21
143.038197
0
POLYLINE
5
523
100
AcDbEntity
8
1
6
CONTINUOUS
62
5
100
AcDb2dPolyline
66
1
10
0.0
20
0.0
30
0.0
70
0
0
VERTEX
5
524
100
AcDbEntity
8
1
100
AcDbVertex
100
AcDb2dVertex
62
5
10
211.717175
20
143.149818
0
VERTEX
5
525
100
AcDbEntity
8
1
100
AcDbVertex
100
AcDb2dVertex
62
5
10
211.447941
20
143.038197
0
VERTEX
5
526
100
AcDbEntity
8
1
100
AcDbVertex
100
AcDb2dVertex
62
5
10
211.336320
20
142.768790
0
VERTEX
5
527
100
AcDbEntity
8
1
100
AcDbVertex
100
AcDb2dVertex
62
5
10
211.336320
20
142.758283
0
VERTEX
5
528
100
AcDbEntity
8
1
100
AcDbVertex
100
AcDb2dVertex
62
5
10
211.300318
20
142.596708
0
VERTEX
5
529
100
AcDbEntity
8
1
100
AcDbVertex
100
AcDb2dVertex
62
5
10
211.199205
20
142.465622
0
SEQEND
5
52a
100
AcDbEntity
8
1
0
LINE
5
52b
100
AcDbEntity
8
3
100
AcDbLine
6
CONTINUOUS
62
5
10
211.975329
20
143.149818
11
211.975329
21
142.508492
0
LINE
5
52c
100
AcDbEntity
8
3
100
AcDbLine
6
CONTINUOUS
62
5
10
212.305529
20
143.152820
11
212.305529
21
142.525790
0
POLYLINE
5
52d
100
AcDbEntity
8
3
6
CONTINUOUS
62
5
100
AcDb2dPolyline
66
1
10
0.0
20
0.0
30
0.0
70
0
0
VERTEX
5
52e
100
AcDbEntity
8
3
100
AcDbVertex
100
AcDb2dVertex
62
5
10
211.378403
20
142.493938
0
VERTEX
5
52f
100
AcDbEntity
8
3
100
AcDbVertex
100
AcDb2dVertex
62
5
10
211.856609
20
142.502269
0
VERTEX
5
530
100
AcDbEntity
8
3
100
AcDbVertex
100
AcDb2dVertex
62
5
10
219.124667
20
142.883168
0
VERTEX
5
531
100
AcDbEntity
8
3
100
AcDbVertex
100
AcDb2dVertex
62
5
10
223.328697
20
142.956548
0
VERTEX
5
532
100
AcDbEntity
8
3
100
AcDbVertex
100
AcDb2dVertex
62
5
10
223.328697
20
143.896882
0
VERTEX
5
533
100
AcDbEntity
8
3
100
AcDbVertex
100
AcDb2dVertex
62
5
10
222.091542
20
144.611177
0
SEQEND
5
534
100
AcDbEntity
8
3
0
POLYLINE
5
535
100
AcDbEntity
8
3
6
CONTINUOUS
62
5
100
AcDb2dPolyline
66
1
10
0.0
20
0.0
30
0.0
70
0
0
VERTEX
5
536
100
AcDbEntity
8
3
100
AcDbVertex
100
AcDb2dVertex
62
5
10
227.900341
20
148.485061
0
VERTEX
5
537
100
AcDbEntity
8
3
100
AcDbVertex
100
AcDb2dVertex
62
5
10
227.786295
20
148.495907
0
VERTEX
5
538
100
AcDbEntity
8
3
100
AcDbVertex
100
AcDb2dVertex
62
5
10
227.508140
20
148.520621
0
SEQEND
5
539
100
AcDbEntity
8
3
0
POLYLINE
5
53a
100
AcDbEntity
8
3
6
CONTINUOUS
62
5
100
AcDb2dPolyline
66
1
10
0.0
20
0.0
30
0.0
70
0
0
VERTEX
5
53b
100
AcDbEntity
8
3
100
AcDbVertex
100
AcDb2dVertex
62
5
10
226.874639
20
144.605237
0
VERTEX
5
53c
100
AcDbEntity
8
3
100
AcDbVertex
100
AcDb2dVertex
62
5
10
226.884824
20
144.724261
0
VERTEX
5
53d
100
AcDbEntity
8
3
100
AcDbVertex
100
AcDb2dVertex
62
5
10
226.889396
20
145.011637
0
VERTEX
5
53e
100
AcDbEntity
8
3
100
AcDbVertex
100
AcDb2dVertex
62
5
10
227.508140
20
148.520621
0
VERTEX
5
53f
100
AcDbEntity
8
3
100
AcDbVertex
100
AcDb2dVertex
62
5
10
227.508140
20
152.914212
0
VERTEX
5
540
100
AcDbEntity
8
3
100
AcDbVertex
100
AcDb2dVertex
62
5
10
226.618200
20
157.961243
0
VERTEX
5
541
100
AcDbEntity
8
3
100
AcDbVertex
100
AcDb2dVertex
62
5
10
225.986451
20
158.592991
0
VERTEX
5
542
100
AcDbEntity
8
3
100
AcDbVertex
100
AcDb2dVertex
62
5
10
224.704742
20
158.592991
0
SEQEND
5
543
100
AcDbEntity
8
3
0
ARC
5
544
100
AcDbEntity
8
3
100
AcDbCircle
6
CONTINUOUS
62
5
10
226.875222
20
145.011638
40
0.406401
100
AcDbArc
50
-90.082211
51
-10.000052
0
LINE
5
545
100
AcDbEntity
8
3
100
AcDbLine
6
CONTINUOUS
62
5
10
226.874639
20
144.605237
11
223.561742
21
144.610088
0
POLYLINE
5
546
100
AcDbEntity
8
3
6
CONTINUOUS
62
5
100
AcDb2dPolyline
66
1
10
0.0
20
0.0
30
0.0
70
0
0
VERTEX
5
547
100
AcDbEntity
8
3
100
AcDbVertex
100
AcDb2dVertex
62
5
10
226.140604
20
158.999391
0
VERTEX
5
548
100
AcDbEntity
8
3
100
AcDbVertex
100
AcDb2dVertex
62
5
10
226.982004
20
158.157966
0
VERTEX
5
549
100
AcDbEntity
8
3
100
AcDbVertex
100
AcDb2dVertex
62
5
10
227.900341
20
152.949772
0
VERTEX
5
54a
100
AcDbEntity
8
3
100
AcDbVertex
100
AcDb2dVertex
62
5
10
227.900341
20
148.485061
0
VERTEX
5
54b
100
AcDbEntity
8
3
100
AcDbVertex
100
AcDb2dVertex
62
5
10
227.275449
20
144.941066
0
SEQEND
5
54c
100
AcDbEntity
8
3
0
LINE
5
54d
100
AcDbEntity
8
3
100
AcDbLine
6
CONTINUOUS
62
5
10
223.561742
20
144.610088
11
223.561742
21
156.943642
0
LINE
5
54e
100
AcDbEntity
8
3
100
AcDbLine
6
CONTINUOUS
62
5
10
223.187371
20
156.943642
11
223.185822
21
144.610622
0
POLYLINE
5
54f
100
AcDbEntity
8
3
6
CONTINUOUS
62
5
100
AcDb2dPolyline
66
1
10
0.0
20
0.0
30
0.0
70
0
0
VERTEX
5
550
100
AcDbEntity
8
3
100
AcDbVertex
100
AcDb2dVertex
62
5
10
223.836697
20
157.557383
0
VERTEX
5
551
100
AcDbEntity
8
3
100
AcDbVertex
100
AcDb2dVertex
62
5
10
223.524836
20
157.557383
0
VERTEX
5
552
100
AcDbEntity
8
3
100
AcDbVertex
100
AcDb2dVertex
62
5
10
218.096729
20
152.129276
0
VERTEX
5
553
100
AcDbEntity
8
3
100
AcDbVertex
100
AcDb2dVertex
62
5
10
218.096729
20
149.506370
0
VERTEX
5
554
100
AcDbEntity
8
3
100
AcDbVertex
100
AcDb2dVertex
62
5
10
221.296697
20
146.306376
0
VERTEX
5
555
100
AcDbEntity
8
3
100
AcDbVertex
100
AcDb2dVertex
62
5
10
221.296697
20
144.611765
0
VERTEX
5
556
100
AcDbEntity
8
3
100
AcDbVertex
100
AcDb2dVertex
62
5
10
223.561742
20
144.610088
0
SEQEND
5
557
100
AcDbEntity
8
3
0
POLYLINE
5
558
100
AcDbEntity
8
1
6
CONTINUOUS
62
5
100
AcDb2dPolyline
66
1
10
0.0
20
0.0
30
0.0
70
0
0
VERTEX
5
559
100
AcDbEntity
8
1
100
AcDbVertex
100
AcDb2dVertex
62
5
10
212.098375
20
143.149818
0
VERTEX
5
55a
100
AcDbEntity
8
1
100
AcDbVertex
100
AcDb2dVertex
62
5
10
212.098375
20
158.043827
0
VERTEX
5
55b
100
AcDbEntity
8
1
100
AcDbVertex
100
AcDb2dVertex
62
5
10
212.100614
20
158.133744
0
VERTEX
5
55c
100
AcDbEntity
8
1
100
AcDbVertex
100
AcDb2dVertex
62
5
10
212.182607
20
158.297386
0
VERTEX
5
55d
100
AcDbEntity
8
1
100
AcDbVertex
100
AcDb2dVertex
62
5
10
212.353484
20
158.363532
0
SEQEND
5
55e
100
AcDbEntity
8
1
0
LINE
5
55f
100
AcDbEntity
8
1
100
AcDbLine
6
CONTINUOUS
62
5
10
212.353484
20
158.363532
11
212.353484
21
143.155502
0
POLYLINE
5
560
100
AcDbEntity
8
1
6
CONTINUOUS
62
5
100
AcDb2dPolyline
66
1
10
0.0
20
0.0
30
0.0
70
0
0
VERTEX
5
561
100
AcDbEntity
8
1
100
AcDbVertex
100
AcDb2dVertex
62
5
10
219.845705
20
158.273615
0
VERTEX
5
562
100
AcDbEntity
8
1
100
AcDbVertex
100
AcDb2dVertex
62
5
10
212.353484
20
158.273615
0
VERTEX
5
563
100
AcDbEntity
8
1
100
AcDbVertex
100
AcDb2dVertex
62
5
10
212.268046
20
158.207469
0
VERTEX
5
564
100
AcDbEntity
8
1
100
AcDbVertex
100
AcDb2dVertex
62
5
10
212.227049
20
158.043827
0
VERTEX
5
565
100
AcDbEntity
8
1
100
AcDbVertex
100
AcDb2dVertex
62
5
10
212.227049
20
143.149818
0
SEQEND
5
566
100
AcDbEntity
8
1
0
LINE
5
567
100
AcDbEntity
8
3
100
AcDbLine
6
CONTINUOUS
62
5
10
205.555123
20
158.999391
11
205.555123
21
157.511215
0
POLYLINE
5
568
100
AcDbEntity
8
3
6
CONTINUOUS
62
5
100
AcDb2dPolyline
66
1
10
0.0
20
0.0
30
0.0
70
0
0
VERTEX
5
569
100
AcDbEntity
8
3
100
AcDbVertex
100
AcDb2dVertex
62
5
10
205.555123
20
140.715074
0
VERTEX
5
56a
100
AcDbEntity
8
3
100
AcDbVertex
100
AcDb2dVertex
62
5
10
205.554539
20
140.722161
0
VERTEX
5
56b
100
AcDbEntity
8
3
100
AcDbVertex
100
AcDb2dVertex
62
5
10
205.553015
20
140.742710
0
VERTEX
5
56c
100
AcDbEntity
8
3
100
AcDbVertex
100
AcDb2dVertex
62
5
10
205.550932
20
140.774383
0
VERTEX
5
56d
100
AcDbEntity
8
3
100
AcDbVertex
100
AcDb2dVertex
62
5
10
205.549434
20
140.813830
0
VERTEX
5
56e
100
AcDbEntity
8
3
100
AcDbVertex
100
AcDb2dVertex
62
5
10
205.550196
20
140.829044
0
VERTEX
5
56f
100
AcDbEntity
8
3
100
AcDbVertex
100
AcDb2dVertex
62
5
10
205.552304
20
140.838163
0
VERTEX
5
570
100
AcDbEntity
8
3
100
AcDbVertex
100
AcDb2dVertex
62
5
10
205.554387
20
140.842049
0
VERTEX
5
571
100
AcDbEntity
8
3
100
AcDbVertex
100
AcDb2dVertex
62
5
10
205.555123
20
140.844005
0
VERTEX
5
572
100
AcDbEntity
8
3
100
AcDbVertex
100
AcDb2dVertex
62
5
10
205.555123
20
142.465622
0
SEQEND
5
573
100
AcDbEntity
8
3
0
LINE
5
574
100
AcDbEntity
8
3
100
AcDbLine
6
CONTINUOUS
62
5
10
202.424276
20
140.896690
11
205.554387
21
140.842049
0
POLYLINE
5
575
100
AcDbEntity
8
3
6
CONTINUOUS
62
5
100
AcDb2dPolyline
66
1
10
0.0
20
0.0
30
0.0
70
0
0
VERTEX
5
576
100
AcDbEntity
8
3
100
AcDbVertex
100
AcDb2dVertex
62
5
10
197.224276
20
158.700000
0
VERTEX
5
577
100
AcDbEntity
8
3
100
AcDbVertex
100
AcDb2dVertex
62
5
10
197.224276
20
158.200000
0
VERTEX
5
578
100
AcDbEntity
8
3
100
AcDbVertex
100
AcDb2dVertex
62
5
10
197.574276
20
158.200000
0
SEQEND
5
579
100
AcDbEntity
8
3
0
LINE
5
57a
100
AcDbEntity
8
3
100
AcDbLine
6
CONTINUOUS
62
5
10
197.074276
20
158.050000
11
197.074276
21
157.700000
0
ARC
5
57b
100
AcDbEntity
8
3
100
AcDbCircle
6
CONTINUOUS
62
5
10
197.524276
20
155.100000
40
0.500000
100
AcDbArc
50
-89.999999
51
0.000000
0
LINE
5
57c
100
AcDbEntity
8
3
100
AcDbLine
6
CONTINUOUS
62
5
10
197.524276
20
154.600000
11
197.224276
21
154.600000
0
LINE
5
57d
100
AcDbEntity
8
3
100
AcDbLine
6
CONTINUOUS
62
5
10
198.024276
20
155.300000
11
198.024276
21
155.100000
0
ARC
5
57e
100
AcDbEntity
8
3
100
AcDbCircle
6
CONTINUOUS
62
5
10
197.724276
20
154.800000
40
0.500000
100
AcDbArc
50
89.999999
51
-179.999998
0
LINE
5
57f
100
AcDbEntity
8
3
100
AcDbLine
6
CONTINUOUS
62
5
10
197.969731
20
158.200000
11
197.969731
21
155.300000
0
LINE
5
580
100
AcDbEntity
8
3
100
AcDbLine
6
CONTINUOUS
62
5
10
197.874276
20
157.700000
11
197.874276
21
155.800000
0
LINE
5
581
100
AcDbEntity
8
3
100
AcDbLine
6
CONTINUOUS
62
5
10
197.074276
20
155.800000
11
197.074276
21
155.450000
0
ARC
5
582
100
AcDbEntity
8
3
100
AcDbCircle
6
CONTINUOUS
62
5
10
197.574276
20
155.800000
40
0.500000
100
AcDbArc
50
-179.999998
51
-89.999999
0
LINE
5
583
100
AcDbEntity
8
3
100
AcDbLine
6
CONTINUOUS
62
5
10
197.074276
20
155.800000
11
197.074276
21
157.700000
0
ARC
5
584
100
AcDbEntity
8
3
100
AcDbCircle
6
CONTINUOUS
62
5
10
197.574276
20
157.700000
40
0.500000
100
AcDbArc
50
89.999999
51
179.999998
0
POLYLINE
5
585
100
AcDbEntity
8
3
6
CONTINUOUS
62
5
100
AcDb2dPolyline
66
1
10
0.0
20
0.0
30
0.0
70
0
0
VERTEX
5
586
100
AcDbEntity
8
3
100
AcDbVertex
100
AcDb2dVertex
62
5
10
197.574276
20
158.200000
0
VERTEX
5
587
100
AcDbEntity
8
3
100
AcDbVertex
100
AcDb2dVertex
62
5
10
198.424276
20
158.200000
0
VERTEX
5
588
100
AcDbEntity
8
3
100
AcDbVertex
100
AcDb2dVertex
62
5
10
198.424276
20
155.300000
0
VERTEX
5
589
100
AcDbEntity
8
3
100
AcDbVertex
100
AcDb2dVertex
62
5
10
197.574276
20
155.300000
0
SEQEND
5
58a
100
AcDbEntity
8
3
0
ARC
5
58b
100
AcDbEntity
8
3
100
AcDbCircle
6
CONTINUOUS
62
5
10
197.724276
20
145.200000
40
0.500000
100
AcDbArc
50
-179.999998
51
-89.999999
0
ARC
5
58c
100
AcDbEntity
8
3
100
AcDbCircle
6
CONTINUOUS
62
5
10
197.524276
20
144.900000
40
0.500000
100
AcDbArc
50
-0.000000
51
89.999999
0
LINE
5
58d
100
AcDbEntity
8
3
100
AcDbLine
6
CONTINUOUS
62
5
10
198.024276
20
144.900000
11
198.024276
21
144.700000
0
LINE
5
58e
100
AcDbEntity
8
3
100
AcDbLine
6
CONTINUOUS
62
5
10
197.074276
20
144.550000
11
197.074276
21
144.200000
0
LINE
5
58f
100
AcDbEntity
8
3
100
AcDbLine
6
CONTINUOUS
62
5
10
198.024276
20
141.800000
11
198.024276
21
139.300000
0
ARC
5
590
100
AcDbEntity
8
3
100
AcDbCircle
6
CONTINUOUS
62
5
10
197.724276
20
141.300000
40
0.500000
100
AcDbArc
50
89.999999
51
-179.999998
0
LINE
5
591
100
AcDbEntity
8
3
100
AcDbLine
6
CONTINUOUS
62
5
10
197.074276
20
141.950000
11
197.074276
21
142.300000
0
LINE
5
592
100
AcDbEntity
8
3
100
AcDbLine
6
CONTINUOUS
62
5
10
197.969731
20
144.700000
11
197.969731
21
141.800000
0
LINE
5
593
100
AcDbEntity
8
3
100
AcDbLine
6
CONTINUOUS
62
5
10
197.874276
20
142.300000
11
197.874276
21
144.200000
0
ARC
5
594
100
AcDbEntity
8
3
100
AcDbCircle
6
CONTINUOUS
62
5
10
197.574276
20
142.300000
40
0.500000
100
AcDbArc
50
179.999998
51
-89.999999
0
LINE
5
595
100
AcDbEntity
8
3
100
AcDbLine
6
CONTINUOUS
62
5
10
197.074276
20
142.300000
11
197.074276
21
144.200000
0
ARC
5
596
100
AcDbEntity
8
3
100
AcDbCircle
6
CONTINUOUS
62
5
10
197.574276
20
144.200000
40
0.500000
100
AcDbArc
50
89.999999
51
179.999998
0
POLYLINE
5
597
100
AcDbEntity
8
3
6
CONTINUOUS
62
5
100
AcDb2dPolyline
66
1
10
0.0
20
0.0
30
0.0
70
0
0
VERTEX
5
598
100
AcDbEntity
8
3
100
AcDbVertex
100
AcDb2dVertex
62
5
10
197.574276
20
144.700000
0
VERTEX
5
599
100
AcDbEntity
8
3
100
AcDbVertex
100
AcDb2dVertex
62
5
10
198.424276
20
144.700000
0
VERTEX
5
59a
100
AcDbEntity
8
3
100
AcDbVertex
100
AcDb2dVertex
62
5
10
198.424276
20
141.800000
0
VERTEX
5
59b
100
AcDbEntity
8
3
100
AcDbVertex
100
AcDb2dVertex
62
5
10
197.574276
20
141.800000
0
SEQEND
5
59c
100
AcDbEntity
8
3
0
POLYLINE
5
59d
100
AcDbEntity
8
3
6
CONTINUOUS
62
5
100
AcDb2dPolyline
66
1
10
0.0
20
0.0
30
0.0
70
0
0
VERTEX
5
59e
100
AcDbEntity
8
3
100
AcDbVertex
100
AcDb2dVertex
62
5
10
197.574276
20
144.700000
0
VERTEX
5
59f
100
AcDbEntity
8
3
100
AcDbVertex
100
AcDb2dVertex
62
5
10
197.224276
20
144.700000
0
VERTEX
5
5a0
100
AcDbEntity
8
3
100
AcDbVertex
100
AcDb2dVertex
62
5
10
197.224276
20
155.300000
0
VERTEX
5
5a1
100
AcDbEntity
8
3
100
AcDbVertex
100
AcDb2dVertex
62
5
10
197.574276
20
155.300000
0
SEQEND
5
5a2
100
AcDbEntity
8
3
0
LINE
5
5a3
100
AcDbEntity
8
3
100
AcDbLine
6
CONTINUOUS
62
5
10
195.824276
20
153.652941
11
195.824276
21
146.347059
0
POLYLINE
5
5a4
100
AcDbEntity
8
3
6
CONTINUOUS
62
5
100
AcDb2dPolyline
66
1
10
0.0
20
0.0
30
0.0
70
0
0
VERTEX
5
5a5
100
AcDbEntity
8
3
100
AcDbVertex
100
AcDb2dVertex
62
5
10
197.224276
20
146.326470
0
VERTEX
5
5a6
100
AcDbEntity
8
3
100
AcDbVertex
100
AcDb2dVertex
62
5
10
195.624276
20
146.350000
0
VERTEX
5
5a7
100
AcDbEntity
8
3
100
AcDbVertex
100
AcDb2dVertex
62
5
10
195.624276
20
153.650000
0
VERTEX
5
5a8
100
AcDbEntity
8
3
100
AcDbVertex
100
AcDb2dVertex
62
5
10
197.224276
20
153.673529
0
SEQEND
5
5a9
100
AcDbEntity
8
3
0
ARC
5
5aa
100
AcDbEntity
8
3
100
AcDbCircle
6
CONTINUOUS
62
5
10
194.224276
20
155.000000
40
0.500000
100
AcDbArc
50
89.999999
51
179.999998
0
LINE
5
5ab
100
AcDbEntity
8
3
100
AcDbLine
6
CONTINUOUS
62
5
10
193.724276
20
155.000000
11
193.724276
21
145.000000
0
ARC
5
5ac
100
AcDbEntity
8
3
100
AcDbCircle
6
CONTINUOUS
62
5
10
194.224276
20
145.000000
40
0.500000
100
AcDbArc
50
-179.999998
51
-89.999999
0
LINE
5
5ad
100
AcDbEntity
8
3
100
AcDbLine
6
CONTINUOUS
62
5
10
194.224276
20
144.500000
11
197.074276
21
144.500000
0
LINE
5
5ae
100
AcDbEntity
8
3
100
AcDbLine
6
CONTINUOUS
62
5
10
197.074276
20
155.500000
11
194.224276
21
155.500000
0
LINE
5
5af
100
AcDbEntity
8
3
100
AcDbLine
6
CONTINUOUS
62
5
10
197.524276
20
154.600000
11
202.424276
21
154.600000
0
LINE
5
5b0
100
AcDbEntity
8
3
100
AcDbLine
6
CONTINUOUS
62
5
10
202.424276
20
145.400000
11
197.224276
21
145.400000
0
POLYLINE
5
5b1
100
AcDbEntity
8
3
6
CONTINUOUS
62
5
100
AcDb2dPolyline
66
1
10
0.0
20
0.0
30
0.0
70
0
0
VERTEX
5
5b2
100
AcDbEntity
8
3
100
AcDbVertex
100
AcDb2dVertex
62
5
10
197.574276
20
141.800000
0
VERTEX
5
5b3
100
AcDbEntity
8
3
100
AcDbVertex
100
AcDb2dVertex
62
5
10
197.224276
20
141.800000
0
VERTEX
5
5b4
100
AcDbEntity
8
3
100
AcDbVertex
100
AcDb2dVertex
62
5
10
197.224276
20
139.300000
0
VERTEX
5
5b5
100
AcDbEntity
8
3
100
AcDbVertex
100
AcDb2dVertex
62
5
10
202.424276
20
139.300000
0
SEQEND
5
5b6
100
AcDbEntity
8
3
0
POLYLINE
5
5b7
100
AcDbEntity
8
1
6
CONTINUOUS
62
5
100
AcDb2dPolyline
66
1
10
0.0
20
0.0
30
0.0
70
0
0
VERTEX
5
5b8
100
AcDbEntity
8
1
100
AcDbVertex
100
AcDb2dVertex
62
5
10
208.562156
20
158.105494
0
VERTEX
5
5b9
100
AcDbEntity
8
1
100
AcDbVertex
100
AcDb2dVertex
62
5
10
212.098375
20
158.043827
0
VERTEX
5
5ba
100
AcDbEntity
8
1
100
AcDbVertex
100
AcDb2dVertex
62
5
10
212.227049
20
158.043827
0
SEQEND
5
5bb
100
AcDbEntity
8
1
0
POLYLINE
5
5bc
100
AcDbEntity
8
1
6
CONTINUOUS
62
5
100
AcDb2dPolyline
66
1
10
0.0
20
0.0
30
0.0
70
0
0
VERTEX
5
5bd
100
AcDbEntity
8
1
100
AcDbVertex
100
AcDb2dVertex
62
5
10
212.227049
20
158.043827
0
VERTEX
5
5be
100
AcDbEntity
8
1
100
AcDbVertex
100
AcDb2dVertex
62
5
10
212.187086
20
158.105150
0
VERTEX
5
5bf
100
AcDbEntity
8
1
100
AcDbVertex
100
AcDb2dVertex
62
5
10
212.100614
20
158.133744
0
VERTEX
5
5c0
100
AcDbEntity
8
1
100
AcDbVertex
100
AcDb2dVertex
62
5
10
208.562156
20
158.195411
0
VERTEX
5
5c1
100
AcDbEntity
8
1
100
AcDbVertex
100
AcDb2dVertex
62
5
10
208.562156
20
157.511215
0
VERTEX
5
5c2
100
AcDbEntity
8
1
100
AcDbVertex
100
AcDb2dVertex
62
5
10
202.424276
20
157.511215
0
SEQEND
5
5c3
100
AcDbEntity
8
1
0
POLYLINE
5
5c4
100
AcDbEntity
8
3
6
CONTINUOUS
62
5
100
AcDb2dPolyline
66
1
10
0.0
20
0.0
30
0.0
70
0
0
VERTEX
5
5c5
100
AcDbEntity
8
3
100
AcDbVertex
100
AcDb2dVertex
62
5
10
202.424276
20
158.999391
0
VERTEX
5
5c6
100
AcDbEntity
8
3
100
AcDbVertex
100
AcDb2dVertex
62
5
10
205.555123
20
158.999391
0
VERTEX
5
5c7
100
AcDbEntity
8
3
100
AcDbVertex
100
AcDb2dVertex
62
5
10
211.378403
20
158.604675
0
SEQEND
5
5c8
100
AcDbEntity
8
3
0
LINE
5
5c9
100
AcDbEntity
8
3
100
AcDbLine
6
CONTINUOUS
62
5
10
205.555123
20
140.844005
11
211.378403
21
141.870825
0
POLYLINE
5
5ca
100
AcDbEntity
8
3
6
CONTINUOUS
62
5
100
AcDb2dPolyline
66
1
10
0.0
20
0.0
30
0.0
70
0
0
VERTEX
5
5cb
100
AcDbEntity
8
3
100
AcDbVertex
100
AcDb2dVertex
62
5
10
211.378403
20
142.870362
0
VERTEX
5
5cc
100
AcDbEntity
8
3
100
AcDbVertex
100
AcDb2dVertex
62
5
10
211.378403
20
141.741869
0
VERTEX
5
5cd
100
AcDbEntity
8
3
100
AcDbVertex
100
AcDb2dVertex
62
5
10
205.555123
20
140.715074
0
VERTEX
5
5ce
100
AcDbEntity
8
3
100
AcDbVertex
100
AcDb2dVertex
62
5
10
202.424276
20
140.769717
0
SEQEND
5
5cf
100
AcDbEntity
8
3
0
POLYLINE
5
5d0
100
AcDbEntity
8
3
6
CONTINUOUS
62
5
100
AcDb2dPolyline
66
1
10
0.0
20
0.0
30
0.0
70
0
0
VERTEX
5
5d1
100
AcDbEntity
8
3
100
AcDbVertex
100
AcDb2dVertex
62
5
10
212.353484
20
158.363532
0
VERTEX
5
5d2
100
AcDbEntity
8
3
100
AcDbVertex
100
AcDb2dVertex
62
5
10
219.845705
20
158.363532
0
VERTEX
5
5d3
100
AcDbEntity
8
3
100
AcDbVertex
100
AcDb2dVertex
62
5
10
219.845705
20
154.351718
0
VERTEX
5
5d4
100
AcDbEntity
8
3
100
AcDbVertex
100
AcDb2dVertex
62
5
10
217.827224
20
152.333237
0
VERTEX
5
5d5
100
AcDbEntity
8
3
100
AcDbVertex
100
AcDb2dVertex
62
5
10
217.827224
20
149.078999
0
VERTEX
5
5d6
100
AcDbEntity
8
3
100
AcDbVertex
100
AcDb2dVertex
62
5
10
219.845705
20
147.060518
0
VERTEX
5
5d7
100
AcDbEntity
8
3
100
AcDbVertex
100
AcDb2dVertex
62
5
10
219.845705
20
143.558234
0
VERTEX
5
5d8
100
AcDbEntity
8
3
100
AcDbVertex
100
AcDb2dVertex
62
5
10
219.590596
20
143.558234
0
VERTEX
5
5d9
100
AcDbEntity
8
3
100
AcDbVertex
100
AcDb2dVertex
62
5
10
212.251854
20
143.149818
0
VERTEX
5
5da
100
AcDbEntity
8
3
100
AcDbVertex
100
AcDb2dVertex
62
5
10
211.715108
20
143.149818
0
VERTEX
5
5db
100
AcDbEntity
8
3
100
AcDbVertex
100
AcDb2dVertex
62
5
10
211.445701
20
143.038197
0
VERTEX
5
5dc
100
AcDbEntity
8
3
100
AcDbVertex
100
AcDb2dVertex
62
5
10
211.334080
20
142.768790
0
VERTEX
5
5dd
100
AcDbEntity
8
3
100
AcDbVertex
100
AcDb2dVertex
62
5
10
211.334080
20
142.758283
0
VERTEX
5
5de
100
AcDbEntity
8
3
100
AcDbVertex
100
AcDb2dVertex
62
5
10
211.298079
20
142.596708
0
VERTEX
5
5df
100
AcDbEntity
8
3
100
AcDbVertex
100
AcDb2dVertex
62
5
10
211.196966
20
142.465622
0
VERTEX
5
5e0
100
AcDbEntity
8
3
100
AcDbVertex
100
AcDb2dVertex
62
5
10
202.424276
20
142.465622
0
SEQEND
5
5e1
100
AcDbEntity
8
3
0
ARC
5
5e2
100
AcDbEntity
8
3
100
AcDbCircle
6
CONTINUOUS
62
5
10
209.788490
20
140.950004
40
1.000004
100
AcDbArc
50
-134.999890
51
-90.000065
0
LINE
5
5e3
100
AcDbEntity
8
3
100
AcDbLine
6
CONTINUOUS
62
5
10
209.788489
20
139.950000
11
211.074276
21
139.950000
0
ARC
5
5e4
100
AcDbEntity
8
3
100
AcDbCircle
6
CONTINUOUS
62
5
10
211.074276
20
139.450000
40
0.500000
100
AcDbArc
50
-0.000000
51
89.999999
0
LINE
5
5e5
100
AcDbEntity
8
3
100
AcDbLine
6
CONTINUOUS
62
5
10
211.574276
20
139.450000
11
211.574276
21
139.100000
0
ARC
5
5e6
100
AcDbEntity
8
3
100
AcDbCircle
6
CONTINUOUS
62
5
10
211.074276
20
139.100000
40
0.500000
100
AcDbArc
50
-89.999999
51
0.000000
0
LINE
5
5e7
100
AcDbEntity
8
3
100
AcDbLine
6
CONTINUOUS
62
5
10
211.074276
20
138.600000
11
202.424276
21
138.600000
0
POLYLINE
5
5e8
100
AcDbEntity
8
3
6
CONTINUOUS
62
5
100
AcDb2dPolyline
66
1
10
0.0
20
0.0
30
0.0
70
0
0
VERTEX
5
5e9
100
AcDbEntity
8
3
100
AcDbVertex
100
AcDb2dVertex
62
5
10
202.424276
20
140.450000
0
VERTEX
5
5ea
100
AcDbEntity
8
3
100
AcDbVertex
100
AcDb2dVertex
62
5
10
205.674276
20
140.450000
0
VERTEX
5
5eb
100
AcDbEntity
8
3
100
AcDbVertex
100
AcDb2dVertex
62
5
10
205.674276
20
140.736084
0
VERTEX
5
5ec
100
AcDbEntity
8
3
100
AcDbVertex
100
AcDb2dVertex
62
5
10
205.674276
20
140.736084
0
SEQEND
5
5ed
100
AcDbEntity
8
3
0
LINE
5
5ee
100
AcDbEntity
8
3
100
AcDbLine
6
CONTINUOUS
62
5
10
208.151409
20
141.172866
11
209.081382
21
140.242893
0
POLYLINE
5
5ef
100
AcDbEntity
8
3
6
CONTINUOUS
62
5
100
AcDb2dPolyline
66
1
10
0.0
20
0.0
30
0.0
70
0
0
VERTEX
5
5f0
100
AcDbEntity
8
3
100
AcDbVertex
100
AcDb2dVertex
62
5
10
191.874276
20
138.622691
0
VERTEX
5
5f1
100
AcDbEntity
8
3
100
AcDbVertex
100
AcDb2dVertex
62
5
10
191.874276
20
138.600000
0
VERTEX
5
5f2
100
AcDbEntity
8
3
100
AcDbVertex
100
AcDb2dVertex
62
5
10
193.174276
20
138.600000
0
SEQEND
5
5f3
100
AcDbEntity
8
3
0
ARC
5
5f4
100
AcDbEntity
8
3
100
AcDbCircle
6
CONTINUOUS
62
5
10
188.649276
20
141.950000
40
0.100000
100
AcDbArc
50
89.999999
51
-179.999998
0
LINE
5
5f5
100
AcDbEntity
8
3
100
AcDbLine
6
CONTINUOUS
62
5
10
188.649276
20
142.050000
11
188.724276
21
142.050000
0
POLYLINE
5
5f6
100
AcDbEntity
8
3
6
CONTINUOUS
62
5
100
AcDb2dPolyline
66
1
10
0.0
20
0.0
30
0.0
70
0
0
VERTEX
5
5f7
100
AcDbEntity
8
3
100
AcDbVertex
100
AcDb2dVertex
62
5
10
188.724276
20
141.150000
0
VERTEX
5
5f8
100
AcDbEntity
8
3
100
AcDbVertex
100
AcDb2dVertex
62
5
10
188.549276
20
141.150000
0
VERTEX
5
5f9
100
AcDbEntity
8
3
100
AcDbVertex
100
AcDb2dVertex
62
5
10
188.549276
20
141.950000
0
SEQEND
5
5fa
100
AcDbEntity
8
3
0
LINE
5
5fb
100
AcDbEntity
8
3
100
AcDbLine
6
CONTINUOUS
62
5
10
230.475724
20
144.800106
11
227.300724
21
144.849026
0
LINE
5
5fc
100
AcDbEntity
8
3
100
AcDbLine
6
CONTINUOUS
62
5
10
227.300724
20
144.850779
11
230.475724
21
144.801858
0
LINE
5
5fd
100
AcDbEntity
8
3
100
AcDbLine
6
CONTINUOUS
62
5
10
227.510197
20
146.272239
11
230.475724
21
146.224817
0
LINE
5
5fe
100
AcDbEntity
8
3
100
AcDbLine
6
CONTINUOUS
62
5
10
230.468662
20
144.566324
11
227.300724
21
144.511028
0
LINE
5
5ff
100
AcDbEntity
8
3
100
AcDbLine
6
CONTINUOUS
62
5
10
227.300724
20
144.781056
11
230.475724
21
144.732135
0
LINE
5
600
100
AcDbEntity
8
3
100
AcDbLine
6
CONTINUOUS
62
5
10
230.475724
20
144.971784
11
227.300724
21
145.020705
0
LINE
5
601
100
AcDbEntity
8
3
100
AcDbLine
6
CONTINUOUS
62
5
10
227.372479
20
145.491138
11
230.475724
21
145.443335
0
LINE
5
602
100
AcDbEntity
8
3
100
AcDbLine
6
CONTINUOUS
62
5
10
227.384721
20
145.560683
11
230.475724
21
145.513058
0
LINE
5
603
100
AcDbEntity
8
3
100
AcDbLine
6
CONTINUOUS
62
5
10
230.475724
20
145.511306
11
227.384417
21
145.558905
0
LINE
5
604
100
AcDbEntity
8
3
100
AcDbLine
6
CONTINUOUS
62
5
10
230.475724
20
145.682984
11
227.414592
21
145.730152
0
LINE
5
605
100
AcDbEntity
8
3
100
AcDbLine
6
CONTINUOUS
62
5
10
227.497548
20
146.200408
11
230.475724
21
146.154510
0
LINE
5
606
100
AcDbEntity
8
3
100
AcDbLine
6
CONTINUOUS
62
5
10
230.475724
20
146.222480
11
227.509486
21
146.268200
0
LINE
5
607
100
AcDbEntity
8
3
100
AcDbLine
6
CONTINUOUS
62
5
10
230.475724
20
146.351309
11
227.532422
21
146.398401
0
POLYLINE
5
608
100
AcDbEntity
8
3
6
CONTINUOUS
62
5
100
AcDb2dPolyline
66
1
10
0.0
20
0.0
30
0.0
70
0
0
VERTEX
5
609
100
AcDbEntity
8
3
100
AcDbVertex
100
AcDb2dVertex
62
5
10
227.300735
20
144.477627
0
VERTEX
5
60a
100
AcDbEntity
8
3
100
AcDbVertex
100
AcDb2dVertex
62
5
10
230.414535
20
144.531983
0
VERTEX
5
60b
100
AcDbEntity
8
3
100
AcDbVertex
100
AcDb2dVertex
62
5
10
230.439325
20
144.538003
0
VERTEX
5
60c
100
AcDbEntity
8
3
100
AcDbVertex
100
AcDb2dVertex
62
5
10
230.457537
20
144.550932
0
VERTEX
5
60d
100
AcDbEntity
8
3
100
AcDbVertex
100
AcDb2dVertex
62
5
10
230.468662
20
144.566324
0
VERTEX
5
60e
100
AcDbEntity
8
3
100
AcDbVertex
100
AcDb2dVertex
62
5
10
230.475724
20
144.595432
0
VERTEX
5
60f
100
AcDbEntity
8
3
100
AcDbVertex
100
AcDb2dVertex
62
5
10
230.475724
20
146.619635
0
VERTEX
5
610
100
AcDbEntity
8
3
100
AcDbVertex
100
AcDb2dVertex
62
5
10
230.413341
20
146.683135
0
VERTEX
5
611
100
AcDbEntity
8
3
100
AcDbVertex
100
AcDb2dVertex
62
5
10
227.591325
20
146.732385
0
SEQEND
5
612
100
AcDbEntity
8
3
0
ARC
5
613
100
AcDbEntity
8
3
100
AcDbCircle
6
CONTINUOUS
62
5
10
132.324276
20
154.800377
40
0.500000
100
AcDbArc
50
89.999999
51
-179.999998
0
LINE
5
614
100
AcDbEntity
8
3
100
AcDbLine
6
CONTINUOUS
62
5
10
131.824276
20
154.800377
11
131.824276
21
154.600377
0
LINE
5
615
100
AcDbEntity
8
3
100
AcDbLine
6
CONTINUOUS
62
5
10
132.324276
20
155.450377
11
132.324276
21
158.050377
0
ARC
5
616
100
AcDbEntity
8
3
100
AcDbCircle
6
CONTINUOUS
62
5
10
133.224276
20
157.700377
40
0.500000
100
AcDbArc
50
-0.000000
51
89.999999
0
LINE
5
617
100
AcDbEntity
8
3
100
AcDbLine
6
CONTINUOUS
62
5
10
133.724276
20
157.700377
11
133.724276
21
155.800377
0
ARC
5
618
100
AcDbEntity
8
3
100
AcDbCircle
6
CONTINUOUS
62
5
10
133.224276
20
155.800377
40
0.500000
100
AcDbArc
50
-89.999999
51
-0.000000
0
POLYLINE
5
619
100
AcDbEntity
8
3
6
CONTINUOUS
62
5
100
AcDb2dPolyline
66
1
10
0.0
20
0.0
30
0.0
70
0
0
VERTEX
5
61a
100
AcDbEntity
8
3
100
AcDbVertex
100
AcDb2dVertex
62
5
10
133.224276
20
155.300377
0
VERTEX
5
61b
100
AcDbEntity
8
3
100
AcDbVertex
100
AcDb2dVertex
62
5
10
131.824276
20
155.300377
0
VERTEX
5
61c
100
AcDbEntity
8
3
100
AcDbVertex
100
AcDb2dVertex
62
5
10
131.824276
20
158.200377
0
VERTEX
5
61d
100
AcDbEntity
8
3
100
AcDbVertex
100
AcDb2dVertex
62
5
10
133.224276
20
158.200377
0
SEQEND
5
61e
100
AcDbEntity
8
3
0
ARC
5
61f
100
AcDbEntity
8
3
100
AcDbCircle
6
CONTINUOUS
62
5
10
132.324276
20
145.200377
40
0.500000
100
AcDbArc
50
-179.999998
51
-90.000000
0
LINE
5
620
100
AcDbEntity
8
3
100
AcDbLine
6
CONTINUOUS
62
5
10
131.824276
20
145.400377
11
131.824276
21
145.200377
0
ARC
5
621
100
AcDbEntity
8
3
100
AcDbCircle
6
CONTINUOUS
62
5
10
132.324276
20
141.300377
40
0.500000
100
AcDbArc
50
89.999999
51
179.999998
0
LINE
5
622
100
AcDbEntity
8
3
100
AcDbLine
6
CONTINUOUS
62
5
10
131.824276
20
141.300377
11
131.824276
21
139.800377
0
ARC
5
623
100
AcDbEntity
8
3
100
AcDbCircle
6
CONTINUOUS
62
5
10
131.324276
20
139.800377
40
0.500000
100
AcDbArc
50
-89.999999
51
-0.000000
0
ARC
5
624
100
AcDbEntity
8
3
100
AcDbCircle
6
CONTINUOUS
62
5
10
133.224276
20
142.300377
40
0.500000
100
AcDbArc
50
-89.999999
51
0.000000
0
LINE
5
625
100
AcDbEntity
8
3
100
AcDbLine
6
CONTINUOUS
62
5
10
133.724276
20
142.300377
11
133.724276
21
144.200377
0
ARC
5
626
100
AcDbEntity
8
3
100
AcDbCircle
6
CONTINUOUS
62
5
10
133.224276
20
144.200377
40
0.500000
100
AcDbArc
50
0.000000
51
89.999999
0
POLYLINE
5
627
100
AcDbEntity
8
3
6
CONTINUOUS
62
5
100
AcDb2dPolyline
66
1
10
0.0
20
0.0
30
0.0
70
0
0
VERTEX
5
628
100
AcDbEntity
8
3
100
AcDbVertex
100
AcDb2dVertex
62
5
10
133.224276
20
144.700377
0
VERTEX
5
629
100
AcDbEntity
8
3
100
AcDbVertex
100
AcDb2dVertex
62
5
10
131.824276
20
144.700377
0
VERTEX
5
62a
100
AcDbEntity
8
3
100
AcDbVertex
100
AcDb2dVertex
62
5
10
131.824276
20
141.800377
0
VERTEX
5
62b
100
AcDbEntity
8
3
100
AcDbVertex
100
AcDb2dVertex
62
5
10
133.224276
20
141.800377
0
SEQEND
5
62c
100
AcDbEntity
8
3
0
LINE
5
62d
100
AcDbEntity
8
3
100
AcDbLine
6
CONTINUOUS
62
5
10
132.324276
20
144.550377
11
132.324276
21
141.950377
0
ARC
5
62e
100
AcDbEntity
8
3
100
AcDbCircle
6
CONTINUOUS
62
5
10
132.124276
20
155.100377
40
0.500000
100
AcDbArc
50
-89.999999
51
0.000000
0
POLYLINE
5
62f
100
AcDbEntity
8
3
6
CONTINUOUS
62
5
100
AcDb2dPolyline
66
1
10
0.0
20
0.0
30
0.0
70
0
0
VERTEX
5
630
100
AcDbEntity
8
3
100
AcDbVertex
100
AcDb2dVertex
62
5
10
132.124276
20
154.600377
0
VERTEX
5
631
100
AcDbEntity
8
3
100
AcDbVertex
100
AcDb2dVertex
62
5
10
131.624276
20
154.600377
0
VERTEX
5
632
100
AcDbEntity
8
3
100
AcDbVertex
100
AcDb2dVertex
62
5
10
131.624276
20
145.400377
0
VERTEX
5
633
100
AcDbEntity
8
3
100
AcDbVertex
100
AcDb2dVertex
62
5
10
132.124276
20
145.400377
0
SEQEND
5
634
100
AcDbEntity
8
3
0
ARC
5
635
100
AcDbEntity
8
3
100
AcDbCircle
6
CONTINUOUS
62
5
10
132.124276
20
144.900377
40
0.500000
100
AcDbArc
50
0.000000
51
89.999999
0
LINE
5
636
100
AcDbEntity
8
3
100
AcDbLine
6
CONTINUOUS
62
5
10
132.624276
20
144.900377
11
132.624276
21
144.700377
0
LINE
5
637
100
AcDbEntity
8
3
100
AcDbLine
6
CONTINUOUS
62
5
10
132.624276
20
155.300377
11
132.624276
21
155.100377
0
POLYLINE
5
638
100
AcDbEntity
8
1
6
CONTINUOUS
62
5
100
AcDb2dPolyline
66
1
10
0.0
20
0.0
30
0.0
70
0
0
VERTEX
5
639
100
AcDbEntity
8
1
100
AcDbVertex
100
AcDb2dVertex
62
5
10
121.776526
20
156.314552
0
VERTEX
5
63a
100
AcDbEntity
8
1
100
AcDbVertex
100
AcDb2dVertex
62
5
10
121.776526
20
158.814551
0
VERTEX
5
63b
100
AcDbEntity
8
1
100
AcDbVertex
100
AcDb2dVertex
62
5
10
123.024276
20
156.314552
0
VERTEX
5
63c
100
AcDbEntity
8
1
100
AcDbVertex
100
AcDb2dVertex
62
5
10
123.024276
20
158.814551
0
SEQEND
5
63d
100
AcDbEntity
8
1
0
LINE
5
63e
100
AcDbEntity
8
3
100
AcDbLine
6
CONTINUOUS
62
5
10
125.674276
20
139.300270
11
125.674276
21
139.300377
0
ARC
5
63f
100
AcDbEntity
8
3
100
AcDbCircle
6
CONTINUOUS
62
5
10
127.124276
20
145.000377
40
0.500000
100
AcDbArc
50
-89.999999
51
0.000000
0
LINE
5
640
100
AcDbEntity
8
3
100
AcDbLine
6
CONTINUOUS
62
5
10
127.124276
20
144.500377
11
125.674276
21
144.500377
0
LINE
5
641
100
AcDbEntity
8
3
100
AcDbLine
6
CONTINUOUS
62
5
10
125.674276
20
155.500377
11
127.124276
21
155.500377
0
ARC
5
642
100
AcDbEntity
8
3
100
AcDbCircle
6
CONTINUOUS
62
5
10
127.124276
20
155.000377
40
0.500000
100
AcDbArc
50
0.000000
51
89.999999
0
LINE
5
643
100
AcDbEntity
8
3
100
AcDbLine
6
CONTINUOUS
62
5
10
127.624276
20
155.000377
11
127.624276
21
145.000377
0
POLYLINE
5
644
100
AcDbEntity
8
3
6
CONTINUOUS
62
5
100
AcDb2dPolyline
66
1
10
0.0
20
0.0
30
0.0
70
0
0
VERTEX
5
645
100
AcDbEntity
8
3
100
AcDbVertex
100
AcDb2dVertex
62
5
10
127.624276
20
146.326847
0
VERTEX
5
646
100
AcDbEntity
8
3
100
AcDbVertex
100
AcDb2dVertex
62
5
10
128.124276
20
146.326847
0
VERTEX
5
647
100
AcDbEntity
8
3
100
AcDbVertex
100
AcDb2dVertex
62
5
10
128.124276
20
153.673906
0
VERTEX
5
648
100
AcDbEntity
8
3
100
AcDbVertex
100
AcDb2dVertex
62
5
10
127.624276
20
153.673906
0
SEQEND
5
649
100
AcDbEntity
8
3
0
POLYLINE
5
64a
100
AcDbEntity
8
1
6
CONTINUOUS
62
5
100
AcDb2dPolyline
66
1
10
0.0
20
0.0
30
0.0
70
0
0
VERTEX
5
64b
100
AcDbEntity
8
1
100
AcDbVertex
100
AcDb2dVertex
62
5
10
117.224276
20
158.814551
0
VERTEX
5
64c
100
AcDbEntity
8
1
100
AcDbVertex
100
AcDb2dVertex
62
5
10
117.224276
20
156.314552
0
VERTEX
5
64d
100
AcDbEntity
8
1
100
AcDbVertex
100
AcDb2dVertex
62
5
10
118.463513
20
156.314552
0
SEQEND
5
64e
100
AcDbEntity
8
1
0
LINE
5
64f
100
AcDbEntity
8
1
100
AcDbLine
6
CONTINUOUS
62
5
10
119.220534
20
157.303327
11
120.228016
21
157.303327
0
LINE
5
650
100
AcDbEntity
8
1
100
AcDbLine
6
CONTINUOUS
62
5
10
119.220534
20
157.303327
11
120.228016
21
157.303327
0
POLYLINE
5
651
100
AcDbEntity
8
1
6
CONTINUOUS
62
5
100
AcDb2dPolyline
66
1
10
0.0
20
0.0
30
0.0
70
0
0
VERTEX
5
652
100
AcDbEntity
8
1
100
AcDbVertex
100
AcDb2dVertex
62
5
10
118.880179
20
156.314552
0
VERTEX
5
653
100
AcDbEntity
8
1
100
AcDbVertex
100
AcDb2dVertex
62
5
10
119.713512
20
158.814551
0
VERTEX
5
654
100
AcDbEntity
8
1
100
AcDbVertex
100
AcDb2dVertex
62
5
10
120.546845
20
156.314552
0
SEQEND
5
655
100
AcDbEntity
8
1
0
ARC
5
656
100
AcDbEntity
8
3
100
AcDbCircle
6
CONTINUOUS
62
5
10
131.624276
20
140.300377
40
1.000000
100
AcDbArc
50
-89.999999
51
-0.000000
0
LINE
5
657
100
AcDbEntity
8
3
100
AcDbLine
6
CONTINUOUS
62
5
10
131.624276
20
139.300377
11
125.674276
21
139.300270
0
LINE
5
658
100
AcDbEntity
8
3
100
AcDbLine
6
CONTINUOUS
62
5
10
132.624276
20
141.800377
11
132.624276
21
140.300377
0
POLYLINE
5
659
100
AcDbEntity
8
3
6
CONTINUOUS
62
5
100
AcDb2dPolyline
66
1
10
0.0
20
0.0
30
0.0
70
0
0
VERTEX
5
65a
100
AcDbEntity
8
3
100
AcDbVertex
100
AcDb2dVertex
62
5
10
123.549276
20
138.600377
0
VERTEX
5
65b
100
AcDbEntity
8
3
100
AcDbVertex
100
AcDb2dVertex
62
5
10
123.470116
20
138.626742
0
VERTEX
5
65c
100
AcDbEntity
8
3
100
AcDbVertex
100
AcDb2dVertex
62
5
10
123.469065
20
138.626960
0
VERTEX
5
65d
100
AcDbEntity
8
3
100
AcDbVertex
100
AcDb2dVertex
62
5
10
123.467229
20
138.627177
0
VERTEX
5
65e
100
AcDbEntity
8
3
100
AcDbVertex
100
AcDb2dVertex
62
5
10
123.464617
20
138.627392
0
VERTEX
5
65f
100
AcDbEntity
8
3
100
AcDbVertex
100
AcDb2dVertex
62
5
10
123.461238
20
138.627603
0
VERTEX
5
660
100
AcDbEntity
8
3
100
AcDbVertex
100
AcDb2dVertex
62
5
10
123.457106
20
138.627810
0
VERTEX
5
661
100
AcDbEntity
8
3
100
AcDbVertex
100
AcDb2dVertex
62
5
10
123.452237
20
138.628012
0
VERTEX
5
662
100
AcDbEntity
8
3
100
AcDbVertex
100
AcDb2dVertex
62
5
10
123.446651
20
138.628209
0
VERTEX
5
663
100
AcDbEntity
8
3
100
AcDbVertex
100
AcDb2dVertex
62
5
10
123.440369
20
138.628399
0
VERTEX
5
664
100
AcDbEntity
8
3
100
AcDbVertex
100
AcDb2dVertex
62
5
10
123.433416
20
138.628581
0
VERTEX
5
665
100
AcDbEntity
8
3
100
AcDbVertex
100
AcDb2dVertex
62
5
10
123.425819
20
138.628756
0
VERTEX
5
666
100
AcDbEntity
8
3
100
AcDbVertex
100
AcDb2dVertex
62
5
10
123.417609
20
138.628922
0
VERTEX
5
667
100
AcDbEntity
8
3
100
AcDbVertex
100
AcDb2dVertex
62
5
10
123.408819
20
138.629079
0
VERTEX
5
668
100
AcDbEntity
8
3
100
AcDbVertex
100
AcDb2dVertex
62
5
10
123.399482
20
138.629225
0
VERTEX
5
669
100
AcDbEntity
8
3
100
AcDbVertex
100
AcDb2dVertex
62
5
10
123.389635
20
138.629362
0
VERTEX
5
66a
100
AcDbEntity
8
3
100
AcDbVertex
100
AcDb2dVertex
62
5
10
123.379318
20
138.629487
0
VERTEX
5
66b
100
AcDbEntity
8
3
100
AcDbVertex
100
AcDb2dVertex
62
5
10
123.368571
20
138.629600
0
VERTEX
5
66c
100
AcDbEntity
8
3
100
AcDbVertex
100
AcDb2dVertex
62
5
10
123.357436
20
138.629702
0
VERTEX
5
66d
100
AcDbEntity
8
3
100
AcDbVertex
100
AcDb2dVertex
62
5
10
123.345958
20
138.629791
0
VERTEX
5
66e
100
AcDbEntity
8
3
100
AcDbVertex
100
AcDb2dVertex
62
5
10
123.334182
20
138.629868
0
VERTEX
5
66f
100
AcDbEntity
8
3
100
AcDbVertex
100
AcDb2dVertex
62
5
10
123.322154
20
138.629931
0
VERTEX
5
670
100
AcDbEntity
8
3
100
AcDbVertex
100
AcDb2dVertex
62
5
10
123.309921
20
138.629981
0
VERTEX
5
671
100
AcDbEntity
8
3
100
AcDbVertex
100
AcDb2dVertex
62
5
10
123.297533
20
138.630018
0
VERTEX
5
672
100
AcDbEntity
8
3
100
AcDbVertex
100
AcDb2dVertex
62
5
10
123.285038
20
138.630041
0
VERTEX
5
673
100
AcDbEntity
8
3
100
AcDbVertex
100
AcDb2dVertex
62
5
10
123.272484
20
138.630050
0
VERTEX
5
674
100
AcDbEntity
8
3
100
AcDbVertex
100
AcDb2dVertex
62
5
10
122.515604
20
138.630043
0
VERTEX
5
675
100
AcDbEntity
8
3
100
AcDbVertex
100
AcDb2dVertex
62
5
10
122.503095
20
138.630023
0
VERTEX
5
676
100
AcDbEntity
8
3
100
AcDbVertex
100
AcDb2dVertex
62
5
10
122.490686
20
138.629988
0
VERTEX
5
677
100
AcDbEntity
8
3
100
AcDbVertex
100
AcDb2dVertex
62
5
10
122.478424
20
138.629940
0
VERTEX
5
678
100
AcDbEntity
8
3
100
AcDbVertex
100
AcDb2dVertex
62
5
10
122.466359
20
138.629879
0
VERTEX
5
679
100
AcDbEntity
8
3
100
AcDbVertex
100
AcDb2dVertex
62
5
10
122.452867
20
138.629792
0
VERTEX
5
67a
100
AcDbEntity
8
3
100
AcDbVertex
100
AcDb2dVertex
62
5
10
122.443006
20
138.629718
0
VERTEX
5
67b
100
AcDbEntity
8
3
100
AcDbVertex
100
AcDb2dVertex
62
5
10
122.431811
20
138.629618
0
VERTEX
5
67c
100
AcDbEntity
8
3
100
AcDbVertex
100
AcDb2dVertex
62
5
10
122.420997
20
138.629507
0
VERTEX
5
67d
100
AcDbEntity
8
3
100
AcDbVertex
100
AcDb2dVertex
62
5
10
122.410605
20
138.629383
0
VERTEX
5
67e
100
AcDbEntity
8
3
100
AcDbVertex
100
AcDb2dVertex
62
5
10
122.400677
20
138.629249
0
VERTEX
5
67f
100
AcDbEntity
8
3
100
AcDbVertex
100
AcDb2dVertex
62
5
10
122.391253
20
138.629104
0
VERTEX
5
680
100
AcDbEntity
8
3
100
AcDbVertex
100
AcDb2dVertex
62
5
10
122.382368
20
138.628949
0
VERTEX
5
681
100
AcDbEntity
8
3
100
AcDbVertex
100
AcDb2dVertex
62
5
10
122.374059
20
138.628784
0
VERTEX
5
682
100
AcDbEntity
8
3
100
AcDbVertex
100
AcDb2dVertex
62
5
10
122.366359
20
138.628611
0
VERTEX
5
683
100
AcDbEntity
8
3
100
AcDbVertex
100
AcDb2dVertex
62
5
10
122.359296
20
138.628430
0
VERTEX
5
684
100
AcDbEntity
8
3
100
AcDbVertex
100
AcDb2dVertex
62
5
10
122.352901
20
138.628241
0
VERTEX
5
685
100
AcDbEntity
8
3
100
AcDbVertex
100
AcDb2dVertex
62
5
10
122.347197
20
138.628045
0
VERTEX
5
686
100
AcDbEntity
8
3
100
AcDbVertex
100
AcDb2dVertex
62
5
10
122.342207
20
138.627844
0
VERTEX
5
687
100
AcDbEntity
8
3
100
AcDbVertex
100
AcDb2dVertex
62
5
10
122.337951
20
138.627638
0
VERTEX
5
688
100
AcDbEntity
8
3
100
AcDbVertex
100
AcDb2dVertex
62
5
10
122.334445
20
138.627427
0
VERTEX
5
689
100
AcDbEntity
8
3
100
AcDbVertex
100
AcDb2dVertex
62
5
10
122.331705
20
138.627213
0
VERTEX
5
68a
100
AcDbEntity
8
3
100
AcDbVertex
100
AcDb2dVertex
62
5
10
122.329739
20
138.626997
0
VERTEX
5
68b
100
AcDbEntity
8
3
100
AcDbVertex
100
AcDb2dVertex
62
5
10
122.328557
20
138.626778
0
VERTEX
5
68c
100
AcDbEntity
8
3
100
AcDbVertex
100
AcDb2dVertex
62
5
10
122.249276
20
138.600377
0
SEQEND
5
68d
100
AcDbEntity
8
3
0
LINE
5
68e
100
AcDbEntity
8
3
100
AcDbLine
6
CONTINUOUS
62
5
10
124.974276
20
138.600377
11
124.974383
21
138.600377
0
POLYLINE
5
68f
100
AcDbEntity
8
3
6
CONTINUOUS
62
5
100
AcDb2dPolyline
66
1
10
0.0
20
0.0
30
0.0
70
0
0
VERTEX
5
690
100
AcDbEntity
8
3
100
AcDbVertex
100
AcDb2dVertex
62
5
10
120.724276
20
138.623941
0
VERTEX
5
691
100
AcDbEntity
8
3
100
AcDbVertex
100
AcDb2dVertex
62
5
10
120.824276
20
138.623941
0
VERTEX
5
692
100
AcDbEntity
8
3
100
AcDbVertex
100
AcDb2dVertex
62
5
10
120.847840
20
138.600377
0
SEQEND
5
693
100
AcDbEntity
8
3
0
LINE
5
694
100
AcDbEntity
8
3
100
AcDbLine
6
CONTINUOUS
62
5
10
118.124276
20
138.638301
11
118.124276
21
138.666046
0
LINE
5
695
100
AcDbEntity
8
3
100
AcDbLine
6
CONTINUOUS
62
5
10
118.124276
20
138.666046
11
118.124276
21
138.673120
0
ARC
5
696
100
AcDbEntity
8
3
100
AcDbCircle
6
CONTINUOUS
62
5
10
90.924276
20
154.800377
40
0.500000
100
AcDbArc
50
-0.000000
51
89.999999
0
LINE
5
697
100
AcDbEntity
8
3
100
AcDbLine
6
CONTINUOUS
62
5
10
91.424276
20
154.800377
11
91.424276
21
154.600377
0
LINE
5
698
100
AcDbEntity
8
3
100
AcDbLine
6
CONTINUOUS
62
5
10
90.924276
20
155.450377
11
90.924276
21
158.050377
0
LINE
5
699
100
AcDbEntity
8
3
100
AcDbLine
6
CONTINUOUS
62
5
10
97.574276
20
139.300377
11
97.574276
21
139.300270
0
ARC
5
69a
100
AcDbEntity
8
3
100
AcDbCircle
6
CONTINUOUS
62
5
10
90.924276
20
145.200377
40
0.500000
100
AcDbArc
50
-89.999999
51
-0.000000
0
LINE
5
69b
100
AcDbEntity
8
3
100
AcDbLine
6
CONTINUOUS
62
5
10
91.424276
20
145.400377
11
91.424276
21
145.200377
0
ARC
5
69c
100
AcDbEntity
8
3
100
AcDbCircle
6
CONTINUOUS
62
5
10
90.924276
20
141.300377
40
0.500000
100
AcDbArc
50
0.000000
51
89.999999
0
LINE
5
69d
100
AcDbEntity
8
3
100
AcDbLine
6
CONTINUOUS
62
5
10
91.424276
20
141.300377
11
91.424276
21
139.800377
0
ARC
5
69e
100
AcDbEntity
8
3
100
AcDbCircle
6
CONTINUOUS
62
5
10
91.924276
20
139.800377
40
0.500000
100
AcDbArc
50
-179.999998
51
-89.999999
0
LINE
5
69f
100
AcDbEntity
8
3
100
AcDbLine
6
CONTINUOUS
62
5
10
90.924276
20
144.550377
11
90.924276
21
141.950377
0
ARC
5
6a0
100
AcDbEntity
8
3
100
AcDbCircle
6
CONTINUOUS
62
5
10
91.624276
20
140.300377
40
1.000000
100
AcDbArc
50
-179.999998
51
-89.999999
0
LINE
5
6a1
100
AcDbEntity
8
3
100
AcDbLine
6
CONTINUOUS
62
5
10
91.624276
20
139.300377
11
97.574276
21
139.300270
0
LINE
5
6a2
100
AcDbEntity
8
3
100
AcDbLine
6
CONTINUOUS
62
5
10
90.624276
20
141.800377
11
90.624276
21
140.300377
0
POLYLINE
5
6a3
100
AcDbEntity
8
3
6
CONTINUOUS
62
5
100
AcDb2dPolyline
66
1
10
0.0
20
0.0
30
0.0
70
0
0
VERTEX
5
6a4
100
AcDbEntity
8
3
100
AcDbVertex
100
AcDb2dVertex
62
5
10
95.624276
20
146.326847
0
VERTEX
5
6a5
100
AcDbEntity
8
3
100
AcDbVertex
100
AcDb2dVertex
62
5
10
95.124276
20
146.326847
0
VERTEX
5
6a6
100
AcDbEntity
8
3
100
AcDbVertex
100
AcDb2dVertex
62
5
10
95.124276
20
153.673906
0
VERTEX
5
6a7
100
AcDbEntity
8
3
100
AcDbVertex
100
AcDb2dVertex
62
5
10
95.624276
20
153.673906
0
SEQEND
5
6a8
100
AcDbEntity
8
3
0
ARC
5
6a9
100
AcDbEntity
8
3
100
AcDbCircle
6
CONTINUOUS
62
5
10
91.124276
20
155.100377
40
0.500000
100
AcDbArc
50
179.999998
51
-89.999999
0
POLYLINE
5
6aa
100
AcDbEntity
8
3
6
CONTINUOUS
62
5
100
AcDb2dPolyline
66
1
10
0.0
20
0.0
30
0.0
70
0
0
VERTEX
5
6ab
100
AcDbEntity
8
3
100
AcDbVertex
100
AcDb2dVertex
62
5
10
91.124276
20
154.600377
0
VERTEX
5
6ac
100
AcDbEntity
8
3
100
AcDbVertex
100
AcDb2dVertex
62
5
10
91.624276
20
154.600377
0
VERTEX
5
6ad
100
AcDbEntity
8
3
100
AcDbVertex
100
AcDb2dVertex
62
5
10
91.624276
20
145.400377
0
VERTEX
5
6ae
100
AcDbEntity
8
3
100
AcDbVertex
100
AcDb2dVertex
62
5
10
91.124276
20
145.400377
0
SEQEND
5
6af
100
AcDbEntity
8
3
0
ARC
5
6b0
100
AcDbEntity
8
3
100
AcDbCircle
6
CONTINUOUS
62
5
10
91.124276
20
144.900377
40
0.500000
100
AcDbArc
50
89.999999
51
179.999998
0
LINE
5
6b1
100
AcDbEntity
8
3
100
AcDbLine
6
CONTINUOUS
62
5
10
90.624276
20
144.900377
11
90.624276
21
144.700377
0
LINE
5
6b2
100
AcDbEntity
8
3
100
AcDbLine
6
CONTINUOUS
62
5
10
90.624276
20
155.300377
11
90.624276
21
155.100377
0
ARC
5
6b3
100
AcDbEntity
8
3
100
AcDbCircle
6
CONTINUOUS
62
5
10
96.124276
20
145.000377
40
0.500000
100
AcDbArc
50
179.999998
51
-89.999999
0
LINE
5
6b4
100
AcDbEntity
8
3
100
AcDbLine
6
CONTINUOUS
62
5
10
96.124276
20
144.500377
11
97.574276
21
144.500377
0
LINE
5
6b5
100
AcDbEntity
8
3
100
AcDbLine
6
CONTINUOUS
62
5
10
97.574276
20
155.500377
11
96.124276
21
155.500377
0
ARC
5
6b6
100
AcDbEntity
8
3
100
AcDbCircle
6
CONTINUOUS
62
5
10
96.124276
20
155.000377
40
0.500000
100
AcDbArc
50
89.999999
51
179.999998
0
LINE
5
6b7
100
AcDbEntity
8
3
100
AcDbLine
6
CONTINUOUS
62
5
10
95.624276
20
155.000377
11
95.624276
21
145.000377
0
ARC
5
6b8
100
AcDbEntity
8
3
100
AcDbCircle
6
CONTINUOUS
62
5
10
90.024276
20
157.700377
40
0.500000
100
AcDbArc
50
89.999999
51
-179.999998
0
LINE
5
6b9
100
AcDbEntity
8
3
100
AcDbLine
6
CONTINUOUS
62
5
10
89.524276
20
157.700377
11
89.524276
21
155.800377
0
ARC
5
6ba
100
AcDbEntity
8
3
100
AcDbCircle
6
CONTINUOUS
62
5
10
90.024276
20
155.800377
40
0.500000
100
AcDbArc
50
-179.999998
51
-89.999999
0
POLYLINE
5
6bb
100
AcDbEntity
8
3
6
CONTINUOUS
62
5
100
AcDb2dPolyline
66
1
10
0.0
20
0.0
30
0.0
70
0
0
VERTEX
5
6bc
100
AcDbEntity
8
3
100
AcDbVertex
100
AcDb2dVertex
62
5
10
90.024276
20
155.300377
0
VERTEX
5
6bd
100
AcDbEntity
8
3
100
AcDbVertex
100
AcDb2dVertex
62
5
10
91.424276
20
155.300377
0
VERTEX
5
6be
100
AcDbEntity
8
3
100
AcDbVertex
100
AcDb2dVertex
62
5
10
91.424276
20
158.200377
0
VERTEX
5
6bf
100
AcDbEntity
8
3
100
AcDbVertex
100
AcDb2dVertex
62
5
10
90.024276
20
158.200377
0
SEQEND
5
6c0
100
AcDbEntity
8
3
0
ARC
5
6c1
100
AcDbEntity
8
3
100
AcDbCircle
6
CONTINUOUS
62
5
10
90.024276
20
142.300377
40
0.500000
100
AcDbArc
50
179.999998
51
-89.999999
0
LINE
5
6c2
100
AcDbEntity
8
3
100
AcDbLine
6
CONTINUOUS
62
5
10
89.524276
20
142.300377
11
89.524276
21
144.200377
0
ARC
5
6c3
100
AcDbEntity
8
3
100
AcDbCircle
6
CONTINUOUS
62
5
10
90.024276
20
144.200377
40
0.500000
100
AcDbArc
50
89.999999
51
179.999998
0
POLYLINE
5
6c4
100
AcDbEntity
8
3
6
CONTINUOUS
62
5
100
AcDb2dPolyline
66
1
10
0.0
20
0.0
30
0.0
70
0
0
VERTEX
5
6c5
100
AcDbEntity
8
3
100
AcDbVertex
100
AcDb2dVertex
62
5
10
90.024276
20
144.700377
0
VERTEX
5
6c6
100
AcDbEntity
8
3
100
AcDbVertex
100
AcDb2dVertex
62
5
10
91.424276
20
144.700377
0
VERTEX
5
6c7
100
AcDbEntity
8
3
100
AcDbVertex
100
AcDb2dVertex
62
5
10
91.424276
20
141.800377
0
VERTEX
5
6c8
100
AcDbEntity
8
3
100
AcDbVertex
100
AcDb2dVertex
62
5
10
90.024276
20
141.800377
0
SEQEND
5
6c9
100
AcDbEntity
8
3
0
LINE
5
6ca
100
AcDbEntity
8
3
100
AcDbLine
6
CONTINUOUS
62
5
10
105.124276
20
138.666046
11
105.124276
21
138.638301
0
LINE
5
6cb
100
AcDbEntity
8
3
100
AcDbLine
6
CONTINUOUS
62
5
10
105.124276
20
138.673120
11
105.124276
21
138.666046
0
POLYLINE
5
6cc
100
AcDbEntity
8
3
6
CONTINUOUS
62
5
100
AcDb2dPolyline
66
1
10
0.0
20
0.0
30
0.0
70
0
0
VERTEX
5
6cd
100
AcDbEntity
8
3
100
AcDbVertex
100
AcDb2dVertex
62
5
10
102.400712
20
138.600377
0
VERTEX
5
6ce
100
AcDbEntity
8
3
100
AcDbVertex
100
AcDb2dVertex
62
5
10
102.424276
20
138.623941
0
VERTEX
5
6cf
100
AcDbEntity
8
3
100
AcDbVertex
100
AcDb2dVertex
62
5
10
102.524276
20
138.623941
0
VERTEX
5
6d0
100
AcDbEntity
8
3
100
AcDbVertex
100
AcDb2dVertex
62
5
10
102.524276
20
138.600377
0
SEQEND
5
6d1
100
AcDbEntity
8
3
0
LINE
5
6d2
100
AcDbEntity
8
3
100
AcDbLine
6
CONTINUOUS
62
5
10
98.274170
20
138.600377
11
98.274276
21
138.600377
0
POLYLINE
5
6d3
100
AcDbEntity
8
3
6
CONTINUOUS
62
5
100
AcDb2dPolyline
66
1
10
0.0
20
0.0
30
0.0
70
0
0
VERTEX
5
6d4
100
AcDbEntity
8
3
100
AcDbVertex
100
AcDb2dVertex
62
5
10
100.999276
20
138.600377
0
VERTEX
5
6d5
100
AcDbEntity
8
3
100
AcDbVertex
100
AcDb2dVertex
62
5
10
100.920116
20
138.626742
0
VERTEX
5
6d6
100
AcDbEntity
8
3
100
AcDbVertex
100
AcDb2dVertex
62
5
10
100.919065
20
138.626960
0
VERTEX
5
6d7
100
AcDbEntity
8
3
100
AcDbVertex
100
AcDb2dVertex
62
5
10
100.917229
20
138.627177
0
VERTEX
5
6d8
100
AcDbEntity
8
3
100
AcDbVertex
100
AcDb2dVertex
62
5
10
100.914617
20
138.627392
0
VERTEX
5
6d9
100
AcDbEntity
8
3
100
AcDbVertex
100
AcDb2dVertex
62
5
10
100.911238
20
138.627603
0
VERTEX
5
6da
100
AcDbEntity
8
3
100
AcDbVertex
100
AcDb2dVertex
62
5
10
100.907106
20
138.627810
0
VERTEX
5
6db
100
AcDbEntity
8
3
100
AcDbVertex
100
AcDb2dVertex
62
5
10
100.902237
20
138.628012
0
VERTEX
5
6dc
100
AcDbEntity
8
3
100
AcDbVertex
100
AcDb2dVertex
62
5
10
100.896651
20
138.628209
0
VERTEX
5
6dd
100
AcDbEntity
8
3
100
AcDbVertex
100
AcDb2dVertex
62
5
10
100.890369
20
138.628399
0
VERTEX
5
6de
100
AcDbEntity
8
3
100
AcDbVertex
100
AcDb2dVertex
62
5
10
100.883416
20
138.628581
0
VERTEX
5
6df
100
AcDbEntity
8
3
100
AcDbVertex
100
AcDb2dVertex
62
5
10
100.875819
20
138.628756
0
VERTEX
5
6e0
100
AcDbEntity
8
3
100
AcDbVertex
100
AcDb2dVertex
62
5
10
100.867609
20
138.628922
0
VERTEX
5
6e1
100
AcDbEntity
8
3
100
AcDbVertex
100
AcDb2dVertex
62
5
10
100.858819
20
138.629079
0
VERTEX
5
6e2
100
AcDbEntity
8
3
100
AcDbVertex
100
AcDb2dVertex
62
5
10
100.849482
20
138.629225
0
VERTEX
5
6e3
100
AcDbEntity
8
3
100
AcDbVertex
100
AcDb2dVertex
62
5
10
100.839635
20
138.629362
0
VERTEX
5
6e4
100
AcDbEntity
8
3
100
AcDbVertex
100
AcDb2dVertex
62
5
10
100.829318
20
138.629487
0
VERTEX
5
6e5
100
AcDbEntity
8
3
100
AcDbVertex
100
AcDb2dVertex
62
5
10
100.818571
20
138.629600
0
VERTEX
5
6e6
100
AcDbEntity
8
3
100
AcDbVertex
100
AcDb2dVertex
62
5
10
100.807436
20
138.629702
0
VERTEX
5
6e7
100
AcDbEntity
8
3
100
AcDbVertex
100
AcDb2dVertex
62
5
10
100.795958
20
138.629791
0
VERTEX
5
6e8
100
AcDbEntity
8
3
100
AcDbVertex
100
AcDb2dVertex
62
5
10
100.784182
20
138.629868
0
VERTEX
5
6e9
100
AcDbEntity
8
3
100
AcDbVertex
100
AcDb2dVertex
62
5
10
100.772154
20
138.629931
0
VERTEX
5
6ea
100
AcDbEntity
8
3
100
AcDbVertex
100
AcDb2dVertex
62
5
10
100.759921
20
138.629981
0
VERTEX
5
6eb
100
AcDbEntity
8
3
100
AcDbVertex
100
AcDb2dVertex
62
5
10
100.747533
20
138.630018
0
VERTEX
5
6ec
100
AcDbEntity
8
3
100
AcDbVertex
100
AcDb2dVertex
62
5
10
100.735038
20
138.630041
0
VERTEX
5
6ed
100
AcDbEntity
8
3
100
AcDbVertex
100
AcDb2dVertex
62
5
10
100.722484
20
138.630050
0
VERTEX
5
6ee
100
AcDbEntity
8
3
100
AcDbVertex
100
AcDb2dVertex
62
5
10
99.965604
20
138.630043
0
VERTEX
5
6ef
100
AcDbEntity
8
3
100
AcDbVertex
100
AcDb2dVertex
62
5
10
99.953095
20
138.630023
0
VERTEX
5
6f0
100
AcDbEntity
8
3
100
AcDbVertex
100
AcDb2dVertex
62
5
10
99.940686
20
138.629988
0
VERTEX
5
6f1
100
AcDbEntity
8
3
100
AcDbVertex
100
AcDb2dVertex
62
5
10
99.928424
20
138.629940
0
VERTEX
5
6f2
100
AcDbEntity
8
3
100
AcDbVertex
100
AcDb2dVertex
62
5
10
99.916359
20
138.629879
0
VERTEX
5
6f3
100
AcDbEntity
8
3
100
AcDbVertex
100
AcDb2dVertex
62
5
10
99.902867
20
138.629792
0
VERTEX
5
6f4
100
AcDbEntity
8
3
100
AcDbVertex
100
AcDb2dVertex
62
5
10
99.893006
20
138.629718
0
VERTEX
5
6f5
100
AcDbEntity
8
3
100
AcDbVertex
100
AcDb2dVertex
62
5
10
99.881811
20
138.629618
0
VERTEX
5
6f6
100
AcDbEntity
8
3
100
AcDbVertex
100
AcDb2dVertex
62
5
10
99.870997
20
138.629507
0
VERTEX
5
6f7
100
AcDbEntity
8
3
100
AcDbVertex
100
AcDb2dVertex
62
5
10
99.860605
20
138.629383
0
VERTEX
5
6f8
100
AcDbEntity
8
3
100
AcDbVertex
100
AcDb2dVertex
62
5
10
99.850677
20
138.629249
0
VERTEX
5
6f9
100
AcDbEntity
8
3
100
AcDbVertex
100
AcDb2dVertex
62
5
10
99.841253
20
138.629104
0
VERTEX
5
6fa
100
AcDbEntity
8
3
100
AcDbVertex
100
AcDb2dVertex
62
5
10
99.832368
20
138.628949
0
VERTEX
5
6fb
100
AcDbEntity
8
3
100
AcDbVertex
100
AcDb2dVertex
62
5
10
99.824059
20
138.628784
0
VERTEX
5
6fc
100
AcDbEntity
8
3
100
AcDbVertex
100
AcDb2dVertex
62
5
10
99.816359
20
138.628611
0
VERTEX
5
6fd
100
AcDbEntity
8
3
100
AcDbVertex
100
AcDb2dVertex
62
5
10
99.809296
20
138.628430
0
VERTEX
5
6fe
100
AcDbEntity
8
3
100
AcDbVertex
100
AcDb2dVertex
62
5
10
99.802901
20
138.628241
0
VERTEX
5
6ff
100
AcDbEntity
8
3
100
AcDbVertex
100
AcDb2dVertex
62
5
10
99.797197
20
138.628045
0
VERTEX
5
700
100
AcDbEntity
8
3
100
AcDbVertex
100
AcDb2dVertex
62
5
10
99.792207
20
138.627844
0
VERTEX
5
701
100
AcDbEntity
8
3
100
AcDbVertex
100
AcDb2dVertex
62
5
10
99.787951
20
138.627638
0
VERTEX
5
702
100
AcDbEntity
8
3
100
AcDbVertex
100
AcDb2dVertex
62
5
10
99.784445
20
138.627427
0
VERTEX
5
703
100
AcDbEntity
8
3
100
AcDbVertex
100
AcDb2dVertex
62
5
10
99.781705
20
138.627213
0
VERTEX
5
704
100
AcDbEntity
8
3
100
AcDbVertex
100
AcDb2dVertex
62
5
10
99.779739
20
138.626997
0
VERTEX
5
705
100
AcDbEntity
8
3
100
AcDbVertex
100
AcDb2dVertex
62
5
10
99.778557
20
138.626778
0
VERTEX
5
706
100
AcDbEntity
8
3
100
AcDbVertex
100
AcDb2dVertex
62
5
10
99.699276
20
138.600377
0
SEQEND
5
707
100
AcDbEntity
8
3
0
POLYLINE
5
708
100
AcDbEntity
8
3
6
CONTINUOUS
62
5
100
AcDb2dPolyline
66
1
10
0.0
20
0.0
30
0.0
70
0
0
VERTEX
5
709
100
AcDbEntity
8
3
100
AcDbVertex
100
AcDb2dVertex
62
5
10
113.774276
20
142.050377
0
VERTEX
5
70a
100
AcDbEntity
8
3
100
AcDbVertex
100
AcDb2dVertex
62
5
10
113.774276
20
142.250377
0
VERTEX
5
70b
100
AcDbEntity
8
3
100
AcDbVertex
100
AcDb2dVertex
62
5
10
109.474276
20
142.250377
0
VERTEX
5
70c
100
AcDbEntity
8
3
100
AcDbVertex
100
AcDb2dVertex
62
5
10
109.474276
20
142.050377
0
SEQEND
5
70d
100
AcDbEntity
8
3
0
ARC
5
70e
100
AcDbEntity
8
3
100
AcDbCircle
6
CONTINUOUS
62
5
10
109.474276
20
141.950377
40
0.100000
100
AcDbArc
50
89.999999
51
179.999998
0
LINE
5
70f
100
AcDbEntity
8
3
100
AcDbLine
6
CONTINUOUS
62
5
10
109.474276
20
142.050377
11
113.774276
21
142.050377
0
ARC
5
710
100
AcDbEntity
8
3
100
AcDbCircle
6
CONTINUOUS
62
5
10
113.774276
20
141.950377
40
0.100000
100
AcDbArc
50
-0.000000
51
89.999999
0
LINE
5
711
100
AcDbEntity
8
3
100
AcDbLine
6
CONTINUOUS
62
5
10
113.874276
20
141.950377
11
113.874276
21
141.150377
0
LINE
5
712
100
AcDbEntity
8
3
100
AcDbLine
6
CONTINUOUS
62
5
10
109.374276
20
141.150377
11
109.374276
21
141.950377
0
LINE
5
713
100
AcDbEntity
8
3
100
AcDbLine
6
CONTINUOUS
62
5
10
105.124276
20
146.650377
11
118.124276
21
146.663829
0
LINE
5
714
100
AcDbEntity
8
3
100
AcDbLine
6
CONTINUOUS
62
5
10
118.124276
20
141.150377
11
105.124276
21
141.150377
0
POLYLINE
5
715
100
AcDbEntity
8
3
6
CONTINUOUS
62
5
100
AcDb2dPolyline
66
1
10
0.0
20
0.0
30
0.0
70
1
0
VERTEX
5
716
100
AcDbEntity
8
3
100
AcDbVertex
100
AcDb2dVertex
62
5
10
110.124276
20
145.650377
0
VERTEX
5
717
100
AcDbEntity
8
3
100
AcDbVertex
100
AcDb2dVertex
62
5
10
110.124276
20
144.150377
0
VERTEX
5
718
100
AcDbEntity
8
3
100
AcDbVertex
100
AcDb2dVertex
62
5
10
113.124276
20
144.150377
0
VERTEX
5
719
100
AcDbEntity
8
3
100
AcDbVertex
100
AcDb2dVertex
62
5
10
113.124276
20
145.650377
0
VERTEX
5
71a
100
AcDbEntity
8
3
100
AcDbVertex
100
AcDb2dVertex
62
5
10
114.124276
20
145.650377
0
VERTEX
5
71b
100
AcDbEntity
8
3
100
AcDbVertex
100
AcDb2dVertex
62
5
10
111.624276
20
150.005504
0
VERTEX
5
71c
100
AcDbEntity
8
3
100
AcDbVertex
100
AcDb2dVertex
62
5
10
109.124276
20
145.650377
0
SEQEND
5
71d
100
AcDbEntity
8
3
0
POLYLINE
5
71e
100
AcDbEntity
8
3
6
CONTINUOUS
62
5
100
AcDb2dPolyline
66
1
10
0.0
20
0.0
30
0.0
70
0
0
VERTEX
5
71f
100
AcDbEntity
8
3
100
AcDbVertex
100
AcDb2dVertex
62
5
10
105.124276
20
138.623941
0
VERTEX
5
720
100
AcDbEntity
8
3
100
AcDbVertex
100
AcDb2dVertex
62
5
10
105.124276
20
152.000377
0
VERTEX
5
721
100
AcDbEntity
8
3
100
AcDbVertex
100
AcDb2dVertex
62
5
10
109.224276
20
152.000377
0
VERTEX
5
722
100
AcDbEntity
8
3
100
AcDbVertex
100
AcDb2dVertex
62
5
10
109.224276
20
152.950377
0
VERTEX
5
723
100
AcDbEntity
8
3
100
AcDbVertex
100
AcDb2dVertex
62
5
10
114.024276
20
152.950377
0
VERTEX
5
724
100
AcDbEntity
8
3
100
AcDbVertex
100
AcDb2dVertex
62
5
10
114.024276
20
152.000377
0
VERTEX
5
725
100
AcDbEntity
8
3
100
AcDbVertex
100
AcDb2dVertex
62
5
10
118.124276
20
152.000377
0
VERTEX
5
726
100
AcDbEntity
8
3
100
AcDbVertex
100
AcDb2dVertex
62
5
10
118.124276
20
138.623941
0
SEQEND
5
727
100
AcDbEntity
8
3
0
POLYLINE
5
728
100
AcDbEntity
8
3
6
CONTINUOUS
62
5
100
AcDb2dPolyline
66
1
10
0.0
20
0.0
30
0.0
70
0
0
VERTEX
5
729
100
AcDbEntity
8
3
100
AcDbVertex
100
AcDb2dVertex
62
5
10
102.524276
20
138.623941
0
VERTEX
5
72a
100
AcDbEntity
8
3
100
AcDbVertex
100
AcDb2dVertex
62
5
10
120.724276
20
138.623941
0
VERTEX
5
72b
100
AcDbEntity
8
3
100
AcDbVertex
100
AcDb2dVertex
62
5
10
120.724276
20
138.600377
0
SEQEND
5
72c
100
AcDbEntity
8
3
0
LINE
5
72d
100
AcDbEntity
8
1
100
AcDbLine
6
CONTINUOUS
62
5
10
40.000000
20
340.000000
11
40.000000
21
308.000000
0
LINE
5
72e
100
AcDbEntity
8
1
100
AcDbLine
6
CONTINUOUS
62
5
10
0.000000
20
308.000000
11
320.000000
21
308.000000
0
LINE
5
72f
100
AcDbEntity
8
3
100
AcDbLine
6
CONTINUOUS
62
5
10
193.174276
20
138.600000
11
193.174276
21
161.400000
0
ARC
5
730
100
AcDbEntity
8
3
100
AcDbCircle
6
CONTINUOUS
62
5
10
197.724276
20
158.700000
40
0.500000
100
AcDbArc
50
-179.999998
51
-89.999999
0
POLYLINE
5
731
100
AcDbEntity
8
3
6
CONTINUOUS
62
5
100
AcDb2dPolyline
66
1
10
0.0
20
0.0
30
0.0
70
0
0
VERTEX
5
732
100
AcDbEntity
8
3
100
AcDbVertex
100
AcDb2dVertex
62
5
10
197.724276
20
158.200000
0
VERTEX
5
733
100
AcDbEntity
8
3
100
AcDbVertex
100
AcDb2dVertex
62
5
10
198.024276
20
158.200000
0
VERTEX
5
734
100
AcDbEntity
8
3
100
AcDbVertex
100
AcDb2dVertex
62
5
10
198.024276
20
160.700000
0
SEQEND
5
735
100
AcDbEntity
8
3
0
POLYLINE
5
736
100
AcDbEntity
8
3
6
CONTINUOUS
62
5
100
AcDb2dPolyline
66
1
10
0.0
20
0.0
30
0.0
70
0
0
VERTEX
5
737
100
AcDbEntity
8
3
100
AcDbVertex
100
AcDb2dVertex
62
5
10
202.424276
20
160.700000
0
VERTEX
5
738
100
AcDbEntity
8
3
100
AcDbVertex
100
AcDb2dVertex
62
5
10
197.224276
20
160.700000
0
VERTEX
5
739
100
AcDbEntity
8
3
100
AcDbVertex
100
AcDb2dVertex
62
5
10
197.224276
20
158.700000
0
SEQEND
5
73a
100
AcDbEntity
8
3
0
ARC
5
73b
100
AcDbEntity
8
3
100
AcDbCircle
6
CONTINUOUS
62
5
10
189.424275
20
160.634437
40
0.699999
100
AcDbArc
50
90.999981
51
-179.999986
0
LINE
5
73c
100
AcDbEntity
8
3
100
AcDbLine
6
CONTINUOUS
62
5
10
188.724276
20
160.634437
11
188.724276
21
139.365563
0
ARC
5
73d
100
AcDbEntity
8
3
100
AcDbCircle
6
CONTINUOUS
62
5
10
189.424277
20
139.365564
40
0.700001
100
AcDbArc
50
-179.999953
51
-91.000121
0
POLYLINE
5
73e
100
AcDbEntity
8
3
6
CONTINUOUS
62
5
100
AcDb2dPolyline
66
1
10
0.0
20
0.0
30
0.0
70
0
0
VERTEX
5
73f
100
AcDbEntity
8
3
100
AcDbVertex
100
AcDb2dVertex
62
5
10
189.412059
20
138.665669
0
VERTEX
5
740
100
AcDbEntity
8
3
100
AcDbVertex
100
AcDb2dVertex
62
5
10
193.174276
20
138.600000
0
VERTEX
5
741
100
AcDbEntity
8
3
100
AcDbVertex
100
AcDb2dVertex
62
5
10
202.424276
20
138.600000
0
VERTEX
5
742
100
AcDbEntity
8
3
100
AcDbVertex
100
AcDb2dVertex
62
5
10
202.424276
20
161.400000
0
VERTEX
5
743
100
AcDbEntity
8
3
100
AcDbVertex
100
AcDb2dVertex
62
5
10
193.174276
20
161.400000
0
VERTEX
5
744
100
AcDbEntity
8
3
100
AcDbVertex
100
AcDb2dVertex
62
5
10
189.412059
20
161.334330
0
SEQEND
5
745
100
AcDbEntity
8
3
0
ARC
5
746
100
AcDbEntity
8
3
100
AcDbCircle
6
CONTINUOUS
62
5
10
131.624276
20
159.700377
40
1.000000
100
AcDbArc
50
-0.000000
51
89.999999
0
LINE
5
747
100
AcDbEntity
8
3
100
AcDbLine
6
CONTINUOUS
62
5
10
132.624276
20
159.700377
11
132.624276
21
158.200377
0
LINE
5
748
100
AcDbEntity
8
3
100
AcDbLine
6
CONTINUOUS
62
5
10
125.674276
20
160.700377
11
131.624276
21
160.700377
0
ARC
5
749
100
AcDbEntity
8
3
100
AcDbCircle
6
CONTINUOUS
62
5
10
131.324276
20
160.200377
40
0.500000
100
AcDbArc
50
0.000000
51
89.999999
0
LINE
5
74a
100
AcDbEntity
8
3
100
AcDbLine
6
CONTINUOUS
62
5
10
131.824276
20
160.200377
11
131.824276
21
158.700377
0
ARC
5
74b
100
AcDbEntity
8
3
100
AcDbCircle
6
CONTINUOUS
62
5
10
132.324276
20
158.700377
40
0.500000
100
AcDbArc
50
-179.999998
51
-89.999999
0
ARC
5
74c
100
AcDbEntity
8
3
100
AcDbCircle
6
CONTINUOUS
62
5
10
91.924276
20
160.200377
40
0.500000
100
AcDbArc
50
89.999999
51
179.999998
0
LINE
5
74d
100
AcDbEntity
8
3
100
AcDbLine
6
CONTINUOUS
62
5
10
91.424276
20
160.200377
11
91.424276
21
158.700377
0
ARC
5
74e
100
AcDbEntity
8
3
100
AcDbCircle
6
CONTINUOUS
62
5
10
90.924276
20
158.700377
40
0.500000
100
AcDbArc
50
-89.999999
51
-0.000000
0
ARC
5
74f
100
AcDbEntity
8
3
100
AcDbCircle
6
CONTINUOUS
62
5
10
91.624276
20
159.700377
40
1.000000
100
AcDbArc
50
89.999999
51
-179.999998
0
LINE
5
750
100
AcDbEntity
8
3
100
AcDbLine
6
CONTINUOUS
62
5
10
90.624276
20
159.700377
11
90.624276
21
158.200377
0
LINE
5
751
100
AcDbEntity
8
3
100
AcDbLine
6
CONTINUOUS
62
5
10
97.574276
20
160.700377
11
91.624276
21
160.700377
0
ARC
5
752
100
AcDbEntity
8
3
100
AcDbCircle
6
CONTINUOUS
62
5
10
124.974276
20
160.700376
40
0.284384
100
AcDbArc
50
0.000000
51
89.999999
0
LINE
5
753
100
AcDbEntity
8
3
100
AcDbLine
6
CONTINUOUS
62
5
10
125.258660
20
160.700376
11
125.258660
21
139.300377
0
ARC
5
754
100
AcDbEntity
8
3
100
AcDbCircle
6
CONTINUOUS
62
5
10
124.974276
20
139.300377
40
0.284384
100
AcDbArc
50
-89.999999
51
0.000000
0
LINE
5
755
100
AcDbEntity
8
3
100
AcDbLine
6
CONTINUOUS
62
5
10
124.974276
20
139.015993
11
98.274277
21
139.015993
0
ARC
5
756
100
AcDbEntity
8
3
100
AcDbCircle
6
CONTINUOUS
62
5
10
98.274277
20
139.300377
40
0.284384
100
AcDbArc
50
179.999998
51
-89.999999
0
LINE
5
757
100
AcDbEntity
8
3
100
AcDbLine
6
CONTINUOUS
62
5
10
97.989893
20
139.300377
11
97.989893
21
160.700376
0
ARC
5
758
100
AcDbEntity
8
3
100
AcDbCircle
6
CONTINUOUS
62
5
10
98.274277
20
160.700376
40
0.284384
100
AcDbArc
50
89.999999
51
179.999998
0
LINE
5
759
100
AcDbEntity
8
3
100
AcDbLine
6
CONTINUOUS
62
5
10
98.274277
20
160.984760
11
124.974276
21
160.984760
0
ARC
5
75a
100
AcDbEntity
8
3
100
AcDbCircle
6
CONTINUOUS
62
5
10
124.974276
20
139.300377
40
0.700000
100
AcDbArc
50
-89.999999
51
0.000000
0
LINE
5
75b
100
AcDbEntity
8
3
100
AcDbLine
6
CONTINUOUS
62
5
10
125.674276
20
139.300377
11
125.674276
21
160.700377
0
ARC
5
75c
100
AcDbEntity
8
3
100
AcDbCircle
6
CONTINUOUS
62
5
10
124.974276
20
160.700377
40
0.700000
100
AcDbArc
50
0.000000
51
89.999999
0
LINE
5
75d
100
AcDbEntity
8
3
100
AcDbLine
6
CONTINUOUS
62
5
10
124.974276
20
161.400377
11
98.274276
21
161.400377
0
ARC
5
75e
100
AcDbEntity
8
3
100
AcDbCircle
6
CONTINUOUS
62
5
10
98.274276
20
160.700377
40
0.700000
100
AcDbArc
50
89.999999
51
179.999998
0
LINE
5
75f
100
AcDbEntity
8
3
100
AcDbLine
6
CONTINUOUS
62
5
10
97.574276
20
160.700377
11
97.574276
21
139.300377
0
ARC
5
760
100
AcDbEntity
8
3
100
AcDbCircle
6
CONTINUOUS
62
5
10
98.274276
20
139.300377
40
0.700000
100
AcDbArc
50
179.999998
51
-89.999999
0
LINE
5
761
100
AcDbEntity
8
3
100
AcDbLine
6
CONTINUOUS
62
5
10
98.274276
20
138.600377
11
124.974276
21
138.600377
0
LINE
5
762
100
AcDbEntity
8
3
100
AcDbLine
6
CONTINUOUS
62
5
10
197.224276
20
162.200000
11
197.224276
21
188.400377
0
LINE
5
763
100
AcDbEntity
8
3
100
AcDbLine
6
CONTINUOUS
62
5
10
230.524276
20
148.232385
11
230.524276
21
188.400377
0
POLYLINE
5
764
100
AcDbEntity
8
3
6
CONTINUOUS
62
5
100
AcDb2dPolyline
66
1
10
0.0
20
0.0
30
0.0
70
0
0
VERTEX
5
765
100
AcDbEntity
8
3
100
AcDbVertex
100
AcDb2dVertex
62
5
10
261.725724
20
186.400377
0
VERTEX
5
766
100
AcDbEntity
8
3
100
AcDbVertex
100
AcDb2dVertex
62
5
10
230.524276
20
186.400377
0
VERTEX
5
767
100
AcDbEntity
8
3
100
AcDbVertex
100
AcDb2dVertex
62
5
10
236.524276
20
187.400377
0
VERTEX
5
768
100
AcDbEntity
8
3
100
AcDbVertex
100
AcDb2dVertex
62
5
10
236.524276
20
185.400377
0
VERTEX
5
769
100
AcDbEntity
8
3
100
AcDbVertex
100
AcDb2dVertex
62
5
10
230.524276
20
186.400377
0
VERTEX
5
76a
100
AcDbEntity
8
3
100
AcDbVertex
100
AcDb2dVertex
62
5
10
236.524276
20
186.900377
0
VERTEX
5
76b
100
AcDbEntity
8
3
100
AcDbVertex
100
AcDb2dVertex
62
5
10
236.524276
20
185.900377
0
VERTEX
5
76c
100
AcDbEntity
8
3
100
AcDbVertex
100
AcDb2dVertex
62
5
10
230.524276
20
186.400377
0
SEQEND
5
76d
100
AcDbEntity
8
3
0
LINE
5
76e
100
AcDbEntity
8
3
100
AcDbLine
6
CONTINUOUS
62
5
10
230.524276
20
186.400377
11
197.224276
21
186.400377
0
LINE
5
76f
100
AcDbEntity
8
3
100
AcDbLine
6
CONTINUOUS
62
5
10
194.224276
20
186.400377
11
197.224276
21
186.400377
0
LINE
5
770
100
AcDbEntity
8
3
100
AcDbLine
6
CONTINUOUS
62
5
10
96.774276
20
161.400377
11
62.524276
21
161.400377
0
LINE
5
771
100
AcDbEntity
8
3
100
AcDbLine
6
CONTINUOUS
62
5
10
96.774276
20
138.600377
11
62.524276
21
138.600377
0
POLYLINE
5
772
100
AcDbEntity
8
3
6
CONTINUOUS
62
5
100
AcDb2dPolyline
66
1
10
0.0
20
0.0
30
0.0
70
0
0
VERTEX
5
773
100
AcDbEntity
8
3
100
AcDbVertex
100
AcDb2dVertex
62
5
10
64.524276
20
192.650377
0
VERTEX
5
774
100
AcDbEntity
8
3
100
AcDbVertex
100
AcDb2dVertex
62
5
10
64.524276
20
161.400377
0
VERTEX
5
775
100
AcDbEntity
8
3
100
AcDbVertex
100
AcDb2dVertex
62
5
10
63.524276
20
167.400377
0
VERTEX
5
776
100
AcDbEntity
8
3
100
AcDbVertex
100
AcDb2dVertex
62
5
10
65.524276
20
167.400377
0
VERTEX
5
777
100
AcDbEntity
8
3
100
AcDbVertex
100
AcDb2dVertex
62
5
10
64.524276
20
161.400377
0
VERTEX
5
778
100
AcDbEntity
8
3
100
AcDbVertex
100
AcDb2dVertex
62
5
10
64.024276
20
167.400377
0
VERTEX
5
779
100
AcDbEntity
8
3
100
AcDbVertex
100
AcDb2dVertex
62
5
10
65.024276
20
167.400377
0
VERTEX
5
77a
100
AcDbEntity
8
3
100
AcDbVertex
100
AcDb2dVertex
62
5
10
64.524276
20
161.400377
0
SEQEND
5
77b
100
AcDbEntity
8
3
0
LINE
5
77c
100
AcDbEntity
8
3
100
AcDbLine
6
CONTINUOUS
62
5
10
64.524276
20
138.600377
11
64.524276
21
161.400377
0
POLYLINE
5
77d
100
AcDbEntity
8
3
6
CONTINUOUS
62
5
100
AcDb2dPolyline
66
1
10
0.0
20
0.0
30
0.0
70
0
0
VERTEX
5
77e
100
AcDbEntity
8
3
100
AcDbVertex
100
AcDb2dVertex
62
5
10
64.524276
20
129.600377
0
VERTEX
5
77f
100
AcDbEntity
8
3
100
AcDbVertex
100
AcDb2dVertex
62
5
10
64.524276
20
138.600377
0
VERTEX
5
780
100
AcDbEntity
8
3
100
AcDbVertex
100
AcDb2dVertex
62
5
10
65.524276
20
132.600377
0
VERTEX
5
781
100
AcDbEntity
8
3
100
AcDbVertex
100
AcDb2dVertex
62
5
10
63.524276
20
132.600377
0
VERTEX
5
782
100
AcDbEntity
8
3
100
AcDbVertex
100
AcDb2dVertex
62
5
10
64.524276
20
138.600377
0
VERTEX
5
783
100
AcDbEntity
8
3
100
AcDbVertex
100
AcDb2dVertex
62
5
10
65.024276
20
132.600377
0
VERTEX
5
784
100
AcDbEntity
8
3
100
AcDbVertex
100
AcDb2dVertex
62
5
10
64.024276
20
132.600377
0
VERTEX
5
785
100
AcDbEntity
8
3
100
AcDbVertex
100
AcDb2dVertex
62
5
10
64.524276
20
138.600377
0
SEQEND
5
786
100
AcDbEntity
8
3
0
POLYLINE
5
787
100
AcDbEntity
8
1
6
CONTINUOUS
62
5
100
AcDb2dPolyline
66
1
10
0.0
20
0.0
30
0.0
70
1
0
VERTEX
5
788
100
AcDbEntity
8
1
100
AcDbVertex
100
AcDb2dVertex
62
5
10
0.000000
20
0.000000
0
VERTEX
5
789
100
AcDbEntity
8
1
100
AcDbVertex
100
AcDb2dVertex
62
5
10
0.000000
20
340.000000
0
VERTEX
5
78a
100
AcDbEntity
8
1
100
AcDbVertex
100
AcDb2dVertex
62
5
10
320.000000
20
340.000000
0
VERTEX
5
78b
100
AcDbEntity
8
1
100
AcDbVertex
100
AcDb2dVertex
62
5
10
320.000000
20
0.000000
0
VERTEX
5
78c
100
AcDbEntity
8
1
100
AcDbVertex
100
AcDb2dVertex
62
5
10
0.000000
20
0.000000
0
SEQEND
5
78d
100
AcDbEntity
8
1
0
ENDSEC
0
SECTION
2
OBJECTS
0
DICTIONARY
5
78e
100
AcDbDictionary
3
ACAD_GROUP
350
78f
3
ACAD_MLINESTYLE
350
790
0
DICTIONARY
5
78f
102
{ACAD_REACTORS
330
78e
102
}
100
AcDbDictionary
0
DICTIONARY
5
790
102
{ACAD_REACTORS
330
78e
102
}
100
AcDbDictionary
3
STANDARD
350
791
0
MLINESTYLE
5
791
102
{ACAD_REACTORS
330
790
102
}
100
AcDbMlineStyle
2
STANDARD
70
0
3

62
0
51
90.0
52
90.0
71
2
49
0.5
62
256
6
BYLAYER
49
-0.5
62
256
6
BYLAYER
0
ENDSEC
0
EOF
