0
SECTION
2
HEADER
9
$ACADVER
1
AC1012
9
$EXTMIN
10
-0.013701
20
-0.013701
30
0.0
9
$EXTMAX
10
12.606299
20
13.386299
30
0.0
9
$LIMMIN
10
-0.348005
20
-0.348005
9
$LIMMAX
10
320.199995
20
340.011995
9
$DIMSCALE
40
1.000000
9
$PDMODE
70
2
9
$PDSIZE
40
0.0
  9
$HANDSEED
  5
555
0
ENDSEC
0
SECTION
2
CLASSES
0
ENDSEC
0
SECTION
2
TABLES
0
TABLE
2
LTYPE
5
1e
100
AcDbSymbolTable
70
12
0
LTYPE
5
1f
100
AcDbSymbolTableRecord
100
AcDbLinetypeTableRecord
2
BYBLOCK
70
0
3

72
65
73
0
40
0.0
0
LTYPE
5
20
100
AcDbSymbolTableRecord
100
AcDbLinetypeTableRecord
2
BYLAYER
70
0
3

72
65
73
0
40
0.0
0
LTYPE
5
21
100
AcDbSymbolTableRecord
100
AcDbLinetypeTableRecord
2
CONTINUOUS
70
64
3
Solid line
72
65
73
0
40
0.0
0
LTYPE
5
22
100
AcDbSymbolTableRecord
100
AcDbLinetypeTableRecord
2
DASHED
70
64
3
__ __ __ __ __ __ __ __ __ __ __ __ __ __ __
72
65
73
2
40
0.75
49
0.5
74
0
49
-0.25
74
0
0
LTYPE
5
23
100
AcDbSymbolTableRecord
100
AcDbLinetypeTableRecord
2
DOT
70
64
3
...............................................
72
65
73
2
40
0.25
49
0.0
74
0
49
-0.25
74
0
0
LTYPE
5
24
100
AcDbSymbolTableRecord
100
AcDbLinetypeTableRecord
2
DASHDOT
70
64
3
__ . __ . __ . __ . __ . __ . __ . __ . __ . --
72
65
73
4
40
1.0
49
0.5
74
0
49
-0.25
74
0
49
0.0
74
0
49
-0.25
74
0
0
LTYPE
5
25
100
AcDbSymbolTableRecord
100
AcDbLinetypeTableRecord
2
CENTER
70
64
3
____ _ ____ _ ____ _ ____ _ ____ _ ____ _ ____
72
65
73
4
40
2.0
49
1.25
74
0
49
-0.25
74
0
49
0.25
74
0
49
-0.25
74
0
0
LTYPE
5
26
100
AcDbSymbolTableRecord
100
AcDbLinetypeTableRecord
2
PHANTOM
70
64
3
_____ _ _ _____ _ _ _____ _ _ _____ _ _ ____
72
65
73
6
40
2.5
49
1.25
74
0
49
-0.25
74
0
49
0.25
74
0
49
-0.25
74
0
49
0.25
74
0
49
-0.25
74
0
0
LTYPE
5
27
100
AcDbSymbolTableRecord
100
AcDbLinetypeTableRecord
2
HIDDEN
70
64
3
_ _ _ _ _ _ _ _ _ _ _ _ _ _ _ _ _ _ _ _ _ _ _
72
65
73
2
40
0.375
49
0.25
74
0
49
-0.125
74
0
0
LTYPE
5
28
100
AcDbSymbolTableRecord
100
AcDbLinetypeTableRecord
2
BORDER
70
64
3
__ __ . __ __ . __ __ . __ __ . __ __ . __ __
72
65
73
6
40
1.75
49
0.5
74
0
49
-0.25
74
0
49
0.5
74
0
49
-0.25
74
0
49
0.0
74
0
49
-0.25
74
0
0
LTYPE
5
29
100
AcDbSymbolTableRecord
100
AcDbLinetypeTableRecord
2
DIVIDE
70
64
3
__ . . __ . . __ . . __ . . __ . . __ . . __
72
65
73
6
40
1.25
49
0.5
74
0
49
-0.25
74
0
49
0.0
74
0
49
-0.25
74
0
49
0.0
74
0
49
-0.25
74
0
0
LTYPE
5
2a
100
AcDbSymbolTableRecord
100
AcDbLinetypeTableRecord
2
DOT2
70
64
3
...............................................
72
65
73
2
40
0.125
49
0.0
74
0
49
-0.125
74
0
0
ENDTAB
0
TABLE
2
STYLE
5
2b
100
AcDbSymbolTable
70
1
0
STYLE
5
2c
100
AcDbSymbolTableRecord
100
AcDbTextStyleTableRecord
2
STANDARD
70
64
40
0.0
41
1.0
50
0.0
71
0
42
5.0
3
txt
4
bigfont
0
ENDTAB
0
TABLE
2
LAYER
5
2d
100
AcDbSymbolTable
70
4
0
LAYER
5
2e
100
AcDbSymbolTableRecord
100
AcDbLayerTableRecord
2
0
70
0
62
7
6
CONTINUOUS
0
LAYER
5
2f
100
AcDbSymbolTableRecord
100
AcDbLayerTableRecord
2
1
70
0
62
7
6
CONTINUOUS
0
LAYER
5
30
100
AcDbSymbolTableRecord
100
AcDbLayerTableRecord
2
0
70
0
62
7
6
CONTINUOUS
0
LAYER
5
31
100
AcDbSymbolTableRecord
100
AcDbLayerTableRecord
2
3
70
0
62
7
6
CONTINUOUS
0
ENDTAB
0
TABLE
2
APPID
5
32
100
AcDbSymbolTable
70
1
0
APPID
5
33
100
AcDbSymbolTableRecord
100
AcDbRegAppTableRecord
2
ACAD
70
64
0
ENDTAB
0
TABLE
2
DIMSTYLE
5
34
100
AcDbSymbolTable
70
0
0
ENDTAB
0
TABLE
2
UCS
5
35
100
AcDbSymbolTable
70
0
0
ENDTAB
0
TABLE
2
VIEW
5
36
100
AcDbSymbolTable
70
0
0
ENDTAB
0
TABLE
2
VPORT
5
37
100
AcDbSymbolTable
70
0
0
ENDTAB
0
TABLE
2
BLOCK_RECORD
5
38
100
AcDbSymbolTable
70
0
0
BLOCK_RECORD
5
39
100
AcDbSymbolTableRecord
100
AcDbBlockTableRecord
2
*MODEL_SPACE
0
BLOCK_RECORD
5
3a
100
AcDbSymbolTableRecord
100
AcDbBlockTableRecord
2
*PAPER_SPACE
0
BLOCK_RECORD
5
3b
100
AcDbSymbolTableRecord
100
AcDbBlockTableRecord
2
OPEN
0
BLOCK_RECORD
5
3c
100
AcDbSymbolTableRecord
100
AcDbBlockTableRecord
2
HALF
0
BLOCK_RECORD
5
3d
100
AcDbSymbolTableRecord
100
AcDbBlockTableRecord
2
CLOSEDBLANK
0
BLOCK_RECORD
5
3e
100
AcDbSymbolTableRecord
100
AcDbBlockTableRecord
2
HALFCLOSE_R
0
BLOCK_RECORD
5
3f
100
AcDbSymbolTableRecord
100
AcDbBlockTableRecord
2
DOT
0
BLOCK_RECORD
5
40
100
AcDbSymbolTableRecord
100
AcDbBlockTableRecord
2
HALFOPEN_R
0
BLOCK_RECORD
5
41
100
AcDbSymbolTableRecord
100
AcDbBlockTableRecord
2
CLOSEDF
0
BLOCK_RECORD
5
42
100
AcDbSymbolTableRecord
100
AcDbBlockTableRecord
2
HALF_R
0
ENDTAB
0
ENDSEC
0
SECTION
2
BLOCKS
0
BLOCK
5
43
100
AcDbEntity
8
0
100
AcDbBlockBegin
2
*MODEL_SPACE
70
0
10
0.0
20
0.0
30
0.0
3
*MODEL_SPACE
1

0
ENDBLK
5
44
100
AcDbEntity
8
0
100
AcDbBlockEnd
0
BLOCK
5
45
100
AcDbEntity
67
1
8
0
100
AcDbBlockBegin
2
*PAPER_SPACE
70
0
10
0.0
20
0.0
30
0.0
3
*PAPER_SPACE
1

0
ENDBLK
5
46
100
AcDbEntity
67
1
8
0
100
AcDbBlockEnd
0
BLOCK
5
47
100
AcDbEntity
8
0
100
AcDbBlockBegin
2
OPEN
70
0
10
0.0
20
0.0
30
0.0
3
OPEN
1

0
LINE
5
48
100
AcDbEntity
8
0
6
BYBLOCK
62
0
100
AcDbLine
10
0.000000
20
0.000000
11
-1.000000
21
0.000000
0
LINE
5
49
100
AcDbEntity
8
0
6
BYBLOCK
62
0
100
AcDbLine
10
-1.000000
20
-0.166667
11
0.000000
21
0.000000
0
LINE
5
4a
100
AcDbEntity
8
0
6
BYBLOCK
62
0
100
AcDbLine
10
-1.000000
20
0.166667
11
0.000000
21
0.000000
0
ENDBLK
5
4b
100
AcDbEntity
8
0
100
AcDbBlockEnd
0
BLOCK
5
4c
100
AcDbEntity
8
0
100
AcDbBlockBegin
2
HALF
70
0
10
0.0
20
0.0
30
0.0
3
HALF
1

0
SOLID
5
4d
100
AcDbEntity
8
0
6
BYBLOCK
62
0
100
AcDbTrace
10
-1.000000
20
0.166667
11
-1.000000
21
-0.166667
12
0.000000
22
0.000000
13
0.000000
23
0.000000
0
ENDBLK
5
4e
100
AcDbEntity
8
0
100
AcDbBlockEnd
0
BLOCK
5
4f
100
AcDbEntity
8
0
100
AcDbBlockBegin
2
CLOSEDBLANK
70
0
10
0.0
20
0.0
30
0.0
3
CLOSEDBLANK
1

0
LINE
5
50
100
AcDbEntity
8
0
6
BYBLOCK
62
0
100
AcDbLine
10
-1.000000
20
0.166667
11
-1.000000
21
-0.166667
0
LINE
5
51
100
AcDbEntity
8
0
6
BYBLOCK
62
0
100
AcDbLine
10
0.000000
20
0.000000
11
-1.000000
21
-0.166667
0
LINE
5
52
100
AcDbEntity
8
0
6
BYBLOCK
62
0
100
AcDbLine
10
-1.000000
20
0.166667
11
0.000000
21
0.000000
0
ENDBLK
5
53
100
AcDbEntity
8
0
100
AcDbBlockEnd
0
BLOCK
5
54
100
AcDbEntity
8
0
100
AcDbBlockBegin
2
HALFCLOSE_R
70
0
10
0.0
20
0.0
30
0.0
3
HALFCLOSE_R
1

0
LINE
5
55
100
AcDbEntity
8
0
6
BYBLOCK
62
0
100
AcDbLine
10
-1.000000
20
-0.166667
11
-1.000000
21
0.000000
0
LINE
5
56
100
AcDbEntity
8
0
6
BYBLOCK
62
0
100
AcDbLine
10
-1.000000
20
-0.166667
11
0.000000
21
0.000000
0
LINE
5
57
100
AcDbEntity
8
0
6
BYBLOCK
62
0
100
AcDbLine
10
0.000000
20
0.000000
11
-1.000000
21
0.000000
0
ENDBLK
5
58
100
AcDbEntity
8
0
100
AcDbBlockEnd
0
BLOCK
5
59
100
AcDbEntity
8
0
100
AcDbBlockBegin
2
DOT
70
0
10
0.0
20
0.0
30
0.0
3
DOT
1

0
LINE
5
5a
100
AcDbEntity
8
0
6
BYBLOCK
62
0
100
AcDbLine
10
0.000000
20
0.000000
11
-1.000000
21
0.000000
0
POLYLINE
5
5b
100
AcDbEntity
8
0
6
BYBLOCK
62
0
100
AcDb2dPolyline
66
1
10
0.0
20
0.0
30
0.0
70
1
40
0.166667
41
0.166667
0
VERTEX
5
5c
100
AcDbEntity
8
0
100
AcDbVertex
100
AcDb2dVertex
62
10
10
-0.083333
20
0.000000
42
1.000000
0
VERTEX
5
5d
100
AcDbEntity
8
0
100
AcDbVertex
100
AcDb2dVertex
62
10
10
0.083333
20
0.000000
42
1.000000
0
SEQEND
5
5e
100
AcDbEntity
8
0
0
ENDBLK
5
5f
100
AcDbEntity
8
0
100
AcDbBlockEnd
0
BLOCK
5
60
100
AcDbEntity
8
0
100
AcDbBlockBegin
2
HALFOPEN_R
70
0
10
0.0
20
0.0
30
0.0
3
HALFOPEN_R
1

0
LINE
5
61
100
AcDbEntity
8
0
6
BYBLOCK
62
0
100
AcDbLine
10
-1.000000
20
-0.166667
11
0.000000
21
0.000000
0
LINE
5
62
100
AcDbEntity
8
0
6
BYBLOCK
62
0
100
AcDbLine
10
0.000000
20
0.000000
11
-1.000000
21
0.000000
0
ENDBLK
5
63
100
AcDbEntity
8
0
100
AcDbBlockEnd
0
BLOCK
5
64
100
AcDbEntity
8
0
100
AcDbBlockBegin
2
CLOSEDF
70
0
10
0.0
20
0.0
30
0.0
3
CLOSEDF
1

0
SOLID
5
65
100
AcDbEntity
8
0
6
BYBLOCK
62
0
100
AcDbTrace
10
-1.000000
20
0.166667
11
-1.000000
21
-0.166667
12
0.000000
22
0.000000
13
0.000000
23
0.000000
0
ENDBLK
5
66
100
AcDbEntity
8
0
100
AcDbBlockEnd
0
BLOCK
5
67
100
AcDbEntity
8
0
100
AcDbBlockBegin
2
HALF_R
70
0
10
0.0
20
0.0
30
0.0
3
HALF_R
1

0
SOLID
5
68
100
AcDbEntity
8
0
6
BYBLOCK
62
0
100
AcDbTrace
10
-1.000000
20
-0.166667
11
-1.000000
21
0.000000
12
0.000000
22
0.000000
13
0.000000
23
0.000000
0
ENDBLK
5
69
100
AcDbEntity
8
0
100
AcDbBlockEnd
0
ENDSEC
0
SECTION
2
ENTITIES
0
LINE
5
6a
100
AcDbEntity
8
1
100
AcDbLine
6
CONTINUOUS
62
5
10
204.250000
20
329.312500
11
204.250000
21
327.750000
0
LINE
5
6b
100
AcDbEntity
8
1
100
AcDbLine
6
CONTINUOUS
62
5
10
202.250000
20
327.750000
11
206.000000
21
327.750000
0
POLYLINE
5
6c
100
AcDbEntity
8
1
6
CONTINUOUS
62
5
100
AcDb2dPolyline
66
1
10
0.0
20
0.0
30
0.0
70
0
0
VERTEX
5
6d
100
AcDbEntity
8
1
100
AcDbVertex
100
AcDb2dVertex
62
5
10
205.250000
20
327.125000
0
VERTEX
5
6e
100
AcDbEntity
8
1
100
AcDbVertex
100
AcDb2dVertex
62
5
10
205.000000
20
325.562500
0
VERTEX
5
6f
100
AcDbEntity
8
1
100
AcDbVertex
100
AcDb2dVertex
62
5
10
204.250000
20
324.000000
0
VERTEX
5
70
100
AcDbEntity
8
1
100
AcDbVertex
100
AcDb2dVertex
62
5
10
203.250000
20
322.125000
0
VERTEX
5
71
100
AcDbEntity
8
1
100
AcDbVertex
100
AcDb2dVertex
62
5
10
202.500000
20
321.187500
0
SEQEND
5
72
100
AcDbEntity
8
1
0
POLYLINE
5
73
100
AcDbEntity
8
1
6
CONTINUOUS
62
5
100
AcDb2dPolyline
66
1
10
0.0
20
0.0
30
0.0
70
0
0
VERTEX
5
74
100
AcDbEntity
8
1
100
AcDbVertex
100
AcDb2dVertex
62
5
10
205.500000
20
322.437500
0
VERTEX
5
75
100
AcDbEntity
8
1
100
AcDbVertex
100
AcDb2dVertex
62
5
10
204.250000
20
324.000000
0
VERTEX
5
76
100
AcDbEntity
8
1
100
AcDbVertex
100
AcDb2dVertex
62
5
10
202.750000
20
326.187500
0
SEQEND
5
77
100
AcDbEntity
8
1
0
LINE
5
78
100
AcDbEntity
8
1
100
AcDbLine
6
CONTINUOUS
62
5
10
206.000000
20
326.812500
11
209.500000
21
326.812500
0
POLYLINE
5
79
100
AcDbEntity
8
1
6
CONTINUOUS
62
5
100
AcDb2dPolyline
66
1
10
0.0
20
0.0
30
0.0
70
0
0
VERTEX
5
7a
100
AcDbEntity
8
1
100
AcDbVertex
100
AcDb2dVertex
62
5
10
208.500000
20
329.625000
0
VERTEX
5
7b
100
AcDbEntity
8
1
100
AcDbVertex
100
AcDb2dVertex
62
5
10
208.500000
20
321.500000
0
VERTEX
5
7c
100
AcDbEntity
8
1
100
AcDbVertex
100
AcDb2dVertex
62
5
10
208.000000
20
320.875000
0
VERTEX
5
7d
100
AcDbEntity
8
1
100
AcDbVertex
100
AcDb2dVertex
62
5
10
207.500000
20
320.875000
0
SEQEND
5
7e
100
AcDbEntity
8
1
0
LINE
5
7f
100
AcDbEntity
8
1
100
AcDbLine
6
CONTINUOUS
62
5
10
207.000000
20
324.000000
11
206.000000
21
325.562500
0
POLYLINE
5
80
100
AcDbEntity
8
1
6
CONTINUOUS
62
5
100
AcDb2dPolyline
66
1
10
0.0
20
0.0
30
0.0
70
0
0
VERTEX
5
81
100
AcDbEntity
8
1
100
AcDbVertex
100
AcDb2dVertex
62
5
10
191.000000
20
325.875000
0
VERTEX
5
82
100
AcDbEntity
8
1
100
AcDbVertex
100
AcDb2dVertex
62
5
10
191.500000
20
326.500000
0
VERTEX
5
83
100
AcDbEntity
8
1
100
AcDbVertex
100
AcDb2dVertex
62
5
10
192.000000
20
326.812500
0
VERTEX
5
84
100
AcDbEntity
8
1
100
AcDbVertex
100
AcDb2dVertex
62
5
10
192.500000
20
326.812500
0
VERTEX
5
85
100
AcDbEntity
8
1
100
AcDbVertex
100
AcDb2dVertex
62
5
10
193.000000
20
326.500000
0
VERTEX
5
86
100
AcDbEntity
8
1
100
AcDbVertex
100
AcDb2dVertex
62
5
10
193.250000
20
325.875000
0
VERTEX
5
87
100
AcDbEntity
8
1
100
AcDbVertex
100
AcDb2dVertex
62
5
10
193.250000
20
321.812500
0
VERTEX
5
88
100
AcDbEntity
8
1
100
AcDbVertex
100
AcDb2dVertex
62
5
10
193.500000
20
321.500000
0
VERTEX
5
89
100
AcDbEntity
8
1
100
AcDbVertex
100
AcDb2dVertex
62
5
10
193.750000
20
321.500000
0
VERTEX
5
8a
100
AcDbEntity
8
1
100
AcDbVertex
100
AcDb2dVertex
62
5
10
194.000000
20
321.812500
0
VERTEX
5
8b
100
AcDbEntity
8
1
100
AcDbVertex
100
AcDb2dVertex
62
5
10
194.000000
20
322.437500
0
SEQEND
5
8c
100
AcDbEntity
8
1
0
POLYLINE
5
8d
100
AcDbEntity
8
1
6
CONTINUOUS
62
5
100
AcDb2dPolyline
66
1
10
0.0
20
0.0
30
0.0
70
0
0
VERTEX
5
8e
100
AcDbEntity
8
1
100
AcDbVertex
100
AcDb2dVertex
62
5
10
193.250000
20
324.625000
0
VERTEX
5
8f
100
AcDbEntity
8
1
100
AcDbVertex
100
AcDb2dVertex
62
5
10
192.250000
20
324.625000
0
VERTEX
5
90
100
AcDbEntity
8
1
100
AcDbVertex
100
AcDb2dVertex
62
5
10
191.500000
20
324.312500
0
VERTEX
5
91
100
AcDbEntity
8
1
100
AcDbVertex
100
AcDb2dVertex
62
5
10
191.000000
20
323.375000
0
VERTEX
5
92
100
AcDbEntity
8
1
100
AcDbVertex
100
AcDb2dVertex
62
5
10
191.000000
20
322.437500
0
VERTEX
5
93
100
AcDbEntity
8
1
100
AcDbVertex
100
AcDb2dVertex
62
5
10
191.250000
20
321.812500
0
VERTEX
5
94
100
AcDbEntity
8
1
100
AcDbVertex
100
AcDb2dVertex
62
5
10
191.750000
20
321.500000
0
VERTEX
5
95
100
AcDbEntity
8
1
100
AcDbVertex
100
AcDb2dVertex
62
5
10
192.250000
20
321.500000
0
VERTEX
5
96
100
AcDbEntity
8
1
100
AcDbVertex
100
AcDb2dVertex
62
5
10
192.750000
20
321.812500
0
VERTEX
5
97
100
AcDbEntity
8
1
100
AcDbVertex
100
AcDb2dVertex
62
5
10
193.250000
20
322.437500
0
SEQEND
5
98
100
AcDbEntity
8
1
0
POLYLINE
5
99
100
AcDbEntity
8
1
6
CONTINUOUS
62
5
100
AcDb2dPolyline
66
1
10
0.0
20
0.0
30
0.0
70
0
0
VERTEX
5
9a
100
AcDbEntity
8
1
100
AcDbVertex
100
AcDb2dVertex
62
5
10
196.000000
20
328.375000
0
VERTEX
5
9b
100
AcDbEntity
8
1
100
AcDbVertex
100
AcDb2dVertex
62
5
10
196.000000
20
322.437500
0
VERTEX
5
9c
100
AcDbEntity
8
1
100
AcDbVertex
100
AcDb2dVertex
62
5
10
196.250000
20
321.812500
0
VERTEX
5
9d
100
AcDbEntity
8
1
100
AcDbVertex
100
AcDb2dVertex
62
5
10
196.500000
20
321.500000
0
VERTEX
5
9e
100
AcDbEntity
8
1
100
AcDbVertex
100
AcDb2dVertex
62
5
10
197.000000
20
321.500000
0
VERTEX
5
9f
100
AcDbEntity
8
1
100
AcDbVertex
100
AcDb2dVertex
62
5
10
197.250000
20
321.812500
0
VERTEX
5
a0
100
AcDbEntity
8
1
100
AcDbVertex
100
AcDb2dVertex
62
5
10
197.500000
20
322.437500
0
SEQEND
5
a1
100
AcDbEntity
8
1
0
LINE
5
a2
100
AcDbEntity
8
1
100
AcDbLine
6
CONTINUOUS
62
5
10
194.750000
20
326.500000
11
197.250000
21
326.500000
0
POLYLINE
5
a3
100
AcDbEntity
8
1
6
CONTINUOUS
62
5
100
AcDb2dPolyline
66
1
10
0.0
20
0.0
30
0.0
70
0
0
VERTEX
5
a4
100
AcDbEntity
8
1
100
AcDbVertex
100
AcDb2dVertex
62
5
10
201.000000
20
329.000000
0
VERTEX
5
a5
100
AcDbEntity
8
1
100
AcDbVertex
100
AcDb2dVertex
62
5
10
200.250000
20
329.000000
0
VERTEX
5
a6
100
AcDbEntity
8
1
100
AcDbVertex
100
AcDb2dVertex
62
5
10
199.500000
20
328.687500
0
VERTEX
5
a7
100
AcDbEntity
8
1
100
AcDbVertex
100
AcDb2dVertex
62
5
10
199.000000
20
327.437500
0
VERTEX
5
a8
100
AcDbEntity
8
1
100
AcDbVertex
100
AcDb2dVertex
62
5
10
199.000000
20
323.062500
0
VERTEX
5
a9
100
AcDbEntity
8
1
100
AcDbVertex
100
AcDb2dVertex
62
5
10
199.250000
20
322.125000
0
VERTEX
5
aa
100
AcDbEntity
8
1
100
AcDbVertex
100
AcDb2dVertex
62
5
10
199.500000
20
321.812500
0
VERTEX
5
ab
100
AcDbEntity
8
1
100
AcDbVertex
100
AcDb2dVertex
62
5
10
200.000000
20
321.500000
0
VERTEX
5
ac
100
AcDbEntity
8
1
100
AcDbVertex
100
AcDb2dVertex
62
5
10
200.500000
20
321.500000
0
VERTEX
5
ad
100
AcDbEntity
8
1
100
AcDbVertex
100
AcDb2dVertex
62
5
10
201.000000
20
321.812500
0
VERTEX
5
ae
100
AcDbEntity
8
1
100
AcDbVertex
100
AcDb2dVertex
62
5
10
201.250000
20
322.125000
0
VERTEX
5
af
100
AcDbEntity
8
1
100
AcDbVertex
100
AcDb2dVertex
62
5
10
201.500000
20
323.062500
0
VERTEX
5
b0
100
AcDbEntity
8
1
100
AcDbVertex
100
AcDb2dVertex
62
5
10
201.500000
20
324.937500
0
VERTEX
5
b1
100
AcDbEntity
8
1
100
AcDbVertex
100
AcDb2dVertex
62
5
10
201.250000
20
325.562500
0
VERTEX
5
b2
100
AcDbEntity
8
1
100
AcDbVertex
100
AcDb2dVertex
62
5
10
200.750000
20
325.875000
0
VERTEX
5
b3
100
AcDbEntity
8
1
100
AcDbVertex
100
AcDb2dVertex
62
5
10
199.750000
20
325.875000
0
VERTEX
5
b4
100
AcDbEntity
8
1
100
AcDbVertex
100
AcDb2dVertex
62
5
10
199.000000
20
325.562500
0
SEQEND
5
b5
100
AcDbEntity
8
1
0
POLYLINE
5
b6
100
AcDbEntity
8
1
6
CONTINUOUS
62
5
100
AcDb2dPolyline
66
1
10
0.0
20
0.0
30
0.0
70
0
0
VERTEX
5
b7
100
AcDbEntity
8
1
100
AcDbVertex
100
AcDb2dVertex
62
5
10
210.250000
20
320.875000
0
VERTEX
5
b8
100
AcDbEntity
8
1
100
AcDbVertex
100
AcDb2dVertex
62
5
10
211.000000
20
323.375000
0
VERTEX
5
b9
100
AcDbEntity
8
1
100
AcDbVertex
100
AcDb2dVertex
62
5
10
211.250000
20
325.250000
0
VERTEX
5
ba
100
AcDbEntity
8
1
100
AcDbVertex
100
AcDb2dVertex
62
5
10
211.250000
20
328.687500
0
VERTEX
5
bb
100
AcDbEntity
8
1
100
AcDbVertex
100
AcDb2dVertex
62
5
10
217.250000
20
328.687500
0
SEQEND
5
bc
100
AcDbEntity
8
1
0
LINE
5
bd
100
AcDbEntity
8
1
100
AcDbLine
6
CONTINUOUS
62
5
10
214.250000
20
329.625000
11
214.250000
21
328.687500
0
POLYLINE
5
be
100
AcDbEntity
8
1
6
CONTINUOUS
62
5
100
AcDb2dPolyline
66
1
10
0.0
20
0.0
30
0.0
70
0
0
VERTEX
5
bf
100
AcDbEntity
8
1
100
AcDbVertex
100
AcDb2dVertex
62
5
10
212.250000
20
324.625000
0
VERTEX
5
c0
100
AcDbEntity
8
1
100
AcDbVertex
100
AcDb2dVertex
62
5
10
212.000000
20
323.062500
0
VERTEX
5
c1
100
AcDbEntity
8
1
100
AcDbVertex
100
AcDb2dVertex
62
5
10
211.500000
20
321.812500
0
SEQEND
5
c2
100
AcDbEntity
8
1
0
POLYLINE
5
c3
100
AcDbEntity
8
1
6
CONTINUOUS
62
5
100
AcDb2dPolyline
66
1
10
0.0
20
0.0
30
0.0
70
0
0
VERTEX
5
c4
100
AcDbEntity
8
1
100
AcDbVertex
100
AcDb2dVertex
62
5
10
213.250000
20
326.500000
0
VERTEX
5
c5
100
AcDbEntity
8
1
100
AcDbVertex
100
AcDb2dVertex
62
5
10
213.250000
20
321.500000
0
VERTEX
5
c6
100
AcDbEntity
8
1
100
AcDbVertex
100
AcDb2dVertex
62
5
10
213.750000
20
320.875000
0
VERTEX
5
c7
100
AcDbEntity
8
1
100
AcDbVertex
100
AcDb2dVertex
62
5
10
216.000000
20
320.875000
0
VERTEX
5
c8
100
AcDbEntity
8
1
100
AcDbVertex
100
AcDb2dVertex
62
5
10
216.250000
20
321.187500
0
VERTEX
5
c9
100
AcDbEntity
8
1
100
AcDbVertex
100
AcDb2dVertex
62
5
10
216.250000
20
321.812500
0
SEQEND
5
ca
100
AcDbEntity
8
1
0
LINE
5
cb
100
AcDbEntity
8
1
100
AcDbLine
6
CONTINUOUS
62
5
10
214.000000
20
327.125000
11
215.000000
21
325.875000
0
POLYLINE
5
cc
100
AcDbEntity
8
1
6
CONTINUOUS
62
5
100
AcDb2dPolyline
66
1
10
0.0
20
0.0
30
0.0
70
0
0
VERTEX
5
cd
100
AcDbEntity
8
1
100
AcDbVertex
100
AcDb2dVertex
62
5
10
216.250000
20
324.937500
0
VERTEX
5
ce
100
AcDbEntity
8
1
100
AcDbVertex
100
AcDb2dVertex
62
5
10
217.000000
20
323.687500
0
VERTEX
5
cf
100
AcDbEntity
8
1
100
AcDbVertex
100
AcDb2dVertex
62
5
10
217.500000
20
322.437500
0
SEQEND
5
d0
100
AcDbEntity
8
1
0
POLYLINE
5
d1
100
AcDbEntity
8
1
6
CONTINUOUS
62
5
100
AcDb2dPolyline
66
1
10
0.0
20
0.0
30
0.0
70
0
0
VERTEX
5
d2
100
AcDbEntity
8
1
100
AcDbVertex
100
AcDb2dVertex
62
5
10
171.250000
20
325.875000
0
VERTEX
5
d3
100
AcDbEntity
8
1
100
AcDbVertex
100
AcDb2dVertex
62
5
10
171.000000
20
324.312500
0
VERTEX
5
d4
100
AcDbEntity
8
1
100
AcDbVertex
100
AcDb2dVertex
62
5
10
170.500000
20
322.750000
0
SEQEND
5
d5
100
AcDbEntity
8
1
0
POLYLINE
5
d6
100
AcDbEntity
8
1
6
CONTINUOUS
62
5
100
AcDb2dPolyline
66
1
10
0.0
20
0.0
30
0.0
70
0
0
VERTEX
5
d7
100
AcDbEntity
8
1
100
AcDbVertex
100
AcDb2dVertex
62
5
10
172.500000
20
327.437500
0
VERTEX
5
d8
100
AcDbEntity
8
1
100
AcDbVertex
100
AcDb2dVertex
62
5
10
172.500000
20
321.500000
0
VERTEX
5
d9
100
AcDbEntity
8
1
100
AcDbVertex
100
AcDb2dVertex
62
5
10
173.000000
20
320.875000
0
VERTEX
5
da
100
AcDbEntity
8
1
100
AcDbVertex
100
AcDb2dVertex
62
5
10
175.750000
20
320.875000
0
VERTEX
5
db
100
AcDbEntity
8
1
100
AcDbVertex
100
AcDb2dVertex
62
5
10
175.250000
20
323.062500
0
SEQEND
5
dc
100
AcDbEntity
8
1
0
POLYLINE
5
dd
100
AcDbEntity
8
1
6
CONTINUOUS
62
5
100
AcDb2dPolyline
66
1
10
0.0
20
0.0
30
0.0
70
0
0
VERTEX
5
de
100
AcDbEntity
8
1
100
AcDbVertex
100
AcDb2dVertex
62
5
10
173.000000
20
329.000000
0
VERTEX
5
df
100
AcDbEntity
8
1
100
AcDbVertex
100
AcDb2dVertex
62
5
10
173.750000
20
327.750000
0
VERTEX
5
e0
100
AcDbEntity
8
1
100
AcDbVertex
100
AcDb2dVertex
62
5
10
174.000000
20
326.812500
0
SEQEND
5
e1
100
AcDbEntity
8
1
0
POLYLINE
5
e2
100
AcDbEntity
8
1
6
CONTINUOUS
62
5
100
AcDb2dPolyline
66
1
10
0.0
20
0.0
30
0.0
70
0
0
VERTEX
5
e3
100
AcDbEntity
8
1
100
AcDbVertex
100
AcDb2dVertex
62
5
10
175.500000
20
326.500000
0
VERTEX
5
e4
100
AcDbEntity
8
1
100
AcDbVertex
100
AcDb2dVertex
62
5
10
176.500000
20
325.250000
0
VERTEX
5
e5
100
AcDbEntity
8
1
100
AcDbVertex
100
AcDb2dVertex
62
5
10
177.250000
20
323.687500
0
SEQEND
5
e6
100
AcDbEntity
8
1
0
POLYLINE
5
e7
100
AcDbEntity
8
1
6
CONTINUOUS
62
5
100
AcDb2dPolyline
66
1
10
0.0
20
0.0
30
0.0
70
1
0
VERTEX
5
e8
100
AcDbEntity
8
1
100
AcDbVertex
100
AcDb2dVertex
62
5
10
168.000000
20
329.000000
0
VERTEX
5
e9
100
AcDbEntity
8
1
100
AcDbVertex
100
AcDb2dVertex
62
5
10
168.500000
20
329.000000
0
VERTEX
5
ea
100
AcDbEntity
8
1
100
AcDbVertex
100
AcDb2dVertex
62
5
10
169.000000
20
328.687500
0
VERTEX
5
eb
100
AcDbEntity
8
1
100
AcDbVertex
100
AcDb2dVertex
62
5
10
169.250000
20
328.062500
0
VERTEX
5
ec
100
AcDbEntity
8
1
100
AcDbVertex
100
AcDb2dVertex
62
5
10
169.250000
20
326.812500
0
VERTEX
5
ed
100
AcDbEntity
8
1
100
AcDbVertex
100
AcDb2dVertex
62
5
10
169.000000
20
326.187500
0
VERTEX
5
ee
100
AcDbEntity
8
1
100
AcDbVertex
100
AcDb2dVertex
62
5
10
167.500000
20
324.937500
0
VERTEX
5
ef
100
AcDbEntity
8
1
100
AcDbVertex
100
AcDb2dVertex
62
5
10
167.000000
20
324.000000
0
VERTEX
5
f0
100
AcDbEntity
8
1
100
AcDbVertex
100
AcDb2dVertex
62
5
10
167.000000
20
322.750000
0
VERTEX
5
f1
100
AcDbEntity
8
1
100
AcDbVertex
100
AcDb2dVertex
62
5
10
167.250000
20
322.125000
0
VERTEX
5
f2
100
AcDbEntity
8
1
100
AcDbVertex
100
AcDb2dVertex
62
5
10
167.500000
20
321.812500
0
VERTEX
5
f3
100
AcDbEntity
8
1
100
AcDbVertex
100
AcDb2dVertex
62
5
10
168.000000
20
321.500000
0
VERTEX
5
f4
100
AcDbEntity
8
1
100
AcDbVertex
100
AcDb2dVertex
62
5
10
168.500000
20
321.500000
0
VERTEX
5
f5
100
AcDbEntity
8
1
100
AcDbVertex
100
AcDb2dVertex
62
5
10
169.000000
20
321.812500
0
VERTEX
5
f6
100
AcDbEntity
8
1
100
AcDbVertex
100
AcDb2dVertex
62
5
10
169.250000
20
322.125000
0
VERTEX
5
f7
100
AcDbEntity
8
1
100
AcDbVertex
100
AcDb2dVertex
62
5
10
169.500000
20
322.750000
0
VERTEX
5
f8
100
AcDbEntity
8
1
100
AcDbVertex
100
AcDb2dVertex
62
5
10
169.500000
20
324.000000
0
VERTEX
5
f9
100
AcDbEntity
8
1
100
AcDbVertex
100
AcDb2dVertex
62
5
10
169.000000
20
324.937500
0
VERTEX
5
fa
100
AcDbEntity
8
1
100
AcDbVertex
100
AcDb2dVertex
62
5
10
167.500000
20
326.187500
0
VERTEX
5
fb
100
AcDbEntity
8
1
100
AcDbVertex
100
AcDb2dVertex
62
5
10
167.250000
20
326.812500
0
VERTEX
5
fc
100
AcDbEntity
8
1
100
AcDbVertex
100
AcDb2dVertex
62
5
10
167.250000
20
328.062500
0
VERTEX
5
fd
100
AcDbEntity
8
1
100
AcDbVertex
100
AcDb2dVertex
62
5
10
167.500000
20
328.687500
0
VERTEX
5
fe
100
AcDbEntity
8
1
100
AcDbVertex
100
AcDb2dVertex
62
5
10
168.000000
20
329.000000
0
SEQEND
5
ff
100
AcDbEntity
8
1
0
POLYLINE
5
100
100
AcDbEntity
8
1
6
CONTINUOUS
62
5
100
AcDb2dPolyline
66
1
10
0.0
20
0.0
30
0.0
70
1
0
VERTEX
5
101
100
AcDbEntity
8
1
100
AcDbVertex
100
AcDb2dVertex
62
5
10
156.000000
20
329.000000
0
VERTEX
5
102
100
AcDbEntity
8
1
100
AcDbVertex
100
AcDb2dVertex
62
5
10
156.500000
20
329.000000
0
VERTEX
5
103
100
AcDbEntity
8
1
100
AcDbVertex
100
AcDb2dVertex
62
5
10
157.000000
20
328.687500
0
VERTEX
5
104
100
AcDbEntity
8
1
100
AcDbVertex
100
AcDb2dVertex
62
5
10
157.250000
20
328.062500
0
VERTEX
5
105
100
AcDbEntity
8
1
100
AcDbVertex
100
AcDb2dVertex
62
5
10
157.250000
20
326.812500
0
VERTEX
5
106
100
AcDbEntity
8
1
100
AcDbVertex
100
AcDb2dVertex
62
5
10
157.000000
20
326.187500
0
VERTEX
5
107
100
AcDbEntity
8
1
100
AcDbVertex
100
AcDb2dVertex
62
5
10
155.500000
20
324.937500
0
VERTEX
5
108
100
AcDbEntity
8
1
100
AcDbVertex
100
AcDb2dVertex
62
5
10
155.000000
20
324.000000
0
VERTEX
5
109
100
AcDbEntity
8
1
100
AcDbVertex
100
AcDb2dVertex
62
5
10
155.000000
20
322.750000
0
VERTEX
5
10a
100
AcDbEntity
8
1
100
AcDbVertex
100
AcDb2dVertex
62
5
10
155.250000
20
322.125000
0
VERTEX
5
10b
100
AcDbEntity
8
1
100
AcDbVertex
100
AcDb2dVertex
62
5
10
155.500000
20
321.812500
0
VERTEX
5
10c
100
AcDbEntity
8
1
100
AcDbVertex
100
AcDb2dVertex
62
5
10
156.000000
20
321.500000
0
VERTEX
5
10d
100
AcDbEntity
8
1
100
AcDbVertex
100
AcDb2dVertex
62
5
10
156.500000
20
321.500000
0
VERTEX
5
10e
100
AcDbEntity
8
1
100
AcDbVertex
100
AcDb2dVertex
62
5
10
157.000000
20
321.812500
0
VERTEX
5
10f
100
AcDbEntity
8
1
100
AcDbVertex
100
AcDb2dVertex
62
5
10
157.250000
20
322.125000
0
VERTEX
5
110
100
AcDbEntity
8
1
100
AcDbVertex
100
AcDb2dVertex
62
5
10
157.500000
20
322.750000
0
VERTEX
5
111
100
AcDbEntity
8
1
100
AcDbVertex
100
AcDb2dVertex
62
5
10
157.500000
20
324.000000
0
VERTEX
5
112
100
AcDbEntity
8
1
100
AcDbVertex
100
AcDb2dVertex
62
5
10
157.000000
20
324.937500
0
VERTEX
5
113
100
AcDbEntity
8
1
100
AcDbVertex
100
AcDb2dVertex
62
5
10
155.500000
20
326.187500
0
VERTEX
5
114
100
AcDbEntity
8
1
100
AcDbVertex
100
AcDb2dVertex
62
5
10
155.250000
20
326.812500
0
VERTEX
5
115
100
AcDbEntity
8
1
100
AcDbVertex
100
AcDb2dVertex
62
5
10
155.250000
20
328.062500
0
VERTEX
5
116
100
AcDbEntity
8
1
100
AcDbVertex
100
AcDb2dVertex
62
5
10
155.500000
20
328.687500
0
VERTEX
5
117
100
AcDbEntity
8
1
100
AcDbVertex
100
AcDb2dVertex
62
5
10
156.000000
20
329.000000
0
SEQEND
5
118
100
AcDbEntity
8
1
0
LINE
5
119
100
AcDbEntity
8
1
100
AcDbLine
6
CONTINUOUS
62
5
10
158.250000
20
327.125000
11
160.500000
21
327.125000
0
LINE
5
11a
100
AcDbEntity
8
1
100
AcDbLine
6
CONTINUOUS
62
5
10
159.500000
20
329.312500
11
159.500000
21
320.562500
0
POLYLINE
5
11b
100
AcDbEntity
8
1
6
CONTINUOUS
62
5
100
AcDb2dPolyline
66
1
10
0.0
20
0.0
30
0.0
70
0
0
VERTEX
5
11c
100
AcDbEntity
8
1
100
AcDbVertex
100
AcDb2dVertex
62
5
10
159.500000
20
327.125000
0
VERTEX
5
11d
100
AcDbEntity
8
1
100
AcDbVertex
100
AcDb2dVertex
62
5
10
159.000000
20
325.250000
0
VERTEX
5
11e
100
AcDbEntity
8
1
100
AcDbVertex
100
AcDb2dVertex
62
5
10
158.250000
20
323.375000
0
SEQEND
5
11f
100
AcDbEntity
8
1
0
LINE
5
120
100
AcDbEntity
8
1
100
AcDbLine
6
CONTINUOUS
62
5
10
159.500000
20
326.187500
11
160.500000
21
324.625000
0
LINE
5
121
100
AcDbEntity
8
1
100
AcDbLine
6
CONTINUOUS
62
5
10
160.500000
20
329.000000
11
165.250000
21
329.000000
0
POLYLINE
5
122
100
AcDbEntity
8
1
6
CONTINUOUS
62
5
100
AcDb2dPolyline
66
1
10
0.0
20
0.0
30
0.0
70
0
0
VERTEX
5
123
100
AcDbEntity
8
1
100
AcDbVertex
100
AcDb2dVertex
62
5
10
162.750000
20
329.000000
0
VERTEX
5
124
100
AcDbEntity
8
1
100
AcDbVertex
100
AcDb2dVertex
62
5
10
161.750000
20
326.812500
0
VERTEX
5
125
100
AcDbEntity
8
1
100
AcDbVertex
100
AcDb2dVertex
62
5
10
163.250000
20
327.125000
0
VERTEX
5
126
100
AcDbEntity
8
1
100
AcDbVertex
100
AcDb2dVertex
62
5
10
163.250000
20
324.000000
0
VERTEX
5
127
100
AcDbEntity
8
1
100
AcDbVertex
100
AcDb2dVertex
62
5
10
162.750000
20
321.812500
0
VERTEX
5
128
100
AcDbEntity
8
1
100
AcDbVertex
100
AcDb2dVertex
62
5
10
162.250000
20
322.125000
0
SEQEND
5
129
100
AcDbEntity
8
1
0
POLYLINE
5
12a
100
AcDbEntity
8
1
6
CONTINUOUS
62
5
100
AcDb2dPolyline
66
1
10
0.0
20
0.0
30
0.0
70
1
0
VERTEX
5
12b
100
AcDbEntity
8
1
100
AcDbVertex
100
AcDb2dVertex
62
5
10
161.000000
20
325.250000
0
VERTEX
5
12c
100
AcDbEntity
8
1
100
AcDbVertex
100
AcDb2dVertex
62
5
10
162.250000
20
325.250000
0
VERTEX
5
12d
100
AcDbEntity
8
1
100
AcDbVertex
100
AcDb2dVertex
62
5
10
162.250000
20
323.062500
0
VERTEX
5
12e
100
AcDbEntity
8
1
100
AcDbVertex
100
AcDb2dVertex
62
5
10
161.000000
20
323.062500
0
VERTEX
5
12f
100
AcDbEntity
8
1
100
AcDbVertex
100
AcDb2dVertex
62
5
10
161.000000
20
325.250000
0
SEQEND
5
130
100
AcDbEntity
8
1
0
POLYLINE
5
131
100
AcDbEntity
8
1
6
CONTINUOUS
62
5
100
AcDb2dPolyline
66
1
10
0.0
20
0.0
30
0.0
70
0
0
VERTEX
5
132
100
AcDbEntity
8
1
100
AcDbVertex
100
AcDb2dVertex
62
5
10
163.750000
20
326.812500
0
VERTEX
5
133
100
AcDbEntity
8
1
100
AcDbVertex
100
AcDb2dVertex
62
5
10
165.250000
20
326.812500
0
VERTEX
5
134
100
AcDbEntity
8
1
100
AcDbVertex
100
AcDb2dVertex
62
5
10
165.000000
20
325.562500
0
VERTEX
5
135
100
AcDbEntity
8
1
100
AcDbVertex
100
AcDb2dVertex
62
5
10
164.500000
20
324.000000
0
VERTEX
5
136
100
AcDbEntity
8
1
100
AcDbVertex
100
AcDb2dVertex
62
5
10
163.750000
20
322.437500
0
SEQEND
5
137
100
AcDbEntity
8
1
0
POLYLINE
5
138
100
AcDbEntity
8
1
6
CONTINUOUS
62
5
100
AcDb2dPolyline
66
1
10
0.0
20
0.0
30
0.0
70
0
0
VERTEX
5
139
100
AcDbEntity
8
1
100
AcDbVertex
100
AcDb2dVertex
62
5
10
163.750000
20
325.875000
0
VERTEX
5
13a
100
AcDbEntity
8
1
100
AcDbVertex
100
AcDb2dVertex
62
5
10
164.000000
20
324.625000
0
VERTEX
5
13b
100
AcDbEntity
8
1
100
AcDbVertex
100
AcDb2dVertex
62
5
10
165.500000
20
322.437500
0
SEQEND
5
13c
100
AcDbEntity
8
1
0
LINE
5
13d
100
AcDbEntity
8
1
100
AcDbLine
6
CONTINUOUS
62
5
10
160.250000
20
320.875000
11
165.500000
21
320.875000
0
POLYLINE
5
13e
100
AcDbEntity
8
1
6
CONTINUOUS
62
5
100
AcDb2dPolyline
66
1
10
0.0
20
0.0
30
0.0
70
0
0
VERTEX
5
13f
100
AcDbEntity
8
1
100
AcDbVertex
100
AcDb2dVertex
62
5
10
189.500000
20
327.437500
0
VERTEX
5
140
100
AcDbEntity
8
1
100
AcDbVertex
100
AcDb2dVertex
62
5
10
189.250000
20
328.375000
0
VERTEX
5
141
100
AcDbEntity
8
1
100
AcDbVertex
100
AcDb2dVertex
62
5
10
188.750000
20
329.000000
0
VERTEX
5
142
100
AcDbEntity
8
1
100
AcDbVertex
100
AcDb2dVertex
62
5
10
188.000000
20
329.000000
0
VERTEX
5
143
100
AcDbEntity
8
1
100
AcDbVertex
100
AcDb2dVertex
62
5
10
187.250000
20
328.062500
0
VERTEX
5
144
100
AcDbEntity
8
1
100
AcDbVertex
100
AcDb2dVertex
62
5
10
187.000000
20
326.500000
0
VERTEX
5
145
100
AcDbEntity
8
1
100
AcDbVertex
100
AcDb2dVertex
62
5
10
187.000000
20
324.000000
0
VERTEX
5
146
100
AcDbEntity
8
1
100
AcDbVertex
100
AcDb2dVertex
62
5
10
187.250000
20
322.437500
0
VERTEX
5
147
100
AcDbEntity
8
1
100
AcDbVertex
100
AcDb2dVertex
62
5
10
188.000000
20
321.500000
0
VERTEX
5
148
100
AcDbEntity
8
1
100
AcDbVertex
100
AcDb2dVertex
62
5
10
188.750000
20
321.500000
0
VERTEX
5
149
100
AcDbEntity
8
1
100
AcDbVertex
100
AcDb2dVertex
62
5
10
189.250000
20
322.125000
0
VERTEX
5
14a
100
AcDbEntity
8
1
100
AcDbVertex
100
AcDb2dVertex
62
5
10
189.750000
20
323.687500
0
SEQEND
5
14b
100
AcDbEntity
8
1
0
LINE
5
14c
100
AcDbEntity
8
0
100
AcDbLine
6
DOT2
62
5
10
242.525076
20
195.100000
11
245.337576
21
195.100000
0
POLYLINE
5
14d
100
AcDbEntity
8
0
6
DOT2
62
5
100
AcDb2dPolyline
66
1
10
0.0
20
0.0
30
0.0
70
0
0
VERTEX
5
14e
100
AcDbEntity
8
0
100
AcDbVertex
100
AcDb2dVertex
62
5
10
242.525076
20
195.100000
0
VERTEX
5
14f
100
AcDbEntity
8
0
100
AcDbVertex
100
AcDb2dVertex
62
5
10
242.525076
20
191.350000
0
VERTEX
5
150
100
AcDbEntity
8
0
100
AcDbVertex
100
AcDb2dVertex
62
5
10
243.150076
20
191.975000
0
VERTEX
5
151
100
AcDbEntity
8
0
100
AcDbVertex
100
AcDb2dVertex
62
5
10
243.775076
20
192.287500
0
VERTEX
5
152
100
AcDbEntity
8
0
100
AcDbVertex
100
AcDb2dVertex
62
5
10
244.712576
20
192.287500
0
VERTEX
5
153
100
AcDbEntity
8
0
100
AcDbVertex
100
AcDb2dVertex
62
5
10
245.337576
20
191.975000
0
VERTEX
5
154
100
AcDbEntity
8
0
100
AcDbVertex
100
AcDb2dVertex
62
5
10
245.650076
20
191.037500
0
VERTEX
5
155
100
AcDbEntity
8
0
100
AcDbVertex
100
AcDb2dVertex
62
5
10
245.650076
20
189.162500
0
VERTEX
5
156
100
AcDbEntity
8
0
100
AcDbVertex
100
AcDb2dVertex
62
5
10
245.025076
20
188.225000
0
VERTEX
5
157
100
AcDbEntity
8
0
100
AcDbVertex
100
AcDb2dVertex
62
5
10
244.087576
20
187.600000
0
VERTEX
5
158
100
AcDbEntity
8
0
100
AcDbVertex
100
AcDb2dVertex
62
5
10
242.525076
20
187.600000
0
SEQEND
5
159
100
AcDbEntity
8
0
0
POLYLINE
5
15a
100
AcDbEntity
8
0
6
DOT2
62
5
100
AcDb2dPolyline
66
1
10
0.0
20
0.0
30
0.0
70
0
0
VERTEX
5
15b
100
AcDbEntity
8
0
100
AcDbVertex
100
AcDb2dVertex
62
5
10
237.525076
20
192.912500
0
VERTEX
5
15c
100
AcDbEntity
8
0
100
AcDbVertex
100
AcDb2dVertex
62
5
10
237.837576
20
194.475000
0
VERTEX
5
15d
100
AcDbEntity
8
0
100
AcDbVertex
100
AcDb2dVertex
62
5
10
238.775076
20
195.100000
0
VERTEX
5
15e
100
AcDbEntity
8
0
100
AcDbVertex
100
AcDb2dVertex
62
5
10
239.712576
20
195.100000
0
VERTEX
5
15f
100
AcDbEntity
8
0
100
AcDbVertex
100
AcDb2dVertex
62
5
10
240.337576
20
194.787500
0
VERTEX
5
160
100
AcDbEntity
8
0
100
AcDbVertex
100
AcDb2dVertex
62
5
10
240.650076
20
193.850000
0
VERTEX
5
161
100
AcDbEntity
8
0
100
AcDbVertex
100
AcDb2dVertex
62
5
10
240.650076
20
192.912500
0
VERTEX
5
162
100
AcDbEntity
8
0
100
AcDbVertex
100
AcDb2dVertex
62
5
10
240.337576
20
191.975000
0
VERTEX
5
163
100
AcDbEntity
8
0
100
AcDbVertex
100
AcDb2dVertex
62
5
10
237.525076
20
187.600000
0
VERTEX
5
164
100
AcDbEntity
8
0
100
AcDbVertex
100
AcDb2dVertex
62
5
10
240.650076
20
187.600000
0
VERTEX
5
165
100
AcDbEntity
8
0
100
AcDbVertex
100
AcDb2dVertex
62
5
10
240.650076
20
188.537500
0
SEQEND
5
166
100
AcDbEntity
8
0
0
POLYLINE
5
167
100
AcDbEntity
8
3
6
CONTINUOUS
62
5
100
AcDb2dPolyline
66
1
10
0.0
20
0.0
30
0.0
70
0
0
VERTEX
5
168
100
AcDbEntity
8
3
100
AcDbVertex
100
AcDb2dVertex
62
5
10
205.474924
20
160.700000
0
VERTEX
5
169
100
AcDbEntity
8
3
100
AcDbVertex
100
AcDb2dVertex
62
5
10
205.474924
20
161.000000
0
VERTEX
5
16a
100
AcDbEntity
8
3
100
AcDbVertex
100
AcDb2dVertex
62
5
10
202.974924
20
161.000000
0
VERTEX
5
16b
100
AcDbEntity
8
3
100
AcDbVertex
100
AcDb2dVertex
62
5
10
202.974924
20
160.700000
0
SEQEND
5
16c
100
AcDbEntity
8
3
0
LINE
5
16d
100
AcDbEntity
8
0
100
AcDbLine
6
DOT2
62
5
10
174.999924
20
188.225000
11
174.374924
21
187.600000
0
POLYLINE
5
16e
100
AcDbEntity
8
0
6
DOT2
62
5
100
AcDb2dPolyline
66
1
10
0.0
20
0.0
30
0.0
70
0
0
VERTEX
5
16f
100
AcDbEntity
8
0
100
AcDbVertex
100
AcDb2dVertex
62
5
10
174.374924
20
188.225000
0
VERTEX
5
170
100
AcDbEntity
8
0
100
AcDbVertex
100
AcDb2dVertex
62
5
10
174.999924
20
187.600000
0
VERTEX
5
171
100
AcDbEntity
8
0
100
AcDbVertex
100
AcDb2dVertex
62
5
10
174.374924
20
187.600000
0
VERTEX
5
172
100
AcDbEntity
8
0
100
AcDbVertex
100
AcDb2dVertex
62
5
10
174.374924
20
188.225000
0
VERTEX
5
173
100
AcDbEntity
8
0
100
AcDbVertex
100
AcDb2dVertex
62
5
10
174.999924
20
188.225000
0
VERTEX
5
174
100
AcDbEntity
8
0
100
AcDbVertex
100
AcDb2dVertex
62
5
10
174.999924
20
187.600000
0
SEQEND
5
175
100
AcDbEntity
8
0
0
LINE
5
176
100
AcDbEntity
8
0
100
AcDbLine
6
DOT2
62
5
10
179.374924
20
195.100000
11
182.187424
21
195.100000
0
POLYLINE
5
177
100
AcDbEntity
8
0
6
DOT2
62
5
100
AcDb2dPolyline
66
1
10
0.0
20
0.0
30
0.0
70
0
0
VERTEX
5
178
100
AcDbEntity
8
0
100
AcDbVertex
100
AcDb2dVertex
62
5
10
179.374924
20
195.100000
0
VERTEX
5
179
100
AcDbEntity
8
0
100
AcDbVertex
100
AcDb2dVertex
62
5
10
179.374924
20
191.350000
0
VERTEX
5
17a
100
AcDbEntity
8
0
100
AcDbVertex
100
AcDb2dVertex
62
5
10
179.999924
20
191.975000
0
VERTEX
5
17b
100
AcDbEntity
8
0
100
AcDbVertex
100
AcDb2dVertex
62
5
10
180.624924
20
192.287500
0
VERTEX
5
17c
100
AcDbEntity
8
0
100
AcDbVertex
100
AcDb2dVertex
62
5
10
181.562424
20
192.287500
0
VERTEX
5
17d
100
AcDbEntity
8
0
100
AcDbVertex
100
AcDb2dVertex
62
5
10
182.187424
20
191.975000
0
VERTEX
5
17e
100
AcDbEntity
8
0
100
AcDbVertex
100
AcDb2dVertex
62
5
10
182.499924
20
191.037500
0
VERTEX
5
17f
100
AcDbEntity
8
0
100
AcDbVertex
100
AcDb2dVertex
62
5
10
182.499924
20
189.162500
0
VERTEX
5
180
100
AcDbEntity
8
0
100
AcDbVertex
100
AcDb2dVertex
62
5
10
181.874924
20
188.225000
0
VERTEX
5
181
100
AcDbEntity
8
0
100
AcDbVertex
100
AcDb2dVertex
62
5
10
180.937424
20
187.600000
0
VERTEX
5
182
100
AcDbEntity
8
0
100
AcDbVertex
100
AcDb2dVertex
62
5
10
179.374924
20
187.600000
0
SEQEND
5
183
100
AcDbEntity
8
0
0
POLYLINE
5
184
100
AcDbEntity
8
0
6
DOT2
62
5
100
AcDb2dPolyline
66
1
10
0.0
20
0.0
30
0.0
70
1
0
VERTEX
5
185
100
AcDbEntity
8
0
100
AcDbVertex
100
AcDb2dVertex
62
5
10
170.624924
20
195.100000
0
VERTEX
5
186
100
AcDbEntity
8
0
100
AcDbVertex
100
AcDb2dVertex
62
5
10
171.249924
20
195.100000
0
VERTEX
5
187
100
AcDbEntity
8
0
100
AcDbVertex
100
AcDb2dVertex
62
5
10
171.874924
20
194.787500
0
VERTEX
5
188
100
AcDbEntity
8
0
100
AcDbVertex
100
AcDb2dVertex
62
5
10
172.187424
20
194.162500
0
VERTEX
5
189
100
AcDbEntity
8
0
100
AcDbVertex
100
AcDb2dVertex
62
5
10
172.187424
20
192.912500
0
VERTEX
5
18a
100
AcDbEntity
8
0
100
AcDbVertex
100
AcDb2dVertex
62
5
10
171.874924
20
192.287500
0
VERTEX
5
18b
100
AcDbEntity
8
0
100
AcDbVertex
100
AcDb2dVertex
62
5
10
169.999924
20
191.037500
0
VERTEX
5
18c
100
AcDbEntity
8
0
100
AcDbVertex
100
AcDb2dVertex
62
5
10
169.374924
20
190.100000
0
VERTEX
5
18d
100
AcDbEntity
8
0
100
AcDbVertex
100
AcDb2dVertex
62
5
10
169.374924
20
188.850000
0
VERTEX
5
18e
100
AcDbEntity
8
0
100
AcDbVertex
100
AcDb2dVertex
62
5
10
169.687424
20
188.225000
0
VERTEX
5
18f
100
AcDbEntity
8
0
100
AcDbVertex
100
AcDb2dVertex
62
5
10
169.999924
20
187.912500
0
VERTEX
5
190
100
AcDbEntity
8
0
100
AcDbVertex
100
AcDb2dVertex
62
5
10
170.624924
20
187.600000
0
VERTEX
5
191
100
AcDbEntity
8
0
100
AcDbVertex
100
AcDb2dVertex
62
5
10
171.249924
20
187.600000
0
VERTEX
5
192
100
AcDbEntity
8
0
100
AcDbVertex
100
AcDb2dVertex
62
5
10
171.874924
20
187.912500
0
VERTEX
5
193
100
AcDbEntity
8
0
100
AcDbVertex
100
AcDb2dVertex
62
5
10
172.187424
20
188.225000
0
VERTEX
5
194
100
AcDbEntity
8
0
100
AcDbVertex
100
AcDb2dVertex
62
5
10
172.499924
20
188.850000
0
VERTEX
5
195
100
AcDbEntity
8
0
100
AcDbVertex
100
AcDb2dVertex
62
5
10
172.499924
20
190.100000
0
VERTEX
5
196
100
AcDbEntity
8
0
100
AcDbVertex
100
AcDb2dVertex
62
5
10
171.874924
20
191.037500
0
VERTEX
5
197
100
AcDbEntity
8
0
100
AcDbVertex
100
AcDb2dVertex
62
5
10
169.999924
20
192.287500
0
VERTEX
5
198
100
AcDbEntity
8
0
100
AcDbVertex
100
AcDb2dVertex
62
5
10
169.687424
20
192.912500
0
VERTEX
5
199
100
AcDbEntity
8
0
100
AcDbVertex
100
AcDb2dVertex
62
5
10
169.687424
20
194.162500
0
VERTEX
5
19a
100
AcDbEntity
8
0
100
AcDbVertex
100
AcDb2dVertex
62
5
10
169.999924
20
194.787500
0
VERTEX
5
19b
100
AcDbEntity
8
0
100
AcDbVertex
100
AcDb2dVertex
62
5
10
170.624924
20
195.100000
0
SEQEND
5
19c
100
AcDbEntity
8
0
0
LINE
5
19d
100
AcDbEntity
8
0
100
AcDbLine
6
CONTINUOUS
62
5
10
193.124924
20
162.134437
11
193.124924
21
188.350000
0
LINE
5
19e
100
AcDbEntity
8
0
100
AcDbLine
6
CONTINUOUS
62
5
10
201.624924
20
162.200000
11
201.624924
21
188.350000
0
POLYLINE
5
19f
100
AcDbEntity
8
0
6
CONTINUOUS
62
5
100
AcDb2dPolyline
66
1
10
0.0
20
0.0
30
0.0
70
0
0
VERTEX
5
1a0
100
AcDbEntity
8
0
100
AcDbVertex
100
AcDb2dVertex
62
5
10
166.874924
20
186.350000
0
VERTEX
5
1a1
100
AcDbEntity
8
0
100
AcDbVertex
100
AcDb2dVertex
62
5
10
193.124924
20
186.350000
0
VERTEX
5
1a2
100
AcDbEntity
8
0
100
AcDbVertex
100
AcDb2dVertex
62
5
10
187.124924
20
185.350000
0
VERTEX
5
1a3
100
AcDbEntity
8
0
100
AcDbVertex
100
AcDb2dVertex
62
5
10
187.124924
20
187.350000
0
VERTEX
5
1a4
100
AcDbEntity
8
0
100
AcDbVertex
100
AcDb2dVertex
62
5
10
193.124924
20
186.350000
0
VERTEX
5
1a5
100
AcDbEntity
8
0
100
AcDbVertex
100
AcDb2dVertex
62
5
10
187.124924
20
185.850000
0
VERTEX
5
1a6
100
AcDbEntity
8
0
100
AcDbVertex
100
AcDb2dVertex
62
5
10
187.124924
20
186.850000
0
VERTEX
5
1a7
100
AcDbEntity
8
0
100
AcDbVertex
100
AcDb2dVertex
62
5
10
193.124924
20
186.350000
0
SEQEND
5
1a8
100
AcDbEntity
8
0
0
LINE
5
1a9
100
AcDbEntity
8
0
100
AcDbLine
6
CONTINUOUS
62
5
10
193.124924
20
186.350000
11
201.624924
21
186.350000
0
LINE
5
1aa
100
AcDbEntity
8
0
100
AcDbLine
6
CONTINUOUS
62
5
10
206.624924
20
186.350000
11
201.624924
21
186.350000
0
POLYLINE
5
1ab
100
AcDbEntity
8
0
6
CONTINUOUS
62
5
100
AcDb2dPolyline
66
1
10
0.0
20
0.0
30
0.0
70
0
0
VERTEX
5
1ac
100
AcDbEntity
8
0
100
AcDbVertex
100
AcDb2dVertex
62
5
10
200.624924
20
185.850000
0
VERTEX
5
1ad
100
AcDbEntity
8
0
100
AcDbVertex
100
AcDb2dVertex
62
5
10
200.624924
20
186.850000
0
VERTEX
5
1ae
100
AcDbEntity
8
0
100
AcDbVertex
100
AcDb2dVertex
62
5
10
201.124924
20
187.350000
0
VERTEX
5
1af
100
AcDbEntity
8
0
100
AcDbVertex
100
AcDb2dVertex
62
5
10
202.124924
20
187.350000
0
VERTEX
5
1b0
100
AcDbEntity
8
0
100
AcDbVertex
100
AcDb2dVertex
62
5
10
202.624924
20
186.850000
0
VERTEX
5
1b1
100
AcDbEntity
8
0
100
AcDbVertex
100
AcDb2dVertex
62
5
10
202.624924
20
185.850000
0
VERTEX
5
1b2
100
AcDbEntity
8
0
100
AcDbVertex
100
AcDb2dVertex
62
5
10
202.124924
20
185.350000
0
VERTEX
5
1b3
100
AcDbEntity
8
0
100
AcDbVertex
100
AcDb2dVertex
62
5
10
201.124924
20
185.350000
0
VERTEX
5
1b4
100
AcDbEntity
8
0
100
AcDbVertex
100
AcDb2dVertex
62
5
10
200.624924
20
185.850000
0
VERTEX
5
1b5
100
AcDbEntity
8
0
100
AcDbVertex
100
AcDb2dVertex
62
5
10
202.624924
20
186.850000
0
SEQEND
5
1b6
100
AcDbEntity
8
0
0
LINE
5
1b7
100
AcDbEntity
8
0
100
AcDbLine
6
CONTINUOUS
62
5
10
202.624924
20
185.850000
11
200.624924
21
186.850000
0
LINE
5
1b8
100
AcDbEntity
8
0
100
AcDbLine
6
CONTINUOUS
62
5
10
201.124924
20
187.350000
11
202.124924
21
185.350000
0
LINE
5
1b9
100
AcDbEntity
8
0
100
AcDbLine
6
CONTINUOUS
62
5
10
201.124924
20
185.350000
11
202.124924
21
187.350000
0
LINE
5
1ba
100
AcDbEntity
8
0
100
AcDbLine
6
CONTINUOUS
62
5
10
226.275076
20
160.829926
11
226.275076
21
188.350000
0
POLYLINE
5
1bb
100
AcDbEntity
8
0
6
CONTINUOUS
62
5
100
AcDb2dPolyline
66
1
10
0.0
20
0.0
30
0.0
70
0
0
VERTEX
5
1bc
100
AcDbEntity
8
0
100
AcDbVertex
100
AcDb2dVertex
62
5
10
247.525076
20
186.350000
0
VERTEX
5
1bd
100
AcDbEntity
8
0
100
AcDbVertex
100
AcDb2dVertex
62
5
10
226.275076
20
186.350000
0
VERTEX
5
1be
100
AcDbEntity
8
0
100
AcDbVertex
100
AcDb2dVertex
62
5
10
232.275076
20
187.350000
0
VERTEX
5
1bf
100
AcDbEntity
8
0
100
AcDbVertex
100
AcDb2dVertex
62
5
10
232.275076
20
185.350000
0
VERTEX
5
1c0
100
AcDbEntity
8
0
100
AcDbVertex
100
AcDb2dVertex
62
5
10
226.275076
20
186.350000
0
VERTEX
5
1c1
100
AcDbEntity
8
0
100
AcDbVertex
100
AcDb2dVertex
62
5
10
232.275076
20
186.850000
0
VERTEX
5
1c2
100
AcDbEntity
8
0
100
AcDbVertex
100
AcDb2dVertex
62
5
10
232.275076
20
185.850000
0
VERTEX
5
1c3
100
AcDbEntity
8
0
100
AcDbVertex
100
AcDb2dVertex
62
5
10
226.275076
20
186.350000
0
SEQEND
5
1c4
100
AcDbEntity
8
0
0
LINE
5
1c5
100
AcDbEntity
8
0
100
AcDbLine
6
CONTINUOUS
62
5
10
226.275076
20
186.350000
11
201.624924
21
186.350000
0
LINE
5
1c6
100
AcDbEntity
8
0
100
AcDbLine
6
CONTINUOUS
62
5
10
198.624924
20
186.350000
11
201.624924
21
186.350000
0
LINE
5
1c7
100
AcDbEntity
8
1
100
AcDbLine
6
CONTINUOUS
62
5
10
132.250000
20
325.562500
11
132.500000
21
324.312500
0
LINE
5
1c8
100
AcDbEntity
8
1
100
AcDbLine
6
CONTINUOUS
62
5
10
133.750000
20
325.875000
11
134.000000
21
324.625000
0
POLYLINE
5
1c9
100
AcDbEntity
8
1
6
CONTINUOUS
62
5
100
AcDb2dPolyline
66
1
10
0.0
20
0.0
30
0.0
70
0
0
VERTEX
5
1ca
100
AcDbEntity
8
1
100
AcDbVertex
100
AcDb2dVertex
62
5
10
135.750000
20
325.875000
0
VERTEX
5
1cb
100
AcDbEntity
8
1
100
AcDbVertex
100
AcDb2dVertex
62
5
10
135.500000
20
324.312500
0
VERTEX
5
1cc
100
AcDbEntity
8
1
100
AcDbVertex
100
AcDb2dVertex
62
5
10
134.250000
20
322.437500
0
VERTEX
5
1cd
100
AcDbEntity
8
1
100
AcDbVertex
100
AcDb2dVertex
62
5
10
133.250000
20
321.500000
0
SEQEND
5
1ce
100
AcDbEntity
8
1
0
POLYLINE
5
1cf
100
AcDbEntity
8
1
6
CONTINUOUS
62
5
100
AcDb2dPolyline
66
1
10
0.0
20
0.0
30
0.0
70
0
0
VERTEX
5
1d0
100
AcDbEntity
8
1
100
AcDbVertex
100
AcDb2dVertex
62
5
10
139.750000
20
325.250000
0
VERTEX
5
1d1
100
AcDbEntity
8
1
100
AcDbVertex
100
AcDb2dVertex
62
5
10
140.750000
20
326.500000
0
VERTEX
5
1d2
100
AcDbEntity
8
1
100
AcDbVertex
100
AcDb2dVertex
62
5
10
141.250000
20
327.437500
0
VERTEX
5
1d3
100
AcDbEntity
8
1
100
AcDbVertex
100
AcDb2dVertex
62
5
10
143.750000
20
327.437500
0
VERTEX
5
1d4
100
AcDbEntity
8
1
100
AcDbVertex
100
AcDb2dVertex
62
5
10
143.750000
20
327.125000
0
VERTEX
5
1d5
100
AcDbEntity
8
1
100
AcDbVertex
100
AcDb2dVertex
62
5
10
143.000000
20
325.250000
0
VERTEX
5
1d6
100
AcDbEntity
8
1
100
AcDbVertex
100
AcDb2dVertex
62
5
10
141.750000
20
323.375000
0
VERTEX
5
1d7
100
AcDbEntity
8
1
100
AcDbVertex
100
AcDb2dVertex
62
5
10
140.250000
20
321.812500
0
SEQEND
5
1d8
100
AcDbEntity
8
1
0
POLYLINE
5
1d9
100
AcDbEntity
8
1
6
CONTINUOUS
62
5
100
AcDb2dPolyline
66
1
10
0.0
20
0.0
30
0.0
70
0
0
VERTEX
5
1da
100
AcDbEntity
8
1
100
AcDbVertex
100
AcDb2dVertex
62
5
10
123.750000
20
324.625000
0
VERTEX
5
1db
100
AcDbEntity
8
1
100
AcDbVertex
100
AcDb2dVertex
62
5
10
127.500000
20
325.562500
0
VERTEX
5
1dc
100
AcDbEntity
8
1
100
AcDbVertex
100
AcDb2dVertex
62
5
10
127.750000
20
325.250000
0
VERTEX
5
1dd
100
AcDbEntity
8
1
100
AcDbVertex
100
AcDb2dVertex
62
5
10
126.750000
20
324.000000
0
SEQEND
5
1de
100
AcDbEntity
8
1
0
LINE
5
1df
100
AcDbEntity
8
1
100
AcDbLine
6
CONTINUOUS
62
5
10
125.000000
20
326.500000
11
125.750000
21
322.125000
0
POLYLINE
5
1e0
100
AcDbEntity
8
1
6
CONTINUOUS
62
5
100
AcDb2dPolyline
66
1
10
0.0
20
0.0
30
0.0
70
0
0
VERTEX
5
1e1
100
AcDbEntity
8
1
100
AcDbVertex
100
AcDb2dVertex
62
5
10
125.250000
20
319.625000
0
VERTEX
5
1e2
100
AcDbEntity
8
1
100
AcDbVertex
100
AcDb2dVertex
62
5
10
124.500000
20
318.375000
0
VERTEX
5
1e3
100
AcDbEntity
8
1
100
AcDbVertex
100
AcDb2dVertex
62
5
10
123.750000
20
317.437500
0
VERTEX
5
1e4
100
AcDbEntity
8
1
100
AcDbVertex
100
AcDb2dVertex
62
5
10
122.750000
20
316.500000
0
SEQEND
5
1e5
100
AcDbEntity
8
1
0
POLYLINE
5
1e6
100
AcDbEntity
8
1
6
CONTINUOUS
62
5
100
AcDb2dPolyline
66
1
10
0.0
20
0.0
30
0.0
70
0
0
VERTEX
5
1e7
100
AcDbEntity
8
1
100
AcDbVertex
100
AcDb2dVertex
62
5
10
125.000000
20
319.000000
0
VERTEX
5
1e8
100
AcDbEntity
8
1
100
AcDbVertex
100
AcDb2dVertex
62
5
10
127.250000
20
319.000000
0
VERTEX
5
1e9
100
AcDbEntity
8
1
100
AcDbVertex
100
AcDb2dVertex
62
5
10
126.000000
20
317.125000
0
SEQEND
5
1ea
100
AcDbEntity
8
1
0
POLYLINE
5
1eb
100
AcDbEntity
8
1
6
CONTINUOUS
62
5
100
AcDb2dPolyline
66
1
10
0.0
20
0.0
30
0.0
70
0
0
VERTEX
5
1ec
100
AcDbEntity
8
1
100
AcDbVertex
100
AcDb2dVertex
62
5
10
123.750000
20
317.125000
0
VERTEX
5
1ed
100
AcDbEntity
8
1
100
AcDbVertex
100
AcDb2dVertex
62
5
10
128.250000
20
317.125000
0
VERTEX
5
1ee
100
AcDbEntity
8
1
100
AcDbVertex
100
AcDb2dVertex
62
5
10
128.250000
20
314.312500
0
VERTEX
5
1ef
100
AcDbEntity
8
1
100
AcDbVertex
100
AcDb2dVertex
62
5
10
123.750000
20
314.312500
0
SEQEND
5
1f0
100
AcDbEntity
8
1
0
LINE
5
1f1
100
AcDbEntity
8
1
100
AcDbLine
6
CONTINUOUS
62
5
10
126.000000
20
317.125000
11
126.000000
21
314.312500
0
POLYLINE
5
1f2
100
AcDbEntity
8
1
6
CONTINUOUS
62
5
100
AcDb2dPolyline
66
1
10
0.0
20
0.0
30
0.0
70
0
0
VERTEX
5
1f3
100
AcDbEntity
8
1
100
AcDbVertex
100
AcDb2dVertex
62
5
10
123.750000
20
317.125000
0
VERTEX
5
1f4
100
AcDbEntity
8
1
100
AcDbVertex
100
AcDb2dVertex
62
5
10
123.750000
20
311.812500
0
VERTEX
5
1f5
100
AcDbEntity
8
1
100
AcDbVertex
100
AcDb2dVertex
62
5
10
124.250000
20
311.187500
0
VERTEX
5
1f6
100
AcDbEntity
8
1
100
AcDbVertex
100
AcDb2dVertex
62
5
10
129.250000
20
311.187500
0
VERTEX
5
1f7
100
AcDbEntity
8
1
100
AcDbVertex
100
AcDb2dVertex
62
5
10
129.250000
20
312.437500
0
SEQEND
5
1f8
100
AcDbEntity
8
1
0
POLYLINE
5
1f9
100
AcDbEntity
8
1
6
CONTINUOUS
62
5
100
AcDb2dPolyline
66
1
10
0.0
20
0.0
30
0.0
70
0
0
VERTEX
5
1fa
100
AcDbEntity
8
1
100
AcDbVertex
100
AcDb2dVertex
62
5
10
117.250000
20
316.187500
0
VERTEX
5
1fb
100
AcDbEntity
8
1
100
AcDbVertex
100
AcDb2dVertex
62
5
10
117.500000
20
316.187500
0
VERTEX
5
1fc
100
AcDbEntity
8
1
100
AcDbVertex
100
AcDb2dVertex
62
5
10
119.250000
20
314.937500
0
SEQEND
5
1fd
100
AcDbEntity
8
1
0
LINE
5
1fe
100
AcDbEntity
8
1
100
AcDbLine
6
CONTINUOUS
62
5
10
117.250000
20
319.000000
11
117.250000
21
311.500000
0
LINE
5
1ff
100
AcDbEntity
8
1
100
AcDbLine
6
CONTINUOUS
62
5
10
116.250000
20
328.062500
11
117.250000
21
326.812500
0
LINE
5
200
100
AcDbEntity
8
1
100
AcDbLine
6
CONTINUOUS
62
5
10
115.000000
20
326.187500
11
116.000000
21
324.937500
0
POLYLINE
5
201
100
AcDbEntity
8
1
6
CONTINUOUS
62
5
100
AcDb2dPolyline
66
1
10
0.0
20
0.0
30
0.0
70
0
0
VERTEX
5
202
100
AcDbEntity
8
1
100
AcDbVertex
100
AcDb2dVertex
62
5
10
115.250000
20
322.125000
0
VERTEX
5
203
100
AcDbEntity
8
1
100
AcDbVertex
100
AcDb2dVertex
62
5
10
117.000000
20
322.750000
0
VERTEX
5
204
100
AcDbEntity
8
1
100
AcDbVertex
100
AcDb2dVertex
62
5
10
118.500000
20
323.687500
0
VERTEX
5
205
100
AcDbEntity
8
1
100
AcDbVertex
100
AcDb2dVertex
62
5
10
120.500000
20
325.562500
0
SEQEND
5
206
100
AcDbEntity
8
1
0
LINE
5
207
100
AcDbEntity
8
1
100
AcDbLine
6
CONTINUOUS
62
5
10
119.000000
20
327.125000
11
119.500000
21
326.500000
0
LINE
5
208
100
AcDbEntity
8
1
100
AcDbLine
6
CONTINUOUS
62
5
10
119.500000
20
328.062500
11
120.000000
21
327.437500
0
LINE
5
209
100
AcDbEntity
8
1
100
AcDbLine
6
CONTINUOUS
62
5
10
92.250000
20
328.062500
11
93.250000
21
326.812500
0
LINE
5
20a
100
AcDbEntity
8
1
100
AcDbLine
6
CONTINUOUS
62
5
10
91.000000
20
326.187500
11
92.000000
21
324.937500
0
POLYLINE
5
20b
100
AcDbEntity
8
1
6
CONTINUOUS
62
5
100
AcDb2dPolyline
66
1
10
0.0
20
0.0
30
0.0
70
0
0
VERTEX
5
20c
100
AcDbEntity
8
1
100
AcDbVertex
100
AcDb2dVertex
62
5
10
91.250000
20
322.125000
0
VERTEX
5
20d
100
AcDbEntity
8
1
100
AcDbVertex
100
AcDb2dVertex
62
5
10
93.000000
20
322.750000
0
VERTEX
5
20e
100
AcDbEntity
8
1
100
AcDbVertex
100
AcDb2dVertex
62
5
10
94.500000
20
323.687500
0
VERTEX
5
20f
100
AcDbEntity
8
1
100
AcDbVertex
100
AcDb2dVertex
62
5
10
96.500000
20
325.562500
0
SEQEND
5
210
100
AcDbEntity
8
1
0
LINE
5
211
100
AcDbEntity
8
1
100
AcDbLine
6
CONTINUOUS
62
5
10
95.000000
20
327.125000
11
95.500000
21
326.500000
0
LINE
5
212
100
AcDbEntity
8
1
100
AcDbLine
6
CONTINUOUS
62
5
10
95.500000
20
328.062500
11
96.000000
21
327.437500
0
POLYLINE
5
213
100
AcDbEntity
8
1
6
CONTINUOUS
62
5
100
AcDb2dPolyline
66
1
10
0.0
20
0.0
30
0.0
70
0
0
VERTEX
5
214
100
AcDbEntity
8
1
100
AcDbVertex
100
AcDb2dVertex
62
5
10
100.500000
20
325.562500
0
VERTEX
5
215
100
AcDbEntity
8
1
100
AcDbVertex
100
AcDb2dVertex
62
5
10
102.500000
20
325.562500
0
VERTEX
5
216
100
AcDbEntity
8
1
100
AcDbVertex
100
AcDb2dVertex
62
5
10
102.250000
20
322.437500
0
SEQEND
5
217
100
AcDbEntity
8
1
0
LINE
5
218
100
AcDbEntity
8
1
100
AcDbLine
6
CONTINUOUS
62
5
10
99.750000
20
322.437500
11
104.000000
21
322.437500
0
LINE
5
219
100
AcDbEntity
8
1
100
AcDbLine
6
CONTINUOUS
62
5
10
91.250000
20
316.187500
11
96.250000
21
316.187500
0
POLYLINE
5
21a
100
AcDbEntity
8
1
6
CONTINUOUS
62
5
100
AcDb2dPolyline
66
1
10
0.0
20
0.0
30
0.0
70
0
0
VERTEX
5
21b
100
AcDbEntity
8
1
100
AcDbVertex
100
AcDb2dVertex
62
5
10
93.750000
20
318.062500
0
VERTEX
5
21c
100
AcDbEntity
8
1
100
AcDbVertex
100
AcDb2dVertex
62
5
10
93.750000
20
311.812500
0
VERTEX
5
21d
100
AcDbEntity
8
1
100
AcDbVertex
100
AcDb2dVertex
62
5
10
93.250000
20
311.812500
0
SEQEND
5
21e
100
AcDbEntity
8
1
0
LINE
5
21f
100
AcDbEntity
8
1
100
AcDbLine
6
CONTINUOUS
62
5
10
92.500000
20
314.625000
11
91.250000
21
312.750000
0
LINE
5
220
100
AcDbEntity
8
1
100
AcDbLine
6
CONTINUOUS
62
5
10
95.250000
20
314.625000
11
96.500000
21
313.062500
0
POLYLINE
5
221
100
AcDbEntity
8
1
6
CONTINUOUS
62
5
100
AcDb2dPolyline
66
1
10
0.0
20
0.0
30
0.0
70
0
0
VERTEX
5
222
100
AcDbEntity
8
1
100
AcDbVertex
100
AcDb2dVertex
62
5
10
99.750000
20
315.562500
0
VERTEX
5
223
100
AcDbEntity
8
1
100
AcDbVertex
100
AcDb2dVertex
62
5
10
99.750000
20
317.750000
0
VERTEX
5
224
100
AcDbEntity
8
1
100
AcDbVertex
100
AcDb2dVertex
62
5
10
103.750000
20
317.750000
0
VERTEX
5
225
100
AcDbEntity
8
1
100
AcDbVertex
100
AcDb2dVertex
62
5
10
103.750000
20
316.812500
0
VERTEX
5
226
100
AcDbEntity
8
1
100
AcDbVertex
100
AcDb2dVertex
62
5
10
103.500000
20
315.250000
0
VERTEX
5
227
100
AcDbEntity
8
1
100
AcDbVertex
100
AcDb2dVertex
62
5
10
103.000000
20
314.000000
0
VERTEX
5
228
100
AcDbEntity
8
1
100
AcDbVertex
100
AcDb2dVertex
62
5
10
102.500000
20
313.062500
0
VERTEX
5
229
100
AcDbEntity
8
1
100
AcDbVertex
100
AcDb2dVertex
62
5
10
101.500000
20
311.812500
0
SEQEND
5
22a
100
AcDbEntity
8
1
0
LINE
5
22b
100
AcDbEntity
8
1
100
AcDbLine
6
CONTINUOUS
62
5
10
84.250000
20
327.750000
11
88.000000
21
327.750000
0
LINE
5
22c
100
AcDbEntity
8
1
100
AcDbLine
6
CONTINUOUS
62
5
10
83.250000
20
325.562500
11
88.750000
21
325.562500
0
POLYLINE
5
22d
100
AcDbEntity
8
1
6
CONTINUOUS
62
5
100
AcDb2dPolyline
66
1
10
0.0
20
0.0
30
0.0
70
0
0
VERTEX
5
22e
100
AcDbEntity
8
1
100
AcDbVertex
100
AcDb2dVertex
62
5
10
85.500000
20
327.750000
0
VERTEX
5
22f
100
AcDbEntity
8
1
100
AcDbVertex
100
AcDb2dVertex
62
5
10
85.500000
20
322.750000
0
VERTEX
5
230
100
AcDbEntity
8
1
100
AcDbVertex
100
AcDb2dVertex
62
5
10
86.000000
20
322.437500
0
VERTEX
5
231
100
AcDbEntity
8
1
100
AcDbVertex
100
AcDb2dVertex
62
5
10
88.250000
20
322.437500
0
SEQEND
5
232
100
AcDbEntity
8
1
0
POLYLINE
5
233
100
AcDbEntity
8
1
6
CONTINUOUS
62
5
100
AcDb2dPolyline
66
1
10
0.0
20
0.0
30
0.0
70
0
0
VERTEX
5
234
100
AcDbEntity
8
1
100
AcDbVertex
100
AcDb2dVertex
62
5
10
83.000000
20
317.437500
0
VERTEX
5
235
100
AcDbEntity
8
1
100
AcDbVertex
100
AcDb2dVertex
62
5
10
88.250000
20
317.437500
0
VERTEX
5
236
100
AcDbEntity
8
1
100
AcDbVertex
100
AcDb2dVertex
62
5
10
88.250000
20
317.125000
0
VERTEX
5
237
100
AcDbEntity
8
1
100
AcDbVertex
100
AcDb2dVertex
62
5
10
86.500000
20
315.250000
0
VERTEX
5
238
100
AcDbEntity
8
1
100
AcDbVertex
100
AcDb2dVertex
62
5
10
85.750000
20
315.250000
0
SEQEND
5
239
100
AcDbEntity
8
1
0
POLYLINE
5
23a
100
AcDbEntity
8
1
6
CONTINUOUS
62
5
100
AcDb2dPolyline
66
1
10
0.0
20
0.0
30
0.0
70
0
0
VERTEX
5
23b
100
AcDbEntity
8
1
100
AcDbVertex
100
AcDb2dVertex
62
5
10
85.750000
20
316.187500
0
VERTEX
5
23c
100
AcDbEntity
8
1
100
AcDbVertex
100
AcDb2dVertex
62
5
10
85.750000
20
314.625000
0
VERTEX
5
23d
100
AcDbEntity
8
1
100
AcDbVertex
100
AcDb2dVertex
62
5
10
85.000000
20
312.750000
0
VERTEX
5
23e
100
AcDbEntity
8
1
100
AcDbVertex
100
AcDb2dVertex
62
5
10
84.000000
20
311.500000
0
SEQEND
5
23f
100
AcDbEntity
8
1
0
LINE
5
240
100
AcDbEntity
8
1
100
AcDbLine
6
CONTINUOUS
62
5
10
75.000000
20
329.000000
11
76.000000
21
328.062500
0
POLYLINE
5
241
100
AcDbEntity
8
1
6
CONTINUOUS
62
5
100
AcDb2dPolyline
66
1
10
0.0
20
0.0
30
0.0
70
0
0
VERTEX
5
242
100
AcDbEntity
8
1
100
AcDbVertex
100
AcDb2dVertex
62
5
10
74.750000
20
325.875000
0
VERTEX
5
243
100
AcDbEntity
8
1
100
AcDbVertex
100
AcDb2dVertex
62
5
10
76.000000
20
325.875000
0
VERTEX
5
244
100
AcDbEntity
8
1
100
AcDbVertex
100
AcDb2dVertex
62
5
10
76.000000
20
322.750000
0
VERTEX
5
245
100
AcDbEntity
8
1
100
AcDbVertex
100
AcDb2dVertex
62
5
10
74.750000
20
321.187500
0
SEQEND
5
246
100
AcDbEntity
8
1
0
POLYLINE
5
247
100
AcDbEntity
8
1
6
CONTINUOUS
62
5
100
AcDb2dPolyline
66
1
10
0.0
20
0.0
30
0.0
70
0
0
VERTEX
5
248
100
AcDbEntity
8
1
100
AcDbVertex
100
AcDb2dVertex
62
5
10
76.000000
20
322.750000
0
VERTEX
5
249
100
AcDbEntity
8
1
100
AcDbVertex
100
AcDb2dVertex
62
5
10
76.750000
20
321.500000
0
VERTEX
5
24a
100
AcDbEntity
8
1
100
AcDbVertex
100
AcDb2dVertex
62
5
10
77.750000
20
321.187500
0
VERTEX
5
24b
100
AcDbEntity
8
1
100
AcDbVertex
100
AcDb2dVertex
62
5
10
81.500000
20
321.187500
0
SEQEND
5
24c
100
AcDbEntity
8
1
0
POLYLINE
5
24d
100
AcDbEntity
8
1
6
CONTINUOUS
62
5
100
AcDb2dPolyline
66
1
10
0.0
20
0.0
30
0.0
70
0
0
VERTEX
5
24e
100
AcDbEntity
8
1
100
AcDbVertex
100
AcDb2dVertex
62
5
10
78.750000
20
326.500000
0
VERTEX
5
24f
100
AcDbEntity
8
1
100
AcDbVertex
100
AcDb2dVertex
62
5
10
78.000000
20
324.625000
0
VERTEX
5
250
100
AcDbEntity
8
1
100
AcDbVertex
100
AcDb2dVertex
62
5
10
77.250000
20
323.375000
0
VERTEX
5
251
100
AcDbEntity
8
1
100
AcDbVertex
100
AcDb2dVertex
62
5
10
76.750000
20
322.750000
0
SEQEND
5
252
100
AcDbEntity
8
1
0
POLYLINE
5
253
100
AcDbEntity
8
1
6
CONTINUOUS
62
5
100
AcDb2dPolyline
66
1
10
0.0
20
0.0
30
0.0
70
0
0
VERTEX
5
254
100
AcDbEntity
8
1
100
AcDbVertex
100
AcDb2dVertex
62
5
10
77.500000
20
329.312500
0
VERTEX
5
255
100
AcDbEntity
8
1
100
AcDbVertex
100
AcDb2dVertex
62
5
10
78.750000
20
329.312500
0
VERTEX
5
256
100
AcDbEntity
8
1
100
AcDbVertex
100
AcDb2dVertex
62
5
10
78.750000
20
326.500000
0
VERTEX
5
257
100
AcDbEntity
8
1
100
AcDbVertex
100
AcDb2dVertex
62
5
10
79.500000
20
324.625000
0
VERTEX
5
258
100
AcDbEntity
8
1
100
AcDbVertex
100
AcDb2dVertex
62
5
10
80.500000
20
323.375000
0
VERTEX
5
259
100
AcDbEntity
8
1
100
AcDbVertex
100
AcDb2dVertex
62
5
10
81.250000
20
322.750000
0
SEQEND
5
25a
100
AcDbEntity
8
1
0
POLYLINE
5
25b
100
AcDbEntity
8
1
6
CONTINUOUS
62
5
100
AcDb2dPolyline
66
1
10
0.0
20
0.0
30
0.0
70
0
0
VERTEX
5
25c
100
AcDbEntity
8
1
100
AcDbVertex
100
AcDb2dVertex
62
5
10
76.500000
20
315.562500
0
VERTEX
5
25d
100
AcDbEntity
8
1
100
AcDbVertex
100
AcDb2dVertex
62
5
10
78.500000
20
315.562500
0
VERTEX
5
25e
100
AcDbEntity
8
1
100
AcDbVertex
100
AcDb2dVertex
62
5
10
78.250000
20
312.437500
0
SEQEND
5
25f
100
AcDbEntity
8
1
0
LINE
5
260
100
AcDbEntity
8
1
100
AcDbLine
6
CONTINUOUS
62
5
10
75.750000
20
312.437500
11
80.000000
21
312.437500
0
POLYLINE
5
261
100
AcDbEntity
8
1
6
CONTINUOUS
62
5
100
AcDb2dPolyline
66
1
10
0.0
20
0.0
30
0.0
70
0
0
VERTEX
5
262
100
AcDbEntity
8
1
100
AcDbVertex
100
AcDb2dVertex
62
5
10
107.500000
20
325.875000
0
VERTEX
5
263
100
AcDbEntity
8
1
100
AcDbVertex
100
AcDb2dVertex
62
5
10
112.250000
20
325.875000
0
VERTEX
5
264
100
AcDbEntity
8
1
100
AcDbVertex
100
AcDb2dVertex
62
5
10
112.250000
20
325.562500
0
VERTEX
5
265
100
AcDbEntity
8
1
100
AcDbVertex
100
AcDb2dVertex
62
5
10
111.000000
20
323.375000
0
VERTEX
5
266
100
AcDbEntity
8
1
100
AcDbVertex
100
AcDb2dVertex
62
5
10
110.000000
20
322.437500
0
VERTEX
5
267
100
AcDbEntity
8
1
100
AcDbVertex
100
AcDb2dVertex
62
5
10
109.000000
20
321.812500
0
SEQEND
5
268
100
AcDbEntity
8
1
0
LINE
5
269
100
AcDbEntity
8
1
100
AcDbLine
6
CONTINUOUS
62
5
10
108.250000
20
328.062500
11
111.750000
21
328.062500
0
POLYLINE
5
26a
100
AcDbEntity
8
1
6
CONTINUOUS
62
5
100
AcDb2dPolyline
66
1
10
0.0
20
0.0
30
0.0
70
0
0
VERTEX
5
26b
100
AcDbEntity
8
1
100
AcDbVertex
100
AcDb2dVertex
62
5
10
111.750000
20
318.687500
0
VERTEX
5
26c
100
AcDbEntity
8
1
100
AcDbVertex
100
AcDb2dVertex
62
5
10
109.750000
20
316.187500
0
VERTEX
5
26d
100
AcDbEntity
8
1
100
AcDbVertex
100
AcDb2dVertex
62
5
10
107.500000
20
314.625000
0
SEQEND
5
26e
100
AcDbEntity
8
1
0
LINE
5
26f
100
AcDbEntity
8
1
100
AcDbLine
6
CONTINUOUS
62
5
10
110.250000
20
316.812500
11
110.250000
21
311.500000
0
LINE
5
270
100
AcDbEntity
8
1
100
AcDbLine
6
CONTINUOUS
62
5
10
82.500000
20
286.750000
11
85.625000
21
286.750000
0
LINE
5
271
100
AcDbEntity
8
1
100
AcDbLine
6
CONTINUOUS
62
5
10
107.500000
20
290.500000
11
107.500000
21
283.000000
0
POLYLINE
5
272
100
AcDbEntity
8
1
6
CONTINUOUS
62
5
100
AcDb2dPolyline
66
1
10
0.0
20
0.0
30
0.0
70
0
0
VERTEX
5
273
100
AcDbEntity
8
1
100
AcDbVertex
100
AcDb2dVertex
62
5
10
107.500000
20
290.500000
0
VERTEX
5
274
100
AcDbEntity
8
1
100
AcDbVertex
100
AcDb2dVertex
62
5
10
108.750000
20
290.500000
0
VERTEX
5
275
100
AcDbEntity
8
1
100
AcDbVertex
100
AcDb2dVertex
62
5
10
109.687500
20
290.187500
0
VERTEX
5
276
100
AcDbEntity
8
1
100
AcDbVertex
100
AcDb2dVertex
62
5
10
110.312500
20
289.562500
0
VERTEX
5
277
100
AcDbEntity
8
1
100
AcDbVertex
100
AcDb2dVertex
62
5
10
110.625000
20
288.937500
0
VERTEX
5
278
100
AcDbEntity
8
1
100
AcDbVertex
100
AcDb2dVertex
62
5
10
110.625000
20
288.000000
0
VERTEX
5
279
100
AcDbEntity
8
1
100
AcDbVertex
100
AcDb2dVertex
62
5
10
110.312500
20
287.375000
0
VERTEX
5
27a
100
AcDbEntity
8
1
100
AcDbVertex
100
AcDb2dVertex
62
5
10
109.687500
20
286.750000
0
VERTEX
5
27b
100
AcDbEntity
8
1
100
AcDbVertex
100
AcDb2dVertex
62
5
10
108.750000
20
286.437500
0
VERTEX
5
27c
100
AcDbEntity
8
1
100
AcDbVertex
100
AcDb2dVertex
62
5
10
107.500000
20
286.437500
0
SEQEND
5
27d
100
AcDbEntity
8
1
0
POLYLINE
5
27e
100
AcDbEntity
8
1
6
CONTINUOUS
62
5
100
AcDb2dPolyline
66
1
10
0.0
20
0.0
30
0.0
70
0
0
VERTEX
5
27f
100
AcDbEntity
8
1
100
AcDbVertex
100
AcDb2dVertex
62
5
10
112.187500
20
290.500000
0
VERTEX
5
280
100
AcDbEntity
8
1
100
AcDbVertex
100
AcDb2dVertex
62
5
10
113.125000
20
283.000000
0
VERTEX
5
281
100
AcDbEntity
8
1
100
AcDbVertex
100
AcDb2dVertex
62
5
10
114.062500
20
290.500000
0
VERTEX
5
282
100
AcDbEntity
8
1
100
AcDbVertex
100
AcDb2dVertex
62
5
10
115.000000
20
283.000000
0
VERTEX
5
283
100
AcDbEntity
8
1
100
AcDbVertex
100
AcDb2dVertex
62
5
10
115.937500
20
290.500000
0
SEQEND
5
284
100
AcDbEntity
8
1
0
POLYLINE
5
285
100
AcDbEntity
8
1
6
CONTINUOUS
62
5
100
AcDb2dPolyline
66
1
10
0.0
20
0.0
30
0.0
70
0
0
VERTEX
5
286
100
AcDbEntity
8
1
100
AcDbVertex
100
AcDb2dVertex
62
5
10
87.500000
20
290.500000
0
VERTEX
5
287
100
AcDbEntity
8
1
100
AcDbVertex
100
AcDb2dVertex
62
5
10
87.500000
20
283.000000
0
VERTEX
5
288
100
AcDbEntity
8
1
100
AcDbVertex
100
AcDb2dVertex
62
5
10
90.625000
20
283.000000
0
SEQEND
5
289
100
AcDbEntity
8
1
0
POLYLINE
5
28a
100
AcDbEntity
8
1
6
CONTINUOUS
62
5
100
AcDb2dPolyline
66
1
10
0.0
20
0.0
30
0.0
70
0
0
VERTEX
5
28b
100
AcDbEntity
8
1
100
AcDbVertex
100
AcDb2dVertex
62
5
10
92.187500
20
290.500000
0
VERTEX
5
28c
100
AcDbEntity
8
1
100
AcDbVertex
100
AcDb2dVertex
62
5
10
93.125000
20
283.000000
0
VERTEX
5
28d
100
AcDbEntity
8
1
100
AcDbVertex
100
AcDb2dVertex
62
5
10
94.062500
20
290.500000
0
VERTEX
5
28e
100
AcDbEntity
8
1
100
AcDbVertex
100
AcDb2dVertex
62
5
10
95.000000
20
283.000000
0
VERTEX
5
28f
100
AcDbEntity
8
1
100
AcDbVertex
100
AcDb2dVertex
62
5
10
95.937500
20
290.500000
0
SEQEND
5
290
100
AcDbEntity
8
1
0
POLYLINE
5
291
100
AcDbEntity
8
1
6
CONTINUOUS
62
5
100
AcDb2dPolyline
66
1
10
0.0
20
0.0
30
0.0
70
0
0
VERTEX
5
292
100
AcDbEntity
8
1
100
AcDbVertex
100
AcDb2dVertex
62
5
10
100.000000
20
290.500000
0
VERTEX
5
293
100
AcDbEntity
8
1
100
AcDbVertex
100
AcDb2dVertex
62
5
10
99.062500
20
290.500000
0
VERTEX
5
294
100
AcDbEntity
8
1
100
AcDbVertex
100
AcDb2dVertex
62
5
10
98.125000
20
290.187500
0
VERTEX
5
295
100
AcDbEntity
8
1
100
AcDbVertex
100
AcDb2dVertex
62
5
10
97.500000
20
288.937500
0
VERTEX
5
296
100
AcDbEntity
8
1
100
AcDbVertex
100
AcDb2dVertex
62
5
10
97.500000
20
284.562500
0
VERTEX
5
297
100
AcDbEntity
8
1
100
AcDbVertex
100
AcDb2dVertex
62
5
10
97.812500
20
283.625000
0
VERTEX
5
298
100
AcDbEntity
8
1
100
AcDbVertex
100
AcDb2dVertex
62
5
10
98.125000
20
283.312500
0
VERTEX
5
299
100
AcDbEntity
8
1
100
AcDbVertex
100
AcDb2dVertex
62
5
10
98.750000
20
283.000000
0
VERTEX
5
29a
100
AcDbEntity
8
1
100
AcDbVertex
100
AcDb2dVertex
62
5
10
99.375000
20
283.000000
0
VERTEX
5
29b
100
AcDbEntity
8
1
100
AcDbVertex
100
AcDb2dVertex
62
5
10
100.000000
20
283.312500
0
VERTEX
5
29c
100
AcDbEntity
8
1
100
AcDbVertex
100
AcDb2dVertex
62
5
10
100.312500
20
283.625000
0
VERTEX
5
29d
100
AcDbEntity
8
1
100
AcDbVertex
100
AcDb2dVertex
62
5
10
100.625000
20
284.562500
0
VERTEX
5
29e
100
AcDbEntity
8
1
100
AcDbVertex
100
AcDb2dVertex
62
5
10
100.625000
20
286.437500
0
VERTEX
5
29f
100
AcDbEntity
8
1
100
AcDbVertex
100
AcDb2dVertex
62
5
10
100.312500
20
287.062500
0
VERTEX
5
2a0
100
AcDbEntity
8
1
100
AcDbVertex
100
AcDb2dVertex
62
5
10
99.687500
20
287.375000
0
VERTEX
5
2a1
100
AcDbEntity
8
1
100
AcDbVertex
100
AcDb2dVertex
62
5
10
98.437500
20
287.375000
0
VERTEX
5
2a2
100
AcDbEntity
8
1
100
AcDbVertex
100
AcDb2dVertex
62
5
10
97.500000
20
287.062500
0
SEQEND
5
2a3
100
AcDbEntity
8
1
0
LINE
5
2a4
100
AcDbEntity
8
1
100
AcDbLine
6
CONTINUOUS
62
5
10
72.500000
20
290.500000
11
72.500000
21
283.000000
0
POLYLINE
5
2a5
100
AcDbEntity
8
1
6
CONTINUOUS
62
5
100
AcDb2dPolyline
66
1
10
0.0
20
0.0
30
0.0
70
0
0
VERTEX
5
2a6
100
AcDbEntity
8
1
100
AcDbVertex
100
AcDb2dVertex
62
5
10
72.500000
20
290.500000
0
VERTEX
5
2a7
100
AcDbEntity
8
1
100
AcDbVertex
100
AcDb2dVertex
62
5
10
74.062500
20
290.500000
0
VERTEX
5
2a8
100
AcDbEntity
8
1
100
AcDbVertex
100
AcDb2dVertex
62
5
10
74.687500
20
290.187500
0
VERTEX
5
2a9
100
AcDbEntity
8
1
100
AcDbVertex
100
AcDb2dVertex
62
5
10
75.000000
20
289.875000
0
VERTEX
5
2aa
100
AcDbEntity
8
1
100
AcDbVertex
100
AcDb2dVertex
62
5
10
75.312500
20
289.250000
0
VERTEX
5
2ab
100
AcDbEntity
8
1
100
AcDbVertex
100
AcDb2dVertex
62
5
10
75.312500
20
288.312500
0
VERTEX
5
2ac
100
AcDbEntity
8
1
100
AcDbVertex
100
AcDb2dVertex
62
5
10
75.000000
20
287.687500
0
VERTEX
5
2ad
100
AcDbEntity
8
1
100
AcDbVertex
100
AcDb2dVertex
62
5
10
74.687500
20
287.375000
0
VERTEX
5
2ae
100
AcDbEntity
8
1
100
AcDbVertex
100
AcDb2dVertex
62
5
10
74.062500
20
287.062500
0
VERTEX
5
2af
100
AcDbEntity
8
1
100
AcDbVertex
100
AcDb2dVertex
62
5
10
72.500000
20
287.062500
0
SEQEND
5
2b0
100
AcDbEntity
8
1
0
POLYLINE
5
2b1
100
AcDbEntity
8
1
6
CONTINUOUS
62
5
100
AcDb2dPolyline
66
1
10
0.0
20
0.0
30
0.0
70
0
0
VERTEX
5
2b2
100
AcDbEntity
8
1
100
AcDbVertex
100
AcDb2dVertex
62
5
10
74.062500
20
287.062500
0
VERTEX
5
2b3
100
AcDbEntity
8
1
100
AcDbVertex
100
AcDb2dVertex
62
5
10
74.687500
20
286.750000
0
VERTEX
5
2b4
100
AcDbEntity
8
1
100
AcDbVertex
100
AcDb2dVertex
62
5
10
75.312500
20
286.125000
0
VERTEX
5
2b5
100
AcDbEntity
8
1
100
AcDbVertex
100
AcDb2dVertex
62
5
10
75.625000
20
285.500000
0
VERTEX
5
2b6
100
AcDbEntity
8
1
100
AcDbVertex
100
AcDb2dVertex
62
5
10
75.625000
20
284.250000
0
VERTEX
5
2b7
100
AcDbEntity
8
1
100
AcDbVertex
100
AcDb2dVertex
62
5
10
75.312500
20
283.625000
0
VERTEX
5
2b8
100
AcDbEntity
8
1
100
AcDbVertex
100
AcDb2dVertex
62
5
10
75.000000
20
283.312500
0
VERTEX
5
2b9
100
AcDbEntity
8
1
100
AcDbVertex
100
AcDb2dVertex
62
5
10
74.375000
20
283.000000
0
VERTEX
5
2ba
100
AcDbEntity
8
1
100
AcDbVertex
100
AcDb2dVertex
62
5
10
72.500000
20
283.000000
0
SEQEND
5
2bb
100
AcDbEntity
8
1
0
POLYLINE
5
2bc
100
AcDbEntity
8
1
6
CONTINUOUS
62
5
100
AcDb2dPolyline
66
1
10
0.0
20
0.0
30
0.0
70
0
0
VERTEX
5
2bd
100
AcDbEntity
8
1
100
AcDbVertex
100
AcDb2dVertex
62
5
10
77.500000
20
283.000000
0
VERTEX
5
2be
100
AcDbEntity
8
1
100
AcDbVertex
100
AcDb2dVertex
62
5
10
77.500000
20
290.500000
0
VERTEX
5
2bf
100
AcDbEntity
8
1
100
AcDbVertex
100
AcDb2dVertex
62
5
10
80.625000
20
283.000000
0
VERTEX
5
2c0
100
AcDbEntity
8
1
100
AcDbVertex
100
AcDb2dVertex
62
5
10
80.625000
20
290.500000
0
SEQEND
5
2c1
100
AcDbEntity
8
1
0
POLYLINE
5
2c2
100
AcDbEntity
8
1
6
CONTINUOUS
62
5
100
AcDb2dPolyline
66
1
10
0.0
20
0.0
30
0.0
70
0
0
VERTEX
5
2c3
100
AcDbEntity
8
1
100
AcDbVertex
100
AcDb2dVertex
62
5
10
65.625000
20
288.937500
0
VERTEX
5
2c4
100
AcDbEntity
8
1
100
AcDbVertex
100
AcDb2dVertex
62
5
10
65.312500
20
289.875000
0
VERTEX
5
2c5
100
AcDbEntity
8
1
100
AcDbVertex
100
AcDb2dVertex
62
5
10
64.687500
20
290.500000
0
VERTEX
5
2c6
100
AcDbEntity
8
1
100
AcDbVertex
100
AcDb2dVertex
62
5
10
63.750000
20
290.500000
0
VERTEX
5
2c7
100
AcDbEntity
8
1
100
AcDbVertex
100
AcDb2dVertex
62
5
10
62.812500
20
289.562500
0
VERTEX
5
2c8
100
AcDbEntity
8
1
100
AcDbVertex
100
AcDb2dVertex
62
5
10
62.500000
20
288.000000
0
VERTEX
5
2c9
100
AcDbEntity
8
1
100
AcDbVertex
100
AcDb2dVertex
62
5
10
62.500000
20
285.500000
0
VERTEX
5
2ca
100
AcDbEntity
8
1
100
AcDbVertex
100
AcDb2dVertex
62
5
10
62.812500
20
283.937500
0
VERTEX
5
2cb
100
AcDbEntity
8
1
100
AcDbVertex
100
AcDb2dVertex
62
5
10
63.750000
20
283.000000
0
VERTEX
5
2cc
100
AcDbEntity
8
1
100
AcDbVertex
100
AcDb2dVertex
62
5
10
64.687500
20
283.000000
0
VERTEX
5
2cd
100
AcDbEntity
8
1
100
AcDbVertex
100
AcDb2dVertex
62
5
10
65.312500
20
283.625000
0
VERTEX
5
2ce
100
AcDbEntity
8
1
100
AcDbVertex
100
AcDb2dVertex
62
5
10
65.937500
20
285.187500
0
SEQEND
5
2cf
100
AcDbEntity
8
1
0
POLYLINE
5
2d0
100
AcDbEntity
8
1
6
CONTINUOUS
62
5
100
AcDb2dPolyline
66
1
10
0.0
20
0.0
30
0.0
70
0
0
VERTEX
5
2d1
100
AcDbEntity
8
1
100
AcDbVertex
100
AcDb2dVertex
62
5
10
55.312500
20
290.500000
0
VERTEX
5
2d2
100
AcDbEntity
8
1
100
AcDbVertex
100
AcDb2dVertex
62
5
10
55.312500
20
284.875000
0
VERTEX
5
2d3
100
AcDbEntity
8
1
100
AcDbVertex
100
AcDb2dVertex
62
5
10
55.000000
20
283.625000
0
VERTEX
5
2d4
100
AcDbEntity
8
1
100
AcDbVertex
100
AcDb2dVertex
62
5
10
54.375000
20
283.000000
0
VERTEX
5
2d5
100
AcDbEntity
8
1
100
AcDbVertex
100
AcDb2dVertex
62
5
10
53.437500
20
283.000000
0
VERTEX
5
2d6
100
AcDbEntity
8
1
100
AcDbVertex
100
AcDb2dVertex
62
5
10
52.812500
20
283.625000
0
VERTEX
5
2d7
100
AcDbEntity
8
1
100
AcDbVertex
100
AcDb2dVertex
62
5
10
52.500000
20
284.875000
0
SEQEND
5
2d8
100
AcDbEntity
8
1
0
POLYLINE
5
2d9
100
AcDbEntity
8
1
6
CONTINUOUS
62
5
100
AcDb2dPolyline
66
1
10
0.0
20
0.0
30
0.0
70
0
0
VERTEX
5
2da
100
AcDbEntity
8
1
100
AcDbVertex
100
AcDb2dVertex
62
5
10
60.625000
20
290.500000
0
VERTEX
5
2db
100
AcDbEntity
8
1
100
AcDbVertex
100
AcDb2dVertex
62
5
10
57.500000
20
290.500000
0
VERTEX
5
2dc
100
AcDbEntity
8
1
100
AcDbVertex
100
AcDb2dVertex
62
5
10
57.500000
20
283.000000
0
VERTEX
5
2dd
100
AcDbEntity
8
1
100
AcDbVertex
100
AcDb2dVertex
62
5
10
60.937500
20
283.000000
0
SEQEND
5
2de
100
AcDbEntity
8
1
0
LINE
5
2df
100
AcDbEntity
8
1
100
AcDbLine
6
CONTINUOUS
62
5
10
57.500000
20
286.750000
11
60.312500
21
286.750000
0
LINE
5
2e0
100
AcDbEntity
8
1
100
AcDbLine
6
CONTINUOUS
62
5
10
66.500000
20
326.500000
11
68.500000
21
326.500000
0
LINE
5
2e1
100
AcDbEntity
8
1
100
AcDbLine
6
CONTINUOUS
62
5
10
66.250000
20
322.125000
11
68.500000
21
323.375000
0
LINE
5
2e2
100
AcDbEntity
8
1
100
AcDbLine
6
CONTINUOUS
62
5
10
67.500000
20
329.000000
11
67.500000
21
322.750000
0
POLYLINE
5
2e3
100
AcDbEntity
8
1
6
CONTINUOUS
62
5
100
AcDb2dPolyline
66
1
10
0.0
20
0.0
30
0.0
70
1
0
VERTEX
5
2e4
100
AcDbEntity
8
1
100
AcDbVertex
100
AcDb2dVertex
62
5
10
69.500000
20
328.687500
0
VERTEX
5
2e5
100
AcDbEntity
8
1
100
AcDbVertex
100
AcDb2dVertex
62
5
10
69.500000
20
325.250000
0
VERTEX
5
2e6
100
AcDbEntity
8
1
100
AcDbVertex
100
AcDb2dVertex
62
5
10
72.500000
20
325.250000
0
VERTEX
5
2e7
100
AcDbEntity
8
1
100
AcDbVertex
100
AcDb2dVertex
62
5
10
72.500000
20
328.687500
0
VERTEX
5
2e8
100
AcDbEntity
8
1
100
AcDbVertex
100
AcDb2dVertex
62
5
10
69.500000
20
328.687500
0
SEQEND
5
2e9
100
AcDbEntity
8
1
0
LINE
5
2ea
100
AcDbEntity
8
1
100
AcDbLine
6
CONTINUOUS
62
5
10
69.500000
20
327.125000
11
72.500000
21
327.125000
0
LINE
5
2eb
100
AcDbEntity
8
1
100
AcDbLine
6
CONTINUOUS
62
5
10
71.000000
20
328.687500
11
71.000000
21
321.500000
0
LINE
5
2ec
100
AcDbEntity
8
1
100
AcDbLine
6
CONTINUOUS
62
5
10
69.000000
20
323.687500
11
73.000000
21
323.687500
0
LINE
5
2ed
100
AcDbEntity
8
1
100
AcDbLine
6
CONTINUOUS
62
5
10
68.250000
20
321.500000
11
73.500000
21
321.500000
0
POLYLINE
5
2ee
100
AcDbEntity
8
1
6
CONTINUOUS
62
5
100
AcDb2dPolyline
66
1
10
0.0
20
0.0
30
0.0
70
0
0
VERTEX
5
2ef
100
AcDbEntity
8
1
100
AcDbVertex
100
AcDb2dVertex
62
5
10
67.750000
20
317.750000
0
VERTEX
5
2f0
100
AcDbEntity
8
1
100
AcDbVertex
100
AcDb2dVertex
62
5
10
67.750000
20
312.437500
0
VERTEX
5
2f1
100
AcDbEntity
8
1
100
AcDbVertex
100
AcDb2dVertex
62
5
10
68.250000
20
311.812500
0
VERTEX
5
2f2
100
AcDbEntity
8
1
100
AcDbVertex
100
AcDb2dVertex
62
5
10
71.750000
20
311.812500
0
SEQEND
5
2f3
100
AcDbEntity
8
1
0
LINE
5
2f4
100
AcDbEntity
8
1
100
AcDbLine
6
CONTINUOUS
62
5
10
71.250000
20
315.875000
11
67.750000
21
314.937500
0
POLYLINE
5
2f5
100
AcDbEntity
8
1
6
CONTINUOUS
62
5
100
AcDb2dPolyline
66
1
10
0.0
20
0.0
30
0.0
70
1
0
VERTEX
5
2f6
100
AcDbEntity
8
1
100
AcDbVertex
100
AcDb2dVertex
62
5
10
71.250000
20
317.750000
0
VERTEX
5
2f7
100
AcDbEntity
8
1
100
AcDbVertex
100
AcDb2dVertex
62
5
10
71.750000
20
318.375000
0
VERTEX
5
2f8
100
AcDbEntity
8
1
100
AcDbVertex
100
AcDb2dVertex
62
5
10
72.000000
20
318.375000
0
VERTEX
5
2f9
100
AcDbEntity
8
1
100
AcDbVertex
100
AcDb2dVertex
62
5
10
72.500000
20
317.750000
0
VERTEX
5
2fa
100
AcDbEntity
8
1
100
AcDbVertex
100
AcDb2dVertex
62
5
10
72.500000
20
317.437500
0
VERTEX
5
2fb
100
AcDbEntity
8
1
100
AcDbVertex
100
AcDb2dVertex
62
5
10
72.000000
20
316.812500
0
VERTEX
5
2fc
100
AcDbEntity
8
1
100
AcDbVertex
100
AcDb2dVertex
62
5
10
71.750000
20
316.812500
0
VERTEX
5
2fd
100
AcDbEntity
8
1
100
AcDbVertex
100
AcDb2dVertex
62
5
10
71.250000
20
317.437500
0
VERTEX
5
2fe
100
AcDbEntity
8
1
100
AcDbVertex
100
AcDb2dVertex
62
5
10
71.250000
20
317.750000
0
SEQEND
5
2ff
100
AcDbEntity
8
1
0
LINE
5
300
100
AcDbEntity
8
1
100
AcDbLine
6
CONTINUOUS
62
5
10
67.500000
20
286.750000
11
70.625000
21
286.750000
0
POLYLINE
5
301
100
AcDbEntity
8
3
6
DOT2
62
5
100
AcDb2dPolyline
66
1
10
0.0
20
0.0
30
0.0
70
0
0
VERTEX
5
302
100
AcDbEntity
8
3
100
AcDbVertex
100
AcDb2dVertex
62
5
10
112.074924
20
192.912500
0
VERTEX
5
303
100
AcDbEntity
8
3
100
AcDbVertex
100
AcDb2dVertex
62
5
10
112.387424
20
194.475000
0
VERTEX
5
304
100
AcDbEntity
8
3
100
AcDbVertex
100
AcDb2dVertex
62
5
10
113.324924
20
195.100000
0
VERTEX
5
305
100
AcDbEntity
8
3
100
AcDbVertex
100
AcDb2dVertex
62
5
10
114.262424
20
195.100000
0
VERTEX
5
306
100
AcDbEntity
8
3
100
AcDbVertex
100
AcDb2dVertex
62
5
10
114.887424
20
194.787500
0
VERTEX
5
307
100
AcDbEntity
8
3
100
AcDbVertex
100
AcDb2dVertex
62
5
10
115.199924
20
193.850000
0
VERTEX
5
308
100
AcDbEntity
8
3
100
AcDbVertex
100
AcDb2dVertex
62
5
10
115.199924
20
192.912500
0
VERTEX
5
309
100
AcDbEntity
8
3
100
AcDbVertex
100
AcDb2dVertex
62
5
10
114.887424
20
191.975000
0
VERTEX
5
30a
100
AcDbEntity
8
3
100
AcDbVertex
100
AcDb2dVertex
62
5
10
112.074924
20
187.600000
0
VERTEX
5
30b
100
AcDbEntity
8
3
100
AcDbVertex
100
AcDb2dVertex
62
5
10
115.199924
20
187.600000
0
VERTEX
5
30c
100
AcDbEntity
8
3
100
AcDbVertex
100
AcDb2dVertex
62
5
10
115.199924
20
188.537500
0
SEQEND
5
30d
100
AcDbEntity
8
3
0
POLYLINE
5
30e
100
AcDbEntity
8
3
6
DOT2
62
5
100
AcDb2dPolyline
66
1
10
0.0
20
0.0
30
0.0
70
1
0
VERTEX
5
30f
100
AcDbEntity
8
3
100
AcDbVertex
100
AcDb2dVertex
62
5
10
118.324924
20
195.100000
0
VERTEX
5
310
100
AcDbEntity
8
3
100
AcDbVertex
100
AcDb2dVertex
62
5
10
118.949924
20
195.100000
0
VERTEX
5
311
100
AcDbEntity
8
3
100
AcDbVertex
100
AcDb2dVertex
62
5
10
119.574924
20
194.787500
0
VERTEX
5
312
100
AcDbEntity
8
3
100
AcDbVertex
100
AcDb2dVertex
62
5
10
119.887424
20
194.162500
0
VERTEX
5
313
100
AcDbEntity
8
3
100
AcDbVertex
100
AcDb2dVertex
62
5
10
119.887424
20
192.912500
0
VERTEX
5
314
100
AcDbEntity
8
3
100
AcDbVertex
100
AcDb2dVertex
62
5
10
119.574924
20
192.287500
0
VERTEX
5
315
100
AcDbEntity
8
3
100
AcDbVertex
100
AcDb2dVertex
62
5
10
117.699924
20
191.037500
0
VERTEX
5
316
100
AcDbEntity
8
3
100
AcDbVertex
100
AcDb2dVertex
62
5
10
117.074924
20
190.100000
0
VERTEX
5
317
100
AcDbEntity
8
3
100
AcDbVertex
100
AcDb2dVertex
62
5
10
117.074924
20
188.850000
0
VERTEX
5
318
100
AcDbEntity
8
3
100
AcDbVertex
100
AcDb2dVertex
62
5
10
117.387424
20
188.225000
0
VERTEX
5
319
100
AcDbEntity
8
3
100
AcDbVertex
100
AcDb2dVertex
62
5
10
117.699924
20
187.912500
0
VERTEX
5
31a
100
AcDbEntity
8
3
100
AcDbVertex
100
AcDb2dVertex
62
5
10
118.324924
20
187.600000
0
VERTEX
5
31b
100
AcDbEntity
8
3
100
AcDbVertex
100
AcDb2dVertex
62
5
10
118.949924
20
187.600000
0
VERTEX
5
31c
100
AcDbEntity
8
3
100
AcDbVertex
100
AcDb2dVertex
62
5
10
119.574924
20
187.912500
0
VERTEX
5
31d
100
AcDbEntity
8
3
100
AcDbVertex
100
AcDb2dVertex
62
5
10
119.887424
20
188.225000
0
VERTEX
5
31e
100
AcDbEntity
8
3
100
AcDbVertex
100
AcDb2dVertex
62
5
10
120.199924
20
188.850000
0
VERTEX
5
31f
100
AcDbEntity
8
3
100
AcDbVertex
100
AcDb2dVertex
62
5
10
120.199924
20
190.100000
0
VERTEX
5
320
100
AcDbEntity
8
3
100
AcDbVertex
100
AcDb2dVertex
62
5
10
119.574924
20
191.037500
0
VERTEX
5
321
100
AcDbEntity
8
3
100
AcDbVertex
100
AcDb2dVertex
62
5
10
117.699924
20
192.287500
0
VERTEX
5
322
100
AcDbEntity
8
3
100
AcDbVertex
100
AcDb2dVertex
62
5
10
117.387424
20
192.912500
0
VERTEX
5
323
100
AcDbEntity
8
3
100
AcDbVertex
100
AcDb2dVertex
62
5
10
117.387424
20
194.162500
0
VERTEX
5
324
100
AcDbEntity
8
3
100
AcDbVertex
100
AcDb2dVertex
62
5
10
117.699924
20
194.787500
0
VERTEX
5
325
100
AcDbEntity
8
3
100
AcDbVertex
100
AcDb2dVertex
62
5
10
118.324924
20
195.100000
0
SEQEND
5
326
100
AcDbEntity
8
3
0
POLYLINE
5
327
100
AcDbEntity
8
3
6
CONTINUOUS
62
5
100
AcDb2dPolyline
66
1
10
0.0
20
0.0
30
0.0
70
0
0
VERTEX
5
328
100
AcDbEntity
8
3
100
AcDbVertex
100
AcDb2dVertex
62
5
10
131.174924
20
160.700000
0
VERTEX
5
329
100
AcDbEntity
8
3
100
AcDbVertex
100
AcDb2dVertex
62
5
10
131.174924
20
161.000000
0
VERTEX
5
32a
100
AcDbEntity
8
3
100
AcDbVertex
100
AcDb2dVertex
62
5
10
132.914369
20
161.000000
0
VERTEX
5
32b
100
AcDbEntity
8
3
100
AcDbVertex
100
AcDb2dVertex
62
5
10
132.914369
20
160.700000
0
SEQEND
5
32c
100
AcDbEntity
8
3
0
POLYLINE
5
32d
100
AcDbEntity
8
3
6
CONTINUOUS
62
5
100
AcDb2dPolyline
66
1
10
0.0
20
0.0
30
0.0
70
0
0
VERTEX
5
32e
100
AcDbEntity
8
3
100
AcDbVertex
100
AcDb2dVertex
62
5
10
133.855066
20
160.700000
0
VERTEX
5
32f
100
AcDbEntity
8
3
100
AcDbVertex
100
AcDb2dVertex
62
5
10
133.855066
20
161.000000
0
VERTEX
5
330
100
AcDbEntity
8
3
100
AcDbVertex
100
AcDb2dVertex
62
5
10
135.524924
20
161.000000
0
VERTEX
5
331
100
AcDbEntity
8
3
100
AcDbVertex
100
AcDb2dVertex
62
5
10
135.524924
20
160.700000
0
SEQEND
5
332
100
AcDbEntity
8
3
0
POLYLINE
5
333
100
AcDbEntity
8
3
6
CONTINUOUS
62
5
100
AcDb2dPolyline
66
1
10
0.0
20
0.0
30
0.0
70
0
0
VERTEX
5
334
100
AcDbEntity
8
3
100
AcDbVertex
100
AcDb2dVertex
62
5
10
97.864369
20
160.700000
0
VERTEX
5
335
100
AcDbEntity
8
3
100
AcDbVertex
100
AcDb2dVertex
62
5
10
97.864369
20
161.000000
0
VERTEX
5
336
100
AcDbEntity
8
3
100
AcDbVertex
100
AcDb2dVertex
62
5
10
96.124924
20
161.000000
0
VERTEX
5
337
100
AcDbEntity
8
3
100
AcDbVertex
100
AcDb2dVertex
62
5
10
96.124924
20
160.700000
0
SEQEND
5
338
100
AcDbEntity
8
3
0
POLYLINE
5
339
100
AcDbEntity
8
3
6
CONTINUOUS
62
5
100
AcDb2dPolyline
66
1
10
0.0
20
0.0
30
0.0
70
0
0
VERTEX
5
33a
100
AcDbEntity
8
3
100
AcDbVertex
100
AcDb2dVertex
62
5
10
100.474924
20
160.700000
0
VERTEX
5
33b
100
AcDbEntity
8
3
100
AcDbVertex
100
AcDb2dVertex
62
5
10
100.474924
20
161.000000
0
VERTEX
5
33c
100
AcDbEntity
8
3
100
AcDbVertex
100
AcDb2dVertex
62
5
10
98.805066
20
161.000000
0
VERTEX
5
33d
100
AcDbEntity
8
3
100
AcDbVertex
100
AcDb2dVertex
62
5
10
98.805066
20
160.700000
0
SEQEND
5
33e
100
AcDbEntity
8
3
0
LINE
5
33f
100
AcDbEntity
8
3
100
AcDbLine
6
CONTINUOUS
62
5
10
129.824924
20
162.150000
11
129.824924
21
188.350000
0
LINE
5
340
100
AcDbEntity
8
3
100
AcDbLine
6
CONTINUOUS
62
5
10
101.824924
20
162.150000
11
101.824924
21
188.350000
0
POLYLINE
5
341
100
AcDbEntity
8
3
6
CONTINUOUS
62
5
100
AcDb2dPolyline
66
1
10
0.0
20
0.0
30
0.0
70
0
0
VERTEX
5
342
100
AcDbEntity
8
3
100
AcDbVertex
100
AcDb2dVertex
62
5
10
115.824924
20
186.350000
0
VERTEX
5
343
100
AcDbEntity
8
3
100
AcDbVertex
100
AcDb2dVertex
62
5
10
101.824924
20
186.350000
0
VERTEX
5
344
100
AcDbEntity
8
3
100
AcDbVertex
100
AcDb2dVertex
62
5
10
107.824924
20
187.350000
0
VERTEX
5
345
100
AcDbEntity
8
3
100
AcDbVertex
100
AcDb2dVertex
62
5
10
107.824924
20
185.350000
0
VERTEX
5
346
100
AcDbEntity
8
3
100
AcDbVertex
100
AcDb2dVertex
62
5
10
101.824924
20
186.350000
0
VERTEX
5
347
100
AcDbEntity
8
3
100
AcDbVertex
100
AcDb2dVertex
62
5
10
107.824924
20
186.850000
0
VERTEX
5
348
100
AcDbEntity
8
3
100
AcDbVertex
100
AcDb2dVertex
62
5
10
107.824924
20
185.850000
0
VERTEX
5
349
100
AcDbEntity
8
3
100
AcDbVertex
100
AcDb2dVertex
62
5
10
101.824924
20
186.350000
0
SEQEND
5
34a
100
AcDbEntity
8
3
0
POLYLINE
5
34b
100
AcDbEntity
8
3
6
CONTINUOUS
62
5
100
AcDb2dPolyline
66
1
10
0.0
20
0.0
30
0.0
70
0
0
VERTEX
5
34c
100
AcDbEntity
8
3
100
AcDbVertex
100
AcDb2dVertex
62
5
10
115.824924
20
186.350000
0
VERTEX
5
34d
100
AcDbEntity
8
3
100
AcDbVertex
100
AcDb2dVertex
62
5
10
129.824924
20
186.350000
0
VERTEX
5
34e
100
AcDbEntity
8
3
100
AcDbVertex
100
AcDb2dVertex
62
5
10
123.824924
20
185.350000
0
VERTEX
5
34f
100
AcDbEntity
8
3
100
AcDbVertex
100
AcDb2dVertex
62
5
10
123.824924
20
187.350000
0
VERTEX
5
350
100
AcDbEntity
8
3
100
AcDbVertex
100
AcDb2dVertex
62
5
10
129.824924
20
186.350000
0
VERTEX
5
351
100
AcDbEntity
8
3
100
AcDbVertex
100
AcDb2dVertex
62
5
10
123.824924
20
185.850000
0
VERTEX
5
352
100
AcDbEntity
8
3
100
AcDbVertex
100
AcDb2dVertex
62
5
10
123.824924
20
186.850000
0
VERTEX
5
353
100
AcDbEntity
8
3
100
AcDbVertex
100
AcDb2dVertex
62
5
10
129.824924
20
186.350000
0
SEQEND
5
354
100
AcDbEntity
8
3
0
LINE
5
355
100
AcDbEntity
8
0
100
AcDbLine
6
DOT2
62
5
10
66.849924
20
183.225000
11
67.474924
21
182.600000
0
POLYLINE
5
356
100
AcDbEntity
8
0
6
DOT2
62
5
100
AcDb2dPolyline
66
1
10
0.0
20
0.0
30
0.0
70
0
0
VERTEX
5
357
100
AcDbEntity
8
0
100
AcDbVertex
100
AcDb2dVertex
62
5
10
66.849924
20
182.600000
0
VERTEX
5
358
100
AcDbEntity
8
0
100
AcDbVertex
100
AcDb2dVertex
62
5
10
67.474924
20
183.225000
0
VERTEX
5
359
100
AcDbEntity
8
0
100
AcDbVertex
100
AcDb2dVertex
62
5
10
67.474924
20
182.600000
0
VERTEX
5
35a
100
AcDbEntity
8
0
100
AcDbVertex
100
AcDb2dVertex
62
5
10
66.849924
20
182.600000
0
VERTEX
5
35b
100
AcDbEntity
8
0
100
AcDbVertex
100
AcDb2dVertex
62
5
10
66.849924
20
183.225000
0
VERTEX
5
35c
100
AcDbEntity
8
0
100
AcDbVertex
100
AcDb2dVertex
62
5
10
67.474924
20
183.225000
0
SEQEND
5
35d
100
AcDbEntity
8
0
0
POLYLINE
5
35e
100
AcDbEntity
8
0
6
DOT2
62
5
100
AcDb2dPolyline
66
1
10
0.0
20
0.0
30
0.0
70
0
0
VERTEX
5
35f
100
AcDbEntity
8
0
100
AcDbVertex
100
AcDb2dVertex
62
5
10
60.912424
20
187.600000
0
VERTEX
5
360
100
AcDbEntity
8
0
100
AcDbVertex
100
AcDb2dVertex
62
5
10
59.974924
20
187.600000
0
VERTEX
5
361
100
AcDbEntity
8
0
100
AcDbVertex
100
AcDb2dVertex
62
5
10
59.974924
20
190.725000
0
VERTEX
5
362
100
AcDbEntity
8
0
100
AcDbVertex
100
AcDb2dVertex
62
5
10
60.599924
20
190.725000
0
VERTEX
5
363
100
AcDbEntity
8
0
100
AcDbVertex
100
AcDb2dVertex
62
5
10
62.162424
20
190.100000
0
VERTEX
5
364
100
AcDbEntity
8
0
100
AcDbVertex
100
AcDb2dVertex
62
5
10
64.349924
20
189.475000
0
VERTEX
5
365
100
AcDbEntity
8
0
100
AcDbVertex
100
AcDb2dVertex
62
5
10
67.474924
20
188.850000
0
SEQEND
5
366
100
AcDbEntity
8
0
0
POLYLINE
5
367
100
AcDbEntity
8
0
6
DOT2
62
5
100
AcDb2dPolyline
66
1
10
0.0
20
0.0
30
0.0
70
0
0
VERTEX
5
368
100
AcDbEntity
8
0
100
AcDbVertex
100
AcDb2dVertex
62
5
10
62.162424
20
172.600000
0
VERTEX
5
369
100
AcDbEntity
8
0
100
AcDbVertex
100
AcDb2dVertex
62
5
10
60.599924
20
172.912500
0
VERTEX
5
36a
100
AcDbEntity
8
0
100
AcDbVertex
100
AcDb2dVertex
62
5
10
59.974924
20
173.850000
0
VERTEX
5
36b
100
AcDbEntity
8
0
100
AcDbVertex
100
AcDb2dVertex
62
5
10
59.974924
20
174.787500
0
VERTEX
5
36c
100
AcDbEntity
8
0
100
AcDbVertex
100
AcDb2dVertex
62
5
10
60.287424
20
175.412500
0
VERTEX
5
36d
100
AcDbEntity
8
0
100
AcDbVertex
100
AcDb2dVertex
62
5
10
61.224924
20
175.725000
0
VERTEX
5
36e
100
AcDbEntity
8
0
100
AcDbVertex
100
AcDb2dVertex
62
5
10
62.162424
20
175.725000
0
VERTEX
5
36f
100
AcDbEntity
8
0
100
AcDbVertex
100
AcDb2dVertex
62
5
10
63.099924
20
175.412500
0
VERTEX
5
370
100
AcDbEntity
8
0
100
AcDbVertex
100
AcDb2dVertex
62
5
10
67.474924
20
172.600000
0
VERTEX
5
371
100
AcDbEntity
8
0
100
AcDbVertex
100
AcDb2dVertex
62
5
10
67.474924
20
175.725000
0
VERTEX
5
372
100
AcDbEntity
8
0
100
AcDbVertex
100
AcDb2dVertex
62
5
10
66.537424
20
175.725000
0
SEQEND
5
373
100
AcDbEntity
8
0
0
POLYLINE
5
374
100
AcDbEntity
8
0
6
DOT2
62
5
100
AcDb2dPolyline
66
1
10
0.0
20
0.0
30
0.0
70
0
0
VERTEX
5
375
100
AcDbEntity
8
0
100
AcDbVertex
100
AcDb2dVertex
62
5
10
62.162424
20
177.600000
0
VERTEX
5
376
100
AcDbEntity
8
0
100
AcDbVertex
100
AcDb2dVertex
62
5
10
60.599924
20
177.912500
0
VERTEX
5
377
100
AcDbEntity
8
0
100
AcDbVertex
100
AcDb2dVertex
62
5
10
59.974924
20
178.850000
0
VERTEX
5
378
100
AcDbEntity
8
0
100
AcDbVertex
100
AcDb2dVertex
62
5
10
59.974924
20
179.787500
0
VERTEX
5
379
100
AcDbEntity
8
0
100
AcDbVertex
100
AcDb2dVertex
62
5
10
60.287424
20
180.412500
0
VERTEX
5
37a
100
AcDbEntity
8
0
100
AcDbVertex
100
AcDb2dVertex
62
5
10
61.224924
20
180.725000
0
VERTEX
5
37b
100
AcDbEntity
8
0
100
AcDbVertex
100
AcDb2dVertex
62
5
10
62.162424
20
180.725000
0
VERTEX
5
37c
100
AcDbEntity
8
0
100
AcDbVertex
100
AcDb2dVertex
62
5
10
63.099924
20
180.412500
0
VERTEX
5
37d
100
AcDbEntity
8
0
100
AcDbVertex
100
AcDb2dVertex
62
5
10
67.474924
20
177.600000
0
VERTEX
5
37e
100
AcDbEntity
8
0
100
AcDbVertex
100
AcDb2dVertex
62
5
10
67.474924
20
180.725000
0
VERTEX
5
37f
100
AcDbEntity
8
0
100
AcDbVertex
100
AcDb2dVertex
62
5
10
66.537424
20
180.725000
0
SEQEND
5
380
100
AcDbEntity
8
0
0
POLYLINE
5
381
100
AcDbEntity
8
1
6
CONTINUOUS
62
5
100
AcDb2dPolyline
66
1
10
0.0
20
0.0
30
0.0
70
0
0
VERTEX
5
382
100
AcDbEntity
8
1
100
AcDbVertex
100
AcDb2dVertex
62
5
10
224.724664
20
152.288391
0
VERTEX
5
383
100
AcDbEntity
8
1
100
AcDbVertex
100
AcDb2dVertex
62
5
10
224.537164
20
152.175891
0
VERTEX
5
384
100
AcDbEntity
8
1
100
AcDbVertex
100
AcDb2dVertex
62
5
10
224.424664
20
152.138391
0
VERTEX
5
385
100
AcDbEntity
8
1
100
AcDbVertex
100
AcDb2dVertex
62
5
10
224.274664
20
152.138391
0
VERTEX
5
386
100
AcDbEntity
8
1
100
AcDbVertex
100
AcDb2dVertex
62
5
10
224.199664
20
152.175891
0
VERTEX
5
387
100
AcDbEntity
8
1
100
AcDbVertex
100
AcDb2dVertex
62
5
10
224.124664
20
152.250891
0
VERTEX
5
388
100
AcDbEntity
8
1
100
AcDbVertex
100
AcDb2dVertex
62
5
10
224.124664
20
152.363391
0
VERTEX
5
389
100
AcDbEntity
8
1
100
AcDbVertex
100
AcDb2dVertex
62
5
10
224.199664
20
152.475891
0
VERTEX
5
38a
100
AcDbEntity
8
1
100
AcDbVertex
100
AcDb2dVertex
62
5
10
224.312164
20
152.550891
0
VERTEX
5
38b
100
AcDbEntity
8
1
100
AcDbVertex
100
AcDb2dVertex
62
5
10
224.537164
20
152.550891
0
SEQEND
5
38c
100
AcDbEntity
8
1
0
POLYLINE
5
38d
100
AcDbEntity
8
1
6
CONTINUOUS
62
5
100
AcDb2dPolyline
66
1
10
0.0
20
0.0
30
0.0
70
0
0
VERTEX
5
38e
100
AcDbEntity
8
1
100
AcDbVertex
100
AcDb2dVertex
62
5
10
224.312164
20
152.550891
0
VERTEX
5
38f
100
AcDbEntity
8
1
100
AcDbVertex
100
AcDb2dVertex
62
5
10
224.199664
20
152.588391
0
VERTEX
5
390
100
AcDbEntity
8
1
100
AcDbVertex
100
AcDb2dVertex
62
5
10
224.124664
20
152.663391
0
VERTEX
5
391
100
AcDbEntity
8
1
100
AcDbVertex
100
AcDb2dVertex
62
5
10
224.087164
20
152.738391
0
VERTEX
5
392
100
AcDbEntity
8
1
100
AcDbVertex
100
AcDb2dVertex
62
5
10
224.087164
20
152.850891
0
VERTEX
5
393
100
AcDbEntity
8
1
100
AcDbVertex
100
AcDb2dVertex
62
5
10
224.162164
20
152.963391
0
VERTEX
5
394
100
AcDbEntity
8
1
100
AcDbVertex
100
AcDb2dVertex
62
5
10
224.349664
20
153.038391
0
VERTEX
5
395
100
AcDbEntity
8
1
100
AcDbVertex
100
AcDb2dVertex
62
5
10
224.537164
20
153.038391
0
VERTEX
5
396
100
AcDbEntity
8
1
100
AcDbVertex
100
AcDb2dVertex
62
5
10
224.687164
20
153.000891
0
SEQEND
5
397
100
AcDbEntity
8
1
0
LINE
5
398
100
AcDbEntity
8
0
100
AcDbLine
6
CONTINUOUS
62
5
10
226.039087
20
155.856581
11
226.039087
21
159.329926
0
LINE
5
399
100
AcDbEntity
8
0
100
AcDbLine
6
CONTINUOUS
62
5
10
222.499251
20
149.320201
11
222.499251
21
155.856581
0
ARC
5
39a
100
AcDbEntity
8
0
100
AcDbCircle
6
CONTINUOUS
62
5
10
223.542503
20
154.599638
40
0.502812
100
AcDbArc
50
89.999996
51
-89.999996
0
LINE
5
39b
100
AcDbEntity
8
0
100
AcDbLine
6
CONTINUOUS
62
5
10
223.542503
20
155.102449
11
225.232490
21
155.102449
0
ARC
5
39c
100
AcDbEntity
8
0
100
AcDbCircle
6
CONTINUOUS
62
5
10
225.232157
20
154.599638
40
0.502812
100
AcDbArc
50
-89.962026
51
89.962026
0
LINE
5
39d
100
AcDbEntity
8
0
100
AcDbLine
6
CONTINUOUS
62
5
10
225.232490
20
154.096826
11
223.542503
21
154.096826
0
ARC
5
39e
100
AcDbEntity
8
0
100
AcDbCircle
6
CONTINUOUS
62
5
10
223.542503
20
150.577144
40
0.502812
100
AcDbArc
50
89.999996
51
-89.999996
0
LINE
5
39f
100
AcDbEntity
8
0
100
AcDbLine
6
CONTINUOUS
62
5
10
223.542503
20
151.079956
11
225.232490
21
151.079956
0
ARC
5
3a0
100
AcDbEntity
8
0
100
AcDbCircle
6
CONTINUOUS
62
5
10
225.232157
20
150.577144
40
0.502812
100
AcDbArc
50
-89.962026
51
89.962026
0
LINE
5
3a1
100
AcDbEntity
8
0
100
AcDbLine
6
CONTINUOUS
62
5
10
225.232490
20
150.074332
11
223.542503
21
150.074332
0
POLYLINE
5
3a2
100
AcDbEntity
8
1
6
CONTINUOUS
62
5
100
AcDb2dPolyline
66
1
10
0.0
20
0.0
30
0.0
70
0
0
VERTEX
5
3a3
100
AcDbEntity
8
1
100
AcDbVertex
100
AcDb2dVertex
62
5
10
217.693560
20
155.162138
0
VERTEX
5
3a4
100
AcDbEntity
8
1
100
AcDbVertex
100
AcDb2dVertex
62
5
10
217.693560
20
155.162138
0
VERTEX
5
3a5
100
AcDbEntity
8
1
100
AcDbVertex
100
AcDb2dVertex
62
5
10
217.224810
20
154.037138
0
VERTEX
5
3a6
100
AcDbEntity
8
1
100
AcDbVertex
100
AcDb2dVertex
62
5
10
216.756060
20
155.162138
0
SEQEND
5
3a7
100
AcDbEntity
8
1
0
LINE
5
3a8
100
AcDbEntity
8
1
100
AcDbLine
6
CONTINUOUS
62
5
10
217.506060
20
154.740263
11
216.943560
21
154.740263
0
POLYLINE
5
3a9
100
AcDbEntity
8
1
6
CONTINUOUS
62
5
100
AcDb2dPolyline
66
1
10
0.0
20
0.0
30
0.0
70
0
0
VERTEX
5
3aa
100
AcDbEntity
8
1
100
AcDbVertex
100
AcDb2dVertex
62
5
10
217.552935
20
150.014644
0
VERTEX
5
3ab
100
AcDbEntity
8
1
100
AcDbVertex
100
AcDb2dVertex
62
5
10
217.084185
20
150.014644
0
VERTEX
5
3ac
100
AcDbEntity
8
1
100
AcDbVertex
100
AcDb2dVertex
62
5
10
216.990435
20
150.061519
0
VERTEX
5
3ad
100
AcDbEntity
8
1
100
AcDbVertex
100
AcDb2dVertex
62
5
10
216.943560
20
150.108394
0
VERTEX
5
3ae
100
AcDbEntity
8
1
100
AcDbVertex
100
AcDb2dVertex
62
5
10
216.896685
20
150.202144
0
VERTEX
5
3af
100
AcDbEntity
8
1
100
AcDbVertex
100
AcDb2dVertex
62
5
10
216.896685
20
150.389644
0
VERTEX
5
3b0
100
AcDbEntity
8
1
100
AcDbVertex
100
AcDb2dVertex
62
5
10
216.943560
20
150.483394
0
VERTEX
5
3b1
100
AcDbEntity
8
1
100
AcDbVertex
100
AcDb2dVertex
62
5
10
216.990435
20
150.530269
0
VERTEX
5
3b2
100
AcDbEntity
8
1
100
AcDbVertex
100
AcDb2dVertex
62
5
10
217.084185
20
150.577144
0
VERTEX
5
3b3
100
AcDbEntity
8
1
100
AcDbVertex
100
AcDb2dVertex
62
5
10
217.552935
20
150.577144
0
SEQEND
5
3b4
100
AcDbEntity
8
1
0
POLYLINE
5
3b5
100
AcDbEntity
8
1
6
CONTINUOUS
62
5
100
AcDb2dPolyline
66
1
10
0.0
20
0.0
30
0.0
70
0
0
VERTEX
5
3b6
100
AcDbEntity
8
1
100
AcDbVertex
100
AcDb2dVertex
62
5
10
217.084185
20
150.577144
0
VERTEX
5
3b7
100
AcDbEntity
8
1
100
AcDbVertex
100
AcDb2dVertex
62
5
10
216.943560
20
150.624019
0
VERTEX
5
3b8
100
AcDbEntity
8
1
100
AcDbVertex
100
AcDb2dVertex
62
5
10
216.849810
20
150.717769
0
VERTEX
5
3b9
100
AcDbEntity
8
1
100
AcDbVertex
100
AcDb2dVertex
62
5
10
216.802935
20
150.811519
0
VERTEX
5
3ba
100
AcDbEntity
8
1
100
AcDbVertex
100
AcDb2dVertex
62
5
10
216.802935
20
150.905269
0
VERTEX
5
3bb
100
AcDbEntity
8
1
100
AcDbVertex
100
AcDb2dVertex
62
5
10
216.849810
20
150.999019
0
VERTEX
5
3bc
100
AcDbEntity
8
1
100
AcDbVertex
100
AcDb2dVertex
62
5
10
216.943560
20
151.092769
0
VERTEX
5
3bd
100
AcDbEntity
8
1
100
AcDbVertex
100
AcDb2dVertex
62
5
10
217.084185
20
151.139644
0
VERTEX
5
3be
100
AcDbEntity
8
1
100
AcDbVertex
100
AcDb2dVertex
62
5
10
217.552935
20
151.139644
0
VERTEX
5
3bf
100
AcDbEntity
8
1
100
AcDbVertex
100
AcDb2dVertex
62
5
10
217.552935
20
150.014644
0
SEQEND
5
3c0
100
AcDbEntity
8
1
0
POLYLINE
5
3c1
100
AcDbEntity
8
1
6
CONTINUOUS
62
5
100
AcDb2dPolyline
66
1
10
0.0
20
0.0
30
0.0
70
0
0
VERTEX
5
3c2
100
AcDbEntity
8
1
100
AcDbVertex
100
AcDb2dVertex
62
5
10
214.088155
20
152.288391
0
VERTEX
5
3c3
100
AcDbEntity
8
1
100
AcDbVertex
100
AcDb2dVertex
62
5
10
214.088155
20
152.138391
0
VERTEX
5
3c4
100
AcDbEntity
8
1
100
AcDbVertex
100
AcDb2dVertex
62
5
10
213.488155
20
152.138391
0
VERTEX
5
3c5
100
AcDbEntity
8
1
100
AcDbVertex
100
AcDb2dVertex
62
5
10
213.488155
20
152.213391
0
VERTEX
5
3c6
100
AcDbEntity
8
1
100
AcDbVertex
100
AcDb2dVertex
62
5
10
213.563155
20
152.288391
0
VERTEX
5
3c7
100
AcDbEntity
8
1
100
AcDbVertex
100
AcDb2dVertex
62
5
10
213.675655
20
152.475891
0
VERTEX
5
3c8
100
AcDbEntity
8
1
100
AcDbVertex
100
AcDb2dVertex
62
5
10
213.750655
20
152.663391
0
VERTEX
5
3c9
100
AcDbEntity
8
1
100
AcDbVertex
100
AcDb2dVertex
62
5
10
213.863155
20
153.038391
0
VERTEX
5
3ca
100
AcDbEntity
8
1
100
AcDbVertex
100
AcDb2dVertex
62
5
10
213.863155
20
153.038391
0
SEQEND
5
3cb
100
AcDbEntity
8
1
0
LINE
5
3cc
100
AcDbEntity
8
0
100
AcDbLine
6
CONTINUOUS
62
5
10
213.788155
20
155.856581
11
213.805816
21
159.329926
0
LINE
5
3cd
100
AcDbEntity
8
0
100
AcDbLine
6
CONTINUOUS
62
5
10
218.823679
20
149.320201
11
218.823679
21
155.856581
0
LINE
5
3ce
100
AcDbEntity
8
0
100
AcDbLine
6
CONTINUOUS
62
5
10
215.625941
20
149.320201
11
215.625941
21
155.856581
0
LINE
5
3cf
100
AcDbEntity
8
0
100
AcDbLine
6
CONTINUOUS
62
5
10
211.950369
20
149.320201
11
211.950369
21
155.856581
0
ARC
5
3d0
100
AcDbEntity
8
0
100
AcDbCircle
6
CONTINUOUS
62
5
10
212.943495
20
154.599638
40
0.502812
100
AcDbArc
50
89.999996
51
-89.999996
0
LINE
5
3d1
100
AcDbEntity
8
0
100
AcDbLine
6
CONTINUOUS
62
5
10
212.943495
20
155.102449
11
214.633482
21
155.102449
0
ARC
5
3d2
100
AcDbEntity
8
0
100
AcDbCircle
6
CONTINUOUS
62
5
10
214.633149
20
154.599638
40
0.502812
100
AcDbArc
50
-89.962026
51
89.962026
0
LINE
5
3d3
100
AcDbEntity
8
0
100
AcDbLine
6
CONTINUOUS
62
5
10
214.633482
20
154.096826
11
212.943495
21
154.096826
0
ARC
5
3d4
100
AcDbEntity
8
0
100
AcDbCircle
6
CONTINUOUS
62
5
10
212.943495
20
150.577144
40
0.502812
100
AcDbArc
50
89.999996
51
-89.999996
0
LINE
5
3d5
100
AcDbEntity
8
0
100
AcDbLine
6
CONTINUOUS
62
5
10
212.943495
20
151.079956
11
214.633482
21
151.079956
0
ARC
5
3d6
100
AcDbEntity
8
0
100
AcDbCircle
6
CONTINUOUS
62
5
10
214.633149
20
150.577144
40
0.502812
100
AcDbArc
50
-89.962026
51
89.962026
0
LINE
5
3d7
100
AcDbEntity
8
0
100
AcDbLine
6
CONTINUOUS
62
5
10
214.633482
20
150.074332
11
212.943495
21
150.074332
0
POLYLINE
5
3d8
100
AcDbEntity
8
1
6
CONTINUOUS
62
5
100
AcDb2dPolyline
66
1
10
0.0
20
0.0
30
0.0
70
0
0
VERTEX
5
3d9
100
AcDbEntity
8
1
100
AcDbVertex
100
AcDb2dVertex
62
5
10
220.511465
20
152.138391
0
VERTEX
5
3da
100
AcDbEntity
8
1
100
AcDbVertex
100
AcDb2dVertex
62
5
10
220.661465
20
152.138391
0
VERTEX
5
3db
100
AcDbEntity
8
1
100
AcDbVertex
100
AcDb2dVertex
62
5
10
220.736465
20
152.175891
0
VERTEX
5
3dc
100
AcDbEntity
8
1
100
AcDbVertex
100
AcDb2dVertex
62
5
10
220.811465
20
152.250891
0
VERTEX
5
3dd
100
AcDbEntity
8
1
100
AcDbVertex
100
AcDb2dVertex
62
5
10
220.886465
20
152.363391
0
VERTEX
5
3de
100
AcDbEntity
8
1
100
AcDbVertex
100
AcDb2dVertex
62
5
10
220.923965
20
152.513391
0
VERTEX
5
3df
100
AcDbEntity
8
1
100
AcDbVertex
100
AcDb2dVertex
62
5
10
220.923965
20
152.813391
0
VERTEX
5
3e0
100
AcDbEntity
8
1
100
AcDbVertex
100
AcDb2dVertex
62
5
10
220.886465
20
152.925891
0
VERTEX
5
3e1
100
AcDbEntity
8
1
100
AcDbVertex
100
AcDb2dVertex
62
5
10
220.811465
20
153.000891
0
VERTEX
5
3e2
100
AcDbEntity
8
1
100
AcDbVertex
100
AcDb2dVertex
62
5
10
220.736465
20
153.038391
0
VERTEX
5
3e3
100
AcDbEntity
8
1
100
AcDbVertex
100
AcDb2dVertex
62
5
10
220.586465
20
153.038391
0
VERTEX
5
3e4
100
AcDbEntity
8
1
100
AcDbVertex
100
AcDb2dVertex
62
5
10
220.511465
20
153.000891
0
VERTEX
5
3e5
100
AcDbEntity
8
1
100
AcDbVertex
100
AcDb2dVertex
62
5
10
220.436465
20
152.925891
0
VERTEX
5
3e6
100
AcDbEntity
8
1
100
AcDbVertex
100
AcDb2dVertex
62
5
10
220.398965
20
152.813391
0
VERTEX
5
3e7
100
AcDbEntity
8
1
100
AcDbVertex
100
AcDb2dVertex
62
5
10
220.398965
20
152.700891
0
VERTEX
5
3e8
100
AcDbEntity
8
1
100
AcDbVertex
100
AcDb2dVertex
62
5
10
220.436465
20
152.588391
0
VERTEX
5
3e9
100
AcDbEntity
8
1
100
AcDbVertex
100
AcDb2dVertex
62
5
10
220.586465
20
152.513391
0
VERTEX
5
3ea
100
AcDbEntity
8
1
100
AcDbVertex
100
AcDb2dVertex
62
5
10
220.736465
20
152.513391
0
VERTEX
5
3eb
100
AcDbEntity
8
1
100
AcDbVertex
100
AcDb2dVertex
62
5
10
220.848965
20
152.550891
0
VERTEX
5
3ec
100
AcDbEntity
8
1
100
AcDbVertex
100
AcDb2dVertex
62
5
10
220.923965
20
152.588391
0
SEQEND
5
3ed
100
AcDbEntity
8
1
0
LINE
5
3ee
100
AcDbEntity
8
0
100
AcDbLine
6
CONTINUOUS
62
5
10
226.039087
20
157.530208
11
226.275076
21
157.530208
0
LINE
5
3ef
100
AcDbEntity
8
0
100
AcDbLine
6
CONTINUOUS
62
5
10
210.828292
20
157.530208
11
213.796665
21
157.530208
0
LINE
5
3f0
100
AcDbEntity
8
0
100
AcDbLine
6
CONTINUOUS
62
5
10
220.973419
20
147.820206
11
220.973419
21
146.770169
0
CIRCLE
5
3f1
100
AcDbEntity
8
0
100
AcDbCircle
6
CONTINUOUS
62
5
10
222.674697
20
147.283335
40
0.500000
0
CIRCLE
5
3f2
100
AcDbEntity
8
1
100
AcDbCircle
6
CONTINUOUS
62
5
10
222.674697
20
147.283335
40
0.300000
0
CIRCLE
5
3f3
100
AcDbEntity
8
0
100
AcDbCircle
6
CONTINUOUS
62
5
10
219.324732
20
147.283335
40
0.500000
0
CIRCLE
5
3f4
100
AcDbEntity
8
1
100
AcDbCircle
6
CONTINUOUS
62
5
10
219.324732
20
147.283335
40
0.300000
0
LINE
5
3f5
100
AcDbEntity
8
0
100
AcDbLine
6
CONTINUOUS
62
5
10
215.201506
20
147.820206
11
215.201506
21
147.348028
0
LINE
5
3f6
100
AcDbEntity
8
0
100
AcDbLine
6
CONTINUOUS
62
5
10
215.184280
20
147.820206
11
215.184280
21
147.332392
0
LINE
5
3f7
100
AcDbEntity
8
0
100
AcDbLine
6
CONTINUOUS
62
5
10
216.984342
20
147.820206
11
216.984342
21
147.470212
0
CIRCLE
5
3f8
100
AcDbEntity
8
0
100
AcDbCircle
6
CONTINUOUS
62
5
10
214.030945
20
147.283335
40
0.500000
0
CIRCLE
5
3f9
100
AcDbEntity
8
1
100
AcDbCircle
6
CONTINUOUS
62
5
10
214.030945
20
147.283335
40
0.300000
0
LINE
5
3fa
100
AcDbEntity
8
0
100
AcDbLine
6
CONTINUOUS
62
5
10
217.618929
20
147.820206
11
217.618929
21
147.470212
0
LINE
5
3fb
100
AcDbEntity
8
0
100
AcDbLine
6
CONTINUOUS
62
5
10
212.327052
20
147.820206
11
212.327052
21
146.770169
0
LINE
5
3fc
100
AcDbEntity
8
3
100
AcDbLine
6
CONTINUOUS
62
5
10
201.474924
20
155.450000
11
201.474924
21
155.800000
0
ARC
5
3fd
100
AcDbEntity
8
3
100
AcDbCircle
6
CONTINUOUS
62
5
10
201.974924
20
157.700000
40
0.500000
100
AcDbArc
50
89.999999
51
-179.999998
0
LINE
5
3fe
100
AcDbEntity
8
3
100
AcDbLine
6
CONTINUOUS
62
5
10
201.474924
20
157.700000
11
201.474924
21
155.800000
0
ARC
5
3ff
100
AcDbEntity
8
3
100
AcDbCircle
6
CONTINUOUS
62
5
10
201.974924
20
155.800000
40
0.500000
100
AcDbArc
50
179.999998
51
-89.999999
0
POLYLINE
5
400
100
AcDbEntity
8
3
6
CONTINUOUS
62
5
100
AcDb2dPolyline
66
1
10
0.0
20
0.0
30
0.0
70
0
0
VERTEX
5
401
100
AcDbEntity
8
3
100
AcDbVertex
100
AcDb2dVertex
62
5
10
201.974924
20
155.300000
0
VERTEX
5
402
100
AcDbEntity
8
3
100
AcDbVertex
100
AcDb2dVertex
62
5
10
202.824924
20
155.300000
0
VERTEX
5
403
100
AcDbEntity
8
3
100
AcDbVertex
100
AcDb2dVertex
62
5
10
202.824924
20
158.200000
0
VERTEX
5
404
100
AcDbEntity
8
3
100
AcDbVertex
100
AcDb2dVertex
62
5
10
201.974924
20
158.200000
0
SEQEND
5
405
100
AcDbEntity
8
3
0
ARC
5
406
100
AcDbEntity
8
3
100
AcDbCircle
6
CONTINUOUS
62
5
10
201.924924
20
155.100000
40
0.500000
100
AcDbArc
50
-89.999999
51
0.000000
0
LINE
5
407
100
AcDbEntity
8
3
100
AcDbLine
6
CONTINUOUS
62
5
10
202.424924
20
155.100000
11
202.424924
21
155.300000
0
LINE
5
408
100
AcDbEntity
8
3
100
AcDbLine
6
CONTINUOUS
62
5
10
201.624924
20
154.600000
11
201.924924
21
154.600000
0
LINE
5
409
100
AcDbEntity
8
3
100
AcDbLine
6
CONTINUOUS
62
5
10
206.824924
20
154.600000
11
201.924924
21
154.600000
0
LINE
5
40a
100
AcDbEntity
8
3
100
AcDbLine
6
CONTINUOUS
62
5
10
201.474924
20
144.550000
11
201.474924
21
144.200000
0
ARC
5
40b
100
AcDbEntity
8
3
100
AcDbCircle
6
CONTINUOUS
62
5
10
201.974924
20
142.300000
40
0.500000
100
AcDbArc
50
179.999998
51
-89.999999
0
LINE
5
40c
100
AcDbEntity
8
3
100
AcDbLine
6
CONTINUOUS
62
5
10
201.474924
20
142.300000
11
201.474924
21
144.200000
0
ARC
5
40d
100
AcDbEntity
8
3
100
AcDbCircle
6
CONTINUOUS
62
5
10
201.974924
20
144.200000
40
0.500000
100
AcDbArc
50
89.999999
51
-179.999998
0
POLYLINE
5
40e
100
AcDbEntity
8
3
6
CONTINUOUS
62
5
100
AcDb2dPolyline
66
1
10
0.0
20
0.0
30
0.0
70
0
0
VERTEX
5
40f
100
AcDbEntity
8
3
100
AcDbVertex
100
AcDb2dVertex
62
5
10
201.974924
20
144.700000
0
VERTEX
5
410
100
AcDbEntity
8
3
100
AcDbVertex
100
AcDb2dVertex
62
5
10
202.824924
20
144.700000
0
VERTEX
5
411
100
AcDbEntity
8
3
100
AcDbVertex
100
AcDb2dVertex
62
5
10
202.824924
20
141.800000
0
VERTEX
5
412
100
AcDbEntity
8
3
100
AcDbVertex
100
AcDb2dVertex
62
5
10
201.974924
20
141.800000
0
SEQEND
5
413
100
AcDbEntity
8
3
0
ARC
5
414
100
AcDbEntity
8
3
100
AcDbCircle
6
CONTINUOUS
62
5
10
201.924924
20
144.900000
40
0.500000
100
AcDbArc
50
0.000000
51
89.999999
0
LINE
5
415
100
AcDbEntity
8
3
100
AcDbLine
6
CONTINUOUS
62
5
10
202.424924
20
144.900000
11
202.424924
21
144.700000
0
LINE
5
416
100
AcDbEntity
8
3
100
AcDbLine
6
CONTINUOUS
62
5
10
201.624924
20
145.400000
11
201.924924
21
145.400000
0
LINE
5
417
100
AcDbEntity
8
3
100
AcDbLine
6
CONTINUOUS
62
5
10
202.424924
20
139.300000
11
202.424924
21
141.800000
0
LINE
5
418
100
AcDbEntity
8
3
100
AcDbLine
6
CONTINUOUS
62
5
10
201.924924
20
145.400000
11
206.824924
21
145.400000
0
POLYLINE
5
419
100
AcDbEntity
8
3
6
CONTINUOUS
62
5
100
AcDb2dPolyline
66
1
10
0.0
20
0.0
30
0.0
70
0
0
VERTEX
5
41a
100
AcDbEntity
8
3
100
AcDbVertex
100
AcDb2dVertex
62
5
10
201.624924
20
141.942929
0
VERTEX
5
41b
100
AcDbEntity
8
3
100
AcDbVertex
100
AcDb2dVertex
62
5
10
201.624924
20
139.300000
0
VERTEX
5
41c
100
AcDbEntity
8
3
100
AcDbVertex
100
AcDb2dVertex
62
5
10
206.824924
20
139.300000
0
SEQEND
5
41d
100
AcDbEntity
8
3
0
LINE
5
41e
100
AcDbEntity
8
0
100
AcDbLine
6
CONTINUOUS
62
5
10
208.650657
20
148.869927
11
208.650657
21
147.750511
0
POLYLINE
5
41f
100
AcDbEntity
8
3
6
CONTINUOUS
62
5
100
AcDb2dPolyline
66
1
10
0.0
20
0.0
30
0.0
70
0
0
VERTEX
5
420
100
AcDbEntity
8
3
100
AcDbVertex
100
AcDb2dVertex
62
5
10
201.974924
20
155.300000
0
VERTEX
5
421
100
AcDbEntity
8
3
100
AcDbVertex
100
AcDb2dVertex
62
5
10
201.624924
20
155.300000
0
VERTEX
5
422
100
AcDbEntity
8
3
100
AcDbVertex
100
AcDb2dVertex
62
5
10
201.624924
20
144.700000
0
VERTEX
5
423
100
AcDbEntity
8
3
100
AcDbVertex
100
AcDb2dVertex
62
5
10
201.974924
20
144.700000
0
SEQEND
5
424
100
AcDbEntity
8
3
0
LINE
5
425
100
AcDbEntity
8
3
100
AcDbLine
6
CONTINUOUS
62
5
10
198.824924
20
144.500000
11
198.624924
21
144.500000
0
ARC
5
426
100
AcDbEntity
8
3
100
AcDbCircle
6
CONTINUOUS
62
5
10
193.024924
20
140.950000
40
0.100000
100
AcDbArc
50
89.999999
51
179.999998
0
LINE
5
427
100
AcDbEntity
8
3
100
AcDbLine
6
CONTINUOUS
62
5
10
193.024924
20
141.050000
11
193.124924
21
141.050000
0
POLYLINE
5
428
100
AcDbEntity
8
3
6
CONTINUOUS
62
5
100
AcDb2dPolyline
66
1
10
0.0
20
0.0
30
0.0
70
0
0
VERTEX
5
429
100
AcDbEntity
8
3
100
AcDbVertex
100
AcDb2dVertex
62
5
10
193.124924
20
140.150000
0
VERTEX
5
42a
100
AcDbEntity
8
3
100
AcDbVertex
100
AcDb2dVertex
62
5
10
192.924924
20
140.150000
0
VERTEX
5
42b
100
AcDbEntity
8
3
100
AcDbVertex
100
AcDb2dVertex
62
5
10
192.924924
20
140.950000
0
SEQEND
5
42c
100
AcDbEntity
8
3
0
LINE
5
42d
100
AcDbEntity
8
3
100
AcDbLine
6
CONTINUOUS
62
5
10
200.224924
20
153.652899
11
200.224924
21
146.347102
0
POLYLINE
5
42e
100
AcDbEntity
8
3
6
CONTINUOUS
62
5
100
AcDb2dPolyline
66
1
10
0.0
20
0.0
30
0.0
70
0
0
VERTEX
5
42f
100
AcDbEntity
8
3
100
AcDbVertex
100
AcDb2dVertex
62
5
10
201.624924
20
146.326812
0
VERTEX
5
430
100
AcDbEntity
8
3
100
AcDbVertex
100
AcDb2dVertex
62
5
10
200.024924
20
146.350000
0
VERTEX
5
431
100
AcDbEntity
8
3
100
AcDbVertex
100
AcDb2dVertex
62
5
10
200.024924
20
153.650000
0
VERTEX
5
432
100
AcDbEntity
8
3
100
AcDbVertex
100
AcDb2dVertex
62
5
10
201.624924
20
153.673189
0
SEQEND
5
433
100
AcDbEntity
8
3
0
ARC
5
434
100
AcDbEntity
8
3
100
AcDbCircle
6
CONTINUOUS
62
5
10
198.624924
20
155.000000
40
0.500000
100
AcDbArc
50
89.999999
51
-179.999998
0
LINE
5
435
100
AcDbEntity
8
3
100
AcDbLine
6
CONTINUOUS
62
5
10
198.124924
20
155.000000
11
198.124924
21
145.000000
0
ARC
5
436
100
AcDbEntity
8
3
100
AcDbCircle
6
CONTINUOUS
62
5
10
198.624924
20
145.000000
40
0.500000
100
AcDbArc
50
-179.999998
51
-89.999999
0
LINE
5
437
100
AcDbEntity
8
3
100
AcDbLine
6
CONTINUOUS
62
5
10
198.624924
20
144.500000
11
201.474924
21
144.500000
0
LINE
5
438
100
AcDbEntity
8
3
100
AcDbLine
6
CONTINUOUS
62
5
10
201.474924
20
155.500000
11
198.624924
21
155.500000
0
POLYLINE
5
439
100
AcDbEntity
8
1
6
CONTINUOUS
62
5
100
AcDb2dPolyline
66
1
10
0.0
20
0.0
30
0.0
70
1
0
VERTEX
5
43a
100
AcDbEntity
8
1
100
AcDbVertex
100
AcDb2dVertex
62
5
10
210.187583
20
152.138391
0
VERTEX
5
43b
100
AcDbEntity
8
1
100
AcDbVertex
100
AcDb2dVertex
62
5
10
210.300083
20
152.175891
0
VERTEX
5
43c
100
AcDbEntity
8
1
100
AcDbVertex
100
AcDb2dVertex
62
5
10
210.375083
20
152.250891
0
VERTEX
5
43d
100
AcDbEntity
8
1
100
AcDbVertex
100
AcDb2dVertex
62
5
10
210.375083
20
152.363391
0
VERTEX
5
43e
100
AcDbEntity
8
1
100
AcDbVertex
100
AcDb2dVertex
62
5
10
210.337583
20
152.438391
0
VERTEX
5
43f
100
AcDbEntity
8
1
100
AcDbVertex
100
AcDb2dVertex
62
5
10
210.225083
20
152.513391
0
VERTEX
5
440
100
AcDbEntity
8
1
100
AcDbVertex
100
AcDb2dVertex
62
5
10
209.962583
20
152.625891
0
VERTEX
5
441
100
AcDbEntity
8
1
100
AcDbVertex
100
AcDb2dVertex
62
5
10
209.850083
20
152.700891
0
VERTEX
5
442
100
AcDbEntity
8
1
100
AcDbVertex
100
AcDb2dVertex
62
5
10
209.812583
20
152.775891
0
VERTEX
5
443
100
AcDbEntity
8
1
100
AcDbVertex
100
AcDb2dVertex
62
5
10
209.812583
20
152.888391
0
VERTEX
5
444
100
AcDbEntity
8
1
100
AcDbVertex
100
AcDb2dVertex
62
5
10
209.887583
20
153.000891
0
VERTEX
5
445
100
AcDbEntity
8
1
100
AcDbVertex
100
AcDb2dVertex
62
5
10
210.037583
20
153.038391
0
VERTEX
5
446
100
AcDbEntity
8
1
100
AcDbVertex
100
AcDb2dVertex
62
5
10
210.187583
20
153.038391
0
VERTEX
5
447
100
AcDbEntity
8
1
100
AcDbVertex
100
AcDb2dVertex
62
5
10
210.337583
20
153.000891
0
VERTEX
5
448
100
AcDbEntity
8
1
100
AcDbVertex
100
AcDb2dVertex
62
5
10
210.412583
20
152.888391
0
VERTEX
5
449
100
AcDbEntity
8
1
100
AcDbVertex
100
AcDb2dVertex
62
5
10
210.412583
20
152.775891
0
VERTEX
5
44a
100
AcDbEntity
8
1
100
AcDbVertex
100
AcDb2dVertex
62
5
10
210.375083
20
152.700891
0
VERTEX
5
44b
100
AcDbEntity
8
1
100
AcDbVertex
100
AcDb2dVertex
62
5
10
210.262583
20
152.625891
0
VERTEX
5
44c
100
AcDbEntity
8
1
100
AcDbVertex
100
AcDb2dVertex
62
5
10
210.000083
20
152.513391
0
VERTEX
5
44d
100
AcDbEntity
8
1
100
AcDbVertex
100
AcDb2dVertex
62
5
10
209.887583
20
152.438391
0
VERTEX
5
44e
100
AcDbEntity
8
1
100
AcDbVertex
100
AcDb2dVertex
62
5
10
209.850083
20
152.363391
0
VERTEX
5
44f
100
AcDbEntity
8
1
100
AcDbVertex
100
AcDb2dVertex
62
5
10
209.850083
20
152.250891
0
VERTEX
5
450
100
AcDbEntity
8
1
100
AcDbVertex
100
AcDb2dVertex
62
5
10
209.925083
20
152.175891
0
VERTEX
5
451
100
AcDbEntity
8
1
100
AcDbVertex
100
AcDb2dVertex
62
5
10
210.037583
20
152.138391
0
VERTEX
5
452
100
AcDbEntity
8
1
100
AcDbVertex
100
AcDb2dVertex
62
5
10
210.187583
20
152.138391
0
SEQEND
5
453
100
AcDbEntity
8
1
0
ARC
5
454
100
AcDbEntity
8
0
100
AcDbCircle
6
CONTINUOUS
62
5
10
205.521593
20
169.672742
40
13.251497
100
AcDbArc
50
-84.355635
51
-51.306531
0
POLYLINE
5
455
100
AcDbEntity
8
0
6
CONTINUOUS
62
5
100
AcDb2dPolyline
66
1
10
0.0
20
0.0
30
0.0
70
1
0
VERTEX
5
456
100
AcDbEntity
8
0
100
AcDbVertex
100
AcDb2dVertex
62
5
10
206.824924
20
158.216260
0
VERTEX
5
457
100
AcDbEntity
8
0
100
AcDbVertex
100
AcDb2dVertex
62
5
10
212.032397
20
158.131008
0
SEQEND
5
458
100
AcDbEntity
8
0
0
LINE
5
459
100
AcDbEntity
8
0
100
AcDbLine
6
CONTINUOUS
62
5
10
226.275076
20
153.342695
11
208.274797
21
153.342695
0
LINE
5
45a
100
AcDbEntity
8
0
100
AcDbLine
6
CONTINUOUS
62
5
10
226.275076
20
151.834087
11
208.274797
21
151.834087
0
ARC
5
45b
100
AcDbEntity
8
0
100
AcDbCircle
6
CONTINUOUS
62
5
10
209.279674
20
154.851703
40
1.004878
100
AcDbArc
50
89.957489
51
-179.957488
0
LINE
5
45c
100
AcDbEntity
8
0
100
AcDbLine
6
CONTINUOUS
62
5
10
208.274797
20
154.850957
11
208.274797
21
150.325824
0
ARC
5
45d
100
AcDbEntity
8
0
100
AcDbCircle
6
CONTINUOUS
62
5
10
209.279555
20
150.324960
40
1.004759
100
AcDbArc
50
179.950680
51
-89.950681
0
LINE
5
45e
100
AcDbEntity
8
0
100
AcDbLine
6
CONTINUOUS
62
5
10
209.280420
20
149.320201
11
226.275076
21
149.320201
0
LINE
5
45f
100
AcDbEntity
8
0
100
AcDbLine
6
CONTINUOUS
62
5
10
226.275076
20
155.856581
11
209.280420
21
155.856581
0
CIRCLE
5
460
100
AcDbEntity
8
1
100
AcDbCircle
6
CONTINUOUS
62
5
10
210.674733
20
147.283335
40
0.300000
0
CIRCLE
5
461
100
AcDbEntity
8
0
100
AcDbCircle
6
CONTINUOUS
62
5
10
210.674733
20
147.283335
40
0.500000
0
LINE
5
462
100
AcDbEntity
8
0
100
AcDbLine
6
CONTINUOUS
62
5
10
226.275076
20
147.820206
11
208.650657
21
147.820206
0
ARC
5
463
100
AcDbEntity
8
0
100
AcDbCircle
6
CONTINUOUS
62
5
10
222.965469
20
147.269823
40
0.499655
100
AcDbArc
50
-90.065749
51
0.026276
0
LINE
5
464
100
AcDbEntity
8
0
100
AcDbLine
6
CONTINUOUS
62
5
10
222.964895
20
146.770169
11
218.665072
21
146.770169
0
ARC
5
465
100
AcDbEntity
8
0
100
AcDbCircle
6
CONTINUOUS
62
5
10
218.665172
20
147.270537
40
0.500368
100
AcDbArc
50
-162.514070
51
-90.011535
0
ARC
5
466
100
AcDbEntity
8
0
100
AcDbCircle
6
CONTINUOUS
62
5
10
217.710953
20
146.970217
40
0.499995
100
AcDbArc
50
17.454558
51
89.980354
0
LINE
5
467
100
AcDbEntity
8
0
100
AcDbLine
6
CONTINUOUS
62
5
10
217.711125
20
147.470212
11
215.529001
21
147.470212
0
ARC
5
468
100
AcDbEntity
8
0
100
AcDbCircle
6
CONTINUOUS
62
5
10
215.529181
20
146.969736
40
0.500476
100
AcDbArc
50
90.020613
51
162.504993
0
ARC
5
469
100
AcDbEntity
8
0
100
AcDbCircle
6
CONTINUOUS
62
5
10
214.575327
20
147.269559
40
0.499390
100
AcDbArc
50
-90.031247
51
-17.403665
0
LINE
5
46a
100
AcDbEntity
8
0
100
AcDbLine
6
CONTINUOUS
62
5
10
214.575054
20
146.770169
11
210.274886
21
146.770169
0
ARC
5
46b
100
AcDbEntity
8
0
100
AcDbCircle
6
CONTINUOUS
62
5
10
210.274838
20
147.270004
40
0.499835
100
AcDbArc
50
179.994494
51
-89.994495
0
POLYLINE
5
46c
100
AcDbEntity
8
0
6
CONTINUOUS
62
5
100
AcDb2dPolyline
66
1
10
0.0
20
0.0
30
0.0
70
0
0
VERTEX
5
46d
100
AcDbEntity
8
0
100
AcDbVertex
100
AcDb2dVertex
62
5
10
209.775003
20
147.270052
0
VERTEX
5
46e
100
AcDbEntity
8
0
100
AcDbVertex
100
AcDb2dVertex
62
5
10
209.775003
20
147.770280
0
VERTEX
5
46f
100
AcDbEntity
8
0
100
AcDbVertex
100
AcDb2dVertex
62
5
10
208.724938
20
147.770280
0
SEQEND
5
470
100
AcDbEntity
8
0
0
ARC
5
471
100
AcDbEntity
8
0
100
AcDbCircle
6
CONTINUOUS
62
5
10
208.725090
20
147.620265
40
0.150014
100
AcDbArc
50
90.058288
51
-179.926724
0
LINE
5
472
100
AcDbEntity
8
0
100
AcDbLine
6
CONTINUOUS
62
5
10
208.575076
20
147.620074
11
208.575076
21
140.420486
0
ARC
5
473
100
AcDbEntity
8
0
100
AcDbCircle
6
CONTINUOUS
62
5
10
208.725093
20
140.420297
40
0.150017
100
AcDbArc
50
179.927862
51
-90.059431
0
LINE
5
474
100
AcDbEntity
8
0
100
AcDbLine
6
CONTINUOUS
62
5
10
208.724938
20
140.270280
11
209.539703
21
140.270280
0
ARC
5
475
100
AcDbEntity
8
0
100
AcDbCircle
6
CONTINUOUS
62
5
10
209.539010
20
142.271583
40
2.001304
100
AcDbArc
50
-89.980180
51
-61.644361
0
ARC
5
476
100
AcDbEntity
8
0
100
AcDbCircle
6
CONTINUOUS
62
5
10
214.289813
20
133.469627
40
8.000924
100
AcDbArc
50
90.002556
51
118.358197
0
POLYLINE
5
477
100
AcDbEntity
8
0
6
CONTINUOUS
62
5
100
AcDb2dPolyline
66
1
10
0.0
20
0.0
30
0.0
70
0
0
VERTEX
5
478
100
AcDbEntity
8
0
100
AcDbVertex
100
AcDb2dVertex
62
5
10
214.289456
20
141.470551
0
VERTEX
5
479
100
AcDbEntity
8
0
100
AcDbVertex
100
AcDb2dVertex
62
5
10
226.275076
20
141.470551
0
VERTEX
5
47a
100
AcDbEntity
8
0
100
AcDbVertex
100
AcDb2dVertex
62
5
10
226.275076
20
147.770280
0
VERTEX
5
47b
100
AcDbEntity
8
0
100
AcDbVertex
100
AcDb2dVertex
62
5
10
223.465123
20
147.770280
0
VERTEX
5
47c
100
AcDbEntity
8
0
100
AcDbVertex
100
AcDb2dVertex
62
5
10
223.465123
20
147.270052
0
SEQEND
5
47d
100
AcDbEntity
8
0
0
POLYLINE
5
47e
100
AcDbEntity
8
0
6
CONTINUOUS
62
5
100
AcDb2dPolyline
66
1
10
0.0
20
0.0
30
0.0
70
0
0
VERTEX
5
47f
100
AcDbEntity
8
0
100
AcDbVertex
100
AcDb2dVertex
62
5
10
226.275076
20
147.770280
0
VERTEX
5
480
100
AcDbEntity
8
0
100
AcDbVertex
100
AcDb2dVertex
62
5
10
226.275076
20
159.329926
0
VERTEX
5
481
100
AcDbEntity
8
0
100
AcDbVertex
100
AcDb2dVertex
62
5
10
213.805816
20
159.329926
0
VERTEX
5
482
100
AcDbEntity
8
0
100
AcDbVertex
100
AcDb2dVertex
62
5
10
206.824924
20
159.384475
0
SEQEND
5
483
100
AcDbEntity
8
0
0
LINE
5
484
100
AcDbEntity
8
0
100
AcDbLine
6
CONTINUOUS
62
5
10
208.634809
20
148.869927
11
226.275076
21
148.869927
0
POLYLINE
5
485
100
AcDbEntity
8
0
6
CONTINUOUS
62
5
100
AcDb2dPolyline
66
1
10
0.0
20
0.0
30
0.0
70
0
0
VERTEX
5
486
100
AcDbEntity
8
0
100
AcDbVertex
100
AcDb2dVertex
62
5
10
226.275076
20
149.020133
0
VERTEX
5
487
100
AcDbEntity
8
0
100
AcDbVertex
100
AcDb2dVertex
62
5
10
208.424218
20
149.020133
0
VERTEX
5
488
100
AcDbEntity
8
0
100
AcDbVertex
100
AcDb2dVertex
62
5
10
208.424218
20
143.686747
0
VERTEX
5
489
100
AcDbEntity
8
0
100
AcDbVertex
100
AcDb2dVertex
62
5
10
206.824924
20
141.047941
0
SEQEND
5
48a
100
AcDbEntity
8
0
0
LINE
5
48b
100
AcDbEntity
8
3
100
AcDbLine
6
CONTINUOUS
62
5
10
136.524924
20
155.450000
11
136.524924
21
158.050000
0
LINE
5
48c
100
AcDbEntity
8
3
100
AcDbLine
6
CONTINUOUS
62
5
10
136.024924
20
158.200000
11
136.024924
21
155.300000
0
LINE
5
48d
100
AcDbEntity
8
3
100
AcDbLine
6
CONTINUOUS
62
5
10
136.524924
20
144.550000
11
136.524924
21
141.950000
0
LINE
5
48e
100
AcDbEntity
8
3
100
AcDbLine
6
CONTINUOUS
62
5
10
136.024924
20
141.800000
11
136.024924
21
144.700000
0
ARC
5
48f
100
AcDbEntity
8
3
100
AcDbCircle
6
CONTINUOUS
62
5
10
136.524924
20
145.200000
40
0.500000
100
AcDbArc
50
-179.999998
51
-89.999999
0
LINE
5
490
100
AcDbEntity
8
3
100
AcDbLine
6
CONTINUOUS
62
5
10
136.524924
20
144.700000
11
137.424924
21
144.700000
0
ARC
5
491
100
AcDbEntity
8
3
100
AcDbCircle
6
CONTINUOUS
62
5
10
137.424924
20
144.200000
40
0.500000
100
AcDbArc
50
0.000000
51
89.999999
0
LINE
5
492
100
AcDbEntity
8
3
100
AcDbLine
6
CONTINUOUS
62
5
10
137.924924
20
144.200000
11
137.924924
21
142.300000
0
ARC
5
493
100
AcDbEntity
8
3
100
AcDbCircle
6
CONTINUOUS
62
5
10
137.424924
20
142.300000
40
0.500000
100
AcDbArc
50
-89.999999
51
-0.000000
0
LINE
5
494
100
AcDbEntity
8
3
100
AcDbLine
6
CONTINUOUS
62
5
10
137.424924
20
141.800000
11
136.524924
21
141.800000
0
ARC
5
495
100
AcDbEntity
8
3
100
AcDbCircle
6
CONTINUOUS
62
5
10
136.524924
20
141.300000
40
0.500000
100
AcDbArc
50
89.999999
51
-179.999998
0
LINE
5
496
100
AcDbEntity
8
3
100
AcDbLine
6
CONTINUOUS
62
5
10
136.024924
20
141.300000
11
136.024924
21
139.800000
0
LINE
5
497
100
AcDbEntity
8
3
100
AcDbLine
6
CONTINUOUS
62
5
10
136.024924
20
145.400000
11
136.024924
21
145.200000
0
ARC
5
498
100
AcDbEntity
8
3
100
AcDbCircle
6
CONTINUOUS
62
5
10
136.324924
20
155.100000
40
0.500000
100
AcDbArc
50
-89.999999
51
-0.000000
0
POLYLINE
5
499
100
AcDbEntity
8
3
6
CONTINUOUS
62
5
100
AcDb2dPolyline
66
1
10
0.0
20
0.0
30
0.0
70
0
0
VERTEX
5
49a
100
AcDbEntity
8
3
100
AcDbVertex
100
AcDb2dVertex
62
5
10
136.324924
20
154.600000
0
VERTEX
5
49b
100
AcDbEntity
8
3
100
AcDbVertex
100
AcDb2dVertex
62
5
10
135.824924
20
154.600000
0
VERTEX
5
49c
100
AcDbEntity
8
3
100
AcDbVertex
100
AcDb2dVertex
62
5
10
135.824924
20
145.400000
0
VERTEX
5
49d
100
AcDbEntity
8
3
100
AcDbVertex
100
AcDb2dVertex
62
5
10
136.324924
20
145.400000
0
SEQEND
5
49e
100
AcDbEntity
8
3
0
ARC
5
49f
100
AcDbEntity
8
3
100
AcDbCircle
6
CONTINUOUS
62
5
10
136.324924
20
144.900000
40
0.500000
100
AcDbArc
50
0.000000
51
89.999999
0
LINE
5
4a0
100
AcDbEntity
8
3
100
AcDbLine
6
CONTINUOUS
62
5
10
136.824924
20
144.900000
11
136.824924
21
144.700000
0
LINE
5
4a1
100
AcDbEntity
8
3
100
AcDbLine
6
CONTINUOUS
62
5
10
136.824924
20
155.300000
11
136.824924
21
155.100000
0
POLYLINE
5
4a2
100
AcDbEntity
8
3
6
CONTINUOUS
62
5
100
AcDb2dPolyline
66
1
10
0.0
20
0.0
30
0.0
70
0
0
VERTEX
5
4a3
100
AcDbEntity
8
3
100
AcDbVertex
100
AcDb2dVertex
62
5
10
131.824924
20
146.326812
0
VERTEX
5
4a4
100
AcDbEntity
8
3
100
AcDbVertex
100
AcDb2dVertex
62
5
10
132.324924
20
146.326812
0
VERTEX
5
4a5
100
AcDbEntity
8
3
100
AcDbVertex
100
AcDb2dVertex
62
5
10
132.324924
20
153.673189
0
VERTEX
5
4a6
100
AcDbEntity
8
3
100
AcDbVertex
100
AcDb2dVertex
62
5
10
131.824924
20
153.673189
0
SEQEND
5
4a7
100
AcDbEntity
8
3
0
POLYLINE
5
4a8
100
AcDbEntity
8
3
6
CONTINUOUS
62
5
100
AcDb2dPolyline
66
1
10
0.0
20
0.0
30
0.0
70
0
0
VERTEX
5
4a9
100
AcDbEntity
8
3
100
AcDbVertex
100
AcDb2dVertex
62
5
10
117.974924
20
141.050000
0
VERTEX
5
4aa
100
AcDbEntity
8
3
100
AcDbVertex
100
AcDb2dVertex
62
5
10
117.974924
20
141.250000
0
VERTEX
5
4ab
100
AcDbEntity
8
3
100
AcDbVertex
100
AcDb2dVertex
62
5
10
113.674924
20
141.250000
0
VERTEX
5
4ac
100
AcDbEntity
8
3
100
AcDbVertex
100
AcDb2dVertex
62
5
10
113.674924
20
141.050000
0
SEQEND
5
4ad
100
AcDbEntity
8
3
0
ARC
5
4ae
100
AcDbEntity
8
3
100
AcDbCircle
6
CONTINUOUS
62
5
10
113.674924
20
140.950000
40
0.100000
100
AcDbArc
50
89.999999
51
179.999998
0
LINE
5
4af
100
AcDbEntity
8
3
100
AcDbLine
6
CONTINUOUS
62
5
10
113.674924
20
141.050000
11
117.974924
21
141.050000
0
ARC
5
4b0
100
AcDbEntity
8
3
100
AcDbCircle
6
CONTINUOUS
62
5
10
117.974924
20
140.950000
40
0.100000
100
AcDbArc
50
0.000000
51
89.999999
0
LINE
5
4b1
100
AcDbEntity
8
3
100
AcDbLine
6
CONTINUOUS
62
5
10
118.074924
20
140.950000
11
118.074924
21
140.150000
0
LINE
5
4b2
100
AcDbEntity
8
3
100
AcDbLine
6
CONTINUOUS
62
5
10
113.574924
20
140.150000
11
113.574924
21
140.950000
0
POLYLINE
5
4b3
100
AcDbEntity
8
3
6
CONTINUOUS
62
5
100
AcDb2dPolyline
66
1
10
0.0
20
0.0
30
0.0
70
1
0
VERTEX
5
4b4
100
AcDbEntity
8
3
100
AcDbVertex
100
AcDb2dVertex
62
5
10
115.824924
20
148.980127
0
VERTEX
5
4b5
100
AcDbEntity
8
3
100
AcDbVertex
100
AcDb2dVertex
62
5
10
118.324924
20
144.650000
0
VERTEX
5
4b6
100
AcDbEntity
8
3
100
AcDbVertex
100
AcDb2dVertex
62
5
10
117.324924
20
144.650000
0
VERTEX
5
4b7
100
AcDbEntity
8
3
100
AcDbVertex
100
AcDb2dVertex
62
5
10
117.324924
20
143.150000
0
VERTEX
5
4b8
100
AcDbEntity
8
3
100
AcDbVertex
100
AcDb2dVertex
62
5
10
114.324924
20
143.150000
0
VERTEX
5
4b9
100
AcDbEntity
8
3
100
AcDbVertex
100
AcDb2dVertex
62
5
10
114.324924
20
144.650000
0
VERTEX
5
4ba
100
AcDbEntity
8
3
100
AcDbVertex
100
AcDb2dVertex
62
5
10
113.324924
20
144.650000
0
SEQEND
5
4bb
100
AcDbEntity
8
3
0
ARC
5
4bc
100
AcDbEntity
8
3
100
AcDbCircle
6
CONTINUOUS
62
5
10
135.824924
20
140.300000
40
1.000000
100
AcDbArc
50
-89.999999
51
-0.000000
0
POLYLINE
5
4bd
100
AcDbEntity
8
3
6
CONTINUOUS
62
5
100
AcDb2dPolyline
66
1
10
0.0
20
0.0
30
0.0
70
0
0
VERTEX
5
4be
100
AcDbEntity
8
3
100
AcDbVertex
100
AcDb2dVertex
62
5
10
135.824924
20
139.300000
0
VERTEX
5
4bf
100
AcDbEntity
8
3
100
AcDbVertex
100
AcDb2dVertex
62
5
10
129.823136
20
139.300000
0
VERTEX
5
4c0
100
AcDbEntity
8
3
100
AcDbVertex
100
AcDb2dVertex
62
5
10
129.823136
20
139.300000
0
VERTEX
5
4c1
100
AcDbEntity
8
3
100
AcDbVertex
100
AcDb2dVertex
62
5
10
129.823136
20
139.300000
0
SEQEND
5
4c2
100
AcDbEntity
8
3
0
LINE
5
4c3
100
AcDbEntity
8
3
100
AcDbLine
6
CONTINUOUS
62
5
10
136.824924
20
141.800000
11
136.824924
21
140.300000
0
ARC
5
4c4
100
AcDbEntity
8
3
100
AcDbCircle
6
CONTINUOUS
62
5
10
131.324924
20
155.000000
40
0.500000
100
AcDbArc
50
0.000000
51
89.999999
0
LINE
5
4c5
100
AcDbEntity
8
3
100
AcDbLine
6
CONTINUOUS
62
5
10
131.824924
20
155.000000
11
131.824924
21
145.000000
0
ARC
5
4c6
100
AcDbEntity
8
3
100
AcDbCircle
6
CONTINUOUS
62
5
10
131.324924
20
145.000000
40
0.500000
100
AcDbArc
50
-89.999999
51
0.000000
0
LINE
5
4c7
100
AcDbEntity
8
3
100
AcDbLine
6
CONTINUOUS
62
5
10
131.324924
20
144.500000
11
129.824924
21
144.500000
0
LINE
5
4c8
100
AcDbEntity
8
3
100
AcDbLine
6
CONTINUOUS
62
5
10
129.824924
20
155.500000
11
131.324924
21
155.500000
0
LINE
5
4c9
100
AcDbEntity
8
3
100
AcDbLine
6
CONTINUOUS
62
5
10
95.624924
20
158.200000
11
95.624924
21
155.300000
0
LINE
5
4ca
100
AcDbEntity
8
3
100
AcDbLine
6
CONTINUOUS
62
5
10
95.124924
20
155.450000
11
95.124924
21
158.050000
0
LINE
5
4cb
100
AcDbEntity
8
3
100
AcDbLine
6
CONTINUOUS
62
5
10
95.624924
20
141.800000
11
95.624924
21
144.700000
0
LINE
5
4cc
100
AcDbEntity
8
3
100
AcDbLine
6
CONTINUOUS
62
5
10
95.124924
20
144.550000
11
95.124924
21
141.950000
0
ARC
5
4cd
100
AcDbEntity
8
3
100
AcDbCircle
6
CONTINUOUS
62
5
10
95.124924
20
145.200000
40
0.500000
100
AcDbArc
50
-89.999999
51
-0.000000
0
LINE
5
4ce
100
AcDbEntity
8
3
100
AcDbLine
6
CONTINUOUS
62
5
10
95.124924
20
144.700000
11
94.224924
21
144.700000
0
ARC
5
4cf
100
AcDbEntity
8
3
100
AcDbCircle
6
CONTINUOUS
62
5
10
94.224924
20
144.200000
40
0.500000
100
AcDbArc
50
89.999999
51
179.999998
0
LINE
5
4d0
100
AcDbEntity
8
3
100
AcDbLine
6
CONTINUOUS
62
5
10
93.724924
20
144.200000
11
93.724924
21
142.300000
0
ARC
5
4d1
100
AcDbEntity
8
3
100
AcDbCircle
6
CONTINUOUS
62
5
10
94.224924
20
142.300000
40
0.500000
100
AcDbArc
50
-179.999998
51
-89.999999
0
LINE
5
4d2
100
AcDbEntity
8
3
100
AcDbLine
6
CONTINUOUS
62
5
10
94.224924
20
141.800000
11
95.124924
21
141.800000
0
ARC
5
4d3
100
AcDbEntity
8
3
100
AcDbCircle
6
CONTINUOUS
62
5
10
95.124924
20
141.300000
40
0.500000
100
AcDbArc
50
-0.000000
51
89.999999
0
LINE
5
4d4
100
AcDbEntity
8
3
100
AcDbLine
6
CONTINUOUS
62
5
10
95.624924
20
141.300000
11
95.624924
21
139.800000
0
LINE
5
4d5
100
AcDbEntity
8
3
100
AcDbLine
6
CONTINUOUS
62
5
10
95.624924
20
145.400000
11
95.624924
21
145.200000
0
ARC
5
4d6
100
AcDbEntity
8
3
100
AcDbCircle
6
CONTINUOUS
62
5
10
95.824924
20
140.300000
40
1.000000
100
AcDbArc
50
-179.999998
51
-89.999999
0
POLYLINE
5
4d7
100
AcDbEntity
8
3
6
CONTINUOUS
62
5
100
AcDb2dPolyline
66
1
10
0.0
20
0.0
30
0.0
70
0
0
VERTEX
5
4d8
100
AcDbEntity
8
3
100
AcDbVertex
100
AcDb2dVertex
62
5
10
95.824924
20
139.300000
0
VERTEX
5
4d9
100
AcDbEntity
8
3
100
AcDbVertex
100
AcDb2dVertex
62
5
10
101.826712
20
139.300000
0
VERTEX
5
4da
100
AcDbEntity
8
3
100
AcDbVertex
100
AcDb2dVertex
62
5
10
101.826712
20
139.300000
0
VERTEX
5
4db
100
AcDbEntity
8
3
100
AcDbVertex
100
AcDb2dVertex
62
5
10
101.826712
20
139.300000
0
SEQEND
5
4dc
100
AcDbEntity
8
3
0
LINE
5
4dd
100
AcDbEntity
8
3
100
AcDbLine
6
CONTINUOUS
62
5
10
94.824924
20
141.800000
11
94.824924
21
140.300000
0
ARC
5
4de
100
AcDbEntity
8
3
100
AcDbCircle
6
CONTINUOUS
62
5
10
100.324924
20
155.000000
40
0.500000
100
AcDbArc
50
89.999999
51
179.999998
0
LINE
5
4df
100
AcDbEntity
8
3
100
AcDbLine
6
CONTINUOUS
62
5
10
99.824924
20
155.000000
11
99.824924
21
145.000000
0
ARC
5
4e0
100
AcDbEntity
8
3
100
AcDbCircle
6
CONTINUOUS
62
5
10
100.324924
20
145.000000
40
0.500000
100
AcDbArc
50
179.999998
51
-89.999999
0
LINE
5
4e1
100
AcDbEntity
8
3
100
AcDbLine
6
CONTINUOUS
62
5
10
100.324924
20
144.500000
11
101.824924
21
144.500000
0
LINE
5
4e2
100
AcDbEntity
8
3
100
AcDbLine
6
CONTINUOUS
62
5
10
101.824924
20
155.500000
11
100.324924
21
155.500000
0
POLYLINE
5
4e3
100
AcDbEntity
8
3
6
CONTINUOUS
62
5
100
AcDb2dPolyline
66
1
10
0.0
20
0.0
30
0.0
70
0
0
VERTEX
5
4e4
100
AcDbEntity
8
3
100
AcDbVertex
100
AcDb2dVertex
62
5
10
99.824924
20
146.326812
0
VERTEX
5
4e5
100
AcDbEntity
8
3
100
AcDbVertex
100
AcDb2dVertex
62
5
10
99.324924
20
146.326812
0
VERTEX
5
4e6
100
AcDbEntity
8
3
100
AcDbVertex
100
AcDb2dVertex
62
5
10
99.324924
20
153.673189
0
VERTEX
5
4e7
100
AcDbEntity
8
3
100
AcDbVertex
100
AcDb2dVertex
62
5
10
99.824924
20
153.673189
0
SEQEND
5
4e8
100
AcDbEntity
8
3
0
ARC
5
4e9
100
AcDbEntity
8
3
100
AcDbCircle
6
CONTINUOUS
62
5
10
95.324924
20
155.100000
40
0.500000
100
AcDbArc
50
-179.999998
51
-89.999999
0
POLYLINE
5
4ea
100
AcDbEntity
8
3
6
CONTINUOUS
62
5
100
AcDb2dPolyline
66
1
10
0.0
20
0.0
30
0.0
70
0
0
VERTEX
5
4eb
100
AcDbEntity
8
3
100
AcDbVertex
100
AcDb2dVertex
62
5
10
95.324924
20
154.600000
0
VERTEX
5
4ec
100
AcDbEntity
8
3
100
AcDbVertex
100
AcDb2dVertex
62
5
10
95.824924
20
154.600000
0
VERTEX
5
4ed
100
AcDbEntity
8
3
100
AcDbVertex
100
AcDb2dVertex
62
5
10
95.824924
20
145.400000
0
VERTEX
5
4ee
100
AcDbEntity
8
3
100
AcDbVertex
100
AcDb2dVertex
62
5
10
95.324924
20
145.400000
0
SEQEND
5
4ef
100
AcDbEntity
8
3
0
ARC
5
4f0
100
AcDbEntity
8
3
100
AcDbCircle
6
CONTINUOUS
62
5
10
95.324924
20
144.900000
40
0.500000
100
AcDbArc
50
89.999999
51
179.999998
0
LINE
5
4f1
100
AcDbEntity
8
3
100
AcDbLine
6
CONTINUOUS
62
5
10
94.824924
20
144.900000
11
94.824924
21
144.700000
0
LINE
5
4f2
100
AcDbEntity
8
3
100
AcDbLine
6
CONTINUOUS
62
5
10
94.824924
20
155.300000
11
94.824924
21
155.100000
0
LINE
5
4f3
100
AcDbEntity
8
3
100
AcDbLine
6
CONTINUOUS
62
5
10
109.324924
20
145.625000
11
122.324924
21
145.625000
0
POLYLINE
5
4f4
100
AcDbEntity
8
3
6
CONTINUOUS
62
5
100
AcDb2dPolyline
66
1
10
0.0
20
0.0
30
0.0
70
0
0
VERTEX
5
4f5
100
AcDbEntity
8
3
100
AcDbVertex
100
AcDb2dVertex
62
5
10
109.324924
20
138.665670
0
VERTEX
5
4f6
100
AcDbEntity
8
3
100
AcDbVertex
100
AcDb2dVertex
62
5
10
109.324924
20
151.000000
0
VERTEX
5
4f7
100
AcDbEntity
8
3
100
AcDbVertex
100
AcDb2dVertex
62
5
10
113.424924
20
151.000000
0
VERTEX
5
4f8
100
AcDbEntity
8
3
100
AcDbVertex
100
AcDb2dVertex
62
5
10
113.424924
20
151.950000
0
VERTEX
5
4f9
100
AcDbEntity
8
3
100
AcDbVertex
100
AcDb2dVertex
62
5
10
118.224924
20
151.950000
0
VERTEX
5
4fa
100
AcDbEntity
8
3
100
AcDbVertex
100
AcDb2dVertex
62
5
10
118.224924
20
151.000000
0
VERTEX
5
4fb
100
AcDbEntity
8
3
100
AcDbVertex
100
AcDb2dVertex
62
5
10
122.324924
20
151.000000
0
VERTEX
5
4fc
100
AcDbEntity
8
3
100
AcDbVertex
100
AcDb2dVertex
62
5
10
122.324924
20
138.637925
0
SEQEND
5
4fd
100
AcDbEntity
8
3
0
LINE
5
4fe
100
AcDbEntity
8
3
100
AcDbLine
6
CONTINUOUS
62
5
10
122.333316
20
140.150000
11
109.324924
21
140.150000
0
LINE
5
4ff
100
AcDbEntity
8
1
100
AcDbLine
6
CONTINUOUS
62
5
10
40.000000
20
340.000000
11
40.000000
21
308.000000
0
LINE
5
500
100
AcDbEntity
8
1
100
AcDbLine
6
CONTINUOUS
62
5
10
0.000000
20
308.000000
11
320.000000
21
308.000000
0
LINE
5
501
100
AcDbEntity
8
3
100
AcDbLine
6
CONTINUOUS
62
5
10
202.424924
20
158.200000
11
202.424924
21
160.700000
0
POLYLINE
5
502
100
AcDbEntity
8
3
6
CONTINUOUS
62
5
100
AcDb2dPolyline
66
1
10
0.0
20
0.0
30
0.0
70
0
0
VERTEX
5
503
100
AcDbEntity
8
3
100
AcDbVertex
100
AcDb2dVertex
62
5
10
206.824924
20
160.700000
0
VERTEX
5
504
100
AcDbEntity
8
3
100
AcDbVertex
100
AcDb2dVertex
62
5
10
201.624924
20
160.700000
0
VERTEX
5
505
100
AcDbEntity
8
3
100
AcDbVertex
100
AcDb2dVertex
62
5
10
201.624924
20
158.057071
0
SEQEND
5
506
100
AcDbEntity
8
3
0
LINE
5
507
100
AcDbEntity
8
3
100
AcDbLine
6
CONTINUOUS
62
5
10
197.574924
20
138.650000
11
197.574924
21
161.350000
0
ARC
5
508
100
AcDbEntity
8
3
100
AcDbCircle
6
CONTINUOUS
62
5
10
193.824924
20
139.365563
40
0.700000
100
AcDbArc
50
-179.999998
51
-90.999999
0
LINE
5
509
100
AcDbEntity
8
3
100
AcDbLine
6
CONTINUOUS
62
5
10
193.124924
20
139.365563
11
193.124924
21
160.634437
0
ARC
5
50a
100
AcDbEntity
8
3
100
AcDbCircle
6
CONTINUOUS
62
5
10
193.824925
20
160.634436
40
0.700001
100
AcDbArc
50
91.000123
51
179.999951
0
POLYLINE
5
50b
100
AcDbEntity
8
3
6
CONTINUOUS
62
5
100
AcDb2dPolyline
66
1
10
0.0
20
0.0
30
0.0
70
0
0
VERTEX
5
50c
100
AcDbEntity
8
3
100
AcDbVertex
100
AcDb2dVertex
62
5
10
193.812707
20
161.334331
0
VERTEX
5
50d
100
AcDbEntity
8
3
100
AcDbVertex
100
AcDb2dVertex
62
5
10
197.574924
20
161.350000
0
VERTEX
5
50e
100
AcDbEntity
8
3
100
AcDbVertex
100
AcDb2dVertex
62
5
10
206.824924
20
161.350000
0
VERTEX
5
50f
100
AcDbEntity
8
3
100
AcDbVertex
100
AcDb2dVertex
62
5
10
206.824924
20
138.650000
0
VERTEX
5
510
100
AcDbEntity
8
3
100
AcDbVertex
100
AcDb2dVertex
62
5
10
197.574924
20
138.650000
0
VERTEX
5
511
100
AcDbEntity
8
3
100
AcDbVertex
100
AcDb2dVertex
62
5
10
193.812707
20
138.665670
0
SEQEND
5
512
100
AcDbEntity
8
3
0
ARC
5
513
100
AcDbEntity
8
3
100
AcDbCircle
6
CONTINUOUS
62
5
10
136.524924
20
158.700000
40
0.500000
100
AcDbArc
50
-179.999998
51
-89.999999
0
LINE
5
514
100
AcDbEntity
8
3
100
AcDbLine
6
CONTINUOUS
62
5
10
136.524924
20
158.200000
11
137.424924
21
158.200000
0
ARC
5
515
100
AcDbEntity
8
3
100
AcDbCircle
6
CONTINUOUS
62
5
10
137.424924
20
157.700000
40
0.500000
100
AcDbArc
50
0.000000
51
89.999999
0
LINE
5
516
100
AcDbEntity
8
3
100
AcDbLine
6
CONTINUOUS
62
5
10
137.924924
20
157.700000
11
137.924924
21
155.800000
0
ARC
5
517
100
AcDbEntity
8
3
100
AcDbCircle
6
CONTINUOUS
62
5
10
137.424924
20
155.800000
40
0.500000
100
AcDbArc
50
-89.999999
51
-0.000000
0
LINE
5
518
100
AcDbEntity
8
3
100
AcDbLine
6
CONTINUOUS
62
5
10
137.424924
20
155.300000
11
136.524924
21
155.300000
0
ARC
5
519
100
AcDbEntity
8
3
100
AcDbCircle
6
CONTINUOUS
62
5
10
136.524924
20
154.800000
40
0.500000
100
AcDbArc
50
89.999999
51
-179.999998
0
LINE
5
51a
100
AcDbEntity
8
3
100
AcDbLine
6
CONTINUOUS
62
5
10
136.024924
20
154.800000
11
136.024924
21
154.600000
0
LINE
5
51b
100
AcDbEntity
8
3
100
AcDbLine
6
CONTINUOUS
62
5
10
136.024924
20
160.200000
11
136.024924
21
158.700000
0
ARC
5
51c
100
AcDbEntity
8
3
100
AcDbCircle
6
CONTINUOUS
62
5
10
135.824924
20
159.700000
40
1.000000
100
AcDbArc
50
-0.000000
51
89.999999
0
LINE
5
51d
100
AcDbEntity
8
3
100
AcDbLine
6
CONTINUOUS
62
5
10
135.824924
20
160.700000
11
129.823136
21
160.700000
0
LINE
5
51e
100
AcDbEntity
8
3
100
AcDbLine
6
CONTINUOUS
62
5
10
136.824924
20
158.200000
11
136.824924
21
159.700000
0
ARC
5
51f
100
AcDbEntity
8
3
100
AcDbCircle
6
CONTINUOUS
62
5
10
95.124924
20
158.700000
40
0.500000
100
AcDbArc
50
-89.999999
51
-0.000000
0
LINE
5
520
100
AcDbEntity
8
3
100
AcDbLine
6
CONTINUOUS
62
5
10
95.124924
20
158.200000
11
94.224924
21
158.200000
0
ARC
5
521
100
AcDbEntity
8
3
100
AcDbCircle
6
CONTINUOUS
62
5
10
94.224924
20
157.700000
40
0.500000
100
AcDbArc
50
89.999999
51
179.999998
0
LINE
5
522
100
AcDbEntity
8
3
100
AcDbLine
6
CONTINUOUS
62
5
10
93.724924
20
157.700000
11
93.724924
21
155.800000
0
ARC
5
523
100
AcDbEntity
8
3
100
AcDbCircle
6
CONTINUOUS
62
5
10
94.224924
20
155.800000
40
0.500000
100
AcDbArc
50
-179.999998
51
-89.999999
0
LINE
5
524
100
AcDbEntity
8
3
100
AcDbLine
6
CONTINUOUS
62
5
10
94.224924
20
155.300000
11
95.124924
21
155.300000
0
ARC
5
525
100
AcDbEntity
8
3
100
AcDbCircle
6
CONTINUOUS
62
5
10
95.124924
20
154.800000
40
0.500000
100
AcDbArc
50
-0.000000
51
89.999999
0
LINE
5
526
100
AcDbEntity
8
3
100
AcDbLine
6
CONTINUOUS
62
5
10
95.624924
20
154.800000
11
95.624924
21
154.600000
0
LINE
5
527
100
AcDbEntity
8
3
100
AcDbLine
6
CONTINUOUS
62
5
10
95.624924
20
160.200000
11
95.624924
21
158.700000
0
ARC
5
528
100
AcDbEntity
8
3
100
AcDbCircle
6
CONTINUOUS
62
5
10
95.824924
20
159.700000
40
1.000000
100
AcDbArc
50
89.999999
51
-179.999998
0
LINE
5
529
100
AcDbEntity
8
3
100
AcDbLine
6
CONTINUOUS
62
5
10
95.824924
20
160.700000
11
101.826712
21
160.700000
0
LINE
5
52a
100
AcDbEntity
8
3
100
AcDbLine
6
CONTINUOUS
62
5
10
94.824924
20
158.200000
11
94.824924
21
159.700000
0
ARC
5
52b
100
AcDbEntity
8
3
100
AcDbCircle
6
CONTINUOUS
62
5
10
129.124924
20
160.650000
40
0.700000
100
AcDbArc
50
0.000000
51
89.999999
0
LINE
5
52c
100
AcDbEntity
8
3
100
AcDbLine
6
CONTINUOUS
62
5
10
129.824924
20
160.650000
11
129.824924
21
139.350000
0
ARC
5
52d
100
AcDbEntity
8
3
100
AcDbCircle
6
CONTINUOUS
62
5
10
129.124924
20
139.350000
40
0.700000
100
AcDbArc
50
-89.999999
51
0.000000
0
LINE
5
52e
100
AcDbEntity
8
3
100
AcDbLine
6
CONTINUOUS
62
5
10
129.124924
20
138.650000
11
102.524924
21
138.650000
0
ARC
5
52f
100
AcDbEntity
8
3
100
AcDbCircle
6
CONTINUOUS
62
5
10
102.524924
20
139.350000
40
0.700000
100
AcDbArc
50
179.999998
51
-89.999999
0
LINE
5
530
100
AcDbEntity
8
3
100
AcDbLine
6
CONTINUOUS
62
5
10
101.824924
20
139.350000
11
101.824924
21
160.650000
0
ARC
5
531
100
AcDbEntity
8
3
100
AcDbCircle
6
CONTINUOUS
62
5
10
102.524924
20
160.650000
40
0.700000
100
AcDbArc
50
89.999999
51
179.999998
0
LINE
5
532
100
AcDbEntity
8
3
100
AcDbLine
6
CONTINUOUS
62
5
10
102.524924
20
161.350000
11
129.124924
21
161.350000
0
LINE
5
533
100
AcDbEntity
8
0
100
AcDbLine
6
CONTINUOUS
62
5
10
101.024924
20
161.350000
11
66.724924
21
161.350000
0
LINE
5
534
100
AcDbEntity
8
0
100
AcDbLine
6
CONTINUOUS
62
5
10
101.024924
20
138.650000
11
66.724924
21
138.650000
0
POLYLINE
5
535
100
AcDbEntity
8
0
6
CONTINUOUS
62
5
100
AcDb2dPolyline
66
1
10
0.0
20
0.0
30
0.0
70
0
0
VERTEX
5
536
100
AcDbEntity
8
0
100
AcDbVertex
100
AcDb2dVertex
62
5
10
68.724924
20
192.600000
0
VERTEX
5
537
100
AcDbEntity
8
0
100
AcDbVertex
100
AcDb2dVertex
62
5
10
68.724924
20
161.350000
0
VERTEX
5
538
100
AcDbEntity
8
0
100
AcDbVertex
100
AcDb2dVertex
62
5
10
67.724924
20
167.350000
0
VERTEX
5
539
100
AcDbEntity
8
0
100
AcDbVertex
100
AcDb2dVertex
62
5
10
69.724924
20
167.350000
0
VERTEX
5
53a
100
AcDbEntity
8
0
100
AcDbVertex
100
AcDb2dVertex
62
5
10
68.724924
20
161.350000
0
VERTEX
5
53b
100
AcDbEntity
8
0
100
AcDbVertex
100
AcDb2dVertex
62
5
10
68.224924
20
167.350000
0
VERTEX
5
53c
100
AcDbEntity
8
0
100
AcDbVertex
100
AcDb2dVertex
62
5
10
69.224924
20
167.350000
0
VERTEX
5
53d
100
AcDbEntity
8
0
100
AcDbVertex
100
AcDb2dVertex
62
5
10
68.724924
20
161.350000
0
SEQEND
5
53e
100
AcDbEntity
8
0
0
LINE
5
53f
100
AcDbEntity
8
0
100
AcDbLine
6
CONTINUOUS
62
5
10
68.724924
20
138.650000
11
68.724924
21
161.350000
0
POLYLINE
5
540
100
AcDbEntity
8
0
6
CONTINUOUS
62
5
100
AcDb2dPolyline
66
1
10
0.0
20
0.0
30
0.0
70
0
0
VERTEX
5
541
100
AcDbEntity
8
0
100
AcDbVertex
100
AcDb2dVertex
62
5
10
68.724924
20
129.650000
0
VERTEX
5
542
100
AcDbEntity
8
0
100
AcDbVertex
100
AcDb2dVertex
62
5
10
68.724924
20
138.650000
0
VERTEX
5
543
100
AcDbEntity
8
0
100
AcDbVertex
100
AcDb2dVertex
62
5
10
69.724924
20
132.650000
0
VERTEX
5
544
100
AcDbEntity
8
0
100
AcDbVertex
100
AcDb2dVertex
62
5
10
67.724924
20
132.650000
0
VERTEX
5
545
100
AcDbEntity
8
0
100
AcDbVertex
100
AcDb2dVertex
62
5
10
68.724924
20
138.650000
0
VERTEX
5
546
100
AcDbEntity
8
0
100
AcDbVertex
100
AcDb2dVertex
62
5
10
69.224924
20
132.650000
0
VERTEX
5
547
100
AcDbEntity
8
0
100
AcDbVertex
100
AcDb2dVertex
62
5
10
68.224924
20
132.650000
0
VERTEX
5
548
100
AcDbEntity
8
0
100
AcDbVertex
100
AcDb2dVertex
62
5
10
68.724924
20
138.650000
0
SEQEND
5
549
100
AcDbEntity
8
0
0
POLYLINE
5
54a
100
AcDbEntity
8
1
6
CONTINUOUS
62
5
100
AcDb2dPolyline
66
1
10
0.0
20
0.0
30
0.0
70
1
0
VERTEX
5
54b
100
AcDbEntity
8
1
100
AcDbVertex
100
AcDb2dVertex
62
5
10
0.000000
20
0.000000
0
VERTEX
5
54c
100
AcDbEntity
8
1
100
AcDbVertex
100
AcDb2dVertex
62
5
10
0.000000
20
340.000000
0
VERTEX
5
54d
100
AcDbEntity
8
1
100
AcDbVertex
100
AcDb2dVertex
62
5
10
320.000000
20
340.000000
0
VERTEX
5
54e
100
AcDbEntity
8
1
100
AcDbVertex
100
AcDb2dVertex
62
5
10
320.000000
20
0.000000
0
VERTEX
5
54f
100
AcDbEntity
8
1
100
AcDbVertex
100
AcDb2dVertex
62
5
10
0.000000
20
0.000000
0
SEQEND
5
550
100
AcDbEntity
8
1
0
ENDSEC
0
SECTION
2
OBJECTS
0
DICTIONARY
5
551
100
AcDbDictionary
3
ACAD_GROUP
350
552
3
ACAD_MLINESTYLE
350
553
0
DICTIONARY
5
552
102
{ACAD_REACTORS
330
551
102
}
100
AcDbDictionary
0
DICTIONARY
5
553
102
{ACAD_REACTORS
330
551
102
}
100
AcDbDictionary
3
STANDARD
350
554
0
MLINESTYLE
5
554
102
{ACAD_REACTORS
330
553
102
}
100
AcDbMlineStyle
2
STANDARD
70
0
3

62
0
51
90.0
52
90.0
71
2
49
0.5
62
256
6
BYLAYER
49
-0.5
62
256
6
BYLAYER
0
ENDSEC
0
EOF
