0
SECTION
2
HEADER
9
$ACADVER
1
AC1012
9
$EXTMIN
10
-0.013701
20
-0.013701
30
0.0
9
$EXTMAX
10
12.606299
20
13.386299
30
0.0
9
$LIMMIN
10
-0.348005
20
-0.348005
9
$LIMMAX
10
320.199995
20
340.011995
9
$DIMSCALE
40
1.000000
9
$PDMODE
70
2
9
$PDSIZE
40
0.0
  9
$HANDSEED
  5
7f0
0
ENDSEC
0
SECTION
2
CLASSES
0
ENDSEC
0
SECTION
2
TABLES
0
TABLE
2
LTYPE
5
1e
100
AcDbSymbolTable
70
12
0
LTYPE
5
1f
100
AcDbSymbolTableRecord
100
AcDbLinetypeTableRecord
2
BYBLOCK
70
0
3

72
65
73
0
40
0.0
0
LTYPE
5
20
100
AcDbSymbolTableRecord
100
AcDbLinetypeTableRecord
2
BYLAYER
70
0
3

72
65
73
0
40
0.0
0
LTYPE
5
21
100
AcDbSymbolTableRecord
100
AcDbLinetypeTableRecord
2
CONTINUOUS
70
64
3
Solid line
72
65
73
0
40
0.0
0
LTYPE
5
22
100
AcDbSymbolTableRecord
100
AcDbLinetypeTableRecord
2
DASHED
70
64
3
__ __ __ __ __ __ __ __ __ __ __ __ __ __ __
72
65
73
2
40
0.75
49
0.5
74
0
49
-0.25
74
0
0
LTYPE
5
23
100
AcDbSymbolTableRecord
100
AcDbLinetypeTableRecord
2
DOT
70
64
3
...............................................
72
65
73
2
40
0.25
49
0.0
74
0
49
-0.25
74
0
0
LTYPE
5
24
100
AcDbSymbolTableRecord
100
AcDbLinetypeTableRecord
2
DASHDOT
70
64
3
__ . __ . __ . __ . __ . __ . __ . __ . __ . --
72
65
73
4
40
1.0
49
0.5
74
0
49
-0.25
74
0
49
0.0
74
0
49
-0.25
74
0
0
LTYPE
5
25
100
AcDbSymbolTableRecord
100
AcDbLinetypeTableRecord
2
CENTER
70
64
3
____ _ ____ _ ____ _ ____ _ ____ _ ____ _ ____
72
65
73
4
40
2.0
49
1.25
74
0
49
-0.25
74
0
49
0.25
74
0
49
-0.25
74
0
0
LTYPE
5
26
100
AcDbSymbolTableRecord
100
AcDbLinetypeTableRecord
2
PHANTOM
70
64
3
_____ _ _ _____ _ _ _____ _ _ _____ _ _ ____
72
65
73
6
40
2.5
49
1.25
74
0
49
-0.25
74
0
49
0.25
74
0
49
-0.25
74
0
49
0.25
74
0
49
-0.25
74
0
0
LTYPE
5
27
100
AcDbSymbolTableRecord
100
AcDbLinetypeTableRecord
2
HIDDEN
70
64
3
_ _ _ _ _ _ _ _ _ _ _ _ _ _ _ _ _ _ _ _ _ _ _
72
65
73
2
40
0.375
49
0.25
74
0
49
-0.125
74
0
0
LTYPE
5
28
100
AcDbSymbolTableRecord
100
AcDbLinetypeTableRecord
2
BORDER
70
64
3
__ __ . __ __ . __ __ . __ __ . __ __ . __ __
72
65
73
6
40
1.75
49
0.5
74
0
49
-0.25
74
0
49
0.5
74
0
49
-0.25
74
0
49
0.0
74
0
49
-0.25
74
0
0
LTYPE
5
29
100
AcDbSymbolTableRecord
100
AcDbLinetypeTableRecord
2
DIVIDE
70
64
3
__ . . __ . . __ . . __ . . __ . . __ . . __
72
65
73
6
40
1.25
49
0.5
74
0
49
-0.25
74
0
49
0.0
74
0
49
-0.25
74
0
49
0.0
74
0
49
-0.25
74
0
0
LTYPE
5
2a
100
AcDbSymbolTableRecord
100
AcDbLinetypeTableRecord
2
DOT2
70
64
3
...............................................
72
65
73
2
40
0.125
49
0.0
74
0
49
-0.125
74
0
0
ENDTAB
0
TABLE
2
STYLE
5
2b
100
AcDbSymbolTable
70
1
0
STYLE
5
2c
100
AcDbSymbolTableRecord
100
AcDbTextStyleTableRecord
2
STANDARD
70
64
40
0.0
41
1.0
50
0.0
71
0
42
5.0
3
txt
4
bigfont
0
ENDTAB
0
TABLE
2
LAYER
5
2d
100
AcDbSymbolTable
70
2
0
LAYER
5
2e
100
AcDbSymbolTableRecord
100
AcDbLayerTableRecord
2
0
70
0
62
7
6
CONTINUOUS
0
LAYER
5
2f
100
AcDbSymbolTableRecord
100
AcDbLayerTableRecord
2
1
70
0
62
7
6
CONTINUOUS
0
ENDTAB
0
TABLE
2
APPID
5
30
100
AcDbSymbolTable
70
1
0
APPID
5
31
100
AcDbSymbolTableRecord
100
AcDbRegAppTableRecord
2
ACAD
70
64
0
ENDTAB
0
TABLE
2
DIMSTYLE
5
32
100
AcDbSymbolTable
70
0
0
ENDTAB
0
TABLE
2
UCS
5
33
100
AcDbSymbolTable
70
0
0
ENDTAB
0
TABLE
2
VIEW
5
34
100
AcDbSymbolTable
70
0
0
ENDTAB
0
TABLE
2
VPORT
5
35
100
AcDbSymbolTable
70
0
0
ENDTAB
0
TABLE
2
BLOCK_RECORD
5
36
100
AcDbSymbolTable
70
0
0
BLOCK_RECORD
5
37
100
AcDbSymbolTableRecord
100
AcDbBlockTableRecord
2
*MODEL_SPACE
0
BLOCK_RECORD
5
38
100
AcDbSymbolTableRecord
100
AcDbBlockTableRecord
2
*PAPER_SPACE
0
BLOCK_RECORD
5
39
100
AcDbSymbolTableRecord
100
AcDbBlockTableRecord
2
OPEN
0
BLOCK_RECORD
5
3a
100
AcDbSymbolTableRecord
100
AcDbBlockTableRecord
2
HALF
0
BLOCK_RECORD
5
3b
100
AcDbSymbolTableRecord
100
AcDbBlockTableRecord
2
CLOSEDBLANK
0
BLOCK_RECORD
5
3c
100
AcDbSymbolTableRecord
100
AcDbBlockTableRecord
2
HALFCLOSE_R
0
BLOCK_RECORD
5
3d
100
AcDbSymbolTableRecord
100
AcDbBlockTableRecord
2
DOT
0
BLOCK_RECORD
5
3e
100
AcDbSymbolTableRecord
100
AcDbBlockTableRecord
2
HALFOPEN_R
0
BLOCK_RECORD
5
3f
100
AcDbSymbolTableRecord
100
AcDbBlockTableRecord
2
CLOSEDF
0
BLOCK_RECORD
5
40
100
AcDbSymbolTableRecord
100
AcDbBlockTableRecord
2
HALF_R
0
ENDTAB
0
ENDSEC
0
SECTION
2
BLOCKS
0
BLOCK
5
41
100
AcDbEntity
8
0
100
AcDbBlockBegin
2
*MODEL_SPACE
70
0
10
0.0
20
0.0
30
0.0
3
*MODEL_SPACE
1

0
ENDBLK
5
42
100
AcDbEntity
8
0
100
AcDbBlockEnd
0
BLOCK
5
43
100
AcDbEntity
67
1
8
0
100
AcDbBlockBegin
2
*PAPER_SPACE
70
0
10
0.0
20
0.0
30
0.0
3
*PAPER_SPACE
1

0
ENDBLK
5
44
100
AcDbEntity
67
1
8
0
100
AcDbBlockEnd
0
BLOCK
5
45
100
AcDbEntity
8
0
100
AcDbBlockBegin
2
OPEN
70
0
10
0.0
20
0.0
30
0.0
3
OPEN
1

0
LINE
5
46
100
AcDbEntity
8
0
6
BYBLOCK
62
0
100
AcDbLine
10
0.000000
20
0.000000
11
-1.000000
21
0.000000
0
LINE
5
47
100
AcDbEntity
8
0
6
BYBLOCK
62
0
100
AcDbLine
10
-1.000000
20
-0.166667
11
0.000000
21
0.000000
0
LINE
5
48
100
AcDbEntity
8
0
6
BYBLOCK
62
0
100
AcDbLine
10
-1.000000
20
0.166667
11
0.000000
21
0.000000
0
ENDBLK
5
49
100
AcDbEntity
8
0
100
AcDbBlockEnd
0
BLOCK
5
4a
100
AcDbEntity
8
0
100
AcDbBlockBegin
2
HALF
70
0
10
0.0
20
0.0
30
0.0
3
HALF
1

0
SOLID
5
4b
100
AcDbEntity
8
0
6
BYBLOCK
62
0
100
AcDbTrace
10
-1.000000
20
0.166667
11
-1.000000
21
-0.166667
12
0.000000
22
0.000000
13
0.000000
23
0.000000
0
ENDBLK
5
4c
100
AcDbEntity
8
0
100
AcDbBlockEnd
0
BLOCK
5
4d
100
AcDbEntity
8
0
100
AcDbBlockBegin
2
CLOSEDBLANK
70
0
10
0.0
20
0.0
30
0.0
3
CLOSEDBLANK
1

0
LINE
5
4e
100
AcDbEntity
8
0
6
BYBLOCK
62
0
100
AcDbLine
10
-1.000000
20
0.166667
11
-1.000000
21
-0.166667
0
LINE
5
4f
100
AcDbEntity
8
0
6
BYBLOCK
62
0
100
AcDbLine
10
0.000000
20
0.000000
11
-1.000000
21
-0.166667
0
LINE
5
50
100
AcDbEntity
8
0
6
BYBLOCK
62
0
100
AcDbLine
10
-1.000000
20
0.166667
11
0.000000
21
0.000000
0
ENDBLK
5
51
100
AcDbEntity
8
0
100
AcDbBlockEnd
0
BLOCK
5
52
100
AcDbEntity
8
0
100
AcDbBlockBegin
2
HALFCLOSE_R
70
0
10
0.0
20
0.0
30
0.0
3
HALFCLOSE_R
1

0
LINE
5
53
100
AcDbEntity
8
0
6
BYBLOCK
62
0
100
AcDbLine
10
-1.000000
20
-0.166667
11
-1.000000
21
0.000000
0
LINE
5
54
100
AcDbEntity
8
0
6
BYBLOCK
62
0
100
AcDbLine
10
-1.000000
20
-0.166667
11
0.000000
21
0.000000
0
LINE
5
55
100
AcDbEntity
8
0
6
BYBLOCK
62
0
100
AcDbLine
10
0.000000
20
0.000000
11
-1.000000
21
0.000000
0
ENDBLK
5
56
100
AcDbEntity
8
0
100
AcDbBlockEnd
0
BLOCK
5
57
100
AcDbEntity
8
0
100
AcDbBlockBegin
2
DOT
70
0
10
0.0
20
0.0
30
0.0
3
DOT
1

0
LINE
5
58
100
AcDbEntity
8
0
6
BYBLOCK
62
0
100
AcDbLine
10
0.000000
20
0.000000
11
-1.000000
21
0.000000
0
POLYLINE
5
59
100
AcDbEntity
8
0
6
BYBLOCK
62
0
100
AcDb2dPolyline
66
1
10
0.0
20
0.0
30
0.0
70
1
40
0.166667
41
0.166667
0
VERTEX
5
5a
100
AcDbEntity
8
0
100
AcDbVertex
100
AcDb2dVertex
62
10
10
-0.083333
20
0.000000
42
1.000000
0
VERTEX
5
5b
100
AcDbEntity
8
0
100
AcDbVertex
100
AcDb2dVertex
62
10
10
0.083333
20
0.000000
42
1.000000
0
SEQEND
5
5c
100
AcDbEntity
8
0
0
ENDBLK
5
5d
100
AcDbEntity
8
0
100
AcDbBlockEnd
0
BLOCK
5
5e
100
AcDbEntity
8
0
100
AcDbBlockBegin
2
HALFOPEN_R
70
0
10
0.0
20
0.0
30
0.0
3
HALFOPEN_R
1

0
LINE
5
5f
100
AcDbEntity
8
0
6
BYBLOCK
62
0
100
AcDbLine
10
-1.000000
20
-0.166667
11
0.000000
21
0.000000
0
LINE
5
60
100
AcDbEntity
8
0
6
BYBLOCK
62
0
100
AcDbLine
10
0.000000
20
0.000000
11
-1.000000
21
0.000000
0
ENDBLK
5
61
100
AcDbEntity
8
0
100
AcDbBlockEnd
0
BLOCK
5
62
100
AcDbEntity
8
0
100
AcDbBlockBegin
2
CLOSEDF
70
0
10
0.0
20
0.0
30
0.0
3
CLOSEDF
1

0
SOLID
5
63
100
AcDbEntity
8
0
6
BYBLOCK
62
0
100
AcDbTrace
10
-1.000000
20
0.166667
11
-1.000000
21
-0.166667
12
0.000000
22
0.000000
13
0.000000
23
0.000000
0
ENDBLK
5
64
100
AcDbEntity
8
0
100
AcDbBlockEnd
0
BLOCK
5
65
100
AcDbEntity
8
0
100
AcDbBlockBegin
2
HALF_R
70
0
10
0.0
20
0.0
30
0.0
3
HALF_R
1

0
SOLID
5
66
100
AcDbEntity
8
0
6
BYBLOCK
62
0
100
AcDbTrace
10
-1.000000
20
-0.166667
11
-1.000000
21
0.000000
12
0.000000
22
0.000000
13
0.000000
23
0.000000
0
ENDBLK
5
67
100
AcDbEntity
8
0
100
AcDbBlockEnd
0
ENDSEC
0
SECTION
2
ENTITIES
0
POLYLINE
5
68
100
AcDbEntity
8
1
6
CONTINUOUS
62
5
100
AcDb2dPolyline
66
1
10
0.0
20
0.0
30
0.0
70
0
0
VERTEX
5
69
100
AcDbEntity
8
1
100
AcDbVertex
100
AcDb2dVertex
62
5
10
253.250000
20
326.187500
0
VERTEX
5
6a
100
AcDbEntity
8
1
100
AcDbVertex
100
AcDb2dVertex
62
5
10
253.500000
20
326.187500
0
VERTEX
5
6b
100
AcDbEntity
8
1
100
AcDbVertex
100
AcDb2dVertex
62
5
10
255.250000
20
324.937500
0
SEQEND
5
6c
100
AcDbEntity
8
1
0
LINE
5
6d
100
AcDbEntity
8
1
100
AcDbLine
6
CONTINUOUS
62
5
10
253.250000
20
329.000000
11
253.250000
21
321.500000
0
LINE
5
6e
100
AcDbEntity
8
1
100
AcDbLine
6
CONTINUOUS
62
5
10
243.750000
20
327.437500
11
244.750000
21
326.187500
0
POLYLINE
5
6f
100
AcDbEntity
8
1
6
CONTINUOUS
62
5
100
AcDb2dPolyline
66
1
10
0.0
20
0.0
30
0.0
70
0
0
VERTEX
5
70
100
AcDbEntity
8
1
100
AcDbVertex
100
AcDb2dVertex
62
5
10
243.500000
20
322.437500
0
VERTEX
5
71
100
AcDbEntity
8
1
100
AcDbVertex
100
AcDb2dVertex
62
5
10
245.250000
20
323.375000
0
VERTEX
5
72
100
AcDbEntity
8
1
100
AcDbVertex
100
AcDb2dVertex
62
5
10
246.750000
20
324.625000
0
VERTEX
5
73
100
AcDbEntity
8
1
100
AcDbVertex
100
AcDb2dVertex
62
5
10
248.250000
20
326.187500
0
SEQEND
5
74
100
AcDbEntity
8
1
0
POLYLINE
5
75
100
AcDbEntity
8
1
6
CONTINUOUS
62
5
100
AcDb2dPolyline
66
1
10
0.0
20
0.0
30
0.0
70
0
0
VERTEX
5
76
100
AcDbEntity
8
1
100
AcDbVertex
100
AcDb2dVertex
62
5
10
235.000000
20
325.562500
0
VERTEX
5
77
100
AcDbEntity
8
1
100
AcDbVertex
100
AcDb2dVertex
62
5
10
240.250000
20
326.187500
0
VERTEX
5
78
100
AcDbEntity
8
1
100
AcDbVertex
100
AcDb2dVertex
62
5
10
240.250000
20
325.875000
0
VERTEX
5
79
100
AcDbEntity
8
1
100
AcDbVertex
100
AcDb2dVertex
62
5
10
239.000000
20
324.312500
0
SEQEND
5
7a
100
AcDbEntity
8
1
0
POLYLINE
5
7b
100
AcDbEntity
8
1
6
CONTINUOUS
62
5
100
AcDb2dPolyline
66
1
10
0.0
20
0.0
30
0.0
70
0
0
VERTEX
5
7c
100
AcDbEntity
8
1
100
AcDbVertex
100
AcDb2dVertex
62
5
10
237.000000
20
328.375000
0
VERTEX
5
7d
100
AcDbEntity
8
1
100
AcDbVertex
100
AcDb2dVertex
62
5
10
237.000000
20
322.437500
0
VERTEX
5
7e
100
AcDbEntity
8
1
100
AcDbVertex
100
AcDb2dVertex
62
5
10
237.500000
20
321.812500
0
VERTEX
5
7f
100
AcDbEntity
8
1
100
AcDbVertex
100
AcDb2dVertex
62
5
10
240.250000
20
321.812500
0
SEQEND
5
80
100
AcDbEntity
8
1
0
POLYLINE
5
81
100
AcDbEntity
8
1
6
CONTINUOUS
62
5
100
AcDb2dPolyline
66
1
10
0.0
20
0.0
30
0.0
70
0
0
VERTEX
5
82
100
AcDbEntity
8
1
100
AcDbVertex
100
AcDb2dVertex
62
5
10
219.750000
20
327.125000
0
VERTEX
5
83
100
AcDbEntity
8
1
100
AcDbVertex
100
AcDb2dVertex
62
5
10
223.750000
20
327.125000
0
VERTEX
5
84
100
AcDbEntity
8
1
100
AcDbVertex
100
AcDb2dVertex
62
5
10
223.750000
20
322.750000
0
VERTEX
5
85
100
AcDbEntity
8
1
100
AcDbVertex
100
AcDb2dVertex
62
5
10
219.750000
20
322.750000
0
SEQEND
5
86
100
AcDbEntity
8
1
0
LINE
5
87
100
AcDbEntity
8
1
100
AcDbLine
6
CONTINUOUS
62
5
10
202.250000
20
327.437500
11
204.500000
21
327.437500
0
POLYLINE
5
88
100
AcDbEntity
8
1
6
CONTINUOUS
62
5
100
AcDb2dPolyline
66
1
10
0.0
20
0.0
30
0.0
70
0
0
VERTEX
5
89
100
AcDbEntity
8
1
100
AcDbVertex
100
AcDb2dVertex
62
5
10
203.500000
20
329.312500
0
VERTEX
5
8a
100
AcDbEntity
8
1
100
AcDbVertex
100
AcDb2dVertex
62
5
10
203.500000
20
321.500000
0
VERTEX
5
8b
100
AcDbEntity
8
1
100
AcDbVertex
100
AcDb2dVertex
62
5
10
203.000000
20
320.875000
0
VERTEX
5
8c
100
AcDbEntity
8
1
100
AcDbVertex
100
AcDb2dVertex
62
5
10
202.500000
20
320.875000
0
SEQEND
5
8d
100
AcDbEntity
8
1
0
LINE
5
8e
100
AcDbEntity
8
1
100
AcDbLine
6
CONTINUOUS
62
5
10
202.500000
20
324.312500
11
204.250000
21
325.562500
0
LINE
5
8f
100
AcDbEntity
8
1
100
AcDbLine
6
CONTINUOUS
62
5
10
205.000000
20
328.375000
11
209.000000
21
328.375000
0
LINE
5
90
100
AcDbEntity
8
1
100
AcDbLine
6
CONTINUOUS
62
5
10
204.750000
20
326.187500
11
209.250000
21
326.187500
0
LINE
5
91
100
AcDbEntity
8
1
100
AcDbLine
6
CONTINUOUS
62
5
10
205.750000
20
328.375000
11
206.500000
21
326.187500
0
LINE
5
92
100
AcDbEntity
8
1
100
AcDbLine
6
CONTINUOUS
62
5
10
207.500000
20
326.187500
11
208.250000
21
328.375000
0
LINE
5
93
100
AcDbEntity
8
1
100
AcDbLine
6
CONTINUOUS
62
5
10
207.000000
20
328.375000
11
207.000000
21
329.625000
0
POLYLINE
5
94
100
AcDbEntity
8
1
6
CONTINUOUS
62
5
100
AcDb2dPolyline
66
1
10
0.0
20
0.0
30
0.0
70
0
0
VERTEX
5
95
100
AcDbEntity
8
1
100
AcDbVertex
100
AcDb2dVertex
62
5
10
207.000000
20
326.187500
0
VERTEX
5
96
100
AcDbEntity
8
1
100
AcDbVertex
100
AcDb2dVertex
62
5
10
205.750000
20
323.062500
0
VERTEX
5
97
100
AcDbEntity
8
1
100
AcDbVertex
100
AcDb2dVertex
62
5
10
207.250000
20
322.750000
0
VERTEX
5
98
100
AcDbEntity
8
1
100
AcDbVertex
100
AcDb2dVertex
62
5
10
208.500000
20
322.125000
0
VERTEX
5
99
100
AcDbEntity
8
1
100
AcDbVertex
100
AcDb2dVertex
62
5
10
209.250000
20
321.187500
0
SEQEND
5
9a
100
AcDbEntity
8
1
0
POLYLINE
5
9b
100
AcDbEntity
8
1
6
CONTINUOUS
62
5
100
AcDb2dPolyline
66
1
10
0.0
20
0.0
30
0.0
70
0
0
VERTEX
5
9c
100
AcDbEntity
8
1
100
AcDbVertex
100
AcDb2dVertex
62
5
10
208.000000
20
324.625000
0
VERTEX
5
9d
100
AcDbEntity
8
1
100
AcDbVertex
100
AcDb2dVertex
62
5
10
207.250000
20
322.750000
0
VERTEX
5
9e
100
AcDbEntity
8
1
100
AcDbVertex
100
AcDb2dVertex
62
5
10
206.500000
20
321.500000
0
VERTEX
5
9f
100
AcDbEntity
8
1
100
AcDbVertex
100
AcDb2dVertex
62
5
10
205.750000
20
321.187500
0
VERTEX
5
a0
100
AcDbEntity
8
1
100
AcDbVertex
100
AcDb2dVertex
62
5
10
205.000000
20
321.187500
0
SEQEND
5
a1
100
AcDbEntity
8
1
0
LINE
5
a2
100
AcDbEntity
8
1
100
AcDbLine
6
CONTINUOUS
62
5
10
205.000000
20
324.625000
11
209.250000
21
324.625000
0
POLYLINE
5
a3
100
AcDbEntity
8
1
6
CONTINUOUS
62
5
100
AcDb2dPolyline
66
1
10
0.0
20
0.0
30
0.0
70
0
0
VERTEX
5
a4
100
AcDbEntity
8
1
100
AcDbVertex
100
AcDb2dVertex
62
5
10
195.500000
20
329.000000
0
VERTEX
5
a5
100
AcDbEntity
8
1
100
AcDbVertex
100
AcDb2dVertex
62
5
10
195.500000
20
323.375000
0
VERTEX
5
a6
100
AcDbEntity
8
1
100
AcDbVertex
100
AcDb2dVertex
62
5
10
195.000000
20
322.125000
0
VERTEX
5
a7
100
AcDbEntity
8
1
100
AcDbVertex
100
AcDb2dVertex
62
5
10
194.500000
20
321.187500
0
SEQEND
5
a8
100
AcDbEntity
8
1
0
POLYLINE
5
a9
100
AcDbEntity
8
1
6
CONTINUOUS
62
5
100
AcDb2dPolyline
66
1
10
0.0
20
0.0
30
0.0
70
0
0
VERTEX
5
aa
100
AcDbEntity
8
1
100
AcDbVertex
100
AcDb2dVertex
62
5
10
199.500000
20
321.500000
0
VERTEX
5
ab
100
AcDbEntity
8
1
100
AcDbVertex
100
AcDb2dVertex
62
5
10
200.500000
20
320.875000
0
VERTEX
5
ac
100
AcDbEntity
8
1
100
AcDbVertex
100
AcDb2dVertex
62
5
10
200.500000
20
329.000000
0
VERTEX
5
ad
100
AcDbEntity
8
1
100
AcDbVertex
100
AcDb2dVertex
62
5
10
195.500000
20
329.000000
0
SEQEND
5
ae
100
AcDbEntity
8
1
0
LINE
5
af
100
AcDbEntity
8
1
100
AcDbLine
6
CONTINUOUS
62
5
10
195.500000
20
326.500000
11
200.500000
21
326.500000
0
LINE
5
b0
100
AcDbEntity
8
1
100
AcDbLine
6
CONTINUOUS
62
5
10
198.000000
20
329.000000
11
198.000000
21
320.875000
0
LINE
5
b1
100
AcDbEntity
8
1
100
AcDbLine
6
CONTINUOUS
62
5
10
195.500000
20
324.000000
11
200.500000
21
324.000000
0
LINE
5
b2
100
AcDbEntity
8
1
100
AcDbLine
6
CONTINUOUS
62
5
10
210.250000
20
326.500000
11
212.500000
21
326.500000
0
LINE
5
b3
100
AcDbEntity
8
1
100
AcDbLine
6
CONTINUOUS
62
5
10
210.500000
20
321.500000
11
212.500000
21
323.062500
0
LINE
5
b4
100
AcDbEntity
8
1
100
AcDbLine
6
CONTINUOUS
62
5
10
211.500000
20
329.000000
11
211.500000
21
322.125000
0
POLYLINE
5
b5
100
AcDbEntity
8
1
6
CONTINUOUS
62
5
100
AcDb2dPolyline
66
1
10
0.0
20
0.0
30
0.0
70
0
0
VERTEX
5
b6
100
AcDbEntity
8
1
100
AcDbVertex
100
AcDb2dVertex
62
5
10
212.250000
20
324.937500
0
VERTEX
5
b7
100
AcDbEntity
8
1
100
AcDbVertex
100
AcDb2dVertex
62
5
10
216.750000
20
327.750000
0
VERTEX
5
b8
100
AcDbEntity
8
1
100
AcDbVertex
100
AcDb2dVertex
62
5
10
216.750000
20
324.625000
0
VERTEX
5
b9
100
AcDbEntity
8
1
100
AcDbVertex
100
AcDb2dVertex
62
5
10
216.250000
20
324.000000
0
VERTEX
5
ba
100
AcDbEntity
8
1
100
AcDbVertex
100
AcDb2dVertex
62
5
10
215.750000
20
324.000000
0
SEQEND
5
bb
100
AcDbEntity
8
1
0
LINE
5
bc
100
AcDbEntity
8
1
100
AcDbLine
6
CONTINUOUS
62
5
10
214.750000
20
329.312500
11
214.750000
21
322.750000
0
POLYLINE
5
bd
100
AcDbEntity
8
1
6
CONTINUOUS
62
5
100
AcDb2dPolyline
66
1
10
0.0
20
0.0
30
0.0
70
0
0
VERTEX
5
be
100
AcDbEntity
8
1
100
AcDbVertex
100
AcDb2dVertex
62
5
10
213.250000
20
328.062500
0
VERTEX
5
bf
100
AcDbEntity
8
1
100
AcDbVertex
100
AcDb2dVertex
62
5
10
213.250000
20
321.500000
0
VERTEX
5
c0
100
AcDbEntity
8
1
100
AcDbVertex
100
AcDb2dVertex
62
5
10
213.750000
20
320.875000
0
VERTEX
5
c1
100
AcDbEntity
8
1
100
AcDbVertex
100
AcDb2dVertex
62
5
10
216.750000
20
320.875000
0
VERTEX
5
c2
100
AcDbEntity
8
1
100
AcDbVertex
100
AcDb2dVertex
62
5
10
217.250000
20
321.500000
0
VERTEX
5
c3
100
AcDbEntity
8
1
100
AcDbVertex
100
AcDb2dVertex
62
5
10
217.250000
20
322.437500
0
SEQEND
5
c4
100
AcDbEntity
8
1
0
POLYLINE
5
c5
100
AcDbEntity
8
1
6
CONTINUOUS
62
5
100
AcDb2dPolyline
66
1
10
0.0
20
0.0
30
0.0
70
0
0
VERTEX
5
c6
100
AcDbEntity
8
1
100
AcDbVertex
100
AcDb2dVertex
62
5
10
183.000000
20
321.500000
0
VERTEX
5
c7
100
AcDbEntity
8
1
100
AcDbVertex
100
AcDb2dVertex
62
5
10
184.250000
20
329.000000
0
VERTEX
5
c8
100
AcDbEntity
8
1
100
AcDbVertex
100
AcDb2dVertex
62
5
10
185.500000
20
321.500000
0
SEQEND
5
c9
100
AcDbEntity
8
1
0
LINE
5
ca
100
AcDbEntity
8
1
100
AcDbLine
6
CONTINUOUS
62
5
10
183.500000
20
324.000000
11
185.000000
21
324.000000
0
POLYLINE
5
cb
100
AcDbEntity
8
1
6
CONTINUOUS
62
5
100
AcDb2dPolyline
66
1
10
0.0
20
0.0
30
0.0
70
0
0
VERTEX
5
cc
100
AcDbEntity
8
1
100
AcDbVertex
100
AcDb2dVertex
62
5
10
175.000000
20
326.812500
0
VERTEX
5
cd
100
AcDbEntity
8
1
100
AcDbVertex
100
AcDb2dVertex
62
5
10
175.250000
20
328.375000
0
VERTEX
5
ce
100
AcDbEntity
8
1
100
AcDbVertex
100
AcDb2dVertex
62
5
10
176.000000
20
329.000000
0
VERTEX
5
cf
100
AcDbEntity
8
1
100
AcDbVertex
100
AcDb2dVertex
62
5
10
176.750000
20
329.000000
0
VERTEX
5
d0
100
AcDbEntity
8
1
100
AcDbVertex
100
AcDb2dVertex
62
5
10
177.250000
20
328.687500
0
VERTEX
5
d1
100
AcDbEntity
8
1
100
AcDbVertex
100
AcDb2dVertex
62
5
10
177.500000
20
327.750000
0
VERTEX
5
d2
100
AcDbEntity
8
1
100
AcDbVertex
100
AcDb2dVertex
62
5
10
177.500000
20
326.812500
0
VERTEX
5
d3
100
AcDbEntity
8
1
100
AcDbVertex
100
AcDb2dVertex
62
5
10
177.250000
20
325.875000
0
VERTEX
5
d4
100
AcDbEntity
8
1
100
AcDbVertex
100
AcDb2dVertex
62
5
10
175.000000
20
321.500000
0
VERTEX
5
d5
100
AcDbEntity
8
1
100
AcDbVertex
100
AcDb2dVertex
62
5
10
177.500000
20
321.500000
0
VERTEX
5
d6
100
AcDbEntity
8
1
100
AcDbVertex
100
AcDb2dVertex
62
5
10
177.500000
20
322.437500
0
SEQEND
5
d7
100
AcDbEntity
8
1
0
POLYLINE
5
d8
100
AcDbEntity
8
1
6
CONTINUOUS
62
5
100
AcDb2dPolyline
66
1
10
0.0
20
0.0
30
0.0
70
1
0
VERTEX
5
d9
100
AcDbEntity
8
1
100
AcDbVertex
100
AcDb2dVertex
62
5
10
180.000000
20
329.000000
0
VERTEX
5
da
100
AcDbEntity
8
1
100
AcDbVertex
100
AcDb2dVertex
62
5
10
180.500000
20
329.000000
0
VERTEX
5
db
100
AcDbEntity
8
1
100
AcDbVertex
100
AcDb2dVertex
62
5
10
180.750000
20
328.687500
0
VERTEX
5
dc
100
AcDbEntity
8
1
100
AcDbVertex
100
AcDb2dVertex
62
5
10
181.250000
20
327.437500
0
VERTEX
5
dd
100
AcDbEntity
8
1
100
AcDbVertex
100
AcDb2dVertex
62
5
10
181.500000
20
326.187500
0
VERTEX
5
de
100
AcDbEntity
8
1
100
AcDbVertex
100
AcDb2dVertex
62
5
10
181.500000
20
324.312500
0
VERTEX
5
df
100
AcDbEntity
8
1
100
AcDbVertex
100
AcDb2dVertex
62
5
10
181.250000
20
323.062500
0
VERTEX
5
e0
100
AcDbEntity
8
1
100
AcDbVertex
100
AcDb2dVertex
62
5
10
180.750000
20
321.812500
0
VERTEX
5
e1
100
AcDbEntity
8
1
100
AcDbVertex
100
AcDb2dVertex
62
5
10
180.500000
20
321.500000
0
VERTEX
5
e2
100
AcDbEntity
8
1
100
AcDbVertex
100
AcDb2dVertex
62
5
10
180.000000
20
321.500000
0
VERTEX
5
e3
100
AcDbEntity
8
1
100
AcDbVertex
100
AcDb2dVertex
62
5
10
179.750000
20
321.812500
0
VERTEX
5
e4
100
AcDbEntity
8
1
100
AcDbVertex
100
AcDb2dVertex
62
5
10
179.250000
20
323.062500
0
VERTEX
5
e5
100
AcDbEntity
8
1
100
AcDbVertex
100
AcDb2dVertex
62
5
10
179.000000
20
324.312500
0
VERTEX
5
e6
100
AcDbEntity
8
1
100
AcDbVertex
100
AcDb2dVertex
62
5
10
179.000000
20
326.187500
0
VERTEX
5
e7
100
AcDbEntity
8
1
100
AcDbVertex
100
AcDb2dVertex
62
5
10
179.250000
20
327.437500
0
VERTEX
5
e8
100
AcDbEntity
8
1
100
AcDbVertex
100
AcDb2dVertex
62
5
10
179.750000
20
328.687500
0
VERTEX
5
e9
100
AcDbEntity
8
1
100
AcDbVertex
100
AcDb2dVertex
62
5
10
180.000000
20
329.000000
0
SEQEND
5
ea
100
AcDbEntity
8
1
0
POLYLINE
5
eb
100
AcDbEntity
8
1
6
CONTINUOUS
62
5
100
AcDb2dPolyline
66
1
10
0.0
20
0.0
30
0.0
70
0
0
VERTEX
5
ec
100
AcDbEntity
8
1
100
AcDbVertex
100
AcDb2dVertex
62
5
10
175.750000
20
318.687500
0
VERTEX
5
ed
100
AcDbEntity
8
1
100
AcDbVertex
100
AcDb2dVertex
62
5
10
173.750000
20
316.187500
0
VERTEX
5
ee
100
AcDbEntity
8
1
100
AcDbVertex
100
AcDb2dVertex
62
5
10
171.500000
20
314.625000
0
SEQEND
5
ef
100
AcDbEntity
8
1
0
LINE
5
f0
100
AcDbEntity
8
1
100
AcDbLine
6
CONTINUOUS
62
5
10
174.250000
20
316.812500
11
174.250000
21
311.500000
0
POLYLINE
5
f1
100
AcDbEntity
8
1
6
CONTINUOUS
62
5
100
AcDb2dPolyline
66
1
10
0.0
20
0.0
30
0.0
70
0
0
VERTEX
5
f2
100
AcDbEntity
8
1
100
AcDbVertex
100
AcDb2dVertex
62
5
10
181.250000
20
316.187500
0
VERTEX
5
f3
100
AcDbEntity
8
1
100
AcDbVertex
100
AcDb2dVertex
62
5
10
181.500000
20
316.187500
0
VERTEX
5
f4
100
AcDbEntity
8
1
100
AcDbVertex
100
AcDb2dVertex
62
5
10
183.250000
20
314.937500
0
SEQEND
5
f5
100
AcDbEntity
8
1
0
LINE
5
f6
100
AcDbEntity
8
1
100
AcDbLine
6
CONTINUOUS
62
5
10
181.250000
20
319.000000
11
181.250000
21
311.500000
0
POLYLINE
5
f7
100
AcDbEntity
8
1
6
CONTINUOUS
62
5
100
AcDb2dPolyline
66
1
10
0.0
20
0.0
30
0.0
70
0
0
VERTEX
5
f8
100
AcDbEntity
8
1
100
AcDbVertex
100
AcDb2dVertex
62
5
10
163.000000
20
321.500000
0
VERTEX
5
f9
100
AcDbEntity
8
1
100
AcDbVertex
100
AcDb2dVertex
62
5
10
164.250000
20
329.000000
0
VERTEX
5
fa
100
AcDbEntity
8
1
100
AcDbVertex
100
AcDb2dVertex
62
5
10
165.500000
20
321.500000
0
SEQEND
5
fb
100
AcDbEntity
8
1
0
LINE
5
fc
100
AcDbEntity
8
1
100
AcDbLine
6
CONTINUOUS
62
5
10
163.500000
20
324.000000
11
165.000000
21
324.000000
0
POLYLINE
5
fd
100
AcDbEntity
8
1
6
CONTINUOUS
62
5
100
AcDb2dPolyline
66
1
10
0.0
20
0.0
30
0.0
70
0
0
VERTEX
5
fe
100
AcDbEntity
8
1
100
AcDbVertex
100
AcDb2dVertex
62
5
10
163.750000
20
315.562500
0
VERTEX
5
ff
100
AcDbEntity
8
1
100
AcDbVertex
100
AcDb2dVertex
62
5
10
163.750000
20
317.750000
0
VERTEX
5
100
100
AcDbEntity
8
1
100
AcDbVertex
100
AcDb2dVertex
62
5
10
167.750000
20
317.750000
0
VERTEX
5
101
100
AcDbEntity
8
1
100
AcDbVertex
100
AcDb2dVertex
62
5
10
167.750000
20
316.812500
0
VERTEX
5
102
100
AcDbEntity
8
1
100
AcDbVertex
100
AcDb2dVertex
62
5
10
167.500000
20
315.250000
0
VERTEX
5
103
100
AcDbEntity
8
1
100
AcDbVertex
100
AcDb2dVertex
62
5
10
167.000000
20
314.000000
0
VERTEX
5
104
100
AcDbEntity
8
1
100
AcDbVertex
100
AcDb2dVertex
62
5
10
166.500000
20
313.062500
0
VERTEX
5
105
100
AcDbEntity
8
1
100
AcDbVertex
100
AcDb2dVertex
62
5
10
165.500000
20
311.812500
0
SEQEND
5
106
100
AcDbEntity
8
1
0
POLYLINE
5
107
100
AcDbEntity
8
1
6
CONTINUOUS
62
5
100
AcDb2dPolyline
66
1
10
0.0
20
0.0
30
0.0
70
0
0
VERTEX
5
108
100
AcDbEntity
8
1
100
AcDbVertex
100
AcDb2dVertex
62
5
10
155.500000
20
328.375000
0
VERTEX
5
109
100
AcDbEntity
8
1
100
AcDbVertex
100
AcDb2dVertex
62
5
10
156.250000
20
329.000000
0
VERTEX
5
10a
100
AcDbEntity
8
1
100
AcDbVertex
100
AcDb2dVertex
62
5
10
156.250000
20
321.500000
0
SEQEND
5
10b
100
AcDbEntity
8
1
0
LINE
5
10c
100
AcDbEntity
8
1
100
AcDbLine
6
CONTINUOUS
62
5
10
155.750000
20
321.500000
11
156.750000
21
321.500000
0
LINE
5
10d
100
AcDbEntity
8
1
100
AcDbLine
6
CONTINUOUS
62
5
10
159.000000
20
329.000000
11
161.250000
21
329.000000
0
POLYLINE
5
10e
100
AcDbEntity
8
1
6
CONTINUOUS
62
5
100
AcDb2dPolyline
66
1
10
0.0
20
0.0
30
0.0
70
0
0
VERTEX
5
10f
100
AcDbEntity
8
1
100
AcDbVertex
100
AcDb2dVertex
62
5
10
159.000000
20
329.000000
0
VERTEX
5
110
100
AcDbEntity
8
1
100
AcDbVertex
100
AcDb2dVertex
62
5
10
159.000000
20
325.250000
0
VERTEX
5
111
100
AcDbEntity
8
1
100
AcDbVertex
100
AcDb2dVertex
62
5
10
159.500000
20
325.875000
0
VERTEX
5
112
100
AcDbEntity
8
1
100
AcDbVertex
100
AcDb2dVertex
62
5
10
160.000000
20
326.187500
0
VERTEX
5
113
100
AcDbEntity
8
1
100
AcDbVertex
100
AcDb2dVertex
62
5
10
160.750000
20
326.187500
0
VERTEX
5
114
100
AcDbEntity
8
1
100
AcDbVertex
100
AcDb2dVertex
62
5
10
161.250000
20
325.875000
0
VERTEX
5
115
100
AcDbEntity
8
1
100
AcDbVertex
100
AcDb2dVertex
62
5
10
161.500000
20
324.937500
0
VERTEX
5
116
100
AcDbEntity
8
1
100
AcDbVertex
100
AcDb2dVertex
62
5
10
161.500000
20
323.062500
0
VERTEX
5
117
100
AcDbEntity
8
1
100
AcDbVertex
100
AcDb2dVertex
62
5
10
161.000000
20
322.125000
0
VERTEX
5
118
100
AcDbEntity
8
1
100
AcDbVertex
100
AcDb2dVertex
62
5
10
160.250000
20
321.500000
0
VERTEX
5
119
100
AcDbEntity
8
1
100
AcDbVertex
100
AcDb2dVertex
62
5
10
159.000000
20
321.500000
0
SEQEND
5
11a
100
AcDbEntity
8
1
0
LINE
5
11b
100
AcDbEntity
8
1
100
AcDbLine
6
CONTINUOUS
62
5
10
155.250000
20
316.187500
11
160.250000
21
316.187500
0
POLYLINE
5
11c
100
AcDbEntity
8
1
6
CONTINUOUS
62
5
100
AcDb2dPolyline
66
1
10
0.0
20
0.0
30
0.0
70
0
0
VERTEX
5
11d
100
AcDbEntity
8
1
100
AcDbVertex
100
AcDb2dVertex
62
5
10
157.750000
20
318.062500
0
VERTEX
5
11e
100
AcDbEntity
8
1
100
AcDbVertex
100
AcDb2dVertex
62
5
10
157.750000
20
311.812500
0
VERTEX
5
11f
100
AcDbEntity
8
1
100
AcDbVertex
100
AcDb2dVertex
62
5
10
157.250000
20
311.812500
0
SEQEND
5
120
100
AcDbEntity
8
1
0
LINE
5
121
100
AcDbEntity
8
1
100
AcDbLine
6
CONTINUOUS
62
5
10
156.500000
20
314.625000
11
155.250000
21
312.750000
0
LINE
5
122
100
AcDbEntity
8
1
100
AcDbLine
6
CONTINUOUS
62
5
10
159.250000
20
314.625000
11
160.500000
21
313.062500
0
POLYLINE
5
123
100
AcDbEntity
8
1
6
CONTINUOUS
62
5
100
AcDb2dPolyline
66
1
10
0.0
20
0.0
30
0.0
70
0
0
VERTEX
5
124
100
AcDbEntity
8
1
100
AcDbVertex
100
AcDb2dVertex
62
5
10
169.250000
20
325.250000
0
VERTEX
5
125
100
AcDbEntity
8
1
100
AcDbVertex
100
AcDb2dVertex
62
5
10
169.750000
20
325.875000
0
VERTEX
5
126
100
AcDbEntity
8
1
100
AcDbVertex
100
AcDb2dVertex
62
5
10
170.000000
20
325.875000
0
VERTEX
5
127
100
AcDbEntity
8
1
100
AcDbVertex
100
AcDb2dVertex
62
5
10
170.500000
20
325.250000
0
VERTEX
5
128
100
AcDbEntity
8
1
100
AcDbVertex
100
AcDb2dVertex
62
5
10
170.500000
20
324.937500
0
VERTEX
5
129
100
AcDbEntity
8
1
100
AcDbVertex
100
AcDb2dVertex
62
5
10
170.000000
20
324.312500
0
VERTEX
5
12a
100
AcDbEntity
8
1
100
AcDbVertex
100
AcDb2dVertex
62
5
10
169.750000
20
324.312500
0
VERTEX
5
12b
100
AcDbEntity
8
1
100
AcDbVertex
100
AcDb2dVertex
62
5
10
169.250000
20
324.937500
0
VERTEX
5
12c
100
AcDbEntity
8
1
100
AcDbVertex
100
AcDb2dVertex
62
5
10
169.250000
20
325.250000
0
VERTEX
5
12d
100
AcDbEntity
8
1
100
AcDbVertex
100
AcDb2dVertex
62
5
10
170.500000
20
325.250000
0
SEQEND
5
12e
100
AcDbEntity
8
1
0
LINE
5
12f
100
AcDbEntity
8
1
100
AcDbLine
6
CONTINUOUS
62
5
10
170.500000
20
324.937500
11
169.250000
21
324.937500
0
LINE
5
130
100
AcDbEntity
8
1
100
AcDbLine
6
CONTINUOUS
62
5
10
169.500000
20
324.625000
11
170.250000
21
324.625000
0
LINE
5
131
100
AcDbEntity
8
1
100
AcDbLine
6
CONTINUOUS
62
5
10
170.250000
20
325.562500
11
169.500000
21
325.562500
0
LINE
5
132
100
AcDbEntity
8
1
100
AcDbLine
6
CONTINUOUS
62
5
10
186.750000
20
328.375000
11
193.250000
21
328.375000
0
POLYLINE
5
133
100
AcDbEntity
8
1
6
CONTINUOUS
62
5
100
AcDb2dPolyline
66
1
10
0.0
20
0.0
30
0.0
70
0
0
VERTEX
5
134
100
AcDbEntity
8
1
100
AcDbVertex
100
AcDb2dVertex
62
5
10
187.250000
20
326.812500
0
VERTEX
5
135
100
AcDbEntity
8
1
100
AcDbVertex
100
AcDb2dVertex
62
5
10
192.500000
20
326.812500
0
VERTEX
5
136
100
AcDbEntity
8
1
100
AcDbVertex
100
AcDb2dVertex
62
5
10
192.500000
20
323.687500
0
VERTEX
5
137
100
AcDbEntity
8
1
100
AcDbVertex
100
AcDb2dVertex
62
5
10
187.250000
20
323.687500
0
SEQEND
5
138
100
AcDbEntity
8
1
0
LINE
5
139
100
AcDbEntity
8
1
100
AcDbLine
6
CONTINUOUS
62
5
10
186.500000
20
325.250000
11
193.500000
21
325.250000
0
LINE
5
13a
100
AcDbEntity
8
1
100
AcDbLine
6
CONTINUOUS
62
5
10
188.250000
20
329.625000
11
189.250000
21
328.375000
0
LINE
5
13b
100
AcDbEntity
8
1
100
AcDbLine
6
CONTINUOUS
62
5
10
191.500000
20
329.625000
11
190.750000
21
328.375000
0
LINE
5
13c
100
AcDbEntity
8
1
100
AcDbLine
6
CONTINUOUS
62
5
10
189.250000
20
328.375000
11
189.250000
21
320.562500
0
LINE
5
13d
100
AcDbEntity
8
1
100
AcDbLine
6
CONTINUOUS
62
5
10
190.750000
20
328.375000
11
190.750000
21
320.562500
0
POLYLINE
5
13e
100
AcDbEntity
8
1
6
CONTINUOUS
62
5
100
AcDb2dPolyline
66
1
10
0.0
20
0.0
30
0.0
70
0
0
VERTEX
5
13f
100
AcDbEntity
8
1
100
AcDbVertex
100
AcDb2dVertex
62
5
10
189.250000
20
323.687500
0
VERTEX
5
140
100
AcDbEntity
8
1
100
AcDbVertex
100
AcDb2dVertex
62
5
10
188.000000
20
322.125000
0
VERTEX
5
141
100
AcDbEntity
8
1
100
AcDbVertex
100
AcDb2dVertex
62
5
10
186.750000
20
321.187500
0
SEQEND
5
142
100
AcDbEntity
8
1
0
POLYLINE
5
143
100
AcDbEntity
8
1
6
CONTINUOUS
62
5
100
AcDb2dPolyline
66
1
10
0.0
20
0.0
30
0.0
70
0
0
VERTEX
5
144
100
AcDbEntity
8
1
100
AcDbVertex
100
AcDb2dVertex
62
5
10
190.750000
20
323.687500
0
VERTEX
5
145
100
AcDbEntity
8
1
100
AcDbVertex
100
AcDb2dVertex
62
5
10
192.000000
20
321.812500
0
VERTEX
5
146
100
AcDbEntity
8
1
100
AcDbVertex
100
AcDb2dVertex
62
5
10
193.500000
20
321.187500
0
SEQEND
5
147
100
AcDbEntity
8
1
0
POLYLINE
5
148
100
AcDbEntity
8
1
6
CONTINUOUS
62
5
100
AcDb2dPolyline
66
1
10
0.0
20
0.0
30
0.0
70
0
0
VERTEX
5
149
100
AcDbEntity
8
1
100
AcDbVertex
100
AcDb2dVertex
62
5
10
189.250000
20
319.625000
0
VERTEX
5
14a
100
AcDbEntity
8
1
100
AcDbVertex
100
AcDb2dVertex
62
5
10
188.500000
20
318.375000
0
VERTEX
5
14b
100
AcDbEntity
8
1
100
AcDbVertex
100
AcDb2dVertex
62
5
10
187.750000
20
317.437500
0
VERTEX
5
14c
100
AcDbEntity
8
1
100
AcDbVertex
100
AcDb2dVertex
62
5
10
186.750000
20
316.500000
0
SEQEND
5
14d
100
AcDbEntity
8
1
0
POLYLINE
5
14e
100
AcDbEntity
8
1
6
CONTINUOUS
62
5
100
AcDb2dPolyline
66
1
10
0.0
20
0.0
30
0.0
70
0
0
VERTEX
5
14f
100
AcDbEntity
8
1
100
AcDbVertex
100
AcDb2dVertex
62
5
10
189.000000
20
319.000000
0
VERTEX
5
150
100
AcDbEntity
8
1
100
AcDbVertex
100
AcDb2dVertex
62
5
10
191.250000
20
319.000000
0
VERTEX
5
151
100
AcDbEntity
8
1
100
AcDbVertex
100
AcDb2dVertex
62
5
10
190.000000
20
317.125000
0
SEQEND
5
152
100
AcDbEntity
8
1
0
POLYLINE
5
153
100
AcDbEntity
8
1
6
CONTINUOUS
62
5
100
AcDb2dPolyline
66
1
10
0.0
20
0.0
30
0.0
70
0
0
VERTEX
5
154
100
AcDbEntity
8
1
100
AcDbVertex
100
AcDb2dVertex
62
5
10
187.750000
20
317.125000
0
VERTEX
5
155
100
AcDbEntity
8
1
100
AcDbVertex
100
AcDb2dVertex
62
5
10
192.250000
20
317.125000
0
VERTEX
5
156
100
AcDbEntity
8
1
100
AcDbVertex
100
AcDb2dVertex
62
5
10
192.250000
20
314.312500
0
VERTEX
5
157
100
AcDbEntity
8
1
100
AcDbVertex
100
AcDb2dVertex
62
5
10
187.750000
20
314.312500
0
SEQEND
5
158
100
AcDbEntity
8
1
0
LINE
5
159
100
AcDbEntity
8
1
100
AcDbLine
6
CONTINUOUS
62
5
10
190.000000
20
317.125000
11
190.000000
21
314.312500
0
POLYLINE
5
15a
100
AcDbEntity
8
1
6
CONTINUOUS
62
5
100
AcDb2dPolyline
66
1
10
0.0
20
0.0
30
0.0
70
0
0
VERTEX
5
15b
100
AcDbEntity
8
1
100
AcDbVertex
100
AcDb2dVertex
62
5
10
187.750000
20
317.125000
0
VERTEX
5
15c
100
AcDbEntity
8
1
100
AcDbVertex
100
AcDb2dVertex
62
5
10
187.750000
20
311.812500
0
VERTEX
5
15d
100
AcDbEntity
8
1
100
AcDbVertex
100
AcDb2dVertex
62
5
10
188.250000
20
311.187500
0
VERTEX
5
15e
100
AcDbEntity
8
1
100
AcDbVertex
100
AcDb2dVertex
62
5
10
193.250000
20
311.187500
0
VERTEX
5
15f
100
AcDbEntity
8
1
100
AcDbVertex
100
AcDb2dVertex
62
5
10
193.250000
20
312.437500
0
SEQEND
5
160
100
AcDbEntity
8
1
0
LINE
5
161
100
AcDbEntity
8
1
100
AcDbLine
6
CONTINUOUS
62
5
10
227.750000
20
327.437500
11
228.750000
21
326.187500
0
POLYLINE
5
162
100
AcDbEntity
8
1
6
CONTINUOUS
62
5
100
AcDb2dPolyline
66
1
10
0.0
20
0.0
30
0.0
70
0
0
VERTEX
5
163
100
AcDbEntity
8
1
100
AcDbVertex
100
AcDb2dVertex
62
5
10
227.500000
20
322.437500
0
VERTEX
5
164
100
AcDbEntity
8
1
100
AcDbVertex
100
AcDb2dVertex
62
5
10
229.250000
20
323.375000
0
VERTEX
5
165
100
AcDbEntity
8
1
100
AcDbVertex
100
AcDb2dVertex
62
5
10
230.750000
20
324.625000
0
VERTEX
5
166
100
AcDbEntity
8
1
100
AcDbVertex
100
AcDb2dVertex
62
5
10
232.250000
20
326.187500
0
SEQEND
5
167
100
AcDbEntity
8
1
0
LINE
5
168
100
AcDbEntity
8
1
100
AcDbLine
6
DOT2
62
5
10
245.725000
20
211.225000
11
245.100000
21
210.600000
0
POLYLINE
5
169
100
AcDbEntity
8
1
6
DOT2
62
5
100
AcDb2dPolyline
66
1
10
0.0
20
0.0
30
0.0
70
0
0
VERTEX
5
16a
100
AcDbEntity
8
1
100
AcDbVertex
100
AcDb2dVertex
62
5
10
245.100000
20
211.225000
0
VERTEX
5
16b
100
AcDbEntity
8
1
100
AcDbVertex
100
AcDb2dVertex
62
5
10
245.725000
20
210.600000
0
VERTEX
5
16c
100
AcDbEntity
8
1
100
AcDbVertex
100
AcDb2dVertex
62
5
10
245.100000
20
210.600000
0
VERTEX
5
16d
100
AcDbEntity
8
1
100
AcDbVertex
100
AcDb2dVertex
62
5
10
245.100000
20
211.225000
0
VERTEX
5
16e
100
AcDbEntity
8
1
100
AcDbVertex
100
AcDb2dVertex
62
5
10
245.725000
20
211.225000
0
VERTEX
5
16f
100
AcDbEntity
8
1
100
AcDbVertex
100
AcDb2dVertex
62
5
10
245.725000
20
210.600000
0
SEQEND
5
170
100
AcDbEntity
8
1
0
POLYLINE
5
171
100
AcDbEntity
8
1
6
DOT2
62
5
100
AcDb2dPolyline
66
1
10
0.0
20
0.0
30
0.0
70
0
0
VERTEX
5
172
100
AcDbEntity
8
1
100
AcDbVertex
100
AcDb2dVertex
62
5
10
235.100000
20
215.912500
0
VERTEX
5
173
100
AcDbEntity
8
1
100
AcDbVertex
100
AcDb2dVertex
62
5
10
235.412500
20
217.475000
0
VERTEX
5
174
100
AcDbEntity
8
1
100
AcDbVertex
100
AcDb2dVertex
62
5
10
236.350000
20
218.100000
0
VERTEX
5
175
100
AcDbEntity
8
1
100
AcDbVertex
100
AcDb2dVertex
62
5
10
237.287500
20
218.100000
0
VERTEX
5
176
100
AcDbEntity
8
1
100
AcDbVertex
100
AcDb2dVertex
62
5
10
237.912500
20
217.787500
0
VERTEX
5
177
100
AcDbEntity
8
1
100
AcDbVertex
100
AcDb2dVertex
62
5
10
238.225000
20
216.850000
0
VERTEX
5
178
100
AcDbEntity
8
1
100
AcDbVertex
100
AcDb2dVertex
62
5
10
238.225000
20
215.912500
0
VERTEX
5
179
100
AcDbEntity
8
1
100
AcDbVertex
100
AcDb2dVertex
62
5
10
237.912500
20
214.975000
0
VERTEX
5
17a
100
AcDbEntity
8
1
100
AcDbVertex
100
AcDb2dVertex
62
5
10
235.100000
20
210.600000
0
VERTEX
5
17b
100
AcDbEntity
8
1
100
AcDbVertex
100
AcDb2dVertex
62
5
10
238.225000
20
210.600000
0
VERTEX
5
17c
100
AcDbEntity
8
1
100
AcDbVertex
100
AcDb2dVertex
62
5
10
238.225000
20
211.537500
0
SEQEND
5
17d
100
AcDbEntity
8
1
0
POLYLINE
5
17e
100
AcDbEntity
8
1
6
DOT2
62
5
100
AcDb2dPolyline
66
1
10
0.0
20
0.0
30
0.0
70
1
0
VERTEX
5
17f
100
AcDbEntity
8
1
100
AcDbVertex
100
AcDb2dVertex
62
5
10
241.350000
20
218.100000
0
VERTEX
5
180
100
AcDbEntity
8
1
100
AcDbVertex
100
AcDb2dVertex
62
5
10
241.975000
20
218.100000
0
VERTEX
5
181
100
AcDbEntity
8
1
100
AcDbVertex
100
AcDb2dVertex
62
5
10
242.287500
20
217.787500
0
VERTEX
5
182
100
AcDbEntity
8
1
100
AcDbVertex
100
AcDb2dVertex
62
5
10
242.912500
20
216.537500
0
VERTEX
5
183
100
AcDbEntity
8
1
100
AcDbVertex
100
AcDb2dVertex
62
5
10
243.225000
20
215.287500
0
VERTEX
5
184
100
AcDbEntity
8
1
100
AcDbVertex
100
AcDb2dVertex
62
5
10
243.225000
20
213.412500
0
VERTEX
5
185
100
AcDbEntity
8
1
100
AcDbVertex
100
AcDb2dVertex
62
5
10
242.912500
20
212.162500
0
VERTEX
5
186
100
AcDbEntity
8
1
100
AcDbVertex
100
AcDb2dVertex
62
5
10
242.287500
20
210.912500
0
VERTEX
5
187
100
AcDbEntity
8
1
100
AcDbVertex
100
AcDb2dVertex
62
5
10
241.975000
20
210.600000
0
VERTEX
5
188
100
AcDbEntity
8
1
100
AcDbVertex
100
AcDb2dVertex
62
5
10
241.350000
20
210.600000
0
VERTEX
5
189
100
AcDbEntity
8
1
100
AcDbVertex
100
AcDb2dVertex
62
5
10
241.037500
20
210.912500
0
VERTEX
5
18a
100
AcDbEntity
8
1
100
AcDbVertex
100
AcDb2dVertex
62
5
10
240.412500
20
212.162500
0
VERTEX
5
18b
100
AcDbEntity
8
1
100
AcDbVertex
100
AcDb2dVertex
62
5
10
240.100000
20
213.412500
0
VERTEX
5
18c
100
AcDbEntity
8
1
100
AcDbVertex
100
AcDb2dVertex
62
5
10
240.100000
20
215.287500
0
VERTEX
5
18d
100
AcDbEntity
8
1
100
AcDbVertex
100
AcDb2dVertex
62
5
10
240.412500
20
216.537500
0
VERTEX
5
18e
100
AcDbEntity
8
1
100
AcDbVertex
100
AcDb2dVertex
62
5
10
241.037500
20
217.787500
0
VERTEX
5
18f
100
AcDbEntity
8
1
100
AcDbVertex
100
AcDb2dVertex
62
5
10
241.350000
20
218.100000
0
SEQEND
5
190
100
AcDbEntity
8
1
0
POLYLINE
5
191
100
AcDbEntity
8
1
6
DOT2
62
5
100
AcDb2dPolyline
66
1
10
0.0
20
0.0
30
0.0
70
0
0
VERTEX
5
192
100
AcDbEntity
8
1
100
AcDbVertex
100
AcDb2dVertex
62
5
10
252.600000
20
218.100000
0
VERTEX
5
193
100
AcDbEntity
8
1
100
AcDbVertex
100
AcDb2dVertex
62
5
10
251.662500
20
218.100000
0
VERTEX
5
194
100
AcDbEntity
8
1
100
AcDbVertex
100
AcDb2dVertex
62
5
10
250.725000
20
217.787500
0
VERTEX
5
195
100
AcDbEntity
8
1
100
AcDbVertex
100
AcDb2dVertex
62
5
10
250.100000
20
216.537500
0
VERTEX
5
196
100
AcDbEntity
8
1
100
AcDbVertex
100
AcDb2dVertex
62
5
10
250.100000
20
212.162500
0
VERTEX
5
197
100
AcDbEntity
8
1
100
AcDbVertex
100
AcDb2dVertex
62
5
10
250.412500
20
211.225000
0
VERTEX
5
198
100
AcDbEntity
8
1
100
AcDbVertex
100
AcDb2dVertex
62
5
10
250.725000
20
210.912500
0
VERTEX
5
199
100
AcDbEntity
8
1
100
AcDbVertex
100
AcDb2dVertex
62
5
10
251.350000
20
210.600000
0
VERTEX
5
19a
100
AcDbEntity
8
1
100
AcDbVertex
100
AcDb2dVertex
62
5
10
251.975000
20
210.600000
0
VERTEX
5
19b
100
AcDbEntity
8
1
100
AcDbVertex
100
AcDb2dVertex
62
5
10
252.600000
20
210.912500
0
VERTEX
5
19c
100
AcDbEntity
8
1
100
AcDbVertex
100
AcDb2dVertex
62
5
10
252.912500
20
211.225000
0
VERTEX
5
19d
100
AcDbEntity
8
1
100
AcDbVertex
100
AcDb2dVertex
62
5
10
253.225000
20
212.162500
0
VERTEX
5
19e
100
AcDbEntity
8
1
100
AcDbVertex
100
AcDb2dVertex
62
5
10
253.225000
20
214.037500
0
VERTEX
5
19f
100
AcDbEntity
8
1
100
AcDbVertex
100
AcDb2dVertex
62
5
10
252.912500
20
214.662500
0
VERTEX
5
1a0
100
AcDbEntity
8
1
100
AcDbVertex
100
AcDb2dVertex
62
5
10
252.287500
20
214.975000
0
VERTEX
5
1a1
100
AcDbEntity
8
1
100
AcDbVertex
100
AcDb2dVertex
62
5
10
251.037500
20
214.975000
0
VERTEX
5
1a2
100
AcDbEntity
8
1
100
AcDbVertex
100
AcDb2dVertex
62
5
10
250.100000
20
214.662500
0
SEQEND
5
1a3
100
AcDbEntity
8
1
0
LINE
5
1a4
100
AcDbEntity
8
1
100
AcDbLine
6
DOT2
62
5
10
177.225000
20
211.225000
11
176.600000
21
210.600000
0
POLYLINE
5
1a5
100
AcDbEntity
8
1
6
DOT2
62
5
100
AcDb2dPolyline
66
1
10
0.0
20
0.0
30
0.0
70
0
0
VERTEX
5
1a6
100
AcDbEntity
8
1
100
AcDbVertex
100
AcDb2dVertex
62
5
10
176.600000
20
211.225000
0
VERTEX
5
1a7
100
AcDbEntity
8
1
100
AcDbVertex
100
AcDb2dVertex
62
5
10
177.225000
20
210.600000
0
VERTEX
5
1a8
100
AcDbEntity
8
1
100
AcDbVertex
100
AcDb2dVertex
62
5
10
176.600000
20
210.600000
0
VERTEX
5
1a9
100
AcDbEntity
8
1
100
AcDbVertex
100
AcDb2dVertex
62
5
10
176.600000
20
211.225000
0
VERTEX
5
1aa
100
AcDbEntity
8
1
100
AcDbVertex
100
AcDb2dVertex
62
5
10
177.225000
20
211.225000
0
VERTEX
5
1ab
100
AcDbEntity
8
1
100
AcDbVertex
100
AcDb2dVertex
62
5
10
177.225000
20
210.600000
0
SEQEND
5
1ac
100
AcDbEntity
8
1
0
POLYLINE
5
1ad
100
AcDbEntity
8
1
6
DOT2
62
5
100
AcDb2dPolyline
66
1
10
0.0
20
0.0
30
0.0
70
0
0
VERTEX
5
1ae
100
AcDbEntity
8
1
100
AcDbVertex
100
AcDb2dVertex
62
5
10
171.600000
20
217.162500
0
VERTEX
5
1af
100
AcDbEntity
8
1
100
AcDbVertex
100
AcDb2dVertex
62
5
10
171.600000
20
218.100000
0
VERTEX
5
1b0
100
AcDbEntity
8
1
100
AcDbVertex
100
AcDb2dVertex
62
5
10
174.725000
20
218.100000
0
VERTEX
5
1b1
100
AcDbEntity
8
1
100
AcDbVertex
100
AcDb2dVertex
62
5
10
174.725000
20
217.475000
0
VERTEX
5
1b2
100
AcDbEntity
8
1
100
AcDbVertex
100
AcDb2dVertex
62
5
10
174.100000
20
215.912500
0
VERTEX
5
1b3
100
AcDbEntity
8
1
100
AcDbVertex
100
AcDb2dVertex
62
5
10
173.475000
20
213.725000
0
VERTEX
5
1b4
100
AcDbEntity
8
1
100
AcDbVertex
100
AcDb2dVertex
62
5
10
172.850000
20
210.600000
0
SEQEND
5
1b5
100
AcDbEntity
8
1
0
POLYLINE
5
1b6
100
AcDbEntity
8
1
6
DOT2
62
5
100
AcDb2dPolyline
66
1
10
0.0
20
0.0
30
0.0
70
0
0
VERTEX
5
1b7
100
AcDbEntity
8
1
100
AcDbVertex
100
AcDb2dVertex
62
5
10
184.725000
20
214.037500
0
VERTEX
5
1b8
100
AcDbEntity
8
1
100
AcDbVertex
100
AcDb2dVertex
62
5
10
184.725000
20
214.037500
0
VERTEX
5
1b9
100
AcDbEntity
8
1
100
AcDbVertex
100
AcDb2dVertex
62
5
10
183.475000
20
213.725000
0
VERTEX
5
1ba
100
AcDbEntity
8
1
100
AcDbVertex
100
AcDb2dVertex
62
5
10
182.537500
20
213.725000
0
VERTEX
5
1bb
100
AcDbEntity
8
1
100
AcDbVertex
100
AcDb2dVertex
62
5
10
181.912500
20
214.037500
0
VERTEX
5
1bc
100
AcDbEntity
8
1
100
AcDbVertex
100
AcDb2dVertex
62
5
10
181.600000
20
214.975000
0
VERTEX
5
1bd
100
AcDbEntity
8
1
100
AcDbVertex
100
AcDb2dVertex
62
5
10
181.600000
20
216.537500
0
VERTEX
5
1be
100
AcDbEntity
8
1
100
AcDbVertex
100
AcDb2dVertex
62
5
10
181.912500
20
217.475000
0
VERTEX
5
1bf
100
AcDbEntity
8
1
100
AcDbVertex
100
AcDb2dVertex
62
5
10
182.225000
20
217.787500
0
VERTEX
5
1c0
100
AcDbEntity
8
1
100
AcDbVertex
100
AcDb2dVertex
62
5
10
182.850000
20
218.100000
0
VERTEX
5
1c1
100
AcDbEntity
8
1
100
AcDbVertex
100
AcDb2dVertex
62
5
10
183.475000
20
218.100000
0
VERTEX
5
1c2
100
AcDbEntity
8
1
100
AcDbVertex
100
AcDb2dVertex
62
5
10
184.100000
20
217.787500
0
VERTEX
5
1c3
100
AcDbEntity
8
1
100
AcDbVertex
100
AcDb2dVertex
62
5
10
184.412500
20
217.475000
0
VERTEX
5
1c4
100
AcDbEntity
8
1
100
AcDbVertex
100
AcDb2dVertex
62
5
10
184.725000
20
216.537500
0
VERTEX
5
1c5
100
AcDbEntity
8
1
100
AcDbVertex
100
AcDb2dVertex
62
5
10
184.725000
20
213.100000
0
VERTEX
5
1c6
100
AcDbEntity
8
1
100
AcDbVertex
100
AcDb2dVertex
62
5
10
184.412500
20
211.537500
0
VERTEX
5
1c7
100
AcDbEntity
8
1
100
AcDbVertex
100
AcDb2dVertex
62
5
10
183.787500
20
210.912500
0
VERTEX
5
1c8
100
AcDbEntity
8
1
100
AcDbVertex
100
AcDb2dVertex
62
5
10
182.850000
20
210.600000
0
VERTEX
5
1c9
100
AcDbEntity
8
1
100
AcDbVertex
100
AcDb2dVertex
62
5
10
182.225000
20
210.600000
0
SEQEND
5
1ca
100
AcDbEntity
8
1
0
ARC
5
1cb
100
AcDbEntity
8
1
100
AcDbCircle
6
CONTINUOUS
62
5
10
212.550000
20
182.874772
40
0.500000
100
AcDbArc
50
-85.083305
51
-0.000000
0
LINE
5
1cc
100
AcDbEntity
8
1
100
AcDbLine
6
CONTINUOUS
62
5
10
213.050000
20
182.874772
11
213.050000
21
183.423028
0
ARC
5
1cd
100
AcDbEntity
8
1
100
AcDbCircle
6
CONTINUOUS
62
5
10
212.550000
20
183.423028
40
0.500000
100
AcDbArc
50
0.000000
51
89.198712
0
LINE
5
1ce
100
AcDbEntity
8
1
100
AcDbLine
6
CONTINUOUS
62
5
10
211.050000
20
182.243890
11
212.592854
21
182.376612
0
ARC
5
1cf
100
AcDbEntity
8
1
100
AcDbCircle
6
CONTINUOUS
62
5
10
219.350000
20
168.500000
40
2.000000
100
AcDbArc
50
0.000000
51
89.999999
0
LINE
5
1d0
100
AcDbEntity
8
1
100
AcDbLine
6
CONTINUOUS
62
5
10
219.350000
20
170.500000
11
217.732357
21
170.500000
0
ARC
5
1d1
100
AcDbEntity
8
1
100
AcDbCircle
6
CONTINUOUS
62
5
10
217.550000
20
170.034440
40
0.500000
100
AcDbArc
50
0.000000
51
85.914382
0
LINE
5
1d2
100
AcDbEntity
8
1
100
AcDbLine
6
CONTINUOUS
62
5
10
218.050000
20
170.034440
11
218.050000
21
168.967707
0
ARC
5
1d3
100
AcDbEntity
8
1
100
AcDbCircle
6
CONTINUOUS
62
5
10
217.550000
20
168.967707
40
0.500000
100
AcDbArc
50
-86.177445
51
0.000000
0
LINE
5
1d4
100
AcDbEntity
8
1
100
AcDbLine
6
CONTINUOUS
62
5
10
217.583333
20
168.468820
11
210.583333
21
168.001112
0
LINE
5
1d5
100
AcDbEntity
8
1
100
AcDbLine
6
CONTINUOUS
62
5
10
211.050000
20
171.000000
11
217.585624
21
170.533170
0
LINE
5
1d6
100
AcDbEntity
8
1
100
AcDbLine
6
CONTINUOUS
62
5
10
204.050000
20
178.400000
11
203.250000
21
178.400000
0
LINE
5
1d7
100
AcDbEntity
8
1
100
AcDbLine
6
CONTINUOUS
62
5
10
204.050000
20
164.800000
11
203.250000
21
164.800000
0
LINE
5
1d8
100
AcDbEntity
8
1
100
AcDbLine
6
CONTINUOUS
62
5
10
204.050000
20
167.700000
11
203.250000
21
167.700000
0
LINE
5
1d9
100
AcDbEntity
8
1
100
AcDbLine
6
CONTINUOUS
62
5
10
203.250000
20
169.500000
11
201.554196
21
169.500000
0
ARC
5
1da
100
AcDbEntity
8
1
100
AcDbCircle
6
CONTINUOUS
62
5
10
200.550000
20
167.000000
40
0.500000
100
AcDbArc
50
179.999998
51
-126.869897
0
LINE
5
1db
100
AcDbEntity
8
1
100
AcDbLine
6
CONTINUOUS
62
5
10
200.050000
20
167.200000
11
200.050000
21
167.000000
0
ARC
5
1dc
100
AcDbEntity
8
1
100
AcDbCircle
6
CONTINUOUS
62
5
10
201.050000
20
172.600000
40
1.000000
100
AcDbArc
50
89.999999
51
179.999998
0
POLYLINE
5
1dd
100
AcDbEntity
8
1
6
CONTINUOUS
62
5
100
AcDb2dPolyline
66
1
10
0.0
20
0.0
30
0.0
70
0
0
VERTEX
5
1de
100
AcDbEntity
8
1
100
AcDbVertex
100
AcDb2dVertex
62
5
10
201.050000
20
173.600000
0
VERTEX
5
1df
100
AcDbEntity
8
1
100
AcDbVertex
100
AcDb2dVertex
62
5
10
201.550000
20
173.600000
0
VERTEX
5
1e0
100
AcDbEntity
8
1
100
AcDbVertex
100
AcDb2dVertex
62
5
10
201.550000
20
169.550000
0
SEQEND
5
1e1
100
AcDbEntity
8
1
0
ARC
5
1e2
100
AcDbEntity
8
1
100
AcDbCircle
6
CONTINUOUS
62
5
10
201.850000
20
169.550000
40
0.300000
100
AcDbArc
50
179.999998
51
-89.999999
0
LINE
5
1e3
100
AcDbEntity
8
1
100
AcDbLine
6
CONTINUOUS
62
5
10
201.850000
20
169.250000
11
203.250000
21
169.250000
0
LINE
5
1e4
100
AcDbEntity
8
1
100
AcDbLine
6
CONTINUOUS
62
5
10
203.250000
20
166.200000
11
201.050000
21
166.200000
0
ARC
5
1e5
100
AcDbEntity
8
1
100
AcDbCircle
6
CONTINUOUS
62
5
10
201.050000
20
167.200000
40
1.000000
100
AcDbArc
50
179.999998
51
-89.999999
0
LINE
5
1e6
100
AcDbEntity
8
1
100
AcDbLine
6
CONTINUOUS
62
5
10
200.050000
20
167.200000
11
200.050000
21
172.600000
0
ARC
5
1e7
100
AcDbEntity
8
1
100
AcDbCircle
6
CONTINUOUS
62
5
10
211.007056
20
173.936106
40
0.400000
100
AcDbArc
50
-146.489540
51
23.404340
0
LINE
5
1e8
100
AcDbEntity
8
1
100
AcDbLine
6
CONTINUOUS
62
5
10
211.374146
20
174.094993
11
210.990284
21
174.981861
0
ARC
5
1e9
100
AcDbEntity
8
1
100
AcDbCircle
6
CONTINUOUS
62
5
10
209.597658
20
174.602094
40
1.443478
100
AcDbArc
50
15.253566
51
54.818726
0
LINE
5
1ea
100
AcDbEntity
8
1
100
AcDbLine
6
CONTINUOUS
62
5
10
210.429340
20
175.781897
11
210.050000
21
175.977114
0
ARC
5
1eb
100
AcDbEntity
8
1
100
AcDbCircle
6
CONTINUOUS
62
5
10
210.550000
20
168.500000
40
0.500000
100
AcDbArc
50
-89.999999
51
-0.000000
0
POLYLINE
5
1ec
100
AcDbEntity
8
1
6
CONTINUOUS
62
5
100
AcDb2dPolyline
66
1
10
0.0
20
0.0
30
0.0
70
0
0
VERTEX
5
1ed
100
AcDbEntity
8
1
100
AcDbVertex
100
AcDb2dVertex
62
5
10
211.050000
20
168.500000
0
VERTEX
5
1ee
100
AcDbEntity
8
1
100
AcDbVertex
100
AcDb2dVertex
62
5
10
211.050000
20
173.000000
0
VERTEX
5
1ef
100
AcDbEntity
8
1
100
AcDbVertex
100
AcDb2dVertex
62
5
10
210.190593
20
174.632873
0
SEQEND
5
1f0
100
AcDbEntity
8
1
0
ARC
5
1f1
100
AcDbEntity
8
1
100
AcDbCircle
6
CONTINUOUS
62
5
10
209.748134
20
174.400000
40
0.500000
100
AcDbArc
50
27.758540
51
52.862337
0
LINE
5
1f2
100
AcDbEntity
8
1
100
AcDbLine
6
CONTINUOUS
62
5
10
209.050000
20
168.000000
11
210.550000
21
168.000000
0
ARC
5
1f3
100
AcDbEntity
8
1
100
AcDbCircle
6
CONTINUOUS
62
5
10
210.049521
20
180.216406
40
0.860617
100
AcDbArc
50
-61.566062
51
-23.469159
0
LINE
5
1f4
100
AcDbEntity
8
1
100
AcDbLine
6
CONTINUOUS
62
5
10
210.838943
20
179.873661
11
211.396483
21
181.120803
0
ARC
5
1f5
100
AcDbEntity
8
1
100
AcDbCircle
6
CONTINUOUS
62
5
10
211.031313
20
181.284054
40
0.400000
100
AcDbArc
50
-24.087210
51
-0.000000
0
ARC
5
1f6
100
AcDbEntity
8
1
100
AcDbCircle
6
CONTINUOUS
62
5
10
211.031313
20
181.284054
40
0.400000
100
AcDbArc
50
-0.000000
51
141.405935
0
LINE
5
1f7
100
AcDbEntity
8
1
100
AcDbLine
6
CONTINUOUS
62
5
10
210.050000
20
179.254597
11
210.459300
21
179.459608
0
LINE
5
1f8
100
AcDbEntity
8
1
100
AcDbLine
6
CONTINUOUS
62
5
10
204.050000
20
181.200000
11
203.250000
21
181.200000
0
ARC
5
1f9
100
AcDbEntity
8
1
100
AcDbCircle
6
CONTINUOUS
62
5
10
222.850000
20
171.523195
40
1.000000
100
AcDbArc
50
-85.426078
51
0.000000
0
LINE
5
1fa
100
AcDbEntity
8
1
100
AcDbLine
6
CONTINUOUS
62
5
10
223.850000
20
171.523195
11
223.850000
21
182.649889
0
ARC
5
1fb
100
AcDbEntity
8
1
100
AcDbCircle
6
CONTINUOUS
62
5
10
222.850000
20
182.649889
40
1.000000
100
AcDbArc
50
0.000000
51
87.069065
0
LINE
5
1fc
100
AcDbEntity
8
1
100
AcDbLine
6
CONTINUOUS
62
5
10
222.901132
20
183.648581
11
219.452264
21
183.825160
0
LINE
5
1fd
100
AcDbEntity
8
1
100
AcDbLine
6
CONTINUOUS
62
5
10
221.350000
20
170.400000
11
222.929745
21
170.526380
0
ARC
5
1fe
100
AcDbEntity
8
1
100
AcDbCircle
6
CONTINUOUS
62
5
10
209.050000
20
169.000000
40
1.000000
100
AcDbArc
50
-89.999999
51
-0.000000
0
LINE
5
1ff
100
AcDbEntity
8
1
100
AcDbLine
6
CONTINUOUS
62
5
10
210.050000
20
169.000000
11
210.050000
21
180.214565
0
ARC
5
200
100
AcDbEntity
8
1
100
AcDbCircle
6
CONTINUOUS
62
5
10
209.731504
20
180.600000
40
0.500000
100
AcDbArc
50
-50.432059
51
-25.006318
0
POLYLINE
5
201
100
AcDbEntity
8
1
6
CONTINUOUS
62
5
100
AcDb2dPolyline
66
1
10
0.0
20
0.0
30
0.0
70
0
0
VERTEX
5
202
100
AcDbEntity
8
1
100
AcDbVertex
100
AcDb2dVertex
62
5
10
210.184634
20
180.388641
0
VERTEX
5
203
100
AcDbEntity
8
1
100
AcDbVertex
100
AcDb2dVertex
62
5
10
211.050000
20
182.243890
0
VERTEX
5
204
100
AcDbEntity
8
1
100
AcDbVertex
100
AcDb2dVertex
62
5
10
211.050000
20
183.451000
0
SEQEND
5
205
100
AcDbEntity
8
1
0
ARC
5
206
100
AcDbEntity
8
1
100
AcDbCircle
6
CONTINUOUS
62
5
10
210.550000
20
183.451000
40
0.500000
100
AcDbArc
50
0.000000
51
89.198712
0
LINE
5
207
100
AcDbEntity
8
1
100
AcDbLine
6
CONTINUOUS
62
5
10
207.050000
20
168.000000
11
209.050000
21
168.000000
0
ARC
5
208
100
AcDbEntity
8
1
100
AcDbCircle
6
CONTINUOUS
62
5
10
204.550000
20
168.500000
40
0.500000
100
AcDbArc
50
179.999998
51
-89.999999
0
LINE
5
209
100
AcDbEntity
8
1
100
AcDbLine
6
CONTINUOUS
62
5
10
204.550000
20
168.000000
11
207.050000
21
168.000000
0
LINE
5
20a
100
AcDbEntity
8
1
100
AcDbLine
6
CONTINUOUS
62
5
10
207.050000
20
184.000000
11
204.550000
21
184.000000
0
ARC
5
20b
100
AcDbEntity
8
1
100
AcDbCircle
6
CONTINUOUS
62
5
10
204.550000
20
183.500000
40
0.500000
100
AcDbArc
50
89.999999
51
179.999998
0
LINE
5
20c
100
AcDbEntity
8
1
100
AcDbLine
6
CONTINUOUS
62
5
10
204.050000
20
183.500000
11
204.050000
21
168.500000
0
LINE
5
20d
100
AcDbEntity
8
1
100
AcDbLine
6
CONTINUOUS
62
5
10
195.350000
20
184.850000
11
195.350000
21
211.350000
0
POLYLINE
5
20e
100
AcDbEntity
8
1
6
CONTINUOUS
62
5
100
AcDb2dPolyline
66
1
10
0.0
20
0.0
30
0.0
70
0
0
VERTEX
5
20f
100
AcDbEntity
8
1
100
AcDbVertex
100
AcDb2dVertex
62
5
10
169.100000
20
209.350000
0
VERTEX
5
210
100
AcDbEntity
8
1
100
AcDbVertex
100
AcDb2dVertex
62
5
10
195.350000
20
209.350000
0
VERTEX
5
211
100
AcDbEntity
8
1
100
AcDbVertex
100
AcDb2dVertex
62
5
10
189.350000
20
208.350000
0
VERTEX
5
212
100
AcDbEntity
8
1
100
AcDbVertex
100
AcDb2dVertex
62
5
10
189.350000
20
210.350000
0
VERTEX
5
213
100
AcDbEntity
8
1
100
AcDbVertex
100
AcDb2dVertex
62
5
10
195.350000
20
209.350000
0
VERTEX
5
214
100
AcDbEntity
8
1
100
AcDbVertex
100
AcDb2dVertex
62
5
10
189.350000
20
208.850000
0
VERTEX
5
215
100
AcDbEntity
8
1
100
AcDbVertex
100
AcDb2dVertex
62
5
10
189.350000
20
209.850000
0
VERTEX
5
216
100
AcDbEntity
8
1
100
AcDbVertex
100
AcDb2dVertex
62
5
10
195.350000
20
209.350000
0
SEQEND
5
217
100
AcDbEntity
8
1
0
LINE
5
218
100
AcDbEntity
8
1
100
AcDbLine
6
CONTINUOUS
62
5
10
195.350000
20
209.350000
11
203.250000
21
209.350000
0
LINE
5
219
100
AcDbEntity
8
1
100
AcDbLine
6
CONTINUOUS
62
5
10
206.250000
20
209.350000
11
203.250000
21
209.350000
0
LINE
5
21a
100
AcDbEntity
8
1
100
AcDbLine
6
CONTINUOUS
62
5
10
223.850000
20
184.149889
11
223.850000
21
211.350000
0
LINE
5
21b
100
AcDbEntity
8
1
100
AcDbLine
6
CONTINUOUS
62
5
10
203.250000
20
184.750000
11
203.250000
21
211.350000
0
POLYLINE
5
21c
100
AcDbEntity
8
1
6
CONTINUOUS
62
5
100
AcDb2dPolyline
66
1
10
0.0
20
0.0
30
0.0
70
0
0
VERTEX
5
21d
100
AcDbEntity
8
1
100
AcDbVertex
100
AcDb2dVertex
62
5
10
255.100000
20
209.350000
0
VERTEX
5
21e
100
AcDbEntity
8
1
100
AcDbVertex
100
AcDb2dVertex
62
5
10
223.850000
20
209.350000
0
VERTEX
5
21f
100
AcDbEntity
8
1
100
AcDbVertex
100
AcDb2dVertex
62
5
10
229.850000
20
210.350000
0
VERTEX
5
220
100
AcDbEntity
8
1
100
AcDbVertex
100
AcDb2dVertex
62
5
10
229.850000
20
208.350000
0
VERTEX
5
221
100
AcDbEntity
8
1
100
AcDbVertex
100
AcDb2dVertex
62
5
10
223.850000
20
209.350000
0
VERTEX
5
222
100
AcDbEntity
8
1
100
AcDbVertex
100
AcDb2dVertex
62
5
10
229.850000
20
209.850000
0
VERTEX
5
223
100
AcDbEntity
8
1
100
AcDbVertex
100
AcDb2dVertex
62
5
10
229.850000
20
208.850000
0
VERTEX
5
224
100
AcDbEntity
8
1
100
AcDbVertex
100
AcDb2dVertex
62
5
10
223.850000
20
209.350000
0
SEQEND
5
225
100
AcDbEntity
8
1
0
LINE
5
226
100
AcDbEntity
8
1
100
AcDbLine
6
CONTINUOUS
62
5
10
223.850000
20
209.350000
11
203.250000
21
209.350000
0
LINE
5
227
100
AcDbEntity
8
1
100
AcDbLine
6
CONTINUOUS
62
5
10
198.250000
20
209.350000
11
203.250000
21
209.350000
0
POLYLINE
5
228
100
AcDbEntity
8
1
6
CONTINUOUS
62
5
100
AcDb2dPolyline
66
1
10
0.0
20
0.0
30
0.0
70
0
0
VERTEX
5
229
100
AcDbEntity
8
1
100
AcDbVertex
100
AcDb2dVertex
62
5
10
204.250000
20
209.850000
0
VERTEX
5
22a
100
AcDbEntity
8
1
100
AcDbVertex
100
AcDb2dVertex
62
5
10
204.250000
20
208.850000
0
VERTEX
5
22b
100
AcDbEntity
8
1
100
AcDbVertex
100
AcDb2dVertex
62
5
10
203.750000
20
208.350000
0
VERTEX
5
22c
100
AcDbEntity
8
1
100
AcDbVertex
100
AcDb2dVertex
62
5
10
202.750000
20
208.350000
0
VERTEX
5
22d
100
AcDbEntity
8
1
100
AcDbVertex
100
AcDb2dVertex
62
5
10
202.250000
20
208.850000
0
VERTEX
5
22e
100
AcDbEntity
8
1
100
AcDbVertex
100
AcDb2dVertex
62
5
10
202.250000
20
209.850000
0
VERTEX
5
22f
100
AcDbEntity
8
1
100
AcDbVertex
100
AcDb2dVertex
62
5
10
202.750000
20
210.350000
0
VERTEX
5
230
100
AcDbEntity
8
1
100
AcDbVertex
100
AcDb2dVertex
62
5
10
203.750000
20
210.350000
0
VERTEX
5
231
100
AcDbEntity
8
1
100
AcDbVertex
100
AcDb2dVertex
62
5
10
204.250000
20
209.850000
0
VERTEX
5
232
100
AcDbEntity
8
1
100
AcDbVertex
100
AcDb2dVertex
62
5
10
202.250000
20
208.850000
0
SEQEND
5
233
100
AcDbEntity
8
1
0
LINE
5
234
100
AcDbEntity
8
1
100
AcDbLine
6
CONTINUOUS
62
5
10
202.250000
20
209.850000
11
204.250000
21
208.850000
0
LINE
5
235
100
AcDbEntity
8
1
100
AcDbLine
6
CONTINUOUS
62
5
10
203.750000
20
208.350000
11
202.750000
21
210.350000
0
LINE
5
236
100
AcDbEntity
8
1
100
AcDbLine
6
CONTINUOUS
62
5
10
203.750000
20
210.350000
11
202.750000
21
208.350000
0
LINE
5
237
100
AcDbEntity
8
1
100
AcDbLine
6
CONTINUOUS
62
5
10
131.000000
20
326.187500
11
137.000000
21
326.187500
0
POLYLINE
5
238
100
AcDbEntity
8
1
6
CONTINUOUS
62
5
100
AcDb2dPolyline
66
1
10
0.0
20
0.0
30
0.0
70
0
0
VERTEX
5
239
100
AcDbEntity
8
1
100
AcDbVertex
100
AcDb2dVertex
62
5
10
134.250000
20
328.375000
0
VERTEX
5
23a
100
AcDbEntity
8
1
100
AcDbVertex
100
AcDb2dVertex
62
5
10
134.250000
20
325.250000
0
VERTEX
5
23b
100
AcDbEntity
8
1
100
AcDbVertex
100
AcDb2dVertex
62
5
10
133.750000
20
323.687500
0
VERTEX
5
23c
100
AcDbEntity
8
1
100
AcDbVertex
100
AcDb2dVertex
62
5
10
133.000000
20
322.437500
0
VERTEX
5
23d
100
AcDbEntity
8
1
100
AcDbVertex
100
AcDb2dVertex
62
5
10
132.250000
20
321.812500
0
SEQEND
5
23e
100
AcDbEntity
8
1
0
POLYLINE
5
23f
100
AcDbEntity
8
1
6
CONTINUOUS
62
5
100
AcDb2dPolyline
66
1
10
0.0
20
0.0
30
0.0
70
0
0
VERTEX
5
240
100
AcDbEntity
8
1
100
AcDbVertex
100
AcDb2dVertex
62
5
10
140.500000
20
328.062500
0
VERTEX
5
241
100
AcDbEntity
8
1
100
AcDbVertex
100
AcDb2dVertex
62
5
10
140.500000
20
326.187500
0
VERTEX
5
242
100
AcDbEntity
8
1
100
AcDbVertex
100
AcDb2dVertex
62
5
10
140.250000
20
324.625000
0
VERTEX
5
243
100
AcDbEntity
8
1
100
AcDbVertex
100
AcDb2dVertex
62
5
10
139.750000
20
323.375000
0
VERTEX
5
244
100
AcDbEntity
8
1
100
AcDbVertex
100
AcDb2dVertex
62
5
10
139.000000
20
322.125000
0
VERTEX
5
245
100
AcDbEntity
8
1
100
AcDbVertex
100
AcDb2dVertex
62
5
10
138.750000
20
321.812500
0
SEQEND
5
246
100
AcDbEntity
8
1
0
POLYLINE
5
247
100
AcDbEntity
8
1
6
CONTINUOUS
62
5
100
AcDb2dPolyline
66
1
10
0.0
20
0.0
30
0.0
70
0
0
VERTEX
5
248
100
AcDbEntity
8
1
100
AcDbVertex
100
AcDb2dVertex
62
5
10
142.000000
20
328.375000
0
VERTEX
5
249
100
AcDbEntity
8
1
100
AcDbVertex
100
AcDb2dVertex
62
5
10
142.000000
20
322.125000
0
VERTEX
5
24a
100
AcDbEntity
8
1
100
AcDbVertex
100
AcDb2dVertex
62
5
10
142.750000
20
322.437500
0
VERTEX
5
24b
100
AcDbEntity
8
1
100
AcDbVertex
100
AcDb2dVertex
62
5
10
143.750000
20
323.375000
0
VERTEX
5
24c
100
AcDbEntity
8
1
100
AcDbVertex
100
AcDb2dVertex
62
5
10
144.500000
20
324.312500
0
VERTEX
5
24d
100
AcDbEntity
8
1
100
AcDbVertex
100
AcDb2dVertex
62
5
10
145.000000
20
325.250000
0
SEQEND
5
24e
100
AcDbEntity
8
1
0
POLYLINE
5
24f
100
AcDbEntity
8
1
6
CONTINUOUS
62
5
100
AcDb2dPolyline
66
1
10
0.0
20
0.0
30
0.0
70
0
0
VERTEX
5
250
100
AcDbEntity
8
1
100
AcDbVertex
100
AcDb2dVertex
62
5
10
131.750000
20
317.750000
0
VERTEX
5
251
100
AcDbEntity
8
1
100
AcDbVertex
100
AcDb2dVertex
62
5
10
131.750000
20
312.437500
0
VERTEX
5
252
100
AcDbEntity
8
1
100
AcDbVertex
100
AcDb2dVertex
62
5
10
132.250000
20
311.812500
0
VERTEX
5
253
100
AcDbEntity
8
1
100
AcDbVertex
100
AcDb2dVertex
62
5
10
135.750000
20
311.812500
0
SEQEND
5
254
100
AcDbEntity
8
1
0
LINE
5
255
100
AcDbEntity
8
1
100
AcDbLine
6
CONTINUOUS
62
5
10
135.250000
20
315.875000
11
131.750000
21
314.937500
0
POLYLINE
5
256
100
AcDbEntity
8
1
6
CONTINUOUS
62
5
100
AcDb2dPolyline
66
1
10
0.0
20
0.0
30
0.0
70
1
0
VERTEX
5
257
100
AcDbEntity
8
1
100
AcDbVertex
100
AcDb2dVertex
62
5
10
135.250000
20
317.750000
0
VERTEX
5
258
100
AcDbEntity
8
1
100
AcDbVertex
100
AcDb2dVertex
62
5
10
135.750000
20
318.375000
0
VERTEX
5
259
100
AcDbEntity
8
1
100
AcDbVertex
100
AcDb2dVertex
62
5
10
136.000000
20
318.375000
0
VERTEX
5
25a
100
AcDbEntity
8
1
100
AcDbVertex
100
AcDb2dVertex
62
5
10
136.500000
20
317.750000
0
VERTEX
5
25b
100
AcDbEntity
8
1
100
AcDbVertex
100
AcDb2dVertex
62
5
10
136.500000
20
317.437500
0
VERTEX
5
25c
100
AcDbEntity
8
1
100
AcDbVertex
100
AcDb2dVertex
62
5
10
136.000000
20
316.812500
0
VERTEX
5
25d
100
AcDbEntity
8
1
100
AcDbVertex
100
AcDb2dVertex
62
5
10
135.750000
20
316.812500
0
VERTEX
5
25e
100
AcDbEntity
8
1
100
AcDbVertex
100
AcDb2dVertex
62
5
10
135.250000
20
317.437500
0
VERTEX
5
25f
100
AcDbEntity
8
1
100
AcDbVertex
100
AcDb2dVertex
62
5
10
135.250000
20
317.750000
0
SEQEND
5
260
100
AcDbEntity
8
1
0
POLYLINE
5
261
100
AcDbEntity
8
1
6
CONTINUOUS
62
5
100
AcDb2dPolyline
66
1
10
0.0
20
0.0
30
0.0
70
0
0
VERTEX
5
262
100
AcDbEntity
8
1
100
AcDbVertex
100
AcDb2dVertex
62
5
10
140.500000
20
315.562500
0
VERTEX
5
263
100
AcDbEntity
8
1
100
AcDbVertex
100
AcDb2dVertex
62
5
10
142.500000
20
315.562500
0
VERTEX
5
264
100
AcDbEntity
8
1
100
AcDbVertex
100
AcDb2dVertex
62
5
10
142.250000
20
312.437500
0
SEQEND
5
265
100
AcDbEntity
8
1
0
LINE
5
266
100
AcDbEntity
8
1
100
AcDbLine
6
CONTINUOUS
62
5
10
139.750000
20
312.437500
11
144.000000
21
312.437500
0
LINE
5
267
100
AcDbEntity
8
1
100
AcDbLine
6
CONTINUOUS
62
5
10
124.750000
20
328.375000
11
126.750000
21
327.125000
0
LINE
5
268
100
AcDbEntity
8
1
100
AcDbLine
6
CONTINUOUS
62
5
10
124.500000
20
325.875000
11
126.250000
21
324.937500
0
POLYLINE
5
269
100
AcDbEntity
8
1
6
CONTINUOUS
62
5
100
AcDb2dPolyline
66
1
10
0.0
20
0.0
30
0.0
70
0
0
VERTEX
5
26a
100
AcDbEntity
8
1
100
AcDbVertex
100
AcDb2dVertex
62
5
10
124.250000
20
323.687500
0
VERTEX
5
26b
100
AcDbEntity
8
1
100
AcDbVertex
100
AcDb2dVertex
62
5
10
125.750000
20
322.750000
0
VERTEX
5
26c
100
AcDbEntity
8
1
100
AcDbVertex
100
AcDb2dVertex
62
5
10
127.250000
20
321.812500
0
SEQEND
5
26d
100
AcDbEntity
8
1
0
POLYLINE
5
26e
100
AcDbEntity
8
1
6
CONTINUOUS
62
5
100
AcDb2dPolyline
66
1
10
0.0
20
0.0
30
0.0
70
0
0
VERTEX
5
26f
100
AcDbEntity
8
1
100
AcDbVertex
100
AcDb2dVertex
62
5
10
115.250000
20
319.312500
0
VERTEX
5
270
100
AcDbEntity
8
1
100
AcDbVertex
100
AcDb2dVertex
62
5
10
116.000000
20
318.062500
0
VERTEX
5
271
100
AcDbEntity
8
1
100
AcDbVertex
100
AcDb2dVertex
62
5
10
116.750000
20
316.500000
0
VERTEX
5
272
100
AcDbEntity
8
1
100
AcDbVertex
100
AcDb2dVertex
62
5
10
117.000000
20
315.250000
0
VERTEX
5
273
100
AcDbEntity
8
1
100
AcDbVertex
100
AcDb2dVertex
62
5
10
116.750000
20
314.000000
0
VERTEX
5
274
100
AcDbEntity
8
1
100
AcDbVertex
100
AcDb2dVertex
62
5
10
116.250000
20
312.437500
0
VERTEX
5
275
100
AcDbEntity
8
1
100
AcDbVertex
100
AcDb2dVertex
62
5
10
115.250000
20
310.875000
0
SEQEND
5
276
100
AcDbEntity
8
1
0
POLYLINE
5
277
100
AcDbEntity
8
1
6
CONTINUOUS
62
5
100
AcDb2dPolyline
66
1
10
0.0
20
0.0
30
0.0
70
0
0
VERTEX
5
278
100
AcDbEntity
8
1
100
AcDbVertex
100
AcDb2dVertex
62
5
10
114.750000
20
325.562500
0
VERTEX
5
279
100
AcDbEntity
8
1
100
AcDbVertex
100
AcDb2dVertex
62
5
10
115.000000
20
325.250000
0
VERTEX
5
27a
100
AcDbEntity
8
1
100
AcDbVertex
100
AcDb2dVertex
62
5
10
121.750000
20
325.250000
0
SEQEND
5
27b
100
AcDbEntity
8
1
0
POLYLINE
5
27c
100
AcDbEntity
8
1
6
CONTINUOUS
62
5
100
AcDb2dPolyline
66
1
10
0.0
20
0.0
30
0.0
70
0
0
VERTEX
5
27d
100
AcDbEntity
8
1
100
AcDbVertex
100
AcDb2dVertex
62
5
10
90.750000
20
325.562500
0
VERTEX
5
27e
100
AcDbEntity
8
1
100
AcDbVertex
100
AcDb2dVertex
62
5
10
91.000000
20
325.250000
0
VERTEX
5
27f
100
AcDbEntity
8
1
100
AcDbVertex
100
AcDb2dVertex
62
5
10
97.750000
20
325.250000
0
SEQEND
5
280
100
AcDbEntity
8
1
0
POLYLINE
5
281
100
AcDbEntity
8
1
6
CONTINUOUS
62
5
100
AcDb2dPolyline
66
1
10
0.0
20
0.0
30
0.0
70
0
0
VERTEX
5
282
100
AcDbEntity
8
1
100
AcDbVertex
100
AcDb2dVertex
62
5
10
100.000000
20
327.125000
0
VERTEX
5
283
100
AcDbEntity
8
1
100
AcDbVertex
100
AcDb2dVertex
62
5
10
103.250000
20
327.125000
0
VERTEX
5
284
100
AcDbEntity
8
1
100
AcDbVertex
100
AcDb2dVertex
62
5
10
103.250000
20
326.812500
0
VERTEX
5
285
100
AcDbEntity
8
1
100
AcDbVertex
100
AcDb2dVertex
62
5
10
102.750000
20
325.562500
0
VERTEX
5
286
100
AcDbEntity
8
1
100
AcDbVertex
100
AcDb2dVertex
62
5
10
102.250000
20
324.625000
0
VERTEX
5
287
100
AcDbEntity
8
1
100
AcDbVertex
100
AcDb2dVertex
62
5
10
101.250000
20
323.375000
0
VERTEX
5
288
100
AcDbEntity
8
1
100
AcDbVertex
100
AcDb2dVertex
62
5
10
99.500000
20
321.812500
0
SEQEND
5
289
100
AcDbEntity
8
1
0
LINE
5
28a
100
AcDbEntity
8
1
100
AcDbLine
6
CONTINUOUS
62
5
10
102.250000
20
324.625000
11
104.250000
21
321.812500
0
LINE
5
28b
100
AcDbEntity
8
1
100
AcDbLine
6
CONTINUOUS
62
5
10
96.250000
20
315.562500
11
97.000000
21
315.562500
0
LINE
5
28c
100
AcDbEntity
8
1
100
AcDbLine
6
CONTINUOUS
62
5
10
90.250000
20
316.812500
11
92.750000
21
316.812500
0
LINE
5
28d
100
AcDbEntity
8
1
100
AcDbLine
6
CONTINUOUS
62
5
10
91.750000
20
319.312500
11
91.750000
21
310.562500
0
POLYLINE
5
28e
100
AcDbEntity
8
1
6
CONTINUOUS
62
5
100
AcDb2dPolyline
66
1
10
0.0
20
0.0
30
0.0
70
0
0
VERTEX
5
28f
100
AcDbEntity
8
1
100
AcDbVertex
100
AcDb2dVertex
62
5
10
91.750000
20
316.812500
0
VERTEX
5
290
100
AcDbEntity
8
1
100
AcDbVertex
100
AcDb2dVertex
62
5
10
91.000000
20
314.312500
0
VERTEX
5
291
100
AcDbEntity
8
1
100
AcDbVertex
100
AcDb2dVertex
62
5
10
90.250000
20
312.750000
0
SEQEND
5
292
100
AcDbEntity
8
1
0
LINE
5
293
100
AcDbEntity
8
1
100
AcDbLine
6
CONTINUOUS
62
5
10
91.750000
20
316.187500
11
92.500000
21
314.312500
0
POLYLINE
5
294
100
AcDbEntity
8
1
6
CONTINUOUS
62
5
100
AcDb2dPolyline
66
1
10
0.0
20
0.0
30
0.0
70
0
0
VERTEX
5
295
100
AcDbEntity
8
1
100
AcDbVertex
100
AcDb2dVertex
62
5
10
93.000000
20
317.750000
0
VERTEX
5
296
100
AcDbEntity
8
1
100
AcDbVertex
100
AcDb2dVertex
62
5
10
95.750000
20
317.750000
0
VERTEX
5
297
100
AcDbEntity
8
1
100
AcDbVertex
100
AcDb2dVertex
62
5
10
95.750000
20
316.500000
0
VERTEX
5
298
100
AcDbEntity
8
1
100
AcDbVertex
100
AcDb2dVertex
62
5
10
96.250000
20
315.562500
0
SEQEND
5
299
100
AcDbEntity
8
1
0
POLYLINE
5
29a
100
AcDbEntity
8
1
6
CONTINUOUS
62
5
100
AcDb2dPolyline
66
1
10
0.0
20
0.0
30
0.0
70
0
0
VERTEX
5
29b
100
AcDbEntity
8
1
100
AcDbVertex
100
AcDb2dVertex
62
5
10
94.500000
20
319.625000
0
VERTEX
5
29c
100
AcDbEntity
8
1
100
AcDbVertex
100
AcDb2dVertex
62
5
10
94.250000
20
317.125000
0
VERTEX
5
29d
100
AcDbEntity
8
1
100
AcDbVertex
100
AcDb2dVertex
62
5
10
93.750000
20
315.875000
0
VERTEX
5
29e
100
AcDbEntity
8
1
100
AcDbVertex
100
AcDb2dVertex
62
5
10
93.000000
20
315.250000
0
SEQEND
5
29f
100
AcDbEntity
8
1
0
POLYLINE
5
2a0
100
AcDbEntity
8
1
6
CONTINUOUS
62
5
100
AcDb2dPolyline
66
1
10
0.0
20
0.0
30
0.0
70
0
0
VERTEX
5
2a1
100
AcDbEntity
8
1
100
AcDbVertex
100
AcDb2dVertex
62
5
10
97.000000
20
315.562500
0
VERTEX
5
2a2
100
AcDbEntity
8
1
100
AcDbVertex
100
AcDb2dVertex
62
5
10
97.250000
20
315.875000
0
VERTEX
5
2a3
100
AcDbEntity
8
1
100
AcDbVertex
100
AcDb2dVertex
62
5
10
97.250000
20
317.125000
0
SEQEND
5
2a4
100
AcDbEntity
8
1
0
LINE
5
2a5
100
AcDbEntity
8
1
100
AcDbLine
6
CONTINUOUS
62
5
10
92.750000
20
313.687500
11
97.500000
21
313.687500
0
LINE
5
2a6
100
AcDbEntity
8
1
100
AcDbLine
6
CONTINUOUS
62
5
10
95.000000
20
315.250000
11
95.000000
21
310.562500
0
POLYLINE
5
2a7
100
AcDbEntity
8
1
6
CONTINUOUS
62
5
100
AcDb2dPolyline
66
1
10
0.0
20
0.0
30
0.0
70
1
0
VERTEX
5
2a8
100
AcDbEntity
8
1
100
AcDbVertex
100
AcDb2dVertex
62
5
10
99.250000
20
319.000000
0
VERTEX
5
2a9
100
AcDbEntity
8
1
100
AcDbVertex
100
AcDb2dVertex
62
5
10
99.250000
20
316.187500
0
VERTEX
5
2aa
100
AcDbEntity
8
1
100
AcDbVertex
100
AcDb2dVertex
62
5
10
101.750000
20
316.187500
0
VERTEX
5
2ab
100
AcDbEntity
8
1
100
AcDbVertex
100
AcDb2dVertex
62
5
10
101.750000
20
319.000000
0
VERTEX
5
2ac
100
AcDbEntity
8
1
100
AcDbVertex
100
AcDb2dVertex
62
5
10
99.250000
20
319.000000
0
SEQEND
5
2ad
100
AcDbEntity
8
1
0
POLYLINE
5
2ae
100
AcDbEntity
8
1
6
CONTINUOUS
62
5
100
AcDb2dPolyline
66
1
10
0.0
20
0.0
30
0.0
70
0
0
VERTEX
5
2af
100
AcDbEntity
8
1
100
AcDbVertex
100
AcDb2dVertex
62
5
10
100.000000
20
316.187500
0
VERTEX
5
2b0
100
AcDbEntity
8
1
100
AcDbVertex
100
AcDb2dVertex
62
5
10
100.000000
20
314.000000
0
VERTEX
5
2b1
100
AcDbEntity
8
1
100
AcDbVertex
100
AcDb2dVertex
62
5
10
98.750000
20
311.187500
0
SEQEND
5
2b2
100
AcDbEntity
8
1
0
POLYLINE
5
2b3
100
AcDbEntity
8
1
6
CONTINUOUS
62
5
100
AcDb2dPolyline
66
1
10
0.0
20
0.0
30
0.0
70
0
0
VERTEX
5
2b4
100
AcDbEntity
8
1
100
AcDbVertex
100
AcDb2dVertex
62
5
10
100.000000
20
314.937500
0
VERTEX
5
2b5
100
AcDbEntity
8
1
100
AcDbVertex
100
AcDb2dVertex
62
5
10
102.000000
20
314.937500
0
VERTEX
5
2b6
100
AcDbEntity
8
1
100
AcDbVertex
100
AcDb2dVertex
62
5
10
102.000000
20
313.687500
0
VERTEX
5
2b7
100
AcDbEntity
8
1
100
AcDbVertex
100
AcDb2dVertex
62
5
10
101.250000
20
311.500000
0
VERTEX
5
2b8
100
AcDbEntity
8
1
100
AcDbVertex
100
AcDb2dVertex
62
5
10
100.500000
20
311.500000
0
SEQEND
5
2b9
100
AcDbEntity
8
1
0
LINE
5
2ba
100
AcDbEntity
8
1
100
AcDbLine
6
CONTINUOUS
62
5
10
103.250000
20
318.062500
11
103.250000
21
313.062500
0
POLYLINE
5
2bb
100
AcDbEntity
8
1
6
CONTINUOUS
62
5
100
AcDb2dPolyline
66
1
10
0.0
20
0.0
30
0.0
70
0
0
VERTEX
5
2bc
100
AcDbEntity
8
1
100
AcDbVertex
100
AcDb2dVertex
62
5
10
105.000000
20
319.312500
0
VERTEX
5
2bd
100
AcDbEntity
8
1
100
AcDbVertex
100
AcDb2dVertex
62
5
10
105.000000
20
310.875000
0
VERTEX
5
2be
100
AcDbEntity
8
1
100
AcDbVertex
100
AcDb2dVertex
62
5
10
104.250000
20
310.875000
0
SEQEND
5
2bf
100
AcDbEntity
8
1
0
POLYLINE
5
2c0
100
AcDbEntity
8
1
6
CONTINUOUS
62
5
100
AcDb2dPolyline
66
1
10
0.0
20
0.0
30
0.0
70
0
0
VERTEX
5
2c1
100
AcDbEntity
8
1
100
AcDbVertex
100
AcDb2dVertex
62
5
10
83.000000
20
327.437500
0
VERTEX
5
2c2
100
AcDbEntity
8
1
100
AcDbVertex
100
AcDb2dVertex
62
5
10
88.250000
20
327.437500
0
VERTEX
5
2c3
100
AcDbEntity
8
1
100
AcDbVertex
100
AcDb2dVertex
62
5
10
88.250000
20
327.125000
0
VERTEX
5
2c4
100
AcDbEntity
8
1
100
AcDbVertex
100
AcDb2dVertex
62
5
10
86.500000
20
325.250000
0
VERTEX
5
2c5
100
AcDbEntity
8
1
100
AcDbVertex
100
AcDb2dVertex
62
5
10
85.750000
20
325.250000
0
SEQEND
5
2c6
100
AcDbEntity
8
1
0
POLYLINE
5
2c7
100
AcDbEntity
8
1
6
CONTINUOUS
62
5
100
AcDb2dPolyline
66
1
10
0.0
20
0.0
30
0.0
70
0
0
VERTEX
5
2c8
100
AcDbEntity
8
1
100
AcDbVertex
100
AcDb2dVertex
62
5
10
85.750000
20
326.187500
0
VERTEX
5
2c9
100
AcDbEntity
8
1
100
AcDbVertex
100
AcDb2dVertex
62
5
10
85.750000
20
324.625000
0
VERTEX
5
2ca
100
AcDbEntity
8
1
100
AcDbVertex
100
AcDb2dVertex
62
5
10
85.000000
20
322.750000
0
VERTEX
5
2cb
100
AcDbEntity
8
1
100
AcDbVertex
100
AcDb2dVertex
62
5
10
84.000000
20
321.500000
0
SEQEND
5
2cc
100
AcDbEntity
8
1
0
POLYLINE
5
2cd
100
AcDbEntity
8
1
6
CONTINUOUS
62
5
100
AcDb2dPolyline
66
1
10
0.0
20
0.0
30
0.0
70
0
0
VERTEX
5
2ce
100
AcDbEntity
8
1
100
AcDbVertex
100
AcDb2dVertex
62
5
10
72.500000
20
319.312500
0
VERTEX
5
2cf
100
AcDbEntity
8
1
100
AcDbVertex
100
AcDb2dVertex
62
5
10
71.750000
20
318.062500
0
VERTEX
5
2d0
100
AcDbEntity
8
1
100
AcDbVertex
100
AcDb2dVertex
62
5
10
71.000000
20
316.500000
0
VERTEX
5
2d1
100
AcDbEntity
8
1
100
AcDbVertex
100
AcDb2dVertex
62
5
10
70.750000
20
315.250000
0
VERTEX
5
2d2
100
AcDbEntity
8
1
100
AcDbVertex
100
AcDb2dVertex
62
5
10
71.000000
20
314.000000
0
VERTEX
5
2d3
100
AcDbEntity
8
1
100
AcDbVertex
100
AcDb2dVertex
62
5
10
71.500000
20
312.437500
0
VERTEX
5
2d4
100
AcDbEntity
8
1
100
AcDbVertex
100
AcDb2dVertex
62
5
10
72.500000
20
310.875000
0
SEQEND
5
2d5
100
AcDbEntity
8
1
0
LINE
5
2d6
100
AcDbEntity
8
1
100
AcDbLine
6
CONTINUOUS
62
5
10
75.000000
20
329.000000
11
76.000000
21
328.062500
0
POLYLINE
5
2d7
100
AcDbEntity
8
1
6
CONTINUOUS
62
5
100
AcDb2dPolyline
66
1
10
0.0
20
0.0
30
0.0
70
0
0
VERTEX
5
2d8
100
AcDbEntity
8
1
100
AcDbVertex
100
AcDb2dVertex
62
5
10
74.750000
20
325.875000
0
VERTEX
5
2d9
100
AcDbEntity
8
1
100
AcDbVertex
100
AcDb2dVertex
62
5
10
76.000000
20
325.875000
0
VERTEX
5
2da
100
AcDbEntity
8
1
100
AcDbVertex
100
AcDb2dVertex
62
5
10
76.000000
20
322.750000
0
VERTEX
5
2db
100
AcDbEntity
8
1
100
AcDbVertex
100
AcDb2dVertex
62
5
10
74.750000
20
321.187500
0
SEQEND
5
2dc
100
AcDbEntity
8
1
0
POLYLINE
5
2dd
100
AcDbEntity
8
1
6
CONTINUOUS
62
5
100
AcDb2dPolyline
66
1
10
0.0
20
0.0
30
0.0
70
0
0
VERTEX
5
2de
100
AcDbEntity
8
1
100
AcDbVertex
100
AcDb2dVertex
62
5
10
76.000000
20
322.750000
0
VERTEX
5
2df
100
AcDbEntity
8
1
100
AcDbVertex
100
AcDb2dVertex
62
5
10
76.750000
20
321.500000
0
VERTEX
5
2e0
100
AcDbEntity
8
1
100
AcDbVertex
100
AcDb2dVertex
62
5
10
77.750000
20
321.187500
0
VERTEX
5
2e1
100
AcDbEntity
8
1
100
AcDbVertex
100
AcDb2dVertex
62
5
10
81.500000
20
321.187500
0
SEQEND
5
2e2
100
AcDbEntity
8
1
0
POLYLINE
5
2e3
100
AcDbEntity
8
1
6
CONTINUOUS
62
5
100
AcDb2dPolyline
66
1
10
0.0
20
0.0
30
0.0
70
0
0
VERTEX
5
2e4
100
AcDbEntity
8
1
100
AcDbVertex
100
AcDb2dVertex
62
5
10
78.750000
20
326.500000
0
VERTEX
5
2e5
100
AcDbEntity
8
1
100
AcDbVertex
100
AcDb2dVertex
62
5
10
78.000000
20
324.625000
0
VERTEX
5
2e6
100
AcDbEntity
8
1
100
AcDbVertex
100
AcDb2dVertex
62
5
10
77.250000
20
323.375000
0
VERTEX
5
2e7
100
AcDbEntity
8
1
100
AcDbVertex
100
AcDb2dVertex
62
5
10
76.750000
20
322.750000
0
SEQEND
5
2e8
100
AcDbEntity
8
1
0
POLYLINE
5
2e9
100
AcDbEntity
8
1
6
CONTINUOUS
62
5
100
AcDb2dPolyline
66
1
10
0.0
20
0.0
30
0.0
70
0
0
VERTEX
5
2ea
100
AcDbEntity
8
1
100
AcDbVertex
100
AcDb2dVertex
62
5
10
77.500000
20
329.312500
0
VERTEX
5
2eb
100
AcDbEntity
8
1
100
AcDbVertex
100
AcDb2dVertex
62
5
10
78.750000
20
329.312500
0
VERTEX
5
2ec
100
AcDbEntity
8
1
100
AcDbVertex
100
AcDb2dVertex
62
5
10
78.750000
20
326.500000
0
VERTEX
5
2ed
100
AcDbEntity
8
1
100
AcDbVertex
100
AcDb2dVertex
62
5
10
79.500000
20
324.625000
0
VERTEX
5
2ee
100
AcDbEntity
8
1
100
AcDbVertex
100
AcDb2dVertex
62
5
10
80.500000
20
323.375000
0
VERTEX
5
2ef
100
AcDbEntity
8
1
100
AcDbVertex
100
AcDb2dVertex
62
5
10
81.250000
20
322.750000
0
SEQEND
5
2f0
100
AcDbEntity
8
1
0
LINE
5
2f1
100
AcDbEntity
8
1
100
AcDbLine
6
CONTINUOUS
62
5
10
74.500000
20
319.000000
11
78.250000
21
319.000000
0
LINE
5
2f2
100
AcDbEntity
8
1
100
AcDbLine
6
CONTINUOUS
62
5
10
75.250000
20
319.000000
11
75.250000
21
312.437500
0
LINE
5
2f3
100
AcDbEntity
8
1
100
AcDbLine
6
CONTINUOUS
62
5
10
77.250000
20
319.000000
11
77.250000
21
310.875000
0
LINE
5
2f4
100
AcDbEntity
8
1
100
AcDbLine
6
CONTINUOUS
62
5
10
75.250000
20
316.812500
11
77.250000
21
316.812500
0
LINE
5
2f5
100
AcDbEntity
8
1
100
AcDbLine
6
CONTINUOUS
62
5
10
75.250000
20
314.937500
11
77.250000
21
314.937500
0
LINE
5
2f6
100
AcDbEntity
8
1
100
AcDbLine
6
CONTINUOUS
62
5
10
74.250000
20
312.125000
11
77.250000
21
313.062500
0
POLYLINE
5
2f7
100
AcDbEntity
8
1
6
CONTINUOUS
62
5
100
AcDb2dPolyline
66
1
10
0.0
20
0.0
30
0.0
70
0
0
VERTEX
5
2f8
100
AcDbEntity
8
1
100
AcDbVertex
100
AcDb2dVertex
62
5
10
78.000000
20
317.437500
0
VERTEX
5
2f9
100
AcDbEntity
8
1
100
AcDbVertex
100
AcDb2dVertex
62
5
10
81.250000
20
317.437500
0
VERTEX
5
2fa
100
AcDbEntity
8
1
100
AcDbVertex
100
AcDb2dVertex
62
5
10
80.750000
20
315.250000
0
VERTEX
5
2fb
100
AcDbEntity
8
1
100
AcDbVertex
100
AcDb2dVertex
62
5
10
80.250000
20
314.000000
0
VERTEX
5
2fc
100
AcDbEntity
8
1
100
AcDbVertex
100
AcDb2dVertex
62
5
10
79.250000
20
312.125000
0
VERTEX
5
2fd
100
AcDbEntity
8
1
100
AcDbVertex
100
AcDb2dVertex
62
5
10
78.000000
20
310.875000
0
SEQEND
5
2fe
100
AcDbEntity
8
1
0
POLYLINE
5
2ff
100
AcDbEntity
8
1
6
CONTINUOUS
62
5
100
AcDb2dPolyline
66
1
10
0.0
20
0.0
30
0.0
70
0
0
VERTEX
5
300
100
AcDbEntity
8
1
100
AcDbVertex
100
AcDb2dVertex
62
5
10
78.250000
20
316.187500
0
VERTEX
5
301
100
AcDbEntity
8
1
100
AcDbVertex
100
AcDb2dVertex
62
5
10
79.000000
20
314.312500
0
VERTEX
5
302
100
AcDbEntity
8
1
100
AcDbVertex
100
AcDb2dVertex
62
5
10
80.000000
20
312.437500
0
VERTEX
5
303
100
AcDbEntity
8
1
100
AcDbVertex
100
AcDb2dVertex
62
5
10
81.500000
20
310.875000
0
SEQEND
5
304
100
AcDbEntity
8
1
0
POLYLINE
5
305
100
AcDbEntity
8
1
6
CONTINUOUS
62
5
100
AcDb2dPolyline
66
1
10
0.0
20
0.0
30
0.0
70
0
0
VERTEX
5
306
100
AcDbEntity
8
1
100
AcDbVertex
100
AcDb2dVertex
62
5
10
84.500000
20
319.312500
0
VERTEX
5
307
100
AcDbEntity
8
1
100
AcDbVertex
100
AcDb2dVertex
62
5
10
83.500000
20
316.500000
0
VERTEX
5
308
100
AcDbEntity
8
1
100
AcDbVertex
100
AcDb2dVertex
62
5
10
82.250000
20
314.312500
0
SEQEND
5
309
100
AcDbEntity
8
1
0
LINE
5
30a
100
AcDbEntity
8
1
100
AcDbLine
6
CONTINUOUS
62
5
10
83.500000
20
316.500000
11
83.500000
21
310.562500
0
LINE
5
30b
100
AcDbEntity
8
1
100
AcDbLine
6
CONTINUOUS
62
5
10
84.250000
20
316.500000
11
89.500000
21
316.500000
0
POLYLINE
5
30c
100
AcDbEntity
8
1
6
CONTINUOUS
62
5
100
AcDb2dPolyline
66
1
10
0.0
20
0.0
30
0.0
70
0
0
VERTEX
5
30d
100
AcDbEntity
8
1
100
AcDbVertex
100
AcDb2dVertex
62
5
10
87.750000
20
319.312500
0
VERTEX
5
30e
100
AcDbEntity
8
1
100
AcDbVertex
100
AcDb2dVertex
62
5
10
87.750000
20
310.875000
0
VERTEX
5
30f
100
AcDbEntity
8
1
100
AcDbVertex
100
AcDb2dVertex
62
5
10
86.250000
20
311.187500
0
SEQEND
5
310
100
AcDbEntity
8
1
0
LINE
5
311
100
AcDbEntity
8
1
100
AcDbLine
6
CONTINUOUS
62
5
10
85.250000
20
315.250000
11
86.250000
21
313.375000
0
POLYLINE
5
312
100
AcDbEntity
8
1
6
CONTINUOUS
62
5
100
AcDb2dPolyline
66
1
10
0.0
20
0.0
30
0.0
70
0
0
VERTEX
5
313
100
AcDbEntity
8
1
100
AcDbVertex
100
AcDb2dVertex
62
5
10
107.750000
20
324.937500
0
VERTEX
5
314
100
AcDbEntity
8
1
100
AcDbVertex
100
AcDb2dVertex
62
5
10
108.750000
20
326.187500
0
VERTEX
5
315
100
AcDbEntity
8
1
100
AcDbVertex
100
AcDb2dVertex
62
5
10
109.500000
20
327.437500
0
VERTEX
5
316
100
AcDbEntity
8
1
100
AcDbVertex
100
AcDb2dVertex
62
5
10
112.000000
20
327.437500
0
VERTEX
5
317
100
AcDbEntity
8
1
100
AcDbVertex
100
AcDb2dVertex
62
5
10
112.000000
20
327.125000
0
VERTEX
5
318
100
AcDbEntity
8
1
100
AcDbVertex
100
AcDb2dVertex
62
5
10
111.000000
20
324.625000
0
VERTEX
5
319
100
AcDbEntity
8
1
100
AcDbVertex
100
AcDb2dVertex
62
5
10
109.750000
20
322.750000
0
VERTEX
5
31a
100
AcDbEntity
8
1
100
AcDbVertex
100
AcDb2dVertex
62
5
10
108.250000
20
321.500000
0
SEQEND
5
31b
100
AcDbEntity
8
1
0
LINE
5
31c
100
AcDbEntity
8
1
100
AcDbLine
6
CONTINUOUS
62
5
10
109.500000
20
325.562500
11
110.750000
21
324.312500
0
LINE
5
31d
100
AcDbEntity
8
1
100
AcDbLine
6
CONTINUOUS
62
5
10
106.750000
20
318.375000
11
112.750000
21
318.375000
0
LINE
5
31e
100
AcDbEntity
8
1
100
AcDbLine
6
CONTINUOUS
62
5
10
109.750000
20
319.625000
11
109.750000
21
316.500000
0
LINE
5
31f
100
AcDbEntity
8
1
100
AcDbLine
6
CONTINUOUS
62
5
10
107.250000
20
316.500000
11
112.250000
21
316.500000
0
POLYLINE
5
320
100
AcDbEntity
8
1
6
CONTINUOUS
62
5
100
AcDb2dPolyline
66
1
10
0.0
20
0.0
30
0.0
70
0
0
VERTEX
5
321
100
AcDbEntity
8
1
100
AcDbVertex
100
AcDb2dVertex
62
5
10
106.750000
20
313.687500
0
VERTEX
5
322
100
AcDbEntity
8
1
100
AcDbVertex
100
AcDb2dVertex
62
5
10
106.750000
20
315.250000
0
VERTEX
5
323
100
AcDbEntity
8
1
100
AcDbVertex
100
AcDb2dVertex
62
5
10
113.000000
20
315.250000
0
VERTEX
5
324
100
AcDbEntity
8
1
100
AcDbVertex
100
AcDb2dVertex
62
5
10
113.000000
20
313.687500
0
SEQEND
5
325
100
AcDbEntity
8
1
0
POLYLINE
5
326
100
AcDbEntity
8
1
6
CONTINUOUS
62
5
100
AcDb2dPolyline
66
1
10
0.0
20
0.0
30
0.0
70
0
0
VERTEX
5
327
100
AcDbEntity
8
1
100
AcDbVertex
100
AcDb2dVertex
62
5
10
108.750000
20
314.000000
0
VERTEX
5
328
100
AcDbEntity
8
1
100
AcDbVertex
100
AcDb2dVertex
62
5
10
108.750000
20
312.750000
0
VERTEX
5
329
100
AcDbEntity
8
1
100
AcDbVertex
100
AcDb2dVertex
62
5
10
108.000000
20
311.500000
0
VERTEX
5
32a
100
AcDbEntity
8
1
100
AcDbVertex
100
AcDb2dVertex
62
5
10
106.500000
20
310.875000
0
SEQEND
5
32b
100
AcDbEntity
8
1
0
POLYLINE
5
32c
100
AcDbEntity
8
1
6
CONTINUOUS
62
5
100
AcDb2dPolyline
66
1
10
0.0
20
0.0
30
0.0
70
0
0
VERTEX
5
32d
100
AcDbEntity
8
1
100
AcDbVertex
100
AcDb2dVertex
62
5
10
110.250000
20
314.000000
0
VERTEX
5
32e
100
AcDbEntity
8
1
100
AcDbVertex
100
AcDb2dVertex
62
5
10
110.250000
20
311.500000
0
VERTEX
5
32f
100
AcDbEntity
8
1
100
AcDbVertex
100
AcDb2dVertex
62
5
10
110.750000
20
310.875000
0
VERTEX
5
330
100
AcDbEntity
8
1
100
AcDbVertex
100
AcDb2dVertex
62
5
10
112.750000
20
310.875000
0
VERTEX
5
331
100
AcDbEntity
8
1
100
AcDbVertex
100
AcDb2dVertex
62
5
10
113.000000
20
311.187500
0
VERTEX
5
332
100
AcDbEntity
8
1
100
AcDbVertex
100
AcDb2dVertex
62
5
10
113.000000
20
312.125000
0
SEQEND
5
333
100
AcDbEntity
8
1
0
LINE
5
334
100
AcDbEntity
8
1
100
AcDbLine
6
CONTINUOUS
62
5
10
82.500000
20
286.750000
11
85.625000
21
286.750000
0
POLYLINE
5
335
100
AcDbEntity
8
1
6
CONTINUOUS
62
5
100
AcDb2dPolyline
66
1
10
0.0
20
0.0
30
0.0
70
0
0
VERTEX
5
336
100
AcDbEntity
8
1
100
AcDbVertex
100
AcDb2dVertex
62
5
10
122.187500
20
290.500000
0
VERTEX
5
337
100
AcDbEntity
8
1
100
AcDbVertex
100
AcDb2dVertex
62
5
10
123.125000
20
283.000000
0
VERTEX
5
338
100
AcDbEntity
8
1
100
AcDbVertex
100
AcDb2dVertex
62
5
10
124.062500
20
290.500000
0
VERTEX
5
339
100
AcDbEntity
8
1
100
AcDbVertex
100
AcDb2dVertex
62
5
10
125.000000
20
283.000000
0
VERTEX
5
33a
100
AcDbEntity
8
1
100
AcDbVertex
100
AcDb2dVertex
62
5
10
125.937500
20
290.500000
0
SEQEND
5
33b
100
AcDbEntity
8
1
0
POLYLINE
5
33c
100
AcDbEntity
8
1
6
CONTINUOUS
62
5
100
AcDb2dPolyline
66
1
10
0.0
20
0.0
30
0.0
70
0
0
VERTEX
5
33d
100
AcDbEntity
8
1
100
AcDbVertex
100
AcDb2dVertex
62
5
10
105.625000
20
290.500000
0
VERTEX
5
33e
100
AcDbEntity
8
1
100
AcDbVertex
100
AcDb2dVertex
62
5
10
102.500000
20
290.500000
0
VERTEX
5
33f
100
AcDbEntity
8
1
100
AcDbVertex
100
AcDb2dVertex
62
5
10
102.500000
20
283.000000
0
VERTEX
5
340
100
AcDbEntity
8
1
100
AcDbVertex
100
AcDb2dVertex
62
5
10
105.937500
20
283.000000
0
SEQEND
5
341
100
AcDbEntity
8
1
0
LINE
5
342
100
AcDbEntity
8
1
100
AcDbLine
6
CONTINUOUS
62
5
10
102.500000
20
286.750000
11
105.312500
21
286.750000
0
LINE
5
343
100
AcDbEntity
8
1
100
AcDbLine
6
CONTINUOUS
62
5
10
107.500000
20
290.500000
11
107.500000
21
283.000000
0
LINE
5
344
100
AcDbEntity
8
1
100
AcDbLine
6
CONTINUOUS
62
5
10
110.625000
20
290.500000
11
107.500000
21
286.125000
0
LINE
5
345
100
AcDbEntity
8
1
100
AcDbLine
6
CONTINUOUS
62
5
10
108.437500
20
287.375000
11
110.937500
21
283.000000
0
POLYLINE
5
346
100
AcDbEntity
8
1
6
CONTINUOUS
62
5
100
AcDb2dPolyline
66
1
10
0.0
20
0.0
30
0.0
70
0
0
VERTEX
5
347
100
AcDbEntity
8
1
100
AcDbVertex
100
AcDb2dVertex
62
5
10
87.500000
20
290.500000
0
VERTEX
5
348
100
AcDbEntity
8
1
100
AcDbVertex
100
AcDb2dVertex
62
5
10
87.500000
20
283.000000
0
VERTEX
5
349
100
AcDbEntity
8
1
100
AcDbVertex
100
AcDb2dVertex
62
5
10
90.625000
20
283.000000
0
SEQEND
5
34a
100
AcDbEntity
8
1
0
LINE
5
34b
100
AcDbEntity
8
1
100
AcDbLine
6
CONTINUOUS
62
5
10
93.125000
20
290.500000
11
95.000000
21
290.500000
0
LINE
5
34c
100
AcDbEntity
8
1
100
AcDbLine
6
CONTINUOUS
62
5
10
94.062500
20
290.500000
11
94.062500
21
283.000000
0
LINE
5
34d
100
AcDbEntity
8
1
100
AcDbLine
6
CONTINUOUS
62
5
10
93.125000
20
283.000000
11
95.000000
21
283.000000
0
POLYLINE
5
34e
100
AcDbEntity
8
1
6
CONTINUOUS
62
5
100
AcDb2dPolyline
66
1
10
0.0
20
0.0
30
0.0
70
0
0
VERTEX
5
34f
100
AcDbEntity
8
1
100
AcDbVertex
100
AcDb2dVertex
62
5
10
100.312500
20
288.937500
0
VERTEX
5
350
100
AcDbEntity
8
1
100
AcDbVertex
100
AcDb2dVertex
62
5
10
100.000000
20
289.875000
0
VERTEX
5
351
100
AcDbEntity
8
1
100
AcDbVertex
100
AcDb2dVertex
62
5
10
99.375000
20
290.500000
0
VERTEX
5
352
100
AcDbEntity
8
1
100
AcDbVertex
100
AcDb2dVertex
62
5
10
98.437500
20
290.500000
0
VERTEX
5
353
100
AcDbEntity
8
1
100
AcDbVertex
100
AcDb2dVertex
62
5
10
97.812500
20
289.875000
0
VERTEX
5
354
100
AcDbEntity
8
1
100
AcDbVertex
100
AcDb2dVertex
62
5
10
97.500000
20
289.250000
0
VERTEX
5
355
100
AcDbEntity
8
1
100
AcDbVertex
100
AcDb2dVertex
62
5
10
97.187500
20
287.687500
0
VERTEX
5
356
100
AcDbEntity
8
1
100
AcDbVertex
100
AcDb2dVertex
62
5
10
97.187500
20
285.812500
0
VERTEX
5
357
100
AcDbEntity
8
1
100
AcDbVertex
100
AcDb2dVertex
62
5
10
97.500000
20
284.250000
0
VERTEX
5
358
100
AcDbEntity
8
1
100
AcDbVertex
100
AcDb2dVertex
62
5
10
97.812500
20
283.625000
0
VERTEX
5
359
100
AcDbEntity
8
1
100
AcDbVertex
100
AcDb2dVertex
62
5
10
98.437500
20
283.000000
0
VERTEX
5
35a
100
AcDbEntity
8
1
100
AcDbVertex
100
AcDb2dVertex
62
5
10
99.375000
20
283.000000
0
VERTEX
5
35b
100
AcDbEntity
8
1
100
AcDbVertex
100
AcDb2dVertex
62
5
10
100.000000
20
283.625000
0
VERTEX
5
35c
100
AcDbEntity
8
1
100
AcDbVertex
100
AcDb2dVertex
62
5
10
100.312500
20
284.250000
0
SEQEND
5
35d
100
AcDbEntity
8
1
0
LINE
5
35e
100
AcDbEntity
8
1
100
AcDbLine
6
CONTINUOUS
62
5
10
99.687500
20
286.437500
11
100.937500
21
286.437500
0
LINE
5
35f
100
AcDbEntity
8
1
100
AcDbLine
6
CONTINUOUS
62
5
10
100.312500
20
286.437500
11
100.312500
21
283.000000
0
LINE
5
360
100
AcDbEntity
8
1
100
AcDbLine
6
CONTINUOUS
62
5
10
117.500000
20
290.500000
11
117.500000
21
283.000000
0
POLYLINE
5
361
100
AcDbEntity
8
1
6
CONTINUOUS
62
5
100
AcDb2dPolyline
66
1
10
0.0
20
0.0
30
0.0
70
0
0
VERTEX
5
362
100
AcDbEntity
8
1
100
AcDbVertex
100
AcDb2dVertex
62
5
10
117.500000
20
290.500000
0
VERTEX
5
363
100
AcDbEntity
8
1
100
AcDbVertex
100
AcDb2dVertex
62
5
10
118.750000
20
290.500000
0
VERTEX
5
364
100
AcDbEntity
8
1
100
AcDbVertex
100
AcDb2dVertex
62
5
10
119.687500
20
290.187500
0
VERTEX
5
365
100
AcDbEntity
8
1
100
AcDbVertex
100
AcDb2dVertex
62
5
10
120.312500
20
289.562500
0
VERTEX
5
366
100
AcDbEntity
8
1
100
AcDbVertex
100
AcDb2dVertex
62
5
10
120.625000
20
288.937500
0
VERTEX
5
367
100
AcDbEntity
8
1
100
AcDbVertex
100
AcDb2dVertex
62
5
10
120.625000
20
288.000000
0
VERTEX
5
368
100
AcDbEntity
8
1
100
AcDbVertex
100
AcDb2dVertex
62
5
10
120.312500
20
287.375000
0
VERTEX
5
369
100
AcDbEntity
8
1
100
AcDbVertex
100
AcDb2dVertex
62
5
10
119.687500
20
286.750000
0
VERTEX
5
36a
100
AcDbEntity
8
1
100
AcDbVertex
100
AcDb2dVertex
62
5
10
118.750000
20
286.437500
0
VERTEX
5
36b
100
AcDbEntity
8
1
100
AcDbVertex
100
AcDb2dVertex
62
5
10
117.500000
20
286.437500
0
SEQEND
5
36c
100
AcDbEntity
8
1
0
LINE
5
36d
100
AcDbEntity
8
1
100
AcDbLine
6
CONTINUOUS
62
5
10
72.500000
20
290.500000
11
72.500000
21
283.000000
0
POLYLINE
5
36e
100
AcDbEntity
8
1
6
CONTINUOUS
62
5
100
AcDb2dPolyline
66
1
10
0.0
20
0.0
30
0.0
70
0
0
VERTEX
5
36f
100
AcDbEntity
8
1
100
AcDbVertex
100
AcDb2dVertex
62
5
10
72.500000
20
290.500000
0
VERTEX
5
370
100
AcDbEntity
8
1
100
AcDbVertex
100
AcDb2dVertex
62
5
10
74.062500
20
290.500000
0
VERTEX
5
371
100
AcDbEntity
8
1
100
AcDbVertex
100
AcDb2dVertex
62
5
10
74.687500
20
290.187500
0
VERTEX
5
372
100
AcDbEntity
8
1
100
AcDbVertex
100
AcDb2dVertex
62
5
10
75.000000
20
289.875000
0
VERTEX
5
373
100
AcDbEntity
8
1
100
AcDbVertex
100
AcDb2dVertex
62
5
10
75.312500
20
289.250000
0
VERTEX
5
374
100
AcDbEntity
8
1
100
AcDbVertex
100
AcDb2dVertex
62
5
10
75.312500
20
288.312500
0
VERTEX
5
375
100
AcDbEntity
8
1
100
AcDbVertex
100
AcDb2dVertex
62
5
10
75.000000
20
287.687500
0
VERTEX
5
376
100
AcDbEntity
8
1
100
AcDbVertex
100
AcDb2dVertex
62
5
10
74.687500
20
287.375000
0
VERTEX
5
377
100
AcDbEntity
8
1
100
AcDbVertex
100
AcDb2dVertex
62
5
10
74.062500
20
287.062500
0
VERTEX
5
378
100
AcDbEntity
8
1
100
AcDbVertex
100
AcDb2dVertex
62
5
10
72.500000
20
287.062500
0
SEQEND
5
379
100
AcDbEntity
8
1
0
POLYLINE
5
37a
100
AcDbEntity
8
1
6
CONTINUOUS
62
5
100
AcDb2dPolyline
66
1
10
0.0
20
0.0
30
0.0
70
0
0
VERTEX
5
37b
100
AcDbEntity
8
1
100
AcDbVertex
100
AcDb2dVertex
62
5
10
74.062500
20
287.062500
0
VERTEX
5
37c
100
AcDbEntity
8
1
100
AcDbVertex
100
AcDb2dVertex
62
5
10
74.687500
20
286.750000
0
VERTEX
5
37d
100
AcDbEntity
8
1
100
AcDbVertex
100
AcDb2dVertex
62
5
10
75.312500
20
286.125000
0
VERTEX
5
37e
100
AcDbEntity
8
1
100
AcDbVertex
100
AcDb2dVertex
62
5
10
75.625000
20
285.500000
0
VERTEX
5
37f
100
AcDbEntity
8
1
100
AcDbVertex
100
AcDb2dVertex
62
5
10
75.625000
20
284.250000
0
VERTEX
5
380
100
AcDbEntity
8
1
100
AcDbVertex
100
AcDb2dVertex
62
5
10
75.312500
20
283.625000
0
VERTEX
5
381
100
AcDbEntity
8
1
100
AcDbVertex
100
AcDb2dVertex
62
5
10
75.000000
20
283.312500
0
VERTEX
5
382
100
AcDbEntity
8
1
100
AcDbVertex
100
AcDb2dVertex
62
5
10
74.375000
20
283.000000
0
VERTEX
5
383
100
AcDbEntity
8
1
100
AcDbVertex
100
AcDb2dVertex
62
5
10
72.500000
20
283.000000
0
SEQEND
5
384
100
AcDbEntity
8
1
0
POLYLINE
5
385
100
AcDbEntity
8
1
6
CONTINUOUS
62
5
100
AcDb2dPolyline
66
1
10
0.0
20
0.0
30
0.0
70
0
0
VERTEX
5
386
100
AcDbEntity
8
1
100
AcDbVertex
100
AcDb2dVertex
62
5
10
77.500000
20
283.000000
0
VERTEX
5
387
100
AcDbEntity
8
1
100
AcDbVertex
100
AcDb2dVertex
62
5
10
77.500000
20
290.500000
0
VERTEX
5
388
100
AcDbEntity
8
1
100
AcDbVertex
100
AcDb2dVertex
62
5
10
80.625000
20
283.000000
0
VERTEX
5
389
100
AcDbEntity
8
1
100
AcDbVertex
100
AcDb2dVertex
62
5
10
80.625000
20
290.500000
0
SEQEND
5
38a
100
AcDbEntity
8
1
0
POLYLINE
5
38b
100
AcDbEntity
8
1
6
CONTINUOUS
62
5
100
AcDb2dPolyline
66
1
10
0.0
20
0.0
30
0.0
70
0
0
VERTEX
5
38c
100
AcDbEntity
8
1
100
AcDbVertex
100
AcDb2dVertex
62
5
10
65.625000
20
288.937500
0
VERTEX
5
38d
100
AcDbEntity
8
1
100
AcDbVertex
100
AcDb2dVertex
62
5
10
65.312500
20
289.875000
0
VERTEX
5
38e
100
AcDbEntity
8
1
100
AcDbVertex
100
AcDb2dVertex
62
5
10
64.687500
20
290.500000
0
VERTEX
5
38f
100
AcDbEntity
8
1
100
AcDbVertex
100
AcDb2dVertex
62
5
10
63.750000
20
290.500000
0
VERTEX
5
390
100
AcDbEntity
8
1
100
AcDbVertex
100
AcDb2dVertex
62
5
10
62.812500
20
289.562500
0
VERTEX
5
391
100
AcDbEntity
8
1
100
AcDbVertex
100
AcDb2dVertex
62
5
10
62.500000
20
288.000000
0
VERTEX
5
392
100
AcDbEntity
8
1
100
AcDbVertex
100
AcDb2dVertex
62
5
10
62.500000
20
285.500000
0
VERTEX
5
393
100
AcDbEntity
8
1
100
AcDbVertex
100
AcDb2dVertex
62
5
10
62.812500
20
283.937500
0
VERTEX
5
394
100
AcDbEntity
8
1
100
AcDbVertex
100
AcDb2dVertex
62
5
10
63.750000
20
283.000000
0
VERTEX
5
395
100
AcDbEntity
8
1
100
AcDbVertex
100
AcDb2dVertex
62
5
10
64.687500
20
283.000000
0
VERTEX
5
396
100
AcDbEntity
8
1
100
AcDbVertex
100
AcDb2dVertex
62
5
10
65.312500
20
283.625000
0
VERTEX
5
397
100
AcDbEntity
8
1
100
AcDbVertex
100
AcDb2dVertex
62
5
10
65.937500
20
285.187500
0
SEQEND
5
398
100
AcDbEntity
8
1
0
POLYLINE
5
399
100
AcDbEntity
8
1
6
CONTINUOUS
62
5
100
AcDb2dPolyline
66
1
10
0.0
20
0.0
30
0.0
70
0
0
VERTEX
5
39a
100
AcDbEntity
8
1
100
AcDbVertex
100
AcDb2dVertex
62
5
10
55.312500
20
290.500000
0
VERTEX
5
39b
100
AcDbEntity
8
1
100
AcDbVertex
100
AcDb2dVertex
62
5
10
55.312500
20
284.875000
0
VERTEX
5
39c
100
AcDbEntity
8
1
100
AcDbVertex
100
AcDb2dVertex
62
5
10
55.000000
20
283.625000
0
VERTEX
5
39d
100
AcDbEntity
8
1
100
AcDbVertex
100
AcDb2dVertex
62
5
10
54.375000
20
283.000000
0
VERTEX
5
39e
100
AcDbEntity
8
1
100
AcDbVertex
100
AcDb2dVertex
62
5
10
53.437500
20
283.000000
0
VERTEX
5
39f
100
AcDbEntity
8
1
100
AcDbVertex
100
AcDb2dVertex
62
5
10
52.812500
20
283.625000
0
VERTEX
5
3a0
100
AcDbEntity
8
1
100
AcDbVertex
100
AcDb2dVertex
62
5
10
52.500000
20
284.875000
0
SEQEND
5
3a1
100
AcDbEntity
8
1
0
POLYLINE
5
3a2
100
AcDbEntity
8
1
6
CONTINUOUS
62
5
100
AcDb2dPolyline
66
1
10
0.0
20
0.0
30
0.0
70
0
0
VERTEX
5
3a3
100
AcDbEntity
8
1
100
AcDbVertex
100
AcDb2dVertex
62
5
10
60.625000
20
290.500000
0
VERTEX
5
3a4
100
AcDbEntity
8
1
100
AcDbVertex
100
AcDb2dVertex
62
5
10
57.500000
20
290.500000
0
VERTEX
5
3a5
100
AcDbEntity
8
1
100
AcDbVertex
100
AcDb2dVertex
62
5
10
57.500000
20
283.000000
0
VERTEX
5
3a6
100
AcDbEntity
8
1
100
AcDbVertex
100
AcDb2dVertex
62
5
10
60.937500
20
283.000000
0
SEQEND
5
3a7
100
AcDbEntity
8
1
0
LINE
5
3a8
100
AcDbEntity
8
1
100
AcDbLine
6
CONTINUOUS
62
5
10
57.500000
20
286.750000
11
60.312500
21
286.750000
0
LINE
5
3a9
100
AcDbEntity
8
1
100
AcDbLine
6
CONTINUOUS
62
5
10
66.500000
20
326.500000
11
68.500000
21
326.500000
0
LINE
5
3aa
100
AcDbEntity
8
1
100
AcDbLine
6
CONTINUOUS
62
5
10
66.250000
20
322.125000
11
68.500000
21
323.375000
0
LINE
5
3ab
100
AcDbEntity
8
1
100
AcDbLine
6
CONTINUOUS
62
5
10
67.500000
20
329.000000
11
67.500000
21
322.750000
0
POLYLINE
5
3ac
100
AcDbEntity
8
1
6
CONTINUOUS
62
5
100
AcDb2dPolyline
66
1
10
0.0
20
0.0
30
0.0
70
1
0
VERTEX
5
3ad
100
AcDbEntity
8
1
100
AcDbVertex
100
AcDb2dVertex
62
5
10
69.500000
20
328.687500
0
VERTEX
5
3ae
100
AcDbEntity
8
1
100
AcDbVertex
100
AcDb2dVertex
62
5
10
69.500000
20
325.250000
0
VERTEX
5
3af
100
AcDbEntity
8
1
100
AcDbVertex
100
AcDb2dVertex
62
5
10
72.500000
20
325.250000
0
VERTEX
5
3b0
100
AcDbEntity
8
1
100
AcDbVertex
100
AcDb2dVertex
62
5
10
72.500000
20
328.687500
0
VERTEX
5
3b1
100
AcDbEntity
8
1
100
AcDbVertex
100
AcDb2dVertex
62
5
10
69.500000
20
328.687500
0
SEQEND
5
3b2
100
AcDbEntity
8
1
0
LINE
5
3b3
100
AcDbEntity
8
1
100
AcDbLine
6
CONTINUOUS
62
5
10
69.500000
20
327.125000
11
72.500000
21
327.125000
0
LINE
5
3b4
100
AcDbEntity
8
1
100
AcDbLine
6
CONTINUOUS
62
5
10
71.000000
20
328.687500
11
71.000000
21
321.500000
0
LINE
5
3b5
100
AcDbEntity
8
1
100
AcDbLine
6
CONTINUOUS
62
5
10
69.000000
20
323.687500
11
73.000000
21
323.687500
0
LINE
5
3b6
100
AcDbEntity
8
1
100
AcDbLine
6
CONTINUOUS
62
5
10
68.250000
20
321.500000
11
73.500000
21
321.500000
0
LINE
5
3b7
100
AcDbEntity
8
1
100
AcDbLine
6
CONTINUOUS
62
5
10
67.500000
20
286.750000
11
70.625000
21
286.750000
0
POLYLINE
5
3b8
100
AcDbEntity
8
1
6
DOT2
62
5
100
AcDb2dPolyline
66
1
10
0.0
20
0.0
30
0.0
70
0
0
VERTEX
5
3b9
100
AcDbEntity
8
1
100
AcDbVertex
100
AcDb2dVertex
62
5
10
114.500000
20
215.912500
0
VERTEX
5
3ba
100
AcDbEntity
8
1
100
AcDbVertex
100
AcDb2dVertex
62
5
10
114.812500
20
217.475000
0
VERTEX
5
3bb
100
AcDbEntity
8
1
100
AcDbVertex
100
AcDb2dVertex
62
5
10
115.750000
20
218.100000
0
VERTEX
5
3bc
100
AcDbEntity
8
1
100
AcDbVertex
100
AcDb2dVertex
62
5
10
116.687500
20
218.100000
0
VERTEX
5
3bd
100
AcDbEntity
8
1
100
AcDbVertex
100
AcDb2dVertex
62
5
10
117.312500
20
217.787500
0
VERTEX
5
3be
100
AcDbEntity
8
1
100
AcDbVertex
100
AcDb2dVertex
62
5
10
117.625000
20
216.850000
0
VERTEX
5
3bf
100
AcDbEntity
8
1
100
AcDbVertex
100
AcDb2dVertex
62
5
10
117.625000
20
215.912500
0
VERTEX
5
3c0
100
AcDbEntity
8
1
100
AcDbVertex
100
AcDb2dVertex
62
5
10
117.312500
20
214.975000
0
VERTEX
5
3c1
100
AcDbEntity
8
1
100
AcDbVertex
100
AcDb2dVertex
62
5
10
114.500000
20
210.600000
0
VERTEX
5
3c2
100
AcDbEntity
8
1
100
AcDbVertex
100
AcDb2dVertex
62
5
10
117.625000
20
210.600000
0
VERTEX
5
3c3
100
AcDbEntity
8
1
100
AcDbVertex
100
AcDb2dVertex
62
5
10
117.625000
20
211.537500
0
SEQEND
5
3c4
100
AcDbEntity
8
1
0
POLYLINE
5
3c5
100
AcDbEntity
8
1
6
DOT2
62
5
100
AcDb2dPolyline
66
1
10
0.0
20
0.0
30
0.0
70
1
0
VERTEX
5
3c6
100
AcDbEntity
8
1
100
AcDbVertex
100
AcDb2dVertex
62
5
10
120.750000
20
218.100000
0
VERTEX
5
3c7
100
AcDbEntity
8
1
100
AcDbVertex
100
AcDb2dVertex
62
5
10
121.375000
20
218.100000
0
VERTEX
5
3c8
100
AcDbEntity
8
1
100
AcDbVertex
100
AcDb2dVertex
62
5
10
122.000000
20
217.787500
0
VERTEX
5
3c9
100
AcDbEntity
8
1
100
AcDbVertex
100
AcDb2dVertex
62
5
10
122.312500
20
217.162500
0
VERTEX
5
3ca
100
AcDbEntity
8
1
100
AcDbVertex
100
AcDb2dVertex
62
5
10
122.312500
20
215.912500
0
VERTEX
5
3cb
100
AcDbEntity
8
1
100
AcDbVertex
100
AcDb2dVertex
62
5
10
122.000000
20
215.287500
0
VERTEX
5
3cc
100
AcDbEntity
8
1
100
AcDbVertex
100
AcDb2dVertex
62
5
10
120.125000
20
214.037500
0
VERTEX
5
3cd
100
AcDbEntity
8
1
100
AcDbVertex
100
AcDb2dVertex
62
5
10
119.500000
20
213.100000
0
VERTEX
5
3ce
100
AcDbEntity
8
1
100
AcDbVertex
100
AcDb2dVertex
62
5
10
119.500000
20
211.850000
0
VERTEX
5
3cf
100
AcDbEntity
8
1
100
AcDbVertex
100
AcDb2dVertex
62
5
10
119.812500
20
211.225000
0
VERTEX
5
3d0
100
AcDbEntity
8
1
100
AcDbVertex
100
AcDb2dVertex
62
5
10
120.125000
20
210.912500
0
VERTEX
5
3d1
100
AcDbEntity
8
1
100
AcDbVertex
100
AcDb2dVertex
62
5
10
120.750000
20
210.600000
0
VERTEX
5
3d2
100
AcDbEntity
8
1
100
AcDbVertex
100
AcDb2dVertex
62
5
10
121.375000
20
210.600000
0
VERTEX
5
3d3
100
AcDbEntity
8
1
100
AcDbVertex
100
AcDb2dVertex
62
5
10
122.000000
20
210.912500
0
VERTEX
5
3d4
100
AcDbEntity
8
1
100
AcDbVertex
100
AcDb2dVertex
62
5
10
122.312500
20
211.225000
0
VERTEX
5
3d5
100
AcDbEntity
8
1
100
AcDbVertex
100
AcDb2dVertex
62
5
10
122.625000
20
211.850000
0
VERTEX
5
3d6
100
AcDbEntity
8
1
100
AcDbVertex
100
AcDb2dVertex
62
5
10
122.625000
20
213.100000
0
VERTEX
5
3d7
100
AcDbEntity
8
1
100
AcDbVertex
100
AcDb2dVertex
62
5
10
122.000000
20
214.037500
0
VERTEX
5
3d8
100
AcDbEntity
8
1
100
AcDbVertex
100
AcDb2dVertex
62
5
10
120.125000
20
215.287500
0
VERTEX
5
3d9
100
AcDbEntity
8
1
100
AcDbVertex
100
AcDb2dVertex
62
5
10
119.812500
20
215.912500
0
VERTEX
5
3da
100
AcDbEntity
8
1
100
AcDbVertex
100
AcDb2dVertex
62
5
10
119.812500
20
217.162500
0
VERTEX
5
3db
100
AcDbEntity
8
1
100
AcDbVertex
100
AcDb2dVertex
62
5
10
120.125000
20
217.787500
0
VERTEX
5
3dc
100
AcDbEntity
8
1
100
AcDbVertex
100
AcDb2dVertex
62
5
10
120.750000
20
218.100000
0
SEQEND
5
3dd
100
AcDbEntity
8
1
0
ARC
5
3de
100
AcDbEntity
8
1
100
AcDbCircle
6
CONTINUOUS
62
5
10
136.750000
20
182.500000
40
1.500000
100
AcDbArc
50
0.000000
51
89.999999
0
LINE
5
3df
100
AcDbEntity
8
1
100
AcDbLine
6
CONTINUOUS
62
5
10
138.250000
20
182.500000
11
138.250000
21
181.600000
0
LINE
5
3e0
100
AcDbEntity
8
1
100
AcDbLine
6
CONTINUOUS
62
5
10
132.009934
20
184.000000
11
136.750000
21
184.000000
0
LINE
5
3e1
100
AcDbEntity
8
1
100
AcDbLine
6
CONTINUOUS
62
5
10
133.750000
20
174.900000
11
132.250000
21
173.400000
0
POLYLINE
5
3e2
100
AcDbEntity
8
1
6
CONTINUOUS
62
5
100
AcDb2dPolyline
66
1
10
0.0
20
0.0
30
0.0
70
0
0
VERTEX
5
3e3
100
AcDbEntity
8
1
100
AcDbVertex
100
AcDb2dVertex
62
5
10
135.050000
20
180.100000
0
VERTEX
5
3e4
100
AcDbEntity
8
1
100
AcDbVertex
100
AcDb2dVertex
62
5
10
133.750000
20
180.100000
0
VERTEX
5
3e5
100
AcDbEntity
8
1
100
AcDbVertex
100
AcDb2dVertex
62
5
10
133.750000
20
174.900000
0
VERTEX
5
3e6
100
AcDbEntity
8
1
100
AcDbVertex
100
AcDb2dVertex
62
5
10
135.050000
20
174.900000
0
SEQEND
5
3e7
100
AcDbEntity
8
1
0
ARC
5
3e8
100
AcDbEntity
8
1
100
AcDbCircle
6
CONTINUOUS
62
5
10
132.750000
20
169.000000
40
0.500000
100
AcDbArc
50
0.000000
51
89.999999
0
ARC
5
3e9
100
AcDbEntity
8
1
100
AcDbCircle
6
CONTINUOUS
62
5
10
132.750000
20
167.000000
40
0.500000
100
AcDbArc
50
-89.999999
51
0.000000
0
LINE
5
3ea
100
AcDbEntity
8
1
100
AcDbLine
6
CONTINUOUS
62
5
10
132.750000
20
166.500000
11
132.250000
21
166.500000
0
LINE
5
3eb
100
AcDbEntity
8
1
100
AcDbLine
6
CONTINUOUS
62
5
10
132.250000
20
169.500000
11
132.750000
21
169.500000
0
LINE
5
3ec
100
AcDbEntity
8
1
100
AcDbLine
6
CONTINUOUS
62
5
10
134.250000
20
169.550000
11
134.050000
21
169.550000
0
LINE
5
3ed
100
AcDbEntity
8
1
100
AcDbLine
6
CONTINUOUS
62
5
10
133.250000
20
165.200000
11
133.250000
21
164.000000
0
ARC
5
3ee
100
AcDbEntity
8
1
100
AcDbCircle
6
CONTINUOUS
62
5
10
136.250000
20
170.000000
40
2.000000
100
AcDbArc
50
-25.841933
51
-0.000000
0
LINE
5
3ef
100
AcDbEntity
8
1
100
AcDbLine
6
CONTINUOUS
62
5
10
138.250000
20
178.000000
11
138.250000
21
170.000000
0
POLYLINE
5
3f0
100
AcDbEntity
8
1
6
CONTINUOUS
62
5
100
AcDb2dPolyline
66
1
10
0.0
20
0.0
30
0.0
70
0
0
VERTEX
5
3f1
100
AcDbEntity
8
1
100
AcDbVertex
100
AcDb2dVertex
62
5
10
134.250000
20
165.200000
0
VERTEX
5
3f2
100
AcDbEntity
8
1
100
AcDbVertex
100
AcDb2dVertex
62
5
10
133.250000
20
165.200000
0
VERTEX
5
3f3
100
AcDbEntity
8
1
100
AcDbVertex
100
AcDb2dVertex
62
5
10
133.250000
20
173.600000
0
VERTEX
5
3f4
100
AcDbEntity
8
1
100
AcDbVertex
100
AcDb2dVertex
62
5
10
134.050000
20
173.600000
0
VERTEX
5
3f5
100
AcDbEntity
8
1
100
AcDbVertex
100
AcDb2dVertex
62
5
10
134.050000
20
165.200000
0
SEQEND
5
3f6
100
AcDbEntity
8
1
0
POLYLINE
5
3f7
100
AcDbEntity
8
1
6
CONTINUOUS
62
5
100
AcDb2dPolyline
66
1
10
0.0
20
0.0
30
0.0
70
0
0
VERTEX
5
3f8
100
AcDbEntity
8
1
100
AcDbVertex
100
AcDb2dVertex
62
5
10
122.148093
20
178.650000
0
VERTEX
5
3f9
100
AcDbEntity
8
1
100
AcDbVertex
100
AcDb2dVertex
62
5
10
122.148093
20
176.400000
0
VERTEX
5
3fa
100
AcDbEntity
8
1
100
AcDbVertex
100
AcDb2dVertex
62
5
10
121.898093
20
175.900000
0
VERTEX
5
3fb
100
AcDbEntity
8
1
100
AcDbVertex
100
AcDb2dVertex
62
5
10
121.648093
20
175.525000
0
SEQEND
5
3fc
100
AcDbEntity
8
1
0
POLYLINE
5
3fd
100
AcDbEntity
8
1
6
CONTINUOUS
62
5
100
AcDb2dPolyline
66
1
10
0.0
20
0.0
30
0.0
70
0
0
VERTEX
5
3fe
100
AcDbEntity
8
1
100
AcDbVertex
100
AcDb2dVertex
62
5
10
123.148093
20
175.650000
0
VERTEX
5
3ff
100
AcDbEntity
8
1
100
AcDbVertex
100
AcDb2dVertex
62
5
10
123.648093
20
175.400000
0
VERTEX
5
400
100
AcDbEntity
8
1
100
AcDbVertex
100
AcDb2dVertex
62
5
10
123.648093
20
178.650000
0
VERTEX
5
401
100
AcDbEntity
8
1
100
AcDbVertex
100
AcDb2dVertex
62
5
10
122.148093
20
178.650000
0
SEQEND
5
402
100
AcDbEntity
8
1
0
LINE
5
403
100
AcDbEntity
8
1
100
AcDbLine
6
CONTINUOUS
62
5
10
122.148093
20
177.650000
11
123.648093
21
177.650000
0
LINE
5
404
100
AcDbEntity
8
1
100
AcDbLine
6
CONTINUOUS
62
5
10
122.898093
20
178.650000
11
122.898093
21
175.400000
0
LINE
5
405
100
AcDbEntity
8
1
100
AcDbLine
6
CONTINUOUS
62
5
10
122.148093
20
176.650000
11
123.648093
21
176.650000
0
POLYLINE
5
406
100
AcDbEntity
8
1
6
CONTINUOUS
62
5
100
AcDb2dPolyline
66
1
10
0.0
20
0.0
30
0.0
70
1
0
VERTEX
5
407
100
AcDbEntity
8
1
100
AcDbVertex
100
AcDb2dVertex
62
5
10
115.614180
20
178.619791
0
VERTEX
5
408
100
AcDbEntity
8
1
100
AcDbVertex
100
AcDb2dVertex
62
5
10
116.114180
20
178.619791
0
VERTEX
5
409
100
AcDbEntity
8
1
100
AcDbVertex
100
AcDb2dVertex
62
5
10
116.364180
20
178.494791
0
VERTEX
5
40a
100
AcDbEntity
8
1
100
AcDbVertex
100
AcDb2dVertex
62
5
10
116.614180
20
178.244791
0
VERTEX
5
40b
100
AcDbEntity
8
1
100
AcDbVertex
100
AcDb2dVertex
62
5
10
116.739180
20
177.869791
0
VERTEX
5
40c
100
AcDbEntity
8
1
100
AcDbVertex
100
AcDb2dVertex
62
5
10
116.739180
20
176.369791
0
VERTEX
5
40d
100
AcDbEntity
8
1
100
AcDbVertex
100
AcDb2dVertex
62
5
10
116.614180
20
175.994791
0
VERTEX
5
40e
100
AcDbEntity
8
1
100
AcDbVertex
100
AcDb2dVertex
62
5
10
116.364180
20
175.744791
0
VERTEX
5
40f
100
AcDbEntity
8
1
100
AcDbVertex
100
AcDb2dVertex
62
5
10
116.114180
20
175.619791
0
VERTEX
5
410
100
AcDbEntity
8
1
100
AcDbVertex
100
AcDb2dVertex
62
5
10
115.614180
20
175.619791
0
VERTEX
5
411
100
AcDbEntity
8
1
100
AcDbVertex
100
AcDb2dVertex
62
5
10
115.364180
20
175.744791
0
VERTEX
5
412
100
AcDbEntity
8
1
100
AcDbVertex
100
AcDb2dVertex
62
5
10
115.114180
20
175.994791
0
VERTEX
5
413
100
AcDbEntity
8
1
100
AcDbVertex
100
AcDb2dVertex
62
5
10
114.989180
20
176.369791
0
VERTEX
5
414
100
AcDbEntity
8
1
100
AcDbVertex
100
AcDb2dVertex
62
5
10
114.989180
20
177.869791
0
VERTEX
5
415
100
AcDbEntity
8
1
100
AcDbVertex
100
AcDb2dVertex
62
5
10
115.114180
20
178.244791
0
VERTEX
5
416
100
AcDbEntity
8
1
100
AcDbVertex
100
AcDb2dVertex
62
5
10
115.364180
20
178.494791
0
VERTEX
5
417
100
AcDbEntity
8
1
100
AcDbVertex
100
AcDb2dVertex
62
5
10
115.614180
20
178.619791
0
SEQEND
5
418
100
AcDbEntity
8
1
0
POLYLINE
5
419
100
AcDbEntity
8
1
6
CONTINUOUS
62
5
100
AcDb2dPolyline
66
1
10
0.0
20
0.0
30
0.0
70
0
0
VERTEX
5
41a
100
AcDbEntity
8
1
100
AcDbVertex
100
AcDb2dVertex
62
5
10
112.482214
20
177.896249
0
VERTEX
5
41b
100
AcDbEntity
8
1
100
AcDbVertex
100
AcDb2dVertex
62
5
10
112.732214
20
178.271249
0
VERTEX
5
41c
100
AcDbEntity
8
1
100
AcDbVertex
100
AcDb2dVertex
62
5
10
113.232214
20
178.646249
0
VERTEX
5
41d
100
AcDbEntity
8
1
100
AcDbVertex
100
AcDb2dVertex
62
5
10
113.857214
20
178.646249
0
VERTEX
5
41e
100
AcDbEntity
8
1
100
AcDbVertex
100
AcDb2dVertex
62
5
10
114.357214
20
178.396249
0
VERTEX
5
41f
100
AcDbEntity
8
1
100
AcDbVertex
100
AcDb2dVertex
62
5
10
114.482214
20
178.146249
0
VERTEX
5
420
100
AcDbEntity
8
1
100
AcDbVertex
100
AcDb2dVertex
62
5
10
114.482214
20
177.771249
0
VERTEX
5
421
100
AcDbEntity
8
1
100
AcDbVertex
100
AcDb2dVertex
62
5
10
114.357214
20
177.521249
0
VERTEX
5
422
100
AcDbEntity
8
1
100
AcDbVertex
100
AcDb2dVertex
62
5
10
112.607214
20
175.646249
0
VERTEX
5
423
100
AcDbEntity
8
1
100
AcDbVertex
100
AcDb2dVertex
62
5
10
114.482214
20
175.646249
0
VERTEX
5
424
100
AcDbEntity
8
1
100
AcDbVertex
100
AcDb2dVertex
62
5
10
114.482214
20
176.271249
0
SEQEND
5
425
100
AcDbEntity
8
1
0
POLYLINE
5
426
100
AcDbEntity
8
1
6
CONTINUOUS
62
5
100
AcDb2dPolyline
66
1
10
0.0
20
0.0
30
0.0
70
1
0
VERTEX
5
427
100
AcDbEntity
8
1
100
AcDbVertex
100
AcDb2dVertex
62
5
10
117.915547
20
178.619791
0
VERTEX
5
428
100
AcDbEntity
8
1
100
AcDbVertex
100
AcDb2dVertex
62
5
10
118.415547
20
178.619791
0
VERTEX
5
429
100
AcDbEntity
8
1
100
AcDbVertex
100
AcDb2dVertex
62
5
10
118.665547
20
178.494791
0
VERTEX
5
42a
100
AcDbEntity
8
1
100
AcDbVertex
100
AcDb2dVertex
62
5
10
118.915547
20
178.244791
0
VERTEX
5
42b
100
AcDbEntity
8
1
100
AcDbVertex
100
AcDb2dVertex
62
5
10
119.040547
20
177.869791
0
VERTEX
5
42c
100
AcDbEntity
8
1
100
AcDbVertex
100
AcDb2dVertex
62
5
10
119.040547
20
176.369791
0
VERTEX
5
42d
100
AcDbEntity
8
1
100
AcDbVertex
100
AcDb2dVertex
62
5
10
118.915547
20
175.994791
0
VERTEX
5
42e
100
AcDbEntity
8
1
100
AcDbVertex
100
AcDb2dVertex
62
5
10
118.665547
20
175.744791
0
VERTEX
5
42f
100
AcDbEntity
8
1
100
AcDbVertex
100
AcDb2dVertex
62
5
10
118.415547
20
175.619791
0
VERTEX
5
430
100
AcDbEntity
8
1
100
AcDbVertex
100
AcDb2dVertex
62
5
10
117.915547
20
175.619791
0
VERTEX
5
431
100
AcDbEntity
8
1
100
AcDbVertex
100
AcDb2dVertex
62
5
10
117.665547
20
175.744791
0
VERTEX
5
432
100
AcDbEntity
8
1
100
AcDbVertex
100
AcDb2dVertex
62
5
10
117.415547
20
175.994791
0
VERTEX
5
433
100
AcDbEntity
8
1
100
AcDbVertex
100
AcDb2dVertex
62
5
10
117.290547
20
176.369791
0
VERTEX
5
434
100
AcDbEntity
8
1
100
AcDbVertex
100
AcDb2dVertex
62
5
10
117.290547
20
177.869791
0
VERTEX
5
435
100
AcDbEntity
8
1
100
AcDbVertex
100
AcDb2dVertex
62
5
10
117.415547
20
178.244791
0
VERTEX
5
436
100
AcDbEntity
8
1
100
AcDbVertex
100
AcDb2dVertex
62
5
10
117.665547
20
178.494791
0
VERTEX
5
437
100
AcDbEntity
8
1
100
AcDbVertex
100
AcDb2dVertex
62
5
10
117.915547
20
178.619791
0
SEQEND
5
438
100
AcDbEntity
8
1
0
POLYLINE
5
439
100
AcDbEntity
8
1
6
CONTINUOUS
62
5
100
AcDb2dPolyline
66
1
10
0.0
20
0.0
30
0.0
70
0
0
VERTEX
5
43a
100
AcDbEntity
8
1
100
AcDbVertex
100
AcDb2dVertex
62
5
10
119.229297
20
178.619791
0
VERTEX
5
43b
100
AcDbEntity
8
1
100
AcDbVertex
100
AcDb2dVertex
62
5
10
120.354297
20
175.619791
0
VERTEX
5
43c
100
AcDbEntity
8
1
100
AcDbVertex
100
AcDb2dVertex
62
5
10
121.479297
20
178.619791
0
SEQEND
5
43d
100
AcDbEntity
8
1
0
ARC
5
43e
100
AcDbEntity
8
1
100
AcDbCircle
6
CONTINUOUS
62
5
10
123.750000
20
175.900000
40
1.000000
100
AcDbArc
50
-89.999999
51
0.000000
0
LINE
5
43f
100
AcDbEntity
8
1
100
AcDbLine
6
CONTINUOUS
62
5
10
123.750000
20
174.900000
11
112.750000
21
174.900000
0
ARC
5
440
100
AcDbEntity
8
1
100
AcDbCircle
6
CONTINUOUS
62
5
10
112.750000
20
175.900000
40
1.000000
100
AcDbArc
50
179.999998
51
-89.999999
0
LINE
5
441
100
AcDbEntity
8
1
100
AcDbLine
6
CONTINUOUS
62
5
10
111.750000
20
175.900000
11
111.750000
21
178.400000
0
ARC
5
442
100
AcDbEntity
8
1
100
AcDbCircle
6
CONTINUOUS
62
5
10
112.750000
20
178.400000
40
1.000000
100
AcDbArc
50
89.999999
51
179.999998
0
LINE
5
443
100
AcDbEntity
8
1
100
AcDbLine
6
CONTINUOUS
62
5
10
112.750000
20
179.400000
11
123.750000
21
179.400000
0
ARC
5
444
100
AcDbEntity
8
1
100
AcDbCircle
6
CONTINUOUS
62
5
10
123.750000
20
178.400000
40
1.000000
100
AcDbArc
50
0.000000
51
89.999999
0
LINE
5
445
100
AcDbEntity
8
1
100
AcDbLine
6
CONTINUOUS
62
5
10
124.750000
20
178.400000
11
124.750000
21
175.900000
0
POLYLINE
5
446
100
AcDbEntity
8
1
6
CONTINUOUS
62
5
100
AcDb2dPolyline
66
1
10
0.0
20
0.0
30
0.0
70
0
0
VERTEX
5
447
100
AcDbEntity
8
1
100
AcDbVertex
100
AcDb2dVertex
62
5
10
115.050000
20
166.200000
0
VERTEX
5
448
100
AcDbEntity
8
1
100
AcDbVertex
100
AcDb2dVertex
62
5
10
116.150000
20
166.609302
0
VERTEX
5
449
100
AcDbEntity
8
1
100
AcDbVertex
100
AcDb2dVertex
62
5
10
116.150000
20
166.609302
0
SEQEND
5
44a
100
AcDbEntity
8
1
0
POLYLINE
5
44b
100
AcDbEntity
8
1
6
CONTINUOUS
62
5
100
AcDb2dPolyline
66
1
10
0.0
20
0.0
30
0.0
70
0
0
VERTEX
5
44c
100
AcDbEntity
8
1
100
AcDbVertex
100
AcDb2dVertex
62
5
10
115.050000
20
166.200000
0
VERTEX
5
44d
100
AcDbEntity
8
1
100
AcDbVertex
100
AcDb2dVertex
62
5
10
113.950000
20
166.609302
0
VERTEX
5
44e
100
AcDbEntity
8
1
100
AcDbVertex
100
AcDb2dVertex
62
5
10
113.950000
20
166.609302
0
SEQEND
5
44f
100
AcDbEntity
8
1
0
LINE
5
450
100
AcDbEntity
8
1
100
AcDbLine
6
CONTINUOUS
62
5
10
113.950000
20
166.200000
11
116.150000
21
166.200000
0
LINE
5
451
100
AcDbEntity
8
1
100
AcDbLine
6
CONTINUOUS
62
5
10
113.950000
20
165.500000
11
116.150000
21
165.500000
0
LINE
5
452
100
AcDbEntity
8
1
100
AcDbLine
6
CONTINUOUS
62
5
10
115.050000
20
171.500000
11
115.050000
21
166.200000
0
POLYLINE
5
453
100
AcDbEntity
8
1
6
CONTINUOUS
62
5
100
AcDb2dPolyline
66
1
10
0.0
20
0.0
30
0.0
70
1
0
VERTEX
5
454
100
AcDbEntity
8
1
100
AcDbVertex
100
AcDb2dVertex
62
5
10
113.950000
20
171.500000
0
VERTEX
5
455
100
AcDbEntity
8
1
100
AcDbVertex
100
AcDb2dVertex
62
5
10
116.150000
20
171.500000
0
VERTEX
5
456
100
AcDbEntity
8
1
100
AcDbVertex
100
AcDb2dVertex
62
5
10
116.150000
20
164.500000
0
VERTEX
5
457
100
AcDbEntity
8
1
100
AcDbVertex
100
AcDb2dVertex
62
5
10
113.950000
20
164.500000
0
VERTEX
5
458
100
AcDbEntity
8
1
100
AcDbVertex
100
AcDb2dVertex
62
5
10
113.950000
20
171.500000
0
SEQEND
5
459
100
AcDbEntity
8
1
0
LINE
5
45a
100
AcDbEntity
8
1
100
AcDbLine
6
CONTINUOUS
62
5
10
124.852382
20
160.600000
11
129.650000
21
160.600000
0
LINE
5
45b
100
AcDbEntity
8
1
100
AcDbLine
6
CONTINUOUS
62
5
10
133.750000
20
180.100000
11
132.250000
21
181.600000
0
ARC
5
45c
100
AcDbEntity
8
1
100
AcDbCircle
6
CONTINUOUS
62
5
10
99.750000
20
182.500000
40
1.500000
100
AcDbArc
50
89.999999
51
179.999998
0
LINE
5
45d
100
AcDbEntity
8
1
100
AcDbLine
6
CONTINUOUS
62
5
10
98.250000
20
182.500000
11
98.250000
21
181.600000
0
LINE
5
45e
100
AcDbEntity
8
1
100
AcDbLine
6
CONTINUOUS
62
5
10
104.490066
20
184.000000
11
99.750000
21
184.000000
0
LINE
5
45f
100
AcDbEntity
8
1
100
AcDbLine
6
CONTINUOUS
62
5
10
102.750000
20
174.900000
11
104.250000
21
173.400000
0
POLYLINE
5
460
100
AcDbEntity
8
1
6
CONTINUOUS
62
5
100
AcDb2dPolyline
66
1
10
0.0
20
0.0
30
0.0
70
0
0
VERTEX
5
461
100
AcDbEntity
8
1
100
AcDbVertex
100
AcDb2dVertex
62
5
10
101.450000
20
180.100000
0
VERTEX
5
462
100
AcDbEntity
8
1
100
AcDbVertex
100
AcDb2dVertex
62
5
10
102.750000
20
180.100000
0
VERTEX
5
463
100
AcDbEntity
8
1
100
AcDbVertex
100
AcDb2dVertex
62
5
10
102.750000
20
174.900000
0
VERTEX
5
464
100
AcDbEntity
8
1
100
AcDbVertex
100
AcDb2dVertex
62
5
10
101.450000
20
174.900000
0
SEQEND
5
465
100
AcDbEntity
8
1
0
ARC
5
466
100
AcDbEntity
8
1
100
AcDbCircle
6
CONTINUOUS
62
5
10
103.750000
20
169.000000
40
0.500000
100
AcDbArc
50
89.999999
51
179.999998
0
ARC
5
467
100
AcDbEntity
8
1
100
AcDbCircle
6
CONTINUOUS
62
5
10
103.750000
20
167.000000
40
0.500000
100
AcDbArc
50
179.999998
51
-89.999999
0
LINE
5
468
100
AcDbEntity
8
1
100
AcDbLine
6
CONTINUOUS
62
5
10
103.750000
20
166.500000
11
104.250000
21
166.500000
0
LINE
5
469
100
AcDbEntity
8
1
100
AcDbLine
6
CONTINUOUS
62
5
10
104.250000
20
169.500000
11
103.750000
21
169.500000
0
ARC
5
46a
100
AcDbEntity
8
1
100
AcDbCircle
6
CONTINUOUS
62
5
10
101.250000
20
166.000000
40
2.000000
100
AcDbArc
50
0.000000
51
5.739170
0
LINE
5
46b
100
AcDbEntity
8
1
100
AcDbLine
6
CONTINUOUS
62
5
10
103.250000
20
165.000000
11
103.250000
21
166.000000
0
LINE
5
46c
100
AcDbEntity
8
1
100
AcDbLine
6
CONTINUOUS
62
5
10
102.250000
20
169.250000
11
102.450000
21
169.250000
0
POLYLINE
5
46d
100
AcDbEntity
8
1
6
CONTINUOUS
62
5
100
AcDb2dPolyline
66
1
10
0.0
20
0.0
30
0.0
70
0
0
VERTEX
5
46e
100
AcDbEntity
8
1
100
AcDbVertex
100
AcDb2dVertex
62
5
10
102.250000
20
166.200000
0
VERTEX
5
46f
100
AcDbEntity
8
1
100
AcDbVertex
100
AcDb2dVertex
62
5
10
103.250000
20
166.200000
0
VERTEX
5
470
100
AcDbEntity
8
1
100
AcDbVertex
100
AcDb2dVertex
62
5
10
103.250000
20
173.600000
0
VERTEX
5
471
100
AcDbEntity
8
1
100
AcDbVertex
100
AcDb2dVertex
62
5
10
102.450000
20
173.600000
0
VERTEX
5
472
100
AcDbEntity
8
1
100
AcDbVertex
100
AcDb2dVertex
62
5
10
102.450000
20
166.200000
0
SEQEND
5
473
100
AcDbEntity
8
1
0
ARC
5
474
100
AcDbEntity
8
1
100
AcDbCircle
6
CONTINUOUS
62
5
10
100.250000
20
170.000000
40
2.000000
100
AcDbArc
50
179.999998
51
-154.158066
0
LINE
5
475
100
AcDbEntity
8
1
100
AcDbLine
6
CONTINUOUS
62
5
10
98.250000
20
178.000000
11
98.250000
21
170.000000
0
LINE
5
476
100
AcDbEntity
8
1
100
AcDbLine
6
CONTINUOUS
62
5
10
102.750000
20
180.100000
11
104.250000
21
181.600000
0
ARC
5
477
100
AcDbEntity
8
1
100
AcDbCircle
6
CONTINUOUS
62
5
10
118.355035
20
171.400000
40
2.000000
100
AcDbArc
50
3.619565
51
89.999999
0
ARC
5
478
100
AcDbEntity
8
1
100
AcDbCircle
6
CONTINUOUS
62
5
10
-79.250000
20
158.900000
40
200.000000
100
AcDbArc
50
1.012857
51
3.619565
0
ARC
5
479
100
AcDbEntity
8
1
100
AcDbCircle
6
CONTINUOUS
62
5
10
118.719063
20
162.400000
40
2.000000
100
AcDbArc
50
-89.999999
51
1.012857
0
LINE
5
47a
100
AcDbEntity
8
1
100
AcDbLine
6
CONTINUOUS
62
5
10
118.719063
20
160.400000
11
107.750000
21
160.400000
0
ARC
5
47b
100
AcDbEntity
8
1
100
AcDbCircle
6
CONTINUOUS
62
5
10
107.750000
20
162.400000
40
2.000000
100
AcDbArc
50
179.999998
51
-89.999999
0
LINE
5
47c
100
AcDbEntity
8
1
100
AcDbLine
6
CONTINUOUS
62
5
10
105.750000
20
162.400000
11
105.750000
21
171.400000
0
ARC
5
47d
100
AcDbEntity
8
1
100
AcDbCircle
6
CONTINUOUS
62
5
10
107.750000
20
171.400000
40
2.000000
100
AcDbArc
50
89.999999
51
179.999998
0
LINE
5
47e
100
AcDbEntity
8
1
100
AcDbLine
6
CONTINUOUS
62
5
10
107.750000
20
173.400000
11
118.355035
21
173.400000
0
LINE
5
47f
100
AcDbEntity
8
1
100
AcDbLine
6
CONTINUOUS
62
5
10
104.250000
20
184.850000
11
104.250000
21
211.350000
0
LINE
5
480
100
AcDbEntity
8
1
100
AcDbLine
6
CONTINUOUS
62
5
10
132.250000
20
184.850000
11
132.250000
21
211.350000
0
POLYLINE
5
481
100
AcDbEntity
8
1
6
CONTINUOUS
62
5
100
AcDb2dPolyline
66
1
10
0.0
20
0.0
30
0.0
70
0
0
VERTEX
5
482
100
AcDbEntity
8
1
100
AcDbVertex
100
AcDb2dVertex
62
5
10
118.250000
20
209.350000
0
VERTEX
5
483
100
AcDbEntity
8
1
100
AcDbVertex
100
AcDb2dVertex
62
5
10
104.250000
20
209.350000
0
VERTEX
5
484
100
AcDbEntity
8
1
100
AcDbVertex
100
AcDb2dVertex
62
5
10
110.250000
20
210.350000
0
VERTEX
5
485
100
AcDbEntity
8
1
100
AcDbVertex
100
AcDb2dVertex
62
5
10
110.250000
20
208.350000
0
VERTEX
5
486
100
AcDbEntity
8
1
100
AcDbVertex
100
AcDb2dVertex
62
5
10
104.250000
20
209.350000
0
VERTEX
5
487
100
AcDbEntity
8
1
100
AcDbVertex
100
AcDb2dVertex
62
5
10
110.250000
20
209.850000
0
VERTEX
5
488
100
AcDbEntity
8
1
100
AcDbVertex
100
AcDb2dVertex
62
5
10
110.250000
20
208.850000
0
VERTEX
5
489
100
AcDbEntity
8
1
100
AcDbVertex
100
AcDb2dVertex
62
5
10
104.250000
20
209.350000
0
SEQEND
5
48a
100
AcDbEntity
8
1
0
POLYLINE
5
48b
100
AcDbEntity
8
1
6
CONTINUOUS
62
5
100
AcDb2dPolyline
66
1
10
0.0
20
0.0
30
0.0
70
0
0
VERTEX
5
48c
100
AcDbEntity
8
1
100
AcDbVertex
100
AcDb2dVertex
62
5
10
118.250000
20
209.350000
0
VERTEX
5
48d
100
AcDbEntity
8
1
100
AcDbVertex
100
AcDb2dVertex
62
5
10
132.250000
20
209.350000
0
VERTEX
5
48e
100
AcDbEntity
8
1
100
AcDbVertex
100
AcDb2dVertex
62
5
10
126.250000
20
208.350000
0
VERTEX
5
48f
100
AcDbEntity
8
1
100
AcDbVertex
100
AcDb2dVertex
62
5
10
126.250000
20
210.350000
0
VERTEX
5
490
100
AcDbEntity
8
1
100
AcDbVertex
100
AcDb2dVertex
62
5
10
132.250000
20
209.350000
0
VERTEX
5
491
100
AcDbEntity
8
1
100
AcDbVertex
100
AcDb2dVertex
62
5
10
126.250000
20
208.850000
0
VERTEX
5
492
100
AcDbEntity
8
1
100
AcDbVertex
100
AcDb2dVertex
62
5
10
126.250000
20
209.850000
0
VERTEX
5
493
100
AcDbEntity
8
1
100
AcDbVertex
100
AcDb2dVertex
62
5
10
132.250000
20
209.350000
0
SEQEND
5
494
100
AcDbEntity
8
1
0
POLYLINE
5
495
100
AcDbEntity
8
1
6
CONTINUOUS
62
5
100
AcDb2dPolyline
66
1
10
0.0
20
0.0
30
0.0
70
0
0
VERTEX
5
496
100
AcDbEntity
8
1
100
AcDbVertex
100
AcDb2dVertex
62
5
10
148.500000
20
329.312500
0
VERTEX
5
497
100
AcDbEntity
8
1
100
AcDbVertex
100
AcDb2dVertex
62
5
10
147.500000
20
326.500000
0
VERTEX
5
498
100
AcDbEntity
8
1
100
AcDbVertex
100
AcDb2dVertex
62
5
10
146.250000
20
324.312500
0
SEQEND
5
499
100
AcDbEntity
8
1
0
LINE
5
49a
100
AcDbEntity
8
1
100
AcDbLine
6
CONTINUOUS
62
5
10
147.500000
20
326.500000
11
147.500000
21
320.562500
0
LINE
5
49b
100
AcDbEntity
8
1
100
AcDbLine
6
CONTINUOUS
62
5
10
148.250000
20
326.500000
11
153.500000
21
326.500000
0
POLYLINE
5
49c
100
AcDbEntity
8
1
6
CONTINUOUS
62
5
100
AcDb2dPolyline
66
1
10
0.0
20
0.0
30
0.0
70
0
0
VERTEX
5
49d
100
AcDbEntity
8
1
100
AcDbVertex
100
AcDb2dVertex
62
5
10
151.750000
20
329.312500
0
VERTEX
5
49e
100
AcDbEntity
8
1
100
AcDbVertex
100
AcDb2dVertex
62
5
10
151.750000
20
320.875000
0
VERTEX
5
49f
100
AcDbEntity
8
1
100
AcDbVertex
100
AcDb2dVertex
62
5
10
150.250000
20
321.187500
0
SEQEND
5
4a0
100
AcDbEntity
8
1
0
LINE
5
4a1
100
AcDbEntity
8
1
100
AcDbLine
6
CONTINUOUS
62
5
10
149.250000
20
325.250000
11
150.250000
21
323.375000
0
POLYLINE
5
4a2
100
AcDbEntity
8
1
6
CONTINUOUS
62
5
100
AcDb2dPolyline
66
1
10
0.0
20
0.0
30
0.0
70
0
0
VERTEX
5
4a3
100
AcDbEntity
8
1
100
AcDbVertex
100
AcDb2dVertex
62
5
10
147.000000
20
317.437500
0
VERTEX
5
4a4
100
AcDbEntity
8
1
100
AcDbVertex
100
AcDb2dVertex
62
5
10
152.250000
20
317.437500
0
VERTEX
5
4a5
100
AcDbEntity
8
1
100
AcDbVertex
100
AcDb2dVertex
62
5
10
152.250000
20
317.125000
0
VERTEX
5
4a6
100
AcDbEntity
8
1
100
AcDbVertex
100
AcDb2dVertex
62
5
10
150.500000
20
315.250000
0
VERTEX
5
4a7
100
AcDbEntity
8
1
100
AcDbVertex
100
AcDb2dVertex
62
5
10
149.750000
20
315.250000
0
SEQEND
5
4a8
100
AcDbEntity
8
1
0
POLYLINE
5
4a9
100
AcDbEntity
8
1
6
CONTINUOUS
62
5
100
AcDb2dPolyline
66
1
10
0.0
20
0.0
30
0.0
70
0
0
VERTEX
5
4aa
100
AcDbEntity
8
1
100
AcDbVertex
100
AcDb2dVertex
62
5
10
149.750000
20
316.187500
0
VERTEX
5
4ab
100
AcDbEntity
8
1
100
AcDbVertex
100
AcDb2dVertex
62
5
10
149.750000
20
314.625000
0
VERTEX
5
4ac
100
AcDbEntity
8
1
100
AcDbVertex
100
AcDb2dVertex
62
5
10
149.000000
20
312.750000
0
VERTEX
5
4ad
100
AcDbEntity
8
1
100
AcDbVertex
100
AcDb2dVertex
62
5
10
148.000000
20
311.500000
0
SEQEND
5
4ae
100
AcDbEntity
8
1
0
ARC
5
4af
100
AcDbEntity
8
1
100
AcDbCircle
6
CONTINUOUS
62
5
10
217.550000
20
129.965560
40
0.500000
100
AcDbArc
50
-85.914382
51
0.000000
0
LINE
5
4b0
100
AcDbEntity
8
1
100
AcDbLine
6
CONTINUOUS
62
5
10
218.050000
20
129.965560
11
218.050000
21
131.032293
0
ARC
5
4b1
100
AcDbEntity
8
1
100
AcDbCircle
6
CONTINUOUS
62
5
10
217.550000
20
131.032293
40
0.500000
100
AcDbArc
50
0.000000
51
86.177445
0
LINE
5
4b2
100
AcDbEntity
8
1
100
AcDbLine
6
CONTINUOUS
62
5
10
217.583333
20
131.531180
11
210.583333
21
131.998888
0
LINE
5
4b3
100
AcDbEntity
8
1
100
AcDbLine
6
CONTINUOUS
62
5
10
211.050000
20
129.000000
11
217.585624
21
129.466830
0
ARC
5
4b4
100
AcDbEntity
8
1
100
AcDbCircle
6
CONTINUOUS
62
5
10
219.350000
20
131.500000
40
2.000000
100
AcDbArc
50
-89.999999
51
0.000000
0
LINE
5
4b5
100
AcDbEntity
8
1
100
AcDbLine
6
CONTINUOUS
62
5
10
219.350000
20
129.500000
11
217.732357
21
129.500000
0
LINE
5
4b6
100
AcDbEntity
8
1
100
AcDbLine
6
CONTINUOUS
62
5
10
204.050000
20
135.200000
11
203.250000
21
135.200000
0
LINE
5
4b7
100
AcDbEntity
8
1
100
AcDbLine
6
CONTINUOUS
62
5
10
204.050000
20
132.300000
11
203.250000
21
132.300000
0
LINE
5
4b8
100
AcDbEntity
8
1
100
AcDbLine
6
CONTINUOUS
62
5
10
204.050000
20
121.600000
11
203.250000
21
121.600000
0
LINE
5
4b9
100
AcDbEntity
8
1
100
AcDbLine
6
CONTINUOUS
62
5
10
204.050000
20
118.800000
11
203.250000
21
118.800000
0
ARC
5
4ba
100
AcDbEntity
8
1
100
AcDbCircle
6
CONTINUOUS
62
5
10
201.050000
20
127.400000
40
1.000000
100
AcDbArc
50
179.999998
51
-89.999999
0
POLYLINE
5
4bb
100
AcDbEntity
8
1
6
CONTINUOUS
62
5
100
AcDb2dPolyline
66
1
10
0.0
20
0.0
30
0.0
70
0
0
VERTEX
5
4bc
100
AcDbEntity
8
1
100
AcDbVertex
100
AcDb2dVertex
62
5
10
201.050000
20
126.400000
0
VERTEX
5
4bd
100
AcDbEntity
8
1
100
AcDbVertex
100
AcDb2dVertex
62
5
10
201.550000
20
126.400000
0
VERTEX
5
4be
100
AcDbEntity
8
1
100
AcDbVertex
100
AcDb2dVertex
62
5
10
201.550000
20
130.150000
0
SEQEND
5
4bf
100
AcDbEntity
8
1
0
ARC
5
4c0
100
AcDbEntity
8
1
100
AcDbCircle
6
CONTINUOUS
62
5
10
201.850000
20
130.150000
40
0.300000
100
AcDbArc
50
89.999999
51
179.999998
0
LINE
5
4c1
100
AcDbEntity
8
1
100
AcDbLine
6
CONTINUOUS
62
5
10
201.850000
20
130.450000
11
203.250000
21
130.450000
0
LINE
5
4c2
100
AcDbEntity
8
1
100
AcDbLine
6
CONTINUOUS
62
5
10
203.250000
20
134.800000
11
201.050000
21
134.800000
0
ARC
5
4c3
100
AcDbEntity
8
1
100
AcDbCircle
6
CONTINUOUS
62
5
10
201.050000
20
133.800000
40
1.000000
100
AcDbArc
50
89.999999
51
179.999998
0
LINE
5
4c4
100
AcDbEntity
8
1
100
AcDbLine
6
CONTINUOUS
62
5
10
200.050000
20
133.800000
11
200.050000
21
127.400000
0
ARC
5
4c5
100
AcDbEntity
8
1
100
AcDbCircle
6
CONTINUOUS
62
5
10
210.049521
20
119.783594
40
0.860617
100
AcDbArc
50
23.469159
51
61.566062
0
LINE
5
4c6
100
AcDbEntity
8
1
100
AcDbLine
6
CONTINUOUS
62
5
10
210.838943
20
120.126339
11
211.396483
21
118.879197
0
ARC
5
4c7
100
AcDbEntity
8
1
100
AcDbCircle
6
CONTINUOUS
62
5
10
211.031313
20
118.715946
40
0.400000
100
AcDbArc
50
0.000000
51
24.087210
0
ARC
5
4c8
100
AcDbEntity
8
1
100
AcDbCircle
6
CONTINUOUS
62
5
10
211.031313
20
118.715946
40
0.400000
100
AcDbArc
50
-141.405935
51
0.000000
0
LINE
5
4c9
100
AcDbEntity
8
1
100
AcDbLine
6
CONTINUOUS
62
5
10
210.050000
20
120.745403
11
210.459300
21
120.540392
0
ARC
5
4ca
100
AcDbEntity
8
1
100
AcDbCircle
6
CONTINUOUS
62
5
10
211.007056
20
126.063894
40
0.400000
100
AcDbArc
50
-23.404340
51
146.489540
0
LINE
5
4cb
100
AcDbEntity
8
1
100
AcDbLine
6
CONTINUOUS
62
5
10
211.374146
20
125.905007
11
210.990284
21
125.018139
0
ARC
5
4cc
100
AcDbEntity
8
1
100
AcDbCircle
6
CONTINUOUS
62
5
10
209.597658
20
125.397906
40
1.443478
100
AcDbArc
50
-54.818726
51
-15.253566
0
LINE
5
4cd
100
AcDbEntity
8
1
100
AcDbLine
6
CONTINUOUS
62
5
10
210.429340
20
124.218103
11
210.050000
21
124.022886
0
ARC
5
4ce
100
AcDbEntity
8
1
100
AcDbCircle
6
CONTINUOUS
62
5
10
209.748134
20
125.600000
40
0.500000
100
AcDbArc
50
-52.862337
51
-27.758540
0
POLYLINE
5
4cf
100
AcDbEntity
8
1
6
CONTINUOUS
62
5
100
AcDb2dPolyline
66
1
10
0.0
20
0.0
30
0.0
70
0
0
VERTEX
5
4d0
100
AcDbEntity
8
1
100
AcDbVertex
100
AcDb2dVertex
62
5
10
210.190593
20
125.367127
0
VERTEX
5
4d1
100
AcDbEntity
8
1
100
AcDbVertex
100
AcDb2dVertex
62
5
10
211.050000
20
127.000000
0
VERTEX
5
4d2
100
AcDbEntity
8
1
100
AcDbVertex
100
AcDb2dVertex
62
5
10
211.050000
20
131.500000
0
SEQEND
5
4d3
100
AcDbEntity
8
1
0
ARC
5
4d4
100
AcDbEntity
8
1
100
AcDbCircle
6
CONTINUOUS
62
5
10
210.550000
20
131.500000
40
0.500000
100
AcDbArc
50
-0.000000
51
89.999999
0
LINE
5
4d5
100
AcDbEntity
8
1
100
AcDbLine
6
CONTINUOUS
62
5
10
210.550000
20
132.000000
11
209.050000
21
132.000000
0
ARC
5
4d6
100
AcDbEntity
8
1
100
AcDbCircle
6
CONTINUOUS
62
5
10
222.850000
20
134.923195
40
1.000000
100
AcDbArc
50
-85.426078
51
0.000000
0
LINE
5
4d7
100
AcDbEntity
8
1
100
AcDbLine
6
CONTINUOUS
62
5
10
222.929745
20
133.926380
11
221.350000
21
133.800000
0
LINE
5
4d8
100
AcDbEntity
8
1
100
AcDbLine
6
CONTINUOUS
62
5
10
221.350000
20
147.400000
11
222.929745
21
147.273620
0
ARC
5
4d9
100
AcDbEntity
8
1
100
AcDbCircle
6
CONTINUOUS
62
5
10
222.850000
20
146.276805
40
1.000000
100
AcDbArc
50
0.000000
51
85.426078
0
LINE
5
4da
100
AcDbEntity
8
1
100
AcDbLine
6
CONTINUOUS
62
5
10
223.850000
20
146.276805
11
223.850000
21
134.923195
0
ARC
5
4db
100
AcDbEntity
8
1
100
AcDbCircle
6
CONTINUOUS
62
5
10
200.550000
20
138.000000
40
0.500000
100
AcDbArc
50
179.999998
51
-89.999999
0
LINE
5
4dc
100
AcDbEntity
8
1
100
AcDbLine
6
CONTINUOUS
62
5
10
200.550000
20
137.500000
11
203.250000
21
137.500000
0
LINE
5
4dd
100
AcDbEntity
8
1
100
AcDbLine
6
CONTINUOUS
62
5
10
203.250000
20
140.500000
11
200.550000
21
140.500000
0
ARC
5
4de
100
AcDbEntity
8
1
100
AcDbCircle
6
CONTINUOUS
62
5
10
200.550000
20
140.000000
40
0.500000
100
AcDbArc
50
89.999999
51
179.999998
0
LINE
5
4df
100
AcDbEntity
8
1
100
AcDbLine
6
CONTINUOUS
62
5
10
200.050000
20
140.000000
11
200.050000
21
138.000000
0
ARC
5
4e0
100
AcDbEntity
8
1
100
AcDbCircle
6
CONTINUOUS
62
5
10
212.550000
20
116.576972
40
0.500000
100
AcDbArc
50
-89.198712
51
-0.000000
0
LINE
5
4e1
100
AcDbEntity
8
1
100
AcDbLine
6
CONTINUOUS
62
5
10
213.050000
20
116.576972
11
213.050000
21
117.125228
0
ARC
5
4e2
100
AcDbEntity
8
1
100
AcDbCircle
6
CONTINUOUS
62
5
10
212.550000
20
117.125228
40
0.500000
100
AcDbArc
50
-0.000000
51
85.083305
0
LINE
5
4e3
100
AcDbEntity
8
1
100
AcDbLine
6
CONTINUOUS
62
5
10
212.592854
20
117.623388
11
211.050000
21
117.756110
0
ARC
5
4e4
100
AcDbEntity
8
1
100
AcDbCircle
6
CONTINUOUS
62
5
10
222.850000
20
127.076805
40
1.000000
100
AcDbArc
50
0.000000
51
85.426078
0
LINE
5
4e5
100
AcDbEntity
8
1
100
AcDbLine
6
CONTINUOUS
62
5
10
223.850000
20
127.076805
11
223.850000
21
117.350111
0
ARC
5
4e6
100
AcDbEntity
8
1
100
AcDbCircle
6
CONTINUOUS
62
5
10
222.850000
20
117.350111
40
1.000000
100
AcDbArc
50
-87.069065
51
0.000000
0
LINE
5
4e7
100
AcDbEntity
8
1
100
AcDbLine
6
CONTINUOUS
62
5
10
222.901132
20
116.351419
11
219.452264
21
116.174840
0
LINE
5
4e8
100
AcDbEntity
8
1
100
AcDbLine
6
CONTINUOUS
62
5
10
221.350000
20
128.200000
11
222.929745
21
128.073620
0
ARC
5
4e9
100
AcDbEntity
8
1
100
AcDbCircle
6
CONTINUOUS
62
5
10
209.050000
20
131.000000
40
1.000000
100
AcDbArc
50
-0.000000
51
89.999999
0
LINE
5
4ea
100
AcDbEntity
8
1
100
AcDbLine
6
CONTINUOUS
62
5
10
210.050000
20
131.000000
11
210.050000
21
119.785435
0
ARC
5
4eb
100
AcDbEntity
8
1
100
AcDbCircle
6
CONTINUOUS
62
5
10
209.731504
20
119.400000
40
0.500000
100
AcDbArc
50
25.006318
51
50.432059
0
POLYLINE
5
4ec
100
AcDbEntity
8
1
6
CONTINUOUS
62
5
100
AcDb2dPolyline
66
1
10
0.0
20
0.0
30
0.0
70
0
0
VERTEX
5
4ed
100
AcDbEntity
8
1
100
AcDbVertex
100
AcDb2dVertex
62
5
10
210.184634
20
119.611359
0
VERTEX
5
4ee
100
AcDbEntity
8
1
100
AcDbVertex
100
AcDb2dVertex
62
5
10
211.050000
20
117.756110
0
VERTEX
5
4ef
100
AcDbEntity
8
1
100
AcDbVertex
100
AcDb2dVertex
62
5
10
211.050000
20
116.549000
0
SEQEND
5
4f0
100
AcDbEntity
8
1
0
ARC
5
4f1
100
AcDbEntity
8
1
100
AcDbCircle
6
CONTINUOUS
62
5
10
210.550000
20
116.549000
40
0.500000
100
AcDbArc
50
-89.198712
51
-0.000000
0
LINE
5
4f2
100
AcDbEntity
8
1
100
AcDbLine
6
CONTINUOUS
62
5
10
207.050000
20
132.000000
11
209.050000
21
132.000000
0
ARC
5
4f3
100
AcDbEntity
8
1
100
AcDbCircle
6
CONTINUOUS
62
5
10
204.550000
20
131.500000
40
0.500000
100
AcDbArc
50
89.999999
51
179.999998
0
LINE
5
4f4
100
AcDbEntity
8
1
100
AcDbLine
6
CONTINUOUS
62
5
10
204.550000
20
132.000000
11
207.050000
21
132.000000
0
LINE
5
4f5
100
AcDbEntity
8
1
100
AcDbLine
6
CONTINUOUS
62
5
10
207.050000
20
116.000000
11
204.550000
21
116.000000
0
ARC
5
4f6
100
AcDbEntity
8
1
100
AcDbCircle
6
CONTINUOUS
62
5
10
204.550000
20
116.500000
40
0.500000
100
AcDbArc
50
179.999998
51
-89.999999
0
LINE
5
4f7
100
AcDbEntity
8
1
100
AcDbLine
6
CONTINUOUS
62
5
10
204.050000
20
116.500000
11
204.050000
21
131.500000
0
POLYLINE
5
4f8
100
AcDbEntity
8
1
6
CONTINUOUS
62
5
100
AcDb2dPolyline
66
1
10
0.0
20
0.0
30
0.0
70
0
0
VERTEX
5
4f9
100
AcDbEntity
8
1
100
AcDbVertex
100
AcDb2dVertex
62
5
10
155.625000
20
34.187500
0
VERTEX
5
4fa
100
AcDbEntity
8
1
100
AcDbVertex
100
AcDb2dVertex
62
5
10
155.312500
20
35.125000
0
VERTEX
5
4fb
100
AcDbEntity
8
1
100
AcDbVertex
100
AcDb2dVertex
62
5
10
154.687500
20
35.750000
0
VERTEX
5
4fc
100
AcDbEntity
8
1
100
AcDbVertex
100
AcDb2dVertex
62
5
10
153.750000
20
35.750000
0
VERTEX
5
4fd
100
AcDbEntity
8
1
100
AcDbVertex
100
AcDb2dVertex
62
5
10
152.812500
20
34.812500
0
VERTEX
5
4fe
100
AcDbEntity
8
1
100
AcDbVertex
100
AcDb2dVertex
62
5
10
152.500000
20
33.250000
0
VERTEX
5
4ff
100
AcDbEntity
8
1
100
AcDbVertex
100
AcDb2dVertex
62
5
10
152.500000
20
30.750000
0
VERTEX
5
500
100
AcDbEntity
8
1
100
AcDbVertex
100
AcDb2dVertex
62
5
10
152.812500
20
29.187500
0
VERTEX
5
501
100
AcDbEntity
8
1
100
AcDbVertex
100
AcDb2dVertex
62
5
10
153.750000
20
28.250000
0
VERTEX
5
502
100
AcDbEntity
8
1
100
AcDbVertex
100
AcDb2dVertex
62
5
10
154.687500
20
28.250000
0
VERTEX
5
503
100
AcDbEntity
8
1
100
AcDbVertex
100
AcDb2dVertex
62
5
10
155.312500
20
28.875000
0
VERTEX
5
504
100
AcDbEntity
8
1
100
AcDbVertex
100
AcDb2dVertex
62
5
10
155.937500
20
30.437500
0
SEQEND
5
505
100
AcDbEntity
8
1
0
LINE
5
506
100
AcDbEntity
8
1
100
AcDbLine
6
CONTINUOUS
62
5
10
133.250000
20
141.000000
11
133.250000
21
140.000000
0
POLYLINE
5
507
100
AcDbEntity
8
1
6
CONTINUOUS
62
5
100
AcDb2dPolyline
66
1
10
0.0
20
0.0
30
0.0
70
0
0
VERTEX
5
508
100
AcDbEntity
8
1
100
AcDbVertex
100
AcDb2dVertex
62
5
10
115.050000
20
151.600000
0
VERTEX
5
509
100
AcDbEntity
8
1
100
AcDbVertex
100
AcDb2dVertex
62
5
10
113.950000
20
151.190698
0
VERTEX
5
50a
100
AcDbEntity
8
1
100
AcDbVertex
100
AcDb2dVertex
62
5
10
113.950000
20
151.190698
0
SEQEND
5
50b
100
AcDbEntity
8
1
0
LINE
5
50c
100
AcDbEntity
8
1
100
AcDbLine
6
CONTINUOUS
62
5
10
115.050000
20
151.600000
11
116.393750
21
151.100000
0
POLYLINE
5
50d
100
AcDbEntity
8
1
6
CONTINUOUS
62
5
100
AcDb2dPolyline
66
1
10
0.0
20
0.0
30
0.0
70
0
0
VERTEX
5
50e
100
AcDbEntity
8
1
100
AcDbVertex
100
AcDb2dVertex
62
5
10
117.550000
20
153.300000
0
VERTEX
5
50f
100
AcDbEntity
8
1
100
AcDbVertex
100
AcDb2dVertex
62
5
10
117.550000
20
152.300000
0
VERTEX
5
510
100
AcDbEntity
8
1
100
AcDbVertex
100
AcDb2dVertex
62
5
10
113.950000
20
152.300000
0
SEQEND
5
511
100
AcDbEntity
8
1
0
LINE
5
512
100
AcDbEntity
8
1
100
AcDbLine
6
CONTINUOUS
62
5
10
118.650000
20
151.600000
11
113.950000
21
151.600000
0
LINE
5
513
100
AcDbEntity
8
1
100
AcDbLine
6
CONTINUOUS
62
5
10
115.050000
20
151.600000
11
115.050000
21
146.300000
0
POLYLINE
5
514
100
AcDbEntity
8
1
6
CONTINUOUS
62
5
100
AcDb2dPolyline
66
1
10
0.0
20
0.0
30
0.0
70
1
0
VERTEX
5
515
100
AcDbEntity
8
1
100
AcDbVertex
100
AcDb2dVertex
62
5
10
113.950000
20
146.300000
0
VERTEX
5
516
100
AcDbEntity
8
1
100
AcDbVertex
100
AcDb2dVertex
62
5
10
113.950000
20
153.300000
0
VERTEX
5
517
100
AcDbEntity
8
1
100
AcDbVertex
100
AcDb2dVertex
62
5
10
118.650000
20
153.300000
0
VERTEX
5
518
100
AcDbEntity
8
1
100
AcDbVertex
100
AcDb2dVertex
62
5
10
118.650000
20
151.100000
0
VERTEX
5
519
100
AcDbEntity
8
1
100
AcDbVertex
100
AcDb2dVertex
62
5
10
116.150000
20
151.100000
0
VERTEX
5
51a
100
AcDbEntity
8
1
100
AcDbVertex
100
AcDb2dVertex
62
5
10
116.150000
20
146.300000
0
VERTEX
5
51b
100
AcDbEntity
8
1
100
AcDbVertex
100
AcDb2dVertex
62
5
10
113.950000
20
146.300000
0
SEQEND
5
51c
100
AcDbEntity
8
1
0
LINE
5
51d
100
AcDbEntity
8
1
100
AcDbLine
6
CONTINUOUS
62
5
10
124.852382
20
157.200000
11
129.650000
21
157.200000
0
LINE
5
51e
100
AcDbEntity
8
1
100
AcDbLine
6
CONTINUOUS
62
5
10
134.250000
20
130.750000
11
134.050000
21
130.750000
0
ARC
5
51f
100
AcDbEntity
8
1
100
AcDbCircle
6
CONTINUOUS
62
5
10
132.750000
20
131.000000
40
0.500000
100
AcDbArc
50
-89.999999
51
0.000000
0
ARC
5
520
100
AcDbEntity
8
1
100
AcDbCircle
6
CONTINUOUS
62
5
10
132.750000
20
133.000000
40
0.500000
100
AcDbArc
50
0.000000
51
89.999999
0
LINE
5
521
100
AcDbEntity
8
1
100
AcDbLine
6
CONTINUOUS
62
5
10
132.750000
20
133.500000
11
132.250000
21
133.500000
0
LINE
5
522
100
AcDbEntity
8
1
100
AcDbLine
6
CONTINUOUS
62
5
10
132.250000
20
130.500000
11
132.750000
21
130.500000
0
ARC
5
523
100
AcDbEntity
8
1
100
AcDbCircle
6
CONTINUOUS
62
5
10
135.250000
20
134.000000
40
2.000000
100
AcDbArc
50
179.999998
51
-174.260828
0
LINE
5
524
100
AcDbEntity
8
1
100
AcDbLine
6
CONTINUOUS
62
5
10
133.250000
20
135.000000
11
133.250000
21
134.000000
0
LINE
5
525
100
AcDbEntity
8
1
100
AcDbLine
6
CONTINUOUS
62
5
10
133.750000
20
119.900000
11
132.250000
21
118.400000
0
LINE
5
526
100
AcDbEntity
8
1
100
AcDbLine
6
CONTINUOUS
62
5
10
133.750000
20
125.100000
11
132.250000
21
126.600000
0
POLYLINE
5
527
100
AcDbEntity
8
1
6
CONTINUOUS
62
5
100
AcDb2dPolyline
66
1
10
0.0
20
0.0
30
0.0
70
0
0
VERTEX
5
528
100
AcDbEntity
8
1
100
AcDbVertex
100
AcDb2dVertex
62
5
10
135.050000
20
125.100000
0
VERTEX
5
529
100
AcDbEntity
8
1
100
AcDbVertex
100
AcDb2dVertex
62
5
10
133.750000
20
125.100000
0
VERTEX
5
52a
100
AcDbEntity
8
1
100
AcDbVertex
100
AcDb2dVertex
62
5
10
133.750000
20
119.900000
0
VERTEX
5
52b
100
AcDbEntity
8
1
100
AcDbVertex
100
AcDb2dVertex
62
5
10
135.050000
20
119.900000
0
SEQEND
5
52c
100
AcDbEntity
8
1
0
POLYLINE
5
52d
100
AcDbEntity
8
1
6
CONTINUOUS
62
5
100
AcDb2dPolyline
66
1
10
0.0
20
0.0
30
0.0
70
0
0
VERTEX
5
52e
100
AcDbEntity
8
1
100
AcDbVertex
100
AcDb2dVertex
62
5
10
134.250000
20
133.800000
0
VERTEX
5
52f
100
AcDbEntity
8
1
100
AcDbVertex
100
AcDb2dVertex
62
5
10
133.250000
20
133.800000
0
VERTEX
5
530
100
AcDbEntity
8
1
100
AcDbVertex
100
AcDb2dVertex
62
5
10
133.250000
20
126.400000
0
VERTEX
5
531
100
AcDbEntity
8
1
100
AcDbVertex
100
AcDb2dVertex
62
5
10
134.050000
20
126.400000
0
VERTEX
5
532
100
AcDbEntity
8
1
100
AcDbVertex
100
AcDb2dVertex
62
5
10
134.050000
20
133.800000
0
SEQEND
5
533
100
AcDbEntity
8
1
0
ARC
5
534
100
AcDbEntity
8
1
100
AcDbCircle
6
CONTINUOUS
62
5
10
136.250000
20
130.000000
40
2.000000
100
AcDbArc
50
-0.000000
51
25.841933
0
LINE
5
535
100
AcDbEntity
8
1
100
AcDbLine
6
CONTINUOUS
62
5
10
138.250000
20
122.000000
11
138.250000
21
130.000000
0
POLYLINE
5
536
100
AcDbEntity
8
1
6
CONTINUOUS
62
5
100
AcDb2dPolyline
66
1
10
0.0
20
0.0
30
0.0
70
0
0
VERTEX
5
537
100
AcDbEntity
8
1
100
AcDbVertex
100
AcDb2dVertex
62
5
10
121.275379
20
131.268304
0
VERTEX
5
538
100
AcDbEntity
8
1
100
AcDbVertex
100
AcDb2dVertex
62
5
10
123.509754
20
131.268304
0
VERTEX
5
539
100
AcDbEntity
8
1
100
AcDbVertex
100
AcDb2dVertex
62
5
10
123.509754
20
131.096429
0
VERTEX
5
53a
100
AcDbEntity
8
1
100
AcDbVertex
100
AcDb2dVertex
62
5
10
123.166004
20
130.408929
0
VERTEX
5
53b
100
AcDbEntity
8
1
100
AcDbVertex
100
AcDb2dVertex
62
5
10
122.822254
20
129.893304
0
VERTEX
5
53c
100
AcDbEntity
8
1
100
AcDbVertex
100
AcDb2dVertex
62
5
10
122.134754
20
129.205804
0
VERTEX
5
53d
100
AcDbEntity
8
1
100
AcDbVertex
100
AcDb2dVertex
62
5
10
120.931629
20
128.346429
0
SEQEND
5
53e
100
AcDbEntity
8
1
0
LINE
5
53f
100
AcDbEntity
8
1
100
AcDbLine
6
CONTINUOUS
62
5
10
122.822254
20
129.893304
11
124.197254
21
128.346429
0
POLYLINE
5
540
100
AcDbEntity
8
1
6
CONTINUOUS
62
5
100
AcDb2dPolyline
66
1
10
0.0
20
0.0
30
0.0
70
0
0
VERTEX
5
541
100
AcDbEntity
8
1
100
AcDbVertex
100
AcDb2dVertex
62
5
10
112.258281
20
131.525223
0
VERTEX
5
542
100
AcDbEntity
8
1
100
AcDbVertex
100
AcDb2dVertex
62
5
10
115.867656
20
131.525223
0
VERTEX
5
543
100
AcDbEntity
8
1
100
AcDbVertex
100
AcDb2dVertex
62
5
10
115.867656
20
131.353348
0
VERTEX
5
544
100
AcDbEntity
8
1
100
AcDbVertex
100
AcDb2dVertex
62
5
10
114.664531
20
130.322098
0
VERTEX
5
545
100
AcDbEntity
8
1
100
AcDbVertex
100
AcDb2dVertex
62
5
10
114.148906
20
130.322098
0
SEQEND
5
546
100
AcDbEntity
8
1
0
POLYLINE
5
547
100
AcDbEntity
8
1
6
CONTINUOUS
62
5
100
AcDb2dPolyline
66
1
10
0.0
20
0.0
30
0.0
70
0
0
VERTEX
5
548
100
AcDbEntity
8
1
100
AcDbVertex
100
AcDb2dVertex
62
5
10
114.148906
20
130.837723
0
VERTEX
5
549
100
AcDbEntity
8
1
100
AcDbVertex
100
AcDb2dVertex
62
5
10
114.148906
20
129.978348
0
VERTEX
5
54a
100
AcDbEntity
8
1
100
AcDbVertex
100
AcDb2dVertex
62
5
10
113.633281
20
128.947098
0
VERTEX
5
54b
100
AcDbEntity
8
1
100
AcDbVertex
100
AcDb2dVertex
62
5
10
112.945781
20
128.259598
0
SEQEND
5
54c
100
AcDbEntity
8
1
0
POLYLINE
5
54d
100
AcDbEntity
8
1
6
CONTINUOUS
62
5
100
AcDb2dPolyline
66
1
10
0.0
20
0.0
30
0.0
70
0
0
VERTEX
5
54e
100
AcDbEntity
8
1
100
AcDbVertex
100
AcDb2dVertex
62
5
10
115.959219
20
130.323884
0
VERTEX
5
54f
100
AcDbEntity
8
1
100
AcDbVertex
100
AcDb2dVertex
62
5
10
116.131094
20
130.152009
0
VERTEX
5
550
100
AcDbEntity
8
1
100
AcDbVertex
100
AcDb2dVertex
62
5
10
120.771719
20
130.152009
0
SEQEND
5
551
100
AcDbEntity
8
1
0
LINE
5
552
100
AcDbEntity
8
1
100
AcDbLine
6
CONTINUOUS
62
5
10
115.406920
20
123.223438
11
116.413170
21
123.295313
0
POLYLINE
5
553
100
AcDbEntity
8
1
6
CONTINUOUS
62
5
100
AcDb2dPolyline
66
1
10
0.0
20
0.0
30
0.0
70
0
0
VERTEX
5
554
100
AcDbEntity
8
1
100
AcDbVertex
100
AcDb2dVertex
62
5
10
115.910045
20
123.582813
0
VERTEX
5
555
100
AcDbEntity
8
1
100
AcDbVertex
100
AcDb2dVertex
62
5
10
115.838170
20
122.935938
0
VERTEX
5
556
100
AcDbEntity
8
1
100
AcDbVertex
100
AcDb2dVertex
62
5
10
115.838170
20
122.432813
0
VERTEX
5
557
100
AcDbEntity
8
1
100
AcDbVertex
100
AcDb2dVertex
62
5
10
115.910045
20
122.145313
0
SEQEND
5
558
100
AcDbEntity
8
1
0
POLYLINE
5
559
100
AcDbEntity
8
1
6
CONTINUOUS
62
5
100
AcDb2dPolyline
66
1
10
0.0
20
0.0
30
0.0
70
0
0
VERTEX
5
55a
100
AcDbEntity
8
1
100
AcDbVertex
100
AcDb2dVertex
62
5
10
116.341295
20
123.079688
0
VERTEX
5
55b
100
AcDbEntity
8
1
100
AcDbVertex
100
AcDb2dVertex
62
5
10
116.269420
20
122.864063
0
VERTEX
5
55c
100
AcDbEntity
8
1
100
AcDbVertex
100
AcDb2dVertex
62
5
10
116.125670
20
122.648438
0
VERTEX
5
55d
100
AcDbEntity
8
1
100
AcDbVertex
100
AcDb2dVertex
62
5
10
115.981920
20
122.432813
0
VERTEX
5
55e
100
AcDbEntity
8
1
100
AcDbVertex
100
AcDb2dVertex
62
5
10
115.550670
20
122.145313
0
VERTEX
5
55f
100
AcDbEntity
8
1
100
AcDbVertex
100
AcDb2dVertex
62
5
10
115.478795
20
122.145313
0
VERTEX
5
560
100
AcDbEntity
8
1
100
AcDbVertex
100
AcDb2dVertex
62
5
10
115.406920
20
122.289063
0
VERTEX
5
561
100
AcDbEntity
8
1
100
AcDbVertex
100
AcDb2dVertex
62
5
10
115.406920
20
122.504688
0
VERTEX
5
562
100
AcDbEntity
8
1
100
AcDbVertex
100
AcDb2dVertex
62
5
10
115.478795
20
122.648438
0
VERTEX
5
563
100
AcDbEntity
8
1
100
AcDbVertex
100
AcDb2dVertex
62
5
10
115.622545
20
122.792188
0
VERTEX
5
564
100
AcDbEntity
8
1
100
AcDbVertex
100
AcDb2dVertex
62
5
10
115.838170
20
122.935938
0
VERTEX
5
565
100
AcDbEntity
8
1
100
AcDbVertex
100
AcDb2dVertex
62
5
10
116.125670
20
123.007813
0
VERTEX
5
566
100
AcDbEntity
8
1
100
AcDbVertex
100
AcDb2dVertex
62
5
10
116.413170
20
123.007813
0
VERTEX
5
567
100
AcDbEntity
8
1
100
AcDbVertex
100
AcDb2dVertex
62
5
10
116.700670
20
122.792188
0
VERTEX
5
568
100
AcDbEntity
8
1
100
AcDbVertex
100
AcDb2dVertex
62
5
10
116.772545
20
122.648438
0
VERTEX
5
569
100
AcDbEntity
8
1
100
AcDbVertex
100
AcDb2dVertex
62
5
10
116.772545
20
122.432813
0
VERTEX
5
56a
100
AcDbEntity
8
1
100
AcDbVertex
100
AcDb2dVertex
62
5
10
116.556920
20
122.145313
0
VERTEX
5
56b
100
AcDbEntity
8
1
100
AcDbVertex
100
AcDb2dVertex
62
5
10
116.269420
20
122.073438
0
SEQEND
5
56c
100
AcDbEntity
8
1
0
LINE
5
56d
100
AcDbEntity
8
1
100
AcDbLine
6
CONTINUOUS
62
5
10
110.300000
20
122.950000
11
111.800000
21
122.950000
0
POLYLINE
5
56e
100
AcDbEntity
8
1
6
CONTINUOUS
62
5
100
AcDb2dPolyline
66
1
10
0.0
20
0.0
30
0.0
70
0
0
VERTEX
5
56f
100
AcDbEntity
8
1
100
AcDbVertex
100
AcDb2dVertex
62
5
10
117.706920
20
123.582813
0
VERTEX
5
570
100
AcDbEntity
8
1
100
AcDbVertex
100
AcDb2dVertex
62
5
10
117.706920
20
123.439063
0
VERTEX
5
571
100
AcDbEntity
8
1
100
AcDbVertex
100
AcDb2dVertex
62
5
10
117.635045
20
123.151563
0
VERTEX
5
572
100
AcDbEntity
8
1
100
AcDbVertex
100
AcDb2dVertex
62
5
10
117.635045
20
122.576563
0
VERTEX
5
573
100
AcDbEntity
8
1
100
AcDbVertex
100
AcDb2dVertex
62
5
10
117.778795
20
122.145313
0
SEQEND
5
574
100
AcDbEntity
8
1
0
LINE
5
575
100
AcDbEntity
8
1
100
AcDbLine
6
CONTINUOUS
62
5
10
118.210045
20
123.079688
11
119.072545
21
123.151563
0
POLYLINE
5
576
100
AcDbEntity
8
1
6
CONTINUOUS
62
5
100
AcDb2dPolyline
66
1
10
0.0
20
0.0
30
0.0
70
0
0
VERTEX
5
577
100
AcDbEntity
8
1
100
AcDbVertex
100
AcDb2dVertex
62
5
10
118.713170
20
123.654688
0
VERTEX
5
578
100
AcDbEntity
8
1
100
AcDbVertex
100
AcDb2dVertex
62
5
10
118.713170
20
122.648438
0
VERTEX
5
579
100
AcDbEntity
8
1
100
AcDbVertex
100
AcDb2dVertex
62
5
10
118.641295
20
122.289063
0
VERTEX
5
57a
100
AcDbEntity
8
1
100
AcDbVertex
100
AcDb2dVertex
62
5
10
118.425670
20
122.001563
0
SEQEND
5
57b
100
AcDbEntity
8
1
0
LINE
5
57c
100
AcDbEntity
8
1
100
AcDbLine
6
CONTINUOUS
62
5
10
111.050000
20
126.330804
11
111.050000
21
124.550000
0
POLYLINE
5
57d
100
AcDbEntity
8
1
6
CONTINUOUS
62
5
100
AcDb2dPolyline
66
1
10
0.0
20
0.0
30
0.0
70
0
0
VERTEX
5
57e
100
AcDbEntity
8
1
100
AcDbVertex
100
AcDb2dVertex
62
5
10
120.150670
20
123.510938
0
VERTEX
5
57f
100
AcDbEntity
8
1
100
AcDbVertex
100
AcDb2dVertex
62
5
10
120.869420
20
123.582813
0
VERTEX
5
580
100
AcDbEntity
8
1
100
AcDbVertex
100
AcDb2dVertex
62
5
10
120.078795
20
122.792188
0
VERTEX
5
581
100
AcDbEntity
8
1
100
AcDbVertex
100
AcDb2dVertex
62
5
10
120.438170
20
123.007813
0
VERTEX
5
582
100
AcDbEntity
8
1
100
AcDbVertex
100
AcDb2dVertex
62
5
10
120.653795
20
123.079688
0
VERTEX
5
583
100
AcDbEntity
8
1
100
AcDbVertex
100
AcDb2dVertex
62
5
10
120.869420
20
123.079688
0
VERTEX
5
584
100
AcDbEntity
8
1
100
AcDbVertex
100
AcDb2dVertex
62
5
10
121.085045
20
123.007813
0
VERTEX
5
585
100
AcDbEntity
8
1
100
AcDbVertex
100
AcDb2dVertex
62
5
10
121.228795
20
122.864063
0
VERTEX
5
586
100
AcDbEntity
8
1
100
AcDbVertex
100
AcDb2dVertex
62
5
10
121.300670
20
122.720313
0
VERTEX
5
587
100
AcDbEntity
8
1
100
AcDbVertex
100
AcDb2dVertex
62
5
10
121.300670
20
122.576563
0
VERTEX
5
588
100
AcDbEntity
8
1
100
AcDbVertex
100
AcDb2dVertex
62
5
10
121.228795
20
122.360938
0
VERTEX
5
589
100
AcDbEntity
8
1
100
AcDbVertex
100
AcDb2dVertex
62
5
10
121.085045
20
122.217188
0
VERTEX
5
58a
100
AcDbEntity
8
1
100
AcDbVertex
100
AcDb2dVertex
62
5
10
120.869420
20
122.145313
0
VERTEX
5
58b
100
AcDbEntity
8
1
100
AcDbVertex
100
AcDb2dVertex
62
5
10
120.510045
20
122.145313
0
VERTEX
5
58c
100
AcDbEntity
8
1
100
AcDbVertex
100
AcDb2dVertex
62
5
10
120.366295
20
122.217188
0
VERTEX
5
58d
100
AcDbEntity
8
1
100
AcDbVertex
100
AcDb2dVertex
62
5
10
120.294420
20
122.360938
0
VERTEX
5
58e
100
AcDbEntity
8
1
100
AcDbVertex
100
AcDb2dVertex
62
5
10
120.294420
20
122.432813
0
VERTEX
5
58f
100
AcDbEntity
8
1
100
AcDbVertex
100
AcDb2dVertex
62
5
10
120.366295
20
122.504688
0
VERTEX
5
590
100
AcDbEntity
8
1
100
AcDbVertex
100
AcDb2dVertex
62
5
10
120.510045
20
122.576563
0
VERTEX
5
591
100
AcDbEntity
8
1
100
AcDbVertex
100
AcDb2dVertex
62
5
10
120.653795
20
122.576563
0
VERTEX
5
592
100
AcDbEntity
8
1
100
AcDbVertex
100
AcDb2dVertex
62
5
10
120.797545
20
122.504688
0
VERTEX
5
593
100
AcDbEntity
8
1
100
AcDbVertex
100
AcDb2dVertex
62
5
10
120.869420
20
122.432813
0
VERTEX
5
594
100
AcDbEntity
8
1
100
AcDbVertex
100
AcDb2dVertex
62
5
10
120.941295
20
122.289063
0
VERTEX
5
595
100
AcDbEntity
8
1
100
AcDbVertex
100
AcDb2dVertex
62
5
10
120.941295
20
122.217188
0
SEQEND
5
596
100
AcDbEntity
8
1
0
POLYLINE
5
597
100
AcDbEntity
8
1
6
CONTINUOUS
62
5
100
AcDb2dPolyline
66
1
10
0.0
20
0.0
30
0.0
70
0
0
VERTEX
5
598
100
AcDbEntity
8
1
100
AcDbVertex
100
AcDb2dVertex
62
5
10
112.250000
20
120.550000
0
VERTEX
5
599
100
AcDbEntity
8
1
100
AcDbVertex
100
AcDb2dVertex
62
5
10
112.250000
20
120.200000
0
VERTEX
5
59a
100
AcDbEntity
8
1
100
AcDbVertex
100
AcDb2dVertex
62
5
10
124.250000
20
120.200000
0
VERTEX
5
59b
100
AcDbEntity
8
1
100
AcDbVertex
100
AcDb2dVertex
62
5
10
124.250000
20
120.550000
0
SEQEND
5
59c
100
AcDbEntity
8
1
0
POLYLINE
5
59d
100
AcDbEntity
8
1
6
CONTINUOUS
62
5
100
AcDb2dPolyline
66
1
10
0.0
20
0.0
30
0.0
70
1
0
VERTEX
5
59e
100
AcDbEntity
8
1
100
AcDbVertex
100
AcDb2dVertex
62
5
10
116.750000
20
125.550000
0
VERTEX
5
59f
100
AcDbEntity
8
1
100
AcDbVertex
100
AcDb2dVertex
62
5
10
118.250000
20
127.050000
0
VERTEX
5
5a0
100
AcDbEntity
8
1
100
AcDbVertex
100
AcDb2dVertex
62
5
10
119.750000
20
125.550000
0
VERTEX
5
5a1
100
AcDbEntity
8
1
100
AcDbVertex
100
AcDb2dVertex
62
5
10
119.250000
20
125.550000
0
VERTEX
5
5a2
100
AcDbEntity
8
1
100
AcDbVertex
100
AcDb2dVertex
62
5
10
119.250000
20
124.550000
0
VERTEX
5
5a3
100
AcDbEntity
8
1
100
AcDbVertex
100
AcDb2dVertex
62
5
10
117.250000
20
124.550000
0
VERTEX
5
5a4
100
AcDbEntity
8
1
100
AcDbVertex
100
AcDb2dVertex
62
5
10
117.250000
20
125.550000
0
VERTEX
5
5a5
100
AcDbEntity
8
1
100
AcDbVertex
100
AcDb2dVertex
62
5
10
116.750000
20
125.550000
0
SEQEND
5
5a6
100
AcDbEntity
8
1
0
LINE
5
5a7
100
AcDbEntity
8
1
100
AcDbLine
6
CONTINUOUS
62
5
10
129.450000
20
131.200000
11
129.600000
21
131.200000
0
LINE
5
5a8
100
AcDbEntity
8
1
100
AcDbLine
6
CONTINUOUS
62
5
10
129.450000
20
131.200000
11
129.600000
21
131.200000
0
LINE
5
5a9
100
AcDbEntity
8
1
100
AcDbLine
6
CONTINUOUS
62
5
10
129.450000
20
133.500000
11
129.600000
21
133.500000
0
LINE
5
5aa
100
AcDbEntity
8
1
100
AcDbLine
6
CONTINUOUS
62
5
10
129.450000
20
133.500000
11
129.600000
21
133.500000
0
ARC
5
5ab
100
AcDbEntity
8
1
100
AcDbCircle
6
CONTINUOUS
62
5
10
132.750000
20
138.000000
40
0.500000
100
AcDbArc
50
-89.999999
51
0.000000
0
LINE
5
5ac
100
AcDbEntity
8
1
100
AcDbLine
6
CONTINUOUS
62
5
10
132.750000
20
137.500000
11
132.250000
21
137.500000
0
LINE
5
5ad
100
AcDbEntity
8
1
100
AcDbLine
6
CONTINUOUS
62
5
10
132.250000
20
140.500000
11
132.750000
21
140.500000
0
ARC
5
5ae
100
AcDbEntity
8
1
100
AcDbCircle
6
CONTINUOUS
62
5
10
132.750000
20
140.000000
40
0.500000
100
AcDbArc
50
0.000000
51
89.999999
0
LINE
5
5af
100
AcDbEntity
8
1
100
AcDbLine
6
CONTINUOUS
62
5
10
133.250000
20
140.000000
11
133.250000
21
138.000000
0
LINE
5
5b0
100
AcDbEntity
8
1
100
AcDbLine
6
CONTINUOUS
62
5
10
106.900000
20
131.200000
11
107.050000
21
131.200000
0
LINE
5
5b1
100
AcDbEntity
8
1
100
AcDbLine
6
CONTINUOUS
62
5
10
106.900000
20
131.200000
11
107.050000
21
131.200000
0
LINE
5
5b2
100
AcDbEntity
8
1
100
AcDbLine
6
CONTINUOUS
62
5
10
106.900000
20
133.500000
11
107.050000
21
133.500000
0
LINE
5
5b3
100
AcDbEntity
8
1
100
AcDbLine
6
CONTINUOUS
62
5
10
106.900000
20
133.500000
11
107.050000
21
133.500000
0
LINE
5
5b4
100
AcDbEntity
8
1
100
AcDbLine
6
CONTINUOUS
62
5
10
102.250000
20
130.450000
11
102.450000
21
130.450000
0
ARC
5
5b5
100
AcDbEntity
8
1
100
AcDbCircle
6
CONTINUOUS
62
5
10
103.750000
20
131.000000
40
0.500000
100
AcDbArc
50
179.999998
51
-89.999999
0
ARC
5
5b6
100
AcDbEntity
8
1
100
AcDbCircle
6
CONTINUOUS
62
5
10
103.750000
20
133.000000
40
0.500000
100
AcDbArc
50
89.999999
51
179.999998
0
LINE
5
5b7
100
AcDbEntity
8
1
100
AcDbLine
6
CONTINUOUS
62
5
10
103.750000
20
133.500000
11
104.250000
21
133.500000
0
LINE
5
5b8
100
AcDbEntity
8
1
100
AcDbLine
6
CONTINUOUS
62
5
10
104.250000
20
130.500000
11
103.750000
21
130.500000
0
LINE
5
5b9
100
AcDbEntity
8
1
100
AcDbLine
6
CONTINUOUS
62
5
10
103.250000
20
136.000000
11
103.250000
21
134.800000
0
LINE
5
5ba
100
AcDbEntity
8
1
100
AcDbLine
6
CONTINUOUS
62
5
10
102.750000
20
119.900000
11
104.250000
21
118.400000
0
LINE
5
5bb
100
AcDbEntity
8
1
100
AcDbLine
6
CONTINUOUS
62
5
10
102.750000
20
125.100000
11
104.250000
21
126.600000
0
POLYLINE
5
5bc
100
AcDbEntity
8
1
6
CONTINUOUS
62
5
100
AcDb2dPolyline
66
1
10
0.0
20
0.0
30
0.0
70
0
0
VERTEX
5
5bd
100
AcDbEntity
8
1
100
AcDbVertex
100
AcDb2dVertex
62
5
10
101.450000
20
125.100000
0
VERTEX
5
5be
100
AcDbEntity
8
1
100
AcDbVertex
100
AcDb2dVertex
62
5
10
102.750000
20
125.100000
0
VERTEX
5
5bf
100
AcDbEntity
8
1
100
AcDbVertex
100
AcDb2dVertex
62
5
10
102.750000
20
119.900000
0
VERTEX
5
5c0
100
AcDbEntity
8
1
100
AcDbVertex
100
AcDb2dVertex
62
5
10
101.450000
20
119.900000
0
SEQEND
5
5c1
100
AcDbEntity
8
1
0
POLYLINE
5
5c2
100
AcDbEntity
8
1
6
CONTINUOUS
62
5
100
AcDb2dPolyline
66
1
10
0.0
20
0.0
30
0.0
70
0
0
VERTEX
5
5c3
100
AcDbEntity
8
1
100
AcDbVertex
100
AcDb2dVertex
62
5
10
102.250000
20
134.800000
0
VERTEX
5
5c4
100
AcDbEntity
8
1
100
AcDbVertex
100
AcDb2dVertex
62
5
10
103.250000
20
134.800000
0
VERTEX
5
5c5
100
AcDbEntity
8
1
100
AcDbVertex
100
AcDb2dVertex
62
5
10
103.250000
20
126.400000
0
VERTEX
5
5c6
100
AcDbEntity
8
1
100
AcDbVertex
100
AcDb2dVertex
62
5
10
102.450000
20
126.400000
0
VERTEX
5
5c7
100
AcDbEntity
8
1
100
AcDbVertex
100
AcDb2dVertex
62
5
10
102.450000
20
134.800000
0
SEQEND
5
5c8
100
AcDbEntity
8
1
0
ARC
5
5c9
100
AcDbEntity
8
1
100
AcDbCircle
6
CONTINUOUS
62
5
10
100.250000
20
130.000000
40
2.000000
100
AcDbArc
50
154.158066
51
179.999998
0
LINE
5
5ca
100
AcDbEntity
8
1
100
AcDbLine
6
CONTINUOUS
62
5
10
98.250000
20
122.000000
11
98.250000
21
130.000000
0
ARC
5
5cb
100
AcDbEntity
8
1
100
AcDbCircle
6
CONTINUOUS
62
5
10
118.355035
20
146.400000
40
2.000000
100
AcDbArc
50
-89.999999
51
-3.619565
0
ARC
5
5cc
100
AcDbEntity
8
1
100
AcDbCircle
6
CONTINUOUS
62
5
10
-79.250000
20
158.900000
40
200.000000
100
AcDbArc
50
-3.619565
51
-1.012857
0
ARC
5
5cd
100
AcDbEntity
8
1
100
AcDbCircle
6
CONTINUOUS
62
5
10
118.719063
20
155.400000
40
2.000000
100
AcDbArc
50
-1.012857
51
89.999999
0
LINE
5
5ce
100
AcDbEntity
8
1
100
AcDbLine
6
CONTINUOUS
62
5
10
118.719063
20
157.400000
11
107.750000
21
157.400000
0
ARC
5
5cf
100
AcDbEntity
8
1
100
AcDbCircle
6
CONTINUOUS
62
5
10
107.750000
20
155.400000
40
2.000000
100
AcDbArc
50
89.999999
51
179.999998
0
LINE
5
5d0
100
AcDbEntity
8
1
100
AcDbLine
6
CONTINUOUS
62
5
10
105.750000
20
155.400000
11
105.750000
21
146.400000
0
ARC
5
5d1
100
AcDbEntity
8
1
100
AcDbCircle
6
CONTINUOUS
62
5
10
107.750000
20
146.400000
40
2.000000
100
AcDbArc
50
179.999998
51
-89.999999
0
LINE
5
5d2
100
AcDbEntity
8
1
100
AcDbLine
6
CONTINUOUS
62
5
10
107.750000
20
144.400000
11
118.355035
21
144.400000
0
LINE
5
5d3
100
AcDbEntity
8
1
100
AcDbLine
6
CONTINUOUS
62
5
10
109.800000
20
123.750000
11
112.300000
21
123.750000
0
LINE
5
5d4
100
AcDbEntity
8
1
100
AcDbLine
6
CONTINUOUS
62
5
10
109.300000
20
124.550000
11
112.800000
21
124.550000
0
CIRCLE
5
5d5
100
AcDbEntity
8
1
100
AcDbCircle
6
CONTINUOUS
62
5
10
111.050000
20
124.550000
40
2.500000
0
POLYLINE
5
5d6
100
AcDbEntity
8
1
6
CONTINUOUS
62
5
100
AcDb2dPolyline
66
1
10
0.0
20
0.0
30
0.0
70
1
0
VERTEX
5
5d7
100
AcDbEntity
8
1
100
AcDbVertex
100
AcDb2dVertex
62
5
10
107.050000
20
135.050000
0
VERTEX
5
5d8
100
AcDbEntity
8
1
100
AcDbVertex
100
AcDb2dVertex
62
5
10
107.050000
20
120.550000
0
VERTEX
5
5d9
100
AcDbEntity
8
1
100
AcDbVertex
100
AcDb2dVertex
62
5
10
129.450000
20
120.550000
0
VERTEX
5
5da
100
AcDbEntity
8
1
100
AcDbVertex
100
AcDb2dVertex
62
5
10
129.450000
20
135.050000
0
VERTEX
5
5db
100
AcDbEntity
8
1
100
AcDbVertex
100
AcDb2dVertex
62
5
10
107.050000
20
135.050000
0
SEQEND
5
5dc
100
AcDbEntity
8
1
0
LINE
5
5dd
100
AcDbEntity
8
1
100
AcDbLine
6
CONTINUOUS
62
5
10
111.713934
20
116.650000
11
124.786066
21
116.650000
0
ARC
5
5de
100
AcDbEntity
8
1
100
AcDbCircle
6
CONTINUOUS
62
5
10
136.750000
20
117.500000
40
1.500000
100
AcDbArc
50
-89.999999
51
-0.000000
0
LINE
5
5df
100
AcDbEntity
8
1
100
AcDbLine
6
CONTINUOUS
62
5
10
138.250000
20
117.500000
11
138.250000
21
118.400000
0
LINE
5
5e0
100
AcDbEntity
8
1
100
AcDbLine
6
CONTINUOUS
62
5
10
132.009934
20
116.000000
11
136.750000
21
116.000000
0
LINE
5
5e1
100
AcDbEntity
8
1
100
AcDbLine
6
CONTINUOUS
62
5
10
124.250000
20
120.200000
11
124.813743
21
116.484782
0
LINE
5
5e2
100
AcDbEntity
8
1
100
AcDbLine
6
CONTINUOUS
62
5
10
112.250000
20
120.200000
11
111.686257
21
116.484782
0
ARC
5
5e3
100
AcDbEntity
8
1
100
AcDbCircle
6
CONTINUOUS
62
5
10
99.750000
20
117.500000
40
1.500000
100
AcDbArc
50
-179.999998
51
-89.999999
0
LINE
5
5e4
100
AcDbEntity
8
1
100
AcDbLine
6
CONTINUOUS
62
5
10
98.250000
20
117.500000
11
98.250000
21
118.400000
0
LINE
5
5e5
100
AcDbEntity
8
1
100
AcDbLine
6
CONTINUOUS
62
5
10
104.490066
20
116.000000
11
99.750000
21
116.000000
0
ARC
5
5e6
100
AcDbEntity
8
1
100
AcDbCircle
6
CONTINUOUS
62
5
10
110.700000
20
119.550000
40
1.000000
100
AcDbArc
50
0.000000
51
89.999999
0
POLYLINE
5
5e7
100
AcDbEntity
8
1
6
CONTINUOUS
62
5
100
AcDb2dPolyline
66
1
10
0.0
20
0.0
30
0.0
70
0
0
VERTEX
5
5e8
100
AcDbEntity
8
1
100
AcDbVertex
100
AcDb2dVertex
62
5
10
107.050000
20
120.550000
0
VERTEX
5
5e9
100
AcDbEntity
8
1
100
AcDbVertex
100
AcDb2dVertex
62
5
10
106.900000
20
120.550000
0
VERTEX
5
5ea
100
AcDbEntity
8
1
100
AcDbVertex
100
AcDb2dVertex
62
5
10
106.900000
20
135.400000
0
VERTEX
5
5eb
100
AcDbEntity
8
1
100
AcDbVertex
100
AcDb2dVertex
62
5
10
129.600000
20
135.400000
0
VERTEX
5
5ec
100
AcDbEntity
8
1
100
AcDbVertex
100
AcDb2dVertex
62
5
10
129.600000
20
120.550000
0
VERTEX
5
5ed
100
AcDbEntity
8
1
100
AcDbVertex
100
AcDb2dVertex
62
5
10
129.450000
20
120.550000
0
SEQEND
5
5ee
100
AcDbEntity
8
1
0
ARC
5
5ef
100
AcDbEntity
8
1
100
AcDbCircle
6
CONTINUOUS
62
5
10
125.800000
20
119.550000
40
1.000000
100
AcDbArc
50
89.999999
51
179.999998
0
LINE
5
5f0
100
AcDbEntity
8
1
100
AcDbLine
6
CONTINUOUS
62
5
10
124.800000
20
119.550000
11
124.800000
21
116.650000
0
ARC
5
5f1
100
AcDbEntity
8
1
100
AcDbCircle
6
CONTINUOUS
62
5
10
125.800000
20
116.650000
40
1.000000
100
AcDbArc
50
179.999998
51
-89.999999
0
ARC
5
5f2
100
AcDbEntity
8
1
100
AcDbCircle
6
CONTINUOUS
62
5
10
110.700000
20
116.650000
40
1.000000
100
AcDbArc
50
-89.999999
51
-0.000000
0
LINE
5
5f3
100
AcDbEntity
8
1
100
AcDbLine
6
CONTINUOUS
62
5
10
111.700000
20
116.650000
11
111.700000
21
119.550000
0
LINE
5
5f4
100
AcDbEntity
8
1
100
AcDbLine
6
DOT2
62
5
10
69.275000
20
151.875000
11
69.900000
21
151.250000
0
POLYLINE
5
5f5
100
AcDbEntity
8
1
6
DOT2
62
5
100
AcDb2dPolyline
66
1
10
0.0
20
0.0
30
0.0
70
0
0
VERTEX
5
5f6
100
AcDbEntity
8
1
100
AcDbVertex
100
AcDb2dVertex
62
5
10
69.275000
20
151.250000
0
VERTEX
5
5f7
100
AcDbEntity
8
1
100
AcDbVertex
100
AcDb2dVertex
62
5
10
69.900000
20
151.875000
0
VERTEX
5
5f8
100
AcDbEntity
8
1
100
AcDbVertex
100
AcDb2dVertex
62
5
10
69.900000
20
151.250000
0
VERTEX
5
5f9
100
AcDbEntity
8
1
100
AcDbVertex
100
AcDb2dVertex
62
5
10
69.275000
20
151.250000
0
VERTEX
5
5fa
100
AcDbEntity
8
1
100
AcDbVertex
100
AcDb2dVertex
62
5
10
69.275000
20
151.875000
0
VERTEX
5
5fb
100
AcDbEntity
8
1
100
AcDbVertex
100
AcDb2dVertex
62
5
10
69.900000
20
151.875000
0
SEQEND
5
5fc
100
AcDbEntity
8
1
0
POLYLINE
5
5fd
100
AcDbEntity
8
1
6
DOT2
62
5
100
AcDb2dPolyline
66
1
10
0.0
20
0.0
30
0.0
70
0
0
VERTEX
5
5fe
100
AcDbEntity
8
1
100
AcDbVertex
100
AcDb2dVertex
62
5
10
63.337500
20
156.250000
0
VERTEX
5
5ff
100
AcDbEntity
8
1
100
AcDbVertex
100
AcDb2dVertex
62
5
10
62.400000
20
156.250000
0
VERTEX
5
600
100
AcDbEntity
8
1
100
AcDbVertex
100
AcDb2dVertex
62
5
10
62.400000
20
159.375000
0
VERTEX
5
601
100
AcDbEntity
8
1
100
AcDbVertex
100
AcDb2dVertex
62
5
10
63.025000
20
159.375000
0
VERTEX
5
602
100
AcDbEntity
8
1
100
AcDbVertex
100
AcDb2dVertex
62
5
10
64.587500
20
158.750000
0
VERTEX
5
603
100
AcDbEntity
8
1
100
AcDbVertex
100
AcDb2dVertex
62
5
10
66.775000
20
158.125000
0
VERTEX
5
604
100
AcDbEntity
8
1
100
AcDbVertex
100
AcDb2dVertex
62
5
10
69.900000
20
157.500000
0
SEQEND
5
605
100
AcDbEntity
8
1
0
POLYLINE
5
606
100
AcDbEntity
8
1
6
DOT2
62
5
100
AcDb2dPolyline
66
1
10
0.0
20
0.0
30
0.0
70
0
0
VERTEX
5
607
100
AcDbEntity
8
1
100
AcDbVertex
100
AcDb2dVertex
62
5
10
62.400000
20
143.750000
0
VERTEX
5
608
100
AcDbEntity
8
1
100
AcDbVertex
100
AcDb2dVertex
62
5
10
62.400000
20
142.812500
0
VERTEX
5
609
100
AcDbEntity
8
1
100
AcDbVertex
100
AcDb2dVertex
62
5
10
62.712500
20
141.875000
0
VERTEX
5
60a
100
AcDbEntity
8
1
100
AcDbVertex
100
AcDb2dVertex
62
5
10
63.962500
20
141.250000
0
VERTEX
5
60b
100
AcDbEntity
8
1
100
AcDbVertex
100
AcDb2dVertex
62
5
10
68.337500
20
141.250000
0
VERTEX
5
60c
100
AcDbEntity
8
1
100
AcDbVertex
100
AcDb2dVertex
62
5
10
69.275000
20
141.562500
0
VERTEX
5
60d
100
AcDbEntity
8
1
100
AcDbVertex
100
AcDb2dVertex
62
5
10
69.587500
20
141.875000
0
VERTEX
5
60e
100
AcDbEntity
8
1
100
AcDbVertex
100
AcDb2dVertex
62
5
10
69.900000
20
142.500000
0
VERTEX
5
60f
100
AcDbEntity
8
1
100
AcDbVertex
100
AcDb2dVertex
62
5
10
69.900000
20
143.125000
0
VERTEX
5
610
100
AcDbEntity
8
1
100
AcDbVertex
100
AcDb2dVertex
62
5
10
69.587500
20
143.750000
0
VERTEX
5
611
100
AcDbEntity
8
1
100
AcDbVertex
100
AcDb2dVertex
62
5
10
69.275000
20
144.062500
0
VERTEX
5
612
100
AcDbEntity
8
1
100
AcDbVertex
100
AcDb2dVertex
62
5
10
68.337500
20
144.375000
0
VERTEX
5
613
100
AcDbEntity
8
1
100
AcDbVertex
100
AcDb2dVertex
62
5
10
66.462500
20
144.375000
0
VERTEX
5
614
100
AcDbEntity
8
1
100
AcDbVertex
100
AcDb2dVertex
62
5
10
65.837500
20
144.062500
0
VERTEX
5
615
100
AcDbEntity
8
1
100
AcDbVertex
100
AcDb2dVertex
62
5
10
65.525000
20
143.437500
0
VERTEX
5
616
100
AcDbEntity
8
1
100
AcDbVertex
100
AcDb2dVertex
62
5
10
65.525000
20
142.187500
0
VERTEX
5
617
100
AcDbEntity
8
1
100
AcDbVertex
100
AcDb2dVertex
62
5
10
65.837500
20
141.250000
0
SEQEND
5
618
100
AcDbEntity
8
1
0
POLYLINE
5
619
100
AcDbEntity
8
1
6
DOT2
62
5
100
AcDb2dPolyline
66
1
10
0.0
20
0.0
30
0.0
70
1
0
VERTEX
5
61a
100
AcDbEntity
8
1
100
AcDbVertex
100
AcDb2dVertex
62
5
10
62.400000
20
147.500000
0
VERTEX
5
61b
100
AcDbEntity
8
1
100
AcDbVertex
100
AcDb2dVertex
62
5
10
62.400000
20
148.125000
0
VERTEX
5
61c
100
AcDbEntity
8
1
100
AcDbVertex
100
AcDb2dVertex
62
5
10
62.712500
20
148.750000
0
VERTEX
5
61d
100
AcDbEntity
8
1
100
AcDbVertex
100
AcDb2dVertex
62
5
10
63.337500
20
149.062500
0
VERTEX
5
61e
100
AcDbEntity
8
1
100
AcDbVertex
100
AcDb2dVertex
62
5
10
64.587500
20
149.062500
0
VERTEX
5
61f
100
AcDbEntity
8
1
100
AcDbVertex
100
AcDb2dVertex
62
5
10
65.212500
20
148.750000
0
VERTEX
5
620
100
AcDbEntity
8
1
100
AcDbVertex
100
AcDb2dVertex
62
5
10
66.462500
20
146.875000
0
VERTEX
5
621
100
AcDbEntity
8
1
100
AcDbVertex
100
AcDb2dVertex
62
5
10
67.400000
20
146.250000
0
VERTEX
5
622
100
AcDbEntity
8
1
100
AcDbVertex
100
AcDb2dVertex
62
5
10
68.650000
20
146.250000
0
VERTEX
5
623
100
AcDbEntity
8
1
100
AcDbVertex
100
AcDb2dVertex
62
5
10
69.275000
20
146.562500
0
VERTEX
5
624
100
AcDbEntity
8
1
100
AcDbVertex
100
AcDb2dVertex
62
5
10
69.587500
20
146.875000
0
VERTEX
5
625
100
AcDbEntity
8
1
100
AcDbVertex
100
AcDb2dVertex
62
5
10
69.900000
20
147.500000
0
VERTEX
5
626
100
AcDbEntity
8
1
100
AcDbVertex
100
AcDb2dVertex
62
5
10
69.900000
20
148.125000
0
VERTEX
5
627
100
AcDbEntity
8
1
100
AcDbVertex
100
AcDb2dVertex
62
5
10
69.587500
20
148.750000
0
VERTEX
5
628
100
AcDbEntity
8
1
100
AcDbVertex
100
AcDb2dVertex
62
5
10
69.275000
20
149.062500
0
VERTEX
5
629
100
AcDbEntity
8
1
100
AcDbVertex
100
AcDb2dVertex
62
5
10
68.650000
20
149.375000
0
VERTEX
5
62a
100
AcDbEntity
8
1
100
AcDbVertex
100
AcDb2dVertex
62
5
10
67.400000
20
149.375000
0
VERTEX
5
62b
100
AcDbEntity
8
1
100
AcDbVertex
100
AcDb2dVertex
62
5
10
66.462500
20
148.750000
0
VERTEX
5
62c
100
AcDbEntity
8
1
100
AcDbVertex
100
AcDb2dVertex
62
5
10
65.212500
20
146.875000
0
VERTEX
5
62d
100
AcDbEntity
8
1
100
AcDbVertex
100
AcDb2dVertex
62
5
10
64.587500
20
146.562500
0
VERTEX
5
62e
100
AcDbEntity
8
1
100
AcDbVertex
100
AcDb2dVertex
62
5
10
63.337500
20
146.562500
0
VERTEX
5
62f
100
AcDbEntity
8
1
100
AcDbVertex
100
AcDb2dVertex
62
5
10
62.712500
20
146.875000
0
VERTEX
5
630
100
AcDbEntity
8
1
100
AcDbVertex
100
AcDb2dVertex
62
5
10
62.400000
20
147.500000
0
SEQEND
5
631
100
AcDbEntity
8
1
0
POLYLINE
5
632
100
AcDbEntity
8
1
6
CONTINUOUS
62
5
100
AcDb2dPolyline
66
1
10
0.0
20
0.0
30
0.0
70
0
0
VERTEX
5
633
100
AcDbEntity
8
1
100
AcDbVertex
100
AcDb2dVertex
62
5
10
122.500000
20
33.562500
0
VERTEX
5
634
100
AcDbEntity
8
1
100
AcDbVertex
100
AcDb2dVertex
62
5
10
122.812500
20
35.125000
0
VERTEX
5
635
100
AcDbEntity
8
1
100
AcDbVertex
100
AcDb2dVertex
62
5
10
123.750000
20
35.750000
0
VERTEX
5
636
100
AcDbEntity
8
1
100
AcDbVertex
100
AcDb2dVertex
62
5
10
124.687500
20
35.750000
0
VERTEX
5
637
100
AcDbEntity
8
1
100
AcDbVertex
100
AcDb2dVertex
62
5
10
125.312500
20
35.437500
0
VERTEX
5
638
100
AcDbEntity
8
1
100
AcDbVertex
100
AcDb2dVertex
62
5
10
125.625000
20
34.500000
0
VERTEX
5
639
100
AcDbEntity
8
1
100
AcDbVertex
100
AcDb2dVertex
62
5
10
125.625000
20
33.562500
0
VERTEX
5
63a
100
AcDbEntity
8
1
100
AcDbVertex
100
AcDb2dVertex
62
5
10
125.312500
20
32.625000
0
VERTEX
5
63b
100
AcDbEntity
8
1
100
AcDbVertex
100
AcDb2dVertex
62
5
10
122.500000
20
28.250000
0
VERTEX
5
63c
100
AcDbEntity
8
1
100
AcDbVertex
100
AcDb2dVertex
62
5
10
125.625000
20
28.250000
0
VERTEX
5
63d
100
AcDbEntity
8
1
100
AcDbVertex
100
AcDb2dVertex
62
5
10
125.625000
20
29.187500
0
SEQEND
5
63e
100
AcDbEntity
8
1
0
LINE
5
63f
100
AcDbEntity
8
1
100
AcDbLine
6
CONTINUOUS
62
5
10
127.500000
20
35.750000
11
130.312500
21
35.750000
0
POLYLINE
5
640
100
AcDbEntity
8
1
6
CONTINUOUS
62
5
100
AcDb2dPolyline
66
1
10
0.0
20
0.0
30
0.0
70
0
0
VERTEX
5
641
100
AcDbEntity
8
1
100
AcDbVertex
100
AcDb2dVertex
62
5
10
127.500000
20
35.750000
0
VERTEX
5
642
100
AcDbEntity
8
1
100
AcDbVertex
100
AcDb2dVertex
62
5
10
127.500000
20
32.000000
0
VERTEX
5
643
100
AcDbEntity
8
1
100
AcDbVertex
100
AcDb2dVertex
62
5
10
128.125000
20
32.625000
0
VERTEX
5
644
100
AcDbEntity
8
1
100
AcDbVertex
100
AcDb2dVertex
62
5
10
128.750000
20
32.937500
0
VERTEX
5
645
100
AcDbEntity
8
1
100
AcDbVertex
100
AcDb2dVertex
62
5
10
129.687500
20
32.937500
0
VERTEX
5
646
100
AcDbEntity
8
1
100
AcDbVertex
100
AcDb2dVertex
62
5
10
130.312500
20
32.625000
0
VERTEX
5
647
100
AcDbEntity
8
1
100
AcDbVertex
100
AcDb2dVertex
62
5
10
130.625000
20
31.687500
0
VERTEX
5
648
100
AcDbEntity
8
1
100
AcDbVertex
100
AcDb2dVertex
62
5
10
130.625000
20
29.812500
0
VERTEX
5
649
100
AcDbEntity
8
1
100
AcDbVertex
100
AcDb2dVertex
62
5
10
130.000000
20
28.875000
0
VERTEX
5
64a
100
AcDbEntity
8
1
100
AcDbVertex
100
AcDb2dVertex
62
5
10
129.062500
20
28.250000
0
VERTEX
5
64b
100
AcDbEntity
8
1
100
AcDbVertex
100
AcDb2dVertex
62
5
10
127.500000
20
28.250000
0
SEQEND
5
64c
100
AcDbEntity
8
1
0
POLYLINE
5
64d
100
AcDbEntity
8
1
6
CONTINUOUS
62
5
100
AcDb2dPolyline
66
1
10
0.0
20
0.0
30
0.0
70
1
0
VERTEX
5
64e
100
AcDbEntity
8
1
100
AcDbVertex
100
AcDb2dVertex
62
5
10
133.750000
20
35.750000
0
VERTEX
5
64f
100
AcDbEntity
8
1
100
AcDbVertex
100
AcDb2dVertex
62
5
10
134.375000
20
35.750000
0
VERTEX
5
650
100
AcDbEntity
8
1
100
AcDbVertex
100
AcDb2dVertex
62
5
10
134.687500
20
35.437500
0
VERTEX
5
651
100
AcDbEntity
8
1
100
AcDbVertex
100
AcDb2dVertex
62
5
10
135.312500
20
34.187500
0
VERTEX
5
652
100
AcDbEntity
8
1
100
AcDbVertex
100
AcDb2dVertex
62
5
10
135.625000
20
32.937500
0
VERTEX
5
653
100
AcDbEntity
8
1
100
AcDbVertex
100
AcDb2dVertex
62
5
10
135.625000
20
31.062500
0
VERTEX
5
654
100
AcDbEntity
8
1
100
AcDbVertex
100
AcDb2dVertex
62
5
10
135.312500
20
29.812500
0
VERTEX
5
655
100
AcDbEntity
8
1
100
AcDbVertex
100
AcDb2dVertex
62
5
10
134.687500
20
28.562500
0
VERTEX
5
656
100
AcDbEntity
8
1
100
AcDbVertex
100
AcDb2dVertex
62
5
10
134.375000
20
28.250000
0
VERTEX
5
657
100
AcDbEntity
8
1
100
AcDbVertex
100
AcDb2dVertex
62
5
10
133.750000
20
28.250000
0
VERTEX
5
658
100
AcDbEntity
8
1
100
AcDbVertex
100
AcDb2dVertex
62
5
10
133.437500
20
28.562500
0
VERTEX
5
659
100
AcDbEntity
8
1
100
AcDbVertex
100
AcDb2dVertex
62
5
10
132.812500
20
29.812500
0
VERTEX
5
65a
100
AcDbEntity
8
1
100
AcDbVertex
100
AcDb2dVertex
62
5
10
132.500000
20
31.062500
0
VERTEX
5
65b
100
AcDbEntity
8
1
100
AcDbVertex
100
AcDb2dVertex
62
5
10
132.500000
20
32.937500
0
VERTEX
5
65c
100
AcDbEntity
8
1
100
AcDbVertex
100
AcDb2dVertex
62
5
10
132.812500
20
34.187500
0
VERTEX
5
65d
100
AcDbEntity
8
1
100
AcDbVertex
100
AcDb2dVertex
62
5
10
133.437500
20
35.437500
0
VERTEX
5
65e
100
AcDbEntity
8
1
100
AcDbVertex
100
AcDb2dVertex
62
5
10
133.750000
20
35.750000
0
SEQEND
5
65f
100
AcDbEntity
8
1
0
POLYLINE
5
660
100
AcDbEntity
8
1
6
CONTINUOUS
62
5
100
AcDb2dPolyline
66
1
10
0.0
20
0.0
30
0.0
70
0
0
VERTEX
5
661
100
AcDbEntity
8
1
100
AcDbVertex
100
AcDb2dVertex
62
5
10
137.500000
20
35.750000
0
VERTEX
5
662
100
AcDbEntity
8
1
100
AcDbVertex
100
AcDb2dVertex
62
5
10
139.062500
20
28.250000
0
VERTEX
5
663
100
AcDbEntity
8
1
100
AcDbVertex
100
AcDb2dVertex
62
5
10
140.625000
20
35.750000
0
SEQEND
5
664
100
AcDbEntity
8
1
0
POLYLINE
5
665
100
AcDbEntity
8
1
6
CONTINUOUS
62
5
100
AcDb2dPolyline
66
1
10
0.0
20
0.0
30
0.0
70
0
0
VERTEX
5
666
100
AcDbEntity
8
1
100
AcDbVertex
100
AcDb2dVertex
62
5
10
102.500000
20
33.562500
0
VERTEX
5
667
100
AcDbEntity
8
1
100
AcDbVertex
100
AcDb2dVertex
62
5
10
102.812500
20
35.125000
0
VERTEX
5
668
100
AcDbEntity
8
1
100
AcDbVertex
100
AcDb2dVertex
62
5
10
103.750000
20
35.750000
0
VERTEX
5
669
100
AcDbEntity
8
1
100
AcDbVertex
100
AcDb2dVertex
62
5
10
104.687500
20
35.750000
0
VERTEX
5
66a
100
AcDbEntity
8
1
100
AcDbVertex
100
AcDb2dVertex
62
5
10
105.312500
20
35.437500
0
VERTEX
5
66b
100
AcDbEntity
8
1
100
AcDbVertex
100
AcDb2dVertex
62
5
10
105.625000
20
34.500000
0
VERTEX
5
66c
100
AcDbEntity
8
1
100
AcDbVertex
100
AcDb2dVertex
62
5
10
105.625000
20
33.562500
0
VERTEX
5
66d
100
AcDbEntity
8
1
100
AcDbVertex
100
AcDb2dVertex
62
5
10
105.312500
20
32.625000
0
VERTEX
5
66e
100
AcDbEntity
8
1
100
AcDbVertex
100
AcDb2dVertex
62
5
10
102.500000
20
28.250000
0
VERTEX
5
66f
100
AcDbEntity
8
1
100
AcDbVertex
100
AcDb2dVertex
62
5
10
105.625000
20
28.250000
0
VERTEX
5
670
100
AcDbEntity
8
1
100
AcDbVertex
100
AcDb2dVertex
62
5
10
105.625000
20
29.187500
0
SEQEND
5
671
100
AcDbEntity
8
1
0
POLYLINE
5
672
100
AcDbEntity
8
1
6
CONTINUOUS
62
5
100
AcDb2dPolyline
66
1
10
0.0
20
0.0
30
0.0
70
1
0
VERTEX
5
673
100
AcDbEntity
8
1
100
AcDbVertex
100
AcDb2dVertex
62
5
10
108.750000
20
35.750000
0
VERTEX
5
674
100
AcDbEntity
8
1
100
AcDbVertex
100
AcDb2dVertex
62
5
10
109.375000
20
35.750000
0
VERTEX
5
675
100
AcDbEntity
8
1
100
AcDbVertex
100
AcDb2dVertex
62
5
10
109.687500
20
35.437500
0
VERTEX
5
676
100
AcDbEntity
8
1
100
AcDbVertex
100
AcDb2dVertex
62
5
10
110.312500
20
34.187500
0
VERTEX
5
677
100
AcDbEntity
8
1
100
AcDbVertex
100
AcDb2dVertex
62
5
10
110.625000
20
32.937500
0
VERTEX
5
678
100
AcDbEntity
8
1
100
AcDbVertex
100
AcDb2dVertex
62
5
10
110.625000
20
31.062500
0
VERTEX
5
679
100
AcDbEntity
8
1
100
AcDbVertex
100
AcDb2dVertex
62
5
10
110.312500
20
29.812500
0
VERTEX
5
67a
100
AcDbEntity
8
1
100
AcDbVertex
100
AcDb2dVertex
62
5
10
109.687500
20
28.562500
0
VERTEX
5
67b
100
AcDbEntity
8
1
100
AcDbVertex
100
AcDb2dVertex
62
5
10
109.375000
20
28.250000
0
VERTEX
5
67c
100
AcDbEntity
8
1
100
AcDbVertex
100
AcDb2dVertex
62
5
10
108.750000
20
28.250000
0
VERTEX
5
67d
100
AcDbEntity
8
1
100
AcDbVertex
100
AcDb2dVertex
62
5
10
108.437500
20
28.562500
0
VERTEX
5
67e
100
AcDbEntity
8
1
100
AcDbVertex
100
AcDb2dVertex
62
5
10
107.812500
20
29.812500
0
VERTEX
5
67f
100
AcDbEntity
8
1
100
AcDbVertex
100
AcDb2dVertex
62
5
10
107.500000
20
31.062500
0
VERTEX
5
680
100
AcDbEntity
8
1
100
AcDbVertex
100
AcDb2dVertex
62
5
10
107.500000
20
32.937500
0
VERTEX
5
681
100
AcDbEntity
8
1
100
AcDbVertex
100
AcDb2dVertex
62
5
10
107.812500
20
34.187500
0
VERTEX
5
682
100
AcDbEntity
8
1
100
AcDbVertex
100
AcDb2dVertex
62
5
10
108.437500
20
35.437500
0
VERTEX
5
683
100
AcDbEntity
8
1
100
AcDbVertex
100
AcDb2dVertex
62
5
10
108.750000
20
35.750000
0
SEQEND
5
684
100
AcDbEntity
8
1
0
POLYLINE
5
685
100
AcDbEntity
8
1
6
CONTINUOUS
62
5
100
AcDb2dPolyline
66
1
10
0.0
20
0.0
30
0.0
70
0
0
VERTEX
5
686
100
AcDbEntity
8
1
100
AcDbVertex
100
AcDb2dVertex
62
5
10
112.500000
20
28.250000
0
VERTEX
5
687
100
AcDbEntity
8
1
100
AcDbVertex
100
AcDb2dVertex
62
5
10
114.062500
20
35.750000
0
VERTEX
5
688
100
AcDbEntity
8
1
100
AcDbVertex
100
AcDb2dVertex
62
5
10
115.625000
20
28.250000
0
SEQEND
5
689
100
AcDbEntity
8
1
0
LINE
5
68a
100
AcDbEntity
8
1
100
AcDbLine
6
CONTINUOUS
62
5
10
113.125000
20
30.750000
11
115.000000
21
30.750000
0
LINE
5
68b
100
AcDbEntity
8
1
100
AcDbLine
6
CONTINUOUS
62
5
10
117.500000
20
32.000000
11
120.625000
21
32.000000
0
LINE
5
68c
100
AcDbEntity
8
1
100
AcDbLine
6
CONTINUOUS
62
5
10
90.000000
20
44.000000
11
90.000000
21
20.000000
0
LINE
5
68d
100
AcDbEntity
8
1
100
AcDbLine
6
CONTINUOUS
62
5
10
70.625000
20
34.187500
11
73.750000
21
34.187500
0
LINE
5
68e
100
AcDbEntity
8
1
100
AcDbLine
6
CONTINUOUS
62
5
10
72.500000
20
36.375000
11
72.500000
21
27.625000
0
POLYLINE
5
68f
100
AcDbEntity
8
1
6
CONTINUOUS
62
5
100
AcDb2dPolyline
66
1
10
0.0
20
0.0
30
0.0
70
0
0
VERTEX
5
690
100
AcDbEntity
8
1
100
AcDbVertex
100
AcDb2dVertex
62
5
10
72.500000
20
34.187500
0
VERTEX
5
691
100
AcDbEntity
8
1
100
AcDbVertex
100
AcDb2dVertex
62
5
10
71.562500
20
32.000000
0
VERTEX
5
692
100
AcDbEntity
8
1
100
AcDbVertex
100
AcDb2dVertex
62
5
10
70.625000
20
30.750000
0
SEQEND
5
693
100
AcDbEntity
8
1
0
LINE
5
694
100
AcDbEntity
8
1
100
AcDbLine
6
CONTINUOUS
62
5
10
72.500000
20
33.250000
11
73.437500
21
32.000000
0
POLYLINE
5
695
100
AcDbEntity
8
1
6
CONTINUOUS
62
5
100
AcDb2dPolyline
66
1
10
0.0
20
0.0
30
0.0
70
0
0
VERTEX
5
696
100
AcDbEntity
8
1
100
AcDbVertex
100
AcDb2dVertex
62
5
10
75.937500
20
36.375000
0
VERTEX
5
697
100
AcDbEntity
8
1
100
AcDbVertex
100
AcDb2dVertex
62
5
10
75.312500
20
35.125000
0
VERTEX
5
698
100
AcDbEntity
8
1
100
AcDbVertex
100
AcDb2dVertex
62
5
10
73.750000
20
33.250000
0
SEQEND
5
699
100
AcDbEntity
8
1
0
POLYLINE
5
69a
100
AcDbEntity
8
1
6
CONTINUOUS
62
5
100
AcDb2dPolyline
66
1
10
0.0
20
0.0
30
0.0
70
0
0
VERTEX
5
69b
100
AcDbEntity
8
1
100
AcDbVertex
100
AcDb2dVertex
62
5
10
75.312500
20
35.125000
0
VERTEX
5
69c
100
AcDbEntity
8
1
100
AcDbVertex
100
AcDb2dVertex
62
5
10
78.437500
20
35.125000
0
VERTEX
5
69d
100
AcDbEntity
8
1
100
AcDbVertex
100
AcDb2dVertex
62
5
10
77.500000
20
33.562500
0
VERTEX
5
69e
100
AcDbEntity
8
1
100
AcDbVertex
100
AcDb2dVertex
62
5
10
75.937500
20
32.000000
0
VERTEX
5
69f
100
AcDbEntity
8
1
100
AcDbVertex
100
AcDb2dVertex
62
5
10
73.750000
20
30.750000
0
SEQEND
5
6a0
100
AcDbEntity
8
1
0
POLYLINE
5
6a1
100
AcDbEntity
8
1
6
CONTINUOUS
62
5
100
AcDb2dPolyline
66
1
10
0.0
20
0.0
30
0.0
70
0
0
VERTEX
5
6a2
100
AcDbEntity
8
1
100
AcDbVertex
100
AcDb2dVertex
62
5
10
75.312500
20
35.125000
0
VERTEX
5
6a3
100
AcDbEntity
8
1
100
AcDbVertex
100
AcDb2dVertex
62
5
10
75.937500
20
33.562500
0
VERTEX
5
6a4
100
AcDbEntity
8
1
100
AcDbVertex
100
AcDb2dVertex
62
5
10
77.187500
20
32.000000
0
VERTEX
5
6a5
100
AcDbEntity
8
1
100
AcDbVertex
100
AcDb2dVertex
62
5
10
78.125000
20
31.375000
0
VERTEX
5
6a6
100
AcDbEntity
8
1
100
AcDbVertex
100
AcDb2dVertex
62
5
10
79.375000
20
30.750000
0
SEQEND
5
6a7
100
AcDbEntity
8
1
0
POLYLINE
5
6a8
100
AcDbEntity
8
1
6
CONTINUOUS
62
5
100
AcDb2dPolyline
66
1
10
0.0
20
0.0
30
0.0
70
1
0
VERTEX
5
6a9
100
AcDbEntity
8
1
100
AcDbVertex
100
AcDb2dVertex
62
5
10
75.000000
20
30.750000
0
VERTEX
5
6aa
100
AcDbEntity
8
1
100
AcDbVertex
100
AcDb2dVertex
62
5
10
75.000000
20
27.937500
0
VERTEX
5
6ab
100
AcDbEntity
8
1
100
AcDbVertex
100
AcDb2dVertex
62
5
10
78.437500
20
27.937500
0
VERTEX
5
6ac
100
AcDbEntity
8
1
100
AcDbVertex
100
AcDb2dVertex
62
5
10
78.437500
20
30.750000
0
VERTEX
5
6ad
100
AcDbEntity
8
1
100
AcDbVertex
100
AcDb2dVertex
62
5
10
75.000000
20
30.750000
0
SEQEND
5
6ae
100
AcDbEntity
8
1
0
LINE
5
6af
100
AcDbEntity
8
1
100
AcDbLine
6
CONTINUOUS
62
5
10
54.687500
20
36.375000
11
54.687500
21
35.437500
0
POLYLINE
5
6b0
100
AcDbEntity
8
1
6
CONTINUOUS
62
5
100
AcDb2dPolyline
66
1
10
0.0
20
0.0
30
0.0
70
0
0
VERTEX
5
6b1
100
AcDbEntity
8
1
100
AcDbVertex
100
AcDb2dVertex
62
5
10
50.937500
20
33.250000
0
VERTEX
5
6b2
100
AcDbEntity
8
1
100
AcDbVertex
100
AcDb2dVertex
62
5
10
50.937500
20
35.437500
0
VERTEX
5
6b3
100
AcDbEntity
8
1
100
AcDbVertex
100
AcDb2dVertex
62
5
10
58.437500
20
35.437500
0
VERTEX
5
6b4
100
AcDbEntity
8
1
100
AcDbVertex
100
AcDb2dVertex
62
5
10
58.437500
20
33.250000
0
SEQEND
5
6b5
100
AcDbEntity
8
1
0
LINE
5
6b6
100
AcDbEntity
8
1
100
AcDbLine
6
CONTINUOUS
62
5
10
51.875000
20
33.562500
11
57.500000
21
33.562500
0
LINE
5
6b7
100
AcDbEntity
8
1
100
AcDbLine
6
CONTINUOUS
62
5
10
54.687500
20
33.562500
11
54.687500
21
28.250000
0
LINE
5
6b8
100
AcDbEntity
8
1
100
AcDbLine
6
CONTINUOUS
62
5
10
54.687500
20
31.062500
11
57.500000
21
31.062500
0
POLYLINE
5
6b9
100
AcDbEntity
8
1
6
CONTINUOUS
62
5
100
AcDb2dPolyline
66
1
10
0.0
20
0.0
30
0.0
70
0
0
VERTEX
5
6ba
100
AcDbEntity
8
1
100
AcDbVertex
100
AcDb2dVertex
62
5
10
52.500000
20
31.687500
0
VERTEX
5
6bb
100
AcDbEntity
8
1
100
AcDbVertex
100
AcDb2dVertex
62
5
10
52.187500
20
29.812500
0
VERTEX
5
6bc
100
AcDbEntity
8
1
100
AcDbVertex
100
AcDb2dVertex
62
5
10
51.562500
20
28.562500
0
VERTEX
5
6bd
100
AcDbEntity
8
1
100
AcDbVertex
100
AcDb2dVertex
62
5
10
50.625000
20
27.625000
0
SEQEND
5
6be
100
AcDbEntity
8
1
0
POLYLINE
5
6bf
100
AcDbEntity
8
1
6
CONTINUOUS
62
5
100
AcDb2dPolyline
66
1
10
0.0
20
0.0
30
0.0
70
0
0
VERTEX
5
6c0
100
AcDbEntity
8
1
100
AcDbVertex
100
AcDb2dVertex
62
5
10
52.187500
20
29.812500
0
VERTEX
5
6c1
100
AcDbEntity
8
1
100
AcDbVertex
100
AcDb2dVertex
62
5
10
54.687500
20
28.250000
0
VERTEX
5
6c2
100
AcDbEntity
8
1
100
AcDbVertex
100
AcDb2dVertex
62
5
10
55.937500
20
27.937500
0
VERTEX
5
6c3
100
AcDbEntity
8
1
100
AcDbVertex
100
AcDb2dVertex
62
5
10
59.062500
20
27.625000
0
SEQEND
5
6c4
100
AcDbEntity
8
1
0
POLYLINE
5
6c5
100
AcDbEntity
8
1
6
CONTINUOUS
62
5
100
AcDb2dPolyline
66
1
10
0.0
20
0.0
30
0.0
70
0
0
VERTEX
5
6c6
100
AcDbEntity
8
1
100
AcDbVertex
100
AcDb2dVertex
62
5
10
147.500000
20
28.250000
0
VERTEX
5
6c7
100
AcDbEntity
8
1
100
AcDbVertex
100
AcDb2dVertex
62
5
10
149.062500
20
35.750000
0
VERTEX
5
6c8
100
AcDbEntity
8
1
100
AcDbVertex
100
AcDb2dVertex
62
5
10
150.625000
20
28.250000
0
SEQEND
5
6c9
100
AcDbEntity
8
1
0
LINE
5
6ca
100
AcDbEntity
8
1
100
AcDbLine
6
CONTINUOUS
62
5
10
148.125000
20
30.750000
11
150.000000
21
30.750000
0
POLYLINE
5
6cb
100
AcDbEntity
8
1
6
CONTINUOUS
62
5
100
AcDb2dPolyline
66
1
10
0.0
20
0.0
30
0.0
70
1
0
VERTEX
5
6cc
100
AcDbEntity
8
1
100
AcDbVertex
100
AcDb2dVertex
62
5
10
280.000000
20
20.000000
0
VERTEX
5
6cd
100
AcDbEntity
8
1
100
AcDbVertex
100
AcDb2dVertex
62
5
10
280.000000
20
44.000000
0
VERTEX
5
6ce
100
AcDbEntity
8
1
100
AcDbVertex
100
AcDb2dVertex
62
5
10
40.000000
20
44.000000
0
VERTEX
5
6cf
100
AcDbEntity
8
1
100
AcDbVertex
100
AcDb2dVertex
62
5
10
40.000000
20
20.000000
0
VERTEX
5
6d0
100
AcDbEntity
8
1
100
AcDbVertex
100
AcDb2dVertex
62
5
10
280.000000
20
20.000000
0
SEQEND
5
6d1
100
AcDbEntity
8
1
0
LINE
5
6d2
100
AcDbEntity
8
1
100
AcDbLine
6
CONTINUOUS
62
5
10
40.000000
20
340.000000
11
40.000000
21
308.000000
0
LINE
5
6d3
100
AcDbEntity
8
1
100
AcDbLine
6
CONTINUOUS
62
5
10
0.000000
20
308.000000
11
320.000000
21
308.000000
0
ARC
5
6d4
100
AcDbEntity
8
1
100
AcDbCircle
6
CONTINUOUS
62
5
10
204.050000
20
133.900000
40
0.400000
100
AcDbArc
50
-89.999999
51
0.000000
0
LINE
5
6d5
100
AcDbEntity
8
1
100
AcDbLine
6
CONTINUOUS
62
5
10
204.450000
20
133.900000
11
204.450000
21
166.100000
0
ARC
5
6d6
100
AcDbEntity
8
1
100
AcDbCircle
6
CONTINUOUS
62
5
10
204.050000
20
166.100000
40
0.400000
100
AcDbArc
50
-0.000000
51
89.999999
0
ARC
5
6d7
100
AcDbEntity
8
1
100
AcDbCircle
6
CONTINUOUS
62
5
10
126.950000
20
158.900000
40
2.700000
100
AcDbArc
50
89.999999
51
-89.999999
0
POLYLINE
5
6d8
100
AcDbEntity
8
1
6
CONTINUOUS
62
5
100
AcDb2dPolyline
66
1
10
0.0
20
0.0
30
0.0
70
0
0
VERTEX
5
6d9
100
AcDbEntity
8
1
100
AcDbVertex
100
AcDb2dVertex
62
5
10
126.950000
20
156.200000
0
VERTEX
5
6da
100
AcDbEntity
8
1
100
AcDbVertex
100
AcDb2dVertex
62
5
10
129.650000
20
156.200000
0
VERTEX
5
6db
100
AcDbEntity
8
1
100
AcDbVertex
100
AcDb2dVertex
62
5
10
129.650000
20
161.600000
0
VERTEX
5
6dc
100
AcDbEntity
8
1
100
AcDbVertex
100
AcDb2dVertex
62
5
10
126.950000
20
161.600000
0
SEQEND
5
6dd
100
AcDbEntity
8
1
0
ARC
5
6de
100
AcDbEntity
8
1
100
AcDbCircle
6
CONTINUOUS
62
5
10
137.800000
20
138.500000
40
2.450000
100
AcDbArc
50
120.677423
51
-120.677423
0
LINE
5
6df
100
AcDbEntity
8
1
100
AcDbLine
6
CONTINUOUS
62
5
10
136.550000
20
140.607131
11
136.550000
21
159.392869
0
ARC
5
6e0
100
AcDbEntity
8
1
100
AcDbCircle
6
CONTINUOUS
62
5
10
137.800000
20
161.500000
40
2.450000
100
AcDbArc
50
120.677423
51
-120.677423
0
LINE
5
6e1
100
AcDbEntity
8
1
100
AcDbLine
6
CONTINUOUS
62
5
10
136.550000
20
163.607131
11
136.550000
21
166.000000
0
ARC
5
6e2
100
AcDbEntity
8
1
100
AcDbCircle
6
CONTINUOUS
62
5
10
136.250000
20
166.000000
40
0.300000
100
AcDbArc
50
0.000000
51
179.999998
0
LINE
5
6e3
100
AcDbEntity
8
1
100
AcDbLine
6
CONTINUOUS
62
5
10
135.950000
20
166.000000
11
135.950000
21
163.924871
0
ARC
5
6e4
100
AcDbEntity
8
1
100
AcDbCircle
6
CONTINUOUS
62
5
10
137.800000
20
161.500000
40
3.050000
100
AcDbArc
50
127.340992
51
-127.340992
0
LINE
5
6e5
100
AcDbEntity
8
1
100
AcDbLine
6
CONTINUOUS
62
5
10
135.950000
20
159.075129
11
135.950000
21
140.924871
0
ARC
5
6e6
100
AcDbEntity
8
1
100
AcDbCircle
6
CONTINUOUS
62
5
10
137.800000
20
138.500000
40
3.050000
100
AcDbArc
50
127.340992
51
-127.340992
0
LINE
5
6e7
100
AcDbEntity
8
1
100
AcDbLine
6
CONTINUOUS
62
5
10
135.950000
20
136.075129
11
135.950000
21
134.000000
0
ARC
5
6e8
100
AcDbEntity
8
1
100
AcDbCircle
6
CONTINUOUS
62
5
10
136.250000
20
134.000000
40
0.300000
100
AcDbArc
50
179.999998
51
0.000000
0
LINE
5
6e9
100
AcDbEntity
8
1
100
AcDbLine
6
CONTINUOUS
62
5
10
136.550000
20
134.000000
11
136.550000
21
136.392869
0
LINE
5
6ea
100
AcDbEntity
8
1
100
AcDbLine
6
CONTINUOUS
62
5
10
103.250000
20
163.000000
11
103.250000
21
159.000000
0
ARC
5
6eb
100
AcDbEntity
8
1
100
AcDbCircle
6
CONTINUOUS
62
5
10
98.700000
20
138.500000
40
2.450000
100
AcDbArc
50
-59.322575
51
59.322575
0
LINE
5
6ec
100
AcDbEntity
8
1
100
AcDbLine
6
CONTINUOUS
62
5
10
99.950000
20
140.607131
11
99.950000
21
159.392869
0
ARC
5
6ed
100
AcDbEntity
8
1
100
AcDbCircle
6
CONTINUOUS
62
5
10
98.700000
20
161.500000
40
2.450000
100
AcDbArc
50
-59.322575
51
59.322575
0
LINE
5
6ee
100
AcDbEntity
8
1
100
AcDbLine
6
CONTINUOUS
62
5
10
99.950000
20
163.607131
11
99.950000
21
166.000000
0
ARC
5
6ef
100
AcDbEntity
8
1
100
AcDbCircle
6
CONTINUOUS
62
5
10
100.250000
20
166.000000
40
0.300000
100
AcDbArc
50
0.000000
51
179.999998
0
LINE
5
6f0
100
AcDbEntity
8
1
100
AcDbLine
6
CONTINUOUS
62
5
10
100.550000
20
166.000000
11
100.550000
21
163.924871
0
ARC
5
6f1
100
AcDbEntity
8
1
100
AcDbCircle
6
CONTINUOUS
62
5
10
98.700000
20
161.500000
40
3.050000
100
AcDbArc
50
-52.659007
51
52.659007
0
LINE
5
6f2
100
AcDbEntity
8
1
100
AcDbLine
6
CONTINUOUS
62
5
10
100.550000
20
159.075129
11
100.550000
21
140.924871
0
ARC
5
6f3
100
AcDbEntity
8
1
100
AcDbCircle
6
CONTINUOUS
62
5
10
98.700000
20
138.500000
40
3.050000
100
AcDbArc
50
-52.659007
51
52.659007
0
LINE
5
6f4
100
AcDbEntity
8
1
100
AcDbLine
6
CONTINUOUS
62
5
10
100.550000
20
136.075129
11
100.550000
21
134.000000
0
ARC
5
6f5
100
AcDbEntity
8
1
100
AcDbCircle
6
CONTINUOUS
62
5
10
100.250000
20
134.000000
40
0.300000
100
AcDbArc
50
179.999998
51
0.000000
0
LINE
5
6f6
100
AcDbEntity
8
1
100
AcDbLine
6
CONTINUOUS
62
5
10
99.950000
20
134.000000
11
99.950000
21
136.392869
0
LINE
5
6f7
100
AcDbEntity
8
1
100
AcDbLine
6
CONTINUOUS
62
5
10
103.750000
20
115.650000
11
69.150000
21
115.650000
0
LINE
5
6f8
100
AcDbEntity
8
1
100
AcDbLine
6
CONTINUOUS
62
5
10
103.750000
20
184.350000
11
69.150000
21
184.350000
0
POLYLINE
5
6f9
100
AcDbEntity
8
1
6
CONTINUOUS
62
5
100
AcDb2dPolyline
66
1
10
0.0
20
0.0
30
0.0
70
0
0
VERTEX
5
6fa
100
AcDbEntity
8
1
100
AcDbVertex
100
AcDb2dVertex
62
5
10
71.150000
20
150.000000
0
VERTEX
5
6fb
100
AcDbEntity
8
1
100
AcDbVertex
100
AcDb2dVertex
62
5
10
71.150000
20
115.650000
0
VERTEX
5
6fc
100
AcDbEntity
8
1
100
AcDbVertex
100
AcDb2dVertex
62
5
10
70.150000
20
121.650000
0
VERTEX
5
6fd
100
AcDbEntity
8
1
100
AcDbVertex
100
AcDb2dVertex
62
5
10
72.150000
20
121.650000
0
VERTEX
5
6fe
100
AcDbEntity
8
1
100
AcDbVertex
100
AcDb2dVertex
62
5
10
71.150000
20
115.650000
0
VERTEX
5
6ff
100
AcDbEntity
8
1
100
AcDbVertex
100
AcDb2dVertex
62
5
10
70.650000
20
121.650000
0
VERTEX
5
700
100
AcDbEntity
8
1
100
AcDbVertex
100
AcDb2dVertex
62
5
10
71.650000
20
121.650000
0
VERTEX
5
701
100
AcDbEntity
8
1
100
AcDbVertex
100
AcDb2dVertex
62
5
10
71.150000
20
115.650000
0
SEQEND
5
702
100
AcDbEntity
8
1
0
POLYLINE
5
703
100
AcDbEntity
8
1
6
CONTINUOUS
62
5
100
AcDb2dPolyline
66
1
10
0.0
20
0.0
30
0.0
70
0
0
VERTEX
5
704
100
AcDbEntity
8
1
100
AcDbVertex
100
AcDb2dVertex
62
5
10
71.150000
20
150.000000
0
VERTEX
5
705
100
AcDbEntity
8
1
100
AcDbVertex
100
AcDb2dVertex
62
5
10
71.150000
20
184.350000
0
VERTEX
5
706
100
AcDbEntity
8
1
100
AcDbVertex
100
AcDb2dVertex
62
5
10
72.150000
20
178.350000
0
VERTEX
5
707
100
AcDbEntity
8
1
100
AcDbVertex
100
AcDb2dVertex
62
5
10
70.150000
20
178.350000
0
VERTEX
5
708
100
AcDbEntity
8
1
100
AcDbVertex
100
AcDb2dVertex
62
5
10
71.150000
20
184.350000
0
VERTEX
5
709
100
AcDbEntity
8
1
100
AcDbVertex
100
AcDb2dVertex
62
5
10
71.650000
20
178.350000
0
VERTEX
5
70a
100
AcDbEntity
8
1
100
AcDbVertex
100
AcDb2dVertex
62
5
10
70.650000
20
178.350000
0
VERTEX
5
70b
100
AcDbEntity
8
1
100
AcDbVertex
100
AcDb2dVertex
62
5
10
71.150000
20
184.350000
0
SEQEND
5
70c
100
AcDbEntity
8
1
0
ARC
5
70d
100
AcDbEntity
8
1
100
AcDbCircle
6
CONTINUOUS
62
5
10
128.750000
20
171.400000
40
2.000000
100
AcDbArc
50
0.000000
51
89.999999
0
LINE
5
70e
100
AcDbEntity
8
1
100
AcDbLine
6
CONTINUOUS
62
5
10
130.750000
20
171.400000
11
130.750000
21
146.400000
0
ARC
5
70f
100
AcDbEntity
8
1
100
AcDbCircle
6
CONTINUOUS
62
5
10
128.750000
20
146.400000
40
2.000000
100
AcDbArc
50
-89.999999
51
0.000000
0
LINE
5
710
100
AcDbEntity
8
1
100
AcDbLine
6
CONTINUOUS
62
5
10
128.750000
20
144.400000
11
125.144965
21
144.400000
0
ARC
5
711
100
AcDbEntity
8
1
100
AcDbCircle
6
CONTINUOUS
62
5
10
125.144965
20
146.400000
40
2.000000
100
AcDbArc
50
-176.380434
51
-89.999999
0
ARC
5
712
100
AcDbEntity
8
1
100
AcDbCircle
6
CONTINUOUS
62
5
10
322.750000
20
158.900000
40
200.000000
100
AcDbArc
50
176.380434
51
-176.380434
0
ARC
5
713
100
AcDbEntity
8
1
100
AcDbCircle
6
CONTINUOUS
62
5
10
125.144965
20
171.400000
40
2.000000
100
AcDbArc
50
89.999999
51
176.380434
0
LINE
5
714
100
AcDbEntity
8
1
100
AcDbLine
6
CONTINUOUS
62
5
10
125.144965
20
173.400000
11
128.750000
21
173.400000
0
POLYLINE
5
715
100
AcDbEntity
8
1
6
CONTINUOUS
62
5
100
AcDb2dPolyline
66
1
10
0.0
20
0.0
30
0.0
70
1
0
VERTEX
5
716
100
AcDbEntity
8
1
100
AcDbVertex
100
AcDb2dVertex
62
5
10
203.250000
20
116.750000
0
VERTEX
5
717
100
AcDbEntity
8
1
100
AcDbVertex
100
AcDb2dVertex
62
5
10
203.250000
20
183.250000
0
VERTEX
5
718
100
AcDbEntity
8
1
100
AcDbVertex
100
AcDb2dVertex
62
5
10
204.050000
20
183.250000
0
VERTEX
5
719
100
AcDbEntity
8
1
100
AcDbVertex
100
AcDb2dVertex
62
5
10
204.050000
20
116.750000
0
SEQEND
5
71a
100
AcDbEntity
8
1
0
ARC
5
71b
100
AcDbEntity
8
1
100
AcDbCircle
6
CONTINUOUS
62
5
10
196.350000
20
183.350000
40
1.000000
100
AcDbArc
50
89.999999
51
179.999998
0
LINE
5
71c
100
AcDbEntity
8
1
100
AcDbLine
6
CONTINUOUS
62
5
10
195.350000
20
183.350000
11
195.350000
21
116.650000
0
ARC
5
71d
100
AcDbEntity
8
1
100
AcDbCircle
6
CONTINUOUS
62
5
10
196.350000
20
116.650000
40
1.000000
100
AcDbArc
50
179.999998
51
-89.999999
0
POLYLINE
5
71e
100
AcDbEntity
8
1
6
CONTINUOUS
62
5
100
AcDb2dPolyline
66
1
10
0.0
20
0.0
30
0.0
70
0
0
VERTEX
5
71f
100
AcDbEntity
8
1
100
AcDbVertex
100
AcDb2dVertex
62
5
10
196.350000
20
115.650000
0
VERTEX
5
720
100
AcDbEntity
8
1
100
AcDbVertex
100
AcDb2dVertex
62
5
10
207.050000
20
115.650000
0
VERTEX
5
721
100
AcDbEntity
8
1
100
AcDbVertex
100
AcDb2dVertex
62
5
10
207.050000
20
184.350000
0
SEQEND
5
722
100
AcDbEntity
8
1
0
LINE
5
723
100
AcDbEntity
8
1
100
AcDbLine
6
CONTINUOUS
62
5
10
207.050000
20
184.350000
11
196.350000
21
184.350000
0
ARC
5
724
100
AcDbEntity
8
1
100
AcDbCircle
6
CONTINUOUS
62
5
10
132.750000
20
117.250000
40
0.500000
100
AcDbArc
50
179.999998
51
-89.999999
0
ARC
5
725
100
AcDbEntity
8
1
100
AcDbCircle
6
CONTINUOUS
62
5
10
132.750000
20
118.100000
40
0.500000
100
AcDbArc
50
89.999999
51
-179.999998
0
LINE
5
726
100
AcDbEntity
8
1
100
AcDbLine
6
CONTINUOUS
62
5
10
132.750000
20
118.600000
11
134.050000
21
118.600000
0
ARC
5
727
100
AcDbEntity
8
1
100
AcDbCircle
6
CONTINUOUS
62
5
10
134.050000
20
119.600000
40
1.000000
100
AcDbArc
50
-89.999999
51
-0.000000
0
POLYLINE
5
728
100
AcDbEntity
8
1
6
CONTINUOUS
62
5
100
AcDb2dPolyline
66
1
10
0.0
20
0.0
30
0.0
70
0
0
VERTEX
5
729
100
AcDbEntity
8
1
100
AcDbVertex
100
AcDb2dVertex
62
5
10
135.050000
20
119.600000
0
VERTEX
5
72a
100
AcDbEntity
8
1
100
AcDbVertex
100
AcDb2dVertex
62
5
10
135.050000
20
120.100000
0
VERTEX
5
72b
100
AcDbEntity
8
1
100
AcDbVertex
100
AcDb2dVertex
62
5
10
134.250000
20
120.100000
0
VERTEX
5
72c
100
AcDbEntity
8
1
100
AcDbVertex
100
AcDb2dVertex
62
5
10
134.250000
20
124.900000
0
VERTEX
5
72d
100
AcDbEntity
8
1
100
AcDbVertex
100
AcDb2dVertex
62
5
10
135.050000
20
124.900000
0
VERTEX
5
72e
100
AcDbEntity
8
1
100
AcDbVertex
100
AcDb2dVertex
62
5
10
135.050000
20
125.420204
0
SEQEND
5
72f
100
AcDbEntity
8
1
0
ARC
5
730
100
AcDbEntity
8
1
100
AcDbCircle
6
CONTINUOUS
62
5
10
134.050000
20
125.420204
40
1.000000
100
AcDbArc
50
0.000000
51
78.463040
0
LINE
5
731
100
AcDbEntity
8
1
100
AcDbLine
6
CONTINUOUS
62
5
10
134.250000
20
126.400000
11
134.250000
21
133.800000
0
ARC
5
732
100
AcDbEntity
8
1
100
AcDbCircle
6
CONTINUOUS
62
5
10
134.250000
20
134.000000
40
0.200000
100
AcDbArc
50
-89.999999
51
0.000000
0
ARC
5
733
100
AcDbEntity
8
1
100
AcDbCircle
6
CONTINUOUS
62
5
10
133.450000
20
134.000000
40
1.000000
100
AcDbArc
50
0.000000
51
89.999999
0
LINE
5
734
100
AcDbEntity
8
1
100
AcDbLine
6
CONTINUOUS
62
5
10
133.450000
20
135.000000
11
133.250000
21
135.000000
0
ARC
5
735
100
AcDbEntity
8
1
100
AcDbCircle
6
CONTINUOUS
62
5
10
133.250000
20
136.000000
40
1.000000
100
AcDbArc
50
179.999998
51
-89.999999
0
POLYLINE
5
736
100
AcDbEntity
8
1
6
CONTINUOUS
62
5
100
AcDb2dPolyline
66
1
10
0.0
20
0.0
30
0.0
70
0
0
VERTEX
5
737
100
AcDbEntity
8
1
100
AcDbVertex
100
AcDb2dVertex
62
5
10
132.250000
20
137.000000
0
VERTEX
5
738
100
AcDbEntity
8
1
100
AcDbVertex
100
AcDb2dVertex
62
5
10
133.450000
20
137.000000
0
VERTEX
5
739
100
AcDbEntity
8
1
100
AcDbVertex
100
AcDb2dVertex
62
5
10
133.450000
20
141.000000
0
VERTEX
5
73a
100
AcDbEntity
8
1
100
AcDbVertex
100
AcDb2dVertex
62
5
10
132.250000
20
141.000000
0
SEQEND
5
73b
100
AcDbEntity
8
1
0
ARC
5
73c
100
AcDbEntity
8
1
100
AcDbCircle
6
CONTINUOUS
62
5
10
133.250000
20
163.000000
40
1.000000
100
AcDbArc
50
89.999999
51
179.999998
0
LINE
5
73d
100
AcDbEntity
8
1
100
AcDbLine
6
CONTINUOUS
62
5
10
133.250000
20
164.000000
11
133.450000
21
164.000000
0
ARC
5
73e
100
AcDbEntity
8
1
100
AcDbCircle
6
CONTINUOUS
62
5
10
133.450000
20
165.000000
40
1.000000
100
AcDbArc
50
-89.999999
51
0.000000
0
ARC
5
73f
100
AcDbEntity
8
1
100
AcDbCircle
6
CONTINUOUS
62
5
10
134.250000
20
165.000000
40
0.200000
100
AcDbArc
50
0.000000
51
89.999999
0
LINE
5
740
100
AcDbEntity
8
1
100
AcDbLine
6
CONTINUOUS
62
5
10
134.250000
20
165.200000
11
134.250000
21
173.600000
0
ARC
5
741
100
AcDbEntity
8
1
100
AcDbCircle
6
CONTINUOUS
62
5
10
134.050000
20
174.579796
40
1.000000
100
AcDbArc
50
-78.463040
51
-0.000000
0
POLYLINE
5
742
100
AcDbEntity
8
1
6
CONTINUOUS
62
5
100
AcDb2dPolyline
66
1
10
0.0
20
0.0
30
0.0
70
0
0
VERTEX
5
743
100
AcDbEntity
8
1
100
AcDbVertex
100
AcDb2dVertex
62
5
10
135.050000
20
174.579796
0
VERTEX
5
744
100
AcDbEntity
8
1
100
AcDbVertex
100
AcDb2dVertex
62
5
10
135.050000
20
175.100000
0
VERTEX
5
745
100
AcDbEntity
8
1
100
AcDbVertex
100
AcDb2dVertex
62
5
10
134.250000
20
175.100000
0
VERTEX
5
746
100
AcDbEntity
8
1
100
AcDbVertex
100
AcDb2dVertex
62
5
10
134.250000
20
179.900000
0
VERTEX
5
747
100
AcDbEntity
8
1
100
AcDbVertex
100
AcDb2dVertex
62
5
10
135.050000
20
179.900000
0
VERTEX
5
748
100
AcDbEntity
8
1
100
AcDbVertex
100
AcDb2dVertex
62
5
10
135.050000
20
180.400000
0
SEQEND
5
749
100
AcDbEntity
8
1
0
ARC
5
74a
100
AcDbEntity
8
1
100
AcDbCircle
6
CONTINUOUS
62
5
10
134.050000
20
180.400000
40
1.000000
100
AcDbArc
50
0.000000
51
89.999999
0
LINE
5
74b
100
AcDbEntity
8
1
100
AcDbLine
6
CONTINUOUS
62
5
10
134.050000
20
181.400000
11
132.750000
21
181.400000
0
ARC
5
74c
100
AcDbEntity
8
1
100
AcDbCircle
6
CONTINUOUS
62
5
10
132.750000
20
181.900000
40
0.500000
100
AcDbArc
50
179.999998
51
-89.999999
0
ARC
5
74d
100
AcDbEntity
8
1
100
AcDbCircle
6
CONTINUOUS
62
5
10
132.750000
20
182.750000
40
0.500000
100
AcDbArc
50
89.999999
51
179.999998
0
LINE
5
74e
100
AcDbEntity
8
1
100
AcDbLine
6
CONTINUOUS
62
5
10
132.750000
20
183.250000
11
136.816104
21
183.250000
0
ARC
5
74f
100
AcDbEntity
8
1
100
AcDbCircle
6
CONTINUOUS
62
5
10
136.816104
20
182.000000
40
1.250000
100
AcDbArc
50
9.206896
51
89.999999
0
ARC
5
750
100
AcDbEntity
8
1
100
AcDbCircle
6
CONTINUOUS
62
5
10
139.050000
20
182.200000
40
1.000000
100
AcDbArc
50
179.999998
51
-89.999999
0
LINE
5
751
100
AcDbEntity
8
1
100
AcDbLine
6
CONTINUOUS
62
5
10
139.050000
20
181.200000
11
139.700000
21
181.200000
0
ARC
5
752
100
AcDbEntity
8
1
100
AcDbCircle
6
CONTINUOUS
62
5
10
139.700000
20
180.700000
40
0.500000
100
AcDbArc
50
0.000000
51
89.999999
0
LINE
5
753
100
AcDbEntity
8
1
100
AcDbLine
6
CONTINUOUS
62
5
10
140.200000
20
180.700000
11
140.200000
21
178.900000
0
ARC
5
754
100
AcDbEntity
8
1
100
AcDbCircle
6
CONTINUOUS
62
5
10
139.700000
20
178.900000
40
0.500000
100
AcDbArc
50
-89.999999
51
0.000000
0
LINE
5
755
100
AcDbEntity
8
1
100
AcDbLine
6
CONTINUOUS
62
5
10
139.700000
20
178.400000
11
139.050000
21
178.400000
0
ARC
5
756
100
AcDbEntity
8
1
100
AcDbCircle
6
CONTINUOUS
62
5
10
139.050000
20
177.400000
40
1.000000
100
AcDbArc
50
89.999999
51
179.999998
0
LINE
5
757
100
AcDbEntity
8
1
100
AcDbLine
6
CONTINUOUS
62
5
10
138.050000
20
177.400000
11
138.050000
21
168.700000
0
ARC
5
758
100
AcDbEntity
8
1
100
AcDbCircle
6
CONTINUOUS
62
5
10
139.050000
20
168.700000
40
1.000000
100
AcDbArc
50
179.999998
51
-89.999999
0
LINE
5
759
100
AcDbEntity
8
1
100
AcDbLine
6
CONTINUOUS
62
5
10
139.050000
20
167.700000
11
139.850000
21
167.700000
0
ARC
5
75a
100
AcDbEntity
8
1
100
AcDbCircle
6
CONTINUOUS
62
5
10
139.850000
20
167.200000
40
0.500000
100
AcDbArc
50
0.000000
51
89.999999
0
LINE
5
75b
100
AcDbEntity
8
1
100
AcDbLine
6
CONTINUOUS
62
5
10
140.350000
20
167.200000
11
140.350000
21
165.300000
0
ARC
5
75c
100
AcDbEntity
8
1
100
AcDbCircle
6
CONTINUOUS
62
5
10
139.850000
20
165.300000
40
0.500000
100
AcDbArc
50
-89.999999
51
0.000000
0
LINE
5
75d
100
AcDbEntity
8
1
100
AcDbLine
6
CONTINUOUS
62
5
10
139.850000
20
164.800000
11
139.050000
21
164.800000
0
ARC
5
75e
100
AcDbEntity
8
1
100
AcDbCircle
6
CONTINUOUS
62
5
10
139.050000
20
163.800000
40
1.000000
100
AcDbArc
50
89.999999
51
179.999998
0
LINE
5
75f
100
AcDbEntity
8
1
100
AcDbLine
6
CONTINUOUS
62
5
10
138.050000
20
163.800000
11
138.050000
21
163.621320
0
ARC
5
760
100
AcDbEntity
8
1
100
AcDbCircle
6
CONTINUOUS
62
5
10
137.050000
20
163.621320
40
1.000000
100
AcDbArc
50
-70.528779
51
0.000000
0
ARC
5
761
100
AcDbEntity
8
1
100
AcDbCircle
6
CONTINUOUS
62
5
10
137.800000
20
161.500000
40
1.250000
100
AcDbArc
50
109.471220
51
179.999998
0
ARC
5
762
100
AcDbEntity
8
1
100
AcDbCircle
6
CONTINUOUS
62
5
10
137.800000
20
161.500000
40
1.250000
100
AcDbArc
50
-179.999998
51
-109.471220
0
ARC
5
763
100
AcDbEntity
8
1
100
AcDbCircle
6
CONTINUOUS
62
5
10
137.050000
20
159.378680
40
1.000000
100
AcDbArc
50
0.000000
51
70.528779
0
LINE
5
764
100
AcDbEntity
8
1
100
AcDbLine
6
CONTINUOUS
62
5
10
138.050000
20
159.378680
11
138.050000
21
140.621320
0
ARC
5
765
100
AcDbEntity
8
1
100
AcDbCircle
6
CONTINUOUS
62
5
10
137.050000
20
140.621320
40
1.000000
100
AcDbArc
50
-70.528779
51
-0.000000
0
ARC
5
766
100
AcDbEntity
8
1
100
AcDbCircle
6
CONTINUOUS
62
5
10
137.800000
20
138.500000
40
1.250000
100
AcDbArc
50
109.471220
51
-109.471220
0
ARC
5
767
100
AcDbEntity
8
1
100
AcDbCircle
6
CONTINUOUS
62
5
10
137.050000
20
136.378680
40
1.000000
100
AcDbArc
50
0.000000
51
70.528779
0
LINE
5
768
100
AcDbEntity
8
1
100
AcDbLine
6
CONTINUOUS
62
5
10
138.050000
20
136.378680
11
138.050000
21
136.200000
0
ARC
5
769
100
AcDbEntity
8
1
100
AcDbCircle
6
CONTINUOUS
62
5
10
139.050000
20
136.200000
40
1.000000
100
AcDbArc
50
179.999998
51
-89.999999
0
LINE
5
76a
100
AcDbEntity
8
1
100
AcDbLine
6
CONTINUOUS
62
5
10
139.050000
20
135.200000
11
139.850000
21
135.200000
0
ARC
5
76b
100
AcDbEntity
8
1
100
AcDbCircle
6
CONTINUOUS
62
5
10
139.850000
20
134.700000
40
0.500000
100
AcDbArc
50
-0.000000
51
89.999999
0
LINE
5
76c
100
AcDbEntity
8
1
100
AcDbLine
6
CONTINUOUS
62
5
10
140.350000
20
134.700000
11
140.350000
21
132.800000
0
ARC
5
76d
100
AcDbEntity
8
1
100
AcDbCircle
6
CONTINUOUS
62
5
10
139.850000
20
132.800000
40
0.500000
100
AcDbArc
50
-89.999999
51
-0.000000
0
LINE
5
76e
100
AcDbEntity
8
1
100
AcDbLine
6
CONTINUOUS
62
5
10
139.850000
20
132.300000
11
139.050000
21
132.300000
0
ARC
5
76f
100
AcDbEntity
8
1
100
AcDbCircle
6
CONTINUOUS
62
5
10
139.050000
20
131.300000
40
1.000000
100
AcDbArc
50
89.999999
51
-179.999998
0
LINE
5
770
100
AcDbEntity
8
1
100
AcDbLine
6
CONTINUOUS
62
5
10
138.050000
20
131.300000
11
138.050000
21
122.600000
0
ARC
5
771
100
AcDbEntity
8
1
100
AcDbCircle
6
CONTINUOUS
62
5
10
139.050000
20
122.600000
40
1.000000
100
AcDbArc
50
-179.999998
51
-89.999999
0
LINE
5
772
100
AcDbEntity
8
1
100
AcDbLine
6
CONTINUOUS
62
5
10
139.050000
20
121.600000
11
139.700000
21
121.600000
0
ARC
5
773
100
AcDbEntity
8
1
100
AcDbCircle
6
CONTINUOUS
62
5
10
139.700000
20
121.100000
40
0.500000
100
AcDbArc
50
-0.000000
51
89.999999
0
LINE
5
774
100
AcDbEntity
8
1
100
AcDbLine
6
CONTINUOUS
62
5
10
140.200000
20
121.100000
11
140.200000
21
119.300000
0
ARC
5
775
100
AcDbEntity
8
1
100
AcDbCircle
6
CONTINUOUS
62
5
10
139.700000
20
119.300000
40
0.500000
100
AcDbArc
50
-89.999999
51
-0.000000
0
LINE
5
776
100
AcDbEntity
8
1
100
AcDbLine
6
CONTINUOUS
62
5
10
139.700000
20
118.800000
11
139.050000
21
118.800000
0
ARC
5
777
100
AcDbEntity
8
1
100
AcDbCircle
6
CONTINUOUS
62
5
10
139.050000
20
117.800000
40
1.000000
100
AcDbArc
50
89.999999
51
-179.999998
0
ARC
5
778
100
AcDbEntity
8
1
100
AcDbCircle
6
CONTINUOUS
62
5
10
136.816104
20
118.000000
40
1.250000
100
AcDbArc
50
-89.999999
51
-9.206896
0
LINE
5
779
100
AcDbEntity
8
1
100
AcDbLine
6
CONTINUOUS
62
5
10
136.816104
20
116.750000
11
132.750000
21
116.750000
0
ARC
5
77a
100
AcDbEntity
8
1
100
AcDbCircle
6
CONTINUOUS
62
5
10
103.750000
20
118.100000
40
0.500000
100
AcDbArc
50
0.000000
51
89.999999
0
ARC
5
77b
100
AcDbEntity
8
1
100
AcDbCircle
6
CONTINUOUS
62
5
10
103.750000
20
117.250000
40
0.500000
100
AcDbArc
50
-89.999999
51
-0.000000
0
LINE
5
77c
100
AcDbEntity
8
1
100
AcDbLine
6
CONTINUOUS
62
5
10
103.750000
20
116.750000
11
99.683896
21
116.750000
0
ARC
5
77d
100
AcDbEntity
8
1
100
AcDbCircle
6
CONTINUOUS
62
5
10
99.683896
20
118.000000
40
1.250000
100
AcDbArc
50
-170.793102
51
-89.999999
0
ARC
5
77e
100
AcDbEntity
8
1
100
AcDbCircle
6
CONTINUOUS
62
5
10
97.450000
20
117.800000
40
1.000000
100
AcDbArc
50
0.000000
51
89.999999
0
LINE
5
77f
100
AcDbEntity
8
1
100
AcDbLine
6
CONTINUOUS
62
5
10
97.450000
20
118.800000
11
96.800000
21
118.800000
0
ARC
5
780
100
AcDbEntity
8
1
100
AcDbCircle
6
CONTINUOUS
62
5
10
96.800000
20
119.300000
40
0.500000
100
AcDbArc
50
179.999998
51
-89.999999
0
LINE
5
781
100
AcDbEntity
8
1
100
AcDbLine
6
CONTINUOUS
62
5
10
96.300000
20
119.300000
11
96.300000
21
121.100000
0
ARC
5
782
100
AcDbEntity
8
1
100
AcDbCircle
6
CONTINUOUS
62
5
10
96.800000
20
121.100000
40
0.500000
100
AcDbArc
50
89.999999
51
179.999998
0
LINE
5
783
100
AcDbEntity
8
1
100
AcDbLine
6
CONTINUOUS
62
5
10
96.800000
20
121.600000
11
97.450000
21
121.600000
0
ARC
5
784
100
AcDbEntity
8
1
100
AcDbCircle
6
CONTINUOUS
62
5
10
97.450000
20
122.600000
40
1.000000
100
AcDbArc
50
-89.999999
51
0.000000
0
LINE
5
785
100
AcDbEntity
8
1
100
AcDbLine
6
CONTINUOUS
62
5
10
98.450000
20
122.600000
11
98.450000
21
131.300000
0
ARC
5
786
100
AcDbEntity
8
1
100
AcDbCircle
6
CONTINUOUS
62
5
10
97.450000
20
131.300000
40
1.000000
100
AcDbArc
50
0.000000
51
89.999999
0
LINE
5
787
100
AcDbEntity
8
1
100
AcDbLine
6
CONTINUOUS
62
5
10
97.450000
20
132.300000
11
96.650000
21
132.300000
0
ARC
5
788
100
AcDbEntity
8
1
100
AcDbCircle
6
CONTINUOUS
62
5
10
96.650000
20
132.800000
40
0.500000
100
AcDbArc
50
179.999998
51
-89.999999
0
LINE
5
789
100
AcDbEntity
8
1
100
AcDbLine
6
CONTINUOUS
62
5
10
96.150000
20
132.800000
11
96.150000
21
134.700000
0
ARC
5
78a
100
AcDbEntity
8
1
100
AcDbCircle
6
CONTINUOUS
62
5
10
96.650000
20
134.700000
40
0.500000
100
AcDbArc
50
89.999999
51
179.999998
0
LINE
5
78b
100
AcDbEntity
8
1
100
AcDbLine
6
CONTINUOUS
62
5
10
96.650000
20
135.200000
11
97.450000
21
135.200000
0
ARC
5
78c
100
AcDbEntity
8
1
100
AcDbCircle
6
CONTINUOUS
62
5
10
97.450000
20
136.200000
40
1.000000
100
AcDbArc
50
-89.999999
51
0.000000
0
LINE
5
78d
100
AcDbEntity
8
1
100
AcDbLine
6
CONTINUOUS
62
5
10
98.450000
20
136.200000
11
98.450000
21
136.378680
0
ARC
5
78e
100
AcDbEntity
8
1
100
AcDbCircle
6
CONTINUOUS
62
5
10
99.450000
20
136.378680
40
1.000000
100
AcDbArc
50
109.471220
51
179.999998
0
ARC
5
78f
100
AcDbEntity
8
1
100
AcDbCircle
6
CONTINUOUS
62
5
10
98.700000
20
138.500000
40
1.250000
100
AcDbArc
50
-70.528779
51
-0.000000
0
ARC
5
790
100
AcDbEntity
8
1
100
AcDbCircle
6
CONTINUOUS
62
5
10
98.700000
20
138.500000
40
1.250000
100
AcDbArc
50
0.000000
51
70.528779
0
ARC
5
791
100
AcDbEntity
8
1
100
AcDbCircle
6
CONTINUOUS
62
5
10
99.450000
20
140.621320
40
1.000000
100
AcDbArc
50
179.999998
51
-109.471220
0
LINE
5
792
100
AcDbEntity
8
1
100
AcDbLine
6
CONTINUOUS
62
5
10
98.450000
20
140.621320
11
98.450000
21
159.378680
0
ARC
5
793
100
AcDbEntity
8
1
100
AcDbCircle
6
CONTINUOUS
62
5
10
99.450000
20
159.378680
40
1.000000
100
AcDbArc
50
109.471220
51
179.999998
0
ARC
5
794
100
AcDbEntity
8
1
100
AcDbCircle
6
CONTINUOUS
62
5
10
98.700000
20
161.500000
40
1.250000
100
AcDbArc
50
-70.528779
51
70.528779
0
ARC
5
795
100
AcDbEntity
8
1
100
AcDbCircle
6
CONTINUOUS
62
5
10
99.450000
20
163.621320
40
1.000000
100
AcDbArc
50
-179.999998
51
-109.471220
0
LINE
5
796
100
AcDbEntity
8
1
100
AcDbLine
6
CONTINUOUS
62
5
10
98.450000
20
163.621320
11
98.450000
21
163.800000
0
ARC
5
797
100
AcDbEntity
8
1
100
AcDbCircle
6
CONTINUOUS
62
5
10
97.450000
20
163.800000
40
1.000000
100
AcDbArc
50
-0.000000
51
89.999999
0
LINE
5
798
100
AcDbEntity
8
1
100
AcDbLine
6
CONTINUOUS
62
5
10
97.450000
20
164.800000
11
96.650000
21
164.800000
0
ARC
5
799
100
AcDbEntity
8
1
100
AcDbCircle
6
CONTINUOUS
62
5
10
96.650000
20
165.300000
40
0.500000
100
AcDbArc
50
179.999998
51
-89.999999
0
LINE
5
79a
100
AcDbEntity
8
1
100
AcDbLine
6
CONTINUOUS
62
5
10
96.150000
20
165.300000
11
96.150000
21
167.200000
0
ARC
5
79b
100
AcDbEntity
8
1
100
AcDbCircle
6
CONTINUOUS
62
5
10
96.650000
20
167.200000
40
0.500000
100
AcDbArc
50
89.999999
51
179.999998
0
LINE
5
79c
100
AcDbEntity
8
1
100
AcDbLine
6
CONTINUOUS
62
5
10
96.650000
20
167.700000
11
97.450000
21
167.700000
0
ARC
5
79d
100
AcDbEntity
8
1
100
AcDbCircle
6
CONTINUOUS
62
5
10
97.450000
20
168.700000
40
1.000000
100
AcDbArc
50
-89.999999
51
0.000000
0
LINE
5
79e
100
AcDbEntity
8
1
100
AcDbLine
6
CONTINUOUS
62
5
10
98.450000
20
168.700000
11
98.450000
21
177.400000
0
ARC
5
79f
100
AcDbEntity
8
1
100
AcDbCircle
6
CONTINUOUS
62
5
10
97.450000
20
177.400000
40
1.000000
100
AcDbArc
50
0.000000
51
89.999999
0
LINE
5
7a0
100
AcDbEntity
8
1
100
AcDbLine
6
CONTINUOUS
62
5
10
97.450000
20
178.400000
11
96.800000
21
178.400000
0
ARC
5
7a1
100
AcDbEntity
8
1
100
AcDbCircle
6
CONTINUOUS
62
5
10
96.800000
20
178.900000
40
0.500000
100
AcDbArc
50
179.999998
51
-89.999999
0
LINE
5
7a2
100
AcDbEntity
8
1
100
AcDbLine
6
CONTINUOUS
62
5
10
96.300000
20
178.900000
11
96.300000
21
180.700000
0
ARC
5
7a3
100
AcDbEntity
8
1
100
AcDbCircle
6
CONTINUOUS
62
5
10
96.800000
20
180.700000
40
0.500000
100
AcDbArc
50
89.999999
51
179.999998
0
LINE
5
7a4
100
AcDbEntity
8
1
100
AcDbLine
6
CONTINUOUS
62
5
10
96.800000
20
181.200000
11
97.450000
21
181.200000
0
ARC
5
7a5
100
AcDbEntity
8
1
100
AcDbCircle
6
CONTINUOUS
62
5
10
97.450000
20
182.200000
40
1.000000
100
AcDbArc
50
-89.999999
51
0.000000
0
ARC
5
7a6
100
AcDbEntity
8
1
100
AcDbCircle
6
CONTINUOUS
62
5
10
99.683896
20
182.000000
40
1.250000
100
AcDbArc
50
89.999999
51
170.793102
0
LINE
5
7a7
100
AcDbEntity
8
1
100
AcDbLine
6
CONTINUOUS
62
5
10
99.683896
20
183.250000
11
103.750000
21
183.250000
0
ARC
5
7a8
100
AcDbEntity
8
1
100
AcDbCircle
6
CONTINUOUS
62
5
10
103.750000
20
182.750000
40
0.500000
100
AcDbArc
50
-0.000000
51
89.999999
0
ARC
5
7a9
100
AcDbEntity
8
1
100
AcDbCircle
6
CONTINUOUS
62
5
10
103.750000
20
181.900000
40
0.500000
100
AcDbArc
50
-89.999999
51
0.000000
0
LINE
5
7aa
100
AcDbEntity
8
1
100
AcDbLine
6
CONTINUOUS
62
5
10
103.750000
20
181.400000
11
102.450000
21
181.400000
0
ARC
5
7ab
100
AcDbEntity
8
1
100
AcDbCircle
6
CONTINUOUS
62
5
10
102.450000
20
180.400000
40
1.000000
100
AcDbArc
50
89.999999
51
179.999998
0
POLYLINE
5
7ac
100
AcDbEntity
8
1
6
CONTINUOUS
62
5
100
AcDb2dPolyline
66
1
10
0.0
20
0.0
30
0.0
70
0
0
VERTEX
5
7ad
100
AcDbEntity
8
1
100
AcDbVertex
100
AcDb2dVertex
62
5
10
101.450000
20
180.400000
0
VERTEX
5
7ae
100
AcDbEntity
8
1
100
AcDbVertex
100
AcDb2dVertex
62
5
10
101.450000
20
179.900000
0
VERTEX
5
7af
100
AcDbEntity
8
1
100
AcDbVertex
100
AcDb2dVertex
62
5
10
102.250000
20
179.900000
0
VERTEX
5
7b0
100
AcDbEntity
8
1
100
AcDbVertex
100
AcDb2dVertex
62
5
10
102.250000
20
175.100000
0
VERTEX
5
7b1
100
AcDbEntity
8
1
100
AcDbVertex
100
AcDb2dVertex
62
5
10
101.450000
20
175.100000
0
VERTEX
5
7b2
100
AcDbEntity
8
1
100
AcDbVertex
100
AcDb2dVertex
62
5
10
101.450000
20
174.579796
0
SEQEND
5
7b3
100
AcDbEntity
8
1
0
ARC
5
7b4
100
AcDbEntity
8
1
100
AcDbCircle
6
CONTINUOUS
62
5
10
102.450000
20
174.579796
40
1.000000
100
AcDbArc
50
-179.999998
51
-101.536958
0
LINE
5
7b5
100
AcDbEntity
8
1
100
AcDbLine
6
CONTINUOUS
62
5
10
102.250000
20
173.600000
11
102.250000
21
166.200000
0
ARC
5
7b6
100
AcDbEntity
8
1
100
AcDbCircle
6
CONTINUOUS
62
5
10
102.250000
20
166.000000
40
0.200000
100
AcDbArc
50
89.999999
51
-179.999998
0
ARC
5
7b7
100
AcDbEntity
8
1
100
AcDbCircle
6
CONTINUOUS
62
5
10
103.050000
20
166.000000
40
1.000000
100
AcDbArc
50
-179.999998
51
-89.999999
0
LINE
5
7b8
100
AcDbEntity
8
1
100
AcDbLine
6
CONTINUOUS
62
5
10
103.050000
20
165.000000
11
103.250000
21
165.000000
0
ARC
5
7b9
100
AcDbEntity
8
1
100
AcDbCircle
6
CONTINUOUS
62
5
10
103.250000
20
164.000000
40
1.000000
100
AcDbArc
50
-0.000000
51
89.999999
0
POLYLINE
5
7ba
100
AcDbEntity
8
1
6
CONTINUOUS
62
5
100
AcDb2dPolyline
66
1
10
0.0
20
0.0
30
0.0
70
0
0
VERTEX
5
7bb
100
AcDbEntity
8
1
100
AcDbVertex
100
AcDb2dVertex
62
5
10
104.250000
20
163.000000
0
VERTEX
5
7bc
100
AcDbEntity
8
1
100
AcDbVertex
100
AcDb2dVertex
62
5
10
103.050000
20
163.000000
0
VERTEX
5
7bd
100
AcDbEntity
8
1
100
AcDbVertex
100
AcDb2dVertex
62
5
10
103.050000
20
159.000000
0
VERTEX
5
7be
100
AcDbEntity
8
1
100
AcDbVertex
100
AcDb2dVertex
62
5
10
104.250000
20
159.000000
0
SEQEND
5
7bf
100
AcDbEntity
8
1
0
ARC
5
7c0
100
AcDbEntity
8
1
100
AcDbCircle
6
CONTINUOUS
62
5
10
103.250000
20
137.000000
40
1.000000
100
AcDbArc
50
-89.999999
51
0.000000
0
LINE
5
7c1
100
AcDbEntity
8
1
100
AcDbLine
6
CONTINUOUS
62
5
10
103.250000
20
136.000000
11
103.050000
21
136.000000
0
ARC
5
7c2
100
AcDbEntity
8
1
100
AcDbCircle
6
CONTINUOUS
62
5
10
103.050000
20
135.000000
40
1.000000
100
AcDbArc
50
89.999999
51
179.999998
0
ARC
5
7c3
100
AcDbEntity
8
1
100
AcDbCircle
6
CONTINUOUS
62
5
10
102.250000
20
135.000000
40
0.200000
100
AcDbArc
50
-179.999998
51
-89.999999
0
LINE
5
7c4
100
AcDbEntity
8
1
100
AcDbLine
6
CONTINUOUS
62
5
10
102.250000
20
134.800000
11
102.250000
21
126.400000
0
ARC
5
7c5
100
AcDbEntity
8
1
100
AcDbCircle
6
CONTINUOUS
62
5
10
102.450000
20
125.420204
40
1.000000
100
AcDbArc
50
101.536958
51
179.999998
0
POLYLINE
5
7c6
100
AcDbEntity
8
1
6
CONTINUOUS
62
5
100
AcDb2dPolyline
66
1
10
0.0
20
0.0
30
0.0
70
0
0
VERTEX
5
7c7
100
AcDbEntity
8
1
100
AcDbVertex
100
AcDb2dVertex
62
5
10
101.450000
20
125.420204
0
VERTEX
5
7c8
100
AcDbEntity
8
1
100
AcDbVertex
100
AcDb2dVertex
62
5
10
101.450000
20
124.900000
0
VERTEX
5
7c9
100
AcDbEntity
8
1
100
AcDbVertex
100
AcDb2dVertex
62
5
10
102.250000
20
124.900000
0
VERTEX
5
7ca
100
AcDbEntity
8
1
100
AcDbVertex
100
AcDb2dVertex
62
5
10
102.250000
20
120.100000
0
VERTEX
5
7cb
100
AcDbEntity
8
1
100
AcDbVertex
100
AcDb2dVertex
62
5
10
101.450000
20
120.100000
0
VERTEX
5
7cc
100
AcDbEntity
8
1
100
AcDbVertex
100
AcDb2dVertex
62
5
10
101.450000
20
119.600000
0
SEQEND
5
7cd
100
AcDbEntity
8
1
0
ARC
5
7ce
100
AcDbEntity
8
1
100
AcDbCircle
6
CONTINUOUS
62
5
10
102.450000
20
119.600000
40
1.000000
100
AcDbArc
50
179.999998
51
-89.999999
0
LINE
5
7cf
100
AcDbEntity
8
1
100
AcDbLine
6
CONTINUOUS
62
5
10
102.450000
20
118.600000
11
103.750000
21
118.600000
0
ARC
5
7d0
100
AcDbEntity
8
1
100
AcDbCircle
6
CONTINUOUS
62
5
10
131.250000
20
183.350000
40
1.000000
100
AcDbArc
50
0.000000
51
89.999999
0
LINE
5
7d1
100
AcDbEntity
8
1
100
AcDbLine
6
CONTINUOUS
62
5
10
132.250000
20
183.350000
11
132.250000
21
116.650000
0
ARC
5
7d2
100
AcDbEntity
8
1
100
AcDbCircle
6
CONTINUOUS
62
5
10
131.250000
20
116.650000
40
1.000000
100
AcDbArc
50
-89.999999
51
0.000000
0
LINE
5
7d3
100
AcDbEntity
8
1
100
AcDbLine
6
CONTINUOUS
62
5
10
131.250000
20
115.650000
11
105.250000
21
115.650000
0
ARC
5
7d4
100
AcDbEntity
8
1
100
AcDbCircle
6
CONTINUOUS
62
5
10
105.250000
20
116.650000
40
1.000000
100
AcDbArc
50
179.999998
51
-89.999999
0
LINE
5
7d5
100
AcDbEntity
8
1
100
AcDbLine
6
CONTINUOUS
62
5
10
104.250000
20
116.650000
11
104.250000
21
183.350000
0
ARC
5
7d6
100
AcDbEntity
8
1
100
AcDbCircle
6
CONTINUOUS
62
5
10
105.250000
20
183.350000
40
1.000000
100
AcDbArc
50
89.999999
51
179.999998
0
LINE
5
7d7
100
AcDbEntity
8
1
100
AcDbLine
6
CONTINUOUS
62
5
10
105.250000
20
184.350000
11
131.250000
21
184.350000
0
ARC
5
7d8
100
AcDbEntity
8
1
100
AcDbCircle
6
CONTINUOUS
62
5
10
219.350000
20
181.827776
40
2.000000
100
AcDbArc
50
0.000000
51
89.198712
0
POLYLINE
5
7d9
100
AcDbEntity
8
1
6
CONTINUOUS
62
5
100
AcDb2dPolyline
66
1
10
0.0
20
0.0
30
0.0
70
0
0
VERTEX
5
7da
100
AcDbEntity
8
1
100
AcDbVertex
100
AcDb2dVertex
62
5
10
221.350000
20
181.827776
0
VERTEX
5
7db
100
AcDbEntity
8
1
100
AcDbVertex
100
AcDb2dVertex
62
5
10
221.350000
20
150.000000
0
VERTEX
5
7dc
100
AcDbEntity
8
1
100
AcDbVertex
100
AcDb2dVertex
62
5
10
221.350000
20
118.172224
0
SEQEND
5
7dd
100
AcDbEntity
8
1
0
ARC
5
7de
100
AcDbEntity
8
1
100
AcDbCircle
6
CONTINUOUS
62
5
10
219.350000
20
118.172224
40
2.000000
100
AcDbArc
50
-89.198712
51
0.000000
0
POLYLINE
5
7df
100
AcDbEntity
8
1
6
CONTINUOUS
62
5
100
AcDb2dPolyline
66
1
10
0.0
20
0.0
30
0.0
70
0
0
VERTEX
5
7e0
100
AcDbEntity
8
1
100
AcDbVertex
100
AcDb2dVertex
62
5
10
219.377969
20
116.172419
0
VERTEX
5
7e1
100
AcDbEntity
8
1
100
AcDbVertex
100
AcDb2dVertex
62
5
10
207.050000
20
116.000000
0
VERTEX
5
7e2
100
AcDbEntity
8
1
100
AcDbVertex
100
AcDb2dVertex
62
5
10
207.050000
20
184.000000
0
VERTEX
5
7e3
100
AcDbEntity
8
1
100
AcDbVertex
100
AcDb2dVertex
62
5
10
219.377969
20
183.827581
0
SEQEND
5
7e4
100
AcDbEntity
8
1
0
POLYLINE
5
7e5
100
AcDbEntity
8
1
6
CONTINUOUS
62
5
100
AcDb2dPolyline
66
1
10
0.0
20
0.0
30
0.0
70
1
0
VERTEX
5
7e6
100
AcDbEntity
8
1
100
AcDbVertex
100
AcDb2dVertex
62
5
10
0.000000
20
0.000000
0
VERTEX
5
7e7
100
AcDbEntity
8
1
100
AcDbVertex
100
AcDb2dVertex
62
5
10
0.000000
20
340.000000
0
VERTEX
5
7e8
100
AcDbEntity
8
1
100
AcDbVertex
100
AcDb2dVertex
62
5
10
320.000000
20
340.000000
0
VERTEX
5
7e9
100
AcDbEntity
8
1
100
AcDbVertex
100
AcDb2dVertex
62
5
10
320.000000
20
0.000000
0
VERTEX
5
7ea
100
AcDbEntity
8
1
100
AcDbVertex
100
AcDb2dVertex
62
5
10
0.000000
20
0.000000
0
SEQEND
5
7eb
100
AcDbEntity
8
1
0
ENDSEC
0
SECTION
2
OBJECTS
0
DICTIONARY
5
7ec
100
AcDbDictionary
3
ACAD_GROUP
350
7ed
3
ACAD_MLINESTYLE
350
7ee
0
DICTIONARY
5
7ed
102
{ACAD_REACTORS
330
7ec
102
}
100
AcDbDictionary
0
DICTIONARY
5
7ee
102
{ACAD_REACTORS
330
7ec
102
}
100
AcDbDictionary
3
STANDARD
350
7ef
0
MLINESTYLE
5
7ef
102
{ACAD_REACTORS
330
7ee
102
}
100
AcDbMlineStyle
2
STANDARD
70
0
3

62
0
51
90.0
52
90.0
71
2
49
0.5
62
256
6
BYLAYER
49
-0.5
62
256
6
BYLAYER
0
ENDSEC
0
EOF
