0
SECTION
2
HEADER
9
$ACADVER
1
AC1012
9
$EXTMIN
10
-0.013701
20
-0.013701
30
0.0
9
$EXTMAX
10
12.606299
20
13.386299
30
0.0
9
$LIMMIN
10
-0.348005
20
-0.348005
9
$LIMMAX
10
320.199995
20
340.011995
9
$DIMSCALE
40
1.000000
9
$PDMODE
70
2
9
$PDSIZE
40
0.0
  9
$HANDSEED
  5
a0d
0
ENDSEC
0
SECTION
2
CLASSES
0
ENDSEC
0
SECTION
2
TABLES
0
TABLE
2
LTYPE
5
1e
100
AcDbSymbolTable
70
12
0
LTYPE
5
1f
100
AcDbSymbolTableRecord
100
AcDbLinetypeTableRecord
2
BYBLOCK
70
0
3

72
65
73
0
40
0.0
0
LTYPE
5
20
100
AcDbSymbolTableRecord
100
AcDbLinetypeTableRecord
2
BYLAYER
70
0
3

72
65
73
0
40
0.0
0
LTYPE
5
21
100
AcDbSymbolTableRecord
100
AcDbLinetypeTableRecord
2
CONTINUOUS
70
64
3
Solid line
72
65
73
0
40
0.0
0
LTYPE
5
22
100
AcDbSymbolTableRecord
100
AcDbLinetypeTableRecord
2
DASHED
70
64
3
__ __ __ __ __ __ __ __ __ __ __ __ __ __ __
72
65
73
2
40
0.75
49
0.5
74
0
49
-0.25
74
0
0
LTYPE
5
23
100
AcDbSymbolTableRecord
100
AcDbLinetypeTableRecord
2
DOT
70
64
3
...............................................
72
65
73
2
40
0.25
49
0.0
74
0
49
-0.25
74
0
0
LTYPE
5
24
100
AcDbSymbolTableRecord
100
AcDbLinetypeTableRecord
2
DASHDOT
70
64
3
__ . __ . __ . __ . __ . __ . __ . __ . __ . --
72
65
73
4
40
1.0
49
0.5
74
0
49
-0.25
74
0
49
0.0
74
0
49
-0.25
74
0
0
LTYPE
5
25
100
AcDbSymbolTableRecord
100
AcDbLinetypeTableRecord
2
CENTER
70
64
3
____ _ ____ _ ____ _ ____ _ ____ _ ____ _ ____
72
65
73
4
40
2.0
49
1.25
74
0
49
-0.25
74
0
49
0.25
74
0
49
-0.25
74
0
0
LTYPE
5
26
100
AcDbSymbolTableRecord
100
AcDbLinetypeTableRecord
2
PHANTOM
70
64
3
_____ _ _ _____ _ _ _____ _ _ _____ _ _ ____
72
65
73
6
40
2.5
49
1.25
74
0
49
-0.25
74
0
49
0.25
74
0
49
-0.25
74
0
49
0.25
74
0
49
-0.25
74
0
0
LTYPE
5
27
100
AcDbSymbolTableRecord
100
AcDbLinetypeTableRecord
2
HIDDEN
70
64
3
_ _ _ _ _ _ _ _ _ _ _ _ _ _ _ _ _ _ _ _ _ _ _
72
65
73
2
40
0.375
49
0.25
74
0
49
-0.125
74
0
0
LTYPE
5
28
100
AcDbSymbolTableRecord
100
AcDbLinetypeTableRecord
2
BORDER
70
64
3
__ __ . __ __ . __ __ . __ __ . __ __ . __ __
72
65
73
6
40
1.75
49
0.5
74
0
49
-0.25
74
0
49
0.5
74
0
49
-0.25
74
0
49
0.0
74
0
49
-0.25
74
0
0
LTYPE
5
29
100
AcDbSymbolTableRecord
100
AcDbLinetypeTableRecord
2
DIVIDE
70
64
3
__ . . __ . . __ . . __ . . __ . . __ . . __
72
65
73
6
40
1.25
49
0.5
74
0
49
-0.25
74
0
49
0.0
74
0
49
-0.25
74
0
49
0.0
74
0
49
-0.25
74
0
0
LTYPE
5
2a
100
AcDbSymbolTableRecord
100
AcDbLinetypeTableRecord
2
DOT2
70
64
3
...............................................
72
65
73
2
40
0.125
49
0.0
74
0
49
-0.125
74
0
0
ENDTAB
0
TABLE
2
STYLE
5
2b
100
AcDbSymbolTable
70
1
0
STYLE
5
2c
100
AcDbSymbolTableRecord
100
AcDbTextStyleTableRecord
2
STANDARD
70
64
40
0.0
41
1.0
50
0.0
71
0
42
5.0
3
txt
4
bigfont
0
ENDTAB
0
TABLE
2
LAYER
5
2d
100
AcDbSymbolTable
70
2
0
LAYER
5
2e
100
AcDbSymbolTableRecord
100
AcDbLayerTableRecord
2
0
70
0
62
7
6
CONTINUOUS
0
LAYER
5
2f
100
AcDbSymbolTableRecord
100
AcDbLayerTableRecord
2
1
70
0
62
7
6
CONTINUOUS
0
ENDTAB
0
TABLE
2
APPID
5
30
100
AcDbSymbolTable
70
1
0
APPID
5
31
100
AcDbSymbolTableRecord
100
AcDbRegAppTableRecord
2
ACAD
70
64
0
ENDTAB
0
TABLE
2
DIMSTYLE
5
32
100
AcDbSymbolTable
70
0
0
ENDTAB
0
TABLE
2
UCS
5
33
100
AcDbSymbolTable
70
0
0
ENDTAB
0
TABLE
2
VIEW
5
34
100
AcDbSymbolTable
70
0
0
ENDTAB
0
TABLE
2
VPORT
5
35
100
AcDbSymbolTable
70
0
0
ENDTAB
0
TABLE
2
BLOCK_RECORD
5
36
100
AcDbSymbolTable
70
0
0
BLOCK_RECORD
5
37
100
AcDbSymbolTableRecord
100
AcDbBlockTableRecord
2
*MODEL_SPACE
0
BLOCK_RECORD
5
38
100
AcDbSymbolTableRecord
100
AcDbBlockTableRecord
2
*PAPER_SPACE
0
BLOCK_RECORD
5
39
100
AcDbSymbolTableRecord
100
AcDbBlockTableRecord
2
OPEN
0
BLOCK_RECORD
5
3a
100
AcDbSymbolTableRecord
100
AcDbBlockTableRecord
2
HALF
0
BLOCK_RECORD
5
3b
100
AcDbSymbolTableRecord
100
AcDbBlockTableRecord
2
CLOSEDBLANK
0
BLOCK_RECORD
5
3c
100
AcDbSymbolTableRecord
100
AcDbBlockTableRecord
2
HALFCLOSE_R
0
BLOCK_RECORD
5
3d
100
AcDbSymbolTableRecord
100
AcDbBlockTableRecord
2
DOT
0
BLOCK_RECORD
5
3e
100
AcDbSymbolTableRecord
100
AcDbBlockTableRecord
2
HALFOPEN_R
0
BLOCK_RECORD
5
3f
100
AcDbSymbolTableRecord
100
AcDbBlockTableRecord
2
CLOSEDF
0
BLOCK_RECORD
5
40
100
AcDbSymbolTableRecord
100
AcDbBlockTableRecord
2
HALF_R
0
ENDTAB
0
ENDSEC
0
SECTION
2
BLOCKS
0
BLOCK
5
41
100
AcDbEntity
8
0
100
AcDbBlockBegin
2
*MODEL_SPACE
70
0
10
0.0
20
0.0
30
0.0
3
*MODEL_SPACE
1

0
ENDBLK
5
42
100
AcDbEntity
8
0
100
AcDbBlockEnd
0
BLOCK
5
43
100
AcDbEntity
67
1
8
0
100
AcDbBlockBegin
2
*PAPER_SPACE
70
0
10
0.0
20
0.0
30
0.0
3
*PAPER_SPACE
1

0
ENDBLK
5
44
100
AcDbEntity
67
1
8
0
100
AcDbBlockEnd
0
BLOCK
5
45
100
AcDbEntity
8
0
100
AcDbBlockBegin
2
OPEN
70
0
10
0.0
20
0.0
30
0.0
3
OPEN
1

0
LINE
5
46
100
AcDbEntity
8
0
6
BYBLOCK
62
0
100
AcDbLine
10
0.000000
20
0.000000
11
-1.000000
21
0.000000
0
LINE
5
47
100
AcDbEntity
8
0
6
BYBLOCK
62
0
100
AcDbLine
10
-1.000000
20
-0.166667
11
0.000000
21
0.000000
0
LINE
5
48
100
AcDbEntity
8
0
6
BYBLOCK
62
0
100
AcDbLine
10
-1.000000
20
0.166667
11
0.000000
21
0.000000
0
ENDBLK
5
49
100
AcDbEntity
8
0
100
AcDbBlockEnd
0
BLOCK
5
4a
100
AcDbEntity
8
0
100
AcDbBlockBegin
2
HALF
70
0
10
0.0
20
0.0
30
0.0
3
HALF
1

0
SOLID
5
4b
100
AcDbEntity
8
0
6
BYBLOCK
62
0
100
AcDbTrace
10
-1.000000
20
0.166667
11
-1.000000
21
-0.166667
12
0.000000
22
0.000000
13
0.000000
23
0.000000
0
ENDBLK
5
4c
100
AcDbEntity
8
0
100
AcDbBlockEnd
0
BLOCK
5
4d
100
AcDbEntity
8
0
100
AcDbBlockBegin
2
CLOSEDBLANK
70
0
10
0.0
20
0.0
30
0.0
3
CLOSEDBLANK
1

0
LINE
5
4e
100
AcDbEntity
8
0
6
BYBLOCK
62
0
100
AcDbLine
10
-1.000000
20
0.166667
11
-1.000000
21
-0.166667
0
LINE
5
4f
100
AcDbEntity
8
0
6
BYBLOCK
62
0
100
AcDbLine
10
0.000000
20
0.000000
11
-1.000000
21
-0.166667
0
LINE
5
50
100
AcDbEntity
8
0
6
BYBLOCK
62
0
100
AcDbLine
10
-1.000000
20
0.166667
11
0.000000
21
0.000000
0
ENDBLK
5
51
100
AcDbEntity
8
0
100
AcDbBlockEnd
0
BLOCK
5
52
100
AcDbEntity
8
0
100
AcDbBlockBegin
2
HALFCLOSE_R
70
0
10
0.0
20
0.0
30
0.0
3
HALFCLOSE_R
1

0
LINE
5
53
100
AcDbEntity
8
0
6
BYBLOCK
62
0
100
AcDbLine
10
-1.000000
20
-0.166667
11
-1.000000
21
0.000000
0
LINE
5
54
100
AcDbEntity
8
0
6
BYBLOCK
62
0
100
AcDbLine
10
-1.000000
20
-0.166667
11
0.000000
21
0.000000
0
LINE
5
55
100
AcDbEntity
8
0
6
BYBLOCK
62
0
100
AcDbLine
10
0.000000
20
0.000000
11
-1.000000
21
0.000000
0
ENDBLK
5
56
100
AcDbEntity
8
0
100
AcDbBlockEnd
0
BLOCK
5
57
100
AcDbEntity
8
0
100
AcDbBlockBegin
2
DOT
70
0
10
0.0
20
0.0
30
0.0
3
DOT
1

0
LINE
5
58
100
AcDbEntity
8
0
6
BYBLOCK
62
0
100
AcDbLine
10
0.000000
20
0.000000
11
-1.000000
21
0.000000
0
POLYLINE
5
59
100
AcDbEntity
8
0
6
BYBLOCK
62
0
100
AcDb2dPolyline
66
1
10
0.0
20
0.0
30
0.0
70
1
40
0.166667
41
0.166667
0
VERTEX
5
5a
100
AcDbEntity
8
0
100
AcDbVertex
100
AcDb2dVertex
62
10
10
-0.083333
20
0.000000
42
1.000000
0
VERTEX
5
5b
100
AcDbEntity
8
0
100
AcDbVertex
100
AcDb2dVertex
62
10
10
0.083333
20
0.000000
42
1.000000
0
SEQEND
5
5c
100
AcDbEntity
8
0
0
ENDBLK
5
5d
100
AcDbEntity
8
0
100
AcDbBlockEnd
0
BLOCK
5
5e
100
AcDbEntity
8
0
100
AcDbBlockBegin
2
HALFOPEN_R
70
0
10
0.0
20
0.0
30
0.0
3
HALFOPEN_R
1

0
LINE
5
5f
100
AcDbEntity
8
0
6
BYBLOCK
62
0
100
AcDbLine
10
-1.000000
20
-0.166667
11
0.000000
21
0.000000
0
LINE
5
60
100
AcDbEntity
8
0
6
BYBLOCK
62
0
100
AcDbLine
10
0.000000
20
0.000000
11
-1.000000
21
0.000000
0
ENDBLK
5
61
100
AcDbEntity
8
0
100
AcDbBlockEnd
0
BLOCK
5
62
100
AcDbEntity
8
0
100
AcDbBlockBegin
2
CLOSEDF
70
0
10
0.0
20
0.0
30
0.0
3
CLOSEDF
1

0
SOLID
5
63
100
AcDbEntity
8
0
6
BYBLOCK
62
0
100
AcDbTrace
10
-1.000000
20
0.166667
11
-1.000000
21
-0.166667
12
0.000000
22
0.000000
13
0.000000
23
0.000000
0
ENDBLK
5
64
100
AcDbEntity
8
0
100
AcDbBlockEnd
0
BLOCK
5
65
100
AcDbEntity
8
0
100
AcDbBlockBegin
2
HALF_R
70
0
10
0.0
20
0.0
30
0.0
3
HALF_R
1

0
SOLID
5
66
100
AcDbEntity
8
0
6
BYBLOCK
62
0
100
AcDbTrace
10
-1.000000
20
-0.166667
11
-1.000000
21
0.000000
12
0.000000
22
0.000000
13
0.000000
23
0.000000
0
ENDBLK
5
67
100
AcDbEntity
8
0
100
AcDbBlockEnd
0
ENDSEC
0
SECTION
2
ENTITIES
0
POLYLINE
5
68
100
AcDbEntity
8
1
6
CONTINUOUS
62
5
100
AcDb2dPolyline
66
1
10
0.0
20
0.0
30
0.0
70
0
0
VERTEX
5
69
100
AcDbEntity
8
1
100
AcDbVertex
100
AcDb2dVertex
62
5
10
293.250000
20
316.187500
0
VERTEX
5
6a
100
AcDbEntity
8
1
100
AcDbVertex
100
AcDb2dVertex
62
5
10
293.500000
20
316.187500
0
VERTEX
5
6b
100
AcDbEntity
8
1
100
AcDbVertex
100
AcDb2dVertex
62
5
10
295.250000
20
314.937500
0
SEQEND
5
6c
100
AcDbEntity
8
1
0
LINE
5
6d
100
AcDbEntity
8
1
100
AcDbLine
6
CONTINUOUS
62
5
10
293.250000
20
319.000000
11
293.250000
21
311.500000
0
POLYLINE
5
6e
100
AcDbEntity
8
1
6
CONTINUOUS
62
5
100
AcDb2dPolyline
66
1
10
0.0
20
0.0
30
0.0
70
0
0
VERTEX
5
6f
100
AcDbEntity
8
1
100
AcDbVertex
100
AcDb2dVertex
62
5
10
301.250000
20
319.625000
0
VERTEX
5
70
100
AcDbEntity
8
1
100
AcDbVertex
100
AcDb2dVertex
62
5
10
300.500000
20
318.375000
0
VERTEX
5
71
100
AcDbEntity
8
1
100
AcDbVertex
100
AcDb2dVertex
62
5
10
299.750000
20
317.437500
0
VERTEX
5
72
100
AcDbEntity
8
1
100
AcDbVertex
100
AcDb2dVertex
62
5
10
298.750000
20
316.500000
0
SEQEND
5
73
100
AcDbEntity
8
1
0
POLYLINE
5
74
100
AcDbEntity
8
1
6
CONTINUOUS
62
5
100
AcDb2dPolyline
66
1
10
0.0
20
0.0
30
0.0
70
0
0
VERTEX
5
75
100
AcDbEntity
8
1
100
AcDbVertex
100
AcDb2dVertex
62
5
10
301.000000
20
319.000000
0
VERTEX
5
76
100
AcDbEntity
8
1
100
AcDbVertex
100
AcDb2dVertex
62
5
10
303.250000
20
319.000000
0
VERTEX
5
77
100
AcDbEntity
8
1
100
AcDbVertex
100
AcDb2dVertex
62
5
10
302.000000
20
317.125000
0
SEQEND
5
78
100
AcDbEntity
8
1
0
POLYLINE
5
79
100
AcDbEntity
8
1
6
CONTINUOUS
62
5
100
AcDb2dPolyline
66
1
10
0.0
20
0.0
30
0.0
70
0
0
VERTEX
5
7a
100
AcDbEntity
8
1
100
AcDbVertex
100
AcDb2dVertex
62
5
10
299.750000
20
317.125000
0
VERTEX
5
7b
100
AcDbEntity
8
1
100
AcDbVertex
100
AcDb2dVertex
62
5
10
304.250000
20
317.125000
0
VERTEX
5
7c
100
AcDbEntity
8
1
100
AcDbVertex
100
AcDb2dVertex
62
5
10
304.250000
20
314.312500
0
VERTEX
5
7d
100
AcDbEntity
8
1
100
AcDbVertex
100
AcDb2dVertex
62
5
10
299.750000
20
314.312500
0
SEQEND
5
7e
100
AcDbEntity
8
1
0
LINE
5
7f
100
AcDbEntity
8
1
100
AcDbLine
6
CONTINUOUS
62
5
10
302.000000
20
317.125000
11
302.000000
21
314.312500
0
POLYLINE
5
80
100
AcDbEntity
8
1
6
CONTINUOUS
62
5
100
AcDb2dPolyline
66
1
10
0.0
20
0.0
30
0.0
70
0
0
VERTEX
5
81
100
AcDbEntity
8
1
100
AcDbVertex
100
AcDb2dVertex
62
5
10
299.750000
20
317.125000
0
VERTEX
5
82
100
AcDbEntity
8
1
100
AcDbVertex
100
AcDb2dVertex
62
5
10
299.750000
20
311.812500
0
VERTEX
5
83
100
AcDbEntity
8
1
100
AcDbVertex
100
AcDb2dVertex
62
5
10
300.250000
20
311.187500
0
VERTEX
5
84
100
AcDbEntity
8
1
100
AcDbVertex
100
AcDb2dVertex
62
5
10
305.250000
20
311.187500
0
VERTEX
5
85
100
AcDbEntity
8
1
100
AcDbVertex
100
AcDb2dVertex
62
5
10
305.250000
20
312.437500
0
SEQEND
5
86
100
AcDbEntity
8
1
0
POLYLINE
5
87
100
AcDbEntity
8
1
6
CONTINUOUS
62
5
100
AcDb2dPolyline
66
1
10
0.0
20
0.0
30
0.0
70
0
0
VERTEX
5
88
100
AcDbEntity
8
1
100
AcDbVertex
100
AcDb2dVertex
62
5
10
287.750000
20
318.687500
0
VERTEX
5
89
100
AcDbEntity
8
1
100
AcDbVertex
100
AcDb2dVertex
62
5
10
285.750000
20
316.187500
0
VERTEX
5
8a
100
AcDbEntity
8
1
100
AcDbVertex
100
AcDb2dVertex
62
5
10
283.500000
20
314.625000
0
SEQEND
5
8b
100
AcDbEntity
8
1
0
LINE
5
8c
100
AcDbEntity
8
1
100
AcDbLine
6
CONTINUOUS
62
5
10
286.250000
20
316.812500
11
286.250000
21
311.500000
0
POLYLINE
5
8d
100
AcDbEntity
8
1
6
CONTINUOUS
62
5
100
AcDb2dPolyline
66
1
10
0.0
20
0.0
30
0.0
70
0
0
VERTEX
5
8e
100
AcDbEntity
8
1
100
AcDbVertex
100
AcDb2dVertex
62
5
10
275.750000
20
315.562500
0
VERTEX
5
8f
100
AcDbEntity
8
1
100
AcDbVertex
100
AcDb2dVertex
62
5
10
275.750000
20
317.750000
0
VERTEX
5
90
100
AcDbEntity
8
1
100
AcDbVertex
100
AcDb2dVertex
62
5
10
279.750000
20
317.750000
0
VERTEX
5
91
100
AcDbEntity
8
1
100
AcDbVertex
100
AcDb2dVertex
62
5
10
279.750000
20
316.812500
0
VERTEX
5
92
100
AcDbEntity
8
1
100
AcDbVertex
100
AcDb2dVertex
62
5
10
279.500000
20
315.250000
0
VERTEX
5
93
100
AcDbEntity
8
1
100
AcDbVertex
100
AcDb2dVertex
62
5
10
279.000000
20
314.000000
0
VERTEX
5
94
100
AcDbEntity
8
1
100
AcDbVertex
100
AcDb2dVertex
62
5
10
278.500000
20
313.062500
0
VERTEX
5
95
100
AcDbEntity
8
1
100
AcDbVertex
100
AcDb2dVertex
62
5
10
277.500000
20
311.812500
0
SEQEND
5
96
100
AcDbEntity
8
1
0
POLYLINE
5
97
100
AcDbEntity
8
1
6
CONTINUOUS
62
5
100
AcDb2dPolyline
66
1
10
0.0
20
0.0
30
0.0
70
0
0
VERTEX
5
98
100
AcDbEntity
8
1
100
AcDbVertex
100
AcDb2dVertex
62
5
10
252.500000
20
315.562500
0
VERTEX
5
99
100
AcDbEntity
8
1
100
AcDbVertex
100
AcDb2dVertex
62
5
10
254.500000
20
315.562500
0
VERTEX
5
9a
100
AcDbEntity
8
1
100
AcDbVertex
100
AcDb2dVertex
62
5
10
254.250000
20
312.437500
0
SEQEND
5
9b
100
AcDbEntity
8
1
0
LINE
5
9c
100
AcDbEntity
8
1
100
AcDbLine
6
CONTINUOUS
62
5
10
251.750000
20
312.437500
11
256.000000
21
312.437500
0
POLYLINE
5
9d
100
AcDbEntity
8
1
6
CONTINUOUS
62
5
100
AcDb2dPolyline
66
1
10
0.0
20
0.0
30
0.0
70
0
0
VERTEX
5
9e
100
AcDbEntity
8
1
100
AcDbVertex
100
AcDb2dVertex
62
5
10
259.000000
20
317.437500
0
VERTEX
5
9f
100
AcDbEntity
8
1
100
AcDbVertex
100
AcDb2dVertex
62
5
10
264.250000
20
317.437500
0
VERTEX
5
a0
100
AcDbEntity
8
1
100
AcDbVertex
100
AcDb2dVertex
62
5
10
264.250000
20
317.125000
0
VERTEX
5
a1
100
AcDbEntity
8
1
100
AcDbVertex
100
AcDb2dVertex
62
5
10
262.500000
20
315.250000
0
VERTEX
5
a2
100
AcDbEntity
8
1
100
AcDbVertex
100
AcDb2dVertex
62
5
10
261.750000
20
315.250000
0
SEQEND
5
a3
100
AcDbEntity
8
1
0
POLYLINE
5
a4
100
AcDbEntity
8
1
6
CONTINUOUS
62
5
100
AcDb2dPolyline
66
1
10
0.0
20
0.0
30
0.0
70
0
0
VERTEX
5
a5
100
AcDbEntity
8
1
100
AcDbVertex
100
AcDb2dVertex
62
5
10
261.750000
20
316.187500
0
VERTEX
5
a6
100
AcDbEntity
8
1
100
AcDbVertex
100
AcDb2dVertex
62
5
10
261.750000
20
314.625000
0
VERTEX
5
a7
100
AcDbEntity
8
1
100
AcDbVertex
100
AcDb2dVertex
62
5
10
261.000000
20
312.750000
0
VERTEX
5
a8
100
AcDbEntity
8
1
100
AcDbVertex
100
AcDb2dVertex
62
5
10
260.000000
20
311.500000
0
SEQEND
5
a9
100
AcDbEntity
8
1
0
POLYLINE
5
aa
100
AcDbEntity
8
1
6
CONTINUOUS
62
5
100
AcDb2dPolyline
66
1
10
0.0
20
0.0
30
0.0
70
0
0
VERTEX
5
ab
100
AcDbEntity
8
1
100
AcDbVertex
100
AcDb2dVertex
62
5
10
243.750000
20
317.750000
0
VERTEX
5
ac
100
AcDbEntity
8
1
100
AcDbVertex
100
AcDb2dVertex
62
5
10
243.750000
20
312.437500
0
VERTEX
5
ad
100
AcDbEntity
8
1
100
AcDbVertex
100
AcDb2dVertex
62
5
10
244.250000
20
311.812500
0
VERTEX
5
ae
100
AcDbEntity
8
1
100
AcDbVertex
100
AcDb2dVertex
62
5
10
247.750000
20
311.812500
0
SEQEND
5
af
100
AcDbEntity
8
1
0
LINE
5
b0
100
AcDbEntity
8
1
100
AcDbLine
6
CONTINUOUS
62
5
10
247.250000
20
315.875000
11
243.750000
21
314.937500
0
POLYLINE
5
b1
100
AcDbEntity
8
1
6
CONTINUOUS
62
5
100
AcDb2dPolyline
66
1
10
0.0
20
0.0
30
0.0
70
1
0
VERTEX
5
b2
100
AcDbEntity
8
1
100
AcDbVertex
100
AcDb2dVertex
62
5
10
247.250000
20
317.750000
0
VERTEX
5
b3
100
AcDbEntity
8
1
100
AcDbVertex
100
AcDb2dVertex
62
5
10
247.750000
20
318.375000
0
VERTEX
5
b4
100
AcDbEntity
8
1
100
AcDbVertex
100
AcDb2dVertex
62
5
10
248.000000
20
318.375000
0
VERTEX
5
b5
100
AcDbEntity
8
1
100
AcDbVertex
100
AcDb2dVertex
62
5
10
248.500000
20
317.750000
0
VERTEX
5
b6
100
AcDbEntity
8
1
100
AcDbVertex
100
AcDb2dVertex
62
5
10
248.500000
20
317.437500
0
VERTEX
5
b7
100
AcDbEntity
8
1
100
AcDbVertex
100
AcDb2dVertex
62
5
10
248.000000
20
316.812500
0
VERTEX
5
b8
100
AcDbEntity
8
1
100
AcDbVertex
100
AcDb2dVertex
62
5
10
247.750000
20
316.812500
0
VERTEX
5
b9
100
AcDbEntity
8
1
100
AcDbVertex
100
AcDb2dVertex
62
5
10
247.250000
20
317.437500
0
VERTEX
5
ba
100
AcDbEntity
8
1
100
AcDbVertex
100
AcDb2dVertex
62
5
10
247.250000
20
317.750000
0
SEQEND
5
bb
100
AcDbEntity
8
1
0
LINE
5
bc
100
AcDbEntity
8
1
100
AcDbLine
6
CONTINUOUS
62
5
10
267.250000
20
316.187500
11
272.250000
21
316.187500
0
POLYLINE
5
bd
100
AcDbEntity
8
1
6
CONTINUOUS
62
5
100
AcDb2dPolyline
66
1
10
0.0
20
0.0
30
0.0
70
0
0
VERTEX
5
be
100
AcDbEntity
8
1
100
AcDbVertex
100
AcDb2dVertex
62
5
10
269.750000
20
318.062500
0
VERTEX
5
bf
100
AcDbEntity
8
1
100
AcDbVertex
100
AcDb2dVertex
62
5
10
269.750000
20
311.812500
0
VERTEX
5
c0
100
AcDbEntity
8
1
100
AcDbVertex
100
AcDb2dVertex
62
5
10
269.250000
20
311.812500
0
SEQEND
5
c1
100
AcDbEntity
8
1
0
LINE
5
c2
100
AcDbEntity
8
1
100
AcDbLine
6
CONTINUOUS
62
5
10
268.500000
20
314.625000
11
267.250000
21
312.750000
0
LINE
5
c3
100
AcDbEntity
8
1
100
AcDbLine
6
CONTINUOUS
62
5
10
271.250000
20
314.625000
11
272.500000
21
313.062500
0
LINE
5
c4
100
AcDbEntity
8
1
100
AcDbLine
6
CONTINUOUS
62
5
10
215.250000
20
329.000000
11
216.500000
21
326.187500
0
LINE
5
c5
100
AcDbEntity
8
1
100
AcDbLine
6
CONTINUOUS
62
5
10
217.500000
20
324.937500
11
216.500000
21
326.187500
0
LINE
5
c6
100
AcDbEntity
8
1
100
AcDbLine
6
CONTINUOUS
62
5
10
216.000000
20
325.250000
11
215.750000
21
323.062500
0
POLYLINE
5
c7
100
AcDbEntity
8
1
6
CONTINUOUS
62
5
100
AcDb2dPolyline
66
1
10
0.0
20
0.0
30
0.0
70
0
0
VERTEX
5
c8
100
AcDbEntity
8
1
100
AcDbVertex
100
AcDb2dVertex
62
5
10
212.750000
20
328.375000
0
VERTEX
5
c9
100
AcDbEntity
8
1
100
AcDbVertex
100
AcDb2dVertex
62
5
10
211.500000
20
326.187500
0
VERTEX
5
ca
100
AcDbEntity
8
1
100
AcDbVertex
100
AcDb2dVertex
62
5
10
210.500000
20
324.937500
0
SEQEND
5
cb
100
AcDbEntity
8
1
0
LINE
5
cc
100
AcDbEntity
8
1
100
AcDbLine
6
CONTINUOUS
62
5
10
213.750000
20
329.000000
11
215.250000
21
329.000000
0
POLYLINE
5
cd
100
AcDbEntity
8
1
6
CONTINUOUS
62
5
100
AcDb2dPolyline
66
1
10
0.0
20
0.0
30
0.0
70
0
0
VERTEX
5
ce
100
AcDbEntity
8
1
100
AcDbVertex
100
AcDb2dVertex
62
5
10
215.750000
20
323.062500
0
VERTEX
5
cf
100
AcDbEntity
8
1
100
AcDbVertex
100
AcDb2dVertex
62
5
10
215.250000
20
320.875000
0
VERTEX
5
d0
100
AcDbEntity
8
1
100
AcDbVertex
100
AcDb2dVertex
62
5
10
214.000000
20
321.500000
0
SEQEND
5
d1
100
AcDbEntity
8
1
0
LINE
5
d2
100
AcDbEntity
8
1
100
AcDbLine
6
CONTINUOUS
62
5
10
216.000000
20
325.250000
11
211.750000
21
325.250000
0
POLYLINE
5
d3
100
AcDbEntity
8
1
6
CONTINUOUS
62
5
100
AcDb2dPolyline
66
1
10
0.0
20
0.0
30
0.0
70
0
0
VERTEX
5
d4
100
AcDbEntity
8
1
100
AcDbVertex
100
AcDb2dVertex
62
5
10
213.500000
20
325.250000
0
VERTEX
5
d5
100
AcDbEntity
8
1
100
AcDbVertex
100
AcDb2dVertex
62
5
10
212.750000
20
322.750000
0
VERTEX
5
d6
100
AcDbEntity
8
1
100
AcDbVertex
100
AcDb2dVertex
62
5
10
212.000000
20
321.812500
0
VERTEX
5
d7
100
AcDbEntity
8
1
100
AcDbVertex
100
AcDb2dVertex
62
5
10
210.750000
20
321.187500
0
SEQEND
5
d8
100
AcDbEntity
8
1
0
POLYLINE
5
d9
100
AcDbEntity
8
1
6
CONTINUOUS
62
5
100
AcDb2dPolyline
66
1
10
0.0
20
0.0
30
0.0
70
1
0
VERTEX
5
da
100
AcDbEntity
8
1
100
AcDbVertex
100
AcDb2dVertex
62
5
10
218.500000
20
329.312500
0
VERTEX
5
db
100
AcDbEntity
8
1
100
AcDbVertex
100
AcDb2dVertex
62
5
10
218.500000
20
320.875000
0
VERTEX
5
dc
100
AcDbEntity
8
1
100
AcDbVertex
100
AcDb2dVertex
62
5
10
225.000000
20
320.875000
0
VERTEX
5
dd
100
AcDbEntity
8
1
100
AcDbVertex
100
AcDb2dVertex
62
5
10
225.000000
20
329.312500
0
VERTEX
5
de
100
AcDbEntity
8
1
100
AcDbVertex
100
AcDb2dVertex
62
5
10
218.500000
20
329.312500
0
SEQEND
5
df
100
AcDbEntity
8
1
0
LINE
5
e0
100
AcDbEntity
8
1
100
AcDbLine
6
CONTINUOUS
62
5
10
219.500000
20
327.125000
11
224.000000
21
327.125000
0
LINE
5
e1
100
AcDbEntity
8
1
100
AcDbLine
6
CONTINUOUS
62
5
10
221.750000
20
328.375000
11
221.750000
21
324.937500
0
POLYLINE
5
e2
100
AcDbEntity
8
1
6
CONTINUOUS
62
5
100
AcDb2dPolyline
66
1
10
0.0
20
0.0
30
0.0
70
1
0
VERTEX
5
e3
100
AcDbEntity
8
1
100
AcDbVertex
100
AcDb2dVertex
62
5
10
220.000000
20
324.937500
0
VERTEX
5
e4
100
AcDbEntity
8
1
100
AcDbVertex
100
AcDb2dVertex
62
5
10
220.000000
20
322.437500
0
VERTEX
5
e5
100
AcDbEntity
8
1
100
AcDbVertex
100
AcDb2dVertex
62
5
10
223.500000
20
322.437500
0
VERTEX
5
e6
100
AcDbEntity
8
1
100
AcDbVertex
100
AcDb2dVertex
62
5
10
223.500000
20
324.937500
0
VERTEX
5
e7
100
AcDbEntity
8
1
100
AcDbVertex
100
AcDb2dVertex
62
5
10
220.000000
20
324.937500
0
SEQEND
5
e8
100
AcDbEntity
8
1
0
LINE
5
e9
100
AcDbEntity
8
1
100
AcDbLine
6
CONTINUOUS
62
5
10
213.250000
20
317.125000
11
215.750000
21
317.125000
0
POLYLINE
5
ea
100
AcDbEntity
8
1
6
CONTINUOUS
62
5
100
AcDb2dPolyline
66
1
10
0.0
20
0.0
30
0.0
70
0
0
VERTEX
5
eb
100
AcDbEntity
8
1
100
AcDbVertex
100
AcDb2dVertex
62
5
10
213.250000
20
317.125000
0
VERTEX
5
ec
100
AcDbEntity
8
1
100
AcDbVertex
100
AcDb2dVertex
62
5
10
212.500000
20
315.875000
0
VERTEX
5
ed
100
AcDbEntity
8
1
100
AcDbVertex
100
AcDb2dVertex
62
5
10
211.750000
20
314.937500
0
SEQEND
5
ee
100
AcDbEntity
8
1
0
POLYLINE
5
ef
100
AcDbEntity
8
1
6
CONTINUOUS
62
5
100
AcDb2dPolyline
66
1
10
0.0
20
0.0
30
0.0
70
0
0
VERTEX
5
f0
100
AcDbEntity
8
1
100
AcDbVertex
100
AcDb2dVertex
62
5
10
215.750000
20
317.125000
0
VERTEX
5
f1
100
AcDbEntity
8
1
100
AcDbVertex
100
AcDb2dVertex
62
5
10
216.000000
20
316.812500
0
VERTEX
5
f2
100
AcDbEntity
8
1
100
AcDbVertex
100
AcDb2dVertex
62
5
10
215.500000
20
315.875000
0
VERTEX
5
f3
100
AcDbEntity
8
1
100
AcDbVertex
100
AcDb2dVertex
62
5
10
214.750000
20
314.312500
0
VERTEX
5
f4
100
AcDbEntity
8
1
100
AcDbVertex
100
AcDb2dVertex
62
5
10
213.500000
20
312.750000
0
VERTEX
5
f5
100
AcDbEntity
8
1
100
AcDbVertex
100
AcDb2dVertex
62
5
10
212.000000
20
311.500000
0
SEQEND
5
f6
100
AcDbEntity
8
1
0
LINE
5
f7
100
AcDbEntity
8
1
100
AcDbLine
6
CONTINUOUS
62
5
10
213.250000
20
315.250000
11
214.250000
21
313.687500
0
LINE
5
f8
100
AcDbEntity
8
1
100
AcDbLine
6
CONTINUOUS
62
5
10
215.750000
20
318.687500
11
216.500000
21
317.750000
0
LINE
5
f9
100
AcDbEntity
8
1
100
AcDbLine
6
CONTINUOUS
62
5
10
216.500000
20
319.312500
11
217.250000
21
318.375000
0
POLYLINE
5
fa
100
AcDbEntity
8
1
6
CONTINUOUS
62
5
100
AcDb2dPolyline
66
1
10
0.0
20
0.0
30
0.0
70
0
0
VERTEX
5
fb
100
AcDbEntity
8
1
100
AcDbVertex
100
AcDb2dVertex
62
5
10
220.500000
20
319.312500
0
VERTEX
5
fc
100
AcDbEntity
8
1
100
AcDbVertex
100
AcDb2dVertex
62
5
10
219.500000
20
316.500000
0
VERTEX
5
fd
100
AcDbEntity
8
1
100
AcDbVertex
100
AcDb2dVertex
62
5
10
218.250000
20
314.312500
0
SEQEND
5
fe
100
AcDbEntity
8
1
0
LINE
5
ff
100
AcDbEntity
8
1
100
AcDbLine
6
CONTINUOUS
62
5
10
219.500000
20
316.500000
11
219.500000
21
310.562500
0
LINE
5
100
100
AcDbEntity
8
1
100
AcDbLine
6
CONTINUOUS
62
5
10
220.250000
20
316.500000
11
225.500000
21
316.500000
0
POLYLINE
5
101
100
AcDbEntity
8
1
6
CONTINUOUS
62
5
100
AcDb2dPolyline
66
1
10
0.0
20
0.0
30
0.0
70
0
0
VERTEX
5
102
100
AcDbEntity
8
1
100
AcDbVertex
100
AcDb2dVertex
62
5
10
223.750000
20
319.312500
0
VERTEX
5
103
100
AcDbEntity
8
1
100
AcDbVertex
100
AcDb2dVertex
62
5
10
223.750000
20
310.875000
0
VERTEX
5
104
100
AcDbEntity
8
1
100
AcDbVertex
100
AcDb2dVertex
62
5
10
222.250000
20
311.187500
0
SEQEND
5
105
100
AcDbEntity
8
1
0
LINE
5
106
100
AcDbEntity
8
1
100
AcDbLine
6
CONTINUOUS
62
5
10
221.250000
20
315.250000
11
222.250000
21
313.375000
0
POLYLINE
5
107
100
AcDbEntity
8
1
6
CONTINUOUS
62
5
100
AcDb2dPolyline
66
1
10
0.0
20
0.0
30
0.0
70
0
0
VERTEX
5
108
100
AcDbEntity
8
1
100
AcDbVertex
100
AcDb2dVertex
62
5
10
207.000000
20
327.125000
0
VERTEX
5
109
100
AcDbEntity
8
1
100
AcDbVertex
100
AcDb2dVertex
62
5
10
207.250000
20
328.375000
0
VERTEX
5
10a
100
AcDbEntity
8
1
100
AcDbVertex
100
AcDb2dVertex
62
5
10
207.750000
20
329.000000
0
VERTEX
5
10b
100
AcDbEntity
8
1
100
AcDbVertex
100
AcDb2dVertex
62
5
10
208.500000
20
329.000000
0
VERTEX
5
10c
100
AcDbEntity
8
1
100
AcDbVertex
100
AcDb2dVertex
62
5
10
209.000000
20
328.687500
0
VERTEX
5
10d
100
AcDbEntity
8
1
100
AcDbVertex
100
AcDb2dVertex
62
5
10
209.250000
20
327.750000
0
VERTEX
5
10e
100
AcDbEntity
8
1
100
AcDbVertex
100
AcDb2dVertex
62
5
10
209.250000
20
326.500000
0
VERTEX
5
10f
100
AcDbEntity
8
1
100
AcDbVertex
100
AcDb2dVertex
62
5
10
209.000000
20
325.875000
0
VERTEX
5
110
100
AcDbEntity
8
1
100
AcDbVertex
100
AcDb2dVertex
62
5
10
208.500000
20
325.250000
0
VERTEX
5
111
100
AcDbEntity
8
1
100
AcDbVertex
100
AcDb2dVertex
62
5
10
207.750000
20
325.250000
0
SEQEND
5
112
100
AcDbEntity
8
1
0
POLYLINE
5
113
100
AcDbEntity
8
1
6
CONTINUOUS
62
5
100
AcDb2dPolyline
66
1
10
0.0
20
0.0
30
0.0
70
0
0
VERTEX
5
114
100
AcDbEntity
8
1
100
AcDbVertex
100
AcDb2dVertex
62
5
10
208.500000
20
325.250000
0
VERTEX
5
115
100
AcDbEntity
8
1
100
AcDbVertex
100
AcDb2dVertex
62
5
10
209.250000
20
324.625000
0
VERTEX
5
116
100
AcDbEntity
8
1
100
AcDbVertex
100
AcDb2dVertex
62
5
10
209.500000
20
323.687500
0
VERTEX
5
117
100
AcDbEntity
8
1
100
AcDbVertex
100
AcDb2dVertex
62
5
10
209.500000
20
322.750000
0
VERTEX
5
118
100
AcDbEntity
8
1
100
AcDbVertex
100
AcDb2dVertex
62
5
10
209.250000
20
322.125000
0
VERTEX
5
119
100
AcDbEntity
8
1
100
AcDbVertex
100
AcDb2dVertex
62
5
10
208.500000
20
321.500000
0
VERTEX
5
11a
100
AcDbEntity
8
1
100
AcDbVertex
100
AcDb2dVertex
62
5
10
207.750000
20
321.500000
0
VERTEX
5
11b
100
AcDbEntity
8
1
100
AcDbVertex
100
AcDb2dVertex
62
5
10
207.250000
20
321.812500
0
VERTEX
5
11c
100
AcDbEntity
8
1
100
AcDbVertex
100
AcDb2dVertex
62
5
10
206.750000
20
322.750000
0
SEQEND
5
11d
100
AcDbEntity
8
1
0
POLYLINE
5
11e
100
AcDbEntity
8
1
6
CONTINUOUS
62
5
100
AcDb2dPolyline
66
1
10
0.0
20
0.0
30
0.0
70
0
0
VERTEX
5
11f
100
AcDbEntity
8
1
100
AcDbVertex
100
AcDb2dVertex
62
5
10
204.500000
20
318.062500
0
VERTEX
5
120
100
AcDbEntity
8
1
100
AcDbVertex
100
AcDb2dVertex
62
5
10
204.500000
20
316.187500
0
VERTEX
5
121
100
AcDbEntity
8
1
100
AcDbVertex
100
AcDb2dVertex
62
5
10
204.250000
20
314.625000
0
VERTEX
5
122
100
AcDbEntity
8
1
100
AcDbVertex
100
AcDb2dVertex
62
5
10
203.750000
20
313.375000
0
VERTEX
5
123
100
AcDbEntity
8
1
100
AcDbVertex
100
AcDb2dVertex
62
5
10
203.000000
20
312.125000
0
VERTEX
5
124
100
AcDbEntity
8
1
100
AcDbVertex
100
AcDb2dVertex
62
5
10
202.750000
20
311.812500
0
SEQEND
5
125
100
AcDbEntity
8
1
0
POLYLINE
5
126
100
AcDbEntity
8
1
6
CONTINUOUS
62
5
100
AcDb2dPolyline
66
1
10
0.0
20
0.0
30
0.0
70
0
0
VERTEX
5
127
100
AcDbEntity
8
1
100
AcDbVertex
100
AcDb2dVertex
62
5
10
206.000000
20
318.375000
0
VERTEX
5
128
100
AcDbEntity
8
1
100
AcDbVertex
100
AcDb2dVertex
62
5
10
206.000000
20
312.125000
0
VERTEX
5
129
100
AcDbEntity
8
1
100
AcDbVertex
100
AcDb2dVertex
62
5
10
206.750000
20
312.437500
0
VERTEX
5
12a
100
AcDbEntity
8
1
100
AcDbVertex
100
AcDb2dVertex
62
5
10
207.750000
20
313.375000
0
VERTEX
5
12b
100
AcDbEntity
8
1
100
AcDbVertex
100
AcDb2dVertex
62
5
10
208.500000
20
314.312500
0
VERTEX
5
12c
100
AcDbEntity
8
1
100
AcDbVertex
100
AcDb2dVertex
62
5
10
209.000000
20
315.250000
0
SEQEND
5
12d
100
AcDbEntity
8
1
0
POLYLINE
5
12e
100
AcDbEntity
8
1
6
CONTINUOUS
62
5
100
AcDb2dPolyline
66
1
10
0.0
20
0.0
30
0.0
70
1
0
VERTEX
5
12f
100
AcDbEntity
8
1
100
AcDbVertex
100
AcDb2dVertex
62
5
10
191.000000
20
329.312500
0
VERTEX
5
130
100
AcDbEntity
8
1
100
AcDbVertex
100
AcDb2dVertex
62
5
10
191.000000
20
326.500000
0
VERTEX
5
131
100
AcDbEntity
8
1
100
AcDbVertex
100
AcDb2dVertex
62
5
10
193.000000
20
326.500000
0
VERTEX
5
132
100
AcDbEntity
8
1
100
AcDbVertex
100
AcDb2dVertex
62
5
10
193.000000
20
329.312500
0
VERTEX
5
133
100
AcDbEntity
8
1
100
AcDbVertex
100
AcDb2dVertex
62
5
10
191.000000
20
329.312500
0
SEQEND
5
134
100
AcDbEntity
8
1
0
LINE
5
135
100
AcDbEntity
8
1
100
AcDbLine
6
CONTINUOUS
62
5
10
192.000000
20
326.500000
11
192.000000
21
321.812500
0
LINE
5
136
100
AcDbEntity
8
1
100
AcDbLine
6
CONTINUOUS
62
5
10
192.000000
20
324.625000
11
193.000000
21
324.625000
0
LINE
5
137
100
AcDbEntity
8
1
100
AcDbLine
6
CONTINUOUS
62
5
10
191.000000
20
324.937500
11
191.000000
21
321.500000
0
LINE
5
138
100
AcDbEntity
8
1
100
AcDbLine
6
CONTINUOUS
62
5
10
190.500000
20
321.187500
11
193.250000
21
322.125000
0
POLYLINE
5
139
100
AcDbEntity
8
1
6
CONTINUOUS
62
5
100
AcDb2dPolyline
66
1
10
0.0
20
0.0
30
0.0
70
0
0
VERTEX
5
13a
100
AcDbEntity
8
1
100
AcDbVertex
100
AcDb2dVertex
62
5
10
195.000000
20
329.625000
0
VERTEX
5
13b
100
AcDbEntity
8
1
100
AcDbVertex
100
AcDb2dVertex
62
5
10
194.750000
20
328.687500
0
VERTEX
5
13c
100
AcDbEntity
8
1
100
AcDbVertex
100
AcDb2dVertex
62
5
10
194.250000
20
327.750000
0
VERTEX
5
13d
100
AcDbEntity
8
1
100
AcDbVertex
100
AcDb2dVertex
62
5
10
193.500000
20
326.812500
0
SEQEND
5
13e
100
AcDbEntity
8
1
0
POLYLINE
5
13f
100
AcDbEntity
8
1
6
CONTINUOUS
62
5
100
AcDb2dPolyline
66
1
10
0.0
20
0.0
30
0.0
70
0
0
VERTEX
5
140
100
AcDbEntity
8
1
100
AcDbVertex
100
AcDb2dVertex
62
5
10
194.750000
20
328.687500
0
VERTEX
5
141
100
AcDbEntity
8
1
100
AcDbVertex
100
AcDb2dVertex
62
5
10
196.750000
20
328.687500
0
VERTEX
5
142
100
AcDbEntity
8
1
100
AcDbVertex
100
AcDb2dVertex
62
5
10
196.000000
20
326.812500
0
VERTEX
5
143
100
AcDbEntity
8
1
100
AcDbVertex
100
AcDb2dVertex
62
5
10
195.250000
20
325.562500
0
VERTEX
5
144
100
AcDbEntity
8
1
100
AcDbVertex
100
AcDb2dVertex
62
5
10
194.500000
20
324.625000
0
VERTEX
5
145
100
AcDbEntity
8
1
100
AcDbVertex
100
AcDb2dVertex
62
5
10
193.500000
20
323.687500
0
SEQEND
5
146
100
AcDbEntity
8
1
0
POLYLINE
5
147
100
AcDbEntity
8
1
6
CONTINUOUS
62
5
100
AcDb2dPolyline
66
1
10
0.0
20
0.0
30
0.0
70
0
0
VERTEX
5
148
100
AcDbEntity
8
1
100
AcDbVertex
100
AcDb2dVertex
62
5
10
194.500000
20
328.062500
0
VERTEX
5
149
100
AcDbEntity
8
1
100
AcDbVertex
100
AcDb2dVertex
62
5
10
195.250000
20
326.812500
0
VERTEX
5
14a
100
AcDbEntity
8
1
100
AcDbVertex
100
AcDb2dVertex
62
5
10
196.250000
20
325.562500
0
VERTEX
5
14b
100
AcDbEntity
8
1
100
AcDbVertex
100
AcDb2dVertex
62
5
10
197.500000
20
324.312500
0
SEQEND
5
14c
100
AcDbEntity
8
1
0
POLYLINE
5
14d
100
AcDbEntity
8
1
6
CONTINUOUS
62
5
100
AcDb2dPolyline
66
1
10
0.0
20
0.0
30
0.0
70
1
0
VERTEX
5
14e
100
AcDbEntity
8
1
100
AcDbVertex
100
AcDb2dVertex
62
5
10
194.250000
20
324.312500
0
VERTEX
5
14f
100
AcDbEntity
8
1
100
AcDbVertex
100
AcDb2dVertex
62
5
10
194.250000
20
321.187500
0
VERTEX
5
150
100
AcDbEntity
8
1
100
AcDbVertex
100
AcDb2dVertex
62
5
10
197.000000
20
321.187500
0
VERTEX
5
151
100
AcDbEntity
8
1
100
AcDbVertex
100
AcDb2dVertex
62
5
10
197.000000
20
324.312500
0
VERTEX
5
152
100
AcDbEntity
8
1
100
AcDbVertex
100
AcDb2dVertex
62
5
10
194.250000
20
324.312500
0
SEQEND
5
153
100
AcDbEntity
8
1
0
LINE
5
154
100
AcDbEntity
8
1
100
AcDbLine
6
CONTINUOUS
62
5
10
195.250000
20
316.187500
11
200.250000
21
316.187500
0
POLYLINE
5
155
100
AcDbEntity
8
1
6
CONTINUOUS
62
5
100
AcDb2dPolyline
66
1
10
0.0
20
0.0
30
0.0
70
0
0
VERTEX
5
156
100
AcDbEntity
8
1
100
AcDbVertex
100
AcDb2dVertex
62
5
10
197.750000
20
318.062500
0
VERTEX
5
157
100
AcDbEntity
8
1
100
AcDbVertex
100
AcDb2dVertex
62
5
10
197.750000
20
311.812500
0
VERTEX
5
158
100
AcDbEntity
8
1
100
AcDbVertex
100
AcDb2dVertex
62
5
10
197.250000
20
311.812500
0
SEQEND
5
159
100
AcDbEntity
8
1
0
LINE
5
15a
100
AcDbEntity
8
1
100
AcDbLine
6
CONTINUOUS
62
5
10
196.500000
20
314.625000
11
195.250000
21
312.750000
0
LINE
5
15b
100
AcDbEntity
8
1
100
AcDbLine
6
CONTINUOUS
62
5
10
199.250000
20
314.625000
11
200.500000
21
313.062500
0
POLYLINE
5
15c
100
AcDbEntity
8
1
6
CONTINUOUS
62
5
100
AcDb2dPolyline
66
1
10
0.0
20
0.0
30
0.0
70
1
0
VERTEX
5
15d
100
AcDbEntity
8
1
100
AcDbVertex
100
AcDb2dVertex
62
5
10
182.750000
20
328.687500
0
VERTEX
5
15e
100
AcDbEntity
8
1
100
AcDbVertex
100
AcDb2dVertex
62
5
10
189.000000
20
328.687500
0
VERTEX
5
15f
100
AcDbEntity
8
1
100
AcDbVertex
100
AcDb2dVertex
62
5
10
189.000000
20
320.875000
0
VERTEX
5
160
100
AcDbEntity
8
1
100
AcDbVertex
100
AcDb2dVertex
62
5
10
182.750000
20
320.875000
0
VERTEX
5
161
100
AcDbEntity
8
1
100
AcDbVertex
100
AcDb2dVertex
62
5
10
182.750000
20
328.687500
0
SEQEND
5
162
100
AcDbEntity
8
1
0
POLYLINE
5
163
100
AcDbEntity
8
1
6
CONTINUOUS
62
5
100
AcDb2dPolyline
66
1
10
0.0
20
0.0
30
0.0
70
1
0
VERTEX
5
164
100
AcDbEntity
8
1
100
AcDbVertex
100
AcDb2dVertex
62
5
10
184.500000
20
326.500000
0
VERTEX
5
165
100
AcDbEntity
8
1
100
AcDbVertex
100
AcDb2dVertex
62
5
10
187.250000
20
326.500000
0
VERTEX
5
166
100
AcDbEntity
8
1
100
AcDbVertex
100
AcDb2dVertex
62
5
10
187.250000
20
322.750000
0
VERTEX
5
167
100
AcDbEntity
8
1
100
AcDbVertex
100
AcDb2dVertex
62
5
10
184.500000
20
322.750000
0
VERTEX
5
168
100
AcDbEntity
8
1
100
AcDbVertex
100
AcDb2dVertex
62
5
10
184.500000
20
326.500000
0
SEQEND
5
169
100
AcDbEntity
8
1
0
POLYLINE
5
16a
100
AcDbEntity
8
1
6
CONTINUOUS
62
5
100
AcDb2dPolyline
66
1
10
0.0
20
0.0
30
0.0
70
0
0
VERTEX
5
16b
100
AcDbEntity
8
1
100
AcDbVertex
100
AcDb2dVertex
62
5
10
179.000000
20
326.812500
0
VERTEX
5
16c
100
AcDbEntity
8
1
100
AcDbVertex
100
AcDb2dVertex
62
5
10
179.250000
20
328.375000
0
VERTEX
5
16d
100
AcDbEntity
8
1
100
AcDbVertex
100
AcDb2dVertex
62
5
10
180.000000
20
329.000000
0
VERTEX
5
16e
100
AcDbEntity
8
1
100
AcDbVertex
100
AcDb2dVertex
62
5
10
180.750000
20
329.000000
0
VERTEX
5
16f
100
AcDbEntity
8
1
100
AcDbVertex
100
AcDb2dVertex
62
5
10
181.250000
20
328.687500
0
VERTEX
5
170
100
AcDbEntity
8
1
100
AcDbVertex
100
AcDb2dVertex
62
5
10
181.500000
20
327.750000
0
VERTEX
5
171
100
AcDbEntity
8
1
100
AcDbVertex
100
AcDb2dVertex
62
5
10
181.500000
20
326.812500
0
VERTEX
5
172
100
AcDbEntity
8
1
100
AcDbVertex
100
AcDb2dVertex
62
5
10
181.250000
20
325.875000
0
VERTEX
5
173
100
AcDbEntity
8
1
100
AcDbVertex
100
AcDb2dVertex
62
5
10
179.000000
20
321.500000
0
VERTEX
5
174
100
AcDbEntity
8
1
100
AcDbVertex
100
AcDb2dVertex
62
5
10
181.500000
20
321.500000
0
VERTEX
5
175
100
AcDbEntity
8
1
100
AcDbVertex
100
AcDb2dVertex
62
5
10
181.500000
20
322.437500
0
SEQEND
5
176
100
AcDbEntity
8
1
0
POLYLINE
5
177
100
AcDbEntity
8
1
6
CONTINUOUS
62
5
100
AcDb2dPolyline
66
1
10
0.0
20
0.0
30
0.0
70
0
0
VERTEX
5
178
100
AcDbEntity
8
1
100
AcDbVertex
100
AcDb2dVertex
62
5
10
171.500000
20
316.500000
0
VERTEX
5
179
100
AcDbEntity
8
1
100
AcDbVertex
100
AcDb2dVertex
62
5
10
176.250000
20
316.500000
0
VERTEX
5
17a
100
AcDbEntity
8
1
100
AcDbVertex
100
AcDb2dVertex
62
5
10
176.250000
20
314.937500
0
VERTEX
5
17b
100
AcDbEntity
8
1
100
AcDbVertex
100
AcDb2dVertex
62
5
10
176.000000
20
313.375000
0
VERTEX
5
17c
100
AcDbEntity
8
1
100
AcDbVertex
100
AcDb2dVertex
62
5
10
175.250000
20
312.125000
0
VERTEX
5
17d
100
AcDbEntity
8
1
100
AcDbVertex
100
AcDb2dVertex
62
5
10
174.500000
20
312.125000
0
SEQEND
5
17e
100
AcDbEntity
8
1
0
POLYLINE
5
17f
100
AcDbEntity
8
1
6
CONTINUOUS
62
5
100
AcDb2dPolyline
66
1
10
0.0
20
0.0
30
0.0
70
0
0
VERTEX
5
180
100
AcDbEntity
8
1
100
AcDbVertex
100
AcDb2dVertex
62
5
10
174.000000
20
318.375000
0
VERTEX
5
181
100
AcDbEntity
8
1
100
AcDbVertex
100
AcDb2dVertex
62
5
10
173.500000
20
314.625000
0
VERTEX
5
182
100
AcDbEntity
8
1
100
AcDbVertex
100
AcDb2dVertex
62
5
10
172.750000
20
313.375000
0
VERTEX
5
183
100
AcDbEntity
8
1
100
AcDbVertex
100
AcDb2dVertex
62
5
10
171.750000
20
312.125000
0
SEQEND
5
184
100
AcDbEntity
8
1
0
POLYLINE
5
185
100
AcDbEntity
8
1
6
CONTINUOUS
62
5
100
AcDb2dPolyline
66
1
10
0.0
20
0.0
30
0.0
70
0
0
VERTEX
5
186
100
AcDbEntity
8
1
100
AcDbVertex
100
AcDb2dVertex
62
5
10
178.750000
20
315.562500
0
VERTEX
5
187
100
AcDbEntity
8
1
100
AcDbVertex
100
AcDb2dVertex
62
5
10
179.000000
20
315.250000
0
VERTEX
5
188
100
AcDbEntity
8
1
100
AcDbVertex
100
AcDb2dVertex
62
5
10
185.750000
20
315.250000
0
SEQEND
5
189
100
AcDbEntity
8
1
0
LINE
5
18a
100
AcDbEntity
8
1
100
AcDbLine
6
CONTINUOUS
62
5
10
163.000000
20
329.625000
11
164.000000
21
328.062500
0
LINE
5
18b
100
AcDbEntity
8
1
100
AcDbLine
6
CONTINUOUS
62
5
10
165.000000
20
329.625000
11
165.750000
21
328.375000
0
LINE
5
18c
100
AcDbEntity
8
1
100
AcDbLine
6
CONTINUOUS
62
5
10
167.750000
20
328.375000
11
168.750000
21
329.625000
0
POLYLINE
5
18d
100
AcDbEntity
8
1
6
CONTINUOUS
62
5
100
AcDb2dPolyline
66
1
10
0.0
20
0.0
30
0.0
70
1
0
VERTEX
5
18e
100
AcDbEntity
8
1
100
AcDbVertex
100
AcDb2dVertex
62
5
10
163.000000
20
327.750000
0
VERTEX
5
18f
100
AcDbEntity
8
1
100
AcDbVertex
100
AcDb2dVertex
62
5
10
168.500000
20
327.750000
0
VERTEX
5
190
100
AcDbEntity
8
1
100
AcDbVertex
100
AcDb2dVertex
62
5
10
168.500000
20
324.000000
0
VERTEX
5
191
100
AcDbEntity
8
1
100
AcDbVertex
100
AcDb2dVertex
62
5
10
163.000000
20
324.000000
0
VERTEX
5
192
100
AcDbEntity
8
1
100
AcDbVertex
100
AcDb2dVertex
62
5
10
163.000000
20
327.750000
0
SEQEND
5
193
100
AcDbEntity
8
1
0
LINE
5
194
100
AcDbEntity
8
1
100
AcDbLine
6
CONTINUOUS
62
5
10
163.000000
20
325.875000
11
168.500000
21
325.875000
0
LINE
5
195
100
AcDbEntity
8
1
100
AcDbLine
6
CONTINUOUS
62
5
10
165.750000
20
327.750000
11
165.750000
21
320.562500
0
LINE
5
196
100
AcDbEntity
8
1
100
AcDbLine
6
CONTINUOUS
62
5
10
162.250000
20
322.750000
11
169.500000
21
322.750000
0
POLYLINE
5
197
100
AcDbEntity
8
1
6
CONTINUOUS
62
5
100
AcDb2dPolyline
66
1
10
0.0
20
0.0
30
0.0
70
0
0
VERTEX
5
198
100
AcDbEntity
8
1
100
AcDbVertex
100
AcDb2dVertex
62
5
10
163.750000
20
315.250000
0
VERTEX
5
199
100
AcDbEntity
8
1
100
AcDbVertex
100
AcDb2dVertex
62
5
10
164.750000
20
316.500000
0
VERTEX
5
19a
100
AcDbEntity
8
1
100
AcDbVertex
100
AcDb2dVertex
62
5
10
165.250000
20
317.437500
0
VERTEX
5
19b
100
AcDbEntity
8
1
100
AcDbVertex
100
AcDb2dVertex
62
5
10
167.750000
20
317.437500
0
VERTEX
5
19c
100
AcDbEntity
8
1
100
AcDbVertex
100
AcDb2dVertex
62
5
10
167.750000
20
317.125000
0
VERTEX
5
19d
100
AcDbEntity
8
1
100
AcDbVertex
100
AcDb2dVertex
62
5
10
167.000000
20
315.250000
0
VERTEX
5
19e
100
AcDbEntity
8
1
100
AcDbVertex
100
AcDb2dVertex
62
5
10
165.750000
20
313.375000
0
VERTEX
5
19f
100
AcDbEntity
8
1
100
AcDbVertex
100
AcDb2dVertex
62
5
10
164.250000
20
311.812500
0
SEQEND
5
1a0
100
AcDbEntity
8
1
0
POLYLINE
5
1a1
100
AcDbEntity
8
1
6
CONTINUOUS
62
5
100
AcDb2dPolyline
66
1
10
0.0
20
0.0
30
0.0
70
0
0
VERTEX
5
1a2
100
AcDbEntity
8
1
100
AcDbVertex
100
AcDb2dVertex
62
5
10
154.750000
20
315.562500
0
VERTEX
5
1a3
100
AcDbEntity
8
1
100
AcDbVertex
100
AcDb2dVertex
62
5
10
155.000000
20
315.250000
0
VERTEX
5
1a4
100
AcDbEntity
8
1
100
AcDbVertex
100
AcDb2dVertex
62
5
10
161.750000
20
315.250000
0
SEQEND
5
1a5
100
AcDbEntity
8
1
0
LINE
5
1a6
100
AcDbEntity
8
1
100
AcDbLine
6
CONTINUOUS
62
5
10
170.250000
20
327.125000
11
172.500000
21
327.125000
0
LINE
5
1a7
100
AcDbEntity
8
1
100
AcDbLine
6
CONTINUOUS
62
5
10
171.500000
20
329.312500
11
171.500000
21
320.562500
0
POLYLINE
5
1a8
100
AcDbEntity
8
1
6
CONTINUOUS
62
5
100
AcDb2dPolyline
66
1
10
0.0
20
0.0
30
0.0
70
0
0
VERTEX
5
1a9
100
AcDbEntity
8
1
100
AcDbVertex
100
AcDb2dVertex
62
5
10
171.500000
20
327.125000
0
VERTEX
5
1aa
100
AcDbEntity
8
1
100
AcDbVertex
100
AcDb2dVertex
62
5
10
171.000000
20
325.250000
0
VERTEX
5
1ab
100
AcDbEntity
8
1
100
AcDbVertex
100
AcDb2dVertex
62
5
10
170.250000
20
323.375000
0
SEQEND
5
1ac
100
AcDbEntity
8
1
0
LINE
5
1ad
100
AcDbEntity
8
1
100
AcDbLine
6
CONTINUOUS
62
5
10
171.500000
20
326.187500
11
172.500000
21
324.625000
0
LINE
5
1ae
100
AcDbEntity
8
1
100
AcDbLine
6
CONTINUOUS
62
5
10
172.500000
20
329.000000
11
177.250000
21
329.000000
0
POLYLINE
5
1af
100
AcDbEntity
8
1
6
CONTINUOUS
62
5
100
AcDb2dPolyline
66
1
10
0.0
20
0.0
30
0.0
70
0
0
VERTEX
5
1b0
100
AcDbEntity
8
1
100
AcDbVertex
100
AcDb2dVertex
62
5
10
174.750000
20
329.000000
0
VERTEX
5
1b1
100
AcDbEntity
8
1
100
AcDbVertex
100
AcDb2dVertex
62
5
10
173.750000
20
326.812500
0
VERTEX
5
1b2
100
AcDbEntity
8
1
100
AcDbVertex
100
AcDb2dVertex
62
5
10
175.250000
20
327.125000
0
VERTEX
5
1b3
100
AcDbEntity
8
1
100
AcDbVertex
100
AcDb2dVertex
62
5
10
175.250000
20
324.000000
0
VERTEX
5
1b4
100
AcDbEntity
8
1
100
AcDbVertex
100
AcDb2dVertex
62
5
10
174.750000
20
321.812500
0
VERTEX
5
1b5
100
AcDbEntity
8
1
100
AcDbVertex
100
AcDb2dVertex
62
5
10
174.250000
20
322.125000
0
SEQEND
5
1b6
100
AcDbEntity
8
1
0
POLYLINE
5
1b7
100
AcDbEntity
8
1
6
CONTINUOUS
62
5
100
AcDb2dPolyline
66
1
10
0.0
20
0.0
30
0.0
70
1
0
VERTEX
5
1b8
100
AcDbEntity
8
1
100
AcDbVertex
100
AcDb2dVertex
62
5
10
173.000000
20
325.250000
0
VERTEX
5
1b9
100
AcDbEntity
8
1
100
AcDbVertex
100
AcDb2dVertex
62
5
10
174.250000
20
325.250000
0
VERTEX
5
1ba
100
AcDbEntity
8
1
100
AcDbVertex
100
AcDb2dVertex
62
5
10
174.250000
20
323.062500
0
VERTEX
5
1bb
100
AcDbEntity
8
1
100
AcDbVertex
100
AcDb2dVertex
62
5
10
173.000000
20
323.062500
0
VERTEX
5
1bc
100
AcDbEntity
8
1
100
AcDbVertex
100
AcDb2dVertex
62
5
10
173.000000
20
325.250000
0
SEQEND
5
1bd
100
AcDbEntity
8
1
0
POLYLINE
5
1be
100
AcDbEntity
8
1
6
CONTINUOUS
62
5
100
AcDb2dPolyline
66
1
10
0.0
20
0.0
30
0.0
70
0
0
VERTEX
5
1bf
100
AcDbEntity
8
1
100
AcDbVertex
100
AcDb2dVertex
62
5
10
175.750000
20
326.812500
0
VERTEX
5
1c0
100
AcDbEntity
8
1
100
AcDbVertex
100
AcDb2dVertex
62
5
10
177.250000
20
326.812500
0
VERTEX
5
1c1
100
AcDbEntity
8
1
100
AcDbVertex
100
AcDb2dVertex
62
5
10
177.000000
20
325.562500
0
VERTEX
5
1c2
100
AcDbEntity
8
1
100
AcDbVertex
100
AcDb2dVertex
62
5
10
176.500000
20
324.000000
0
VERTEX
5
1c3
100
AcDbEntity
8
1
100
AcDbVertex
100
AcDb2dVertex
62
5
10
175.750000
20
322.437500
0
SEQEND
5
1c4
100
AcDbEntity
8
1
0
POLYLINE
5
1c5
100
AcDbEntity
8
1
6
CONTINUOUS
62
5
100
AcDb2dPolyline
66
1
10
0.0
20
0.0
30
0.0
70
0
0
VERTEX
5
1c6
100
AcDbEntity
8
1
100
AcDbVertex
100
AcDb2dVertex
62
5
10
175.750000
20
325.875000
0
VERTEX
5
1c7
100
AcDbEntity
8
1
100
AcDbVertex
100
AcDb2dVertex
62
5
10
176.000000
20
324.625000
0
VERTEX
5
1c8
100
AcDbEntity
8
1
100
AcDbVertex
100
AcDb2dVertex
62
5
10
177.500000
20
322.437500
0
SEQEND
5
1c9
100
AcDbEntity
8
1
0
LINE
5
1ca
100
AcDbEntity
8
1
100
AcDbLine
6
CONTINUOUS
62
5
10
172.250000
20
320.875000
11
177.500000
21
320.875000
0
LINE
5
1cb
100
AcDbEntity
8
1
100
AcDbLine
6
CONTINUOUS
62
5
10
189.250000
20
318.687500
11
189.250000
21
311.500000
0
POLYLINE
5
1cc
100
AcDbEntity
8
1
6
CONTINUOUS
62
5
100
AcDb2dPolyline
66
1
10
0.0
20
0.0
30
0.0
70
0
0
VERTEX
5
1cd
100
AcDbEntity
8
1
100
AcDbVertex
100
AcDb2dVertex
62
5
10
189.250000
20
315.875000
0
VERTEX
5
1ce
100
AcDbEntity
8
1
100
AcDbVertex
100
AcDb2dVertex
62
5
10
189.500000
20
315.875000
0
VERTEX
5
1cf
100
AcDbEntity
8
1
100
AcDbVertex
100
AcDb2dVertex
62
5
10
191.000000
20
314.937500
0
SEQEND
5
1d0
100
AcDbEntity
8
1
0
LINE
5
1d1
100
AcDbEntity
8
1
100
AcDbLine
6
CONTINUOUS
62
5
10
191.250000
20
318.062500
11
191.750000
21
317.437500
0
LINE
5
1d2
100
AcDbEntity
8
1
100
AcDbLine
6
CONTINUOUS
62
5
10
192.250000
20
318.687500
11
192.750000
21
318.062500
0
LINE
5
1d3
100
AcDbEntity
8
1
100
AcDbLine
6
CONTINUOUS
62
5
10
229.750000
20
329.625000
11
229.750000
21
328.687500
0
POLYLINE
5
1d4
100
AcDbEntity
8
1
6
CONTINUOUS
62
5
100
AcDb2dPolyline
66
1
10
0.0
20
0.0
30
0.0
70
0
0
VERTEX
5
1d5
100
AcDbEntity
8
1
100
AcDbVertex
100
AcDb2dVertex
62
5
10
226.750000
20
326.500000
0
VERTEX
5
1d6
100
AcDbEntity
8
1
100
AcDbVertex
100
AcDb2dVertex
62
5
10
226.750000
20
328.687500
0
VERTEX
5
1d7
100
AcDbEntity
8
1
100
AcDbVertex
100
AcDb2dVertex
62
5
10
232.750000
20
328.687500
0
VERTEX
5
1d8
100
AcDbEntity
8
1
100
AcDbVertex
100
AcDb2dVertex
62
5
10
232.750000
20
326.500000
0
SEQEND
5
1d9
100
AcDbEntity
8
1
0
LINE
5
1da
100
AcDbEntity
8
1
100
AcDbLine
6
CONTINUOUS
62
5
10
227.500000
20
326.812500
11
232.000000
21
326.812500
0
LINE
5
1db
100
AcDbEntity
8
1
100
AcDbLine
6
CONTINUOUS
62
5
10
229.750000
20
326.812500
11
229.750000
21
321.500000
0
LINE
5
1dc
100
AcDbEntity
8
1
100
AcDbLine
6
CONTINUOUS
62
5
10
229.750000
20
324.312500
11
232.000000
21
324.312500
0
POLYLINE
5
1dd
100
AcDbEntity
8
1
6
CONTINUOUS
62
5
100
AcDb2dPolyline
66
1
10
0.0
20
0.0
30
0.0
70
0
0
VERTEX
5
1de
100
AcDbEntity
8
1
100
AcDbVertex
100
AcDb2dVertex
62
5
10
228.000000
20
324.937500
0
VERTEX
5
1df
100
AcDbEntity
8
1
100
AcDbVertex
100
AcDb2dVertex
62
5
10
227.750000
20
323.062500
0
VERTEX
5
1e0
100
AcDbEntity
8
1
100
AcDbVertex
100
AcDb2dVertex
62
5
10
227.250000
20
321.812500
0
VERTEX
5
1e1
100
AcDbEntity
8
1
100
AcDbVertex
100
AcDb2dVertex
62
5
10
226.500000
20
320.875000
0
SEQEND
5
1e2
100
AcDbEntity
8
1
0
POLYLINE
5
1e3
100
AcDbEntity
8
1
6
CONTINUOUS
62
5
100
AcDb2dPolyline
66
1
10
0.0
20
0.0
30
0.0
70
0
0
VERTEX
5
1e4
100
AcDbEntity
8
1
100
AcDbVertex
100
AcDb2dVertex
62
5
10
227.750000
20
323.062500
0
VERTEX
5
1e5
100
AcDbEntity
8
1
100
AcDbVertex
100
AcDb2dVertex
62
5
10
229.750000
20
321.500000
0
VERTEX
5
1e6
100
AcDbEntity
8
1
100
AcDbVertex
100
AcDb2dVertex
62
5
10
230.750000
20
321.187500
0
VERTEX
5
1e7
100
AcDbEntity
8
1
100
AcDbVertex
100
AcDb2dVertex
62
5
10
233.250000
20
320.875000
0
SEQEND
5
1e8
100
AcDbEntity
8
1
0
LINE
5
1e9
100
AcDbEntity
8
1
100
AcDbLine
6
CONTINUOUS
62
5
10
228.250000
20
317.125000
11
231.000000
21
317.750000
0
LINE
5
1ea
100
AcDbEntity
8
1
100
AcDbLine
6
CONTINUOUS
62
5
10
228.250000
20
315.250000
11
231.750000
21
316.187500
0
POLYLINE
5
1eb
100
AcDbEntity
8
1
6
CONTINUOUS
62
5
100
AcDb2dPolyline
66
1
10
0.0
20
0.0
30
0.0
70
0
0
VERTEX
5
1ec
100
AcDbEntity
8
1
100
AcDbVertex
100
AcDb2dVertex
62
5
10
229.250000
20
318.687500
0
VERTEX
5
1ed
100
AcDbEntity
8
1
100
AcDbVertex
100
AcDb2dVertex
62
5
10
231.500000
20
313.687500
0
VERTEX
5
1ee
100
AcDbEntity
8
1
100
AcDbVertex
100
AcDb2dVertex
62
5
10
231.000000
20
313.687500
0
VERTEX
5
1ef
100
AcDbEntity
8
1
100
AcDbVertex
100
AcDb2dVertex
62
5
10
229.500000
20
314.312500
0
VERTEX
5
1f0
100
AcDbEntity
8
1
100
AcDbVertex
100
AcDb2dVertex
62
5
10
228.750000
20
314.312500
0
VERTEX
5
1f1
100
AcDbEntity
8
1
100
AcDbVertex
100
AcDb2dVertex
62
5
10
227.750000
20
313.375000
0
VERTEX
5
1f2
100
AcDbEntity
8
1
100
AcDbVertex
100
AcDb2dVertex
62
5
10
227.750000
20
312.750000
0
VERTEX
5
1f3
100
AcDbEntity
8
1
100
AcDbVertex
100
AcDb2dVertex
62
5
10
228.250000
20
312.125000
0
VERTEX
5
1f4
100
AcDbEntity
8
1
100
AcDbVertex
100
AcDb2dVertex
62
5
10
228.750000
20
311.812500
0
VERTEX
5
1f5
100
AcDbEntity
8
1
100
AcDbVertex
100
AcDb2dVertex
62
5
10
230.250000
20
311.812500
0
SEQEND
5
1f6
100
AcDbEntity
8
1
0
LINE
5
1f7
100
AcDbEntity
8
1
100
AcDbLine
6
DOT2
62
5
10
251.216819
20
199.725000
11
250.591819
21
199.100000
0
POLYLINE
5
1f8
100
AcDbEntity
8
1
6
DOT2
62
5
100
AcDb2dPolyline
66
1
10
0.0
20
0.0
30
0.0
70
0
0
VERTEX
5
1f9
100
AcDbEntity
8
1
100
AcDbVertex
100
AcDb2dVertex
62
5
10
250.591819
20
199.725000
0
VERTEX
5
1fa
100
AcDbEntity
8
1
100
AcDbVertex
100
AcDb2dVertex
62
5
10
251.216819
20
199.100000
0
VERTEX
5
1fb
100
AcDbEntity
8
1
100
AcDbVertex
100
AcDb2dVertex
62
5
10
250.591819
20
199.100000
0
VERTEX
5
1fc
100
AcDbEntity
8
1
100
AcDbVertex
100
AcDb2dVertex
62
5
10
250.591819
20
199.725000
0
VERTEX
5
1fd
100
AcDbEntity
8
1
100
AcDbVertex
100
AcDb2dVertex
62
5
10
251.216819
20
199.725000
0
VERTEX
5
1fe
100
AcDbEntity
8
1
100
AcDbVertex
100
AcDb2dVertex
62
5
10
251.216819
20
199.100000
0
SEQEND
5
1ff
100
AcDbEntity
8
1
0
POLYLINE
5
200
100
AcDbEntity
8
1
6
DOT2
62
5
100
AcDb2dPolyline
66
1
10
0.0
20
0.0
30
0.0
70
1
0
VERTEX
5
201
100
AcDbEntity
8
1
100
AcDbVertex
100
AcDb2dVertex
62
5
10
246.841819
20
206.600000
0
VERTEX
5
202
100
AcDbEntity
8
1
100
AcDbVertex
100
AcDb2dVertex
62
5
10
247.466819
20
206.600000
0
VERTEX
5
203
100
AcDbEntity
8
1
100
AcDbVertex
100
AcDb2dVertex
62
5
10
248.091819
20
206.287500
0
VERTEX
5
204
100
AcDbEntity
8
1
100
AcDbVertex
100
AcDb2dVertex
62
5
10
248.404319
20
205.662500
0
VERTEX
5
205
100
AcDbEntity
8
1
100
AcDbVertex
100
AcDb2dVertex
62
5
10
248.404319
20
204.412500
0
VERTEX
5
206
100
AcDbEntity
8
1
100
AcDbVertex
100
AcDb2dVertex
62
5
10
248.091819
20
203.787500
0
VERTEX
5
207
100
AcDbEntity
8
1
100
AcDbVertex
100
AcDb2dVertex
62
5
10
246.216819
20
202.537500
0
VERTEX
5
208
100
AcDbEntity
8
1
100
AcDbVertex
100
AcDb2dVertex
62
5
10
245.591819
20
201.600000
0
VERTEX
5
209
100
AcDbEntity
8
1
100
AcDbVertex
100
AcDb2dVertex
62
5
10
245.591819
20
200.350000
0
VERTEX
5
20a
100
AcDbEntity
8
1
100
AcDbVertex
100
AcDb2dVertex
62
5
10
245.904319
20
199.725000
0
VERTEX
5
20b
100
AcDbEntity
8
1
100
AcDbVertex
100
AcDb2dVertex
62
5
10
246.216819
20
199.412500
0
VERTEX
5
20c
100
AcDbEntity
8
1
100
AcDbVertex
100
AcDb2dVertex
62
5
10
246.841819
20
199.100000
0
VERTEX
5
20d
100
AcDbEntity
8
1
100
AcDbVertex
100
AcDb2dVertex
62
5
10
247.466819
20
199.100000
0
VERTEX
5
20e
100
AcDbEntity
8
1
100
AcDbVertex
100
AcDb2dVertex
62
5
10
248.091819
20
199.412500
0
VERTEX
5
20f
100
AcDbEntity
8
1
100
AcDbVertex
100
AcDb2dVertex
62
5
10
248.404319
20
199.725000
0
VERTEX
5
210
100
AcDbEntity
8
1
100
AcDbVertex
100
AcDb2dVertex
62
5
10
248.716819
20
200.350000
0
VERTEX
5
211
100
AcDbEntity
8
1
100
AcDbVertex
100
AcDb2dVertex
62
5
10
248.716819
20
201.600000
0
VERTEX
5
212
100
AcDbEntity
8
1
100
AcDbVertex
100
AcDb2dVertex
62
5
10
248.091819
20
202.537500
0
VERTEX
5
213
100
AcDbEntity
8
1
100
AcDbVertex
100
AcDb2dVertex
62
5
10
246.216819
20
203.787500
0
VERTEX
5
214
100
AcDbEntity
8
1
100
AcDbVertex
100
AcDb2dVertex
62
5
10
245.904319
20
204.412500
0
VERTEX
5
215
100
AcDbEntity
8
1
100
AcDbVertex
100
AcDb2dVertex
62
5
10
245.904319
20
205.662500
0
VERTEX
5
216
100
AcDbEntity
8
1
100
AcDbVertex
100
AcDb2dVertex
62
5
10
246.216819
20
206.287500
0
VERTEX
5
217
100
AcDbEntity
8
1
100
AcDbVertex
100
AcDb2dVertex
62
5
10
246.841819
20
206.600000
0
SEQEND
5
218
100
AcDbEntity
8
1
0
POLYLINE
5
219
100
AcDbEntity
8
1
6
DOT2
62
5
100
AcDb2dPolyline
66
1
10
0.0
20
0.0
30
0.0
70
0
0
VERTEX
5
21a
100
AcDbEntity
8
1
100
AcDbVertex
100
AcDb2dVertex
62
5
10
255.591819
20
204.412500
0
VERTEX
5
21b
100
AcDbEntity
8
1
100
AcDbVertex
100
AcDb2dVertex
62
5
10
255.904319
20
205.975000
0
VERTEX
5
21c
100
AcDbEntity
8
1
100
AcDbVertex
100
AcDb2dVertex
62
5
10
256.841819
20
206.600000
0
VERTEX
5
21d
100
AcDbEntity
8
1
100
AcDbVertex
100
AcDb2dVertex
62
5
10
257.779319
20
206.600000
0
VERTEX
5
21e
100
AcDbEntity
8
1
100
AcDbVertex
100
AcDb2dVertex
62
5
10
258.404319
20
206.287500
0
VERTEX
5
21f
100
AcDbEntity
8
1
100
AcDbVertex
100
AcDb2dVertex
62
5
10
258.716819
20
205.350000
0
VERTEX
5
220
100
AcDbEntity
8
1
100
AcDbVertex
100
AcDb2dVertex
62
5
10
258.716819
20
204.412500
0
VERTEX
5
221
100
AcDbEntity
8
1
100
AcDbVertex
100
AcDb2dVertex
62
5
10
258.404319
20
203.475000
0
VERTEX
5
222
100
AcDbEntity
8
1
100
AcDbVertex
100
AcDb2dVertex
62
5
10
255.591819
20
199.100000
0
VERTEX
5
223
100
AcDbEntity
8
1
100
AcDbVertex
100
AcDb2dVertex
62
5
10
258.716819
20
199.100000
0
VERTEX
5
224
100
AcDbEntity
8
1
100
AcDbVertex
100
AcDb2dVertex
62
5
10
258.716819
20
200.037500
0
SEQEND
5
225
100
AcDbEntity
8
1
0
POLYLINE
5
226
100
AcDbEntity
8
1
6
DOT2
62
5
100
AcDb2dPolyline
66
1
10
0.0
20
0.0
30
0.0
70
0
0
VERTEX
5
227
100
AcDbEntity
8
1
100
AcDbVertex
100
AcDb2dVertex
62
5
10
240.591819
20
204.412500
0
VERTEX
5
228
100
AcDbEntity
8
1
100
AcDbVertex
100
AcDb2dVertex
62
5
10
240.904319
20
205.975000
0
VERTEX
5
229
100
AcDbEntity
8
1
100
AcDbVertex
100
AcDb2dVertex
62
5
10
241.841819
20
206.600000
0
VERTEX
5
22a
100
AcDbEntity
8
1
100
AcDbVertex
100
AcDb2dVertex
62
5
10
242.779319
20
206.600000
0
VERTEX
5
22b
100
AcDbEntity
8
1
100
AcDbVertex
100
AcDb2dVertex
62
5
10
243.404319
20
206.287500
0
VERTEX
5
22c
100
AcDbEntity
8
1
100
AcDbVertex
100
AcDb2dVertex
62
5
10
243.716819
20
205.350000
0
VERTEX
5
22d
100
AcDbEntity
8
1
100
AcDbVertex
100
AcDb2dVertex
62
5
10
243.716819
20
204.412500
0
VERTEX
5
22e
100
AcDbEntity
8
1
100
AcDbVertex
100
AcDb2dVertex
62
5
10
243.404319
20
203.475000
0
VERTEX
5
22f
100
AcDbEntity
8
1
100
AcDbVertex
100
AcDb2dVertex
62
5
10
240.591819
20
199.100000
0
VERTEX
5
230
100
AcDbEntity
8
1
100
AcDbVertex
100
AcDb2dVertex
62
5
10
243.716819
20
199.100000
0
VERTEX
5
231
100
AcDbEntity
8
1
100
AcDbVertex
100
AcDb2dVertex
62
5
10
243.716819
20
200.037500
0
SEQEND
5
232
100
AcDbEntity
8
1
0
LINE
5
233
100
AcDbEntity
8
1
100
AcDbLine
6
CONTINUOUS
62
5
10
201.141819
20
171.399995
11
201.941819
21
171.399995
0
LINE
5
234
100
AcDbEntity
8
1
100
AcDbLine
6
CONTINUOUS
62
5
10
201.141819
20
166.799996
11
201.941819
21
166.799996
0
ARC
5
235
100
AcDbEntity
8
1
100
AcDbCircle
6
CONTINUOUS
62
5
10
202.441819
20
167.000000
40
0.500000
100
AcDbArc
50
179.999998
51
-89.999999
0
LINE
5
236
100
AcDbEntity
8
1
100
AcDbLine
6
CONTINUOUS
62
5
10
205.941819
20
166.500000
11
202.441819
21
166.500000
0
ARC
5
237
100
AcDbEntity
8
1
100
AcDbCircle
6
CONTINUOUS
62
5
10
198.641819
20
167.300000
40
0.700000
100
AcDbArc
50
89.999999
51
179.999998
0
LINE
5
238
100
AcDbEntity
8
1
100
AcDbLine
6
CONTINUOUS
62
5
10
197.941819
20
167.300000
11
197.941820
21
165.499996
0
LINE
5
239
100
AcDbEntity
8
1
100
AcDbLine
6
CONTINUOUS
62
5
10
201.141819
20
168.000000
11
198.641819
21
168.000000
0
LINE
5
23a
100
AcDbEntity
8
1
100
AcDbLine
6
CONTINUOUS
62
5
10
201.141819
20
169.699995
11
201.941819
21
169.699995
0
LINE
5
23b
100
AcDbEntity
8
1
100
AcDbLine
6
CONTINUOUS
62
5
10
201.741819
20
169.699995
11
201.741819
21
166.799996
0
ARC
5
23c
100
AcDbEntity
8
1
100
AcDbCircle
6
CONTINUOUS
62
5
10
209.741819
20
172.667514
40
0.200000
100
AcDbArc
50
-11.944238
51
89.510304
0
LINE
5
23d
100
AcDbEntity
8
1
100
AcDbLine
6
CONTINUOUS
62
5
10
209.895561
20
172.427919
11
209.937488
21
172.626122
0
POLYLINE
5
23e
100
AcDbEntity
8
1
6
CONTINUOUS
62
5
100
AcDb2dPolyline
66
1
10
0.0
20
0.0
30
0.0
70
0
0
VERTEX
5
23f
100
AcDbEntity
8
1
100
AcDbVertex
100
AcDb2dVertex
62
5
10
209.911734
20
172.167185
0
VERTEX
5
240
100
AcDbEntity
8
1
100
AcDbVertex
100
AcDb2dVertex
62
5
10
212.000610
20
172.005308
0
VERTEX
5
241
100
AcDbEntity
8
1
100
AcDbVertex
100
AcDb2dVertex
62
5
10
211.978278
20
171.205620
0
VERTEX
5
242
100
AcDbEntity
8
1
100
AcDbVertex
100
AcDb2dVertex
62
5
10
209.686433
20
171.383587
0
SEQEND
5
243
100
AcDbEntity
8
1
0
LINE
5
244
100
AcDbEntity
8
1
100
AcDbLine
6
DOT2
62
5
10
175.116819
20
199.725000
11
174.491819
21
199.100000
0
POLYLINE
5
245
100
AcDbEntity
8
1
6
DOT2
62
5
100
AcDb2dPolyline
66
1
10
0.0
20
0.0
30
0.0
70
0
0
VERTEX
5
246
100
AcDbEntity
8
1
100
AcDbVertex
100
AcDb2dVertex
62
5
10
174.491819
20
199.725000
0
VERTEX
5
247
100
AcDbEntity
8
1
100
AcDbVertex
100
AcDb2dVertex
62
5
10
175.116819
20
199.100000
0
VERTEX
5
248
100
AcDbEntity
8
1
100
AcDbVertex
100
AcDb2dVertex
62
5
10
174.491819
20
199.100000
0
VERTEX
5
249
100
AcDbEntity
8
1
100
AcDbVertex
100
AcDb2dVertex
62
5
10
174.491819
20
199.725000
0
VERTEX
5
24a
100
AcDbEntity
8
1
100
AcDbVertex
100
AcDb2dVertex
62
5
10
175.116819
20
199.725000
0
VERTEX
5
24b
100
AcDbEntity
8
1
100
AcDbVertex
100
AcDb2dVertex
62
5
10
175.116819
20
199.100000
0
SEQEND
5
24c
100
AcDbEntity
8
1
0
LINE
5
24d
100
AcDbEntity
8
1
100
AcDbLine
6
CONTINUOUS
62
5
10
193.241819
20
173.650000
11
193.241819
21
199.850000
0
POLYLINE
5
24e
100
AcDbEntity
8
1
6
CONTINUOUS
62
5
100
AcDb2dPolyline
66
1
10
0.0
20
0.0
30
0.0
70
0
0
VERTEX
5
24f
100
AcDbEntity
8
1
100
AcDbVertex
100
AcDb2dVertex
62
5
10
166.991819
20
197.850000
0
VERTEX
5
250
100
AcDbEntity
8
1
100
AcDbVertex
100
AcDb2dVertex
62
5
10
193.241819
20
197.850000
0
VERTEX
5
251
100
AcDbEntity
8
1
100
AcDbVertex
100
AcDb2dVertex
62
5
10
187.241819
20
196.850000
0
VERTEX
5
252
100
AcDbEntity
8
1
100
AcDbVertex
100
AcDb2dVertex
62
5
10
187.241819
20
198.850000
0
VERTEX
5
253
100
AcDbEntity
8
1
100
AcDbVertex
100
AcDb2dVertex
62
5
10
193.241819
20
197.850000
0
VERTEX
5
254
100
AcDbEntity
8
1
100
AcDbVertex
100
AcDb2dVertex
62
5
10
187.241819
20
197.350000
0
VERTEX
5
255
100
AcDbEntity
8
1
100
AcDbVertex
100
AcDb2dVertex
62
5
10
187.241819
20
198.350000
0
VERTEX
5
256
100
AcDbEntity
8
1
100
AcDbVertex
100
AcDb2dVertex
62
5
10
193.241819
20
197.850000
0
SEQEND
5
257
100
AcDbEntity
8
1
0
LINE
5
258
100
AcDbEntity
8
1
100
AcDbLine
6
CONTINUOUS
62
5
10
193.241819
20
197.850000
11
201.141819
21
197.850000
0
LINE
5
259
100
AcDbEntity
8
1
100
AcDbLine
6
CONTINUOUS
62
5
10
204.141819
20
197.850000
11
201.141819
21
197.850000
0
POLYLINE
5
25a
100
AcDbEntity
8
1
6
DOT2
62
5
100
AcDb2dPolyline
66
1
10
0.0
20
0.0
30
0.0
70
0
0
VERTEX
5
25b
100
AcDbEntity
8
1
100
AcDbVertex
100
AcDb2dVertex
62
5
10
169.491819
20
205.662500
0
VERTEX
5
25c
100
AcDbEntity
8
1
100
AcDbVertex
100
AcDb2dVertex
62
5
10
169.491819
20
206.600000
0
VERTEX
5
25d
100
AcDbEntity
8
1
100
AcDbVertex
100
AcDb2dVertex
62
5
10
172.616819
20
206.600000
0
VERTEX
5
25e
100
AcDbEntity
8
1
100
AcDbVertex
100
AcDb2dVertex
62
5
10
172.616819
20
205.975000
0
VERTEX
5
25f
100
AcDbEntity
8
1
100
AcDbVertex
100
AcDb2dVertex
62
5
10
171.991819
20
204.412500
0
VERTEX
5
260
100
AcDbEntity
8
1
100
AcDbVertex
100
AcDb2dVertex
62
5
10
171.366819
20
202.225000
0
VERTEX
5
261
100
AcDbEntity
8
1
100
AcDbVertex
100
AcDb2dVertex
62
5
10
170.741819
20
199.100000
0
SEQEND
5
262
100
AcDbEntity
8
1
0
POLYLINE
5
263
100
AcDbEntity
8
1
6
DOT2
62
5
100
AcDb2dPolyline
66
1
10
0.0
20
0.0
30
0.0
70
0
0
VERTEX
5
264
100
AcDbEntity
8
1
100
AcDbVertex
100
AcDb2dVertex
62
5
10
182.616819
20
202.537500
0
VERTEX
5
265
100
AcDbEntity
8
1
100
AcDbVertex
100
AcDb2dVertex
62
5
10
182.616819
20
202.537500
0
VERTEX
5
266
100
AcDbEntity
8
1
100
AcDbVertex
100
AcDb2dVertex
62
5
10
181.366819
20
202.225000
0
VERTEX
5
267
100
AcDbEntity
8
1
100
AcDbVertex
100
AcDb2dVertex
62
5
10
180.429319
20
202.225000
0
VERTEX
5
268
100
AcDbEntity
8
1
100
AcDbVertex
100
AcDb2dVertex
62
5
10
179.804319
20
202.537500
0
VERTEX
5
269
100
AcDbEntity
8
1
100
AcDbVertex
100
AcDb2dVertex
62
5
10
179.491819
20
203.475000
0
VERTEX
5
26a
100
AcDbEntity
8
1
100
AcDbVertex
100
AcDb2dVertex
62
5
10
179.491819
20
205.037500
0
VERTEX
5
26b
100
AcDbEntity
8
1
100
AcDbVertex
100
AcDb2dVertex
62
5
10
179.804319
20
205.975000
0
VERTEX
5
26c
100
AcDbEntity
8
1
100
AcDbVertex
100
AcDb2dVertex
62
5
10
180.116819
20
206.287500
0
VERTEX
5
26d
100
AcDbEntity
8
1
100
AcDbVertex
100
AcDb2dVertex
62
5
10
180.741819
20
206.600000
0
VERTEX
5
26e
100
AcDbEntity
8
1
100
AcDbVertex
100
AcDb2dVertex
62
5
10
181.366819
20
206.600000
0
VERTEX
5
26f
100
AcDbEntity
8
1
100
AcDbVertex
100
AcDb2dVertex
62
5
10
181.991819
20
206.287500
0
VERTEX
5
270
100
AcDbEntity
8
1
100
AcDbVertex
100
AcDb2dVertex
62
5
10
182.304319
20
205.975000
0
VERTEX
5
271
100
AcDbEntity
8
1
100
AcDbVertex
100
AcDb2dVertex
62
5
10
182.616819
20
205.037500
0
VERTEX
5
272
100
AcDbEntity
8
1
100
AcDbVertex
100
AcDb2dVertex
62
5
10
182.616819
20
201.600000
0
VERTEX
5
273
100
AcDbEntity
8
1
100
AcDbVertex
100
AcDb2dVertex
62
5
10
182.304319
20
200.037500
0
VERTEX
5
274
100
AcDbEntity
8
1
100
AcDbVertex
100
AcDb2dVertex
62
5
10
181.679319
20
199.412500
0
VERTEX
5
275
100
AcDbEntity
8
1
100
AcDbVertex
100
AcDb2dVertex
62
5
10
180.741819
20
199.100000
0
VERTEX
5
276
100
AcDbEntity
8
1
100
AcDbVertex
100
AcDb2dVertex
62
5
10
180.116819
20
199.100000
0
SEQEND
5
277
100
AcDbEntity
8
1
0
LINE
5
278
100
AcDbEntity
8
1
100
AcDbLine
6
CONTINUOUS
62
5
10
201.141819
20
172.899995
11
201.141819
21
199.850000
0
LINE
5
279
100
AcDbEntity
8
1
100
AcDbLine
6
CONTINUOUS
62
5
10
229.341819
20
173.208510
11
229.341819
21
199.850000
0
POLYLINE
5
27a
100
AcDbEntity
8
1
6
CONTINUOUS
62
5
100
AcDb2dPolyline
66
1
10
0.0
20
0.0
30
0.0
70
0
0
VERTEX
5
27b
100
AcDbEntity
8
1
100
AcDbVertex
100
AcDb2dVertex
62
5
10
260.591819
20
197.850000
0
VERTEX
5
27c
100
AcDbEntity
8
1
100
AcDbVertex
100
AcDb2dVertex
62
5
10
229.341819
20
197.850000
0
VERTEX
5
27d
100
AcDbEntity
8
1
100
AcDbVertex
100
AcDb2dVertex
62
5
10
235.341819
20
198.850000
0
VERTEX
5
27e
100
AcDbEntity
8
1
100
AcDbVertex
100
AcDb2dVertex
62
5
10
235.341819
20
196.850000
0
VERTEX
5
27f
100
AcDbEntity
8
1
100
AcDbVertex
100
AcDb2dVertex
62
5
10
229.341819
20
197.850000
0
VERTEX
5
280
100
AcDbEntity
8
1
100
AcDbVertex
100
AcDb2dVertex
62
5
10
235.341819
20
198.350000
0
VERTEX
5
281
100
AcDbEntity
8
1
100
AcDbVertex
100
AcDb2dVertex
62
5
10
235.341819
20
197.350000
0
VERTEX
5
282
100
AcDbEntity
8
1
100
AcDbVertex
100
AcDb2dVertex
62
5
10
229.341819
20
197.850000
0
SEQEND
5
283
100
AcDbEntity
8
1
0
LINE
5
284
100
AcDbEntity
8
1
100
AcDbLine
6
CONTINUOUS
62
5
10
229.341819
20
197.850000
11
201.141819
21
197.850000
0
LINE
5
285
100
AcDbEntity
8
1
100
AcDbLine
6
CONTINUOUS
62
5
10
196.141819
20
197.850000
11
201.141819
21
197.850000
0
POLYLINE
5
286
100
AcDbEntity
8
1
6
CONTINUOUS
62
5
100
AcDb2dPolyline
66
1
10
0.0
20
0.0
30
0.0
70
0
0
VERTEX
5
287
100
AcDbEntity
8
1
100
AcDbVertex
100
AcDb2dVertex
62
5
10
202.141819
20
198.350000
0
VERTEX
5
288
100
AcDbEntity
8
1
100
AcDbVertex
100
AcDb2dVertex
62
5
10
202.141819
20
197.350000
0
VERTEX
5
289
100
AcDbEntity
8
1
100
AcDbVertex
100
AcDb2dVertex
62
5
10
201.641819
20
196.850000
0
VERTEX
5
28a
100
AcDbEntity
8
1
100
AcDbVertex
100
AcDb2dVertex
62
5
10
200.641819
20
196.850000
0
VERTEX
5
28b
100
AcDbEntity
8
1
100
AcDbVertex
100
AcDb2dVertex
62
5
10
200.141819
20
197.350000
0
VERTEX
5
28c
100
AcDbEntity
8
1
100
AcDbVertex
100
AcDb2dVertex
62
5
10
200.141819
20
198.350000
0
VERTEX
5
28d
100
AcDbEntity
8
1
100
AcDbVertex
100
AcDb2dVertex
62
5
10
200.641819
20
198.850000
0
VERTEX
5
28e
100
AcDbEntity
8
1
100
AcDbVertex
100
AcDb2dVertex
62
5
10
201.641819
20
198.850000
0
VERTEX
5
28f
100
AcDbEntity
8
1
100
AcDbVertex
100
AcDb2dVertex
62
5
10
202.141819
20
198.350000
0
VERTEX
5
290
100
AcDbEntity
8
1
100
AcDbVertex
100
AcDb2dVertex
62
5
10
200.141819
20
197.350000
0
SEQEND
5
291
100
AcDbEntity
8
1
0
LINE
5
292
100
AcDbEntity
8
1
100
AcDbLine
6
CONTINUOUS
62
5
10
200.141819
20
198.350000
11
202.141819
21
197.350000
0
LINE
5
293
100
AcDbEntity
8
1
100
AcDbLine
6
CONTINUOUS
62
5
10
201.641819
20
196.850000
11
200.641819
21
198.850000
0
LINE
5
294
100
AcDbEntity
8
1
100
AcDbLine
6
CONTINUOUS
62
5
10
201.641819
20
198.850000
11
200.641819
21
196.850000
0
POLYLINE
5
295
100
AcDbEntity
8
1
6
CONTINUOUS
62
5
100
AcDb2dPolyline
66
1
10
0.0
20
0.0
30
0.0
70
0
0
VERTEX
5
296
100
AcDbEntity
8
1
100
AcDbVertex
100
AcDb2dVertex
62
5
10
135.750000
20
328.687500
0
VERTEX
5
297
100
AcDbEntity
8
1
100
AcDbVertex
100
AcDb2dVertex
62
5
10
133.750000
20
326.187500
0
VERTEX
5
298
100
AcDbEntity
8
1
100
AcDbVertex
100
AcDb2dVertex
62
5
10
131.500000
20
324.625000
0
SEQEND
5
299
100
AcDbEntity
8
1
0
LINE
5
29a
100
AcDbEntity
8
1
100
AcDbLine
6
CONTINUOUS
62
5
10
134.250000
20
326.812500
11
134.250000
21
321.500000
0
LINE
5
29b
100
AcDbEntity
8
1
100
AcDbLine
6
CONTINUOUS
62
5
10
140.250000
20
325.562500
11
140.500000
21
324.312500
0
LINE
5
29c
100
AcDbEntity
8
1
100
AcDbLine
6
CONTINUOUS
62
5
10
141.750000
20
325.875000
11
142.000000
21
324.625000
0
POLYLINE
5
29d
100
AcDbEntity
8
1
6
CONTINUOUS
62
5
100
AcDb2dPolyline
66
1
10
0.0
20
0.0
30
0.0
70
0
0
VERTEX
5
29e
100
AcDbEntity
8
1
100
AcDbVertex
100
AcDb2dVertex
62
5
10
143.750000
20
325.875000
0
VERTEX
5
29f
100
AcDbEntity
8
1
100
AcDbVertex
100
AcDb2dVertex
62
5
10
143.500000
20
324.312500
0
VERTEX
5
2a0
100
AcDbEntity
8
1
100
AcDbVertex
100
AcDb2dVertex
62
5
10
142.250000
20
322.437500
0
VERTEX
5
2a1
100
AcDbEntity
8
1
100
AcDbVertex
100
AcDb2dVertex
62
5
10
141.250000
20
321.500000
0
SEQEND
5
2a2
100
AcDbEntity
8
1
0
POLYLINE
5
2a3
100
AcDbEntity
8
1
6
CONTINUOUS
62
5
100
AcDb2dPolyline
66
1
10
0.0
20
0.0
30
0.0
70
0
0
VERTEX
5
2a4
100
AcDbEntity
8
1
100
AcDbVertex
100
AcDb2dVertex
62
5
10
131.500000
20
319.000000
0
VERTEX
5
2a5
100
AcDbEntity
8
1
100
AcDbVertex
100
AcDb2dVertex
62
5
10
131.500000
20
313.375000
0
VERTEX
5
2a6
100
AcDbEntity
8
1
100
AcDbVertex
100
AcDb2dVertex
62
5
10
131.000000
20
312.125000
0
VERTEX
5
2a7
100
AcDbEntity
8
1
100
AcDbVertex
100
AcDb2dVertex
62
5
10
130.500000
20
311.187500
0
SEQEND
5
2a8
100
AcDbEntity
8
1
0
POLYLINE
5
2a9
100
AcDbEntity
8
1
6
CONTINUOUS
62
5
100
AcDb2dPolyline
66
1
10
0.0
20
0.0
30
0.0
70
0
0
VERTEX
5
2aa
100
AcDbEntity
8
1
100
AcDbVertex
100
AcDb2dVertex
62
5
10
135.500000
20
311.500000
0
VERTEX
5
2ab
100
AcDbEntity
8
1
100
AcDbVertex
100
AcDb2dVertex
62
5
10
136.500000
20
310.875000
0
VERTEX
5
2ac
100
AcDbEntity
8
1
100
AcDbVertex
100
AcDb2dVertex
62
5
10
136.500000
20
319.000000
0
VERTEX
5
2ad
100
AcDbEntity
8
1
100
AcDbVertex
100
AcDb2dVertex
62
5
10
131.500000
20
319.000000
0
SEQEND
5
2ae
100
AcDbEntity
8
1
0
LINE
5
2af
100
AcDbEntity
8
1
100
AcDbLine
6
CONTINUOUS
62
5
10
131.500000
20
316.500000
11
136.500000
21
316.500000
0
LINE
5
2b0
100
AcDbEntity
8
1
100
AcDbLine
6
CONTINUOUS
62
5
10
134.000000
20
319.000000
11
134.000000
21
310.875000
0
LINE
5
2b1
100
AcDbEntity
8
1
100
AcDbLine
6
CONTINUOUS
62
5
10
131.500000
20
314.000000
11
136.500000
21
314.000000
0
POLYLINE
5
2b2
100
AcDbEntity
8
1
6
CONTINUOUS
62
5
100
AcDb2dPolyline
66
1
10
0.0
20
0.0
30
0.0
70
0
0
VERTEX
5
2b3
100
AcDbEntity
8
1
100
AcDbVertex
100
AcDb2dVertex
62
5
10
124.000000
20
327.125000
0
VERTEX
5
2b4
100
AcDbEntity
8
1
100
AcDbVertex
100
AcDb2dVertex
62
5
10
127.250000
20
327.125000
0
VERTEX
5
2b5
100
AcDbEntity
8
1
100
AcDbVertex
100
AcDb2dVertex
62
5
10
127.250000
20
326.812500
0
VERTEX
5
2b6
100
AcDbEntity
8
1
100
AcDbVertex
100
AcDb2dVertex
62
5
10
126.750000
20
325.562500
0
VERTEX
5
2b7
100
AcDbEntity
8
1
100
AcDbVertex
100
AcDb2dVertex
62
5
10
126.250000
20
324.625000
0
VERTEX
5
2b8
100
AcDbEntity
8
1
100
AcDbVertex
100
AcDb2dVertex
62
5
10
125.250000
20
323.375000
0
VERTEX
5
2b9
100
AcDbEntity
8
1
100
AcDbVertex
100
AcDb2dVertex
62
5
10
123.500000
20
321.812500
0
SEQEND
5
2ba
100
AcDbEntity
8
1
0
LINE
5
2bb
100
AcDbEntity
8
1
100
AcDbLine
6
CONTINUOUS
62
5
10
126.250000
20
324.625000
11
128.250000
21
321.812500
0
POLYLINE
5
2bc
100
AcDbEntity
8
1
6
CONTINUOUS
62
5
100
AcDb2dPolyline
66
1
10
0.0
20
0.0
30
0.0
70
0
0
VERTEX
5
2bd
100
AcDbEntity
8
1
100
AcDbVertex
100
AcDb2dVertex
62
5
10
123.750000
20
315.250000
0
VERTEX
5
2be
100
AcDbEntity
8
1
100
AcDbVertex
100
AcDb2dVertex
62
5
10
124.750000
20
316.500000
0
VERTEX
5
2bf
100
AcDbEntity
8
1
100
AcDbVertex
100
AcDb2dVertex
62
5
10
125.250000
20
317.437500
0
VERTEX
5
2c0
100
AcDbEntity
8
1
100
AcDbVertex
100
AcDb2dVertex
62
5
10
127.750000
20
317.437500
0
VERTEX
5
2c1
100
AcDbEntity
8
1
100
AcDbVertex
100
AcDb2dVertex
62
5
10
127.750000
20
317.125000
0
VERTEX
5
2c2
100
AcDbEntity
8
1
100
AcDbVertex
100
AcDb2dVertex
62
5
10
127.000000
20
315.250000
0
VERTEX
5
2c3
100
AcDbEntity
8
1
100
AcDbVertex
100
AcDb2dVertex
62
5
10
125.750000
20
313.375000
0
VERTEX
5
2c4
100
AcDbEntity
8
1
100
AcDbVertex
100
AcDb2dVertex
62
5
10
124.250000
20
311.812500
0
SEQEND
5
2c5
100
AcDbEntity
8
1
0
POLYLINE
5
2c6
100
AcDbEntity
8
1
6
CONTINUOUS
62
5
100
AcDb2dPolyline
66
1
10
0.0
20
0.0
30
0.0
70
0
0
VERTEX
5
2c7
100
AcDbEntity
8
1
100
AcDbVertex
100
AcDb2dVertex
62
5
10
116.750000
20
328.687500
0
VERTEX
5
2c8
100
AcDbEntity
8
1
100
AcDbVertex
100
AcDb2dVertex
62
5
10
116.500000
20
326.187500
0
VERTEX
5
2c9
100
AcDbEntity
8
1
100
AcDbVertex
100
AcDb2dVertex
62
5
10
116.500000
20
324.000000
0
VERTEX
5
2ca
100
AcDbEntity
8
1
100
AcDbVertex
100
AcDb2dVertex
62
5
10
116.500000
20
321.812500
0
SEQEND
5
2cb
100
AcDbEntity
8
1
0
POLYLINE
5
2cc
100
AcDbEntity
8
1
6
CONTINUOUS
62
5
100
AcDb2dPolyline
66
1
10
0.0
20
0.0
30
0.0
70
0
0
VERTEX
5
2cd
100
AcDbEntity
8
1
100
AcDbVertex
100
AcDb2dVertex
62
5
10
115.250000
20
325.875000
0
VERTEX
5
2ce
100
AcDbEntity
8
1
100
AcDbVertex
100
AcDb2dVertex
62
5
10
117.250000
20
326.812500
0
VERTEX
5
2cf
100
AcDbEntity
8
1
100
AcDbVertex
100
AcDb2dVertex
62
5
10
115.250000
20
322.437500
0
VERTEX
5
2d0
100
AcDbEntity
8
1
100
AcDbVertex
100
AcDb2dVertex
62
5
10
116.250000
20
324.312500
0
VERTEX
5
2d1
100
AcDbEntity
8
1
100
AcDbVertex
100
AcDb2dVertex
62
5
10
117.250000
20
325.875000
0
VERTEX
5
2d2
100
AcDbEntity
8
1
100
AcDbVertex
100
AcDb2dVertex
62
5
10
118.000000
20
326.812500
0
VERTEX
5
2d3
100
AcDbEntity
8
1
100
AcDbVertex
100
AcDb2dVertex
62
5
10
118.750000
20
327.125000
0
VERTEX
5
2d4
100
AcDbEntity
8
1
100
AcDbVertex
100
AcDb2dVertex
62
5
10
119.250000
20
327.125000
0
VERTEX
5
2d5
100
AcDbEntity
8
1
100
AcDbVertex
100
AcDb2dVertex
62
5
10
119.500000
20
326.500000
0
VERTEX
5
2d6
100
AcDbEntity
8
1
100
AcDbVertex
100
AcDb2dVertex
62
5
10
119.500000
20
325.875000
0
VERTEX
5
2d7
100
AcDbEntity
8
1
100
AcDbVertex
100
AcDb2dVertex
62
5
10
119.250000
20
323.062500
0
VERTEX
5
2d8
100
AcDbEntity
8
1
100
AcDbVertex
100
AcDb2dVertex
62
5
10
119.500000
20
322.437500
0
VERTEX
5
2d9
100
AcDbEntity
8
1
100
AcDbVertex
100
AcDb2dVertex
62
5
10
120.250000
20
322.437500
0
VERTEX
5
2da
100
AcDbEntity
8
1
100
AcDbVertex
100
AcDb2dVertex
62
5
10
121.000000
20
323.687500
0
SEQEND
5
2db
100
AcDbEntity
8
1
0
LINE
5
2dc
100
AcDbEntity
8
1
100
AcDbLine
6
CONTINUOUS
62
5
10
116.250000
20
315.562500
11
116.500000
21
314.312500
0
LINE
5
2dd
100
AcDbEntity
8
1
100
AcDbLine
6
CONTINUOUS
62
5
10
117.750000
20
315.875000
11
118.000000
21
314.625000
0
POLYLINE
5
2de
100
AcDbEntity
8
1
6
CONTINUOUS
62
5
100
AcDb2dPolyline
66
1
10
0.0
20
0.0
30
0.0
70
0
0
VERTEX
5
2df
100
AcDbEntity
8
1
100
AcDbVertex
100
AcDb2dVertex
62
5
10
119.750000
20
315.875000
0
VERTEX
5
2e0
100
AcDbEntity
8
1
100
AcDbVertex
100
AcDb2dVertex
62
5
10
119.500000
20
314.312500
0
VERTEX
5
2e1
100
AcDbEntity
8
1
100
AcDbVertex
100
AcDb2dVertex
62
5
10
118.250000
20
312.437500
0
VERTEX
5
2e2
100
AcDbEntity
8
1
100
AcDbVertex
100
AcDb2dVertex
62
5
10
117.250000
20
311.500000
0
SEQEND
5
2e3
100
AcDbEntity
8
1
0
POLYLINE
5
2e4
100
AcDbEntity
8
1
6
CONTINUOUS
62
5
100
AcDb2dPolyline
66
1
10
0.0
20
0.0
30
0.0
70
0
0
VERTEX
5
2e5
100
AcDbEntity
8
1
100
AcDbVertex
100
AcDb2dVertex
62
5
10
91.500000
20
329.000000
0
VERTEX
5
2e6
100
AcDbEntity
8
1
100
AcDbVertex
100
AcDb2dVertex
62
5
10
96.250000
20
329.000000
0
VERTEX
5
2e7
100
AcDbEntity
8
1
100
AcDbVertex
100
AcDb2dVertex
62
5
10
93.750000
20
327.125000
0
VERTEX
5
2e8
100
AcDbEntity
8
1
100
AcDbVertex
100
AcDb2dVertex
62
5
10
93.750000
20
320.875000
0
VERTEX
5
2e9
100
AcDbEntity
8
1
100
AcDbVertex
100
AcDb2dVertex
62
5
10
92.750000
20
321.187500
0
SEQEND
5
2ea
100
AcDbEntity
8
1
0
LINE
5
2eb
100
AcDbEntity
8
1
100
AcDbLine
6
CONTINUOUS
62
5
10
90.250000
20
325.250000
11
97.250000
21
325.250000
0
LINE
5
2ec
100
AcDbEntity
8
1
100
AcDbLine
6
CONTINUOUS
62
5
10
98.500000
20
327.437500
11
105.000000
21
327.437500
0
POLYLINE
5
2ed
100
AcDbEntity
8
1
6
CONTINUOUS
62
5
100
AcDb2dPolyline
66
1
10
0.0
20
0.0
30
0.0
70
0
0
VERTEX
5
2ee
100
AcDbEntity
8
1
100
AcDbVertex
100
AcDb2dVertex
62
5
10
102.250000
20
329.312500
0
VERTEX
5
2ef
100
AcDbEntity
8
1
100
AcDbVertex
100
AcDb2dVertex
62
5
10
102.250000
20
326.500000
0
VERTEX
5
2f0
100
AcDbEntity
8
1
100
AcDbVertex
100
AcDb2dVertex
62
5
10
102.500000
20
324.312500
0
VERTEX
5
2f1
100
AcDbEntity
8
1
100
AcDbVertex
100
AcDb2dVertex
62
5
10
103.000000
20
322.750000
0
VERTEX
5
2f2
100
AcDbEntity
8
1
100
AcDbVertex
100
AcDb2dVertex
62
5
10
103.750000
20
321.500000
0
VERTEX
5
2f3
100
AcDbEntity
8
1
100
AcDbVertex
100
AcDb2dVertex
62
5
10
104.250000
20
320.875000
0
VERTEX
5
2f4
100
AcDbEntity
8
1
100
AcDbVertex
100
AcDb2dVertex
62
5
10
105.000000
20
322.125000
0
SEQEND
5
2f5
100
AcDbEntity
8
1
0
LINE
5
2f6
100
AcDbEntity
8
1
100
AcDbLine
6
CONTINUOUS
62
5
10
98.750000
20
325.250000
11
101.750000
21
325.250000
0
LINE
5
2f7
100
AcDbEntity
8
1
100
AcDbLine
6
CONTINUOUS
62
5
10
100.250000
20
325.250000
11
100.250000
21
321.812500
0
POLYLINE
5
2f8
100
AcDbEntity
8
1
6
CONTINUOUS
62
5
100
AcDb2dPolyline
66
1
10
0.0
20
0.0
30
0.0
70
0
0
VERTEX
5
2f9
100
AcDbEntity
8
1
100
AcDbVertex
100
AcDb2dVertex
62
5
10
98.750000
20
321.187500
0
VERTEX
5
2fa
100
AcDbEntity
8
1
100
AcDbVertex
100
AcDb2dVertex
62
5
10
100.250000
20
321.812500
0
VERTEX
5
2fb
100
AcDbEntity
8
1
100
AcDbVertex
100
AcDb2dVertex
62
5
10
101.750000
20
322.437500
0
SEQEND
5
2fc
100
AcDbEntity
8
1
0
LINE
5
2fd
100
AcDbEntity
8
1
100
AcDbLine
6
CONTINUOUS
62
5
10
103.250000
20
328.687500
11
104.000000
21
328.062500
0
POLYLINE
5
2fe
100
AcDbEntity
8
1
6
CONTINUOUS
62
5
100
AcDb2dPolyline
66
1
10
0.0
20
0.0
30
0.0
70
0
0
VERTEX
5
2ff
100
AcDbEntity
8
1
100
AcDbVertex
100
AcDb2dVertex
62
5
10
93.250000
20
315.250000
0
VERTEX
5
300
100
AcDbEntity
8
1
100
AcDbVertex
100
AcDb2dVertex
62
5
10
93.750000
20
315.875000
0
VERTEX
5
301
100
AcDbEntity
8
1
100
AcDbVertex
100
AcDb2dVertex
62
5
10
94.000000
20
315.875000
0
VERTEX
5
302
100
AcDbEntity
8
1
100
AcDbVertex
100
AcDb2dVertex
62
5
10
94.500000
20
315.250000
0
VERTEX
5
303
100
AcDbEntity
8
1
100
AcDbVertex
100
AcDb2dVertex
62
5
10
94.500000
20
314.937500
0
VERTEX
5
304
100
AcDbEntity
8
1
100
AcDbVertex
100
AcDb2dVertex
62
5
10
94.000000
20
314.312500
0
VERTEX
5
305
100
AcDbEntity
8
1
100
AcDbVertex
100
AcDb2dVertex
62
5
10
93.750000
20
314.312500
0
VERTEX
5
306
100
AcDbEntity
8
1
100
AcDbVertex
100
AcDb2dVertex
62
5
10
93.250000
20
314.937500
0
VERTEX
5
307
100
AcDbEntity
8
1
100
AcDbVertex
100
AcDb2dVertex
62
5
10
93.250000
20
315.250000
0
VERTEX
5
308
100
AcDbEntity
8
1
100
AcDbVertex
100
AcDb2dVertex
62
5
10
94.500000
20
315.250000
0
SEQEND
5
309
100
AcDbEntity
8
1
0
LINE
5
30a
100
AcDbEntity
8
1
100
AcDbLine
6
CONTINUOUS
62
5
10
94.500000
20
314.937500
11
93.250000
21
314.937500
0
LINE
5
30b
100
AcDbEntity
8
1
100
AcDbLine
6
CONTINUOUS
62
5
10
93.500000
20
314.625000
11
94.250000
21
314.625000
0
LINE
5
30c
100
AcDbEntity
8
1
100
AcDbLine
6
CONTINUOUS
62
5
10
94.250000
20
315.562500
11
93.500000
21
315.562500
0
LINE
5
30d
100
AcDbEntity
8
1
100
AcDbLine
6
CONTINUOUS
62
5
10
100.000000
20
317.437500
11
103.750000
21
318.062500
0
LINE
5
30e
100
AcDbEntity
8
1
100
AcDbLine
6
CONTINUOUS
62
5
10
98.750000
20
315.562500
11
104.750000
21
315.562500
0
POLYLINE
5
30f
100
AcDbEntity
8
1
6
CONTINUOUS
62
5
100
AcDb2dPolyline
66
1
10
0.0
20
0.0
30
0.0
70
0
0
VERTEX
5
310
100
AcDbEntity
8
1
100
AcDbVertex
100
AcDb2dVertex
62
5
10
102.000000
20
317.750000
0
VERTEX
5
311
100
AcDbEntity
8
1
100
AcDbVertex
100
AcDb2dVertex
62
5
10
102.000000
20
315.562500
0
VERTEX
5
312
100
AcDbEntity
8
1
100
AcDbVertex
100
AcDb2dVertex
62
5
10
101.750000
20
314.000000
0
VERTEX
5
313
100
AcDbEntity
8
1
100
AcDbVertex
100
AcDb2dVertex
62
5
10
101.000000
20
312.750000
0
VERTEX
5
314
100
AcDbEntity
8
1
100
AcDbVertex
100
AcDb2dVertex
62
5
10
100.250000
20
311.812500
0
SEQEND
5
315
100
AcDbEntity
8
1
0
LINE
5
316
100
AcDbEntity
8
1
100
AcDbLine
6
CONTINUOUS
62
5
10
85.250000
20
318.687500
11
85.250000
21
311.500000
0
POLYLINE
5
317
100
AcDbEntity
8
1
6
CONTINUOUS
62
5
100
AcDb2dPolyline
66
1
10
0.0
20
0.0
30
0.0
70
0
0
VERTEX
5
318
100
AcDbEntity
8
1
100
AcDbVertex
100
AcDb2dVertex
62
5
10
85.250000
20
315.875000
0
VERTEX
5
319
100
AcDbEntity
8
1
100
AcDbVertex
100
AcDb2dVertex
62
5
10
85.500000
20
315.875000
0
VERTEX
5
31a
100
AcDbEntity
8
1
100
AcDbVertex
100
AcDb2dVertex
62
5
10
87.000000
20
314.937500
0
SEQEND
5
31b
100
AcDbEntity
8
1
0
LINE
5
31c
100
AcDbEntity
8
1
100
AcDbLine
6
CONTINUOUS
62
5
10
87.250000
20
318.062500
11
87.750000
21
317.437500
0
LINE
5
31d
100
AcDbEntity
8
1
100
AcDbLine
6
CONTINUOUS
62
5
10
88.250000
20
318.687500
11
88.750000
21
318.062500
0
LINE
5
31e
100
AcDbEntity
8
1
100
AcDbLine
6
CONTINUOUS
62
5
10
75.000000
20
329.000000
11
76.000000
21
328.062500
0
POLYLINE
5
31f
100
AcDbEntity
8
1
6
CONTINUOUS
62
5
100
AcDb2dPolyline
66
1
10
0.0
20
0.0
30
0.0
70
0
0
VERTEX
5
320
100
AcDbEntity
8
1
100
AcDbVertex
100
AcDb2dVertex
62
5
10
74.750000
20
325.875000
0
VERTEX
5
321
100
AcDbEntity
8
1
100
AcDbVertex
100
AcDb2dVertex
62
5
10
76.000000
20
325.875000
0
VERTEX
5
322
100
AcDbEntity
8
1
100
AcDbVertex
100
AcDb2dVertex
62
5
10
76.000000
20
322.750000
0
VERTEX
5
323
100
AcDbEntity
8
1
100
AcDbVertex
100
AcDb2dVertex
62
5
10
74.750000
20
321.187500
0
SEQEND
5
324
100
AcDbEntity
8
1
0
POLYLINE
5
325
100
AcDbEntity
8
1
6
CONTINUOUS
62
5
100
AcDb2dPolyline
66
1
10
0.0
20
0.0
30
0.0
70
0
0
VERTEX
5
326
100
AcDbEntity
8
1
100
AcDbVertex
100
AcDb2dVertex
62
5
10
76.000000
20
322.750000
0
VERTEX
5
327
100
AcDbEntity
8
1
100
AcDbVertex
100
AcDb2dVertex
62
5
10
76.750000
20
321.500000
0
VERTEX
5
328
100
AcDbEntity
8
1
100
AcDbVertex
100
AcDb2dVertex
62
5
10
77.750000
20
321.187500
0
VERTEX
5
329
100
AcDbEntity
8
1
100
AcDbVertex
100
AcDb2dVertex
62
5
10
81.500000
20
321.187500
0
SEQEND
5
32a
100
AcDbEntity
8
1
0
POLYLINE
5
32b
100
AcDbEntity
8
1
6
CONTINUOUS
62
5
100
AcDb2dPolyline
66
1
10
0.0
20
0.0
30
0.0
70
0
0
VERTEX
5
32c
100
AcDbEntity
8
1
100
AcDbVertex
100
AcDb2dVertex
62
5
10
78.750000
20
326.500000
0
VERTEX
5
32d
100
AcDbEntity
8
1
100
AcDbVertex
100
AcDb2dVertex
62
5
10
78.000000
20
324.625000
0
VERTEX
5
32e
100
AcDbEntity
8
1
100
AcDbVertex
100
AcDb2dVertex
62
5
10
77.250000
20
323.375000
0
VERTEX
5
32f
100
AcDbEntity
8
1
100
AcDbVertex
100
AcDb2dVertex
62
5
10
76.750000
20
322.750000
0
SEQEND
5
330
100
AcDbEntity
8
1
0
POLYLINE
5
331
100
AcDbEntity
8
1
6
CONTINUOUS
62
5
100
AcDb2dPolyline
66
1
10
0.0
20
0.0
30
0.0
70
0
0
VERTEX
5
332
100
AcDbEntity
8
1
100
AcDbVertex
100
AcDb2dVertex
62
5
10
77.500000
20
329.312500
0
VERTEX
5
333
100
AcDbEntity
8
1
100
AcDbVertex
100
AcDb2dVertex
62
5
10
78.750000
20
329.312500
0
VERTEX
5
334
100
AcDbEntity
8
1
100
AcDbVertex
100
AcDb2dVertex
62
5
10
78.750000
20
326.500000
0
VERTEX
5
335
100
AcDbEntity
8
1
100
AcDbVertex
100
AcDb2dVertex
62
5
10
79.500000
20
324.625000
0
VERTEX
5
336
100
AcDbEntity
8
1
100
AcDbVertex
100
AcDb2dVertex
62
5
10
80.500000
20
323.375000
0
VERTEX
5
337
100
AcDbEntity
8
1
100
AcDbVertex
100
AcDb2dVertex
62
5
10
81.250000
20
322.750000
0
SEQEND
5
338
100
AcDbEntity
8
1
0
POLYLINE
5
339
100
AcDbEntity
8
1
6
CONTINUOUS
62
5
100
AcDb2dPolyline
66
1
10
0.0
20
0.0
30
0.0
70
0
0
VERTEX
5
33a
100
AcDbEntity
8
1
100
AcDbVertex
100
AcDb2dVertex
62
5
10
79.750000
20
318.687500
0
VERTEX
5
33b
100
AcDbEntity
8
1
100
AcDbVertex
100
AcDb2dVertex
62
5
10
77.750000
20
316.187500
0
VERTEX
5
33c
100
AcDbEntity
8
1
100
AcDbVertex
100
AcDb2dVertex
62
5
10
75.500000
20
314.625000
0
SEQEND
5
33d
100
AcDbEntity
8
1
0
LINE
5
33e
100
AcDbEntity
8
1
100
AcDbLine
6
CONTINUOUS
62
5
10
78.250000
20
316.812500
11
78.250000
21
311.500000
0
LINE
5
33f
100
AcDbEntity
8
1
100
AcDbLine
6
CONTINUOUS
62
5
10
82.750000
20
329.312500
11
89.000000
21
329.312500
0
POLYLINE
5
340
100
AcDbEntity
8
1
6
CONTINUOUS
62
5
100
AcDb2dPolyline
66
1
10
0.0
20
0.0
30
0.0
70
0
0
VERTEX
5
341
100
AcDbEntity
8
1
100
AcDbVertex
100
AcDb2dVertex
62
5
10
82.500000
20
326.500000
0
VERTEX
5
342
100
AcDbEntity
8
1
100
AcDbVertex
100
AcDb2dVertex
62
5
10
82.500000
20
328.375000
0
VERTEX
5
343
100
AcDbEntity
8
1
100
AcDbVertex
100
AcDb2dVertex
62
5
10
89.250000
20
328.375000
0
VERTEX
5
344
100
AcDbEntity
8
1
100
AcDbVertex
100
AcDb2dVertex
62
5
10
89.250000
20
326.500000
0
SEQEND
5
345
100
AcDbEntity
8
1
0
LINE
5
346
100
AcDbEntity
8
1
100
AcDbLine
6
CONTINUOUS
62
5
10
85.750000
20
329.312500
11
85.750000
21
325.562500
0
LINE
5
347
100
AcDbEntity
8
1
100
AcDbLine
6
CONTINUOUS
62
5
10
83.250000
20
327.125000
11
85.000000
21
327.125000
0
LINE
5
348
100
AcDbEntity
8
1
100
AcDbLine
6
CONTINUOUS
62
5
10
83.250000
20
325.875000
11
85.000000
21
325.875000
0
LINE
5
349
100
AcDbEntity
8
1
100
AcDbLine
6
CONTINUOUS
62
5
10
86.500000
20
327.125000
11
88.500000
21
327.125000
0
LINE
5
34a
100
AcDbEntity
8
1
100
AcDbLine
6
CONTINUOUS
62
5
10
86.500000
20
325.875000
11
88.500000
21
325.875000
0
POLYLINE
5
34b
100
AcDbEntity
8
1
6
CONTINUOUS
62
5
100
AcDb2dPolyline
66
1
10
0.0
20
0.0
30
0.0
70
1
0
VERTEX
5
34c
100
AcDbEntity
8
1
100
AcDbVertex
100
AcDb2dVertex
62
5
10
83.000000
20
324.625000
0
VERTEX
5
34d
100
AcDbEntity
8
1
100
AcDbVertex
100
AcDb2dVertex
62
5
10
83.000000
20
322.125000
0
VERTEX
5
34e
100
AcDbEntity
8
1
100
AcDbVertex
100
AcDb2dVertex
62
5
10
88.500000
20
322.125000
0
VERTEX
5
34f
100
AcDbEntity
8
1
100
AcDbVertex
100
AcDb2dVertex
62
5
10
88.500000
20
324.625000
0
VERTEX
5
350
100
AcDbEntity
8
1
100
AcDbVertex
100
AcDb2dVertex
62
5
10
83.000000
20
324.625000
0
SEQEND
5
351
100
AcDbEntity
8
1
0
LINE
5
352
100
AcDbEntity
8
1
100
AcDbLine
6
CONTINUOUS
62
5
10
83.000000
20
323.375000
11
88.500000
21
323.375000
0
POLYLINE
5
353
100
AcDbEntity
8
1
6
CONTINUOUS
62
5
100
AcDb2dPolyline
66
1
10
0.0
20
0.0
30
0.0
70
0
0
VERTEX
5
354
100
AcDbEntity
8
1
100
AcDbVertex
100
AcDb2dVertex
62
5
10
85.750000
20
324.625000
0
VERTEX
5
355
100
AcDbEntity
8
1
100
AcDbVertex
100
AcDb2dVertex
62
5
10
85.750000
20
322.125000
0
VERTEX
5
356
100
AcDbEntity
8
1
100
AcDbVertex
100
AcDb2dVertex
62
5
10
86.000000
20
321.187500
0
VERTEX
5
357
100
AcDbEntity
8
1
100
AcDbVertex
100
AcDb2dVertex
62
5
10
86.750000
20
320.875000
0
VERTEX
5
358
100
AcDbEntity
8
1
100
AcDbVertex
100
AcDb2dVertex
62
5
10
89.250000
20
320.875000
0
VERTEX
5
359
100
AcDbEntity
8
1
100
AcDbVertex
100
AcDb2dVertex
62
5
10
89.500000
20
321.812500
0
SEQEND
5
35a
100
AcDbEntity
8
1
0
POLYLINE
5
35b
100
AcDbEntity
8
1
6
CONTINUOUS
62
5
100
AcDb2dPolyline
66
1
10
0.0
20
0.0
30
0.0
70
0
0
VERTEX
5
35c
100
AcDbEntity
8
1
100
AcDbVertex
100
AcDb2dVertex
62
5
10
108.750000
20
327.437500
0
VERTEX
5
35d
100
AcDbEntity
8
1
100
AcDbVertex
100
AcDb2dVertex
62
5
10
113.000000
20
327.437500
0
VERTEX
5
35e
100
AcDbEntity
8
1
100
AcDbVertex
100
AcDb2dVertex
62
5
10
113.000000
20
329.312500
0
VERTEX
5
35f
100
AcDbEntity
8
1
100
AcDbVertex
100
AcDb2dVertex
62
5
10
108.750000
20
329.312500
0
VERTEX
5
360
100
AcDbEntity
8
1
100
AcDbVertex
100
AcDb2dVertex
62
5
10
108.750000
20
324.000000
0
VERTEX
5
361
100
AcDbEntity
8
1
100
AcDbVertex
100
AcDb2dVertex
62
5
10
108.000000
20
322.437500
0
SEQEND
5
362
100
AcDbEntity
8
1
0
LINE
5
363
100
AcDbEntity
8
1
100
AcDbLine
6
CONTINUOUS
62
5
10
110.500000
20
327.125000
11
111.000000
21
326.187500
0
LINE
5
364
100
AcDbEntity
8
1
100
AcDbLine
6
CONTINUOUS
62
5
10
112.500000
20
327.125000
11
112.000000
21
326.187500
0
LINE
5
365
100
AcDbEntity
8
1
100
AcDbLine
6
CONTINUOUS
62
5
10
109.500000
20
325.875000
11
113.250000
21
325.875000
0
LINE
5
366
100
AcDbEntity
8
1
100
AcDbLine
6
CONTINUOUS
62
5
10
109.750000
20
324.625000
11
112.750000
21
324.625000
0
LINE
5
367
100
AcDbEntity
8
1
100
AcDbLine
6
CONTINUOUS
62
5
10
109.000000
20
323.375000
11
113.500000
21
323.375000
0
LINE
5
368
100
AcDbEntity
8
1
100
AcDbLine
6
CONTINUOUS
62
5
10
111.500000
20
325.875000
11
111.500000
21
321.500000
0
LINE
5
369
100
AcDbEntity
8
1
100
AcDbLine
6
CONTINUOUS
62
5
10
106.750000
20
329.000000
11
107.750000
21
327.750000
0
POLYLINE
5
36a
100
AcDbEntity
8
1
6
CONTINUOUS
62
5
100
AcDb2dPolyline
66
1
10
0.0
20
0.0
30
0.0
70
0
0
VERTEX
5
36b
100
AcDbEntity
8
1
100
AcDbVertex
100
AcDb2dVertex
62
5
10
106.250000
20
325.250000
0
VERTEX
5
36c
100
AcDbEntity
8
1
100
AcDbVertex
100
AcDb2dVertex
62
5
10
107.500000
20
325.250000
0
VERTEX
5
36d
100
AcDbEntity
8
1
100
AcDbVertex
100
AcDb2dVertex
62
5
10
107.500000
20
322.437500
0
VERTEX
5
36e
100
AcDbEntity
8
1
100
AcDbVertex
100
AcDb2dVertex
62
5
10
106.250000
20
321.187500
0
SEQEND
5
36f
100
AcDbEntity
8
1
0
POLYLINE
5
370
100
AcDbEntity
8
1
6
CONTINUOUS
62
5
100
AcDb2dPolyline
66
1
10
0.0
20
0.0
30
0.0
70
0
0
VERTEX
5
371
100
AcDbEntity
8
1
100
AcDbVertex
100
AcDb2dVertex
62
5
10
107.500000
20
322.437500
0
VERTEX
5
372
100
AcDbEntity
8
1
100
AcDbVertex
100
AcDb2dVertex
62
5
10
108.500000
20
321.500000
0
VERTEX
5
373
100
AcDbEntity
8
1
100
AcDbVertex
100
AcDb2dVertex
62
5
10
113.250000
20
320.875000
0
SEQEND
5
374
100
AcDbEntity
8
1
0
LINE
5
375
100
AcDbEntity
8
1
100
AcDbLine
6
CONTINUOUS
62
5
10
108.250000
20
315.250000
11
111.250000
21
315.250000
0
LINE
5
376
100
AcDbEntity
8
1
100
AcDbLine
6
CONTINUOUS
62
5
10
107.750000
20
312.437500
11
111.750000
21
312.437500
0
LINE
5
377
100
AcDbEntity
8
1
100
AcDbLine
6
CONTINUOUS
62
5
10
109.750000
20
315.250000
11
109.750000
21
312.437500
0
LINE
5
378
100
AcDbEntity
8
1
100
AcDbLine
6
CONTINUOUS
62
5
10
82.500000
20
286.750000
11
85.625000
21
286.750000
0
POLYLINE
5
379
100
AcDbEntity
8
1
6
CONTINUOUS
62
5
100
AcDb2dPolyline
66
1
10
0.0
20
0.0
30
0.0
70
0
0
VERTEX
5
37a
100
AcDbEntity
8
1
100
AcDbVertex
100
AcDb2dVertex
62
5
10
122.187500
20
290.500000
0
VERTEX
5
37b
100
AcDbEntity
8
1
100
AcDbVertex
100
AcDb2dVertex
62
5
10
123.125000
20
283.000000
0
VERTEX
5
37c
100
AcDbEntity
8
1
100
AcDbVertex
100
AcDb2dVertex
62
5
10
124.062500
20
290.500000
0
VERTEX
5
37d
100
AcDbEntity
8
1
100
AcDbVertex
100
AcDb2dVertex
62
5
10
125.000000
20
283.000000
0
VERTEX
5
37e
100
AcDbEntity
8
1
100
AcDbVertex
100
AcDb2dVertex
62
5
10
125.937500
20
290.500000
0
SEQEND
5
37f
100
AcDbEntity
8
1
0
POLYLINE
5
380
100
AcDbEntity
8
1
6
CONTINUOUS
62
5
100
AcDb2dPolyline
66
1
10
0.0
20
0.0
30
0.0
70
0
0
VERTEX
5
381
100
AcDbEntity
8
1
100
AcDbVertex
100
AcDb2dVertex
62
5
10
105.312500
20
288.937500
0
VERTEX
5
382
100
AcDbEntity
8
1
100
AcDbVertex
100
AcDb2dVertex
62
5
10
105.000000
20
289.875000
0
VERTEX
5
383
100
AcDbEntity
8
1
100
AcDbVertex
100
AcDb2dVertex
62
5
10
104.375000
20
290.500000
0
VERTEX
5
384
100
AcDbEntity
8
1
100
AcDbVertex
100
AcDb2dVertex
62
5
10
103.437500
20
290.500000
0
VERTEX
5
385
100
AcDbEntity
8
1
100
AcDbVertex
100
AcDb2dVertex
62
5
10
102.812500
20
289.875000
0
VERTEX
5
386
100
AcDbEntity
8
1
100
AcDbVertex
100
AcDb2dVertex
62
5
10
102.500000
20
289.250000
0
VERTEX
5
387
100
AcDbEntity
8
1
100
AcDbVertex
100
AcDb2dVertex
62
5
10
102.187500
20
287.687500
0
VERTEX
5
388
100
AcDbEntity
8
1
100
AcDbVertex
100
AcDb2dVertex
62
5
10
102.187500
20
285.812500
0
VERTEX
5
389
100
AcDbEntity
8
1
100
AcDbVertex
100
AcDb2dVertex
62
5
10
102.500000
20
284.250000
0
VERTEX
5
38a
100
AcDbEntity
8
1
100
AcDbVertex
100
AcDb2dVertex
62
5
10
102.812500
20
283.625000
0
VERTEX
5
38b
100
AcDbEntity
8
1
100
AcDbVertex
100
AcDb2dVertex
62
5
10
103.437500
20
283.000000
0
VERTEX
5
38c
100
AcDbEntity
8
1
100
AcDbVertex
100
AcDb2dVertex
62
5
10
104.375000
20
283.000000
0
VERTEX
5
38d
100
AcDbEntity
8
1
100
AcDbVertex
100
AcDb2dVertex
62
5
10
105.000000
20
283.625000
0
VERTEX
5
38e
100
AcDbEntity
8
1
100
AcDbVertex
100
AcDb2dVertex
62
5
10
105.312500
20
284.250000
0
SEQEND
5
38f
100
AcDbEntity
8
1
0
LINE
5
390
100
AcDbEntity
8
1
100
AcDbLine
6
CONTINUOUS
62
5
10
104.687500
20
286.437500
11
105.937500
21
286.437500
0
LINE
5
391
100
AcDbEntity
8
1
100
AcDbLine
6
CONTINUOUS
62
5
10
105.312500
20
286.437500
11
105.312500
21
283.000000
0
POLYLINE
5
392
100
AcDbEntity
8
1
6
CONTINUOUS
62
5
100
AcDb2dPolyline
66
1
10
0.0
20
0.0
30
0.0
70
0
0
VERTEX
5
393
100
AcDbEntity
8
1
100
AcDbVertex
100
AcDb2dVertex
62
5
10
110.625000
20
288.937500
0
VERTEX
5
394
100
AcDbEntity
8
1
100
AcDbVertex
100
AcDb2dVertex
62
5
10
110.312500
20
289.875000
0
VERTEX
5
395
100
AcDbEntity
8
1
100
AcDbVertex
100
AcDb2dVertex
62
5
10
109.687500
20
290.500000
0
VERTEX
5
396
100
AcDbEntity
8
1
100
AcDbVertex
100
AcDb2dVertex
62
5
10
108.750000
20
290.500000
0
VERTEX
5
397
100
AcDbEntity
8
1
100
AcDbVertex
100
AcDb2dVertex
62
5
10
107.812500
20
289.562500
0
VERTEX
5
398
100
AcDbEntity
8
1
100
AcDbVertex
100
AcDb2dVertex
62
5
10
107.500000
20
288.000000
0
VERTEX
5
399
100
AcDbEntity
8
1
100
AcDbVertex
100
AcDb2dVertex
62
5
10
107.500000
20
285.500000
0
VERTEX
5
39a
100
AcDbEntity
8
1
100
AcDbVertex
100
AcDb2dVertex
62
5
10
107.812500
20
283.937500
0
VERTEX
5
39b
100
AcDbEntity
8
1
100
AcDbVertex
100
AcDb2dVertex
62
5
10
108.750000
20
283.000000
0
VERTEX
5
39c
100
AcDbEntity
8
1
100
AcDbVertex
100
AcDb2dVertex
62
5
10
109.687500
20
283.000000
0
VERTEX
5
39d
100
AcDbEntity
8
1
100
AcDbVertex
100
AcDb2dVertex
62
5
10
110.312500
20
283.625000
0
VERTEX
5
39e
100
AcDbEntity
8
1
100
AcDbVertex
100
AcDb2dVertex
62
5
10
110.937500
20
285.187500
0
SEQEND
5
39f
100
AcDbEntity
8
1
0
POLYLINE
5
3a0
100
AcDbEntity
8
1
6
CONTINUOUS
62
5
100
AcDb2dPolyline
66
1
10
0.0
20
0.0
30
0.0
70
0
0
VERTEX
5
3a1
100
AcDbEntity
8
1
100
AcDbVertex
100
AcDb2dVertex
62
5
10
90.625000
20
290.500000
0
VERTEX
5
3a2
100
AcDbEntity
8
1
100
AcDbVertex
100
AcDb2dVertex
62
5
10
87.500000
20
290.500000
0
VERTEX
5
3a3
100
AcDbEntity
8
1
100
AcDbVertex
100
AcDb2dVertex
62
5
10
87.500000
20
283.000000
0
VERTEX
5
3a4
100
AcDbEntity
8
1
100
AcDbVertex
100
AcDb2dVertex
62
5
10
90.937500
20
283.000000
0
SEQEND
5
3a5
100
AcDbEntity
8
1
0
LINE
5
3a6
100
AcDbEntity
8
1
100
AcDbLine
6
CONTINUOUS
62
5
10
87.500000
20
286.750000
11
90.312500
21
286.750000
0
LINE
5
3a7
100
AcDbEntity
8
1
100
AcDbLine
6
CONTINUOUS
62
5
10
92.500000
20
290.500000
11
92.500000
21
283.000000
0
POLYLINE
5
3a8
100
AcDbEntity
8
1
6
CONTINUOUS
62
5
100
AcDb2dPolyline
66
1
10
0.0
20
0.0
30
0.0
70
0
0
VERTEX
5
3a9
100
AcDbEntity
8
1
100
AcDbVertex
100
AcDb2dVertex
62
5
10
92.500000
20
290.500000
0
VERTEX
5
3aa
100
AcDbEntity
8
1
100
AcDbVertex
100
AcDb2dVertex
62
5
10
94.062500
20
290.500000
0
VERTEX
5
3ab
100
AcDbEntity
8
1
100
AcDbVertex
100
AcDb2dVertex
62
5
10
94.687500
20
290.187500
0
VERTEX
5
3ac
100
AcDbEntity
8
1
100
AcDbVertex
100
AcDb2dVertex
62
5
10
95.312500
20
289.562500
0
VERTEX
5
3ad
100
AcDbEntity
8
1
100
AcDbVertex
100
AcDb2dVertex
62
5
10
95.625000
20
288.312500
0
VERTEX
5
3ae
100
AcDbEntity
8
1
100
AcDbVertex
100
AcDb2dVertex
62
5
10
95.625000
20
285.187500
0
VERTEX
5
3af
100
AcDbEntity
8
1
100
AcDbVertex
100
AcDb2dVertex
62
5
10
95.312500
20
283.937500
0
VERTEX
5
3b0
100
AcDbEntity
8
1
100
AcDbVertex
100
AcDb2dVertex
62
5
10
94.687500
20
283.312500
0
VERTEX
5
3b1
100
AcDbEntity
8
1
100
AcDbVertex
100
AcDb2dVertex
62
5
10
94.062500
20
283.000000
0
VERTEX
5
3b2
100
AcDbEntity
8
1
100
AcDbVertex
100
AcDb2dVertex
62
5
10
92.500000
20
283.000000
0
SEQEND
5
3b3
100
AcDbEntity
8
1
0
POLYLINE
5
3b4
100
AcDbEntity
8
1
6
CONTINUOUS
62
5
100
AcDb2dPolyline
66
1
10
0.0
20
0.0
30
0.0
70
0
0
VERTEX
5
3b5
100
AcDbEntity
8
1
100
AcDbVertex
100
AcDb2dVertex
62
5
10
100.625000
20
290.500000
0
VERTEX
5
3b6
100
AcDbEntity
8
1
100
AcDbVertex
100
AcDb2dVertex
62
5
10
97.500000
20
290.500000
0
VERTEX
5
3b7
100
AcDbEntity
8
1
100
AcDbVertex
100
AcDb2dVertex
62
5
10
97.500000
20
283.000000
0
SEQEND
5
3b8
100
AcDbEntity
8
1
0
LINE
5
3b9
100
AcDbEntity
8
1
100
AcDbLine
6
CONTINUOUS
62
5
10
97.500000
20
286.750000
11
100.000000
21
286.750000
0
LINE
5
3ba
100
AcDbEntity
8
1
100
AcDbLine
6
CONTINUOUS
62
5
10
117.500000
20
290.500000
11
117.500000
21
283.000000
0
POLYLINE
5
3bb
100
AcDbEntity
8
1
6
CONTINUOUS
62
5
100
AcDb2dPolyline
66
1
10
0.0
20
0.0
30
0.0
70
0
0
VERTEX
5
3bc
100
AcDbEntity
8
1
100
AcDbVertex
100
AcDb2dVertex
62
5
10
117.500000
20
290.500000
0
VERTEX
5
3bd
100
AcDbEntity
8
1
100
AcDbVertex
100
AcDb2dVertex
62
5
10
118.750000
20
290.500000
0
VERTEX
5
3be
100
AcDbEntity
8
1
100
AcDbVertex
100
AcDb2dVertex
62
5
10
119.687500
20
290.187500
0
VERTEX
5
3bf
100
AcDbEntity
8
1
100
AcDbVertex
100
AcDb2dVertex
62
5
10
120.312500
20
289.562500
0
VERTEX
5
3c0
100
AcDbEntity
8
1
100
AcDbVertex
100
AcDb2dVertex
62
5
10
120.625000
20
288.937500
0
VERTEX
5
3c1
100
AcDbEntity
8
1
100
AcDbVertex
100
AcDb2dVertex
62
5
10
120.625000
20
288.000000
0
VERTEX
5
3c2
100
AcDbEntity
8
1
100
AcDbVertex
100
AcDb2dVertex
62
5
10
120.312500
20
287.375000
0
VERTEX
5
3c3
100
AcDbEntity
8
1
100
AcDbVertex
100
AcDb2dVertex
62
5
10
119.687500
20
286.750000
0
VERTEX
5
3c4
100
AcDbEntity
8
1
100
AcDbVertex
100
AcDb2dVertex
62
5
10
118.750000
20
286.437500
0
VERTEX
5
3c5
100
AcDbEntity
8
1
100
AcDbVertex
100
AcDb2dVertex
62
5
10
117.500000
20
286.437500
0
SEQEND
5
3c6
100
AcDbEntity
8
1
0
LINE
5
3c7
100
AcDbEntity
8
1
100
AcDbLine
6
CONTINUOUS
62
5
10
72.500000
20
290.500000
11
72.500000
21
283.000000
0
POLYLINE
5
3c8
100
AcDbEntity
8
1
6
CONTINUOUS
62
5
100
AcDb2dPolyline
66
1
10
0.0
20
0.0
30
0.0
70
0
0
VERTEX
5
3c9
100
AcDbEntity
8
1
100
AcDbVertex
100
AcDb2dVertex
62
5
10
72.500000
20
290.500000
0
VERTEX
5
3ca
100
AcDbEntity
8
1
100
AcDbVertex
100
AcDb2dVertex
62
5
10
74.062500
20
290.500000
0
VERTEX
5
3cb
100
AcDbEntity
8
1
100
AcDbVertex
100
AcDb2dVertex
62
5
10
74.687500
20
290.187500
0
VERTEX
5
3cc
100
AcDbEntity
8
1
100
AcDbVertex
100
AcDb2dVertex
62
5
10
75.000000
20
289.875000
0
VERTEX
5
3cd
100
AcDbEntity
8
1
100
AcDbVertex
100
AcDb2dVertex
62
5
10
75.312500
20
289.250000
0
VERTEX
5
3ce
100
AcDbEntity
8
1
100
AcDbVertex
100
AcDb2dVertex
62
5
10
75.312500
20
288.312500
0
VERTEX
5
3cf
100
AcDbEntity
8
1
100
AcDbVertex
100
AcDb2dVertex
62
5
10
75.000000
20
287.687500
0
VERTEX
5
3d0
100
AcDbEntity
8
1
100
AcDbVertex
100
AcDb2dVertex
62
5
10
74.687500
20
287.375000
0
VERTEX
5
3d1
100
AcDbEntity
8
1
100
AcDbVertex
100
AcDb2dVertex
62
5
10
74.062500
20
287.062500
0
VERTEX
5
3d2
100
AcDbEntity
8
1
100
AcDbVertex
100
AcDb2dVertex
62
5
10
72.500000
20
287.062500
0
SEQEND
5
3d3
100
AcDbEntity
8
1
0
POLYLINE
5
3d4
100
AcDbEntity
8
1
6
CONTINUOUS
62
5
100
AcDb2dPolyline
66
1
10
0.0
20
0.0
30
0.0
70
0
0
VERTEX
5
3d5
100
AcDbEntity
8
1
100
AcDbVertex
100
AcDb2dVertex
62
5
10
74.062500
20
287.062500
0
VERTEX
5
3d6
100
AcDbEntity
8
1
100
AcDbVertex
100
AcDb2dVertex
62
5
10
74.687500
20
286.750000
0
VERTEX
5
3d7
100
AcDbEntity
8
1
100
AcDbVertex
100
AcDb2dVertex
62
5
10
75.312500
20
286.125000
0
VERTEX
5
3d8
100
AcDbEntity
8
1
100
AcDbVertex
100
AcDb2dVertex
62
5
10
75.625000
20
285.500000
0
VERTEX
5
3d9
100
AcDbEntity
8
1
100
AcDbVertex
100
AcDb2dVertex
62
5
10
75.625000
20
284.250000
0
VERTEX
5
3da
100
AcDbEntity
8
1
100
AcDbVertex
100
AcDb2dVertex
62
5
10
75.312500
20
283.625000
0
VERTEX
5
3db
100
AcDbEntity
8
1
100
AcDbVertex
100
AcDb2dVertex
62
5
10
75.000000
20
283.312500
0
VERTEX
5
3dc
100
AcDbEntity
8
1
100
AcDbVertex
100
AcDb2dVertex
62
5
10
74.375000
20
283.000000
0
VERTEX
5
3dd
100
AcDbEntity
8
1
100
AcDbVertex
100
AcDb2dVertex
62
5
10
72.500000
20
283.000000
0
SEQEND
5
3de
100
AcDbEntity
8
1
0
POLYLINE
5
3df
100
AcDbEntity
8
1
6
CONTINUOUS
62
5
100
AcDb2dPolyline
66
1
10
0.0
20
0.0
30
0.0
70
0
0
VERTEX
5
3e0
100
AcDbEntity
8
1
100
AcDbVertex
100
AcDb2dVertex
62
5
10
77.500000
20
283.000000
0
VERTEX
5
3e1
100
AcDbEntity
8
1
100
AcDbVertex
100
AcDb2dVertex
62
5
10
77.500000
20
290.500000
0
VERTEX
5
3e2
100
AcDbEntity
8
1
100
AcDbVertex
100
AcDb2dVertex
62
5
10
80.625000
20
283.000000
0
VERTEX
5
3e3
100
AcDbEntity
8
1
100
AcDbVertex
100
AcDb2dVertex
62
5
10
80.625000
20
290.500000
0
SEQEND
5
3e4
100
AcDbEntity
8
1
0
POLYLINE
5
3e5
100
AcDbEntity
8
1
6
CONTINUOUS
62
5
100
AcDb2dPolyline
66
1
10
0.0
20
0.0
30
0.0
70
0
0
VERTEX
5
3e6
100
AcDbEntity
8
1
100
AcDbVertex
100
AcDb2dVertex
62
5
10
65.625000
20
288.937500
0
VERTEX
5
3e7
100
AcDbEntity
8
1
100
AcDbVertex
100
AcDb2dVertex
62
5
10
65.312500
20
289.875000
0
VERTEX
5
3e8
100
AcDbEntity
8
1
100
AcDbVertex
100
AcDb2dVertex
62
5
10
64.687500
20
290.500000
0
VERTEX
5
3e9
100
AcDbEntity
8
1
100
AcDbVertex
100
AcDb2dVertex
62
5
10
63.750000
20
290.500000
0
VERTEX
5
3ea
100
AcDbEntity
8
1
100
AcDbVertex
100
AcDb2dVertex
62
5
10
62.812500
20
289.562500
0
VERTEX
5
3eb
100
AcDbEntity
8
1
100
AcDbVertex
100
AcDb2dVertex
62
5
10
62.500000
20
288.000000
0
VERTEX
5
3ec
100
AcDbEntity
8
1
100
AcDbVertex
100
AcDb2dVertex
62
5
10
62.500000
20
285.500000
0
VERTEX
5
3ed
100
AcDbEntity
8
1
100
AcDbVertex
100
AcDb2dVertex
62
5
10
62.812500
20
283.937500
0
VERTEX
5
3ee
100
AcDbEntity
8
1
100
AcDbVertex
100
AcDb2dVertex
62
5
10
63.750000
20
283.000000
0
VERTEX
5
3ef
100
AcDbEntity
8
1
100
AcDbVertex
100
AcDb2dVertex
62
5
10
64.687500
20
283.000000
0
VERTEX
5
3f0
100
AcDbEntity
8
1
100
AcDbVertex
100
AcDb2dVertex
62
5
10
65.312500
20
283.625000
0
VERTEX
5
3f1
100
AcDbEntity
8
1
100
AcDbVertex
100
AcDb2dVertex
62
5
10
65.937500
20
285.187500
0
SEQEND
5
3f2
100
AcDbEntity
8
1
0
POLYLINE
5
3f3
100
AcDbEntity
8
1
6
CONTINUOUS
62
5
100
AcDb2dPolyline
66
1
10
0.0
20
0.0
30
0.0
70
0
0
VERTEX
5
3f4
100
AcDbEntity
8
1
100
AcDbVertex
100
AcDb2dVertex
62
5
10
55.312500
20
290.500000
0
VERTEX
5
3f5
100
AcDbEntity
8
1
100
AcDbVertex
100
AcDb2dVertex
62
5
10
55.312500
20
284.875000
0
VERTEX
5
3f6
100
AcDbEntity
8
1
100
AcDbVertex
100
AcDb2dVertex
62
5
10
55.000000
20
283.625000
0
VERTEX
5
3f7
100
AcDbEntity
8
1
100
AcDbVertex
100
AcDb2dVertex
62
5
10
54.375000
20
283.000000
0
VERTEX
5
3f8
100
AcDbEntity
8
1
100
AcDbVertex
100
AcDb2dVertex
62
5
10
53.437500
20
283.000000
0
VERTEX
5
3f9
100
AcDbEntity
8
1
100
AcDbVertex
100
AcDb2dVertex
62
5
10
52.812500
20
283.625000
0
VERTEX
5
3fa
100
AcDbEntity
8
1
100
AcDbVertex
100
AcDb2dVertex
62
5
10
52.500000
20
284.875000
0
SEQEND
5
3fb
100
AcDbEntity
8
1
0
POLYLINE
5
3fc
100
AcDbEntity
8
1
6
CONTINUOUS
62
5
100
AcDb2dPolyline
66
1
10
0.0
20
0.0
30
0.0
70
0
0
VERTEX
5
3fd
100
AcDbEntity
8
1
100
AcDbVertex
100
AcDb2dVertex
62
5
10
60.625000
20
290.500000
0
VERTEX
5
3fe
100
AcDbEntity
8
1
100
AcDbVertex
100
AcDb2dVertex
62
5
10
57.500000
20
290.500000
0
VERTEX
5
3ff
100
AcDbEntity
8
1
100
AcDbVertex
100
AcDb2dVertex
62
5
10
57.500000
20
283.000000
0
VERTEX
5
400
100
AcDbEntity
8
1
100
AcDbVertex
100
AcDb2dVertex
62
5
10
60.937500
20
283.000000
0
SEQEND
5
401
100
AcDbEntity
8
1
0
LINE
5
402
100
AcDbEntity
8
1
100
AcDbLine
6
CONTINUOUS
62
5
10
57.500000
20
286.750000
11
60.312500
21
286.750000
0
LINE
5
403
100
AcDbEntity
8
1
100
AcDbLine
6
CONTINUOUS
62
5
10
66.500000
20
326.500000
11
68.500000
21
326.500000
0
LINE
5
404
100
AcDbEntity
8
1
100
AcDbLine
6
CONTINUOUS
62
5
10
66.250000
20
322.125000
11
68.500000
21
323.375000
0
LINE
5
405
100
AcDbEntity
8
1
100
AcDbLine
6
CONTINUOUS
62
5
10
67.500000
20
329.000000
11
67.500000
21
322.750000
0
POLYLINE
5
406
100
AcDbEntity
8
1
6
CONTINUOUS
62
5
100
AcDb2dPolyline
66
1
10
0.0
20
0.0
30
0.0
70
1
0
VERTEX
5
407
100
AcDbEntity
8
1
100
AcDbVertex
100
AcDb2dVertex
62
5
10
69.500000
20
328.687500
0
VERTEX
5
408
100
AcDbEntity
8
1
100
AcDbVertex
100
AcDb2dVertex
62
5
10
69.500000
20
325.250000
0
VERTEX
5
409
100
AcDbEntity
8
1
100
AcDbVertex
100
AcDb2dVertex
62
5
10
72.500000
20
325.250000
0
VERTEX
5
40a
100
AcDbEntity
8
1
100
AcDbVertex
100
AcDb2dVertex
62
5
10
72.500000
20
328.687500
0
VERTEX
5
40b
100
AcDbEntity
8
1
100
AcDbVertex
100
AcDb2dVertex
62
5
10
69.500000
20
328.687500
0
SEQEND
5
40c
100
AcDbEntity
8
1
0
LINE
5
40d
100
AcDbEntity
8
1
100
AcDbLine
6
CONTINUOUS
62
5
10
69.500000
20
327.125000
11
72.500000
21
327.125000
0
LINE
5
40e
100
AcDbEntity
8
1
100
AcDbLine
6
CONTINUOUS
62
5
10
71.000000
20
328.687500
11
71.000000
21
321.500000
0
LINE
5
40f
100
AcDbEntity
8
1
100
AcDbLine
6
CONTINUOUS
62
5
10
69.000000
20
323.687500
11
73.000000
21
323.687500
0
LINE
5
410
100
AcDbEntity
8
1
100
AcDbLine
6
CONTINUOUS
62
5
10
68.250000
20
321.500000
11
73.500000
21
321.500000
0
POLYLINE
5
411
100
AcDbEntity
8
1
6
CONTINUOUS
62
5
100
AcDb2dPolyline
66
1
10
0.0
20
0.0
30
0.0
70
0
0
VERTEX
5
412
100
AcDbEntity
8
1
100
AcDbVertex
100
AcDb2dVertex
62
5
10
66.750000
20
316.812500
0
VERTEX
5
413
100
AcDbEntity
8
1
100
AcDbVertex
100
AcDb2dVertex
62
5
10
71.500000
20
316.812500
0
VERTEX
5
414
100
AcDbEntity
8
1
100
AcDbVertex
100
AcDb2dVertex
62
5
10
71.500000
20
315.250000
0
VERTEX
5
415
100
AcDbEntity
8
1
100
AcDbVertex
100
AcDb2dVertex
62
5
10
71.000000
20
313.062500
0
VERTEX
5
416
100
AcDbEntity
8
1
100
AcDbVertex
100
AcDb2dVertex
62
5
10
70.500000
20
312.125000
0
VERTEX
5
417
100
AcDbEntity
8
1
100
AcDbVertex
100
AcDb2dVertex
62
5
10
69.750000
20
312.125000
0
SEQEND
5
418
100
AcDbEntity
8
1
0
POLYLINE
5
419
100
AcDbEntity
8
1
6
CONTINUOUS
62
5
100
AcDb2dPolyline
66
1
10
0.0
20
0.0
30
0.0
70
0
0
VERTEX
5
41a
100
AcDbEntity
8
1
100
AcDbVertex
100
AcDb2dVertex
62
5
10
69.500000
20
318.687500
0
VERTEX
5
41b
100
AcDbEntity
8
1
100
AcDbVertex
100
AcDb2dVertex
62
5
10
69.000000
20
315.875000
0
VERTEX
5
41c
100
AcDbEntity
8
1
100
AcDbVertex
100
AcDb2dVertex
62
5
10
68.750000
20
314.625000
0
VERTEX
5
41d
100
AcDbEntity
8
1
100
AcDbVertex
100
AcDb2dVertex
62
5
10
68.250000
20
313.687500
0
VERTEX
5
41e
100
AcDbEntity
8
1
100
AcDbVertex
100
AcDb2dVertex
62
5
10
67.250000
20
312.437500
0
SEQEND
5
41f
100
AcDbEntity
8
1
0
LINE
5
420
100
AcDbEntity
8
1
100
AcDbLine
6
CONTINUOUS
62
5
10
71.250000
20
318.687500
11
72.000000
21
317.750000
0
LINE
5
421
100
AcDbEntity
8
1
100
AcDbLine
6
CONTINUOUS
62
5
10
72.000000
20
319.312500
11
72.750000
21
318.375000
0
LINE
5
422
100
AcDbEntity
8
1
100
AcDbLine
6
CONTINUOUS
62
5
10
67.500000
20
286.750000
11
70.625000
21
286.750000
0
ARC
5
423
100
AcDbEntity
8
1
100
AcDbCircle
6
CONTINUOUS
62
5
10
130.958176
20
171.700000
40
0.500000
100
AcDbArc
50
89.999999
51
179.999998
0
LINE
5
424
100
AcDbEntity
8
1
100
AcDbLine
6
CONTINUOUS
62
5
10
130.958176
20
172.200000
11
132.258176
21
172.200000
0
LINE
5
425
100
AcDbEntity
8
1
100
AcDbLine
6
CONTINUOUS
62
5
10
130.458176
20
171.600000
11
130.458176
21
171.700000
0
ARC
5
426
100
AcDbEntity
8
1
100
AcDbCircle
6
CONTINUOUS
62
5
10
132.058176
20
170.700000
40
1.500000
100
AcDbArc
50
0.000000
51
89.999999
0
LINE
5
427
100
AcDbEntity
8
1
100
AcDbLine
6
CONTINUOUS
62
5
10
132.058176
20
172.200000
11
130.958176
21
172.200000
0
ARC
5
428
100
AcDbEntity
8
1
100
AcDbCircle
6
CONTINUOUS
62
5
10
130.958176
20
171.700000
40
0.500000
100
AcDbArc
50
89.999999
51
179.999998
0
LINE
5
429
100
AcDbEntity
8
1
100
AcDbLine
6
CONTINUOUS
62
5
10
130.458176
20
171.700000
11
130.458176
21
171.600000
0
ARC
5
42a
100
AcDbEntity
8
1
100
AcDbCircle
6
CONTINUOUS
62
5
10
131.758176
20
166.000000
40
1.000000
100
AcDbArc
50
-36.518132
51
-0.000000
0
LINE
5
42b
100
AcDbEntity
8
1
100
AcDbLine
6
CONTINUOUS
62
5
10
133.558176
20
169.700000
11
133.558176
21
170.700000
0
ARC
5
42c
100
AcDbEntity
8
1
100
AcDbCircle
6
CONTINUOUS
62
5
10
128.558170
20
167.500000
40
0.500000
100
AcDbArc
50
-89.999999
51
-0.000000
0
ARC
5
42d
100
AcDbEntity
8
1
100
AcDbCircle
6
CONTINUOUS
62
5
10
128.558170
20
167.500000
40
0.500000
100
AcDbArc
50
0.000000
51
61.641340
0
POLYLINE
5
42e
100
AcDbEntity
8
1
6
CONTINUOUS
62
5
100
AcDb2dPolyline
66
1
10
0.0
20
0.0
30
0.0
70
0
0
VERTEX
5
42f
100
AcDbEntity
8
1
100
AcDbVertex
100
AcDb2dVertex
62
5
10
128.795665
20
167.939996
0
VERTEX
5
430
100
AcDbEntity
8
1
100
AcDbVertex
100
AcDb2dVertex
62
5
10
127.758170
20
168.500000
0
VERTEX
5
431
100
AcDbEntity
8
1
100
AcDbVertex
100
AcDb2dVertex
62
5
10
127.258170
20
168.500000
0
VERTEX
5
432
100
AcDbEntity
8
1
100
AcDbVertex
100
AcDb2dVertex
62
5
10
126.758170
20
169.000000
0
SEQEND
5
433
100
AcDbEntity
8
1
0
LINE
5
434
100
AcDbEntity
8
1
100
AcDbLine
6
CONTINUOUS
62
5
10
127.758170
20
167.000000
11
128.558170
21
167.000000
0
LINE
5
435
100
AcDbEntity
8
1
100
AcDbLine
6
CONTINUOUS
62
5
10
124.358176
20
169.500000
11
124.388176
21
169.600000
0
ARC
5
436
100
AcDbEntity
8
1
100
AcDbCircle
6
CONTINUOUS
62
5
10
126.858170
20
170.300000
40
0.300000
100
AcDbArc
50
-89.999999
51
-0.000000
0
LINE
5
437
100
AcDbEntity
8
1
100
AcDbLine
6
CONTINUOUS
62
5
10
127.158170
20
170.300000
11
127.158170
21
172.500000
0
LINE
5
438
100
AcDbEntity
8
1
100
AcDbLine
6
CONTINUOUS
62
5
10
126.758176
20
170.000000
11
126.858170
21
170.000000
0
LINE
5
439
100
AcDbEntity
8
1
100
AcDbLine
6
CONTINUOUS
62
5
10
127.158170
20
171.600000
11
126.758176
21
171.600000
0
LINE
5
43a
100
AcDbEntity
8
1
100
AcDbLine
6
CONTINUOUS
62
5
10
131.258176
20
171.600000
11
130.275328
21
171.600000
0
LINE
5
43b
100
AcDbEntity
8
1
100
AcDbLine
6
CONTINUOUS
62
5
10
98.358181
20
171.600000
11
98.758176
21
171.600000
0
LINE
5
43c
100
AcDbEntity
8
1
100
AcDbLine
6
CONTINUOUS
62
5
10
94.258176
20
171.600000
11
95.241024
21
171.600000
0
ARC
5
43d
100
AcDbEntity
8
1
100
AcDbCircle
6
CONTINUOUS
62
5
10
96.958181
20
167.500000
40
0.500000
100
AcDbArc
50
-179.999998
51
-89.999999
0
ARC
5
43e
100
AcDbEntity
8
1
100
AcDbCircle
6
CONTINUOUS
62
5
10
96.958181
20
167.500000
40
0.500000
100
AcDbArc
50
118.358659
51
179.999998
0
POLYLINE
5
43f
100
AcDbEntity
8
1
6
CONTINUOUS
62
5
100
AcDb2dPolyline
66
1
10
0.0
20
0.0
30
0.0
70
0
0
VERTEX
5
440
100
AcDbEntity
8
1
100
AcDbVertex
100
AcDb2dVertex
62
5
10
96.720687
20
167.939996
0
VERTEX
5
441
100
AcDbEntity
8
1
100
AcDbVertex
100
AcDb2dVertex
62
5
10
97.758181
20
168.500000
0
VERTEX
5
442
100
AcDbEntity
8
1
100
AcDbVertex
100
AcDb2dVertex
62
5
10
98.258181
20
168.500000
0
VERTEX
5
443
100
AcDbEntity
8
1
100
AcDbVertex
100
AcDb2dVertex
62
5
10
98.758181
20
169.000000
0
SEQEND
5
444
100
AcDbEntity
8
1
0
LINE
5
445
100
AcDbEntity
8
1
100
AcDbLine
6
CONTINUOUS
62
5
10
97.758181
20
167.000000
11
96.958181
21
167.000000
0
LINE
5
446
100
AcDbEntity
8
1
100
AcDbLine
6
CONTINUOUS
62
5
10
101.158176
20
169.500000
11
101.128176
21
169.600000
0
ARC
5
447
100
AcDbEntity
8
1
100
AcDbCircle
6
CONTINUOUS
62
5
10
98.658181
20
170.300000
40
0.300000
100
AcDbArc
50
-179.999998
51
-89.999999
0
LINE
5
448
100
AcDbEntity
8
1
100
AcDbLine
6
CONTINUOUS
62
5
10
98.358181
20
170.300000
11
98.358181
21
172.500000
0
LINE
5
449
100
AcDbEntity
8
1
100
AcDbLine
6
CONTINUOUS
62
5
10
98.758176
20
170.000000
11
98.658181
21
170.000000
0
ARC
5
44a
100
AcDbEntity
8
1
100
AcDbCircle
6
CONTINUOUS
62
5
10
93.458176
20
170.700000
40
1.500000
100
AcDbArc
50
89.999999
51
179.999998
0
LINE
5
44b
100
AcDbEntity
8
1
100
AcDbLine
6
CONTINUOUS
62
5
10
93.458176
20
172.200000
11
94.558176
21
172.200000
0
ARC
5
44c
100
AcDbEntity
8
1
100
AcDbCircle
6
CONTINUOUS
62
5
10
94.558176
20
171.700000
40
0.500000
100
AcDbArc
50
0.000000
51
89.999999
0
LINE
5
44d
100
AcDbEntity
8
1
100
AcDbLine
6
CONTINUOUS
62
5
10
95.058176
20
171.700000
11
95.058176
21
171.600000
0
ARC
5
44e
100
AcDbEntity
8
1
100
AcDbCircle
6
CONTINUOUS
62
5
10
93.758176
20
166.000000
40
1.000000
100
AcDbArc
50
-179.999998
51
-143.481866
0
LINE
5
44f
100
AcDbEntity
8
1
100
AcDbLine
6
CONTINUOUS
62
5
10
91.958176
20
169.700000
11
91.958176
21
170.700000
0
LINE
5
450
100
AcDbEntity
8
1
100
AcDbLine
6
CONTINUOUS
62
5
10
98.758176
20
173.900000
11
98.758176
21
199.850000
0
LINE
5
451
100
AcDbEntity
8
1
100
AcDbLine
6
CONTINUOUS
62
5
10
126.758176
20
173.900000
11
126.758176
21
199.850000
0
POLYLINE
5
452
100
AcDbEntity
8
1
6
CONTINUOUS
62
5
100
AcDb2dPolyline
66
1
10
0.0
20
0.0
30
0.0
70
0
0
VERTEX
5
453
100
AcDbEntity
8
1
100
AcDbVertex
100
AcDb2dVertex
62
5
10
112.758176
20
197.850000
0
VERTEX
5
454
100
AcDbEntity
8
1
100
AcDbVertex
100
AcDb2dVertex
62
5
10
98.758176
20
197.850000
0
VERTEX
5
455
100
AcDbEntity
8
1
100
AcDbVertex
100
AcDb2dVertex
62
5
10
104.758176
20
198.850000
0
VERTEX
5
456
100
AcDbEntity
8
1
100
AcDbVertex
100
AcDb2dVertex
62
5
10
104.758176
20
196.850000
0
VERTEX
5
457
100
AcDbEntity
8
1
100
AcDbVertex
100
AcDb2dVertex
62
5
10
98.758176
20
197.850000
0
VERTEX
5
458
100
AcDbEntity
8
1
100
AcDbVertex
100
AcDb2dVertex
62
5
10
104.758176
20
198.350000
0
VERTEX
5
459
100
AcDbEntity
8
1
100
AcDbVertex
100
AcDb2dVertex
62
5
10
104.758176
20
197.350000
0
VERTEX
5
45a
100
AcDbEntity
8
1
100
AcDbVertex
100
AcDb2dVertex
62
5
10
98.758176
20
197.850000
0
SEQEND
5
45b
100
AcDbEntity
8
1
0
POLYLINE
5
45c
100
AcDbEntity
8
1
6
CONTINUOUS
62
5
100
AcDb2dPolyline
66
1
10
0.0
20
0.0
30
0.0
70
0
0
VERTEX
5
45d
100
AcDbEntity
8
1
100
AcDbVertex
100
AcDb2dVertex
62
5
10
112.758176
20
197.850000
0
VERTEX
5
45e
100
AcDbEntity
8
1
100
AcDbVertex
100
AcDb2dVertex
62
5
10
126.758176
20
197.850000
0
VERTEX
5
45f
100
AcDbEntity
8
1
100
AcDbVertex
100
AcDb2dVertex
62
5
10
120.758176
20
196.850000
0
VERTEX
5
460
100
AcDbEntity
8
1
100
AcDbVertex
100
AcDb2dVertex
62
5
10
120.758176
20
198.850000
0
VERTEX
5
461
100
AcDbEntity
8
1
100
AcDbVertex
100
AcDb2dVertex
62
5
10
126.758176
20
197.850000
0
VERTEX
5
462
100
AcDbEntity
8
1
100
AcDbVertex
100
AcDb2dVertex
62
5
10
120.758176
20
197.350000
0
VERTEX
5
463
100
AcDbEntity
8
1
100
AcDbVertex
100
AcDb2dVertex
62
5
10
120.758176
20
198.350000
0
VERTEX
5
464
100
AcDbEntity
8
1
100
AcDbVertex
100
AcDb2dVertex
62
5
10
126.758176
20
197.850000
0
SEQEND
5
465
100
AcDbEntity
8
1
0
POLYLINE
5
466
100
AcDbEntity
8
1
6
DOT2
62
5
100
AcDb2dPolyline
66
1
10
0.0
20
0.0
30
0.0
70
0
0
VERTEX
5
467
100
AcDbEntity
8
1
100
AcDbVertex
100
AcDb2dVertex
62
5
10
109.008176
20
204.412500
0
VERTEX
5
468
100
AcDbEntity
8
1
100
AcDbVertex
100
AcDb2dVertex
62
5
10
109.320676
20
205.975000
0
VERTEX
5
469
100
AcDbEntity
8
1
100
AcDbVertex
100
AcDb2dVertex
62
5
10
110.258176
20
206.600000
0
VERTEX
5
46a
100
AcDbEntity
8
1
100
AcDbVertex
100
AcDb2dVertex
62
5
10
111.195676
20
206.600000
0
VERTEX
5
46b
100
AcDbEntity
8
1
100
AcDbVertex
100
AcDb2dVertex
62
5
10
111.820676
20
206.287500
0
VERTEX
5
46c
100
AcDbEntity
8
1
100
AcDbVertex
100
AcDb2dVertex
62
5
10
112.133176
20
205.350000
0
VERTEX
5
46d
100
AcDbEntity
8
1
100
AcDbVertex
100
AcDb2dVertex
62
5
10
112.133176
20
204.412500
0
VERTEX
5
46e
100
AcDbEntity
8
1
100
AcDbVertex
100
AcDb2dVertex
62
5
10
111.820676
20
203.475000
0
VERTEX
5
46f
100
AcDbEntity
8
1
100
AcDbVertex
100
AcDb2dVertex
62
5
10
109.008176
20
199.100000
0
VERTEX
5
470
100
AcDbEntity
8
1
100
AcDbVertex
100
AcDb2dVertex
62
5
10
112.133176
20
199.100000
0
VERTEX
5
471
100
AcDbEntity
8
1
100
AcDbVertex
100
AcDb2dVertex
62
5
10
112.133176
20
200.037500
0
SEQEND
5
472
100
AcDbEntity
8
1
0
POLYLINE
5
473
100
AcDbEntity
8
1
6
DOT2
62
5
100
AcDb2dPolyline
66
1
10
0.0
20
0.0
30
0.0
70
1
0
VERTEX
5
474
100
AcDbEntity
8
1
100
AcDbVertex
100
AcDb2dVertex
62
5
10
115.258176
20
206.600000
0
VERTEX
5
475
100
AcDbEntity
8
1
100
AcDbVertex
100
AcDb2dVertex
62
5
10
115.883176
20
206.600000
0
VERTEX
5
476
100
AcDbEntity
8
1
100
AcDbVertex
100
AcDb2dVertex
62
5
10
116.508176
20
206.287500
0
VERTEX
5
477
100
AcDbEntity
8
1
100
AcDbVertex
100
AcDb2dVertex
62
5
10
116.820676
20
205.662500
0
VERTEX
5
478
100
AcDbEntity
8
1
100
AcDbVertex
100
AcDb2dVertex
62
5
10
116.820676
20
204.412500
0
VERTEX
5
479
100
AcDbEntity
8
1
100
AcDbVertex
100
AcDb2dVertex
62
5
10
116.508176
20
203.787500
0
VERTEX
5
47a
100
AcDbEntity
8
1
100
AcDbVertex
100
AcDb2dVertex
62
5
10
114.633176
20
202.537500
0
VERTEX
5
47b
100
AcDbEntity
8
1
100
AcDbVertex
100
AcDb2dVertex
62
5
10
114.008176
20
201.600000
0
VERTEX
5
47c
100
AcDbEntity
8
1
100
AcDbVertex
100
AcDb2dVertex
62
5
10
114.008176
20
200.350000
0
VERTEX
5
47d
100
AcDbEntity
8
1
100
AcDbVertex
100
AcDb2dVertex
62
5
10
114.320676
20
199.725000
0
VERTEX
5
47e
100
AcDbEntity
8
1
100
AcDbVertex
100
AcDb2dVertex
62
5
10
114.633176
20
199.412500
0
VERTEX
5
47f
100
AcDbEntity
8
1
100
AcDbVertex
100
AcDb2dVertex
62
5
10
115.258176
20
199.100000
0
VERTEX
5
480
100
AcDbEntity
8
1
100
AcDbVertex
100
AcDb2dVertex
62
5
10
115.883176
20
199.100000
0
VERTEX
5
481
100
AcDbEntity
8
1
100
AcDbVertex
100
AcDb2dVertex
62
5
10
116.508176
20
199.412500
0
VERTEX
5
482
100
AcDbEntity
8
1
100
AcDbVertex
100
AcDb2dVertex
62
5
10
116.820676
20
199.725000
0
VERTEX
5
483
100
AcDbEntity
8
1
100
AcDbVertex
100
AcDb2dVertex
62
5
10
117.133176
20
200.350000
0
VERTEX
5
484
100
AcDbEntity
8
1
100
AcDbVertex
100
AcDb2dVertex
62
5
10
117.133176
20
201.600000
0
VERTEX
5
485
100
AcDbEntity
8
1
100
AcDbVertex
100
AcDb2dVertex
62
5
10
116.508176
20
202.537500
0
VERTEX
5
486
100
AcDbEntity
8
1
100
AcDbVertex
100
AcDb2dVertex
62
5
10
114.633176
20
203.787500
0
VERTEX
5
487
100
AcDbEntity
8
1
100
AcDbVertex
100
AcDb2dVertex
62
5
10
114.320676
20
204.412500
0
VERTEX
5
488
100
AcDbEntity
8
1
100
AcDbVertex
100
AcDb2dVertex
62
5
10
114.320676
20
205.662500
0
VERTEX
5
489
100
AcDbEntity
8
1
100
AcDbVertex
100
AcDb2dVertex
62
5
10
114.633176
20
206.287500
0
VERTEX
5
48a
100
AcDbEntity
8
1
100
AcDbVertex
100
AcDb2dVertex
62
5
10
115.258176
20
206.600000
0
SEQEND
5
48b
100
AcDbEntity
8
1
0
LINE
5
48c
100
AcDbEntity
8
1
100
AcDbLine
6
CONTINUOUS
62
5
10
148.000000
20
327.437500
11
151.750000
21
328.062500
0
LINE
5
48d
100
AcDbEntity
8
1
100
AcDbLine
6
CONTINUOUS
62
5
10
146.750000
20
325.562500
11
152.750000
21
325.562500
0
POLYLINE
5
48e
100
AcDbEntity
8
1
6
CONTINUOUS
62
5
100
AcDb2dPolyline
66
1
10
0.0
20
0.0
30
0.0
70
0
0
VERTEX
5
48f
100
AcDbEntity
8
1
100
AcDbVertex
100
AcDb2dVertex
62
5
10
150.000000
20
327.750000
0
VERTEX
5
490
100
AcDbEntity
8
1
100
AcDbVertex
100
AcDb2dVertex
62
5
10
150.000000
20
325.562500
0
VERTEX
5
491
100
AcDbEntity
8
1
100
AcDbVertex
100
AcDb2dVertex
62
5
10
149.750000
20
324.000000
0
VERTEX
5
492
100
AcDbEntity
8
1
100
AcDbVertex
100
AcDb2dVertex
62
5
10
149.000000
20
322.750000
0
VERTEX
5
493
100
AcDbEntity
8
1
100
AcDbVertex
100
AcDb2dVertex
62
5
10
148.250000
20
321.812500
0
SEQEND
5
494
100
AcDbEntity
8
1
0
POLYLINE
5
495
100
AcDbEntity
8
1
6
CONTINUOUS
62
5
100
AcDb2dPolyline
66
1
10
0.0
20
0.0
30
0.0
70
0
0
VERTEX
5
496
100
AcDbEntity
8
1
100
AcDbVertex
100
AcDb2dVertex
62
5
10
146.750000
20
316.812500
0
VERTEX
5
497
100
AcDbEntity
8
1
100
AcDbVertex
100
AcDb2dVertex
62
5
10
151.750000
20
317.125000
0
VERTEX
5
498
100
AcDbEntity
8
1
100
AcDbVertex
100
AcDb2dVertex
62
5
10
152.250000
20
316.500000
0
VERTEX
5
499
100
AcDbEntity
8
1
100
AcDbVertex
100
AcDb2dVertex
62
5
10
151.000000
20
314.937500
0
VERTEX
5
49a
100
AcDbEntity
8
1
100
AcDbVertex
100
AcDb2dVertex
62
5
10
149.750000
20
313.375000
0
SEQEND
5
49b
100
AcDbEntity
8
1
0
POLYLINE
5
49c
100
AcDbEntity
8
1
6
CONTINUOUS
62
5
100
AcDb2dPolyline
66
1
10
0.0
20
0.0
30
0.0
70
0
0
VERTEX
5
49d
100
AcDbEntity
8
1
100
AcDbVertex
100
AcDb2dVertex
62
5
10
148.500000
20
314.625000
0
VERTEX
5
49e
100
AcDbEntity
8
1
100
AcDbVertex
100
AcDb2dVertex
62
5
10
149.750000
20
313.375000
0
VERTEX
5
49f
100
AcDbEntity
8
1
100
AcDbVertex
100
AcDb2dVertex
62
5
10
150.250000
20
312.437500
0
SEQEND
5
4a0
100
AcDbEntity
8
1
0
ARC
5
4a1
100
AcDbEntity
8
1
100
AcDbCircle
6
CONTINUOUS
62
5
10
202.441819
20
156.000000
40
0.500000
100
AcDbArc
50
89.999999
51
179.999998
0
LINE
5
4a2
100
AcDbEntity
8
1
100
AcDbLine
6
CONTINUOUS
62
5
10
205.941819
20
156.500000
11
202.441819
21
156.500000
0
LINE
5
4a3
100
AcDbEntity
8
1
100
AcDbLine
6
CONTINUOUS
62
5
10
201.141819
20
151.250000
11
201.941819
21
151.250000
0
ARC
5
4a4
100
AcDbEntity
8
1
100
AcDbCircle
6
CONTINUOUS
62
5
10
202.441819
20
151.500000
40
0.500000
100
AcDbArc
50
-179.999998
51
-89.999999
0
POLYLINE
5
4a5
100
AcDbEntity
8
1
6
CONTINUOUS
62
5
100
AcDb2dPolyline
66
1
10
0.0
20
0.0
30
0.0
70
0
0
VERTEX
5
4a6
100
AcDbEntity
8
1
100
AcDbVertex
100
AcDb2dVertex
62
5
10
205.641819
20
151.500000
0
VERTEX
5
4a7
100
AcDbEntity
8
1
100
AcDbVertex
100
AcDb2dVertex
62
5
10
205.441819
20
151.000000
0
VERTEX
5
4a8
100
AcDbEntity
8
1
100
AcDbVertex
100
AcDb2dVertex
62
5
10
202.441819
20
151.000000
0
SEQEND
5
4a9
100
AcDbEntity
8
1
0
ARC
5
4aa
100
AcDbEntity
8
1
100
AcDbCircle
6
CONTINUOUS
62
5
10
202.441819
20
144.005013
40
0.500000
100
AcDbArc
50
179.999998
51
-89.999999
0
LINE
5
4ab
100
AcDbEntity
8
1
100
AcDbLine
6
CONTINUOUS
62
5
10
205.941819
20
143.505013
11
202.441819
21
143.505013
0
LINE
5
4ac
100
AcDbEntity
8
1
100
AcDbLine
6
CONTINUOUS
62
5
10
205.441819
20
149.000000
11
205.441819
21
151.000000
0
LINE
5
4ad
100
AcDbEntity
8
1
100
AcDbLine
6
CONTINUOUS
62
5
10
201.141819
20
148.750000
11
201.941819
21
148.750000
0
LINE
5
4ae
100
AcDbEntity
8
1
100
AcDbLine
6
CONTINUOUS
62
5
10
202.541819
20
149.000000
11
202.541819
21
151.000000
0
ARC
5
4af
100
AcDbEntity
8
1
100
AcDbCircle
6
CONTINUOUS
62
5
10
202.441819
20
148.500000
40
0.500000
100
AcDbArc
50
89.999999
51
-179.999998
0
POLYLINE
5
4b0
100
AcDbEntity
8
1
6
CONTINUOUS
62
5
100
AcDb2dPolyline
66
1
10
0.0
20
0.0
30
0.0
70
0
0
VERTEX
5
4b1
100
AcDbEntity
8
1
100
AcDbVertex
100
AcDb2dVertex
62
5
10
205.641819
20
148.500000
0
VERTEX
5
4b2
100
AcDbEntity
8
1
100
AcDbVertex
100
AcDb2dVertex
62
5
10
205.441819
20
149.000000
0
VERTEX
5
4b3
100
AcDbEntity
8
1
100
AcDbVertex
100
AcDb2dVertex
62
5
10
202.441819
20
149.000000
0
SEQEND
5
4b4
100
AcDbEntity
8
1
0
POLYLINE
5
4b5
100
AcDbEntity
8
1
6
CONTINUOUS
62
5
100
AcDb2dPolyline
66
1
10
0.0
20
0.0
30
0.0
70
1
0
VERTEX
5
4b6
100
AcDbEntity
8
1
100
AcDbVertex
100
AcDb2dVertex
62
5
10
192.281189
20
159.000000
0
VERTEX
5
4b7
100
AcDbEntity
8
1
100
AcDbVertex
100
AcDb2dVertex
62
5
10
192.281189
20
159.000000
0
VERTEX
5
4b8
100
AcDbEntity
8
1
100
AcDbVertex
100
AcDb2dVertex
62
5
10
192.281189
20
159.000000
0
SEQEND
5
4b9
100
AcDbEntity
8
1
0
ARC
5
4ba
100
AcDbEntity
8
1
100
AcDbCircle
6
CONTINUOUS
62
5
10
198.641819
20
144.300000
40
0.700000
100
AcDbArc
50
89.999999
51
179.999998
0
LINE
5
4bb
100
AcDbEntity
8
1
100
AcDbLine
6
CONTINUOUS
62
5
10
197.941819
20
144.300000
11
197.941820
21
142.500002
0
LINE
5
4bc
100
AcDbEntity
8
1
100
AcDbLine
6
CONTINUOUS
62
5
10
201.141819
20
145.000000
11
198.641819
21
145.000000
0
ARC
5
4bd
100
AcDbEntity
8
1
100
AcDbCircle
6
CONTINUOUS
62
5
10
198.641819
20
155.700000
40
0.700000
100
AcDbArc
50
-179.999998
51
-89.999999
0
LINE
5
4be
100
AcDbEntity
8
1
100
AcDbLine
6
CONTINUOUS
62
5
10
198.641819
20
155.000000
11
201.141819
21
155.000000
0
LINE
5
4bf
100
AcDbEntity
8
1
100
AcDbLine
6
CONTINUOUS
62
5
10
197.941820
20
157.499998
11
197.941819
21
155.700000
0
LINE
5
4c0
100
AcDbEntity
8
1
100
AcDbLine
6
CONTINUOUS
62
5
10
201.141819
20
133.200004
11
201.941819
21
133.200004
0
LINE
5
4c1
100
AcDbEntity
8
1
100
AcDbLine
6
CONTINUOUS
62
5
10
201.141819
20
128.600005
11
201.941819
21
128.600005
0
LINE
5
4c2
100
AcDbEntity
8
1
100
AcDbLine
6
CONTINUOUS
62
5
10
201.141819
20
130.300005
11
201.941819
21
130.300005
0
LINE
5
4c3
100
AcDbEntity
8
1
100
AcDbLine
6
CONTINUOUS
62
5
10
201.741819
20
130.300005
11
201.741819
21
133.200004
0
ARC
5
4c4
100
AcDbEntity
8
1
100
AcDbCircle
6
CONTINUOUS
62
5
10
202.441819
20
133.000000
40
0.500000
100
AcDbArc
50
89.999999
51
179.999998
0
LINE
5
4c5
100
AcDbEntity
8
1
100
AcDbLine
6
CONTINUOUS
62
5
10
205.941819
20
133.500000
11
202.441819
21
133.500000
0
ARC
5
4c6
100
AcDbEntity
8
1
100
AcDbCircle
6
CONTINUOUS
62
5
10
198.641819
20
132.700000
40
0.700000
100
AcDbArc
50
179.999998
51
-89.999999
0
LINE
5
4c7
100
AcDbEntity
8
1
100
AcDbLine
6
CONTINUOUS
62
5
10
198.641819
20
132.000000
11
201.141819
21
132.000000
0
LINE
5
4c8
100
AcDbEntity
8
1
100
AcDbLine
6
CONTINUOUS
62
5
10
197.941820
20
134.500004
11
197.941819
21
132.700000
0
POLYLINE
5
4c9
100
AcDbEntity
8
1
6
CONTINUOUS
62
5
100
AcDb2dPolyline
66
1
10
0.0
20
0.0
30
0.0
70
0
0
VERTEX
5
4ca
100
AcDbEntity
8
1
100
AcDbVertex
100
AcDb2dVertex
62
5
10
209.684698
20
128.616278
0
VERTEX
5
4cb
100
AcDbEntity
8
1
100
AcDbVertex
100
AcDb2dVertex
62
5
10
211.978336
20
128.792303
0
VERTEX
5
4cc
100
AcDbEntity
8
1
100
AcDbVertex
100
AcDb2dVertex
62
5
10
212.000610
20
127.994692
0
VERTEX
5
4cd
100
AcDbEntity
8
1
100
AcDbVertex
100
AcDb2dVertex
62
5
10
209.911578
20
127.832803
0
SEQEND
5
4ce
100
AcDbEntity
8
1
0
ARC
5
4cf
100
AcDbEntity
8
1
100
AcDbCircle
6
CONTINUOUS
62
5
10
209.741819
20
127.332486
40
0.200000
100
AcDbArc
50
-89.510304
51
12.004540
0
LINE
5
4d0
100
AcDbEntity
8
1
100
AcDbLine
6
CONTINUOUS
62
5
10
209.641819
20
128.764354
11
209.641819
21
128.764354
0
LINE
5
4d1
100
AcDbEntity
8
1
100
AcDbLine
6
CONTINUOUS
62
5
10
209.895387
20
127.571872
11
209.937445
21
127.374084
0
ARC
5
4d2
100
AcDbEntity
8
1
100
AcDbCircle
6
CONTINUOUS
62
5
10
202.441819
20
134.500000
40
0.500000
100
AcDbArc
50
89.999999
51
-179.999998
0
POLYLINE
5
4d3
100
AcDbEntity
8
1
6
CONTINUOUS
62
5
100
AcDb2dPolyline
66
1
10
0.0
20
0.0
30
0.0
70
0
0
VERTEX
5
4d4
100
AcDbEntity
8
1
100
AcDbVertex
100
AcDb2dVertex
62
5
10
202.441819
20
135.000000
0
VERTEX
5
4d5
100
AcDbEntity
8
1
100
AcDbVertex
100
AcDb2dVertex
62
5
10
202.541819
20
135.000000
0
VERTEX
5
4d6
100
AcDbEntity
8
1
100
AcDbVertex
100
AcDb2dVertex
62
5
10
202.541819
20
143.505013
0
SEQEND
5
4d7
100
AcDbEntity
8
1
0
LINE
5
4d8
100
AcDbEntity
8
1
100
AcDbLine
6
CONTINUOUS
62
5
10
227.341819
20
151.200000
11
227.341819
21
136.000000
0
ARC
5
4d9
100
AcDbEntity
8
1
100
AcDbCircle
6
CONTINUOUS
62
5
10
228.341819
20
152.200000
40
1.000000
100
AcDbArc
50
-89.999999
51
0.000000
0
POLYLINE
5
4da
100
AcDbEntity
8
1
6
CONTINUOUS
62
5
100
AcDb2dPolyline
66
1
10
0.0
20
0.0
30
0.0
70
0
0
VERTEX
5
4db
100
AcDbEntity
8
1
100
AcDbVertex
100
AcDb2dVertex
62
5
10
228.341819
20
151.200000
0
VERTEX
5
4dc
100
AcDbEntity
8
1
100
AcDbVertex
100
AcDb2dVertex
62
5
10
227.341819
20
151.200000
0
VERTEX
5
4dd
100
AcDbEntity
8
1
100
AcDbVertex
100
AcDb2dVertex
62
5
10
215.641819
20
151.000000
0
SEQEND
5
4de
100
AcDbEntity
8
1
0
ARC
5
4df
100
AcDbEntity
8
1
100
AcDbCircle
6
CONTINUOUS
62
5
10
215.641819
20
150.000000
40
1.000000
100
AcDbArc
50
89.999999
51
179.999998
0
LINE
5
4e0
100
AcDbEntity
8
1
100
AcDbLine
6
CONTINUOUS
62
5
10
214.641819
20
150.000000
11
214.641819
21
137.200000
0
ARC
5
4e1
100
AcDbEntity
8
1
100
AcDbCircle
6
CONTINUOUS
62
5
10
215.641819
20
137.200000
40
1.000000
100
AcDbArc
50
179.999998
51
-89.999999
0
LINE
5
4e2
100
AcDbEntity
8
1
100
AcDbLine
6
CONTINUOUS
62
5
10
215.641819
20
136.200000
11
228.341819
21
136.000000
0
ARC
5
4e3
100
AcDbEntity
8
1
100
AcDbCircle
6
CONTINUOUS
62
5
10
228.341819
20
135.000000
40
1.000000
100
AcDbArc
50
0.000000
51
89.999999
0
ARC
5
4e4
100
AcDbEntity
8
1
100
AcDbCircle
6
CONTINUOUS
62
5
10
199.841819
20
141.850002
40
0.300000
100
AcDbArc
50
89.999999
51
179.999998
0
LINE
5
4e5
100
AcDbEntity
8
1
100
AcDbLine
6
CONTINUOUS
62
5
10
199.541819
20
141.850002
11
199.541819
21
135.150004
0
ARC
5
4e6
100
AcDbEntity
8
1
100
AcDbCircle
6
CONTINUOUS
62
5
10
199.841819
20
135.150004
40
0.300000
100
AcDbArc
50
179.999998
51
-89.999999
0
LINE
5
4e7
100
AcDbEntity
8
1
100
AcDbLine
6
CONTINUOUS
62
5
10
199.841819
20
134.850004
11
201.141819
21
134.850004
0
LINE
5
4e8
100
AcDbEntity
8
1
100
AcDbLine
6
CONTINUOUS
62
5
10
201.141819
20
133.000004
11
199.441819
21
133.000004
0
ARC
5
4e9
100
AcDbEntity
8
1
100
AcDbCircle
6
CONTINUOUS
62
5
10
199.441819
20
134.500004
40
1.500000
100
AcDbArc
50
179.999998
51
-89.999999
0
LINE
5
4ea
100
AcDbEntity
8
1
100
AcDbLine
6
CONTINUOUS
62
5
10
197.941820
20
134.500004
11
197.941820
21
142.500002
0
ARC
5
4eb
100
AcDbEntity
8
1
100
AcDbCircle
6
CONTINUOUS
62
5
10
199.441819
20
142.500002
40
1.500000
100
AcDbArc
50
89.999999
51
179.999998
0
LINE
5
4ec
100
AcDbEntity
8
1
100
AcDbLine
6
CONTINUOUS
62
5
10
199.441819
20
144.000002
11
201.141819
21
144.000002
0
LINE
5
4ed
100
AcDbEntity
8
1
100
AcDbLine
6
CONTINUOUS
62
5
10
201.141819
20
142.150002
11
199.841819
21
142.150002
0
POLYLINE
5
4ee
100
AcDbEntity
8
1
6
CONTINUOUS
62
5
100
AcDb2dPolyline
66
1
10
0.0
20
0.0
30
0.0
70
0
0
VERTEX
5
4ef
100
AcDbEntity
8
1
100
AcDbVertex
100
AcDb2dVertex
62
5
10
245.625000
20
28.187500
0
VERTEX
5
4f0
100
AcDbEntity
8
1
100
AcDbVertex
100
AcDb2dVertex
62
5
10
245.312500
20
29.125000
0
VERTEX
5
4f1
100
AcDbEntity
8
1
100
AcDbVertex
100
AcDb2dVertex
62
5
10
244.687500
20
29.750000
0
VERTEX
5
4f2
100
AcDbEntity
8
1
100
AcDbVertex
100
AcDb2dVertex
62
5
10
243.750000
20
29.750000
0
VERTEX
5
4f3
100
AcDbEntity
8
1
100
AcDbVertex
100
AcDb2dVertex
62
5
10
242.812500
20
28.812500
0
VERTEX
5
4f4
100
AcDbEntity
8
1
100
AcDbVertex
100
AcDb2dVertex
62
5
10
242.500000
20
27.250000
0
VERTEX
5
4f5
100
AcDbEntity
8
1
100
AcDbVertex
100
AcDb2dVertex
62
5
10
242.500000
20
24.750000
0
VERTEX
5
4f6
100
AcDbEntity
8
1
100
AcDbVertex
100
AcDb2dVertex
62
5
10
242.812500
20
23.187500
0
VERTEX
5
4f7
100
AcDbEntity
8
1
100
AcDbVertex
100
AcDb2dVertex
62
5
10
243.750000
20
22.250000
0
VERTEX
5
4f8
100
AcDbEntity
8
1
100
AcDbVertex
100
AcDb2dVertex
62
5
10
244.687500
20
22.250000
0
VERTEX
5
4f9
100
AcDbEntity
8
1
100
AcDbVertex
100
AcDb2dVertex
62
5
10
245.312500
20
22.875000
0
VERTEX
5
4fa
100
AcDbEntity
8
1
100
AcDbVertex
100
AcDb2dVertex
62
5
10
245.937500
20
24.437500
0
SEQEND
5
4fb
100
AcDbEntity
8
1
0
POLYLINE
5
4fc
100
AcDbEntity
8
1
6
CONTINUOUS
62
5
100
AcDb2dPolyline
66
1
10
0.0
20
0.0
30
0.0
70
0
0
VERTEX
5
4fd
100
AcDbEntity
8
1
100
AcDbVertex
100
AcDb2dVertex
62
5
10
237.500000
20
22.250000
0
VERTEX
5
4fe
100
AcDbEntity
8
1
100
AcDbVertex
100
AcDb2dVertex
62
5
10
239.062500
20
29.750000
0
VERTEX
5
4ff
100
AcDbEntity
8
1
100
AcDbVertex
100
AcDb2dVertex
62
5
10
240.625000
20
22.250000
0
SEQEND
5
500
100
AcDbEntity
8
1
0
LINE
5
501
100
AcDbEntity
8
1
100
AcDbLine
6
CONTINUOUS
62
5
10
238.125000
20
24.750000
11
240.000000
21
24.750000
0
POLYLINE
5
502
100
AcDbEntity
8
1
6
CONTINUOUS
62
5
100
AcDb2dPolyline
66
1
10
0.0
20
0.0
30
0.0
70
0
0
VERTEX
5
503
100
AcDbEntity
8
1
100
AcDbVertex
100
AcDb2dVertex
62
5
10
192.500000
20
41.750000
0
VERTEX
5
504
100
AcDbEntity
8
1
100
AcDbVertex
100
AcDb2dVertex
62
5
10
194.062500
20
34.250000
0
VERTEX
5
505
100
AcDbEntity
8
1
100
AcDbVertex
100
AcDb2dVertex
62
5
10
195.625000
20
41.750000
0
SEQEND
5
506
100
AcDbEntity
8
1
0
POLYLINE
5
507
100
AcDbEntity
8
1
6
CONTINUOUS
62
5
100
AcDb2dPolyline
66
1
10
0.0
20
0.0
30
0.0
70
0
0
VERTEX
5
508
100
AcDbEntity
8
1
100
AcDbVertex
100
AcDb2dVertex
62
5
10
202.500000
20
34.250000
0
VERTEX
5
509
100
AcDbEntity
8
1
100
AcDbVertex
100
AcDb2dVertex
62
5
10
204.062500
20
41.750000
0
VERTEX
5
50a
100
AcDbEntity
8
1
100
AcDbVertex
100
AcDb2dVertex
62
5
10
205.625000
20
34.250000
0
SEQEND
5
50b
100
AcDbEntity
8
1
0
LINE
5
50c
100
AcDbEntity
8
1
100
AcDbLine
6
CONTINUOUS
62
5
10
203.125000
20
36.750000
11
205.000000
21
36.750000
0
POLYLINE
5
50d
100
AcDbEntity
8
1
6
CONTINUOUS
62
5
100
AcDb2dPolyline
66
1
10
0.0
20
0.0
30
0.0
70
0
0
VERTEX
5
50e
100
AcDbEntity
8
1
100
AcDbVertex
100
AcDb2dVertex
62
5
10
210.625000
20
40.187500
0
VERTEX
5
50f
100
AcDbEntity
8
1
100
AcDbVertex
100
AcDb2dVertex
62
5
10
210.312500
20
41.125000
0
VERTEX
5
510
100
AcDbEntity
8
1
100
AcDbVertex
100
AcDb2dVertex
62
5
10
209.687500
20
41.750000
0
VERTEX
5
511
100
AcDbEntity
8
1
100
AcDbVertex
100
AcDb2dVertex
62
5
10
208.750000
20
41.750000
0
VERTEX
5
512
100
AcDbEntity
8
1
100
AcDbVertex
100
AcDb2dVertex
62
5
10
207.812500
20
40.812500
0
VERTEX
5
513
100
AcDbEntity
8
1
100
AcDbVertex
100
AcDb2dVertex
62
5
10
207.500000
20
39.250000
0
VERTEX
5
514
100
AcDbEntity
8
1
100
AcDbVertex
100
AcDb2dVertex
62
5
10
207.500000
20
36.750000
0
VERTEX
5
515
100
AcDbEntity
8
1
100
AcDbVertex
100
AcDb2dVertex
62
5
10
207.812500
20
35.187500
0
VERTEX
5
516
100
AcDbEntity
8
1
100
AcDbVertex
100
AcDb2dVertex
62
5
10
208.750000
20
34.250000
0
VERTEX
5
517
100
AcDbEntity
8
1
100
AcDbVertex
100
AcDb2dVertex
62
5
10
209.687500
20
34.250000
0
VERTEX
5
518
100
AcDbEntity
8
1
100
AcDbVertex
100
AcDb2dVertex
62
5
10
210.312500
20
34.875000
0
VERTEX
5
519
100
AcDbEntity
8
1
100
AcDbVertex
100
AcDb2dVertex
62
5
10
210.937500
20
36.437500
0
SEQEND
5
51a
100
AcDbEntity
8
1
0
LINE
5
51b
100
AcDbEntity
8
1
100
AcDbLine
6
CONTINUOUS
62
5
10
172.500000
20
38.000000
11
175.625000
21
38.000000
0
POLYLINE
5
51c
100
AcDbEntity
8
1
6
CONTINUOUS
62
5
100
AcDb2dPolyline
66
1
10
0.0
20
0.0
30
0.0
70
0
0
VERTEX
5
51d
100
AcDbEntity
8
1
100
AcDbVertex
100
AcDb2dVertex
62
5
10
178.125000
20
41.125000
0
VERTEX
5
51e
100
AcDbEntity
8
1
100
AcDbVertex
100
AcDb2dVertex
62
5
10
179.062500
20
41.750000
0
VERTEX
5
51f
100
AcDbEntity
8
1
100
AcDbVertex
100
AcDb2dVertex
62
5
10
179.062500
20
34.250000
0
SEQEND
5
520
100
AcDbEntity
8
1
0
LINE
5
521
100
AcDbEntity
8
1
100
AcDbLine
6
CONTINUOUS
62
5
10
178.437500
20
34.250000
11
179.687500
21
34.250000
0
POLYLINE
5
522
100
AcDbEntity
8
1
6
CONTINUOUS
62
5
100
AcDb2dPolyline
66
1
10
0.0
20
0.0
30
0.0
70
1
0
VERTEX
5
523
100
AcDbEntity
8
1
100
AcDbVertex
100
AcDb2dVertex
62
5
10
183.750000
20
41.750000
0
VERTEX
5
524
100
AcDbEntity
8
1
100
AcDbVertex
100
AcDb2dVertex
62
5
10
184.375000
20
41.750000
0
VERTEX
5
525
100
AcDbEntity
8
1
100
AcDbVertex
100
AcDb2dVertex
62
5
10
184.687500
20
41.437500
0
VERTEX
5
526
100
AcDbEntity
8
1
100
AcDbVertex
100
AcDb2dVertex
62
5
10
185.312500
20
40.187500
0
VERTEX
5
527
100
AcDbEntity
8
1
100
AcDbVertex
100
AcDb2dVertex
62
5
10
185.625000
20
38.937500
0
VERTEX
5
528
100
AcDbEntity
8
1
100
AcDbVertex
100
AcDb2dVertex
62
5
10
185.625000
20
37.062500
0
VERTEX
5
529
100
AcDbEntity
8
1
100
AcDbVertex
100
AcDb2dVertex
62
5
10
185.312500
20
35.812500
0
VERTEX
5
52a
100
AcDbEntity
8
1
100
AcDbVertex
100
AcDb2dVertex
62
5
10
184.687500
20
34.562500
0
VERTEX
5
52b
100
AcDbEntity
8
1
100
AcDbVertex
100
AcDb2dVertex
62
5
10
184.375000
20
34.250000
0
VERTEX
5
52c
100
AcDbEntity
8
1
100
AcDbVertex
100
AcDb2dVertex
62
5
10
183.750000
20
34.250000
0
VERTEX
5
52d
100
AcDbEntity
8
1
100
AcDbVertex
100
AcDb2dVertex
62
5
10
183.437500
20
34.562500
0
VERTEX
5
52e
100
AcDbEntity
8
1
100
AcDbVertex
100
AcDb2dVertex
62
5
10
182.812500
20
35.812500
0
VERTEX
5
52f
100
AcDbEntity
8
1
100
AcDbVertex
100
AcDb2dVertex
62
5
10
182.500000
20
37.062500
0
VERTEX
5
530
100
AcDbEntity
8
1
100
AcDbVertex
100
AcDb2dVertex
62
5
10
182.500000
20
38.937500
0
VERTEX
5
531
100
AcDbEntity
8
1
100
AcDbVertex
100
AcDb2dVertex
62
5
10
182.812500
20
40.187500
0
VERTEX
5
532
100
AcDbEntity
8
1
100
AcDbVertex
100
AcDb2dVertex
62
5
10
183.437500
20
41.437500
0
VERTEX
5
533
100
AcDbEntity
8
1
100
AcDbVertex
100
AcDb2dVertex
62
5
10
183.750000
20
41.750000
0
SEQEND
5
534
100
AcDbEntity
8
1
0
LINE
5
535
100
AcDbEntity
8
1
100
AcDbLine
6
CONTINUOUS
62
5
10
162.500000
20
41.750000
11
165.312500
21
41.750000
0
POLYLINE
5
536
100
AcDbEntity
8
1
6
CONTINUOUS
62
5
100
AcDb2dPolyline
66
1
10
0.0
20
0.0
30
0.0
70
0
0
VERTEX
5
537
100
AcDbEntity
8
1
100
AcDbVertex
100
AcDb2dVertex
62
5
10
162.500000
20
41.750000
0
VERTEX
5
538
100
AcDbEntity
8
1
100
AcDbVertex
100
AcDb2dVertex
62
5
10
162.500000
20
38.000000
0
VERTEX
5
539
100
AcDbEntity
8
1
100
AcDbVertex
100
AcDb2dVertex
62
5
10
163.125000
20
38.625000
0
VERTEX
5
53a
100
AcDbEntity
8
1
100
AcDbVertex
100
AcDb2dVertex
62
5
10
163.750000
20
38.937500
0
VERTEX
5
53b
100
AcDbEntity
8
1
100
AcDbVertex
100
AcDb2dVertex
62
5
10
164.687500
20
38.937500
0
VERTEX
5
53c
100
AcDbEntity
8
1
100
AcDbVertex
100
AcDb2dVertex
62
5
10
165.312500
20
38.625000
0
VERTEX
5
53d
100
AcDbEntity
8
1
100
AcDbVertex
100
AcDb2dVertex
62
5
10
165.625000
20
37.687500
0
VERTEX
5
53e
100
AcDbEntity
8
1
100
AcDbVertex
100
AcDb2dVertex
62
5
10
165.625000
20
35.812500
0
VERTEX
5
53f
100
AcDbEntity
8
1
100
AcDbVertex
100
AcDb2dVertex
62
5
10
165.000000
20
34.875000
0
VERTEX
5
540
100
AcDbEntity
8
1
100
AcDbVertex
100
AcDb2dVertex
62
5
10
164.062500
20
34.250000
0
VERTEX
5
541
100
AcDbEntity
8
1
100
AcDbVertex
100
AcDb2dVertex
62
5
10
162.500000
20
34.250000
0
SEQEND
5
542
100
AcDbEntity
8
1
0
LINE
5
543
100
AcDbEntity
8
1
100
AcDbLine
6
CONTINUOUS
62
5
10
158.125000
20
34.875000
11
157.500000
21
34.250000
0
POLYLINE
5
544
100
AcDbEntity
8
1
6
CONTINUOUS
62
5
100
AcDb2dPolyline
66
1
10
0.0
20
0.0
30
0.0
70
0
0
VERTEX
5
545
100
AcDbEntity
8
1
100
AcDbVertex
100
AcDb2dVertex
62
5
10
157.500000
20
34.875000
0
VERTEX
5
546
100
AcDbEntity
8
1
100
AcDbVertex
100
AcDb2dVertex
62
5
10
158.125000
20
34.250000
0
VERTEX
5
547
100
AcDbEntity
8
1
100
AcDbVertex
100
AcDb2dVertex
62
5
10
157.500000
20
34.250000
0
VERTEX
5
548
100
AcDbEntity
8
1
100
AcDbVertex
100
AcDb2dVertex
62
5
10
157.500000
20
34.875000
0
VERTEX
5
549
100
AcDbEntity
8
1
100
AcDbVertex
100
AcDb2dVertex
62
5
10
158.125000
20
34.875000
0
VERTEX
5
54a
100
AcDbEntity
8
1
100
AcDbVertex
100
AcDb2dVertex
62
5
10
158.125000
20
34.250000
0
SEQEND
5
54b
100
AcDbEntity
8
1
0
POLYLINE
5
54c
100
AcDbEntity
8
1
6
CONTINUOUS
62
5
100
AcDb2dPolyline
66
1
10
0.0
20
0.0
30
0.0
70
0
0
VERTEX
5
54d
100
AcDbEntity
8
1
100
AcDbVertex
100
AcDb2dVertex
62
5
10
153.125000
20
41.125000
0
VERTEX
5
54e
100
AcDbEntity
8
1
100
AcDbVertex
100
AcDb2dVertex
62
5
10
154.062500
20
41.750000
0
VERTEX
5
54f
100
AcDbEntity
8
1
100
AcDbVertex
100
AcDb2dVertex
62
5
10
154.062500
20
34.250000
0
SEQEND
5
550
100
AcDbEntity
8
1
0
LINE
5
551
100
AcDbEntity
8
1
100
AcDbLine
6
CONTINUOUS
62
5
10
153.437500
20
34.250000
11
154.687500
21
34.250000
0
POLYLINE
5
552
100
AcDbEntity
8
1
6
CONTINUOUS
62
5
100
AcDb2dPolyline
66
1
10
0.0
20
0.0
30
0.0
70
0
0
VERTEX
5
553
100
AcDbEntity
8
1
100
AcDbVertex
100
AcDb2dVertex
62
5
10
167.500000
20
34.250000
0
VERTEX
5
554
100
AcDbEntity
8
1
100
AcDbVertex
100
AcDb2dVertex
62
5
10
169.062500
20
41.750000
0
VERTEX
5
555
100
AcDbEntity
8
1
100
AcDbVertex
100
AcDb2dVertex
62
5
10
170.625000
20
34.250000
0
SEQEND
5
556
100
AcDbEntity
8
1
0
LINE
5
557
100
AcDbEntity
8
1
100
AcDbLine
6
CONTINUOUS
62
5
10
168.125000
20
36.750000
11
170.000000
21
36.750000
0
POLYLINE
5
558
100
AcDbEntity
8
1
6
CONTINUOUS
62
5
100
AcDb2dPolyline
66
1
10
0.0
20
0.0
30
0.0
70
1
0
VERTEX
5
559
100
AcDbEntity
8
1
100
AcDbVertex
100
AcDb2dVertex
62
5
10
188.750000
20
41.750000
0
VERTEX
5
55a
100
AcDbEntity
8
1
100
AcDbVertex
100
AcDb2dVertex
62
5
10
189.375000
20
41.750000
0
VERTEX
5
55b
100
AcDbEntity
8
1
100
AcDbVertex
100
AcDb2dVertex
62
5
10
189.687500
20
41.437500
0
VERTEX
5
55c
100
AcDbEntity
8
1
100
AcDbVertex
100
AcDb2dVertex
62
5
10
190.312500
20
40.187500
0
VERTEX
5
55d
100
AcDbEntity
8
1
100
AcDbVertex
100
AcDb2dVertex
62
5
10
190.625000
20
38.937500
0
VERTEX
5
55e
100
AcDbEntity
8
1
100
AcDbVertex
100
AcDb2dVertex
62
5
10
190.625000
20
37.062500
0
VERTEX
5
55f
100
AcDbEntity
8
1
100
AcDbVertex
100
AcDb2dVertex
62
5
10
190.312500
20
35.812500
0
VERTEX
5
560
100
AcDbEntity
8
1
100
AcDbVertex
100
AcDb2dVertex
62
5
10
189.687500
20
34.562500
0
VERTEX
5
561
100
AcDbEntity
8
1
100
AcDbVertex
100
AcDb2dVertex
62
5
10
189.375000
20
34.250000
0
VERTEX
5
562
100
AcDbEntity
8
1
100
AcDbVertex
100
AcDb2dVertex
62
5
10
188.750000
20
34.250000
0
VERTEX
5
563
100
AcDbEntity
8
1
100
AcDbVertex
100
AcDb2dVertex
62
5
10
188.437500
20
34.562500
0
VERTEX
5
564
100
AcDbEntity
8
1
100
AcDbVertex
100
AcDb2dVertex
62
5
10
187.812500
20
35.812500
0
VERTEX
5
565
100
AcDbEntity
8
1
100
AcDbVertex
100
AcDb2dVertex
62
5
10
187.500000
20
37.062500
0
VERTEX
5
566
100
AcDbEntity
8
1
100
AcDbVertex
100
AcDb2dVertex
62
5
10
187.500000
20
38.937500
0
VERTEX
5
567
100
AcDbEntity
8
1
100
AcDbVertex
100
AcDb2dVertex
62
5
10
187.812500
20
40.187500
0
VERTEX
5
568
100
AcDbEntity
8
1
100
AcDbVertex
100
AcDb2dVertex
62
5
10
188.437500
20
41.437500
0
VERTEX
5
569
100
AcDbEntity
8
1
100
AcDbVertex
100
AcDb2dVertex
62
5
10
188.750000
20
41.750000
0
SEQEND
5
56a
100
AcDbEntity
8
1
0
POLYLINE
5
56b
100
AcDbEntity
8
1
6
CONTINUOUS
62
5
100
AcDb2dPolyline
66
1
10
0.0
20
0.0
30
0.0
70
1
0
VERTEX
5
56c
100
AcDbEntity
8
1
100
AcDbVertex
100
AcDb2dVertex
62
5
10
223.750000
20
29.750000
0
VERTEX
5
56d
100
AcDbEntity
8
1
100
AcDbVertex
100
AcDb2dVertex
62
5
10
224.375000
20
29.750000
0
VERTEX
5
56e
100
AcDbEntity
8
1
100
AcDbVertex
100
AcDb2dVertex
62
5
10
224.687500
20
29.437500
0
VERTEX
5
56f
100
AcDbEntity
8
1
100
AcDbVertex
100
AcDb2dVertex
62
5
10
225.312500
20
28.187500
0
VERTEX
5
570
100
AcDbEntity
8
1
100
AcDbVertex
100
AcDb2dVertex
62
5
10
225.625000
20
26.937500
0
VERTEX
5
571
100
AcDbEntity
8
1
100
AcDbVertex
100
AcDb2dVertex
62
5
10
225.625000
20
25.062500
0
VERTEX
5
572
100
AcDbEntity
8
1
100
AcDbVertex
100
AcDb2dVertex
62
5
10
225.312500
20
23.812500
0
VERTEX
5
573
100
AcDbEntity
8
1
100
AcDbVertex
100
AcDb2dVertex
62
5
10
224.687500
20
22.562500
0
VERTEX
5
574
100
AcDbEntity
8
1
100
AcDbVertex
100
AcDb2dVertex
62
5
10
224.375000
20
22.250000
0
VERTEX
5
575
100
AcDbEntity
8
1
100
AcDbVertex
100
AcDb2dVertex
62
5
10
223.750000
20
22.250000
0
VERTEX
5
576
100
AcDbEntity
8
1
100
AcDbVertex
100
AcDb2dVertex
62
5
10
223.437500
20
22.562500
0
VERTEX
5
577
100
AcDbEntity
8
1
100
AcDbVertex
100
AcDb2dVertex
62
5
10
222.812500
20
23.812500
0
VERTEX
5
578
100
AcDbEntity
8
1
100
AcDbVertex
100
AcDb2dVertex
62
5
10
222.500000
20
25.062500
0
VERTEX
5
579
100
AcDbEntity
8
1
100
AcDbVertex
100
AcDb2dVertex
62
5
10
222.500000
20
26.937500
0
VERTEX
5
57a
100
AcDbEntity
8
1
100
AcDbVertex
100
AcDb2dVertex
62
5
10
222.812500
20
28.187500
0
VERTEX
5
57b
100
AcDbEntity
8
1
100
AcDbVertex
100
AcDb2dVertex
62
5
10
223.437500
20
29.437500
0
VERTEX
5
57c
100
AcDbEntity
8
1
100
AcDbVertex
100
AcDb2dVertex
62
5
10
223.750000
20
29.750000
0
SEQEND
5
57d
100
AcDbEntity
8
1
0
POLYLINE
5
57e
100
AcDbEntity
8
1
6
CONTINUOUS
62
5
100
AcDb2dPolyline
66
1
10
0.0
20
0.0
30
0.0
70
0
0
VERTEX
5
57f
100
AcDbEntity
8
1
100
AcDbVertex
100
AcDb2dVertex
62
5
10
213.125000
20
29.125000
0
VERTEX
5
580
100
AcDbEntity
8
1
100
AcDbVertex
100
AcDb2dVertex
62
5
10
214.062500
20
29.750000
0
VERTEX
5
581
100
AcDbEntity
8
1
100
AcDbVertex
100
AcDb2dVertex
62
5
10
214.062500
20
22.250000
0
SEQEND
5
582
100
AcDbEntity
8
1
0
LINE
5
583
100
AcDbEntity
8
1
100
AcDbLine
6
CONTINUOUS
62
5
10
213.437500
20
22.250000
11
214.687500
21
22.250000
0
POLYLINE
5
584
100
AcDbEntity
8
1
6
CONTINUOUS
62
5
100
AcDb2dPolyline
66
1
10
0.0
20
0.0
30
0.0
70
1
0
VERTEX
5
585
100
AcDbEntity
8
1
100
AcDbVertex
100
AcDb2dVertex
62
5
10
218.750000
20
29.750000
0
VERTEX
5
586
100
AcDbEntity
8
1
100
AcDbVertex
100
AcDb2dVertex
62
5
10
219.375000
20
29.750000
0
VERTEX
5
587
100
AcDbEntity
8
1
100
AcDbVertex
100
AcDb2dVertex
62
5
10
219.687500
20
29.437500
0
VERTEX
5
588
100
AcDbEntity
8
1
100
AcDbVertex
100
AcDb2dVertex
62
5
10
220.312500
20
28.187500
0
VERTEX
5
589
100
AcDbEntity
8
1
100
AcDbVertex
100
AcDb2dVertex
62
5
10
220.625000
20
26.937500
0
VERTEX
5
58a
100
AcDbEntity
8
1
100
AcDbVertex
100
AcDb2dVertex
62
5
10
220.625000
20
25.062500
0
VERTEX
5
58b
100
AcDbEntity
8
1
100
AcDbVertex
100
AcDb2dVertex
62
5
10
220.312500
20
23.812500
0
VERTEX
5
58c
100
AcDbEntity
8
1
100
AcDbVertex
100
AcDb2dVertex
62
5
10
219.687500
20
22.562500
0
VERTEX
5
58d
100
AcDbEntity
8
1
100
AcDbVertex
100
AcDb2dVertex
62
5
10
219.375000
20
22.250000
0
VERTEX
5
58e
100
AcDbEntity
8
1
100
AcDbVertex
100
AcDb2dVertex
62
5
10
218.750000
20
22.250000
0
VERTEX
5
58f
100
AcDbEntity
8
1
100
AcDbVertex
100
AcDb2dVertex
62
5
10
218.437500
20
22.562500
0
VERTEX
5
590
100
AcDbEntity
8
1
100
AcDbVertex
100
AcDb2dVertex
62
5
10
217.812500
20
23.812500
0
VERTEX
5
591
100
AcDbEntity
8
1
100
AcDbVertex
100
AcDb2dVertex
62
5
10
217.500000
20
25.062500
0
VERTEX
5
592
100
AcDbEntity
8
1
100
AcDbVertex
100
AcDb2dVertex
62
5
10
217.500000
20
26.937500
0
VERTEX
5
593
100
AcDbEntity
8
1
100
AcDbVertex
100
AcDb2dVertex
62
5
10
217.812500
20
28.187500
0
VERTEX
5
594
100
AcDbEntity
8
1
100
AcDbVertex
100
AcDb2dVertex
62
5
10
218.437500
20
29.437500
0
VERTEX
5
595
100
AcDbEntity
8
1
100
AcDbVertex
100
AcDb2dVertex
62
5
10
218.750000
20
29.750000
0
SEQEND
5
596
100
AcDbEntity
8
1
0
POLYLINE
5
597
100
AcDbEntity
8
1
6
CONTINUOUS
62
5
100
AcDb2dPolyline
66
1
10
0.0
20
0.0
30
0.0
70
0
0
VERTEX
5
598
100
AcDbEntity
8
1
100
AcDbVertex
100
AcDb2dVertex
62
5
10
202.500000
20
22.250000
0
VERTEX
5
599
100
AcDbEntity
8
1
100
AcDbVertex
100
AcDb2dVertex
62
5
10
204.062500
20
29.750000
0
VERTEX
5
59a
100
AcDbEntity
8
1
100
AcDbVertex
100
AcDb2dVertex
62
5
10
205.625000
20
22.250000
0
SEQEND
5
59b
100
AcDbEntity
8
1
0
LINE
5
59c
100
AcDbEntity
8
1
100
AcDbLine
6
CONTINUOUS
62
5
10
203.125000
20
24.750000
11
205.000000
21
24.750000
0
POLYLINE
5
59d
100
AcDbEntity
8
1
6
CONTINUOUS
62
5
100
AcDb2dPolyline
66
1
10
0.0
20
0.0
30
0.0
70
0
0
VERTEX
5
59e
100
AcDbEntity
8
1
100
AcDbVertex
100
AcDb2dVertex
62
5
10
193.125000
20
29.125000
0
VERTEX
5
59f
100
AcDbEntity
8
1
100
AcDbVertex
100
AcDb2dVertex
62
5
10
194.062500
20
29.750000
0
VERTEX
5
5a0
100
AcDbEntity
8
1
100
AcDbVertex
100
AcDb2dVertex
62
5
10
194.062500
20
22.250000
0
SEQEND
5
5a1
100
AcDbEntity
8
1
0
LINE
5
5a2
100
AcDbEntity
8
1
100
AcDbLine
6
CONTINUOUS
62
5
10
193.437500
20
22.250000
11
194.687500
21
22.250000
0
POLYLINE
5
5a3
100
AcDbEntity
8
1
6
CONTINUOUS
62
5
100
AcDb2dPolyline
66
1
10
0.0
20
0.0
30
0.0
70
1
0
VERTEX
5
5a4
100
AcDbEntity
8
1
100
AcDbVertex
100
AcDb2dVertex
62
5
10
198.750000
20
29.750000
0
VERTEX
5
5a5
100
AcDbEntity
8
1
100
AcDbVertex
100
AcDb2dVertex
62
5
10
199.375000
20
29.750000
0
VERTEX
5
5a6
100
AcDbEntity
8
1
100
AcDbVertex
100
AcDb2dVertex
62
5
10
199.687500
20
29.437500
0
VERTEX
5
5a7
100
AcDbEntity
8
1
100
AcDbVertex
100
AcDb2dVertex
62
5
10
200.312500
20
28.187500
0
VERTEX
5
5a8
100
AcDbEntity
8
1
100
AcDbVertex
100
AcDb2dVertex
62
5
10
200.625000
20
26.937500
0
VERTEX
5
5a9
100
AcDbEntity
8
1
100
AcDbVertex
100
AcDb2dVertex
62
5
10
200.625000
20
25.062500
0
VERTEX
5
5aa
100
AcDbEntity
8
1
100
AcDbVertex
100
AcDb2dVertex
62
5
10
200.312500
20
23.812500
0
VERTEX
5
5ab
100
AcDbEntity
8
1
100
AcDbVertex
100
AcDb2dVertex
62
5
10
199.687500
20
22.562500
0
VERTEX
5
5ac
100
AcDbEntity
8
1
100
AcDbVertex
100
AcDb2dVertex
62
5
10
199.375000
20
22.250000
0
VERTEX
5
5ad
100
AcDbEntity
8
1
100
AcDbVertex
100
AcDb2dVertex
62
5
10
198.750000
20
22.250000
0
VERTEX
5
5ae
100
AcDbEntity
8
1
100
AcDbVertex
100
AcDb2dVertex
62
5
10
198.437500
20
22.562500
0
VERTEX
5
5af
100
AcDbEntity
8
1
100
AcDbVertex
100
AcDb2dVertex
62
5
10
197.812500
20
23.812500
0
VERTEX
5
5b0
100
AcDbEntity
8
1
100
AcDbVertex
100
AcDb2dVertex
62
5
10
197.500000
20
25.062500
0
VERTEX
5
5b1
100
AcDbEntity
8
1
100
AcDbVertex
100
AcDb2dVertex
62
5
10
197.500000
20
26.937500
0
VERTEX
5
5b2
100
AcDbEntity
8
1
100
AcDbVertex
100
AcDb2dVertex
62
5
10
197.812500
20
28.187500
0
VERTEX
5
5b3
100
AcDbEntity
8
1
100
AcDbVertex
100
AcDb2dVertex
62
5
10
198.437500
20
29.437500
0
VERTEX
5
5b4
100
AcDbEntity
8
1
100
AcDbVertex
100
AcDb2dVertex
62
5
10
198.750000
20
29.750000
0
SEQEND
5
5b5
100
AcDbEntity
8
1
0
LINE
5
5b6
100
AcDbEntity
8
1
100
AcDbLine
6
CONTINUOUS
62
5
10
207.500000
20
26.000000
11
210.625000
21
26.000000
0
POLYLINE
5
5b7
100
AcDbEntity
8
1
6
CONTINUOUS
62
5
100
AcDb2dPolyline
66
1
10
0.0
20
0.0
30
0.0
70
0
0
VERTEX
5
5b8
100
AcDbEntity
8
1
100
AcDbVertex
100
AcDb2dVertex
62
5
10
185.625000
20
28.500000
0
VERTEX
5
5b9
100
AcDbEntity
8
1
100
AcDbVertex
100
AcDb2dVertex
62
5
10
186.250000
20
28.500000
0
VERTEX
5
5ba
100
AcDbEntity
8
1
100
AcDbVertex
100
AcDb2dVertex
62
5
10
186.250000
20
27.875000
0
VERTEX
5
5bb
100
AcDbEntity
8
1
100
AcDbVertex
100
AcDb2dVertex
62
5
10
185.625000
20
27.875000
0
VERTEX
5
5bc
100
AcDbEntity
8
1
100
AcDbVertex
100
AcDb2dVertex
62
5
10
185.625000
20
28.500000
0
VERTEX
5
5bd
100
AcDbEntity
8
1
100
AcDbVertex
100
AcDb2dVertex
62
5
10
186.250000
20
27.875000
0
SEQEND
5
5be
100
AcDbEntity
8
1
0
LINE
5
5bf
100
AcDbEntity
8
1
100
AcDbLine
6
CONTINUOUS
62
5
10
186.250000
20
28.500000
11
185.625000
21
27.875000
0
POLYLINE
5
5c0
100
AcDbEntity
8
1
6
CONTINUOUS
62
5
100
AcDb2dPolyline
66
1
10
0.0
20
0.0
30
0.0
70
0
0
VERTEX
5
5c1
100
AcDbEntity
8
1
100
AcDbVertex
100
AcDb2dVertex
62
5
10
185.625000
20
23.812500
0
VERTEX
5
5c2
100
AcDbEntity
8
1
100
AcDbVertex
100
AcDb2dVertex
62
5
10
186.250000
20
23.812500
0
VERTEX
5
5c3
100
AcDbEntity
8
1
100
AcDbVertex
100
AcDb2dVertex
62
5
10
186.250000
20
23.187500
0
VERTEX
5
5c4
100
AcDbEntity
8
1
100
AcDbVertex
100
AcDb2dVertex
62
5
10
185.625000
20
23.187500
0
VERTEX
5
5c5
100
AcDbEntity
8
1
100
AcDbVertex
100
AcDb2dVertex
62
5
10
185.625000
20
23.812500
0
VERTEX
5
5c6
100
AcDbEntity
8
1
100
AcDbVertex
100
AcDb2dVertex
62
5
10
186.250000
20
23.187500
0
SEQEND
5
5c7
100
AcDbEntity
8
1
0
LINE
5
5c8
100
AcDbEntity
8
1
100
AcDbLine
6
CONTINUOUS
62
5
10
186.250000
20
23.812500
11
185.625000
21
23.187500
0
POLYLINE
5
5c9
100
AcDbEntity
8
1
6
CONTINUOUS
62
5
100
AcDb2dPolyline
66
1
10
0.0
20
0.0
30
0.0
70
1
0
VERTEX
5
5ca
100
AcDbEntity
8
1
100
AcDbVertex
100
AcDb2dVertex
62
5
10
172.500000
20
30.062500
0
VERTEX
5
5cb
100
AcDbEntity
8
1
100
AcDbVertex
100
AcDb2dVertex
62
5
10
172.500000
20
27.250000
0
VERTEX
5
5cc
100
AcDbEntity
8
1
100
AcDbVertex
100
AcDb2dVertex
62
5
10
175.000000
20
27.250000
0
VERTEX
5
5cd
100
AcDbEntity
8
1
100
AcDbVertex
100
AcDb2dVertex
62
5
10
175.000000
20
30.062500
0
VERTEX
5
5ce
100
AcDbEntity
8
1
100
AcDbVertex
100
AcDb2dVertex
62
5
10
172.500000
20
30.062500
0
SEQEND
5
5cf
100
AcDbEntity
8
1
0
LINE
5
5d0
100
AcDbEntity
8
1
100
AcDbLine
6
CONTINUOUS
62
5
10
173.750000
20
27.250000
11
173.750000
21
22.562500
0
LINE
5
5d1
100
AcDbEntity
8
1
100
AcDbLine
6
CONTINUOUS
62
5
10
173.750000
20
25.375000
11
175.000000
21
25.375000
0
LINE
5
5d2
100
AcDbEntity
8
1
100
AcDbLine
6
CONTINUOUS
62
5
10
172.500000
20
25.687500
11
172.500000
21
22.250000
0
LINE
5
5d3
100
AcDbEntity
8
1
100
AcDbLine
6
CONTINUOUS
62
5
10
171.875000
20
21.937500
11
175.312500
21
22.875000
0
POLYLINE
5
5d4
100
AcDbEntity
8
1
6
CONTINUOUS
62
5
100
AcDb2dPolyline
66
1
10
0.0
20
0.0
30
0.0
70
0
0
VERTEX
5
5d5
100
AcDbEntity
8
1
100
AcDbVertex
100
AcDb2dVertex
62
5
10
177.500000
20
30.375000
0
VERTEX
5
5d6
100
AcDbEntity
8
1
100
AcDbVertex
100
AcDb2dVertex
62
5
10
177.187500
20
29.437500
0
VERTEX
5
5d7
100
AcDbEntity
8
1
100
AcDbVertex
100
AcDb2dVertex
62
5
10
176.562500
20
28.500000
0
VERTEX
5
5d8
100
AcDbEntity
8
1
100
AcDbVertex
100
AcDb2dVertex
62
5
10
175.625000
20
27.562500
0
SEQEND
5
5d9
100
AcDbEntity
8
1
0
POLYLINE
5
5da
100
AcDbEntity
8
1
6
CONTINUOUS
62
5
100
AcDb2dPolyline
66
1
10
0.0
20
0.0
30
0.0
70
0
0
VERTEX
5
5db
100
AcDbEntity
8
1
100
AcDbVertex
100
AcDb2dVertex
62
5
10
177.187500
20
29.437500
0
VERTEX
5
5dc
100
AcDbEntity
8
1
100
AcDbVertex
100
AcDb2dVertex
62
5
10
179.687500
20
29.437500
0
VERTEX
5
5dd
100
AcDbEntity
8
1
100
AcDbVertex
100
AcDb2dVertex
62
5
10
178.750000
20
27.562500
0
VERTEX
5
5de
100
AcDbEntity
8
1
100
AcDbVertex
100
AcDb2dVertex
62
5
10
177.812500
20
26.312500
0
VERTEX
5
5df
100
AcDbEntity
8
1
100
AcDbVertex
100
AcDb2dVertex
62
5
10
176.875000
20
25.375000
0
VERTEX
5
5e0
100
AcDbEntity
8
1
100
AcDbVertex
100
AcDb2dVertex
62
5
10
175.625000
20
24.437500
0
SEQEND
5
5e1
100
AcDbEntity
8
1
0
POLYLINE
5
5e2
100
AcDbEntity
8
1
6
CONTINUOUS
62
5
100
AcDb2dPolyline
66
1
10
0.0
20
0.0
30
0.0
70
0
0
VERTEX
5
5e3
100
AcDbEntity
8
1
100
AcDbVertex
100
AcDb2dVertex
62
5
10
176.875000
20
28.812500
0
VERTEX
5
5e4
100
AcDbEntity
8
1
100
AcDbVertex
100
AcDb2dVertex
62
5
10
177.812500
20
27.562500
0
VERTEX
5
5e5
100
AcDbEntity
8
1
100
AcDbVertex
100
AcDb2dVertex
62
5
10
179.062500
20
26.312500
0
VERTEX
5
5e6
100
AcDbEntity
8
1
100
AcDbVertex
100
AcDb2dVertex
62
5
10
180.625000
20
25.062500
0
SEQEND
5
5e7
100
AcDbEntity
8
1
0
POLYLINE
5
5e8
100
AcDbEntity
8
1
6
CONTINUOUS
62
5
100
AcDb2dPolyline
66
1
10
0.0
20
0.0
30
0.0
70
1
0
VERTEX
5
5e9
100
AcDbEntity
8
1
100
AcDbVertex
100
AcDb2dVertex
62
5
10
176.562500
20
25.062500
0
VERTEX
5
5ea
100
AcDbEntity
8
1
100
AcDbVertex
100
AcDb2dVertex
62
5
10
176.562500
20
21.937500
0
VERTEX
5
5eb
100
AcDbEntity
8
1
100
AcDbVertex
100
AcDb2dVertex
62
5
10
180.000000
20
21.937500
0
VERTEX
5
5ec
100
AcDbEntity
8
1
100
AcDbVertex
100
AcDb2dVertex
62
5
10
180.000000
20
25.062500
0
VERTEX
5
5ed
100
AcDbEntity
8
1
100
AcDbVertex
100
AcDb2dVertex
62
5
10
176.562500
20
25.062500
0
SEQEND
5
5ee
100
AcDbEntity
8
1
0
LINE
5
5ef
100
AcDbEntity
8
1
100
AcDbLine
6
CONTINUOUS
62
5
10
153.750000
20
28.187500
11
158.437500
21
28.812500
0
LINE
5
5f0
100
AcDbEntity
8
1
100
AcDbLine
6
CONTINUOUS
62
5
10
152.187500
20
26.312500
11
159.687500
21
26.312500
0
POLYLINE
5
5f1
100
AcDbEntity
8
1
6
CONTINUOUS
62
5
100
AcDb2dPolyline
66
1
10
0.0
20
0.0
30
0.0
70
0
0
VERTEX
5
5f2
100
AcDbEntity
8
1
100
AcDbVertex
100
AcDb2dVertex
62
5
10
156.250000
20
28.500000
0
VERTEX
5
5f3
100
AcDbEntity
8
1
100
AcDbVertex
100
AcDb2dVertex
62
5
10
156.250000
20
26.312500
0
VERTEX
5
5f4
100
AcDbEntity
8
1
100
AcDbVertex
100
AcDb2dVertex
62
5
10
155.937500
20
24.750000
0
VERTEX
5
5f5
100
AcDbEntity
8
1
100
AcDbVertex
100
AcDb2dVertex
62
5
10
155.000000
20
23.500000
0
VERTEX
5
5f6
100
AcDbEntity
8
1
100
AcDbVertex
100
AcDb2dVertex
62
5
10
154.062500
20
22.562500
0
SEQEND
5
5f7
100
AcDbEntity
8
1
0
POLYLINE
5
5f8
100
AcDbEntity
8
1
6
CONTINUOUS
62
5
100
AcDb2dPolyline
66
1
10
0.0
20
0.0
30
0.0
70
1
0
VERTEX
5
5f9
100
AcDbEntity
8
1
100
AcDbVertex
100
AcDb2dVertex
62
5
10
162.187500
20
29.437500
0
VERTEX
5
5fa
100
AcDbEntity
8
1
100
AcDbVertex
100
AcDb2dVertex
62
5
10
170.000000
20
29.437500
0
VERTEX
5
5fb
100
AcDbEntity
8
1
100
AcDbVertex
100
AcDb2dVertex
62
5
10
170.000000
20
21.625000
0
VERTEX
5
5fc
100
AcDbEntity
8
1
100
AcDbVertex
100
AcDb2dVertex
62
5
10
162.187500
20
21.625000
0
VERTEX
5
5fd
100
AcDbEntity
8
1
100
AcDbVertex
100
AcDb2dVertex
62
5
10
162.187500
20
29.437500
0
SEQEND
5
5fe
100
AcDbEntity
8
1
0
POLYLINE
5
5ff
100
AcDbEntity
8
1
6
CONTINUOUS
62
5
100
AcDb2dPolyline
66
1
10
0.0
20
0.0
30
0.0
70
1
0
VERTEX
5
600
100
AcDbEntity
8
1
100
AcDbVertex
100
AcDb2dVertex
62
5
10
164.375000
20
27.250000
0
VERTEX
5
601
100
AcDbEntity
8
1
100
AcDbVertex
100
AcDb2dVertex
62
5
10
167.812500
20
27.250000
0
VERTEX
5
602
100
AcDbEntity
8
1
100
AcDbVertex
100
AcDb2dVertex
62
5
10
167.812500
20
23.500000
0
VERTEX
5
603
100
AcDbEntity
8
1
100
AcDbVertex
100
AcDb2dVertex
62
5
10
164.375000
20
23.500000
0
VERTEX
5
604
100
AcDbEntity
8
1
100
AcDbVertex
100
AcDb2dVertex
62
5
10
164.375000
20
27.250000
0
SEQEND
5
605
100
AcDbEntity
8
1
0
POLYLINE
5
606
100
AcDbEntity
8
1
6
CONTINUOUS
62
5
100
AcDb2dPolyline
66
1
10
0.0
20
0.0
30
0.0
70
0
0
VERTEX
5
607
100
AcDbEntity
8
1
100
AcDbVertex
100
AcDb2dVertex
62
5
10
227.500000
20
29.750000
0
VERTEX
5
608
100
AcDbEntity
8
1
100
AcDbVertex
100
AcDb2dVertex
62
5
10
229.062500
20
22.250000
0
VERTEX
5
609
100
AcDbEntity
8
1
100
AcDbVertex
100
AcDb2dVertex
62
5
10
230.625000
20
29.750000
0
SEQEND
5
60a
100
AcDbEntity
8
1
0
ARC
5
60b
100
AcDbEntity
8
1
100
AcDbCircle
6
CONTINUOUS
62
5
10
132.558176
20
152.000000
40
1.000000
100
AcDbArc
50
-84.260829
51
-0.000000
0
LINE
5
60c
100
AcDbEntity
8
1
100
AcDbLine
6
CONTINUOUS
62
5
10
133.558176
20
152.000000
11
133.558176
21
155.500000
0
ARC
5
60d
100
AcDbEntity
8
1
100
AcDbCircle
6
CONTINUOUS
62
5
10
132.558176
20
155.500000
40
1.000000
100
AcDbArc
50
0.000000
51
84.260829
0
ARC
5
60e
100
AcDbEntity
8
1
100
AcDbCircle
6
CONTINUOUS
62
5
10
132.758176
20
152.000000
40
1.000000
100
AcDbArc
50
-133.731450
51
-0.000000
0
ARC
5
60f
100
AcDbEntity
8
1
100
AcDbCircle
6
CONTINUOUS
62
5
10
132.758176
20
155.500000
40
1.000000
100
AcDbArc
50
-0.000000
51
101.537281
0
LINE
5
610
100
AcDbEntity
8
1
100
AcDbLine
6
CONTINUOUS
62
5
10
133.758176
20
155.500000
11
133.758176
21
152.000000
0
ARC
5
611
100
AcDbEntity
8
1
100
AcDbCircle
6
CONTINUOUS
62
5
10
131.758206
20
150.000000
40
1.000031
100
AcDbArc
50
90.447613
51
108.209232
0
ARC
5
612
100
AcDbEntity
8
1
100
AcDbCircle
6
CONTINUOUS
62
5
10
131.758206
20
150.000000
40
1.000031
100
AcDbArc
50
-108.209232
51
-90.447613
0
LINE
5
613
100
AcDbEntity
8
1
100
AcDbLine
6
CONTINUOUS
62
5
10
131.750394
20
149.000000
11
132.758176
21
149.000000
0
LINE
5
614
100
AcDbEntity
8
1
100
AcDbLine
6
CONTINUOUS
62
5
10
132.758176
20
151.000000
11
131.750394
21
151.000000
0
LINE
5
615
100
AcDbEntity
8
1
100
AcDbLine
6
CONTINUOUS
62
5
10
133.758176
20
152.000000
11
133.758176
21
148.000000
0
ARC
5
616
100
AcDbEntity
8
1
100
AcDbCircle
6
CONTINUOUS
62
5
10
132.558176
20
148.000000
40
1.000000
100
AcDbArc
50
0.000000
51
84.260829
0
LINE
5
617
100
AcDbEntity
8
1
100
AcDbLine
6
CONTINUOUS
62
5
10
133.558176
20
148.000000
11
133.558176
21
144.500000
0
ARC
5
618
100
AcDbEntity
8
1
100
AcDbCircle
6
CONTINUOUS
62
5
10
132.558176
20
144.500000
40
1.000000
100
AcDbArc
50
-84.260829
51
-0.000000
0
ARC
5
619
100
AcDbEntity
8
1
100
AcDbCircle
6
CONTINUOUS
62
5
10
132.758176
20
148.000000
40
1.000000
100
AcDbArc
50
0.000000
51
133.731450
0
ARC
5
61a
100
AcDbEntity
8
1
100
AcDbCircle
6
CONTINUOUS
62
5
10
132.758176
20
144.500000
40
1.000000
100
AcDbArc
50
-101.537281
51
0.000000
0
LINE
5
61b
100
AcDbEntity
8
1
100
AcDbLine
6
CONTINUOUS
62
5
10
133.758176
20
144.500000
11
133.758176
21
148.000000
0
LINE
5
61c
100
AcDbEntity
8
1
100
AcDbLine
6
CONTINUOUS
62
5
10
124.358176
20
153.500000
11
124.388176
21
153.400000
0
ARC
5
61d
100
AcDbEntity
8
1
100
AcDbCircle
6
CONTINUOUS
62
5
10
128.058170
20
155.500000
40
1.000000
100
AcDbArc
50
-89.999999
51
-0.000000
0
LINE
5
61e
100
AcDbEntity
8
1
100
AcDbLine
6
CONTINUOUS
62
5
10
129.058170
20
155.500000
11
129.058170
21
155.700000
0
ARC
5
61f
100
AcDbEntity
8
1
100
AcDbCircle
6
CONTINUOUS
62
5
10
128.758170
20
155.700000
40
0.300000
100
AcDbArc
50
-0.000000
51
89.999999
0
LINE
5
620
100
AcDbEntity
8
1
100
AcDbLine
6
CONTINUOUS
62
5
10
128.758170
20
156.000000
11
127.758170
21
156.000000
0
POLYLINE
5
621
100
AcDbEntity
8
1
6
CONTINUOUS
62
5
100
AcDb2dPolyline
66
1
10
0.0
20
0.0
30
0.0
70
0
0
VERTEX
5
622
100
AcDbEntity
8
1
100
AcDbVertex
100
AcDb2dVertex
62
5
10
126.758170
20
153.500000
0
VERTEX
5
623
100
AcDbEntity
8
1
100
AcDbVertex
100
AcDb2dVertex
62
5
10
127.758170
20
154.500000
0
VERTEX
5
624
100
AcDbEntity
8
1
100
AcDbVertex
100
AcDb2dVertex
62
5
10
128.058170
20
154.500000
0
SEQEND
5
625
100
AcDbEntity
8
1
0
ARC
5
626
100
AcDbEntity
8
1
100
AcDbCircle
6
CONTINUOUS
62
5
10
128.758170
20
144.300000
40
0.300000
100
AcDbArc
50
-89.999999
51
0.000000
0
LINE
5
627
100
AcDbEntity
8
1
100
AcDbLine
6
CONTINUOUS
62
5
10
129.058170
20
144.300000
11
129.058170
21
144.500000
0
ARC
5
628
100
AcDbEntity
8
1
100
AcDbCircle
6
CONTINUOUS
62
5
10
128.058170
20
144.500000
40
1.000000
100
AcDbArc
50
-0.000000
51
89.999999
0
POLYLINE
5
629
100
AcDbEntity
8
1
6
CONTINUOUS
62
5
100
AcDb2dPolyline
66
1
10
0.0
20
0.0
30
0.0
70
0
0
VERTEX
5
62a
100
AcDbEntity
8
1
100
AcDbVertex
100
AcDb2dVertex
62
5
10
128.058170
20
145.500000
0
VERTEX
5
62b
100
AcDbEntity
8
1
100
AcDbVertex
100
AcDb2dVertex
62
5
10
127.758170
20
145.500000
0
VERTEX
5
62c
100
AcDbEntity
8
1
100
AcDbVertex
100
AcDb2dVertex
62
5
10
126.758170
20
146.500000
0
SEQEND
5
62d
100
AcDbEntity
8
1
0
LINE
5
62e
100
AcDbEntity
8
1
100
AcDbLine
6
CONTINUOUS
62
5
10
127.758176
20
144.000000
11
128.758170
21
144.000000
0
ARC
5
62f
100
AcDbEntity
8
1
100
AcDbCircle
6
CONTINUOUS
62
5
10
132.058176
20
129.300000
40
1.500000
100
AcDbArc
50
-89.999999
51
0.000000
0
LINE
5
630
100
AcDbEntity
8
1
100
AcDbLine
6
CONTINUOUS
62
5
10
132.058176
20
127.800000
11
130.958176
21
127.800000
0
ARC
5
631
100
AcDbEntity
8
1
100
AcDbCircle
6
CONTINUOUS
62
5
10
130.958176
20
128.300000
40
0.500000
100
AcDbArc
50
-179.999998
51
-89.999999
0
LINE
5
632
100
AcDbEntity
8
1
100
AcDbLine
6
CONTINUOUS
62
5
10
130.458176
20
128.300000
11
130.458176
21
128.400000
0
ARC
5
633
100
AcDbEntity
8
1
100
AcDbCircle
6
CONTINUOUS
62
5
10
131.758176
20
134.000000
40
1.000000
100
AcDbArc
50
0.000000
51
36.518132
0
LINE
5
634
100
AcDbEntity
8
1
100
AcDbLine
6
CONTINUOUS
62
5
10
133.558176
20
130.300000
11
133.558176
21
129.300000
0
ARC
5
635
100
AcDbEntity
8
1
100
AcDbCircle
6
CONTINUOUS
62
5
10
128.558170
20
132.500000
40
0.500000
100
AcDbArc
50
-61.641340
51
89.999999
0
LINE
5
636
100
AcDbEntity
8
1
100
AcDbLine
6
CONTINUOUS
62
5
10
128.558170
20
133.000000
11
127.758170
21
133.000000
0
POLYLINE
5
637
100
AcDbEntity
8
1
6
CONTINUOUS
62
5
100
AcDb2dPolyline
66
1
10
0.0
20
0.0
30
0.0
70
0
0
VERTEX
5
638
100
AcDbEntity
8
1
100
AcDbVertex
100
AcDb2dVertex
62
5
10
126.758176
20
131.000006
0
VERTEX
5
639
100
AcDbEntity
8
1
100
AcDbVertex
100
AcDb2dVertex
62
5
10
127.258170
20
131.500000
0
VERTEX
5
63a
100
AcDbEntity
8
1
100
AcDbVertex
100
AcDb2dVertex
62
5
10
127.758170
20
131.500000
0
VERTEX
5
63b
100
AcDbEntity
8
1
100
AcDbVertex
100
AcDb2dVertex
62
5
10
128.795665
20
132.060004
0
SEQEND
5
63c
100
AcDbEntity
8
1
0
ARC
5
63d
100
AcDbEntity
8
1
100
AcDbCircle
6
CONTINUOUS
62
5
10
126.858170
20
129.700000
40
0.300000
100
AcDbArc
50
0.000000
51
89.999999
0
LINE
5
63e
100
AcDbEntity
8
1
100
AcDbLine
6
CONTINUOUS
62
5
10
126.858170
20
130.000000
11
126.758170
21
130.000000
0
LINE
5
63f
100
AcDbEntity
8
1
100
AcDbLine
6
CONTINUOUS
62
5
10
127.158170
20
127.500000
11
127.158170
21
129.700000
0
LINE
5
640
100
AcDbEntity
8
1
100
AcDbLine
6
CONTINUOUS
62
5
10
127.158170
20
128.400000
11
126.758176
21
128.400000
0
LINE
5
641
100
AcDbEntity
8
1
100
AcDbLine
6
CONTINUOUS
62
5
10
131.258176
20
128.400000
11
130.275328
21
128.400000
0
ARC
5
642
100
AcDbEntity
8
1
100
AcDbCircle
6
CONTINUOUS
62
5
10
128.758170
20
141.850000
40
0.300000
100
AcDbArc
50
0.000000
51
89.999999
0
LINE
5
643
100
AcDbEntity
8
1
100
AcDbLine
6
CONTINUOUS
62
5
10
128.758170
20
142.150000
11
128.758170
21
142.150000
0
LINE
5
644
100
AcDbEntity
8
1
100
AcDbLine
6
CONTINUOUS
62
5
10
128.758170
20
134.850000
11
128.758170
21
134.850000
0
ARC
5
645
100
AcDbEntity
8
1
100
AcDbCircle
6
CONTINUOUS
62
5
10
128.758170
20
135.150000
40
0.300000
100
AcDbArc
50
-89.999999
51
0.000000
0
LINE
5
646
100
AcDbEntity
8
1
100
AcDbLine
6
CONTINUOUS
62
5
10
129.058170
20
135.150000
11
129.058170
21
141.850000
0
LINE
5
647
100
AcDbEntity
8
1
100
AcDbLine
6
CONTINUOUS
62
5
10
128.558170
20
133.000000
11
128.558170
21
144.000000
0
LINE
5
648
100
AcDbEntity
8
1
100
AcDbLine
6
CONTINUOUS
62
5
10
126.758176
20
145.000000
11
126.758176
21
132.000000
0
LINE
5
649
100
AcDbEntity
8
1
100
AcDbLine
6
CONTINUOUS
62
5
10
128.758170
20
132.958258
11
128.758170
21
144.000000
0
LINE
5
64a
100
AcDbEntity
8
1
100
AcDbLine
6
CONTINUOUS
62
5
10
101.158176
20
153.500000
11
101.128176
21
153.400000
0
ARC
5
64b
100
AcDbEntity
8
1
100
AcDbCircle
6
CONTINUOUS
62
5
10
97.458181
20
155.500000
40
1.000000
100
AcDbArc
50
-179.999998
51
-89.999999
0
LINE
5
64c
100
AcDbEntity
8
1
100
AcDbLine
6
CONTINUOUS
62
5
10
96.458181
20
155.500000
11
96.458181
21
155.700000
0
ARC
5
64d
100
AcDbEntity
8
1
100
AcDbCircle
6
CONTINUOUS
62
5
10
96.758181
20
155.700000
40
0.300000
100
AcDbArc
50
89.999999
51
-179.999998
0
LINE
5
64e
100
AcDbEntity
8
1
100
AcDbLine
6
CONTINUOUS
62
5
10
96.758181
20
156.000000
11
97.758181
21
156.000000
0
POLYLINE
5
64f
100
AcDbEntity
8
1
6
CONTINUOUS
62
5
100
AcDb2dPolyline
66
1
10
0.0
20
0.0
30
0.0
70
0
0
VERTEX
5
650
100
AcDbEntity
8
1
100
AcDbVertex
100
AcDb2dVertex
62
5
10
98.758181
20
153.500000
0
VERTEX
5
651
100
AcDbEntity
8
1
100
AcDbVertex
100
AcDb2dVertex
62
5
10
97.758181
20
154.500000
0
VERTEX
5
652
100
AcDbEntity
8
1
100
AcDbVertex
100
AcDb2dVertex
62
5
10
97.458181
20
154.500000
0
SEQEND
5
653
100
AcDbEntity
8
1
0
ARC
5
654
100
AcDbEntity
8
1
100
AcDbCircle
6
CONTINUOUS
62
5
10
92.958176
20
152.000000
40
1.000000
100
AcDbArc
50
-179.999998
51
-95.739170
0
LINE
5
655
100
AcDbEntity
8
1
100
AcDbLine
6
CONTINUOUS
62
5
10
91.958176
20
152.000000
11
91.958176
21
155.500000
0
ARC
5
656
100
AcDbEntity
8
1
100
AcDbCircle
6
CONTINUOUS
62
5
10
92.958176
20
155.500000
40
1.000000
100
AcDbArc
50
95.739170
51
179.999998
0
ARC
5
657
100
AcDbEntity
8
1
100
AcDbCircle
6
CONTINUOUS
62
5
10
92.758176
20
152.000000
40
1.000000
100
AcDbArc
50
-179.999998
51
-46.268548
0
ARC
5
658
100
AcDbEntity
8
1
100
AcDbCircle
6
CONTINUOUS
62
5
10
92.758176
20
155.500000
40
1.000000
100
AcDbArc
50
78.462717
51
-179.999998
0
LINE
5
659
100
AcDbEntity
8
1
100
AcDbLine
6
CONTINUOUS
62
5
10
91.758176
20
155.500000
11
91.758176
21
152.000000
0
ARC
5
65a
100
AcDbEntity
8
1
100
AcDbCircle
6
CONTINUOUS
62
5
10
96.758181
20
144.300000
40
0.300000
100
AcDbArc
50
179.999998
51
-89.999999
0
LINE
5
65b
100
AcDbEntity
8
1
100
AcDbLine
6
CONTINUOUS
62
5
10
96.458181
20
144.300000
11
96.458181
21
144.500000
0
ARC
5
65c
100
AcDbEntity
8
1
100
AcDbCircle
6
CONTINUOUS
62
5
10
97.458181
20
144.500000
40
1.000000
100
AcDbArc
50
89.999999
51
-179.999998
0
POLYLINE
5
65d
100
AcDbEntity
8
1
6
CONTINUOUS
62
5
100
AcDb2dPolyline
66
1
10
0.0
20
0.0
30
0.0
70
0
0
VERTEX
5
65e
100
AcDbEntity
8
1
100
AcDbVertex
100
AcDb2dVertex
62
5
10
97.458181
20
145.500000
0
VERTEX
5
65f
100
AcDbEntity
8
1
100
AcDbVertex
100
AcDb2dVertex
62
5
10
97.758181
20
145.500000
0
VERTEX
5
660
100
AcDbEntity
8
1
100
AcDbVertex
100
AcDb2dVertex
62
5
10
98.758181
20
146.500000
0
SEQEND
5
661
100
AcDbEntity
8
1
0
LINE
5
662
100
AcDbEntity
8
1
100
AcDbLine
6
CONTINUOUS
62
5
10
97.758176
20
144.000000
11
96.758181
21
144.000000
0
LINE
5
663
100
AcDbEntity
8
1
100
AcDbLine
6
CONTINUOUS
62
5
10
91.758176
20
152.000000
11
91.758176
21
148.000000
0
ARC
5
664
100
AcDbEntity
8
1
100
AcDbCircle
6
CONTINUOUS
62
5
10
93.758145
20
150.000000
40
1.000031
100
AcDbArc
50
71.790767
51
89.552385
0
ARC
5
665
100
AcDbEntity
8
1
100
AcDbCircle
6
CONTINUOUS
62
5
10
93.758145
20
150.000000
40
1.000031
100
AcDbArc
50
-89.552385
51
-71.790767
0
LINE
5
666
100
AcDbEntity
8
1
100
AcDbLine
6
CONTINUOUS
62
5
10
93.765958
20
149.000000
11
92.758176
21
149.000000
0
LINE
5
667
100
AcDbEntity
8
1
100
AcDbLine
6
CONTINUOUS
62
5
10
92.758176
20
151.000000
11
93.765958
21
151.000000
0
ARC
5
668
100
AcDbEntity
8
1
100
AcDbCircle
6
CONTINUOUS
62
5
10
92.958176
20
148.000000
40
1.000000
100
AcDbArc
50
95.739170
51
179.999998
0
LINE
5
669
100
AcDbEntity
8
1
100
AcDbLine
6
CONTINUOUS
62
5
10
91.958176
20
148.000000
11
91.958176
21
144.500000
0
ARC
5
66a
100
AcDbEntity
8
1
100
AcDbCircle
6
CONTINUOUS
62
5
10
92.958176
20
144.500000
40
1.000000
100
AcDbArc
50
-179.999998
51
-95.739170
0
ARC
5
66b
100
AcDbEntity
8
1
100
AcDbCircle
6
CONTINUOUS
62
5
10
92.758176
20
148.000000
40
1.000000
100
AcDbArc
50
46.268548
51
179.999998
0
ARC
5
66c
100
AcDbEntity
8
1
100
AcDbCircle
6
CONTINUOUS
62
5
10
92.758176
20
144.500000
40
1.000000
100
AcDbArc
50
179.999998
51
-78.462717
0
LINE
5
66d
100
AcDbEntity
8
1
100
AcDbLine
6
CONTINUOUS
62
5
10
91.758176
20
144.500000
11
91.758176
21
148.000000
0
ARC
5
66e
100
AcDbEntity
8
1
100
AcDbCircle
6
CONTINUOUS
62
5
10
96.958181
20
132.500000
40
0.500000
100
AcDbArc
50
89.999999
51
-118.358659
0
LINE
5
66f
100
AcDbEntity
8
1
100
AcDbLine
6
CONTINUOUS
62
5
10
96.958181
20
133.000000
11
97.758181
21
133.000000
0
POLYLINE
5
670
100
AcDbEntity
8
1
6
CONTINUOUS
62
5
100
AcDb2dPolyline
66
1
10
0.0
20
0.0
30
0.0
70
0
0
VERTEX
5
671
100
AcDbEntity
8
1
100
AcDbVertex
100
AcDb2dVertex
62
5
10
98.758176
20
131.000006
0
VERTEX
5
672
100
AcDbEntity
8
1
100
AcDbVertex
100
AcDb2dVertex
62
5
10
98.258181
20
131.500000
0
VERTEX
5
673
100
AcDbEntity
8
1
100
AcDbVertex
100
AcDb2dVertex
62
5
10
97.758181
20
131.500000
0
VERTEX
5
674
100
AcDbEntity
8
1
100
AcDbVertex
100
AcDb2dVertex
62
5
10
96.720687
20
132.060004
0
SEQEND
5
675
100
AcDbEntity
8
1
0
ARC
5
676
100
AcDbEntity
8
1
100
AcDbCircle
6
CONTINUOUS
62
5
10
93.458176
20
129.300000
40
1.500000
100
AcDbArc
50
179.999998
51
-89.999999
0
LINE
5
677
100
AcDbEntity
8
1
100
AcDbLine
6
CONTINUOUS
62
5
10
93.458176
20
127.800000
11
94.558176
21
127.800000
0
ARC
5
678
100
AcDbEntity
8
1
100
AcDbCircle
6
CONTINUOUS
62
5
10
94.558176
20
128.300000
40
0.500000
100
AcDbArc
50
-89.999999
51
-0.000000
0
LINE
5
679
100
AcDbEntity
8
1
100
AcDbLine
6
CONTINUOUS
62
5
10
95.058176
20
128.300000
11
95.058176
21
128.400000
0
ARC
5
67a
100
AcDbEntity
8
1
100
AcDbCircle
6
CONTINUOUS
62
5
10
93.758176
20
134.000000
40
1.000000
100
AcDbArc
50
143.481866
51
179.999998
0
LINE
5
67b
100
AcDbEntity
8
1
100
AcDbLine
6
CONTINUOUS
62
5
10
91.958176
20
130.300000
11
91.958176
21
129.300000
0
LINE
5
67c
100
AcDbEntity
8
1
100
AcDbLine
6
CONTINUOUS
62
5
10
98.358181
20
128.400000
11
98.758176
21
128.400000
0
LINE
5
67d
100
AcDbEntity
8
1
100
AcDbLine
6
CONTINUOUS
62
5
10
94.258176
20
128.400000
11
95.241024
21
128.400000
0
ARC
5
67e
100
AcDbEntity
8
1
100
AcDbCircle
6
CONTINUOUS
62
5
10
98.658181
20
129.700000
40
0.300000
100
AcDbArc
50
89.999999
51
179.999998
0
LINE
5
67f
100
AcDbEntity
8
1
100
AcDbLine
6
CONTINUOUS
62
5
10
98.658181
20
130.000000
11
98.758181
21
130.000000
0
LINE
5
680
100
AcDbEntity
8
1
100
AcDbLine
6
CONTINUOUS
62
5
10
98.358181
20
127.500000
11
98.358181
21
129.700000
0
ARC
5
681
100
AcDbEntity
8
1
100
AcDbCircle
6
CONTINUOUS
62
5
10
96.758181
20
141.850000
40
0.300000
100
AcDbArc
50
89.999999
51
179.999998
0
LINE
5
682
100
AcDbEntity
8
1
100
AcDbLine
6
CONTINUOUS
62
5
10
96.758181
20
142.150000
11
96.758181
21
142.150000
0
LINE
5
683
100
AcDbEntity
8
1
100
AcDbLine
6
CONTINUOUS
62
5
10
96.758181
20
134.850000
11
96.758181
21
134.850000
0
ARC
5
684
100
AcDbEntity
8
1
100
AcDbCircle
6
CONTINUOUS
62
5
10
96.758181
20
135.150000
40
0.300000
100
AcDbArc
50
179.999998
51
-89.999999
0
LINE
5
685
100
AcDbEntity
8
1
100
AcDbLine
6
CONTINUOUS
62
5
10
96.458181
20
135.150000
11
96.458181
21
141.850000
0
LINE
5
686
100
AcDbEntity
8
1
100
AcDbLine
6
CONTINUOUS
62
5
10
96.758181
20
132.958258
11
96.758181
21
144.000000
0
LINE
5
687
100
AcDbEntity
8
1
100
AcDbLine
6
CONTINUOUS
62
5
10
96.958181
20
133.000000
11
96.958181
21
144.000000
0
LINE
5
688
100
AcDbEntity
8
1
100
AcDbLine
6
CONTINUOUS
62
5
10
98.758176
20
145.000000
11
98.758176
21
132.000000
0
ARC
5
689
100
AcDbEntity
8
1
100
AcDbCircle
6
CONTINUOUS
62
5
10
99.458176
20
150.850000
40
0.700000
100
AcDbArc
50
-179.999998
51
-89.999999
0
LINE
5
68a
100
AcDbEntity
8
1
100
AcDbLine
6
CONTINUOUS
62
5
10
99.458176
20
150.150000
11
126.058176
21
150.150000
0
ARC
5
68b
100
AcDbEntity
8
1
100
AcDbCircle
6
CONTINUOUS
62
5
10
126.058176
20
150.850000
40
0.700000
100
AcDbArc
50
-89.999999
51
-0.227657
0
ARC
5
68c
100
AcDbEntity
8
1
100
AcDbCircle
6
CONTINUOUS
62
5
10
101.908176
20
150.000000
40
2.000000
100
AcDbArc
50
-89.999999
51
0.000000
0
LINE
5
68d
100
AcDbEntity
8
1
100
AcDbLine
6
CONTINUOUS
62
5
10
103.908176
20
150.000000
11
121.608176
21
150.000000
0
ARC
5
68e
100
AcDbEntity
8
1
100
AcDbCircle
6
CONTINUOUS
62
5
10
123.608176
20
150.000000
40
2.000000
100
AcDbArc
50
-179.999998
51
-89.999999
0
POLYLINE
5
68f
100
AcDbEntity
8
1
6
CONTINUOUS
62
5
100
AcDb2dPolyline
66
1
10
0.0
20
0.0
30
0.0
70
0
0
VERTEX
5
690
100
AcDbEntity
8
1
100
AcDbVertex
100
AcDb2dVertex
62
5
10
123.608176
20
148.000000
0
VERTEX
5
691
100
AcDbEntity
8
1
100
AcDbVertex
100
AcDb2dVertex
62
5
10
123.608176
20
130.800000
0
VERTEX
5
692
100
AcDbEntity
8
1
100
AcDbVertex
100
AcDb2dVertex
62
5
10
101.908176
20
130.800000
0
VERTEX
5
693
100
AcDbEntity
8
1
100
AcDbVertex
100
AcDb2dVertex
62
5
10
101.908176
20
148.000000
0
SEQEND
5
694
100
AcDbEntity
8
1
0
ARC
5
695
100
AcDbEntity
8
1
100
AcDbCircle
6
CONTINUOUS
62
5
10
101.758176
20
150.150000
40
2.000000
100
AcDbArc
50
-89.999999
51
-0.000000
0
POLYLINE
5
696
100
AcDbEntity
8
1
6
CONTINUOUS
62
5
100
AcDb2dPolyline
66
1
10
0.0
20
0.0
30
0.0
70
0
0
VERTEX
5
697
100
AcDbEntity
8
1
100
AcDbVertex
100
AcDb2dVertex
62
5
10
101.758176
20
148.150000
0
VERTEX
5
698
100
AcDbEntity
8
1
100
AcDbVertex
100
AcDb2dVertex
62
5
10
101.758176
20
130.650000
0
VERTEX
5
699
100
AcDbEntity
8
1
100
AcDbVertex
100
AcDb2dVertex
62
5
10
123.758176
20
130.650000
0
VERTEX
5
69a
100
AcDbEntity
8
1
100
AcDbVertex
100
AcDb2dVertex
62
5
10
123.758176
20
148.150000
0
SEQEND
5
69b
100
AcDbEntity
8
1
0
ARC
5
69c
100
AcDbEntity
8
1
100
AcDbCircle
6
CONTINUOUS
62
5
10
123.758176
20
150.150000
40
2.000000
100
AcDbArc
50
179.999998
51
-89.999999
0
LINE
5
69d
100
AcDbEntity
8
1
100
AcDbLine
6
CONTINUOUS
62
5
10
121.758176
20
150.150000
11
103.758176
21
150.150000
0
LINE
5
69e
100
AcDbEntity
8
1
100
AcDbLine
6
DOT2
62
5
10
63.783181
20
151.875000
11
64.408181
21
151.250000
0
POLYLINE
5
69f
100
AcDbEntity
8
1
6
DOT2
62
5
100
AcDb2dPolyline
66
1
10
0.0
20
0.0
30
0.0
70
0
0
VERTEX
5
6a0
100
AcDbEntity
8
1
100
AcDbVertex
100
AcDb2dVertex
62
5
10
63.783181
20
151.250000
0
VERTEX
5
6a1
100
AcDbEntity
8
1
100
AcDbVertex
100
AcDb2dVertex
62
5
10
64.408181
20
151.875000
0
VERTEX
5
6a2
100
AcDbEntity
8
1
100
AcDbVertex
100
AcDb2dVertex
62
5
10
64.408181
20
151.250000
0
VERTEX
5
6a3
100
AcDbEntity
8
1
100
AcDbVertex
100
AcDb2dVertex
62
5
10
63.783181
20
151.250000
0
VERTEX
5
6a4
100
AcDbEntity
8
1
100
AcDbVertex
100
AcDb2dVertex
62
5
10
63.783181
20
151.875000
0
VERTEX
5
6a5
100
AcDbEntity
8
1
100
AcDbVertex
100
AcDb2dVertex
62
5
10
64.408181
20
151.875000
0
SEQEND
5
6a6
100
AcDbEntity
8
1
0
POLYLINE
5
6a7
100
AcDbEntity
8
1
6
DOT2
62
5
100
AcDb2dPolyline
66
1
10
0.0
20
0.0
30
0.0
70
1
0
VERTEX
5
6a8
100
AcDbEntity
8
1
100
AcDbVertex
100
AcDb2dVertex
62
5
10
56.908181
20
157.500000
0
VERTEX
5
6a9
100
AcDbEntity
8
1
100
AcDbVertex
100
AcDb2dVertex
62
5
10
56.908181
20
158.125000
0
VERTEX
5
6aa
100
AcDbEntity
8
1
100
AcDbVertex
100
AcDb2dVertex
62
5
10
57.220681
20
158.750000
0
VERTEX
5
6ab
100
AcDbEntity
8
1
100
AcDbVertex
100
AcDb2dVertex
62
5
10
57.845681
20
159.062500
0
VERTEX
5
6ac
100
AcDbEntity
8
1
100
AcDbVertex
100
AcDb2dVertex
62
5
10
59.095681
20
159.062500
0
VERTEX
5
6ad
100
AcDbEntity
8
1
100
AcDbVertex
100
AcDb2dVertex
62
5
10
59.720681
20
158.750000
0
VERTEX
5
6ae
100
AcDbEntity
8
1
100
AcDbVertex
100
AcDb2dVertex
62
5
10
60.970681
20
156.875000
0
VERTEX
5
6af
100
AcDbEntity
8
1
100
AcDbVertex
100
AcDb2dVertex
62
5
10
61.908181
20
156.250000
0
VERTEX
5
6b0
100
AcDbEntity
8
1
100
AcDbVertex
100
AcDb2dVertex
62
5
10
63.158181
20
156.250000
0
VERTEX
5
6b1
100
AcDbEntity
8
1
100
AcDbVertex
100
AcDb2dVertex
62
5
10
63.783181
20
156.562500
0
VERTEX
5
6b2
100
AcDbEntity
8
1
100
AcDbVertex
100
AcDb2dVertex
62
5
10
64.095681
20
156.875000
0
VERTEX
5
6b3
100
AcDbEntity
8
1
100
AcDbVertex
100
AcDb2dVertex
62
5
10
64.408181
20
157.500000
0
VERTEX
5
6b4
100
AcDbEntity
8
1
100
AcDbVertex
100
AcDb2dVertex
62
5
10
64.408181
20
158.125000
0
VERTEX
5
6b5
100
AcDbEntity
8
1
100
AcDbVertex
100
AcDb2dVertex
62
5
10
64.095681
20
158.750000
0
VERTEX
5
6b6
100
AcDbEntity
8
1
100
AcDbVertex
100
AcDb2dVertex
62
5
10
63.783181
20
159.062500
0
VERTEX
5
6b7
100
AcDbEntity
8
1
100
AcDbVertex
100
AcDb2dVertex
62
5
10
63.158181
20
159.375000
0
VERTEX
5
6b8
100
AcDbEntity
8
1
100
AcDbVertex
100
AcDb2dVertex
62
5
10
61.908181
20
159.375000
0
VERTEX
5
6b9
100
AcDbEntity
8
1
100
AcDbVertex
100
AcDb2dVertex
62
5
10
60.970681
20
158.750000
0
VERTEX
5
6ba
100
AcDbEntity
8
1
100
AcDbVertex
100
AcDb2dVertex
62
5
10
59.720681
20
156.875000
0
VERTEX
5
6bb
100
AcDbEntity
8
1
100
AcDbVertex
100
AcDb2dVertex
62
5
10
59.095681
20
156.562500
0
VERTEX
5
6bc
100
AcDbEntity
8
1
100
AcDbVertex
100
AcDb2dVertex
62
5
10
57.845681
20
156.562500
0
VERTEX
5
6bd
100
AcDbEntity
8
1
100
AcDbVertex
100
AcDb2dVertex
62
5
10
57.220681
20
156.875000
0
VERTEX
5
6be
100
AcDbEntity
8
1
100
AcDbVertex
100
AcDb2dVertex
62
5
10
56.908181
20
157.500000
0
SEQEND
5
6bf
100
AcDbEntity
8
1
0
POLYLINE
5
6c0
100
AcDbEntity
8
1
6
DOT2
62
5
100
AcDb2dPolyline
66
1
10
0.0
20
0.0
30
0.0
70
0
0
VERTEX
5
6c1
100
AcDbEntity
8
1
100
AcDbVertex
100
AcDb2dVertex
62
5
10
56.908181
20
143.750000
0
VERTEX
5
6c2
100
AcDbEntity
8
1
100
AcDbVertex
100
AcDb2dVertex
62
5
10
62.533181
20
140.937500
0
VERTEX
5
6c3
100
AcDbEntity
8
1
100
AcDbVertex
100
AcDb2dVertex
62
5
10
62.533181
20
144.687500
0
SEQEND
5
6c4
100
AcDbEntity
8
1
0
LINE
5
6c5
100
AcDbEntity
8
1
100
AcDbLine
6
DOT2
62
5
10
56.908181
20
143.750000
11
64.408181
21
143.750000
0
LINE
5
6c6
100
AcDbEntity
8
1
100
AcDbLine
6
DOT2
62
5
10
64.408181
20
143.125000
11
64.408181
21
144.375000
0
LINE
5
6c7
100
AcDbEntity
8
1
100
AcDbLine
6
DOT2
62
5
10
56.908181
20
146.250000
11
56.908181
21
149.062500
0
POLYLINE
5
6c8
100
AcDbEntity
8
1
6
DOT2
62
5
100
AcDb2dPolyline
66
1
10
0.0
20
0.0
30
0.0
70
0
0
VERTEX
5
6c9
100
AcDbEntity
8
1
100
AcDbVertex
100
AcDb2dVertex
62
5
10
56.908181
20
146.250000
0
VERTEX
5
6ca
100
AcDbEntity
8
1
100
AcDbVertex
100
AcDb2dVertex
62
5
10
60.658181
20
146.250000
0
VERTEX
5
6cb
100
AcDbEntity
8
1
100
AcDbVertex
100
AcDb2dVertex
62
5
10
60.033181
20
146.875000
0
VERTEX
5
6cc
100
AcDbEntity
8
1
100
AcDbVertex
100
AcDb2dVertex
62
5
10
59.720681
20
147.500000
0
VERTEX
5
6cd
100
AcDbEntity
8
1
100
AcDbVertex
100
AcDb2dVertex
62
5
10
59.720681
20
148.437500
0
VERTEX
5
6ce
100
AcDbEntity
8
1
100
AcDbVertex
100
AcDb2dVertex
62
5
10
60.033181
20
149.062500
0
VERTEX
5
6cf
100
AcDbEntity
8
1
100
AcDbVertex
100
AcDb2dVertex
62
5
10
60.970681
20
149.375000
0
VERTEX
5
6d0
100
AcDbEntity
8
1
100
AcDbVertex
100
AcDb2dVertex
62
5
10
62.845681
20
149.375000
0
VERTEX
5
6d1
100
AcDbEntity
8
1
100
AcDbVertex
100
AcDb2dVertex
62
5
10
63.783181
20
148.750000
0
VERTEX
5
6d2
100
AcDbEntity
8
1
100
AcDbVertex
100
AcDb2dVertex
62
5
10
64.408181
20
147.812500
0
VERTEX
5
6d3
100
AcDbEntity
8
1
100
AcDbVertex
100
AcDb2dVertex
62
5
10
64.408181
20
146.250000
0
SEQEND
5
6d4
100
AcDbEntity
8
1
0
POLYLINE
5
6d5
100
AcDbEntity
8
1
6
CONTINUOUS
62
5
100
AcDb2dPolyline
66
1
10
0.0
20
0.0
30
0.0
70
0
0
VERTEX
5
6d6
100
AcDbEntity
8
1
100
AcDbVertex
100
AcDb2dVertex
62
5
10
145.625000
20
40.500000
0
VERTEX
5
6d7
100
AcDbEntity
8
1
100
AcDbVertex
100
AcDb2dVertex
62
5
10
146.250000
20
40.500000
0
VERTEX
5
6d8
100
AcDbEntity
8
1
100
AcDbVertex
100
AcDb2dVertex
62
5
10
146.250000
20
39.875000
0
VERTEX
5
6d9
100
AcDbEntity
8
1
100
AcDbVertex
100
AcDb2dVertex
62
5
10
145.625000
20
39.875000
0
VERTEX
5
6da
100
AcDbEntity
8
1
100
AcDbVertex
100
AcDb2dVertex
62
5
10
145.625000
20
40.500000
0
VERTEX
5
6db
100
AcDbEntity
8
1
100
AcDbVertex
100
AcDb2dVertex
62
5
10
146.250000
20
39.875000
0
SEQEND
5
6dc
100
AcDbEntity
8
1
0
LINE
5
6dd
100
AcDbEntity
8
1
100
AcDbLine
6
CONTINUOUS
62
5
10
146.250000
20
40.500000
11
145.625000
21
39.875000
0
POLYLINE
5
6de
100
AcDbEntity
8
1
6
CONTINUOUS
62
5
100
AcDb2dPolyline
66
1
10
0.0
20
0.0
30
0.0
70
0
0
VERTEX
5
6df
100
AcDbEntity
8
1
100
AcDbVertex
100
AcDb2dVertex
62
5
10
145.625000
20
35.812500
0
VERTEX
5
6e0
100
AcDbEntity
8
1
100
AcDbVertex
100
AcDb2dVertex
62
5
10
146.250000
20
35.812500
0
VERTEX
5
6e1
100
AcDbEntity
8
1
100
AcDbVertex
100
AcDb2dVertex
62
5
10
146.250000
20
35.187500
0
VERTEX
5
6e2
100
AcDbEntity
8
1
100
AcDbVertex
100
AcDb2dVertex
62
5
10
145.625000
20
35.187500
0
VERTEX
5
6e3
100
AcDbEntity
8
1
100
AcDbVertex
100
AcDb2dVertex
62
5
10
145.625000
20
35.812500
0
VERTEX
5
6e4
100
AcDbEntity
8
1
100
AcDbVertex
100
AcDb2dVertex
62
5
10
146.250000
20
35.187500
0
SEQEND
5
6e5
100
AcDbEntity
8
1
0
LINE
5
6e6
100
AcDbEntity
8
1
100
AcDbLine
6
CONTINUOUS
62
5
10
146.250000
20
35.812500
11
145.625000
21
35.187500
0
POLYLINE
5
6e7
100
AcDbEntity
8
1
6
CONTINUOUS
62
5
100
AcDb2dPolyline
66
1
10
0.0
20
0.0
30
0.0
70
1
0
VERTEX
5
6e8
100
AcDbEntity
8
1
100
AcDbVertex
100
AcDb2dVertex
62
5
10
132.500000
20
42.062500
0
VERTEX
5
6e9
100
AcDbEntity
8
1
100
AcDbVertex
100
AcDb2dVertex
62
5
10
132.500000
20
39.250000
0
VERTEX
5
6ea
100
AcDbEntity
8
1
100
AcDbVertex
100
AcDb2dVertex
62
5
10
135.000000
20
39.250000
0
VERTEX
5
6eb
100
AcDbEntity
8
1
100
AcDbVertex
100
AcDb2dVertex
62
5
10
135.000000
20
42.062500
0
VERTEX
5
6ec
100
AcDbEntity
8
1
100
AcDbVertex
100
AcDb2dVertex
62
5
10
132.500000
20
42.062500
0
SEQEND
5
6ed
100
AcDbEntity
8
1
0
LINE
5
6ee
100
AcDbEntity
8
1
100
AcDbLine
6
CONTINUOUS
62
5
10
133.750000
20
39.250000
11
133.750000
21
34.562500
0
LINE
5
6ef
100
AcDbEntity
8
1
100
AcDbLine
6
CONTINUOUS
62
5
10
133.750000
20
37.375000
11
135.000000
21
37.375000
0
LINE
5
6f0
100
AcDbEntity
8
1
100
AcDbLine
6
CONTINUOUS
62
5
10
132.500000
20
37.687500
11
132.500000
21
34.250000
0
LINE
5
6f1
100
AcDbEntity
8
1
100
AcDbLine
6
CONTINUOUS
62
5
10
131.875000
20
33.937500
11
135.312500
21
34.875000
0
POLYLINE
5
6f2
100
AcDbEntity
8
1
6
CONTINUOUS
62
5
100
AcDb2dPolyline
66
1
10
0.0
20
0.0
30
0.0
70
0
0
VERTEX
5
6f3
100
AcDbEntity
8
1
100
AcDbVertex
100
AcDb2dVertex
62
5
10
137.500000
20
42.375000
0
VERTEX
5
6f4
100
AcDbEntity
8
1
100
AcDbVertex
100
AcDb2dVertex
62
5
10
137.187500
20
41.437500
0
VERTEX
5
6f5
100
AcDbEntity
8
1
100
AcDbVertex
100
AcDb2dVertex
62
5
10
136.562500
20
40.500000
0
VERTEX
5
6f6
100
AcDbEntity
8
1
100
AcDbVertex
100
AcDb2dVertex
62
5
10
135.625000
20
39.562500
0
SEQEND
5
6f7
100
AcDbEntity
8
1
0
POLYLINE
5
6f8
100
AcDbEntity
8
1
6
CONTINUOUS
62
5
100
AcDb2dPolyline
66
1
10
0.0
20
0.0
30
0.0
70
0
0
VERTEX
5
6f9
100
AcDbEntity
8
1
100
AcDbVertex
100
AcDb2dVertex
62
5
10
137.187500
20
41.437500
0
VERTEX
5
6fa
100
AcDbEntity
8
1
100
AcDbVertex
100
AcDb2dVertex
62
5
10
139.687500
20
41.437500
0
VERTEX
5
6fb
100
AcDbEntity
8
1
100
AcDbVertex
100
AcDb2dVertex
62
5
10
138.750000
20
39.562500
0
VERTEX
5
6fc
100
AcDbEntity
8
1
100
AcDbVertex
100
AcDb2dVertex
62
5
10
137.812500
20
38.312500
0
VERTEX
5
6fd
100
AcDbEntity
8
1
100
AcDbVertex
100
AcDb2dVertex
62
5
10
136.875000
20
37.375000
0
VERTEX
5
6fe
100
AcDbEntity
8
1
100
AcDbVertex
100
AcDb2dVertex
62
5
10
135.625000
20
36.437500
0
SEQEND
5
6ff
100
AcDbEntity
8
1
0
POLYLINE
5
700
100
AcDbEntity
8
1
6
CONTINUOUS
62
5
100
AcDb2dPolyline
66
1
10
0.0
20
0.0
30
0.0
70
0
0
VERTEX
5
701
100
AcDbEntity
8
1
100
AcDbVertex
100
AcDb2dVertex
62
5
10
136.875000
20
40.812500
0
VERTEX
5
702
100
AcDbEntity
8
1
100
AcDbVertex
100
AcDb2dVertex
62
5
10
137.812500
20
39.562500
0
VERTEX
5
703
100
AcDbEntity
8
1
100
AcDbVertex
100
AcDb2dVertex
62
5
10
139.062500
20
38.312500
0
VERTEX
5
704
100
AcDbEntity
8
1
100
AcDbVertex
100
AcDb2dVertex
62
5
10
140.625000
20
37.062500
0
SEQEND
5
705
100
AcDbEntity
8
1
0
POLYLINE
5
706
100
AcDbEntity
8
1
6
CONTINUOUS
62
5
100
AcDb2dPolyline
66
1
10
0.0
20
0.0
30
0.0
70
1
0
VERTEX
5
707
100
AcDbEntity
8
1
100
AcDbVertex
100
AcDb2dVertex
62
5
10
136.562500
20
37.062500
0
VERTEX
5
708
100
AcDbEntity
8
1
100
AcDbVertex
100
AcDb2dVertex
62
5
10
136.562500
20
33.937500
0
VERTEX
5
709
100
AcDbEntity
8
1
100
AcDbVertex
100
AcDb2dVertex
62
5
10
140.000000
20
33.937500
0
VERTEX
5
70a
100
AcDbEntity
8
1
100
AcDbVertex
100
AcDb2dVertex
62
5
10
140.000000
20
37.062500
0
VERTEX
5
70b
100
AcDbEntity
8
1
100
AcDbVertex
100
AcDb2dVertex
62
5
10
136.562500
20
37.062500
0
SEQEND
5
70c
100
AcDbEntity
8
1
0
POLYLINE
5
70d
100
AcDbEntity
8
1
6
CONTINUOUS
62
5
100
AcDb2dPolyline
66
1
10
0.0
20
0.0
30
0.0
70
0
0
VERTEX
5
70e
100
AcDbEntity
8
1
100
AcDbVertex
100
AcDb2dVertex
62
5
10
114.687500
20
41.437500
0
VERTEX
5
70f
100
AcDbEntity
8
1
100
AcDbVertex
100
AcDb2dVertex
62
5
10
114.375000
20
38.937500
0
VERTEX
5
710
100
AcDbEntity
8
1
100
AcDbVertex
100
AcDb2dVertex
62
5
10
114.375000
20
36.750000
0
VERTEX
5
711
100
AcDbEntity
8
1
100
AcDbVertex
100
AcDb2dVertex
62
5
10
114.375000
20
34.562500
0
SEQEND
5
712
100
AcDbEntity
8
1
0
POLYLINE
5
713
100
AcDbEntity
8
1
6
CONTINUOUS
62
5
100
AcDb2dPolyline
66
1
10
0.0
20
0.0
30
0.0
70
0
0
VERTEX
5
714
100
AcDbEntity
8
1
100
AcDbVertex
100
AcDb2dVertex
62
5
10
112.812500
20
38.625000
0
VERTEX
5
715
100
AcDbEntity
8
1
100
AcDbVertex
100
AcDb2dVertex
62
5
10
115.312500
20
39.562500
0
VERTEX
5
716
100
AcDbEntity
8
1
100
AcDbVertex
100
AcDb2dVertex
62
5
10
112.812500
20
35.187500
0
VERTEX
5
717
100
AcDbEntity
8
1
100
AcDbVertex
100
AcDb2dVertex
62
5
10
114.062500
20
37.062500
0
VERTEX
5
718
100
AcDbEntity
8
1
100
AcDbVertex
100
AcDb2dVertex
62
5
10
115.312500
20
38.625000
0
VERTEX
5
719
100
AcDbEntity
8
1
100
AcDbVertex
100
AcDb2dVertex
62
5
10
116.250000
20
39.562500
0
VERTEX
5
71a
100
AcDbEntity
8
1
100
AcDbVertex
100
AcDb2dVertex
62
5
10
117.187500
20
39.875000
0
VERTEX
5
71b
100
AcDbEntity
8
1
100
AcDbVertex
100
AcDb2dVertex
62
5
10
117.812500
20
39.875000
0
VERTEX
5
71c
100
AcDbEntity
8
1
100
AcDbVertex
100
AcDb2dVertex
62
5
10
118.125000
20
39.250000
0
VERTEX
5
71d
100
AcDbEntity
8
1
100
AcDbVertex
100
AcDb2dVertex
62
5
10
118.125000
20
38.625000
0
VERTEX
5
71e
100
AcDbEntity
8
1
100
AcDbVertex
100
AcDb2dVertex
62
5
10
117.812500
20
35.812500
0
VERTEX
5
71f
100
AcDbEntity
8
1
100
AcDbVertex
100
AcDb2dVertex
62
5
10
118.125000
20
35.187500
0
VERTEX
5
720
100
AcDbEntity
8
1
100
AcDbVertex
100
AcDb2dVertex
62
5
10
119.062500
20
35.187500
0
VERTEX
5
721
100
AcDbEntity
8
1
100
AcDbVertex
100
AcDb2dVertex
62
5
10
120.000000
20
36.437500
0
SEQEND
5
722
100
AcDbEntity
8
1
0
POLYLINE
5
723
100
AcDbEntity
8
1
6
CONTINUOUS
62
5
100
AcDb2dPolyline
66
1
10
0.0
20
0.0
30
0.0
70
1
0
VERTEX
5
724
100
AcDbEntity
8
1
100
AcDbVertex
100
AcDb2dVertex
62
5
10
122.187500
20
41.437500
0
VERTEX
5
725
100
AcDbEntity
8
1
100
AcDbVertex
100
AcDb2dVertex
62
5
10
130.000000
20
41.437500
0
VERTEX
5
726
100
AcDbEntity
8
1
100
AcDbVertex
100
AcDb2dVertex
62
5
10
130.000000
20
33.625000
0
VERTEX
5
727
100
AcDbEntity
8
1
100
AcDbVertex
100
AcDb2dVertex
62
5
10
122.187500
20
33.625000
0
VERTEX
5
728
100
AcDbEntity
8
1
100
AcDbVertex
100
AcDb2dVertex
62
5
10
122.187500
20
41.437500
0
SEQEND
5
729
100
AcDbEntity
8
1
0
POLYLINE
5
72a
100
AcDbEntity
8
1
6
CONTINUOUS
62
5
100
AcDb2dPolyline
66
1
10
0.0
20
0.0
30
0.0
70
1
0
VERTEX
5
72b
100
AcDbEntity
8
1
100
AcDbVertex
100
AcDb2dVertex
62
5
10
124.375000
20
39.250000
0
VERTEX
5
72c
100
AcDbEntity
8
1
100
AcDbVertex
100
AcDb2dVertex
62
5
10
127.812500
20
39.250000
0
VERTEX
5
72d
100
AcDbEntity
8
1
100
AcDbVertex
100
AcDb2dVertex
62
5
10
127.812500
20
35.500000
0
VERTEX
5
72e
100
AcDbEntity
8
1
100
AcDbVertex
100
AcDb2dVertex
62
5
10
124.375000
20
35.500000
0
VERTEX
5
72f
100
AcDbEntity
8
1
100
AcDbVertex
100
AcDb2dVertex
62
5
10
124.375000
20
39.250000
0
SEQEND
5
730
100
AcDbEntity
8
1
0
POLYLINE
5
731
100
AcDbEntity
8
1
6
CONTINUOUS
62
5
100
AcDb2dPolyline
66
1
10
0.0
20
0.0
30
0.0
70
0
0
VERTEX
5
732
100
AcDbEntity
8
1
100
AcDbVertex
100
AcDb2dVertex
62
5
10
104.687500
20
40.187500
0
VERTEX
5
733
100
AcDbEntity
8
1
100
AcDbVertex
100
AcDb2dVertex
62
5
10
110.000000
20
40.187500
0
VERTEX
5
734
100
AcDbEntity
8
1
100
AcDbVertex
100
AcDb2dVertex
62
5
10
110.000000
20
42.062500
0
VERTEX
5
735
100
AcDbEntity
8
1
100
AcDbVertex
100
AcDb2dVertex
62
5
10
104.687500
20
42.062500
0
VERTEX
5
736
100
AcDbEntity
8
1
100
AcDbVertex
100
AcDb2dVertex
62
5
10
104.687500
20
36.750000
0
VERTEX
5
737
100
AcDbEntity
8
1
100
AcDbVertex
100
AcDb2dVertex
62
5
10
103.750000
20
35.187500
0
SEQEND
5
738
100
AcDbEntity
8
1
0
LINE
5
739
100
AcDbEntity
8
1
100
AcDbLine
6
CONTINUOUS
62
5
10
106.875000
20
39.875000
11
107.500000
21
38.937500
0
LINE
5
73a
100
AcDbEntity
8
1
100
AcDbLine
6
CONTINUOUS
62
5
10
109.375000
20
39.875000
11
108.750000
21
38.937500
0
LINE
5
73b
100
AcDbEntity
8
1
100
AcDbLine
6
CONTINUOUS
62
5
10
105.625000
20
38.625000
11
110.312500
21
38.625000
0
LINE
5
73c
100
AcDbEntity
8
1
100
AcDbLine
6
CONTINUOUS
62
5
10
105.937500
20
37.375000
11
109.687500
21
37.375000
0
LINE
5
73d
100
AcDbEntity
8
1
100
AcDbLine
6
CONTINUOUS
62
5
10
105.000000
20
36.125000
11
110.625000
21
36.125000
0
LINE
5
73e
100
AcDbEntity
8
1
100
AcDbLine
6
CONTINUOUS
62
5
10
108.125000
20
38.625000
11
108.125000
21
34.250000
0
LINE
5
73f
100
AcDbEntity
8
1
100
AcDbLine
6
CONTINUOUS
62
5
10
102.187500
20
41.750000
11
103.437500
21
40.500000
0
POLYLINE
5
740
100
AcDbEntity
8
1
6
CONTINUOUS
62
5
100
AcDb2dPolyline
66
1
10
0.0
20
0.0
30
0.0
70
0
0
VERTEX
5
741
100
AcDbEntity
8
1
100
AcDbVertex
100
AcDb2dVertex
62
5
10
101.562500
20
38.000000
0
VERTEX
5
742
100
AcDbEntity
8
1
100
AcDbVertex
100
AcDb2dVertex
62
5
10
103.125000
20
38.000000
0
VERTEX
5
743
100
AcDbEntity
8
1
100
AcDbVertex
100
AcDb2dVertex
62
5
10
103.125000
20
35.187500
0
VERTEX
5
744
100
AcDbEntity
8
1
100
AcDbVertex
100
AcDb2dVertex
62
5
10
101.562500
20
33.937500
0
SEQEND
5
745
100
AcDbEntity
8
1
0
POLYLINE
5
746
100
AcDbEntity
8
1
6
CONTINUOUS
62
5
100
AcDb2dPolyline
66
1
10
0.0
20
0.0
30
0.0
70
0
0
VERTEX
5
747
100
AcDbEntity
8
1
100
AcDbVertex
100
AcDb2dVertex
62
5
10
103.125000
20
35.187500
0
VERTEX
5
748
100
AcDbEntity
8
1
100
AcDbVertex
100
AcDb2dVertex
62
5
10
104.375000
20
34.250000
0
VERTEX
5
749
100
AcDbEntity
8
1
100
AcDbVertex
100
AcDb2dVertex
62
5
10
110.312500
20
33.625000
0
SEQEND
5
74a
100
AcDbEntity
8
1
0
LINE
5
74b
100
AcDbEntity
8
1
100
AcDbLine
6
CONTINUOUS
62
5
10
144.062500
20
26.312500
11
144.375000
21
25.062500
0
LINE
5
74c
100
AcDbEntity
8
1
100
AcDbLine
6
CONTINUOUS
62
5
10
145.937500
20
26.625000
11
146.250000
21
25.375000
0
POLYLINE
5
74d
100
AcDbEntity
8
1
6
CONTINUOUS
62
5
100
AcDb2dPolyline
66
1
10
0.0
20
0.0
30
0.0
70
0
0
VERTEX
5
74e
100
AcDbEntity
8
1
100
AcDbVertex
100
AcDb2dVertex
62
5
10
148.437500
20
26.625000
0
VERTEX
5
74f
100
AcDbEntity
8
1
100
AcDbVertex
100
AcDb2dVertex
62
5
10
148.125000
20
25.062500
0
VERTEX
5
750
100
AcDbEntity
8
1
100
AcDbVertex
100
AcDb2dVertex
62
5
10
146.562500
20
23.187500
0
VERTEX
5
751
100
AcDbEntity
8
1
100
AcDbVertex
100
AcDb2dVertex
62
5
10
145.312500
20
22.250000
0
SEQEND
5
752
100
AcDbEntity
8
1
0
POLYLINE
5
753
100
AcDbEntity
8
1
6
CONTINUOUS
62
5
100
AcDb2dPolyline
66
1
10
0.0
20
0.0
30
0.0
70
0
0
VERTEX
5
754
100
AcDbEntity
8
1
100
AcDbVertex
100
AcDb2dVertex
62
5
10
138.437500
20
29.437500
0
VERTEX
5
755
100
AcDbEntity
8
1
100
AcDbVertex
100
AcDb2dVertex
62
5
10
135.937500
20
26.937500
0
VERTEX
5
756
100
AcDbEntity
8
1
100
AcDbVertex
100
AcDb2dVertex
62
5
10
133.125000
20
25.375000
0
SEQEND
5
757
100
AcDbEntity
8
1
0
LINE
5
758
100
AcDbEntity
8
1
100
AcDbLine
6
CONTINUOUS
62
5
10
136.562500
20
27.562500
11
136.562500
21
22.250000
0
POLYLINE
5
759
100
AcDbEntity
8
1
6
CONTINUOUS
62
5
100
AcDb2dPolyline
66
1
10
0.0
20
0.0
30
0.0
70
0
0
VERTEX
5
75a
100
AcDbEntity
8
1
100
AcDbVertex
100
AcDb2dVertex
62
5
10
123.750000
20
27.875000
0
VERTEX
5
75b
100
AcDbEntity
8
1
100
AcDbVertex
100
AcDb2dVertex
62
5
10
127.812500
20
27.875000
0
VERTEX
5
75c
100
AcDbEntity
8
1
100
AcDbVertex
100
AcDb2dVertex
62
5
10
127.812500
20
27.562500
0
VERTEX
5
75d
100
AcDbEntity
8
1
100
AcDbVertex
100
AcDb2dVertex
62
5
10
127.187500
20
26.312500
0
VERTEX
5
75e
100
AcDbEntity
8
1
100
AcDbVertex
100
AcDb2dVertex
62
5
10
126.562500
20
25.375000
0
VERTEX
5
75f
100
AcDbEntity
8
1
100
AcDbVertex
100
AcDb2dVertex
62
5
10
125.312500
20
24.125000
0
VERTEX
5
760
100
AcDbEntity
8
1
100
AcDbVertex
100
AcDb2dVertex
62
5
10
123.125000
20
22.562500
0
SEQEND
5
761
100
AcDbEntity
8
1
0
LINE
5
762
100
AcDbEntity
8
1
100
AcDbLine
6
CONTINUOUS
62
5
10
126.562500
20
25.375000
11
129.062500
21
22.562500
0
POLYLINE
5
763
100
AcDbEntity
8
1
6
CONTINUOUS
62
5
100
AcDb2dPolyline
66
1
10
0.0
20
0.0
30
0.0
70
0
0
VERTEX
5
764
100
AcDbEntity
8
1
100
AcDbVertex
100
AcDb2dVertex
62
5
10
111.562500
20
27.250000
0
VERTEX
5
765
100
AcDbEntity
8
1
100
AcDbVertex
100
AcDb2dVertex
62
5
10
113.437500
20
27.562500
0
VERTEX
5
766
100
AcDbEntity
8
1
100
AcDbVertex
100
AcDb2dVertex
62
5
10
115.000000
20
28.187500
0
SEQEND
5
767
100
AcDbEntity
8
1
0
POLYLINE
5
768
100
AcDbEntity
8
1
6
CONTINUOUS
62
5
100
AcDb2dPolyline
66
1
10
0.0
20
0.0
30
0.0
70
0
0
VERTEX
5
769
100
AcDbEntity
8
1
100
AcDbVertex
100
AcDb2dVertex
62
5
10
112.812500
20
30.062500
0
VERTEX
5
76a
100
AcDbEntity
8
1
100
AcDbVertex
100
AcDb2dVertex
62
5
10
112.812500
20
24.437500
0
VERTEX
5
76b
100
AcDbEntity
8
1
100
AcDbVertex
100
AcDb2dVertex
62
5
10
113.437500
20
23.812500
0
VERTEX
5
76c
100
AcDbEntity
8
1
100
AcDbVertex
100
AcDb2dVertex
62
5
10
115.000000
20
23.812500
0
VERTEX
5
76d
100
AcDbEntity
8
1
100
AcDbVertex
100
AcDb2dVertex
62
5
10
115.312500
20
25.062500
0
SEQEND
5
76e
100
AcDbEntity
8
1
0
POLYLINE
5
76f
100
AcDbEntity
8
1
6
CONTINUOUS
62
5
100
AcDb2dPolyline
66
1
10
0.0
20
0.0
30
0.0
70
0
0
VERTEX
5
770
100
AcDbEntity
8
1
100
AcDbVertex
100
AcDb2dVertex
62
5
10
116.875000
20
29.125000
0
VERTEX
5
771
100
AcDbEntity
8
1
100
AcDbVertex
100
AcDb2dVertex
62
5
10
116.875000
20
25.375000
0
VERTEX
5
772
100
AcDbEntity
8
1
100
AcDbVertex
100
AcDb2dVertex
62
5
10
116.250000
20
23.812500
0
VERTEX
5
773
100
AcDbEntity
8
1
100
AcDbVertex
100
AcDb2dVertex
62
5
10
115.312500
20
22.562500
0
VERTEX
5
774
100
AcDbEntity
8
1
100
AcDbVertex
100
AcDb2dVertex
62
5
10
113.750000
20
21.625000
0
SEQEND
5
775
100
AcDbEntity
8
1
0
POLYLINE
5
776
100
AcDbEntity
8
1
6
CONTINUOUS
62
5
100
AcDb2dPolyline
66
1
10
0.0
20
0.0
30
0.0
70
0
0
VERTEX
5
777
100
AcDbEntity
8
1
100
AcDbVertex
100
AcDb2dVertex
62
5
10
115.000000
20
29.125000
0
VERTEX
5
778
100
AcDbEntity
8
1
100
AcDbVertex
100
AcDb2dVertex
62
5
10
119.687500
20
29.125000
0
VERTEX
5
779
100
AcDbEntity
8
1
100
AcDbVertex
100
AcDb2dVertex
62
5
10
119.687500
20
23.812500
0
VERTEX
5
77a
100
AcDbEntity
8
1
100
AcDbVertex
100
AcDb2dVertex
62
5
10
119.375000
20
22.875000
0
VERTEX
5
77b
100
AcDbEntity
8
1
100
AcDbVertex
100
AcDb2dVertex
62
5
10
118.750000
20
22.562500
0
VERTEX
5
77c
100
AcDbEntity
8
1
100
AcDbVertex
100
AcDb2dVertex
62
5
10
117.500000
20
22.562500
0
SEQEND
5
77d
100
AcDbEntity
8
1
0
POLYLINE
5
77e
100
AcDbEntity
8
1
6
CONTINUOUS
62
5
100
AcDb2dPolyline
66
1
10
0.0
20
0.0
30
0.0
70
0
0
VERTEX
5
77f
100
AcDbEntity
8
1
100
AcDbVertex
100
AcDb2dVertex
62
5
10
103.437500
20
30.062500
0
VERTEX
5
780
100
AcDbEntity
8
1
100
AcDbVertex
100
AcDb2dVertex
62
5
10
103.437500
20
24.750000
0
VERTEX
5
781
100
AcDbEntity
8
1
100
AcDbVertex
100
AcDb2dVertex
62
5
10
102.812500
20
22.875000
0
VERTEX
5
782
100
AcDbEntity
8
1
100
AcDbVertex
100
AcDb2dVertex
62
5
10
101.875000
20
21.625000
0
SEQEND
5
783
100
AcDbEntity
8
1
0
LINE
5
784
100
AcDbEntity
8
1
100
AcDbLine
6
CONTINUOUS
62
5
10
103.437500
20
27.875000
11
110.312500
21
27.875000
0
LINE
5
785
100
AcDbEntity
8
1
100
AcDbLine
6
CONTINUOUS
62
5
10
106.875000
20
30.375000
11
106.875000
21
27.875000
0
POLYLINE
5
786
100
AcDbEntity
8
1
6
CONTINUOUS
62
5
100
AcDb2dPolyline
66
1
10
0.0
20
0.0
30
0.0
70
0
0
VERTEX
5
787
100
AcDbEntity
8
1
100
AcDbVertex
100
AcDb2dVertex
62
5
10
103.437500
20
25.375000
0
VERTEX
5
788
100
AcDbEntity
8
1
100
AcDbVertex
100
AcDb2dVertex
62
5
10
107.812500
20
25.375000
0
VERTEX
5
789
100
AcDbEntity
8
1
100
AcDbVertex
100
AcDb2dVertex
62
5
10
107.812500
20
21.312500
0
SEQEND
5
78a
100
AcDbEntity
8
1
0
LINE
5
78b
100
AcDbEntity
8
1
100
AcDbLine
6
CONTINUOUS
62
5
10
90.000000
20
44.000000
11
90.000000
21
20.000000
0
LINE
5
78c
100
AcDbEntity
8
1
100
AcDbLine
6
CONTINUOUS
62
5
10
70.625000
20
34.187500
11
73.750000
21
34.187500
0
LINE
5
78d
100
AcDbEntity
8
1
100
AcDbLine
6
CONTINUOUS
62
5
10
72.500000
20
36.375000
11
72.500000
21
27.625000
0
POLYLINE
5
78e
100
AcDbEntity
8
1
6
CONTINUOUS
62
5
100
AcDb2dPolyline
66
1
10
0.0
20
0.0
30
0.0
70
0
0
VERTEX
5
78f
100
AcDbEntity
8
1
100
AcDbVertex
100
AcDb2dVertex
62
5
10
72.500000
20
34.187500
0
VERTEX
5
790
100
AcDbEntity
8
1
100
AcDbVertex
100
AcDb2dVertex
62
5
10
71.562500
20
32.000000
0
VERTEX
5
791
100
AcDbEntity
8
1
100
AcDbVertex
100
AcDb2dVertex
62
5
10
70.625000
20
30.750000
0
SEQEND
5
792
100
AcDbEntity
8
1
0
LINE
5
793
100
AcDbEntity
8
1
100
AcDbLine
6
CONTINUOUS
62
5
10
72.500000
20
33.250000
11
73.437500
21
32.000000
0
POLYLINE
5
794
100
AcDbEntity
8
1
6
CONTINUOUS
62
5
100
AcDb2dPolyline
66
1
10
0.0
20
0.0
30
0.0
70
0
0
VERTEX
5
795
100
AcDbEntity
8
1
100
AcDbVertex
100
AcDb2dVertex
62
5
10
75.937500
20
36.375000
0
VERTEX
5
796
100
AcDbEntity
8
1
100
AcDbVertex
100
AcDb2dVertex
62
5
10
75.312500
20
35.125000
0
VERTEX
5
797
100
AcDbEntity
8
1
100
AcDbVertex
100
AcDb2dVertex
62
5
10
73.750000
20
33.250000
0
SEQEND
5
798
100
AcDbEntity
8
1
0
POLYLINE
5
799
100
AcDbEntity
8
1
6
CONTINUOUS
62
5
100
AcDb2dPolyline
66
1
10
0.0
20
0.0
30
0.0
70
0
0
VERTEX
5
79a
100
AcDbEntity
8
1
100
AcDbVertex
100
AcDb2dVertex
62
5
10
75.312500
20
35.125000
0
VERTEX
5
79b
100
AcDbEntity
8
1
100
AcDbVertex
100
AcDb2dVertex
62
5
10
78.437500
20
35.125000
0
VERTEX
5
79c
100
AcDbEntity
8
1
100
AcDbVertex
100
AcDb2dVertex
62
5
10
77.500000
20
33.562500
0
VERTEX
5
79d
100
AcDbEntity
8
1
100
AcDbVertex
100
AcDb2dVertex
62
5
10
75.937500
20
32.000000
0
VERTEX
5
79e
100
AcDbEntity
8
1
100
AcDbVertex
100
AcDb2dVertex
62
5
10
73.750000
20
30.750000
0
SEQEND
5
79f
100
AcDbEntity
8
1
0
POLYLINE
5
7a0
100
AcDbEntity
8
1
6
CONTINUOUS
62
5
100
AcDb2dPolyline
66
1
10
0.0
20
0.0
30
0.0
70
0
0
VERTEX
5
7a1
100
AcDbEntity
8
1
100
AcDbVertex
100
AcDb2dVertex
62
5
10
75.312500
20
35.125000
0
VERTEX
5
7a2
100
AcDbEntity
8
1
100
AcDbVertex
100
AcDb2dVertex
62
5
10
75.937500
20
33.562500
0
VERTEX
5
7a3
100
AcDbEntity
8
1
100
AcDbVertex
100
AcDb2dVertex
62
5
10
77.187500
20
32.000000
0
VERTEX
5
7a4
100
AcDbEntity
8
1
100
AcDbVertex
100
AcDb2dVertex
62
5
10
78.125000
20
31.375000
0
VERTEX
5
7a5
100
AcDbEntity
8
1
100
AcDbVertex
100
AcDb2dVertex
62
5
10
79.375000
20
30.750000
0
SEQEND
5
7a6
100
AcDbEntity
8
1
0
POLYLINE
5
7a7
100
AcDbEntity
8
1
6
CONTINUOUS
62
5
100
AcDb2dPolyline
66
1
10
0.0
20
0.0
30
0.0
70
1
0
VERTEX
5
7a8
100
AcDbEntity
8
1
100
AcDbVertex
100
AcDb2dVertex
62
5
10
75.000000
20
30.750000
0
VERTEX
5
7a9
100
AcDbEntity
8
1
100
AcDbVertex
100
AcDb2dVertex
62
5
10
75.000000
20
27.937500
0
VERTEX
5
7aa
100
AcDbEntity
8
1
100
AcDbVertex
100
AcDb2dVertex
62
5
10
78.437500
20
27.937500
0
VERTEX
5
7ab
100
AcDbEntity
8
1
100
AcDbVertex
100
AcDb2dVertex
62
5
10
78.437500
20
30.750000
0
VERTEX
5
7ac
100
AcDbEntity
8
1
100
AcDbVertex
100
AcDb2dVertex
62
5
10
75.000000
20
30.750000
0
SEQEND
5
7ad
100
AcDbEntity
8
1
0
LINE
5
7ae
100
AcDbEntity
8
1
100
AcDbLine
6
CONTINUOUS
62
5
10
54.687500
20
36.375000
11
54.687500
21
35.437500
0
POLYLINE
5
7af
100
AcDbEntity
8
1
6
CONTINUOUS
62
5
100
AcDb2dPolyline
66
1
10
0.0
20
0.0
30
0.0
70
0
0
VERTEX
5
7b0
100
AcDbEntity
8
1
100
AcDbVertex
100
AcDb2dVertex
62
5
10
50.937500
20
33.250000
0
VERTEX
5
7b1
100
AcDbEntity
8
1
100
AcDbVertex
100
AcDb2dVertex
62
5
10
50.937500
20
35.437500
0
VERTEX
5
7b2
100
AcDbEntity
8
1
100
AcDbVertex
100
AcDb2dVertex
62
5
10
58.437500
20
35.437500
0
VERTEX
5
7b3
100
AcDbEntity
8
1
100
AcDbVertex
100
AcDb2dVertex
62
5
10
58.437500
20
33.250000
0
SEQEND
5
7b4
100
AcDbEntity
8
1
0
LINE
5
7b5
100
AcDbEntity
8
1
100
AcDbLine
6
CONTINUOUS
62
5
10
51.875000
20
33.562500
11
57.500000
21
33.562500
0
LINE
5
7b6
100
AcDbEntity
8
1
100
AcDbLine
6
CONTINUOUS
62
5
10
54.687500
20
33.562500
11
54.687500
21
28.250000
0
LINE
5
7b7
100
AcDbEntity
8
1
100
AcDbLine
6
CONTINUOUS
62
5
10
54.687500
20
31.062500
11
57.500000
21
31.062500
0
POLYLINE
5
7b8
100
AcDbEntity
8
1
6
CONTINUOUS
62
5
100
AcDb2dPolyline
66
1
10
0.0
20
0.0
30
0.0
70
0
0
VERTEX
5
7b9
100
AcDbEntity
8
1
100
AcDbVertex
100
AcDb2dVertex
62
5
10
52.500000
20
31.687500
0
VERTEX
5
7ba
100
AcDbEntity
8
1
100
AcDbVertex
100
AcDb2dVertex
62
5
10
52.187500
20
29.812500
0
VERTEX
5
7bb
100
AcDbEntity
8
1
100
AcDbVertex
100
AcDb2dVertex
62
5
10
51.562500
20
28.562500
0
VERTEX
5
7bc
100
AcDbEntity
8
1
100
AcDbVertex
100
AcDb2dVertex
62
5
10
50.625000
20
27.625000
0
SEQEND
5
7bd
100
AcDbEntity
8
1
0
POLYLINE
5
7be
100
AcDbEntity
8
1
6
CONTINUOUS
62
5
100
AcDb2dPolyline
66
1
10
0.0
20
0.0
30
0.0
70
0
0
VERTEX
5
7bf
100
AcDbEntity
8
1
100
AcDbVertex
100
AcDb2dVertex
62
5
10
52.187500
20
29.812500
0
VERTEX
5
7c0
100
AcDbEntity
8
1
100
AcDbVertex
100
AcDb2dVertex
62
5
10
54.687500
20
28.250000
0
VERTEX
5
7c1
100
AcDbEntity
8
1
100
AcDbVertex
100
AcDb2dVertex
62
5
10
55.937500
20
27.937500
0
VERTEX
5
7c2
100
AcDbEntity
8
1
100
AcDbVertex
100
AcDb2dVertex
62
5
10
59.062500
20
27.625000
0
SEQEND
5
7c3
100
AcDbEntity
8
1
0
POLYLINE
5
7c4
100
AcDbEntity
8
1
6
CONTINUOUS
62
5
100
AcDb2dPolyline
66
1
10
0.0
20
0.0
30
0.0
70
1
0
VERTEX
5
7c5
100
AcDbEntity
8
1
100
AcDbVertex
100
AcDb2dVertex
62
5
10
280.000000
20
20.000000
0
VERTEX
5
7c6
100
AcDbEntity
8
1
100
AcDbVertex
100
AcDb2dVertex
62
5
10
280.000000
20
44.000000
0
VERTEX
5
7c7
100
AcDbEntity
8
1
100
AcDbVertex
100
AcDb2dVertex
62
5
10
40.000000
20
44.000000
0
VERTEX
5
7c8
100
AcDbEntity
8
1
100
AcDbVertex
100
AcDb2dVertex
62
5
10
40.000000
20
20.000000
0
VERTEX
5
7c9
100
AcDbEntity
8
1
100
AcDbVertex
100
AcDb2dVertex
62
5
10
280.000000
20
20.000000
0
SEQEND
5
7ca
100
AcDbEntity
8
1
0
LINE
5
7cb
100
AcDbEntity
8
1
100
AcDbLine
6
CONTINUOUS
62
5
10
101.250000
20
336.750000
11
101.250000
21
331.000000
0
POLYLINE
5
7cc
100
AcDbEntity
8
1
6
CONTINUOUS
62
5
100
AcDb2dPolyline
66
1
10
0.0
20
0.0
30
0.0
70
0
0
VERTEX
5
7cd
100
AcDbEntity
8
1
100
AcDbVertex
100
AcDb2dVertex
62
5
10
101.250000
20
334.500000
0
VERTEX
5
7ce
100
AcDbEntity
8
1
100
AcDbVertex
100
AcDb2dVertex
62
5
10
101.500000
20
334.500000
0
VERTEX
5
7cf
100
AcDbEntity
8
1
100
AcDbVertex
100
AcDb2dVertex
62
5
10
103.000000
20
333.750000
0
SEQEND
5
7d0
100
AcDbEntity
8
1
0
LINE
5
7d1
100
AcDbEntity
8
1
100
AcDbLine
6
CONTINUOUS
62
5
10
103.250000
20
336.250000
11
103.750000
21
335.750000
0
LINE
5
7d2
100
AcDbEntity
8
1
100
AcDbLine
6
CONTINUOUS
62
5
10
104.250000
20
336.750000
11
104.750000
21
336.250000
0
POLYLINE
5
7d3
100
AcDbEntity
8
1
6
CONTINUOUS
62
5
100
AcDb2dPolyline
66
1
10
0.0
20
0.0
30
0.0
70
0
0
VERTEX
5
7d4
100
AcDbEntity
8
1
100
AcDbVertex
100
AcDb2dVertex
62
5
10
107.750000
20
336.000000
0
VERTEX
5
7d5
100
AcDbEntity
8
1
100
AcDbVertex
100
AcDb2dVertex
62
5
10
107.750000
20
331.750000
0
VERTEX
5
7d6
100
AcDbEntity
8
1
100
AcDbVertex
100
AcDb2dVertex
62
5
10
108.250000
20
331.250000
0
VERTEX
5
7d7
100
AcDbEntity
8
1
100
AcDbVertex
100
AcDb2dVertex
62
5
10
112.000000
20
331.250000
0
SEQEND
5
7d8
100
AcDbEntity
8
1
0
LINE
5
7d9
100
AcDbEntity
8
1
100
AcDbLine
6
CONTINUOUS
62
5
10
111.000000
20
334.500000
11
107.750000
21
333.750000
0
LINE
5
7da
100
AcDbEntity
8
1
100
AcDbLine
6
CONTINUOUS
62
5
10
111.250000
20
335.750000
11
112.000000
21
335.000000
0
LINE
5
7db
100
AcDbEntity
8
1
100
AcDbLine
6
CONTINUOUS
62
5
10
112.000000
20
336.500000
11
112.750000
21
335.750000
0
POLYLINE
5
7dc
100
AcDbEntity
8
1
6
CONTINUOUS
62
5
100
AcDb2dPolyline
66
1
10
0.0
20
0.0
30
0.0
70
0
0
VERTEX
5
7dd
100
AcDbEntity
8
1
100
AcDbVertex
100
AcDb2dVertex
62
5
10
87.750000
20
336.750000
0
VERTEX
5
7de
100
AcDbEntity
8
1
100
AcDbVertex
100
AcDb2dVertex
62
5
10
85.750000
20
334.750000
0
VERTEX
5
7df
100
AcDbEntity
8
1
100
AcDbVertex
100
AcDb2dVertex
62
5
10
83.500000
20
333.500000
0
SEQEND
5
7e0
100
AcDbEntity
8
1
0
LINE
5
7e1
100
AcDbEntity
8
1
100
AcDbLine
6
CONTINUOUS
62
5
10
86.250000
20
335.250000
11
86.250000
21
331.000000
0
POLYLINE
5
7e2
100
AcDbEntity
8
1
6
CONTINUOUS
62
5
100
AcDb2dPolyline
66
1
10
0.0
20
0.0
30
0.0
70
0
0
VERTEX
5
7e3
100
AcDbEntity
8
1
100
AcDbVertex
100
AcDb2dVertex
62
5
10
92.500000
20
336.250000
0
VERTEX
5
7e4
100
AcDbEntity
8
1
100
AcDbVertex
100
AcDb2dVertex
62
5
10
92.500000
20
334.750000
0
VERTEX
5
7e5
100
AcDbEntity
8
1
100
AcDbVertex
100
AcDb2dVertex
62
5
10
92.250000
20
333.500000
0
VERTEX
5
7e6
100
AcDbEntity
8
1
100
AcDbVertex
100
AcDb2dVertex
62
5
10
91.750000
20
332.500000
0
VERTEX
5
7e7
100
AcDbEntity
8
1
100
AcDbVertex
100
AcDb2dVertex
62
5
10
91.000000
20
331.500000
0
VERTEX
5
7e8
100
AcDbEntity
8
1
100
AcDbVertex
100
AcDb2dVertex
62
5
10
90.750000
20
331.250000
0
SEQEND
5
7e9
100
AcDbEntity
8
1
0
POLYLINE
5
7ea
100
AcDbEntity
8
1
6
CONTINUOUS
62
5
100
AcDb2dPolyline
66
1
10
0.0
20
0.0
30
0.0
70
0
0
VERTEX
5
7eb
100
AcDbEntity
8
1
100
AcDbVertex
100
AcDb2dVertex
62
5
10
94.000000
20
336.500000
0
VERTEX
5
7ec
100
AcDbEntity
8
1
100
AcDbVertex
100
AcDb2dVertex
62
5
10
94.000000
20
331.500000
0
VERTEX
5
7ed
100
AcDbEntity
8
1
100
AcDbVertex
100
AcDb2dVertex
62
5
10
94.750000
20
331.750000
0
VERTEX
5
7ee
100
AcDbEntity
8
1
100
AcDbVertex
100
AcDb2dVertex
62
5
10
95.750000
20
332.500000
0
VERTEX
5
7ef
100
AcDbEntity
8
1
100
AcDbVertex
100
AcDb2dVertex
62
5
10
96.500000
20
333.250000
0
VERTEX
5
7f0
100
AcDbEntity
8
1
100
AcDbVertex
100
AcDb2dVertex
62
5
10
97.000000
20
334.000000
0
SEQEND
5
7f1
100
AcDbEntity
8
1
0
POLYLINE
5
7f2
100
AcDbEntity
8
1
6
CONTINUOUS
62
5
100
AcDb2dPolyline
66
1
10
0.0
20
0.0
30
0.0
70
0
0
VERTEX
5
7f3
100
AcDbEntity
8
1
100
AcDbVertex
100
AcDb2dVertex
62
5
10
114.750000
20
334.250000
0
VERTEX
5
7f4
100
AcDbEntity
8
1
100
AcDbVertex
100
AcDb2dVertex
62
5
10
115.000000
20
334.000000
0
VERTEX
5
7f5
100
AcDbEntity
8
1
100
AcDbVertex
100
AcDb2dVertex
62
5
10
121.750000
20
334.000000
0
SEQEND
5
7f6
100
AcDbEntity
8
1
0
POLYLINE
5
7f7
100
AcDbEntity
8
1
6
CONTINUOUS
62
5
100
AcDb2dPolyline
66
1
10
0.0
20
0.0
30
0.0
70
0
0
VERTEX
5
7f8
100
AcDbEntity
8
1
100
AcDbVertex
100
AcDb2dVertex
62
5
10
66.750000
20
334.250000
0
VERTEX
5
7f9
100
AcDbEntity
8
1
100
AcDbVertex
100
AcDb2dVertex
62
5
10
67.000000
20
334.000000
0
VERTEX
5
7fa
100
AcDbEntity
8
1
100
AcDbVertex
100
AcDb2dVertex
62
5
10
73.750000
20
334.000000
0
SEQEND
5
7fb
100
AcDbEntity
8
1
0
LINE
5
7fc
100
AcDbEntity
8
1
100
AcDbLine
6
CONTINUOUS
62
5
10
52.000000
20
335.500000
11
55.500000
21
335.500000
0
LINE
5
7fd
100
AcDbEntity
8
1
100
AcDbLine
6
CONTINUOUS
62
5
10
51.000000
20
332.250000
11
56.500000
21
332.250000
0
POLYLINE
5
7fe
100
AcDbEntity
8
1
6
CONTINUOUS
62
5
100
AcDb2dPolyline
66
1
10
0.0
20
0.0
30
0.0
70
0
0
VERTEX
5
7ff
100
AcDbEntity
8
1
100
AcDbVertex
100
AcDb2dVertex
62
5
10
60.500000
20
334.250000
0
VERTEX
5
800
100
AcDbEntity
8
1
100
AcDbVertex
100
AcDb2dVertex
62
5
10
62.500000
20
334.250000
0
VERTEX
5
801
100
AcDbEntity
8
1
100
AcDbVertex
100
AcDb2dVertex
62
5
10
62.250000
20
331.750000
0
SEQEND
5
802
100
AcDbEntity
8
1
0
LINE
5
803
100
AcDbEntity
8
1
100
AcDbLine
6
CONTINUOUS
62
5
10
59.750000
20
331.750000
11
64.000000
21
331.750000
0
LINE
5
804
100
AcDbEntity
8
1
100
AcDbLine
6
CONTINUOUS
62
5
10
40.000000
20
340.000000
11
40.000000
21
308.000000
0
POLYLINE
5
805
100
AcDbEntity
8
1
6
CONTINUOUS
62
5
100
AcDb2dPolyline
66
1
10
0.0
20
0.0
30
0.0
70
0
0
VERTEX
5
806
100
AcDbEntity
8
1
100
AcDbVertex
100
AcDb2dVertex
62
5
10
74.750000
20
335.250000
0
VERTEX
5
807
100
AcDbEntity
8
1
100
AcDbVertex
100
AcDb2dVertex
62
5
10
79.750000
20
335.500000
0
VERTEX
5
808
100
AcDbEntity
8
1
100
AcDbVertex
100
AcDb2dVertex
62
5
10
80.250000
20
335.000000
0
VERTEX
5
809
100
AcDbEntity
8
1
100
AcDbVertex
100
AcDb2dVertex
62
5
10
79.000000
20
333.750000
0
VERTEX
5
80a
100
AcDbEntity
8
1
100
AcDbVertex
100
AcDb2dVertex
62
5
10
77.750000
20
332.500000
0
SEQEND
5
80b
100
AcDbEntity
8
1
0
POLYLINE
5
80c
100
AcDbEntity
8
1
6
CONTINUOUS
62
5
100
AcDb2dPolyline
66
1
10
0.0
20
0.0
30
0.0
70
0
0
VERTEX
5
80d
100
AcDbEntity
8
1
100
AcDbVertex
100
AcDb2dVertex
62
5
10
76.500000
20
333.500000
0
VERTEX
5
80e
100
AcDbEntity
8
1
100
AcDbVertex
100
AcDb2dVertex
62
5
10
77.750000
20
332.500000
0
VERTEX
5
80f
100
AcDbEntity
8
1
100
AcDbVertex
100
AcDb2dVertex
62
5
10
78.250000
20
331.750000
0
SEQEND
5
810
100
AcDbEntity
8
1
0
LINE
5
811
100
AcDbEntity
8
1
100
AcDbLine
6
CONTINUOUS
62
5
10
0.000000
20
308.000000
11
320.000000
21
308.000000
0
ARC
5
812
100
AcDbEntity
8
1
100
AcDbCircle
6
CONTINUOUS
62
5
10
202.441819
20
165.500000
40
0.500000
100
AcDbArc
50
-179.999998
51
-89.999999
0
POLYLINE
5
813
100
AcDbEntity
8
1
6
CONTINUOUS
62
5
100
AcDb2dPolyline
66
1
10
0.0
20
0.0
30
0.0
70
0
0
VERTEX
5
814
100
AcDbEntity
8
1
100
AcDbVertex
100
AcDb2dVertex
62
5
10
202.541819
20
156.500000
0
VERTEX
5
815
100
AcDbEntity
8
1
100
AcDbVertex
100
AcDb2dVertex
62
5
10
202.541819
20
165.000000
0
VERTEX
5
816
100
AcDbEntity
8
1
100
AcDbVertex
100
AcDb2dVertex
62
5
10
202.441819
20
165.000000
0
SEQEND
5
817
100
AcDbEntity
8
1
0
ARC
5
818
100
AcDbEntity
8
1
100
AcDbCircle
6
CONTINUOUS
62
5
10
192.384213
20
163.956153
40
0.053936
100
AcDbArc
50
122.013629
51
139.804092
0
ARC
5
819
100
AcDbEntity
8
1
100
AcDbCircle
6
CONTINUOUS
62
5
10
192.369957
20
163.979623
40
0.026479
100
AcDbArc
50
57.220468
51
122.779530
0
ARC
5
81a
100
AcDbEntity
8
1
100
AcDbCircle
6
CONTINUOUS
62
5
10
192.358551
20
163.959443
40
0.049639
100
AcDbArc
50
39.418805
51
58.763471
0
ARC
5
81b
100
AcDbEntity
8
1
100
AcDbCircle
6
CONTINUOUS
62
5
10
192.292662
20
163.903989
40
0.135756
100
AcDbArc
50
25.415894
51
39.841454
0
LINE
5
81c
100
AcDbEntity
8
1
100
AcDbLine
6
CONTINUOUS
62
5
10
192.415279
20
163.962253
11
192.446135
21
163.873380
0
ARC
5
81d
100
AcDbEntity
8
1
100
AcDbCircle
6
CONTINUOUS
62
5
10
191.403084
20
163.608782
40
1.076088
100
AcDbArc
50
10.617382
51
14.234336
0
ARC
5
81e
100
AcDbEntity
8
1
100
AcDbCircle
6
CONTINUOUS
62
5
10
190.782039
20
163.492284
40
1.707966
100
AcDbArc
50
7.529928
51
10.619949
0
ARC
5
81f
100
AcDbEntity
8
1
100
AcDbCircle
6
CONTINUOUS
62
5
10
189.963228
20
163.385529
40
2.533706
100
AcDbArc
50
4.445585
51
7.496785
0
ARC
5
820
100
AcDbEntity
8
1
100
AcDbCircle
6
CONTINUOUS
62
5
10
189.292415
20
163.331109
40
3.206720
100
AcDbArc
50
2.447009
51
4.485965
0
ARC
5
821
100
AcDbEntity
8
1
100
AcDbCircle
6
CONTINUOUS
62
5
10
188.865157
20
163.312133
40
3.634398
100
AcDbArc
50
-0.018880
51
2.458311
0
LINE
5
822
100
AcDbEntity
8
1
100
AcDbLine
6
CONTINUOUS
62
5
10
192.499555
20
163.310935
11
192.499567
21
159.689067
0
ARC
5
823
100
AcDbEntity
8
1
100
AcDbCircle
6
CONTINUOUS
62
5
10
188.865157
20
159.687867
40
3.634410
100
AcDbArc
50
-2.458311
51
0.018916
0
ARC
5
824
100
AcDbEntity
8
1
100
AcDbCircle
6
CONTINUOUS
62
5
10
189.292415
20
159.668891
40
3.206720
100
AcDbArc
50
-4.485965
51
-2.447009
0
ARC
5
825
100
AcDbEntity
8
1
100
AcDbCircle
6
CONTINUOUS
62
5
10
189.963228
20
159.614471
40
2.533706
100
AcDbArc
50
-7.496785
51
-4.445585
0
ARC
5
826
100
AcDbEntity
8
1
100
AcDbCircle
6
CONTINUOUS
62
5
10
190.782039
20
159.507716
40
1.707966
100
AcDbArc
50
-10.619949
51
-7.529928
0
ARC
5
827
100
AcDbEntity
8
1
100
AcDbCircle
6
CONTINUOUS
62
5
10
191.403084
20
159.391218
40
1.076088
100
AcDbArc
50
-14.234336
51
-10.617382
0
ARC
5
828
100
AcDbEntity
8
1
100
AcDbCircle
6
CONTINUOUS
62
5
10
191.825559
20
159.283482
40
0.640094
100
AcDbArc
50
-18.472762
51
-14.185445
0
ARC
5
829
100
AcDbEntity
8
1
100
AcDbCircle
6
CONTINUOUS
62
5
10
192.109194
20
159.186763
40
0.340432
100
AcDbArc
50
-25.958951
51
-18.158936
0
ARC
5
82a
100
AcDbEntity
8
1
100
AcDbCircle
6
CONTINUOUS
62
5
10
192.292662
20
159.096011
40
0.135756
100
AcDbArc
50
-39.841454
51
-25.415894
0
ARC
5
82b
100
AcDbEntity
8
1
100
AcDbCircle
6
CONTINUOUS
62
5
10
192.355700
20
159.043847
40
0.053936
100
AcDbArc
50
-57.986369
51
-40.195906
0
ARC
5
82c
100
AcDbEntity
8
1
100
AcDbCircle
6
CONTINUOUS
62
5
10
192.370063
20
159.020017
40
0.026119
100
AcDbArc
50
-90.232084
51
-56.988383
0
ARC
5
82d
100
AcDbEntity
8
1
100
AcDbCircle
6
CONTINUOUS
62
5
10
192.369851
20
159.020017
40
0.026119
100
AcDbArc
50
-123.011615
51
-89.767914
0
ARC
5
82e
100
AcDbEntity
8
1
100
AcDbCircle
6
CONTINUOUS
62
5
10
192.384213
20
159.043847
40
0.053936
100
AcDbArc
50
-139.804092
51
-122.013629
0
ARC
5
82f
100
AcDbEntity
8
1
100
AcDbCircle
6
CONTINUOUS
62
5
10
192.447251
20
159.096011
40
0.135756
100
AcDbArc
50
-154.584104
51
-140.158545
0
ARC
5
830
100
AcDbEntity
8
1
100
AcDbCircle
6
CONTINUOUS
62
5
10
192.630719
20
159.186763
40
0.340432
100
AcDbArc
50
-161.841062
51
-154.041048
0
ARC
5
831
100
AcDbEntity
8
1
100
AcDbCircle
6
CONTINUOUS
62
5
10
192.914355
20
159.283482
40
0.640094
100
AcDbArc
50
-165.814553
51
-161.527236
0
ARC
5
832
100
AcDbEntity
8
1
100
AcDbCircle
6
CONTINUOUS
62
5
10
193.336829
20
159.391218
40
1.076088
100
AcDbArc
50
-169.382617
51
-165.765663
0
ARC
5
833
100
AcDbEntity
8
1
100
AcDbCircle
6
CONTINUOUS
62
5
10
193.957875
20
159.507716
40
1.707966
100
AcDbArc
50
-172.470070
51
-169.380049
0
ARC
5
834
100
AcDbEntity
8
1
100
AcDbCircle
6
CONTINUOUS
62
5
10
194.776685
20
159.614471
40
2.533706
100
AcDbArc
50
-175.554414
51
-172.503213
0
ARC
5
835
100
AcDbEntity
8
1
100
AcDbCircle
6
CONTINUOUS
62
5
10
195.447499
20
159.668891
40
3.206720
100
AcDbArc
50
-177.552989
51
-175.514034
0
ARC
5
836
100
AcDbEntity
8
1
100
AcDbCircle
6
CONTINUOUS
62
5
10
195.874757
20
159.687867
40
3.634398
100
AcDbArc
50
179.981119
51
-177.541687
0
LINE
5
837
100
AcDbEntity
8
1
100
AcDbLine
6
CONTINUOUS
62
5
10
192.240359
20
159.689065
11
192.240359
21
163.310935
0
ARC
5
838
100
AcDbEntity
8
1
100
AcDbCircle
6
CONTINUOUS
62
5
10
195.874757
20
163.312133
40
3.634398
100
AcDbArc
50
177.372210
51
-179.981119
0
ARC
5
839
100
AcDbEntity
8
1
100
AcDbCircle
6
CONTINUOUS
62
5
10
195.146584
20
163.348145
40
2.905341
100
AcDbArc
50
172.724016
51
177.423274
0
ARC
5
83a
100
AcDbEntity
8
1
100
AcDbCircle
6
CONTINUOUS
62
5
10
193.957868
20
163.492285
40
1.707959
100
AcDbArc
50
169.375666
51
172.470073
0
ARC
5
83b
100
AcDbEntity
8
1
100
AcDbCircle
6
CONTINUOUS
62
5
10
193.206958
20
163.634697
40
0.943666
100
AcDbArc
50
162.444525
51
169.468320
0
ARC
5
83c
100
AcDbEntity
8
1
100
AcDbCircle
6
CONTINUOUS
62
5
10
192.630719
20
163.813237
40
0.340432
100
AcDbArc
50
153.320700
51
161.841062
0
ARC
5
83d
100
AcDbEntity
8
1
100
AcDbCircle
6
CONTINUOUS
62
5
10
192.447251
20
163.903989
40
0.135756
100
AcDbArc
50
140.158545
51
152.777644
0
ARC
5
83e
100
AcDbEntity
8
1
100
AcDbCircle
6
CONTINUOUS
62
5
10
192.368440
20
164.856505
40
0.043521
100
AcDbArc
50
50.830723
51
87.993532
0
ARC
5
83f
100
AcDbEntity
8
1
100
AcDbCircle
6
CONTINUOUS
62
5
10
192.322161
20
164.798867
40
0.117439
100
AcDbArc
50
29.483996
51
51.087156
0
ARC
5
840
100
AcDbEntity
8
1
100
AcDbCircle
6
CONTINUOUS
62
5
10
192.059616
20
164.642664
40
0.422917
100
AcDbArc
50
17.590583
51
30.399066
0
ARC
5
841
100
AcDbEntity
8
1
100
AcDbCircle
6
CONTINUOUS
62
5
10
190.909725
20
164.271549
40
1.631208
100
AcDbArc
50
9.424789
51
17.810106
0
ARC
5
842
100
AcDbEntity
8
1
100
AcDbCircle
6
CONTINUOUS
62
5
10
187.584122
20
163.691244
40
5.007023
100
AcDbArc
50
3.278006
51
9.743996
0
ARC
5
843
100
AcDbEntity
8
1
100
AcDbCircle
6
CONTINUOUS
62
5
10
182.511919
20
163.316628
40
10.092698
100
AcDbArc
50
-0.032319
51
3.754705
0
LINE
5
844
100
AcDbEntity
8
1
100
AcDbLine
6
CONTINUOUS
62
5
10
192.604615
20
163.310935
11
192.604615
21
159.689065
0
ARC
5
845
100
AcDbEntity
8
1
100
AcDbCircle
6
CONTINUOUS
62
5
10
182.511919
20
159.683372
40
10.092698
100
AcDbArc
50
-3.754705
51
0.032319
0
ARC
5
846
100
AcDbEntity
8
1
100
AcDbCircle
6
CONTINUOUS
62
5
10
187.584122
20
159.308756
40
5.007023
100
AcDbArc
50
-9.743996
51
-3.278006
0
ARC
5
847
100
AcDbEntity
8
1
100
AcDbCircle
6
CONTINUOUS
62
5
10
190.909725
20
158.728451
40
1.631208
100
AcDbArc
50
-17.810106
51
-9.424789
0
ARC
5
848
100
AcDbEntity
8
1
100
AcDbCircle
6
CONTINUOUS
62
5
10
192.059616
20
158.357336
40
0.422917
100
AcDbArc
50
-30.399066
51
-17.590583
0
ARC
5
849
100
AcDbEntity
8
1
100
AcDbCircle
6
CONTINUOUS
62
5
10
192.322161
20
158.201133
40
0.117439
100
AcDbArc
50
-51.087156
51
-29.483996
0
ARC
5
84a
100
AcDbEntity
8
1
100
AcDbCircle
6
CONTINUOUS
62
5
10
192.368440
20
158.143495
40
0.043521
100
AcDbArc
50
-87.993532
51
-50.830723
0
ARC
5
84b
100
AcDbEntity
8
1
100
AcDbCircle
6
CONTINUOUS
62
5
10
192.371487
20
158.143495
40
0.043521
100
AcDbArc
50
-129.169275
51
-92.006467
0
ARC
5
84c
100
AcDbEntity
8
1
100
AcDbCircle
6
CONTINUOUS
62
5
10
192.417766
20
158.201133
40
0.117439
100
AcDbArc
50
-150.516003
51
-128.912842
0
ARC
5
84d
100
AcDbEntity
8
1
100
AcDbCircle
6
CONTINUOUS
62
5
10
192.680311
20
158.357336
40
0.422917
100
AcDbArc
50
-162.409416
51
-149.600933
0
ARC
5
84e
100
AcDbEntity
8
1
100
AcDbCircle
6
CONTINUOUS
62
5
10
193.830202
20
158.728451
40
1.631208
100
AcDbArc
50
-170.575209
51
-162.189892
0
ARC
5
84f
100
AcDbEntity
8
1
100
AcDbCircle
6
CONTINUOUS
62
5
10
197.155805
20
159.308756
40
5.007023
100
AcDbArc
50
-176.721993
51
-170.256002
0
ARC
5
850
100
AcDbEntity
8
1
100
AcDbCircle
6
CONTINUOUS
62
5
10
202.228008
20
159.683372
40
10.092698
100
AcDbArc
50
179.967679
51
-176.245293
0
LINE
5
851
100
AcDbEntity
8
1
100
AcDbLine
6
CONTINUOUS
62
5
10
192.135312
20
159.689065
11
192.135312
21
163.310935
0
ARC
5
852
100
AcDbEntity
8
1
100
AcDbCircle
6
CONTINUOUS
62
5
10
202.228008
20
163.316628
40
10.092698
100
AcDbArc
50
176.245293
51
-179.967679
0
ARC
5
853
100
AcDbEntity
8
1
100
AcDbCircle
6
CONTINUOUS
62
5
10
197.155805
20
163.691244
40
5.007023
100
AcDbArc
50
170.256002
51
176.721993
0
ARC
5
854
100
AcDbEntity
8
1
100
AcDbCircle
6
CONTINUOUS
62
5
10
193.830202
20
164.271549
40
1.631208
100
AcDbArc
50
162.189892
51
170.575209
0
ARC
5
855
100
AcDbEntity
8
1
100
AcDbCircle
6
CONTINUOUS
62
5
10
192.680311
20
164.642664
40
0.422917
100
AcDbArc
50
149.600933
51
162.409416
0
ARC
5
856
100
AcDbEntity
8
1
100
AcDbCircle
6
CONTINUOUS
62
5
10
192.417766
20
164.798867
40
0.117439
100
AcDbArc
50
128.912842
51
150.516003
0
ARC
5
857
100
AcDbEntity
8
1
100
AcDbCircle
6
CONTINUOUS
62
5
10
192.371487
20
164.856505
40
0.043521
100
AcDbArc
50
92.006467
51
129.169275
0
ARC
5
858
100
AcDbEntity
8
1
100
AcDbCircle
6
CONTINUOUS
62
5
10
192.594228
20
164.856505
40
0.043521
100
AcDbArc
50
50.830723
51
87.993532
0
ARC
5
859
100
AcDbEntity
8
1
100
AcDbCircle
6
CONTINUOUS
62
5
10
192.547948
20
164.798867
40
0.117439
100
AcDbArc
50
29.483996
51
51.087156
0
ARC
5
85a
100
AcDbEntity
8
1
100
AcDbCircle
6
CONTINUOUS
62
5
10
192.285403
20
164.642664
40
0.422917
100
AcDbArc
50
17.590583
51
30.399066
0
ARC
5
85b
100
AcDbEntity
8
1
100
AcDbCircle
6
CONTINUOUS
62
5
10
191.135512
20
164.271549
40
1.631208
100
AcDbArc
50
9.424789
51
17.810106
0
ARC
5
85c
100
AcDbEntity
8
1
100
AcDbCircle
6
CONTINUOUS
62
5
10
187.809909
20
163.691244
40
5.007023
100
AcDbArc
50
3.278006
51
9.743996
0
ARC
5
85d
100
AcDbEntity
8
1
100
AcDbCircle
6
CONTINUOUS
62
5
10
182.737706
20
163.316628
40
10.092698
100
AcDbArc
50
-0.032319
51
3.754705
0
LINE
5
85e
100
AcDbEntity
8
1
100
AcDbLine
6
CONTINUOUS
62
5
10
192.830402
20
163.310935
11
192.830402
21
159.689065
0
ARC
5
85f
100
AcDbEntity
8
1
100
AcDbCircle
6
CONTINUOUS
62
5
10
182.737706
20
159.683372
40
10.092698
100
AcDbArc
50
-3.754705
51
0.032319
0
ARC
5
860
100
AcDbEntity
8
1
100
AcDbCircle
6
CONTINUOUS
62
5
10
187.809909
20
159.308756
40
5.007023
100
AcDbArc
50
-9.743996
51
-3.278006
0
ARC
5
861
100
AcDbEntity
8
1
100
AcDbCircle
6
CONTINUOUS
62
5
10
191.135512
20
158.728451
40
1.631208
100
AcDbArc
50
-17.810106
51
-9.424789
0
ARC
5
862
100
AcDbEntity
8
1
100
AcDbCircle
6
CONTINUOUS
62
5
10
192.285403
20
158.357336
40
0.422917
100
AcDbArc
50
-30.399066
51
-17.590583
0
ARC
5
863
100
AcDbEntity
8
1
100
AcDbCircle
6
CONTINUOUS
62
5
10
192.547948
20
158.201133
40
0.117439
100
AcDbArc
50
-51.087156
51
-29.483996
0
ARC
5
864
100
AcDbEntity
8
1
100
AcDbCircle
6
CONTINUOUS
62
5
10
192.594228
20
158.143495
40
0.043521
100
AcDbArc
50
-87.993532
51
-50.830723
0
LINE
5
865
100
AcDbEntity
8
1
100
AcDbLine
6
CONTINUOUS
62
5
10
192.595751
20
158.100000
11
192.369957
21
158.100000
0
LINE
5
866
100
AcDbEntity
8
1
100
AcDbLine
6
CONTINUOUS
62
5
10
192.369957
20
164.900000
11
192.595751
21
164.900000
0
ARC
5
867
100
AcDbEntity
8
1
100
AcDbCircle
6
CONTINUOUS
62
5
10
193.468938
20
154.100000
40
0.500000
100
AcDbArc
50
-179.999998
51
-117.016001
0
LINE
5
868
100
AcDbEntity
8
1
100
AcDbLine
6
CONTINUOUS
62
5
10
192.968938
20
154.100000
11
192.968938
21
168.900000
0
ARC
5
869
100
AcDbEntity
8
1
100
AcDbCircle
6
CONTINUOUS
62
5
10
193.468938
20
168.900000
40
0.500000
100
AcDbArc
50
117.016001
51
179.999998
0
ARC
5
86a
100
AcDbEntity
8
1
100
AcDbCircle
6
CONTINUOUS
62
5
10
190.376841
20
155.700000
40
0.200000
100
AcDbArc
50
179.999998
51
-89.999999
0
LINE
5
86b
100
AcDbEntity
8
1
100
AcDbLine
6
CONTINUOUS
62
5
10
190.176841
20
155.700000
11
190.176841
21
167.300000
0
ARC
5
86c
100
AcDbEntity
8
1
100
AcDbCircle
6
CONTINUOUS
62
5
10
190.376841
20
167.300000
40
0.200000
100
AcDbArc
50
89.999999
51
179.999998
0
POLYLINE
5
86d
100
AcDbEntity
8
1
6
CONTINUOUS
62
5
100
AcDb2dPolyline
66
1
10
0.0
20
0.0
30
0.0
70
0
0
VERTEX
5
86e
100
AcDbEntity
8
1
100
AcDbVertex
100
AcDb2dVertex
62
5
10
190.376841
20
167.500000
0
VERTEX
5
86f
100
AcDbEntity
8
1
100
AcDbVertex
100
AcDb2dVertex
62
5
10
192.771552
20
167.500000
0
VERTEX
5
870
100
AcDbEntity
8
1
100
AcDbVertex
100
AcDb2dVertex
62
5
10
192.771552
20
164.363842
0
SEQEND
5
871
100
AcDbEntity
8
1
0
POLYLINE
5
872
100
AcDbEntity
8
1
6
CONTINUOUS
62
5
100
AcDb2dPolyline
66
1
10
0.0
20
0.0
30
0.0
70
0
0
VERTEX
5
873
100
AcDbEntity
8
1
100
AcDbVertex
100
AcDb2dVertex
62
5
10
192.771552
20
158.636158
0
VERTEX
5
874
100
AcDbEntity
8
1
100
AcDbVertex
100
AcDb2dVertex
62
5
10
192.771552
20
155.500000
0
VERTEX
5
875
100
AcDbEntity
8
1
100
AcDbVertex
100
AcDb2dVertex
62
5
10
190.376841
20
155.500000
0
SEQEND
5
876
100
AcDbEntity
8
1
0
ARC
5
877
100
AcDbEntity
8
1
100
AcDbCircle
6
CONTINUOUS
62
5
10
190.358170
20
168.900000
40
0.500000
100
AcDbArc
50
89.999999
51
179.999998
0
LINE
5
878
100
AcDbEntity
8
1
100
AcDbLine
6
CONTINUOUS
62
5
10
190.358170
20
169.400000
11
193.241819
21
169.400000
0
LINE
5
879
100
AcDbEntity
8
1
100
AcDbLine
6
CONTINUOUS
62
5
10
193.241819
20
153.600000
11
190.358170
21
153.600000
0
ARC
5
87a
100
AcDbEntity
8
1
100
AcDbCircle
6
CONTINUOUS
62
5
10
190.358170
20
154.100000
40
0.500000
100
AcDbArc
50
179.999998
51
-89.999999
0
LINE
5
87b
100
AcDbEntity
8
1
100
AcDbLine
6
CONTINUOUS
62
5
10
189.858170
20
154.100000
11
189.858170
21
168.900000
0
ARC
5
87c
100
AcDbEntity
8
1
100
AcDbCircle
6
CONTINUOUS
62
5
10
199.841819
20
164.849996
40
0.300000
100
AcDbArc
50
89.999999
51
179.999998
0
LINE
5
87d
100
AcDbEntity
8
1
100
AcDbLine
6
CONTINUOUS
62
5
10
199.541819
20
164.849996
11
199.541819
21
158.149998
0
ARC
5
87e
100
AcDbEntity
8
1
100
AcDbCircle
6
CONTINUOUS
62
5
10
199.841819
20
158.149998
40
0.300000
100
AcDbArc
50
179.999998
51
-89.999999
0
LINE
5
87f
100
AcDbEntity
8
1
100
AcDbLine
6
CONTINUOUS
62
5
10
199.841819
20
157.849998
11
201.141819
21
157.849998
0
LINE
5
880
100
AcDbEntity
8
1
100
AcDbLine
6
CONTINUOUS
62
5
10
201.141819
20
155.999999
11
199.441819
21
155.999999
0
ARC
5
881
100
AcDbEntity
8
1
100
AcDbCircle
6
CONTINUOUS
62
5
10
199.441819
20
157.499998
40
1.500000
100
AcDbArc
50
179.999998
51
-89.999999
0
LINE
5
882
100
AcDbEntity
8
1
100
AcDbLine
6
CONTINUOUS
62
5
10
197.941820
20
157.499998
11
197.941820
21
165.499996
0
ARC
5
883
100
AcDbEntity
8
1
100
AcDbCircle
6
CONTINUOUS
62
5
10
199.441819
20
165.499996
40
1.500000
100
AcDbArc
50
89.999999
51
179.999998
0
LINE
5
884
100
AcDbEntity
8
1
100
AcDbLine
6
CONTINUOUS
62
5
10
199.441819
20
166.999996
11
201.141819
21
166.999996
0
LINE
5
885
100
AcDbEntity
8
1
100
AcDbLine
6
CONTINUOUS
62
5
10
201.141819
20
165.149996
11
199.841819
21
165.149996
0
ARC
5
886
100
AcDbEntity
8
1
100
AcDbCircle
6
CONTINUOUS
62
5
10
128.758170
20
158.150000
40
0.300000
100
AcDbArc
50
-89.999999
51
0.000000
0
LINE
5
887
100
AcDbEntity
8
1
100
AcDbLine
6
CONTINUOUS
62
5
10
128.758170
20
157.850000
11
128.758170
21
157.850000
0
LINE
5
888
100
AcDbEntity
8
1
100
AcDbLine
6
CONTINUOUS
62
5
10
128.758170
20
165.150000
11
128.758170
21
165.150000
0
ARC
5
889
100
AcDbEntity
8
1
100
AcDbCircle
6
CONTINUOUS
62
5
10
128.758170
20
164.850000
40
0.300000
100
AcDbArc
50
0.000000
51
89.999999
0
LINE
5
88a
100
AcDbEntity
8
1
100
AcDbLine
6
CONTINUOUS
62
5
10
129.058170
20
164.850000
11
129.058170
21
158.150000
0
LINE
5
88b
100
AcDbEntity
8
1
100
AcDbLine
6
CONTINUOUS
62
5
10
128.558170
20
167.000000
11
128.558170
21
156.000000
0
LINE
5
88c
100
AcDbEntity
8
1
100
AcDbLine
6
CONTINUOUS
62
5
10
128.758170
20
167.041742
11
128.758170
21
156.000000
0
LINE
5
88d
100
AcDbEntity
8
1
100
AcDbLine
6
CONTINUOUS
62
5
10
126.758176
20
168.000000
11
126.758176
21
155.000000
0
ARC
5
88e
100
AcDbEntity
8
1
100
AcDbCircle
6
CONTINUOUS
62
5
10
130.758170
20
136.000000
40
0.500000
100
AcDbArc
50
179.999998
51
0.000000
0
LINE
5
88f
100
AcDbEntity
8
1
100
AcDbLine
6
CONTINUOUS
62
5
10
131.258170
20
136.000000
11
131.258170
21
147.984436
0
ARC
5
890
100
AcDbEntity
8
1
100
AcDbCircle
6
CONTINUOUS
62
5
10
132.258170
20
150.000000
40
2.250000
100
AcDbArc
50
116.387799
51
-116.387799
0
LINE
5
891
100
AcDbEntity
8
1
100
AcDbLine
6
CONTINUOUS
62
5
10
131.258170
20
152.015564
11
131.258170
21
164.000000
0
ARC
5
892
100
AcDbEntity
8
1
100
AcDbCircle
6
CONTINUOUS
62
5
10
130.758170
20
164.000000
40
0.500000
100
AcDbArc
50
-0.000000
51
-179.999998
0
LINE
5
893
100
AcDbEntity
8
1
100
AcDbLine
6
CONTINUOUS
62
5
10
130.258170
20
164.000000
11
130.258170
21
152.561738
0
ARC
5
894
100
AcDbEntity
8
1
100
AcDbCircle
6
CONTINUOUS
62
5
10
132.258170
20
150.000000
40
3.250000
100
AcDbArc
50
127.979871
51
-127.979871
0
LINE
5
895
100
AcDbEntity
8
1
100
AcDbLine
6
CONTINUOUS
62
5
10
130.258170
20
147.438262
11
130.258170
21
136.000000
0
ARC
5
896
100
AcDbEntity
8
1
100
AcDbCircle
6
CONTINUOUS
62
5
10
96.758181
20
158.150000
40
0.300000
100
AcDbArc
50
179.999998
51
-89.999999
0
LINE
5
897
100
AcDbEntity
8
1
100
AcDbLine
6
CONTINUOUS
62
5
10
96.758181
20
157.850000
11
96.758181
21
157.850000
0
LINE
5
898
100
AcDbEntity
8
1
100
AcDbLine
6
CONTINUOUS
62
5
10
96.758181
20
165.150000
11
96.758181
21
165.150000
0
ARC
5
899
100
AcDbEntity
8
1
100
AcDbCircle
6
CONTINUOUS
62
5
10
96.758181
20
164.850000
40
0.300000
100
AcDbArc
50
89.999999
51
179.999998
0
LINE
5
89a
100
AcDbEntity
8
1
100
AcDbLine
6
CONTINUOUS
62
5
10
96.458181
20
164.850000
11
96.458181
21
158.150000
0
LINE
5
89b
100
AcDbEntity
8
1
100
AcDbLine
6
CONTINUOUS
62
5
10
96.758181
20
167.041742
11
96.758181
21
156.000000
0
LINE
5
89c
100
AcDbEntity
8
1
100
AcDbLine
6
CONTINUOUS
62
5
10
96.958181
20
167.000000
11
96.958181
21
156.000000
0
LINE
5
89d
100
AcDbEntity
8
1
100
AcDbLine
6
CONTINUOUS
62
5
10
98.758176
20
168.000000
11
98.758176
21
155.000000
0
ARC
5
89e
100
AcDbEntity
8
1
100
AcDbCircle
6
CONTINUOUS
62
5
10
94.758181
20
136.000000
40
0.500000
100
AcDbArc
50
179.999998
51
0.000000
0
LINE
5
89f
100
AcDbEntity
8
1
100
AcDbLine
6
CONTINUOUS
62
5
10
94.258181
20
136.000000
11
94.258181
21
147.984436
0
ARC
5
8a0
100
AcDbEntity
8
1
100
AcDbCircle
6
CONTINUOUS
62
5
10
93.258181
20
150.000000
40
2.250000
100
AcDbArc
50
-63.612199
51
63.612199
0
LINE
5
8a1
100
AcDbEntity
8
1
100
AcDbLine
6
CONTINUOUS
62
5
10
94.258181
20
152.015564
11
94.258181
21
164.000000
0
ARC
5
8a2
100
AcDbEntity
8
1
100
AcDbCircle
6
CONTINUOUS
62
5
10
94.758181
20
164.000000
40
0.500000
100
AcDbArc
50
-0.000000
51
-179.999998
0
LINE
5
8a3
100
AcDbEntity
8
1
100
AcDbLine
6
CONTINUOUS
62
5
10
95.258181
20
164.000000
11
95.258181
21
152.561738
0
ARC
5
8a4
100
AcDbEntity
8
1
100
AcDbCircle
6
CONTINUOUS
62
5
10
93.258181
20
150.000000
40
3.250000
100
AcDbArc
50
-52.020127
51
52.020127
0
LINE
5
8a5
100
AcDbEntity
8
1
100
AcDbLine
6
CONTINUOUS
62
5
10
95.258181
20
147.438262
11
95.258181
21
136.000000
0
ARC
5
8a6
100
AcDbEntity
8
1
100
AcDbCircle
6
CONTINUOUS
62
5
10
120.685066
20
163.310934
40
0.695217
100
AcDbArc
50
0.000114
51
179.999884
0
LINE
5
8a7
100
AcDbEntity
8
1
100
AcDbLine
6
CONTINUOUS
62
5
10
121.380283
20
163.310935
11
121.380283
21
159.722550
0
ARC
5
8a8
100
AcDbEntity
8
1
100
AcDbCircle
6
CONTINUOUS
62
5
10
120.685875
20
159.689065
40
0.695215
100
AcDbArc
50
-179.999998
51
2.760718
0
LINE
5
8a9
100
AcDbEntity
8
1
100
AcDbLine
6
CONTINUOUS
62
5
10
119.990660
20
159.689065
11
119.989850
21
163.310935
0
ARC
5
8aa
100
AcDbEntity
8
1
100
AcDbCircle
6
CONTINUOUS
62
5
10
120.685875
20
163.310935
40
1.589065
100
AcDbArc
50
0.000000
51
-179.999998
0
LINE
5
8ab
100
AcDbEntity
8
1
100
AcDbLine
6
CONTINUOUS
62
5
10
122.274940
20
163.310935
11
122.274945
21
159.689065
0
ARC
5
8ac
100
AcDbEntity
8
1
100
AcDbCircle
6
CONTINUOUS
62
5
10
120.685877
20
159.689067
40
1.589067
100
AcDbArc
50
-179.999914
51
-0.000084
0
LINE
5
8ad
100
AcDbEntity
8
1
100
AcDbLine
6
CONTINUOUS
62
5
10
119.096810
20
159.689065
11
119.096810
21
163.310935
0
POLYLINE
5
8ae
100
AcDbEntity
8
1
6
CONTINUOUS
62
5
100
AcDb2dPolyline
66
1
10
0.0
20
0.0
30
0.0
70
0
0
VERTEX
5
8af
100
AcDbEntity
8
1
100
AcDbVertex
100
AcDb2dVertex
62
5
10
121.766994
20
158.524455
0
VERTEX
5
8b0
100
AcDbEntity
8
1
100
AcDbVertex
100
AcDb2dVertex
62
5
10
121.766994
20
155.500000
0
VERTEX
5
8b1
100
AcDbEntity
8
1
100
AcDbVertex
100
AcDb2dVertex
62
5
10
105.470137
20
155.500000
0
VERTEX
5
8b2
100
AcDbEntity
8
1
100
AcDbVertex
100
AcDb2dVertex
62
5
10
105.470137
20
167.500000
0
VERTEX
5
8b3
100
AcDbEntity
8
1
100
AcDbVertex
100
AcDb2dVertex
62
5
10
121.766994
20
167.500000
0
VERTEX
5
8b4
100
AcDbEntity
8
1
100
AcDbVertex
100
AcDb2dVertex
62
5
10
121.766994
20
164.475542
0
SEQEND
5
8b5
100
AcDbEntity
8
1
0
ARC
5
8b6
100
AcDbEntity
8
1
100
AcDbCircle
6
CONTINUOUS
62
5
10
105.025320
20
155.000000
40
0.500000
100
AcDbArc
50
179.999998
51
-89.999999
0
LINE
5
8b7
100
AcDbEntity
8
1
100
AcDbLine
6
CONTINUOUS
62
5
10
105.025320
20
154.500000
11
121.858176
21
154.500000
0
ARC
5
8b8
100
AcDbEntity
8
1
100
AcDbCircle
6
CONTINUOUS
62
5
10
121.858176
20
155.000000
40
0.500000
100
AcDbArc
50
-89.999999
51
0.000000
0
LINE
5
8b9
100
AcDbEntity
8
1
100
AcDbLine
6
CONTINUOUS
62
5
10
122.358176
20
155.000000
11
122.358176
21
168.000000
0
ARC
5
8ba
100
AcDbEntity
8
1
100
AcDbCircle
6
CONTINUOUS
62
5
10
121.858176
20
168.000000
40
0.500000
100
AcDbArc
50
0.000000
51
89.999999
0
LINE
5
8bb
100
AcDbEntity
8
1
100
AcDbLine
6
CONTINUOUS
62
5
10
121.858176
20
168.500000
11
105.025320
21
168.500000
0
ARC
5
8bc
100
AcDbEntity
8
1
100
AcDbCircle
6
CONTINUOUS
62
5
10
105.025320
20
168.000000
40
0.500000
100
AcDbArc
50
89.999999
51
179.999998
0
LINE
5
8bd
100
AcDbEntity
8
1
100
AcDbLine
6
CONTINUOUS
62
5
10
104.525320
20
168.000000
11
104.525320
21
155.000000
0
POLYLINE
5
8be
100
AcDbEntity
8
1
6
CONTINUOUS
62
5
100
AcDb2dPolyline
66
1
10
0.0
20
0.0
30
0.0
70
1
0
VERTEX
5
8bf
100
AcDbEntity
8
1
100
AcDbVertex
100
AcDb2dVertex
62
5
10
101.128176
20
169.500000
0
VERTEX
5
8c0
100
AcDbEntity
8
1
100
AcDbVertex
100
AcDb2dVertex
62
5
10
124.358176
20
169.500000
0
VERTEX
5
8c1
100
AcDbEntity
8
1
100
AcDbVertex
100
AcDb2dVertex
62
5
10
124.358176
20
153.400000
0
VERTEX
5
8c2
100
AcDbEntity
8
1
100
AcDbVertex
100
AcDb2dVertex
62
5
10
101.128176
20
153.400000
0
SEQEND
5
8c3
100
AcDbEntity
8
1
0
POLYLINE
5
8c4
100
AcDbEntity
8
1
6
CONTINUOUS
62
5
100
AcDb2dPolyline
66
1
10
0.0
20
0.0
30
0.0
70
1
0
VERTEX
5
8c5
100
AcDbEntity
8
1
100
AcDbVertex
100
AcDb2dVertex
62
5
10
124.358176
20
153.500000
0
VERTEX
5
8c6
100
AcDbEntity
8
1
100
AcDbVertex
100
AcDb2dVertex
62
5
10
101.158176
20
153.500000
0
VERTEX
5
8c7
100
AcDbEntity
8
1
100
AcDbVertex
100
AcDb2dVertex
62
5
10
101.158176
20
169.500000
0
VERTEX
5
8c8
100
AcDbEntity
8
1
100
AcDbVertex
100
AcDb2dVertex
62
5
10
124.358176
20
169.500000
0
SEQEND
5
8c9
100
AcDbEntity
8
1
0
ARC
5
8ca
100
AcDbEntity
8
1
100
AcDbCircle
6
CONTINUOUS
62
5
10
122.858176
20
154.250000
40
0.500000
100
AcDbArc
50
-89.999999
51
0.000000
0
LINE
5
8cb
100
AcDbEntity
8
1
100
AcDbLine
6
CONTINUOUS
62
5
10
122.858176
20
153.750000
11
104.025320
21
153.750000
0
ARC
5
8cc
100
AcDbEntity
8
1
100
AcDbCircle
6
CONTINUOUS
62
5
10
104.025320
20
154.250000
40
0.500000
100
AcDbArc
50
179.999998
51
-89.999999
0
LINE
5
8cd
100
AcDbEntity
8
1
100
AcDbLine
6
CONTINUOUS
62
5
10
103.525320
20
154.250000
11
103.525320
21
168.750000
0
ARC
5
8ce
100
AcDbEntity
8
1
100
AcDbCircle
6
CONTINUOUS
62
5
10
104.025320
20
168.750000
40
0.500000
100
AcDbArc
50
89.999999
51
179.999998
0
LINE
5
8cf
100
AcDbEntity
8
1
100
AcDbLine
6
CONTINUOUS
62
5
10
104.025320
20
169.250000
11
122.858176
21
169.250000
0
ARC
5
8d0
100
AcDbEntity
8
1
100
AcDbCircle
6
CONTINUOUS
62
5
10
122.858176
20
168.750000
40
0.500000
100
AcDbArc
50
0.000000
51
89.999999
0
LINE
5
8d1
100
AcDbEntity
8
1
100
AcDbLine
6
CONTINUOUS
62
5
10
123.358176
20
168.750000
11
123.358176
21
154.250000
0
ARC
5
8d2
100
AcDbEntity
8
1
100
AcDbCircle
6
CONTINUOUS
62
5
10
101.758176
20
154.100000
40
0.500000
100
AcDbArc
50
179.999998
51
-89.999999
0
LINE
5
8d3
100
AcDbEntity
8
1
100
AcDbLine
6
CONTINUOUS
62
5
10
101.258176
20
154.100000
11
101.258176
21
168.900000
0
ARC
5
8d4
100
AcDbEntity
8
1
100
AcDbCircle
6
CONTINUOUS
62
5
10
101.758176
20
168.900000
40
0.500000
100
AcDbArc
50
89.999999
51
179.999998
0
POLYLINE
5
8d5
100
AcDbEntity
8
1
6
CONTINUOUS
62
5
100
AcDb2dPolyline
66
1
10
0.0
20
0.0
30
0.0
70
0
0
VERTEX
5
8d6
100
AcDbEntity
8
1
100
AcDbVertex
100
AcDb2dVertex
62
5
10
101.758176
20
169.400000
0
VERTEX
5
8d7
100
AcDbEntity
8
1
100
AcDbVertex
100
AcDb2dVertex
62
5
10
111.258176
20
169.400000
0
VERTEX
5
8d8
100
AcDbEntity
8
1
100
AcDbVertex
100
AcDb2dVertex
62
5
10
111.258176
20
169.500000
0
SEQEND
5
8d9
100
AcDbEntity
8
1
0
POLYLINE
5
8da
100
AcDbEntity
8
1
6
CONTINUOUS
62
5
100
AcDb2dPolyline
66
1
10
0.0
20
0.0
30
0.0
70
0
0
VERTEX
5
8db
100
AcDbEntity
8
1
100
AcDbVertex
100
AcDb2dVertex
62
5
10
114.258176
20
169.500000
0
VERTEX
5
8dc
100
AcDbEntity
8
1
100
AcDbVertex
100
AcDb2dVertex
62
5
10
114.258176
20
169.400000
0
VERTEX
5
8dd
100
AcDbEntity
8
1
100
AcDbVertex
100
AcDb2dVertex
62
5
10
123.758176
20
169.400000
0
SEQEND
5
8de
100
AcDbEntity
8
1
0
ARC
5
8df
100
AcDbEntity
8
1
100
AcDbCircle
6
CONTINUOUS
62
5
10
123.758176
20
168.900000
40
0.500000
100
AcDbArc
50
0.000000
51
89.999999
0
LINE
5
8e0
100
AcDbEntity
8
1
100
AcDbLine
6
CONTINUOUS
62
5
10
124.258176
20
168.900000
11
124.258176
21
154.100000
0
ARC
5
8e1
100
AcDbEntity
8
1
100
AcDbCircle
6
CONTINUOUS
62
5
10
123.758176
20
154.100000
40
0.500000
100
AcDbArc
50
-89.999999
51
0.000000
0
POLYLINE
5
8e2
100
AcDbEntity
8
1
6
CONTINUOUS
62
5
100
AcDb2dPolyline
66
1
10
0.0
20
0.0
30
0.0
70
0
0
VERTEX
5
8e3
100
AcDbEntity
8
1
100
AcDbVertex
100
AcDb2dVertex
62
5
10
123.758176
20
153.600000
0
VERTEX
5
8e4
100
AcDbEntity
8
1
100
AcDbVertex
100
AcDb2dVertex
62
5
10
115.258176
20
153.600000
0
VERTEX
5
8e5
100
AcDbEntity
8
1
100
AcDbVertex
100
AcDb2dVertex
62
5
10
115.258176
20
153.500000
0
SEQEND
5
8e6
100
AcDbEntity
8
1
0
POLYLINE
5
8e7
100
AcDbEntity
8
1
6
CONTINUOUS
62
5
100
AcDb2dPolyline
66
1
10
0.0
20
0.0
30
0.0
70
0
0
VERTEX
5
8e8
100
AcDbEntity
8
1
100
AcDbVertex
100
AcDb2dVertex
62
5
10
110.258176
20
153.500000
0
VERTEX
5
8e9
100
AcDbEntity
8
1
100
AcDbVertex
100
AcDb2dVertex
62
5
10
110.258176
20
153.600000
0
VERTEX
5
8ea
100
AcDbEntity
8
1
100
AcDbVertex
100
AcDb2dVertex
62
5
10
101.758176
20
153.600000
0
SEQEND
5
8eb
100
AcDbEntity
8
1
0
LINE
5
8ec
100
AcDbEntity
8
1
100
AcDbLine
6
CONTINUOUS
62
5
10
97.758176
20
172.900000
11
63.658181
21
172.900000
0
LINE
5
8ed
100
AcDbEntity
8
1
100
AcDbLine
6
CONTINUOUS
62
5
10
97.758176
20
127.100000
11
63.658181
21
127.100000
0
POLYLINE
5
8ee
100
AcDbEntity
8
1
6
CONTINUOUS
62
5
100
AcDb2dPolyline
66
1
10
0.0
20
0.0
30
0.0
70
0
0
VERTEX
5
8ef
100
AcDbEntity
8
1
100
AcDbVertex
100
AcDb2dVertex
62
5
10
65.658181
20
150.000000
0
VERTEX
5
8f0
100
AcDbEntity
8
1
100
AcDbVertex
100
AcDb2dVertex
62
5
10
65.658181
20
127.100000
0
VERTEX
5
8f1
100
AcDbEntity
8
1
100
AcDbVertex
100
AcDb2dVertex
62
5
10
64.658181
20
133.100000
0
VERTEX
5
8f2
100
AcDbEntity
8
1
100
AcDbVertex
100
AcDb2dVertex
62
5
10
66.658181
20
133.100000
0
VERTEX
5
8f3
100
AcDbEntity
8
1
100
AcDbVertex
100
AcDb2dVertex
62
5
10
65.658181
20
127.100000
0
VERTEX
5
8f4
100
AcDbEntity
8
1
100
AcDbVertex
100
AcDb2dVertex
62
5
10
65.158181
20
133.100000
0
VERTEX
5
8f5
100
AcDbEntity
8
1
100
AcDbVertex
100
AcDb2dVertex
62
5
10
66.158181
20
133.100000
0
VERTEX
5
8f6
100
AcDbEntity
8
1
100
AcDbVertex
100
AcDb2dVertex
62
5
10
65.658181
20
127.100000
0
SEQEND
5
8f7
100
AcDbEntity
8
1
0
POLYLINE
5
8f8
100
AcDbEntity
8
1
6
CONTINUOUS
62
5
100
AcDb2dPolyline
66
1
10
0.0
20
0.0
30
0.0
70
0
0
VERTEX
5
8f9
100
AcDbEntity
8
1
100
AcDbVertex
100
AcDb2dVertex
62
5
10
65.658181
20
150.000000
0
VERTEX
5
8fa
100
AcDbEntity
8
1
100
AcDbVertex
100
AcDb2dVertex
62
5
10
65.658181
20
172.900000
0
VERTEX
5
8fb
100
AcDbEntity
8
1
100
AcDbVertex
100
AcDb2dVertex
62
5
10
66.658181
20
166.900000
0
VERTEX
5
8fc
100
AcDbEntity
8
1
100
AcDbVertex
100
AcDb2dVertex
62
5
10
64.658181
20
166.900000
0
VERTEX
5
8fd
100
AcDbEntity
8
1
100
AcDbVertex
100
AcDb2dVertex
62
5
10
65.658181
20
172.900000
0
VERTEX
5
8fe
100
AcDbEntity
8
1
100
AcDbVertex
100
AcDb2dVertex
62
5
10
66.158181
20
166.900000
0
VERTEX
5
8ff
100
AcDbEntity
8
1
100
AcDbVertex
100
AcDb2dVertex
62
5
10
65.158181
20
166.900000
0
VERTEX
5
900
100
AcDbEntity
8
1
100
AcDbVertex
100
AcDb2dVertex
62
5
10
65.658181
20
172.900000
0
SEQEND
5
901
100
AcDbEntity
8
1
0
ARC
5
902
100
AcDbEntity
8
1
100
AcDbCircle
6
CONTINUOUS
62
5
10
197.841819
20
127.850000
40
0.700000
100
AcDbArc
50
179.999998
51
-89.999999
0
POLYLINE
5
903
100
AcDbEntity
8
1
6
CONTINUOUS
62
5
100
AcDb2dPolyline
66
1
10
0.0
20
0.0
30
0.0
70
0
0
VERTEX
5
904
100
AcDbEntity
8
1
100
AcDbVertex
100
AcDb2dVertex
62
5
10
197.841819
20
127.150000
0
VERTEX
5
905
100
AcDbEntity
8
1
100
AcDbVertex
100
AcDb2dVertex
62
5
10
205.941819
20
127.150000
0
VERTEX
5
906
100
AcDbEntity
8
1
100
AcDbVertex
100
AcDb2dVertex
62
5
10
205.941819
20
165.000000
0
VERTEX
5
907
100
AcDbEntity
8
1
100
AcDbVertex
100
AcDb2dVertex
62
5
10
205.941819
20
172.850000
0
VERTEX
5
908
100
AcDbEntity
8
1
100
AcDbVertex
100
AcDb2dVertex
62
5
10
193.941819
20
172.850000
0
SEQEND
5
909
100
AcDbEntity
8
1
0
ARC
5
90a
100
AcDbEntity
8
1
100
AcDbCircle
6
CONTINUOUS
62
5
10
193.941819
20
172.150000
40
0.700000
100
AcDbArc
50
89.999999
51
179.999998
0
LINE
5
90b
100
AcDbEntity
8
1
100
AcDbLine
6
CONTINUOUS
62
5
10
193.241819
20
172.150000
11
193.241819
21
150.850000
0
ARC
5
90c
100
AcDbEntity
8
1
100
AcDbCircle
6
CONTINUOUS
62
5
10
193.941819
20
150.850000
40
0.700000
100
AcDbArc
50
179.999998
51
-89.999999
0
POLYLINE
5
90d
100
AcDbEntity
8
1
6
CONTINUOUS
62
5
100
AcDb2dPolyline
66
1
10
0.0
20
0.0
30
0.0
70
0
0
VERTEX
5
90e
100
AcDbEntity
8
1
100
AcDbVertex
100
AcDb2dVertex
62
5
10
193.941819
20
150.150000
0
VERTEX
5
90f
100
AcDbEntity
8
1
100
AcDbVertex
100
AcDb2dVertex
62
5
10
197.141819
20
150.150000
0
VERTEX
5
910
100
AcDbEntity
8
1
100
AcDbVertex
100
AcDb2dVertex
62
5
10
197.141819
20
127.850000
0
SEQEND
5
911
100
AcDbEntity
8
1
0
ARC
5
912
100
AcDbEntity
8
1
100
AcDbCircle
6
CONTINUOUS
62
5
10
228.341819
20
128.291490
40
1.000000
100
AcDbArc
50
-89.510304
51
0.000000
0
POLYLINE
5
913
100
AcDbEntity
8
1
6
CONTINUOUS
62
5
100
AcDb2dPolyline
66
1
10
0.0
20
0.0
30
0.0
70
0
0
VERTEX
5
914
100
AcDbEntity
8
1
100
AcDbVertex
100
AcDb2dVertex
62
5
10
228.350365
20
127.291526
0
VERTEX
5
915
100
AcDbEntity
8
1
100
AcDbVertex
100
AcDb2dVertex
62
5
10
205.941819
20
127.100000
0
VERTEX
5
916
100
AcDbEntity
8
1
100
AcDbVertex
100
AcDb2dVertex
62
5
10
205.941819
20
172.900000
0
VERTEX
5
917
100
AcDbEntity
8
1
100
AcDbVertex
100
AcDb2dVertex
62
5
10
228.350365
20
172.708474
0
SEQEND
5
918
100
AcDbEntity
8
1
0
ARC
5
919
100
AcDbEntity
8
1
100
AcDbCircle
6
CONTINUOUS
62
5
10
228.341819
20
171.708510
40
1.000000
100
AcDbArc
50
0.000000
51
89.510304
0
LINE
5
91a
100
AcDbEntity
8
1
100
AcDbLine
6
CONTINUOUS
62
5
10
229.341819
20
171.708510
11
229.341819
21
128.291490
0
ARC
5
91b
100
AcDbEntity
8
1
100
AcDbCircle
6
CONTINUOUS
62
5
10
209.741819
20
127.700000
40
0.200000
100
AcDbArc
50
-89.999999
51
16.150023
0
LINE
5
91c
100
AcDbEntity
8
1
100
AcDbLine
6
CONTINUOUS
62
5
10
209.741819
20
127.500000
11
205.941819
21
127.500000
0
LINE
5
91d
100
AcDbEntity
8
1
100
AcDbLine
6
CONTINUOUS
62
5
10
205.941819
20
172.500000
11
209.741819
21
172.500000
0
ARC
5
91e
100
AcDbEntity
8
1
100
AcDbCircle
6
CONTINUOUS
62
5
10
209.741819
20
172.300000
40
0.200000
100
AcDbArc
50
-16.041063
51
89.999999
0
POLYLINE
5
91f
100
AcDbEntity
8
1
6
CONTINUOUS
62
5
100
AcDb2dPolyline
66
1
10
0.0
20
0.0
30
0.0
70
0
0
VERTEX
5
920
100
AcDbEntity
8
1
100
AcDbVertex
100
AcDb2dVertex
62
5
10
209.934031
20
172.244735
0
VERTEX
5
921
100
AcDbEntity
8
1
100
AcDbVertex
100
AcDb2dVertex
62
5
10
209.641819
20
171.228417
0
VERTEX
5
922
100
AcDbEntity
8
1
100
AcDbVertex
100
AcDb2dVertex
62
5
10
221.405039
20
171.017662
0
SEQEND
5
923
100
AcDbEntity
8
1
0
ARC
5
924
100
AcDbEntity
8
1
100
AcDbCircle
6
CONTINUOUS
62
5
10
221.387057
20
170.017824
40
1.000000
100
AcDbArc
50
0.000000
51
88.969611
0
POLYLINE
5
925
100
AcDbEntity
8
1
6
CONTINUOUS
62
5
100
AcDb2dPolyline
66
1
10
0.0
20
0.0
30
0.0
70
0
0
VERTEX
5
926
100
AcDbEntity
8
1
100
AcDbVertex
100
AcDb2dVertex
62
5
10
222.387057
20
170.017824
0
VERTEX
5
927
100
AcDbEntity
8
1
100
AcDbVertex
100
AcDb2dVertex
62
5
10
222.341819
20
153.700000
0
VERTEX
5
928
100
AcDbEntity
8
1
100
AcDbVertex
100
AcDb2dVertex
62
5
10
228.341819
20
153.700000
0
SEQEND
5
929
100
AcDbEntity
8
1
0
ARC
5
92a
100
AcDbEntity
8
1
100
AcDbCircle
6
CONTINUOUS
62
5
10
228.341819
20
152.700000
40
1.000000
100
AcDbArc
50
0.000000
51
89.999999
0
ARC
5
92b
100
AcDbEntity
8
1
100
AcDbCircle
6
CONTINUOUS
62
5
10
228.341819
20
129.988110
40
1.000000
100
AcDbArc
50
-89.314676
51
0.000000
0
POLYLINE
5
92c
100
AcDbEntity
8
1
6
CONTINUOUS
62
5
100
AcDb2dPolyline
66
1
10
0.0
20
0.0
30
0.0
70
0
0
VERTEX
5
92d
100
AcDbEntity
8
1
100
AcDbVertex
100
AcDb2dVertex
62
5
10
228.353779
20
128.988181
0
VERTEX
5
92e
100
AcDbEntity
8
1
100
AcDbVertex
100
AcDb2dVertex
62
5
10
209.641819
20
128.764354
0
VERTEX
5
92f
100
AcDbEntity
8
1
100
AcDbVertex
100
AcDb2dVertex
62
5
10
209.933926
20
127.755631
0
SEQEND
5
930
100
AcDbEntity
8
1
0
ARC
5
931
100
AcDbEntity
8
1
100
AcDbCircle
6
CONTINUOUS
62
5
10
202.441819
20
128.300000
40
0.500000
100
AcDbArc
50
179.999998
51
-89.999999
0
LINE
5
932
100
AcDbEntity
8
1
100
AcDbLine
6
CONTINUOUS
62
5
10
201.941819
20
128.300000
11
201.941819
21
171.700000
0
ARC
5
933
100
AcDbEntity
8
1
100
AcDbCircle
6
CONTINUOUS
62
5
10
202.441819
20
171.700000
40
0.500000
100
AcDbArc
50
89.999999
51
179.999998
0
LINE
5
934
100
AcDbEntity
8
1
100
AcDbLine
6
CONTINUOUS
62
5
10
202.441819
20
172.200000
11
205.941819
21
172.200000
0
LINE
5
935
100
AcDbEntity
8
1
100
AcDbLine
6
CONTINUOUS
62
5
10
205.941819
20
127.800000
11
202.441819
21
127.800000
0
ARC
5
936
100
AcDbEntity
8
1
100
AcDbCircle
6
CONTINUOUS
62
5
10
201.941819
20
171.750618
40
0.800000
100
AcDbArc
50
93.742752
51
-179.999998
0
LINE
5
937
100
AcDbEntity
8
1
100
AcDbLine
6
CONTINUOUS
62
5
10
201.141819
20
171.750618
11
201.141819
21
128.249382
0
ARC
5
938
100
AcDbEntity
8
1
100
AcDbCircle
6
CONTINUOUS
62
5
10
201.941819
20
128.249382
40
0.800000
100
AcDbArc
50
-179.999998
51
-93.742752
0
POLYLINE
5
939
100
AcDbEntity
8
1
6
CONTINUOUS
62
5
100
AcDb2dPolyline
66
1
10
0.0
20
0.0
30
0.0
70
0
0
VERTEX
5
93a
100
AcDbEntity
8
1
100
AcDbVertex
100
AcDb2dVertex
62
5
10
201.889597
20
127.451089
0
VERTEX
5
93b
100
AcDbEntity
8
1
100
AcDbVertex
100
AcDb2dVertex
62
5
10
204.941818
20
127.447672
0
VERTEX
5
93c
100
AcDbEntity
8
1
100
AcDbVertex
100
AcDb2dVertex
62
5
10
205.941818
20
127.525167
0
SEQEND
5
93d
100
AcDbEntity
8
1
0
POLYLINE
5
93e
100
AcDbEntity
8
1
6
CONTINUOUS
62
5
100
AcDb2dPolyline
66
1
10
0.0
20
0.0
30
0.0
70
0
0
VERTEX
5
93f
100
AcDbEntity
8
1
100
AcDbVertex
100
AcDb2dVertex
62
5
10
205.941818
20
172.474833
0
VERTEX
5
940
100
AcDbEntity
8
1
100
AcDbVertex
100
AcDb2dVertex
62
5
10
204.941818
20
172.552328
0
VERTEX
5
941
100
AcDbEntity
8
1
100
AcDbVertex
100
AcDb2dVertex
62
5
10
201.889597
20
172.548911
0
SEQEND
5
942
100
AcDbEntity
8
1
0
POLYLINE
5
943
100
AcDbEntity
8
1
6
CONTINUOUS
62
5
100
AcDb2dPolyline
66
1
10
0.0
20
0.0
30
0.0
70
1
0
VERTEX
5
944
100
AcDbEntity
8
1
100
AcDbVertex
100
AcDb2dVertex
62
5
10
124.388176
20
153.400000
0
VERTEX
5
945
100
AcDbEntity
8
1
100
AcDbVertex
100
AcDb2dVertex
62
5
10
101.128176
20
153.400000
0
VERTEX
5
946
100
AcDbEntity
8
1
100
AcDbVertex
100
AcDb2dVertex
62
5
10
101.128176
20
169.600000
0
VERTEX
5
947
100
AcDbEntity
8
1
100
AcDbVertex
100
AcDb2dVertex
62
5
10
124.388176
20
169.600000
0
SEQEND
5
948
100
AcDbEntity
8
1
0
ARC
5
949
100
AcDbEntity
8
1
100
AcDbCircle
6
CONTINUOUS
62
5
10
131.758176
20
128.300000
40
0.500000
100
AcDbArc
50
179.999998
51
-89.999999
0
LINE
5
94a
100
AcDbEntity
8
1
100
AcDbLine
6
CONTINUOUS
62
5
10
131.258176
20
128.300000
11
131.258176
21
128.600000
0
LINE
5
94b
100
AcDbEntity
8
1
100
AcDbLine
6
CONTINUOUS
62
5
10
131.258176
20
171.400000
11
131.258176
21
171.700000
0
ARC
5
94c
100
AcDbEntity
8
1
100
AcDbCircle
6
CONTINUOUS
62
5
10
131.758176
20
171.700000
40
0.500000
100
AcDbArc
50
89.999999
51
179.999998
0
LINE
5
94d
100
AcDbEntity
8
1
100
AcDbLine
6
CONTINUOUS
62
5
10
131.758176
20
172.200000
11
132.258176
21
172.200000
0
ARC
5
94e
100
AcDbEntity
8
1
100
AcDbCircle
6
CONTINUOUS
62
5
10
132.258176
20
170.700000
40
1.500000
100
AcDbArc
50
0.000000
51
89.999999
0
LINE
5
94f
100
AcDbEntity
8
1
100
AcDbLine
6
CONTINUOUS
62
5
10
133.758176
20
170.700000
11
133.758176
21
169.700000
0
LINE
5
950
100
AcDbEntity
8
1
100
AcDbLine
6
CONTINUOUS
62
5
10
132.758176
20
166.048341
11
132.758176
21
156.500000
0
LINE
5
951
100
AcDbEntity
8
1
100
AcDbLine
6
CONTINUOUS
62
5
10
132.758176
20
143.500000
11
132.758176
21
133.951659
0
LINE
5
952
100
AcDbEntity
8
1
100
AcDbLine
6
CONTINUOUS
62
5
10
133.758176
20
130.300000
11
133.758176
21
129.300000
0
ARC
5
953
100
AcDbEntity
8
1
100
AcDbCircle
6
CONTINUOUS
62
5
10
132.258176
20
129.300000
40
1.500000
100
AcDbArc
50
-89.999999
51
0.000000
0
LINE
5
954
100
AcDbEntity
8
1
100
AcDbLine
6
CONTINUOUS
62
5
10
132.258176
20
127.800000
11
131.758176
21
127.800000
0
ARC
5
955
100
AcDbEntity
8
1
100
AcDbCircle
6
CONTINUOUS
62
5
10
130.558170
20
128.300000
40
0.300000
100
AcDbArc
50
89.999999
51
179.999998
0
LINE
5
956
100
AcDbEntity
8
1
100
AcDbLine
6
CONTINUOUS
62
5
10
130.558170
20
128.600000
11
131.558170
21
128.600000
0
ARC
5
957
100
AcDbEntity
8
1
100
AcDbCircle
6
CONTINUOUS
62
5
10
131.558170
20
129.600000
40
1.000000
100
AcDbArc
50
-89.999999
51
-17.061531
0
LINE
5
958
100
AcDbEntity
8
1
100
AcDbLine
6
CONTINUOUS
62
5
10
132.514161
20
129.306601
11
132.602180
21
129.593399
0
ARC
5
959
100
AcDbEntity
8
1
100
AcDbCircle
6
CONTINUOUS
62
5
10
133.558170
20
129.300000
40
1.000000
100
AcDbArc
50
89.999999
51
162.938467
0
LINE
5
95a
100
AcDbEntity
8
1
100
AcDbLine
6
CONTINUOUS
62
5
10
133.558170
20
130.300000
11
134.358170
21
130.300000
0
ARC
5
95b
100
AcDbEntity
8
1
100
AcDbCircle
6
CONTINUOUS
62
5
10
134.358170
20
130.800000
40
0.500000
100
AcDbArc
50
-89.999999
51
-0.000000
0
LINE
5
95c
100
AcDbEntity
8
1
100
AcDbLine
6
CONTINUOUS
62
5
10
134.858170
20
130.800000
11
134.858170
21
132.700000
0
ARC
5
95d
100
AcDbEntity
8
1
100
AcDbCircle
6
CONTINUOUS
62
5
10
134.358170
20
132.700000
40
0.500000
100
AcDbArc
50
0.000000
51
89.999999
0
LINE
5
95e
100
AcDbEntity
8
1
100
AcDbLine
6
CONTINUOUS
62
5
10
134.358170
20
133.200000
11
134.058170
21
133.200000
0
ARC
5
95f
100
AcDbEntity
8
1
100
AcDbCircle
6
CONTINUOUS
62
5
10
134.058170
20
134.700000
40
1.500000
100
AcDbArc
50
179.999998
51
-89.999999
0
LINE
5
960
100
AcDbEntity
8
1
100
AcDbLine
6
CONTINUOUS
62
5
10
132.558170
20
134.700000
11
132.558170
21
147.861660
0
ARC
5
961
100
AcDbEntity
8
1
100
AcDbCircle
6
CONTINUOUS
62
5
10
131.558170
20
147.861660
40
1.000000
100
AcDbArc
50
0.000000
51
71.873795
0
ARC
5
962
100
AcDbEntity
8
1
100
AcDbCircle
6
CONTINUOUS
62
5
10
132.258170
20
150.000000
40
1.250000
100
AcDbArc
50
108.126203
51
-108.126203
0
ARC
5
963
100
AcDbEntity
8
1
100
AcDbCircle
6
CONTINUOUS
62
5
10
131.558170
20
152.138340
40
1.000000
100
AcDbArc
50
-71.873795
51
-0.000000
0
LINE
5
964
100
AcDbEntity
8
1
100
AcDbLine
6
CONTINUOUS
62
5
10
132.558170
20
152.138340
11
132.558170
21
165.300000
0
ARC
5
965
100
AcDbEntity
8
1
100
AcDbCircle
6
CONTINUOUS
62
5
10
134.058170
20
165.300000
40
1.500000
100
AcDbArc
50
89.999999
51
179.999998
0
LINE
5
966
100
AcDbEntity
8
1
100
AcDbLine
6
CONTINUOUS
62
5
10
134.058170
20
166.800000
11
134.358170
21
166.800000
0
ARC
5
967
100
AcDbEntity
8
1
100
AcDbCircle
6
CONTINUOUS
62
5
10
134.358170
20
167.300000
40
0.500000
100
AcDbArc
50
-89.999999
51
0.000000
0
LINE
5
968
100
AcDbEntity
8
1
100
AcDbLine
6
CONTINUOUS
62
5
10
134.858170
20
167.300000
11
134.858170
21
169.200000
0
ARC
5
969
100
AcDbEntity
8
1
100
AcDbCircle
6
CONTINUOUS
62
5
10
134.358170
20
169.200000
40
0.500000
100
AcDbArc
50
-0.000000
51
89.999999
0
LINE
5
96a
100
AcDbEntity
8
1
100
AcDbLine
6
CONTINUOUS
62
5
10
134.358170
20
169.700000
11
133.558176
21
169.700000
0
ARC
5
96b
100
AcDbEntity
8
1
100
AcDbCircle
6
CONTINUOUS
62
5
10
133.558170
20
170.700000
40
1.000000
100
AcDbArc
50
-162.938467
51
-89.999683
0
LINE
5
96c
100
AcDbEntity
8
1
100
AcDbLine
6
CONTINUOUS
62
5
10
132.602180
20
170.406601
11
132.514161
21
170.693399
0
ARC
5
96d
100
AcDbEntity
8
1
100
AcDbCircle
6
CONTINUOUS
62
5
10
131.558170
20
170.400000
40
1.000000
100
AcDbArc
50
17.061531
51
89.999999
0
LINE
5
96e
100
AcDbEntity
8
1
100
AcDbLine
6
CONTINUOUS
62
5
10
131.558170
20
171.400000
11
130.558170
21
171.400000
0
ARC
5
96f
100
AcDbEntity
8
1
100
AcDbCircle
6
CONTINUOUS
62
5
10
130.558170
20
171.700000
40
0.300000
100
AcDbArc
50
-179.999998
51
-89.999999
0
POLYLINE
5
970
100
AcDbEntity
8
1
6
CONTINUOUS
62
5
100
AcDb2dPolyline
66
1
10
0.0
20
0.0
30
0.0
70
0
0
VERTEX
5
971
100
AcDbEntity
8
1
100
AcDbVertex
100
AcDb2dVertex
62
5
10
130.258170
20
171.700000
0
VERTEX
5
972
100
AcDbEntity
8
1
100
AcDbVertex
100
AcDb2dVertex
62
5
10
130.258170
20
172.500000
0
VERTEX
5
973
100
AcDbEntity
8
1
100
AcDbVertex
100
AcDb2dVertex
62
5
10
126.758170
20
172.500000
0
VERTEX
5
974
100
AcDbEntity
8
1
100
AcDbVertex
100
AcDb2dVertex
62
5
10
126.758170
20
171.700000
0
VERTEX
5
975
100
AcDbEntity
8
1
100
AcDbVertex
100
AcDb2dVertex
62
5
10
127.158170
20
171.700000
0
SEQEND
5
976
100
AcDbEntity
8
1
0
POLYLINE
5
977
100
AcDbEntity
8
1
6
CONTINUOUS
62
5
100
AcDb2dPolyline
66
1
10
0.0
20
0.0
30
0.0
70
0
0
VERTEX
5
978
100
AcDbEntity
8
1
100
AcDbVertex
100
AcDb2dVertex
62
5
10
127.158170
20
128.300000
0
VERTEX
5
979
100
AcDbEntity
8
1
100
AcDbVertex
100
AcDb2dVertex
62
5
10
126.758170
20
128.300000
0
VERTEX
5
97a
100
AcDbEntity
8
1
100
AcDbVertex
100
AcDb2dVertex
62
5
10
126.758170
20
127.500000
0
VERTEX
5
97b
100
AcDbEntity
8
1
100
AcDbVertex
100
AcDb2dVertex
62
5
10
130.258170
20
127.500000
0
VERTEX
5
97c
100
AcDbEntity
8
1
100
AcDbVertex
100
AcDb2dVertex
62
5
10
130.258170
20
128.300000
0
SEQEND
5
97d
100
AcDbEntity
8
1
0
ARC
5
97e
100
AcDbEntity
8
1
100
AcDbCircle
6
CONTINUOUS
62
5
10
127.258176
20
167.500000
40
0.500000
100
AcDbArc
50
0.000000
51
89.999999
0
LINE
5
97f
100
AcDbEntity
8
1
100
AcDbLine
6
CONTINUOUS
62
5
10
127.758176
20
167.500000
11
127.758176
21
155.500000
0
ARC
5
980
100
AcDbEntity
8
1
100
AcDbCircle
6
CONTINUOUS
62
5
10
127.258176
20
155.500000
40
0.500000
100
AcDbArc
50
-89.999999
51
0.000000
0
POLYLINE
5
981
100
AcDbEntity
8
1
6
CONTINUOUS
62
5
100
AcDb2dPolyline
66
1
10
0.0
20
0.0
30
0.0
70
0
0
VERTEX
5
982
100
AcDbEntity
8
1
100
AcDbVertex
100
AcDb2dVertex
62
5
10
127.258176
20
155.000000
0
VERTEX
5
983
100
AcDbEntity
8
1
100
AcDbVertex
100
AcDb2dVertex
62
5
10
126.758176
20
155.000000
0
VERTEX
5
984
100
AcDbEntity
8
1
100
AcDbVertex
100
AcDb2dVertex
62
5
10
126.758176
20
145.000000
0
VERTEX
5
985
100
AcDbEntity
8
1
100
AcDbVertex
100
AcDb2dVertex
62
5
10
127.258176
20
145.000000
0
SEQEND
5
986
100
AcDbEntity
8
1
0
ARC
5
987
100
AcDbEntity
8
1
100
AcDbCircle
6
CONTINUOUS
62
5
10
127.258176
20
144.500000
40
0.500000
100
AcDbArc
50
0.000000
51
89.999999
0
LINE
5
988
100
AcDbEntity
8
1
100
AcDbLine
6
CONTINUOUS
62
5
10
127.758176
20
144.500000
11
127.758176
21
132.500000
0
ARC
5
989
100
AcDbEntity
8
1
100
AcDbCircle
6
CONTINUOUS
62
5
10
127.258176
20
132.500000
40
0.500000
100
AcDbArc
50
-89.999999
51
0.000000
0
POLYLINE
5
98a
100
AcDbEntity
8
1
6
CONTINUOUS
62
5
100
AcDb2dPolyline
66
1
10
0.0
20
0.0
30
0.0
70
0
0
VERTEX
5
98b
100
AcDbEntity
8
1
100
AcDbVertex
100
AcDb2dVertex
62
5
10
127.258176
20
132.000000
0
VERTEX
5
98c
100
AcDbEntity
8
1
100
AcDbVertex
100
AcDb2dVertex
62
5
10
126.758176
20
132.000000
0
VERTEX
5
98d
100
AcDbEntity
8
1
100
AcDbVertex
100
AcDb2dVertex
62
5
10
126.758176
20
127.850000
0
SEQEND
5
98e
100
AcDbEntity
8
1
0
ARC
5
98f
100
AcDbEntity
8
1
100
AcDbCircle
6
CONTINUOUS
62
5
10
126.058176
20
127.850000
40
0.700000
100
AcDbArc
50
-89.999999
51
0.000000
0
LINE
5
990
100
AcDbEntity
8
1
100
AcDbLine
6
CONTINUOUS
62
5
10
126.058176
20
127.150000
11
99.458176
21
127.150000
0
ARC
5
991
100
AcDbEntity
8
1
100
AcDbCircle
6
CONTINUOUS
62
5
10
99.458176
20
127.850000
40
0.700000
100
AcDbArc
50
179.999998
51
-89.999999
0
POLYLINE
5
992
100
AcDbEntity
8
1
6
CONTINUOUS
62
5
100
AcDb2dPolyline
66
1
10
0.0
20
0.0
30
0.0
70
0
0
VERTEX
5
993
100
AcDbEntity
8
1
100
AcDbVertex
100
AcDb2dVertex
62
5
10
98.758176
20
127.850000
0
VERTEX
5
994
100
AcDbEntity
8
1
100
AcDbVertex
100
AcDb2dVertex
62
5
10
98.758176
20
132.000000
0
VERTEX
5
995
100
AcDbEntity
8
1
100
AcDbVertex
100
AcDb2dVertex
62
5
10
98.258176
20
132.000000
0
SEQEND
5
996
100
AcDbEntity
8
1
0
ARC
5
997
100
AcDbEntity
8
1
100
AcDbCircle
6
CONTINUOUS
62
5
10
98.258176
20
132.500000
40
0.500000
100
AcDbArc
50
179.999998
51
-89.999999
0
LINE
5
998
100
AcDbEntity
8
1
100
AcDbLine
6
CONTINUOUS
62
5
10
97.758176
20
132.500000
11
97.758176
21
144.500000
0
ARC
5
999
100
AcDbEntity
8
1
100
AcDbCircle
6
CONTINUOUS
62
5
10
98.258176
20
144.500000
40
0.500000
100
AcDbArc
50
89.999999
51
179.999998
0
POLYLINE
5
99a
100
AcDbEntity
8
1
6
CONTINUOUS
62
5
100
AcDb2dPolyline
66
1
10
0.0
20
0.0
30
0.0
70
0
0
VERTEX
5
99b
100
AcDbEntity
8
1
100
AcDbVertex
100
AcDb2dVertex
62
5
10
98.258176
20
145.000000
0
VERTEX
5
99c
100
AcDbEntity
8
1
100
AcDbVertex
100
AcDb2dVertex
62
5
10
98.758176
20
145.000000
0
VERTEX
5
99d
100
AcDbEntity
8
1
100
AcDbVertex
100
AcDb2dVertex
62
5
10
98.758176
20
155.000000
0
VERTEX
5
99e
100
AcDbEntity
8
1
100
AcDbVertex
100
AcDb2dVertex
62
5
10
98.258176
20
155.000000
0
SEQEND
5
99f
100
AcDbEntity
8
1
0
ARC
5
9a0
100
AcDbEntity
8
1
100
AcDbCircle
6
CONTINUOUS
62
5
10
98.258176
20
155.500000
40
0.500000
100
AcDbArc
50
179.999998
51
-89.999999
0
LINE
5
9a1
100
AcDbEntity
8
1
100
AcDbLine
6
CONTINUOUS
62
5
10
97.758176
20
155.500000
11
97.758176
21
167.500000
0
ARC
5
9a2
100
AcDbEntity
8
1
100
AcDbCircle
6
CONTINUOUS
62
5
10
98.258176
20
167.500000
40
0.500000
100
AcDbArc
50
89.999999
51
179.999998
0
LINE
5
9a3
100
AcDbEntity
8
1
100
AcDbLine
6
CONTINUOUS
62
5
10
98.258176
20
168.000000
11
98.758176
21
168.000000
0
LINE
5
9a4
100
AcDbEntity
8
1
100
AcDbLine
6
CONTINUOUS
62
5
10
98.758176
20
168.000000
11
98.758176
21
172.150000
0
ARC
5
9a5
100
AcDbEntity
8
1
100
AcDbCircle
6
CONTINUOUS
62
5
10
99.458176
20
172.150000
40
0.700000
100
AcDbArc
50
89.999999
51
179.999998
0
LINE
5
9a6
100
AcDbEntity
8
1
100
AcDbLine
6
CONTINUOUS
62
5
10
99.458176
20
172.850000
11
126.058176
21
172.850000
0
ARC
5
9a7
100
AcDbEntity
8
1
100
AcDbCircle
6
CONTINUOUS
62
5
10
126.058176
20
172.150000
40
0.700000
100
AcDbArc
50
0.000000
51
89.999999
0
POLYLINE
5
9a8
100
AcDbEntity
8
1
6
CONTINUOUS
62
5
100
AcDb2dPolyline
66
1
10
0.0
20
0.0
30
0.0
70
0
0
VERTEX
5
9a9
100
AcDbEntity
8
1
100
AcDbVertex
100
AcDb2dVertex
62
5
10
126.758176
20
172.150000
0
VERTEX
5
9aa
100
AcDbEntity
8
1
100
AcDbVertex
100
AcDb2dVertex
62
5
10
126.758176
20
168.000000
0
VERTEX
5
9ab
100
AcDbEntity
8
1
100
AcDbVertex
100
AcDb2dVertex
62
5
10
127.258176
20
168.000000
0
SEQEND
5
9ac
100
AcDbEntity
8
1
0
ARC
5
9ad
100
AcDbEntity
8
1
100
AcDbCircle
6
CONTINUOUS
62
5
10
93.758176
20
128.300000
40
0.500000
100
AcDbArc
50
-89.999999
51
0.000000
0
LINE
5
9ae
100
AcDbEntity
8
1
100
AcDbLine
6
CONTINUOUS
62
5
10
94.258176
20
128.300000
11
94.258176
21
128.600000
0
LINE
5
9af
100
AcDbEntity
8
1
100
AcDbLine
6
CONTINUOUS
62
5
10
94.258176
20
171.400000
11
94.258176
21
171.700000
0
ARC
5
9b0
100
AcDbEntity
8
1
100
AcDbCircle
6
CONTINUOUS
62
5
10
93.758176
20
171.700000
40
0.500000
100
AcDbArc
50
0.000000
51
89.999999
0
LINE
5
9b1
100
AcDbEntity
8
1
100
AcDbLine
6
CONTINUOUS
62
5
10
93.758176
20
172.200000
11
93.258176
21
172.200000
0
ARC
5
9b2
100
AcDbEntity
8
1
100
AcDbCircle
6
CONTINUOUS
62
5
10
93.258176
20
170.700000
40
1.500000
100
AcDbArc
50
89.999999
51
179.999998
0
LINE
5
9b3
100
AcDbEntity
8
1
100
AcDbLine
6
CONTINUOUS
62
5
10
91.758176
20
170.700000
11
91.758176
21
169.700000
0
LINE
5
9b4
100
AcDbEntity
8
1
100
AcDbLine
6
CONTINUOUS
62
5
10
92.758176
20
166.048341
11
92.758176
21
156.500000
0
LINE
5
9b5
100
AcDbEntity
8
1
100
AcDbLine
6
CONTINUOUS
62
5
10
92.758176
20
143.500000
11
92.758176
21
133.951659
0
LINE
5
9b6
100
AcDbEntity
8
1
100
AcDbLine
6
CONTINUOUS
62
5
10
91.758176
20
130.300000
11
91.758176
21
129.300000
0
ARC
5
9b7
100
AcDbEntity
8
1
100
AcDbCircle
6
CONTINUOUS
62
5
10
93.258176
20
129.300000
40
1.500000
100
AcDbArc
50
179.999998
51
-89.999999
0
LINE
5
9b8
100
AcDbEntity
8
1
100
AcDbLine
6
CONTINUOUS
62
5
10
93.258176
20
127.800000
11
93.758176
21
127.800000
0
ARC
5
9b9
100
AcDbEntity
8
1
100
AcDbCircle
6
CONTINUOUS
62
5
10
94.958181
20
128.300000
40
0.300000
100
AcDbArc
50
0.000000
51
89.999999
0
LINE
5
9ba
100
AcDbEntity
8
1
100
AcDbLine
6
CONTINUOUS
62
5
10
94.958181
20
128.600000
11
93.958181
21
128.600000
0
ARC
5
9bb
100
AcDbEntity
8
1
100
AcDbCircle
6
CONTINUOUS
62
5
10
93.958181
20
129.600000
40
1.000000
100
AcDbArc
50
-162.938467
51
-89.999999
0
LINE
5
9bc
100
AcDbEntity
8
1
100
AcDbLine
6
CONTINUOUS
62
5
10
93.002191
20
129.306601
11
92.914172
21
129.593399
0
ARC
5
9bd
100
AcDbEntity
8
1
100
AcDbCircle
6
CONTINUOUS
62
5
10
91.958181
20
129.300000
40
1.000000
100
AcDbArc
50
17.061531
51
89.999999
0
LINE
5
9be
100
AcDbEntity
8
1
100
AcDbLine
6
CONTINUOUS
62
5
10
91.958181
20
130.300000
11
91.158181
21
130.300000
0
ARC
5
9bf
100
AcDbEntity
8
1
100
AcDbCircle
6
CONTINUOUS
62
5
10
91.158181
20
130.800000
40
0.500000
100
AcDbArc
50
-179.999998
51
-89.999999
0
LINE
5
9c0
100
AcDbEntity
8
1
100
AcDbLine
6
CONTINUOUS
62
5
10
90.658181
20
130.800000
11
90.658181
21
132.700000
0
ARC
5
9c1
100
AcDbEntity
8
1
100
AcDbCircle
6
CONTINUOUS
62
5
10
91.158181
20
132.700000
40
0.500000
100
AcDbArc
50
89.999999
51
179.999998
0
LINE
5
9c2
100
AcDbEntity
8
1
100
AcDbLine
6
CONTINUOUS
62
5
10
91.158181
20
133.200000
11
91.458181
21
133.200000
0
ARC
5
9c3
100
AcDbEntity
8
1
100
AcDbCircle
6
CONTINUOUS
62
5
10
91.458181
20
134.700000
40
1.500000
100
AcDbArc
50
-89.999999
51
0.000000
0
LINE
5
9c4
100
AcDbEntity
8
1
100
AcDbLine
6
CONTINUOUS
62
5
10
92.958181
20
134.700000
11
92.958181
21
147.861660
0
ARC
5
9c5
100
AcDbEntity
8
1
100
AcDbCircle
6
CONTINUOUS
62
5
10
93.958181
20
147.861660
40
1.000000
100
AcDbArc
50
108.126203
51
179.999998
0
ARC
5
9c6
100
AcDbEntity
8
1
100
AcDbCircle
6
CONTINUOUS
62
5
10
93.258181
20
150.000000
40
1.250000
100
AcDbArc
50
-71.873795
51
71.873795
0
ARC
5
9c7
100
AcDbEntity
8
1
100
AcDbCircle
6
CONTINUOUS
62
5
10
93.958181
20
152.138340
40
1.000000
100
AcDbArc
50
-179.999998
51
-108.126203
0
LINE
5
9c8
100
AcDbEntity
8
1
100
AcDbLine
6
CONTINUOUS
62
5
10
92.958181
20
152.138340
11
92.958181
21
165.300000
0
ARC
5
9c9
100
AcDbEntity
8
1
100
AcDbCircle
6
CONTINUOUS
62
5
10
91.458181
20
165.300000
40
1.500000
100
AcDbArc
50
0.000000
51
89.999999
0
LINE
5
9ca
100
AcDbEntity
8
1
100
AcDbLine
6
CONTINUOUS
62
5
10
91.458181
20
166.800000
11
91.158181
21
166.800000
0
ARC
5
9cb
100
AcDbEntity
8
1
100
AcDbCircle
6
CONTINUOUS
62
5
10
91.158181
20
167.300000
40
0.500000
100
AcDbArc
50
179.999998
51
-89.999999
0
LINE
5
9cc
100
AcDbEntity
8
1
100
AcDbLine
6
CONTINUOUS
62
5
10
90.658181
20
167.300000
11
90.658181
21
169.200000
0
ARC
5
9cd
100
AcDbEntity
8
1
100
AcDbCircle
6
CONTINUOUS
62
5
10
91.158181
20
169.200000
40
0.500000
100
AcDbArc
50
89.999999
51
-179.999998
0
LINE
5
9ce
100
AcDbEntity
8
1
100
AcDbLine
6
CONTINUOUS
62
5
10
91.158181
20
169.700000
11
91.958176
21
169.700000
0
ARC
5
9cf
100
AcDbEntity
8
1
100
AcDbCircle
6
CONTINUOUS
62
5
10
91.958181
20
170.700000
40
1.000000
100
AcDbArc
50
-90.000316
51
-17.061531
0
LINE
5
9d0
100
AcDbEntity
8
1
100
AcDbLine
6
CONTINUOUS
62
5
10
92.914172
20
170.406601
11
93.002191
21
170.693399
0
ARC
5
9d1
100
AcDbEntity
8
1
100
AcDbCircle
6
CONTINUOUS
62
5
10
93.958181
20
170.400000
40
1.000000
100
AcDbArc
50
89.999999
51
162.938467
0
LINE
5
9d2
100
AcDbEntity
8
1
100
AcDbLine
6
CONTINUOUS
62
5
10
93.958181
20
171.400000
11
94.958181
21
171.400000
0
ARC
5
9d3
100
AcDbEntity
8
1
100
AcDbCircle
6
CONTINUOUS
62
5
10
94.958181
20
171.700000
40
0.300000
100
AcDbArc
50
-89.999999
51
-0.000000
0
POLYLINE
5
9d4
100
AcDbEntity
8
1
6
CONTINUOUS
62
5
100
AcDb2dPolyline
66
1
10
0.0
20
0.0
30
0.0
70
0
0
VERTEX
5
9d5
100
AcDbEntity
8
1
100
AcDbVertex
100
AcDb2dVertex
62
5
10
95.258181
20
171.700000
0
VERTEX
5
9d6
100
AcDbEntity
8
1
100
AcDbVertex
100
AcDb2dVertex
62
5
10
95.258181
20
172.500000
0
VERTEX
5
9d7
100
AcDbEntity
8
1
100
AcDbVertex
100
AcDb2dVertex
62
5
10
98.758181
20
172.500000
0
VERTEX
5
9d8
100
AcDbEntity
8
1
100
AcDbVertex
100
AcDb2dVertex
62
5
10
98.758181
20
171.700000
0
VERTEX
5
9d9
100
AcDbEntity
8
1
100
AcDbVertex
100
AcDb2dVertex
62
5
10
98.358181
20
171.700000
0
SEQEND
5
9da
100
AcDbEntity
8
1
0
POLYLINE
5
9db
100
AcDbEntity
8
1
6
CONTINUOUS
62
5
100
AcDb2dPolyline
66
1
10
0.0
20
0.0
30
0.0
70
0
0
VERTEX
5
9dc
100
AcDbEntity
8
1
100
AcDbVertex
100
AcDb2dVertex
62
5
10
98.358181
20
128.300000
0
VERTEX
5
9dd
100
AcDbEntity
8
1
100
AcDbVertex
100
AcDb2dVertex
62
5
10
98.758181
20
128.300000
0
VERTEX
5
9de
100
AcDbEntity
8
1
100
AcDbVertex
100
AcDb2dVertex
62
5
10
98.758181
20
127.500000
0
VERTEX
5
9df
100
AcDbEntity
8
1
100
AcDbVertex
100
AcDb2dVertex
62
5
10
95.258181
20
127.500000
0
VERTEX
5
9e0
100
AcDbEntity
8
1
100
AcDbVertex
100
AcDb2dVertex
62
5
10
95.258181
20
128.300000
0
SEQEND
5
9e1
100
AcDbEntity
8
1
0
ARC
5
9e2
100
AcDbEntity
8
1
100
AcDbCircle
6
CONTINUOUS
62
5
10
92.758176
20
171.000000
40
1.500000
100
AcDbArc
50
89.999999
51
179.999998
0
LINE
5
9e3
100
AcDbEntity
8
1
100
AcDbLine
6
CONTINUOUS
62
5
10
92.758176
20
172.500000
11
94.558176
21
172.500000
0
ARC
5
9e4
100
AcDbEntity
8
1
100
AcDbCircle
6
CONTINUOUS
62
5
10
94.558176
20
172.000000
40
0.500000
100
AcDbArc
50
0.000000
51
89.999999
0
LINE
5
9e5
100
AcDbEntity
8
1
100
AcDbLine
6
CONTINUOUS
62
5
10
95.058176
20
172.000000
11
95.058176
21
171.600000
0
LINE
5
9e6
100
AcDbEntity
8
1
100
AcDbLine
6
CONTINUOUS
62
5
10
98.758176
20
171.600000
11
98.758176
21
172.400000
0
ARC
5
9e7
100
AcDbEntity
8
1
100
AcDbCircle
6
CONTINUOUS
62
5
10
99.258176
20
172.400000
40
0.500000
100
AcDbArc
50
89.999999
51
179.999998
0
LINE
5
9e8
100
AcDbEntity
8
1
100
AcDbLine
6
CONTINUOUS
62
5
10
99.258176
20
172.900000
11
126.258176
21
172.900000
0
ARC
5
9e9
100
AcDbEntity
8
1
100
AcDbCircle
6
CONTINUOUS
62
5
10
126.258176
20
172.400000
40
0.500000
100
AcDbArc
50
0.000000
51
89.999999
0
LINE
5
9ea
100
AcDbEntity
8
1
100
AcDbLine
6
CONTINUOUS
62
5
10
126.758176
20
172.400000
11
126.758176
21
171.600000
0
LINE
5
9eb
100
AcDbEntity
8
1
100
AcDbLine
6
CONTINUOUS
62
5
10
130.458176
20
171.600000
11
130.458176
21
172.000000
0
ARC
5
9ec
100
AcDbEntity
8
1
100
AcDbCircle
6
CONTINUOUS
62
5
10
130.958176
20
172.000000
40
0.500000
100
AcDbArc
50
89.999999
51
179.999998
0
LINE
5
9ed
100
AcDbEntity
8
1
100
AcDbLine
6
CONTINUOUS
62
5
10
130.958176
20
172.500000
11
132.758176
21
172.500000
0
ARC
5
9ee
100
AcDbEntity
8
1
100
AcDbCircle
6
CONTINUOUS
62
5
10
132.758176
20
171.000000
40
1.500000
100
AcDbArc
50
0.000000
51
89.999999
0
LINE
5
9ef
100
AcDbEntity
8
1
100
AcDbLine
6
CONTINUOUS
62
5
10
134.258176
20
171.000000
11
134.258176
21
169.700000
0
LINE
5
9f0
100
AcDbEntity
8
1
100
AcDbLine
6
CONTINUOUS
62
5
10
134.258176
20
166.800000
11
134.258176
21
133.200000
0
LINE
5
9f1
100
AcDbEntity
8
1
100
AcDbLine
6
CONTINUOUS
62
5
10
134.258176
20
130.300000
11
134.258176
21
129.000000
0
ARC
5
9f2
100
AcDbEntity
8
1
100
AcDbCircle
6
CONTINUOUS
62
5
10
132.758176
20
129.000000
40
1.500000
100
AcDbArc
50
-89.999999
51
0.000000
0
LINE
5
9f3
100
AcDbEntity
8
1
100
AcDbLine
6
CONTINUOUS
62
5
10
132.758176
20
127.500000
11
130.958176
21
127.500000
0
ARC
5
9f4
100
AcDbEntity
8
1
100
AcDbCircle
6
CONTINUOUS
62
5
10
130.958176
20
128.000000
40
0.500000
100
AcDbArc
50
179.999998
51
-89.999999
0
LINE
5
9f5
100
AcDbEntity
8
1
100
AcDbLine
6
CONTINUOUS
62
5
10
130.458176
20
128.000000
11
130.458176
21
128.400000
0
LINE
5
9f6
100
AcDbEntity
8
1
100
AcDbLine
6
CONTINUOUS
62
5
10
126.758176
20
128.400000
11
126.758176
21
127.600000
0
ARC
5
9f7
100
AcDbEntity
8
1
100
AcDbCircle
6
CONTINUOUS
62
5
10
126.258176
20
127.600000
40
0.500000
100
AcDbArc
50
-89.999999
51
0.000000
0
LINE
5
9f8
100
AcDbEntity
8
1
100
AcDbLine
6
CONTINUOUS
62
5
10
126.258176
20
127.100000
11
99.258176
21
127.100000
0
ARC
5
9f9
100
AcDbEntity
8
1
100
AcDbCircle
6
CONTINUOUS
62
5
10
99.258176
20
127.600000
40
0.500000
100
AcDbArc
50
179.999998
51
-89.999999
0
LINE
5
9fa
100
AcDbEntity
8
1
100
AcDbLine
6
CONTINUOUS
62
5
10
98.758176
20
127.600000
11
98.758176
21
128.400000
0
LINE
5
9fb
100
AcDbEntity
8
1
100
AcDbLine
6
CONTINUOUS
62
5
10
95.058176
20
128.400000
11
95.058176
21
128.000000
0
ARC
5
9fc
100
AcDbEntity
8
1
100
AcDbCircle
6
CONTINUOUS
62
5
10
94.558176
20
128.000000
40
0.500000
100
AcDbArc
50
-89.999999
51
0.000000
0
LINE
5
9fd
100
AcDbEntity
8
1
100
AcDbLine
6
CONTINUOUS
62
5
10
94.558176
20
127.500000
11
92.758176
21
127.500000
0
ARC
5
9fe
100
AcDbEntity
8
1
100
AcDbCircle
6
CONTINUOUS
62
5
10
92.758176
20
129.000000
40
1.500000
100
AcDbArc
50
179.999998
51
-89.999999
0
LINE
5
9ff
100
AcDbEntity
8
1
100
AcDbLine
6
CONTINUOUS
62
5
10
91.258176
20
129.000000
11
91.258176
21
130.300000
0
LINE
5
a00
100
AcDbEntity
8
1
100
AcDbLine
6
CONTINUOUS
62
5
10
91.258176
20
133.200000
11
91.258176
21
166.800000
0
LINE
5
a01
100
AcDbEntity
8
1
100
AcDbLine
6
CONTINUOUS
62
5
10
91.258176
20
169.700000
11
91.258176
21
171.000000
0
POLYLINE
5
a02
100
AcDbEntity
8
1
6
CONTINUOUS
62
5
100
AcDb2dPolyline
66
1
10
0.0
20
0.0
30
0.0
70
1
0
VERTEX
5
a03
100
AcDbEntity
8
1
100
AcDbVertex
100
AcDb2dVertex
62
5
10
0.000000
20
0.000000
0
VERTEX
5
a04
100
AcDbEntity
8
1
100
AcDbVertex
100
AcDb2dVertex
62
5
10
0.000000
20
340.000000
0
VERTEX
5
a05
100
AcDbEntity
8
1
100
AcDbVertex
100
AcDb2dVertex
62
5
10
320.000000
20
340.000000
0
VERTEX
5
a06
100
AcDbEntity
8
1
100
AcDbVertex
100
AcDb2dVertex
62
5
10
320.000000
20
0.000000
0
VERTEX
5
a07
100
AcDbEntity
8
1
100
AcDbVertex
100
AcDb2dVertex
62
5
10
0.000000
20
0.000000
0
SEQEND
5
a08
100
AcDbEntity
8
1
0
ENDSEC
0
SECTION
2
OBJECTS
0
DICTIONARY
5
a09
100
AcDbDictionary
3
ACAD_GROUP
350
a0a
3
ACAD_MLINESTYLE
350
a0b
0
DICTIONARY
5
a0a
102
{ACAD_REACTORS
330
a09
102
}
100
AcDbDictionary
0
DICTIONARY
5
a0b
102
{ACAD_REACTORS
330
a09
102
}
100
AcDbDictionary
3
STANDARD
350
a0c
0
MLINESTYLE
5
a0c
102
{ACAD_REACTORS
330
a0b
102
}
100
AcDbMlineStyle
2
STANDARD
70
0
3

62
0
51
90.0
52
90.0
71
2
49
0.5
62
256
6
BYLAYER
49
-0.5
62
256
6
BYLAYER
0
ENDSEC
0
EOF
