0
SECTION
2
HEADER
9
$ACADVER
1
AC1012
9
$EXTMIN
10
-0.010000
20
-0.010000
30
0.0
9
$EXTMAX
10
13.390000
20
14.180000
30
0.0
9
$LIMMIN
10
-0.254000
20
-0.254000
9
$LIMMAX
10
340.106000
20
360.172000
9
$DIMSCALE
40
1.000000
9
$PDMODE
70
2
9
$PDSIZE
40
0.0
  9
$HANDSEED
  5
9c0
0
ENDSEC
0
SECTION
2
CLASSES
0
ENDSEC
0
SECTION
2
TABLES
0
TABLE
2
LTYPE
5
1e
100
AcDbSymbolTable
70
12
0
LTYPE
5
1f
100
AcDbSymbolTableRecord
100
AcDbLinetypeTableRecord
2
BYBLOCK
70
0
3

72
65
73
0
40
0.0
0
LTYPE
5
20
100
AcDbSymbolTableRecord
100
AcDbLinetypeTableRecord
2
BYLAYER
70
0
3

72
65
73
0
40
0.0
0
LTYPE
5
21
100
AcDbSymbolTableRecord
100
AcDbLinetypeTableRecord
2
CONTINUOUS
70
64
3
Solid line
72
65
73
0
40
0.0
0
LTYPE
5
22
100
AcDbSymbolTableRecord
100
AcDbLinetypeTableRecord
2
DASHED
70
64
3
__ __ __ __ __ __ __ __ __ __ __ __ __ __ __
72
65
73
2
40
0.75
49
0.5
74
0
49
-0.25
74
0
0
LTYPE
5
23
100
AcDbSymbolTableRecord
100
AcDbLinetypeTableRecord
2
DOT
70
64
3
...............................................
72
65
73
2
40
0.25
49
0.0
74
0
49
-0.25
74
0
0
LTYPE
5
24
100
AcDbSymbolTableRecord
100
AcDbLinetypeTableRecord
2
DASHDOT
70
64
3
__ . __ . __ . __ . __ . __ . __ . __ . __ . --
72
65
73
4
40
1.0
49
0.5
74
0
49
-0.25
74
0
49
0.0
74
0
49
-0.25
74
0
0
LTYPE
5
25
100
AcDbSymbolTableRecord
100
AcDbLinetypeTableRecord
2
CENTER
70
64
3
____ _ ____ _ ____ _ ____ _ ____ _ ____ _ ____
72
65
73
4
40
2.0
49
1.25
74
0
49
-0.25
74
0
49
0.25
74
0
49
-0.25
74
0
0
LTYPE
5
26
100
AcDbSymbolTableRecord
100
AcDbLinetypeTableRecord
2
PHANTOM
70
64
3
_____ _ _ _____ _ _ _____ _ _ _____ _ _ ____
72
65
73
6
40
2.5
49
1.25
74
0
49
-0.25
74
0
49
0.25
74
0
49
-0.25
74
0
49
0.25
74
0
49
-0.25
74
0
0
LTYPE
5
27
100
AcDbSymbolTableRecord
100
AcDbLinetypeTableRecord
2
HIDDEN
70
64
3
_ _ _ _ _ _ _ _ _ _ _ _ _ _ _ _ _ _ _ _ _ _ _
72
65
73
2
40
0.375
49
0.25
74
0
49
-0.125
74
0
0
LTYPE
5
28
100
AcDbSymbolTableRecord
100
AcDbLinetypeTableRecord
2
BORDER
70
64
3
__ __ . __ __ . __ __ . __ __ . __ __ . __ __
72
65
73
6
40
1.75
49
0.5
74
0
49
-0.25
74
0
49
0.5
74
0
49
-0.25
74
0
49
0.0
74
0
49
-0.25
74
0
0
LTYPE
5
29
100
AcDbSymbolTableRecord
100
AcDbLinetypeTableRecord
2
DIVIDE
70
64
3
__ . . __ . . __ . . __ . . __ . . __ . . __
72
65
73
6
40
1.25
49
0.5
74
0
49
-0.25
74
0
49
0.0
74
0
49
-0.25
74
0
49
0.0
74
0
49
-0.25
74
0
0
LTYPE
5
2a
100
AcDbSymbolTableRecord
100
AcDbLinetypeTableRecord
2
DOT2
70
64
3
...............................................
72
65
73
2
40
0.125
49
0.0
74
0
49
-0.125
74
0
0
ENDTAB
0
TABLE
2
STYLE
5
2b
100
AcDbSymbolTable
70
1
0
STYLE
5
2c
100
AcDbSymbolTableRecord
100
AcDbTextStyleTableRecord
2
STANDARD
70
64
40
0.0
41
1.0
50
0.0
71
0
42
5.0
3
txt
4
bigfont
0
ENDTAB
0
TABLE
2
LAYER
5
2d
100
AcDbSymbolTable
70
2
0
LAYER
5
2e
100
AcDbSymbolTableRecord
100
AcDbLayerTableRecord
2
0
70
0
62
7
6
CONTINUOUS
0
LAYER
5
2f
100
AcDbSymbolTableRecord
100
AcDbLayerTableRecord
2
1
70
0
62
7
6
CONTINUOUS
0
ENDTAB
0
TABLE
2
APPID
5
30
100
AcDbSymbolTable
70
1
0
APPID
5
31
100
AcDbSymbolTableRecord
100
AcDbRegAppTableRecord
2
ACAD
70
64
0
ENDTAB
0
TABLE
2
DIMSTYLE
5
32
100
AcDbSymbolTable
70
0
0
ENDTAB
0
TABLE
2
UCS
5
33
100
AcDbSymbolTable
70
0
0
ENDTAB
0
TABLE
2
VIEW
5
34
100
AcDbSymbolTable
70
0
0
ENDTAB
0
TABLE
2
VPORT
5
35
100
AcDbSymbolTable
70
0
0
ENDTAB
0
TABLE
2
BLOCK_RECORD
5
36
100
AcDbSymbolTable
70
0
0
BLOCK_RECORD
5
37
100
AcDbSymbolTableRecord
100
AcDbBlockTableRecord
2
*MODEL_SPACE
0
BLOCK_RECORD
5
38
100
AcDbSymbolTableRecord
100
AcDbBlockTableRecord
2
*PAPER_SPACE
0
BLOCK_RECORD
5
39
100
AcDbSymbolTableRecord
100
AcDbBlockTableRecord
2
OPEN
0
BLOCK_RECORD
5
3a
100
AcDbSymbolTableRecord
100
AcDbBlockTableRecord
2
HALF
0
BLOCK_RECORD
5
3b
100
AcDbSymbolTableRecord
100
AcDbBlockTableRecord
2
CLOSEDBLANK
0
BLOCK_RECORD
5
3c
100
AcDbSymbolTableRecord
100
AcDbBlockTableRecord
2
HALFCLOSE_R
0
BLOCK_RECORD
5
3d
100
AcDbSymbolTableRecord
100
AcDbBlockTableRecord
2
DOT
0
BLOCK_RECORD
5
3e
100
AcDbSymbolTableRecord
100
AcDbBlockTableRecord
2
HALFOPEN_R
0
BLOCK_RECORD
5
3f
100
AcDbSymbolTableRecord
100
AcDbBlockTableRecord
2
CLOSEDF
0
BLOCK_RECORD
5
40
100
AcDbSymbolTableRecord
100
AcDbBlockTableRecord
2
HALF_R
0
ENDTAB
0
ENDSEC
0
SECTION
2
BLOCKS
0
BLOCK
5
41
100
AcDbEntity
8
0
100
AcDbBlockBegin
2
*MODEL_SPACE
70
0
10
0.0
20
0.0
30
0.0
3
*MODEL_SPACE
1

0
ENDBLK
5
42
100
AcDbEntity
8
0
100
AcDbBlockEnd
0
BLOCK
5
43
100
AcDbEntity
67
1
8
0
100
AcDbBlockBegin
2
*PAPER_SPACE
70
0
10
0.0
20
0.0
30
0.0
3
*PAPER_SPACE
1

0
ENDBLK
5
44
100
AcDbEntity
67
1
8
0
100
AcDbBlockEnd
0
BLOCK
5
45
100
AcDbEntity
8
0
100
AcDbBlockBegin
2
OPEN
70
0
10
0.0
20
0.0
30
0.0
3
OPEN
1

0
LINE
5
46
100
AcDbEntity
8
0
6
BYBLOCK
62
0
100
AcDbLine
10
0.000000
20
0.000000
11
-1.000000
21
0.000000
0
LINE
5
47
100
AcDbEntity
8
0
6
BYBLOCK
62
0
100
AcDbLine
10
-1.000000
20
-0.166667
11
0.000000
21
0.000000
0
LINE
5
48
100
AcDbEntity
8
0
6
BYBLOCK
62
0
100
AcDbLine
10
-1.000000
20
0.166667
11
0.000000
21
0.000000
0
ENDBLK
5
49
100
AcDbEntity
8
0
100
AcDbBlockEnd
0
BLOCK
5
4a
100
AcDbEntity
8
0
100
AcDbBlockBegin
2
HALF
70
0
10
0.0
20
0.0
30
0.0
3
HALF
1

0
SOLID
5
4b
100
AcDbEntity
8
0
6
BYBLOCK
62
0
100
AcDbTrace
10
-1.000000
20
0.166667
11
-1.000000
21
-0.166667
12
0.000000
22
0.000000
13
0.000000
23
0.000000
0
ENDBLK
5
4c
100
AcDbEntity
8
0
100
AcDbBlockEnd
0
BLOCK
5
4d
100
AcDbEntity
8
0
100
AcDbBlockBegin
2
CLOSEDBLANK
70
0
10
0.0
20
0.0
30
0.0
3
CLOSEDBLANK
1

0
LINE
5
4e
100
AcDbEntity
8
0
6
BYBLOCK
62
0
100
AcDbLine
10
-1.000000
20
0.166667
11
-1.000000
21
-0.166667
0
LINE
5
4f
100
AcDbEntity
8
0
6
BYBLOCK
62
0
100
AcDbLine
10
0.000000
20
0.000000
11
-1.000000
21
-0.166667
0
LINE
5
50
100
AcDbEntity
8
0
6
BYBLOCK
62
0
100
AcDbLine
10
-1.000000
20
0.166667
11
0.000000
21
0.000000
0
ENDBLK
5
51
100
AcDbEntity
8
0
100
AcDbBlockEnd
0
BLOCK
5
52
100
AcDbEntity
8
0
100
AcDbBlockBegin
2
HALFCLOSE_R
70
0
10
0.0
20
0.0
30
0.0
3
HALFCLOSE_R
1

0
LINE
5
53
100
AcDbEntity
8
0
6
BYBLOCK
62
0
100
AcDbLine
10
-1.000000
20
-0.166667
11
-1.000000
21
0.000000
0
LINE
5
54
100
AcDbEntity
8
0
6
BYBLOCK
62
0
100
AcDbLine
10
-1.000000
20
-0.166667
11
0.000000
21
0.000000
0
LINE
5
55
100
AcDbEntity
8
0
6
BYBLOCK
62
0
100
AcDbLine
10
0.000000
20
0.000000
11
-1.000000
21
0.000000
0
ENDBLK
5
56
100
AcDbEntity
8
0
100
AcDbBlockEnd
0
BLOCK
5
57
100
AcDbEntity
8
0
100
AcDbBlockBegin
2
DOT
70
0
10
0.0
20
0.0
30
0.0
3
DOT
1

0
LINE
5
58
100
AcDbEntity
8
0
6
BYBLOCK
62
0
100
AcDbLine
10
0.000000
20
0.000000
11
-1.000000
21
0.000000
0
POLYLINE
5
59
100
AcDbEntity
8
0
6
BYBLOCK
62
0
100
AcDb2dPolyline
66
1
10
0.0
20
0.0
30
0.0
70
1
40
0.166667
41
0.166667
0
VERTEX
5
5a
100
AcDbEntity
8
0
100
AcDbVertex
100
AcDb2dVertex
62
10
10
-0.083333
20
0.000000
42
1.000000
0
VERTEX
5
5b
100
AcDbEntity
8
0
100
AcDbVertex
100
AcDb2dVertex
62
10
10
0.083333
20
0.000000
42
1.000000
0
SEQEND
5
5c
100
AcDbEntity
8
0
0
ENDBLK
5
5d
100
AcDbEntity
8
0
100
AcDbBlockEnd
0
BLOCK
5
5e
100
AcDbEntity
8
0
100
AcDbBlockBegin
2
HALFOPEN_R
70
0
10
0.0
20
0.0
30
0.0
3
HALFOPEN_R
1

0
LINE
5
5f
100
AcDbEntity
8
0
6
BYBLOCK
62
0
100
AcDbLine
10
-1.000000
20
-0.166667
11
0.000000
21
0.000000
0
LINE
5
60
100
AcDbEntity
8
0
6
BYBLOCK
62
0
100
AcDbLine
10
0.000000
20
0.000000
11
-1.000000
21
0.000000
0
ENDBLK
5
61
100
AcDbEntity
8
0
100
AcDbBlockEnd
0
BLOCK
5
62
100
AcDbEntity
8
0
100
AcDbBlockBegin
2
CLOSEDF
70
0
10
0.0
20
0.0
30
0.0
3
CLOSEDF
1

0
SOLID
5
63
100
AcDbEntity
8
0
6
BYBLOCK
62
0
100
AcDbTrace
10
-1.000000
20
0.166667
11
-1.000000
21
-0.166667
12
0.000000
22
0.000000
13
0.000000
23
0.000000
0
ENDBLK
5
64
100
AcDbEntity
8
0
100
AcDbBlockEnd
0
BLOCK
5
65
100
AcDbEntity
8
0
100
AcDbBlockBegin
2
HALF_R
70
0
10
0.0
20
0.0
30
0.0
3
HALF_R
1

0
SOLID
5
66
100
AcDbEntity
8
0
6
BYBLOCK
62
0
100
AcDbTrace
10
-1.000000
20
-0.166667
11
-1.000000
21
0.000000
12
0.000000
22
0.000000
13
0.000000
23
0.000000
0
ENDBLK
5
67
100
AcDbEntity
8
0
100
AcDbBlockEnd
0
ENDSEC
0
SECTION
2
ENTITIES
0
POLYLINE
5
68
100
AcDbEntity
8
1
6
CONTINUOUS
62
5
100
AcDb2dPolyline
66
1
10
0.0
20
0.0
30
0.0
70
0
0
VERTEX
5
69
100
AcDbEntity
8
1
100
AcDbVertex
100
AcDb2dVertex
62
5
10
222.500000
20
339.312500
0
VERTEX
5
6a
100
AcDbEntity
8
1
100
AcDbVertex
100
AcDb2dVertex
62
5
10
221.500000
20
336.500000
0
VERTEX
5
6b
100
AcDbEntity
8
1
100
AcDbVertex
100
AcDb2dVertex
62
5
10
220.250000
20
334.312500
0
SEQEND
5
6c
100
AcDbEntity
8
1
0
LINE
5
6d
100
AcDbEntity
8
1
100
AcDbLine
6
CONTINUOUS
62
5
10
221.500000
20
336.500000
11
221.500000
21
330.562500
0
LINE
5
6e
100
AcDbEntity
8
1
100
AcDbLine
6
CONTINUOUS
62
5
10
222.250000
20
336.500000
11
227.500000
21
336.500000
0
POLYLINE
5
6f
100
AcDbEntity
8
1
6
CONTINUOUS
62
5
100
AcDb2dPolyline
66
1
10
0.0
20
0.0
30
0.0
70
0
0
VERTEX
5
70
100
AcDbEntity
8
1
100
AcDbVertex
100
AcDb2dVertex
62
5
10
225.750000
20
339.312500
0
VERTEX
5
71
100
AcDbEntity
8
1
100
AcDbVertex
100
AcDb2dVertex
62
5
10
225.750000
20
330.875000
0
VERTEX
5
72
100
AcDbEntity
8
1
100
AcDbVertex
100
AcDb2dVertex
62
5
10
224.250000
20
331.187500
0
SEQEND
5
73
100
AcDbEntity
8
1
0
LINE
5
74
100
AcDbEntity
8
1
100
AcDbLine
6
CONTINUOUS
62
5
10
223.250000
20
335.250000
11
224.250000
21
333.375000
0
LINE
5
75
100
AcDbEntity
8
1
100
AcDbLine
6
CONTINUOUS
62
5
10
182.250000
20
339.312500
11
181.250000
21
337.750000
0
LINE
5
76
100
AcDbEntity
8
1
100
AcDbLine
6
CONTINUOUS
62
5
10
181.000000
20
338.062500
11
182.000000
21
336.812500
0
LINE
5
77
100
AcDbEntity
8
1
100
AcDbLine
6
CONTINUOUS
62
5
10
182.750000
20
338.062500
11
181.000000
21
335.250000
0
LINE
5
78
100
AcDbEntity
8
1
100
AcDbLine
6
CONTINUOUS
62
5
10
180.500000
20
335.250000
11
182.750000
21
335.250000
0
LINE
5
79
100
AcDbEntity
8
1
100
AcDbLine
6
CONTINUOUS
62
5
10
182.500000
20
335.875000
11
183.000000
21
334.625000
0
LINE
5
7a
100
AcDbEntity
8
1
100
AcDbLine
6
CONTINUOUS
62
5
10
181.750000
20
335.250000
11
181.750000
21
330.875000
0
LINE
5
7b
100
AcDbEntity
8
1
100
AcDbLine
6
CONTINUOUS
62
5
10
181.000000
20
334.000000
11
180.750000
21
332.125000
0
LINE
5
7c
100
AcDbEntity
8
1
100
AcDbLine
6
CONTINUOUS
62
5
10
182.500000
20
334.000000
11
182.750000
21
332.750000
0
POLYLINE
5
7d
100
AcDbEntity
8
1
6
CONTINUOUS
62
5
100
AcDb2dPolyline
66
1
10
0.0
20
0.0
30
0.0
70
0
0
VERTEX
5
7e
100
AcDbEntity
8
1
100
AcDbVertex
100
AcDb2dVertex
62
5
10
184.750000
20
339.312500
0
VERTEX
5
7f
100
AcDbEntity
8
1
100
AcDbVertex
100
AcDb2dVertex
62
5
10
184.250000
20
338.062500
0
VERTEX
5
80
100
AcDbEntity
8
1
100
AcDbVertex
100
AcDb2dVertex
62
5
10
183.250000
20
336.500000
0
SEQEND
5
81
100
AcDbEntity
8
1
0
POLYLINE
5
82
100
AcDbEntity
8
1
6
CONTINUOUS
62
5
100
AcDb2dPolyline
66
1
10
0.0
20
0.0
30
0.0
70
0
0
VERTEX
5
83
100
AcDbEntity
8
1
100
AcDbVertex
100
AcDb2dVertex
62
5
10
184.250000
20
338.062500
0
VERTEX
5
84
100
AcDbEntity
8
1
100
AcDbVertex
100
AcDb2dVertex
62
5
10
186.000000
20
338.062500
0
VERTEX
5
85
100
AcDbEntity
8
1
100
AcDbVertex
100
AcDb2dVertex
62
5
10
185.250000
20
336.187500
0
SEQEND
5
86
100
AcDbEntity
8
1
0
POLYLINE
5
87
100
AcDbEntity
8
1
6
CONTINUOUS
62
5
100
AcDb2dPolyline
66
1
10
0.0
20
0.0
30
0.0
70
0
0
VERTEX
5
88
100
AcDbEntity
8
1
100
AcDbVertex
100
AcDb2dVertex
62
5
10
183.500000
20
336.187500
0
VERTEX
5
89
100
AcDbEntity
8
1
100
AcDbVertex
100
AcDb2dVertex
62
5
10
187.000000
20
336.187500
0
VERTEX
5
8a
100
AcDbEntity
8
1
100
AcDbVertex
100
AcDb2dVertex
62
5
10
187.000000
20
334.000000
0
VERTEX
5
8b
100
AcDbEntity
8
1
100
AcDbVertex
100
AcDb2dVertex
62
5
10
183.500000
20
334.000000
0
SEQEND
5
8c
100
AcDbEntity
8
1
0
POLYLINE
5
8d
100
AcDbEntity
8
1
6
CONTINUOUS
62
5
100
AcDb2dPolyline
66
1
10
0.0
20
0.0
30
0.0
70
0
0
VERTEX
5
8e
100
AcDbEntity
8
1
100
AcDbVertex
100
AcDb2dVertex
62
5
10
183.500000
20
336.187500
0
VERTEX
5
8f
100
AcDbEntity
8
1
100
AcDbVertex
100
AcDb2dVertex
62
5
10
183.500000
20
331.500000
0
VERTEX
5
90
100
AcDbEntity
8
1
100
AcDbVertex
100
AcDb2dVertex
62
5
10
183.750000
20
331.187500
0
VERTEX
5
91
100
AcDbEntity
8
1
100
AcDbVertex
100
AcDb2dVertex
62
5
10
187.250000
20
331.187500
0
VERTEX
5
92
100
AcDbEntity
8
1
100
AcDbVertex
100
AcDb2dVertex
62
5
10
187.250000
20
332.125000
0
SEQEND
5
93
100
AcDbEntity
8
1
0
LINE
5
94
100
AcDbEntity
8
1
100
AcDbLine
6
CONTINUOUS
62
5
10
185.250000
20
336.187500
11
185.250000
21
334.000000
0
LINE
5
95
100
AcDbEntity
8
1
100
AcDbLine
6
CONTINUOUS
62
5
10
190.250000
20
339.625000
11
189.000000
21
337.750000
0
LINE
5
96
100
AcDbEntity
8
1
100
AcDbLine
6
CONTINUOUS
62
5
10
188.750000
20
338.062500
11
189.750000
21
336.812500
0
LINE
5
97
100
AcDbEntity
8
1
100
AcDbLine
6
CONTINUOUS
62
5
10
190.750000
20
338.062500
11
188.750000
21
335.562500
0
LINE
5
98
100
AcDbEntity
8
1
100
AcDbLine
6
CONTINUOUS
62
5
10
188.500000
20
335.562500
11
190.750000
21
335.562500
0
LINE
5
99
100
AcDbEntity
8
1
100
AcDbLine
6
CONTINUOUS
62
5
10
190.500000
20
336.187500
11
191.000000
21
334.937500
0
LINE
5
9a
100
AcDbEntity
8
1
100
AcDbLine
6
CONTINUOUS
62
5
10
189.750000
20
335.562500
11
189.750000
21
330.875000
0
LINE
5
9b
100
AcDbEntity
8
1
100
AcDbLine
6
CONTINUOUS
62
5
10
189.000000
20
334.312500
11
188.500000
21
331.812500
0
LINE
5
9c
100
AcDbEntity
8
1
100
AcDbLine
6
CONTINUOUS
62
5
10
190.500000
20
334.312500
11
191.000000
21
332.750000
0
POLYLINE
5
9d
100
AcDbEntity
8
1
6
CONTINUOUS
62
5
100
AcDb2dPolyline
66
1
10
0.0
20
0.0
30
0.0
70
0
0
VERTEX
5
9e
100
AcDbEntity
8
1
100
AcDbVertex
100
AcDb2dVertex
62
5
10
191.750000
20
339.000000
0
VERTEX
5
9f
100
AcDbEntity
8
1
100
AcDbVertex
100
AcDb2dVertex
62
5
10
194.250000
20
339.000000
0
VERTEX
5
a0
100
AcDbEntity
8
1
100
AcDbVertex
100
AcDb2dVertex
62
5
10
194.250000
20
336.500000
0
SEQEND
5
a1
100
AcDbEntity
8
1
0
LINE
5
a2
100
AcDbEntity
8
1
100
AcDbLine
6
CONTINUOUS
62
5
10
192.000000
20
337.750000
11
194.250000
21
337.750000
0
LINE
5
a3
100
AcDbEntity
8
1
100
AcDbLine
6
CONTINUOUS
62
5
10
191.250000
20
336.500000
11
195.250000
21
336.500000
0
POLYLINE
5
a4
100
AcDbEntity
8
1
6
CONTINUOUS
62
5
100
AcDb2dPolyline
66
1
10
0.0
20
0.0
30
0.0
70
0
0
VERTEX
5
a5
100
AcDbEntity
8
1
100
AcDbVertex
100
AcDb2dVertex
62
5
10
193.250000
20
336.500000
0
VERTEX
5
a6
100
AcDbEntity
8
1
100
AcDbVertex
100
AcDb2dVertex
62
5
10
192.750000
20
335.562500
0
VERTEX
5
a7
100
AcDbEntity
8
1
100
AcDbVertex
100
AcDb2dVertex
62
5
10
191.500000
20
334.625000
0
SEQEND
5
a8
100
AcDbEntity
8
1
0
POLYLINE
5
a9
100
AcDbEntity
8
1
6
CONTINUOUS
62
5
100
AcDb2dPolyline
66
1
10
0.0
20
0.0
30
0.0
70
0
0
VERTEX
5
aa
100
AcDbEntity
8
1
100
AcDbVertex
100
AcDb2dVertex
62
5
10
192.750000
20
335.562500
0
VERTEX
5
ab
100
AcDbEntity
8
1
100
AcDbVertex
100
AcDb2dVertex
62
5
10
193.500000
20
334.625000
0
VERTEX
5
ac
100
AcDbEntity
8
1
100
AcDbVertex
100
AcDb2dVertex
62
5
10
193.750000
20
333.375000
0
VERTEX
5
ad
100
AcDbEntity
8
1
100
AcDbVertex
100
AcDb2dVertex
62
5
10
193.750000
20
332.437500
0
VERTEX
5
ae
100
AcDbEntity
8
1
100
AcDbVertex
100
AcDb2dVertex
62
5
10
193.000000
20
330.875000
0
VERTEX
5
af
100
AcDbEntity
8
1
100
AcDbVertex
100
AcDb2dVertex
62
5
10
192.250000
20
331.187500
0
SEQEND
5
b0
100
AcDbEntity
8
1
0
POLYLINE
5
b1
100
AcDbEntity
8
1
6
CONTINUOUS
62
5
100
AcDb2dPolyline
66
1
10
0.0
20
0.0
30
0.0
70
0
0
VERTEX
5
b2
100
AcDbEntity
8
1
100
AcDbVertex
100
AcDb2dVertex
62
5
10
193.250000
20
334.937500
0
VERTEX
5
b3
100
AcDbEntity
8
1
100
AcDbVertex
100
AcDb2dVertex
62
5
10
192.500000
20
334.000000
0
VERTEX
5
b4
100
AcDbEntity
8
1
100
AcDbVertex
100
AcDb2dVertex
62
5
10
191.750000
20
333.375000
0
SEQEND
5
b5
100
AcDbEntity
8
1
0
POLYLINE
5
b6
100
AcDbEntity
8
1
6
CONTINUOUS
62
5
100
AcDb2dPolyline
66
1
10
0.0
20
0.0
30
0.0
70
0
0
VERTEX
5
b7
100
AcDbEntity
8
1
100
AcDbVertex
100
AcDb2dVertex
62
5
10
193.500000
20
334.000000
0
VERTEX
5
b8
100
AcDbEntity
8
1
100
AcDbVertex
100
AcDb2dVertex
62
5
10
192.750000
20
332.750000
0
VERTEX
5
b9
100
AcDbEntity
8
1
100
AcDbVertex
100
AcDb2dVertex
62
5
10
192.000000
20
332.125000
0
VERTEX
5
ba
100
AcDbEntity
8
1
100
AcDbVertex
100
AcDb2dVertex
62
5
10
191.250000
20
331.812500
0
SEQEND
5
bb
100
AcDbEntity
8
1
0
LINE
5
bc
100
AcDbEntity
8
1
100
AcDbLine
6
CONTINUOUS
62
5
10
195.000000
20
335.562500
11
194.000000
21
334.312500
0
POLYLINE
5
bd
100
AcDbEntity
8
1
6
CONTINUOUS
62
5
100
AcDb2dPolyline
66
1
10
0.0
20
0.0
30
0.0
70
0
0
VERTEX
5
be
100
AcDbEntity
8
1
100
AcDbVertex
100
AcDb2dVertex
62
5
10
193.750000
20
336.500000
0
VERTEX
5
bf
100
AcDbEntity
8
1
100
AcDbVertex
100
AcDb2dVertex
62
5
10
194.000000
20
334.312500
0
VERTEX
5
c0
100
AcDbEntity
8
1
100
AcDbVertex
100
AcDb2dVertex
62
5
10
194.750000
20
332.125000
0
VERTEX
5
c1
100
AcDbEntity
8
1
100
AcDbVertex
100
AcDb2dVertex
62
5
10
195.500000
20
330.875000
0
SEQEND
5
c2
100
AcDbEntity
8
1
0
LINE
5
c3
100
AcDbEntity
8
1
100
AcDbLine
6
CONTINUOUS
62
5
10
196.500000
20
339.000000
11
200.250000
21
339.000000
0
LINE
5
c4
100
AcDbEntity
8
1
100
AcDbLine
6
CONTINUOUS
62
5
10
197.250000
20
339.000000
11
197.250000
21
332.437500
0
LINE
5
c5
100
AcDbEntity
8
1
100
AcDbLine
6
CONTINUOUS
62
5
10
199.250000
20
339.000000
11
199.250000
21
330.875000
0
LINE
5
c6
100
AcDbEntity
8
1
100
AcDbLine
6
CONTINUOUS
62
5
10
197.250000
20
336.812500
11
199.250000
21
336.812500
0
LINE
5
c7
100
AcDbEntity
8
1
100
AcDbLine
6
CONTINUOUS
62
5
10
197.250000
20
334.937500
11
199.250000
21
334.937500
0
LINE
5
c8
100
AcDbEntity
8
1
100
AcDbLine
6
CONTINUOUS
62
5
10
196.250000
20
332.125000
11
199.250000
21
333.062500
0
POLYLINE
5
c9
100
AcDbEntity
8
1
6
CONTINUOUS
62
5
100
AcDb2dPolyline
66
1
10
0.0
20
0.0
30
0.0
70
0
0
VERTEX
5
ca
100
AcDbEntity
8
1
100
AcDbVertex
100
AcDb2dVertex
62
5
10
200.000000
20
337.437500
0
VERTEX
5
cb
100
AcDbEntity
8
1
100
AcDbVertex
100
AcDb2dVertex
62
5
10
203.250000
20
337.437500
0
VERTEX
5
cc
100
AcDbEntity
8
1
100
AcDbVertex
100
AcDb2dVertex
62
5
10
202.750000
20
335.250000
0
VERTEX
5
cd
100
AcDbEntity
8
1
100
AcDbVertex
100
AcDb2dVertex
62
5
10
202.250000
20
334.000000
0
VERTEX
5
ce
100
AcDbEntity
8
1
100
AcDbVertex
100
AcDb2dVertex
62
5
10
201.250000
20
332.125000
0
VERTEX
5
cf
100
AcDbEntity
8
1
100
AcDbVertex
100
AcDb2dVertex
62
5
10
200.000000
20
330.875000
0
SEQEND
5
d0
100
AcDbEntity
8
1
0
POLYLINE
5
d1
100
AcDbEntity
8
1
6
CONTINUOUS
62
5
100
AcDb2dPolyline
66
1
10
0.0
20
0.0
30
0.0
70
0
0
VERTEX
5
d2
100
AcDbEntity
8
1
100
AcDbVertex
100
AcDb2dVertex
62
5
10
200.250000
20
336.187500
0
VERTEX
5
d3
100
AcDbEntity
8
1
100
AcDbVertex
100
AcDb2dVertex
62
5
10
201.000000
20
334.312500
0
VERTEX
5
d4
100
AcDbEntity
8
1
100
AcDbVertex
100
AcDb2dVertex
62
5
10
202.000000
20
332.437500
0
VERTEX
5
d5
100
AcDbEntity
8
1
100
AcDbVertex
100
AcDb2dVertex
62
5
10
203.500000
20
330.875000
0
SEQEND
5
d6
100
AcDbEntity
8
1
0
POLYLINE
5
d7
100
AcDbEntity
8
1
6
CONTINUOUS
62
5
100
AcDb2dPolyline
66
1
10
0.0
20
0.0
30
0.0
70
0
0
VERTEX
5
d8
100
AcDbEntity
8
1
100
AcDbVertex
100
AcDb2dVertex
62
5
10
206.500000
20
339.312500
0
VERTEX
5
d9
100
AcDbEntity
8
1
100
AcDbVertex
100
AcDb2dVertex
62
5
10
205.500000
20
336.500000
0
VERTEX
5
da
100
AcDbEntity
8
1
100
AcDbVertex
100
AcDb2dVertex
62
5
10
204.250000
20
334.312500
0
SEQEND
5
db
100
AcDbEntity
8
1
0
LINE
5
dc
100
AcDbEntity
8
1
100
AcDbLine
6
CONTINUOUS
62
5
10
205.500000
20
336.500000
11
205.500000
21
330.562500
0
LINE
5
dd
100
AcDbEntity
8
1
100
AcDbLine
6
CONTINUOUS
62
5
10
206.250000
20
336.500000
11
211.500000
21
336.500000
0
POLYLINE
5
de
100
AcDbEntity
8
1
6
CONTINUOUS
62
5
100
AcDb2dPolyline
66
1
10
0.0
20
0.0
30
0.0
70
0
0
VERTEX
5
df
100
AcDbEntity
8
1
100
AcDbVertex
100
AcDb2dVertex
62
5
10
209.750000
20
339.312500
0
VERTEX
5
e0
100
AcDbEntity
8
1
100
AcDbVertex
100
AcDb2dVertex
62
5
10
209.750000
20
330.875000
0
VERTEX
5
e1
100
AcDbEntity
8
1
100
AcDbVertex
100
AcDb2dVertex
62
5
10
208.250000
20
331.187500
0
SEQEND
5
e2
100
AcDbEntity
8
1
0
LINE
5
e3
100
AcDbEntity
8
1
100
AcDbLine
6
CONTINUOUS
62
5
10
207.250000
20
335.250000
11
208.250000
21
333.375000
0
LINE
5
e4
100
AcDbEntity
8
1
100
AcDbLine
6
CONTINUOUS
62
5
10
218.250000
20
335.562500
11
219.000000
21
335.562500
0
LINE
5
e5
100
AcDbEntity
8
1
100
AcDbLine
6
CONTINUOUS
62
5
10
212.250000
20
336.812500
11
214.750000
21
336.812500
0
LINE
5
e6
100
AcDbEntity
8
1
100
AcDbLine
6
CONTINUOUS
62
5
10
213.750000
20
339.312500
11
213.750000
21
330.562500
0
POLYLINE
5
e7
100
AcDbEntity
8
1
6
CONTINUOUS
62
5
100
AcDb2dPolyline
66
1
10
0.0
20
0.0
30
0.0
70
0
0
VERTEX
5
e8
100
AcDbEntity
8
1
100
AcDbVertex
100
AcDb2dVertex
62
5
10
213.750000
20
336.812500
0
VERTEX
5
e9
100
AcDbEntity
8
1
100
AcDbVertex
100
AcDb2dVertex
62
5
10
213.000000
20
334.312500
0
VERTEX
5
ea
100
AcDbEntity
8
1
100
AcDbVertex
100
AcDb2dVertex
62
5
10
212.250000
20
332.750000
0
SEQEND
5
eb
100
AcDbEntity
8
1
0
LINE
5
ec
100
AcDbEntity
8
1
100
AcDbLine
6
CONTINUOUS
62
5
10
213.750000
20
336.187500
11
214.500000
21
334.312500
0
POLYLINE
5
ed
100
AcDbEntity
8
1
6
CONTINUOUS
62
5
100
AcDb2dPolyline
66
1
10
0.0
20
0.0
30
0.0
70
0
0
VERTEX
5
ee
100
AcDbEntity
8
1
100
AcDbVertex
100
AcDb2dVertex
62
5
10
215.000000
20
337.750000
0
VERTEX
5
ef
100
AcDbEntity
8
1
100
AcDbVertex
100
AcDb2dVertex
62
5
10
217.750000
20
337.750000
0
VERTEX
5
f0
100
AcDbEntity
8
1
100
AcDbVertex
100
AcDb2dVertex
62
5
10
217.750000
20
336.500000
0
VERTEX
5
f1
100
AcDbEntity
8
1
100
AcDbVertex
100
AcDb2dVertex
62
5
10
218.250000
20
335.562500
0
SEQEND
5
f2
100
AcDbEntity
8
1
0
POLYLINE
5
f3
100
AcDbEntity
8
1
6
CONTINUOUS
62
5
100
AcDb2dPolyline
66
1
10
0.0
20
0.0
30
0.0
70
0
0
VERTEX
5
f4
100
AcDbEntity
8
1
100
AcDbVertex
100
AcDb2dVertex
62
5
10
216.500000
20
339.625000
0
VERTEX
5
f5
100
AcDbEntity
8
1
100
AcDbVertex
100
AcDb2dVertex
62
5
10
216.250000
20
337.125000
0
VERTEX
5
f6
100
AcDbEntity
8
1
100
AcDbVertex
100
AcDb2dVertex
62
5
10
215.750000
20
335.875000
0
VERTEX
5
f7
100
AcDbEntity
8
1
100
AcDbVertex
100
AcDb2dVertex
62
5
10
215.000000
20
335.250000
0
SEQEND
5
f8
100
AcDbEntity
8
1
0
POLYLINE
5
f9
100
AcDbEntity
8
1
6
CONTINUOUS
62
5
100
AcDb2dPolyline
66
1
10
0.0
20
0.0
30
0.0
70
0
0
VERTEX
5
fa
100
AcDbEntity
8
1
100
AcDbVertex
100
AcDb2dVertex
62
5
10
219.000000
20
335.562500
0
VERTEX
5
fb
100
AcDbEntity
8
1
100
AcDbVertex
100
AcDb2dVertex
62
5
10
219.250000
20
335.875000
0
VERTEX
5
fc
100
AcDbEntity
8
1
100
AcDbVertex
100
AcDb2dVertex
62
5
10
219.250000
20
337.125000
0
SEQEND
5
fd
100
AcDbEntity
8
1
0
LINE
5
fe
100
AcDbEntity
8
1
100
AcDbLine
6
CONTINUOUS
62
5
10
214.750000
20
333.687500
11
219.500000
21
333.687500
0
LINE
5
ff
100
AcDbEntity
8
1
100
AcDbLine
6
CONTINUOUS
62
5
10
217.000000
20
335.250000
11
217.000000
21
330.562500
0
LINE
5
100
100
AcDbEntity
8
1
100
AcDbLine
6
DOT2
62
5
10
257.374997
20
242.875000
11
256.749997
21
242.250000
0
POLYLINE
5
101
100
AcDbEntity
8
1
6
DOT2
62
5
100
AcDb2dPolyline
66
1
10
0.0
20
0.0
30
0.0
70
0
0
VERTEX
5
102
100
AcDbEntity
8
1
100
AcDbVertex
100
AcDb2dVertex
62
5
10
256.749997
20
242.875000
0
VERTEX
5
103
100
AcDbEntity
8
1
100
AcDbVertex
100
AcDb2dVertex
62
5
10
257.374997
20
242.250000
0
VERTEX
5
104
100
AcDbEntity
8
1
100
AcDbVertex
100
AcDb2dVertex
62
5
10
256.749997
20
242.250000
0
VERTEX
5
105
100
AcDbEntity
8
1
100
AcDbVertex
100
AcDb2dVertex
62
5
10
256.749997
20
242.875000
0
VERTEX
5
106
100
AcDbEntity
8
1
100
AcDbVertex
100
AcDb2dVertex
62
5
10
257.374997
20
242.875000
0
VERTEX
5
107
100
AcDbEntity
8
1
100
AcDbVertex
100
AcDb2dVertex
62
5
10
257.374997
20
242.250000
0
SEQEND
5
108
100
AcDbEntity
8
1
0
LINE
5
109
100
AcDbEntity
8
1
100
AcDbLine
6
DOT2
62
5
10
261.749997
20
249.750000
11
264.562497
21
249.750000
0
POLYLINE
5
10a
100
AcDbEntity
8
1
6
DOT2
62
5
100
AcDb2dPolyline
66
1
10
0.0
20
0.0
30
0.0
70
0
0
VERTEX
5
10b
100
AcDbEntity
8
1
100
AcDbVertex
100
AcDb2dVertex
62
5
10
261.749997
20
249.750000
0
VERTEX
5
10c
100
AcDbEntity
8
1
100
AcDbVertex
100
AcDb2dVertex
62
5
10
261.749997
20
246.000000
0
VERTEX
5
10d
100
AcDbEntity
8
1
100
AcDbVertex
100
AcDb2dVertex
62
5
10
262.374997
20
246.625000
0
VERTEX
5
10e
100
AcDbEntity
8
1
100
AcDbVertex
100
AcDb2dVertex
62
5
10
262.999997
20
246.937500
0
VERTEX
5
10f
100
AcDbEntity
8
1
100
AcDbVertex
100
AcDb2dVertex
62
5
10
263.937497
20
246.937500
0
VERTEX
5
110
100
AcDbEntity
8
1
100
AcDbVertex
100
AcDb2dVertex
62
5
10
264.562497
20
246.625000
0
VERTEX
5
111
100
AcDbEntity
8
1
100
AcDbVertex
100
AcDb2dVertex
62
5
10
264.874997
20
245.687500
0
VERTEX
5
112
100
AcDbEntity
8
1
100
AcDbVertex
100
AcDb2dVertex
62
5
10
264.874997
20
243.812500
0
VERTEX
5
113
100
AcDbEntity
8
1
100
AcDbVertex
100
AcDb2dVertex
62
5
10
264.249997
20
242.875000
0
VERTEX
5
114
100
AcDbEntity
8
1
100
AcDbVertex
100
AcDb2dVertex
62
5
10
263.312497
20
242.250000
0
VERTEX
5
115
100
AcDbEntity
8
1
100
AcDbVertex
100
AcDb2dVertex
62
5
10
261.749997
20
242.250000
0
SEQEND
5
116
100
AcDbEntity
8
1
0
POLYLINE
5
117
100
AcDbEntity
8
1
6
DOT2
62
5
100
AcDb2dPolyline
66
1
10
0.0
20
0.0
30
0.0
70
0
0
VERTEX
5
118
100
AcDbEntity
8
1
100
AcDbVertex
100
AcDb2dVertex
62
5
10
247.374997
20
249.125000
0
VERTEX
5
119
100
AcDbEntity
8
1
100
AcDbVertex
100
AcDb2dVertex
62
5
10
248.312497
20
249.750000
0
VERTEX
5
11a
100
AcDbEntity
8
1
100
AcDbVertex
100
AcDb2dVertex
62
5
10
248.312497
20
242.250000
0
SEQEND
5
11b
100
AcDbEntity
8
1
0
LINE
5
11c
100
AcDbEntity
8
1
100
AcDbLine
6
DOT2
62
5
10
247.687497
20
242.250000
11
248.937497
21
242.250000
0
POLYLINE
5
11d
100
AcDbEntity
8
1
6
DOT2
62
5
100
AcDb2dPolyline
66
1
10
0.0
20
0.0
30
0.0
70
1
0
VERTEX
5
11e
100
AcDbEntity
8
1
100
AcDbVertex
100
AcDb2dVertex
62
5
10
195.499997
20
249.750000
0
VERTEX
5
11f
100
AcDbEntity
8
1
100
AcDbVertex
100
AcDb2dVertex
62
5
10
196.124997
20
249.750000
0
VERTEX
5
120
100
AcDbEntity
8
1
100
AcDbVertex
100
AcDb2dVertex
62
5
10
196.749997
20
249.437500
0
VERTEX
5
121
100
AcDbEntity
8
1
100
AcDbVertex
100
AcDb2dVertex
62
5
10
197.062497
20
248.812500
0
VERTEX
5
122
100
AcDbEntity
8
1
100
AcDbVertex
100
AcDb2dVertex
62
5
10
197.062497
20
247.562500
0
VERTEX
5
123
100
AcDbEntity
8
1
100
AcDbVertex
100
AcDb2dVertex
62
5
10
196.749997
20
246.937500
0
VERTEX
5
124
100
AcDbEntity
8
1
100
AcDbVertex
100
AcDb2dVertex
62
5
10
194.874997
20
245.687500
0
VERTEX
5
125
100
AcDbEntity
8
1
100
AcDbVertex
100
AcDb2dVertex
62
5
10
194.249997
20
244.750000
0
VERTEX
5
126
100
AcDbEntity
8
1
100
AcDbVertex
100
AcDb2dVertex
62
5
10
194.249997
20
243.500000
0
VERTEX
5
127
100
AcDbEntity
8
1
100
AcDbVertex
100
AcDb2dVertex
62
5
10
194.562497
20
242.875000
0
VERTEX
5
128
100
AcDbEntity
8
1
100
AcDbVertex
100
AcDb2dVertex
62
5
10
194.874997
20
242.562500
0
VERTEX
5
129
100
AcDbEntity
8
1
100
AcDbVertex
100
AcDb2dVertex
62
5
10
195.499997
20
242.250000
0
VERTEX
5
12a
100
AcDbEntity
8
1
100
AcDbVertex
100
AcDb2dVertex
62
5
10
196.124997
20
242.250000
0
VERTEX
5
12b
100
AcDbEntity
8
1
100
AcDbVertex
100
AcDb2dVertex
62
5
10
196.749997
20
242.562500
0
VERTEX
5
12c
100
AcDbEntity
8
1
100
AcDbVertex
100
AcDb2dVertex
62
5
10
197.062497
20
242.875000
0
VERTEX
5
12d
100
AcDbEntity
8
1
100
AcDbVertex
100
AcDb2dVertex
62
5
10
197.374997
20
243.500000
0
VERTEX
5
12e
100
AcDbEntity
8
1
100
AcDbVertex
100
AcDb2dVertex
62
5
10
197.374997
20
244.750000
0
VERTEX
5
12f
100
AcDbEntity
8
1
100
AcDbVertex
100
AcDb2dVertex
62
5
10
196.749997
20
245.687500
0
VERTEX
5
130
100
AcDbEntity
8
1
100
AcDbVertex
100
AcDb2dVertex
62
5
10
194.874997
20
246.937500
0
VERTEX
5
131
100
AcDbEntity
8
1
100
AcDbVertex
100
AcDb2dVertex
62
5
10
194.562497
20
247.562500
0
VERTEX
5
132
100
AcDbEntity
8
1
100
AcDbVertex
100
AcDb2dVertex
62
5
10
194.562497
20
248.812500
0
VERTEX
5
133
100
AcDbEntity
8
1
100
AcDbVertex
100
AcDb2dVertex
62
5
10
194.874997
20
249.437500
0
VERTEX
5
134
100
AcDbEntity
8
1
100
AcDbVertex
100
AcDb2dVertex
62
5
10
195.499997
20
249.750000
0
SEQEND
5
135
100
AcDbEntity
8
1
0
LINE
5
136
100
AcDbEntity
8
1
100
AcDbLine
6
CONTINUOUS
62
5
10
213.450005
20
206.149986
11
213.700005
21
205.899986
0
ARC
5
137
100
AcDbEntity
8
1
100
AcDbCircle
6
CONTINUOUS
62
5
10
213.950005
20
208.499985
40
0.500000
100
AcDbArc
50
89.999999
51
-179.999998
0
POLYLINE
5
138
100
AcDbEntity
8
1
6
CONTINUOUS
62
5
100
AcDb2dPolyline
66
1
10
0.0
20
0.0
30
0.0
70
0
0
VERTEX
5
139
100
AcDbEntity
8
1
100
AcDbVertex
100
AcDb2dVertex
62
5
10
213.950005
20
208.999985
0
VERTEX
5
13a
100
AcDbEntity
8
1
100
AcDbVertex
100
AcDb2dVertex
62
5
10
214.550004
20
208.999985
0
VERTEX
5
13b
100
AcDbEntity
8
1
100
AcDbVertex
100
AcDb2dVertex
62
5
10
214.550004
20
209.499985
0
SEQEND
5
13c
100
AcDbEntity
8
1
0
ARC
5
13d
100
AcDbEntity
8
1
100
AcDbCircle
6
CONTINUOUS
62
5
10
215.350007
20
213.749984
40
0.500000
100
AcDbArc
50
-179.999998
51
-89.999999
0
LINE
5
13e
100
AcDbEntity
8
1
100
AcDbLine
6
CONTINUOUS
62
5
10
214.850007
20
213.749984
11
214.850007
21
215.499983
0
ARC
5
13f
100
AcDbEntity
8
1
100
AcDbCircle
6
CONTINUOUS
62
5
10
215.350007
20
215.499983
40
0.500000
100
AcDbArc
50
89.999999
51
179.999998
0
ARC
5
140
100
AcDbEntity
8
1
100
AcDbCircle
6
CONTINUOUS
62
5
10
215.050004
20
213.749984
40
0.500000
100
AcDbArc
50
179.999998
51
-89.999999
0
LINE
5
141
100
AcDbEntity
8
1
100
AcDbLine
6
CONTINUOUS
62
5
10
216.050007
20
213.249984
11
215.050004
21
213.249984
0
ARC
5
142
100
AcDbEntity
8
1
100
AcDbCircle
6
CONTINUOUS
62
5
10
215.050004
20
209.499985
40
0.500000
100
AcDbArc
50
179.999998
51
-89.999999
0
LINE
5
143
100
AcDbEntity
8
1
100
AcDbLine
6
CONTINUOUS
62
5
10
214.550004
20
209.499985
11
214.550004
21
215.499983
0
ARC
5
144
100
AcDbEntity
8
1
100
AcDbCircle
6
CONTINUOUS
62
5
10
215.050004
20
215.499983
40
0.500000
100
AcDbArc
50
161.564972
51
-179.999998
0
LINE
5
145
100
AcDbEntity
8
1
100
AcDbLine
6
CONTINUOUS
62
5
10
216.050007
20
208.999985
11
215.050004
21
208.999985
0
ARC
5
146
100
AcDbEntity
8
1
100
AcDbCircle
6
CONTINUOUS
62
5
10
223.199997
20
193.365015
40
0.500000
100
AcDbArc
50
0.000000
51
45.571290
0
POLYLINE
5
147
100
AcDbEntity
8
1
6
CONTINUOUS
62
5
100
AcDb2dPolyline
66
1
10
0.0
20
0.0
30
0.0
70
0
0
VERTEX
5
148
100
AcDbEntity
8
1
100
AcDbVertex
100
AcDb2dVertex
62
5
10
223.699997
20
193.365015
0
VERTEX
5
149
100
AcDbEntity
8
1
100
AcDbVertex
100
AcDb2dVertex
62
5
10
223.699997
20
192.146154
0
VERTEX
5
14a
100
AcDbEntity
8
1
100
AcDbVertex
100
AcDb2dVertex
62
5
10
223.550007
20
191.839253
0
SEQEND
5
14b
100
AcDbEntity
8
1
0
ARC
5
14c
100
AcDbEntity
8
1
100
AcDbCircle
6
CONTINUOUS
62
5
10
225.199997
20
192.739407
40
0.500000
100
AcDbArc
50
-86.478546
51
0.000000
0
LINE
5
14d
100
AcDbEntity
8
1
100
AcDbLine
6
CONTINUOUS
62
5
10
225.699997
20
192.739407
11
225.699997
21
193.288092
0
ARC
5
14e
100
AcDbEntity
8
1
100
AcDbCircle
6
CONTINUOUS
62
5
10
225.199997
20
193.288092
40
0.500000
100
AcDbArc
50
0.000000
51
68.360441
0
LINE
5
14f
100
AcDbEntity
8
1
100
AcDbLine
6
CONTINUOUS
62
5
10
223.699997
20
192.146154
11
225.230708
21
192.240351
0
LINE
5
150
100
AcDbEntity
8
1
100
AcDbLine
6
CONTINUOUS
62
5
10
219.699997
20
191.857062
11
219.699997
21
190.942920
0
ARC
5
151
100
AcDbEntity
8
1
100
AcDbCircle
6
CONTINUOUS
62
5
10
231.199997
20
184.500000
40
0.500000
100
AcDbArc
50
89.999999
51
179.999998
0
LINE
5
152
100
AcDbEntity
8
1
100
AcDbLine
6
CONTINUOUS
62
5
10
231.199997
20
185.000000
11
231.199997
21
185.000000
0
LINE
5
153
100
AcDbEntity
8
1
100
AcDbLine
6
CONTINUOUS
62
5
10
231.199997
20
183.000000
11
231.199997
21
183.000000
0
ARC
5
154
100
AcDbEntity
8
1
100
AcDbCircle
6
CONTINUOUS
62
5
10
231.199997
20
183.500000
40
0.500000
100
AcDbArc
50
179.999998
51
-89.999999
0
LINE
5
155
100
AcDbEntity
8
1
100
AcDbLine
6
CONTINUOUS
62
5
10
230.699997
20
183.500000
11
230.699997
21
184.500000
0
ARC
5
156
100
AcDbEntity
8
1
100
AcDbCircle
6
CONTINUOUS
62
5
10
225.332486
20
185.505488
40
1.600000
100
AcDbArc
50
64.499999
51
83.565383
0
LINE
5
157
100
AcDbEntity
8
1
100
AcDbLine
6
CONTINUOUS
62
5
10
226.021304
20
186.949624
11
226.681377
21
186.634786
0
ARC
5
158
100
AcDbEntity
8
1
100
AcDbCircle
6
CONTINUOUS
62
5
10
226.466121
20
186.183493
40
0.500000
100
AcDbArc
50
-25.500000
51
64.499999
0
LINE
5
159
100
AcDbEntity
8
1
100
AcDbLine
6
CONTINUOUS
62
5
10
226.917414
20
185.968238
11
225.752761
21
183.526492
0
ARC
5
15a
100
AcDbEntity
8
1
100
AcDbCircle
6
CONTINUOUS
62
5
10
224.669658
20
184.043105
40
1.200000
100
AcDbArc
50
-92.530341
51
-25.500000
0
LINE
5
15b
100
AcDbEntity
8
1
100
AcDbLine
6
CONTINUOUS
62
5
10
224.616680
20
182.844275
11
223.700000
21
182.884784
0
LINE
5
15c
100
AcDbEntity
8
1
100
AcDbLine
6
CONTINUOUS
62
5
10
223.550007
20
187.316659
11
225.511797
21
187.095409
0
LINE
5
15d
100
AcDbEntity
8
1
100
AcDbLine
6
CONTINUOUS
62
5
10
216.699997
20
191.999990
11
216.699997
21
191.300000
0
LINE
5
15e
100
AcDbEntity
8
1
100
AcDbLine
6
CONTINUOUS
62
5
10
215.899997
20
191.200000
11
216.699997
21
191.200000
0
LINE
5
15f
100
AcDbEntity
8
1
100
AcDbLine
6
CONTINUOUS
62
5
10
215.849997
20
190.600000
11
215.899997
21
190.600000
0
LINE
5
160
100
AcDbEntity
8
1
100
AcDbLine
6
CONTINUOUS
62
5
10
215.899997
20
188.400000
11
216.699997
21
188.400000
0
LINE
5
161
100
AcDbEntity
8
1
100
AcDbLine
6
CONTINUOUS
62
5
10
215.899997
20
191.999990
11
215.899997
21
188.249993
0
ARC
5
162
100
AcDbEntity
8
1
100
AcDbCircle
6
CONTINUOUS
62
5
10
214.899997
20
189.999999
40
1.000000
100
AcDbArc
50
-18.194872
51
18.194872
0
LINE
5
163
100
AcDbEntity
8
1
100
AcDbLine
6
CONTINUOUS
62
5
10
215.849997
20
188.249993
11
215.849997
21
191.999990
0
POLYLINE
5
164
100
AcDbEntity
8
1
6
CONTINUOUS
62
5
100
AcDb2dPolyline
66
1
10
0.0
20
0.0
30
0.0
70
0
0
VERTEX
5
165
100
AcDbEntity
8
1
100
AcDbVertex
100
AcDb2dVertex
62
5
10
216.699997
20
188.249993
0
VERTEX
5
166
100
AcDbEntity
8
1
100
AcDbVertex
100
AcDb2dVertex
62
5
10
216.699997
20
191.300000
0
VERTEX
5
167
100
AcDbEntity
8
1
100
AcDbVertex
100
AcDb2dVertex
62
5
10
215.849997
20
191.300000
0
SEQEND
5
168
100
AcDbEntity
8
1
0
LINE
5
169
100
AcDbEntity
8
1
100
AcDbLine
6
CONTINUOUS
62
5
10
217.699997
20
188.249993
11
217.699997
21
190.799991
0
ARC
5
16a
100
AcDbEntity
8
1
100
AcDbCircle
6
CONTINUOUS
62
5
10
221.136781
20
195.247740
40
0.500000
100
AcDbArc
50
64.758715
51
84.259946
0
LINE
5
16b
100
AcDbEntity
8
1
100
AcDbLine
6
CONTINUOUS
62
5
10
216.050007
20
196.361921
11
221.186789
21
195.745233
0
ARC
5
16c
100
AcDbEntity
8
1
100
AcDbCircle
6
CONTINUOUS
62
5
10
216.899997
20
190.599991
40
0.200000
100
AcDbArc
50
89.999999
51
-179.999998
0
LINE
5
16d
100
AcDbEntity
8
1
100
AcDbLine
6
CONTINUOUS
62
5
10
216.899997
20
190.799991
11
219.349997
21
190.799991
0
ARC
5
16e
100
AcDbEntity
8
1
100
AcDbCircle
6
CONTINUOUS
62
5
10
219.349997
20
191.299991
40
0.500000
100
AcDbArc
50
-89.999993
51
-0.000000
0
LINE
5
16f
100
AcDbEntity
8
1
100
AcDbLine
6
CONTINUOUS
62
5
10
219.849997
20
191.299991
11
219.849997
21
191.499991
0
ARC
5
170
100
AcDbEntity
8
1
100
AcDbCircle
6
CONTINUOUS
62
5
10
219.349997
20
191.499991
40
0.500000
100
AcDbArc
50
0.000000
51
89.933642
0
ARC
5
171
100
AcDbEntity
8
1
100
AcDbCircle
6
CONTINUOUS
62
5
10
213.050005
20
201.499988
40
1.000000
100
AcDbArc
50
89.999999
51
179.999998
0
ARC
5
172
100
AcDbEntity
8
1
100
AcDbCircle
6
CONTINUOUS
62
5
10
212.550005
20
199.499988
40
0.500000
100
AcDbArc
50
89.999999
51
179.999998
0
LINE
5
173
100
AcDbEntity
8
1
100
AcDbLine
6
CONTINUOUS
62
5
10
213.350005
20
199.999988
11
212.550005
21
199.999988
0
ARC
5
174
100
AcDbEntity
8
1
100
AcDbCircle
6
CONTINUOUS
62
5
10
212.550005
20
201.999987
40
0.500000
100
AcDbArc
50
89.999999
51
-179.999998
0
LINE
5
175
100
AcDbEntity
8
1
100
AcDbLine
6
CONTINUOUS
62
5
10
216.050007
20
202.499987
11
212.550005
21
202.499987
0
LINE
5
176
100
AcDbEntity
8
1
100
AcDbLine
6
CONTINUOUS
62
5
10
207.999997
20
195.150000
11
207.999997
21
243.000000
0
LINE
5
177
100
AcDbEntity
8
1
100
AcDbLine
6
CONTINUOUS
62
5
10
216.050007
20
217.499983
11
216.050007
21
243.000000
0
POLYLINE
5
178
100
AcDbEntity
8
1
6
CONTINUOUS
62
5
100
AcDb2dPolyline
66
1
10
0.0
20
0.0
30
0.0
70
0
0
VERTEX
5
179
100
AcDbEntity
8
1
100
AcDbVertex
100
AcDb2dVertex
62
5
10
191.749997
20
241.000000
0
VERTEX
5
17a
100
AcDbEntity
8
1
100
AcDbVertex
100
AcDb2dVertex
62
5
10
207.999997
20
241.000000
0
VERTEX
5
17b
100
AcDbEntity
8
1
100
AcDbVertex
100
AcDb2dVertex
62
5
10
201.999997
20
240.000000
0
VERTEX
5
17c
100
AcDbEntity
8
1
100
AcDbVertex
100
AcDb2dVertex
62
5
10
201.999997
20
242.000000
0
VERTEX
5
17d
100
AcDbEntity
8
1
100
AcDbVertex
100
AcDb2dVertex
62
5
10
207.999997
20
241.000000
0
VERTEX
5
17e
100
AcDbEntity
8
1
100
AcDbVertex
100
AcDb2dVertex
62
5
10
201.999997
20
240.500000
0
VERTEX
5
17f
100
AcDbEntity
8
1
100
AcDbVertex
100
AcDb2dVertex
62
5
10
201.999997
20
241.500000
0
VERTEX
5
180
100
AcDbEntity
8
1
100
AcDbVertex
100
AcDb2dVertex
62
5
10
207.999997
20
241.000000
0
SEQEND
5
181
100
AcDbEntity
8
1
0
LINE
5
182
100
AcDbEntity
8
1
100
AcDbLine
6
CONTINUOUS
62
5
10
207.999997
20
241.000000
11
216.050007
21
241.000000
0
LINE
5
183
100
AcDbEntity
8
1
100
AcDbLine
6
CONTINUOUS
62
5
10
221.050007
20
241.000000
11
216.050007
21
241.000000
0
POLYLINE
5
184
100
AcDbEntity
8
1
6
CONTINUOUS
62
5
100
AcDb2dPolyline
66
1
10
0.0
20
0.0
30
0.0
70
0
0
VERTEX
5
185
100
AcDbEntity
8
1
100
AcDbVertex
100
AcDb2dVertex
62
5
10
215.050007
20
240.500000
0
VERTEX
5
186
100
AcDbEntity
8
1
100
AcDbVertex
100
AcDb2dVertex
62
5
10
215.050007
20
241.500000
0
VERTEX
5
187
100
AcDbEntity
8
1
100
AcDbVertex
100
AcDb2dVertex
62
5
10
215.550007
20
242.000000
0
VERTEX
5
188
100
AcDbEntity
8
1
100
AcDbVertex
100
AcDb2dVertex
62
5
10
216.550007
20
242.000000
0
VERTEX
5
189
100
AcDbEntity
8
1
100
AcDbVertex
100
AcDb2dVertex
62
5
10
217.050007
20
241.500000
0
VERTEX
5
18a
100
AcDbEntity
8
1
100
AcDbVertex
100
AcDb2dVertex
62
5
10
217.050007
20
240.500000
0
VERTEX
5
18b
100
AcDbEntity
8
1
100
AcDbVertex
100
AcDb2dVertex
62
5
10
216.550007
20
240.000000
0
VERTEX
5
18c
100
AcDbEntity
8
1
100
AcDbVertex
100
AcDb2dVertex
62
5
10
215.550007
20
240.000000
0
VERTEX
5
18d
100
AcDbEntity
8
1
100
AcDbVertex
100
AcDb2dVertex
62
5
10
215.050007
20
240.500000
0
VERTEX
5
18e
100
AcDbEntity
8
1
100
AcDbVertex
100
AcDb2dVertex
62
5
10
217.050007
20
241.500000
0
SEQEND
5
18f
100
AcDbEntity
8
1
0
LINE
5
190
100
AcDbEntity
8
1
100
AcDbLine
6
CONTINUOUS
62
5
10
217.050007
20
240.500000
11
215.050007
21
241.500000
0
LINE
5
191
100
AcDbEntity
8
1
100
AcDbLine
6
CONTINUOUS
62
5
10
215.550007
20
242.000000
11
216.550007
21
240.000000
0
LINE
5
192
100
AcDbEntity
8
1
100
AcDbLine
6
CONTINUOUS
62
5
10
215.550007
20
240.000000
11
216.550007
21
242.000000
0
POLYLINE
5
193
100
AcDbEntity
8
1
6
DOT2
62
5
100
AcDb2dPolyline
66
1
10
0.0
20
0.0
30
0.0
70
0
0
VERTEX
5
194
100
AcDbEntity
8
1
100
AcDbVertex
100
AcDb2dVertex
62
5
10
254.874997
20
245.687500
0
VERTEX
5
195
100
AcDbEntity
8
1
100
AcDbVertex
100
AcDb2dVertex
62
5
10
254.874997
20
245.687500
0
VERTEX
5
196
100
AcDbEntity
8
1
100
AcDbVertex
100
AcDb2dVertex
62
5
10
253.624997
20
245.375000
0
VERTEX
5
197
100
AcDbEntity
8
1
100
AcDbVertex
100
AcDb2dVertex
62
5
10
252.687497
20
245.375000
0
VERTEX
5
198
100
AcDbEntity
8
1
100
AcDbVertex
100
AcDb2dVertex
62
5
10
252.062497
20
245.687500
0
VERTEX
5
199
100
AcDbEntity
8
1
100
AcDbVertex
100
AcDb2dVertex
62
5
10
251.749997
20
246.625000
0
VERTEX
5
19a
100
AcDbEntity
8
1
100
AcDbVertex
100
AcDb2dVertex
62
5
10
251.749997
20
248.187500
0
VERTEX
5
19b
100
AcDbEntity
8
1
100
AcDbVertex
100
AcDb2dVertex
62
5
10
252.062497
20
249.125000
0
VERTEX
5
19c
100
AcDbEntity
8
1
100
AcDbVertex
100
AcDb2dVertex
62
5
10
252.374997
20
249.437500
0
VERTEX
5
19d
100
AcDbEntity
8
1
100
AcDbVertex
100
AcDb2dVertex
62
5
10
252.999997
20
249.750000
0
VERTEX
5
19e
100
AcDbEntity
8
1
100
AcDbVertex
100
AcDb2dVertex
62
5
10
253.624997
20
249.750000
0
VERTEX
5
19f
100
AcDbEntity
8
1
100
AcDbVertex
100
AcDb2dVertex
62
5
10
254.249997
20
249.437500
0
VERTEX
5
1a0
100
AcDbEntity
8
1
100
AcDbVertex
100
AcDb2dVertex
62
5
10
254.562497
20
249.125000
0
VERTEX
5
1a1
100
AcDbEntity
8
1
100
AcDbVertex
100
AcDb2dVertex
62
5
10
254.874997
20
248.187500
0
VERTEX
5
1a2
100
AcDbEntity
8
1
100
AcDbVertex
100
AcDb2dVertex
62
5
10
254.874997
20
244.750000
0
VERTEX
5
1a3
100
AcDbEntity
8
1
100
AcDbVertex
100
AcDb2dVertex
62
5
10
254.562497
20
243.187500
0
VERTEX
5
1a4
100
AcDbEntity
8
1
100
AcDbVertex
100
AcDb2dVertex
62
5
10
253.937497
20
242.562500
0
VERTEX
5
1a5
100
AcDbEntity
8
1
100
AcDbVertex
100
AcDb2dVertex
62
5
10
252.999997
20
242.250000
0
VERTEX
5
1a6
100
AcDbEntity
8
1
100
AcDbVertex
100
AcDb2dVertex
62
5
10
252.374997
20
242.250000
0
SEQEND
5
1a7
100
AcDbEntity
8
1
0
LINE
5
1a8
100
AcDbEntity
8
1
100
AcDbLine
6
CONTINUOUS
62
5
10
157.750000
20
337.437500
11
158.750000
21
336.187500
0
POLYLINE
5
1a9
100
AcDbEntity
8
1
6
CONTINUOUS
62
5
100
AcDb2dPolyline
66
1
10
0.0
20
0.0
30
0.0
70
0
0
VERTEX
5
1aa
100
AcDbEntity
8
1
100
AcDbVertex
100
AcDb2dVertex
62
5
10
157.500000
20
332.437500
0
VERTEX
5
1ab
100
AcDbEntity
8
1
100
AcDbVertex
100
AcDb2dVertex
62
5
10
159.250000
20
333.375000
0
VERTEX
5
1ac
100
AcDbEntity
8
1
100
AcDbVertex
100
AcDb2dVertex
62
5
10
160.750000
20
334.625000
0
VERTEX
5
1ad
100
AcDbEntity
8
1
100
AcDbVertex
100
AcDb2dVertex
62
5
10
162.250000
20
336.187500
0
SEQEND
5
1ae
100
AcDbEntity
8
1
0
POLYLINE
5
1af
100
AcDbEntity
8
1
6
CONTINUOUS
62
5
100
AcDb2dPolyline
66
1
10
0.0
20
0.0
30
0.0
70
0
0
VERTEX
5
1b0
100
AcDbEntity
8
1
100
AcDbVertex
100
AcDb2dVertex
62
5
10
133.750000
20
337.125000
0
VERTEX
5
1b1
100
AcDbEntity
8
1
100
AcDbVertex
100
AcDb2dVertex
62
5
10
137.750000
20
337.125000
0
VERTEX
5
1b2
100
AcDbEntity
8
1
100
AcDbVertex
100
AcDb2dVertex
62
5
10
137.750000
20
332.750000
0
VERTEX
5
1b3
100
AcDbEntity
8
1
100
AcDbVertex
100
AcDb2dVertex
62
5
10
133.750000
20
332.750000
0
SEQEND
5
1b4
100
AcDbEntity
8
1
0
LINE
5
1b5
100
AcDbEntity
8
1
100
AcDbLine
6
CONTINUOUS
62
5
10
141.750000
20
337.437500
11
142.750000
21
336.187500
0
POLYLINE
5
1b6
100
AcDbEntity
8
1
6
CONTINUOUS
62
5
100
AcDb2dPolyline
66
1
10
0.0
20
0.0
30
0.0
70
0
0
VERTEX
5
1b7
100
AcDbEntity
8
1
100
AcDbVertex
100
AcDb2dVertex
62
5
10
141.500000
20
332.437500
0
VERTEX
5
1b8
100
AcDbEntity
8
1
100
AcDbVertex
100
AcDb2dVertex
62
5
10
143.250000
20
333.375000
0
VERTEX
5
1b9
100
AcDbEntity
8
1
100
AcDbVertex
100
AcDb2dVertex
62
5
10
144.750000
20
334.625000
0
VERTEX
5
1ba
100
AcDbEntity
8
1
100
AcDbVertex
100
AcDb2dVertex
62
5
10
146.250000
20
336.187500
0
SEQEND
5
1bb
100
AcDbEntity
8
1
0
POLYLINE
5
1bc
100
AcDbEntity
8
1
6
CONTINUOUS
62
5
100
AcDb2dPolyline
66
1
10
0.0
20
0.0
30
0.0
70
0
0
VERTEX
5
1bd
100
AcDbEntity
8
1
100
AcDbVertex
100
AcDb2dVertex
62
5
10
135.250000
20
329.625000
0
VERTEX
5
1be
100
AcDbEntity
8
1
100
AcDbVertex
100
AcDb2dVertex
62
5
10
134.500000
20
328.375000
0
VERTEX
5
1bf
100
AcDbEntity
8
1
100
AcDbVertex
100
AcDb2dVertex
62
5
10
133.750000
20
327.437500
0
VERTEX
5
1c0
100
AcDbEntity
8
1
100
AcDbVertex
100
AcDb2dVertex
62
5
10
132.750000
20
326.500000
0
SEQEND
5
1c1
100
AcDbEntity
8
1
0
POLYLINE
5
1c2
100
AcDbEntity
8
1
6
CONTINUOUS
62
5
100
AcDb2dPolyline
66
1
10
0.0
20
0.0
30
0.0
70
0
0
VERTEX
5
1c3
100
AcDbEntity
8
1
100
AcDbVertex
100
AcDb2dVertex
62
5
10
135.000000
20
329.000000
0
VERTEX
5
1c4
100
AcDbEntity
8
1
100
AcDbVertex
100
AcDb2dVertex
62
5
10
137.250000
20
329.000000
0
VERTEX
5
1c5
100
AcDbEntity
8
1
100
AcDbVertex
100
AcDb2dVertex
62
5
10
136.000000
20
327.125000
0
SEQEND
5
1c6
100
AcDbEntity
8
1
0
POLYLINE
5
1c7
100
AcDbEntity
8
1
6
CONTINUOUS
62
5
100
AcDb2dPolyline
66
1
10
0.0
20
0.0
30
0.0
70
0
0
VERTEX
5
1c8
100
AcDbEntity
8
1
100
AcDbVertex
100
AcDb2dVertex
62
5
10
133.750000
20
327.125000
0
VERTEX
5
1c9
100
AcDbEntity
8
1
100
AcDbVertex
100
AcDb2dVertex
62
5
10
138.250000
20
327.125000
0
VERTEX
5
1ca
100
AcDbEntity
8
1
100
AcDbVertex
100
AcDb2dVertex
62
5
10
138.250000
20
324.312500
0
VERTEX
5
1cb
100
AcDbEntity
8
1
100
AcDbVertex
100
AcDb2dVertex
62
5
10
133.750000
20
324.312500
0
SEQEND
5
1cc
100
AcDbEntity
8
1
0
LINE
5
1cd
100
AcDbEntity
8
1
100
AcDbLine
6
CONTINUOUS
62
5
10
136.000000
20
327.125000
11
136.000000
21
324.312500
0
POLYLINE
5
1ce
100
AcDbEntity
8
1
6
CONTINUOUS
62
5
100
AcDb2dPolyline
66
1
10
0.0
20
0.0
30
0.0
70
0
0
VERTEX
5
1cf
100
AcDbEntity
8
1
100
AcDbVertex
100
AcDb2dVertex
62
5
10
133.750000
20
327.125000
0
VERTEX
5
1d0
100
AcDbEntity
8
1
100
AcDbVertex
100
AcDb2dVertex
62
5
10
133.750000
20
321.812500
0
VERTEX
5
1d1
100
AcDbEntity
8
1
100
AcDbVertex
100
AcDb2dVertex
62
5
10
134.250000
20
321.187500
0
VERTEX
5
1d2
100
AcDbEntity
8
1
100
AcDbVertex
100
AcDb2dVertex
62
5
10
139.250000
20
321.187500
0
VERTEX
5
1d3
100
AcDbEntity
8
1
100
AcDbVertex
100
AcDb2dVertex
62
5
10
139.250000
20
322.437500
0
SEQEND
5
1d4
100
AcDbEntity
8
1
0
POLYLINE
5
1d5
100
AcDbEntity
8
1
6
CONTINUOUS
62
5
100
AcDb2dPolyline
66
1
10
0.0
20
0.0
30
0.0
70
0
0
VERTEX
5
1d6
100
AcDbEntity
8
1
100
AcDbVertex
100
AcDb2dVertex
62
5
10
149.000000
20
335.562500
0
VERTEX
5
1d7
100
AcDbEntity
8
1
100
AcDbVertex
100
AcDb2dVertex
62
5
10
154.250000
20
336.187500
0
VERTEX
5
1d8
100
AcDbEntity
8
1
100
AcDbVertex
100
AcDb2dVertex
62
5
10
154.250000
20
335.875000
0
VERTEX
5
1d9
100
AcDbEntity
8
1
100
AcDbVertex
100
AcDb2dVertex
62
5
10
153.000000
20
334.312500
0
SEQEND
5
1da
100
AcDbEntity
8
1
0
POLYLINE
5
1db
100
AcDbEntity
8
1
6
CONTINUOUS
62
5
100
AcDb2dPolyline
66
1
10
0.0
20
0.0
30
0.0
70
0
0
VERTEX
5
1dc
100
AcDbEntity
8
1
100
AcDbVertex
100
AcDb2dVertex
62
5
10
151.000000
20
338.375000
0
VERTEX
5
1dd
100
AcDbEntity
8
1
100
AcDbVertex
100
AcDb2dVertex
62
5
10
151.000000
20
332.437500
0
VERTEX
5
1de
100
AcDbEntity
8
1
100
AcDbVertex
100
AcDb2dVertex
62
5
10
151.500000
20
331.812500
0
VERTEX
5
1df
100
AcDbEntity
8
1
100
AcDbVertex
100
AcDb2dVertex
62
5
10
154.250000
20
331.812500
0
SEQEND
5
1e0
100
AcDbEntity
8
1
0
POLYLINE
5
1e1
100
AcDbEntity
8
1
6
CONTINUOUS
62
5
100
AcDb2dPolyline
66
1
10
0.0
20
0.0
30
0.0
70
0
0
VERTEX
5
1e2
100
AcDbEntity
8
1
100
AcDbVertex
100
AcDb2dVertex
62
5
10
167.250000
20
336.187500
0
VERTEX
5
1e3
100
AcDbEntity
8
1
100
AcDbVertex
100
AcDb2dVertex
62
5
10
167.500000
20
336.187500
0
VERTEX
5
1e4
100
AcDbEntity
8
1
100
AcDbVertex
100
AcDb2dVertex
62
5
10
169.250000
20
334.937500
0
SEQEND
5
1e5
100
AcDbEntity
8
1
0
LINE
5
1e6
100
AcDbEntity
8
1
100
AcDbLine
6
CONTINUOUS
62
5
10
167.250000
20
339.000000
11
167.250000
21
331.500000
0
POLYLINE
5
1e7
100
AcDbEntity
8
1
6
CONTINUOUS
62
5
100
AcDb2dPolyline
66
1
10
0.0
20
0.0
30
0.0
70
0
0
VERTEX
5
1e8
100
AcDbEntity
8
1
100
AcDbVertex
100
AcDb2dVertex
62
5
10
109.750000
20
325.562500
0
VERTEX
5
1e9
100
AcDbEntity
8
1
100
AcDbVertex
100
AcDb2dVertex
62
5
10
109.750000
20
327.750000
0
VERTEX
5
1ea
100
AcDbEntity
8
1
100
AcDbVertex
100
AcDb2dVertex
62
5
10
113.750000
20
327.750000
0
VERTEX
5
1eb
100
AcDbEntity
8
1
100
AcDbVertex
100
AcDb2dVertex
62
5
10
113.750000
20
326.812500
0
VERTEX
5
1ec
100
AcDbEntity
8
1
100
AcDbVertex
100
AcDb2dVertex
62
5
10
113.500000
20
325.250000
0
VERTEX
5
1ed
100
AcDbEntity
8
1
100
AcDbVertex
100
AcDb2dVertex
62
5
10
113.000000
20
324.000000
0
VERTEX
5
1ee
100
AcDbEntity
8
1
100
AcDbVertex
100
AcDb2dVertex
62
5
10
112.500000
20
323.062500
0
VERTEX
5
1ef
100
AcDbEntity
8
1
100
AcDbVertex
100
AcDb2dVertex
62
5
10
111.500000
20
321.812500
0
SEQEND
5
1f0
100
AcDbEntity
8
1
0
POLYLINE
5
1f1
100
AcDbEntity
8
1
6
CONTINUOUS
62
5
100
AcDb2dPolyline
66
1
10
0.0
20
0.0
30
0.0
70
0
0
VERTEX
5
1f2
100
AcDbEntity
8
1
100
AcDbVertex
100
AcDb2dVertex
62
5
10
121.750000
20
328.687500
0
VERTEX
5
1f3
100
AcDbEntity
8
1
100
AcDbVertex
100
AcDb2dVertex
62
5
10
119.750000
20
326.187500
0
VERTEX
5
1f4
100
AcDbEntity
8
1
100
AcDbVertex
100
AcDb2dVertex
62
5
10
117.500000
20
324.625000
0
SEQEND
5
1f5
100
AcDbEntity
8
1
0
LINE
5
1f6
100
AcDbEntity
8
1
100
AcDbLine
6
CONTINUOUS
62
5
10
120.250000
20
326.812500
11
120.250000
21
321.500000
0
POLYLINE
5
1f7
100
AcDbEntity
8
1
6
CONTINUOUS
62
5
100
AcDb2dPolyline
66
1
10
0.0
20
0.0
30
0.0
70
0
0
VERTEX
5
1f8
100
AcDbEntity
8
1
100
AcDbVertex
100
AcDb2dVertex
62
5
10
86.500000
20
325.562500
0
VERTEX
5
1f9
100
AcDbEntity
8
1
100
AcDbVertex
100
AcDb2dVertex
62
5
10
88.500000
20
325.562500
0
VERTEX
5
1fa
100
AcDbEntity
8
1
100
AcDbVertex
100
AcDb2dVertex
62
5
10
88.250000
20
322.437500
0
SEQEND
5
1fb
100
AcDbEntity
8
1
0
LINE
5
1fc
100
AcDbEntity
8
1
100
AcDbLine
6
CONTINUOUS
62
5
10
85.750000
20
322.437500
11
90.000000
21
322.437500
0
POLYLINE
5
1fd
100
AcDbEntity
8
1
6
CONTINUOUS
62
5
100
AcDb2dPolyline
66
1
10
0.0
20
0.0
30
0.0
70
0
0
VERTEX
5
1fe
100
AcDbEntity
8
1
100
AcDbVertex
100
AcDb2dVertex
62
5
10
93.000000
20
327.437500
0
VERTEX
5
1ff
100
AcDbEntity
8
1
100
AcDbVertex
100
AcDb2dVertex
62
5
10
98.250000
20
327.437500
0
VERTEX
5
200
100
AcDbEntity
8
1
100
AcDbVertex
100
AcDb2dVertex
62
5
10
98.250000
20
327.125000
0
VERTEX
5
201
100
AcDbEntity
8
1
100
AcDbVertex
100
AcDb2dVertex
62
5
10
96.500000
20
325.250000
0
VERTEX
5
202
100
AcDbEntity
8
1
100
AcDbVertex
100
AcDb2dVertex
62
5
10
95.750000
20
325.250000
0
SEQEND
5
203
100
AcDbEntity
8
1
0
POLYLINE
5
204
100
AcDbEntity
8
1
6
CONTINUOUS
62
5
100
AcDb2dPolyline
66
1
10
0.0
20
0.0
30
0.0
70
0
0
VERTEX
5
205
100
AcDbEntity
8
1
100
AcDbVertex
100
AcDb2dVertex
62
5
10
95.750000
20
326.187500
0
VERTEX
5
206
100
AcDbEntity
8
1
100
AcDbVertex
100
AcDb2dVertex
62
5
10
95.750000
20
324.625000
0
VERTEX
5
207
100
AcDbEntity
8
1
100
AcDbVertex
100
AcDb2dVertex
62
5
10
95.000000
20
322.750000
0
VERTEX
5
208
100
AcDbEntity
8
1
100
AcDbVertex
100
AcDb2dVertex
62
5
10
94.000000
20
321.500000
0
SEQEND
5
209
100
AcDbEntity
8
1
0
LINE
5
20a
100
AcDbEntity
8
1
100
AcDbLine
6
CONTINUOUS
62
5
10
101.250000
20
326.187500
11
106.250000
21
326.187500
0
POLYLINE
5
20b
100
AcDbEntity
8
1
6
CONTINUOUS
62
5
100
AcDb2dPolyline
66
1
10
0.0
20
0.0
30
0.0
70
0
0
VERTEX
5
20c
100
AcDbEntity
8
1
100
AcDbVertex
100
AcDb2dVertex
62
5
10
103.750000
20
328.062500
0
VERTEX
5
20d
100
AcDbEntity
8
1
100
AcDbVertex
100
AcDb2dVertex
62
5
10
103.750000
20
321.812500
0
VERTEX
5
20e
100
AcDbEntity
8
1
100
AcDbVertex
100
AcDb2dVertex
62
5
10
103.250000
20
321.812500
0
SEQEND
5
20f
100
AcDbEntity
8
1
0
LINE
5
210
100
AcDbEntity
8
1
100
AcDbLine
6
CONTINUOUS
62
5
10
102.500000
20
324.625000
11
101.250000
21
322.750000
0
LINE
5
211
100
AcDbEntity
8
1
100
AcDbLine
6
CONTINUOUS
62
5
10
105.250000
20
324.625000
11
106.500000
21
323.062500
0
LINE
5
212
100
AcDbEntity
8
1
100
AcDbLine
6
CONTINUOUS
62
5
10
92.250000
20
337.437500
11
94.500000
21
337.437500
0
POLYLINE
5
213
100
AcDbEntity
8
1
6
CONTINUOUS
62
5
100
AcDb2dPolyline
66
1
10
0.0
20
0.0
30
0.0
70
0
0
VERTEX
5
214
100
AcDbEntity
8
1
100
AcDbVertex
100
AcDb2dVertex
62
5
10
93.500000
20
339.312500
0
VERTEX
5
215
100
AcDbEntity
8
1
100
AcDbVertex
100
AcDb2dVertex
62
5
10
93.500000
20
331.500000
0
VERTEX
5
216
100
AcDbEntity
8
1
100
AcDbVertex
100
AcDb2dVertex
62
5
10
93.000000
20
330.875000
0
VERTEX
5
217
100
AcDbEntity
8
1
100
AcDbVertex
100
AcDb2dVertex
62
5
10
92.500000
20
330.875000
0
SEQEND
5
218
100
AcDbEntity
8
1
0
LINE
5
219
100
AcDbEntity
8
1
100
AcDbLine
6
CONTINUOUS
62
5
10
92.500000
20
334.312500
11
94.250000
21
335.562500
0
LINE
5
21a
100
AcDbEntity
8
1
100
AcDbLine
6
CONTINUOUS
62
5
10
95.000000
20
338.375000
11
99.000000
21
338.375000
0
LINE
5
21b
100
AcDbEntity
8
1
100
AcDbLine
6
CONTINUOUS
62
5
10
94.750000
20
336.187500
11
99.250000
21
336.187500
0
LINE
5
21c
100
AcDbEntity
8
1
100
AcDbLine
6
CONTINUOUS
62
5
10
95.750000
20
338.375000
11
96.500000
21
336.187500
0
LINE
5
21d
100
AcDbEntity
8
1
100
AcDbLine
6
CONTINUOUS
62
5
10
97.500000
20
336.187500
11
98.250000
21
338.375000
0
LINE
5
21e
100
AcDbEntity
8
1
100
AcDbLine
6
CONTINUOUS
62
5
10
97.000000
20
338.375000
11
97.000000
21
339.625000
0
POLYLINE
5
21f
100
AcDbEntity
8
1
6
CONTINUOUS
62
5
100
AcDb2dPolyline
66
1
10
0.0
20
0.0
30
0.0
70
0
0
VERTEX
5
220
100
AcDbEntity
8
1
100
AcDbVertex
100
AcDb2dVertex
62
5
10
97.000000
20
336.187500
0
VERTEX
5
221
100
AcDbEntity
8
1
100
AcDbVertex
100
AcDb2dVertex
62
5
10
95.750000
20
333.062500
0
VERTEX
5
222
100
AcDbEntity
8
1
100
AcDbVertex
100
AcDb2dVertex
62
5
10
97.250000
20
332.750000
0
VERTEX
5
223
100
AcDbEntity
8
1
100
AcDbVertex
100
AcDb2dVertex
62
5
10
98.500000
20
332.125000
0
VERTEX
5
224
100
AcDbEntity
8
1
100
AcDbVertex
100
AcDb2dVertex
62
5
10
99.250000
20
331.187500
0
SEQEND
5
225
100
AcDbEntity
8
1
0
POLYLINE
5
226
100
AcDbEntity
8
1
6
CONTINUOUS
62
5
100
AcDb2dPolyline
66
1
10
0.0
20
0.0
30
0.0
70
0
0
VERTEX
5
227
100
AcDbEntity
8
1
100
AcDbVertex
100
AcDb2dVertex
62
5
10
98.000000
20
334.625000
0
VERTEX
5
228
100
AcDbEntity
8
1
100
AcDbVertex
100
AcDb2dVertex
62
5
10
97.250000
20
332.750000
0
VERTEX
5
229
100
AcDbEntity
8
1
100
AcDbVertex
100
AcDb2dVertex
62
5
10
96.500000
20
331.500000
0
VERTEX
5
22a
100
AcDbEntity
8
1
100
AcDbVertex
100
AcDb2dVertex
62
5
10
95.750000
20
331.187500
0
VERTEX
5
22b
100
AcDbEntity
8
1
100
AcDbVertex
100
AcDb2dVertex
62
5
10
95.000000
20
331.187500
0
SEQEND
5
22c
100
AcDbEntity
8
1
0
LINE
5
22d
100
AcDbEntity
8
1
100
AcDbLine
6
CONTINUOUS
62
5
10
95.000000
20
334.625000
11
99.250000
21
334.625000
0
LINE
5
22e
100
AcDbEntity
8
1
100
AcDbLine
6
CONTINUOUS
62
5
10
100.250000
20
336.500000
11
102.500000
21
336.500000
0
LINE
5
22f
100
AcDbEntity
8
1
100
AcDbLine
6
CONTINUOUS
62
5
10
100.500000
20
331.500000
11
102.500000
21
333.062500
0
LINE
5
230
100
AcDbEntity
8
1
100
AcDbLine
6
CONTINUOUS
62
5
10
101.500000
20
339.000000
11
101.500000
21
332.125000
0
POLYLINE
5
231
100
AcDbEntity
8
1
6
CONTINUOUS
62
5
100
AcDb2dPolyline
66
1
10
0.0
20
0.0
30
0.0
70
0
0
VERTEX
5
232
100
AcDbEntity
8
1
100
AcDbVertex
100
AcDb2dVertex
62
5
10
102.250000
20
334.937500
0
VERTEX
5
233
100
AcDbEntity
8
1
100
AcDbVertex
100
AcDb2dVertex
62
5
10
106.750000
20
337.750000
0
VERTEX
5
234
100
AcDbEntity
8
1
100
AcDbVertex
100
AcDb2dVertex
62
5
10
106.750000
20
334.625000
0
VERTEX
5
235
100
AcDbEntity
8
1
100
AcDbVertex
100
AcDb2dVertex
62
5
10
106.250000
20
334.000000
0
VERTEX
5
236
100
AcDbEntity
8
1
100
AcDbVertex
100
AcDb2dVertex
62
5
10
105.750000
20
334.000000
0
SEQEND
5
237
100
AcDbEntity
8
1
0
LINE
5
238
100
AcDbEntity
8
1
100
AcDbLine
6
CONTINUOUS
62
5
10
104.750000
20
339.312500
11
104.750000
21
332.750000
0
POLYLINE
5
239
100
AcDbEntity
8
1
6
CONTINUOUS
62
5
100
AcDb2dPolyline
66
1
10
0.0
20
0.0
30
0.0
70
0
0
VERTEX
5
23a
100
AcDbEntity
8
1
100
AcDbVertex
100
AcDb2dVertex
62
5
10
103.250000
20
338.062500
0
VERTEX
5
23b
100
AcDbEntity
8
1
100
AcDbVertex
100
AcDb2dVertex
62
5
10
103.250000
20
331.500000
0
VERTEX
5
23c
100
AcDbEntity
8
1
100
AcDbVertex
100
AcDb2dVertex
62
5
10
103.750000
20
330.875000
0
VERTEX
5
23d
100
AcDbEntity
8
1
100
AcDbVertex
100
AcDb2dVertex
62
5
10
106.750000
20
330.875000
0
VERTEX
5
23e
100
AcDbEntity
8
1
100
AcDbVertex
100
AcDb2dVertex
62
5
10
107.250000
20
331.500000
0
VERTEX
5
23f
100
AcDbEntity
8
1
100
AcDbVertex
100
AcDb2dVertex
62
5
10
107.250000
20
332.437500
0
SEQEND
5
240
100
AcDbEntity
8
1
0
LINE
5
241
100
AcDbEntity
8
1
100
AcDbLine
6
CONTINUOUS
62
5
10
111.250000
20
337.125000
11
113.750000
21
337.125000
0
POLYLINE
5
242
100
AcDbEntity
8
1
6
CONTINUOUS
62
5
100
AcDb2dPolyline
66
1
10
0.0
20
0.0
30
0.0
70
0
0
VERTEX
5
243
100
AcDbEntity
8
1
100
AcDbVertex
100
AcDb2dVertex
62
5
10
111.250000
20
337.125000
0
VERTEX
5
244
100
AcDbEntity
8
1
100
AcDbVertex
100
AcDb2dVertex
62
5
10
110.500000
20
335.875000
0
VERTEX
5
245
100
AcDbEntity
8
1
100
AcDbVertex
100
AcDb2dVertex
62
5
10
109.750000
20
334.937500
0
SEQEND
5
246
100
AcDbEntity
8
1
0
POLYLINE
5
247
100
AcDbEntity
8
1
6
CONTINUOUS
62
5
100
AcDb2dPolyline
66
1
10
0.0
20
0.0
30
0.0
70
0
0
VERTEX
5
248
100
AcDbEntity
8
1
100
AcDbVertex
100
AcDb2dVertex
62
5
10
113.750000
20
337.125000
0
VERTEX
5
249
100
AcDbEntity
8
1
100
AcDbVertex
100
AcDb2dVertex
62
5
10
114.000000
20
336.812500
0
VERTEX
5
24a
100
AcDbEntity
8
1
100
AcDbVertex
100
AcDb2dVertex
62
5
10
113.500000
20
335.875000
0
VERTEX
5
24b
100
AcDbEntity
8
1
100
AcDbVertex
100
AcDb2dVertex
62
5
10
112.750000
20
334.312500
0
VERTEX
5
24c
100
AcDbEntity
8
1
100
AcDbVertex
100
AcDb2dVertex
62
5
10
111.500000
20
332.750000
0
VERTEX
5
24d
100
AcDbEntity
8
1
100
AcDbVertex
100
AcDb2dVertex
62
5
10
110.000000
20
331.500000
0
SEQEND
5
24e
100
AcDbEntity
8
1
0
LINE
5
24f
100
AcDbEntity
8
1
100
AcDbLine
6
CONTINUOUS
62
5
10
111.250000
20
335.250000
11
112.250000
21
333.687500
0
LINE
5
250
100
AcDbEntity
8
1
100
AcDbLine
6
CONTINUOUS
62
5
10
113.750000
20
338.687500
11
114.500000
21
337.750000
0
LINE
5
251
100
AcDbEntity
8
1
100
AcDbLine
6
CONTINUOUS
62
5
10
114.500000
20
339.312500
11
115.250000
21
338.375000
0
POLYLINE
5
252
100
AcDbEntity
8
1
6
CONTINUOUS
62
5
100
AcDb2dPolyline
66
1
10
0.0
20
0.0
30
0.0
70
0
0
VERTEX
5
253
100
AcDbEntity
8
1
100
AcDbVertex
100
AcDb2dVertex
62
5
10
117.250000
20
337.125000
0
VERTEX
5
254
100
AcDbEntity
8
1
100
AcDbVertex
100
AcDb2dVertex
62
5
10
121.000000
20
337.125000
0
VERTEX
5
255
100
AcDbEntity
8
1
100
AcDbVertex
100
AcDb2dVertex
62
5
10
121.000000
20
336.187500
0
VERTEX
5
256
100
AcDbEntity
8
1
100
AcDbVertex
100
AcDb2dVertex
62
5
10
120.750000
20
334.937500
0
VERTEX
5
257
100
AcDbEntity
8
1
100
AcDbVertex
100
AcDb2dVertex
62
5
10
120.250000
20
334.000000
0
VERTEX
5
258
100
AcDbEntity
8
1
100
AcDbVertex
100
AcDb2dVertex
62
5
10
119.750000
20
333.062500
0
VERTEX
5
259
100
AcDbEntity
8
1
100
AcDbVertex
100
AcDb2dVertex
62
5
10
118.250000
20
331.812500
0
SEQEND
5
25a
100
AcDbEntity
8
1
0
LINE
5
25b
100
AcDbEntity
8
1
100
AcDbLine
6
CONTINUOUS
62
5
10
121.500000
20
338.375000
11
122.250000
21
337.437500
0
LINE
5
25c
100
AcDbEntity
8
1
100
AcDbLine
6
CONTINUOUS
62
5
10
122.500000
20
339.000000
11
123.000000
21
338.062500
0
POLYLINE
5
25d
100
AcDbEntity
8
1
6
CONTINUOUS
62
5
100
AcDb2dPolyline
66
1
10
0.0
20
0.0
30
0.0
70
0
0
VERTEX
5
25e
100
AcDbEntity
8
1
100
AcDbVertex
100
AcDb2dVertex
62
5
10
126.500000
20
338.062500
0
VERTEX
5
25f
100
AcDbEntity
8
1
100
AcDbVertex
100
AcDb2dVertex
62
5
10
126.500000
20
336.187500
0
VERTEX
5
260
100
AcDbEntity
8
1
100
AcDbVertex
100
AcDb2dVertex
62
5
10
126.250000
20
334.625000
0
VERTEX
5
261
100
AcDbEntity
8
1
100
AcDbVertex
100
AcDb2dVertex
62
5
10
125.750000
20
333.375000
0
VERTEX
5
262
100
AcDbEntity
8
1
100
AcDbVertex
100
AcDb2dVertex
62
5
10
125.000000
20
332.125000
0
VERTEX
5
263
100
AcDbEntity
8
1
100
AcDbVertex
100
AcDb2dVertex
62
5
10
124.750000
20
331.812500
0
SEQEND
5
264
100
AcDbEntity
8
1
0
POLYLINE
5
265
100
AcDbEntity
8
1
6
CONTINUOUS
62
5
100
AcDb2dPolyline
66
1
10
0.0
20
0.0
30
0.0
70
0
0
VERTEX
5
266
100
AcDbEntity
8
1
100
AcDbVertex
100
AcDb2dVertex
62
5
10
128.000000
20
338.375000
0
VERTEX
5
267
100
AcDbEntity
8
1
100
AcDbVertex
100
AcDb2dVertex
62
5
10
128.000000
20
332.125000
0
VERTEX
5
268
100
AcDbEntity
8
1
100
AcDbVertex
100
AcDb2dVertex
62
5
10
128.750000
20
332.437500
0
VERTEX
5
269
100
AcDbEntity
8
1
100
AcDbVertex
100
AcDb2dVertex
62
5
10
129.750000
20
333.375000
0
VERTEX
5
26a
100
AcDbEntity
8
1
100
AcDbVertex
100
AcDb2dVertex
62
5
10
130.500000
20
334.312500
0
VERTEX
5
26b
100
AcDbEntity
8
1
100
AcDbVertex
100
AcDb2dVertex
62
5
10
131.000000
20
335.250000
0
SEQEND
5
26c
100
AcDbEntity
8
1
0
POLYLINE
5
26d
100
AcDbEntity
8
1
6
CONTINUOUS
62
5
100
AcDb2dPolyline
66
1
10
0.0
20
0.0
30
0.0
70
0
0
VERTEX
5
26e
100
AcDbEntity
8
1
100
AcDbVertex
100
AcDb2dVertex
62
5
10
127.250000
20
326.187500
0
VERTEX
5
26f
100
AcDbEntity
8
1
100
AcDbVertex
100
AcDb2dVertex
62
5
10
127.500000
20
326.187500
0
VERTEX
5
270
100
AcDbEntity
8
1
100
AcDbVertex
100
AcDb2dVertex
62
5
10
129.250000
20
324.937500
0
SEQEND
5
271
100
AcDbEntity
8
1
0
LINE
5
272
100
AcDbEntity
8
1
100
AcDbLine
6
CONTINUOUS
62
5
10
127.250000
20
329.000000
11
127.250000
21
321.500000
0
LINE
5
273
100
AcDbEntity
8
1
100
AcDbLine
6
CONTINUOUS
62
5
10
92.500000
20
296.750000
11
95.625000
21
296.750000
0
POLYLINE
5
274
100
AcDbEntity
8
1
6
CONTINUOUS
62
5
100
AcDb2dPolyline
66
1
10
0.0
20
0.0
30
0.0
70
0
0
VERTEX
5
275
100
AcDbEntity
8
1
100
AcDbVertex
100
AcDb2dVertex
62
5
10
87.500000
20
293.000000
0
VERTEX
5
276
100
AcDbEntity
8
1
100
AcDbVertex
100
AcDb2dVertex
62
5
10
87.500000
20
300.500000
0
VERTEX
5
277
100
AcDbEntity
8
1
100
AcDbVertex
100
AcDb2dVertex
62
5
10
90.625000
20
293.000000
0
VERTEX
5
278
100
AcDbEntity
8
1
100
AcDbVertex
100
AcDb2dVertex
62
5
10
90.625000
20
300.500000
0
SEQEND
5
279
100
AcDbEntity
8
1
0
LINE
5
27a
100
AcDbEntity
8
1
100
AcDbLine
6
CONTINUOUS
62
5
10
97.500000
20
300.500000
11
100.312500
21
300.500000
0
POLYLINE
5
27b
100
AcDbEntity
8
1
6
CONTINUOUS
62
5
100
AcDb2dPolyline
66
1
10
0.0
20
0.0
30
0.0
70
0
0
VERTEX
5
27c
100
AcDbEntity
8
1
100
AcDbVertex
100
AcDb2dVertex
62
5
10
97.500000
20
300.500000
0
VERTEX
5
27d
100
AcDbEntity
8
1
100
AcDbVertex
100
AcDb2dVertex
62
5
10
97.500000
20
296.750000
0
VERTEX
5
27e
100
AcDbEntity
8
1
100
AcDbVertex
100
AcDb2dVertex
62
5
10
98.125000
20
297.375000
0
VERTEX
5
27f
100
AcDbEntity
8
1
100
AcDbVertex
100
AcDb2dVertex
62
5
10
98.750000
20
297.687500
0
VERTEX
5
280
100
AcDbEntity
8
1
100
AcDbVertex
100
AcDb2dVertex
62
5
10
99.687500
20
297.687500
0
VERTEX
5
281
100
AcDbEntity
8
1
100
AcDbVertex
100
AcDb2dVertex
62
5
10
100.312500
20
297.375000
0
VERTEX
5
282
100
AcDbEntity
8
1
100
AcDbVertex
100
AcDb2dVertex
62
5
10
100.625000
20
296.437500
0
VERTEX
5
283
100
AcDbEntity
8
1
100
AcDbVertex
100
AcDb2dVertex
62
5
10
100.625000
20
294.562500
0
VERTEX
5
284
100
AcDbEntity
8
1
100
AcDbVertex
100
AcDb2dVertex
62
5
10
100.000000
20
293.625000
0
VERTEX
5
285
100
AcDbEntity
8
1
100
AcDbVertex
100
AcDb2dVertex
62
5
10
99.062500
20
293.000000
0
VERTEX
5
286
100
AcDbEntity
8
1
100
AcDbVertex
100
AcDb2dVertex
62
5
10
97.500000
20
293.000000
0
SEQEND
5
287
100
AcDbEntity
8
1
0
LINE
5
288
100
AcDbEntity
8
1
100
AcDbLine
6
CONTINUOUS
62
5
10
102.500000
20
300.500000
11
105.312500
21
300.500000
0
POLYLINE
5
289
100
AcDbEntity
8
1
6
CONTINUOUS
62
5
100
AcDb2dPolyline
66
1
10
0.0
20
0.0
30
0.0
70
0
0
VERTEX
5
28a
100
AcDbEntity
8
1
100
AcDbVertex
100
AcDb2dVertex
62
5
10
102.500000
20
300.500000
0
VERTEX
5
28b
100
AcDbEntity
8
1
100
AcDbVertex
100
AcDb2dVertex
62
5
10
102.500000
20
296.750000
0
VERTEX
5
28c
100
AcDbEntity
8
1
100
AcDbVertex
100
AcDb2dVertex
62
5
10
103.125000
20
297.375000
0
VERTEX
5
28d
100
AcDbEntity
8
1
100
AcDbVertex
100
AcDb2dVertex
62
5
10
103.750000
20
297.687500
0
VERTEX
5
28e
100
AcDbEntity
8
1
100
AcDbVertex
100
AcDb2dVertex
62
5
10
104.687500
20
297.687500
0
VERTEX
5
28f
100
AcDbEntity
8
1
100
AcDbVertex
100
AcDb2dVertex
62
5
10
105.312500
20
297.375000
0
VERTEX
5
290
100
AcDbEntity
8
1
100
AcDbVertex
100
AcDb2dVertex
62
5
10
105.625000
20
296.437500
0
VERTEX
5
291
100
AcDbEntity
8
1
100
AcDbVertex
100
AcDb2dVertex
62
5
10
105.625000
20
294.562500
0
VERTEX
5
292
100
AcDbEntity
8
1
100
AcDbVertex
100
AcDb2dVertex
62
5
10
105.000000
20
293.625000
0
VERTEX
5
293
100
AcDbEntity
8
1
100
AcDbVertex
100
AcDb2dVertex
62
5
10
104.062500
20
293.000000
0
VERTEX
5
294
100
AcDbEntity
8
1
100
AcDbVertex
100
AcDb2dVertex
62
5
10
102.500000
20
293.000000
0
SEQEND
5
295
100
AcDbEntity
8
1
0
POLYLINE
5
296
100
AcDbEntity
8
1
6
CONTINUOUS
62
5
100
AcDb2dPolyline
66
1
10
0.0
20
0.0
30
0.0
70
0
0
VERTEX
5
297
100
AcDbEntity
8
1
100
AcDbVertex
100
AcDb2dVertex
62
5
10
110.312500
20
298.937500
0
VERTEX
5
298
100
AcDbEntity
8
1
100
AcDbVertex
100
AcDb2dVertex
62
5
10
110.000000
20
299.875000
0
VERTEX
5
299
100
AcDbEntity
8
1
100
AcDbVertex
100
AcDb2dVertex
62
5
10
109.375000
20
300.500000
0
VERTEX
5
29a
100
AcDbEntity
8
1
100
AcDbVertex
100
AcDb2dVertex
62
5
10
108.437500
20
300.500000
0
VERTEX
5
29b
100
AcDbEntity
8
1
100
AcDbVertex
100
AcDb2dVertex
62
5
10
107.812500
20
299.875000
0
VERTEX
5
29c
100
AcDbEntity
8
1
100
AcDbVertex
100
AcDb2dVertex
62
5
10
107.500000
20
299.250000
0
VERTEX
5
29d
100
AcDbEntity
8
1
100
AcDbVertex
100
AcDb2dVertex
62
5
10
107.187500
20
297.687500
0
VERTEX
5
29e
100
AcDbEntity
8
1
100
AcDbVertex
100
AcDb2dVertex
62
5
10
107.187500
20
295.812500
0
VERTEX
5
29f
100
AcDbEntity
8
1
100
AcDbVertex
100
AcDb2dVertex
62
5
10
107.500000
20
294.250000
0
VERTEX
5
2a0
100
AcDbEntity
8
1
100
AcDbVertex
100
AcDb2dVertex
62
5
10
107.812500
20
293.625000
0
VERTEX
5
2a1
100
AcDbEntity
8
1
100
AcDbVertex
100
AcDb2dVertex
62
5
10
108.437500
20
293.000000
0
VERTEX
5
2a2
100
AcDbEntity
8
1
100
AcDbVertex
100
AcDb2dVertex
62
5
10
109.375000
20
293.000000
0
VERTEX
5
2a3
100
AcDbEntity
8
1
100
AcDbVertex
100
AcDb2dVertex
62
5
10
110.000000
20
293.625000
0
VERTEX
5
2a4
100
AcDbEntity
8
1
100
AcDbVertex
100
AcDb2dVertex
62
5
10
110.312500
20
294.250000
0
SEQEND
5
2a5
100
AcDbEntity
8
1
0
LINE
5
2a6
100
AcDbEntity
8
1
100
AcDbLine
6
CONTINUOUS
62
5
10
109.687500
20
296.437500
11
110.937500
21
296.437500
0
LINE
5
2a7
100
AcDbEntity
8
1
100
AcDbLine
6
CONTINUOUS
62
5
10
110.312500
20
296.437500
11
110.312500
21
293.000000
0
POLYLINE
5
2a8
100
AcDbEntity
8
1
6
CONTINUOUS
62
5
100
AcDb2dPolyline
66
1
10
0.0
20
0.0
30
0.0
70
0
0
VERTEX
5
2a9
100
AcDbEntity
8
1
100
AcDbVertex
100
AcDb2dVertex
62
5
10
112.500000
20
300.500000
0
VERTEX
5
2aa
100
AcDbEntity
8
1
100
AcDbVertex
100
AcDb2dVertex
62
5
10
114.062500
20
293.000000
0
VERTEX
5
2ab
100
AcDbEntity
8
1
100
AcDbVertex
100
AcDb2dVertex
62
5
10
115.625000
20
300.500000
0
SEQEND
5
2ac
100
AcDbEntity
8
1
0
LINE
5
2ad
100
AcDbEntity
8
1
100
AcDbLine
6
CONTINUOUS
62
5
10
122.500000
20
300.500000
11
122.500000
21
293.000000
0
POLYLINE
5
2ae
100
AcDbEntity
8
1
6
CONTINUOUS
62
5
100
AcDb2dPolyline
66
1
10
0.0
20
0.0
30
0.0
70
0
0
VERTEX
5
2af
100
AcDbEntity
8
1
100
AcDbVertex
100
AcDb2dVertex
62
5
10
122.500000
20
300.500000
0
VERTEX
5
2b0
100
AcDbEntity
8
1
100
AcDbVertex
100
AcDb2dVertex
62
5
10
123.750000
20
300.500000
0
VERTEX
5
2b1
100
AcDbEntity
8
1
100
AcDbVertex
100
AcDb2dVertex
62
5
10
124.687500
20
300.187500
0
VERTEX
5
2b2
100
AcDbEntity
8
1
100
AcDbVertex
100
AcDb2dVertex
62
5
10
125.312500
20
299.562500
0
VERTEX
5
2b3
100
AcDbEntity
8
1
100
AcDbVertex
100
AcDb2dVertex
62
5
10
125.625000
20
298.937500
0
VERTEX
5
2b4
100
AcDbEntity
8
1
100
AcDbVertex
100
AcDb2dVertex
62
5
10
125.625000
20
298.000000
0
VERTEX
5
2b5
100
AcDbEntity
8
1
100
AcDbVertex
100
AcDb2dVertex
62
5
10
125.312500
20
297.375000
0
VERTEX
5
2b6
100
AcDbEntity
8
1
100
AcDbVertex
100
AcDb2dVertex
62
5
10
124.687500
20
296.750000
0
VERTEX
5
2b7
100
AcDbEntity
8
1
100
AcDbVertex
100
AcDb2dVertex
62
5
10
123.750000
20
296.437500
0
VERTEX
5
2b8
100
AcDbEntity
8
1
100
AcDbVertex
100
AcDb2dVertex
62
5
10
122.500000
20
296.437500
0
SEQEND
5
2b9
100
AcDbEntity
8
1
0
POLYLINE
5
2ba
100
AcDbEntity
8
1
6
CONTINUOUS
62
5
100
AcDb2dPolyline
66
1
10
0.0
20
0.0
30
0.0
70
0
0
VERTEX
5
2bb
100
AcDbEntity
8
1
100
AcDbVertex
100
AcDb2dVertex
62
5
10
127.187500
20
300.500000
0
VERTEX
5
2bc
100
AcDbEntity
8
1
100
AcDbVertex
100
AcDb2dVertex
62
5
10
128.125000
20
293.000000
0
VERTEX
5
2bd
100
AcDbEntity
8
1
100
AcDbVertex
100
AcDb2dVertex
62
5
10
129.062500
20
300.500000
0
VERTEX
5
2be
100
AcDbEntity
8
1
100
AcDbVertex
100
AcDb2dVertex
62
5
10
130.000000
20
293.000000
0
VERTEX
5
2bf
100
AcDbEntity
8
1
100
AcDbVertex
100
AcDb2dVertex
62
5
10
130.937500
20
300.500000
0
SEQEND
5
2c0
100
AcDbEntity
8
1
0
POLYLINE
5
2c1
100
AcDbEntity
8
1
6
CONTINUOUS
62
5
100
AcDb2dPolyline
66
1
10
0.0
20
0.0
30
0.0
70
0
0
VERTEX
5
2c2
100
AcDbEntity
8
1
100
AcDbVertex
100
AcDb2dVertex
62
5
10
77.750000
20
327.750000
0
VERTEX
5
2c3
100
AcDbEntity
8
1
100
AcDbVertex
100
AcDb2dVertex
62
5
10
77.750000
20
322.437500
0
VERTEX
5
2c4
100
AcDbEntity
8
1
100
AcDbVertex
100
AcDb2dVertex
62
5
10
78.250000
20
321.812500
0
VERTEX
5
2c5
100
AcDbEntity
8
1
100
AcDbVertex
100
AcDb2dVertex
62
5
10
81.750000
20
321.812500
0
SEQEND
5
2c6
100
AcDbEntity
8
1
0
LINE
5
2c7
100
AcDbEntity
8
1
100
AcDbLine
6
CONTINUOUS
62
5
10
81.250000
20
325.875000
11
77.750000
21
324.937500
0
POLYLINE
5
2c8
100
AcDbEntity
8
1
6
CONTINUOUS
62
5
100
AcDb2dPolyline
66
1
10
0.0
20
0.0
30
0.0
70
1
0
VERTEX
5
2c9
100
AcDbEntity
8
1
100
AcDbVertex
100
AcDb2dVertex
62
5
10
81.250000
20
327.750000
0
VERTEX
5
2ca
100
AcDbEntity
8
1
100
AcDbVertex
100
AcDb2dVertex
62
5
10
81.750000
20
328.375000
0
VERTEX
5
2cb
100
AcDbEntity
8
1
100
AcDbVertex
100
AcDb2dVertex
62
5
10
82.000000
20
328.375000
0
VERTEX
5
2cc
100
AcDbEntity
8
1
100
AcDbVertex
100
AcDb2dVertex
62
5
10
82.500000
20
327.750000
0
VERTEX
5
2cd
100
AcDbEntity
8
1
100
AcDbVertex
100
AcDb2dVertex
62
5
10
82.500000
20
327.437500
0
VERTEX
5
2ce
100
AcDbEntity
8
1
100
AcDbVertex
100
AcDb2dVertex
62
5
10
82.000000
20
326.812500
0
VERTEX
5
2cf
100
AcDbEntity
8
1
100
AcDbVertex
100
AcDb2dVertex
62
5
10
81.750000
20
326.812500
0
VERTEX
5
2d0
100
AcDbEntity
8
1
100
AcDbVertex
100
AcDb2dVertex
62
5
10
81.250000
20
327.437500
0
VERTEX
5
2d1
100
AcDbEntity
8
1
100
AcDbVertex
100
AcDb2dVertex
62
5
10
81.250000
20
327.750000
0
SEQEND
5
2d2
100
AcDbEntity
8
1
0
LINE
5
2d3
100
AcDbEntity
8
1
100
AcDbLine
6
CONTINUOUS
62
5
10
76.500000
20
336.500000
11
78.500000
21
336.500000
0
LINE
5
2d4
100
AcDbEntity
8
1
100
AcDbLine
6
CONTINUOUS
62
5
10
76.250000
20
332.125000
11
78.500000
21
333.375000
0
LINE
5
2d5
100
AcDbEntity
8
1
100
AcDbLine
6
CONTINUOUS
62
5
10
77.500000
20
339.000000
11
77.500000
21
332.750000
0
POLYLINE
5
2d6
100
AcDbEntity
8
1
6
CONTINUOUS
62
5
100
AcDb2dPolyline
66
1
10
0.0
20
0.0
30
0.0
70
1
0
VERTEX
5
2d7
100
AcDbEntity
8
1
100
AcDbVertex
100
AcDb2dVertex
62
5
10
79.500000
20
338.687500
0
VERTEX
5
2d8
100
AcDbEntity
8
1
100
AcDbVertex
100
AcDb2dVertex
62
5
10
79.500000
20
335.250000
0
VERTEX
5
2d9
100
AcDbEntity
8
1
100
AcDbVertex
100
AcDb2dVertex
62
5
10
82.500000
20
335.250000
0
VERTEX
5
2da
100
AcDbEntity
8
1
100
AcDbVertex
100
AcDb2dVertex
62
5
10
82.500000
20
338.687500
0
VERTEX
5
2db
100
AcDbEntity
8
1
100
AcDbVertex
100
AcDb2dVertex
62
5
10
79.500000
20
338.687500
0
SEQEND
5
2dc
100
AcDbEntity
8
1
0
LINE
5
2dd
100
AcDbEntity
8
1
100
AcDbLine
6
CONTINUOUS
62
5
10
79.500000
20
337.125000
11
82.500000
21
337.125000
0
LINE
5
2de
100
AcDbEntity
8
1
100
AcDbLine
6
CONTINUOUS
62
5
10
81.000000
20
338.687500
11
81.000000
21
331.500000
0
LINE
5
2df
100
AcDbEntity
8
1
100
AcDbLine
6
CONTINUOUS
62
5
10
79.000000
20
333.687500
11
83.000000
21
333.687500
0
LINE
5
2e0
100
AcDbEntity
8
1
100
AcDbLine
6
CONTINUOUS
62
5
10
78.250000
20
331.500000
11
83.500000
21
331.500000
0
LINE
5
2e1
100
AcDbEntity
8
1
100
AcDbLine
6
CONTINUOUS
62
5
10
50.000000
20
350.000000
11
50.000000
21
318.000000
0
LINE
5
2e2
100
AcDbEntity
8
1
100
AcDbLine
6
CONTINUOUS
62
5
10
77.500000
20
296.750000
11
80.625000
21
296.750000
0
POLYLINE
5
2e3
100
AcDbEntity
8
1
6
CONTINUOUS
62
5
100
AcDb2dPolyline
66
1
10
0.0
20
0.0
30
0.0
70
0
0
VERTEX
5
2e4
100
AcDbEntity
8
1
100
AcDbVertex
100
AcDb2dVertex
62
5
10
65.312500
20
300.500000
0
VERTEX
5
2e5
100
AcDbEntity
8
1
100
AcDbVertex
100
AcDb2dVertex
62
5
10
65.312500
20
294.875000
0
VERTEX
5
2e6
100
AcDbEntity
8
1
100
AcDbVertex
100
AcDb2dVertex
62
5
10
65.000000
20
293.625000
0
VERTEX
5
2e7
100
AcDbEntity
8
1
100
AcDbVertex
100
AcDb2dVertex
62
5
10
64.375000
20
293.000000
0
VERTEX
5
2e8
100
AcDbEntity
8
1
100
AcDbVertex
100
AcDb2dVertex
62
5
10
63.437500
20
293.000000
0
VERTEX
5
2e9
100
AcDbEntity
8
1
100
AcDbVertex
100
AcDb2dVertex
62
5
10
62.812500
20
293.625000
0
VERTEX
5
2ea
100
AcDbEntity
8
1
100
AcDbVertex
100
AcDb2dVertex
62
5
10
62.500000
20
294.875000
0
SEQEND
5
2eb
100
AcDbEntity
8
1
0
POLYLINE
5
2ec
100
AcDbEntity
8
1
6
CONTINUOUS
62
5
100
AcDb2dPolyline
66
1
10
0.0
20
0.0
30
0.0
70
0
0
VERTEX
5
2ed
100
AcDbEntity
8
1
100
AcDbVertex
100
AcDb2dVertex
62
5
10
70.625000
20
300.500000
0
VERTEX
5
2ee
100
AcDbEntity
8
1
100
AcDbVertex
100
AcDb2dVertex
62
5
10
67.500000
20
300.500000
0
VERTEX
5
2ef
100
AcDbEntity
8
1
100
AcDbVertex
100
AcDb2dVertex
62
5
10
67.500000
20
293.000000
0
VERTEX
5
2f0
100
AcDbEntity
8
1
100
AcDbVertex
100
AcDb2dVertex
62
5
10
70.937500
20
293.000000
0
SEQEND
5
2f1
100
AcDbEntity
8
1
0
LINE
5
2f2
100
AcDbEntity
8
1
100
AcDbLine
6
CONTINUOUS
62
5
10
67.500000
20
296.750000
11
70.312500
21
296.750000
0
POLYLINE
5
2f3
100
AcDbEntity
8
1
6
CONTINUOUS
62
5
100
AcDb2dPolyline
66
1
10
0.0
20
0.0
30
0.0
70
0
0
VERTEX
5
2f4
100
AcDbEntity
8
1
100
AcDbVertex
100
AcDb2dVertex
62
5
10
75.625000
20
298.937500
0
VERTEX
5
2f5
100
AcDbEntity
8
1
100
AcDbVertex
100
AcDb2dVertex
62
5
10
75.312500
20
299.875000
0
VERTEX
5
2f6
100
AcDbEntity
8
1
100
AcDbVertex
100
AcDb2dVertex
62
5
10
74.687500
20
300.500000
0
VERTEX
5
2f7
100
AcDbEntity
8
1
100
AcDbVertex
100
AcDb2dVertex
62
5
10
73.750000
20
300.500000
0
VERTEX
5
2f8
100
AcDbEntity
8
1
100
AcDbVertex
100
AcDb2dVertex
62
5
10
72.812500
20
299.562500
0
VERTEX
5
2f9
100
AcDbEntity
8
1
100
AcDbVertex
100
AcDb2dVertex
62
5
10
72.500000
20
298.000000
0
VERTEX
5
2fa
100
AcDbEntity
8
1
100
AcDbVertex
100
AcDb2dVertex
62
5
10
72.500000
20
295.500000
0
VERTEX
5
2fb
100
AcDbEntity
8
1
100
AcDbVertex
100
AcDb2dVertex
62
5
10
72.812500
20
293.937500
0
VERTEX
5
2fc
100
AcDbEntity
8
1
100
AcDbVertex
100
AcDb2dVertex
62
5
10
73.750000
20
293.000000
0
VERTEX
5
2fd
100
AcDbEntity
8
1
100
AcDbVertex
100
AcDb2dVertex
62
5
10
74.687500
20
293.000000
0
VERTEX
5
2fe
100
AcDbEntity
8
1
100
AcDbVertex
100
AcDb2dVertex
62
5
10
75.312500
20
293.625000
0
VERTEX
5
2ff
100
AcDbEntity
8
1
100
AcDbVertex
100
AcDb2dVertex
62
5
10
75.937500
20
295.187500
0
SEQEND
5
300
100
AcDbEntity
8
1
0
LINE
5
301
100
AcDbEntity
8
1
100
AcDbLine
6
CONTINUOUS
62
5
10
85.000000
20
339.000000
11
86.000000
21
338.062500
0
POLYLINE
5
302
100
AcDbEntity
8
1
6
CONTINUOUS
62
5
100
AcDb2dPolyline
66
1
10
0.0
20
0.0
30
0.0
70
0
0
VERTEX
5
303
100
AcDbEntity
8
1
100
AcDbVertex
100
AcDb2dVertex
62
5
10
84.750000
20
335.875000
0
VERTEX
5
304
100
AcDbEntity
8
1
100
AcDbVertex
100
AcDb2dVertex
62
5
10
86.000000
20
335.875000
0
VERTEX
5
305
100
AcDbEntity
8
1
100
AcDbVertex
100
AcDb2dVertex
62
5
10
86.000000
20
332.750000
0
VERTEX
5
306
100
AcDbEntity
8
1
100
AcDbVertex
100
AcDb2dVertex
62
5
10
84.750000
20
331.187500
0
SEQEND
5
307
100
AcDbEntity
8
1
0
POLYLINE
5
308
100
AcDbEntity
8
1
6
CONTINUOUS
62
5
100
AcDb2dPolyline
66
1
10
0.0
20
0.0
30
0.0
70
0
0
VERTEX
5
309
100
AcDbEntity
8
1
100
AcDbVertex
100
AcDb2dVertex
62
5
10
86.000000
20
332.750000
0
VERTEX
5
30a
100
AcDbEntity
8
1
100
AcDbVertex
100
AcDb2dVertex
62
5
10
86.750000
20
331.500000
0
VERTEX
5
30b
100
AcDbEntity
8
1
100
AcDbVertex
100
AcDb2dVertex
62
5
10
87.750000
20
331.187500
0
VERTEX
5
30c
100
AcDbEntity
8
1
100
AcDbVertex
100
AcDb2dVertex
62
5
10
91.500000
20
331.187500
0
SEQEND
5
30d
100
AcDbEntity
8
1
0
POLYLINE
5
30e
100
AcDbEntity
8
1
6
CONTINUOUS
62
5
100
AcDb2dPolyline
66
1
10
0.0
20
0.0
30
0.0
70
0
0
VERTEX
5
30f
100
AcDbEntity
8
1
100
AcDbVertex
100
AcDb2dVertex
62
5
10
88.750000
20
336.500000
0
VERTEX
5
310
100
AcDbEntity
8
1
100
AcDbVertex
100
AcDb2dVertex
62
5
10
88.000000
20
334.625000
0
VERTEX
5
311
100
AcDbEntity
8
1
100
AcDbVertex
100
AcDb2dVertex
62
5
10
87.250000
20
333.375000
0
VERTEX
5
312
100
AcDbEntity
8
1
100
AcDbVertex
100
AcDb2dVertex
62
5
10
86.750000
20
332.750000
0
SEQEND
5
313
100
AcDbEntity
8
1
0
POLYLINE
5
314
100
AcDbEntity
8
1
6
CONTINUOUS
62
5
100
AcDb2dPolyline
66
1
10
0.0
20
0.0
30
0.0
70
0
0
VERTEX
5
315
100
AcDbEntity
8
1
100
AcDbVertex
100
AcDb2dVertex
62
5
10
87.500000
20
339.312500
0
VERTEX
5
316
100
AcDbEntity
8
1
100
AcDbVertex
100
AcDb2dVertex
62
5
10
88.750000
20
339.312500
0
VERTEX
5
317
100
AcDbEntity
8
1
100
AcDbVertex
100
AcDb2dVertex
62
5
10
88.750000
20
336.500000
0
VERTEX
5
318
100
AcDbEntity
8
1
100
AcDbVertex
100
AcDb2dVertex
62
5
10
89.500000
20
334.625000
0
VERTEX
5
319
100
AcDbEntity
8
1
100
AcDbVertex
100
AcDb2dVertex
62
5
10
90.500000
20
333.375000
0
VERTEX
5
31a
100
AcDbEntity
8
1
100
AcDbVertex
100
AcDb2dVertex
62
5
10
91.250000
20
332.750000
0
SEQEND
5
31b
100
AcDbEntity
8
1
0
LINE
5
31c
100
AcDbEntity
8
1
100
AcDbLine
6
CONTINUOUS
62
5
10
82.500000
20
300.500000
11
82.500000
21
293.000000
0
POLYLINE
5
31d
100
AcDbEntity
8
1
6
CONTINUOUS
62
5
100
AcDb2dPolyline
66
1
10
0.0
20
0.0
30
0.0
70
0
0
VERTEX
5
31e
100
AcDbEntity
8
1
100
AcDbVertex
100
AcDb2dVertex
62
5
10
82.500000
20
300.500000
0
VERTEX
5
31f
100
AcDbEntity
8
1
100
AcDbVertex
100
AcDb2dVertex
62
5
10
84.062500
20
300.500000
0
VERTEX
5
320
100
AcDbEntity
8
1
100
AcDbVertex
100
AcDb2dVertex
62
5
10
84.687500
20
300.187500
0
VERTEX
5
321
100
AcDbEntity
8
1
100
AcDbVertex
100
AcDb2dVertex
62
5
10
85.000000
20
299.875000
0
VERTEX
5
322
100
AcDbEntity
8
1
100
AcDbVertex
100
AcDb2dVertex
62
5
10
85.312500
20
299.250000
0
VERTEX
5
323
100
AcDbEntity
8
1
100
AcDbVertex
100
AcDb2dVertex
62
5
10
85.312500
20
298.312500
0
VERTEX
5
324
100
AcDbEntity
8
1
100
AcDbVertex
100
AcDb2dVertex
62
5
10
85.000000
20
297.687500
0
VERTEX
5
325
100
AcDbEntity
8
1
100
AcDbVertex
100
AcDb2dVertex
62
5
10
84.687500
20
297.375000
0
VERTEX
5
326
100
AcDbEntity
8
1
100
AcDbVertex
100
AcDb2dVertex
62
5
10
84.062500
20
297.062500
0
VERTEX
5
327
100
AcDbEntity
8
1
100
AcDbVertex
100
AcDb2dVertex
62
5
10
82.500000
20
297.062500
0
SEQEND
5
328
100
AcDbEntity
8
1
0
POLYLINE
5
329
100
AcDbEntity
8
1
6
CONTINUOUS
62
5
100
AcDb2dPolyline
66
1
10
0.0
20
0.0
30
0.0
70
0
0
VERTEX
5
32a
100
AcDbEntity
8
1
100
AcDbVertex
100
AcDb2dVertex
62
5
10
84.062500
20
297.062500
0
VERTEX
5
32b
100
AcDbEntity
8
1
100
AcDbVertex
100
AcDb2dVertex
62
5
10
84.687500
20
296.750000
0
VERTEX
5
32c
100
AcDbEntity
8
1
100
AcDbVertex
100
AcDb2dVertex
62
5
10
85.312500
20
296.125000
0
VERTEX
5
32d
100
AcDbEntity
8
1
100
AcDbVertex
100
AcDb2dVertex
62
5
10
85.625000
20
295.500000
0
VERTEX
5
32e
100
AcDbEntity
8
1
100
AcDbVertex
100
AcDb2dVertex
62
5
10
85.625000
20
294.250000
0
VERTEX
5
32f
100
AcDbEntity
8
1
100
AcDbVertex
100
AcDb2dVertex
62
5
10
85.312500
20
293.625000
0
VERTEX
5
330
100
AcDbEntity
8
1
100
AcDbVertex
100
AcDb2dVertex
62
5
10
85.000000
20
293.312500
0
VERTEX
5
331
100
AcDbEntity
8
1
100
AcDbVertex
100
AcDb2dVertex
62
5
10
84.375000
20
293.000000
0
VERTEX
5
332
100
AcDbEntity
8
1
100
AcDbVertex
100
AcDb2dVertex
62
5
10
82.500000
20
293.000000
0
SEQEND
5
333
100
AcDbEntity
8
1
0
POLYLINE
5
334
100
AcDbEntity
8
1
6
DOT2
62
5
100
AcDb2dPolyline
66
1
10
0.0
20
0.0
30
0.0
70
0
0
VERTEX
5
335
100
AcDbEntity
8
1
100
AcDbVertex
100
AcDb2dVertex
62
5
10
133.750000
20
249.750000
0
VERTEX
5
336
100
AcDbEntity
8
1
100
AcDbVertex
100
AcDb2dVertex
62
5
10
132.812500
20
249.750000
0
VERTEX
5
337
100
AcDbEntity
8
1
100
AcDbVertex
100
AcDb2dVertex
62
5
10
131.875000
20
249.437500
0
VERTEX
5
338
100
AcDbEntity
8
1
100
AcDbVertex
100
AcDb2dVertex
62
5
10
131.250000
20
248.187500
0
VERTEX
5
339
100
AcDbEntity
8
1
100
AcDbVertex
100
AcDb2dVertex
62
5
10
131.250000
20
243.812500
0
VERTEX
5
33a
100
AcDbEntity
8
1
100
AcDbVertex
100
AcDb2dVertex
62
5
10
131.562500
20
242.875000
0
VERTEX
5
33b
100
AcDbEntity
8
1
100
AcDbVertex
100
AcDb2dVertex
62
5
10
131.875000
20
242.562500
0
VERTEX
5
33c
100
AcDbEntity
8
1
100
AcDbVertex
100
AcDb2dVertex
62
5
10
132.500000
20
242.250000
0
VERTEX
5
33d
100
AcDbEntity
8
1
100
AcDbVertex
100
AcDb2dVertex
62
5
10
133.125000
20
242.250000
0
VERTEX
5
33e
100
AcDbEntity
8
1
100
AcDbVertex
100
AcDb2dVertex
62
5
10
133.750000
20
242.562500
0
VERTEX
5
33f
100
AcDbEntity
8
1
100
AcDbVertex
100
AcDb2dVertex
62
5
10
134.062500
20
242.875000
0
VERTEX
5
340
100
AcDbEntity
8
1
100
AcDbVertex
100
AcDb2dVertex
62
5
10
134.375000
20
243.812500
0
VERTEX
5
341
100
AcDbEntity
8
1
100
AcDbVertex
100
AcDb2dVertex
62
5
10
134.375000
20
245.687500
0
VERTEX
5
342
100
AcDbEntity
8
1
100
AcDbVertex
100
AcDb2dVertex
62
5
10
134.062500
20
246.312500
0
VERTEX
5
343
100
AcDbEntity
8
1
100
AcDbVertex
100
AcDb2dVertex
62
5
10
133.437500
20
246.625000
0
VERTEX
5
344
100
AcDbEntity
8
1
100
AcDbVertex
100
AcDb2dVertex
62
5
10
132.187500
20
246.625000
0
VERTEX
5
345
100
AcDbEntity
8
1
100
AcDbVertex
100
AcDb2dVertex
62
5
10
131.250000
20
246.312500
0
SEQEND
5
346
100
AcDbEntity
8
1
0
POLYLINE
5
347
100
AcDbEntity
8
1
6
DOT2
62
5
100
AcDb2dPolyline
66
1
10
0.0
20
0.0
30
0.0
70
0
0
VERTEX
5
348
100
AcDbEntity
8
1
100
AcDbVertex
100
AcDb2dVertex
62
5
10
128.750000
20
249.750000
0
VERTEX
5
349
100
AcDbEntity
8
1
100
AcDbVertex
100
AcDb2dVertex
62
5
10
125.937500
20
244.125000
0
VERTEX
5
34a
100
AcDbEntity
8
1
100
AcDbVertex
100
AcDb2dVertex
62
5
10
129.687500
20
244.125000
0
SEQEND
5
34b
100
AcDbEntity
8
1
0
LINE
5
34c
100
AcDbEntity
8
1
100
AcDbLine
6
DOT2
62
5
10
128.750000
20
249.750000
11
128.750000
21
242.250000
0
LINE
5
34d
100
AcDbEntity
8
1
100
AcDbLine
6
DOT2
62
5
10
128.125000
20
242.250000
11
129.375000
21
242.250000
0
LINE
5
34e
100
AcDbEntity
8
1
100
AcDbLine
6
CONTINUOUS
62
5
10
148.299997
20
216.000000
11
148.299997
21
213.250001
0
ARC
5
34f
100
AcDbEntity
8
1
100
AcDbCircle
6
CONTINUOUS
62
5
10
143.999947
20
208.639519
40
1.000044
100
AcDbArc
50
0.001447
51
39.643958
0
LINE
5
350
100
AcDbEntity
8
1
100
AcDbLine
6
CONTINUOUS
62
5
10
144.770005
20
209.277562
11
139.499913
21
215.638018
0
ARC
5
351
100
AcDbEntity
8
1
100
AcDbCircle
6
CONTINUOUS
62
5
10
138.729892
20
215.000000
40
1.000000
100
AcDbArc
50
39.644175
51
89.999999
0
ARC
5
352
100
AcDbEntity
8
1
100
AcDbCircle
6
CONTINUOUS
62
5
10
149.899982
20
199.500005
40
0.500000
100
AcDbArc
50
-0.000000
51
89.999999
0
LINE
5
353
100
AcDbEntity
8
1
100
AcDbLine
6
CONTINUOUS
62
5
10
149.899982
20
200.000005
11
149.099982
21
200.000005
0
ARC
5
354
100
AcDbEntity
8
1
100
AcDbCircle
6
CONTINUOUS
62
5
10
148.999955
20
190.299996
40
0.500028
100
AcDbArc
50
0.046778
51
73.289482
0
LINE
5
355
100
AcDbEntity
8
1
100
AcDbLine
6
CONTINUOUS
62
5
10
149.499983
20
190.300405
11
149.499983
21
188.150017
0
LINE
5
356
100
AcDbEntity
8
1
100
AcDbLine
6
CONTINUOUS
62
5
10
143.699984
20
196.950006
11
143.949984
21
196.350006
0
LINE
5
357
100
AcDbEntity
8
1
100
AcDbLine
6
CONTINUOUS
62
5
10
147.099983
20
192.100007
11
147.199983
21
192.000007
0
LINE
5
358
100
AcDbEntity
8
1
100
AcDbLine
6
CONTINUOUS
62
5
10
143.199984
20
191.000007
11
143.299984
21
191.100007
0
LINE
5
359
100
AcDbEntity
8
1
100
AcDbLine
6
CONTINUOUS
62
5
10
142.699997
20
190.100000
11
142.199997
21
190.600000
0
LINE
5
35a
100
AcDbEntity
8
1
100
AcDbLine
6
CONTINUOUS
62
5
10
142.699984
20
194.700017
11
142.799984
21
194.900017
0
LINE
5
35b
100
AcDbEntity
8
1
100
AcDbLine
6
CONTINUOUS
62
5
10
137.699986
20
196.750006
11
137.449986
21
196.350006
0
ARC
5
35c
100
AcDbEntity
8
1
100
AcDbCircle
6
CONTINUOUS
62
5
10
141.699997
20
190.100000
40
0.500000
100
AcDbArc
50
-0.000000
51
89.999999
0
LINE
5
35d
100
AcDbEntity
8
1
100
AcDbLine
6
CONTINUOUS
62
5
10
141.699997
20
190.600000
11
141.199997
21
190.600000
0
LINE
5
35e
100
AcDbEntity
8
1
100
AcDbLine
6
CONTINUOUS
62
5
10
140.959931
20
194.000000
11
142.699984
21
194.000000
0
ARC
5
35f
100
AcDbEntity
8
1
100
AcDbCircle
6
CONTINUOUS
62
5
10
141.699997
20
191.900000
40
0.500000
100
AcDbArc
50
179.999998
51
-89.999999
0
LINE
5
360
100
AcDbEntity
8
1
100
AcDbLine
6
CONTINUOUS
62
5
10
141.699997
20
191.400000
11
142.710088
21
191.400000
0
ARC
5
361
100
AcDbEntity
8
1
100
AcDbCircle
6
CONTINUOUS
62
5
10
141.699997
20
192.750000
40
0.500000
100
AcDbArc
50
89.999999
51
179.999998
0
LINE
5
362
100
AcDbEntity
8
1
100
AcDbLine
6
CONTINUOUS
62
5
10
141.699997
20
193.250000
11
142.699984
21
193.250000
0
ARC
5
363
100
AcDbEntity
8
1
100
AcDbCircle
6
CONTINUOUS
62
5
10
138.199986
20
201.050004
40
0.500000
100
AcDbArc
50
89.999999
51
-179.999998
0
LINE
5
364
100
AcDbEntity
8
1
100
AcDbLine
6
CONTINUOUS
62
5
10
138.199986
20
201.550004
11
143.199984
21
201.550004
0
ARC
5
365
100
AcDbEntity
8
1
100
AcDbCircle
6
CONTINUOUS
62
5
10
143.199984
20
201.050004
40
0.500000
100
AcDbArc
50
-0.000000
51
89.999999
0
POLYLINE
5
366
100
AcDbEntity
8
1
6
CONTINUOUS
62
5
100
AcDb2dPolyline
66
1
10
0.0
20
0.0
30
0.0
70
0
0
VERTEX
5
367
100
AcDbEntity
8
1
100
AcDbVertex
100
AcDb2dVertex
62
5
10
143.699984
20
201.050004
0
VERTEX
5
368
100
AcDbEntity
8
1
100
AcDbVertex
100
AcDb2dVertex
62
5
10
143.699984
20
196.950006
0
VERTEX
5
369
100
AcDbEntity
8
1
100
AcDbVertex
100
AcDb2dVertex
62
5
10
139.699985
20
196.950006
0
SEQEND
5
36a
100
AcDbEntity
8
1
0
POLYLINE
5
36b
100
AcDbEntity
8
1
6
CONTINUOUS
62
5
100
AcDb2dPolyline
66
1
10
0.0
20
0.0
30
0.0
70
0
0
VERTEX
5
36c
100
AcDbEntity
8
1
100
AcDbVertex
100
AcDb2dVertex
62
5
10
143.699984
20
198.750005
0
VERTEX
5
36d
100
AcDbEntity
8
1
100
AcDbVertex
100
AcDb2dVertex
62
5
10
142.199984
20
199.750005
0
VERTEX
5
36e
100
AcDbEntity
8
1
100
AcDbVertex
100
AcDb2dVertex
62
5
10
139.699985
20
199.750005
0
VERTEX
5
36f
100
AcDbEntity
8
1
100
AcDbVertex
100
AcDb2dVertex
62
5
10
139.699985
20
196.750006
0
VERTEX
5
370
100
AcDbEntity
8
1
100
AcDbVertex
100
AcDb2dVertex
62
5
10
137.699986
20
196.750006
0
VERTEX
5
371
100
AcDbEntity
8
1
100
AcDbVertex
100
AcDb2dVertex
62
5
10
137.699986
20
201.050004
0
SEQEND
5
372
100
AcDbEntity
8
1
0
ARC
5
373
100
AcDbEntity
8
1
100
AcDbCircle
6
CONTINUOUS
62
5
10
143.199984
20
201.050004
40
0.750000
100
AcDbArc
50
0.000000
51
89.999999
0
LINE
5
374
100
AcDbEntity
8
1
100
AcDbLine
6
CONTINUOUS
62
5
10
143.199984
20
201.800004
11
138.199986
21
201.800004
0
ARC
5
375
100
AcDbEntity
8
1
100
AcDbCircle
6
CONTINUOUS
62
5
10
138.199986
20
201.050004
40
0.750000
100
AcDbArc
50
89.999999
51
-179.999998
0
POLYLINE
5
376
100
AcDbEntity
8
1
6
CONTINUOUS
62
5
100
AcDb2dPolyline
66
1
10
0.0
20
0.0
30
0.0
70
0
0
VERTEX
5
377
100
AcDbEntity
8
1
100
AcDbVertex
100
AcDb2dVertex
62
5
10
137.449986
20
201.050004
0
VERTEX
5
378
100
AcDbEntity
8
1
100
AcDbVertex
100
AcDb2dVertex
62
5
10
137.449986
20
196.350006
0
VERTEX
5
379
100
AcDbEntity
8
1
100
AcDbVertex
100
AcDb2dVertex
62
5
10
143.949984
20
196.350006
0
VERTEX
5
37a
100
AcDbEntity
8
1
100
AcDbVertex
100
AcDb2dVertex
62
5
10
143.949984
20
201.050004
0
SEQEND
5
37b
100
AcDbEntity
8
1
0
LINE
5
37c
100
AcDbEntity
8
1
100
AcDbLine
6
CONTINUOUS
62
5
10
142.699997
20
184.900000
11
142.199997
21
184.400000
0
ARC
5
37d
100
AcDbEntity
8
1
100
AcDbCircle
6
CONTINUOUS
62
5
10
141.699997
20
183.900000
40
0.500000
100
AcDbArc
50
-89.999999
51
-0.000000
0
LINE
5
37e
100
AcDbEntity
8
1
100
AcDbLine
6
CONTINUOUS
62
5
10
142.199997
20
183.900000
11
142.199997
21
184.400000
0
LINE
5
37f
100
AcDbEntity
8
1
100
AcDbLine
6
CONTINUOUS
62
5
10
141.199997
20
183.400000
11
141.699997
21
183.400000
0
LINE
5
380
100
AcDbEntity
8
1
100
AcDbLine
6
CONTINUOUS
62
5
10
134.649997
20
181.837500
11
133.849997
21
181.800000
0
LINE
5
381
100
AcDbEntity
8
1
100
AcDbLine
6
CONTINUOUS
62
5
10
134.649997
20
181.800000
11
133.849997
21
181.800000
0
POLYLINE
5
382
100
AcDbEntity
8
1
6
CONTINUOUS
62
5
100
AcDb2dPolyline
66
1
10
0.0
20
0.0
30
0.0
70
0
0
VERTEX
5
383
100
AcDbEntity
8
1
100
AcDbVertex
100
AcDb2dVertex
62
5
10
143.199984
20
184.900000
0
VERTEX
5
384
100
AcDbEntity
8
1
100
AcDbVertex
100
AcDb2dVertex
62
5
10
142.699997
20
184.900000
0
VERTEX
5
385
100
AcDbEntity
8
1
100
AcDbVertex
100
AcDb2dVertex
62
5
10
142.699997
20
190.100000
0
VERTEX
5
386
100
AcDbEntity
8
1
100
AcDbVertex
100
AcDb2dVertex
62
5
10
143.199984
20
190.100000
0
SEQEND
5
387
100
AcDbEntity
8
1
0
POLYLINE
5
388
100
AcDbEntity
8
1
6
CONTINUOUS
62
5
100
AcDb2dPolyline
66
1
10
0.0
20
0.0
30
0.0
70
0
0
VERTEX
5
389
100
AcDbEntity
8
1
100
AcDbVertex
100
AcDb2dVertex
62
5
10
143.199984
20
184.400000
0
VERTEX
5
38a
100
AcDbEntity
8
1
100
AcDbVertex
100
AcDb2dVertex
62
5
10
142.199997
20
184.400000
0
VERTEX
5
38b
100
AcDbEntity
8
1
100
AcDbVertex
100
AcDb2dVertex
62
5
10
142.199997
20
190.600000
0
VERTEX
5
38c
100
AcDbEntity
8
1
100
AcDbVertex
100
AcDb2dVertex
62
5
10
143.199984
20
190.600000
0
SEQEND
5
38d
100
AcDbEntity
8
1
0
POLYLINE
5
38e
100
AcDbEntity
8
1
6
CONTINUOUS
62
5
100
AcDb2dPolyline
66
1
10
0.0
20
0.0
30
0.0
70
0
0
VERTEX
5
38f
100
AcDbEntity
8
1
100
AcDbVertex
100
AcDb2dVertex
62
5
10
134.649997
20
181.800000
0
VERTEX
5
390
100
AcDbEntity
8
1
100
AcDbVertex
100
AcDb2dVertex
62
5
10
133.849997
20
181.800000
0
VERTEX
5
391
100
AcDbEntity
8
1
100
AcDbVertex
100
AcDb2dVertex
62
5
10
133.549997
20
188.200000
0
VERTEX
5
392
100
AcDbEntity
8
1
100
AcDbVertex
100
AcDb2dVertex
62
5
10
133.968319
20
188.219609
0
VERTEX
5
393
100
AcDbEntity
8
1
100
AcDbVertex
100
AcDb2dVertex
62
5
10
133.955176
20
188.500000
0
SEQEND
5
394
100
AcDbEntity
8
1
0
POLYLINE
5
395
100
AcDbEntity
8
1
6
CONTINUOUS
62
5
100
AcDb2dPolyline
66
1
10
0.0
20
0.0
30
0.0
70
0
0
VERTEX
5
396
100
AcDbEntity
8
1
100
AcDbVertex
100
AcDb2dVertex
62
5
10
132.940327
20
188.500000
0
VERTEX
5
397
100
AcDbEntity
8
1
100
AcDbVertex
100
AcDb2dVertex
62
5
10
132.926525
20
188.220944
0
VERTEX
5
398
100
AcDbEntity
8
1
100
AcDbVertex
100
AcDb2dVertex
62
5
10
133.349997
20
188.200000
0
VERTEX
5
399
100
AcDbEntity
8
1
100
AcDbVertex
100
AcDb2dVertex
62
5
10
133.049997
20
181.800000
0
VERTEX
5
39a
100
AcDbEntity
8
1
100
AcDbVertex
100
AcDb2dVertex
62
5
10
132.449997
20
181.828125
0
SEQEND
5
39b
100
AcDbEntity
8
1
0
POLYLINE
5
39c
100
AcDbEntity
8
1
6
CONTINUOUS
62
5
100
AcDb2dPolyline
66
1
10
0.0
20
0.0
30
0.0
70
1
0
VERTEX
5
39d
100
AcDbEntity
8
1
100
AcDbVertex
100
AcDb2dVertex
62
5
10
134.649997
20
181.500000
0
VERTEX
5
39e
100
AcDbEntity
8
1
100
AcDbVertex
100
AcDb2dVertex
62
5
10
132.449997
20
181.500000
0
VERTEX
5
39f
100
AcDbEntity
8
1
100
AcDbVertex
100
AcDb2dVertex
62
5
10
132.449997
20
188.500000
0
VERTEX
5
3a0
100
AcDbEntity
8
1
100
AcDbVertex
100
AcDb2dVertex
62
5
10
134.649997
20
188.500000
0
VERTEX
5
3a1
100
AcDbEntity
8
1
100
AcDbVertex
100
AcDb2dVertex
62
5
10
134.649997
20
181.500000
0
SEQEND
5
3a2
100
AcDbEntity
8
1
0
POLYLINE
5
3a3
100
AcDbEntity
8
1
6
CONTINUOUS
62
5
100
AcDb2dPolyline
66
1
10
0.0
20
0.0
30
0.0
70
1
0
VERTEX
5
3a4
100
AcDbEntity
8
1
100
AcDbVertex
100
AcDb2dVertex
62
5
10
134.649997
20
188.500000
0
VERTEX
5
3a5
100
AcDbEntity
8
1
100
AcDbVertex
100
AcDb2dVertex
62
5
10
132.449997
20
188.500000
0
VERTEX
5
3a6
100
AcDbEntity
8
1
100
AcDbVertex
100
AcDb2dVertex
62
5
10
132.449997
20
181.500000
0
VERTEX
5
3a7
100
AcDbEntity
8
1
100
AcDbVertex
100
AcDb2dVertex
62
5
10
134.649997
20
181.500000
0
VERTEX
5
3a8
100
AcDbEntity
8
1
100
AcDbVertex
100
AcDb2dVertex
62
5
10
134.649997
20
188.500000
0
SEQEND
5
3a9
100
AcDbEntity
8
1
0
ARC
5
3aa
100
AcDbEntity
8
1
100
AcDbCircle
6
CONTINUOUS
62
5
10
147.999997
20
187.400000
40
1.000000
100
AcDbArc
50
89.999999
51
143.131413
0
LINE
5
3ab
100
AcDbEntity
8
1
100
AcDbLine
6
CONTINUOUS
62
5
10
147.999997
20
188.400000
11
148.649997
21
188.400000
0
ARC
5
3ac
100
AcDbEntity
8
1
100
AcDbCircle
6
CONTINUOUS
62
5
10
148.649997
20
188.900000
40
0.500000
100
AcDbArc
50
-89.999999
51
0.000000
0
LINE
5
3ad
100
AcDbEntity
8
1
100
AcDbLine
6
CONTINUOUS
62
5
10
149.149997
20
188.900000
11
149.149997
21
190.700000
0
ARC
5
3ae
100
AcDbEntity
8
1
100
AcDbCircle
6
CONTINUOUS
62
5
10
148.649997
20
190.700000
40
0.500000
100
AcDbArc
50
-0.000000
51
89.999999
0
LINE
5
3af
100
AcDbEntity
8
1
100
AcDbLine
6
CONTINUOUS
62
5
10
148.649997
20
191.200000
11
147.999997
21
191.200000
0
ARC
5
3b0
100
AcDbEntity
8
1
100
AcDbCircle
6
CONTINUOUS
62
5
10
147.999997
20
192.200000
40
1.000000
100
AcDbArc
50
-143.131413
51
-89.999999
0
LINE
5
3b1
100
AcDbEntity
8
1
100
AcDbLine
6
CONTINUOUS
62
5
10
148.699982
20
192.000007
11
148.699982
21
191.200000
0
ARC
5
3b2
100
AcDbEntity
8
1
100
AcDbCircle
6
CONTINUOUS
62
5
10
146.699983
20
202.000004
40
0.500000
100
AcDbArc
50
0.000000
51
89.999999
0
LINE
5
3b3
100
AcDbEntity
8
1
100
AcDbLine
6
CONTINUOUS
62
5
10
147.199983
20
201.200004
11
147.199983
21
202.000004
0
ARC
5
3b4
100
AcDbEntity
8
1
100
AcDbCircle
6
CONTINUOUS
62
5
10
115.670086
20
215.000000
40
1.000000
100
AcDbArc
50
89.999999
51
140.355824
0
LINE
5
3b5
100
AcDbEntity
8
1
100
AcDbLine
6
CONTINUOUS
62
5
10
114.900064
20
215.638018
11
109.629973
21
209.277562
0
ARC
5
3b6
100
AcDbEntity
8
1
100
AcDbCircle
6
CONTINUOUS
62
5
10
110.578899
20
208.536779
40
1.203837
100
AcDbArc
50
142.022473
51
175.102962
0
LINE
5
3b7
100
AcDbEntity
8
1
100
AcDbLine
6
CONTINUOUS
62
5
10
116.699989
20
196.950006
11
116.949989
21
196.350006
0
LINE
5
3b8
100
AcDbEntity
8
1
100
AcDbLine
6
CONTINUOUS
62
5
10
112.899993
20
194.000000
11
113.440062
21
194.000000
0
ARC
5
3b9
100
AcDbEntity
8
1
100
AcDbCircle
6
CONTINUOUS
62
5
10
112.699997
20
191.900000
40
0.500000
100
AcDbArc
50
-66.870467
51
0.000000
0
ARC
5
3ba
100
AcDbEntity
8
1
100
AcDbCircle
6
CONTINUOUS
62
5
10
112.699997
20
192.750000
40
0.500000
100
AcDbArc
50
0.000000
51
66.422252
0
LINE
5
3bb
100
AcDbEntity
8
1
100
AcDbLine
6
CONTINUOUS
62
5
10
112.799993
20
194.900017
11
112.899993
21
194.700017
0
LINE
5
3bc
100
AcDbEntity
8
1
100
AcDbLine
6
CONTINUOUS
62
5
10
110.699991
20
196.750006
11
110.449991
21
196.350006
0
LINE
5
3bd
100
AcDbEntity
8
1
100
AcDbLine
6
CONTINUOUS
62
5
10
111.099994
20
191.100007
11
111.199994
21
191.000007
0
ARC
5
3be
100
AcDbEntity
8
1
100
AcDbCircle
6
CONTINUOUS
62
5
10
112.699997
20
190.100000
40
0.500000
100
AcDbArc
50
89.999999
51
-179.999998
0
LINE
5
3bf
100
AcDbEntity
8
1
100
AcDbLine
6
CONTINUOUS
62
5
10
112.699997
20
190.600000
11
113.199997
21
190.600000
0
LINE
5
3c0
100
AcDbEntity
8
1
100
AcDbLine
6
CONTINUOUS
62
5
10
111.699997
20
190.100000
11
112.199997
21
190.600000
0
ARC
5
3c1
100
AcDbEntity
8
1
100
AcDbCircle
6
CONTINUOUS
62
5
10
111.199991
20
201.050004
40
0.500000
100
AcDbArc
50
89.999999
51
-179.999998
0
LINE
5
3c2
100
AcDbEntity
8
1
100
AcDbLine
6
CONTINUOUS
62
5
10
111.199991
20
201.550004
11
116.199989
21
201.550004
0
ARC
5
3c3
100
AcDbEntity
8
1
100
AcDbCircle
6
CONTINUOUS
62
5
10
116.199989
20
201.050004
40
0.500000
100
AcDbArc
50
-0.000000
51
89.999999
0
POLYLINE
5
3c4
100
AcDbEntity
8
1
6
CONTINUOUS
62
5
100
AcDb2dPolyline
66
1
10
0.0
20
0.0
30
0.0
70
0
0
VERTEX
5
3c5
100
AcDbEntity
8
1
100
AcDbVertex
100
AcDb2dVertex
62
5
10
116.699989
20
201.050004
0
VERTEX
5
3c6
100
AcDbEntity
8
1
100
AcDbVertex
100
AcDb2dVertex
62
5
10
116.699989
20
196.950006
0
VERTEX
5
3c7
100
AcDbEntity
8
1
100
AcDbVertex
100
AcDb2dVertex
62
5
10
112.699990
20
196.950006
0
SEQEND
5
3c8
100
AcDbEntity
8
1
0
POLYLINE
5
3c9
100
AcDbEntity
8
1
6
CONTINUOUS
62
5
100
AcDb2dPolyline
66
1
10
0.0
20
0.0
30
0.0
70
0
0
VERTEX
5
3ca
100
AcDbEntity
8
1
100
AcDbVertex
100
AcDb2dVertex
62
5
10
116.699989
20
198.750005
0
VERTEX
5
3cb
100
AcDbEntity
8
1
100
AcDbVertex
100
AcDb2dVertex
62
5
10
115.199989
20
199.750005
0
VERTEX
5
3cc
100
AcDbEntity
8
1
100
AcDbVertex
100
AcDb2dVertex
62
5
10
112.699990
20
199.750005
0
VERTEX
5
3cd
100
AcDbEntity
8
1
100
AcDbVertex
100
AcDb2dVertex
62
5
10
112.699990
20
196.750006
0
VERTEX
5
3ce
100
AcDbEntity
8
1
100
AcDbVertex
100
AcDb2dVertex
62
5
10
110.699991
20
196.750006
0
VERTEX
5
3cf
100
AcDbEntity
8
1
100
AcDbVertex
100
AcDb2dVertex
62
5
10
110.699991
20
201.050004
0
SEQEND
5
3d0
100
AcDbEntity
8
1
0
ARC
5
3d1
100
AcDbEntity
8
1
100
AcDbCircle
6
CONTINUOUS
62
5
10
116.199989
20
201.050004
40
0.750000
100
AcDbArc
50
0.000000
51
89.999999
0
LINE
5
3d2
100
AcDbEntity
8
1
100
AcDbLine
6
CONTINUOUS
62
5
10
116.199989
20
201.800004
11
111.199991
21
201.800004
0
ARC
5
3d3
100
AcDbEntity
8
1
100
AcDbCircle
6
CONTINUOUS
62
5
10
111.199991
20
201.050004
40
0.750000
100
AcDbArc
50
89.999999
51
-179.999998
0
POLYLINE
5
3d4
100
AcDbEntity
8
1
6
CONTINUOUS
62
5
100
AcDb2dPolyline
66
1
10
0.0
20
0.0
30
0.0
70
0
0
VERTEX
5
3d5
100
AcDbEntity
8
1
100
AcDbVertex
100
AcDb2dVertex
62
5
10
110.449991
20
201.050004
0
VERTEX
5
3d6
100
AcDbEntity
8
1
100
AcDbVertex
100
AcDb2dVertex
62
5
10
110.449991
20
196.350006
0
VERTEX
5
3d7
100
AcDbEntity
8
1
100
AcDbVertex
100
AcDb2dVertex
62
5
10
116.949989
20
196.350006
0
VERTEX
5
3d8
100
AcDbEntity
8
1
100
AcDbVertex
100
AcDb2dVertex
62
5
10
116.949989
20
201.050004
0
SEQEND
5
3d9
100
AcDbEntity
8
1
0
LINE
5
3da
100
AcDbEntity
8
1
100
AcDbLine
6
CONTINUOUS
62
5
10
107.299989
20
191.400017
11
107.199989
21
191.300018
0
LINE
5
3db
100
AcDbEntity
8
1
100
AcDbLine
6
CONTINUOUS
62
5
10
107.199989
20
188.000010
11
107.299989
21
187.900010
0
LINE
5
3dc
100
AcDbEntity
8
1
100
AcDbLine
6
CONTINUOUS
62
5
10
120.549997
20
181.800000
11
119.749997
21
181.837500
0
ARC
5
3dd
100
AcDbEntity
8
1
100
AcDbCircle
6
CONTINUOUS
62
5
10
112.699997
20
183.900000
40
0.500000
100
AcDbArc
50
179.999998
51
-89.999999
0
LINE
5
3de
100
AcDbEntity
8
1
100
AcDbLine
6
CONTINUOUS
62
5
10
112.199997
20
183.900000
11
112.199997
21
184.400000
0
LINE
5
3df
100
AcDbEntity
8
1
100
AcDbLine
6
CONTINUOUS
62
5
10
113.199997
20
183.400000
11
112.699997
21
183.400000
0
LINE
5
3e0
100
AcDbEntity
8
1
100
AcDbLine
6
CONTINUOUS
62
5
10
111.699997
20
184.900000
11
112.199997
21
184.400000
0
POLYLINE
5
3e1
100
AcDbEntity
8
1
6
CONTINUOUS
62
5
100
AcDb2dPolyline
66
1
10
0.0
20
0.0
30
0.0
70
0
0
VERTEX
5
3e2
100
AcDbEntity
8
1
100
AcDbVertex
100
AcDb2dVertex
62
5
10
121.422572
20
189.250000
0
VERTEX
5
3e3
100
AcDbEntity
8
1
100
AcDbVertex
100
AcDb2dVertex
62
5
10
121.473468
20
188.220944
0
VERTEX
5
3e4
100
AcDbEntity
8
1
100
AcDbVertex
100
AcDb2dVertex
62
5
10
121.049997
20
188.200000
0
VERTEX
5
3e5
100
AcDbEntity
8
1
100
AcDbVertex
100
AcDb2dVertex
62
5
10
121.349997
20
181.800000
0
VERTEX
5
3e6
100
AcDbEntity
8
1
100
AcDbVertex
100
AcDb2dVertex
62
5
10
121.949997
20
181.828125
0
SEQEND
5
3e7
100
AcDbEntity
8
1
0
POLYLINE
5
3e8
100
AcDbEntity
8
1
6
CONTINUOUS
62
5
100
AcDb2dPolyline
66
1
10
0.0
20
0.0
30
0.0
70
0
0
VERTEX
5
3e9
100
AcDbEntity
8
1
100
AcDbVertex
100
AcDb2dVertex
62
5
10
119.749997
20
181.800000
0
VERTEX
5
3ea
100
AcDbEntity
8
1
100
AcDbVertex
100
AcDb2dVertex
62
5
10
120.549997
20
181.800000
0
VERTEX
5
3eb
100
AcDbEntity
8
1
100
AcDbVertex
100
AcDb2dVertex
62
5
10
120.849997
20
188.200000
0
VERTEX
5
3ec
100
AcDbEntity
8
1
100
AcDbVertex
100
AcDb2dVertex
62
5
10
120.431674
20
188.219609
0
VERTEX
5
3ed
100
AcDbEntity
8
1
100
AcDbVertex
100
AcDb2dVertex
62
5
10
120.479974
20
189.250000
0
SEQEND
5
3ee
100
AcDbEntity
8
1
0
POLYLINE
5
3ef
100
AcDbEntity
8
1
6
CONTINUOUS
62
5
100
AcDb2dPolyline
66
1
10
0.0
20
0.0
30
0.0
70
1
0
VERTEX
5
3f0
100
AcDbEntity
8
1
100
AcDbVertex
100
AcDb2dVertex
62
5
10
121.949997
20
180.750000
0
VERTEX
5
3f1
100
AcDbEntity
8
1
100
AcDbVertex
100
AcDb2dVertex
62
5
10
119.749997
20
180.750000
0
VERTEX
5
3f2
100
AcDbEntity
8
1
100
AcDbVertex
100
AcDb2dVertex
62
5
10
119.749997
20
189.250000
0
VERTEX
5
3f3
100
AcDbEntity
8
1
100
AcDbVertex
100
AcDb2dVertex
62
5
10
121.949997
20
189.250000
0
VERTEX
5
3f4
100
AcDbEntity
8
1
100
AcDbVertex
100
AcDb2dVertex
62
5
10
121.949997
20
180.750000
0
SEQEND
5
3f5
100
AcDbEntity
8
1
0
POLYLINE
5
3f6
100
AcDbEntity
8
1
6
CONTINUOUS
62
5
100
AcDb2dPolyline
66
1
10
0.0
20
0.0
30
0.0
70
1
0
VERTEX
5
3f7
100
AcDbEntity
8
1
100
AcDbVertex
100
AcDb2dVertex
62
5
10
121.949997
20
189.250000
0
VERTEX
5
3f8
100
AcDbEntity
8
1
100
AcDbVertex
100
AcDb2dVertex
62
5
10
119.749997
20
189.250000
0
VERTEX
5
3f9
100
AcDbEntity
8
1
100
AcDbVertex
100
AcDb2dVertex
62
5
10
119.749997
20
180.750000
0
VERTEX
5
3fa
100
AcDbEntity
8
1
100
AcDbVertex
100
AcDb2dVertex
62
5
10
121.949997
20
180.750000
0
VERTEX
5
3fb
100
AcDbEntity
8
1
100
AcDbVertex
100
AcDb2dVertex
62
5
10
121.949997
20
189.250000
0
SEQEND
5
3fc
100
AcDbEntity
8
1
0
POLYLINE
5
3fd
100
AcDbEntity
8
1
6
CONTINUOUS
62
5
100
AcDb2dPolyline
66
1
10
0.0
20
0.0
30
0.0
70
0
0
VERTEX
5
3fe
100
AcDbEntity
8
1
100
AcDbVertex
100
AcDb2dVertex
62
5
10
111.199994
20
184.400000
0
VERTEX
5
3ff
100
AcDbEntity
8
1
100
AcDbVertex
100
AcDb2dVertex
62
5
10
112.199997
20
184.400000
0
VERTEX
5
400
100
AcDbEntity
8
1
100
AcDbVertex
100
AcDb2dVertex
62
5
10
112.199997
20
190.600000
0
VERTEX
5
401
100
AcDbEntity
8
1
100
AcDbVertex
100
AcDb2dVertex
62
5
10
111.199994
20
190.600000
0
SEQEND
5
402
100
AcDbEntity
8
1
0
POLYLINE
5
403
100
AcDbEntity
8
1
6
CONTINUOUS
62
5
100
AcDb2dPolyline
66
1
10
0.0
20
0.0
30
0.0
70
0
0
VERTEX
5
404
100
AcDbEntity
8
1
100
AcDbVertex
100
AcDb2dVertex
62
5
10
111.199994
20
184.900000
0
VERTEX
5
405
100
AcDbEntity
8
1
100
AcDbVertex
100
AcDb2dVertex
62
5
10
111.699997
20
184.900000
0
VERTEX
5
406
100
AcDbEntity
8
1
100
AcDbVertex
100
AcDb2dVertex
62
5
10
111.699997
20
190.100000
0
VERTEX
5
407
100
AcDbEntity
8
1
100
AcDbVertex
100
AcDb2dVertex
62
5
10
111.199994
20
190.100000
0
SEQEND
5
408
100
AcDbEntity
8
1
0
LINE
5
409
100
AcDbEntity
8
1
100
AcDbLine
6
CONTINUOUS
62
5
10
106.199989
20
191.300017
11
106.199989
21
191.200000
0
LINE
5
40a
100
AcDbEntity
8
1
100
AcDbLine
6
CONTINUOUS
62
5
10
106.199989
20
188.400000
11
106.199989
21
188.000010
0
ARC
5
40b
100
AcDbEntity
8
1
100
AcDbCircle
6
CONTINUOUS
62
5
10
104.999996
20
199.500005
40
0.500000
100
AcDbArc
50
89.999999
51
-179.999998
0
LINE
5
40c
100
AcDbEntity
8
1
100
AcDbLine
6
CONTINUOUS
62
5
10
105.799995
20
200.000005
11
104.999996
21
200.000005
0
ARC
5
40d
100
AcDbEntity
8
1
100
AcDbCircle
6
CONTINUOUS
62
5
10
106.399997
20
187.400001
40
0.999999
100
AcDbArc
50
36.870580
51
90.000007
0
LINE
5
40e
100
AcDbEntity
8
1
100
AcDbLine
6
CONTINUOUS
62
5
10
106.399997
20
188.400000
11
105.749997
21
188.400000
0
ARC
5
40f
100
AcDbEntity
8
1
100
AcDbCircle
6
CONTINUOUS
62
5
10
105.749997
20
188.900000
40
0.500000
100
AcDbArc
50
-179.999998
51
-89.999999
0
LINE
5
410
100
AcDbEntity
8
1
100
AcDbLine
6
CONTINUOUS
62
5
10
105.249997
20
188.900000
11
105.249997
21
190.700000
0
ARC
5
411
100
AcDbEntity
8
1
100
AcDbCircle
6
CONTINUOUS
62
5
10
105.749997
20
190.700000
40
0.500000
100
AcDbArc
50
89.999999
51
179.999998
0
LINE
5
412
100
AcDbEntity
8
1
100
AcDbLine
6
CONTINUOUS
62
5
10
105.749997
20
191.200000
11
106.399997
21
191.200000
0
ARC
5
413
100
AcDbEntity
8
1
100
AcDbCircle
6
CONTINUOUS
62
5
10
106.399997
20
192.200000
40
1.000000
100
AcDbArc
50
-89.999999
51
-64.155694
0
ARC
5
414
100
AcDbEntity
8
1
100
AcDbCircle
6
CONTINUOUS
62
5
10
104.999996
20
187.500010
40
0.500000
100
AcDbArc
50
89.999999
51
-179.999998
0
POLYLINE
5
415
100
AcDbEntity
8
1
6
CONTINUOUS
62
5
100
AcDb2dPolyline
66
1
10
0.0
20
0.0
30
0.0
70
0
0
VERTEX
5
416
100
AcDbEntity
8
1
100
AcDbVertex
100
AcDb2dVertex
62
5
10
104.999996
20
188.000010
0
VERTEX
5
417
100
AcDbEntity
8
1
100
AcDbVertex
100
AcDb2dVertex
62
5
10
107.199989
20
188.000010
0
VERTEX
5
418
100
AcDbEntity
8
1
100
AcDbVertex
100
AcDb2dVertex
62
5
10
107.199989
20
191.300018
0
VERTEX
5
419
100
AcDbEntity
8
1
100
AcDbVertex
100
AcDb2dVertex
62
5
10
104.999996
20
191.300017
0
SEQEND
5
41a
100
AcDbEntity
8
1
0
ARC
5
41b
100
AcDbEntity
8
1
100
AcDbCircle
6
CONTINUOUS
62
5
10
104.999996
20
191.800017
40
0.500000
100
AcDbArc
50
-179.681193
51
-89.999999
0
ARC
5
41c
100
AcDbEntity
8
1
100
AcDbCircle
6
CONTINUOUS
62
5
10
107.699995
20
202.000004
40
0.500000
100
AcDbArc
50
89.999999
51
-179.999998
0
LINE
5
41d
100
AcDbEntity
8
1
100
AcDbLine
6
CONTINUOUS
62
5
10
107.199995
20
202.000004
11
107.199995
21
201.200004
0
CIRCLE
5
41e
100
AcDbEntity
8
1
100
AcDbCircle
6
CONTINUOUS
62
5
10
127.199997
20
210.500000
40
1.500000
0
ARC
5
41f
100
AcDbEntity
8
1
100
AcDbCircle
6
CONTINUOUS
62
5
10
130.699988
20
201.750004
40
2.499999
100
AcDbArc
50
-89.999999
51
89.999999
0
LINE
5
420
100
AcDbEntity
8
1
100
AcDbLine
6
CONTINUOUS
62
5
10
130.699988
20
199.250005
11
125.199989
21
199.250005
0
ARC
5
421
100
AcDbEntity
8
1
100
AcDbCircle
6
CONTINUOUS
62
5
10
125.199989
20
201.750004
40
2.499999
100
AcDbArc
50
89.999999
51
-89.999999
0
LINE
5
422
100
AcDbEntity
8
1
100
AcDbLine
6
CONTINUOUS
62
5
10
125.199989
20
204.250004
11
130.699988
21
204.250004
0
ARC
5
423
100
AcDbEntity
8
1
100
AcDbCircle
6
CONTINUOUS
62
5
10
130.699988
20
201.750004
40
3.749999
100
AcDbArc
50
-89.999999
51
89.999999
0
LINE
5
424
100
AcDbEntity
8
1
100
AcDbLine
6
CONTINUOUS
62
5
10
130.699988
20
198.000005
11
125.199989
21
198.000005
0
ARC
5
425
100
AcDbEntity
8
1
100
AcDbCircle
6
CONTINUOUS
62
5
10
125.199989
20
201.750004
40
3.749999
100
AcDbArc
50
89.999999
51
-89.999999
0
LINE
5
426
100
AcDbEntity
8
1
100
AcDbLine
6
CONTINUOUS
62
5
10
125.199989
20
205.500003
11
130.699988
21
205.500003
0
ARC
5
427
100
AcDbEntity
8
1
100
AcDbCircle
6
CONTINUOUS
62
5
10
125.199989
20
201.750004
40
4.399999
100
AcDbArc
50
89.999999
51
-89.999999
0
LINE
5
428
100
AcDbEntity
8
1
100
AcDbLine
6
CONTINUOUS
62
5
10
125.199989
20
197.350006
11
130.699988
21
197.350006
0
ARC
5
429
100
AcDbEntity
8
1
100
AcDbCircle
6
CONTINUOUS
62
5
10
130.699988
20
201.750004
40
4.399999
100
AcDbArc
50
-89.999999
51
89.999999
0
ARC
5
42a
100
AcDbEntity
8
1
100
AcDbCircle
6
CONTINUOUS
62
5
10
130.699988
20
201.750004
40
4.299999
100
AcDbArc
50
-89.999999
51
89.999999
0
LINE
5
42b
100
AcDbEntity
8
1
100
AcDbLine
6
CONTINUOUS
62
5
10
130.699988
20
197.450006
11
125.199989
21
197.450006
0
ARC
5
42c
100
AcDbEntity
8
1
100
AcDbCircle
6
CONTINUOUS
62
5
10
125.199989
20
201.750004
40
4.299999
100
AcDbArc
50
89.999999
51
-89.999999
0
LINE
5
42d
100
AcDbEntity
8
1
100
AcDbLine
6
CONTINUOUS
62
5
10
125.199989
20
206.050003
11
130.699988
21
206.050003
0
LINE
5
42e
100
AcDbEntity
8
1
100
AcDbLine
6
CONTINUOUS
62
5
10
141.685707
20
212.999983
11
112.701709
21
212.999983
0
ARC
5
42f
100
AcDbEntity
8
1
100
AcDbCircle
6
CONTINUOUS
62
5
10
144.499984
20
205.650003
40
0.500000
100
AcDbArc
50
0.000000
51
89.999999
0
LINE
5
430
100
AcDbEntity
8
1
100
AcDbLine
6
CONTINUOUS
62
5
10
144.499984
20
206.150003
11
109.899994
21
206.150003
0
ARC
5
431
100
AcDbEntity
8
1
100
AcDbCircle
6
CONTINUOUS
62
5
10
109.899994
20
205.650003
40
0.500000
100
AcDbArc
50
89.999999
51
179.999998
0
LINE
5
432
100
AcDbEntity
8
1
100
AcDbLine
6
CONTINUOUS
62
5
10
107.000003
20
216.500000
11
107.000003
21
243.000000
0
LINE
5
433
100
AcDbEntity
8
1
100
AcDbLine
6
CONTINUOUS
62
5
10
152.999997
20
216.500000
11
152.999997
21
243.000000
0
POLYLINE
5
434
100
AcDbEntity
8
1
6
CONTINUOUS
62
5
100
AcDb2dPolyline
66
1
10
0.0
20
0.0
30
0.0
70
0
0
VERTEX
5
435
100
AcDbEntity
8
1
100
AcDbVertex
100
AcDb2dVertex
62
5
10
130.000000
20
241.000000
0
VERTEX
5
436
100
AcDbEntity
8
1
100
AcDbVertex
100
AcDb2dVertex
62
5
10
107.000003
20
241.000000
0
VERTEX
5
437
100
AcDbEntity
8
1
100
AcDbVertex
100
AcDb2dVertex
62
5
10
113.000003
20
242.000000
0
VERTEX
5
438
100
AcDbEntity
8
1
100
AcDbVertex
100
AcDb2dVertex
62
5
10
113.000003
20
240.000000
0
VERTEX
5
439
100
AcDbEntity
8
1
100
AcDbVertex
100
AcDb2dVertex
62
5
10
107.000003
20
241.000000
0
VERTEX
5
43a
100
AcDbEntity
8
1
100
AcDbVertex
100
AcDb2dVertex
62
5
10
113.000003
20
241.500000
0
VERTEX
5
43b
100
AcDbEntity
8
1
100
AcDbVertex
100
AcDb2dVertex
62
5
10
113.000003
20
240.500000
0
VERTEX
5
43c
100
AcDbEntity
8
1
100
AcDbVertex
100
AcDb2dVertex
62
5
10
107.000003
20
241.000000
0
SEQEND
5
43d
100
AcDbEntity
8
1
0
POLYLINE
5
43e
100
AcDbEntity
8
1
6
CONTINUOUS
62
5
100
AcDb2dPolyline
66
1
10
0.0
20
0.0
30
0.0
70
0
0
VERTEX
5
43f
100
AcDbEntity
8
1
100
AcDbVertex
100
AcDb2dVertex
62
5
10
130.000000
20
241.000000
0
VERTEX
5
440
100
AcDbEntity
8
1
100
AcDbVertex
100
AcDb2dVertex
62
5
10
152.999997
20
241.000000
0
VERTEX
5
441
100
AcDbEntity
8
1
100
AcDbVertex
100
AcDb2dVertex
62
5
10
146.999997
20
240.000000
0
VERTEX
5
442
100
AcDbEntity
8
1
100
AcDbVertex
100
AcDb2dVertex
62
5
10
146.999997
20
242.000000
0
VERTEX
5
443
100
AcDbEntity
8
1
100
AcDbVertex
100
AcDb2dVertex
62
5
10
152.999997
20
241.000000
0
VERTEX
5
444
100
AcDbEntity
8
1
100
AcDbVertex
100
AcDb2dVertex
62
5
10
146.999997
20
240.500000
0
VERTEX
5
445
100
AcDbEntity
8
1
100
AcDbVertex
100
AcDb2dVertex
62
5
10
146.999997
20
241.500000
0
VERTEX
5
446
100
AcDbEntity
8
1
100
AcDbVertex
100
AcDb2dVertex
62
5
10
152.999997
20
241.000000
0
SEQEND
5
447
100
AcDbEntity
8
1
0
LINE
5
448
100
AcDbEntity
8
1
100
AcDbLine
6
CONTINUOUS
62
5
10
10.000000
20
318.000000
11
330.000000
21
318.000000
0
LINE
5
449
100
AcDbEntity
8
1
100
AcDbLine
6
CONTINUOUS
62
5
10
219.699997
20
175.057067
11
219.699997
21
174.142924
0
LINE
5
44a
100
AcDbEntity
8
1
100
AcDbLine
6
CONTINUOUS
62
5
10
219.699997
20
168.857067
11
219.699997
21
167.942928
0
LINE
5
44b
100
AcDbEntity
8
1
100
AcDbLine
6
CONTINUOUS
62
5
10
216.699997
20
174.700000
11
216.699997
21
173.999996
0
LINE
5
44c
100
AcDbEntity
8
1
100
AcDbLine
6
CONTINUOUS
62
5
10
216.699995
20
168.300006
11
216.699997
21
168.999997
0
LINE
5
44d
100
AcDbEntity
8
1
100
AcDbLine
6
CONTINUOUS
62
5
10
217.099997
20
173.999996
11
217.099997
21
175.199995
0
LINE
5
44e
100
AcDbEntity
8
1
100
AcDbLine
6
CONTINUOUS
62
5
10
217.099997
20
167.799997
11
217.099997
21
168.999997
0
LINE
5
44f
100
AcDbEntity
8
1
100
AcDbLine
6
CONTINUOUS
62
5
10
217.199997
20
168.999997
11
217.199997
21
167.799997
0
ARC
5
450
100
AcDbEntity
8
1
100
AcDbCircle
6
CONTINUOUS
62
5
10
214.550005
20
173.499996
40
0.500000
100
AcDbArc
50
89.999999
51
179.999998
0
LINE
5
451
100
AcDbEntity
8
1
100
AcDbLine
6
CONTINUOUS
62
5
10
214.050005
20
173.499996
11
214.050005
21
169.499997
0
ARC
5
452
100
AcDbEntity
8
1
100
AcDbCircle
6
CONTINUOUS
62
5
10
214.550005
20
169.499997
40
0.500000
100
AcDbArc
50
179.999998
51
-90.000002
0
LINE
5
453
100
AcDbEntity
8
1
100
AcDbLine
6
CONTINUOUS
62
5
10
215.849997
20
175.200000
11
215.899997
21
175.200000
0
LINE
5
454
100
AcDbEntity
8
1
100
AcDbLine
6
CONTINUOUS
62
5
10
215.899997
20
174.800000
11
216.699997
21
174.800000
0
ARC
5
455
100
AcDbEntity
8
1
100
AcDbCircle
6
CONTINUOUS
62
5
10
214.899996
20
166.999999
40
1.000000
100
AcDbArc
50
-18.194872
51
18.194872
0
LINE
5
456
100
AcDbEntity
8
1
100
AcDbLine
6
CONTINUOUS
62
5
10
215.849997
20
165.199998
11
215.849997
21
168.999997
0
LINE
5
457
100
AcDbEntity
8
1
100
AcDbLine
6
CONTINUOUS
62
5
10
215.899997
20
168.999997
11
215.899997
21
165.199998
0
POLYLINE
5
458
100
AcDbEntity
8
1
6
CONTINUOUS
62
5
100
AcDb2dPolyline
66
1
10
0.0
20
0.0
30
0.0
70
0
0
VERTEX
5
459
100
AcDbEntity
8
1
100
AcDbVertex
100
AcDb2dVertex
62
5
10
216.699997
20
165.199998
0
VERTEX
5
45a
100
AcDbEntity
8
1
100
AcDbVertex
100
AcDb2dVertex
62
5
10
216.699997
20
168.300007
0
VERTEX
5
45b
100
AcDbEntity
8
1
100
AcDbVertex
100
AcDb2dVertex
62
5
10
215.849997
20
168.300007
0
SEQEND
5
45c
100
AcDbEntity
8
1
0
ARC
5
45d
100
AcDbEntity
8
1
100
AcDbCircle
6
CONTINUOUS
62
5
10
214.899997
20
175.999999
40
1.000000
100
AcDbArc
50
-18.194872
51
18.194872
0
LINE
5
45e
100
AcDbEntity
8
1
100
AcDbLine
6
CONTINUOUS
62
5
10
215.899997
20
177.700000
11
216.699997
21
177.700000
0
POLYLINE
5
45f
100
AcDbEntity
8
1
6
CONTINUOUS
62
5
100
AcDb2dPolyline
66
1
10
0.0
20
0.0
30
0.0
70
0
0
VERTEX
5
460
100
AcDbEntity
8
1
100
AcDbVertex
100
AcDb2dVertex
62
5
10
215.849997
20
174.700000
0
VERTEX
5
461
100
AcDbEntity
8
1
100
AcDbVertex
100
AcDb2dVertex
62
5
10
216.699997
20
174.700000
0
VERTEX
5
462
100
AcDbEntity
8
1
100
AcDbVertex
100
AcDb2dVertex
62
5
10
216.699997
20
177.749993
0
SEQEND
5
463
100
AcDbEntity
8
1
0
LINE
5
464
100
AcDbEntity
8
1
100
AcDbLine
6
CONTINUOUS
62
5
10
215.899997
20
173.999996
11
215.899997
21
177.749993
0
LINE
5
465
100
AcDbEntity
8
1
100
AcDbLine
6
CONTINUOUS
62
5
10
215.849997
20
173.999996
11
215.849997
21
177.749993
0
LINE
5
466
100
AcDbEntity
8
1
100
AcDbLine
6
CONTINUOUS
62
5
10
217.699997
20
165.199998
11
217.699997
21
167.799998
0
ARC
5
467
100
AcDbEntity
8
1
100
AcDbCircle
6
CONTINUOUS
62
5
10
216.899995
20
167.599997
40
0.200000
100
AcDbArc
50
89.999999
51
-179.999998
0
LINE
5
468
100
AcDbEntity
8
1
100
AcDbLine
6
CONTINUOUS
62
5
10
216.899995
20
167.799997
11
219.349995
21
167.799998
0
ARC
5
469
100
AcDbEntity
8
1
100
AcDbCircle
6
CONTINUOUS
62
5
10
219.349995
20
168.299998
40
0.500000
100
AcDbArc
50
-89.999993
51
-0.000000
0
LINE
5
46a
100
AcDbEntity
8
1
100
AcDbLine
6
CONTINUOUS
62
5
10
219.849995
20
168.299998
11
219.849995
21
168.499997
0
ARC
5
46b
100
AcDbEntity
8
1
100
AcDbCircle
6
CONTINUOUS
62
5
10
219.349995
20
168.499997
40
0.500000
100
AcDbArc
50
0.000000
51
89.933642
0
ARC
5
46c
100
AcDbEntity
8
1
100
AcDbCircle
6
CONTINUOUS
62
5
10
219.349997
20
174.499996
40
0.500000
100
AcDbArc
50
-89.999999
51
-0.000000
0
LINE
5
46d
100
AcDbEntity
8
1
100
AcDbLine
6
CONTINUOUS
62
5
10
219.849997
20
174.499996
11
219.849997
21
174.699995
0
ARC
5
46e
100
AcDbEntity
8
1
100
AcDbCircle
6
CONTINUOUS
62
5
10
219.349997
20
174.699995
40
0.500000
100
AcDbArc
50
0.000000
51
89.999999
0
LINE
5
46f
100
AcDbEntity
8
1
100
AcDbLine
6
CONTINUOUS
62
5
10
219.349997
20
175.199995
11
216.899997
21
175.199995
0
ARC
5
470
100
AcDbEntity
8
1
100
AcDbCircle
6
CONTINUOUS
62
5
10
216.899997
20
175.399995
40
0.200000
100
AcDbArc
50
179.999998
51
-89.999999
0
LINE
5
471
100
AcDbEntity
8
1
100
AcDbLine
6
CONTINUOUS
62
5
10
217.699997
20
175.199995
11
217.699997
21
177.749993
0
ARC
5
472
100
AcDbEntity
8
1
100
AcDbCircle
6
CONTINUOUS
62
5
10
233.999997
20
170.046628
40
1.500000
100
AcDbArc
50
0.000000
51
88.190982
0
LINE
5
473
100
AcDbEntity
8
1
100
AcDbLine
6
CONTINUOUS
62
5
10
234.047349
20
171.545880
11
231.199997
21
171.636004
0
ARC
5
474
100
AcDbEntity
8
1
100
AcDbCircle
6
CONTINUOUS
62
5
10
233.999997
20
169.046223
40
1.500000
100
AcDbArc
50
-0.000000
51
88.206924
0
LINE
5
475
100
AcDbEntity
8
1
100
AcDbLine
6
CONTINUOUS
62
5
10
223.550007
20
170.874859
11
234.046932
21
170.545489
0
LINE
5
476
100
AcDbEntity
8
1
100
AcDbLine
6
CONTINUOUS
62
5
10
219.699997
20
145.857075
11
219.699997
21
144.942935
0
LINE
5
477
100
AcDbEntity
8
1
100
AcDbLine
6
CONTINUOUS
62
5
10
219.699996
20
152.057072
11
219.699996
21
151.142932
0
ARC
5
478
100
AcDbEntity
8
1
100
AcDbCircle
6
CONTINUOUS
62
5
10
223.199997
20
141.500000
40
0.500000
100
AcDbArc
50
0.000000
51
45.571290
0
POLYLINE
5
479
100
AcDbEntity
8
1
6
CONTINUOUS
62
5
100
AcDb2dPolyline
66
1
10
0.0
20
0.0
30
0.0
70
0
0
VERTEX
5
47a
100
AcDbEntity
8
1
100
AcDbVertex
100
AcDb2dVertex
62
5
10
223.550007
20
136.715020
0
VERTEX
5
47b
100
AcDbEntity
8
1
100
AcDbVertex
100
AcDb2dVertex
62
5
10
223.699997
20
137.000000
0
VERTEX
5
47c
100
AcDbEntity
8
1
100
AcDbVertex
100
AcDb2dVertex
62
5
10
223.699997
20
141.500000
0
SEQEND
5
47d
100
AcDbEntity
8
1
0
ARC
5
47e
100
AcDbEntity
8
1
100
AcDbCircle
6
CONTINUOUS
62
5
10
230.199997
20
141.039934
40
0.500000
100
AcDbArc
50
0.000000
51
85.236358
0
LINE
5
47f
100
AcDbEntity
8
1
100
AcDbLine
6
CONTINUOUS
62
5
10
230.699997
20
141.039934
11
230.699997
21
139.960066
0
ARC
5
480
100
AcDbEntity
8
1
100
AcDbCircle
6
CONTINUOUS
62
5
10
230.199997
20
139.960066
40
0.500000
100
AcDbArc
50
-85.236358
51
0.000000
0
LINE
5
481
100
AcDbEntity
8
1
100
AcDbLine
6
CONTINUOUS
62
5
10
230.241519
20
139.461794
11
223.699997
21
139.000000
0
POLYLINE
5
482
100
AcDbEntity
8
1
6
CONTINUOUS
62
5
100
AcDb2dPolyline
66
1
10
0.0
20
0.0
30
0.0
70
0
0
VERTEX
5
483
100
AcDbEntity
8
1
100
AcDbVertex
100
AcDb2dVertex
62
5
10
223.550007
20
142.000000
0
VERTEX
5
484
100
AcDbEntity
8
1
100
AcDbVertex
100
AcDb2dVertex
62
5
10
223.699997
20
142.000000
0
VERTEX
5
485
100
AcDbEntity
8
1
100
AcDbVertex
100
AcDb2dVertex
62
5
10
230.241519
20
141.538206
0
SEQEND
5
486
100
AcDbEntity
8
1
0
ARC
5
487
100
AcDbEntity
8
1
100
AcDbCircle
6
CONTINUOUS
62
5
10
229.199997
20
140.891973
40
2.000000
100
AcDbArc
50
-86.820169
51
-0.000000
0
LINE
5
488
100
AcDbEntity
8
1
100
AcDbLine
6
CONTINUOUS
62
5
10
223.699997
20
138.500000
11
229.310937
21
138.895052
0
LINE
5
489
100
AcDbEntity
8
1
100
AcDbLine
6
CONTINUOUS
62
5
10
216.699997
20
146.000004
11
216.699995
21
145.300014
0
LINE
5
48a
100
AcDbEntity
8
1
100
AcDbLine
6
CONTINUOUS
62
5
10
216.699995
20
151.700007
11
216.699996
21
151.000002
0
LINE
5
48b
100
AcDbEntity
8
1
100
AcDbLine
6
CONTINUOUS
62
5
10
217.099997
20
144.800005
11
217.099997
21
146.000004
0
LINE
5
48c
100
AcDbEntity
8
1
100
AcDbLine
6
CONTINUOUS
62
5
10
217.099996
20
152.200002
11
217.099996
21
151.000002
0
ARC
5
48d
100
AcDbEntity
8
1
100
AcDbCircle
6
CONTINUOUS
62
5
10
214.550005
20
150.500002
40
0.500000
100
AcDbArc
50
89.999999
51
179.999998
0
LINE
5
48e
100
AcDbEntity
8
1
100
AcDbLine
6
CONTINUOUS
62
5
10
214.050005
20
150.500002
11
214.050005
21
146.500004
0
ARC
5
48f
100
AcDbEntity
8
1
100
AcDbCircle
6
CONTINUOUS
62
5
10
214.550005
20
146.500004
40
0.500000
100
AcDbArc
50
179.999998
51
-90.000002
0
LINE
5
490
100
AcDbEntity
8
1
100
AcDbLine
6
CONTINUOUS
62
5
10
215.849997
20
143.800000
11
215.899998
21
143.800000
0
LINE
5
491
100
AcDbEntity
8
1
100
AcDbLine
6
CONTINUOUS
62
5
10
216.699995
20
145.200000
11
215.899997
21
145.200000
0
LINE
5
492
100
AcDbEntity
8
1
100
AcDbLine
6
CONTINUOUS
62
5
10
215.899996
20
151.000002
11
215.899996
21
154.750000
0
POLYLINE
5
493
100
AcDbEntity
8
1
6
CONTINUOUS
62
5
100
AcDb2dPolyline
66
1
10
0.0
20
0.0
30
0.0
70
0
0
VERTEX
5
494
100
AcDbEntity
8
1
100
AcDbVertex
100
AcDb2dVertex
62
5
10
216.699997
20
154.750000
0
VERTEX
5
495
100
AcDbEntity
8
1
100
AcDbVertex
100
AcDb2dVertex
62
5
10
216.699997
20
151.699993
0
VERTEX
5
496
100
AcDbEntity
8
1
100
AcDbVertex
100
AcDb2dVertex
62
5
10
215.849997
20
151.699993
0
SEQEND
5
497
100
AcDbEntity
8
1
0
LINE
5
498
100
AcDbEntity
8
1
100
AcDbLine
6
CONTINUOUS
62
5
10
215.849997
20
154.750000
11
215.849997
21
151.000003
0
ARC
5
499
100
AcDbEntity
8
1
100
AcDbCircle
6
CONTINUOUS
62
5
10
214.899996
20
153.000001
40
1.000000
100
AcDbArc
50
-18.194872
51
18.194872
0
ARC
5
49a
100
AcDbEntity
8
1
100
AcDbCircle
6
CONTINUOUS
62
5
10
214.899997
20
144.000001
40
1.000000
100
AcDbArc
50
-18.194872
51
18.194872
0
LINE
5
49b
100
AcDbEntity
8
1
100
AcDbLine
6
CONTINUOUS
62
5
10
215.899997
20
142.300000
11
216.699995
21
142.300000
0
LINE
5
49c
100
AcDbEntity
8
1
100
AcDbLine
6
CONTINUOUS
62
5
10
215.899997
20
146.000004
11
215.899997
21
142.250007
0
POLYLINE
5
49d
100
AcDbEntity
8
1
6
CONTINUOUS
62
5
100
AcDb2dPolyline
66
1
10
0.0
20
0.0
30
0.0
70
0
0
VERTEX
5
49e
100
AcDbEntity
8
1
100
AcDbVertex
100
AcDb2dVertex
62
5
10
215.849997
20
145.300000
0
VERTEX
5
49f
100
AcDbEntity
8
1
100
AcDbVertex
100
AcDb2dVertex
62
5
10
216.699997
20
145.300000
0
VERTEX
5
4a0
100
AcDbEntity
8
1
100
AcDbVertex
100
AcDb2dVertex
62
5
10
216.699997
20
142.250007
0
SEQEND
5
4a1
100
AcDbEntity
8
1
0
LINE
5
4a2
100
AcDbEntity
8
1
100
AcDbLine
6
CONTINUOUS
62
5
10
215.849997
20
146.000004
11
215.849997
21
142.250007
0
LINE
5
4a3
100
AcDbEntity
8
1
100
AcDbLine
6
CONTINUOUS
62
5
10
217.699997
20
154.750000
11
217.699997
21
152.200002
0
LINE
5
4a4
100
AcDbEntity
8
1
100
AcDbLine
6
CONTINUOUS
62
5
10
217.699997
20
144.800005
11
217.699997
21
142.250007
0
ARC
5
4a5
100
AcDbEntity
8
1
100
AcDbCircle
6
CONTINUOUS
62
5
10
216.899995
20
144.600005
40
0.200000
100
AcDbArc
50
89.999999
51
-179.999998
0
LINE
5
4a6
100
AcDbEntity
8
1
100
AcDbLine
6
CONTINUOUS
62
5
10
216.899995
20
144.800005
11
219.349995
21
144.800005
0
ARC
5
4a7
100
AcDbEntity
8
1
100
AcDbCircle
6
CONTINUOUS
62
5
10
219.349995
20
145.300005
40
0.500000
100
AcDbArc
50
-89.999993
51
-0.000000
0
LINE
5
4a8
100
AcDbEntity
8
1
100
AcDbLine
6
CONTINUOUS
62
5
10
219.849995
20
145.300005
11
219.849995
21
145.500005
0
ARC
5
4a9
100
AcDbEntity
8
1
100
AcDbCircle
6
CONTINUOUS
62
5
10
219.349995
20
145.500005
40
0.500000
100
AcDbArc
50
0.000000
51
89.933642
0
ARC
5
4aa
100
AcDbEntity
8
1
100
AcDbCircle
6
CONTINUOUS
62
5
10
219.349995
20
151.500002
40
0.500000
100
AcDbArc
50
-89.999999
51
-0.000000
0
LINE
5
4ab
100
AcDbEntity
8
1
100
AcDbLine
6
CONTINUOUS
62
5
10
219.849995
20
151.500002
11
219.849995
21
151.700002
0
ARC
5
4ac
100
AcDbEntity
8
1
100
AcDbCircle
6
CONTINUOUS
62
5
10
219.349995
20
151.700002
40
0.500000
100
AcDbArc
50
0.000000
51
89.999999
0
LINE
5
4ad
100
AcDbEntity
8
1
100
AcDbLine
6
CONTINUOUS
62
5
10
219.349995
20
152.200002
11
216.899995
21
152.200002
0
ARC
5
4ae
100
AcDbEntity
8
1
100
AcDbCircle
6
CONTINUOUS
62
5
10
216.899995
20
152.400002
40
0.200000
100
AcDbArc
50
179.999998
51
-89.999999
0
ARC
5
4af
100
AcDbEntity
8
1
100
AcDbCircle
6
CONTINUOUS
62
5
10
233.199997
20
146.699999
40
1.000000
100
AcDbArc
50
-89.999999
51
0.000000
0
LINE
5
4b0
100
AcDbEntity
8
1
100
AcDbLine
6
CONTINUOUS
62
5
10
234.199997
20
146.699999
11
234.199997
21
153.330131
0
ARC
5
4b1
100
AcDbEntity
8
1
100
AcDbCircle
6
CONTINUOUS
62
5
10
233.199997
20
153.330131
40
1.000000
100
AcDbArc
50
0.000000
51
89.999999
0
LINE
5
4b2
100
AcDbEntity
8
1
100
AcDbLine
6
CONTINUOUS
62
5
10
233.199997
20
154.330131
11
231.199997
21
154.330131
0
LINE
5
4b3
100
AcDbEntity
8
1
100
AcDbLine
6
CONTINUOUS
62
5
10
231.199997
20
145.699999
11
233.199997
21
145.699999
0
ARC
5
4b4
100
AcDbEntity
8
1
100
AcDbCircle
6
CONTINUOUS
62
5
10
233.999997
20
157.200000
40
1.500000
100
AcDbArc
50
-89.999999
51
-0.000000
0
LINE
5
4b5
100
AcDbEntity
8
1
100
AcDbLine
6
CONTINUOUS
62
5
10
231.199997
20
155.700000
11
233.999997
21
155.700000
0
ARC
5
4b6
100
AcDbEntity
8
1
100
AcDbCircle
6
CONTINUOUS
62
5
10
233.999997
20
157.953283
40
1.500000
100
AcDbArc
50
-88.187446
51
0.003427
0
LINE
5
4b7
100
AcDbEntity
8
1
100
AcDbLine
6
CONTINUOUS
62
5
10
231.199997
20
156.363924
11
234.047441
21
156.454033
0
ARC
5
4b8
100
AcDbEntity
8
1
100
AcDbCircle
6
CONTINUOUS
62
5
10
233.999997
20
170.800000
40
1.500000
100
AcDbArc
50
-0.000000
51
89.999999
0
LINE
5
4b9
100
AcDbEntity
8
1
100
AcDbLine
6
CONTINUOUS
62
5
10
235.499997
20
170.800000
11
235.499997
21
152.800000
0
ARC
5
4ba
100
AcDbEntity
8
1
100
AcDbCircle
6
CONTINUOUS
62
5
10
234.499997
20
152.800000
40
1.000000
100
AcDbArc
50
-89.999999
51
-0.000000
0
LINE
5
4bb
100
AcDbEntity
8
1
100
AcDbLine
6
CONTINUOUS
62
5
10
234.499997
20
151.800000
11
234.199997
21
151.800000
0
LINE
5
4bc
100
AcDbEntity
8
1
100
AcDbLine
6
CONTINUOUS
62
5
10
231.199997
20
172.300000
11
233.999997
21
172.300000
0
ARC
5
4bd
100
AcDbEntity
8
1
100
AcDbCircle
6
CONTINUOUS
62
5
10
233.999997
20
158.879008
40
1.500000
100
AcDbArc
50
-88.483888
51
0.000000
0
LINE
5
4be
100
AcDbEntity
8
1
100
AcDbLine
6
CONTINUOUS
62
5
10
234.039684
20
157.379533
11
223.550007
21
157.101899
0
ARC
5
4bf
100
AcDbEntity
8
1
100
AcDbCircle
6
CONTINUOUS
62
5
10
214.849993
20
164.699998
40
0.500000
100
AcDbArc
50
89.999999
51
179.999998
0
LINE
5
4c0
100
AcDbEntity
8
1
100
AcDbLine
6
CONTINUOUS
62
5
10
214.349993
20
164.699998
11
214.349993
21
155.250000
0
ARC
5
4c1
100
AcDbEntity
8
1
100
AcDbCircle
6
CONTINUOUS
62
5
10
214.849993
20
155.250000
40
0.500000
100
AcDbArc
50
179.999998
51
-89.999999
0
LINE
5
4c2
100
AcDbEntity
8
1
100
AcDbLine
6
CONTINUOUS
62
5
10
214.849993
20
154.750000
11
217.540006
21
154.750000
0
ARC
5
4c3
100
AcDbEntity
8
1
100
AcDbCircle
6
CONTINUOUS
62
5
10
217.540006
20
155.250000
40
0.500000
100
AcDbArc
50
-89.999999
51
0.000000
0
LINE
5
4c4
100
AcDbEntity
8
1
100
AcDbLine
6
CONTINUOUS
62
5
10
218.040006
20
155.250000
11
218.040006
21
164.699998
0
ARC
5
4c5
100
AcDbEntity
8
1
100
AcDbCircle
6
CONTINUOUS
62
5
10
217.540006
20
164.699998
40
0.500000
100
AcDbArc
50
0.000000
51
89.999999
0
LINE
5
4c6
100
AcDbEntity
8
1
100
AcDbLine
6
CONTINUOUS
62
5
10
217.540006
20
165.199998
11
214.849993
21
165.199998
0
ARC
5
4c7
100
AcDbEntity
8
1
100
AcDbCircle
6
CONTINUOUS
62
5
10
212.550003
20
150.500002
40
0.500000
100
AcDbArc
50
89.999999
51
179.872717
0
POLYLINE
5
4c8
100
AcDbEntity
8
1
6
CONTINUOUS
62
5
100
AcDb2dPolyline
66
1
10
0.0
20
0.0
30
0.0
70
0
0
VERTEX
5
4c9
100
AcDbEntity
8
1
100
AcDbVertex
100
AcDb2dVertex
62
5
10
212.550003
20
151.000002
0
VERTEX
5
4ca
100
AcDbEntity
8
1
100
AcDbVertex
100
AcDb2dVertex
62
5
10
220.849994
20
151.000002
0
VERTEX
5
4cb
100
AcDbEntity
8
1
100
AcDbVertex
100
AcDb2dVertex
62
5
10
220.849995
20
168.999997
0
VERTEX
5
4cc
100
AcDbEntity
8
1
100
AcDbVertex
100
AcDb2dVertex
62
5
10
212.550005
20
168.999997
0
SEQEND
5
4cd
100
AcDbEntity
8
1
0
ARC
5
4ce
100
AcDbEntity
8
1
100
AcDbCircle
6
CONTINUOUS
62
5
10
212.550005
20
169.499997
40
0.500000
100
AcDbArc
50
-179.999998
51
-89.999999
0
ARC
5
4cf
100
AcDbEntity
8
1
100
AcDbCircle
6
CONTINUOUS
62
5
10
223.199997
20
126.634985
40
0.500000
100
AcDbArc
50
-45.571290
51
-0.000000
0
POLYLINE
5
4d0
100
AcDbEntity
8
1
6
CONTINUOUS
62
5
100
AcDb2dPolyline
66
1
10
0.0
20
0.0
30
0.0
70
0
0
VERTEX
5
4d1
100
AcDbEntity
8
1
100
AcDbVertex
100
AcDb2dVertex
62
5
10
223.699997
20
126.634985
0
VERTEX
5
4d2
100
AcDbEntity
8
1
100
AcDbVertex
100
AcDb2dVertex
62
5
10
223.699997
20
127.853846
0
VERTEX
5
4d3
100
AcDbEntity
8
1
100
AcDbVertex
100
AcDb2dVertex
62
5
10
223.550007
20
128.160748
0
SEQEND
5
4d4
100
AcDbEntity
8
1
0
ARC
5
4d5
100
AcDbEntity
8
1
100
AcDbCircle
6
CONTINUOUS
62
5
10
225.199997
20
127.260593
40
0.500000
100
AcDbArc
50
0.000000
51
86.478546
0
LINE
5
4d6
100
AcDbEntity
8
1
100
AcDbLine
6
CONTINUOUS
62
5
10
225.699997
20
127.260593
11
225.699997
21
126.711908
0
ARC
5
4d7
100
AcDbEntity
8
1
100
AcDbCircle
6
CONTINUOUS
62
5
10
225.199997
20
126.711908
40
0.500000
100
AcDbArc
50
-68.360441
51
0.000000
0
LINE
5
4d8
100
AcDbEntity
8
1
100
AcDbLine
6
CONTINUOUS
62
5
10
223.699997
20
127.853846
11
225.230708
21
127.759649
0
LINE
5
4d9
100
AcDbEntity
8
1
100
AcDbLine
6
CONTINUOUS
62
5
10
219.699997
20
129.057079
11
219.699997
21
128.142939
0
LINE
5
4da
100
AcDbEntity
8
1
100
AcDbLine
6
CONTINUOUS
62
5
10
216.699995
20
128.700014
11
216.699997
21
128.000010
0
LINE
5
4db
100
AcDbEntity
8
1
100
AcDbLine
6
CONTINUOUS
62
5
10
213.450005
20
113.850014
11
213.700005
21
114.100014
0
LINE
5
4dc
100
AcDbEntity
8
1
100
AcDbLine
6
CONTINUOUS
62
5
10
215.899997
20
131.600000
11
216.699997
21
131.600000
0
LINE
5
4dd
100
AcDbEntity
8
1
100
AcDbLine
6
CONTINUOUS
62
5
10
215.849995
20
129.400000
11
215.899997
21
129.400000
0
LINE
5
4de
100
AcDbEntity
8
1
100
AcDbLine
6
CONTINUOUS
62
5
10
215.899997
20
128.000010
11
215.899997
21
131.750007
0
POLYLINE
5
4df
100
AcDbEntity
8
1
6
CONTINUOUS
62
5
100
AcDb2dPolyline
66
1
10
0.0
20
0.0
30
0.0
70
0
0
VERTEX
5
4e0
100
AcDbEntity
8
1
100
AcDbVertex
100
AcDb2dVertex
62
5
10
216.699997
20
131.750007
0
VERTEX
5
4e1
100
AcDbEntity
8
1
100
AcDbVertex
100
AcDb2dVertex
62
5
10
216.699997
20
128.700000
0
VERTEX
5
4e2
100
AcDbEntity
8
1
100
AcDbVertex
100
AcDb2dVertex
62
5
10
215.849997
20
128.700000
0
SEQEND
5
4e3
100
AcDbEntity
8
1
0
ARC
5
4e4
100
AcDbEntity
8
1
100
AcDbCircle
6
CONTINUOUS
62
5
10
214.899997
20
130.000001
40
1.000000
100
AcDbArc
50
-18.194872
51
18.194872
0
LINE
5
4e5
100
AcDbEntity
8
1
100
AcDbLine
6
CONTINUOUS
62
5
10
215.849997
20
131.750007
11
215.849997
21
128.000010
0
LINE
5
4e6
100
AcDbEntity
8
1
100
AcDbLine
6
CONTINUOUS
62
5
10
217.699997
20
131.750007
11
217.699997
21
129.200009
0
ARC
5
4e7
100
AcDbEntity
8
1
100
AcDbCircle
6
CONTINUOUS
62
5
10
219.349995
20
128.500010
40
0.500000
100
AcDbArc
50
-89.999999
51
-0.000000
0
LINE
5
4e8
100
AcDbEntity
8
1
100
AcDbLine
6
CONTINUOUS
62
5
10
219.849995
20
128.500010
11
219.849995
21
128.700009
0
ARC
5
4e9
100
AcDbEntity
8
1
100
AcDbCircle
6
CONTINUOUS
62
5
10
219.349995
20
128.700009
40
0.500000
100
AcDbArc
50
0.000000
51
89.999999
0
LINE
5
4ea
100
AcDbEntity
8
1
100
AcDbLine
6
CONTINUOUS
62
5
10
219.349995
20
129.200009
11
216.899995
21
129.200009
0
ARC
5
4eb
100
AcDbEntity
8
1
100
AcDbCircle
6
CONTINUOUS
62
5
10
216.899995
20
129.400009
40
0.200000
100
AcDbArc
50
179.999998
51
-89.999999
0
ARC
5
4ec
100
AcDbEntity
8
1
100
AcDbCircle
6
CONTINUOUS
62
5
10
221.136781
20
124.752260
40
0.500000
100
AcDbArc
50
-84.259946
51
-64.758715
0
LINE
5
4ed
100
AcDbEntity
8
1
100
AcDbLine
6
CONTINUOUS
62
5
10
216.050007
20
123.638079
11
221.186789
21
124.254767
0
ARC
5
4ee
100
AcDbEntity
8
1
100
AcDbCircle
6
CONTINUOUS
62
5
10
213.950005
20
111.500015
40
0.500000
100
AcDbArc
50
-179.999998
51
-89.999999
0
POLYLINE
5
4ef
100
AcDbEntity
8
1
6
CONTINUOUS
62
5
100
AcDb2dPolyline
66
1
10
0.0
20
0.0
30
0.0
70
0
0
VERTEX
5
4f0
100
AcDbEntity
8
1
100
AcDbVertex
100
AcDb2dVertex
62
5
10
214.550004
20
110.500015
0
VERTEX
5
4f1
100
AcDbEntity
8
1
100
AcDbVertex
100
AcDb2dVertex
62
5
10
214.550004
20
111.000015
0
VERTEX
5
4f2
100
AcDbEntity
8
1
100
AcDbVertex
100
AcDb2dVertex
62
5
10
213.950005
20
111.000015
0
SEQEND
5
4f3
100
AcDbEntity
8
1
0
ARC
5
4f4
100
AcDbEntity
8
1
100
AcDbCircle
6
CONTINUOUS
62
5
10
215.050004
20
106.250016
40
0.500000
100
AcDbArc
50
89.999999
51
-179.999998
0
LINE
5
4f5
100
AcDbEntity
8
1
100
AcDbLine
6
CONTINUOUS
62
5
10
214.550004
20
106.250016
11
214.550004
21
104.500017
0
ARC
5
4f6
100
AcDbEntity
8
1
100
AcDbCircle
6
CONTINUOUS
62
5
10
215.050004
20
104.500017
40
0.500000
100
AcDbArc
50
-179.999998
51
-161.565013
0
LINE
5
4f7
100
AcDbEntity
8
1
100
AcDbLine
6
CONTINUOUS
62
5
10
215.350007
20
106.750016
11
215.050004
21
106.750016
0
ARC
5
4f8
100
AcDbEntity
8
1
100
AcDbCircle
6
CONTINUOUS
62
5
10
215.350007
20
104.500017
40
0.500000
100
AcDbArc
50
179.999998
51
-89.999999
0
LINE
5
4f9
100
AcDbEntity
8
1
100
AcDbLine
6
CONTINUOUS
62
5
10
214.850007
20
104.500017
11
214.850007
21
106.250016
0
ARC
5
4fa
100
AcDbEntity
8
1
100
AcDbCircle
6
CONTINUOUS
62
5
10
215.350007
20
106.250016
40
0.500000
100
AcDbArc
50
89.999999
51
-179.999998
0
LINE
5
4fb
100
AcDbEntity
8
1
100
AcDbLine
6
CONTINUOUS
62
5
10
215.350007
20
106.750016
11
216.050007
21
106.750016
0
ARC
5
4fc
100
AcDbEntity
8
1
100
AcDbCircle
6
CONTINUOUS
62
5
10
215.050004
20
110.500015
40
0.500000
100
AcDbArc
50
89.999999
51
179.999998
0
LINE
5
4fd
100
AcDbEntity
8
1
100
AcDbLine
6
CONTINUOUS
62
5
10
214.550004
20
110.500015
11
214.550004
21
105.354761
0
LINE
5
4fe
100
AcDbEntity
8
1
100
AcDbLine
6
CONTINUOUS
62
5
10
216.050007
20
111.000015
11
215.050004
21
111.000015
0
ARC
5
4ff
100
AcDbEntity
8
1
100
AcDbCircle
6
CONTINUOUS
62
5
10
213.050005
20
118.500012
40
1.000000
100
AcDbArc
50
-179.999998
51
-89.999999
0
ARC
5
500
100
AcDbEntity
8
1
100
AcDbCircle
6
CONTINUOUS
62
5
10
212.550005
20
120.500012
40
0.500000
100
AcDbArc
50
-179.999998
51
-89.999999
0
LINE
5
501
100
AcDbEntity
8
1
100
AcDbLine
6
CONTINUOUS
62
5
10
213.350005
20
120.000012
11
212.550005
21
120.000012
0
ARC
5
502
100
AcDbEntity
8
1
100
AcDbCircle
6
CONTINUOUS
62
5
10
212.550005
20
118.000013
40
0.500000
100
AcDbArc
50
-179.999998
51
-89.999999
0
LINE
5
503
100
AcDbEntity
8
1
100
AcDbLine
6
CONTINUOUS
62
5
10
216.050007
20
117.500013
11
212.550005
21
117.500013
0
ARC
5
504
100
AcDbEntity
8
1
100
AcDbCircle
6
CONTINUOUS
62
5
10
225.332486
20
134.494512
40
1.600000
100
AcDbArc
50
-83.565383
51
-64.499999
0
LINE
5
505
100
AcDbEntity
8
1
100
AcDbLine
6
CONTINUOUS
62
5
10
226.021304
20
133.050376
11
226.681377
21
133.365214
0
ARC
5
506
100
AcDbEntity
8
1
100
AcDbCircle
6
CONTINUOUS
62
5
10
226.466121
20
133.816507
40
0.500000
100
AcDbArc
50
-64.499999
51
25.500000
0
LINE
5
507
100
AcDbEntity
8
1
100
AcDbLine
6
CONTINUOUS
62
5
10
226.917414
20
134.031762
11
225.752761
21
136.473508
0
ARC
5
508
100
AcDbEntity
8
1
100
AcDbCircle
6
CONTINUOUS
62
5
10
224.669658
20
135.956895
40
1.200000
100
AcDbArc
50
25.500000
51
92.530341
0
LINE
5
509
100
AcDbEntity
8
1
100
AcDbLine
6
CONTINUOUS
62
5
10
224.616680
20
137.155725
11
223.700000
21
137.115216
0
LINE
5
50a
100
AcDbEntity
8
1
100
AcDbLine
6
CONTINUOUS
62
5
10
223.550007
20
132.683341
11
225.511797
21
132.904591
0
ARC
5
50b
100
AcDbEntity
8
1
100
AcDbCircle
6
CONTINUOUS
62
5
10
229.199997
20
128.414933
40
2.000000
100
AcDbArc
50
-87.510446
51
0.000000
0
LINE
5
50c
100
AcDbEntity
8
1
100
AcDbLine
6
CONTINUOUS
62
5
10
231.199997
20
128.414933
11
231.199997
21
157.304374
0
LINE
5
50d
100
AcDbEntity
8
1
100
AcDbLine
6
CONTINUOUS
62
5
10
223.550007
20
126.167392
11
229.286871
21
126.416821
0
ARC
5
50e
100
AcDbEntity
8
1
100
AcDbCircle
6
CONTINUOUS
62
5
10
214.849993
20
132.250007
40
0.500000
100
AcDbArc
50
179.999998
51
-89.999999
0
LINE
5
50f
100
AcDbEntity
8
1
100
AcDbLine
6
CONTINUOUS
62
5
10
214.849993
20
131.750007
11
217.540006
21
131.750007
0
ARC
5
510
100
AcDbEntity
8
1
100
AcDbCircle
6
CONTINUOUS
62
5
10
217.540006
20
132.250007
40
0.500000
100
AcDbArc
50
-89.999999
51
0.000000
0
LINE
5
511
100
AcDbEntity
8
1
100
AcDbLine
6
CONTINUOUS
62
5
10
218.040006
20
132.250007
11
218.040006
21
141.750007
0
ARC
5
512
100
AcDbEntity
8
1
100
AcDbCircle
6
CONTINUOUS
62
5
10
217.540006
20
141.750007
40
0.500000
100
AcDbArc
50
0.000000
51
89.999999
0
LINE
5
513
100
AcDbEntity
8
1
100
AcDbLine
6
CONTINUOUS
62
5
10
217.540006
20
142.250007
11
214.849993
21
142.250007
0
ARC
5
514
100
AcDbEntity
8
1
100
AcDbCircle
6
CONTINUOUS
62
5
10
214.849993
20
141.750007
40
0.500000
100
AcDbArc
50
89.999999
51
179.999998
0
LINE
5
515
100
AcDbEntity
8
1
100
AcDbLine
6
CONTINUOUS
62
5
10
214.349993
20
141.750007
11
214.349993
21
132.250007
0
ARC
5
516
100
AcDbEntity
8
1
100
AcDbCircle
6
CONTINUOUS
62
5
10
212.550004
20
127.500010
40
0.500000
100
AcDbArc
50
89.999999
51
179.872717
0
POLYLINE
5
517
100
AcDbEntity
8
1
6
CONTINUOUS
62
5
100
AcDb2dPolyline
66
1
10
0.0
20
0.0
30
0.0
70
0
0
VERTEX
5
518
100
AcDbEntity
8
1
100
AcDbVertex
100
AcDb2dVertex
62
5
10
212.550004
20
128.000010
0
VERTEX
5
519
100
AcDbEntity
8
1
100
AcDbVertex
100
AcDb2dVertex
62
5
10
220.849994
20
128.000010
0
VERTEX
5
51a
100
AcDbEntity
8
1
100
AcDbVertex
100
AcDb2dVertex
62
5
10
220.849995
20
146.000004
0
VERTEX
5
51b
100
AcDbEntity
8
1
100
AcDbVertex
100
AcDb2dVertex
62
5
10
212.550005
20
146.000004
0
SEQEND
5
51c
100
AcDbEntity
8
1
0
ARC
5
51d
100
AcDbEntity
8
1
100
AcDbCircle
6
CONTINUOUS
62
5
10
212.550005
20
146.500004
40
0.500000
100
AcDbArc
50
-179.999998
51
-89.999999
0
ARC
5
51e
100
AcDbEntity
8
1
100
AcDbCircle
6
CONTINUOUS
62
5
10
148.999983
20
175.700019
40
0.500000
100
AcDbArc
50
-53.128099
51
-0.000000
0
LINE
5
51f
100
AcDbEntity
8
1
100
AcDbLine
6
CONTINUOUS
62
5
10
149.499983
20
175.700019
11
149.499983
21
177.850017
0
LINE
5
520
100
AcDbEntity
8
1
100
AcDbLine
6
CONTINUOUS
62
5
10
143.199997
20
179.550000
11
142.999997
21
179.550000
0
LINE
5
521
100
AcDbEntity
8
1
100
AcDbLine
6
CONTINUOUS
62
5
10
147.199983
20
174.000013
11
147.099991
21
173.900013
0
LINE
5
522
100
AcDbEntity
8
1
100
AcDbLine
6
CONTINUOUS
62
5
10
143.199984
20
175.000012
11
143.299984
21
174.900012
0
LINE
5
523
100
AcDbEntity
8
1
100
AcDbLine
6
CONTINUOUS
62
5
10
147.199906
20
169.350567
11
147.199997
21
169.350567
0
LINE
5
524
100
AcDbEntity
8
1
100
AcDbLine
6
CONTINUOUS
62
5
10
147.199906
20
169.350567
11
147.199997
21
169.350567
0
LINE
5
525
100
AcDbEntity
8
1
100
AcDbLine
6
CONTINUOUS
62
5
10
147.099983
20
169.100014
11
147.199983
21
169.000014
0
LINE
5
526
100
AcDbEntity
8
1
100
AcDbLine
6
CONTINUOUS
62
5
10
143.199997
20
175.200000
11
142.999997
21
175.200000
0
LINE
5
527
100
AcDbEntity
8
1
100
AcDbLine
6
CONTINUOUS
62
5
10
148.199506
20
169.000014
11
148.199983
21
167.800014
0
LINE
5
528
100
AcDbEntity
8
1
100
AcDbLine
6
CONTINUOUS
62
5
10
143.199984
20
168.000014
11
143.299984
21
168.100014
0
ARC
5
529
100
AcDbEntity
8
1
100
AcDbCircle
6
CONTINUOUS
62
5
10
142.399997
20
175.000000
40
1.000000
100
AcDbArc
50
-89.999999
51
-72.543140
0
LINE
5
52a
100
AcDbEntity
8
1
100
AcDbLine
6
CONTINUOUS
62
5
10
142.399997
20
174.000000
11
142.199997
21
174.000000
0
ARC
5
52b
100
AcDbEntity
8
1
100
AcDbCircle
6
CONTINUOUS
62
5
10
142.199997
20
173.000000
40
1.000000
100
AcDbArc
50
89.999999
51
-179.999998
0
ARC
5
52c
100
AcDbEntity
8
1
100
AcDbCircle
6
CONTINUOUS
62
5
10
141.499997
20
177.200000
40
0.700000
100
AcDbArc
50
-89.999999
51
0.000000
0
LINE
5
52d
100
AcDbEntity
8
1
100
AcDbLine
6
CONTINUOUS
62
5
10
141.499997
20
176.500000
11
141.199997
21
176.500000
0
LINE
5
52e
100
AcDbEntity
8
1
100
AcDbLine
6
CONTINUOUS
62
5
10
141.199997
20
179.500000
11
141.499997
21
179.500000
0
ARC
5
52f
100
AcDbEntity
8
1
100
AcDbCircle
6
CONTINUOUS
62
5
10
141.499997
20
178.800000
40
0.700000
100
AcDbArc
50
0.000000
51
89.999999
0
LINE
5
530
100
AcDbEntity
8
1
100
AcDbLine
6
CONTINUOUS
62
5
10
142.199997
20
178.800000
11
142.199997
21
178.800000
0
POLYLINE
5
531
100
AcDbEntity
8
1
6
CONTINUOUS
62
5
100
AcDb2dPolyline
66
1
10
0.0
20
0.0
30
0.0
70
0
0
VERTEX
5
532
100
AcDbEntity
8
1
100
AcDbVertex
100
AcDb2dVertex
62
5
10
128.999997
20
175.112461
0
VERTEX
5
533
100
AcDbEntity
8
1
100
AcDbVertex
100
AcDb2dVertex
62
5
10
128.999997
20
171.200000
0
VERTEX
5
534
100
AcDbEntity
8
1
100
AcDbVertex
100
AcDb2dVertex
62
5
10
129.899997
20
171.200000
0
SEQEND
5
535
100
AcDbEntity
8
1
0
LINE
5
536
100
AcDbEntity
8
1
100
AcDbLine
6
CONTINUOUS
62
5
10
148.699982
20
174.000013
11
148.699982
21
174.800000
0
ARC
5
537
100
AcDbEntity
8
1
100
AcDbCircle
6
CONTINUOUS
62
5
10
148.299997
20
173.500013
40
0.400000
100
AcDbArc
50
-0.000000
51
89.999999
0
LINE
5
538
100
AcDbEntity
8
1
100
AcDbLine
6
CONTINUOUS
62
5
10
148.699997
20
173.500013
11
148.699997
21
169.500014
0
ARC
5
539
100
AcDbEntity
8
1
100
AcDbCircle
6
CONTINUOUS
62
5
10
148.299997
20
169.500014
40
0.400000
100
AcDbArc
50
-89.999999
51
0.000000
0
ARC
5
53a
100
AcDbEntity
8
1
100
AcDbCircle
6
CONTINUOUS
62
5
10
148.799997
20
169.500014
40
0.400000
100
AcDbArc
50
-89.999999
51
-0.000000
0
LINE
5
53b
100
AcDbEntity
8
1
100
AcDbLine
6
CONTINUOUS
62
5
10
149.199997
20
169.500014
11
149.199997
21
173.500013
0
ARC
5
53c
100
AcDbEntity
8
1
100
AcDbCircle
6
CONTINUOUS
62
5
10
148.799997
20
173.500013
40
0.400000
100
AcDbArc
50
0.000000
51
89.999999
0
LINE
5
53d
100
AcDbEntity
8
1
100
AcDbLine
6
CONTINUOUS
62
5
10
148.699982
20
167.800014
11
148.699982
21
169.000014
0
ARC
5
53e
100
AcDbEntity
8
1
100
AcDbCircle
6
CONTINUOUS
62
5
10
147.999997
20
173.800000
40
1.000000
100
AcDbArc
50
89.999999
51
143.131413
0
LINE
5
53f
100
AcDbEntity
8
1
100
AcDbLine
6
CONTINUOUS
62
5
10
147.999997
20
174.800000
11
148.799997
21
174.800000
0
ARC
5
540
100
AcDbEntity
8
1
100
AcDbCircle
6
CONTINUOUS
62
5
10
148.799997
20
175.300000
40
0.500000
100
AcDbArc
50
-89.999999
51
0.003391
0
LINE
5
541
100
AcDbEntity
8
1
100
AcDbLine
6
CONTINUOUS
62
5
10
149.299997
20
175.300030
11
149.299997
21
177.200000
0
ARC
5
542
100
AcDbEntity
8
1
100
AcDbCircle
6
CONTINUOUS
62
5
10
148.799997
20
177.200000
40
0.500000
100
AcDbArc
50
0.000000
51
89.999999
0
LINE
5
543
100
AcDbEntity
8
1
100
AcDbLine
6
CONTINUOUS
62
5
10
148.799997
20
177.700000
11
147.999997
21
177.700000
0
ARC
5
544
100
AcDbEntity
8
1
100
AcDbCircle
6
CONTINUOUS
62
5
10
147.999997
20
178.700000
40
1.000000
100
AcDbArc
50
-143.131413
51
-89.999999
0
ARC
5
545
100
AcDbEntity
8
1
100
AcDbCircle
6
CONTINUOUS
62
5
10
149.000051
20
144.300045
40
0.499931
100
AcDbArc
50
-0.001898
51
53.132037
0
LINE
5
546
100
AcDbEntity
8
1
100
AcDbLine
6
CONTINUOUS
62
5
10
149.499983
20
144.300028
11
149.499983
21
142.150030
0
LINE
5
547
100
AcDbEntity
8
1
100
AcDbLine
6
CONTINUOUS
62
5
10
147.199983
20
151.000019
11
147.099983
21
150.900020
0
LINE
5
548
100
AcDbEntity
8
1
100
AcDbLine
6
CONTINUOUS
62
5
10
147.199983
20
146.000021
11
147.099983
21
146.100021
0
LINE
5
549
100
AcDbEntity
8
1
100
AcDbLine
6
CONTINUOUS
62
5
10
143.199984
20
145.000021
11
143.299984
21
145.100021
0
LINE
5
54a
100
AcDbEntity
8
1
100
AcDbLine
6
CONTINUOUS
62
5
10
143.199984
20
152.000019
11
143.299984
21
151.900019
0
LINE
5
54b
100
AcDbEntity
8
1
100
AcDbLine
6
CONTINUOUS
62
5
10
143.199997
20
143.800000
11
142.999997
21
143.800000
0
LINE
5
54c
100
AcDbEntity
8
1
100
AcDbLine
6
CONTINUOUS
62
5
10
143.199997
20
140.750000
11
142.999997
21
140.750000
0
ARC
5
54d
100
AcDbEntity
8
1
100
AcDbCircle
6
CONTINUOUS
62
5
10
141.499997
20
148.200000
40
0.700000
100
AcDbArc
50
-89.999999
51
0.000000
0
LINE
5
54e
100
AcDbEntity
8
1
100
AcDbLine
6
CONTINUOUS
62
5
10
141.499997
20
147.500000
11
141.199997
21
147.500000
0
LINE
5
54f
100
AcDbEntity
8
1
100
AcDbLine
6
CONTINUOUS
62
5
10
141.199997
20
150.500000
11
141.499997
21
150.500000
0
ARC
5
550
100
AcDbEntity
8
1
100
AcDbCircle
6
CONTINUOUS
62
5
10
141.499997
20
149.800000
40
0.700000
100
AcDbArc
50
0.000000
51
89.999999
0
LINE
5
551
100
AcDbEntity
8
1
100
AcDbLine
6
CONTINUOUS
62
5
10
142.199997
20
149.800000
11
142.199997
21
148.200000
0
ARC
5
552
100
AcDbEntity
8
1
100
AcDbCircle
6
CONTINUOUS
62
5
10
142.399997
20
144.000000
40
1.000000
100
AcDbArc
50
36.869897
51
89.999999
0
LINE
5
553
100
AcDbEntity
8
1
100
AcDbLine
6
CONTINUOUS
62
5
10
142.399997
20
145.000000
11
142.199997
21
145.000000
0
ARC
5
554
100
AcDbEntity
8
1
100
AcDbCircle
6
CONTINUOUS
62
5
10
142.199997
20
146.000000
40
1.000000
100
AcDbArc
50
179.999998
51
-89.999999
0
POLYLINE
5
555
100
AcDbEntity
8
1
6
CONTINUOUS
62
5
100
AcDb2dPolyline
66
1
10
0.0
20
0.0
30
0.0
70
0
0
VERTEX
5
556
100
AcDbEntity
8
1
100
AcDbVertex
100
AcDb2dVertex
62
5
10
141.199997
20
151.000000
0
VERTEX
5
557
100
AcDbEntity
8
1
100
AcDbVertex
100
AcDb2dVertex
62
5
10
142.399997
20
151.000000
0
VERTEX
5
558
100
AcDbEntity
8
1
100
AcDbVertex
100
AcDb2dVertex
62
5
10
142.399997
20
147.000000
0
VERTEX
5
559
100
AcDbEntity
8
1
100
AcDbVertex
100
AcDb2dVertex
62
5
10
141.199997
20
147.000000
0
SEQEND
5
55a
100
AcDbEntity
8
1
0
ARC
5
55b
100
AcDbEntity
8
1
100
AcDbCircle
6
CONTINUOUS
62
5
10
141.499997
20
141.200000
40
0.700000
100
AcDbArc
50
-89.999999
51
0.000000
0
LINE
5
55c
100
AcDbEntity
8
1
100
AcDbLine
6
CONTINUOUS
62
5
10
141.499997
20
140.500000
11
141.199997
21
140.500000
0
LINE
5
55d
100
AcDbEntity
8
1
100
AcDbLine
6
CONTINUOUS
62
5
10
141.199997
20
143.500000
11
141.499997
21
143.500000
0
ARC
5
55e
100
AcDbEntity
8
1
100
AcDbCircle
6
CONTINUOUS
62
5
10
141.499997
20
142.800000
40
0.700000
100
AcDbArc
50
0.000000
51
89.999999
0
LINE
5
55f
100
AcDbEntity
8
1
100
AcDbLine
6
CONTINUOUS
62
5
10
142.199997
20
142.800000
11
142.199997
21
142.800000
0
LINE
5
560
100
AcDbEntity
8
1
100
AcDbLine
6
CONTINUOUS
62
5
10
134.649997
20
146.162500
11
133.849997
21
146.200000
0
ARC
5
561
100
AcDbEntity
8
1
100
AcDbCircle
6
CONTINUOUS
62
5
10
141.699997
20
136.100000
40
0.500000
100
AcDbArc
50
0.000000
51
89.999999
0
LINE
5
562
100
AcDbEntity
8
1
100
AcDbLine
6
CONTINUOUS
62
5
10
141.699997
20
136.600000
11
141.199997
21
136.600000
0
LINE
5
563
100
AcDbEntity
8
1
100
AcDbLine
6
CONTINUOUS
62
5
10
142.199997
20
135.600000
11
142.199997
21
136.100000
0
POLYLINE
5
564
100
AcDbEntity
8
1
6
CONTINUOUS
62
5
100
AcDb2dPolyline
66
1
10
0.0
20
0.0
30
0.0
70
1
0
VERTEX
5
565
100
AcDbEntity
8
1
100
AcDbVertex
100
AcDb2dVertex
62
5
10
142.999997
20
143.800000
0
VERTEX
5
566
100
AcDbEntity
8
1
100
AcDbVertex
100
AcDb2dVertex
62
5
10
142.999997
20
136.400000
0
VERTEX
5
567
100
AcDbEntity
8
1
100
AcDbVertex
100
AcDb2dVertex
62
5
10
142.199997
20
136.400000
0
VERTEX
5
568
100
AcDbEntity
8
1
100
AcDbVertex
100
AcDb2dVertex
62
5
10
142.199997
20
143.800000
0
VERTEX
5
569
100
AcDbEntity
8
1
100
AcDbVertex
100
AcDb2dVertex
62
5
10
142.999997
20
143.800000
0
SEQEND
5
56a
100
AcDbEntity
8
1
0
POLYLINE
5
56b
100
AcDbEntity
8
1
6
CONTINUOUS
62
5
100
AcDb2dPolyline
66
1
10
0.0
20
0.0
30
0.0
70
0
0
VERTEX
5
56c
100
AcDbEntity
8
1
100
AcDbVertex
100
AcDb2dVertex
62
5
10
134.649997
20
146.200000
0
VERTEX
5
56d
100
AcDbEntity
8
1
100
AcDbVertex
100
AcDb2dVertex
62
5
10
133.849997
20
146.200000
0
VERTEX
5
56e
100
AcDbEntity
8
1
100
AcDbVertex
100
AcDb2dVertex
62
5
10
133.549997
20
139.800000
0
VERTEX
5
56f
100
AcDbEntity
8
1
100
AcDbVertex
100
AcDb2dVertex
62
5
10
133.968319
20
139.780391
0
VERTEX
5
570
100
AcDbEntity
8
1
100
AcDbVertex
100
AcDb2dVertex
62
5
10
133.955176
20
139.500000
0
SEQEND
5
571
100
AcDbEntity
8
1
0
POLYLINE
5
572
100
AcDbEntity
8
1
6
CONTINUOUS
62
5
100
AcDb2dPolyline
66
1
10
0.0
20
0.0
30
0.0
70
0
0
VERTEX
5
573
100
AcDbEntity
8
1
100
AcDbVertex
100
AcDb2dVertex
62
5
10
132.940327
20
139.500000
0
VERTEX
5
574
100
AcDbEntity
8
1
100
AcDbVertex
100
AcDb2dVertex
62
5
10
132.926525
20
139.779056
0
VERTEX
5
575
100
AcDbEntity
8
1
100
AcDbVertex
100
AcDb2dVertex
62
5
10
133.349997
20
139.800000
0
VERTEX
5
576
100
AcDbEntity
8
1
100
AcDbVertex
100
AcDb2dVertex
62
5
10
133.049997
20
146.200000
0
VERTEX
5
577
100
AcDbEntity
8
1
100
AcDbVertex
100
AcDb2dVertex
62
5
10
132.449997
20
146.171875
0
SEQEND
5
578
100
AcDbEntity
8
1
0
POLYLINE
5
579
100
AcDbEntity
8
1
6
CONTINUOUS
62
5
100
AcDb2dPolyline
66
1
10
0.0
20
0.0
30
0.0
70
1
0
VERTEX
5
57a
100
AcDbEntity
8
1
100
AcDbVertex
100
AcDb2dVertex
62
5
10
134.649997
20
146.500000
0
VERTEX
5
57b
100
AcDbEntity
8
1
100
AcDbVertex
100
AcDb2dVertex
62
5
10
132.449997
20
146.500000
0
VERTEX
5
57c
100
AcDbEntity
8
1
100
AcDbVertex
100
AcDb2dVertex
62
5
10
132.449997
20
139.500000
0
VERTEX
5
57d
100
AcDbEntity
8
1
100
AcDbVertex
100
AcDb2dVertex
62
5
10
134.649997
20
139.500000
0
VERTEX
5
57e
100
AcDbEntity
8
1
100
AcDbVertex
100
AcDb2dVertex
62
5
10
134.649997
20
146.500000
0
SEQEND
5
57f
100
AcDbEntity
8
1
0
ARC
5
580
100
AcDbEntity
8
1
100
AcDbCircle
6
CONTINUOUS
62
5
10
129.827475
20
149.000000
40
1.000000
100
AcDbArc
50
89.999999
51
168.059455
0
ARC
5
581
100
AcDbEntity
8
1
100
AcDbCircle
6
CONTINUOUS
62
5
10
158.199997
20
143.000000
40
30.000000
100
AcDbArc
50
168.059455
51
-170.071807
0
ARC
5
582
100
AcDbEntity
8
1
100
AcDbCircle
6
CONTINUOUS
62
5
10
129.634283
20
138.000000
40
1.000000
100
AcDbArc
50
-170.071807
51
-89.999999
0
LINE
5
583
100
AcDbEntity
8
1
100
AcDbLine
6
CONTINUOUS
62
5
10
129.634283
20
137.000000
11
137.199997
21
137.000000
0
ARC
5
584
100
AcDbEntity
8
1
100
AcDbCircle
6
CONTINUOUS
62
5
10
137.199997
20
138.000000
40
1.000000
100
AcDbArc
50
-89.999999
51
0.000000
0
LINE
5
585
100
AcDbEntity
8
1
100
AcDbLine
6
CONTINUOUS
62
5
10
138.199997
20
138.000000
11
138.199997
21
149.000000
0
ARC
5
586
100
AcDbEntity
8
1
100
AcDbCircle
6
CONTINUOUS
62
5
10
137.199997
20
149.000000
40
1.000000
100
AcDbArc
50
0.000000
51
89.999999
0
LINE
5
587
100
AcDbEntity
8
1
100
AcDbLine
6
CONTINUOUS
62
5
10
137.199997
20
150.000000
11
129.827475
21
150.000000
0
LINE
5
588
100
AcDbEntity
8
1
100
AcDbLine
6
CONTINUOUS
62
5
10
148.699982
20
146.000021
11
148.699982
21
145.200000
0
ARC
5
589
100
AcDbEntity
8
1
100
AcDbCircle
6
CONTINUOUS
62
5
10
148.299997
20
150.500019
40
0.400000
100
AcDbArc
50
-0.000000
51
89.999999
0
LINE
5
58a
100
AcDbEntity
8
1
100
AcDbLine
6
CONTINUOUS
62
5
10
148.699997
20
150.500019
11
148.699997
21
146.500021
0
ARC
5
58b
100
AcDbEntity
8
1
100
AcDbCircle
6
CONTINUOUS
62
5
10
148.299997
20
146.500021
40
0.400000
100
AcDbArc
50
-89.999999
51
0.000000
0
LINE
5
58c
100
AcDbEntity
8
1
100
AcDbLine
6
CONTINUOUS
62
5
10
148.699982
20
151.000019
11
148.699982
21
152.200019
0
ARC
5
58d
100
AcDbEntity
8
1
100
AcDbCircle
6
CONTINUOUS
62
5
10
148.799997
20
146.500021
40
0.400000
100
AcDbArc
50
-89.999999
51
-0.000000
0
LINE
5
58e
100
AcDbEntity
8
1
100
AcDbLine
6
CONTINUOUS
62
5
10
149.199997
20
146.500021
11
149.199997
21
150.500020
0
ARC
5
58f
100
AcDbEntity
8
1
100
AcDbCircle
6
CONTINUOUS
62
5
10
148.799997
20
150.500020
40
0.400000
100
AcDbArc
50
0.000000
51
89.999999
0
ARC
5
590
100
AcDbEntity
8
1
100
AcDbCircle
6
CONTINUOUS
62
5
10
147.999997
20
141.300000
40
1.000000
100
AcDbArc
50
89.999999
51
143.131413
0
LINE
5
591
100
AcDbEntity
8
1
100
AcDbLine
6
CONTINUOUS
62
5
10
147.999997
20
142.300000
11
148.799997
21
142.300000
0
ARC
5
592
100
AcDbEntity
8
1
100
AcDbCircle
6
CONTINUOUS
62
5
10
148.799997
20
142.800000
40
0.500000
100
AcDbArc
50
-89.999999
51
0.000000
0
LINE
5
593
100
AcDbEntity
8
1
100
AcDbLine
6
CONTINUOUS
62
5
10
149.299997
20
142.800000
11
149.299997
21
144.700000
0
ARC
5
594
100
AcDbEntity
8
1
100
AcDbCircle
6
CONTINUOUS
62
5
10
148.799997
20
144.700000
40
0.500000
100
AcDbArc
50
0.000000
51
89.999999
0
LINE
5
595
100
AcDbEntity
8
1
100
AcDbLine
6
CONTINUOUS
62
5
10
148.799997
20
145.200000
11
147.999997
21
145.200000
0
ARC
5
596
100
AcDbEntity
8
1
100
AcDbCircle
6
CONTINUOUS
62
5
10
147.999997
20
146.200000
40
1.000000
100
AcDbArc
50
-143.131413
51
-89.999999
0
ARC
5
597
100
AcDbEntity
8
1
100
AcDbCircle
6
CONTINUOUS
62
5
10
145.699997
20
159.049510
40
2.500000
100
AcDbArc
50
-53.130274
51
-0.192022
0
ARC
5
598
100
AcDbEntity
8
1
100
AcDbCircle
6
CONTINUOUS
62
5
10
148.699982
20
164.750024
40
0.500000
100
AcDbArc
50
89.999999
51
179.999998
0
LINE
5
599
100
AcDbEntity
8
1
100
AcDbLine
6
CONTINUOUS
62
5
10
148.699982
20
165.250024
11
149.199982
21
165.250024
0
ARC
5
59a
100
AcDbEntity
8
1
100
AcDbCircle
6
CONTINUOUS
62
5
10
149.199982
20
164.750024
40
0.500000
100
AcDbArc
50
-0.000000
51
89.999999
0
LINE
5
59b
100
AcDbEntity
8
1
100
AcDbLine
6
CONTINUOUS
62
5
10
149.699982
20
164.750024
11
149.699982
21
155.250024
0
ARC
5
59c
100
AcDbEntity
8
1
100
AcDbCircle
6
CONTINUOUS
62
5
10
149.199982
20
155.250024
40
0.500000
100
AcDbArc
50
-89.999999
51
-0.000000
0
LINE
5
59d
100
AcDbEntity
8
1
100
AcDbLine
6
CONTINUOUS
62
5
10
149.199982
20
154.750024
11
148.699982
21
154.750024
0
ARC
5
59e
100
AcDbEntity
8
1
100
AcDbCircle
6
CONTINUOUS
62
5
10
148.699982
20
155.250024
40
0.500000
100
AcDbArc
50
179.999998
51
-89.999999
0
ARC
5
59f
100
AcDbEntity
8
1
100
AcDbCircle
6
CONTINUOUS
62
5
10
148.951305
20
155.250387
40
0.500364
100
AcDbArc
50
-179.875091
51
-0.041624
0
LINE
5
5a0
100
AcDbEntity
8
1
100
AcDbLine
6
CONTINUOUS
62
5
10
149.451669
20
155.250024
11
149.451669
21
164.750024
0
ARC
5
5a1
100
AcDbEntity
8
1
100
AcDbCircle
6
CONTINUOUS
62
5
10
148.951305
20
164.749660
40
0.500364
100
AcDbArc
50
0.041625
51
179.875091
0
LINE
5
5a2
100
AcDbEntity
8
1
100
AcDbLine
6
CONTINUOUS
62
5
10
148.450943
20
164.750751
11
148.450943
21
155.249296
0
ARC
5
5a3
100
AcDbEntity
8
1
100
AcDbCircle
6
CONTINUOUS
62
5
10
148.999983
20
152.700026
40
0.500000
100
AcDbArc
50
-79.449901
51
-0.000000
0
ARC
5
5a4
100
AcDbEntity
8
1
100
AcDbCircle
6
CONTINUOUS
62
5
10
148.999983
20
167.300022
40
0.500000
100
AcDbArc
50
0.000000
51
79.449901
0
LINE
5
5a5
100
AcDbEntity
8
1
100
AcDbLine
6
CONTINUOUS
62
5
10
149.499983
20
167.300022
11
149.499983
21
165.150023
0
LINE
5
5a6
100
AcDbEntity
8
1
100
AcDbLine
6
CONTINUOUS
62
5
10
149.499983
20
154.850024
11
149.499983
21
152.700026
0
ARC
5
5a7
100
AcDbEntity
8
1
100
AcDbCircle
6
CONTINUOUS
62
5
10
149.899982
20
152.700019
40
0.500000
100
AcDbArc
50
-89.999999
51
-0.000000
0
POLYLINE
5
5a8
100
AcDbEntity
8
1
6
CONTINUOUS
62
5
100
AcDb2dPolyline
66
1
10
0.0
20
0.0
30
0.0
70
0
0
VERTEX
5
5a9
100
AcDbEntity
8
1
100
AcDbVertex
100
AcDb2dVertex
62
5
10
149.899982
20
152.200019
0
VERTEX
5
5aa
100
AcDbEntity
8
1
100
AcDbVertex
100
AcDb2dVertex
62
5
10
148.199983
20
152.200019
0
VERTEX
5
5ab
100
AcDbEntity
8
1
100
AcDbVertex
100
AcDb2dVertex
62
5
10
148.199983
20
167.800014
0
VERTEX
5
5ac
100
AcDbEntity
8
1
100
AcDbVertex
100
AcDb2dVertex
62
5
10
149.899982
20
167.800014
0
SEQEND
5
5ad
100
AcDbEntity
8
1
0
ARC
5
5ae
100
AcDbEntity
8
1
100
AcDbCircle
6
CONTINUOUS
62
5
10
149.899982
20
167.300015
40
0.500000
100
AcDbArc
50
-0.000000
51
89.999999
0
ARC
5
5af
100
AcDbEntity
8
1
100
AcDbCircle
6
CONTINUOUS
62
5
10
149.899990
20
169.500014
40
0.500000
100
AcDbArc
50
-89.999999
51
0.000000
0
POLYLINE
5
5b0
100
AcDbEntity
8
1
6
CONTINUOUS
62
5
100
AcDb2dPolyline
66
1
10
0.0
20
0.0
30
0.0
70
0
0
VERTEX
5
5b1
100
AcDbEntity
8
1
100
AcDbVertex
100
AcDb2dVertex
62
5
10
149.899990
20
169.000014
0
VERTEX
5
5b2
100
AcDbEntity
8
1
100
AcDbVertex
100
AcDb2dVertex
62
5
10
147.199991
20
169.000014
0
VERTEX
5
5b3
100
AcDbEntity
8
1
100
AcDbVertex
100
AcDb2dVertex
62
5
10
147.199991
20
151.000019
0
VERTEX
5
5b4
100
AcDbEntity
8
1
100
AcDbVertex
100
AcDb2dVertex
62
5
10
149.899990
20
151.000019
0
SEQEND
5
5b5
100
AcDbEntity
8
1
0
ARC
5
5b6
100
AcDbEntity
8
1
100
AcDbCircle
6
CONTINUOUS
62
5
10
149.899990
20
150.500020
40
0.500000
100
AcDbArc
50
-0.000000
51
89.999999
0
LINE
5
5b7
100
AcDbEntity
8
1
100
AcDbLine
6
CONTINUOUS
62
5
10
111.199997
20
179.250000
11
111.399997
21
179.250000
0
POLYLINE
5
5b8
100
AcDbEntity
8
1
6
CONTINUOUS
62
5
100
AcDb2dPolyline
66
1
10
0.0
20
0.0
30
0.0
70
0
0
VERTEX
5
5b9
100
AcDbEntity
8
1
100
AcDbVertex
100
AcDb2dVertex
62
5
10
124.499997
20
171.200000
0
VERTEX
5
5ba
100
AcDbEntity
8
1
100
AcDbVertex
100
AcDb2dVertex
62
5
10
125.399997
20
171.200000
0
VERTEX
5
5bb
100
AcDbEntity
8
1
100
AcDbVertex
100
AcDb2dVertex
62
5
10
125.399997
20
175.112461
0
SEQEND
5
5bc
100
AcDbEntity
8
1
0
ARC
5
5bd
100
AcDbEntity
8
1
100
AcDbCircle
6
CONTINUOUS
62
5
10
112.199997
20
174.000000
40
1.000000
100
AcDbArc
50
-0.000000
51
53.129144
0
LINE
5
5be
100
AcDbEntity
8
1
100
AcDbLine
6
CONTINUOUS
62
5
10
113.199997
20
169.000000
11
112.899993
21
169.000000
0
LINE
5
5bf
100
AcDbEntity
8
1
100
AcDbLine
6
CONTINUOUS
62
5
10
112.899993
20
173.000000
11
113.199997
21
173.000000
0
LINE
5
5c0
100
AcDbEntity
8
1
100
AcDbLine
6
CONTINUOUS
62
5
10
111.199997
20
176.200000
11
111.399997
21
176.200000
0
LINE
5
5c1
100
AcDbEntity
8
1
100
AcDbLine
6
CONTINUOUS
62
5
10
111.199994
20
175.000012
11
111.099994
21
174.900012
0
LINE
5
5c2
100
AcDbEntity
8
1
100
AcDbLine
6
CONTINUOUS
62
5
10
111.099994
20
168.100014
11
111.199994
21
168.000014
0
ARC
5
5c3
100
AcDbEntity
8
1
100
AcDbCircle
6
CONTINUOUS
62
5
10
111.999997
20
176.000000
40
1.000000
100
AcDbArc
50
-143.130382
51
-89.999999
0
ARC
5
5c4
100
AcDbEntity
8
1
100
AcDbCircle
6
CONTINUOUS
62
5
10
112.899997
20
177.200000
40
0.700000
100
AcDbArc
50
179.999998
51
-89.999999
0
LINE
5
5c5
100
AcDbEntity
8
1
100
AcDbLine
6
CONTINUOUS
62
5
10
112.899997
20
176.500000
11
113.199997
21
176.500000
0
LINE
5
5c6
100
AcDbEntity
8
1
100
AcDbLine
6
CONTINUOUS
62
5
10
113.199997
20
179.500000
11
112.899997
21
179.500000
0
ARC
5
5c7
100
AcDbEntity
8
1
100
AcDbCircle
6
CONTINUOUS
62
5
10
112.899997
20
178.800000
40
0.700000
100
AcDbArc
50
89.999999
51
179.999998
0
LINE
5
5c8
100
AcDbEntity
8
1
100
AcDbLine
6
CONTINUOUS
62
5
10
112.199997
20
178.800000
11
112.199997
21
178.800000
0
LINE
5
5c9
100
AcDbEntity
8
1
100
AcDbLine
6
CONTINUOUS
62
5
10
107.199989
20
174.700017
11
107.299989
21
174.600017
0
LINE
5
5ca
100
AcDbEntity
8
1
100
AcDbLine
6
CONTINUOUS
62
5
10
107.199989
20
165.000016
11
107.299989
21
164.900016
0
LINE
5
5cb
100
AcDbEntity
8
1
100
AcDbLine
6
CONTINUOUS
62
5
10
107.299989
20
168.400023
11
107.199989
21
168.300024
0
LINE
5
5cc
100
AcDbEntity
8
1
100
AcDbLine
6
CONTINUOUS
62
5
10
107.299989
20
178.100024
11
107.199989
21
178.000025
0
ARC
5
5cd
100
AcDbEntity
8
1
100
AcDbCircle
6
CONTINUOUS
62
5
10
105.599997
20
174.200010
40
0.400000
100
AcDbArc
50
89.999999
51
179.999998
0
LINE
5
5ce
100
AcDbEntity
8
1
100
AcDbLine
6
CONTINUOUS
62
5
10
105.199997
20
174.200010
11
105.199997
21
168.800010
0
ARC
5
5cf
100
AcDbEntity
8
1
100
AcDbCircle
6
CONTINUOUS
62
5
10
105.599997
20
168.800010
40
0.400000
100
AcDbArc
50
179.999998
51
-90.336538
0
LINE
5
5d0
100
AcDbEntity
8
1
100
AcDbLine
6
CONTINUOUS
62
5
10
106.199989
20
168.300023
11
106.199989
21
165.000016
0
LINE
5
5d1
100
AcDbEntity
8
1
100
AcDbLine
6
CONTINUOUS
62
5
10
106.199989
20
178.000024
11
106.199989
21
177.700000
0
LINE
5
5d2
100
AcDbEntity
8
1
100
AcDbLine
6
CONTINUOUS
62
5
10
106.199989
20
174.800000
11
106.199989
21
174.700017
0
ARC
5
5d3
100
AcDbEntity
8
1
100
AcDbCircle
6
CONTINUOUS
62
5
10
106.099997
20
168.800010
40
0.400000
100
AcDbArc
50
-179.999998
51
-89.999999
0
LINE
5
5d4
100
AcDbEntity
8
1
100
AcDbLine
6
CONTINUOUS
62
5
10
105.699997
20
168.800010
11
105.699997
21
174.200010
0
ARC
5
5d5
100
AcDbEntity
8
1
100
AcDbCircle
6
CONTINUOUS
62
5
10
106.099997
20
174.200010
40
0.400000
100
AcDbArc
50
89.999999
51
179.999998
0
ARC
5
5d6
100
AcDbEntity
8
1
100
AcDbCircle
6
CONTINUOUS
62
5
10
104.999996
20
164.500016
40
0.500000
100
AcDbArc
50
89.999999
51
-179.999998
0
POLYLINE
5
5d7
100
AcDbEntity
8
1
6
CONTINUOUS
62
5
100
AcDb2dPolyline
66
1
10
0.0
20
0.0
30
0.0
70
0
0
VERTEX
5
5d8
100
AcDbEntity
8
1
100
AcDbVertex
100
AcDb2dVertex
62
5
10
104.999996
20
165.000016
0
VERTEX
5
5d9
100
AcDbEntity
8
1
100
AcDbVertex
100
AcDb2dVertex
62
5
10
107.199989
20
165.000016
0
VERTEX
5
5da
100
AcDbEntity
8
1
100
AcDbVertex
100
AcDb2dVertex
62
5
10
107.199989
20
168.300024
0
VERTEX
5
5db
100
AcDbEntity
8
1
100
AcDbVertex
100
AcDb2dVertex
62
5
10
104.999996
20
168.300023
0
SEQEND
5
5dc
100
AcDbEntity
8
1
0
ARC
5
5dd
100
AcDbEntity
8
1
100
AcDbCircle
6
CONTINUOUS
62
5
10
104.999996
20
168.800022
40
0.500000
100
AcDbArc
50
-179.681193
51
-89.999999
0
ARC
5
5de
100
AcDbEntity
8
1
100
AcDbCircle
6
CONTINUOUS
62
5
10
106.399997
20
173.800000
40
1.000000
100
AcDbArc
50
64.160275
51
89.999999
0
LINE
5
5df
100
AcDbEntity
8
1
100
AcDbLine
6
CONTINUOUS
62
5
10
106.399997
20
174.800000
11
105.599997
21
174.800000
0
ARC
5
5e0
100
AcDbEntity
8
1
100
AcDbCircle
6
CONTINUOUS
62
5
10
105.599997
20
175.300000
40
0.500000
100
AcDbArc
50
-179.999998
51
-89.999999
0
LINE
5
5e1
100
AcDbEntity
8
1
100
AcDbLine
6
CONTINUOUS
62
5
10
105.099997
20
175.300000
11
105.099997
21
177.200000
0
ARC
5
5e2
100
AcDbEntity
8
1
100
AcDbCircle
6
CONTINUOUS
62
5
10
105.599997
20
177.200000
40
0.500000
100
AcDbArc
50
89.999999
51
-179.999998
0
LINE
5
5e3
100
AcDbEntity
8
1
100
AcDbLine
6
CONTINUOUS
62
5
10
105.599997
20
177.700000
11
106.399997
21
177.700000
0
ARC
5
5e4
100
AcDbEntity
8
1
100
AcDbCircle
6
CONTINUOUS
62
5
10
106.399997
20
178.700000
40
1.000000
100
AcDbArc
50
-89.999999
51
-44.424987
0
ARC
5
5e5
100
AcDbEntity
8
1
100
AcDbCircle
6
CONTINUOUS
62
5
10
104.999996
20
174.200017
40
0.500000
100
AcDbArc
50
89.999999
51
-179.999998
0
POLYLINE
5
5e6
100
AcDbEntity
8
1
6
CONTINUOUS
62
5
100
AcDb2dPolyline
66
1
10
0.0
20
0.0
30
0.0
70
0
0
VERTEX
5
5e7
100
AcDbEntity
8
1
100
AcDbVertex
100
AcDb2dVertex
62
5
10
104.999996
20
174.700017
0
VERTEX
5
5e8
100
AcDbEntity
8
1
100
AcDbVertex
100
AcDb2dVertex
62
5
10
107.199989
20
174.700017
0
VERTEX
5
5e9
100
AcDbEntity
8
1
100
AcDbVertex
100
AcDb2dVertex
62
5
10
107.199989
20
178.000025
0
VERTEX
5
5ea
100
AcDbEntity
8
1
100
AcDbVertex
100
AcDb2dVertex
62
5
10
104.999996
20
178.000024
0
SEQEND
5
5eb
100
AcDbEntity
8
1
0
ARC
5
5ec
100
AcDbEntity
8
1
100
AcDbCircle
6
CONTINUOUS
62
5
10
104.999996
20
178.500024
40
0.500000
100
AcDbArc
50
-179.681193
51
-89.999999
0
LINE
5
5ed
100
AcDbEntity
8
1
100
AcDbLine
6
CONTINUOUS
62
5
10
119.749997
20
146.162500
11
120.549997
21
146.200000
0
LINE
5
5ee
100
AcDbEntity
8
1
100
AcDbLine
6
CONTINUOUS
62
5
10
111.199997
20
144.800000
11
111.399997
21
144.800000
0
LINE
5
5ef
100
AcDbEntity
8
1
100
AcDbLine
6
CONTINUOUS
62
5
10
111.099994
20
145.100021
11
111.199994
21
145.000021
0
LINE
5
5f0
100
AcDbEntity
8
1
100
AcDbLine
6
CONTINUOUS
62
5
10
111.199994
20
152.000019
11
111.099994
21
151.900019
0
LINE
5
5f1
100
AcDbEntity
8
1
100
AcDbLine
6
CONTINUOUS
62
5
10
111.199997
20
140.450000
11
111.399997
21
140.450000
0
ARC
5
5f2
100
AcDbEntity
8
1
100
AcDbCircle
6
CONTINUOUS
62
5
10
112.899997
20
141.200000
40
0.700000
100
AcDbArc
50
179.999998
51
-89.999999
0
LINE
5
5f3
100
AcDbEntity
8
1
100
AcDbLine
6
CONTINUOUS
62
5
10
112.899997
20
140.500000
11
113.199997
21
140.500000
0
LINE
5
5f4
100
AcDbEntity
8
1
100
AcDbLine
6
CONTINUOUS
62
5
10
113.199997
20
143.500000
11
112.899997
21
143.500000
0
ARC
5
5f5
100
AcDbEntity
8
1
100
AcDbCircle
6
CONTINUOUS
62
5
10
112.899997
20
142.800000
40
0.700000
100
AcDbArc
50
89.999999
51
179.999998
0
LINE
5
5f6
100
AcDbEntity
8
1
100
AcDbLine
6
CONTINUOUS
62
5
10
112.199997
20
142.800000
11
112.199997
21
142.800000
0
ARC
5
5f7
100
AcDbEntity
8
1
100
AcDbCircle
6
CONTINUOUS
62
5
10
112.699997
20
136.100000
40
0.500000
100
AcDbArc
50
89.999999
51
179.999998
0
LINE
5
5f8
100
AcDbEntity
8
1
100
AcDbLine
6
CONTINUOUS
62
5
10
112.699997
20
136.600000
11
113.199997
21
136.600000
0
LINE
5
5f9
100
AcDbEntity
8
1
100
AcDbLine
6
CONTINUOUS
62
5
10
112.199997
20
135.600000
11
112.199997
21
136.100000
0
POLYLINE
5
5fa
100
AcDbEntity
8
1
6
CONTINUOUS
62
5
100
AcDb2dPolyline
66
1
10
0.0
20
0.0
30
0.0
70
0
0
VERTEX
5
5fb
100
AcDbEntity
8
1
100
AcDbVertex
100
AcDb2dVertex
62
5
10
121.422572
20
138.750000
0
VERTEX
5
5fc
100
AcDbEntity
8
1
100
AcDbVertex
100
AcDb2dVertex
62
5
10
121.473468
20
139.779056
0
VERTEX
5
5fd
100
AcDbEntity
8
1
100
AcDbVertex
100
AcDb2dVertex
62
5
10
121.049997
20
139.800000
0
VERTEX
5
5fe
100
AcDbEntity
8
1
100
AcDbVertex
100
AcDb2dVertex
62
5
10
121.349997
20
146.200000
0
VERTEX
5
5ff
100
AcDbEntity
8
1
100
AcDbVertex
100
AcDb2dVertex
62
5
10
121.949997
20
146.171875
0
SEQEND
5
600
100
AcDbEntity
8
1
0
POLYLINE
5
601
100
AcDbEntity
8
1
6
CONTINUOUS
62
5
100
AcDb2dPolyline
66
1
10
0.0
20
0.0
30
0.0
70
0
0
VERTEX
5
602
100
AcDbEntity
8
1
100
AcDbVertex
100
AcDb2dVertex
62
5
10
119.749997
20
146.200000
0
VERTEX
5
603
100
AcDbEntity
8
1
100
AcDbVertex
100
AcDb2dVertex
62
5
10
120.549997
20
146.200000
0
VERTEX
5
604
100
AcDbEntity
8
1
100
AcDbVertex
100
AcDb2dVertex
62
5
10
120.849997
20
139.800000
0
VERTEX
5
605
100
AcDbEntity
8
1
100
AcDbVertex
100
AcDb2dVertex
62
5
10
120.431674
20
139.780391
0
VERTEX
5
606
100
AcDbEntity
8
1
100
AcDbVertex
100
AcDb2dVertex
62
5
10
120.479974
20
138.750000
0
SEQEND
5
607
100
AcDbEntity
8
1
0
POLYLINE
5
608
100
AcDbEntity
8
1
6
CONTINUOUS
62
5
100
AcDb2dPolyline
66
1
10
0.0
20
0.0
30
0.0
70
1
0
VERTEX
5
609
100
AcDbEntity
8
1
100
AcDbVertex
100
AcDb2dVertex
62
5
10
121.949997
20
147.250000
0
VERTEX
5
60a
100
AcDbEntity
8
1
100
AcDbVertex
100
AcDb2dVertex
62
5
10
119.749997
20
147.250000
0
VERTEX
5
60b
100
AcDbEntity
8
1
100
AcDbVertex
100
AcDb2dVertex
62
5
10
119.749997
20
138.750000
0
VERTEX
5
60c
100
AcDbEntity
8
1
100
AcDbVertex
100
AcDb2dVertex
62
5
10
121.949997
20
138.750000
0
VERTEX
5
60d
100
AcDbEntity
8
1
100
AcDbVertex
100
AcDb2dVertex
62
5
10
121.949997
20
147.250000
0
SEQEND
5
60e
100
AcDbEntity
8
1
0
ARC
5
60f
100
AcDbEntity
8
1
100
AcDbCircle
6
CONTINUOUS
62
5
10
124.783828
20
138.104635
40
1.000000
100
AcDbArc
50
-86.952726
51
-9.718387
0
ARC
5
610
100
AcDbEntity
8
1
100
AcDbCircle
6
CONTINUOUS
62
5
10
120.849997
20
212.000000
40
75.000000
100
AcDbArc
50
-92.827222
51
-86.952726
0
ARC
5
611
100
AcDbEntity
8
1
100
AcDbCircle
6
CONTINUOUS
62
5
10
117.199997
20
138.090072
40
1.000000
100
AcDbArc
50
179.999998
51
-92.827222
0
LINE
5
612
100
AcDbEntity
8
1
100
AcDbLine
6
CONTINUOUS
62
5
10
116.199997
20
138.090072
11
116.199997
21
149.000000
0
ARC
5
613
100
AcDbEntity
8
1
100
AcDbCircle
6
CONTINUOUS
62
5
10
117.199997
20
149.000000
40
1.000000
100
AcDbArc
50
89.999999
51
179.999998
0
LINE
5
614
100
AcDbEntity
8
1
100
AcDbLine
6
CONTINUOUS
62
5
10
117.199997
20
150.000000
11
124.572519
21
150.000000
0
ARC
5
615
100
AcDbEntity
8
1
100
AcDbCircle
6
CONTINUOUS
62
5
10
124.572519
20
149.000000
40
1.000000
100
AcDbArc
50
11.940544
51
89.999999
0
ARC
5
616
100
AcDbEntity
8
1
100
AcDbCircle
6
CONTINUOUS
62
5
10
96.199997
20
143.000000
40
30.000000
100
AcDbArc
50
-9.718387
51
11.940544
0
POLYLINE
5
617
100
AcDbEntity
8
1
6
CONTINUOUS
62
5
100
AcDb2dPolyline
66
1
10
0.0
20
0.0
30
0.0
70
1
0
VERTEX
5
618
100
AcDbEntity
8
1
100
AcDbVertex
100
AcDb2dVertex
62
5
10
111.399997
20
144.800000
0
VERTEX
5
619
100
AcDbEntity
8
1
100
AcDbVertex
100
AcDb2dVertex
62
5
10
111.399997
20
136.400000
0
VERTEX
5
61a
100
AcDbEntity
8
1
100
AcDbVertex
100
AcDb2dVertex
62
5
10
112.199997
20
136.400000
0
VERTEX
5
61b
100
AcDbEntity
8
1
100
AcDbVertex
100
AcDb2dVertex
62
5
10
112.199997
20
144.800000
0
VERTEX
5
61c
100
AcDbEntity
8
1
100
AcDbVertex
100
AcDb2dVertex
62
5
10
111.399997
20
144.800000
0
SEQEND
5
61d
100
AcDbEntity
8
1
0
LINE
5
61e
100
AcDbEntity
8
1
100
AcDbLine
6
CONTINUOUS
62
5
10
107.299989
20
155.100024
11
107.199989
21
155.000025
0
LINE
5
61f
100
AcDbEntity
8
1
100
AcDbLine
6
CONTINUOUS
62
5
10
107.299989
20
145.400031
11
107.199989
21
145.300032
0
LINE
5
620
100
AcDbEntity
8
1
100
AcDbLine
6
CONTINUOUS
62
5
10
107.199989
20
151.700017
11
107.299989
21
151.600017
0
LINE
5
621
100
AcDbEntity
8
1
100
AcDbLine
6
CONTINUOUS
62
5
10
107.199989
20
142.000024
11
107.299989
21
141.900024
0
ARC
5
622
100
AcDbEntity
8
1
100
AcDbCircle
6
CONTINUOUS
62
5
10
105.600004
20
151.200017
40
0.400000
100
AcDbArc
50
89.999999
51
179.999998
0
LINE
5
623
100
AcDbEntity
8
1
100
AcDbLine
6
CONTINUOUS
62
5
10
105.200004
20
151.200017
11
105.200004
21
145.800017
0
ARC
5
624
100
AcDbEntity
8
1
100
AcDbCircle
6
CONTINUOUS
62
5
10
105.600004
20
145.800017
40
0.400000
100
AcDbArc
50
179.999998
51
-90.336538
0
LINE
5
625
100
AcDbEntity
8
1
100
AcDbLine
6
CONTINUOUS
62
5
10
106.199989
20
151.700017
11
106.199989
21
155.000025
0
LINE
5
626
100
AcDbEntity
8
1
100
AcDbLine
6
CONTINUOUS
62
5
10
106.199989
20
145.300031
11
106.199989
21
145.200000
0
LINE
5
627
100
AcDbEntity
8
1
100
AcDbLine
6
CONTINUOUS
62
5
10
106.199989
20
142.300000
11
106.199989
21
142.000024
0
ARC
5
628
100
AcDbEntity
8
1
100
AcDbCircle
6
CONTINUOUS
62
5
10
106.100004
20
145.800017
40
0.400000
100
AcDbArc
50
-179.999998
51
-89.999999
0
LINE
5
629
100
AcDbEntity
8
1
100
AcDbLine
6
CONTINUOUS
62
5
10
105.700004
20
145.800017
11
105.700004
21
151.200017
0
ARC
5
62a
100
AcDbEntity
8
1
100
AcDbCircle
6
CONTINUOUS
62
5
10
106.100004
20
151.200017
40
0.400000
100
AcDbArc
50
89.999999
51
179.999998
0
ARC
5
62b
100
AcDbEntity
8
1
100
AcDbCircle
6
CONTINUOUS
62
5
10
104.999996
20
151.200017
40
0.500000
100
AcDbArc
50
89.999999
51
-179.999998
0
POLYLINE
5
62c
100
AcDbEntity
8
1
6
CONTINUOUS
62
5
100
AcDb2dPolyline
66
1
10
0.0
20
0.0
30
0.0
70
0
0
VERTEX
5
62d
100
AcDbEntity
8
1
100
AcDbVertex
100
AcDb2dVertex
62
5
10
104.999996
20
151.700017
0
VERTEX
5
62e
100
AcDbEntity
8
1
100
AcDbVertex
100
AcDb2dVertex
62
5
10
107.199989
20
151.700017
0
VERTEX
5
62f
100
AcDbEntity
8
1
100
AcDbVertex
100
AcDb2dVertex
62
5
10
107.199989
20
155.000025
0
VERTEX
5
630
100
AcDbEntity
8
1
100
AcDbVertex
100
AcDb2dVertex
62
5
10
104.999996
20
155.000024
0
SEQEND
5
631
100
AcDbEntity
8
1
0
ARC
5
632
100
AcDbEntity
8
1
100
AcDbCircle
6
CONTINUOUS
62
5
10
104.999996
20
155.500024
40
0.500000
100
AcDbArc
50
-179.681193
51
-89.999999
0
ARC
5
633
100
AcDbEntity
8
1
100
AcDbCircle
6
CONTINUOUS
62
5
10
106.399997
20
141.300000
40
1.000000
100
AcDbArc
50
44.428905
51
89.999999
0
LINE
5
634
100
AcDbEntity
8
1
100
AcDbLine
6
CONTINUOUS
62
5
10
106.399997
20
142.300000
11
105.599997
21
142.300000
0
ARC
5
635
100
AcDbEntity
8
1
100
AcDbCircle
6
CONTINUOUS
62
5
10
105.599997
20
142.800000
40
0.500000
100
AcDbArc
50
179.999998
51
-89.999999
0
LINE
5
636
100
AcDbEntity
8
1
100
AcDbLine
6
CONTINUOUS
62
5
10
105.099997
20
142.800000
11
105.099997
21
144.700000
0
ARC
5
637
100
AcDbEntity
8
1
100
AcDbCircle
6
CONTINUOUS
62
5
10
105.599997
20
144.700000
40
0.500000
100
AcDbArc
50
89.999999
51
-179.999998
0
LINE
5
638
100
AcDbEntity
8
1
100
AcDbLine
6
CONTINUOUS
62
5
10
105.599997
20
145.200000
11
106.399997
21
145.200000
0
ARC
5
639
100
AcDbEntity
8
1
100
AcDbCircle
6
CONTINUOUS
62
5
10
106.399997
20
146.200000
40
1.000000
100
AcDbArc
50
-89.999999
51
-64.153880
0
ARC
5
63a
100
AcDbEntity
8
1
100
AcDbCircle
6
CONTINUOUS
62
5
10
104.999996
20
141.500024
40
0.500000
100
AcDbArc
50
89.999999
51
-179.999998
0
POLYLINE
5
63b
100
AcDbEntity
8
1
6
CONTINUOUS
62
5
100
AcDb2dPolyline
66
1
10
0.0
20
0.0
30
0.0
70
0
0
VERTEX
5
63c
100
AcDbEntity
8
1
100
AcDbVertex
100
AcDb2dVertex
62
5
10
104.999996
20
142.000024
0
VERTEX
5
63d
100
AcDbEntity
8
1
100
AcDbVertex
100
AcDb2dVertex
62
5
10
107.199989
20
142.000024
0
VERTEX
5
63e
100
AcDbEntity
8
1
100
AcDbVertex
100
AcDb2dVertex
62
5
10
107.199989
20
145.300032
0
VERTEX
5
63f
100
AcDbEntity
8
1
100
AcDbVertex
100
AcDb2dVertex
62
5
10
104.999996
20
145.300031
0
SEQEND
5
640
100
AcDbEntity
8
1
0
ARC
5
641
100
AcDbEntity
8
1
100
AcDbCircle
6
CONTINUOUS
62
5
10
104.999996
20
145.800030
40
0.500000
100
AcDbArc
50
-179.681193
51
-89.999999
0
ARC
5
642
100
AcDbEntity
8
1
100
AcDbCircle
6
CONTINUOUS
62
5
10
127.199997
20
173.100000
40
2.700000
100
AcDbArc
50
0.000000
51
179.999998
0
POLYLINE
5
643
100
AcDbEntity
8
1
6
CONTINUOUS
62
5
100
AcDb2dPolyline
66
1
10
0.0
20
0.0
30
0.0
70
0
0
VERTEX
5
644
100
AcDbEntity
8
1
100
AcDbVertex
100
AcDb2dVertex
62
5
10
124.499997
20
173.100000
0
VERTEX
5
645
100
AcDbEntity
8
1
100
AcDbVertex
100
AcDb2dVertex
62
5
10
124.499997
20
170.400000
0
VERTEX
5
646
100
AcDbEntity
8
1
100
AcDbVertex
100
AcDb2dVertex
62
5
10
129.899997
20
170.400000
0
VERTEX
5
647
100
AcDbEntity
8
1
100
AcDbVertex
100
AcDb2dVertex
62
5
10
129.899997
20
173.100000
0
SEQEND
5
648
100
AcDbEntity
8
1
0
ARC
5
649
100
AcDbEntity
8
1
100
AcDbCircle
6
CONTINUOUS
62
5
10
137.199997
20
175.821211
40
1.000000
100
AcDbArc
50
0.000000
51
82.233565
0
ARC
5
64a
100
AcDbEntity
8
1
100
AcDbCircle
6
CONTINUOUS
62
5
10
127.199997
20
102.500000
40
75.000000
100
AcDbArc
50
82.233565
51
97.766433
0
ARC
5
64b
100
AcDbEntity
8
1
100
AcDbCircle
6
CONTINUOUS
62
5
10
117.199997
20
175.821211
40
1.000000
100
AcDbArc
50
97.766433
51
179.999998
0
LINE
5
64c
100
AcDbEntity
8
1
100
AcDbLine
6
CONTINUOUS
62
5
10
116.199997
20
175.821211
11
116.199997
21
170.500000
0
ARC
5
64d
100
AcDbEntity
8
1
100
AcDbCircle
6
CONTINUOUS
62
5
10
117.199997
20
170.500000
40
1.000000
100
AcDbArc
50
179.999998
51
-89.999999
0
LINE
5
64e
100
AcDbEntity
8
1
100
AcDbLine
6
CONTINUOUS
62
5
10
117.199997
20
169.500000
11
137.199997
21
169.500000
0
ARC
5
64f
100
AcDbEntity
8
1
100
AcDbCircle
6
CONTINUOUS
62
5
10
137.199997
20
170.500000
40
1.000000
100
AcDbArc
50
-89.999999
51
0.000000
0
LINE
5
650
100
AcDbEntity
8
1
100
AcDbLine
6
CONTINUOUS
62
5
10
138.199997
20
170.500000
11
138.199997
21
175.821211
0
ARC
5
651
100
AcDbEntity
8
1
100
AcDbCircle
6
CONTINUOUS
62
5
10
149.899982
20
120.500029
40
0.500000
100
AcDbArc
50
-89.999999
51
-0.000000
0
LINE
5
652
100
AcDbEntity
8
1
100
AcDbLine
6
CONTINUOUS
62
5
10
149.099982
20
120.000029
11
149.899982
21
120.000029
0
ARC
5
653
100
AcDbEntity
8
1
100
AcDbCircle
6
CONTINUOUS
62
5
10
148.999983
20
129.700033
40
0.500000
100
AcDbArc
50
-73.290874
51
0.044381
0
LINE
5
654
100
AcDbEntity
8
1
100
AcDbLine
6
CONTINUOUS
62
5
10
149.499983
20
129.700420
11
149.499983
21
131.850031
0
LINE
5
655
100
AcDbEntity
8
1
100
AcDbLine
6
CONTINUOUS
62
5
10
147.199983
20
128.000026
11
147.099983
21
127.900026
0
LINE
5
656
100
AcDbEntity
8
1
100
AcDbLine
6
CONTINUOUS
62
5
10
143.199984
20
129.000026
11
143.299984
21
128.900026
0
LINE
5
657
100
AcDbEntity
8
1
100
AcDbLine
6
CONTINUOUS
62
5
10
143.949987
20
123.650028
11
143.699987
21
123.250028
0
LINE
5
658
100
AcDbEntity
8
1
100
AcDbLine
6
CONTINUOUS
62
5
10
142.699984
20
125.300017
11
142.799984
21
125.100017
0
ARC
5
659
100
AcDbEntity
8
1
100
AcDbCircle
6
CONTINUOUS
62
5
10
146.699983
20
118.000029
40
0.500000
100
AcDbArc
50
-89.999999
51
0.000000
0
LINE
5
65a
100
AcDbEntity
8
1
100
AcDbLine
6
CONTINUOUS
62
5
10
147.199983
20
118.800029
11
147.199983
21
118.000029
0
LINE
5
65b
100
AcDbEntity
8
1
100
AcDbLine
6
CONTINUOUS
62
5
10
142.699997
20
129.900000
11
142.199997
21
129.400000
0
LINE
5
65c
100
AcDbEntity
8
1
100
AcDbLine
6
CONTINUOUS
62
5
10
137.449989
20
123.650028
11
137.699989
21
123.050028
0
ARC
5
65d
100
AcDbEntity
8
1
100
AcDbCircle
6
CONTINUOUS
62
5
10
141.699997
20
127.250000
40
0.500000
100
AcDbArc
50
-179.999998
51
-89.999999
0
LINE
5
65e
100
AcDbEntity
8
1
100
AcDbLine
6
CONTINUOUS
62
5
10
141.699997
20
126.750000
11
142.699984
21
126.750000
0
ARC
5
65f
100
AcDbEntity
8
1
100
AcDbCircle
6
CONTINUOUS
62
5
10
141.699997
20
128.100000
40
0.500000
100
AcDbArc
50
89.999999
51
-179.999998
0
LINE
5
660
100
AcDbEntity
8
1
100
AcDbLine
6
CONTINUOUS
62
5
10
142.710081
20
128.600000
11
141.699997
21
128.600000
0
LINE
5
661
100
AcDbEntity
8
1
100
AcDbLine
6
CONTINUOUS
62
5
10
140.959931
20
126.000000
11
142.699984
21
126.000000
0
ARC
5
662
100
AcDbEntity
8
1
100
AcDbCircle
6
CONTINUOUS
62
5
10
141.699997
20
129.900000
40
0.500000
100
AcDbArc
50
-89.999999
51
0.000000
0
LINE
5
663
100
AcDbEntity
8
1
100
AcDbLine
6
CONTINUOUS
62
5
10
141.199997
20
129.400000
11
141.699997
21
129.400000
0
ARC
5
664
100
AcDbEntity
8
1
100
AcDbCircle
6
CONTINUOUS
62
5
10
143.199987
20
118.950029
40
0.500000
100
AcDbArc
50
-89.999999
51
-0.000000
0
LINE
5
665
100
AcDbEntity
8
1
100
AcDbLine
6
CONTINUOUS
62
5
10
143.199987
20
118.450029
11
138.199989
21
118.450029
0
ARC
5
666
100
AcDbEntity
8
1
100
AcDbCircle
6
CONTINUOUS
62
5
10
138.199989
20
118.950029
40
0.500000
100
AcDbArc
50
-179.999998
51
-89.999999
0
POLYLINE
5
667
100
AcDbEntity
8
1
6
CONTINUOUS
62
5
100
AcDb2dPolyline
66
1
10
0.0
20
0.0
30
0.0
70
0
0
VERTEX
5
668
100
AcDbEntity
8
1
100
AcDbVertex
100
AcDb2dVertex
62
5
10
137.699989
20
118.950029
0
VERTEX
5
669
100
AcDbEntity
8
1
100
AcDbVertex
100
AcDb2dVertex
62
5
10
137.699989
20
123.050028
0
VERTEX
5
66a
100
AcDbEntity
8
1
100
AcDbVertex
100
AcDb2dVertex
62
5
10
141.699988
20
123.050028
0
SEQEND
5
66b
100
AcDbEntity
8
1
0
POLYLINE
5
66c
100
AcDbEntity
8
1
6
CONTINUOUS
62
5
100
AcDb2dPolyline
66
1
10
0.0
20
0.0
30
0.0
70
0
0
VERTEX
5
66d
100
AcDbEntity
8
1
100
AcDbVertex
100
AcDb2dVertex
62
5
10
137.699989
20
121.250028
0
VERTEX
5
66e
100
AcDbEntity
8
1
100
AcDbVertex
100
AcDb2dVertex
62
5
10
139.199988
20
120.250029
0
VERTEX
5
66f
100
AcDbEntity
8
1
100
AcDbVertex
100
AcDb2dVertex
62
5
10
141.699988
20
120.250029
0
VERTEX
5
670
100
AcDbEntity
8
1
100
AcDbVertex
100
AcDb2dVertex
62
5
10
141.699988
20
123.250028
0
VERTEX
5
671
100
AcDbEntity
8
1
100
AcDbVertex
100
AcDb2dVertex
62
5
10
143.699987
20
123.250028
0
VERTEX
5
672
100
AcDbEntity
8
1
100
AcDbVertex
100
AcDb2dVertex
62
5
10
143.699987
20
118.950029
0
SEQEND
5
673
100
AcDbEntity
8
1
0
ARC
5
674
100
AcDbEntity
8
1
100
AcDbCircle
6
CONTINUOUS
62
5
10
143.199987
20
118.950029
40
0.500000
100
AcDbArc
50
-89.999999
51
0.000000
0
LINE
5
675
100
AcDbEntity
8
1
100
AcDbLine
6
CONTINUOUS
62
5
10
143.199987
20
118.450029
11
138.199989
21
118.450029
0
ARC
5
676
100
AcDbEntity
8
1
100
AcDbCircle
6
CONTINUOUS
62
5
10
138.199989
20
118.950029
40
0.500000
100
AcDbArc
50
-179.999998
51
-89.999999
0
POLYLINE
5
677
100
AcDbEntity
8
1
6
CONTINUOUS
62
5
100
AcDb2dPolyline
66
1
10
0.0
20
0.0
30
0.0
70
0
0
VERTEX
5
678
100
AcDbEntity
8
1
100
AcDbVertex
100
AcDb2dVertex
62
5
10
137.699989
20
118.950029
0
VERTEX
5
679
100
AcDbEntity
8
1
100
AcDbVertex
100
AcDb2dVertex
62
5
10
137.699989
20
123.050028
0
VERTEX
5
67a
100
AcDbEntity
8
1
100
AcDbVertex
100
AcDb2dVertex
62
5
10
141.699988
20
123.050028
0
SEQEND
5
67b
100
AcDbEntity
8
1
0
POLYLINE
5
67c
100
AcDbEntity
8
1
6
CONTINUOUS
62
5
100
AcDb2dPolyline
66
1
10
0.0
20
0.0
30
0.0
70
0
0
VERTEX
5
67d
100
AcDbEntity
8
1
100
AcDbVertex
100
AcDb2dVertex
62
5
10
141.699988
20
123.250028
0
VERTEX
5
67e
100
AcDbEntity
8
1
100
AcDbVertex
100
AcDb2dVertex
62
5
10
143.699987
20
123.250028
0
VERTEX
5
67f
100
AcDbEntity
8
1
100
AcDbVertex
100
AcDb2dVertex
62
5
10
143.699987
20
118.950029
0
SEQEND
5
680
100
AcDbEntity
8
1
0
ARC
5
681
100
AcDbEntity
8
1
100
AcDbCircle
6
CONTINUOUS
62
5
10
143.199987
20
118.950029
40
0.750000
100
AcDbArc
50
-89.999999
51
0.000000
0
LINE
5
682
100
AcDbEntity
8
1
100
AcDbLine
6
CONTINUOUS
62
5
10
143.199987
20
118.200029
11
138.199989
21
118.200029
0
ARC
5
683
100
AcDbEntity
8
1
100
AcDbCircle
6
CONTINUOUS
62
5
10
138.199989
20
118.950029
40
0.750000
100
AcDbArc
50
179.999998
51
-89.999999
0
POLYLINE
5
684
100
AcDbEntity
8
1
6
CONTINUOUS
62
5
100
AcDb2dPolyline
66
1
10
0.0
20
0.0
30
0.0
70
0
0
VERTEX
5
685
100
AcDbEntity
8
1
100
AcDbVertex
100
AcDb2dVertex
62
5
10
137.449989
20
118.950029
0
VERTEX
5
686
100
AcDbEntity
8
1
100
AcDbVertex
100
AcDb2dVertex
62
5
10
137.449989
20
123.650028
0
VERTEX
5
687
100
AcDbEntity
8
1
100
AcDbVertex
100
AcDb2dVertex
62
5
10
143.949987
20
123.650028
0
VERTEX
5
688
100
AcDbEntity
8
1
100
AcDbVertex
100
AcDb2dVertex
62
5
10
143.949987
20
118.950029
0
SEQEND
5
689
100
AcDbEntity
8
1
0
POLYLINE
5
68a
100
AcDbEntity
8
1
6
CONTINUOUS
62
5
100
AcDb2dPolyline
66
1
10
0.0
20
0.0
30
0.0
70
0
0
VERTEX
5
68b
100
AcDbEntity
8
1
100
AcDbVertex
100
AcDb2dVertex
62
5
10
128.999997
20
133.112461
0
VERTEX
5
68c
100
AcDbEntity
8
1
100
AcDbVertex
100
AcDb2dVertex
62
5
10
128.999997
20
128.800000
0
VERTEX
5
68d
100
AcDbEntity
8
1
100
AcDbVertex
100
AcDb2dVertex
62
5
10
129.899997
20
128.800000
0
SEQEND
5
68e
100
AcDbEntity
8
1
0
LINE
5
68f
100
AcDbEntity
8
1
100
AcDbLine
6
CONTINUOUS
62
5
10
148.699982
20
128.000026
11
148.699982
21
128.800000
0
ARC
5
690
100
AcDbEntity
8
1
100
AcDbCircle
6
CONTINUOUS
62
5
10
147.999997
20
132.600000
40
1.000000
100
AcDbArc
50
-143.131413
51
-89.999999
0
LINE
5
691
100
AcDbEntity
8
1
100
AcDbLine
6
CONTINUOUS
62
5
10
147.999997
20
131.600000
11
148.649997
21
131.600000
0
ARC
5
692
100
AcDbEntity
8
1
100
AcDbCircle
6
CONTINUOUS
62
5
10
148.649997
20
131.100000
40
0.500000
100
AcDbArc
50
0.000000
51
89.999999
0
LINE
5
693
100
AcDbEntity
8
1
100
AcDbLine
6
CONTINUOUS
62
5
10
149.149997
20
131.100000
11
149.149997
21
129.300000
0
ARC
5
694
100
AcDbEntity
8
1
100
AcDbCircle
6
CONTINUOUS
62
5
10
148.649997
20
129.300000
40
0.500000
100
AcDbArc
50
-89.999999
51
-0.000000
0
LINE
5
695
100
AcDbEntity
8
1
100
AcDbLine
6
CONTINUOUS
62
5
10
148.649997
20
128.800000
11
147.999997
21
128.800000
0
ARC
5
696
100
AcDbEntity
8
1
100
AcDbCircle
6
CONTINUOUS
62
5
10
147.999997
20
127.800000
40
1.000000
100
AcDbArc
50
89.999999
51
143.131413
0
LINE
5
697
100
AcDbEntity
8
1
100
AcDbLine
6
CONTINUOUS
62
5
10
148.299997
20
106.750033
11
148.299997
21
104.000034
0
ARC
5
698
100
AcDbEntity
8
1
100
AcDbCircle
6
CONTINUOUS
62
5
10
138.729892
20
105.000034
40
1.000000
100
AcDbArc
50
-89.999999
51
-39.644175
0
LINE
5
699
100
AcDbEntity
8
1
100
AcDbLine
6
CONTINUOUS
62
5
10
139.499913
20
104.362016
11
144.770005
21
110.722471
0
ARC
5
69a
100
AcDbEntity
8
1
100
AcDbCircle
6
CONTINUOUS
62
5
10
143.999913
20
111.360527
40
1.000079
100
AcDbArc
50
-39.643238
51
-0.002167
0
LINE
5
69b
100
AcDbEntity
8
1
100
AcDbLine
6
CONTINUOUS
62
5
10
116.949992
20
123.650028
11
116.699992
21
123.250028
0
ARC
5
69c
100
AcDbEntity
8
1
100
AcDbCircle
6
CONTINUOUS
62
5
10
112.699997
20
127.250000
40
0.500000
100
AcDbArc
50
-66.422252
51
0.000000
0
ARC
5
69d
100
AcDbEntity
8
1
100
AcDbCircle
6
CONTINUOUS
62
5
10
112.699997
20
128.100000
40
0.500000
100
AcDbArc
50
0.000000
51
66.869935
0
LINE
5
69e
100
AcDbEntity
8
1
100
AcDbLine
6
CONTINUOUS
62
5
10
112.899993
20
126.000000
11
113.440062
21
126.000000
0
LINE
5
69f
100
AcDbEntity
8
1
100
AcDbLine
6
CONTINUOUS
62
5
10
112.899993
20
125.300017
11
112.799993
21
125.100017
0
LINE
5
6a0
100
AcDbEntity
8
1
100
AcDbLine
6
CONTINUOUS
62
5
10
111.099994
20
128.900026
11
111.199994
21
129.000026
0
LINE
5
6a1
100
AcDbEntity
8
1
100
AcDbLine
6
CONTINUOUS
62
5
10
110.449994
20
123.650028
11
110.699994
21
123.050028
0
LINE
5
6a2
100
AcDbEntity
8
1
100
AcDbLine
6
CONTINUOUS
62
5
10
111.699997
20
129.900000
11
112.199997
21
129.400000
0
ARC
5
6a3
100
AcDbEntity
8
1
100
AcDbCircle
6
CONTINUOUS
62
5
10
112.699997
20
129.900000
40
0.500000
100
AcDbArc
50
179.999998
51
-89.999999
0
LINE
5
6a4
100
AcDbEntity
8
1
100
AcDbLine
6
CONTINUOUS
62
5
10
112.699997
20
129.400000
11
113.199997
21
129.400000
0
ARC
5
6a5
100
AcDbEntity
8
1
100
AcDbCircle
6
CONTINUOUS
62
5
10
116.199992
20
118.950029
40
0.500000
100
AcDbArc
50
-89.999999
51
-0.000000
0
LINE
5
6a6
100
AcDbEntity
8
1
100
AcDbLine
6
CONTINUOUS
62
5
10
116.199992
20
118.450029
11
111.199994
21
118.450029
0
ARC
5
6a7
100
AcDbEntity
8
1
100
AcDbCircle
6
CONTINUOUS
62
5
10
111.199994
20
118.950029
40
0.500000
100
AcDbArc
50
179.999998
51
-89.999999
0
POLYLINE
5
6a8
100
AcDbEntity
8
1
6
CONTINUOUS
62
5
100
AcDb2dPolyline
66
1
10
0.0
20
0.0
30
0.0
70
0
0
VERTEX
5
6a9
100
AcDbEntity
8
1
100
AcDbVertex
100
AcDb2dVertex
62
5
10
110.699994
20
118.950029
0
VERTEX
5
6aa
100
AcDbEntity
8
1
100
AcDbVertex
100
AcDb2dVertex
62
5
10
110.699994
20
123.050028
0
VERTEX
5
6ab
100
AcDbEntity
8
1
100
AcDbVertex
100
AcDb2dVertex
62
5
10
114.699993
20
123.050028
0
SEQEND
5
6ac
100
AcDbEntity
8
1
0
POLYLINE
5
6ad
100
AcDbEntity
8
1
6
CONTINUOUS
62
5
100
AcDb2dPolyline
66
1
10
0.0
20
0.0
30
0.0
70
0
0
VERTEX
5
6ae
100
AcDbEntity
8
1
100
AcDbVertex
100
AcDb2dVertex
62
5
10
110.699994
20
121.250028
0
VERTEX
5
6af
100
AcDbEntity
8
1
100
AcDbVertex
100
AcDb2dVertex
62
5
10
112.199993
20
120.250029
0
VERTEX
5
6b0
100
AcDbEntity
8
1
100
AcDbVertex
100
AcDb2dVertex
62
5
10
114.699993
20
120.250029
0
VERTEX
5
6b1
100
AcDbEntity
8
1
100
AcDbVertex
100
AcDb2dVertex
62
5
10
114.699993
20
123.250028
0
VERTEX
5
6b2
100
AcDbEntity
8
1
100
AcDbVertex
100
AcDb2dVertex
62
5
10
116.699992
20
123.250028
0
VERTEX
5
6b3
100
AcDbEntity
8
1
100
AcDbVertex
100
AcDb2dVertex
62
5
10
116.699992
20
118.950029
0
SEQEND
5
6b4
100
AcDbEntity
8
1
0
ARC
5
6b5
100
AcDbEntity
8
1
100
AcDbCircle
6
CONTINUOUS
62
5
10
116.199992
20
118.950029
40
0.500000
100
AcDbArc
50
-89.999999
51
0.000000
0
LINE
5
6b6
100
AcDbEntity
8
1
100
AcDbLine
6
CONTINUOUS
62
5
10
116.199992
20
118.450029
11
111.199994
21
118.450029
0
ARC
5
6b7
100
AcDbEntity
8
1
100
AcDbCircle
6
CONTINUOUS
62
5
10
111.199994
20
118.950029
40
0.500000
100
AcDbArc
50
-179.999998
51
-89.999999
0
POLYLINE
5
6b8
100
AcDbEntity
8
1
6
CONTINUOUS
62
5
100
AcDb2dPolyline
66
1
10
0.0
20
0.0
30
0.0
70
0
0
VERTEX
5
6b9
100
AcDbEntity
8
1
100
AcDbVertex
100
AcDb2dVertex
62
5
10
110.699994
20
118.950029
0
VERTEX
5
6ba
100
AcDbEntity
8
1
100
AcDbVertex
100
AcDb2dVertex
62
5
10
110.699994
20
123.050028
0
VERTEX
5
6bb
100
AcDbEntity
8
1
100
AcDbVertex
100
AcDb2dVertex
62
5
10
114.699993
20
123.050028
0
SEQEND
5
6bc
100
AcDbEntity
8
1
0
POLYLINE
5
6bd
100
AcDbEntity
8
1
6
CONTINUOUS
62
5
100
AcDb2dPolyline
66
1
10
0.0
20
0.0
30
0.0
70
0
0
VERTEX
5
6be
100
AcDbEntity
8
1
100
AcDbVertex
100
AcDb2dVertex
62
5
10
114.699993
20
123.250028
0
VERTEX
5
6bf
100
AcDbEntity
8
1
100
AcDbVertex
100
AcDb2dVertex
62
5
10
116.699992
20
123.250028
0
VERTEX
5
6c0
100
AcDbEntity
8
1
100
AcDbVertex
100
AcDb2dVertex
62
5
10
116.699992
20
118.950029
0
SEQEND
5
6c1
100
AcDbEntity
8
1
0
ARC
5
6c2
100
AcDbEntity
8
1
100
AcDbCircle
6
CONTINUOUS
62
5
10
116.199992
20
118.950029
40
0.750000
100
AcDbArc
50
-89.999999
51
0.000000
0
LINE
5
6c3
100
AcDbEntity
8
1
100
AcDbLine
6
CONTINUOUS
62
5
10
116.199992
20
118.200029
11
111.199994
21
118.200029
0
ARC
5
6c4
100
AcDbEntity
8
1
100
AcDbCircle
6
CONTINUOUS
62
5
10
111.199994
20
118.950029
40
0.750000
100
AcDbArc
50
179.999998
51
-89.999999
0
POLYLINE
5
6c5
100
AcDbEntity
8
1
6
CONTINUOUS
62
5
100
AcDb2dPolyline
66
1
10
0.0
20
0.0
30
0.0
70
0
0
VERTEX
5
6c6
100
AcDbEntity
8
1
100
AcDbVertex
100
AcDb2dVertex
62
5
10
110.449994
20
118.950029
0
VERTEX
5
6c7
100
AcDbEntity
8
1
100
AcDbVertex
100
AcDb2dVertex
62
5
10
110.449994
20
123.650028
0
VERTEX
5
6c8
100
AcDbEntity
8
1
100
AcDbVertex
100
AcDb2dVertex
62
5
10
116.949992
20
123.650028
0
VERTEX
5
6c9
100
AcDbEntity
8
1
100
AcDbVertex
100
AcDb2dVertex
62
5
10
116.949992
20
118.950029
0
SEQEND
5
6ca
100
AcDbEntity
8
1
0
POLYLINE
5
6cb
100
AcDbEntity
8
1
6
CONTINUOUS
62
5
100
AcDb2dPolyline
66
1
10
0.0
20
0.0
30
0.0
70
0
0
VERTEX
5
6cc
100
AcDbEntity
8
1
100
AcDbVertex
100
AcDb2dVertex
62
5
10
124.499997
20
128.800000
0
VERTEX
5
6cd
100
AcDbEntity
8
1
100
AcDbVertex
100
AcDb2dVertex
62
5
10
125.399997
20
128.800000
0
VERTEX
5
6ce
100
AcDbEntity
8
1
100
AcDbVertex
100
AcDb2dVertex
62
5
10
125.399997
20
133.112461
0
SEQEND
5
6cf
100
AcDbEntity
8
1
0
LINE
5
6d0
100
AcDbEntity
8
1
100
AcDbLine
6
CONTINUOUS
62
5
10
107.299989
20
132.100024
11
107.199989
21
132.000025
0
LINE
5
6d1
100
AcDbEntity
8
1
100
AcDbLine
6
CONTINUOUS
62
5
10
107.199989
20
128.700017
11
107.299989
21
128.600017
0
ARC
5
6d2
100
AcDbEntity
8
1
100
AcDbCircle
6
CONTINUOUS
62
5
10
107.706600
20
118.003332
40
0.506616
100
AcDbArc
50
-179.626458
51
-96.556729
0
LINE
5
6d3
100
AcDbEntity
8
1
100
AcDbLine
6
CONTINUOUS
62
5
10
107.199995
20
118.800029
11
107.199995
21
118.000029
0
LINE
5
6d4
100
AcDbEntity
8
1
100
AcDbLine
6
CONTINUOUS
62
5
10
106.199989
20
132.000024
11
106.199989
21
131.600000
0
LINE
5
6d5
100
AcDbEntity
8
1
100
AcDbLine
6
CONTINUOUS
62
5
10
106.199989
20
128.800000
11
106.199989
21
128.700017
0
ARC
5
6d6
100
AcDbEntity
8
1
100
AcDbCircle
6
CONTINUOUS
62
5
10
104.999996
20
120.500029
40
0.500000
100
AcDbArc
50
-179.681193
51
-89.999999
0
LINE
5
6d7
100
AcDbEntity
8
1
100
AcDbLine
6
CONTINUOUS
62
5
10
105.799995
20
120.000029
11
104.999996
21
120.000029
0
ARC
5
6d8
100
AcDbEntity
8
1
100
AcDbCircle
6
CONTINUOUS
62
5
10
106.399997
20
127.800000
40
1.000000
100
AcDbArc
50
64.160275
51
89.999999
0
LINE
5
6d9
100
AcDbEntity
8
1
100
AcDbLine
6
CONTINUOUS
62
5
10
106.399997
20
128.800000
11
105.749997
21
128.800000
0
ARC
5
6da
100
AcDbEntity
8
1
100
AcDbCircle
6
CONTINUOUS
62
5
10
105.749997
20
129.300000
40
0.500000
100
AcDbArc
50
-179.999998
51
-89.999999
0
LINE
5
6db
100
AcDbEntity
8
1
100
AcDbLine
6
CONTINUOUS
62
5
10
105.249997
20
129.300000
11
105.249997
21
131.100000
0
ARC
5
6dc
100
AcDbEntity
8
1
100
AcDbCircle
6
CONTINUOUS
62
5
10
105.749997
20
131.100000
40
0.500000
100
AcDbArc
50
89.999999
51
179.999998
0
LINE
5
6dd
100
AcDbEntity
8
1
100
AcDbLine
6
CONTINUOUS
62
5
10
105.749997
20
131.600000
11
106.399997
21
131.600000
0
ARC
5
6de
100
AcDbEntity
8
1
100
AcDbCircle
6
CONTINUOUS
62
5
10
106.399997
20
132.600000
40
1.000000
100
AcDbArc
50
-89.999999
51
-36.860467
0
ARC
5
6df
100
AcDbEntity
8
1
100
AcDbCircle
6
CONTINUOUS
62
5
10
104.999996
20
128.200017
40
0.500000
100
AcDbArc
50
89.999999
51
-179.999998
0
POLYLINE
5
6e0
100
AcDbEntity
8
1
6
CONTINUOUS
62
5
100
AcDb2dPolyline
66
1
10
0.0
20
0.0
30
0.0
70
0
0
VERTEX
5
6e1
100
AcDbEntity
8
1
100
AcDbVertex
100
AcDb2dVertex
62
5
10
104.999996
20
128.700017
0
VERTEX
5
6e2
100
AcDbEntity
8
1
100
AcDbVertex
100
AcDb2dVertex
62
5
10
107.199989
20
128.700017
0
VERTEX
5
6e3
100
AcDbEntity
8
1
100
AcDbVertex
100
AcDb2dVertex
62
5
10
107.199989
20
132.000025
0
VERTEX
5
6e4
100
AcDbEntity
8
1
100
AcDbVertex
100
AcDb2dVertex
62
5
10
104.999996
20
132.000024
0
SEQEND
5
6e5
100
AcDbEntity
8
1
0
ARC
5
6e6
100
AcDbEntity
8
1
100
AcDbCircle
6
CONTINUOUS
62
5
10
104.999996
20
132.500024
40
0.500000
100
AcDbArc
50
-179.681193
51
-89.999999
0
ARC
5
6e7
100
AcDbEntity
8
1
100
AcDbCircle
6
CONTINUOUS
62
5
10
110.399994
20
111.360489
40
1.000000
100
AcDbArc
50
179.999998
51
-140.355824
0
LINE
5
6e8
100
AcDbEntity
8
1
100
AcDbLine
6
CONTINUOUS
62
5
10
109.629973
20
110.722471
11
114.900064
21
104.362016
0
ARC
5
6e9
100
AcDbEntity
8
1
100
AcDbCircle
6
CONTINUOUS
62
5
10
115.670086
20
105.000033
40
1.000000
100
AcDbArc
50
-140.355824
51
-89.999999
0
CIRCLE
5
6ea
100
AcDbEntity
8
1
100
AcDbCircle
6
CONTINUOUS
62
5
10
127.199997
20
109.500032
40
1.500000
0
ARC
5
6eb
100
AcDbEntity
8
1
100
AcDbCircle
6
CONTINUOUS
62
5
10
127.199997
20
131.100000
40
2.700000
100
AcDbArc
50
0.000000
51
179.999998
0
POLYLINE
5
6ec
100
AcDbEntity
8
1
6
CONTINUOUS
62
5
100
AcDb2dPolyline
66
1
10
0.0
20
0.0
30
0.0
70
0
0
VERTEX
5
6ed
100
AcDbEntity
8
1
100
AcDbVertex
100
AcDb2dVertex
62
5
10
124.499997
20
131.100000
0
VERTEX
5
6ee
100
AcDbEntity
8
1
100
AcDbVertex
100
AcDb2dVertex
62
5
10
124.499997
20
128.400000
0
VERTEX
5
6ef
100
AcDbEntity
8
1
100
AcDbVertex
100
AcDb2dVertex
62
5
10
129.899997
20
128.400000
0
VERTEX
5
6f0
100
AcDbEntity
8
1
100
AcDbVertex
100
AcDb2dVertex
62
5
10
129.899997
20
131.100000
0
SEQEND
5
6f1
100
AcDbEntity
8
1
0
ARC
5
6f2
100
AcDbEntity
8
1
100
AcDbCircle
6
CONTINUOUS
62
5
10
123.699989
20
118.250029
40
2.499999
100
AcDbArc
50
89.999999
51
-89.999999
0
LINE
5
6f3
100
AcDbEntity
8
1
100
AcDbLine
6
CONTINUOUS
62
5
10
123.699989
20
115.750030
11
129.199989
21
115.750030
0
ARC
5
6f4
100
AcDbEntity
8
1
100
AcDbCircle
6
CONTINUOUS
62
5
10
129.199989
20
118.250029
40
2.499999
100
AcDbArc
50
-89.999999
51
89.999999
0
LINE
5
6f5
100
AcDbEntity
8
1
100
AcDbLine
6
CONTINUOUS
62
5
10
129.199989
20
120.750029
11
123.699989
21
120.750029
0
ARC
5
6f6
100
AcDbEntity
8
1
100
AcDbCircle
6
CONTINUOUS
62
5
10
123.699989
20
118.250029
40
3.749999
100
AcDbArc
50
89.999999
51
-89.999999
0
LINE
5
6f7
100
AcDbEntity
8
1
100
AcDbLine
6
CONTINUOUS
62
5
10
123.699989
20
114.500030
11
129.199989
21
114.500030
0
ARC
5
6f8
100
AcDbEntity
8
1
100
AcDbCircle
6
CONTINUOUS
62
5
10
129.199989
20
118.250029
40
3.749999
100
AcDbArc
50
-89.999999
51
89.999999
0
LINE
5
6f9
100
AcDbEntity
8
1
100
AcDbLine
6
CONTINUOUS
62
5
10
129.199989
20
122.000028
11
123.699989
21
122.000028
0
ARC
5
6fa
100
AcDbEntity
8
1
100
AcDbCircle
6
CONTINUOUS
62
5
10
129.199989
20
118.250029
40
4.399999
100
AcDbArc
50
-89.999999
51
89.999999
0
LINE
5
6fb
100
AcDbEntity
8
1
100
AcDbLine
6
CONTINUOUS
62
5
10
129.199989
20
122.650028
11
123.699989
21
122.650028
0
ARC
5
6fc
100
AcDbEntity
8
1
100
AcDbCircle
6
CONTINUOUS
62
5
10
123.699989
20
118.250029
40
4.399999
100
AcDbArc
50
89.999999
51
-89.999999
0
LINE
5
6fd
100
AcDbEntity
8
1
100
AcDbLine
6
CONTINUOUS
62
5
10
112.714286
20
107.000017
11
141.685707
21
107.000017
0
ARC
5
6fe
100
AcDbEntity
8
1
100
AcDbCircle
6
CONTINUOUS
62
5
10
109.899994
20
114.350030
40
0.500000
100
AcDbArc
50
-179.999998
51
-89.999999
0
LINE
5
6ff
100
AcDbEntity
8
1
100
AcDbLine
6
CONTINUOUS
62
5
10
109.899994
20
113.850031
11
144.499984
21
113.850031
0
ARC
5
700
100
AcDbEntity
8
1
100
AcDbCircle
6
CONTINUOUS
62
5
10
144.499984
20
114.350030
40
0.500000
100
AcDbArc
50
-89.999999
51
-0.000000
0
LINE
5
701
100
AcDbEntity
8
1
100
AcDbLine
6
CONTINUOUS
62
5
10
142.699997
20
135.100000
11
142.199997
21
135.600000
0
LINE
5
702
100
AcDbEntity
8
1
100
AcDbLine
6
CONTINUOUS
62
5
10
111.699997
20
135.100000
11
112.199997
21
135.600000
0
POLYLINE
5
703
100
AcDbEntity
8
1
6
CONTINUOUS
62
5
100
AcDb2dPolyline
66
1
10
0.0
20
0.0
30
0.0
70
0
0
VERTEX
5
704
100
AcDbEntity
8
1
100
AcDbVertex
100
AcDb2dVertex
62
5
10
143.199984
20
135.600000
0
VERTEX
5
705
100
AcDbEntity
8
1
100
AcDbVertex
100
AcDb2dVertex
62
5
10
142.199997
20
135.600000
0
VERTEX
5
706
100
AcDbEntity
8
1
100
AcDbVertex
100
AcDb2dVertex
62
5
10
142.199997
20
129.400000
0
VERTEX
5
707
100
AcDbEntity
8
1
100
AcDbVertex
100
AcDb2dVertex
62
5
10
143.199984
20
129.400000
0
SEQEND
5
708
100
AcDbEntity
8
1
0
POLYLINE
5
709
100
AcDbEntity
8
1
6
CONTINUOUS
62
5
100
AcDb2dPolyline
66
1
10
0.0
20
0.0
30
0.0
70
0
0
VERTEX
5
70a
100
AcDbEntity
8
1
100
AcDbVertex
100
AcDb2dVertex
62
5
10
143.199984
20
129.900000
0
VERTEX
5
70b
100
AcDbEntity
8
1
100
AcDbVertex
100
AcDb2dVertex
62
5
10
142.699997
20
129.900000
0
VERTEX
5
70c
100
AcDbEntity
8
1
100
AcDbVertex
100
AcDb2dVertex
62
5
10
142.699997
20
135.100000
0
VERTEX
5
70d
100
AcDbEntity
8
1
100
AcDbVertex
100
AcDb2dVertex
62
5
10
143.199984
20
135.100000
0
SEQEND
5
70e
100
AcDbEntity
8
1
0
POLYLINE
5
70f
100
AcDbEntity
8
1
6
CONTINUOUS
62
5
100
AcDb2dPolyline
66
1
10
0.0
20
0.0
30
0.0
70
0
0
VERTEX
5
710
100
AcDbEntity
8
1
100
AcDbVertex
100
AcDb2dVertex
62
5
10
111.199994
20
135.600000
0
VERTEX
5
711
100
AcDbEntity
8
1
100
AcDbVertex
100
AcDb2dVertex
62
5
10
112.199997
20
135.600000
0
VERTEX
5
712
100
AcDbEntity
8
1
100
AcDbVertex
100
AcDb2dVertex
62
5
10
112.199997
20
129.400000
0
VERTEX
5
713
100
AcDbEntity
8
1
100
AcDbVertex
100
AcDb2dVertex
62
5
10
111.199994
20
129.400000
0
SEQEND
5
714
100
AcDbEntity
8
1
0
POLYLINE
5
715
100
AcDbEntity
8
1
6
CONTINUOUS
62
5
100
AcDb2dPolyline
66
1
10
0.0
20
0.0
30
0.0
70
0
0
VERTEX
5
716
100
AcDbEntity
8
1
100
AcDbVertex
100
AcDb2dVertex
62
5
10
111.199994
20
129.900000
0
VERTEX
5
717
100
AcDbEntity
8
1
100
AcDbVertex
100
AcDb2dVertex
62
5
10
111.699997
20
129.900000
0
VERTEX
5
718
100
AcDbEntity
8
1
100
AcDbVertex
100
AcDb2dVertex
62
5
10
111.699997
20
135.100000
0
VERTEX
5
719
100
AcDbEntity
8
1
100
AcDbVertex
100
AcDb2dVertex
62
5
10
111.199994
20
135.100000
0
SEQEND
5
71a
100
AcDbEntity
8
1
0
ARC
5
71b
100
AcDbEntity
8
1
100
AcDbCircle
6
CONTINUOUS
62
5
10
117.199997
20
128.500000
40
1.000000
100
AcDbArc
50
179.999998
51
-89.999999
0
LINE
5
71c
100
AcDbEntity
8
1
100
AcDbLine
6
CONTINUOUS
62
5
10
117.199997
20
127.500000
11
137.199997
21
127.500000
0
ARC
5
71d
100
AcDbEntity
8
1
100
AcDbCircle
6
CONTINUOUS
62
5
10
137.199997
20
128.500000
40
1.000000
100
AcDbArc
50
-89.999999
51
0.000000
0
LINE
5
71e
100
AcDbEntity
8
1
100
AcDbLine
6
CONTINUOUS
62
5
10
138.199997
20
128.500000
11
138.199997
21
133.821211
0
ARC
5
71f
100
AcDbEntity
8
1
100
AcDbCircle
6
CONTINUOUS
62
5
10
137.199997
20
133.821211
40
1.000000
100
AcDbArc
50
0.000000
51
82.233565
0
ARC
5
720
100
AcDbEntity
8
1
100
AcDbCircle
6
CONTINUOUS
62
5
10
127.199997
20
60.500000
40
75.000000
100
AcDbArc
50
82.233565
51
97.766433
0
ARC
5
721
100
AcDbEntity
8
1
100
AcDbCircle
6
CONTINUOUS
62
5
10
117.199997
20
133.821211
40
1.000000
100
AcDbArc
50
97.766433
51
179.999998
0
LINE
5
722
100
AcDbEntity
8
1
100
AcDbLine
6
CONTINUOUS
62
5
10
116.199997
20
133.821211
11
116.199997
21
128.500000
0
ARC
5
723
100
AcDbEntity
8
1
100
AcDbCircle
6
CONTINUOUS
62
5
10
148.951305
20
132.250394
40
0.500364
100
AcDbArc
50
-179.875091
51
-0.041624
0
LINE
5
724
100
AcDbEntity
8
1
100
AcDbLine
6
CONTINUOUS
62
5
10
149.451669
20
132.250031
11
149.451669
21
141.750031
0
ARC
5
725
100
AcDbEntity
8
1
100
AcDbCircle
6
CONTINUOUS
62
5
10
148.951305
20
141.749667
40
0.500364
100
AcDbArc
50
0.041625
51
179.875091
0
LINE
5
726
100
AcDbEntity
8
1
100
AcDbLine
6
CONTINUOUS
62
5
10
148.450943
20
141.750758
11
148.450943
21
132.249303
0
ARC
5
727
100
AcDbEntity
8
1
100
AcDbCircle
6
CONTINUOUS
62
5
10
148.699982
20
141.750031
40
0.500000
100
AcDbArc
50
89.999999
51
179.999998
0
LINE
5
728
100
AcDbEntity
8
1
100
AcDbLine
6
CONTINUOUS
62
5
10
148.699982
20
142.250031
11
149.199982
21
142.250031
0
ARC
5
729
100
AcDbEntity
8
1
100
AcDbCircle
6
CONTINUOUS
62
5
10
149.199982
20
141.750031
40
0.500000
100
AcDbArc
50
-0.000000
51
89.999999
0
LINE
5
72a
100
AcDbEntity
8
1
100
AcDbLine
6
CONTINUOUS
62
5
10
149.699982
20
141.750031
11
149.699982
21
132.250030
0
ARC
5
72b
100
AcDbEntity
8
1
100
AcDbCircle
6
CONTINUOUS
62
5
10
149.199982
20
132.250030
40
0.500000
100
AcDbArc
50
-89.999999
51
-0.000000
0
LINE
5
72c
100
AcDbEntity
8
1
100
AcDbLine
6
CONTINUOUS
62
5
10
149.199982
20
131.750031
11
148.699982
21
131.750031
0
ARC
5
72d
100
AcDbEntity
8
1
100
AcDbCircle
6
CONTINUOUS
62
5
10
148.699982
20
132.250030
40
0.500000
100
AcDbArc
50
179.999998
51
-89.999999
0
ARC
5
72e
100
AcDbEntity
8
1
100
AcDbCircle
6
CONTINUOUS
62
5
10
149.899982
20
144.300022
40
0.500000
100
AcDbArc
50
-0.000000
51
89.999999
0
ARC
5
72f
100
AcDbEntity
8
1
100
AcDbCircle
6
CONTINUOUS
62
5
10
149.899982
20
129.700026
40
0.500000
100
AcDbArc
50
-89.999999
51
-0.000000
0
LINE
5
730
100
AcDbEntity
8
1
100
AcDbLine
6
CONTINUOUS
62
5
10
149.899982
20
129.200026
11
149.139900
21
129.200026
0
LINE
5
731
100
AcDbEntity
8
1
100
AcDbLine
6
CONTINUOUS
62
5
10
148.199983
20
131.600000
11
148.199983
21
142.300000
0
LINE
5
732
100
AcDbEntity
8
1
100
AcDbLine
6
CONTINUOUS
62
5
10
149.289890
20
144.800021
11
149.899982
21
144.800021
0
ARC
5
733
100
AcDbEntity
8
1
100
AcDbCircle
6
CONTINUOUS
62
5
10
149.899982
20
146.500021
40
0.500000
100
AcDbArc
50
-89.999999
51
0.000000
0
POLYLINE
5
734
100
AcDbEntity
8
1
6
CONTINUOUS
62
5
100
AcDb2dPolyline
66
1
10
0.0
20
0.0
30
0.0
70
0
0
VERTEX
5
735
100
AcDbEntity
8
1
100
AcDbVertex
100
AcDb2dVertex
62
5
10
149.899982
20
146.000021
0
VERTEX
5
736
100
AcDbEntity
8
1
100
AcDbVertex
100
AcDb2dVertex
62
5
10
147.199983
20
146.000021
0
VERTEX
5
737
100
AcDbEntity
8
1
100
AcDbVertex
100
AcDb2dVertex
62
5
10
147.199983
20
128.000026
0
VERTEX
5
738
100
AcDbEntity
8
1
100
AcDbVertex
100
AcDb2dVertex
62
5
10
149.899982
20
128.000026
0
SEQEND
5
739
100
AcDbEntity
8
1
0
ARC
5
73a
100
AcDbEntity
8
1
100
AcDbCircle
6
CONTINUOUS
62
5
10
149.899982
20
127.500027
40
0.500000
100
AcDbArc
50
-0.000000
51
89.999999
0
POLYLINE
5
73b
100
AcDbEntity
8
1
6
DOT2
62
5
100
AcDb2dPolyline
66
1
10
0.0
20
0.0
30
0.0
70
0
0
VERTEX
5
73c
100
AcDbEntity
8
1
100
AcDbVertex
100
AcDb2dVertex
62
5
10
71.375003
20
159.375017
0
VERTEX
5
73d
100
AcDbEntity
8
1
100
AcDbVertex
100
AcDb2dVertex
62
5
10
70.750003
20
160.312517
0
VERTEX
5
73e
100
AcDbEntity
8
1
100
AcDbVertex
100
AcDb2dVertex
62
5
10
78.250003
20
160.312517
0
SEQEND
5
73f
100
AcDbEntity
8
1
0
LINE
5
740
100
AcDbEntity
8
1
100
AcDbLine
6
DOT2
62
5
10
78.250003
20
159.687517
11
78.250003
21
160.937517
0
POLYLINE
5
741
100
AcDbEntity
8
1
6
DOT2
62
5
100
AcDb2dPolyline
66
1
10
0.0
20
0.0
30
0.0
70
0
0
VERTEX
5
742
100
AcDbEntity
8
1
100
AcDbVertex
100
AcDb2dVertex
62
5
10
72.937503
20
163.750017
0
VERTEX
5
743
100
AcDbEntity
8
1
100
AcDbVertex
100
AcDb2dVertex
62
5
10
71.375003
20
164.062517
0
VERTEX
5
744
100
AcDbEntity
8
1
100
AcDbVertex
100
AcDb2dVertex
62
5
10
70.750003
20
165.000017
0
VERTEX
5
745
100
AcDbEntity
8
1
100
AcDbVertex
100
AcDb2dVertex
62
5
10
70.750003
20
165.937517
0
VERTEX
5
746
100
AcDbEntity
8
1
100
AcDbVertex
100
AcDb2dVertex
62
5
10
71.062503
20
166.562517
0
VERTEX
5
747
100
AcDbEntity
8
1
100
AcDbVertex
100
AcDb2dVertex
62
5
10
72.000003
20
166.875017
0
VERTEX
5
748
100
AcDbEntity
8
1
100
AcDbVertex
100
AcDb2dVertex
62
5
10
72.937503
20
166.875017
0
VERTEX
5
749
100
AcDbEntity
8
1
100
AcDbVertex
100
AcDb2dVertex
62
5
10
73.875003
20
166.562517
0
VERTEX
5
74a
100
AcDbEntity
8
1
100
AcDbVertex
100
AcDb2dVertex
62
5
10
78.250003
20
163.750017
0
VERTEX
5
74b
100
AcDbEntity
8
1
100
AcDbVertex
100
AcDb2dVertex
62
5
10
78.250003
20
166.875017
0
VERTEX
5
74c
100
AcDbEntity
8
1
100
AcDbVertex
100
AcDb2dVertex
62
5
10
77.312503
20
166.875017
0
SEQEND
5
74d
100
AcDbEntity
8
1
0
POLYLINE
5
74e
100
AcDbEntity
8
1
6
DOT2
62
5
100
AcDb2dPolyline
66
1
10
0.0
20
0.0
30
0.0
70
0
0
VERTEX
5
74f
100
AcDbEntity
8
1
100
AcDbVertex
100
AcDb2dVertex
62
5
10
71.375003
20
154.375017
0
VERTEX
5
750
100
AcDbEntity
8
1
100
AcDbVertex
100
AcDb2dVertex
62
5
10
70.750003
20
155.312517
0
VERTEX
5
751
100
AcDbEntity
8
1
100
AcDbVertex
100
AcDb2dVertex
62
5
10
78.250003
20
155.312517
0
SEQEND
5
752
100
AcDbEntity
8
1
0
LINE
5
753
100
AcDbEntity
8
1
100
AcDbLine
6
DOT2
62
5
10
78.250003
20
154.687517
11
78.250003
21
155.937517
0
LINE
5
754
100
AcDbEntity
8
1
100
AcDbLine
6
CONTINUOUS
62
5
10
127.500000
20
42.000000
11
130.625000
21
42.000000
0
POLYLINE
5
755
100
AcDbEntity
8
1
6
CONTINUOUS
62
5
100
AcDb2dPolyline
66
1
10
0.0
20
0.0
30
0.0
70
0
0
VERTEX
5
756
100
AcDbEntity
8
1
100
AcDbVertex
100
AcDb2dVertex
62
5
10
113.125000
20
45.125000
0
VERTEX
5
757
100
AcDbEntity
8
1
100
AcDbVertex
100
AcDb2dVertex
62
5
10
114.062500
20
45.750000
0
VERTEX
5
758
100
AcDbEntity
8
1
100
AcDbVertex
100
AcDb2dVertex
62
5
10
114.062500
20
38.250000
0
SEQEND
5
759
100
AcDbEntity
8
1
0
LINE
5
75a
100
AcDbEntity
8
1
100
AcDbLine
6
CONTINUOUS
62
5
10
113.437500
20
38.250000
11
114.687500
21
38.250000
0
LINE
5
75b
100
AcDbEntity
8
1
100
AcDbLine
6
CONTINUOUS
62
5
10
117.500000
20
45.750000
11
120.312500
21
45.750000
0
POLYLINE
5
75c
100
AcDbEntity
8
1
6
CONTINUOUS
62
5
100
AcDb2dPolyline
66
1
10
0.0
20
0.0
30
0.0
70
0
0
VERTEX
5
75d
100
AcDbEntity
8
1
100
AcDbVertex
100
AcDb2dVertex
62
5
10
117.500000
20
45.750000
0
VERTEX
5
75e
100
AcDbEntity
8
1
100
AcDbVertex
100
AcDb2dVertex
62
5
10
117.500000
20
42.000000
0
VERTEX
5
75f
100
AcDbEntity
8
1
100
AcDbVertex
100
AcDb2dVertex
62
5
10
118.125000
20
42.625000
0
VERTEX
5
760
100
AcDbEntity
8
1
100
AcDbVertex
100
AcDb2dVertex
62
5
10
118.750000
20
42.937500
0
VERTEX
5
761
100
AcDbEntity
8
1
100
AcDbVertex
100
AcDb2dVertex
62
5
10
119.687500
20
42.937500
0
VERTEX
5
762
100
AcDbEntity
8
1
100
AcDbVertex
100
AcDb2dVertex
62
5
10
120.312500
20
42.625000
0
VERTEX
5
763
100
AcDbEntity
8
1
100
AcDbVertex
100
AcDb2dVertex
62
5
10
120.625000
20
41.687500
0
VERTEX
5
764
100
AcDbEntity
8
1
100
AcDbVertex
100
AcDb2dVertex
62
5
10
120.625000
20
39.812500
0
VERTEX
5
765
100
AcDbEntity
8
1
100
AcDbVertex
100
AcDb2dVertex
62
5
10
120.000000
20
38.875000
0
VERTEX
5
766
100
AcDbEntity
8
1
100
AcDbVertex
100
AcDb2dVertex
62
5
10
119.062500
20
38.250000
0
VERTEX
5
767
100
AcDbEntity
8
1
100
AcDbVertex
100
AcDb2dVertex
62
5
10
117.500000
20
38.250000
0
SEQEND
5
768
100
AcDbEntity
8
1
0
POLYLINE
5
769
100
AcDbEntity
8
1
6
CONTINUOUS
62
5
100
AcDb2dPolyline
66
1
10
0.0
20
0.0
30
0.0
70
0
0
VERTEX
5
76a
100
AcDbEntity
8
1
100
AcDbVertex
100
AcDb2dVertex
62
5
10
122.500000
20
38.250000
0
VERTEX
5
76b
100
AcDbEntity
8
1
100
AcDbVertex
100
AcDb2dVertex
62
5
10
124.062500
20
45.750000
0
VERTEX
5
76c
100
AcDbEntity
8
1
100
AcDbVertex
100
AcDb2dVertex
62
5
10
125.625000
20
38.250000
0
SEQEND
5
76d
100
AcDbEntity
8
1
0
LINE
5
76e
100
AcDbEntity
8
1
100
AcDbLine
6
CONTINUOUS
62
5
10
123.125000
20
40.750000
11
125.000000
21
40.750000
0
POLYLINE
5
76f
100
AcDbEntity
8
1
6
CONTINUOUS
62
5
100
AcDb2dPolyline
66
1
10
0.0
20
0.0
30
0.0
70
0
0
VERTEX
5
770
100
AcDbEntity
8
1
100
AcDbVertex
100
AcDb2dVertex
62
5
10
133.125000
20
45.125000
0
VERTEX
5
771
100
AcDbEntity
8
1
100
AcDbVertex
100
AcDb2dVertex
62
5
10
134.062500
20
45.750000
0
VERTEX
5
772
100
AcDbEntity
8
1
100
AcDbVertex
100
AcDb2dVertex
62
5
10
134.062500
20
38.250000
0
SEQEND
5
773
100
AcDbEntity
8
1
0
LINE
5
774
100
AcDbEntity
8
1
100
AcDbLine
6
CONTINUOUS
62
5
10
133.437500
20
38.250000
11
134.687500
21
38.250000
0
POLYLINE
5
775
100
AcDbEntity
8
1
6
CONTINUOUS
62
5
100
AcDb2dPolyline
66
1
10
0.0
20
0.0
30
0.0
70
0
0
VERTEX
5
776
100
AcDbEntity
8
1
100
AcDbVertex
100
AcDb2dVertex
62
5
10
137.500000
20
43.562500
0
VERTEX
5
777
100
AcDbEntity
8
1
100
AcDbVertex
100
AcDb2dVertex
62
5
10
137.812500
20
45.125000
0
VERTEX
5
778
100
AcDbEntity
8
1
100
AcDbVertex
100
AcDb2dVertex
62
5
10
138.750000
20
45.750000
0
VERTEX
5
779
100
AcDbEntity
8
1
100
AcDbVertex
100
AcDb2dVertex
62
5
10
139.687500
20
45.750000
0
VERTEX
5
77a
100
AcDbEntity
8
1
100
AcDbVertex
100
AcDb2dVertex
62
5
10
140.312500
20
45.437500
0
VERTEX
5
77b
100
AcDbEntity
8
1
100
AcDbVertex
100
AcDb2dVertex
62
5
10
140.625000
20
44.500000
0
VERTEX
5
77c
100
AcDbEntity
8
1
100
AcDbVertex
100
AcDb2dVertex
62
5
10
140.625000
20
43.562500
0
VERTEX
5
77d
100
AcDbEntity
8
1
100
AcDbVertex
100
AcDb2dVertex
62
5
10
140.312500
20
42.625000
0
VERTEX
5
77e
100
AcDbEntity
8
1
100
AcDbVertex
100
AcDb2dVertex
62
5
10
137.500000
20
38.250000
0
VERTEX
5
77f
100
AcDbEntity
8
1
100
AcDbVertex
100
AcDb2dVertex
62
5
10
140.625000
20
38.250000
0
VERTEX
5
780
100
AcDbEntity
8
1
100
AcDbVertex
100
AcDb2dVertex
62
5
10
140.625000
20
39.187500
0
SEQEND
5
781
100
AcDbEntity
8
1
0
LINE
5
782
100
AcDbEntity
8
1
100
AcDbLine
6
CONTINUOUS
62
5
10
142.500000
20
45.750000
11
145.312500
21
45.750000
0
POLYLINE
5
783
100
AcDbEntity
8
1
6
CONTINUOUS
62
5
100
AcDb2dPolyline
66
1
10
0.0
20
0.0
30
0.0
70
0
0
VERTEX
5
784
100
AcDbEntity
8
1
100
AcDbVertex
100
AcDb2dVertex
62
5
10
142.500000
20
45.750000
0
VERTEX
5
785
100
AcDbEntity
8
1
100
AcDbVertex
100
AcDb2dVertex
62
5
10
142.500000
20
42.000000
0
VERTEX
5
786
100
AcDbEntity
8
1
100
AcDbVertex
100
AcDb2dVertex
62
5
10
143.125000
20
42.625000
0
VERTEX
5
787
100
AcDbEntity
8
1
100
AcDbVertex
100
AcDb2dVertex
62
5
10
143.750000
20
42.937500
0
VERTEX
5
788
100
AcDbEntity
8
1
100
AcDbVertex
100
AcDb2dVertex
62
5
10
144.687500
20
42.937500
0
VERTEX
5
789
100
AcDbEntity
8
1
100
AcDbVertex
100
AcDb2dVertex
62
5
10
145.312500
20
42.625000
0
VERTEX
5
78a
100
AcDbEntity
8
1
100
AcDbVertex
100
AcDb2dVertex
62
5
10
145.625000
20
41.687500
0
VERTEX
5
78b
100
AcDbEntity
8
1
100
AcDbVertex
100
AcDb2dVertex
62
5
10
145.625000
20
39.812500
0
VERTEX
5
78c
100
AcDbEntity
8
1
100
AcDbVertex
100
AcDb2dVertex
62
5
10
145.000000
20
38.875000
0
VERTEX
5
78d
100
AcDbEntity
8
1
100
AcDbVertex
100
AcDb2dVertex
62
5
10
144.062500
20
38.250000
0
VERTEX
5
78e
100
AcDbEntity
8
1
100
AcDbVertex
100
AcDb2dVertex
62
5
10
142.500000
20
38.250000
0
SEQEND
5
78f
100
AcDbEntity
8
1
0
POLYLINE
5
790
100
AcDbEntity
8
1
6
CONTINUOUS
62
5
100
AcDb2dPolyline
66
1
10
0.0
20
0.0
30
0.0
70
0
0
VERTEX
5
791
100
AcDbEntity
8
1
100
AcDbVertex
100
AcDb2dVertex
62
5
10
147.500000
20
45.750000
0
VERTEX
5
792
100
AcDbEntity
8
1
100
AcDbVertex
100
AcDb2dVertex
62
5
10
149.062500
20
38.250000
0
VERTEX
5
793
100
AcDbEntity
8
1
100
AcDbVertex
100
AcDb2dVertex
62
5
10
150.625000
20
45.750000
0
SEQEND
5
794
100
AcDbEntity
8
1
0
POLYLINE
5
795
100
AcDbEntity
8
1
6
CONTINUOUS
62
5
100
AcDb2dPolyline
66
1
10
0.0
20
0.0
30
0.0
70
0
0
VERTEX
5
796
100
AcDbEntity
8
1
100
AcDbVertex
100
AcDb2dVertex
62
5
10
157.500000
20
38.250000
0
VERTEX
5
797
100
AcDbEntity
8
1
100
AcDbVertex
100
AcDb2dVertex
62
5
10
159.062500
20
45.750000
0
VERTEX
5
798
100
AcDbEntity
8
1
100
AcDbVertex
100
AcDb2dVertex
62
5
10
160.625000
20
38.250000
0
SEQEND
5
799
100
AcDbEntity
8
1
0
LINE
5
79a
100
AcDbEntity
8
1
100
AcDbLine
6
CONTINUOUS
62
5
10
158.125000
20
40.750000
11
160.000000
21
40.750000
0
POLYLINE
5
79b
100
AcDbEntity
8
1
6
CONTINUOUS
62
5
100
AcDb2dPolyline
66
1
10
0.0
20
0.0
30
0.0
70
0
0
VERTEX
5
79c
100
AcDbEntity
8
1
100
AcDbVertex
100
AcDb2dVertex
62
5
10
165.625000
20
44.187500
0
VERTEX
5
79d
100
AcDbEntity
8
1
100
AcDbVertex
100
AcDb2dVertex
62
5
10
165.312500
20
45.125000
0
VERTEX
5
79e
100
AcDbEntity
8
1
100
AcDbVertex
100
AcDb2dVertex
62
5
10
164.687500
20
45.750000
0
VERTEX
5
79f
100
AcDbEntity
8
1
100
AcDbVertex
100
AcDb2dVertex
62
5
10
163.750000
20
45.750000
0
VERTEX
5
7a0
100
AcDbEntity
8
1
100
AcDbVertex
100
AcDb2dVertex
62
5
10
162.812500
20
44.812500
0
VERTEX
5
7a1
100
AcDbEntity
8
1
100
AcDbVertex
100
AcDb2dVertex
62
5
10
162.500000
20
43.250000
0
VERTEX
5
7a2
100
AcDbEntity
8
1
100
AcDbVertex
100
AcDb2dVertex
62
5
10
162.500000
20
40.750000
0
VERTEX
5
7a3
100
AcDbEntity
8
1
100
AcDbVertex
100
AcDb2dVertex
62
5
10
162.812500
20
39.187500
0
VERTEX
5
7a4
100
AcDbEntity
8
1
100
AcDbVertex
100
AcDb2dVertex
62
5
10
163.750000
20
38.250000
0
VERTEX
5
7a5
100
AcDbEntity
8
1
100
AcDbVertex
100
AcDb2dVertex
62
5
10
164.687500
20
38.250000
0
VERTEX
5
7a6
100
AcDbEntity
8
1
100
AcDbVertex
100
AcDb2dVertex
62
5
10
165.312500
20
38.875000
0
VERTEX
5
7a7
100
AcDbEntity
8
1
100
AcDbVertex
100
AcDb2dVertex
62
5
10
165.937500
20
40.437500
0
SEQEND
5
7a8
100
AcDbEntity
8
1
0
LINE
5
7a9
100
AcDbEntity
8
1
100
AcDbLine
6
CONTINUOUS
62
5
10
100.000000
20
54.000000
11
100.000000
21
30.000000
0
LINE
5
7aa
100
AcDbEntity
8
1
100
AcDbLine
6
CONTINUOUS
62
5
10
64.687500
20
46.375000
11
64.687500
21
45.437500
0
POLYLINE
5
7ab
100
AcDbEntity
8
1
6
CONTINUOUS
62
5
100
AcDb2dPolyline
66
1
10
0.0
20
0.0
30
0.0
70
0
0
VERTEX
5
7ac
100
AcDbEntity
8
1
100
AcDbVertex
100
AcDb2dVertex
62
5
10
60.937500
20
43.250000
0
VERTEX
5
7ad
100
AcDbEntity
8
1
100
AcDbVertex
100
AcDb2dVertex
62
5
10
60.937500
20
45.437500
0
VERTEX
5
7ae
100
AcDbEntity
8
1
100
AcDbVertex
100
AcDb2dVertex
62
5
10
68.437500
20
45.437500
0
VERTEX
5
7af
100
AcDbEntity
8
1
100
AcDbVertex
100
AcDb2dVertex
62
5
10
68.437500
20
43.250000
0
SEQEND
5
7b0
100
AcDbEntity
8
1
0
LINE
5
7b1
100
AcDbEntity
8
1
100
AcDbLine
6
CONTINUOUS
62
5
10
61.875000
20
43.562500
11
67.500000
21
43.562500
0
LINE
5
7b2
100
AcDbEntity
8
1
100
AcDbLine
6
CONTINUOUS
62
5
10
64.687500
20
43.562500
11
64.687500
21
38.250000
0
LINE
5
7b3
100
AcDbEntity
8
1
100
AcDbLine
6
CONTINUOUS
62
5
10
64.687500
20
41.062500
11
67.500000
21
41.062500
0
POLYLINE
5
7b4
100
AcDbEntity
8
1
6
CONTINUOUS
62
5
100
AcDb2dPolyline
66
1
10
0.0
20
0.0
30
0.0
70
0
0
VERTEX
5
7b5
100
AcDbEntity
8
1
100
AcDbVertex
100
AcDb2dVertex
62
5
10
62.500000
20
41.687500
0
VERTEX
5
7b6
100
AcDbEntity
8
1
100
AcDbVertex
100
AcDb2dVertex
62
5
10
62.187500
20
39.812500
0
VERTEX
5
7b7
100
AcDbEntity
8
1
100
AcDbVertex
100
AcDb2dVertex
62
5
10
61.562500
20
38.562500
0
VERTEX
5
7b8
100
AcDbEntity
8
1
100
AcDbVertex
100
AcDb2dVertex
62
5
10
60.625000
20
37.625000
0
SEQEND
5
7b9
100
AcDbEntity
8
1
0
POLYLINE
5
7ba
100
AcDbEntity
8
1
6
CONTINUOUS
62
5
100
AcDb2dPolyline
66
1
10
0.0
20
0.0
30
0.0
70
0
0
VERTEX
5
7bb
100
AcDbEntity
8
1
100
AcDbVertex
100
AcDb2dVertex
62
5
10
62.187500
20
39.812500
0
VERTEX
5
7bc
100
AcDbEntity
8
1
100
AcDbVertex
100
AcDb2dVertex
62
5
10
64.687500
20
38.250000
0
VERTEX
5
7bd
100
AcDbEntity
8
1
100
AcDbVertex
100
AcDb2dVertex
62
5
10
65.937500
20
37.937500
0
VERTEX
5
7be
100
AcDbEntity
8
1
100
AcDbVertex
100
AcDb2dVertex
62
5
10
69.062500
20
37.625000
0
SEQEND
5
7bf
100
AcDbEntity
8
1
0
LINE
5
7c0
100
AcDbEntity
8
1
100
AcDbLine
6
CONTINUOUS
62
5
10
80.625000
20
44.187500
11
83.750000
21
44.187500
0
LINE
5
7c1
100
AcDbEntity
8
1
100
AcDbLine
6
CONTINUOUS
62
5
10
82.500000
20
46.375000
11
82.500000
21
37.625000
0
POLYLINE
5
7c2
100
AcDbEntity
8
1
6
CONTINUOUS
62
5
100
AcDb2dPolyline
66
1
10
0.0
20
0.0
30
0.0
70
0
0
VERTEX
5
7c3
100
AcDbEntity
8
1
100
AcDbVertex
100
AcDb2dVertex
62
5
10
82.500000
20
44.187500
0
VERTEX
5
7c4
100
AcDbEntity
8
1
100
AcDbVertex
100
AcDb2dVertex
62
5
10
81.562500
20
42.000000
0
VERTEX
5
7c5
100
AcDbEntity
8
1
100
AcDbVertex
100
AcDb2dVertex
62
5
10
80.625000
20
40.750000
0
SEQEND
5
7c6
100
AcDbEntity
8
1
0
LINE
5
7c7
100
AcDbEntity
8
1
100
AcDbLine
6
CONTINUOUS
62
5
10
82.500000
20
43.250000
11
83.437500
21
42.000000
0
POLYLINE
5
7c8
100
AcDbEntity
8
1
6
CONTINUOUS
62
5
100
AcDb2dPolyline
66
1
10
0.0
20
0.0
30
0.0
70
0
0
VERTEX
5
7c9
100
AcDbEntity
8
1
100
AcDbVertex
100
AcDb2dVertex
62
5
10
85.937500
20
46.375000
0
VERTEX
5
7ca
100
AcDbEntity
8
1
100
AcDbVertex
100
AcDb2dVertex
62
5
10
85.312500
20
45.125000
0
VERTEX
5
7cb
100
AcDbEntity
8
1
100
AcDbVertex
100
AcDb2dVertex
62
5
10
83.750000
20
43.250000
0
SEQEND
5
7cc
100
AcDbEntity
8
1
0
POLYLINE
5
7cd
100
AcDbEntity
8
1
6
CONTINUOUS
62
5
100
AcDb2dPolyline
66
1
10
0.0
20
0.0
30
0.0
70
0
0
VERTEX
5
7ce
100
AcDbEntity
8
1
100
AcDbVertex
100
AcDb2dVertex
62
5
10
85.312500
20
45.125000
0
VERTEX
5
7cf
100
AcDbEntity
8
1
100
AcDbVertex
100
AcDb2dVertex
62
5
10
88.437500
20
45.125000
0
VERTEX
5
7d0
100
AcDbEntity
8
1
100
AcDbVertex
100
AcDb2dVertex
62
5
10
87.500000
20
43.562500
0
VERTEX
5
7d1
100
AcDbEntity
8
1
100
AcDbVertex
100
AcDb2dVertex
62
5
10
85.937500
20
42.000000
0
VERTEX
5
7d2
100
AcDbEntity
8
1
100
AcDbVertex
100
AcDb2dVertex
62
5
10
83.750000
20
40.750000
0
SEQEND
5
7d3
100
AcDbEntity
8
1
0
POLYLINE
5
7d4
100
AcDbEntity
8
1
6
CONTINUOUS
62
5
100
AcDb2dPolyline
66
1
10
0.0
20
0.0
30
0.0
70
0
0
VERTEX
5
7d5
100
AcDbEntity
8
1
100
AcDbVertex
100
AcDb2dVertex
62
5
10
85.312500
20
45.125000
0
VERTEX
5
7d6
100
AcDbEntity
8
1
100
AcDbVertex
100
AcDb2dVertex
62
5
10
85.937500
20
43.562500
0
VERTEX
5
7d7
100
AcDbEntity
8
1
100
AcDbVertex
100
AcDb2dVertex
62
5
10
87.187500
20
42.000000
0
VERTEX
5
7d8
100
AcDbEntity
8
1
100
AcDbVertex
100
AcDb2dVertex
62
5
10
88.125000
20
41.375000
0
VERTEX
5
7d9
100
AcDbEntity
8
1
100
AcDbVertex
100
AcDb2dVertex
62
5
10
89.375000
20
40.750000
0
SEQEND
5
7da
100
AcDbEntity
8
1
0
POLYLINE
5
7db
100
AcDbEntity
8
1
6
CONTINUOUS
62
5
100
AcDb2dPolyline
66
1
10
0.0
20
0.0
30
0.0
70
1
0
VERTEX
5
7dc
100
AcDbEntity
8
1
100
AcDbVertex
100
AcDb2dVertex
62
5
10
85.000000
20
40.750000
0
VERTEX
5
7dd
100
AcDbEntity
8
1
100
AcDbVertex
100
AcDb2dVertex
62
5
10
85.000000
20
37.937500
0
VERTEX
5
7de
100
AcDbEntity
8
1
100
AcDbVertex
100
AcDb2dVertex
62
5
10
88.437500
20
37.937500
0
VERTEX
5
7df
100
AcDbEntity
8
1
100
AcDbVertex
100
AcDb2dVertex
62
5
10
88.437500
20
40.750000
0
VERTEX
5
7e0
100
AcDbEntity
8
1
100
AcDbVertex
100
AcDb2dVertex
62
5
10
85.000000
20
40.750000
0
SEQEND
5
7e1
100
AcDbEntity
8
1
0
POLYLINE
5
7e2
100
AcDbEntity
8
1
6
CONTINUOUS
62
5
100
AcDb2dPolyline
66
1
10
0.0
20
0.0
30
0.0
70
1
0
VERTEX
5
7e3
100
AcDbEntity
8
1
100
AcDbVertex
100
AcDb2dVertex
62
5
10
290.000000
20
30.000000
0
VERTEX
5
7e4
100
AcDbEntity
8
1
100
AcDbVertex
100
AcDb2dVertex
62
5
10
290.000000
20
54.000000
0
VERTEX
5
7e5
100
AcDbEntity
8
1
100
AcDbVertex
100
AcDb2dVertex
62
5
10
50.000000
20
54.000000
0
VERTEX
5
7e6
100
AcDbEntity
8
1
100
AcDbVertex
100
AcDb2dVertex
62
5
10
50.000000
20
30.000000
0
VERTEX
5
7e7
100
AcDbEntity
8
1
100
AcDbVertex
100
AcDb2dVertex
62
5
10
290.000000
20
30.000000
0
SEQEND
5
7e8
100
AcDbEntity
8
1
0
LINE
5
7e9
100
AcDbEntity
8
1
100
AcDbLine
6
CONTINUOUS
62
5
10
235.499997
20
172.300000
11
235.499997
21
243.000000
0
POLYLINE
5
7ea
100
AcDbEntity
8
1
6
CONTINUOUS
62
5
100
AcDb2dPolyline
66
1
10
0.0
20
0.0
30
0.0
70
0
0
VERTEX
5
7eb
100
AcDbEntity
8
1
100
AcDbVertex
100
AcDb2dVertex
62
5
10
266.749997
20
241.000000
0
VERTEX
5
7ec
100
AcDbEntity
8
1
100
AcDbVertex
100
AcDb2dVertex
62
5
10
235.499997
20
241.000000
0
VERTEX
5
7ed
100
AcDbEntity
8
1
100
AcDbVertex
100
AcDb2dVertex
62
5
10
241.499997
20
242.000000
0
VERTEX
5
7ee
100
AcDbEntity
8
1
100
AcDbVertex
100
AcDb2dVertex
62
5
10
241.499997
20
240.000000
0
VERTEX
5
7ef
100
AcDbEntity
8
1
100
AcDbVertex
100
AcDb2dVertex
62
5
10
235.499997
20
241.000000
0
VERTEX
5
7f0
100
AcDbEntity
8
1
100
AcDbVertex
100
AcDb2dVertex
62
5
10
241.499997
20
241.500000
0
VERTEX
5
7f1
100
AcDbEntity
8
1
100
AcDbVertex
100
AcDb2dVertex
62
5
10
241.499997
20
240.500000
0
VERTEX
5
7f2
100
AcDbEntity
8
1
100
AcDbVertex
100
AcDb2dVertex
62
5
10
235.499997
20
241.000000
0
SEQEND
5
7f3
100
AcDbEntity
8
1
0
LINE
5
7f4
100
AcDbEntity
8
1
100
AcDbLine
6
CONTINUOUS
62
5
10
235.499997
20
241.000000
11
202.025002
21
241.000000
0
LINE
5
7f5
100
AcDbEntity
8
1
100
AcDbLine
6
CONTINUOUS
62
5
10
199.025002
20
241.000000
11
202.025002
21
241.000000
0
LINE
5
7f6
100
AcDbEntity
8
1
100
AcDbLine
6
CONTINUOUS
62
5
10
106.500002
20
216.000000
11
77.500003
21
216.000000
0
LINE
5
7f7
100
AcDbEntity
8
1
100
AcDbLine
6
CONTINUOUS
62
5
10
106.500002
20
104.000034
11
77.500003
21
104.000034
0
POLYLINE
5
7f8
100
AcDbEntity
8
1
6
CONTINUOUS
62
5
100
AcDb2dPolyline
66
1
10
0.0
20
0.0
30
0.0
70
0
0
VERTEX
5
7f9
100
AcDbEntity
8
1
100
AcDbVertex
100
AcDb2dVertex
62
5
10
79.500003
20
160.000017
0
VERTEX
5
7fa
100
AcDbEntity
8
1
100
AcDbVertex
100
AcDb2dVertex
62
5
10
79.500003
20
104.000034
0
VERTEX
5
7fb
100
AcDbEntity
8
1
100
AcDbVertex
100
AcDb2dVertex
62
5
10
78.500003
20
110.000034
0
VERTEX
5
7fc
100
AcDbEntity
8
1
100
AcDbVertex
100
AcDb2dVertex
62
5
10
80.500003
20
110.000034
0
VERTEX
5
7fd
100
AcDbEntity
8
1
100
AcDbVertex
100
AcDb2dVertex
62
5
10
79.500003
20
104.000034
0
VERTEX
5
7fe
100
AcDbEntity
8
1
100
AcDbVertex
100
AcDb2dVertex
62
5
10
79.000003
20
110.000034
0
VERTEX
5
7ff
100
AcDbEntity
8
1
100
AcDbVertex
100
AcDb2dVertex
62
5
10
80.000003
20
110.000034
0
VERTEX
5
800
100
AcDbEntity
8
1
100
AcDbVertex
100
AcDb2dVertex
62
5
10
79.500003
20
104.000034
0
SEQEND
5
801
100
AcDbEntity
8
1
0
POLYLINE
5
802
100
AcDbEntity
8
1
6
CONTINUOUS
62
5
100
AcDb2dPolyline
66
1
10
0.0
20
0.0
30
0.0
70
0
0
VERTEX
5
803
100
AcDbEntity
8
1
100
AcDbVertex
100
AcDb2dVertex
62
5
10
79.500003
20
160.000017
0
VERTEX
5
804
100
AcDbEntity
8
1
100
AcDbVertex
100
AcDb2dVertex
62
5
10
79.500003
20
216.000000
0
VERTEX
5
805
100
AcDbEntity
8
1
100
AcDbVertex
100
AcDb2dVertex
62
5
10
80.500003
20
210.000000
0
VERTEX
5
806
100
AcDbEntity
8
1
100
AcDbVertex
100
AcDb2dVertex
62
5
10
78.500003
20
210.000000
0
VERTEX
5
807
100
AcDbEntity
8
1
100
AcDbVertex
100
AcDb2dVertex
62
5
10
79.500003
20
216.000000
0
VERTEX
5
808
100
AcDbEntity
8
1
100
AcDbVertex
100
AcDb2dVertex
62
5
10
80.000003
20
210.000000
0
VERTEX
5
809
100
AcDbEntity
8
1
100
AcDbVertex
100
AcDb2dVertex
62
5
10
79.000003
20
210.000000
0
VERTEX
5
80a
100
AcDbEntity
8
1
100
AcDbVertex
100
AcDb2dVertex
62
5
10
79.500003
20
216.000000
0
SEQEND
5
80b
100
AcDbEntity
8
1
0
ARC
5
80c
100
AcDbEntity
8
1
100
AcDbCircle
6
CONTINUOUS
62
5
10
229.199997
20
179.108027
40
2.000000
100
AcDbArc
50
0.000000
51
86.820169
0
LINE
5
80d
100
AcDbEntity
8
1
100
AcDbLine
6
CONTINUOUS
62
5
10
223.699997
20
181.500000
11
229.310937
21
181.104948
0
ARC
5
80e
100
AcDbEntity
8
1
100
AcDbCircle
6
CONTINUOUS
62
5
10
223.199997
20
178.500000
40
0.500000
100
AcDbArc
50
-45.571290
51
-0.000000
0
POLYLINE
5
80f
100
AcDbEntity
8
1
6
CONTINUOUS
62
5
100
AcDb2dPolyline
66
1
10
0.0
20
0.0
30
0.0
70
0
0
VERTEX
5
810
100
AcDbEntity
8
1
100
AcDbVertex
100
AcDb2dVertex
62
5
10
223.550007
20
183.284980
0
VERTEX
5
811
100
AcDbEntity
8
1
100
AcDbVertex
100
AcDb2dVertex
62
5
10
223.699997
20
183.000000
0
VERTEX
5
812
100
AcDbEntity
8
1
100
AcDbVertex
100
AcDb2dVertex
62
5
10
223.699997
20
178.500000
0
SEQEND
5
813
100
AcDbEntity
8
1
0
ARC
5
814
100
AcDbEntity
8
1
100
AcDbCircle
6
CONTINUOUS
62
5
10
230.199997
20
178.960066
40
0.500000
100
AcDbArc
50
-85.236358
51
0.000000
0
LINE
5
815
100
AcDbEntity
8
1
100
AcDbLine
6
CONTINUOUS
62
5
10
230.699997
20
178.960066
11
230.699997
21
180.039934
0
ARC
5
816
100
AcDbEntity
8
1
100
AcDbCircle
6
CONTINUOUS
62
5
10
230.199997
20
180.039934
40
0.500000
100
AcDbArc
50
0.000000
51
85.236358
0
LINE
5
817
100
AcDbEntity
8
1
100
AcDbLine
6
CONTINUOUS
62
5
10
230.241519
20
180.538206
11
223.699997
21
181.000000
0
POLYLINE
5
818
100
AcDbEntity
8
1
6
CONTINUOUS
62
5
100
AcDb2dPolyline
66
1
10
0.0
20
0.0
30
0.0
70
0
0
VERTEX
5
819
100
AcDbEntity
8
1
100
AcDbVertex
100
AcDb2dVertex
62
5
10
223.550007
20
178.000000
0
VERTEX
5
81a
100
AcDbEntity
8
1
100
AcDbVertex
100
AcDb2dVertex
62
5
10
223.699997
20
178.000000
0
VERTEX
5
81b
100
AcDbEntity
8
1
100
AcDbVertex
100
AcDb2dVertex
62
5
10
230.241519
20
178.461794
0
SEQEND
5
81c
100
AcDbEntity
8
1
0
ARC
5
81d
100
AcDbEntity
8
1
100
AcDbCircle
6
CONTINUOUS
62
5
10
229.199997
20
191.585067
40
2.000000
100
AcDbArc
50
0.000000
51
87.510446
0
LINE
5
81e
100
AcDbEntity
8
1
100
AcDbLine
6
CONTINUOUS
62
5
10
229.286871
20
193.583179
11
223.550007
21
193.832608
0
LINE
5
81f
100
AcDbEntity
8
1
100
AcDbLine
6
CONTINUOUS
62
5
10
231.199997
20
170.634819
11
231.199997
21
191.585067
0
POLYLINE
5
820
100
AcDbEntity
8
1
6
CONTINUOUS
62
5
100
AcDb2dPolyline
66
1
10
0.0
20
0.0
30
0.0
70
1
0
VERTEX
5
821
100
AcDbEntity
8
1
100
AcDbVertex
100
AcDb2dVertex
62
5
10
142.999997
20
175.200000
0
VERTEX
5
822
100
AcDbEntity
8
1
100
AcDbVertex
100
AcDb2dVertex
62
5
10
142.999997
20
183.600000
0
VERTEX
5
823
100
AcDbEntity
8
1
100
AcDbVertex
100
AcDb2dVertex
62
5
10
142.199997
20
183.600000
0
VERTEX
5
824
100
AcDbEntity
8
1
100
AcDbVertex
100
AcDb2dVertex
62
5
10
142.199997
20
175.200000
0
VERTEX
5
825
100
AcDbEntity
8
1
100
AcDbVertex
100
AcDb2dVertex
62
5
10
142.999997
20
175.200000
0
SEQEND
5
826
100
AcDbEntity
8
1
0
POLYLINE
5
827
100
AcDbEntity
8
1
6
CONTINUOUS
62
5
100
AcDb2dPolyline
66
1
10
0.0
20
0.0
30
0.0
70
1
0
VERTEX
5
828
100
AcDbEntity
8
1
100
AcDbVertex
100
AcDb2dVertex
62
5
10
111.399997
20
176.200000
0
VERTEX
5
829
100
AcDbEntity
8
1
100
AcDbVertex
100
AcDb2dVertex
62
5
10
111.399997
20
183.600000
0
VERTEX
5
82a
100
AcDbEntity
8
1
100
AcDbVertex
100
AcDb2dVertex
62
5
10
112.199997
20
183.600000
0
VERTEX
5
82b
100
AcDbEntity
8
1
100
AcDbVertex
100
AcDb2dVertex
62
5
10
112.199997
20
176.200000
0
VERTEX
5
82c
100
AcDbEntity
8
1
100
AcDbVertex
100
AcDb2dVertex
62
5
10
111.399997
20
176.200000
0
SEQEND
5
82d
100
AcDbEntity
8
1
0
ARC
5
82e
100
AcDbEntity
8
1
100
AcDbCircle
6
CONTINUOUS
62
5
10
96.199997
20
185.000000
40
30.000000
100
AcDbArc
50
-9.718387
51
11.940544
0
ARC
5
82f
100
AcDbEntity
8
1
100
AcDbCircle
6
CONTINUOUS
62
5
10
124.783828
20
180.104635
40
1.000000
100
AcDbArc
50
-86.952726
51
-9.718387
0
ARC
5
830
100
AcDbEntity
8
1
100
AcDbCircle
6
CONTINUOUS
62
5
10
120.849997
20
254.000000
40
75.000000
100
AcDbArc
50
-92.827222
51
-86.952726
0
ARC
5
831
100
AcDbEntity
8
1
100
AcDbCircle
6
CONTINUOUS
62
5
10
117.199997
20
180.090072
40
1.000000
100
AcDbArc
50
179.999998
51
-92.827222
0
LINE
5
832
100
AcDbEntity
8
1
100
AcDbLine
6
CONTINUOUS
62
5
10
116.199997
20
180.090072
11
116.199997
21
191.000000
0
ARC
5
833
100
AcDbEntity
8
1
100
AcDbCircle
6
CONTINUOUS
62
5
10
117.199997
20
191.000000
40
1.000000
100
AcDbArc
50
89.999999
51
179.999998
0
LINE
5
834
100
AcDbEntity
8
1
100
AcDbLine
6
CONTINUOUS
62
5
10
117.199997
20
192.000000
11
124.572519
21
192.000000
0
ARC
5
835
100
AcDbEntity
8
1
100
AcDbCircle
6
CONTINUOUS
62
5
10
124.572519
20
191.000000
40
1.000000
100
AcDbArc
50
11.940544
51
89.999999
0
ARC
5
836
100
AcDbEntity
8
1
100
AcDbCircle
6
CONTINUOUS
62
5
10
129.827475
20
191.000000
40
1.000000
100
AcDbArc
50
89.999999
51
168.059455
0
ARC
5
837
100
AcDbEntity
8
1
100
AcDbCircle
6
CONTINUOUS
62
5
10
158.199997
20
185.000000
40
30.000000
100
AcDbArc
50
168.059455
51
-170.071807
0
ARC
5
838
100
AcDbEntity
8
1
100
AcDbCircle
6
CONTINUOUS
62
5
10
129.634283
20
180.000000
40
1.000000
100
AcDbArc
50
-170.071807
51
-89.999999
0
LINE
5
839
100
AcDbEntity
8
1
100
AcDbLine
6
CONTINUOUS
62
5
10
129.634283
20
179.000000
11
137.199997
21
179.000000
0
ARC
5
83a
100
AcDbEntity
8
1
100
AcDbCircle
6
CONTINUOUS
62
5
10
137.199997
20
180.000000
40
1.000000
100
AcDbArc
50
-89.999999
51
0.000000
0
LINE
5
83b
100
AcDbEntity
8
1
100
AcDbLine
6
CONTINUOUS
62
5
10
138.199997
20
180.000000
11
138.199997
21
191.000000
0
ARC
5
83c
100
AcDbEntity
8
1
100
AcDbCircle
6
CONTINUOUS
62
5
10
137.199997
20
191.000000
40
1.000000
100
AcDbArc
50
0.000000
51
89.999999
0
LINE
5
83d
100
AcDbEntity
8
1
100
AcDbLine
6
CONTINUOUS
62
5
10
137.199997
20
192.000000
11
129.827475
21
192.000000
0
ARC
5
83e
100
AcDbEntity
8
1
100
AcDbCircle
6
CONTINUOUS
62
5
10
148.951305
20
178.250380
40
0.500364
100
AcDbArc
50
-179.875091
51
-0.041624
0
LINE
5
83f
100
AcDbEntity
8
1
100
AcDbLine
6
CONTINUOUS
62
5
10
149.451669
20
178.250017
11
149.451669
21
187.750017
0
ARC
5
840
100
AcDbEntity
8
1
100
AcDbCircle
6
CONTINUOUS
62
5
10
148.951305
20
187.749653
40
0.500364
100
AcDbArc
50
0.041625
51
179.875091
0
LINE
5
841
100
AcDbEntity
8
1
100
AcDbLine
6
CONTINUOUS
62
5
10
148.450943
20
187.750744
11
148.450943
21
178.249289
0
ARC
5
842
100
AcDbEntity
8
1
100
AcDbCircle
6
CONTINUOUS
62
5
10
148.699982
20
187.750017
40
0.500000
100
AcDbArc
50
89.999999
51
179.999998
0
LINE
5
843
100
AcDbEntity
8
1
100
AcDbLine
6
CONTINUOUS
62
5
10
148.699982
20
188.250017
11
149.199982
21
188.250017
0
ARC
5
844
100
AcDbEntity
8
1
100
AcDbCircle
6
CONTINUOUS
62
5
10
149.199982
20
187.750017
40
0.500000
100
AcDbArc
50
-0.000000
51
89.999999
0
LINE
5
845
100
AcDbEntity
8
1
100
AcDbLine
6
CONTINUOUS
62
5
10
149.699982
20
187.750017
11
149.699982
21
178.250017
0
ARC
5
846
100
AcDbEntity
8
1
100
AcDbCircle
6
CONTINUOUS
62
5
10
149.199982
20
178.250017
40
0.500000
100
AcDbArc
50
-89.999999
51
-0.000000
0
LINE
5
847
100
AcDbEntity
8
1
100
AcDbLine
6
CONTINUOUS
62
5
10
149.199982
20
177.750017
11
148.699982
21
177.750017
0
ARC
5
848
100
AcDbEntity
8
1
100
AcDbCircle
6
CONTINUOUS
62
5
10
148.699982
20
178.250017
40
0.500000
100
AcDbArc
50
179.999998
51
-89.999999
0
ARC
5
849
100
AcDbEntity
8
1
100
AcDbCircle
6
CONTINUOUS
62
5
10
149.899982
20
190.300008
40
0.500000
100
AcDbArc
50
-0.000000
51
89.999999
0
ARC
5
84a
100
AcDbEntity
8
1
100
AcDbCircle
6
CONTINUOUS
62
5
10
149.899982
20
175.700012
40
0.500000
100
AcDbArc
50
-89.999999
51
-0.000000
0
LINE
5
84b
100
AcDbEntity
8
1
100
AcDbLine
6
CONTINUOUS
62
5
10
149.899982
20
175.200012
11
149.289897
21
175.200012
0
LINE
5
84c
100
AcDbEntity
8
1
100
AcDbLine
6
CONTINUOUS
62
5
10
148.199983
20
177.700000
11
148.199983
21
188.400000
0
LINE
5
84d
100
AcDbEntity
8
1
100
AcDbLine
6
CONTINUOUS
62
5
10
149.139893
20
190.800008
11
149.899982
21
190.800008
0
ARC
5
84e
100
AcDbEntity
8
1
100
AcDbCircle
6
CONTINUOUS
62
5
10
149.899982
20
192.500007
40
0.500000
100
AcDbArc
50
-89.999999
51
0.000000
0
POLYLINE
5
84f
100
AcDbEntity
8
1
6
CONTINUOUS
62
5
100
AcDb2dPolyline
66
1
10
0.0
20
0.0
30
0.0
70
0
0
VERTEX
5
850
100
AcDbEntity
8
1
100
AcDbVertex
100
AcDb2dVertex
62
5
10
149.899982
20
192.000007
0
VERTEX
5
851
100
AcDbEntity
8
1
100
AcDbVertex
100
AcDb2dVertex
62
5
10
147.199983
20
192.000007
0
VERTEX
5
852
100
AcDbEntity
8
1
100
AcDbVertex
100
AcDb2dVertex
62
5
10
147.199983
20
174.000013
0
VERTEX
5
853
100
AcDbEntity
8
1
100
AcDbVertex
100
AcDb2dVertex
62
5
10
149.899982
20
174.000013
0
SEQEND
5
854
100
AcDbEntity
8
1
0
ARC
5
855
100
AcDbEntity
8
1
100
AcDbCircle
6
CONTINUOUS
62
5
10
149.899982
20
173.500013
40
0.500000
100
AcDbArc
50
-0.000000
51
89.999999
0
ARC
5
856
100
AcDbEntity
8
1
100
AcDbCircle
6
CONTINUOUS
62
5
10
148.399982
20
200.500005
40
1.899999
100
AcDbArc
50
0.000000
51
89.999999
0
LINE
5
857
100
AcDbEntity
8
1
100
AcDbLine
6
CONTINUOUS
62
5
10
150.299982
20
200.500005
11
150.299982
21
192.500007
0
ARC
5
858
100
AcDbEntity
8
1
100
AcDbCircle
6
CONTINUOUS
62
5
10
149.899982
20
192.500007
40
0.400000
100
AcDbArc
50
-89.999999
51
0.000000
0
POLYLINE
5
859
100
AcDbEntity
8
1
6
CONTINUOUS
62
5
100
AcDb2dPolyline
66
1
10
0.0
20
0.0
30
0.0
70
0
0
VERTEX
5
85a
100
AcDbEntity
8
1
100
AcDbVertex
100
AcDb2dVertex
62
5
10
149.899982
20
192.100007
0
VERTEX
5
85b
100
AcDbEntity
8
1
100
AcDbVertex
100
AcDb2dVertex
62
5
10
147.099983
20
192.100007
0
VERTEX
5
85c
100
AcDbEntity
8
1
100
AcDbVertex
100
AcDb2dVertex
62
5
10
147.099983
20
173.900013
0
VERTEX
5
85d
100
AcDbEntity
8
1
100
AcDbVertex
100
AcDb2dVertex
62
5
10
149.899982
20
173.900013
0
SEQEND
5
85e
100
AcDbEntity
8
1
0
ARC
5
85f
100
AcDbEntity
8
1
100
AcDbCircle
6
CONTINUOUS
62
5
10
149.899982
20
173.500013
40
0.400000
100
AcDbArc
50
-0.000000
51
89.999999
0
LINE
5
860
100
AcDbEntity
8
1
100
AcDbLine
6
CONTINUOUS
62
5
10
150.299982
20
173.500013
11
150.299982
21
169.500014
0
ARC
5
861
100
AcDbEntity
8
1
100
AcDbCircle
6
CONTINUOUS
62
5
10
149.899982
20
169.500014
40
0.400000
100
AcDbArc
50
-89.999999
51
0.000000
0
POLYLINE
5
862
100
AcDbEntity
8
1
6
CONTINUOUS
62
5
100
AcDb2dPolyline
66
1
10
0.0
20
0.0
30
0.0
70
0
0
VERTEX
5
863
100
AcDbEntity
8
1
100
AcDbVertex
100
AcDb2dVertex
62
5
10
149.899982
20
169.100014
0
VERTEX
5
864
100
AcDbEntity
8
1
100
AcDbVertex
100
AcDb2dVertex
62
5
10
147.099991
20
169.100014
0
VERTEX
5
865
100
AcDbEntity
8
1
100
AcDbVertex
100
AcDb2dVertex
62
5
10
147.099991
20
150.900019
0
VERTEX
5
866
100
AcDbEntity
8
1
100
AcDbVertex
100
AcDb2dVertex
62
5
10
149.899982
20
150.900020
0
SEQEND
5
867
100
AcDbEntity
8
1
0
ARC
5
868
100
AcDbEntity
8
1
100
AcDbCircle
6
CONTINUOUS
62
5
10
149.899982
20
150.500020
40
0.400000
100
AcDbArc
50
0.000000
51
89.999999
0
LINE
5
869
100
AcDbEntity
8
1
100
AcDbLine
6
CONTINUOUS
62
5
10
150.299982
20
150.500020
11
150.299982
21
146.500021
0
ARC
5
86a
100
AcDbEntity
8
1
100
AcDbCircle
6
CONTINUOUS
62
5
10
149.899982
20
146.500021
40
0.400000
100
AcDbArc
50
-89.999999
51
-0.000000
0
POLYLINE
5
86b
100
AcDbEntity
8
1
6
CONTINUOUS
62
5
100
AcDb2dPolyline
66
1
10
0.0
20
0.0
30
0.0
70
0
0
VERTEX
5
86c
100
AcDbEntity
8
1
100
AcDbVertex
100
AcDb2dVertex
62
5
10
149.899982
20
146.100021
0
VERTEX
5
86d
100
AcDbEntity
8
1
100
AcDbVertex
100
AcDb2dVertex
62
5
10
147.099983
20
146.100021
0
VERTEX
5
86e
100
AcDbEntity
8
1
100
AcDbVertex
100
AcDb2dVertex
62
5
10
147.099983
20
127.900026
0
VERTEX
5
86f
100
AcDbEntity
8
1
100
AcDbVertex
100
AcDb2dVertex
62
5
10
149.899982
20
127.900026
0
SEQEND
5
870
100
AcDbEntity
8
1
0
ARC
5
871
100
AcDbEntity
8
1
100
AcDbCircle
6
CONTINUOUS
62
5
10
149.899982
20
127.500027
40
0.400000
100
AcDbArc
50
-0.000000
51
89.999999
0
LINE
5
872
100
AcDbEntity
8
1
100
AcDbLine
6
CONTINUOUS
62
5
10
150.299982
20
127.500027
11
150.299982
21
119.500029
0
ARC
5
873
100
AcDbEntity
8
1
100
AcDbCircle
6
CONTINUOUS
62
5
10
148.399982
20
119.500029
40
1.899999
100
AcDbArc
50
-89.999999
51
0.000000
0
LINE
5
874
100
AcDbEntity
8
1
100
AcDbLine
6
CONTINUOUS
62
5
10
148.399982
20
117.600030
11
146.999983
21
117.600030
0
LINE
5
875
100
AcDbEntity
8
1
100
AcDbLine
6
CONTINUOUS
62
5
10
146.999983
20
202.400004
11
148.399982
21
202.400004
0
ARC
5
876
100
AcDbEntity
8
1
100
AcDbCircle
6
CONTINUOUS
62
5
10
106.499995
20
200.500005
40
1.899999
100
AcDbArc
50
89.999999
51
179.999998
0
LINE
5
877
100
AcDbEntity
8
1
100
AcDbLine
6
CONTINUOUS
62
5
10
104.599996
20
200.500005
11
104.599996
21
191.800017
0
ARC
5
878
100
AcDbEntity
8
1
100
AcDbCircle
6
CONTINUOUS
62
5
10
104.999996
20
191.800017
40
0.400000
100
AcDbArc
50
179.999998
51
-89.999999
0
POLYLINE
5
879
100
AcDbEntity
8
1
6
CONTINUOUS
62
5
100
AcDb2dPolyline
66
1
10
0.0
20
0.0
30
0.0
70
0
0
VERTEX
5
87a
100
AcDbEntity
8
1
100
AcDbVertex
100
AcDb2dVertex
62
5
10
104.999996
20
191.400017
0
VERTEX
5
87b
100
AcDbEntity
8
1
100
AcDbVertex
100
AcDb2dVertex
62
5
10
107.299989
20
191.400017
0
VERTEX
5
87c
100
AcDbEntity
8
1
100
AcDbVertex
100
AcDb2dVertex
62
5
10
107.299989
20
187.900010
0
VERTEX
5
87d
100
AcDbEntity
8
1
100
AcDbVertex
100
AcDb2dVertex
62
5
10
104.999996
20
187.900010
0
SEQEND
5
87e
100
AcDbEntity
8
1
0
ARC
5
87f
100
AcDbEntity
8
1
100
AcDbCircle
6
CONTINUOUS
62
5
10
104.999996
20
187.500010
40
0.400000
100
AcDbArc
50
89.999999
51
-179.999998
0
LINE
5
880
100
AcDbEntity
8
1
100
AcDbLine
6
CONTINUOUS
62
5
10
104.599996
20
187.500010
11
104.599996
21
178.500010
0
ARC
5
881
100
AcDbEntity
8
1
100
AcDbCircle
6
CONTINUOUS
62
5
10
104.999996
20
178.500010
40
0.400000
100
AcDbArc
50
-179.999998
51
-89.999999
0
POLYLINE
5
882
100
AcDbEntity
8
1
6
CONTINUOUS
62
5
100
AcDb2dPolyline
66
1
10
0.0
20
0.0
30
0.0
70
0
0
VERTEX
5
883
100
AcDbEntity
8
1
100
AcDbVertex
100
AcDb2dVertex
62
5
10
104.999996
20
178.100010
0
VERTEX
5
884
100
AcDbEntity
8
1
100
AcDbVertex
100
AcDb2dVertex
62
5
10
107.299989
20
178.100010
0
VERTEX
5
885
100
AcDbEntity
8
1
100
AcDbVertex
100
AcDb2dVertex
62
5
10
107.299989
20
174.600017
0
VERTEX
5
886
100
AcDbEntity
8
1
100
AcDbVertex
100
AcDb2dVertex
62
5
10
104.999996
20
174.600017
0
SEQEND
5
887
100
AcDbEntity
8
1
0
ARC
5
888
100
AcDbEntity
8
1
100
AcDbCircle
6
CONTINUOUS
62
5
10
104.999996
20
174.200017
40
0.400000
100
AcDbArc
50
89.999999
51
-179.999998
0
LINE
5
889
100
AcDbEntity
8
1
100
AcDbLine
6
CONTINUOUS
62
5
10
104.599996
20
174.200017
11
104.599996
21
168.800017
0
ARC
5
88a
100
AcDbEntity
8
1
100
AcDbCircle
6
CONTINUOUS
62
5
10
104.999996
20
168.800017
40
0.400000
100
AcDbArc
50
179.999998
51
-89.999999
0
POLYLINE
5
88b
100
AcDbEntity
8
1
6
CONTINUOUS
62
5
100
AcDb2dPolyline
66
1
10
0.0
20
0.0
30
0.0
70
0
0
VERTEX
5
88c
100
AcDbEntity
8
1
100
AcDbVertex
100
AcDb2dVertex
62
5
10
104.999996
20
168.400017
0
VERTEX
5
88d
100
AcDbEntity
8
1
100
AcDbVertex
100
AcDb2dVertex
62
5
10
107.299982
20
168.400010
0
VERTEX
5
88e
100
AcDbEntity
8
1
100
AcDbVertex
100
AcDb2dVertex
62
5
10
107.299995
20
164.900015
0
VERTEX
5
88f
100
AcDbEntity
8
1
100
AcDbVertex
100
AcDb2dVertex
62
5
10
105.000002
20
164.900015
0
SEQEND
5
890
100
AcDbEntity
8
1
0
ARC
5
891
100
AcDbEntity
8
1
100
AcDbCircle
6
CONTINUOUS
62
5
10
105.000002
20
164.500015
40
0.400000
100
AcDbArc
50
89.999999
51
179.999998
0
LINE
5
892
100
AcDbEntity
8
1
100
AcDbLine
6
CONTINUOUS
62
5
10
104.600002
20
164.500015
11
104.599996
21
155.500018
0
ARC
5
893
100
AcDbEntity
8
1
100
AcDbCircle
6
CONTINUOUS
62
5
10
104.999996
20
155.500018
40
0.400000
100
AcDbArc
50
-179.999998
51
-89.999999
0
POLYLINE
5
894
100
AcDbEntity
8
1
6
CONTINUOUS
62
5
100
AcDb2dPolyline
66
1
10
0.0
20
0.0
30
0.0
70
0
0
VERTEX
5
895
100
AcDbEntity
8
1
100
AcDbVertex
100
AcDb2dVertex
62
5
10
104.999996
20
155.100018
0
VERTEX
5
896
100
AcDbEntity
8
1
100
AcDbVertex
100
AcDb2dVertex
62
5
10
107.299989
20
155.100018
0
VERTEX
5
897
100
AcDbEntity
8
1
100
AcDbVertex
100
AcDb2dVertex
62
5
10
107.300003
20
151.600017
0
VERTEX
5
898
100
AcDbEntity
8
1
100
AcDbVertex
100
AcDb2dVertex
62
5
10
104.999996
20
151.600017
0
SEQEND
5
899
100
AcDbEntity
8
1
0
ARC
5
89a
100
AcDbEntity
8
1
100
AcDbCircle
6
CONTINUOUS
62
5
10
104.999996
20
151.200017
40
0.400000
100
AcDbArc
50
89.999999
51
-179.999998
0
LINE
5
89b
100
AcDbEntity
8
1
100
AcDbLine
6
CONTINUOUS
62
5
10
104.599996
20
151.200017
11
104.599996
21
145.800017
0
ARC
5
89c
100
AcDbEntity
8
1
100
AcDbCircle
6
CONTINUOUS
62
5
10
104.999996
20
145.800017
40
0.400000
100
AcDbArc
50
179.999998
51
-89.999999
0
POLYLINE
5
89d
100
AcDbEntity
8
1
6
CONTINUOUS
62
5
100
AcDb2dPolyline
66
1
10
0.0
20
0.0
30
0.0
70
0
0
VERTEX
5
89e
100
AcDbEntity
8
1
100
AcDbVertex
100
AcDb2dVertex
62
5
10
104.999996
20
145.400017
0
VERTEX
5
89f
100
AcDbEntity
8
1
100
AcDbVertex
100
AcDb2dVertex
62
5
10
107.299989
20
145.400017
0
VERTEX
5
8a0
100
AcDbEntity
8
1
100
AcDbVertex
100
AcDb2dVertex
62
5
10
107.299989
20
141.900024
0
VERTEX
5
8a1
100
AcDbEntity
8
1
100
AcDbVertex
100
AcDb2dVertex
62
5
10
104.999996
20
141.900024
0
SEQEND
5
8a2
100
AcDbEntity
8
1
0
ARC
5
8a3
100
AcDbEntity
8
1
100
AcDbCircle
6
CONTINUOUS
62
5
10
104.999996
20
141.500024
40
0.400000
100
AcDbArc
50
89.999999
51
179.999998
0
LINE
5
8a4
100
AcDbEntity
8
1
100
AcDbLine
6
CONTINUOUS
62
5
10
104.599996
20
141.500024
11
104.599996
21
132.500024
0
ARC
5
8a5
100
AcDbEntity
8
1
100
AcDbCircle
6
CONTINUOUS
62
5
10
104.999996
20
132.500024
40
0.400000
100
AcDbArc
50
-179.999998
51
-89.999999
0
POLYLINE
5
8a6
100
AcDbEntity
8
1
6
CONTINUOUS
62
5
100
AcDb2dPolyline
66
1
10
0.0
20
0.0
30
0.0
70
0
0
VERTEX
5
8a7
100
AcDbEntity
8
1
100
AcDbVertex
100
AcDb2dVertex
62
5
10
104.999996
20
132.100024
0
VERTEX
5
8a8
100
AcDbEntity
8
1
100
AcDbVertex
100
AcDb2dVertex
62
5
10
107.299989
20
132.100024
0
VERTEX
5
8a9
100
AcDbEntity
8
1
100
AcDbVertex
100
AcDb2dVertex
62
5
10
107.299989
20
128.600017
0
VERTEX
5
8aa
100
AcDbEntity
8
1
100
AcDbVertex
100
AcDb2dVertex
62
5
10
104.999996
20
128.600017
0
SEQEND
5
8ab
100
AcDbEntity
8
1
0
ARC
5
8ac
100
AcDbEntity
8
1
100
AcDbCircle
6
CONTINUOUS
62
5
10
104.999996
20
128.200017
40
0.400000
100
AcDbArc
50
89.999999
51
179.999998
0
LINE
5
8ad
100
AcDbEntity
8
1
100
AcDbLine
6
CONTINUOUS
62
5
10
104.599996
20
128.200017
11
104.599996
21
119.500029
0
ARC
5
8ae
100
AcDbEntity
8
1
100
AcDbCircle
6
CONTINUOUS
62
5
10
106.499995
20
119.500029
40
1.899999
100
AcDbArc
50
-179.999998
51
-89.999999
0
LINE
5
8af
100
AcDbEntity
8
1
100
AcDbLine
6
CONTINUOUS
62
5
10
106.499995
20
117.600030
11
107.399995
21
117.600030
0
LINE
5
8b0
100
AcDbEntity
8
1
100
AcDbLine
6
CONTINUOUS
62
5
10
107.399995
20
202.400004
11
106.499995
21
202.400004
0
ARC
5
8b1
100
AcDbEntity
8
1
100
AcDbCircle
6
CONTINUOUS
62
5
10
140.199997
20
126.650000
40
1.000000
100
AcDbArc
50
-89.999999
51
0.000000
0
LINE
5
8b2
100
AcDbEntity
8
1
100
AcDbLine
6
CONTINUOUS
62
5
10
141.199997
20
126.650000
11
141.199997
21
193.350000
0
ARC
5
8b3
100
AcDbEntity
8
1
100
AcDbCircle
6
CONTINUOUS
62
5
10
140.199997
20
193.350000
40
1.000000
100
AcDbArc
50
0.000000
51
89.999999
0
LINE
5
8b4
100
AcDbEntity
8
1
100
AcDbLine
6
CONTINUOUS
62
5
10
140.199997
20
194.350000
11
114.199997
21
194.350000
0
ARC
5
8b5
100
AcDbEntity
8
1
100
AcDbCircle
6
CONTINUOUS
62
5
10
114.199997
20
193.350000
40
1.000000
100
AcDbArc
50
89.999999
51
179.999998
0
LINE
5
8b6
100
AcDbEntity
8
1
100
AcDbLine
6
CONTINUOUS
62
5
10
113.199997
20
193.350000
11
113.199997
21
126.650000
0
ARC
5
8b7
100
AcDbEntity
8
1
100
AcDbCircle
6
CONTINUOUS
62
5
10
114.199997
20
126.650000
40
1.000000
100
AcDbArc
50
179.999998
51
-89.999999
0
LINE
5
8b8
100
AcDbEntity
8
1
100
AcDbLine
6
CONTINUOUS
62
5
10
114.199997
20
125.650000
11
140.199997
21
125.650000
0
ARC
5
8b9
100
AcDbEntity
8
1
100
AcDbCircle
6
CONTINUOUS
62
5
10
112.399993
20
191.500007
40
0.500000
100
AcDbArc
50
-89.999999
51
-0.000000
0
POLYLINE
5
8ba
100
AcDbEntity
8
1
6
CONTINUOUS
62
5
100
AcDb2dPolyline
66
1
10
0.0
20
0.0
30
0.0
70
0
0
VERTEX
5
8bb
100
AcDbEntity
8
1
100
AcDbVertex
100
AcDb2dVertex
62
5
10
112.399993
20
191.000007
0
VERTEX
5
8bc
100
AcDbEntity
8
1
100
AcDbVertex
100
AcDb2dVertex
62
5
10
111.199994
20
191.000008
0
VERTEX
5
8bd
100
AcDbEntity
8
1
100
AcDbVertex
100
AcDb2dVertex
62
5
10
111.199994
20
175.000012
0
VERTEX
5
8be
100
AcDbEntity
8
1
100
AcDbVertex
100
AcDb2dVertex
62
5
10
112.399993
20
175.000012
0
SEQEND
5
8bf
100
AcDbEntity
8
1
0
ARC
5
8c0
100
AcDbEntity
8
1
100
AcDbCircle
6
CONTINUOUS
62
5
10
112.399993
20
174.500012
40
0.500000
100
AcDbArc
50
-0.000000
51
89.999999
0
LINE
5
8c1
100
AcDbEntity
8
1
100
AcDbLine
6
CONTINUOUS
62
5
10
112.899993
20
174.500012
11
112.899993
21
168.500014
0
ARC
5
8c2
100
AcDbEntity
8
1
100
AcDbCircle
6
CONTINUOUS
62
5
10
112.399993
20
168.500014
40
0.500000
100
AcDbArc
50
-89.999999
51
-0.000000
0
POLYLINE
5
8c3
100
AcDbEntity
8
1
6
CONTINUOUS
62
5
100
AcDb2dPolyline
66
1
10
0.0
20
0.0
30
0.0
70
0
0
VERTEX
5
8c4
100
AcDbEntity
8
1
100
AcDbVertex
100
AcDb2dVertex
62
5
10
112.399993
20
168.000014
0
VERTEX
5
8c5
100
AcDbEntity
8
1
100
AcDbVertex
100
AcDb2dVertex
62
5
10
111.199994
20
168.000014
0
VERTEX
5
8c6
100
AcDbEntity
8
1
100
AcDbVertex
100
AcDb2dVertex
62
5
10
111.199994
20
152.000019
0
VERTEX
5
8c7
100
AcDbEntity
8
1
100
AcDbVertex
100
AcDb2dVertex
62
5
10
112.399993
20
152.000019
0
SEQEND
5
8c8
100
AcDbEntity
8
1
0
ARC
5
8c9
100
AcDbEntity
8
1
100
AcDbCircle
6
CONTINUOUS
62
5
10
112.399993
20
151.500019
40
0.500000
100
AcDbArc
50
-0.000000
51
89.999999
0
LINE
5
8ca
100
AcDbEntity
8
1
100
AcDbLine
6
CONTINUOUS
62
5
10
112.899993
20
151.500019
11
112.899993
21
145.500021
0
ARC
5
8cb
100
AcDbEntity
8
1
100
AcDbCircle
6
CONTINUOUS
62
5
10
112.399993
20
145.500021
40
0.500000
100
AcDbArc
50
-89.999999
51
-0.000000
0
POLYLINE
5
8cc
100
AcDbEntity
8
1
6
CONTINUOUS
62
5
100
AcDb2dPolyline
66
1
10
0.0
20
0.0
30
0.0
70
0
0
VERTEX
5
8cd
100
AcDbEntity
8
1
100
AcDbVertex
100
AcDb2dVertex
62
5
10
112.399993
20
145.000021
0
VERTEX
5
8ce
100
AcDbEntity
8
1
100
AcDbVertex
100
AcDb2dVertex
62
5
10
111.199994
20
145.000021
0
VERTEX
5
8cf
100
AcDbEntity
8
1
100
AcDbVertex
100
AcDb2dVertex
62
5
10
111.199994
20
129.000026
0
VERTEX
5
8d0
100
AcDbEntity
8
1
100
AcDbVertex
100
AcDb2dVertex
62
5
10
112.399993
20
129.000026
0
SEQEND
5
8d1
100
AcDbEntity
8
1
0
ARC
5
8d2
100
AcDbEntity
8
1
100
AcDbCircle
6
CONTINUOUS
62
5
10
112.399993
20
128.500026
40
0.500000
100
AcDbArc
50
0.000000
51
89.999999
0
POLYLINE
5
8d3
100
AcDbEntity
8
1
6
CONTINUOUS
62
5
100
AcDb2dPolyline
66
1
10
0.0
20
0.0
30
0.0
70
0
0
VERTEX
5
8d4
100
AcDbEntity
8
1
100
AcDbVertex
100
AcDb2dVertex
62
5
10
112.899993
20
128.500026
0
VERTEX
5
8d5
100
AcDbEntity
8
1
100
AcDbVertex
100
AcDb2dVertex
62
5
10
112.899993
20
125.300017
0
VERTEX
5
8d6
100
AcDbEntity
8
1
100
AcDbVertex
100
AcDb2dVertex
62
5
10
142.699984
20
125.300017
0
VERTEX
5
8d7
100
AcDbEntity
8
1
100
AcDbVertex
100
AcDb2dVertex
62
5
10
142.699984
20
128.500026
0
SEQEND
5
8d8
100
AcDbEntity
8
1
0
ARC
5
8d9
100
AcDbEntity
8
1
100
AcDbCircle
6
CONTINUOUS
62
5
10
143.199984
20
128.500026
40
0.500000
100
AcDbArc
50
89.999999
51
179.999998
0
LINE
5
8da
100
AcDbEntity
8
1
100
AcDbLine
6
CONTINUOUS
62
5
10
143.199984
20
129.000026
11
143.199984
21
145.000021
0
ARC
5
8db
100
AcDbEntity
8
1
100
AcDbCircle
6
CONTINUOUS
62
5
10
143.199984
20
145.500021
40
0.500000
100
AcDbArc
50
-179.999998
51
-89.999999
0
LINE
5
8dc
100
AcDbEntity
8
1
100
AcDbLine
6
CONTINUOUS
62
5
10
142.699984
20
145.500021
11
142.699984
21
151.500019
0
ARC
5
8dd
100
AcDbEntity
8
1
100
AcDbCircle
6
CONTINUOUS
62
5
10
143.199984
20
151.500019
40
0.500000
100
AcDbArc
50
89.999999
51
179.999998
0
LINE
5
8de
100
AcDbEntity
8
1
100
AcDbLine
6
CONTINUOUS
62
5
10
143.199984
20
152.000019
11
143.199984
21
168.000014
0
ARC
5
8df
100
AcDbEntity
8
1
100
AcDbCircle
6
CONTINUOUS
62
5
10
143.199984
20
168.500014
40
0.500000
100
AcDbArc
50
179.999998
51
-89.999999
0
LINE
5
8e0
100
AcDbEntity
8
1
100
AcDbLine
6
CONTINUOUS
62
5
10
142.699984
20
168.500014
11
142.699984
21
174.500012
0
ARC
5
8e1
100
AcDbEntity
8
1
100
AcDbCircle
6
CONTINUOUS
62
5
10
143.199984
20
174.500012
40
0.500000
100
AcDbArc
50
89.999999
51
179.999998
0
LINE
5
8e2
100
AcDbEntity
8
1
100
AcDbLine
6
CONTINUOUS
62
5
10
143.199984
20
175.000012
11
143.199984
21
191.000007
0
ARC
5
8e3
100
AcDbEntity
8
1
100
AcDbCircle
6
CONTINUOUS
62
5
10
143.199984
20
191.500007
40
0.500000
100
AcDbArc
50
179.999998
51
-89.999999
0
POLYLINE
5
8e4
100
AcDbEntity
8
1
6
CONTINUOUS
62
5
100
AcDb2dPolyline
66
1
10
0.0
20
0.0
30
0.0
70
0
0
VERTEX
5
8e5
100
AcDbEntity
8
1
100
AcDbVertex
100
AcDb2dVertex
62
5
10
142.699984
20
191.500007
0
VERTEX
5
8e6
100
AcDbEntity
8
1
100
AcDbVertex
100
AcDb2dVertex
62
5
10
142.699984
20
194.700017
0
VERTEX
5
8e7
100
AcDbEntity
8
1
100
AcDbVertex
100
AcDb2dVertex
62
5
10
112.899993
20
194.700017
0
VERTEX
5
8e8
100
AcDbEntity
8
1
100
AcDbVertex
100
AcDb2dVertex
62
5
10
112.899993
20
191.500007
0
SEQEND
5
8e9
100
AcDbEntity
8
1
0
ARC
5
8ea
100
AcDbEntity
8
1
100
AcDbCircle
6
CONTINUOUS
62
5
10
143.199984
20
191.500007
40
0.400000
100
AcDbArc
50
179.999998
51
-89.999999
0
POLYLINE
5
8eb
100
AcDbEntity
8
1
6
CONTINUOUS
62
5
100
AcDb2dPolyline
66
1
10
0.0
20
0.0
30
0.0
70
0
0
VERTEX
5
8ec
100
AcDbEntity
8
1
100
AcDbVertex
100
AcDb2dVertex
62
5
10
143.199984
20
191.100008
0
VERTEX
5
8ed
100
AcDbEntity
8
1
100
AcDbVertex
100
AcDb2dVertex
62
5
10
143.299984
20
191.100007
0
VERTEX
5
8ee
100
AcDbEntity
8
1
100
AcDbVertex
100
AcDb2dVertex
62
5
10
143.299984
20
174.900012
0
VERTEX
5
8ef
100
AcDbEntity
8
1
100
AcDbVertex
100
AcDb2dVertex
62
5
10
143.199984
20
174.900012
0
SEQEND
5
8f0
100
AcDbEntity
8
1
0
ARC
5
8f1
100
AcDbEntity
8
1
100
AcDbCircle
6
CONTINUOUS
62
5
10
143.199984
20
174.500012
40
0.400000
100
AcDbArc
50
89.999999
51
-179.999998
0
LINE
5
8f2
100
AcDbEntity
8
1
100
AcDbLine
6
CONTINUOUS
62
5
10
142.799984
20
174.500012
11
142.799984
21
168.500014
0
ARC
5
8f3
100
AcDbEntity
8
1
100
AcDbCircle
6
CONTINUOUS
62
5
10
143.199984
20
168.500014
40
0.400000
100
AcDbArc
50
179.999998
51
-89.999999
0
POLYLINE
5
8f4
100
AcDbEntity
8
1
6
CONTINUOUS
62
5
100
AcDb2dPolyline
66
1
10
0.0
20
0.0
30
0.0
70
0
0
VERTEX
5
8f5
100
AcDbEntity
8
1
100
AcDbVertex
100
AcDb2dVertex
62
5
10
143.199984
20
168.100014
0
VERTEX
5
8f6
100
AcDbEntity
8
1
100
AcDbVertex
100
AcDb2dVertex
62
5
10
143.299984
20
168.100014
0
VERTEX
5
8f7
100
AcDbEntity
8
1
100
AcDbVertex
100
AcDb2dVertex
62
5
10
143.299984
20
151.900019
0
VERTEX
5
8f8
100
AcDbEntity
8
1
100
AcDbVertex
100
AcDb2dVertex
62
5
10
143.199984
20
151.900019
0
SEQEND
5
8f9
100
AcDbEntity
8
1
0
ARC
5
8fa
100
AcDbEntity
8
1
100
AcDbCircle
6
CONTINUOUS
62
5
10
143.199984
20
151.500019
40
0.400000
100
AcDbArc
50
89.999999
51
-179.999998
0
LINE
5
8fb
100
AcDbEntity
8
1
100
AcDbLine
6
CONTINUOUS
62
5
10
142.799984
20
151.500019
11
142.799984
21
145.500021
0
ARC
5
8fc
100
AcDbEntity
8
1
100
AcDbCircle
6
CONTINUOUS
62
5
10
143.199984
20
145.500021
40
0.400000
100
AcDbArc
50
179.999998
51
-89.999999
0
POLYLINE
5
8fd
100
AcDbEntity
8
1
6
CONTINUOUS
62
5
100
AcDb2dPolyline
66
1
10
0.0
20
0.0
30
0.0
70
0
0
VERTEX
5
8fe
100
AcDbEntity
8
1
100
AcDbVertex
100
AcDb2dVertex
62
5
10
143.199984
20
145.100021
0
VERTEX
5
8ff
100
AcDbEntity
8
1
100
AcDbVertex
100
AcDb2dVertex
62
5
10
143.299984
20
145.100021
0
VERTEX
5
900
100
AcDbEntity
8
1
100
AcDbVertex
100
AcDb2dVertex
62
5
10
143.299984
20
128.900026
0
VERTEX
5
901
100
AcDbEntity
8
1
100
AcDbVertex
100
AcDb2dVertex
62
5
10
143.199984
20
128.900026
0
SEQEND
5
902
100
AcDbEntity
8
1
0
ARC
5
903
100
AcDbEntity
8
1
100
AcDbCircle
6
CONTINUOUS
62
5
10
143.199984
20
128.500026
40
0.400000
100
AcDbArc
50
89.999999
51
179.999998
0
POLYLINE
5
904
100
AcDbEntity
8
1
6
CONTINUOUS
62
5
100
AcDb2dPolyline
66
1
10
0.0
20
0.0
30
0.0
70
0
0
VERTEX
5
905
100
AcDbEntity
8
1
100
AcDbVertex
100
AcDb2dVertex
62
5
10
142.799984
20
128.500026
0
VERTEX
5
906
100
AcDbEntity
8
1
100
AcDbVertex
100
AcDb2dVertex
62
5
10
142.799984
20
125.100017
0
VERTEX
5
907
100
AcDbEntity
8
1
100
AcDbVertex
100
AcDb2dVertex
62
5
10
112.799993
20
125.100017
0
VERTEX
5
908
100
AcDbEntity
8
1
100
AcDbVertex
100
AcDb2dVertex
62
5
10
112.799993
20
128.500026
0
SEQEND
5
909
100
AcDbEntity
8
1
0
ARC
5
90a
100
AcDbEntity
8
1
100
AcDbCircle
6
CONTINUOUS
62
5
10
112.399993
20
128.500026
40
0.400000
100
AcDbArc
50
-0.000000
51
89.999999
0
POLYLINE
5
90b
100
AcDbEntity
8
1
6
CONTINUOUS
62
5
100
AcDb2dPolyline
66
1
10
0.0
20
0.0
30
0.0
70
0
0
VERTEX
5
90c
100
AcDbEntity
8
1
100
AcDbVertex
100
AcDb2dVertex
62
5
10
112.399993
20
128.900026
0
VERTEX
5
90d
100
AcDbEntity
8
1
100
AcDbVertex
100
AcDb2dVertex
62
5
10
111.099994
20
128.900026
0
VERTEX
5
90e
100
AcDbEntity
8
1
100
AcDbVertex
100
AcDb2dVertex
62
5
10
111.099994
20
145.100021
0
VERTEX
5
90f
100
AcDbEntity
8
1
100
AcDbVertex
100
AcDb2dVertex
62
5
10
112.399993
20
145.100021
0
SEQEND
5
910
100
AcDbEntity
8
1
0
ARC
5
911
100
AcDbEntity
8
1
100
AcDbCircle
6
CONTINUOUS
62
5
10
112.399993
20
145.500021
40
0.400000
100
AcDbArc
50
-89.999999
51
-0.000000
0
LINE
5
912
100
AcDbEntity
8
1
100
AcDbLine
6
CONTINUOUS
62
5
10
112.799993
20
145.500021
11
112.799993
21
151.500019
0
ARC
5
913
100
AcDbEntity
8
1
100
AcDbCircle
6
CONTINUOUS
62
5
10
112.399993
20
151.500019
40
0.400000
100
AcDbArc
50
0.000000
51
89.999999
0
POLYLINE
5
914
100
AcDbEntity
8
1
6
CONTINUOUS
62
5
100
AcDb2dPolyline
66
1
10
0.0
20
0.0
30
0.0
70
0
0
VERTEX
5
915
100
AcDbEntity
8
1
100
AcDbVertex
100
AcDb2dVertex
62
5
10
112.399993
20
151.900019
0
VERTEX
5
916
100
AcDbEntity
8
1
100
AcDbVertex
100
AcDb2dVertex
62
5
10
111.099994
20
151.900019
0
VERTEX
5
917
100
AcDbEntity
8
1
100
AcDbVertex
100
AcDb2dVertex
62
5
10
111.099994
20
168.100014
0
VERTEX
5
918
100
AcDbEntity
8
1
100
AcDbVertex
100
AcDb2dVertex
62
5
10
112.399993
20
168.100014
0
SEQEND
5
919
100
AcDbEntity
8
1
0
ARC
5
91a
100
AcDbEntity
8
1
100
AcDbCircle
6
CONTINUOUS
62
5
10
112.399993
20
168.500014
40
0.400000
100
AcDbArc
50
-89.999999
51
-0.000000
0
LINE
5
91b
100
AcDbEntity
8
1
100
AcDbLine
6
CONTINUOUS
62
5
10
112.799993
20
168.500014
11
112.799993
21
174.500012
0
ARC
5
91c
100
AcDbEntity
8
1
100
AcDbCircle
6
CONTINUOUS
62
5
10
112.399993
20
174.500012
40
0.400000
100
AcDbArc
50
0.000000
51
89.999999
0
POLYLINE
5
91d
100
AcDbEntity
8
1
6
CONTINUOUS
62
5
100
AcDb2dPolyline
66
1
10
0.0
20
0.0
30
0.0
70
0
0
VERTEX
5
91e
100
AcDbEntity
8
1
100
AcDbVertex
100
AcDb2dVertex
62
5
10
112.399993
20
174.900012
0
VERTEX
5
91f
100
AcDbEntity
8
1
100
AcDbVertex
100
AcDb2dVertex
62
5
10
111.099994
20
174.900012
0
VERTEX
5
920
100
AcDbEntity
8
1
100
AcDbVertex
100
AcDb2dVertex
62
5
10
111.099994
20
191.100007
0
VERTEX
5
921
100
AcDbEntity
8
1
100
AcDbVertex
100
AcDb2dVertex
62
5
10
112.399993
20
191.100007
0
SEQEND
5
922
100
AcDbEntity
8
1
0
ARC
5
923
100
AcDbEntity
8
1
100
AcDbCircle
6
CONTINUOUS
62
5
10
112.399993
20
191.500007
40
0.400000
100
AcDbArc
50
-89.999999
51
0.000000
0
LINE
5
924
100
AcDbEntity
8
1
100
AcDbLine
6
CONTINUOUS
62
5
10
112.799993
20
191.500007
11
112.799993
21
194.900017
0
POLYLINE
5
925
100
AcDbEntity
8
1
6
CONTINUOUS
62
5
100
AcDb2dPolyline
66
1
10
0.0
20
0.0
30
0.0
70
0
0
VERTEX
5
926
100
AcDbEntity
8
1
100
AcDbVertex
100
AcDb2dVertex
62
5
10
112.799993
20
194.900017
0
VERTEX
5
927
100
AcDbEntity
8
1
100
AcDbVertex
100
AcDb2dVertex
62
5
10
142.799984
20
194.900017
0
VERTEX
5
928
100
AcDbEntity
8
1
100
AcDbVertex
100
AcDb2dVertex
62
5
10
142.799984
20
191.500007
0
SEQEND
5
929
100
AcDbEntity
8
1
0
ARC
5
92a
100
AcDbEntity
8
1
100
AcDbCircle
6
CONTINUOUS
62
5
10
108.000002
20
215.000000
40
1.000000
100
AcDbArc
50
89.999999
51
179.999998
0
LINE
5
92b
100
AcDbEntity
8
1
100
AcDbLine
6
CONTINUOUS
62
5
10
107.000003
20
215.000000
11
107.000003
21
213.714168
0
ARC
5
92c
100
AcDbEntity
8
1
100
AcDbCircle
6
CONTINUOUS
62
5
10
105.999996
20
213.714168
40
1.000007
100
AcDbArc
50
-45.573321
51
0.000001
0
LINE
5
92d
100
AcDbEntity
8
1
100
AcDbLine
6
CONTINUOUS
62
5
10
106.699997
20
213.000017
11
106.699997
21
210.000002
0
ARC
5
92e
100
AcDbEntity
8
1
100
AcDbCircle
6
CONTINUOUS
62
5
10
107.699997
20
210.000002
40
1.000000
100
AcDbArc
50
179.999998
51
-89.999999
0
POLYLINE
5
92f
100
AcDbEntity
8
1
6
CONTINUOUS
62
5
100
AcDb2dPolyline
66
1
10
0.0
20
0.0
30
0.0
70
0
0
VERTEX
5
930
100
AcDbEntity
8
1
100
AcDbVertex
100
AcDb2dVertex
62
5
10
107.699997
20
209.000002
0
VERTEX
5
931
100
AcDbEntity
8
1
100
AcDbVertex
100
AcDb2dVertex
62
5
10
109.378016
20
209.000002
0
VERTEX
5
932
100
AcDbEntity
8
1
100
AcDbVertex
100
AcDb2dVertex
62
5
10
109.400002
20
203.500004
0
SEQEND
5
933
100
AcDbEntity
8
1
0
ARC
5
934
100
AcDbEntity
8
1
100
AcDbCircle
6
CONTINUOUS
62
5
10
108.400002
20
203.500004
40
1.000000
100
AcDbArc
50
-89.999999
51
0.000000
0
LINE
5
935
100
AcDbEntity
8
1
100
AcDbLine
6
CONTINUOUS
62
5
10
108.400002
20
202.500004
11
106.500003
21
202.500004
0
ARC
5
936
100
AcDbEntity
8
1
100
AcDbCircle
6
CONTINUOUS
62
5
10
106.500003
20
200.500005
40
1.999999
100
AcDbArc
50
89.999999
51
179.999998
0
LINE
5
937
100
AcDbEntity
8
1
100
AcDbLine
6
CONTINUOUS
62
5
10
104.500003
20
200.500005
11
104.500003
21
119.500029
0
ARC
5
938
100
AcDbEntity
8
1
100
AcDbCircle
6
CONTINUOUS
62
5
10
106.500003
20
119.500029
40
1.999999
100
AcDbArc
50
179.999998
51
-89.999999
0
LINE
5
939
100
AcDbEntity
8
1
100
AcDbLine
6
CONTINUOUS
62
5
10
106.500003
20
117.500030
11
108.400002
21
117.500030
0
ARC
5
93a
100
AcDbEntity
8
1
100
AcDbCircle
6
CONTINUOUS
62
5
10
108.400002
20
116.500030
40
1.000000
100
AcDbArc
50
-0.000000
51
89.999999
0
POLYLINE
5
93b
100
AcDbEntity
8
1
6
CONTINUOUS
62
5
100
AcDb2dPolyline
66
1
10
0.0
20
0.0
30
0.0
70
0
0
VERTEX
5
93c
100
AcDbEntity
8
1
100
AcDbVertex
100
AcDb2dVertex
62
5
10
109.400002
20
116.500030
0
VERTEX
5
93d
100
AcDbEntity
8
1
100
AcDbVertex
100
AcDb2dVertex
62
5
10
109.400002
20
111.000031
0
VERTEX
5
93e
100
AcDbEntity
8
1
100
AcDbVertex
100
AcDb2dVertex
62
5
10
107.699997
20
111.000031
0
SEQEND
5
93f
100
AcDbEntity
8
1
0
ARC
5
940
100
AcDbEntity
8
1
100
AcDbCircle
6
CONTINUOUS
62
5
10
107.699997
20
110.000031
40
1.000000
100
AcDbArc
50
89.999999
51
179.999998
0
LINE
5
941
100
AcDbEntity
8
1
100
AcDbLine
6
CONTINUOUS
62
5
10
106.699997
20
110.000031
11
106.700003
21
107.000017
0
ARC
5
942
100
AcDbEntity
8
1
100
AcDbCircle
6
CONTINUOUS
62
5
10
105.999971
20
106.285861
40
1.000032
100
AcDbArc
50
0.000450
51
45.572234
0
LINE
5
943
100
AcDbEntity
8
1
100
AcDbLine
6
CONTINUOUS
62
5
10
107.000003
20
106.285869
11
107.000003
21
105.000033
0
ARC
5
944
100
AcDbEntity
8
1
100
AcDbCircle
6
CONTINUOUS
62
5
10
108.000002
20
105.000033
40
1.000000
100
AcDbArc
50
179.999998
51
-89.999999
0
LINE
5
945
100
AcDbEntity
8
1
100
AcDbLine
6
CONTINUOUS
62
5
10
108.000002
20
104.000034
11
151.999997
21
104.000034
0
ARC
5
946
100
AcDbEntity
8
1
100
AcDbCircle
6
CONTINUOUS
62
5
10
151.999997
20
105.000034
40
1.000000
100
AcDbArc
50
-89.999999
51
-0.000000
0
LINE
5
947
100
AcDbEntity
8
1
100
AcDbLine
6
CONTINUOUS
62
5
10
152.999997
20
105.000034
11
152.999997
21
105.750033
0
ARC
5
948
100
AcDbEntity
8
1
100
AcDbCircle
6
CONTINUOUS
62
5
10
151.999997
20
105.750033
40
1.000000
100
AcDbArc
50
0.000000
51
89.999999
0
POLYLINE
5
949
100
AcDbEntity
8
1
6
CONTINUOUS
62
5
100
AcDb2dPolyline
66
1
10
0.0
20
0.0
30
0.0
70
0
0
VERTEX
5
94a
100
AcDbEntity
8
1
100
AcDbVertex
100
AcDb2dVertex
62
5
10
151.999997
20
106.750033
0
VERTEX
5
94b
100
AcDbEntity
8
1
100
AcDbVertex
100
AcDb2dVertex
62
5
10
147.699990
20
106.750033
0
VERTEX
5
94c
100
AcDbEntity
8
1
100
AcDbVertex
100
AcDb2dVertex
62
5
10
147.699990
20
110.000032
0
SEQEND
5
94d
100
AcDbEntity
8
1
0
ARC
5
94e
100
AcDbEntity
8
1
100
AcDbCircle
6
CONTINUOUS
62
5
10
146.699990
20
110.000032
40
1.000000
100
AcDbArc
50
0.000000
51
89.999998
0
POLYLINE
5
94f
100
AcDbEntity
8
1
6
CONTINUOUS
62
5
100
AcDb2dPolyline
66
1
10
0.0
20
0.0
30
0.0
70
0
0
VERTEX
5
950
100
AcDbEntity
8
1
100
AcDbVertex
100
AcDb2dVertex
62
5
10
146.699990
20
111.000031
0
VERTEX
5
951
100
AcDbEntity
8
1
100
AcDbVertex
100
AcDb2dVertex
62
5
10
144.999991
20
111.000031
0
VERTEX
5
952
100
AcDbEntity
8
1
100
AcDbVertex
100
AcDb2dVertex
62
5
10
144.999991
20
116.500030
0
SEQEND
5
953
100
AcDbEntity
8
1
0
ARC
5
954
100
AcDbEntity
8
1
100
AcDbCircle
6
CONTINUOUS
62
5
10
145.999991
20
116.500030
40
1.000000
100
AcDbArc
50
89.999999
51
179.999998
0
LINE
5
955
100
AcDbEntity
8
1
100
AcDbLine
6
CONTINUOUS
62
5
10
145.999991
20
117.500030
11
148.399990
21
117.500030
0
ARC
5
956
100
AcDbEntity
8
1
100
AcDbCircle
6
CONTINUOUS
62
5
10
148.399990
20
119.500029
40
1.999999
100
AcDbArc
50
-89.999999
51
0.000000
0
LINE
5
957
100
AcDbEntity
8
1
100
AcDbLine
6
CONTINUOUS
62
5
10
150.399990
20
119.500029
11
150.399990
21
200.500005
0
ARC
5
958
100
AcDbEntity
8
1
100
AcDbCircle
6
CONTINUOUS
62
5
10
148.399990
20
200.500005
40
1.999999
100
AcDbArc
50
-0.000000
51
89.999999
0
LINE
5
959
100
AcDbEntity
8
1
100
AcDbLine
6
CONTINUOUS
62
5
10
148.399990
20
202.500004
11
145.999991
21
202.500004
0
ARC
5
95a
100
AcDbEntity
8
1
100
AcDbCircle
6
CONTINUOUS
62
5
10
145.999991
20
203.500004
40
1.000000
100
AcDbArc
50
-179.999998
51
-89.999999
0
POLYLINE
5
95b
100
AcDbEntity
8
1
6
CONTINUOUS
62
5
100
AcDb2dPolyline
66
1
10
0.0
20
0.0
30
0.0
70
0
0
VERTEX
5
95c
100
AcDbEntity
8
1
100
AcDbVertex
100
AcDb2dVertex
62
5
10
144.999991
20
203.500004
0
VERTEX
5
95d
100
AcDbEntity
8
1
100
AcDbVertex
100
AcDb2dVertex
62
5
10
144.999991
20
209.000002
0
VERTEX
5
95e
100
AcDbEntity
8
1
100
AcDbVertex
100
AcDb2dVertex
62
5
10
146.699990
20
209.000002
0
SEQEND
5
95f
100
AcDbEntity
8
1
0
ARC
5
960
100
AcDbEntity
8
1
100
AcDbCircle
6
CONTINUOUS
62
5
10
146.699990
20
210.000002
40
1.000000
100
AcDbArc
50
-89.999999
51
-0.000000
0
POLYLINE
5
961
100
AcDbEntity
8
1
6
CONTINUOUS
62
5
100
AcDb2dPolyline
66
1
10
0.0
20
0.0
30
0.0
70
0
0
VERTEX
5
962
100
AcDbEntity
8
1
100
AcDbVertex
100
AcDb2dVertex
62
5
10
147.699990
20
210.000002
0
VERTEX
5
963
100
AcDbEntity
8
1
100
AcDbVertex
100
AcDb2dVertex
62
5
10
147.699990
20
213.250001
0
VERTEX
5
964
100
AcDbEntity
8
1
100
AcDbVertex
100
AcDb2dVertex
62
5
10
151.999997
20
213.250001
0
SEQEND
5
965
100
AcDbEntity
8
1
0
ARC
5
966
100
AcDbEntity
8
1
100
AcDbCircle
6
CONTINUOUS
62
5
10
151.999997
20
214.250001
40
1.000000
100
AcDbArc
50
-89.999999
51
-0.000000
0
LINE
5
967
100
AcDbEntity
8
1
100
AcDbLine
6
CONTINUOUS
62
5
10
152.999997
20
214.250001
11
152.999997
21
215.000000
0
ARC
5
968
100
AcDbEntity
8
1
100
AcDbCircle
6
CONTINUOUS
62
5
10
151.999997
20
215.000000
40
1.000000
100
AcDbArc
50
0.000000
51
89.999999
0
LINE
5
969
100
AcDbEntity
8
1
100
AcDbLine
6
CONTINUOUS
62
5
10
151.999997
20
216.000000
11
108.000002
21
216.000000
0
ARC
5
96a
100
AcDbEntity
8
1
100
AcDbCircle
6
CONTINUOUS
62
5
10
208.699997
20
126.350000
40
0.700000
100
AcDbArc
50
-179.999998
51
-89.999999
0
LINE
5
96b
100
AcDbEntity
8
1
100
AcDbLine
6
CONTINUOUS
62
5
10
207.999997
20
126.350000
11
207.999997
21
193.650000
0
ARC
5
96c
100
AcDbEntity
8
1
100
AcDbCircle
6
CONTINUOUS
62
5
10
208.699997
20
193.650000
40
0.700000
100
AcDbArc
50
89.999999
51
179.999998
0
LINE
5
96d
100
AcDbEntity
8
1
100
AcDbLine
6
CONTINUOUS
62
5
10
208.699997
20
194.350000
11
212.050005
21
194.350000
0
LINE
5
96e
100
AcDbEntity
8
1
100
AcDbLine
6
CONTINUOUS
62
5
10
212.050005
20
125.650000
11
208.699997
21
125.650000
0
ARC
5
96f
100
AcDbEntity
8
1
100
AcDbCircle
6
CONTINUOUS
62
5
10
215.050004
20
215.499983
40
0.500000
100
AcDbArc
50
90.000012
51
161.565001
0
LINE
5
970
100
AcDbEntity
8
1
100
AcDbLine
6
CONTINUOUS
62
5
10
214.575663
20
215.658097
11
213.489588
21
213.093454
0
ARC
5
971
100
AcDbEntity
8
1
100
AcDbCircle
6
CONTINUOUS
62
5
10
213.950005
20
212.898477
40
0.500000
100
AcDbArc
50
157.048315
51
179.999998
0
POLYLINE
5
972
100
AcDbEntity
8
1
6
CONTINUOUS
62
5
100
AcDb2dPolyline
66
1
10
0.0
20
0.0
30
0.0
70
0
0
VERTEX
5
973
100
AcDbEntity
8
1
100
AcDbVertex
100
AcDb2dVertex
62
5
10
213.450005
20
212.898477
0
VERTEX
5
974
100
AcDbEntity
8
1
100
AcDbVertex
100
AcDb2dVertex
62
5
10
213.450005
20
206.149986
0
VERTEX
5
975
100
AcDbEntity
8
1
100
AcDbVertex
100
AcDb2dVertex
62
5
10
212.550005
20
206.149986
0
SEQEND
5
976
100
AcDbEntity
8
1
0
ARC
5
977
100
AcDbEntity
8
1
100
AcDbCircle
6
CONTINUOUS
62
5
10
212.550005
20
205.649986
40
0.500000
100
AcDbArc
50
89.999999
51
-179.999998
0
LINE
5
978
100
AcDbEntity
8
1
100
AcDbLine
6
CONTINUOUS
62
5
10
212.050005
20
205.649986
11
212.050005
21
114.350014
0
ARC
5
979
100
AcDbEntity
8
1
100
AcDbCircle
6
CONTINUOUS
62
5
10
212.550005
20
114.350014
40
0.500000
100
AcDbArc
50
-179.999998
51
-89.999999
0
POLYLINE
5
97a
100
AcDbEntity
8
1
6
CONTINUOUS
62
5
100
AcDb2dPolyline
66
1
10
0.0
20
0.0
30
0.0
70
0
0
VERTEX
5
97b
100
AcDbEntity
8
1
100
AcDbVertex
100
AcDb2dVertex
62
5
10
212.550005
20
113.850014
0
VERTEX
5
97c
100
AcDbEntity
8
1
100
AcDbVertex
100
AcDb2dVertex
62
5
10
213.450005
20
113.850014
0
VERTEX
5
97d
100
AcDbEntity
8
1
100
AcDbVertex
100
AcDb2dVertex
62
5
10
213.450005
20
107.101523
0
SEQEND
5
97e
100
AcDbEntity
8
1
0
ARC
5
97f
100
AcDbEntity
8
1
100
AcDbCircle
6
CONTINUOUS
62
5
10
213.950005
20
107.101523
40
0.500000
100
AcDbArc
50
-179.999998
51
-157.048315
0
LINE
5
980
100
AcDbEntity
8
1
100
AcDbLine
6
CONTINUOUS
62
5
10
213.489588
20
106.906546
11
214.575663
21
104.341903
0
ARC
5
981
100
AcDbEntity
8
1
100
AcDbCircle
6
CONTINUOUS
62
5
10
215.050004
20
104.500017
40
0.500000
100
AcDbArc
50
-161.565013
51
-89.999987
0
POLYLINE
5
982
100
AcDbEntity
8
1
6
CONTINUOUS
62
5
100
AcDb2dPolyline
66
1
10
0.0
20
0.0
30
0.0
70
0
0
VERTEX
5
983
100
AcDbEntity
8
1
100
AcDbVertex
100
AcDb2dVertex
62
5
10
215.050004
20
104.000017
0
VERTEX
5
984
100
AcDbEntity
8
1
100
AcDbVertex
100
AcDb2dVertex
62
5
10
216.050007
20
104.000017
0
VERTEX
5
985
100
AcDbEntity
8
1
100
AcDbVertex
100
AcDb2dVertex
62
5
10
216.050007
20
126.800010
0
SEQEND
5
986
100
AcDbEntity
8
1
0
POLYLINE
5
987
100
AcDbEntity
8
1
6
CONTINUOUS
62
5
100
AcDb2dPolyline
66
1
10
0.0
20
0.0
30
0.0
70
0
0
VERTEX
5
988
100
AcDbEntity
8
1
100
AcDbVertex
100
AcDb2dVertex
62
5
10
216.050007
20
193.199990
0
VERTEX
5
989
100
AcDbEntity
8
1
100
AcDbVertex
100
AcDb2dVertex
62
5
10
216.050007
20
215.999983
0
VERTEX
5
98a
100
AcDbEntity
8
1
100
AcDbVertex
100
AcDb2dVertex
62
5
10
215.050004
20
215.999983
0
SEQEND
5
98b
100
AcDbEntity
8
1
0
ARC
5
98c
100
AcDbEntity
8
1
100
AcDbCircle
6
CONTINUOUS
62
5
10
214.849993
20
187.749993
40
0.500000
100
AcDbArc
50
89.999999
51
179.999998
0
LINE
5
98d
100
AcDbEntity
8
1
100
AcDbLine
6
CONTINUOUS
62
5
10
214.349993
20
187.749993
11
214.349993
21
178.249993
0
ARC
5
98e
100
AcDbEntity
8
1
100
AcDbCircle
6
CONTINUOUS
62
5
10
214.849993
20
178.249993
40
0.500000
100
AcDbArc
50
179.999998
51
-89.999999
0
LINE
5
98f
100
AcDbEntity
8
1
100
AcDbLine
6
CONTINUOUS
62
5
10
214.849993
20
177.749993
11
217.540006
21
177.749993
0
ARC
5
990
100
AcDbEntity
8
1
100
AcDbCircle
6
CONTINUOUS
62
5
10
217.540006
20
178.249993
40
0.500000
100
AcDbArc
50
-89.999999
51
0.000000
0
LINE
5
991
100
AcDbEntity
8
1
100
AcDbLine
6
CONTINUOUS
62
5
10
218.040006
20
178.249993
11
218.040006
21
187.749993
0
ARC
5
992
100
AcDbEntity
8
1
100
AcDbCircle
6
CONTINUOUS
62
5
10
217.540006
20
187.749993
40
0.500000
100
AcDbArc
50
0.000000
51
89.999999
0
LINE
5
993
100
AcDbEntity
8
1
100
AcDbLine
6
CONTINUOUS
62
5
10
217.540006
20
188.249993
11
214.849993
21
188.249993
0
ARC
5
994
100
AcDbEntity
8
1
100
AcDbCircle
6
CONTINUOUS
62
5
10
223.050007
20
195.200000
40
0.500000
100
AcDbArc
50
0.000000
51
89.999999
0
LINE
5
995
100
AcDbEntity
8
1
100
AcDbLine
6
CONTINUOUS
62
5
10
223.550007
20
195.200000
11
223.550007
21
124.800000
0
ARC
5
996
100
AcDbEntity
8
1
100
AcDbCircle
6
CONTINUOUS
62
5
10
223.050007
20
124.800000
40
0.500000
100
AcDbArc
50
-89.999999
51
0.000000
0
LINE
5
997
100
AcDbEntity
8
1
100
AcDbLine
6
CONTINUOUS
62
5
10
223.050007
20
124.300000
11
216.050007
21
124.300000
0
LINE
5
998
100
AcDbEntity
8
1
100
AcDbLine
6
CONTINUOUS
62
5
10
216.050007
20
195.700000
11
223.050007
21
195.700000
0
ARC
5
999
100
AcDbEntity
8
1
100
AcDbCircle
6
CONTINUOUS
62
5
10
212.550005
20
173.499996
40
0.500000
100
AcDbArc
50
89.999999
51
179.872717
0
POLYLINE
5
99a
100
AcDbEntity
8
1
6
CONTINUOUS
62
5
100
AcDb2dPolyline
66
1
10
0.0
20
0.0
30
0.0
70
0
0
VERTEX
5
99b
100
AcDbEntity
8
1
100
AcDbVertex
100
AcDb2dVertex
62
5
10
212.550005
20
173.999996
0
VERTEX
5
99c
100
AcDbEntity
8
1
100
AcDbVertex
100
AcDb2dVertex
62
5
10
220.849995
20
173.999996
0
VERTEX
5
99d
100
AcDbEntity
8
1
100
AcDbVertex
100
AcDb2dVertex
62
5
10
220.849997
20
191.999990
0
VERTEX
5
99e
100
AcDbEntity
8
1
100
AcDbVertex
100
AcDb2dVertex
62
5
10
212.550006
20
191.999990
0
SEQEND
5
99f
100
AcDbEntity
8
1
0
ARC
5
9a0
100
AcDbEntity
8
1
100
AcDbCircle
6
CONTINUOUS
62
5
10
212.550006
20
192.499990
40
0.500000
100
AcDbArc
50
-179.999998
51
-89.999999
0
POLYLINE
5
9a1
100
AcDbEntity
8
1
6
DOT2
62
5
100
AcDb2dPolyline
66
1
10
0.0
20
0.0
30
0.0
70
0
0
VERTEX
5
9a2
100
AcDbEntity
8
1
100
AcDbVertex
100
AcDb2dVertex
62
5
10
0.000000
20
350.000000
0
VERTEX
5
9a3
100
AcDbEntity
8
1
100
AcDbVertex
100
AcDb2dVertex
62
5
10
0.000000
20
360.000000
0
VERTEX
5
9a4
100
AcDbEntity
8
1
100
AcDbVertex
100
AcDb2dVertex
62
5
10
10.000000
20
360.000000
0
SEQEND
5
9a5
100
AcDbEntity
8
1
0
POLYLINE
5
9a6
100
AcDbEntity
8
1
6
DOT2
62
5
100
AcDb2dPolyline
66
1
10
0.0
20
0.0
30
0.0
70
0
0
VERTEX
5
9a7
100
AcDbEntity
8
1
100
AcDbVertex
100
AcDb2dVertex
62
5
10
330.000000
20
360.000000
0
VERTEX
5
9a8
100
AcDbEntity
8
1
100
AcDbVertex
100
AcDb2dVertex
62
5
10
340.000000
20
360.000000
0
VERTEX
5
9a9
100
AcDbEntity
8
1
100
AcDbVertex
100
AcDb2dVertex
62
5
10
340.000000
20
350.000000
0
SEQEND
5
9aa
100
AcDbEntity
8
1
0
POLYLINE
5
9ab
100
AcDbEntity
8
1
6
DOT2
62
5
100
AcDb2dPolyline
66
1
10
0.0
20
0.0
30
0.0
70
0
0
VERTEX
5
9ac
100
AcDbEntity
8
1
100
AcDbVertex
100
AcDb2dVertex
62
5
10
340.000000
20
10.000000
0
VERTEX
5
9ad
100
AcDbEntity
8
1
100
AcDbVertex
100
AcDb2dVertex
62
5
10
340.000000
20
0.000000
0
VERTEX
5
9ae
100
AcDbEntity
8
1
100
AcDbVertex
100
AcDb2dVertex
62
5
10
330.000000
20
0.000000
0
SEQEND
5
9af
100
AcDbEntity
8
1
0
POLYLINE
5
9b0
100
AcDbEntity
8
1
6
DOT2
62
5
100
AcDb2dPolyline
66
1
10
0.0
20
0.0
30
0.0
70
0
0
VERTEX
5
9b1
100
AcDbEntity
8
1
100
AcDbVertex
100
AcDb2dVertex
62
5
10
10.000000
20
0.000000
0
VERTEX
5
9b2
100
AcDbEntity
8
1
100
AcDbVertex
100
AcDb2dVertex
62
5
10
0.000000
20
0.000000
0
VERTEX
5
9b3
100
AcDbEntity
8
1
100
AcDbVertex
100
AcDb2dVertex
62
5
10
0.000000
20
10.000000
0
SEQEND
5
9b4
100
AcDbEntity
8
1
0
POLYLINE
5
9b5
100
AcDbEntity
8
1
6
CONTINUOUS
62
5
100
AcDb2dPolyline
66
1
10
0.0
20
0.0
30
0.0
70
1
0
VERTEX
5
9b6
100
AcDbEntity
8
1
100
AcDbVertex
100
AcDb2dVertex
62
5
10
10.000000
20
10.000000
0
VERTEX
5
9b7
100
AcDbEntity
8
1
100
AcDbVertex
100
AcDb2dVertex
62
5
10
10.000000
20
350.000000
0
VERTEX
5
9b8
100
AcDbEntity
8
1
100
AcDbVertex
100
AcDb2dVertex
62
5
10
330.000000
20
350.000000
0
VERTEX
5
9b9
100
AcDbEntity
8
1
100
AcDbVertex
100
AcDb2dVertex
62
5
10
330.000000
20
10.000000
0
VERTEX
5
9ba
100
AcDbEntity
8
1
100
AcDbVertex
100
AcDb2dVertex
62
5
10
10.000000
20
10.000000
0
SEQEND
5
9bb
100
AcDbEntity
8
1
0
ENDSEC
0
SECTION
2
OBJECTS
0
DICTIONARY
5
9bc
100
AcDbDictionary
3
ACAD_GROUP
350
9bd
3
ACAD_MLINESTYLE
350
9be
0
DICTIONARY
5
9bd
102
{ACAD_REACTORS
330
9bc
102
}
100
AcDbDictionary
0
DICTIONARY
5
9be
102
{ACAD_REACTORS
330
9bc
102
}
100
AcDbDictionary
3
STANDARD
350
9bf
0
MLINESTYLE
5
9bf
102
{ACAD_REACTORS
330
9be
102
}
100
AcDbMlineStyle
2
STANDARD
70
0
3

62
0
51
90.0
52
90.0
71
2
49
0.5
62
256
6
BYLAYER
49
-0.5
62
256
6
BYLAYER
0
ENDSEC
0
EOF
