0
SECTION
2
HEADER
9
$ACADVER
1
AC1012
9
$EXTMIN
10
0.000000
20
0.000000
30
0.0
9
$EXTMAX
10
13.390000
20
14.180000
30
0.0
9
$LIMMIN
10
0.000000
20
0.000000
9
$LIMMAX
10
340.106000
20
360.172000
9
$DIMSCALE
40
1.000000
9
$PDMODE
70
2
9
$PDSIZE
40
0.0
  9
$HANDSEED
  5
747
0
ENDSEC
0
SECTION
2
CLASSES
0
ENDSEC
0
SECTION
2
TABLES
0
TABLE
2
LTYPE
5
1e
100
AcDbSymbolTable
70
12
0
LTYPE
5
1f
100
AcDbSymbolTableRecord
100
AcDbLinetypeTableRecord
2
BYBLOCK
70
0
3

72
65
73
0
40
0.0
0
LTYPE
5
20
100
AcDbSymbolTableRecord
100
AcDbLinetypeTableRecord
2
BYLAYER
70
0
3

72
65
73
0
40
0.0
0
LTYPE
5
21
100
AcDbSymbolTableRecord
100
AcDbLinetypeTableRecord
2
CONTINUOUS
70
64
3
Solid line
72
65
73
0
40
0.0
0
LTYPE
5
22
100
AcDbSymbolTableRecord
100
AcDbLinetypeTableRecord
2
DASHED
70
64
3
__ __ __ __ __ __ __ __ __ __ __ __ __ __ __
72
65
73
2
40
0.75
49
0.5
74
0
49
-0.25
74
0
0
LTYPE
5
23
100
AcDbSymbolTableRecord
100
AcDbLinetypeTableRecord
2
DOT
70
64
3
...............................................
72
65
73
2
40
0.25
49
0.0
74
0
49
-0.25
74
0
0
LTYPE
5
24
100
AcDbSymbolTableRecord
100
AcDbLinetypeTableRecord
2
DASHDOT
70
64
3
__ . __ . __ . __ . __ . __ . __ . __ . __ . --
72
65
73
4
40
1.0
49
0.5
74
0
49
-0.25
74
0
49
0.0
74
0
49
-0.25
74
0
0
LTYPE
5
25
100
AcDbSymbolTableRecord
100
AcDbLinetypeTableRecord
2
CENTER
70
64
3
____ _ ____ _ ____ _ ____ _ ____ _ ____ _ ____
72
65
73
4
40
2.0
49
1.25
74
0
49
-0.25
74
0
49
0.25
74
0
49
-0.25
74
0
0
LTYPE
5
26
100
AcDbSymbolTableRecord
100
AcDbLinetypeTableRecord
2
PHANTOM
70
64
3
_____ _ _ _____ _ _ _____ _ _ _____ _ _ ____
72
65
73
6
40
2.5
49
1.25
74
0
49
-0.25
74
0
49
0.25
74
0
49
-0.25
74
0
49
0.25
74
0
49
-0.25
74
0
0
LTYPE
5
27
100
AcDbSymbolTableRecord
100
AcDbLinetypeTableRecord
2
HIDDEN
70
64
3
_ _ _ _ _ _ _ _ _ _ _ _ _ _ _ _ _ _ _ _ _ _ _
72
65
73
2
40
0.375
49
0.25
74
0
49
-0.125
74
0
0
LTYPE
5
28
100
AcDbSymbolTableRecord
100
AcDbLinetypeTableRecord
2
BORDER
70
64
3
__ __ . __ __ . __ __ . __ __ . __ __ . __ __
72
65
73
6
40
1.75
49
0.5
74
0
49
-0.25
74
0
49
0.5
74
0
49
-0.25
74
0
49
0.0
74
0
49
-0.25
74
0
0
LTYPE
5
29
100
AcDbSymbolTableRecord
100
AcDbLinetypeTableRecord
2
DIVIDE
70
64
3
__ . . __ . . __ . . __ . . __ . . __ . . __
72
65
73
6
40
1.25
49
0.5
74
0
49
-0.25
74
0
49
0.0
74
0
49
-0.25
74
0
49
0.0
74
0
49
-0.25
74
0
0
LTYPE
5
2a
100
AcDbSymbolTableRecord
100
AcDbLinetypeTableRecord
2
DOT2
70
64
3
...............................................
72
65
73
2
40
0.125
49
0.0
74
0
49
-0.125
74
0
0
ENDTAB
0
TABLE
2
STYLE
5
2b
100
AcDbSymbolTable
70
1
0
STYLE
5
2c
100
AcDbSymbolTableRecord
100
AcDbTextStyleTableRecord
2
STANDARD
70
64
40
0.0
41
1.0
50
0.0
71
0
42
5.0
3
txt
4
bigfont
0
ENDTAB
0
TABLE
2
LAYER
5
2d
100
AcDbSymbolTable
70
2
0
LAYER
5
2e
100
AcDbSymbolTableRecord
100
AcDbLayerTableRecord
2
0
70
0
62
7
6
CONTINUOUS
0
LAYER
5
2f
100
AcDbSymbolTableRecord
100
AcDbLayerTableRecord
2
1
70
0
62
7
6
CONTINUOUS
0
ENDTAB
0
TABLE
2
APPID
5
30
100
AcDbSymbolTable
70
1
0
APPID
5
31
100
AcDbSymbolTableRecord
100
AcDbRegAppTableRecord
2
ACAD
70
64
0
ENDTAB
0
TABLE
2
DIMSTYLE
5
32
100
AcDbSymbolTable
70
0
0
ENDTAB
0
TABLE
2
UCS
5
33
100
AcDbSymbolTable
70
0
0
ENDTAB
0
TABLE
2
VIEW
5
34
100
AcDbSymbolTable
70
0
0
ENDTAB
0
TABLE
2
VPORT
5
35
100
AcDbSymbolTable
70
0
0
ENDTAB
0
TABLE
2
BLOCK_RECORD
5
36
100
AcDbSymbolTable
70
0
0
BLOCK_RECORD
5
37
100
AcDbSymbolTableRecord
100
AcDbBlockTableRecord
2
*MODEL_SPACE
0
BLOCK_RECORD
5
38
100
AcDbSymbolTableRecord
100
AcDbBlockTableRecord
2
*PAPER_SPACE
0
BLOCK_RECORD
5
39
100
AcDbSymbolTableRecord
100
AcDbBlockTableRecord
2
OPEN
0
BLOCK_RECORD
5
3a
100
AcDbSymbolTableRecord
100
AcDbBlockTableRecord
2
HALF
0
BLOCK_RECORD
5
3b
100
AcDbSymbolTableRecord
100
AcDbBlockTableRecord
2
CLOSEDBLANK
0
BLOCK_RECORD
5
3c
100
AcDbSymbolTableRecord
100
AcDbBlockTableRecord
2
HALFCLOSE_R
0
BLOCK_RECORD
5
3d
100
AcDbSymbolTableRecord
100
AcDbBlockTableRecord
2
DOT
0
BLOCK_RECORD
5
3e
100
AcDbSymbolTableRecord
100
AcDbBlockTableRecord
2
HALFOPEN_R
0
BLOCK_RECORD
5
3f
100
AcDbSymbolTableRecord
100
AcDbBlockTableRecord
2
CLOSEDF
0
BLOCK_RECORD
5
40
100
AcDbSymbolTableRecord
100
AcDbBlockTableRecord
2
HALF_R
0
ENDTAB
0
ENDSEC
0
SECTION
2
BLOCKS
0
BLOCK
5
41
100
AcDbEntity
8
0
100
AcDbBlockBegin
2
*MODEL_SPACE
70
0
10
0.0
20
0.0
30
0.0
3
*MODEL_SPACE
1

0
ENDBLK
5
42
100
AcDbEntity
8
0
100
AcDbBlockEnd
0
BLOCK
5
43
100
AcDbEntity
67
1
8
0
100
AcDbBlockBegin
2
*PAPER_SPACE
70
0
10
0.0
20
0.0
30
0.0
3
*PAPER_SPACE
1

0
ENDBLK
5
44
100
AcDbEntity
67
1
8
0
100
AcDbBlockEnd
0
BLOCK
5
45
100
AcDbEntity
8
0
100
AcDbBlockBegin
2
OPEN
70
0
10
0.0
20
0.0
30
0.0
3
OPEN
1

0
LINE
5
46
100
AcDbEntity
8
0
6
BYBLOCK
62
0
100
AcDbLine
10
0.000000
20
0.000000
11
-1.000000
21
0.000000
0
LINE
5
47
100
AcDbEntity
8
0
6
BYBLOCK
62
0
100
AcDbLine
10
-1.000000
20
-0.166667
11
0.000000
21
0.000000
0
LINE
5
48
100
AcDbEntity
8
0
6
BYBLOCK
62
0
100
AcDbLine
10
-1.000000
20
0.166667
11
0.000000
21
0.000000
0
ENDBLK
5
49
100
AcDbEntity
8
0
100
AcDbBlockEnd
0
BLOCK
5
4a
100
AcDbEntity
8
0
100
AcDbBlockBegin
2
HALF
70
0
10
0.0
20
0.0
30
0.0
3
HALF
1

0
SOLID
5
4b
100
AcDbEntity
8
0
6
BYBLOCK
62
0
100
AcDbTrace
10
-1.000000
20
0.166667
11
-1.000000
21
-0.166667
12
0.000000
22
0.000000
13
0.000000
23
0.000000
0
ENDBLK
5
4c
100
AcDbEntity
8
0
100
AcDbBlockEnd
0
BLOCK
5
4d
100
AcDbEntity
8
0
100
AcDbBlockBegin
2
CLOSEDBLANK
70
0
10
0.0
20
0.0
30
0.0
3
CLOSEDBLANK
1

0
LINE
5
4e
100
AcDbEntity
8
0
6
BYBLOCK
62
0
100
AcDbLine
10
-1.000000
20
0.166667
11
-1.000000
21
-0.166667
0
LINE
5
4f
100
AcDbEntity
8
0
6
BYBLOCK
62
0
100
AcDbLine
10
0.000000
20
0.000000
11
-1.000000
21
-0.166667
0
LINE
5
50
100
AcDbEntity
8
0
6
BYBLOCK
62
0
100
AcDbLine
10
-1.000000
20
0.166667
11
0.000000
21
0.000000
0
ENDBLK
5
51
100
AcDbEntity
8
0
100
AcDbBlockEnd
0
BLOCK
5
52
100
AcDbEntity
8
0
100
AcDbBlockBegin
2
HALFCLOSE_R
70
0
10
0.0
20
0.0
30
0.0
3
HALFCLOSE_R
1

0
LINE
5
53
100
AcDbEntity
8
0
6
BYBLOCK
62
0
100
AcDbLine
10
-1.000000
20
-0.166667
11
-1.000000
21
0.000000
0
LINE
5
54
100
AcDbEntity
8
0
6
BYBLOCK
62
0
100
AcDbLine
10
-1.000000
20
-0.166667
11
0.000000
21
0.000000
0
LINE
5
55
100
AcDbEntity
8
0
6
BYBLOCK
62
0
100
AcDbLine
10
0.000000
20
0.000000
11
-1.000000
21
0.000000
0
ENDBLK
5
56
100
AcDbEntity
8
0
100
AcDbBlockEnd
0
BLOCK
5
57
100
AcDbEntity
8
0
100
AcDbBlockBegin
2
DOT
70
0
10
0.0
20
0.0
30
0.0
3
DOT
1

0
LINE
5
58
100
AcDbEntity
8
0
6
BYBLOCK
62
0
100
AcDbLine
10
0.000000
20
0.000000
11
-1.000000
21
0.000000
0
POLYLINE
5
59
100
AcDbEntity
8
0
6
BYBLOCK
62
0
100
AcDb2dPolyline
66
1
10
0.0
20
0.0
30
0.0
70
1
40
0.166667
41
0.166667
0
VERTEX
5
5a
100
AcDbEntity
8
0
100
AcDbVertex
100
AcDb2dVertex
62
10
10
-0.083333
20
0.000000
42
1.000000
0
VERTEX
5
5b
100
AcDbEntity
8
0
100
AcDbVertex
100
AcDb2dVertex
62
10
10
0.083333
20
0.000000
42
1.000000
0
SEQEND
5
5c
100
AcDbEntity
8
0
0
ENDBLK
5
5d
100
AcDbEntity
8
0
100
AcDbBlockEnd
0
BLOCK
5
5e
100
AcDbEntity
8
0
100
AcDbBlockBegin
2
HALFOPEN_R
70
0
10
0.0
20
0.0
30
0.0
3
HALFOPEN_R
1

0
LINE
5
5f
100
AcDbEntity
8
0
6
BYBLOCK
62
0
100
AcDbLine
10
-1.000000
20
-0.166667
11
0.000000
21
0.000000
0
LINE
5
60
100
AcDbEntity
8
0
6
BYBLOCK
62
0
100
AcDbLine
10
0.000000
20
0.000000
11
-1.000000
21
0.000000
0
ENDBLK
5
61
100
AcDbEntity
8
0
100
AcDbBlockEnd
0
BLOCK
5
62
100
AcDbEntity
8
0
100
AcDbBlockBegin
2
CLOSEDF
70
0
10
0.0
20
0.0
30
0.0
3
CLOSEDF
1

0
SOLID
5
63
100
AcDbEntity
8
0
6
BYBLOCK
62
0
100
AcDbTrace
10
-1.000000
20
0.166667
11
-1.000000
21
-0.166667
12
0.000000
22
0.000000
13
0.000000
23
0.000000
0
ENDBLK
5
64
100
AcDbEntity
8
0
100
AcDbBlockEnd
0
BLOCK
5
65
100
AcDbEntity
8
0
100
AcDbBlockBegin
2
HALF_R
70
0
10
0.0
20
0.0
30
0.0
3
HALF_R
1

0
SOLID
5
66
100
AcDbEntity
8
0
6
BYBLOCK
62
0
100
AcDbTrace
10
-1.000000
20
-0.166667
11
-1.000000
21
0.000000
12
0.000000
22
0.000000
13
0.000000
23
0.000000
0
ENDBLK
5
67
100
AcDbEntity
8
0
100
AcDbBlockEnd
0
ENDSEC
0
SECTION
2
ENTITIES
0
POLYLINE
5
68
100
AcDbEntity
8
1
6
CONTINUOUS
62
5
100
AcDb2dPolyline
66
1
10
0.0
20
0.0
30
0.0
70
0
0
VERTEX
5
69
100
AcDbEntity
8
1
100
AcDbVertex
100
AcDb2dVertex
62
5
10
222.500000
20
339.312500
0
VERTEX
5
6a
100
AcDbEntity
8
1
100
AcDbVertex
100
AcDb2dVertex
62
5
10
221.500000
20
336.500000
0
VERTEX
5
6b
100
AcDbEntity
8
1
100
AcDbVertex
100
AcDb2dVertex
62
5
10
220.250000
20
334.312500
0
SEQEND
5
6c
100
AcDbEntity
8
1
0
LINE
5
6d
100
AcDbEntity
8
1
100
AcDbLine
6
CONTINUOUS
62
5
10
221.500000
20
336.500000
11
221.500000
21
330.562500
0
LINE
5
6e
100
AcDbEntity
8
1
100
AcDbLine
6
CONTINUOUS
62
5
10
222.250000
20
336.500000
11
227.500000
21
336.500000
0
POLYLINE
5
6f
100
AcDbEntity
8
1
6
CONTINUOUS
62
5
100
AcDb2dPolyline
66
1
10
0.0
20
0.0
30
0.0
70
0
0
VERTEX
5
70
100
AcDbEntity
8
1
100
AcDbVertex
100
AcDb2dVertex
62
5
10
225.750000
20
339.312500
0
VERTEX
5
71
100
AcDbEntity
8
1
100
AcDbVertex
100
AcDb2dVertex
62
5
10
225.750000
20
330.875000
0
VERTEX
5
72
100
AcDbEntity
8
1
100
AcDbVertex
100
AcDb2dVertex
62
5
10
224.250000
20
331.187500
0
SEQEND
5
73
100
AcDbEntity
8
1
0
LINE
5
74
100
AcDbEntity
8
1
100
AcDbLine
6
CONTINUOUS
62
5
10
223.250000
20
335.250000
11
224.250000
21
333.375000
0
LINE
5
75
100
AcDbEntity
8
1
100
AcDbLine
6
CONTINUOUS
62
5
10
184.000000
20
336.187500
11
184.000000
21
331.187500
0
POLYLINE
5
76
100
AcDbEntity
8
1
6
CONTINUOUS
62
5
100
AcDb2dPolyline
66
1
10
0.0
20
0.0
30
0.0
70
0
0
VERTEX
5
77
100
AcDbEntity
8
1
100
AcDbVertex
100
AcDb2dVertex
62
5
10
180.500000
20
335.562500
0
VERTEX
5
78
100
AcDbEntity
8
1
100
AcDbVertex
100
AcDb2dVertex
62
5
10
184.000000
20
339.312500
0
VERTEX
5
79
100
AcDbEntity
8
1
100
AcDbVertex
100
AcDb2dVertex
62
5
10
187.250000
20
335.875000
0
SEQEND
5
7a
100
AcDbEntity
8
1
0
LINE
5
7b
100
AcDbEntity
8
1
100
AcDbLine
6
CONTINUOUS
62
5
10
182.000000
20
336.187500
11
185.750000
21
336.187500
0
LINE
5
7c
100
AcDbEntity
8
1
100
AcDbLine
6
CONTINUOUS
62
5
10
181.000000
20
334.312500
11
186.750000
21
334.312500
0
LINE
5
7d
100
AcDbEntity
8
1
100
AcDbLine
6
CONTINUOUS
62
5
10
180.750000
20
331.187500
11
187.250000
21
331.187500
0
LINE
5
7e
100
AcDbEntity
8
1
100
AcDbLine
6
CONTINUOUS
62
5
10
181.750000
20
333.375000
11
182.750000
21
332.125000
0
LINE
5
7f
100
AcDbEntity
8
1
100
AcDbLine
6
CONTINUOUS
62
5
10
186.000000
20
333.375000
11
185.250000
21
332.125000
0
POLYLINE
5
80
100
AcDbEntity
8
1
6
CONTINUOUS
62
5
100
AcDb2dPolyline
66
1
10
0.0
20
0.0
30
0.0
70
0
0
VERTEX
5
81
100
AcDbEntity
8
1
100
AcDbVertex
100
AcDb2dVertex
62
5
10
188.500000
20
331.187500
0
VERTEX
5
82
100
AcDbEntity
8
1
100
AcDbVertex
100
AcDb2dVertex
62
5
10
189.000000
20
333.062500
0
VERTEX
5
83
100
AcDbEntity
8
1
100
AcDbVertex
100
AcDb2dVertex
62
5
10
189.250000
20
334.625000
0
VERTEX
5
84
100
AcDbEntity
8
1
100
AcDbVertex
100
AcDb2dVertex
62
5
10
189.250000
20
339.312500
0
VERTEX
5
85
100
AcDbEntity
8
1
100
AcDbVertex
100
AcDb2dVertex
62
5
10
194.750000
20
339.312500
0
VERTEX
5
86
100
AcDbEntity
8
1
100
AcDbVertex
100
AcDb2dVertex
62
5
10
194.750000
20
337.750000
0
VERTEX
5
87
100
AcDbEntity
8
1
100
AcDbVertex
100
AcDb2dVertex
62
5
10
189.250000
20
337.750000
0
SEQEND
5
88
100
AcDbEntity
8
1
0
LINE
5
89
100
AcDbEntity
8
1
100
AcDbLine
6
CONTINUOUS
62
5
10
194.250000
20
337.125000
11
190.500000
21
336.500000
0
POLYLINE
5
8a
100
AcDbEntity
8
1
6
CONTINUOUS
62
5
100
AcDb2dPolyline
66
1
10
0.0
20
0.0
30
0.0
70
1
0
VERTEX
5
8b
100
AcDbEntity
8
1
100
AcDbVertex
100
AcDb2dVertex
62
5
10
190.500000
20
335.875000
0
VERTEX
5
8c
100
AcDbEntity
8
1
100
AcDbVertex
100
AcDb2dVertex
62
5
10
190.500000
20
334.625000
0
VERTEX
5
8d
100
AcDbEntity
8
1
100
AcDbVertex
100
AcDb2dVertex
62
5
10
194.500000
20
334.625000
0
VERTEX
5
8e
100
AcDbEntity
8
1
100
AcDbVertex
100
AcDb2dVertex
62
5
10
194.500000
20
335.875000
0
VERTEX
5
8f
100
AcDbEntity
8
1
100
AcDbVertex
100
AcDb2dVertex
62
5
10
190.500000
20
335.875000
0
SEQEND
5
90
100
AcDbEntity
8
1
0
LINE
5
91
100
AcDbEntity
8
1
100
AcDbLine
6
CONTINUOUS
62
5
10
192.500000
20
336.812500
11
192.500000
21
332.437500
0
LINE
5
92
100
AcDbEntity
8
1
100
AcDbLine
6
CONTINUOUS
62
5
10
191.000000
20
332.125000
11
193.750000
21
332.437500
0
LINE
5
93
100
AcDbEntity
8
1
100
AcDbLine
6
CONTINUOUS
62
5
10
193.500000
20
333.062500
11
194.250000
21
331.812500
0
POLYLINE
5
94
100
AcDbEntity
8
1
6
CONTINUOUS
62
5
100
AcDb2dPolyline
66
1
10
0.0
20
0.0
30
0.0
70
0
0
VERTEX
5
95
100
AcDbEntity
8
1
100
AcDbVertex
100
AcDb2dVertex
62
5
10
190.000000
20
331.187500
0
VERTEX
5
96
100
AcDbEntity
8
1
100
AcDbVertex
100
AcDb2dVertex
62
5
10
190.000000
20
333.687500
0
VERTEX
5
97
100
AcDbEntity
8
1
100
AcDbVertex
100
AcDb2dVertex
62
5
10
195.000000
20
333.687500
0
VERTEX
5
98
100
AcDbEntity
8
1
100
AcDbVertex
100
AcDb2dVertex
62
5
10
195.000000
20
331.500000
0
VERTEX
5
99
100
AcDbEntity
8
1
100
AcDbVertex
100
AcDb2dVertex
62
5
10
194.750000
20
331.187500
0
VERTEX
5
9a
100
AcDbEntity
8
1
100
AcDbVertex
100
AcDb2dVertex
62
5
10
194.250000
20
331.187500
0
SEQEND
5
9b
100
AcDbEntity
8
1
0
LINE
5
9c
100
AcDbEntity
8
1
100
AcDbLine
6
CONTINUOUS
62
5
10
196.500000
20
339.000000
11
200.250000
21
339.000000
0
LINE
5
9d
100
AcDbEntity
8
1
100
AcDbLine
6
CONTINUOUS
62
5
10
197.250000
20
339.000000
11
197.250000
21
332.437500
0
LINE
5
9e
100
AcDbEntity
8
1
100
AcDbLine
6
CONTINUOUS
62
5
10
199.250000
20
339.000000
11
199.250000
21
330.875000
0
LINE
5
9f
100
AcDbEntity
8
1
100
AcDbLine
6
CONTINUOUS
62
5
10
197.250000
20
336.812500
11
199.250000
21
336.812500
0
LINE
5
a0
100
AcDbEntity
8
1
100
AcDbLine
6
CONTINUOUS
62
5
10
197.250000
20
334.937500
11
199.250000
21
334.937500
0
LINE
5
a1
100
AcDbEntity
8
1
100
AcDbLine
6
CONTINUOUS
62
5
10
196.250000
20
332.125000
11
199.250000
21
333.062500
0
POLYLINE
5
a2
100
AcDbEntity
8
1
6
CONTINUOUS
62
5
100
AcDb2dPolyline
66
1
10
0.0
20
0.0
30
0.0
70
0
0
VERTEX
5
a3
100
AcDbEntity
8
1
100
AcDbVertex
100
AcDb2dVertex
62
5
10
200.000000
20
337.437500
0
VERTEX
5
a4
100
AcDbEntity
8
1
100
AcDbVertex
100
AcDb2dVertex
62
5
10
203.250000
20
337.437500
0
VERTEX
5
a5
100
AcDbEntity
8
1
100
AcDbVertex
100
AcDb2dVertex
62
5
10
202.750000
20
335.250000
0
VERTEX
5
a6
100
AcDbEntity
8
1
100
AcDbVertex
100
AcDb2dVertex
62
5
10
202.250000
20
334.000000
0
VERTEX
5
a7
100
AcDbEntity
8
1
100
AcDbVertex
100
AcDb2dVertex
62
5
10
201.250000
20
332.125000
0
VERTEX
5
a8
100
AcDbEntity
8
1
100
AcDbVertex
100
AcDb2dVertex
62
5
10
200.000000
20
330.875000
0
SEQEND
5
a9
100
AcDbEntity
8
1
0
POLYLINE
5
aa
100
AcDbEntity
8
1
6
CONTINUOUS
62
5
100
AcDb2dPolyline
66
1
10
0.0
20
0.0
30
0.0
70
0
0
VERTEX
5
ab
100
AcDbEntity
8
1
100
AcDbVertex
100
AcDb2dVertex
62
5
10
200.250000
20
336.187500
0
VERTEX
5
ac
100
AcDbEntity
8
1
100
AcDbVertex
100
AcDb2dVertex
62
5
10
201.000000
20
334.312500
0
VERTEX
5
ad
100
AcDbEntity
8
1
100
AcDbVertex
100
AcDb2dVertex
62
5
10
202.000000
20
332.437500
0
VERTEX
5
ae
100
AcDbEntity
8
1
100
AcDbVertex
100
AcDb2dVertex
62
5
10
203.500000
20
330.875000
0
SEQEND
5
af
100
AcDbEntity
8
1
0
POLYLINE
5
b0
100
AcDbEntity
8
1
6
CONTINUOUS
62
5
100
AcDb2dPolyline
66
1
10
0.0
20
0.0
30
0.0
70
0
0
VERTEX
5
b1
100
AcDbEntity
8
1
100
AcDbVertex
100
AcDb2dVertex
62
5
10
206.500000
20
339.312500
0
VERTEX
5
b2
100
AcDbEntity
8
1
100
AcDbVertex
100
AcDb2dVertex
62
5
10
205.500000
20
336.500000
0
VERTEX
5
b3
100
AcDbEntity
8
1
100
AcDbVertex
100
AcDb2dVertex
62
5
10
204.250000
20
334.312500
0
SEQEND
5
b4
100
AcDbEntity
8
1
0
LINE
5
b5
100
AcDbEntity
8
1
100
AcDbLine
6
CONTINUOUS
62
5
10
205.500000
20
336.500000
11
205.500000
21
330.562500
0
LINE
5
b6
100
AcDbEntity
8
1
100
AcDbLine
6
CONTINUOUS
62
5
10
206.250000
20
336.500000
11
211.500000
21
336.500000
0
POLYLINE
5
b7
100
AcDbEntity
8
1
6
CONTINUOUS
62
5
100
AcDb2dPolyline
66
1
10
0.0
20
0.0
30
0.0
70
0
0
VERTEX
5
b8
100
AcDbEntity
8
1
100
AcDbVertex
100
AcDb2dVertex
62
5
10
209.750000
20
339.312500
0
VERTEX
5
b9
100
AcDbEntity
8
1
100
AcDbVertex
100
AcDb2dVertex
62
5
10
209.750000
20
330.875000
0
VERTEX
5
ba
100
AcDbEntity
8
1
100
AcDbVertex
100
AcDb2dVertex
62
5
10
208.250000
20
331.187500
0
SEQEND
5
bb
100
AcDbEntity
8
1
0
LINE
5
bc
100
AcDbEntity
8
1
100
AcDbLine
6
CONTINUOUS
62
5
10
207.250000
20
335.250000
11
208.250000
21
333.375000
0
LINE
5
bd
100
AcDbEntity
8
1
100
AcDbLine
6
CONTINUOUS
62
5
10
218.250000
20
335.562500
11
219.000000
21
335.562500
0
LINE
5
be
100
AcDbEntity
8
1
100
AcDbLine
6
CONTINUOUS
62
5
10
212.250000
20
336.812500
11
214.750000
21
336.812500
0
LINE
5
bf
100
AcDbEntity
8
1
100
AcDbLine
6
CONTINUOUS
62
5
10
213.750000
20
339.312500
11
213.750000
21
330.562500
0
POLYLINE
5
c0
100
AcDbEntity
8
1
6
CONTINUOUS
62
5
100
AcDb2dPolyline
66
1
10
0.0
20
0.0
30
0.0
70
0
0
VERTEX
5
c1
100
AcDbEntity
8
1
100
AcDbVertex
100
AcDb2dVertex
62
5
10
213.750000
20
336.812500
0
VERTEX
5
c2
100
AcDbEntity
8
1
100
AcDbVertex
100
AcDb2dVertex
62
5
10
213.000000
20
334.312500
0
VERTEX
5
c3
100
AcDbEntity
8
1
100
AcDbVertex
100
AcDb2dVertex
62
5
10
212.250000
20
332.750000
0
SEQEND
5
c4
100
AcDbEntity
8
1
0
LINE
5
c5
100
AcDbEntity
8
1
100
AcDbLine
6
CONTINUOUS
62
5
10
213.750000
20
336.187500
11
214.500000
21
334.312500
0
POLYLINE
5
c6
100
AcDbEntity
8
1
6
CONTINUOUS
62
5
100
AcDb2dPolyline
66
1
10
0.0
20
0.0
30
0.0
70
0
0
VERTEX
5
c7
100
AcDbEntity
8
1
100
AcDbVertex
100
AcDb2dVertex
62
5
10
215.000000
20
337.750000
0
VERTEX
5
c8
100
AcDbEntity
8
1
100
AcDbVertex
100
AcDb2dVertex
62
5
10
217.750000
20
337.750000
0
VERTEX
5
c9
100
AcDbEntity
8
1
100
AcDbVertex
100
AcDb2dVertex
62
5
10
217.750000
20
336.500000
0
VERTEX
5
ca
100
AcDbEntity
8
1
100
AcDbVertex
100
AcDb2dVertex
62
5
10
218.250000
20
335.562500
0
SEQEND
5
cb
100
AcDbEntity
8
1
0
POLYLINE
5
cc
100
AcDbEntity
8
1
6
CONTINUOUS
62
5
100
AcDb2dPolyline
66
1
10
0.0
20
0.0
30
0.0
70
0
0
VERTEX
5
cd
100
AcDbEntity
8
1
100
AcDbVertex
100
AcDb2dVertex
62
5
10
216.500000
20
339.625000
0
VERTEX
5
ce
100
AcDbEntity
8
1
100
AcDbVertex
100
AcDb2dVertex
62
5
10
216.250000
20
337.125000
0
VERTEX
5
cf
100
AcDbEntity
8
1
100
AcDbVertex
100
AcDb2dVertex
62
5
10
215.750000
20
335.875000
0
VERTEX
5
d0
100
AcDbEntity
8
1
100
AcDbVertex
100
AcDb2dVertex
62
5
10
215.000000
20
335.250000
0
SEQEND
5
d1
100
AcDbEntity
8
1
0
POLYLINE
5
d2
100
AcDbEntity
8
1
6
CONTINUOUS
62
5
100
AcDb2dPolyline
66
1
10
0.0
20
0.0
30
0.0
70
0
0
VERTEX
5
d3
100
AcDbEntity
8
1
100
AcDbVertex
100
AcDb2dVertex
62
5
10
219.000000
20
335.562500
0
VERTEX
5
d4
100
AcDbEntity
8
1
100
AcDbVertex
100
AcDb2dVertex
62
5
10
219.250000
20
335.875000
0
VERTEX
5
d5
100
AcDbEntity
8
1
100
AcDbVertex
100
AcDb2dVertex
62
5
10
219.250000
20
337.125000
0
SEQEND
5
d6
100
AcDbEntity
8
1
0
LINE
5
d7
100
AcDbEntity
8
1
100
AcDbLine
6
CONTINUOUS
62
5
10
214.750000
20
333.687500
11
219.500000
21
333.687500
0
LINE
5
d8
100
AcDbEntity
8
1
100
AcDbLine
6
CONTINUOUS
62
5
10
217.000000
20
335.250000
11
217.000000
21
330.562500
0
LINE
5
d9
100
AcDbEntity
8
1
100
AcDbLine
6
DOT2
62
5
10
261.825000
20
242.875000
11
261.200000
21
242.250000
0
POLYLINE
5
da
100
AcDbEntity
8
1
6
DOT2
62
5
100
AcDb2dPolyline
66
1
10
0.0
20
0.0
30
0.0
70
0
0
VERTEX
5
db
100
AcDbEntity
8
1
100
AcDbVertex
100
AcDb2dVertex
62
5
10
261.200000
20
242.875000
0
VERTEX
5
dc
100
AcDbEntity
8
1
100
AcDbVertex
100
AcDb2dVertex
62
5
10
261.825000
20
242.250000
0
VERTEX
5
dd
100
AcDbEntity
8
1
100
AcDbVertex
100
AcDb2dVertex
62
5
10
261.200000
20
242.250000
0
VERTEX
5
de
100
AcDbEntity
8
1
100
AcDbVertex
100
AcDb2dVertex
62
5
10
261.200000
20
242.875000
0
VERTEX
5
df
100
AcDbEntity
8
1
100
AcDbVertex
100
AcDb2dVertex
62
5
10
261.825000
20
242.875000
0
VERTEX
5
e0
100
AcDbEntity
8
1
100
AcDbVertex
100
AcDb2dVertex
62
5
10
261.825000
20
242.250000
0
SEQEND
5
e1
100
AcDbEntity
8
1
0
POLYLINE
5
e2
100
AcDbEntity
8
1
6
DOT2
62
5
100
AcDb2dPolyline
66
1
10
0.0
20
0.0
30
0.0
70
0
0
VERTEX
5
e3
100
AcDbEntity
8
1
100
AcDbVertex
100
AcDb2dVertex
62
5
10
259.325000
20
245.687500
0
VERTEX
5
e4
100
AcDbEntity
8
1
100
AcDbVertex
100
AcDb2dVertex
62
5
10
259.325000
20
245.687500
0
VERTEX
5
e5
100
AcDbEntity
8
1
100
AcDbVertex
100
AcDb2dVertex
62
5
10
258.075000
20
245.375000
0
VERTEX
5
e6
100
AcDbEntity
8
1
100
AcDbVertex
100
AcDb2dVertex
62
5
10
257.137500
20
245.375000
0
VERTEX
5
e7
100
AcDbEntity
8
1
100
AcDbVertex
100
AcDb2dVertex
62
5
10
256.512500
20
245.687500
0
VERTEX
5
e8
100
AcDbEntity
8
1
100
AcDbVertex
100
AcDb2dVertex
62
5
10
256.200000
20
246.625000
0
VERTEX
5
e9
100
AcDbEntity
8
1
100
AcDbVertex
100
AcDb2dVertex
62
5
10
256.200000
20
248.187500
0
VERTEX
5
ea
100
AcDbEntity
8
1
100
AcDbVertex
100
AcDb2dVertex
62
5
10
256.512500
20
249.125000
0
VERTEX
5
eb
100
AcDbEntity
8
1
100
AcDbVertex
100
AcDb2dVertex
62
5
10
256.825000
20
249.437500
0
VERTEX
5
ec
100
AcDbEntity
8
1
100
AcDbVertex
100
AcDb2dVertex
62
5
10
257.450000
20
249.750000
0
VERTEX
5
ed
100
AcDbEntity
8
1
100
AcDbVertex
100
AcDb2dVertex
62
5
10
258.075000
20
249.750000
0
VERTEX
5
ee
100
AcDbEntity
8
1
100
AcDbVertex
100
AcDb2dVertex
62
5
10
258.700000
20
249.437500
0
VERTEX
5
ef
100
AcDbEntity
8
1
100
AcDbVertex
100
AcDb2dVertex
62
5
10
259.012500
20
249.125000
0
VERTEX
5
f0
100
AcDbEntity
8
1
100
AcDbVertex
100
AcDb2dVertex
62
5
10
259.325000
20
248.187500
0
VERTEX
5
f1
100
AcDbEntity
8
1
100
AcDbVertex
100
AcDb2dVertex
62
5
10
259.325000
20
244.750000
0
VERTEX
5
f2
100
AcDbEntity
8
1
100
AcDbVertex
100
AcDb2dVertex
62
5
10
259.012500
20
243.187500
0
VERTEX
5
f3
100
AcDbEntity
8
1
100
AcDbVertex
100
AcDb2dVertex
62
5
10
258.387500
20
242.562500
0
VERTEX
5
f4
100
AcDbEntity
8
1
100
AcDbVertex
100
AcDb2dVertex
62
5
10
257.450000
20
242.250000
0
VERTEX
5
f5
100
AcDbEntity
8
1
100
AcDbVertex
100
AcDb2dVertex
62
5
10
256.825000
20
242.250000
0
SEQEND
5
f6
100
AcDbEntity
8
1
0
POLYLINE
5
f7
100
AcDbEntity
8
1
6
DOT2
62
5
100
AcDb2dPolyline
66
1
10
0.0
20
0.0
30
0.0
70
0
0
VERTEX
5
f8
100
AcDbEntity
8
1
100
AcDbVertex
100
AcDb2dVertex
62
5
10
268.700000
20
249.750000
0
VERTEX
5
f9
100
AcDbEntity
8
1
100
AcDbVertex
100
AcDb2dVertex
62
5
10
267.762500
20
249.750000
0
VERTEX
5
fa
100
AcDbEntity
8
1
100
AcDbVertex
100
AcDb2dVertex
62
5
10
266.825000
20
249.437500
0
VERTEX
5
fb
100
AcDbEntity
8
1
100
AcDbVertex
100
AcDb2dVertex
62
5
10
266.200000
20
248.187500
0
VERTEX
5
fc
100
AcDbEntity
8
1
100
AcDbVertex
100
AcDb2dVertex
62
5
10
266.200000
20
243.812500
0
VERTEX
5
fd
100
AcDbEntity
8
1
100
AcDbVertex
100
AcDb2dVertex
62
5
10
266.512500
20
242.875000
0
VERTEX
5
fe
100
AcDbEntity
8
1
100
AcDbVertex
100
AcDb2dVertex
62
5
10
266.825000
20
242.562500
0
VERTEX
5
ff
100
AcDbEntity
8
1
100
AcDbVertex
100
AcDb2dVertex
62
5
10
267.450000
20
242.250000
0
VERTEX
5
100
100
AcDbEntity
8
1
100
AcDbVertex
100
AcDb2dVertex
62
5
10
268.075000
20
242.250000
0
VERTEX
5
101
100
AcDbEntity
8
1
100
AcDbVertex
100
AcDb2dVertex
62
5
10
268.700000
20
242.562500
0
VERTEX
5
102
100
AcDbEntity
8
1
100
AcDbVertex
100
AcDb2dVertex
62
5
10
269.012500
20
242.875000
0
VERTEX
5
103
100
AcDbEntity
8
1
100
AcDbVertex
100
AcDb2dVertex
62
5
10
269.325000
20
243.812500
0
VERTEX
5
104
100
AcDbEntity
8
1
100
AcDbVertex
100
AcDb2dVertex
62
5
10
269.325000
20
245.687500
0
VERTEX
5
105
100
AcDbEntity
8
1
100
AcDbVertex
100
AcDb2dVertex
62
5
10
269.012500
20
246.312500
0
VERTEX
5
106
100
AcDbEntity
8
1
100
AcDbVertex
100
AcDb2dVertex
62
5
10
268.387500
20
246.625000
0
VERTEX
5
107
100
AcDbEntity
8
1
100
AcDbVertex
100
AcDb2dVertex
62
5
10
267.137500
20
246.625000
0
VERTEX
5
108
100
AcDbEntity
8
1
100
AcDbVertex
100
AcDb2dVertex
62
5
10
266.200000
20
246.312500
0
SEQEND
5
109
100
AcDbEntity
8
1
0
POLYLINE
5
10a
100
AcDbEntity
8
1
6
DOT2
62
5
100
AcDb2dPolyline
66
1
10
0.0
20
0.0
30
0.0
70
0
0
VERTEX
5
10b
100
AcDbEntity
8
1
100
AcDbVertex
100
AcDb2dVertex
62
5
10
251.825000
20
249.125000
0
VERTEX
5
10c
100
AcDbEntity
8
1
100
AcDbVertex
100
AcDb2dVertex
62
5
10
252.762500
20
249.750000
0
VERTEX
5
10d
100
AcDbEntity
8
1
100
AcDbVertex
100
AcDb2dVertex
62
5
10
252.762500
20
242.250000
0
SEQEND
5
10e
100
AcDbEntity
8
1
0
LINE
5
10f
100
AcDbEntity
8
1
100
AcDbLine
6
DOT2
62
5
10
252.137500
20
242.250000
11
253.387500
21
242.250000
0
LINE
5
110
100
AcDbEntity
8
1
100
AcDbLine
6
DOT2
62
5
10
194.325000
20
242.875000
11
193.700000
21
242.250000
0
POLYLINE
5
111
100
AcDbEntity
8
1
6
DOT2
62
5
100
AcDb2dPolyline
66
1
10
0.0
20
0.0
30
0.0
70
0
0
VERTEX
5
112
100
AcDbEntity
8
1
100
AcDbVertex
100
AcDb2dVertex
62
5
10
193.700000
20
242.875000
0
VERTEX
5
113
100
AcDbEntity
8
1
100
AcDbVertex
100
AcDb2dVertex
62
5
10
194.325000
20
242.250000
0
VERTEX
5
114
100
AcDbEntity
8
1
100
AcDbVertex
100
AcDb2dVertex
62
5
10
193.700000
20
242.250000
0
VERTEX
5
115
100
AcDbEntity
8
1
100
AcDbVertex
100
AcDb2dVertex
62
5
10
193.700000
20
242.875000
0
VERTEX
5
116
100
AcDbEntity
8
1
100
AcDbVertex
100
AcDb2dVertex
62
5
10
194.325000
20
242.875000
0
VERTEX
5
117
100
AcDbEntity
8
1
100
AcDbVertex
100
AcDb2dVertex
62
5
10
194.325000
20
242.250000
0
SEQEND
5
118
100
AcDbEntity
8
1
0
POLYLINE
5
119
100
AcDbEntity
8
1
6
DOT2
62
5
100
AcDb2dPolyline
66
1
10
0.0
20
0.0
30
0.0
70
0
0
VERTEX
5
11a
100
AcDbEntity
8
1
100
AcDbVertex
100
AcDb2dVertex
62
5
10
188.700000
20
248.812500
0
VERTEX
5
11b
100
AcDbEntity
8
1
100
AcDbVertex
100
AcDb2dVertex
62
5
10
188.700000
20
249.750000
0
VERTEX
5
11c
100
AcDbEntity
8
1
100
AcDbVertex
100
AcDb2dVertex
62
5
10
191.825000
20
249.750000
0
VERTEX
5
11d
100
AcDbEntity
8
1
100
AcDbVertex
100
AcDb2dVertex
62
5
10
191.825000
20
249.125000
0
VERTEX
5
11e
100
AcDbEntity
8
1
100
AcDbVertex
100
AcDb2dVertex
62
5
10
191.200000
20
247.562500
0
VERTEX
5
11f
100
AcDbEntity
8
1
100
AcDbVertex
100
AcDb2dVertex
62
5
10
190.575000
20
245.375000
0
VERTEX
5
120
100
AcDbEntity
8
1
100
AcDbVertex
100
AcDb2dVertex
62
5
10
189.950000
20
242.250000
0
SEQEND
5
121
100
AcDbEntity
8
1
0
POLYLINE
5
122
100
AcDbEntity
8
1
6
DOT2
62
5
100
AcDb2dPolyline
66
1
10
0.0
20
0.0
30
0.0
70
0
0
VERTEX
5
123
100
AcDbEntity
8
1
100
AcDbVertex
100
AcDb2dVertex
62
5
10
201.825000
20
245.687500
0
VERTEX
5
124
100
AcDbEntity
8
1
100
AcDbVertex
100
AcDb2dVertex
62
5
10
201.825000
20
245.687500
0
VERTEX
5
125
100
AcDbEntity
8
1
100
AcDbVertex
100
AcDb2dVertex
62
5
10
200.575000
20
245.375000
0
VERTEX
5
126
100
AcDbEntity
8
1
100
AcDbVertex
100
AcDb2dVertex
62
5
10
199.637500
20
245.375000
0
VERTEX
5
127
100
AcDbEntity
8
1
100
AcDbVertex
100
AcDb2dVertex
62
5
10
199.012500
20
245.687500
0
VERTEX
5
128
100
AcDbEntity
8
1
100
AcDbVertex
100
AcDb2dVertex
62
5
10
198.700000
20
246.625000
0
VERTEX
5
129
100
AcDbEntity
8
1
100
AcDbVertex
100
AcDb2dVertex
62
5
10
198.700000
20
248.187500
0
VERTEX
5
12a
100
AcDbEntity
8
1
100
AcDbVertex
100
AcDb2dVertex
62
5
10
199.012500
20
249.125000
0
VERTEX
5
12b
100
AcDbEntity
8
1
100
AcDbVertex
100
AcDb2dVertex
62
5
10
199.325000
20
249.437500
0
VERTEX
5
12c
100
AcDbEntity
8
1
100
AcDbVertex
100
AcDb2dVertex
62
5
10
199.950000
20
249.750000
0
VERTEX
5
12d
100
AcDbEntity
8
1
100
AcDbVertex
100
AcDb2dVertex
62
5
10
200.575000
20
249.750000
0
VERTEX
5
12e
100
AcDbEntity
8
1
100
AcDbVertex
100
AcDb2dVertex
62
5
10
201.200000
20
249.437500
0
VERTEX
5
12f
100
AcDbEntity
8
1
100
AcDbVertex
100
AcDb2dVertex
62
5
10
201.512500
20
249.125000
0
VERTEX
5
130
100
AcDbEntity
8
1
100
AcDbVertex
100
AcDb2dVertex
62
5
10
201.825000
20
248.187500
0
VERTEX
5
131
100
AcDbEntity
8
1
100
AcDbVertex
100
AcDb2dVertex
62
5
10
201.825000
20
244.750000
0
VERTEX
5
132
100
AcDbEntity
8
1
100
AcDbVertex
100
AcDb2dVertex
62
5
10
201.512500
20
243.187500
0
VERTEX
5
133
100
AcDbEntity
8
1
100
AcDbVertex
100
AcDb2dVertex
62
5
10
200.887500
20
242.562500
0
VERTEX
5
134
100
AcDbEntity
8
1
100
AcDbVertex
100
AcDb2dVertex
62
5
10
199.950000
20
242.250000
0
VERTEX
5
135
100
AcDbEntity
8
1
100
AcDbVertex
100
AcDb2dVertex
62
5
10
199.325000
20
242.250000
0
SEQEND
5
136
100
AcDbEntity
8
1
0
POLYLINE
5
137
100
AcDbEntity
8
1
6
CONTINUOUS
62
5
100
AcDb2dPolyline
66
1
10
0.0
20
0.0
30
0.0
70
0
0
VERTEX
5
138
100
AcDbEntity
8
1
100
AcDbVertex
100
AcDb2dVertex
62
5
10
220.350000
20
215.874837
0
VERTEX
5
139
100
AcDbEntity
8
1
100
AcDbVertex
100
AcDb2dVertex
62
5
10
220.450000
20
215.863459
0
VERTEX
5
13a
100
AcDbEntity
8
1
100
AcDbVertex
100
AcDb2dVertex
62
5
10
220.350000
20
215.000000
0
SEQEND
5
13b
100
AcDbEntity
8
1
0
LINE
5
13c
100
AcDbEntity
8
1
100
AcDbLine
6
CONTINUOUS
62
5
10
220.350000
20
213.250000
11
219.150000
21
213.250000
0
LINE
5
13d
100
AcDbEntity
8
1
100
AcDbLine
6
CONTINUOUS
62
5
10
220.350000
20
209.000000
11
219.150000
21
209.000000
0
ARC
5
13e
100
AcDbEntity
8
1
100
AcDbCircle
6
CONTINUOUS
62
5
10
218.350000
20
207.750000
40
0.500000
100
AcDbArc
50
179.999998
51
-89.999999
0
LINE
5
13f
100
AcDbEntity
8
1
100
AcDbLine
6
CONTINUOUS
62
5
10
218.350000
20
207.250000
11
218.650000
21
207.250000
0
LINE
5
140
100
AcDbEntity
8
1
100
AcDbLine
6
CONTINUOUS
62
5
10
219.150000
20
213.750000
11
218.350000
21
213.750000
0
ARC
5
141
100
AcDbEntity
8
1
100
AcDbCircle
6
CONTINUOUS
62
5
10
218.350000
20
213.250000
40
0.500000
100
AcDbArc
50
90.000002
51
179.999998
0
LINE
5
142
100
AcDbEntity
8
1
100
AcDbLine
6
CONTINUOUS
62
5
10
217.850000
20
213.250000
11
217.850000
21
207.750000
0
ARC
5
143
100
AcDbEntity
8
1
100
AcDbCircle
6
CONTINUOUS
62
5
10
235.650000
20
184.500000
40
0.500000
100
AcDbArc
50
89.999999
51
179.999998
0
LINE
5
144
100
AcDbEntity
8
1
100
AcDbLine
6
CONTINUOUS
62
5
10
235.650000
20
185.000000
11
235.650000
21
185.000000
0
LINE
5
145
100
AcDbEntity
8
1
100
AcDbLine
6
CONTINUOUS
62
5
10
235.650000
20
183.000000
11
235.650000
21
183.000000
0
ARC
5
146
100
AcDbEntity
8
1
100
AcDbCircle
6
CONTINUOUS
62
5
10
235.650000
20
183.500000
40
0.500000
100
AcDbArc
50
179.999998
51
-89.999999
0
LINE
5
147
100
AcDbEntity
8
1
100
AcDbLine
6
CONTINUOUS
62
5
10
235.150000
20
183.500000
11
235.150000
21
184.500000
0
ARC
5
148
100
AcDbEntity
8
1
100
AcDbCircle
6
CONTINUOUS
62
5
10
229.650000
20
192.739407
40
0.500000
100
AcDbArc
50
-86.478546
51
0.000000
0
LINE
5
149
100
AcDbEntity
8
1
100
AcDbLine
6
CONTINUOUS
62
5
10
230.150000
20
192.739407
11
230.150000
21
193.288092
0
ARC
5
14a
100
AcDbEntity
8
1
100
AcDbCircle
6
CONTINUOUS
62
5
10
229.650000
20
193.288092
40
0.500000
100
AcDbArc
50
0.000000
51
68.360441
0
LINE
5
14b
100
AcDbEntity
8
1
100
AcDbLine
6
CONTINUOUS
62
5
10
228.150000
20
192.146154
11
229.680711
21
192.240351
0
ARC
5
14c
100
AcDbEntity
8
1
100
AcDbCircle
6
CONTINUOUS
62
5
10
227.058454
20
184.367342
40
0.800000
100
AcDbArc
50
-37.950678
51
79.933652
0
LINE
5
14d
100
AcDbEntity
8
1
100
AcDbLine
6
CONTINUOUS
62
5
10
227.150000
20
185.163598
11
227.198285
21
185.155027
0
ARC
5
14e
100
AcDbEntity
8
1
100
AcDbCircle
6
CONTINUOUS
62
5
10
229.782486
20
185.505488
40
1.600000
100
AcDbArc
50
64.499999
51
83.565383
0
LINE
5
14f
100
AcDbEntity
8
1
100
AcDbLine
6
CONTINUOUS
62
5
10
230.471304
20
186.949624
11
231.131377
21
186.634786
0
ARC
5
150
100
AcDbEntity
8
1
100
AcDbCircle
6
CONTINUOUS
62
5
10
230.916121
20
186.183493
40
0.500000
100
AcDbArc
50
-25.500000
51
64.499999
0
LINE
5
151
100
AcDbEntity
8
1
100
AcDbLine
6
CONTINUOUS
62
5
10
231.367414
20
185.968238
11
230.202761
21
183.526492
0
ARC
5
152
100
AcDbEntity
8
1
100
AcDbCircle
6
CONTINUOUS
62
5
10
229.119658
20
184.043105
40
1.200000
100
AcDbArc
50
-92.530341
51
-25.500000
0
LINE
5
153
100
AcDbEntity
8
1
100
AcDbLine
6
CONTINUOUS
62
5
10
229.066680
20
182.844275
11
228.150000
21
182.884784
0
LINE
5
154
100
AcDbEntity
8
1
100
AcDbLine
6
CONTINUOUS
62
5
10
227.150000
20
187.412523
11
229.961797
21
187.095409
0
POLYLINE
5
155
100
AcDbEntity
8
1
6
CONTINUOUS
62
5
100
AcDb2dPolyline
66
1
10
0.0
20
0.0
30
0.0
70
0
0
VERTEX
5
156
100
AcDbEntity
8
1
100
AcDbVertex
100
AcDb2dVertex
62
5
10
219.150000
20
209.050610
0
VERTEX
5
157
100
AcDbEntity
8
1
100
AcDbVertex
100
AcDb2dVertex
62
5
10
218.650000
20
209.050610
0
VERTEX
5
158
100
AcDbEntity
8
1
100
AcDbVertex
100
AcDb2dVertex
62
5
10
218.650000
20
202.500000
0
SEQEND
5
159
100
AcDbEntity
8
1
0
POLYLINE
5
15a
100
AcDbEntity
8
1
6
CONTINUOUS
62
5
100
AcDb2dPolyline
66
1
10
0.0
20
0.0
30
0.0
70
0
0
VERTEX
5
15b
100
AcDbEntity
8
1
100
AcDbVertex
100
AcDb2dVertex
62
5
10
219.150000
20
202.500000
0
VERTEX
5
15c
100
AcDbEntity
8
1
100
AcDbVertex
100
AcDb2dVertex
62
5
10
219.150000
20
216.000000
0
VERTEX
5
15d
100
AcDbEntity
8
1
100
AcDbVertex
100
AcDb2dVertex
62
5
10
220.350000
20
216.000000
0
VERTEX
5
15e
100
AcDbEntity
8
1
100
AcDbVertex
100
AcDb2dVertex
62
5
10
220.350000
20
202.500000
0
SEQEND
5
15f
100
AcDbEntity
8
1
0
LINE
5
160
100
AcDbEntity
8
1
100
AcDbLine
6
CONTINUOUS
62
5
10
212.450000
20
195.150000
11
212.450000
21
243.000000
0
LINE
5
161
100
AcDbEntity
8
1
100
AcDbLine
6
CONTINUOUS
62
5
10
220.350000
20
217.500000
11
220.350000
21
243.000000
0
POLYLINE
5
162
100
AcDbEntity
8
1
6
CONTINUOUS
62
5
100
AcDb2dPolyline
66
1
10
0.0
20
0.0
30
0.0
70
0
0
VERTEX
5
163
100
AcDbEntity
8
1
100
AcDbVertex
100
AcDb2dVertex
62
5
10
186.200000
20
241.000000
0
VERTEX
5
164
100
AcDbEntity
8
1
100
AcDbVertex
100
AcDb2dVertex
62
5
10
212.450000
20
241.000000
0
VERTEX
5
165
100
AcDbEntity
8
1
100
AcDbVertex
100
AcDb2dVertex
62
5
10
206.450000
20
240.000000
0
VERTEX
5
166
100
AcDbEntity
8
1
100
AcDbVertex
100
AcDb2dVertex
62
5
10
206.450000
20
242.000000
0
VERTEX
5
167
100
AcDbEntity
8
1
100
AcDbVertex
100
AcDb2dVertex
62
5
10
212.450000
20
241.000000
0
VERTEX
5
168
100
AcDbEntity
8
1
100
AcDbVertex
100
AcDb2dVertex
62
5
10
206.450000
20
240.500000
0
VERTEX
5
169
100
AcDbEntity
8
1
100
AcDbVertex
100
AcDb2dVertex
62
5
10
206.450000
20
241.500000
0
VERTEX
5
16a
100
AcDbEntity
8
1
100
AcDbVertex
100
AcDb2dVertex
62
5
10
212.450000
20
241.000000
0
SEQEND
5
16b
100
AcDbEntity
8
1
0
LINE
5
16c
100
AcDbEntity
8
1
100
AcDbLine
6
CONTINUOUS
62
5
10
212.450000
20
241.000000
11
220.350000
21
241.000000
0
LINE
5
16d
100
AcDbEntity
8
1
100
AcDbLine
6
CONTINUOUS
62
5
10
223.350000
20
241.000000
11
220.350000
21
241.000000
0
LINE
5
16e
100
AcDbEntity
8
1
100
AcDbLine
6
CONTINUOUS
62
5
10
157.750000
20
337.437500
11
158.750000
21
336.187500
0
POLYLINE
5
16f
100
AcDbEntity
8
1
6
CONTINUOUS
62
5
100
AcDb2dPolyline
66
1
10
0.0
20
0.0
30
0.0
70
0
0
VERTEX
5
170
100
AcDbEntity
8
1
100
AcDbVertex
100
AcDb2dVertex
62
5
10
157.500000
20
332.437500
0
VERTEX
5
171
100
AcDbEntity
8
1
100
AcDbVertex
100
AcDb2dVertex
62
5
10
159.250000
20
333.375000
0
VERTEX
5
172
100
AcDbEntity
8
1
100
AcDbVertex
100
AcDb2dVertex
62
5
10
160.750000
20
334.625000
0
VERTEX
5
173
100
AcDbEntity
8
1
100
AcDbVertex
100
AcDb2dVertex
62
5
10
162.250000
20
336.187500
0
SEQEND
5
174
100
AcDbEntity
8
1
0
POLYLINE
5
175
100
AcDbEntity
8
1
6
CONTINUOUS
62
5
100
AcDb2dPolyline
66
1
10
0.0
20
0.0
30
0.0
70
0
0
VERTEX
5
176
100
AcDbEntity
8
1
100
AcDbVertex
100
AcDb2dVertex
62
5
10
133.750000
20
337.125000
0
VERTEX
5
177
100
AcDbEntity
8
1
100
AcDbVertex
100
AcDb2dVertex
62
5
10
137.750000
20
337.125000
0
VERTEX
5
178
100
AcDbEntity
8
1
100
AcDbVertex
100
AcDb2dVertex
62
5
10
137.750000
20
332.750000
0
VERTEX
5
179
100
AcDbEntity
8
1
100
AcDbVertex
100
AcDb2dVertex
62
5
10
133.750000
20
332.750000
0
SEQEND
5
17a
100
AcDbEntity
8
1
0
LINE
5
17b
100
AcDbEntity
8
1
100
AcDbLine
6
CONTINUOUS
62
5
10
141.750000
20
337.437500
11
142.750000
21
336.187500
0
POLYLINE
5
17c
100
AcDbEntity
8
1
6
CONTINUOUS
62
5
100
AcDb2dPolyline
66
1
10
0.0
20
0.0
30
0.0
70
0
0
VERTEX
5
17d
100
AcDbEntity
8
1
100
AcDbVertex
100
AcDb2dVertex
62
5
10
141.500000
20
332.437500
0
VERTEX
5
17e
100
AcDbEntity
8
1
100
AcDbVertex
100
AcDb2dVertex
62
5
10
143.250000
20
333.375000
0
VERTEX
5
17f
100
AcDbEntity
8
1
100
AcDbVertex
100
AcDb2dVertex
62
5
10
144.750000
20
334.625000
0
VERTEX
5
180
100
AcDbEntity
8
1
100
AcDbVertex
100
AcDb2dVertex
62
5
10
146.250000
20
336.187500
0
SEQEND
5
181
100
AcDbEntity
8
1
0
POLYLINE
5
182
100
AcDbEntity
8
1
6
CONTINUOUS
62
5
100
AcDb2dPolyline
66
1
10
0.0
20
0.0
30
0.0
70
0
0
VERTEX
5
183
100
AcDbEntity
8
1
100
AcDbVertex
100
AcDb2dVertex
62
5
10
135.250000
20
329.625000
0
VERTEX
5
184
100
AcDbEntity
8
1
100
AcDbVertex
100
AcDb2dVertex
62
5
10
134.500000
20
328.375000
0
VERTEX
5
185
100
AcDbEntity
8
1
100
AcDbVertex
100
AcDb2dVertex
62
5
10
133.750000
20
327.437500
0
VERTEX
5
186
100
AcDbEntity
8
1
100
AcDbVertex
100
AcDb2dVertex
62
5
10
132.750000
20
326.500000
0
SEQEND
5
187
100
AcDbEntity
8
1
0
POLYLINE
5
188
100
AcDbEntity
8
1
6
CONTINUOUS
62
5
100
AcDb2dPolyline
66
1
10
0.0
20
0.0
30
0.0
70
0
0
VERTEX
5
189
100
AcDbEntity
8
1
100
AcDbVertex
100
AcDb2dVertex
62
5
10
135.000000
20
329.000000
0
VERTEX
5
18a
100
AcDbEntity
8
1
100
AcDbVertex
100
AcDb2dVertex
62
5
10
137.250000
20
329.000000
0
VERTEX
5
18b
100
AcDbEntity
8
1
100
AcDbVertex
100
AcDb2dVertex
62
5
10
136.000000
20
327.125000
0
SEQEND
5
18c
100
AcDbEntity
8
1
0
POLYLINE
5
18d
100
AcDbEntity
8
1
6
CONTINUOUS
62
5
100
AcDb2dPolyline
66
1
10
0.0
20
0.0
30
0.0
70
0
0
VERTEX
5
18e
100
AcDbEntity
8
1
100
AcDbVertex
100
AcDb2dVertex
62
5
10
133.750000
20
327.125000
0
VERTEX
5
18f
100
AcDbEntity
8
1
100
AcDbVertex
100
AcDb2dVertex
62
5
10
138.250000
20
327.125000
0
VERTEX
5
190
100
AcDbEntity
8
1
100
AcDbVertex
100
AcDb2dVertex
62
5
10
138.250000
20
324.312500
0
VERTEX
5
191
100
AcDbEntity
8
1
100
AcDbVertex
100
AcDb2dVertex
62
5
10
133.750000
20
324.312500
0
SEQEND
5
192
100
AcDbEntity
8
1
0
LINE
5
193
100
AcDbEntity
8
1
100
AcDbLine
6
CONTINUOUS
62
5
10
136.000000
20
327.125000
11
136.000000
21
324.312500
0
POLYLINE
5
194
100
AcDbEntity
8
1
6
CONTINUOUS
62
5
100
AcDb2dPolyline
66
1
10
0.0
20
0.0
30
0.0
70
0
0
VERTEX
5
195
100
AcDbEntity
8
1
100
AcDbVertex
100
AcDb2dVertex
62
5
10
133.750000
20
327.125000
0
VERTEX
5
196
100
AcDbEntity
8
1
100
AcDbVertex
100
AcDb2dVertex
62
5
10
133.750000
20
321.812500
0
VERTEX
5
197
100
AcDbEntity
8
1
100
AcDbVertex
100
AcDb2dVertex
62
5
10
134.250000
20
321.187500
0
VERTEX
5
198
100
AcDbEntity
8
1
100
AcDbVertex
100
AcDb2dVertex
62
5
10
139.250000
20
321.187500
0
VERTEX
5
199
100
AcDbEntity
8
1
100
AcDbVertex
100
AcDb2dVertex
62
5
10
139.250000
20
322.437500
0
SEQEND
5
19a
100
AcDbEntity
8
1
0
POLYLINE
5
19b
100
AcDbEntity
8
1
6
CONTINUOUS
62
5
100
AcDb2dPolyline
66
1
10
0.0
20
0.0
30
0.0
70
0
0
VERTEX
5
19c
100
AcDbEntity
8
1
100
AcDbVertex
100
AcDb2dVertex
62
5
10
149.000000
20
335.562500
0
VERTEX
5
19d
100
AcDbEntity
8
1
100
AcDbVertex
100
AcDb2dVertex
62
5
10
154.250000
20
336.187500
0
VERTEX
5
19e
100
AcDbEntity
8
1
100
AcDbVertex
100
AcDb2dVertex
62
5
10
154.250000
20
335.875000
0
VERTEX
5
19f
100
AcDbEntity
8
1
100
AcDbVertex
100
AcDb2dVertex
62
5
10
153.000000
20
334.312500
0
SEQEND
5
1a0
100
AcDbEntity
8
1
0
POLYLINE
5
1a1
100
AcDbEntity
8
1
6
CONTINUOUS
62
5
100
AcDb2dPolyline
66
1
10
0.0
20
0.0
30
0.0
70
0
0
VERTEX
5
1a2
100
AcDbEntity
8
1
100
AcDbVertex
100
AcDb2dVertex
62
5
10
151.000000
20
338.375000
0
VERTEX
5
1a3
100
AcDbEntity
8
1
100
AcDbVertex
100
AcDb2dVertex
62
5
10
151.000000
20
332.437500
0
VERTEX
5
1a4
100
AcDbEntity
8
1
100
AcDbVertex
100
AcDb2dVertex
62
5
10
151.500000
20
331.812500
0
VERTEX
5
1a5
100
AcDbEntity
8
1
100
AcDbVertex
100
AcDb2dVertex
62
5
10
154.250000
20
331.812500
0
SEQEND
5
1a6
100
AcDbEntity
8
1
0
POLYLINE
5
1a7
100
AcDbEntity
8
1
6
CONTINUOUS
62
5
100
AcDb2dPolyline
66
1
10
0.0
20
0.0
30
0.0
70
0
0
VERTEX
5
1a8
100
AcDbEntity
8
1
100
AcDbVertex
100
AcDb2dVertex
62
5
10
167.250000
20
336.187500
0
VERTEX
5
1a9
100
AcDbEntity
8
1
100
AcDbVertex
100
AcDb2dVertex
62
5
10
167.500000
20
336.187500
0
VERTEX
5
1aa
100
AcDbEntity
8
1
100
AcDbVertex
100
AcDb2dVertex
62
5
10
169.250000
20
334.937500
0
SEQEND
5
1ab
100
AcDbEntity
8
1
0
LINE
5
1ac
100
AcDbEntity
8
1
100
AcDbLine
6
CONTINUOUS
62
5
10
167.250000
20
339.000000
11
167.250000
21
331.500000
0
POLYLINE
5
1ad
100
AcDbEntity
8
1
6
CONTINUOUS
62
5
100
AcDb2dPolyline
66
1
10
0.0
20
0.0
30
0.0
70
0
0
VERTEX
5
1ae
100
AcDbEntity
8
1
100
AcDbVertex
100
AcDb2dVertex
62
5
10
109.750000
20
325.562500
0
VERTEX
5
1af
100
AcDbEntity
8
1
100
AcDbVertex
100
AcDb2dVertex
62
5
10
109.750000
20
327.750000
0
VERTEX
5
1b0
100
AcDbEntity
8
1
100
AcDbVertex
100
AcDb2dVertex
62
5
10
113.750000
20
327.750000
0
VERTEX
5
1b1
100
AcDbEntity
8
1
100
AcDbVertex
100
AcDb2dVertex
62
5
10
113.750000
20
326.812500
0
VERTEX
5
1b2
100
AcDbEntity
8
1
100
AcDbVertex
100
AcDb2dVertex
62
5
10
113.500000
20
325.250000
0
VERTEX
5
1b3
100
AcDbEntity
8
1
100
AcDbVertex
100
AcDb2dVertex
62
5
10
113.000000
20
324.000000
0
VERTEX
5
1b4
100
AcDbEntity
8
1
100
AcDbVertex
100
AcDb2dVertex
62
5
10
112.500000
20
323.062500
0
VERTEX
5
1b5
100
AcDbEntity
8
1
100
AcDbVertex
100
AcDb2dVertex
62
5
10
111.500000
20
321.812500
0
SEQEND
5
1b6
100
AcDbEntity
8
1
0
POLYLINE
5
1b7
100
AcDbEntity
8
1
6
CONTINUOUS
62
5
100
AcDb2dPolyline
66
1
10
0.0
20
0.0
30
0.0
70
0
0
VERTEX
5
1b8
100
AcDbEntity
8
1
100
AcDbVertex
100
AcDb2dVertex
62
5
10
121.750000
20
328.687500
0
VERTEX
5
1b9
100
AcDbEntity
8
1
100
AcDbVertex
100
AcDb2dVertex
62
5
10
119.750000
20
326.187500
0
VERTEX
5
1ba
100
AcDbEntity
8
1
100
AcDbVertex
100
AcDb2dVertex
62
5
10
117.500000
20
324.625000
0
SEQEND
5
1bb
100
AcDbEntity
8
1
0
LINE
5
1bc
100
AcDbEntity
8
1
100
AcDbLine
6
CONTINUOUS
62
5
10
120.250000
20
326.812500
11
120.250000
21
321.500000
0
POLYLINE
5
1bd
100
AcDbEntity
8
1
6
CONTINUOUS
62
5
100
AcDb2dPolyline
66
1
10
0.0
20
0.0
30
0.0
70
0
0
VERTEX
5
1be
100
AcDbEntity
8
1
100
AcDbVertex
100
AcDb2dVertex
62
5
10
86.500000
20
325.562500
0
VERTEX
5
1bf
100
AcDbEntity
8
1
100
AcDbVertex
100
AcDb2dVertex
62
5
10
88.500000
20
325.562500
0
VERTEX
5
1c0
100
AcDbEntity
8
1
100
AcDbVertex
100
AcDb2dVertex
62
5
10
88.250000
20
322.437500
0
SEQEND
5
1c1
100
AcDbEntity
8
1
0
LINE
5
1c2
100
AcDbEntity
8
1
100
AcDbLine
6
CONTINUOUS
62
5
10
85.750000
20
322.437500
11
90.000000
21
322.437500
0
POLYLINE
5
1c3
100
AcDbEntity
8
1
6
CONTINUOUS
62
5
100
AcDb2dPolyline
66
1
10
0.0
20
0.0
30
0.0
70
0
0
VERTEX
5
1c4
100
AcDbEntity
8
1
100
AcDbVertex
100
AcDb2dVertex
62
5
10
93.000000
20
327.437500
0
VERTEX
5
1c5
100
AcDbEntity
8
1
100
AcDbVertex
100
AcDb2dVertex
62
5
10
98.250000
20
327.437500
0
VERTEX
5
1c6
100
AcDbEntity
8
1
100
AcDbVertex
100
AcDb2dVertex
62
5
10
98.250000
20
327.125000
0
VERTEX
5
1c7
100
AcDbEntity
8
1
100
AcDbVertex
100
AcDb2dVertex
62
5
10
96.500000
20
325.250000
0
VERTEX
5
1c8
100
AcDbEntity
8
1
100
AcDbVertex
100
AcDb2dVertex
62
5
10
95.750000
20
325.250000
0
SEQEND
5
1c9
100
AcDbEntity
8
1
0
POLYLINE
5
1ca
100
AcDbEntity
8
1
6
CONTINUOUS
62
5
100
AcDb2dPolyline
66
1
10
0.0
20
0.0
30
0.0
70
0
0
VERTEX
5
1cb
100
AcDbEntity
8
1
100
AcDbVertex
100
AcDb2dVertex
62
5
10
95.750000
20
326.187500
0
VERTEX
5
1cc
100
AcDbEntity
8
1
100
AcDbVertex
100
AcDb2dVertex
62
5
10
95.750000
20
324.625000
0
VERTEX
5
1cd
100
AcDbEntity
8
1
100
AcDbVertex
100
AcDb2dVertex
62
5
10
95.000000
20
322.750000
0
VERTEX
5
1ce
100
AcDbEntity
8
1
100
AcDbVertex
100
AcDb2dVertex
62
5
10
94.000000
20
321.500000
0
SEQEND
5
1cf
100
AcDbEntity
8
1
0
LINE
5
1d0
100
AcDbEntity
8
1
100
AcDbLine
6
CONTINUOUS
62
5
10
101.250000
20
326.187500
11
106.250000
21
326.187500
0
POLYLINE
5
1d1
100
AcDbEntity
8
1
6
CONTINUOUS
62
5
100
AcDb2dPolyline
66
1
10
0.0
20
0.0
30
0.0
70
0
0
VERTEX
5
1d2
100
AcDbEntity
8
1
100
AcDbVertex
100
AcDb2dVertex
62
5
10
103.750000
20
328.062500
0
VERTEX
5
1d3
100
AcDbEntity
8
1
100
AcDbVertex
100
AcDb2dVertex
62
5
10
103.750000
20
321.812500
0
VERTEX
5
1d4
100
AcDbEntity
8
1
100
AcDbVertex
100
AcDb2dVertex
62
5
10
103.250000
20
321.812500
0
SEQEND
5
1d5
100
AcDbEntity
8
1
0
LINE
5
1d6
100
AcDbEntity
8
1
100
AcDbLine
6
CONTINUOUS
62
5
10
102.500000
20
324.625000
11
101.250000
21
322.750000
0
LINE
5
1d7
100
AcDbEntity
8
1
100
AcDbLine
6
CONTINUOUS
62
5
10
105.250000
20
324.625000
11
106.500000
21
323.062500
0
LINE
5
1d8
100
AcDbEntity
8
1
100
AcDbLine
6
CONTINUOUS
62
5
10
92.250000
20
337.437500
11
94.500000
21
337.437500
0
POLYLINE
5
1d9
100
AcDbEntity
8
1
6
CONTINUOUS
62
5
100
AcDb2dPolyline
66
1
10
0.0
20
0.0
30
0.0
70
0
0
VERTEX
5
1da
100
AcDbEntity
8
1
100
AcDbVertex
100
AcDb2dVertex
62
5
10
93.500000
20
339.312500
0
VERTEX
5
1db
100
AcDbEntity
8
1
100
AcDbVertex
100
AcDb2dVertex
62
5
10
93.500000
20
331.500000
0
VERTEX
5
1dc
100
AcDbEntity
8
1
100
AcDbVertex
100
AcDb2dVertex
62
5
10
93.000000
20
330.875000
0
VERTEX
5
1dd
100
AcDbEntity
8
1
100
AcDbVertex
100
AcDb2dVertex
62
5
10
92.500000
20
330.875000
0
SEQEND
5
1de
100
AcDbEntity
8
1
0
LINE
5
1df
100
AcDbEntity
8
1
100
AcDbLine
6
CONTINUOUS
62
5
10
92.500000
20
334.312500
11
94.250000
21
335.562500
0
LINE
5
1e0
100
AcDbEntity
8
1
100
AcDbLine
6
CONTINUOUS
62
5
10
95.000000
20
338.375000
11
99.000000
21
338.375000
0
LINE
5
1e1
100
AcDbEntity
8
1
100
AcDbLine
6
CONTINUOUS
62
5
10
94.750000
20
336.187500
11
99.250000
21
336.187500
0
LINE
5
1e2
100
AcDbEntity
8
1
100
AcDbLine
6
CONTINUOUS
62
5
10
95.750000
20
338.375000
11
96.500000
21
336.187500
0
LINE
5
1e3
100
AcDbEntity
8
1
100
AcDbLine
6
CONTINUOUS
62
5
10
97.500000
20
336.187500
11
98.250000
21
338.375000
0
LINE
5
1e4
100
AcDbEntity
8
1
100
AcDbLine
6
CONTINUOUS
62
5
10
97.000000
20
338.375000
11
97.000000
21
339.625000
0
POLYLINE
5
1e5
100
AcDbEntity
8
1
6
CONTINUOUS
62
5
100
AcDb2dPolyline
66
1
10
0.0
20
0.0
30
0.0
70
0
0
VERTEX
5
1e6
100
AcDbEntity
8
1
100
AcDbVertex
100
AcDb2dVertex
62
5
10
97.000000
20
336.187500
0
VERTEX
5
1e7
100
AcDbEntity
8
1
100
AcDbVertex
100
AcDb2dVertex
62
5
10
95.750000
20
333.062500
0
VERTEX
5
1e8
100
AcDbEntity
8
1
100
AcDbVertex
100
AcDb2dVertex
62
5
10
97.250000
20
332.750000
0
VERTEX
5
1e9
100
AcDbEntity
8
1
100
AcDbVertex
100
AcDb2dVertex
62
5
10
98.500000
20
332.125000
0
VERTEX
5
1ea
100
AcDbEntity
8
1
100
AcDbVertex
100
AcDb2dVertex
62
5
10
99.250000
20
331.187500
0
SEQEND
5
1eb
100
AcDbEntity
8
1
0
POLYLINE
5
1ec
100
AcDbEntity
8
1
6
CONTINUOUS
62
5
100
AcDb2dPolyline
66
1
10
0.0
20
0.0
30
0.0
70
0
0
VERTEX
5
1ed
100
AcDbEntity
8
1
100
AcDbVertex
100
AcDb2dVertex
62
5
10
98.000000
20
334.625000
0
VERTEX
5
1ee
100
AcDbEntity
8
1
100
AcDbVertex
100
AcDb2dVertex
62
5
10
97.250000
20
332.750000
0
VERTEX
5
1ef
100
AcDbEntity
8
1
100
AcDbVertex
100
AcDb2dVertex
62
5
10
96.500000
20
331.500000
0
VERTEX
5
1f0
100
AcDbEntity
8
1
100
AcDbVertex
100
AcDb2dVertex
62
5
10
95.750000
20
331.187500
0
VERTEX
5
1f1
100
AcDbEntity
8
1
100
AcDbVertex
100
AcDb2dVertex
62
5
10
95.000000
20
331.187500
0
SEQEND
5
1f2
100
AcDbEntity
8
1
0
LINE
5
1f3
100
AcDbEntity
8
1
100
AcDbLine
6
CONTINUOUS
62
5
10
95.000000
20
334.625000
11
99.250000
21
334.625000
0
LINE
5
1f4
100
AcDbEntity
8
1
100
AcDbLine
6
CONTINUOUS
62
5
10
100.250000
20
336.500000
11
102.500000
21
336.500000
0
LINE
5
1f5
100
AcDbEntity
8
1
100
AcDbLine
6
CONTINUOUS
62
5
10
100.500000
20
331.500000
11
102.500000
21
333.062500
0
LINE
5
1f6
100
AcDbEntity
8
1
100
AcDbLine
6
CONTINUOUS
62
5
10
101.500000
20
339.000000
11
101.500000
21
332.125000
0
POLYLINE
5
1f7
100
AcDbEntity
8
1
6
CONTINUOUS
62
5
100
AcDb2dPolyline
66
1
10
0.0
20
0.0
30
0.0
70
0
0
VERTEX
5
1f8
100
AcDbEntity
8
1
100
AcDbVertex
100
AcDb2dVertex
62
5
10
102.250000
20
334.937500
0
VERTEX
5
1f9
100
AcDbEntity
8
1
100
AcDbVertex
100
AcDb2dVertex
62
5
10
106.750000
20
337.750000
0
VERTEX
5
1fa
100
AcDbEntity
8
1
100
AcDbVertex
100
AcDb2dVertex
62
5
10
106.750000
20
334.625000
0
VERTEX
5
1fb
100
AcDbEntity
8
1
100
AcDbVertex
100
AcDb2dVertex
62
5
10
106.250000
20
334.000000
0
VERTEX
5
1fc
100
AcDbEntity
8
1
100
AcDbVertex
100
AcDb2dVertex
62
5
10
105.750000
20
334.000000
0
SEQEND
5
1fd
100
AcDbEntity
8
1
0
LINE
5
1fe
100
AcDbEntity
8
1
100
AcDbLine
6
CONTINUOUS
62
5
10
104.750000
20
339.312500
11
104.750000
21
332.750000
0
POLYLINE
5
1ff
100
AcDbEntity
8
1
6
CONTINUOUS
62
5
100
AcDb2dPolyline
66
1
10
0.0
20
0.0
30
0.0
70
0
0
VERTEX
5
200
100
AcDbEntity
8
1
100
AcDbVertex
100
AcDb2dVertex
62
5
10
103.250000
20
338.062500
0
VERTEX
5
201
100
AcDbEntity
8
1
100
AcDbVertex
100
AcDb2dVertex
62
5
10
103.250000
20
331.500000
0
VERTEX
5
202
100
AcDbEntity
8
1
100
AcDbVertex
100
AcDb2dVertex
62
5
10
103.750000
20
330.875000
0
VERTEX
5
203
100
AcDbEntity
8
1
100
AcDbVertex
100
AcDb2dVertex
62
5
10
106.750000
20
330.875000
0
VERTEX
5
204
100
AcDbEntity
8
1
100
AcDbVertex
100
AcDb2dVertex
62
5
10
107.250000
20
331.500000
0
VERTEX
5
205
100
AcDbEntity
8
1
100
AcDbVertex
100
AcDb2dVertex
62
5
10
107.250000
20
332.437500
0
SEQEND
5
206
100
AcDbEntity
8
1
0
LINE
5
207
100
AcDbEntity
8
1
100
AcDbLine
6
CONTINUOUS
62
5
10
111.250000
20
337.125000
11
113.750000
21
337.125000
0
POLYLINE
5
208
100
AcDbEntity
8
1
6
CONTINUOUS
62
5
100
AcDb2dPolyline
66
1
10
0.0
20
0.0
30
0.0
70
0
0
VERTEX
5
209
100
AcDbEntity
8
1
100
AcDbVertex
100
AcDb2dVertex
62
5
10
111.250000
20
337.125000
0
VERTEX
5
20a
100
AcDbEntity
8
1
100
AcDbVertex
100
AcDb2dVertex
62
5
10
110.500000
20
335.875000
0
VERTEX
5
20b
100
AcDbEntity
8
1
100
AcDbVertex
100
AcDb2dVertex
62
5
10
109.750000
20
334.937500
0
SEQEND
5
20c
100
AcDbEntity
8
1
0
POLYLINE
5
20d
100
AcDbEntity
8
1
6
CONTINUOUS
62
5
100
AcDb2dPolyline
66
1
10
0.0
20
0.0
30
0.0
70
0
0
VERTEX
5
20e
100
AcDbEntity
8
1
100
AcDbVertex
100
AcDb2dVertex
62
5
10
113.750000
20
337.125000
0
VERTEX
5
20f
100
AcDbEntity
8
1
100
AcDbVertex
100
AcDb2dVertex
62
5
10
114.000000
20
336.812500
0
VERTEX
5
210
100
AcDbEntity
8
1
100
AcDbVertex
100
AcDb2dVertex
62
5
10
113.500000
20
335.875000
0
VERTEX
5
211
100
AcDbEntity
8
1
100
AcDbVertex
100
AcDb2dVertex
62
5
10
112.750000
20
334.312500
0
VERTEX
5
212
100
AcDbEntity
8
1
100
AcDbVertex
100
AcDb2dVertex
62
5
10
111.500000
20
332.750000
0
VERTEX
5
213
100
AcDbEntity
8
1
100
AcDbVertex
100
AcDb2dVertex
62
5
10
110.000000
20
331.500000
0
SEQEND
5
214
100
AcDbEntity
8
1
0
LINE
5
215
100
AcDbEntity
8
1
100
AcDbLine
6
CONTINUOUS
62
5
10
111.250000
20
335.250000
11
112.250000
21
333.687500
0
LINE
5
216
100
AcDbEntity
8
1
100
AcDbLine
6
CONTINUOUS
62
5
10
113.750000
20
338.687500
11
114.500000
21
337.750000
0
LINE
5
217
100
AcDbEntity
8
1
100
AcDbLine
6
CONTINUOUS
62
5
10
114.500000
20
339.312500
11
115.250000
21
338.375000
0
POLYLINE
5
218
100
AcDbEntity
8
1
6
CONTINUOUS
62
5
100
AcDb2dPolyline
66
1
10
0.0
20
0.0
30
0.0
70
0
0
VERTEX
5
219
100
AcDbEntity
8
1
100
AcDbVertex
100
AcDb2dVertex
62
5
10
117.250000
20
337.125000
0
VERTEX
5
21a
100
AcDbEntity
8
1
100
AcDbVertex
100
AcDb2dVertex
62
5
10
121.000000
20
337.125000
0
VERTEX
5
21b
100
AcDbEntity
8
1
100
AcDbVertex
100
AcDb2dVertex
62
5
10
121.000000
20
336.187500
0
VERTEX
5
21c
100
AcDbEntity
8
1
100
AcDbVertex
100
AcDb2dVertex
62
5
10
120.750000
20
334.937500
0
VERTEX
5
21d
100
AcDbEntity
8
1
100
AcDbVertex
100
AcDb2dVertex
62
5
10
120.250000
20
334.000000
0
VERTEX
5
21e
100
AcDbEntity
8
1
100
AcDbVertex
100
AcDb2dVertex
62
5
10
119.750000
20
333.062500
0
VERTEX
5
21f
100
AcDbEntity
8
1
100
AcDbVertex
100
AcDb2dVertex
62
5
10
118.250000
20
331.812500
0
SEQEND
5
220
100
AcDbEntity
8
1
0
LINE
5
221
100
AcDbEntity
8
1
100
AcDbLine
6
CONTINUOUS
62
5
10
121.500000
20
338.375000
11
122.250000
21
337.437500
0
LINE
5
222
100
AcDbEntity
8
1
100
AcDbLine
6
CONTINUOUS
62
5
10
122.500000
20
339.000000
11
123.000000
21
338.062500
0
POLYLINE
5
223
100
AcDbEntity
8
1
6
CONTINUOUS
62
5
100
AcDb2dPolyline
66
1
10
0.0
20
0.0
30
0.0
70
0
0
VERTEX
5
224
100
AcDbEntity
8
1
100
AcDbVertex
100
AcDb2dVertex
62
5
10
126.500000
20
338.062500
0
VERTEX
5
225
100
AcDbEntity
8
1
100
AcDbVertex
100
AcDb2dVertex
62
5
10
126.500000
20
336.187500
0
VERTEX
5
226
100
AcDbEntity
8
1
100
AcDbVertex
100
AcDb2dVertex
62
5
10
126.250000
20
334.625000
0
VERTEX
5
227
100
AcDbEntity
8
1
100
AcDbVertex
100
AcDb2dVertex
62
5
10
125.750000
20
333.375000
0
VERTEX
5
228
100
AcDbEntity
8
1
100
AcDbVertex
100
AcDb2dVertex
62
5
10
125.000000
20
332.125000
0
VERTEX
5
229
100
AcDbEntity
8
1
100
AcDbVertex
100
AcDb2dVertex
62
5
10
124.750000
20
331.812500
0
SEQEND
5
22a
100
AcDbEntity
8
1
0
POLYLINE
5
22b
100
AcDbEntity
8
1
6
CONTINUOUS
62
5
100
AcDb2dPolyline
66
1
10
0.0
20
0.0
30
0.0
70
0
0
VERTEX
5
22c
100
AcDbEntity
8
1
100
AcDbVertex
100
AcDb2dVertex
62
5
10
128.000000
20
338.375000
0
VERTEX
5
22d
100
AcDbEntity
8
1
100
AcDbVertex
100
AcDb2dVertex
62
5
10
128.000000
20
332.125000
0
VERTEX
5
22e
100
AcDbEntity
8
1
100
AcDbVertex
100
AcDb2dVertex
62
5
10
128.750000
20
332.437500
0
VERTEX
5
22f
100
AcDbEntity
8
1
100
AcDbVertex
100
AcDb2dVertex
62
5
10
129.750000
20
333.375000
0
VERTEX
5
230
100
AcDbEntity
8
1
100
AcDbVertex
100
AcDb2dVertex
62
5
10
130.500000
20
334.312500
0
VERTEX
5
231
100
AcDbEntity
8
1
100
AcDbVertex
100
AcDb2dVertex
62
5
10
131.000000
20
335.250000
0
SEQEND
5
232
100
AcDbEntity
8
1
0
POLYLINE
5
233
100
AcDbEntity
8
1
6
CONTINUOUS
62
5
100
AcDb2dPolyline
66
1
10
0.0
20
0.0
30
0.0
70
0
0
VERTEX
5
234
100
AcDbEntity
8
1
100
AcDbVertex
100
AcDb2dVertex
62
5
10
127.250000
20
326.187500
0
VERTEX
5
235
100
AcDbEntity
8
1
100
AcDbVertex
100
AcDb2dVertex
62
5
10
127.500000
20
326.187500
0
VERTEX
5
236
100
AcDbEntity
8
1
100
AcDbVertex
100
AcDb2dVertex
62
5
10
129.250000
20
324.937500
0
SEQEND
5
237
100
AcDbEntity
8
1
0
LINE
5
238
100
AcDbEntity
8
1
100
AcDbLine
6
CONTINUOUS
62
5
10
127.250000
20
329.000000
11
127.250000
21
321.500000
0
LINE
5
239
100
AcDbEntity
8
1
100
AcDbLine
6
CONTINUOUS
62
5
10
92.500000
20
296.750000
11
95.625000
21
296.750000
0
POLYLINE
5
23a
100
AcDbEntity
8
1
6
CONTINUOUS
62
5
100
AcDb2dPolyline
66
1
10
0.0
20
0.0
30
0.0
70
0
0
VERTEX
5
23b
100
AcDbEntity
8
1
100
AcDbVertex
100
AcDb2dVertex
62
5
10
87.500000
20
293.000000
0
VERTEX
5
23c
100
AcDbEntity
8
1
100
AcDbVertex
100
AcDb2dVertex
62
5
10
87.500000
20
300.500000
0
VERTEX
5
23d
100
AcDbEntity
8
1
100
AcDbVertex
100
AcDb2dVertex
62
5
10
90.625000
20
293.000000
0
VERTEX
5
23e
100
AcDbEntity
8
1
100
AcDbVertex
100
AcDb2dVertex
62
5
10
90.625000
20
300.500000
0
SEQEND
5
23f
100
AcDbEntity
8
1
0
LINE
5
240
100
AcDbEntity
8
1
100
AcDbLine
6
CONTINUOUS
62
5
10
97.500000
20
300.500000
11
100.312500
21
300.500000
0
POLYLINE
5
241
100
AcDbEntity
8
1
6
CONTINUOUS
62
5
100
AcDb2dPolyline
66
1
10
0.0
20
0.0
30
0.0
70
0
0
VERTEX
5
242
100
AcDbEntity
8
1
100
AcDbVertex
100
AcDb2dVertex
62
5
10
97.500000
20
300.500000
0
VERTEX
5
243
100
AcDbEntity
8
1
100
AcDbVertex
100
AcDb2dVertex
62
5
10
97.500000
20
296.750000
0
VERTEX
5
244
100
AcDbEntity
8
1
100
AcDbVertex
100
AcDb2dVertex
62
5
10
98.125000
20
297.375000
0
VERTEX
5
245
100
AcDbEntity
8
1
100
AcDbVertex
100
AcDb2dVertex
62
5
10
98.750000
20
297.687500
0
VERTEX
5
246
100
AcDbEntity
8
1
100
AcDbVertex
100
AcDb2dVertex
62
5
10
99.687500
20
297.687500
0
VERTEX
5
247
100
AcDbEntity
8
1
100
AcDbVertex
100
AcDb2dVertex
62
5
10
100.312500
20
297.375000
0
VERTEX
5
248
100
AcDbEntity
8
1
100
AcDbVertex
100
AcDb2dVertex
62
5
10
100.625000
20
296.437500
0
VERTEX
5
249
100
AcDbEntity
8
1
100
AcDbVertex
100
AcDb2dVertex
62
5
10
100.625000
20
294.562500
0
VERTEX
5
24a
100
AcDbEntity
8
1
100
AcDbVertex
100
AcDb2dVertex
62
5
10
100.000000
20
293.625000
0
VERTEX
5
24b
100
AcDbEntity
8
1
100
AcDbVertex
100
AcDb2dVertex
62
5
10
99.062500
20
293.000000
0
VERTEX
5
24c
100
AcDbEntity
8
1
100
AcDbVertex
100
AcDb2dVertex
62
5
10
97.500000
20
293.000000
0
SEQEND
5
24d
100
AcDbEntity
8
1
0
LINE
5
24e
100
AcDbEntity
8
1
100
AcDbLine
6
CONTINUOUS
62
5
10
102.500000
20
300.500000
11
105.312500
21
300.500000
0
POLYLINE
5
24f
100
AcDbEntity
8
1
6
CONTINUOUS
62
5
100
AcDb2dPolyline
66
1
10
0.0
20
0.0
30
0.0
70
0
0
VERTEX
5
250
100
AcDbEntity
8
1
100
AcDbVertex
100
AcDb2dVertex
62
5
10
102.500000
20
300.500000
0
VERTEX
5
251
100
AcDbEntity
8
1
100
AcDbVertex
100
AcDb2dVertex
62
5
10
102.500000
20
296.750000
0
VERTEX
5
252
100
AcDbEntity
8
1
100
AcDbVertex
100
AcDb2dVertex
62
5
10
103.125000
20
297.375000
0
VERTEX
5
253
100
AcDbEntity
8
1
100
AcDbVertex
100
AcDb2dVertex
62
5
10
103.750000
20
297.687500
0
VERTEX
5
254
100
AcDbEntity
8
1
100
AcDbVertex
100
AcDb2dVertex
62
5
10
104.687500
20
297.687500
0
VERTEX
5
255
100
AcDbEntity
8
1
100
AcDbVertex
100
AcDb2dVertex
62
5
10
105.312500
20
297.375000
0
VERTEX
5
256
100
AcDbEntity
8
1
100
AcDbVertex
100
AcDb2dVertex
62
5
10
105.625000
20
296.437500
0
VERTEX
5
257
100
AcDbEntity
8
1
100
AcDbVertex
100
AcDb2dVertex
62
5
10
105.625000
20
294.562500
0
VERTEX
5
258
100
AcDbEntity
8
1
100
AcDbVertex
100
AcDb2dVertex
62
5
10
105.000000
20
293.625000
0
VERTEX
5
259
100
AcDbEntity
8
1
100
AcDbVertex
100
AcDb2dVertex
62
5
10
104.062500
20
293.000000
0
VERTEX
5
25a
100
AcDbEntity
8
1
100
AcDbVertex
100
AcDb2dVertex
62
5
10
102.500000
20
293.000000
0
SEQEND
5
25b
100
AcDbEntity
8
1
0
POLYLINE
5
25c
100
AcDbEntity
8
1
6
CONTINUOUS
62
5
100
AcDb2dPolyline
66
1
10
0.0
20
0.0
30
0.0
70
0
0
VERTEX
5
25d
100
AcDbEntity
8
1
100
AcDbVertex
100
AcDb2dVertex
62
5
10
110.312500
20
298.937500
0
VERTEX
5
25e
100
AcDbEntity
8
1
100
AcDbVertex
100
AcDb2dVertex
62
5
10
110.000000
20
299.875000
0
VERTEX
5
25f
100
AcDbEntity
8
1
100
AcDbVertex
100
AcDb2dVertex
62
5
10
109.375000
20
300.500000
0
VERTEX
5
260
100
AcDbEntity
8
1
100
AcDbVertex
100
AcDb2dVertex
62
5
10
108.437500
20
300.500000
0
VERTEX
5
261
100
AcDbEntity
8
1
100
AcDbVertex
100
AcDb2dVertex
62
5
10
107.812500
20
299.875000
0
VERTEX
5
262
100
AcDbEntity
8
1
100
AcDbVertex
100
AcDb2dVertex
62
5
10
107.500000
20
299.250000
0
VERTEX
5
263
100
AcDbEntity
8
1
100
AcDbVertex
100
AcDb2dVertex
62
5
10
107.187500
20
297.687500
0
VERTEX
5
264
100
AcDbEntity
8
1
100
AcDbVertex
100
AcDb2dVertex
62
5
10
107.187500
20
295.812500
0
VERTEX
5
265
100
AcDbEntity
8
1
100
AcDbVertex
100
AcDb2dVertex
62
5
10
107.500000
20
294.250000
0
VERTEX
5
266
100
AcDbEntity
8
1
100
AcDbVertex
100
AcDb2dVertex
62
5
10
107.812500
20
293.625000
0
VERTEX
5
267
100
AcDbEntity
8
1
100
AcDbVertex
100
AcDb2dVertex
62
5
10
108.437500
20
293.000000
0
VERTEX
5
268
100
AcDbEntity
8
1
100
AcDbVertex
100
AcDb2dVertex
62
5
10
109.375000
20
293.000000
0
VERTEX
5
269
100
AcDbEntity
8
1
100
AcDbVertex
100
AcDb2dVertex
62
5
10
110.000000
20
293.625000
0
VERTEX
5
26a
100
AcDbEntity
8
1
100
AcDbVertex
100
AcDb2dVertex
62
5
10
110.312500
20
294.250000
0
SEQEND
5
26b
100
AcDbEntity
8
1
0
LINE
5
26c
100
AcDbEntity
8
1
100
AcDbLine
6
CONTINUOUS
62
5
10
109.687500
20
296.437500
11
110.937500
21
296.437500
0
LINE
5
26d
100
AcDbEntity
8
1
100
AcDbLine
6
CONTINUOUS
62
5
10
110.312500
20
296.437500
11
110.312500
21
293.000000
0
LINE
5
26e
100
AcDbEntity
8
1
100
AcDbLine
6
CONTINUOUS
62
5
10
117.500000
20
300.500000
11
117.500000
21
293.000000
0
POLYLINE
5
26f
100
AcDbEntity
8
1
6
CONTINUOUS
62
5
100
AcDb2dPolyline
66
1
10
0.0
20
0.0
30
0.0
70
0
0
VERTEX
5
270
100
AcDbEntity
8
1
100
AcDbVertex
100
AcDb2dVertex
62
5
10
117.500000
20
300.500000
0
VERTEX
5
271
100
AcDbEntity
8
1
100
AcDbVertex
100
AcDb2dVertex
62
5
10
118.750000
20
300.500000
0
VERTEX
5
272
100
AcDbEntity
8
1
100
AcDbVertex
100
AcDb2dVertex
62
5
10
119.687500
20
300.187500
0
VERTEX
5
273
100
AcDbEntity
8
1
100
AcDbVertex
100
AcDb2dVertex
62
5
10
120.312500
20
299.562500
0
VERTEX
5
274
100
AcDbEntity
8
1
100
AcDbVertex
100
AcDb2dVertex
62
5
10
120.625000
20
298.937500
0
VERTEX
5
275
100
AcDbEntity
8
1
100
AcDbVertex
100
AcDb2dVertex
62
5
10
120.625000
20
298.000000
0
VERTEX
5
276
100
AcDbEntity
8
1
100
AcDbVertex
100
AcDb2dVertex
62
5
10
120.312500
20
297.375000
0
VERTEX
5
277
100
AcDbEntity
8
1
100
AcDbVertex
100
AcDb2dVertex
62
5
10
119.687500
20
296.750000
0
VERTEX
5
278
100
AcDbEntity
8
1
100
AcDbVertex
100
AcDb2dVertex
62
5
10
118.750000
20
296.437500
0
VERTEX
5
279
100
AcDbEntity
8
1
100
AcDbVertex
100
AcDb2dVertex
62
5
10
117.500000
20
296.437500
0
SEQEND
5
27a
100
AcDbEntity
8
1
0
POLYLINE
5
27b
100
AcDbEntity
8
1
6
CONTINUOUS
62
5
100
AcDb2dPolyline
66
1
10
0.0
20
0.0
30
0.0
70
0
0
VERTEX
5
27c
100
AcDbEntity
8
1
100
AcDbVertex
100
AcDb2dVertex
62
5
10
122.187500
20
300.500000
0
VERTEX
5
27d
100
AcDbEntity
8
1
100
AcDbVertex
100
AcDb2dVertex
62
5
10
123.125000
20
293.000000
0
VERTEX
5
27e
100
AcDbEntity
8
1
100
AcDbVertex
100
AcDb2dVertex
62
5
10
124.062500
20
300.500000
0
VERTEX
5
27f
100
AcDbEntity
8
1
100
AcDbVertex
100
AcDb2dVertex
62
5
10
125.000000
20
293.000000
0
VERTEX
5
280
100
AcDbEntity
8
1
100
AcDbVertex
100
AcDb2dVertex
62
5
10
125.937500
20
300.500000
0
SEQEND
5
281
100
AcDbEntity
8
1
0
POLYLINE
5
282
100
AcDbEntity
8
1
6
CONTINUOUS
62
5
100
AcDb2dPolyline
66
1
10
0.0
20
0.0
30
0.0
70
0
0
VERTEX
5
283
100
AcDbEntity
8
1
100
AcDbVertex
100
AcDb2dVertex
62
5
10
77.750000
20
327.750000
0
VERTEX
5
284
100
AcDbEntity
8
1
100
AcDbVertex
100
AcDb2dVertex
62
5
10
77.750000
20
322.437500
0
VERTEX
5
285
100
AcDbEntity
8
1
100
AcDbVertex
100
AcDb2dVertex
62
5
10
78.250000
20
321.812500
0
VERTEX
5
286
100
AcDbEntity
8
1
100
AcDbVertex
100
AcDb2dVertex
62
5
10
81.750000
20
321.812500
0
SEQEND
5
287
100
AcDbEntity
8
1
0
LINE
5
288
100
AcDbEntity
8
1
100
AcDbLine
6
CONTINUOUS
62
5
10
81.250000
20
325.875000
11
77.750000
21
324.937500
0
POLYLINE
5
289
100
AcDbEntity
8
1
6
CONTINUOUS
62
5
100
AcDb2dPolyline
66
1
10
0.0
20
0.0
30
0.0
70
1
0
VERTEX
5
28a
100
AcDbEntity
8
1
100
AcDbVertex
100
AcDb2dVertex
62
5
10
81.250000
20
327.750000
0
VERTEX
5
28b
100
AcDbEntity
8
1
100
AcDbVertex
100
AcDb2dVertex
62
5
10
81.750000
20
328.375000
0
VERTEX
5
28c
100
AcDbEntity
8
1
100
AcDbVertex
100
AcDb2dVertex
62
5
10
82.000000
20
328.375000
0
VERTEX
5
28d
100
AcDbEntity
8
1
100
AcDbVertex
100
AcDb2dVertex
62
5
10
82.500000
20
327.750000
0
VERTEX
5
28e
100
AcDbEntity
8
1
100
AcDbVertex
100
AcDb2dVertex
62
5
10
82.500000
20
327.437500
0
VERTEX
5
28f
100
AcDbEntity
8
1
100
AcDbVertex
100
AcDb2dVertex
62
5
10
82.000000
20
326.812500
0
VERTEX
5
290
100
AcDbEntity
8
1
100
AcDbVertex
100
AcDb2dVertex
62
5
10
81.750000
20
326.812500
0
VERTEX
5
291
100
AcDbEntity
8
1
100
AcDbVertex
100
AcDb2dVertex
62
5
10
81.250000
20
327.437500
0
VERTEX
5
292
100
AcDbEntity
8
1
100
AcDbVertex
100
AcDb2dVertex
62
5
10
81.250000
20
327.750000
0
SEQEND
5
293
100
AcDbEntity
8
1
0
LINE
5
294
100
AcDbEntity
8
1
100
AcDbLine
6
CONTINUOUS
62
5
10
76.500000
20
336.500000
11
78.500000
21
336.500000
0
LINE
5
295
100
AcDbEntity
8
1
100
AcDbLine
6
CONTINUOUS
62
5
10
76.250000
20
332.125000
11
78.500000
21
333.375000
0
LINE
5
296
100
AcDbEntity
8
1
100
AcDbLine
6
CONTINUOUS
62
5
10
77.500000
20
339.000000
11
77.500000
21
332.750000
0
POLYLINE
5
297
100
AcDbEntity
8
1
6
CONTINUOUS
62
5
100
AcDb2dPolyline
66
1
10
0.0
20
0.0
30
0.0
70
1
0
VERTEX
5
298
100
AcDbEntity
8
1
100
AcDbVertex
100
AcDb2dVertex
62
5
10
79.500000
20
338.687500
0
VERTEX
5
299
100
AcDbEntity
8
1
100
AcDbVertex
100
AcDb2dVertex
62
5
10
79.500000
20
335.250000
0
VERTEX
5
29a
100
AcDbEntity
8
1
100
AcDbVertex
100
AcDb2dVertex
62
5
10
82.500000
20
335.250000
0
VERTEX
5
29b
100
AcDbEntity
8
1
100
AcDbVertex
100
AcDb2dVertex
62
5
10
82.500000
20
338.687500
0
VERTEX
5
29c
100
AcDbEntity
8
1
100
AcDbVertex
100
AcDb2dVertex
62
5
10
79.500000
20
338.687500
0
SEQEND
5
29d
100
AcDbEntity
8
1
0
LINE
5
29e
100
AcDbEntity
8
1
100
AcDbLine
6
CONTINUOUS
62
5
10
79.500000
20
337.125000
11
82.500000
21
337.125000
0
LINE
5
29f
100
AcDbEntity
8
1
100
AcDbLine
6
CONTINUOUS
62
5
10
81.000000
20
338.687500
11
81.000000
21
331.500000
0
LINE
5
2a0
100
AcDbEntity
8
1
100
AcDbLine
6
CONTINUOUS
62
5
10
79.000000
20
333.687500
11
83.000000
21
333.687500
0
LINE
5
2a1
100
AcDbEntity
8
1
100
AcDbLine
6
CONTINUOUS
62
5
10
78.250000
20
331.500000
11
83.500000
21
331.500000
0
LINE
5
2a2
100
AcDbEntity
8
1
100
AcDbLine
6
CONTINUOUS
62
5
10
50.000000
20
350.000000
11
50.000000
21
318.000000
0
LINE
5
2a3
100
AcDbEntity
8
1
100
AcDbLine
6
CONTINUOUS
62
5
10
77.500000
20
296.750000
11
80.625000
21
296.750000
0
POLYLINE
5
2a4
100
AcDbEntity
8
1
6
CONTINUOUS
62
5
100
AcDb2dPolyline
66
1
10
0.0
20
0.0
30
0.0
70
0
0
VERTEX
5
2a5
100
AcDbEntity
8
1
100
AcDbVertex
100
AcDb2dVertex
62
5
10
65.312500
20
300.500000
0
VERTEX
5
2a6
100
AcDbEntity
8
1
100
AcDbVertex
100
AcDb2dVertex
62
5
10
65.312500
20
294.875000
0
VERTEX
5
2a7
100
AcDbEntity
8
1
100
AcDbVertex
100
AcDb2dVertex
62
5
10
65.000000
20
293.625000
0
VERTEX
5
2a8
100
AcDbEntity
8
1
100
AcDbVertex
100
AcDb2dVertex
62
5
10
64.375000
20
293.000000
0
VERTEX
5
2a9
100
AcDbEntity
8
1
100
AcDbVertex
100
AcDb2dVertex
62
5
10
63.437500
20
293.000000
0
VERTEX
5
2aa
100
AcDbEntity
8
1
100
AcDbVertex
100
AcDb2dVertex
62
5
10
62.812500
20
293.625000
0
VERTEX
5
2ab
100
AcDbEntity
8
1
100
AcDbVertex
100
AcDb2dVertex
62
5
10
62.500000
20
294.875000
0
SEQEND
5
2ac
100
AcDbEntity
8
1
0
POLYLINE
5
2ad
100
AcDbEntity
8
1
6
CONTINUOUS
62
5
100
AcDb2dPolyline
66
1
10
0.0
20
0.0
30
0.0
70
0
0
VERTEX
5
2ae
100
AcDbEntity
8
1
100
AcDbVertex
100
AcDb2dVertex
62
5
10
70.625000
20
300.500000
0
VERTEX
5
2af
100
AcDbEntity
8
1
100
AcDbVertex
100
AcDb2dVertex
62
5
10
67.500000
20
300.500000
0
VERTEX
5
2b0
100
AcDbEntity
8
1
100
AcDbVertex
100
AcDb2dVertex
62
5
10
67.500000
20
293.000000
0
VERTEX
5
2b1
100
AcDbEntity
8
1
100
AcDbVertex
100
AcDb2dVertex
62
5
10
70.937500
20
293.000000
0
SEQEND
5
2b2
100
AcDbEntity
8
1
0
LINE
5
2b3
100
AcDbEntity
8
1
100
AcDbLine
6
CONTINUOUS
62
5
10
67.500000
20
296.750000
11
70.312500
21
296.750000
0
POLYLINE
5
2b4
100
AcDbEntity
8
1
6
CONTINUOUS
62
5
100
AcDb2dPolyline
66
1
10
0.0
20
0.0
30
0.0
70
0
0
VERTEX
5
2b5
100
AcDbEntity
8
1
100
AcDbVertex
100
AcDb2dVertex
62
5
10
75.625000
20
298.937500
0
VERTEX
5
2b6
100
AcDbEntity
8
1
100
AcDbVertex
100
AcDb2dVertex
62
5
10
75.312500
20
299.875000
0
VERTEX
5
2b7
100
AcDbEntity
8
1
100
AcDbVertex
100
AcDb2dVertex
62
5
10
74.687500
20
300.500000
0
VERTEX
5
2b8
100
AcDbEntity
8
1
100
AcDbVertex
100
AcDb2dVertex
62
5
10
73.750000
20
300.500000
0
VERTEX
5
2b9
100
AcDbEntity
8
1
100
AcDbVertex
100
AcDb2dVertex
62
5
10
72.812500
20
299.562500
0
VERTEX
5
2ba
100
AcDbEntity
8
1
100
AcDbVertex
100
AcDb2dVertex
62
5
10
72.500000
20
298.000000
0
VERTEX
5
2bb
100
AcDbEntity
8
1
100
AcDbVertex
100
AcDb2dVertex
62
5
10
72.500000
20
295.500000
0
VERTEX
5
2bc
100
AcDbEntity
8
1
100
AcDbVertex
100
AcDb2dVertex
62
5
10
72.812500
20
293.937500
0
VERTEX
5
2bd
100
AcDbEntity
8
1
100
AcDbVertex
100
AcDb2dVertex
62
5
10
73.750000
20
293.000000
0
VERTEX
5
2be
100
AcDbEntity
8
1
100
AcDbVertex
100
AcDb2dVertex
62
5
10
74.687500
20
293.000000
0
VERTEX
5
2bf
100
AcDbEntity
8
1
100
AcDbVertex
100
AcDb2dVertex
62
5
10
75.312500
20
293.625000
0
VERTEX
5
2c0
100
AcDbEntity
8
1
100
AcDbVertex
100
AcDb2dVertex
62
5
10
75.937500
20
295.187500
0
SEQEND
5
2c1
100
AcDbEntity
8
1
0
LINE
5
2c2
100
AcDbEntity
8
1
100
AcDbLine
6
CONTINUOUS
62
5
10
85.000000
20
339.000000
11
86.000000
21
338.062500
0
POLYLINE
5
2c3
100
AcDbEntity
8
1
6
CONTINUOUS
62
5
100
AcDb2dPolyline
66
1
10
0.0
20
0.0
30
0.0
70
0
0
VERTEX
5
2c4
100
AcDbEntity
8
1
100
AcDbVertex
100
AcDb2dVertex
62
5
10
84.750000
20
335.875000
0
VERTEX
5
2c5
100
AcDbEntity
8
1
100
AcDbVertex
100
AcDb2dVertex
62
5
10
86.000000
20
335.875000
0
VERTEX
5
2c6
100
AcDbEntity
8
1
100
AcDbVertex
100
AcDb2dVertex
62
5
10
86.000000
20
332.750000
0
VERTEX
5
2c7
100
AcDbEntity
8
1
100
AcDbVertex
100
AcDb2dVertex
62
5
10
84.750000
20
331.187500
0
SEQEND
5
2c8
100
AcDbEntity
8
1
0
POLYLINE
5
2c9
100
AcDbEntity
8
1
6
CONTINUOUS
62
5
100
AcDb2dPolyline
66
1
10
0.0
20
0.0
30
0.0
70
0
0
VERTEX
5
2ca
100
AcDbEntity
8
1
100
AcDbVertex
100
AcDb2dVertex
62
5
10
86.000000
20
332.750000
0
VERTEX
5
2cb
100
AcDbEntity
8
1
100
AcDbVertex
100
AcDb2dVertex
62
5
10
86.750000
20
331.500000
0
VERTEX
5
2cc
100
AcDbEntity
8
1
100
AcDbVertex
100
AcDb2dVertex
62
5
10
87.750000
20
331.187500
0
VERTEX
5
2cd
100
AcDbEntity
8
1
100
AcDbVertex
100
AcDb2dVertex
62
5
10
91.500000
20
331.187500
0
SEQEND
5
2ce
100
AcDbEntity
8
1
0
POLYLINE
5
2cf
100
AcDbEntity
8
1
6
CONTINUOUS
62
5
100
AcDb2dPolyline
66
1
10
0.0
20
0.0
30
0.0
70
0
0
VERTEX
5
2d0
100
AcDbEntity
8
1
100
AcDbVertex
100
AcDb2dVertex
62
5
10
88.750000
20
336.500000
0
VERTEX
5
2d1
100
AcDbEntity
8
1
100
AcDbVertex
100
AcDb2dVertex
62
5
10
88.000000
20
334.625000
0
VERTEX
5
2d2
100
AcDbEntity
8
1
100
AcDbVertex
100
AcDb2dVertex
62
5
10
87.250000
20
333.375000
0
VERTEX
5
2d3
100
AcDbEntity
8
1
100
AcDbVertex
100
AcDb2dVertex
62
5
10
86.750000
20
332.750000
0
SEQEND
5
2d4
100
AcDbEntity
8
1
0
POLYLINE
5
2d5
100
AcDbEntity
8
1
6
CONTINUOUS
62
5
100
AcDb2dPolyline
66
1
10
0.0
20
0.0
30
0.0
70
0
0
VERTEX
5
2d6
100
AcDbEntity
8
1
100
AcDbVertex
100
AcDb2dVertex
62
5
10
87.500000
20
339.312500
0
VERTEX
5
2d7
100
AcDbEntity
8
1
100
AcDbVertex
100
AcDb2dVertex
62
5
10
88.750000
20
339.312500
0
VERTEX
5
2d8
100
AcDbEntity
8
1
100
AcDbVertex
100
AcDb2dVertex
62
5
10
88.750000
20
336.500000
0
VERTEX
5
2d9
100
AcDbEntity
8
1
100
AcDbVertex
100
AcDb2dVertex
62
5
10
89.500000
20
334.625000
0
VERTEX
5
2da
100
AcDbEntity
8
1
100
AcDbVertex
100
AcDb2dVertex
62
5
10
90.500000
20
333.375000
0
VERTEX
5
2db
100
AcDbEntity
8
1
100
AcDbVertex
100
AcDb2dVertex
62
5
10
91.250000
20
332.750000
0
SEQEND
5
2dc
100
AcDbEntity
8
1
0
LINE
5
2dd
100
AcDbEntity
8
1
100
AcDbLine
6
CONTINUOUS
62
5
10
82.500000
20
300.500000
11
82.500000
21
293.000000
0
POLYLINE
5
2de
100
AcDbEntity
8
1
6
CONTINUOUS
62
5
100
AcDb2dPolyline
66
1
10
0.0
20
0.0
30
0.0
70
0
0
VERTEX
5
2df
100
AcDbEntity
8
1
100
AcDbVertex
100
AcDb2dVertex
62
5
10
82.500000
20
300.500000
0
VERTEX
5
2e0
100
AcDbEntity
8
1
100
AcDbVertex
100
AcDb2dVertex
62
5
10
84.062500
20
300.500000
0
VERTEX
5
2e1
100
AcDbEntity
8
1
100
AcDbVertex
100
AcDb2dVertex
62
5
10
84.687500
20
300.187500
0
VERTEX
5
2e2
100
AcDbEntity
8
1
100
AcDbVertex
100
AcDb2dVertex
62
5
10
85.000000
20
299.875000
0
VERTEX
5
2e3
100
AcDbEntity
8
1
100
AcDbVertex
100
AcDb2dVertex
62
5
10
85.312500
20
299.250000
0
VERTEX
5
2e4
100
AcDbEntity
8
1
100
AcDbVertex
100
AcDb2dVertex
62
5
10
85.312500
20
298.312500
0
VERTEX
5
2e5
100
AcDbEntity
8
1
100
AcDbVertex
100
AcDb2dVertex
62
5
10
85.000000
20
297.687500
0
VERTEX
5
2e6
100
AcDbEntity
8
1
100
AcDbVertex
100
AcDb2dVertex
62
5
10
84.687500
20
297.375000
0
VERTEX
5
2e7
100
AcDbEntity
8
1
100
AcDbVertex
100
AcDb2dVertex
62
5
10
84.062500
20
297.062500
0
VERTEX
5
2e8
100
AcDbEntity
8
1
100
AcDbVertex
100
AcDb2dVertex
62
5
10
82.500000
20
297.062500
0
SEQEND
5
2e9
100
AcDbEntity
8
1
0
POLYLINE
5
2ea
100
AcDbEntity
8
1
6
CONTINUOUS
62
5
100
AcDb2dPolyline
66
1
10
0.0
20
0.0
30
0.0
70
0
0
VERTEX
5
2eb
100
AcDbEntity
8
1
100
AcDbVertex
100
AcDb2dVertex
62
5
10
84.062500
20
297.062500
0
VERTEX
5
2ec
100
AcDbEntity
8
1
100
AcDbVertex
100
AcDb2dVertex
62
5
10
84.687500
20
296.750000
0
VERTEX
5
2ed
100
AcDbEntity
8
1
100
AcDbVertex
100
AcDb2dVertex
62
5
10
85.312500
20
296.125000
0
VERTEX
5
2ee
100
AcDbEntity
8
1
100
AcDbVertex
100
AcDb2dVertex
62
5
10
85.625000
20
295.500000
0
VERTEX
5
2ef
100
AcDbEntity
8
1
100
AcDbVertex
100
AcDb2dVertex
62
5
10
85.625000
20
294.250000
0
VERTEX
5
2f0
100
AcDbEntity
8
1
100
AcDbVertex
100
AcDb2dVertex
62
5
10
85.312500
20
293.625000
0
VERTEX
5
2f1
100
AcDbEntity
8
1
100
AcDbVertex
100
AcDb2dVertex
62
5
10
85.000000
20
293.312500
0
VERTEX
5
2f2
100
AcDbEntity
8
1
100
AcDbVertex
100
AcDb2dVertex
62
5
10
84.375000
20
293.000000
0
VERTEX
5
2f3
100
AcDbEntity
8
1
100
AcDbVertex
100
AcDb2dVertex
62
5
10
82.500000
20
293.000000
0
SEQEND
5
2f4
100
AcDbEntity
8
1
0
POLYLINE
5
2f5
100
AcDbEntity
8
1
6
DOT2
62
5
100
AcDb2dPolyline
66
1
10
0.0
20
0.0
30
0.0
70
0
0
VERTEX
5
2f6
100
AcDbEntity
8
1
100
AcDbVertex
100
AcDb2dVertex
62
5
10
122.600000
20
249.750000
0
VERTEX
5
2f7
100
AcDbEntity
8
1
100
AcDbVertex
100
AcDb2dVertex
62
5
10
119.787500
20
244.125000
0
VERTEX
5
2f8
100
AcDbEntity
8
1
100
AcDbVertex
100
AcDb2dVertex
62
5
10
123.537500
20
244.125000
0
SEQEND
5
2f9
100
AcDbEntity
8
1
0
LINE
5
2fa
100
AcDbEntity
8
1
100
AcDbLine
6
DOT2
62
5
10
122.600000
20
249.750000
11
122.600000
21
242.250000
0
LINE
5
2fb
100
AcDbEntity
8
1
100
AcDbLine
6
DOT2
62
5
10
121.975000
20
242.250000
11
123.225000
21
242.250000
0
POLYLINE
5
2fc
100
AcDbEntity
8
1
6
DOT2
62
5
100
AcDb2dPolyline
66
1
10
0.0
20
0.0
30
0.0
70
0
0
VERTEX
5
2fd
100
AcDbEntity
8
1
100
AcDbVertex
100
AcDb2dVertex
62
5
10
127.600000
20
249.750000
0
VERTEX
5
2fe
100
AcDbEntity
8
1
100
AcDbVertex
100
AcDb2dVertex
62
5
10
126.662500
20
249.750000
0
VERTEX
5
2ff
100
AcDbEntity
8
1
100
AcDbVertex
100
AcDb2dVertex
62
5
10
125.725000
20
249.437500
0
VERTEX
5
300
100
AcDbEntity
8
1
100
AcDbVertex
100
AcDb2dVertex
62
5
10
125.100000
20
248.187500
0
VERTEX
5
301
100
AcDbEntity
8
1
100
AcDbVertex
100
AcDb2dVertex
62
5
10
125.100000
20
243.812500
0
VERTEX
5
302
100
AcDbEntity
8
1
100
AcDbVertex
100
AcDb2dVertex
62
5
10
125.412500
20
242.875000
0
VERTEX
5
303
100
AcDbEntity
8
1
100
AcDbVertex
100
AcDb2dVertex
62
5
10
125.725000
20
242.562500
0
VERTEX
5
304
100
AcDbEntity
8
1
100
AcDbVertex
100
AcDb2dVertex
62
5
10
126.350000
20
242.250000
0
VERTEX
5
305
100
AcDbEntity
8
1
100
AcDbVertex
100
AcDb2dVertex
62
5
10
126.975000
20
242.250000
0
VERTEX
5
306
100
AcDbEntity
8
1
100
AcDbVertex
100
AcDb2dVertex
62
5
10
127.600000
20
242.562500
0
VERTEX
5
307
100
AcDbEntity
8
1
100
AcDbVertex
100
AcDb2dVertex
62
5
10
127.912500
20
242.875000
0
VERTEX
5
308
100
AcDbEntity
8
1
100
AcDbVertex
100
AcDb2dVertex
62
5
10
128.225000
20
243.812500
0
VERTEX
5
309
100
AcDbEntity
8
1
100
AcDbVertex
100
AcDb2dVertex
62
5
10
128.225000
20
245.687500
0
VERTEX
5
30a
100
AcDbEntity
8
1
100
AcDbVertex
100
AcDb2dVertex
62
5
10
127.912500
20
246.312500
0
VERTEX
5
30b
100
AcDbEntity
8
1
100
AcDbVertex
100
AcDb2dVertex
62
5
10
127.287500
20
246.625000
0
VERTEX
5
30c
100
AcDbEntity
8
1
100
AcDbVertex
100
AcDb2dVertex
62
5
10
126.037500
20
246.625000
0
VERTEX
5
30d
100
AcDbEntity
8
1
100
AcDbVertex
100
AcDb2dVertex
62
5
10
125.100000
20
246.312500
0
SEQEND
5
30e
100
AcDbEntity
8
1
0
LINE
5
30f
100
AcDbEntity
8
1
100
AcDbLine
6
CONTINUOUS
62
5
10
142.450000
20
213.250000
11
142.450000
21
216.000000
0
LINE
5
310
100
AcDbEntity
8
1
100
AcDbLine
6
CONTINUOUS
62
5
10
142.150000
20
213.250000
11
142.150000
21
216.000000
0
LINE
5
311
100
AcDbEntity
8
1
100
AcDbLine
6
CONTINUOUS
62
5
10
141.850000
20
213.208258
11
141.850000
21
216.000000
0
CIRCLE
5
312
100
AcDbEntity
8
1
100
AcDbCircle
6
CONTINUOUS
62
5
10
131.050000
20
210.500000
40
2.250000
0
CIRCLE
5
313
100
AcDbEntity
8
1
100
AcDbCircle
6
CONTINUOUS
62
5
10
131.050000
20
210.500000
40
2.750000
0
LINE
5
314
100
AcDbEntity
8
1
100
AcDbLine
6
CONTINUOUS
62
5
10
136.550000
20
190.100000
11
136.050000
21
190.600000
0
ARC
5
315
100
AcDbEntity
8
1
100
AcDbCircle
6
CONTINUOUS
62
5
10
137.050000
20
197.250000
40
0.500000
100
AcDbArc
50
-89.999999
51
0.000000
0
POLYLINE
5
316
100
AcDbEntity
8
1
6
CONTINUOUS
62
5
100
AcDb2dPolyline
66
1
10
0.0
20
0.0
30
0.0
70
0
0
VERTEX
5
317
100
AcDbEntity
8
1
100
AcDbVertex
100
AcDb2dVertex
62
5
10
137.550000
20
197.250000
0
VERTEX
5
318
100
AcDbEntity
8
1
100
AcDbVertex
100
AcDb2dVertex
62
5
10
137.550000
20
198.750000
0
VERTEX
5
319
100
AcDbEntity
8
1
100
AcDbVertex
100
AcDb2dVertex
62
5
10
136.050000
20
199.750000
0
VERTEX
5
31a
100
AcDbEntity
8
1
100
AcDbVertex
100
AcDb2dVertex
62
5
10
133.550000
20
199.750000
0
VERTEX
5
31b
100
AcDbEntity
8
1
100
AcDbVertex
100
AcDb2dVertex
62
5
10
133.550000
20
196.750000
0
VERTEX
5
31c
100
AcDbEntity
8
1
100
AcDbVertex
100
AcDb2dVertex
62
5
10
137.050000
20
196.750000
0
SEQEND
5
31d
100
AcDbEntity
8
1
0
POLYLINE
5
31e
100
AcDbEntity
8
1
6
CONTINUOUS
62
5
100
AcDb2dPolyline
66
1
10
0.0
20
0.0
30
0.0
70
0
0
VERTEX
5
31f
100
AcDbEntity
8
1
100
AcDbVertex
100
AcDb2dVertex
62
5
10
137.900000
20
190.600000
0
VERTEX
5
320
100
AcDbEntity
8
1
100
AcDbVertex
100
AcDb2dVertex
62
5
10
136.050000
20
190.600000
0
VERTEX
5
321
100
AcDbEntity
8
1
100
AcDbVertex
100
AcDb2dVertex
62
5
10
136.050000
20
190.100000
0
SEQEND
5
322
100
AcDbEntity
8
1
0
LINE
5
323
100
AcDbEntity
8
1
100
AcDbLine
6
CONTINUOUS
62
5
10
137.900000
20
191.000000
11
140.250000
21
191.000000
0
POLYLINE
5
324
100
AcDbEntity
8
1
6
CONTINUOUS
62
5
100
AcDb2dPolyline
66
1
10
0.0
20
0.0
30
0.0
70
0
0
VERTEX
5
325
100
AcDbEntity
8
1
100
AcDbVertex
100
AcDb2dVertex
62
5
10
137.900000
20
184.900000
0
VERTEX
5
326
100
AcDbEntity
8
1
100
AcDbVertex
100
AcDb2dVertex
62
5
10
136.550000
20
184.900000
0
VERTEX
5
327
100
AcDbEntity
8
1
100
AcDbVertex
100
AcDb2dVertex
62
5
10
136.550000
20
190.100000
0
VERTEX
5
328
100
AcDbEntity
8
1
100
AcDbVertex
100
AcDb2dVertex
62
5
10
137.900000
20
190.100000
0
SEQEND
5
329
100
AcDbEntity
8
1
0
POLYLINE
5
32a
100
AcDbEntity
8
1
6
CONTINUOUS
62
5
100
AcDb2dPolyline
66
1
10
0.0
20
0.0
30
0.0
70
0
0
VERTEX
5
32b
100
AcDbEntity
8
1
100
AcDbVertex
100
AcDb2dVertex
62
5
10
136.550000
20
184.900000
0
VERTEX
5
32c
100
AcDbEntity
8
1
100
AcDbVertex
100
AcDb2dVertex
62
5
10
136.050000
20
184.400000
0
VERTEX
5
32d
100
AcDbEntity
8
1
100
AcDbVertex
100
AcDb2dVertex
62
5
10
137.900000
20
184.400000
0
SEQEND
5
32e
100
AcDbEntity
8
1
0
ARC
5
32f
100
AcDbEntity
8
1
100
AcDbCircle
6
CONTINUOUS
62
5
10
135.550000
20
190.100000
40
0.500000
100
AcDbArc
50
0.000000
51
89.999999
0
LINE
5
330
100
AcDbEntity
8
1
100
AcDbLine
6
CONTINUOUS
62
5
10
136.050000
20
190.100000
11
136.050000
21
183.900000
0
ARC
5
331
100
AcDbEntity
8
1
100
AcDbCircle
6
CONTINUOUS
62
5
10
135.550000
20
183.900000
40
0.500000
100
AcDbArc
50
-89.999999
51
0.000000
0
LINE
5
332
100
AcDbEntity
8
1
100
AcDbLine
6
CONTINUOUS
62
5
10
135.550000
20
183.400000
11
135.050000
21
183.400000
0
LINE
5
333
100
AcDbEntity
8
1
100
AcDbLine
6
CONTINUOUS
62
5
10
135.050000
20
190.600000
11
135.550000
21
190.600000
0
LINE
5
334
100
AcDbEntity
8
1
100
AcDbLine
6
CONTINUOUS
62
5
10
127.818322
20
188.219609
11
127.805179
21
188.500000
0
ARC
5
335
100
AcDbEntity
8
1
100
AcDbCircle
6
CONTINUOUS
62
5
10
137.050000
20
202.500000
40
1.000000
100
AcDbArc
50
-143.130101
51
36.869897
0
LINE
5
336
100
AcDbEntity
8
1
100
AcDbLine
6
CONTINUOUS
62
5
10
136.250000
20
201.900000
11
131.787043
21
207.850610
0
LINE
5
337
100
AcDbEntity
8
1
100
AcDbLine
6
CONTINUOUS
62
5
10
133.387043
20
209.050610
11
137.850000
21
203.100000
0
CIRCLE
5
338
100
AcDbEntity
8
1
100
AcDbCircle
6
CONTINUOUS
62
5
10
121.050000
20
210.500000
40
1.500000
0
CIRCLE
5
339
100
AcDbEntity
8
1
100
AcDbCircle
6
CONTINUOUS
62
5
10
121.050000
20
210.500000
40
2.250000
0
CIRCLE
5
33a
100
AcDbEntity
8
1
100
AcDbCircle
6
CONTINUOUS
62
5
10
121.050000
20
210.500000
40
2.250000
0
LINE
5
33b
100
AcDbEntity
8
1
100
AcDbLine
6
CONTINUOUS
62
5
10
126.776529
20
188.220944
11
126.790330
21
188.500000
0
LINE
5
33c
100
AcDbEntity
8
1
100
AcDbLine
6
CONTINUOUS
62
5
10
114.700000
20
188.200000
11
114.281678
21
188.219609
0
LINE
5
33d
100
AcDbEntity
8
1
100
AcDbLine
6
CONTINUOUS
62
5
10
114.281678
20
188.219609
11
114.329977
21
189.250000
0
ARC
5
33e
100
AcDbEntity
8
1
100
AcDbCircle
6
CONTINUOUS
62
5
10
110.050000
20
197.250000
40
0.500000
100
AcDbArc
50
-89.999999
51
0.000000
0
POLYLINE
5
33f
100
AcDbEntity
8
1
6
CONTINUOUS
62
5
100
AcDb2dPolyline
66
1
10
0.0
20
0.0
30
0.0
70
0
0
VERTEX
5
340
100
AcDbEntity
8
1
100
AcDbVertex
100
AcDb2dVertex
62
5
10
110.550000
20
197.250000
0
VERTEX
5
341
100
AcDbEntity
8
1
100
AcDbVertex
100
AcDb2dVertex
62
5
10
110.550000
20
198.750000
0
VERTEX
5
342
100
AcDbEntity
8
1
100
AcDbVertex
100
AcDb2dVertex
62
5
10
109.050000
20
199.750000
0
VERTEX
5
343
100
AcDbEntity
8
1
100
AcDbVertex
100
AcDb2dVertex
62
5
10
106.550000
20
199.750000
0
VERTEX
5
344
100
AcDbEntity
8
1
100
AcDbVertex
100
AcDb2dVertex
62
5
10
106.550000
20
196.750000
0
VERTEX
5
345
100
AcDbEntity
8
1
100
AcDbVertex
100
AcDb2dVertex
62
5
10
110.050000
20
196.750000
0
SEQEND
5
346
100
AcDbEntity
8
1
0
LINE
5
347
100
AcDbEntity
8
1
100
AcDbLine
6
CONTINUOUS
62
5
10
115.323471
20
188.220944
11
115.272576
21
189.250000
0
LINE
5
348
100
AcDbEntity
8
1
100
AcDbLine
6
CONTINUOUS
62
5
10
113.700000
20
181.800000
11
114.400000
21
181.800000
0
LINE
5
349
100
AcDbEntity
8
1
100
AcDbLine
6
CONTINUOUS
62
5
10
113.700000
20
181.832812
11
114.400000
21
181.800000
0
LINE
5
34a
100
AcDbEntity
8
1
100
AcDbLine
6
CONTINUOUS
62
5
10
114.700000
20
188.200000
11
114.400000
21
181.800000
0
POLYLINE
5
34b
100
AcDbEntity
8
1
6
CONTINUOUS
62
5
100
AcDb2dPolyline
66
1
10
0.0
20
0.0
30
0.0
70
1
0
VERTEX
5
34c
100
AcDbEntity
8
1
100
AcDbVertex
100
AcDb2dVertex
62
5
10
115.700000
20
189.250000
0
VERTEX
5
34d
100
AcDbEntity
8
1
100
AcDbVertex
100
AcDb2dVertex
62
5
10
113.700000
20
189.250000
0
VERTEX
5
34e
100
AcDbEntity
8
1
100
AcDbVertex
100
AcDb2dVertex
62
5
10
113.700000
20
180.750000
0
VERTEX
5
34f
100
AcDbEntity
8
1
100
AcDbVertex
100
AcDb2dVertex
62
5
10
115.700000
20
180.750000
0
VERTEX
5
350
100
AcDbEntity
8
1
100
AcDbVertex
100
AcDb2dVertex
62
5
10
115.700000
20
189.250000
0
SEQEND
5
351
100
AcDbEntity
8
1
0
POLYLINE
5
352
100
AcDbEntity
8
1
6
CONTINUOUS
62
5
100
AcDb2dPolyline
66
1
10
0.0
20
0.0
30
0.0
70
0
0
VERTEX
5
353
100
AcDbEntity
8
1
100
AcDbVertex
100
AcDb2dVertex
62
5
10
115.700000
20
181.823438
0
VERTEX
5
354
100
AcDbEntity
8
1
100
AcDbVertex
100
AcDb2dVertex
62
5
10
115.200000
20
181.800000
0
VERTEX
5
355
100
AcDbEntity
8
1
100
AcDbVertex
100
AcDb2dVertex
62
5
10
114.900000
20
188.200000
0
VERTEX
5
356
100
AcDbEntity
8
1
100
AcDbVertex
100
AcDb2dVertex
62
5
10
115.323471
20
188.220944
0
SEQEND
5
357
100
AcDbEntity
8
1
0
LINE
5
358
100
AcDbEntity
8
1
100
AcDbLine
6
CONTINUOUS
62
5
10
104.200000
20
191.000000
11
101.850000
21
191.000000
0
POLYLINE
5
359
100
AcDbEntity
8
1
6
CONTINUOUS
62
5
100
AcDb2dPolyline
66
1
10
0.0
20
0.0
30
0.0
70
0
0
VERTEX
5
35a
100
AcDbEntity
8
1
100
AcDbVertex
100
AcDb2dVertex
62
5
10
104.200000
20
184.900000
0
VERTEX
5
35b
100
AcDbEntity
8
1
100
AcDbVertex
100
AcDb2dVertex
62
5
10
105.550000
20
184.900000
0
VERTEX
5
35c
100
AcDbEntity
8
1
100
AcDbVertex
100
AcDb2dVertex
62
5
10
105.550000
20
190.100000
0
VERTEX
5
35d
100
AcDbEntity
8
1
100
AcDbVertex
100
AcDb2dVertex
62
5
10
104.200000
20
190.100000
0
SEQEND
5
35e
100
AcDbEntity
8
1
0
POLYLINE
5
35f
100
AcDbEntity
8
1
6
CONTINUOUS
62
5
100
AcDb2dPolyline
66
1
10
0.0
20
0.0
30
0.0
70
0
0
VERTEX
5
360
100
AcDbEntity
8
1
100
AcDbVertex
100
AcDb2dVertex
62
5
10
104.200000
20
190.600000
0
VERTEX
5
361
100
AcDbEntity
8
1
100
AcDbVertex
100
AcDb2dVertex
62
5
10
106.050000
20
190.600000
0
VERTEX
5
362
100
AcDbEntity
8
1
100
AcDbVertex
100
AcDb2dVertex
62
5
10
106.050000
20
190.100000
0
SEQEND
5
363
100
AcDbEntity
8
1
0
LINE
5
364
100
AcDbEntity
8
1
100
AcDbLine
6
CONTINUOUS
62
5
10
105.550000
20
190.100000
11
106.050000
21
190.600000
0
POLYLINE
5
365
100
AcDbEntity
8
1
6
CONTINUOUS
62
5
100
AcDb2dPolyline
66
1
10
0.0
20
0.0
30
0.0
70
0
0
VERTEX
5
366
100
AcDbEntity
8
1
100
AcDbVertex
100
AcDb2dVertex
62
5
10
104.200000
20
184.400000
0
VERTEX
5
367
100
AcDbEntity
8
1
100
AcDbVertex
100
AcDb2dVertex
62
5
10
106.050000
20
184.400000
0
VERTEX
5
368
100
AcDbEntity
8
1
100
AcDbVertex
100
AcDb2dVertex
62
5
10
105.550000
20
184.900000
0
SEQEND
5
369
100
AcDbEntity
8
1
0
ARC
5
36a
100
AcDbEntity
8
1
100
AcDbCircle
6
CONTINUOUS
62
5
10
106.550000
20
190.100000
40
0.500000
100
AcDbArc
50
89.999999
51
179.999998
0
LINE
5
36b
100
AcDbEntity
8
1
100
AcDbLine
6
CONTINUOUS
62
5
10
106.050000
20
190.100000
11
106.050000
21
183.900000
0
ARC
5
36c
100
AcDbEntity
8
1
100
AcDbCircle
6
CONTINUOUS
62
5
10
106.550000
20
183.900000
40
0.500000
100
AcDbArc
50
179.999998
51
-89.999999
0
LINE
5
36d
100
AcDbEntity
8
1
100
AcDbLine
6
CONTINUOUS
62
5
10
106.550000
20
183.400000
11
107.050000
21
183.400000
0
LINE
5
36e
100
AcDbEntity
8
1
100
AcDbLine
6
CONTINUOUS
62
5
10
107.050000
20
190.600000
11
106.550000
21
190.600000
0
ARC
5
36f
100
AcDbEntity
8
1
100
AcDbCircle
6
CONTINUOUS
62
5
10
110.050000
20
209.500000
40
1.000000
100
AcDbArc
50
-35.537677
51
144.462321
0
LINE
5
370
100
AcDbEntity
8
1
100
AcDbLine
6
CONTINUOUS
62
5
10
110.863733
20
208.918762
11
105.863733
21
201.918762
0
ARC
5
371
100
AcDbEntity
8
1
100
AcDbCircle
6
CONTINUOUS
62
5
10
105.050000
20
202.500000
40
1.000000
100
AcDbArc
50
144.462321
51
-35.537677
0
LINE
5
372
100
AcDbEntity
8
1
100
AcDbLine
6
CONTINUOUS
62
5
10
104.236267
20
203.081238
11
109.236267
21
210.081238
0
POLYLINE
5
373
100
AcDbEntity
8
1
6
CONTINUOUS
62
5
100
AcDb2dPolyline
66
1
10
0.0
20
0.0
30
0.0
70
1
0
VERTEX
5
374
100
AcDbEntity
8
1
100
AcDbVertex
100
AcDb2dVertex
62
5
10
115.050000
20
213.750000
0
VERTEX
5
375
100
AcDbEntity
8
1
100
AcDbVertex
100
AcDb2dVertex
62
5
10
115.050000
20
207.250000
0
VERTEX
5
376
100
AcDbEntity
8
1
100
AcDbVertex
100
AcDb2dVertex
62
5
10
127.050000
20
207.250000
0
VERTEX
5
377
100
AcDbEntity
8
1
100
AcDbVertex
100
AcDb2dVertex
62
5
10
127.050000
20
213.750000
0
VERTEX
5
378
100
AcDbEntity
8
1
100
AcDbVertex
100
AcDb2dVertex
62
5
10
115.050000
20
213.750000
0
SEQEND
5
379
100
AcDbEntity
8
1
0
POLYLINE
5
37a
100
AcDbEntity
8
1
6
CONTINUOUS
62
5
100
AcDb2dPolyline
66
1
10
0.0
20
0.0
30
0.0
70
0
0
VERTEX
5
37b
100
AcDbEntity
8
1
100
AcDbVertex
100
AcDb2dVertex
62
5
10
126.400000
20
181.823438
0
VERTEX
5
37c
100
AcDbEntity
8
1
100
AcDbVertex
100
AcDb2dVertex
62
5
10
126.900000
20
181.800000
0
VERTEX
5
37d
100
AcDbEntity
8
1
100
AcDbVertex
100
AcDb2dVertex
62
5
10
127.200000
20
188.200000
0
VERTEX
5
37e
100
AcDbEntity
8
1
100
AcDbVertex
100
AcDb2dVertex
62
5
10
126.776529
20
188.220944
0
SEQEND
5
37f
100
AcDbEntity
8
1
0
LINE
5
380
100
AcDbEntity
8
1
100
AcDbLine
6
CONTINUOUS
62
5
10
127.400000
20
188.200000
11
127.818322
21
188.219609
0
LINE
5
381
100
AcDbEntity
8
1
100
AcDbLine
6
CONTINUOUS
62
5
10
128.400000
20
181.832812
11
127.700000
21
181.800000
0
LINE
5
382
100
AcDbEntity
8
1
100
AcDbLine
6
CONTINUOUS
62
5
10
128.400000
20
181.800000
11
127.700000
21
181.800000
0
LINE
5
383
100
AcDbEntity
8
1
100
AcDbLine
6
CONTINUOUS
62
5
10
127.400000
20
188.200000
11
127.700000
21
181.800000
0
POLYLINE
5
384
100
AcDbEntity
8
1
6
CONTINUOUS
62
5
100
AcDb2dPolyline
66
1
10
0.0
20
0.0
30
0.0
70
1
0
VERTEX
5
385
100
AcDbEntity
8
1
100
AcDbVertex
100
AcDb2dVertex
62
5
10
128.400000
20
188.500000
0
VERTEX
5
386
100
AcDbEntity
8
1
100
AcDbVertex
100
AcDb2dVertex
62
5
10
126.400000
20
188.500000
0
VERTEX
5
387
100
AcDbEntity
8
1
100
AcDbVertex
100
AcDb2dVertex
62
5
10
126.400000
20
181.500000
0
VERTEX
5
388
100
AcDbEntity
8
1
100
AcDbVertex
100
AcDb2dVertex
62
5
10
128.400000
20
181.500000
0
VERTEX
5
389
100
AcDbEntity
8
1
100
AcDbVertex
100
AcDb2dVertex
62
5
10
128.400000
20
188.500000
0
SEQEND
5
38a
100
AcDbEntity
8
1
0
ARC
5
38b
100
AcDbEntity
8
1
100
AcDbCircle
6
CONTINUOUS
62
5
10
117.050000
20
201.557941
40
2.500000
100
AcDbArc
50
95.497848
51
-84.502150
0
ARC
5
38c
100
AcDbEntity
8
1
100
AcDbCircle
6
CONTINUOUS
62
5
10
121.050000
20
160.000000
40
44.250000
100
AcDbArc
50
84.502150
51
95.497848
0
ARC
5
38d
100
AcDbEntity
8
1
100
AcDbCircle
6
CONTINUOUS
62
5
10
125.050000
20
201.557941
40
2.500000
100
AcDbArc
50
-95.497848
51
84.502150
0
ARC
5
38e
100
AcDbEntity
8
1
100
AcDbCircle
6
CONTINUOUS
62
5
10
121.050000
20
160.000000
40
39.250000
100
AcDbArc
50
84.502150
51
95.497848
0
ARC
5
38f
100
AcDbEntity
8
1
100
AcDbCircle
6
CONTINUOUS
62
5
10
117.050000
20
201.557941
40
3.000000
100
AcDbArc
50
95.497848
51
-84.502150
0
ARC
5
390
100
AcDbEntity
8
1
100
AcDbCircle
6
CONTINUOUS
62
5
10
121.050000
20
160.000000
40
44.750000
100
AcDbArc
50
84.502150
51
95.497848
0
ARC
5
391
100
AcDbEntity
8
1
100
AcDbCircle
6
CONTINUOUS
62
5
10
125.050000
20
201.557941
40
3.000000
100
AcDbArc
50
-95.497848
51
84.502150
0
ARC
5
392
100
AcDbEntity
8
1
100
AcDbCircle
6
CONTINUOUS
62
5
10
121.050000
20
160.000000
40
38.750000
100
AcDbArc
50
84.502150
51
95.497848
0
LINE
5
393
100
AcDbEntity
8
1
100
AcDbLine
6
CONTINUOUS
62
5
10
100.850000
20
216.500000
11
100.850000
21
243.000000
0
LINE
5
394
100
AcDbEntity
8
1
100
AcDbLine
6
CONTINUOUS
62
5
10
146.850000
20
216.500000
11
146.850000
21
243.000000
0
POLYLINE
5
395
100
AcDbEntity
8
1
6
CONTINUOUS
62
5
100
AcDb2dPolyline
66
1
10
0.0
20
0.0
30
0.0
70
0
0
VERTEX
5
396
100
AcDbEntity
8
1
100
AcDbVertex
100
AcDb2dVertex
62
5
10
123.850000
20
241.000000
0
VERTEX
5
397
100
AcDbEntity
8
1
100
AcDbVertex
100
AcDb2dVertex
62
5
10
100.850000
20
241.000000
0
VERTEX
5
398
100
AcDbEntity
8
1
100
AcDbVertex
100
AcDb2dVertex
62
5
10
106.850000
20
242.000000
0
VERTEX
5
399
100
AcDbEntity
8
1
100
AcDbVertex
100
AcDb2dVertex
62
5
10
106.850000
20
240.000000
0
VERTEX
5
39a
100
AcDbEntity
8
1
100
AcDbVertex
100
AcDb2dVertex
62
5
10
100.850000
20
241.000000
0
VERTEX
5
39b
100
AcDbEntity
8
1
100
AcDbVertex
100
AcDb2dVertex
62
5
10
106.850000
20
241.500000
0
VERTEX
5
39c
100
AcDbEntity
8
1
100
AcDbVertex
100
AcDb2dVertex
62
5
10
106.850000
20
240.500000
0
VERTEX
5
39d
100
AcDbEntity
8
1
100
AcDbVertex
100
AcDb2dVertex
62
5
10
100.850000
20
241.000000
0
SEQEND
5
39e
100
AcDbEntity
8
1
0
POLYLINE
5
39f
100
AcDbEntity
8
1
6
CONTINUOUS
62
5
100
AcDb2dPolyline
66
1
10
0.0
20
0.0
30
0.0
70
0
0
VERTEX
5
3a0
100
AcDbEntity
8
1
100
AcDbVertex
100
AcDb2dVertex
62
5
10
123.850000
20
241.000000
0
VERTEX
5
3a1
100
AcDbEntity
8
1
100
AcDbVertex
100
AcDb2dVertex
62
5
10
146.850000
20
241.000000
0
VERTEX
5
3a2
100
AcDbEntity
8
1
100
AcDbVertex
100
AcDb2dVertex
62
5
10
140.850000
20
240.000000
0
VERTEX
5
3a3
100
AcDbEntity
8
1
100
AcDbVertex
100
AcDb2dVertex
62
5
10
140.850000
20
242.000000
0
VERTEX
5
3a4
100
AcDbEntity
8
1
100
AcDbVertex
100
AcDb2dVertex
62
5
10
146.850000
20
241.000000
0
VERTEX
5
3a5
100
AcDbEntity
8
1
100
AcDbVertex
100
AcDb2dVertex
62
5
10
140.850000
20
240.500000
0
VERTEX
5
3a6
100
AcDbEntity
8
1
100
AcDbVertex
100
AcDb2dVertex
62
5
10
140.850000
20
241.500000
0
VERTEX
5
3a7
100
AcDbEntity
8
1
100
AcDbVertex
100
AcDb2dVertex
62
5
10
146.850000
20
241.000000
0
SEQEND
5
3a8
100
AcDbEntity
8
1
0
LINE
5
3a9
100
AcDbEntity
8
1
100
AcDbLine
6
CONTINUOUS
62
5
10
10.000000
20
318.000000
11
330.000000
21
318.000000
0
ARC
5
3aa
100
AcDbEntity
8
1
100
AcDbCircle
6
CONTINUOUS
62
5
10
238.450000
20
170.046628
40
1.500000
100
AcDbArc
50
0.000000
51
88.190982
0
LINE
5
3ab
100
AcDbEntity
8
1
100
AcDbLine
6
CONTINUOUS
62
5
10
238.497352
20
171.545880
11
235.650000
21
171.636004
0
LINE
5
3ac
100
AcDbEntity
8
1
100
AcDbLine
6
CONTINUOUS
62
5
10
224.150000
20
170.700000
11
225.150000
21
170.700000
0
ARC
5
3ad
100
AcDbEntity
8
1
100
AcDbCircle
6
CONTINUOUS
62
5
10
222.150000
20
171.500000
40
0.500000
100
AcDbArc
50
89.999999
51
179.999998
0
LINE
5
3ae
100
AcDbEntity
8
1
100
AcDbLine
6
CONTINUOUS
62
5
10
221.650000
20
171.500000
11
221.650000
21
170.200000
0
LINE
5
3af
100
AcDbEntity
8
1
100
AcDbLine
6
CONTINUOUS
62
5
10
224.150000
20
172.000000
11
222.150000
21
172.000000
0
ARC
5
3b0
100
AcDbEntity
8
1
100
AcDbCircle
6
CONTINUOUS
62
5
10
222.150000
20
173.139608
40
0.500000
100
AcDbArc
50
89.999999
51
179.999998
0
LINE
5
3b1
100
AcDbEntity
8
1
100
AcDbLine
6
CONTINUOUS
62
5
10
221.650000
20
173.139608
11
221.650000
21
171.500000
0
LINE
5
3b2
100
AcDbEntity
8
1
100
AcDbLine
6
CONTINUOUS
62
5
10
224.150000
20
173.639608
11
222.150000
21
173.639608
0
ARC
5
3b3
100
AcDbEntity
8
1
100
AcDbCircle
6
CONTINUOUS
62
5
10
221.650000
20
170.451271
40
0.500000
100
AcDbArc
50
89.999999
51
179.999998
0
LINE
5
3b4
100
AcDbEntity
8
1
100
AcDbLine
6
CONTINUOUS
62
5
10
221.150000
20
170.451271
11
221.150000
21
167.500000
0
LINE
5
3b5
100
AcDbEntity
8
1
100
AcDbLine
6
CONTINUOUS
62
5
10
221.650000
20
170.951271
11
221.650000
21
170.951271
0
ARC
5
3b6
100
AcDbEntity
8
1
100
AcDbCircle
6
CONTINUOUS
62
5
10
238.450000
20
169.046223
40
1.500000
100
AcDbArc
50
0.000000
51
88.206924
0
LINE
5
3b7
100
AcDbEntity
8
1
100
AcDbLine
6
CONTINUOUS
62
5
10
238.496935
20
170.545489
11
225.150000
21
170.964286
0
ARC
5
3b8
100
AcDbEntity
8
1
100
AcDbCircle
6
CONTINUOUS
62
5
10
237.650000
20
146.699999
40
1.000000
100
AcDbArc
50
-89.999999
51
0.000000
0
LINE
5
3b9
100
AcDbEntity
8
1
100
AcDbLine
6
CONTINUOUS
62
5
10
238.650000
20
146.699999
11
238.650000
21
153.330131
0
ARC
5
3ba
100
AcDbEntity
8
1
100
AcDbCircle
6
CONTINUOUS
62
5
10
237.650000
20
153.330131
40
1.000000
100
AcDbArc
50
0.000000
51
89.999999
0
LINE
5
3bb
100
AcDbEntity
8
1
100
AcDbLine
6
CONTINUOUS
62
5
10
237.650000
20
154.330131
11
235.650000
21
154.330131
0
LINE
5
3bc
100
AcDbEntity
8
1
100
AcDbLine
6
CONTINUOUS
62
5
10
235.650000
20
145.699999
11
237.650000
21
145.699999
0
ARC
5
3bd
100
AcDbEntity
8
1
100
AcDbCircle
6
CONTINUOUS
62
5
10
233.650000
20
140.891973
40
2.000000
100
AcDbArc
50
-86.820169
51
-0.000000
0
LINE
5
3be
100
AcDbEntity
8
1
100
AcDbLine
6
CONTINUOUS
62
5
10
233.760940
20
138.895052
11
228.150000
21
138.500000
0
ARC
5
3bf
100
AcDbEntity
8
1
100
AcDbCircle
6
CONTINUOUS
62
5
10
234.650000
20
141.039934
40
0.500000
100
AcDbArc
50
0.000000
51
85.236358
0
LINE
5
3c0
100
AcDbEntity
8
1
100
AcDbLine
6
CONTINUOUS
62
5
10
235.150000
20
141.039934
11
235.150000
21
139.960066
0
ARC
5
3c1
100
AcDbEntity
8
1
100
AcDbCircle
6
CONTINUOUS
62
5
10
234.650000
20
139.960066
40
0.500000
100
AcDbArc
50
-85.236358
51
0.000000
0
LINE
5
3c2
100
AcDbEntity
8
1
100
AcDbLine
6
CONTINUOUS
62
5
10
234.691523
20
139.461794
11
228.150000
21
139.000000
0
POLYLINE
5
3c3
100
AcDbEntity
8
1
6
CONTINUOUS
62
5
100
AcDb2dPolyline
66
1
10
0.0
20
0.0
30
0.0
70
0
0
VERTEX
5
3c4
100
AcDbEntity
8
1
100
AcDbVertex
100
AcDb2dVertex
62
5
10
227.650000
20
142.000000
0
VERTEX
5
3c5
100
AcDbEntity
8
1
100
AcDbVertex
100
AcDb2dVertex
62
5
10
228.150000
20
142.000000
0
VERTEX
5
3c6
100
AcDbEntity
8
1
100
AcDbVertex
100
AcDb2dVertex
62
5
10
234.691523
20
141.538206
0
SEQEND
5
3c7
100
AcDbEntity
8
1
0
ARC
5
3c8
100
AcDbEntity
8
1
100
AcDbCircle
6
CONTINUOUS
62
5
10
238.450000
20
157.953283
40
1.500000
100
AcDbArc
50
-88.187446
51
0.003427
0
LINE
5
3c9
100
AcDbEntity
8
1
100
AcDbLine
6
CONTINUOUS
62
5
10
235.650000
20
156.363924
11
238.497445
21
156.454033
0
POLYLINE
5
3ca
100
AcDbEntity
8
1
6
CONTINUOUS
62
5
100
AcDb2dPolyline
66
1
10
0.0
20
0.0
30
0.0
70
0
0
VERTEX
5
3cb
100
AcDbEntity
8
1
100
AcDbVertex
100
AcDb2dVertex
62
5
10
224.150000
20
171.500000
0
VERTEX
5
3cc
100
AcDbEntity
8
1
100
AcDbVertex
100
AcDb2dVertex
62
5
10
225.150000
20
171.500000
0
VERTEX
5
3cd
100
AcDbEntity
8
1
100
AcDbVertex
100
AcDb2dVertex
62
5
10
225.150000
20
156.800000
0
VERTEX
5
3ce
100
AcDbEntity
8
1
100
AcDbVertex
100
AcDb2dVertex
62
5
10
224.150000
20
156.800000
0
SEQEND
5
3cf
100
AcDbEntity
8
1
0
ARC
5
3d0
100
AcDbEntity
8
1
100
AcDbCircle
6
CONTINUOUS
62
5
10
221.650000
20
156.733892
40
0.500000
100
AcDbArc
50
179.999998
51
-89.999999
0
LINE
5
3d1
100
AcDbEntity
8
1
100
AcDbLine
6
CONTINUOUS
62
5
10
221.650000
20
156.233892
11
221.726696
21
156.233892
0
LINE
5
3d2
100
AcDbEntity
8
1
100
AcDbLine
6
CONTINUOUS
62
5
10
221.650000
20
168.000000
11
221.650000
21
168.000000
0
ARC
5
3d3
100
AcDbEntity
8
1
100
AcDbCircle
6
CONTINUOUS
62
5
10
221.650000
20
167.500000
40
0.500000
100
AcDbArc
50
89.999999
51
179.999998
0
LINE
5
3d4
100
AcDbEntity
8
1
100
AcDbLine
6
CONTINUOUS
62
5
10
221.150000
20
167.500000
11
221.150000
21
156.733892
0
ARC
5
3d5
100
AcDbEntity
8
1
100
AcDbCircle
6
CONTINUOUS
62
5
10
222.150000
20
170.200000
40
0.500000
100
AcDbArc
50
89.999999
51
-179.999998
0
LINE
5
3d6
100
AcDbEntity
8
1
100
AcDbLine
6
CONTINUOUS
62
5
10
221.650000
20
170.200000
11
221.650000
21
157.300000
0
ARC
5
3d7
100
AcDbEntity
8
1
100
AcDbCircle
6
CONTINUOUS
62
5
10
222.150000
20
157.300000
40
0.500000
100
AcDbArc
50
179.999998
51
-89.999999
0
LINE
5
3d8
100
AcDbEntity
8
1
100
AcDbLine
6
CONTINUOUS
62
5
10
222.150000
20
156.800000
11
224.150000
21
156.800000
0
LINE
5
3d9
100
AcDbEntity
8
1
100
AcDbLine
6
CONTINUOUS
62
5
10
224.150000
20
170.700000
11
222.150000
21
170.700000
0
ARC
5
3da
100
AcDbEntity
8
1
100
AcDbCircle
6
CONTINUOUS
62
5
10
238.450000
20
158.879008
40
1.500000
100
AcDbArc
50
-88.483888
51
-0.000000
0
LINE
5
3db
100
AcDbEntity
8
1
100
AcDbLine
6
CONTINUOUS
62
5
10
238.489687
20
157.379533
11
225.150000
21
157.026467
0
ARC
5
3dc
100
AcDbEntity
8
1
100
AcDbCircle
6
CONTINUOUS
62
5
10
238.450000
20
157.200000
40
1.500000
100
AcDbArc
50
-89.999999
51
0.000000
0
LINE
5
3dd
100
AcDbEntity
8
1
100
AcDbLine
6
CONTINUOUS
62
5
10
238.450000
20
155.700000
11
235.650000
21
155.700000
0
LINE
5
3de
100
AcDbEntity
8
1
100
AcDbLine
6
CONTINUOUS
62
5
10
239.950000
20
157.953372
11
239.950000
21
157.200000
0
ARC
5
3df
100
AcDbEntity
8
1
100
AcDbCircle
6
CONTINUOUS
62
5
10
222.150000
20
156.500000
40
0.500000
100
AcDbArc
50
179.999998
51
-89.999999
0
LINE
5
3e0
100
AcDbEntity
8
1
100
AcDbLine
6
CONTINUOUS
62
5
10
221.650000
20
156.500000
11
221.650000
21
157.300000
0
LINE
5
3e1
100
AcDbEntity
8
1
100
AcDbLine
6
CONTINUOUS
62
5
10
224.150000
20
156.000000
11
222.150000
21
156.000000
0
ARC
5
3e2
100
AcDbEntity
8
1
100
AcDbCircle
6
CONTINUOUS
62
5
10
238.450000
20
170.800000
40
1.500000
100
AcDbArc
50
-0.000000
51
89.999999
0
LINE
5
3e3
100
AcDbEntity
8
1
100
AcDbLine
6
CONTINUOUS
62
5
10
239.950000
20
170.800000
11
239.950000
21
152.800000
0
ARC
5
3e4
100
AcDbEntity
8
1
100
AcDbCircle
6
CONTINUOUS
62
5
10
238.950000
20
152.800000
40
1.000000
100
AcDbArc
50
-89.999999
51
0.000000
0
LINE
5
3e5
100
AcDbEntity
8
1
100
AcDbLine
6
CONTINUOUS
62
5
10
238.950000
20
151.800000
11
238.650000
21
151.800000
0
LINE
5
3e6
100
AcDbEntity
8
1
100
AcDbLine
6
CONTINUOUS
62
5
10
235.650000
20
172.300000
11
238.450000
21
172.300000
0
ARC
5
3e7
100
AcDbEntity
8
1
100
AcDbCircle
6
CONTINUOUS
62
5
10
229.650000
20
127.260593
40
0.500000
100
AcDbArc
50
0.000000
51
86.478546
0
LINE
5
3e8
100
AcDbEntity
8
1
100
AcDbLine
6
CONTINUOUS
62
5
10
230.150000
20
127.260593
11
230.150000
21
126.711908
0
ARC
5
3e9
100
AcDbEntity
8
1
100
AcDbCircle
6
CONTINUOUS
62
5
10
229.650000
20
126.711908
40
0.500000
100
AcDbArc
50
-68.360441
51
0.000000
0
LINE
5
3ea
100
AcDbEntity
8
1
100
AcDbLine
6
CONTINUOUS
62
5
10
228.150000
20
127.853846
11
229.680711
21
127.759649
0
LINE
5
3eb
100
AcDbEntity
8
1
100
AcDbLine
6
CONTINUOUS
62
5
10
219.150000
20
111.000000
11
220.350000
21
111.000000
0
LINE
5
3ec
100
AcDbEntity
8
1
100
AcDbLine
6
CONTINUOUS
62
5
10
219.150000
20
106.750000
11
220.350000
21
106.750000
0
POLYLINE
5
3ed
100
AcDbEntity
8
1
6
CONTINUOUS
62
5
100
AcDb2dPolyline
66
1
10
0.0
20
0.0
30
0.0
70
0
0
VERTEX
5
3ee
100
AcDbEntity
8
1
100
AcDbVertex
100
AcDb2dVertex
62
5
10
220.350000
20
104.125163
0
VERTEX
5
3ef
100
AcDbEntity
8
1
100
AcDbVertex
100
AcDb2dVertex
62
5
10
220.450000
20
104.136541
0
VERTEX
5
3f0
100
AcDbEntity
8
1
100
AcDbVertex
100
AcDb2dVertex
62
5
10
220.350000
20
105.000000
0
SEQEND
5
3f1
100
AcDbEntity
8
1
0
POLYLINE
5
3f2
100
AcDbEntity
8
1
6
CONTINUOUS
62
5
100
AcDb2dPolyline
66
1
10
0.0
20
0.0
30
0.0
70
0
0
VERTEX
5
3f3
100
AcDbEntity
8
1
100
AcDbVertex
100
AcDb2dVertex
62
5
10
219.150000
20
110.949390
0
VERTEX
5
3f4
100
AcDbEntity
8
1
100
AcDbVertex
100
AcDb2dVertex
62
5
10
218.650000
20
110.949390
0
VERTEX
5
3f5
100
AcDbEntity
8
1
100
AcDbVertex
100
AcDb2dVertex
62
5
10
218.650000
20
117.500000
0
SEQEND
5
3f6
100
AcDbEntity
8
1
0
ARC
5
3f7
100
AcDbEntity
8
1
100
AcDbCircle
6
CONTINUOUS
62
5
10
218.350000
20
112.250000
40
0.500000
100
AcDbArc
50
89.999999
51
179.999998
0
LINE
5
3f8
100
AcDbEntity
8
1
100
AcDbLine
6
CONTINUOUS
62
5
10
218.350000
20
112.750000
11
218.650000
21
112.750000
0
LINE
5
3f9
100
AcDbEntity
8
1
100
AcDbLine
6
CONTINUOUS
62
5
10
219.150000
20
106.250000
11
218.350000
21
106.250000
0
ARC
5
3fa
100
AcDbEntity
8
1
100
AcDbCircle
6
CONTINUOUS
62
5
10
218.350000
20
106.750000
40
0.500000
100
AcDbArc
50
179.999998
51
-89.999999
0
LINE
5
3fb
100
AcDbEntity
8
1
100
AcDbLine
6
CONTINUOUS
62
5
10
217.850000
20
106.750000
11
217.850000
21
112.250000
0
POLYLINE
5
3fc
100
AcDbEntity
8
1
6
CONTINUOUS
62
5
100
AcDb2dPolyline
66
1
10
0.0
20
0.0
30
0.0
70
0
0
VERTEX
5
3fd
100
AcDbEntity
8
1
100
AcDbVertex
100
AcDb2dVertex
62
5
10
219.150000
20
117.500000
0
VERTEX
5
3fe
100
AcDbEntity
8
1
100
AcDbVertex
100
AcDb2dVertex
62
5
10
219.150000
20
104.000000
0
VERTEX
5
3ff
100
AcDbEntity
8
1
100
AcDbVertex
100
AcDb2dVertex
62
5
10
220.350000
20
104.000000
0
VERTEX
5
400
100
AcDbEntity
8
1
100
AcDbVertex
100
AcDb2dVertex
62
5
10
220.350000
20
117.500000
0
SEQEND
5
401
100
AcDbEntity
8
1
0
ARC
5
402
100
AcDbEntity
8
1
100
AcDbCircle
6
CONTINUOUS
62
5
10
226.848134
20
135.600000
40
0.500000
100
AcDbArc
50
-52.862337
51
-27.758540
0
POLYLINE
5
403
100
AcDbEntity
8
1
6
CONTINUOUS
62
5
100
AcDb2dPolyline
66
1
10
0.0
20
0.0
30
0.0
70
0
0
VERTEX
5
404
100
AcDbEntity
8
1
100
AcDbVertex
100
AcDb2dVertex
62
5
10
227.290593
20
135.367127
0
VERTEX
5
405
100
AcDbEntity
8
1
100
AcDbVertex
100
AcDb2dVertex
62
5
10
228.150000
20
137.000000
0
VERTEX
5
406
100
AcDbEntity
8
1
100
AcDbVertex
100
AcDb2dVertex
62
5
10
228.150000
20
141.500000
0
SEQEND
5
407
100
AcDbEntity
8
1
0
ARC
5
408
100
AcDbEntity
8
1
100
AcDbCircle
6
CONTINUOUS
62
5
10
227.650000
20
141.500000
40
0.500000
100
AcDbArc
50
-0.000000
51
89.999999
0
LINE
5
409
100
AcDbEntity
8
1
100
AcDbLine
6
CONTINUOUS
62
5
10
227.650000
20
142.000000
11
226.150000
21
142.000000
0
ARC
5
40a
100
AcDbEntity
8
1
100
AcDbCircle
6
CONTINUOUS
62
5
10
227.058454
20
135.632658
40
0.800000
100
AcDbArc
50
-79.933652
51
37.950678
0
LINE
5
40b
100
AcDbEntity
8
1
100
AcDbLine
6
CONTINUOUS
62
5
10
227.150000
20
134.836402
11
227.198285
21
134.844973
0
ARC
5
40c
100
AcDbEntity
8
1
100
AcDbCircle
6
CONTINUOUS
62
5
10
229.782486
20
134.494512
40
1.600000
100
AcDbArc
50
-83.565383
51
-64.499999
0
LINE
5
40d
100
AcDbEntity
8
1
100
AcDbLine
6
CONTINUOUS
62
5
10
230.471304
20
133.050376
11
231.131377
21
133.365214
0
ARC
5
40e
100
AcDbEntity
8
1
100
AcDbCircle
6
CONTINUOUS
62
5
10
230.916121
20
133.816507
40
0.500000
100
AcDbArc
50
-64.499999
51
25.500000
0
LINE
5
40f
100
AcDbEntity
8
1
100
AcDbLine
6
CONTINUOUS
62
5
10
231.367414
20
134.031762
11
230.202761
21
136.473508
0
ARC
5
410
100
AcDbEntity
8
1
100
AcDbCircle
6
CONTINUOUS
62
5
10
229.119658
20
135.956895
40
1.200000
100
AcDbArc
50
25.500000
51
92.530341
0
LINE
5
411
100
AcDbEntity
8
1
100
AcDbLine
6
CONTINUOUS
62
5
10
229.066680
20
137.155725
11
228.150000
21
137.115216
0
LINE
5
412
100
AcDbEntity
8
1
100
AcDbLine
6
CONTINUOUS
62
5
10
227.150000
20
132.587477
11
229.961797
21
132.904591
0
ARC
5
413
100
AcDbEntity
8
1
100
AcDbCircle
6
CONTINUOUS
62
5
10
222.150000
20
141.000000
40
1.000000
100
AcDbArc
50
89.999999
51
179.999998
0
LINE
5
414
100
AcDbEntity
8
1
100
AcDbLine
6
CONTINUOUS
62
5
10
222.150000
20
142.000000
11
224.150000
21
142.000000
0
LINE
5
415
100
AcDbEntity
8
1
100
AcDbLine
6
CONTINUOUS
62
5
10
224.150000
20
126.000000
11
222.150000
21
126.000000
0
ARC
5
416
100
AcDbEntity
8
1
100
AcDbCircle
6
CONTINUOUS
62
5
10
222.150000
20
127.000000
40
1.000000
100
AcDbArc
50
179.999998
51
-89.999999
0
LINE
5
417
100
AcDbEntity
8
1
100
AcDbLine
6
CONTINUOUS
62
5
10
221.150000
20
127.000000
11
221.150000
21
141.000000
0
ARC
5
418
100
AcDbEntity
8
1
100
AcDbCircle
6
CONTINUOUS
62
5
10
227.650000
20
126.634985
40
0.500000
100
AcDbArc
50
-72.243812
51
0.000000
0
POLYLINE
5
419
100
AcDbEntity
8
1
6
CONTINUOUS
62
5
100
AcDb2dPolyline
66
1
10
0.0
20
0.0
30
0.0
70
0
0
VERTEX
5
41a
100
AcDbEntity
8
1
100
AcDbVertex
100
AcDb2dVertex
62
5
10
228.150000
20
126.634985
0
VERTEX
5
41b
100
AcDbEntity
8
1
100
AcDbVertex
100
AcDb2dVertex
62
5
10
228.150000
20
127.853846
0
VERTEX
5
41c
100
AcDbEntity
8
1
100
AcDbVertex
100
AcDb2dVertex
62
5
10
227.287065
20
129.619544
0
SEQEND
5
41d
100
AcDbEntity
8
1
0
ARC
5
41e
100
AcDbEntity
8
1
100
AcDbCircle
6
CONTINUOUS
62
5
10
226.837843
20
129.400000
40
0.500000
100
AcDbArc
50
26.045768
51
51.368135
0
LINE
5
41f
100
AcDbEntity
8
1
100
AcDbLine
6
CONTINUOUS
62
5
10
227.150000
20
129.790587
11
227.150000
21
141.000000
0
ARC
5
420
100
AcDbEntity
8
1
100
AcDbCircle
6
CONTINUOUS
62
5
10
226.150000
20
141.000000
40
1.000000
100
AcDbArc
50
-0.000000
51
89.999999
0
LINE
5
421
100
AcDbEntity
8
1
100
AcDbLine
6
CONTINUOUS
62
5
10
226.150000
20
142.000000
11
224.150000
21
142.000000
0
ARC
5
422
100
AcDbEntity
8
1
100
AcDbCircle
6
CONTINUOUS
62
5
10
233.645371
20
128.414687
40
2.000000
100
AcDbArc
50
-87.129631
51
-0.019724
0
LINE
5
423
100
AcDbEntity
8
1
100
AcDbLine
6
CONTINUOUS
62
5
10
235.645371
20
128.413999
11
235.650000
21
157.304374
0
LINE
5
424
100
AcDbEntity
8
1
100
AcDbLine
6
CONTINUOUS
62
5
10
224.150000
20
126.000000
11
233.745523
21
126.417197
0
LINE
5
425
100
AcDbEntity
8
1
100
AcDbLine
6
CONTINUOUS
62
5
10
141.049910
20
169.350567
11
141.050000
21
169.350567
0
ARC
5
426
100
AcDbEntity
8
1
100
AcDbCircle
6
CONTINUOUS
62
5
10
135.350000
20
177.200000
40
0.700000
100
AcDbArc
50
-89.999999
51
0.000000
0
LINE
5
427
100
AcDbEntity
8
1
100
AcDbLine
6
CONTINUOUS
62
5
10
135.350000
20
176.500000
11
135.050000
21
176.500000
0
LINE
5
428
100
AcDbEntity
8
1
100
AcDbLine
6
CONTINUOUS
62
5
10
135.050000
20
179.500000
11
135.350000
21
179.500000
0
ARC
5
429
100
AcDbEntity
8
1
100
AcDbCircle
6
CONTINUOUS
62
5
10
135.350000
20
178.800000
40
0.700000
100
AcDbArc
50
0.000000
51
89.999999
0
LINE
5
42a
100
AcDbEntity
8
1
100
AcDbLine
6
CONTINUOUS
62
5
10
136.050000
20
178.800000
11
136.050000
21
177.200000
0
ARC
5
42b
100
AcDbEntity
8
1
100
AcDbCircle
6
CONTINUOUS
62
5
10
135.350000
20
141.200000
40
0.700000
100
AcDbArc
50
-89.999999
51
0.000000
0
LINE
5
42c
100
AcDbEntity
8
1
100
AcDbLine
6
CONTINUOUS
62
5
10
135.350000
20
140.500000
11
135.050000
21
140.500000
0
LINE
5
42d
100
AcDbEntity
8
1
100
AcDbLine
6
CONTINUOUS
62
5
10
135.050000
20
143.500000
11
135.350000
21
143.500000
0
ARC
5
42e
100
AcDbEntity
8
1
100
AcDbCircle
6
CONTINUOUS
62
5
10
135.350000
20
142.800000
40
0.700000
100
AcDbArc
50
0.000000
51
89.999999
0
LINE
5
42f
100
AcDbEntity
8
1
100
AcDbLine
6
CONTINUOUS
62
5
10
136.050000
20
142.800000
11
136.050000
21
141.200000
0
LINE
5
430
100
AcDbEntity
8
1
100
AcDbLine
6
CONTINUOUS
62
5
10
127.818322
20
139.780391
11
127.805179
21
139.500000
0
ARC
5
431
100
AcDbEntity
8
1
100
AcDbCircle
6
CONTINUOUS
62
5
10
135.350000
20
148.200000
40
0.700000
100
AcDbArc
50
-89.999999
51
0.000000
0
LINE
5
432
100
AcDbEntity
8
1
100
AcDbLine
6
CONTINUOUS
62
5
10
135.350000
20
147.500000
11
135.050000
21
147.500000
0
LINE
5
433
100
AcDbEntity
8
1
100
AcDbLine
6
CONTINUOUS
62
5
10
135.050000
20
150.500000
11
135.350000
21
150.500000
0
ARC
5
434
100
AcDbEntity
8
1
100
AcDbCircle
6
CONTINUOUS
62
5
10
135.350000
20
149.800000
40
0.700000
100
AcDbArc
50
0.000000
51
89.999999
0
LINE
5
435
100
AcDbEntity
8
1
100
AcDbLine
6
CONTINUOUS
62
5
10
136.050000
20
149.800000
11
136.050000
21
148.200000
0
ARC
5
436
100
AcDbEntity
8
1
100
AcDbCircle
6
CONTINUOUS
62
5
10
139.550000
20
159.049510
40
2.500000
100
AcDbArc
50
-40.535802
51
0.000000
0
ARC
5
437
100
AcDbEntity
8
1
100
AcDbCircle
6
CONTINUOUS
62
5
10
139.550000
20
168.950490
40
2.500000
100
AcDbArc
50
0.000000
51
40.535802
0
LINE
5
438
100
AcDbEntity
8
1
100
AcDbLine
6
CONTINUOUS
62
5
10
142.050000
20
168.950490
11
142.050000
21
159.049510
0
ARC
5
439
100
AcDbEntity
8
1
100
AcDbCircle
6
CONTINUOUS
62
5
10
121.050000
20
173.100000
40
2.700000
100
AcDbArc
50
0.000000
51
179.999998
0
POLYLINE
5
43a
100
AcDbEntity
8
1
6
CONTINUOUS
62
5
100
AcDb2dPolyline
66
1
10
0.0
20
0.0
30
0.0
70
0
0
VERTEX
5
43b
100
AcDbEntity
8
1
100
AcDbVertex
100
AcDb2dVertex
62
5
10
118.350000
20
173.100000
0
VERTEX
5
43c
100
AcDbEntity
8
1
100
AcDbVertex
100
AcDb2dVertex
62
5
10
118.350000
20
170.400000
0
VERTEX
5
43d
100
AcDbEntity
8
1
100
AcDbVertex
100
AcDb2dVertex
62
5
10
123.750000
20
170.400000
0
VERTEX
5
43e
100
AcDbEntity
8
1
100
AcDbVertex
100
AcDb2dVertex
62
5
10
123.750000
20
173.100000
0
SEQEND
5
43f
100
AcDbEntity
8
1
0
POLYLINE
5
440
100
AcDbEntity
8
1
6
CONTINUOUS
62
5
100
AcDb2dPolyline
66
1
10
0.0
20
0.0
30
0.0
70
0
0
VERTEX
5
441
100
AcDbEntity
8
1
100
AcDbVertex
100
AcDb2dVertex
62
5
10
122.850000
20
175.112461
0
VERTEX
5
442
100
AcDbEntity
8
1
100
AcDbVertex
100
AcDb2dVertex
62
5
10
122.850000
20
171.200000
0
VERTEX
5
443
100
AcDbEntity
8
1
100
AcDbVertex
100
AcDb2dVertex
62
5
10
123.750000
20
171.200000
0
SEQEND
5
444
100
AcDbEntity
8
1
0
POLYLINE
5
445
100
AcDbEntity
8
1
6
CONTINUOUS
62
5
100
AcDb2dPolyline
66
1
10
0.0
20
0.0
30
0.0
70
0
0
VERTEX
5
446
100
AcDbEntity
8
1
100
AcDbVertex
100
AcDb2dVertex
62
5
10
118.350000
20
171.200000
0
VERTEX
5
447
100
AcDbEntity
8
1
100
AcDbVertex
100
AcDb2dVertex
62
5
10
119.250000
20
171.200000
0
VERTEX
5
448
100
AcDbEntity
8
1
100
AcDbVertex
100
AcDb2dVertex
62
5
10
119.250000
20
175.112461
0
SEQEND
5
449
100
AcDbEntity
8
1
0
ARC
5
44a
100
AcDbEntity
8
1
100
AcDbCircle
6
CONTINUOUS
62
5
10
106.750000
20
177.200000
40
0.700000
100
AcDbArc
50
179.999998
51
-89.999999
0
LINE
5
44b
100
AcDbEntity
8
1
100
AcDbLine
6
CONTINUOUS
62
5
10
106.750000
20
176.500000
11
107.050000
21
176.500000
0
LINE
5
44c
100
AcDbEntity
8
1
100
AcDbLine
6
CONTINUOUS
62
5
10
107.050000
20
179.500000
11
106.750000
21
179.500000
0
ARC
5
44d
100
AcDbEntity
8
1
100
AcDbCircle
6
CONTINUOUS
62
5
10
106.750000
20
178.800000
40
0.700000
100
AcDbArc
50
89.999999
51
179.999998
0
LINE
5
44e
100
AcDbEntity
8
1
100
AcDbLine
6
CONTINUOUS
62
5
10
106.050000
20
178.800000
11
106.050000
21
177.200000
0
LINE
5
44f
100
AcDbEntity
8
1
100
AcDbLine
6
CONTINUOUS
62
5
10
126.776529
20
139.779056
11
126.790330
21
139.500000
0
LINE
5
450
100
AcDbEntity
8
1
100
AcDbLine
6
CONTINUOUS
62
5
10
114.700000
20
139.800000
11
114.400000
21
146.200000
0
LINE
5
451
100
AcDbEntity
8
1
100
AcDbLine
6
CONTINUOUS
62
5
10
114.700000
20
139.800000
11
114.281678
21
139.780391
0
LINE
5
452
100
AcDbEntity
8
1
100
AcDbLine
6
CONTINUOUS
62
5
10
114.281678
20
139.780391
11
114.329977
21
138.750000
0
LINE
5
453
100
AcDbEntity
8
1
100
AcDbLine
6
CONTINUOUS
62
5
10
113.700000
20
146.200000
11
114.400000
21
146.200000
0
LINE
5
454
100
AcDbEntity
8
1
100
AcDbLine
6
CONTINUOUS
62
5
10
113.700000
20
146.167188
11
114.400000
21
146.200000
0
LINE
5
455
100
AcDbEntity
8
1
100
AcDbLine
6
CONTINUOUS
62
5
10
115.323471
20
139.779056
11
115.272576
21
138.750000
0
POLYLINE
5
456
100
AcDbEntity
8
1
6
CONTINUOUS
62
5
100
AcDb2dPolyline
66
1
10
0.0
20
0.0
30
0.0
70
0
0
VERTEX
5
457
100
AcDbEntity
8
1
100
AcDbVertex
100
AcDb2dVertex
62
5
10
115.700000
20
146.176562
0
VERTEX
5
458
100
AcDbEntity
8
1
100
AcDbVertex
100
AcDb2dVertex
62
5
10
115.200000
20
146.200000
0
VERTEX
5
459
100
AcDbEntity
8
1
100
AcDbVertex
100
AcDb2dVertex
62
5
10
114.900000
20
139.800000
0
VERTEX
5
45a
100
AcDbEntity
8
1
100
AcDbVertex
100
AcDb2dVertex
62
5
10
115.323471
20
139.779056
0
SEQEND
5
45b
100
AcDbEntity
8
1
0
LINE
5
45c
100
AcDbEntity
8
1
100
AcDbLine
6
CONTINUOUS
62
5
10
114.700000
20
147.250000
11
114.700000
21
138.750000
0
POLYLINE
5
45d
100
AcDbEntity
8
1
6
CONTINUOUS
62
5
100
AcDb2dPolyline
66
1
10
0.0
20
0.0
30
0.0
70
1
0
VERTEX
5
45e
100
AcDbEntity
8
1
100
AcDbVertex
100
AcDb2dVertex
62
5
10
115.700000
20
147.250000
0
VERTEX
5
45f
100
AcDbEntity
8
1
100
AcDbVertex
100
AcDb2dVertex
62
5
10
113.700000
20
147.250000
0
VERTEX
5
460
100
AcDbEntity
8
1
100
AcDbVertex
100
AcDb2dVertex
62
5
10
113.700000
20
138.750000
0
VERTEX
5
461
100
AcDbEntity
8
1
100
AcDbVertex
100
AcDb2dVertex
62
5
10
115.700000
20
138.750000
0
VERTEX
5
462
100
AcDbEntity
8
1
100
AcDbVertex
100
AcDb2dVertex
62
5
10
115.700000
20
147.250000
0
SEQEND
5
463
100
AcDbEntity
8
1
0
ARC
5
464
100
AcDbEntity
8
1
100
AcDbCircle
6
CONTINUOUS
62
5
10
118.633831
20
138.104635
40
1.000000
100
AcDbArc
50
-86.952726
51
-9.718387
0
ARC
5
465
100
AcDbEntity
8
1
100
AcDbCircle
6
CONTINUOUS
62
5
10
114.700000
20
212.000000
40
75.000000
100
AcDbArc
50
-92.827222
51
-86.952726
0
ARC
5
466
100
AcDbEntity
8
1
100
AcDbCircle
6
CONTINUOUS
62
5
10
111.050000
20
138.090072
40
1.000000
100
AcDbArc
50
179.999998
51
-92.827222
0
LINE
5
467
100
AcDbEntity
8
1
100
AcDbLine
6
CONTINUOUS
62
5
10
110.050000
20
138.090072
11
110.050000
21
149.000000
0
ARC
5
468
100
AcDbEntity
8
1
100
AcDbCircle
6
CONTINUOUS
62
5
10
111.050000
20
149.000000
40
1.000000
100
AcDbArc
50
89.999999
51
179.999998
0
LINE
5
469
100
AcDbEntity
8
1
100
AcDbLine
6
CONTINUOUS
62
5
10
111.050000
20
150.000000
11
118.422522
21
150.000000
0
ARC
5
46a
100
AcDbEntity
8
1
100
AcDbCircle
6
CONTINUOUS
62
5
10
118.422522
20
149.000000
40
1.000000
100
AcDbArc
50
11.940544
51
89.999999
0
ARC
5
46b
100
AcDbEntity
8
1
100
AcDbCircle
6
CONTINUOUS
62
5
10
90.050000
20
143.000000
40
30.000000
100
AcDbArc
50
-9.718387
51
11.940544
0
ARC
5
46c
100
AcDbEntity
8
1
100
AcDbCircle
6
CONTINUOUS
62
5
10
106.750000
20
141.200000
40
0.700000
100
AcDbArc
50
179.999998
51
-89.999999
0
LINE
5
46d
100
AcDbEntity
8
1
100
AcDbLine
6
CONTINUOUS
62
5
10
106.750000
20
140.500000
11
107.050000
21
140.500000
0
LINE
5
46e
100
AcDbEntity
8
1
100
AcDbLine
6
CONTINUOUS
62
5
10
107.050000
20
143.500000
11
106.750000
21
143.500000
0
ARC
5
46f
100
AcDbEntity
8
1
100
AcDbCircle
6
CONTINUOUS
62
5
10
106.750000
20
142.800000
40
0.700000
100
AcDbArc
50
89.999999
51
179.999998
0
LINE
5
470
100
AcDbEntity
8
1
100
AcDbLine
6
CONTINUOUS
62
5
10
106.050000
20
142.800000
11
106.050000
21
141.200000
0
ARC
5
471
100
AcDbEntity
8
1
100
AcDbCircle
6
CONTINUOUS
62
5
10
102.550000
20
159.049510
40
2.500000
100
AcDbArc
50
-179.999998
51
-139.464197
0
ARC
5
472
100
AcDbEntity
8
1
100
AcDbCircle
6
CONTINUOUS
62
5
10
102.550000
20
168.950490
40
2.500000
100
AcDbArc
50
139.464197
51
179.999998
0
LINE
5
473
100
AcDbEntity
8
1
100
AcDbLine
6
CONTINUOUS
62
5
10
100.050000
20
168.950490
11
100.050000
21
159.049510
0
ARC
5
474
100
AcDbEntity
8
1
100
AcDbCircle
6
CONTINUOUS
62
5
10
131.050000
20
175.821211
40
1.000000
100
AcDbArc
50
0.000000
51
82.233565
0
ARC
5
475
100
AcDbEntity
8
1
100
AcDbCircle
6
CONTINUOUS
62
5
10
121.050000
20
102.500000
40
75.000000
100
AcDbArc
50
82.233565
51
97.766433
0
ARC
5
476
100
AcDbEntity
8
1
100
AcDbCircle
6
CONTINUOUS
62
5
10
111.050000
20
175.821211
40
1.000000
100
AcDbArc
50
97.766433
51
179.999998
0
LINE
5
477
100
AcDbEntity
8
1
100
AcDbLine
6
CONTINUOUS
62
5
10
110.050000
20
175.821211
11
110.050000
21
170.500000
0
ARC
5
478
100
AcDbEntity
8
1
100
AcDbCircle
6
CONTINUOUS
62
5
10
111.050000
20
170.500000
40
1.000000
100
AcDbArc
50
179.999998
51
-89.999999
0
LINE
5
479
100
AcDbEntity
8
1
100
AcDbLine
6
CONTINUOUS
62
5
10
111.050000
20
169.500000
11
131.050000
21
169.500000
0
ARC
5
47a
100
AcDbEntity
8
1
100
AcDbCircle
6
CONTINUOUS
62
5
10
131.050000
20
170.500000
40
1.000000
100
AcDbArc
50
-89.999999
51
0.000000
0
LINE
5
47b
100
AcDbEntity
8
1
100
AcDbLine
6
CONTINUOUS
62
5
10
132.050000
20
170.500000
11
132.050000
21
175.821211
0
POLYLINE
5
47c
100
AcDbEntity
8
1
6
CONTINUOUS
62
5
100
AcDb2dPolyline
66
1
10
0.0
20
0.0
30
0.0
70
0
0
VERTEX
5
47d
100
AcDbEntity
8
1
100
AcDbVertex
100
AcDb2dVertex
62
5
10
126.400000
20
146.176562
0
VERTEX
5
47e
100
AcDbEntity
8
1
100
AcDbVertex
100
AcDb2dVertex
62
5
10
126.900000
20
146.200000
0
VERTEX
5
47f
100
AcDbEntity
8
1
100
AcDbVertex
100
AcDb2dVertex
62
5
10
127.200000
20
139.800000
0
VERTEX
5
480
100
AcDbEntity
8
1
100
AcDbVertex
100
AcDb2dVertex
62
5
10
126.776529
20
139.779056
0
SEQEND
5
481
100
AcDbEntity
8
1
0
LINE
5
482
100
AcDbEntity
8
1
100
AcDbLine
6
CONTINUOUS
62
5
10
127.400000
20
139.800000
11
127.700000
21
146.200000
0
LINE
5
483
100
AcDbEntity
8
1
100
AcDbLine
6
CONTINUOUS
62
5
10
127.400000
20
146.500000
11
127.400000
21
139.500000
0
LINE
5
484
100
AcDbEntity
8
1
100
AcDbLine
6
CONTINUOUS
62
5
10
127.400000
20
139.800000
11
127.818322
21
139.780391
0
LINE
5
485
100
AcDbEntity
8
1
100
AcDbLine
6
CONTINUOUS
62
5
10
128.400000
20
146.200000
11
127.700000
21
146.200000
0
LINE
5
486
100
AcDbEntity
8
1
100
AcDbLine
6
CONTINUOUS
62
5
10
128.400000
20
146.167188
11
127.700000
21
146.200000
0
POLYLINE
5
487
100
AcDbEntity
8
1
6
CONTINUOUS
62
5
100
AcDb2dPolyline
66
1
10
0.0
20
0.0
30
0.0
70
1
0
VERTEX
5
488
100
AcDbEntity
8
1
100
AcDbVertex
100
AcDb2dVertex
62
5
10
128.400000
20
146.500000
0
VERTEX
5
489
100
AcDbEntity
8
1
100
AcDbVertex
100
AcDb2dVertex
62
5
10
126.400000
20
146.500000
0
VERTEX
5
48a
100
AcDbEntity
8
1
100
AcDbVertex
100
AcDb2dVertex
62
5
10
126.400000
20
139.500000
0
VERTEX
5
48b
100
AcDbEntity
8
1
100
AcDbVertex
100
AcDb2dVertex
62
5
10
128.400000
20
139.500000
0
VERTEX
5
48c
100
AcDbEntity
8
1
100
AcDbVertex
100
AcDb2dVertex
62
5
10
128.400000
20
146.500000
0
SEQEND
5
48d
100
AcDbEntity
8
1
0
ARC
5
48e
100
AcDbEntity
8
1
100
AcDbCircle
6
CONTINUOUS
62
5
10
123.677478
20
149.000000
40
1.000000
100
AcDbArc
50
89.999999
51
168.059455
0
ARC
5
48f
100
AcDbEntity
8
1
100
AcDbCircle
6
CONTINUOUS
62
5
10
152.050000
20
143.000000
40
30.000000
100
AcDbArc
50
168.059455
51
-170.071807
0
ARC
5
490
100
AcDbEntity
8
1
100
AcDbCircle
6
CONTINUOUS
62
5
10
123.484286
20
138.000000
40
1.000000
100
AcDbArc
50
-170.071807
51
-89.999999
0
LINE
5
491
100
AcDbEntity
8
1
100
AcDbLine
6
CONTINUOUS
62
5
10
123.484286
20
137.000000
11
131.050000
21
137.000000
0
ARC
5
492
100
AcDbEntity
8
1
100
AcDbCircle
6
CONTINUOUS
62
5
10
131.050000
20
138.000000
40
1.000000
100
AcDbArc
50
-89.999999
51
0.000000
0
LINE
5
493
100
AcDbEntity
8
1
100
AcDbLine
6
CONTINUOUS
62
5
10
132.050000
20
138.000000
11
132.050000
21
149.000000
0
ARC
5
494
100
AcDbEntity
8
1
100
AcDbCircle
6
CONTINUOUS
62
5
10
131.050000
20
149.000000
40
1.000000
100
AcDbArc
50
0.000000
51
89.999999
0
LINE
5
495
100
AcDbEntity
8
1
100
AcDbLine
6
CONTINUOUS
62
5
10
131.050000
20
150.000000
11
123.677478
21
150.000000
0
LINE
5
496
100
AcDbEntity
8
1
100
AcDbLine
6
CONTINUOUS
62
5
10
136.550000
20
129.900000
11
136.050000
21
129.400000
0
ARC
5
497
100
AcDbEntity
8
1
100
AcDbCircle
6
CONTINUOUS
62
5
10
132.050000
20
122.750000
40
0.500000
100
AcDbArc
50
89.999999
51
179.999998
0
POLYLINE
5
498
100
AcDbEntity
8
1
6
CONTINUOUS
62
5
100
AcDb2dPolyline
66
1
10
0.0
20
0.0
30
0.0
70
0
0
VERTEX
5
499
100
AcDbEntity
8
1
100
AcDbVertex
100
AcDb2dVertex
62
5
10
131.550000
20
122.750000
0
VERTEX
5
49a
100
AcDbEntity
8
1
100
AcDbVertex
100
AcDb2dVertex
62
5
10
131.550000
20
121.250000
0
VERTEX
5
49b
100
AcDbEntity
8
1
100
AcDbVertex
100
AcDb2dVertex
62
5
10
133.050000
20
120.250000
0
VERTEX
5
49c
100
AcDbEntity
8
1
100
AcDbVertex
100
AcDb2dVertex
62
5
10
135.550000
20
120.250000
0
VERTEX
5
49d
100
AcDbEntity
8
1
100
AcDbVertex
100
AcDb2dVertex
62
5
10
135.550000
20
123.250000
0
VERTEX
5
49e
100
AcDbEntity
8
1
100
AcDbVertex
100
AcDb2dVertex
62
5
10
132.050000
20
123.250000
0
SEQEND
5
49f
100
AcDbEntity
8
1
0
POLYLINE
5
4a0
100
AcDbEntity
8
1
6
CONTINUOUS
62
5
100
AcDb2dPolyline
66
1
10
0.0
20
0.0
30
0.0
70
0
0
VERTEX
5
4a1
100
AcDbEntity
8
1
100
AcDbVertex
100
AcDb2dVertex
62
5
10
137.900000
20
129.400000
0
VERTEX
5
4a2
100
AcDbEntity
8
1
100
AcDbVertex
100
AcDb2dVertex
62
5
10
136.050000
20
129.400000
0
VERTEX
5
4a3
100
AcDbEntity
8
1
100
AcDbVertex
100
AcDb2dVertex
62
5
10
136.050000
20
129.900000
0
SEQEND
5
4a4
100
AcDbEntity
8
1
0
LINE
5
4a5
100
AcDbEntity
8
1
100
AcDbLine
6
CONTINUOUS
62
5
10
137.900000
20
129.000000
11
140.250000
21
129.000000
0
LINE
5
4a6
100
AcDbEntity
8
1
100
AcDbLine
6
CONTINUOUS
62
5
10
142.450000
20
106.750000
11
142.450000
21
104.000000
0
LINE
5
4a7
100
AcDbEntity
8
1
100
AcDbLine
6
CONTINUOUS
62
5
10
142.150000
20
106.750000
11
142.150000
21
104.000000
0
LINE
5
4a8
100
AcDbEntity
8
1
100
AcDbLine
6
CONTINUOUS
62
5
10
141.850000
20
106.791742
11
141.850000
21
104.000000
0
ARC
5
4a9
100
AcDbEntity
8
1
100
AcDbCircle
6
CONTINUOUS
62
5
10
132.050000
20
110.500000
40
1.000000
100
AcDbArc
50
144.462321
51
-35.537677
0
LINE
5
4aa
100
AcDbEntity
8
1
100
AcDbLine
6
CONTINUOUS
62
5
10
131.236267
20
111.081238
11
136.236267
21
118.081238
0
ARC
5
4ab
100
AcDbEntity
8
1
100
AcDbCircle
6
CONTINUOUS
62
5
10
137.050000
20
117.500000
40
1.000000
100
AcDbArc
50
-35.537677
51
144.462321
0
LINE
5
4ac
100
AcDbEntity
8
1
100
AcDbLine
6
CONTINUOUS
62
5
10
137.863733
20
116.918762
11
132.863733
21
109.918762
0
ARC
5
4ad
100
AcDbEntity
8
1
100
AcDbCircle
6
CONTINUOUS
62
5
10
121.050000
20
131.100000
40
2.700000
100
AcDbArc
50
0.000000
51
179.999998
0
POLYLINE
5
4ae
100
AcDbEntity
8
1
6
CONTINUOUS
62
5
100
AcDb2dPolyline
66
1
10
0.0
20
0.0
30
0.0
70
0
0
VERTEX
5
4af
100
AcDbEntity
8
1
100
AcDbVertex
100
AcDb2dVertex
62
5
10
118.350000
20
131.100000
0
VERTEX
5
4b0
100
AcDbEntity
8
1
100
AcDbVertex
100
AcDb2dVertex
62
5
10
118.350000
20
128.400000
0
VERTEX
5
4b1
100
AcDbEntity
8
1
100
AcDbVertex
100
AcDb2dVertex
62
5
10
123.750000
20
128.400000
0
VERTEX
5
4b2
100
AcDbEntity
8
1
100
AcDbVertex
100
AcDb2dVertex
62
5
10
123.750000
20
131.100000
0
SEQEND
5
4b3
100
AcDbEntity
8
1
0
POLYLINE
5
4b4
100
AcDbEntity
8
1
6
CONTINUOUS
62
5
100
AcDb2dPolyline
66
1
10
0.0
20
0.0
30
0.0
70
0
0
VERTEX
5
4b5
100
AcDbEntity
8
1
100
AcDbVertex
100
AcDb2dVertex
62
5
10
122.850000
20
133.112461
0
VERTEX
5
4b6
100
AcDbEntity
8
1
100
AcDbVertex
100
AcDb2dVertex
62
5
10
122.850000
20
128.800000
0
VERTEX
5
4b7
100
AcDbEntity
8
1
100
AcDbVertex
100
AcDb2dVertex
62
5
10
123.750000
20
128.800000
0
SEQEND
5
4b8
100
AcDbEntity
8
1
0
POLYLINE
5
4b9
100
AcDbEntity
8
1
6
CONTINUOUS
62
5
100
AcDb2dPolyline
66
1
10
0.0
20
0.0
30
0.0
70
0
0
VERTEX
5
4ba
100
AcDbEntity
8
1
100
AcDbVertex
100
AcDb2dVertex
62
5
10
118.350000
20
128.800000
0
VERTEX
5
4bb
100
AcDbEntity
8
1
100
AcDbVertex
100
AcDb2dVertex
62
5
10
119.250000
20
128.800000
0
VERTEX
5
4bc
100
AcDbEntity
8
1
100
AcDbVertex
100
AcDb2dVertex
62
5
10
119.250000
20
133.112461
0
SEQEND
5
4bd
100
AcDbEntity
8
1
0
LINE
5
4be
100
AcDbEntity
8
1
100
AcDbLine
6
CONTINUOUS
62
5
10
104.200000
20
129.000000
11
101.850000
21
129.000000
0
POLYLINE
5
4bf
100
AcDbEntity
8
1
6
CONTINUOUS
62
5
100
AcDb2dPolyline
66
1
10
0.0
20
0.0
30
0.0
70
0
0
VERTEX
5
4c0
100
AcDbEntity
8
1
100
AcDbVertex
100
AcDb2dVertex
62
5
10
106.050000
20
129.900000
0
VERTEX
5
4c1
100
AcDbEntity
8
1
100
AcDbVertex
100
AcDb2dVertex
62
5
10
106.050000
20
129.400000
0
VERTEX
5
4c2
100
AcDbEntity
8
1
100
AcDbVertex
100
AcDb2dVertex
62
5
10
104.200000
20
129.400000
0
SEQEND
5
4c3
100
AcDbEntity
8
1
0
LINE
5
4c4
100
AcDbEntity
8
1
100
AcDbLine
6
CONTINUOUS
62
5
10
105.550000
20
129.900000
11
106.050000
21
129.400000
0
ARC
5
4c5
100
AcDbEntity
8
1
100
AcDbCircle
6
CONTINUOUS
62
5
10
105.050000
20
122.750000
40
0.500000
100
AcDbArc
50
89.999999
51
179.999998
0
POLYLINE
5
4c6
100
AcDbEntity
8
1
6
CONTINUOUS
62
5
100
AcDb2dPolyline
66
1
10
0.0
20
0.0
30
0.0
70
0
0
VERTEX
5
4c7
100
AcDbEntity
8
1
100
AcDbVertex
100
AcDb2dVertex
62
5
10
104.550000
20
122.750000
0
VERTEX
5
4c8
100
AcDbEntity
8
1
100
AcDbVertex
100
AcDb2dVertex
62
5
10
104.550000
20
121.250000
0
VERTEX
5
4c9
100
AcDbEntity
8
1
100
AcDbVertex
100
AcDb2dVertex
62
5
10
106.050000
20
120.250000
0
VERTEX
5
4ca
100
AcDbEntity
8
1
100
AcDbVertex
100
AcDb2dVertex
62
5
10
108.550000
20
120.250000
0
VERTEX
5
4cb
100
AcDbEntity
8
1
100
AcDbVertex
100
AcDb2dVertex
62
5
10
108.550000
20
123.250000
0
VERTEX
5
4cc
100
AcDbEntity
8
1
100
AcDbVertex
100
AcDb2dVertex
62
5
10
105.050000
20
123.250000
0
SEQEND
5
4cd
100
AcDbEntity
8
1
0
CIRCLE
5
4ce
100
AcDbEntity
8
1
100
AcDbCircle
6
CONTINUOUS
62
5
10
121.050000
20
109.500000
40
1.500000
0
CIRCLE
5
4cf
100
AcDbEntity
8
1
100
AcDbCircle
6
CONTINUOUS
62
5
10
121.050000
20
109.500000
40
2.250000
0
CIRCLE
5
4d0
100
AcDbEntity
8
1
100
AcDbCircle
6
CONTINUOUS
62
5
10
121.050000
20
109.500000
40
2.250000
0
CIRCLE
5
4d1
100
AcDbEntity
8
1
100
AcDbCircle
6
CONTINUOUS
62
5
10
111.050000
20
109.500000
40
2.250000
0
ARC
5
4d2
100
AcDbEntity
8
1
100
AcDbCircle
6
CONTINUOUS
62
5
10
105.050000
20
117.500000
40
1.000000
100
AcDbArc
50
36.869897
51
-143.130101
0
LINE
5
4d3
100
AcDbEntity
8
1
100
AcDbLine
6
CONTINUOUS
62
5
10
105.850000
20
118.100000
11
110.312957
21
112.149390
0
LINE
5
4d4
100
AcDbEntity
8
1
100
AcDbLine
6
CONTINUOUS
62
5
10
108.712957
20
110.949390
11
104.250000
21
116.900000
0
CIRCLE
5
4d5
100
AcDbEntity
8
1
100
AcDbCircle
6
CONTINUOUS
62
5
10
111.050000
20
109.500000
40
2.750000
0
POLYLINE
5
4d6
100
AcDbEntity
8
1
6
CONTINUOUS
62
5
100
AcDb2dPolyline
66
1
10
0.0
20
0.0
30
0.0
70
1
0
VERTEX
5
4d7
100
AcDbEntity
8
1
100
AcDbVertex
100
AcDb2dVertex
62
5
10
115.050000
20
106.250000
0
VERTEX
5
4d8
100
AcDbEntity
8
1
100
AcDbVertex
100
AcDb2dVertex
62
5
10
115.050000
20
112.750000
0
VERTEX
5
4d9
100
AcDbEntity
8
1
100
AcDbVertex
100
AcDb2dVertex
62
5
10
127.050000
20
112.750000
0
VERTEX
5
4da
100
AcDbEntity
8
1
100
AcDbVertex
100
AcDb2dVertex
62
5
10
127.050000
20
106.250000
0
VERTEX
5
4db
100
AcDbEntity
8
1
100
AcDbVertex
100
AcDb2dVertex
62
5
10
115.050000
20
106.250000
0
SEQEND
5
4dc
100
AcDbEntity
8
1
0
ARC
5
4dd
100
AcDbEntity
8
1
100
AcDbCircle
6
CONTINUOUS
62
5
10
117.050000
20
118.442059
40
2.500000
100
AcDbArc
50
84.502150
51
-95.497848
0
ARC
5
4de
100
AcDbEntity
8
1
100
AcDbCircle
6
CONTINUOUS
62
5
10
121.050000
20
160.000000
40
44.250000
100
AcDbArc
50
-95.497848
51
-84.502150
0
ARC
5
4df
100
AcDbEntity
8
1
100
AcDbCircle
6
CONTINUOUS
62
5
10
125.050000
20
118.442059
40
2.500000
100
AcDbArc
50
-84.502150
51
95.497848
0
ARC
5
4e0
100
AcDbEntity
8
1
100
AcDbCircle
6
CONTINUOUS
62
5
10
121.050000
20
160.000000
40
39.250000
100
AcDbArc
50
-95.497848
51
-84.502150
0
ARC
5
4e1
100
AcDbEntity
8
1
100
AcDbCircle
6
CONTINUOUS
62
5
10
117.050000
20
118.442059
40
3.000000
100
AcDbArc
50
84.502150
51
-95.497848
0
ARC
5
4e2
100
AcDbEntity
8
1
100
AcDbCircle
6
CONTINUOUS
62
5
10
121.050000
20
160.000000
40
44.750000
100
AcDbArc
50
-95.497848
51
-84.502150
0
ARC
5
4e3
100
AcDbEntity
8
1
100
AcDbCircle
6
CONTINUOUS
62
5
10
125.050000
20
118.442059
40
3.000000
100
AcDbArc
50
-84.502150
51
95.497848
0
ARC
5
4e4
100
AcDbEntity
8
1
100
AcDbCircle
6
CONTINUOUS
62
5
10
121.050000
20
160.000000
40
38.750000
100
AcDbArc
50
-95.497848
51
-84.502150
0
POLYLINE
5
4e5
100
AcDbEntity
8
1
6
CONTINUOUS
62
5
100
AcDb2dPolyline
66
1
10
0.0
20
0.0
30
0.0
70
0
0
VERTEX
5
4e6
100
AcDbEntity
8
1
100
AcDbVertex
100
AcDb2dVertex
62
5
10
137.900000
20
135.600000
0
VERTEX
5
4e7
100
AcDbEntity
8
1
100
AcDbVertex
100
AcDb2dVertex
62
5
10
136.050000
20
135.600000
0
VERTEX
5
4e8
100
AcDbEntity
8
1
100
AcDbVertex
100
AcDb2dVertex
62
5
10
136.550000
20
135.100000
0
SEQEND
5
4e9
100
AcDbEntity
8
1
0
ARC
5
4ea
100
AcDbEntity
8
1
100
AcDbCircle
6
CONTINUOUS
62
5
10
135.550000
20
129.900000
40
0.500000
100
AcDbArc
50
-89.999999
51
0.000000
0
LINE
5
4eb
100
AcDbEntity
8
1
100
AcDbLine
6
CONTINUOUS
62
5
10
136.050000
20
129.900000
11
136.050000
21
136.100000
0
ARC
5
4ec
100
AcDbEntity
8
1
100
AcDbCircle
6
CONTINUOUS
62
5
10
135.550000
20
136.100000
40
0.500000
100
AcDbArc
50
0.000000
51
89.999999
0
LINE
5
4ed
100
AcDbEntity
8
1
100
AcDbLine
6
CONTINUOUS
62
5
10
135.550000
20
136.600000
11
135.050000
21
136.600000
0
LINE
5
4ee
100
AcDbEntity
8
1
100
AcDbLine
6
CONTINUOUS
62
5
10
135.050000
20
129.400000
11
135.550000
21
129.400000
0
POLYLINE
5
4ef
100
AcDbEntity
8
1
6
CONTINUOUS
62
5
100
AcDb2dPolyline
66
1
10
0.0
20
0.0
30
0.0
70
0
0
VERTEX
5
4f0
100
AcDbEntity
8
1
100
AcDbVertex
100
AcDb2dVertex
62
5
10
137.900000
20
129.900000
0
VERTEX
5
4f1
100
AcDbEntity
8
1
100
AcDbVertex
100
AcDb2dVertex
62
5
10
136.550000
20
129.900000
0
VERTEX
5
4f2
100
AcDbEntity
8
1
100
AcDbVertex
100
AcDb2dVertex
62
5
10
136.550000
20
135.100000
0
VERTEX
5
4f3
100
AcDbEntity
8
1
100
AcDbVertex
100
AcDb2dVertex
62
5
10
137.900000
20
135.100000
0
SEQEND
5
4f4
100
AcDbEntity
8
1
0
POLYLINE
5
4f5
100
AcDbEntity
8
1
6
CONTINUOUS
62
5
100
AcDb2dPolyline
66
1
10
0.0
20
0.0
30
0.0
70
0
0
VERTEX
5
4f6
100
AcDbEntity
8
1
100
AcDbVertex
100
AcDb2dVertex
62
5
10
104.200000
20
135.600000
0
VERTEX
5
4f7
100
AcDbEntity
8
1
100
AcDbVertex
100
AcDb2dVertex
62
5
10
106.050000
20
135.600000
0
VERTEX
5
4f8
100
AcDbEntity
8
1
100
AcDbVertex
100
AcDb2dVertex
62
5
10
105.550000
20
135.100000
0
SEQEND
5
4f9
100
AcDbEntity
8
1
0
POLYLINE
5
4fa
100
AcDbEntity
8
1
6
CONTINUOUS
62
5
100
AcDb2dPolyline
66
1
10
0.0
20
0.0
30
0.0
70
0
0
VERTEX
5
4fb
100
AcDbEntity
8
1
100
AcDbVertex
100
AcDb2dVertex
62
5
10
104.200000
20
129.900000
0
VERTEX
5
4fc
100
AcDbEntity
8
1
100
AcDbVertex
100
AcDb2dVertex
62
5
10
105.550000
20
129.900000
0
VERTEX
5
4fd
100
AcDbEntity
8
1
100
AcDbVertex
100
AcDb2dVertex
62
5
10
105.550000
20
135.100000
0
VERTEX
5
4fe
100
AcDbEntity
8
1
100
AcDbVertex
100
AcDb2dVertex
62
5
10
104.200000
20
135.100000
0
SEQEND
5
4ff
100
AcDbEntity
8
1
0
ARC
5
500
100
AcDbEntity
8
1
100
AcDbCircle
6
CONTINUOUS
62
5
10
106.550000
20
129.900000
40
0.500000
100
AcDbArc
50
179.999998
51
-89.999999
0
LINE
5
501
100
AcDbEntity
8
1
100
AcDbLine
6
CONTINUOUS
62
5
10
106.050000
20
129.900000
11
106.050000
21
136.100000
0
ARC
5
502
100
AcDbEntity
8
1
100
AcDbCircle
6
CONTINUOUS
62
5
10
106.550000
20
136.100000
40
0.500000
100
AcDbArc
50
89.999999
51
179.999998
0
LINE
5
503
100
AcDbEntity
8
1
100
AcDbLine
6
CONTINUOUS
62
5
10
106.550000
20
136.600000
11
107.050000
21
136.600000
0
LINE
5
504
100
AcDbEntity
8
1
100
AcDbLine
6
CONTINUOUS
62
5
10
107.050000
20
129.400000
11
106.550000
21
129.400000
0
ARC
5
505
100
AcDbEntity
8
1
100
AcDbCircle
6
CONTINUOUS
62
5
10
111.050000
20
128.500000
40
1.000000
100
AcDbArc
50
179.999998
51
-89.999999
0
LINE
5
506
100
AcDbEntity
8
1
100
AcDbLine
6
CONTINUOUS
62
5
10
111.050000
20
127.500000
11
131.050000
21
127.500000
0
ARC
5
507
100
AcDbEntity
8
1
100
AcDbCircle
6
CONTINUOUS
62
5
10
131.050000
20
128.500000
40
1.000000
100
AcDbArc
50
-89.999999
51
0.000000
0
LINE
5
508
100
AcDbEntity
8
1
100
AcDbLine
6
CONTINUOUS
62
5
10
132.050000
20
128.500000
11
132.050000
21
133.821211
0
ARC
5
509
100
AcDbEntity
8
1
100
AcDbCircle
6
CONTINUOUS
62
5
10
131.050000
20
133.821211
40
1.000000
100
AcDbArc
50
0.000000
51
82.233565
0
ARC
5
50a
100
AcDbEntity
8
1
100
AcDbCircle
6
CONTINUOUS
62
5
10
121.050000
20
60.500000
40
75.000000
100
AcDbArc
50
82.233565
51
97.766433
0
ARC
5
50b
100
AcDbEntity
8
1
100
AcDbCircle
6
CONTINUOUS
62
5
10
111.050000
20
133.821211
40
1.000000
100
AcDbArc
50
97.766433
51
179.999998
0
LINE
5
50c
100
AcDbEntity
8
1
100
AcDbLine
6
CONTINUOUS
62
5
10
110.050000
20
133.821211
11
110.050000
21
128.500000
0
POLYLINE
5
50d
100
AcDbEntity
8
1
6
DOT2
62
5
100
AcDb2dPolyline
66
1
10
0.0
20
0.0
30
0.0
70
0
0
VERTEX
5
50e
100
AcDbEntity
8
1
100
AcDbVertex
100
AcDb2dVertex
62
5
10
66.875000
20
159.375000
0
VERTEX
5
50f
100
AcDbEntity
8
1
100
AcDbVertex
100
AcDb2dVertex
62
5
10
66.250000
20
160.312500
0
VERTEX
5
510
100
AcDbEntity
8
1
100
AcDbVertex
100
AcDb2dVertex
62
5
10
73.750000
20
160.312500
0
SEQEND
5
511
100
AcDbEntity
8
1
0
LINE
5
512
100
AcDbEntity
8
1
100
AcDbLine
6
DOT2
62
5
10
73.750000
20
159.687500
11
73.750000
21
160.937500
0
POLYLINE
5
513
100
AcDbEntity
8
1
6
DOT2
62
5
100
AcDb2dPolyline
66
1
10
0.0
20
0.0
30
0.0
70
0
0
VERTEX
5
514
100
AcDbEntity
8
1
100
AcDbVertex
100
AcDb2dVertex
62
5
10
68.437500
20
163.750000
0
VERTEX
5
515
100
AcDbEntity
8
1
100
AcDbVertex
100
AcDb2dVertex
62
5
10
66.875000
20
164.062500
0
VERTEX
5
516
100
AcDbEntity
8
1
100
AcDbVertex
100
AcDb2dVertex
62
5
10
66.250000
20
165.000000
0
VERTEX
5
517
100
AcDbEntity
8
1
100
AcDbVertex
100
AcDb2dVertex
62
5
10
66.250000
20
165.937500
0
VERTEX
5
518
100
AcDbEntity
8
1
100
AcDbVertex
100
AcDb2dVertex
62
5
10
66.562500
20
166.562500
0
VERTEX
5
519
100
AcDbEntity
8
1
100
AcDbVertex
100
AcDb2dVertex
62
5
10
67.500000
20
166.875000
0
VERTEX
5
51a
100
AcDbEntity
8
1
100
AcDbVertex
100
AcDb2dVertex
62
5
10
68.437500
20
166.875000
0
VERTEX
5
51b
100
AcDbEntity
8
1
100
AcDbVertex
100
AcDb2dVertex
62
5
10
69.375000
20
166.562500
0
VERTEX
5
51c
100
AcDbEntity
8
1
100
AcDbVertex
100
AcDb2dVertex
62
5
10
73.750000
20
163.750000
0
VERTEX
5
51d
100
AcDbEntity
8
1
100
AcDbVertex
100
AcDb2dVertex
62
5
10
73.750000
20
166.875000
0
VERTEX
5
51e
100
AcDbEntity
8
1
100
AcDbVertex
100
AcDb2dVertex
62
5
10
72.812500
20
166.875000
0
SEQEND
5
51f
100
AcDbEntity
8
1
0
POLYLINE
5
520
100
AcDbEntity
8
1
6
DOT2
62
5
100
AcDb2dPolyline
66
1
10
0.0
20
0.0
30
0.0
70
0
0
VERTEX
5
521
100
AcDbEntity
8
1
100
AcDbVertex
100
AcDb2dVertex
62
5
10
66.875000
20
154.375000
0
VERTEX
5
522
100
AcDbEntity
8
1
100
AcDbVertex
100
AcDb2dVertex
62
5
10
66.250000
20
155.312500
0
VERTEX
5
523
100
AcDbEntity
8
1
100
AcDbVertex
100
AcDb2dVertex
62
5
10
73.750000
20
155.312500
0
SEQEND
5
524
100
AcDbEntity
8
1
0
LINE
5
525
100
AcDbEntity
8
1
100
AcDbLine
6
DOT2
62
5
10
73.750000
20
154.687500
11
73.750000
21
155.937500
0
LINE
5
526
100
AcDbEntity
8
1
100
AcDbLine
6
CONTINUOUS
62
5
10
127.500000
20
42.000000
11
130.625000
21
42.000000
0
POLYLINE
5
527
100
AcDbEntity
8
1
6
CONTINUOUS
62
5
100
AcDb2dPolyline
66
1
10
0.0
20
0.0
30
0.0
70
0
0
VERTEX
5
528
100
AcDbEntity
8
1
100
AcDbVertex
100
AcDb2dVertex
62
5
10
113.125000
20
45.125000
0
VERTEX
5
529
100
AcDbEntity
8
1
100
AcDbVertex
100
AcDb2dVertex
62
5
10
114.062500
20
45.750000
0
VERTEX
5
52a
100
AcDbEntity
8
1
100
AcDbVertex
100
AcDb2dVertex
62
5
10
114.062500
20
38.250000
0
SEQEND
5
52b
100
AcDbEntity
8
1
0
LINE
5
52c
100
AcDbEntity
8
1
100
AcDbLine
6
CONTINUOUS
62
5
10
113.437500
20
38.250000
11
114.687500
21
38.250000
0
LINE
5
52d
100
AcDbEntity
8
1
100
AcDbLine
6
CONTINUOUS
62
5
10
117.500000
20
45.750000
11
120.312500
21
45.750000
0
POLYLINE
5
52e
100
AcDbEntity
8
1
6
CONTINUOUS
62
5
100
AcDb2dPolyline
66
1
10
0.0
20
0.0
30
0.0
70
0
0
VERTEX
5
52f
100
AcDbEntity
8
1
100
AcDbVertex
100
AcDb2dVertex
62
5
10
117.500000
20
45.750000
0
VERTEX
5
530
100
AcDbEntity
8
1
100
AcDbVertex
100
AcDb2dVertex
62
5
10
117.500000
20
42.000000
0
VERTEX
5
531
100
AcDbEntity
8
1
100
AcDbVertex
100
AcDb2dVertex
62
5
10
118.125000
20
42.625000
0
VERTEX
5
532
100
AcDbEntity
8
1
100
AcDbVertex
100
AcDb2dVertex
62
5
10
118.750000
20
42.937500
0
VERTEX
5
533
100
AcDbEntity
8
1
100
AcDbVertex
100
AcDb2dVertex
62
5
10
119.687500
20
42.937500
0
VERTEX
5
534
100
AcDbEntity
8
1
100
AcDbVertex
100
AcDb2dVertex
62
5
10
120.312500
20
42.625000
0
VERTEX
5
535
100
AcDbEntity
8
1
100
AcDbVertex
100
AcDb2dVertex
62
5
10
120.625000
20
41.687500
0
VERTEX
5
536
100
AcDbEntity
8
1
100
AcDbVertex
100
AcDb2dVertex
62
5
10
120.625000
20
39.812500
0
VERTEX
5
537
100
AcDbEntity
8
1
100
AcDbVertex
100
AcDb2dVertex
62
5
10
120.000000
20
38.875000
0
VERTEX
5
538
100
AcDbEntity
8
1
100
AcDbVertex
100
AcDb2dVertex
62
5
10
119.062500
20
38.250000
0
VERTEX
5
539
100
AcDbEntity
8
1
100
AcDbVertex
100
AcDb2dVertex
62
5
10
117.500000
20
38.250000
0
SEQEND
5
53a
100
AcDbEntity
8
1
0
POLYLINE
5
53b
100
AcDbEntity
8
1
6
CONTINUOUS
62
5
100
AcDb2dPolyline
66
1
10
0.0
20
0.0
30
0.0
70
0
0
VERTEX
5
53c
100
AcDbEntity
8
1
100
AcDbVertex
100
AcDb2dVertex
62
5
10
122.500000
20
38.250000
0
VERTEX
5
53d
100
AcDbEntity
8
1
100
AcDbVertex
100
AcDb2dVertex
62
5
10
124.062500
20
45.750000
0
VERTEX
5
53e
100
AcDbEntity
8
1
100
AcDbVertex
100
AcDb2dVertex
62
5
10
125.625000
20
38.250000
0
SEQEND
5
53f
100
AcDbEntity
8
1
0
LINE
5
540
100
AcDbEntity
8
1
100
AcDbLine
6
CONTINUOUS
62
5
10
123.125000
20
40.750000
11
125.000000
21
40.750000
0
POLYLINE
5
541
100
AcDbEntity
8
1
6
CONTINUOUS
62
5
100
AcDb2dPolyline
66
1
10
0.0
20
0.0
30
0.0
70
0
0
VERTEX
5
542
100
AcDbEntity
8
1
100
AcDbVertex
100
AcDb2dVertex
62
5
10
133.125000
20
45.125000
0
VERTEX
5
543
100
AcDbEntity
8
1
100
AcDbVertex
100
AcDb2dVertex
62
5
10
134.062500
20
45.750000
0
VERTEX
5
544
100
AcDbEntity
8
1
100
AcDbVertex
100
AcDb2dVertex
62
5
10
134.062500
20
38.250000
0
SEQEND
5
545
100
AcDbEntity
8
1
0
LINE
5
546
100
AcDbEntity
8
1
100
AcDbLine
6
CONTINUOUS
62
5
10
133.437500
20
38.250000
11
134.687500
21
38.250000
0
POLYLINE
5
547
100
AcDbEntity
8
1
6
CONTINUOUS
62
5
100
AcDb2dPolyline
66
1
10
0.0
20
0.0
30
0.0
70
0
0
VERTEX
5
548
100
AcDbEntity
8
1
100
AcDbVertex
100
AcDb2dVertex
62
5
10
137.500000
20
43.562500
0
VERTEX
5
549
100
AcDbEntity
8
1
100
AcDbVertex
100
AcDb2dVertex
62
5
10
137.812500
20
45.125000
0
VERTEX
5
54a
100
AcDbEntity
8
1
100
AcDbVertex
100
AcDb2dVertex
62
5
10
138.750000
20
45.750000
0
VERTEX
5
54b
100
AcDbEntity
8
1
100
AcDbVertex
100
AcDb2dVertex
62
5
10
139.687500
20
45.750000
0
VERTEX
5
54c
100
AcDbEntity
8
1
100
AcDbVertex
100
AcDb2dVertex
62
5
10
140.312500
20
45.437500
0
VERTEX
5
54d
100
AcDbEntity
8
1
100
AcDbVertex
100
AcDb2dVertex
62
5
10
140.625000
20
44.500000
0
VERTEX
5
54e
100
AcDbEntity
8
1
100
AcDbVertex
100
AcDb2dVertex
62
5
10
140.625000
20
43.562500
0
VERTEX
5
54f
100
AcDbEntity
8
1
100
AcDbVertex
100
AcDb2dVertex
62
5
10
140.312500
20
42.625000
0
VERTEX
5
550
100
AcDbEntity
8
1
100
AcDbVertex
100
AcDb2dVertex
62
5
10
137.500000
20
38.250000
0
VERTEX
5
551
100
AcDbEntity
8
1
100
AcDbVertex
100
AcDb2dVertex
62
5
10
140.625000
20
38.250000
0
VERTEX
5
552
100
AcDbEntity
8
1
100
AcDbVertex
100
AcDb2dVertex
62
5
10
140.625000
20
39.187500
0
SEQEND
5
553
100
AcDbEntity
8
1
0
LINE
5
554
100
AcDbEntity
8
1
100
AcDbLine
6
CONTINUOUS
62
5
10
142.500000
20
45.750000
11
145.312500
21
45.750000
0
POLYLINE
5
555
100
AcDbEntity
8
1
6
CONTINUOUS
62
5
100
AcDb2dPolyline
66
1
10
0.0
20
0.0
30
0.0
70
0
0
VERTEX
5
556
100
AcDbEntity
8
1
100
AcDbVertex
100
AcDb2dVertex
62
5
10
142.500000
20
45.750000
0
VERTEX
5
557
100
AcDbEntity
8
1
100
AcDbVertex
100
AcDb2dVertex
62
5
10
142.500000
20
42.000000
0
VERTEX
5
558
100
AcDbEntity
8
1
100
AcDbVertex
100
AcDb2dVertex
62
5
10
143.125000
20
42.625000
0
VERTEX
5
559
100
AcDbEntity
8
1
100
AcDbVertex
100
AcDb2dVertex
62
5
10
143.750000
20
42.937500
0
VERTEX
5
55a
100
AcDbEntity
8
1
100
AcDbVertex
100
AcDb2dVertex
62
5
10
144.687500
20
42.937500
0
VERTEX
5
55b
100
AcDbEntity
8
1
100
AcDbVertex
100
AcDb2dVertex
62
5
10
145.312500
20
42.625000
0
VERTEX
5
55c
100
AcDbEntity
8
1
100
AcDbVertex
100
AcDb2dVertex
62
5
10
145.625000
20
41.687500
0
VERTEX
5
55d
100
AcDbEntity
8
1
100
AcDbVertex
100
AcDb2dVertex
62
5
10
145.625000
20
39.812500
0
VERTEX
5
55e
100
AcDbEntity
8
1
100
AcDbVertex
100
AcDb2dVertex
62
5
10
145.000000
20
38.875000
0
VERTEX
5
55f
100
AcDbEntity
8
1
100
AcDbVertex
100
AcDb2dVertex
62
5
10
144.062500
20
38.250000
0
VERTEX
5
560
100
AcDbEntity
8
1
100
AcDbVertex
100
AcDb2dVertex
62
5
10
142.500000
20
38.250000
0
SEQEND
5
561
100
AcDbEntity
8
1
0
POLYLINE
5
562
100
AcDbEntity
8
1
6
CONTINUOUS
62
5
100
AcDb2dPolyline
66
1
10
0.0
20
0.0
30
0.0
70
0
0
VERTEX
5
563
100
AcDbEntity
8
1
100
AcDbVertex
100
AcDb2dVertex
62
5
10
147.500000
20
45.750000
0
VERTEX
5
564
100
AcDbEntity
8
1
100
AcDbVertex
100
AcDb2dVertex
62
5
10
149.062500
20
38.250000
0
VERTEX
5
565
100
AcDbEntity
8
1
100
AcDbVertex
100
AcDb2dVertex
62
5
10
150.625000
20
45.750000
0
SEQEND
5
566
100
AcDbEntity
8
1
0
POLYLINE
5
567
100
AcDbEntity
8
1
6
CONTINUOUS
62
5
100
AcDb2dPolyline
66
1
10
0.0
20
0.0
30
0.0
70
0
0
VERTEX
5
568
100
AcDbEntity
8
1
100
AcDbVertex
100
AcDb2dVertex
62
5
10
157.500000
20
38.250000
0
VERTEX
5
569
100
AcDbEntity
8
1
100
AcDbVertex
100
AcDb2dVertex
62
5
10
159.062500
20
45.750000
0
VERTEX
5
56a
100
AcDbEntity
8
1
100
AcDbVertex
100
AcDb2dVertex
62
5
10
160.625000
20
38.250000
0
SEQEND
5
56b
100
AcDbEntity
8
1
0
LINE
5
56c
100
AcDbEntity
8
1
100
AcDbLine
6
CONTINUOUS
62
5
10
158.125000
20
40.750000
11
160.000000
21
40.750000
0
POLYLINE
5
56d
100
AcDbEntity
8
1
6
CONTINUOUS
62
5
100
AcDb2dPolyline
66
1
10
0.0
20
0.0
30
0.0
70
0
0
VERTEX
5
56e
100
AcDbEntity
8
1
100
AcDbVertex
100
AcDb2dVertex
62
5
10
165.625000
20
44.187500
0
VERTEX
5
56f
100
AcDbEntity
8
1
100
AcDbVertex
100
AcDb2dVertex
62
5
10
165.312500
20
45.125000
0
VERTEX
5
570
100
AcDbEntity
8
1
100
AcDbVertex
100
AcDb2dVertex
62
5
10
164.687500
20
45.750000
0
VERTEX
5
571
100
AcDbEntity
8
1
100
AcDbVertex
100
AcDb2dVertex
62
5
10
163.750000
20
45.750000
0
VERTEX
5
572
100
AcDbEntity
8
1
100
AcDbVertex
100
AcDb2dVertex
62
5
10
162.812500
20
44.812500
0
VERTEX
5
573
100
AcDbEntity
8
1
100
AcDbVertex
100
AcDb2dVertex
62
5
10
162.500000
20
43.250000
0
VERTEX
5
574
100
AcDbEntity
8
1
100
AcDbVertex
100
AcDb2dVertex
62
5
10
162.500000
20
40.750000
0
VERTEX
5
575
100
AcDbEntity
8
1
100
AcDbVertex
100
AcDb2dVertex
62
5
10
162.812500
20
39.187500
0
VERTEX
5
576
100
AcDbEntity
8
1
100
AcDbVertex
100
AcDb2dVertex
62
5
10
163.750000
20
38.250000
0
VERTEX
5
577
100
AcDbEntity
8
1
100
AcDbVertex
100
AcDb2dVertex
62
5
10
164.687500
20
38.250000
0
VERTEX
5
578
100
AcDbEntity
8
1
100
AcDbVertex
100
AcDb2dVertex
62
5
10
165.312500
20
38.875000
0
VERTEX
5
579
100
AcDbEntity
8
1
100
AcDbVertex
100
AcDb2dVertex
62
5
10
165.937500
20
40.437500
0
SEQEND
5
57a
100
AcDbEntity
8
1
0
LINE
5
57b
100
AcDbEntity
8
1
100
AcDbLine
6
CONTINUOUS
62
5
10
100.000000
20
54.000000
11
100.000000
21
30.000000
0
LINE
5
57c
100
AcDbEntity
8
1
100
AcDbLine
6
CONTINUOUS
62
5
10
64.687500
20
46.375000
11
64.687500
21
45.437500
0
POLYLINE
5
57d
100
AcDbEntity
8
1
6
CONTINUOUS
62
5
100
AcDb2dPolyline
66
1
10
0.0
20
0.0
30
0.0
70
0
0
VERTEX
5
57e
100
AcDbEntity
8
1
100
AcDbVertex
100
AcDb2dVertex
62
5
10
60.937500
20
43.250000
0
VERTEX
5
57f
100
AcDbEntity
8
1
100
AcDbVertex
100
AcDb2dVertex
62
5
10
60.937500
20
45.437500
0
VERTEX
5
580
100
AcDbEntity
8
1
100
AcDbVertex
100
AcDb2dVertex
62
5
10
68.437500
20
45.437500
0
VERTEX
5
581
100
AcDbEntity
8
1
100
AcDbVertex
100
AcDb2dVertex
62
5
10
68.437500
20
43.250000
0
SEQEND
5
582
100
AcDbEntity
8
1
0
LINE
5
583
100
AcDbEntity
8
1
100
AcDbLine
6
CONTINUOUS
62
5
10
61.875000
20
43.562500
11
67.500000
21
43.562500
0
LINE
5
584
100
AcDbEntity
8
1
100
AcDbLine
6
CONTINUOUS
62
5
10
64.687500
20
43.562500
11
64.687500
21
38.250000
0
LINE
5
585
100
AcDbEntity
8
1
100
AcDbLine
6
CONTINUOUS
62
5
10
64.687500
20
41.062500
11
67.500000
21
41.062500
0
POLYLINE
5
586
100
AcDbEntity
8
1
6
CONTINUOUS
62
5
100
AcDb2dPolyline
66
1
10
0.0
20
0.0
30
0.0
70
0
0
VERTEX
5
587
100
AcDbEntity
8
1
100
AcDbVertex
100
AcDb2dVertex
62
5
10
62.500000
20
41.687500
0
VERTEX
5
588
100
AcDbEntity
8
1
100
AcDbVertex
100
AcDb2dVertex
62
5
10
62.187500
20
39.812500
0
VERTEX
5
589
100
AcDbEntity
8
1
100
AcDbVertex
100
AcDb2dVertex
62
5
10
61.562500
20
38.562500
0
VERTEX
5
58a
100
AcDbEntity
8
1
100
AcDbVertex
100
AcDb2dVertex
62
5
10
60.625000
20
37.625000
0
SEQEND
5
58b
100
AcDbEntity
8
1
0
POLYLINE
5
58c
100
AcDbEntity
8
1
6
CONTINUOUS
62
5
100
AcDb2dPolyline
66
1
10
0.0
20
0.0
30
0.0
70
0
0
VERTEX
5
58d
100
AcDbEntity
8
1
100
AcDbVertex
100
AcDb2dVertex
62
5
10
62.187500
20
39.812500
0
VERTEX
5
58e
100
AcDbEntity
8
1
100
AcDbVertex
100
AcDb2dVertex
62
5
10
64.687500
20
38.250000
0
VERTEX
5
58f
100
AcDbEntity
8
1
100
AcDbVertex
100
AcDb2dVertex
62
5
10
65.937500
20
37.937500
0
VERTEX
5
590
100
AcDbEntity
8
1
100
AcDbVertex
100
AcDb2dVertex
62
5
10
69.062500
20
37.625000
0
SEQEND
5
591
100
AcDbEntity
8
1
0
LINE
5
592
100
AcDbEntity
8
1
100
AcDbLine
6
CONTINUOUS
62
5
10
80.625000
20
44.187500
11
83.750000
21
44.187500
0
LINE
5
593
100
AcDbEntity
8
1
100
AcDbLine
6
CONTINUOUS
62
5
10
82.500000
20
46.375000
11
82.500000
21
37.625000
0
POLYLINE
5
594
100
AcDbEntity
8
1
6
CONTINUOUS
62
5
100
AcDb2dPolyline
66
1
10
0.0
20
0.0
30
0.0
70
0
0
VERTEX
5
595
100
AcDbEntity
8
1
100
AcDbVertex
100
AcDb2dVertex
62
5
10
82.500000
20
44.187500
0
VERTEX
5
596
100
AcDbEntity
8
1
100
AcDbVertex
100
AcDb2dVertex
62
5
10
81.562500
20
42.000000
0
VERTEX
5
597
100
AcDbEntity
8
1
100
AcDbVertex
100
AcDb2dVertex
62
5
10
80.625000
20
40.750000
0
SEQEND
5
598
100
AcDbEntity
8
1
0
LINE
5
599
100
AcDbEntity
8
1
100
AcDbLine
6
CONTINUOUS
62
5
10
82.500000
20
43.250000
11
83.437500
21
42.000000
0
POLYLINE
5
59a
100
AcDbEntity
8
1
6
CONTINUOUS
62
5
100
AcDb2dPolyline
66
1
10
0.0
20
0.0
30
0.0
70
0
0
VERTEX
5
59b
100
AcDbEntity
8
1
100
AcDbVertex
100
AcDb2dVertex
62
5
10
85.937500
20
46.375000
0
VERTEX
5
59c
100
AcDbEntity
8
1
100
AcDbVertex
100
AcDb2dVertex
62
5
10
85.312500
20
45.125000
0
VERTEX
5
59d
100
AcDbEntity
8
1
100
AcDbVertex
100
AcDb2dVertex
62
5
10
83.750000
20
43.250000
0
SEQEND
5
59e
100
AcDbEntity
8
1
0
POLYLINE
5
59f
100
AcDbEntity
8
1
6
CONTINUOUS
62
5
100
AcDb2dPolyline
66
1
10
0.0
20
0.0
30
0.0
70
0
0
VERTEX
5
5a0
100
AcDbEntity
8
1
100
AcDbVertex
100
AcDb2dVertex
62
5
10
85.312500
20
45.125000
0
VERTEX
5
5a1
100
AcDbEntity
8
1
100
AcDbVertex
100
AcDb2dVertex
62
5
10
88.437500
20
45.125000
0
VERTEX
5
5a2
100
AcDbEntity
8
1
100
AcDbVertex
100
AcDb2dVertex
62
5
10
87.500000
20
43.562500
0
VERTEX
5
5a3
100
AcDbEntity
8
1
100
AcDbVertex
100
AcDb2dVertex
62
5
10
85.937500
20
42.000000
0
VERTEX
5
5a4
100
AcDbEntity
8
1
100
AcDbVertex
100
AcDb2dVertex
62
5
10
83.750000
20
40.750000
0
SEQEND
5
5a5
100
AcDbEntity
8
1
0
POLYLINE
5
5a6
100
AcDbEntity
8
1
6
CONTINUOUS
62
5
100
AcDb2dPolyline
66
1
10
0.0
20
0.0
30
0.0
70
0
0
VERTEX
5
5a7
100
AcDbEntity
8
1
100
AcDbVertex
100
AcDb2dVertex
62
5
10
85.312500
20
45.125000
0
VERTEX
5
5a8
100
AcDbEntity
8
1
100
AcDbVertex
100
AcDb2dVertex
62
5
10
85.937500
20
43.562500
0
VERTEX
5
5a9
100
AcDbEntity
8
1
100
AcDbVertex
100
AcDb2dVertex
62
5
10
87.187500
20
42.000000
0
VERTEX
5
5aa
100
AcDbEntity
8
1
100
AcDbVertex
100
AcDb2dVertex
62
5
10
88.125000
20
41.375000
0
VERTEX
5
5ab
100
AcDbEntity
8
1
100
AcDbVertex
100
AcDb2dVertex
62
5
10
89.375000
20
40.750000
0
SEQEND
5
5ac
100
AcDbEntity
8
1
0
POLYLINE
5
5ad
100
AcDbEntity
8
1
6
CONTINUOUS
62
5
100
AcDb2dPolyline
66
1
10
0.0
20
0.0
30
0.0
70
1
0
VERTEX
5
5ae
100
AcDbEntity
8
1
100
AcDbVertex
100
AcDb2dVertex
62
5
10
85.000000
20
40.750000
0
VERTEX
5
5af
100
AcDbEntity
8
1
100
AcDbVertex
100
AcDb2dVertex
62
5
10
85.000000
20
37.937500
0
VERTEX
5
5b0
100
AcDbEntity
8
1
100
AcDbVertex
100
AcDb2dVertex
62
5
10
88.437500
20
37.937500
0
VERTEX
5
5b1
100
AcDbEntity
8
1
100
AcDbVertex
100
AcDb2dVertex
62
5
10
88.437500
20
40.750000
0
VERTEX
5
5b2
100
AcDbEntity
8
1
100
AcDbVertex
100
AcDb2dVertex
62
5
10
85.000000
20
40.750000
0
SEQEND
5
5b3
100
AcDbEntity
8
1
0
POLYLINE
5
5b4
100
AcDbEntity
8
1
6
CONTINUOUS
62
5
100
AcDb2dPolyline
66
1
10
0.0
20
0.0
30
0.0
70
1
0
VERTEX
5
5b5
100
AcDbEntity
8
1
100
AcDbVertex
100
AcDb2dVertex
62
5
10
290.000000
20
30.000000
0
VERTEX
5
5b6
100
AcDbEntity
8
1
100
AcDbVertex
100
AcDb2dVertex
62
5
10
290.000000
20
54.000000
0
VERTEX
5
5b7
100
AcDbEntity
8
1
100
AcDbVertex
100
AcDb2dVertex
62
5
10
50.000000
20
54.000000
0
VERTEX
5
5b8
100
AcDbEntity
8
1
100
AcDbVertex
100
AcDb2dVertex
62
5
10
50.000000
20
30.000000
0
VERTEX
5
5b9
100
AcDbEntity
8
1
100
AcDbVertex
100
AcDb2dVertex
62
5
10
290.000000
20
30.000000
0
SEQEND
5
5ba
100
AcDbEntity
8
1
0
LINE
5
5bb
100
AcDbEntity
8
1
100
AcDbLine
6
CONTINUOUS
62
5
10
239.950000
20
172.300000
11
239.950000
21
243.000000
0
LINE
5
5bc
100
AcDbEntity
8
1
100
AcDbLine
6
CONTINUOUS
62
5
10
220.350000
20
217.500000
11
220.350000
21
243.000000
0
POLYLINE
5
5bd
100
AcDbEntity
8
1
6
CONTINUOUS
62
5
100
AcDb2dPolyline
66
1
10
0.0
20
0.0
30
0.0
70
0
0
VERTEX
5
5be
100
AcDbEntity
8
1
100
AcDbVertex
100
AcDb2dVertex
62
5
10
271.200000
20
241.000000
0
VERTEX
5
5bf
100
AcDbEntity
8
1
100
AcDbVertex
100
AcDb2dVertex
62
5
10
239.950000
20
241.000000
0
VERTEX
5
5c0
100
AcDbEntity
8
1
100
AcDbVertex
100
AcDb2dVertex
62
5
10
245.950000
20
242.000000
0
VERTEX
5
5c1
100
AcDbEntity
8
1
100
AcDbVertex
100
AcDb2dVertex
62
5
10
245.950000
20
240.000000
0
VERTEX
5
5c2
100
AcDbEntity
8
1
100
AcDbVertex
100
AcDb2dVertex
62
5
10
239.950000
20
241.000000
0
VERTEX
5
5c3
100
AcDbEntity
8
1
100
AcDbVertex
100
AcDb2dVertex
62
5
10
245.950000
20
241.500000
0
VERTEX
5
5c4
100
AcDbEntity
8
1
100
AcDbVertex
100
AcDb2dVertex
62
5
10
245.950000
20
240.500000
0
VERTEX
5
5c5
100
AcDbEntity
8
1
100
AcDbVertex
100
AcDb2dVertex
62
5
10
239.950000
20
241.000000
0
SEQEND
5
5c6
100
AcDbEntity
8
1
0
LINE
5
5c7
100
AcDbEntity
8
1
100
AcDbLine
6
CONTINUOUS
62
5
10
239.950000
20
241.000000
11
220.350000
21
241.000000
0
LINE
5
5c8
100
AcDbEntity
8
1
100
AcDbLine
6
CONTINUOUS
62
5
10
215.350000
20
241.000000
11
220.350000
21
241.000000
0
POLYLINE
5
5c9
100
AcDbEntity
8
1
6
CONTINUOUS
62
5
100
AcDb2dPolyline
66
1
10
0.0
20
0.0
30
0.0
70
0
0
VERTEX
5
5ca
100
AcDbEntity
8
1
100
AcDbVertex
100
AcDb2dVertex
62
5
10
221.350000
20
241.500000
0
VERTEX
5
5cb
100
AcDbEntity
8
1
100
AcDbVertex
100
AcDb2dVertex
62
5
10
221.350000
20
240.500000
0
VERTEX
5
5cc
100
AcDbEntity
8
1
100
AcDbVertex
100
AcDb2dVertex
62
5
10
220.850000
20
240.000000
0
VERTEX
5
5cd
100
AcDbEntity
8
1
100
AcDbVertex
100
AcDb2dVertex
62
5
10
219.850000
20
240.000000
0
VERTEX
5
5ce
100
AcDbEntity
8
1
100
AcDbVertex
100
AcDb2dVertex
62
5
10
219.350000
20
240.500000
0
VERTEX
5
5cf
100
AcDbEntity
8
1
100
AcDbVertex
100
AcDb2dVertex
62
5
10
219.350000
20
241.500000
0
VERTEX
5
5d0
100
AcDbEntity
8
1
100
AcDbVertex
100
AcDb2dVertex
62
5
10
219.850000
20
242.000000
0
VERTEX
5
5d1
100
AcDbEntity
8
1
100
AcDbVertex
100
AcDb2dVertex
62
5
10
220.850000
20
242.000000
0
VERTEX
5
5d2
100
AcDbEntity
8
1
100
AcDbVertex
100
AcDb2dVertex
62
5
10
221.350000
20
241.500000
0
VERTEX
5
5d3
100
AcDbEntity
8
1
100
AcDbVertex
100
AcDb2dVertex
62
5
10
219.350000
20
240.500000
0
SEQEND
5
5d4
100
AcDbEntity
8
1
0
LINE
5
5d5
100
AcDbEntity
8
1
100
AcDbLine
6
CONTINUOUS
62
5
10
219.350000
20
241.500000
11
221.350000
21
240.500000
0
LINE
5
5d6
100
AcDbEntity
8
1
100
AcDbLine
6
CONTINUOUS
62
5
10
220.850000
20
240.000000
11
219.850000
21
242.000000
0
LINE
5
5d7
100
AcDbEntity
8
1
100
AcDbLine
6
CONTINUOUS
62
5
10
220.850000
20
242.000000
11
219.850000
21
240.000000
0
LINE
5
5d8
100
AcDbEntity
8
1
100
AcDbLine
6
CONTINUOUS
62
5
10
100.350000
20
216.000000
11
73.000000
21
216.000000
0
LINE
5
5d9
100
AcDbEntity
8
1
100
AcDbLine
6
CONTINUOUS
62
5
10
100.350000
20
104.000000
11
73.000000
21
104.000000
0
POLYLINE
5
5da
100
AcDbEntity
8
1
6
CONTINUOUS
62
5
100
AcDb2dPolyline
66
1
10
0.0
20
0.0
30
0.0
70
0
0
VERTEX
5
5db
100
AcDbEntity
8
1
100
AcDbVertex
100
AcDb2dVertex
62
5
10
75.000000
20
160.000000
0
VERTEX
5
5dc
100
AcDbEntity
8
1
100
AcDbVertex
100
AcDb2dVertex
62
5
10
75.000000
20
104.000000
0
VERTEX
5
5dd
100
AcDbEntity
8
1
100
AcDbVertex
100
AcDb2dVertex
62
5
10
74.000000
20
110.000000
0
VERTEX
5
5de
100
AcDbEntity
8
1
100
AcDbVertex
100
AcDb2dVertex
62
5
10
76.000000
20
110.000000
0
VERTEX
5
5df
100
AcDbEntity
8
1
100
AcDbVertex
100
AcDb2dVertex
62
5
10
75.000000
20
104.000000
0
VERTEX
5
5e0
100
AcDbEntity
8
1
100
AcDbVertex
100
AcDb2dVertex
62
5
10
74.500000
20
110.000000
0
VERTEX
5
5e1
100
AcDbEntity
8
1
100
AcDbVertex
100
AcDb2dVertex
62
5
10
75.500000
20
110.000000
0
VERTEX
5
5e2
100
AcDbEntity
8
1
100
AcDbVertex
100
AcDb2dVertex
62
5
10
75.000000
20
104.000000
0
SEQEND
5
5e3
100
AcDbEntity
8
1
0
POLYLINE
5
5e4
100
AcDbEntity
8
1
6
CONTINUOUS
62
5
100
AcDb2dPolyline
66
1
10
0.0
20
0.0
30
0.0
70
0
0
VERTEX
5
5e5
100
AcDbEntity
8
1
100
AcDbVertex
100
AcDb2dVertex
62
5
10
75.000000
20
160.000000
0
VERTEX
5
5e6
100
AcDbEntity
8
1
100
AcDbVertex
100
AcDb2dVertex
62
5
10
75.000000
20
216.000000
0
VERTEX
5
5e7
100
AcDbEntity
8
1
100
AcDbVertex
100
AcDb2dVertex
62
5
10
76.000000
20
210.000000
0
VERTEX
5
5e8
100
AcDbEntity
8
1
100
AcDbVertex
100
AcDb2dVertex
62
5
10
74.000000
20
210.000000
0
VERTEX
5
5e9
100
AcDbEntity
8
1
100
AcDbVertex
100
AcDb2dVertex
62
5
10
75.000000
20
216.000000
0
VERTEX
5
5ea
100
AcDbEntity
8
1
100
AcDbVertex
100
AcDb2dVertex
62
5
10
75.500000
20
210.000000
0
VERTEX
5
5eb
100
AcDbEntity
8
1
100
AcDbVertex
100
AcDb2dVertex
62
5
10
74.500000
20
210.000000
0
VERTEX
5
5ec
100
AcDbEntity
8
1
100
AcDbVertex
100
AcDb2dVertex
62
5
10
75.000000
20
216.000000
0
SEQEND
5
5ed
100
AcDbEntity
8
1
0
ARC
5
5ee
100
AcDbEntity
8
1
100
AcDbCircle
6
CONTINUOUS
62
5
10
233.650000
20
179.108027
40
2.000000
100
AcDbArc
50
0.000000
51
86.820169
0
LINE
5
5ef
100
AcDbEntity
8
1
100
AcDbLine
6
CONTINUOUS
62
5
10
228.150000
20
181.500000
11
233.760940
21
181.104948
0
ARC
5
5f0
100
AcDbEntity
8
1
100
AcDbCircle
6
CONTINUOUS
62
5
10
234.650000
20
178.960066
40
0.500000
100
AcDbArc
50
-85.236358
51
0.000000
0
LINE
5
5f1
100
AcDbEntity
8
1
100
AcDbLine
6
CONTINUOUS
62
5
10
235.150000
20
178.960066
11
235.150000
21
180.039934
0
ARC
5
5f2
100
AcDbEntity
8
1
100
AcDbCircle
6
CONTINUOUS
62
5
10
234.650000
20
180.039934
40
0.500000
100
AcDbArc
50
0.000000
51
85.236358
0
LINE
5
5f3
100
AcDbEntity
8
1
100
AcDbLine
6
CONTINUOUS
62
5
10
234.691523
20
180.538206
11
228.150000
21
181.000000
0
POLYLINE
5
5f4
100
AcDbEntity
8
1
6
CONTINUOUS
62
5
100
AcDb2dPolyline
66
1
10
0.0
20
0.0
30
0.0
70
0
0
VERTEX
5
5f5
100
AcDbEntity
8
1
100
AcDbVertex
100
AcDb2dVertex
62
5
10
227.650000
20
178.000000
0
VERTEX
5
5f6
100
AcDbEntity
8
1
100
AcDbVertex
100
AcDb2dVertex
62
5
10
228.150000
20
178.000000
0
VERTEX
5
5f7
100
AcDbEntity
8
1
100
AcDbVertex
100
AcDb2dVertex
62
5
10
234.691523
20
178.461794
0
SEQEND
5
5f8
100
AcDbEntity
8
1
0
ARC
5
5f9
100
AcDbEntity
8
1
100
AcDbCircle
6
CONTINUOUS
62
5
10
222.150000
20
179.000000
40
1.000000
100
AcDbArc
50
179.999998
51
-89.999999
0
LINE
5
5fa
100
AcDbEntity
8
1
100
AcDbLine
6
CONTINUOUS
62
5
10
222.150000
20
178.000000
11
224.150000
21
178.000000
0
LINE
5
5fb
100
AcDbEntity
8
1
100
AcDbLine
6
CONTINUOUS
62
5
10
224.150000
20
194.000000
11
222.150000
21
194.000000
0
ARC
5
5fc
100
AcDbEntity
8
1
100
AcDbCircle
6
CONTINUOUS
62
5
10
222.150000
20
193.000000
40
1.000000
100
AcDbArc
50
89.999999
51
179.999998
0
LINE
5
5fd
100
AcDbEntity
8
1
100
AcDbLine
6
CONTINUOUS
62
5
10
221.150000
20
193.000000
11
221.150000
21
179.000000
0
ARC
5
5fe
100
AcDbEntity
8
1
100
AcDbCircle
6
CONTINUOUS
62
5
10
227.650000
20
178.500000
40
0.500000
100
AcDbArc
50
-89.999999
51
-0.000000
0
POLYLINE
5
5ff
100
AcDbEntity
8
1
6
CONTINUOUS
62
5
100
AcDb2dPolyline
66
1
10
0.0
20
0.0
30
0.0
70
0
0
VERTEX
5
600
100
AcDbEntity
8
1
100
AcDbVertex
100
AcDb2dVertex
62
5
10
228.150000
20
178.500000
0
VERTEX
5
601
100
AcDbEntity
8
1
100
AcDbVertex
100
AcDb2dVertex
62
5
10
228.150000
20
183.000000
0
VERTEX
5
602
100
AcDbEntity
8
1
100
AcDbVertex
100
AcDb2dVertex
62
5
10
227.290593
20
184.632873
0
SEQEND
5
603
100
AcDbEntity
8
1
0
ARC
5
604
100
AcDbEntity
8
1
100
AcDbCircle
6
CONTINUOUS
62
5
10
226.848134
20
184.400000
40
0.500000
100
AcDbArc
50
27.758540
51
52.862337
0
LINE
5
605
100
AcDbEntity
8
1
100
AcDbLine
6
CONTINUOUS
62
5
10
226.150000
20
178.000000
11
227.650000
21
178.000000
0
ARC
5
606
100
AcDbEntity
8
1
100
AcDbCircle
6
CONTINUOUS
62
5
10
226.150000
20
179.000000
40
1.000000
100
AcDbArc
50
-89.999999
51
-0.000000
0
LINE
5
607
100
AcDbEntity
8
1
100
AcDbLine
6
CONTINUOUS
62
5
10
227.150000
20
179.000000
11
227.150000
21
190.209413
0
ARC
5
608
100
AcDbEntity
8
1
100
AcDbCircle
6
CONTINUOUS
62
5
10
226.837843
20
190.600000
40
0.500000
100
AcDbArc
50
-51.368135
51
-26.045768
0
POLYLINE
5
609
100
AcDbEntity
8
1
6
CONTINUOUS
62
5
100
AcDb2dPolyline
66
1
10
0.0
20
0.0
30
0.0
70
0
0
VERTEX
5
60a
100
AcDbEntity
8
1
100
AcDbVertex
100
AcDb2dVertex
62
5
10
227.287065
20
190.380456
0
VERTEX
5
60b
100
AcDbEntity
8
1
100
AcDbVertex
100
AcDb2dVertex
62
5
10
228.150000
20
192.146154
0
VERTEX
5
60c
100
AcDbEntity
8
1
100
AcDbVertex
100
AcDb2dVertex
62
5
10
228.150000
20
193.365015
0
SEQEND
5
60d
100
AcDbEntity
8
1
0
ARC
5
60e
100
AcDbEntity
8
1
100
AcDbCircle
6
CONTINUOUS
62
5
10
227.650000
20
193.365015
40
0.500000
100
AcDbArc
50
-0.000000
51
72.243812
0
LINE
5
60f
100
AcDbEntity
8
1
100
AcDbLine
6
CONTINUOUS
62
5
10
224.150000
20
178.000000
11
226.150000
21
178.000000
0
ARC
5
610
100
AcDbEntity
8
1
100
AcDbCircle
6
CONTINUOUS
62
5
10
233.650000
20
191.585067
40
2.000000
100
AcDbArc
50
0.000000
51
87.510446
0
LINE
5
611
100
AcDbEntity
8
1
100
AcDbLine
6
CONTINUOUS
62
5
10
233.736874
20
193.583179
11
224.150000
21
194.000000
0
LINE
5
612
100
AcDbEntity
8
1
100
AcDbLine
6
CONTINUOUS
62
5
10
235.650000
20
170.634819
11
235.650000
21
191.585067
0
ARC
5
613
100
AcDbEntity
8
1
100
AcDbCircle
6
CONTINUOUS
62
5
10
90.050000
20
185.000000
40
30.000000
100
AcDbArc
50
-9.718387
51
11.940544
0
ARC
5
614
100
AcDbEntity
8
1
100
AcDbCircle
6
CONTINUOUS
62
5
10
118.633831
20
180.104635
40
1.000000
100
AcDbArc
50
-86.952726
51
-9.718387
0
ARC
5
615
100
AcDbEntity
8
1
100
AcDbCircle
6
CONTINUOUS
62
5
10
114.700000
20
254.000000
40
75.000000
100
AcDbArc
50
-92.827222
51
-86.952726
0
ARC
5
616
100
AcDbEntity
8
1
100
AcDbCircle
6
CONTINUOUS
62
5
10
111.050000
20
180.090072
40
1.000000
100
AcDbArc
50
179.999998
51
-92.827222
0
LINE
5
617
100
AcDbEntity
8
1
100
AcDbLine
6
CONTINUOUS
62
5
10
110.050000
20
180.090072
11
110.050000
21
191.000000
0
ARC
5
618
100
AcDbEntity
8
1
100
AcDbCircle
6
CONTINUOUS
62
5
10
111.050000
20
191.000000
40
1.000000
100
AcDbArc
50
89.999999
51
179.999998
0
LINE
5
619
100
AcDbEntity
8
1
100
AcDbLine
6
CONTINUOUS
62
5
10
111.050000
20
192.000000
11
118.422522
21
192.000000
0
ARC
5
61a
100
AcDbEntity
8
1
100
AcDbCircle
6
CONTINUOUS
62
5
10
118.422522
20
191.000000
40
1.000000
100
AcDbArc
50
11.940544
51
89.999999
0
ARC
5
61b
100
AcDbEntity
8
1
100
AcDbCircle
6
CONTINUOUS
62
5
10
123.677478
20
191.000000
40
1.000000
100
AcDbArc
50
89.999999
51
168.059455
0
ARC
5
61c
100
AcDbEntity
8
1
100
AcDbCircle
6
CONTINUOUS
62
5
10
152.050000
20
185.000000
40
30.000000
100
AcDbArc
50
168.059455
51
-170.071807
0
ARC
5
61d
100
AcDbEntity
8
1
100
AcDbCircle
6
CONTINUOUS
62
5
10
123.484286
20
180.000000
40
1.000000
100
AcDbArc
50
-170.071807
51
-89.999999
0
LINE
5
61e
100
AcDbEntity
8
1
100
AcDbLine
6
CONTINUOUS
62
5
10
123.484286
20
179.000000
11
131.050000
21
179.000000
0
ARC
5
61f
100
AcDbEntity
8
1
100
AcDbCircle
6
CONTINUOUS
62
5
10
131.050000
20
180.000000
40
1.000000
100
AcDbArc
50
-89.999999
51
0.000000
0
LINE
5
620
100
AcDbEntity
8
1
100
AcDbLine
6
CONTINUOUS
62
5
10
132.050000
20
180.000000
11
132.050000
21
191.000000
0
ARC
5
621
100
AcDbEntity
8
1
100
AcDbCircle
6
CONTINUOUS
62
5
10
131.050000
20
191.000000
40
1.000000
100
AcDbArc
50
0.000000
51
89.999999
0
LINE
5
622
100
AcDbEntity
8
1
100
AcDbLine
6
CONTINUOUS
62
5
10
131.050000
20
192.000000
11
123.677478
21
192.000000
0
ARC
5
623
100
AcDbEntity
8
1
100
AcDbCircle
6
CONTINUOUS
62
5
10
123.677478
20
191.000000
40
1.000000
100
AcDbArc
50
89.999999
51
168.059455
0
ARC
5
624
100
AcDbEntity
8
1
100
AcDbCircle
6
CONTINUOUS
62
5
10
152.050000
20
185.000000
40
30.000000
100
AcDbArc
50
168.059455
51
-170.071807
0
ARC
5
625
100
AcDbEntity
8
1
100
AcDbCircle
6
CONTINUOUS
62
5
10
123.484286
20
180.000000
40
1.000000
100
AcDbArc
50
-170.071807
51
-89.999999
0
LINE
5
626
100
AcDbEntity
8
1
100
AcDbLine
6
CONTINUOUS
62
5
10
123.484286
20
179.000000
11
131.050000
21
179.000000
0
ARC
5
627
100
AcDbEntity
8
1
100
AcDbCircle
6
CONTINUOUS
62
5
10
131.050000
20
180.000000
40
1.000000
100
AcDbArc
50
-89.999999
51
0.000000
0
LINE
5
628
100
AcDbEntity
8
1
100
AcDbLine
6
CONTINUOUS
62
5
10
132.050000
20
180.000000
11
132.050000
21
191.000000
0
ARC
5
629
100
AcDbEntity
8
1
100
AcDbCircle
6
CONTINUOUS
62
5
10
131.050000
20
191.000000
40
1.000000
100
AcDbArc
50
0.000000
51
89.999999
0
LINE
5
62a
100
AcDbEntity
8
1
100
AcDbLine
6
CONTINUOUS
62
5
10
131.050000
20
192.000000
11
123.677478
21
192.000000
0
POLYLINE
5
62b
100
AcDbEntity
8
1
6
CONTINUOUS
62
5
100
AcDb2dPolyline
66
1
10
0.0
20
0.0
30
0.0
70
0
0
VERTEX
5
62c
100
AcDbEntity
8
1
100
AcDbVertex
100
AcDb2dVertex
62
5
10
220.405556
20
125.650000
0
VERTEX
5
62d
100
AcDbEntity
8
1
100
AcDbVertex
100
AcDb2dVertex
62
5
10
224.150000
20
125.650000
0
VERTEX
5
62e
100
AcDbEntity
8
1
100
AcDbVertex
100
AcDb2dVertex
62
5
10
224.150000
20
194.350000
0
VERTEX
5
62f
100
AcDbEntity
8
1
100
AcDbVertex
100
AcDb2dVertex
62
5
10
220.405556
20
194.350000
0
SEQEND
5
630
100
AcDbEntity
8
1
0
ARC
5
631
100
AcDbEntity
8
1
100
AcDbCircle
6
CONTINUOUS
62
5
10
213.150000
20
193.650000
40
0.700000
100
AcDbArc
50
89.999999
51
179.999998
0
LINE
5
632
100
AcDbEntity
8
1
100
AcDbLine
6
CONTINUOUS
62
5
10
212.450000
20
193.650000
11
212.450000
21
126.350000
0
ARC
5
633
100
AcDbEntity
8
1
100
AcDbCircle
6
CONTINUOUS
62
5
10
213.150000
20
126.350000
40
0.700000
100
AcDbArc
50
-179.999998
51
-89.999999
0
LINE
5
634
100
AcDbEntity
8
1
100
AcDbLine
6
CONTINUOUS
62
5
10
213.150000
20
125.650000
11
216.550000
21
125.650000
0
LINE
5
635
100
AcDbEntity
8
1
100
AcDbLine
6
CONTINUOUS
62
5
10
216.550000
20
194.350000
11
213.150000
21
194.350000
0
ARC
5
636
100
AcDbEntity
8
1
100
AcDbCircle
6
CONTINUOUS
62
5
10
218.550000
20
200.500000
40
2.000000
100
AcDbArc
50
89.999999
51
179.999998
0
LINE
5
637
100
AcDbEntity
8
1
100
AcDbLine
6
CONTINUOUS
62
5
10
216.550000
20
200.500000
11
216.550000
21
119.500000
0
ARC
5
638
100
AcDbEntity
8
1
100
AcDbCircle
6
CONTINUOUS
62
5
10
218.550000
20
119.500000
40
2.000000
100
AcDbArc
50
179.999998
51
-89.999999
0
POLYLINE
5
639
100
AcDbEntity
8
1
6
CONTINUOUS
62
5
100
AcDb2dPolyline
66
1
10
0.0
20
0.0
30
0.0
70
0
0
VERTEX
5
63a
100
AcDbEntity
8
1
100
AcDbVertex
100
AcDb2dVertex
62
5
10
218.550000
20
117.500000
0
VERTEX
5
63b
100
AcDbEntity
8
1
100
AcDbVertex
100
AcDb2dVertex
62
5
10
220.350000
20
117.500000
0
VERTEX
5
63c
100
AcDbEntity
8
1
100
AcDbVertex
100
AcDb2dVertex
62
5
10
220.350000
20
125.400000
0
VERTEX
5
63d
100
AcDbEntity
8
1
100
AcDbVertex
100
AcDb2dVertex
62
5
10
221.150000
20
129.000000
0
VERTEX
5
63e
100
AcDbEntity
8
1
100
AcDbVertex
100
AcDb2dVertex
62
5
10
221.150000
20
191.000000
0
SEQEND
5
63f
100
AcDbEntity
8
1
0
POLYLINE
5
640
100
AcDbEntity
8
1
6
CONTINUOUS
62
5
100
AcDb2dPolyline
66
1
10
0.0
20
0.0
30
0.0
70
0
0
VERTEX
5
641
100
AcDbEntity
8
1
100
AcDbVertex
100
AcDb2dVertex
62
5
10
221.150000
20
191.000000
0
VERTEX
5
642
100
AcDbEntity
8
1
100
AcDbVertex
100
AcDb2dVertex
62
5
10
220.350000
20
194.600000
0
VERTEX
5
643
100
AcDbEntity
8
1
100
AcDbVertex
100
AcDb2dVertex
62
5
10
220.350000
20
202.500000
0
VERTEX
5
644
100
AcDbEntity
8
1
100
AcDbVertex
100
AcDb2dVertex
62
5
10
218.550000
20
202.500000
0
SEQEND
5
645
100
AcDbEntity
8
1
0
LINE
5
646
100
AcDbEntity
8
1
100
AcDbLine
6
CONTINUOUS
62
5
10
136.358333
20
194.000000
11
134.809934
21
194.000000
0
LINE
5
647
100
AcDbEntity
8
1
100
AcDbLine
6
CONTINUOUS
62
5
10
134.809934
20
126.000000
11
136.358333
21
126.000000
0
LINE
5
648
100
AcDbEntity
8
1
100
AcDbLine
6
CONTINUOUS
62
5
10
107.290066
20
126.000000
11
105.741667
21
126.000000
0
LINE
5
649
100
AcDbEntity
8
1
100
AcDbLine
6
CONTINUOUS
62
5
10
105.741667
20
194.000000
11
107.290066
21
194.000000
0
ARC
5
64a
100
AcDbEntity
8
1
100
AcDbCircle
6
CONTINUOUS
62
5
10
105.200000
20
184.100000
40
1.000000
100
AcDbArc
50
179.999998
51
-89.999999
0
POLYLINE
5
64b
100
AcDbEntity
8
1
6
CONTINUOUS
62
5
100
AcDb2dPolyline
66
1
10
0.0
20
0.0
30
0.0
70
0
0
VERTEX
5
64c
100
AcDbEntity
8
1
100
AcDbVertex
100
AcDb2dVertex
62
5
10
105.200000
20
183.100000
0
VERTEX
5
64d
100
AcDbEntity
8
1
100
AcDbVertex
100
AcDb2dVertex
62
5
10
105.650000
20
183.100000
0
VERTEX
5
64e
100
AcDbEntity
8
1
100
AcDbVertex
100
AcDb2dVertex
62
5
10
105.650000
20
175.750000
0
VERTEX
5
64f
100
AcDbEntity
8
1
100
AcDbVertex
100
AcDb2dVertex
62
5
10
106.800000
20
175.750000
0
VERTEX
5
650
100
AcDbEntity
8
1
100
AcDbVertex
100
AcDb2dVertex
62
5
10
106.800000
20
167.000000
0
VERTEX
5
651
100
AcDbEntity
8
1
100
AcDbVertex
100
AcDb2dVertex
62
5
10
105.650000
20
167.000000
0
VERTEX
5
652
100
AcDbEntity
8
1
100
AcDbVertex
100
AcDb2dVertex
62
5
10
105.650000
20
153.000000
0
VERTEX
5
653
100
AcDbEntity
8
1
100
AcDbVertex
100
AcDb2dVertex
62
5
10
106.650000
20
153.000000
0
VERTEX
5
654
100
AcDbEntity
8
1
100
AcDbVertex
100
AcDb2dVertex
62
5
10
106.650000
20
144.250000
0
VERTEX
5
655
100
AcDbEntity
8
1
100
AcDbVertex
100
AcDb2dVertex
62
5
10
105.650000
20
144.250000
0
VERTEX
5
656
100
AcDbEntity
8
1
100
AcDbVertex
100
AcDb2dVertex
62
5
10
105.650000
20
136.900000
0
VERTEX
5
657
100
AcDbEntity
8
1
100
AcDbVertex
100
AcDb2dVertex
62
5
10
105.200000
20
136.900000
0
SEQEND
5
658
100
AcDbEntity
8
1
0
ARC
5
659
100
AcDbEntity
8
1
100
AcDbCircle
6
CONTINUOUS
62
5
10
105.200000
20
135.900000
40
1.000000
100
AcDbArc
50
89.999999
51
179.999998
0
POLYLINE
5
65a
100
AcDbEntity
8
1
6
CONTINUOUS
62
5
100
AcDb2dPolyline
66
1
10
0.0
20
0.0
30
0.0
70
0
0
VERTEX
5
65b
100
AcDbEntity
8
1
100
AcDbVertex
100
AcDb2dVertex
62
5
10
104.200000
20
135.900000
0
VERTEX
5
65c
100
AcDbEntity
8
1
100
AcDbVertex
100
AcDb2dVertex
62
5
10
104.200000
20
134.900000
0
VERTEX
5
65d
100
AcDbEntity
8
1
100
AcDbVertex
100
AcDb2dVertex
62
5
10
105.400000
20
134.900000
0
VERTEX
5
65e
100
AcDbEntity
8
1
100
AcDbVertex
100
AcDb2dVertex
62
5
10
105.400000
20
130.100000
0
VERTEX
5
65f
100
AcDbEntity
8
1
100
AcDbVertex
100
AcDb2dVertex
62
5
10
104.200000
20
130.100000
0
VERTEX
5
660
100
AcDbEntity
8
1
100
AcDbVertex
100
AcDb2dVertex
62
5
10
104.200000
20
129.000000
0
VERTEX
5
661
100
AcDbEntity
8
1
100
AcDbVertex
100
AcDb2dVertex
62
5
10
106.050000
20
125.400000
0
VERTEX
5
662
100
AcDbEntity
8
1
100
AcDbVertex
100
AcDb2dVertex
62
5
10
106.050000
20
124.600000
0
VERTEX
5
663
100
AcDbEntity
8
1
100
AcDbVertex
100
AcDb2dVertex
62
5
10
118.450000
20
124.600000
0
VERTEX
5
664
100
AcDbEntity
8
1
100
AcDbVertex
100
AcDb2dVertex
62
5
10
118.300000
20
123.800000
0
VERTEX
5
665
100
AcDbEntity
8
1
100
AcDbVertex
100
AcDb2dVertex
62
5
10
123.800000
20
123.800000
0
VERTEX
5
666
100
AcDbEntity
8
1
100
AcDbVertex
100
AcDb2dVertex
62
5
10
123.650000
20
124.600000
0
VERTEX
5
667
100
AcDbEntity
8
1
100
AcDbVertex
100
AcDb2dVertex
62
5
10
136.050000
20
124.600000
0
VERTEX
5
668
100
AcDbEntity
8
1
100
AcDbVertex
100
AcDb2dVertex
62
5
10
136.050000
20
125.400000
0
VERTEX
5
669
100
AcDbEntity
8
1
100
AcDbVertex
100
AcDb2dVertex
62
5
10
137.900000
20
129.000000
0
VERTEX
5
66a
100
AcDbEntity
8
1
100
AcDbVertex
100
AcDb2dVertex
62
5
10
137.900000
20
130.100000
0
VERTEX
5
66b
100
AcDbEntity
8
1
100
AcDbVertex
100
AcDb2dVertex
62
5
10
136.700000
20
130.100000
0
VERTEX
5
66c
100
AcDbEntity
8
1
100
AcDbVertex
100
AcDb2dVertex
62
5
10
136.700000
20
134.900000
0
VERTEX
5
66d
100
AcDbEntity
8
1
100
AcDbVertex
100
AcDb2dVertex
62
5
10
137.900000
20
134.900000
0
VERTEX
5
66e
100
AcDbEntity
8
1
100
AcDbVertex
100
AcDb2dVertex
62
5
10
137.900000
20
135.900000
0
SEQEND
5
66f
100
AcDbEntity
8
1
0
ARC
5
670
100
AcDbEntity
8
1
100
AcDbCircle
6
CONTINUOUS
62
5
10
136.900000
20
135.900000
40
1.000000
100
AcDbArc
50
0.000000
51
89.999999
0
POLYLINE
5
671
100
AcDbEntity
8
1
6
CONTINUOUS
62
5
100
AcDb2dPolyline
66
1
10
0.0
20
0.0
30
0.0
70
0
0
VERTEX
5
672
100
AcDbEntity
8
1
100
AcDbVertex
100
AcDb2dVertex
62
5
10
136.900000
20
136.900000
0
VERTEX
5
673
100
AcDbEntity
8
1
100
AcDbVertex
100
AcDb2dVertex
62
5
10
136.450000
20
136.900000
0
VERTEX
5
674
100
AcDbEntity
8
1
100
AcDbVertex
100
AcDb2dVertex
62
5
10
136.450000
20
144.250000
0
VERTEX
5
675
100
AcDbEntity
8
1
100
AcDbVertex
100
AcDb2dVertex
62
5
10
135.300000
20
144.250000
0
VERTEX
5
676
100
AcDbEntity
8
1
100
AcDbVertex
100
AcDb2dVertex
62
5
10
135.300000
20
146.950000
0
VERTEX
5
677
100
AcDbEntity
8
1
100
AcDbVertex
100
AcDb2dVertex
62
5
10
136.850000
20
146.950000
0
VERTEX
5
678
100
AcDbEntity
8
1
100
AcDbVertex
100
AcDb2dVertex
62
5
10
136.850000
20
151.050000
0
VERTEX
5
679
100
AcDbEntity
8
1
100
AcDbVertex
100
AcDb2dVertex
62
5
10
135.300000
20
151.050000
0
VERTEX
5
67a
100
AcDbEntity
8
1
100
AcDbVertex
100
AcDb2dVertex
62
5
10
135.300000
20
153.000000
0
VERTEX
5
67b
100
AcDbEntity
8
1
100
AcDbVertex
100
AcDb2dVertex
62
5
10
136.450000
20
153.000000
0
VERTEX
5
67c
100
AcDbEntity
8
1
100
AcDbVertex
100
AcDb2dVertex
62
5
10
136.450000
20
167.000000
0
VERTEX
5
67d
100
AcDbEntity
8
1
100
AcDbVertex
100
AcDb2dVertex
62
5
10
135.300000
20
167.000000
0
VERTEX
5
67e
100
AcDbEntity
8
1
100
AcDbVertex
100
AcDb2dVertex
62
5
10
135.300000
20
175.750000
0
VERTEX
5
67f
100
AcDbEntity
8
1
100
AcDbVertex
100
AcDb2dVertex
62
5
10
136.450000
20
175.750000
0
VERTEX
5
680
100
AcDbEntity
8
1
100
AcDbVertex
100
AcDb2dVertex
62
5
10
136.450000
20
183.100000
0
VERTEX
5
681
100
AcDbEntity
8
1
100
AcDbVertex
100
AcDb2dVertex
62
5
10
136.900000
20
183.100000
0
SEQEND
5
682
100
AcDbEntity
8
1
0
ARC
5
683
100
AcDbEntity
8
1
100
AcDbCircle
6
CONTINUOUS
62
5
10
136.900000
20
184.100000
40
1.000000
100
AcDbArc
50
-89.999999
51
0.000000
0
POLYLINE
5
684
100
AcDbEntity
8
1
6
CONTINUOUS
62
5
100
AcDb2dPolyline
66
1
10
0.0
20
0.0
30
0.0
70
0
0
VERTEX
5
685
100
AcDbEntity
8
1
100
AcDbVertex
100
AcDb2dVertex
62
5
10
137.900000
20
184.100000
0
VERTEX
5
686
100
AcDbEntity
8
1
100
AcDbVertex
100
AcDb2dVertex
62
5
10
137.900000
20
185.100000
0
VERTEX
5
687
100
AcDbEntity
8
1
100
AcDbVertex
100
AcDb2dVertex
62
5
10
136.700000
20
185.100000
0
VERTEX
5
688
100
AcDbEntity
8
1
100
AcDbVertex
100
AcDb2dVertex
62
5
10
136.700000
20
189.900000
0
VERTEX
5
689
100
AcDbEntity
8
1
100
AcDbVertex
100
AcDb2dVertex
62
5
10
137.900000
20
189.900000
0
VERTEX
5
68a
100
AcDbEntity
8
1
100
AcDbVertex
100
AcDb2dVertex
62
5
10
137.900000
20
191.000000
0
VERTEX
5
68b
100
AcDbEntity
8
1
100
AcDbVertex
100
AcDb2dVertex
62
5
10
136.050000
20
194.600000
0
VERTEX
5
68c
100
AcDbEntity
8
1
100
AcDbVertex
100
AcDb2dVertex
62
5
10
136.050000
20
195.400000
0
VERTEX
5
68d
100
AcDbEntity
8
1
100
AcDbVertex
100
AcDb2dVertex
62
5
10
106.050000
20
195.400000
0
VERTEX
5
68e
100
AcDbEntity
8
1
100
AcDbVertex
100
AcDb2dVertex
62
5
10
106.050000
20
194.600000
0
VERTEX
5
68f
100
AcDbEntity
8
1
100
AcDbVertex
100
AcDb2dVertex
62
5
10
104.200000
20
191.000000
0
VERTEX
5
690
100
AcDbEntity
8
1
100
AcDbVertex
100
AcDb2dVertex
62
5
10
104.200000
20
189.900000
0
VERTEX
5
691
100
AcDbEntity
8
1
100
AcDbVertex
100
AcDb2dVertex
62
5
10
105.400000
20
189.900000
0
VERTEX
5
692
100
AcDbEntity
8
1
100
AcDbVertex
100
AcDb2dVertex
62
5
10
105.400000
20
185.100000
0
VERTEX
5
693
100
AcDbEntity
8
1
100
AcDbVertex
100
AcDb2dVertex
62
5
10
104.200000
20
185.100000
0
VERTEX
5
694
100
AcDbEntity
8
1
100
AcDbVertex
100
AcDb2dVertex
62
5
10
104.200000
20
184.100000
0
SEQEND
5
695
100
AcDbEntity
8
1
0
ARC
5
696
100
AcDbEntity
8
1
100
AcDbCircle
6
CONTINUOUS
62
5
10
134.050000
20
126.650000
40
1.000000
100
AcDbArc
50
-89.999999
51
0.000000
0
LINE
5
697
100
AcDbEntity
8
1
100
AcDbLine
6
CONTINUOUS
62
5
10
135.050000
20
126.650000
11
135.050000
21
193.350000
0
ARC
5
698
100
AcDbEntity
8
1
100
AcDbCircle
6
CONTINUOUS
62
5
10
134.050000
20
193.350000
40
1.000000
100
AcDbArc
50
0.000000
51
89.999999
0
LINE
5
699
100
AcDbEntity
8
1
100
AcDbLine
6
CONTINUOUS
62
5
10
134.050000
20
194.350000
11
108.050000
21
194.350000
0
ARC
5
69a
100
AcDbEntity
8
1
100
AcDbCircle
6
CONTINUOUS
62
5
10
108.050000
20
193.350000
40
1.000000
100
AcDbArc
50
89.999999
51
179.999998
0
LINE
5
69b
100
AcDbEntity
8
1
100
AcDbLine
6
CONTINUOUS
62
5
10
107.050000
20
193.350000
11
107.050000
21
126.650000
0
ARC
5
69c
100
AcDbEntity
8
1
100
AcDbCircle
6
CONTINUOUS
62
5
10
108.050000
20
126.650000
40
1.000000
100
AcDbArc
50
179.999998
51
-89.999999
0
LINE
5
69d
100
AcDbEntity
8
1
100
AcDbLine
6
CONTINUOUS
62
5
10
108.050000
20
125.650000
11
134.050000
21
125.650000
0
LINE
5
69e
100
AcDbEntity
8
1
100
AcDbLine
6
CONTINUOUS
62
5
10
140.250000
20
117.500000
11
140.250000
21
202.500000
0
LINE
5
69f
100
AcDbEntity
8
1
100
AcDbLine
6
CONTINUOUS
62
5
10
101.850000
20
202.500000
11
101.850000
21
117.500000
0
ARC
5
6a0
100
AcDbEntity
8
1
100
AcDbCircle
6
CONTINUOUS
62
5
10
100.550000
20
213.300000
40
0.300000
100
AcDbArc
50
-89.999999
51
0.000000
0
POLYLINE
5
6a1
100
AcDbEntity
8
1
6
CONTINUOUS
62
5
100
AcDb2dPolyline
66
1
10
0.0
20
0.0
30
0.0
70
0
0
VERTEX
5
6a2
100
AcDbEntity
8
1
100
AcDbVertex
100
AcDb2dVertex
62
5
10
100.550000
20
213.000000
0
VERTEX
5
6a3
100
AcDbEntity
8
1
100
AcDbVertex
100
AcDb2dVertex
62
5
10
100.550000
20
213.000000
0
VERTEX
5
6a4
100
AcDbEntity
8
1
100
AcDbVertex
100
AcDb2dVertex
62
5
10
100.550000
20
210.000000
0
SEQEND
5
6a5
100
AcDbEntity
8
1
0
ARC
5
6a6
100
AcDbEntity
8
1
100
AcDbCircle
6
CONTINUOUS
62
5
10
101.550000
20
210.000000
40
1.000000
100
AcDbArc
50
179.999998
51
-89.999999
0
POLYLINE
5
6a7
100
AcDbEntity
8
1
6
CONTINUOUS
62
5
100
AcDb2dPolyline
66
1
10
0.0
20
0.0
30
0.0
70
0
0
VERTEX
5
6a8
100
AcDbEntity
8
1
100
AcDbVertex
100
AcDb2dVertex
62
5
10
101.550000
20
209.000000
0
VERTEX
5
6a9
100
AcDbEntity
8
1
100
AcDbVertex
100
AcDb2dVertex
62
5
10
103.250000
20
209.000000
0
VERTEX
5
6aa
100
AcDbEntity
8
1
100
AcDbVertex
100
AcDb2dVertex
62
5
10
103.250000
20
202.500000
0
VERTEX
5
6ab
100
AcDbEntity
8
1
100
AcDbVertex
100
AcDb2dVertex
62
5
10
100.650000
20
202.500000
0
VERTEX
5
6ac
100
AcDbEntity
8
1
100
AcDbVertex
100
AcDb2dVertex
62
5
10
100.650000
20
117.500000
0
VERTEX
5
6ad
100
AcDbEntity
8
1
100
AcDbVertex
100
AcDb2dVertex
62
5
10
103.250000
20
117.500000
0
VERTEX
5
6ae
100
AcDbEntity
8
1
100
AcDbVertex
100
AcDb2dVertex
62
5
10
103.250000
20
111.000000
0
VERTEX
5
6af
100
AcDbEntity
8
1
100
AcDbVertex
100
AcDb2dVertex
62
5
10
101.550000
20
111.000000
0
SEQEND
5
6b0
100
AcDbEntity
8
1
0
ARC
5
6b1
100
AcDbEntity
8
1
100
AcDbCircle
6
CONTINUOUS
62
5
10
101.550000
20
110.000000
40
1.000000
100
AcDbArc
50
89.999999
51
179.999998
0
POLYLINE
5
6b2
100
AcDbEntity
8
1
6
CONTINUOUS
62
5
100
AcDb2dPolyline
66
1
10
0.0
20
0.0
30
0.0
70
0
0
VERTEX
5
6b3
100
AcDbEntity
8
1
100
AcDbVertex
100
AcDb2dVertex
62
5
10
100.550000
20
110.000000
0
VERTEX
5
6b4
100
AcDbEntity
8
1
100
AcDbVertex
100
AcDb2dVertex
62
5
10
100.550000
20
107.000000
0
VERTEX
5
6b5
100
AcDbEntity
8
1
100
AcDbVertex
100
AcDb2dVertex
62
5
10
100.550000
20
107.000000
0
SEQEND
5
6b6
100
AcDbEntity
8
1
0
ARC
5
6b7
100
AcDbEntity
8
1
100
AcDbCircle
6
CONTINUOUS
62
5
10
100.550000
20
106.700000
40
0.300000
100
AcDbArc
50
0.000000
51
89.999999
0
LINE
5
6b8
100
AcDbEntity
8
1
100
AcDbLine
6
CONTINUOUS
62
5
10
100.850000
20
106.700000
11
100.850000
21
105.000000
0
ARC
5
6b9
100
AcDbEntity
8
1
100
AcDbCircle
6
CONTINUOUS
62
5
10
101.850000
20
105.000000
40
1.000000
100
AcDbArc
50
179.999998
51
-89.999999
0
POLYLINE
5
6ba
100
AcDbEntity
8
1
6
CONTINUOUS
62
5
100
AcDb2dPolyline
66
1
10
0.0
20
0.0
30
0.0
70
0
0
VERTEX
5
6bb
100
AcDbEntity
8
1
100
AcDbVertex
100
AcDb2dVertex
62
5
10
101.850000
20
104.000000
0
VERTEX
5
6bc
100
AcDbEntity
8
1
100
AcDbVertex
100
AcDb2dVertex
62
5
10
118.550000
20
104.000000
0
VERTEX
5
6bd
100
AcDbEntity
8
1
100
AcDbVertex
100
AcDb2dVertex
62
5
10
118.550000
20
105.000000
0
VERTEX
5
6be
100
AcDbEntity
8
1
100
AcDbVertex
100
AcDb2dVertex
62
5
10
123.550000
20
105.000000
0
VERTEX
5
6bf
100
AcDbEntity
8
1
100
AcDbVertex
100
AcDb2dVertex
62
5
10
123.550000
20
104.000000
0
VERTEX
5
6c0
100
AcDbEntity
8
1
100
AcDbVertex
100
AcDb2dVertex
62
5
10
145.850000
20
104.000000
0
SEQEND
5
6c1
100
AcDbEntity
8
1
0
ARC
5
6c2
100
AcDbEntity
8
1
100
AcDbCircle
6
CONTINUOUS
62
5
10
145.850000
20
105.000000
40
1.000000
100
AcDbArc
50
-89.999999
51
0.000000
0
LINE
5
6c3
100
AcDbEntity
8
1
100
AcDbLine
6
CONTINUOUS
62
5
10
146.850000
20
105.000000
11
146.850000
21
105.750000
0
ARC
5
6c4
100
AcDbEntity
8
1
100
AcDbCircle
6
CONTINUOUS
62
5
10
145.850000
20
105.750000
40
1.000000
100
AcDbArc
50
0.000000
51
89.999999
0
LINE
5
6c5
100
AcDbEntity
8
1
100
AcDbLine
6
CONTINUOUS
62
5
10
145.850000
20
106.750000
11
142.050000
21
106.750000
0
ARC
5
6c6
100
AcDbEntity
8
1
100
AcDbCircle
6
CONTINUOUS
62
5
10
142.050000
20
107.250000
40
0.500000
100
AcDbArc
50
179.999998
51
-89.999999
0
LINE
5
6c7
100
AcDbEntity
8
1
100
AcDbLine
6
CONTINUOUS
62
5
10
141.550000
20
107.250000
11
141.550000
21
110.000000
0
ARC
5
6c8
100
AcDbEntity
8
1
100
AcDbCircle
6
CONTINUOUS
62
5
10
140.550000
20
110.000000
40
1.000000
100
AcDbArc
50
0.000000
51
89.999999
0
POLYLINE
5
6c9
100
AcDbEntity
8
1
6
CONTINUOUS
62
5
100
AcDb2dPolyline
66
1
10
0.0
20
0.0
30
0.0
70
0
0
VERTEX
5
6ca
100
AcDbEntity
8
1
100
AcDbVertex
100
AcDb2dVertex
62
5
10
140.550000
20
111.000000
0
VERTEX
5
6cb
100
AcDbEntity
8
1
100
AcDbVertex
100
AcDb2dVertex
62
5
10
138.850000
20
111.000000
0
VERTEX
5
6cc
100
AcDbEntity
8
1
100
AcDbVertex
100
AcDb2dVertex
62
5
10
138.850000
20
117.500000
0
VERTEX
5
6cd
100
AcDbEntity
8
1
100
AcDbVertex
100
AcDb2dVertex
62
5
10
141.450000
20
117.500000
0
VERTEX
5
6ce
100
AcDbEntity
8
1
100
AcDbVertex
100
AcDb2dVertex
62
5
10
141.450000
20
202.500000
0
VERTEX
5
6cf
100
AcDbEntity
8
1
100
AcDbVertex
100
AcDb2dVertex
62
5
10
138.850000
20
202.500000
0
VERTEX
5
6d0
100
AcDbEntity
8
1
100
AcDbVertex
100
AcDb2dVertex
62
5
10
138.850000
20
209.000000
0
VERTEX
5
6d1
100
AcDbEntity
8
1
100
AcDbVertex
100
AcDb2dVertex
62
5
10
140.550000
20
209.000000
0
SEQEND
5
6d2
100
AcDbEntity
8
1
0
ARC
5
6d3
100
AcDbEntity
8
1
100
AcDbCircle
6
CONTINUOUS
62
5
10
140.550000
20
210.000000
40
1.000000
100
AcDbArc
50
-89.999999
51
0.000000
0
LINE
5
6d4
100
AcDbEntity
8
1
100
AcDbLine
6
CONTINUOUS
62
5
10
141.550000
20
210.000000
11
141.550000
21
212.750000
0
ARC
5
6d5
100
AcDbEntity
8
1
100
AcDbCircle
6
CONTINUOUS
62
5
10
142.050000
20
212.750000
40
0.500000
100
AcDbArc
50
89.999999
51
179.999998
0
LINE
5
6d6
100
AcDbEntity
8
1
100
AcDbLine
6
CONTINUOUS
62
5
10
142.050000
20
213.250000
11
145.850000
21
213.250000
0
ARC
5
6d7
100
AcDbEntity
8
1
100
AcDbCircle
6
CONTINUOUS
62
5
10
145.850000
20
214.250000
40
1.000000
100
AcDbArc
50
-89.999999
51
0.000000
0
LINE
5
6d8
100
AcDbEntity
8
1
100
AcDbLine
6
CONTINUOUS
62
5
10
146.850000
20
214.250000
11
146.850000
21
215.000000
0
ARC
5
6d9
100
AcDbEntity
8
1
100
AcDbCircle
6
CONTINUOUS
62
5
10
145.850000
20
215.000000
40
1.000000
100
AcDbArc
50
0.000000
51
89.999999
0
POLYLINE
5
6da
100
AcDbEntity
8
1
6
CONTINUOUS
62
5
100
AcDb2dPolyline
66
1
10
0.0
20
0.0
30
0.0
70
0
0
VERTEX
5
6db
100
AcDbEntity
8
1
100
AcDbVertex
100
AcDb2dVertex
62
5
10
145.850000
20
216.000000
0
VERTEX
5
6dc
100
AcDbEntity
8
1
100
AcDbVertex
100
AcDb2dVertex
62
5
10
123.550000
20
216.000000
0
VERTEX
5
6dd
100
AcDbEntity
8
1
100
AcDbVertex
100
AcDb2dVertex
62
5
10
123.550000
20
215.000000
0
VERTEX
5
6de
100
AcDbEntity
8
1
100
AcDbVertex
100
AcDb2dVertex
62
5
10
118.550000
20
215.000000
0
VERTEX
5
6df
100
AcDbEntity
8
1
100
AcDbVertex
100
AcDb2dVertex
62
5
10
118.550000
20
216.000000
0
VERTEX
5
6e0
100
AcDbEntity
8
1
100
AcDbVertex
100
AcDb2dVertex
62
5
10
101.850000
20
216.000000
0
SEQEND
5
6e1
100
AcDbEntity
8
1
0
ARC
5
6e2
100
AcDbEntity
8
1
100
AcDbCircle
6
CONTINUOUS
62
5
10
101.850000
20
215.000000
40
1.000000
100
AcDbArc
50
89.999999
51
179.999998
0
LINE
5
6e3
100
AcDbEntity
8
1
100
AcDbLine
6
CONTINUOUS
62
5
10
100.850000
20
215.000000
11
100.850000
21
213.300000
0
ARC
5
6e4
100
AcDbEntity
8
1
100
AcDbCircle
6
CONTINUOUS
62
5
10
100.550000
20
213.300000
40
0.300000
100
AcDbArc
50
-89.999999
51
0.000000
0
POLYLINE
5
6e5
100
AcDbEntity
8
1
6
CONTINUOUS
62
5
100
AcDb2dPolyline
66
1
10
0.0
20
0.0
30
0.0
70
0
0
VERTEX
5
6e6
100
AcDbEntity
8
1
100
AcDbVertex
100
AcDb2dVertex
62
5
10
100.550000
20
213.000000
0
VERTEX
5
6e7
100
AcDbEntity
8
1
100
AcDbVertex
100
AcDb2dVertex
62
5
10
100.550000
20
213.000000
0
VERTEX
5
6e8
100
AcDbEntity
8
1
100
AcDbVertex
100
AcDb2dVertex
62
5
10
100.550000
20
210.000000
0
SEQEND
5
6e9
100
AcDbEntity
8
1
0
ARC
5
6ea
100
AcDbEntity
8
1
100
AcDbCircle
6
CONTINUOUS
62
5
10
101.550000
20
210.000000
40
1.000000
100
AcDbArc
50
179.999998
51
-89.999999
0
POLYLINE
5
6eb
100
AcDbEntity
8
1
6
CONTINUOUS
62
5
100
AcDb2dPolyline
66
1
10
0.0
20
0.0
30
0.0
70
0
0
VERTEX
5
6ec
100
AcDbEntity
8
1
100
AcDbVertex
100
AcDb2dVertex
62
5
10
101.550000
20
209.000000
0
VERTEX
5
6ed
100
AcDbEntity
8
1
100
AcDbVertex
100
AcDb2dVertex
62
5
10
103.250000
20
209.000000
0
VERTEX
5
6ee
100
AcDbEntity
8
1
100
AcDbVertex
100
AcDb2dVertex
62
5
10
103.250000
20
202.500000
0
VERTEX
5
6ef
100
AcDbEntity
8
1
100
AcDbVertex
100
AcDb2dVertex
62
5
10
100.650000
20
202.500000
0
VERTEX
5
6f0
100
AcDbEntity
8
1
100
AcDbVertex
100
AcDb2dVertex
62
5
10
100.650000
20
117.500000
0
VERTEX
5
6f1
100
AcDbEntity
8
1
100
AcDbVertex
100
AcDb2dVertex
62
5
10
103.250000
20
117.500000
0
VERTEX
5
6f2
100
AcDbEntity
8
1
100
AcDbVertex
100
AcDb2dVertex
62
5
10
103.250000
20
111.000000
0
VERTEX
5
6f3
100
AcDbEntity
8
1
100
AcDbVertex
100
AcDb2dVertex
62
5
10
101.550000
20
111.000000
0
SEQEND
5
6f4
100
AcDbEntity
8
1
0
ARC
5
6f5
100
AcDbEntity
8
1
100
AcDbCircle
6
CONTINUOUS
62
5
10
101.550000
20
110.000000
40
1.000000
100
AcDbArc
50
89.999999
51
179.999998
0
POLYLINE
5
6f6
100
AcDbEntity
8
1
6
CONTINUOUS
62
5
100
AcDb2dPolyline
66
1
10
0.0
20
0.0
30
0.0
70
0
0
VERTEX
5
6f7
100
AcDbEntity
8
1
100
AcDbVertex
100
AcDb2dVertex
62
5
10
100.550000
20
110.000000
0
VERTEX
5
6f8
100
AcDbEntity
8
1
100
AcDbVertex
100
AcDb2dVertex
62
5
10
100.550000
20
107.000000
0
VERTEX
5
6f9
100
AcDbEntity
8
1
100
AcDbVertex
100
AcDb2dVertex
62
5
10
100.550000
20
107.000000
0
SEQEND
5
6fa
100
AcDbEntity
8
1
0
ARC
5
6fb
100
AcDbEntity
8
1
100
AcDbCircle
6
CONTINUOUS
62
5
10
100.550000
20
106.700000
40
0.300000
100
AcDbArc
50
0.000000
51
89.999999
0
LINE
5
6fc
100
AcDbEntity
8
1
100
AcDbLine
6
CONTINUOUS
62
5
10
100.850000
20
106.700000
11
100.850000
21
105.000000
0
ARC
5
6fd
100
AcDbEntity
8
1
100
AcDbCircle
6
CONTINUOUS
62
5
10
101.850000
20
105.000000
40
1.000000
100
AcDbArc
50
179.999998
51
-89.999999
0
POLYLINE
5
6fe
100
AcDbEntity
8
1
6
CONTINUOUS
62
5
100
AcDb2dPolyline
66
1
10
0.0
20
0.0
30
0.0
70
0
0
VERTEX
5
6ff
100
AcDbEntity
8
1
100
AcDbVertex
100
AcDb2dVertex
62
5
10
101.850000
20
104.000000
0
VERTEX
5
700
100
AcDbEntity
8
1
100
AcDbVertex
100
AcDb2dVertex
62
5
10
118.550000
20
104.000000
0
VERTEX
5
701
100
AcDbEntity
8
1
100
AcDbVertex
100
AcDb2dVertex
62
5
10
118.550000
20
105.000000
0
VERTEX
5
702
100
AcDbEntity
8
1
100
AcDbVertex
100
AcDb2dVertex
62
5
10
123.550000
20
105.000000
0
VERTEX
5
703
100
AcDbEntity
8
1
100
AcDbVertex
100
AcDb2dVertex
62
5
10
123.550000
20
104.000000
0
VERTEX
5
704
100
AcDbEntity
8
1
100
AcDbVertex
100
AcDb2dVertex
62
5
10
145.850000
20
104.000000
0
SEQEND
5
705
100
AcDbEntity
8
1
0
ARC
5
706
100
AcDbEntity
8
1
100
AcDbCircle
6
CONTINUOUS
62
5
10
145.850000
20
105.000000
40
1.000000
100
AcDbArc
50
-89.999999
51
0.000000
0
LINE
5
707
100
AcDbEntity
8
1
100
AcDbLine
6
CONTINUOUS
62
5
10
146.850000
20
105.000000
11
146.850000
21
105.750000
0
ARC
5
708
100
AcDbEntity
8
1
100
AcDbCircle
6
CONTINUOUS
62
5
10
145.850000
20
105.750000
40
1.000000
100
AcDbArc
50
0.000000
51
89.999999
0
LINE
5
709
100
AcDbEntity
8
1
100
AcDbLine
6
CONTINUOUS
62
5
10
145.850000
20
106.750000
11
142.050000
21
106.750000
0
ARC
5
70a
100
AcDbEntity
8
1
100
AcDbCircle
6
CONTINUOUS
62
5
10
142.050000
20
107.250000
40
0.500000
100
AcDbArc
50
179.999998
51
-89.999999
0
LINE
5
70b
100
AcDbEntity
8
1
100
AcDbLine
6
CONTINUOUS
62
5
10
141.550000
20
107.250000
11
141.550000
21
110.000000
0
ARC
5
70c
100
AcDbEntity
8
1
100
AcDbCircle
6
CONTINUOUS
62
5
10
140.550000
20
110.000000
40
1.000000
100
AcDbArc
50
0.000000
51
89.999999
0
POLYLINE
5
70d
100
AcDbEntity
8
1
6
CONTINUOUS
62
5
100
AcDb2dPolyline
66
1
10
0.0
20
0.0
30
0.0
70
0
0
VERTEX
5
70e
100
AcDbEntity
8
1
100
AcDbVertex
100
AcDb2dVertex
62
5
10
140.550000
20
111.000000
0
VERTEX
5
70f
100
AcDbEntity
8
1
100
AcDbVertex
100
AcDb2dVertex
62
5
10
138.850000
20
111.000000
0
VERTEX
5
710
100
AcDbEntity
8
1
100
AcDbVertex
100
AcDb2dVertex
62
5
10
138.850000
20
117.500000
0
VERTEX
5
711
100
AcDbEntity
8
1
100
AcDbVertex
100
AcDb2dVertex
62
5
10
141.450000
20
117.500000
0
VERTEX
5
712
100
AcDbEntity
8
1
100
AcDbVertex
100
AcDb2dVertex
62
5
10
141.450000
20
202.500000
0
VERTEX
5
713
100
AcDbEntity
8
1
100
AcDbVertex
100
AcDb2dVertex
62
5
10
138.850000
20
202.500000
0
VERTEX
5
714
100
AcDbEntity
8
1
100
AcDbVertex
100
AcDb2dVertex
62
5
10
138.850000
20
209.000000
0
VERTEX
5
715
100
AcDbEntity
8
1
100
AcDbVertex
100
AcDb2dVertex
62
5
10
140.550000
20
209.000000
0
SEQEND
5
716
100
AcDbEntity
8
1
0
ARC
5
717
100
AcDbEntity
8
1
100
AcDbCircle
6
CONTINUOUS
62
5
10
140.550000
20
210.000000
40
1.000000
100
AcDbArc
50
-89.999999
51
0.000000
0
LINE
5
718
100
AcDbEntity
8
1
100
AcDbLine
6
CONTINUOUS
62
5
10
141.550000
20
210.000000
11
141.550000
21
212.750000
0
ARC
5
719
100
AcDbEntity
8
1
100
AcDbCircle
6
CONTINUOUS
62
5
10
142.050000
20
212.750000
40
0.500000
100
AcDbArc
50
89.999999
51
179.999998
0
LINE
5
71a
100
AcDbEntity
8
1
100
AcDbLine
6
CONTINUOUS
62
5
10
142.050000
20
213.250000
11
145.850000
21
213.250000
0
ARC
5
71b
100
AcDbEntity
8
1
100
AcDbCircle
6
CONTINUOUS
62
5
10
145.850000
20
214.250000
40
1.000000
100
AcDbArc
50
-89.999999
51
0.000000
0
LINE
5
71c
100
AcDbEntity
8
1
100
AcDbLine
6
CONTINUOUS
62
5
10
146.850000
20
214.250000
11
146.850000
21
215.000000
0
ARC
5
71d
100
AcDbEntity
8
1
100
AcDbCircle
6
CONTINUOUS
62
5
10
145.850000
20
215.000000
40
1.000000
100
AcDbArc
50
0.000000
51
89.999999
0
POLYLINE
5
71e
100
AcDbEntity
8
1
6
CONTINUOUS
62
5
100
AcDb2dPolyline
66
1
10
0.0
20
0.0
30
0.0
70
0
0
VERTEX
5
71f
100
AcDbEntity
8
1
100
AcDbVertex
100
AcDb2dVertex
62
5
10
145.850000
20
216.000000
0
VERTEX
5
720
100
AcDbEntity
8
1
100
AcDbVertex
100
AcDb2dVertex
62
5
10
123.550000
20
216.000000
0
VERTEX
5
721
100
AcDbEntity
8
1
100
AcDbVertex
100
AcDb2dVertex
62
5
10
123.550000
20
215.000000
0
VERTEX
5
722
100
AcDbEntity
8
1
100
AcDbVertex
100
AcDb2dVertex
62
5
10
118.550000
20
215.000000
0
VERTEX
5
723
100
AcDbEntity
8
1
100
AcDbVertex
100
AcDb2dVertex
62
5
10
118.550000
20
216.000000
0
VERTEX
5
724
100
AcDbEntity
8
1
100
AcDbVertex
100
AcDb2dVertex
62
5
10
101.850000
20
216.000000
0
SEQEND
5
725
100
AcDbEntity
8
1
0
ARC
5
726
100
AcDbEntity
8
1
100
AcDbCircle
6
CONTINUOUS
62
5
10
101.850000
20
215.000000
40
1.000000
100
AcDbArc
50
89.999999
51
179.999998
0
LINE
5
727
100
AcDbEntity
8
1
100
AcDbLine
6
CONTINUOUS
62
5
10
100.850000
20
215.000000
11
100.850000
21
213.300000
0
POLYLINE
5
728
100
AcDbEntity
8
1
6
DOT2
62
5
100
AcDb2dPolyline
66
1
10
0.0
20
0.0
30
0.0
70
0
0
VERTEX
5
729
100
AcDbEntity
8
1
100
AcDbVertex
100
AcDb2dVertex
62
5
10
0.000000
20
350.000000
0
VERTEX
5
72a
100
AcDbEntity
8
1
100
AcDbVertex
100
AcDb2dVertex
62
5
10
0.000000
20
360.000000
0
VERTEX
5
72b
100
AcDbEntity
8
1
100
AcDbVertex
100
AcDb2dVertex
62
5
10
10.000000
20
360.000000
0
SEQEND
5
72c
100
AcDbEntity
8
1
0
POLYLINE
5
72d
100
AcDbEntity
8
1
6
DOT2
62
5
100
AcDb2dPolyline
66
1
10
0.0
20
0.0
30
0.0
70
0
0
VERTEX
5
72e
100
AcDbEntity
8
1
100
AcDbVertex
100
AcDb2dVertex
62
5
10
330.000000
20
360.000000
0
VERTEX
5
72f
100
AcDbEntity
8
1
100
AcDbVertex
100
AcDb2dVertex
62
5
10
340.000000
20
360.000000
0
VERTEX
5
730
100
AcDbEntity
8
1
100
AcDbVertex
100
AcDb2dVertex
62
5
10
340.000000
20
350.000000
0
SEQEND
5
731
100
AcDbEntity
8
1
0
POLYLINE
5
732
100
AcDbEntity
8
1
6
DOT2
62
5
100
AcDb2dPolyline
66
1
10
0.0
20
0.0
30
0.0
70
0
0
VERTEX
5
733
100
AcDbEntity
8
1
100
AcDbVertex
100
AcDb2dVertex
62
5
10
340.000000
20
10.000000
0
VERTEX
5
734
100
AcDbEntity
8
1
100
AcDbVertex
100
AcDb2dVertex
62
5
10
340.000000
20
0.000000
0
VERTEX
5
735
100
AcDbEntity
8
1
100
AcDbVertex
100
AcDb2dVertex
62
5
10
330.000000
20
0.000000
0
SEQEND
5
736
100
AcDbEntity
8
1
0
POLYLINE
5
737
100
AcDbEntity
8
1
6
DOT2
62
5
100
AcDb2dPolyline
66
1
10
0.0
20
0.0
30
0.0
70
0
0
VERTEX
5
738
100
AcDbEntity
8
1
100
AcDbVertex
100
AcDb2dVertex
62
5
10
10.000000
20
0.000000
0
VERTEX
5
739
100
AcDbEntity
8
1
100
AcDbVertex
100
AcDb2dVertex
62
5
10
0.000000
20
0.000000
0
VERTEX
5
73a
100
AcDbEntity
8
1
100
AcDbVertex
100
AcDb2dVertex
62
5
10
0.000000
20
10.000000
0
SEQEND
5
73b
100
AcDbEntity
8
1
0
POLYLINE
5
73c
100
AcDbEntity
8
1
6
CONTINUOUS
62
5
100
AcDb2dPolyline
66
1
10
0.0
20
0.0
30
0.0
70
1
0
VERTEX
5
73d
100
AcDbEntity
8
1
100
AcDbVertex
100
AcDb2dVertex
62
5
10
10.000000
20
10.000000
0
VERTEX
5
73e
100
AcDbEntity
8
1
100
AcDbVertex
100
AcDb2dVertex
62
5
10
10.000000
20
350.000000
0
VERTEX
5
73f
100
AcDbEntity
8
1
100
AcDbVertex
100
AcDb2dVertex
62
5
10
330.000000
20
350.000000
0
VERTEX
5
740
100
AcDbEntity
8
1
100
AcDbVertex
100
AcDb2dVertex
62
5
10
330.000000
20
10.000000
0
VERTEX
5
741
100
AcDbEntity
8
1
100
AcDbVertex
100
AcDb2dVertex
62
5
10
10.000000
20
10.000000
0
SEQEND
5
742
100
AcDbEntity
8
1
0
ENDSEC
0
SECTION
2
OBJECTS
0
DICTIONARY
5
743
100
AcDbDictionary
3
ACAD_GROUP
350
744
3
ACAD_MLINESTYLE
350
745
0
DICTIONARY
5
744
102
{ACAD_REACTORS
330
743
102
}
100
AcDbDictionary
0
DICTIONARY
5
745
102
{ACAD_REACTORS
330
743
102
}
100
AcDbDictionary
3
STANDARD
350
746
0
MLINESTYLE
5
746
102
{ACAD_REACTORS
330
745
102
}
100
AcDbMlineStyle
2
STANDARD
70
0
3

62
0
51
90.0
52
90.0
71
2
49
0.5
62
256
6
BYLAYER
49
-0.5
62
256
6
BYLAYER
0
ENDSEC
0
EOF
