0
SECTION
2
HEADER
9
$ACADVER
1
AC1012
9
$EXTMIN
10
-0.010000
20
-0.010000
30
0.0
9
$EXTMAX
10
13.390000
20
14.180000
30
0.0
9
$LIMMIN
10
-0.254000
20
-0.254000
9
$LIMMAX
10
340.106000
20
360.172000
9
$DIMSCALE
40
1.000000
9
$PDMODE
70
2
9
$PDSIZE
40
0.0
  9
$HANDSEED
  5
751
0
ENDSEC
0
SECTION
2
CLASSES
0
ENDSEC
0
SECTION
2
TABLES
0
TABLE
2
LTYPE
5
1e
100
AcDbSymbolTable
70
12
0
LTYPE
5
1f
100
AcDbSymbolTableRecord
100
AcDbLinetypeTableRecord
2
BYBLOCK
70
0
3

72
65
73
0
40
0.0
0
LTYPE
5
20
100
AcDbSymbolTableRecord
100
AcDbLinetypeTableRecord
2
BYLAYER
70
0
3

72
65
73
0
40
0.0
0
LTYPE
5
21
100
AcDbSymbolTableRecord
100
AcDbLinetypeTableRecord
2
CONTINUOUS
70
64
3
Solid line
72
65
73
0
40
0.0
0
LTYPE
5
22
100
AcDbSymbolTableRecord
100
AcDbLinetypeTableRecord
2
DASHED
70
64
3
__ __ __ __ __ __ __ __ __ __ __ __ __ __ __
72
65
73
2
40
0.75
49
0.5
74
0
49
-0.25
74
0
0
LTYPE
5
23
100
AcDbSymbolTableRecord
100
AcDbLinetypeTableRecord
2
DOT
70
64
3
...............................................
72
65
73
2
40
0.25
49
0.0
74
0
49
-0.25
74
0
0
LTYPE
5
24
100
AcDbSymbolTableRecord
100
AcDbLinetypeTableRecord
2
DASHDOT
70
64
3
__ . __ . __ . __ . __ . __ . __ . __ . __ . --
72
65
73
4
40
1.0
49
0.5
74
0
49
-0.25
74
0
49
0.0
74
0
49
-0.25
74
0
0
LTYPE
5
25
100
AcDbSymbolTableRecord
100
AcDbLinetypeTableRecord
2
CENTER
70
64
3
____ _ ____ _ ____ _ ____ _ ____ _ ____ _ ____
72
65
73
4
40
2.0
49
1.25
74
0
49
-0.25
74
0
49
0.25
74
0
49
-0.25
74
0
0
LTYPE
5
26
100
AcDbSymbolTableRecord
100
AcDbLinetypeTableRecord
2
PHANTOM
70
64
3
_____ _ _ _____ _ _ _____ _ _ _____ _ _ ____
72
65
73
6
40
2.5
49
1.25
74
0
49
-0.25
74
0
49
0.25
74
0
49
-0.25
74
0
49
0.25
74
0
49
-0.25
74
0
0
LTYPE
5
27
100
AcDbSymbolTableRecord
100
AcDbLinetypeTableRecord
2
HIDDEN
70
64
3
_ _ _ _ _ _ _ _ _ _ _ _ _ _ _ _ _ _ _ _ _ _ _
72
65
73
2
40
0.375
49
0.25
74
0
49
-0.125
74
0
0
LTYPE
5
28
100
AcDbSymbolTableRecord
100
AcDbLinetypeTableRecord
2
BORDER
70
64
3
__ __ . __ __ . __ __ . __ __ . __ __ . __ __
72
65
73
6
40
1.75
49
0.5
74
0
49
-0.25
74
0
49
0.5
74
0
49
-0.25
74
0
49
0.0
74
0
49
-0.25
74
0
0
LTYPE
5
29
100
AcDbSymbolTableRecord
100
AcDbLinetypeTableRecord
2
DIVIDE
70
64
3
__ . . __ . . __ . . __ . . __ . . __ . . __
72
65
73
6
40
1.25
49
0.5
74
0
49
-0.25
74
0
49
0.0
74
0
49
-0.25
74
0
49
0.0
74
0
49
-0.25
74
0
0
LTYPE
5
2a
100
AcDbSymbolTableRecord
100
AcDbLinetypeTableRecord
2
DOT2
70
64
3
...............................................
72
65
73
2
40
0.125
49
0.0
74
0
49
-0.125
74
0
0
ENDTAB
0
TABLE
2
STYLE
5
2b
100
AcDbSymbolTable
70
1
0
STYLE
5
2c
100
AcDbSymbolTableRecord
100
AcDbTextStyleTableRecord
2
STANDARD
70
64
40
0.0
41
1.0
50
0.0
71
0
42
5.0
3
txt
4
bigfont
0
ENDTAB
0
TABLE
2
LAYER
5
2d
100
AcDbSymbolTable
70
2
0
LAYER
5
2e
100
AcDbSymbolTableRecord
100
AcDbLayerTableRecord
2
0
70
0
62
7
6
CONTINUOUS
0
LAYER
5
2f
100
AcDbSymbolTableRecord
100
AcDbLayerTableRecord
2
1
70
0
62
7
6
CONTINUOUS
0
ENDTAB
0
TABLE
2
APPID
5
30
100
AcDbSymbolTable
70
1
0
APPID
5
31
100
AcDbSymbolTableRecord
100
AcDbRegAppTableRecord
2
ACAD
70
64
0
ENDTAB
0
TABLE
2
DIMSTYLE
5
32
100
AcDbSymbolTable
70
0
0
ENDTAB
0
TABLE
2
UCS
5
33
100
AcDbSymbolTable
70
0
0
ENDTAB
0
TABLE
2
VIEW
5
34
100
AcDbSymbolTable
70
0
0
ENDTAB
0
TABLE
2
VPORT
5
35
100
AcDbSymbolTable
70
0
0
ENDTAB
0
TABLE
2
BLOCK_RECORD
5
36
100
AcDbSymbolTable
70
0
0
BLOCK_RECORD
5
37
100
AcDbSymbolTableRecord
100
AcDbBlockTableRecord
2
*MODEL_SPACE
0
BLOCK_RECORD
5
38
100
AcDbSymbolTableRecord
100
AcDbBlockTableRecord
2
*PAPER_SPACE
0
BLOCK_RECORD
5
39
100
AcDbSymbolTableRecord
100
AcDbBlockTableRecord
2
OPEN
0
BLOCK_RECORD
5
3a
100
AcDbSymbolTableRecord
100
AcDbBlockTableRecord
2
HALF
0
BLOCK_RECORD
5
3b
100
AcDbSymbolTableRecord
100
AcDbBlockTableRecord
2
CLOSEDBLANK
0
BLOCK_RECORD
5
3c
100
AcDbSymbolTableRecord
100
AcDbBlockTableRecord
2
HALFCLOSE_R
0
BLOCK_RECORD
5
3d
100
AcDbSymbolTableRecord
100
AcDbBlockTableRecord
2
DOT
0
BLOCK_RECORD
5
3e
100
AcDbSymbolTableRecord
100
AcDbBlockTableRecord
2
HALFOPEN_R
0
BLOCK_RECORD
5
3f
100
AcDbSymbolTableRecord
100
AcDbBlockTableRecord
2
CLOSEDF
0
BLOCK_RECORD
5
40
100
AcDbSymbolTableRecord
100
AcDbBlockTableRecord
2
HALF_R
0
ENDTAB
0
ENDSEC
0
SECTION
2
BLOCKS
0
BLOCK
5
41
100
AcDbEntity
8
0
100
AcDbBlockBegin
2
*MODEL_SPACE
70
0
10
0.0
20
0.0
30
0.0
3
*MODEL_SPACE
1

0
ENDBLK
5
42
100
AcDbEntity
8
0
100
AcDbBlockEnd
0
BLOCK
5
43
100
AcDbEntity
67
1
8
0
100
AcDbBlockBegin
2
*PAPER_SPACE
70
0
10
0.0
20
0.0
30
0.0
3
*PAPER_SPACE
1

0
ENDBLK
5
44
100
AcDbEntity
67
1
8
0
100
AcDbBlockEnd
0
BLOCK
5
45
100
AcDbEntity
8
0
100
AcDbBlockBegin
2
OPEN
70
0
10
0.0
20
0.0
30
0.0
3
OPEN
1

0
LINE
5
46
100
AcDbEntity
8
0
6
BYBLOCK
62
0
100
AcDbLine
10
0.000000
20
0.000000
11
-1.000000
21
0.000000
0
LINE
5
47
100
AcDbEntity
8
0
6
BYBLOCK
62
0
100
AcDbLine
10
-1.000000
20
-0.166667
11
0.000000
21
0.000000
0
LINE
5
48
100
AcDbEntity
8
0
6
BYBLOCK
62
0
100
AcDbLine
10
-1.000000
20
0.166667
11
0.000000
21
0.000000
0
ENDBLK
5
49
100
AcDbEntity
8
0
100
AcDbBlockEnd
0
BLOCK
5
4a
100
AcDbEntity
8
0
100
AcDbBlockBegin
2
HALF
70
0
10
0.0
20
0.0
30
0.0
3
HALF
1

0
SOLID
5
4b
100
AcDbEntity
8
0
6
BYBLOCK
62
0
100
AcDbTrace
10
-1.000000
20
0.166667
11
-1.000000
21
-0.166667
12
0.000000
22
0.000000
13
0.000000
23
0.000000
0
ENDBLK
5
4c
100
AcDbEntity
8
0
100
AcDbBlockEnd
0
BLOCK
5
4d
100
AcDbEntity
8
0
100
AcDbBlockBegin
2
CLOSEDBLANK
70
0
10
0.0
20
0.0
30
0.0
3
CLOSEDBLANK
1

0
LINE
5
4e
100
AcDbEntity
8
0
6
BYBLOCK
62
0
100
AcDbLine
10
-1.000000
20
0.166667
11
-1.000000
21
-0.166667
0
LINE
5
4f
100
AcDbEntity
8
0
6
BYBLOCK
62
0
100
AcDbLine
10
0.000000
20
0.000000
11
-1.000000
21
-0.166667
0
LINE
5
50
100
AcDbEntity
8
0
6
BYBLOCK
62
0
100
AcDbLine
10
-1.000000
20
0.166667
11
0.000000
21
0.000000
0
ENDBLK
5
51
100
AcDbEntity
8
0
100
AcDbBlockEnd
0
BLOCK
5
52
100
AcDbEntity
8
0
100
AcDbBlockBegin
2
HALFCLOSE_R
70
0
10
0.0
20
0.0
30
0.0
3
HALFCLOSE_R
1

0
LINE
5
53
100
AcDbEntity
8
0
6
BYBLOCK
62
0
100
AcDbLine
10
-1.000000
20
-0.166667
11
-1.000000
21
0.000000
0
LINE
5
54
100
AcDbEntity
8
0
6
BYBLOCK
62
0
100
AcDbLine
10
-1.000000
20
-0.166667
11
0.000000
21
0.000000
0
LINE
5
55
100
AcDbEntity
8
0
6
BYBLOCK
62
0
100
AcDbLine
10
0.000000
20
0.000000
11
-1.000000
21
0.000000
0
ENDBLK
5
56
100
AcDbEntity
8
0
100
AcDbBlockEnd
0
BLOCK
5
57
100
AcDbEntity
8
0
100
AcDbBlockBegin
2
DOT
70
0
10
0.0
20
0.0
30
0.0
3
DOT
1

0
LINE
5
58
100
AcDbEntity
8
0
6
BYBLOCK
62
0
100
AcDbLine
10
0.000000
20
0.000000
11
-1.000000
21
0.000000
0
POLYLINE
5
59
100
AcDbEntity
8
0
6
BYBLOCK
62
0
100
AcDb2dPolyline
66
1
10
0.0
20
0.0
30
0.0
70
1
40
0.166667
41
0.166667
0
VERTEX
5
5a
100
AcDbEntity
8
0
100
AcDbVertex
100
AcDb2dVertex
62
10
10
-0.083333
20
0.000000
42
1.000000
0
VERTEX
5
5b
100
AcDbEntity
8
0
100
AcDbVertex
100
AcDb2dVertex
62
10
10
0.083333
20
0.000000
42
1.000000
0
SEQEND
5
5c
100
AcDbEntity
8
0
0
ENDBLK
5
5d
100
AcDbEntity
8
0
100
AcDbBlockEnd
0
BLOCK
5
5e
100
AcDbEntity
8
0
100
AcDbBlockBegin
2
HALFOPEN_R
70
0
10
0.0
20
0.0
30
0.0
3
HALFOPEN_R
1

0
LINE
5
5f
100
AcDbEntity
8
0
6
BYBLOCK
62
0
100
AcDbLine
10
-1.000000
20
-0.166667
11
0.000000
21
0.000000
0
LINE
5
60
100
AcDbEntity
8
0
6
BYBLOCK
62
0
100
AcDbLine
10
0.000000
20
0.000000
11
-1.000000
21
0.000000
0
ENDBLK
5
61
100
AcDbEntity
8
0
100
AcDbBlockEnd
0
BLOCK
5
62
100
AcDbEntity
8
0
100
AcDbBlockBegin
2
CLOSEDF
70
0
10
0.0
20
0.0
30
0.0
3
CLOSEDF
1

0
SOLID
5
63
100
AcDbEntity
8
0
6
BYBLOCK
62
0
100
AcDbTrace
10
-1.000000
20
0.166667
11
-1.000000
21
-0.166667
12
0.000000
22
0.000000
13
0.000000
23
0.000000
0
ENDBLK
5
64
100
AcDbEntity
8
0
100
AcDbBlockEnd
0
BLOCK
5
65
100
AcDbEntity
8
0
100
AcDbBlockBegin
2
HALF_R
70
0
10
0.0
20
0.0
30
0.0
3
HALF_R
1

0
SOLID
5
66
100
AcDbEntity
8
0
6
BYBLOCK
62
0
100
AcDbTrace
10
-1.000000
20
-0.166667
11
-1.000000
21
0.000000
12
0.000000
22
0.000000
13
0.000000
23
0.000000
0
ENDBLK
5
67
100
AcDbEntity
8
0
100
AcDbBlockEnd
0
ENDSEC
0
SECTION
2
ENTITIES
0
LINE
5
68
100
AcDbEntity
8
1
100
AcDbLine
6
CONTINUOUS
62
5
10
176.000000
20
336.187500
11
176.000000
21
331.187500
0
POLYLINE
5
69
100
AcDbEntity
8
1
6
CONTINUOUS
62
5
100
AcDb2dPolyline
66
1
10
0.0
20
0.0
30
0.0
70
0
0
VERTEX
5
6a
100
AcDbEntity
8
1
100
AcDbVertex
100
AcDb2dVertex
62
5
10
172.500000
20
335.562500
0
VERTEX
5
6b
100
AcDbEntity
8
1
100
AcDbVertex
100
AcDb2dVertex
62
5
10
176.000000
20
339.312500
0
VERTEX
5
6c
100
AcDbEntity
8
1
100
AcDbVertex
100
AcDb2dVertex
62
5
10
179.250000
20
335.875000
0
SEQEND
5
6d
100
AcDbEntity
8
1
0
LINE
5
6e
100
AcDbEntity
8
1
100
AcDbLine
6
CONTINUOUS
62
5
10
174.000000
20
336.187500
11
177.750000
21
336.187500
0
LINE
5
6f
100
AcDbEntity
8
1
100
AcDbLine
6
CONTINUOUS
62
5
10
173.000000
20
334.312500
11
178.750000
21
334.312500
0
LINE
5
70
100
AcDbEntity
8
1
100
AcDbLine
6
CONTINUOUS
62
5
10
172.750000
20
331.187500
11
179.250000
21
331.187500
0
LINE
5
71
100
AcDbEntity
8
1
100
AcDbLine
6
CONTINUOUS
62
5
10
173.750000
20
333.375000
11
174.750000
21
332.125000
0
LINE
5
72
100
AcDbEntity
8
1
100
AcDbLine
6
CONTINUOUS
62
5
10
178.000000
20
333.375000
11
177.250000
21
332.125000
0
POLYLINE
5
73
100
AcDbEntity
8
1
6
CONTINUOUS
62
5
100
AcDb2dPolyline
66
1
10
0.0
20
0.0
30
0.0
70
0
0
VERTEX
5
74
100
AcDbEntity
8
1
100
AcDbVertex
100
AcDb2dVertex
62
5
10
180.500000
20
331.187500
0
VERTEX
5
75
100
AcDbEntity
8
1
100
AcDbVertex
100
AcDb2dVertex
62
5
10
181.000000
20
333.062500
0
VERTEX
5
76
100
AcDbEntity
8
1
100
AcDbVertex
100
AcDb2dVertex
62
5
10
181.250000
20
334.625000
0
VERTEX
5
77
100
AcDbEntity
8
1
100
AcDbVertex
100
AcDb2dVertex
62
5
10
181.250000
20
339.312500
0
VERTEX
5
78
100
AcDbEntity
8
1
100
AcDbVertex
100
AcDb2dVertex
62
5
10
186.750000
20
339.312500
0
VERTEX
5
79
100
AcDbEntity
8
1
100
AcDbVertex
100
AcDb2dVertex
62
5
10
186.750000
20
337.750000
0
VERTEX
5
7a
100
AcDbEntity
8
1
100
AcDbVertex
100
AcDb2dVertex
62
5
10
181.250000
20
337.750000
0
SEQEND
5
7b
100
AcDbEntity
8
1
0
LINE
5
7c
100
AcDbEntity
8
1
100
AcDbLine
6
CONTINUOUS
62
5
10
186.250000
20
337.125000
11
182.500000
21
336.500000
0
POLYLINE
5
7d
100
AcDbEntity
8
1
6
CONTINUOUS
62
5
100
AcDb2dPolyline
66
1
10
0.0
20
0.0
30
0.0
70
1
0
VERTEX
5
7e
100
AcDbEntity
8
1
100
AcDbVertex
100
AcDb2dVertex
62
5
10
182.500000
20
335.875000
0
VERTEX
5
7f
100
AcDbEntity
8
1
100
AcDbVertex
100
AcDb2dVertex
62
5
10
182.500000
20
334.625000
0
VERTEX
5
80
100
AcDbEntity
8
1
100
AcDbVertex
100
AcDb2dVertex
62
5
10
186.500000
20
334.625000
0
VERTEX
5
81
100
AcDbEntity
8
1
100
AcDbVertex
100
AcDb2dVertex
62
5
10
186.500000
20
335.875000
0
VERTEX
5
82
100
AcDbEntity
8
1
100
AcDbVertex
100
AcDb2dVertex
62
5
10
182.500000
20
335.875000
0
SEQEND
5
83
100
AcDbEntity
8
1
0
LINE
5
84
100
AcDbEntity
8
1
100
AcDbLine
6
CONTINUOUS
62
5
10
184.500000
20
336.812500
11
184.500000
21
332.437500
0
LINE
5
85
100
AcDbEntity
8
1
100
AcDbLine
6
CONTINUOUS
62
5
10
183.000000
20
332.125000
11
185.750000
21
332.437500
0
LINE
5
86
100
AcDbEntity
8
1
100
AcDbLine
6
CONTINUOUS
62
5
10
185.500000
20
333.062500
11
186.250000
21
331.812500
0
POLYLINE
5
87
100
AcDbEntity
8
1
6
CONTINUOUS
62
5
100
AcDb2dPolyline
66
1
10
0.0
20
0.0
30
0.0
70
0
0
VERTEX
5
88
100
AcDbEntity
8
1
100
AcDbVertex
100
AcDb2dVertex
62
5
10
182.000000
20
331.187500
0
VERTEX
5
89
100
AcDbEntity
8
1
100
AcDbVertex
100
AcDb2dVertex
62
5
10
182.000000
20
333.687500
0
VERTEX
5
8a
100
AcDbEntity
8
1
100
AcDbVertex
100
AcDb2dVertex
62
5
10
187.000000
20
333.687500
0
VERTEX
5
8b
100
AcDbEntity
8
1
100
AcDbVertex
100
AcDb2dVertex
62
5
10
187.000000
20
331.500000
0
VERTEX
5
8c
100
AcDbEntity
8
1
100
AcDbVertex
100
AcDb2dVertex
62
5
10
186.750000
20
331.187500
0
VERTEX
5
8d
100
AcDbEntity
8
1
100
AcDbVertex
100
AcDb2dVertex
62
5
10
186.250000
20
331.187500
0
SEQEND
5
8e
100
AcDbEntity
8
1
0
LINE
5
8f
100
AcDbEntity
8
1
100
AcDbLine
6
CONTINUOUS
62
5
10
188.500000
20
339.000000
11
192.250000
21
339.000000
0
LINE
5
90
100
AcDbEntity
8
1
100
AcDbLine
6
CONTINUOUS
62
5
10
189.250000
20
339.000000
11
189.250000
21
332.437500
0
LINE
5
91
100
AcDbEntity
8
1
100
AcDbLine
6
CONTINUOUS
62
5
10
191.250000
20
339.000000
11
191.250000
21
330.875000
0
LINE
5
92
100
AcDbEntity
8
1
100
AcDbLine
6
CONTINUOUS
62
5
10
189.250000
20
336.812500
11
191.250000
21
336.812500
0
LINE
5
93
100
AcDbEntity
8
1
100
AcDbLine
6
CONTINUOUS
62
5
10
189.250000
20
334.937500
11
191.250000
21
334.937500
0
LINE
5
94
100
AcDbEntity
8
1
100
AcDbLine
6
CONTINUOUS
62
5
10
188.250000
20
332.125000
11
191.250000
21
333.062500
0
POLYLINE
5
95
100
AcDbEntity
8
1
6
CONTINUOUS
62
5
100
AcDb2dPolyline
66
1
10
0.0
20
0.0
30
0.0
70
0
0
VERTEX
5
96
100
AcDbEntity
8
1
100
AcDbVertex
100
AcDb2dVertex
62
5
10
192.000000
20
337.437500
0
VERTEX
5
97
100
AcDbEntity
8
1
100
AcDbVertex
100
AcDb2dVertex
62
5
10
195.250000
20
337.437500
0
VERTEX
5
98
100
AcDbEntity
8
1
100
AcDbVertex
100
AcDb2dVertex
62
5
10
194.750000
20
335.250000
0
VERTEX
5
99
100
AcDbEntity
8
1
100
AcDbVertex
100
AcDb2dVertex
62
5
10
194.250000
20
334.000000
0
VERTEX
5
9a
100
AcDbEntity
8
1
100
AcDbVertex
100
AcDb2dVertex
62
5
10
193.250000
20
332.125000
0
VERTEX
5
9b
100
AcDbEntity
8
1
100
AcDbVertex
100
AcDb2dVertex
62
5
10
192.000000
20
330.875000
0
SEQEND
5
9c
100
AcDbEntity
8
1
0
POLYLINE
5
9d
100
AcDbEntity
8
1
6
CONTINUOUS
62
5
100
AcDb2dPolyline
66
1
10
0.0
20
0.0
30
0.0
70
0
0
VERTEX
5
9e
100
AcDbEntity
8
1
100
AcDbVertex
100
AcDb2dVertex
62
5
10
192.250000
20
336.187500
0
VERTEX
5
9f
100
AcDbEntity
8
1
100
AcDbVertex
100
AcDb2dVertex
62
5
10
193.000000
20
334.312500
0
VERTEX
5
a0
100
AcDbEntity
8
1
100
AcDbVertex
100
AcDb2dVertex
62
5
10
194.000000
20
332.437500
0
VERTEX
5
a1
100
AcDbEntity
8
1
100
AcDbVertex
100
AcDb2dVertex
62
5
10
195.500000
20
330.875000
0
SEQEND
5
a2
100
AcDbEntity
8
1
0
POLYLINE
5
a3
100
AcDbEntity
8
1
6
CONTINUOUS
62
5
100
AcDb2dPolyline
66
1
10
0.0
20
0.0
30
0.0
70
0
0
VERTEX
5
a4
100
AcDbEntity
8
1
100
AcDbVertex
100
AcDb2dVertex
62
5
10
198.500000
20
339.312500
0
VERTEX
5
a5
100
AcDbEntity
8
1
100
AcDbVertex
100
AcDb2dVertex
62
5
10
197.500000
20
336.500000
0
VERTEX
5
a6
100
AcDbEntity
8
1
100
AcDbVertex
100
AcDb2dVertex
62
5
10
196.250000
20
334.312500
0
SEQEND
5
a7
100
AcDbEntity
8
1
0
LINE
5
a8
100
AcDbEntity
8
1
100
AcDbLine
6
CONTINUOUS
62
5
10
197.500000
20
336.500000
11
197.500000
21
330.562500
0
LINE
5
a9
100
AcDbEntity
8
1
100
AcDbLine
6
CONTINUOUS
62
5
10
198.250000
20
336.500000
11
203.500000
21
336.500000
0
POLYLINE
5
aa
100
AcDbEntity
8
1
6
CONTINUOUS
62
5
100
AcDb2dPolyline
66
1
10
0.0
20
0.0
30
0.0
70
0
0
VERTEX
5
ab
100
AcDbEntity
8
1
100
AcDbVertex
100
AcDb2dVertex
62
5
10
201.750000
20
339.312500
0
VERTEX
5
ac
100
AcDbEntity
8
1
100
AcDbVertex
100
AcDb2dVertex
62
5
10
201.750000
20
330.875000
0
VERTEX
5
ad
100
AcDbEntity
8
1
100
AcDbVertex
100
AcDb2dVertex
62
5
10
200.250000
20
331.187500
0
SEQEND
5
ae
100
AcDbEntity
8
1
0
LINE
5
af
100
AcDbEntity
8
1
100
AcDbLine
6
CONTINUOUS
62
5
10
199.250000
20
335.250000
11
200.250000
21
333.375000
0
LINE
5
b0
100
AcDbEntity
8
1
100
AcDbLine
6
CONTINUOUS
62
5
10
210.250000
20
335.562500
11
211.000000
21
335.562500
0
LINE
5
b1
100
AcDbEntity
8
1
100
AcDbLine
6
CONTINUOUS
62
5
10
204.250000
20
336.812500
11
206.750000
21
336.812500
0
LINE
5
b2
100
AcDbEntity
8
1
100
AcDbLine
6
CONTINUOUS
62
5
10
205.750000
20
339.312500
11
205.750000
21
330.562500
0
POLYLINE
5
b3
100
AcDbEntity
8
1
6
CONTINUOUS
62
5
100
AcDb2dPolyline
66
1
10
0.0
20
0.0
30
0.0
70
0
0
VERTEX
5
b4
100
AcDbEntity
8
1
100
AcDbVertex
100
AcDb2dVertex
62
5
10
205.750000
20
336.812500
0
VERTEX
5
b5
100
AcDbEntity
8
1
100
AcDbVertex
100
AcDb2dVertex
62
5
10
205.000000
20
334.312500
0
VERTEX
5
b6
100
AcDbEntity
8
1
100
AcDbVertex
100
AcDb2dVertex
62
5
10
204.250000
20
332.750000
0
SEQEND
5
b7
100
AcDbEntity
8
1
0
LINE
5
b8
100
AcDbEntity
8
1
100
AcDbLine
6
CONTINUOUS
62
5
10
205.750000
20
336.187500
11
206.500000
21
334.312500
0
POLYLINE
5
b9
100
AcDbEntity
8
1
6
CONTINUOUS
62
5
100
AcDb2dPolyline
66
1
10
0.0
20
0.0
30
0.0
70
0
0
VERTEX
5
ba
100
AcDbEntity
8
1
100
AcDbVertex
100
AcDb2dVertex
62
5
10
207.000000
20
337.750000
0
VERTEX
5
bb
100
AcDbEntity
8
1
100
AcDbVertex
100
AcDb2dVertex
62
5
10
209.750000
20
337.750000
0
VERTEX
5
bc
100
AcDbEntity
8
1
100
AcDbVertex
100
AcDb2dVertex
62
5
10
209.750000
20
336.500000
0
VERTEX
5
bd
100
AcDbEntity
8
1
100
AcDbVertex
100
AcDb2dVertex
62
5
10
210.250000
20
335.562500
0
SEQEND
5
be
100
AcDbEntity
8
1
0
POLYLINE
5
bf
100
AcDbEntity
8
1
6
CONTINUOUS
62
5
100
AcDb2dPolyline
66
1
10
0.0
20
0.0
30
0.0
70
0
0
VERTEX
5
c0
100
AcDbEntity
8
1
100
AcDbVertex
100
AcDb2dVertex
62
5
10
208.500000
20
339.625000
0
VERTEX
5
c1
100
AcDbEntity
8
1
100
AcDbVertex
100
AcDb2dVertex
62
5
10
208.250000
20
337.125000
0
VERTEX
5
c2
100
AcDbEntity
8
1
100
AcDbVertex
100
AcDb2dVertex
62
5
10
207.750000
20
335.875000
0
VERTEX
5
c3
100
AcDbEntity
8
1
100
AcDbVertex
100
AcDb2dVertex
62
5
10
207.000000
20
335.250000
0
SEQEND
5
c4
100
AcDbEntity
8
1
0
POLYLINE
5
c5
100
AcDbEntity
8
1
6
CONTINUOUS
62
5
100
AcDb2dPolyline
66
1
10
0.0
20
0.0
30
0.0
70
0
0
VERTEX
5
c6
100
AcDbEntity
8
1
100
AcDbVertex
100
AcDb2dVertex
62
5
10
211.000000
20
335.562500
0
VERTEX
5
c7
100
AcDbEntity
8
1
100
AcDbVertex
100
AcDb2dVertex
62
5
10
211.250000
20
335.875000
0
VERTEX
5
c8
100
AcDbEntity
8
1
100
AcDbVertex
100
AcDb2dVertex
62
5
10
211.250000
20
337.125000
0
SEQEND
5
c9
100
AcDbEntity
8
1
0
LINE
5
ca
100
AcDbEntity
8
1
100
AcDbLine
6
CONTINUOUS
62
5
10
206.750000
20
333.687500
11
211.500000
21
333.687500
0
LINE
5
cb
100
AcDbEntity
8
1
100
AcDbLine
6
CONTINUOUS
62
5
10
209.000000
20
335.250000
11
209.000000
21
330.562500
0
POLYLINE
5
cc
100
AcDbEntity
8
1
6
CONTINUOUS
62
5
100
AcDb2dPolyline
66
1
10
0.0
20
0.0
30
0.0
70
0
0
VERTEX
5
cd
100
AcDbEntity
8
1
100
AcDbVertex
100
AcDb2dVertex
62
5
10
214.500000
20
339.312500
0
VERTEX
5
ce
100
AcDbEntity
8
1
100
AcDbVertex
100
AcDb2dVertex
62
5
10
213.500000
20
336.500000
0
VERTEX
5
cf
100
AcDbEntity
8
1
100
AcDbVertex
100
AcDb2dVertex
62
5
10
212.250000
20
334.312500
0
SEQEND
5
d0
100
AcDbEntity
8
1
0
LINE
5
d1
100
AcDbEntity
8
1
100
AcDbLine
6
CONTINUOUS
62
5
10
213.500000
20
336.500000
11
213.500000
21
330.562500
0
LINE
5
d2
100
AcDbEntity
8
1
100
AcDbLine
6
CONTINUOUS
62
5
10
214.250000
20
336.500000
11
219.500000
21
336.500000
0
POLYLINE
5
d3
100
AcDbEntity
8
1
6
CONTINUOUS
62
5
100
AcDb2dPolyline
66
1
10
0.0
20
0.0
30
0.0
70
0
0
VERTEX
5
d4
100
AcDbEntity
8
1
100
AcDbVertex
100
AcDb2dVertex
62
5
10
217.750000
20
339.312500
0
VERTEX
5
d5
100
AcDbEntity
8
1
100
AcDbVertex
100
AcDb2dVertex
62
5
10
217.750000
20
330.875000
0
VERTEX
5
d6
100
AcDbEntity
8
1
100
AcDbVertex
100
AcDb2dVertex
62
5
10
216.250000
20
331.187500
0
SEQEND
5
d7
100
AcDbEntity
8
1
0
LINE
5
d8
100
AcDbEntity
8
1
100
AcDbLine
6
CONTINUOUS
62
5
10
215.250000
20
335.250000
11
216.250000
21
333.375000
0
POLYLINE
5
d9
100
AcDbEntity
8
1
6
DOT2
62
5
100
AcDb2dPolyline
66
1
10
0.0
20
0.0
30
0.0
70
0
0
VERTEX
5
da
100
AcDbEntity
8
1
100
AcDbVertex
100
AcDb2dVertex
62
5
10
245.475000
20
249.125000
0
VERTEX
5
db
100
AcDbEntity
8
1
100
AcDbVertex
100
AcDb2dVertex
62
5
10
246.412500
20
249.750000
0
VERTEX
5
dc
100
AcDbEntity
8
1
100
AcDbVertex
100
AcDb2dVertex
62
5
10
246.412500
20
242.250000
0
SEQEND
5
dd
100
AcDbEntity
8
1
0
LINE
5
de
100
AcDbEntity
8
1
100
AcDbLine
6
DOT2
62
5
10
245.787500
20
242.250000
11
247.037500
21
242.250000
0
POLYLINE
5
df
100
AcDbEntity
8
1
6
DOT2
62
5
100
AcDb2dPolyline
66
1
10
0.0
20
0.0
30
0.0
70
0
0
VERTEX
5
e0
100
AcDbEntity
8
1
100
AcDbVertex
100
AcDb2dVertex
62
5
10
249.850000
20
248.812500
0
VERTEX
5
e1
100
AcDbEntity
8
1
100
AcDbVertex
100
AcDb2dVertex
62
5
10
249.850000
20
249.750000
0
VERTEX
5
e2
100
AcDbEntity
8
1
100
AcDbVertex
100
AcDb2dVertex
62
5
10
252.975000
20
249.750000
0
VERTEX
5
e3
100
AcDbEntity
8
1
100
AcDbVertex
100
AcDb2dVertex
62
5
10
252.975000
20
249.125000
0
VERTEX
5
e4
100
AcDbEntity
8
1
100
AcDbVertex
100
AcDb2dVertex
62
5
10
252.350000
20
247.562500
0
VERTEX
5
e5
100
AcDbEntity
8
1
100
AcDbVertex
100
AcDb2dVertex
62
5
10
251.725000
20
245.375000
0
VERTEX
5
e6
100
AcDbEntity
8
1
100
AcDbVertex
100
AcDb2dVertex
62
5
10
251.100000
20
242.250000
0
SEQEND
5
e7
100
AcDbEntity
8
1
0
LINE
5
e8
100
AcDbEntity
8
1
100
AcDbLine
6
DOT2
62
5
10
190.575000
20
242.875000
11
189.950000
21
242.250000
0
POLYLINE
5
e9
100
AcDbEntity
8
1
6
DOT2
62
5
100
AcDb2dPolyline
66
1
10
0.0
20
0.0
30
0.0
70
0
0
VERTEX
5
ea
100
AcDbEntity
8
1
100
AcDbVertex
100
AcDb2dVertex
62
5
10
189.950000
20
242.875000
0
VERTEX
5
eb
100
AcDbEntity
8
1
100
AcDbVertex
100
AcDb2dVertex
62
5
10
190.575000
20
242.250000
0
VERTEX
5
ec
100
AcDbEntity
8
1
100
AcDbVertex
100
AcDb2dVertex
62
5
10
189.950000
20
242.250000
0
VERTEX
5
ed
100
AcDbEntity
8
1
100
AcDbVertex
100
AcDb2dVertex
62
5
10
189.950000
20
242.875000
0
VERTEX
5
ee
100
AcDbEntity
8
1
100
AcDbVertex
100
AcDb2dVertex
62
5
10
190.575000
20
242.875000
0
VERTEX
5
ef
100
AcDbEntity
8
1
100
AcDbVertex
100
AcDb2dVertex
62
5
10
190.575000
20
242.250000
0
SEQEND
5
f0
100
AcDbEntity
8
1
0
POLYLINE
5
f1
100
AcDbEntity
8
1
6
DOT2
62
5
100
AcDb2dPolyline
66
1
10
0.0
20
0.0
30
0.0
70
0
0
VERTEX
5
f2
100
AcDbEntity
8
1
100
AcDbVertex
100
AcDb2dVertex
62
5
10
184.950000
20
248.812500
0
VERTEX
5
f3
100
AcDbEntity
8
1
100
AcDbVertex
100
AcDb2dVertex
62
5
10
184.950000
20
249.750000
0
VERTEX
5
f4
100
AcDbEntity
8
1
100
AcDbVertex
100
AcDb2dVertex
62
5
10
188.075000
20
249.750000
0
VERTEX
5
f5
100
AcDbEntity
8
1
100
AcDbVertex
100
AcDb2dVertex
62
5
10
188.075000
20
249.125000
0
VERTEX
5
f6
100
AcDbEntity
8
1
100
AcDbVertex
100
AcDb2dVertex
62
5
10
187.450000
20
247.562500
0
VERTEX
5
f7
100
AcDbEntity
8
1
100
AcDbVertex
100
AcDb2dVertex
62
5
10
186.825000
20
245.375000
0
VERTEX
5
f8
100
AcDbEntity
8
1
100
AcDbVertex
100
AcDb2dVertex
62
5
10
186.200000
20
242.250000
0
SEQEND
5
f9
100
AcDbEntity
8
1
0
POLYLINE
5
fa
100
AcDbEntity
8
1
6
DOT2
62
5
100
AcDb2dPolyline
66
1
10
0.0
20
0.0
30
0.0
70
0
0
VERTEX
5
fb
100
AcDbEntity
8
1
100
AcDbVertex
100
AcDb2dVertex
62
5
10
198.075000
20
245.687500
0
VERTEX
5
fc
100
AcDbEntity
8
1
100
AcDbVertex
100
AcDb2dVertex
62
5
10
198.075000
20
245.687500
0
VERTEX
5
fd
100
AcDbEntity
8
1
100
AcDbVertex
100
AcDb2dVertex
62
5
10
196.825000
20
245.375000
0
VERTEX
5
fe
100
AcDbEntity
8
1
100
AcDbVertex
100
AcDb2dVertex
62
5
10
195.887500
20
245.375000
0
VERTEX
5
ff
100
AcDbEntity
8
1
100
AcDbVertex
100
AcDb2dVertex
62
5
10
195.262500
20
245.687500
0
VERTEX
5
100
100
AcDbEntity
8
1
100
AcDbVertex
100
AcDb2dVertex
62
5
10
194.950000
20
246.625000
0
VERTEX
5
101
100
AcDbEntity
8
1
100
AcDbVertex
100
AcDb2dVertex
62
5
10
194.950000
20
248.187500
0
VERTEX
5
102
100
AcDbEntity
8
1
100
AcDbVertex
100
AcDb2dVertex
62
5
10
195.262500
20
249.125000
0
VERTEX
5
103
100
AcDbEntity
8
1
100
AcDbVertex
100
AcDb2dVertex
62
5
10
195.575000
20
249.437500
0
VERTEX
5
104
100
AcDbEntity
8
1
100
AcDbVertex
100
AcDb2dVertex
62
5
10
196.200000
20
249.750000
0
VERTEX
5
105
100
AcDbEntity
8
1
100
AcDbVertex
100
AcDb2dVertex
62
5
10
196.825000
20
249.750000
0
VERTEX
5
106
100
AcDbEntity
8
1
100
AcDbVertex
100
AcDb2dVertex
62
5
10
197.450000
20
249.437500
0
VERTEX
5
107
100
AcDbEntity
8
1
100
AcDbVertex
100
AcDb2dVertex
62
5
10
197.762500
20
249.125000
0
VERTEX
5
108
100
AcDbEntity
8
1
100
AcDbVertex
100
AcDb2dVertex
62
5
10
198.075000
20
248.187500
0
VERTEX
5
109
100
AcDbEntity
8
1
100
AcDbVertex
100
AcDb2dVertex
62
5
10
198.075000
20
244.750000
0
VERTEX
5
10a
100
AcDbEntity
8
1
100
AcDbVertex
100
AcDb2dVertex
62
5
10
197.762500
20
243.187500
0
VERTEX
5
10b
100
AcDbEntity
8
1
100
AcDbVertex
100
AcDb2dVertex
62
5
10
197.137500
20
242.562500
0
VERTEX
5
10c
100
AcDbEntity
8
1
100
AcDbVertex
100
AcDb2dVertex
62
5
10
196.200000
20
242.250000
0
VERTEX
5
10d
100
AcDbEntity
8
1
100
AcDbVertex
100
AcDb2dVertex
62
5
10
195.575000
20
242.250000
0
SEQEND
5
10e
100
AcDbEntity
8
1
0
POLYLINE
5
10f
100
AcDbEntity
8
1
6
CONTINUOUS
62
5
100
AcDb2dPolyline
66
1
10
0.0
20
0.0
30
0.0
70
0
0
VERTEX
5
110
100
AcDbEntity
8
1
100
AcDbVertex
100
AcDb2dVertex
62
5
10
216.600000
20
216.000000
0
VERTEX
5
111
100
AcDbEntity
8
1
100
AcDbVertex
100
AcDb2dVertex
62
5
10
216.700000
20
216.000002
0
VERTEX
5
112
100
AcDbEntity
8
1
100
AcDbVertex
100
AcDb2dVertex
62
5
10
216.600000
20
215.000000
0
SEQEND
5
113
100
AcDbEntity
8
1
0
LINE
5
114
100
AcDbEntity
8
1
100
AcDbLine
6
CONTINUOUS
62
5
10
215.400000
20
213.250000
11
216.600000
21
213.250000
0
LINE
5
115
100
AcDbEntity
8
1
100
AcDbLine
6
CONTINUOUS
62
5
10
215.400000
20
209.000000
11
216.600000
21
209.000000
0
ARC
5
116
100
AcDbEntity
8
1
100
AcDbCircle
6
CONTINUOUS
62
5
10
214.600000
20
207.750000
40
0.500000
100
AcDbArc
50
179.999998
51
-89.999999
0
LINE
5
117
100
AcDbEntity
8
1
100
AcDbLine
6
CONTINUOUS
62
5
10
214.600000
20
207.250000
11
214.900000
21
207.250000
0
LINE
5
118
100
AcDbEntity
8
1
100
AcDbLine
6
CONTINUOUS
62
5
10
215.400000
20
213.750000
11
214.600000
21
213.750000
0
ARC
5
119
100
AcDbEntity
8
1
100
AcDbCircle
6
CONTINUOUS
62
5
10
214.600000
20
213.250000
40
0.500000
100
AcDbArc
50
90.000002
51
179.999998
0
LINE
5
11a
100
AcDbEntity
8
1
100
AcDbLine
6
CONTINUOUS
62
5
10
214.100000
20
213.250000
11
214.100000
21
207.750000
0
LINE
5
11b
100
AcDbEntity
8
1
100
AcDbLine
6
CONTINUOUS
62
5
10
230.800000
20
189.750000
11
230.800000
21
185.250000
0
ARC
5
11c
100
AcDbEntity
8
1
100
AcDbCircle
6
CONTINUOUS
62
5
10
217.900000
20
193.500000
40
0.500000
100
AcDbArc
50
89.999999
51
179.999998
0
LINE
5
11d
100
AcDbEntity
8
1
100
AcDbLine
6
CONTINUOUS
62
5
10
217.400000
20
193.500000
11
217.400000
21
191.000000
0
LINE
5
11e
100
AcDbEntity
8
1
100
AcDbLine
6
CONTINUOUS
62
5
10
220.400000
20
194.000000
11
217.900000
21
194.000000
0
LINE
5
11f
100
AcDbEntity
8
1
100
AcDbLine
6
CONTINUOUS
62
5
10
223.400000
20
191.500000
11
224.600237
21
192.401288
0
ARC
5
120
100
AcDbEntity
8
1
100
AcDbCircle
6
CONTINUOUS
62
5
10
223.090983
20
184.400000
40
0.500000
100
AcDbArc
50
26.565051
51
51.827282
0
POLYLINE
5
121
100
AcDbEntity
8
1
6
CONTINUOUS
62
5
100
AcDb2dPolyline
66
1
10
0.0
20
0.0
30
0.0
70
0
0
VERTEX
5
122
100
AcDbEntity
8
1
100
AcDbVertex
100
AcDb2dVertex
62
5
10
223.538196
20
184.623607
0
VERTEX
5
123
100
AcDbEntity
8
1
100
AcDbVertex
100
AcDb2dVertex
62
5
10
224.400000
20
182.900000
0
VERTEX
5
124
100
AcDbEntity
8
1
100
AcDbVertex
100
AcDb2dVertex
62
5
10
224.400000
20
180.900000
0
SEQEND
5
125
100
AcDbEntity
8
1
0
ARC
5
126
100
AcDbEntity
8
1
100
AcDbCircle
6
CONTINUOUS
62
5
10
223.308454
20
184.367342
40
0.800000
100
AcDbArc
50
-38.151680
51
79.933652
0
LINE
5
127
100
AcDbEntity
8
1
100
AcDbLine
6
CONTINUOUS
62
5
10
223.937557
20
183.873146
11
223.922812
21
183.854376
0
LINE
5
128
100
AcDbEntity
8
1
100
AcDbLine
6
CONTINUOUS
62
5
10
223.400000
20
185.163598
11
223.448285
21
185.155027
0
ARC
5
129
100
AcDbEntity
8
1
100
AcDbCircle
6
CONTINUOUS
62
5
10
223.400000
20
193.200000
40
0.500000
100
AcDbArc
50
-0.000000
51
89.999999
0
LINE
5
12a
100
AcDbEntity
8
1
100
AcDbLine
6
CONTINUOUS
62
5
10
223.900000
20
193.200000
11
223.900000
21
192.207107
0
ARC
5
12b
100
AcDbEntity
8
1
100
AcDbCircle
6
CONTINUOUS
62
5
10
223.400000
20
192.207107
40
0.500000
100
AcDbArc
50
-45.000000
51
-0.000000
0
POLYLINE
5
12c
100
AcDbEntity
8
1
6
CONTINUOUS
62
5
100
AcDb2dPolyline
66
1
10
0.0
20
0.0
30
0.0
70
0
0
VERTEX
5
12d
100
AcDbEntity
8
1
100
AcDbVertex
100
AcDb2dVertex
62
5
10
223.753553
20
191.853553
0
VERTEX
5
12e
100
AcDbEntity
8
1
100
AcDbVertex
100
AcDb2dVertex
62
5
10
223.400000
20
191.500000
0
VERTEX
5
12f
100
AcDbEntity
8
1
100
AcDbVertex
100
AcDb2dVertex
62
5
10
223.400000
20
186.500000
0
SEQEND
5
130
100
AcDbEntity
8
1
0
LINE
5
131
100
AcDbEntity
8
1
100
AcDbLine
6
CONTINUOUS
62
5
10
220.400000
20
193.700000
11
223.400000
21
193.700000
0
ARC
5
132
100
AcDbEntity
8
1
100
AcDbCircle
6
CONTINUOUS
62
5
10
224.300000
20
193.200000
40
0.500000
100
AcDbArc
50
0.000000
51
89.999999
0
LINE
5
133
100
AcDbEntity
8
1
100
AcDbLine
6
CONTINUOUS
62
5
10
224.800000
20
193.200000
11
224.800000
21
192.801110
0
ARC
5
134
100
AcDbEntity
8
1
100
AcDbCircle
6
CONTINUOUS
62
5
10
224.300000
20
192.801110
40
0.500000
100
AcDbArc
50
-62.114406
51
0.000000
0
LINE
5
135
100
AcDbEntity
8
1
100
AcDbLine
6
CONTINUOUS
62
5
10
224.533854
20
192.359169
11
223.855090
21
192.000000
0
LINE
5
136
100
AcDbEntity
8
1
100
AcDbLine
6
CONTINUOUS
62
5
10
223.400000
20
193.700000
11
224.300000
21
193.700000
0
ARC
5
137
100
AcDbEntity
8
1
100
AcDbCircle
6
CONTINUOUS
62
5
10
226.032486
20
185.505488
40
1.600000
100
AcDbArc
50
64.499999
51
83.565383
0
LINE
5
138
100
AcDbEntity
8
1
100
AcDbLine
6
CONTINUOUS
62
5
10
226.721304
20
186.949624
11
227.381377
21
186.634786
0
ARC
5
139
100
AcDbEntity
8
1
100
AcDbCircle
6
CONTINUOUS
62
5
10
227.166121
20
186.183493
40
0.500000
100
AcDbArc
50
-25.500000
51
64.499999
0
LINE
5
13a
100
AcDbEntity
8
1
100
AcDbLine
6
CONTINUOUS
62
5
10
227.617414
20
185.968238
11
226.452760
21
183.526492
0
ARC
5
13b
100
AcDbEntity
8
1
100
AcDbCircle
6
CONTINUOUS
62
5
10
225.369658
20
184.043105
40
1.200000
100
AcDbArc
50
-92.530341
51
-25.500000
0
LINE
5
13c
100
AcDbEntity
8
1
100
AcDbLine
6
CONTINUOUS
62
5
10
225.316680
20
182.844275
11
224.400000
21
182.884784
0
LINE
5
13d
100
AcDbEntity
8
1
100
AcDbLine
6
CONTINUOUS
62
5
10
223.400000
20
187.412523
11
226.211797
21
187.095409
0
ARC
5
13e
100
AcDbEntity
8
1
100
AcDbCircle
6
CONTINUOUS
62
5
10
232.600000
20
188.750000
40
1.000000
100
AcDbArc
50
0.000000
51
89.999999
0
LINE
5
13f
100
AcDbEntity
8
1
100
AcDbLine
6
CONTINUOUS
62
5
10
233.600000
20
188.750000
11
233.600000
21
186.250000
0
ARC
5
140
100
AcDbEntity
8
1
100
AcDbCircle
6
CONTINUOUS
62
5
10
232.600000
20
186.250000
40
1.000000
100
AcDbArc
50
-89.999999
51
-0.000000
0
POLYLINE
5
141
100
AcDbEntity
8
1
6
CONTINUOUS
62
5
100
AcDb2dPolyline
66
1
10
0.0
20
0.0
30
0.0
70
0
0
VERTEX
5
142
100
AcDbEntity
8
1
100
AcDbVertex
100
AcDb2dVertex
62
5
10
232.600000
20
185.250000
0
VERTEX
5
143
100
AcDbEntity
8
1
100
AcDbVertex
100
AcDb2dVertex
62
5
10
230.800000
20
185.250000
0
VERTEX
5
144
100
AcDbEntity
8
1
100
AcDbVertex
100
AcDb2dVertex
62
5
10
230.500000
20
184.950000
0
SEQEND
5
145
100
AcDbEntity
8
1
0
POLYLINE
5
146
100
AcDbEntity
8
1
6
CONTINUOUS
62
5
100
AcDb2dPolyline
66
1
10
0.0
20
0.0
30
0.0
70
0
0
VERTEX
5
147
100
AcDbEntity
8
1
100
AcDbVertex
100
AcDb2dVertex
62
5
10
230.427042
20
190.122958
0
VERTEX
5
148
100
AcDbEntity
8
1
100
AcDbVertex
100
AcDb2dVertex
62
5
10
230.800000
20
189.750000
0
VERTEX
5
149
100
AcDbEntity
8
1
100
AcDbVertex
100
AcDb2dVertex
62
5
10
232.600000
20
189.750000
0
SEQEND
5
14a
100
AcDbEntity
8
1
0
POLYLINE
5
14b
100
AcDbEntity
8
1
6
CONTINUOUS
62
5
100
AcDb2dPolyline
66
1
10
0.0
20
0.0
30
0.0
70
0
0
VERTEX
5
14c
100
AcDbEntity
8
1
100
AcDbVertex
100
AcDb2dVertex
62
5
10
215.400000
20
209.050610
0
VERTEX
5
14d
100
AcDbEntity
8
1
100
AcDbVertex
100
AcDb2dVertex
62
5
10
214.900000
20
209.050610
0
VERTEX
5
14e
100
AcDbEntity
8
1
100
AcDbVertex
100
AcDb2dVertex
62
5
10
214.900000
20
202.500000
0
SEQEND
5
14f
100
AcDbEntity
8
1
0
POLYLINE
5
150
100
AcDbEntity
8
1
6
CONTINUOUS
62
5
100
AcDb2dPolyline
66
1
10
0.0
20
0.0
30
0.0
70
0
0
VERTEX
5
151
100
AcDbEntity
8
1
100
AcDbVertex
100
AcDb2dVertex
62
5
10
215.400000
20
202.500000
0
VERTEX
5
152
100
AcDbEntity
8
1
100
AcDbVertex
100
AcDb2dVertex
62
5
10
215.400000
20
216.000000
0
VERTEX
5
153
100
AcDbEntity
8
1
100
AcDbVertex
100
AcDb2dVertex
62
5
10
216.600000
20
216.000000
0
VERTEX
5
154
100
AcDbEntity
8
1
100
AcDbVertex
100
AcDb2dVertex
62
5
10
216.600000
20
202.500000
0
SEQEND
5
155
100
AcDbEntity
8
1
0
LINE
5
156
100
AcDbEntity
8
1
100
AcDbLine
6
CONTINUOUS
62
5
10
208.700000
20
195.250000
11
208.700000
21
243.000000
0
LINE
5
157
100
AcDbEntity
8
1
100
AcDbLine
6
CONTINUOUS
62
5
10
216.600000
20
217.500000
11
216.600000
21
243.000000
0
POLYLINE
5
158
100
AcDbEntity
8
1
6
CONTINUOUS
62
5
100
AcDb2dPolyline
66
1
10
0.0
20
0.0
30
0.0
70
0
0
VERTEX
5
159
100
AcDbEntity
8
1
100
AcDbVertex
100
AcDb2dVertex
62
5
10
182.450000
20
241.000000
0
VERTEX
5
15a
100
AcDbEntity
8
1
100
AcDbVertex
100
AcDb2dVertex
62
5
10
208.700000
20
241.000000
0
VERTEX
5
15b
100
AcDbEntity
8
1
100
AcDbVertex
100
AcDb2dVertex
62
5
10
202.700000
20
240.000000
0
VERTEX
5
15c
100
AcDbEntity
8
1
100
AcDbVertex
100
AcDb2dVertex
62
5
10
202.700000
20
242.000000
0
VERTEX
5
15d
100
AcDbEntity
8
1
100
AcDbVertex
100
AcDb2dVertex
62
5
10
208.700000
20
241.000000
0
VERTEX
5
15e
100
AcDbEntity
8
1
100
AcDbVertex
100
AcDb2dVertex
62
5
10
202.700000
20
240.500000
0
VERTEX
5
15f
100
AcDbEntity
8
1
100
AcDbVertex
100
AcDb2dVertex
62
5
10
202.700000
20
241.500000
0
VERTEX
5
160
100
AcDbEntity
8
1
100
AcDbVertex
100
AcDb2dVertex
62
5
10
208.700000
20
241.000000
0
SEQEND
5
161
100
AcDbEntity
8
1
0
LINE
5
162
100
AcDbEntity
8
1
100
AcDbLine
6
CONTINUOUS
62
5
10
208.700000
20
241.000000
11
216.600000
21
241.000000
0
LINE
5
163
100
AcDbEntity
8
1
100
AcDbLine
6
CONTINUOUS
62
5
10
221.600000
20
241.000000
11
216.600000
21
241.000000
0
POLYLINE
5
164
100
AcDbEntity
8
1
6
CONTINUOUS
62
5
100
AcDb2dPolyline
66
1
10
0.0
20
0.0
30
0.0
70
0
0
VERTEX
5
165
100
AcDbEntity
8
1
100
AcDbVertex
100
AcDb2dVertex
62
5
10
215.600000
20
240.500000
0
VERTEX
5
166
100
AcDbEntity
8
1
100
AcDbVertex
100
AcDb2dVertex
62
5
10
215.600000
20
241.500000
0
VERTEX
5
167
100
AcDbEntity
8
1
100
AcDbVertex
100
AcDb2dVertex
62
5
10
216.100000
20
242.000000
0
VERTEX
5
168
100
AcDbEntity
8
1
100
AcDbVertex
100
AcDb2dVertex
62
5
10
217.100000
20
242.000000
0
VERTEX
5
169
100
AcDbEntity
8
1
100
AcDbVertex
100
AcDb2dVertex
62
5
10
217.600000
20
241.500000
0
VERTEX
5
16a
100
AcDbEntity
8
1
100
AcDbVertex
100
AcDb2dVertex
62
5
10
217.600000
20
240.500000
0
VERTEX
5
16b
100
AcDbEntity
8
1
100
AcDbVertex
100
AcDb2dVertex
62
5
10
217.100000
20
240.000000
0
VERTEX
5
16c
100
AcDbEntity
8
1
100
AcDbVertex
100
AcDb2dVertex
62
5
10
216.100000
20
240.000000
0
VERTEX
5
16d
100
AcDbEntity
8
1
100
AcDbVertex
100
AcDb2dVertex
62
5
10
215.600000
20
240.500000
0
VERTEX
5
16e
100
AcDbEntity
8
1
100
AcDbVertex
100
AcDb2dVertex
62
5
10
217.600000
20
241.500000
0
SEQEND
5
16f
100
AcDbEntity
8
1
0
LINE
5
170
100
AcDbEntity
8
1
100
AcDbLine
6
CONTINUOUS
62
5
10
217.600000
20
240.500000
11
215.600000
21
241.500000
0
LINE
5
171
100
AcDbEntity
8
1
100
AcDbLine
6
CONTINUOUS
62
5
10
216.100000
20
242.000000
11
217.100000
21
240.000000
0
LINE
5
172
100
AcDbEntity
8
1
100
AcDbLine
6
CONTINUOUS
62
5
10
216.100000
20
240.000000
11
217.100000
21
242.000000
0
LINE
5
173
100
AcDbEntity
8
1
100
AcDbLine
6
CONTINUOUS
62
5
10
216.600000
20
217.500000
11
216.600000
21
243.000000
0
LINE
5
174
100
AcDbEntity
8
1
100
AcDbLine
6
CONTINUOUS
62
5
10
233.600000
20
190.250000
11
233.600000
21
243.000000
0
POLYLINE
5
175
100
AcDbEntity
8
1
6
CONTINUOUS
62
5
100
AcDb2dPolyline
66
1
10
0.0
20
0.0
30
0.0
70
0
0
VERTEX
5
176
100
AcDbEntity
8
1
100
AcDbVertex
100
AcDb2dVertex
62
5
10
254.850000
20
241.000000
0
VERTEX
5
177
100
AcDbEntity
8
1
100
AcDbVertex
100
AcDb2dVertex
62
5
10
233.600000
20
241.000000
0
VERTEX
5
178
100
AcDbEntity
8
1
100
AcDbVertex
100
AcDb2dVertex
62
5
10
239.600000
20
242.000000
0
VERTEX
5
179
100
AcDbEntity
8
1
100
AcDbVertex
100
AcDb2dVertex
62
5
10
239.600000
20
240.000000
0
VERTEX
5
17a
100
AcDbEntity
8
1
100
AcDbVertex
100
AcDb2dVertex
62
5
10
233.600000
20
241.000000
0
VERTEX
5
17b
100
AcDbEntity
8
1
100
AcDbVertex
100
AcDb2dVertex
62
5
10
239.600000
20
241.500000
0
VERTEX
5
17c
100
AcDbEntity
8
1
100
AcDbVertex
100
AcDb2dVertex
62
5
10
239.600000
20
240.500000
0
VERTEX
5
17d
100
AcDbEntity
8
1
100
AcDbVertex
100
AcDb2dVertex
62
5
10
233.600000
20
241.000000
0
SEQEND
5
17e
100
AcDbEntity
8
1
0
LINE
5
17f
100
AcDbEntity
8
1
100
AcDbLine
6
CONTINUOUS
62
5
10
233.600000
20
241.000000
11
216.600000
21
241.000000
0
LINE
5
180
100
AcDbEntity
8
1
100
AcDbLine
6
CONTINUOUS
62
5
10
213.600000
20
241.000000
11
216.600000
21
241.000000
0
LINE
5
181
100
AcDbEntity
8
1
100
AcDbLine
6
CONTINUOUS
62
5
10
149.750000
20
337.437500
11
150.750000
21
336.187500
0
POLYLINE
5
182
100
AcDbEntity
8
1
6
CONTINUOUS
62
5
100
AcDb2dPolyline
66
1
10
0.0
20
0.0
30
0.0
70
0
0
VERTEX
5
183
100
AcDbEntity
8
1
100
AcDbVertex
100
AcDb2dVertex
62
5
10
149.500000
20
332.437500
0
VERTEX
5
184
100
AcDbEntity
8
1
100
AcDbVertex
100
AcDb2dVertex
62
5
10
151.250000
20
333.375000
0
VERTEX
5
185
100
AcDbEntity
8
1
100
AcDbVertex
100
AcDb2dVertex
62
5
10
152.750000
20
334.625000
0
VERTEX
5
186
100
AcDbEntity
8
1
100
AcDbVertex
100
AcDb2dVertex
62
5
10
154.250000
20
336.187500
0
SEQEND
5
187
100
AcDbEntity
8
1
0
LINE
5
188
100
AcDbEntity
8
1
100
AcDbLine
6
CONTINUOUS
62
5
10
133.750000
20
337.437500
11
134.750000
21
336.187500
0
POLYLINE
5
189
100
AcDbEntity
8
1
6
CONTINUOUS
62
5
100
AcDb2dPolyline
66
1
10
0.0
20
0.0
30
0.0
70
0
0
VERTEX
5
18a
100
AcDbEntity
8
1
100
AcDbVertex
100
AcDb2dVertex
62
5
10
133.500000
20
332.437500
0
VERTEX
5
18b
100
AcDbEntity
8
1
100
AcDbVertex
100
AcDb2dVertex
62
5
10
135.250000
20
333.375000
0
VERTEX
5
18c
100
AcDbEntity
8
1
100
AcDbVertex
100
AcDb2dVertex
62
5
10
136.750000
20
334.625000
0
VERTEX
5
18d
100
AcDbEntity
8
1
100
AcDbVertex
100
AcDb2dVertex
62
5
10
138.250000
20
336.187500
0
SEQEND
5
18e
100
AcDbEntity
8
1
0
POLYLINE
5
18f
100
AcDbEntity
8
1
6
CONTINUOUS
62
5
100
AcDb2dPolyline
66
1
10
0.0
20
0.0
30
0.0
70
0
0
VERTEX
5
190
100
AcDbEntity
8
1
100
AcDbVertex
100
AcDb2dVertex
62
5
10
141.000000
20
335.562500
0
VERTEX
5
191
100
AcDbEntity
8
1
100
AcDbVertex
100
AcDb2dVertex
62
5
10
146.250000
20
336.187500
0
VERTEX
5
192
100
AcDbEntity
8
1
100
AcDbVertex
100
AcDb2dVertex
62
5
10
146.250000
20
335.875000
0
VERTEX
5
193
100
AcDbEntity
8
1
100
AcDbVertex
100
AcDb2dVertex
62
5
10
145.000000
20
334.312500
0
SEQEND
5
194
100
AcDbEntity
8
1
0
POLYLINE
5
195
100
AcDbEntity
8
1
6
CONTINUOUS
62
5
100
AcDb2dPolyline
66
1
10
0.0
20
0.0
30
0.0
70
0
0
VERTEX
5
196
100
AcDbEntity
8
1
100
AcDbVertex
100
AcDb2dVertex
62
5
10
143.000000
20
338.375000
0
VERTEX
5
197
100
AcDbEntity
8
1
100
AcDbVertex
100
AcDb2dVertex
62
5
10
143.000000
20
332.437500
0
VERTEX
5
198
100
AcDbEntity
8
1
100
AcDbVertex
100
AcDb2dVertex
62
5
10
143.500000
20
331.812500
0
VERTEX
5
199
100
AcDbEntity
8
1
100
AcDbVertex
100
AcDb2dVertex
62
5
10
146.250000
20
331.812500
0
SEQEND
5
19a
100
AcDbEntity
8
1
0
POLYLINE
5
19b
100
AcDbEntity
8
1
6
CONTINUOUS
62
5
100
AcDb2dPolyline
66
1
10
0.0
20
0.0
30
0.0
70
0
0
VERTEX
5
19c
100
AcDbEntity
8
1
100
AcDbVertex
100
AcDb2dVertex
62
5
10
159.250000
20
336.187500
0
VERTEX
5
19d
100
AcDbEntity
8
1
100
AcDbVertex
100
AcDb2dVertex
62
5
10
159.500000
20
336.187500
0
VERTEX
5
19e
100
AcDbEntity
8
1
100
AcDbVertex
100
AcDb2dVertex
62
5
10
161.250000
20
334.937500
0
SEQEND
5
19f
100
AcDbEntity
8
1
0
LINE
5
1a0
100
AcDbEntity
8
1
100
AcDbLine
6
CONTINUOUS
62
5
10
159.250000
20
339.000000
11
159.250000
21
331.500000
0
POLYLINE
5
1a1
100
AcDbEntity
8
1
6
CONTINUOUS
62
5
100
AcDb2dPolyline
66
1
10
0.0
20
0.0
30
0.0
70
0
0
VERTEX
5
1a2
100
AcDbEntity
8
1
100
AcDbVertex
100
AcDb2dVertex
62
5
10
108.750000
20
325.562500
0
VERTEX
5
1a3
100
AcDbEntity
8
1
100
AcDbVertex
100
AcDb2dVertex
62
5
10
109.000000
20
325.250000
0
VERTEX
5
1a4
100
AcDbEntity
8
1
100
AcDbVertex
100
AcDb2dVertex
62
5
10
115.750000
20
325.250000
0
SEQEND
5
1a5
100
AcDbEntity
8
1
0
POLYLINE
5
1a6
100
AcDbEntity
8
1
6
CONTINUOUS
62
5
100
AcDb2dPolyline
66
1
10
0.0
20
0.0
30
0.0
70
0
0
VERTEX
5
1a7
100
AcDbEntity
8
1
100
AcDbVertex
100
AcDb2dVertex
62
5
10
119.250000
20
326.187500
0
VERTEX
5
1a8
100
AcDbEntity
8
1
100
AcDbVertex
100
AcDb2dVertex
62
5
10
119.500000
20
326.187500
0
VERTEX
5
1a9
100
AcDbEntity
8
1
100
AcDbVertex
100
AcDb2dVertex
62
5
10
121.250000
20
324.937500
0
SEQEND
5
1aa
100
AcDbEntity
8
1
0
LINE
5
1ab
100
AcDbEntity
8
1
100
AcDbLine
6
CONTINUOUS
62
5
10
119.250000
20
329.000000
11
119.250000
21
321.500000
0
POLYLINE
5
1ac
100
AcDbEntity
8
1
6
CONTINUOUS
62
5
100
AcDb2dPolyline
66
1
10
0.0
20
0.0
30
0.0
70
0
0
VERTEX
5
1ad
100
AcDbEntity
8
1
100
AcDbVertex
100
AcDb2dVertex
62
5
10
86.500000
20
325.875000
0
VERTEX
5
1ae
100
AcDbEntity
8
1
100
AcDbVertex
100
AcDb2dVertex
62
5
10
89.250000
20
325.875000
0
VERTEX
5
1af
100
AcDbEntity
8
1
100
AcDbVertex
100
AcDb2dVertex
62
5
10
89.250000
20
322.125000
0
VERTEX
5
1b0
100
AcDbEntity
8
1
100
AcDbVertex
100
AcDb2dVertex
62
5
10
86.500000
20
322.125000
0
SEQEND
5
1b1
100
AcDbEntity
8
1
0
LINE
5
1b2
100
AcDbEntity
8
1
100
AcDbLine
6
CONTINUOUS
62
5
10
86.500000
20
324.000000
11
89.250000
21
324.000000
0
POLYLINE
5
1b3
100
AcDbEntity
8
1
6
CONTINUOUS
62
5
100
AcDb2dPolyline
66
1
10
0.0
20
0.0
30
0.0
70
0
0
VERTEX
5
1b4
100
AcDbEntity
8
1
100
AcDbVertex
100
AcDb2dVertex
62
5
10
93.750000
20
327.125000
0
VERTEX
5
1b5
100
AcDbEntity
8
1
100
AcDbVertex
100
AcDb2dVertex
62
5
10
97.750000
20
327.125000
0
VERTEX
5
1b6
100
AcDbEntity
8
1
100
AcDbVertex
100
AcDb2dVertex
62
5
10
97.750000
20
322.750000
0
VERTEX
5
1b7
100
AcDbEntity
8
1
100
AcDbVertex
100
AcDb2dVertex
62
5
10
93.750000
20
322.750000
0
SEQEND
5
1b8
100
AcDbEntity
8
1
0
POLYLINE
5
1b9
100
AcDbEntity
8
1
6
CONTINUOUS
62
5
100
AcDb2dPolyline
66
1
10
0.0
20
0.0
30
0.0
70
0
0
VERTEX
5
1ba
100
AcDbEntity
8
1
100
AcDbVertex
100
AcDb2dVertex
62
5
10
102.250000
20
328.375000
0
VERTEX
5
1bb
100
AcDbEntity
8
1
100
AcDbVertex
100
AcDb2dVertex
62
5
10
102.250000
20
322.125000
0
VERTEX
5
1bc
100
AcDbEntity
8
1
100
AcDbVertex
100
AcDb2dVertex
62
5
10
102.750000
20
321.812500
0
VERTEX
5
1bd
100
AcDbEntity
8
1
100
AcDbVertex
100
AcDb2dVertex
62
5
10
104.000000
20
322.437500
0
VERTEX
5
1be
100
AcDbEntity
8
1
100
AcDbVertex
100
AcDb2dVertex
62
5
10
105.250000
20
323.375000
0
VERTEX
5
1bf
100
AcDbEntity
8
1
100
AcDbVertex
100
AcDb2dVertex
62
5
10
106.500000
20
324.625000
0
SEQEND
5
1c0
100
AcDbEntity
8
1
0
POLYLINE
5
1c1
100
AcDbEntity
8
1
6
CONTINUOUS
62
5
100
AcDb2dPolyline
66
1
10
0.0
20
0.0
30
0.0
70
0
0
VERTEX
5
1c2
100
AcDbEntity
8
1
100
AcDbVertex
100
AcDb2dVertex
62
5
10
95.250000
20
336.187500
0
VERTEX
5
1c3
100
AcDbEntity
8
1
100
AcDbVertex
100
AcDb2dVertex
62
5
10
95.500000
20
336.187500
0
VERTEX
5
1c4
100
AcDbEntity
8
1
100
AcDbVertex
100
AcDb2dVertex
62
5
10
97.250000
20
334.937500
0
SEQEND
5
1c5
100
AcDbEntity
8
1
0
LINE
5
1c6
100
AcDbEntity
8
1
100
AcDbLine
6
CONTINUOUS
62
5
10
95.250000
20
339.000000
11
95.250000
21
331.500000
0
LINE
5
1c7
100
AcDbEntity
8
1
100
AcDbLine
6
CONTINUOUS
62
5
10
102.250000
20
338.375000
11
102.250000
21
334.625000
0
POLYLINE
5
1c8
100
AcDbEntity
8
1
6
CONTINUOUS
62
5
100
AcDb2dPolyline
66
1
10
0.0
20
0.0
30
0.0
70
0
0
VERTEX
5
1c9
100
AcDbEntity
8
1
100
AcDbVertex
100
AcDb2dVertex
62
5
10
105.000000
20
338.687500
0
VERTEX
5
1ca
100
AcDbEntity
8
1
100
AcDbVertex
100
AcDb2dVertex
62
5
10
105.000000
20
334.937500
0
VERTEX
5
1cb
100
AcDbEntity
8
1
100
AcDbVertex
100
AcDb2dVertex
62
5
10
104.750000
20
333.687500
0
VERTEX
5
1cc
100
AcDbEntity
8
1
100
AcDbVertex
100
AcDb2dVertex
62
5
10
104.250000
20
332.437500
0
VERTEX
5
1cd
100
AcDbEntity
8
1
100
AcDbVertex
100
AcDb2dVertex
62
5
10
103.500000
20
331.500000
0
SEQEND
5
1ce
100
AcDbEntity
8
1
0
POLYLINE
5
1cf
100
AcDbEntity
8
1
6
CONTINUOUS
62
5
100
AcDb2dPolyline
66
1
10
0.0
20
0.0
30
0.0
70
0
0
VERTEX
5
1d0
100
AcDbEntity
8
1
100
AcDbVertex
100
AcDb2dVertex
62
5
10
109.000000
20
337.125000
0
VERTEX
5
1d1
100
AcDbEntity
8
1
100
AcDbVertex
100
AcDb2dVertex
62
5
10
113.250000
20
337.125000
0
VERTEX
5
1d2
100
AcDbEntity
8
1
100
AcDbVertex
100
AcDb2dVertex
62
5
10
113.250000
20
336.500000
0
VERTEX
5
1d3
100
AcDbEntity
8
1
100
AcDbVertex
100
AcDb2dVertex
62
5
10
113.000000
20
335.562500
0
VERTEX
5
1d4
100
AcDbEntity
8
1
100
AcDbVertex
100
AcDb2dVertex
62
5
10
112.500000
20
334.625000
0
VERTEX
5
1d5
100
AcDbEntity
8
1
100
AcDbVertex
100
AcDb2dVertex
62
5
10
111.750000
20
333.375000
0
VERTEX
5
1d6
100
AcDbEntity
8
1
100
AcDbVertex
100
AcDb2dVertex
62
5
10
111.000000
20
332.750000
0
VERTEX
5
1d7
100
AcDbEntity
8
1
100
AcDbVertex
100
AcDb2dVertex
62
5
10
109.750000
20
331.812500
0
SEQEND
5
1d8
100
AcDbEntity
8
1
0
POLYLINE
5
1d9
100
AcDbEntity
8
1
6
CONTINUOUS
62
5
100
AcDb2dPolyline
66
1
10
0.0
20
0.0
30
0.0
70
1
0
VERTEX
5
1da
100
AcDbEntity
8
1
100
AcDbVertex
100
AcDb2dVertex
62
5
10
114.000000
20
338.687500
0
VERTEX
5
1db
100
AcDbEntity
8
1
100
AcDbVertex
100
AcDb2dVertex
62
5
10
114.500000
20
338.687500
0
VERTEX
5
1dc
100
AcDbEntity
8
1
100
AcDbVertex
100
AcDb2dVertex
62
5
10
114.750000
20
338.375000
0
VERTEX
5
1dd
100
AcDbEntity
8
1
100
AcDbVertex
100
AcDb2dVertex
62
5
10
114.750000
20
337.750000
0
VERTEX
5
1de
100
AcDbEntity
8
1
100
AcDbVertex
100
AcDb2dVertex
62
5
10
114.500000
20
337.437500
0
VERTEX
5
1df
100
AcDbEntity
8
1
100
AcDbVertex
100
AcDb2dVertex
62
5
10
114.000000
20
337.437500
0
VERTEX
5
1e0
100
AcDbEntity
8
1
100
AcDbVertex
100
AcDb2dVertex
62
5
10
113.750000
20
337.750000
0
VERTEX
5
1e1
100
AcDbEntity
8
1
100
AcDbVertex
100
AcDb2dVertex
62
5
10
113.750000
20
338.375000
0
VERTEX
5
1e2
100
AcDbEntity
8
1
100
AcDbVertex
100
AcDb2dVertex
62
5
10
114.000000
20
338.687500
0
SEQEND
5
1e3
100
AcDbEntity
8
1
0
POLYLINE
5
1e4
100
AcDbEntity
8
1
6
CONTINUOUS
62
5
100
AcDb2dPolyline
66
1
10
0.0
20
0.0
30
0.0
70
0
0
VERTEX
5
1e5
100
AcDbEntity
8
1
100
AcDbVertex
100
AcDb2dVertex
62
5
10
118.500000
20
338.062500
0
VERTEX
5
1e6
100
AcDbEntity
8
1
100
AcDbVertex
100
AcDb2dVertex
62
5
10
118.500000
20
336.187500
0
VERTEX
5
1e7
100
AcDbEntity
8
1
100
AcDbVertex
100
AcDb2dVertex
62
5
10
118.250000
20
334.625000
0
VERTEX
5
1e8
100
AcDbEntity
8
1
100
AcDbVertex
100
AcDb2dVertex
62
5
10
117.750000
20
333.375000
0
VERTEX
5
1e9
100
AcDbEntity
8
1
100
AcDbVertex
100
AcDb2dVertex
62
5
10
117.000000
20
332.125000
0
VERTEX
5
1ea
100
AcDbEntity
8
1
100
AcDbVertex
100
AcDb2dVertex
62
5
10
116.750000
20
331.812500
0
SEQEND
5
1eb
100
AcDbEntity
8
1
0
POLYLINE
5
1ec
100
AcDbEntity
8
1
6
CONTINUOUS
62
5
100
AcDb2dPolyline
66
1
10
0.0
20
0.0
30
0.0
70
0
0
VERTEX
5
1ed
100
AcDbEntity
8
1
100
AcDbVertex
100
AcDb2dVertex
62
5
10
120.000000
20
338.375000
0
VERTEX
5
1ee
100
AcDbEntity
8
1
100
AcDbVertex
100
AcDb2dVertex
62
5
10
120.000000
20
332.125000
0
VERTEX
5
1ef
100
AcDbEntity
8
1
100
AcDbVertex
100
AcDb2dVertex
62
5
10
120.750000
20
332.437500
0
VERTEX
5
1f0
100
AcDbEntity
8
1
100
AcDbVertex
100
AcDb2dVertex
62
5
10
121.750000
20
333.375000
0
VERTEX
5
1f1
100
AcDbEntity
8
1
100
AcDbVertex
100
AcDb2dVertex
62
5
10
122.500000
20
334.312500
0
VERTEX
5
1f2
100
AcDbEntity
8
1
100
AcDbVertex
100
AcDb2dVertex
62
5
10
123.000000
20
335.250000
0
SEQEND
5
1f3
100
AcDbEntity
8
1
0
POLYLINE
5
1f4
100
AcDbEntity
8
1
6
CONTINUOUS
62
5
100
AcDb2dPolyline
66
1
10
0.0
20
0.0
30
0.0
70
0
0
VERTEX
5
1f5
100
AcDbEntity
8
1
100
AcDbVertex
100
AcDb2dVertex
62
5
10
125.750000
20
337.125000
0
VERTEX
5
1f6
100
AcDbEntity
8
1
100
AcDbVertex
100
AcDb2dVertex
62
5
10
129.750000
20
337.125000
0
VERTEX
5
1f7
100
AcDbEntity
8
1
100
AcDbVertex
100
AcDb2dVertex
62
5
10
129.750000
20
332.750000
0
VERTEX
5
1f8
100
AcDbEntity
8
1
100
AcDbVertex
100
AcDb2dVertex
62
5
10
125.750000
20
332.750000
0
SEQEND
5
1f9
100
AcDbEntity
8
1
0
POLYLINE
5
1fa
100
AcDbEntity
8
1
6
CONTINUOUS
62
5
100
AcDb2dPolyline
66
1
10
0.0
20
0.0
30
0.0
70
0
0
VERTEX
5
1fb
100
AcDbEntity
8
1
100
AcDbVertex
100
AcDb2dVertex
62
5
10
127.250000
20
329.625000
0
VERTEX
5
1fc
100
AcDbEntity
8
1
100
AcDbVertex
100
AcDb2dVertex
62
5
10
126.500000
20
328.375000
0
VERTEX
5
1fd
100
AcDbEntity
8
1
100
AcDbVertex
100
AcDb2dVertex
62
5
10
125.750000
20
327.437500
0
VERTEX
5
1fe
100
AcDbEntity
8
1
100
AcDbVertex
100
AcDb2dVertex
62
5
10
124.750000
20
326.500000
0
SEQEND
5
1ff
100
AcDbEntity
8
1
0
POLYLINE
5
200
100
AcDbEntity
8
1
6
CONTINUOUS
62
5
100
AcDb2dPolyline
66
1
10
0.0
20
0.0
30
0.0
70
0
0
VERTEX
5
201
100
AcDbEntity
8
1
100
AcDbVertex
100
AcDb2dVertex
62
5
10
127.000000
20
329.000000
0
VERTEX
5
202
100
AcDbEntity
8
1
100
AcDbVertex
100
AcDb2dVertex
62
5
10
129.250000
20
329.000000
0
VERTEX
5
203
100
AcDbEntity
8
1
100
AcDbVertex
100
AcDb2dVertex
62
5
10
128.000000
20
327.125000
0
SEQEND
5
204
100
AcDbEntity
8
1
0
POLYLINE
5
205
100
AcDbEntity
8
1
6
CONTINUOUS
62
5
100
AcDb2dPolyline
66
1
10
0.0
20
0.0
30
0.0
70
0
0
VERTEX
5
206
100
AcDbEntity
8
1
100
AcDbVertex
100
AcDb2dVertex
62
5
10
125.750000
20
327.125000
0
VERTEX
5
207
100
AcDbEntity
8
1
100
AcDbVertex
100
AcDb2dVertex
62
5
10
130.250000
20
327.125000
0
VERTEX
5
208
100
AcDbEntity
8
1
100
AcDbVertex
100
AcDb2dVertex
62
5
10
130.250000
20
324.312500
0
VERTEX
5
209
100
AcDbEntity
8
1
100
AcDbVertex
100
AcDb2dVertex
62
5
10
125.750000
20
324.312500
0
SEQEND
5
20a
100
AcDbEntity
8
1
0
LINE
5
20b
100
AcDbEntity
8
1
100
AcDbLine
6
CONTINUOUS
62
5
10
128.000000
20
327.125000
11
128.000000
21
324.312500
0
POLYLINE
5
20c
100
AcDbEntity
8
1
6
CONTINUOUS
62
5
100
AcDb2dPolyline
66
1
10
0.0
20
0.0
30
0.0
70
0
0
VERTEX
5
20d
100
AcDbEntity
8
1
100
AcDbVertex
100
AcDb2dVertex
62
5
10
125.750000
20
327.125000
0
VERTEX
5
20e
100
AcDbEntity
8
1
100
AcDbVertex
100
AcDb2dVertex
62
5
10
125.750000
20
321.812500
0
VERTEX
5
20f
100
AcDbEntity
8
1
100
AcDbVertex
100
AcDb2dVertex
62
5
10
126.250000
20
321.187500
0
VERTEX
5
210
100
AcDbEntity
8
1
100
AcDbVertex
100
AcDb2dVertex
62
5
10
131.250000
20
321.187500
0
VERTEX
5
211
100
AcDbEntity
8
1
100
AcDbVertex
100
AcDb2dVertex
62
5
10
131.250000
20
322.437500
0
SEQEND
5
212
100
AcDbEntity
8
1
0
POLYLINE
5
213
100
AcDbEntity
8
1
6
CONTINUOUS
62
5
100
AcDb2dPolyline
66
1
10
0.0
20
0.0
30
0.0
70
0
0
VERTEX
5
214
100
AcDbEntity
8
1
100
AcDbVertex
100
AcDb2dVertex
62
5
10
129.375000
20
297.375000
0
VERTEX
5
215
100
AcDbEntity
8
1
100
AcDbVertex
100
AcDb2dVertex
62
5
10
132.812500
20
297.375000
0
VERTEX
5
216
100
AcDbEntity
8
1
100
AcDbVertex
100
AcDb2dVertex
62
5
10
132.812500
20
293.625000
0
VERTEX
5
217
100
AcDbEntity
8
1
100
AcDbVertex
100
AcDb2dVertex
62
5
10
129.375000
20
293.625000
0
SEQEND
5
218
100
AcDbEntity
8
1
0
LINE
5
219
100
AcDbEntity
8
1
100
AcDbLine
6
CONTINUOUS
62
5
10
129.375000
20
295.500000
11
132.812500
21
295.500000
0
POLYLINE
5
21a
100
AcDbEntity
8
1
6
CONTINUOUS
62
5
100
AcDb2dPolyline
66
1
10
0.0
20
0.0
30
0.0
70
0
0
VERTEX
5
21b
100
AcDbEntity
8
1
100
AcDbVertex
100
AcDb2dVertex
62
5
10
138.437500
20
298.625000
0
VERTEX
5
21c
100
AcDbEntity
8
1
100
AcDbVertex
100
AcDb2dVertex
62
5
10
143.437500
20
298.625000
0
VERTEX
5
21d
100
AcDbEntity
8
1
100
AcDbVertex
100
AcDb2dVertex
62
5
10
143.437500
20
294.250000
0
VERTEX
5
21e
100
AcDbEntity
8
1
100
AcDbVertex
100
AcDb2dVertex
62
5
10
138.437500
20
294.250000
0
SEQEND
5
21f
100
AcDbEntity
8
1
0
LINE
5
220
100
AcDbEntity
8
1
100
AcDbLine
6
CONTINUOUS
62
5
10
118.750000
20
298.937500
11
123.437500
21
299.562500
0
LINE
5
221
100
AcDbEntity
8
1
100
AcDbLine
6
CONTINUOUS
62
5
10
117.187500
20
297.062500
11
124.687500
21
297.062500
0
POLYLINE
5
222
100
AcDbEntity
8
1
6
CONTINUOUS
62
5
100
AcDb2dPolyline
66
1
10
0.0
20
0.0
30
0.0
70
0
0
VERTEX
5
223
100
AcDbEntity
8
1
100
AcDbVertex
100
AcDb2dVertex
62
5
10
121.250000
20
299.250000
0
VERTEX
5
224
100
AcDbEntity
8
1
100
AcDbVertex
100
AcDb2dVertex
62
5
10
121.250000
20
297.062500
0
VERTEX
5
225
100
AcDbEntity
8
1
100
AcDbVertex
100
AcDb2dVertex
62
5
10
120.937500
20
295.500000
0
VERTEX
5
226
100
AcDbEntity
8
1
100
AcDbVertex
100
AcDb2dVertex
62
5
10
120.000000
20
294.250000
0
VERTEX
5
227
100
AcDbEntity
8
1
100
AcDbVertex
100
AcDb2dVertex
62
5
10
119.062500
20
293.312500
0
SEQEND
5
228
100
AcDbEntity
8
1
0
LINE
5
229
100
AcDbEntity
8
1
100
AcDbLine
6
CONTINUOUS
62
5
10
92.500000
20
296.750000
11
95.625000
21
296.750000
0
POLYLINE
5
22a
100
AcDbEntity
8
1
6
CONTINUOUS
62
5
100
AcDb2dPolyline
66
1
10
0.0
20
0.0
30
0.0
70
0
0
VERTEX
5
22b
100
AcDbEntity
8
1
100
AcDbVertex
100
AcDb2dVertex
62
5
10
87.500000
20
293.000000
0
VERTEX
5
22c
100
AcDbEntity
8
1
100
AcDbVertex
100
AcDb2dVertex
62
5
10
87.500000
20
300.500000
0
VERTEX
5
22d
100
AcDbEntity
8
1
100
AcDbVertex
100
AcDb2dVertex
62
5
10
90.625000
20
293.000000
0
VERTEX
5
22e
100
AcDbEntity
8
1
100
AcDbVertex
100
AcDb2dVertex
62
5
10
90.625000
20
300.500000
0
SEQEND
5
22f
100
AcDbEntity
8
1
0
LINE
5
230
100
AcDbEntity
8
1
100
AcDbLine
6
CONTINUOUS
62
5
10
97.500000
20
300.500000
11
100.312500
21
300.500000
0
POLYLINE
5
231
100
AcDbEntity
8
1
6
CONTINUOUS
62
5
100
AcDb2dPolyline
66
1
10
0.0
20
0.0
30
0.0
70
0
0
VERTEX
5
232
100
AcDbEntity
8
1
100
AcDbVertex
100
AcDb2dVertex
62
5
10
97.500000
20
300.500000
0
VERTEX
5
233
100
AcDbEntity
8
1
100
AcDbVertex
100
AcDb2dVertex
62
5
10
97.500000
20
296.750000
0
VERTEX
5
234
100
AcDbEntity
8
1
100
AcDbVertex
100
AcDb2dVertex
62
5
10
98.125000
20
297.375000
0
VERTEX
5
235
100
AcDbEntity
8
1
100
AcDbVertex
100
AcDb2dVertex
62
5
10
98.750000
20
297.687500
0
VERTEX
5
236
100
AcDbEntity
8
1
100
AcDbVertex
100
AcDb2dVertex
62
5
10
99.687500
20
297.687500
0
VERTEX
5
237
100
AcDbEntity
8
1
100
AcDbVertex
100
AcDb2dVertex
62
5
10
100.312500
20
297.375000
0
VERTEX
5
238
100
AcDbEntity
8
1
100
AcDbVertex
100
AcDb2dVertex
62
5
10
100.625000
20
296.437500
0
VERTEX
5
239
100
AcDbEntity
8
1
100
AcDbVertex
100
AcDb2dVertex
62
5
10
100.625000
20
294.562500
0
VERTEX
5
23a
100
AcDbEntity
8
1
100
AcDbVertex
100
AcDb2dVertex
62
5
10
100.000000
20
293.625000
0
VERTEX
5
23b
100
AcDbEntity
8
1
100
AcDbVertex
100
AcDb2dVertex
62
5
10
99.062500
20
293.000000
0
VERTEX
5
23c
100
AcDbEntity
8
1
100
AcDbVertex
100
AcDb2dVertex
62
5
10
97.500000
20
293.000000
0
SEQEND
5
23d
100
AcDbEntity
8
1
0
LINE
5
23e
100
AcDbEntity
8
1
100
AcDbLine
6
CONTINUOUS
62
5
10
102.500000
20
300.500000
11
105.312500
21
300.500000
0
POLYLINE
5
23f
100
AcDbEntity
8
1
6
CONTINUOUS
62
5
100
AcDb2dPolyline
66
1
10
0.0
20
0.0
30
0.0
70
0
0
VERTEX
5
240
100
AcDbEntity
8
1
100
AcDbVertex
100
AcDb2dVertex
62
5
10
102.500000
20
300.500000
0
VERTEX
5
241
100
AcDbEntity
8
1
100
AcDbVertex
100
AcDb2dVertex
62
5
10
102.500000
20
296.750000
0
VERTEX
5
242
100
AcDbEntity
8
1
100
AcDbVertex
100
AcDb2dVertex
62
5
10
103.125000
20
297.375000
0
VERTEX
5
243
100
AcDbEntity
8
1
100
AcDbVertex
100
AcDb2dVertex
62
5
10
103.750000
20
297.687500
0
VERTEX
5
244
100
AcDbEntity
8
1
100
AcDbVertex
100
AcDb2dVertex
62
5
10
104.687500
20
297.687500
0
VERTEX
5
245
100
AcDbEntity
8
1
100
AcDbVertex
100
AcDb2dVertex
62
5
10
105.312500
20
297.375000
0
VERTEX
5
246
100
AcDbEntity
8
1
100
AcDbVertex
100
AcDb2dVertex
62
5
10
105.625000
20
296.437500
0
VERTEX
5
247
100
AcDbEntity
8
1
100
AcDbVertex
100
AcDb2dVertex
62
5
10
105.625000
20
294.562500
0
VERTEX
5
248
100
AcDbEntity
8
1
100
AcDbVertex
100
AcDb2dVertex
62
5
10
105.000000
20
293.625000
0
VERTEX
5
249
100
AcDbEntity
8
1
100
AcDbVertex
100
AcDb2dVertex
62
5
10
104.062500
20
293.000000
0
VERTEX
5
24a
100
AcDbEntity
8
1
100
AcDbVertex
100
AcDb2dVertex
62
5
10
102.500000
20
293.000000
0
SEQEND
5
24b
100
AcDbEntity
8
1
0
LINE
5
24c
100
AcDbEntity
8
1
100
AcDbLine
6
CONTINUOUS
62
5
10
107.500000
20
300.500000
11
110.312500
21
300.500000
0
POLYLINE
5
24d
100
AcDbEntity
8
1
6
CONTINUOUS
62
5
100
AcDb2dPolyline
66
1
10
0.0
20
0.0
30
0.0
70
0
0
VERTEX
5
24e
100
AcDbEntity
8
1
100
AcDbVertex
100
AcDb2dVertex
62
5
10
107.500000
20
300.500000
0
VERTEX
5
24f
100
AcDbEntity
8
1
100
AcDbVertex
100
AcDb2dVertex
62
5
10
107.500000
20
296.750000
0
VERTEX
5
250
100
AcDbEntity
8
1
100
AcDbVertex
100
AcDb2dVertex
62
5
10
108.125000
20
297.375000
0
VERTEX
5
251
100
AcDbEntity
8
1
100
AcDbVertex
100
AcDb2dVertex
62
5
10
108.750000
20
297.687500
0
VERTEX
5
252
100
AcDbEntity
8
1
100
AcDbVertex
100
AcDb2dVertex
62
5
10
109.687500
20
297.687500
0
VERTEX
5
253
100
AcDbEntity
8
1
100
AcDbVertex
100
AcDb2dVertex
62
5
10
110.312500
20
297.375000
0
VERTEX
5
254
100
AcDbEntity
8
1
100
AcDbVertex
100
AcDb2dVertex
62
5
10
110.625000
20
296.437500
0
VERTEX
5
255
100
AcDbEntity
8
1
100
AcDbVertex
100
AcDb2dVertex
62
5
10
110.625000
20
294.562500
0
VERTEX
5
256
100
AcDbEntity
8
1
100
AcDbVertex
100
AcDb2dVertex
62
5
10
110.000000
20
293.625000
0
VERTEX
5
257
100
AcDbEntity
8
1
100
AcDbVertex
100
AcDb2dVertex
62
5
10
109.062500
20
293.000000
0
VERTEX
5
258
100
AcDbEntity
8
1
100
AcDbVertex
100
AcDb2dVertex
62
5
10
107.500000
20
293.000000
0
SEQEND
5
259
100
AcDbEntity
8
1
0
LINE
5
25a
100
AcDbEntity
8
1
100
AcDbLine
6
CONTINUOUS
62
5
10
78.000000
20
327.437500
11
81.750000
21
328.062500
0
LINE
5
25b
100
AcDbEntity
8
1
100
AcDbLine
6
CONTINUOUS
62
5
10
76.750000
20
325.562500
11
82.750000
21
325.562500
0
POLYLINE
5
25c
100
AcDbEntity
8
1
6
CONTINUOUS
62
5
100
AcDb2dPolyline
66
1
10
0.0
20
0.0
30
0.0
70
0
0
VERTEX
5
25d
100
AcDbEntity
8
1
100
AcDbVertex
100
AcDb2dVertex
62
5
10
80.000000
20
327.750000
0
VERTEX
5
25e
100
AcDbEntity
8
1
100
AcDbVertex
100
AcDb2dVertex
62
5
10
80.000000
20
325.562500
0
VERTEX
5
25f
100
AcDbEntity
8
1
100
AcDbVertex
100
AcDb2dVertex
62
5
10
79.750000
20
324.000000
0
VERTEX
5
260
100
AcDbEntity
8
1
100
AcDbVertex
100
AcDb2dVertex
62
5
10
79.000000
20
322.750000
0
VERTEX
5
261
100
AcDbEntity
8
1
100
AcDbVertex
100
AcDb2dVertex
62
5
10
78.250000
20
321.812500
0
SEQEND
5
262
100
AcDbEntity
8
1
0
LINE
5
263
100
AcDbEntity
8
1
100
AcDbLine
6
CONTINUOUS
62
5
10
76.500000
20
336.500000
11
78.500000
21
336.500000
0
LINE
5
264
100
AcDbEntity
8
1
100
AcDbLine
6
CONTINUOUS
62
5
10
76.250000
20
332.125000
11
78.500000
21
333.375000
0
LINE
5
265
100
AcDbEntity
8
1
100
AcDbLine
6
CONTINUOUS
62
5
10
77.500000
20
339.000000
11
77.500000
21
332.750000
0
POLYLINE
5
266
100
AcDbEntity
8
1
6
CONTINUOUS
62
5
100
AcDb2dPolyline
66
1
10
0.0
20
0.0
30
0.0
70
1
0
VERTEX
5
267
100
AcDbEntity
8
1
100
AcDbVertex
100
AcDb2dVertex
62
5
10
79.500000
20
338.687500
0
VERTEX
5
268
100
AcDbEntity
8
1
100
AcDbVertex
100
AcDb2dVertex
62
5
10
79.500000
20
335.250000
0
VERTEX
5
269
100
AcDbEntity
8
1
100
AcDbVertex
100
AcDb2dVertex
62
5
10
82.500000
20
335.250000
0
VERTEX
5
26a
100
AcDbEntity
8
1
100
AcDbVertex
100
AcDb2dVertex
62
5
10
82.500000
20
338.687500
0
VERTEX
5
26b
100
AcDbEntity
8
1
100
AcDbVertex
100
AcDb2dVertex
62
5
10
79.500000
20
338.687500
0
SEQEND
5
26c
100
AcDbEntity
8
1
0
LINE
5
26d
100
AcDbEntity
8
1
100
AcDbLine
6
CONTINUOUS
62
5
10
79.500000
20
337.125000
11
82.500000
21
337.125000
0
LINE
5
26e
100
AcDbEntity
8
1
100
AcDbLine
6
CONTINUOUS
62
5
10
81.000000
20
338.687500
11
81.000000
21
331.500000
0
LINE
5
26f
100
AcDbEntity
8
1
100
AcDbLine
6
CONTINUOUS
62
5
10
79.000000
20
333.687500
11
83.000000
21
333.687500
0
LINE
5
270
100
AcDbEntity
8
1
100
AcDbLine
6
CONTINUOUS
62
5
10
78.250000
20
331.500000
11
83.500000
21
331.500000
0
LINE
5
271
100
AcDbEntity
8
1
100
AcDbLine
6
CONTINUOUS
62
5
10
50.000000
20
350.000000
11
50.000000
21
318.000000
0
LINE
5
272
100
AcDbEntity
8
1
100
AcDbLine
6
CONTINUOUS
62
5
10
77.500000
20
296.750000
11
80.625000
21
296.750000
0
POLYLINE
5
273
100
AcDbEntity
8
1
6
CONTINUOUS
62
5
100
AcDb2dPolyline
66
1
10
0.0
20
0.0
30
0.0
70
0
0
VERTEX
5
274
100
AcDbEntity
8
1
100
AcDbVertex
100
AcDb2dVertex
62
5
10
65.312500
20
300.500000
0
VERTEX
5
275
100
AcDbEntity
8
1
100
AcDbVertex
100
AcDb2dVertex
62
5
10
65.312500
20
294.875000
0
VERTEX
5
276
100
AcDbEntity
8
1
100
AcDbVertex
100
AcDb2dVertex
62
5
10
65.000000
20
293.625000
0
VERTEX
5
277
100
AcDbEntity
8
1
100
AcDbVertex
100
AcDb2dVertex
62
5
10
64.375000
20
293.000000
0
VERTEX
5
278
100
AcDbEntity
8
1
100
AcDbVertex
100
AcDb2dVertex
62
5
10
63.437500
20
293.000000
0
VERTEX
5
279
100
AcDbEntity
8
1
100
AcDbVertex
100
AcDb2dVertex
62
5
10
62.812500
20
293.625000
0
VERTEX
5
27a
100
AcDbEntity
8
1
100
AcDbVertex
100
AcDb2dVertex
62
5
10
62.500000
20
294.875000
0
SEQEND
5
27b
100
AcDbEntity
8
1
0
POLYLINE
5
27c
100
AcDbEntity
8
1
6
CONTINUOUS
62
5
100
AcDb2dPolyline
66
1
10
0.0
20
0.0
30
0.0
70
0
0
VERTEX
5
27d
100
AcDbEntity
8
1
100
AcDbVertex
100
AcDb2dVertex
62
5
10
70.625000
20
300.500000
0
VERTEX
5
27e
100
AcDbEntity
8
1
100
AcDbVertex
100
AcDb2dVertex
62
5
10
67.500000
20
300.500000
0
VERTEX
5
27f
100
AcDbEntity
8
1
100
AcDbVertex
100
AcDb2dVertex
62
5
10
67.500000
20
293.000000
0
VERTEX
5
280
100
AcDbEntity
8
1
100
AcDbVertex
100
AcDb2dVertex
62
5
10
70.937500
20
293.000000
0
SEQEND
5
281
100
AcDbEntity
8
1
0
LINE
5
282
100
AcDbEntity
8
1
100
AcDbLine
6
CONTINUOUS
62
5
10
67.500000
20
296.750000
11
70.312500
21
296.750000
0
POLYLINE
5
283
100
AcDbEntity
8
1
6
CONTINUOUS
62
5
100
AcDb2dPolyline
66
1
10
0.0
20
0.0
30
0.0
70
0
0
VERTEX
5
284
100
AcDbEntity
8
1
100
AcDbVertex
100
AcDb2dVertex
62
5
10
75.625000
20
298.937500
0
VERTEX
5
285
100
AcDbEntity
8
1
100
AcDbVertex
100
AcDb2dVertex
62
5
10
75.312500
20
299.875000
0
VERTEX
5
286
100
AcDbEntity
8
1
100
AcDbVertex
100
AcDb2dVertex
62
5
10
74.687500
20
300.500000
0
VERTEX
5
287
100
AcDbEntity
8
1
100
AcDbVertex
100
AcDb2dVertex
62
5
10
73.750000
20
300.500000
0
VERTEX
5
288
100
AcDbEntity
8
1
100
AcDbVertex
100
AcDb2dVertex
62
5
10
72.812500
20
299.562500
0
VERTEX
5
289
100
AcDbEntity
8
1
100
AcDbVertex
100
AcDb2dVertex
62
5
10
72.500000
20
298.000000
0
VERTEX
5
28a
100
AcDbEntity
8
1
100
AcDbVertex
100
AcDb2dVertex
62
5
10
72.500000
20
295.500000
0
VERTEX
5
28b
100
AcDbEntity
8
1
100
AcDbVertex
100
AcDb2dVertex
62
5
10
72.812500
20
293.937500
0
VERTEX
5
28c
100
AcDbEntity
8
1
100
AcDbVertex
100
AcDb2dVertex
62
5
10
73.750000
20
293.000000
0
VERTEX
5
28d
100
AcDbEntity
8
1
100
AcDbVertex
100
AcDb2dVertex
62
5
10
74.687500
20
293.000000
0
VERTEX
5
28e
100
AcDbEntity
8
1
100
AcDbVertex
100
AcDb2dVertex
62
5
10
75.312500
20
293.625000
0
VERTEX
5
28f
100
AcDbEntity
8
1
100
AcDbVertex
100
AcDb2dVertex
62
5
10
75.937500
20
295.187500
0
SEQEND
5
290
100
AcDbEntity
8
1
0
LINE
5
291
100
AcDbEntity
8
1
100
AcDbLine
6
CONTINUOUS
62
5
10
85.000000
20
339.000000
11
86.000000
21
338.062500
0
POLYLINE
5
292
100
AcDbEntity
8
1
6
CONTINUOUS
62
5
100
AcDb2dPolyline
66
1
10
0.0
20
0.0
30
0.0
70
0
0
VERTEX
5
293
100
AcDbEntity
8
1
100
AcDbVertex
100
AcDb2dVertex
62
5
10
84.750000
20
335.875000
0
VERTEX
5
294
100
AcDbEntity
8
1
100
AcDbVertex
100
AcDb2dVertex
62
5
10
86.000000
20
335.875000
0
VERTEX
5
295
100
AcDbEntity
8
1
100
AcDbVertex
100
AcDb2dVertex
62
5
10
86.000000
20
332.750000
0
VERTEX
5
296
100
AcDbEntity
8
1
100
AcDbVertex
100
AcDb2dVertex
62
5
10
84.750000
20
331.187500
0
SEQEND
5
297
100
AcDbEntity
8
1
0
POLYLINE
5
298
100
AcDbEntity
8
1
6
CONTINUOUS
62
5
100
AcDb2dPolyline
66
1
10
0.0
20
0.0
30
0.0
70
0
0
VERTEX
5
299
100
AcDbEntity
8
1
100
AcDbVertex
100
AcDb2dVertex
62
5
10
86.000000
20
332.750000
0
VERTEX
5
29a
100
AcDbEntity
8
1
100
AcDbVertex
100
AcDb2dVertex
62
5
10
86.750000
20
331.500000
0
VERTEX
5
29b
100
AcDbEntity
8
1
100
AcDbVertex
100
AcDb2dVertex
62
5
10
87.750000
20
331.187500
0
VERTEX
5
29c
100
AcDbEntity
8
1
100
AcDbVertex
100
AcDb2dVertex
62
5
10
91.500000
20
331.187500
0
SEQEND
5
29d
100
AcDbEntity
8
1
0
POLYLINE
5
29e
100
AcDbEntity
8
1
6
CONTINUOUS
62
5
100
AcDb2dPolyline
66
1
10
0.0
20
0.0
30
0.0
70
0
0
VERTEX
5
29f
100
AcDbEntity
8
1
100
AcDbVertex
100
AcDb2dVertex
62
5
10
88.750000
20
336.500000
0
VERTEX
5
2a0
100
AcDbEntity
8
1
100
AcDbVertex
100
AcDb2dVertex
62
5
10
88.000000
20
334.625000
0
VERTEX
5
2a1
100
AcDbEntity
8
1
100
AcDbVertex
100
AcDb2dVertex
62
5
10
87.250000
20
333.375000
0
VERTEX
5
2a2
100
AcDbEntity
8
1
100
AcDbVertex
100
AcDb2dVertex
62
5
10
86.750000
20
332.750000
0
SEQEND
5
2a3
100
AcDbEntity
8
1
0
POLYLINE
5
2a4
100
AcDbEntity
8
1
6
CONTINUOUS
62
5
100
AcDb2dPolyline
66
1
10
0.0
20
0.0
30
0.0
70
0
0
VERTEX
5
2a5
100
AcDbEntity
8
1
100
AcDbVertex
100
AcDb2dVertex
62
5
10
87.500000
20
339.312500
0
VERTEX
5
2a6
100
AcDbEntity
8
1
100
AcDbVertex
100
AcDb2dVertex
62
5
10
88.750000
20
339.312500
0
VERTEX
5
2a7
100
AcDbEntity
8
1
100
AcDbVertex
100
AcDb2dVertex
62
5
10
88.750000
20
336.500000
0
VERTEX
5
2a8
100
AcDbEntity
8
1
100
AcDbVertex
100
AcDb2dVertex
62
5
10
89.500000
20
334.625000
0
VERTEX
5
2a9
100
AcDbEntity
8
1
100
AcDbVertex
100
AcDb2dVertex
62
5
10
90.500000
20
333.375000
0
VERTEX
5
2aa
100
AcDbEntity
8
1
100
AcDbVertex
100
AcDb2dVertex
62
5
10
91.250000
20
332.750000
0
SEQEND
5
2ab
100
AcDbEntity
8
1
0
LINE
5
2ac
100
AcDbEntity
8
1
100
AcDbLine
6
CONTINUOUS
62
5
10
82.500000
20
300.500000
11
82.500000
21
293.000000
0
POLYLINE
5
2ad
100
AcDbEntity
8
1
6
CONTINUOUS
62
5
100
AcDb2dPolyline
66
1
10
0.0
20
0.0
30
0.0
70
0
0
VERTEX
5
2ae
100
AcDbEntity
8
1
100
AcDbVertex
100
AcDb2dVertex
62
5
10
82.500000
20
300.500000
0
VERTEX
5
2af
100
AcDbEntity
8
1
100
AcDbVertex
100
AcDb2dVertex
62
5
10
84.062500
20
300.500000
0
VERTEX
5
2b0
100
AcDbEntity
8
1
100
AcDbVertex
100
AcDb2dVertex
62
5
10
84.687500
20
300.187500
0
VERTEX
5
2b1
100
AcDbEntity
8
1
100
AcDbVertex
100
AcDb2dVertex
62
5
10
85.000000
20
299.875000
0
VERTEX
5
2b2
100
AcDbEntity
8
1
100
AcDbVertex
100
AcDb2dVertex
62
5
10
85.312500
20
299.250000
0
VERTEX
5
2b3
100
AcDbEntity
8
1
100
AcDbVertex
100
AcDb2dVertex
62
5
10
85.312500
20
298.312500
0
VERTEX
5
2b4
100
AcDbEntity
8
1
100
AcDbVertex
100
AcDb2dVertex
62
5
10
85.000000
20
297.687500
0
VERTEX
5
2b5
100
AcDbEntity
8
1
100
AcDbVertex
100
AcDb2dVertex
62
5
10
84.687500
20
297.375000
0
VERTEX
5
2b6
100
AcDbEntity
8
1
100
AcDbVertex
100
AcDb2dVertex
62
5
10
84.062500
20
297.062500
0
VERTEX
5
2b7
100
AcDbEntity
8
1
100
AcDbVertex
100
AcDb2dVertex
62
5
10
82.500000
20
297.062500
0
SEQEND
5
2b8
100
AcDbEntity
8
1
0
POLYLINE
5
2b9
100
AcDbEntity
8
1
6
CONTINUOUS
62
5
100
AcDb2dPolyline
66
1
10
0.0
20
0.0
30
0.0
70
0
0
VERTEX
5
2ba
100
AcDbEntity
8
1
100
AcDbVertex
100
AcDb2dVertex
62
5
10
84.062500
20
297.062500
0
VERTEX
5
2bb
100
AcDbEntity
8
1
100
AcDbVertex
100
AcDb2dVertex
62
5
10
84.687500
20
296.750000
0
VERTEX
5
2bc
100
AcDbEntity
8
1
100
AcDbVertex
100
AcDb2dVertex
62
5
10
85.312500
20
296.125000
0
VERTEX
5
2bd
100
AcDbEntity
8
1
100
AcDbVertex
100
AcDb2dVertex
62
5
10
85.625000
20
295.500000
0
VERTEX
5
2be
100
AcDbEntity
8
1
100
AcDbVertex
100
AcDb2dVertex
62
5
10
85.625000
20
294.250000
0
VERTEX
5
2bf
100
AcDbEntity
8
1
100
AcDbVertex
100
AcDb2dVertex
62
5
10
85.312500
20
293.625000
0
VERTEX
5
2c0
100
AcDbEntity
8
1
100
AcDbVertex
100
AcDb2dVertex
62
5
10
85.000000
20
293.312500
0
VERTEX
5
2c1
100
AcDbEntity
8
1
100
AcDbVertex
100
AcDb2dVertex
62
5
10
84.375000
20
293.000000
0
VERTEX
5
2c2
100
AcDbEntity
8
1
100
AcDbVertex
100
AcDb2dVertex
62
5
10
82.500000
20
293.000000
0
SEQEND
5
2c3
100
AcDbEntity
8
1
0
POLYLINE
5
2c4
100
AcDbEntity
8
1
6
DOT2
62
5
100
AcDb2dPolyline
66
1
10
0.0
20
0.0
30
0.0
70
0
0
VERTEX
5
2c5
100
AcDbEntity
8
1
100
AcDbVertex
100
AcDb2dVertex
62
5
10
134.450000
20
249.750000
0
VERTEX
5
2c6
100
AcDbEntity
8
1
100
AcDbVertex
100
AcDb2dVertex
62
5
10
133.512500
20
249.750000
0
VERTEX
5
2c7
100
AcDbEntity
8
1
100
AcDbVertex
100
AcDb2dVertex
62
5
10
132.575000
20
249.437500
0
VERTEX
5
2c8
100
AcDbEntity
8
1
100
AcDbVertex
100
AcDb2dVertex
62
5
10
131.950000
20
248.187500
0
VERTEX
5
2c9
100
AcDbEntity
8
1
100
AcDbVertex
100
AcDb2dVertex
62
5
10
131.950000
20
243.812500
0
VERTEX
5
2ca
100
AcDbEntity
8
1
100
AcDbVertex
100
AcDb2dVertex
62
5
10
132.262500
20
242.875000
0
VERTEX
5
2cb
100
AcDbEntity
8
1
100
AcDbVertex
100
AcDb2dVertex
62
5
10
132.575000
20
242.562500
0
VERTEX
5
2cc
100
AcDbEntity
8
1
100
AcDbVertex
100
AcDb2dVertex
62
5
10
133.200000
20
242.250000
0
VERTEX
5
2cd
100
AcDbEntity
8
1
100
AcDbVertex
100
AcDb2dVertex
62
5
10
133.825000
20
242.250000
0
VERTEX
5
2ce
100
AcDbEntity
8
1
100
AcDbVertex
100
AcDb2dVertex
62
5
10
134.450000
20
242.562500
0
VERTEX
5
2cf
100
AcDbEntity
8
1
100
AcDbVertex
100
AcDb2dVertex
62
5
10
134.762500
20
242.875000
0
VERTEX
5
2d0
100
AcDbEntity
8
1
100
AcDbVertex
100
AcDb2dVertex
62
5
10
135.075000
20
243.812500
0
VERTEX
5
2d1
100
AcDbEntity
8
1
100
AcDbVertex
100
AcDb2dVertex
62
5
10
135.075000
20
245.687500
0
VERTEX
5
2d2
100
AcDbEntity
8
1
100
AcDbVertex
100
AcDb2dVertex
62
5
10
134.762500
20
246.312500
0
VERTEX
5
2d3
100
AcDbEntity
8
1
100
AcDbVertex
100
AcDb2dVertex
62
5
10
134.137500
20
246.625000
0
VERTEX
5
2d4
100
AcDbEntity
8
1
100
AcDbVertex
100
AcDb2dVertex
62
5
10
132.887500
20
246.625000
0
VERTEX
5
2d5
100
AcDbEntity
8
1
100
AcDbVertex
100
AcDb2dVertex
62
5
10
131.950000
20
246.312500
0
SEQEND
5
2d6
100
AcDbEntity
8
1
0
POLYLINE
5
2d7
100
AcDbEntity
8
1
6
DOT2
62
5
100
AcDb2dPolyline
66
1
10
0.0
20
0.0
30
0.0
70
0
0
VERTEX
5
2d8
100
AcDbEntity
8
1
100
AcDbVertex
100
AcDb2dVertex
62
5
10
129.450000
20
249.750000
0
VERTEX
5
2d9
100
AcDbEntity
8
1
100
AcDbVertex
100
AcDb2dVertex
62
5
10
126.637500
20
244.125000
0
VERTEX
5
2da
100
AcDbEntity
8
1
100
AcDbVertex
100
AcDb2dVertex
62
5
10
130.387500
20
244.125000
0
SEQEND
5
2db
100
AcDbEntity
8
1
0
LINE
5
2dc
100
AcDbEntity
8
1
100
AcDbLine
6
DOT2
62
5
10
129.450000
20
249.750000
11
129.450000
21
242.250000
0
LINE
5
2dd
100
AcDbEntity
8
1
100
AcDbLine
6
DOT2
62
5
10
128.825000
20
242.250000
11
130.075000
21
242.250000
0
LINE
5
2de
100
AcDbEntity
8
1
100
AcDbLine
6
CONTINUOUS
62
5
10
149.300000
20
213.250000
11
149.300000
21
216.000000
0
CIRCLE
5
2df
100
AcDbEntity
8
1
100
AcDbCircle
6
CONTINUOUS
62
5
10
137.900000
20
210.500000
40
2.250000
0
CIRCLE
5
2e0
100
AcDbEntity
8
1
100
AcDbCircle
6
CONTINUOUS
62
5
10
137.900000
20
210.500000
40
2.750000
0
LINE
5
2e1
100
AcDbEntity
8
1
100
AcDbLine
6
CONTINUOUS
62
5
10
148.700000
20
213.208258
11
148.700000
21
216.000000
0
LINE
5
2e2
100
AcDbEntity
8
1
100
AcDbLine
6
CONTINUOUS
62
5
10
149.000000
20
213.250000
11
149.000000
21
216.000000
0
ARC
5
2e3
100
AcDbEntity
8
1
100
AcDbCircle
6
CONTINUOUS
62
5
10
143.900000
20
197.250000
40
0.500000
100
AcDbArc
50
-89.999999
51
0.000000
0
POLYLINE
5
2e4
100
AcDbEntity
8
1
6
CONTINUOUS
62
5
100
AcDb2dPolyline
66
1
10
0.0
20
0.0
30
0.0
70
0
0
VERTEX
5
2e5
100
AcDbEntity
8
1
100
AcDbVertex
100
AcDb2dVertex
62
5
10
144.400000
20
197.250000
0
VERTEX
5
2e6
100
AcDbEntity
8
1
100
AcDbVertex
100
AcDb2dVertex
62
5
10
144.400000
20
198.750000
0
VERTEX
5
2e7
100
AcDbEntity
8
1
100
AcDbVertex
100
AcDb2dVertex
62
5
10
142.900000
20
199.750000
0
VERTEX
5
2e8
100
AcDbEntity
8
1
100
AcDbVertex
100
AcDb2dVertex
62
5
10
140.400000
20
199.750000
0
VERTEX
5
2e9
100
AcDbEntity
8
1
100
AcDbVertex
100
AcDb2dVertex
62
5
10
140.400000
20
196.750000
0
VERTEX
5
2ea
100
AcDbEntity
8
1
100
AcDbVertex
100
AcDb2dVertex
62
5
10
143.900000
20
196.750000
0
SEQEND
5
2eb
100
AcDbEntity
8
1
0
LINE
5
2ec
100
AcDbEntity
8
1
100
AcDbLine
6
CONTINUOUS
62
5
10
143.400000
20
190.100000
11
142.900000
21
190.600000
0
POLYLINE
5
2ed
100
AcDbEntity
8
1
6
CONTINUOUS
62
5
100
AcDb2dPolyline
66
1
10
0.0
20
0.0
30
0.0
70
0
0
VERTEX
5
2ee
100
AcDbEntity
8
1
100
AcDbVertex
100
AcDb2dVertex
62
5
10
144.750000
20
190.600000
0
VERTEX
5
2ef
100
AcDbEntity
8
1
100
AcDbVertex
100
AcDb2dVertex
62
5
10
142.900000
20
190.600000
0
VERTEX
5
2f0
100
AcDbEntity
8
1
100
AcDbVertex
100
AcDb2dVertex
62
5
10
142.900000
20
190.500000
0
VERTEX
5
2f1
100
AcDbEntity
8
1
100
AcDbVertex
100
AcDb2dVertex
62
5
10
141.900000
20
190.500000
0
SEQEND
5
2f2
100
AcDbEntity
8
1
0
LINE
5
2f3
100
AcDbEntity
8
1
100
AcDbLine
6
CONTINUOUS
62
5
10
143.400000
20
184.900000
11
142.900000
21
184.400000
0
POLYLINE
5
2f4
100
AcDbEntity
8
1
6
CONTINUOUS
62
5
100
AcDb2dPolyline
66
1
10
0.0
20
0.0
30
0.0
70
0
0
VERTEX
5
2f5
100
AcDbEntity
8
1
100
AcDbVertex
100
AcDb2dVertex
62
5
10
144.750000
20
184.400000
0
VERTEX
5
2f6
100
AcDbEntity
8
1
100
AcDbVertex
100
AcDb2dVertex
62
5
10
142.900000
20
184.400000
0
VERTEX
5
2f7
100
AcDbEntity
8
1
100
AcDbVertex
100
AcDb2dVertex
62
5
10
142.900000
20
184.500000
0
VERTEX
5
2f8
100
AcDbEntity
8
1
100
AcDbVertex
100
AcDb2dVertex
62
5
10
141.900000
20
184.500000
0
SEQEND
5
2f9
100
AcDbEntity
8
1
0
POLYLINE
5
2fa
100
AcDbEntity
8
1
6
CONTINUOUS
62
5
100
AcDb2dPolyline
66
1
10
0.0
20
0.0
30
0.0
70
0
0
VERTEX
5
2fb
100
AcDbEntity
8
1
100
AcDbVertex
100
AcDb2dVertex
62
5
10
144.750000
20
190.100000
0
VERTEX
5
2fc
100
AcDbEntity
8
1
100
AcDbVertex
100
AcDb2dVertex
62
5
10
143.400000
20
190.100000
0
VERTEX
5
2fd
100
AcDbEntity
8
1
100
AcDbVertex
100
AcDb2dVertex
62
5
10
143.400000
20
184.900000
0
VERTEX
5
2fe
100
AcDbEntity
8
1
100
AcDbVertex
100
AcDb2dVertex
62
5
10
144.750000
20
184.900000
0
SEQEND
5
2ff
100
AcDbEntity
8
1
0
LINE
5
300
100
AcDbEntity
8
1
100
AcDbLine
6
CONTINUOUS
62
5
10
143.400000
20
184.900000
11
142.900000
21
184.400000
0
LINE
5
301
100
AcDbEntity
8
1
100
AcDbLine
6
CONTINUOUS
62
5
10
143.400000
20
190.100000
11
142.900000
21
190.600000
0
ARC
5
302
100
AcDbEntity
8
1
100
AcDbCircle
6
CONTINUOUS
62
5
10
135.288612
20
181.118575
40
0.600000
100
AcDbArc
50
-87.357454
51
-84.127584
0
LINE
5
303
100
AcDbEntity
8
1
100
AcDbLine
6
CONTINUOUS
62
5
10
135.063000
20
186.500000
11
135.338988
21
180.520261
0
ARC
5
304
100
AcDbEntity
8
1
100
AcDbCircle
6
CONTINUOUS
62
5
10
137.378926
20
183.119737
40
2.697073
100
AcDbArc
50
166.991533
51
-161.706442
0
POLYLINE
5
305
100
AcDbEntity
8
1
6
CONTINUOUS
62
5
100
AcDb2dPolyline
66
1
10
0.0
20
0.0
30
0.0
70
0
0
VERTEX
5
306
100
AcDbEntity
8
1
100
AcDbVertex
100
AcDb2dVertex
62
5
10
134.623077
20
186.500000
0
VERTEX
5
307
100
AcDbEntity
8
1
100
AcDbVertex
100
AcDb2dVertex
62
5
10
134.900000
20
180.500000
0
VERTEX
5
308
100
AcDbEntity
8
1
100
AcDbVertex
100
AcDb2dVertex
62
5
10
135.350000
20
180.520769
0
SEQEND
5
309
100
AcDbEntity
8
1
0
ARC
5
30a
100
AcDbEntity
8
1
100
AcDbCircle
6
CONTINUOUS
62
5
10
133.561388
20
181.118575
40
0.600000
100
AcDbArc
50
-133.286507
51
-92.642544
0
ARC
5
30b
100
AcDbEntity
8
1
100
AcDbCircle
6
CONTINUOUS
62
5
10
133.806063
20
186.419851
40
0.600000
100
AcDbArc
50
172.323358
51
177.357453
0
LINE
5
30c
100
AcDbEntity
8
1
100
AcDbLine
6
CONTINUOUS
62
5
10
133.150000
20
185.219003
11
133.206701
21
186.447514
0
LINE
5
30d
100
AcDbEntity
8
1
100
AcDbLine
6
CONTINUOUS
62
5
10
133.787000
20
186.500000
11
133.511012
21
180.520261
0
POLYLINE
5
30e
100
AcDbEntity
8
1
6
CONTINUOUS
62
5
100
AcDb2dPolyline
66
1
10
0.0
20
0.0
30
0.0
70
0
0
VERTEX
5
30f
100
AcDbEntity
8
1
100
AcDbVertex
100
AcDb2dVertex
62
5
10
133.150000
20
180.536924
0
VERTEX
5
310
100
AcDbEntity
8
1
100
AcDbVertex
100
AcDb2dVertex
62
5
10
133.150479
20
180.536901
0
VERTEX
5
311
100
AcDbEntity
8
1
100
AcDbVertex
100
AcDb2dVertex
62
5
10
133.150854
20
180.536884
0
VERTEX
5
312
100
AcDbEntity
8
1
100
AcDbVertex
100
AcDb2dVertex
62
5
10
133.950000
20
180.500000
0
SEQEND
5
313
100
AcDbEntity
8
1
0
LINE
5
314
100
AcDbEntity
8
1
100
AcDbLine
6
CONTINUOUS
62
5
10
134.226923
20
186.500000
11
133.950000
21
180.500000
0
LINE
5
315
100
AcDbEntity
8
1
100
AcDbLine
6
CONTINUOUS
62
5
10
144.750000
20
191.000000
11
147.100000
21
191.000000
0
ARC
5
316
100
AcDbEntity
8
1
100
AcDbCircle
6
CONTINUOUS
62
5
10
143.900000
20
202.500000
40
1.000000
100
AcDbArc
50
-143.130101
51
36.869897
0
LINE
5
317
100
AcDbEntity
8
1
100
AcDbLine
6
CONTINUOUS
62
5
10
143.100000
20
201.900000
11
138.637043
21
207.850610
0
LINE
5
318
100
AcDbEntity
8
1
100
AcDbLine
6
CONTINUOUS
62
5
10
140.237043
20
209.050610
11
144.700000
21
203.100000
0
ARC
5
319
100
AcDbEntity
8
1
100
AcDbCircle
6
CONTINUOUS
62
5
10
116.900000
20
197.250000
40
0.500000
100
AcDbArc
50
-89.999999
51
-0.000000
0
POLYLINE
5
31a
100
AcDbEntity
8
1
6
CONTINUOUS
62
5
100
AcDb2dPolyline
66
1
10
0.0
20
0.0
30
0.0
70
0
0
VERTEX
5
31b
100
AcDbEntity
8
1
100
AcDbVertex
100
AcDb2dVertex
62
5
10
117.400000
20
197.250000
0
VERTEX
5
31c
100
AcDbEntity
8
1
100
AcDbVertex
100
AcDb2dVertex
62
5
10
117.400000
20
198.750000
0
VERTEX
5
31d
100
AcDbEntity
8
1
100
AcDbVertex
100
AcDb2dVertex
62
5
10
115.900000
20
199.750000
0
VERTEX
5
31e
100
AcDbEntity
8
1
100
AcDbVertex
100
AcDb2dVertex
62
5
10
113.400000
20
199.750000
0
VERTEX
5
31f
100
AcDbEntity
8
1
100
AcDbVertex
100
AcDb2dVertex
62
5
10
113.400000
20
196.750000
0
VERTEX
5
320
100
AcDbEntity
8
1
100
AcDbVertex
100
AcDb2dVertex
62
5
10
116.900000
20
196.750000
0
SEQEND
5
321
100
AcDbEntity
8
1
0
ARC
5
322
100
AcDbEntity
8
1
100
AcDbCircle
6
CONTINUOUS
62
5
10
120.511388
20
181.118575
40
0.600000
100
AcDbArc
50
-95.872415
51
-92.642544
0
ARC
5
323
100
AcDbEntity
8
1
100
AcDbCircle
6
CONTINUOUS
62
5
10
118.421074
20
183.119737
40
2.697073
100
AcDbArc
50
-18.293556
51
13.008465
0
ARC
5
324
100
AcDbEntity
8
1
100
AcDbCircle
6
CONTINUOUS
62
5
10
120.756063
20
186.419851
40
0.600000
100
AcDbArc
50
87.357454
51
120.670763
0
POLYLINE
5
325
100
AcDbEntity
8
1
6
CONTINUOUS
62
5
100
AcDb2dPolyline
66
1
10
0.0
20
0.0
30
0.0
70
0
0
VERTEX
5
326
100
AcDbEntity
8
1
100
AcDbVertex
100
AcDb2dVertex
62
5
10
120.450000
20
180.520769
0
VERTEX
5
327
100
AcDbEntity
8
1
100
AcDbVertex
100
AcDb2dVertex
62
5
10
120.900000
20
180.500000
0
VERTEX
5
328
100
AcDbEntity
8
1
100
AcDbVertex
100
AcDb2dVertex
62
5
10
121.200000
20
187.000000
0
VERTEX
5
329
100
AcDbEntity
8
1
100
AcDbVertex
100
AcDb2dVertex
62
5
10
120.450000
20
187.034615
0
SEQEND
5
32a
100
AcDbEntity
8
1
0
POLYLINE
5
32b
100
AcDbEntity
8
1
6
CONTINUOUS
62
5
100
AcDb2dPolyline
66
1
10
0.0
20
0.0
30
0.0
70
1
0
VERTEX
5
32c
100
AcDbEntity
8
1
100
AcDbVertex
100
AcDb2dVertex
62
5
10
120.461012
20
180.520261
0
VERTEX
5
32d
100
AcDbEntity
8
1
100
AcDbVertex
100
AcDb2dVertex
62
5
10
120.761012
20
187.020261
0
SEQEND
5
32e
100
AcDbEntity
8
1
0
ARC
5
32f
100
AcDbEntity
8
1
100
AcDbCircle
6
CONTINUOUS
62
5
10
122.238612
20
181.118575
40
0.600000
100
AcDbArc
50
-87.357454
51
-46.713491
0
POLYLINE
5
330
100
AcDbEntity
8
1
6
CONTINUOUS
62
5
100
AcDb2dPolyline
66
1
10
0.0
20
0.0
30
0.0
70
0
0
VERTEX
5
331
100
AcDbEntity
8
1
100
AcDbVertex
100
AcDb2dVertex
62
5
10
122.650000
20
180.536924
0
VERTEX
5
332
100
AcDbEntity
8
1
100
AcDbVertex
100
AcDb2dVertex
62
5
10
122.649521
20
180.536901
0
VERTEX
5
333
100
AcDbEntity
8
1
100
AcDbVertex
100
AcDb2dVertex
62
5
10
122.649147
20
180.536884
0
VERTEX
5
334
100
AcDbEntity
8
1
100
AcDbVertex
100
AcDb2dVertex
62
5
10
121.850000
20
180.500000
0
SEQEND
5
335
100
AcDbEntity
8
1
0
ARC
5
336
100
AcDbEntity
8
1
100
AcDbCircle
6
CONTINUOUS
62
5
10
121.993938
20
186.419851
40
0.600000
100
AcDbArc
50
2.642545
51
92.642544
0
LINE
5
337
100
AcDbEntity
8
1
100
AcDbLine
6
CONTINUOUS
62
5
10
122.650000
20
185.219003
11
122.593300
21
186.447514
0
ARC
5
338
100
AcDbEntity
8
1
100
AcDbCircle
6
CONTINUOUS
62
5
10
122.376810
20
186.437522
40
0.600000
100
AcDbArc
50
62.914626
51
92.642544
0
POLYLINE
5
339
100
AcDbEntity
8
1
6
CONTINUOUS
62
5
100
AcDb2dPolyline
66
1
10
0.0
20
0.0
30
0.0
70
0
0
VERTEX
5
33a
100
AcDbEntity
8
1
100
AcDbVertex
100
AcDb2dVertex
62
5
10
121.850000
20
180.500000
0
VERTEX
5
33b
100
AcDbEntity
8
1
100
AcDbVertex
100
AcDb2dVertex
62
5
10
121.550000
20
187.000000
0
VERTEX
5
33c
100
AcDbEntity
8
1
100
AcDbVertex
100
AcDb2dVertex
62
5
10
122.349147
20
187.036884
0
SEQEND
5
33d
100
AcDbEntity
8
1
0
POLYLINE
5
33e
100
AcDbEntity
8
1
6
CONTINUOUS
62
5
100
AcDb2dPolyline
66
1
10
0.0
20
0.0
30
0.0
70
1
0
VERTEX
5
33f
100
AcDbEntity
8
1
100
AcDbVertex
100
AcDb2dVertex
62
5
10
121.988988
20
187.020261
0
VERTEX
5
340
100
AcDbEntity
8
1
100
AcDbVertex
100
AcDb2dVertex
62
5
10
122.288988
20
180.520261
0
SEQEND
5
341
100
AcDbEntity
8
1
0
POLYLINE
5
342
100
AcDbEntity
8
1
6
CONTINUOUS
62
5
100
AcDb2dPolyline
66
1
10
0.0
20
0.0
30
0.0
70
0
0
VERTEX
5
343
100
AcDbEntity
8
1
100
AcDbVertex
100
AcDb2dVertex
62
5
10
111.050000
20
190.100000
0
VERTEX
5
344
100
AcDbEntity
8
1
100
AcDbVertex
100
AcDb2dVertex
62
5
10
112.400000
20
190.100000
0
VERTEX
5
345
100
AcDbEntity
8
1
100
AcDbVertex
100
AcDb2dVertex
62
5
10
112.400000
20
184.900000
0
VERTEX
5
346
100
AcDbEntity
8
1
100
AcDbVertex
100
AcDb2dVertex
62
5
10
111.050000
20
184.900000
0
SEQEND
5
347
100
AcDbEntity
8
1
0
LINE
5
348
100
AcDbEntity
8
1
100
AcDbLine
6
CONTINUOUS
62
5
10
111.050000
20
191.000000
11
108.700000
21
191.000000
0
LINE
5
349
100
AcDbEntity
8
1
100
AcDbLine
6
CONTINUOUS
62
5
10
112.400000
20
190.100000
11
112.900000
21
190.600000
0
LINE
5
34a
100
AcDbEntity
8
1
100
AcDbLine
6
CONTINUOUS
62
5
10
112.400000
20
184.900000
11
112.900000
21
184.400000
0
LINE
5
34b
100
AcDbEntity
8
1
100
AcDbLine
6
CONTINUOUS
62
5
10
112.400000
20
184.900000
11
112.900000
21
184.400000
0
LINE
5
34c
100
AcDbEntity
8
1
100
AcDbLine
6
CONTINUOUS
62
5
10
112.400000
20
190.100000
11
112.900000
21
190.600000
0
POLYLINE
5
34d
100
AcDbEntity
8
1
6
CONTINUOUS
62
5
100
AcDb2dPolyline
66
1
10
0.0
20
0.0
30
0.0
70
0
0
VERTEX
5
34e
100
AcDbEntity
8
1
100
AcDbVertex
100
AcDb2dVertex
62
5
10
111.050000
20
190.600000
0
VERTEX
5
34f
100
AcDbEntity
8
1
100
AcDbVertex
100
AcDb2dVertex
62
5
10
112.900000
20
190.600000
0
VERTEX
5
350
100
AcDbEntity
8
1
100
AcDbVertex
100
AcDb2dVertex
62
5
10
112.900000
20
190.500000
0
VERTEX
5
351
100
AcDbEntity
8
1
100
AcDbVertex
100
AcDb2dVertex
62
5
10
113.900000
20
190.500000
0
SEQEND
5
352
100
AcDbEntity
8
1
0
POLYLINE
5
353
100
AcDbEntity
8
1
6
CONTINUOUS
62
5
100
AcDb2dPolyline
66
1
10
0.0
20
0.0
30
0.0
70
0
0
VERTEX
5
354
100
AcDbEntity
8
1
100
AcDbVertex
100
AcDb2dVertex
62
5
10
111.050000
20
184.400000
0
VERTEX
5
355
100
AcDbEntity
8
1
100
AcDbVertex
100
AcDb2dVertex
62
5
10
112.900000
20
184.400000
0
VERTEX
5
356
100
AcDbEntity
8
1
100
AcDbVertex
100
AcDb2dVertex
62
5
10
112.900000
20
184.500000
0
VERTEX
5
357
100
AcDbEntity
8
1
100
AcDbVertex
100
AcDb2dVertex
62
5
10
113.900000
20
184.500000
0
SEQEND
5
358
100
AcDbEntity
8
1
0
ARC
5
359
100
AcDbEntity
8
1
100
AcDbCircle
6
CONTINUOUS
62
5
10
116.900000
20
209.500000
40
1.000000
100
AcDbArc
50
-35.537677
51
144.462321
0
LINE
5
35a
100
AcDbEntity
8
1
100
AcDbLine
6
CONTINUOUS
62
5
10
117.713734
20
208.918762
11
112.713734
21
201.918762
0
ARC
5
35b
100
AcDbEntity
8
1
100
AcDbCircle
6
CONTINUOUS
62
5
10
111.900000
20
202.500000
40
1.000000
100
AcDbArc
50
144.462321
51
-35.537677
0
LINE
5
35c
100
AcDbEntity
8
1
100
AcDbLine
6
CONTINUOUS
62
5
10
111.086267
20
203.081238
11
116.086267
21
210.081238
0
LINE
5
35d
100
AcDbEntity
8
1
100
AcDbLine
6
CONTINUOUS
62
5
10
143.208333
20
194.000000
11
141.845436
21
194.000000
0
LINE
5
35e
100
AcDbEntity
8
1
100
AcDbLine
6
CONTINUOUS
62
5
10
113.954565
20
194.000000
11
112.591667
21
194.000000
0
ARC
5
35f
100
AcDbEntity
8
1
100
AcDbCircle
6
CONTINUOUS
62
5
10
123.900000
20
201.557941
40
2.500000
100
AcDbArc
50
95.497848
51
-84.502150
0
ARC
5
360
100
AcDbEntity
8
1
100
AcDbCircle
6
CONTINUOUS
62
5
10
127.900000
20
160.000000
40
44.250000
100
AcDbArc
50
84.502150
51
95.497848
0
ARC
5
361
100
AcDbEntity
8
1
100
AcDbCircle
6
CONTINUOUS
62
5
10
131.900000
20
201.557941
40
2.500000
100
AcDbArc
50
-95.497848
51
84.502150
0
ARC
5
362
100
AcDbEntity
8
1
100
AcDbCircle
6
CONTINUOUS
62
5
10
127.900000
20
160.000000
40
39.250000
100
AcDbArc
50
84.502150
51
95.497848
0
ARC
5
363
100
AcDbEntity
8
1
100
AcDbCircle
6
CONTINUOUS
62
5
10
123.900000
20
201.557941
40
3.000000
100
AcDbArc
50
95.497848
51
-84.502150
0
ARC
5
364
100
AcDbEntity
8
1
100
AcDbCircle
6
CONTINUOUS
62
5
10
127.900000
20
160.000000
40
44.750000
100
AcDbArc
50
84.502150
51
95.497848
0
ARC
5
365
100
AcDbEntity
8
1
100
AcDbCircle
6
CONTINUOUS
62
5
10
131.900000
20
201.557941
40
3.000000
100
AcDbArc
50
-95.497848
51
84.502150
0
ARC
5
366
100
AcDbEntity
8
1
100
AcDbCircle
6
CONTINUOUS
62
5
10
127.900000
20
160.000000
40
38.750000
100
AcDbArc
50
84.502150
51
95.497848
0
CIRCLE
5
367
100
AcDbEntity
8
1
100
AcDbCircle
6
CONTINUOUS
62
5
10
127.900000
20
210.500000
40
1.500000
0
CIRCLE
5
368
100
AcDbEntity
8
1
100
AcDbCircle
6
CONTINUOUS
62
5
10
127.900000
20
210.500000
40
2.250000
0
CIRCLE
5
369
100
AcDbEntity
8
1
100
AcDbCircle
6
CONTINUOUS
62
5
10
127.900000
20
210.500000
40
2.250000
0
POLYLINE
5
36a
100
AcDbEntity
8
1
6
CONTINUOUS
62
5
100
AcDb2dPolyline
66
1
10
0.0
20
0.0
30
0.0
70
1
0
VERTEX
5
36b
100
AcDbEntity
8
1
100
AcDbVertex
100
AcDb2dVertex
62
5
10
121.900000
20
213.750000
0
VERTEX
5
36c
100
AcDbEntity
8
1
100
AcDbVertex
100
AcDb2dVertex
62
5
10
121.900000
20
207.250000
0
VERTEX
5
36d
100
AcDbEntity
8
1
100
AcDbVertex
100
AcDb2dVertex
62
5
10
133.900000
20
207.250000
0
VERTEX
5
36e
100
AcDbEntity
8
1
100
AcDbVertex
100
AcDb2dVertex
62
5
10
133.900000
20
213.750000
0
VERTEX
5
36f
100
AcDbEntity
8
1
100
AcDbVertex
100
AcDb2dVertex
62
5
10
121.900000
20
213.750000
0
SEQEND
5
370
100
AcDbEntity
8
1
0
LINE
5
371
100
AcDbEntity
8
1
100
AcDbLine
6
CONTINUOUS
62
5
10
107.700000
20
216.500000
11
107.700000
21
243.000000
0
LINE
5
372
100
AcDbEntity
8
1
100
AcDbLine
6
CONTINUOUS
62
5
10
153.700000
20
216.500000
11
153.700000
21
243.000000
0
POLYLINE
5
373
100
AcDbEntity
8
1
6
CONTINUOUS
62
5
100
AcDb2dPolyline
66
1
10
0.0
20
0.0
30
0.0
70
0
0
VERTEX
5
374
100
AcDbEntity
8
1
100
AcDbVertex
100
AcDb2dVertex
62
5
10
130.700000
20
241.000000
0
VERTEX
5
375
100
AcDbEntity
8
1
100
AcDbVertex
100
AcDb2dVertex
62
5
10
107.700000
20
241.000000
0
VERTEX
5
376
100
AcDbEntity
8
1
100
AcDbVertex
100
AcDb2dVertex
62
5
10
113.700000
20
242.000000
0
VERTEX
5
377
100
AcDbEntity
8
1
100
AcDbVertex
100
AcDb2dVertex
62
5
10
113.700000
20
240.000000
0
VERTEX
5
378
100
AcDbEntity
8
1
100
AcDbVertex
100
AcDb2dVertex
62
5
10
107.700000
20
241.000000
0
VERTEX
5
379
100
AcDbEntity
8
1
100
AcDbVertex
100
AcDb2dVertex
62
5
10
113.700000
20
241.500000
0
VERTEX
5
37a
100
AcDbEntity
8
1
100
AcDbVertex
100
AcDb2dVertex
62
5
10
113.700000
20
240.500000
0
VERTEX
5
37b
100
AcDbEntity
8
1
100
AcDbVertex
100
AcDb2dVertex
62
5
10
107.700000
20
241.000000
0
SEQEND
5
37c
100
AcDbEntity
8
1
0
POLYLINE
5
37d
100
AcDbEntity
8
1
6
CONTINUOUS
62
5
100
AcDb2dPolyline
66
1
10
0.0
20
0.0
30
0.0
70
0
0
VERTEX
5
37e
100
AcDbEntity
8
1
100
AcDbVertex
100
AcDb2dVertex
62
5
10
130.700000
20
241.000000
0
VERTEX
5
37f
100
AcDbEntity
8
1
100
AcDbVertex
100
AcDb2dVertex
62
5
10
153.700000
20
241.000000
0
VERTEX
5
380
100
AcDbEntity
8
1
100
AcDbVertex
100
AcDb2dVertex
62
5
10
147.700000
20
240.000000
0
VERTEX
5
381
100
AcDbEntity
8
1
100
AcDbVertex
100
AcDb2dVertex
62
5
10
147.700000
20
242.000000
0
VERTEX
5
382
100
AcDbEntity
8
1
100
AcDbVertex
100
AcDb2dVertex
62
5
10
153.700000
20
241.000000
0
VERTEX
5
383
100
AcDbEntity
8
1
100
AcDbVertex
100
AcDb2dVertex
62
5
10
147.700000
20
240.500000
0
VERTEX
5
384
100
AcDbEntity
8
1
100
AcDbVertex
100
AcDb2dVertex
62
5
10
147.700000
20
241.500000
0
VERTEX
5
385
100
AcDbEntity
8
1
100
AcDbVertex
100
AcDb2dVertex
62
5
10
153.700000
20
241.000000
0
SEQEND
5
386
100
AcDbEntity
8
1
0
LINE
5
387
100
AcDbEntity
8
1
100
AcDbLine
6
CONTINUOUS
62
5
10
10.000000
20
318.000000
11
330.000000
21
318.000000
0
ARC
5
388
100
AcDbEntity
8
1
100
AcDbCircle
6
CONTINUOUS
62
5
10
217.900000
20
178.500000
40
0.500000
100
AcDbArc
50
179.999998
51
-89.999999
0
LINE
5
389
100
AcDbEntity
8
1
100
AcDbLine
6
CONTINUOUS
62
5
10
217.400000
20
178.500000
11
217.400000
21
178.500000
0
LINE
5
38a
100
AcDbEntity
8
1
100
AcDbLine
6
CONTINUOUS
62
5
10
220.400000
20
178.000000
11
217.900000
21
178.000000
0
LINE
5
38b
100
AcDbEntity
8
1
100
AcDbLine
6
CONTINUOUS
62
5
10
220.400000
20
172.500000
11
217.400000
21
172.500000
0
LINE
5
38c
100
AcDbEntity
8
1
100
AcDbLine
6
CONTINUOUS
62
5
10
220.400000
20
169.500000
11
217.400000
21
169.500000
0
ARC
5
38d
100
AcDbEntity
8
1
100
AcDbCircle
6
CONTINUOUS
62
5
10
217.900000
20
177.000000
40
0.500000
100
AcDbArc
50
-179.999998
51
-89.999999
0
LINE
5
38e
100
AcDbEntity
8
1
100
AcDbLine
6
CONTINUOUS
62
5
10
217.900000
20
176.500000
11
220.400000
21
176.500000
0
ARC
5
38f
100
AcDbEntity
8
1
100
AcDbCircle
6
CONTINUOUS
62
5
10
230.000000
20
168.849347
40
0.500000
100
AcDbArc
50
0.000000
51
87.443849
0
LINE
5
390
100
AcDbEntity
8
1
100
AcDbLine
6
CONTINUOUS
62
5
10
230.022299
20
169.348849
11
225.833102
21
169.513546
0
ARC
5
391
100
AcDbEntity
8
1
100
AcDbCircle
6
CONTINUOUS
62
5
10
225.900000
20
171.012053
40
1.500000
100
AcDbArc
50
179.999998
51
-92.556149
0
LINE
5
392
100
AcDbEntity
8
1
100
AcDbLine
6
CONTINUOUS
62
5
10
224.400000
20
171.012053
11
224.400000
21
171.142994
0
ARC
5
393
100
AcDbEntity
8
1
100
AcDbCircle
6
CONTINUOUS
62
5
10
225.900000
20
171.142994
40
1.500000
100
AcDbArc
50
92.556149
51
179.999998
0
LINE
5
394
100
AcDbEntity
8
1
100
AcDbLine
6
CONTINUOUS
62
5
10
225.833102
20
172.641501
11
230.022299
21
172.806197
0
ARC
5
395
100
AcDbEntity
8
1
100
AcDbCircle
6
CONTINUOUS
62
5
10
230.000000
20
173.305700
40
0.500000
100
AcDbArc
50
-87.443849
51
0.000000
0
LINE
5
396
100
AcDbEntity
8
1
100
AcDbLine
6
CONTINUOUS
62
5
10
230.500000
20
173.305700
11
230.500000
21
173.327523
0
LINE
5
397
100
AcDbEntity
8
1
100
AcDbLine
6
CONTINUOUS
62
5
10
230.500000
20
168.827523
11
230.500000
21
168.849347
0
ARC
5
398
100
AcDbEntity
8
1
100
AcDbCircle
6
CONTINUOUS
62
5
10
233.100000
20
177.188699
40
0.500000
100
AcDbArc
50
0.000000
51
85.389350
0
LINE
5
399
100
AcDbEntity
8
1
100
AcDbLine
6
CONTINUOUS
62
5
10
233.140192
20
177.687081
11
230.500000
21
177.900000
0
LINE
5
39a
100
AcDbEntity
8
1
100
AcDbLine
6
CONTINUOUS
62
5
10
230.500000
20
170.100329
11
233.129860
21
170.257665
0
ARC
5
39b
100
AcDbEntity
8
1
100
AcDbCircle
6
CONTINUOUS
62
5
10
233.100000
20
170.756773
40
0.500000
100
AcDbArc
50
-86.576259
51
0.000000
0
LINE
5
39c
100
AcDbEntity
8
1
100
AcDbLine
6
CONTINUOUS
62
5
10
233.600000
20
170.756773
11
233.600000
21
177.188699
0
ARC
5
39d
100
AcDbEntity
8
1
100
AcDbCircle
6
CONTINUOUS
62
5
10
230.500000
20
136.250000
40
0.500000
100
AcDbArc
50
179.999998
51
-89.999999
0
LINE
5
39e
100
AcDbEntity
8
1
100
AcDbLine
6
CONTINUOUS
62
5
10
230.500000
20
135.750000
11
230.500000
21
135.750000
0
LINE
5
39f
100
AcDbEntity
8
1
100
AcDbLine
6
CONTINUOUS
62
5
10
230.500000
20
138.250000
11
230.500000
21
138.250000
0
ARC
5
3a0
100
AcDbEntity
8
1
100
AcDbCircle
6
CONTINUOUS
62
5
10
230.500000
20
137.750000
40
0.500000
100
AcDbArc
50
89.999999
51
179.999998
0
LINE
5
3a1
100
AcDbEntity
8
1
100
AcDbLine
6
CONTINUOUS
62
5
10
230.000000
20
137.750000
11
230.000000
21
136.250000
0
ARC
5
3a2
100
AcDbEntity
8
1
100
AcDbCircle
6
CONTINUOUS
62
5
10
217.900000
20
143.000000
40
0.500000
100
AcDbArc
50
89.999999
51
179.999998
0
LINE
5
3a3
100
AcDbEntity
8
1
100
AcDbLine
6
CONTINUOUS
62
5
10
220.400000
20
143.500000
11
217.900000
21
143.500000
0
ARC
5
3a4
100
AcDbEntity
8
1
100
AcDbCircle
6
CONTINUOUS
62
5
10
217.900000
20
141.500000
40
0.500000
100
AcDbArc
50
89.999999
51
179.999998
0
LINE
5
3a5
100
AcDbEntity
8
1
100
AcDbLine
6
CONTINUOUS
62
5
10
217.400000
20
141.500000
11
217.400000
21
141.500000
0
LINE
5
3a6
100
AcDbEntity
8
1
100
AcDbLine
6
CONTINUOUS
62
5
10
220.400000
20
142.000000
11
217.900000
21
142.000000
0
ARC
5
3a7
100
AcDbEntity
8
1
100
AcDbCircle
6
CONTINUOUS
62
5
10
223.090983
20
135.600000
40
0.500000
100
AcDbArc
50
-51.827282
51
-26.565051
0
POLYLINE
5
3a8
100
AcDbEntity
8
1
6
CONTINUOUS
62
5
100
AcDb2dPolyline
66
1
10
0.0
20
0.0
30
0.0
70
0
0
VERTEX
5
3a9
100
AcDbEntity
8
1
100
AcDbVertex
100
AcDb2dVertex
62
5
10
223.538196
20
135.376393
0
VERTEX
5
3aa
100
AcDbEntity
8
1
100
AcDbVertex
100
AcDb2dVertex
62
5
10
224.400000
20
137.100000
0
VERTEX
5
3ab
100
AcDbEntity
8
1
100
AcDbVertex
100
AcDb2dVertex
62
5
10
224.400000
20
139.100000
0
SEQEND
5
3ac
100
AcDbEntity
8
1
0
ARC
5
3ad
100
AcDbEntity
8
1
100
AcDbCircle
6
CONTINUOUS
62
5
10
227.900000
20
139.952494
40
0.500000
100
AcDbArc
50
-84.289406
51
0.000000
0
LINE
5
3ae
100
AcDbEntity
8
1
100
AcDbLine
6
CONTINUOUS
62
5
10
228.400000
20
139.952494
11
228.400000
21
141.047506
0
ARC
5
3af
100
AcDbEntity
8
1
100
AcDbCircle
6
CONTINUOUS
62
5
10
227.900000
20
141.047506
40
0.500000
100
AcDbArc
50
0.000000
51
84.289406
0
LINE
5
3b0
100
AcDbEntity
8
1
100
AcDbLine
6
CONTINUOUS
62
5
10
227.949752
20
141.545025
11
223.400000
21
142.000000
0
LINE
5
3b1
100
AcDbEntity
8
1
100
AcDbLine
6
CONTINUOUS
62
5
10
223.400000
20
139.000000
11
227.949752
21
139.454975
0
LINE
5
3b2
100
AcDbEntity
8
1
100
AcDbLine
6
CONTINUOUS
62
5
10
220.400000
20
147.500000
11
217.400000
21
147.500000
0
LINE
5
3b3
100
AcDbEntity
8
1
100
AcDbLine
6
CONTINUOUS
62
5
10
220.400000
20
150.500000
11
217.400000
21
150.500000
0
ARC
5
3b4
100
AcDbEntity
8
1
100
AcDbCircle
6
CONTINUOUS
62
5
10
230.000000
20
151.150653
40
0.500000
100
AcDbArc
50
-87.443849
51
0.000000
0
LINE
5
3b5
100
AcDbEntity
8
1
100
AcDbLine
6
CONTINUOUS
62
5
10
230.022299
20
150.651151
11
225.833102
21
150.486454
0
ARC
5
3b6
100
AcDbEntity
8
1
100
AcDbCircle
6
CONTINUOUS
62
5
10
225.900000
20
148.987947
40
1.500000
100
AcDbArc
50
92.556149
51
179.999998
0
LINE
5
3b7
100
AcDbEntity
8
1
100
AcDbLine
6
CONTINUOUS
62
5
10
224.400000
20
148.987947
11
224.400000
21
148.857006
0
ARC
5
3b8
100
AcDbEntity
8
1
100
AcDbCircle
6
CONTINUOUS
62
5
10
225.900000
20
148.857006
40
1.500000
100
AcDbArc
50
179.999998
51
-92.556149
0
LINE
5
3b9
100
AcDbEntity
8
1
100
AcDbLine
6
CONTINUOUS
62
5
10
225.833102
20
147.358499
11
230.022299
21
147.193803
0
ARC
5
3ba
100
AcDbEntity
8
1
100
AcDbCircle
6
CONTINUOUS
62
5
10
230.000000
20
146.694300
40
0.500000
100
AcDbArc
50
0.000000
51
87.443849
0
LINE
5
3bb
100
AcDbEntity
8
1
100
AcDbLine
6
CONTINUOUS
62
5
10
230.500000
20
146.694300
11
230.500000
21
146.672477
0
LINE
5
3bc
100
AcDbEntity
8
1
100
AcDbLine
6
CONTINUOUS
62
5
10
230.500000
20
151.172477
11
230.500000
21
151.150653
0
ARC
5
3bd
100
AcDbEntity
8
1
100
AcDbCircle
6
CONTINUOUS
62
5
10
233.300000
20
140.026780
40
0.300000
100
AcDbArc
50
-85.389350
51
0.000000
0
LINE
5
3be
100
AcDbEntity
8
1
100
AcDbLine
6
CONTINUOUS
62
5
10
233.600000
20
140.026780
11
233.600000
21
142.811301
0
LINE
5
3bf
100
AcDbEntity
8
1
100
AcDbLine
6
CONTINUOUS
62
5
10
230.500000
20
139.500000
11
233.324115
21
139.727751
0
ARC
5
3c0
100
AcDbEntity
8
1
100
AcDbCircle
6
CONTINUOUS
62
5
10
233.100000
20
142.811301
40
0.500000
100
AcDbArc
50
-85.389350
51
0.000000
0
LINE
5
3c1
100
AcDbEntity
8
1
100
AcDbLine
6
CONTINUOUS
62
5
10
233.140192
20
142.312919
11
230.500000
21
142.100000
0
LINE
5
3c2
100
AcDbEntity
8
1
100
AcDbLine
6
CONTINUOUS
62
5
10
230.500000
20
149.899671
11
233.129860
21
149.742335
0
ARC
5
3c3
100
AcDbEntity
8
1
100
AcDbCircle
6
CONTINUOUS
62
5
10
233.100000
20
149.243227
40
0.500000
100
AcDbArc
50
0.000000
51
86.576259
0
LINE
5
3c4
100
AcDbEntity
8
1
100
AcDbLine
6
CONTINUOUS
62
5
10
233.600000
20
149.243227
11
233.600000
21
142.811301
0
LINE
5
3c5
100
AcDbEntity
8
1
100
AcDbLine
6
CONTINUOUS
62
5
10
233.600000
20
170.756773
11
233.600000
21
149.243227
0
LINE
5
3c6
100
AcDbEntity
8
1
100
AcDbLine
6
CONTINUOUS
62
5
10
230.800000
20
134.250000
11
230.800000
21
130.750000
0
ARC
5
3c7
100
AcDbEntity
8
1
100
AcDbCircle
6
CONTINUOUS
62
5
10
217.900000
20
126.500000
40
0.500000
100
AcDbArc
50
-179.999998
51
-89.999999
0
LINE
5
3c8
100
AcDbEntity
8
1
100
AcDbLine
6
CONTINUOUS
62
5
10
217.900000
20
126.000000
11
220.400000
21
126.000000
0
LINE
5
3c9
100
AcDbEntity
8
1
100
AcDbLine
6
CONTINUOUS
62
5
10
217.400000
20
129.000000
11
217.400000
21
126.500000
0
LINE
5
3ca
100
AcDbEntity
8
1
100
AcDbLine
6
CONTINUOUS
62
5
10
223.400000
20
128.500000
11
224.600237
21
127.598712
0
ARC
5
3cb
100
AcDbEntity
8
1
100
AcDbCircle
6
CONTINUOUS
62
5
10
223.400000
20
126.800000
40
0.500000
100
AcDbArc
50
-89.999999
51
0.000000
0
LINE
5
3cc
100
AcDbEntity
8
1
100
AcDbLine
6
CONTINUOUS
62
5
10
223.900000
20
126.800000
11
223.900000
21
127.792893
0
ARC
5
3cd
100
AcDbEntity
8
1
100
AcDbCircle
6
CONTINUOUS
62
5
10
223.400000
20
127.792893
40
0.500000
100
AcDbArc
50
0.000000
51
45.000000
0
POLYLINE
5
3ce
100
AcDbEntity
8
1
6
CONTINUOUS
62
5
100
AcDb2dPolyline
66
1
10
0.0
20
0.0
30
0.0
70
0
0
VERTEX
5
3cf
100
AcDbEntity
8
1
100
AcDbVertex
100
AcDb2dVertex
62
5
10
223.753553
20
128.146447
0
VERTEX
5
3d0
100
AcDbEntity
8
1
100
AcDbVertex
100
AcDb2dVertex
62
5
10
223.400000
20
128.500000
0
VERTEX
5
3d1
100
AcDbEntity
8
1
100
AcDbVertex
100
AcDb2dVertex
62
5
10
223.400000
20
133.500000
0
SEQEND
5
3d2
100
AcDbEntity
8
1
0
LINE
5
3d3
100
AcDbEntity
8
1
100
AcDbLine
6
CONTINUOUS
62
5
10
220.400000
20
126.300000
11
223.400000
21
126.300000
0
ARC
5
3d4
100
AcDbEntity
8
1
100
AcDbCircle
6
CONTINUOUS
62
5
10
224.300000
20
126.800000
40
0.500000
100
AcDbArc
50
-89.999999
51
0.000000
0
LINE
5
3d5
100
AcDbEntity
8
1
100
AcDbLine
6
CONTINUOUS
62
5
10
224.800000
20
126.800000
11
224.800000
21
127.198890
0
ARC
5
3d6
100
AcDbEntity
8
1
100
AcDbCircle
6
CONTINUOUS
62
5
10
224.300000
20
127.198890
40
0.500000
100
AcDbArc
50
0.000000
51
62.114406
0
LINE
5
3d7
100
AcDbEntity
8
1
100
AcDbLine
6
CONTINUOUS
62
5
10
224.533854
20
127.640831
11
223.855090
21
128.000000
0
LINE
5
3d8
100
AcDbEntity
8
1
100
AcDbLine
6
CONTINUOUS
62
5
10
223.400000
20
126.300000
11
224.300000
21
126.300000
0
LINE
5
3d9
100
AcDbEntity
8
1
100
AcDbLine
6
CONTINUOUS
62
5
10
215.400000
20
111.000000
11
216.600000
21
111.000000
0
LINE
5
3da
100
AcDbEntity
8
1
100
AcDbLine
6
CONTINUOUS
62
5
10
215.400000
20
106.750000
11
216.600000
21
106.750000
0
POLYLINE
5
3db
100
AcDbEntity
8
1
6
CONTINUOUS
62
5
100
AcDb2dPolyline
66
1
10
0.0
20
0.0
30
0.0
70
0
0
VERTEX
5
3dc
100
AcDbEntity
8
1
100
AcDbVertex
100
AcDb2dVertex
62
5
10
216.600000
20
104.000000
0
VERTEX
5
3dd
100
AcDbEntity
8
1
100
AcDbVertex
100
AcDb2dVertex
62
5
10
216.700000
20
103.999998
0
VERTEX
5
3de
100
AcDbEntity
8
1
100
AcDbVertex
100
AcDb2dVertex
62
5
10
216.600000
20
105.000000
0
SEQEND
5
3df
100
AcDbEntity
8
1
0
POLYLINE
5
3e0
100
AcDbEntity
8
1
6
CONTINUOUS
62
5
100
AcDb2dPolyline
66
1
10
0.0
20
0.0
30
0.0
70
0
0
VERTEX
5
3e1
100
AcDbEntity
8
1
100
AcDbVertex
100
AcDb2dVertex
62
5
10
216.600000
20
104.000000
0
VERTEX
5
3e2
100
AcDbEntity
8
1
100
AcDbVertex
100
AcDb2dVertex
62
5
10
216.700000
20
103.999998
0
VERTEX
5
3e3
100
AcDbEntity
8
1
100
AcDbVertex
100
AcDb2dVertex
62
5
10
216.600000
20
105.000000
0
SEQEND
5
3e4
100
AcDbEntity
8
1
0
ARC
5
3e5
100
AcDbEntity
8
1
100
AcDbCircle
6
CONTINUOUS
62
5
10
214.600000
20
112.250000
40
0.500000
100
AcDbArc
50
89.999999
51
179.999998
0
LINE
5
3e6
100
AcDbEntity
8
1
100
AcDbLine
6
CONTINUOUS
62
5
10
214.600000
20
112.750000
11
214.900000
21
112.750000
0
LINE
5
3e7
100
AcDbEntity
8
1
100
AcDbLine
6
CONTINUOUS
62
5
10
215.400000
20
106.250000
11
214.600000
21
106.250000
0
ARC
5
3e8
100
AcDbEntity
8
1
100
AcDbCircle
6
CONTINUOUS
62
5
10
214.600000
20
106.750000
40
0.500000
100
AcDbArc
50
179.999998
51
-89.999999
0
LINE
5
3e9
100
AcDbEntity
8
1
100
AcDbLine
6
CONTINUOUS
62
5
10
214.100000
20
106.750000
11
214.100000
21
112.250000
0
ARC
5
3ea
100
AcDbEntity
8
1
100
AcDbCircle
6
CONTINUOUS
62
5
10
215.400000
20
110.000000
40
0.500000
100
AcDbArc
50
179.999998
51
-89.999999
0
LINE
5
3eb
100
AcDbEntity
8
1
100
AcDbLine
6
CONTINUOUS
62
5
10
214.900000
20
110.000000
11
214.900000
21
117.500000
0
LINE
5
3ec
100
AcDbEntity
8
1
100
AcDbLine
6
CONTINUOUS
62
5
10
215.400000
20
109.500000
11
215.400000
21
109.500000
0
POLYLINE
5
3ed
100
AcDbEntity
8
1
6
CONTINUOUS
62
5
100
AcDb2dPolyline
66
1
10
0.0
20
0.0
30
0.0
70
0
0
VERTEX
5
3ee
100
AcDbEntity
8
1
100
AcDbVertex
100
AcDb2dVertex
62
5
10
215.400000
20
117.500000
0
VERTEX
5
3ef
100
AcDbEntity
8
1
100
AcDbVertex
100
AcDb2dVertex
62
5
10
215.400000
20
104.000000
0
VERTEX
5
3f0
100
AcDbEntity
8
1
100
AcDbVertex
100
AcDb2dVertex
62
5
10
216.600000
20
104.000000
0
VERTEX
5
3f1
100
AcDbEntity
8
1
100
AcDbVertex
100
AcDb2dVertex
62
5
10
216.600000
20
117.500000
0
SEQEND
5
3f2
100
AcDbEntity
8
1
0
ARC
5
3f3
100
AcDbEntity
8
1
100
AcDbCircle
6
CONTINUOUS
62
5
10
232.600000
20
133.250000
40
1.000000
100
AcDbArc
50
0.000000
51
89.999999
0
LINE
5
3f4
100
AcDbEntity
8
1
100
AcDbLine
6
CONTINUOUS
62
5
10
233.600000
20
133.250000
11
233.600000
21
131.750000
0
ARC
5
3f5
100
AcDbEntity
8
1
100
AcDbCircle
6
CONTINUOUS
62
5
10
232.600000
20
131.750000
40
1.000000
100
AcDbArc
50
-89.999999
51
-0.000000
0
POLYLINE
5
3f6
100
AcDbEntity
8
1
6
CONTINUOUS
62
5
100
AcDb2dPolyline
66
1
10
0.0
20
0.0
30
0.0
70
0
0
VERTEX
5
3f7
100
AcDbEntity
8
1
100
AcDbVertex
100
AcDb2dVertex
62
5
10
232.600000
20
130.750000
0
VERTEX
5
3f8
100
AcDbEntity
8
1
100
AcDbVertex
100
AcDb2dVertex
62
5
10
230.800000
20
130.750000
0
VERTEX
5
3f9
100
AcDbEntity
8
1
100
AcDbVertex
100
AcDb2dVertex
62
5
10
230.500000
20
130.450000
0
SEQEND
5
3fa
100
AcDbEntity
8
1
0
POLYLINE
5
3fb
100
AcDbEntity
8
1
6
CONTINUOUS
62
5
100
AcDb2dPolyline
66
1
10
0.0
20
0.0
30
0.0
70
0
0
VERTEX
5
3fc
100
AcDbEntity
8
1
100
AcDbVertex
100
AcDb2dVertex
62
5
10
230.500000
20
134.550000
0
VERTEX
5
3fd
100
AcDbEntity
8
1
100
AcDbVertex
100
AcDb2dVertex
62
5
10
230.800000
20
134.250000
0
VERTEX
5
3fe
100
AcDbEntity
8
1
100
AcDbVertex
100
AcDb2dVertex
62
5
10
232.600000
20
134.250000
0
SEQEND
5
3ff
100
AcDbEntity
8
1
0
ARC
5
400
100
AcDbEntity
8
1
100
AcDbCircle
6
CONTINUOUS
62
5
10
230.500000
20
136.000000
40
1.000000
100
AcDbArc
50
179.999998
51
-89.999999
0
LINE
5
401
100
AcDbEntity
8
1
100
AcDbLine
6
CONTINUOUS
62
5
10
230.500000
20
135.000000
11
230.500000
21
135.000000
0
LINE
5
402
100
AcDbEntity
8
1
100
AcDbLine
6
CONTINUOUS
62
5
10
230.500000
20
139.000000
11
230.500000
21
139.000000
0
ARC
5
403
100
AcDbEntity
8
1
100
AcDbCircle
6
CONTINUOUS
62
5
10
230.500000
20
138.000000
40
1.000000
100
AcDbArc
50
89.999999
51
179.999998
0
LINE
5
404
100
AcDbEntity
8
1
100
AcDbLine
6
CONTINUOUS
62
5
10
229.500000
20
138.000000
11
229.500000
21
136.000000
0
ARC
5
405
100
AcDbEntity
8
1
100
AcDbCircle
6
CONTINUOUS
62
5
10
223.308454
20
135.632658
40
0.800000
100
AcDbArc
50
-79.933652
51
38.151680
0
LINE
5
406
100
AcDbEntity
8
1
100
AcDbLine
6
CONTINUOUS
62
5
10
223.937557
20
136.126854
11
223.922812
21
136.145624
0
LINE
5
407
100
AcDbEntity
8
1
100
AcDbLine
6
CONTINUOUS
62
5
10
223.400000
20
134.836402
11
223.448285
21
134.844973
0
ARC
5
408
100
AcDbEntity
8
1
100
AcDbCircle
6
CONTINUOUS
62
5
10
221.900000
20
142.000000
40
1.500000
100
AcDbArc
50
0.000000
51
89.999999
0
LINE
5
409
100
AcDbEntity
8
1
100
AcDbLine
6
CONTINUOUS
62
5
10
223.400000
20
142.000000
11
223.400000
21
133.500000
0
ARC
5
40a
100
AcDbEntity
8
1
100
AcDbCircle
6
CONTINUOUS
62
5
10
221.900000
20
133.500000
40
1.500000
100
AcDbArc
50
-89.999999
51
0.000000
0
LINE
5
40b
100
AcDbEntity
8
1
100
AcDbLine
6
CONTINUOUS
62
5
10
221.900000
20
132.000000
11
220.400000
21
132.000000
0
LINE
5
40c
100
AcDbEntity
8
1
100
AcDbLine
6
CONTINUOUS
62
5
10
220.400000
20
143.500000
11
221.900000
21
143.500000
0
ARC
5
40d
100
AcDbEntity
8
1
100
AcDbCircle
6
CONTINUOUS
62
5
10
226.032486
20
134.494512
40
1.600000
100
AcDbArc
50
-83.565383
51
-64.499999
0
LINE
5
40e
100
AcDbEntity
8
1
100
AcDbLine
6
CONTINUOUS
62
5
10
226.721304
20
133.050376
11
227.381377
21
133.365214
0
ARC
5
40f
100
AcDbEntity
8
1
100
AcDbCircle
6
CONTINUOUS
62
5
10
227.166121
20
133.816507
40
0.500000
100
AcDbArc
50
-64.499999
51
25.500000
0
LINE
5
410
100
AcDbEntity
8
1
100
AcDbLine
6
CONTINUOUS
62
5
10
227.617414
20
134.031762
11
226.452760
21
136.473508
0
ARC
5
411
100
AcDbEntity
8
1
100
AcDbCircle
6
CONTINUOUS
62
5
10
225.369658
20
135.956895
40
1.200000
100
AcDbArc
50
25.500000
51
92.530341
0
LINE
5
412
100
AcDbEntity
8
1
100
AcDbLine
6
CONTINUOUS
62
5
10
225.316680
20
137.155725
11
224.400000
21
137.115216
0
LINE
5
413
100
AcDbEntity
8
1
100
AcDbLine
6
CONTINUOUS
62
5
10
223.400000
20
132.587477
11
226.211797
21
132.904591
0
ARC
5
414
100
AcDbEntity
8
1
100
AcDbCircle
6
CONTINUOUS
62
5
10
142.400000
20
177.000000
40
0.500000
100
AcDbArc
50
-89.999999
51
0.000000
0
LINE
5
415
100
AcDbEntity
8
1
100
AcDbLine
6
CONTINUOUS
62
5
10
142.400000
20
176.500000
11
141.900000
21
176.500000
0
LINE
5
416
100
AcDbEntity
8
1
100
AcDbLine
6
CONTINUOUS
62
5
10
141.900000
20
179.500000
11
142.400000
21
179.500000
0
ARC
5
417
100
AcDbEntity
8
1
100
AcDbCircle
6
CONTINUOUS
62
5
10
142.400000
20
179.000000
40
0.500000
100
AcDbArc
50
0.000000
51
89.999999
0
LINE
5
418
100
AcDbEntity
8
1
100
AcDbLine
6
CONTINUOUS
62
5
10
142.900000
20
179.000000
11
142.900000
21
177.000000
0
ARC
5
419
100
AcDbEntity
8
1
100
AcDbCircle
6
CONTINUOUS
62
5
10
143.735908
20
174.432649
40
2.456339
100
AcDbArc
50
100.221994
51
112.297504
0
ARC
5
41a
100
AcDbEntity
8
1
100
AcDbCircle
6
CONTINUOUS
62
5
10
143.400000
20
175.328835
40
1.500000
100
AcDbArc
50
128.377024
51
179.999998
0
LINE
5
41b
100
AcDbEntity
8
1
100
AcDbLine
6
CONTINUOUS
62
5
10
142.468750
20
176.504749
11
142.468750
21
176.504749
0
LINE
5
41c
100
AcDbEntity
8
1
100
AcDbLine
6
CONTINUOUS
62
5
10
142.803934
20
176.705318
11
142.803934
21
176.705318
0
LINE
5
41d
100
AcDbEntity
8
1
100
AcDbLine
6
CONTINUOUS
62
5
10
135.200515
20
163.350000
11
135.312463
21
163.500000
0
ARC
5
41e
100
AcDbEntity
8
1
100
AcDbCircle
6
CONTINUOUS
62
5
10
135.273062
20
162.750000
40
0.600000
100
AcDbArc
50
82.632638
51
89.999999
0
LINE
5
41f
100
AcDbEntity
8
1
100
AcDbLine
6
CONTINUOUS
62
5
10
134.600000
20
163.350000
11
134.712500
21
163.500000
0
ARC
5
420
100
AcDbEntity
8
1
100
AcDbCircle
6
CONTINUOUS
62
5
10
133.583608
20
162.750000
40
0.600000
100
AcDbArc
50
89.999999
51
136.276147
0
LINE
5
421
100
AcDbEntity
8
1
100
AcDbLine
6
CONTINUOUS
62
5
10
135.200515
20
156.650000
11
135.312463
21
156.500000
0
ARC
5
422
100
AcDbEntity
8
1
100
AcDbCircle
6
CONTINUOUS
62
5
10
135.273062
20
157.250000
40
0.600000
100
AcDbArc
50
-89.999999
51
-82.632638
0
LINE
5
423
100
AcDbEntity
8
1
100
AcDbLine
6
CONTINUOUS
62
5
10
134.600000
20
156.650000
11
134.712500
21
156.500000
0
ARC
5
424
100
AcDbEntity
8
1
100
AcDbCircle
6
CONTINUOUS
62
5
10
133.583608
20
157.250000
40
0.600000
100
AcDbArc
50
-136.276147
51
-89.999999
0
ARC
5
425
100
AcDbEntity
8
1
100
AcDbCircle
6
CONTINUOUS
62
5
10
143.735908
20
145.567351
40
2.456339
100
AcDbArc
50
-112.297504
51
-100.221994
0
ARC
5
426
100
AcDbEntity
8
1
100
AcDbCircle
6
CONTINUOUS
62
5
10
143.400000
20
144.671165
40
1.500000
100
AcDbArc
50
179.999998
51
-128.377024
0
LINE
5
427
100
AcDbEntity
8
1
100
AcDbLine
6
CONTINUOUS
62
5
10
142.468750
20
143.495251
11
142.468750
21
143.495251
0
LINE
5
428
100
AcDbEntity
8
1
100
AcDbLine
6
CONTINUOUS
62
5
10
142.803934
20
143.294682
11
142.803934
21
143.294682
0
ARC
5
429
100
AcDbEntity
8
1
100
AcDbCircle
6
CONTINUOUS
62
5
10
142.400000
20
143.000000
40
0.500000
100
AcDbArc
50
0.000000
51
89.999999
0
LINE
5
42a
100
AcDbEntity
8
1
100
AcDbLine
6
CONTINUOUS
62
5
10
142.400000
20
143.500000
11
141.900000
21
143.500000
0
LINE
5
42b
100
AcDbEntity
8
1
100
AcDbLine
6
CONTINUOUS
62
5
10
141.900000
20
140.500000
11
142.400000
21
140.500000
0
ARC
5
42c
100
AcDbEntity
8
1
100
AcDbCircle
6
CONTINUOUS
62
5
10
142.400000
20
141.000000
40
0.500000
100
AcDbArc
50
-89.999999
51
0.000000
0
LINE
5
42d
100
AcDbEntity
8
1
100
AcDbLine
6
CONTINUOUS
62
5
10
142.900000
20
141.000000
11
142.900000
21
143.000000
0
LINE
5
42e
100
AcDbEntity
8
1
100
AcDbLine
6
CONTINUOUS
62
5
10
134.940543
20
140.378423
11
135.350000
21
140.378423
0
LINE
5
42f
100
AcDbEntity
8
1
100
AcDbLine
6
CONTINUOUS
62
5
10
133.224024
20
140.378423
11
133.909458
21
140.378423
0
POLYLINE
5
430
100
AcDbEntity
8
1
6
CONTINUOUS
62
5
100
AcDb2dPolyline
66
1
10
0.0
20
0.0
30
0.0
70
0
0
VERTEX
5
431
100
AcDbEntity
8
1
100
AcDbVertex
100
AcDb2dVertex
62
5
10
144.750000
20
135.600000
0
VERTEX
5
432
100
AcDbEntity
8
1
100
AcDbVertex
100
AcDb2dVertex
62
5
10
142.900000
20
135.600000
0
VERTEX
5
433
100
AcDbEntity
8
1
100
AcDbVertex
100
AcDb2dVertex
62
5
10
142.900000
20
135.500000
0
VERTEX
5
434
100
AcDbEntity
8
1
100
AcDbVertex
100
AcDb2dVertex
62
5
10
141.900000
20
135.500000
0
SEQEND
5
435
100
AcDbEntity
8
1
0
ARC
5
436
100
AcDbEntity
8
1
100
AcDbCircle
6
CONTINUOUS
62
5
10
137.378926
20
136.880263
40
2.697073
100
AcDbArc
50
161.706442
51
-166.991533
0
POLYLINE
5
437
100
AcDbEntity
8
1
6
CONTINUOUS
62
5
100
AcDb2dPolyline
66
1
10
0.0
20
0.0
30
0.0
70
0
0
VERTEX
5
438
100
AcDbEntity
8
1
100
AcDbVertex
100
AcDb2dVertex
62
5
10
134.900000
20
139.500000
0
VERTEX
5
439
100
AcDbEntity
8
1
100
AcDbVertex
100
AcDb2dVertex
62
5
10
134.940543
20
140.378423
0
VERTEX
5
43a
100
AcDbEntity
8
1
100
AcDbVertex
100
AcDb2dVertex
62
5
10
135.330573
20
140.500000
0
SEQEND
5
43b
100
AcDbEntity
8
1
0
ARC
5
43c
100
AcDbEntity
8
1
100
AcDbCircle
6
CONTINUOUS
62
5
10
135.288612
20
138.881425
40
0.600000
100
AcDbArc
50
84.127584
51
87.357454
0
POLYLINE
5
43d
100
AcDbEntity
8
1
6
CONTINUOUS
62
5
100
AcDb2dPolyline
66
1
10
0.0
20
0.0
30
0.0
70
0
0
VERTEX
5
43e
100
AcDbEntity
8
1
100
AcDbVertex
100
AcDb2dVertex
62
5
10
133.266024
20
139.468432
0
VERTEX
5
43f
100
AcDbEntity
8
1
100
AcDbVertex
100
AcDb2dVertex
62
5
10
133.224024
20
140.378423
0
VERTEX
5
440
100
AcDbEntity
8
1
100
AcDbVertex
100
AcDb2dVertex
62
5
10
133.150000
20
140.401698
0
SEQEND
5
441
100
AcDbEntity
8
1
0
ARC
5
442
100
AcDbEntity
8
1
100
AcDbCircle
6
CONTINUOUS
62
5
10
133.561388
20
138.881425
40
0.600000
100
AcDbArc
50
92.642544
51
133.286507
0
LINE
5
443
100
AcDbEntity
8
1
100
AcDbLine
6
CONTINUOUS
62
5
10
133.150000
20
139.463076
11
133.950000
21
139.500000
0
POLYLINE
5
444
100
AcDbEntity
8
1
6
CONTINUOUS
62
5
100
AcDb2dPolyline
66
1
10
0.0
20
0.0
30
0.0
70
0
0
VERTEX
5
445
100
AcDbEntity
8
1
100
AcDbVertex
100
AcDb2dVertex
62
5
10
133.950000
20
139.500000
0
VERTEX
5
446
100
AcDbEntity
8
1
100
AcDbVertex
100
AcDb2dVertex
62
5
10
133.909458
20
140.378423
0
VERTEX
5
447
100
AcDbEntity
8
1
100
AcDbVertex
100
AcDb2dVertex
62
5
10
133.522799
20
140.500000
0
SEQEND
5
448
100
AcDbEntity
8
1
0
ARC
5
449
100
AcDbEntity
8
1
100
AcDbCircle
6
CONTINUOUS
62
5
10
142.400000
20
148.000000
40
0.500000
100
AcDbArc
50
-89.999999
51
0.000000
0
LINE
5
44a
100
AcDbEntity
8
1
100
AcDbLine
6
CONTINUOUS
62
5
10
142.400000
20
147.500000
11
141.900000
21
147.500000
0
LINE
5
44b
100
AcDbEntity
8
1
100
AcDbLine
6
CONTINUOUS
62
5
10
141.900000
20
150.500000
11
142.400000
21
150.500000
0
ARC
5
44c
100
AcDbEntity
8
1
100
AcDbCircle
6
CONTINUOUS
62
5
10
142.400000
20
150.000000
40
0.500000
100
AcDbArc
50
0.000000
51
89.999999
0
LINE
5
44d
100
AcDbEntity
8
1
100
AcDbLine
6
CONTINUOUS
62
5
10
142.900000
20
150.000000
11
142.900000
21
148.000000
0
LINE
5
44e
100
AcDbEntity
8
1
100
AcDbLine
6
CONTINUOUS
62
5
10
135.200515
20
163.350000
11
135.200515
21
156.650000
0
POLYLINE
5
44f
100
AcDbEntity
8
1
6
CONTINUOUS
62
5
100
AcDb2dPolyline
66
1
10
0.0
20
0.0
30
0.0
70
0
0
VERTEX
5
450
100
AcDbEntity
8
1
100
AcDbVertex
100
AcDb2dVertex
62
5
10
135.350000
20
163.350000
0
VERTEX
5
451
100
AcDbEntity
8
1
100
AcDbVertex
100
AcDb2dVertex
62
5
10
134.600000
20
163.350000
0
VERTEX
5
452
100
AcDbEntity
8
1
100
AcDbVertex
100
AcDb2dVertex
62
5
10
134.600000
20
156.650000
0
VERTEX
5
453
100
AcDbEntity
8
1
100
AcDbVertex
100
AcDb2dVertex
62
5
10
135.350000
20
156.650000
0
SEQEND
5
454
100
AcDbEntity
8
1
0
LINE
5
455
100
AcDbEntity
8
1
100
AcDbLine
6
CONTINUOUS
62
5
10
133.661922
20
163.350000
11
133.661922
21
156.650000
0
ARC
5
456
100
AcDbEntity
8
1
100
AcDbCircle
6
CONTINUOUS
62
5
10
133.217681
20
157.250000
40
0.600000
100
AcDbArc
50
-96.476834
51
-89.999999
0
POLYLINE
5
457
100
AcDbEntity
8
1
6
CONTINUOUS
62
5
100
AcDb2dPolyline
66
1
10
0.0
20
0.0
30
0.0
70
0
0
VERTEX
5
458
100
AcDbEntity
8
1
100
AcDbVertex
100
AcDb2dVertex
62
5
10
133.217681
20
156.650000
0
VERTEX
5
459
100
AcDbEntity
8
1
100
AcDbVertex
100
AcDb2dVertex
62
5
10
134.250000
20
156.650000
0
VERTEX
5
45a
100
AcDbEntity
8
1
100
AcDbVertex
100
AcDb2dVertex
62
5
10
134.250000
20
163.350000
0
VERTEX
5
45b
100
AcDbEntity
8
1
100
AcDbVertex
100
AcDb2dVertex
62
5
10
133.217681
20
163.350000
0
SEQEND
5
45c
100
AcDbEntity
8
1
0
ARC
5
45d
100
AcDbEntity
8
1
100
AcDbCircle
6
CONTINUOUS
62
5
10
133.217681
20
162.750000
40
0.600000
100
AcDbArc
50
89.999999
51
96.476834
0
POLYLINE
5
45e
100
AcDbEntity
8
1
6
CONTINUOUS
62
5
100
AcDb2dPolyline
66
1
10
0.0
20
0.0
30
0.0
70
0
0
VERTEX
5
45f
100
AcDbEntity
8
1
100
AcDbVertex
100
AcDb2dVertex
62
5
10
133.150000
20
163.500000
0
VERTEX
5
460
100
AcDbEntity
8
1
100
AcDbVertex
100
AcDb2dVertex
62
5
10
135.350000
20
163.500000
0
VERTEX
5
461
100
AcDbEntity
8
1
100
AcDbVertex
100
AcDb2dVertex
62
5
10
135.350000
20
156.500000
0
VERTEX
5
462
100
AcDbEntity
8
1
100
AcDbVertex
100
AcDb2dVertex
62
5
10
133.150000
20
156.500000
0
VERTEX
5
463
100
AcDbEntity
8
1
100
AcDbVertex
100
AcDb2dVertex
62
5
10
133.150000
20
163.500000
0
SEQEND
5
464
100
AcDbEntity
8
1
0
ARC
5
465
100
AcDbEntity
8
1
100
AcDbCircle
6
CONTINUOUS
62
5
10
132.312880
20
166.500000
40
1.000000
100
AcDbArc
50
89.999999
51
147.202830
0
ARC
5
466
100
AcDbEntity
8
1
100
AcDbCircle
6
CONTINUOUS
62
5
10
142.400000
20
160.000000
40
13.000000
100
AcDbArc
50
147.202830
51
-147.202830
0
ARC
5
467
100
AcDbEntity
8
1
100
AcDbCircle
6
CONTINUOUS
62
5
10
132.312880
20
153.500000
40
1.000000
100
AcDbArc
50
-147.202830
51
-89.999999
0
LINE
5
468
100
AcDbEntity
8
1
100
AcDbLine
6
CONTINUOUS
62
5
10
132.312880
20
152.500000
11
137.900000
21
152.500000
0
ARC
5
469
100
AcDbEntity
8
1
100
AcDbCircle
6
CONTINUOUS
62
5
10
137.900000
20
153.500000
40
1.000000
100
AcDbArc
50
-89.999999
51
0.000000
0
LINE
5
46a
100
AcDbEntity
8
1
100
AcDbLine
6
CONTINUOUS
62
5
10
138.900000
20
153.500000
11
138.900000
21
166.500000
0
ARC
5
46b
100
AcDbEntity
8
1
100
AcDbCircle
6
CONTINUOUS
62
5
10
137.900000
20
166.500000
40
1.000000
100
AcDbArc
50
0.000000
51
89.999999
0
LINE
5
46c
100
AcDbEntity
8
1
100
AcDbLine
6
CONTINUOUS
62
5
10
137.900000
20
167.500000
11
132.312880
21
167.500000
0
ARC
5
46d
100
AcDbEntity
8
1
100
AcDbCircle
6
CONTINUOUS
62
5
10
113.400000
20
177.000000
40
0.500000
100
AcDbArc
50
179.999998
51
-89.999999
0
LINE
5
46e
100
AcDbEntity
8
1
100
AcDbLine
6
CONTINUOUS
62
5
10
113.400000
20
176.500000
11
113.900000
21
176.500000
0
LINE
5
46f
100
AcDbEntity
8
1
100
AcDbLine
6
CONTINUOUS
62
5
10
113.900000
20
179.500000
11
113.400000
21
179.500000
0
ARC
5
470
100
AcDbEntity
8
1
100
AcDbCircle
6
CONTINUOUS
62
5
10
113.400000
20
179.000000
40
0.500000
100
AcDbArc
50
89.999999
51
179.999998
0
LINE
5
471
100
AcDbEntity
8
1
100
AcDbLine
6
CONTINUOUS
62
5
10
112.900000
20
179.000000
11
112.900000
21
177.000000
0
ARC
5
472
100
AcDbEntity
8
1
100
AcDbCircle
6
CONTINUOUS
62
5
10
112.064092
20
174.432649
40
2.456339
100
AcDbArc
50
67.702494
51
79.778005
0
ARC
5
473
100
AcDbEntity
8
1
100
AcDbCircle
6
CONTINUOUS
62
5
10
112.400000
20
175.328835
40
1.500000
100
AcDbArc
50
0.000000
51
51.622974
0
LINE
5
474
100
AcDbEntity
8
1
100
AcDbLine
6
CONTINUOUS
62
5
10
113.331250
20
176.504749
11
113.331250
21
176.504749
0
LINE
5
475
100
AcDbEntity
8
1
100
AcDbLine
6
CONTINUOUS
62
5
10
112.996066
20
176.705318
11
112.996066
21
176.705318
0
ARC
5
476
100
AcDbEntity
8
1
100
AcDbCircle
6
CONTINUOUS
62
5
10
120.526939
20
162.750000
40
0.600000
100
AcDbArc
50
89.999999
51
97.367361
0
ARC
5
477
100
AcDbEntity
8
1
100
AcDbCircle
6
CONTINUOUS
62
5
10
122.216392
20
162.750000
40
0.600000
100
AcDbArc
50
43.723851
51
89.999999
0
ARC
5
478
100
AcDbEntity
8
1
100
AcDbCircle
6
CONTINUOUS
62
5
10
120.526939
20
157.250000
40
0.600000
100
AcDbArc
50
-97.367361
51
-89.999999
0
ARC
5
479
100
AcDbEntity
8
1
100
AcDbCircle
6
CONTINUOUS
62
5
10
122.216392
20
157.250000
40
0.600000
100
AcDbArc
50
-89.999999
51
-43.723851
0
LINE
5
47a
100
AcDbEntity
8
1
100
AcDbLine
6
CONTINUOUS
62
5
10
120.859458
20
140.378423
11
120.450000
21
140.378423
0
LINE
5
47b
100
AcDbEntity
8
1
100
AcDbLine
6
CONTINUOUS
62
5
10
122.575976
20
140.378423
11
121.890543
21
140.378423
0
ARC
5
47c
100
AcDbEntity
8
1
100
AcDbCircle
6
CONTINUOUS
62
5
10
112.064092
20
145.567351
40
2.456339
100
AcDbArc
50
-79.778005
51
-67.702494
0
ARC
5
47d
100
AcDbEntity
8
1
100
AcDbCircle
6
CONTINUOUS
62
5
10
112.400000
20
144.671165
40
1.500000
100
AcDbArc
50
-51.622974
51
0.000000
0
LINE
5
47e
100
AcDbEntity
8
1
100
AcDbLine
6
CONTINUOUS
62
5
10
113.331250
20
143.495251
11
113.331250
21
143.495251
0
LINE
5
47f
100
AcDbEntity
8
1
100
AcDbLine
6
CONTINUOUS
62
5
10
112.996066
20
143.294682
11
112.996066
21
143.294682
0
ARC
5
480
100
AcDbEntity
8
1
100
AcDbCircle
6
CONTINUOUS
62
5
10
113.400000
20
143.000000
40
0.500000
100
AcDbArc
50
89.999999
51
179.999998
0
LINE
5
481
100
AcDbEntity
8
1
100
AcDbLine
6
CONTINUOUS
62
5
10
113.400000
20
143.500000
11
113.900000
21
143.500000
0
LINE
5
482
100
AcDbEntity
8
1
100
AcDbLine
6
CONTINUOUS
62
5
10
113.900000
20
140.500000
11
113.400000
21
140.500000
0
ARC
5
483
100
AcDbEntity
8
1
100
AcDbCircle
6
CONTINUOUS
62
5
10
113.400000
20
141.000000
40
0.500000
100
AcDbArc
50
179.999998
51
-89.999999
0
LINE
5
484
100
AcDbEntity
8
1
100
AcDbLine
6
CONTINUOUS
62
5
10
112.900000
20
141.000000
11
112.900000
21
143.000000
0
ARC
5
485
100
AcDbEntity
8
1
100
AcDbCircle
6
CONTINUOUS
62
5
10
118.421074
20
136.880263
40
2.697073
100
AcDbArc
50
-13.008465
51
18.293556
0
POLYLINE
5
486
100
AcDbEntity
8
1
6
CONTINUOUS
62
5
100
AcDb2dPolyline
66
1
10
0.0
20
0.0
30
0.0
70
0
0
VERTEX
5
487
100
AcDbEntity
8
1
100
AcDbVertex
100
AcDb2dVertex
62
5
10
111.050000
20
135.600000
0
VERTEX
5
488
100
AcDbEntity
8
1
100
AcDbVertex
100
AcDb2dVertex
62
5
10
112.900000
20
135.600000
0
VERTEX
5
489
100
AcDbEntity
8
1
100
AcDbVertex
100
AcDb2dVertex
62
5
10
112.900000
20
135.500000
0
VERTEX
5
48a
100
AcDbEntity
8
1
100
AcDbVertex
100
AcDb2dVertex
62
5
10
113.900000
20
135.500000
0
SEQEND
5
48b
100
AcDbEntity
8
1
0
LINE
5
48c
100
AcDbEntity
8
1
100
AcDbLine
6
CONTINUOUS
62
5
10
122.650000
20
139.463076
11
121.850000
21
139.500000
0
POLYLINE
5
48d
100
AcDbEntity
8
1
6
CONTINUOUS
62
5
100
AcDb2dPolyline
66
1
10
0.0
20
0.0
30
0.0
70
0
0
VERTEX
5
48e
100
AcDbEntity
8
1
100
AcDbVertex
100
AcDb2dVertex
62
5
10
121.850000
20
139.500000
0
VERTEX
5
48f
100
AcDbEntity
8
1
100
AcDbVertex
100
AcDb2dVertex
62
5
10
121.890543
20
140.378423
0
VERTEX
5
490
100
AcDbEntity
8
1
100
AcDbVertex
100
AcDb2dVertex
62
5
10
122.277201
20
140.500000
0
VERTEX
5
491
100
AcDbEntity
8
1
100
AcDbVertex
100
AcDb2dVertex
62
5
10
122.650000
20
140.500000
0
SEQEND
5
492
100
AcDbEntity
8
1
0
POLYLINE
5
493
100
AcDbEntity
8
1
6
CONTINUOUS
62
5
100
AcDb2dPolyline
66
1
10
0.0
20
0.0
30
0.0
70
0
0
VERTEX
5
494
100
AcDbEntity
8
1
100
AcDbVertex
100
AcDb2dVertex
62
5
10
122.533976
20
139.468432
0
VERTEX
5
495
100
AcDbEntity
8
1
100
AcDbVertex
100
AcDb2dVertex
62
5
10
122.575976
20
140.378423
0
VERTEX
5
496
100
AcDbEntity
8
1
100
AcDbVertex
100
AcDb2dVertex
62
5
10
122.650000
20
140.401698
0
SEQEND
5
497
100
AcDbEntity
8
1
0
ARC
5
498
100
AcDbEntity
8
1
100
AcDbCircle
6
CONTINUOUS
62
5
10
122.238612
20
138.881425
40
0.600000
100
AcDbArc
50
46.713491
51
87.357454
0
ARC
5
499
100
AcDbEntity
8
1
100
AcDbCircle
6
CONTINUOUS
62
5
10
120.511388
20
138.881425
40
0.600000
100
AcDbArc
50
92.642544
51
95.872415
0
POLYLINE
5
49a
100
AcDbEntity
8
1
6
CONTINUOUS
62
5
100
AcDb2dPolyline
66
1
10
0.0
20
0.0
30
0.0
70
0
0
VERTEX
5
49b
100
AcDbEntity
8
1
100
AcDbVertex
100
AcDb2dVertex
62
5
10
120.900000
20
139.500000
0
VERTEX
5
49c
100
AcDbEntity
8
1
100
AcDbVertex
100
AcDb2dVertex
62
5
10
120.859458
20
140.378423
0
VERTEX
5
49d
100
AcDbEntity
8
1
100
AcDbVertex
100
AcDb2dVertex
62
5
10
120.469428
20
140.500000
0
VERTEX
5
49e
100
AcDbEntity
8
1
100
AcDbVertex
100
AcDb2dVertex
62
5
10
120.450000
20
140.500000
0
SEQEND
5
49f
100
AcDbEntity
8
1
0
LINE
5
4a0
100
AcDbEntity
8
1
100
AcDbLine
6
CONTINUOUS
62
5
10
120.599485
20
163.350000
11
120.599485
21
156.650000
0
POLYLINE
5
4a1
100
AcDbEntity
8
1
6
CONTINUOUS
62
5
100
AcDb2dPolyline
66
1
10
0.0
20
0.0
30
0.0
70
0
0
VERTEX
5
4a2
100
AcDbEntity
8
1
100
AcDbVertex
100
AcDb2dVertex
62
5
10
120.450000
20
163.350000
0
VERTEX
5
4a3
100
AcDbEntity
8
1
100
AcDbVertex
100
AcDb2dVertex
62
5
10
121.200000
20
163.350000
0
VERTEX
5
4a4
100
AcDbEntity
8
1
100
AcDbVertex
100
AcDb2dVertex
62
5
10
121.200000
20
156.650000
0
VERTEX
5
4a5
100
AcDbEntity
8
1
100
AcDbVertex
100
AcDb2dVertex
62
5
10
120.450000
20
156.650000
0
SEQEND
5
4a6
100
AcDbEntity
8
1
0
ARC
5
4a7
100
AcDbEntity
8
1
100
AcDbCircle
6
CONTINUOUS
62
5
10
122.582319
20
157.250000
40
0.600000
100
AcDbArc
50
-89.999999
51
-83.523165
0
POLYLINE
5
4a8
100
AcDbEntity
8
1
6
CONTINUOUS
62
5
100
AcDb2dPolyline
66
1
10
0.0
20
0.0
30
0.0
70
0
0
VERTEX
5
4a9
100
AcDbEntity
8
1
100
AcDbVertex
100
AcDb2dVertex
62
5
10
122.582319
20
156.650000
0
VERTEX
5
4aa
100
AcDbEntity
8
1
100
AcDbVertex
100
AcDb2dVertex
62
5
10
121.550000
20
156.650000
0
VERTEX
5
4ab
100
AcDbEntity
8
1
100
AcDbVertex
100
AcDb2dVertex
62
5
10
121.550000
20
163.350000
0
VERTEX
5
4ac
100
AcDbEntity
8
1
100
AcDbVertex
100
AcDb2dVertex
62
5
10
122.582319
20
163.350000
0
SEQEND
5
4ad
100
AcDbEntity
8
1
0
ARC
5
4ae
100
AcDbEntity
8
1
100
AcDbCircle
6
CONTINUOUS
62
5
10
122.582319
20
162.750000
40
0.600000
100
AcDbArc
50
83.523165
51
89.999999
0
LINE
5
4af
100
AcDbEntity
8
1
100
AcDbLine
6
CONTINUOUS
62
5
10
122.138079
20
163.350000
11
122.138079
21
156.650000
0
POLYLINE
5
4b0
100
AcDbEntity
8
1
6
CONTINUOUS
62
5
100
AcDb2dPolyline
66
1
10
0.0
20
0.0
30
0.0
70
1
0
VERTEX
5
4b1
100
AcDbEntity
8
1
100
AcDbVertex
100
AcDb2dVertex
62
5
10
120.450000
20
164.250000
0
VERTEX
5
4b2
100
AcDbEntity
8
1
100
AcDbVertex
100
AcDb2dVertex
62
5
10
122.650000
20
164.250000
0
VERTEX
5
4b3
100
AcDbEntity
8
1
100
AcDbVertex
100
AcDb2dVertex
62
5
10
122.650000
20
155.750000
0
VERTEX
5
4b4
100
AcDbEntity
8
1
100
AcDbVertex
100
AcDb2dVertex
62
5
10
120.450000
20
155.750000
0
VERTEX
5
4b5
100
AcDbEntity
8
1
100
AcDbVertex
100
AcDb2dVertex
62
5
10
120.450000
20
164.250000
0
SEQEND
5
4b6
100
AcDbEntity
8
1
0
ARC
5
4b7
100
AcDbEntity
8
1
100
AcDbCircle
6
CONTINUOUS
62
5
10
123.487121
20
166.500000
40
1.000000
100
AcDbArc
50
32.797168
51
89.999999
0
ARC
5
4b8
100
AcDbEntity
8
1
100
AcDbCircle
6
CONTINUOUS
62
5
10
113.400000
20
160.000000
40
13.000000
100
AcDbArc
50
-32.797168
51
32.797168
0
ARC
5
4b9
100
AcDbEntity
8
1
100
AcDbCircle
6
CONTINUOUS
62
5
10
123.487121
20
153.500000
40
1.000000
100
AcDbArc
50
-89.999999
51
-32.797168
0
LINE
5
4ba
100
AcDbEntity
8
1
100
AcDbLine
6
CONTINUOUS
62
5
10
123.487121
20
152.500000
11
117.900000
21
152.500000
0
ARC
5
4bb
100
AcDbEntity
8
1
100
AcDbCircle
6
CONTINUOUS
62
5
10
117.900000
20
153.500000
40
1.000000
100
AcDbArc
50
179.999998
51
-89.999999
0
LINE
5
4bc
100
AcDbEntity
8
1
100
AcDbLine
6
CONTINUOUS
62
5
10
116.900000
20
153.500000
11
116.900000
21
166.500000
0
ARC
5
4bd
100
AcDbEntity
8
1
100
AcDbCircle
6
CONTINUOUS
62
5
10
117.900000
20
166.500000
40
1.000000
100
AcDbArc
50
89.999999
51
179.999998
0
LINE
5
4be
100
AcDbEntity
8
1
100
AcDbLine
6
CONTINUOUS
62
5
10
117.900000
20
167.500000
11
123.487121
21
167.500000
0
LINE
5
4bf
100
AcDbEntity
8
1
100
AcDbLine
6
CONTINUOUS
62
5
10
143.400000
20
129.900000
11
142.900000
21
129.400000
0
POLYLINE
5
4c0
100
AcDbEntity
8
1
6
CONTINUOUS
62
5
100
AcDb2dPolyline
66
1
10
0.0
20
0.0
30
0.0
70
0
0
VERTEX
5
4c1
100
AcDbEntity
8
1
100
AcDbVertex
100
AcDb2dVertex
62
5
10
144.750000
20
129.400000
0
VERTEX
5
4c2
100
AcDbEntity
8
1
100
AcDbVertex
100
AcDb2dVertex
62
5
10
142.900000
20
129.400000
0
VERTEX
5
4c3
100
AcDbEntity
8
1
100
AcDbVertex
100
AcDb2dVertex
62
5
10
142.900000
20
129.500000
0
VERTEX
5
4c4
100
AcDbEntity
8
1
100
AcDbVertex
100
AcDb2dVertex
62
5
10
141.900000
20
129.500000
0
SEQEND
5
4c5
100
AcDbEntity
8
1
0
ARC
5
4c6
100
AcDbEntity
8
1
100
AcDbCircle
6
CONTINUOUS
62
5
10
138.900000
20
122.750000
40
0.500000
100
AcDbArc
50
89.999999
51
179.999998
0
POLYLINE
5
4c7
100
AcDbEntity
8
1
6
CONTINUOUS
62
5
100
AcDb2dPolyline
66
1
10
0.0
20
0.0
30
0.0
70
0
0
VERTEX
5
4c8
100
AcDbEntity
8
1
100
AcDbVertex
100
AcDb2dVertex
62
5
10
138.400000
20
122.750000
0
VERTEX
5
4c9
100
AcDbEntity
8
1
100
AcDbVertex
100
AcDb2dVertex
62
5
10
138.400000
20
121.250000
0
VERTEX
5
4ca
100
AcDbEntity
8
1
100
AcDbVertex
100
AcDb2dVertex
62
5
10
139.900000
20
120.250000
0
VERTEX
5
4cb
100
AcDbEntity
8
1
100
AcDbVertex
100
AcDb2dVertex
62
5
10
142.400000
20
120.250000
0
VERTEX
5
4cc
100
AcDbEntity
8
1
100
AcDbVertex
100
AcDb2dVertex
62
5
10
142.400000
20
123.250000
0
VERTEX
5
4cd
100
AcDbEntity
8
1
100
AcDbVertex
100
AcDb2dVertex
62
5
10
138.900000
20
123.250000
0
SEQEND
5
4ce
100
AcDbEntity
8
1
0
LINE
5
4cf
100
AcDbEntity
8
1
100
AcDbLine
6
CONTINUOUS
62
5
10
144.750000
20
129.000000
11
147.100000
21
129.000000
0
LINE
5
4d0
100
AcDbEntity
8
1
100
AcDbLine
6
CONTINUOUS
62
5
10
149.300000
20
106.750000
11
149.300000
21
104.000000
0
LINE
5
4d1
100
AcDbEntity
8
1
100
AcDbLine
6
CONTINUOUS
62
5
10
148.700000
20
106.791742
11
148.700000
21
104.000000
0
LINE
5
4d2
100
AcDbEntity
8
1
100
AcDbLine
6
CONTINUOUS
62
5
10
149.000000
20
106.750000
11
149.000000
21
104.000000
0
ARC
5
4d3
100
AcDbEntity
8
1
100
AcDbCircle
6
CONTINUOUS
62
5
10
138.900000
20
110.500000
40
1.000000
100
AcDbArc
50
144.462321
51
-35.537677
0
LINE
5
4d4
100
AcDbEntity
8
1
100
AcDbLine
6
CONTINUOUS
62
5
10
138.086267
20
111.081238
11
143.086267
21
118.081238
0
ARC
5
4d5
100
AcDbEntity
8
1
100
AcDbCircle
6
CONTINUOUS
62
5
10
143.900000
20
117.500000
40
1.000000
100
AcDbArc
50
-35.537677
51
144.462321
0
LINE
5
4d6
100
AcDbEntity
8
1
100
AcDbLine
6
CONTINUOUS
62
5
10
144.713734
20
116.918762
11
139.713734
21
109.918762
0
ARC
5
4d7
100
AcDbEntity
8
1
100
AcDbCircle
6
CONTINUOUS
62
5
10
120.756063
20
133.580149
40
0.600000
100
AcDbArc
50
-120.670763
51
-87.357454
0
LINE
5
4d8
100
AcDbEntity
8
1
100
AcDbLine
6
CONTINUOUS
62
5
10
111.050000
20
129.000000
11
108.700000
21
129.000000
0
LINE
5
4d9
100
AcDbEntity
8
1
100
AcDbLine
6
CONTINUOUS
62
5
10
112.400000
20
129.900000
11
112.900000
21
129.400000
0
POLYLINE
5
4da
100
AcDbEntity
8
1
6
CONTINUOUS
62
5
100
AcDb2dPolyline
66
1
10
0.0
20
0.0
30
0.0
70
0
0
VERTEX
5
4db
100
AcDbEntity
8
1
100
AcDbVertex
100
AcDb2dVertex
62
5
10
111.050000
20
129.400000
0
VERTEX
5
4dc
100
AcDbEntity
8
1
100
AcDbVertex
100
AcDb2dVertex
62
5
10
112.900000
20
129.400000
0
VERTEX
5
4dd
100
AcDbEntity
8
1
100
AcDbVertex
100
AcDb2dVertex
62
5
10
112.900000
20
129.500000
0
VERTEX
5
4de
100
AcDbEntity
8
1
100
AcDbVertex
100
AcDb2dVertex
62
5
10
113.900000
20
129.500000
0
SEQEND
5
4df
100
AcDbEntity
8
1
0
ARC
5
4e0
100
AcDbEntity
8
1
100
AcDbCircle
6
CONTINUOUS
62
5
10
111.900000
20
122.750000
40
0.500000
100
AcDbArc
50
89.999999
51
179.999998
0
POLYLINE
5
4e1
100
AcDbEntity
8
1
6
CONTINUOUS
62
5
100
AcDb2dPolyline
66
1
10
0.0
20
0.0
30
0.0
70
0
0
VERTEX
5
4e2
100
AcDbEntity
8
1
100
AcDbVertex
100
AcDb2dVertex
62
5
10
111.400000
20
122.750000
0
VERTEX
5
4e3
100
AcDbEntity
8
1
100
AcDbVertex
100
AcDb2dVertex
62
5
10
111.400000
20
121.250000
0
VERTEX
5
4e4
100
AcDbEntity
8
1
100
AcDbVertex
100
AcDb2dVertex
62
5
10
112.900000
20
120.250000
0
VERTEX
5
4e5
100
AcDbEntity
8
1
100
AcDbVertex
100
AcDb2dVertex
62
5
10
115.400000
20
120.250000
0
VERTEX
5
4e6
100
AcDbEntity
8
1
100
AcDbVertex
100
AcDb2dVertex
62
5
10
115.400000
20
123.250000
0
VERTEX
5
4e7
100
AcDbEntity
8
1
100
AcDbVertex
100
AcDb2dVertex
62
5
10
111.900000
20
123.250000
0
SEQEND
5
4e8
100
AcDbEntity
8
1
0
CIRCLE
5
4e9
100
AcDbEntity
8
1
100
AcDbCircle
6
CONTINUOUS
62
5
10
117.900000
20
109.500000
40
2.250000
0
CIRCLE
5
4ea
100
AcDbEntity
8
1
100
AcDbCircle
6
CONTINUOUS
62
5
10
117.900000
20
109.500000
40
2.750000
0
ARC
5
4eb
100
AcDbEntity
8
1
100
AcDbCircle
6
CONTINUOUS
62
5
10
111.900000
20
117.500000
40
1.000000
100
AcDbArc
50
36.869897
51
-143.130101
0
LINE
5
4ec
100
AcDbEntity
8
1
100
AcDbLine
6
CONTINUOUS
62
5
10
112.700000
20
118.100000
11
117.162957
21
112.149390
0
LINE
5
4ed
100
AcDbEntity
8
1
100
AcDbLine
6
CONTINUOUS
62
5
10
115.562957
20
110.949390
11
111.100000
21
116.900000
0
LINE
5
4ee
100
AcDbEntity
8
1
100
AcDbLine
6
CONTINUOUS
62
5
10
143.208333
20
126.000000
11
141.845436
21
126.000000
0
LINE
5
4ef
100
AcDbEntity
8
1
100
AcDbLine
6
CONTINUOUS
62
5
10
113.954565
20
126.000000
11
112.591667
21
126.000000
0
CIRCLE
5
4f0
100
AcDbEntity
8
1
100
AcDbCircle
6
CONTINUOUS
62
5
10
127.900000
20
109.500000
40
1.500000
0
CIRCLE
5
4f1
100
AcDbEntity
8
1
100
AcDbCircle
6
CONTINUOUS
62
5
10
127.900000
20
109.500000
40
2.250000
0
CIRCLE
5
4f2
100
AcDbEntity
8
1
100
AcDbCircle
6
CONTINUOUS
62
5
10
127.900000
20
109.500000
40
2.250000
0
POLYLINE
5
4f3
100
AcDbEntity
8
1
6
CONTINUOUS
62
5
100
AcDb2dPolyline
66
1
10
0.0
20
0.0
30
0.0
70
1
0
VERTEX
5
4f4
100
AcDbEntity
8
1
100
AcDbVertex
100
AcDb2dVertex
62
5
10
121.900000
20
106.250000
0
VERTEX
5
4f5
100
AcDbEntity
8
1
100
AcDbVertex
100
AcDb2dVertex
62
5
10
121.900000
20
112.750000
0
VERTEX
5
4f6
100
AcDbEntity
8
1
100
AcDbVertex
100
AcDb2dVertex
62
5
10
133.900000
20
112.750000
0
VERTEX
5
4f7
100
AcDbEntity
8
1
100
AcDbVertex
100
AcDb2dVertex
62
5
10
133.900000
20
106.250000
0
VERTEX
5
4f8
100
AcDbEntity
8
1
100
AcDbVertex
100
AcDb2dVertex
62
5
10
121.900000
20
106.250000
0
SEQEND
5
4f9
100
AcDbEntity
8
1
0
ARC
5
4fa
100
AcDbEntity
8
1
100
AcDbCircle
6
CONTINUOUS
62
5
10
123.900000
20
118.442059
40
2.500000
100
AcDbArc
50
84.502150
51
-95.497848
0
ARC
5
4fb
100
AcDbEntity
8
1
100
AcDbCircle
6
CONTINUOUS
62
5
10
127.900000
20
160.000000
40
44.250000
100
AcDbArc
50
-95.497848
51
-84.502150
0
ARC
5
4fc
100
AcDbEntity
8
1
100
AcDbCircle
6
CONTINUOUS
62
5
10
131.900000
20
118.442059
40
2.500000
100
AcDbArc
50
-84.502150
51
95.497848
0
ARC
5
4fd
100
AcDbEntity
8
1
100
AcDbCircle
6
CONTINUOUS
62
5
10
127.900000
20
160.000000
40
39.250000
100
AcDbArc
50
-95.497848
51
-84.502150
0
ARC
5
4fe
100
AcDbEntity
8
1
100
AcDbCircle
6
CONTINUOUS
62
5
10
123.900000
20
118.442059
40
3.000000
100
AcDbArc
50
84.502150
51
-95.497848
0
ARC
5
4ff
100
AcDbEntity
8
1
100
AcDbCircle
6
CONTINUOUS
62
5
10
127.900000
20
160.000000
40
44.750000
100
AcDbArc
50
-95.497848
51
-84.502150
0
ARC
5
500
100
AcDbEntity
8
1
100
AcDbCircle
6
CONTINUOUS
62
5
10
131.900000
20
118.442059
40
3.000000
100
AcDbArc
50
-84.502150
51
95.497848
0
ARC
5
501
100
AcDbEntity
8
1
100
AcDbCircle
6
CONTINUOUS
62
5
10
127.900000
20
160.000000
40
38.750000
100
AcDbArc
50
-95.497848
51
-84.502150
0
ARC
5
502
100
AcDbEntity
8
1
100
AcDbCircle
6
CONTINUOUS
62
5
10
146.900000
20
141.000000
40
2.500000
100
AcDbArc
50
2.199773
51
55.944202
0
LINE
5
503
100
AcDbEntity
8
1
100
AcDbLine
6
CONTINUOUS
62
5
10
149.398158
20
141.095960
11
149.398565
21
133.434407
0
ARC
5
504
100
AcDbEntity
8
1
100
AcDbCircle
6
CONTINUOUS
62
5
10
147.900000
20
133.500000
40
1.500000
100
AcDbArc
50
-74.533989
51
-2.506266
0
LINE
5
505
100
AcDbEntity
8
1
100
AcDbLine
6
CONTINUOUS
62
5
10
143.400000
20
135.100000
11
142.900000
21
135.600000
0
LINE
5
506
100
AcDbEntity
8
1
100
AcDbLine
6
CONTINUOUS
62
5
10
144.750000
20
135.100000
11
144.750000
21
135.100000
0
LINE
5
507
100
AcDbEntity
8
1
100
AcDbLine
6
CONTINUOUS
62
5
10
144.750000
20
129.900000
11
144.750000
21
129.900000
0
POLYLINE
5
508
100
AcDbEntity
8
1
6
CONTINUOUS
62
5
100
AcDb2dPolyline
66
1
10
0.0
20
0.0
30
0.0
70
0
0
VERTEX
5
509
100
AcDbEntity
8
1
100
AcDbVertex
100
AcDb2dVertex
62
5
10
144.750000
20
129.900000
0
VERTEX
5
50a
100
AcDbEntity
8
1
100
AcDbVertex
100
AcDb2dVertex
62
5
10
143.400000
20
129.900000
0
VERTEX
5
50b
100
AcDbEntity
8
1
100
AcDbVertex
100
AcDb2dVertex
62
5
10
143.400000
20
135.100000
0
VERTEX
5
50c
100
AcDbEntity
8
1
100
AcDbVertex
100
AcDb2dVertex
62
5
10
144.750000
20
135.100000
0
SEQEND
5
50d
100
AcDbEntity
8
1
0
LINE
5
50e
100
AcDbEntity
8
1
100
AcDbLine
6
CONTINUOUS
62
5
10
143.400000
20
135.100000
11
142.900000
21
135.600000
0
LINE
5
50f
100
AcDbEntity
8
1
100
AcDbLine
6
CONTINUOUS
62
5
10
143.400000
20
129.900000
11
142.900000
21
129.400000
0
ARC
5
510
100
AcDbEntity
8
1
100
AcDbCircle
6
CONTINUOUS
62
5
10
133.806063
20
133.580149
40
0.600000
100
AcDbArc
50
-177.357453
51
-172.323358
0
LINE
5
511
100
AcDbEntity
8
1
100
AcDbLine
6
CONTINUOUS
62
5
10
133.150000
20
134.780997
11
133.206701
21
133.552486
0
LINE
5
512
100
AcDbEntity
8
1
100
AcDbLine
6
CONTINUOUS
62
5
10
135.063000
20
133.500000
11
135.338988
21
139.479739
0
LINE
5
513
100
AcDbEntity
8
1
100
AcDbLine
6
CONTINUOUS
62
5
10
133.787000
20
133.500000
11
133.511012
21
139.479739
0
POLYLINE
5
514
100
AcDbEntity
8
1
6
CONTINUOUS
62
5
100
AcDb2dPolyline
66
1
10
0.0
20
0.0
30
0.0
70
0
0
VERTEX
5
515
100
AcDbEntity
8
1
100
AcDbVertex
100
AcDb2dVertex
62
5
10
134.623077
20
133.500000
0
VERTEX
5
516
100
AcDbEntity
8
1
100
AcDbVertex
100
AcDb2dVertex
62
5
10
134.900000
20
139.500000
0
VERTEX
5
517
100
AcDbEntity
8
1
100
AcDbVertex
100
AcDb2dVertex
62
5
10
135.350000
20
139.479231
0
SEQEND
5
518
100
AcDbEntity
8
1
0
LINE
5
519
100
AcDbEntity
8
1
100
AcDbLine
6
CONTINUOUS
62
5
10
134.226923
20
133.500000
11
133.950000
21
139.500000
0
POLYLINE
5
51a
100
AcDbEntity
8
1
6
CONTINUOUS
62
5
100
AcDb2dPolyline
66
1
10
0.0
20
0.0
30
0.0
70
0
0
VERTEX
5
51b
100
AcDbEntity
8
1
100
AcDbVertex
100
AcDb2dVertex
62
5
10
133.150000
20
140.500000
0
VERTEX
5
51c
100
AcDbEntity
8
1
100
AcDbVertex
100
AcDb2dVertex
62
5
10
135.350000
20
140.500000
0
VERTEX
5
51d
100
AcDbEntity
8
1
100
AcDbVertex
100
AcDb2dVertex
62
5
10
135.350000
20
133.500000
0
VERTEX
5
51e
100
AcDbEntity
8
1
100
AcDbVertex
100
AcDb2dVertex
62
5
10
133.150000
20
133.500000
0
VERTEX
5
51f
100
AcDbEntity
8
1
100
AcDbVertex
100
AcDb2dVertex
62
5
10
133.150000
20
140.500000
0
SEQEND
5
520
100
AcDbEntity
8
1
0
ARC
5
521
100
AcDbEntity
8
1
100
AcDbCircle
6
CONTINUOUS
62
5
10
121.993938
20
133.580149
40
0.600000
100
AcDbArc
50
-92.642544
51
-2.642545
0
LINE
5
522
100
AcDbEntity
8
1
100
AcDbLine
6
CONTINUOUS
62
5
10
122.650000
20
134.780997
11
122.593300
21
133.552486
0
LINE
5
523
100
AcDbEntity
8
1
100
AcDbLine
6
CONTINUOUS
62
5
10
111.050000
20
135.100000
11
111.050000
21
135.100000
0
LINE
5
524
100
AcDbEntity
8
1
100
AcDbLine
6
CONTINUOUS
62
5
10
111.050000
20
129.900000
11
111.050000
21
129.900000
0
POLYLINE
5
525
100
AcDbEntity
8
1
6
CONTINUOUS
62
5
100
AcDb2dPolyline
66
1
10
0.0
20
0.0
30
0.0
70
0
0
VERTEX
5
526
100
AcDbEntity
8
1
100
AcDbVertex
100
AcDb2dVertex
62
5
10
111.050000
20
129.900000
0
VERTEX
5
527
100
AcDbEntity
8
1
100
AcDbVertex
100
AcDb2dVertex
62
5
10
112.400000
20
129.900000
0
VERTEX
5
528
100
AcDbEntity
8
1
100
AcDbVertex
100
AcDb2dVertex
62
5
10
112.400000
20
135.100000
0
VERTEX
5
529
100
AcDbEntity
8
1
100
AcDbVertex
100
AcDb2dVertex
62
5
10
111.050000
20
135.100000
0
SEQEND
5
52a
100
AcDbEntity
8
1
0
LINE
5
52b
100
AcDbEntity
8
1
100
AcDbLine
6
CONTINUOUS
62
5
10
112.400000
20
135.100000
11
112.900000
21
135.600000
0
LINE
5
52c
100
AcDbEntity
8
1
100
AcDbLine
6
CONTINUOUS
62
5
10
112.400000
20
135.100000
11
112.900000
21
135.600000
0
LINE
5
52d
100
AcDbEntity
8
1
100
AcDbLine
6
CONTINUOUS
62
5
10
112.400000
20
129.900000
11
112.900000
21
129.400000
0
POLYLINE
5
52e
100
AcDbEntity
8
1
6
CONTINUOUS
62
5
100
AcDb2dPolyline
66
1
10
0.0
20
0.0
30
0.0
70
1
0
VERTEX
5
52f
100
AcDbEntity
8
1
100
AcDbVertex
100
AcDb2dVertex
62
5
10
120.461012
20
139.479739
0
VERTEX
5
530
100
AcDbEntity
8
1
100
AcDbVertex
100
AcDb2dVertex
62
5
10
120.761012
20
132.979739
0
SEQEND
5
531
100
AcDbEntity
8
1
0
POLYLINE
5
532
100
AcDbEntity
8
1
6
CONTINUOUS
62
5
100
AcDb2dPolyline
66
1
10
0.0
20
0.0
30
0.0
70
0
0
VERTEX
5
533
100
AcDbEntity
8
1
100
AcDbVertex
100
AcDb2dVertex
62
5
10
120.450000
20
139.479231
0
VERTEX
5
534
100
AcDbEntity
8
1
100
AcDbVertex
100
AcDb2dVertex
62
5
10
120.900000
20
139.500000
0
VERTEX
5
535
100
AcDbEntity
8
1
100
AcDbVertex
100
AcDb2dVertex
62
5
10
121.200000
20
133.000000
0
VERTEX
5
536
100
AcDbEntity
8
1
100
AcDbVertex
100
AcDb2dVertex
62
5
10
120.450000
20
132.965385
0
SEQEND
5
537
100
AcDbEntity
8
1
0
POLYLINE
5
538
100
AcDbEntity
8
1
6
CONTINUOUS
62
5
100
AcDb2dPolyline
66
1
10
0.0
20
0.0
30
0.0
70
1
0
VERTEX
5
539
100
AcDbEntity
8
1
100
AcDbVertex
100
AcDb2dVertex
62
5
10
121.988988
20
132.979739
0
VERTEX
5
53a
100
AcDbEntity
8
1
100
AcDbVertex
100
AcDb2dVertex
62
5
10
122.288988
20
139.479739
0
SEQEND
5
53b
100
AcDbEntity
8
1
0
ARC
5
53c
100
AcDbEntity
8
1
100
AcDbCircle
6
CONTINUOUS
62
5
10
122.376810
20
133.562478
40
0.600000
100
AcDbArc
50
-92.642544
51
-62.914626
0
POLYLINE
5
53d
100
AcDbEntity
8
1
6
CONTINUOUS
62
5
100
AcDb2dPolyline
66
1
10
0.0
20
0.0
30
0.0
70
0
0
VERTEX
5
53e
100
AcDbEntity
8
1
100
AcDbVertex
100
AcDb2dVertex
62
5
10
121.850000
20
139.500000
0
VERTEX
5
53f
100
AcDbEntity
8
1
100
AcDbVertex
100
AcDb2dVertex
62
5
10
121.550000
20
133.000000
0
VERTEX
5
540
100
AcDbEntity
8
1
100
AcDbVertex
100
AcDb2dVertex
62
5
10
122.349147
20
132.963116
0
SEQEND
5
541
100
AcDbEntity
8
1
0
POLYLINE
5
542
100
AcDbEntity
8
1
6
CONTINUOUS
62
5
100
AcDb2dPolyline
66
1
10
0.0
20
0.0
30
0.0
70
1
0
VERTEX
5
543
100
AcDbEntity
8
1
100
AcDbVertex
100
AcDb2dVertex
62
5
10
120.450000
20
141.250000
0
VERTEX
5
544
100
AcDbEntity
8
1
100
AcDbVertex
100
AcDb2dVertex
62
5
10
122.650000
20
141.250000
0
VERTEX
5
545
100
AcDbEntity
8
1
100
AcDbVertex
100
AcDb2dVertex
62
5
10
122.650000
20
132.750000
0
VERTEX
5
546
100
AcDbEntity
8
1
100
AcDbVertex
100
AcDb2dVertex
62
5
10
120.450000
20
132.750000
0
VERTEX
5
547
100
AcDbEntity
8
1
100
AcDbVertex
100
AcDb2dVertex
62
5
10
120.450000
20
141.250000
0
SEQEND
5
548
100
AcDbEntity
8
1
0
ARC
5
549
100
AcDbEntity
8
1
100
AcDbCircle
6
CONTINUOUS
62
5
10
108.900000
20
141.000000
40
2.500000
100
AcDbArc
50
124.055797
51
-179.999998
0
LINE
5
54a
100
AcDbEntity
8
1
100
AcDbLine
6
CONTINUOUS
62
5
10
106.400000
20
141.000000
11
106.400000
21
133.500000
0
ARC
5
54b
100
AcDbEntity
8
1
100
AcDbCircle
6
CONTINUOUS
62
5
10
107.900000
20
133.500000
40
1.500000
100
AcDbArc
50
-179.999998
51
-105.466009
0
ARC
5
54c
100
AcDbEntity
8
1
100
AcDbCircle
6
CONTINUOUS
62
5
10
123.487121
20
143.500000
40
1.000000
100
AcDbArc
50
32.797168
51
89.999999
0
ARC
5
54d
100
AcDbEntity
8
1
100
AcDbCircle
6
CONTINUOUS
62
5
10
113.400000
20
137.000000
40
13.000000
100
AcDbArc
50
-32.797168
51
32.797168
0
ARC
5
54e
100
AcDbEntity
8
1
100
AcDbCircle
6
CONTINUOUS
62
5
10
123.487121
20
130.500000
40
1.000000
100
AcDbArc
50
-89.999999
51
-32.797168
0
LINE
5
54f
100
AcDbEntity
8
1
100
AcDbLine
6
CONTINUOUS
62
5
10
123.487121
20
129.500000
11
117.900000
21
129.500000
0
ARC
5
550
100
AcDbEntity
8
1
100
AcDbCircle
6
CONTINUOUS
62
5
10
117.900000
20
130.500000
40
1.000000
100
AcDbArc
50
179.999998
51
-89.999999
0
LINE
5
551
100
AcDbEntity
8
1
100
AcDbLine
6
CONTINUOUS
62
5
10
116.900000
20
130.500000
11
116.900000
21
143.500000
0
ARC
5
552
100
AcDbEntity
8
1
100
AcDbCircle
6
CONTINUOUS
62
5
10
117.900000
20
143.500000
40
1.000000
100
AcDbArc
50
89.999999
51
179.999998
0
LINE
5
553
100
AcDbEntity
8
1
100
AcDbLine
6
CONTINUOUS
62
5
10
117.900000
20
144.500000
11
123.487121
21
144.500000
0
ARC
5
554
100
AcDbEntity
8
1
100
AcDbCircle
6
CONTINUOUS
62
5
10
132.312880
20
143.500000
40
1.000000
100
AcDbArc
50
89.999999
51
147.202830
0
ARC
5
555
100
AcDbEntity
8
1
100
AcDbCircle
6
CONTINUOUS
62
5
10
142.400000
20
137.000000
40
13.000000
100
AcDbArc
50
147.202830
51
-147.202830
0
ARC
5
556
100
AcDbEntity
8
1
100
AcDbCircle
6
CONTINUOUS
62
5
10
132.312880
20
130.500000
40
1.000000
100
AcDbArc
50
-147.202830
51
-89.999999
0
LINE
5
557
100
AcDbEntity
8
1
100
AcDbLine
6
CONTINUOUS
62
5
10
132.312880
20
129.500000
11
137.900000
21
129.500000
0
ARC
5
558
100
AcDbEntity
8
1
100
AcDbCircle
6
CONTINUOUS
62
5
10
137.900000
20
130.500000
40
1.000000
100
AcDbArc
50
-89.999999
51
0.000000
0
LINE
5
559
100
AcDbEntity
8
1
100
AcDbLine
6
CONTINUOUS
62
5
10
138.900000
20
130.500000
11
138.900000
21
143.500000
0
ARC
5
55a
100
AcDbEntity
8
1
100
AcDbCircle
6
CONTINUOUS
62
5
10
137.900000
20
143.500000
40
1.000000
100
AcDbArc
50
0.000000
51
89.999999
0
LINE
5
55b
100
AcDbEntity
8
1
100
AcDbLine
6
CONTINUOUS
62
5
10
137.900000
20
144.500000
11
132.312880
21
144.500000
0
POLYLINE
5
55c
100
AcDbEntity
8
1
6
DOT2
62
5
100
AcDb2dPolyline
66
1
10
0.0
20
0.0
30
0.0
70
0
0
VERTEX
5
55d
100
AcDbEntity
8
1
100
AcDbVertex
100
AcDb2dVertex
62
5
10
73.275000
20
159.375000
0
VERTEX
5
55e
100
AcDbEntity
8
1
100
AcDbVertex
100
AcDb2dVertex
62
5
10
72.650000
20
160.312500
0
VERTEX
5
55f
100
AcDbEntity
8
1
100
AcDbVertex
100
AcDb2dVertex
62
5
10
80.150000
20
160.312500
0
SEQEND
5
560
100
AcDbEntity
8
1
0
LINE
5
561
100
AcDbEntity
8
1
100
AcDbLine
6
DOT2
62
5
10
80.150000
20
159.687500
11
80.150000
21
160.937500
0
POLYLINE
5
562
100
AcDbEntity
8
1
6
DOT2
62
5
100
AcDb2dPolyline
66
1
10
0.0
20
0.0
30
0.0
70
0
0
VERTEX
5
563
100
AcDbEntity
8
1
100
AcDbVertex
100
AcDb2dVertex
62
5
10
74.837500
20
163.750000
0
VERTEX
5
564
100
AcDbEntity
8
1
100
AcDbVertex
100
AcDb2dVertex
62
5
10
73.275000
20
164.062500
0
VERTEX
5
565
100
AcDbEntity
8
1
100
AcDbVertex
100
AcDb2dVertex
62
5
10
72.650000
20
165.000000
0
VERTEX
5
566
100
AcDbEntity
8
1
100
AcDbVertex
100
AcDb2dVertex
62
5
10
72.650000
20
165.937500
0
VERTEX
5
567
100
AcDbEntity
8
1
100
AcDbVertex
100
AcDb2dVertex
62
5
10
72.962500
20
166.562500
0
VERTEX
5
568
100
AcDbEntity
8
1
100
AcDbVertex
100
AcDb2dVertex
62
5
10
73.900000
20
166.875000
0
VERTEX
5
569
100
AcDbEntity
8
1
100
AcDbVertex
100
AcDb2dVertex
62
5
10
74.837500
20
166.875000
0
VERTEX
5
56a
100
AcDbEntity
8
1
100
AcDbVertex
100
AcDb2dVertex
62
5
10
75.775000
20
166.562500
0
VERTEX
5
56b
100
AcDbEntity
8
1
100
AcDbVertex
100
AcDb2dVertex
62
5
10
80.150000
20
163.750000
0
VERTEX
5
56c
100
AcDbEntity
8
1
100
AcDbVertex
100
AcDb2dVertex
62
5
10
80.150000
20
166.875000
0
VERTEX
5
56d
100
AcDbEntity
8
1
100
AcDbVertex
100
AcDb2dVertex
62
5
10
79.212500
20
166.875000
0
SEQEND
5
56e
100
AcDbEntity
8
1
0
POLYLINE
5
56f
100
AcDbEntity
8
1
6
DOT2
62
5
100
AcDb2dPolyline
66
1
10
0.0
20
0.0
30
0.0
70
0
0
VERTEX
5
570
100
AcDbEntity
8
1
100
AcDbVertex
100
AcDb2dVertex
62
5
10
73.275000
20
154.375000
0
VERTEX
5
571
100
AcDbEntity
8
1
100
AcDbVertex
100
AcDb2dVertex
62
5
10
72.650000
20
155.312500
0
VERTEX
5
572
100
AcDbEntity
8
1
100
AcDbVertex
100
AcDb2dVertex
62
5
10
80.150000
20
155.312500
0
SEQEND
5
573
100
AcDbEntity
8
1
0
LINE
5
574
100
AcDbEntity
8
1
100
AcDbLine
6
DOT2
62
5
10
80.150000
20
154.687500
11
80.150000
21
155.937500
0
LINE
5
575
100
AcDbEntity
8
1
100
AcDbLine
6
CONTINUOUS
62
5
10
127.500000
20
42.000000
11
130.625000
21
42.000000
0
POLYLINE
5
576
100
AcDbEntity
8
1
6
CONTINUOUS
62
5
100
AcDb2dPolyline
66
1
10
0.0
20
0.0
30
0.0
70
0
0
VERTEX
5
577
100
AcDbEntity
8
1
100
AcDbVertex
100
AcDb2dVertex
62
5
10
113.125000
20
45.125000
0
VERTEX
5
578
100
AcDbEntity
8
1
100
AcDbVertex
100
AcDb2dVertex
62
5
10
114.062500
20
45.750000
0
VERTEX
5
579
100
AcDbEntity
8
1
100
AcDbVertex
100
AcDb2dVertex
62
5
10
114.062500
20
38.250000
0
SEQEND
5
57a
100
AcDbEntity
8
1
0
LINE
5
57b
100
AcDbEntity
8
1
100
AcDbLine
6
CONTINUOUS
62
5
10
113.437500
20
38.250000
11
114.687500
21
38.250000
0
LINE
5
57c
100
AcDbEntity
8
1
100
AcDbLine
6
CONTINUOUS
62
5
10
117.500000
20
45.750000
11
120.312500
21
45.750000
0
POLYLINE
5
57d
100
AcDbEntity
8
1
6
CONTINUOUS
62
5
100
AcDb2dPolyline
66
1
10
0.0
20
0.0
30
0.0
70
0
0
VERTEX
5
57e
100
AcDbEntity
8
1
100
AcDbVertex
100
AcDb2dVertex
62
5
10
117.500000
20
45.750000
0
VERTEX
5
57f
100
AcDbEntity
8
1
100
AcDbVertex
100
AcDb2dVertex
62
5
10
117.500000
20
42.000000
0
VERTEX
5
580
100
AcDbEntity
8
1
100
AcDbVertex
100
AcDb2dVertex
62
5
10
118.125000
20
42.625000
0
VERTEX
5
581
100
AcDbEntity
8
1
100
AcDbVertex
100
AcDb2dVertex
62
5
10
118.750000
20
42.937500
0
VERTEX
5
582
100
AcDbEntity
8
1
100
AcDbVertex
100
AcDb2dVertex
62
5
10
119.687500
20
42.937500
0
VERTEX
5
583
100
AcDbEntity
8
1
100
AcDbVertex
100
AcDb2dVertex
62
5
10
120.312500
20
42.625000
0
VERTEX
5
584
100
AcDbEntity
8
1
100
AcDbVertex
100
AcDb2dVertex
62
5
10
120.625000
20
41.687500
0
VERTEX
5
585
100
AcDbEntity
8
1
100
AcDbVertex
100
AcDb2dVertex
62
5
10
120.625000
20
39.812500
0
VERTEX
5
586
100
AcDbEntity
8
1
100
AcDbVertex
100
AcDb2dVertex
62
5
10
120.000000
20
38.875000
0
VERTEX
5
587
100
AcDbEntity
8
1
100
AcDbVertex
100
AcDb2dVertex
62
5
10
119.062500
20
38.250000
0
VERTEX
5
588
100
AcDbEntity
8
1
100
AcDbVertex
100
AcDb2dVertex
62
5
10
117.500000
20
38.250000
0
SEQEND
5
589
100
AcDbEntity
8
1
0
POLYLINE
5
58a
100
AcDbEntity
8
1
6
CONTINUOUS
62
5
100
AcDb2dPolyline
66
1
10
0.0
20
0.0
30
0.0
70
0
0
VERTEX
5
58b
100
AcDbEntity
8
1
100
AcDbVertex
100
AcDb2dVertex
62
5
10
122.500000
20
38.250000
0
VERTEX
5
58c
100
AcDbEntity
8
1
100
AcDbVertex
100
AcDb2dVertex
62
5
10
124.062500
20
45.750000
0
VERTEX
5
58d
100
AcDbEntity
8
1
100
AcDbVertex
100
AcDb2dVertex
62
5
10
125.625000
20
38.250000
0
SEQEND
5
58e
100
AcDbEntity
8
1
0
LINE
5
58f
100
AcDbEntity
8
1
100
AcDbLine
6
CONTINUOUS
62
5
10
123.125000
20
40.750000
11
125.000000
21
40.750000
0
POLYLINE
5
590
100
AcDbEntity
8
1
6
CONTINUOUS
62
5
100
AcDb2dPolyline
66
1
10
0.0
20
0.0
30
0.0
70
0
0
VERTEX
5
591
100
AcDbEntity
8
1
100
AcDbVertex
100
AcDb2dVertex
62
5
10
133.125000
20
45.125000
0
VERTEX
5
592
100
AcDbEntity
8
1
100
AcDbVertex
100
AcDb2dVertex
62
5
10
134.062500
20
45.750000
0
VERTEX
5
593
100
AcDbEntity
8
1
100
AcDbVertex
100
AcDb2dVertex
62
5
10
134.062500
20
38.250000
0
SEQEND
5
594
100
AcDbEntity
8
1
0
LINE
5
595
100
AcDbEntity
8
1
100
AcDbLine
6
CONTINUOUS
62
5
10
133.437500
20
38.250000
11
134.687500
21
38.250000
0
POLYLINE
5
596
100
AcDbEntity
8
1
6
CONTINUOUS
62
5
100
AcDb2dPolyline
66
1
10
0.0
20
0.0
30
0.0
70
0
0
VERTEX
5
597
100
AcDbEntity
8
1
100
AcDbVertex
100
AcDb2dVertex
62
5
10
137.500000
20
43.562500
0
VERTEX
5
598
100
AcDbEntity
8
1
100
AcDbVertex
100
AcDb2dVertex
62
5
10
137.812500
20
45.125000
0
VERTEX
5
599
100
AcDbEntity
8
1
100
AcDbVertex
100
AcDb2dVertex
62
5
10
138.750000
20
45.750000
0
VERTEX
5
59a
100
AcDbEntity
8
1
100
AcDbVertex
100
AcDb2dVertex
62
5
10
139.687500
20
45.750000
0
VERTEX
5
59b
100
AcDbEntity
8
1
100
AcDbVertex
100
AcDb2dVertex
62
5
10
140.312500
20
45.437500
0
VERTEX
5
59c
100
AcDbEntity
8
1
100
AcDbVertex
100
AcDb2dVertex
62
5
10
140.625000
20
44.500000
0
VERTEX
5
59d
100
AcDbEntity
8
1
100
AcDbVertex
100
AcDb2dVertex
62
5
10
140.625000
20
43.562500
0
VERTEX
5
59e
100
AcDbEntity
8
1
100
AcDbVertex
100
AcDb2dVertex
62
5
10
140.312500
20
42.625000
0
VERTEX
5
59f
100
AcDbEntity
8
1
100
AcDbVertex
100
AcDb2dVertex
62
5
10
137.500000
20
38.250000
0
VERTEX
5
5a0
100
AcDbEntity
8
1
100
AcDbVertex
100
AcDb2dVertex
62
5
10
140.625000
20
38.250000
0
VERTEX
5
5a1
100
AcDbEntity
8
1
100
AcDbVertex
100
AcDb2dVertex
62
5
10
140.625000
20
39.187500
0
SEQEND
5
5a2
100
AcDbEntity
8
1
0
LINE
5
5a3
100
AcDbEntity
8
1
100
AcDbLine
6
CONTINUOUS
62
5
10
142.500000
20
45.750000
11
145.312500
21
45.750000
0
POLYLINE
5
5a4
100
AcDbEntity
8
1
6
CONTINUOUS
62
5
100
AcDb2dPolyline
66
1
10
0.0
20
0.0
30
0.0
70
0
0
VERTEX
5
5a5
100
AcDbEntity
8
1
100
AcDbVertex
100
AcDb2dVertex
62
5
10
142.500000
20
45.750000
0
VERTEX
5
5a6
100
AcDbEntity
8
1
100
AcDbVertex
100
AcDb2dVertex
62
5
10
142.500000
20
42.000000
0
VERTEX
5
5a7
100
AcDbEntity
8
1
100
AcDbVertex
100
AcDb2dVertex
62
5
10
143.125000
20
42.625000
0
VERTEX
5
5a8
100
AcDbEntity
8
1
100
AcDbVertex
100
AcDb2dVertex
62
5
10
143.750000
20
42.937500
0
VERTEX
5
5a9
100
AcDbEntity
8
1
100
AcDbVertex
100
AcDb2dVertex
62
5
10
144.687500
20
42.937500
0
VERTEX
5
5aa
100
AcDbEntity
8
1
100
AcDbVertex
100
AcDb2dVertex
62
5
10
145.312500
20
42.625000
0
VERTEX
5
5ab
100
AcDbEntity
8
1
100
AcDbVertex
100
AcDb2dVertex
62
5
10
145.625000
20
41.687500
0
VERTEX
5
5ac
100
AcDbEntity
8
1
100
AcDbVertex
100
AcDb2dVertex
62
5
10
145.625000
20
39.812500
0
VERTEX
5
5ad
100
AcDbEntity
8
1
100
AcDbVertex
100
AcDb2dVertex
62
5
10
145.000000
20
38.875000
0
VERTEX
5
5ae
100
AcDbEntity
8
1
100
AcDbVertex
100
AcDb2dVertex
62
5
10
144.062500
20
38.250000
0
VERTEX
5
5af
100
AcDbEntity
8
1
100
AcDbVertex
100
AcDb2dVertex
62
5
10
142.500000
20
38.250000
0
SEQEND
5
5b0
100
AcDbEntity
8
1
0
POLYLINE
5
5b1
100
AcDbEntity
8
1
6
CONTINUOUS
62
5
100
AcDb2dPolyline
66
1
10
0.0
20
0.0
30
0.0
70
0
0
VERTEX
5
5b2
100
AcDbEntity
8
1
100
AcDbVertex
100
AcDb2dVertex
62
5
10
147.500000
20
45.750000
0
VERTEX
5
5b3
100
AcDbEntity
8
1
100
AcDbVertex
100
AcDb2dVertex
62
5
10
149.062500
20
38.250000
0
VERTEX
5
5b4
100
AcDbEntity
8
1
100
AcDbVertex
100
AcDb2dVertex
62
5
10
150.625000
20
45.750000
0
SEQEND
5
5b5
100
AcDbEntity
8
1
0
POLYLINE
5
5b6
100
AcDbEntity
8
1
6
CONTINUOUS
62
5
100
AcDb2dPolyline
66
1
10
0.0
20
0.0
30
0.0
70
0
0
VERTEX
5
5b7
100
AcDbEntity
8
1
100
AcDbVertex
100
AcDb2dVertex
62
5
10
157.500000
20
38.250000
0
VERTEX
5
5b8
100
AcDbEntity
8
1
100
AcDbVertex
100
AcDb2dVertex
62
5
10
159.062500
20
45.750000
0
VERTEX
5
5b9
100
AcDbEntity
8
1
100
AcDbVertex
100
AcDb2dVertex
62
5
10
160.625000
20
38.250000
0
SEQEND
5
5ba
100
AcDbEntity
8
1
0
LINE
5
5bb
100
AcDbEntity
8
1
100
AcDbLine
6
CONTINUOUS
62
5
10
158.125000
20
40.750000
11
160.000000
21
40.750000
0
POLYLINE
5
5bc
100
AcDbEntity
8
1
6
CONTINUOUS
62
5
100
AcDb2dPolyline
66
1
10
0.0
20
0.0
30
0.0
70
0
0
VERTEX
5
5bd
100
AcDbEntity
8
1
100
AcDbVertex
100
AcDb2dVertex
62
5
10
165.625000
20
44.187500
0
VERTEX
5
5be
100
AcDbEntity
8
1
100
AcDbVertex
100
AcDb2dVertex
62
5
10
165.312500
20
45.125000
0
VERTEX
5
5bf
100
AcDbEntity
8
1
100
AcDbVertex
100
AcDb2dVertex
62
5
10
164.687500
20
45.750000
0
VERTEX
5
5c0
100
AcDbEntity
8
1
100
AcDbVertex
100
AcDb2dVertex
62
5
10
163.750000
20
45.750000
0
VERTEX
5
5c1
100
AcDbEntity
8
1
100
AcDbVertex
100
AcDb2dVertex
62
5
10
162.812500
20
44.812500
0
VERTEX
5
5c2
100
AcDbEntity
8
1
100
AcDbVertex
100
AcDb2dVertex
62
5
10
162.500000
20
43.250000
0
VERTEX
5
5c3
100
AcDbEntity
8
1
100
AcDbVertex
100
AcDb2dVertex
62
5
10
162.500000
20
40.750000
0
VERTEX
5
5c4
100
AcDbEntity
8
1
100
AcDbVertex
100
AcDb2dVertex
62
5
10
162.812500
20
39.187500
0
VERTEX
5
5c5
100
AcDbEntity
8
1
100
AcDbVertex
100
AcDb2dVertex
62
5
10
163.750000
20
38.250000
0
VERTEX
5
5c6
100
AcDbEntity
8
1
100
AcDbVertex
100
AcDb2dVertex
62
5
10
164.687500
20
38.250000
0
VERTEX
5
5c7
100
AcDbEntity
8
1
100
AcDbVertex
100
AcDb2dVertex
62
5
10
165.312500
20
38.875000
0
VERTEX
5
5c8
100
AcDbEntity
8
1
100
AcDbVertex
100
AcDb2dVertex
62
5
10
165.937500
20
40.437500
0
SEQEND
5
5c9
100
AcDbEntity
8
1
0
LINE
5
5ca
100
AcDbEntity
8
1
100
AcDbLine
6
CONTINUOUS
62
5
10
100.000000
20
54.000000
11
100.000000
21
30.000000
0
LINE
5
5cb
100
AcDbEntity
8
1
100
AcDbLine
6
CONTINUOUS
62
5
10
64.687500
20
46.375000
11
64.687500
21
45.437500
0
POLYLINE
5
5cc
100
AcDbEntity
8
1
6
CONTINUOUS
62
5
100
AcDb2dPolyline
66
1
10
0.0
20
0.0
30
0.0
70
0
0
VERTEX
5
5cd
100
AcDbEntity
8
1
100
AcDbVertex
100
AcDb2dVertex
62
5
10
60.937500
20
43.250000
0
VERTEX
5
5ce
100
AcDbEntity
8
1
100
AcDbVertex
100
AcDb2dVertex
62
5
10
60.937500
20
45.437500
0
VERTEX
5
5cf
100
AcDbEntity
8
1
100
AcDbVertex
100
AcDb2dVertex
62
5
10
68.437500
20
45.437500
0
VERTEX
5
5d0
100
AcDbEntity
8
1
100
AcDbVertex
100
AcDb2dVertex
62
5
10
68.437500
20
43.250000
0
SEQEND
5
5d1
100
AcDbEntity
8
1
0
LINE
5
5d2
100
AcDbEntity
8
1
100
AcDbLine
6
CONTINUOUS
62
5
10
61.875000
20
43.562500
11
67.500000
21
43.562500
0
LINE
5
5d3
100
AcDbEntity
8
1
100
AcDbLine
6
CONTINUOUS
62
5
10
64.687500
20
43.562500
11
64.687500
21
38.250000
0
LINE
5
5d4
100
AcDbEntity
8
1
100
AcDbLine
6
CONTINUOUS
62
5
10
64.687500
20
41.062500
11
67.500000
21
41.062500
0
POLYLINE
5
5d5
100
AcDbEntity
8
1
6
CONTINUOUS
62
5
100
AcDb2dPolyline
66
1
10
0.0
20
0.0
30
0.0
70
0
0
VERTEX
5
5d6
100
AcDbEntity
8
1
100
AcDbVertex
100
AcDb2dVertex
62
5
10
62.500000
20
41.687500
0
VERTEX
5
5d7
100
AcDbEntity
8
1
100
AcDbVertex
100
AcDb2dVertex
62
5
10
62.187500
20
39.812500
0
VERTEX
5
5d8
100
AcDbEntity
8
1
100
AcDbVertex
100
AcDb2dVertex
62
5
10
61.562500
20
38.562500
0
VERTEX
5
5d9
100
AcDbEntity
8
1
100
AcDbVertex
100
AcDb2dVertex
62
5
10
60.625000
20
37.625000
0
SEQEND
5
5da
100
AcDbEntity
8
1
0
POLYLINE
5
5db
100
AcDbEntity
8
1
6
CONTINUOUS
62
5
100
AcDb2dPolyline
66
1
10
0.0
20
0.0
30
0.0
70
0
0
VERTEX
5
5dc
100
AcDbEntity
8
1
100
AcDbVertex
100
AcDb2dVertex
62
5
10
62.187500
20
39.812500
0
VERTEX
5
5dd
100
AcDbEntity
8
1
100
AcDbVertex
100
AcDb2dVertex
62
5
10
64.687500
20
38.250000
0
VERTEX
5
5de
100
AcDbEntity
8
1
100
AcDbVertex
100
AcDb2dVertex
62
5
10
65.937500
20
37.937500
0
VERTEX
5
5df
100
AcDbEntity
8
1
100
AcDbVertex
100
AcDb2dVertex
62
5
10
69.062500
20
37.625000
0
SEQEND
5
5e0
100
AcDbEntity
8
1
0
LINE
5
5e1
100
AcDbEntity
8
1
100
AcDbLine
6
CONTINUOUS
62
5
10
80.625000
20
44.187500
11
83.750000
21
44.187500
0
LINE
5
5e2
100
AcDbEntity
8
1
100
AcDbLine
6
CONTINUOUS
62
5
10
82.500000
20
46.375000
11
82.500000
21
37.625000
0
POLYLINE
5
5e3
100
AcDbEntity
8
1
6
CONTINUOUS
62
5
100
AcDb2dPolyline
66
1
10
0.0
20
0.0
30
0.0
70
0
0
VERTEX
5
5e4
100
AcDbEntity
8
1
100
AcDbVertex
100
AcDb2dVertex
62
5
10
82.500000
20
44.187500
0
VERTEX
5
5e5
100
AcDbEntity
8
1
100
AcDbVertex
100
AcDb2dVertex
62
5
10
81.562500
20
42.000000
0
VERTEX
5
5e6
100
AcDbEntity
8
1
100
AcDbVertex
100
AcDb2dVertex
62
5
10
80.625000
20
40.750000
0
SEQEND
5
5e7
100
AcDbEntity
8
1
0
LINE
5
5e8
100
AcDbEntity
8
1
100
AcDbLine
6
CONTINUOUS
62
5
10
82.500000
20
43.250000
11
83.437500
21
42.000000
0
POLYLINE
5
5e9
100
AcDbEntity
8
1
6
CONTINUOUS
62
5
100
AcDb2dPolyline
66
1
10
0.0
20
0.0
30
0.0
70
0
0
VERTEX
5
5ea
100
AcDbEntity
8
1
100
AcDbVertex
100
AcDb2dVertex
62
5
10
85.937500
20
46.375000
0
VERTEX
5
5eb
100
AcDbEntity
8
1
100
AcDbVertex
100
AcDb2dVertex
62
5
10
85.312500
20
45.125000
0
VERTEX
5
5ec
100
AcDbEntity
8
1
100
AcDbVertex
100
AcDb2dVertex
62
5
10
83.750000
20
43.250000
0
SEQEND
5
5ed
100
AcDbEntity
8
1
0
POLYLINE
5
5ee
100
AcDbEntity
8
1
6
CONTINUOUS
62
5
100
AcDb2dPolyline
66
1
10
0.0
20
0.0
30
0.0
70
0
0
VERTEX
5
5ef
100
AcDbEntity
8
1
100
AcDbVertex
100
AcDb2dVertex
62
5
10
85.312500
20
45.125000
0
VERTEX
5
5f0
100
AcDbEntity
8
1
100
AcDbVertex
100
AcDb2dVertex
62
5
10
88.437500
20
45.125000
0
VERTEX
5
5f1
100
AcDbEntity
8
1
100
AcDbVertex
100
AcDb2dVertex
62
5
10
87.500000
20
43.562500
0
VERTEX
5
5f2
100
AcDbEntity
8
1
100
AcDbVertex
100
AcDb2dVertex
62
5
10
85.937500
20
42.000000
0
VERTEX
5
5f3
100
AcDbEntity
8
1
100
AcDbVertex
100
AcDb2dVertex
62
5
10
83.750000
20
40.750000
0
SEQEND
5
5f4
100
AcDbEntity
8
1
0
POLYLINE
5
5f5
100
AcDbEntity
8
1
6
CONTINUOUS
62
5
100
AcDb2dPolyline
66
1
10
0.0
20
0.0
30
0.0
70
0
0
VERTEX
5
5f6
100
AcDbEntity
8
1
100
AcDbVertex
100
AcDb2dVertex
62
5
10
85.312500
20
45.125000
0
VERTEX
5
5f7
100
AcDbEntity
8
1
100
AcDbVertex
100
AcDb2dVertex
62
5
10
85.937500
20
43.562500
0
VERTEX
5
5f8
100
AcDbEntity
8
1
100
AcDbVertex
100
AcDb2dVertex
62
5
10
87.187500
20
42.000000
0
VERTEX
5
5f9
100
AcDbEntity
8
1
100
AcDbVertex
100
AcDb2dVertex
62
5
10
88.125000
20
41.375000
0
VERTEX
5
5fa
100
AcDbEntity
8
1
100
AcDbVertex
100
AcDb2dVertex
62
5
10
89.375000
20
40.750000
0
SEQEND
5
5fb
100
AcDbEntity
8
1
0
POLYLINE
5
5fc
100
AcDbEntity
8
1
6
CONTINUOUS
62
5
100
AcDb2dPolyline
66
1
10
0.0
20
0.0
30
0.0
70
1
0
VERTEX
5
5fd
100
AcDbEntity
8
1
100
AcDbVertex
100
AcDb2dVertex
62
5
10
85.000000
20
40.750000
0
VERTEX
5
5fe
100
AcDbEntity
8
1
100
AcDbVertex
100
AcDb2dVertex
62
5
10
85.000000
20
37.937500
0
VERTEX
5
5ff
100
AcDbEntity
8
1
100
AcDbVertex
100
AcDb2dVertex
62
5
10
88.437500
20
37.937500
0
VERTEX
5
600
100
AcDbEntity
8
1
100
AcDbVertex
100
AcDb2dVertex
62
5
10
88.437500
20
40.750000
0
VERTEX
5
601
100
AcDbEntity
8
1
100
AcDbVertex
100
AcDb2dVertex
62
5
10
85.000000
20
40.750000
0
SEQEND
5
602
100
AcDbEntity
8
1
0
POLYLINE
5
603
100
AcDbEntity
8
1
6
CONTINUOUS
62
5
100
AcDb2dPolyline
66
1
10
0.0
20
0.0
30
0.0
70
1
0
VERTEX
5
604
100
AcDbEntity
8
1
100
AcDbVertex
100
AcDb2dVertex
62
5
10
290.000000
20
30.000000
0
VERTEX
5
605
100
AcDbEntity
8
1
100
AcDbVertex
100
AcDb2dVertex
62
5
10
290.000000
20
54.000000
0
VERTEX
5
606
100
AcDbEntity
8
1
100
AcDbVertex
100
AcDb2dVertex
62
5
10
50.000000
20
54.000000
0
VERTEX
5
607
100
AcDbEntity
8
1
100
AcDbVertex
100
AcDb2dVertex
62
5
10
50.000000
20
30.000000
0
VERTEX
5
608
100
AcDbEntity
8
1
100
AcDbVertex
100
AcDb2dVertex
62
5
10
290.000000
20
30.000000
0
SEQEND
5
609
100
AcDbEntity
8
1
0
LINE
5
60a
100
AcDbEntity
8
1
100
AcDbLine
6
CONTINUOUS
62
5
10
107.200000
20
216.000000
11
79.400000
21
216.000000
0
LINE
5
60b
100
AcDbEntity
8
1
100
AcDbLine
6
CONTINUOUS
62
5
10
107.200000
20
104.000000
11
79.400000
21
104.000000
0
POLYLINE
5
60c
100
AcDbEntity
8
1
6
CONTINUOUS
62
5
100
AcDb2dPolyline
66
1
10
0.0
20
0.0
30
0.0
70
0
0
VERTEX
5
60d
100
AcDbEntity
8
1
100
AcDbVertex
100
AcDb2dVertex
62
5
10
81.400000
20
160.000000
0
VERTEX
5
60e
100
AcDbEntity
8
1
100
AcDbVertex
100
AcDb2dVertex
62
5
10
81.400000
20
104.000000
0
VERTEX
5
60f
100
AcDbEntity
8
1
100
AcDbVertex
100
AcDb2dVertex
62
5
10
80.400000
20
110.000000
0
VERTEX
5
610
100
AcDbEntity
8
1
100
AcDbVertex
100
AcDb2dVertex
62
5
10
82.400000
20
110.000000
0
VERTEX
5
611
100
AcDbEntity
8
1
100
AcDbVertex
100
AcDb2dVertex
62
5
10
81.400000
20
104.000000
0
VERTEX
5
612
100
AcDbEntity
8
1
100
AcDbVertex
100
AcDb2dVertex
62
5
10
80.900000
20
110.000000
0
VERTEX
5
613
100
AcDbEntity
8
1
100
AcDbVertex
100
AcDb2dVertex
62
5
10
81.900000
20
110.000000
0
VERTEX
5
614
100
AcDbEntity
8
1
100
AcDbVertex
100
AcDb2dVertex
62
5
10
81.400000
20
104.000000
0
SEQEND
5
615
100
AcDbEntity
8
1
0
POLYLINE
5
616
100
AcDbEntity
8
1
6
CONTINUOUS
62
5
100
AcDb2dPolyline
66
1
10
0.0
20
0.0
30
0.0
70
0
0
VERTEX
5
617
100
AcDbEntity
8
1
100
AcDbVertex
100
AcDb2dVertex
62
5
10
81.400000
20
160.000000
0
VERTEX
5
618
100
AcDbEntity
8
1
100
AcDbVertex
100
AcDb2dVertex
62
5
10
81.400000
20
216.000000
0
VERTEX
5
619
100
AcDbEntity
8
1
100
AcDbVertex
100
AcDb2dVertex
62
5
10
82.400000
20
210.000000
0
VERTEX
5
61a
100
AcDbEntity
8
1
100
AcDbVertex
100
AcDb2dVertex
62
5
10
80.400000
20
210.000000
0
VERTEX
5
61b
100
AcDbEntity
8
1
100
AcDbVertex
100
AcDb2dVertex
62
5
10
81.400000
20
216.000000
0
VERTEX
5
61c
100
AcDbEntity
8
1
100
AcDbVertex
100
AcDb2dVertex
62
5
10
81.900000
20
210.000000
0
VERTEX
5
61d
100
AcDbEntity
8
1
100
AcDbVertex
100
AcDb2dVertex
62
5
10
80.900000
20
210.000000
0
VERTEX
5
61e
100
AcDbEntity
8
1
100
AcDbVertex
100
AcDb2dVertex
62
5
10
81.400000
20
216.000000
0
SEQEND
5
61f
100
AcDbEntity
8
1
0
ARC
5
620
100
AcDbEntity
8
1
100
AcDbCircle
6
CONTINUOUS
62
5
10
233.300000
20
179.973220
40
0.300000
100
AcDbArc
50
0.000000
51
85.389350
0
LINE
5
621
100
AcDbEntity
8
1
100
AcDbLine
6
CONTINUOUS
62
5
10
233.600000
20
179.973220
11
233.600000
21
177.188699
0
LINE
5
622
100
AcDbEntity
8
1
100
AcDbLine
6
CONTINUOUS
62
5
10
230.500000
20
180.500000
11
233.324115
21
180.272249
0
ARC
5
623
100
AcDbEntity
8
1
100
AcDbCircle
6
CONTINUOUS
62
5
10
221.900000
20
178.000000
40
1.500000
100
AcDbArc
50
-89.999999
51
0.000000
0
LINE
5
624
100
AcDbEntity
8
1
100
AcDbLine
6
CONTINUOUS
62
5
10
223.400000
20
178.000000
11
223.400000
21
186.500000
0
ARC
5
625
100
AcDbEntity
8
1
100
AcDbCircle
6
CONTINUOUS
62
5
10
221.900000
20
186.500000
40
1.500000
100
AcDbArc
50
0.000000
51
89.999999
0
LINE
5
626
100
AcDbEntity
8
1
100
AcDbLine
6
CONTINUOUS
62
5
10
221.900000
20
188.000000
11
220.400000
21
188.000000
0
LINE
5
627
100
AcDbEntity
8
1
100
AcDbLine
6
CONTINUOUS
62
5
10
220.400000
20
176.500000
11
221.900000
21
176.500000
0
ARC
5
628
100
AcDbEntity
8
1
100
AcDbCircle
6
CONTINUOUS
62
5
10
227.900000
20
180.047506
40
0.500000
100
AcDbArc
50
0.000000
51
84.289406
0
LINE
5
629
100
AcDbEntity
8
1
100
AcDbLine
6
CONTINUOUS
62
5
10
228.400000
20
180.047506
11
228.400000
21
178.952494
0
ARC
5
62a
100
AcDbEntity
8
1
100
AcDbCircle
6
CONTINUOUS
62
5
10
227.900000
20
178.952494
40
0.500000
100
AcDbArc
50
-84.289406
51
0.000000
0
LINE
5
62b
100
AcDbEntity
8
1
100
AcDbLine
6
CONTINUOUS
62
5
10
227.949752
20
178.454975
11
223.400000
21
178.000000
0
LINE
5
62c
100
AcDbEntity
8
1
100
AcDbLine
6
CONTINUOUS
62
5
10
223.400000
20
181.000000
11
227.949752
21
180.545025
0
ARC
5
62d
100
AcDbEntity
8
1
100
AcDbCircle
6
CONTINUOUS
62
5
10
224.658743
20
126.500000
40
0.500000
100
AcDbArc
50
-89.999999
51
-58.448615
0
LINE
5
62e
100
AcDbEntity
8
1
100
AcDbLine
6
CONTINUOUS
62
5
10
224.920375
20
126.073914
11
229.784894
21
129.060900
0
ARC
5
62f
100
AcDbEntity
8
1
100
AcDbCircle
6
CONTINUOUS
62
5
10
229.000000
20
130.339157
40
1.500000
100
AcDbArc
50
-58.448615
51
0.000000
0
LINE
5
630
100
AcDbEntity
8
1
100
AcDbLine
6
CONTINUOUS
62
5
10
230.500000
20
130.339157
11
230.500000
21
189.660843
0
ARC
5
631
100
AcDbEntity
8
1
100
AcDbCircle
6
CONTINUOUS
62
5
10
229.000000
20
189.660843
40
1.500000
100
AcDbArc
50
-0.000000
51
58.448615
0
LINE
5
632
100
AcDbEntity
8
1
100
AcDbLine
6
CONTINUOUS
62
5
10
229.784894
20
190.939100
11
224.920375
21
193.926086
0
ARC
5
633
100
AcDbEntity
8
1
100
AcDbCircle
6
CONTINUOUS
62
5
10
224.658743
20
193.500000
40
0.500000
100
AcDbArc
50
58.448615
51
89.999999
0
LINE
5
634
100
AcDbEntity
8
1
100
AcDbLine
6
CONTINUOUS
62
5
10
224.658743
20
194.000000
11
220.400000
21
194.000000
0
LINE
5
635
100
AcDbEntity
8
1
100
AcDbLine
6
CONTINUOUS
62
5
10
220.400000
20
126.000000
11
224.658743
21
126.000000
0
ARC
5
636
100
AcDbEntity
8
1
100
AcDbCircle
6
CONTINUOUS
62
5
10
209.300000
20
193.750000
40
0.600000
100
AcDbArc
50
89.999999
51
179.999998
0
LINE
5
637
100
AcDbEntity
8
1
100
AcDbLine
6
CONTINUOUS
62
5
10
208.700000
20
193.750000
11
208.700000
21
126.250000
0
ARC
5
638
100
AcDbEntity
8
1
100
AcDbCircle
6
CONTINUOUS
62
5
10
209.300000
20
126.250000
40
0.600000
100
AcDbArc
50
179.999998
51
-89.999999
0
LINE
5
639
100
AcDbEntity
8
1
100
AcDbLine
6
CONTINUOUS
62
5
10
209.300000
20
125.650000
11
212.800000
21
125.650000
0
POLYLINE
5
63a
100
AcDbEntity
8
1
6
CONTINUOUS
62
5
100
AcDb2dPolyline
66
1
10
0.0
20
0.0
30
0.0
70
0
0
VERTEX
5
63b
100
AcDbEntity
8
1
100
AcDbVertex
100
AcDb2dVertex
62
5
10
216.655555
20
125.650000
0
VERTEX
5
63c
100
AcDbEntity
8
1
100
AcDbVertex
100
AcDb2dVertex
62
5
10
220.400000
20
125.650000
0
VERTEX
5
63d
100
AcDbEntity
8
1
100
AcDbVertex
100
AcDb2dVertex
62
5
10
220.400000
20
194.350000
0
VERTEX
5
63e
100
AcDbEntity
8
1
100
AcDbVertex
100
AcDb2dVertex
62
5
10
216.655555
20
194.350000
0
SEQEND
5
63f
100
AcDbEntity
8
1
0
LINE
5
640
100
AcDbEntity
8
1
100
AcDbLine
6
CONTINUOUS
62
5
10
212.800000
20
194.350000
11
209.300000
21
194.350000
0
ARC
5
641
100
AcDbEntity
8
1
100
AcDbCircle
6
CONTINUOUS
62
5
10
214.800000
20
200.500000
40
2.000000
100
AcDbArc
50
89.999999
51
179.999998
0
LINE
5
642
100
AcDbEntity
8
1
100
AcDbLine
6
CONTINUOUS
62
5
10
212.800000
20
200.500000
11
212.800000
21
119.500000
0
ARC
5
643
100
AcDbEntity
8
1
100
AcDbCircle
6
CONTINUOUS
62
5
10
214.800000
20
119.500000
40
2.000000
100
AcDbArc
50
179.999998
51
-89.999999
0
POLYLINE
5
644
100
AcDbEntity
8
1
6
CONTINUOUS
62
5
100
AcDb2dPolyline
66
1
10
0.0
20
0.0
30
0.0
70
0
0
VERTEX
5
645
100
AcDbEntity
8
1
100
AcDbVertex
100
AcDb2dVertex
62
5
10
214.800000
20
117.500000
0
VERTEX
5
646
100
AcDbEntity
8
1
100
AcDbVertex
100
AcDb2dVertex
62
5
10
216.600000
20
117.500000
0
VERTEX
5
647
100
AcDbEntity
8
1
100
AcDbVertex
100
AcDb2dVertex
62
5
10
216.600000
20
125.400000
0
VERTEX
5
648
100
AcDbEntity
8
1
100
AcDbVertex
100
AcDb2dVertex
62
5
10
217.400000
20
129.000000
0
VERTEX
5
649
100
AcDbEntity
8
1
100
AcDbVertex
100
AcDb2dVertex
62
5
10
217.400000
20
191.000000
0
VERTEX
5
64a
100
AcDbEntity
8
1
100
AcDbVertex
100
AcDb2dVertex
62
5
10
217.400000
20
191.000000
0
VERTEX
5
64b
100
AcDbEntity
8
1
100
AcDbVertex
100
AcDb2dVertex
62
5
10
217.400000
20
191.000000
0
VERTEX
5
64c
100
AcDbEntity
8
1
100
AcDbVertex
100
AcDb2dVertex
62
5
10
216.600000
20
194.600000
0
VERTEX
5
64d
100
AcDbEntity
8
1
100
AcDbVertex
100
AcDb2dVertex
62
5
10
216.600000
20
202.500000
0
VERTEX
5
64e
100
AcDbEntity
8
1
100
AcDbVertex
100
AcDb2dVertex
62
5
10
214.800000
20
202.500000
0
SEQEND
5
64f
100
AcDbEntity
8
1
0
ARC
5
650
100
AcDbEntity
8
1
100
AcDbCircle
6
CONTINUOUS
62
5
10
146.900000
20
179.000000
40
2.500000
100
AcDbArc
50
-55.944202
51
-0.854447
0
LINE
5
651
100
AcDbEntity
8
1
100
AcDbLine
6
CONTINUOUS
62
5
10
149.399722
20
178.962719
11
149.398286
21
186.571693
0
ARC
5
652
100
AcDbEntity
8
1
100
AcDbCircle
6
CONTINUOUS
62
5
10
147.900000
20
186.500000
40
1.500000
100
AcDbArc
50
2.739518
51
74.533989
0
LINE
5
653
100
AcDbEntity
8
1
100
AcDbLine
6
CONTINUOUS
62
5
10
134.940543
20
179.621577
11
135.350000
21
179.621577
0
POLYLINE
5
654
100
AcDbEntity
8
1
6
CONTINUOUS
62
5
100
AcDb2dPolyline
66
1
10
0.0
20
0.0
30
0.0
70
0
0
VERTEX
5
655
100
AcDbEntity
8
1
100
AcDbVertex
100
AcDb2dVertex
62
5
10
134.900000
20
180.500000
0
VERTEX
5
656
100
AcDbEntity
8
1
100
AcDbVertex
100
AcDb2dVertex
62
5
10
134.940543
20
179.621577
0
VERTEX
5
657
100
AcDbEntity
8
1
100
AcDbVertex
100
AcDb2dVertex
62
5
10
135.330573
20
179.500000
0
SEQEND
5
658
100
AcDbEntity
8
1
0
POLYLINE
5
659
100
AcDbEntity
8
1
6
CONTINUOUS
62
5
100
AcDb2dPolyline
66
1
10
0.0
20
0.0
30
0.0
70
0
0
VERTEX
5
65a
100
AcDbEntity
8
1
100
AcDbVertex
100
AcDb2dVertex
62
5
10
133.266024
20
180.531568
0
VERTEX
5
65b
100
AcDbEntity
8
1
100
AcDbVertex
100
AcDb2dVertex
62
5
10
133.224024
20
179.621577
0
VERTEX
5
65c
100
AcDbEntity
8
1
100
AcDbVertex
100
AcDb2dVertex
62
5
10
133.150000
20
179.598302
0
SEQEND
5
65d
100
AcDbEntity
8
1
0
LINE
5
65e
100
AcDbEntity
8
1
100
AcDbLine
6
CONTINUOUS
62
5
10
133.224024
20
179.621577
11
133.909458
21
179.621577
0
POLYLINE
5
65f
100
AcDbEntity
8
1
6
CONTINUOUS
62
5
100
AcDb2dPolyline
66
1
10
0.0
20
0.0
30
0.0
70
0
0
VERTEX
5
660
100
AcDbEntity
8
1
100
AcDbVertex
100
AcDb2dVertex
62
5
10
133.950000
20
180.500000
0
VERTEX
5
661
100
AcDbEntity
8
1
100
AcDbVertex
100
AcDb2dVertex
62
5
10
133.909458
20
179.621577
0
VERTEX
5
662
100
AcDbEntity
8
1
100
AcDbVertex
100
AcDb2dVertex
62
5
10
133.522799
20
179.500000
0
SEQEND
5
663
100
AcDbEntity
8
1
0
POLYLINE
5
664
100
AcDbEntity
8
1
6
CONTINUOUS
62
5
100
AcDb2dPolyline
66
1
10
0.0
20
0.0
30
0.0
70
0
0
VERTEX
5
665
100
AcDbEntity
8
1
100
AcDbVertex
100
AcDb2dVertex
62
5
10
133.150000
20
186.500000
0
VERTEX
5
666
100
AcDbEntity
8
1
100
AcDbVertex
100
AcDb2dVertex
62
5
10
135.350000
20
186.500000
0
VERTEX
5
667
100
AcDbEntity
8
1
100
AcDbVertex
100
AcDb2dVertex
62
5
10
135.350000
20
179.500000
0
VERTEX
5
668
100
AcDbEntity
8
1
100
AcDbVertex
100
AcDb2dVertex
62
5
10
133.150000
20
179.500000
0
VERTEX
5
669
100
AcDbEntity
8
1
100
AcDbVertex
100
AcDb2dVertex
62
5
10
133.150000
20
186.500000
0
SEQEND
5
66a
100
AcDbEntity
8
1
0
LINE
5
66b
100
AcDbEntity
8
1
100
AcDbLine
6
CONTINUOUS
62
5
10
120.859458
20
179.621577
11
120.450000
21
179.621577
0
POLYLINE
5
66c
100
AcDbEntity
8
1
6
CONTINUOUS
62
5
100
AcDb2dPolyline
66
1
10
0.0
20
0.0
30
0.0
70
0
0
VERTEX
5
66d
100
AcDbEntity
8
1
100
AcDbVertex
100
AcDb2dVertex
62
5
10
120.900000
20
180.500000
0
VERTEX
5
66e
100
AcDbEntity
8
1
100
AcDbVertex
100
AcDb2dVertex
62
5
10
120.859458
20
179.621577
0
VERTEX
5
66f
100
AcDbEntity
8
1
100
AcDbVertex
100
AcDb2dVertex
62
5
10
120.469428
20
179.500000
0
VERTEX
5
670
100
AcDbEntity
8
1
100
AcDbVertex
100
AcDb2dVertex
62
5
10
120.450000
20
179.500000
0
SEQEND
5
671
100
AcDbEntity
8
1
0
LINE
5
672
100
AcDbEntity
8
1
100
AcDbLine
6
CONTINUOUS
62
5
10
122.575976
20
179.621577
11
121.890543
21
179.621577
0
POLYLINE
5
673
100
AcDbEntity
8
1
6
CONTINUOUS
62
5
100
AcDb2dPolyline
66
1
10
0.0
20
0.0
30
0.0
70
0
0
VERTEX
5
674
100
AcDbEntity
8
1
100
AcDbVertex
100
AcDb2dVertex
62
5
10
122.533976
20
180.531568
0
VERTEX
5
675
100
AcDbEntity
8
1
100
AcDbVertex
100
AcDb2dVertex
62
5
10
122.575976
20
179.621577
0
VERTEX
5
676
100
AcDbEntity
8
1
100
AcDbVertex
100
AcDb2dVertex
62
5
10
122.650000
20
179.598302
0
SEQEND
5
677
100
AcDbEntity
8
1
0
POLYLINE
5
678
100
AcDbEntity
8
1
6
CONTINUOUS
62
5
100
AcDb2dPolyline
66
1
10
0.0
20
0.0
30
0.0
70
0
0
VERTEX
5
679
100
AcDbEntity
8
1
100
AcDbVertex
100
AcDb2dVertex
62
5
10
121.850000
20
180.500000
0
VERTEX
5
67a
100
AcDbEntity
8
1
100
AcDbVertex
100
AcDb2dVertex
62
5
10
121.890543
20
179.621577
0
VERTEX
5
67b
100
AcDbEntity
8
1
100
AcDbVertex
100
AcDb2dVertex
62
5
10
122.277201
20
179.500000
0
VERTEX
5
67c
100
AcDbEntity
8
1
100
AcDbVertex
100
AcDb2dVertex
62
5
10
122.650000
20
179.500000
0
SEQEND
5
67d
100
AcDbEntity
8
1
0
POLYLINE
5
67e
100
AcDbEntity
8
1
6
CONTINUOUS
62
5
100
AcDb2dPolyline
66
1
10
0.0
20
0.0
30
0.0
70
1
0
VERTEX
5
67f
100
AcDbEntity
8
1
100
AcDbVertex
100
AcDb2dVertex
62
5
10
120.450000
20
187.250000
0
VERTEX
5
680
100
AcDbEntity
8
1
100
AcDbVertex
100
AcDb2dVertex
62
5
10
122.650000
20
187.250000
0
VERTEX
5
681
100
AcDbEntity
8
1
100
AcDbVertex
100
AcDb2dVertex
62
5
10
122.650000
20
178.750000
0
VERTEX
5
682
100
AcDbEntity
8
1
100
AcDbVertex
100
AcDb2dVertex
62
5
10
120.450000
20
178.750000
0
VERTEX
5
683
100
AcDbEntity
8
1
100
AcDbVertex
100
AcDb2dVertex
62
5
10
120.450000
20
187.250000
0
SEQEND
5
684
100
AcDbEntity
8
1
0
ARC
5
685
100
AcDbEntity
8
1
100
AcDbCircle
6
CONTINUOUS
62
5
10
107.900000
20
186.500000
40
1.500000
100
AcDbArc
50
105.466009
51
179.999998
0
LINE
5
686
100
AcDbEntity
8
1
100
AcDbLine
6
CONTINUOUS
62
5
10
106.400000
20
186.500000
11
106.400000
21
179.000000
0
ARC
5
687
100
AcDbEntity
8
1
100
AcDbCircle
6
CONTINUOUS
62
5
10
108.900000
20
179.000000
40
2.500000
100
AcDbArc
50
179.999998
51
-124.055797
0
ARC
5
688
100
AcDbEntity
8
1
100
AcDbCircle
6
CONTINUOUS
62
5
10
123.487121
20
189.500000
40
1.000000
100
AcDbArc
50
32.797168
51
89.999999
0
ARC
5
689
100
AcDbEntity
8
1
100
AcDbCircle
6
CONTINUOUS
62
5
10
113.400000
20
183.000000
40
13.000000
100
AcDbArc
50
-32.797168
51
32.797168
0
ARC
5
68a
100
AcDbEntity
8
1
100
AcDbCircle
6
CONTINUOUS
62
5
10
123.487121
20
176.500000
40
1.000000
100
AcDbArc
50
-89.999999
51
-32.797168
0
LINE
5
68b
100
AcDbEntity
8
1
100
AcDbLine
6
CONTINUOUS
62
5
10
123.487121
20
175.500000
11
117.900000
21
175.500000
0
ARC
5
68c
100
AcDbEntity
8
1
100
AcDbCircle
6
CONTINUOUS
62
5
10
117.900000
20
176.500000
40
1.000000
100
AcDbArc
50
179.999998
51
-89.999999
0
LINE
5
68d
100
AcDbEntity
8
1
100
AcDbLine
6
CONTINUOUS
62
5
10
116.900000
20
176.500000
11
116.900000
21
189.500000
0
ARC
5
68e
100
AcDbEntity
8
1
100
AcDbCircle
6
CONTINUOUS
62
5
10
117.900000
20
189.500000
40
1.000000
100
AcDbArc
50
89.999999
51
179.999998
0
LINE
5
68f
100
AcDbEntity
8
1
100
AcDbLine
6
CONTINUOUS
62
5
10
117.900000
20
190.500000
11
123.487121
21
190.500000
0
ARC
5
690
100
AcDbEntity
8
1
100
AcDbCircle
6
CONTINUOUS
62
5
10
132.312880
20
189.500000
40
1.000000
100
AcDbArc
50
89.999999
51
147.202830
0
ARC
5
691
100
AcDbEntity
8
1
100
AcDbCircle
6
CONTINUOUS
62
5
10
142.400000
20
183.000000
40
13.000000
100
AcDbArc
50
147.202830
51
-147.202830
0
ARC
5
692
100
AcDbEntity
8
1
100
AcDbCircle
6
CONTINUOUS
62
5
10
132.312880
20
176.500000
40
1.000000
100
AcDbArc
50
-147.202830
51
-89.999999
0
LINE
5
693
100
AcDbEntity
8
1
100
AcDbLine
6
CONTINUOUS
62
5
10
132.312880
20
175.500000
11
137.900000
21
175.500000
0
ARC
5
694
100
AcDbEntity
8
1
100
AcDbCircle
6
CONTINUOUS
62
5
10
137.900000
20
176.500000
40
1.000000
100
AcDbArc
50
-89.999999
51
0.000000
0
LINE
5
695
100
AcDbEntity
8
1
100
AcDbLine
6
CONTINUOUS
62
5
10
138.900000
20
176.500000
11
138.900000
21
189.500000
0
ARC
5
696
100
AcDbEntity
8
1
100
AcDbCircle
6
CONTINUOUS
62
5
10
137.900000
20
189.500000
40
1.000000
100
AcDbArc
50
0.000000
51
89.999999
0
LINE
5
697
100
AcDbEntity
8
1
100
AcDbLine
6
CONTINUOUS
62
5
10
137.900000
20
190.500000
11
132.312880
21
190.500000
0
ARC
5
698
100
AcDbEntity
8
1
100
AcDbCircle
6
CONTINUOUS
62
5
10
114.500000
20
193.750000
40
0.600000
100
AcDbArc
50
89.999999
51
179.999998
0
LINE
5
699
100
AcDbEntity
8
1
100
AcDbLine
6
CONTINUOUS
62
5
10
113.900000
20
193.750000
11
113.900000
21
126.250000
0
ARC
5
69a
100
AcDbEntity
8
1
100
AcDbCircle
6
CONTINUOUS
62
5
10
114.500000
20
126.250000
40
0.600000
100
AcDbArc
50
179.999998
51
-89.999999
0
LINE
5
69b
100
AcDbEntity
8
1
100
AcDbLine
6
CONTINUOUS
62
5
10
114.500000
20
125.650000
11
141.300000
21
125.650000
0
ARC
5
69c
100
AcDbEntity
8
1
100
AcDbCircle
6
CONTINUOUS
62
5
10
141.300000
20
126.250000
40
0.600000
100
AcDbArc
50
-89.999999
51
0.000000
0
LINE
5
69d
100
AcDbEntity
8
1
100
AcDbLine
6
CONTINUOUS
62
5
10
141.900000
20
126.250000
11
141.900000
21
193.750000
0
ARC
5
69e
100
AcDbEntity
8
1
100
AcDbCircle
6
CONTINUOUS
62
5
10
141.300000
20
193.750000
40
0.600000
100
AcDbArc
50
0.000000
51
89.999999
0
LINE
5
69f
100
AcDbEntity
8
1
100
AcDbLine
6
CONTINUOUS
62
5
10
141.300000
20
194.350000
11
114.500000
21
194.350000
0
ARC
5
6a0
100
AcDbEntity
8
1
100
AcDbCircle
6
CONTINUOUS
62
5
10
112.050000
20
184.100000
40
1.000000
100
AcDbArc
50
179.999998
51
-89.999999
0
POLYLINE
5
6a1
100
AcDbEntity
8
1
6
CONTINUOUS
62
5
100
AcDb2dPolyline
66
1
10
0.0
20
0.0
30
0.0
70
0
0
VERTEX
5
6a2
100
AcDbEntity
8
1
100
AcDbVertex
100
AcDb2dVertex
62
5
10
112.050000
20
183.100000
0
VERTEX
5
6a3
100
AcDbEntity
8
1
100
AcDbVertex
100
AcDb2dVertex
62
5
10
112.500000
20
183.100000
0
VERTEX
5
6a4
100
AcDbEntity
8
1
100
AcDbVertex
100
AcDb2dVertex
62
5
10
112.500000
20
175.750000
0
VERTEX
5
6a5
100
AcDbEntity
8
1
100
AcDbVertex
100
AcDb2dVertex
62
5
10
113.650000
20
175.750000
0
VERTEX
5
6a6
100
AcDbEntity
8
1
100
AcDbVertex
100
AcDb2dVertex
62
5
10
113.650000
20
167.000000
0
VERTEX
5
6a7
100
AcDbEntity
8
1
100
AcDbVertex
100
AcDb2dVertex
62
5
10
112.500000
20
167.000000
0
VERTEX
5
6a8
100
AcDbEntity
8
1
100
AcDbVertex
100
AcDb2dVertex
62
5
10
112.500000
20
153.000000
0
VERTEX
5
6a9
100
AcDbEntity
8
1
100
AcDbVertex
100
AcDb2dVertex
62
5
10
113.500000
20
153.000000
0
VERTEX
5
6aa
100
AcDbEntity
8
1
100
AcDbVertex
100
AcDb2dVertex
62
5
10
113.500000
20
144.250000
0
VERTEX
5
6ab
100
AcDbEntity
8
1
100
AcDbVertex
100
AcDb2dVertex
62
5
10
112.500000
20
144.250000
0
VERTEX
5
6ac
100
AcDbEntity
8
1
100
AcDbVertex
100
AcDb2dVertex
62
5
10
112.500000
20
136.900000
0
VERTEX
5
6ad
100
AcDbEntity
8
1
100
AcDbVertex
100
AcDb2dVertex
62
5
10
112.050000
20
136.900000
0
SEQEND
5
6ae
100
AcDbEntity
8
1
0
ARC
5
6af
100
AcDbEntity
8
1
100
AcDbCircle
6
CONTINUOUS
62
5
10
112.050000
20
135.900000
40
1.000000
100
AcDbArc
50
89.999999
51
179.999998
0
POLYLINE
5
6b0
100
AcDbEntity
8
1
6
CONTINUOUS
62
5
100
AcDb2dPolyline
66
1
10
0.0
20
0.0
30
0.0
70
0
0
VERTEX
5
6b1
100
AcDbEntity
8
1
100
AcDbVertex
100
AcDb2dVertex
62
5
10
111.050000
20
135.900000
0
VERTEX
5
6b2
100
AcDbEntity
8
1
100
AcDbVertex
100
AcDb2dVertex
62
5
10
111.050000
20
135.000000
0
VERTEX
5
6b3
100
AcDbEntity
8
1
100
AcDbVertex
100
AcDb2dVertex
62
5
10
112.250000
20
135.000000
0
VERTEX
5
6b4
100
AcDbEntity
8
1
100
AcDbVertex
100
AcDb2dVertex
62
5
10
112.250000
20
130.000000
0
VERTEX
5
6b5
100
AcDbEntity
8
1
100
AcDbVertex
100
AcDb2dVertex
62
5
10
111.050000
20
130.000000
0
VERTEX
5
6b6
100
AcDbEntity
8
1
100
AcDbVertex
100
AcDb2dVertex
62
5
10
111.050000
20
129.000000
0
VERTEX
5
6b7
100
AcDbEntity
8
1
100
AcDbVertex
100
AcDb2dVertex
62
5
10
112.900000
20
125.400000
0
VERTEX
5
6b8
100
AcDbEntity
8
1
100
AcDbVertex
100
AcDb2dVertex
62
5
10
112.900000
20
124.600000
0
VERTEX
5
6b9
100
AcDbEntity
8
1
100
AcDbVertex
100
AcDb2dVertex
62
5
10
125.300000
20
124.600000
0
VERTEX
5
6ba
100
AcDbEntity
8
1
100
AcDbVertex
100
AcDb2dVertex
62
5
10
125.150000
20
123.800000
0
VERTEX
5
6bb
100
AcDbEntity
8
1
100
AcDbVertex
100
AcDb2dVertex
62
5
10
130.650000
20
123.800000
0
VERTEX
5
6bc
100
AcDbEntity
8
1
100
AcDbVertex
100
AcDb2dVertex
62
5
10
130.500000
20
124.600000
0
VERTEX
5
6bd
100
AcDbEntity
8
1
100
AcDbVertex
100
AcDb2dVertex
62
5
10
142.900000
20
124.600000
0
VERTEX
5
6be
100
AcDbEntity
8
1
100
AcDbVertex
100
AcDb2dVertex
62
5
10
142.900000
20
125.400000
0
VERTEX
5
6bf
100
AcDbEntity
8
1
100
AcDbVertex
100
AcDb2dVertex
62
5
10
144.750000
20
129.000000
0
VERTEX
5
6c0
100
AcDbEntity
8
1
100
AcDbVertex
100
AcDb2dVertex
62
5
10
144.750000
20
130.000000
0
VERTEX
5
6c1
100
AcDbEntity
8
1
100
AcDbVertex
100
AcDb2dVertex
62
5
10
143.550000
20
130.000000
0
VERTEX
5
6c2
100
AcDbEntity
8
1
100
AcDbVertex
100
AcDb2dVertex
62
5
10
143.550000
20
135.000000
0
VERTEX
5
6c3
100
AcDbEntity
8
1
100
AcDbVertex
100
AcDb2dVertex
62
5
10
144.750000
20
135.000000
0
VERTEX
5
6c4
100
AcDbEntity
8
1
100
AcDbVertex
100
AcDb2dVertex
62
5
10
144.750000
20
135.900000
0
SEQEND
5
6c5
100
AcDbEntity
8
1
0
ARC
5
6c6
100
AcDbEntity
8
1
100
AcDbCircle
6
CONTINUOUS
62
5
10
143.750000
20
135.900000
40
1.000000
100
AcDbArc
50
0.000000
51
89.999999
0
POLYLINE
5
6c7
100
AcDbEntity
8
1
6
CONTINUOUS
62
5
100
AcDb2dPolyline
66
1
10
0.0
20
0.0
30
0.0
70
0
0
VERTEX
5
6c8
100
AcDbEntity
8
1
100
AcDbVertex
100
AcDb2dVertex
62
5
10
143.750000
20
136.900000
0
VERTEX
5
6c9
100
AcDbEntity
8
1
100
AcDbVertex
100
AcDb2dVertex
62
5
10
143.300000
20
136.900000
0
VERTEX
5
6ca
100
AcDbEntity
8
1
100
AcDbVertex
100
AcDb2dVertex
62
5
10
143.300000
20
144.250000
0
VERTEX
5
6cb
100
AcDbEntity
8
1
100
AcDbVertex
100
AcDb2dVertex
62
5
10
142.150000
20
144.250000
0
VERTEX
5
6cc
100
AcDbEntity
8
1
100
AcDbVertex
100
AcDb2dVertex
62
5
10
142.150000
20
146.950000
0
VERTEX
5
6cd
100
AcDbEntity
8
1
100
AcDbVertex
100
AcDb2dVertex
62
5
10
143.700000
20
146.950000
0
VERTEX
5
6ce
100
AcDbEntity
8
1
100
AcDbVertex
100
AcDb2dVertex
62
5
10
143.700000
20
151.050000
0
VERTEX
5
6cf
100
AcDbEntity
8
1
100
AcDbVertex
100
AcDb2dVertex
62
5
10
142.150000
20
151.050000
0
VERTEX
5
6d0
100
AcDbEntity
8
1
100
AcDbVertex
100
AcDb2dVertex
62
5
10
142.150000
20
153.000000
0
VERTEX
5
6d1
100
AcDbEntity
8
1
100
AcDbVertex
100
AcDb2dVertex
62
5
10
143.300000
20
153.000000
0
VERTEX
5
6d2
100
AcDbEntity
8
1
100
AcDbVertex
100
AcDb2dVertex
62
5
10
143.300000
20
167.000000
0
VERTEX
5
6d3
100
AcDbEntity
8
1
100
AcDbVertex
100
AcDb2dVertex
62
5
10
142.150000
20
167.000000
0
VERTEX
5
6d4
100
AcDbEntity
8
1
100
AcDbVertex
100
AcDb2dVertex
62
5
10
142.150000
20
175.750000
0
VERTEX
5
6d5
100
AcDbEntity
8
1
100
AcDbVertex
100
AcDb2dVertex
62
5
10
143.300000
20
175.750000
0
VERTEX
5
6d6
100
AcDbEntity
8
1
100
AcDbVertex
100
AcDb2dVertex
62
5
10
143.300000
20
183.100000
0
VERTEX
5
6d7
100
AcDbEntity
8
1
100
AcDbVertex
100
AcDb2dVertex
62
5
10
143.750000
20
183.100000
0
SEQEND
5
6d8
100
AcDbEntity
8
1
0
ARC
5
6d9
100
AcDbEntity
8
1
100
AcDbCircle
6
CONTINUOUS
62
5
10
143.750000
20
184.100000
40
1.000000
100
AcDbArc
50
-89.999999
51
0.000000
0
POLYLINE
5
6da
100
AcDbEntity
8
1
6
CONTINUOUS
62
5
100
AcDb2dPolyline
66
1
10
0.0
20
0.0
30
0.0
70
0
0
VERTEX
5
6db
100
AcDbEntity
8
1
100
AcDbVertex
100
AcDb2dVertex
62
5
10
144.750000
20
184.100000
0
VERTEX
5
6dc
100
AcDbEntity
8
1
100
AcDbVertex
100
AcDb2dVertex
62
5
10
144.750000
20
185.000000
0
VERTEX
5
6dd
100
AcDbEntity
8
1
100
AcDbVertex
100
AcDb2dVertex
62
5
10
143.550000
20
185.000000
0
VERTEX
5
6de
100
AcDbEntity
8
1
100
AcDbVertex
100
AcDb2dVertex
62
5
10
143.550000
20
190.000000
0
VERTEX
5
6df
100
AcDbEntity
8
1
100
AcDbVertex
100
AcDb2dVertex
62
5
10
144.750000
20
190.000000
0
VERTEX
5
6e0
100
AcDbEntity
8
1
100
AcDbVertex
100
AcDb2dVertex
62
5
10
144.750000
20
191.000000
0
VERTEX
5
6e1
100
AcDbEntity
8
1
100
AcDbVertex
100
AcDb2dVertex
62
5
10
142.900000
20
194.600000
0
VERTEX
5
6e2
100
AcDbEntity
8
1
100
AcDbVertex
100
AcDb2dVertex
62
5
10
142.900000
20
195.400000
0
VERTEX
5
6e3
100
AcDbEntity
8
1
100
AcDbVertex
100
AcDb2dVertex
62
5
10
112.900000
20
195.400000
0
VERTEX
5
6e4
100
AcDbEntity
8
1
100
AcDbVertex
100
AcDb2dVertex
62
5
10
112.900000
20
194.600000
0
VERTEX
5
6e5
100
AcDbEntity
8
1
100
AcDbVertex
100
AcDb2dVertex
62
5
10
111.050000
20
191.000000
0
VERTEX
5
6e6
100
AcDbEntity
8
1
100
AcDbVertex
100
AcDb2dVertex
62
5
10
111.050000
20
190.000000
0
VERTEX
5
6e7
100
AcDbEntity
8
1
100
AcDbVertex
100
AcDb2dVertex
62
5
10
112.250000
20
190.000000
0
VERTEX
5
6e8
100
AcDbEntity
8
1
100
AcDbVertex
100
AcDb2dVertex
62
5
10
112.250000
20
185.000000
0
VERTEX
5
6e9
100
AcDbEntity
8
1
100
AcDbVertex
100
AcDb2dVertex
62
5
10
111.050000
20
185.000000
0
VERTEX
5
6ea
100
AcDbEntity
8
1
100
AcDbVertex
100
AcDb2dVertex
62
5
10
111.050000
20
184.100000
0
SEQEND
5
6eb
100
AcDbEntity
8
1
0
LINE
5
6ec
100
AcDbEntity
8
1
100
AcDbLine
6
CONTINUOUS
62
5
10
147.100000
20
117.500000
11
147.100000
21
202.500000
0
LINE
5
6ed
100
AcDbEntity
8
1
100
AcDbLine
6
CONTINUOUS
62
5
10
108.700000
20
202.500000
11
108.700000
21
117.500000
0
ARC
5
6ee
100
AcDbEntity
8
1
100
AcDbCircle
6
CONTINUOUS
62
5
10
107.400000
20
213.300000
40
0.300000
100
AcDbArc
50
-89.999999
51
0.000000
0
POLYLINE
5
6ef
100
AcDbEntity
8
1
6
CONTINUOUS
62
5
100
AcDb2dPolyline
66
1
10
0.0
20
0.0
30
0.0
70
0
0
VERTEX
5
6f0
100
AcDbEntity
8
1
100
AcDbVertex
100
AcDb2dVertex
62
5
10
107.400000
20
213.000000
0
VERTEX
5
6f1
100
AcDbEntity
8
1
100
AcDbVertex
100
AcDb2dVertex
62
5
10
107.400000
20
213.000000
0
VERTEX
5
6f2
100
AcDbEntity
8
1
100
AcDbVertex
100
AcDb2dVertex
62
5
10
107.400000
20
210.000000
0
SEQEND
5
6f3
100
AcDbEntity
8
1
0
ARC
5
6f4
100
AcDbEntity
8
1
100
AcDbCircle
6
CONTINUOUS
62
5
10
108.400000
20
210.000000
40
1.000000
100
AcDbArc
50
179.999998
51
-89.999999
0
POLYLINE
5
6f5
100
AcDbEntity
8
1
6
CONTINUOUS
62
5
100
AcDb2dPolyline
66
1
10
0.0
20
0.0
30
0.0
70
0
0
VERTEX
5
6f6
100
AcDbEntity
8
1
100
AcDbVertex
100
AcDb2dVertex
62
5
10
108.400000
20
209.000000
0
VERTEX
5
6f7
100
AcDbEntity
8
1
100
AcDbVertex
100
AcDb2dVertex
62
5
10
110.100000
20
209.000000
0
VERTEX
5
6f8
100
AcDbEntity
8
1
100
AcDbVertex
100
AcDb2dVertex
62
5
10
110.100000
20
202.500000
0
VERTEX
5
6f9
100
AcDbEntity
8
1
100
AcDbVertex
100
AcDb2dVertex
62
5
10
107.500000
20
202.500000
0
VERTEX
5
6fa
100
AcDbEntity
8
1
100
AcDbVertex
100
AcDb2dVertex
62
5
10
107.500000
20
117.500000
0
VERTEX
5
6fb
100
AcDbEntity
8
1
100
AcDbVertex
100
AcDb2dVertex
62
5
10
110.100000
20
117.500000
0
VERTEX
5
6fc
100
AcDbEntity
8
1
100
AcDbVertex
100
AcDb2dVertex
62
5
10
110.100000
20
111.000000
0
VERTEX
5
6fd
100
AcDbEntity
8
1
100
AcDbVertex
100
AcDb2dVertex
62
5
10
108.400000
20
111.000000
0
SEQEND
5
6fe
100
AcDbEntity
8
1
0
ARC
5
6ff
100
AcDbEntity
8
1
100
AcDbCircle
6
CONTINUOUS
62
5
10
108.400000
20
110.000000
40
1.000000
100
AcDbArc
50
89.999999
51
179.999998
0
POLYLINE
5
700
100
AcDbEntity
8
1
6
CONTINUOUS
62
5
100
AcDb2dPolyline
66
1
10
0.0
20
0.0
30
0.0
70
0
0
VERTEX
5
701
100
AcDbEntity
8
1
100
AcDbVertex
100
AcDb2dVertex
62
5
10
107.400000
20
110.000000
0
VERTEX
5
702
100
AcDbEntity
8
1
100
AcDbVertex
100
AcDb2dVertex
62
5
10
107.400000
20
107.000000
0
VERTEX
5
703
100
AcDbEntity
8
1
100
AcDbVertex
100
AcDb2dVertex
62
5
10
107.400000
20
107.000000
0
SEQEND
5
704
100
AcDbEntity
8
1
0
ARC
5
705
100
AcDbEntity
8
1
100
AcDbCircle
6
CONTINUOUS
62
5
10
107.400000
20
106.700000
40
0.300000
100
AcDbArc
50
0.000000
51
89.999999
0
LINE
5
706
100
AcDbEntity
8
1
100
AcDbLine
6
CONTINUOUS
62
5
10
107.700000
20
106.700000
11
107.700000
21
105.000000
0
ARC
5
707
100
AcDbEntity
8
1
100
AcDbCircle
6
CONTINUOUS
62
5
10
108.700000
20
105.000000
40
1.000000
100
AcDbArc
50
179.999998
51
-89.999999
0
POLYLINE
5
708
100
AcDbEntity
8
1
6
CONTINUOUS
62
5
100
AcDb2dPolyline
66
1
10
0.0
20
0.0
30
0.0
70
0
0
VERTEX
5
709
100
AcDbEntity
8
1
100
AcDbVertex
100
AcDb2dVertex
62
5
10
108.700000
20
104.000000
0
VERTEX
5
70a
100
AcDbEntity
8
1
100
AcDbVertex
100
AcDb2dVertex
62
5
10
125.400000
20
104.000000
0
VERTEX
5
70b
100
AcDbEntity
8
1
100
AcDbVertex
100
AcDb2dVertex
62
5
10
125.400000
20
105.000000
0
VERTEX
5
70c
100
AcDbEntity
8
1
100
AcDbVertex
100
AcDb2dVertex
62
5
10
130.400000
20
105.000000
0
VERTEX
5
70d
100
AcDbEntity
8
1
100
AcDbVertex
100
AcDb2dVertex
62
5
10
130.400000
20
104.000000
0
VERTEX
5
70e
100
AcDbEntity
8
1
100
AcDbVertex
100
AcDb2dVertex
62
5
10
152.700000
20
104.000000
0
SEQEND
5
70f
100
AcDbEntity
8
1
0
ARC
5
710
100
AcDbEntity
8
1
100
AcDbCircle
6
CONTINUOUS
62
5
10
152.700000
20
105.000000
40
1.000000
100
AcDbArc
50
-89.999999
51
0.000000
0
LINE
5
711
100
AcDbEntity
8
1
100
AcDbLine
6
CONTINUOUS
62
5
10
153.700000
20
105.000000
11
153.700000
21
105.750000
0
ARC
5
712
100
AcDbEntity
8
1
100
AcDbCircle
6
CONTINUOUS
62
5
10
152.700000
20
105.750000
40
1.000000
100
AcDbArc
50
0.000000
51
89.999999
0
LINE
5
713
100
AcDbEntity
8
1
100
AcDbLine
6
CONTINUOUS
62
5
10
152.700000
20
106.750000
11
148.900000
21
106.750000
0
ARC
5
714
100
AcDbEntity
8
1
100
AcDbCircle
6
CONTINUOUS
62
5
10
148.900000
20
107.250000
40
0.500000
100
AcDbArc
50
179.999998
51
-89.999999
0
LINE
5
715
100
AcDbEntity
8
1
100
AcDbLine
6
CONTINUOUS
62
5
10
148.400000
20
107.250000
11
148.400000
21
110.000000
0
ARC
5
716
100
AcDbEntity
8
1
100
AcDbCircle
6
CONTINUOUS
62
5
10
147.400000
20
110.000000
40
1.000000
100
AcDbArc
50
0.000000
51
89.999999
0
POLYLINE
5
717
100
AcDbEntity
8
1
6
CONTINUOUS
62
5
100
AcDb2dPolyline
66
1
10
0.0
20
0.0
30
0.0
70
0
0
VERTEX
5
718
100
AcDbEntity
8
1
100
AcDbVertex
100
AcDb2dVertex
62
5
10
147.400000
20
111.000000
0
VERTEX
5
719
100
AcDbEntity
8
1
100
AcDbVertex
100
AcDb2dVertex
62
5
10
145.700000
20
111.000000
0
VERTEX
5
71a
100
AcDbEntity
8
1
100
AcDbVertex
100
AcDb2dVertex
62
5
10
145.700000
20
117.500000
0
VERTEX
5
71b
100
AcDbEntity
8
1
100
AcDbVertex
100
AcDb2dVertex
62
5
10
148.300000
20
117.500000
0
VERTEX
5
71c
100
AcDbEntity
8
1
100
AcDbVertex
100
AcDb2dVertex
62
5
10
148.300000
20
202.500000
0
VERTEX
5
71d
100
AcDbEntity
8
1
100
AcDbVertex
100
AcDb2dVertex
62
5
10
145.700000
20
202.500000
0
VERTEX
5
71e
100
AcDbEntity
8
1
100
AcDbVertex
100
AcDb2dVertex
62
5
10
145.700000
20
209.000000
0
VERTEX
5
71f
100
AcDbEntity
8
1
100
AcDbVertex
100
AcDb2dVertex
62
5
10
147.400000
20
209.000000
0
SEQEND
5
720
100
AcDbEntity
8
1
0
ARC
5
721
100
AcDbEntity
8
1
100
AcDbCircle
6
CONTINUOUS
62
5
10
147.400000
20
210.000000
40
1.000000
100
AcDbArc
50
-89.999999
51
0.000000
0
LINE
5
722
100
AcDbEntity
8
1
100
AcDbLine
6
CONTINUOUS
62
5
10
148.400000
20
210.000000
11
148.400000
21
212.750000
0
ARC
5
723
100
AcDbEntity
8
1
100
AcDbCircle
6
CONTINUOUS
62
5
10
148.900000
20
212.750000
40
0.500000
100
AcDbArc
50
89.999999
51
179.999998
0
LINE
5
724
100
AcDbEntity
8
1
100
AcDbLine
6
CONTINUOUS
62
5
10
148.900000
20
213.250000
11
152.700000
21
213.250000
0
ARC
5
725
100
AcDbEntity
8
1
100
AcDbCircle
6
CONTINUOUS
62
5
10
152.700000
20
214.250000
40
1.000000
100
AcDbArc
50
-89.999999
51
0.000000
0
LINE
5
726
100
AcDbEntity
8
1
100
AcDbLine
6
CONTINUOUS
62
5
10
153.700000
20
214.250000
11
153.700000
21
215.000000
0
ARC
5
727
100
AcDbEntity
8
1
100
AcDbCircle
6
CONTINUOUS
62
5
10
152.700000
20
215.000000
40
1.000000
100
AcDbArc
50
0.000000
51
89.999999
0
POLYLINE
5
728
100
AcDbEntity
8
1
6
CONTINUOUS
62
5
100
AcDb2dPolyline
66
1
10
0.0
20
0.0
30
0.0
70
0
0
VERTEX
5
729
100
AcDbEntity
8
1
100
AcDbVertex
100
AcDb2dVertex
62
5
10
152.700000
20
216.000000
0
VERTEX
5
72a
100
AcDbEntity
8
1
100
AcDbVertex
100
AcDb2dVertex
62
5
10
130.400000
20
216.000000
0
VERTEX
5
72b
100
AcDbEntity
8
1
100
AcDbVertex
100
AcDb2dVertex
62
5
10
130.400000
20
215.000000
0
VERTEX
5
72c
100
AcDbEntity
8
1
100
AcDbVertex
100
AcDb2dVertex
62
5
10
125.400000
20
215.000000
0
VERTEX
5
72d
100
AcDbEntity
8
1
100
AcDbVertex
100
AcDb2dVertex
62
5
10
125.400000
20
216.000000
0
VERTEX
5
72e
100
AcDbEntity
8
1
100
AcDbVertex
100
AcDb2dVertex
62
5
10
108.700000
20
216.000000
0
SEQEND
5
72f
100
AcDbEntity
8
1
0
ARC
5
730
100
AcDbEntity
8
1
100
AcDbCircle
6
CONTINUOUS
62
5
10
108.700000
20
215.000000
40
1.000000
100
AcDbArc
50
89.999999
51
179.999998
0
LINE
5
731
100
AcDbEntity
8
1
100
AcDbLine
6
CONTINUOUS
62
5
10
107.700000
20
215.000000
11
107.700000
21
213.300000
0
POLYLINE
5
732
100
AcDbEntity
8
1
6
DOT2
62
5
100
AcDb2dPolyline
66
1
10
0.0
20
0.0
30
0.0
70
0
0
VERTEX
5
733
100
AcDbEntity
8
1
100
AcDbVertex
100
AcDb2dVertex
62
5
10
0.000000
20
350.000000
0
VERTEX
5
734
100
AcDbEntity
8
1
100
AcDbVertex
100
AcDb2dVertex
62
5
10
0.000000
20
360.000000
0
VERTEX
5
735
100
AcDbEntity
8
1
100
AcDbVertex
100
AcDb2dVertex
62
5
10
10.000000
20
360.000000
0
SEQEND
5
736
100
AcDbEntity
8
1
0
POLYLINE
5
737
100
AcDbEntity
8
1
6
DOT2
62
5
100
AcDb2dPolyline
66
1
10
0.0
20
0.0
30
0.0
70
0
0
VERTEX
5
738
100
AcDbEntity
8
1
100
AcDbVertex
100
AcDb2dVertex
62
5
10
330.000000
20
360.000000
0
VERTEX
5
739
100
AcDbEntity
8
1
100
AcDbVertex
100
AcDb2dVertex
62
5
10
340.000000
20
360.000000
0
VERTEX
5
73a
100
AcDbEntity
8
1
100
AcDbVertex
100
AcDb2dVertex
62
5
10
340.000000
20
350.000000
0
SEQEND
5
73b
100
AcDbEntity
8
1
0
POLYLINE
5
73c
100
AcDbEntity
8
1
6
DOT2
62
5
100
AcDb2dPolyline
66
1
10
0.0
20
0.0
30
0.0
70
0
0
VERTEX
5
73d
100
AcDbEntity
8
1
100
AcDbVertex
100
AcDb2dVertex
62
5
10
340.000000
20
10.000000
0
VERTEX
5
73e
100
AcDbEntity
8
1
100
AcDbVertex
100
AcDb2dVertex
62
5
10
340.000000
20
0.000000
0
VERTEX
5
73f
100
AcDbEntity
8
1
100
AcDbVertex
100
AcDb2dVertex
62
5
10
330.000000
20
0.000000
0
SEQEND
5
740
100
AcDbEntity
8
1
0
POLYLINE
5
741
100
AcDbEntity
8
1
6
DOT2
62
5
100
AcDb2dPolyline
66
1
10
0.0
20
0.0
30
0.0
70
0
0
VERTEX
5
742
100
AcDbEntity
8
1
100
AcDbVertex
100
AcDb2dVertex
62
5
10
10.000000
20
0.000000
0
VERTEX
5
743
100
AcDbEntity
8
1
100
AcDbVertex
100
AcDb2dVertex
62
5
10
0.000000
20
0.000000
0
VERTEX
5
744
100
AcDbEntity
8
1
100
AcDbVertex
100
AcDb2dVertex
62
5
10
0.000000
20
10.000000
0
SEQEND
5
745
100
AcDbEntity
8
1
0
POLYLINE
5
746
100
AcDbEntity
8
1
6
CONTINUOUS
62
5
100
AcDb2dPolyline
66
1
10
0.0
20
0.0
30
0.0
70
1
0
VERTEX
5
747
100
AcDbEntity
8
1
100
AcDbVertex
100
AcDb2dVertex
62
5
10
10.000000
20
10.000000
0
VERTEX
5
748
100
AcDbEntity
8
1
100
AcDbVertex
100
AcDb2dVertex
62
5
10
10.000000
20
350.000000
0
VERTEX
5
749
100
AcDbEntity
8
1
100
AcDbVertex
100
AcDb2dVertex
62
5
10
330.000000
20
350.000000
0
VERTEX
5
74a
100
AcDbEntity
8
1
100
AcDbVertex
100
AcDb2dVertex
62
5
10
330.000000
20
10.000000
0
VERTEX
5
74b
100
AcDbEntity
8
1
100
AcDbVertex
100
AcDb2dVertex
62
5
10
10.000000
20
10.000000
0
SEQEND
5
74c
100
AcDbEntity
8
1
0
ENDSEC
0
SECTION
2
OBJECTS
0
DICTIONARY
5
74d
100
AcDbDictionary
3
ACAD_GROUP
350
74e
3
ACAD_MLINESTYLE
350
74f
0
DICTIONARY
5
74e
102
{ACAD_REACTORS
330
74d
102
}
100
AcDbDictionary
0
DICTIONARY
5
74f
102
{ACAD_REACTORS
330
74d
102
}
100
AcDbDictionary
3
STANDARD
350
750
0
MLINESTYLE
5
750
102
{ACAD_REACTORS
330
74f
102
}
100
AcDbMlineStyle
2
STANDARD
70
0
3

62
0
51
90.0
52
90.0
71
2
49
0.5
62
256
6
BYLAYER
49
-0.5
62
256
6
BYLAYER
0
ENDSEC
0
EOF
