0
SECTION
2
HEADER
9
$ACADVER
1
AC1012
9
$EXTMIN
10
-0.010000
20
-0.010000
30
0.0
9
$EXTMAX
10
13.390000
20
14.180000
30
0.0
9
$LIMMIN
10
-0.254000
20
-0.254000
9
$LIMMAX
10
340.106000
20
360.172000
9
$DIMSCALE
40
1.000000
9
$PDMODE
70
2
9
$PDSIZE
40
0.0
  9
$HANDSEED
  5
c3e
0
ENDSEC
0
SECTION
2
CLASSES
0
ENDSEC
0
SECTION
2
TABLES
0
TABLE
2
LTYPE
5
1e
100
AcDbSymbolTable
70
12
0
LTYPE
5
1f
100
AcDbSymbolTableRecord
100
AcDbLinetypeTableRecord
2
BYBLOCK
70
0
3

72
65
73
0
40
0.0
0
LTYPE
5
20
100
AcDbSymbolTableRecord
100
AcDbLinetypeTableRecord
2
BYLAYER
70
0
3

72
65
73
0
40
0.0
0
LTYPE
5
21
100
AcDbSymbolTableRecord
100
AcDbLinetypeTableRecord
2
CONTINUOUS
70
64
3
Solid line
72
65
73
0
40
0.0
0
LTYPE
5
22
100
AcDbSymbolTableRecord
100
AcDbLinetypeTableRecord
2
DASHED
70
64
3
__ __ __ __ __ __ __ __ __ __ __ __ __ __ __
72
65
73
2
40
0.75
49
0.5
74
0
49
-0.25
74
0
0
LTYPE
5
23
100
AcDbSymbolTableRecord
100
AcDbLinetypeTableRecord
2
DOT
70
64
3
...............................................
72
65
73
2
40
0.25
49
0.0
74
0
49
-0.25
74
0
0
LTYPE
5
24
100
AcDbSymbolTableRecord
100
AcDbLinetypeTableRecord
2
DASHDOT
70
64
3
__ . __ . __ . __ . __ . __ . __ . __ . __ . --
72
65
73
4
40
1.0
49
0.5
74
0
49
-0.25
74
0
49
0.0
74
0
49
-0.25
74
0
0
LTYPE
5
25
100
AcDbSymbolTableRecord
100
AcDbLinetypeTableRecord
2
CENTER
70
64
3
____ _ ____ _ ____ _ ____ _ ____ _ ____ _ ____
72
65
73
4
40
2.0
49
1.25
74
0
49
-0.25
74
0
49
0.25
74
0
49
-0.25
74
0
0
LTYPE
5
26
100
AcDbSymbolTableRecord
100
AcDbLinetypeTableRecord
2
PHANTOM
70
64
3
_____ _ _ _____ _ _ _____ _ _ _____ _ _ ____
72
65
73
6
40
2.5
49
1.25
74
0
49
-0.25
74
0
49
0.25
74
0
49
-0.25
74
0
49
0.25
74
0
49
-0.25
74
0
0
LTYPE
5
27
100
AcDbSymbolTableRecord
100
AcDbLinetypeTableRecord
2
HIDDEN
70
64
3
_ _ _ _ _ _ _ _ _ _ _ _ _ _ _ _ _ _ _ _ _ _ _
72
65
73
2
40
0.375
49
0.25
74
0
49
-0.125
74
0
0
LTYPE
5
28
100
AcDbSymbolTableRecord
100
AcDbLinetypeTableRecord
2
BORDER
70
64
3
__ __ . __ __ . __ __ . __ __ . __ __ . __ __
72
65
73
6
40
1.75
49
0.5
74
0
49
-0.25
74
0
49
0.5
74
0
49
-0.25
74
0
49
0.0
74
0
49
-0.25
74
0
0
LTYPE
5
29
100
AcDbSymbolTableRecord
100
AcDbLinetypeTableRecord
2
DIVIDE
70
64
3
__ . . __ . . __ . . __ . . __ . . __ . . __
72
65
73
6
40
1.25
49
0.5
74
0
49
-0.25
74
0
49
0.0
74
0
49
-0.25
74
0
49
0.0
74
0
49
-0.25
74
0
0
LTYPE
5
2a
100
AcDbSymbolTableRecord
100
AcDbLinetypeTableRecord
2
DOT2
70
64
3
...............................................
72
65
73
2
40
0.125
49
0.0
74
0
49
-0.125
74
0
0
ENDTAB
0
TABLE
2
STYLE
5
2b
100
AcDbSymbolTable
70
1
0
STYLE
5
2c
100
AcDbSymbolTableRecord
100
AcDbTextStyleTableRecord
2
STANDARD
70
64
40
0.0
41
1.0
50
0.0
71
0
42
5.0
3
txt
4
bigfont
0
ENDTAB
0
TABLE
2
LAYER
5
2d
100
AcDbSymbolTable
70
3
0
LAYER
5
2e
100
AcDbSymbolTableRecord
100
AcDbLayerTableRecord
2
0
70
0
62
7
6
CONTINUOUS
0
LAYER
5
2f
100
AcDbSymbolTableRecord
100
AcDbLayerTableRecord
2
1
70
0
62
7
6
CONTINUOUS
0
LAYER
5
30
100
AcDbSymbolTableRecord
100
AcDbLayerTableRecord
2
0
70
0
62
7
6
CONTINUOUS
0
ENDTAB
0
TABLE
2
APPID
5
31
100
AcDbSymbolTable
70
1
0
APPID
5
32
100
AcDbSymbolTableRecord
100
AcDbRegAppTableRecord
2
ACAD
70
64
0
ENDTAB
0
TABLE
2
DIMSTYLE
5
33
100
AcDbSymbolTable
70
0
0
ENDTAB
0
TABLE
2
UCS
5
34
100
AcDbSymbolTable
70
0
0
ENDTAB
0
TABLE
2
VIEW
5
35
100
AcDbSymbolTable
70
0
0
ENDTAB
0
TABLE
2
VPORT
5
36
100
AcDbSymbolTable
70
0
0
ENDTAB
0
TABLE
2
BLOCK_RECORD
5
37
100
AcDbSymbolTable
70
0
0
BLOCK_RECORD
5
38
100
AcDbSymbolTableRecord
100
AcDbBlockTableRecord
2
*MODEL_SPACE
0
BLOCK_RECORD
5
39
100
AcDbSymbolTableRecord
100
AcDbBlockTableRecord
2
*PAPER_SPACE
0
BLOCK_RECORD
5
3a
100
AcDbSymbolTableRecord
100
AcDbBlockTableRecord
2
OPEN
0
BLOCK_RECORD
5
3b
100
AcDbSymbolTableRecord
100
AcDbBlockTableRecord
2
HALF
0
BLOCK_RECORD
5
3c
100
AcDbSymbolTableRecord
100
AcDbBlockTableRecord
2
CLOSEDBLANK
0
BLOCK_RECORD
5
3d
100
AcDbSymbolTableRecord
100
AcDbBlockTableRecord
2
HALFCLOSE_R
0
BLOCK_RECORD
5
3e
100
AcDbSymbolTableRecord
100
AcDbBlockTableRecord
2
DOT
0
BLOCK_RECORD
5
3f
100
AcDbSymbolTableRecord
100
AcDbBlockTableRecord
2
HALFOPEN_R
0
BLOCK_RECORD
5
40
100
AcDbSymbolTableRecord
100
AcDbBlockTableRecord
2
CLOSEDF
0
BLOCK_RECORD
5
41
100
AcDbSymbolTableRecord
100
AcDbBlockTableRecord
2
HALF_R
0
ENDTAB
0
ENDSEC
0
SECTION
2
BLOCKS
0
BLOCK
5
42
100
AcDbEntity
8
0
100
AcDbBlockBegin
2
*MODEL_SPACE
70
0
10
0.0
20
0.0
30
0.0
3
*MODEL_SPACE
1

0
ENDBLK
5
43
100
AcDbEntity
8
0
100
AcDbBlockEnd
0
BLOCK
5
44
100
AcDbEntity
67
1
8
0
100
AcDbBlockBegin
2
*PAPER_SPACE
70
0
10
0.0
20
0.0
30
0.0
3
*PAPER_SPACE
1

0
ENDBLK
5
45
100
AcDbEntity
67
1
8
0
100
AcDbBlockEnd
0
BLOCK
5
46
100
AcDbEntity
8
0
100
AcDbBlockBegin
2
OPEN
70
0
10
0.0
20
0.0
30
0.0
3
OPEN
1

0
LINE
5
47
100
AcDbEntity
8
0
6
BYBLOCK
62
0
100
AcDbLine
10
0.000000
20
0.000000
11
-1.000000
21
0.000000
0
LINE
5
48
100
AcDbEntity
8
0
6
BYBLOCK
62
0
100
AcDbLine
10
-1.000000
20
-0.166667
11
0.000000
21
0.000000
0
LINE
5
49
100
AcDbEntity
8
0
6
BYBLOCK
62
0
100
AcDbLine
10
-1.000000
20
0.166667
11
0.000000
21
0.000000
0
ENDBLK
5
4a
100
AcDbEntity
8
0
100
AcDbBlockEnd
0
BLOCK
5
4b
100
AcDbEntity
8
0
100
AcDbBlockBegin
2
HALF
70
0
10
0.0
20
0.0
30
0.0
3
HALF
1

0
SOLID
5
4c
100
AcDbEntity
8
0
6
BYBLOCK
62
0
100
AcDbTrace
10
-1.000000
20
0.166667
11
-1.000000
21
-0.166667
12
0.000000
22
0.000000
13
0.000000
23
0.000000
0
ENDBLK
5
4d
100
AcDbEntity
8
0
100
AcDbBlockEnd
0
BLOCK
5
4e
100
AcDbEntity
8
0
100
AcDbBlockBegin
2
CLOSEDBLANK
70
0
10
0.0
20
0.0
30
0.0
3
CLOSEDBLANK
1

0
LINE
5
4f
100
AcDbEntity
8
0
6
BYBLOCK
62
0
100
AcDbLine
10
-1.000000
20
0.166667
11
-1.000000
21
-0.166667
0
LINE
5
50
100
AcDbEntity
8
0
6
BYBLOCK
62
0
100
AcDbLine
10
0.000000
20
0.000000
11
-1.000000
21
-0.166667
0
LINE
5
51
100
AcDbEntity
8
0
6
BYBLOCK
62
0
100
AcDbLine
10
-1.000000
20
0.166667
11
0.000000
21
0.000000
0
ENDBLK
5
52
100
AcDbEntity
8
0
100
AcDbBlockEnd
0
BLOCK
5
53
100
AcDbEntity
8
0
100
AcDbBlockBegin
2
HALFCLOSE_R
70
0
10
0.0
20
0.0
30
0.0
3
HALFCLOSE_R
1

0
LINE
5
54
100
AcDbEntity
8
0
6
BYBLOCK
62
0
100
AcDbLine
10
-1.000000
20
-0.166667
11
-1.000000
21
0.000000
0
LINE
5
55
100
AcDbEntity
8
0
6
BYBLOCK
62
0
100
AcDbLine
10
-1.000000
20
-0.166667
11
0.000000
21
0.000000
0
LINE
5
56
100
AcDbEntity
8
0
6
BYBLOCK
62
0
100
AcDbLine
10
0.000000
20
0.000000
11
-1.000000
21
0.000000
0
ENDBLK
5
57
100
AcDbEntity
8
0
100
AcDbBlockEnd
0
BLOCK
5
58
100
AcDbEntity
8
0
100
AcDbBlockBegin
2
DOT
70
0
10
0.0
20
0.0
30
0.0
3
DOT
1

0
LINE
5
59
100
AcDbEntity
8
0
6
BYBLOCK
62
0
100
AcDbLine
10
0.000000
20
0.000000
11
-1.000000
21
0.000000
0
POLYLINE
5
5a
100
AcDbEntity
8
0
6
BYBLOCK
62
0
100
AcDb2dPolyline
66
1
10
0.0
20
0.0
30
0.0
70
1
40
0.166667
41
0.166667
0
VERTEX
5
5b
100
AcDbEntity
8
0
100
AcDbVertex
100
AcDb2dVertex
62
10
10
-0.083333
20
0.000000
42
1.000000
0
VERTEX
5
5c
100
AcDbEntity
8
0
100
AcDbVertex
100
AcDb2dVertex
62
10
10
0.083333
20
0.000000
42
1.000000
0
SEQEND
5
5d
100
AcDbEntity
8
0
0
ENDBLK
5
5e
100
AcDbEntity
8
0
100
AcDbBlockEnd
0
BLOCK
5
5f
100
AcDbEntity
8
0
100
AcDbBlockBegin
2
HALFOPEN_R
70
0
10
0.0
20
0.0
30
0.0
3
HALFOPEN_R
1

0
LINE
5
60
100
AcDbEntity
8
0
6
BYBLOCK
62
0
100
AcDbLine
10
-1.000000
20
-0.166667
11
0.000000
21
0.000000
0
LINE
5
61
100
AcDbEntity
8
0
6
BYBLOCK
62
0
100
AcDbLine
10
0.000000
20
0.000000
11
-1.000000
21
0.000000
0
ENDBLK
5
62
100
AcDbEntity
8
0
100
AcDbBlockEnd
0
BLOCK
5
63
100
AcDbEntity
8
0
100
AcDbBlockBegin
2
CLOSEDF
70
0
10
0.0
20
0.0
30
0.0
3
CLOSEDF
1

0
SOLID
5
64
100
AcDbEntity
8
0
6
BYBLOCK
62
0
100
AcDbTrace
10
-1.000000
20
0.166667
11
-1.000000
21
-0.166667
12
0.000000
22
0.000000
13
0.000000
23
0.000000
0
ENDBLK
5
65
100
AcDbEntity
8
0
100
AcDbBlockEnd
0
BLOCK
5
66
100
AcDbEntity
8
0
100
AcDbBlockBegin
2
HALF_R
70
0
10
0.0
20
0.0
30
0.0
3
HALF_R
1

0
SOLID
5
67
100
AcDbEntity
8
0
6
BYBLOCK
62
0
100
AcDbTrace
10
-1.000000
20
-0.166667
11
-1.000000
21
0.000000
12
0.000000
22
0.000000
13
0.000000
23
0.000000
0
ENDBLK
5
68
100
AcDbEntity
8
0
100
AcDbBlockEnd
0
ENDSEC
0
SECTION
2
ENTITIES
0
LINE
5
69
100
AcDbEntity
8
1
100
AcDbLine
6
CONTINUOUS
62
5
10
218.250000
20
335.562500
11
218.500000
21
334.312500
0
LINE
5
6a
100
AcDbEntity
8
1
100
AcDbLine
6
CONTINUOUS
62
5
10
219.750000
20
335.875000
11
220.000000
21
334.625000
0
POLYLINE
5
6b
100
AcDbEntity
8
1
6
CONTINUOUS
62
5
100
AcDb2dPolyline
66
1
10
0.0
20
0.0
30
0.0
70
0
0
VERTEX
5
6c
100
AcDbEntity
8
1
100
AcDbVertex
100
AcDb2dVertex
62
5
10
221.750000
20
335.875000
0
VERTEX
5
6d
100
AcDbEntity
8
1
100
AcDbVertex
100
AcDb2dVertex
62
5
10
221.500000
20
334.312500
0
VERTEX
5
6e
100
AcDbEntity
8
1
100
AcDbVertex
100
AcDb2dVertex
62
5
10
220.250000
20
332.437500
0
VERTEX
5
6f
100
AcDbEntity
8
1
100
AcDbVertex
100
AcDb2dVertex
62
5
10
219.250000
20
331.500000
0
SEQEND
5
70
100
AcDbEntity
8
1
0
POLYLINE
5
71
100
AcDbEntity
8
1
6
CONTINUOUS
62
5
100
AcDb2dPolyline
66
1
10
0.0
20
0.0
30
0.0
70
0
0
VERTEX
5
72
100
AcDbEntity
8
1
100
AcDbVertex
100
AcDb2dVertex
62
5
10
217.750000
20
328.687500
0
VERTEX
5
73
100
AcDbEntity
8
1
100
AcDbVertex
100
AcDb2dVertex
62
5
10
215.750000
20
326.187500
0
VERTEX
5
74
100
AcDbEntity
8
1
100
AcDbVertex
100
AcDb2dVertex
62
5
10
213.500000
20
324.625000
0
SEQEND
5
75
100
AcDbEntity
8
1
0
LINE
5
76
100
AcDbEntity
8
1
100
AcDbLine
6
CONTINUOUS
62
5
10
216.250000
20
326.812500
11
216.250000
21
321.500000
0
POLYLINE
5
77
100
AcDbEntity
8
1
6
CONTINUOUS
62
5
100
AcDb2dPolyline
66
1
10
0.0
20
0.0
30
0.0
70
0
0
VERTEX
5
78
100
AcDbEntity
8
1
100
AcDbVertex
100
AcDb2dVertex
62
5
10
223.250000
20
326.187500
0
VERTEX
5
79
100
AcDbEntity
8
1
100
AcDbVertex
100
AcDb2dVertex
62
5
10
223.500000
20
326.187500
0
VERTEX
5
7a
100
AcDbEntity
8
1
100
AcDbVertex
100
AcDb2dVertex
62
5
10
225.250000
20
324.937500
0
SEQEND
5
7b
100
AcDbEntity
8
1
0
LINE
5
7c
100
AcDbEntity
8
1
100
AcDbLine
6
CONTINUOUS
62
5
10
223.250000
20
329.000000
11
223.250000
21
321.500000
0
POLYLINE
5
7d
100
AcDbEntity
8
1
6
CONTINUOUS
62
5
100
AcDb2dPolyline
66
1
10
0.0
20
0.0
30
0.0
70
0
0
VERTEX
5
7e
100
AcDbEntity
8
1
100
AcDbVertex
100
AcDb2dVertex
62
5
10
231.250000
20
329.625000
0
VERTEX
5
7f
100
AcDbEntity
8
1
100
AcDbVertex
100
AcDb2dVertex
62
5
10
230.500000
20
328.375000
0
VERTEX
5
80
100
AcDbEntity
8
1
100
AcDbVertex
100
AcDb2dVertex
62
5
10
229.750000
20
327.437500
0
VERTEX
5
81
100
AcDbEntity
8
1
100
AcDbVertex
100
AcDb2dVertex
62
5
10
228.750000
20
326.500000
0
SEQEND
5
82
100
AcDbEntity
8
1
0
POLYLINE
5
83
100
AcDbEntity
8
1
6
CONTINUOUS
62
5
100
AcDb2dPolyline
66
1
10
0.0
20
0.0
30
0.0
70
0
0
VERTEX
5
84
100
AcDbEntity
8
1
100
AcDbVertex
100
AcDb2dVertex
62
5
10
231.000000
20
329.000000
0
VERTEX
5
85
100
AcDbEntity
8
1
100
AcDbVertex
100
AcDb2dVertex
62
5
10
233.250000
20
329.000000
0
VERTEX
5
86
100
AcDbEntity
8
1
100
AcDbVertex
100
AcDb2dVertex
62
5
10
232.000000
20
327.125000
0
SEQEND
5
87
100
AcDbEntity
8
1
0
POLYLINE
5
88
100
AcDbEntity
8
1
6
CONTINUOUS
62
5
100
AcDb2dPolyline
66
1
10
0.0
20
0.0
30
0.0
70
0
0
VERTEX
5
89
100
AcDbEntity
8
1
100
AcDbVertex
100
AcDb2dVertex
62
5
10
229.750000
20
327.125000
0
VERTEX
5
8a
100
AcDbEntity
8
1
100
AcDbVertex
100
AcDb2dVertex
62
5
10
234.250000
20
327.125000
0
VERTEX
5
8b
100
AcDbEntity
8
1
100
AcDbVertex
100
AcDb2dVertex
62
5
10
234.250000
20
324.312500
0
VERTEX
5
8c
100
AcDbEntity
8
1
100
AcDbVertex
100
AcDb2dVertex
62
5
10
229.750000
20
324.312500
0
SEQEND
5
8d
100
AcDbEntity
8
1
0
LINE
5
8e
100
AcDbEntity
8
1
100
AcDbLine
6
CONTINUOUS
62
5
10
232.000000
20
327.125000
11
232.000000
21
324.312500
0
POLYLINE
5
8f
100
AcDbEntity
8
1
6
CONTINUOUS
62
5
100
AcDb2dPolyline
66
1
10
0.0
20
0.0
30
0.0
70
0
0
VERTEX
5
90
100
AcDbEntity
8
1
100
AcDbVertex
100
AcDb2dVertex
62
5
10
229.750000
20
327.125000
0
VERTEX
5
91
100
AcDbEntity
8
1
100
AcDbVertex
100
AcDb2dVertex
62
5
10
229.750000
20
321.812500
0
VERTEX
5
92
100
AcDbEntity
8
1
100
AcDbVertex
100
AcDb2dVertex
62
5
10
230.250000
20
321.187500
0
VERTEX
5
93
100
AcDbEntity
8
1
100
AcDbVertex
100
AcDb2dVertex
62
5
10
235.250000
20
321.187500
0
VERTEX
5
94
100
AcDbEntity
8
1
100
AcDbVertex
100
AcDb2dVertex
62
5
10
235.250000
20
322.437500
0
SEQEND
5
95
100
AcDbEntity
8
1
0
POLYLINE
5
96
100
AcDbEntity
8
1
6
CONTINUOUS
62
5
100
AcDb2dPolyline
66
1
10
0.0
20
0.0
30
0.0
70
0
0
VERTEX
5
97
100
AcDbEntity
8
1
100
AcDbVertex
100
AcDb2dVertex
62
5
10
227.250000
20
336.187500
0
VERTEX
5
98
100
AcDbEntity
8
1
100
AcDbVertex
100
AcDb2dVertex
62
5
10
227.500000
20
336.187500
0
VERTEX
5
99
100
AcDbEntity
8
1
100
AcDbVertex
100
AcDb2dVertex
62
5
10
229.250000
20
334.937500
0
SEQEND
5
9a
100
AcDbEntity
8
1
0
LINE
5
9b
100
AcDbEntity
8
1
100
AcDbLine
6
CONTINUOUS
62
5
10
227.250000
20
339.000000
11
227.250000
21
331.500000
0
POLYLINE
5
9c
100
AcDbEntity
8
1
6
CONTINUOUS
62
5
100
AcDb2dPolyline
66
1
10
0.0
20
0.0
30
0.0
70
0
0
VERTEX
5
9d
100
AcDbEntity
8
1
100
AcDbVertex
100
AcDb2dVertex
62
5
10
233.500000
20
339.000000
0
VERTEX
5
9e
100
AcDbEntity
8
1
100
AcDbVertex
100
AcDb2dVertex
62
5
10
233.500000
20
333.375000
0
VERTEX
5
9f
100
AcDbEntity
8
1
100
AcDbVertex
100
AcDb2dVertex
62
5
10
233.000000
20
332.125000
0
VERTEX
5
a0
100
AcDbEntity
8
1
100
AcDbVertex
100
AcDb2dVertex
62
5
10
232.500000
20
331.187500
0
SEQEND
5
a1
100
AcDbEntity
8
1
0
POLYLINE
5
a2
100
AcDbEntity
8
1
6
CONTINUOUS
62
5
100
AcDb2dPolyline
66
1
10
0.0
20
0.0
30
0.0
70
0
0
VERTEX
5
a3
100
AcDbEntity
8
1
100
AcDbVertex
100
AcDb2dVertex
62
5
10
237.500000
20
331.500000
0
VERTEX
5
a4
100
AcDbEntity
8
1
100
AcDbVertex
100
AcDb2dVertex
62
5
10
238.500000
20
330.875000
0
VERTEX
5
a5
100
AcDbEntity
8
1
100
AcDbVertex
100
AcDb2dVertex
62
5
10
238.500000
20
339.000000
0
VERTEX
5
a6
100
AcDbEntity
8
1
100
AcDbVertex
100
AcDb2dVertex
62
5
10
233.500000
20
339.000000
0
SEQEND
5
a7
100
AcDbEntity
8
1
0
LINE
5
a8
100
AcDbEntity
8
1
100
AcDbLine
6
CONTINUOUS
62
5
10
233.500000
20
336.500000
11
238.500000
21
336.500000
0
LINE
5
a9
100
AcDbEntity
8
1
100
AcDbLine
6
CONTINUOUS
62
5
10
236.000000
20
339.000000
11
236.000000
21
330.875000
0
LINE
5
aa
100
AcDbEntity
8
1
100
AcDbLine
6
CONTINUOUS
62
5
10
233.500000
20
334.000000
11
238.500000
21
334.000000
0
POLYLINE
5
ab
100
AcDbEntity
8
1
6
CONTINUOUS
62
5
100
AcDb2dPolyline
66
1
10
0.0
20
0.0
30
0.0
70
0
0
VERTEX
5
ac
100
AcDbEntity
8
1
100
AcDbVertex
100
AcDb2dVertex
62
5
10
241.250000
20
339.312500
0
VERTEX
5
ad
100
AcDbEntity
8
1
100
AcDbVertex
100
AcDb2dVertex
62
5
10
242.000000
20
338.062500
0
VERTEX
5
ae
100
AcDbEntity
8
1
100
AcDbVertex
100
AcDb2dVertex
62
5
10
242.750000
20
336.500000
0
VERTEX
5
af
100
AcDbEntity
8
1
100
AcDbVertex
100
AcDb2dVertex
62
5
10
243.000000
20
335.250000
0
VERTEX
5
b0
100
AcDbEntity
8
1
100
AcDbVertex
100
AcDb2dVertex
62
5
10
242.750000
20
334.000000
0
VERTEX
5
b1
100
AcDbEntity
8
1
100
AcDbVertex
100
AcDb2dVertex
62
5
10
242.250000
20
332.437500
0
VERTEX
5
b2
100
AcDbEntity
8
1
100
AcDbVertex
100
AcDb2dVertex
62
5
10
241.250000
20
330.875000
0
SEQEND
5
b3
100
AcDbEntity
8
1
0
LINE
5
b4
100
AcDbEntity
8
1
100
AcDbLine
6
CONTINUOUS
62
5
10
197.250000
20
326.187500
11
202.250000
21
326.187500
0
POLYLINE
5
b5
100
AcDbEntity
8
1
6
CONTINUOUS
62
5
100
AcDb2dPolyline
66
1
10
0.0
20
0.0
30
0.0
70
0
0
VERTEX
5
b6
100
AcDbEntity
8
1
100
AcDbVertex
100
AcDb2dVertex
62
5
10
199.750000
20
328.062500
0
VERTEX
5
b7
100
AcDbEntity
8
1
100
AcDbVertex
100
AcDb2dVertex
62
5
10
199.750000
20
321.812500
0
VERTEX
5
b8
100
AcDbEntity
8
1
100
AcDbVertex
100
AcDb2dVertex
62
5
10
199.250000
20
321.812500
0
SEQEND
5
b9
100
AcDbEntity
8
1
0
LINE
5
ba
100
AcDbEntity
8
1
100
AcDbLine
6
CONTINUOUS
62
5
10
198.500000
20
324.625000
11
197.250000
21
322.750000
0
LINE
5
bb
100
AcDbEntity
8
1
100
AcDbLine
6
CONTINUOUS
62
5
10
201.250000
20
324.625000
11
202.500000
21
323.062500
0
POLYLINE
5
bc
100
AcDbEntity
8
1
6
CONTINUOUS
62
5
100
AcDb2dPolyline
66
1
10
0.0
20
0.0
30
0.0
70
0
0
VERTEX
5
bd
100
AcDbEntity
8
1
100
AcDbVertex
100
AcDb2dVertex
62
5
10
205.750000
20
325.562500
0
VERTEX
5
be
100
AcDbEntity
8
1
100
AcDbVertex
100
AcDb2dVertex
62
5
10
205.750000
20
327.750000
0
VERTEX
5
bf
100
AcDbEntity
8
1
100
AcDbVertex
100
AcDb2dVertex
62
5
10
209.750000
20
327.750000
0
VERTEX
5
c0
100
AcDbEntity
8
1
100
AcDbVertex
100
AcDb2dVertex
62
5
10
209.750000
20
326.812500
0
VERTEX
5
c1
100
AcDbEntity
8
1
100
AcDbVertex
100
AcDb2dVertex
62
5
10
209.500000
20
325.250000
0
VERTEX
5
c2
100
AcDbEntity
8
1
100
AcDbVertex
100
AcDb2dVertex
62
5
10
209.000000
20
324.000000
0
VERTEX
5
c3
100
AcDbEntity
8
1
100
AcDbVertex
100
AcDb2dVertex
62
5
10
208.500000
20
323.062500
0
VERTEX
5
c4
100
AcDbEntity
8
1
100
AcDbVertex
100
AcDb2dVertex
62
5
10
207.500000
20
321.812500
0
SEQEND
5
c5
100
AcDbEntity
8
1
0
POLYLINE
5
c6
100
AcDbEntity
8
1
6
CONTINUOUS
62
5
100
AcDb2dPolyline
66
1
10
0.0
20
0.0
30
0.0
70
0
0
VERTEX
5
c7
100
AcDbEntity
8
1
100
AcDbVertex
100
AcDb2dVertex
62
5
10
177.750000
20
335.250000
0
VERTEX
5
c8
100
AcDbEntity
8
1
100
AcDbVertex
100
AcDb2dVertex
62
5
10
178.750000
20
336.500000
0
VERTEX
5
c9
100
AcDbEntity
8
1
100
AcDbVertex
100
AcDb2dVertex
62
5
10
179.250000
20
337.437500
0
VERTEX
5
ca
100
AcDbEntity
8
1
100
AcDbVertex
100
AcDb2dVertex
62
5
10
181.750000
20
337.437500
0
VERTEX
5
cb
100
AcDbEntity
8
1
100
AcDbVertex
100
AcDb2dVertex
62
5
10
181.750000
20
337.125000
0
VERTEX
5
cc
100
AcDbEntity
8
1
100
AcDbVertex
100
AcDb2dVertex
62
5
10
181.000000
20
335.250000
0
VERTEX
5
cd
100
AcDbEntity
8
1
100
AcDbVertex
100
AcDb2dVertex
62
5
10
179.750000
20
333.375000
0
VERTEX
5
ce
100
AcDbEntity
8
1
100
AcDbVertex
100
AcDb2dVertex
62
5
10
178.250000
20
331.812500
0
SEQEND
5
cf
100
AcDbEntity
8
1
0
POLYLINE
5
d0
100
AcDbEntity
8
1
6
CONTINUOUS
62
5
100
AcDb2dPolyline
66
1
10
0.0
20
0.0
30
0.0
70
0
0
VERTEX
5
d1
100
AcDbEntity
8
1
100
AcDbVertex
100
AcDb2dVertex
62
5
10
173.750000
20
327.750000
0
VERTEX
5
d2
100
AcDbEntity
8
1
100
AcDbVertex
100
AcDb2dVertex
62
5
10
173.750000
20
322.437500
0
VERTEX
5
d3
100
AcDbEntity
8
1
100
AcDbVertex
100
AcDb2dVertex
62
5
10
174.250000
20
321.812500
0
VERTEX
5
d4
100
AcDbEntity
8
1
100
AcDbVertex
100
AcDb2dVertex
62
5
10
177.750000
20
321.812500
0
SEQEND
5
d5
100
AcDbEntity
8
1
0
LINE
5
d6
100
AcDbEntity
8
1
100
AcDbLine
6
CONTINUOUS
62
5
10
177.250000
20
325.875000
11
173.750000
21
324.937500
0
POLYLINE
5
d7
100
AcDbEntity
8
1
6
CONTINUOUS
62
5
100
AcDb2dPolyline
66
1
10
0.0
20
0.0
30
0.0
70
1
0
VERTEX
5
d8
100
AcDbEntity
8
1
100
AcDbVertex
100
AcDb2dVertex
62
5
10
177.250000
20
327.750000
0
VERTEX
5
d9
100
AcDbEntity
8
1
100
AcDbVertex
100
AcDb2dVertex
62
5
10
177.750000
20
328.375000
0
VERTEX
5
da
100
AcDbEntity
8
1
100
AcDbVertex
100
AcDb2dVertex
62
5
10
178.000000
20
328.375000
0
VERTEX
5
db
100
AcDbEntity
8
1
100
AcDbVertex
100
AcDb2dVertex
62
5
10
178.500000
20
327.750000
0
VERTEX
5
dc
100
AcDbEntity
8
1
100
AcDbVertex
100
AcDb2dVertex
62
5
10
178.500000
20
327.437500
0
VERTEX
5
dd
100
AcDbEntity
8
1
100
AcDbVertex
100
AcDb2dVertex
62
5
10
178.000000
20
326.812500
0
VERTEX
5
de
100
AcDbEntity
8
1
100
AcDbVertex
100
AcDb2dVertex
62
5
10
177.750000
20
326.812500
0
VERTEX
5
df
100
AcDbEntity
8
1
100
AcDbVertex
100
AcDb2dVertex
62
5
10
177.250000
20
327.437500
0
VERTEX
5
e0
100
AcDbEntity
8
1
100
AcDbVertex
100
AcDb2dVertex
62
5
10
177.250000
20
327.750000
0
SEQEND
5
e1
100
AcDbEntity
8
1
0
POLYLINE
5
e2
100
AcDbEntity
8
1
6
CONTINUOUS
62
5
100
AcDb2dPolyline
66
1
10
0.0
20
0.0
30
0.0
70
0
0
VERTEX
5
e3
100
AcDbEntity
8
1
100
AcDbVertex
100
AcDb2dVertex
62
5
10
182.500000
20
325.562500
0
VERTEX
5
e4
100
AcDbEntity
8
1
100
AcDbVertex
100
AcDb2dVertex
62
5
10
184.500000
20
325.562500
0
VERTEX
5
e5
100
AcDbEntity
8
1
100
AcDbVertex
100
AcDb2dVertex
62
5
10
184.250000
20
322.437500
0
SEQEND
5
e6
100
AcDbEntity
8
1
0
LINE
5
e7
100
AcDbEntity
8
1
100
AcDbLine
6
CONTINUOUS
62
5
10
181.750000
20
322.437500
11
186.000000
21
322.437500
0
POLYLINE
5
e8
100
AcDbEntity
8
1
6
CONTINUOUS
62
5
100
AcDb2dPolyline
66
1
10
0.0
20
0.0
30
0.0
70
0
0
VERTEX
5
e9
100
AcDbEntity
8
1
100
AcDbVertex
100
AcDb2dVertex
62
5
10
189.000000
20
327.437500
0
VERTEX
5
ea
100
AcDbEntity
8
1
100
AcDbVertex
100
AcDb2dVertex
62
5
10
194.250000
20
327.437500
0
VERTEX
5
eb
100
AcDbEntity
8
1
100
AcDbVertex
100
AcDb2dVertex
62
5
10
194.250000
20
327.125000
0
VERTEX
5
ec
100
AcDbEntity
8
1
100
AcDbVertex
100
AcDb2dVertex
62
5
10
192.500000
20
325.250000
0
VERTEX
5
ed
100
AcDbEntity
8
1
100
AcDbVertex
100
AcDb2dVertex
62
5
10
191.750000
20
325.250000
0
SEQEND
5
ee
100
AcDbEntity
8
1
0
POLYLINE
5
ef
100
AcDbEntity
8
1
6
CONTINUOUS
62
5
100
AcDb2dPolyline
66
1
10
0.0
20
0.0
30
0.0
70
0
0
VERTEX
5
f0
100
AcDbEntity
8
1
100
AcDbVertex
100
AcDb2dVertex
62
5
10
191.750000
20
326.187500
0
VERTEX
5
f1
100
AcDbEntity
8
1
100
AcDbVertex
100
AcDb2dVertex
62
5
10
191.750000
20
324.625000
0
VERTEX
5
f2
100
AcDbEntity
8
1
100
AcDbVertex
100
AcDb2dVertex
62
5
10
191.000000
20
322.750000
0
VERTEX
5
f3
100
AcDbEntity
8
1
100
AcDbVertex
100
AcDb2dVertex
62
5
10
190.000000
20
321.500000
0
SEQEND
5
f4
100
AcDbEntity
8
1
0
POLYLINE
5
f5
100
AcDbEntity
8
1
6
CONTINUOUS
62
5
100
AcDb2dPolyline
66
1
10
0.0
20
0.0
30
0.0
70
0
0
VERTEX
5
f6
100
AcDbEntity
8
1
100
AcDbVertex
100
AcDb2dVertex
62
5
10
185.500000
20
339.000000
0
VERTEX
5
f7
100
AcDbEntity
8
1
100
AcDbVertex
100
AcDb2dVertex
62
5
10
185.500000
20
333.375000
0
VERTEX
5
f8
100
AcDbEntity
8
1
100
AcDbVertex
100
AcDb2dVertex
62
5
10
185.000000
20
332.125000
0
VERTEX
5
f9
100
AcDbEntity
8
1
100
AcDbVertex
100
AcDb2dVertex
62
5
10
184.500000
20
331.187500
0
SEQEND
5
fa
100
AcDbEntity
8
1
0
POLYLINE
5
fb
100
AcDbEntity
8
1
6
CONTINUOUS
62
5
100
AcDb2dPolyline
66
1
10
0.0
20
0.0
30
0.0
70
0
0
VERTEX
5
fc
100
AcDbEntity
8
1
100
AcDbVertex
100
AcDb2dVertex
62
5
10
189.500000
20
331.500000
0
VERTEX
5
fd
100
AcDbEntity
8
1
100
AcDbVertex
100
AcDb2dVertex
62
5
10
190.500000
20
330.875000
0
VERTEX
5
fe
100
AcDbEntity
8
1
100
AcDbVertex
100
AcDb2dVertex
62
5
10
190.500000
20
339.000000
0
VERTEX
5
ff
100
AcDbEntity
8
1
100
AcDbVertex
100
AcDb2dVertex
62
5
10
185.500000
20
339.000000
0
SEQEND
5
100
100
AcDbEntity
8
1
0
LINE
5
101
100
AcDbEntity
8
1
100
AcDbLine
6
CONTINUOUS
62
5
10
185.500000
20
336.500000
11
190.500000
21
336.500000
0
LINE
5
102
100
AcDbEntity
8
1
100
AcDbLine
6
CONTINUOUS
62
5
10
188.000000
20
339.000000
11
188.000000
21
330.875000
0
LINE
5
103
100
AcDbEntity
8
1
100
AcDbLine
6
CONTINUOUS
62
5
10
185.500000
20
334.000000
11
190.500000
21
334.000000
0
POLYLINE
5
104
100
AcDbEntity
8
1
6
CONTINUOUS
62
5
100
AcDb2dPolyline
66
1
10
0.0
20
0.0
30
0.0
70
0
0
VERTEX
5
105
100
AcDbEntity
8
1
100
AcDbVertex
100
AcDb2dVertex
62
5
10
198.500000
20
339.312500
0
VERTEX
5
106
100
AcDbEntity
8
1
100
AcDbVertex
100
AcDb2dVertex
62
5
10
197.750000
20
338.062500
0
VERTEX
5
107
100
AcDbEntity
8
1
100
AcDbVertex
100
AcDb2dVertex
62
5
10
197.000000
20
336.500000
0
VERTEX
5
108
100
AcDbEntity
8
1
100
AcDbVertex
100
AcDb2dVertex
62
5
10
196.750000
20
335.250000
0
VERTEX
5
109
100
AcDbEntity
8
1
100
AcDbVertex
100
AcDb2dVertex
62
5
10
197.000000
20
334.000000
0
VERTEX
5
10a
100
AcDbEntity
8
1
100
AcDbVertex
100
AcDb2dVertex
62
5
10
197.500000
20
332.437500
0
VERTEX
5
10b
100
AcDbEntity
8
1
100
AcDbVertex
100
AcDb2dVertex
62
5
10
198.500000
20
330.875000
0
SEQEND
5
10c
100
AcDbEntity
8
1
0
POLYLINE
5
10d
100
AcDbEntity
8
1
6
CONTINUOUS
62
5
100
AcDb2dPolyline
66
1
10
0.0
20
0.0
30
0.0
70
0
0
VERTEX
5
10e
100
AcDbEntity
8
1
100
AcDbVertex
100
AcDb2dVertex
62
5
10
201.750000
20
339.312500
0
VERTEX
5
10f
100
AcDbEntity
8
1
100
AcDbVertex
100
AcDb2dVertex
62
5
10
201.250000
20
337.125000
0
VERTEX
5
110
100
AcDbEntity
8
1
100
AcDbVertex
100
AcDb2dVertex
62
5
10
200.250000
20
334.625000
0
SEQEND
5
111
100
AcDbEntity
8
1
0
LINE
5
112
100
AcDbEntity
8
1
100
AcDbLine
6
CONTINUOUS
62
5
10
201.250000
20
337.125000
11
201.250000
21
330.875000
0
POLYLINE
5
113
100
AcDbEntity
8
1
6
CONTINUOUS
62
5
100
AcDb2dPolyline
66
1
10
0.0
20
0.0
30
0.0
70
0
0
VERTEX
5
114
100
AcDbEntity
8
1
100
AcDbVertex
100
AcDb2dVertex
62
5
10
206.500000
20
339.312500
0
VERTEX
5
115
100
AcDbEntity
8
1
100
AcDbVertex
100
AcDb2dVertex
62
5
10
202.750000
20
338.687500
0
VERTEX
5
116
100
AcDbEntity
8
1
100
AcDbVertex
100
AcDb2dVertex
62
5
10
202.750000
20
333.062500
0
SEQEND
5
117
100
AcDbEntity
8
1
0
LINE
5
118
100
AcDbEntity
8
1
100
AcDbLine
6
CONTINUOUS
62
5
10
202.000000
20
332.750000
11
204.750000
21
333.687500
0
LINE
5
119
100
AcDbEntity
8
1
100
AcDbLine
6
CONTINUOUS
62
5
10
202.750000
20
336.500000
11
207.000000
21
336.500000
0
POLYLINE
5
11a
100
AcDbEntity
8
1
6
CONTINUOUS
62
5
100
AcDb2dPolyline
66
1
10
0.0
20
0.0
30
0.0
70
0
0
VERTEX
5
11b
100
AcDbEntity
8
1
100
AcDbVertex
100
AcDb2dVertex
62
5
10
204.750000
20
339.000000
0
VERTEX
5
11c
100
AcDbEntity
8
1
100
AcDbVertex
100
AcDb2dVertex
62
5
10
204.750000
20
336.812500
0
VERTEX
5
11d
100
AcDbEntity
8
1
100
AcDbVertex
100
AcDb2dVertex
62
5
10
205.000000
20
334.937500
0
VERTEX
5
11e
100
AcDbEntity
8
1
100
AcDbVertex
100
AcDb2dVertex
62
5
10
205.250000
20
334.000000
0
VERTEX
5
11f
100
AcDbEntity
8
1
100
AcDbVertex
100
AcDb2dVertex
62
5
10
205.750000
20
332.750000
0
VERTEX
5
120
100
AcDbEntity
8
1
100
AcDbVertex
100
AcDb2dVertex
62
5
10
206.250000
20
332.125000
0
VERTEX
5
121
100
AcDbEntity
8
1
100
AcDbVertex
100
AcDb2dVertex
62
5
10
207.000000
20
331.812500
0
VERTEX
5
122
100
AcDbEntity
8
1
100
AcDbVertex
100
AcDb2dVertex
62
5
10
207.250000
20
333.687500
0
SEQEND
5
123
100
AcDbEntity
8
1
0
LINE
5
124
100
AcDbEntity
8
1
100
AcDbLine
6
CONTINUOUS
62
5
10
202.500000
20
331.812500
11
205.250000
21
331.812500
0
POLYLINE
5
125
100
AcDbEntity
8
1
6
CONTINUOUS
62
5
100
AcDb2dPolyline
66
1
10
0.0
20
0.0
30
0.0
70
0
0
VERTEX
5
126
100
AcDbEntity
8
1
100
AcDbVertex
100
AcDb2dVertex
62
5
10
209.750000
20
335.562500
0
VERTEX
5
127
100
AcDbEntity
8
1
100
AcDbVertex
100
AcDb2dVertex
62
5
10
209.750000
20
337.750000
0
VERTEX
5
128
100
AcDbEntity
8
1
100
AcDbVertex
100
AcDb2dVertex
62
5
10
213.750000
20
337.750000
0
VERTEX
5
129
100
AcDbEntity
8
1
100
AcDbVertex
100
AcDb2dVertex
62
5
10
213.750000
20
336.812500
0
VERTEX
5
12a
100
AcDbEntity
8
1
100
AcDbVertex
100
AcDb2dVertex
62
5
10
213.500000
20
335.250000
0
VERTEX
5
12b
100
AcDbEntity
8
1
100
AcDbVertex
100
AcDb2dVertex
62
5
10
213.000000
20
334.000000
0
VERTEX
5
12c
100
AcDbEntity
8
1
100
AcDbVertex
100
AcDb2dVertex
62
5
10
212.500000
20
333.062500
0
VERTEX
5
12d
100
AcDbEntity
8
1
100
AcDbVertex
100
AcDb2dVertex
62
5
10
211.500000
20
331.812500
0
SEQEND
5
12e
100
AcDbEntity
8
1
0
POLYLINE
5
12f
100
AcDbEntity
8
1
6
DOT2
62
5
100
AcDb2dPolyline
66
1
10
0.0
20
0.0
30
0.0
70
1
0
VERTEX
5
130
100
AcDbEntity
8
1
100
AcDbVertex
100
AcDb2dVertex
62
5
10
217.841824
20
216.600000
0
VERTEX
5
131
100
AcDbEntity
8
1
100
AcDbVertex
100
AcDb2dVertex
62
5
10
218.466824
20
216.600000
0
VERTEX
5
132
100
AcDbEntity
8
1
100
AcDbVertex
100
AcDb2dVertex
62
5
10
219.091824
20
216.287500
0
VERTEX
5
133
100
AcDbEntity
8
1
100
AcDbVertex
100
AcDb2dVertex
62
5
10
219.404324
20
215.662500
0
VERTEX
5
134
100
AcDbEntity
8
1
100
AcDbVertex
100
AcDb2dVertex
62
5
10
219.404324
20
214.412500
0
VERTEX
5
135
100
AcDbEntity
8
1
100
AcDbVertex
100
AcDb2dVertex
62
5
10
219.091824
20
213.787500
0
VERTEX
5
136
100
AcDbEntity
8
1
100
AcDbVertex
100
AcDb2dVertex
62
5
10
217.216824
20
212.537500
0
VERTEX
5
137
100
AcDbEntity
8
1
100
AcDbVertex
100
AcDb2dVertex
62
5
10
216.591824
20
211.600000
0
VERTEX
5
138
100
AcDbEntity
8
1
100
AcDbVertex
100
AcDb2dVertex
62
5
10
216.591824
20
210.350000
0
VERTEX
5
139
100
AcDbEntity
8
1
100
AcDbVertex
100
AcDb2dVertex
62
5
10
216.904324
20
209.725000
0
VERTEX
5
13a
100
AcDbEntity
8
1
100
AcDbVertex
100
AcDb2dVertex
62
5
10
217.216824
20
209.412500
0
VERTEX
5
13b
100
AcDbEntity
8
1
100
AcDbVertex
100
AcDb2dVertex
62
5
10
217.841824
20
209.100000
0
VERTEX
5
13c
100
AcDbEntity
8
1
100
AcDbVertex
100
AcDb2dVertex
62
5
10
218.466824
20
209.100000
0
VERTEX
5
13d
100
AcDbEntity
8
1
100
AcDbVertex
100
AcDb2dVertex
62
5
10
219.091824
20
209.412500
0
VERTEX
5
13e
100
AcDbEntity
8
1
100
AcDbVertex
100
AcDb2dVertex
62
5
10
219.404324
20
209.725000
0
VERTEX
5
13f
100
AcDbEntity
8
1
100
AcDbVertex
100
AcDb2dVertex
62
5
10
219.716824
20
210.350000
0
VERTEX
5
140
100
AcDbEntity
8
1
100
AcDbVertex
100
AcDb2dVertex
62
5
10
219.716824
20
211.600000
0
VERTEX
5
141
100
AcDbEntity
8
1
100
AcDbVertex
100
AcDb2dVertex
62
5
10
219.091824
20
212.537500
0
VERTEX
5
142
100
AcDbEntity
8
1
100
AcDbVertex
100
AcDb2dVertex
62
5
10
217.216824
20
213.787500
0
VERTEX
5
143
100
AcDbEntity
8
1
100
AcDbVertex
100
AcDb2dVertex
62
5
10
216.904324
20
214.412500
0
VERTEX
5
144
100
AcDbEntity
8
1
100
AcDbVertex
100
AcDb2dVertex
62
5
10
216.904324
20
215.662500
0
VERTEX
5
145
100
AcDbEntity
8
1
100
AcDbVertex
100
AcDb2dVertex
62
5
10
217.216824
20
216.287500
0
VERTEX
5
146
100
AcDbEntity
8
1
100
AcDbVertex
100
AcDb2dVertex
62
5
10
217.841824
20
216.600000
0
SEQEND
5
147
100
AcDbEntity
8
1
0
LINE
5
148
100
AcDbEntity
8
1
100
AcDbLine
6
CONTINUOUS
62
5
10
229.741824
20
181.600000
11
229.341824
21
181.600000
0
ARC
5
149
100
AcDbEntity
8
1
100
AcDbCircle
6
CONTINUOUS
62
5
10
228.841824
20
182.300000
40
0.500000
100
AcDbArc
50
0.000000
51
81.634982
0
LINE
5
14a
100
AcDbEntity
8
1
100
AcDbLine
6
CONTINUOUS
62
5
10
232.858981
20
181.600000
11
233.841824
21
181.600000
0
ARC
5
14b
100
AcDbEntity
8
1
100
AcDbCircle
6
CONTINUOUS
62
5
10
233.541824
20
181.700000
40
0.500000
100
AcDbArc
50
89.999999
51
179.999998
0
LINE
5
14c
100
AcDbEntity
8
1
100
AcDbLine
6
CONTINUOUS
62
5
10
233.541824
20
182.200000
11
234.341824
21
182.200000
0
LINE
5
14d
100
AcDbEntity
8
1
100
AcDbLine
6
CONTINUOUS
62
5
10
200.941824
20
181.600000
11
201.341824
21
181.600000
0
ARC
5
14e
100
AcDbEntity
8
1
100
AcDbCircle
6
CONTINUOUS
62
5
10
201.841824
20
182.300000
40
0.500000
100
AcDbArc
50
98.365017
51
179.999998
0
LINE
5
14f
100
AcDbEntity
8
1
100
AcDbLine
6
CONTINUOUS
62
5
10
197.824667
20
181.600000
11
196.841824
21
181.600000
0
ARC
5
150
100
AcDbEntity
8
1
100
AcDbCircle
6
CONTINUOUS
62
5
10
197.141824
20
181.700000
40
0.500000
100
AcDbArc
50
0.000000
51
89.999999
0
LINE
5
151
100
AcDbEntity
8
1
100
AcDbLine
6
CONTINUOUS
62
5
10
197.141824
20
182.200000
11
196.341824
21
182.200000
0
POLYLINE
5
152
100
AcDbEntity
8
1
6
DOT2
62
5
100
AcDb2dPolyline
66
1
10
0.0
20
0.0
30
0.0
70
0
0
VERTEX
5
153
100
AcDbEntity
8
1
100
AcDbVertex
100
AcDb2dVertex
62
5
10
211.591824
20
214.412500
0
VERTEX
5
154
100
AcDbEntity
8
1
100
AcDbVertex
100
AcDb2dVertex
62
5
10
211.904324
20
215.975000
0
VERTEX
5
155
100
AcDbEntity
8
1
100
AcDbVertex
100
AcDb2dVertex
62
5
10
212.841824
20
216.600000
0
VERTEX
5
156
100
AcDbEntity
8
1
100
AcDbVertex
100
AcDb2dVertex
62
5
10
213.779324
20
216.600000
0
VERTEX
5
157
100
AcDbEntity
8
1
100
AcDbVertex
100
AcDb2dVertex
62
5
10
214.404324
20
216.287500
0
VERTEX
5
158
100
AcDbEntity
8
1
100
AcDbVertex
100
AcDb2dVertex
62
5
10
214.716824
20
215.350000
0
VERTEX
5
159
100
AcDbEntity
8
1
100
AcDbVertex
100
AcDb2dVertex
62
5
10
214.716824
20
214.412500
0
VERTEX
5
15a
100
AcDbEntity
8
1
100
AcDbVertex
100
AcDb2dVertex
62
5
10
214.404324
20
213.475000
0
VERTEX
5
15b
100
AcDbEntity
8
1
100
AcDbVertex
100
AcDb2dVertex
62
5
10
211.591824
20
209.100000
0
VERTEX
5
15c
100
AcDbEntity
8
1
100
AcDbVertex
100
AcDb2dVertex
62
5
10
214.716824
20
209.100000
0
VERTEX
5
15d
100
AcDbEntity
8
1
100
AcDbVertex
100
AcDb2dVertex
62
5
10
214.716824
20
210.037500
0
SEQEND
5
15e
100
AcDbEntity
8
1
0
LINE
5
15f
100
AcDbEntity
8
1
100
AcDbLine
6
CONTINUOUS
62
5
10
201.341824
20
183.800000
11
201.341824
21
209.850000
0
LINE
5
160
100
AcDbEntity
8
1
100
AcDbLine
6
CONTINUOUS
62
5
10
229.341824
20
183.800000
11
229.341824
21
209.850000
0
POLYLINE
5
161
100
AcDbEntity
8
1
6
CONTINUOUS
62
5
100
AcDb2dPolyline
66
1
10
0.0
20
0.0
30
0.0
70
0
0
VERTEX
5
162
100
AcDbEntity
8
1
100
AcDbVertex
100
AcDb2dVertex
62
5
10
215.341824
20
207.850000
0
VERTEX
5
163
100
AcDbEntity
8
1
100
AcDbVertex
100
AcDb2dVertex
62
5
10
201.341824
20
207.850000
0
VERTEX
5
164
100
AcDbEntity
8
1
100
AcDbVertex
100
AcDb2dVertex
62
5
10
207.341824
20
208.850000
0
VERTEX
5
165
100
AcDbEntity
8
1
100
AcDbVertex
100
AcDb2dVertex
62
5
10
207.341824
20
206.850000
0
VERTEX
5
166
100
AcDbEntity
8
1
100
AcDbVertex
100
AcDb2dVertex
62
5
10
201.341824
20
207.850000
0
VERTEX
5
167
100
AcDbEntity
8
1
100
AcDbVertex
100
AcDb2dVertex
62
5
10
207.341824
20
208.350000
0
VERTEX
5
168
100
AcDbEntity
8
1
100
AcDbVertex
100
AcDb2dVertex
62
5
10
207.341824
20
207.350000
0
VERTEX
5
169
100
AcDbEntity
8
1
100
AcDbVertex
100
AcDb2dVertex
62
5
10
201.341824
20
207.850000
0
SEQEND
5
16a
100
AcDbEntity
8
1
0
POLYLINE
5
16b
100
AcDbEntity
8
1
6
CONTINUOUS
62
5
100
AcDb2dPolyline
66
1
10
0.0
20
0.0
30
0.0
70
0
0
VERTEX
5
16c
100
AcDbEntity
8
1
100
AcDbVertex
100
AcDb2dVertex
62
5
10
215.341824
20
207.850000
0
VERTEX
5
16d
100
AcDbEntity
8
1
100
AcDbVertex
100
AcDb2dVertex
62
5
10
229.341824
20
207.850000
0
VERTEX
5
16e
100
AcDbEntity
8
1
100
AcDbVertex
100
AcDb2dVertex
62
5
10
223.341824
20
206.850000
0
VERTEX
5
16f
100
AcDbEntity
8
1
100
AcDbVertex
100
AcDb2dVertex
62
5
10
223.341824
20
208.850000
0
VERTEX
5
170
100
AcDbEntity
8
1
100
AcDbVertex
100
AcDb2dVertex
62
5
10
229.341824
20
207.850000
0
VERTEX
5
171
100
AcDbEntity
8
1
100
AcDbVertex
100
AcDb2dVertex
62
5
10
223.341824
20
207.350000
0
VERTEX
5
172
100
AcDbEntity
8
1
100
AcDbVertex
100
AcDb2dVertex
62
5
10
223.341824
20
208.350000
0
VERTEX
5
173
100
AcDbEntity
8
1
100
AcDbVertex
100
AcDb2dVertex
62
5
10
229.341824
20
207.850000
0
SEQEND
5
174
100
AcDbEntity
8
1
0
LINE
5
175
100
AcDbEntity
8
1
100
AcDbLine
6
CONTINUOUS
62
5
10
162.250000
20
335.250000
11
165.250000
21
335.250000
0
LINE
5
176
100
AcDbEntity
8
1
100
AcDbLine
6
CONTINUOUS
62
5
10
161.750000
20
332.437500
11
165.750000
21
332.437500
0
LINE
5
177
100
AcDbEntity
8
1
100
AcDbLine
6
CONTINUOUS
62
5
10
163.750000
20
335.250000
11
163.750000
21
332.437500
0
LINE
5
178
100
AcDbEntity
8
1
100
AcDbLine
6
CONTINUOUS
62
5
10
158.250000
20
327.125000
11
161.000000
21
327.750000
0
LINE
5
179
100
AcDbEntity
8
1
100
AcDbLine
6
CONTINUOUS
62
5
10
158.250000
20
325.250000
11
161.750000
21
326.187500
0
POLYLINE
5
17a
100
AcDbEntity
8
1
6
CONTINUOUS
62
5
100
AcDb2dPolyline
66
1
10
0.0
20
0.0
30
0.0
70
0
0
VERTEX
5
17b
100
AcDbEntity
8
1
100
AcDbVertex
100
AcDb2dVertex
62
5
10
159.250000
20
328.687500
0
VERTEX
5
17c
100
AcDbEntity
8
1
100
AcDbVertex
100
AcDb2dVertex
62
5
10
161.500000
20
323.687500
0
VERTEX
5
17d
100
AcDbEntity
8
1
100
AcDbVertex
100
AcDb2dVertex
62
5
10
161.000000
20
323.687500
0
VERTEX
5
17e
100
AcDbEntity
8
1
100
AcDbVertex
100
AcDb2dVertex
62
5
10
159.500000
20
324.312500
0
VERTEX
5
17f
100
AcDbEntity
8
1
100
AcDbVertex
100
AcDb2dVertex
62
5
10
158.750000
20
324.312500
0
VERTEX
5
180
100
AcDbEntity
8
1
100
AcDbVertex
100
AcDb2dVertex
62
5
10
157.750000
20
323.375000
0
VERTEX
5
181
100
AcDbEntity
8
1
100
AcDbVertex
100
AcDb2dVertex
62
5
10
157.750000
20
322.750000
0
VERTEX
5
182
100
AcDbEntity
8
1
100
AcDbVertex
100
AcDb2dVertex
62
5
10
158.250000
20
322.125000
0
VERTEX
5
183
100
AcDbEntity
8
1
100
AcDbVertex
100
AcDb2dVertex
62
5
10
158.750000
20
321.812500
0
VERTEX
5
184
100
AcDbEntity
8
1
100
AcDbVertex
100
AcDb2dVertex
62
5
10
160.250000
20
321.812500
0
SEQEND
5
185
100
AcDbEntity
8
1
0
POLYLINE
5
186
100
AcDbEntity
8
1
6
CONTINUOUS
62
5
100
AcDb2dPolyline
66
1
10
0.0
20
0.0
30
0.0
70
0
0
VERTEX
5
187
100
AcDbEntity
8
1
100
AcDbVertex
100
AcDb2dVertex
62
5
10
134.500000
20
328.062500
0
VERTEX
5
188
100
AcDbEntity
8
1
100
AcDbVertex
100
AcDb2dVertex
62
5
10
134.500000
20
326.187500
0
VERTEX
5
189
100
AcDbEntity
8
1
100
AcDbVertex
100
AcDb2dVertex
62
5
10
134.250000
20
324.625000
0
VERTEX
5
18a
100
AcDbEntity
8
1
100
AcDbVertex
100
AcDb2dVertex
62
5
10
133.750000
20
323.375000
0
VERTEX
5
18b
100
AcDbEntity
8
1
100
AcDbVertex
100
AcDb2dVertex
62
5
10
133.000000
20
322.125000
0
VERTEX
5
18c
100
AcDbEntity
8
1
100
AcDbVertex
100
AcDb2dVertex
62
5
10
132.750000
20
321.812500
0
SEQEND
5
18d
100
AcDbEntity
8
1
0
POLYLINE
5
18e
100
AcDbEntity
8
1
6
CONTINUOUS
62
5
100
AcDb2dPolyline
66
1
10
0.0
20
0.0
30
0.0
70
0
0
VERTEX
5
18f
100
AcDbEntity
8
1
100
AcDbVertex
100
AcDb2dVertex
62
5
10
136.000000
20
328.375000
0
VERTEX
5
190
100
AcDbEntity
8
1
100
AcDbVertex
100
AcDb2dVertex
62
5
10
136.000000
20
322.125000
0
VERTEX
5
191
100
AcDbEntity
8
1
100
AcDbVertex
100
AcDb2dVertex
62
5
10
136.750000
20
322.437500
0
VERTEX
5
192
100
AcDbEntity
8
1
100
AcDbVertex
100
AcDb2dVertex
62
5
10
137.750000
20
323.375000
0
VERTEX
5
193
100
AcDbEntity
8
1
100
AcDbVertex
100
AcDb2dVertex
62
5
10
138.500000
20
324.312500
0
VERTEX
5
194
100
AcDbEntity
8
1
100
AcDbVertex
100
AcDb2dVertex
62
5
10
139.000000
20
325.250000
0
SEQEND
5
195
100
AcDbEntity
8
1
0
LINE
5
196
100
AcDbEntity
8
1
100
AcDbLine
6
CONTINUOUS
62
5
10
143.250000
20
327.125000
11
145.750000
21
327.125000
0
POLYLINE
5
197
100
AcDbEntity
8
1
6
CONTINUOUS
62
5
100
AcDb2dPolyline
66
1
10
0.0
20
0.0
30
0.0
70
0
0
VERTEX
5
198
100
AcDbEntity
8
1
100
AcDbVertex
100
AcDb2dVertex
62
5
10
143.250000
20
327.125000
0
VERTEX
5
199
100
AcDbEntity
8
1
100
AcDbVertex
100
AcDb2dVertex
62
5
10
142.500000
20
325.875000
0
VERTEX
5
19a
100
AcDbEntity
8
1
100
AcDbVertex
100
AcDb2dVertex
62
5
10
141.750000
20
324.937500
0
SEQEND
5
19b
100
AcDbEntity
8
1
0
POLYLINE
5
19c
100
AcDbEntity
8
1
6
CONTINUOUS
62
5
100
AcDb2dPolyline
66
1
10
0.0
20
0.0
30
0.0
70
0
0
VERTEX
5
19d
100
AcDbEntity
8
1
100
AcDbVertex
100
AcDb2dVertex
62
5
10
145.750000
20
327.125000
0
VERTEX
5
19e
100
AcDbEntity
8
1
100
AcDbVertex
100
AcDb2dVertex
62
5
10
146.000000
20
326.812500
0
VERTEX
5
19f
100
AcDbEntity
8
1
100
AcDbVertex
100
AcDb2dVertex
62
5
10
145.500000
20
325.875000
0
VERTEX
5
1a0
100
AcDbEntity
8
1
100
AcDbVertex
100
AcDb2dVertex
62
5
10
144.750000
20
324.312500
0
VERTEX
5
1a1
100
AcDbEntity
8
1
100
AcDbVertex
100
AcDb2dVertex
62
5
10
143.500000
20
322.750000
0
VERTEX
5
1a2
100
AcDbEntity
8
1
100
AcDbVertex
100
AcDb2dVertex
62
5
10
142.000000
20
321.500000
0
SEQEND
5
1a3
100
AcDbEntity
8
1
0
LINE
5
1a4
100
AcDbEntity
8
1
100
AcDbLine
6
CONTINUOUS
62
5
10
143.250000
20
325.250000
11
144.250000
21
323.687500
0
LINE
5
1a5
100
AcDbEntity
8
1
100
AcDbLine
6
CONTINUOUS
62
5
10
145.750000
20
328.687500
11
146.500000
21
327.750000
0
LINE
5
1a6
100
AcDbEntity
8
1
100
AcDbLine
6
CONTINUOUS
62
5
10
146.500000
20
329.312500
11
147.250000
21
328.375000
0
POLYLINE
5
1a7
100
AcDbEntity
8
1
6
CONTINUOUS
62
5
100
AcDb2dPolyline
66
1
10
0.0
20
0.0
30
0.0
70
0
0
VERTEX
5
1a8
100
AcDbEntity
8
1
100
AcDbVertex
100
AcDb2dVertex
62
5
10
150.500000
20
329.312500
0
VERTEX
5
1a9
100
AcDbEntity
8
1
100
AcDbVertex
100
AcDb2dVertex
62
5
10
149.500000
20
326.500000
0
VERTEX
5
1aa
100
AcDbEntity
8
1
100
AcDbVertex
100
AcDb2dVertex
62
5
10
148.250000
20
324.312500
0
SEQEND
5
1ab
100
AcDbEntity
8
1
0
LINE
5
1ac
100
AcDbEntity
8
1
100
AcDbLine
6
CONTINUOUS
62
5
10
149.500000
20
326.500000
11
149.500000
21
320.562500
0
LINE
5
1ad
100
AcDbEntity
8
1
100
AcDbLine
6
CONTINUOUS
62
5
10
150.250000
20
326.500000
11
155.500000
21
326.500000
0
POLYLINE
5
1ae
100
AcDbEntity
8
1
6
CONTINUOUS
62
5
100
AcDb2dPolyline
66
1
10
0.0
20
0.0
30
0.0
70
0
0
VERTEX
5
1af
100
AcDbEntity
8
1
100
AcDbVertex
100
AcDb2dVertex
62
5
10
153.750000
20
329.312500
0
VERTEX
5
1b0
100
AcDbEntity
8
1
100
AcDbVertex
100
AcDb2dVertex
62
5
10
153.750000
20
320.875000
0
VERTEX
5
1b1
100
AcDbEntity
8
1
100
AcDbVertex
100
AcDb2dVertex
62
5
10
152.250000
20
321.187500
0
SEQEND
5
1b2
100
AcDbEntity
8
1
0
LINE
5
1b3
100
AcDbEntity
8
1
100
AcDbLine
6
CONTINUOUS
62
5
10
151.250000
20
325.250000
11
152.250000
21
323.375000
0
POLYLINE
5
1b4
100
AcDbEntity
8
1
6
CONTINUOUS
62
5
100
AcDb2dPolyline
66
1
10
0.0
20
0.0
30
0.0
70
0
0
VERTEX
5
1b5
100
AcDbEntity
8
1
100
AcDbVertex
100
AcDb2dVertex
62
5
10
135.000000
20
339.000000
0
VERTEX
5
1b6
100
AcDbEntity
8
1
100
AcDbVertex
100
AcDb2dVertex
62
5
10
132.750000
20
333.375000
0
VERTEX
5
1b7
100
AcDbEntity
8
1
100
AcDbVertex
100
AcDb2dVertex
62
5
10
135.750000
20
333.375000
0
SEQEND
5
1b8
100
AcDbEntity
8
1
0
LINE
5
1b9
100
AcDbEntity
8
1
100
AcDbLine
6
CONTINUOUS
62
5
10
135.000000
20
339.000000
11
135.000000
21
331.500000
0
LINE
5
1ba
100
AcDbEntity
8
1
100
AcDbLine
6
CONTINUOUS
62
5
10
134.500000
20
331.500000
11
135.500000
21
331.500000
0
POLYLINE
5
1bb
100
AcDbEntity
8
1
6
CONTINUOUS
62
5
100
AcDb2dPolyline
66
1
10
0.0
20
0.0
30
0.0
70
1
0
VERTEX
5
1bc
100
AcDbEntity
8
1
100
AcDbVertex
100
AcDb2dVertex
62
5
10
137.000000
20
339.312500
0
VERTEX
5
1bd
100
AcDbEntity
8
1
100
AcDbVertex
100
AcDb2dVertex
62
5
10
137.000000
20
336.500000
0
VERTEX
5
1be
100
AcDbEntity
8
1
100
AcDbVertex
100
AcDb2dVertex
62
5
10
139.000000
20
336.500000
0
VERTEX
5
1bf
100
AcDbEntity
8
1
100
AcDbVertex
100
AcDb2dVertex
62
5
10
139.000000
20
339.312500
0
VERTEX
5
1c0
100
AcDbEntity
8
1
100
AcDbVertex
100
AcDb2dVertex
62
5
10
137.000000
20
339.312500
0
SEQEND
5
1c1
100
AcDbEntity
8
1
0
LINE
5
1c2
100
AcDbEntity
8
1
100
AcDbLine
6
CONTINUOUS
62
5
10
138.000000
20
336.500000
11
138.000000
21
331.812500
0
LINE
5
1c3
100
AcDbEntity
8
1
100
AcDbLine
6
CONTINUOUS
62
5
10
138.000000
20
334.625000
11
139.000000
21
334.625000
0
LINE
5
1c4
100
AcDbEntity
8
1
100
AcDbLine
6
CONTINUOUS
62
5
10
137.000000
20
334.937500
11
137.000000
21
331.500000
0
LINE
5
1c5
100
AcDbEntity
8
1
100
AcDbLine
6
CONTINUOUS
62
5
10
136.500000
20
331.187500
11
139.250000
21
332.125000
0
POLYLINE
5
1c6
100
AcDbEntity
8
1
6
CONTINUOUS
62
5
100
AcDb2dPolyline
66
1
10
0.0
20
0.0
30
0.0
70
0
0
VERTEX
5
1c7
100
AcDbEntity
8
1
100
AcDbVertex
100
AcDb2dVertex
62
5
10
141.000000
20
339.625000
0
VERTEX
5
1c8
100
AcDbEntity
8
1
100
AcDbVertex
100
AcDb2dVertex
62
5
10
140.750000
20
338.687500
0
VERTEX
5
1c9
100
AcDbEntity
8
1
100
AcDbVertex
100
AcDb2dVertex
62
5
10
140.250000
20
337.750000
0
VERTEX
5
1ca
100
AcDbEntity
8
1
100
AcDbVertex
100
AcDb2dVertex
62
5
10
139.500000
20
336.812500
0
SEQEND
5
1cb
100
AcDbEntity
8
1
0
POLYLINE
5
1cc
100
AcDbEntity
8
1
6
CONTINUOUS
62
5
100
AcDb2dPolyline
66
1
10
0.0
20
0.0
30
0.0
70
0
0
VERTEX
5
1cd
100
AcDbEntity
8
1
100
AcDbVertex
100
AcDb2dVertex
62
5
10
140.750000
20
338.687500
0
VERTEX
5
1ce
100
AcDbEntity
8
1
100
AcDbVertex
100
AcDb2dVertex
62
5
10
142.750000
20
338.687500
0
VERTEX
5
1cf
100
AcDbEntity
8
1
100
AcDbVertex
100
AcDb2dVertex
62
5
10
142.000000
20
336.812500
0
VERTEX
5
1d0
100
AcDbEntity
8
1
100
AcDbVertex
100
AcDb2dVertex
62
5
10
141.250000
20
335.562500
0
VERTEX
5
1d1
100
AcDbEntity
8
1
100
AcDbVertex
100
AcDb2dVertex
62
5
10
140.500000
20
334.625000
0
VERTEX
5
1d2
100
AcDbEntity
8
1
100
AcDbVertex
100
AcDb2dVertex
62
5
10
139.500000
20
333.687500
0
SEQEND
5
1d3
100
AcDbEntity
8
1
0
POLYLINE
5
1d4
100
AcDbEntity
8
1
6
CONTINUOUS
62
5
100
AcDb2dPolyline
66
1
10
0.0
20
0.0
30
0.0
70
0
0
VERTEX
5
1d5
100
AcDbEntity
8
1
100
AcDbVertex
100
AcDb2dVertex
62
5
10
140.500000
20
338.062500
0
VERTEX
5
1d6
100
AcDbEntity
8
1
100
AcDbVertex
100
AcDb2dVertex
62
5
10
141.250000
20
336.812500
0
VERTEX
5
1d7
100
AcDbEntity
8
1
100
AcDbVertex
100
AcDb2dVertex
62
5
10
142.250000
20
335.562500
0
VERTEX
5
1d8
100
AcDbEntity
8
1
100
AcDbVertex
100
AcDb2dVertex
62
5
10
143.500000
20
334.312500
0
SEQEND
5
1d9
100
AcDbEntity
8
1
0
POLYLINE
5
1da
100
AcDbEntity
8
1
6
CONTINUOUS
62
5
100
AcDb2dPolyline
66
1
10
0.0
20
0.0
30
0.0
70
1
0
VERTEX
5
1db
100
AcDbEntity
8
1
100
AcDbVertex
100
AcDb2dVertex
62
5
10
140.250000
20
334.312500
0
VERTEX
5
1dc
100
AcDbEntity
8
1
100
AcDbVertex
100
AcDb2dVertex
62
5
10
140.250000
20
331.187500
0
VERTEX
5
1dd
100
AcDbEntity
8
1
100
AcDbVertex
100
AcDb2dVertex
62
5
10
143.000000
20
331.187500
0
VERTEX
5
1de
100
AcDbEntity
8
1
100
AcDbVertex
100
AcDb2dVertex
62
5
10
143.000000
20
334.312500
0
VERTEX
5
1df
100
AcDbEntity
8
1
100
AcDbVertex
100
AcDb2dVertex
62
5
10
140.250000
20
334.312500
0
SEQEND
5
1e0
100
AcDbEntity
8
1
0
LINE
5
1e1
100
AcDbEntity
8
1
100
AcDbLine
6
CONTINUOUS
62
5
10
154.000000
20
337.437500
11
157.750000
21
338.062500
0
LINE
5
1e2
100
AcDbEntity
8
1
100
AcDbLine
6
CONTINUOUS
62
5
10
152.750000
20
335.562500
11
158.750000
21
335.562500
0
POLYLINE
5
1e3
100
AcDbEntity
8
1
6
CONTINUOUS
62
5
100
AcDb2dPolyline
66
1
10
0.0
20
0.0
30
0.0
70
0
0
VERTEX
5
1e4
100
AcDbEntity
8
1
100
AcDbVertex
100
AcDb2dVertex
62
5
10
156.000000
20
337.750000
0
VERTEX
5
1e5
100
AcDbEntity
8
1
100
AcDbVertex
100
AcDb2dVertex
62
5
10
156.000000
20
335.562500
0
VERTEX
5
1e6
100
AcDbEntity
8
1
100
AcDbVertex
100
AcDb2dVertex
62
5
10
155.750000
20
334.000000
0
VERTEX
5
1e7
100
AcDbEntity
8
1
100
AcDbVertex
100
AcDb2dVertex
62
5
10
155.000000
20
332.750000
0
VERTEX
5
1e8
100
AcDbEntity
8
1
100
AcDbVertex
100
AcDb2dVertex
62
5
10
154.250000
20
331.812500
0
SEQEND
5
1e9
100
AcDbEntity
8
1
0
LINE
5
1ea
100
AcDbEntity
8
1
100
AcDbLine
6
CONTINUOUS
62
5
10
110.250000
20
335.562500
11
110.500000
21
334.312500
0
LINE
5
1eb
100
AcDbEntity
8
1
100
AcDbLine
6
CONTINUOUS
62
5
10
111.750000
20
335.875000
11
112.000000
21
334.625000
0
POLYLINE
5
1ec
100
AcDbEntity
8
1
6
CONTINUOUS
62
5
100
AcDb2dPolyline
66
1
10
0.0
20
0.0
30
0.0
70
0
0
VERTEX
5
1ed
100
AcDbEntity
8
1
100
AcDbVertex
100
AcDb2dVertex
62
5
10
113.750000
20
335.875000
0
VERTEX
5
1ee
100
AcDbEntity
8
1
100
AcDbVertex
100
AcDb2dVertex
62
5
10
113.500000
20
334.312500
0
VERTEX
5
1ef
100
AcDbEntity
8
1
100
AcDbVertex
100
AcDb2dVertex
62
5
10
112.250000
20
332.437500
0
VERTEX
5
1f0
100
AcDbEntity
8
1
100
AcDbVertex
100
AcDb2dVertex
62
5
10
111.250000
20
331.500000
0
SEQEND
5
1f1
100
AcDbEntity
8
1
0
POLYLINE
5
1f2
100
AcDbEntity
8
1
6
CONTINUOUS
62
5
100
AcDb2dPolyline
66
1
10
0.0
20
0.0
30
0.0
70
0
0
VERTEX
5
1f3
100
AcDbEntity
8
1
100
AcDbVertex
100
AcDb2dVertex
62
5
10
108.750000
20
325.562500
0
VERTEX
5
1f4
100
AcDbEntity
8
1
100
AcDbVertex
100
AcDb2dVertex
62
5
10
109.000000
20
325.250000
0
VERTEX
5
1f5
100
AcDbEntity
8
1
100
AcDbVertex
100
AcDb2dVertex
62
5
10
115.750000
20
325.250000
0
SEQEND
5
1f6
100
AcDbEntity
8
1
0
LINE
5
1f7
100
AcDbEntity
8
1
100
AcDbLine
6
CONTINUOUS
62
5
10
119.250000
20
328.687500
11
119.250000
21
321.500000
0
POLYLINE
5
1f8
100
AcDbEntity
8
1
6
CONTINUOUS
62
5
100
AcDb2dPolyline
66
1
10
0.0
20
0.0
30
0.0
70
0
0
VERTEX
5
1f9
100
AcDbEntity
8
1
100
AcDbVertex
100
AcDb2dVertex
62
5
10
119.250000
20
325.875000
0
VERTEX
5
1fa
100
AcDbEntity
8
1
100
AcDbVertex
100
AcDb2dVertex
62
5
10
119.500000
20
325.875000
0
VERTEX
5
1fb
100
AcDbEntity
8
1
100
AcDbVertex
100
AcDb2dVertex
62
5
10
121.000000
20
324.937500
0
SEQEND
5
1fc
100
AcDbEntity
8
1
0
LINE
5
1fd
100
AcDbEntity
8
1
100
AcDbLine
6
CONTINUOUS
62
5
10
121.250000
20
328.062500
11
121.750000
21
327.437500
0
LINE
5
1fe
100
AcDbEntity
8
1
100
AcDbLine
6
CONTINUOUS
62
5
10
122.250000
20
328.687500
11
122.750000
21
328.062500
0
POLYLINE
5
1ff
100
AcDbEntity
8
1
6
CONTINUOUS
62
5
100
AcDb2dPolyline
66
1
10
0.0
20
0.0
30
0.0
70
0
0
VERTEX
5
200
100
AcDbEntity
8
1
100
AcDbVertex
100
AcDb2dVertex
62
5
10
94.000000
20
337.125000
0
VERTEX
5
201
100
AcDbEntity
8
1
100
AcDbVertex
100
AcDb2dVertex
62
5
10
97.250000
20
337.125000
0
VERTEX
5
202
100
AcDbEntity
8
1
100
AcDbVertex
100
AcDb2dVertex
62
5
10
97.250000
20
336.812500
0
VERTEX
5
203
100
AcDbEntity
8
1
100
AcDbVertex
100
AcDb2dVertex
62
5
10
96.750000
20
335.562500
0
VERTEX
5
204
100
AcDbEntity
8
1
100
AcDbVertex
100
AcDb2dVertex
62
5
10
96.250000
20
334.625000
0
VERTEX
5
205
100
AcDbEntity
8
1
100
AcDbVertex
100
AcDb2dVertex
62
5
10
95.250000
20
333.375000
0
VERTEX
5
206
100
AcDbEntity
8
1
100
AcDbVertex
100
AcDb2dVertex
62
5
10
93.500000
20
331.812500
0
SEQEND
5
207
100
AcDbEntity
8
1
0
LINE
5
208
100
AcDbEntity
8
1
100
AcDbLine
6
CONTINUOUS
62
5
10
96.250000
20
334.625000
11
98.250000
21
331.812500
0
POLYLINE
5
209
100
AcDbEntity
8
1
6
CONTINUOUS
62
5
100
AcDb2dPolyline
66
1
10
0.0
20
0.0
30
0.0
70
0
0
VERTEX
5
20a
100
AcDbEntity
8
1
100
AcDbVertex
100
AcDb2dVertex
62
5
10
93.750000
20
325.250000
0
VERTEX
5
20b
100
AcDbEntity
8
1
100
AcDbVertex
100
AcDb2dVertex
62
5
10
94.750000
20
326.500000
0
VERTEX
5
20c
100
AcDbEntity
8
1
100
AcDbVertex
100
AcDb2dVertex
62
5
10
95.250000
20
327.437500
0
VERTEX
5
20d
100
AcDbEntity
8
1
100
AcDbVertex
100
AcDb2dVertex
62
5
10
97.750000
20
327.437500
0
VERTEX
5
20e
100
AcDbEntity
8
1
100
AcDbVertex
100
AcDb2dVertex
62
5
10
97.750000
20
327.125000
0
VERTEX
5
20f
100
AcDbEntity
8
1
100
AcDbVertex
100
AcDb2dVertex
62
5
10
97.000000
20
325.250000
0
VERTEX
5
210
100
AcDbEntity
8
1
100
AcDbVertex
100
AcDb2dVertex
62
5
10
95.750000
20
323.375000
0
VERTEX
5
211
100
AcDbEntity
8
1
100
AcDbVertex
100
AcDb2dVertex
62
5
10
94.250000
20
321.812500
0
SEQEND
5
212
100
AcDbEntity
8
1
0
POLYLINE
5
213
100
AcDbEntity
8
1
6
CONTINUOUS
62
5
100
AcDb2dPolyline
66
1
10
0.0
20
0.0
30
0.0
70
0
0
VERTEX
5
214
100
AcDbEntity
8
1
100
AcDbVertex
100
AcDb2dVertex
62
5
10
101.500000
20
326.500000
0
VERTEX
5
215
100
AcDbEntity
8
1
100
AcDbVertex
100
AcDb2dVertex
62
5
10
106.250000
20
326.500000
0
VERTEX
5
216
100
AcDbEntity
8
1
100
AcDbVertex
100
AcDb2dVertex
62
5
10
106.250000
20
324.937500
0
VERTEX
5
217
100
AcDbEntity
8
1
100
AcDbVertex
100
AcDb2dVertex
62
5
10
106.000000
20
323.375000
0
VERTEX
5
218
100
AcDbEntity
8
1
100
AcDbVertex
100
AcDb2dVertex
62
5
10
105.250000
20
322.125000
0
VERTEX
5
219
100
AcDbEntity
8
1
100
AcDbVertex
100
AcDb2dVertex
62
5
10
104.500000
20
322.125000
0
SEQEND
5
21a
100
AcDbEntity
8
1
0
POLYLINE
5
21b
100
AcDbEntity
8
1
6
CONTINUOUS
62
5
100
AcDb2dPolyline
66
1
10
0.0
20
0.0
30
0.0
70
0
0
VERTEX
5
21c
100
AcDbEntity
8
1
100
AcDbVertex
100
AcDb2dVertex
62
5
10
104.000000
20
328.375000
0
VERTEX
5
21d
100
AcDbEntity
8
1
100
AcDbVertex
100
AcDb2dVertex
62
5
10
103.500000
20
324.625000
0
VERTEX
5
21e
100
AcDbEntity
8
1
100
AcDbVertex
100
AcDb2dVertex
62
5
10
102.750000
20
323.375000
0
VERTEX
5
21f
100
AcDbEntity
8
1
100
AcDbVertex
100
AcDb2dVertex
62
5
10
101.750000
20
322.125000
0
SEQEND
5
220
100
AcDbEntity
8
1
0
POLYLINE
5
221
100
AcDbEntity
8
1
6
CONTINUOUS
62
5
100
AcDb2dPolyline
66
1
10
0.0
20
0.0
30
0.0
70
0
0
VERTEX
5
222
100
AcDbEntity
8
1
100
AcDbVertex
100
AcDb2dVertex
62
5
10
105.750000
20
338.687500
0
VERTEX
5
223
100
AcDbEntity
8
1
100
AcDbVertex
100
AcDb2dVertex
62
5
10
103.750000
20
336.187500
0
VERTEX
5
224
100
AcDbEntity
8
1
100
AcDbVertex
100
AcDb2dVertex
62
5
10
101.500000
20
334.625000
0
SEQEND
5
225
100
AcDbEntity
8
1
0
LINE
5
226
100
AcDbEntity
8
1
100
AcDbLine
6
CONTINUOUS
62
5
10
104.250000
20
336.812500
11
104.250000
21
331.500000
0
LINE
5
227
100
AcDbEntity
8
1
100
AcDbLine
6
CONTINUOUS
62
5
10
118.000000
20
337.437500
11
121.750000
21
338.062500
0
LINE
5
228
100
AcDbEntity
8
1
100
AcDbLine
6
CONTINUOUS
62
5
10
116.750000
20
335.562500
11
122.750000
21
335.562500
0
POLYLINE
5
229
100
AcDbEntity
8
1
6
CONTINUOUS
62
5
100
AcDb2dPolyline
66
1
10
0.0
20
0.0
30
0.0
70
0
0
VERTEX
5
22a
100
AcDbEntity
8
1
100
AcDbVertex
100
AcDb2dVertex
62
5
10
120.000000
20
337.750000
0
VERTEX
5
22b
100
AcDbEntity
8
1
100
AcDbVertex
100
AcDb2dVertex
62
5
10
120.000000
20
335.562500
0
VERTEX
5
22c
100
AcDbEntity
8
1
100
AcDbVertex
100
AcDb2dVertex
62
5
10
119.750000
20
334.000000
0
VERTEX
5
22d
100
AcDbEntity
8
1
100
AcDbVertex
100
AcDb2dVertex
62
5
10
119.000000
20
332.750000
0
VERTEX
5
22e
100
AcDbEntity
8
1
100
AcDbVertex
100
AcDb2dVertex
62
5
10
118.250000
20
331.812500
0
SEQEND
5
22f
100
AcDbEntity
8
1
0
LINE
5
230
100
AcDbEntity
8
1
100
AcDbLine
6
CONTINUOUS
62
5
10
125.250000
20
326.187500
11
130.250000
21
326.187500
0
POLYLINE
5
231
100
AcDbEntity
8
1
6
CONTINUOUS
62
5
100
AcDb2dPolyline
66
1
10
0.0
20
0.0
30
0.0
70
0
0
VERTEX
5
232
100
AcDbEntity
8
1
100
AcDbVertex
100
AcDb2dVertex
62
5
10
127.750000
20
328.062500
0
VERTEX
5
233
100
AcDbEntity
8
1
100
AcDbVertex
100
AcDb2dVertex
62
5
10
127.750000
20
321.812500
0
VERTEX
5
234
100
AcDbEntity
8
1
100
AcDbVertex
100
AcDb2dVertex
62
5
10
127.250000
20
321.812500
0
SEQEND
5
235
100
AcDbEntity
8
1
0
LINE
5
236
100
AcDbEntity
8
1
100
AcDbLine
6
CONTINUOUS
62
5
10
126.500000
20
324.625000
11
125.250000
21
322.750000
0
LINE
5
237
100
AcDbEntity
8
1
100
AcDbLine
6
CONTINUOUS
62
5
10
129.250000
20
324.625000
11
130.500000
21
323.062500
0
POLYLINE
5
238
100
AcDbEntity
8
1
6
CONTINUOUS
62
5
100
AcDb2dPolyline
66
1
10
0.0
20
0.0
30
0.0
70
0
0
VERTEX
5
239
100
AcDbEntity
8
1
100
AcDbVertex
100
AcDb2dVertex
62
5
10
132.187500
20
300.500000
0
VERTEX
5
23a
100
AcDbEntity
8
1
100
AcDbVertex
100
AcDb2dVertex
62
5
10
133.125000
20
293.000000
0
VERTEX
5
23b
100
AcDbEntity
8
1
100
AcDbVertex
100
AcDb2dVertex
62
5
10
134.062500
20
300.500000
0
VERTEX
5
23c
100
AcDbEntity
8
1
100
AcDbVertex
100
AcDb2dVertex
62
5
10
135.000000
20
293.000000
0
VERTEX
5
23d
100
AcDbEntity
8
1
100
AcDbVertex
100
AcDb2dVertex
62
5
10
135.937500
20
300.500000
0
SEQEND
5
23e
100
AcDbEntity
8
1
0
LINE
5
23f
100
AcDbEntity
8
1
100
AcDbLine
6
CONTINUOUS
62
5
10
92.500000
20
296.750000
11
95.625000
21
296.750000
0
POLYLINE
5
240
100
AcDbEntity
8
1
6
CONTINUOUS
62
5
100
AcDb2dPolyline
66
1
10
0.0
20
0.0
30
0.0
70
0
0
VERTEX
5
241
100
AcDbEntity
8
1
100
AcDbVertex
100
AcDb2dVertex
62
5
10
87.500000
20
293.000000
0
VERTEX
5
242
100
AcDbEntity
8
1
100
AcDbVertex
100
AcDb2dVertex
62
5
10
87.500000
20
300.500000
0
VERTEX
5
243
100
AcDbEntity
8
1
100
AcDbVertex
100
AcDb2dVertex
62
5
10
90.625000
20
293.000000
0
VERTEX
5
244
100
AcDbEntity
8
1
100
AcDbVertex
100
AcDb2dVertex
62
5
10
90.625000
20
300.500000
0
SEQEND
5
245
100
AcDbEntity
8
1
0
POLYLINE
5
246
100
AcDbEntity
8
1
6
CONTINUOUS
62
5
100
AcDb2dPolyline
66
1
10
0.0
20
0.0
30
0.0
70
0
0
VERTEX
5
247
100
AcDbEntity
8
1
100
AcDbVertex
100
AcDb2dVertex
62
5
10
100.000000
20
300.500000
0
VERTEX
5
248
100
AcDbEntity
8
1
100
AcDbVertex
100
AcDb2dVertex
62
5
10
97.187500
20
294.875000
0
VERTEX
5
249
100
AcDbEntity
8
1
100
AcDbVertex
100
AcDb2dVertex
62
5
10
100.937500
20
294.875000
0
SEQEND
5
24a
100
AcDbEntity
8
1
0
LINE
5
24b
100
AcDbEntity
8
1
100
AcDbLine
6
CONTINUOUS
62
5
10
100.000000
20
300.500000
11
100.000000
21
293.000000
0
LINE
5
24c
100
AcDbEntity
8
1
100
AcDbLine
6
CONTINUOUS
62
5
10
99.375000
20
293.000000
11
100.625000
21
293.000000
0
POLYLINE
5
24d
100
AcDbEntity
8
1
6
CONTINUOUS
62
5
100
AcDb2dPolyline
66
1
10
0.0
20
0.0
30
0.0
70
0
0
VERTEX
5
24e
100
AcDbEntity
8
1
100
AcDbVertex
100
AcDb2dVertex
62
5
10
102.500000
20
293.000000
0
VERTEX
5
24f
100
AcDbEntity
8
1
100
AcDbVertex
100
AcDb2dVertex
62
5
10
102.500000
20
300.500000
0
VERTEX
5
250
100
AcDbEntity
8
1
100
AcDbVertex
100
AcDb2dVertex
62
5
10
104.062500
20
293.000000
0
VERTEX
5
251
100
AcDbEntity
8
1
100
AcDbVertex
100
AcDb2dVertex
62
5
10
105.625000
20
300.500000
0
VERTEX
5
252
100
AcDbEntity
8
1
100
AcDbVertex
100
AcDb2dVertex
62
5
10
105.625000
20
293.000000
0
SEQEND
5
253
100
AcDbEntity
8
1
0
POLYLINE
5
254
100
AcDbEntity
8
1
6
CONTINUOUS
62
5
100
AcDb2dPolyline
66
1
10
0.0
20
0.0
30
0.0
70
0
0
VERTEX
5
255
100
AcDbEntity
8
1
100
AcDbVertex
100
AcDb2dVertex
62
5
10
107.500000
20
300.500000
0
VERTEX
5
256
100
AcDbEntity
8
1
100
AcDbVertex
100
AcDb2dVertex
62
5
10
107.500000
20
293.000000
0
VERTEX
5
257
100
AcDbEntity
8
1
100
AcDbVertex
100
AcDb2dVertex
62
5
10
110.625000
20
293.000000
0
SEQEND
5
258
100
AcDbEntity
8
1
0
POLYLINE
5
259
100
AcDbEntity
8
1
6
CONTINUOUS
62
5
100
AcDb2dPolyline
66
1
10
0.0
20
0.0
30
0.0
70
0
0
VERTEX
5
25a
100
AcDbEntity
8
1
100
AcDbVertex
100
AcDb2dVertex
62
5
10
115.625000
20
298.937500
0
VERTEX
5
25b
100
AcDbEntity
8
1
100
AcDbVertex
100
AcDb2dVertex
62
5
10
115.312500
20
299.875000
0
VERTEX
5
25c
100
AcDbEntity
8
1
100
AcDbVertex
100
AcDb2dVertex
62
5
10
114.687500
20
300.500000
0
VERTEX
5
25d
100
AcDbEntity
8
1
100
AcDbVertex
100
AcDb2dVertex
62
5
10
113.750000
20
300.500000
0
VERTEX
5
25e
100
AcDbEntity
8
1
100
AcDbVertex
100
AcDb2dVertex
62
5
10
112.812500
20
299.562500
0
VERTEX
5
25f
100
AcDbEntity
8
1
100
AcDbVertex
100
AcDb2dVertex
62
5
10
112.500000
20
298.000000
0
VERTEX
5
260
100
AcDbEntity
8
1
100
AcDbVertex
100
AcDb2dVertex
62
5
10
112.500000
20
295.500000
0
VERTEX
5
261
100
AcDbEntity
8
1
100
AcDbVertex
100
AcDb2dVertex
62
5
10
112.812500
20
293.937500
0
VERTEX
5
262
100
AcDbEntity
8
1
100
AcDbVertex
100
AcDb2dVertex
62
5
10
113.750000
20
293.000000
0
VERTEX
5
263
100
AcDbEntity
8
1
100
AcDbVertex
100
AcDb2dVertex
62
5
10
114.687500
20
293.000000
0
VERTEX
5
264
100
AcDbEntity
8
1
100
AcDbVertex
100
AcDb2dVertex
62
5
10
115.312500
20
293.625000
0
VERTEX
5
265
100
AcDbEntity
8
1
100
AcDbVertex
100
AcDb2dVertex
62
5
10
115.937500
20
295.187500
0
SEQEND
5
266
100
AcDbEntity
8
1
0
POLYLINE
5
267
100
AcDbEntity
8
1
6
CONTINUOUS
62
5
100
AcDb2dPolyline
66
1
10
0.0
20
0.0
30
0.0
70
0
0
VERTEX
5
268
100
AcDbEntity
8
1
100
AcDbVertex
100
AcDb2dVertex
62
5
10
117.500000
20
300.500000
0
VERTEX
5
269
100
AcDbEntity
8
1
100
AcDbVertex
100
AcDb2dVertex
62
5
10
117.500000
20
293.000000
0
VERTEX
5
26a
100
AcDbEntity
8
1
100
AcDbVertex
100
AcDb2dVertex
62
5
10
120.625000
20
293.000000
0
SEQEND
5
26b
100
AcDbEntity
8
1
0
LINE
5
26c
100
AcDbEntity
8
1
100
AcDbLine
6
CONTINUOUS
62
5
10
127.500000
20
300.500000
11
127.500000
21
293.000000
0
POLYLINE
5
26d
100
AcDbEntity
8
1
6
CONTINUOUS
62
5
100
AcDb2dPolyline
66
1
10
0.0
20
0.0
30
0.0
70
0
0
VERTEX
5
26e
100
AcDbEntity
8
1
100
AcDbVertex
100
AcDb2dVertex
62
5
10
127.500000
20
300.500000
0
VERTEX
5
26f
100
AcDbEntity
8
1
100
AcDbVertex
100
AcDb2dVertex
62
5
10
128.750000
20
300.500000
0
VERTEX
5
270
100
AcDbEntity
8
1
100
AcDbVertex
100
AcDb2dVertex
62
5
10
129.687500
20
300.187500
0
VERTEX
5
271
100
AcDbEntity
8
1
100
AcDbVertex
100
AcDb2dVertex
62
5
10
130.312500
20
299.562500
0
VERTEX
5
272
100
AcDbEntity
8
1
100
AcDbVertex
100
AcDb2dVertex
62
5
10
130.625000
20
298.937500
0
VERTEX
5
273
100
AcDbEntity
8
1
100
AcDbVertex
100
AcDb2dVertex
62
5
10
130.625000
20
298.000000
0
VERTEX
5
274
100
AcDbEntity
8
1
100
AcDbVertex
100
AcDb2dVertex
62
5
10
130.312500
20
297.375000
0
VERTEX
5
275
100
AcDbEntity
8
1
100
AcDbVertex
100
AcDb2dVertex
62
5
10
129.687500
20
296.750000
0
VERTEX
5
276
100
AcDbEntity
8
1
100
AcDbVertex
100
AcDb2dVertex
62
5
10
128.750000
20
296.437500
0
VERTEX
5
277
100
AcDbEntity
8
1
100
AcDbVertex
100
AcDb2dVertex
62
5
10
127.500000
20
296.437500
0
SEQEND
5
278
100
AcDbEntity
8
1
0
POLYLINE
5
279
100
AcDbEntity
8
1
6
CONTINUOUS
62
5
100
AcDb2dPolyline
66
1
10
0.0
20
0.0
30
0.0
70
0
0
VERTEX
5
27a
100
AcDbEntity
8
1
100
AcDbVertex
100
AcDb2dVertex
62
5
10
76.750000
20
326.812500
0
VERTEX
5
27b
100
AcDbEntity
8
1
100
AcDbVertex
100
AcDb2dVertex
62
5
10
81.750000
20
327.125000
0
VERTEX
5
27c
100
AcDbEntity
8
1
100
AcDbVertex
100
AcDb2dVertex
62
5
10
82.250000
20
326.500000
0
VERTEX
5
27d
100
AcDbEntity
8
1
100
AcDbVertex
100
AcDb2dVertex
62
5
10
81.000000
20
324.937500
0
VERTEX
5
27e
100
AcDbEntity
8
1
100
AcDbVertex
100
AcDb2dVertex
62
5
10
79.750000
20
323.375000
0
SEQEND
5
27f
100
AcDbEntity
8
1
0
POLYLINE
5
280
100
AcDbEntity
8
1
6
CONTINUOUS
62
5
100
AcDb2dPolyline
66
1
10
0.0
20
0.0
30
0.0
70
0
0
VERTEX
5
281
100
AcDbEntity
8
1
100
AcDbVertex
100
AcDb2dVertex
62
5
10
78.500000
20
324.625000
0
VERTEX
5
282
100
AcDbEntity
8
1
100
AcDbVertex
100
AcDb2dVertex
62
5
10
79.750000
20
323.375000
0
VERTEX
5
283
100
AcDbEntity
8
1
100
AcDbVertex
100
AcDb2dVertex
62
5
10
80.250000
20
322.437500
0
SEQEND
5
284
100
AcDbEntity
8
1
0
LINE
5
285
100
AcDbEntity
8
1
100
AcDbLine
6
CONTINUOUS
62
5
10
76.500000
20
336.500000
11
78.500000
21
336.500000
0
LINE
5
286
100
AcDbEntity
8
1
100
AcDbLine
6
CONTINUOUS
62
5
10
76.250000
20
332.125000
11
78.500000
21
333.375000
0
LINE
5
287
100
AcDbEntity
8
1
100
AcDbLine
6
CONTINUOUS
62
5
10
77.500000
20
339.000000
11
77.500000
21
332.750000
0
POLYLINE
5
288
100
AcDbEntity
8
1
6
CONTINUOUS
62
5
100
AcDb2dPolyline
66
1
10
0.0
20
0.0
30
0.0
70
1
0
VERTEX
5
289
100
AcDbEntity
8
1
100
AcDbVertex
100
AcDb2dVertex
62
5
10
79.500000
20
338.687500
0
VERTEX
5
28a
100
AcDbEntity
8
1
100
AcDbVertex
100
AcDb2dVertex
62
5
10
79.500000
20
335.250000
0
VERTEX
5
28b
100
AcDbEntity
8
1
100
AcDbVertex
100
AcDb2dVertex
62
5
10
82.500000
20
335.250000
0
VERTEX
5
28c
100
AcDbEntity
8
1
100
AcDbVertex
100
AcDb2dVertex
62
5
10
82.500000
20
338.687500
0
VERTEX
5
28d
100
AcDbEntity
8
1
100
AcDbVertex
100
AcDb2dVertex
62
5
10
79.500000
20
338.687500
0
SEQEND
5
28e
100
AcDbEntity
8
1
0
LINE
5
28f
100
AcDbEntity
8
1
100
AcDbLine
6
CONTINUOUS
62
5
10
79.500000
20
337.125000
11
82.500000
21
337.125000
0
LINE
5
290
100
AcDbEntity
8
1
100
AcDbLine
6
CONTINUOUS
62
5
10
81.000000
20
338.687500
11
81.000000
21
331.500000
0
LINE
5
291
100
AcDbEntity
8
1
100
AcDbLine
6
CONTINUOUS
62
5
10
79.000000
20
333.687500
11
83.000000
21
333.687500
0
LINE
5
292
100
AcDbEntity
8
1
100
AcDbLine
6
CONTINUOUS
62
5
10
78.250000
20
331.500000
11
83.500000
21
331.500000
0
LINE
5
293
100
AcDbEntity
8
1
100
AcDbLine
6
CONTINUOUS
62
5
10
50.000000
20
350.000000
11
50.000000
21
318.000000
0
LINE
5
294
100
AcDbEntity
8
1
100
AcDbLine
6
CONTINUOUS
62
5
10
77.500000
20
296.750000
11
80.625000
21
296.750000
0
POLYLINE
5
295
100
AcDbEntity
8
1
6
CONTINUOUS
62
5
100
AcDb2dPolyline
66
1
10
0.0
20
0.0
30
0.0
70
0
0
VERTEX
5
296
100
AcDbEntity
8
1
100
AcDbVertex
100
AcDb2dVertex
62
5
10
65.312500
20
300.500000
0
VERTEX
5
297
100
AcDbEntity
8
1
100
AcDbVertex
100
AcDb2dVertex
62
5
10
65.312500
20
294.875000
0
VERTEX
5
298
100
AcDbEntity
8
1
100
AcDbVertex
100
AcDb2dVertex
62
5
10
65.000000
20
293.625000
0
VERTEX
5
299
100
AcDbEntity
8
1
100
AcDbVertex
100
AcDb2dVertex
62
5
10
64.375000
20
293.000000
0
VERTEX
5
29a
100
AcDbEntity
8
1
100
AcDbVertex
100
AcDb2dVertex
62
5
10
63.437500
20
293.000000
0
VERTEX
5
29b
100
AcDbEntity
8
1
100
AcDbVertex
100
AcDb2dVertex
62
5
10
62.812500
20
293.625000
0
VERTEX
5
29c
100
AcDbEntity
8
1
100
AcDbVertex
100
AcDb2dVertex
62
5
10
62.500000
20
294.875000
0
SEQEND
5
29d
100
AcDbEntity
8
1
0
POLYLINE
5
29e
100
AcDbEntity
8
1
6
CONTINUOUS
62
5
100
AcDb2dPolyline
66
1
10
0.0
20
0.0
30
0.0
70
0
0
VERTEX
5
29f
100
AcDbEntity
8
1
100
AcDbVertex
100
AcDb2dVertex
62
5
10
70.625000
20
300.500000
0
VERTEX
5
2a0
100
AcDbEntity
8
1
100
AcDbVertex
100
AcDb2dVertex
62
5
10
67.500000
20
300.500000
0
VERTEX
5
2a1
100
AcDbEntity
8
1
100
AcDbVertex
100
AcDb2dVertex
62
5
10
67.500000
20
293.000000
0
VERTEX
5
2a2
100
AcDbEntity
8
1
100
AcDbVertex
100
AcDb2dVertex
62
5
10
70.937500
20
293.000000
0
SEQEND
5
2a3
100
AcDbEntity
8
1
0
LINE
5
2a4
100
AcDbEntity
8
1
100
AcDbLine
6
CONTINUOUS
62
5
10
67.500000
20
296.750000
11
70.312500
21
296.750000
0
POLYLINE
5
2a5
100
AcDbEntity
8
1
6
CONTINUOUS
62
5
100
AcDb2dPolyline
66
1
10
0.0
20
0.0
30
0.0
70
0
0
VERTEX
5
2a6
100
AcDbEntity
8
1
100
AcDbVertex
100
AcDb2dVertex
62
5
10
75.625000
20
298.937500
0
VERTEX
5
2a7
100
AcDbEntity
8
1
100
AcDbVertex
100
AcDb2dVertex
62
5
10
75.312500
20
299.875000
0
VERTEX
5
2a8
100
AcDbEntity
8
1
100
AcDbVertex
100
AcDb2dVertex
62
5
10
74.687500
20
300.500000
0
VERTEX
5
2a9
100
AcDbEntity
8
1
100
AcDbVertex
100
AcDb2dVertex
62
5
10
73.750000
20
300.500000
0
VERTEX
5
2aa
100
AcDbEntity
8
1
100
AcDbVertex
100
AcDb2dVertex
62
5
10
72.812500
20
299.562500
0
VERTEX
5
2ab
100
AcDbEntity
8
1
100
AcDbVertex
100
AcDb2dVertex
62
5
10
72.500000
20
298.000000
0
VERTEX
5
2ac
100
AcDbEntity
8
1
100
AcDbVertex
100
AcDb2dVertex
62
5
10
72.500000
20
295.500000
0
VERTEX
5
2ad
100
AcDbEntity
8
1
100
AcDbVertex
100
AcDb2dVertex
62
5
10
72.812500
20
293.937500
0
VERTEX
5
2ae
100
AcDbEntity
8
1
100
AcDbVertex
100
AcDb2dVertex
62
5
10
73.750000
20
293.000000
0
VERTEX
5
2af
100
AcDbEntity
8
1
100
AcDbVertex
100
AcDb2dVertex
62
5
10
74.687500
20
293.000000
0
VERTEX
5
2b0
100
AcDbEntity
8
1
100
AcDbVertex
100
AcDb2dVertex
62
5
10
75.312500
20
293.625000
0
VERTEX
5
2b1
100
AcDbEntity
8
1
100
AcDbVertex
100
AcDb2dVertex
62
5
10
75.937500
20
295.187500
0
SEQEND
5
2b2
100
AcDbEntity
8
1
0
LINE
5
2b3
100
AcDbEntity
8
1
100
AcDbLine
6
CONTINUOUS
62
5
10
85.000000
20
339.000000
11
86.000000
21
338.062500
0
POLYLINE
5
2b4
100
AcDbEntity
8
1
6
CONTINUOUS
62
5
100
AcDb2dPolyline
66
1
10
0.0
20
0.0
30
0.0
70
0
0
VERTEX
5
2b5
100
AcDbEntity
8
1
100
AcDbVertex
100
AcDb2dVertex
62
5
10
84.750000
20
335.875000
0
VERTEX
5
2b6
100
AcDbEntity
8
1
100
AcDbVertex
100
AcDb2dVertex
62
5
10
86.000000
20
335.875000
0
VERTEX
5
2b7
100
AcDbEntity
8
1
100
AcDbVertex
100
AcDb2dVertex
62
5
10
86.000000
20
332.750000
0
VERTEX
5
2b8
100
AcDbEntity
8
1
100
AcDbVertex
100
AcDb2dVertex
62
5
10
84.750000
20
331.187500
0
SEQEND
5
2b9
100
AcDbEntity
8
1
0
POLYLINE
5
2ba
100
AcDbEntity
8
1
6
CONTINUOUS
62
5
100
AcDb2dPolyline
66
1
10
0.0
20
0.0
30
0.0
70
0
0
VERTEX
5
2bb
100
AcDbEntity
8
1
100
AcDbVertex
100
AcDb2dVertex
62
5
10
86.000000
20
332.750000
0
VERTEX
5
2bc
100
AcDbEntity
8
1
100
AcDbVertex
100
AcDb2dVertex
62
5
10
86.750000
20
331.500000
0
VERTEX
5
2bd
100
AcDbEntity
8
1
100
AcDbVertex
100
AcDb2dVertex
62
5
10
87.750000
20
331.187500
0
VERTEX
5
2be
100
AcDbEntity
8
1
100
AcDbVertex
100
AcDb2dVertex
62
5
10
91.500000
20
331.187500
0
SEQEND
5
2bf
100
AcDbEntity
8
1
0
POLYLINE
5
2c0
100
AcDbEntity
8
1
6
CONTINUOUS
62
5
100
AcDb2dPolyline
66
1
10
0.0
20
0.0
30
0.0
70
0
0
VERTEX
5
2c1
100
AcDbEntity
8
1
100
AcDbVertex
100
AcDb2dVertex
62
5
10
88.750000
20
336.500000
0
VERTEX
5
2c2
100
AcDbEntity
8
1
100
AcDbVertex
100
AcDb2dVertex
62
5
10
88.000000
20
334.625000
0
VERTEX
5
2c3
100
AcDbEntity
8
1
100
AcDbVertex
100
AcDb2dVertex
62
5
10
87.250000
20
333.375000
0
VERTEX
5
2c4
100
AcDbEntity
8
1
100
AcDbVertex
100
AcDb2dVertex
62
5
10
86.750000
20
332.750000
0
SEQEND
5
2c5
100
AcDbEntity
8
1
0
POLYLINE
5
2c6
100
AcDbEntity
8
1
6
CONTINUOUS
62
5
100
AcDb2dPolyline
66
1
10
0.0
20
0.0
30
0.0
70
0
0
VERTEX
5
2c7
100
AcDbEntity
8
1
100
AcDbVertex
100
AcDb2dVertex
62
5
10
87.500000
20
339.312500
0
VERTEX
5
2c8
100
AcDbEntity
8
1
100
AcDbVertex
100
AcDb2dVertex
62
5
10
88.750000
20
339.312500
0
VERTEX
5
2c9
100
AcDbEntity
8
1
100
AcDbVertex
100
AcDb2dVertex
62
5
10
88.750000
20
336.500000
0
VERTEX
5
2ca
100
AcDbEntity
8
1
100
AcDbVertex
100
AcDb2dVertex
62
5
10
89.500000
20
334.625000
0
VERTEX
5
2cb
100
AcDbEntity
8
1
100
AcDbVertex
100
AcDb2dVertex
62
5
10
90.500000
20
333.375000
0
VERTEX
5
2cc
100
AcDbEntity
8
1
100
AcDbVertex
100
AcDb2dVertex
62
5
10
91.250000
20
332.750000
0
SEQEND
5
2cd
100
AcDbEntity
8
1
0
POLYLINE
5
2ce
100
AcDbEntity
8
1
6
CONTINUOUS
62
5
100
AcDb2dPolyline
66
1
10
0.0
20
0.0
30
0.0
70
0
0
VERTEX
5
2cf
100
AcDbEntity
8
1
100
AcDbVertex
100
AcDb2dVertex
62
5
10
84.750000
20
325.562500
0
VERTEX
5
2d0
100
AcDbEntity
8
1
100
AcDbVertex
100
AcDb2dVertex
62
5
10
85.000000
20
325.250000
0
VERTEX
5
2d1
100
AcDbEntity
8
1
100
AcDbVertex
100
AcDb2dVertex
62
5
10
91.750000
20
325.250000
0
SEQEND
5
2d2
100
AcDbEntity
8
1
0
LINE
5
2d3
100
AcDbEntity
8
1
100
AcDbLine
6
CONTINUOUS
62
5
10
82.500000
20
300.500000
11
82.500000
21
293.000000
0
POLYLINE
5
2d4
100
AcDbEntity
8
1
6
CONTINUOUS
62
5
100
AcDb2dPolyline
66
1
10
0.0
20
0.0
30
0.0
70
0
0
VERTEX
5
2d5
100
AcDbEntity
8
1
100
AcDbVertex
100
AcDb2dVertex
62
5
10
82.500000
20
300.500000
0
VERTEX
5
2d6
100
AcDbEntity
8
1
100
AcDbVertex
100
AcDb2dVertex
62
5
10
84.062500
20
300.500000
0
VERTEX
5
2d7
100
AcDbEntity
8
1
100
AcDbVertex
100
AcDb2dVertex
62
5
10
84.687500
20
300.187500
0
VERTEX
5
2d8
100
AcDbEntity
8
1
100
AcDbVertex
100
AcDb2dVertex
62
5
10
85.000000
20
299.875000
0
VERTEX
5
2d9
100
AcDbEntity
8
1
100
AcDbVertex
100
AcDb2dVertex
62
5
10
85.312500
20
299.250000
0
VERTEX
5
2da
100
AcDbEntity
8
1
100
AcDbVertex
100
AcDb2dVertex
62
5
10
85.312500
20
298.312500
0
VERTEX
5
2db
100
AcDbEntity
8
1
100
AcDbVertex
100
AcDb2dVertex
62
5
10
85.000000
20
297.687500
0
VERTEX
5
2dc
100
AcDbEntity
8
1
100
AcDbVertex
100
AcDb2dVertex
62
5
10
84.687500
20
297.375000
0
VERTEX
5
2dd
100
AcDbEntity
8
1
100
AcDbVertex
100
AcDb2dVertex
62
5
10
84.062500
20
297.062500
0
VERTEX
5
2de
100
AcDbEntity
8
1
100
AcDbVertex
100
AcDb2dVertex
62
5
10
82.500000
20
297.062500
0
SEQEND
5
2df
100
AcDbEntity
8
1
0
POLYLINE
5
2e0
100
AcDbEntity
8
1
6
CONTINUOUS
62
5
100
AcDb2dPolyline
66
1
10
0.0
20
0.0
30
0.0
70
0
0
VERTEX
5
2e1
100
AcDbEntity
8
1
100
AcDbVertex
100
AcDb2dVertex
62
5
10
84.062500
20
297.062500
0
VERTEX
5
2e2
100
AcDbEntity
8
1
100
AcDbVertex
100
AcDb2dVertex
62
5
10
84.687500
20
296.750000
0
VERTEX
5
2e3
100
AcDbEntity
8
1
100
AcDbVertex
100
AcDb2dVertex
62
5
10
85.312500
20
296.125000
0
VERTEX
5
2e4
100
AcDbEntity
8
1
100
AcDbVertex
100
AcDb2dVertex
62
5
10
85.625000
20
295.500000
0
VERTEX
5
2e5
100
AcDbEntity
8
1
100
AcDbVertex
100
AcDb2dVertex
62
5
10
85.625000
20
294.250000
0
VERTEX
5
2e6
100
AcDbEntity
8
1
100
AcDbVertex
100
AcDb2dVertex
62
5
10
85.312500
20
293.625000
0
VERTEX
5
2e7
100
AcDbEntity
8
1
100
AcDbVertex
100
AcDb2dVertex
62
5
10
85.000000
20
293.312500
0
VERTEX
5
2e8
100
AcDbEntity
8
1
100
AcDbVertex
100
AcDb2dVertex
62
5
10
84.375000
20
293.000000
0
VERTEX
5
2e9
100
AcDbEntity
8
1
100
AcDbVertex
100
AcDb2dVertex
62
5
10
82.500000
20
293.000000
0
SEQEND
5
2ea
100
AcDbEntity
8
1
0
LINE
5
2eb
100
AcDbEntity
8
1
100
AcDbLine
6
DOT2
62
5
10
151.733176
20
209.849812
11
151.108176
21
209.224812
0
POLYLINE
5
2ec
100
AcDbEntity
8
1
6
DOT2
62
5
100
AcDb2dPolyline
66
1
10
0.0
20
0.0
30
0.0
70
0
0
VERTEX
5
2ed
100
AcDbEntity
8
1
100
AcDbVertex
100
AcDb2dVertex
62
5
10
151.108176
20
209.849812
0
VERTEX
5
2ee
100
AcDbEntity
8
1
100
AcDbVertex
100
AcDb2dVertex
62
5
10
151.733176
20
209.224812
0
VERTEX
5
2ef
100
AcDbEntity
8
1
100
AcDbVertex
100
AcDb2dVertex
62
5
10
151.108176
20
209.224812
0
VERTEX
5
2f0
100
AcDbEntity
8
1
100
AcDbVertex
100
AcDb2dVertex
62
5
10
151.108176
20
209.849812
0
VERTEX
5
2f1
100
AcDbEntity
8
1
100
AcDbVertex
100
AcDb2dVertex
62
5
10
151.733176
20
209.849812
0
VERTEX
5
2f2
100
AcDbEntity
8
1
100
AcDbVertex
100
AcDb2dVertex
62
5
10
151.733176
20
209.224812
0
SEQEND
5
2f3
100
AcDbEntity
8
1
0
POLYLINE
5
2f4
100
AcDbEntity
8
1
6
DOT2
62
5
100
AcDb2dPolyline
66
1
10
0.0
20
0.0
30
0.0
70
0
0
VERTEX
5
2f5
100
AcDbEntity
8
1
100
AcDbVertex
100
AcDb2dVertex
62
5
10
159.233176
20
212.662312
0
VERTEX
5
2f6
100
AcDbEntity
8
1
100
AcDbVertex
100
AcDb2dVertex
62
5
10
159.233176
20
212.662312
0
VERTEX
5
2f7
100
AcDbEntity
8
1
100
AcDbVertex
100
AcDb2dVertex
62
5
10
157.983176
20
212.349812
0
VERTEX
5
2f8
100
AcDbEntity
8
1
100
AcDbVertex
100
AcDb2dVertex
62
5
10
157.045676
20
212.349812
0
VERTEX
5
2f9
100
AcDbEntity
8
1
100
AcDbVertex
100
AcDb2dVertex
62
5
10
156.420676
20
212.662312
0
VERTEX
5
2fa
100
AcDbEntity
8
1
100
AcDbVertex
100
AcDb2dVertex
62
5
10
156.108176
20
213.599812
0
VERTEX
5
2fb
100
AcDbEntity
8
1
100
AcDbVertex
100
AcDb2dVertex
62
5
10
156.108176
20
215.162312
0
VERTEX
5
2fc
100
AcDbEntity
8
1
100
AcDbVertex
100
AcDb2dVertex
62
5
10
156.420676
20
216.099812
0
VERTEX
5
2fd
100
AcDbEntity
8
1
100
AcDbVertex
100
AcDb2dVertex
62
5
10
156.733176
20
216.412312
0
VERTEX
5
2fe
100
AcDbEntity
8
1
100
AcDbVertex
100
AcDb2dVertex
62
5
10
157.358176
20
216.724812
0
VERTEX
5
2ff
100
AcDbEntity
8
1
100
AcDbVertex
100
AcDb2dVertex
62
5
10
157.983176
20
216.724812
0
VERTEX
5
300
100
AcDbEntity
8
1
100
AcDbVertex
100
AcDb2dVertex
62
5
10
158.608176
20
216.412312
0
VERTEX
5
301
100
AcDbEntity
8
1
100
AcDbVertex
100
AcDb2dVertex
62
5
10
158.920676
20
216.099812
0
VERTEX
5
302
100
AcDbEntity
8
1
100
AcDbVertex
100
AcDb2dVertex
62
5
10
159.233176
20
215.162312
0
VERTEX
5
303
100
AcDbEntity
8
1
100
AcDbVertex
100
AcDb2dVertex
62
5
10
159.233176
20
211.724812
0
VERTEX
5
304
100
AcDbEntity
8
1
100
AcDbVertex
100
AcDb2dVertex
62
5
10
158.920676
20
210.162312
0
VERTEX
5
305
100
AcDbEntity
8
1
100
AcDbVertex
100
AcDb2dVertex
62
5
10
158.295676
20
209.537312
0
VERTEX
5
306
100
AcDbEntity
8
1
100
AcDbVertex
100
AcDb2dVertex
62
5
10
157.358176
20
209.224812
0
VERTEX
5
307
100
AcDbEntity
8
1
100
AcDbVertex
100
AcDb2dVertex
62
5
10
156.733176
20
209.224812
0
SEQEND
5
308
100
AcDbEntity
8
1
0
POLYLINE
5
309
100
AcDbEntity
8
1
6
DOT2
62
5
100
AcDb2dPolyline
66
1
10
0.0
20
0.0
30
0.0
70
0
0
VERTEX
5
30a
100
AcDbEntity
8
1
100
AcDbVertex
100
AcDb2dVertex
62
5
10
146.108176
20
215.787312
0
VERTEX
5
30b
100
AcDbEntity
8
1
100
AcDbVertex
100
AcDb2dVertex
62
5
10
146.108176
20
216.724812
0
VERTEX
5
30c
100
AcDbEntity
8
1
100
AcDbVertex
100
AcDb2dVertex
62
5
10
149.233176
20
216.724812
0
VERTEX
5
30d
100
AcDbEntity
8
1
100
AcDbVertex
100
AcDb2dVertex
62
5
10
149.233176
20
216.099812
0
VERTEX
5
30e
100
AcDbEntity
8
1
100
AcDbVertex
100
AcDb2dVertex
62
5
10
148.608176
20
214.537312
0
VERTEX
5
30f
100
AcDbEntity
8
1
100
AcDbVertex
100
AcDb2dVertex
62
5
10
147.983176
20
212.349812
0
VERTEX
5
310
100
AcDbEntity
8
1
100
AcDbVertex
100
AcDb2dVertex
62
5
10
147.358176
20
209.224812
0
SEQEND
5
311
100
AcDbEntity
8
1
0
POLYLINE
5
312
100
AcDbEntity
8
1
6
DOT2
62
5
100
AcDb2dPolyline
66
1
10
0.0
20
0.0
30
0.0
70
1
0
VERTEX
5
313
100
AcDbEntity
8
1
100
AcDbVertex
100
AcDb2dVertex
62
5
10
90.658176
20
216.724812
0
VERTEX
5
314
100
AcDbEntity
8
1
100
AcDbVertex
100
AcDb2dVertex
62
5
10
91.283176
20
216.724812
0
VERTEX
5
315
100
AcDbEntity
8
1
100
AcDbVertex
100
AcDb2dVertex
62
5
10
91.908176
20
216.412312
0
VERTEX
5
316
100
AcDbEntity
8
1
100
AcDbVertex
100
AcDb2dVertex
62
5
10
92.220676
20
215.787312
0
VERTEX
5
317
100
AcDbEntity
8
1
100
AcDbVertex
100
AcDb2dVertex
62
5
10
92.220676
20
214.537312
0
VERTEX
5
318
100
AcDbEntity
8
1
100
AcDbVertex
100
AcDb2dVertex
62
5
10
91.908176
20
213.912312
0
VERTEX
5
319
100
AcDbEntity
8
1
100
AcDbVertex
100
AcDb2dVertex
62
5
10
90.033176
20
212.662312
0
VERTEX
5
31a
100
AcDbEntity
8
1
100
AcDbVertex
100
AcDb2dVertex
62
5
10
89.408176
20
211.724812
0
VERTEX
5
31b
100
AcDbEntity
8
1
100
AcDbVertex
100
AcDb2dVertex
62
5
10
89.408176
20
210.474812
0
VERTEX
5
31c
100
AcDbEntity
8
1
100
AcDbVertex
100
AcDb2dVertex
62
5
10
89.720676
20
209.849812
0
VERTEX
5
31d
100
AcDbEntity
8
1
100
AcDbVertex
100
AcDb2dVertex
62
5
10
90.033176
20
209.537312
0
VERTEX
5
31e
100
AcDbEntity
8
1
100
AcDbVertex
100
AcDb2dVertex
62
5
10
90.658176
20
209.224812
0
VERTEX
5
31f
100
AcDbEntity
8
1
100
AcDbVertex
100
AcDb2dVertex
62
5
10
91.283176
20
209.224812
0
VERTEX
5
320
100
AcDbEntity
8
1
100
AcDbVertex
100
AcDb2dVertex
62
5
10
91.908176
20
209.537312
0
VERTEX
5
321
100
AcDbEntity
8
1
100
AcDbVertex
100
AcDb2dVertex
62
5
10
92.220676
20
209.849812
0
VERTEX
5
322
100
AcDbEntity
8
1
100
AcDbVertex
100
AcDb2dVertex
62
5
10
92.533176
20
210.474812
0
VERTEX
5
323
100
AcDbEntity
8
1
100
AcDbVertex
100
AcDb2dVertex
62
5
10
92.533176
20
211.724812
0
VERTEX
5
324
100
AcDbEntity
8
1
100
AcDbVertex
100
AcDb2dVertex
62
5
10
91.908176
20
212.662312
0
VERTEX
5
325
100
AcDbEntity
8
1
100
AcDbVertex
100
AcDb2dVertex
62
5
10
90.033176
20
213.912312
0
VERTEX
5
326
100
AcDbEntity
8
1
100
AcDbVertex
100
AcDb2dVertex
62
5
10
89.720676
20
214.537312
0
VERTEX
5
327
100
AcDbEntity
8
1
100
AcDbVertex
100
AcDb2dVertex
62
5
10
89.720676
20
215.787312
0
VERTEX
5
328
100
AcDbEntity
8
1
100
AcDbVertex
100
AcDb2dVertex
62
5
10
90.033176
20
216.412312
0
VERTEX
5
329
100
AcDbEntity
8
1
100
AcDbVertex
100
AcDb2dVertex
62
5
10
90.658176
20
216.724812
0
SEQEND
5
32a
100
AcDbEntity
8
1
0
LINE
5
32b
100
AcDbEntity
8
1
100
AcDbLine
6
CONTINUOUS
62
5
10
126.958176
20
181.524625
11
126.158176
21
181.524625
0
ARC
5
32c
100
AcDbEntity
8
1
100
AcDbCircle
6
CONTINUOUS
62
5
10
109.758176
20
181.646762
40
1.000000
100
AcDbArc
50
91.282526
51
179.999994
0
LINE
5
32d
100
AcDbEntity
8
1
100
AcDbLine
6
CONTINUOUS
62
5
10
108.758176
20
181.646763
11
108.758176
21
181.213046
0
LINE
5
32e
100
AcDbEntity
8
1
100
AcDbLine
6
CONTINUOUS
62
5
10
122.158176
20
182.924625
11
109.735793
21
182.646512
0
LINE
5
32f
100
AcDbEntity
8
1
100
AcDbLine
6
CONTINUOUS
62
5
10
126.958176
20
183.024625
11
126.958176
21
209.974812
0
LINE
5
330
100
AcDbEntity
8
1
100
AcDbLine
6
CONTINUOUS
62
5
10
134.858176
20
183.974812
11
134.858176
21
209.974812
0
POLYLINE
5
331
100
AcDbEntity
8
1
6
CONTINUOUS
62
5
100
AcDb2dPolyline
66
1
10
0.0
20
0.0
30
0.0
70
0
0
VERTEX
5
332
100
AcDbEntity
8
1
100
AcDbVertex
100
AcDb2dVertex
62
5
10
161.108176
20
207.974812
0
VERTEX
5
333
100
AcDbEntity
8
1
100
AcDbVertex
100
AcDb2dVertex
62
5
10
134.858176
20
207.974812
0
VERTEX
5
334
100
AcDbEntity
8
1
100
AcDbVertex
100
AcDb2dVertex
62
5
10
140.858176
20
208.974812
0
VERTEX
5
335
100
AcDbEntity
8
1
100
AcDbVertex
100
AcDb2dVertex
62
5
10
140.858176
20
206.974812
0
VERTEX
5
336
100
AcDbEntity
8
1
100
AcDbVertex
100
AcDb2dVertex
62
5
10
134.858176
20
207.974812
0
VERTEX
5
337
100
AcDbEntity
8
1
100
AcDbVertex
100
AcDb2dVertex
62
5
10
140.858176
20
208.474812
0
VERTEX
5
338
100
AcDbEntity
8
1
100
AcDbVertex
100
AcDb2dVertex
62
5
10
140.858176
20
207.474812
0
VERTEX
5
339
100
AcDbEntity
8
1
100
AcDbVertex
100
AcDb2dVertex
62
5
10
134.858176
20
207.974812
0
SEQEND
5
33a
100
AcDbEntity
8
1
0
LINE
5
33b
100
AcDbEntity
8
1
100
AcDbLine
6
CONTINUOUS
62
5
10
134.858176
20
207.974812
11
126.958176
21
207.974812
0
LINE
5
33c
100
AcDbEntity
8
1
100
AcDbLine
6
CONTINUOUS
62
5
10
123.958176
20
207.974812
11
126.958176
21
207.974812
0
POLYLINE
5
33d
100
AcDbEntity
8
1
6
DOT2
62
5
100
AcDb2dPolyline
66
1
10
0.0
20
0.0
30
0.0
70
0
0
VERTEX
5
33e
100
AcDbEntity
8
1
100
AcDbVertex
100
AcDb2dVertex
62
5
10
74.408176
20
214.537312
0
VERTEX
5
33f
100
AcDbEntity
8
1
100
AcDbVertex
100
AcDb2dVertex
62
5
10
74.720676
20
216.099812
0
VERTEX
5
340
100
AcDbEntity
8
1
100
AcDbVertex
100
AcDb2dVertex
62
5
10
75.658176
20
216.724812
0
VERTEX
5
341
100
AcDbEntity
8
1
100
AcDbVertex
100
AcDb2dVertex
62
5
10
76.595676
20
216.724812
0
VERTEX
5
342
100
AcDbEntity
8
1
100
AcDbVertex
100
AcDb2dVertex
62
5
10
77.220676
20
216.412312
0
VERTEX
5
343
100
AcDbEntity
8
1
100
AcDbVertex
100
AcDb2dVertex
62
5
10
77.533176
20
215.474812
0
VERTEX
5
344
100
AcDbEntity
8
1
100
AcDbVertex
100
AcDb2dVertex
62
5
10
77.533176
20
214.537312
0
VERTEX
5
345
100
AcDbEntity
8
1
100
AcDbVertex
100
AcDb2dVertex
62
5
10
77.220676
20
213.599812
0
VERTEX
5
346
100
AcDbEntity
8
1
100
AcDbVertex
100
AcDb2dVertex
62
5
10
74.408176
20
209.224812
0
VERTEX
5
347
100
AcDbEntity
8
1
100
AcDbVertex
100
AcDb2dVertex
62
5
10
77.533176
20
209.224812
0
VERTEX
5
348
100
AcDbEntity
8
1
100
AcDbVertex
100
AcDb2dVertex
62
5
10
77.533176
20
210.162312
0
SEQEND
5
349
100
AcDbEntity
8
1
0
POLYLINE
5
34a
100
AcDbEntity
8
1
6
DOT2
62
5
100
AcDb2dPolyline
66
1
10
0.0
20
0.0
30
0.0
70
0
0
VERTEX
5
34b
100
AcDbEntity
8
1
100
AcDbVertex
100
AcDb2dVertex
62
5
10
79.408176
20
214.849812
0
VERTEX
5
34c
100
AcDbEntity
8
1
100
AcDbVertex
100
AcDb2dVertex
62
5
10
79.720676
20
216.099812
0
VERTEX
5
34d
100
AcDbEntity
8
1
100
AcDbVertex
100
AcDb2dVertex
62
5
10
80.345676
20
216.724812
0
VERTEX
5
34e
100
AcDbEntity
8
1
100
AcDbVertex
100
AcDb2dVertex
62
5
10
81.283176
20
216.724812
0
VERTEX
5
34f
100
AcDbEntity
8
1
100
AcDbVertex
100
AcDb2dVertex
62
5
10
81.908176
20
216.412312
0
VERTEX
5
350
100
AcDbEntity
8
1
100
AcDbVertex
100
AcDb2dVertex
62
5
10
82.220676
20
215.474812
0
VERTEX
5
351
100
AcDbEntity
8
1
100
AcDbVertex
100
AcDb2dVertex
62
5
10
82.220676
20
214.224812
0
VERTEX
5
352
100
AcDbEntity
8
1
100
AcDbVertex
100
AcDb2dVertex
62
5
10
81.908176
20
213.599812
0
VERTEX
5
353
100
AcDbEntity
8
1
100
AcDbVertex
100
AcDb2dVertex
62
5
10
81.283176
20
212.974812
0
VERTEX
5
354
100
AcDbEntity
8
1
100
AcDbVertex
100
AcDb2dVertex
62
5
10
80.345676
20
212.974812
0
SEQEND
5
355
100
AcDbEntity
8
1
0
POLYLINE
5
356
100
AcDbEntity
8
1
6
DOT2
62
5
100
AcDb2dPolyline
66
1
10
0.0
20
0.0
30
0.0
70
0
0
VERTEX
5
357
100
AcDbEntity
8
1
100
AcDbVertex
100
AcDb2dVertex
62
5
10
81.283176
20
212.974812
0
VERTEX
5
358
100
AcDbEntity
8
1
100
AcDbVertex
100
AcDb2dVertex
62
5
10
82.220676
20
212.349812
0
VERTEX
5
359
100
AcDbEntity
8
1
100
AcDbVertex
100
AcDb2dVertex
62
5
10
82.533176
20
211.412312
0
VERTEX
5
35a
100
AcDbEntity
8
1
100
AcDbVertex
100
AcDb2dVertex
62
5
10
82.533176
20
210.474812
0
VERTEX
5
35b
100
AcDbEntity
8
1
100
AcDbVertex
100
AcDb2dVertex
62
5
10
82.220676
20
209.849812
0
VERTEX
5
35c
100
AcDbEntity
8
1
100
AcDbVertex
100
AcDb2dVertex
62
5
10
81.283176
20
209.224812
0
VERTEX
5
35d
100
AcDbEntity
8
1
100
AcDbVertex
100
AcDb2dVertex
62
5
10
80.345676
20
209.224812
0
VERTEX
5
35e
100
AcDbEntity
8
1
100
AcDbVertex
100
AcDb2dVertex
62
5
10
79.720676
20
209.537312
0
VERTEX
5
35f
100
AcDbEntity
8
1
100
AcDbVertex
100
AcDb2dVertex
62
5
10
79.095676
20
210.474812
0
SEQEND
5
360
100
AcDbEntity
8
1
0
LINE
5
361
100
AcDbEntity
8
1
100
AcDbLine
6
DOT2
62
5
10
85.033176
20
209.849812
11
84.408176
21
209.224812
0
POLYLINE
5
362
100
AcDbEntity
8
1
6
DOT2
62
5
100
AcDb2dPolyline
66
1
10
0.0
20
0.0
30
0.0
70
0
0
VERTEX
5
363
100
AcDbEntity
8
1
100
AcDbVertex
100
AcDb2dVertex
62
5
10
84.408176
20
209.849812
0
VERTEX
5
364
100
AcDbEntity
8
1
100
AcDbVertex
100
AcDb2dVertex
62
5
10
85.033176
20
209.224812
0
VERTEX
5
365
100
AcDbEntity
8
1
100
AcDbVertex
100
AcDb2dVertex
62
5
10
84.408176
20
209.224812
0
VERTEX
5
366
100
AcDbEntity
8
1
100
AcDbVertex
100
AcDb2dVertex
62
5
10
84.408176
20
209.849812
0
VERTEX
5
367
100
AcDbEntity
8
1
100
AcDbVertex
100
AcDb2dVertex
62
5
10
85.033176
20
209.849812
0
VERTEX
5
368
100
AcDbEntity
8
1
100
AcDbVertex
100
AcDb2dVertex
62
5
10
85.033176
20
209.224812
0
SEQEND
5
369
100
AcDbEntity
8
1
0
LINE
5
36a
100
AcDbEntity
8
1
100
AcDbLine
6
CONTINUOUS
62
5
10
126.958176
20
183.024625
11
126.958176
21
209.974812
0
LINE
5
36b
100
AcDbEntity
8
1
100
AcDbLine
6
CONTINUOUS
62
5
10
103.158176
20
181.640290
11
103.158176
21
209.974812
0
POLYLINE
5
36c
100
AcDbEntity
8
1
6
CONTINUOUS
62
5
100
AcDb2dPolyline
66
1
10
0.0
20
0.0
30
0.0
70
0
0
VERTEX
5
36d
100
AcDbEntity
8
1
100
AcDbVertex
100
AcDb2dVertex
62
5
10
71.908176
20
207.974812
0
VERTEX
5
36e
100
AcDbEntity
8
1
100
AcDbVertex
100
AcDb2dVertex
62
5
10
103.158176
20
207.974812
0
VERTEX
5
36f
100
AcDbEntity
8
1
100
AcDbVertex
100
AcDb2dVertex
62
5
10
97.158176
20
206.974812
0
VERTEX
5
370
100
AcDbEntity
8
1
100
AcDbVertex
100
AcDb2dVertex
62
5
10
97.158176
20
208.974812
0
VERTEX
5
371
100
AcDbEntity
8
1
100
AcDbVertex
100
AcDb2dVertex
62
5
10
103.158176
20
207.974812
0
VERTEX
5
372
100
AcDbEntity
8
1
100
AcDbVertex
100
AcDb2dVertex
62
5
10
97.158176
20
207.474812
0
VERTEX
5
373
100
AcDbEntity
8
1
100
AcDbVertex
100
AcDb2dVertex
62
5
10
97.158176
20
208.474812
0
VERTEX
5
374
100
AcDbEntity
8
1
100
AcDbVertex
100
AcDb2dVertex
62
5
10
103.158176
20
207.974812
0
SEQEND
5
375
100
AcDbEntity
8
1
0
LINE
5
376
100
AcDbEntity
8
1
100
AcDbLine
6
CONTINUOUS
62
5
10
103.158176
20
207.974812
11
126.958176
21
207.974812
0
LINE
5
377
100
AcDbEntity
8
1
100
AcDbLine
6
CONTINUOUS
62
5
10
131.958176
20
207.974812
11
126.958176
21
207.974812
0
POLYLINE
5
378
100
AcDbEntity
8
1
6
CONTINUOUS
62
5
100
AcDb2dPolyline
66
1
10
0.0
20
0.0
30
0.0
70
0
0
VERTEX
5
379
100
AcDbEntity
8
1
100
AcDbVertex
100
AcDb2dVertex
62
5
10
125.958176
20
207.474812
0
VERTEX
5
37a
100
AcDbEntity
8
1
100
AcDbVertex
100
AcDb2dVertex
62
5
10
125.958176
20
208.474812
0
VERTEX
5
37b
100
AcDbEntity
8
1
100
AcDbVertex
100
AcDb2dVertex
62
5
10
126.458176
20
208.974812
0
VERTEX
5
37c
100
AcDbEntity
8
1
100
AcDbVertex
100
AcDb2dVertex
62
5
10
127.458176
20
208.974812
0
VERTEX
5
37d
100
AcDbEntity
8
1
100
AcDbVertex
100
AcDb2dVertex
62
5
10
127.958176
20
208.474812
0
VERTEX
5
37e
100
AcDbEntity
8
1
100
AcDbVertex
100
AcDb2dVertex
62
5
10
127.958176
20
207.474812
0
VERTEX
5
37f
100
AcDbEntity
8
1
100
AcDbVertex
100
AcDb2dVertex
62
5
10
127.458176
20
206.974812
0
VERTEX
5
380
100
AcDbEntity
8
1
100
AcDbVertex
100
AcDb2dVertex
62
5
10
126.458176
20
206.974812
0
VERTEX
5
381
100
AcDbEntity
8
1
100
AcDbVertex
100
AcDb2dVertex
62
5
10
125.958176
20
207.474812
0
VERTEX
5
382
100
AcDbEntity
8
1
100
AcDbVertex
100
AcDb2dVertex
62
5
10
127.958176
20
208.474812
0
SEQEND
5
383
100
AcDbEntity
8
1
0
LINE
5
384
100
AcDbEntity
8
1
100
AcDbLine
6
CONTINUOUS
62
5
10
127.958176
20
207.474812
11
125.958176
21
208.474812
0
LINE
5
385
100
AcDbEntity
8
1
100
AcDbLine
6
CONTINUOUS
62
5
10
126.458176
20
208.974812
11
127.458176
21
206.974812
0
LINE
5
386
100
AcDbEntity
8
1
100
AcDbLine
6
CONTINUOUS
62
5
10
126.458176
20
206.974812
11
127.458176
21
208.974812
0
LINE
5
387
100
AcDbEntity
8
1
100
AcDbLine
6
CONTINUOUS
62
5
10
170.250000
20
335.562500
11
170.500000
21
334.312500
0
LINE
5
388
100
AcDbEntity
8
1
100
AcDbLine
6
CONTINUOUS
62
5
10
171.750000
20
335.875000
11
172.000000
21
334.625000
0
POLYLINE
5
389
100
AcDbEntity
8
1
6
CONTINUOUS
62
5
100
AcDb2dPolyline
66
1
10
0.0
20
0.0
30
0.0
70
0
0
VERTEX
5
38a
100
AcDbEntity
8
1
100
AcDbVertex
100
AcDb2dVertex
62
5
10
173.750000
20
335.875000
0
VERTEX
5
38b
100
AcDbEntity
8
1
100
AcDbVertex
100
AcDb2dVertex
62
5
10
173.500000
20
334.312500
0
VERTEX
5
38c
100
AcDbEntity
8
1
100
AcDbVertex
100
AcDb2dVertex
62
5
10
172.250000
20
332.437500
0
VERTEX
5
38d
100
AcDbEntity
8
1
100
AcDbVertex
100
AcDb2dVertex
62
5
10
171.250000
20
331.500000
0
SEQEND
5
38e
100
AcDbEntity
8
1
0
LINE
5
38f
100
AcDbEntity
8
1
100
AcDbLine
6
CONTINUOUS
62
5
10
10.000000
20
318.000000
11
330.000000
21
318.000000
0
LINE
5
390
100
AcDbEntity
8
1
100
AcDbLine
6
DOT2
62
5
10
260.566824
20
161.875000
11
261.191824
21
161.250000
0
POLYLINE
5
391
100
AcDbEntity
8
1
6
DOT2
62
5
100
AcDb2dPolyline
66
1
10
0.0
20
0.0
30
0.0
70
0
0
VERTEX
5
392
100
AcDbEntity
8
1
100
AcDbVertex
100
AcDb2dVertex
62
5
10
260.566824
20
161.250000
0
VERTEX
5
393
100
AcDbEntity
8
1
100
AcDbVertex
100
AcDb2dVertex
62
5
10
261.191824
20
161.875000
0
VERTEX
5
394
100
AcDbEntity
8
1
100
AcDbVertex
100
AcDb2dVertex
62
5
10
261.191824
20
161.250000
0
VERTEX
5
395
100
AcDbEntity
8
1
100
AcDbVertex
100
AcDb2dVertex
62
5
10
260.566824
20
161.250000
0
VERTEX
5
396
100
AcDbEntity
8
1
100
AcDbVertex
100
AcDb2dVertex
62
5
10
260.566824
20
161.875000
0
VERTEX
5
397
100
AcDbEntity
8
1
100
AcDbVertex
100
AcDb2dVertex
62
5
10
261.191824
20
161.875000
0
SEQEND
5
398
100
AcDbEntity
8
1
0
LINE
5
399
100
AcDbEntity
8
1
100
AcDbLine
6
CONTINUOUS
62
5
10
235.341824
20
176.048331
11
235.341824
21
166.500000
0
LINE
5
39a
100
AcDbEntity
8
1
100
AcDbLine
6
CONTINUOUS
62
5
10
234.841824
20
161.000000
11
234.841824
21
159.000000
0
LINE
5
39b
100
AcDbEntity
8
1
100
AcDbLine
6
CONTINUOUS
62
5
10
234.541813
20
161.000000
11
234.541813
21
159.000000
0
ARC
5
39c
100
AcDbEntity
8
1
100
AcDbCircle
6
CONTINUOUS
62
5
10
235.141824
20
162.000000
40
1.000000
100
AcDbArc
50
-84.260829
51
-0.000000
0
LINE
5
39d
100
AcDbEntity
8
1
100
AcDbLine
6
CONTINUOUS
62
5
10
236.141824
20
162.000000
11
236.141824
21
165.500000
0
ARC
5
39e
100
AcDbEntity
8
1
100
AcDbCircle
6
CONTINUOUS
62
5
10
235.141824
20
165.500000
40
1.000000
100
AcDbArc
50
0.000000
51
84.260829
0
ARC
5
39f
100
AcDbEntity
8
1
100
AcDbCircle
6
CONTINUOUS
62
5
10
235.341824
20
162.000000
40
1.000000
100
AcDbArc
50
-133.731283
51
-89.999999
0
ARC
5
3a0
100
AcDbEntity
8
1
100
AcDbCircle
6
CONTINUOUS
62
5
10
235.341824
20
162.000000
40
1.000000
100
AcDbArc
50
-89.999999
51
0.000000
0
LINE
5
3a1
100
AcDbEntity
8
1
100
AcDbLine
6
CONTINUOUS
62
5
10
236.341824
20
162.000000
11
236.341824
21
165.500000
0
ARC
5
3a2
100
AcDbEntity
8
1
100
AcDbCircle
6
CONTINUOUS
62
5
10
235.341824
20
165.500000
40
1.000000
100
AcDbArc
50
0.000000
51
89.999999
0
ARC
5
3a3
100
AcDbEntity
8
1
100
AcDbCircle
6
CONTINUOUS
62
5
10
235.341824
20
165.500000
40
1.000000
100
AcDbArc
50
89.999999
51
101.536958
0
ARC
5
3a4
100
AcDbEntity
8
1
100
AcDbCircle
6
CONTINUOUS
62
5
10
231.141824
20
177.500000
40
0.500000
100
AcDbArc
50
-89.999999
51
61.641340
0
POLYLINE
5
3a5
100
AcDbEntity
8
1
6
CONTINUOUS
62
5
100
AcDb2dPolyline
66
1
10
0.0
20
0.0
30
0.0
70
0
0
VERTEX
5
3a6
100
AcDbEntity
8
1
100
AcDbVertex
100
AcDb2dVertex
62
5
10
231.379319
20
177.939996
0
VERTEX
5
3a7
100
AcDbEntity
8
1
100
AcDbVertex
100
AcDb2dVertex
62
5
10
230.341824
20
178.500000
0
VERTEX
5
3a8
100
AcDbEntity
8
1
100
AcDbVertex
100
AcDb2dVertex
62
5
10
229.841824
20
178.500000
0
VERTEX
5
3a9
100
AcDbEntity
8
1
100
AcDbVertex
100
AcDb2dVertex
62
5
10
229.341824
20
179.000000
0
SEQEND
5
3aa
100
AcDbEntity
8
1
0
LINE
5
3ab
100
AcDbEntity
8
1
100
AcDbLine
6
CONTINUOUS
62
5
10
230.341824
20
177.000000
11
231.141824
21
177.000000
0
ARC
5
3ac
100
AcDbEntity
8
1
100
AcDbCircle
6
CONTINUOUS
62
5
10
230.641824
20
165.500000
40
1.000000
100
AcDbArc
50
-89.999999
51
-0.000000
0
LINE
5
3ad
100
AcDbEntity
8
1
100
AcDbLine
6
CONTINUOUS
62
5
10
231.641824
20
165.500000
11
231.641824
21
165.700000
0
ARC
5
3ae
100
AcDbEntity
8
1
100
AcDbCircle
6
CONTINUOUS
62
5
10
231.341824
20
165.700000
40
0.300000
100
AcDbArc
50
0.000000
51
89.999999
0
LINE
5
3af
100
AcDbEntity
8
1
100
AcDbLine
6
CONTINUOUS
62
5
10
231.341824
20
166.000000
11
230.341824
21
166.000000
0
POLYLINE
5
3b0
100
AcDbEntity
8
1
6
CONTINUOUS
62
5
100
AcDb2dPolyline
66
1
10
0.0
20
0.0
30
0.0
70
0
0
VERTEX
5
3b1
100
AcDbEntity
8
1
100
AcDbVertex
100
AcDb2dVertex
62
5
10
229.341824
20
163.500000
0
VERTEX
5
3b2
100
AcDbEntity
8
1
100
AcDbVertex
100
AcDb2dVertex
62
5
10
230.341824
20
164.500000
0
VERTEX
5
3b3
100
AcDbEntity
8
1
100
AcDbVertex
100
AcDb2dVertex
62
5
10
230.641824
20
164.500000
0
SEQEND
5
3b4
100
AcDbEntity
8
1
0
ARC
5
3b5
100
AcDbEntity
8
1
100
AcDbCircle
6
CONTINUOUS
62
5
10
231.341824
20
168.150000
40
0.300000
100
AcDbArc
50
-89.999999
51
0.000000
0
LINE
5
3b6
100
AcDbEntity
8
1
100
AcDbLine
6
CONTINUOUS
62
5
10
231.341824
20
167.850000
11
231.341824
21
167.850000
0
LINE
5
3b7
100
AcDbEntity
8
1
100
AcDbLine
6
CONTINUOUS
62
5
10
231.341824
20
175.150000
11
231.341824
21
175.150000
0
ARC
5
3b8
100
AcDbEntity
8
1
100
AcDbCircle
6
CONTINUOUS
62
5
10
231.341824
20
174.850000
40
0.300000
100
AcDbArc
50
0.000000
51
89.999999
0
LINE
5
3b9
100
AcDbEntity
8
1
100
AcDbLine
6
CONTINUOUS
62
5
10
231.641824
20
174.850000
11
231.641824
21
168.150000
0
POLYLINE
5
3ba
100
AcDbEntity
8
0
6
CONTINUOUS
62
5
100
AcDb2dPolyline
66
1
10
0.0
20
0.0
30
0.0
70
1
0
VERTEX
5
3bb
100
AcDbEntity
8
0
100
AcDbVertex
100
AcDb2dVertex
62
5
10
221.075434
20
166.293418
0
VERTEX
5
3bc
100
AcDbEntity
8
0
100
AcDbVertex
100
AcDb2dVertex
62
5
10
221.035548
20
166.384586
0
VERTEX
5
3bd
100
AcDbEntity
8
0
100
AcDbVertex
100
AcDb2dVertex
62
5
10
220.991863
20
166.471955
0
VERTEX
5
3be
100
AcDbEntity
8
0
100
AcDbVertex
100
AcDb2dVertex
62
5
10
220.986165
20
166.497597
0
VERTEX
5
3bf
100
AcDbEntity
8
0
100
AcDbVertex
100
AcDb2dVertex
62
5
10
220.991863
20
166.517540
0
VERTEX
5
3c0
100
AcDbEntity
8
0
100
AcDbVertex
100
AcDb2dVertex
62
5
10
221.008957
20
166.531785
0
VERTEX
5
3c1
100
AcDbEntity
8
0
100
AcDbVertex
100
AcDb2dVertex
62
5
10
221.035548
20
166.537483
0
VERTEX
5
3c2
100
AcDbEntity
8
0
100
AcDbVertex
100
AcDb2dVertex
62
5
10
221.058340
20
166.531785
0
VERTEX
5
3c3
100
AcDbEntity
8
0
100
AcDbVertex
100
AcDb2dVertex
62
5
10
221.077333
20
166.514691
0
VERTEX
5
3c4
100
AcDbEntity
8
0
100
AcDbVertex
100
AcDb2dVertex
62
5
10
221.141911
20
166.406428
0
VERTEX
5
3c5
100
AcDbEntity
8
0
100
AcDbVertex
100
AcDb2dVertex
62
5
10
221.187495
20
166.309562
0
VERTEX
5
3c6
100
AcDbEntity
8
0
100
AcDbVertex
100
AcDb2dVertex
62
5
10
221.214086
20
166.224092
0
VERTEX
5
3c7
100
AcDbEntity
8
0
100
AcDbVertex
100
AcDb2dVertex
62
5
10
221.214086
20
166.198451
0
VERTEX
5
3c8
100
AcDbEntity
8
0
100
AcDbVertex
100
AcDb2dVertex
62
5
10
221.202690
20
166.178508
0
VERTEX
5
3c9
100
AcDbEntity
8
0
100
AcDbVertex
100
AcDb2dVertex
62
5
10
221.179898
20
166.164263
0
VERTEX
5
3ca
100
AcDbEntity
8
0
100
AcDbVertex
100
AcDb2dVertex
62
5
10
221.149508
20
166.164263
0
VERTEX
5
3cb
100
AcDbEntity
8
0
100
AcDbVertex
100
AcDb2dVertex
62
5
10
221.126716
20
166.175659
0
VERTEX
5
3cc
100
AcDbEntity
8
0
100
AcDbVertex
100
AcDb2dVertex
62
5
10
221.111521
20
166.198451
0
SEQEND
5
3cd
100
AcDbEntity
8
0
0
POLYLINE
5
3ce
100
AcDbEntity
8
0
6
CONTINUOUS
62
5
100
AcDb2dPolyline
66
1
10
0.0
20
0.0
30
0.0
70
1
0
VERTEX
5
3cf
100
AcDbEntity
8
0
100
AcDbVertex
100
AcDb2dVertex
62
5
10
220.821872
20
166.316210
0
VERTEX
5
3d0
100
AcDbEntity
8
0
100
AcDbVertex
100
AcDb2dVertex
62
5
10
220.778187
20
166.403579
0
VERTEX
5
3d1
100
AcDbEntity
8
0
100
AcDbVertex
100
AcDb2dVertex
62
5
10
220.772489
20
166.429220
0
VERTEX
5
3d2
100
AcDbEntity
8
0
100
AcDbVertex
100
AcDb2dVertex
62
5
10
220.778187
20
166.449163
0
VERTEX
5
3d3
100
AcDbEntity
8
0
100
AcDbVertex
100
AcDb2dVertex
62
5
10
220.795282
20
166.463408
0
VERTEX
5
3d4
100
AcDbEntity
8
0
100
AcDbVertex
100
AcDb2dVertex
62
5
10
220.821872
20
166.469106
0
VERTEX
5
3d5
100
AcDbEntity
8
0
100
AcDbVertex
100
AcDb2dVertex
62
5
10
220.844664
20
166.463408
0
VERTEX
5
3d6
100
AcDbEntity
8
0
100
AcDbVertex
100
AcDb2dVertex
62
5
10
220.863658
20
166.446314
0
VERTEX
5
3d7
100
AcDbEntity
8
0
100
AcDbVertex
100
AcDb2dVertex
62
5
10
220.928235
20
166.338052
0
VERTEX
5
3d8
100
AcDbEntity
8
0
100
AcDbVertex
100
AcDb2dVertex
62
5
10
220.973819
20
166.241186
0
VERTEX
5
3d9
100
AcDbEntity
8
0
100
AcDbVertex
100
AcDb2dVertex
62
5
10
221.000410
20
166.155716
0
VERTEX
5
3da
100
AcDbEntity
8
0
100
AcDbVertex
100
AcDb2dVertex
62
5
10
221.000410
20
166.130075
0
VERTEX
5
3db
100
AcDbEntity
8
0
100
AcDbVertex
100
AcDb2dVertex
62
5
10
220.989014
20
166.110131
0
VERTEX
5
3dc
100
AcDbEntity
8
0
100
AcDbVertex
100
AcDb2dVertex
62
5
10
220.966222
20
166.095886
0
VERTEX
5
3dd
100
AcDbEntity
8
0
100
AcDbVertex
100
AcDb2dVertex
62
5
10
220.935833
20
166.095886
0
VERTEX
5
3de
100
AcDbEntity
8
0
100
AcDbVertex
100
AcDb2dVertex
62
5
10
220.913041
20
166.107282
0
VERTEX
5
3df
100
AcDbEntity
8
0
100
AcDbVertex
100
AcDb2dVertex
62
5
10
220.897846
20
166.130075
0
VERTEX
5
3e0
100
AcDbEntity
8
0
100
AcDbVertex
100
AcDb2dVertex
62
5
10
220.861758
20
166.225041
0
SEQEND
5
3e1
100
AcDbEntity
8
0
0
POLYLINE
5
3e2
100
AcDbEntity
8
0
6
CONTINUOUS
62
5
100
AcDb2dPolyline
66
1
10
0.0
20
0.0
30
0.0
70
1
0
VERTEX
5
3e3
100
AcDbEntity
8
0
100
AcDbVertex
100
AcDb2dVertex
62
5
10
220.649982
20
166.788195
0
VERTEX
5
3e4
100
AcDbEntity
8
0
100
AcDbVertex
100
AcDb2dVertex
62
5
10
220.741150
20
166.793893
0
VERTEX
5
3e5
100
AcDbEntity
8
0
100
AcDbVertex
100
AcDb2dVertex
62
5
10
220.832319
20
166.799591
0
VERTEX
5
3e6
100
AcDbEntity
8
0
100
AcDbVertex
100
AcDb2dVertex
62
5
10
220.923487
20
166.805289
0
VERTEX
5
3e7
100
AcDbEntity
8
0
100
AcDbVertex
100
AcDb2dVertex
62
5
10
221.162804
20
166.822383
0
VERTEX
5
3e8
100
AcDbEntity
8
0
100
AcDbVertex
100
AcDb2dVertex
62
5
10
221.206488
20
166.809088
0
VERTEX
5
3e9
100
AcDbEntity
8
0
100
AcDbVertex
100
AcDb2dVertex
62
5
10
221.234978
20
166.780598
0
VERTEX
5
3ea
100
AcDbEntity
8
0
100
AcDbVertex
100
AcDb2dVertex
62
5
10
221.248274
20
166.736913
0
VERTEX
5
3eb
100
AcDbEntity
8
0
100
AcDbVertex
100
AcDb2dVertex
62
5
10
221.238777
20
166.693228
0
VERTEX
5
3ec
100
AcDbEntity
8
0
100
AcDbVertex
100
AcDb2dVertex
62
5
10
221.210287
20
166.664738
0
VERTEX
5
3ed
100
AcDbEntity
8
0
100
AcDbVertex
100
AcDb2dVertex
62
5
10
221.162804
20
166.651443
0
VERTEX
5
3ee
100
AcDbEntity
8
0
100
AcDbVertex
100
AcDb2dVertex
62
5
10
221.026051
20
166.651443
0
VERTEX
5
3ef
100
AcDbEntity
8
0
100
AcDbVertex
100
AcDb2dVertex
62
5
10
220.778187
20
166.616305
0
VERTEX
5
3f0
100
AcDbEntity
8
0
100
AcDbVertex
100
AcDb2dVertex
62
5
10
220.547418
20
166.522288
0
VERTEX
5
3f1
100
AcDbEntity
8
0
100
AcDbVertex
100
AcDb2dVertex
62
5
10
220.333742
20
166.369391
0
VERTEX
5
3f2
100
AcDbEntity
8
0
100
AcDbVertex
100
AcDb2dVertex
62
5
10
220.200789
20
166.206998
0
VERTEX
5
3f3
100
AcDbEntity
8
0
100
AcDbVertex
100
AcDb2dVertex
62
5
10
220.121016
20
166.038906
0
VERTEX
5
3f4
100
AcDbEntity
8
0
100
AcDbVertex
100
AcDb2dVertex
62
5
10
220.094426
20
165.865117
0
VERTEX
5
3f5
100
AcDbEntity
8
0
100
AcDbVertex
100
AcDb2dVertex
62
5
10
220.113419
20
165.708421
0
VERTEX
5
3f6
100
AcDbEntity
8
0
100
AcDbVertex
100
AcDb2dVertex
62
5
10
220.170399
20
165.568820
0
VERTEX
5
3f7
100
AcDbEntity
8
0
100
AcDbVertex
100
AcDb2dVertex
62
5
10
220.265366
20
165.446313
0
VERTEX
5
3f8
100
AcDbEntity
8
0
100
AcDbVertex
100
AcDb2dVertex
62
5
10
220.440105
20
165.332352
0
VERTEX
5
3f9
100
AcDbEntity
8
0
100
AcDbVertex
100
AcDb2dVertex
62
5
10
220.668026
20
165.263976
0
VERTEX
5
3fa
100
AcDbEntity
8
0
100
AcDbVertex
100
AcDb2dVertex
62
5
10
220.949128
20
165.241184
0
VERTEX
5
3fb
100
AcDbEntity
8
0
100
AcDbVertex
100
AcDb2dVertex
62
5
10
220.992813
20
165.227889
0
VERTEX
5
3fc
100
AcDbEntity
8
0
100
AcDbVertex
100
AcDb2dVertex
62
5
10
221.021303
20
165.199399
0
VERTEX
5
3fd
100
AcDbEntity
8
0
100
AcDbVertex
100
AcDb2dVertex
62
5
10
221.034598
20
165.155714
0
VERTEX
5
3fe
100
AcDbEntity
8
0
100
AcDbVertex
100
AcDb2dVertex
62
5
10
221.021303
20
165.112029
0
VERTEX
5
3ff
100
AcDbEntity
8
0
100
AcDbVertex
100
AcDb2dVertex
62
5
10
220.992813
20
165.083539
0
VERTEX
5
400
100
AcDbEntity
8
0
100
AcDbVertex
100
AcDb2dVertex
62
5
10
220.949128
20
165.070244
0
VERTEX
5
401
100
AcDbEntity
8
0
100
AcDbVertex
100
AcDb2dVertex
62
5
10
220.655680
20
165.096835
0
VERTEX
5
402
100
AcDbEntity
8
0
100
AcDbVertex
100
AcDb2dVertex
62
5
10
220.402119
20
165.176607
0
VERTEX
5
403
100
AcDbEntity
8
0
100
AcDbVertex
100
AcDb2dVertex
62
5
10
220.188443
20
165.309560
0
VERTEX
5
404
100
AcDbEntity
8
0
100
AcDbVertex
100
AcDb2dVertex
62
5
10
220.055489
20
165.468155
0
VERTEX
5
405
100
AcDbEntity
8
0
100
AcDbVertex
100
AcDb2dVertex
62
5
10
219.975717
20
165.647643
0
VERTEX
5
406
100
AcDbEntity
8
0
100
AcDbVertex
100
AcDb2dVertex
62
5
10
219.949126
20
165.848023
0
VERTEX
5
407
100
AcDbEntity
8
0
100
AcDbVertex
100
AcDb2dVertex
62
5
10
219.972868
20
166.026561
0
VERTEX
5
408
100
AcDbEntity
8
0
100
AcDbVertex
100
AcDb2dVertex
62
5
10
220.044093
20
166.197501
0
VERTEX
5
409
100
AcDbEntity
8
0
100
AcDbVertex
100
AcDb2dVertex
62
5
10
220.162802
20
166.360844
0
VERTEX
5
40a
100
AcDbEntity
8
0
100
AcDbVertex
100
AcDb2dVertex
62
5
10
220.273913
20
166.462459
0
VERTEX
5
40b
100
AcDbEntity
8
0
100
AcDbVertex
100
AcDb2dVertex
62
5
10
220.413515
20
166.562174
0
VERTEX
5
40c
100
AcDbEntity
8
0
100
AcDbVertex
100
AcDb2dVertex
62
5
10
220.581606
20
166.659990
0
VERTEX
5
40d
100
AcDbEntity
8
0
100
AcDbVertex
100
AcDb2dVertex
62
5
10
220.224530
20
166.627701
0
VERTEX
5
40e
100
AcDbEntity
8
0
100
AcDbVertex
100
AcDb2dVertex
62
5
10
219.905442
20
166.599211
0
VERTEX
5
40f
100
AcDbEntity
8
0
100
AcDbVertex
100
AcDb2dVertex
62
5
10
219.624339
20
166.574520
0
VERTEX
5
410
100
AcDbEntity
8
0
100
AcDbVertex
100
AcDb2dVertex
62
5
10
219.555014
20
166.568822
0
VERTEX
5
411
100
AcDbEntity
8
0
100
AcDbVertex
100
AcDb2dVertex
62
5
10
219.483788
20
166.563124
0
VERTEX
5
412
100
AcDbEntity
8
0
100
AcDbVertex
100
AcDb2dVertex
62
5
10
219.410664
20
166.557426
0
VERTEX
5
413
100
AcDbEntity
8
0
100
AcDbVertex
100
AcDb2dVertex
62
5
10
219.362231
20
166.566922
0
VERTEX
5
414
100
AcDbEntity
8
0
100
AcDbVertex
100
AcDb2dVertex
62
5
10
219.330892
20
166.595412
0
VERTEX
5
415
100
AcDbEntity
8
0
100
AcDbVertex
100
AcDb2dVertex
62
5
10
219.316647
20
166.642896
0
VERTEX
5
416
100
AcDbEntity
8
0
100
AcDbVertex
100
AcDb2dVertex
62
5
10
219.330892
20
166.690379
0
VERTEX
5
417
100
AcDbEntity
8
0
100
AcDbVertex
100
AcDb2dVertex
62
5
10
219.362231
20
166.718869
0
VERTEX
5
418
100
AcDbEntity
8
0
100
AcDbVertex
100
AcDb2dVertex
62
5
10
219.410664
20
166.728366
0
VERTEX
5
419
100
AcDbEntity
8
0
100
AcDbVertex
100
AcDb2dVertex
62
5
10
219.882649
20
166.746410
0
VERTEX
5
41a
100
AcDbEntity
8
0
100
AcDbVertex
100
AcDb2dVertex
62
5
10
220.295756
20
166.766353
0
SEQEND
5
41b
100
AcDbEntity
8
0
0
POLYLINE
5
41c
100
AcDbEntity
8
0
6
CONTINUOUS
62
5
100
AcDb2dPolyline
66
1
10
0.0
20
0.0
30
0.0
70
1
0
VERTEX
5
41d
100
AcDbEntity
8
0
100
AcDbVertex
100
AcDb2dVertex
62
5
10
217.530365
20
165.608706
0
VERTEX
5
41e
100
AcDbEntity
8
0
100
AcDbVertex
100
AcDb2dVertex
62
5
10
217.473385
20
165.554575
0
VERTEX
5
41f
100
AcDbEntity
8
0
100
AcDbVertex
100
AcDb2dVertex
62
5
10
217.439196
20
165.494746
0
VERTEX
5
420
100
AcDbEntity
8
0
100
AcDbVertex
100
AcDb2dVertex
62
5
10
217.427800
20
165.429219
0
VERTEX
5
421
100
AcDbEntity
8
0
100
AcDbVertex
100
AcDb2dVertex
62
5
10
217.439196
20
165.353245
0
VERTEX
5
422
100
AcDbEntity
8
0
100
AcDbVertex
100
AcDb2dVertex
62
5
10
217.473385
20
165.284869
0
VERTEX
5
423
100
AcDbEntity
8
0
100
AcDbVertex
100
AcDb2dVertex
62
5
10
217.530365
20
165.224090
0
VERTEX
5
424
100
AcDbEntity
8
0
100
AcDbVertex
100
AcDb2dVertex
62
5
10
217.610137
20
165.181355
0
VERTEX
5
425
100
AcDbEntity
8
0
100
AcDbVertex
100
AcDb2dVertex
62
5
10
217.712701
20
165.155714
0
VERTEX
5
426
100
AcDbEntity
8
0
100
AcDbVertex
100
AcDb2dVertex
62
5
10
217.838058
20
165.147167
0
VERTEX
5
427
100
AcDbEntity
8
0
100
AcDbVertex
100
AcDb2dVertex
62
5
10
217.954867
20
165.158563
0
VERTEX
5
428
100
AcDbEntity
8
0
100
AcDbVertex
100
AcDb2dVertex
62
5
10
218.054582
20
165.192751
0
VERTEX
5
429
100
AcDbEntity
8
0
100
AcDbVertex
100
AcDb2dVertex
62
5
10
218.137203
20
165.249731
0
VERTEX
5
42a
100
AcDbEntity
8
0
100
AcDbVertex
100
AcDb2dVertex
62
5
10
218.183832
20
165.324755
0
VERTEX
5
42b
100
AcDbEntity
8
0
100
AcDbVertex
100
AcDb2dVertex
62
5
10
218.211809
20
165.424470
0
VERTEX
5
42c
100
AcDbEntity
8
0
100
AcDbVertex
100
AcDb2dVertex
62
5
10
218.221135
20
165.548877
0
VERTEX
5
42d
100
AcDbEntity
8
0
100
AcDbVertex
100
AcDb2dVertex
62
5
10
218.043604
20
165.620102
0
VERTEX
5
42e
100
AcDbEntity
8
0
100
AcDbVertex
100
AcDb2dVertex
62
5
10
217.890270
20
165.662837
0
VERTEX
5
42f
100
AcDbEntity
8
0
100
AcDbVertex
100
AcDb2dVertex
62
5
10
217.761134
20
165.677082
0
VERTEX
5
430
100
AcDbEntity
8
0
100
AcDbVertex
100
AcDb2dVertex
62
5
10
217.678513
20
165.669485
0
VERTEX
5
431
100
AcDbEntity
8
0
100
AcDbVertex
100
AcDb2dVertex
62
5
10
217.601590
20
165.646693
0
SEQEND
5
432
100
AcDbEntity
8
0
0
POLYLINE
5
433
100
AcDbEntity
8
0
6
CONTINUOUS
62
5
100
AcDb2dPolyline
66
1
10
0.0
20
0.0
30
0.0
70
1
0
VERTEX
5
434
100
AcDbEntity
8
0
100
AcDbVertex
100
AcDb2dVertex
62
5
10
217.634828
20
165.784395
0
VERTEX
5
435
100
AcDbEntity
8
0
100
AcDbVertex
100
AcDb2dVertex
62
5
10
217.778228
20
165.796741
0
VERTEX
5
436
100
AcDbEntity
8
0
100
AcDbVertex
100
AcDb2dVertex
62
5
10
217.909112
20
165.785345
0
VERTEX
5
437
100
AcDbEntity
8
0
100
AcDbVertex
100
AcDb2dVertex
62
5
10
218.056747
20
165.751157
0
VERTEX
5
438
100
AcDbEntity
8
0
100
AcDbVertex
100
AcDb2dVertex
62
5
10
218.221135
20
165.694176
0
VERTEX
5
439
100
AcDbEntity
8
0
100
AcDbVertex
100
AcDb2dVertex
62
5
10
218.221135
20
166.095886
0
VERTEX
5
43a
100
AcDbEntity
8
0
100
AcDbVertex
100
AcDb2dVertex
62
5
10
217.761134
20
166.082040
0
VERTEX
5
43b
100
AcDbEntity
8
0
100
AcDbVertex
100
AcDb2dVertex
62
5
10
217.282501
20
166.082040
0
VERTEX
5
43c
100
AcDbEntity
8
0
100
AcDbVertex
100
AcDb2dVertex
62
5
10
217.239766
20
166.090226
0
VERTEX
5
43d
100
AcDbEntity
8
0
100
AcDbVertex
100
AcDb2dVertex
62
5
10
217.214125
20
166.114785
0
VERTEX
5
43e
100
AcDbEntity
8
0
100
AcDbVertex
100
AcDb2dVertex
62
5
10
217.205578
20
166.155716
0
VERTEX
5
43f
100
AcDbEntity
8
0
100
AcDbVertex
100
AcDb2dVertex
62
5
10
217.214125
20
166.193702
0
VERTEX
5
440
100
AcDbEntity
8
0
100
AcDbVertex
100
AcDb2dVertex
62
5
10
217.239766
20
166.216494
0
VERTEX
5
441
100
AcDbEntity
8
0
100
AcDbVertex
100
AcDb2dVertex
62
5
10
217.282501
20
166.224092
0
VERTEX
5
442
100
AcDbEntity
8
0
100
AcDbVertex
100
AcDb2dVertex
62
5
10
217.752587
20
166.224092
0
VERTEX
5
443
100
AcDbEntity
8
0
100
AcDbVertex
100
AcDb2dVertex
62
5
10
218.212588
20
166.232639
0
VERTEX
5
444
100
AcDbEntity
8
0
100
AcDbVertex
100
AcDb2dVertex
62
5
10
218.212588
20
166.548879
0
VERTEX
5
445
100
AcDbEntity
8
0
100
AcDbVertex
100
AcDb2dVertex
62
5
10
217.752587
20
166.535032
0
VERTEX
5
446
100
AcDbEntity
8
0
100
AcDbVertex
100
AcDb2dVertex
62
5
10
217.282501
20
166.535032
0
VERTEX
5
447
100
AcDbEntity
8
0
100
AcDbVertex
100
AcDb2dVertex
62
5
10
217.239766
20
166.543219
0
VERTEX
5
448
100
AcDbEntity
8
0
100
AcDbVertex
100
AcDb2dVertex
62
5
10
217.214125
20
166.567777
0
VERTEX
5
449
100
AcDbEntity
8
0
100
AcDbVertex
100
AcDb2dVertex
62
5
10
217.205578
20
166.608708
0
VERTEX
5
44a
100
AcDbEntity
8
0
100
AcDbVertex
100
AcDb2dVertex
62
5
10
217.214125
20
166.646695
0
VERTEX
5
44b
100
AcDbEntity
8
0
100
AcDbVertex
100
AcDb2dVertex
62
5
10
217.239766
20
166.669487
0
VERTEX
5
44c
100
AcDbEntity
8
0
100
AcDbVertex
100
AcDb2dVertex
62
5
10
217.282501
20
166.677084
0
VERTEX
5
44d
100
AcDbEntity
8
0
100
AcDbVertex
100
AcDb2dVertex
62
5
10
217.752587
20
166.677084
0
VERTEX
5
44e
100
AcDbEntity
8
0
100
AcDbVertex
100
AcDb2dVertex
62
5
10
218.212588
20
166.685631
0
VERTEX
5
44f
100
AcDbEntity
8
0
100
AcDbVertex
100
AcDb2dVertex
62
5
10
218.212588
20
166.873665
0
VERTEX
5
450
100
AcDbEntity
8
0
100
AcDbVertex
100
AcDb2dVertex
62
5
10
218.222256
20
166.921149
0
VERTEX
5
451
100
AcDbEntity
8
0
100
AcDbVertex
100
AcDb2dVertex
62
5
10
218.251259
20
166.949639
0
VERTEX
5
452
100
AcDbEntity
8
0
100
AcDbVertex
100
AcDb2dVertex
62
5
10
218.299597
20
166.959136
0
VERTEX
5
453
100
AcDbEntity
8
0
100
AcDbVertex
100
AcDb2dVertex
62
5
10
218.342332
20
166.949639
0
VERTEX
5
454
100
AcDbEntity
8
0
100
AcDbVertex
100
AcDb2dVertex
62
5
10
218.367973
20
166.921149
0
VERTEX
5
455
100
AcDbEntity
8
0
100
AcDbVertex
100
AcDb2dVertex
62
5
10
218.376520
20
166.873665
0
VERTEX
5
456
100
AcDbEntity
8
0
100
AcDbVertex
100
AcDb2dVertex
62
5
10
218.376520
20
166.694178
0
VERTEX
5
457
100
AcDbEntity
8
0
100
AcDbVertex
100
AcDb2dVertex
62
5
10
218.949170
20
166.719819
0
VERTEX
5
458
100
AcDbEntity
8
0
100
AcDbVertex
100
AcDb2dVertex
62
5
10
218.987157
20
166.711272
0
VERTEX
5
459
100
AcDbEntity
8
0
100
AcDbVertex
100
AcDb2dVertex
62
5
10
219.009949
20
166.685631
0
VERTEX
5
45a
100
AcDbEntity
8
0
100
AcDbVertex
100
AcDb2dVertex
62
5
10
219.017547
20
166.642896
0
VERTEX
5
45b
100
AcDbEntity
8
0
100
AcDbVertex
100
AcDb2dVertex
62
5
10
219.009949
20
166.601965
0
VERTEX
5
45c
100
AcDbEntity
8
0
100
AcDbVertex
100
AcDb2dVertex
62
5
10
218.987157
20
166.577407
0
VERTEX
5
45d
100
AcDbEntity
8
0
100
AcDbVertex
100
AcDb2dVertex
62
5
10
218.949170
20
166.569221
0
VERTEX
5
45e
100
AcDbEntity
8
0
100
AcDbVertex
100
AcDb2dVertex
62
5
10
218.376520
20
166.552127
0
VERTEX
5
45f
100
AcDbEntity
8
0
100
AcDbVertex
100
AcDb2dVertex
62
5
10
218.376520
20
166.241186
0
VERTEX
5
460
100
AcDbEntity
8
0
100
AcDbVertex
100
AcDb2dVertex
62
5
10
218.949170
20
166.266827
0
VERTEX
5
461
100
AcDbEntity
8
0
100
AcDbVertex
100
AcDb2dVertex
62
5
10
218.987157
20
166.258280
0
VERTEX
5
462
100
AcDbEntity
8
0
100
AcDbVertex
100
AcDb2dVertex
62
5
10
219.009949
20
166.232639
0
VERTEX
5
463
100
AcDbEntity
8
0
100
AcDbVertex
100
AcDb2dVertex
62
5
10
219.017547
20
166.189904
0
VERTEX
5
464
100
AcDbEntity
8
0
100
AcDbVertex
100
AcDb2dVertex
62
5
10
219.009949
20
166.148973
0
VERTEX
5
465
100
AcDbEntity
8
0
100
AcDbVertex
100
AcDb2dVertex
62
5
10
218.987157
20
166.124415
0
VERTEX
5
466
100
AcDbEntity
8
0
100
AcDbVertex
100
AcDb2dVertex
62
5
10
218.949170
20
166.116228
0
VERTEX
5
467
100
AcDbEntity
8
0
100
AcDbVertex
100
AcDb2dVertex
62
5
10
218.385067
20
166.099134
0
VERTEX
5
468
100
AcDbEntity
8
0
100
AcDbVertex
100
AcDb2dVertex
62
5
10
218.385067
20
165.634347
0
VERTEX
5
469
100
AcDbEntity
8
0
100
AcDbVertex
100
AcDb2dVertex
62
5
10
218.648125
20
165.501394
0
VERTEX
5
46a
100
AcDbEntity
8
0
100
AcDbVertex
100
AcDb2dVertex
62
5
10
218.844707
20
165.387433
0
VERTEX
5
46b
100
AcDbEntity
8
0
100
AcDbVertex
100
AcDb2dVertex
62
5
10
218.974811
20
165.292466
0
VERTEX
5
46c
100
AcDbEntity
8
0
100
AcDbVertex
100
AcDb2dVertex
62
5
10
219.002352
20
165.251631
0
VERTEX
5
46d
100
AcDbEntity
8
0
100
AcDbVertex
100
AcDb2dVertex
62
5
10
219.005201
20
165.208895
0
VERTEX
5
46e
100
AcDbEntity
8
0
100
AcDbVertex
100
AcDb2dVertex
62
5
10
218.983359
20
165.164261
0
VERTEX
5
46f
100
AcDbEntity
8
0
100
AcDbVertex
100
AcDb2dVertex
62
5
10
218.943472
20
165.145268
0
VERTEX
5
470
100
AcDbEntity
8
0
100
AcDbVertex
100
AcDb2dVertex
62
5
10
218.903586
20
165.145268
0
VERTEX
5
471
100
AcDbEntity
8
0
100
AcDbVertex
100
AcDb2dVertex
62
5
10
218.863700
20
165.164261
0
VERTEX
5
472
100
AcDbEntity
8
0
100
AcDbVertex
100
AcDb2dVertex
62
5
10
218.700357
20
165.282970
0
VERTEX
5
473
100
AcDbEntity
8
0
100
AcDbVertex
100
AcDb2dVertex
62
5
10
218.540813
20
165.388383
0
VERTEX
5
474
100
AcDbEntity
8
0
100
AcDbVertex
100
AcDb2dVertex
62
5
10
218.385067
20
165.480501
0
VERTEX
5
475
100
AcDbEntity
8
0
100
AcDbVertex
100
AcDb2dVertex
62
5
10
218.359426
20
165.347547
0
VERTEX
5
476
100
AcDbEntity
8
0
100
AcDbVertex
100
AcDb2dVertex
62
5
10
218.305295
20
165.233587
0
VERTEX
5
477
100
AcDbEntity
8
0
100
AcDbVertex
100
AcDb2dVertex
62
5
10
218.222674
20
165.138620
0
VERTEX
5
478
100
AcDbEntity
8
0
100
AcDbVertex
100
AcDb2dVertex
62
5
10
218.120109
20
165.076891
0
VERTEX
5
479
100
AcDbEntity
8
0
100
AcDbVertex
100
AcDb2dVertex
62
5
10
217.983357
20
165.039854
0
VERTEX
5
47a
100
AcDbEntity
8
0
100
AcDbVertex
100
AcDb2dVertex
62
5
10
217.812416
20
165.027509
0
VERTEX
5
47b
100
AcDbEntity
8
0
100
AcDbVertex
100
AcDb2dVertex
62
5
10
217.650023
20
165.041754
0
VERTEX
5
47c
100
AcDbEntity
8
0
100
AcDbVertex
100
AcDb2dVertex
62
5
10
217.516120
20
165.084489
0
VERTEX
5
47d
100
AcDbEntity
8
0
100
AcDbVertex
100
AcDb2dVertex
62
5
10
217.410706
20
165.155714
0
VERTEX
5
47e
100
AcDbEntity
8
0
100
AcDbVertex
100
AcDb2dVertex
62
5
10
217.348028
20
165.229788
0
VERTEX
5
47f
100
AcDbEntity
8
0
100
AcDbVertex
100
AcDb2dVertex
62
5
10
217.308142
20
165.315258
0
VERTEX
5
480
100
AcDbEntity
8
0
100
AcDbVertex
100
AcDb2dVertex
62
5
10
217.291048
20
165.412125
0
VERTEX
5
481
100
AcDbEntity
8
0
100
AcDbVertex
100
AcDb2dVertex
62
5
10
217.304343
20
165.514689
0
VERTEX
5
482
100
AcDbEntity
8
0
100
AcDbVertex
100
AcDb2dVertex
62
5
10
217.344230
20
165.605857
0
VERTEX
5
483
100
AcDbEntity
8
0
100
AcDbVertex
100
AcDb2dVertex
62
5
10
217.410706
20
165.685629
0
VERTEX
5
484
100
AcDbEntity
8
0
100
AcDbVertex
100
AcDb2dVertex
62
5
10
217.512321
20
165.747358
0
SEQEND
5
485
100
AcDbEntity
8
0
0
POLYLINE
5
486
100
AcDbEntity
8
0
6
CONTINUOUS
62
5
100
AcDb2dPolyline
66
1
10
0.0
20
0.0
30
0.0
70
1
0
VERTEX
5
487
100
AcDbEntity
8
0
100
AcDbVertex
100
AcDb2dVertex
62
5
10
215.679084
20
165.711270
0
VERTEX
5
488
100
AcDbEntity
8
0
100
AcDbVertex
100
AcDb2dVertex
62
5
10
216.567974
20
165.711270
0
VERTEX
5
489
100
AcDbEntity
8
0
100
AcDbVertex
100
AcDb2dVertex
62
5
10
216.123529
20
166.659990
0
SEQEND
5
48a
100
AcDbEntity
8
0
0
POLYLINE
5
48b
100
AcDbEntity
8
0
6
CONTINUOUS
62
5
100
AcDb2dPolyline
66
1
10
0.0
20
0.0
30
0.0
70
1
0
VERTEX
5
48c
100
AcDbEntity
8
0
100
AcDbVertex
100
AcDb2dVertex
62
5
10
215.268827
20
165.224090
0
VERTEX
5
48d
100
AcDbEntity
8
0
100
AcDbVertex
100
AcDb2dVertex
62
5
10
216.003871
20
166.771101
0
VERTEX
5
48e
100
AcDbEntity
8
0
100
AcDbVertex
100
AcDb2dVertex
62
5
10
216.032361
20
166.813836
0
VERTEX
5
48f
100
AcDbEntity
8
0
100
AcDbVertex
100
AcDb2dVertex
62
5
10
216.072247
20
166.839477
0
VERTEX
5
490
100
AcDbEntity
8
0
100
AcDbVertex
100
AcDb2dVertex
62
5
10
216.123529
20
166.848024
0
VERTEX
5
491
100
AcDbEntity
8
0
100
AcDbVertex
100
AcDb2dVertex
62
5
10
216.174811
20
166.839477
0
VERTEX
5
492
100
AcDbEntity
8
0
100
AcDbVertex
100
AcDb2dVertex
62
5
10
216.214698
20
166.813836
0
VERTEX
5
493
100
AcDbEntity
8
0
100
AcDbVertex
100
AcDb2dVertex
62
5
10
216.243188
20
166.771101
0
VERTEX
5
494
100
AcDbEntity
8
0
100
AcDbVertex
100
AcDb2dVertex
62
5
10
216.978232
20
165.224090
0
VERTEX
5
495
100
AcDbEntity
8
0
100
AcDbVertex
100
AcDb2dVertex
62
5
10
216.989628
20
165.170548
0
VERTEX
5
496
100
AcDbEntity
8
0
100
AcDbVertex
100
AcDb2dVertex
62
5
10
216.978232
20
165.128895
0
VERTEX
5
497
100
AcDbEntity
8
0
100
AcDbVertex
100
AcDb2dVertex
62
5
10
216.944043
20
165.099133
0
VERTEX
5
498
100
AcDbEntity
8
0
100
AcDbVertex
100
AcDb2dVertex
62
5
10
216.896560
20
165.094023
0
VERTEX
5
499
100
AcDbEntity
8
0
100
AcDbVertex
100
AcDb2dVertex
62
5
10
216.856674
20
165.112884
0
VERTEX
5
49a
100
AcDbEntity
8
0
100
AcDbVertex
100
AcDb2dVertex
62
5
10
216.824385
20
165.155714
0
VERTEX
5
49b
100
AcDbEntity
8
0
100
AcDbVertex
100
AcDb2dVertex
62
5
10
216.627804
20
165.569219
0
VERTEX
5
49c
100
AcDbEntity
8
0
100
AcDbVertex
100
AcDb2dVertex
62
5
10
215.619255
20
165.569219
0
VERTEX
5
49d
100
AcDbEntity
8
0
100
AcDbVertex
100
AcDb2dVertex
62
5
10
215.422673
20
165.155714
0
VERTEX
5
49e
100
AcDbEntity
8
0
100
AcDbVertex
100
AcDb2dVertex
62
5
10
215.390385
20
165.112884
0
VERTEX
5
49f
100
AcDbEntity
8
0
100
AcDbVertex
100
AcDb2dVertex
62
5
10
215.350499
20
165.094023
0
VERTEX
5
4a0
100
AcDbEntity
8
0
100
AcDbVertex
100
AcDb2dVertex
62
5
10
215.303015
20
165.099133
0
VERTEX
5
4a1
100
AcDbEntity
8
0
100
AcDbVertex
100
AcDb2dVertex
62
5
10
215.268827
20
165.128895
0
VERTEX
5
4a2
100
AcDbEntity
8
0
100
AcDbVertex
100
AcDb2dVertex
62
5
10
215.257431
20
165.170548
0
SEQEND
5
4a3
100
AcDbEntity
8
0
0
LINE
5
4a4
100
AcDbEntity
8
1
100
AcDbLine
6
CONTINUOUS
62
5
10
231.141824
20
177.000000
11
231.141824
21
166.000000
0
LINE
5
4a5
100
AcDbEntity
8
1
100
AcDbLine
6
CONTINUOUS
62
5
10
231.341824
20
177.041742
11
231.341824
21
166.000000
0
LINE
5
4a6
100
AcDbEntity
8
1
100
AcDbLine
6
CONTINUOUS
62
5
10
229.341824
20
178.000000
11
229.341824
21
165.000000
0
ARC
5
4a7
100
AcDbEntity
8
1
100
AcDbCircle
6
CONTINUOUS
62
5
10
229.841824
20
165.500000
40
0.500000
100
AcDbArc
50
-89.999999
51
0.000000
0
LINE
5
4a8
100
AcDbEntity
8
1
100
AcDbLine
6
CONTINUOUS
62
5
10
229.841824
20
165.000000
11
229.341824
21
165.000000
0
LINE
5
4a9
100
AcDbEntity
8
1
100
AcDbLine
6
CONTINUOUS
62
5
10
229.341824
20
178.000000
11
229.841824
21
178.000000
0
ARC
5
4aa
100
AcDbEntity
8
1
100
AcDbCircle
6
CONTINUOUS
62
5
10
229.841824
20
177.500000
40
0.500000
100
AcDbArc
50
0.000000
51
89.999999
0
LINE
5
4ab
100
AcDbEntity
8
1
100
AcDbLine
6
CONTINUOUS
62
5
10
230.341824
20
177.500000
11
230.341824
21
165.500000
0
POLYLINE
5
4ac
100
AcDbEntity
8
1
6
CONTINUOUS
62
5
100
AcDb2dPolyline
66
1
10
0.0
20
0.0
30
0.0
70
0
0
VERTEX
5
4ad
100
AcDbEntity
8
1
100
AcDbVertex
100
AcDb2dVertex
62
5
10
213.216856
20
165.125963
0
VERTEX
5
4ae
100
AcDbEntity
8
1
100
AcDbVertex
100
AcDb2dVertex
62
5
10
213.216054
20
165.125161
0
VERTEX
5
4af
100
AcDbEntity
8
1
100
AcDbVertex
100
AcDb2dVertex
62
5
10
213.215251
20
165.124358
0
VERTEX
5
4b0
100
AcDbEntity
8
1
100
AcDbVertex
100
AcDb2dVertex
62
5
10
213.214414
20
165.123556
0
VERTEX
5
4b1
100
AcDbEntity
8
1
100
AcDbVertex
100
AcDb2dVertex
62
5
10
213.213611
20
165.122788
0
VERTEX
5
4b2
100
AcDbEntity
8
1
100
AcDbVertex
100
AcDb2dVertex
62
5
10
213.212774
20
165.122020
0
VERTEX
5
4b3
100
AcDbEntity
8
1
100
AcDbVertex
100
AcDb2dVertex
62
5
10
213.211971
20
165.121218
0
VERTEX
5
4b4
100
AcDbEntity
8
1
100
AcDbVertex
100
AcDb2dVertex
62
5
10
213.211133
20
165.120485
0
VERTEX
5
4b5
100
AcDbEntity
8
1
100
AcDbVertex
100
AcDb2dVertex
62
5
10
213.210296
20
165.119717
0
VERTEX
5
4b6
100
AcDbEntity
8
1
100
AcDbVertex
100
AcDb2dVertex
62
5
10
213.209459
20
165.118950
0
VERTEX
5
4b7
100
AcDbEntity
8
1
100
AcDbVertex
100
AcDb2dVertex
62
5
10
213.208621
20
165.118217
0
VERTEX
5
4b8
100
AcDbEntity
8
1
100
AcDbVertex
100
AcDb2dVertex
62
5
10
213.207784
20
165.117484
0
VERTEX
5
4b9
100
AcDbEntity
8
1
100
AcDbVertex
100
AcDb2dVertex
62
5
10
213.206946
20
165.116716
0
VERTEX
5
4ba
100
AcDbEntity
8
1
100
AcDbVertex
100
AcDb2dVertex
62
5
10
213.206109
20
165.116018
0
VERTEX
5
4bb
100
AcDbEntity
8
1
100
AcDbVertex
100
AcDb2dVertex
62
5
10
213.205236
20
165.115286
0
VERTEX
5
4bc
100
AcDbEntity
8
1
100
AcDbVertex
100
AcDb2dVertex
62
5
10
213.204399
20
165.114553
0
VERTEX
5
4bd
100
AcDbEntity
8
1
100
AcDbVertex
100
AcDb2dVertex
62
5
10
213.203527
20
165.113855
0
VERTEX
5
4be
100
AcDbEntity
8
1
100
AcDbVertex
100
AcDb2dVertex
62
5
10
213.202689
20
165.113157
0
VERTEX
5
4bf
100
AcDbEntity
8
1
100
AcDbVertex
100
AcDb2dVertex
62
5
10
213.201817
20
165.112459
0
VERTEX
5
4c0
100
AcDbEntity
8
1
100
AcDbVertex
100
AcDb2dVertex
62
5
10
213.200944
20
165.111761
0
VERTEX
5
4c1
100
AcDbEntity
8
1
100
AcDbVertex
100
AcDb2dVertex
62
5
10
213.200072
20
165.111098
0
VERTEX
5
4c2
100
AcDbEntity
8
1
100
AcDbVertex
100
AcDb2dVertex
62
5
10
213.199200
20
165.110400
0
VERTEX
5
4c3
100
AcDbEntity
8
1
100
AcDbVertex
100
AcDb2dVertex
62
5
10
213.198327
20
165.109737
0
VERTEX
5
4c4
100
AcDbEntity
8
1
100
AcDbVertex
100
AcDb2dVertex
62
5
10
213.197455
20
165.109074
0
VERTEX
5
4c5
100
AcDbEntity
8
1
100
AcDbVertex
100
AcDb2dVertex
62
5
10
213.196583
20
165.108411
0
VERTEX
5
4c6
100
AcDbEntity
8
1
100
AcDbVertex
100
AcDb2dVertex
62
5
10
213.195675
20
165.107748
0
VERTEX
5
4c7
100
AcDbEntity
8
1
100
AcDbVertex
100
AcDb2dVertex
62
5
10
213.194803
20
165.107120
0
VERTEX
5
4c8
100
AcDbEntity
8
1
100
AcDbVertex
100
AcDb2dVertex
62
5
10
213.193896
20
165.106492
0
VERTEX
5
4c9
100
AcDbEntity
8
1
100
AcDbVertex
100
AcDb2dVertex
62
5
10
213.193023
20
165.105829
0
VERTEX
5
4ca
100
AcDbEntity
8
1
100
AcDbVertex
100
AcDb2dVertex
62
5
10
213.192116
20
165.105236
0
VERTEX
5
4cb
100
AcDbEntity
8
1
100
AcDbVertex
100
AcDb2dVertex
62
5
10
213.191209
20
165.104608
0
VERTEX
5
4cc
100
AcDbEntity
8
1
100
AcDbVertex
100
AcDb2dVertex
62
5
10
213.190302
20
165.103980
0
VERTEX
5
4cd
100
AcDbEntity
8
1
100
AcDbVertex
100
AcDb2dVertex
62
5
10
213.189394
20
165.103387
0
VERTEX
5
4ce
100
AcDbEntity
8
1
100
AcDbVertex
100
AcDb2dVertex
62
5
10
213.188487
20
165.102794
0
VERTEX
5
4cf
100
AcDbEntity
8
1
100
AcDbVertex
100
AcDb2dVertex
62
5
10
213.187580
20
165.102200
0
VERTEX
5
4d0
100
AcDbEntity
8
1
100
AcDbVertex
100
AcDb2dVertex
62
5
10
213.186638
20
165.101607
0
VERTEX
5
4d1
100
AcDbEntity
8
1
100
AcDbVertex
100
AcDb2dVertex
62
5
10
213.185731
20
165.101014
0
VERTEX
5
4d2
100
AcDbEntity
8
1
100
AcDbVertex
100
AcDb2dVertex
62
5
10
213.184823
20
165.100421
0
VERTEX
5
4d3
100
AcDbEntity
8
1
100
AcDbVertex
100
AcDb2dVertex
62
5
10
213.183881
20
165.099862
0
VERTEX
5
4d4
100
AcDbEntity
8
1
100
AcDbVertex
100
AcDb2dVertex
62
5
10
213.182939
20
165.099304
0
VERTEX
5
4d5
100
AcDbEntity
8
1
100
AcDbVertex
100
AcDb2dVertex
62
5
10
213.182032
20
165.098746
0
VERTEX
5
4d6
100
AcDbEntity
8
1
100
AcDbVertex
100
AcDb2dVertex
62
5
10
213.181090
20
165.098187
0
VERTEX
5
4d7
100
AcDbEntity
8
1
100
AcDbVertex
100
AcDb2dVertex
62
5
10
213.180147
20
165.097664
0
VERTEX
5
4d8
100
AcDbEntity
8
1
100
AcDbVertex
100
AcDb2dVertex
62
5
10
213.179205
20
165.097106
0
VERTEX
5
4d9
100
AcDbEntity
8
1
100
AcDbVertex
100
AcDb2dVertex
62
5
10
213.178263
20
165.096582
0
VERTEX
5
4da
100
AcDbEntity
8
1
100
AcDbVertex
100
AcDb2dVertex
62
5
10
213.177321
20
165.096059
0
VERTEX
5
4db
100
AcDbEntity
8
1
100
AcDbVertex
100
AcDb2dVertex
62
5
10
213.176344
20
165.095536
0
VERTEX
5
4dc
100
AcDbEntity
8
1
100
AcDbVertex
100
AcDb2dVertex
62
5
10
213.175402
20
165.095047
0
VERTEX
5
4dd
100
AcDbEntity
8
1
100
AcDbVertex
100
AcDb2dVertex
62
5
10
213.174425
20
165.094524
0
VERTEX
5
4de
100
AcDbEntity
8
1
100
AcDbVertex
100
AcDb2dVertex
62
5
10
213.173483
20
165.094035
0
VERTEX
5
4df
100
AcDbEntity
8
1
100
AcDbVertex
100
AcDb2dVertex
62
5
10
213.172506
20
165.093547
0
VERTEX
5
4e0
100
AcDbEntity
8
1
100
AcDbVertex
100
AcDb2dVertex
62
5
10
213.171529
20
165.093058
0
VERTEX
5
4e1
100
AcDbEntity
8
1
100
AcDbVertex
100
AcDb2dVertex
62
5
10
213.170586
20
165.092570
0
VERTEX
5
4e2
100
AcDbEntity
8
1
100
AcDbVertex
100
AcDb2dVertex
62
5
10
213.169609
20
165.092081
0
VERTEX
5
4e3
100
AcDbEntity
8
1
100
AcDbVertex
100
AcDb2dVertex
62
5
10
213.168632
20
165.091627
0
VERTEX
5
4e4
100
AcDbEntity
8
1
100
AcDbVertex
100
AcDb2dVertex
62
5
10
213.167655
20
165.091174
0
VERTEX
5
4e5
100
AcDbEntity
8
1
100
AcDbVertex
100
AcDb2dVertex
62
5
10
213.166643
20
165.090720
0
VERTEX
5
4e6
100
AcDbEntity
8
1
100
AcDbVertex
100
AcDb2dVertex
62
5
10
213.165666
20
165.090266
0
VERTEX
5
4e7
100
AcDbEntity
8
1
100
AcDbVertex
100
AcDb2dVertex
62
5
10
213.164689
20
165.089813
0
VERTEX
5
4e8
100
AcDbEntity
8
1
100
AcDbVertex
100
AcDb2dVertex
62
5
10
213.163677
20
165.089394
0
VERTEX
5
4e9
100
AcDbEntity
8
1
100
AcDbVertex
100
AcDb2dVertex
62
5
10
213.162700
20
165.088941
0
VERTEX
5
4ea
100
AcDbEntity
8
1
100
AcDbVertex
100
AcDb2dVertex
62
5
10
213.161688
20
165.088522
0
VERTEX
5
4eb
100
AcDbEntity
8
1
100
AcDbVertex
100
AcDb2dVertex
62
5
10
213.160676
20
165.088103
0
VERTEX
5
4ec
100
AcDbEntity
8
1
100
AcDbVertex
100
AcDb2dVertex
62
5
10
213.159665
20
165.087719
0
VERTEX
5
4ed
100
AcDbEntity
8
1
100
AcDbVertex
100
AcDb2dVertex
62
5
10
213.158653
20
165.087300
0
VERTEX
5
4ee
100
AcDbEntity
8
1
100
AcDbVertex
100
AcDb2dVertex
62
5
10
213.157641
20
165.086917
0
VERTEX
5
4ef
100
AcDbEntity
8
1
100
AcDbVertex
100
AcDb2dVertex
62
5
10
213.156629
20
165.086498
0
VERTEX
5
4f0
100
AcDbEntity
8
1
100
AcDbVertex
100
AcDb2dVertex
62
5
10
213.155617
20
165.086114
0
VERTEX
5
4f1
100
AcDbEntity
8
1
100
AcDbVertex
100
AcDb2dVertex
62
5
10
213.154605
20
165.085765
0
VERTEX
5
4f2
100
AcDbEntity
8
1
100
AcDbVertex
100
AcDb2dVertex
62
5
10
213.153558
20
165.085381
0
VERTEX
5
4f3
100
AcDbEntity
8
1
100
AcDbVertex
100
AcDb2dVertex
62
5
10
213.152546
20
165.084997
0
VERTEX
5
4f4
100
AcDbEntity
8
1
100
AcDbVertex
100
AcDb2dVertex
62
5
10
213.151499
20
165.084649
0
VERTEX
5
4f5
100
AcDbEntity
8
1
100
AcDbVertex
100
AcDb2dVertex
62
5
10
213.150487
20
165.084300
0
VERTEX
5
4f6
100
AcDbEntity
8
1
100
AcDbVertex
100
AcDb2dVertex
62
5
10
213.149441
20
165.083951
0
VERTEX
5
4f7
100
AcDbEntity
8
1
100
AcDbVertex
100
AcDb2dVertex
62
5
10
213.148394
20
165.083602
0
VERTEX
5
4f8
100
AcDbEntity
8
1
100
AcDbVertex
100
AcDb2dVertex
62
5
10
213.147347
20
165.083288
0
VERTEX
5
4f9
100
AcDbEntity
8
1
100
AcDbVertex
100
AcDb2dVertex
62
5
10
213.146300
20
165.082939
0
VERTEX
5
4fa
100
AcDbEntity
8
1
100
AcDbVertex
100
AcDb2dVertex
62
5
10
213.145253
20
165.082625
0
VERTEX
5
4fb
100
AcDbEntity
8
1
100
AcDbVertex
100
AcDb2dVertex
62
5
10
213.144206
20
165.082311
0
VERTEX
5
4fc
100
AcDbEntity
8
1
100
AcDbVertex
100
AcDb2dVertex
62
5
10
213.143160
20
165.081997
0
VERTEX
5
4fd
100
AcDbEntity
8
1
100
AcDbVertex
100
AcDb2dVertex
62
5
10
213.142078
20
165.081717
0
VERTEX
5
4fe
100
AcDbEntity
8
1
100
AcDbVertex
100
AcDb2dVertex
62
5
10
213.141031
20
165.081403
0
VERTEX
5
4ff
100
AcDbEntity
8
1
100
AcDbVertex
100
AcDb2dVertex
62
5
10
213.139949
20
165.081124
0
VERTEX
5
500
100
AcDbEntity
8
1
100
AcDbVertex
100
AcDb2dVertex
62
5
10
213.138868
20
165.080845
0
VERTEX
5
501
100
AcDbEntity
8
1
100
AcDbVertex
100
AcDb2dVertex
62
5
10
213.137821
20
165.080566
0
VERTEX
5
502
100
AcDbEntity
8
1
100
AcDbVertex
100
AcDb2dVertex
62
5
10
213.136739
20
165.080287
0
VERTEX
5
503
100
AcDbEntity
8
1
100
AcDbVertex
100
AcDb2dVertex
62
5
10
213.135657
20
165.080042
0
VERTEX
5
504
100
AcDbEntity
8
1
100
AcDbVertex
100
AcDb2dVertex
62
5
10
213.134576
20
165.079763
0
VERTEX
5
505
100
AcDbEntity
8
1
100
AcDbVertex
100
AcDb2dVertex
62
5
10
213.133494
20
165.079519
0
VERTEX
5
506
100
AcDbEntity
8
1
100
AcDbVertex
100
AcDb2dVertex
62
5
10
213.132412
20
165.079275
0
VERTEX
5
507
100
AcDbEntity
8
1
100
AcDbVertex
100
AcDb2dVertex
62
5
10
213.131296
20
165.079031
0
VERTEX
5
508
100
AcDbEntity
8
1
100
AcDbVertex
100
AcDb2dVertex
62
5
10
213.130214
20
165.078821
0
VERTEX
5
509
100
AcDbEntity
8
1
100
AcDbVertex
100
AcDb2dVertex
62
5
10
213.129097
20
165.078577
0
VERTEX
5
50a
100
AcDbEntity
8
1
100
AcDbVertex
100
AcDb2dVertex
62
5
10
213.128015
20
165.078368
0
VERTEX
5
50b
100
AcDbEntity
8
1
100
AcDbVertex
100
AcDb2dVertex
62
5
10
213.126899
20
165.078158
0
VERTEX
5
50c
100
AcDbEntity
8
1
100
AcDbVertex
100
AcDb2dVertex
62
5
10
213.125782
20
165.077949
0
VERTEX
5
50d
100
AcDbEntity
8
1
100
AcDbVertex
100
AcDb2dVertex
62
5
10
213.124701
20
165.077739
0
VERTEX
5
50e
100
AcDbEntity
8
1
100
AcDbVertex
100
AcDb2dVertex
62
5
10
213.123584
20
165.077530
0
VERTEX
5
50f
100
AcDbEntity
8
1
100
AcDbVertex
100
AcDb2dVertex
62
5
10
213.122467
20
165.077356
0
VERTEX
5
510
100
AcDbEntity
8
1
100
AcDbVertex
100
AcDb2dVertex
62
5
10
213.121351
20
165.077181
0
VERTEX
5
511
100
AcDbEntity
8
1
100
AcDbVertex
100
AcDb2dVertex
62
5
10
213.120199
20
165.077007
0
VERTEX
5
512
100
AcDbEntity
8
1
100
AcDbVertex
100
AcDb2dVertex
62
5
10
213.119083
20
165.076832
0
VERTEX
5
513
100
AcDbEntity
8
1
100
AcDbVertex
100
AcDb2dVertex
62
5
10
213.117966
20
165.076658
0
VERTEX
5
514
100
AcDbEntity
8
1
100
AcDbVertex
100
AcDb2dVertex
62
5
10
213.116814
20
165.076518
0
VERTEX
5
515
100
AcDbEntity
8
1
100
AcDbVertex
100
AcDb2dVertex
62
5
10
213.115698
20
165.076379
0
VERTEX
5
516
100
AcDbEntity
8
1
100
AcDbVertex
100
AcDb2dVertex
62
5
10
213.114546
20
165.076239
0
VERTEX
5
517
100
AcDbEntity
8
1
100
AcDbVertex
100
AcDb2dVertex
62
5
10
213.113395
20
165.076099
0
VERTEX
5
518
100
AcDbEntity
8
1
100
AcDbVertex
100
AcDb2dVertex
62
5
10
213.112243
20
165.075960
0
VERTEX
5
519
100
AcDbEntity
8
1
100
AcDbVertex
100
AcDb2dVertex
62
5
10
213.111092
20
165.075820
0
VERTEX
5
51a
100
AcDbEntity
8
1
100
AcDbVertex
100
AcDb2dVertex
62
5
10
213.109940
20
165.075716
0
VERTEX
5
51b
100
AcDbEntity
8
1
100
AcDbVertex
100
AcDb2dVertex
62
5
10
213.108789
20
165.075611
0
VERTEX
5
51c
100
AcDbEntity
8
1
100
AcDbVertex
100
AcDb2dVertex
62
5
10
213.107637
20
165.075506
0
VERTEX
5
51d
100
AcDbEntity
8
1
100
AcDbVertex
100
AcDb2dVertex
62
5
10
213.106486
20
165.075402
0
VERTEX
5
51e
100
AcDbEntity
8
1
100
AcDbVertex
100
AcDb2dVertex
62
5
10
213.105299
20
165.075297
0
VERTEX
5
51f
100
AcDbEntity
8
1
100
AcDbVertex
100
AcDb2dVertex
62
5
10
213.104148
20
165.075227
0
VERTEX
5
520
100
AcDbEntity
8
1
100
AcDbVertex
100
AcDb2dVertex
62
5
10
213.102961
20
165.075157
0
VERTEX
5
521
100
AcDbEntity
8
1
100
AcDbVertex
100
AcDb2dVertex
62
5
10
213.101810
20
165.075053
0
VERTEX
5
522
100
AcDbEntity
8
1
100
AcDbVertex
100
AcDb2dVertex
62
5
10
213.100624
20
165.075018
0
VERTEX
5
523
100
AcDbEntity
8
1
100
AcDbVertex
100
AcDb2dVertex
62
5
10
213.099437
20
165.074948
0
VERTEX
5
524
100
AcDbEntity
8
1
100
AcDbVertex
100
AcDb2dVertex
62
5
10
213.098251
20
165.074878
0
VERTEX
5
525
100
AcDbEntity
8
1
100
AcDbVertex
100
AcDb2dVertex
62
5
10
213.097064
20
165.074843
0
VERTEX
5
526
100
AcDbEntity
8
1
100
AcDbVertex
100
AcDb2dVertex
62
5
10
213.095878
20
165.074808
0
VERTEX
5
527
100
AcDbEntity
8
1
100
AcDbVertex
100
AcDb2dVertex
62
5
10
213.094692
20
165.074773
0
VERTEX
5
528
100
AcDbEntity
8
1
100
AcDbVertex
100
AcDb2dVertex
62
5
10
213.093470
20
165.074739
0
VERTEX
5
529
100
AcDbEntity
8
1
100
AcDbVertex
100
AcDb2dVertex
62
5
10
213.092284
20
165.074704
0
VERTEX
5
52a
100
AcDbEntity
8
1
100
AcDbVertex
100
AcDb2dVertex
62
5
10
213.091063
20
165.074704
0
VERTEX
5
52b
100
AcDbEntity
8
1
100
AcDbVertex
100
AcDb2dVertex
62
5
10
213.089876
20
165.074704
0
VERTEX
5
52c
100
AcDbEntity
8
1
100
AcDbVertex
100
AcDb2dVertex
62
5
10
213.088655
20
165.074669
0
SEQEND
5
52d
100
AcDbEntity
8
1
0
POLYLINE
5
52e
100
AcDbEntity
8
1
6
CONTINUOUS
62
5
100
AcDb2dPolyline
66
1
10
0.0
20
0.0
30
0.0
70
0
0
VERTEX
5
52f
100
AcDbEntity
8
1
100
AcDbVertex
100
AcDb2dVertex
62
5
10
213.276700
20
165.262714
0
VERTEX
5
530
100
AcDbEntity
8
1
100
AcDbVertex
100
AcDb2dVertex
62
5
10
213.276700
20
165.261492
0
VERTEX
5
531
100
AcDbEntity
8
1
100
AcDbVertex
100
AcDb2dVertex
62
5
10
213.276665
20
165.260306
0
VERTEX
5
532
100
AcDbEntity
8
1
100
AcDbVertex
100
AcDb2dVertex
62
5
10
213.276665
20
165.259085
0
VERTEX
5
533
100
AcDbEntity
8
1
100
AcDbVertex
100
AcDb2dVertex
62
5
10
213.276630
20
165.257898
0
VERTEX
5
534
100
AcDbEntity
8
1
100
AcDbVertex
100
AcDb2dVertex
62
5
10
213.276595
20
165.256677
0
VERTEX
5
535
100
AcDbEntity
8
1
100
AcDbVertex
100
AcDb2dVertex
62
5
10
213.276560
20
165.255491
0
VERTEX
5
536
100
AcDbEntity
8
1
100
AcDbVertex
100
AcDb2dVertex
62
5
10
213.276525
20
165.254304
0
VERTEX
5
537
100
AcDbEntity
8
1
100
AcDbVertex
100
AcDb2dVertex
62
5
10
213.276455
20
165.253083
0
VERTEX
5
538
100
AcDbEntity
8
1
100
AcDbVertex
100
AcDb2dVertex
62
5
10
213.276386
20
165.251896
0
VERTEX
5
539
100
AcDbEntity
8
1
100
AcDbVertex
100
AcDb2dVertex
62
5
10
213.276316
20
165.250710
0
VERTEX
5
53a
100
AcDbEntity
8
1
100
AcDbVertex
100
AcDb2dVertex
62
5
10
213.276246
20
165.249524
0
VERTEX
5
53b
100
AcDbEntity
8
1
100
AcDbVertex
100
AcDb2dVertex
62
5
10
213.276176
20
165.248337
0
VERTEX
5
53c
100
AcDbEntity
8
1
100
AcDbVertex
100
AcDb2dVertex
62
5
10
213.276072
20
165.247151
0
VERTEX
5
53d
100
AcDbEntity
8
1
100
AcDbVertex
100
AcDb2dVertex
62
5
10
213.275967
20
165.245964
0
VERTEX
5
53e
100
AcDbEntity
8
1
100
AcDbVertex
100
AcDb2dVertex
62
5
10
213.275862
20
165.244778
0
VERTEX
5
53f
100
AcDbEntity
8
1
100
AcDbVertex
100
AcDb2dVertex
62
5
10
213.275758
20
165.243592
0
VERTEX
5
540
100
AcDbEntity
8
1
100
AcDbVertex
100
AcDb2dVertex
62
5
10
213.275618
20
165.242440
0
VERTEX
5
541
100
AcDbEntity
8
1
100
AcDbVertex
100
AcDb2dVertex
62
5
10
213.275478
20
165.241254
0
VERTEX
5
542
100
AcDbEntity
8
1
100
AcDbVertex
100
AcDb2dVertex
62
5
10
213.275374
20
165.240067
0
VERTEX
5
543
100
AcDbEntity
8
1
100
AcDbVertex
100
AcDb2dVertex
62
5
10
213.275199
20
165.238916
0
VERTEX
5
544
100
AcDbEntity
8
1
100
AcDbVertex
100
AcDb2dVertex
62
5
10
213.275060
20
165.237729
0
VERTEX
5
545
100
AcDbEntity
8
1
100
AcDbVertex
100
AcDb2dVertex
62
5
10
213.274885
20
165.236578
0
VERTEX
5
546
100
AcDbEntity
8
1
100
AcDbVertex
100
AcDb2dVertex
62
5
10
213.274746
20
165.235426
0
VERTEX
5
547
100
AcDbEntity
8
1
100
AcDbVertex
100
AcDb2dVertex
62
5
10
213.274571
20
165.234240
0
VERTEX
5
548
100
AcDbEntity
8
1
100
AcDbVertex
100
AcDb2dVertex
62
5
10
213.274362
20
165.233089
0
VERTEX
5
549
100
AcDbEntity
8
1
100
AcDbVertex
100
AcDb2dVertex
62
5
10
213.274187
20
165.231937
0
VERTEX
5
54a
100
AcDbEntity
8
1
100
AcDbVertex
100
AcDb2dVertex
62
5
10
213.273978
20
165.230785
0
VERTEX
5
54b
100
AcDbEntity
8
1
100
AcDbVertex
100
AcDb2dVertex
62
5
10
213.273803
20
165.229634
0
VERTEX
5
54c
100
AcDbEntity
8
1
100
AcDbVertex
100
AcDb2dVertex
62
5
10
213.273559
20
165.228482
0
VERTEX
5
54d
100
AcDbEntity
8
1
100
AcDbVertex
100
AcDb2dVertex
62
5
10
213.273350
20
165.227331
0
VERTEX
5
54e
100
AcDbEntity
8
1
100
AcDbVertex
100
AcDb2dVertex
62
5
10
213.273141
20
165.226179
0
VERTEX
5
54f
100
AcDbEntity
8
1
100
AcDbVertex
100
AcDb2dVertex
62
5
10
213.272896
20
165.225028
0
VERTEX
5
550
100
AcDbEntity
8
1
100
AcDbVertex
100
AcDb2dVertex
62
5
10
213.272652
20
165.223911
0
VERTEX
5
551
100
AcDbEntity
8
1
100
AcDbVertex
100
AcDb2dVertex
62
5
10
213.272408
20
165.222760
0
VERTEX
5
552
100
AcDbEntity
8
1
100
AcDbVertex
100
AcDb2dVertex
62
5
10
213.272163
20
165.221608
0
VERTEX
5
553
100
AcDbEntity
8
1
100
AcDbVertex
100
AcDb2dVertex
62
5
10
213.271884
20
165.220492
0
VERTEX
5
554
100
AcDbEntity
8
1
100
AcDbVertex
100
AcDb2dVertex
62
5
10
213.271605
20
165.219340
0
VERTEX
5
555
100
AcDbEntity
8
1
100
AcDbVertex
100
AcDb2dVertex
62
5
10
213.271326
20
165.218224
0
VERTEX
5
556
100
AcDbEntity
8
1
100
AcDbVertex
100
AcDb2dVertex
62
5
10
213.271047
20
165.217072
0
VERTEX
5
557
100
AcDbEntity
8
1
100
AcDbVertex
100
AcDb2dVertex
62
5
10
213.270768
20
165.215955
0
VERTEX
5
558
100
AcDbEntity
8
1
100
AcDbVertex
100
AcDb2dVertex
62
5
10
213.270454
20
165.214839
0
VERTEX
5
559
100
AcDbEntity
8
1
100
AcDbVertex
100
AcDb2dVertex
62
5
10
213.270140
20
165.213722
0
VERTEX
5
55a
100
AcDbEntity
8
1
100
AcDbVertex
100
AcDb2dVertex
62
5
10
213.269826
20
165.212606
0
VERTEX
5
55b
100
AcDbEntity
8
1
100
AcDbVertex
100
AcDb2dVertex
62
5
10
213.269512
20
165.211454
0
VERTEX
5
55c
100
AcDbEntity
8
1
100
AcDbVertex
100
AcDb2dVertex
62
5
10
213.269197
20
165.210337
0
VERTEX
5
55d
100
AcDbEntity
8
1
100
AcDbVertex
100
AcDb2dVertex
62
5
10
213.268849
20
165.209221
0
VERTEX
5
55e
100
AcDbEntity
8
1
100
AcDbVertex
100
AcDb2dVertex
62
5
10
213.268500
20
165.208139
0
VERTEX
5
55f
100
AcDbEntity
8
1
100
AcDbVertex
100
AcDb2dVertex
62
5
10
213.268151
20
165.207023
0
VERTEX
5
560
100
AcDbEntity
8
1
100
AcDbVertex
100
AcDb2dVertex
62
5
10
213.267802
20
165.205906
0
VERTEX
5
561
100
AcDbEntity
8
1
100
AcDbVertex
100
AcDb2dVertex
62
5
10
213.267418
20
165.204789
0
VERTEX
5
562
100
AcDbEntity
8
1
100
AcDbVertex
100
AcDb2dVertex
62
5
10
213.267034
20
165.203708
0
VERTEX
5
563
100
AcDbEntity
8
1
100
AcDbVertex
100
AcDb2dVertex
62
5
10
213.266650
20
165.202591
0
VERTEX
5
564
100
AcDbEntity
8
1
100
AcDbVertex
100
AcDb2dVertex
62
5
10
213.266266
20
165.201474
0
VERTEX
5
565
100
AcDbEntity
8
1
100
AcDbVertex
100
AcDb2dVertex
62
5
10
213.265883
20
165.200393
0
VERTEX
5
566
100
AcDbEntity
8
1
100
AcDbVertex
100
AcDb2dVertex
62
5
10
213.265464
20
165.199311
0
VERTEX
5
567
100
AcDbEntity
8
1
100
AcDbVertex
100
AcDb2dVertex
62
5
10
213.265080
20
165.198194
0
VERTEX
5
568
100
AcDbEntity
8
1
100
AcDbVertex
100
AcDb2dVertex
62
5
10
213.264661
20
165.197113
0
VERTEX
5
569
100
AcDbEntity
8
1
100
AcDbVertex
100
AcDb2dVertex
62
5
10
213.264208
20
165.196031
0
VERTEX
5
56a
100
AcDbEntity
8
1
100
AcDbVertex
100
AcDb2dVertex
62
5
10
213.263789
20
165.194949
0
VERTEX
5
56b
100
AcDbEntity
8
1
100
AcDbVertex
100
AcDb2dVertex
62
5
10
213.263335
20
165.193867
0
VERTEX
5
56c
100
AcDbEntity
8
1
100
AcDbVertex
100
AcDb2dVertex
62
5
10
213.262882
20
165.192751
0
VERTEX
5
56d
100
AcDbEntity
8
1
100
AcDbVertex
100
AcDb2dVertex
62
5
10
213.262428
20
165.191669
0
VERTEX
5
56e
100
AcDbEntity
8
1
100
AcDbVertex
100
AcDb2dVertex
62
5
10
213.261974
20
165.190622
0
VERTEX
5
56f
100
AcDbEntity
8
1
100
AcDbVertex
100
AcDb2dVertex
62
5
10
213.261486
20
165.189541
0
VERTEX
5
570
100
AcDbEntity
8
1
100
AcDbVertex
100
AcDb2dVertex
62
5
10
213.261032
20
165.188459
0
VERTEX
5
571
100
AcDbEntity
8
1
100
AcDbVertex
100
AcDb2dVertex
62
5
10
213.260544
20
165.187377
0
VERTEX
5
572
100
AcDbEntity
8
1
100
AcDbVertex
100
AcDb2dVertex
62
5
10
213.260055
20
165.186330
0
VERTEX
5
573
100
AcDbEntity
8
1
100
AcDbVertex
100
AcDb2dVertex
62
5
10
213.259532
20
165.185249
0
VERTEX
5
574
100
AcDbEntity
8
1
100
AcDbVertex
100
AcDb2dVertex
62
5
10
213.259043
20
165.184167
0
VERTEX
5
575
100
AcDbEntity
8
1
100
AcDbVertex
100
AcDb2dVertex
62
5
10
213.258520
20
165.183120
0
VERTEX
5
576
100
AcDbEntity
8
1
100
AcDbVertex
100
AcDb2dVertex
62
5
10
213.257996
20
165.182038
0
VERTEX
5
577
100
AcDbEntity
8
1
100
AcDbVertex
100
AcDb2dVertex
62
5
10
213.257473
20
165.180991
0
VERTEX
5
578
100
AcDbEntity
8
1
100
AcDbVertex
100
AcDb2dVertex
62
5
10
213.256915
20
165.179945
0
VERTEX
5
579
100
AcDbEntity
8
1
100
AcDbVertex
100
AcDb2dVertex
62
5
10
213.256391
20
165.178863
0
VERTEX
5
57a
100
AcDbEntity
8
1
100
AcDbVertex
100
AcDb2dVertex
62
5
10
213.255833
20
165.177816
0
VERTEX
5
57b
100
AcDbEntity
8
1
100
AcDbVertex
100
AcDb2dVertex
62
5
10
213.255275
20
165.176769
0
VERTEX
5
57c
100
AcDbEntity
8
1
100
AcDbVertex
100
AcDb2dVertex
62
5
10
213.254716
20
165.175722
0
VERTEX
5
57d
100
AcDbEntity
8
1
100
AcDbVertex
100
AcDb2dVertex
62
5
10
213.254123
20
165.174676
0
VERTEX
5
57e
100
AcDbEntity
8
1
100
AcDbVertex
100
AcDb2dVertex
62
5
10
213.253530
20
165.173629
0
VERTEX
5
57f
100
AcDbEntity
8
1
100
AcDbVertex
100
AcDb2dVertex
62
5
10
213.252972
20
165.172582
0
VERTEX
5
580
100
AcDbEntity
8
1
100
AcDbVertex
100
AcDb2dVertex
62
5
10
213.252344
20
165.171535
0
VERTEX
5
581
100
AcDbEntity
8
1
100
AcDbVertex
100
AcDb2dVertex
62
5
10
213.251750
20
165.170523
0
VERTEX
5
582
100
AcDbEntity
8
1
100
AcDbVertex
100
AcDb2dVertex
62
5
10
213.251157
20
165.169476
0
VERTEX
5
583
100
AcDbEntity
8
1
100
AcDbVertex
100
AcDb2dVertex
62
5
10
213.250529
20
165.168430
0
VERTEX
5
584
100
AcDbEntity
8
1
100
AcDbVertex
100
AcDb2dVertex
62
5
10
213.249901
20
165.167418
0
VERTEX
5
585
100
AcDbEntity
8
1
100
AcDbVertex
100
AcDb2dVertex
62
5
10
213.249273
20
165.166371
0
VERTEX
5
586
100
AcDbEntity
8
1
100
AcDbVertex
100
AcDb2dVertex
62
5
10
213.248610
20
165.165359
0
VERTEX
5
587
100
AcDbEntity
8
1
100
AcDbVertex
100
AcDb2dVertex
62
5
10
213.247982
20
165.164312
0
VERTEX
5
588
100
AcDbEntity
8
1
100
AcDbVertex
100
AcDb2dVertex
62
5
10
213.247319
20
165.163300
0
VERTEX
5
589
100
AcDbEntity
8
1
100
AcDbVertex
100
AcDb2dVertex
62
5
10
213.246656
20
165.162288
0
VERTEX
5
58a
100
AcDbEntity
8
1
100
AcDbVertex
100
AcDb2dVertex
62
5
10
213.245993
20
165.161241
0
VERTEX
5
58b
100
AcDbEntity
8
1
100
AcDbVertex
100
AcDb2dVertex
62
5
10
213.245295
20
165.160229
0
VERTEX
5
58c
100
AcDbEntity
8
1
100
AcDbVertex
100
AcDb2dVertex
62
5
10
213.244597
20
165.159217
0
VERTEX
5
58d
100
AcDbEntity
8
1
100
AcDbVertex
100
AcDb2dVertex
62
5
10
213.243934
20
165.158206
0
VERTEX
5
58e
100
AcDbEntity
8
1
100
AcDbVertex
100
AcDb2dVertex
62
5
10
213.243201
20
165.157194
0
VERTEX
5
58f
100
AcDbEntity
8
1
100
AcDbVertex
100
AcDb2dVertex
62
5
10
213.242503
20
165.156182
0
VERTEX
5
590
100
AcDbEntity
8
1
100
AcDbVertex
100
AcDb2dVertex
62
5
10
213.241806
20
165.155170
0
VERTEX
5
591
100
AcDbEntity
8
1
100
AcDbVertex
100
AcDb2dVertex
62
5
10
213.241073
20
165.154193
0
VERTEX
5
592
100
AcDbEntity
8
1
100
AcDbVertex
100
AcDb2dVertex
62
5
10
213.240340
20
165.153181
0
VERTEX
5
593
100
AcDbEntity
8
1
100
AcDbVertex
100
AcDb2dVertex
62
5
10
213.239607
20
165.152169
0
VERTEX
5
594
100
AcDbEntity
8
1
100
AcDbVertex
100
AcDb2dVertex
62
5
10
213.238839
20
165.151192
0
VERTEX
5
595
100
AcDbEntity
8
1
100
AcDbVertex
100
AcDb2dVertex
62
5
10
213.238107
20
165.150180
0
VERTEX
5
596
100
AcDbEntity
8
1
100
AcDbVertex
100
AcDb2dVertex
62
5
10
213.237339
20
165.149203
0
VERTEX
5
597
100
AcDbEntity
8
1
100
AcDbVertex
100
AcDb2dVertex
62
5
10
213.236571
20
165.148191
0
VERTEX
5
598
100
AcDbEntity
8
1
100
AcDbVertex
100
AcDb2dVertex
62
5
10
213.235804
20
165.147214
0
VERTEX
5
599
100
AcDbEntity
8
1
100
AcDbVertex
100
AcDb2dVertex
62
5
10
213.235001
20
165.146202
0
VERTEX
5
59a
100
AcDbEntity
8
1
100
AcDbVertex
100
AcDb2dVertex
62
5
10
213.234233
20
165.145225
0
VERTEX
5
59b
100
AcDbEntity
8
1
100
AcDbVertex
100
AcDb2dVertex
62
5
10
213.233431
20
165.144248
0
VERTEX
5
59c
100
AcDbEntity
8
1
100
AcDbVertex
100
AcDb2dVertex
62
5
10
213.232628
20
165.143271
0
VERTEX
5
59d
100
AcDbEntity
8
1
100
AcDbVertex
100
AcDb2dVertex
62
5
10
213.231826
20
165.142294
0
VERTEX
5
59e
100
AcDbEntity
8
1
100
AcDbVertex
100
AcDb2dVertex
62
5
10
213.230988
20
165.141317
0
VERTEX
5
59f
100
AcDbEntity
8
1
100
AcDbVertex
100
AcDb2dVertex
62
5
10
213.230151
20
165.140340
0
VERTEX
5
5a0
100
AcDbEntity
8
1
100
AcDbVertex
100
AcDb2dVertex
62
5
10
213.229313
20
165.139363
0
VERTEX
5
5a1
100
AcDbEntity
8
1
100
AcDbVertex
100
AcDb2dVertex
62
5
10
213.228476
20
165.138386
0
VERTEX
5
5a2
100
AcDbEntity
8
1
100
AcDbVertex
100
AcDb2dVertex
62
5
10
213.227638
20
165.137409
0
VERTEX
5
5a3
100
AcDbEntity
8
1
100
AcDbVertex
100
AcDb2dVertex
62
5
10
213.226766
20
165.136466
0
VERTEX
5
5a4
100
AcDbEntity
8
1
100
AcDbVertex
100
AcDb2dVertex
62
5
10
213.225929
20
165.135489
0
VERTEX
5
5a5
100
AcDbEntity
8
1
100
AcDbVertex
100
AcDb2dVertex
62
5
10
213.225056
20
165.134547
0
VERTEX
5
5a6
100
AcDbEntity
8
1
100
AcDbVertex
100
AcDb2dVertex
62
5
10
213.224184
20
165.133570
0
VERTEX
5
5a7
100
AcDbEntity
8
1
100
AcDbVertex
100
AcDb2dVertex
62
5
10
213.223277
20
165.132628
0
VERTEX
5
5a8
100
AcDbEntity
8
1
100
AcDbVertex
100
AcDb2dVertex
62
5
10
213.222369
20
165.131651
0
VERTEX
5
5a9
100
AcDbEntity
8
1
100
AcDbVertex
100
AcDb2dVertex
62
5
10
213.221497
20
165.130709
0
VERTEX
5
5aa
100
AcDbEntity
8
1
100
AcDbVertex
100
AcDb2dVertex
62
5
10
213.220590
20
165.129767
0
VERTEX
5
5ab
100
AcDbEntity
8
1
100
AcDbVertex
100
AcDb2dVertex
62
5
10
213.219648
20
165.128790
0
VERTEX
5
5ac
100
AcDbEntity
8
1
100
AcDbVertex
100
AcDb2dVertex
62
5
10
213.218740
20
165.127848
0
VERTEX
5
5ad
100
AcDbEntity
8
1
100
AcDbVertex
100
AcDb2dVertex
62
5
10
213.217798
20
165.126905
0
VERTEX
5
5ae
100
AcDbEntity
8
1
100
AcDbVertex
100
AcDb2dVertex
62
5
10
213.216856
20
165.125963
0
SEQEND
5
5af
100
AcDbEntity
8
1
0
POLYLINE
5
5b0
100
AcDbEntity
8
1
6
CONTINUOUS
62
5
100
AcDb2dPolyline
66
1
10
0.0
20
0.0
30
0.0
70
0
0
VERTEX
5
5b1
100
AcDbEntity
8
1
100
AcDbVertex
100
AcDb2dVertex
62
5
10
213.216856
20
165.399464
0
VERTEX
5
5b2
100
AcDbEntity
8
1
100
AcDbVertex
100
AcDb2dVertex
62
5
10
213.217798
20
165.398522
0
VERTEX
5
5b3
100
AcDbEntity
8
1
100
AcDbVertex
100
AcDb2dVertex
62
5
10
213.218740
20
165.397580
0
VERTEX
5
5b4
100
AcDbEntity
8
1
100
AcDbVertex
100
AcDb2dVertex
62
5
10
213.219648
20
165.396638
0
VERTEX
5
5b5
100
AcDbEntity
8
1
100
AcDbVertex
100
AcDb2dVertex
62
5
10
213.220590
20
165.395696
0
VERTEX
5
5b6
100
AcDbEntity
8
1
100
AcDbVertex
100
AcDb2dVertex
62
5
10
213.221497
20
165.394718
0
VERTEX
5
5b7
100
AcDbEntity
8
1
100
AcDbVertex
100
AcDb2dVertex
62
5
10
213.222369
20
165.393776
0
VERTEX
5
5b8
100
AcDbEntity
8
1
100
AcDbVertex
100
AcDb2dVertex
62
5
10
213.223277
20
165.392834
0
VERTEX
5
5b9
100
AcDbEntity
8
1
100
AcDbVertex
100
AcDb2dVertex
62
5
10
213.224184
20
165.391857
0
VERTEX
5
5ba
100
AcDbEntity
8
1
100
AcDbVertex
100
AcDb2dVertex
62
5
10
213.225056
20
165.390915
0
VERTEX
5
5bb
100
AcDbEntity
8
1
100
AcDbVertex
100
AcDb2dVertex
62
5
10
213.225929
20
165.389938
0
VERTEX
5
5bc
100
AcDbEntity
8
1
100
AcDbVertex
100
AcDb2dVertex
62
5
10
213.226766
20
165.388961
0
VERTEX
5
5bd
100
AcDbEntity
8
1
100
AcDbVertex
100
AcDb2dVertex
62
5
10
213.227638
20
165.388019
0
VERTEX
5
5be
100
AcDbEntity
8
1
100
AcDbVertex
100
AcDb2dVertex
62
5
10
213.228476
20
165.387042
0
VERTEX
5
5bf
100
AcDbEntity
8
1
100
AcDbVertex
100
AcDb2dVertex
62
5
10
213.229313
20
165.386065
0
VERTEX
5
5c0
100
AcDbEntity
8
1
100
AcDbVertex
100
AcDb2dVertex
62
5
10
213.230151
20
165.385088
0
VERTEX
5
5c1
100
AcDbEntity
8
1
100
AcDbVertex
100
AcDb2dVertex
62
5
10
213.230988
20
165.384111
0
VERTEX
5
5c2
100
AcDbEntity
8
1
100
AcDbVertex
100
AcDb2dVertex
62
5
10
213.231826
20
165.383134
0
VERTEX
5
5c3
100
AcDbEntity
8
1
100
AcDbVertex
100
AcDb2dVertex
62
5
10
213.232628
20
165.382157
0
VERTEX
5
5c4
100
AcDbEntity
8
1
100
AcDbVertex
100
AcDb2dVertex
62
5
10
213.233431
20
165.381180
0
VERTEX
5
5c5
100
AcDbEntity
8
1
100
AcDbVertex
100
AcDb2dVertex
62
5
10
213.234233
20
165.380202
0
VERTEX
5
5c6
100
AcDbEntity
8
1
100
AcDbVertex
100
AcDb2dVertex
62
5
10
213.235001
20
165.379225
0
VERTEX
5
5c7
100
AcDbEntity
8
1
100
AcDbVertex
100
AcDb2dVertex
62
5
10
213.235804
20
165.378214
0
VERTEX
5
5c8
100
AcDbEntity
8
1
100
AcDbVertex
100
AcDb2dVertex
62
5
10
213.236571
20
165.377236
0
VERTEX
5
5c9
100
AcDbEntity
8
1
100
AcDbVertex
100
AcDb2dVertex
62
5
10
213.237339
20
165.376259
0
VERTEX
5
5ca
100
AcDbEntity
8
1
100
AcDbVertex
100
AcDb2dVertex
62
5
10
213.238107
20
165.375248
0
VERTEX
5
5cb
100
AcDbEntity
8
1
100
AcDbVertex
100
AcDb2dVertex
62
5
10
213.238839
20
165.374270
0
VERTEX
5
5cc
100
AcDbEntity
8
1
100
AcDbVertex
100
AcDb2dVertex
62
5
10
213.239607
20
165.373259
0
VERTEX
5
5cd
100
AcDbEntity
8
1
100
AcDbVertex
100
AcDb2dVertex
62
5
10
213.240340
20
165.372247
0
VERTEX
5
5ce
100
AcDbEntity
8
1
100
AcDbVertex
100
AcDb2dVertex
62
5
10
213.241073
20
165.371270
0
VERTEX
5
5cf
100
AcDbEntity
8
1
100
AcDbVertex
100
AcDb2dVertex
62
5
10
213.241806
20
165.370258
0
VERTEX
5
5d0
100
AcDbEntity
8
1
100
AcDbVertex
100
AcDb2dVertex
62
5
10
213.242503
20
165.369246
0
VERTEX
5
5d1
100
AcDbEntity
8
1
100
AcDbVertex
100
AcDb2dVertex
62
5
10
213.243201
20
165.368234
0
VERTEX
5
5d2
100
AcDbEntity
8
1
100
AcDbVertex
100
AcDb2dVertex
62
5
10
213.243934
20
165.367222
0
VERTEX
5
5d3
100
AcDbEntity
8
1
100
AcDbVertex
100
AcDb2dVertex
62
5
10
213.244597
20
165.366210
0
VERTEX
5
5d4
100
AcDbEntity
8
1
100
AcDbVertex
100
AcDb2dVertex
62
5
10
213.245295
20
165.365198
0
VERTEX
5
5d5
100
AcDbEntity
8
1
100
AcDbVertex
100
AcDb2dVertex
62
5
10
213.245993
20
165.364186
0
VERTEX
5
5d6
100
AcDbEntity
8
1
100
AcDbVertex
100
AcDb2dVertex
62
5
10
213.246656
20
165.363174
0
VERTEX
5
5d7
100
AcDbEntity
8
1
100
AcDbVertex
100
AcDb2dVertex
62
5
10
213.247319
20
165.362127
0
VERTEX
5
5d8
100
AcDbEntity
8
1
100
AcDbVertex
100
AcDb2dVertex
62
5
10
213.247982
20
165.361115
0
VERTEX
5
5d9
100
AcDbEntity
8
1
100
AcDbVertex
100
AcDb2dVertex
62
5
10
213.248610
20
165.360103
0
VERTEX
5
5da
100
AcDbEntity
8
1
100
AcDbVertex
100
AcDb2dVertex
62
5
10
213.249273
20
165.359057
0
VERTEX
5
5db
100
AcDbEntity
8
1
100
AcDbVertex
100
AcDb2dVertex
62
5
10
213.249901
20
165.358045
0
VERTEX
5
5dc
100
AcDbEntity
8
1
100
AcDbVertex
100
AcDb2dVertex
62
5
10
213.250529
20
165.356998
0
VERTEX
5
5dd
100
AcDbEntity
8
1
100
AcDbVertex
100
AcDb2dVertex
62
5
10
213.251157
20
165.355951
0
VERTEX
5
5de
100
AcDbEntity
8
1
100
AcDbVertex
100
AcDb2dVertex
62
5
10
213.251750
20
165.354939
0
VERTEX
5
5df
100
AcDbEntity
8
1
100
AcDbVertex
100
AcDb2dVertex
62
5
10
213.252344
20
165.353892
0
VERTEX
5
5e0
100
AcDbEntity
8
1
100
AcDbVertex
100
AcDb2dVertex
62
5
10
213.252972
20
165.352845
0
VERTEX
5
5e1
100
AcDbEntity
8
1
100
AcDbVertex
100
AcDb2dVertex
62
5
10
213.253530
20
165.351799
0
VERTEX
5
5e2
100
AcDbEntity
8
1
100
AcDbVertex
100
AcDb2dVertex
62
5
10
213.254123
20
165.350752
0
VERTEX
5
5e3
100
AcDbEntity
8
1
100
AcDbVertex
100
AcDb2dVertex
62
5
10
213.254716
20
165.349705
0
VERTEX
5
5e4
100
AcDbEntity
8
1
100
AcDbVertex
100
AcDb2dVertex
62
5
10
213.255275
20
165.348658
0
VERTEX
5
5e5
100
AcDbEntity
8
1
100
AcDbVertex
100
AcDb2dVertex
62
5
10
213.255833
20
165.347611
0
VERTEX
5
5e6
100
AcDbEntity
8
1
100
AcDbVertex
100
AcDb2dVertex
62
5
10
213.256391
20
165.346564
0
VERTEX
5
5e7
100
AcDbEntity
8
1
100
AcDbVertex
100
AcDb2dVertex
62
5
10
213.256915
20
165.345518
0
VERTEX
5
5e8
100
AcDbEntity
8
1
100
AcDbVertex
100
AcDb2dVertex
62
5
10
213.257473
20
165.344436
0
VERTEX
5
5e9
100
AcDbEntity
8
1
100
AcDbVertex
100
AcDb2dVertex
62
5
10
213.257996
20
165.343389
0
VERTEX
5
5ea
100
AcDbEntity
8
1
100
AcDbVertex
100
AcDb2dVertex
62
5
10
213.258520
20
165.342307
0
VERTEX
5
5eb
100
AcDbEntity
8
1
100
AcDbVertex
100
AcDb2dVertex
62
5
10
213.259043
20
165.341261
0
VERTEX
5
5ec
100
AcDbEntity
8
1
100
AcDbVertex
100
AcDb2dVertex
62
5
10
213.259532
20
165.340179
0
VERTEX
5
5ed
100
AcDbEntity
8
1
100
AcDbVertex
100
AcDb2dVertex
62
5
10
213.260055
20
165.339132
0
VERTEX
5
5ee
100
AcDbEntity
8
1
100
AcDbVertex
100
AcDb2dVertex
62
5
10
213.260544
20
165.338050
0
VERTEX
5
5ef
100
AcDbEntity
8
1
100
AcDbVertex
100
AcDb2dVertex
62
5
10
213.261032
20
165.336969
0
VERTEX
5
5f0
100
AcDbEntity
8
1
100
AcDbVertex
100
AcDb2dVertex
62
5
10
213.261486
20
165.335922
0
VERTEX
5
5f1
100
AcDbEntity
8
1
100
AcDbVertex
100
AcDb2dVertex
62
5
10
213.261974
20
165.334840
0
VERTEX
5
5f2
100
AcDbEntity
8
1
100
AcDbVertex
100
AcDb2dVertex
62
5
10
213.262428
20
165.333758
0
VERTEX
5
5f3
100
AcDbEntity
8
1
100
AcDbVertex
100
AcDb2dVertex
62
5
10
213.262882
20
165.332677
0
VERTEX
5
5f4
100
AcDbEntity
8
1
100
AcDbVertex
100
AcDb2dVertex
62
5
10
213.263335
20
165.331595
0
VERTEX
5
5f5
100
AcDbEntity
8
1
100
AcDbVertex
100
AcDb2dVertex
62
5
10
213.263789
20
165.330513
0
VERTEX
5
5f6
100
AcDbEntity
8
1
100
AcDbVertex
100
AcDb2dVertex
62
5
10
213.264208
20
165.329397
0
VERTEX
5
5f7
100
AcDbEntity
8
1
100
AcDbVertex
100
AcDb2dVertex
62
5
10
213.264661
20
165.328315
0
VERTEX
5
5f8
100
AcDbEntity
8
1
100
AcDbVertex
100
AcDb2dVertex
62
5
10
213.265080
20
165.327233
0
VERTEX
5
5f9
100
AcDbEntity
8
1
100
AcDbVertex
100
AcDb2dVertex
62
5
10
213.265464
20
165.326151
0
VERTEX
5
5fa
100
AcDbEntity
8
1
100
AcDbVertex
100
AcDb2dVertex
62
5
10
213.265883
20
165.325035
0
VERTEX
5
5fb
100
AcDbEntity
8
1
100
AcDbVertex
100
AcDb2dVertex
62
5
10
213.266266
20
165.323953
0
VERTEX
5
5fc
100
AcDbEntity
8
1
100
AcDbVertex
100
AcDb2dVertex
62
5
10
213.266650
20
165.322836
0
VERTEX
5
5fd
100
AcDbEntity
8
1
100
AcDbVertex
100
AcDb2dVertex
62
5
10
213.267034
20
165.321755
0
VERTEX
5
5fe
100
AcDbEntity
8
1
100
AcDbVertex
100
AcDb2dVertex
62
5
10
213.267418
20
165.320638
0
VERTEX
5
5ff
100
AcDbEntity
8
1
100
AcDbVertex
100
AcDb2dVertex
62
5
10
213.267802
20
165.319521
0
VERTEX
5
600
100
AcDbEntity
8
1
100
AcDbVertex
100
AcDb2dVertex
62
5
10
213.268151
20
165.318440
0
VERTEX
5
601
100
AcDbEntity
8
1
100
AcDbVertex
100
AcDb2dVertex
62
5
10
213.268500
20
165.317323
0
VERTEX
5
602
100
AcDbEntity
8
1
100
AcDbVertex
100
AcDb2dVertex
62
5
10
213.268849
20
165.316207
0
VERTEX
5
603
100
AcDbEntity
8
1
100
AcDbVertex
100
AcDb2dVertex
62
5
10
213.269197
20
165.315090
0
VERTEX
5
604
100
AcDbEntity
8
1
100
AcDbVertex
100
AcDb2dVertex
62
5
10
213.269512
20
165.313973
0
VERTEX
5
605
100
AcDbEntity
8
1
100
AcDbVertex
100
AcDb2dVertex
62
5
10
213.269826
20
165.312857
0
VERTEX
5
606
100
AcDbEntity
8
1
100
AcDbVertex
100
AcDb2dVertex
62
5
10
213.270140
20
165.311740
0
VERTEX
5
607
100
AcDbEntity
8
1
100
AcDbVertex
100
AcDb2dVertex
62
5
10
213.270454
20
165.310589
0
VERTEX
5
608
100
AcDbEntity
8
1
100
AcDbVertex
100
AcDb2dVertex
62
5
10
213.270768
20
165.309472
0
VERTEX
5
609
100
AcDbEntity
8
1
100
AcDbVertex
100
AcDb2dVertex
62
5
10
213.271047
20
165.308355
0
VERTEX
5
60a
100
AcDbEntity
8
1
100
AcDbVertex
100
AcDb2dVertex
62
5
10
213.271326
20
165.307204
0
VERTEX
5
60b
100
AcDbEntity
8
1
100
AcDbVertex
100
AcDb2dVertex
62
5
10
213.271605
20
165.306087
0
VERTEX
5
60c
100
AcDbEntity
8
1
100
AcDbVertex
100
AcDb2dVertex
62
5
10
213.271884
20
165.304971
0
VERTEX
5
60d
100
AcDbEntity
8
1
100
AcDbVertex
100
AcDb2dVertex
62
5
10
213.272163
20
165.303819
0
VERTEX
5
60e
100
AcDbEntity
8
1
100
AcDbVertex
100
AcDb2dVertex
62
5
10
213.272408
20
165.302668
0
VERTEX
5
60f
100
AcDbEntity
8
1
100
AcDbVertex
100
AcDb2dVertex
62
5
10
213.272652
20
165.301551
0
VERTEX
5
610
100
AcDbEntity
8
1
100
AcDbVertex
100
AcDb2dVertex
62
5
10
213.272896
20
165.300399
0
VERTEX
5
611
100
AcDbEntity
8
1
100
AcDbVertex
100
AcDb2dVertex
62
5
10
213.273141
20
165.299248
0
VERTEX
5
612
100
AcDbEntity
8
1
100
AcDbVertex
100
AcDb2dVertex
62
5
10
213.273350
20
165.298096
0
VERTEX
5
613
100
AcDbEntity
8
1
100
AcDbVertex
100
AcDb2dVertex
62
5
10
213.273559
20
165.296945
0
VERTEX
5
614
100
AcDbEntity
8
1
100
AcDbVertex
100
AcDb2dVertex
62
5
10
213.273803
20
165.295793
0
VERTEX
5
615
100
AcDbEntity
8
1
100
AcDbVertex
100
AcDb2dVertex
62
5
10
213.273978
20
165.294642
0
VERTEX
5
616
100
AcDbEntity
8
1
100
AcDbVertex
100
AcDb2dVertex
62
5
10
213.274187
20
165.293490
0
VERTEX
5
617
100
AcDbEntity
8
1
100
AcDbVertex
100
AcDb2dVertex
62
5
10
213.274362
20
165.292339
0
VERTEX
5
618
100
AcDbEntity
8
1
100
AcDbVertex
100
AcDb2dVertex
62
5
10
213.274571
20
165.291187
0
VERTEX
5
619
100
AcDbEntity
8
1
100
AcDbVertex
100
AcDb2dVertex
62
5
10
213.274746
20
165.290036
0
VERTEX
5
61a
100
AcDbEntity
8
1
100
AcDbVertex
100
AcDb2dVertex
62
5
10
213.274885
20
165.288849
0
VERTEX
5
61b
100
AcDbEntity
8
1
100
AcDbVertex
100
AcDb2dVertex
62
5
10
213.275060
20
165.287698
0
VERTEX
5
61c
100
AcDbEntity
8
1
100
AcDbVertex
100
AcDb2dVertex
62
5
10
213.275199
20
165.286512
0
VERTEX
5
61d
100
AcDbEntity
8
1
100
AcDbVertex
100
AcDb2dVertex
62
5
10
213.275374
20
165.285360
0
VERTEX
5
61e
100
AcDbEntity
8
1
100
AcDbVertex
100
AcDb2dVertex
62
5
10
213.275478
20
165.284174
0
VERTEX
5
61f
100
AcDbEntity
8
1
100
AcDbVertex
100
AcDb2dVertex
62
5
10
213.275618
20
165.283022
0
VERTEX
5
620
100
AcDbEntity
8
1
100
AcDbVertex
100
AcDb2dVertex
62
5
10
213.275758
20
165.281836
0
VERTEX
5
621
100
AcDbEntity
8
1
100
AcDbVertex
100
AcDb2dVertex
62
5
10
213.275862
20
165.280649
0
VERTEX
5
622
100
AcDbEntity
8
1
100
AcDbVertex
100
AcDb2dVertex
62
5
10
213.275967
20
165.279463
0
VERTEX
5
623
100
AcDbEntity
8
1
100
AcDbVertex
100
AcDb2dVertex
62
5
10
213.276072
20
165.278277
0
VERTEX
5
624
100
AcDbEntity
8
1
100
AcDbVertex
100
AcDb2dVertex
62
5
10
213.276176
20
165.277090
0
VERTEX
5
625
100
AcDbEntity
8
1
100
AcDbVertex
100
AcDb2dVertex
62
5
10
213.276246
20
165.275904
0
VERTEX
5
626
100
AcDbEntity
8
1
100
AcDbVertex
100
AcDb2dVertex
62
5
10
213.276316
20
165.274717
0
VERTEX
5
627
100
AcDbEntity
8
1
100
AcDbVertex
100
AcDb2dVertex
62
5
10
213.276386
20
165.273531
0
VERTEX
5
628
100
AcDbEntity
8
1
100
AcDbVertex
100
AcDb2dVertex
62
5
10
213.276455
20
165.272344
0
VERTEX
5
629
100
AcDbEntity
8
1
100
AcDbVertex
100
AcDb2dVertex
62
5
10
213.276525
20
165.271158
0
VERTEX
5
62a
100
AcDbEntity
8
1
100
AcDbVertex
100
AcDb2dVertex
62
5
10
213.276560
20
165.269937
0
VERTEX
5
62b
100
AcDbEntity
8
1
100
AcDbVertex
100
AcDb2dVertex
62
5
10
213.276595
20
165.268750
0
VERTEX
5
62c
100
AcDbEntity
8
1
100
AcDbVertex
100
AcDb2dVertex
62
5
10
213.276630
20
165.267564
0
VERTEX
5
62d
100
AcDbEntity
8
1
100
AcDbVertex
100
AcDb2dVertex
62
5
10
213.276665
20
165.266343
0
VERTEX
5
62e
100
AcDbEntity
8
1
100
AcDbVertex
100
AcDb2dVertex
62
5
10
213.276665
20
165.265121
0
VERTEX
5
62f
100
AcDbEntity
8
1
100
AcDbVertex
100
AcDb2dVertex
62
5
10
213.276700
20
165.263935
0
VERTEX
5
630
100
AcDbEntity
8
1
100
AcDbVertex
100
AcDb2dVertex
62
5
10
213.276700
20
165.262714
0
SEQEND
5
631
100
AcDbEntity
8
1
0
POLYLINE
5
632
100
AcDbEntity
8
1
6
CONTINUOUS
62
5
100
AcDb2dPolyline
66
1
10
0.0
20
0.0
30
0.0
70
0
0
VERTEX
5
633
100
AcDbEntity
8
1
100
AcDbVertex
100
AcDb2dVertex
62
5
10
213.088655
20
165.450759
0
VERTEX
5
634
100
AcDbEntity
8
1
100
AcDbVertex
100
AcDb2dVertex
62
5
10
213.089876
20
165.450759
0
VERTEX
5
635
100
AcDbEntity
8
1
100
AcDbVertex
100
AcDb2dVertex
62
5
10
213.091063
20
165.450724
0
VERTEX
5
636
100
AcDbEntity
8
1
100
AcDbVertex
100
AcDb2dVertex
62
5
10
213.092284
20
165.450724
0
VERTEX
5
637
100
AcDbEntity
8
1
100
AcDbVertex
100
AcDb2dVertex
62
5
10
213.093470
20
165.450689
0
VERTEX
5
638
100
AcDbEntity
8
1
100
AcDbVertex
100
AcDb2dVertex
62
5
10
213.094692
20
165.450689
0
VERTEX
5
639
100
AcDbEntity
8
1
100
AcDbVertex
100
AcDb2dVertex
62
5
10
213.095878
20
165.450654
0
VERTEX
5
63a
100
AcDbEntity
8
1
100
AcDbVertex
100
AcDb2dVertex
62
5
10
213.097064
20
165.450584
0
VERTEX
5
63b
100
AcDbEntity
8
1
100
AcDbVertex
100
AcDb2dVertex
62
5
10
213.098251
20
165.450549
0
VERTEX
5
63c
100
AcDbEntity
8
1
100
AcDbVertex
100
AcDb2dVertex
62
5
10
213.099437
20
165.450479
0
VERTEX
5
63d
100
AcDbEntity
8
1
100
AcDbVertex
100
AcDb2dVertex
62
5
10
213.100624
20
165.450445
0
VERTEX
5
63e
100
AcDbEntity
8
1
100
AcDbVertex
100
AcDb2dVertex
62
5
10
213.101810
20
165.450375
0
VERTEX
5
63f
100
AcDbEntity
8
1
100
AcDbVertex
100
AcDb2dVertex
62
5
10
213.102961
20
165.450305
0
VERTEX
5
640
100
AcDbEntity
8
1
100
AcDbVertex
100
AcDb2dVertex
62
5
10
213.104148
20
165.450200
0
VERTEX
5
641
100
AcDbEntity
8
1
100
AcDbVertex
100
AcDb2dVertex
62
5
10
213.105299
20
165.450130
0
VERTEX
5
642
100
AcDbEntity
8
1
100
AcDbVertex
100
AcDb2dVertex
62
5
10
213.106486
20
165.450026
0
VERTEX
5
643
100
AcDbEntity
8
1
100
AcDbVertex
100
AcDb2dVertex
62
5
10
213.107637
20
165.449956
0
VERTEX
5
644
100
AcDbEntity
8
1
100
AcDbVertex
100
AcDb2dVertex
62
5
10
213.108789
20
165.449851
0
VERTEX
5
645
100
AcDbEntity
8
1
100
AcDbVertex
100
AcDb2dVertex
62
5
10
213.109940
20
165.449712
0
VERTEX
5
646
100
AcDbEntity
8
1
100
AcDbVertex
100
AcDb2dVertex
62
5
10
213.111092
20
165.449607
0
VERTEX
5
647
100
AcDbEntity
8
1
100
AcDbVertex
100
AcDb2dVertex
62
5
10
213.112243
20
165.449468
0
VERTEX
5
648
100
AcDbEntity
8
1
100
AcDbVertex
100
AcDb2dVertex
62
5
10
213.113395
20
165.449363
0
VERTEX
5
649
100
AcDbEntity
8
1
100
AcDbVertex
100
AcDb2dVertex
62
5
10
213.114546
20
165.449223
0
VERTEX
5
64a
100
AcDbEntity
8
1
100
AcDbVertex
100
AcDb2dVertex
62
5
10
213.115698
20
165.449084
0
VERTEX
5
64b
100
AcDbEntity
8
1
100
AcDbVertex
100
AcDb2dVertex
62
5
10
213.116814
20
165.448909
0
VERTEX
5
64c
100
AcDbEntity
8
1
100
AcDbVertex
100
AcDb2dVertex
62
5
10
213.117966
20
165.448770
0
VERTEX
5
64d
100
AcDbEntity
8
1
100
AcDbVertex
100
AcDb2dVertex
62
5
10
213.119083
20
165.448595
0
VERTEX
5
64e
100
AcDbEntity
8
1
100
AcDbVertex
100
AcDb2dVertex
62
5
10
213.120199
20
165.448421
0
VERTEX
5
64f
100
AcDbEntity
8
1
100
AcDbVertex
100
AcDb2dVertex
62
5
10
213.121351
20
165.448246
0
VERTEX
5
650
100
AcDbEntity
8
1
100
AcDbVertex
100
AcDb2dVertex
62
5
10
213.122467
20
165.448072
0
VERTEX
5
651
100
AcDbEntity
8
1
100
AcDbVertex
100
AcDb2dVertex
62
5
10
213.123584
20
165.447897
0
VERTEX
5
652
100
AcDbEntity
8
1
100
AcDbVertex
100
AcDb2dVertex
62
5
10
213.124701
20
165.447688
0
VERTEX
5
653
100
AcDbEntity
8
1
100
AcDbVertex
100
AcDb2dVertex
62
5
10
213.125782
20
165.447513
0
VERTEX
5
654
100
AcDbEntity
8
1
100
AcDbVertex
100
AcDb2dVertex
62
5
10
213.126899
20
165.447304
0
VERTEX
5
655
100
AcDbEntity
8
1
100
AcDbVertex
100
AcDb2dVertex
62
5
10
213.128015
20
165.447095
0
VERTEX
5
656
100
AcDbEntity
8
1
100
AcDbVertex
100
AcDb2dVertex
62
5
10
213.129097
20
165.446850
0
VERTEX
5
657
100
AcDbEntity
8
1
100
AcDbVertex
100
AcDb2dVertex
62
5
10
213.130214
20
165.446641
0
VERTEX
5
658
100
AcDbEntity
8
1
100
AcDbVertex
100
AcDb2dVertex
62
5
10
213.131296
20
165.446397
0
VERTEX
5
659
100
AcDbEntity
8
1
100
AcDbVertex
100
AcDb2dVertex
62
5
10
213.132412
20
165.446153
0
VERTEX
5
65a
100
AcDbEntity
8
1
100
AcDbVertex
100
AcDb2dVertex
62
5
10
213.133494
20
165.445908
0
VERTEX
5
65b
100
AcDbEntity
8
1
100
AcDbVertex
100
AcDb2dVertex
62
5
10
213.134576
20
165.445664
0
VERTEX
5
65c
100
AcDbEntity
8
1
100
AcDbVertex
100
AcDb2dVertex
62
5
10
213.135657
20
165.445420
0
VERTEX
5
65d
100
AcDbEntity
8
1
100
AcDbVertex
100
AcDb2dVertex
62
5
10
213.136739
20
165.445141
0
VERTEX
5
65e
100
AcDbEntity
8
1
100
AcDbVertex
100
AcDb2dVertex
62
5
10
213.137821
20
165.444861
0
VERTEX
5
65f
100
AcDbEntity
8
1
100
AcDbVertex
100
AcDb2dVertex
62
5
10
213.138868
20
165.444582
0
VERTEX
5
660
100
AcDbEntity
8
1
100
AcDbVertex
100
AcDb2dVertex
62
5
10
213.139949
20
165.444303
0
VERTEX
5
661
100
AcDbEntity
8
1
100
AcDbVertex
100
AcDb2dVertex
62
5
10
213.141031
20
165.444024
0
VERTEX
5
662
100
AcDbEntity
8
1
100
AcDbVertex
100
AcDb2dVertex
62
5
10
213.142078
20
165.443745
0
VERTEX
5
663
100
AcDbEntity
8
1
100
AcDbVertex
100
AcDb2dVertex
62
5
10
213.143160
20
165.443431
0
VERTEX
5
664
100
AcDbEntity
8
1
100
AcDbVertex
100
AcDb2dVertex
62
5
10
213.144206
20
165.443117
0
VERTEX
5
665
100
AcDbEntity
8
1
100
AcDbVertex
100
AcDb2dVertex
62
5
10
213.145253
20
165.442803
0
VERTEX
5
666
100
AcDbEntity
8
1
100
AcDbVertex
100
AcDb2dVertex
62
5
10
213.146300
20
165.442489
0
VERTEX
5
667
100
AcDbEntity
8
1
100
AcDbVertex
100
AcDb2dVertex
62
5
10
213.147347
20
165.442140
0
VERTEX
5
668
100
AcDbEntity
8
1
100
AcDbVertex
100
AcDb2dVertex
62
5
10
213.148394
20
165.441826
0
VERTEX
5
669
100
AcDbEntity
8
1
100
AcDbVertex
100
AcDb2dVertex
62
5
10
213.149441
20
165.441477
0
VERTEX
5
66a
100
AcDbEntity
8
1
100
AcDbVertex
100
AcDb2dVertex
62
5
10
213.150487
20
165.441128
0
VERTEX
5
66b
100
AcDbEntity
8
1
100
AcDbVertex
100
AcDb2dVertex
62
5
10
213.151499
20
165.440779
0
VERTEX
5
66c
100
AcDbEntity
8
1
100
AcDbVertex
100
AcDb2dVertex
62
5
10
213.152546
20
165.440430
0
VERTEX
5
66d
100
AcDbEntity
8
1
100
AcDbVertex
100
AcDb2dVertex
62
5
10
213.153558
20
165.440046
0
VERTEX
5
66e
100
AcDbEntity
8
1
100
AcDbVertex
100
AcDb2dVertex
62
5
10
213.154605
20
165.439697
0
VERTEX
5
66f
100
AcDbEntity
8
1
100
AcDbVertex
100
AcDb2dVertex
62
5
10
213.155617
20
165.439313
0
VERTEX
5
670
100
AcDbEntity
8
1
100
AcDbVertex
100
AcDb2dVertex
62
5
10
213.156629
20
165.438929
0
VERTEX
5
671
100
AcDbEntity
8
1
100
AcDbVertex
100
AcDb2dVertex
62
5
10
213.157641
20
165.438546
0
VERTEX
5
672
100
AcDbEntity
8
1
100
AcDbVertex
100
AcDb2dVertex
62
5
10
213.158653
20
165.438127
0
VERTEX
5
673
100
AcDbEntity
8
1
100
AcDbVertex
100
AcDb2dVertex
62
5
10
213.159665
20
165.437743
0
VERTEX
5
674
100
AcDbEntity
8
1
100
AcDbVertex
100
AcDb2dVertex
62
5
10
213.160676
20
165.437324
0
VERTEX
5
675
100
AcDbEntity
8
1
100
AcDbVertex
100
AcDb2dVertex
62
5
10
213.161688
20
165.436906
0
VERTEX
5
676
100
AcDbEntity
8
1
100
AcDbVertex
100
AcDb2dVertex
62
5
10
213.162700
20
165.436487
0
VERTEX
5
677
100
AcDbEntity
8
1
100
AcDbVertex
100
AcDb2dVertex
62
5
10
213.163677
20
165.436068
0
VERTEX
5
678
100
AcDbEntity
8
1
100
AcDbVertex
100
AcDb2dVertex
62
5
10
213.164689
20
165.435615
0
VERTEX
5
679
100
AcDbEntity
8
1
100
AcDbVertex
100
AcDb2dVertex
62
5
10
213.165666
20
165.435161
0
VERTEX
5
67a
100
AcDbEntity
8
1
100
AcDbVertex
100
AcDb2dVertex
62
5
10
213.166643
20
165.434742
0
VERTEX
5
67b
100
AcDbEntity
8
1
100
AcDbVertex
100
AcDb2dVertex
62
5
10
213.167655
20
165.434254
0
VERTEX
5
67c
100
AcDbEntity
8
1
100
AcDbVertex
100
AcDb2dVertex
62
5
10
213.168632
20
165.433800
0
VERTEX
5
67d
100
AcDbEntity
8
1
100
AcDbVertex
100
AcDb2dVertex
62
5
10
213.169609
20
165.433346
0
VERTEX
5
67e
100
AcDbEntity
8
1
100
AcDbVertex
100
AcDb2dVertex
62
5
10
213.170586
20
165.432858
0
VERTEX
5
67f
100
AcDbEntity
8
1
100
AcDbVertex
100
AcDb2dVertex
62
5
10
213.171529
20
165.432404
0
VERTEX
5
680
100
AcDbEntity
8
1
100
AcDbVertex
100
AcDb2dVertex
62
5
10
213.172506
20
165.431916
0
VERTEX
5
681
100
AcDbEntity
8
1
100
AcDbVertex
100
AcDb2dVertex
62
5
10
213.173483
20
165.431392
0
VERTEX
5
682
100
AcDbEntity
8
1
100
AcDbVertex
100
AcDb2dVertex
62
5
10
213.174425
20
165.430904
0
VERTEX
5
683
100
AcDbEntity
8
1
100
AcDbVertex
100
AcDb2dVertex
62
5
10
213.175402
20
165.430415
0
VERTEX
5
684
100
AcDbEntity
8
1
100
AcDbVertex
100
AcDb2dVertex
62
5
10
213.176344
20
165.429892
0
VERTEX
5
685
100
AcDbEntity
8
1
100
AcDbVertex
100
AcDb2dVertex
62
5
10
213.177321
20
165.429368
0
VERTEX
5
686
100
AcDbEntity
8
1
100
AcDbVertex
100
AcDb2dVertex
62
5
10
213.178263
20
165.428845
0
VERTEX
5
687
100
AcDbEntity
8
1
100
AcDbVertex
100
AcDb2dVertex
62
5
10
213.179205
20
165.428322
0
VERTEX
5
688
100
AcDbEntity
8
1
100
AcDbVertex
100
AcDb2dVertex
62
5
10
213.180147
20
165.427798
0
VERTEX
5
689
100
AcDbEntity
8
1
100
AcDbVertex
100
AcDb2dVertex
62
5
10
213.181090
20
165.427240
0
VERTEX
5
68a
100
AcDbEntity
8
1
100
AcDbVertex
100
AcDb2dVertex
62
5
10
213.182032
20
165.426682
0
VERTEX
5
68b
100
AcDbEntity
8
1
100
AcDbVertex
100
AcDb2dVertex
62
5
10
213.182939
20
165.426123
0
VERTEX
5
68c
100
AcDbEntity
8
1
100
AcDbVertex
100
AcDb2dVertex
62
5
10
213.183881
20
165.425565
0
VERTEX
5
68d
100
AcDbEntity
8
1
100
AcDbVertex
100
AcDb2dVertex
62
5
10
213.184823
20
165.425007
0
VERTEX
5
68e
100
AcDbEntity
8
1
100
AcDbVertex
100
AcDb2dVertex
62
5
10
213.185731
20
165.424413
0
VERTEX
5
68f
100
AcDbEntity
8
1
100
AcDbVertex
100
AcDb2dVertex
62
5
10
213.186638
20
165.423855
0
VERTEX
5
690
100
AcDbEntity
8
1
100
AcDbVertex
100
AcDb2dVertex
62
5
10
213.187580
20
165.423262
0
VERTEX
5
691
100
AcDbEntity
8
1
100
AcDbVertex
100
AcDb2dVertex
62
5
10
213.188487
20
165.422669
0
VERTEX
5
692
100
AcDbEntity
8
1
100
AcDbVertex
100
AcDb2dVertex
62
5
10
213.189394
20
165.422041
0
VERTEX
5
693
100
AcDbEntity
8
1
100
AcDbVertex
100
AcDb2dVertex
62
5
10
213.190302
20
165.421447
0
VERTEX
5
694
100
AcDbEntity
8
1
100
AcDbVertex
100
AcDb2dVertex
62
5
10
213.191209
20
165.420854
0
VERTEX
5
695
100
AcDbEntity
8
1
100
AcDbVertex
100
AcDb2dVertex
62
5
10
213.192116
20
165.420226
0
VERTEX
5
696
100
AcDbEntity
8
1
100
AcDbVertex
100
AcDb2dVertex
62
5
10
213.193023
20
165.419598
0
VERTEX
5
697
100
AcDbEntity
8
1
100
AcDbVertex
100
AcDb2dVertex
62
5
10
213.193896
20
165.418970
0
VERTEX
5
698
100
AcDbEntity
8
1
100
AcDbVertex
100
AcDb2dVertex
62
5
10
213.194803
20
165.418307
0
VERTEX
5
699
100
AcDbEntity
8
1
100
AcDbVertex
100
AcDb2dVertex
62
5
10
213.195675
20
165.417679
0
VERTEX
5
69a
100
AcDbEntity
8
1
100
AcDbVertex
100
AcDb2dVertex
62
5
10
213.196583
20
165.417016
0
VERTEX
5
69b
100
AcDbEntity
8
1
100
AcDbVertex
100
AcDb2dVertex
62
5
10
213.197455
20
165.416353
0
VERTEX
5
69c
100
AcDbEntity
8
1
100
AcDbVertex
100
AcDb2dVertex
62
5
10
213.198327
20
165.415690
0
VERTEX
5
69d
100
AcDbEntity
8
1
100
AcDbVertex
100
AcDb2dVertex
62
5
10
213.199200
20
165.415027
0
VERTEX
5
69e
100
AcDbEntity
8
1
100
AcDbVertex
100
AcDb2dVertex
62
5
10
213.200072
20
165.414364
0
VERTEX
5
69f
100
AcDbEntity
8
1
100
AcDbVertex
100
AcDb2dVertex
62
5
10
213.200944
20
165.413666
0
VERTEX
5
6a0
100
AcDbEntity
8
1
100
AcDbVertex
100
AcDb2dVertex
62
5
10
213.201817
20
165.412968
0
VERTEX
5
6a1
100
AcDbEntity
8
1
100
AcDbVertex
100
AcDb2dVertex
62
5
10
213.202689
20
165.412270
0
VERTEX
5
6a2
100
AcDbEntity
8
1
100
AcDbVertex
100
AcDb2dVertex
62
5
10
213.203527
20
165.411572
0
VERTEX
5
6a3
100
AcDbEntity
8
1
100
AcDbVertex
100
AcDb2dVertex
62
5
10
213.204399
20
165.410875
0
VERTEX
5
6a4
100
AcDbEntity
8
1
100
AcDbVertex
100
AcDb2dVertex
62
5
10
213.205236
20
165.410142
0
VERTEX
5
6a5
100
AcDbEntity
8
1
100
AcDbVertex
100
AcDb2dVertex
62
5
10
213.206109
20
165.409444
0
VERTEX
5
6a6
100
AcDbEntity
8
1
100
AcDbVertex
100
AcDb2dVertex
62
5
10
213.206946
20
165.408711
0
VERTEX
5
6a7
100
AcDbEntity
8
1
100
AcDbVertex
100
AcDb2dVertex
62
5
10
213.207784
20
165.407978
0
VERTEX
5
6a8
100
AcDbEntity
8
1
100
AcDbVertex
100
AcDb2dVertex
62
5
10
213.208621
20
165.407246
0
VERTEX
5
6a9
100
AcDbEntity
8
1
100
AcDbVertex
100
AcDb2dVertex
62
5
10
213.209459
20
165.406478
0
VERTEX
5
6aa
100
AcDbEntity
8
1
100
AcDbVertex
100
AcDb2dVertex
62
5
10
213.210296
20
165.405745
0
VERTEX
5
6ab
100
AcDbEntity
8
1
100
AcDbVertex
100
AcDb2dVertex
62
5
10
213.211133
20
165.404977
0
VERTEX
5
6ac
100
AcDbEntity
8
1
100
AcDbVertex
100
AcDb2dVertex
62
5
10
213.211971
20
165.404210
0
VERTEX
5
6ad
100
AcDbEntity
8
1
100
AcDbVertex
100
AcDb2dVertex
62
5
10
213.212774
20
165.403442
0
VERTEX
5
6ae
100
AcDbEntity
8
1
100
AcDbVertex
100
AcDb2dVertex
62
5
10
213.213611
20
165.402639
0
VERTEX
5
6af
100
AcDbEntity
8
1
100
AcDbVertex
100
AcDb2dVertex
62
5
10
213.214414
20
165.401872
0
VERTEX
5
6b0
100
AcDbEntity
8
1
100
AcDbVertex
100
AcDb2dVertex
62
5
10
213.215251
20
165.401069
0
VERTEX
5
6b1
100
AcDbEntity
8
1
100
AcDbVertex
100
AcDb2dVertex
62
5
10
213.216054
20
165.400267
0
VERTEX
5
6b2
100
AcDbEntity
8
1
100
AcDbVertex
100
AcDb2dVertex
62
5
10
213.216856
20
165.399464
0
SEQEND
5
6b3
100
AcDbEntity
8
1
0
POLYLINE
5
6b4
100
AcDbEntity
8
1
6
CONTINUOUS
62
5
100
AcDb2dPolyline
66
1
10
0.0
20
0.0
30
0.0
70
0
0
VERTEX
5
6b5
100
AcDbEntity
8
1
100
AcDbVertex
100
AcDb2dVertex
62
5
10
212.960453
20
165.399464
0
VERTEX
5
6b6
100
AcDbEntity
8
1
100
AcDbVertex
100
AcDb2dVertex
62
5
10
212.961256
20
165.400267
0
VERTEX
5
6b7
100
AcDbEntity
8
1
100
AcDbVertex
100
AcDb2dVertex
62
5
10
212.962094
20
165.401069
0
VERTEX
5
6b8
100
AcDbEntity
8
1
100
AcDbVertex
100
AcDb2dVertex
62
5
10
212.962896
20
165.401872
0
VERTEX
5
6b9
100
AcDbEntity
8
1
100
AcDbVertex
100
AcDb2dVertex
62
5
10
212.963699
20
165.402639
0
VERTEX
5
6ba
100
AcDbEntity
8
1
100
AcDbVertex
100
AcDb2dVertex
62
5
10
212.964536
20
165.403442
0
VERTEX
5
6bb
100
AcDbEntity
8
1
100
AcDbVertex
100
AcDb2dVertex
62
5
10
212.965374
20
165.404210
0
VERTEX
5
6bc
100
AcDbEntity
8
1
100
AcDbVertex
100
AcDb2dVertex
62
5
10
212.966176
20
165.404977
0
VERTEX
5
6bd
100
AcDbEntity
8
1
100
AcDbVertex
100
AcDb2dVertex
62
5
10
212.967014
20
165.405745
0
VERTEX
5
6be
100
AcDbEntity
8
1
100
AcDbVertex
100
AcDb2dVertex
62
5
10
212.967851
20
165.406478
0
VERTEX
5
6bf
100
AcDbEntity
8
1
100
AcDbVertex
100
AcDb2dVertex
62
5
10
212.968689
20
165.407246
0
VERTEX
5
6c0
100
AcDbEntity
8
1
100
AcDbVertex
100
AcDb2dVertex
62
5
10
212.969526
20
165.407978
0
VERTEX
5
6c1
100
AcDbEntity
8
1
100
AcDbVertex
100
AcDb2dVertex
62
5
10
212.970363
20
165.408711
0
VERTEX
5
6c2
100
AcDbEntity
8
1
100
AcDbVertex
100
AcDb2dVertex
62
5
10
212.971236
20
165.409444
0
VERTEX
5
6c3
100
AcDbEntity
8
1
100
AcDbVertex
100
AcDb2dVertex
62
5
10
212.972073
20
165.410142
0
VERTEX
5
6c4
100
AcDbEntity
8
1
100
AcDbVertex
100
AcDb2dVertex
62
5
10
212.972911
20
165.410875
0
VERTEX
5
6c5
100
AcDbEntity
8
1
100
AcDbVertex
100
AcDb2dVertex
62
5
10
212.973783
20
165.411572
0
VERTEX
5
6c6
100
AcDbEntity
8
1
100
AcDbVertex
100
AcDb2dVertex
62
5
10
212.974655
20
165.412270
0
VERTEX
5
6c7
100
AcDbEntity
8
1
100
AcDbVertex
100
AcDb2dVertex
62
5
10
212.975493
20
165.412968
0
VERTEX
5
6c8
100
AcDbEntity
8
1
100
AcDbVertex
100
AcDb2dVertex
62
5
10
212.976365
20
165.413666
0
VERTEX
5
6c9
100
AcDbEntity
8
1
100
AcDbVertex
100
AcDb2dVertex
62
5
10
212.977238
20
165.414364
0
VERTEX
5
6ca
100
AcDbEntity
8
1
100
AcDbVertex
100
AcDb2dVertex
62
5
10
212.978110
20
165.415027
0
VERTEX
5
6cb
100
AcDbEntity
8
1
100
AcDbVertex
100
AcDb2dVertex
62
5
10
212.978982
20
165.415690
0
VERTEX
5
6cc
100
AcDbEntity
8
1
100
AcDbVertex
100
AcDb2dVertex
62
5
10
212.979855
20
165.416353
0
VERTEX
5
6cd
100
AcDbEntity
8
1
100
AcDbVertex
100
AcDb2dVertex
62
5
10
212.980762
20
165.417016
0
VERTEX
5
6ce
100
AcDbEntity
8
1
100
AcDbVertex
100
AcDb2dVertex
62
5
10
212.981634
20
165.417679
0
VERTEX
5
6cf
100
AcDbEntity
8
1
100
AcDbVertex
100
AcDb2dVertex
62
5
10
212.982542
20
165.418307
0
VERTEX
5
6d0
100
AcDbEntity
8
1
100
AcDbVertex
100
AcDb2dVertex
62
5
10
212.983414
20
165.418970
0
VERTEX
5
6d1
100
AcDbEntity
8
1
100
AcDbVertex
100
AcDb2dVertex
62
5
10
212.984321
20
165.419598
0
VERTEX
5
6d2
100
AcDbEntity
8
1
100
AcDbVertex
100
AcDb2dVertex
62
5
10
212.985228
20
165.420226
0
VERTEX
5
6d3
100
AcDbEntity
8
1
100
AcDbVertex
100
AcDb2dVertex
62
5
10
212.986101
20
165.420854
0
VERTEX
5
6d4
100
AcDbEntity
8
1
100
AcDbVertex
100
AcDb2dVertex
62
5
10
212.987008
20
165.421447
0
VERTEX
5
6d5
100
AcDbEntity
8
1
100
AcDbVertex
100
AcDb2dVertex
62
5
10
212.987915
20
165.422041
0
VERTEX
5
6d6
100
AcDbEntity
8
1
100
AcDbVertex
100
AcDb2dVertex
62
5
10
212.988822
20
165.422669
0
VERTEX
5
6d7
100
AcDbEntity
8
1
100
AcDbVertex
100
AcDb2dVertex
62
5
10
212.989765
20
165.423262
0
VERTEX
5
6d8
100
AcDbEntity
8
1
100
AcDbVertex
100
AcDb2dVertex
62
5
10
212.990672
20
165.423855
0
VERTEX
5
6d9
100
AcDbEntity
8
1
100
AcDbVertex
100
AcDb2dVertex
62
5
10
212.991579
20
165.424413
0
VERTEX
5
6da
100
AcDbEntity
8
1
100
AcDbVertex
100
AcDb2dVertex
62
5
10
212.992521
20
165.425007
0
VERTEX
5
6db
100
AcDbEntity
8
1
100
AcDbVertex
100
AcDb2dVertex
62
5
10
212.993429
20
165.425565
0
VERTEX
5
6dc
100
AcDbEntity
8
1
100
AcDbVertex
100
AcDb2dVertex
62
5
10
212.994371
20
165.426123
0
VERTEX
5
6dd
100
AcDbEntity
8
1
100
AcDbVertex
100
AcDb2dVertex
62
5
10
212.995313
20
165.426682
0
VERTEX
5
6de
100
AcDbEntity
8
1
100
AcDbVertex
100
AcDb2dVertex
62
5
10
212.996255
20
165.427240
0
VERTEX
5
6df
100
AcDbEntity
8
1
100
AcDbVertex
100
AcDb2dVertex
62
5
10
212.997162
20
165.427798
0
VERTEX
5
6e0
100
AcDbEntity
8
1
100
AcDbVertex
100
AcDb2dVertex
62
5
10
212.998139
20
165.428322
0
VERTEX
5
6e1
100
AcDbEntity
8
1
100
AcDbVertex
100
AcDb2dVertex
62
5
10
212.999081
20
165.428845
0
VERTEX
5
6e2
100
AcDbEntity
8
1
100
AcDbVertex
100
AcDb2dVertex
62
5
10
213.000024
20
165.429368
0
VERTEX
5
6e3
100
AcDbEntity
8
1
100
AcDbVertex
100
AcDb2dVertex
62
5
10
213.000966
20
165.429892
0
VERTEX
5
6e4
100
AcDbEntity
8
1
100
AcDbVertex
100
AcDb2dVertex
62
5
10
213.001908
20
165.430415
0
VERTEX
5
6e5
100
AcDbEntity
8
1
100
AcDbVertex
100
AcDb2dVertex
62
5
10
213.002885
20
165.430904
0
VERTEX
5
6e6
100
AcDbEntity
8
1
100
AcDbVertex
100
AcDb2dVertex
62
5
10
213.003862
20
165.431392
0
VERTEX
5
6e7
100
AcDbEntity
8
1
100
AcDbVertex
100
AcDb2dVertex
62
5
10
213.004804
20
165.431916
0
VERTEX
5
6e8
100
AcDbEntity
8
1
100
AcDbVertex
100
AcDb2dVertex
62
5
10
213.005781
20
165.432404
0
VERTEX
5
6e9
100
AcDbEntity
8
1
100
AcDbVertex
100
AcDb2dVertex
62
5
10
213.006758
20
165.432858
0
VERTEX
5
6ea
100
AcDbEntity
8
1
100
AcDbVertex
100
AcDb2dVertex
62
5
10
213.007735
20
165.433346
0
VERTEX
5
6eb
100
AcDbEntity
8
1
100
AcDbVertex
100
AcDb2dVertex
62
5
10
213.008712
20
165.433800
0
VERTEX
5
6ec
100
AcDbEntity
8
1
100
AcDbVertex
100
AcDb2dVertex
62
5
10
213.009689
20
165.434254
0
VERTEX
5
6ed
100
AcDbEntity
8
1
100
AcDbVertex
100
AcDb2dVertex
62
5
10
213.010666
20
165.434742
0
VERTEX
5
6ee
100
AcDbEntity
8
1
100
AcDbVertex
100
AcDb2dVertex
62
5
10
213.011643
20
165.435161
0
VERTEX
5
6ef
100
AcDbEntity
8
1
100
AcDbVertex
100
AcDb2dVertex
62
5
10
213.012655
20
165.435615
0
VERTEX
5
6f0
100
AcDbEntity
8
1
100
AcDbVertex
100
AcDb2dVertex
62
5
10
213.013632
20
165.436068
0
VERTEX
5
6f1
100
AcDbEntity
8
1
100
AcDbVertex
100
AcDb2dVertex
62
5
10
213.014644
20
165.436487
0
VERTEX
5
6f2
100
AcDbEntity
8
1
100
AcDbVertex
100
AcDb2dVertex
62
5
10
213.015621
20
165.436906
0
VERTEX
5
6f3
100
AcDbEntity
8
1
100
AcDbVertex
100
AcDb2dVertex
62
5
10
213.016633
20
165.437324
0
VERTEX
5
6f4
100
AcDbEntity
8
1
100
AcDbVertex
100
AcDb2dVertex
62
5
10
213.017645
20
165.437743
0
VERTEX
5
6f5
100
AcDbEntity
8
1
100
AcDbVertex
100
AcDb2dVertex
62
5
10
213.018657
20
165.438127
0
VERTEX
5
6f6
100
AcDbEntity
8
1
100
AcDbVertex
100
AcDb2dVertex
62
5
10
213.019669
20
165.438546
0
VERTEX
5
6f7
100
AcDbEntity
8
1
100
AcDbVertex
100
AcDb2dVertex
62
5
10
213.020681
20
165.438929
0
VERTEX
5
6f8
100
AcDbEntity
8
1
100
AcDbVertex
100
AcDb2dVertex
62
5
10
213.021693
20
165.439313
0
VERTEX
5
6f9
100
AcDbEntity
8
1
100
AcDbVertex
100
AcDb2dVertex
62
5
10
213.022740
20
165.439697
0
VERTEX
5
6fa
100
AcDbEntity
8
1
100
AcDbVertex
100
AcDb2dVertex
62
5
10
213.023752
20
165.440046
0
VERTEX
5
6fb
100
AcDbEntity
8
1
100
AcDbVertex
100
AcDb2dVertex
62
5
10
213.024764
20
165.440430
0
VERTEX
5
6fc
100
AcDbEntity
8
1
100
AcDbVertex
100
AcDb2dVertex
62
5
10
213.025810
20
165.440779
0
VERTEX
5
6fd
100
AcDbEntity
8
1
100
AcDbVertex
100
AcDb2dVertex
62
5
10
213.026857
20
165.441128
0
VERTEX
5
6fe
100
AcDbEntity
8
1
100
AcDbVertex
100
AcDb2dVertex
62
5
10
213.027869
20
165.441477
0
VERTEX
5
6ff
100
AcDbEntity
8
1
100
AcDbVertex
100
AcDb2dVertex
62
5
10
213.028916
20
165.441826
0
VERTEX
5
700
100
AcDbEntity
8
1
100
AcDbVertex
100
AcDb2dVertex
62
5
10
213.029963
20
165.442140
0
VERTEX
5
701
100
AcDbEntity
8
1
100
AcDbVertex
100
AcDb2dVertex
62
5
10
213.031010
20
165.442489
0
VERTEX
5
702
100
AcDbEntity
8
1
100
AcDbVertex
100
AcDb2dVertex
62
5
10
213.032056
20
165.442803
0
VERTEX
5
703
100
AcDbEntity
8
1
100
AcDbVertex
100
AcDb2dVertex
62
5
10
213.033103
20
165.443117
0
VERTEX
5
704
100
AcDbEntity
8
1
100
AcDbVertex
100
AcDb2dVertex
62
5
10
213.034185
20
165.443431
0
VERTEX
5
705
100
AcDbEntity
8
1
100
AcDbVertex
100
AcDb2dVertex
62
5
10
213.035232
20
165.443745
0
VERTEX
5
706
100
AcDbEntity
8
1
100
AcDbVertex
100
AcDb2dVertex
62
5
10
213.036313
20
165.444024
0
VERTEX
5
707
100
AcDbEntity
8
1
100
AcDbVertex
100
AcDb2dVertex
62
5
10
213.037360
20
165.444303
0
VERTEX
5
708
100
AcDbEntity
8
1
100
AcDbVertex
100
AcDb2dVertex
62
5
10
213.038442
20
165.444582
0
VERTEX
5
709
100
AcDbEntity
8
1
100
AcDbVertex
100
AcDb2dVertex
62
5
10
213.039524
20
165.444861
0
VERTEX
5
70a
100
AcDbEntity
8
1
100
AcDbVertex
100
AcDb2dVertex
62
5
10
213.040571
20
165.445141
0
VERTEX
5
70b
100
AcDbEntity
8
1
100
AcDbVertex
100
AcDb2dVertex
62
5
10
213.041652
20
165.445420
0
VERTEX
5
70c
100
AcDbEntity
8
1
100
AcDbVertex
100
AcDb2dVertex
62
5
10
213.042734
20
165.445664
0
VERTEX
5
70d
100
AcDbEntity
8
1
100
AcDbVertex
100
AcDb2dVertex
62
5
10
213.043851
20
165.445908
0
VERTEX
5
70e
100
AcDbEntity
8
1
100
AcDbVertex
100
AcDb2dVertex
62
5
10
213.044932
20
165.446153
0
VERTEX
5
70f
100
AcDbEntity
8
1
100
AcDbVertex
100
AcDb2dVertex
62
5
10
213.046014
20
165.446397
0
VERTEX
5
710
100
AcDbEntity
8
1
100
AcDbVertex
100
AcDb2dVertex
62
5
10
213.047096
20
165.446641
0
VERTEX
5
711
100
AcDbEntity
8
1
100
AcDbVertex
100
AcDb2dVertex
62
5
10
213.048212
20
165.446850
0
VERTEX
5
712
100
AcDbEntity
8
1
100
AcDbVertex
100
AcDb2dVertex
62
5
10
213.049329
20
165.447095
0
VERTEX
5
713
100
AcDbEntity
8
1
100
AcDbVertex
100
AcDb2dVertex
62
5
10
213.050411
20
165.447304
0
VERTEX
5
714
100
AcDbEntity
8
1
100
AcDbVertex
100
AcDb2dVertex
62
5
10
213.051527
20
165.447513
0
VERTEX
5
715
100
AcDbEntity
8
1
100
AcDbVertex
100
AcDb2dVertex
62
5
10
213.052644
20
165.447688
0
VERTEX
5
716
100
AcDbEntity
8
1
100
AcDbVertex
100
AcDb2dVertex
62
5
10
213.053761
20
165.447897
0
VERTEX
5
717
100
AcDbEntity
8
1
100
AcDbVertex
100
AcDb2dVertex
62
5
10
213.054877
20
165.448072
0
VERTEX
5
718
100
AcDbEntity
8
1
100
AcDbVertex
100
AcDb2dVertex
62
5
10
213.055994
20
165.448246
0
VERTEX
5
719
100
AcDbEntity
8
1
100
AcDbVertex
100
AcDb2dVertex
62
5
10
213.057110
20
165.448421
0
VERTEX
5
71a
100
AcDbEntity
8
1
100
AcDbVertex
100
AcDb2dVertex
62
5
10
213.058227
20
165.448595
0
VERTEX
5
71b
100
AcDbEntity
8
1
100
AcDbVertex
100
AcDb2dVertex
62
5
10
213.059379
20
165.448770
0
VERTEX
5
71c
100
AcDbEntity
8
1
100
AcDbVertex
100
AcDb2dVertex
62
5
10
213.060495
20
165.448909
0
VERTEX
5
71d
100
AcDbEntity
8
1
100
AcDbVertex
100
AcDb2dVertex
62
5
10
213.061647
20
165.449084
0
VERTEX
5
71e
100
AcDbEntity
8
1
100
AcDbVertex
100
AcDb2dVertex
62
5
10
213.062763
20
165.449223
0
VERTEX
5
71f
100
AcDbEntity
8
1
100
AcDbVertex
100
AcDb2dVertex
62
5
10
213.063915
20
165.449363
0
VERTEX
5
720
100
AcDbEntity
8
1
100
AcDbVertex
100
AcDb2dVertex
62
5
10
213.065066
20
165.449468
0
VERTEX
5
721
100
AcDbEntity
8
1
100
AcDbVertex
100
AcDb2dVertex
62
5
10
213.066218
20
165.449607
0
VERTEX
5
722
100
AcDbEntity
8
1
100
AcDbVertex
100
AcDb2dVertex
62
5
10
213.067369
20
165.449712
0
VERTEX
5
723
100
AcDbEntity
8
1
100
AcDbVertex
100
AcDb2dVertex
62
5
10
213.068521
20
165.449851
0
VERTEX
5
724
100
AcDbEntity
8
1
100
AcDbVertex
100
AcDb2dVertex
62
5
10
213.069672
20
165.449956
0
VERTEX
5
725
100
AcDbEntity
8
1
100
AcDbVertex
100
AcDb2dVertex
62
5
10
213.070859
20
165.450026
0
VERTEX
5
726
100
AcDbEntity
8
1
100
AcDbVertex
100
AcDb2dVertex
62
5
10
213.072010
20
165.450130
0
VERTEX
5
727
100
AcDbEntity
8
1
100
AcDbVertex
100
AcDb2dVertex
62
5
10
213.073197
20
165.450200
0
VERTEX
5
728
100
AcDbEntity
8
1
100
AcDbVertex
100
AcDb2dVertex
62
5
10
213.074348
20
165.450305
0
VERTEX
5
729
100
AcDbEntity
8
1
100
AcDbVertex
100
AcDb2dVertex
62
5
10
213.075535
20
165.450375
0
VERTEX
5
72a
100
AcDbEntity
8
1
100
AcDbVertex
100
AcDb2dVertex
62
5
10
213.076721
20
165.450445
0
VERTEX
5
72b
100
AcDbEntity
8
1
100
AcDbVertex
100
AcDb2dVertex
62
5
10
213.077872
20
165.450479
0
VERTEX
5
72c
100
AcDbEntity
8
1
100
AcDbVertex
100
AcDb2dVertex
62
5
10
213.079059
20
165.450549
0
VERTEX
5
72d
100
AcDbEntity
8
1
100
AcDbVertex
100
AcDb2dVertex
62
5
10
213.080245
20
165.450584
0
VERTEX
5
72e
100
AcDbEntity
8
1
100
AcDbVertex
100
AcDb2dVertex
62
5
10
213.081467
20
165.450654
0
VERTEX
5
72f
100
AcDbEntity
8
1
100
AcDbVertex
100
AcDb2dVertex
62
5
10
213.082653
20
165.450689
0
VERTEX
5
730
100
AcDbEntity
8
1
100
AcDbVertex
100
AcDb2dVertex
62
5
10
213.083839
20
165.450689
0
VERTEX
5
731
100
AcDbEntity
8
1
100
AcDbVertex
100
AcDb2dVertex
62
5
10
213.085026
20
165.450724
0
VERTEX
5
732
100
AcDbEntity
8
1
100
AcDbVertex
100
AcDb2dVertex
62
5
10
213.086247
20
165.450724
0
VERTEX
5
733
100
AcDbEntity
8
1
100
AcDbVertex
100
AcDb2dVertex
62
5
10
213.087468
20
165.450759
0
VERTEX
5
734
100
AcDbEntity
8
1
100
AcDbVertex
100
AcDb2dVertex
62
5
10
213.088655
20
165.450759
0
SEQEND
5
735
100
AcDbEntity
8
1
0
POLYLINE
5
736
100
AcDbEntity
8
1
6
CONTINUOUS
62
5
100
AcDb2dPolyline
66
1
10
0.0
20
0.0
30
0.0
70
0
0
VERTEX
5
737
100
AcDbEntity
8
1
100
AcDbVertex
100
AcDb2dVertex
62
5
10
212.900610
20
165.262714
0
VERTEX
5
738
100
AcDbEntity
8
1
100
AcDbVertex
100
AcDb2dVertex
62
5
10
212.900645
20
165.263935
0
VERTEX
5
739
100
AcDbEntity
8
1
100
AcDbVertex
100
AcDb2dVertex
62
5
10
212.900645
20
165.265121
0
VERTEX
5
73a
100
AcDbEntity
8
1
100
AcDbVertex
100
AcDb2dVertex
62
5
10
212.900645
20
165.266343
0
VERTEX
5
73b
100
AcDbEntity
8
1
100
AcDbVertex
100
AcDb2dVertex
62
5
10
212.900680
20
165.267564
0
VERTEX
5
73c
100
AcDbEntity
8
1
100
AcDbVertex
100
AcDb2dVertex
62
5
10
212.900715
20
165.268750
0
VERTEX
5
73d
100
AcDbEntity
8
1
100
AcDbVertex
100
AcDb2dVertex
62
5
10
212.900749
20
165.269937
0
VERTEX
5
73e
100
AcDbEntity
8
1
100
AcDbVertex
100
AcDb2dVertex
62
5
10
212.900819
20
165.271158
0
VERTEX
5
73f
100
AcDbEntity
8
1
100
AcDbVertex
100
AcDb2dVertex
62
5
10
212.900854
20
165.272344
0
VERTEX
5
740
100
AcDbEntity
8
1
100
AcDbVertex
100
AcDb2dVertex
62
5
10
212.900924
20
165.273531
0
VERTEX
5
741
100
AcDbEntity
8
1
100
AcDbVertex
100
AcDb2dVertex
62
5
10
212.900994
20
165.274717
0
VERTEX
5
742
100
AcDbEntity
8
1
100
AcDbVertex
100
AcDb2dVertex
62
5
10
212.901064
20
165.275904
0
VERTEX
5
743
100
AcDbEntity
8
1
100
AcDbVertex
100
AcDb2dVertex
62
5
10
212.901168
20
165.277090
0
VERTEX
5
744
100
AcDbEntity
8
1
100
AcDbVertex
100
AcDb2dVertex
62
5
10
212.901238
20
165.278277
0
VERTEX
5
745
100
AcDbEntity
8
1
100
AcDbVertex
100
AcDb2dVertex
62
5
10
212.901343
20
165.279463
0
VERTEX
5
746
100
AcDbEntity
8
1
100
AcDbVertex
100
AcDb2dVertex
62
5
10
212.901447
20
165.280649
0
VERTEX
5
747
100
AcDbEntity
8
1
100
AcDbVertex
100
AcDb2dVertex
62
5
10
212.901587
20
165.281836
0
VERTEX
5
748
100
AcDbEntity
8
1
100
AcDbVertex
100
AcDb2dVertex
62
5
10
212.901692
20
165.283022
0
VERTEX
5
749
100
AcDbEntity
8
1
100
AcDbVertex
100
AcDb2dVertex
62
5
10
212.901831
20
165.284174
0
VERTEX
5
74a
100
AcDbEntity
8
1
100
AcDbVertex
100
AcDb2dVertex
62
5
10
212.901971
20
165.285360
0
VERTEX
5
74b
100
AcDbEntity
8
1
100
AcDbVertex
100
AcDb2dVertex
62
5
10
212.902110
20
165.286512
0
VERTEX
5
74c
100
AcDbEntity
8
1
100
AcDbVertex
100
AcDb2dVertex
62
5
10
212.902250
20
165.287698
0
VERTEX
5
74d
100
AcDbEntity
8
1
100
AcDbVertex
100
AcDb2dVertex
62
5
10
212.902424
20
165.288849
0
VERTEX
5
74e
100
AcDbEntity
8
1
100
AcDbVertex
100
AcDb2dVertex
62
5
10
212.902599
20
165.290036
0
VERTEX
5
74f
100
AcDbEntity
8
1
100
AcDbVertex
100
AcDb2dVertex
62
5
10
212.902773
20
165.291187
0
VERTEX
5
750
100
AcDbEntity
8
1
100
AcDbVertex
100
AcDb2dVertex
62
5
10
212.902948
20
165.292339
0
VERTEX
5
751
100
AcDbEntity
8
1
100
AcDbVertex
100
AcDb2dVertex
62
5
10
212.903122
20
165.293490
0
VERTEX
5
752
100
AcDbEntity
8
1
100
AcDbVertex
100
AcDb2dVertex
62
5
10
212.903332
20
165.294642
0
VERTEX
5
753
100
AcDbEntity
8
1
100
AcDbVertex
100
AcDb2dVertex
62
5
10
212.903541
20
165.295793
0
VERTEX
5
754
100
AcDbEntity
8
1
100
AcDbVertex
100
AcDb2dVertex
62
5
10
212.903750
20
165.296945
0
VERTEX
5
755
100
AcDbEntity
8
1
100
AcDbVertex
100
AcDb2dVertex
62
5
10
212.903960
20
165.298096
0
VERTEX
5
756
100
AcDbEntity
8
1
100
AcDbVertex
100
AcDb2dVertex
62
5
10
212.904204
20
165.299248
0
VERTEX
5
757
100
AcDbEntity
8
1
100
AcDbVertex
100
AcDb2dVertex
62
5
10
212.904413
20
165.300399
0
VERTEX
5
758
100
AcDbEntity
8
1
100
AcDbVertex
100
AcDb2dVertex
62
5
10
212.904658
20
165.301551
0
VERTEX
5
759
100
AcDbEntity
8
1
100
AcDbVertex
100
AcDb2dVertex
62
5
10
212.904902
20
165.302668
0
VERTEX
5
75a
100
AcDbEntity
8
1
100
AcDbVertex
100
AcDb2dVertex
62
5
10
212.905181
20
165.303819
0
VERTEX
5
75b
100
AcDbEntity
8
1
100
AcDbVertex
100
AcDb2dVertex
62
5
10
212.905425
20
165.304971
0
VERTEX
5
75c
100
AcDbEntity
8
1
100
AcDbVertex
100
AcDb2dVertex
62
5
10
212.905704
20
165.306087
0
VERTEX
5
75d
100
AcDbEntity
8
1
100
AcDbVertex
100
AcDb2dVertex
62
5
10
212.905984
20
165.307204
0
VERTEX
5
75e
100
AcDbEntity
8
1
100
AcDbVertex
100
AcDb2dVertex
62
5
10
212.906263
20
165.308355
0
VERTEX
5
75f
100
AcDbEntity
8
1
100
AcDbVertex
100
AcDb2dVertex
62
5
10
212.906577
20
165.309472
0
VERTEX
5
760
100
AcDbEntity
8
1
100
AcDbVertex
100
AcDb2dVertex
62
5
10
212.906856
20
165.310589
0
VERTEX
5
761
100
AcDbEntity
8
1
100
AcDbVertex
100
AcDb2dVertex
62
5
10
212.907170
20
165.311740
0
VERTEX
5
762
100
AcDbEntity
8
1
100
AcDbVertex
100
AcDb2dVertex
62
5
10
212.907484
20
165.312857
0
VERTEX
5
763
100
AcDbEntity
8
1
100
AcDbVertex
100
AcDb2dVertex
62
5
10
212.907798
20
165.313973
0
VERTEX
5
764
100
AcDbEntity
8
1
100
AcDbVertex
100
AcDb2dVertex
62
5
10
212.908147
20
165.315090
0
VERTEX
5
765
100
AcDbEntity
8
1
100
AcDbVertex
100
AcDb2dVertex
62
5
10
212.908461
20
165.316207
0
VERTEX
5
766
100
AcDbEntity
8
1
100
AcDbVertex
100
AcDb2dVertex
62
5
10
212.908810
20
165.317323
0
VERTEX
5
767
100
AcDbEntity
8
1
100
AcDbVertex
100
AcDb2dVertex
62
5
10
212.909159
20
165.318440
0
VERTEX
5
768
100
AcDbEntity
8
1
100
AcDbVertex
100
AcDb2dVertex
62
5
10
212.909543
20
165.319521
0
VERTEX
5
769
100
AcDbEntity
8
1
100
AcDbVertex
100
AcDb2dVertex
62
5
10
212.909892
20
165.320638
0
VERTEX
5
76a
100
AcDbEntity
8
1
100
AcDbVertex
100
AcDb2dVertex
62
5
10
212.910276
20
165.321755
0
VERTEX
5
76b
100
AcDbEntity
8
1
100
AcDbVertex
100
AcDb2dVertex
62
5
10
212.910659
20
165.322836
0
VERTEX
5
76c
100
AcDbEntity
8
1
100
AcDbVertex
100
AcDb2dVertex
62
5
10
212.911043
20
165.323953
0
VERTEX
5
76d
100
AcDbEntity
8
1
100
AcDbVertex
100
AcDb2dVertex
62
5
10
212.911427
20
165.325035
0
VERTEX
5
76e
100
AcDbEntity
8
1
100
AcDbVertex
100
AcDb2dVertex
62
5
10
212.911846
20
165.326151
0
VERTEX
5
76f
100
AcDbEntity
8
1
100
AcDbVertex
100
AcDb2dVertex
62
5
10
212.912265
20
165.327233
0
VERTEX
5
770
100
AcDbEntity
8
1
100
AcDbVertex
100
AcDb2dVertex
62
5
10
212.912683
20
165.328315
0
VERTEX
5
771
100
AcDbEntity
8
1
100
AcDbVertex
100
AcDb2dVertex
62
5
10
212.913102
20
165.329397
0
VERTEX
5
772
100
AcDbEntity
8
1
100
AcDbVertex
100
AcDb2dVertex
62
5
10
212.913556
20
165.330513
0
VERTEX
5
773
100
AcDbEntity
8
1
100
AcDbVertex
100
AcDb2dVertex
62
5
10
212.913974
20
165.331595
0
VERTEX
5
774
100
AcDbEntity
8
1
100
AcDbVertex
100
AcDb2dVertex
62
5
10
212.914428
20
165.332677
0
VERTEX
5
775
100
AcDbEntity
8
1
100
AcDbVertex
100
AcDb2dVertex
62
5
10
212.914882
20
165.333758
0
VERTEX
5
776
100
AcDbEntity
8
1
100
AcDbVertex
100
AcDb2dVertex
62
5
10
212.915335
20
165.334840
0
VERTEX
5
777
100
AcDbEntity
8
1
100
AcDbVertex
100
AcDb2dVertex
62
5
10
212.915824
20
165.335922
0
VERTEX
5
778
100
AcDbEntity
8
1
100
AcDbVertex
100
AcDb2dVertex
62
5
10
212.916312
20
165.336969
0
VERTEX
5
779
100
AcDbEntity
8
1
100
AcDbVertex
100
AcDb2dVertex
62
5
10
212.916801
20
165.338050
0
VERTEX
5
77a
100
AcDbEntity
8
1
100
AcDbVertex
100
AcDb2dVertex
62
5
10
212.917289
20
165.339132
0
VERTEX
5
77b
100
AcDbEntity
8
1
100
AcDbVertex
100
AcDb2dVertex
62
5
10
212.917778
20
165.340179
0
VERTEX
5
77c
100
AcDbEntity
8
1
100
AcDbVertex
100
AcDb2dVertex
62
5
10
212.918301
20
165.341261
0
VERTEX
5
77d
100
AcDbEntity
8
1
100
AcDbVertex
100
AcDb2dVertex
62
5
10
212.918790
20
165.342307
0
VERTEX
5
77e
100
AcDbEntity
8
1
100
AcDbVertex
100
AcDb2dVertex
62
5
10
212.919313
20
165.343389
0
VERTEX
5
77f
100
AcDbEntity
8
1
100
AcDbVertex
100
AcDb2dVertex
62
5
10
212.919872
20
165.344436
0
VERTEX
5
780
100
AcDbEntity
8
1
100
AcDbVertex
100
AcDb2dVertex
62
5
10
212.920395
20
165.345518
0
VERTEX
5
781
100
AcDbEntity
8
1
100
AcDbVertex
100
AcDb2dVertex
62
5
10
212.920953
20
165.346564
0
VERTEX
5
782
100
AcDbEntity
8
1
100
AcDbVertex
100
AcDb2dVertex
62
5
10
212.921477
20
165.347611
0
VERTEX
5
783
100
AcDbEntity
8
1
100
AcDbVertex
100
AcDb2dVertex
62
5
10
212.922070
20
165.348658
0
VERTEX
5
784
100
AcDbEntity
8
1
100
AcDbVertex
100
AcDb2dVertex
62
5
10
212.922628
20
165.349705
0
VERTEX
5
785
100
AcDbEntity
8
1
100
AcDbVertex
100
AcDb2dVertex
62
5
10
212.923186
20
165.350752
0
VERTEX
5
786
100
AcDbEntity
8
1
100
AcDbVertex
100
AcDb2dVertex
62
5
10
212.923780
20
165.351799
0
VERTEX
5
787
100
AcDbEntity
8
1
100
AcDbVertex
100
AcDb2dVertex
62
5
10
212.924373
20
165.352845
0
VERTEX
5
788
100
AcDbEntity
8
1
100
AcDbVertex
100
AcDb2dVertex
62
5
10
212.924966
20
165.353892
0
VERTEX
5
789
100
AcDbEntity
8
1
100
AcDbVertex
100
AcDb2dVertex
62
5
10
212.925559
20
165.354939
0
VERTEX
5
78a
100
AcDbEntity
8
1
100
AcDbVertex
100
AcDb2dVertex
62
5
10
212.926187
20
165.355951
0
VERTEX
5
78b
100
AcDbEntity
8
1
100
AcDbVertex
100
AcDb2dVertex
62
5
10
212.926815
20
165.356998
0
VERTEX
5
78c
100
AcDbEntity
8
1
100
AcDbVertex
100
AcDb2dVertex
62
5
10
212.927444
20
165.358045
0
VERTEX
5
78d
100
AcDbEntity
8
1
100
AcDbVertex
100
AcDb2dVertex
62
5
10
212.928072
20
165.359057
0
VERTEX
5
78e
100
AcDbEntity
8
1
100
AcDbVertex
100
AcDb2dVertex
62
5
10
212.928700
20
165.360103
0
VERTEX
5
78f
100
AcDbEntity
8
1
100
AcDbVertex
100
AcDb2dVertex
62
5
10
212.929363
20
165.361115
0
VERTEX
5
790
100
AcDbEntity
8
1
100
AcDbVertex
100
AcDb2dVertex
62
5
10
212.930026
20
165.362127
0
VERTEX
5
791
100
AcDbEntity
8
1
100
AcDbVertex
100
AcDb2dVertex
62
5
10
212.930689
20
165.363174
0
VERTEX
5
792
100
AcDbEntity
8
1
100
AcDbVertex
100
AcDb2dVertex
62
5
10
212.931352
20
165.364186
0
VERTEX
5
793
100
AcDbEntity
8
1
100
AcDbVertex
100
AcDb2dVertex
62
5
10
212.932015
20
165.365198
0
VERTEX
5
794
100
AcDbEntity
8
1
100
AcDbVertex
100
AcDb2dVertex
62
5
10
212.932713
20
165.366210
0
VERTEX
5
795
100
AcDbEntity
8
1
100
AcDbVertex
100
AcDb2dVertex
62
5
10
212.933410
20
165.367222
0
VERTEX
5
796
100
AcDbEntity
8
1
100
AcDbVertex
100
AcDb2dVertex
62
5
10
212.934108
20
165.368234
0
VERTEX
5
797
100
AcDbEntity
8
1
100
AcDbVertex
100
AcDb2dVertex
62
5
10
212.934806
20
165.369246
0
VERTEX
5
798
100
AcDbEntity
8
1
100
AcDbVertex
100
AcDb2dVertex
62
5
10
212.935539
20
165.370258
0
VERTEX
5
799
100
AcDbEntity
8
1
100
AcDbVertex
100
AcDb2dVertex
62
5
10
212.936237
20
165.371270
0
VERTEX
5
79a
100
AcDbEntity
8
1
100
AcDbVertex
100
AcDb2dVertex
62
5
10
212.936970
20
165.372247
0
VERTEX
5
79b
100
AcDbEntity
8
1
100
AcDbVertex
100
AcDb2dVertex
62
5
10
212.937737
20
165.373259
0
VERTEX
5
79c
100
AcDbEntity
8
1
100
AcDbVertex
100
AcDb2dVertex
62
5
10
212.938470
20
165.374270
0
VERTEX
5
79d
100
AcDbEntity
8
1
100
AcDbVertex
100
AcDb2dVertex
62
5
10
212.939203
20
165.375248
0
VERTEX
5
79e
100
AcDbEntity
8
1
100
AcDbVertex
100
AcDb2dVertex
62
5
10
212.939971
20
165.376259
0
VERTEX
5
79f
100
AcDbEntity
8
1
100
AcDbVertex
100
AcDb2dVertex
62
5
10
212.940738
20
165.377236
0
VERTEX
5
7a0
100
AcDbEntity
8
1
100
AcDbVertex
100
AcDb2dVertex
62
5
10
212.941541
20
165.378214
0
VERTEX
5
7a1
100
AcDbEntity
8
1
100
AcDbVertex
100
AcDb2dVertex
62
5
10
212.942308
20
165.379225
0
VERTEX
5
7a2
100
AcDbEntity
8
1
100
AcDbVertex
100
AcDb2dVertex
62
5
10
212.943111
20
165.380202
0
VERTEX
5
7a3
100
AcDbEntity
8
1
100
AcDbVertex
100
AcDb2dVertex
62
5
10
212.943879
20
165.381180
0
VERTEX
5
7a4
100
AcDbEntity
8
1
100
AcDbVertex
100
AcDb2dVertex
62
5
10
212.944681
20
165.382157
0
VERTEX
5
7a5
100
AcDbEntity
8
1
100
AcDbVertex
100
AcDb2dVertex
62
5
10
212.945519
20
165.383134
0
VERTEX
5
7a6
100
AcDbEntity
8
1
100
AcDbVertex
100
AcDb2dVertex
62
5
10
212.946321
20
165.384111
0
VERTEX
5
7a7
100
AcDbEntity
8
1
100
AcDbVertex
100
AcDb2dVertex
62
5
10
212.947159
20
165.385088
0
VERTEX
5
7a8
100
AcDbEntity
8
1
100
AcDbVertex
100
AcDb2dVertex
62
5
10
212.947996
20
165.386065
0
VERTEX
5
7a9
100
AcDbEntity
8
1
100
AcDbVertex
100
AcDb2dVertex
62
5
10
212.948834
20
165.387042
0
VERTEX
5
7aa
100
AcDbEntity
8
1
100
AcDbVertex
100
AcDb2dVertex
62
5
10
212.949671
20
165.388019
0
VERTEX
5
7ab
100
AcDbEntity
8
1
100
AcDbVertex
100
AcDb2dVertex
62
5
10
212.950544
20
165.388961
0
VERTEX
5
7ac
100
AcDbEntity
8
1
100
AcDbVertex
100
AcDb2dVertex
62
5
10
212.951416
20
165.389938
0
VERTEX
5
7ad
100
AcDbEntity
8
1
100
AcDbVertex
100
AcDb2dVertex
62
5
10
212.952288
20
165.390915
0
VERTEX
5
7ae
100
AcDbEntity
8
1
100
AcDbVertex
100
AcDb2dVertex
62
5
10
212.953161
20
165.391857
0
VERTEX
5
7af
100
AcDbEntity
8
1
100
AcDbVertex
100
AcDb2dVertex
62
5
10
212.954033
20
165.392834
0
VERTEX
5
7b0
100
AcDbEntity
8
1
100
AcDbVertex
100
AcDb2dVertex
62
5
10
212.954940
20
165.393776
0
VERTEX
5
7b1
100
AcDbEntity
8
1
100
AcDbVertex
100
AcDb2dVertex
62
5
10
212.955847
20
165.394718
0
VERTEX
5
7b2
100
AcDbEntity
8
1
100
AcDbVertex
100
AcDb2dVertex
62
5
10
212.956755
20
165.395696
0
VERTEX
5
7b3
100
AcDbEntity
8
1
100
AcDbVertex
100
AcDb2dVertex
62
5
10
212.957662
20
165.396638
0
VERTEX
5
7b4
100
AcDbEntity
8
1
100
AcDbVertex
100
AcDb2dVertex
62
5
10
212.958604
20
165.397580
0
VERTEX
5
7b5
100
AcDbEntity
8
1
100
AcDbVertex
100
AcDb2dVertex
62
5
10
212.959511
20
165.398522
0
VERTEX
5
7b6
100
AcDbEntity
8
1
100
AcDbVertex
100
AcDb2dVertex
62
5
10
212.960453
20
165.399464
0
SEQEND
5
7b7
100
AcDbEntity
8
1
0
POLYLINE
5
7b8
100
AcDbEntity
8
1
6
CONTINUOUS
62
5
100
AcDb2dPolyline
66
1
10
0.0
20
0.0
30
0.0
70
0
0
VERTEX
5
7b9
100
AcDbEntity
8
1
100
AcDbVertex
100
AcDb2dVertex
62
5
10
212.960453
20
165.125963
0
VERTEX
5
7ba
100
AcDbEntity
8
1
100
AcDbVertex
100
AcDb2dVertex
62
5
10
212.959511
20
165.126905
0
VERTEX
5
7bb
100
AcDbEntity
8
1
100
AcDbVertex
100
AcDb2dVertex
62
5
10
212.958604
20
165.127848
0
VERTEX
5
7bc
100
AcDbEntity
8
1
100
AcDbVertex
100
AcDb2dVertex
62
5
10
212.957662
20
165.128790
0
VERTEX
5
7bd
100
AcDbEntity
8
1
100
AcDbVertex
100
AcDb2dVertex
62
5
10
212.956755
20
165.129767
0
VERTEX
5
7be
100
AcDbEntity
8
1
100
AcDbVertex
100
AcDb2dVertex
62
5
10
212.955847
20
165.130709
0
VERTEX
5
7bf
100
AcDbEntity
8
1
100
AcDbVertex
100
AcDb2dVertex
62
5
10
212.954940
20
165.131651
0
VERTEX
5
7c0
100
AcDbEntity
8
1
100
AcDbVertex
100
AcDb2dVertex
62
5
10
212.954033
20
165.132628
0
VERTEX
5
7c1
100
AcDbEntity
8
1
100
AcDbVertex
100
AcDb2dVertex
62
5
10
212.953161
20
165.133570
0
VERTEX
5
7c2
100
AcDbEntity
8
1
100
AcDbVertex
100
AcDb2dVertex
62
5
10
212.952288
20
165.134547
0
VERTEX
5
7c3
100
AcDbEntity
8
1
100
AcDbVertex
100
AcDb2dVertex
62
5
10
212.951416
20
165.135489
0
VERTEX
5
7c4
100
AcDbEntity
8
1
100
AcDbVertex
100
AcDb2dVertex
62
5
10
212.950544
20
165.136466
0
VERTEX
5
7c5
100
AcDbEntity
8
1
100
AcDbVertex
100
AcDb2dVertex
62
5
10
212.949671
20
165.137409
0
VERTEX
5
7c6
100
AcDbEntity
8
1
100
AcDbVertex
100
AcDb2dVertex
62
5
10
212.948834
20
165.138386
0
VERTEX
5
7c7
100
AcDbEntity
8
1
100
AcDbVertex
100
AcDb2dVertex
62
5
10
212.947996
20
165.139363
0
VERTEX
5
7c8
100
AcDbEntity
8
1
100
AcDbVertex
100
AcDb2dVertex
62
5
10
212.947159
20
165.140340
0
VERTEX
5
7c9
100
AcDbEntity
8
1
100
AcDbVertex
100
AcDb2dVertex
62
5
10
212.946321
20
165.141317
0
VERTEX
5
7ca
100
AcDbEntity
8
1
100
AcDbVertex
100
AcDb2dVertex
62
5
10
212.945519
20
165.142294
0
VERTEX
5
7cb
100
AcDbEntity
8
1
100
AcDbVertex
100
AcDb2dVertex
62
5
10
212.944681
20
165.143271
0
VERTEX
5
7cc
100
AcDbEntity
8
1
100
AcDbVertex
100
AcDb2dVertex
62
5
10
212.943879
20
165.144248
0
VERTEX
5
7cd
100
AcDbEntity
8
1
100
AcDbVertex
100
AcDb2dVertex
62
5
10
212.943111
20
165.145225
0
VERTEX
5
7ce
100
AcDbEntity
8
1
100
AcDbVertex
100
AcDb2dVertex
62
5
10
212.942308
20
165.146202
0
VERTEX
5
7cf
100
AcDbEntity
8
1
100
AcDbVertex
100
AcDb2dVertex
62
5
10
212.941541
20
165.147214
0
VERTEX
5
7d0
100
AcDbEntity
8
1
100
AcDbVertex
100
AcDb2dVertex
62
5
10
212.940738
20
165.148191
0
VERTEX
5
7d1
100
AcDbEntity
8
1
100
AcDbVertex
100
AcDb2dVertex
62
5
10
212.939971
20
165.149203
0
VERTEX
5
7d2
100
AcDbEntity
8
1
100
AcDbVertex
100
AcDb2dVertex
62
5
10
212.939203
20
165.150180
0
VERTEX
5
7d3
100
AcDbEntity
8
1
100
AcDbVertex
100
AcDb2dVertex
62
5
10
212.938470
20
165.151192
0
VERTEX
5
7d4
100
AcDbEntity
8
1
100
AcDbVertex
100
AcDb2dVertex
62
5
10
212.937737
20
165.152169
0
VERTEX
5
7d5
100
AcDbEntity
8
1
100
AcDbVertex
100
AcDb2dVertex
62
5
10
212.936970
20
165.153181
0
VERTEX
5
7d6
100
AcDbEntity
8
1
100
AcDbVertex
100
AcDb2dVertex
62
5
10
212.936237
20
165.154193
0
VERTEX
5
7d7
100
AcDbEntity
8
1
100
AcDbVertex
100
AcDb2dVertex
62
5
10
212.935539
20
165.155170
0
VERTEX
5
7d8
100
AcDbEntity
8
1
100
AcDbVertex
100
AcDb2dVertex
62
5
10
212.934806
20
165.156182
0
VERTEX
5
7d9
100
AcDbEntity
8
1
100
AcDbVertex
100
AcDb2dVertex
62
5
10
212.934108
20
165.157194
0
VERTEX
5
7da
100
AcDbEntity
8
1
100
AcDbVertex
100
AcDb2dVertex
62
5
10
212.933410
20
165.158206
0
VERTEX
5
7db
100
AcDbEntity
8
1
100
AcDbVertex
100
AcDb2dVertex
62
5
10
212.932713
20
165.159217
0
VERTEX
5
7dc
100
AcDbEntity
8
1
100
AcDbVertex
100
AcDb2dVertex
62
5
10
212.932015
20
165.160229
0
VERTEX
5
7dd
100
AcDbEntity
8
1
100
AcDbVertex
100
AcDb2dVertex
62
5
10
212.931352
20
165.161241
0
VERTEX
5
7de
100
AcDbEntity
8
1
100
AcDbVertex
100
AcDb2dVertex
62
5
10
212.930689
20
165.162288
0
VERTEX
5
7df
100
AcDbEntity
8
1
100
AcDbVertex
100
AcDb2dVertex
62
5
10
212.930026
20
165.163300
0
VERTEX
5
7e0
100
AcDbEntity
8
1
100
AcDbVertex
100
AcDb2dVertex
62
5
10
212.929363
20
165.164312
0
VERTEX
5
7e1
100
AcDbEntity
8
1
100
AcDbVertex
100
AcDb2dVertex
62
5
10
212.928700
20
165.165359
0
VERTEX
5
7e2
100
AcDbEntity
8
1
100
AcDbVertex
100
AcDb2dVertex
62
5
10
212.928072
20
165.166371
0
VERTEX
5
7e3
100
AcDbEntity
8
1
100
AcDbVertex
100
AcDb2dVertex
62
5
10
212.927444
20
165.167418
0
VERTEX
5
7e4
100
AcDbEntity
8
1
100
AcDbVertex
100
AcDb2dVertex
62
5
10
212.926815
20
165.168430
0
VERTEX
5
7e5
100
AcDbEntity
8
1
100
AcDbVertex
100
AcDb2dVertex
62
5
10
212.926187
20
165.169476
0
VERTEX
5
7e6
100
AcDbEntity
8
1
100
AcDbVertex
100
AcDb2dVertex
62
5
10
212.925559
20
165.170523
0
VERTEX
5
7e7
100
AcDbEntity
8
1
100
AcDbVertex
100
AcDb2dVertex
62
5
10
212.924966
20
165.171535
0
VERTEX
5
7e8
100
AcDbEntity
8
1
100
AcDbVertex
100
AcDb2dVertex
62
5
10
212.924373
20
165.172582
0
VERTEX
5
7e9
100
AcDbEntity
8
1
100
AcDbVertex
100
AcDb2dVertex
62
5
10
212.923780
20
165.173629
0
VERTEX
5
7ea
100
AcDbEntity
8
1
100
AcDbVertex
100
AcDb2dVertex
62
5
10
212.923186
20
165.174676
0
VERTEX
5
7eb
100
AcDbEntity
8
1
100
AcDbVertex
100
AcDb2dVertex
62
5
10
212.922628
20
165.175722
0
VERTEX
5
7ec
100
AcDbEntity
8
1
100
AcDbVertex
100
AcDb2dVertex
62
5
10
212.922070
20
165.176769
0
VERTEX
5
7ed
100
AcDbEntity
8
1
100
AcDbVertex
100
AcDb2dVertex
62
5
10
212.921477
20
165.177816
0
VERTEX
5
7ee
100
AcDbEntity
8
1
100
AcDbVertex
100
AcDb2dVertex
62
5
10
212.920953
20
165.178863
0
VERTEX
5
7ef
100
AcDbEntity
8
1
100
AcDbVertex
100
AcDb2dVertex
62
5
10
212.920395
20
165.179945
0
VERTEX
5
7f0
100
AcDbEntity
8
1
100
AcDbVertex
100
AcDb2dVertex
62
5
10
212.919872
20
165.180991
0
VERTEX
5
7f1
100
AcDbEntity
8
1
100
AcDbVertex
100
AcDb2dVertex
62
5
10
212.919313
20
165.182038
0
VERTEX
5
7f2
100
AcDbEntity
8
1
100
AcDbVertex
100
AcDb2dVertex
62
5
10
212.918790
20
165.183120
0
VERTEX
5
7f3
100
AcDbEntity
8
1
100
AcDbVertex
100
AcDb2dVertex
62
5
10
212.918301
20
165.184167
0
VERTEX
5
7f4
100
AcDbEntity
8
1
100
AcDbVertex
100
AcDb2dVertex
62
5
10
212.917778
20
165.185249
0
VERTEX
5
7f5
100
AcDbEntity
8
1
100
AcDbVertex
100
AcDb2dVertex
62
5
10
212.917289
20
165.186330
0
VERTEX
5
7f6
100
AcDbEntity
8
1
100
AcDbVertex
100
AcDb2dVertex
62
5
10
212.916801
20
165.187377
0
VERTEX
5
7f7
100
AcDbEntity
8
1
100
AcDbVertex
100
AcDb2dVertex
62
5
10
212.916312
20
165.188459
0
VERTEX
5
7f8
100
AcDbEntity
8
1
100
AcDbVertex
100
AcDb2dVertex
62
5
10
212.915824
20
165.189541
0
VERTEX
5
7f9
100
AcDbEntity
8
1
100
AcDbVertex
100
AcDb2dVertex
62
5
10
212.915335
20
165.190622
0
VERTEX
5
7fa
100
AcDbEntity
8
1
100
AcDbVertex
100
AcDb2dVertex
62
5
10
212.914882
20
165.191669
0
VERTEX
5
7fb
100
AcDbEntity
8
1
100
AcDbVertex
100
AcDb2dVertex
62
5
10
212.914428
20
165.192751
0
VERTEX
5
7fc
100
AcDbEntity
8
1
100
AcDbVertex
100
AcDb2dVertex
62
5
10
212.913974
20
165.193867
0
VERTEX
5
7fd
100
AcDbEntity
8
1
100
AcDbVertex
100
AcDb2dVertex
62
5
10
212.913556
20
165.194949
0
VERTEX
5
7fe
100
AcDbEntity
8
1
100
AcDbVertex
100
AcDb2dVertex
62
5
10
212.913102
20
165.196031
0
VERTEX
5
7ff
100
AcDbEntity
8
1
100
AcDbVertex
100
AcDb2dVertex
62
5
10
212.912683
20
165.197113
0
VERTEX
5
800
100
AcDbEntity
8
1
100
AcDbVertex
100
AcDb2dVertex
62
5
10
212.912265
20
165.198194
0
VERTEX
5
801
100
AcDbEntity
8
1
100
AcDbVertex
100
AcDb2dVertex
62
5
10
212.911846
20
165.199311
0
VERTEX
5
802
100
AcDbEntity
8
1
100
AcDbVertex
100
AcDb2dVertex
62
5
10
212.911427
20
165.200393
0
VERTEX
5
803
100
AcDbEntity
8
1
100
AcDbVertex
100
AcDb2dVertex
62
5
10
212.911043
20
165.201474
0
VERTEX
5
804
100
AcDbEntity
8
1
100
AcDbVertex
100
AcDb2dVertex
62
5
10
212.910659
20
165.202591
0
VERTEX
5
805
100
AcDbEntity
8
1
100
AcDbVertex
100
AcDb2dVertex
62
5
10
212.910276
20
165.203708
0
VERTEX
5
806
100
AcDbEntity
8
1
100
AcDbVertex
100
AcDb2dVertex
62
5
10
212.909892
20
165.204789
0
VERTEX
5
807
100
AcDbEntity
8
1
100
AcDbVertex
100
AcDb2dVertex
62
5
10
212.909543
20
165.205906
0
VERTEX
5
808
100
AcDbEntity
8
1
100
AcDbVertex
100
AcDb2dVertex
62
5
10
212.909159
20
165.207023
0
VERTEX
5
809
100
AcDbEntity
8
1
100
AcDbVertex
100
AcDb2dVertex
62
5
10
212.908810
20
165.208139
0
VERTEX
5
80a
100
AcDbEntity
8
1
100
AcDbVertex
100
AcDb2dVertex
62
5
10
212.908461
20
165.209221
0
VERTEX
5
80b
100
AcDbEntity
8
1
100
AcDbVertex
100
AcDb2dVertex
62
5
10
212.908147
20
165.210337
0
VERTEX
5
80c
100
AcDbEntity
8
1
100
AcDbVertex
100
AcDb2dVertex
62
5
10
212.907798
20
165.211454
0
VERTEX
5
80d
100
AcDbEntity
8
1
100
AcDbVertex
100
AcDb2dVertex
62
5
10
212.907484
20
165.212606
0
VERTEX
5
80e
100
AcDbEntity
8
1
100
AcDbVertex
100
AcDb2dVertex
62
5
10
212.907170
20
165.213722
0
VERTEX
5
80f
100
AcDbEntity
8
1
100
AcDbVertex
100
AcDb2dVertex
62
5
10
212.906856
20
165.214839
0
VERTEX
5
810
100
AcDbEntity
8
1
100
AcDbVertex
100
AcDb2dVertex
62
5
10
212.906577
20
165.215955
0
VERTEX
5
811
100
AcDbEntity
8
1
100
AcDbVertex
100
AcDb2dVertex
62
5
10
212.906263
20
165.217072
0
VERTEX
5
812
100
AcDbEntity
8
1
100
AcDbVertex
100
AcDb2dVertex
62
5
10
212.905984
20
165.218224
0
VERTEX
5
813
100
AcDbEntity
8
1
100
AcDbVertex
100
AcDb2dVertex
62
5
10
212.905704
20
165.219340
0
VERTEX
5
814
100
AcDbEntity
8
1
100
AcDbVertex
100
AcDb2dVertex
62
5
10
212.905425
20
165.220492
0
VERTEX
5
815
100
AcDbEntity
8
1
100
AcDbVertex
100
AcDb2dVertex
62
5
10
212.905181
20
165.221608
0
VERTEX
5
816
100
AcDbEntity
8
1
100
AcDbVertex
100
AcDb2dVertex
62
5
10
212.904902
20
165.222760
0
VERTEX
5
817
100
AcDbEntity
8
1
100
AcDbVertex
100
AcDb2dVertex
62
5
10
212.904658
20
165.223911
0
VERTEX
5
818
100
AcDbEntity
8
1
100
AcDbVertex
100
AcDb2dVertex
62
5
10
212.904413
20
165.225028
0
VERTEX
5
819
100
AcDbEntity
8
1
100
AcDbVertex
100
AcDb2dVertex
62
5
10
212.904204
20
165.226179
0
VERTEX
5
81a
100
AcDbEntity
8
1
100
AcDbVertex
100
AcDb2dVertex
62
5
10
212.903960
20
165.227331
0
VERTEX
5
81b
100
AcDbEntity
8
1
100
AcDbVertex
100
AcDb2dVertex
62
5
10
212.903750
20
165.228482
0
VERTEX
5
81c
100
AcDbEntity
8
1
100
AcDbVertex
100
AcDb2dVertex
62
5
10
212.903541
20
165.229634
0
VERTEX
5
81d
100
AcDbEntity
8
1
100
AcDbVertex
100
AcDb2dVertex
62
5
10
212.903332
20
165.230785
0
VERTEX
5
81e
100
AcDbEntity
8
1
100
AcDbVertex
100
AcDb2dVertex
62
5
10
212.903122
20
165.231937
0
VERTEX
5
81f
100
AcDbEntity
8
1
100
AcDbVertex
100
AcDb2dVertex
62
5
10
212.902948
20
165.233089
0
VERTEX
5
820
100
AcDbEntity
8
1
100
AcDbVertex
100
AcDb2dVertex
62
5
10
212.902773
20
165.234240
0
VERTEX
5
821
100
AcDbEntity
8
1
100
AcDbVertex
100
AcDb2dVertex
62
5
10
212.902599
20
165.235426
0
VERTEX
5
822
100
AcDbEntity
8
1
100
AcDbVertex
100
AcDb2dVertex
62
5
10
212.902424
20
165.236578
0
VERTEX
5
823
100
AcDbEntity
8
1
100
AcDbVertex
100
AcDb2dVertex
62
5
10
212.902250
20
165.237729
0
VERTEX
5
824
100
AcDbEntity
8
1
100
AcDbVertex
100
AcDb2dVertex
62
5
10
212.902110
20
165.238916
0
VERTEX
5
825
100
AcDbEntity
8
1
100
AcDbVertex
100
AcDb2dVertex
62
5
10
212.901971
20
165.240067
0
VERTEX
5
826
100
AcDbEntity
8
1
100
AcDbVertex
100
AcDb2dVertex
62
5
10
212.901831
20
165.241254
0
VERTEX
5
827
100
AcDbEntity
8
1
100
AcDbVertex
100
AcDb2dVertex
62
5
10
212.901692
20
165.242440
0
VERTEX
5
828
100
AcDbEntity
8
1
100
AcDbVertex
100
AcDb2dVertex
62
5
10
212.901587
20
165.243592
0
VERTEX
5
829
100
AcDbEntity
8
1
100
AcDbVertex
100
AcDb2dVertex
62
5
10
212.901447
20
165.244778
0
VERTEX
5
82a
100
AcDbEntity
8
1
100
AcDbVertex
100
AcDb2dVertex
62
5
10
212.901343
20
165.245964
0
VERTEX
5
82b
100
AcDbEntity
8
1
100
AcDbVertex
100
AcDb2dVertex
62
5
10
212.901238
20
165.247151
0
VERTEX
5
82c
100
AcDbEntity
8
1
100
AcDbVertex
100
AcDb2dVertex
62
5
10
212.901168
20
165.248337
0
VERTEX
5
82d
100
AcDbEntity
8
1
100
AcDbVertex
100
AcDb2dVertex
62
5
10
212.901064
20
165.249524
0
VERTEX
5
82e
100
AcDbEntity
8
1
100
AcDbVertex
100
AcDb2dVertex
62
5
10
212.900994
20
165.250710
0
VERTEX
5
82f
100
AcDbEntity
8
1
100
AcDbVertex
100
AcDb2dVertex
62
5
10
212.900924
20
165.251896
0
VERTEX
5
830
100
AcDbEntity
8
1
100
AcDbVertex
100
AcDb2dVertex
62
5
10
212.900854
20
165.253083
0
VERTEX
5
831
100
AcDbEntity
8
1
100
AcDbVertex
100
AcDb2dVertex
62
5
10
212.900819
20
165.254304
0
VERTEX
5
832
100
AcDbEntity
8
1
100
AcDbVertex
100
AcDb2dVertex
62
5
10
212.900749
20
165.255491
0
VERTEX
5
833
100
AcDbEntity
8
1
100
AcDbVertex
100
AcDb2dVertex
62
5
10
212.900715
20
165.256677
0
VERTEX
5
834
100
AcDbEntity
8
1
100
AcDbVertex
100
AcDb2dVertex
62
5
10
212.900680
20
165.257898
0
VERTEX
5
835
100
AcDbEntity
8
1
100
AcDbVertex
100
AcDb2dVertex
62
5
10
212.900645
20
165.259085
0
VERTEX
5
836
100
AcDbEntity
8
1
100
AcDbVertex
100
AcDb2dVertex
62
5
10
212.900645
20
165.260306
0
VERTEX
5
837
100
AcDbEntity
8
1
100
AcDbVertex
100
AcDb2dVertex
62
5
10
212.900645
20
165.261492
0
VERTEX
5
838
100
AcDbEntity
8
1
100
AcDbVertex
100
AcDb2dVertex
62
5
10
212.900610
20
165.262714
0
SEQEND
5
839
100
AcDbEntity
8
1
0
POLYLINE
5
83a
100
AcDbEntity
8
1
6
CONTINUOUS
62
5
100
AcDb2dPolyline
66
1
10
0.0
20
0.0
30
0.0
70
0
0
VERTEX
5
83b
100
AcDbEntity
8
1
100
AcDbVertex
100
AcDb2dVertex
62
5
10
213.088655
20
165.074669
0
VERTEX
5
83c
100
AcDbEntity
8
1
100
AcDbVertex
100
AcDb2dVertex
62
5
10
213.087468
20
165.074704
0
VERTEX
5
83d
100
AcDbEntity
8
1
100
AcDbVertex
100
AcDb2dVertex
62
5
10
213.086247
20
165.074704
0
VERTEX
5
83e
100
AcDbEntity
8
1
100
AcDbVertex
100
AcDb2dVertex
62
5
10
213.085026
20
165.074704
0
VERTEX
5
83f
100
AcDbEntity
8
1
100
AcDbVertex
100
AcDb2dVertex
62
5
10
213.083839
20
165.074739
0
VERTEX
5
840
100
AcDbEntity
8
1
100
AcDbVertex
100
AcDb2dVertex
62
5
10
213.082653
20
165.074773
0
VERTEX
5
841
100
AcDbEntity
8
1
100
AcDbVertex
100
AcDb2dVertex
62
5
10
213.081467
20
165.074808
0
VERTEX
5
842
100
AcDbEntity
8
1
100
AcDbVertex
100
AcDb2dVertex
62
5
10
213.080245
20
165.074843
0
VERTEX
5
843
100
AcDbEntity
8
1
100
AcDbVertex
100
AcDb2dVertex
62
5
10
213.079059
20
165.074878
0
VERTEX
5
844
100
AcDbEntity
8
1
100
AcDbVertex
100
AcDb2dVertex
62
5
10
213.077872
20
165.074948
0
VERTEX
5
845
100
AcDbEntity
8
1
100
AcDbVertex
100
AcDb2dVertex
62
5
10
213.076721
20
165.075018
0
VERTEX
5
846
100
AcDbEntity
8
1
100
AcDbVertex
100
AcDb2dVertex
62
5
10
213.075535
20
165.075053
0
VERTEX
5
847
100
AcDbEntity
8
1
100
AcDbVertex
100
AcDb2dVertex
62
5
10
213.074348
20
165.075157
0
VERTEX
5
848
100
AcDbEntity
8
1
100
AcDbVertex
100
AcDb2dVertex
62
5
10
213.073197
20
165.075227
0
VERTEX
5
849
100
AcDbEntity
8
1
100
AcDbVertex
100
AcDb2dVertex
62
5
10
213.072010
20
165.075297
0
VERTEX
5
84a
100
AcDbEntity
8
1
100
AcDbVertex
100
AcDb2dVertex
62
5
10
213.070859
20
165.075402
0
VERTEX
5
84b
100
AcDbEntity
8
1
100
AcDbVertex
100
AcDb2dVertex
62
5
10
213.069672
20
165.075506
0
VERTEX
5
84c
100
AcDbEntity
8
1
100
AcDbVertex
100
AcDb2dVertex
62
5
10
213.068521
20
165.075611
0
VERTEX
5
84d
100
AcDbEntity
8
1
100
AcDbVertex
100
AcDb2dVertex
62
5
10
213.067369
20
165.075716
0
VERTEX
5
84e
100
AcDbEntity
8
1
100
AcDbVertex
100
AcDb2dVertex
62
5
10
213.066218
20
165.075820
0
VERTEX
5
84f
100
AcDbEntity
8
1
100
AcDbVertex
100
AcDb2dVertex
62
5
10
213.065066
20
165.075960
0
VERTEX
5
850
100
AcDbEntity
8
1
100
AcDbVertex
100
AcDb2dVertex
62
5
10
213.063915
20
165.076099
0
VERTEX
5
851
100
AcDbEntity
8
1
100
AcDbVertex
100
AcDb2dVertex
62
5
10
213.062763
20
165.076239
0
VERTEX
5
852
100
AcDbEntity
8
1
100
AcDbVertex
100
AcDb2dVertex
62
5
10
213.061647
20
165.076379
0
VERTEX
5
853
100
AcDbEntity
8
1
100
AcDbVertex
100
AcDb2dVertex
62
5
10
213.060495
20
165.076518
0
VERTEX
5
854
100
AcDbEntity
8
1
100
AcDbVertex
100
AcDb2dVertex
62
5
10
213.059379
20
165.076658
0
VERTEX
5
855
100
AcDbEntity
8
1
100
AcDbVertex
100
AcDb2dVertex
62
5
10
213.058227
20
165.076832
0
VERTEX
5
856
100
AcDbEntity
8
1
100
AcDbVertex
100
AcDb2dVertex
62
5
10
213.057110
20
165.077007
0
VERTEX
5
857
100
AcDbEntity
8
1
100
AcDbVertex
100
AcDb2dVertex
62
5
10
213.055994
20
165.077181
0
VERTEX
5
858
100
AcDbEntity
8
1
100
AcDbVertex
100
AcDb2dVertex
62
5
10
213.054877
20
165.077356
0
VERTEX
5
859
100
AcDbEntity
8
1
100
AcDbVertex
100
AcDb2dVertex
62
5
10
213.053761
20
165.077530
0
VERTEX
5
85a
100
AcDbEntity
8
1
100
AcDbVertex
100
AcDb2dVertex
62
5
10
213.052644
20
165.077739
0
VERTEX
5
85b
100
AcDbEntity
8
1
100
AcDbVertex
100
AcDb2dVertex
62
5
10
213.051527
20
165.077949
0
VERTEX
5
85c
100
AcDbEntity
8
1
100
AcDbVertex
100
AcDb2dVertex
62
5
10
213.050411
20
165.078158
0
VERTEX
5
85d
100
AcDbEntity
8
1
100
AcDbVertex
100
AcDb2dVertex
62
5
10
213.049329
20
165.078368
0
VERTEX
5
85e
100
AcDbEntity
8
1
100
AcDbVertex
100
AcDb2dVertex
62
5
10
213.048212
20
165.078577
0
VERTEX
5
85f
100
AcDbEntity
8
1
100
AcDbVertex
100
AcDb2dVertex
62
5
10
213.047096
20
165.078821
0
VERTEX
5
860
100
AcDbEntity
8
1
100
AcDbVertex
100
AcDb2dVertex
62
5
10
213.046014
20
165.079031
0
VERTEX
5
861
100
AcDbEntity
8
1
100
AcDbVertex
100
AcDb2dVertex
62
5
10
213.044932
20
165.079275
0
VERTEX
5
862
100
AcDbEntity
8
1
100
AcDbVertex
100
AcDb2dVertex
62
5
10
213.043851
20
165.079519
0
VERTEX
5
863
100
AcDbEntity
8
1
100
AcDbVertex
100
AcDb2dVertex
62
5
10
213.042734
20
165.079763
0
VERTEX
5
864
100
AcDbEntity
8
1
100
AcDbVertex
100
AcDb2dVertex
62
5
10
213.041652
20
165.080042
0
VERTEX
5
865
100
AcDbEntity
8
1
100
AcDbVertex
100
AcDb2dVertex
62
5
10
213.040571
20
165.080287
0
VERTEX
5
866
100
AcDbEntity
8
1
100
AcDbVertex
100
AcDb2dVertex
62
5
10
213.039524
20
165.080566
0
VERTEX
5
867
100
AcDbEntity
8
1
100
AcDbVertex
100
AcDb2dVertex
62
5
10
213.038442
20
165.080845
0
VERTEX
5
868
100
AcDbEntity
8
1
100
AcDbVertex
100
AcDb2dVertex
62
5
10
213.037360
20
165.081124
0
VERTEX
5
869
100
AcDbEntity
8
1
100
AcDbVertex
100
AcDb2dVertex
62
5
10
213.036313
20
165.081403
0
VERTEX
5
86a
100
AcDbEntity
8
1
100
AcDbVertex
100
AcDb2dVertex
62
5
10
213.035232
20
165.081717
0
VERTEX
5
86b
100
AcDbEntity
8
1
100
AcDbVertex
100
AcDb2dVertex
62
5
10
213.034185
20
165.081997
0
VERTEX
5
86c
100
AcDbEntity
8
1
100
AcDbVertex
100
AcDb2dVertex
62
5
10
213.033103
20
165.082311
0
VERTEX
5
86d
100
AcDbEntity
8
1
100
AcDbVertex
100
AcDb2dVertex
62
5
10
213.032056
20
165.082625
0
VERTEX
5
86e
100
AcDbEntity
8
1
100
AcDbVertex
100
AcDb2dVertex
62
5
10
213.031010
20
165.082939
0
VERTEX
5
86f
100
AcDbEntity
8
1
100
AcDbVertex
100
AcDb2dVertex
62
5
10
213.029963
20
165.083288
0
VERTEX
5
870
100
AcDbEntity
8
1
100
AcDbVertex
100
AcDb2dVertex
62
5
10
213.028916
20
165.083602
0
VERTEX
5
871
100
AcDbEntity
8
1
100
AcDbVertex
100
AcDb2dVertex
62
5
10
213.027869
20
165.083951
0
VERTEX
5
872
100
AcDbEntity
8
1
100
AcDbVertex
100
AcDb2dVertex
62
5
10
213.026857
20
165.084300
0
VERTEX
5
873
100
AcDbEntity
8
1
100
AcDbVertex
100
AcDb2dVertex
62
5
10
213.025810
20
165.084649
0
VERTEX
5
874
100
AcDbEntity
8
1
100
AcDbVertex
100
AcDb2dVertex
62
5
10
213.024764
20
165.084997
0
VERTEX
5
875
100
AcDbEntity
8
1
100
AcDbVertex
100
AcDb2dVertex
62
5
10
213.023752
20
165.085381
0
VERTEX
5
876
100
AcDbEntity
8
1
100
AcDbVertex
100
AcDb2dVertex
62
5
10
213.022740
20
165.085765
0
VERTEX
5
877
100
AcDbEntity
8
1
100
AcDbVertex
100
AcDb2dVertex
62
5
10
213.021693
20
165.086114
0
VERTEX
5
878
100
AcDbEntity
8
1
100
AcDbVertex
100
AcDb2dVertex
62
5
10
213.020681
20
165.086498
0
VERTEX
5
879
100
AcDbEntity
8
1
100
AcDbVertex
100
AcDb2dVertex
62
5
10
213.019669
20
165.086917
0
VERTEX
5
87a
100
AcDbEntity
8
1
100
AcDbVertex
100
AcDb2dVertex
62
5
10
213.018657
20
165.087300
0
VERTEX
5
87b
100
AcDbEntity
8
1
100
AcDbVertex
100
AcDb2dVertex
62
5
10
213.017645
20
165.087719
0
VERTEX
5
87c
100
AcDbEntity
8
1
100
AcDbVertex
100
AcDb2dVertex
62
5
10
213.016633
20
165.088103
0
VERTEX
5
87d
100
AcDbEntity
8
1
100
AcDbVertex
100
AcDb2dVertex
62
5
10
213.015621
20
165.088522
0
VERTEX
5
87e
100
AcDbEntity
8
1
100
AcDbVertex
100
AcDb2dVertex
62
5
10
213.014644
20
165.088941
0
VERTEX
5
87f
100
AcDbEntity
8
1
100
AcDbVertex
100
AcDb2dVertex
62
5
10
213.013632
20
165.089394
0
VERTEX
5
880
100
AcDbEntity
8
1
100
AcDbVertex
100
AcDb2dVertex
62
5
10
213.012655
20
165.089813
0
VERTEX
5
881
100
AcDbEntity
8
1
100
AcDbVertex
100
AcDb2dVertex
62
5
10
213.011643
20
165.090266
0
VERTEX
5
882
100
AcDbEntity
8
1
100
AcDbVertex
100
AcDb2dVertex
62
5
10
213.010666
20
165.090720
0
VERTEX
5
883
100
AcDbEntity
8
1
100
AcDbVertex
100
AcDb2dVertex
62
5
10
213.009689
20
165.091174
0
VERTEX
5
884
100
AcDbEntity
8
1
100
AcDbVertex
100
AcDb2dVertex
62
5
10
213.008712
20
165.091627
0
VERTEX
5
885
100
AcDbEntity
8
1
100
AcDbVertex
100
AcDb2dVertex
62
5
10
213.007735
20
165.092081
0
VERTEX
5
886
100
AcDbEntity
8
1
100
AcDbVertex
100
AcDb2dVertex
62
5
10
213.006758
20
165.092570
0
VERTEX
5
887
100
AcDbEntity
8
1
100
AcDbVertex
100
AcDb2dVertex
62
5
10
213.005781
20
165.093058
0
VERTEX
5
888
100
AcDbEntity
8
1
100
AcDbVertex
100
AcDb2dVertex
62
5
10
213.004804
20
165.093547
0
VERTEX
5
889
100
AcDbEntity
8
1
100
AcDbVertex
100
AcDb2dVertex
62
5
10
213.003862
20
165.094035
0
VERTEX
5
88a
100
AcDbEntity
8
1
100
AcDbVertex
100
AcDb2dVertex
62
5
10
213.002885
20
165.094524
0
VERTEX
5
88b
100
AcDbEntity
8
1
100
AcDbVertex
100
AcDb2dVertex
62
5
10
213.001908
20
165.095047
0
VERTEX
5
88c
100
AcDbEntity
8
1
100
AcDbVertex
100
AcDb2dVertex
62
5
10
213.000966
20
165.095536
0
VERTEX
5
88d
100
AcDbEntity
8
1
100
AcDbVertex
100
AcDb2dVertex
62
5
10
213.000024
20
165.096059
0
VERTEX
5
88e
100
AcDbEntity
8
1
100
AcDbVertex
100
AcDb2dVertex
62
5
10
212.999081
20
165.096582
0
VERTEX
5
88f
100
AcDbEntity
8
1
100
AcDbVertex
100
AcDb2dVertex
62
5
10
212.998139
20
165.097106
0
VERTEX
5
890
100
AcDbEntity
8
1
100
AcDbVertex
100
AcDb2dVertex
62
5
10
212.997162
20
165.097664
0
VERTEX
5
891
100
AcDbEntity
8
1
100
AcDbVertex
100
AcDb2dVertex
62
5
10
212.996255
20
165.098187
0
VERTEX
5
892
100
AcDbEntity
8
1
100
AcDbVertex
100
AcDb2dVertex
62
5
10
212.995313
20
165.098746
0
VERTEX
5
893
100
AcDbEntity
8
1
100
AcDbVertex
100
AcDb2dVertex
62
5
10
212.994371
20
165.099304
0
VERTEX
5
894
100
AcDbEntity
8
1
100
AcDbVertex
100
AcDb2dVertex
62
5
10
212.993429
20
165.099862
0
VERTEX
5
895
100
AcDbEntity
8
1
100
AcDbVertex
100
AcDb2dVertex
62
5
10
212.992521
20
165.100421
0
VERTEX
5
896
100
AcDbEntity
8
1
100
AcDbVertex
100
AcDb2dVertex
62
5
10
212.991579
20
165.101014
0
VERTEX
5
897
100
AcDbEntity
8
1
100
AcDbVertex
100
AcDb2dVertex
62
5
10
212.990672
20
165.101607
0
VERTEX
5
898
100
AcDbEntity
8
1
100
AcDbVertex
100
AcDb2dVertex
62
5
10
212.989765
20
165.102200
0
VERTEX
5
899
100
AcDbEntity
8
1
100
AcDbVertex
100
AcDb2dVertex
62
5
10
212.988822
20
165.102794
0
VERTEX
5
89a
100
AcDbEntity
8
1
100
AcDbVertex
100
AcDb2dVertex
62
5
10
212.987915
20
165.103387
0
VERTEX
5
89b
100
AcDbEntity
8
1
100
AcDbVertex
100
AcDb2dVertex
62
5
10
212.987008
20
165.103980
0
VERTEX
5
89c
100
AcDbEntity
8
1
100
AcDbVertex
100
AcDb2dVertex
62
5
10
212.986101
20
165.104608
0
VERTEX
5
89d
100
AcDbEntity
8
1
100
AcDbVertex
100
AcDb2dVertex
62
5
10
212.985228
20
165.105236
0
VERTEX
5
89e
100
AcDbEntity
8
1
100
AcDbVertex
100
AcDb2dVertex
62
5
10
212.984321
20
165.105829
0
VERTEX
5
89f
100
AcDbEntity
8
1
100
AcDbVertex
100
AcDb2dVertex
62
5
10
212.983414
20
165.106492
0
VERTEX
5
8a0
100
AcDbEntity
8
1
100
AcDbVertex
100
AcDb2dVertex
62
5
10
212.982542
20
165.107120
0
VERTEX
5
8a1
100
AcDbEntity
8
1
100
AcDbVertex
100
AcDb2dVertex
62
5
10
212.981634
20
165.107748
0
VERTEX
5
8a2
100
AcDbEntity
8
1
100
AcDbVertex
100
AcDb2dVertex
62
5
10
212.980762
20
165.108411
0
VERTEX
5
8a3
100
AcDbEntity
8
1
100
AcDbVertex
100
AcDb2dVertex
62
5
10
212.979855
20
165.109074
0
VERTEX
5
8a4
100
AcDbEntity
8
1
100
AcDbVertex
100
AcDb2dVertex
62
5
10
212.978982
20
165.109737
0
VERTEX
5
8a5
100
AcDbEntity
8
1
100
AcDbVertex
100
AcDb2dVertex
62
5
10
212.978110
20
165.110400
0
VERTEX
5
8a6
100
AcDbEntity
8
1
100
AcDbVertex
100
AcDb2dVertex
62
5
10
212.977238
20
165.111098
0
VERTEX
5
8a7
100
AcDbEntity
8
1
100
AcDbVertex
100
AcDb2dVertex
62
5
10
212.976365
20
165.111761
0
VERTEX
5
8a8
100
AcDbEntity
8
1
100
AcDbVertex
100
AcDb2dVertex
62
5
10
212.975493
20
165.112459
0
VERTEX
5
8a9
100
AcDbEntity
8
1
100
AcDbVertex
100
AcDb2dVertex
62
5
10
212.974655
20
165.113157
0
VERTEX
5
8aa
100
AcDbEntity
8
1
100
AcDbVertex
100
AcDb2dVertex
62
5
10
212.973783
20
165.113855
0
VERTEX
5
8ab
100
AcDbEntity
8
1
100
AcDbVertex
100
AcDb2dVertex
62
5
10
212.972911
20
165.114553
0
VERTEX
5
8ac
100
AcDbEntity
8
1
100
AcDbVertex
100
AcDb2dVertex
62
5
10
212.972073
20
165.115286
0
VERTEX
5
8ad
100
AcDbEntity
8
1
100
AcDbVertex
100
AcDb2dVertex
62
5
10
212.971236
20
165.116018
0
VERTEX
5
8ae
100
AcDbEntity
8
1
100
AcDbVertex
100
AcDb2dVertex
62
5
10
212.970363
20
165.116716
0
VERTEX
5
8af
100
AcDbEntity
8
1
100
AcDbVertex
100
AcDb2dVertex
62
5
10
212.969526
20
165.117484
0
VERTEX
5
8b0
100
AcDbEntity
8
1
100
AcDbVertex
100
AcDb2dVertex
62
5
10
212.968689
20
165.118217
0
VERTEX
5
8b1
100
AcDbEntity
8
1
100
AcDbVertex
100
AcDb2dVertex
62
5
10
212.967851
20
165.118950
0
VERTEX
5
8b2
100
AcDbEntity
8
1
100
AcDbVertex
100
AcDb2dVertex
62
5
10
212.967014
20
165.119717
0
VERTEX
5
8b3
100
AcDbEntity
8
1
100
AcDbVertex
100
AcDb2dVertex
62
5
10
212.966176
20
165.120485
0
VERTEX
5
8b4
100
AcDbEntity
8
1
100
AcDbVertex
100
AcDb2dVertex
62
5
10
212.965374
20
165.121218
0
VERTEX
5
8b5
100
AcDbEntity
8
1
100
AcDbVertex
100
AcDb2dVertex
62
5
10
212.964536
20
165.122020
0
VERTEX
5
8b6
100
AcDbEntity
8
1
100
AcDbVertex
100
AcDb2dVertex
62
5
10
212.963699
20
165.122788
0
VERTEX
5
8b7
100
AcDbEntity
8
1
100
AcDbVertex
100
AcDb2dVertex
62
5
10
212.962896
20
165.123556
0
VERTEX
5
8b8
100
AcDbEntity
8
1
100
AcDbVertex
100
AcDb2dVertex
62
5
10
212.962094
20
165.124358
0
VERTEX
5
8b9
100
AcDbEntity
8
1
100
AcDbVertex
100
AcDb2dVertex
62
5
10
212.961256
20
165.125161
0
VERTEX
5
8ba
100
AcDbEntity
8
1
100
AcDbVertex
100
AcDb2dVertex
62
5
10
212.960453
20
165.125963
0
SEQEND
5
8bb
100
AcDbEntity
8
1
0
POLYLINE
5
8bc
100
AcDbEntity
8
0
6
CONTINUOUS
62
5
100
AcDb2dPolyline
66
1
10
0.0
20
0.0
30
0.0
70
1
0
VERTEX
5
8bd
100
AcDbEntity
8
0
100
AcDbVertex
100
AcDb2dVertex
62
5
10
213.933442
20
165.141469
0
VERTEX
5
8be
100
AcDbEntity
8
0
100
AcDbVertex
100
AcDb2dVertex
62
5
10
213.813784
20
165.198449
0
VERTEX
5
8bf
100
AcDbEntity
8
0
100
AcDbVertex
100
AcDb2dVertex
62
5
10
213.720716
20
165.271574
0
VERTEX
5
8c0
100
AcDbEntity
8
0
100
AcDbVertex
100
AcDb2dVertex
62
5
10
213.635246
20
165.365591
0
VERTEX
5
8c1
100
AcDbEntity
8
0
100
AcDbVertex
100
AcDb2dVertex
62
5
10
213.557373
20
165.480501
0
VERTEX
5
8c2
100
AcDbEntity
8
0
100
AcDbVertex
100
AcDb2dVertex
62
5
10
213.538380
20
165.533682
0
VERTEX
5
8c3
100
AcDbEntity
8
0
100
AcDbVertex
100
AcDb2dVertex
62
5
10
213.549776
20
165.579266
0
VERTEX
5
8c4
100
AcDbEntity
8
0
100
AcDbVertex
100
AcDb2dVertex
62
5
10
213.591561
20
165.617253
0
VERTEX
5
8c5
100
AcDbEntity
8
0
100
AcDbVertex
100
AcDb2dVertex
62
5
10
213.648542
20
165.624851
0
VERTEX
5
8c6
100
AcDbEntity
8
0
100
AcDbVertex
100
AcDb2dVertex
62
5
10
213.694126
20
165.602058
0
VERTEX
5
8c7
100
AcDbEntity
8
0
100
AcDbVertex
100
AcDb2dVertex
62
5
10
213.728314
20
165.548877
0
VERTEX
5
8c8
100
AcDbEntity
8
0
100
AcDbVertex
100
AcDb2dVertex
62
5
10
213.777697
20
165.457709
0
VERTEX
5
8c9
100
AcDbEntity
8
0
100
AcDbVertex
100
AcDb2dVertex
62
5
10
213.846073
20
165.377937
0
VERTEX
5
8ca
100
AcDbEntity
8
0
100
AcDbVertex
100
AcDb2dVertex
62
5
10
213.933442
20
165.309560
0
VERTEX
5
8cb
100
AcDbEntity
8
0
100
AcDbVertex
100
AcDb2dVertex
62
5
10
214.023661
20
165.266825
0
VERTEX
5
8cc
100
AcDbEntity
8
0
100
AcDbVertex
100
AcDb2dVertex
62
5
10
214.134772
20
165.241184
0
VERTEX
5
8cd
100
AcDbEntity
8
0
100
AcDbVertex
100
AcDb2dVertex
62
5
10
214.266776
20
165.232637
0
VERTEX
5
8ce
100
AcDbEntity
8
0
100
AcDbVertex
100
AcDb2dVertex
62
5
10
214.437717
20
165.246882
0
VERTEX
5
8cf
100
AcDbEntity
8
0
100
AcDbVertex
100
AcDb2dVertex
62
5
10
214.574469
20
165.289617
0
VERTEX
5
8d0
100
AcDbEntity
8
0
100
AcDbVertex
100
AcDb2dVertex
62
5
10
214.677033
20
165.360843
0
VERTEX
5
8d1
100
AcDbEntity
8
0
100
AcDbVertex
100
AcDb2dVertex
62
5
10
214.762503
20
165.467205
0
VERTEX
5
8d2
100
AcDbEntity
8
0
100
AcDbVertex
100
AcDb2dVertex
62
5
10
214.813786
20
165.581166
0
VERTEX
5
8d3
100
AcDbEntity
8
0
100
AcDbVertex
100
AcDb2dVertex
62
5
10
214.830880
20
165.702723
0
VERTEX
5
8d4
100
AcDbEntity
8
0
100
AcDbVertex
100
AcDb2dVertex
62
5
10
214.815685
20
165.827130
0
VERTEX
5
8d5
100
AcDbEntity
8
0
100
AcDbVertex
100
AcDb2dVertex
62
5
10
214.770101
20
165.938241
0
VERTEX
5
8d6
100
AcDbEntity
8
0
100
AcDbVertex
100
AcDb2dVertex
62
5
10
214.694127
20
166.036057
0
VERTEX
5
8d7
100
AcDbEntity
8
0
100
AcDbVertex
100
AcDb2dVertex
62
5
10
214.595362
20
166.107282
0
VERTEX
5
8d8
100
AcDbEntity
8
0
100
AcDbVertex
100
AcDb2dVertex
62
5
10
214.470005
20
166.150018
0
VERTEX
5
8d9
100
AcDbEntity
8
0
100
AcDbVertex
100
AcDb2dVertex
62
5
10
214.318058
20
166.164263
0
VERTEX
5
8da
100
AcDbEntity
8
0
100
AcDbVertex
100
AcDb2dVertex
62
5
10
214.224991
20
166.159514
0
VERTEX
5
8db
100
AcDbEntity
8
0
100
AcDbVertex
100
AcDb2dVertex
62
5
10
214.139521
20
166.145269
0
VERTEX
5
8dc
100
AcDbEntity
8
0
100
AcDbVertex
100
AcDb2dVertex
62
5
10
214.061648
20
166.121528
0
VERTEX
5
8dd
100
AcDbEntity
8
0
100
AcDbVertex
100
AcDb2dVertex
62
5
10
213.981875
20
166.083541
0
VERTEX
5
8de
100
AcDbEntity
8
0
100
AcDbVertex
100
AcDb2dVertex
62
5
10
213.890707
20
166.026561
0
VERTEX
5
8df
100
AcDbEntity
8
0
100
AcDbVertex
100
AcDb2dVertex
62
5
10
213.788143
20
165.950587
0
VERTEX
5
8e0
100
AcDbEntity
8
0
100
AcDbVertex
100
AcDb2dVertex
62
5
10
213.744458
20
165.924946
0
VERTEX
5
8e1
100
AcDbEntity
8
0
100
AcDbVertex
100
AcDb2dVertex
62
5
10
213.704572
20
165.916399
0
VERTEX
5
8e2
100
AcDbEntity
8
0
100
AcDbVertex
100
AcDb2dVertex
62
5
10
213.668485
20
165.924946
0
VERTEX
5
8e3
100
AcDbEntity
8
0
100
AcDbVertex
100
AcDb2dVertex
62
5
10
213.632397
20
165.947738
0
VERTEX
5
8e4
100
AcDbEntity
8
0
100
AcDbVertex
100
AcDb2dVertex
62
5
10
213.615303
20
165.981926
0
VERTEX
5
8e5
100
AcDbEntity
8
0
100
AcDbVertex
100
AcDb2dVertex
62
5
10
213.617202
20
166.027510
0
VERTEX
5
8e6
100
AcDbEntity
8
0
100
AcDbVertex
100
AcDb2dVertex
62
5
10
213.702673
20
166.668537
0
VERTEX
5
8e7
100
AcDbEntity
8
0
100
AcDbVertex
100
AcDb2dVertex
62
5
10
213.734961
20
166.764454
0
VERTEX
5
8e8
100
AcDbEntity
8
0
100
AcDbVertex
100
AcDb2dVertex
62
5
10
213.797640
20
166.824283
0
VERTEX
5
8e9
100
AcDbEntity
8
0
100
AcDbVertex
100
AcDb2dVertex
62
5
10
213.890707
20
166.848024
0
VERTEX
5
8ea
100
AcDbEntity
8
0
100
AcDbVertex
100
AcDb2dVertex
62
5
10
214.813786
20
166.848024
0
VERTEX
5
8eb
100
AcDbEntity
8
0
100
AcDbVertex
100
AcDb2dVertex
62
5
10
214.861269
20
166.839477
0
VERTEX
5
8ec
100
AcDbEntity
8
0
100
AcDbVertex
100
AcDb2dVertex
62
5
10
214.889759
20
166.813836
0
VERTEX
5
8ed
100
AcDbEntity
8
0
100
AcDbVertex
100
AcDb2dVertex
62
5
10
214.899256
20
166.771101
0
VERTEX
5
8ee
100
AcDbEntity
8
0
100
AcDbVertex
100
AcDb2dVertex
62
5
10
214.889759
20
166.722763
0
VERTEX
5
8ef
100
AcDbEntity
8
0
100
AcDbVertex
100
AcDb2dVertex
62
5
10
214.861269
20
166.693760
0
VERTEX
5
8f0
100
AcDbEntity
8
0
100
AcDbVertex
100
AcDb2dVertex
62
5
10
214.813786
20
166.684093
0
VERTEX
5
8f1
100
AcDbEntity
8
0
100
AcDbVertex
100
AcDb2dVertex
62
5
10
213.950536
20
166.684093
0
VERTEX
5
8f2
100
AcDbEntity
8
0
100
AcDbVertex
100
AcDb2dVertex
62
5
10
213.902103
20
166.672374
0
VERTEX
5
8f3
100
AcDbEntity
8
0
100
AcDbVertex
100
AcDb2dVertex
62
5
10
213.870764
20
166.647245
0
VERTEX
5
8f4
100
AcDbEntity
8
0
100
AcDbVertex
100
AcDb2dVertex
62
5
10
213.856519
20
166.608708
0
VERTEX
5
8f5
100
AcDbEntity
8
0
100
AcDbVertex
100
AcDb2dVertex
62
5
10
213.788143
20
166.112980
0
VERTEX
5
8f6
100
AcDbEntity
8
0
100
AcDbVertex
100
AcDb2dVertex
62
5
10
213.796690
20
166.112980
0
VERTEX
5
8f7
100
AcDbEntity
8
0
100
AcDbVertex
100
AcDb2dVertex
62
5
10
213.968580
20
166.217444
0
VERTEX
5
8f8
100
AcDbEntity
8
0
100
AcDbVertex
100
AcDb2dVertex
62
5
10
214.142370
20
166.280122
0
VERTEX
5
8f9
100
AcDbEntity
8
0
100
AcDbVertex
100
AcDb2dVertex
62
5
10
214.318058
20
166.301015
0
VERTEX
5
8fa
100
AcDbEntity
8
0
100
AcDbVertex
100
AcDb2dVertex
62
5
10
214.522237
20
166.282022
0
VERTEX
5
8fb
100
AcDbEntity
8
0
100
AcDbVertex
100
AcDb2dVertex
62
5
10
214.690329
20
166.225041
0
VERTEX
5
8fc
100
AcDbEntity
8
0
100
AcDbVertex
100
AcDb2dVertex
62
5
10
214.822333
20
166.130075
0
VERTEX
5
8fd
100
AcDbEntity
8
0
100
AcDbVertex
100
AcDb2dVertex
62
5
10
214.926796
20
165.998071
0
VERTEX
5
8fe
100
AcDbEntity
8
0
100
AcDbVertex
100
AcDb2dVertex
62
5
10
214.989474
20
165.852771
0
VERTEX
5
8ff
100
AcDbEntity
8
0
100
AcDbVertex
100
AcDb2dVertex
62
5
10
215.010367
20
165.694176
0
VERTEX
5
900
100
AcDbEntity
8
0
100
AcDbVertex
100
AcDb2dVertex
62
5
10
214.992323
20
165.543179
0
VERTEX
5
901
100
AcDbEntity
8
0
100
AcDbVertex
100
AcDb2dVertex
62
5
10
214.938192
20
165.409276
0
VERTEX
5
902
100
AcDbEntity
8
0
100
AcDbVertex
100
AcDb2dVertex
62
5
10
214.847974
20
165.292466
0
VERTEX
5
903
100
AcDbEntity
8
0
100
AcDbVertex
100
AcDb2dVertex
62
5
10
214.696976
20
165.183254
0
VERTEX
5
904
100
AcDbEntity
8
0
100
AcDbVertex
100
AcDb2dVertex
62
5
10
214.506093
20
165.117727
0
VERTEX
5
905
100
AcDbEntity
8
0
100
AcDbVertex
100
AcDb2dVertex
62
5
10
214.275323
20
165.095885
0
VERTEX
5
906
100
AcDbEntity
8
0
100
AcDbVertex
100
AcDb2dVertex
62
5
10
214.087289
20
165.107281
0
SEQEND
5
907
100
AcDbEntity
8
0
0
ARC
5
908
100
AcDbEntity
8
1
100
AcDbCircle
6
CONTINUOUS
62
5
10
234.341824
20
160.000000
40
1.000000
100
AcDbArc
50
89.999999
51
108.209956
0
LINE
5
909
100
AcDbEntity
8
1
100
AcDbLine
6
CONTINUOUS
62
5
10
235.341824
20
161.000000
11
234.341824
21
161.000000
0
ARC
5
90a
100
AcDbEntity
8
1
100
AcDbCircle
6
CONTINUOUS
62
5
10
234.341824
20
160.000000
40
1.000000
100
AcDbArc
50
-108.209956
51
-89.999999
0
LINE
5
90b
100
AcDbEntity
8
1
100
AcDbLine
6
CONTINUOUS
62
5
10
234.341824
20
159.000000
11
235.341824
21
159.000000
0
ARC
5
90c
100
AcDbEntity
8
1
100
AcDbCircle
6
CONTINUOUS
62
5
10
234.641824
20
139.300000
40
1.500000
100
AcDbArc
50
-89.999999
51
-0.000000
0
LINE
5
90d
100
AcDbEntity
8
1
100
AcDbLine
6
CONTINUOUS
62
5
10
236.141824
20
139.300000
11
236.141824
21
140.300000
0
LINE
5
90e
100
AcDbEntity
8
1
100
AcDbLine
6
CONTINUOUS
62
5
10
235.341824
20
143.951669
11
235.341824
21
153.500000
0
LINE
5
90f
100
AcDbEntity
8
1
100
AcDbLine
6
CONTINUOUS
62
5
10
229.741824
20
138.400000
11
229.341824
21
138.400000
0
ARC
5
910
100
AcDbEntity
8
1
100
AcDbCircle
6
CONTINUOUS
62
5
10
229.441824
20
139.700000
40
0.300000
100
AcDbArc
50
-0.000000
51
89.999999
0
LINE
5
911
100
AcDbEntity
8
1
100
AcDbLine
6
CONTINUOUS
62
5
10
229.741824
20
139.700000
11
229.741824
21
137.500000
0
LINE
5
912
100
AcDbEntity
8
1
100
AcDbLine
6
CONTINUOUS
62
5
10
229.341824
20
140.000000
11
229.441824
21
140.000000
0
ARC
5
913
100
AcDbEntity
8
1
100
AcDbCircle
6
CONTINUOUS
62
5
10
228.841824
20
137.700000
40
0.500000
100
AcDbArc
50
-81.634982
51
-0.000000
0
ARC
5
914
100
AcDbEntity
8
1
100
AcDbCircle
6
CONTINUOUS
62
5
10
231.141824
20
142.500000
40
0.500000
100
AcDbArc
50
-61.641340
51
89.999999
0
POLYLINE
5
915
100
AcDbEntity
8
1
6
CONTINUOUS
62
5
100
AcDb2dPolyline
66
1
10
0.0
20
0.0
30
0.0
70
0
0
VERTEX
5
916
100
AcDbEntity
8
1
100
AcDbVertex
100
AcDb2dVertex
62
5
10
231.379319
20
142.060004
0
VERTEX
5
917
100
AcDbEntity
8
1
100
AcDbVertex
100
AcDb2dVertex
62
5
10
230.341824
20
141.500000
0
VERTEX
5
918
100
AcDbEntity
8
1
100
AcDbVertex
100
AcDb2dVertex
62
5
10
229.841824
20
141.500000
0
VERTEX
5
919
100
AcDbEntity
8
1
100
AcDbVertex
100
AcDb2dVertex
62
5
10
229.341824
20
141.000000
0
SEQEND
5
91a
100
AcDbEntity
8
1
0
LINE
5
91b
100
AcDbEntity
8
1
100
AcDbLine
6
CONTINUOUS
62
5
10
230.341824
20
143.000000
11
231.141824
21
143.000000
0
LINE
5
91c
100
AcDbEntity
8
1
100
AcDbLine
6
CONTINUOUS
62
5
10
231.141824
20
143.000000
11
231.141824
21
154.000000
0
ARC
5
91d
100
AcDbEntity
8
1
100
AcDbCircle
6
CONTINUOUS
62
5
10
231.341824
20
151.850000
40
0.300000
100
AcDbArc
50
0.000000
51
89.999999
0
LINE
5
91e
100
AcDbEntity
8
1
100
AcDbLine
6
CONTINUOUS
62
5
10
231.341824
20
152.150000
11
231.341824
21
152.150000
0
LINE
5
91f
100
AcDbEntity
8
1
100
AcDbLine
6
CONTINUOUS
62
5
10
231.341824
20
144.850000
11
231.341824
21
144.850000
0
ARC
5
920
100
AcDbEntity
8
1
100
AcDbCircle
6
CONTINUOUS
62
5
10
231.341824
20
145.150000
40
0.300000
100
AcDbArc
50
-89.999999
51
0.000000
0
LINE
5
921
100
AcDbEntity
8
1
100
AcDbLine
6
CONTINUOUS
62
5
10
231.641824
20
145.150000
11
231.641824
21
151.850000
0
LINE
5
922
100
AcDbEntity
8
1
100
AcDbLine
6
CONTINUOUS
62
5
10
231.341824
20
142.958258
11
231.341824
21
154.000000
0
ARC
5
923
100
AcDbEntity
8
1
100
AcDbCircle
6
CONTINUOUS
62
5
10
231.341824
20
154.300000
40
0.300000
100
AcDbArc
50
-89.999999
51
0.000000
0
LINE
5
924
100
AcDbEntity
8
1
100
AcDbLine
6
CONTINUOUS
62
5
10
231.641824
20
154.300000
11
231.641824
21
154.500000
0
ARC
5
925
100
AcDbEntity
8
1
100
AcDbCircle
6
CONTINUOUS
62
5
10
230.641824
20
154.500000
40
1.000000
100
AcDbArc
50
0.000000
51
89.999999
0
POLYLINE
5
926
100
AcDbEntity
8
1
6
CONTINUOUS
62
5
100
AcDb2dPolyline
66
1
10
0.0
20
0.0
30
0.0
70
0
0
VERTEX
5
927
100
AcDbEntity
8
1
100
AcDbVertex
100
AcDb2dVertex
62
5
10
230.641824
20
155.500000
0
VERTEX
5
928
100
AcDbEntity
8
1
100
AcDbVertex
100
AcDb2dVertex
62
5
10
230.341824
20
155.500000
0
VERTEX
5
929
100
AcDbEntity
8
1
100
AcDbVertex
100
AcDb2dVertex
62
5
10
229.341824
20
156.500000
0
SEQEND
5
92a
100
AcDbEntity
8
1
0
LINE
5
92b
100
AcDbEntity
8
1
100
AcDbLine
6
CONTINUOUS
62
5
10
230.341824
20
154.000000
11
231.341824
21
154.000000
0
LINE
5
92c
100
AcDbEntity
8
1
100
AcDbLine
6
CONTINUOUS
62
5
10
232.858981
20
138.400000
11
233.841824
21
138.400000
0
ARC
5
92d
100
AcDbEntity
8
1
100
AcDbCircle
6
CONTINUOUS
62
5
10
233.541824
20
138.300000
40
0.500000
100
AcDbArc
50
-179.999998
51
-89.999999
0
LINE
5
92e
100
AcDbEntity
8
1
100
AcDbLine
6
CONTINUOUS
62
5
10
234.341824
20
137.800000
11
233.541824
21
137.800000
0
ARC
5
92f
100
AcDbEntity
8
1
100
AcDbCircle
6
CONTINUOUS
62
5
10
234.841824
20
139.300000
40
1.500000
100
AcDbArc
50
-89.999999
51
0.000000
0
LINE
5
930
100
AcDbEntity
8
1
100
AcDbLine
6
CONTINUOUS
62
5
10
236.341824
20
139.300000
11
236.341824
21
140.300000
0
LINE
5
931
100
AcDbEntity
8
1
100
AcDbLine
6
CONTINUOUS
62
5
10
233.841824
20
138.600000
11
233.841824
21
138.300000
0
ARC
5
932
100
AcDbEntity
8
1
100
AcDbCircle
6
CONTINUOUS
62
5
10
234.341824
20
138.300000
40
0.500000
100
AcDbArc
50
179.999998
51
-89.999999
0
LINE
5
933
100
AcDbEntity
8
1
100
AcDbLine
6
CONTINUOUS
62
5
10
234.341824
20
137.800000
11
234.841824
21
137.800000
0
ARC
5
934
100
AcDbEntity
8
1
100
AcDbCircle
6
CONTINUOUS
62
5
10
233.541824
20
138.000000
40
0.500000
100
AcDbArc
50
-179.999998
51
-89.999999
0
LINE
5
935
100
AcDbEntity
8
1
100
AcDbLine
6
CONTINUOUS
62
5
10
233.541824
20
137.500000
11
235.341824
21
137.500000
0
ARC
5
936
100
AcDbEntity
8
1
100
AcDbCircle
6
CONTINUOUS
62
5
10
235.341824
20
139.000000
40
1.500000
100
AcDbArc
50
-89.999999
51
-0.000000
0
LINE
5
937
100
AcDbEntity
8
1
100
AcDbLine
6
CONTINUOUS
62
5
10
236.841824
20
139.000000
11
236.841824
21
140.300000
0
LINE
5
938
100
AcDbEntity
8
1
100
AcDbLine
6
CONTINUOUS
62
5
10
233.041824
20
138.400000
11
233.041824
21
138.000000
0
ARC
5
939
100
AcDbEntity
8
1
100
AcDbCircle
6
CONTINUOUS
62
5
10
235.141824
20
154.500000
40
1.000000
100
AcDbArc
50
-84.260829
51
-0.000000
0
LINE
5
93a
100
AcDbEntity
8
1
100
AcDbLine
6
CONTINUOUS
62
5
10
236.141824
20
154.500000
11
236.141824
21
158.000000
0
ARC
5
93b
100
AcDbEntity
8
1
100
AcDbCircle
6
CONTINUOUS
62
5
10
235.141824
20
158.000000
40
1.000000
100
AcDbArc
50
0.000000
51
84.260829
0
ARC
5
93c
100
AcDbEntity
8
1
100
AcDbCircle
6
CONTINUOUS
62
5
10
235.341824
20
158.000000
40
1.000000
100
AcDbArc
50
89.999999
51
133.731283
0
ARC
5
93d
100
AcDbEntity
8
1
100
AcDbCircle
6
CONTINUOUS
62
5
10
235.341824
20
158.000000
40
1.000000
100
AcDbArc
50
-0.000000
51
89.999999
0
LINE
5
93e
100
AcDbEntity
8
1
100
AcDbLine
6
CONTINUOUS
62
5
10
236.341824
20
158.000000
11
236.341824
21
154.500000
0
ARC
5
93f
100
AcDbEntity
8
1
100
AcDbCircle
6
CONTINUOUS
62
5
10
235.341824
20
154.500000
40
1.000000
100
AcDbArc
50
-89.999999
51
-0.000000
0
ARC
5
940
100
AcDbEntity
8
1
100
AcDbCircle
6
CONTINUOUS
62
5
10
235.341824
20
154.500000
40
1.000000
100
AcDbArc
50
-101.536958
51
-89.999999
0
ARC
5
941
100
AcDbEntity
8
1
100
AcDbCircle
6
CONTINUOUS
62
5
10
233.341824
20
146.000000
40
0.500000
100
AcDbArc
50
179.999998
51
0.000000
0
LINE
5
942
100
AcDbEntity
8
1
100
AcDbLine
6
CONTINUOUS
62
5
10
233.841824
20
146.000000
11
233.841824
21
157.984436
0
ARC
5
943
100
AcDbEntity
8
1
100
AcDbCircle
6
CONTINUOUS
62
5
10
234.841824
20
160.000000
40
2.250000
100
AcDbArc
50
116.387799
51
-116.387799
0
LINE
5
944
100
AcDbEntity
8
1
100
AcDbLine
6
CONTINUOUS
62
5
10
233.841824
20
162.015564
11
233.841824
21
174.000000
0
ARC
5
945
100
AcDbEntity
8
1
100
AcDbCircle
6
CONTINUOUS
62
5
10
233.341824
20
174.000000
40
0.500000
100
AcDbArc
50
-0.000000
51
-179.999998
0
LINE
5
946
100
AcDbEntity
8
1
100
AcDbLine
6
CONTINUOUS
62
5
10
232.841824
20
174.000000
11
232.841824
21
162.561738
0
ARC
5
947
100
AcDbEntity
8
1
100
AcDbCircle
6
CONTINUOUS
62
5
10
234.841824
20
160.000000
40
3.250000
100
AcDbArc
50
127.979871
51
-127.979871
0
LINE
5
948
100
AcDbEntity
8
1
100
AcDbLine
6
CONTINUOUS
62
5
10
232.841824
20
157.438262
11
232.841824
21
146.000000
0
LINE
5
949
100
AcDbEntity
8
1
100
AcDbLine
6
CONTINUOUS
62
5
10
236.841824
20
143.200000
11
236.841824
21
176.800000
0
ARC
5
94a
100
AcDbEntity
8
1
100
AcDbCircle
6
CONTINUOUS
62
5
10
206.608968
20
164.100000
40
0.500000
100
AcDbArc
50
179.999998
51
-89.999999
0
LINE
5
94b
100
AcDbEntity
8
1
100
AcDbLine
6
CONTINUOUS
62
5
10
206.108968
20
164.100000
11
206.108968
21
178.900000
0
ARC
5
94c
100
AcDbEntity
8
1
100
AcDbCircle
6
CONTINUOUS
62
5
10
206.608968
20
178.900000
40
0.500000
100
AcDbArc
50
89.999999
51
-179.999998
0
LINE
5
94d
100
AcDbEntity
8
1
100
AcDbLine
6
CONTINUOUS
62
5
10
201.341824
20
165.000000
11
201.341824
21
178.000000
0
ARC
5
94e
100
AcDbEntity
8
1
100
AcDbCircle
6
CONTINUOUS
62
5
10
199.341824
20
168.150000
40
0.300000
100
AcDbArc
50
179.999998
51
-89.999999
0
LINE
5
94f
100
AcDbEntity
8
1
100
AcDbLine
6
CONTINUOUS
62
5
10
199.341824
20
167.850000
11
199.341824
21
167.850000
0
LINE
5
950
100
AcDbEntity
8
1
100
AcDbLine
6
CONTINUOUS
62
5
10
199.341824
20
175.150000
11
199.341824
21
175.150000
0
ARC
5
951
100
AcDbEntity
8
1
100
AcDbCircle
6
CONTINUOUS
62
5
10
199.341824
20
174.850000
40
0.300000
100
AcDbArc
50
89.999999
51
179.999998
0
LINE
5
952
100
AcDbEntity
8
1
100
AcDbLine
6
CONTINUOUS
62
5
10
199.041824
20
174.850000
11
199.041824
21
168.150000
0
LINE
5
953
100
AcDbEntity
8
1
100
AcDbLine
6
CONTINUOUS
62
5
10
199.341824
20
177.041742
11
199.341824
21
166.000000
0
LINE
5
954
100
AcDbEntity
8
1
100
AcDbLine
6
CONTINUOUS
62
5
10
199.541824
20
177.000000
11
199.541824
21
166.000000
0
LINE
5
955
100
AcDbEntity
8
1
100
AcDbLine
6
CONTINUOUS
62
5
10
196.141835
20
161.000000
11
196.141835
21
159.000000
0
LINE
5
956
100
AcDbEntity
8
1
100
AcDbLine
6
CONTINUOUS
62
5
10
195.841824
20
161.000000
11
195.841824
21
159.000000
0
LINE
5
957
100
AcDbEntity
8
1
100
AcDbLine
6
CONTINUOUS
62
5
10
195.341824
20
176.048331
11
195.341824
21
166.500000
0
ARC
5
958
100
AcDbEntity
8
1
100
AcDbCircle
6
CONTINUOUS
62
5
10
196.341824
20
160.000000
40
1.000000
100
AcDbArc
50
71.790042
51
89.999999
0
LINE
5
959
100
AcDbEntity
8
1
100
AcDbLine
6
CONTINUOUS
62
5
10
195.341824
20
161.000000
11
196.341824
21
161.000000
0
ARC
5
95a
100
AcDbEntity
8
1
100
AcDbCircle
6
CONTINUOUS
62
5
10
196.341824
20
160.000000
40
1.000000
100
AcDbArc
50
-89.999999
51
-71.790042
0
LINE
5
95b
100
AcDbEntity
8
1
100
AcDbLine
6
CONTINUOUS
62
5
10
196.341824
20
159.000000
11
195.341824
21
159.000000
0
ARC
5
95c
100
AcDbEntity
8
1
100
AcDbCircle
6
CONTINUOUS
62
5
10
195.541824
20
165.500000
40
1.000000
100
AcDbArc
50
95.739170
51
179.999998
0
LINE
5
95d
100
AcDbEntity
8
1
100
AcDbLine
6
CONTINUOUS
62
5
10
194.541824
20
165.500000
11
194.541824
21
162.000000
0
ARC
5
95e
100
AcDbEntity
8
1
100
AcDbCircle
6
CONTINUOUS
62
5
10
195.541824
20
162.000000
40
1.000000
100
AcDbArc
50
-179.999998
51
-95.739170
0
ARC
5
95f
100
AcDbEntity
8
1
100
AcDbCircle
6
CONTINUOUS
62
5
10
195.341824
20
162.000000
40
1.000000
100
AcDbArc
50
-89.999999
51
-46.268716
0
ARC
5
960
100
AcDbEntity
8
1
100
AcDbCircle
6
CONTINUOUS
62
5
10
195.341824
20
162.000000
40
1.000000
100
AcDbArc
50
179.999998
51
-89.999999
0
LINE
5
961
100
AcDbEntity
8
1
100
AcDbLine
6
CONTINUOUS
62
5
10
194.341824
20
162.000000
11
194.341824
21
165.500000
0
ARC
5
962
100
AcDbEntity
8
1
100
AcDbCircle
6
CONTINUOUS
62
5
10
195.341824
20
165.500000
40
1.000000
100
AcDbArc
50
89.999999
51
179.999998
0
ARC
5
963
100
AcDbEntity
8
1
100
AcDbCircle
6
CONTINUOUS
62
5
10
195.341824
20
165.500000
40
1.000000
100
AcDbArc
50
78.463040
51
89.999999
0
ARC
5
964
100
AcDbEntity
8
1
100
AcDbCircle
6
CONTINUOUS
62
5
10
199.541824
20
177.500000
40
0.500000
100
AcDbArc
50
118.358659
51
-89.999999
0
POLYLINE
5
965
100
AcDbEntity
8
1
6
CONTINUOUS
62
5
100
AcDb2dPolyline
66
1
10
0.0
20
0.0
30
0.0
70
0
0
VERTEX
5
966
100
AcDbEntity
8
1
100
AcDbVertex
100
AcDb2dVertex
62
5
10
199.304329
20
177.939996
0
VERTEX
5
967
100
AcDbEntity
8
1
100
AcDbVertex
100
AcDb2dVertex
62
5
10
200.341824
20
178.500000
0
VERTEX
5
968
100
AcDbEntity
8
1
100
AcDbVertex
100
AcDb2dVertex
62
5
10
200.841824
20
178.500000
0
VERTEX
5
969
100
AcDbEntity
8
1
100
AcDbVertex
100
AcDb2dVertex
62
5
10
201.341824
20
179.000000
0
SEQEND
5
96a
100
AcDbEntity
8
1
0
LINE
5
96b
100
AcDbEntity
8
1
100
AcDbLine
6
CONTINUOUS
62
5
10
200.341824
20
177.000000
11
199.541824
21
177.000000
0
ARC
5
96c
100
AcDbEntity
8
1
100
AcDbCircle
6
CONTINUOUS
62
5
10
200.041824
20
165.500000
40
1.000000
100
AcDbArc
50
179.999998
51
-89.999999
0
LINE
5
96d
100
AcDbEntity
8
1
100
AcDbLine
6
CONTINUOUS
62
5
10
199.041824
20
165.500000
11
199.041824
21
165.700000
0
ARC
5
96e
100
AcDbEntity
8
1
100
AcDbCircle
6
CONTINUOUS
62
5
10
199.341824
20
165.700000
40
0.300000
100
AcDbArc
50
89.999999
51
-179.999998
0
LINE
5
96f
100
AcDbEntity
8
1
100
AcDbLine
6
CONTINUOUS
62
5
10
199.341824
20
166.000000
11
200.341824
21
166.000000
0
POLYLINE
5
970
100
AcDbEntity
8
1
6
CONTINUOUS
62
5
100
AcDb2dPolyline
66
1
10
0.0
20
0.0
30
0.0
70
0
0
VERTEX
5
971
100
AcDbEntity
8
1
100
AcDbVertex
100
AcDb2dVertex
62
5
10
201.341824
20
163.500000
0
VERTEX
5
972
100
AcDbEntity
8
1
100
AcDbVertex
100
AcDb2dVertex
62
5
10
200.341824
20
164.500000
0
VERTEX
5
973
100
AcDbEntity
8
1
100
AcDbVertex
100
AcDb2dVertex
62
5
10
200.041824
20
164.500000
0
SEQEND
5
974
100
AcDbEntity
8
1
0
ARC
5
975
100
AcDbEntity
8
1
100
AcDbCircle
6
CONTINUOUS
62
5
10
200.841824
20
165.500000
40
0.500000
100
AcDbArc
50
179.999998
51
-89.999999
0
LINE
5
976
100
AcDbEntity
8
1
100
AcDbLine
6
CONTINUOUS
62
5
10
200.841824
20
165.000000
11
201.341824
21
165.000000
0
LINE
5
977
100
AcDbEntity
8
1
100
AcDbLine
6
CONTINUOUS
62
5
10
201.341824
20
178.000000
11
200.841824
21
178.000000
0
ARC
5
978
100
AcDbEntity
8
1
100
AcDbCircle
6
CONTINUOUS
62
5
10
200.841824
20
177.500000
40
0.500000
100
AcDbArc
50
89.999999
51
179.999998
0
LINE
5
979
100
AcDbEntity
8
1
100
AcDbLine
6
CONTINUOUS
62
5
10
200.341824
20
177.500000
11
200.341824
21
165.500000
0
ARC
5
97a
100
AcDbEntity
8
1
100
AcDbCircle
6
CONTINUOUS
62
5
10
201.841824
20
137.700000
40
0.500000
100
AcDbArc
50
179.999998
51
-98.365017
0
LINE
5
97b
100
AcDbEntity
8
1
100
AcDbLine
6
CONTINUOUS
62
5
10
200.941824
20
138.400000
11
201.341824
21
138.400000
0
ARC
5
97c
100
AcDbEntity
8
1
100
AcDbCircle
6
CONTINUOUS
62
5
10
201.241824
20
139.700000
40
0.300000
100
AcDbArc
50
89.999999
51
-179.999998
0
LINE
5
97d
100
AcDbEntity
8
1
100
AcDbLine
6
CONTINUOUS
62
5
10
200.941824
20
139.700000
11
200.941824
21
137.500000
0
LINE
5
97e
100
AcDbEntity
8
1
100
AcDbLine
6
CONTINUOUS
62
5
10
201.341824
20
140.000000
11
201.241824
21
140.000000
0
LINE
5
97f
100
AcDbEntity
8
1
100
AcDbLine
6
CONTINUOUS
62
5
10
197.824667
20
138.400000
11
196.841824
21
138.400000
0
ARC
5
980
100
AcDbEntity
8
1
100
AcDbCircle
6
CONTINUOUS
62
5
10
197.141824
20
138.300000
40
0.500000
100
AcDbArc
50
-89.999999
51
0.000000
0
LINE
5
981
100
AcDbEntity
8
1
100
AcDbLine
6
CONTINUOUS
62
5
10
196.341824
20
137.800000
11
197.141824
21
137.800000
0
ARC
5
982
100
AcDbEntity
8
1
100
AcDbCircle
6
CONTINUOUS
62
5
10
199.341824
20
151.850000
40
0.300000
100
AcDbArc
50
89.999999
51
179.999998
0
LINE
5
983
100
AcDbEntity
8
1
100
AcDbLine
6
CONTINUOUS
62
5
10
199.341824
20
152.150000
11
199.341824
21
152.150000
0
LINE
5
984
100
AcDbEntity
8
1
100
AcDbLine
6
CONTINUOUS
62
5
10
199.341824
20
144.850000
11
199.341824
21
144.850000
0
ARC
5
985
100
AcDbEntity
8
1
100
AcDbCircle
6
CONTINUOUS
62
5
10
199.341824
20
145.150000
40
0.300000
100
AcDbArc
50
179.999998
51
-89.999999
0
LINE
5
986
100
AcDbEntity
8
1
100
AcDbLine
6
CONTINUOUS
62
5
10
199.041824
20
145.150000
11
199.041824
21
151.850000
0
LINE
5
987
100
AcDbEntity
8
1
100
AcDbLine
6
CONTINUOUS
62
5
10
199.541824
20
143.000000
11
199.541824
21
154.000000
0
LINE
5
988
100
AcDbEntity
8
1
100
AcDbLine
6
CONTINUOUS
62
5
10
199.341824
20
142.958258
11
199.341824
21
154.000000
0
ARC
5
989
100
AcDbEntity
8
1
100
AcDbCircle
6
CONTINUOUS
62
5
10
196.041824
20
139.300000
40
1.500000
100
AcDbArc
50
179.999998
51
-89.999999
0
LINE
5
98a
100
AcDbEntity
8
1
100
AcDbLine
6
CONTINUOUS
62
5
10
194.541824
20
139.300000
11
194.541824
21
140.300000
0
ARC
5
98b
100
AcDbEntity
8
1
100
AcDbCircle
6
CONTINUOUS
62
5
10
195.841824
20
139.300000
40
1.500000
100
AcDbArc
50
179.999998
51
-89.999999
0
LINE
5
98c
100
AcDbEntity
8
1
100
AcDbLine
6
CONTINUOUS
62
5
10
194.341824
20
139.300000
11
194.341824
21
140.300000
0
LINE
5
98d
100
AcDbEntity
8
1
100
AcDbLine
6
CONTINUOUS
62
5
10
196.841824
20
138.600000
11
196.841824
21
138.300000
0
ARC
5
98e
100
AcDbEntity
8
1
100
AcDbCircle
6
CONTINUOUS
62
5
10
196.341824
20
138.300000
40
0.500000
100
AcDbArc
50
-89.999999
51
0.000000
0
LINE
5
98f
100
AcDbEntity
8
1
100
AcDbLine
6
CONTINUOUS
62
5
10
196.341824
20
137.800000
11
195.841824
21
137.800000
0
ARC
5
990
100
AcDbEntity
8
1
100
AcDbCircle
6
CONTINUOUS
62
5
10
197.141824
20
138.000000
40
0.500000
100
AcDbArc
50
-89.999999
51
-0.000000
0
LINE
5
991
100
AcDbEntity
8
1
100
AcDbLine
6
CONTINUOUS
62
5
10
197.141824
20
137.500000
11
195.341824
21
137.500000
0
ARC
5
992
100
AcDbEntity
8
1
100
AcDbCircle
6
CONTINUOUS
62
5
10
195.341824
20
139.000000
40
1.500000
100
AcDbArc
50
-179.999998
51
-89.999999
0
LINE
5
993
100
AcDbEntity
8
1
100
AcDbLine
6
CONTINUOUS
62
5
10
193.841824
20
139.000000
11
193.841824
21
140.300000
0
LINE
5
994
100
AcDbEntity
8
1
100
AcDbLine
6
CONTINUOUS
62
5
10
197.641824
20
138.400000
11
197.641824
21
138.000000
0
LINE
5
995
100
AcDbEntity
8
1
100
AcDbLine
6
CONTINUOUS
62
5
10
195.341824
20
143.951669
11
195.341824
21
153.500000
0
ARC
5
996
100
AcDbEntity
8
1
100
AcDbCircle
6
CONTINUOUS
62
5
10
199.541824
20
142.500000
40
0.500000
100
AcDbArc
50
89.999999
51
-118.358659
0
LINE
5
997
100
AcDbEntity
8
1
100
AcDbLine
6
CONTINUOUS
62
5
10
199.541824
20
143.000000
11
200.341824
21
143.000000
0
POLYLINE
5
998
100
AcDbEntity
8
1
6
CONTINUOUS
62
5
100
AcDb2dPolyline
66
1
10
0.0
20
0.0
30
0.0
70
0
0
VERTEX
5
999
100
AcDbEntity
8
1
100
AcDbVertex
100
AcDb2dVertex
62
5
10
201.341824
20
141.000000
0
VERTEX
5
99a
100
AcDbEntity
8
1
100
AcDbVertex
100
AcDb2dVertex
62
5
10
200.841824
20
141.500000
0
VERTEX
5
99b
100
AcDbEntity
8
1
100
AcDbVertex
100
AcDb2dVertex
62
5
10
200.341824
20
141.500000
0
VERTEX
5
99c
100
AcDbEntity
8
1
100
AcDbVertex
100
AcDb2dVertex
62
5
10
199.304329
20
142.060004
0
SEQEND
5
99d
100
AcDbEntity
8
1
0
ARC
5
99e
100
AcDbEntity
8
1
100
AcDbCircle
6
CONTINUOUS
62
5
10
199.341824
20
154.300000
40
0.300000
100
AcDbArc
50
-179.999998
51
-89.999999
0
LINE
5
99f
100
AcDbEntity
8
1
100
AcDbLine
6
CONTINUOUS
62
5
10
199.041824
20
154.300000
11
199.041824
21
154.500000
0
ARC
5
9a0
100
AcDbEntity
8
1
100
AcDbCircle
6
CONTINUOUS
62
5
10
200.041824
20
154.500000
40
1.000000
100
AcDbArc
50
89.999999
51
179.999998
0
POLYLINE
5
9a1
100
AcDbEntity
8
1
6
CONTINUOUS
62
5
100
AcDb2dPolyline
66
1
10
0.0
20
0.0
30
0.0
70
0
0
VERTEX
5
9a2
100
AcDbEntity
8
1
100
AcDbVertex
100
AcDb2dVertex
62
5
10
200.041824
20
155.500000
0
VERTEX
5
9a3
100
AcDbEntity
8
1
100
AcDbVertex
100
AcDb2dVertex
62
5
10
200.341824
20
155.500000
0
VERTEX
5
9a4
100
AcDbEntity
8
1
100
AcDbVertex
100
AcDb2dVertex
62
5
10
201.341824
20
156.500000
0
SEQEND
5
9a5
100
AcDbEntity
8
1
0
LINE
5
9a6
100
AcDbEntity
8
1
100
AcDbLine
6
CONTINUOUS
62
5
10
200.341824
20
154.000000
11
199.341824
21
154.000000
0
ARC
5
9a7
100
AcDbEntity
8
1
100
AcDbCircle
6
CONTINUOUS
62
5
10
195.541824
20
154.500000
40
1.000000
100
AcDbArc
50
-179.999998
51
-95.739170
0
LINE
5
9a8
100
AcDbEntity
8
1
100
AcDbLine
6
CONTINUOUS
62
5
10
194.541824
20
154.500000
11
194.541824
21
158.000000
0
ARC
5
9a9
100
AcDbEntity
8
1
100
AcDbCircle
6
CONTINUOUS
62
5
10
195.541824
20
158.000000
40
1.000000
100
AcDbArc
50
95.739170
51
179.999998
0
ARC
5
9aa
100
AcDbEntity
8
1
100
AcDbCircle
6
CONTINUOUS
62
5
10
195.341824
20
158.000000
40
1.000000
100
AcDbArc
50
46.268716
51
89.999999
0
ARC
5
9ab
100
AcDbEntity
8
1
100
AcDbCircle
6
CONTINUOUS
62
5
10
195.341824
20
158.000000
40
1.000000
100
AcDbArc
50
89.999999
51
-179.999998
0
LINE
5
9ac
100
AcDbEntity
8
1
100
AcDbLine
6
CONTINUOUS
62
5
10
194.341824
20
158.000000
11
194.341824
21
154.500000
0
ARC
5
9ad
100
AcDbEntity
8
1
100
AcDbCircle
6
CONTINUOUS
62
5
10
195.341824
20
154.500000
40
1.000000
100
AcDbArc
50
-179.999998
51
-89.999999
0
ARC
5
9ae
100
AcDbEntity
8
1
100
AcDbCircle
6
CONTINUOUS
62
5
10
195.341824
20
154.500000
40
1.000000
100
AcDbArc
50
-89.999999
51
-78.463040
0
ARC
5
9af
100
AcDbEntity
8
1
100
AcDbCircle
6
CONTINUOUS
62
5
10
197.341824
20
146.000000
40
0.500000
100
AcDbArc
50
179.999998
51
0.000000
0
LINE
5
9b0
100
AcDbEntity
8
1
100
AcDbLine
6
CONTINUOUS
62
5
10
196.841824
20
146.000000
11
196.841824
21
157.984436
0
ARC
5
9b1
100
AcDbEntity
8
1
100
AcDbCircle
6
CONTINUOUS
62
5
10
195.841824
20
160.000000
40
2.250000
100
AcDbArc
50
-63.612199
51
63.612199
0
LINE
5
9b2
100
AcDbEntity
8
1
100
AcDbLine
6
CONTINUOUS
62
5
10
196.841824
20
162.015564
11
196.841824
21
174.000000
0
ARC
5
9b3
100
AcDbEntity
8
1
100
AcDbCircle
6
CONTINUOUS
62
5
10
197.341824
20
174.000000
40
0.500000
100
AcDbArc
50
-0.000000
51
-179.999998
0
LINE
5
9b4
100
AcDbEntity
8
1
100
AcDbLine
6
CONTINUOUS
62
5
10
197.841824
20
174.000000
11
197.841824
21
162.561738
0
ARC
5
9b5
100
AcDbEntity
8
1
100
AcDbCircle
6
CONTINUOUS
62
5
10
195.841824
20
160.000000
40
3.250000
100
AcDbArc
50
-52.020127
51
52.020127
0
LINE
5
9b6
100
AcDbEntity
8
1
100
AcDbLine
6
CONTINUOUS
62
5
10
197.841824
20
157.438262
11
197.841824
21
146.000000
0
LINE
5
9b7
100
AcDbEntity
8
1
100
AcDbLine
6
CONTINUOUS
62
5
10
193.841824
20
176.800000
11
193.841824
21
143.200000
0
POLYLINE
5
9b8
100
AcDbEntity
8
0
6
CONTINUOUS
62
5
100
AcDb2dPolyline
66
1
10
0.0
20
0.0
30
0.0
70
1
0
VERTEX
5
9b9
100
AcDbEntity
8
0
100
AcDbVertex
100
AcDb2dVertex
62
5
10
211.638507
20
166.561870
0
VERTEX
5
9ba
100
AcDbEntity
8
0
100
AcDbVertex
100
AcDb2dVertex
62
5
10
211.529295
20
166.408973
0
VERTEX
5
9bb
100
AcDbEntity
8
0
100
AcDbVertex
100
AcDb2dVertex
62
5
10
211.463768
20
166.212392
0
VERTEX
5
9bc
100
AcDbEntity
8
0
100
AcDbVertex
100
AcDb2dVertex
62
5
10
211.441925
20
165.972126
0
VERTEX
5
9bd
100
AcDbEntity
8
0
100
AcDbVertex
100
AcDb2dVertex
62
5
10
211.463768
20
165.727111
0
VERTEX
5
9be
100
AcDbEntity
8
0
100
AcDbVertex
100
AcDb2dVertex
62
5
10
211.529295
20
165.527680
0
VERTEX
5
9bf
100
AcDbEntity
8
0
100
AcDbVertex
100
AcDb2dVertex
62
5
10
211.638507
20
165.373834
0
VERTEX
5
9c0
100
AcDbEntity
8
0
100
AcDbVertex
100
AcDb2dVertex
62
5
10
211.745820
20
165.293112
0
VERTEX
5
9c1
100
AcDbEntity
8
0
100
AcDbVertex
100
AcDb2dVertex
62
5
10
211.874025
20
165.244679
0
VERTEX
5
9c2
100
AcDbEntity
8
0
100
AcDbVertex
100
AcDb2dVertex
62
5
10
212.023123
20
165.228535
0
VERTEX
5
9c3
100
AcDbEntity
8
0
100
AcDbVertex
100
AcDb2dVertex
62
5
10
212.172221
20
165.244679
0
VERTEX
5
9c4
100
AcDbEntity
8
0
100
AcDbVertex
100
AcDb2dVertex
62
5
10
212.300426
20
165.293112
0
VERTEX
5
9c5
100
AcDbEntity
8
0
100
AcDbVertex
100
AcDb2dVertex
62
5
10
212.407739
20
165.373834
0
VERTEX
5
9c6
100
AcDbEntity
8
0
100
AcDbVertex
100
AcDb2dVertex
62
5
10
212.516951
20
165.527680
0
VERTEX
5
9c7
100
AcDbEntity
8
0
100
AcDbVertex
100
AcDb2dVertex
62
5
10
212.582478
20
165.727111
0
VERTEX
5
9c8
100
AcDbEntity
8
0
100
AcDbVertex
100
AcDb2dVertex
62
5
10
212.604321
20
165.972126
0
VERTEX
5
9c9
100
AcDbEntity
8
0
100
AcDbVertex
100
AcDb2dVertex
62
5
10
212.582478
20
166.212392
0
VERTEX
5
9ca
100
AcDbEntity
8
0
100
AcDbVertex
100
AcDb2dVertex
62
5
10
212.516951
20
166.408973
0
VERTEX
5
9cb
100
AcDbEntity
8
0
100
AcDbVertex
100
AcDb2dVertex
62
5
10
212.407739
20
166.561870
0
VERTEX
5
9cc
100
AcDbEntity
8
0
100
AcDbVertex
100
AcDb2dVertex
62
5
10
212.300426
20
166.642592
0
VERTEX
5
9cd
100
AcDbEntity
8
0
100
AcDbVertex
100
AcDb2dVertex
62
5
10
212.172221
20
166.691025
0
VERTEX
5
9ce
100
AcDbEntity
8
0
100
AcDbVertex
100
AcDb2dVertex
62
5
10
212.023123
20
166.707169
0
VERTEX
5
9cf
100
AcDbEntity
8
0
100
AcDbVertex
100
AcDb2dVertex
62
5
10
211.874025
20
166.691025
0
VERTEX
5
9d0
100
AcDbEntity
8
0
100
AcDbVertex
100
AcDb2dVertex
62
5
10
211.745820
20
166.642592
0
SEQEND
5
9d1
100
AcDbEntity
8
0
0
POLYLINE
5
9d2
100
AcDbEntity
8
0
6
CONTINUOUS
62
5
100
AcDb2dPolyline
66
1
10
0.0
20
0.0
30
0.0
70
1
0
VERTEX
5
9d3
100
AcDbEntity
8
0
100
AcDbVertex
100
AcDb2dVertex
62
5
10
212.553038
20
166.630246
0
VERTEX
5
9d4
100
AcDbEntity
8
0
100
AcDbVertex
100
AcDb2dVertex
62
5
10
212.681244
20
166.454557
0
VERTEX
5
9d5
100
AcDbEntity
8
0
100
AcDbVertex
100
AcDb2dVertex
62
5
10
212.758167
20
166.235184
0
VERTEX
5
9d6
100
AcDbEntity
8
0
100
AcDbVertex
100
AcDb2dVertex
62
5
10
212.783808
20
165.972126
0
VERTEX
5
9d7
100
AcDbEntity
8
0
100
AcDbVertex
100
AcDb2dVertex
62
5
10
212.758167
20
165.704319
0
VERTEX
5
9d8
100
AcDbEntity
8
0
100
AcDbVertex
100
AcDb2dVertex
62
5
10
212.681244
20
165.482096
0
VERTEX
5
9d9
100
AcDbEntity
8
0
100
AcDbVertex
100
AcDb2dVertex
62
5
10
212.553038
20
165.305458
0
VERTEX
5
9da
100
AcDbEntity
8
0
100
AcDbVertex
100
AcDb2dVertex
62
5
10
212.399192
20
165.186749
0
VERTEX
5
9db
100
AcDbEntity
8
0
100
AcDbVertex
100
AcDb2dVertex
62
5
10
212.222554
20
165.115524
0
VERTEX
5
9dc
100
AcDbEntity
8
0
100
AcDbVertex
100
AcDb2dVertex
62
5
10
212.023123
20
165.091782
0
VERTEX
5
9dd
100
AcDbEntity
8
0
100
AcDbVertex
100
AcDb2dVertex
62
5
10
211.823692
20
165.115524
0
VERTEX
5
9de
100
AcDbEntity
8
0
100
AcDbVertex
100
AcDb2dVertex
62
5
10
211.647054
20
165.186749
0
VERTEX
5
9df
100
AcDbEntity
8
0
100
AcDbVertex
100
AcDb2dVertex
62
5
10
211.493208
20
165.305458
0
VERTEX
5
9e0
100
AcDbEntity
8
0
100
AcDbVertex
100
AcDb2dVertex
62
5
10
211.365002
20
165.482096
0
VERTEX
5
9e1
100
AcDbEntity
8
0
100
AcDbVertex
100
AcDb2dVertex
62
5
10
211.288079
20
165.704319
0
VERTEX
5
9e2
100
AcDbEntity
8
0
100
AcDbVertex
100
AcDb2dVertex
62
5
10
211.262438
20
165.972126
0
VERTEX
5
9e3
100
AcDbEntity
8
0
100
AcDbVertex
100
AcDb2dVertex
62
5
10
211.288079
20
166.235184
0
VERTEX
5
9e4
100
AcDbEntity
8
0
100
AcDbVertex
100
AcDb2dVertex
62
5
10
211.365002
20
166.454557
0
VERTEX
5
9e5
100
AcDbEntity
8
0
100
AcDbVertex
100
AcDb2dVertex
62
5
10
211.493208
20
166.630246
0
VERTEX
5
9e6
100
AcDbEntity
8
0
100
AcDbVertex
100
AcDb2dVertex
62
5
10
211.647054
20
166.748955
0
VERTEX
5
9e7
100
AcDbEntity
8
0
100
AcDbVertex
100
AcDb2dVertex
62
5
10
211.823692
20
166.820180
0
VERTEX
5
9e8
100
AcDbEntity
8
0
100
AcDbVertex
100
AcDb2dVertex
62
5
10
212.023123
20
166.843922
0
VERTEX
5
9e9
100
AcDbEntity
8
0
100
AcDbVertex
100
AcDb2dVertex
62
5
10
212.222554
20
166.820180
0
VERTEX
5
9ea
100
AcDbEntity
8
0
100
AcDbVertex
100
AcDb2dVertex
62
5
10
212.399192
20
166.748955
0
SEQEND
5
9eb
100
AcDbEntity
8
0
0
ARC
5
9ec
100
AcDbEntity
8
1
100
AcDbCircle
6
CONTINUOUS
62
5
10
225.902232
20
178.300000
40
0.200000
100
AcDbArc
50
0.000000
51
89.999999
0
LINE
5
9ed
100
AcDbEntity
8
1
100
AcDbLine
6
CONTINUOUS
62
5
10
226.102232
20
178.300000
11
226.102232
21
164.700000
0
ARC
5
9ee
100
AcDbEntity
8
1
100
AcDbCircle
6
CONTINUOUS
62
5
10
225.902232
20
164.700000
40
0.200000
100
AcDbArc
50
-89.999999
51
0.000000
0
LINE
5
9ef
100
AcDbEntity
8
1
100
AcDbLine
6
CONTINUOUS
62
5
10
225.902232
20
164.500000
11
206.844772
21
164.500000
0
ARC
5
9f0
100
AcDbEntity
8
1
100
AcDbCircle
6
CONTINUOUS
62
5
10
206.844772
20
164.700000
40
0.200000
100
AcDbArc
50
179.999998
51
-89.999999
0
LINE
5
9f1
100
AcDbEntity
8
1
100
AcDbLine
6
CONTINUOUS
62
5
10
206.644772
20
164.700000
11
206.644772
21
178.300000
0
ARC
5
9f2
100
AcDbEntity
8
1
100
AcDbCircle
6
CONTINUOUS
62
5
10
206.844772
20
178.300000
40
0.200000
100
AcDbArc
50
89.999999
51
179.999998
0
LINE
5
9f3
100
AcDbEntity
8
1
100
AcDbLine
6
CONTINUOUS
62
5
10
206.844772
20
178.500000
11
225.902232
21
178.500000
0
ARC
5
9f4
100
AcDbEntity
8
1
100
AcDbCircle
6
CONTINUOUS
62
5
10
226.146708
20
164.100000
40
0.500000
100
AcDbArc
50
-89.999999
51
0.000000
0
LINE
5
9f5
100
AcDbEntity
8
1
100
AcDbLine
6
CONTINUOUS
62
5
10
226.146708
20
163.600000
11
203.711824
21
163.600000
0
LINE
5
9f6
100
AcDbEntity
8
1
100
AcDbLine
6
CONTINUOUS
62
5
10
203.711824
20
179.400000
11
226.146708
21
179.400000
0
ARC
5
9f7
100
AcDbEntity
8
1
100
AcDbCircle
6
CONTINUOUS
62
5
10
226.146708
20
178.900000
40
0.500000
100
AcDbArc
50
0.000000
51
89.999999
0
LINE
5
9f8
100
AcDbEntity
8
1
100
AcDbLine
6
CONTINUOUS
62
5
10
226.646708
20
178.900000
11
226.646708
21
164.100000
0
POLYLINE
5
9f9
100
AcDbEntity
8
1
6
CONTINUOUS
62
5
100
AcDb2dPolyline
66
1
10
0.0
20
0.0
30
0.0
70
1
0
VERTEX
5
9fa
100
AcDbEntity
8
1
100
AcDbVertex
100
AcDb2dVertex
62
5
10
203.711824
20
179.500000
0
VERTEX
5
9fb
100
AcDbEntity
8
1
100
AcDbVertex
100
AcDb2dVertex
62
5
10
226.971824
20
179.500000
0
VERTEX
5
9fc
100
AcDbEntity
8
1
100
AcDbVertex
100
AcDb2dVertex
62
5
10
226.971824
20
163.500000
0
VERTEX
5
9fd
100
AcDbEntity
8
1
100
AcDbVertex
100
AcDb2dVertex
62
5
10
203.711824
20
163.500000
0
VERTEX
5
9fe
100
AcDbEntity
8
1
100
AcDbVertex
100
AcDb2dVertex
62
5
10
203.711824
20
179.500000
0
SEQEND
5
9ff
100
AcDbEntity
8
1
0
ARC
5
a00
100
AcDbEntity
8
1
100
AcDbCircle
6
CONTINUOUS
62
5
10
202.041824
20
137.850000
40
0.700000
100
AcDbArc
50
179.999998
51
-89.999999
0
LINE
5
a01
100
AcDbEntity
8
1
100
AcDbLine
6
CONTINUOUS
62
5
10
202.041824
20
137.150000
11
228.641824
21
137.150000
0
ARC
5
a02
100
AcDbEntity
8
1
100
AcDbCircle
6
CONTINUOUS
62
5
10
228.641824
20
137.850000
40
0.700000
100
AcDbArc
50
-89.999999
51
0.000000
0
POLYLINE
5
a03
100
AcDbEntity
8
1
6
CONTINUOUS
62
5
100
AcDb2dPolyline
66
1
10
0.0
20
0.0
30
0.0
70
0
0
VERTEX
5
a04
100
AcDbEntity
8
1
100
AcDbVertex
100
AcDb2dVertex
62
5
10
229.341824
20
137.850000
0
VERTEX
5
a05
100
AcDbEntity
8
1
100
AcDbVertex
100
AcDb2dVertex
62
5
10
229.341824
20
142.000000
0
VERTEX
5
a06
100
AcDbEntity
8
1
100
AcDbVertex
100
AcDb2dVertex
62
5
10
229.341824
20
142.700000
0
VERTEX
5
a07
100
AcDbEntity
8
1
100
AcDbVertex
100
AcDb2dVertex
62
5
10
229.841824
20
142.700000
0
SEQEND
5
a08
100
AcDbEntity
8
1
0
ARC
5
a09
100
AcDbEntity
8
1
100
AcDbCircle
6
CONTINUOUS
62
5
10
229.841824
20
143.200000
40
0.500000
100
AcDbArc
50
-89.999999
51
0.000000
0
LINE
5
a0a
100
AcDbEntity
8
1
100
AcDbLine
6
CONTINUOUS
62
5
10
230.341824
20
143.200000
11
230.341824
21
154.500000
0
ARC
5
a0b
100
AcDbEntity
8
1
100
AcDbCircle
6
CONTINUOUS
62
5
10
229.841824
20
154.500000
40
0.500000
100
AcDbArc
50
0.000000
51
89.999999
0
POLYLINE
5
a0c
100
AcDbEntity
8
1
6
CONTINUOUS
62
5
100
AcDb2dPolyline
66
1
10
0.0
20
0.0
30
0.0
70
0
0
VERTEX
5
a0d
100
AcDbEntity
8
1
100
AcDbVertex
100
AcDb2dVertex
62
5
10
229.841824
20
155.000000
0
VERTEX
5
a0e
100
AcDbEntity
8
1
100
AcDbVertex
100
AcDb2dVertex
62
5
10
229.341824
20
155.000000
0
VERTEX
5
a0f
100
AcDbEntity
8
1
100
AcDbVertex
100
AcDb2dVertex
62
5
10
229.341824
20
160.850000
0
SEQEND
5
a10
100
AcDbEntity
8
1
0
POLYLINE
5
a11
100
AcDbEntity
8
1
6
CONTINUOUS
62
5
100
AcDb2dPolyline
66
1
10
0.0
20
0.0
30
0.0
70
0
0
VERTEX
5
a12
100
AcDbEntity
8
1
100
AcDbVertex
100
AcDb2dVertex
62
5
10
201.341824
20
160.850000
0
VERTEX
5
a13
100
AcDbEntity
8
1
100
AcDbVertex
100
AcDb2dVertex
62
5
10
201.341824
20
155.000000
0
VERTEX
5
a14
100
AcDbEntity
8
1
100
AcDbVertex
100
AcDb2dVertex
62
5
10
200.841824
20
155.000000
0
SEQEND
5
a15
100
AcDbEntity
8
1
0
ARC
5
a16
100
AcDbEntity
8
1
100
AcDbCircle
6
CONTINUOUS
62
5
10
200.841824
20
154.500000
40
0.500000
100
AcDbArc
50
89.999999
51
179.999998
0
LINE
5
a17
100
AcDbEntity
8
1
100
AcDbLine
6
CONTINUOUS
62
5
10
200.341824
20
154.500000
11
200.341824
21
143.200000
0
ARC
5
a18
100
AcDbEntity
8
1
100
AcDbCircle
6
CONTINUOUS
62
5
10
200.841824
20
143.200000
40
0.500000
100
AcDbArc
50
179.999998
51
-89.999999
0
POLYLINE
5
a19
100
AcDbEntity
8
1
6
CONTINUOUS
62
5
100
AcDb2dPolyline
66
1
10
0.0
20
0.0
30
0.0
70
0
0
VERTEX
5
a1a
100
AcDbEntity
8
1
100
AcDbVertex
100
AcDb2dVertex
62
5
10
200.841824
20
142.700000
0
VERTEX
5
a1b
100
AcDbEntity
8
1
100
AcDbVertex
100
AcDb2dVertex
62
5
10
201.341824
20
142.700000
0
VERTEX
5
a1c
100
AcDbEntity
8
1
100
AcDbVertex
100
AcDb2dVertex
62
5
10
201.341824
20
137.850000
0
SEQEND
5
a1d
100
AcDbEntity
8
1
0
POLYLINE
5
a1e
100
AcDbEntity
8
1
6
DOT2
62
5
100
AcDb2dPolyline
66
1
10
0.0
20
0.0
30
0.0
70
0
0
VERTEX
5
a1f
100
AcDbEntity
8
1
100
AcDbVertex
100
AcDb2dVertex
62
5
10
253.691824
20
153.750000
0
VERTEX
5
a20
100
AcDbEntity
8
1
100
AcDbVertex
100
AcDb2dVertex
62
5
10
259.316824
20
150.937500
0
VERTEX
5
a21
100
AcDbEntity
8
1
100
AcDbVertex
100
AcDb2dVertex
62
5
10
259.316824
20
154.687500
0
SEQEND
5
a22
100
AcDbEntity
8
1
0
LINE
5
a23
100
AcDbEntity
8
1
100
AcDbLine
6
DOT2
62
5
10
253.691824
20
153.750000
11
261.191824
21
153.750000
0
LINE
5
a24
100
AcDbEntity
8
1
100
AcDbLine
6
DOT2
62
5
10
261.191824
20
153.125000
11
261.191824
21
154.375000
0
LINE
5
a25
100
AcDbEntity
8
1
100
AcDbLine
6
DOT2
62
5
10
253.691824
20
156.250000
11
253.691824
21
159.062500
0
POLYLINE
5
a26
100
AcDbEntity
8
1
6
DOT2
62
5
100
AcDb2dPolyline
66
1
10
0.0
20
0.0
30
0.0
70
0
0
VERTEX
5
a27
100
AcDbEntity
8
1
100
AcDbVertex
100
AcDb2dVertex
62
5
10
253.691824
20
156.250000
0
VERTEX
5
a28
100
AcDbEntity
8
1
100
AcDbVertex
100
AcDb2dVertex
62
5
10
257.441824
20
156.250000
0
VERTEX
5
a29
100
AcDbEntity
8
1
100
AcDbVertex
100
AcDb2dVertex
62
5
10
256.816824
20
156.875000
0
VERTEX
5
a2a
100
AcDbEntity
8
1
100
AcDbVertex
100
AcDb2dVertex
62
5
10
256.504324
20
157.500000
0
VERTEX
5
a2b
100
AcDbEntity
8
1
100
AcDbVertex
100
AcDb2dVertex
62
5
10
256.504324
20
158.437500
0
VERTEX
5
a2c
100
AcDbEntity
8
1
100
AcDbVertex
100
AcDb2dVertex
62
5
10
256.816824
20
159.062500
0
VERTEX
5
a2d
100
AcDbEntity
8
1
100
AcDbVertex
100
AcDb2dVertex
62
5
10
257.754324
20
159.375000
0
VERTEX
5
a2e
100
AcDbEntity
8
1
100
AcDbVertex
100
AcDb2dVertex
62
5
10
259.629324
20
159.375000
0
VERTEX
5
a2f
100
AcDbEntity
8
1
100
AcDbVertex
100
AcDb2dVertex
62
5
10
260.566824
20
158.750000
0
VERTEX
5
a30
100
AcDbEntity
8
1
100
AcDbVertex
100
AcDb2dVertex
62
5
10
261.191824
20
157.812500
0
VERTEX
5
a31
100
AcDbEntity
8
1
100
AcDbVertex
100
AcDb2dVertex
62
5
10
261.191824
20
156.250000
0
SEQEND
5
a32
100
AcDbEntity
8
1
0
POLYLINE
5
a33
100
AcDbEntity
8
1
6
DOT2
62
5
100
AcDb2dPolyline
66
1
10
0.0
20
0.0
30
0.0
70
0
0
VERTEX
5
a34
100
AcDbEntity
8
1
100
AcDbVertex
100
AcDb2dVertex
62
5
10
254.629324
20
166.250000
0
VERTEX
5
a35
100
AcDbEntity
8
1
100
AcDbVertex
100
AcDb2dVertex
62
5
10
253.691824
20
166.250000
0
VERTEX
5
a36
100
AcDbEntity
8
1
100
AcDbVertex
100
AcDb2dVertex
62
5
10
253.691824
20
169.375000
0
VERTEX
5
a37
100
AcDbEntity
8
1
100
AcDbVertex
100
AcDb2dVertex
62
5
10
254.316824
20
169.375000
0
VERTEX
5
a38
100
AcDbEntity
8
1
100
AcDbVertex
100
AcDb2dVertex
62
5
10
255.879324
20
168.750000
0
VERTEX
5
a39
100
AcDbEntity
8
1
100
AcDbVertex
100
AcDb2dVertex
62
5
10
258.066824
20
168.125000
0
VERTEX
5
a3a
100
AcDbEntity
8
1
100
AcDbVertex
100
AcDb2dVertex
62
5
10
261.191824
20
167.500000
0
SEQEND
5
a3b
100
AcDbEntity
8
1
0
ARC
5
a3c
100
AcDbEntity
8
1
100
AcDbCircle
6
CONTINUOUS
62
5
10
137.741824
20
179.024625
40
0.500000
100
AcDbArc
50
0.000000
51
89.999999
0
LINE
5
a3d
100
AcDbEntity
8
1
100
AcDbLine
6
CONTINUOUS
62
5
10
137.741824
20
179.524625
11
134.858176
21
179.524625
0
LINE
5
a3e
100
AcDbEntity
8
1
100
AcDbLine
6
CONTINUOUS
62
5
10
134.858176
20
163.724625
11
137.741824
21
163.724625
0
ARC
5
a3f
100
AcDbEntity
8
1
100
AcDbCircle
6
CONTINUOUS
62
5
10
137.741824
20
164.224625
40
0.500000
100
AcDbArc
50
-89.999999
51
0.000000
0
LINE
5
a40
100
AcDbEntity
8
1
100
AcDbLine
6
CONTINUOUS
62
5
10
138.241824
20
164.224625
11
138.241824
21
179.024625
0
LINE
5
a41
100
AcDbEntity
8
1
100
AcDbLine
6
CONTINUOUS
62
5
10
126.958176
20
176.924625
11
126.158176
21
176.924625
0
ARC
5
a42
100
AcDbEntity
8
1
100
AcDbCircle
6
CONTINUOUS
62
5
10
125.658176
20
177.124812
40
0.500000
100
AcDbArc
50
-89.999999
51
-0.000000
0
LINE
5
a43
100
AcDbEntity
8
1
100
AcDbLine
6
CONTINUOUS
62
5
10
122.158176
20
176.624812
11
125.658176
21
176.624812
0
ARC
5
a44
100
AcDbEntity
8
1
100
AcDbCircle
6
CONTINUOUS
62
5
10
125.658176
20
166.124812
40
0.500000
100
AcDbArc
50
0.000000
51
89.999999
0
LINE
5
a45
100
AcDbEntity
8
1
100
AcDbLine
6
CONTINUOUS
62
5
10
125.658176
20
166.624812
11
122.158176
21
166.624812
0
LINE
5
a46
100
AcDbEntity
8
1
100
AcDbLine
6
CONTINUOUS
62
5
10
126.958176
20
166.324625
11
126.158176
21
166.324625
0
LINE
5
a47
100
AcDbEntity
8
1
100
AcDbLine
6
CONTINUOUS
62
5
10
126.958176
20
163.424625
11
126.158176
21
163.424625
0
ARC
5
a48
100
AcDbEntity
8
1
100
AcDbCircle
6
CONTINUOUS
62
5
10
125.658176
20
161.624625
40
0.500000
100
AcDbArc
50
-89.999999
51
0.000000
0
LINE
5
a49
100
AcDbEntity
8
1
100
AcDbLine
6
CONTINUOUS
62
5
10
122.158176
20
161.124625
11
125.658176
21
161.124625
0
LINE
5
a4a
100
AcDbEntity
8
1
100
AcDbLine
6
CONTINUOUS
62
5
10
122.158176
20
161.124625
11
122.158176
21
161.124625
0
ARC
5
a4b
100
AcDbEntity
8
1
100
AcDbCircle
6
CONTINUOUS
62
5
10
125.658176
20
158.624625
40
0.500000
100
AcDbArc
50
0.000000
51
89.999999
0
LINE
5
a4c
100
AcDbEntity
8
1
100
AcDbLine
6
CONTINUOUS
62
5
10
122.158176
20
159.124625
11
125.658176
21
159.124625
0
LINE
5
a4d
100
AcDbEntity
8
1
100
AcDbLine
6
CONTINUOUS
62
5
10
122.158176
20
159.124625
11
122.158176
21
159.124625
0
LINE
5
a4e
100
AcDbEntity
8
1
100
AcDbLine
6
CONTINUOUS
62
5
10
126.358176
20
166.324625
11
126.358176
21
163.424625
0
LINE
5
a4f
100
AcDbEntity
8
1
100
AcDbLine
6
CONTINUOUS
62
5
10
126.958176
20
156.824625
11
126.158176
21
156.824625
0
LINE
5
a50
100
AcDbEntity
8
1
100
AcDbLine
6
CONTINUOUS
62
5
10
126.958176
20
153.924625
11
126.158176
21
153.924625
0
LINE
5
a51
100
AcDbEntity
8
1
100
AcDbLine
6
CONTINUOUS
62
5
10
126.958176
20
140.424625
11
126.158176
21
140.424625
0
LINE
5
a52
100
AcDbEntity
8
1
100
AcDbLine
6
CONTINUOUS
62
5
10
126.958176
20
143.324625
11
126.158176
21
143.324625
0
LINE
5
a53
100
AcDbEntity
8
1
100
AcDbLine
6
CONTINUOUS
62
5
10
126.358176
20
143.324625
11
126.358176
21
140.424625
0
ARC
5
a54
100
AcDbEntity
8
1
100
AcDbCircle
6
CONTINUOUS
62
5
10
125.658176
20
154.124813
40
0.500000
100
AcDbArc
50
-89.999998
51
-0.000003
0
LINE
5
a55
100
AcDbEntity
8
1
100
AcDbLine
6
CONTINUOUS
62
5
10
122.158176
20
153.624812
11
125.658176
21
153.624812
0
ARC
5
a56
100
AcDbEntity
8
1
100
AcDbCircle
6
CONTINUOUS
62
5
10
125.658176
20
143.124812
40
0.500000
100
AcDbArc
50
0.000000
51
89.999999
0
LINE
5
a57
100
AcDbEntity
8
1
100
AcDbLine
6
CONTINUOUS
62
5
10
125.658176
20
143.624812
11
122.158176
21
143.624812
0
LINE
5
a58
100
AcDbEntity
8
1
100
AcDbLine
6
CONTINUOUS
62
5
10
126.958176
20
138.775436
11
126.158176
21
138.775436
0
ARC
5
a59
100
AcDbEntity
8
1
100
AcDbCircle
6
CONTINUOUS
62
5
10
109.758176
20
138.602488
40
1.000000
100
AcDbArc
50
-179.999998
51
-91.282526
0
LINE
5
a5a
100
AcDbEntity
8
1
100
AcDbLine
6
CONTINUOUS
62
5
10
109.735793
20
137.602738
11
122.158176
21
137.324625
0
LINE
5
a5b
100
AcDbEntity
8
1
100
AcDbLine
6
CONTINUOUS
62
5
10
108.758176
20
139.036204
11
108.758176
21
138.602488
0
LINE
5
a5c
100
AcDbEntity
8
1
100
AcDbLine
6
CONTINUOUS
62
5
10
126.358176
20
153.924625
11
126.358176
21
156.824625
0
ARC
5
a5d
100
AcDbEntity
8
1
100
AcDbCircle
6
CONTINUOUS
62
5
10
128.258176
20
168.274625
40
0.300000
100
AcDbArc
50
-89.999999
51
0.000000
0
LINE
5
a5e
100
AcDbEntity
8
1
100
AcDbLine
6
CONTINUOUS
62
5
10
128.558176
20
168.274625
11
128.558176
21
174.974625
0
ARC
5
a5f
100
AcDbEntity
8
1
100
AcDbCircle
6
CONTINUOUS
62
5
10
128.258176
20
174.974625
40
0.300000
100
AcDbArc
50
0.000000
51
89.999999
0
LINE
5
a60
100
AcDbEntity
8
1
100
AcDbLine
6
CONTINUOUS
62
5
10
128.258176
20
175.274625
11
126.958176
21
175.274625
0
LINE
5
a61
100
AcDbEntity
8
1
100
AcDbLine
6
CONTINUOUS
62
5
10
126.958176
20
167.974625
11
128.258176
21
167.974625
0
ARC
5
a62
100
AcDbEntity
8
1
100
AcDbCircle
6
CONTINUOUS
62
5
10
128.658176
20
175.624625
40
1.500000
100
AcDbArc
50
-0.000000
51
83.576054
0
LINE
5
a63
100
AcDbEntity
8
1
100
AcDbLine
6
CONTINUOUS
62
5
10
128.826002
20
177.115207
11
126.958176
21
177.124625
0
ARC
5
a64
100
AcDbEntity
8
1
100
AcDbCircle
6
CONTINUOUS
62
5
10
128.658176
20
167.624625
40
1.500000
100
AcDbArc
50
-89.999999
51
-0.000000
0
LINE
5
a65
100
AcDbEntity
8
1
100
AcDbLine
6
CONTINUOUS
62
5
10
126.958176
20
166.124625
11
128.658176
21
166.124625
0
ARC
5
a66
100
AcDbEntity
8
1
100
AcDbCircle
6
CONTINUOUS
62
5
10
129.658176
20
165.624812
40
0.500000
100
AcDbArc
50
-89.999999
51
0.000000
0
LINE
5
a67
100
AcDbEntity
8
1
100
AcDbLine
6
CONTINUOUS
62
5
10
129.658176
20
165.124812
11
126.958176
21
165.124812
0
LINE
5
a68
100
AcDbEntity
8
1
100
AcDbLine
6
CONTINUOUS
62
5
10
126.958176
20
178.124812
11
129.658176
21
178.124812
0
ARC
5
a69
100
AcDbEntity
8
1
100
AcDbCircle
6
CONTINUOUS
62
5
10
129.658176
20
177.624812
40
0.500000
100
AcDbArc
50
0.000000
51
89.999999
0
LINE
5
a6a
100
AcDbEntity
8
1
100
AcDbLine
6
CONTINUOUS
62
5
10
130.158176
20
177.624812
11
130.158176
21
165.624812
0
ARC
5
a6b
100
AcDbEntity
8
1
100
AcDbCircle
6
CONTINUOUS
62
5
10
128.258176
20
145.274625
40
0.300000
100
AcDbArc
50
-89.999999
51
0.000000
0
LINE
5
a6c
100
AcDbEntity
8
1
100
AcDbLine
6
CONTINUOUS
62
5
10
128.558176
20
145.274625
11
128.558176
21
151.974625
0
ARC
5
a6d
100
AcDbEntity
8
1
100
AcDbCircle
6
CONTINUOUS
62
5
10
128.258176
20
151.974625
40
0.300000
100
AcDbArc
50
0.000000
51
89.999999
0
LINE
5
a6e
100
AcDbEntity
8
1
100
AcDbLine
6
CONTINUOUS
62
5
10
128.258176
20
152.274625
11
126.958176
21
152.274625
0
LINE
5
a6f
100
AcDbEntity
8
1
100
AcDbLine
6
CONTINUOUS
62
5
10
126.958176
20
144.974625
11
128.258176
21
144.974625
0
ARC
5
a70
100
AcDbEntity
8
1
100
AcDbCircle
6
CONTINUOUS
62
5
10
128.658176
20
152.624625
40
1.500000
100
AcDbArc
50
0.000001
51
83.576053
0
LINE
5
a71
100
AcDbEntity
8
1
100
AcDbLine
6
CONTINUOUS
62
5
10
128.826002
20
154.115207
11
126.958176
21
154.124625
0
ARC
5
a72
100
AcDbEntity
8
1
100
AcDbCircle
6
CONTINUOUS
62
5
10
128.658176
20
144.624625
40
1.500000
100
AcDbArc
50
-89.999999
51
-0.000000
0
LINE
5
a73
100
AcDbEntity
8
1
100
AcDbLine
6
CONTINUOUS
62
5
10
126.958176
20
143.124625
11
128.658176
21
143.124625
0
ARC
5
a74
100
AcDbEntity
8
1
100
AcDbCircle
6
CONTINUOUS
62
5
10
129.658176
20
142.624625
40
0.500000
100
AcDbArc
50
-89.999999
51
0.000000
0
LINE
5
a75
100
AcDbEntity
8
1
100
AcDbLine
6
CONTINUOUS
62
5
10
126.958176
20
142.124625
11
129.658176
21
142.124625
0
ARC
5
a76
100
AcDbEntity
8
1
100
AcDbCircle
6
CONTINUOUS
62
5
10
129.658176
20
154.624625
40
0.500000
100
AcDbArc
50
0.000000
51
89.999999
0
LINE
5
a77
100
AcDbEntity
8
1
100
AcDbLine
6
CONTINUOUS
62
5
10
126.958176
20
155.124625
11
129.658176
21
155.124625
0
LINE
5
a78
100
AcDbEntity
8
1
100
AcDbLine
6
CONTINUOUS
62
5
10
132.500000
20
42.000000
11
135.625000
21
42.000000
0
LINE
5
a79
100
AcDbEntity
8
1
100
AcDbLine
6
CONTINUOUS
62
5
10
118.125000
20
38.875000
11
117.500000
21
38.250000
0
POLYLINE
5
a7a
100
AcDbEntity
8
1
6
CONTINUOUS
62
5
100
AcDb2dPolyline
66
1
10
0.0
20
0.0
30
0.0
70
0
0
VERTEX
5
a7b
100
AcDbEntity
8
1
100
AcDbVertex
100
AcDb2dVertex
62
5
10
117.500000
20
38.875000
0
VERTEX
5
a7c
100
AcDbEntity
8
1
100
AcDbVertex
100
AcDb2dVertex
62
5
10
118.125000
20
38.250000
0
VERTEX
5
a7d
100
AcDbEntity
8
1
100
AcDbVertex
100
AcDb2dVertex
62
5
10
117.500000
20
38.250000
0
VERTEX
5
a7e
100
AcDbEntity
8
1
100
AcDbVertex
100
AcDb2dVertex
62
5
10
117.500000
20
38.875000
0
VERTEX
5
a7f
100
AcDbEntity
8
1
100
AcDbVertex
100
AcDb2dVertex
62
5
10
118.125000
20
38.875000
0
VERTEX
5
a80
100
AcDbEntity
8
1
100
AcDbVertex
100
AcDb2dVertex
62
5
10
118.125000
20
38.250000
0
SEQEND
5
a81
100
AcDbEntity
8
1
0
POLYLINE
5
a82
100
AcDbEntity
8
1
6
CONTINUOUS
62
5
100
AcDb2dPolyline
66
1
10
0.0
20
0.0
30
0.0
70
1
0
VERTEX
5
a83
100
AcDbEntity
8
1
100
AcDbVertex
100
AcDb2dVertex
62
5
10
113.750000
20
45.750000
0
VERTEX
5
a84
100
AcDbEntity
8
1
100
AcDbVertex
100
AcDb2dVertex
62
5
10
114.375000
20
45.750000
0
VERTEX
5
a85
100
AcDbEntity
8
1
100
AcDbVertex
100
AcDb2dVertex
62
5
10
114.687500
20
45.437500
0
VERTEX
5
a86
100
AcDbEntity
8
1
100
AcDbVertex
100
AcDb2dVertex
62
5
10
115.312500
20
44.187500
0
VERTEX
5
a87
100
AcDbEntity
8
1
100
AcDbVertex
100
AcDb2dVertex
62
5
10
115.625000
20
42.937500
0
VERTEX
5
a88
100
AcDbEntity
8
1
100
AcDbVertex
100
AcDb2dVertex
62
5
10
115.625000
20
41.062500
0
VERTEX
5
a89
100
AcDbEntity
8
1
100
AcDbVertex
100
AcDb2dVertex
62
5
10
115.312500
20
39.812500
0
VERTEX
5
a8a
100
AcDbEntity
8
1
100
AcDbVertex
100
AcDb2dVertex
62
5
10
114.687500
20
38.562500
0
VERTEX
5
a8b
100
AcDbEntity
8
1
100
AcDbVertex
100
AcDb2dVertex
62
5
10
114.375000
20
38.250000
0
VERTEX
5
a8c
100
AcDbEntity
8
1
100
AcDbVertex
100
AcDb2dVertex
62
5
10
113.750000
20
38.250000
0
VERTEX
5
a8d
100
AcDbEntity
8
1
100
AcDbVertex
100
AcDb2dVertex
62
5
10
113.437500
20
38.562500
0
VERTEX
5
a8e
100
AcDbEntity
8
1
100
AcDbVertex
100
AcDb2dVertex
62
5
10
112.812500
20
39.812500
0
VERTEX
5
a8f
100
AcDbEntity
8
1
100
AcDbVertex
100
AcDb2dVertex
62
5
10
112.500000
20
41.062500
0
VERTEX
5
a90
100
AcDbEntity
8
1
100
AcDbVertex
100
AcDb2dVertex
62
5
10
112.500000
20
42.937500
0
VERTEX
5
a91
100
AcDbEntity
8
1
100
AcDbVertex
100
AcDb2dVertex
62
5
10
112.812500
20
44.187500
0
VERTEX
5
a92
100
AcDbEntity
8
1
100
AcDbVertex
100
AcDb2dVertex
62
5
10
113.437500
20
45.437500
0
VERTEX
5
a93
100
AcDbEntity
8
1
100
AcDbVertex
100
AcDb2dVertex
62
5
10
113.750000
20
45.750000
0
SEQEND
5
a94
100
AcDbEntity
8
1
0
LINE
5
a95
100
AcDbEntity
8
1
100
AcDbLine
6
CONTINUOUS
62
5
10
122.500000
20
45.750000
11
125.312500
21
45.750000
0
POLYLINE
5
a96
100
AcDbEntity
8
1
6
CONTINUOUS
62
5
100
AcDb2dPolyline
66
1
10
0.0
20
0.0
30
0.0
70
0
0
VERTEX
5
a97
100
AcDbEntity
8
1
100
AcDbVertex
100
AcDb2dVertex
62
5
10
122.500000
20
45.750000
0
VERTEX
5
a98
100
AcDbEntity
8
1
100
AcDbVertex
100
AcDb2dVertex
62
5
10
122.500000
20
42.000000
0
VERTEX
5
a99
100
AcDbEntity
8
1
100
AcDbVertex
100
AcDb2dVertex
62
5
10
123.125000
20
42.625000
0
VERTEX
5
a9a
100
AcDbEntity
8
1
100
AcDbVertex
100
AcDb2dVertex
62
5
10
123.750000
20
42.937500
0
VERTEX
5
a9b
100
AcDbEntity
8
1
100
AcDbVertex
100
AcDb2dVertex
62
5
10
124.687500
20
42.937500
0
VERTEX
5
a9c
100
AcDbEntity
8
1
100
AcDbVertex
100
AcDb2dVertex
62
5
10
125.312500
20
42.625000
0
VERTEX
5
a9d
100
AcDbEntity
8
1
100
AcDbVertex
100
AcDb2dVertex
62
5
10
125.625000
20
41.687500
0
VERTEX
5
a9e
100
AcDbEntity
8
1
100
AcDbVertex
100
AcDb2dVertex
62
5
10
125.625000
20
39.812500
0
VERTEX
5
a9f
100
AcDbEntity
8
1
100
AcDbVertex
100
AcDb2dVertex
62
5
10
125.000000
20
38.875000
0
VERTEX
5
aa0
100
AcDbEntity
8
1
100
AcDbVertex
100
AcDb2dVertex
62
5
10
124.062500
20
38.250000
0
VERTEX
5
aa1
100
AcDbEntity
8
1
100
AcDbVertex
100
AcDb2dVertex
62
5
10
122.500000
20
38.250000
0
SEQEND
5
aa2
100
AcDbEntity
8
1
0
POLYLINE
5
aa3
100
AcDbEntity
8
1
6
CONTINUOUS
62
5
100
AcDb2dPolyline
66
1
10
0.0
20
0.0
30
0.0
70
0
0
VERTEX
5
aa4
100
AcDbEntity
8
1
100
AcDbVertex
100
AcDb2dVertex
62
5
10
127.500000
20
38.250000
0
VERTEX
5
aa5
100
AcDbEntity
8
1
100
AcDbVertex
100
AcDb2dVertex
62
5
10
129.062500
20
45.750000
0
VERTEX
5
aa6
100
AcDbEntity
8
1
100
AcDbVertex
100
AcDb2dVertex
62
5
10
130.625000
20
38.250000
0
SEQEND
5
aa7
100
AcDbEntity
8
1
0
LINE
5
aa8
100
AcDbEntity
8
1
100
AcDbLine
6
CONTINUOUS
62
5
10
128.125000
20
40.750000
11
130.000000
21
40.750000
0
POLYLINE
5
aa9
100
AcDbEntity
8
1
6
CONTINUOUS
62
5
100
AcDb2dPolyline
66
1
10
0.0
20
0.0
30
0.0
70
0
0
VERTEX
5
aaa
100
AcDbEntity
8
1
100
AcDbVertex
100
AcDb2dVertex
62
5
10
137.500000
20
43.875000
0
VERTEX
5
aab
100
AcDbEntity
8
1
100
AcDbVertex
100
AcDb2dVertex
62
5
10
137.812500
20
45.125000
0
VERTEX
5
aac
100
AcDbEntity
8
1
100
AcDbVertex
100
AcDb2dVertex
62
5
10
138.437500
20
45.750000
0
VERTEX
5
aad
100
AcDbEntity
8
1
100
AcDbVertex
100
AcDb2dVertex
62
5
10
139.375000
20
45.750000
0
VERTEX
5
aae
100
AcDbEntity
8
1
100
AcDbVertex
100
AcDb2dVertex
62
5
10
140.000000
20
45.437500
0
VERTEX
5
aaf
100
AcDbEntity
8
1
100
AcDbVertex
100
AcDb2dVertex
62
5
10
140.312500
20
44.500000
0
VERTEX
5
ab0
100
AcDbEntity
8
1
100
AcDbVertex
100
AcDb2dVertex
62
5
10
140.312500
20
43.250000
0
VERTEX
5
ab1
100
AcDbEntity
8
1
100
AcDbVertex
100
AcDb2dVertex
62
5
10
140.000000
20
42.625000
0
VERTEX
5
ab2
100
AcDbEntity
8
1
100
AcDbVertex
100
AcDb2dVertex
62
5
10
139.375000
20
42.000000
0
VERTEX
5
ab3
100
AcDbEntity
8
1
100
AcDbVertex
100
AcDb2dVertex
62
5
10
138.437500
20
42.000000
0
SEQEND
5
ab4
100
AcDbEntity
8
1
0
POLYLINE
5
ab5
100
AcDbEntity
8
1
6
CONTINUOUS
62
5
100
AcDb2dPolyline
66
1
10
0.0
20
0.0
30
0.0
70
0
0
VERTEX
5
ab6
100
AcDbEntity
8
1
100
AcDbVertex
100
AcDb2dVertex
62
5
10
139.375000
20
42.000000
0
VERTEX
5
ab7
100
AcDbEntity
8
1
100
AcDbVertex
100
AcDb2dVertex
62
5
10
140.312500
20
41.375000
0
VERTEX
5
ab8
100
AcDbEntity
8
1
100
AcDbVertex
100
AcDb2dVertex
62
5
10
140.625000
20
40.437500
0
VERTEX
5
ab9
100
AcDbEntity
8
1
100
AcDbVertex
100
AcDb2dVertex
62
5
10
140.625000
20
39.500000
0
VERTEX
5
aba
100
AcDbEntity
8
1
100
AcDbVertex
100
AcDb2dVertex
62
5
10
140.312500
20
38.875000
0
VERTEX
5
abb
100
AcDbEntity
8
1
100
AcDbVertex
100
AcDb2dVertex
62
5
10
139.375000
20
38.250000
0
VERTEX
5
abc
100
AcDbEntity
8
1
100
AcDbVertex
100
AcDb2dVertex
62
5
10
138.437500
20
38.250000
0
VERTEX
5
abd
100
AcDbEntity
8
1
100
AcDbVertex
100
AcDb2dVertex
62
5
10
137.812500
20
38.562500
0
VERTEX
5
abe
100
AcDbEntity
8
1
100
AcDbVertex
100
AcDb2dVertex
62
5
10
137.187500
20
39.500000
0
SEQEND
5
abf
100
AcDbEntity
8
1
0
POLYLINE
5
ac0
100
AcDbEntity
8
1
6
CONTINUOUS
62
5
100
AcDb2dPolyline
66
1
10
0.0
20
0.0
30
0.0
70
1
0
VERTEX
5
ac1
100
AcDbEntity
8
1
100
AcDbVertex
100
AcDb2dVertex
62
5
10
143.750000
20
45.750000
0
VERTEX
5
ac2
100
AcDbEntity
8
1
100
AcDbVertex
100
AcDb2dVertex
62
5
10
144.375000
20
45.750000
0
VERTEX
5
ac3
100
AcDbEntity
8
1
100
AcDbVertex
100
AcDb2dVertex
62
5
10
144.687500
20
45.437500
0
VERTEX
5
ac4
100
AcDbEntity
8
1
100
AcDbVertex
100
AcDb2dVertex
62
5
10
145.312500
20
44.187500
0
VERTEX
5
ac5
100
AcDbEntity
8
1
100
AcDbVertex
100
AcDb2dVertex
62
5
10
145.625000
20
42.937500
0
VERTEX
5
ac6
100
AcDbEntity
8
1
100
AcDbVertex
100
AcDb2dVertex
62
5
10
145.625000
20
41.062500
0
VERTEX
5
ac7
100
AcDbEntity
8
1
100
AcDbVertex
100
AcDb2dVertex
62
5
10
145.312500
20
39.812500
0
VERTEX
5
ac8
100
AcDbEntity
8
1
100
AcDbVertex
100
AcDb2dVertex
62
5
10
144.687500
20
38.562500
0
VERTEX
5
ac9
100
AcDbEntity
8
1
100
AcDbVertex
100
AcDb2dVertex
62
5
10
144.375000
20
38.250000
0
VERTEX
5
aca
100
AcDbEntity
8
1
100
AcDbVertex
100
AcDb2dVertex
62
5
10
143.750000
20
38.250000
0
VERTEX
5
acb
100
AcDbEntity
8
1
100
AcDbVertex
100
AcDb2dVertex
62
5
10
143.437500
20
38.562500
0
VERTEX
5
acc
100
AcDbEntity
8
1
100
AcDbVertex
100
AcDb2dVertex
62
5
10
142.812500
20
39.812500
0
VERTEX
5
acd
100
AcDbEntity
8
1
100
AcDbVertex
100
AcDb2dVertex
62
5
10
142.500000
20
41.062500
0
VERTEX
5
ace
100
AcDbEntity
8
1
100
AcDbVertex
100
AcDb2dVertex
62
5
10
142.500000
20
42.937500
0
VERTEX
5
acf
100
AcDbEntity
8
1
100
AcDbVertex
100
AcDb2dVertex
62
5
10
142.812500
20
44.187500
0
VERTEX
5
ad0
100
AcDbEntity
8
1
100
AcDbVertex
100
AcDb2dVertex
62
5
10
143.437500
20
45.437500
0
VERTEX
5
ad1
100
AcDbEntity
8
1
100
AcDbVertex
100
AcDb2dVertex
62
5
10
143.750000
20
45.750000
0
SEQEND
5
ad2
100
AcDbEntity
8
1
0
POLYLINE
5
ad3
100
AcDbEntity
8
1
6
CONTINUOUS
62
5
100
AcDb2dPolyline
66
1
10
0.0
20
0.0
30
0.0
70
1
0
VERTEX
5
ad4
100
AcDbEntity
8
1
100
AcDbVertex
100
AcDb2dVertex
62
5
10
148.750000
20
45.750000
0
VERTEX
5
ad5
100
AcDbEntity
8
1
100
AcDbVertex
100
AcDb2dVertex
62
5
10
149.375000
20
45.750000
0
VERTEX
5
ad6
100
AcDbEntity
8
1
100
AcDbVertex
100
AcDb2dVertex
62
5
10
149.687500
20
45.437500
0
VERTEX
5
ad7
100
AcDbEntity
8
1
100
AcDbVertex
100
AcDb2dVertex
62
5
10
150.312500
20
44.187500
0
VERTEX
5
ad8
100
AcDbEntity
8
1
100
AcDbVertex
100
AcDb2dVertex
62
5
10
150.625000
20
42.937500
0
VERTEX
5
ad9
100
AcDbEntity
8
1
100
AcDbVertex
100
AcDb2dVertex
62
5
10
150.625000
20
41.062500
0
VERTEX
5
ada
100
AcDbEntity
8
1
100
AcDbVertex
100
AcDb2dVertex
62
5
10
150.312500
20
39.812500
0
VERTEX
5
adb
100
AcDbEntity
8
1
100
AcDbVertex
100
AcDb2dVertex
62
5
10
149.687500
20
38.562500
0
VERTEX
5
adc
100
AcDbEntity
8
1
100
AcDbVertex
100
AcDb2dVertex
62
5
10
149.375000
20
38.250000
0
VERTEX
5
add
100
AcDbEntity
8
1
100
AcDbVertex
100
AcDb2dVertex
62
5
10
148.750000
20
38.250000
0
VERTEX
5
ade
100
AcDbEntity
8
1
100
AcDbVertex
100
AcDb2dVertex
62
5
10
148.437500
20
38.562500
0
VERTEX
5
adf
100
AcDbEntity
8
1
100
AcDbVertex
100
AcDb2dVertex
62
5
10
147.812500
20
39.812500
0
VERTEX
5
ae0
100
AcDbEntity
8
1
100
AcDbVertex
100
AcDb2dVertex
62
5
10
147.500000
20
41.062500
0
VERTEX
5
ae1
100
AcDbEntity
8
1
100
AcDbVertex
100
AcDb2dVertex
62
5
10
147.500000
20
42.937500
0
VERTEX
5
ae2
100
AcDbEntity
8
1
100
AcDbVertex
100
AcDb2dVertex
62
5
10
147.812500
20
44.187500
0
VERTEX
5
ae3
100
AcDbEntity
8
1
100
AcDbVertex
100
AcDb2dVertex
62
5
10
148.437500
20
45.437500
0
VERTEX
5
ae4
100
AcDbEntity
8
1
100
AcDbVertex
100
AcDb2dVertex
62
5
10
148.750000
20
45.750000
0
SEQEND
5
ae5
100
AcDbEntity
8
1
0
POLYLINE
5
ae6
100
AcDbEntity
8
1
6
CONTINUOUS
62
5
100
AcDb2dPolyline
66
1
10
0.0
20
0.0
30
0.0
70
0
0
VERTEX
5
ae7
100
AcDbEntity
8
1
100
AcDbVertex
100
AcDb2dVertex
62
5
10
152.500000
20
45.750000
0
VERTEX
5
ae8
100
AcDbEntity
8
1
100
AcDbVertex
100
AcDb2dVertex
62
5
10
154.062500
20
38.250000
0
VERTEX
5
ae9
100
AcDbEntity
8
1
100
AcDbVertex
100
AcDb2dVertex
62
5
10
155.625000
20
45.750000
0
SEQEND
5
aea
100
AcDbEntity
8
1
0
POLYLINE
5
aeb
100
AcDbEntity
8
1
6
CONTINUOUS
62
5
100
AcDb2dPolyline
66
1
10
0.0
20
0.0
30
0.0
70
0
0
VERTEX
5
aec
100
AcDbEntity
8
1
100
AcDbVertex
100
AcDb2dVertex
62
5
10
162.500000
20
38.250000
0
VERTEX
5
aed
100
AcDbEntity
8
1
100
AcDbVertex
100
AcDb2dVertex
62
5
10
164.062500
20
45.750000
0
VERTEX
5
aee
100
AcDbEntity
8
1
100
AcDbVertex
100
AcDb2dVertex
62
5
10
165.625000
20
38.250000
0
SEQEND
5
aef
100
AcDbEntity
8
1
0
LINE
5
af0
100
AcDbEntity
8
1
100
AcDbLine
6
CONTINUOUS
62
5
10
163.125000
20
40.750000
11
165.000000
21
40.750000
0
LINE
5
af1
100
AcDbEntity
8
1
100
AcDbLine
6
CONTINUOUS
62
5
10
100.000000
20
54.000000
11
100.000000
21
30.000000
0
LINE
5
af2
100
AcDbEntity
8
1
100
AcDbLine
6
CONTINUOUS
62
5
10
64.687500
20
46.375000
11
64.687500
21
45.437500
0
POLYLINE
5
af3
100
AcDbEntity
8
1
6
CONTINUOUS
62
5
100
AcDb2dPolyline
66
1
10
0.0
20
0.0
30
0.0
70
0
0
VERTEX
5
af4
100
AcDbEntity
8
1
100
AcDbVertex
100
AcDb2dVertex
62
5
10
60.937500
20
43.250000
0
VERTEX
5
af5
100
AcDbEntity
8
1
100
AcDbVertex
100
AcDb2dVertex
62
5
10
60.937500
20
45.437500
0
VERTEX
5
af6
100
AcDbEntity
8
1
100
AcDbVertex
100
AcDb2dVertex
62
5
10
68.437500
20
45.437500
0
VERTEX
5
af7
100
AcDbEntity
8
1
100
AcDbVertex
100
AcDb2dVertex
62
5
10
68.437500
20
43.250000
0
SEQEND
5
af8
100
AcDbEntity
8
1
0
LINE
5
af9
100
AcDbEntity
8
1
100
AcDbLine
6
CONTINUOUS
62
5
10
61.875000
20
43.562500
11
67.500000
21
43.562500
0
LINE
5
afa
100
AcDbEntity
8
1
100
AcDbLine
6
CONTINUOUS
62
5
10
64.687500
20
43.562500
11
64.687500
21
38.250000
0
LINE
5
afb
100
AcDbEntity
8
1
100
AcDbLine
6
CONTINUOUS
62
5
10
64.687500
20
41.062500
11
67.500000
21
41.062500
0
POLYLINE
5
afc
100
AcDbEntity
8
1
6
CONTINUOUS
62
5
100
AcDb2dPolyline
66
1
10
0.0
20
0.0
30
0.0
70
0
0
VERTEX
5
afd
100
AcDbEntity
8
1
100
AcDbVertex
100
AcDb2dVertex
62
5
10
62.500000
20
41.687500
0
VERTEX
5
afe
100
AcDbEntity
8
1
100
AcDbVertex
100
AcDb2dVertex
62
5
10
62.187500
20
39.812500
0
VERTEX
5
aff
100
AcDbEntity
8
1
100
AcDbVertex
100
AcDb2dVertex
62
5
10
61.562500
20
38.562500
0
VERTEX
5
b00
100
AcDbEntity
8
1
100
AcDbVertex
100
AcDb2dVertex
62
5
10
60.625000
20
37.625000
0
SEQEND
5
b01
100
AcDbEntity
8
1
0
POLYLINE
5
b02
100
AcDbEntity
8
1
6
CONTINUOUS
62
5
100
AcDb2dPolyline
66
1
10
0.0
20
0.0
30
0.0
70
0
0
VERTEX
5
b03
100
AcDbEntity
8
1
100
AcDbVertex
100
AcDb2dVertex
62
5
10
62.187500
20
39.812500
0
VERTEX
5
b04
100
AcDbEntity
8
1
100
AcDbVertex
100
AcDb2dVertex
62
5
10
64.687500
20
38.250000
0
VERTEX
5
b05
100
AcDbEntity
8
1
100
AcDbVertex
100
AcDb2dVertex
62
5
10
65.937500
20
37.937500
0
VERTEX
5
b06
100
AcDbEntity
8
1
100
AcDbVertex
100
AcDb2dVertex
62
5
10
69.062500
20
37.625000
0
SEQEND
5
b07
100
AcDbEntity
8
1
0
LINE
5
b08
100
AcDbEntity
8
1
100
AcDbLine
6
CONTINUOUS
62
5
10
80.625000
20
44.187500
11
83.750000
21
44.187500
0
LINE
5
b09
100
AcDbEntity
8
1
100
AcDbLine
6
CONTINUOUS
62
5
10
82.500000
20
46.375000
11
82.500000
21
37.625000
0
POLYLINE
5
b0a
100
AcDbEntity
8
1
6
CONTINUOUS
62
5
100
AcDb2dPolyline
66
1
10
0.0
20
0.0
30
0.0
70
0
0
VERTEX
5
b0b
100
AcDbEntity
8
1
100
AcDbVertex
100
AcDb2dVertex
62
5
10
82.500000
20
44.187500
0
VERTEX
5
b0c
100
AcDbEntity
8
1
100
AcDbVertex
100
AcDb2dVertex
62
5
10
81.562500
20
42.000000
0
VERTEX
5
b0d
100
AcDbEntity
8
1
100
AcDbVertex
100
AcDb2dVertex
62
5
10
80.625000
20
40.750000
0
SEQEND
5
b0e
100
AcDbEntity
8
1
0
LINE
5
b0f
100
AcDbEntity
8
1
100
AcDbLine
6
CONTINUOUS
62
5
10
82.500000
20
43.250000
11
83.437500
21
42.000000
0
POLYLINE
5
b10
100
AcDbEntity
8
1
6
CONTINUOUS
62
5
100
AcDb2dPolyline
66
1
10
0.0
20
0.0
30
0.0
70
0
0
VERTEX
5
b11
100
AcDbEntity
8
1
100
AcDbVertex
100
AcDb2dVertex
62
5
10
85.937500
20
46.375000
0
VERTEX
5
b12
100
AcDbEntity
8
1
100
AcDbVertex
100
AcDb2dVertex
62
5
10
85.312500
20
45.125000
0
VERTEX
5
b13
100
AcDbEntity
8
1
100
AcDbVertex
100
AcDb2dVertex
62
5
10
83.750000
20
43.250000
0
SEQEND
5
b14
100
AcDbEntity
8
1
0
POLYLINE
5
b15
100
AcDbEntity
8
1
6
CONTINUOUS
62
5
100
AcDb2dPolyline
66
1
10
0.0
20
0.0
30
0.0
70
0
0
VERTEX
5
b16
100
AcDbEntity
8
1
100
AcDbVertex
100
AcDb2dVertex
62
5
10
85.312500
20
45.125000
0
VERTEX
5
b17
100
AcDbEntity
8
1
100
AcDbVertex
100
AcDb2dVertex
62
5
10
88.437500
20
45.125000
0
VERTEX
5
b18
100
AcDbEntity
8
1
100
AcDbVertex
100
AcDb2dVertex
62
5
10
87.500000
20
43.562500
0
VERTEX
5
b19
100
AcDbEntity
8
1
100
AcDbVertex
100
AcDb2dVertex
62
5
10
85.937500
20
42.000000
0
VERTEX
5
b1a
100
AcDbEntity
8
1
100
AcDbVertex
100
AcDb2dVertex
62
5
10
83.750000
20
40.750000
0
SEQEND
5
b1b
100
AcDbEntity
8
1
0
POLYLINE
5
b1c
100
AcDbEntity
8
1
6
CONTINUOUS
62
5
100
AcDb2dPolyline
66
1
10
0.0
20
0.0
30
0.0
70
0
0
VERTEX
5
b1d
100
AcDbEntity
8
1
100
AcDbVertex
100
AcDb2dVertex
62
5
10
85.312500
20
45.125000
0
VERTEX
5
b1e
100
AcDbEntity
8
1
100
AcDbVertex
100
AcDb2dVertex
62
5
10
85.937500
20
43.562500
0
VERTEX
5
b1f
100
AcDbEntity
8
1
100
AcDbVertex
100
AcDb2dVertex
62
5
10
87.187500
20
42.000000
0
VERTEX
5
b20
100
AcDbEntity
8
1
100
AcDbVertex
100
AcDb2dVertex
62
5
10
88.125000
20
41.375000
0
VERTEX
5
b21
100
AcDbEntity
8
1
100
AcDbVertex
100
AcDb2dVertex
62
5
10
89.375000
20
40.750000
0
SEQEND
5
b22
100
AcDbEntity
8
1
0
POLYLINE
5
b23
100
AcDbEntity
8
1
6
CONTINUOUS
62
5
100
AcDb2dPolyline
66
1
10
0.0
20
0.0
30
0.0
70
1
0
VERTEX
5
b24
100
AcDbEntity
8
1
100
AcDbVertex
100
AcDb2dVertex
62
5
10
85.000000
20
40.750000
0
VERTEX
5
b25
100
AcDbEntity
8
1
100
AcDbVertex
100
AcDb2dVertex
62
5
10
85.000000
20
37.937500
0
VERTEX
5
b26
100
AcDbEntity
8
1
100
AcDbVertex
100
AcDb2dVertex
62
5
10
88.437500
20
37.937500
0
VERTEX
5
b27
100
AcDbEntity
8
1
100
AcDbVertex
100
AcDb2dVertex
62
5
10
88.437500
20
40.750000
0
VERTEX
5
b28
100
AcDbEntity
8
1
100
AcDbVertex
100
AcDb2dVertex
62
5
10
85.000000
20
40.750000
0
SEQEND
5
b29
100
AcDbEntity
8
1
0
POLYLINE
5
b2a
100
AcDbEntity
8
1
6
CONTINUOUS
62
5
100
AcDb2dPolyline
66
1
10
0.0
20
0.0
30
0.0
70
0
0
VERTEX
5
b2b
100
AcDbEntity
8
1
100
AcDbVertex
100
AcDb2dVertex
62
5
10
170.625000
20
44.187500
0
VERTEX
5
b2c
100
AcDbEntity
8
1
100
AcDbVertex
100
AcDb2dVertex
62
5
10
170.312500
20
45.125000
0
VERTEX
5
b2d
100
AcDbEntity
8
1
100
AcDbVertex
100
AcDb2dVertex
62
5
10
169.687500
20
45.750000
0
VERTEX
5
b2e
100
AcDbEntity
8
1
100
AcDbVertex
100
AcDb2dVertex
62
5
10
168.750000
20
45.750000
0
VERTEX
5
b2f
100
AcDbEntity
8
1
100
AcDbVertex
100
AcDb2dVertex
62
5
10
167.812500
20
44.812500
0
VERTEX
5
b30
100
AcDbEntity
8
1
100
AcDbVertex
100
AcDb2dVertex
62
5
10
167.500000
20
43.250000
0
VERTEX
5
b31
100
AcDbEntity
8
1
100
AcDbVertex
100
AcDb2dVertex
62
5
10
167.500000
20
40.750000
0
VERTEX
5
b32
100
AcDbEntity
8
1
100
AcDbVertex
100
AcDb2dVertex
62
5
10
167.812500
20
39.187500
0
VERTEX
5
b33
100
AcDbEntity
8
1
100
AcDbVertex
100
AcDb2dVertex
62
5
10
168.750000
20
38.250000
0
VERTEX
5
b34
100
AcDbEntity
8
1
100
AcDbVertex
100
AcDb2dVertex
62
5
10
169.687500
20
38.250000
0
VERTEX
5
b35
100
AcDbEntity
8
1
100
AcDbVertex
100
AcDb2dVertex
62
5
10
170.312500
20
38.875000
0
VERTEX
5
b36
100
AcDbEntity
8
1
100
AcDbVertex
100
AcDb2dVertex
62
5
10
170.937500
20
40.437500
0
SEQEND
5
b37
100
AcDbEntity
8
1
0
POLYLINE
5
b38
100
AcDbEntity
8
1
6
CONTINUOUS
62
5
100
AcDb2dPolyline
66
1
10
0.0
20
0.0
30
0.0
70
1
0
VERTEX
5
b39
100
AcDbEntity
8
1
100
AcDbVertex
100
AcDb2dVertex
62
5
10
290.000000
20
30.000000
0
VERTEX
5
b3a
100
AcDbEntity
8
1
100
AcDbVertex
100
AcDb2dVertex
62
5
10
290.000000
20
54.000000
0
VERTEX
5
b3b
100
AcDbEntity
8
1
100
AcDbVertex
100
AcDb2dVertex
62
5
10
50.000000
20
54.000000
0
VERTEX
5
b3c
100
AcDbEntity
8
1
100
AcDbVertex
100
AcDb2dVertex
62
5
10
50.000000
20
30.000000
0
VERTEX
5
b3d
100
AcDbEntity
8
1
100
AcDbVertex
100
AcDb2dVertex
62
5
10
290.000000
20
30.000000
0
SEQEND
5
b3e
100
AcDbEntity
8
1
0
LINE
5
b3f
100
AcDbEntity
8
1
100
AcDbLine
6
CONTINUOUS
62
5
10
203.541824
20
182.850000
11
264.441824
21
182.850000
0
LINE
5
b40
100
AcDbEntity
8
1
100
AcDbLine
6
CONTINUOUS
62
5
10
203.541824
20
137.150000
11
264.441824
21
137.150000
0
POLYLINE
5
b41
100
AcDbEntity
8
1
6
CONTINUOUS
62
5
100
AcDb2dPolyline
66
1
10
0.0
20
0.0
30
0.0
70
0
0
VERTEX
5
b42
100
AcDbEntity
8
1
100
AcDbVertex
100
AcDb2dVertex
62
5
10
262.441824
20
160.000000
0
VERTEX
5
b43
100
AcDbEntity
8
1
100
AcDbVertex
100
AcDb2dVertex
62
5
10
262.441824
20
137.150000
0
VERTEX
5
b44
100
AcDbEntity
8
1
100
AcDbVertex
100
AcDb2dVertex
62
5
10
261.441824
20
143.150000
0
VERTEX
5
b45
100
AcDbEntity
8
1
100
AcDbVertex
100
AcDb2dVertex
62
5
10
263.441824
20
143.150000
0
VERTEX
5
b46
100
AcDbEntity
8
1
100
AcDbVertex
100
AcDb2dVertex
62
5
10
262.441824
20
137.150000
0
VERTEX
5
b47
100
AcDbEntity
8
1
100
AcDbVertex
100
AcDb2dVertex
62
5
10
261.941824
20
143.150000
0
VERTEX
5
b48
100
AcDbEntity
8
1
100
AcDbVertex
100
AcDb2dVertex
62
5
10
262.941824
20
143.150000
0
VERTEX
5
b49
100
AcDbEntity
8
1
100
AcDbVertex
100
AcDb2dVertex
62
5
10
262.441824
20
137.150000
0
SEQEND
5
b4a
100
AcDbEntity
8
1
0
POLYLINE
5
b4b
100
AcDbEntity
8
1
6
CONTINUOUS
62
5
100
AcDb2dPolyline
66
1
10
0.0
20
0.0
30
0.0
70
0
0
VERTEX
5
b4c
100
AcDbEntity
8
1
100
AcDbVertex
100
AcDb2dVertex
62
5
10
262.441824
20
160.000000
0
VERTEX
5
b4d
100
AcDbEntity
8
1
100
AcDbVertex
100
AcDb2dVertex
62
5
10
262.441824
20
182.850000
0
VERTEX
5
b4e
100
AcDbEntity
8
1
100
AcDbVertex
100
AcDb2dVertex
62
5
10
263.441824
20
176.850000
0
VERTEX
5
b4f
100
AcDbEntity
8
1
100
AcDbVertex
100
AcDb2dVertex
62
5
10
261.441824
20
176.850000
0
VERTEX
5
b50
100
AcDbEntity
8
1
100
AcDbVertex
100
AcDb2dVertex
62
5
10
262.441824
20
182.850000
0
VERTEX
5
b51
100
AcDbEntity
8
1
100
AcDbVertex
100
AcDb2dVertex
62
5
10
262.941824
20
176.850000
0
VERTEX
5
b52
100
AcDbEntity
8
1
100
AcDbVertex
100
AcDb2dVertex
62
5
10
261.941824
20
176.850000
0
VERTEX
5
b53
100
AcDbEntity
8
1
100
AcDbVertex
100
AcDb2dVertex
62
5
10
262.441824
20
182.850000
0
SEQEND
5
b54
100
AcDbEntity
8
1
0
ARC
5
b55
100
AcDbEntity
8
1
100
AcDbCircle
6
CONTINUOUS
62
5
10
234.641824
20
180.700000
40
1.500000
100
AcDbArc
50
0.000000
51
89.999999
0
LINE
5
b56
100
AcDbEntity
8
1
100
AcDbLine
6
CONTINUOUS
62
5
10
236.141824
20
180.700000
11
236.141824
21
179.700000
0
ARC
5
b57
100
AcDbEntity
8
1
100
AcDbCircle
6
CONTINUOUS
62
5
10
234.841824
20
180.700000
40
1.500000
100
AcDbArc
50
0.000000
51
89.999999
0
LINE
5
b58
100
AcDbEntity
8
1
100
AcDbLine
6
CONTINUOUS
62
5
10
236.341824
20
180.700000
11
236.341824
21
179.700000
0
LINE
5
b59
100
AcDbEntity
8
1
100
AcDbLine
6
CONTINUOUS
62
5
10
233.841824
20
181.400000
11
233.841824
21
181.700000
0
ARC
5
b5a
100
AcDbEntity
8
1
100
AcDbCircle
6
CONTINUOUS
62
5
10
234.341824
20
181.700000
40
0.500000
100
AcDbArc
50
89.999999
51
179.999998
0
LINE
5
b5b
100
AcDbEntity
8
1
100
AcDbLine
6
CONTINUOUS
62
5
10
234.341824
20
182.200000
11
234.841824
21
182.200000
0
ARC
5
b5c
100
AcDbEntity
8
1
100
AcDbCircle
6
CONTINUOUS
62
5
10
229.441824
20
180.300000
40
0.300000
100
AcDbArc
50
-89.999999
51
0.000000
0
LINE
5
b5d
100
AcDbEntity
8
1
100
AcDbLine
6
CONTINUOUS
62
5
10
229.741824
20
180.300000
11
229.741824
21
182.500000
0
LINE
5
b5e
100
AcDbEntity
8
1
100
AcDbLine
6
CONTINUOUS
62
5
10
229.341824
20
180.000000
11
229.441824
21
180.000000
0
ARC
5
b5f
100
AcDbEntity
8
1
100
AcDbCircle
6
CONTINUOUS
62
5
10
235.341824
20
181.000000
40
1.500000
100
AcDbArc
50
0.000000
51
89.999999
0
LINE
5
b60
100
AcDbEntity
8
1
100
AcDbLine
6
CONTINUOUS
62
5
10
235.341824
20
182.500000
11
233.541824
21
182.500000
0
ARC
5
b61
100
AcDbEntity
8
1
100
AcDbCircle
6
CONTINUOUS
62
5
10
233.541824
20
182.000000
40
0.500000
100
AcDbArc
50
89.999999
51
179.999998
0
LINE
5
b62
100
AcDbEntity
8
1
100
AcDbLine
6
CONTINUOUS
62
5
10
233.041824
20
182.000000
11
233.041824
21
181.600000
0
LINE
5
b63
100
AcDbEntity
8
1
100
AcDbLine
6
CONTINUOUS
62
5
10
236.841824
20
179.700000
11
236.841824
21
181.000000
0
ARC
5
b64
100
AcDbEntity
8
1
100
AcDbCircle
6
CONTINUOUS
62
5
10
201.241824
20
180.300000
40
0.300000
100
AcDbArc
50
179.999998
51
-89.999999
0
LINE
5
b65
100
AcDbEntity
8
1
100
AcDbLine
6
CONTINUOUS
62
5
10
200.941824
20
180.300000
11
200.941824
21
182.500000
0
LINE
5
b66
100
AcDbEntity
8
1
100
AcDbLine
6
CONTINUOUS
62
5
10
201.341824
20
180.000000
11
201.241824
21
180.000000
0
ARC
5
b67
100
AcDbEntity
8
1
100
AcDbCircle
6
CONTINUOUS
62
5
10
233.141824
20
181.700000
40
0.300000
100
AcDbArc
50
179.999998
51
-89.999999
0
LINE
5
b68
100
AcDbEntity
8
1
100
AcDbLine
6
CONTINUOUS
62
5
10
233.141824
20
181.400000
11
234.141824
21
181.400000
0
ARC
5
b69
100
AcDbEntity
8
1
100
AcDbCircle
6
CONTINUOUS
62
5
10
234.141824
20
180.400000
40
1.000000
100
AcDbArc
50
17.061531
51
89.999999
0
LINE
5
b6a
100
AcDbEntity
8
1
100
AcDbLine
6
CONTINUOUS
62
5
10
235.097814
20
180.693399
11
235.185834
21
180.406601
0
ARC
5
b6b
100
AcDbEntity
8
1
100
AcDbCircle
6
CONTINUOUS
62
5
10
236.141824
20
180.700000
40
1.000000
100
AcDbArc
50
-162.938467
51
-89.999999
0
LINE
5
b6c
100
AcDbEntity
8
1
100
AcDbLine
6
CONTINUOUS
62
5
10
236.141824
20
179.700000
11
236.941824
21
179.700000
0
ARC
5
b6d
100
AcDbEntity
8
1
100
AcDbCircle
6
CONTINUOUS
62
5
10
236.941824
20
179.200000
40
0.500000
100
AcDbArc
50
-0.000000
51
89.999999
0
LINE
5
b6e
100
AcDbEntity
8
1
100
AcDbLine
6
CONTINUOUS
62
5
10
237.441824
20
179.200000
11
237.441824
21
177.300000
0
ARC
5
b6f
100
AcDbEntity
8
1
100
AcDbCircle
6
CONTINUOUS
62
5
10
236.941824
20
177.300000
40
0.500000
100
AcDbArc
50
-89.999999
51
-0.000000
0
LINE
5
b70
100
AcDbEntity
8
1
100
AcDbLine
6
CONTINUOUS
62
5
10
236.941824
20
176.800000
11
236.641824
21
176.800000
0
ARC
5
b71
100
AcDbEntity
8
1
100
AcDbCircle
6
CONTINUOUS
62
5
10
236.641824
20
175.300000
40
1.500000
100
AcDbArc
50
89.999999
51
-179.999998
0
LINE
5
b72
100
AcDbEntity
8
1
100
AcDbLine
6
CONTINUOUS
62
5
10
235.141824
20
175.300000
11
235.141824
21
162.138340
0
ARC
5
b73
100
AcDbEntity
8
1
100
AcDbCircle
6
CONTINUOUS
62
5
10
234.141824
20
162.138340
40
1.000000
100
AcDbArc
50
-71.873795
51
0.000000
0
ARC
5
b74
100
AcDbEntity
8
1
100
AcDbCircle
6
CONTINUOUS
62
5
10
234.841824
20
160.000000
40
1.250000
100
AcDbArc
50
108.126203
51
-108.126203
0
ARC
5
b75
100
AcDbEntity
8
1
100
AcDbCircle
6
CONTINUOUS
62
5
10
234.141824
20
157.861660
40
1.000000
100
AcDbArc
50
0.000000
51
71.873795
0
LINE
5
b76
100
AcDbEntity
8
1
100
AcDbLine
6
CONTINUOUS
62
5
10
235.141824
20
157.861660
11
235.141824
21
144.700000
0
ARC
5
b77
100
AcDbEntity
8
1
100
AcDbCircle
6
CONTINUOUS
62
5
10
236.641824
20
144.700000
40
1.500000
100
AcDbArc
50
179.999998
51
-89.999999
0
LINE
5
b78
100
AcDbEntity
8
1
100
AcDbLine
6
CONTINUOUS
62
5
10
236.641824
20
143.200000
11
236.941824
21
143.200000
0
ARC
5
b79
100
AcDbEntity
8
1
100
AcDbCircle
6
CONTINUOUS
62
5
10
236.941824
20
142.700000
40
0.500000
100
AcDbArc
50
-0.000000
51
89.999999
0
LINE
5
b7a
100
AcDbEntity
8
1
100
AcDbLine
6
CONTINUOUS
62
5
10
237.441824
20
142.700000
11
237.441824
21
140.800000
0
ARC
5
b7b
100
AcDbEntity
8
1
100
AcDbCircle
6
CONTINUOUS
62
5
10
236.941824
20
140.800000
40
0.500000
100
AcDbArc
50
-89.999999
51
0.000000
0
LINE
5
b7c
100
AcDbEntity
8
1
100
AcDbLine
6
CONTINUOUS
62
5
10
236.941824
20
140.300000
11
236.141824
21
140.300000
0
ARC
5
b7d
100
AcDbEntity
8
1
100
AcDbCircle
6
CONTINUOUS
62
5
10
236.141824
20
139.300000
40
1.000000
100
AcDbArc
50
89.999999
51
162.938467
0
LINE
5
b7e
100
AcDbEntity
8
1
100
AcDbLine
6
CONTINUOUS
62
5
10
235.185834
20
139.593399
11
235.097814
21
139.306601
0
ARC
5
b7f
100
AcDbEntity
8
1
100
AcDbCircle
6
CONTINUOUS
62
5
10
234.141824
20
139.600000
40
1.000000
100
AcDbArc
50
-89.999999
51
-17.061531
0
LINE
5
b80
100
AcDbEntity
8
1
100
AcDbLine
6
CONTINUOUS
62
5
10
234.141824
20
138.600000
11
233.141824
21
138.600000
0
ARC
5
b81
100
AcDbEntity
8
1
100
AcDbCircle
6
CONTINUOUS
62
5
10
233.141824
20
138.300000
40
0.300000
100
AcDbArc
50
89.999999
51
179.999998
0
POLYLINE
5
b82
100
AcDbEntity
8
1
6
CONTINUOUS
62
5
100
AcDb2dPolyline
66
1
10
0.0
20
0.0
30
0.0
70
0
0
VERTEX
5
b83
100
AcDbEntity
8
1
100
AcDbVertex
100
AcDb2dVertex
62
5
10
232.841824
20
138.300000
0
VERTEX
5
b84
100
AcDbEntity
8
1
100
AcDbVertex
100
AcDb2dVertex
62
5
10
232.841824
20
137.500000
0
VERTEX
5
b85
100
AcDbEntity
8
1
100
AcDbVertex
100
AcDb2dVertex
62
5
10
229.341824
20
137.500000
0
VERTEX
5
b86
100
AcDbEntity
8
1
100
AcDbVertex
100
AcDb2dVertex
62
5
10
229.341824
20
138.300000
0
VERTEX
5
b87
100
AcDbEntity
8
1
100
AcDbVertex
100
AcDb2dVertex
62
5
10
229.741824
20
138.300000
0
SEQEND
5
b88
100
AcDbEntity
8
1
0
POLYLINE
5
b89
100
AcDbEntity
8
1
6
CONTINUOUS
62
5
100
AcDb2dPolyline
66
1
10
0.0
20
0.0
30
0.0
70
0
0
VERTEX
5
b8a
100
AcDbEntity
8
1
100
AcDbVertex
100
AcDb2dVertex
62
5
10
229.741824
20
181.700000
0
VERTEX
5
b8b
100
AcDbEntity
8
1
100
AcDbVertex
100
AcDb2dVertex
62
5
10
229.341824
20
181.700000
0
VERTEX
5
b8c
100
AcDbEntity
8
1
100
AcDbVertex
100
AcDb2dVertex
62
5
10
229.341824
20
182.500000
0
VERTEX
5
b8d
100
AcDbEntity
8
1
100
AcDbVertex
100
AcDb2dVertex
62
5
10
232.841824
20
182.500000
0
VERTEX
5
b8e
100
AcDbEntity
8
1
100
AcDbVertex
100
AcDb2dVertex
62
5
10
232.841824
20
181.700000
0
SEQEND
5
b8f
100
AcDbEntity
8
1
0
ARC
5
b90
100
AcDbEntity
8
1
100
AcDbCircle
6
CONTINUOUS
62
5
10
196.041824
20
180.700000
40
1.500000
100
AcDbArc
50
89.999999
51
179.999998
0
LINE
5
b91
100
AcDbEntity
8
1
100
AcDbLine
6
CONTINUOUS
62
5
10
194.541824
20
180.700000
11
194.541824
21
179.700000
0
ARC
5
b92
100
AcDbEntity
8
1
100
AcDbCircle
6
CONTINUOUS
62
5
10
195.841824
20
180.700000
40
1.500000
100
AcDbArc
50
89.999999
51
179.999998
0
LINE
5
b93
100
AcDbEntity
8
1
100
AcDbLine
6
CONTINUOUS
62
5
10
194.341824
20
180.700000
11
194.341824
21
179.700000
0
LINE
5
b94
100
AcDbEntity
8
1
100
AcDbLine
6
CONTINUOUS
62
5
10
196.841824
20
181.400000
11
196.841824
21
181.700000
0
ARC
5
b95
100
AcDbEntity
8
1
100
AcDbCircle
6
CONTINUOUS
62
5
10
196.341824
20
181.700000
40
0.500000
100
AcDbArc
50
0.000000
51
89.999999
0
LINE
5
b96
100
AcDbEntity
8
1
100
AcDbLine
6
CONTINUOUS
62
5
10
196.341824
20
182.200000
11
195.841824
21
182.200000
0
ARC
5
b97
100
AcDbEntity
8
1
100
AcDbCircle
6
CONTINUOUS
62
5
10
197.141824
20
182.000000
40
0.500000
100
AcDbArc
50
0.000000
51
89.999999
0
LINE
5
b98
100
AcDbEntity
8
1
100
AcDbLine
6
CONTINUOUS
62
5
10
197.141824
20
182.500000
11
195.341824
21
182.500000
0
ARC
5
b99
100
AcDbEntity
8
1
100
AcDbCircle
6
CONTINUOUS
62
5
10
195.341824
20
181.000000
40
1.500000
100
AcDbArc
50
89.999999
51
179.999998
0
LINE
5
b9a
100
AcDbEntity
8
1
100
AcDbLine
6
CONTINUOUS
62
5
10
193.841824
20
181.000000
11
193.841824
21
179.700000
0
LINE
5
b9b
100
AcDbEntity
8
1
100
AcDbLine
6
CONTINUOUS
62
5
10
197.641824
20
181.600000
11
197.641824
21
182.000000
0
LINE
5
b9c
100
AcDbEntity
8
1
100
AcDbLine
6
CONTINUOUS
62
5
10
126.958176
20
179.824625
11
126.158176
21
179.824625
0
LINE
5
b9d
100
AcDbEntity
8
1
100
AcDbLine
6
CONTINUOUS
62
5
10
126.358176
20
176.924625
11
126.358176
21
179.824625
0
ARC
5
b9e
100
AcDbEntity
8
1
100
AcDbCircle
6
CONTINUOUS
62
5
10
126.158179
20
138.424533
40
0.799998
100
AcDbArc
50
-90.000214
51
0.064649
0
LINE
5
b9f
100
AcDbEntity
8
1
100
AcDbLine
6
CONTINUOUS
62
5
10
126.958176
20
138.425436
11
126.958176
21
181.874625
0
ARC
5
ba0
100
AcDbEntity
8
1
100
AcDbCircle
6
CONTINUOUS
62
5
10
126.158176
20
181.875526
40
0.800001
100
AcDbArc
50
-0.064552
51
89.999976
0
POLYLINE
5
ba1
100
AcDbEntity
8
1
6
CONTINUOUS
62
5
100
AcDb2dPolyline
66
1
10
0.0
20
0.0
30
0.0
70
0
0
VERTEX
5
ba2
100
AcDbEntity
8
1
100
AcDbVertex
100
AcDb2dVertex
62
5
10
126.158176
20
182.675527
0
VERTEX
5
ba3
100
AcDbEntity
8
1
100
AcDbVertex
100
AcDb2dVertex
62
5
10
123.098820
20
182.674611
0
VERTEX
5
ba4
100
AcDbEntity
8
1
100
AcDbVertex
100
AcDb2dVertex
62
5
10
122.158176
20
182.590562
0
SEQEND
5
ba5
100
AcDbEntity
8
1
0
POLYLINE
5
ba6
100
AcDbEntity
8
1
6
CONTINUOUS
62
5
100
AcDb2dPolyline
66
1
10
0.0
20
0.0
30
0.0
70
0
0
VERTEX
5
ba7
100
AcDbEntity
8
1
100
AcDbVertex
100
AcDb2dVertex
62
5
10
122.158176
20
137.709499
0
VERTEX
5
ba8
100
AcDbEntity
8
1
100
AcDbVertex
100
AcDb2dVertex
62
5
10
123.098760
20
137.625452
0
VERTEX
5
ba9
100
AcDbEntity
8
1
100
AcDbVertex
100
AcDb2dVertex
62
5
10
126.158176
20
137.624536
0
SEQEND
5
baa
100
AcDbEntity
8
1
0
ARC
5
bab
100
AcDbEntity
8
1
100
AcDbCircle
6
CONTINUOUS
62
5
10
125.658176
20
138.475624
40
0.500000
100
AcDbArc
50
-89.999999
51
0.000000
0
LINE
5
bac
100
AcDbEntity
8
1
100
AcDbLine
6
CONTINUOUS
62
5
10
126.158176
20
138.475624
11
126.158176
21
181.824812
0
ARC
5
bad
100
AcDbEntity
8
1
100
AcDbCircle
6
CONTINUOUS
62
5
10
125.658176
20
181.824812
40
0.500000
100
AcDbArc
50
-0.000000
51
89.999999
0
LINE
5
bae
100
AcDbEntity
8
1
100
AcDbLine
6
CONTINUOUS
62
5
10
125.658176
20
182.324812
11
122.158176
21
182.324812
0
LINE
5
baf
100
AcDbEntity
8
1
100
AcDbLine
6
CONTINUOUS
62
5
10
122.158176
20
137.975624
11
125.658176
21
137.975624
0
ARC
5
bb0
100
AcDbEntity
8
1
100
AcDbCircle
6
CONTINUOUS
62
5
10
118.392040
20
182.424625
40
0.200000
100
AcDbArc
50
89.999999
51
-170.959725
0
POLYLINE
5
bb1
100
AcDbEntity
8
1
6
CONTINUOUS
62
5
100
AcDb2dPolyline
66
1
10
0.0
20
0.0
30
0.0
70
0
0
VERTEX
5
bb2
100
AcDbEntity
8
1
100
AcDbVertex
100
AcDb2dVertex
62
5
10
118.194525
20
182.393199
0
VERTEX
5
bb3
100
AcDbEntity
8
1
100
AcDbVertex
100
AcDb2dVertex
62
5
10
118.358176
20
181.364625
0
VERTEX
5
bb4
100
AcDbEntity
8
1
100
AcDbVertex
100
AcDb2dVertex
62
5
10
104.142388
20
181.140165
0
SEQEND
5
bb5
100
AcDbEntity
8
1
0
ARC
5
bb6
100
AcDbEntity
8
1
100
AcDbCircle
6
CONTINUOUS
62
5
10
104.158176
20
180.140290
40
1.000000
100
AcDbArc
50
90.904594
51
-179.999998
0
LINE
5
bb7
100
AcDbEntity
8
1
100
AcDbLine
6
CONTINUOUS
62
5
10
103.158176
20
180.140290
11
103.158176
21
169.124625
0
ARC
5
bb8
100
AcDbEntity
8
1
100
AcDbCircle
6
CONTINUOUS
62
5
10
104.158176
20
169.124625
40
1.000000
100
AcDbArc
50
-179.999998
51
-89.999999
0
POLYLINE
5
bb9
100
AcDbEntity
8
1
6
CONTINUOUS
62
5
100
AcDb2dPolyline
66
1
10
0.0
20
0.0
30
0.0
70
0
0
VERTEX
5
bba
100
AcDbEntity
8
1
100
AcDbVertex
100
AcDb2dVertex
62
5
10
104.158176
20
168.124625
0
VERTEX
5
bbb
100
AcDbEntity
8
1
100
AcDbVertex
100
AcDb2dVertex
62
5
10
105.758176
20
168.124625
0
VERTEX
5
bbc
100
AcDbEntity
8
1
100
AcDbVertex
100
AcDb2dVertex
62
5
10
105.758176
20
152.124625
0
VERTEX
5
bbd
100
AcDbEntity
8
1
100
AcDbVertex
100
AcDb2dVertex
62
5
10
104.158176
20
152.124625
0
SEQEND
5
bbe
100
AcDbEntity
8
1
0
ARC
5
bbf
100
AcDbEntity
8
1
100
AcDbCircle
6
CONTINUOUS
62
5
10
104.158176
20
151.124625
40
1.000000
100
AcDbArc
50
89.999999
51
179.999998
0
LINE
5
bc0
100
AcDbEntity
8
1
100
AcDbLine
6
CONTINUOUS
62
5
10
103.158176
20
151.124625
11
103.158176
21
140.108960
0
ARC
5
bc1
100
AcDbEntity
8
1
100
AcDbCircle
6
CONTINUOUS
62
5
10
104.158176
20
140.108960
40
1.000000
100
AcDbArc
50
-179.999998
51
-90.904594
0
POLYLINE
5
bc2
100
AcDbEntity
8
1
6
CONTINUOUS
62
5
100
AcDb2dPolyline
66
1
10
0.0
20
0.0
30
0.0
70
0
0
VERTEX
5
bc3
100
AcDbEntity
8
1
100
AcDbVertex
100
AcDb2dVertex
62
5
10
104.142388
20
139.109085
0
VERTEX
5
bc4
100
AcDbEntity
8
1
100
AcDbVertex
100
AcDb2dVertex
62
5
10
118.358176
20
138.884625
0
VERTEX
5
bc5
100
AcDbEntity
8
1
100
AcDbVertex
100
AcDb2dVertex
62
5
10
118.194525
20
137.856051
0
SEQEND
5
bc6
100
AcDbEntity
8
1
0
ARC
5
bc7
100
AcDbEntity
8
1
100
AcDbCircle
6
CONTINUOUS
62
5
10
118.392040
20
137.824625
40
0.200000
100
AcDbArc
50
170.959725
51
-89.999999
0
LINE
5
bc8
100
AcDbEntity
8
1
100
AcDbLine
6
CONTINUOUS
62
5
10
118.392040
20
137.624625
11
122.158176
21
137.624625
0
LINE
5
bc9
100
AcDbEntity
8
1
100
AcDbLine
6
CONTINUOUS
62
5
10
122.158176
20
182.624625
11
118.392040
21
182.624625
0
ARC
5
bca
100
AcDbEntity
8
1
100
AcDbCircle
6
CONTINUOUS
62
5
10
129.658176
20
137.774625
40
0.500000
100
AcDbArc
50
-89.999999
51
-0.000000
0
POLYLINE
5
bcb
100
AcDbEntity
8
1
6
CONTINUOUS
62
5
100
AcDb2dPolyline
66
1
10
0.0
20
0.0
30
0.0
70
0
0
VERTEX
5
bcc
100
AcDbEntity
8
1
100
AcDbVertex
100
AcDb2dVertex
62
5
10
130.158176
20
137.774625
0
VERTEX
5
bcd
100
AcDbEntity
8
1
100
AcDbVertex
100
AcDb2dVertex
62
5
10
130.158176
20
160.274625
0
VERTEX
5
bce
100
AcDbEntity
8
1
100
AcDbVertex
100
AcDb2dVertex
62
5
10
134.358198
20
160.274821
0
SEQEND
5
bcf
100
AcDbEntity
8
1
0
ARC
5
bd0
100
AcDbEntity
8
1
100
AcDbCircle
6
CONTINUOUS
62
5
10
134.358176
20
160.774821
40
0.500000
100
AcDbArc
50
-89.997501
51
-0.000000
0
LINE
5
bd1
100
AcDbEntity
8
1
100
AcDbLine
6
CONTINUOUS
62
5
10
134.858176
20
160.774821
11
134.858176
21
182.474812
0
ARC
5
bd2
100
AcDbEntity
8
1
100
AcDbCircle
6
CONTINUOUS
62
5
10
134.358176
20
182.474812
40
0.500000
100
AcDbArc
50
0.000000
51
89.999999
0
POLYLINE
5
bd3
100
AcDbEntity
8
1
6
CONTINUOUS
62
5
100
AcDb2dPolyline
66
1
10
0.0
20
0.0
30
0.0
70
0
0
VERTEX
5
bd4
100
AcDbEntity
8
1
100
AcDbVertex
100
AcDb2dVertex
62
5
10
134.358176
20
182.974812
0
VERTEX
5
bd5
100
AcDbEntity
8
1
100
AcDbVertex
100
AcDb2dVertex
62
5
10
122.158176
20
182.974812
0
VERTEX
5
bd6
100
AcDbEntity
8
1
100
AcDbVertex
100
AcDb2dVertex
62
5
10
122.158176
20
137.274625
0
VERTEX
5
bd7
100
AcDbEntity
8
1
100
AcDbVertex
100
AcDb2dVertex
62
5
10
129.658176
20
137.274625
0
SEQEND
5
bd8
100
AcDbEntity
8
1
0
ARC
5
bd9
100
AcDbEntity
8
1
100
AcDbCircle
6
CONTINUOUS
62
5
10
228.641824
20
182.150000
40
0.700000
100
AcDbArc
50
0.000000
51
89.999999
0
LINE
5
bda
100
AcDbEntity
8
1
100
AcDbLine
6
CONTINUOUS
62
5
10
228.641824
20
182.850000
11
202.041824
21
182.850000
0
ARC
5
bdb
100
AcDbEntity
8
1
100
AcDbCircle
6
CONTINUOUS
62
5
10
202.041824
20
182.150000
40
0.700000
100
AcDbArc
50
89.999999
51
179.999998
0
LINE
5
bdc
100
AcDbEntity
8
1
100
AcDbLine
6
CONTINUOUS
62
5
10
201.341824
20
182.150000
11
201.341824
21
178.000000
0
LINE
5
bdd
100
AcDbEntity
8
1
100
AcDbLine
6
CONTINUOUS
62
5
10
201.341824
20
178.000000
11
200.841824
21
178.000000
0
ARC
5
bde
100
AcDbEntity
8
1
100
AcDbCircle
6
CONTINUOUS
62
5
10
200.841824
20
177.500000
40
0.500000
100
AcDbArc
50
89.999999
51
179.999998
0
LINE
5
bdf
100
AcDbEntity
8
1
100
AcDbLine
6
CONTINUOUS
62
5
10
200.341824
20
177.500000
11
200.341824
21
165.500000
0
ARC
5
be0
100
AcDbEntity
8
1
100
AcDbCircle
6
CONTINUOUS
62
5
10
200.841824
20
165.500000
40
0.500000
100
AcDbArc
50
179.999998
51
-89.999999
0
POLYLINE
5
be1
100
AcDbEntity
8
1
6
CONTINUOUS
62
5
100
AcDb2dPolyline
66
1
10
0.0
20
0.0
30
0.0
70
0
0
VERTEX
5
be2
100
AcDbEntity
8
1
100
AcDbVertex
100
AcDb2dVertex
62
5
10
200.841824
20
165.000000
0
VERTEX
5
be3
100
AcDbEntity
8
1
100
AcDbVertex
100
AcDb2dVertex
62
5
10
201.341824
20
165.000000
0
VERTEX
5
be4
100
AcDbEntity
8
1
100
AcDbVertex
100
AcDb2dVertex
62
5
10
201.341824
20
160.850000
0
SEQEND
5
be5
100
AcDbEntity
8
1
0
ARC
5
be6
100
AcDbEntity
8
1
100
AcDbCircle
6
CONTINUOUS
62
5
10
202.041824
20
160.850000
40
0.700000
100
AcDbArc
50
179.999998
51
-89.999999
0
LINE
5
be7
100
AcDbEntity
8
1
100
AcDbLine
6
CONTINUOUS
62
5
10
202.041824
20
160.150000
11
228.641824
21
160.150000
0
ARC
5
be8
100
AcDbEntity
8
1
100
AcDbCircle
6
CONTINUOUS
62
5
10
228.641824
20
160.850000
40
0.700000
100
AcDbArc
50
-89.999999
51
0.000000
0
POLYLINE
5
be9
100
AcDbEntity
8
1
6
CONTINUOUS
62
5
100
AcDb2dPolyline
66
1
10
0.0
20
0.0
30
0.0
70
0
0
VERTEX
5
bea
100
AcDbEntity
8
1
100
AcDbVertex
100
AcDb2dVertex
62
5
10
229.341824
20
160.850000
0
VERTEX
5
beb
100
AcDbEntity
8
1
100
AcDbVertex
100
AcDb2dVertex
62
5
10
229.341824
20
165.000000
0
VERTEX
5
bec
100
AcDbEntity
8
1
100
AcDbVertex
100
AcDb2dVertex
62
5
10
229.841824
20
165.000000
0
SEQEND
5
bed
100
AcDbEntity
8
1
0
ARC
5
bee
100
AcDbEntity
8
1
100
AcDbCircle
6
CONTINUOUS
62
5
10
229.841824
20
165.500000
40
0.500000
100
AcDbArc
50
-89.999999
51
0.000000
0
LINE
5
bef
100
AcDbEntity
8
1
100
AcDbLine
6
CONTINUOUS
62
5
10
230.341824
20
165.500000
11
230.341824
21
177.500000
0
ARC
5
bf0
100
AcDbEntity
8
1
100
AcDbCircle
6
CONTINUOUS
62
5
10
229.841824
20
177.500000
40
0.500000
100
AcDbArc
50
0.000000
51
89.999999
0
POLYLINE
5
bf1
100
AcDbEntity
8
1
6
CONTINUOUS
62
5
100
AcDb2dPolyline
66
1
10
0.0
20
0.0
30
0.0
70
0
0
VERTEX
5
bf2
100
AcDbEntity
8
1
100
AcDbVertex
100
AcDb2dVertex
62
5
10
229.841824
20
178.000000
0
VERTEX
5
bf3
100
AcDbEntity
8
1
100
AcDbVertex
100
AcDb2dVertex
62
5
10
229.341824
20
178.000000
0
VERTEX
5
bf4
100
AcDbEntity
8
1
100
AcDbVertex
100
AcDb2dVertex
62
5
10
229.341824
20
182.150000
0
SEQEND
5
bf5
100
AcDbEntity
8
1
0
ARC
5
bf6
100
AcDbEntity
8
1
100
AcDbCircle
6
CONTINUOUS
62
5
10
197.541824
20
181.700000
40
0.300000
100
AcDbArc
50
-89.999999
51
-0.000000
0
LINE
5
bf7
100
AcDbEntity
8
1
100
AcDbLine
6
CONTINUOUS
62
5
10
197.541824
20
181.400000
11
196.541824
21
181.400000
0
ARC
5
bf8
100
AcDbEntity
8
1
100
AcDbCircle
6
CONTINUOUS
62
5
10
196.541824
20
180.400000
40
1.000000
100
AcDbArc
50
89.999999
51
162.938467
0
LINE
5
bf9
100
AcDbEntity
8
1
100
AcDbLine
6
CONTINUOUS
62
5
10
195.585834
20
180.693399
11
195.497814
21
180.406601
0
ARC
5
bfa
100
AcDbEntity
8
1
100
AcDbCircle
6
CONTINUOUS
62
5
10
194.541824
20
180.700000
40
1.000000
100
AcDbArc
50
-89.999999
51
-17.061531
0
LINE
5
bfb
100
AcDbEntity
8
1
100
AcDbLine
6
CONTINUOUS
62
5
10
194.541824
20
179.700000
11
193.741824
21
179.700000
0
ARC
5
bfc
100
AcDbEntity
8
1
100
AcDbCircle
6
CONTINUOUS
62
5
10
193.741824
20
179.200000
40
0.500000
100
AcDbArc
50
89.999999
51
-179.999998
0
LINE
5
bfd
100
AcDbEntity
8
1
100
AcDbLine
6
CONTINUOUS
62
5
10
193.241824
20
179.200000
11
193.241824
21
177.300000
0
ARC
5
bfe
100
AcDbEntity
8
1
100
AcDbCircle
6
CONTINUOUS
62
5
10
193.741824
20
177.300000
40
0.500000
100
AcDbArc
50
-179.999998
51
-89.999999
0
LINE
5
bff
100
AcDbEntity
8
1
100
AcDbLine
6
CONTINUOUS
62
5
10
193.741824
20
176.800000
11
194.041824
21
176.800000
0
ARC
5
c00
100
AcDbEntity
8
1
100
AcDbCircle
6
CONTINUOUS
62
5
10
194.041824
20
175.300000
40
1.500000
100
AcDbArc
50
-0.000000
51
89.999999
0
LINE
5
c01
100
AcDbEntity
8
1
100
AcDbLine
6
CONTINUOUS
62
5
10
195.541824
20
175.300000
11
195.541824
21
162.138340
0
ARC
5
c02
100
AcDbEntity
8
1
100
AcDbCircle
6
CONTINUOUS
62
5
10
196.541824
20
162.138340
40
1.000000
100
AcDbArc
50
179.999998
51
-108.126203
0
ARC
5
c03
100
AcDbEntity
8
1
100
AcDbCircle
6
CONTINUOUS
62
5
10
195.841824
20
160.000000
40
1.250000
100
AcDbArc
50
-71.873795
51
71.873795
0
ARC
5
c04
100
AcDbEntity
8
1
100
AcDbCircle
6
CONTINUOUS
62
5
10
196.541824
20
157.861660
40
1.000000
100
AcDbArc
50
108.126203
51
179.999998
0
LINE
5
c05
100
AcDbEntity
8
1
100
AcDbLine
6
CONTINUOUS
62
5
10
195.541824
20
157.861660
11
195.541824
21
144.700000
0
ARC
5
c06
100
AcDbEntity
8
1
100
AcDbCircle
6
CONTINUOUS
62
5
10
194.041824
20
144.700000
40
1.500000
100
AcDbArc
50
-89.999999
51
0.000000
0
LINE
5
c07
100
AcDbEntity
8
1
100
AcDbLine
6
CONTINUOUS
62
5
10
194.041824
20
143.200000
11
193.741824
21
143.200000
0
ARC
5
c08
100
AcDbEntity
8
1
100
AcDbCircle
6
CONTINUOUS
62
5
10
193.741824
20
142.700000
40
0.500000
100
AcDbArc
50
89.999999
51
-179.999998
0
LINE
5
c09
100
AcDbEntity
8
1
100
AcDbLine
6
CONTINUOUS
62
5
10
193.241824
20
142.700000
11
193.241824
21
140.800000
0
ARC
5
c0a
100
AcDbEntity
8
1
100
AcDbCircle
6
CONTINUOUS
62
5
10
193.741824
20
140.800000
40
0.500000
100
AcDbArc
50
179.999998
51
-89.999999
0
LINE
5
c0b
100
AcDbEntity
8
1
100
AcDbLine
6
CONTINUOUS
62
5
10
193.741824
20
140.300000
11
194.541824
21
140.300000
0
ARC
5
c0c
100
AcDbEntity
8
1
100
AcDbCircle
6
CONTINUOUS
62
5
10
194.541824
20
139.300000
40
1.000000
100
AcDbArc
50
17.061531
51
89.999999
0
LINE
5
c0d
100
AcDbEntity
8
1
100
AcDbLine
6
CONTINUOUS
62
5
10
195.497814
20
139.593399
11
195.585834
21
139.306601
0
ARC
5
c0e
100
AcDbEntity
8
1
100
AcDbCircle
6
CONTINUOUS
62
5
10
196.541824
20
139.600000
40
1.000000
100
AcDbArc
50
-162.938467
51
-89.999999
0
LINE
5
c0f
100
AcDbEntity
8
1
100
AcDbLine
6
CONTINUOUS
62
5
10
196.541824
20
138.600000
11
197.541824
21
138.600000
0
ARC
5
c10
100
AcDbEntity
8
1
100
AcDbCircle
6
CONTINUOUS
62
5
10
197.541824
20
138.300000
40
0.300000
100
AcDbArc
50
0.000000
51
89.999999
0
POLYLINE
5
c11
100
AcDbEntity
8
1
6
CONTINUOUS
62
5
100
AcDb2dPolyline
66
1
10
0.0
20
0.0
30
0.0
70
0
0
VERTEX
5
c12
100
AcDbEntity
8
1
100
AcDbVertex
100
AcDb2dVertex
62
5
10
197.841824
20
138.300000
0
VERTEX
5
c13
100
AcDbEntity
8
1
100
AcDbVertex
100
AcDb2dVertex
62
5
10
197.841824
20
137.500000
0
VERTEX
5
c14
100
AcDbEntity
8
1
100
AcDbVertex
100
AcDb2dVertex
62
5
10
201.341824
20
137.500000
0
VERTEX
5
c15
100
AcDbEntity
8
1
100
AcDbVertex
100
AcDb2dVertex
62
5
10
201.341824
20
138.300000
0
VERTEX
5
c16
100
AcDbEntity
8
1
100
AcDbVertex
100
AcDb2dVertex
62
5
10
200.941824
20
138.300000
0
SEQEND
5
c17
100
AcDbEntity
8
1
0
POLYLINE
5
c18
100
AcDbEntity
8
1
6
CONTINUOUS
62
5
100
AcDb2dPolyline
66
1
10
0.0
20
0.0
30
0.0
70
0
0
VERTEX
5
c19
100
AcDbEntity
8
1
100
AcDbVertex
100
AcDb2dVertex
62
5
10
200.941824
20
181.700000
0
VERTEX
5
c1a
100
AcDbEntity
8
1
100
AcDbVertex
100
AcDb2dVertex
62
5
10
201.341824
20
181.700000
0
VERTEX
5
c1b
100
AcDbEntity
8
1
100
AcDbVertex
100
AcDb2dVertex
62
5
10
201.341824
20
182.500000
0
VERTEX
5
c1c
100
AcDbEntity
8
1
100
AcDbVertex
100
AcDb2dVertex
62
5
10
197.841824
20
182.500000
0
VERTEX
5
c1d
100
AcDbEntity
8
1
100
AcDbVertex
100
AcDb2dVertex
62
5
10
197.841824
20
181.700000
0
SEQEND
5
c1e
100
AcDbEntity
8
1
0
POLYLINE
5
c1f
100
AcDbEntity
8
1
6
DOT2
62
5
100
AcDb2dPolyline
66
1
10
0.0
20
0.0
30
0.0
70
0
0
VERTEX
5
c20
100
AcDbEntity
8
1
100
AcDbVertex
100
AcDb2dVertex
62
5
10
0.000000
20
350.000000
0
VERTEX
5
c21
100
AcDbEntity
8
1
100
AcDbVertex
100
AcDb2dVertex
62
5
10
0.000000
20
360.000000
0
VERTEX
5
c22
100
AcDbEntity
8
1
100
AcDbVertex
100
AcDb2dVertex
62
5
10
10.000000
20
360.000000
0
SEQEND
5
c23
100
AcDbEntity
8
1
0
POLYLINE
5
c24
100
AcDbEntity
8
1
6
DOT2
62
5
100
AcDb2dPolyline
66
1
10
0.0
20
0.0
30
0.0
70
0
0
VERTEX
5
c25
100
AcDbEntity
8
1
100
AcDbVertex
100
AcDb2dVertex
62
5
10
330.000000
20
360.000000
0
VERTEX
5
c26
100
AcDbEntity
8
1
100
AcDbVertex
100
AcDb2dVertex
62
5
10
340.000000
20
360.000000
0
VERTEX
5
c27
100
AcDbEntity
8
1
100
AcDbVertex
100
AcDb2dVertex
62
5
10
340.000000
20
350.000000
0
SEQEND
5
c28
100
AcDbEntity
8
1
0
POLYLINE
5
c29
100
AcDbEntity
8
1
6
DOT2
62
5
100
AcDb2dPolyline
66
1
10
0.0
20
0.0
30
0.0
70
0
0
VERTEX
5
c2a
100
AcDbEntity
8
1
100
AcDbVertex
100
AcDb2dVertex
62
5
10
340.000000
20
10.000000
0
VERTEX
5
c2b
100
AcDbEntity
8
1
100
AcDbVertex
100
AcDb2dVertex
62
5
10
340.000000
20
0.000000
0
VERTEX
5
c2c
100
AcDbEntity
8
1
100
AcDbVertex
100
AcDb2dVertex
62
5
10
330.000000
20
0.000000
0
SEQEND
5
c2d
100
AcDbEntity
8
1
0
POLYLINE
5
c2e
100
AcDbEntity
8
1
6
DOT2
62
5
100
AcDb2dPolyline
66
1
10
0.0
20
0.0
30
0.0
70
0
0
VERTEX
5
c2f
100
AcDbEntity
8
1
100
AcDbVertex
100
AcDb2dVertex
62
5
10
10.000000
20
0.000000
0
VERTEX
5
c30
100
AcDbEntity
8
1
100
AcDbVertex
100
AcDb2dVertex
62
5
10
0.000000
20
0.000000
0
VERTEX
5
c31
100
AcDbEntity
8
1
100
AcDbVertex
100
AcDb2dVertex
62
5
10
0.000000
20
10.000000
0
SEQEND
5
c32
100
AcDbEntity
8
1
0
POLYLINE
5
c33
100
AcDbEntity
8
1
6
CONTINUOUS
62
5
100
AcDb2dPolyline
66
1
10
0.0
20
0.0
30
0.0
70
1
0
VERTEX
5
c34
100
AcDbEntity
8
1
100
AcDbVertex
100
AcDb2dVertex
62
5
10
10.000000
20
10.000000
0
VERTEX
5
c35
100
AcDbEntity
8
1
100
AcDbVertex
100
AcDb2dVertex
62
5
10
10.000000
20
350.000000
0
VERTEX
5
c36
100
AcDbEntity
8
1
100
AcDbVertex
100
AcDb2dVertex
62
5
10
330.000000
20
350.000000
0
VERTEX
5
c37
100
AcDbEntity
8
1
100
AcDbVertex
100
AcDb2dVertex
62
5
10
330.000000
20
10.000000
0
VERTEX
5
c38
100
AcDbEntity
8
1
100
AcDbVertex
100
AcDb2dVertex
62
5
10
10.000000
20
10.000000
0
SEQEND
5
c39
100
AcDbEntity
8
1
0
ENDSEC
0
SECTION
2
OBJECTS
0
DICTIONARY
5
c3a
100
AcDbDictionary
3
ACAD_GROUP
350
c3b
3
ACAD_MLINESTYLE
350
c3c
0
DICTIONARY
5
c3b
102
{ACAD_REACTORS
330
c3a
102
}
100
AcDbDictionary
0
DICTIONARY
5
c3c
102
{ACAD_REACTORS
330
c3a
102
}
100
AcDbDictionary
3
STANDARD
350
c3d
0
MLINESTYLE
5
c3d
102
{ACAD_REACTORS
330
c3c
102
}
100
AcDbMlineStyle
2
STANDARD
70
0
3

62
0
51
90.0
52
90.0
71
2
49
0.5
62
256
6
BYLAYER
49
-0.5
62
256
6
BYLAYER
0
ENDSEC
0
EOF
