0
SECTION
2
HEADER
9
$ACADVER
1
AC1012
9
$EXTMIN
10
0.000000
20
0.000000
30
0.0
9
$EXTMAX
10
13.390000
20
14.180000
30
0.0
9
$LIMMIN
10
0.000000
20
0.000000
9
$LIMMAX
10
340.106000
20
360.172000
9
$DIMSCALE
40
1.000000
9
$PDMODE
70
2
9
$PDSIZE
40
0.0
  9
$HANDSEED
  5
5a2
0
ENDSEC
0
SECTION
2
CLASSES
0
ENDSEC
0
SECTION
2
TABLES
0
TABLE
2
LTYPE
5
1e
100
AcDbSymbolTable
70
12
0
LTYPE
5
1f
100
AcDbSymbolTableRecord
100
AcDbLinetypeTableRecord
2
BYBLOCK
70
0
3

72
65
73
0
40
0.0
0
LTYPE
5
20
100
AcDbSymbolTableRecord
100
AcDbLinetypeTableRecord
2
BYLAYER
70
0
3

72
65
73
0
40
0.0
0
LTYPE
5
21
100
AcDbSymbolTableRecord
100
AcDbLinetypeTableRecord
2
CONTINUOUS
70
64
3
Solid line
72
65
73
0
40
0.0
0
LTYPE
5
22
100
AcDbSymbolTableRecord
100
AcDbLinetypeTableRecord
2
DASHED
70
64
3
__ __ __ __ __ __ __ __ __ __ __ __ __ __ __
72
65
73
2
40
0.75
49
0.5
74
0
49
-0.25
74
0
0
LTYPE
5
23
100
AcDbSymbolTableRecord
100
AcDbLinetypeTableRecord
2
DOT
70
64
3
...............................................
72
65
73
2
40
0.25
49
0.0
74
0
49
-0.25
74
0
0
LTYPE
5
24
100
AcDbSymbolTableRecord
100
AcDbLinetypeTableRecord
2
DASHDOT
70
64
3
__ . __ . __ . __ . __ . __ . __ . __ . __ . --
72
65
73
4
40
1.0
49
0.5
74
0
49
-0.25
74
0
49
0.0
74
0
49
-0.25
74
0
0
LTYPE
5
25
100
AcDbSymbolTableRecord
100
AcDbLinetypeTableRecord
2
CENTER
70
64
3
____ _ ____ _ ____ _ ____ _ ____ _ ____ _ ____
72
65
73
4
40
2.0
49
1.25
74
0
49
-0.25
74
0
49
0.25
74
0
49
-0.25
74
0
0
LTYPE
5
26
100
AcDbSymbolTableRecord
100
AcDbLinetypeTableRecord
2
PHANTOM
70
64
3
_____ _ _ _____ _ _ _____ _ _ _____ _ _ ____
72
65
73
6
40
2.5
49
1.25
74
0
49
-0.25
74
0
49
0.25
74
0
49
-0.25
74
0
49
0.25
74
0
49
-0.25
74
0
0
LTYPE
5
27
100
AcDbSymbolTableRecord
100
AcDbLinetypeTableRecord
2
HIDDEN
70
64
3
_ _ _ _ _ _ _ _ _ _ _ _ _ _ _ _ _ _ _ _ _ _ _
72
65
73
2
40
0.375
49
0.25
74
0
49
-0.125
74
0
0
LTYPE
5
28
100
AcDbSymbolTableRecord
100
AcDbLinetypeTableRecord
2
BORDER
70
64
3
__ __ . __ __ . __ __ . __ __ . __ __ . __ __
72
65
73
6
40
1.75
49
0.5
74
0
49
-0.25
74
0
49
0.5
74
0
49
-0.25
74
0
49
0.0
74
0
49
-0.25
74
0
0
LTYPE
5
29
100
AcDbSymbolTableRecord
100
AcDbLinetypeTableRecord
2
DIVIDE
70
64
3
__ . . __ . . __ . . __ . . __ . . __ . . __
72
65
73
6
40
1.25
49
0.5
74
0
49
-0.25
74
0
49
0.0
74
0
49
-0.25
74
0
49
0.0
74
0
49
-0.25
74
0
0
LTYPE
5
2a
100
AcDbSymbolTableRecord
100
AcDbLinetypeTableRecord
2
DOT2
70
64
3
...............................................
72
65
73
2
40
0.125
49
0.0
74
0
49
-0.125
74
0
0
ENDTAB
0
TABLE
2
STYLE
5
2b
100
AcDbSymbolTable
70
1
0
STYLE
5
2c
100
AcDbSymbolTableRecord
100
AcDbTextStyleTableRecord
2
STANDARD
70
64
40
0.0
41
1.0
50
0.0
71
0
42
5.0
3
txt
4
bigfont
0
ENDTAB
0
TABLE
2
LAYER
5
2d
100
AcDbSymbolTable
70
2
0
LAYER
5
2e
100
AcDbSymbolTableRecord
100
AcDbLayerTableRecord
2
0
70
0
62
7
6
CONTINUOUS
0
LAYER
5
2f
100
AcDbSymbolTableRecord
100
AcDbLayerTableRecord
2
1
70
0
62
7
6
CONTINUOUS
0
ENDTAB
0
TABLE
2
APPID
5
30
100
AcDbSymbolTable
70
1
0
APPID
5
31
100
AcDbSymbolTableRecord
100
AcDbRegAppTableRecord
2
ACAD
70
64
0
ENDTAB
0
TABLE
2
DIMSTYLE
5
32
100
AcDbSymbolTable
70
0
0
ENDTAB
0
TABLE
2
UCS
5
33
100
AcDbSymbolTable
70
0
0
ENDTAB
0
TABLE
2
VIEW
5
34
100
AcDbSymbolTable
70
0
0
ENDTAB
0
TABLE
2
VPORT
5
35
100
AcDbSymbolTable
70
0
0
ENDTAB
0
TABLE
2
BLOCK_RECORD
5
36
100
AcDbSymbolTable
70
0
0
BLOCK_RECORD
5
37
100
AcDbSymbolTableRecord
100
AcDbBlockTableRecord
2
*MODEL_SPACE
0
BLOCK_RECORD
5
38
100
AcDbSymbolTableRecord
100
AcDbBlockTableRecord
2
*PAPER_SPACE
0
BLOCK_RECORD
5
39
100
AcDbSymbolTableRecord
100
AcDbBlockTableRecord
2
OPEN
0
BLOCK_RECORD
5
3a
100
AcDbSymbolTableRecord
100
AcDbBlockTableRecord
2
HALF
0
BLOCK_RECORD
5
3b
100
AcDbSymbolTableRecord
100
AcDbBlockTableRecord
2
CLOSEDBLANK
0
BLOCK_RECORD
5
3c
100
AcDbSymbolTableRecord
100
AcDbBlockTableRecord
2
HALFCLOSE_R
0
BLOCK_RECORD
5
3d
100
AcDbSymbolTableRecord
100
AcDbBlockTableRecord
2
DOT
0
BLOCK_RECORD
5
3e
100
AcDbSymbolTableRecord
100
AcDbBlockTableRecord
2
HALFOPEN_R
0
BLOCK_RECORD
5
3f
100
AcDbSymbolTableRecord
100
AcDbBlockTableRecord
2
CLOSEDF
0
BLOCK_RECORD
5
40
100
AcDbSymbolTableRecord
100
AcDbBlockTableRecord
2
HALF_R
0
ENDTAB
0
ENDSEC
0
SECTION
2
BLOCKS
0
BLOCK
5
41
100
AcDbEntity
8
0
100
AcDbBlockBegin
2
*MODEL_SPACE
70
0
10
0.0
20
0.0
30
0.0
3
*MODEL_SPACE
1

0
ENDBLK
5
42
100
AcDbEntity
8
0
100
AcDbBlockEnd
0
BLOCK
5
43
100
AcDbEntity
67
1
8
0
100
AcDbBlockBegin
2
*PAPER_SPACE
70
0
10
0.0
20
0.0
30
0.0
3
*PAPER_SPACE
1

0
ENDBLK
5
44
100
AcDbEntity
67
1
8
0
100
AcDbBlockEnd
0
BLOCK
5
45
100
AcDbEntity
8
0
100
AcDbBlockBegin
2
OPEN
70
0
10
0.0
20
0.0
30
0.0
3
OPEN
1

0
LINE
5
46
100
AcDbEntity
8
0
6
BYBLOCK
62
0
100
AcDbLine
10
0.000000
20
0.000000
11
-1.000000
21
0.000000
0
LINE
5
47
100
AcDbEntity
8
0
6
BYBLOCK
62
0
100
AcDbLine
10
-1.000000
20
-0.166667
11
0.000000
21
0.000000
0
LINE
5
48
100
AcDbEntity
8
0
6
BYBLOCK
62
0
100
AcDbLine
10
-1.000000
20
0.166667
11
0.000000
21
0.000000
0
ENDBLK
5
49
100
AcDbEntity
8
0
100
AcDbBlockEnd
0
BLOCK
5
4a
100
AcDbEntity
8
0
100
AcDbBlockBegin
2
HALF
70
0
10
0.0
20
0.0
30
0.0
3
HALF
1

0
SOLID
5
4b
100
AcDbEntity
8
0
6
BYBLOCK
62
0
100
AcDbTrace
10
-1.000000
20
0.166667
11
-1.000000
21
-0.166667
12
0.000000
22
0.000000
13
0.000000
23
0.000000
0
ENDBLK
5
4c
100
AcDbEntity
8
0
100
AcDbBlockEnd
0
BLOCK
5
4d
100
AcDbEntity
8
0
100
AcDbBlockBegin
2
CLOSEDBLANK
70
0
10
0.0
20
0.0
30
0.0
3
CLOSEDBLANK
1

0
LINE
5
4e
100
AcDbEntity
8
0
6
BYBLOCK
62
0
100
AcDbLine
10
-1.000000
20
0.166667
11
-1.000000
21
-0.166667
0
LINE
5
4f
100
AcDbEntity
8
0
6
BYBLOCK
62
0
100
AcDbLine
10
0.000000
20
0.000000
11
-1.000000
21
-0.166667
0
LINE
5
50
100
AcDbEntity
8
0
6
BYBLOCK
62
0
100
AcDbLine
10
-1.000000
20
0.166667
11
0.000000
21
0.000000
0
ENDBLK
5
51
100
AcDbEntity
8
0
100
AcDbBlockEnd
0
BLOCK
5
52
100
AcDbEntity
8
0
100
AcDbBlockBegin
2
HALFCLOSE_R
70
0
10
0.0
20
0.0
30
0.0
3
HALFCLOSE_R
1

0
LINE
5
53
100
AcDbEntity
8
0
6
BYBLOCK
62
0
100
AcDbLine
10
-1.000000
20
-0.166667
11
-1.000000
21
0.000000
0
LINE
5
54
100
AcDbEntity
8
0
6
BYBLOCK
62
0
100
AcDbLine
10
-1.000000
20
-0.166667
11
0.000000
21
0.000000
0
LINE
5
55
100
AcDbEntity
8
0
6
BYBLOCK
62
0
100
AcDbLine
10
0.000000
20
0.000000
11
-1.000000
21
0.000000
0
ENDBLK
5
56
100
AcDbEntity
8
0
100
AcDbBlockEnd
0
BLOCK
5
57
100
AcDbEntity
8
0
100
AcDbBlockBegin
2
DOT
70
0
10
0.0
20
0.0
30
0.0
3
DOT
1

0
LINE
5
58
100
AcDbEntity
8
0
6
BYBLOCK
62
0
100
AcDbLine
10
0.000000
20
0.000000
11
-1.000000
21
0.000000
0
POLYLINE
5
59
100
AcDbEntity
8
0
6
BYBLOCK
62
0
100
AcDb2dPolyline
66
1
10
0.0
20
0.0
30
0.0
70
1
40
0.166667
41
0.166667
0
VERTEX
5
5a
100
AcDbEntity
8
0
100
AcDbVertex
100
AcDb2dVertex
62
10
10
-0.083333
20
0.000000
42
1.000000
0
VERTEX
5
5b
100
AcDbEntity
8
0
100
AcDbVertex
100
AcDb2dVertex
62
10
10
0.083333
20
0.000000
42
1.000000
0
SEQEND
5
5c
100
AcDbEntity
8
0
0
ENDBLK
5
5d
100
AcDbEntity
8
0
100
AcDbBlockEnd
0
BLOCK
5
5e
100
AcDbEntity
8
0
100
AcDbBlockBegin
2
HALFOPEN_R
70
0
10
0.0
20
0.0
30
0.0
3
HALFOPEN_R
1

0
LINE
5
5f
100
AcDbEntity
8
0
6
BYBLOCK
62
0
100
AcDbLine
10
-1.000000
20
-0.166667
11
0.000000
21
0.000000
0
LINE
5
60
100
AcDbEntity
8
0
6
BYBLOCK
62
0
100
AcDbLine
10
0.000000
20
0.000000
11
-1.000000
21
0.000000
0
ENDBLK
5
61
100
AcDbEntity
8
0
100
AcDbBlockEnd
0
BLOCK
5
62
100
AcDbEntity
8
0
100
AcDbBlockBegin
2
CLOSEDF
70
0
10
0.0
20
0.0
30
0.0
3
CLOSEDF
1

0
SOLID
5
63
100
AcDbEntity
8
0
6
BYBLOCK
62
0
100
AcDbTrace
10
-1.000000
20
0.166667
11
-1.000000
21
-0.166667
12
0.000000
22
0.000000
13
0.000000
23
0.000000
0
ENDBLK
5
64
100
AcDbEntity
8
0
100
AcDbBlockEnd
0
BLOCK
5
65
100
AcDbEntity
8
0
100
AcDbBlockBegin
2
HALF_R
70
0
10
0.0
20
0.0
30
0.0
3
HALF_R
1

0
SOLID
5
66
100
AcDbEntity
8
0
6
BYBLOCK
62
0
100
AcDbTrace
10
-1.000000
20
-0.166667
11
-1.000000
21
0.000000
12
0.000000
22
0.000000
13
0.000000
23
0.000000
0
ENDBLK
5
67
100
AcDbEntity
8
0
100
AcDbBlockEnd
0
ENDSEC
0
SECTION
2
ENTITIES
0
LINE
5
68
100
AcDbEntity
8
1
100
AcDbLine
6
CONTINUOUS
62
5
10
219.250000
20
337.125000
11
221.750000
21
337.125000
0
POLYLINE
5
69
100
AcDbEntity
8
1
6
CONTINUOUS
62
5
100
AcDb2dPolyline
66
1
10
0.0
20
0.0
30
0.0
70
0
0
VERTEX
5
6a
100
AcDbEntity
8
1
100
AcDbVertex
100
AcDb2dVertex
62
5
10
219.250000
20
337.125000
0
VERTEX
5
6b
100
AcDbEntity
8
1
100
AcDbVertex
100
AcDb2dVertex
62
5
10
218.500000
20
335.875000
0
VERTEX
5
6c
100
AcDbEntity
8
1
100
AcDbVertex
100
AcDb2dVertex
62
5
10
217.750000
20
334.937500
0
SEQEND
5
6d
100
AcDbEntity
8
1
0
POLYLINE
5
6e
100
AcDbEntity
8
1
6
CONTINUOUS
62
5
100
AcDb2dPolyline
66
1
10
0.0
20
0.0
30
0.0
70
0
0
VERTEX
5
6f
100
AcDbEntity
8
1
100
AcDbVertex
100
AcDb2dVertex
62
5
10
221.750000
20
337.125000
0
VERTEX
5
70
100
AcDbEntity
8
1
100
AcDbVertex
100
AcDb2dVertex
62
5
10
222.000000
20
336.812500
0
VERTEX
5
71
100
AcDbEntity
8
1
100
AcDbVertex
100
AcDb2dVertex
62
5
10
221.500000
20
335.875000
0
VERTEX
5
72
100
AcDbEntity
8
1
100
AcDbVertex
100
AcDb2dVertex
62
5
10
220.750000
20
334.312500
0
VERTEX
5
73
100
AcDbEntity
8
1
100
AcDbVertex
100
AcDb2dVertex
62
5
10
219.500000
20
332.750000
0
VERTEX
5
74
100
AcDbEntity
8
1
100
AcDbVertex
100
AcDb2dVertex
62
5
10
218.000000
20
331.500000
0
SEQEND
5
75
100
AcDbEntity
8
1
0
LINE
5
76
100
AcDbEntity
8
1
100
AcDbLine
6
CONTINUOUS
62
5
10
219.250000
20
335.250000
11
220.250000
21
333.687500
0
LINE
5
77
100
AcDbEntity
8
1
100
AcDbLine
6
CONTINUOUS
62
5
10
221.750000
20
338.687500
11
222.500000
21
337.750000
0
LINE
5
78
100
AcDbEntity
8
1
100
AcDbLine
6
CONTINUOUS
62
5
10
222.500000
20
339.312500
11
223.250000
21
338.375000
0
POLYLINE
5
79
100
AcDbEntity
8
1
6
CONTINUOUS
62
5
100
AcDb2dPolyline
66
1
10
0.0
20
0.0
30
0.0
70
0
0
VERTEX
5
7a
100
AcDbEntity
8
1
100
AcDbVertex
100
AcDb2dVertex
62
5
10
226.500000
20
339.312500
0
VERTEX
5
7b
100
AcDbEntity
8
1
100
AcDbVertex
100
AcDb2dVertex
62
5
10
225.500000
20
336.500000
0
VERTEX
5
7c
100
AcDbEntity
8
1
100
AcDbVertex
100
AcDb2dVertex
62
5
10
224.250000
20
334.312500
0
SEQEND
5
7d
100
AcDbEntity
8
1
0
LINE
5
7e
100
AcDbEntity
8
1
100
AcDbLine
6
CONTINUOUS
62
5
10
225.500000
20
336.500000
11
225.500000
21
330.562500
0
LINE
5
7f
100
AcDbEntity
8
1
100
AcDbLine
6
CONTINUOUS
62
5
10
226.250000
20
336.500000
11
231.500000
21
336.500000
0
POLYLINE
5
80
100
AcDbEntity
8
1
6
CONTINUOUS
62
5
100
AcDb2dPolyline
66
1
10
0.0
20
0.0
30
0.0
70
0
0
VERTEX
5
81
100
AcDbEntity
8
1
100
AcDbVertex
100
AcDb2dVertex
62
5
10
229.750000
20
339.312500
0
VERTEX
5
82
100
AcDbEntity
8
1
100
AcDbVertex
100
AcDb2dVertex
62
5
10
229.750000
20
330.875000
0
VERTEX
5
83
100
AcDbEntity
8
1
100
AcDbVertex
100
AcDb2dVertex
62
5
10
228.250000
20
331.187500
0
SEQEND
5
84
100
AcDbEntity
8
1
0
LINE
5
85
100
AcDbEntity
8
1
100
AcDbLine
6
CONTINUOUS
62
5
10
227.250000
20
335.250000
11
228.250000
21
333.375000
0
LINE
5
86
100
AcDbEntity
8
1
100
AcDbLine
6
CONTINUOUS
62
5
10
234.250000
20
337.125000
11
237.000000
21
337.750000
0
LINE
5
87
100
AcDbEntity
8
1
100
AcDbLine
6
CONTINUOUS
62
5
10
234.250000
20
335.250000
11
237.750000
21
336.187500
0
POLYLINE
5
88
100
AcDbEntity
8
1
6
CONTINUOUS
62
5
100
AcDb2dPolyline
66
1
10
0.0
20
0.0
30
0.0
70
0
0
VERTEX
5
89
100
AcDbEntity
8
1
100
AcDbVertex
100
AcDb2dVertex
62
5
10
235.250000
20
338.687500
0
VERTEX
5
8a
100
AcDbEntity
8
1
100
AcDbVertex
100
AcDb2dVertex
62
5
10
237.500000
20
333.687500
0
VERTEX
5
8b
100
AcDbEntity
8
1
100
AcDbVertex
100
AcDb2dVertex
62
5
10
237.000000
20
333.687500
0
VERTEX
5
8c
100
AcDbEntity
8
1
100
AcDbVertex
100
AcDb2dVertex
62
5
10
235.500000
20
334.312500
0
VERTEX
5
8d
100
AcDbEntity
8
1
100
AcDbVertex
100
AcDb2dVertex
62
5
10
234.750000
20
334.312500
0
VERTEX
5
8e
100
AcDbEntity
8
1
100
AcDbVertex
100
AcDb2dVertex
62
5
10
233.750000
20
333.375000
0
VERTEX
5
8f
100
AcDbEntity
8
1
100
AcDbVertex
100
AcDb2dVertex
62
5
10
233.750000
20
332.750000
0
VERTEX
5
90
100
AcDbEntity
8
1
100
AcDbVertex
100
AcDb2dVertex
62
5
10
234.250000
20
332.125000
0
VERTEX
5
91
100
AcDbEntity
8
1
100
AcDbVertex
100
AcDb2dVertex
62
5
10
234.750000
20
331.812500
0
VERTEX
5
92
100
AcDbEntity
8
1
100
AcDbVertex
100
AcDb2dVertex
62
5
10
236.250000
20
331.812500
0
SEQEND
5
93
100
AcDbEntity
8
1
0
POLYLINE
5
94
100
AcDbEntity
8
1
6
CONTINUOUS
62
5
100
AcDb2dPolyline
66
1
10
0.0
20
0.0
30
0.0
70
0
0
VERTEX
5
95
100
AcDbEntity
8
1
100
AcDbVertex
100
AcDb2dVertex
62
5
10
184.750000
20
335.562500
0
VERTEX
5
96
100
AcDbEntity
8
1
100
AcDbVertex
100
AcDb2dVertex
62
5
10
185.000000
20
335.250000
0
VERTEX
5
97
100
AcDbEntity
8
1
100
AcDbVertex
100
AcDb2dVertex
62
5
10
191.750000
20
335.250000
0
SEQEND
5
98
100
AcDbEntity
8
1
0
POLYLINE
5
99
100
AcDbEntity
8
1
6
CONTINUOUS
62
5
100
AcDb2dPolyline
66
1
10
0.0
20
0.0
30
0.0
70
0
0
VERTEX
5
9a
100
AcDbEntity
8
1
100
AcDbVertex
100
AcDb2dVertex
62
5
10
177.500000
20
336.500000
0
VERTEX
5
9b
100
AcDbEntity
8
1
100
AcDbVertex
100
AcDb2dVertex
62
5
10
182.250000
20
336.500000
0
VERTEX
5
9c
100
AcDbEntity
8
1
100
AcDbVertex
100
AcDb2dVertex
62
5
10
182.250000
20
334.937500
0
VERTEX
5
9d
100
AcDbEntity
8
1
100
AcDbVertex
100
AcDb2dVertex
62
5
10
182.000000
20
333.375000
0
VERTEX
5
9e
100
AcDbEntity
8
1
100
AcDbVertex
100
AcDb2dVertex
62
5
10
181.250000
20
332.125000
0
VERTEX
5
9f
100
AcDbEntity
8
1
100
AcDbVertex
100
AcDb2dVertex
62
5
10
180.500000
20
332.125000
0
SEQEND
5
a0
100
AcDbEntity
8
1
0
POLYLINE
5
a1
100
AcDbEntity
8
1
6
CONTINUOUS
62
5
100
AcDb2dPolyline
66
1
10
0.0
20
0.0
30
0.0
70
0
0
VERTEX
5
a2
100
AcDbEntity
8
1
100
AcDbVertex
100
AcDb2dVertex
62
5
10
180.000000
20
338.375000
0
VERTEX
5
a3
100
AcDbEntity
8
1
100
AcDbVertex
100
AcDb2dVertex
62
5
10
179.500000
20
334.625000
0
VERTEX
5
a4
100
AcDbEntity
8
1
100
AcDbVertex
100
AcDb2dVertex
62
5
10
178.750000
20
333.375000
0
VERTEX
5
a5
100
AcDbEntity
8
1
100
AcDbVertex
100
AcDb2dVertex
62
5
10
177.750000
20
332.125000
0
SEQEND
5
a6
100
AcDbEntity
8
1
0
LINE
5
a7
100
AcDbEntity
8
1
100
AcDbLine
6
CONTINUOUS
62
5
10
195.250000
20
338.687500
11
195.250000
21
331.500000
0
POLYLINE
5
a8
100
AcDbEntity
8
1
6
CONTINUOUS
62
5
100
AcDb2dPolyline
66
1
10
0.0
20
0.0
30
0.0
70
0
0
VERTEX
5
a9
100
AcDbEntity
8
1
100
AcDbVertex
100
AcDb2dVertex
62
5
10
195.250000
20
335.875000
0
VERTEX
5
aa
100
AcDbEntity
8
1
100
AcDbVertex
100
AcDb2dVertex
62
5
10
195.500000
20
335.875000
0
VERTEX
5
ab
100
AcDbEntity
8
1
100
AcDbVertex
100
AcDb2dVertex
62
5
10
197.000000
20
334.937500
0
SEQEND
5
ac
100
AcDbEntity
8
1
0
LINE
5
ad
100
AcDbEntity
8
1
100
AcDbLine
6
CONTINUOUS
62
5
10
197.250000
20
338.062500
11
197.750000
21
337.437500
0
LINE
5
ae
100
AcDbEntity
8
1
100
AcDbLine
6
CONTINUOUS
62
5
10
198.250000
20
338.687500
11
198.750000
21
338.062500
0
LINE
5
af
100
AcDbEntity
8
1
100
AcDbLine
6
CONTINUOUS
62
5
10
201.250000
20
336.187500
11
206.250000
21
336.187500
0
POLYLINE
5
b0
100
AcDbEntity
8
1
6
CONTINUOUS
62
5
100
AcDb2dPolyline
66
1
10
0.0
20
0.0
30
0.0
70
0
0
VERTEX
5
b1
100
AcDbEntity
8
1
100
AcDbVertex
100
AcDb2dVertex
62
5
10
203.750000
20
338.062500
0
VERTEX
5
b2
100
AcDbEntity
8
1
100
AcDbVertex
100
AcDb2dVertex
62
5
10
203.750000
20
331.812500
0
VERTEX
5
b3
100
AcDbEntity
8
1
100
AcDbVertex
100
AcDb2dVertex
62
5
10
203.250000
20
331.812500
0
SEQEND
5
b4
100
AcDbEntity
8
1
0
LINE
5
b5
100
AcDbEntity
8
1
100
AcDbLine
6
CONTINUOUS
62
5
10
202.500000
20
334.625000
11
201.250000
21
332.750000
0
LINE
5
b6
100
AcDbEntity
8
1
100
AcDbLine
6
CONTINUOUS
62
5
10
205.250000
20
334.625000
11
206.500000
21
333.062500
0
POLYLINE
5
b7
100
AcDbEntity
8
1
6
CONTINUOUS
62
5
100
AcDb2dPolyline
66
1
10
0.0
20
0.0
30
0.0
70
0
0
VERTEX
5
b8
100
AcDbEntity
8
1
100
AcDbVertex
100
AcDb2dVertex
62
5
10
210.500000
20
338.062500
0
VERTEX
5
b9
100
AcDbEntity
8
1
100
AcDbVertex
100
AcDb2dVertex
62
5
10
210.500000
20
336.187500
0
VERTEX
5
ba
100
AcDbEntity
8
1
100
AcDbVertex
100
AcDb2dVertex
62
5
10
210.250000
20
334.625000
0
VERTEX
5
bb
100
AcDbEntity
8
1
100
AcDbVertex
100
AcDb2dVertex
62
5
10
209.750000
20
333.375000
0
VERTEX
5
bc
100
AcDbEntity
8
1
100
AcDbVertex
100
AcDb2dVertex
62
5
10
209.000000
20
332.125000
0
VERTEX
5
bd
100
AcDbEntity
8
1
100
AcDbVertex
100
AcDb2dVertex
62
5
10
208.750000
20
331.812500
0
SEQEND
5
be
100
AcDbEntity
8
1
0
POLYLINE
5
bf
100
AcDbEntity
8
1
6
CONTINUOUS
62
5
100
AcDb2dPolyline
66
1
10
0.0
20
0.0
30
0.0
70
0
0
VERTEX
5
c0
100
AcDbEntity
8
1
100
AcDbVertex
100
AcDb2dVertex
62
5
10
212.000000
20
338.375000
0
VERTEX
5
c1
100
AcDbEntity
8
1
100
AcDbVertex
100
AcDb2dVertex
62
5
10
212.000000
20
332.125000
0
VERTEX
5
c2
100
AcDbEntity
8
1
100
AcDbVertex
100
AcDb2dVertex
62
5
10
212.750000
20
332.437500
0
VERTEX
5
c3
100
AcDbEntity
8
1
100
AcDbVertex
100
AcDb2dVertex
62
5
10
213.750000
20
333.375000
0
VERTEX
5
c4
100
AcDbEntity
8
1
100
AcDbVertex
100
AcDb2dVertex
62
5
10
214.500000
20
334.312500
0
VERTEX
5
c5
100
AcDbEntity
8
1
100
AcDbVertex
100
AcDb2dVertex
62
5
10
215.000000
20
335.250000
0
SEQEND
5
c6
100
AcDbEntity
8
1
0
POLYLINE
5
c7
100
AcDbEntity
8
1
6
DOT2
62
5
100
AcDb2dPolyline
66
1
10
0.0
20
0.0
30
0.0
70
1
0
VERTEX
5
c8
100
AcDbEntity
8
1
100
AcDbVertex
100
AcDb2dVertex
62
5
10
172.500000
20
248.907422
0
VERTEX
5
c9
100
AcDbEntity
8
1
100
AcDbVertex
100
AcDb2dVertex
62
5
10
173.125000
20
248.907422
0
VERTEX
5
ca
100
AcDbEntity
8
1
100
AcDbVertex
100
AcDb2dVertex
62
5
10
173.750000
20
248.594922
0
VERTEX
5
cb
100
AcDbEntity
8
1
100
AcDbVertex
100
AcDb2dVertex
62
5
10
174.062500
20
247.969922
0
VERTEX
5
cc
100
AcDbEntity
8
1
100
AcDbVertex
100
AcDb2dVertex
62
5
10
174.062500
20
246.719922
0
VERTEX
5
cd
100
AcDbEntity
8
1
100
AcDbVertex
100
AcDb2dVertex
62
5
10
173.750000
20
246.094922
0
VERTEX
5
ce
100
AcDbEntity
8
1
100
AcDbVertex
100
AcDb2dVertex
62
5
10
171.875000
20
244.844922
0
VERTEX
5
cf
100
AcDbEntity
8
1
100
AcDbVertex
100
AcDb2dVertex
62
5
10
171.250000
20
243.907422
0
VERTEX
5
d0
100
AcDbEntity
8
1
100
AcDbVertex
100
AcDb2dVertex
62
5
10
171.250000
20
242.657422
0
VERTEX
5
d1
100
AcDbEntity
8
1
100
AcDbVertex
100
AcDb2dVertex
62
5
10
171.562500
20
242.032422
0
VERTEX
5
d2
100
AcDbEntity
8
1
100
AcDbVertex
100
AcDb2dVertex
62
5
10
171.875000
20
241.719922
0
VERTEX
5
d3
100
AcDbEntity
8
1
100
AcDbVertex
100
AcDb2dVertex
62
5
10
172.500000
20
241.407422
0
VERTEX
5
d4
100
AcDbEntity
8
1
100
AcDbVertex
100
AcDb2dVertex
62
5
10
173.125000
20
241.407422
0
VERTEX
5
d5
100
AcDbEntity
8
1
100
AcDbVertex
100
AcDb2dVertex
62
5
10
173.750000
20
241.719922
0
VERTEX
5
d6
100
AcDbEntity
8
1
100
AcDbVertex
100
AcDb2dVertex
62
5
10
174.062500
20
242.032422
0
VERTEX
5
d7
100
AcDbEntity
8
1
100
AcDbVertex
100
AcDb2dVertex
62
5
10
174.375000
20
242.657422
0
VERTEX
5
d8
100
AcDbEntity
8
1
100
AcDbVertex
100
AcDb2dVertex
62
5
10
174.375000
20
243.907422
0
VERTEX
5
d9
100
AcDbEntity
8
1
100
AcDbVertex
100
AcDb2dVertex
62
5
10
173.750000
20
244.844922
0
VERTEX
5
da
100
AcDbEntity
8
1
100
AcDbVertex
100
AcDb2dVertex
62
5
10
171.875000
20
246.094922
0
VERTEX
5
db
100
AcDbEntity
8
1
100
AcDbVertex
100
AcDb2dVertex
62
5
10
171.562500
20
246.719922
0
VERTEX
5
dc
100
AcDbEntity
8
1
100
AcDbVertex
100
AcDb2dVertex
62
5
10
171.562500
20
247.969922
0
VERTEX
5
dd
100
AcDbEntity
8
1
100
AcDbVertex
100
AcDb2dVertex
62
5
10
171.875000
20
248.594922
0
VERTEX
5
de
100
AcDbEntity
8
1
100
AcDbVertex
100
AcDb2dVertex
62
5
10
172.500000
20
248.907422
0
SEQEND
5
df
100
AcDbEntity
8
1
0
LINE
5
e0
100
AcDbEntity
8
1
100
AcDbLine
6
CONTINUOUS
62
5
10
184.000000
20
213.907422
11
184.400000
21
213.907422
0
LINE
5
e1
100
AcDbEntity
8
1
100
AcDbLine
6
CONTINUOUS
62
5
10
187.500000
20
213.907422
11
188.500000
21
213.907422
0
ARC
5
e2
100
AcDbEntity
8
1
100
AcDbCircle
6
CONTINUOUS
62
5
10
188.200000
20
214.007422
40
0.500000
100
AcDbArc
50
89.999999
51
-179.999998
0
LINE
5
e3
100
AcDbEntity
8
1
100
AcDbLine
6
CONTINUOUS
62
5
10
189.000000
20
214.507422
11
188.200000
21
214.507422
0
POLYLINE
5
e4
100
AcDbEntity
8
1
6
CONTINUOUS
62
5
100
AcDb2dPolyline
66
1
10
0.0
20
0.0
30
0.0
70
1
0
VERTEX
5
e5
100
AcDbEntity
8
1
100
AcDbVertex
100
AcDb2dVertex
62
5
10
186.000000
20
209.349164
0
VERTEX
5
e6
100
AcDbEntity
8
1
100
AcDbVertex
100
AcDb2dVertex
62
5
10
186.000000
20
207.457422
0
SEQEND
5
e7
100
AcDbEntity
8
1
0
ARC
5
e8
100
AcDbEntity
8
1
100
AcDbCircle
6
CONTINUOUS
62
5
10
190.000000
20
213.507422
40
1.000000
100
AcDbArc
50
0.000000
51
89.999999
0
LINE
5
e9
100
AcDbEntity
8
1
100
AcDbLine
6
CONTINUOUS
62
5
10
190.000000
20
214.507422
11
189.000000
21
214.507422
0
ARC
5
ea
100
AcDbEntity
8
1
100
AcDbCircle
6
CONTINUOUS
62
5
10
189.000000
20
214.007422
40
0.500000
100
AcDbArc
50
89.999999
51
179.999998
0
LINE
5
eb
100
AcDbEntity
8
1
100
AcDbLine
6
CONTINUOUS
62
5
10
188.500000
20
214.007422
11
188.500000
21
213.707568
0
LINE
5
ec
100
AcDbEntity
8
1
100
AcDbLine
6
CONTINUOUS
62
5
10
191.000000
20
212.007422
11
191.000000
21
213.507422
0
ARC
5
ed
100
AcDbEntity
8
1
100
AcDbCircle
6
CONTINUOUS
62
5
10
188.200000
20
214.307422
40
0.500000
100
AcDbArc
50
89.999999
51
179.999998
0
LINE
5
ee
100
AcDbEntity
8
1
100
AcDbLine
6
CONTINUOUS
62
5
10
188.200000
20
214.807422
11
190.000000
21
214.807422
0
ARC
5
ef
100
AcDbEntity
8
1
100
AcDbCircle
6
CONTINUOUS
62
5
10
190.000000
20
213.307422
40
1.500000
100
AcDbArc
50
0.000000
51
89.999999
0
LINE
5
f0
100
AcDbEntity
8
1
100
AcDbLine
6
CONTINUOUS
62
5
10
191.500000
20
213.307422
11
191.500000
21
212.007422
0
LINE
5
f1
100
AcDbEntity
8
1
100
AcDbLine
6
CONTINUOUS
62
5
10
187.700000
20
213.907422
11
187.700000
21
214.307422
0
LINE
5
f2
100
AcDbEntity
8
1
100
AcDbLine
6
CONTINUOUS
62
5
10
186.000000
20
200.157422
11
186.000000
21
198.265680
0
ARC
5
f3
100
AcDbEntity
8
1
100
AcDbCircle
6
CONTINUOUS
62
5
10
189.000000
20
193.607422
40
0.500000
100
AcDbArc
50
-179.999998
51
-89.999999
0
LINE
5
f4
100
AcDbEntity
8
1
100
AcDbLine
6
CONTINUOUS
62
5
10
188.500000
20
193.907277
11
188.500000
21
193.607422
0
LINE
5
f5
100
AcDbEntity
8
1
100
AcDbLine
6
CONTINUOUS
62
5
10
184.000000
20
193.707422
11
184.400000
21
193.707422
0
LINE
5
f6
100
AcDbEntity
8
1
100
AcDbLine
6
CONTINUOUS
62
5
10
188.500000
20
193.707422
11
187.500000
21
193.707422
0
ARC
5
f7
100
AcDbEntity
8
1
100
AcDbCircle
6
CONTINUOUS
62
5
10
190.000000
20
194.307422
40
1.500000
100
AcDbArc
50
-89.999999
51
0.000000
0
LINE
5
f8
100
AcDbEntity
8
1
100
AcDbLine
6
CONTINUOUS
62
5
10
190.000000
20
192.807422
11
188.200000
21
192.807422
0
ARC
5
f9
100
AcDbEntity
8
1
100
AcDbCircle
6
CONTINUOUS
62
5
10
188.200000
20
193.307422
40
0.500000
100
AcDbArc
50
179.999998
51
-89.999999
0
LINE
5
fa
100
AcDbEntity
8
1
100
AcDbLine
6
CONTINUOUS
62
5
10
187.700000
20
193.307422
11
187.700000
21
193.707422
0
LINE
5
fb
100
AcDbEntity
8
1
100
AcDbLine
6
CONTINUOUS
62
5
10
191.500000
20
195.607422
11
191.500000
21
194.307422
0
ARC
5
fc
100
AcDbEntity
8
1
100
AcDbCircle
6
CONTINUOUS
62
5
10
188.200000
20
193.607422
40
0.500000
100
AcDbArc
50
179.999998
51
-89.999999
0
LINE
5
fd
100
AcDbEntity
8
1
100
AcDbLine
6
CONTINUOUS
62
5
10
188.200000
20
193.107422
11
190.000000
21
193.107422
0
ARC
5
fe
100
AcDbEntity
8
1
100
AcDbCircle
6
CONTINUOUS
62
5
10
190.000000
20
194.107422
40
1.000000
100
AcDbArc
50
-89.999999
51
0.000000
0
LINE
5
ff
100
AcDbEntity
8
1
100
AcDbLine
6
CONTINUOUS
62
5
10
191.000000
20
194.107422
11
191.000000
21
195.607422
0
LINE
5
100
100
AcDbEntity
8
1
100
AcDbLine
6
CONTINUOUS
62
5
10
187.700000
20
193.707422
11
187.700000
21
193.607422
0
LINE
5
101
100
AcDbEntity
8
1
100
AcDbLine
6
CONTINUOUS
62
5
10
191.500000
20
209.107422
11
191.500000
21
198.507422
0
LINE
5
102
100
AcDbEntity
8
1
100
AcDbLine
6
CONTINUOUS
62
5
10
190.000000
20
208.355754
11
190.000000
21
199.259091
0
ARC
5
103
100
AcDbEntity
8
1
100
AcDbCircle
6
CONTINUOUS
62
5
10
184.500000
20
197.807422
40
0.500000
100
AcDbArc
50
-89.999999
51
0.000000
0
LINE
5
104
100
AcDbEntity
8
1
100
AcDbLine
6
CONTINUOUS
62
5
10
184.500000
20
197.307422
11
184.000000
21
197.307422
0
LINE
5
105
100
AcDbEntity
8
1
100
AcDbLine
6
CONTINUOUS
62
5
10
184.000000
20
210.307422
11
184.500000
21
210.307422
0
ARC
5
106
100
AcDbEntity
8
1
100
AcDbCircle
6
CONTINUOUS
62
5
10
184.500000
20
209.807422
40
0.500000
100
AcDbArc
50
0.000000
51
89.999999
0
LINE
5
107
100
AcDbEntity
8
1
100
AcDbLine
6
CONTINUOUS
62
5
10
185.000000
20
209.807422
11
185.000000
21
197.807422
0
LINE
5
108
100
AcDbEntity
8
1
100
AcDbLine
6
CONTINUOUS
62
5
10
185.800000
20
209.307422
11
185.800000
21
198.307422
0
ARC
5
109
100
AcDbEntity
8
1
100
AcDbCircle
6
CONTINUOUS
62
5
10
186.000000
20
200.457422
40
0.300000
100
AcDbArc
50
-89.999999
51
-0.000000
0
LINE
5
10a
100
AcDbEntity
8
1
100
AcDbLine
6
CONTINUOUS
62
5
10
186.300000
20
200.457422
11
186.300000
21
207.157422
0
ARC
5
10b
100
AcDbEntity
8
1
100
AcDbCircle
6
CONTINUOUS
62
5
10
186.000000
20
207.157422
40
0.300000
100
AcDbArc
50
-0.000000
51
89.999999
0
LINE
5
10c
100
AcDbEntity
8
1
100
AcDbLine
6
CONTINUOUS
62
5
10
186.000000
20
207.457422
11
185.800000
21
207.457422
0
LINE
5
10d
100
AcDbEntity
8
1
100
AcDbLine
6
CONTINUOUS
62
5
10
185.800000
20
200.157422
11
186.000000
21
200.157422
0
ARC
5
10e
100
AcDbEntity
8
1
100
AcDbCircle
6
CONTINUOUS
62
5
10
185.800000
20
209.807422
40
0.500000
100
AcDbArc
50
0.000000
51
61.641340
0
ARC
5
10f
100
AcDbEntity
8
1
100
AcDbCircle
6
CONTINUOUS
62
5
10
185.800000
20
209.807422
40
0.500000
100
AcDbArc
50
-89.999999
51
0.000000
0
LINE
5
110
100
AcDbEntity
8
1
100
AcDbLine
6
CONTINUOUS
62
5
10
185.800000
20
209.307422
11
185.000000
21
209.307422
0
LINE
5
111
100
AcDbEntity
8
1
100
AcDbLine
6
CONTINUOUS
62
5
10
185.000000
20
198.307422
11
185.800000
21
198.307422
0
ARC
5
112
100
AcDbEntity
8
1
100
AcDbCircle
6
CONTINUOUS
62
5
10
185.800000
20
197.807422
40
0.500000
100
AcDbArc
50
0.000000
51
89.999999
0
ARC
5
113
100
AcDbEntity
8
1
100
AcDbCircle
6
CONTINUOUS
62
5
10
185.800000
20
197.807422
40
0.500000
100
AcDbArc
50
-61.641340
51
0.000000
0
POLYLINE
5
114
100
AcDbEntity
8
1
6
CONTINUOUS
62
5
100
AcDb2dPolyline
66
1
10
0.0
20
0.0
30
0.0
70
0
0
VERTEX
5
115
100
AcDbEntity
8
1
100
AcDbVertex
100
AcDb2dVertex
62
5
10
186.037495
20
197.367426
0
VERTEX
5
116
100
AcDbEntity
8
1
100
AcDbVertex
100
AcDb2dVertex
62
5
10
185.000000
20
196.807422
0
VERTEX
5
117
100
AcDbEntity
8
1
100
AcDbVertex
100
AcDb2dVertex
62
5
10
184.500000
20
196.807422
0
VERTEX
5
118
100
AcDbEntity
8
1
100
AcDbVertex
100
AcDb2dVertex
62
5
10
184.000000
20
196.307422
0
SEQEND
5
119
100
AcDbEntity
8
1
0
POLYLINE
5
11a
100
AcDbEntity
8
1
6
CONTINUOUS
62
5
100
AcDb2dPolyline
66
1
10
0.0
20
0.0
30
0.0
70
0
0
VERTEX
5
11b
100
AcDbEntity
8
1
100
AcDbVertex
100
AcDb2dVertex
62
5
10
184.000000
20
195.607422
0
VERTEX
5
11c
100
AcDbEntity
8
1
100
AcDbVertex
100
AcDb2dVertex
62
5
10
184.400000
20
195.607422
0
VERTEX
5
11d
100
AcDbEntity
8
1
100
AcDbVertex
100
AcDb2dVertex
62
5
10
184.400000
20
192.753010
0
SEQEND
5
11e
100
AcDbEntity
8
1
0
POLYLINE
5
11f
100
AcDbEntity
8
1
6
CONTINUOUS
62
5
100
AcDb2dPolyline
66
1
10
0.0
20
0.0
30
0.0
70
0
0
VERTEX
5
120
100
AcDbEntity
8
1
100
AcDbVertex
100
AcDb2dVertex
62
5
10
184.400000
20
214.861836
0
VERTEX
5
121
100
AcDbEntity
8
1
100
AcDbVertex
100
AcDb2dVertex
62
5
10
184.400000
20
212.007422
0
VERTEX
5
122
100
AcDbEntity
8
1
100
AcDbVertex
100
AcDb2dVertex
62
5
10
184.000000
20
212.007422
0
SEQEND
5
123
100
AcDbEntity
8
1
0
POLYLINE
5
124
100
AcDbEntity
8
1
6
CONTINUOUS
62
5
100
AcDb2dPolyline
66
1
10
0.0
20
0.0
30
0.0
70
0
0
VERTEX
5
125
100
AcDbEntity
8
1
100
AcDbVertex
100
AcDb2dVertex
62
5
10
184.000000
20
211.307422
0
VERTEX
5
126
100
AcDbEntity
8
1
100
AcDbVertex
100
AcDb2dVertex
62
5
10
184.500000
20
210.807422
0
VERTEX
5
127
100
AcDbEntity
8
1
100
AcDbVertex
100
AcDb2dVertex
62
5
10
185.000000
20
210.807422
0
VERTEX
5
128
100
AcDbEntity
8
1
100
AcDbVertex
100
AcDb2dVertex
62
5
10
186.037495
20
210.247418
0
SEQEND
5
129
100
AcDbEntity
8
1
0
ARC
5
12a
100
AcDbEntity
8
1
100
AcDbCircle
6
CONTINUOUS
62
5
10
188.812876
20
194.908139
40
1.000908
100
AcDbArc
50
-89.999999
51
-7.748461
0
ARC
5
12b
100
AcDbEntity
8
1
100
AcDbCircle
6
CONTINUOUS
62
5
10
190.790444
20
194.607855
40
0.999567
100
AcDbArc
50
89.991039
51
170.478977
0
LINE
5
12c
100
AcDbEntity
8
1
100
AcDbLine
6
CONTINUOUS
62
5
10
190.790600
20
195.607422
11
191.500000
21
195.607422
0
ARC
5
12d
100
AcDbEntity
8
1
100
AcDbCircle
6
CONTINUOUS
62
5
10
191.500000
20
196.107422
40
0.500000
100
AcDbArc
50
-89.999999
51
0.000000
0
LINE
5
12e
100
AcDbEntity
8
1
100
AcDbLine
6
CONTINUOUS
62
5
10
192.000000
20
196.107422
11
192.000000
21
198.007422
0
ARC
5
12f
100
AcDbEntity
8
1
100
AcDbCircle
6
CONTINUOUS
62
5
10
191.500000
20
198.007422
40
0.500000
100
AcDbArc
50
-0.000000
51
89.999999
0
LINE
5
130
100
AcDbEntity
8
1
100
AcDbLine
6
CONTINUOUS
62
5
10
191.500000
20
198.507422
11
191.300000
21
198.507422
0
ARC
5
131
100
AcDbEntity
8
1
100
AcDbCircle
6
CONTINUOUS
62
5
10
191.300000
20
200.007422
40
1.500000
100
AcDbArc
50
-179.999998
51
-89.999999
0
LINE
5
132
100
AcDbEntity
8
1
100
AcDbLine
6
CONTINUOUS
62
5
10
189.800000
20
200.007422
11
189.800000
21
207.607422
0
ARC
5
133
100
AcDbEntity
8
1
100
AcDbCircle
6
CONTINUOUS
62
5
10
191.300000
20
207.607422
40
1.500000
100
AcDbArc
50
89.999999
51
179.999998
0
LINE
5
134
100
AcDbEntity
8
1
100
AcDbLine
6
CONTINUOUS
62
5
10
191.300000
20
209.107422
11
191.500000
21
209.107422
0
ARC
5
135
100
AcDbEntity
8
1
100
AcDbCircle
6
CONTINUOUS
62
5
10
191.500000
20
209.607422
40
0.500000
100
AcDbArc
50
-89.999999
51
0.000000
0
LINE
5
136
100
AcDbEntity
8
1
100
AcDbLine
6
CONTINUOUS
62
5
10
192.000000
20
209.607422
11
192.000000
21
211.507422
0
ARC
5
137
100
AcDbEntity
8
1
100
AcDbCircle
6
CONTINUOUS
62
5
10
191.500000
20
211.507422
40
0.500000
100
AcDbArc
50
-0.000000
51
89.999999
0
LINE
5
138
100
AcDbEntity
8
1
100
AcDbLine
6
CONTINUOUS
62
5
10
191.500000
20
212.007422
11
190.790600
21
212.007422
0
ARC
5
139
100
AcDbEntity
8
1
100
AcDbCircle
6
CONTINUOUS
62
5
10
190.790439
20
213.006975
40
0.999553
100
AcDbArc
50
-170.493353
51
-89.990749
0
ARC
5
13a
100
AcDbEntity
8
1
100
AcDbCircle
6
CONTINUOUS
62
5
10
188.812876
20
212.706705
40
1.000908
100
AcDbArc
50
7.762041
51
89.999999
0
POLYLINE
5
13b
100
AcDbEntity
8
1
6
CONTINUOUS
62
5
100
AcDb2dPolyline
66
1
10
0.0
20
0.0
30
0.0
70
0
0
VERTEX
5
13c
100
AcDbEntity
8
1
100
AcDbVertex
100
AcDb2dVertex
62
5
10
188.812876
20
213.707613
0
VERTEX
5
13d
100
AcDbEntity
8
1
100
AcDbVertex
100
AcDb2dVertex
62
5
10
187.500000
20
213.707422
0
VERTEX
5
13e
100
AcDbEntity
8
1
100
AcDbVertex
100
AcDb2dVertex
62
5
10
187.500000
20
214.862764
0
VERTEX
5
13f
100
AcDbEntity
8
1
100
AcDbVertex
100
AcDb2dVertex
62
5
10
184.000000
20
214.861716
0
VERTEX
5
140
100
AcDbEntity
8
1
100
AcDbVertex
100
AcDb2dVertex
62
5
10
184.000000
20
214.061716
0
VERTEX
5
141
100
AcDbEntity
8
1
100
AcDbVertex
100
AcDb2dVertex
62
5
10
184.400000
20
214.061836
0
SEQEND
5
142
100
AcDbEntity
8
1
0
POLYLINE
5
143
100
AcDbEntity
8
1
6
CONTINUOUS
62
5
100
AcDb2dPolyline
66
1
10
0.0
20
0.0
30
0.0
70
0
0
VERTEX
5
144
100
AcDbEntity
8
1
100
AcDbVertex
100
AcDb2dVertex
62
5
10
184.400000
20
193.557405
0
VERTEX
5
145
100
AcDbEntity
8
1
100
AcDbVertex
100
AcDb2dVertex
62
5
10
184.000000
20
193.557405
0
VERTEX
5
146
100
AcDbEntity
8
1
100
AcDbVertex
100
AcDb2dVertex
62
5
10
184.000000
20
192.753130
0
VERTEX
5
147
100
AcDbEntity
8
1
100
AcDbVertex
100
AcDb2dVertex
62
5
10
187.500000
20
192.752082
0
VERTEX
5
148
100
AcDbEntity
8
1
100
AcDbVertex
100
AcDb2dVertex
62
5
10
187.500000
20
193.907422
0
VERTEX
5
149
100
AcDbEntity
8
1
100
AcDbVertex
100
AcDb2dVertex
62
5
10
188.812876
20
193.907231
0
SEQEND
5
14a
100
AcDbEntity
8
1
0
POLYLINE
5
14b
100
AcDbEntity
8
1
6
CONTINUOUS
62
5
100
AcDb2dPolyline
66
1
10
0.0
20
0.0
30
0.0
70
0
0
VERTEX
5
14c
100
AcDbEntity
8
1
100
AcDbVertex
100
AcDb2dVertex
62
5
10
152.750000
20
336.812500
0
VERTEX
5
14d
100
AcDbEntity
8
1
100
AcDbVertex
100
AcDb2dVertex
62
5
10
157.750000
20
337.125000
0
VERTEX
5
14e
100
AcDbEntity
8
1
100
AcDbVertex
100
AcDb2dVertex
62
5
10
158.250000
20
336.500000
0
VERTEX
5
14f
100
AcDbEntity
8
1
100
AcDbVertex
100
AcDb2dVertex
62
5
10
157.000000
20
334.937500
0
VERTEX
5
150
100
AcDbEntity
8
1
100
AcDbVertex
100
AcDb2dVertex
62
5
10
155.750000
20
333.375000
0
SEQEND
5
151
100
AcDbEntity
8
1
0
POLYLINE
5
152
100
AcDbEntity
8
1
6
CONTINUOUS
62
5
100
AcDb2dPolyline
66
1
10
0.0
20
0.0
30
0.0
70
0
0
VERTEX
5
153
100
AcDbEntity
8
1
100
AcDbVertex
100
AcDb2dVertex
62
5
10
154.500000
20
334.625000
0
VERTEX
5
154
100
AcDbEntity
8
1
100
AcDbVertex
100
AcDb2dVertex
62
5
10
155.750000
20
333.375000
0
VERTEX
5
155
100
AcDbEntity
8
1
100
AcDbVertex
100
AcDb2dVertex
62
5
10
156.250000
20
332.437500
0
SEQEND
5
156
100
AcDbEntity
8
1
0
POLYLINE
5
157
100
AcDbEntity
8
1
6
CONTINUOUS
62
5
100
AcDb2dPolyline
66
1
10
0.0
20
0.0
30
0.0
70
0
0
VERTEX
5
158
100
AcDbEntity
8
1
100
AcDbVertex
100
AcDb2dVertex
62
5
10
160.750000
20
335.562500
0
VERTEX
5
159
100
AcDbEntity
8
1
100
AcDbVertex
100
AcDb2dVertex
62
5
10
161.000000
20
335.250000
0
VERTEX
5
15a
100
AcDbEntity
8
1
100
AcDbVertex
100
AcDb2dVertex
62
5
10
167.750000
20
335.250000
0
SEQEND
5
15b
100
AcDbEntity
8
1
0
POLYLINE
5
15c
100
AcDbEntity
8
1
6
CONTINUOUS
62
5
100
AcDb2dPolyline
66
1
10
0.0
20
0.0
30
0.0
70
0
0
VERTEX
5
15d
100
AcDbEntity
8
1
100
AcDbVertex
100
AcDb2dVertex
62
5
10
133.000000
20
337.125000
0
VERTEX
5
15e
100
AcDbEntity
8
1
100
AcDbVertex
100
AcDb2dVertex
62
5
10
133.250000
20
338.375000
0
VERTEX
5
15f
100
AcDbEntity
8
1
100
AcDbVertex
100
AcDb2dVertex
62
5
10
133.750000
20
339.000000
0
VERTEX
5
160
100
AcDbEntity
8
1
100
AcDbVertex
100
AcDb2dVertex
62
5
10
134.500000
20
339.000000
0
VERTEX
5
161
100
AcDbEntity
8
1
100
AcDbVertex
100
AcDb2dVertex
62
5
10
135.000000
20
338.687500
0
VERTEX
5
162
100
AcDbEntity
8
1
100
AcDbVertex
100
AcDb2dVertex
62
5
10
135.250000
20
337.750000
0
VERTEX
5
163
100
AcDbEntity
8
1
100
AcDbVertex
100
AcDb2dVertex
62
5
10
135.250000
20
336.500000
0
VERTEX
5
164
100
AcDbEntity
8
1
100
AcDbVertex
100
AcDb2dVertex
62
5
10
135.000000
20
335.875000
0
VERTEX
5
165
100
AcDbEntity
8
1
100
AcDbVertex
100
AcDb2dVertex
62
5
10
134.500000
20
335.250000
0
VERTEX
5
166
100
AcDbEntity
8
1
100
AcDbVertex
100
AcDb2dVertex
62
5
10
133.750000
20
335.250000
0
SEQEND
5
167
100
AcDbEntity
8
1
0
POLYLINE
5
168
100
AcDbEntity
8
1
6
CONTINUOUS
62
5
100
AcDb2dPolyline
66
1
10
0.0
20
0.0
30
0.0
70
0
0
VERTEX
5
169
100
AcDbEntity
8
1
100
AcDbVertex
100
AcDb2dVertex
62
5
10
134.500000
20
335.250000
0
VERTEX
5
16a
100
AcDbEntity
8
1
100
AcDbVertex
100
AcDb2dVertex
62
5
10
135.250000
20
334.625000
0
VERTEX
5
16b
100
AcDbEntity
8
1
100
AcDbVertex
100
AcDb2dVertex
62
5
10
135.500000
20
333.687500
0
VERTEX
5
16c
100
AcDbEntity
8
1
100
AcDbVertex
100
AcDb2dVertex
62
5
10
135.500000
20
332.750000
0
VERTEX
5
16d
100
AcDbEntity
8
1
100
AcDbVertex
100
AcDb2dVertex
62
5
10
135.250000
20
332.125000
0
VERTEX
5
16e
100
AcDbEntity
8
1
100
AcDbVertex
100
AcDb2dVertex
62
5
10
134.500000
20
331.500000
0
VERTEX
5
16f
100
AcDbEntity
8
1
100
AcDbVertex
100
AcDb2dVertex
62
5
10
133.750000
20
331.500000
0
VERTEX
5
170
100
AcDbEntity
8
1
100
AcDbVertex
100
AcDb2dVertex
62
5
10
133.250000
20
331.812500
0
VERTEX
5
171
100
AcDbEntity
8
1
100
AcDbVertex
100
AcDb2dVertex
62
5
10
132.750000
20
332.750000
0
SEQEND
5
172
100
AcDbEntity
8
1
0
POLYLINE
5
173
100
AcDbEntity
8
1
6
CONTINUOUS
62
5
100
AcDb2dPolyline
66
1
10
0.0
20
0.0
30
0.0
70
1
0
VERTEX
5
174
100
AcDbEntity
8
1
100
AcDbVertex
100
AcDb2dVertex
62
5
10
137.000000
20
339.312500
0
VERTEX
5
175
100
AcDbEntity
8
1
100
AcDbVertex
100
AcDb2dVertex
62
5
10
137.000000
20
336.500000
0
VERTEX
5
176
100
AcDbEntity
8
1
100
AcDbVertex
100
AcDb2dVertex
62
5
10
139.000000
20
336.500000
0
VERTEX
5
177
100
AcDbEntity
8
1
100
AcDbVertex
100
AcDb2dVertex
62
5
10
139.000000
20
339.312500
0
VERTEX
5
178
100
AcDbEntity
8
1
100
AcDbVertex
100
AcDb2dVertex
62
5
10
137.000000
20
339.312500
0
SEQEND
5
179
100
AcDbEntity
8
1
0
LINE
5
17a
100
AcDbEntity
8
1
100
AcDbLine
6
CONTINUOUS
62
5
10
138.000000
20
336.500000
11
138.000000
21
331.812500
0
LINE
5
17b
100
AcDbEntity
8
1
100
AcDbLine
6
CONTINUOUS
62
5
10
138.000000
20
334.625000
11
139.000000
21
334.625000
0
LINE
5
17c
100
AcDbEntity
8
1
100
AcDbLine
6
CONTINUOUS
62
5
10
137.000000
20
334.937500
11
137.000000
21
331.500000
0
LINE
5
17d
100
AcDbEntity
8
1
100
AcDbLine
6
CONTINUOUS
62
5
10
136.500000
20
331.187500
11
139.250000
21
332.125000
0
POLYLINE
5
17e
100
AcDbEntity
8
1
6
CONTINUOUS
62
5
100
AcDb2dPolyline
66
1
10
0.0
20
0.0
30
0.0
70
0
0
VERTEX
5
17f
100
AcDbEntity
8
1
100
AcDbVertex
100
AcDb2dVertex
62
5
10
141.000000
20
339.625000
0
VERTEX
5
180
100
AcDbEntity
8
1
100
AcDbVertex
100
AcDb2dVertex
62
5
10
140.750000
20
338.687500
0
VERTEX
5
181
100
AcDbEntity
8
1
100
AcDbVertex
100
AcDb2dVertex
62
5
10
140.250000
20
337.750000
0
VERTEX
5
182
100
AcDbEntity
8
1
100
AcDbVertex
100
AcDb2dVertex
62
5
10
139.500000
20
336.812500
0
SEQEND
5
183
100
AcDbEntity
8
1
0
POLYLINE
5
184
100
AcDbEntity
8
1
6
CONTINUOUS
62
5
100
AcDb2dPolyline
66
1
10
0.0
20
0.0
30
0.0
70
0
0
VERTEX
5
185
100
AcDbEntity
8
1
100
AcDbVertex
100
AcDb2dVertex
62
5
10
140.750000
20
338.687500
0
VERTEX
5
186
100
AcDbEntity
8
1
100
AcDbVertex
100
AcDb2dVertex
62
5
10
142.750000
20
338.687500
0
VERTEX
5
187
100
AcDbEntity
8
1
100
AcDbVertex
100
AcDb2dVertex
62
5
10
142.000000
20
336.812500
0
VERTEX
5
188
100
AcDbEntity
8
1
100
AcDbVertex
100
AcDb2dVertex
62
5
10
141.250000
20
335.562500
0
VERTEX
5
189
100
AcDbEntity
8
1
100
AcDbVertex
100
AcDb2dVertex
62
5
10
140.500000
20
334.625000
0
VERTEX
5
18a
100
AcDbEntity
8
1
100
AcDbVertex
100
AcDb2dVertex
62
5
10
139.500000
20
333.687500
0
SEQEND
5
18b
100
AcDbEntity
8
1
0
POLYLINE
5
18c
100
AcDbEntity
8
1
6
CONTINUOUS
62
5
100
AcDb2dPolyline
66
1
10
0.0
20
0.0
30
0.0
70
0
0
VERTEX
5
18d
100
AcDbEntity
8
1
100
AcDbVertex
100
AcDb2dVertex
62
5
10
140.500000
20
338.062500
0
VERTEX
5
18e
100
AcDbEntity
8
1
100
AcDbVertex
100
AcDb2dVertex
62
5
10
141.250000
20
336.812500
0
VERTEX
5
18f
100
AcDbEntity
8
1
100
AcDbVertex
100
AcDb2dVertex
62
5
10
142.250000
20
335.562500
0
VERTEX
5
190
100
AcDbEntity
8
1
100
AcDbVertex
100
AcDb2dVertex
62
5
10
143.500000
20
334.312500
0
SEQEND
5
191
100
AcDbEntity
8
1
0
POLYLINE
5
192
100
AcDbEntity
8
1
6
CONTINUOUS
62
5
100
AcDb2dPolyline
66
1
10
0.0
20
0.0
30
0.0
70
1
0
VERTEX
5
193
100
AcDbEntity
8
1
100
AcDbVertex
100
AcDb2dVertex
62
5
10
140.250000
20
334.312500
0
VERTEX
5
194
100
AcDbEntity
8
1
100
AcDbVertex
100
AcDb2dVertex
62
5
10
140.250000
20
331.187500
0
VERTEX
5
195
100
AcDbEntity
8
1
100
AcDbVertex
100
AcDb2dVertex
62
5
10
143.000000
20
331.187500
0
VERTEX
5
196
100
AcDbEntity
8
1
100
AcDbVertex
100
AcDb2dVertex
62
5
10
143.000000
20
334.312500
0
VERTEX
5
197
100
AcDbEntity
8
1
100
AcDbVertex
100
AcDb2dVertex
62
5
10
140.250000
20
334.312500
0
SEQEND
5
198
100
AcDbEntity
8
1
0
LINE
5
199
100
AcDbEntity
8
1
100
AcDbLine
6
CONTINUOUS
62
5
10
110.250000
20
335.562500
11
110.500000
21
334.312500
0
LINE
5
19a
100
AcDbEntity
8
1
100
AcDbLine
6
CONTINUOUS
62
5
10
111.750000
20
335.875000
11
112.000000
21
334.625000
0
POLYLINE
5
19b
100
AcDbEntity
8
1
6
CONTINUOUS
62
5
100
AcDb2dPolyline
66
1
10
0.0
20
0.0
30
0.0
70
0
0
VERTEX
5
19c
100
AcDbEntity
8
1
100
AcDbVertex
100
AcDb2dVertex
62
5
10
113.750000
20
335.875000
0
VERTEX
5
19d
100
AcDbEntity
8
1
100
AcDbVertex
100
AcDb2dVertex
62
5
10
113.500000
20
334.312500
0
VERTEX
5
19e
100
AcDbEntity
8
1
100
AcDbVertex
100
AcDb2dVertex
62
5
10
112.250000
20
332.437500
0
VERTEX
5
19f
100
AcDbEntity
8
1
100
AcDbVertex
100
AcDb2dVertex
62
5
10
111.250000
20
331.500000
0
SEQEND
5
1a0
100
AcDbEntity
8
1
0
POLYLINE
5
1a1
100
AcDbEntity
8
1
6
CONTINUOUS
62
5
100
AcDb2dPolyline
66
1
10
0.0
20
0.0
30
0.0
70
0
0
VERTEX
5
1a2
100
AcDbEntity
8
1
100
AcDbVertex
100
AcDb2dVertex
62
5
10
108.750000
20
325.562500
0
VERTEX
5
1a3
100
AcDbEntity
8
1
100
AcDbVertex
100
AcDb2dVertex
62
5
10
109.000000
20
325.250000
0
VERTEX
5
1a4
100
AcDbEntity
8
1
100
AcDbVertex
100
AcDb2dVertex
62
5
10
115.750000
20
325.250000
0
SEQEND
5
1a5
100
AcDbEntity
8
1
0
POLYLINE
5
1a6
100
AcDbEntity
8
1
6
CONTINUOUS
62
5
100
AcDb2dPolyline
66
1
10
0.0
20
0.0
30
0.0
70
0
0
VERTEX
5
1a7
100
AcDbEntity
8
1
100
AcDbVertex
100
AcDb2dVertex
62
5
10
119.250000
20
326.187500
0
VERTEX
5
1a8
100
AcDbEntity
8
1
100
AcDbVertex
100
AcDb2dVertex
62
5
10
119.500000
20
326.187500
0
VERTEX
5
1a9
100
AcDbEntity
8
1
100
AcDbVertex
100
AcDb2dVertex
62
5
10
121.250000
20
324.937500
0
SEQEND
5
1aa
100
AcDbEntity
8
1
0
LINE
5
1ab
100
AcDbEntity
8
1
100
AcDbLine
6
CONTINUOUS
62
5
10
119.250000
20
329.000000
11
119.250000
21
321.500000
0
POLYLINE
5
1ac
100
AcDbEntity
8
1
6
CONTINUOUS
62
5
100
AcDb2dPolyline
66
1
10
0.0
20
0.0
30
0.0
70
0
0
VERTEX
5
1ad
100
AcDbEntity
8
1
100
AcDbVertex
100
AcDb2dVertex
62
5
10
94.000000
20
337.125000
0
VERTEX
5
1ae
100
AcDbEntity
8
1
100
AcDbVertex
100
AcDb2dVertex
62
5
10
97.250000
20
337.125000
0
VERTEX
5
1af
100
AcDbEntity
8
1
100
AcDbVertex
100
AcDb2dVertex
62
5
10
97.250000
20
336.812500
0
VERTEX
5
1b0
100
AcDbEntity
8
1
100
AcDbVertex
100
AcDb2dVertex
62
5
10
96.750000
20
335.562500
0
VERTEX
5
1b1
100
AcDbEntity
8
1
100
AcDbVertex
100
AcDb2dVertex
62
5
10
96.250000
20
334.625000
0
VERTEX
5
1b2
100
AcDbEntity
8
1
100
AcDbVertex
100
AcDb2dVertex
62
5
10
95.250000
20
333.375000
0
VERTEX
5
1b3
100
AcDbEntity
8
1
100
AcDbVertex
100
AcDb2dVertex
62
5
10
93.500000
20
331.812500
0
SEQEND
5
1b4
100
AcDbEntity
8
1
0
LINE
5
1b5
100
AcDbEntity
8
1
100
AcDbLine
6
CONTINUOUS
62
5
10
96.250000
20
334.625000
11
98.250000
21
331.812500
0
POLYLINE
5
1b6
100
AcDbEntity
8
1
6
CONTINUOUS
62
5
100
AcDb2dPolyline
66
1
10
0.0
20
0.0
30
0.0
70
0
0
VERTEX
5
1b7
100
AcDbEntity
8
1
100
AcDbVertex
100
AcDb2dVertex
62
5
10
86.500000
20
325.875000
0
VERTEX
5
1b8
100
AcDbEntity
8
1
100
AcDbVertex
100
AcDb2dVertex
62
5
10
89.250000
20
325.875000
0
VERTEX
5
1b9
100
AcDbEntity
8
1
100
AcDbVertex
100
AcDb2dVertex
62
5
10
89.250000
20
322.125000
0
VERTEX
5
1ba
100
AcDbEntity
8
1
100
AcDbVertex
100
AcDb2dVertex
62
5
10
86.500000
20
322.125000
0
SEQEND
5
1bb
100
AcDbEntity
8
1
0
LINE
5
1bc
100
AcDbEntity
8
1
100
AcDbLine
6
CONTINUOUS
62
5
10
86.500000
20
324.000000
11
89.250000
21
324.000000
0
POLYLINE
5
1bd
100
AcDbEntity
8
1
6
CONTINUOUS
62
5
100
AcDb2dPolyline
66
1
10
0.0
20
0.0
30
0.0
70
0
0
VERTEX
5
1be
100
AcDbEntity
8
1
100
AcDbVertex
100
AcDb2dVertex
62
5
10
93.750000
20
327.125000
0
VERTEX
5
1bf
100
AcDbEntity
8
1
100
AcDbVertex
100
AcDb2dVertex
62
5
10
97.750000
20
327.125000
0
VERTEX
5
1c0
100
AcDbEntity
8
1
100
AcDbVertex
100
AcDb2dVertex
62
5
10
97.750000
20
322.750000
0
VERTEX
5
1c1
100
AcDbEntity
8
1
100
AcDbVertex
100
AcDb2dVertex
62
5
10
93.750000
20
322.750000
0
SEQEND
5
1c2
100
AcDbEntity
8
1
0
POLYLINE
5
1c3
100
AcDbEntity
8
1
6
CONTINUOUS
62
5
100
AcDb2dPolyline
66
1
10
0.0
20
0.0
30
0.0
70
0
0
VERTEX
5
1c4
100
AcDbEntity
8
1
100
AcDbVertex
100
AcDb2dVertex
62
5
10
102.250000
20
328.375000
0
VERTEX
5
1c5
100
AcDbEntity
8
1
100
AcDbVertex
100
AcDb2dVertex
62
5
10
102.250000
20
322.125000
0
VERTEX
5
1c6
100
AcDbEntity
8
1
100
AcDbVertex
100
AcDb2dVertex
62
5
10
102.750000
20
321.812500
0
VERTEX
5
1c7
100
AcDbEntity
8
1
100
AcDbVertex
100
AcDb2dVertex
62
5
10
104.000000
20
322.437500
0
VERTEX
5
1c8
100
AcDbEntity
8
1
100
AcDbVertex
100
AcDb2dVertex
62
5
10
105.250000
20
323.375000
0
VERTEX
5
1c9
100
AcDbEntity
8
1
100
AcDbVertex
100
AcDb2dVertex
62
5
10
106.500000
20
324.625000
0
SEQEND
5
1ca
100
AcDbEntity
8
1
0
POLYLINE
5
1cb
100
AcDbEntity
8
1
6
CONTINUOUS
62
5
100
AcDb2dPolyline
66
1
10
0.0
20
0.0
30
0.0
70
0
0
VERTEX
5
1cc
100
AcDbEntity
8
1
100
AcDbVertex
100
AcDb2dVertex
62
5
10
105.750000
20
338.687500
0
VERTEX
5
1cd
100
AcDbEntity
8
1
100
AcDbVertex
100
AcDb2dVertex
62
5
10
103.750000
20
336.187500
0
VERTEX
5
1ce
100
AcDbEntity
8
1
100
AcDbVertex
100
AcDb2dVertex
62
5
10
101.500000
20
334.625000
0
SEQEND
5
1cf
100
AcDbEntity
8
1
0
LINE
5
1d0
100
AcDbEntity
8
1
100
AcDbLine
6
CONTINUOUS
62
5
10
104.250000
20
336.812500
11
104.250000
21
331.500000
0
LINE
5
1d1
100
AcDbEntity
8
1
100
AcDbLine
6
CONTINUOUS
62
5
10
118.000000
20
337.437500
11
121.750000
21
338.062500
0
LINE
5
1d2
100
AcDbEntity
8
1
100
AcDbLine
6
CONTINUOUS
62
5
10
116.750000
20
335.562500
11
122.750000
21
335.562500
0
POLYLINE
5
1d3
100
AcDbEntity
8
1
6
CONTINUOUS
62
5
100
AcDb2dPolyline
66
1
10
0.0
20
0.0
30
0.0
70
0
0
VERTEX
5
1d4
100
AcDbEntity
8
1
100
AcDbVertex
100
AcDb2dVertex
62
5
10
120.000000
20
337.750000
0
VERTEX
5
1d5
100
AcDbEntity
8
1
100
AcDbVertex
100
AcDb2dVertex
62
5
10
120.000000
20
335.562500
0
VERTEX
5
1d6
100
AcDbEntity
8
1
100
AcDbVertex
100
AcDb2dVertex
62
5
10
119.750000
20
334.000000
0
VERTEX
5
1d7
100
AcDbEntity
8
1
100
AcDbVertex
100
AcDb2dVertex
62
5
10
119.000000
20
332.750000
0
VERTEX
5
1d8
100
AcDbEntity
8
1
100
AcDbVertex
100
AcDb2dVertex
62
5
10
118.250000
20
331.812500
0
SEQEND
5
1d9
100
AcDbEntity
8
1
0
POLYLINE
5
1da
100
AcDbEntity
8
1
6
CONTINUOUS
62
5
100
AcDb2dPolyline
66
1
10
0.0
20
0.0
30
0.0
70
0
0
VERTEX
5
1db
100
AcDbEntity
8
1
100
AcDbVertex
100
AcDb2dVertex
62
5
10
127.250000
20
329.625000
0
VERTEX
5
1dc
100
AcDbEntity
8
1
100
AcDbVertex
100
AcDb2dVertex
62
5
10
126.500000
20
328.375000
0
VERTEX
5
1dd
100
AcDbEntity
8
1
100
AcDbVertex
100
AcDb2dVertex
62
5
10
125.750000
20
327.437500
0
VERTEX
5
1de
100
AcDbEntity
8
1
100
AcDbVertex
100
AcDb2dVertex
62
5
10
124.750000
20
326.500000
0
SEQEND
5
1df
100
AcDbEntity
8
1
0
POLYLINE
5
1e0
100
AcDbEntity
8
1
6
CONTINUOUS
62
5
100
AcDb2dPolyline
66
1
10
0.0
20
0.0
30
0.0
70
0
0
VERTEX
5
1e1
100
AcDbEntity
8
1
100
AcDbVertex
100
AcDb2dVertex
62
5
10
127.000000
20
329.000000
0
VERTEX
5
1e2
100
AcDbEntity
8
1
100
AcDbVertex
100
AcDb2dVertex
62
5
10
129.250000
20
329.000000
0
VERTEX
5
1e3
100
AcDbEntity
8
1
100
AcDbVertex
100
AcDb2dVertex
62
5
10
128.000000
20
327.125000
0
SEQEND
5
1e4
100
AcDbEntity
8
1
0
POLYLINE
5
1e5
100
AcDbEntity
8
1
6
CONTINUOUS
62
5
100
AcDb2dPolyline
66
1
10
0.0
20
0.0
30
0.0
70
0
0
VERTEX
5
1e6
100
AcDbEntity
8
1
100
AcDbVertex
100
AcDb2dVertex
62
5
10
125.750000
20
327.125000
0
VERTEX
5
1e7
100
AcDbEntity
8
1
100
AcDbVertex
100
AcDb2dVertex
62
5
10
130.250000
20
327.125000
0
VERTEX
5
1e8
100
AcDbEntity
8
1
100
AcDbVertex
100
AcDb2dVertex
62
5
10
130.250000
20
324.312500
0
VERTEX
5
1e9
100
AcDbEntity
8
1
100
AcDbVertex
100
AcDb2dVertex
62
5
10
125.750000
20
324.312500
0
SEQEND
5
1ea
100
AcDbEntity
8
1
0
LINE
5
1eb
100
AcDbEntity
8
1
100
AcDbLine
6
CONTINUOUS
62
5
10
128.000000
20
327.125000
11
128.000000
21
324.312500
0
POLYLINE
5
1ec
100
AcDbEntity
8
1
6
CONTINUOUS
62
5
100
AcDb2dPolyline
66
1
10
0.0
20
0.0
30
0.0
70
0
0
VERTEX
5
1ed
100
AcDbEntity
8
1
100
AcDbVertex
100
AcDb2dVertex
62
5
10
125.750000
20
327.125000
0
VERTEX
5
1ee
100
AcDbEntity
8
1
100
AcDbVertex
100
AcDb2dVertex
62
5
10
125.750000
20
321.812500
0
VERTEX
5
1ef
100
AcDbEntity
8
1
100
AcDbVertex
100
AcDb2dVertex
62
5
10
126.250000
20
321.187500
0
VERTEX
5
1f0
100
AcDbEntity
8
1
100
AcDbVertex
100
AcDb2dVertex
62
5
10
131.250000
20
321.187500
0
VERTEX
5
1f1
100
AcDbEntity
8
1
100
AcDbVertex
100
AcDb2dVertex
62
5
10
131.250000
20
322.437500
0
SEQEND
5
1f2
100
AcDbEntity
8
1
0
POLYLINE
5
1f3
100
AcDbEntity
8
1
6
CONTINUOUS
62
5
100
AcDb2dPolyline
66
1
10
0.0
20
0.0
30
0.0
70
0
0
VERTEX
5
1f4
100
AcDbEntity
8
1
100
AcDbVertex
100
AcDb2dVertex
62
5
10
133.437500
20
298.625000
0
VERTEX
5
1f5
100
AcDbEntity
8
1
100
AcDbVertex
100
AcDb2dVertex
62
5
10
138.437500
20
298.625000
0
VERTEX
5
1f6
100
AcDbEntity
8
1
100
AcDbVertex
100
AcDb2dVertex
62
5
10
138.437500
20
294.250000
0
VERTEX
5
1f7
100
AcDbEntity
8
1
100
AcDbVertex
100
AcDb2dVertex
62
5
10
133.437500
20
294.250000
0
SEQEND
5
1f8
100
AcDbEntity
8
1
0
LINE
5
1f9
100
AcDbEntity
8
1
100
AcDbLine
6
CONTINUOUS
62
5
10
113.750000
20
298.937500
11
118.437500
21
299.562500
0
LINE
5
1fa
100
AcDbEntity
8
1
100
AcDbLine
6
CONTINUOUS
62
5
10
112.187500
20
297.062500
11
119.687500
21
297.062500
0
POLYLINE
5
1fb
100
AcDbEntity
8
1
6
CONTINUOUS
62
5
100
AcDb2dPolyline
66
1
10
0.0
20
0.0
30
0.0
70
0
0
VERTEX
5
1fc
100
AcDbEntity
8
1
100
AcDbVertex
100
AcDb2dVertex
62
5
10
116.250000
20
299.250000
0
VERTEX
5
1fd
100
AcDbEntity
8
1
100
AcDbVertex
100
AcDb2dVertex
62
5
10
116.250000
20
297.062500
0
VERTEX
5
1fe
100
AcDbEntity
8
1
100
AcDbVertex
100
AcDb2dVertex
62
5
10
115.937500
20
295.500000
0
VERTEX
5
1ff
100
AcDbEntity
8
1
100
AcDbVertex
100
AcDb2dVertex
62
5
10
115.000000
20
294.250000
0
VERTEX
5
200
100
AcDbEntity
8
1
100
AcDbVertex
100
AcDb2dVertex
62
5
10
114.062500
20
293.312500
0
SEQEND
5
201
100
AcDbEntity
8
1
0
LINE
5
202
100
AcDbEntity
8
1
100
AcDbLine
6
CONTINUOUS
62
5
10
92.500000
20
296.750000
11
95.625000
21
296.750000
0
POLYLINE
5
203
100
AcDbEntity
8
1
6
CONTINUOUS
62
5
100
AcDb2dPolyline
66
1
10
0.0
20
0.0
30
0.0
70
0
0
VERTEX
5
204
100
AcDbEntity
8
1
100
AcDbVertex
100
AcDb2dVertex
62
5
10
87.500000
20
293.000000
0
VERTEX
5
205
100
AcDbEntity
8
1
100
AcDbVertex
100
AcDb2dVertex
62
5
10
87.500000
20
300.500000
0
VERTEX
5
206
100
AcDbEntity
8
1
100
AcDbVertex
100
AcDb2dVertex
62
5
10
90.625000
20
293.000000
0
VERTEX
5
207
100
AcDbEntity
8
1
100
AcDbVertex
100
AcDb2dVertex
62
5
10
90.625000
20
300.500000
0
SEQEND
5
208
100
AcDbEntity
8
1
0
POLYLINE
5
209
100
AcDbEntity
8
1
6
CONTINUOUS
62
5
100
AcDb2dPolyline
66
1
10
0.0
20
0.0
30
0.0
70
0
0
VERTEX
5
20a
100
AcDbEntity
8
1
100
AcDbVertex
100
AcDb2dVertex
62
5
10
97.500000
20
298.625000
0
VERTEX
5
20b
100
AcDbEntity
8
1
100
AcDbVertex
100
AcDb2dVertex
62
5
10
97.812500
20
299.875000
0
VERTEX
5
20c
100
AcDbEntity
8
1
100
AcDbVertex
100
AcDb2dVertex
62
5
10
98.437500
20
300.500000
0
VERTEX
5
20d
100
AcDbEntity
8
1
100
AcDbVertex
100
AcDb2dVertex
62
5
10
99.375000
20
300.500000
0
VERTEX
5
20e
100
AcDbEntity
8
1
100
AcDbVertex
100
AcDb2dVertex
62
5
10
100.000000
20
300.187500
0
VERTEX
5
20f
100
AcDbEntity
8
1
100
AcDbVertex
100
AcDb2dVertex
62
5
10
100.312500
20
299.250000
0
VERTEX
5
210
100
AcDbEntity
8
1
100
AcDbVertex
100
AcDb2dVertex
62
5
10
100.312500
20
298.000000
0
VERTEX
5
211
100
AcDbEntity
8
1
100
AcDbVertex
100
AcDb2dVertex
62
5
10
100.000000
20
297.375000
0
VERTEX
5
212
100
AcDbEntity
8
1
100
AcDbVertex
100
AcDb2dVertex
62
5
10
99.375000
20
296.750000
0
VERTEX
5
213
100
AcDbEntity
8
1
100
AcDbVertex
100
AcDb2dVertex
62
5
10
98.437500
20
296.750000
0
SEQEND
5
214
100
AcDbEntity
8
1
0
POLYLINE
5
215
100
AcDbEntity
8
1
6
CONTINUOUS
62
5
100
AcDb2dPolyline
66
1
10
0.0
20
0.0
30
0.0
70
0
0
VERTEX
5
216
100
AcDbEntity
8
1
100
AcDbVertex
100
AcDb2dVertex
62
5
10
99.375000
20
296.750000
0
VERTEX
5
217
100
AcDbEntity
8
1
100
AcDbVertex
100
AcDb2dVertex
62
5
10
100.312500
20
296.125000
0
VERTEX
5
218
100
AcDbEntity
8
1
100
AcDbVertex
100
AcDb2dVertex
62
5
10
100.625000
20
295.187500
0
VERTEX
5
219
100
AcDbEntity
8
1
100
AcDbVertex
100
AcDb2dVertex
62
5
10
100.625000
20
294.250000
0
VERTEX
5
21a
100
AcDbEntity
8
1
100
AcDbVertex
100
AcDb2dVertex
62
5
10
100.312500
20
293.625000
0
VERTEX
5
21b
100
AcDbEntity
8
1
100
AcDbVertex
100
AcDb2dVertex
62
5
10
99.375000
20
293.000000
0
VERTEX
5
21c
100
AcDbEntity
8
1
100
AcDbVertex
100
AcDb2dVertex
62
5
10
98.437500
20
293.000000
0
VERTEX
5
21d
100
AcDbEntity
8
1
100
AcDbVertex
100
AcDb2dVertex
62
5
10
97.812500
20
293.312500
0
VERTEX
5
21e
100
AcDbEntity
8
1
100
AcDbVertex
100
AcDb2dVertex
62
5
10
97.187500
20
294.250000
0
SEQEND
5
21f
100
AcDbEntity
8
1
0
POLYLINE
5
220
100
AcDbEntity
8
1
6
CONTINUOUS
62
5
100
AcDb2dPolyline
66
1
10
0.0
20
0.0
30
0.0
70
0
0
VERTEX
5
221
100
AcDbEntity
8
1
100
AcDbVertex
100
AcDb2dVertex
62
5
10
102.500000
20
293.000000
0
VERTEX
5
222
100
AcDbEntity
8
1
100
AcDbVertex
100
AcDb2dVertex
62
5
10
102.500000
20
300.500000
0
VERTEX
5
223
100
AcDbEntity
8
1
100
AcDbVertex
100
AcDb2dVertex
62
5
10
104.062500
20
293.000000
0
VERTEX
5
224
100
AcDbEntity
8
1
100
AcDbVertex
100
AcDb2dVertex
62
5
10
105.625000
20
300.500000
0
VERTEX
5
225
100
AcDbEntity
8
1
100
AcDbVertex
100
AcDb2dVertex
62
5
10
105.625000
20
293.000000
0
SEQEND
5
226
100
AcDbEntity
8
1
0
POLYLINE
5
227
100
AcDbEntity
8
1
6
CONTINUOUS
62
5
100
AcDb2dPolyline
66
1
10
0.0
20
0.0
30
0.0
70
0
0
VERTEX
5
228
100
AcDbEntity
8
1
100
AcDbVertex
100
AcDb2dVertex
62
5
10
124.375000
20
297.375000
0
VERTEX
5
229
100
AcDbEntity
8
1
100
AcDbVertex
100
AcDb2dVertex
62
5
10
127.812500
20
297.375000
0
VERTEX
5
22a
100
AcDbEntity
8
1
100
AcDbVertex
100
AcDb2dVertex
62
5
10
127.812500
20
293.625000
0
VERTEX
5
22b
100
AcDbEntity
8
1
100
AcDbVertex
100
AcDb2dVertex
62
5
10
124.375000
20
293.625000
0
SEQEND
5
22c
100
AcDbEntity
8
1
0
LINE
5
22d
100
AcDbEntity
8
1
100
AcDbLine
6
CONTINUOUS
62
5
10
124.375000
20
295.500000
11
127.812500
21
295.500000
0
LINE
5
22e
100
AcDbEntity
8
1
100
AcDbLine
6
CONTINUOUS
62
5
10
78.000000
20
327.437500
11
81.750000
21
328.062500
0
LINE
5
22f
100
AcDbEntity
8
1
100
AcDbLine
6
CONTINUOUS
62
5
10
76.750000
20
325.562500
11
82.750000
21
325.562500
0
POLYLINE
5
230
100
AcDbEntity
8
1
6
CONTINUOUS
62
5
100
AcDb2dPolyline
66
1
10
0.0
20
0.0
30
0.0
70
0
0
VERTEX
5
231
100
AcDbEntity
8
1
100
AcDbVertex
100
AcDb2dVertex
62
5
10
80.000000
20
327.750000
0
VERTEX
5
232
100
AcDbEntity
8
1
100
AcDbVertex
100
AcDb2dVertex
62
5
10
80.000000
20
325.562500
0
VERTEX
5
233
100
AcDbEntity
8
1
100
AcDbVertex
100
AcDb2dVertex
62
5
10
79.750000
20
324.000000
0
VERTEX
5
234
100
AcDbEntity
8
1
100
AcDbVertex
100
AcDb2dVertex
62
5
10
79.000000
20
322.750000
0
VERTEX
5
235
100
AcDbEntity
8
1
100
AcDbVertex
100
AcDb2dVertex
62
5
10
78.250000
20
321.812500
0
SEQEND
5
236
100
AcDbEntity
8
1
0
LINE
5
237
100
AcDbEntity
8
1
100
AcDbLine
6
CONTINUOUS
62
5
10
76.500000
20
336.500000
11
78.500000
21
336.500000
0
LINE
5
238
100
AcDbEntity
8
1
100
AcDbLine
6
CONTINUOUS
62
5
10
76.250000
20
332.125000
11
78.500000
21
333.375000
0
LINE
5
239
100
AcDbEntity
8
1
100
AcDbLine
6
CONTINUOUS
62
5
10
77.500000
20
339.000000
11
77.500000
21
332.750000
0
POLYLINE
5
23a
100
AcDbEntity
8
1
6
CONTINUOUS
62
5
100
AcDb2dPolyline
66
1
10
0.0
20
0.0
30
0.0
70
1
0
VERTEX
5
23b
100
AcDbEntity
8
1
100
AcDbVertex
100
AcDb2dVertex
62
5
10
79.500000
20
338.687500
0
VERTEX
5
23c
100
AcDbEntity
8
1
100
AcDbVertex
100
AcDb2dVertex
62
5
10
79.500000
20
335.250000
0
VERTEX
5
23d
100
AcDbEntity
8
1
100
AcDbVertex
100
AcDb2dVertex
62
5
10
82.500000
20
335.250000
0
VERTEX
5
23e
100
AcDbEntity
8
1
100
AcDbVertex
100
AcDb2dVertex
62
5
10
82.500000
20
338.687500
0
VERTEX
5
23f
100
AcDbEntity
8
1
100
AcDbVertex
100
AcDb2dVertex
62
5
10
79.500000
20
338.687500
0
SEQEND
5
240
100
AcDbEntity
8
1
0
LINE
5
241
100
AcDbEntity
8
1
100
AcDbLine
6
CONTINUOUS
62
5
10
79.500000
20
337.125000
11
82.500000
21
337.125000
0
LINE
5
242
100
AcDbEntity
8
1
100
AcDbLine
6
CONTINUOUS
62
5
10
81.000000
20
338.687500
11
81.000000
21
331.500000
0
LINE
5
243
100
AcDbEntity
8
1
100
AcDbLine
6
CONTINUOUS
62
5
10
79.000000
20
333.687500
11
83.000000
21
333.687500
0
LINE
5
244
100
AcDbEntity
8
1
100
AcDbLine
6
CONTINUOUS
62
5
10
78.250000
20
331.500000
11
83.500000
21
331.500000
0
LINE
5
245
100
AcDbEntity
8
1
100
AcDbLine
6
CONTINUOUS
62
5
10
50.000000
20
350.000000
11
50.000000
21
318.000000
0
LINE
5
246
100
AcDbEntity
8
1
100
AcDbLine
6
CONTINUOUS
62
5
10
77.500000
20
296.750000
11
80.625000
21
296.750000
0
POLYLINE
5
247
100
AcDbEntity
8
1
6
CONTINUOUS
62
5
100
AcDb2dPolyline
66
1
10
0.0
20
0.0
30
0.0
70
0
0
VERTEX
5
248
100
AcDbEntity
8
1
100
AcDbVertex
100
AcDb2dVertex
62
5
10
65.312500
20
300.500000
0
VERTEX
5
249
100
AcDbEntity
8
1
100
AcDbVertex
100
AcDb2dVertex
62
5
10
65.312500
20
294.875000
0
VERTEX
5
24a
100
AcDbEntity
8
1
100
AcDbVertex
100
AcDb2dVertex
62
5
10
65.000000
20
293.625000
0
VERTEX
5
24b
100
AcDbEntity
8
1
100
AcDbVertex
100
AcDb2dVertex
62
5
10
64.375000
20
293.000000
0
VERTEX
5
24c
100
AcDbEntity
8
1
100
AcDbVertex
100
AcDb2dVertex
62
5
10
63.437500
20
293.000000
0
VERTEX
5
24d
100
AcDbEntity
8
1
100
AcDbVertex
100
AcDb2dVertex
62
5
10
62.812500
20
293.625000
0
VERTEX
5
24e
100
AcDbEntity
8
1
100
AcDbVertex
100
AcDb2dVertex
62
5
10
62.500000
20
294.875000
0
SEQEND
5
24f
100
AcDbEntity
8
1
0
POLYLINE
5
250
100
AcDbEntity
8
1
6
CONTINUOUS
62
5
100
AcDb2dPolyline
66
1
10
0.0
20
0.0
30
0.0
70
0
0
VERTEX
5
251
100
AcDbEntity
8
1
100
AcDbVertex
100
AcDb2dVertex
62
5
10
70.625000
20
300.500000
0
VERTEX
5
252
100
AcDbEntity
8
1
100
AcDbVertex
100
AcDb2dVertex
62
5
10
67.500000
20
300.500000
0
VERTEX
5
253
100
AcDbEntity
8
1
100
AcDbVertex
100
AcDb2dVertex
62
5
10
67.500000
20
293.000000
0
VERTEX
5
254
100
AcDbEntity
8
1
100
AcDbVertex
100
AcDb2dVertex
62
5
10
70.937500
20
293.000000
0
SEQEND
5
255
100
AcDbEntity
8
1
0
LINE
5
256
100
AcDbEntity
8
1
100
AcDbLine
6
CONTINUOUS
62
5
10
67.500000
20
296.750000
11
70.312500
21
296.750000
0
POLYLINE
5
257
100
AcDbEntity
8
1
6
CONTINUOUS
62
5
100
AcDb2dPolyline
66
1
10
0.0
20
0.0
30
0.0
70
0
0
VERTEX
5
258
100
AcDbEntity
8
1
100
AcDbVertex
100
AcDb2dVertex
62
5
10
75.625000
20
298.937500
0
VERTEX
5
259
100
AcDbEntity
8
1
100
AcDbVertex
100
AcDb2dVertex
62
5
10
75.312500
20
299.875000
0
VERTEX
5
25a
100
AcDbEntity
8
1
100
AcDbVertex
100
AcDb2dVertex
62
5
10
74.687500
20
300.500000
0
VERTEX
5
25b
100
AcDbEntity
8
1
100
AcDbVertex
100
AcDb2dVertex
62
5
10
73.750000
20
300.500000
0
VERTEX
5
25c
100
AcDbEntity
8
1
100
AcDbVertex
100
AcDb2dVertex
62
5
10
72.812500
20
299.562500
0
VERTEX
5
25d
100
AcDbEntity
8
1
100
AcDbVertex
100
AcDb2dVertex
62
5
10
72.500000
20
298.000000
0
VERTEX
5
25e
100
AcDbEntity
8
1
100
AcDbVertex
100
AcDb2dVertex
62
5
10
72.500000
20
295.500000
0
VERTEX
5
25f
100
AcDbEntity
8
1
100
AcDbVertex
100
AcDb2dVertex
62
5
10
72.812500
20
293.937500
0
VERTEX
5
260
100
AcDbEntity
8
1
100
AcDbVertex
100
AcDb2dVertex
62
5
10
73.750000
20
293.000000
0
VERTEX
5
261
100
AcDbEntity
8
1
100
AcDbVertex
100
AcDb2dVertex
62
5
10
74.687500
20
293.000000
0
VERTEX
5
262
100
AcDbEntity
8
1
100
AcDbVertex
100
AcDb2dVertex
62
5
10
75.312500
20
293.625000
0
VERTEX
5
263
100
AcDbEntity
8
1
100
AcDbVertex
100
AcDb2dVertex
62
5
10
75.937500
20
295.187500
0
SEQEND
5
264
100
AcDbEntity
8
1
0
LINE
5
265
100
AcDbEntity
8
1
100
AcDbLine
6
CONTINUOUS
62
5
10
85.000000
20
339.000000
11
86.000000
21
338.062500
0
POLYLINE
5
266
100
AcDbEntity
8
1
6
CONTINUOUS
62
5
100
AcDb2dPolyline
66
1
10
0.0
20
0.0
30
0.0
70
0
0
VERTEX
5
267
100
AcDbEntity
8
1
100
AcDbVertex
100
AcDb2dVertex
62
5
10
84.750000
20
335.875000
0
VERTEX
5
268
100
AcDbEntity
8
1
100
AcDbVertex
100
AcDb2dVertex
62
5
10
86.000000
20
335.875000
0
VERTEX
5
269
100
AcDbEntity
8
1
100
AcDbVertex
100
AcDb2dVertex
62
5
10
86.000000
20
332.750000
0
VERTEX
5
26a
100
AcDbEntity
8
1
100
AcDbVertex
100
AcDb2dVertex
62
5
10
84.750000
20
331.187500
0
SEQEND
5
26b
100
AcDbEntity
8
1
0
POLYLINE
5
26c
100
AcDbEntity
8
1
6
CONTINUOUS
62
5
100
AcDb2dPolyline
66
1
10
0.0
20
0.0
30
0.0
70
0
0
VERTEX
5
26d
100
AcDbEntity
8
1
100
AcDbVertex
100
AcDb2dVertex
62
5
10
86.000000
20
332.750000
0
VERTEX
5
26e
100
AcDbEntity
8
1
100
AcDbVertex
100
AcDb2dVertex
62
5
10
86.750000
20
331.500000
0
VERTEX
5
26f
100
AcDbEntity
8
1
100
AcDbVertex
100
AcDb2dVertex
62
5
10
87.750000
20
331.187500
0
VERTEX
5
270
100
AcDbEntity
8
1
100
AcDbVertex
100
AcDb2dVertex
62
5
10
91.500000
20
331.187500
0
SEQEND
5
271
100
AcDbEntity
8
1
0
POLYLINE
5
272
100
AcDbEntity
8
1
6
CONTINUOUS
62
5
100
AcDb2dPolyline
66
1
10
0.0
20
0.0
30
0.0
70
0
0
VERTEX
5
273
100
AcDbEntity
8
1
100
AcDbVertex
100
AcDb2dVertex
62
5
10
88.750000
20
336.500000
0
VERTEX
5
274
100
AcDbEntity
8
1
100
AcDbVertex
100
AcDb2dVertex
62
5
10
88.000000
20
334.625000
0
VERTEX
5
275
100
AcDbEntity
8
1
100
AcDbVertex
100
AcDb2dVertex
62
5
10
87.250000
20
333.375000
0
VERTEX
5
276
100
AcDbEntity
8
1
100
AcDbVertex
100
AcDb2dVertex
62
5
10
86.750000
20
332.750000
0
SEQEND
5
277
100
AcDbEntity
8
1
0
POLYLINE
5
278
100
AcDbEntity
8
1
6
CONTINUOUS
62
5
100
AcDb2dPolyline
66
1
10
0.0
20
0.0
30
0.0
70
0
0
VERTEX
5
279
100
AcDbEntity
8
1
100
AcDbVertex
100
AcDb2dVertex
62
5
10
87.500000
20
339.312500
0
VERTEX
5
27a
100
AcDbEntity
8
1
100
AcDbVertex
100
AcDb2dVertex
62
5
10
88.750000
20
339.312500
0
VERTEX
5
27b
100
AcDbEntity
8
1
100
AcDbVertex
100
AcDb2dVertex
62
5
10
88.750000
20
336.500000
0
VERTEX
5
27c
100
AcDbEntity
8
1
100
AcDbVertex
100
AcDb2dVertex
62
5
10
89.500000
20
334.625000
0
VERTEX
5
27d
100
AcDbEntity
8
1
100
AcDbVertex
100
AcDb2dVertex
62
5
10
90.500000
20
333.375000
0
VERTEX
5
27e
100
AcDbEntity
8
1
100
AcDbVertex
100
AcDb2dVertex
62
5
10
91.250000
20
332.750000
0
SEQEND
5
27f
100
AcDbEntity
8
1
0
LINE
5
280
100
AcDbEntity
8
1
100
AcDbLine
6
CONTINUOUS
62
5
10
82.500000
20
300.500000
11
82.500000
21
293.000000
0
POLYLINE
5
281
100
AcDbEntity
8
1
6
CONTINUOUS
62
5
100
AcDb2dPolyline
66
1
10
0.0
20
0.0
30
0.0
70
0
0
VERTEX
5
282
100
AcDbEntity
8
1
100
AcDbVertex
100
AcDb2dVertex
62
5
10
82.500000
20
300.500000
0
VERTEX
5
283
100
AcDbEntity
8
1
100
AcDbVertex
100
AcDb2dVertex
62
5
10
84.062500
20
300.500000
0
VERTEX
5
284
100
AcDbEntity
8
1
100
AcDbVertex
100
AcDb2dVertex
62
5
10
84.687500
20
300.187500
0
VERTEX
5
285
100
AcDbEntity
8
1
100
AcDbVertex
100
AcDb2dVertex
62
5
10
85.000000
20
299.875000
0
VERTEX
5
286
100
AcDbEntity
8
1
100
AcDbVertex
100
AcDb2dVertex
62
5
10
85.312500
20
299.250000
0
VERTEX
5
287
100
AcDbEntity
8
1
100
AcDbVertex
100
AcDb2dVertex
62
5
10
85.312500
20
298.312500
0
VERTEX
5
288
100
AcDbEntity
8
1
100
AcDbVertex
100
AcDb2dVertex
62
5
10
85.000000
20
297.687500
0
VERTEX
5
289
100
AcDbEntity
8
1
100
AcDbVertex
100
AcDb2dVertex
62
5
10
84.687500
20
297.375000
0
VERTEX
5
28a
100
AcDbEntity
8
1
100
AcDbVertex
100
AcDb2dVertex
62
5
10
84.062500
20
297.062500
0
VERTEX
5
28b
100
AcDbEntity
8
1
100
AcDbVertex
100
AcDb2dVertex
62
5
10
82.500000
20
297.062500
0
SEQEND
5
28c
100
AcDbEntity
8
1
0
POLYLINE
5
28d
100
AcDbEntity
8
1
6
CONTINUOUS
62
5
100
AcDb2dPolyline
66
1
10
0.0
20
0.0
30
0.0
70
0
0
VERTEX
5
28e
100
AcDbEntity
8
1
100
AcDbVertex
100
AcDb2dVertex
62
5
10
84.062500
20
297.062500
0
VERTEX
5
28f
100
AcDbEntity
8
1
100
AcDbVertex
100
AcDb2dVertex
62
5
10
84.687500
20
296.750000
0
VERTEX
5
290
100
AcDbEntity
8
1
100
AcDbVertex
100
AcDb2dVertex
62
5
10
85.312500
20
296.125000
0
VERTEX
5
291
100
AcDbEntity
8
1
100
AcDbVertex
100
AcDb2dVertex
62
5
10
85.625000
20
295.500000
0
VERTEX
5
292
100
AcDbEntity
8
1
100
AcDbVertex
100
AcDb2dVertex
62
5
10
85.625000
20
294.250000
0
VERTEX
5
293
100
AcDbEntity
8
1
100
AcDbVertex
100
AcDb2dVertex
62
5
10
85.312500
20
293.625000
0
VERTEX
5
294
100
AcDbEntity
8
1
100
AcDbVertex
100
AcDb2dVertex
62
5
10
85.000000
20
293.312500
0
VERTEX
5
295
100
AcDbEntity
8
1
100
AcDbVertex
100
AcDb2dVertex
62
5
10
84.375000
20
293.000000
0
VERTEX
5
296
100
AcDbEntity
8
1
100
AcDbVertex
100
AcDb2dVertex
62
5
10
82.500000
20
293.000000
0
SEQEND
5
297
100
AcDbEntity
8
1
0
POLYLINE
5
298
100
AcDbEntity
8
1
6
DOT2
62
5
100
AcDb2dPolyline
66
1
10
0.0
20
0.0
30
0.0
70
0
0
VERTEX
5
299
100
AcDbEntity
8
1
100
AcDbVertex
100
AcDb2dVertex
62
5
10
166.250000
20
246.719922
0
VERTEX
5
29a
100
AcDbEntity
8
1
100
AcDbVertex
100
AcDb2dVertex
62
5
10
166.562500
20
248.282422
0
VERTEX
5
29b
100
AcDbEntity
8
1
100
AcDbVertex
100
AcDb2dVertex
62
5
10
167.500000
20
248.907422
0
VERTEX
5
29c
100
AcDbEntity
8
1
100
AcDbVertex
100
AcDb2dVertex
62
5
10
168.437500
20
248.907422
0
VERTEX
5
29d
100
AcDbEntity
8
1
100
AcDbVertex
100
AcDb2dVertex
62
5
10
169.062500
20
248.594922
0
VERTEX
5
29e
100
AcDbEntity
8
1
100
AcDbVertex
100
AcDb2dVertex
62
5
10
169.375000
20
247.657422
0
VERTEX
5
29f
100
AcDbEntity
8
1
100
AcDbVertex
100
AcDb2dVertex
62
5
10
169.375000
20
246.719922
0
VERTEX
5
2a0
100
AcDbEntity
8
1
100
AcDbVertex
100
AcDb2dVertex
62
5
10
169.062500
20
245.782422
0
VERTEX
5
2a1
100
AcDbEntity
8
1
100
AcDbVertex
100
AcDb2dVertex
62
5
10
166.250000
20
241.407422
0
VERTEX
5
2a2
100
AcDbEntity
8
1
100
AcDbVertex
100
AcDb2dVertex
62
5
10
169.375000
20
241.407422
0
VERTEX
5
2a3
100
AcDbEntity
8
1
100
AcDbVertex
100
AcDb2dVertex
62
5
10
169.375000
20
242.344922
0
SEQEND
5
2a4
100
AcDbEntity
8
1
0
POLYLINE
5
2a5
100
AcDbEntity
8
1
6
DOT2
62
5
100
AcDb2dPolyline
66
1
10
0.0
20
0.0
30
0.0
70
0
0
VERTEX
5
2a6
100
AcDbEntity
8
1
100
AcDbVertex
100
AcDb2dVertex
62
5
10
116.437500
20
226.407422
0
VERTEX
5
2a7
100
AcDbEntity
8
1
100
AcDbVertex
100
AcDb2dVertex
62
5
10
114.875000
20
226.719922
0
VERTEX
5
2a8
100
AcDbEntity
8
1
100
AcDbVertex
100
AcDb2dVertex
62
5
10
114.250000
20
227.657422
0
VERTEX
5
2a9
100
AcDbEntity
8
1
100
AcDbVertex
100
AcDb2dVertex
62
5
10
114.250000
20
228.594922
0
VERTEX
5
2aa
100
AcDbEntity
8
1
100
AcDbVertex
100
AcDb2dVertex
62
5
10
114.562500
20
229.219922
0
VERTEX
5
2ab
100
AcDbEntity
8
1
100
AcDbVertex
100
AcDb2dVertex
62
5
10
115.500000
20
229.532422
0
VERTEX
5
2ac
100
AcDbEntity
8
1
100
AcDbVertex
100
AcDb2dVertex
62
5
10
116.437500
20
229.532422
0
VERTEX
5
2ad
100
AcDbEntity
8
1
100
AcDbVertex
100
AcDb2dVertex
62
5
10
117.375000
20
229.219922
0
VERTEX
5
2ae
100
AcDbEntity
8
1
100
AcDbVertex
100
AcDb2dVertex
62
5
10
121.750000
20
226.407422
0
VERTEX
5
2af
100
AcDbEntity
8
1
100
AcDbVertex
100
AcDb2dVertex
62
5
10
121.750000
20
229.532422
0
VERTEX
5
2b0
100
AcDbEntity
8
1
100
AcDbVertex
100
AcDb2dVertex
62
5
10
120.812500
20
229.532422
0
SEQEND
5
2b1
100
AcDbEntity
8
1
0
POLYLINE
5
2b2
100
AcDbEntity
8
1
6
DOT2
62
5
100
AcDb2dPolyline
66
1
10
0.0
20
0.0
30
0.0
70
0
0
VERTEX
5
2b3
100
AcDbEntity
8
1
100
AcDbVertex
100
AcDb2dVertex
62
5
10
116.437500
20
231.407422
0
VERTEX
5
2b4
100
AcDbEntity
8
1
100
AcDbVertex
100
AcDb2dVertex
62
5
10
114.875000
20
231.719922
0
VERTEX
5
2b5
100
AcDbEntity
8
1
100
AcDbVertex
100
AcDb2dVertex
62
5
10
114.250000
20
232.657422
0
VERTEX
5
2b6
100
AcDbEntity
8
1
100
AcDbVertex
100
AcDb2dVertex
62
5
10
114.250000
20
233.594922
0
VERTEX
5
2b7
100
AcDbEntity
8
1
100
AcDbVertex
100
AcDb2dVertex
62
5
10
114.562500
20
234.219922
0
VERTEX
5
2b8
100
AcDbEntity
8
1
100
AcDbVertex
100
AcDb2dVertex
62
5
10
115.500000
20
234.532422
0
VERTEX
5
2b9
100
AcDbEntity
8
1
100
AcDbVertex
100
AcDb2dVertex
62
5
10
116.437500
20
234.532422
0
VERTEX
5
2ba
100
AcDbEntity
8
1
100
AcDbVertex
100
AcDb2dVertex
62
5
10
117.375000
20
234.219922
0
VERTEX
5
2bb
100
AcDbEntity
8
1
100
AcDbVertex
100
AcDb2dVertex
62
5
10
121.750000
20
231.407422
0
VERTEX
5
2bc
100
AcDbEntity
8
1
100
AcDbVertex
100
AcDb2dVertex
62
5
10
121.750000
20
234.532422
0
VERTEX
5
2bd
100
AcDbEntity
8
1
100
AcDbVertex
100
AcDb2dVertex
62
5
10
120.812500
20
234.532422
0
SEQEND
5
2be
100
AcDbEntity
8
1
0
LINE
5
2bf
100
AcDbEntity
8
1
100
AcDbLine
6
DOT2
62
5
10
121.125000
20
237.032422
11
121.750000
21
236.407422
0
POLYLINE
5
2c0
100
AcDbEntity
8
1
6
DOT2
62
5
100
AcDb2dPolyline
66
1
10
0.0
20
0.0
30
0.0
70
0
0
VERTEX
5
2c1
100
AcDbEntity
8
1
100
AcDbVertex
100
AcDb2dVertex
62
5
10
121.125000
20
236.407422
0
VERTEX
5
2c2
100
AcDbEntity
8
1
100
AcDbVertex
100
AcDb2dVertex
62
5
10
121.750000
20
237.032422
0
VERTEX
5
2c3
100
AcDbEntity
8
1
100
AcDbVertex
100
AcDb2dVertex
62
5
10
121.750000
20
236.407422
0
VERTEX
5
2c4
100
AcDbEntity
8
1
100
AcDbVertex
100
AcDb2dVertex
62
5
10
121.125000
20
236.407422
0
VERTEX
5
2c5
100
AcDbEntity
8
1
100
AcDbVertex
100
AcDb2dVertex
62
5
10
121.125000
20
237.032422
0
VERTEX
5
2c6
100
AcDbEntity
8
1
100
AcDbVertex
100
AcDb2dVertex
62
5
10
121.750000
20
237.032422
0
SEQEND
5
2c7
100
AcDbEntity
8
1
0
POLYLINE
5
2c8
100
AcDbEntity
8
1
6
DOT2
62
5
100
AcDb2dPolyline
66
1
10
0.0
20
0.0
30
0.0
70
0
0
VERTEX
5
2c9
100
AcDbEntity
8
1
100
AcDbVertex
100
AcDb2dVertex
62
5
10
115.187500
20
241.407422
0
VERTEX
5
2ca
100
AcDbEntity
8
1
100
AcDbVertex
100
AcDb2dVertex
62
5
10
114.250000
20
241.407422
0
VERTEX
5
2cb
100
AcDbEntity
8
1
100
AcDbVertex
100
AcDb2dVertex
62
5
10
114.250000
20
244.532422
0
VERTEX
5
2cc
100
AcDbEntity
8
1
100
AcDbVertex
100
AcDb2dVertex
62
5
10
114.875000
20
244.532422
0
VERTEX
5
2cd
100
AcDbEntity
8
1
100
AcDbVertex
100
AcDb2dVertex
62
5
10
116.437500
20
243.907422
0
VERTEX
5
2ce
100
AcDbEntity
8
1
100
AcDbVertex
100
AcDb2dVertex
62
5
10
118.625000
20
243.282422
0
VERTEX
5
2cf
100
AcDbEntity
8
1
100
AcDbVertex
100
AcDb2dVertex
62
5
10
121.750000
20
242.657422
0
SEQEND
5
2d0
100
AcDbEntity
8
1
0
POLYLINE
5
2d1
100
AcDbEntity
8
1
6
CONTINUOUS
62
5
100
AcDb2dPolyline
66
1
10
0.0
20
0.0
30
0.0
70
1
0
VERTEX
5
2d2
100
AcDbEntity
8
1
100
AcDbVertex
100
AcDb2dVertex
62
5
10
154.000000
20
209.349164
0
VERTEX
5
2d3
100
AcDbEntity
8
1
100
AcDbVertex
100
AcDb2dVertex
62
5
10
154.000000
20
207.457422
0
SEQEND
5
2d4
100
AcDbEntity
8
1
0
LINE
5
2d5
100
AcDbEntity
8
1
100
AcDbLine
6
CONTINUOUS
62
5
10
156.000000
20
213.907422
11
155.600000
21
213.907422
0
LINE
5
2d6
100
AcDbEntity
8
1
100
AcDbLine
6
CONTINUOUS
62
5
10
152.500000
20
213.907422
11
151.500000
21
213.907422
0
ARC
5
2d7
100
AcDbEntity
8
1
100
AcDbCircle
6
CONTINUOUS
62
5
10
151.800000
20
214.007422
40
0.500000
100
AcDbArc
50
-0.000000
51
89.999999
0
LINE
5
2d8
100
AcDbEntity
8
1
100
AcDbLine
6
CONTINUOUS
62
5
10
151.000000
20
214.507422
11
151.800000
21
214.507422
0
ARC
5
2d9
100
AcDbEntity
8
1
100
AcDbCircle
6
CONTINUOUS
62
5
10
150.000000
20
213.507422
40
1.000000
100
AcDbArc
50
89.999999
51
179.999998
0
LINE
5
2da
100
AcDbEntity
8
1
100
AcDbLine
6
CONTINUOUS
62
5
10
150.000000
20
214.507422
11
151.000000
21
214.507422
0
ARC
5
2db
100
AcDbEntity
8
1
100
AcDbCircle
6
CONTINUOUS
62
5
10
151.000000
20
214.007422
40
0.500000
100
AcDbArc
50
0.000000
51
89.999999
0
LINE
5
2dc
100
AcDbEntity
8
1
100
AcDbLine
6
CONTINUOUS
62
5
10
151.500000
20
214.007422
11
151.500000
21
213.707568
0
LINE
5
2dd
100
AcDbEntity
8
1
100
AcDbLine
6
CONTINUOUS
62
5
10
149.000000
20
212.007422
11
149.000000
21
213.507422
0
ARC
5
2de
100
AcDbEntity
8
1
100
AcDbCircle
6
CONTINUOUS
62
5
10
151.800000
20
214.307422
40
0.500000
100
AcDbArc
50
0.000000
51
89.999999
0
LINE
5
2df
100
AcDbEntity
8
1
100
AcDbLine
6
CONTINUOUS
62
5
10
151.800000
20
214.807422
11
150.000000
21
214.807422
0
ARC
5
2e0
100
AcDbEntity
8
1
100
AcDbCircle
6
CONTINUOUS
62
5
10
150.000000
20
213.307422
40
1.500000
100
AcDbArc
50
89.999999
51
179.999998
0
LINE
5
2e1
100
AcDbEntity
8
1
100
AcDbLine
6
CONTINUOUS
62
5
10
148.500000
20
213.307422
11
148.500000
21
212.007422
0
LINE
5
2e2
100
AcDbEntity
8
1
100
AcDbLine
6
CONTINUOUS
62
5
10
152.300000
20
213.907422
11
152.300000
21
214.307422
0
LINE
5
2e3
100
AcDbEntity
8
1
100
AcDbLine
6
CONTINUOUS
62
5
10
154.000000
20
200.157422
11
154.000000
21
198.265680
0
LINE
5
2e4
100
AcDbEntity
8
1
100
AcDbLine
6
CONTINUOUS
62
5
10
156.000000
20
193.707422
11
155.600000
21
193.707422
0
ARC
5
2e5
100
AcDbEntity
8
1
100
AcDbCircle
6
CONTINUOUS
62
5
10
151.000000
20
193.607422
40
0.500000
100
AcDbArc
50
-89.999999
51
-0.000000
0
LINE
5
2e6
100
AcDbEntity
8
1
100
AcDbLine
6
CONTINUOUS
62
5
10
151.500000
20
193.907277
11
151.500000
21
193.607422
0
LINE
5
2e7
100
AcDbEntity
8
1
100
AcDbLine
6
CONTINUOUS
62
5
10
151.500000
20
193.707422
11
152.500000
21
193.707422
0
ARC
5
2e8
100
AcDbEntity
8
1
100
AcDbCircle
6
CONTINUOUS
62
5
10
151.800000
20
193.607422
40
0.500000
100
AcDbArc
50
-89.999999
51
0.000000
0
LINE
5
2e9
100
AcDbEntity
8
1
100
AcDbLine
6
CONTINUOUS
62
5
10
151.800000
20
193.107422
11
150.000000
21
193.107422
0
ARC
5
2ea
100
AcDbEntity
8
1
100
AcDbCircle
6
CONTINUOUS
62
5
10
150.000000
20
194.107422
40
1.000000
100
AcDbArc
50
179.999998
51
-89.999999
0
LINE
5
2eb
100
AcDbEntity
8
1
100
AcDbLine
6
CONTINUOUS
62
5
10
149.000000
20
194.107422
11
149.000000
21
195.607422
0
LINE
5
2ec
100
AcDbEntity
8
1
100
AcDbLine
6
CONTINUOUS
62
5
10
152.300000
20
193.707422
11
152.300000
21
193.607422
0
ARC
5
2ed
100
AcDbEntity
8
1
100
AcDbCircle
6
CONTINUOUS
62
5
10
150.000000
20
194.307422
40
1.500000
100
AcDbArc
50
179.999998
51
-89.999999
0
LINE
5
2ee
100
AcDbEntity
8
1
100
AcDbLine
6
CONTINUOUS
62
5
10
150.000000
20
192.807422
11
151.800000
21
192.807422
0
ARC
5
2ef
100
AcDbEntity
8
1
100
AcDbCircle
6
CONTINUOUS
62
5
10
151.800000
20
193.307422
40
0.500000
100
AcDbArc
50
-89.999999
51
0.000000
0
LINE
5
2f0
100
AcDbEntity
8
1
100
AcDbLine
6
CONTINUOUS
62
5
10
152.300000
20
193.307422
11
152.300000
21
193.707422
0
LINE
5
2f1
100
AcDbEntity
8
1
100
AcDbLine
6
CONTINUOUS
62
5
10
148.500000
20
195.607422
11
148.500000
21
194.307422
0
ARC
5
2f2
100
AcDbEntity
8
1
100
AcDbCircle
6
CONTINUOUS
62
5
10
161.085648
20
211.207422
40
0.500000
100
AcDbArc
50
89.999999
51
179.999998
0
LINE
5
2f3
100
AcDbEntity
8
1
100
AcDbLine
6
CONTINUOUS
62
5
10
161.085648
20
211.707422
11
161.085648
21
211.707422
0
LINE
5
2f4
100
AcDbEntity
8
1
100
AcDbLine
6
CONTINUOUS
62
5
10
161.085648
20
195.907422
11
161.085648
21
195.907422
0
ARC
5
2f5
100
AcDbEntity
8
1
100
AcDbCircle
6
CONTINUOUS
62
5
10
161.085648
20
196.407422
40
0.500000
100
AcDbArc
50
179.999998
51
-89.999999
0
LINE
5
2f6
100
AcDbEntity
8
1
100
AcDbLine
6
CONTINUOUS
62
5
10
160.585648
20
196.407422
11
160.585648
21
211.207422
0
ARC
5
2f7
100
AcDbEntity
8
1
100
AcDbCircle
6
CONTINUOUS
62
5
10
154.000000
20
200.457422
40
0.300000
100
AcDbArc
50
-179.999998
51
-89.999999
0
LINE
5
2f8
100
AcDbEntity
8
1
100
AcDbLine
6
CONTINUOUS
62
5
10
153.700000
20
200.457422
11
153.700000
21
207.157422
0
ARC
5
2f9
100
AcDbEntity
8
1
100
AcDbCircle
6
CONTINUOUS
62
5
10
154.000000
20
207.157422
40
0.300000
100
AcDbArc
50
89.999999
51
-179.999998
0
LINE
5
2fa
100
AcDbEntity
8
1
100
AcDbLine
6
CONTINUOUS
62
5
10
154.000000
20
207.457422
11
154.200000
21
207.457422
0
LINE
5
2fb
100
AcDbEntity
8
1
100
AcDbLine
6
CONTINUOUS
62
5
10
154.200000
20
200.157422
11
154.000000
21
200.157422
0
LINE
5
2fc
100
AcDbEntity
8
1
100
AcDbLine
6
CONTINUOUS
62
5
10
154.200000
20
209.307422
11
154.200000
21
198.307422
0
ARC
5
2fd
100
AcDbEntity
8
1
100
AcDbCircle
6
CONTINUOUS
62
5
10
155.500000
20
197.807422
40
0.500000
100
AcDbArc
50
179.999998
51
-89.999999
0
LINE
5
2fe
100
AcDbEntity
8
1
100
AcDbLine
6
CONTINUOUS
62
5
10
155.500000
20
197.307422
11
156.000000
21
197.307422
0
LINE
5
2ff
100
AcDbEntity
8
1
100
AcDbLine
6
CONTINUOUS
62
5
10
156.000000
20
210.307422
11
155.500000
21
210.307422
0
ARC
5
300
100
AcDbEntity
8
1
100
AcDbCircle
6
CONTINUOUS
62
5
10
155.500000
20
209.807422
40
0.500000
100
AcDbArc
50
89.999999
51
179.999998
0
LINE
5
301
100
AcDbEntity
8
1
100
AcDbLine
6
CONTINUOUS
62
5
10
155.000000
20
209.807422
11
155.000000
21
197.807422
0
LINE
5
302
100
AcDbEntity
8
1
100
AcDbLine
6
CONTINUOUS
62
5
10
148.500000
20
209.107422
11
148.500000
21
198.507422
0
LINE
5
303
100
AcDbEntity
8
1
100
AcDbLine
6
CONTINUOUS
62
5
10
150.000000
20
208.355754
11
150.000000
21
199.259091
0
ARC
5
304
100
AcDbEntity
8
1
100
AcDbCircle
6
CONTINUOUS
62
5
10
154.200000
20
209.807422
40
0.500000
100
AcDbArc
50
118.358659
51
179.999998
0
ARC
5
305
100
AcDbEntity
8
1
100
AcDbCircle
6
CONTINUOUS
62
5
10
154.200000
20
209.807422
40
0.500000
100
AcDbArc
50
179.999998
51
-89.999999
0
LINE
5
306
100
AcDbEntity
8
1
100
AcDbLine
6
CONTINUOUS
62
5
10
154.200000
20
209.307422
11
155.000000
21
209.307422
0
LINE
5
307
100
AcDbEntity
8
1
100
AcDbLine
6
CONTINUOUS
62
5
10
155.000000
20
198.307422
11
154.200000
21
198.307422
0
ARC
5
308
100
AcDbEntity
8
1
100
AcDbCircle
6
CONTINUOUS
62
5
10
154.200000
20
197.807422
40
0.500000
100
AcDbArc
50
89.999999
51
179.999998
0
ARC
5
309
100
AcDbEntity
8
1
100
AcDbCircle
6
CONTINUOUS
62
5
10
154.200000
20
197.807422
40
0.500000
100
AcDbArc
50
179.999998
51
-118.358659
0
POLYLINE
5
30a
100
AcDbEntity
8
1
6
CONTINUOUS
62
5
100
AcDb2dPolyline
66
1
10
0.0
20
0.0
30
0.0
70
0
0
VERTEX
5
30b
100
AcDbEntity
8
1
100
AcDbVertex
100
AcDb2dVertex
62
5
10
153.962505
20
197.367426
0
VERTEX
5
30c
100
AcDbEntity
8
1
100
AcDbVertex
100
AcDb2dVertex
62
5
10
155.000000
20
196.807422
0
VERTEX
5
30d
100
AcDbEntity
8
1
100
AcDbVertex
100
AcDb2dVertex
62
5
10
155.500000
20
196.807422
0
VERTEX
5
30e
100
AcDbEntity
8
1
100
AcDbVertex
100
AcDb2dVertex
62
5
10
156.000000
20
196.307422
0
SEQEND
5
30f
100
AcDbEntity
8
1
0
POLYLINE
5
310
100
AcDbEntity
8
1
6
CONTINUOUS
62
5
100
AcDb2dPolyline
66
1
10
0.0
20
0.0
30
0.0
70
0
0
VERTEX
5
311
100
AcDbEntity
8
1
100
AcDbVertex
100
AcDb2dVertex
62
5
10
156.000000
20
195.607422
0
VERTEX
5
312
100
AcDbEntity
8
1
100
AcDbVertex
100
AcDb2dVertex
62
5
10
155.600000
20
195.607422
0
VERTEX
5
313
100
AcDbEntity
8
1
100
AcDbVertex
100
AcDb2dVertex
62
5
10
155.600000
20
192.753010
0
SEQEND
5
314
100
AcDbEntity
8
1
0
POLYLINE
5
315
100
AcDbEntity
8
1
6
CONTINUOUS
62
5
100
AcDb2dPolyline
66
1
10
0.0
20
0.0
30
0.0
70
0
0
VERTEX
5
316
100
AcDbEntity
8
1
100
AcDbVertex
100
AcDb2dVertex
62
5
10
155.600000
20
214.861836
0
VERTEX
5
317
100
AcDbEntity
8
1
100
AcDbVertex
100
AcDb2dVertex
62
5
10
155.600000
20
212.007422
0
VERTEX
5
318
100
AcDbEntity
8
1
100
AcDbVertex
100
AcDb2dVertex
62
5
10
156.000000
20
212.007422
0
SEQEND
5
319
100
AcDbEntity
8
1
0
POLYLINE
5
31a
100
AcDbEntity
8
1
6
CONTINUOUS
62
5
100
AcDb2dPolyline
66
1
10
0.0
20
0.0
30
0.0
70
0
0
VERTEX
5
31b
100
AcDbEntity
8
1
100
AcDbVertex
100
AcDb2dVertex
62
5
10
156.000000
20
211.307422
0
VERTEX
5
31c
100
AcDbEntity
8
1
100
AcDbVertex
100
AcDb2dVertex
62
5
10
155.500000
20
210.807422
0
VERTEX
5
31d
100
AcDbEntity
8
1
100
AcDbVertex
100
AcDb2dVertex
62
5
10
155.000000
20
210.807422
0
VERTEX
5
31e
100
AcDbEntity
8
1
100
AcDbVertex
100
AcDb2dVertex
62
5
10
153.962505
20
210.247418
0
SEQEND
5
31f
100
AcDbEntity
8
1
0
ARC
5
320
100
AcDbEntity
8
1
100
AcDbCircle
6
CONTINUOUS
62
5
10
151.187124
20
194.908139
40
1.000908
100
AcDbArc
50
-172.251537
51
-89.999999
0
ARC
5
321
100
AcDbEntity
8
1
100
AcDbCircle
6
CONTINUOUS
62
5
10
149.209556
20
194.607855
40
0.999567
100
AcDbArc
50
9.521021
51
90.008960
0
LINE
5
322
100
AcDbEntity
8
1
100
AcDbLine
6
CONTINUOUS
62
5
10
149.209400
20
195.607422
11
148.500000
21
195.607422
0
ARC
5
323
100
AcDbEntity
8
1
100
AcDbCircle
6
CONTINUOUS
62
5
10
148.500000
20
196.107422
40
0.500000
100
AcDbArc
50
179.999998
51
-89.999999
0
LINE
5
324
100
AcDbEntity
8
1
100
AcDbLine
6
CONTINUOUS
62
5
10
148.000000
20
196.107422
11
148.000000
21
198.007422
0
ARC
5
325
100
AcDbEntity
8
1
100
AcDbCircle
6
CONTINUOUS
62
5
10
148.500000
20
198.007422
40
0.500000
100
AcDbArc
50
89.999999
51
-179.999998
0
LINE
5
326
100
AcDbEntity
8
1
100
AcDbLine
6
CONTINUOUS
62
5
10
148.500000
20
198.507422
11
148.700000
21
198.507422
0
ARC
5
327
100
AcDbEntity
8
1
100
AcDbCircle
6
CONTINUOUS
62
5
10
148.700000
20
200.007422
40
1.500000
100
AcDbArc
50
-89.999999
51
-0.000000
0
LINE
5
328
100
AcDbEntity
8
1
100
AcDbLine
6
CONTINUOUS
62
5
10
150.200000
20
200.007422
11
150.200000
21
207.607422
0
ARC
5
329
100
AcDbEntity
8
1
100
AcDbCircle
6
CONTINUOUS
62
5
10
148.700000
20
207.607422
40
1.500000
100
AcDbArc
50
0.000000
51
89.999999
0
LINE
5
32a
100
AcDbEntity
8
1
100
AcDbLine
6
CONTINUOUS
62
5
10
148.700000
20
209.107422
11
148.500000
21
209.107422
0
ARC
5
32b
100
AcDbEntity
8
1
100
AcDbCircle
6
CONTINUOUS
62
5
10
148.500000
20
209.607422
40
0.500000
100
AcDbArc
50
179.999998
51
-89.999999
0
LINE
5
32c
100
AcDbEntity
8
1
100
AcDbLine
6
CONTINUOUS
62
5
10
148.000000
20
209.607422
11
148.000000
21
211.507422
0
ARC
5
32d
100
AcDbEntity
8
1
100
AcDbCircle
6
CONTINUOUS
62
5
10
148.500000
20
211.507422
40
0.500000
100
AcDbArc
50
89.999999
51
-179.999998
0
LINE
5
32e
100
AcDbEntity
8
1
100
AcDbLine
6
CONTINUOUS
62
5
10
148.500000
20
212.007422
11
149.209400
21
212.007422
0
ARC
5
32f
100
AcDbEntity
8
1
100
AcDbCircle
6
CONTINUOUS
62
5
10
149.209561
20
213.006975
40
0.999553
100
AcDbArc
50
-90.009250
51
-9.506646
0
ARC
5
330
100
AcDbEntity
8
1
100
AcDbCircle
6
CONTINUOUS
62
5
10
151.187124
20
212.706705
40
1.000908
100
AcDbArc
50
89.999999
51
172.237957
0
POLYLINE
5
331
100
AcDbEntity
8
1
6
CONTINUOUS
62
5
100
AcDb2dPolyline
66
1
10
0.0
20
0.0
30
0.0
70
0
0
VERTEX
5
332
100
AcDbEntity
8
1
100
AcDbVertex
100
AcDb2dVertex
62
5
10
151.187124
20
213.707613
0
VERTEX
5
333
100
AcDbEntity
8
1
100
AcDbVertex
100
AcDb2dVertex
62
5
10
152.500000
20
213.707422
0
VERTEX
5
334
100
AcDbEntity
8
1
100
AcDbVertex
100
AcDb2dVertex
62
5
10
152.500000
20
214.807422
0
VERTEX
5
335
100
AcDbEntity
8
1
100
AcDbVertex
100
AcDb2dVertex
62
5
10
152.500000
20
214.862764
0
VERTEX
5
336
100
AcDbEntity
8
1
100
AcDbVertex
100
AcDb2dVertex
62
5
10
156.000000
20
214.861716
0
VERTEX
5
337
100
AcDbEntity
8
1
100
AcDbVertex
100
AcDb2dVertex
62
5
10
156.000000
20
214.061716
0
VERTEX
5
338
100
AcDbEntity
8
1
100
AcDbVertex
100
AcDb2dVertex
62
5
10
155.600000
20
214.061836
0
SEQEND
5
339
100
AcDbEntity
8
1
0
POLYLINE
5
33a
100
AcDbEntity
8
1
6
CONTINUOUS
62
5
100
AcDb2dPolyline
66
1
10
0.0
20
0.0
30
0.0
70
0
0
VERTEX
5
33b
100
AcDbEntity
8
1
100
AcDbVertex
100
AcDb2dVertex
62
5
10
155.600000
20
193.557405
0
VERTEX
5
33c
100
AcDbEntity
8
1
100
AcDbVertex
100
AcDb2dVertex
62
5
10
156.000000
20
193.557405
0
VERTEX
5
33d
100
AcDbEntity
8
1
100
AcDbVertex
100
AcDb2dVertex
62
5
10
156.000000
20
192.753130
0
VERTEX
5
33e
100
AcDbEntity
8
1
100
AcDbVertex
100
AcDb2dVertex
62
5
10
152.500000
20
192.752082
0
VERTEX
5
33f
100
AcDbEntity
8
1
100
AcDbVertex
100
AcDb2dVertex
62
5
10
152.500000
20
193.907422
0
VERTEX
5
340
100
AcDbEntity
8
1
100
AcDbVertex
100
AcDb2dVertex
62
5
10
151.187124
20
193.907231
0
SEQEND
5
341
100
AcDbEntity
8
1
0
LINE
5
342
100
AcDbEntity
8
1
100
AcDbLine
6
CONTINUOUS
62
5
10
155.200000
20
215.157422
11
121.000000
21
215.157422
0
LINE
5
343
100
AcDbEntity
8
1
100
AcDbLine
6
CONTINUOUS
62
5
10
155.200000
20
192.457422
11
121.000000
21
192.457422
0
POLYLINE
5
344
100
AcDbEntity
8
1
6
CONTINUOUS
62
5
100
AcDb2dPolyline
66
1
10
0.0
20
0.0
30
0.0
70
0
0
VERTEX
5
345
100
AcDbEntity
8
1
100
AcDbVertex
100
AcDb2dVertex
62
5
10
123.000000
20
246.407422
0
VERTEX
5
346
100
AcDbEntity
8
1
100
AcDbVertex
100
AcDb2dVertex
62
5
10
123.000000
20
215.157422
0
VERTEX
5
347
100
AcDbEntity
8
1
100
AcDbVertex
100
AcDb2dVertex
62
5
10
122.000000
20
221.157422
0
VERTEX
5
348
100
AcDbEntity
8
1
100
AcDbVertex
100
AcDb2dVertex
62
5
10
124.000000
20
221.157422
0
VERTEX
5
349
100
AcDbEntity
8
1
100
AcDbVertex
100
AcDb2dVertex
62
5
10
123.000000
20
215.157422
0
VERTEX
5
34a
100
AcDbEntity
8
1
100
AcDbVertex
100
AcDb2dVertex
62
5
10
122.500000
20
221.157422
0
VERTEX
5
34b
100
AcDbEntity
8
1
100
AcDbVertex
100
AcDb2dVertex
62
5
10
123.500000
20
221.157422
0
VERTEX
5
34c
100
AcDbEntity
8
1
100
AcDbVertex
100
AcDb2dVertex
62
5
10
123.000000
20
215.157422
0
SEQEND
5
34d
100
AcDbEntity
8
1
0
LINE
5
34e
100
AcDbEntity
8
1
100
AcDbLine
6
CONTINUOUS
62
5
10
123.000000
20
192.457422
11
123.000000
21
215.157422
0
POLYLINE
5
34f
100
AcDbEntity
8
1
6
CONTINUOUS
62
5
100
AcDb2dPolyline
66
1
10
0.0
20
0.0
30
0.0
70
0
0
VERTEX
5
350
100
AcDbEntity
8
1
100
AcDbVertex
100
AcDb2dVertex
62
5
10
123.000000
20
183.457422
0
VERTEX
5
351
100
AcDbEntity
8
1
100
AcDbVertex
100
AcDb2dVertex
62
5
10
123.000000
20
192.457422
0
VERTEX
5
352
100
AcDbEntity
8
1
100
AcDbVertex
100
AcDb2dVertex
62
5
10
124.000000
20
186.457422
0
VERTEX
5
353
100
AcDbEntity
8
1
100
AcDbVertex
100
AcDb2dVertex
62
5
10
122.000000
20
186.457422
0
VERTEX
5
354
100
AcDbEntity
8
1
100
AcDbVertex
100
AcDb2dVertex
62
5
10
123.000000
20
192.457422
0
VERTEX
5
355
100
AcDbEntity
8
1
100
AcDbVertex
100
AcDb2dVertex
62
5
10
123.500000
20
186.457422
0
VERTEX
5
356
100
AcDbEntity
8
1
100
AcDbVertex
100
AcDb2dVertex
62
5
10
122.500000
20
186.457422
0
VERTEX
5
357
100
AcDbEntity
8
1
100
AcDbVertex
100
AcDb2dVertex
62
5
10
123.000000
20
192.457422
0
SEQEND
5
358
100
AcDbEntity
8
1
0
LINE
5
359
100
AcDbEntity
8
1
100
AcDbLine
6
CONTINUOUS
62
5
10
156.000000
20
215.957422
11
156.000000
21
242.157422
0
LINE
5
35a
100
AcDbEntity
8
1
100
AcDbLine
6
CONTINUOUS
62
5
10
184.000000
20
215.957422
11
184.000000
21
242.157422
0
POLYLINE
5
35b
100
AcDbEntity
8
1
6
CONTINUOUS
62
5
100
AcDb2dPolyline
66
1
10
0.0
20
0.0
30
0.0
70
0
0
VERTEX
5
35c
100
AcDbEntity
8
1
100
AcDbVertex
100
AcDb2dVertex
62
5
10
170.000000
20
240.157422
0
VERTEX
5
35d
100
AcDbEntity
8
1
100
AcDbVertex
100
AcDb2dVertex
62
5
10
156.000000
20
240.157422
0
VERTEX
5
35e
100
AcDbEntity
8
1
100
AcDbVertex
100
AcDb2dVertex
62
5
10
162.000000
20
241.157422
0
VERTEX
5
35f
100
AcDbEntity
8
1
100
AcDbVertex
100
AcDb2dVertex
62
5
10
162.000000
20
239.157422
0
VERTEX
5
360
100
AcDbEntity
8
1
100
AcDbVertex
100
AcDb2dVertex
62
5
10
156.000000
20
240.157422
0
VERTEX
5
361
100
AcDbEntity
8
1
100
AcDbVertex
100
AcDb2dVertex
62
5
10
162.000000
20
240.657422
0
VERTEX
5
362
100
AcDbEntity
8
1
100
AcDbVertex
100
AcDb2dVertex
62
5
10
162.000000
20
239.657422
0
VERTEX
5
363
100
AcDbEntity
8
1
100
AcDbVertex
100
AcDb2dVertex
62
5
10
156.000000
20
240.157422
0
SEQEND
5
364
100
AcDbEntity
8
1
0
POLYLINE
5
365
100
AcDbEntity
8
1
6
CONTINUOUS
62
5
100
AcDb2dPolyline
66
1
10
0.0
20
0.0
30
0.0
70
0
0
VERTEX
5
366
100
AcDbEntity
8
1
100
AcDbVertex
100
AcDb2dVertex
62
5
10
170.000000
20
240.157422
0
VERTEX
5
367
100
AcDbEntity
8
1
100
AcDbVertex
100
AcDb2dVertex
62
5
10
184.000000
20
240.157422
0
VERTEX
5
368
100
AcDbEntity
8
1
100
AcDbVertex
100
AcDb2dVertex
62
5
10
178.000000
20
239.157422
0
VERTEX
5
369
100
AcDbEntity
8
1
100
AcDbVertex
100
AcDb2dVertex
62
5
10
178.000000
20
241.157422
0
VERTEX
5
36a
100
AcDbEntity
8
1
100
AcDbVertex
100
AcDb2dVertex
62
5
10
184.000000
20
240.157422
0
VERTEX
5
36b
100
AcDbEntity
8
1
100
AcDbVertex
100
AcDb2dVertex
62
5
10
178.000000
20
239.657422
0
VERTEX
5
36c
100
AcDbEntity
8
1
100
AcDbVertex
100
AcDb2dVertex
62
5
10
178.000000
20
240.657422
0
VERTEX
5
36d
100
AcDbEntity
8
1
100
AcDbVertex
100
AcDb2dVertex
62
5
10
184.000000
20
240.157422
0
SEQEND
5
36e
100
AcDbEntity
8
1
0
POLYLINE
5
36f
100
AcDbEntity
8
1
6
CONTINUOUS
62
5
100
AcDb2dPolyline
66
1
10
0.0
20
0.0
30
0.0
70
0
0
VERTEX
5
370
100
AcDbEntity
8
1
100
AcDbVertex
100
AcDb2dVertex
62
5
10
169.750000
20
335.250000
0
VERTEX
5
371
100
AcDbEntity
8
1
100
AcDbVertex
100
AcDb2dVertex
62
5
10
170.750000
20
336.500000
0
VERTEX
5
372
100
AcDbEntity
8
1
100
AcDbVertex
100
AcDb2dVertex
62
5
10
171.250000
20
337.437500
0
VERTEX
5
373
100
AcDbEntity
8
1
100
AcDbVertex
100
AcDb2dVertex
62
5
10
173.750000
20
337.437500
0
VERTEX
5
374
100
AcDbEntity
8
1
100
AcDbVertex
100
AcDb2dVertex
62
5
10
173.750000
20
337.125000
0
VERTEX
5
375
100
AcDbEntity
8
1
100
AcDbVertex
100
AcDb2dVertex
62
5
10
173.000000
20
335.250000
0
VERTEX
5
376
100
AcDbEntity
8
1
100
AcDbVertex
100
AcDb2dVertex
62
5
10
171.750000
20
333.375000
0
VERTEX
5
377
100
AcDbEntity
8
1
100
AcDbVertex
100
AcDb2dVertex
62
5
10
170.250000
20
331.812500
0
SEQEND
5
378
100
AcDbEntity
8
1
0
LINE
5
379
100
AcDbEntity
8
1
100
AcDbLine
6
CONTINUOUS
62
5
10
10.000000
20
318.000000
11
330.000000
21
318.000000
0
ARC
5
37a
100
AcDbEntity
8
1
100
AcDbCircle
6
CONTINUOUS
62
5
10
180.560408
20
210.607422
40
0.200000
100
AcDbArc
50
0.000000
51
89.999999
0
LINE
5
37b
100
AcDbEntity
8
1
100
AcDbLine
6
CONTINUOUS
62
5
10
180.760408
20
210.607422
11
180.760408
21
197.007422
0
ARC
5
37c
100
AcDbEntity
8
1
100
AcDbCircle
6
CONTINUOUS
62
5
10
180.560408
20
197.007422
40
0.200000
100
AcDbArc
50
-89.999999
51
0.000000
0
LINE
5
37d
100
AcDbEntity
8
1
100
AcDbLine
6
CONTINUOUS
62
5
10
180.560408
20
196.807422
11
161.502948
21
196.807422
0
ARC
5
37e
100
AcDbEntity
8
1
100
AcDbCircle
6
CONTINUOUS
62
5
10
161.502948
20
197.007422
40
0.200000
100
AcDbArc
50
179.999998
51
-89.999999
0
LINE
5
37f
100
AcDbEntity
8
1
100
AcDbLine
6
CONTINUOUS
62
5
10
161.302948
20
197.007422
11
161.302948
21
210.607422
0
ARC
5
380
100
AcDbEntity
8
1
100
AcDbCircle
6
CONTINUOUS
62
5
10
161.502948
20
210.607422
40
0.200000
100
AcDbArc
50
89.999999
51
179.999998
0
LINE
5
381
100
AcDbEntity
8
1
100
AcDbLine
6
CONTINUOUS
62
5
10
161.502948
20
210.807422
11
180.560408
21
210.807422
0
POLYLINE
5
382
100
AcDbEntity
8
1
6
CONTINUOUS
62
5
100
AcDb2dPolyline
66
1
10
0.0
20
0.0
30
0.0
70
1
0
VERTEX
5
383
100
AcDbEntity
8
1
100
AcDbVertex
100
AcDb2dVertex
62
5
10
158.370000
20
211.807422
0
VERTEX
5
384
100
AcDbEntity
8
1
100
AcDbVertex
100
AcDb2dVertex
62
5
10
181.630000
20
211.807422
0
VERTEX
5
385
100
AcDbEntity
8
1
100
AcDbVertex
100
AcDb2dVertex
62
5
10
181.630000
20
195.807422
0
VERTEX
5
386
100
AcDbEntity
8
1
100
AcDbVertex
100
AcDb2dVertex
62
5
10
158.370000
20
195.807422
0
VERTEX
5
387
100
AcDbEntity
8
1
100
AcDbVertex
100
AcDb2dVertex
62
5
10
158.370000
20
211.807422
0
SEQEND
5
388
100
AcDbEntity
8
1
0
ARC
5
389
100
AcDbEntity
8
1
100
AcDbCircle
6
CONTINUOUS
62
5
10
181.017672
20
196.407422
40
0.500000
100
AcDbArc
50
-89.999999
51
0.000000
0
LINE
5
38a
100
AcDbEntity
8
1
100
AcDbLine
6
CONTINUOUS
62
5
10
181.017672
20
195.907422
11
158.370000
21
195.907422
0
LINE
5
38b
100
AcDbEntity
8
1
100
AcDbLine
6
CONTINUOUS
62
5
10
158.370000
20
211.707422
11
181.017672
21
211.707422
0
ARC
5
38c
100
AcDbEntity
8
1
100
AcDbCircle
6
CONTINUOUS
62
5
10
181.017672
20
211.207422
40
0.500000
100
AcDbArc
50
0.000000
51
89.999999
0
LINE
5
38d
100
AcDbEntity
8
1
100
AcDbLine
6
CONTINUOUS
62
5
10
181.517672
20
211.207422
11
181.517672
21
196.407422
0
ARC
5
38e
100
AcDbEntity
8
1
100
AcDbCircle
6
CONTINUOUS
62
5
10
156.700000
20
214.457422
40
0.700000
100
AcDbArc
50
89.999999
51
179.999998
0
LINE
5
38f
100
AcDbEntity
8
1
100
AcDbLine
6
CONTINUOUS
62
5
10
156.700000
20
215.157422
11
183.300000
21
215.157422
0
ARC
5
390
100
AcDbEntity
8
1
100
AcDbCircle
6
CONTINUOUS
62
5
10
183.300000
20
214.457422
40
0.700000
100
AcDbArc
50
0.000000
51
89.999999
0
LINE
5
391
100
AcDbEntity
8
1
100
AcDbLine
6
CONTINUOUS
62
5
10
184.000000
20
214.457422
11
184.000000
21
193.157422
0
ARC
5
392
100
AcDbEntity
8
1
100
AcDbCircle
6
CONTINUOUS
62
5
10
183.300000
20
193.157422
40
0.700000
100
AcDbArc
50
-89.999999
51
0.000000
0
LINE
5
393
100
AcDbEntity
8
1
100
AcDbLine
6
CONTINUOUS
62
5
10
183.300000
20
192.457422
11
156.700000
21
192.457422
0
ARC
5
394
100
AcDbEntity
8
1
100
AcDbCircle
6
CONTINUOUS
62
5
10
156.700000
20
193.157422
40
0.700000
100
AcDbArc
50
179.999998
51
-89.999999
0
LINE
5
395
100
AcDbEntity
8
1
100
AcDbLine
6
CONTINUOUS
62
5
10
156.000000
20
193.157422
11
156.000000
21
214.457422
0
LINE
5
396
100
AcDbEntity
8
1
100
AcDbLine
6
CONTINUOUS
62
5
10
189.804645
20
126.042578
11
189.804645
21
125.242578
0
LINE
5
397
100
AcDbEntity
8
1
100
AcDbLine
6
CONTINUOUS
62
5
10
184.000000
20
118.742578
11
184.272727
21
118.742578
0
LINE
5
398
100
AcDbEntity
8
1
100
AcDbLine
6
CONTINUOUS
62
5
10
187.227273
20
118.742578
11
187.700000
21
118.742578
0
ARC
5
399
100
AcDbEntity
8
1
100
AcDbCircle
6
CONTINUOUS
62
5
10
188.884139
20
124.742578
40
0.500000
100
AcDbArc
50
89.999999
51
165.068581
0
LINE
5
39a
100
AcDbEntity
8
1
100
AcDbLine
6
CONTINUOUS
62
5
10
188.401022
20
124.871409
11
187.733765
21
122.369197
0
ARC
5
39b
100
AcDbEntity
8
1
100
AcDbCircle
6
CONTINUOUS
62
5
10
188.700000
20
122.111534
40
1.000000
100
AcDbArc
50
165.068581
51
179.999998
0
LINE
5
39c
100
AcDbEntity
8
1
100
AcDbLine
6
CONTINUOUS
62
5
10
187.700000
20
122.111534
11
187.700000
21
121.242578
0
ARC
5
39d
100
AcDbEntity
8
1
100
AcDbCircle
6
CONTINUOUS
62
5
10
183.600000
20
125.135398
40
0.800000
100
AcDbArc
50
-59.999999
51
-0.000000
0
POLYLINE
5
39e
100
AcDbEntity
8
1
6
CONTINUOUS
62
5
100
AcDb2dPolyline
66
1
10
0.0
20
0.0
30
0.0
70
0
0
VERTEX
5
39f
100
AcDbEntity
8
1
100
AcDbVertex
100
AcDb2dVertex
62
5
10
184.000000
20
124.442578
0
VERTEX
5
3a0
100
AcDbEntity
8
1
100
AcDbVertex
100
AcDb2dVertex
62
5
10
184.000000
20
120.742578
0
VERTEX
5
3a1
100
AcDbEntity
8
1
100
AcDbVertex
100
AcDb2dVertex
62
5
10
184.300000
20
118.542578
0
SEQEND
5
3a2
100
AcDbEntity
8
1
0
ARC
5
3a3
100
AcDbEntity
8
1
100
AcDbCircle
6
CONTINUOUS
62
5
10
182.799684
20
118.567545
40
1.500524
100
AcDbArc
50
-59.882135
51
-0.953364
0
LINE
5
3a4
100
AcDbEntity
8
1
100
AcDbLine
6
CONTINUOUS
62
5
10
183.552618
20
117.269599
11
182.647969
21
116.747297
0
ARC
5
3a5
100
AcDbEntity
8
1
100
AcDbCircle
6
CONTINUOUS
62
5
10
182.880858
20
116.414572
40
0.406132
100
AcDbArc
50
124.989862
51
-46.803946
0
LINE
5
3a6
100
AcDbEntity
8
1
100
AcDbLine
6
CONTINUOUS
62
5
10
183.158853
20
116.118496
11
183.947385
21
116.573757
0
ARC
5
3a7
100
AcDbEntity
8
1
100
AcDbCircle
6
CONTINUOUS
62
5
10
182.800203
20
118.567240
40
2.300000
100
AcDbArc
50
-60.081017
51
-25.748378
0
LINE
5
3a8
100
AcDbEntity
8
1
100
AcDbLine
6
CONTINUOUS
62
5
10
184.871837
20
117.568075
11
185.164538
21
118.174951
0
ARC
5
3a9
100
AcDbEntity
8
1
100
AcDbCircle
6
CONTINUOUS
62
5
10
185.750000
20
117.892578
40
0.650000
100
AcDbArc
50
29.653891
51
154.251609
0
LINE
5
3aa
100
AcDbEntity
8
1
100
AcDbLine
6
CONTINUOUS
62
5
10
186.314870
20
118.214172
11
186.695115
21
117.547539
0
ARC
5
3ab
100
AcDbEntity
8
1
100
AcDbCircle
6
CONTINUOUS
62
5
10
188.693033
20
118.686978
40
2.300000
100
AcDbArc
50
-150.303328
51
-119.931595
0
LINE
5
3ac
100
AcDbEntity
8
1
100
AcDbLine
6
CONTINUOUS
62
5
10
187.545412
20
116.693748
11
188.419088
21
116.189329
0
ARC
5
3ad
100
AcDbEntity
8
1
100
AcDbCircle
6
CONTINUOUS
62
5
10
188.684472
20
116.493802
40
0.403897
100
AcDbArc
50
-131.076096
51
57.905751
0
LINE
5
3ae
100
AcDbEntity
8
1
100
AcDbLine
6
CONTINUOUS
62
5
10
188.899068
20
116.835973
11
187.947492
21
117.385376
0
ARC
5
3af
100
AcDbEntity
8
1
100
AcDbCircle
6
CONTINUOUS
62
5
10
188.693033
20
118.686978
40
1.500000
100
AcDbArc
50
-174.475768
51
-119.803520
0
POLYLINE
5
3b0
100
AcDbEntity
8
1
6
CONTINUOUS
62
5
100
AcDb2dPolyline
66
1
10
0.0
20
0.0
30
0.0
70
0
0
VERTEX
5
3b1
100
AcDbEntity
8
1
100
AcDbVertex
100
AcDb2dVertex
62
5
10
187.200000
20
118.542578
0
VERTEX
5
3b2
100
AcDbEntity
8
1
100
AcDbVertex
100
AcDb2dVertex
62
5
10
187.500000
20
120.742578
0
VERTEX
5
3b3
100
AcDbEntity
8
1
100
AcDbVertex
100
AcDb2dVertex
62
5
10
187.500000
20
126.042578
0
SEQEND
5
3b4
100
AcDbEntity
8
1
0
LINE
5
3b5
100
AcDbEntity
8
1
100
AcDbLine
6
CONTINUOUS
62
5
10
184.400000
20
126.042578
11
184.400000
21
125.135398
0
ARC
5
3b6
100
AcDbEntity
8
1
100
AcDbCircle
6
CONTINUOUS
62
5
10
186.281427
20
126.342578
40
1.100000
100
AcDbArc
50
-176.401066
51
-164.173378
0
POLYLINE
5
3b7
100
AcDbEntity
8
1
6
CONTINUOUS
62
5
100
AcDb2dPolyline
66
1
10
0.0
20
0.0
30
0.0
70
0
0
VERTEX
5
3b8
100
AcDbEntity
8
1
100
AcDbVertex
100
AcDb2dVertex
62
5
10
186.000000
20
126.042578
0
VERTEX
5
3b9
100
AcDbEntity
8
1
100
AcDbVertex
100
AcDb2dVertex
62
5
10
185.800000
20
129.242578
0
VERTEX
5
3ba
100
AcDbEntity
8
1
100
AcDbVertex
100
AcDb2dVertex
62
5
10
185.000000
20
129.192578
0
VERTEX
5
3bb
100
AcDbEntity
8
1
100
AcDbVertex
100
AcDb2dVertex
62
5
10
185.183596
20
126.273529
0
SEQEND
5
3bc
100
AcDbEntity
8
1
0
ARC
5
3bd
100
AcDbEntity
8
1
100
AcDbCircle
6
CONTINUOUS
62
5
10
184.500000
20
128.742578
40
0.500000
100
AcDbArc
50
0.000000
51
89.999999
0
LINE
5
3be
100
AcDbEntity
8
1
100
AcDbLine
6
CONTINUOUS
62
5
10
185.000000
20
128.742578
11
185.000000
21
126.042578
0
LINE
5
3bf
100
AcDbEntity
8
1
100
AcDbLine
6
CONTINUOUS
62
5
10
184.000000
20
129.242578
11
184.500000
21
129.242578
0
ARC
5
3c0
100
AcDbEntity
8
1
100
AcDbCircle
6
CONTINUOUS
62
5
10
180.500000
20
115.242578
40
0.500000
100
AcDbArc
50
-89.999999
51
0.000000
0
LINE
5
3c1
100
AcDbEntity
8
1
100
AcDbLine
6
CONTINUOUS
62
5
10
181.000000
20
115.242578
11
181.000000
21
117.242578
0
LINE
5
3c2
100
AcDbEntity
8
1
100
AcDbLine
6
CONTINUOUS
62
5
10
175.500000
20
114.742578
11
180.500000
21
114.742578
0
POLYLINE
5
3c3
100
AcDbEntity
8
1
6
CONTINUOUS
62
5
100
AcDb2dPolyline
66
1
10
0.0
20
0.0
30
0.0
70
0
0
VERTEX
5
3c4
100
AcDbEntity
8
1
100
AcDbVertex
100
AcDb2dVertex
62
5
10
184.392788
20
125.242578
0
VERTEX
5
3c5
100
AcDbEntity
8
1
100
AcDbVertex
100
AcDb2dVertex
62
5
10
184.000000
20
125.242578
0
VERTEX
5
3c6
100
AcDbEntity
8
1
100
AcDbVertex
100
AcDb2dVertex
62
5
10
184.000000
20
126.042578
0
VERTEX
5
3c7
100
AcDbEntity
8
1
100
AcDbVertex
100
AcDb2dVertex
62
5
10
184.400442
20
126.042578
0
VERTEX
5
3c8
100
AcDbEntity
8
1
100
AcDbVertex
100
AcDb2dVertex
62
5
10
192.000000
20
126.042578
0
VERTEX
5
3c9
100
AcDbEntity
8
1
100
AcDbVertex
100
AcDb2dVertex
62
5
10
192.000000
20
125.242578
0
VERTEX
5
3ca
100
AcDbEntity
8
1
100
AcDbVertex
100
AcDb2dVertex
62
5
10
187.500000
20
125.242578
0
SEQEND
5
3cb
100
AcDbEntity
8
1
0
ARC
5
3cc
100
AcDbEntity
8
1
100
AcDbCircle
6
CONTINUOUS
62
5
10
190.739517
20
117.942578
40
0.700000
100
AcDbArc
50
-89.999999
51
-1.047977
0
LINE
5
3cd
100
AcDbEntity
8
1
100
AcDbLine
6
CONTINUOUS
62
5
10
190.739517
20
117.242578
11
188.400000
21
117.242578
0
ARC
5
3ce
100
AcDbEntity
8
1
100
AcDbCircle
6
CONTINUOUS
62
5
10
188.400000
20
117.942578
40
0.700000
100
AcDbArc
50
179.999998
51
-89.999999
0
LINE
5
3cf
100
AcDbEntity
8
1
100
AcDbLine
6
CONTINUOUS
62
5
10
187.700000
20
117.942578
11
187.700000
21
121.242578
0
ARC
5
3d0
100
AcDbEntity
8
1
100
AcDbCircle
6
CONTINUOUS
62
5
10
190.500000
20
124.742578
40
0.500000
100
AcDbArc
50
-0.000000
51
89.999999
0
LINE
5
3d1
100
AcDbEntity
8
1
100
AcDbLine
6
CONTINUOUS
62
5
10
191.000000
20
124.742578
11
191.000000
21
121.242578
0
LINE
5
3d2
100
AcDbEntity
8
1
100
AcDbLine
6
CONTINUOUS
62
5
10
174.500000
20
105.442578
11
178.833485
21
105.442578
0
ARC
5
3d3
100
AcDbEntity
8
1
100
AcDbCircle
6
CONTINUOUS
62
5
10
190.217991
20
105.842879
40
1.000302
100
AcDbArc
50
-89.992313
51
-0.017270
0
LINE
5
3d4
100
AcDbEntity
8
1
100
AcDbLine
6
CONTINUOUS
62
5
10
190.218125
20
104.842578
11
179.750000
21
104.842578
0
ARC
5
3d5
100
AcDbEntity
8
1
100
AcDbCircle
6
CONTINUOUS
62
5
10
179.750000
20
105.842578
40
1.000000
100
AcDbArc
50
179.999998
51
-89.999999
0
LINE
5
3d6
100
AcDbEntity
8
1
100
AcDbLine
6
CONTINUOUS
62
5
10
178.750000
20
105.842578
11
178.750000
21
107.842578
0
ARC
5
3d7
100
AcDbEntity
8
1
100
AcDbCircle
6
CONTINUOUS
62
5
10
178.250000
20
107.842578
40
0.500000
100
AcDbArc
50
0.000000
51
89.999999
0
LINE
5
3d8
100
AcDbEntity
8
1
100
AcDbLine
6
CONTINUOUS
62
5
10
178.250000
20
108.342578
11
178.250000
21
108.342578
0
POLYLINE
5
3d9
100
AcDbEntity
8
1
6
CONTINUOUS
62
5
100
AcDb2dPolyline
66
1
10
0.0
20
0.0
30
0.0
70
0
0
VERTEX
5
3da
100
AcDbEntity
8
1
100
AcDbVertex
100
AcDb2dVertex
62
5
10
187.500000
20
121.242578
0
VERTEX
5
3db
100
AcDbEntity
8
1
100
AcDbVertex
100
AcDb2dVertex
62
5
10
191.500000
20
121.242578
0
VERTEX
5
3dc
100
AcDbEntity
8
1
100
AcDbVertex
100
AcDb2dVertex
62
5
10
191.218293
20
105.842578
0
SEQEND
5
3dd
100
AcDbEntity
8
1
0
POLYLINE
5
3de
100
AcDbEntity
8
1
6
DOT2
62
5
100
AcDb2dPolyline
66
1
10
0.0
20
0.0
30
0.0
70
0
0
VERTEX
5
3df
100
AcDbEntity
8
1
100
AcDbVertex
100
AcDb2dVertex
62
5
10
115.187500
20
145.192578
0
VERTEX
5
3e0
100
AcDbEntity
8
1
100
AcDbVertex
100
AcDb2dVertex
62
5
10
114.250000
20
145.192578
0
VERTEX
5
3e1
100
AcDbEntity
8
1
100
AcDbVertex
100
AcDb2dVertex
62
5
10
114.250000
20
148.317578
0
VERTEX
5
3e2
100
AcDbEntity
8
1
100
AcDbVertex
100
AcDb2dVertex
62
5
10
114.875000
20
148.317578
0
VERTEX
5
3e3
100
AcDbEntity
8
1
100
AcDbVertex
100
AcDb2dVertex
62
5
10
116.437500
20
147.692578
0
VERTEX
5
3e4
100
AcDbEntity
8
1
100
AcDbVertex
100
AcDb2dVertex
62
5
10
118.625000
20
147.067578
0
VERTEX
5
3e5
100
AcDbEntity
8
1
100
AcDbVertex
100
AcDb2dVertex
62
5
10
121.750000
20
146.442578
0
SEQEND
5
3e6
100
AcDbEntity
8
1
0
LINE
5
3e7
100
AcDbEntity
8
1
100
AcDbLine
6
DOT2
62
5
10
121.125000
20
150.817578
11
121.750000
21
150.192578
0
POLYLINE
5
3e8
100
AcDbEntity
8
1
6
DOT2
62
5
100
AcDb2dPolyline
66
1
10
0.0
20
0.0
30
0.0
70
0
0
VERTEX
5
3e9
100
AcDbEntity
8
1
100
AcDbVertex
100
AcDb2dVertex
62
5
10
121.125000
20
150.192578
0
VERTEX
5
3ea
100
AcDbEntity
8
1
100
AcDbVertex
100
AcDb2dVertex
62
5
10
121.750000
20
150.817578
0
VERTEX
5
3eb
100
AcDbEntity
8
1
100
AcDbVertex
100
AcDb2dVertex
62
5
10
121.750000
20
150.192578
0
VERTEX
5
3ec
100
AcDbEntity
8
1
100
AcDbVertex
100
AcDb2dVertex
62
5
10
121.125000
20
150.192578
0
VERTEX
5
3ed
100
AcDbEntity
8
1
100
AcDbVertex
100
AcDb2dVertex
62
5
10
121.125000
20
150.817578
0
VERTEX
5
3ee
100
AcDbEntity
8
1
100
AcDbVertex
100
AcDb2dVertex
62
5
10
121.750000
20
150.817578
0
SEQEND
5
3ef
100
AcDbEntity
8
1
0
POLYLINE
5
3f0
100
AcDbEntity
8
1
6
DOT2
62
5
100
AcDb2dPolyline
66
1
10
0.0
20
0.0
30
0.0
70
0
0
VERTEX
5
3f1
100
AcDbEntity
8
1
100
AcDbVertex
100
AcDb2dVertex
62
5
10
118.312500
20
158.317578
0
VERTEX
5
3f2
100
AcDbEntity
8
1
100
AcDbVertex
100
AcDb2dVertex
62
5
10
118.312500
20
158.317578
0
VERTEX
5
3f3
100
AcDbEntity
8
1
100
AcDbVertex
100
AcDb2dVertex
62
5
10
118.625000
20
157.067578
0
VERTEX
5
3f4
100
AcDbEntity
8
1
100
AcDbVertex
100
AcDb2dVertex
62
5
10
118.625000
20
156.130078
0
VERTEX
5
3f5
100
AcDbEntity
8
1
100
AcDbVertex
100
AcDb2dVertex
62
5
10
118.312500
20
155.505078
0
VERTEX
5
3f6
100
AcDbEntity
8
1
100
AcDbVertex
100
AcDb2dVertex
62
5
10
117.375000
20
155.192578
0
VERTEX
5
3f7
100
AcDbEntity
8
1
100
AcDbVertex
100
AcDb2dVertex
62
5
10
115.812500
20
155.192578
0
VERTEX
5
3f8
100
AcDbEntity
8
1
100
AcDbVertex
100
AcDb2dVertex
62
5
10
114.875000
20
155.505078
0
VERTEX
5
3f9
100
AcDbEntity
8
1
100
AcDbVertex
100
AcDb2dVertex
62
5
10
114.562500
20
155.817578
0
VERTEX
5
3fa
100
AcDbEntity
8
1
100
AcDbVertex
100
AcDb2dVertex
62
5
10
114.250000
20
156.442578
0
VERTEX
5
3fb
100
AcDbEntity
8
1
100
AcDbVertex
100
AcDb2dVertex
62
5
10
114.250000
20
157.067578
0
VERTEX
5
3fc
100
AcDbEntity
8
1
100
AcDbVertex
100
AcDb2dVertex
62
5
10
114.562500
20
157.692578
0
VERTEX
5
3fd
100
AcDbEntity
8
1
100
AcDbVertex
100
AcDb2dVertex
62
5
10
114.875000
20
158.005078
0
VERTEX
5
3fe
100
AcDbEntity
8
1
100
AcDbVertex
100
AcDb2dVertex
62
5
10
115.812500
20
158.317578
0
VERTEX
5
3ff
100
AcDbEntity
8
1
100
AcDbVertex
100
AcDb2dVertex
62
5
10
119.250000
20
158.317578
0
VERTEX
5
400
100
AcDbEntity
8
1
100
AcDbVertex
100
AcDb2dVertex
62
5
10
120.812500
20
158.005078
0
VERTEX
5
401
100
AcDbEntity
8
1
100
AcDbVertex
100
AcDb2dVertex
62
5
10
121.437500
20
157.380078
0
VERTEX
5
402
100
AcDbEntity
8
1
100
AcDbVertex
100
AcDb2dVertex
62
5
10
121.750000
20
156.442578
0
VERTEX
5
403
100
AcDbEntity
8
1
100
AcDbVertex
100
AcDb2dVertex
62
5
10
121.750000
20
155.817578
0
SEQEND
5
404
100
AcDbEntity
8
1
0
ARC
5
405
100
AcDbEntity
8
1
100
AcDbCircle
6
CONTINUOUS
62
5
10
159.500000
20
115.242578
40
0.500000
100
AcDbArc
50
179.999998
51
-89.999999
0
POLYLINE
5
406
100
AcDbEntity
8
1
6
CONTINUOUS
62
5
100
AcDb2dPolyline
66
1
10
0.0
20
0.0
30
0.0
70
0
0
VERTEX
5
407
100
AcDbEntity
8
1
100
AcDbVertex
100
AcDb2dVertex
62
5
10
159.500000
20
114.742578
0
VERTEX
5
408
100
AcDbEntity
8
1
100
AcDbVertex
100
AcDb2dVertex
62
5
10
164.000000
20
114.742578
0
VERTEX
5
409
100
AcDbEntity
8
1
100
AcDbVertex
100
AcDb2dVertex
62
5
10
164.500000
20
114.742578
0
VERTEX
5
40a
100
AcDbEntity
8
1
100
AcDbVertex
100
AcDb2dVertex
62
5
10
164.500000
20
114.742578
0
SEQEND
5
40b
100
AcDbEntity
8
1
0
LINE
5
40c
100
AcDbEntity
8
1
100
AcDbLine
6
CONTINUOUS
62
5
10
159.000000
20
117.242578
11
159.000000
21
115.242578
0
LINE
5
40d
100
AcDbEntity
8
1
100
AcDbLine
6
CONTINUOUS
62
5
10
156.000000
20
118.742578
11
155.727273
21
118.742578
0
ARC
5
40e
100
AcDbEntity
8
1
100
AcDbCircle
6
CONTINUOUS
62
5
10
153.718573
20
126.342578
40
1.100000
100
AcDbArc
50
-15.826620
51
-3.598932
0
POLYLINE
5
40f
100
AcDbEntity
8
1
6
CONTINUOUS
62
5
100
AcDb2dPolyline
66
1
10
0.0
20
0.0
30
0.0
70
0
0
VERTEX
5
410
100
AcDbEntity
8
1
100
AcDbVertex
100
AcDb2dVertex
62
5
10
154.000000
20
126.042578
0
VERTEX
5
411
100
AcDbEntity
8
1
100
AcDbVertex
100
AcDb2dVertex
62
5
10
154.200000
20
129.242578
0
VERTEX
5
412
100
AcDbEntity
8
1
100
AcDbVertex
100
AcDb2dVertex
62
5
10
155.000000
20
129.192578
0
VERTEX
5
413
100
AcDbEntity
8
1
100
AcDbVertex
100
AcDb2dVertex
62
5
10
154.816404
20
126.273529
0
SEQEND
5
414
100
AcDbEntity
8
1
0
ARC
5
415
100
AcDbEntity
8
1
100
AcDbCircle
6
CONTINUOUS
62
5
10
155.500000
20
128.742578
40
0.500000
100
AcDbArc
50
89.999999
51
179.999998
0
LINE
5
416
100
AcDbEntity
8
1
100
AcDbLine
6
CONTINUOUS
62
5
10
155.000000
20
128.742578
11
155.000000
21
126.042578
0
LINE
5
417
100
AcDbEntity
8
1
100
AcDbLine
6
CONTINUOUS
62
5
10
156.000000
20
129.242578
11
155.500000
21
129.242578
0
LINE
5
418
100
AcDbEntity
8
1
100
AcDbLine
6
CONTINUOUS
62
5
10
150.195355
20
126.042578
11
150.195355
21
125.242578
0
LINE
5
419
100
AcDbEntity
8
1
100
AcDbLine
6
CONTINUOUS
62
5
10
152.772727
20
118.742578
11
152.300000
21
118.742578
0
ARC
5
41a
100
AcDbEntity
8
1
100
AcDbCircle
6
CONTINUOUS
62
5
10
151.115861
20
124.742578
40
0.500000
100
AcDbArc
50
14.931417
51
89.999999
0
LINE
5
41b
100
AcDbEntity
8
1
100
AcDbLine
6
CONTINUOUS
62
5
10
151.598978
20
124.871409
11
152.266235
21
122.369197
0
ARC
5
41c
100
AcDbEntity
8
1
100
AcDbCircle
6
CONTINUOUS
62
5
10
151.300000
20
122.111534
40
1.000000
100
AcDbArc
50
0.000000
51
14.931417
0
LINE
5
41d
100
AcDbEntity
8
1
100
AcDbLine
6
CONTINUOUS
62
5
10
152.300000
20
122.111534
11
152.300000
21
121.242578
0
ARC
5
41e
100
AcDbEntity
8
1
100
AcDbCircle
6
CONTINUOUS
62
5
10
156.400000
20
125.135398
40
0.800000
100
AcDbArc
50
-179.999998
51
-119.999999
0
POLYLINE
5
41f
100
AcDbEntity
8
1
6
CONTINUOUS
62
5
100
AcDb2dPolyline
66
1
10
0.0
20
0.0
30
0.0
70
0
0
VERTEX
5
420
100
AcDbEntity
8
1
100
AcDbVertex
100
AcDb2dVertex
62
5
10
156.000000
20
124.442578
0
VERTEX
5
421
100
AcDbEntity
8
1
100
AcDbVertex
100
AcDb2dVertex
62
5
10
156.000000
20
120.742578
0
VERTEX
5
422
100
AcDbEntity
8
1
100
AcDbVertex
100
AcDb2dVertex
62
5
10
155.700000
20
118.542578
0
SEQEND
5
423
100
AcDbEntity
8
1
0
ARC
5
424
100
AcDbEntity
8
1
100
AcDbCircle
6
CONTINUOUS
62
5
10
157.200316
20
118.567545
40
1.500524
100
AcDbArc
50
-179.046634
51
-120.117864
0
LINE
5
425
100
AcDbEntity
8
1
100
AcDbLine
6
CONTINUOUS
62
5
10
156.447382
20
117.269599
11
157.352031
21
116.747297
0
ARC
5
426
100
AcDbEntity
8
1
100
AcDbCircle
6
CONTINUOUS
62
5
10
157.119142
20
116.414572
40
0.406132
100
AcDbArc
50
-133.196052
51
55.010136
0
LINE
5
427
100
AcDbEntity
8
1
100
AcDbLine
6
CONTINUOUS
62
5
10
156.841147
20
116.118496
11
156.052615
21
116.573757
0
ARC
5
428
100
AcDbEntity
8
1
100
AcDbCircle
6
CONTINUOUS
62
5
10
157.199797
20
118.567240
40
2.300000
100
AcDbArc
50
-154.251620
51
-119.918981
0
LINE
5
429
100
AcDbEntity
8
1
100
AcDbLine
6
CONTINUOUS
62
5
10
155.128163
20
117.568075
11
154.835462
21
118.174951
0
ARC
5
42a
100
AcDbEntity
8
1
100
AcDbCircle
6
CONTINUOUS
62
5
10
154.250000
20
117.892578
40
0.650000
100
AcDbArc
50
25.748389
51
150.346107
0
LINE
5
42b
100
AcDbEntity
8
1
100
AcDbLine
6
CONTINUOUS
62
5
10
153.685130
20
118.214172
11
153.304885
21
117.547539
0
ARC
5
42c
100
AcDbEntity
8
1
100
AcDbCircle
6
CONTINUOUS
62
5
10
151.306967
20
118.686978
40
2.300000
100
AcDbArc
50
-60.068404
51
-29.696671
0
LINE
5
42d
100
AcDbEntity
8
1
100
AcDbLine
6
CONTINUOUS
62
5
10
152.454588
20
116.693748
11
151.580912
21
116.189329
0
ARC
5
42e
100
AcDbEntity
8
1
100
AcDbCircle
6
CONTINUOUS
62
5
10
151.315528
20
116.493802
40
0.403897
100
AcDbArc
50
122.094247
51
-48.923902
0
LINE
5
42f
100
AcDbEntity
8
1
100
AcDbLine
6
CONTINUOUS
62
5
10
151.100932
20
116.835973
11
152.052508
21
117.385376
0
ARC
5
430
100
AcDbEntity
8
1
100
AcDbCircle
6
CONTINUOUS
62
5
10
151.306967
20
118.686978
40
1.500000
100
AcDbArc
50
-60.196479
51
-5.524231
0
POLYLINE
5
431
100
AcDbEntity
8
1
6
CONTINUOUS
62
5
100
AcDb2dPolyline
66
1
10
0.0
20
0.0
30
0.0
70
0
0
VERTEX
5
432
100
AcDbEntity
8
1
100
AcDbVertex
100
AcDb2dVertex
62
5
10
152.800000
20
118.542578
0
VERTEX
5
433
100
AcDbEntity
8
1
100
AcDbVertex
100
AcDb2dVertex
62
5
10
152.500000
20
120.742578
0
VERTEX
5
434
100
AcDbEntity
8
1
100
AcDbVertex
100
AcDb2dVertex
62
5
10
152.500000
20
126.042578
0
SEQEND
5
435
100
AcDbEntity
8
1
0
LINE
5
436
100
AcDbEntity
8
1
100
AcDbLine
6
CONTINUOUS
62
5
10
155.600000
20
126.042578
11
155.600000
21
125.135398
0
ARC
5
437
100
AcDbEntity
8
1
100
AcDbCircle
6
CONTINUOUS
62
5
10
149.500000
20
124.742578
40
0.500000
100
AcDbArc
50
89.999999
51
-179.999998
0
LINE
5
438
100
AcDbEntity
8
1
100
AcDbLine
6
CONTINUOUS
62
5
10
149.000000
20
124.742578
11
149.000000
21
121.242578
0
ARC
5
439
100
AcDbEntity
8
1
100
AcDbCircle
6
CONTINUOUS
62
5
10
151.600000
20
117.942578
40
0.700000
100
AcDbArc
50
-89.999999
51
0.000000
0
LINE
5
43a
100
AcDbEntity
8
1
100
AcDbLine
6
CONTINUOUS
62
5
10
151.600000
20
117.242578
11
149.260483
21
117.242578
0
ARC
5
43b
100
AcDbEntity
8
1
100
AcDbCircle
6
CONTINUOUS
62
5
10
149.260483
20
117.942578
40
0.700000
100
AcDbArc
50
-178.952022
51
-89.999999
0
LINE
5
43c
100
AcDbEntity
8
1
100
AcDbLine
6
CONTINUOUS
62
5
10
152.300000
20
121.242578
11
152.300000
21
117.942578
0
POLYLINE
5
43d
100
AcDbEntity
8
1
6
CONTINUOUS
62
5
100
AcDb2dPolyline
66
1
10
0.0
20
0.0
30
0.0
70
0
0
VERTEX
5
43e
100
AcDbEntity
8
1
100
AcDbVertex
100
AcDb2dVertex
62
5
10
155.600000
20
125.242578
0
VERTEX
5
43f
100
AcDbEntity
8
1
100
AcDbVertex
100
AcDb2dVertex
62
5
10
156.000000
20
125.242578
0
VERTEX
5
440
100
AcDbEntity
8
1
100
AcDbVertex
100
AcDb2dVertex
62
5
10
156.000000
20
126.042578
0
VERTEX
5
441
100
AcDbEntity
8
1
100
AcDbVertex
100
AcDb2dVertex
62
5
10
148.000000
20
126.042578
0
VERTEX
5
442
100
AcDbEntity
8
1
100
AcDbVertex
100
AcDb2dVertex
62
5
10
148.000000
20
125.242578
0
VERTEX
5
443
100
AcDbEntity
8
1
100
AcDbVertex
100
AcDb2dVertex
62
5
10
152.500000
20
125.242578
0
SEQEND
5
444
100
AcDbEntity
8
1
0
ARC
5
445
100
AcDbEntity
8
1
100
AcDbCircle
6
CONTINUOUS
62
5
10
163.550000
20
105.742578
40
0.300000
100
AcDbArc
50
179.999998
51
-89.999999
0
POLYLINE
5
446
100
AcDbEntity
8
1
6
CONTINUOUS
62
5
100
AcDb2dPolyline
66
1
10
0.0
20
0.0
30
0.0
70
0
0
VERTEX
5
447
100
AcDbEntity
8
1
100
AcDbVertex
100
AcDb2dVertex
62
5
10
163.250000
20
105.742578
0
VERTEX
5
448
100
AcDbEntity
8
1
100
AcDbVertex
100
AcDb2dVertex
62
5
10
163.250000
20
105.942578
0
VERTEX
5
449
100
AcDbEntity
8
1
100
AcDbVertex
100
AcDb2dVertex
62
5
10
161.250000
20
105.942578
0
VERTEX
5
44a
100
AcDbEntity
8
1
100
AcDbVertex
100
AcDb2dVertex
62
5
10
161.250000
20
105.742578
0
SEQEND
5
44b
100
AcDbEntity
8
1
0
ARC
5
44c
100
AcDbEntity
8
1
100
AcDbCircle
6
CONTINUOUS
62
5
10
160.950000
20
105.742578
40
0.300000
100
AcDbArc
50
-89.999999
51
0.000000
0
LINE
5
44d
100
AcDbEntity
8
1
100
AcDbLine
6
CONTINUOUS
62
5
10
160.950000
20
105.442578
11
160.213531
21
105.442578
0
ARC
5
44e
100
AcDbEntity
8
1
100
AcDbCircle
6
CONTINUOUS
62
5
10
160.213531
20
106.442578
40
1.000000
100
AcDbArc
50
-178.611908
51
-89.999999
0
LINE
5
44f
100
AcDbEntity
8
1
100
AcDbLine
6
CONTINUOUS
62
5
10
159.213824
20
106.418354
11
159.000000
21
115.242578
0
ARC
5
450
100
AcDbEntity
8
1
100
AcDbCircle
6
CONTINUOUS
62
5
10
149.782032
20
105.842902
40
1.000324
100
AcDbArc
50
-179.981425
51
-90.008988
0
LINE
5
451
100
AcDbEntity
8
1
100
AcDbLine
6
CONTINUOUS
62
5
10
149.781875
20
104.842578
11
160.250000
21
104.842578
0
ARC
5
452
100
AcDbEntity
8
1
100
AcDbCircle
6
CONTINUOUS
62
5
10
160.250000
20
105.842578
40
1.000000
100
AcDbArc
50
-89.999999
51
-12.554078
0
POLYLINE
5
453
100
AcDbEntity
8
1
6
CONTINUOUS
62
5
100
AcDb2dPolyline
66
1
10
0.0
20
0.0
30
0.0
70
0
0
VERTEX
5
454
100
AcDbEntity
8
1
100
AcDbVertex
100
AcDb2dVertex
62
5
10
152.500000
20
121.242578
0
VERTEX
5
455
100
AcDbEntity
8
1
100
AcDbVertex
100
AcDb2dVertex
62
5
10
148.500000
20
121.242578
0
VERTEX
5
456
100
AcDbEntity
8
1
100
AcDbVertex
100
AcDb2dVertex
62
5
10
148.781707
20
105.842578
0
SEQEND
5
457
100
AcDbEntity
8
1
0
POLYLINE
5
458
100
AcDbEntity
8
1
6
DOT2
62
5
100
AcDb2dPolyline
66
1
10
0.0
20
0.0
30
0.0
70
0
0
VERTEX
5
459
100
AcDbEntity
8
1
100
AcDbVertex
100
AcDb2dVertex
62
5
10
116.437500
20
91.092578
0
VERTEX
5
45a
100
AcDbEntity
8
1
100
AcDbVertex
100
AcDb2dVertex
62
5
10
114.875000
20
91.405078
0
VERTEX
5
45b
100
AcDbEntity
8
1
100
AcDbVertex
100
AcDb2dVertex
62
5
10
114.250000
20
92.342578
0
VERTEX
5
45c
100
AcDbEntity
8
1
100
AcDbVertex
100
AcDb2dVertex
62
5
10
114.250000
20
93.280078
0
VERTEX
5
45d
100
AcDbEntity
8
1
100
AcDbVertex
100
AcDb2dVertex
62
5
10
114.562500
20
93.905078
0
VERTEX
5
45e
100
AcDbEntity
8
1
100
AcDbVertex
100
AcDb2dVertex
62
5
10
115.500000
20
94.217578
0
VERTEX
5
45f
100
AcDbEntity
8
1
100
AcDbVertex
100
AcDb2dVertex
62
5
10
116.437500
20
94.217578
0
VERTEX
5
460
100
AcDbEntity
8
1
100
AcDbVertex
100
AcDb2dVertex
62
5
10
117.375000
20
93.905078
0
VERTEX
5
461
100
AcDbEntity
8
1
100
AcDbVertex
100
AcDb2dVertex
62
5
10
121.750000
20
91.092578
0
VERTEX
5
462
100
AcDbEntity
8
1
100
AcDbVertex
100
AcDb2dVertex
62
5
10
121.750000
20
94.217578
0
VERTEX
5
463
100
AcDbEntity
8
1
100
AcDbVertex
100
AcDb2dVertex
62
5
10
120.812500
20
94.217578
0
SEQEND
5
464
100
AcDbEntity
8
1
0
LINE
5
465
100
AcDbEntity
8
1
100
AcDbLine
6
CONTINUOUS
62
5
10
146.500000
20
126.042578
11
121.000000
21
126.042578
0
LINE
5
466
100
AcDbEntity
8
1
100
AcDbLine
6
CONTINUOUS
62
5
10
155.200000
20
133.942578
11
121.000000
21
133.942578
0
POLYLINE
5
467
100
AcDbEntity
8
1
6
CONTINUOUS
62
5
100
AcDb2dPolyline
66
1
10
0.0
20
0.0
30
0.0
70
0
0
VERTEX
5
468
100
AcDbEntity
8
1
100
AcDbVertex
100
AcDb2dVertex
62
5
10
123.000000
20
160.192578
0
VERTEX
5
469
100
AcDbEntity
8
1
100
AcDbVertex
100
AcDb2dVertex
62
5
10
123.000000
20
133.942578
0
VERTEX
5
46a
100
AcDbEntity
8
1
100
AcDbVertex
100
AcDb2dVertex
62
5
10
122.000000
20
139.942578
0
VERTEX
5
46b
100
AcDbEntity
8
1
100
AcDbVertex
100
AcDb2dVertex
62
5
10
124.000000
20
139.942578
0
VERTEX
5
46c
100
AcDbEntity
8
1
100
AcDbVertex
100
AcDb2dVertex
62
5
10
123.000000
20
133.942578
0
VERTEX
5
46d
100
AcDbEntity
8
1
100
AcDbVertex
100
AcDb2dVertex
62
5
10
122.500000
20
139.942578
0
VERTEX
5
46e
100
AcDbEntity
8
1
100
AcDbVertex
100
AcDb2dVertex
62
5
10
123.500000
20
139.942578
0
VERTEX
5
46f
100
AcDbEntity
8
1
100
AcDbVertex
100
AcDb2dVertex
62
5
10
123.000000
20
133.942578
0
SEQEND
5
470
100
AcDbEntity
8
1
0
LINE
5
471
100
AcDbEntity
8
1
100
AcDbLine
6
CONTINUOUS
62
5
10
123.000000
20
126.042578
11
123.000000
21
133.942578
0
LINE
5
472
100
AcDbEntity
8
1
100
AcDbLine
6
CONTINUOUS
62
5
10
123.000000
20
123.042578
11
123.000000
21
126.042578
0
POLYLINE
5
473
100
AcDbEntity
8
1
6
DOT2
62
5
100
AcDb2dPolyline
66
1
10
0.0
20
0.0
30
0.0
70
0
0
VERTEX
5
474
100
AcDbEntity
8
1
100
AcDbVertex
100
AcDb2dVertex
62
5
10
116.437500
20
76.092578
0
VERTEX
5
475
100
AcDbEntity
8
1
100
AcDbVertex
100
AcDb2dVertex
62
5
10
114.875000
20
76.405078
0
VERTEX
5
476
100
AcDbEntity
8
1
100
AcDbVertex
100
AcDb2dVertex
62
5
10
114.250000
20
77.342578
0
VERTEX
5
477
100
AcDbEntity
8
1
100
AcDbVertex
100
AcDb2dVertex
62
5
10
114.250000
20
78.280078
0
VERTEX
5
478
100
AcDbEntity
8
1
100
AcDbVertex
100
AcDb2dVertex
62
5
10
114.562500
20
78.905078
0
VERTEX
5
479
100
AcDbEntity
8
1
100
AcDbVertex
100
AcDb2dVertex
62
5
10
115.500000
20
79.217578
0
VERTEX
5
47a
100
AcDbEntity
8
1
100
AcDbVertex
100
AcDb2dVertex
62
5
10
116.437500
20
79.217578
0
VERTEX
5
47b
100
AcDbEntity
8
1
100
AcDbVertex
100
AcDb2dVertex
62
5
10
117.375000
20
78.905078
0
VERTEX
5
47c
100
AcDbEntity
8
1
100
AcDbVertex
100
AcDb2dVertex
62
5
10
121.750000
20
76.092578
0
VERTEX
5
47d
100
AcDbEntity
8
1
100
AcDbVertex
100
AcDb2dVertex
62
5
10
121.750000
20
79.217578
0
VERTEX
5
47e
100
AcDbEntity
8
1
100
AcDbVertex
100
AcDb2dVertex
62
5
10
120.812500
20
79.217578
0
SEQEND
5
47f
100
AcDbEntity
8
1
0
POLYLINE
5
480
100
AcDbEntity
8
1
6
DOT2
62
5
100
AcDb2dPolyline
66
1
10
0.0
20
0.0
30
0.0
70
0
0
VERTEX
5
481
100
AcDbEntity
8
1
100
AcDbVertex
100
AcDb2dVertex
62
5
10
114.875000
20
81.717578
0
VERTEX
5
482
100
AcDbEntity
8
1
100
AcDbVertex
100
AcDb2dVertex
62
5
10
114.250000
20
82.655078
0
VERTEX
5
483
100
AcDbEntity
8
1
100
AcDbVertex
100
AcDb2dVertex
62
5
10
121.750000
20
82.655078
0
SEQEND
5
484
100
AcDbEntity
8
1
0
LINE
5
485
100
AcDbEntity
8
1
100
AcDbLine
6
DOT2
62
5
10
121.750000
20
82.030078
11
121.750000
21
83.280078
0
LINE
5
486
100
AcDbEntity
8
1
100
AcDbLine
6
DOT2
62
5
10
121.125000
20
86.717578
11
121.750000
21
86.092578
0
POLYLINE
5
487
100
AcDbEntity
8
1
6
DOT2
62
5
100
AcDb2dPolyline
66
1
10
0.0
20
0.0
30
0.0
70
0
0
VERTEX
5
488
100
AcDbEntity
8
1
100
AcDbVertex
100
AcDb2dVertex
62
5
10
121.125000
20
86.092578
0
VERTEX
5
489
100
AcDbEntity
8
1
100
AcDbVertex
100
AcDb2dVertex
62
5
10
121.750000
20
86.717578
0
VERTEX
5
48a
100
AcDbEntity
8
1
100
AcDbVertex
100
AcDb2dVertex
62
5
10
121.750000
20
86.092578
0
VERTEX
5
48b
100
AcDbEntity
8
1
100
AcDbVertex
100
AcDb2dVertex
62
5
10
121.125000
20
86.092578
0
VERTEX
5
48c
100
AcDbEntity
8
1
100
AcDbVertex
100
AcDb2dVertex
62
5
10
121.125000
20
86.717578
0
VERTEX
5
48d
100
AcDbEntity
8
1
100
AcDbVertex
100
AcDb2dVertex
62
5
10
121.750000
20
86.717578
0
SEQEND
5
48e
100
AcDbEntity
8
1
0
LINE
5
48f
100
AcDbEntity
8
1
100
AcDbLine
6
CONTINUOUS
62
5
10
127.500000
20
42.000000
11
130.625000
21
42.000000
0
POLYLINE
5
490
100
AcDbEntity
8
1
6
CONTINUOUS
62
5
100
AcDb2dPolyline
66
1
10
0.0
20
0.0
30
0.0
70
0
0
VERTEX
5
491
100
AcDbEntity
8
1
100
AcDbVertex
100
AcDb2dVertex
62
5
10
113.125000
20
45.125000
0
VERTEX
5
492
100
AcDbEntity
8
1
100
AcDbVertex
100
AcDb2dVertex
62
5
10
114.062500
20
45.750000
0
VERTEX
5
493
100
AcDbEntity
8
1
100
AcDbVertex
100
AcDb2dVertex
62
5
10
114.062500
20
38.250000
0
SEQEND
5
494
100
AcDbEntity
8
1
0
LINE
5
495
100
AcDbEntity
8
1
100
AcDbLine
6
CONTINUOUS
62
5
10
113.437500
20
38.250000
11
114.687500
21
38.250000
0
LINE
5
496
100
AcDbEntity
8
1
100
AcDbLine
6
CONTINUOUS
62
5
10
117.500000
20
45.750000
11
120.312500
21
45.750000
0
POLYLINE
5
497
100
AcDbEntity
8
1
6
CONTINUOUS
62
5
100
AcDb2dPolyline
66
1
10
0.0
20
0.0
30
0.0
70
0
0
VERTEX
5
498
100
AcDbEntity
8
1
100
AcDbVertex
100
AcDb2dVertex
62
5
10
117.500000
20
45.750000
0
VERTEX
5
499
100
AcDbEntity
8
1
100
AcDbVertex
100
AcDb2dVertex
62
5
10
117.500000
20
42.000000
0
VERTEX
5
49a
100
AcDbEntity
8
1
100
AcDbVertex
100
AcDb2dVertex
62
5
10
118.125000
20
42.625000
0
VERTEX
5
49b
100
AcDbEntity
8
1
100
AcDbVertex
100
AcDb2dVertex
62
5
10
118.750000
20
42.937500
0
VERTEX
5
49c
100
AcDbEntity
8
1
100
AcDbVertex
100
AcDb2dVertex
62
5
10
119.687500
20
42.937500
0
VERTEX
5
49d
100
AcDbEntity
8
1
100
AcDbVertex
100
AcDb2dVertex
62
5
10
120.312500
20
42.625000
0
VERTEX
5
49e
100
AcDbEntity
8
1
100
AcDbVertex
100
AcDb2dVertex
62
5
10
120.625000
20
41.687500
0
VERTEX
5
49f
100
AcDbEntity
8
1
100
AcDbVertex
100
AcDb2dVertex
62
5
10
120.625000
20
39.812500
0
VERTEX
5
4a0
100
AcDbEntity
8
1
100
AcDbVertex
100
AcDb2dVertex
62
5
10
120.000000
20
38.875000
0
VERTEX
5
4a1
100
AcDbEntity
8
1
100
AcDbVertex
100
AcDb2dVertex
62
5
10
119.062500
20
38.250000
0
VERTEX
5
4a2
100
AcDbEntity
8
1
100
AcDbVertex
100
AcDb2dVertex
62
5
10
117.500000
20
38.250000
0
SEQEND
5
4a3
100
AcDbEntity
8
1
0
POLYLINE
5
4a4
100
AcDbEntity
8
1
6
CONTINUOUS
62
5
100
AcDb2dPolyline
66
1
10
0.0
20
0.0
30
0.0
70
0
0
VERTEX
5
4a5
100
AcDbEntity
8
1
100
AcDbVertex
100
AcDb2dVertex
62
5
10
122.500000
20
38.250000
0
VERTEX
5
4a6
100
AcDbEntity
8
1
100
AcDbVertex
100
AcDb2dVertex
62
5
10
124.062500
20
45.750000
0
VERTEX
5
4a7
100
AcDbEntity
8
1
100
AcDbVertex
100
AcDb2dVertex
62
5
10
125.625000
20
38.250000
0
SEQEND
5
4a8
100
AcDbEntity
8
1
0
LINE
5
4a9
100
AcDbEntity
8
1
100
AcDbLine
6
CONTINUOUS
62
5
10
123.125000
20
40.750000
11
125.000000
21
40.750000
0
POLYLINE
5
4aa
100
AcDbEntity
8
1
6
CONTINUOUS
62
5
100
AcDb2dPolyline
66
1
10
0.0
20
0.0
30
0.0
70
0
0
VERTEX
5
4ab
100
AcDbEntity
8
1
100
AcDbVertex
100
AcDb2dVertex
62
5
10
132.500000
20
43.875000
0
VERTEX
5
4ac
100
AcDbEntity
8
1
100
AcDbVertex
100
AcDb2dVertex
62
5
10
132.812500
20
45.125000
0
VERTEX
5
4ad
100
AcDbEntity
8
1
100
AcDbVertex
100
AcDb2dVertex
62
5
10
133.437500
20
45.750000
0
VERTEX
5
4ae
100
AcDbEntity
8
1
100
AcDbVertex
100
AcDb2dVertex
62
5
10
134.375000
20
45.750000
0
VERTEX
5
4af
100
AcDbEntity
8
1
100
AcDbVertex
100
AcDb2dVertex
62
5
10
135.000000
20
45.437500
0
VERTEX
5
4b0
100
AcDbEntity
8
1
100
AcDbVertex
100
AcDb2dVertex
62
5
10
135.312500
20
44.500000
0
VERTEX
5
4b1
100
AcDbEntity
8
1
100
AcDbVertex
100
AcDb2dVertex
62
5
10
135.312500
20
43.250000
0
VERTEX
5
4b2
100
AcDbEntity
8
1
100
AcDbVertex
100
AcDb2dVertex
62
5
10
135.000000
20
42.625000
0
VERTEX
5
4b3
100
AcDbEntity
8
1
100
AcDbVertex
100
AcDb2dVertex
62
5
10
134.375000
20
42.000000
0
VERTEX
5
4b4
100
AcDbEntity
8
1
100
AcDbVertex
100
AcDb2dVertex
62
5
10
133.437500
20
42.000000
0
SEQEND
5
4b5
100
AcDbEntity
8
1
0
POLYLINE
5
4b6
100
AcDbEntity
8
1
6
CONTINUOUS
62
5
100
AcDb2dPolyline
66
1
10
0.0
20
0.0
30
0.0
70
0
0
VERTEX
5
4b7
100
AcDbEntity
8
1
100
AcDbVertex
100
AcDb2dVertex
62
5
10
134.375000
20
42.000000
0
VERTEX
5
4b8
100
AcDbEntity
8
1
100
AcDbVertex
100
AcDb2dVertex
62
5
10
135.312500
20
41.375000
0
VERTEX
5
4b9
100
AcDbEntity
8
1
100
AcDbVertex
100
AcDb2dVertex
62
5
10
135.625000
20
40.437500
0
VERTEX
5
4ba
100
AcDbEntity
8
1
100
AcDbVertex
100
AcDb2dVertex
62
5
10
135.625000
20
39.500000
0
VERTEX
5
4bb
100
AcDbEntity
8
1
100
AcDbVertex
100
AcDb2dVertex
62
5
10
135.312500
20
38.875000
0
VERTEX
5
4bc
100
AcDbEntity
8
1
100
AcDbVertex
100
AcDb2dVertex
62
5
10
134.375000
20
38.250000
0
VERTEX
5
4bd
100
AcDbEntity
8
1
100
AcDbVertex
100
AcDb2dVertex
62
5
10
133.437500
20
38.250000
0
VERTEX
5
4be
100
AcDbEntity
8
1
100
AcDbVertex
100
AcDb2dVertex
62
5
10
132.812500
20
38.562500
0
VERTEX
5
4bf
100
AcDbEntity
8
1
100
AcDbVertex
100
AcDb2dVertex
62
5
10
132.187500
20
39.500000
0
SEQEND
5
4c0
100
AcDbEntity
8
1
0
POLYLINE
5
4c1
100
AcDbEntity
8
1
6
CONTINUOUS
62
5
100
AcDb2dPolyline
66
1
10
0.0
20
0.0
30
0.0
70
1
0
VERTEX
5
4c2
100
AcDbEntity
8
1
100
AcDbVertex
100
AcDb2dVertex
62
5
10
138.750000
20
45.750000
0
VERTEX
5
4c3
100
AcDbEntity
8
1
100
AcDbVertex
100
AcDb2dVertex
62
5
10
139.375000
20
45.750000
0
VERTEX
5
4c4
100
AcDbEntity
8
1
100
AcDbVertex
100
AcDb2dVertex
62
5
10
139.687500
20
45.437500
0
VERTEX
5
4c5
100
AcDbEntity
8
1
100
AcDbVertex
100
AcDb2dVertex
62
5
10
140.312500
20
44.187500
0
VERTEX
5
4c6
100
AcDbEntity
8
1
100
AcDbVertex
100
AcDb2dVertex
62
5
10
140.625000
20
42.937500
0
VERTEX
5
4c7
100
AcDbEntity
8
1
100
AcDbVertex
100
AcDb2dVertex
62
5
10
140.625000
20
41.062500
0
VERTEX
5
4c8
100
AcDbEntity
8
1
100
AcDbVertex
100
AcDb2dVertex
62
5
10
140.312500
20
39.812500
0
VERTEX
5
4c9
100
AcDbEntity
8
1
100
AcDbVertex
100
AcDb2dVertex
62
5
10
139.687500
20
38.562500
0
VERTEX
5
4ca
100
AcDbEntity
8
1
100
AcDbVertex
100
AcDb2dVertex
62
5
10
139.375000
20
38.250000
0
VERTEX
5
4cb
100
AcDbEntity
8
1
100
AcDbVertex
100
AcDb2dVertex
62
5
10
138.750000
20
38.250000
0
VERTEX
5
4cc
100
AcDbEntity
8
1
100
AcDbVertex
100
AcDb2dVertex
62
5
10
138.437500
20
38.562500
0
VERTEX
5
4cd
100
AcDbEntity
8
1
100
AcDbVertex
100
AcDb2dVertex
62
5
10
137.812500
20
39.812500
0
VERTEX
5
4ce
100
AcDbEntity
8
1
100
AcDbVertex
100
AcDb2dVertex
62
5
10
137.500000
20
41.062500
0
VERTEX
5
4cf
100
AcDbEntity
8
1
100
AcDbVertex
100
AcDb2dVertex
62
5
10
137.500000
20
42.937500
0
VERTEX
5
4d0
100
AcDbEntity
8
1
100
AcDbVertex
100
AcDb2dVertex
62
5
10
137.812500
20
44.187500
0
VERTEX
5
4d1
100
AcDbEntity
8
1
100
AcDbVertex
100
AcDb2dVertex
62
5
10
138.437500
20
45.437500
0
VERTEX
5
4d2
100
AcDbEntity
8
1
100
AcDbVertex
100
AcDb2dVertex
62
5
10
138.750000
20
45.750000
0
SEQEND
5
4d3
100
AcDbEntity
8
1
0
POLYLINE
5
4d4
100
AcDbEntity
8
1
6
CONTINUOUS
62
5
100
AcDb2dPolyline
66
1
10
0.0
20
0.0
30
0.0
70
1
0
VERTEX
5
4d5
100
AcDbEntity
8
1
100
AcDbVertex
100
AcDb2dVertex
62
5
10
143.750000
20
45.750000
0
VERTEX
5
4d6
100
AcDbEntity
8
1
100
AcDbVertex
100
AcDb2dVertex
62
5
10
144.375000
20
45.750000
0
VERTEX
5
4d7
100
AcDbEntity
8
1
100
AcDbVertex
100
AcDb2dVertex
62
5
10
144.687500
20
45.437500
0
VERTEX
5
4d8
100
AcDbEntity
8
1
100
AcDbVertex
100
AcDb2dVertex
62
5
10
145.312500
20
44.187500
0
VERTEX
5
4d9
100
AcDbEntity
8
1
100
AcDbVertex
100
AcDb2dVertex
62
5
10
145.625000
20
42.937500
0
VERTEX
5
4da
100
AcDbEntity
8
1
100
AcDbVertex
100
AcDb2dVertex
62
5
10
145.625000
20
41.062500
0
VERTEX
5
4db
100
AcDbEntity
8
1
100
AcDbVertex
100
AcDb2dVertex
62
5
10
145.312500
20
39.812500
0
VERTEX
5
4dc
100
AcDbEntity
8
1
100
AcDbVertex
100
AcDb2dVertex
62
5
10
144.687500
20
38.562500
0
VERTEX
5
4dd
100
AcDbEntity
8
1
100
AcDbVertex
100
AcDb2dVertex
62
5
10
144.375000
20
38.250000
0
VERTEX
5
4de
100
AcDbEntity
8
1
100
AcDbVertex
100
AcDb2dVertex
62
5
10
143.750000
20
38.250000
0
VERTEX
5
4df
100
AcDbEntity
8
1
100
AcDbVertex
100
AcDb2dVertex
62
5
10
143.437500
20
38.562500
0
VERTEX
5
4e0
100
AcDbEntity
8
1
100
AcDbVertex
100
AcDb2dVertex
62
5
10
142.812500
20
39.812500
0
VERTEX
5
4e1
100
AcDbEntity
8
1
100
AcDbVertex
100
AcDb2dVertex
62
5
10
142.500000
20
41.062500
0
VERTEX
5
4e2
100
AcDbEntity
8
1
100
AcDbVertex
100
AcDb2dVertex
62
5
10
142.500000
20
42.937500
0
VERTEX
5
4e3
100
AcDbEntity
8
1
100
AcDbVertex
100
AcDb2dVertex
62
5
10
142.812500
20
44.187500
0
VERTEX
5
4e4
100
AcDbEntity
8
1
100
AcDbVertex
100
AcDb2dVertex
62
5
10
143.437500
20
45.437500
0
VERTEX
5
4e5
100
AcDbEntity
8
1
100
AcDbVertex
100
AcDb2dVertex
62
5
10
143.750000
20
45.750000
0
SEQEND
5
4e6
100
AcDbEntity
8
1
0
POLYLINE
5
4e7
100
AcDbEntity
8
1
6
CONTINUOUS
62
5
100
AcDb2dPolyline
66
1
10
0.0
20
0.0
30
0.0
70
0
0
VERTEX
5
4e8
100
AcDbEntity
8
1
100
AcDbVertex
100
AcDb2dVertex
62
5
10
147.500000
20
45.750000
0
VERTEX
5
4e9
100
AcDbEntity
8
1
100
AcDbVertex
100
AcDb2dVertex
62
5
10
149.062500
20
38.250000
0
VERTEX
5
4ea
100
AcDbEntity
8
1
100
AcDbVertex
100
AcDb2dVertex
62
5
10
150.625000
20
45.750000
0
SEQEND
5
4eb
100
AcDbEntity
8
1
0
POLYLINE
5
4ec
100
AcDbEntity
8
1
6
CONTINUOUS
62
5
100
AcDb2dPolyline
66
1
10
0.0
20
0.0
30
0.0
70
0
0
VERTEX
5
4ed
100
AcDbEntity
8
1
100
AcDbVertex
100
AcDb2dVertex
62
5
10
157.500000
20
38.250000
0
VERTEX
5
4ee
100
AcDbEntity
8
1
100
AcDbVertex
100
AcDb2dVertex
62
5
10
159.062500
20
45.750000
0
VERTEX
5
4ef
100
AcDbEntity
8
1
100
AcDbVertex
100
AcDb2dVertex
62
5
10
160.625000
20
38.250000
0
SEQEND
5
4f0
100
AcDbEntity
8
1
0
LINE
5
4f1
100
AcDbEntity
8
1
100
AcDbLine
6
CONTINUOUS
62
5
10
158.125000
20
40.750000
11
160.000000
21
40.750000
0
POLYLINE
5
4f2
100
AcDbEntity
8
1
6
CONTINUOUS
62
5
100
AcDb2dPolyline
66
1
10
0.0
20
0.0
30
0.0
70
0
0
VERTEX
5
4f3
100
AcDbEntity
8
1
100
AcDbVertex
100
AcDb2dVertex
62
5
10
165.625000
20
44.187500
0
VERTEX
5
4f4
100
AcDbEntity
8
1
100
AcDbVertex
100
AcDb2dVertex
62
5
10
165.312500
20
45.125000
0
VERTEX
5
4f5
100
AcDbEntity
8
1
100
AcDbVertex
100
AcDb2dVertex
62
5
10
164.687500
20
45.750000
0
VERTEX
5
4f6
100
AcDbEntity
8
1
100
AcDbVertex
100
AcDb2dVertex
62
5
10
163.750000
20
45.750000
0
VERTEX
5
4f7
100
AcDbEntity
8
1
100
AcDbVertex
100
AcDb2dVertex
62
5
10
162.812500
20
44.812500
0
VERTEX
5
4f8
100
AcDbEntity
8
1
100
AcDbVertex
100
AcDb2dVertex
62
5
10
162.500000
20
43.250000
0
VERTEX
5
4f9
100
AcDbEntity
8
1
100
AcDbVertex
100
AcDb2dVertex
62
5
10
162.500000
20
40.750000
0
VERTEX
5
4fa
100
AcDbEntity
8
1
100
AcDbVertex
100
AcDb2dVertex
62
5
10
162.812500
20
39.187500
0
VERTEX
5
4fb
100
AcDbEntity
8
1
100
AcDbVertex
100
AcDb2dVertex
62
5
10
163.750000
20
38.250000
0
VERTEX
5
4fc
100
AcDbEntity
8
1
100
AcDbVertex
100
AcDb2dVertex
62
5
10
164.687500
20
38.250000
0
VERTEX
5
4fd
100
AcDbEntity
8
1
100
AcDbVertex
100
AcDb2dVertex
62
5
10
165.312500
20
38.875000
0
VERTEX
5
4fe
100
AcDbEntity
8
1
100
AcDbVertex
100
AcDb2dVertex
62
5
10
165.937500
20
40.437500
0
SEQEND
5
4ff
100
AcDbEntity
8
1
0
LINE
5
500
100
AcDbEntity
8
1
100
AcDbLine
6
CONTINUOUS
62
5
10
100.000000
20
54.000000
11
100.000000
21
30.000000
0
LINE
5
501
100
AcDbEntity
8
1
100
AcDbLine
6
CONTINUOUS
62
5
10
64.687500
20
46.375000
11
64.687500
21
45.437500
0
POLYLINE
5
502
100
AcDbEntity
8
1
6
CONTINUOUS
62
5
100
AcDb2dPolyline
66
1
10
0.0
20
0.0
30
0.0
70
0
0
VERTEX
5
503
100
AcDbEntity
8
1
100
AcDbVertex
100
AcDb2dVertex
62
5
10
60.937500
20
43.250000
0
VERTEX
5
504
100
AcDbEntity
8
1
100
AcDbVertex
100
AcDb2dVertex
62
5
10
60.937500
20
45.437500
0
VERTEX
5
505
100
AcDbEntity
8
1
100
AcDbVertex
100
AcDb2dVertex
62
5
10
68.437500
20
45.437500
0
VERTEX
5
506
100
AcDbEntity
8
1
100
AcDbVertex
100
AcDb2dVertex
62
5
10
68.437500
20
43.250000
0
SEQEND
5
507
100
AcDbEntity
8
1
0
LINE
5
508
100
AcDbEntity
8
1
100
AcDbLine
6
CONTINUOUS
62
5
10
61.875000
20
43.562500
11
67.500000
21
43.562500
0
LINE
5
509
100
AcDbEntity
8
1
100
AcDbLine
6
CONTINUOUS
62
5
10
64.687500
20
43.562500
11
64.687500
21
38.250000
0
LINE
5
50a
100
AcDbEntity
8
1
100
AcDbLine
6
CONTINUOUS
62
5
10
64.687500
20
41.062500
11
67.500000
21
41.062500
0
POLYLINE
5
50b
100
AcDbEntity
8
1
6
CONTINUOUS
62
5
100
AcDb2dPolyline
66
1
10
0.0
20
0.0
30
0.0
70
0
0
VERTEX
5
50c
100
AcDbEntity
8
1
100
AcDbVertex
100
AcDb2dVertex
62
5
10
62.500000
20
41.687500
0
VERTEX
5
50d
100
AcDbEntity
8
1
100
AcDbVertex
100
AcDb2dVertex
62
5
10
62.187500
20
39.812500
0
VERTEX
5
50e
100
AcDbEntity
8
1
100
AcDbVertex
100
AcDb2dVertex
62
5
10
61.562500
20
38.562500
0
VERTEX
5
50f
100
AcDbEntity
8
1
100
AcDbVertex
100
AcDb2dVertex
62
5
10
60.625000
20
37.625000
0
SEQEND
5
510
100
AcDbEntity
8
1
0
POLYLINE
5
511
100
AcDbEntity
8
1
6
CONTINUOUS
62
5
100
AcDb2dPolyline
66
1
10
0.0
20
0.0
30
0.0
70
0
0
VERTEX
5
512
100
AcDbEntity
8
1
100
AcDbVertex
100
AcDb2dVertex
62
5
10
62.187500
20
39.812500
0
VERTEX
5
513
100
AcDbEntity
8
1
100
AcDbVertex
100
AcDb2dVertex
62
5
10
64.687500
20
38.250000
0
VERTEX
5
514
100
AcDbEntity
8
1
100
AcDbVertex
100
AcDb2dVertex
62
5
10
65.937500
20
37.937500
0
VERTEX
5
515
100
AcDbEntity
8
1
100
AcDbVertex
100
AcDb2dVertex
62
5
10
69.062500
20
37.625000
0
SEQEND
5
516
100
AcDbEntity
8
1
0
LINE
5
517
100
AcDbEntity
8
1
100
AcDbLine
6
CONTINUOUS
62
5
10
80.625000
20
44.187500
11
83.750000
21
44.187500
0
LINE
5
518
100
AcDbEntity
8
1
100
AcDbLine
6
CONTINUOUS
62
5
10
82.500000
20
46.375000
11
82.500000
21
37.625000
0
POLYLINE
5
519
100
AcDbEntity
8
1
6
CONTINUOUS
62
5
100
AcDb2dPolyline
66
1
10
0.0
20
0.0
30
0.0
70
0
0
VERTEX
5
51a
100
AcDbEntity
8
1
100
AcDbVertex
100
AcDb2dVertex
62
5
10
82.500000
20
44.187500
0
VERTEX
5
51b
100
AcDbEntity
8
1
100
AcDbVertex
100
AcDb2dVertex
62
5
10
81.562500
20
42.000000
0
VERTEX
5
51c
100
AcDbEntity
8
1
100
AcDbVertex
100
AcDb2dVertex
62
5
10
80.625000
20
40.750000
0
SEQEND
5
51d
100
AcDbEntity
8
1
0
LINE
5
51e
100
AcDbEntity
8
1
100
AcDbLine
6
CONTINUOUS
62
5
10
82.500000
20
43.250000
11
83.437500
21
42.000000
0
POLYLINE
5
51f
100
AcDbEntity
8
1
6
CONTINUOUS
62
5
100
AcDb2dPolyline
66
1
10
0.0
20
0.0
30
0.0
70
0
0
VERTEX
5
520
100
AcDbEntity
8
1
100
AcDbVertex
100
AcDb2dVertex
62
5
10
85.937500
20
46.375000
0
VERTEX
5
521
100
AcDbEntity
8
1
100
AcDbVertex
100
AcDb2dVertex
62
5
10
85.312500
20
45.125000
0
VERTEX
5
522
100
AcDbEntity
8
1
100
AcDbVertex
100
AcDb2dVertex
62
5
10
83.750000
20
43.250000
0
SEQEND
5
523
100
AcDbEntity
8
1
0
POLYLINE
5
524
100
AcDbEntity
8
1
6
CONTINUOUS
62
5
100
AcDb2dPolyline
66
1
10
0.0
20
0.0
30
0.0
70
0
0
VERTEX
5
525
100
AcDbEntity
8
1
100
AcDbVertex
100
AcDb2dVertex
62
5
10
85.312500
20
45.125000
0
VERTEX
5
526
100
AcDbEntity
8
1
100
AcDbVertex
100
AcDb2dVertex
62
5
10
88.437500
20
45.125000
0
VERTEX
5
527
100
AcDbEntity
8
1
100
AcDbVertex
100
AcDb2dVertex
62
5
10
87.500000
20
43.562500
0
VERTEX
5
528
100
AcDbEntity
8
1
100
AcDbVertex
100
AcDb2dVertex
62
5
10
85.937500
20
42.000000
0
VERTEX
5
529
100
AcDbEntity
8
1
100
AcDbVertex
100
AcDb2dVertex
62
5
10
83.750000
20
40.750000
0
SEQEND
5
52a
100
AcDbEntity
8
1
0
POLYLINE
5
52b
100
AcDbEntity
8
1
6
CONTINUOUS
62
5
100
AcDb2dPolyline
66
1
10
0.0
20
0.0
30
0.0
70
0
0
VERTEX
5
52c
100
AcDbEntity
8
1
100
AcDbVertex
100
AcDb2dVertex
62
5
10
85.312500
20
45.125000
0
VERTEX
5
52d
100
AcDbEntity
8
1
100
AcDbVertex
100
AcDb2dVertex
62
5
10
85.937500
20
43.562500
0
VERTEX
5
52e
100
AcDbEntity
8
1
100
AcDbVertex
100
AcDb2dVertex
62
5
10
87.187500
20
42.000000
0
VERTEX
5
52f
100
AcDbEntity
8
1
100
AcDbVertex
100
AcDb2dVertex
62
5
10
88.125000
20
41.375000
0
VERTEX
5
530
100
AcDbEntity
8
1
100
AcDbVertex
100
AcDb2dVertex
62
5
10
89.375000
20
40.750000
0
SEQEND
5
531
100
AcDbEntity
8
1
0
POLYLINE
5
532
100
AcDbEntity
8
1
6
CONTINUOUS
62
5
100
AcDb2dPolyline
66
1
10
0.0
20
0.0
30
0.0
70
1
0
VERTEX
5
533
100
AcDbEntity
8
1
100
AcDbVertex
100
AcDb2dVertex
62
5
10
85.000000
20
40.750000
0
VERTEX
5
534
100
AcDbEntity
8
1
100
AcDbVertex
100
AcDb2dVertex
62
5
10
85.000000
20
37.937500
0
VERTEX
5
535
100
AcDbEntity
8
1
100
AcDbVertex
100
AcDb2dVertex
62
5
10
88.437500
20
37.937500
0
VERTEX
5
536
100
AcDbEntity
8
1
100
AcDbVertex
100
AcDb2dVertex
62
5
10
88.437500
20
40.750000
0
VERTEX
5
537
100
AcDbEntity
8
1
100
AcDbVertex
100
AcDb2dVertex
62
5
10
85.000000
20
40.750000
0
SEQEND
5
538
100
AcDbEntity
8
1
0
LINE
5
539
100
AcDbEntity
8
1
100
AcDbLine
6
CONTINUOUS
62
5
10
146.500000
20
126.042578
11
121.000000
21
126.042578
0
LINE
5
53a
100
AcDbEntity
8
1
100
AcDbLine
6
CONTINUOUS
62
5
10
148.695355
20
104.842578
11
121.000000
21
104.842578
0
POLYLINE
5
53b
100
AcDbEntity
8
1
6
CONTINUOUS
62
5
100
AcDb2dPolyline
66
1
10
0.0
20
0.0
30
0.0
70
0
0
VERTEX
5
53c
100
AcDbEntity
8
1
100
AcDbVertex
100
AcDb2dVertex
62
5
10
123.000000
20
73.592578
0
VERTEX
5
53d
100
AcDbEntity
8
1
100
AcDbVertex
100
AcDb2dVertex
62
5
10
123.000000
20
104.842578
0
VERTEX
5
53e
100
AcDbEntity
8
1
100
AcDbVertex
100
AcDb2dVertex
62
5
10
124.000000
20
98.842578
0
VERTEX
5
53f
100
AcDbEntity
8
1
100
AcDbVertex
100
AcDb2dVertex
62
5
10
122.000000
20
98.842578
0
VERTEX
5
540
100
AcDbEntity
8
1
100
AcDbVertex
100
AcDb2dVertex
62
5
10
123.000000
20
104.842578
0
VERTEX
5
541
100
AcDbEntity
8
1
100
AcDbVertex
100
AcDb2dVertex
62
5
10
123.500000
20
98.842578
0
VERTEX
5
542
100
AcDbEntity
8
1
100
AcDbVertex
100
AcDb2dVertex
62
5
10
122.500000
20
98.842578
0
VERTEX
5
543
100
AcDbEntity
8
1
100
AcDbVertex
100
AcDb2dVertex
62
5
10
123.000000
20
104.842578
0
SEQEND
5
544
100
AcDbEntity
8
1
0
LINE
5
545
100
AcDbEntity
8
1
100
AcDbLine
6
CONTINUOUS
62
5
10
123.000000
20
104.842578
11
123.000000
21
126.042578
0
LINE
5
546
100
AcDbEntity
8
1
100
AcDbLine
6
CONTINUOUS
62
5
10
123.000000
20
131.042578
11
123.000000
21
126.042578
0
POLYLINE
5
547
100
AcDbEntity
8
1
6
CONTINUOUS
62
5
100
AcDb2dPolyline
66
1
10
0.0
20
0.0
30
0.0
70
0
0
VERTEX
5
548
100
AcDbEntity
8
1
100
AcDbVertex
100
AcDb2dVertex
62
5
10
123.500000
20
125.042578
0
VERTEX
5
549
100
AcDbEntity
8
1
100
AcDbVertex
100
AcDb2dVertex
62
5
10
122.500000
20
125.042578
0
VERTEX
5
54a
100
AcDbEntity
8
1
100
AcDbVertex
100
AcDb2dVertex
62
5
10
122.000000
20
125.542578
0
VERTEX
5
54b
100
AcDbEntity
8
1
100
AcDbVertex
100
AcDb2dVertex
62
5
10
122.000000
20
126.542578
0
VERTEX
5
54c
100
AcDbEntity
8
1
100
AcDbVertex
100
AcDb2dVertex
62
5
10
122.500000
20
127.042578
0
VERTEX
5
54d
100
AcDbEntity
8
1
100
AcDbVertex
100
AcDb2dVertex
62
5
10
123.500000
20
127.042578
0
VERTEX
5
54e
100
AcDbEntity
8
1
100
AcDbVertex
100
AcDb2dVertex
62
5
10
124.000000
20
126.542578
0
VERTEX
5
54f
100
AcDbEntity
8
1
100
AcDbVertex
100
AcDb2dVertex
62
5
10
124.000000
20
125.542578
0
VERTEX
5
550
100
AcDbEntity
8
1
100
AcDbVertex
100
AcDb2dVertex
62
5
10
123.500000
20
125.042578
0
VERTEX
5
551
100
AcDbEntity
8
1
100
AcDbVertex
100
AcDb2dVertex
62
5
10
122.500000
20
127.042578
0
SEQEND
5
552
100
AcDbEntity
8
1
0
LINE
5
553
100
AcDbEntity
8
1
100
AcDbLine
6
CONTINUOUS
62
5
10
123.500000
20
127.042578
11
122.500000
21
125.042578
0
LINE
5
554
100
AcDbEntity
8
1
100
AcDbLine
6
CONTINUOUS
62
5
10
122.000000
20
125.542578
11
124.000000
21
126.542578
0
LINE
5
555
100
AcDbEntity
8
1
100
AcDbLine
6
CONTINUOUS
62
5
10
124.000000
20
125.542578
11
122.000000
21
126.542578
0
ARC
5
556
100
AcDbEntity
8
1
100
AcDbCircle
6
CONTINUOUS
62
5
10
180.700000
20
117.942578
40
0.700000
100
AcDbArc
50
179.999998
51
-89.999999
0
LINE
5
557
100
AcDbEntity
8
1
100
AcDbLine
6
CONTINUOUS
62
5
10
180.700000
20
117.242578
11
183.300000
21
117.242578
0
ARC
5
558
100
AcDbEntity
8
1
100
AcDbCircle
6
CONTINUOUS
62
5
10
183.300000
20
117.942578
40
0.700000
100
AcDbArc
50
-89.999999
51
-0.000000
0
POLYLINE
5
559
100
AcDbEntity
8
1
6
CONTINUOUS
62
5
100
AcDb2dPolyline
66
1
10
0.0
20
0.0
30
0.0
70
0
0
VERTEX
5
55a
100
AcDbEntity
8
1
100
AcDbVertex
100
AcDb2dVertex
62
5
10
184.000000
20
117.942578
0
VERTEX
5
55b
100
AcDbEntity
8
1
100
AcDbVertex
100
AcDb2dVertex
62
5
10
184.000000
20
121.242578
0
VERTEX
5
55c
100
AcDbEntity
8
1
100
AcDbVertex
100
AcDb2dVertex
62
5
10
156.000000
20
121.242578
0
VERTEX
5
55d
100
AcDbEntity
8
1
100
AcDbVertex
100
AcDb2dVertex
62
5
10
156.000000
20
117.942578
0
SEQEND
5
55e
100
AcDbEntity
8
1
0
ARC
5
55f
100
AcDbEntity
8
1
100
AcDbCircle
6
CONTINUOUS
62
5
10
156.700000
20
117.942578
40
0.700000
100
AcDbArc
50
-179.999998
51
-89.999999
0
LINE
5
560
100
AcDbEntity
8
1
100
AcDbLine
6
CONTINUOUS
62
5
10
156.700000
20
117.242578
11
159.300000
21
117.242578
0
ARC
5
561
100
AcDbEntity
8
1
100
AcDbCircle
6
CONTINUOUS
62
5
10
159.300000
20
117.942578
40
0.700000
100
AcDbArc
50
-89.999999
51
0.000000
0
LINE
5
562
100
AcDbEntity
8
1
100
AcDbLine
6
CONTINUOUS
62
5
10
160.000000
20
117.942578
11
160.000000
21
121.242578
0
LINE
5
563
100
AcDbEntity
8
1
100
AcDbLine
6
CONTINUOUS
62
5
10
180.000000
20
121.242578
11
180.000000
21
117.942578
0
ARC
5
564
100
AcDbEntity
8
1
100
AcDbCircle
6
CONTINUOUS
62
5
10
156.700000
20
133.242578
40
0.700000
100
AcDbArc
50
89.999999
51
179.999998
0
LINE
5
565
100
AcDbEntity
8
1
100
AcDbLine
6
CONTINUOUS
62
5
10
156.700000
20
133.942578
11
183.300000
21
133.942578
0
ARC
5
566
100
AcDbEntity
8
1
100
AcDbCircle
6
CONTINUOUS
62
5
10
183.300000
20
133.242578
40
0.700000
100
AcDbArc
50
0.000000
51
89.999999
0
LINE
5
567
100
AcDbEntity
8
1
100
AcDbLine
6
CONTINUOUS
62
5
10
184.000000
20
133.242578
11
184.000000
21
121.242578
0
LINE
5
568
100
AcDbEntity
8
1
100
AcDbLine
6
CONTINUOUS
62
5
10
156.000000
20
121.242578
11
156.000000
21
133.242578
0
ARC
5
569
100
AcDbEntity
8
1
100
AcDbCircle
6
CONTINUOUS
62
5
10
161.426730
20
136.147787
40
0.500000
100
AcDbArc
50
81.608256
51
163.080825
0
ARC
5
56a
100
AcDbEntity
8
1
100
AcDbCircle
6
CONTINUOUS
62
5
10
202.347254
20
333.521785
40
201.072130
100
AcDbArc
50
-101.721150
51
-96.986335
0
LINE
5
56b
100
AcDbEntity
8
1
100
AcDbLine
6
CONTINUOUS
62
5
10
160.340383
20
133.942578
11
160.948372
21
136.293298
0
ARC
5
56c
100
AcDbEntity
8
1
100
AcDbCircle
6
CONTINUOUS
62
5
10
175.297506
20
112.742578
40
0.500000
100
AcDbArc
50
-89.999999
51
-5.710593
0
LINE
5
56d
100
AcDbEntity
8
1
100
AcDbLine
6
CONTINUOUS
62
5
10
175.795025
20
112.692826
11
176.000000
21
114.742578
0
LINE
5
56e
100
AcDbEntity
8
1
100
AcDbLine
6
CONTINUOUS
62
5
10
164.000000
20
114.742578
11
164.169612
21
112.644520
0
ARC
5
56f
100
AcDbEntity
8
1
100
AcDbCircle
6
CONTINUOUS
62
5
10
164.659902
20
112.742578
40
0.500000
100
AcDbArc
50
-168.690066
51
-89.999999
0
LINE
5
570
100
AcDbEntity
8
1
100
AcDbLine
6
CONTINUOUS
62
5
10
164.659902
20
112.242578
11
175.297506
21
112.242578
0
ARC
5
571
100
AcDbEntity
8
1
100
AcDbCircle
6
CONTINUOUS
62
5
10
174.500000
20
106.442578
40
1.000000
100
AcDbArc
50
-89.999999
51
0.000000
0
LINE
5
572
100
AcDbEntity
8
1
100
AcDbLine
6
CONTINUOUS
62
5
10
174.500000
20
105.442578
11
161.166515
21
105.442578
0
LINE
5
573
100
AcDbEntity
8
1
100
AcDbLine
6
CONTINUOUS
62
5
10
181.000000
20
115.232985
11
180.853138
21
109.317758
0
ARC
5
574
100
AcDbEntity
8
1
100
AcDbCircle
6
CONTINUOUS
62
5
10
179.853446
20
109.342578
40
1.000000
100
AcDbArc
50
-89.999999
51
-1.422231
0
LINE
5
575
100
AcDbEntity
8
1
100
AcDbLine
6
CONTINUOUS
62
5
10
179.853446
20
108.342578
11
176.000000
21
108.342578
0
ARC
5
576
100
AcDbEntity
8
1
100
AcDbCircle
6
CONTINUOUS
62
5
10
176.000000
20
107.842578
40
0.500000
100
AcDbArc
50
89.999999
51
179.999998
0
LINE
5
577
100
AcDbEntity
8
1
100
AcDbLine
6
CONTINUOUS
62
5
10
175.500000
20
107.842578
11
175.500000
21
106.442578
0
POLYLINE
5
578
100
AcDbEntity
8
1
6
CONTINUOUS
62
5
100
AcDb2dPolyline
66
1
10
0.0
20
0.0
30
0.0
70
1
0
VERTEX
5
579
100
AcDbEntity
8
1
100
AcDbVertex
100
AcDb2dVertex
62
5
10
290.000000
20
30.000000
0
VERTEX
5
57a
100
AcDbEntity
8
1
100
AcDbVertex
100
AcDb2dVertex
62
5
10
290.000000
20
54.000000
0
VERTEX
5
57b
100
AcDbEntity
8
1
100
AcDbVertex
100
AcDb2dVertex
62
5
10
50.000000
20
54.000000
0
VERTEX
5
57c
100
AcDbEntity
8
1
100
AcDbVertex
100
AcDb2dVertex
62
5
10
50.000000
20
30.000000
0
VERTEX
5
57d
100
AcDbEntity
8
1
100
AcDbVertex
100
AcDb2dVertex
62
5
10
290.000000
20
30.000000
0
SEQEND
5
57e
100
AcDbEntity
8
1
0
ARC
5
57f
100
AcDbEntity
8
1
100
AcDbCircle
6
CONTINUOUS
62
5
10
160.923787
20
136.957330
40
0.500098
100
AcDbArc
50
77.350950
51
161.730943
0
ARC
5
580
100
AcDbEntity
8
1
100
AcDbCircle
6
CONTINUOUS
62
5
10
202.294686
20
333.143282
40
200.000515
100
AcDbArc
50
-101.905985
51
-96.092131
0
ARC
5
581
100
AcDbEntity
8
1
100
AcDbCircle
6
CONTINUOUS
62
5
10
181.016064
20
133.775088
40
0.500000
100
AcDbArc
50
19.571328
51
83.907868
0
LINE
5
582
100
AcDbEntity
8
1
100
AcDbLine
6
CONTINUOUS
62
5
10
159.430909
20
133.942578
11
160.448897
21
137.114101
0
POLYLINE
5
583
100
AcDbEntity
8
1
6
DOT2
62
5
100
AcDb2dPolyline
66
1
10
0.0
20
0.0
30
0.0
70
0
0
VERTEX
5
584
100
AcDbEntity
8
1
100
AcDbVertex
100
AcDb2dVertex
62
5
10
0.000000
20
350.000000
0
VERTEX
5
585
100
AcDbEntity
8
1
100
AcDbVertex
100
AcDb2dVertex
62
5
10
0.000000
20
360.000000
0
VERTEX
5
586
100
AcDbEntity
8
1
100
AcDbVertex
100
AcDb2dVertex
62
5
10
10.000000
20
360.000000
0
SEQEND
5
587
100
AcDbEntity
8
1
0
POLYLINE
5
588
100
AcDbEntity
8
1
6
DOT2
62
5
100
AcDb2dPolyline
66
1
10
0.0
20
0.0
30
0.0
70
0
0
VERTEX
5
589
100
AcDbEntity
8
1
100
AcDbVertex
100
AcDb2dVertex
62
5
10
330.000000
20
360.000000
0
VERTEX
5
58a
100
AcDbEntity
8
1
100
AcDbVertex
100
AcDb2dVertex
62
5
10
340.000000
20
360.000000
0
VERTEX
5
58b
100
AcDbEntity
8
1
100
AcDbVertex
100
AcDb2dVertex
62
5
10
340.000000
20
350.000000
0
SEQEND
5
58c
100
AcDbEntity
8
1
0
POLYLINE
5
58d
100
AcDbEntity
8
1
6
DOT2
62
5
100
AcDb2dPolyline
66
1
10
0.0
20
0.0
30
0.0
70
0
0
VERTEX
5
58e
100
AcDbEntity
8
1
100
AcDbVertex
100
AcDb2dVertex
62
5
10
340.000000
20
10.000000
0
VERTEX
5
58f
100
AcDbEntity
8
1
100
AcDbVertex
100
AcDb2dVertex
62
5
10
340.000000
20
0.000000
0
VERTEX
5
590
100
AcDbEntity
8
1
100
AcDbVertex
100
AcDb2dVertex
62
5
10
330.000000
20
0.000000
0
SEQEND
5
591
100
AcDbEntity
8
1
0
POLYLINE
5
592
100
AcDbEntity
8
1
6
DOT2
62
5
100
AcDb2dPolyline
66
1
10
0.0
20
0.0
30
0.0
70
0
0
VERTEX
5
593
100
AcDbEntity
8
1
100
AcDbVertex
100
AcDb2dVertex
62
5
10
10.000000
20
0.000000
0
VERTEX
5
594
100
AcDbEntity
8
1
100
AcDbVertex
100
AcDb2dVertex
62
5
10
0.000000
20
0.000000
0
VERTEX
5
595
100
AcDbEntity
8
1
100
AcDbVertex
100
AcDb2dVertex
62
5
10
0.000000
20
10.000000
0
SEQEND
5
596
100
AcDbEntity
8
1
0
POLYLINE
5
597
100
AcDbEntity
8
1
6
CONTINUOUS
62
5
100
AcDb2dPolyline
66
1
10
0.0
20
0.0
30
0.0
70
1
0
VERTEX
5
598
100
AcDbEntity
8
1
100
AcDbVertex
100
AcDb2dVertex
62
5
10
10.000000
20
10.000000
0
VERTEX
5
599
100
AcDbEntity
8
1
100
AcDbVertex
100
AcDb2dVertex
62
5
10
10.000000
20
350.000000
0
VERTEX
5
59a
100
AcDbEntity
8
1
100
AcDbVertex
100
AcDb2dVertex
62
5
10
330.000000
20
350.000000
0
VERTEX
5
59b
100
AcDbEntity
8
1
100
AcDbVertex
100
AcDb2dVertex
62
5
10
330.000000
20
10.000000
0
VERTEX
5
59c
100
AcDbEntity
8
1
100
AcDbVertex
100
AcDb2dVertex
62
5
10
10.000000
20
10.000000
0
SEQEND
5
59d
100
AcDbEntity
8
1
0
ENDSEC
0
SECTION
2
OBJECTS
0
DICTIONARY
5
59e
100
AcDbDictionary
3
ACAD_GROUP
350
59f
3
ACAD_MLINESTYLE
350
5a0
0
DICTIONARY
5
59f
102
{ACAD_REACTORS
330
59e
102
}
100
AcDbDictionary
0
DICTIONARY
5
5a0
102
{ACAD_REACTORS
330
59e
102
}
100
AcDbDictionary
3
STANDARD
350
5a1
0
MLINESTYLE
5
5a1
102
{ACAD_REACTORS
330
5a0
102
}
100
AcDbMlineStyle
2
STANDARD
70
0
3

62
0
51
90.0
52
90.0
71
2
49
0.5
62
256
6
BYLAYER
49
-0.5
62
256
6
BYLAYER
0
ENDSEC
0
EOF
