0
SECTION
2
HEADER
9
$ACADVER
1
AC1012
9
$EXTMIN
10
-0.010000
20
-0.010000
30
0.0
9
$EXTMAX
10
13.390000
20
14.180000
30
0.0
9
$LIMMIN
10
-0.254000
20
-0.254000
9
$LIMMAX
10
340.106000
20
360.172000
9
$DIMSCALE
40
1.000000
9
$PDMODE
70
2
9
$PDSIZE
40
0.0
  9
$HANDSEED
  5
74e
0
ENDSEC
0
SECTION
2
CLASSES
0
ENDSEC
0
SECTION
2
TABLES
0
TABLE
2
LTYPE
5
1e
100
AcDbSymbolTable
70
12
0
LTYPE
5
1f
100
AcDbSymbolTableRecord
100
AcDbLinetypeTableRecord
2
BYBLOCK
70
0
3

72
65
73
0
40
0.0
0
LTYPE
5
20
100
AcDbSymbolTableRecord
100
AcDbLinetypeTableRecord
2
BYLAYER
70
0
3

72
65
73
0
40
0.0
0
LTYPE
5
21
100
AcDbSymbolTableRecord
100
AcDbLinetypeTableRecord
2
CONTINUOUS
70
64
3
Solid line
72
65
73
0
40
0.0
0
LTYPE
5
22
100
AcDbSymbolTableRecord
100
AcDbLinetypeTableRecord
2
DASHED
70
64
3
__ __ __ __ __ __ __ __ __ __ __ __ __ __ __
72
65
73
2
40
0.75
49
0.5
74
0
49
-0.25
74
0
0
LTYPE
5
23
100
AcDbSymbolTableRecord
100
AcDbLinetypeTableRecord
2
DOT
70
64
3
...............................................
72
65
73
2
40
0.25
49
0.0
74
0
49
-0.25
74
0
0
LTYPE
5
24
100
AcDbSymbolTableRecord
100
AcDbLinetypeTableRecord
2
DASHDOT
70
64
3
__ . __ . __ . __ . __ . __ . __ . __ . __ . --
72
65
73
4
40
1.0
49
0.5
74
0
49
-0.25
74
0
49
0.0
74
0
49
-0.25
74
0
0
LTYPE
5
25
100
AcDbSymbolTableRecord
100
AcDbLinetypeTableRecord
2
CENTER
70
64
3
____ _ ____ _ ____ _ ____ _ ____ _ ____ _ ____
72
65
73
4
40
2.0
49
1.25
74
0
49
-0.25
74
0
49
0.25
74
0
49
-0.25
74
0
0
LTYPE
5
26
100
AcDbSymbolTableRecord
100
AcDbLinetypeTableRecord
2
PHANTOM
70
64
3
_____ _ _ _____ _ _ _____ _ _ _____ _ _ ____
72
65
73
6
40
2.5
49
1.25
74
0
49
-0.25
74
0
49
0.25
74
0
49
-0.25
74
0
49
0.25
74
0
49
-0.25
74
0
0
LTYPE
5
27
100
AcDbSymbolTableRecord
100
AcDbLinetypeTableRecord
2
HIDDEN
70
64
3
_ _ _ _ _ _ _ _ _ _ _ _ _ _ _ _ _ _ _ _ _ _ _
72
65
73
2
40
0.375
49
0.25
74
0
49
-0.125
74
0
0
LTYPE
5
28
100
AcDbSymbolTableRecord
100
AcDbLinetypeTableRecord
2
BORDER
70
64
3
__ __ . __ __ . __ __ . __ __ . __ __ . __ __
72
65
73
6
40
1.75
49
0.5
74
0
49
-0.25
74
0
49
0.5
74
0
49
-0.25
74
0
49
0.0
74
0
49
-0.25
74
0
0
LTYPE
5
29
100
AcDbSymbolTableRecord
100
AcDbLinetypeTableRecord
2
DIVIDE
70
64
3
__ . . __ . . __ . . __ . . __ . . __ . . __
72
65
73
6
40
1.25
49
0.5
74
0
49
-0.25
74
0
49
0.0
74
0
49
-0.25
74
0
49
0.0
74
0
49
-0.25
74
0
0
LTYPE
5
2a
100
AcDbSymbolTableRecord
100
AcDbLinetypeTableRecord
2
DOT2
70
64
3
...............................................
72
65
73
2
40
0.125
49
0.0
74
0
49
-0.125
74
0
0
ENDTAB
0
TABLE
2
STYLE
5
2b
100
AcDbSymbolTable
70
1
0
STYLE
5
2c
100
AcDbSymbolTableRecord
100
AcDbTextStyleTableRecord
2
STANDARD
70
64
40
0.0
41
1.0
50
0.0
71
0
42
5.0
3
txt
4
bigfont
0
ENDTAB
0
TABLE
2
LAYER
5
2d
100
AcDbSymbolTable
70
3
0
LAYER
5
2e
100
AcDbSymbolTableRecord
100
AcDbLayerTableRecord
2
0
70
0
62
7
6
CONTINUOUS
0
LAYER
5
2f
100
AcDbSymbolTableRecord
100
AcDbLayerTableRecord
2
1
70
0
62
7
6
CONTINUOUS
0
LAYER
5
30
100
AcDbSymbolTableRecord
100
AcDbLayerTableRecord
2
0
70
0
62
7
6
CONTINUOUS
0
ENDTAB
0
TABLE
2
APPID
5
31
100
AcDbSymbolTable
70
1
0
APPID
5
32
100
AcDbSymbolTableRecord
100
AcDbRegAppTableRecord
2
ACAD
70
64
0
ENDTAB
0
TABLE
2
DIMSTYLE
5
33
100
AcDbSymbolTable
70
0
0
ENDTAB
0
TABLE
2
UCS
5
34
100
AcDbSymbolTable
70
0
0
ENDTAB
0
TABLE
2
VIEW
5
35
100
AcDbSymbolTable
70
0
0
ENDTAB
0
TABLE
2
VPORT
5
36
100
AcDbSymbolTable
70
0
0
ENDTAB
0
TABLE
2
BLOCK_RECORD
5
37
100
AcDbSymbolTable
70
0
0
BLOCK_RECORD
5
38
100
AcDbSymbolTableRecord
100
AcDbBlockTableRecord
2
*MODEL_SPACE
0
BLOCK_RECORD
5
39
100
AcDbSymbolTableRecord
100
AcDbBlockTableRecord
2
*PAPER_SPACE
0
BLOCK_RECORD
5
3a
100
AcDbSymbolTableRecord
100
AcDbBlockTableRecord
2
OPEN
0
BLOCK_RECORD
5
3b
100
AcDbSymbolTableRecord
100
AcDbBlockTableRecord
2
HALF
0
BLOCK_RECORD
5
3c
100
AcDbSymbolTableRecord
100
AcDbBlockTableRecord
2
CLOSEDBLANK
0
BLOCK_RECORD
5
3d
100
AcDbSymbolTableRecord
100
AcDbBlockTableRecord
2
HALFCLOSE_R
0
BLOCK_RECORD
5
3e
100
AcDbSymbolTableRecord
100
AcDbBlockTableRecord
2
DOT
0
BLOCK_RECORD
5
3f
100
AcDbSymbolTableRecord
100
AcDbBlockTableRecord
2
HALFOPEN_R
0
BLOCK_RECORD
5
40
100
AcDbSymbolTableRecord
100
AcDbBlockTableRecord
2
CLOSEDF
0
BLOCK_RECORD
5
41
100
AcDbSymbolTableRecord
100
AcDbBlockTableRecord
2
HALF_R
0
ENDTAB
0
ENDSEC
0
SECTION
2
BLOCKS
0
BLOCK
5
42
100
AcDbEntity
8
0
100
AcDbBlockBegin
2
*MODEL_SPACE
70
0
10
0.0
20
0.0
30
0.0
3
*MODEL_SPACE
1

0
ENDBLK
5
43
100
AcDbEntity
8
0
100
AcDbBlockEnd
0
BLOCK
5
44
100
AcDbEntity
67
1
8
0
100
AcDbBlockBegin
2
*PAPER_SPACE
70
0
10
0.0
20
0.0
30
0.0
3
*PAPER_SPACE
1

0
ENDBLK
5
45
100
AcDbEntity
67
1
8
0
100
AcDbBlockEnd
0
BLOCK
5
46
100
AcDbEntity
8
0
100
AcDbBlockBegin
2
OPEN
70
0
10
0.0
20
0.0
30
0.0
3
OPEN
1

0
LINE
5
47
100
AcDbEntity
8
0
6
BYBLOCK
62
0
100
AcDbLine
10
0.000000
20
0.000000
11
-1.000000
21
0.000000
0
LINE
5
48
100
AcDbEntity
8
0
6
BYBLOCK
62
0
100
AcDbLine
10
-1.000000
20
-0.166667
11
0.000000
21
0.000000
0
LINE
5
49
100
AcDbEntity
8
0
6
BYBLOCK
62
0
100
AcDbLine
10
-1.000000
20
0.166667
11
0.000000
21
0.000000
0
ENDBLK
5
4a
100
AcDbEntity
8
0
100
AcDbBlockEnd
0
BLOCK
5
4b
100
AcDbEntity
8
0
100
AcDbBlockBegin
2
HALF
70
0
10
0.0
20
0.0
30
0.0
3
HALF
1

0
SOLID
5
4c
100
AcDbEntity
8
0
6
BYBLOCK
62
0
100
AcDbTrace
10
-1.000000
20
0.166667
11
-1.000000
21
-0.166667
12
0.000000
22
0.000000
13
0.000000
23
0.000000
0
ENDBLK
5
4d
100
AcDbEntity
8
0
100
AcDbBlockEnd
0
BLOCK
5
4e
100
AcDbEntity
8
0
100
AcDbBlockBegin
2
CLOSEDBLANK
70
0
10
0.0
20
0.0
30
0.0
3
CLOSEDBLANK
1

0
LINE
5
4f
100
AcDbEntity
8
0
6
BYBLOCK
62
0
100
AcDbLine
10
-1.000000
20
0.166667
11
-1.000000
21
-0.166667
0
LINE
5
50
100
AcDbEntity
8
0
6
BYBLOCK
62
0
100
AcDbLine
10
0.000000
20
0.000000
11
-1.000000
21
-0.166667
0
LINE
5
51
100
AcDbEntity
8
0
6
BYBLOCK
62
0
100
AcDbLine
10
-1.000000
20
0.166667
11
0.000000
21
0.000000
0
ENDBLK
5
52
100
AcDbEntity
8
0
100
AcDbBlockEnd
0
BLOCK
5
53
100
AcDbEntity
8
0
100
AcDbBlockBegin
2
HALFCLOSE_R
70
0
10
0.0
20
0.0
30
0.0
3
HALFCLOSE_R
1

0
LINE
5
54
100
AcDbEntity
8
0
6
BYBLOCK
62
0
100
AcDbLine
10
-1.000000
20
-0.166667
11
-1.000000
21
0.000000
0
LINE
5
55
100
AcDbEntity
8
0
6
BYBLOCK
62
0
100
AcDbLine
10
-1.000000
20
-0.166667
11
0.000000
21
0.000000
0
LINE
5
56
100
AcDbEntity
8
0
6
BYBLOCK
62
0
100
AcDbLine
10
0.000000
20
0.000000
11
-1.000000
21
0.000000
0
ENDBLK
5
57
100
AcDbEntity
8
0
100
AcDbBlockEnd
0
BLOCK
5
58
100
AcDbEntity
8
0
100
AcDbBlockBegin
2
DOT
70
0
10
0.0
20
0.0
30
0.0
3
DOT
1

0
LINE
5
59
100
AcDbEntity
8
0
6
BYBLOCK
62
0
100
AcDbLine
10
0.000000
20
0.000000
11
-1.000000
21
0.000000
0
POLYLINE
5
5a
100
AcDbEntity
8
0
6
BYBLOCK
62
0
100
AcDb2dPolyline
66
1
10
0.0
20
0.0
30
0.0
70
1
40
0.166667
41
0.166667
0
VERTEX
5
5b
100
AcDbEntity
8
0
100
AcDbVertex
100
AcDb2dVertex
62
10
10
-0.083333
20
0.000000
42
1.000000
0
VERTEX
5
5c
100
AcDbEntity
8
0
100
AcDbVertex
100
AcDb2dVertex
62
10
10
0.083333
20
0.000000
42
1.000000
0
SEQEND
5
5d
100
AcDbEntity
8
0
0
ENDBLK
5
5e
100
AcDbEntity
8
0
100
AcDbBlockEnd
0
BLOCK
5
5f
100
AcDbEntity
8
0
100
AcDbBlockBegin
2
HALFOPEN_R
70
0
10
0.0
20
0.0
30
0.0
3
HALFOPEN_R
1

0
LINE
5
60
100
AcDbEntity
8
0
6
BYBLOCK
62
0
100
AcDbLine
10
-1.000000
20
-0.166667
11
0.000000
21
0.000000
0
LINE
5
61
100
AcDbEntity
8
0
6
BYBLOCK
62
0
100
AcDbLine
10
0.000000
20
0.000000
11
-1.000000
21
0.000000
0
ENDBLK
5
62
100
AcDbEntity
8
0
100
AcDbBlockEnd
0
BLOCK
5
63
100
AcDbEntity
8
0
100
AcDbBlockBegin
2
CLOSEDF
70
0
10
0.0
20
0.0
30
0.0
3
CLOSEDF
1

0
SOLID
5
64
100
AcDbEntity
8
0
6
BYBLOCK
62
0
100
AcDbTrace
10
-1.000000
20
0.166667
11
-1.000000
21
-0.166667
12
0.000000
22
0.000000
13
0.000000
23
0.000000
0
ENDBLK
5
65
100
AcDbEntity
8
0
100
AcDbBlockEnd
0
BLOCK
5
66
100
AcDbEntity
8
0
100
AcDbBlockBegin
2
HALF_R
70
0
10
0.0
20
0.0
30
0.0
3
HALF_R
1

0
SOLID
5
67
100
AcDbEntity
8
0
6
BYBLOCK
62
0
100
AcDbTrace
10
-1.000000
20
-0.166667
11
-1.000000
21
0.000000
12
0.000000
22
0.000000
13
0.000000
23
0.000000
0
ENDBLK
5
68
100
AcDbEntity
8
0
100
AcDbBlockEnd
0
ENDSEC
0
SECTION
2
ENTITIES
0
POLYLINE
5
69
100
AcDbEntity
8
1
6
CONTINUOUS
62
5
100
AcDb2dPolyline
66
1
10
0.0
20
0.0
30
0.0
70
0
0
VERTEX
5
6a
100
AcDbEntity
8
1
100
AcDbVertex
100
AcDb2dVertex
62
5
10
262.500000
20
338.062500
0
VERTEX
5
6b
100
AcDbEntity
8
1
100
AcDbVertex
100
AcDb2dVertex
62
5
10
262.500000
20
336.187500
0
VERTEX
5
6c
100
AcDbEntity
8
1
100
AcDbVertex
100
AcDb2dVertex
62
5
10
262.250000
20
334.625000
0
VERTEX
5
6d
100
AcDbEntity
8
1
100
AcDbVertex
100
AcDb2dVertex
62
5
10
261.750000
20
333.375000
0
VERTEX
5
6e
100
AcDbEntity
8
1
100
AcDbVertex
100
AcDb2dVertex
62
5
10
261.000000
20
332.125000
0
VERTEX
5
6f
100
AcDbEntity
8
1
100
AcDbVertex
100
AcDb2dVertex
62
5
10
260.750000
20
331.812500
0
SEQEND
5
70
100
AcDbEntity
8
1
0
POLYLINE
5
71
100
AcDbEntity
8
1
6
CONTINUOUS
62
5
100
AcDb2dPolyline
66
1
10
0.0
20
0.0
30
0.0
70
0
0
VERTEX
5
72
100
AcDbEntity
8
1
100
AcDbVertex
100
AcDb2dVertex
62
5
10
264.000000
20
338.375000
0
VERTEX
5
73
100
AcDbEntity
8
1
100
AcDbVertex
100
AcDb2dVertex
62
5
10
264.000000
20
332.125000
0
VERTEX
5
74
100
AcDbEntity
8
1
100
AcDbVertex
100
AcDb2dVertex
62
5
10
264.750000
20
332.437500
0
VERTEX
5
75
100
AcDbEntity
8
1
100
AcDbVertex
100
AcDb2dVertex
62
5
10
265.750000
20
333.375000
0
VERTEX
5
76
100
AcDbEntity
8
1
100
AcDbVertex
100
AcDb2dVertex
62
5
10
266.500000
20
334.312500
0
VERTEX
5
77
100
AcDbEntity
8
1
100
AcDbVertex
100
AcDb2dVertex
62
5
10
267.000000
20
335.250000
0
SEQEND
5
78
100
AcDbEntity
8
1
0
LINE
5
79
100
AcDbEntity
8
1
100
AcDbLine
6
CONTINUOUS
62
5
10
271.250000
20
337.125000
11
273.750000
21
337.125000
0
POLYLINE
5
7a
100
AcDbEntity
8
1
6
CONTINUOUS
62
5
100
AcDb2dPolyline
66
1
10
0.0
20
0.0
30
0.0
70
0
0
VERTEX
5
7b
100
AcDbEntity
8
1
100
AcDbVertex
100
AcDb2dVertex
62
5
10
271.250000
20
337.125000
0
VERTEX
5
7c
100
AcDbEntity
8
1
100
AcDbVertex
100
AcDb2dVertex
62
5
10
270.500000
20
335.875000
0
VERTEX
5
7d
100
AcDbEntity
8
1
100
AcDbVertex
100
AcDb2dVertex
62
5
10
269.750000
20
334.937500
0
SEQEND
5
7e
100
AcDbEntity
8
1
0
POLYLINE
5
7f
100
AcDbEntity
8
1
6
CONTINUOUS
62
5
100
AcDb2dPolyline
66
1
10
0.0
20
0.0
30
0.0
70
0
0
VERTEX
5
80
100
AcDbEntity
8
1
100
AcDbVertex
100
AcDb2dVertex
62
5
10
273.750000
20
337.125000
0
VERTEX
5
81
100
AcDbEntity
8
1
100
AcDbVertex
100
AcDb2dVertex
62
5
10
274.000000
20
336.812500
0
VERTEX
5
82
100
AcDbEntity
8
1
100
AcDbVertex
100
AcDb2dVertex
62
5
10
273.500000
20
335.875000
0
VERTEX
5
83
100
AcDbEntity
8
1
100
AcDbVertex
100
AcDb2dVertex
62
5
10
272.750000
20
334.312500
0
VERTEX
5
84
100
AcDbEntity
8
1
100
AcDbVertex
100
AcDb2dVertex
62
5
10
271.500000
20
332.750000
0
VERTEX
5
85
100
AcDbEntity
8
1
100
AcDbVertex
100
AcDb2dVertex
62
5
10
270.000000
20
331.500000
0
SEQEND
5
86
100
AcDbEntity
8
1
0
LINE
5
87
100
AcDbEntity
8
1
100
AcDbLine
6
CONTINUOUS
62
5
10
271.250000
20
335.250000
11
272.250000
21
333.687500
0
LINE
5
88
100
AcDbEntity
8
1
100
AcDbLine
6
CONTINUOUS
62
5
10
273.750000
20
338.687500
11
274.500000
21
337.750000
0
LINE
5
89
100
AcDbEntity
8
1
100
AcDbLine
6
CONTINUOUS
62
5
10
274.500000
20
339.312500
11
275.250000
21
338.375000
0
POLYLINE
5
8a
100
AcDbEntity
8
1
6
CONTINUOUS
62
5
100
AcDb2dPolyline
66
1
10
0.0
20
0.0
30
0.0
70
0
0
VERTEX
5
8b
100
AcDbEntity
8
1
100
AcDbVertex
100
AcDb2dVertex
62
5
10
278.500000
20
339.312500
0
VERTEX
5
8c
100
AcDbEntity
8
1
100
AcDbVertex
100
AcDb2dVertex
62
5
10
277.500000
20
336.500000
0
VERTEX
5
8d
100
AcDbEntity
8
1
100
AcDbVertex
100
AcDb2dVertex
62
5
10
276.250000
20
334.312500
0
SEQEND
5
8e
100
AcDbEntity
8
1
0
LINE
5
8f
100
AcDbEntity
8
1
100
AcDbLine
6
CONTINUOUS
62
5
10
277.500000
20
336.500000
11
277.500000
21
330.562500
0
LINE
5
90
100
AcDbEntity
8
1
100
AcDbLine
6
CONTINUOUS
62
5
10
278.250000
20
336.500000
11
283.500000
21
336.500000
0
POLYLINE
5
91
100
AcDbEntity
8
1
6
CONTINUOUS
62
5
100
AcDb2dPolyline
66
1
10
0.0
20
0.0
30
0.0
70
0
0
VERTEX
5
92
100
AcDbEntity
8
1
100
AcDbVertex
100
AcDb2dVertex
62
5
10
281.750000
20
339.312500
0
VERTEX
5
93
100
AcDbEntity
8
1
100
AcDbVertex
100
AcDb2dVertex
62
5
10
281.750000
20
330.875000
0
VERTEX
5
94
100
AcDbEntity
8
1
100
AcDbVertex
100
AcDb2dVertex
62
5
10
280.250000
20
331.187500
0
SEQEND
5
95
100
AcDbEntity
8
1
0
LINE
5
96
100
AcDbEntity
8
1
100
AcDbLine
6
CONTINUOUS
62
5
10
279.250000
20
335.250000
11
280.250000
21
333.375000
0
LINE
5
97
100
AcDbEntity
8
1
100
AcDbLine
6
CONTINUOUS
62
5
10
286.250000
20
337.125000
11
289.000000
21
337.750000
0
LINE
5
98
100
AcDbEntity
8
1
100
AcDbLine
6
CONTINUOUS
62
5
10
286.250000
20
335.250000
11
289.750000
21
336.187500
0
POLYLINE
5
99
100
AcDbEntity
8
1
6
CONTINUOUS
62
5
100
AcDb2dPolyline
66
1
10
0.0
20
0.0
30
0.0
70
0
0
VERTEX
5
9a
100
AcDbEntity
8
1
100
AcDbVertex
100
AcDb2dVertex
62
5
10
287.250000
20
338.687500
0
VERTEX
5
9b
100
AcDbEntity
8
1
100
AcDbVertex
100
AcDb2dVertex
62
5
10
289.500000
20
333.687500
0
VERTEX
5
9c
100
AcDbEntity
8
1
100
AcDbVertex
100
AcDb2dVertex
62
5
10
289.000000
20
333.687500
0
VERTEX
5
9d
100
AcDbEntity
8
1
100
AcDbVertex
100
AcDb2dVertex
62
5
10
287.500000
20
334.312500
0
VERTEX
5
9e
100
AcDbEntity
8
1
100
AcDbVertex
100
AcDb2dVertex
62
5
10
286.750000
20
334.312500
0
VERTEX
5
9f
100
AcDbEntity
8
1
100
AcDbVertex
100
AcDb2dVertex
62
5
10
285.750000
20
333.375000
0
VERTEX
5
a0
100
AcDbEntity
8
1
100
AcDbVertex
100
AcDb2dVertex
62
5
10
285.750000
20
332.750000
0
VERTEX
5
a1
100
AcDbEntity
8
1
100
AcDbVertex
100
AcDb2dVertex
62
5
10
286.250000
20
332.125000
0
VERTEX
5
a2
100
AcDbEntity
8
1
100
AcDbVertex
100
AcDb2dVertex
62
5
10
286.750000
20
331.812500
0
VERTEX
5
a3
100
AcDbEntity
8
1
100
AcDbVertex
100
AcDb2dVertex
62
5
10
288.250000
20
331.812500
0
SEQEND
5
a4
100
AcDbEntity
8
1
0
POLYLINE
5
a5
100
AcDbEntity
8
1
6
CONTINUOUS
62
5
100
AcDb2dPolyline
66
1
10
0.0
20
0.0
30
0.0
70
0
0
VERTEX
5
a6
100
AcDbEntity
8
1
100
AcDbVertex
100
AcDb2dVertex
62
5
10
236.750000
20
335.562500
0
VERTEX
5
a7
100
AcDbEntity
8
1
100
AcDbVertex
100
AcDb2dVertex
62
5
10
237.000000
20
335.250000
0
VERTEX
5
a8
100
AcDbEntity
8
1
100
AcDbVertex
100
AcDb2dVertex
62
5
10
243.750000
20
335.250000
0
SEQEND
5
a9
100
AcDbEntity
8
1
0
POLYLINE
5
aa
100
AcDbEntity
8
1
6
CONTINUOUS
62
5
100
AcDb2dPolyline
66
1
10
0.0
20
0.0
30
0.0
70
0
0
VERTEX
5
ab
100
AcDbEntity
8
1
100
AcDbVertex
100
AcDb2dVertex
62
5
10
221.750000
20
335.250000
0
VERTEX
5
ac
100
AcDbEntity
8
1
100
AcDbVertex
100
AcDb2dVertex
62
5
10
222.750000
20
336.500000
0
VERTEX
5
ad
100
AcDbEntity
8
1
100
AcDbVertex
100
AcDb2dVertex
62
5
10
223.250000
20
337.437500
0
VERTEX
5
ae
100
AcDbEntity
8
1
100
AcDbVertex
100
AcDb2dVertex
62
5
10
225.750000
20
337.437500
0
VERTEX
5
af
100
AcDbEntity
8
1
100
AcDbVertex
100
AcDb2dVertex
62
5
10
225.750000
20
337.125000
0
VERTEX
5
b0
100
AcDbEntity
8
1
100
AcDbVertex
100
AcDb2dVertex
62
5
10
225.000000
20
335.250000
0
VERTEX
5
b1
100
AcDbEntity
8
1
100
AcDbVertex
100
AcDb2dVertex
62
5
10
223.750000
20
333.375000
0
VERTEX
5
b2
100
AcDbEntity
8
1
100
AcDbVertex
100
AcDb2dVertex
62
5
10
222.250000
20
331.812500
0
SEQEND
5
b3
100
AcDbEntity
8
1
0
POLYLINE
5
b4
100
AcDbEntity
8
1
6
CONTINUOUS
62
5
100
AcDb2dPolyline
66
1
10
0.0
20
0.0
30
0.0
70
0
0
VERTEX
5
b5
100
AcDbEntity
8
1
100
AcDbVertex
100
AcDb2dVertex
62
5
10
229.500000
20
336.500000
0
VERTEX
5
b6
100
AcDbEntity
8
1
100
AcDbVertex
100
AcDb2dVertex
62
5
10
234.250000
20
336.500000
0
VERTEX
5
b7
100
AcDbEntity
8
1
100
AcDbVertex
100
AcDb2dVertex
62
5
10
234.250000
20
334.937500
0
VERTEX
5
b8
100
AcDbEntity
8
1
100
AcDbVertex
100
AcDb2dVertex
62
5
10
234.000000
20
333.375000
0
VERTEX
5
b9
100
AcDbEntity
8
1
100
AcDbVertex
100
AcDb2dVertex
62
5
10
233.250000
20
332.125000
0
VERTEX
5
ba
100
AcDbEntity
8
1
100
AcDbVertex
100
AcDb2dVertex
62
5
10
232.500000
20
332.125000
0
SEQEND
5
bb
100
AcDbEntity
8
1
0
POLYLINE
5
bc
100
AcDbEntity
8
1
6
CONTINUOUS
62
5
100
AcDb2dPolyline
66
1
10
0.0
20
0.0
30
0.0
70
0
0
VERTEX
5
bd
100
AcDbEntity
8
1
100
AcDbVertex
100
AcDb2dVertex
62
5
10
232.000000
20
338.375000
0
VERTEX
5
be
100
AcDbEntity
8
1
100
AcDbVertex
100
AcDb2dVertex
62
5
10
231.500000
20
334.625000
0
VERTEX
5
bf
100
AcDbEntity
8
1
100
AcDbVertex
100
AcDb2dVertex
62
5
10
230.750000
20
333.375000
0
VERTEX
5
c0
100
AcDbEntity
8
1
100
AcDbVertex
100
AcDb2dVertex
62
5
10
229.750000
20
332.125000
0
SEQEND
5
c1
100
AcDbEntity
8
1
0
LINE
5
c2
100
AcDbEntity
8
1
100
AcDbLine
6
CONTINUOUS
62
5
10
247.250000
20
338.687500
11
247.250000
21
331.500000
0
POLYLINE
5
c3
100
AcDbEntity
8
1
6
CONTINUOUS
62
5
100
AcDb2dPolyline
66
1
10
0.0
20
0.0
30
0.0
70
0
0
VERTEX
5
c4
100
AcDbEntity
8
1
100
AcDbVertex
100
AcDb2dVertex
62
5
10
247.250000
20
335.875000
0
VERTEX
5
c5
100
AcDbEntity
8
1
100
AcDbVertex
100
AcDb2dVertex
62
5
10
247.500000
20
335.875000
0
VERTEX
5
c6
100
AcDbEntity
8
1
100
AcDbVertex
100
AcDb2dVertex
62
5
10
249.000000
20
334.937500
0
SEQEND
5
c7
100
AcDbEntity
8
1
0
LINE
5
c8
100
AcDbEntity
8
1
100
AcDbLine
6
CONTINUOUS
62
5
10
249.250000
20
338.062500
11
249.750000
21
337.437500
0
LINE
5
c9
100
AcDbEntity
8
1
100
AcDbLine
6
CONTINUOUS
62
5
10
250.250000
20
338.687500
11
250.750000
21
338.062500
0
POLYLINE
5
ca
100
AcDbEntity
8
1
6
CONTINUOUS
62
5
100
AcDb2dPolyline
66
1
10
0.0
20
0.0
30
0.0
70
0
0
VERTEX
5
cb
100
AcDbEntity
8
1
100
AcDbVertex
100
AcDb2dVertex
62
5
10
204.750000
20
336.812500
0
VERTEX
5
cc
100
AcDbEntity
8
1
100
AcDbVertex
100
AcDb2dVertex
62
5
10
209.750000
20
337.125000
0
VERTEX
5
cd
100
AcDbEntity
8
1
100
AcDbVertex
100
AcDb2dVertex
62
5
10
210.250000
20
336.500000
0
VERTEX
5
ce
100
AcDbEntity
8
1
100
AcDbVertex
100
AcDb2dVertex
62
5
10
209.000000
20
334.937500
0
VERTEX
5
cf
100
AcDbEntity
8
1
100
AcDbVertex
100
AcDb2dVertex
62
5
10
207.750000
20
333.375000
0
SEQEND
5
d0
100
AcDbEntity
8
1
0
POLYLINE
5
d1
100
AcDbEntity
8
1
6
CONTINUOUS
62
5
100
AcDb2dPolyline
66
1
10
0.0
20
0.0
30
0.0
70
0
0
VERTEX
5
d2
100
AcDbEntity
8
1
100
AcDbVertex
100
AcDb2dVertex
62
5
10
206.500000
20
334.625000
0
VERTEX
5
d3
100
AcDbEntity
8
1
100
AcDbVertex
100
AcDb2dVertex
62
5
10
207.750000
20
333.375000
0
VERTEX
5
d4
100
AcDbEntity
8
1
100
AcDbVertex
100
AcDb2dVertex
62
5
10
208.250000
20
332.437500
0
SEQEND
5
d5
100
AcDbEntity
8
1
0
LINE
5
d6
100
AcDbEntity
8
1
100
AcDbLine
6
CONTINUOUS
62
5
10
174.250000
20
335.562500
11
174.500000
21
334.312500
0
LINE
5
d7
100
AcDbEntity
8
1
100
AcDbLine
6
CONTINUOUS
62
5
10
175.750000
20
335.875000
11
176.000000
21
334.625000
0
POLYLINE
5
d8
100
AcDbEntity
8
1
6
CONTINUOUS
62
5
100
AcDb2dPolyline
66
1
10
0.0
20
0.0
30
0.0
70
0
0
VERTEX
5
d9
100
AcDbEntity
8
1
100
AcDbVertex
100
AcDb2dVertex
62
5
10
177.750000
20
335.875000
0
VERTEX
5
da
100
AcDbEntity
8
1
100
AcDbVertex
100
AcDb2dVertex
62
5
10
177.500000
20
334.312500
0
VERTEX
5
db
100
AcDbEntity
8
1
100
AcDbVertex
100
AcDb2dVertex
62
5
10
176.250000
20
332.437500
0
VERTEX
5
dc
100
AcDbEntity
8
1
100
AcDbVertex
100
AcDb2dVertex
62
5
10
175.250000
20
331.500000
0
SEQEND
5
dd
100
AcDbEntity
8
1
0
POLYLINE
5
de
100
AcDbEntity
8
1
6
CONTINUOUS
62
5
100
AcDb2dPolyline
66
1
10
0.0
20
0.0
30
0.0
70
0
0
VERTEX
5
df
100
AcDbEntity
8
1
100
AcDbVertex
100
AcDb2dVertex
62
5
10
181.750000
20
335.250000
0
VERTEX
5
e0
100
AcDbEntity
8
1
100
AcDbVertex
100
AcDb2dVertex
62
5
10
182.750000
20
336.500000
0
VERTEX
5
e1
100
AcDbEntity
8
1
100
AcDbVertex
100
AcDb2dVertex
62
5
10
183.250000
20
337.437500
0
VERTEX
5
e2
100
AcDbEntity
8
1
100
AcDbVertex
100
AcDb2dVertex
62
5
10
185.750000
20
337.437500
0
VERTEX
5
e3
100
AcDbEntity
8
1
100
AcDbVertex
100
AcDb2dVertex
62
5
10
185.750000
20
337.125000
0
VERTEX
5
e4
100
AcDbEntity
8
1
100
AcDbVertex
100
AcDb2dVertex
62
5
10
185.000000
20
335.250000
0
VERTEX
5
e5
100
AcDbEntity
8
1
100
AcDbVertex
100
AcDb2dVertex
62
5
10
183.750000
20
333.375000
0
VERTEX
5
e6
100
AcDbEntity
8
1
100
AcDbVertex
100
AcDb2dVertex
62
5
10
182.250000
20
331.812500
0
SEQEND
5
e7
100
AcDbEntity
8
1
0
POLYLINE
5
e8
100
AcDbEntity
8
1
6
CONTINUOUS
62
5
100
AcDb2dPolyline
66
1
10
0.0
20
0.0
30
0.0
70
0
0
VERTEX
5
e9
100
AcDbEntity
8
1
100
AcDbVertex
100
AcDb2dVertex
62
5
10
189.500000
20
339.000000
0
VERTEX
5
ea
100
AcDbEntity
8
1
100
AcDbVertex
100
AcDb2dVertex
62
5
10
189.500000
20
333.375000
0
VERTEX
5
eb
100
AcDbEntity
8
1
100
AcDbVertex
100
AcDb2dVertex
62
5
10
189.000000
20
332.125000
0
VERTEX
5
ec
100
AcDbEntity
8
1
100
AcDbVertex
100
AcDb2dVertex
62
5
10
188.500000
20
331.187500
0
SEQEND
5
ed
100
AcDbEntity
8
1
0
POLYLINE
5
ee
100
AcDbEntity
8
1
6
CONTINUOUS
62
5
100
AcDb2dPolyline
66
1
10
0.0
20
0.0
30
0.0
70
0
0
VERTEX
5
ef
100
AcDbEntity
8
1
100
AcDbVertex
100
AcDb2dVertex
62
5
10
193.500000
20
331.500000
0
VERTEX
5
f0
100
AcDbEntity
8
1
100
AcDbVertex
100
AcDb2dVertex
62
5
10
194.500000
20
330.875000
0
VERTEX
5
f1
100
AcDbEntity
8
1
100
AcDbVertex
100
AcDb2dVertex
62
5
10
194.500000
20
339.000000
0
VERTEX
5
f2
100
AcDbEntity
8
1
100
AcDbVertex
100
AcDb2dVertex
62
5
10
189.500000
20
339.000000
0
SEQEND
5
f3
100
AcDbEntity
8
1
0
LINE
5
f4
100
AcDbEntity
8
1
100
AcDbLine
6
CONTINUOUS
62
5
10
189.500000
20
336.500000
11
194.500000
21
336.500000
0
LINE
5
f5
100
AcDbEntity
8
1
100
AcDbLine
6
CONTINUOUS
62
5
10
192.000000
20
339.000000
11
192.000000
21
330.875000
0
LINE
5
f6
100
AcDbEntity
8
1
100
AcDbLine
6
CONTINUOUS
62
5
10
189.500000
20
334.000000
11
194.500000
21
334.000000
0
POLYLINE
5
f7
100
AcDbEntity
8
1
6
CONTINUOUS
62
5
100
AcDb2dPolyline
66
1
10
0.0
20
0.0
30
0.0
70
0
0
VERTEX
5
f8
100
AcDbEntity
8
1
100
AcDbVertex
100
AcDb2dVertex
62
5
10
212.750000
20
335.562500
0
VERTEX
5
f9
100
AcDbEntity
8
1
100
AcDbVertex
100
AcDb2dVertex
62
5
10
213.000000
20
335.250000
0
VERTEX
5
fa
100
AcDbEntity
8
1
100
AcDbVertex
100
AcDb2dVertex
62
5
10
219.750000
20
335.250000
0
SEQEND
5
fb
100
AcDbEntity
8
1
0
LINE
5
fc
100
AcDbEntity
8
1
100
AcDbLine
6
CONTINUOUS
62
5
10
253.250000
20
336.187500
11
258.250000
21
336.187500
0
POLYLINE
5
fd
100
AcDbEntity
8
1
6
CONTINUOUS
62
5
100
AcDb2dPolyline
66
1
10
0.0
20
0.0
30
0.0
70
0
0
VERTEX
5
fe
100
AcDbEntity
8
1
100
AcDbVertex
100
AcDb2dVertex
62
5
10
255.750000
20
338.062500
0
VERTEX
5
ff
100
AcDbEntity
8
1
100
AcDbVertex
100
AcDb2dVertex
62
5
10
255.750000
20
331.812500
0
VERTEX
5
100
100
AcDbEntity
8
1
100
AcDbVertex
100
AcDb2dVertex
62
5
10
255.250000
20
331.812500
0
SEQEND
5
101
100
AcDbEntity
8
1
0
LINE
5
102
100
AcDbEntity
8
1
100
AcDbLine
6
CONTINUOUS
62
5
10
254.500000
20
334.625000
11
253.250000
21
332.750000
0
LINE
5
103
100
AcDbEntity
8
1
100
AcDbLine
6
CONTINUOUS
62
5
10
257.250000
20
334.625000
11
258.500000
21
333.062500
0
POLYLINE
5
104
100
AcDbEntity
8
1
6
DOT2
62
5
100
AcDb2dPolyline
66
1
10
0.0
20
0.0
30
0.0
70
1
0
VERTEX
5
105
100
AcDbEntity
8
1
100
AcDbVertex
100
AcDb2dVertex
62
5
10
173.000000
20
252.391824
0
VERTEX
5
106
100
AcDbEntity
8
1
100
AcDbVertex
100
AcDb2dVertex
62
5
10
173.625000
20
252.391824
0
VERTEX
5
107
100
AcDbEntity
8
1
100
AcDbVertex
100
AcDb2dVertex
62
5
10
174.250000
20
252.079324
0
VERTEX
5
108
100
AcDbEntity
8
1
100
AcDbVertex
100
AcDb2dVertex
62
5
10
174.562500
20
251.454324
0
VERTEX
5
109
100
AcDbEntity
8
1
100
AcDbVertex
100
AcDb2dVertex
62
5
10
174.562500
20
250.204324
0
VERTEX
5
10a
100
AcDbEntity
8
1
100
AcDbVertex
100
AcDb2dVertex
62
5
10
174.250000
20
249.579324
0
VERTEX
5
10b
100
AcDbEntity
8
1
100
AcDbVertex
100
AcDb2dVertex
62
5
10
172.375000
20
248.329324
0
VERTEX
5
10c
100
AcDbEntity
8
1
100
AcDbVertex
100
AcDb2dVertex
62
5
10
171.750000
20
247.391824
0
VERTEX
5
10d
100
AcDbEntity
8
1
100
AcDbVertex
100
AcDb2dVertex
62
5
10
171.750000
20
246.141824
0
VERTEX
5
10e
100
AcDbEntity
8
1
100
AcDbVertex
100
AcDb2dVertex
62
5
10
172.062500
20
245.516824
0
VERTEX
5
10f
100
AcDbEntity
8
1
100
AcDbVertex
100
AcDb2dVertex
62
5
10
172.375000
20
245.204324
0
VERTEX
5
110
100
AcDbEntity
8
1
100
AcDbVertex
100
AcDb2dVertex
62
5
10
173.000000
20
244.891824
0
VERTEX
5
111
100
AcDbEntity
8
1
100
AcDbVertex
100
AcDb2dVertex
62
5
10
173.625000
20
244.891824
0
VERTEX
5
112
100
AcDbEntity
8
1
100
AcDbVertex
100
AcDb2dVertex
62
5
10
174.250000
20
245.204324
0
VERTEX
5
113
100
AcDbEntity
8
1
100
AcDbVertex
100
AcDb2dVertex
62
5
10
174.562500
20
245.516824
0
VERTEX
5
114
100
AcDbEntity
8
1
100
AcDbVertex
100
AcDb2dVertex
62
5
10
174.875000
20
246.141824
0
VERTEX
5
115
100
AcDbEntity
8
1
100
AcDbVertex
100
AcDb2dVertex
62
5
10
174.875000
20
247.391824
0
VERTEX
5
116
100
AcDbEntity
8
1
100
AcDbVertex
100
AcDb2dVertex
62
5
10
174.250000
20
248.329324
0
VERTEX
5
117
100
AcDbEntity
8
1
100
AcDbVertex
100
AcDb2dVertex
62
5
10
172.375000
20
249.579324
0
VERTEX
5
118
100
AcDbEntity
8
1
100
AcDbVertex
100
AcDb2dVertex
62
5
10
172.062500
20
250.204324
0
VERTEX
5
119
100
AcDbEntity
8
1
100
AcDbVertex
100
AcDb2dVertex
62
5
10
172.062500
20
251.454324
0
VERTEX
5
11a
100
AcDbEntity
8
1
100
AcDbVertex
100
AcDb2dVertex
62
5
10
172.375000
20
252.079324
0
VERTEX
5
11b
100
AcDbEntity
8
1
100
AcDbVertex
100
AcDb2dVertex
62
5
10
173.000000
20
252.391824
0
SEQEND
5
11c
100
AcDbEntity
8
1
0
LINE
5
11d
100
AcDbEntity
8
1
100
AcDbLine
6
CONTINUOUS
62
5
10
184.500000
20
217.341824
11
184.900000
21
217.341824
0
LINE
5
11e
100
AcDbEntity
8
1
100
AcDbLine
6
CONTINUOUS
62
5
10
188.000000
20
217.341824
11
189.000000
21
217.341824
0
ARC
5
11f
100
AcDbEntity
8
1
100
AcDbCircle
6
CONTINUOUS
62
5
10
188.700000
20
217.441824
40
0.500000
100
AcDbArc
50
89.999999
51
-179.999998
0
LINE
5
120
100
AcDbEntity
8
1
100
AcDbLine
6
CONTINUOUS
62
5
10
189.500000
20
217.941824
11
188.700000
21
217.941824
0
ARC
5
121
100
AcDbEntity
8
1
100
AcDbCircle
6
CONTINUOUS
62
5
10
172.369106
20
216.519726
40
0.200000
100
AcDbArc
50
-89.999999
51
89.999999
0
POLYLINE
5
122
100
AcDbEntity
8
1
6
CONTINUOUS
62
5
100
AcDb2dPolyline
66
1
10
0.0
20
0.0
30
0.0
70
0
0
VERTEX
5
123
100
AcDbEntity
8
1
100
AcDbVertex
100
AcDb2dVertex
62
5
10
172.369106
20
216.319726
0
VERTEX
5
124
100
AcDbEntity
8
1
100
AcDbVertex
100
AcDb2dVertex
62
5
10
171.769106
20
216.319726
0
VERTEX
5
125
100
AcDbEntity
8
1
100
AcDbVertex
100
AcDb2dVertex
62
5
10
171.769106
20
216.719726
0
VERTEX
5
126
100
AcDbEntity
8
1
100
AcDbVertex
100
AcDb2dVertex
62
5
10
172.369106
20
216.719726
0
SEQEND
5
127
100
AcDbEntity
8
1
0
ARC
5
128
100
AcDbEntity
8
1
100
AcDbCircle
6
CONTINUOUS
62
5
10
172.369106
20
217.319726
40
0.200000
100
AcDbArc
50
-89.999999
51
89.999999
0
POLYLINE
5
129
100
AcDbEntity
8
1
6
CONTINUOUS
62
5
100
AcDb2dPolyline
66
1
10
0.0
20
0.0
30
0.0
70
0
0
VERTEX
5
12a
100
AcDbEntity
8
1
100
AcDbVertex
100
AcDb2dVertex
62
5
10
172.369106
20
217.119726
0
VERTEX
5
12b
100
AcDbEntity
8
1
100
AcDbVertex
100
AcDb2dVertex
62
5
10
171.769106
20
217.119726
0
VERTEX
5
12c
100
AcDbEntity
8
1
100
AcDbVertex
100
AcDb2dVertex
62
5
10
171.769106
20
217.519726
0
VERTEX
5
12d
100
AcDbEntity
8
1
100
AcDbVertex
100
AcDb2dVertex
62
5
10
172.369106
20
217.519726
0
SEQEND
5
12e
100
AcDbEntity
8
1
0
ARC
5
12f
100
AcDbEntity
8
1
100
AcDbCircle
6
CONTINUOUS
62
5
10
172.669106
20
217.419726
40
0.500000
100
AcDbArc
50
-89.999999
51
89.999999
0
ARC
5
130
100
AcDbEntity
8
1
100
AcDbCircle
6
CONTINUOUS
62
5
10
172.669106
20
216.419726
40
0.500000
100
AcDbArc
50
-89.999999
51
89.999999
0
POLYLINE
5
131
100
AcDbEntity
8
1
6
CONTINUOUS
62
5
100
AcDb2dPolyline
66
1
10
0.0
20
0.0
30
0.0
70
0
0
VERTEX
5
132
100
AcDbEntity
8
1
100
AcDbVertex
100
AcDb2dVertex
62
5
10
172.669106
20
215.919726
0
VERTEX
5
133
100
AcDbEntity
8
1
100
AcDbVertex
100
AcDb2dVertex
62
5
10
171.169106
20
215.919726
0
VERTEX
5
134
100
AcDbEntity
8
1
100
AcDbVertex
100
AcDb2dVertex
62
5
10
171.169106
20
217.919726
0
VERTEX
5
135
100
AcDbEntity
8
1
100
AcDbVertex
100
AcDb2dVertex
62
5
10
172.669106
20
217.919726
0
SEQEND
5
136
100
AcDbEntity
8
1
0
ARC
5
137
100
AcDbEntity
8
1
100
AcDbCircle
6
CONTINUOUS
62
5
10
174.619105
20
216.619726
40
0.300000
100
AcDbArc
50
-89.999999
51
0.000000
0
LINE
5
138
100
AcDbEntity
8
1
100
AcDbLine
6
CONTINUOUS
62
5
10
174.919105
20
216.619726
11
174.919105
21
217.219726
0
ARC
5
139
100
AcDbEntity
8
1
100
AcDbCircle
6
CONTINUOUS
62
5
10
174.619105
20
217.219726
40
0.300000
100
AcDbArc
50
0.000000
51
89.999999
0
LINE
5
13a
100
AcDbEntity
8
1
100
AcDbLine
6
CONTINUOUS
62
5
10
174.619105
20
217.519726
11
174.419105
21
217.519726
0
ARC
5
13b
100
AcDbEntity
8
1
100
AcDbCircle
6
CONTINUOUS
62
5
10
174.419105
20
217.219726
40
0.300000
100
AcDbArc
50
89.999999
51
179.999998
0
LINE
5
13c
100
AcDbEntity
8
1
100
AcDbLine
6
CONTINUOUS
62
5
10
174.119105
20
217.219726
11
174.119105
21
216.619726
0
ARC
5
13d
100
AcDbEntity
8
1
100
AcDbCircle
6
CONTINUOUS
62
5
10
174.419105
20
216.619726
40
0.300000
100
AcDbArc
50
179.999998
51
-89.999999
0
LINE
5
13e
100
AcDbEntity
8
1
100
AcDbLine
6
CONTINUOUS
62
5
10
174.419105
20
216.319726
11
174.619105
21
216.319726
0
ARC
5
13f
100
AcDbEntity
8
1
100
AcDbCircle
6
CONTINUOUS
62
5
10
174.919105
20
216.519726
40
0.600000
100
AcDbArc
50
-89.999999
51
0.000000
0
LINE
5
140
100
AcDbEntity
8
1
100
AcDbLine
6
CONTINUOUS
62
5
10
175.519104
20
216.519726
11
175.519104
21
217.319726
0
ARC
5
141
100
AcDbEntity
8
1
100
AcDbCircle
6
CONTINUOUS
62
5
10
174.919105
20
217.319726
40
0.600000
100
AcDbArc
50
0.000000
51
89.999999
0
LINE
5
142
100
AcDbEntity
8
1
100
AcDbLine
6
CONTINUOUS
62
5
10
174.919105
20
217.919726
11
174.119105
21
217.919726
0
ARC
5
143
100
AcDbEntity
8
1
100
AcDbCircle
6
CONTINUOUS
62
5
10
174.119105
20
217.319726
40
0.600000
100
AcDbArc
50
89.999999
51
179.999998
0
LINE
5
144
100
AcDbEntity
8
1
100
AcDbLine
6
CONTINUOUS
62
5
10
173.519105
20
217.319726
11
173.519105
21
216.519726
0
ARC
5
145
100
AcDbEntity
8
1
100
AcDbCircle
6
CONTINUOUS
62
5
10
174.119105
20
216.519726
40
0.600000
100
AcDbArc
50
179.999998
51
-89.999999
0
LINE
5
146
100
AcDbEntity
8
1
100
AcDbLine
6
CONTINUOUS
62
5
10
174.119105
20
215.919726
11
174.919105
21
215.919726
0
ARC
5
147
100
AcDbEntity
8
1
100
AcDbCircle
6
CONTINUOUS
62
5
10
186.300000
20
213.241824
40
0.500000
100
AcDbArc
50
-89.999999
51
61.641340
0
LINE
5
148
100
AcDbEntity
8
1
100
AcDbLine
6
CONTINUOUS
62
5
10
186.300000
20
212.741824
11
185.500000
21
212.741824
0
POLYLINE
5
149
100
AcDbEntity
8
1
6
CONTINUOUS
62
5
100
AcDb2dPolyline
66
1
10
0.0
20
0.0
30
0.0
70
0
0
VERTEX
5
14a
100
AcDbEntity
8
1
100
AcDbVertex
100
AcDb2dVertex
62
5
10
184.500000
20
214.741824
0
VERTEX
5
14b
100
AcDbEntity
8
1
100
AcDbVertex
100
AcDb2dVertex
62
5
10
185.000000
20
214.241824
0
VERTEX
5
14c
100
AcDbEntity
8
1
100
AcDbVertex
100
AcDb2dVertex
62
5
10
185.500000
20
214.241824
0
VERTEX
5
14d
100
AcDbEntity
8
1
100
AcDbVertex
100
AcDb2dVertex
62
5
10
186.537495
20
213.681820
0
SEQEND
5
14e
100
AcDbEntity
8
1
0
POLYLINE
5
14f
100
AcDbEntity
8
1
6
CONTINUOUS
62
5
100
AcDb2dPolyline
66
1
10
0.0
20
0.0
30
0.0
70
0
0
VERTEX
5
150
100
AcDbEntity
8
1
100
AcDbVertex
100
AcDb2dVertex
62
5
10
184.900000
20
218.296238
0
VERTEX
5
151
100
AcDbEntity
8
1
100
AcDbVertex
100
AcDb2dVertex
62
5
10
184.900000
20
215.441824
0
VERTEX
5
152
100
AcDbEntity
8
1
100
AcDbVertex
100
AcDb2dVertex
62
5
10
184.500000
20
215.441824
0
SEQEND
5
153
100
AcDbEntity
8
1
0
ARC
5
154
100
AcDbEntity
8
1
100
AcDbCircle
6
CONTINUOUS
62
5
10
186.500000
20
210.591824
40
0.300000
100
AcDbArc
50
0.000000
51
89.999999
0
LINE
5
155
100
AcDbEntity
8
1
100
AcDbLine
6
CONTINUOUS
62
5
10
186.800000
20
210.591824
11
186.800000
21
203.891824
0
ARC
5
156
100
AcDbEntity
8
1
100
AcDbCircle
6
CONTINUOUS
62
5
10
186.500000
20
203.891824
40
0.300000
100
AcDbArc
50
-89.999999
51
0.000000
0
LINE
5
157
100
AcDbEntity
8
1
100
AcDbLine
6
CONTINUOUS
62
5
10
186.500000
20
203.591824
11
186.300000
21
203.591824
0
LINE
5
158
100
AcDbEntity
8
1
100
AcDbLine
6
CONTINUOUS
62
5
10
186.300000
20
210.891824
11
186.500000
21
210.891824
0
ARC
5
159
100
AcDbEntity
8
1
100
AcDbCircle
6
CONTINUOUS
62
5
10
178.426890
20
209.052758
40
0.695217
100
AcDbArc
50
0.000114
51
179.999884
0
LINE
5
15a
100
AcDbEntity
8
1
100
AcDbLine
6
CONTINUOUS
62
5
10
179.122107
20
209.052759
11
179.122107
21
205.464374
0
ARC
5
15b
100
AcDbEntity
8
1
100
AcDbCircle
6
CONTINUOUS
62
5
10
178.427699
20
205.430889
40
0.695215
100
AcDbArc
50
-179.999998
51
2.760718
0
LINE
5
15c
100
AcDbEntity
8
1
100
AcDbLine
6
CONTINUOUS
62
5
10
177.732484
20
205.430889
11
177.731674
21
209.052759
0
ARC
5
15d
100
AcDbEntity
8
1
100
AcDbCircle
6
CONTINUOUS
62
5
10
178.427702
20
205.430891
40
1.589067
100
AcDbArc
50
-179.999914
51
-0.000084
0
LINE
5
15e
100
AcDbEntity
8
1
100
AcDbLine
6
CONTINUOUS
62
5
10
176.838634
20
205.430889
11
176.838634
21
209.052759
0
ARC
5
15f
100
AcDbEntity
8
1
100
AcDbCircle
6
CONTINUOUS
62
5
10
178.427699
20
209.052759
40
1.589065
100
AcDbArc
50
0.000000
51
-179.999998
0
LINE
5
160
100
AcDbEntity
8
1
100
AcDbLine
6
CONTINUOUS
62
5
10
180.016764
20
209.052759
11
180.016769
21
205.430889
0
LINE
5
161
100
AcDbEntity
8
1
100
AcDbLine
6
CONTINUOUS
62
5
10
190.500000
20
211.790156
11
190.500000
21
202.693493
0
POLYLINE
5
162
100
AcDbEntity
8
1
6
CONTINUOUS
62
5
100
AcDb2dPolyline
66
1
10
0.0
20
0.0
30
0.0
70
1
0
VERTEX
5
163
100
AcDbEntity
8
1
100
AcDbVertex
100
AcDb2dVertex
62
5
10
186.500000
20
212.783566
0
VERTEX
5
164
100
AcDbEntity
8
1
100
AcDbVertex
100
AcDb2dVertex
62
5
10
186.500000
20
210.891824
0
SEQEND
5
165
100
AcDbEntity
8
1
0
ARC
5
166
100
AcDbEntity
8
1
100
AcDbCircle
6
CONTINUOUS
62
5
10
190.500000
20
216.941824
40
1.000000
100
AcDbArc
50
0.000000
51
89.999999
0
LINE
5
167
100
AcDbEntity
8
1
100
AcDbLine
6
CONTINUOUS
62
5
10
190.500000
20
217.941824
11
189.500000
21
217.941824
0
ARC
5
168
100
AcDbEntity
8
1
100
AcDbCircle
6
CONTINUOUS
62
5
10
189.500000
20
217.441824
40
0.500000
100
AcDbArc
50
89.999999
51
179.999998
0
LINE
5
169
100
AcDbEntity
8
1
100
AcDbLine
6
CONTINUOUS
62
5
10
189.000000
20
217.441824
11
189.000000
21
217.141970
0
LINE
5
16a
100
AcDbEntity
8
1
100
AcDbLine
6
CONTINUOUS
62
5
10
191.500000
20
215.441824
11
191.500000
21
216.941824
0
ARC
5
16b
100
AcDbEntity
8
1
100
AcDbCircle
6
CONTINUOUS
62
5
10
188.700000
20
217.741824
40
0.500000
100
AcDbArc
50
89.999999
51
179.999998
0
LINE
5
16c
100
AcDbEntity
8
1
100
AcDbLine
6
CONTINUOUS
62
5
10
188.700000
20
218.241824
11
190.500000
21
218.241824
0
ARC
5
16d
100
AcDbEntity
8
1
100
AcDbCircle
6
CONTINUOUS
62
5
10
190.500000
20
216.741824
40
1.500000
100
AcDbArc
50
0.000000
51
89.999999
0
LINE
5
16e
100
AcDbEntity
8
1
100
AcDbLine
6
CONTINUOUS
62
5
10
192.000000
20
216.741824
11
192.000000
21
215.441824
0
LINE
5
16f
100
AcDbEntity
8
1
100
AcDbLine
6
CONTINUOUS
62
5
10
188.200000
20
217.341824
11
188.200000
21
217.741824
0
LINE
5
170
100
AcDbEntity
8
1
100
AcDbLine
6
CONTINUOUS
62
5
10
184.500000
20
197.141824
11
184.900000
21
197.141824
0
POLYLINE
5
171
100
AcDbEntity
8
1
6
CONTINUOUS
62
5
100
AcDb2dPolyline
66
1
10
0.0
20
0.0
30
0.0
70
0
0
VERTEX
5
172
100
AcDbEntity
8
1
100
AcDbVertex
100
AcDb2dVertex
62
5
10
184.500000
20
199.041824
0
VERTEX
5
173
100
AcDbEntity
8
1
100
AcDbVertex
100
AcDb2dVertex
62
5
10
184.900000
20
199.041824
0
VERTEX
5
174
100
AcDbEntity
8
1
100
AcDbVertex
100
AcDb2dVertex
62
5
10
184.900000
20
196.187412
0
SEQEND
5
175
100
AcDbEntity
8
1
0
LINE
5
176
100
AcDbEntity
8
1
100
AcDbLine
6
CONTINUOUS
62
5
10
189.000000
20
197.141824
11
188.000000
21
197.141824
0
ARC
5
177
100
AcDbEntity
8
1
100
AcDbCircle
6
CONTINUOUS
62
5
10
189.500000
20
197.041824
40
0.500000
100
AcDbArc
50
-179.999998
51
-89.999999
0
LINE
5
178
100
AcDbEntity
8
1
100
AcDbLine
6
CONTINUOUS
62
5
10
189.000000
20
197.041824
11
189.000000
21
197.341679
0
POLYLINE
5
179
100
AcDbEntity
8
0
6
CONTINUOUS
62
5
100
AcDb2dPolyline
66
1
10
0.0
20
0.0
30
0.0
70
1
0
VERTEX
5
17a
100
AcDbEntity
8
0
100
AcDbVertex
100
AcDb2dVertex
62
5
10
170.702013
20
201.341590
0
VERTEX
5
17b
100
AcDbEntity
8
0
100
AcDbVertex
100
AcDb2dVertex
62
5
10
170.645033
20
201.287459
0
VERTEX
5
17c
100
AcDbEntity
8
0
100
AcDbVertex
100
AcDb2dVertex
62
5
10
170.610845
20
201.227630
0
VERTEX
5
17d
100
AcDbEntity
8
0
100
AcDbVertex
100
AcDb2dVertex
62
5
10
170.599449
20
201.162103
0
VERTEX
5
17e
100
AcDbEntity
8
0
100
AcDbVertex
100
AcDb2dVertex
62
5
10
170.610845
20
201.086129
0
VERTEX
5
17f
100
AcDbEntity
8
0
100
AcDbVertex
100
AcDb2dVertex
62
5
10
170.645033
20
201.017753
0
VERTEX
5
180
100
AcDbEntity
8
0
100
AcDbVertex
100
AcDb2dVertex
62
5
10
170.702013
20
200.956974
0
VERTEX
5
181
100
AcDbEntity
8
0
100
AcDbVertex
100
AcDb2dVertex
62
5
10
170.781786
20
200.914239
0
VERTEX
5
182
100
AcDbEntity
8
0
100
AcDbVertex
100
AcDb2dVertex
62
5
10
170.884350
20
200.888598
0
VERTEX
5
183
100
AcDbEntity
8
0
100
AcDbVertex
100
AcDb2dVertex
62
5
10
171.009706
20
200.880051
0
VERTEX
5
184
100
AcDbEntity
8
0
100
AcDbVertex
100
AcDb2dVertex
62
5
10
171.126515
20
200.891447
0
VERTEX
5
185
100
AcDbEntity
8
0
100
AcDbVertex
100
AcDb2dVertex
62
5
10
171.226231
20
200.925635
0
VERTEX
5
186
100
AcDbEntity
8
0
100
AcDbVertex
100
AcDb2dVertex
62
5
10
171.308852
20
200.982616
0
VERTEX
5
187
100
AcDbEntity
8
0
100
AcDbVertex
100
AcDb2dVertex
62
5
10
171.355481
20
201.057639
0
VERTEX
5
188
100
AcDbEntity
8
0
100
AcDbVertex
100
AcDb2dVertex
62
5
10
171.383458
20
201.157355
0
VERTEX
5
189
100
AcDbEntity
8
0
100
AcDbVertex
100
AcDb2dVertex
62
5
10
171.392784
20
201.281761
0
VERTEX
5
18a
100
AcDbEntity
8
0
100
AcDbVertex
100
AcDb2dVertex
62
5
10
171.215253
20
201.352987
0
VERTEX
5
18b
100
AcDbEntity
8
0
100
AcDbVertex
100
AcDb2dVertex
62
5
10
171.061919
20
201.395722
0
VERTEX
5
18c
100
AcDbEntity
8
0
100
AcDbVertex
100
AcDb2dVertex
62
5
10
170.932783
20
201.409967
0
VERTEX
5
18d
100
AcDbEntity
8
0
100
AcDbVertex
100
AcDb2dVertex
62
5
10
170.850162
20
201.402369
0
VERTEX
5
18e
100
AcDbEntity
8
0
100
AcDbVertex
100
AcDb2dVertex
62
5
10
170.773239
20
201.379577
0
SEQEND
5
18f
100
AcDbEntity
8
0
0
ARC
5
190
100
AcDbEntity
8
1
100
AcDbCircle
6
CONTINUOUS
62
5
10
186.300000
20
201.241824
40
0.500000
100
AcDbArc
50
-61.641340
51
89.999999
0
POLYLINE
5
191
100
AcDbEntity
8
1
6
CONTINUOUS
62
5
100
AcDb2dPolyline
66
1
10
0.0
20
0.0
30
0.0
70
0
0
VERTEX
5
192
100
AcDbEntity
8
1
100
AcDbVertex
100
AcDb2dVertex
62
5
10
186.537495
20
200.801828
0
VERTEX
5
193
100
AcDbEntity
8
1
100
AcDbVertex
100
AcDb2dVertex
62
5
10
185.500000
20
200.241824
0
VERTEX
5
194
100
AcDbEntity
8
1
100
AcDbVertex
100
AcDb2dVertex
62
5
10
185.000000
20
200.241824
0
VERTEX
5
195
100
AcDbEntity
8
1
100
AcDbVertex
100
AcDb2dVertex
62
5
10
184.500000
20
199.741824
0
SEQEND
5
196
100
AcDbEntity
8
1
0
LINE
5
197
100
AcDbEntity
8
1
100
AcDbLine
6
CONTINUOUS
62
5
10
185.500000
20
201.741824
11
186.300000
21
201.741824
0
ARC
5
198
100
AcDbEntity
8
1
100
AcDbCircle
6
CONTINUOUS
62
5
10
188.700000
20
197.041824
40
0.500000
100
AcDbArc
50
179.999998
51
-89.999999
0
LINE
5
199
100
AcDbEntity
8
1
100
AcDbLine
6
CONTINUOUS
62
5
10
188.700000
20
196.541824
11
190.500000
21
196.541824
0
ARC
5
19a
100
AcDbEntity
8
1
100
AcDbCircle
6
CONTINUOUS
62
5
10
190.500000
20
197.541824
40
1.000000
100
AcDbArc
50
-89.999999
51
0.000000
0
LINE
5
19b
100
AcDbEntity
8
1
100
AcDbLine
6
CONTINUOUS
62
5
10
191.500000
20
197.541824
11
191.500000
21
199.041824
0
LINE
5
19c
100
AcDbEntity
8
1
100
AcDbLine
6
CONTINUOUS
62
5
10
188.200000
20
197.141824
11
188.200000
21
197.041824
0
ARC
5
19d
100
AcDbEntity
8
1
100
AcDbCircle
6
CONTINUOUS
62
5
10
190.500000
20
197.741824
40
1.500000
100
AcDbArc
50
-89.999999
51
0.000000
0
LINE
5
19e
100
AcDbEntity
8
1
100
AcDbLine
6
CONTINUOUS
62
5
10
190.500000
20
196.241824
11
188.700000
21
196.241824
0
ARC
5
19f
100
AcDbEntity
8
1
100
AcDbCircle
6
CONTINUOUS
62
5
10
188.700000
20
196.741824
40
0.500000
100
AcDbArc
50
179.999998
51
-89.999999
0
LINE
5
1a0
100
AcDbEntity
8
1
100
AcDbLine
6
CONTINUOUS
62
5
10
188.200000
20
196.741824
11
188.200000
21
197.141824
0
LINE
5
1a1
100
AcDbEntity
8
1
100
AcDbLine
6
CONTINUOUS
62
5
10
192.000000
20
199.041824
11
192.000000
21
197.741824
0
POLYLINE
5
1a2
100
AcDbEntity
8
0
6
CONTINUOUS
62
5
100
AcDb2dPolyline
66
1
10
0.0
20
0.0
30
0.0
70
1
0
VERTEX
5
1a3
100
AcDbEntity
8
0
100
AcDbVertex
100
AcDb2dVertex
62
5
10
174.186892
20
202.026302
0
VERTEX
5
1a4
100
AcDbEntity
8
0
100
AcDbVertex
100
AcDb2dVertex
62
5
10
174.147006
20
202.117470
0
VERTEX
5
1a5
100
AcDbEntity
8
0
100
AcDbVertex
100
AcDb2dVertex
62
5
10
174.103322
20
202.204840
0
VERTEX
5
1a6
100
AcDbEntity
8
0
100
AcDbVertex
100
AcDb2dVertex
62
5
10
174.097624
20
202.230481
0
VERTEX
5
1a7
100
AcDbEntity
8
0
100
AcDbVertex
100
AcDb2dVertex
62
5
10
174.103322
20
202.250424
0
VERTEX
5
1a8
100
AcDbEntity
8
0
100
AcDbVertex
100
AcDb2dVertex
62
5
10
174.120416
20
202.264669
0
VERTEX
5
1a9
100
AcDbEntity
8
0
100
AcDbVertex
100
AcDb2dVertex
62
5
10
174.147006
20
202.270367
0
VERTEX
5
1aa
100
AcDbEntity
8
0
100
AcDbVertex
100
AcDb2dVertex
62
5
10
174.169798
20
202.264669
0
VERTEX
5
1ab
100
AcDbEntity
8
0
100
AcDbVertex
100
AcDb2dVertex
62
5
10
174.188792
20
202.247575
0
VERTEX
5
1ac
100
AcDbEntity
8
0
100
AcDbVertex
100
AcDb2dVertex
62
5
10
174.253369
20
202.139313
0
VERTEX
5
1ad
100
AcDbEntity
8
0
100
AcDbVertex
100
AcDb2dVertex
62
5
10
174.298953
20
202.042446
0
VERTEX
5
1ae
100
AcDbEntity
8
0
100
AcDbVertex
100
AcDb2dVertex
62
5
10
174.325544
20
201.956976
0
VERTEX
5
1af
100
AcDbEntity
8
0
100
AcDbVertex
100
AcDb2dVertex
62
5
10
174.325544
20
201.931335
0
VERTEX
5
1b0
100
AcDbEntity
8
0
100
AcDbVertex
100
AcDb2dVertex
62
5
10
174.314148
20
201.911392
0
VERTEX
5
1b1
100
AcDbEntity
8
0
100
AcDbVertex
100
AcDb2dVertex
62
5
10
174.291356
20
201.897147
0
VERTEX
5
1b2
100
AcDbEntity
8
0
100
AcDbVertex
100
AcDb2dVertex
62
5
10
174.260967
20
201.897147
0
VERTEX
5
1b3
100
AcDbEntity
8
0
100
AcDbVertex
100
AcDb2dVertex
62
5
10
174.238175
20
201.908543
0
VERTEX
5
1b4
100
AcDbEntity
8
0
100
AcDbVertex
100
AcDb2dVertex
62
5
10
174.222980
20
201.931335
0
SEQEND
5
1b5
100
AcDbEntity
8
0
0
POLYLINE
5
1b6
100
AcDbEntity
8
0
6
CONTINUOUS
62
5
100
AcDb2dPolyline
66
1
10
0.0
20
0.0
30
0.0
70
1
0
VERTEX
5
1b7
100
AcDbEntity
8
0
100
AcDbVertex
100
AcDb2dVertex
62
5
10
173.973217
20
201.957926
0
VERTEX
5
1b8
100
AcDbEntity
8
0
100
AcDbVertex
100
AcDb2dVertex
62
5
10
173.933331
20
202.049094
0
VERTEX
5
1b9
100
AcDbEntity
8
0
100
AcDbVertex
100
AcDb2dVertex
62
5
10
173.889646
20
202.136464
0
VERTEX
5
1ba
100
AcDbEntity
8
0
100
AcDbVertex
100
AcDb2dVertex
62
5
10
173.883948
20
202.162105
0
VERTEX
5
1bb
100
AcDbEntity
8
0
100
AcDbVertex
100
AcDb2dVertex
62
5
10
173.889646
20
202.182048
0
VERTEX
5
1bc
100
AcDbEntity
8
0
100
AcDbVertex
100
AcDb2dVertex
62
5
10
173.906740
20
202.196293
0
VERTEX
5
1bd
100
AcDbEntity
8
0
100
AcDbVertex
100
AcDb2dVertex
62
5
10
173.933331
20
202.201991
0
VERTEX
5
1be
100
AcDbEntity
8
0
100
AcDbVertex
100
AcDb2dVertex
62
5
10
173.956123
20
202.196293
0
VERTEX
5
1bf
100
AcDbEntity
8
0
100
AcDbVertex
100
AcDb2dVertex
62
5
10
173.975116
20
202.179199
0
VERTEX
5
1c0
100
AcDbEntity
8
0
100
AcDbVertex
100
AcDb2dVertex
62
5
10
174.039694
20
202.070936
0
VERTEX
5
1c1
100
AcDbEntity
8
0
100
AcDbVertex
100
AcDb2dVertex
62
5
10
174.085278
20
201.974070
0
VERTEX
5
1c2
100
AcDbEntity
8
0
100
AcDbVertex
100
AcDb2dVertex
62
5
10
174.111869
20
201.888600
0
VERTEX
5
1c3
100
AcDbEntity
8
0
100
AcDbVertex
100
AcDb2dVertex
62
5
10
174.111869
20
201.862959
0
VERTEX
5
1c4
100
AcDbEntity
8
0
100
AcDbVertex
100
AcDb2dVertex
62
5
10
174.100473
20
201.843016
0
VERTEX
5
1c5
100
AcDbEntity
8
0
100
AcDbVertex
100
AcDb2dVertex
62
5
10
174.077680
20
201.828771
0
VERTEX
5
1c6
100
AcDbEntity
8
0
100
AcDbVertex
100
AcDb2dVertex
62
5
10
174.047291
20
201.828771
0
VERTEX
5
1c7
100
AcDbEntity
8
0
100
AcDbVertex
100
AcDb2dVertex
62
5
10
174.024499
20
201.840167
0
VERTEX
5
1c8
100
AcDbEntity
8
0
100
AcDbVertex
100
AcDb2dVertex
62
5
10
174.009304
20
201.862959
0
SEQEND
5
1c9
100
AcDbEntity
8
0
0
LINE
5
1ca
100
AcDbEntity
8
1
100
AcDbLine
6
CONTINUOUS
62
5
10
186.500000
20
203.591824
11
186.500000
21
201.700082
0
POLYLINE
5
1cb
100
AcDbEntity
8
0
6
CONTINUOUS
62
5
100
AcDb2dPolyline
66
1
10
0.0
20
0.0
30
0.0
70
1
0
VERTEX
5
1cc
100
AcDbEntity
8
0
100
AcDbVertex
100
AcDb2dVertex
62
5
10
172.735798
20
202.307404
0
VERTEX
5
1cd
100
AcDbEntity
8
0
100
AcDbVertex
100
AcDb2dVertex
62
5
10
172.666472
20
202.301706
0
VERTEX
5
1ce
100
AcDbEntity
8
0
100
AcDbVertex
100
AcDb2dVertex
62
5
10
172.595247
20
202.296008
0
VERTEX
5
1cf
100
AcDbEntity
8
0
100
AcDbVertex
100
AcDb2dVertex
62
5
10
172.522122
20
202.290310
0
VERTEX
5
1d0
100
AcDbEntity
8
0
100
AcDbVertex
100
AcDb2dVertex
62
5
10
172.473689
20
202.299807
0
VERTEX
5
1d1
100
AcDbEntity
8
0
100
AcDbVertex
100
AcDb2dVertex
62
5
10
172.442350
20
202.328297
0
VERTEX
5
1d2
100
AcDbEntity
8
0
100
AcDbVertex
100
AcDb2dVertex
62
5
10
172.428105
20
202.375780
0
VERTEX
5
1d3
100
AcDbEntity
8
0
100
AcDbVertex
100
AcDb2dVertex
62
5
10
172.442350
20
202.423264
0
VERTEX
5
1d4
100
AcDbEntity
8
0
100
AcDbVertex
100
AcDb2dVertex
62
5
10
172.473689
20
202.451754
0
VERTEX
5
1d5
100
AcDbEntity
8
0
100
AcDbVertex
100
AcDb2dVertex
62
5
10
172.522122
20
202.461250
0
VERTEX
5
1d6
100
AcDbEntity
8
0
100
AcDbVertex
100
AcDb2dVertex
62
5
10
172.994108
20
202.479294
0
VERTEX
5
1d7
100
AcDbEntity
8
0
100
AcDbVertex
100
AcDb2dVertex
62
5
10
173.407214
20
202.499237
0
VERTEX
5
1d8
100
AcDbEntity
8
0
100
AcDbVertex
100
AcDb2dVertex
62
5
10
173.761441
20
202.521080
0
VERTEX
5
1d9
100
AcDbEntity
8
0
100
AcDbVertex
100
AcDb2dVertex
62
5
10
173.852609
20
202.526778
0
VERTEX
5
1da
100
AcDbEntity
8
0
100
AcDbVertex
100
AcDb2dVertex
62
5
10
173.943777
20
202.532476
0
VERTEX
5
1db
100
AcDbEntity
8
0
100
AcDbVertex
100
AcDb2dVertex
62
5
10
174.034945
20
202.538174
0
VERTEX
5
1dc
100
AcDbEntity
8
0
100
AcDbVertex
100
AcDb2dVertex
62
5
10
174.274262
20
202.555268
0
VERTEX
5
1dd
100
AcDbEntity
8
0
100
AcDbVertex
100
AcDb2dVertex
62
5
10
174.317947
20
202.541972
0
VERTEX
5
1de
100
AcDbEntity
8
0
100
AcDbVertex
100
AcDb2dVertex
62
5
10
174.346437
20
202.513482
0
VERTEX
5
1df
100
AcDbEntity
8
0
100
AcDbVertex
100
AcDb2dVertex
62
5
10
174.359732
20
202.469797
0
VERTEX
5
1e0
100
AcDbEntity
8
0
100
AcDbVertex
100
AcDb2dVertex
62
5
10
174.350236
20
202.426113
0
VERTEX
5
1e1
100
AcDbEntity
8
0
100
AcDbVertex
100
AcDb2dVertex
62
5
10
174.321745
20
202.397623
0
VERTEX
5
1e2
100
AcDbEntity
8
0
100
AcDbVertex
100
AcDb2dVertex
62
5
10
174.274262
20
202.384327
0
VERTEX
5
1e3
100
AcDbEntity
8
0
100
AcDbVertex
100
AcDb2dVertex
62
5
10
174.137510
20
202.384327
0
VERTEX
5
1e4
100
AcDbEntity
8
0
100
AcDbVertex
100
AcDb2dVertex
62
5
10
173.889646
20
202.349189
0
VERTEX
5
1e5
100
AcDbEntity
8
0
100
AcDbVertex
100
AcDb2dVertex
62
5
10
173.658876
20
202.255172
0
VERTEX
5
1e6
100
AcDbEntity
8
0
100
AcDbVertex
100
AcDb2dVertex
62
5
10
173.445201
20
202.102275
0
VERTEX
5
1e7
100
AcDbEntity
8
0
100
AcDbVertex
100
AcDb2dVertex
62
5
10
173.312247
20
201.939882
0
VERTEX
5
1e8
100
AcDbEntity
8
0
100
AcDbVertex
100
AcDb2dVertex
62
5
10
173.232475
20
201.771791
0
VERTEX
5
1e9
100
AcDbEntity
8
0
100
AcDbVertex
100
AcDb2dVertex
62
5
10
173.205884
20
201.598001
0
VERTEX
5
1ea
100
AcDbEntity
8
0
100
AcDbVertex
100
AcDb2dVertex
62
5
10
173.224878
20
201.441306
0
VERTEX
5
1eb
100
AcDbEntity
8
0
100
AcDbVertex
100
AcDb2dVertex
62
5
10
173.281858
20
201.301704
0
VERTEX
5
1ec
100
AcDbEntity
8
0
100
AcDbVertex
100
AcDb2dVertex
62
5
10
173.376825
20
201.179197
0
VERTEX
5
1ed
100
AcDbEntity
8
0
100
AcDbVertex
100
AcDb2dVertex
62
5
10
173.551564
20
201.065237
0
VERTEX
5
1ee
100
AcDbEntity
8
0
100
AcDbVertex
100
AcDb2dVertex
62
5
10
173.779484
20
200.996861
0
VERTEX
5
1ef
100
AcDbEntity
8
0
100
AcDbVertex
100
AcDb2dVertex
62
5
10
174.060586
20
200.974069
0
VERTEX
5
1f0
100
AcDbEntity
8
0
100
AcDbVertex
100
AcDb2dVertex
62
5
10
174.104271
20
200.960773
0
VERTEX
5
1f1
100
AcDbEntity
8
0
100
AcDbVertex
100
AcDb2dVertex
62
5
10
174.132761
20
200.932283
0
VERTEX
5
1f2
100
AcDbEntity
8
0
100
AcDbVertex
100
AcDb2dVertex
62
5
10
174.146057
20
200.888598
0
VERTEX
5
1f3
100
AcDbEntity
8
0
100
AcDbVertex
100
AcDb2dVertex
62
5
10
174.132761
20
200.844914
0
VERTEX
5
1f4
100
AcDbEntity
8
0
100
AcDbVertex
100
AcDb2dVertex
62
5
10
174.104271
20
200.816423
0
VERTEX
5
1f5
100
AcDbEntity
8
0
100
AcDbVertex
100
AcDb2dVertex
62
5
10
174.060586
20
200.803128
0
VERTEX
5
1f6
100
AcDbEntity
8
0
100
AcDbVertex
100
AcDb2dVertex
62
5
10
173.767139
20
200.829719
0
VERTEX
5
1f7
100
AcDbEntity
8
0
100
AcDbVertex
100
AcDb2dVertex
62
5
10
173.513577
20
200.909491
0
VERTEX
5
1f8
100
AcDbEntity
8
0
100
AcDbVertex
100
AcDb2dVertex
62
5
10
173.299901
20
201.042445
0
VERTEX
5
1f9
100
AcDbEntity
8
0
100
AcDbVertex
100
AcDb2dVertex
62
5
10
173.166948
20
201.201039
0
VERTEX
5
1fa
100
AcDbEntity
8
0
100
AcDbVertex
100
AcDb2dVertex
62
5
10
173.087176
20
201.380527
0
VERTEX
5
1fb
100
AcDbEntity
8
0
100
AcDbVertex
100
AcDb2dVertex
62
5
10
173.060585
20
201.580907
0
VERTEX
5
1fc
100
AcDbEntity
8
0
100
AcDbVertex
100
AcDb2dVertex
62
5
10
173.084327
20
201.759445
0
VERTEX
5
1fd
100
AcDbEntity
8
0
100
AcDbVertex
100
AcDb2dVertex
62
5
10
173.155552
20
201.930385
0
VERTEX
5
1fe
100
AcDbEntity
8
0
100
AcDbVertex
100
AcDb2dVertex
62
5
10
173.274260
20
202.093728
0
VERTEX
5
1ff
100
AcDbEntity
8
0
100
AcDbVertex
100
AcDb2dVertex
62
5
10
173.385372
20
202.195343
0
VERTEX
5
200
100
AcDbEntity
8
0
100
AcDbVertex
100
AcDb2dVertex
62
5
10
173.524973
20
202.295058
0
VERTEX
5
201
100
AcDbEntity
8
0
100
AcDbVertex
100
AcDb2dVertex
62
5
10
173.693064
20
202.392874
0
VERTEX
5
202
100
AcDbEntity
8
0
100
AcDbVertex
100
AcDb2dVertex
62
5
10
173.335989
20
202.360585
0
VERTEX
5
203
100
AcDbEntity
8
0
100
AcDbVertex
100
AcDb2dVertex
62
5
10
173.016900
20
202.332095
0
SEQEND
5
204
100
AcDbEntity
8
0
0
LINE
5
205
100
AcDbEntity
8
1
100
AcDbLine
6
CONTINUOUS
62
5
10
186.300000
20
212.741824
11
186.300000
21
201.741824
0
LINE
5
206
100
AcDbEntity
8
1
100
AcDbLine
6
CONTINUOUS
62
5
10
192.000000
20
212.541824
11
192.000000
21
201.941824
0
ARC
5
207
100
AcDbEntity
8
1
100
AcDbCircle
6
CONTINUOUS
62
5
10
185.000000
20
201.241824
40
0.500000
100
AcDbArc
50
-89.999999
51
0.000000
0
LINE
5
208
100
AcDbEntity
8
1
100
AcDbLine
6
CONTINUOUS
62
5
10
185.000000
20
200.741824
11
184.500000
21
200.741824
0
LINE
5
209
100
AcDbEntity
8
1
100
AcDbLine
6
CONTINUOUS
62
5
10
184.500000
20
213.741824
11
185.000000
21
213.741824
0
ARC
5
20a
100
AcDbEntity
8
1
100
AcDbCircle
6
CONTINUOUS
62
5
10
185.000000
20
213.241824
40
0.500000
100
AcDbArc
50
0.000000
51
89.999999
0
LINE
5
20b
100
AcDbEntity
8
1
100
AcDbLine
6
CONTINUOUS
62
5
10
185.500000
20
213.241824
11
185.500000
21
201.241824
0
ARC
5
20c
100
AcDbEntity
8
1
100
AcDbCircle
6
CONTINUOUS
62
5
10
189.312876
20
198.342541
40
1.000908
100
AcDbArc
50
-89.999999
51
-7.748461
0
ARC
5
20d
100
AcDbEntity
8
1
100
AcDbCircle
6
CONTINUOUS
62
5
10
191.290444
20
198.042257
40
0.999567
100
AcDbArc
50
89.991039
51
170.478977
0
LINE
5
20e
100
AcDbEntity
8
1
100
AcDbLine
6
CONTINUOUS
62
5
10
191.290600
20
199.041824
11
192.000000
21
199.041824
0
ARC
5
20f
100
AcDbEntity
8
1
100
AcDbCircle
6
CONTINUOUS
62
5
10
192.000000
20
199.541824
40
0.500000
100
AcDbArc
50
-89.999999
51
0.000000
0
LINE
5
210
100
AcDbEntity
8
1
100
AcDbLine
6
CONTINUOUS
62
5
10
192.500000
20
199.541824
11
192.500000
21
201.441824
0
ARC
5
211
100
AcDbEntity
8
1
100
AcDbCircle
6
CONTINUOUS
62
5
10
192.000000
20
201.441824
40
0.500000
100
AcDbArc
50
-0.000000
51
89.999999
0
LINE
5
212
100
AcDbEntity
8
1
100
AcDbLine
6
CONTINUOUS
62
5
10
192.000000
20
201.941824
11
191.800000
21
201.941824
0
ARC
5
213
100
AcDbEntity
8
1
100
AcDbCircle
6
CONTINUOUS
62
5
10
191.800000
20
203.441824
40
1.500000
100
AcDbArc
50
-179.999998
51
-89.999999
0
LINE
5
214
100
AcDbEntity
8
1
100
AcDbLine
6
CONTINUOUS
62
5
10
190.300000
20
203.441824
11
190.300000
21
211.041824
0
ARC
5
215
100
AcDbEntity
8
1
100
AcDbCircle
6
CONTINUOUS
62
5
10
191.800000
20
211.041824
40
1.500000
100
AcDbArc
50
89.999999
51
179.999998
0
LINE
5
216
100
AcDbEntity
8
1
100
AcDbLine
6
CONTINUOUS
62
5
10
191.800000
20
212.541824
11
192.000000
21
212.541824
0
ARC
5
217
100
AcDbEntity
8
1
100
AcDbCircle
6
CONTINUOUS
62
5
10
192.000000
20
213.041824
40
0.500000
100
AcDbArc
50
-89.999999
51
0.000000
0
LINE
5
218
100
AcDbEntity
8
1
100
AcDbLine
6
CONTINUOUS
62
5
10
192.500000
20
213.041824
11
192.500000
21
214.941824
0
ARC
5
219
100
AcDbEntity
8
1
100
AcDbCircle
6
CONTINUOUS
62
5
10
192.000000
20
214.941824
40
0.500000
100
AcDbArc
50
-0.000000
51
89.999999
0
LINE
5
21a
100
AcDbEntity
8
1
100
AcDbLine
6
CONTINUOUS
62
5
10
192.000000
20
215.441824
11
191.290600
21
215.441824
0
ARC
5
21b
100
AcDbEntity
8
1
100
AcDbCircle
6
CONTINUOUS
62
5
10
191.290439
20
216.441377
40
0.999553
100
AcDbArc
50
-170.493353
51
-89.990749
0
ARC
5
21c
100
AcDbEntity
8
1
100
AcDbCircle
6
CONTINUOUS
62
5
10
189.312876
20
216.141107
40
1.000908
100
AcDbArc
50
7.762041
51
89.999999
0
POLYLINE
5
21d
100
AcDbEntity
8
1
6
CONTINUOUS
62
5
100
AcDb2dPolyline
66
1
10
0.0
20
0.0
30
0.0
70
0
0
VERTEX
5
21e
100
AcDbEntity
8
1
100
AcDbVertex
100
AcDb2dVertex
62
5
10
189.312876
20
217.142015
0
VERTEX
5
21f
100
AcDbEntity
8
1
100
AcDbVertex
100
AcDb2dVertex
62
5
10
188.000000
20
217.141824
0
VERTEX
5
220
100
AcDbEntity
8
1
100
AcDbVertex
100
AcDb2dVertex
62
5
10
188.000000
20
218.297166
0
VERTEX
5
221
100
AcDbEntity
8
1
100
AcDbVertex
100
AcDb2dVertex
62
5
10
184.500000
20
218.296118
0
VERTEX
5
222
100
AcDbEntity
8
1
100
AcDbVertex
100
AcDb2dVertex
62
5
10
184.500000
20
217.496118
0
VERTEX
5
223
100
AcDbEntity
8
1
100
AcDbVertex
100
AcDb2dVertex
62
5
10
184.900000
20
217.496238
0
SEQEND
5
224
100
AcDbEntity
8
1
0
POLYLINE
5
225
100
AcDbEntity
8
1
6
CONTINUOUS
62
5
100
AcDb2dPolyline
66
1
10
0.0
20
0.0
30
0.0
70
0
0
VERTEX
5
226
100
AcDbEntity
8
1
100
AcDbVertex
100
AcDb2dVertex
62
5
10
184.900000
20
196.991807
0
VERTEX
5
227
100
AcDbEntity
8
1
100
AcDbVertex
100
AcDb2dVertex
62
5
10
184.500000
20
196.991807
0
VERTEX
5
228
100
AcDbEntity
8
1
100
AcDbVertex
100
AcDb2dVertex
62
5
10
184.500000
20
196.187532
0
VERTEX
5
229
100
AcDbEntity
8
1
100
AcDbVertex
100
AcDb2dVertex
62
5
10
188.000000
20
196.186484
0
VERTEX
5
22a
100
AcDbEntity
8
1
100
AcDbVertex
100
AcDb2dVertex
62
5
10
188.000000
20
197.341824
0
VERTEX
5
22b
100
AcDbEntity
8
1
100
AcDbVertex
100
AcDb2dVertex
62
5
10
189.312876
20
197.341633
0
SEQEND
5
22c
100
AcDbEntity
8
1
0
POLYLINE
5
22d
100
AcDbEntity
8
1
6
CONTINUOUS
62
5
100
AcDb2dPolyline
66
1
10
0.0
20
0.0
30
0.0
70
0
0
VERTEX
5
22e
100
AcDbEntity
8
1
100
AcDbVertex
100
AcDb2dVertex
62
5
10
135.250000
20
329.625000
0
VERTEX
5
22f
100
AcDbEntity
8
1
100
AcDbVertex
100
AcDb2dVertex
62
5
10
134.500000
20
328.375000
0
VERTEX
5
230
100
AcDbEntity
8
1
100
AcDbVertex
100
AcDb2dVertex
62
5
10
133.750000
20
327.437500
0
VERTEX
5
231
100
AcDbEntity
8
1
100
AcDbVertex
100
AcDb2dVertex
62
5
10
132.750000
20
326.500000
0
SEQEND
5
232
100
AcDbEntity
8
1
0
POLYLINE
5
233
100
AcDbEntity
8
1
6
CONTINUOUS
62
5
100
AcDb2dPolyline
66
1
10
0.0
20
0.0
30
0.0
70
0
0
VERTEX
5
234
100
AcDbEntity
8
1
100
AcDbVertex
100
AcDb2dVertex
62
5
10
135.000000
20
329.000000
0
VERTEX
5
235
100
AcDbEntity
8
1
100
AcDbVertex
100
AcDb2dVertex
62
5
10
137.250000
20
329.000000
0
VERTEX
5
236
100
AcDbEntity
8
1
100
AcDbVertex
100
AcDb2dVertex
62
5
10
136.000000
20
327.125000
0
SEQEND
5
237
100
AcDbEntity
8
1
0
POLYLINE
5
238
100
AcDbEntity
8
1
6
CONTINUOUS
62
5
100
AcDb2dPolyline
66
1
10
0.0
20
0.0
30
0.0
70
0
0
VERTEX
5
239
100
AcDbEntity
8
1
100
AcDbVertex
100
AcDb2dVertex
62
5
10
133.750000
20
327.125000
0
VERTEX
5
23a
100
AcDbEntity
8
1
100
AcDbVertex
100
AcDb2dVertex
62
5
10
138.250000
20
327.125000
0
VERTEX
5
23b
100
AcDbEntity
8
1
100
AcDbVertex
100
AcDb2dVertex
62
5
10
138.250000
20
324.312500
0
VERTEX
5
23c
100
AcDbEntity
8
1
100
AcDbVertex
100
AcDb2dVertex
62
5
10
133.750000
20
324.312500
0
SEQEND
5
23d
100
AcDbEntity
8
1
0
LINE
5
23e
100
AcDbEntity
8
1
100
AcDbLine
6
CONTINUOUS
62
5
10
136.000000
20
327.125000
11
136.000000
21
324.312500
0
POLYLINE
5
23f
100
AcDbEntity
8
1
6
CONTINUOUS
62
5
100
AcDb2dPolyline
66
1
10
0.0
20
0.0
30
0.0
70
0
0
VERTEX
5
240
100
AcDbEntity
8
1
100
AcDbVertex
100
AcDb2dVertex
62
5
10
133.750000
20
327.125000
0
VERTEX
5
241
100
AcDbEntity
8
1
100
AcDbVertex
100
AcDb2dVertex
62
5
10
133.750000
20
321.812500
0
VERTEX
5
242
100
AcDbEntity
8
1
100
AcDbVertex
100
AcDb2dVertex
62
5
10
134.250000
20
321.187500
0
VERTEX
5
243
100
AcDbEntity
8
1
100
AcDbVertex
100
AcDb2dVertex
62
5
10
139.250000
20
321.187500
0
VERTEX
5
244
100
AcDbEntity
8
1
100
AcDbVertex
100
AcDb2dVertex
62
5
10
139.250000
20
322.437500
0
SEQEND
5
245
100
AcDbEntity
8
1
0
POLYLINE
5
246
100
AcDbEntity
8
1
6
CONTINUOUS
62
5
100
AcDb2dPolyline
66
1
10
0.0
20
0.0
30
0.0
70
0
0
VERTEX
5
247
100
AcDbEntity
8
1
100
AcDbVertex
100
AcDb2dVertex
62
5
10
133.750000
20
339.312500
0
VERTEX
5
248
100
AcDbEntity
8
1
100
AcDbVertex
100
AcDb2dVertex
62
5
10
133.750000
20
334.000000
0
VERTEX
5
249
100
AcDbEntity
8
1
100
AcDbVertex
100
AcDb2dVertex
62
5
10
133.250000
20
332.125000
0
VERTEX
5
24a
100
AcDbEntity
8
1
100
AcDbVertex
100
AcDb2dVertex
62
5
10
132.500000
20
330.875000
0
SEQEND
5
24b
100
AcDbEntity
8
1
0
LINE
5
24c
100
AcDbEntity
8
1
100
AcDbLine
6
CONTINUOUS
62
5
10
133.750000
20
337.125000
11
139.250000
21
337.125000
0
LINE
5
24d
100
AcDbEntity
8
1
100
AcDbLine
6
CONTINUOUS
62
5
10
136.500000
20
339.625000
11
136.500000
21
337.125000
0
POLYLINE
5
24e
100
AcDbEntity
8
1
6
CONTINUOUS
62
5
100
AcDb2dPolyline
66
1
10
0.0
20
0.0
30
0.0
70
0
0
VERTEX
5
24f
100
AcDbEntity
8
1
100
AcDbVertex
100
AcDb2dVertex
62
5
10
133.750000
20
334.625000
0
VERTEX
5
250
100
AcDbEntity
8
1
100
AcDbVertex
100
AcDb2dVertex
62
5
10
137.250000
20
334.625000
0
VERTEX
5
251
100
AcDbEntity
8
1
100
AcDbVertex
100
AcDb2dVertex
62
5
10
137.250000
20
330.562500
0
SEQEND
5
252
100
AcDbEntity
8
1
0
POLYLINE
5
253
100
AcDbEntity
8
1
6
CONTINUOUS
62
5
100
AcDb2dPolyline
66
1
10
0.0
20
0.0
30
0.0
70
0
0
VERTEX
5
254
100
AcDbEntity
8
1
100
AcDbVertex
100
AcDb2dVertex
62
5
10
140.250000
20
336.500000
0
VERTEX
5
255
100
AcDbEntity
8
1
100
AcDbVertex
100
AcDb2dVertex
62
5
10
141.750000
20
336.812500
0
VERTEX
5
256
100
AcDbEntity
8
1
100
AcDbVertex
100
AcDb2dVertex
62
5
10
143.000000
20
337.437500
0
SEQEND
5
257
100
AcDbEntity
8
1
0
POLYLINE
5
258
100
AcDbEntity
8
1
6
CONTINUOUS
62
5
100
AcDb2dPolyline
66
1
10
0.0
20
0.0
30
0.0
70
0
0
VERTEX
5
259
100
AcDbEntity
8
1
100
AcDbVertex
100
AcDb2dVertex
62
5
10
141.250000
20
339.312500
0
VERTEX
5
25a
100
AcDbEntity
8
1
100
AcDbVertex
100
AcDb2dVertex
62
5
10
141.250000
20
333.687500
0
VERTEX
5
25b
100
AcDbEntity
8
1
100
AcDbVertex
100
AcDb2dVertex
62
5
10
141.750000
20
333.062500
0
VERTEX
5
25c
100
AcDbEntity
8
1
100
AcDbVertex
100
AcDb2dVertex
62
5
10
143.000000
20
333.062500
0
VERTEX
5
25d
100
AcDbEntity
8
1
100
AcDbVertex
100
AcDb2dVertex
62
5
10
143.250000
20
334.312500
0
SEQEND
5
25e
100
AcDbEntity
8
1
0
POLYLINE
5
25f
100
AcDbEntity
8
1
6
CONTINUOUS
62
5
100
AcDb2dPolyline
66
1
10
0.0
20
0.0
30
0.0
70
0
0
VERTEX
5
260
100
AcDbEntity
8
1
100
AcDbVertex
100
AcDb2dVertex
62
5
10
144.500000
20
338.375000
0
VERTEX
5
261
100
AcDbEntity
8
1
100
AcDbVertex
100
AcDb2dVertex
62
5
10
144.500000
20
334.625000
0
VERTEX
5
262
100
AcDbEntity
8
1
100
AcDbVertex
100
AcDb2dVertex
62
5
10
144.000000
20
333.062500
0
VERTEX
5
263
100
AcDbEntity
8
1
100
AcDbVertex
100
AcDb2dVertex
62
5
10
143.250000
20
331.812500
0
VERTEX
5
264
100
AcDbEntity
8
1
100
AcDbVertex
100
AcDb2dVertex
62
5
10
142.000000
20
330.875000
0
SEQEND
5
265
100
AcDbEntity
8
1
0
POLYLINE
5
266
100
AcDbEntity
8
1
6
CONTINUOUS
62
5
100
AcDb2dPolyline
66
1
10
0.0
20
0.0
30
0.0
70
0
0
VERTEX
5
267
100
AcDbEntity
8
1
100
AcDbVertex
100
AcDb2dVertex
62
5
10
143.000000
20
338.375000
0
VERTEX
5
268
100
AcDbEntity
8
1
100
AcDbVertex
100
AcDb2dVertex
62
5
10
146.750000
20
338.375000
0
VERTEX
5
269
100
AcDbEntity
8
1
100
AcDbVertex
100
AcDb2dVertex
62
5
10
146.750000
20
333.062500
0
VERTEX
5
26a
100
AcDbEntity
8
1
100
AcDbVertex
100
AcDb2dVertex
62
5
10
146.500000
20
332.125000
0
VERTEX
5
26b
100
AcDbEntity
8
1
100
AcDbVertex
100
AcDb2dVertex
62
5
10
146.000000
20
331.812500
0
VERTEX
5
26c
100
AcDbEntity
8
1
100
AcDbVertex
100
AcDb2dVertex
62
5
10
145.000000
20
331.812500
0
SEQEND
5
26d
100
AcDbEntity
8
1
0
LINE
5
26e
100
AcDbEntity
8
1
100
AcDbLine
6
CONTINUOUS
62
5
10
158.000000
20
337.437500
11
161.750000
21
338.062500
0
LINE
5
26f
100
AcDbEntity
8
1
100
AcDbLine
6
CONTINUOUS
62
5
10
156.750000
20
335.562500
11
162.750000
21
335.562500
0
POLYLINE
5
270
100
AcDbEntity
8
1
6
CONTINUOUS
62
5
100
AcDb2dPolyline
66
1
10
0.0
20
0.0
30
0.0
70
0
0
VERTEX
5
271
100
AcDbEntity
8
1
100
AcDbVertex
100
AcDb2dVertex
62
5
10
160.000000
20
337.750000
0
VERTEX
5
272
100
AcDbEntity
8
1
100
AcDbVertex
100
AcDb2dVertex
62
5
10
160.000000
20
335.562500
0
VERTEX
5
273
100
AcDbEntity
8
1
100
AcDbVertex
100
AcDb2dVertex
62
5
10
159.750000
20
334.000000
0
VERTEX
5
274
100
AcDbEntity
8
1
100
AcDbVertex
100
AcDb2dVertex
62
5
10
159.000000
20
332.750000
0
VERTEX
5
275
100
AcDbEntity
8
1
100
AcDbVertex
100
AcDb2dVertex
62
5
10
158.250000
20
331.812500
0
SEQEND
5
276
100
AcDbEntity
8
1
0
LINE
5
277
100
AcDbEntity
8
1
100
AcDbLine
6
CONTINUOUS
62
5
10
110.250000
20
335.562500
11
110.500000
21
334.312500
0
LINE
5
278
100
AcDbEntity
8
1
100
AcDbLine
6
CONTINUOUS
62
5
10
111.750000
20
335.875000
11
112.000000
21
334.625000
0
POLYLINE
5
279
100
AcDbEntity
8
1
6
CONTINUOUS
62
5
100
AcDb2dPolyline
66
1
10
0.0
20
0.0
30
0.0
70
0
0
VERTEX
5
27a
100
AcDbEntity
8
1
100
AcDbVertex
100
AcDb2dVertex
62
5
10
113.750000
20
335.875000
0
VERTEX
5
27b
100
AcDbEntity
8
1
100
AcDbVertex
100
AcDb2dVertex
62
5
10
113.500000
20
334.312500
0
VERTEX
5
27c
100
AcDbEntity
8
1
100
AcDbVertex
100
AcDb2dVertex
62
5
10
112.250000
20
332.437500
0
VERTEX
5
27d
100
AcDbEntity
8
1
100
AcDbVertex
100
AcDb2dVertex
62
5
10
111.250000
20
331.500000
0
SEQEND
5
27e
100
AcDbEntity
8
1
0
POLYLINE
5
27f
100
AcDbEntity
8
1
6
CONTINUOUS
62
5
100
AcDb2dPolyline
66
1
10
0.0
20
0.0
30
0.0
70
0
0
VERTEX
5
280
100
AcDbEntity
8
1
100
AcDbVertex
100
AcDb2dVertex
62
5
10
109.750000
20
325.562500
0
VERTEX
5
281
100
AcDbEntity
8
1
100
AcDbVertex
100
AcDb2dVertex
62
5
10
109.750000
20
327.750000
0
VERTEX
5
282
100
AcDbEntity
8
1
100
AcDbVertex
100
AcDb2dVertex
62
5
10
113.750000
20
327.750000
0
VERTEX
5
283
100
AcDbEntity
8
1
100
AcDbVertex
100
AcDb2dVertex
62
5
10
113.750000
20
326.812500
0
VERTEX
5
284
100
AcDbEntity
8
1
100
AcDbVertex
100
AcDb2dVertex
62
5
10
113.500000
20
325.250000
0
VERTEX
5
285
100
AcDbEntity
8
1
100
AcDbVertex
100
AcDb2dVertex
62
5
10
113.000000
20
324.000000
0
VERTEX
5
286
100
AcDbEntity
8
1
100
AcDbVertex
100
AcDb2dVertex
62
5
10
112.500000
20
323.062500
0
VERTEX
5
287
100
AcDbEntity
8
1
100
AcDbVertex
100
AcDb2dVertex
62
5
10
111.500000
20
321.812500
0
SEQEND
5
288
100
AcDbEntity
8
1
0
POLYLINE
5
289
100
AcDbEntity
8
1
6
CONTINUOUS
62
5
100
AcDb2dPolyline
66
1
10
0.0
20
0.0
30
0.0
70
0
0
VERTEX
5
28a
100
AcDbEntity
8
1
100
AcDbVertex
100
AcDb2dVertex
62
5
10
121.750000
20
328.687500
0
VERTEX
5
28b
100
AcDbEntity
8
1
100
AcDbVertex
100
AcDb2dVertex
62
5
10
119.750000
20
326.187500
0
VERTEX
5
28c
100
AcDbEntity
8
1
100
AcDbVertex
100
AcDb2dVertex
62
5
10
117.500000
20
324.625000
0
SEQEND
5
28d
100
AcDbEntity
8
1
0
LINE
5
28e
100
AcDbEntity
8
1
100
AcDbLine
6
CONTINUOUS
62
5
10
120.250000
20
326.812500
11
120.250000
21
321.500000
0
POLYLINE
5
28f
100
AcDbEntity
8
1
6
CONTINUOUS
62
5
100
AcDb2dPolyline
66
1
10
0.0
20
0.0
30
0.0
70
0
0
VERTEX
5
290
100
AcDbEntity
8
1
100
AcDbVertex
100
AcDb2dVertex
62
5
10
94.000000
20
337.125000
0
VERTEX
5
291
100
AcDbEntity
8
1
100
AcDbVertex
100
AcDb2dVertex
62
5
10
97.250000
20
337.125000
0
VERTEX
5
292
100
AcDbEntity
8
1
100
AcDbVertex
100
AcDb2dVertex
62
5
10
97.250000
20
336.812500
0
VERTEX
5
293
100
AcDbEntity
8
1
100
AcDbVertex
100
AcDb2dVertex
62
5
10
96.750000
20
335.562500
0
VERTEX
5
294
100
AcDbEntity
8
1
100
AcDbVertex
100
AcDb2dVertex
62
5
10
96.250000
20
334.625000
0
VERTEX
5
295
100
AcDbEntity
8
1
100
AcDbVertex
100
AcDb2dVertex
62
5
10
95.250000
20
333.375000
0
VERTEX
5
296
100
AcDbEntity
8
1
100
AcDbVertex
100
AcDb2dVertex
62
5
10
93.500000
20
331.812500
0
SEQEND
5
297
100
AcDbEntity
8
1
0
LINE
5
298
100
AcDbEntity
8
1
100
AcDbLine
6
CONTINUOUS
62
5
10
96.250000
20
334.625000
11
98.250000
21
331.812500
0
POLYLINE
5
299
100
AcDbEntity
8
1
6
CONTINUOUS
62
5
100
AcDb2dPolyline
66
1
10
0.0
20
0.0
30
0.0
70
0
0
VERTEX
5
29a
100
AcDbEntity
8
1
100
AcDbVertex
100
AcDb2dVertex
62
5
10
86.500000
20
325.562500
0
VERTEX
5
29b
100
AcDbEntity
8
1
100
AcDbVertex
100
AcDb2dVertex
62
5
10
88.500000
20
325.562500
0
VERTEX
5
29c
100
AcDbEntity
8
1
100
AcDbVertex
100
AcDb2dVertex
62
5
10
88.250000
20
322.437500
0
SEQEND
5
29d
100
AcDbEntity
8
1
0
LINE
5
29e
100
AcDbEntity
8
1
100
AcDbLine
6
CONTINUOUS
62
5
10
85.750000
20
322.437500
11
90.000000
21
322.437500
0
POLYLINE
5
29f
100
AcDbEntity
8
1
6
CONTINUOUS
62
5
100
AcDb2dPolyline
66
1
10
0.0
20
0.0
30
0.0
70
0
0
VERTEX
5
2a0
100
AcDbEntity
8
1
100
AcDbVertex
100
AcDb2dVertex
62
5
10
93.000000
20
327.437500
0
VERTEX
5
2a1
100
AcDbEntity
8
1
100
AcDbVertex
100
AcDb2dVertex
62
5
10
98.250000
20
327.437500
0
VERTEX
5
2a2
100
AcDbEntity
8
1
100
AcDbVertex
100
AcDb2dVertex
62
5
10
98.250000
20
327.125000
0
VERTEX
5
2a3
100
AcDbEntity
8
1
100
AcDbVertex
100
AcDb2dVertex
62
5
10
96.500000
20
325.250000
0
VERTEX
5
2a4
100
AcDbEntity
8
1
100
AcDbVertex
100
AcDb2dVertex
62
5
10
95.750000
20
325.250000
0
SEQEND
5
2a5
100
AcDbEntity
8
1
0
POLYLINE
5
2a6
100
AcDbEntity
8
1
6
CONTINUOUS
62
5
100
AcDb2dPolyline
66
1
10
0.0
20
0.0
30
0.0
70
0
0
VERTEX
5
2a7
100
AcDbEntity
8
1
100
AcDbVertex
100
AcDb2dVertex
62
5
10
95.750000
20
326.187500
0
VERTEX
5
2a8
100
AcDbEntity
8
1
100
AcDbVertex
100
AcDb2dVertex
62
5
10
95.750000
20
324.625000
0
VERTEX
5
2a9
100
AcDbEntity
8
1
100
AcDbVertex
100
AcDb2dVertex
62
5
10
95.000000
20
322.750000
0
VERTEX
5
2aa
100
AcDbEntity
8
1
100
AcDbVertex
100
AcDb2dVertex
62
5
10
94.000000
20
321.500000
0
SEQEND
5
2ab
100
AcDbEntity
8
1
0
LINE
5
2ac
100
AcDbEntity
8
1
100
AcDbLine
6
CONTINUOUS
62
5
10
101.250000
20
326.187500
11
106.250000
21
326.187500
0
POLYLINE
5
2ad
100
AcDbEntity
8
1
6
CONTINUOUS
62
5
100
AcDb2dPolyline
66
1
10
0.0
20
0.0
30
0.0
70
0
0
VERTEX
5
2ae
100
AcDbEntity
8
1
100
AcDbVertex
100
AcDb2dVertex
62
5
10
103.750000
20
328.062500
0
VERTEX
5
2af
100
AcDbEntity
8
1
100
AcDbVertex
100
AcDb2dVertex
62
5
10
103.750000
20
321.812500
0
VERTEX
5
2b0
100
AcDbEntity
8
1
100
AcDbVertex
100
AcDb2dVertex
62
5
10
103.250000
20
321.812500
0
SEQEND
5
2b1
100
AcDbEntity
8
1
0
LINE
5
2b2
100
AcDbEntity
8
1
100
AcDbLine
6
CONTINUOUS
62
5
10
102.500000
20
324.625000
11
101.250000
21
322.750000
0
LINE
5
2b3
100
AcDbEntity
8
1
100
AcDbLine
6
CONTINUOUS
62
5
10
105.250000
20
324.625000
11
106.500000
21
323.062500
0
POLYLINE
5
2b4
100
AcDbEntity
8
1
6
CONTINUOUS
62
5
100
AcDb2dPolyline
66
1
10
0.0
20
0.0
30
0.0
70
0
0
VERTEX
5
2b5
100
AcDbEntity
8
1
100
AcDbVertex
100
AcDb2dVertex
62
5
10
105.750000
20
338.687500
0
VERTEX
5
2b6
100
AcDbEntity
8
1
100
AcDbVertex
100
AcDb2dVertex
62
5
10
103.750000
20
336.187500
0
VERTEX
5
2b7
100
AcDbEntity
8
1
100
AcDbVertex
100
AcDb2dVertex
62
5
10
101.500000
20
334.625000
0
SEQEND
5
2b8
100
AcDbEntity
8
1
0
LINE
5
2b9
100
AcDbEntity
8
1
100
AcDbLine
6
CONTINUOUS
62
5
10
104.250000
20
336.812500
11
104.250000
21
331.500000
0
LINE
5
2ba
100
AcDbEntity
8
1
100
AcDbLine
6
CONTINUOUS
62
5
10
118.000000
20
337.437500
11
121.750000
21
338.062500
0
LINE
5
2bb
100
AcDbEntity
8
1
100
AcDbLine
6
CONTINUOUS
62
5
10
116.750000
20
335.562500
11
122.750000
21
335.562500
0
POLYLINE
5
2bc
100
AcDbEntity
8
1
6
CONTINUOUS
62
5
100
AcDb2dPolyline
66
1
10
0.0
20
0.0
30
0.0
70
0
0
VERTEX
5
2bd
100
AcDbEntity
8
1
100
AcDbVertex
100
AcDb2dVertex
62
5
10
120.000000
20
337.750000
0
VERTEX
5
2be
100
AcDbEntity
8
1
100
AcDbVertex
100
AcDb2dVertex
62
5
10
120.000000
20
335.562500
0
VERTEX
5
2bf
100
AcDbEntity
8
1
100
AcDbVertex
100
AcDb2dVertex
62
5
10
119.750000
20
334.000000
0
VERTEX
5
2c0
100
AcDbEntity
8
1
100
AcDbVertex
100
AcDb2dVertex
62
5
10
119.000000
20
332.750000
0
VERTEX
5
2c1
100
AcDbEntity
8
1
100
AcDbVertex
100
AcDb2dVertex
62
5
10
118.250000
20
331.812500
0
SEQEND
5
2c2
100
AcDbEntity
8
1
0
POLYLINE
5
2c3
100
AcDbEntity
8
1
6
CONTINUOUS
62
5
100
AcDb2dPolyline
66
1
10
0.0
20
0.0
30
0.0
70
0
0
VERTEX
5
2c4
100
AcDbEntity
8
1
100
AcDbVertex
100
AcDb2dVertex
62
5
10
127.250000
20
326.187500
0
VERTEX
5
2c5
100
AcDbEntity
8
1
100
AcDbVertex
100
AcDb2dVertex
62
5
10
127.500000
20
326.187500
0
VERTEX
5
2c6
100
AcDbEntity
8
1
100
AcDbVertex
100
AcDb2dVertex
62
5
10
129.250000
20
324.937500
0
SEQEND
5
2c7
100
AcDbEntity
8
1
0
LINE
5
2c8
100
AcDbEntity
8
1
100
AcDbLine
6
CONTINUOUS
62
5
10
127.250000
20
329.000000
11
127.250000
21
321.500000
0
POLYLINE
5
2c9
100
AcDbEntity
8
1
6
CONTINUOUS
62
5
100
AcDb2dPolyline
66
1
10
0.0
20
0.0
30
0.0
70
0
0
VERTEX
5
2ca
100
AcDbEntity
8
1
100
AcDbVertex
100
AcDb2dVertex
62
5
10
132.187500
20
300.500000
0
VERTEX
5
2cb
100
AcDbEntity
8
1
100
AcDbVertex
100
AcDb2dVertex
62
5
10
133.125000
20
293.000000
0
VERTEX
5
2cc
100
AcDbEntity
8
1
100
AcDbVertex
100
AcDb2dVertex
62
5
10
134.062500
20
300.500000
0
VERTEX
5
2cd
100
AcDbEntity
8
1
100
AcDbVertex
100
AcDb2dVertex
62
5
10
135.000000
20
293.000000
0
VERTEX
5
2ce
100
AcDbEntity
8
1
100
AcDbVertex
100
AcDb2dVertex
62
5
10
135.937500
20
300.500000
0
SEQEND
5
2cf
100
AcDbEntity
8
1
0
LINE
5
2d0
100
AcDbEntity
8
1
100
AcDbLine
6
CONTINUOUS
62
5
10
92.500000
20
296.750000
11
95.625000
21
296.750000
0
POLYLINE
5
2d1
100
AcDbEntity
8
1
6
CONTINUOUS
62
5
100
AcDb2dPolyline
66
1
10
0.0
20
0.0
30
0.0
70
0
0
VERTEX
5
2d2
100
AcDbEntity
8
1
100
AcDbVertex
100
AcDb2dVertex
62
5
10
87.500000
20
293.000000
0
VERTEX
5
2d3
100
AcDbEntity
8
1
100
AcDbVertex
100
AcDb2dVertex
62
5
10
87.500000
20
300.500000
0
VERTEX
5
2d4
100
AcDbEntity
8
1
100
AcDbVertex
100
AcDb2dVertex
62
5
10
90.625000
20
293.000000
0
VERTEX
5
2d5
100
AcDbEntity
8
1
100
AcDbVertex
100
AcDb2dVertex
62
5
10
90.625000
20
300.500000
0
SEQEND
5
2d6
100
AcDbEntity
8
1
0
POLYLINE
5
2d7
100
AcDbEntity
8
1
6
CONTINUOUS
62
5
100
AcDb2dPolyline
66
1
10
0.0
20
0.0
30
0.0
70
0
0
VERTEX
5
2d8
100
AcDbEntity
8
1
100
AcDbVertex
100
AcDb2dVertex
62
5
10
98.125000
20
299.875000
0
VERTEX
5
2d9
100
AcDbEntity
8
1
100
AcDbVertex
100
AcDb2dVertex
62
5
10
99.062500
20
300.500000
0
VERTEX
5
2da
100
AcDbEntity
8
1
100
AcDbVertex
100
AcDb2dVertex
62
5
10
99.062500
20
293.000000
0
SEQEND
5
2db
100
AcDbEntity
8
1
0
LINE
5
2dc
100
AcDbEntity
8
1
100
AcDbLine
6
CONTINUOUS
62
5
10
98.437500
20
293.000000
11
99.687500
21
293.000000
0
POLYLINE
5
2dd
100
AcDbEntity
8
1
6
CONTINUOUS
62
5
100
AcDb2dPolyline
66
1
10
0.0
20
0.0
30
0.0
70
0
0
VERTEX
5
2de
100
AcDbEntity
8
1
100
AcDbVertex
100
AcDb2dVertex
62
5
10
102.500000
20
293.000000
0
VERTEX
5
2df
100
AcDbEntity
8
1
100
AcDbVertex
100
AcDb2dVertex
62
5
10
102.500000
20
300.500000
0
VERTEX
5
2e0
100
AcDbEntity
8
1
100
AcDbVertex
100
AcDb2dVertex
62
5
10
104.062500
20
293.000000
0
VERTEX
5
2e1
100
AcDbEntity
8
1
100
AcDbVertex
100
AcDb2dVertex
62
5
10
105.625000
20
300.500000
0
VERTEX
5
2e2
100
AcDbEntity
8
1
100
AcDbVertex
100
AcDb2dVertex
62
5
10
105.625000
20
293.000000
0
SEQEND
5
2e3
100
AcDbEntity
8
1
0
POLYLINE
5
2e4
100
AcDbEntity
8
1
6
CONTINUOUS
62
5
100
AcDb2dPolyline
66
1
10
0.0
20
0.0
30
0.0
70
0
0
VERTEX
5
2e5
100
AcDbEntity
8
1
100
AcDbVertex
100
AcDb2dVertex
62
5
10
107.500000
20
300.500000
0
VERTEX
5
2e6
100
AcDbEntity
8
1
100
AcDbVertex
100
AcDb2dVertex
62
5
10
107.500000
20
293.000000
0
VERTEX
5
2e7
100
AcDbEntity
8
1
100
AcDbVertex
100
AcDb2dVertex
62
5
10
110.625000
20
293.000000
0
SEQEND
5
2e8
100
AcDbEntity
8
1
0
POLYLINE
5
2e9
100
AcDbEntity
8
1
6
CONTINUOUS
62
5
100
AcDb2dPolyline
66
1
10
0.0
20
0.0
30
0.0
70
0
0
VERTEX
5
2ea
100
AcDbEntity
8
1
100
AcDbVertex
100
AcDb2dVertex
62
5
10
115.625000
20
298.937500
0
VERTEX
5
2eb
100
AcDbEntity
8
1
100
AcDbVertex
100
AcDb2dVertex
62
5
10
115.312500
20
299.875000
0
VERTEX
5
2ec
100
AcDbEntity
8
1
100
AcDbVertex
100
AcDb2dVertex
62
5
10
114.687500
20
300.500000
0
VERTEX
5
2ed
100
AcDbEntity
8
1
100
AcDbVertex
100
AcDb2dVertex
62
5
10
113.750000
20
300.500000
0
VERTEX
5
2ee
100
AcDbEntity
8
1
100
AcDbVertex
100
AcDb2dVertex
62
5
10
112.812500
20
299.562500
0
VERTEX
5
2ef
100
AcDbEntity
8
1
100
AcDbVertex
100
AcDb2dVertex
62
5
10
112.500000
20
298.000000
0
VERTEX
5
2f0
100
AcDbEntity
8
1
100
AcDbVertex
100
AcDb2dVertex
62
5
10
112.500000
20
295.500000
0
VERTEX
5
2f1
100
AcDbEntity
8
1
100
AcDbVertex
100
AcDb2dVertex
62
5
10
112.812500
20
293.937500
0
VERTEX
5
2f2
100
AcDbEntity
8
1
100
AcDbVertex
100
AcDb2dVertex
62
5
10
113.750000
20
293.000000
0
VERTEX
5
2f3
100
AcDbEntity
8
1
100
AcDbVertex
100
AcDb2dVertex
62
5
10
114.687500
20
293.000000
0
VERTEX
5
2f4
100
AcDbEntity
8
1
100
AcDbVertex
100
AcDb2dVertex
62
5
10
115.312500
20
293.625000
0
VERTEX
5
2f5
100
AcDbEntity
8
1
100
AcDbVertex
100
AcDb2dVertex
62
5
10
115.937500
20
295.187500
0
SEQEND
5
2f6
100
AcDbEntity
8
1
0
LINE
5
2f7
100
AcDbEntity
8
1
100
AcDbLine
6
CONTINUOUS
62
5
10
117.500000
20
300.500000
11
117.500000
21
293.000000
0
POLYLINE
5
2f8
100
AcDbEntity
8
1
6
CONTINUOUS
62
5
100
AcDb2dPolyline
66
1
10
0.0
20
0.0
30
0.0
70
0
0
VERTEX
5
2f9
100
AcDbEntity
8
1
100
AcDbVertex
100
AcDb2dVertex
62
5
10
117.500000
20
300.500000
0
VERTEX
5
2fa
100
AcDbEntity
8
1
100
AcDbVertex
100
AcDb2dVertex
62
5
10
118.750000
20
300.500000
0
VERTEX
5
2fb
100
AcDbEntity
8
1
100
AcDbVertex
100
AcDb2dVertex
62
5
10
119.687500
20
300.187500
0
VERTEX
5
2fc
100
AcDbEntity
8
1
100
AcDbVertex
100
AcDb2dVertex
62
5
10
120.000000
20
299.875000
0
VERTEX
5
2fd
100
AcDbEntity
8
1
100
AcDbVertex
100
AcDb2dVertex
62
5
10
120.312500
20
298.937500
0
VERTEX
5
2fe
100
AcDbEntity
8
1
100
AcDbVertex
100
AcDb2dVertex
62
5
10
120.312500
20
298.000000
0
VERTEX
5
2ff
100
AcDbEntity
8
1
100
AcDbVertex
100
AcDb2dVertex
62
5
10
120.000000
20
297.375000
0
VERTEX
5
300
100
AcDbEntity
8
1
100
AcDbVertex
100
AcDb2dVertex
62
5
10
119.062500
20
296.750000
0
VERTEX
5
301
100
AcDbEntity
8
1
100
AcDbVertex
100
AcDb2dVertex
62
5
10
117.500000
20
296.750000
0
SEQEND
5
302
100
AcDbEntity
8
1
0
POLYLINE
5
303
100
AcDbEntity
8
1
6
CONTINUOUS
62
5
100
AcDb2dPolyline
66
1
10
0.0
20
0.0
30
0.0
70
0
0
VERTEX
5
304
100
AcDbEntity
8
1
100
AcDbVertex
100
AcDb2dVertex
62
5
10
119.062500
20
296.750000
0
VERTEX
5
305
100
AcDbEntity
8
1
100
AcDbVertex
100
AcDb2dVertex
62
5
10
119.687500
20
296.437500
0
VERTEX
5
306
100
AcDbEntity
8
1
100
AcDbVertex
100
AcDb2dVertex
62
5
10
120.000000
20
295.812500
0
VERTEX
5
307
100
AcDbEntity
8
1
100
AcDbVertex
100
AcDb2dVertex
62
5
10
120.000000
20
293.625000
0
VERTEX
5
308
100
AcDbEntity
8
1
100
AcDbVertex
100
AcDb2dVertex
62
5
10
120.312500
20
293.000000
0
VERTEX
5
309
100
AcDbEntity
8
1
100
AcDbVertex
100
AcDb2dVertex
62
5
10
120.625000
20
293.000000
0
VERTEX
5
30a
100
AcDbEntity
8
1
100
AcDbVertex
100
AcDb2dVertex
62
5
10
120.937500
20
293.625000
0
SEQEND
5
30b
100
AcDbEntity
8
1
0
LINE
5
30c
100
AcDbEntity
8
1
100
AcDbLine
6
CONTINUOUS
62
5
10
127.500000
20
300.500000
11
127.500000
21
293.000000
0
POLYLINE
5
30d
100
AcDbEntity
8
1
6
CONTINUOUS
62
5
100
AcDb2dPolyline
66
1
10
0.0
20
0.0
30
0.0
70
0
0
VERTEX
5
30e
100
AcDbEntity
8
1
100
AcDbVertex
100
AcDb2dVertex
62
5
10
127.500000
20
300.500000
0
VERTEX
5
30f
100
AcDbEntity
8
1
100
AcDbVertex
100
AcDb2dVertex
62
5
10
128.750000
20
300.500000
0
VERTEX
5
310
100
AcDbEntity
8
1
100
AcDbVertex
100
AcDb2dVertex
62
5
10
129.687500
20
300.187500
0
VERTEX
5
311
100
AcDbEntity
8
1
100
AcDbVertex
100
AcDb2dVertex
62
5
10
130.312500
20
299.562500
0
VERTEX
5
312
100
AcDbEntity
8
1
100
AcDbVertex
100
AcDb2dVertex
62
5
10
130.625000
20
298.937500
0
VERTEX
5
313
100
AcDbEntity
8
1
100
AcDbVertex
100
AcDb2dVertex
62
5
10
130.625000
20
298.000000
0
VERTEX
5
314
100
AcDbEntity
8
1
100
AcDbVertex
100
AcDb2dVertex
62
5
10
130.312500
20
297.375000
0
VERTEX
5
315
100
AcDbEntity
8
1
100
AcDbVertex
100
AcDb2dVertex
62
5
10
129.687500
20
296.750000
0
VERTEX
5
316
100
AcDbEntity
8
1
100
AcDbVertex
100
AcDb2dVertex
62
5
10
128.750000
20
296.437500
0
VERTEX
5
317
100
AcDbEntity
8
1
100
AcDbVertex
100
AcDb2dVertex
62
5
10
127.500000
20
296.437500
0
SEQEND
5
318
100
AcDbEntity
8
1
0
POLYLINE
5
319
100
AcDbEntity
8
1
6
CONTINUOUS
62
5
100
AcDb2dPolyline
66
1
10
0.0
20
0.0
30
0.0
70
0
0
VERTEX
5
31a
100
AcDbEntity
8
1
100
AcDbVertex
100
AcDb2dVertex
62
5
10
77.750000
20
327.750000
0
VERTEX
5
31b
100
AcDbEntity
8
1
100
AcDbVertex
100
AcDb2dVertex
62
5
10
77.750000
20
322.437500
0
VERTEX
5
31c
100
AcDbEntity
8
1
100
AcDbVertex
100
AcDb2dVertex
62
5
10
78.250000
20
321.812500
0
VERTEX
5
31d
100
AcDbEntity
8
1
100
AcDbVertex
100
AcDb2dVertex
62
5
10
81.750000
20
321.812500
0
SEQEND
5
31e
100
AcDbEntity
8
1
0
LINE
5
31f
100
AcDbEntity
8
1
100
AcDbLine
6
CONTINUOUS
62
5
10
81.250000
20
325.875000
11
77.750000
21
324.937500
0
POLYLINE
5
320
100
AcDbEntity
8
1
6
CONTINUOUS
62
5
100
AcDb2dPolyline
66
1
10
0.0
20
0.0
30
0.0
70
1
0
VERTEX
5
321
100
AcDbEntity
8
1
100
AcDbVertex
100
AcDb2dVertex
62
5
10
81.250000
20
327.750000
0
VERTEX
5
322
100
AcDbEntity
8
1
100
AcDbVertex
100
AcDb2dVertex
62
5
10
81.750000
20
328.375000
0
VERTEX
5
323
100
AcDbEntity
8
1
100
AcDbVertex
100
AcDb2dVertex
62
5
10
82.000000
20
328.375000
0
VERTEX
5
324
100
AcDbEntity
8
1
100
AcDbVertex
100
AcDb2dVertex
62
5
10
82.500000
20
327.750000
0
VERTEX
5
325
100
AcDbEntity
8
1
100
AcDbVertex
100
AcDb2dVertex
62
5
10
82.500000
20
327.437500
0
VERTEX
5
326
100
AcDbEntity
8
1
100
AcDbVertex
100
AcDb2dVertex
62
5
10
82.000000
20
326.812500
0
VERTEX
5
327
100
AcDbEntity
8
1
100
AcDbVertex
100
AcDb2dVertex
62
5
10
81.750000
20
326.812500
0
VERTEX
5
328
100
AcDbEntity
8
1
100
AcDbVertex
100
AcDb2dVertex
62
5
10
81.250000
20
327.437500
0
VERTEX
5
329
100
AcDbEntity
8
1
100
AcDbVertex
100
AcDb2dVertex
62
5
10
81.250000
20
327.750000
0
SEQEND
5
32a
100
AcDbEntity
8
1
0
LINE
5
32b
100
AcDbEntity
8
1
100
AcDbLine
6
CONTINUOUS
62
5
10
76.500000
20
336.500000
11
78.500000
21
336.500000
0
LINE
5
32c
100
AcDbEntity
8
1
100
AcDbLine
6
CONTINUOUS
62
5
10
76.250000
20
332.125000
11
78.500000
21
333.375000
0
LINE
5
32d
100
AcDbEntity
8
1
100
AcDbLine
6
CONTINUOUS
62
5
10
77.500000
20
339.000000
11
77.500000
21
332.750000
0
POLYLINE
5
32e
100
AcDbEntity
8
1
6
CONTINUOUS
62
5
100
AcDb2dPolyline
66
1
10
0.0
20
0.0
30
0.0
70
1
0
VERTEX
5
32f
100
AcDbEntity
8
1
100
AcDbVertex
100
AcDb2dVertex
62
5
10
79.500000
20
338.687500
0
VERTEX
5
330
100
AcDbEntity
8
1
100
AcDbVertex
100
AcDb2dVertex
62
5
10
79.500000
20
335.250000
0
VERTEX
5
331
100
AcDbEntity
8
1
100
AcDbVertex
100
AcDb2dVertex
62
5
10
82.500000
20
335.250000
0
VERTEX
5
332
100
AcDbEntity
8
1
100
AcDbVertex
100
AcDb2dVertex
62
5
10
82.500000
20
338.687500
0
VERTEX
5
333
100
AcDbEntity
8
1
100
AcDbVertex
100
AcDb2dVertex
62
5
10
79.500000
20
338.687500
0
SEQEND
5
334
100
AcDbEntity
8
1
0
LINE
5
335
100
AcDbEntity
8
1
100
AcDbLine
6
CONTINUOUS
62
5
10
79.500000
20
337.125000
11
82.500000
21
337.125000
0
LINE
5
336
100
AcDbEntity
8
1
100
AcDbLine
6
CONTINUOUS
62
5
10
81.000000
20
338.687500
11
81.000000
21
331.500000
0
LINE
5
337
100
AcDbEntity
8
1
100
AcDbLine
6
CONTINUOUS
62
5
10
79.000000
20
333.687500
11
83.000000
21
333.687500
0
LINE
5
338
100
AcDbEntity
8
1
100
AcDbLine
6
CONTINUOUS
62
5
10
78.250000
20
331.500000
11
83.500000
21
331.500000
0
LINE
5
339
100
AcDbEntity
8
1
100
AcDbLine
6
CONTINUOUS
62
5
10
50.000000
20
350.000000
11
50.000000
21
318.000000
0
LINE
5
33a
100
AcDbEntity
8
1
100
AcDbLine
6
CONTINUOUS
62
5
10
77.500000
20
296.750000
11
80.625000
21
296.750000
0
POLYLINE
5
33b
100
AcDbEntity
8
1
6
CONTINUOUS
62
5
100
AcDb2dPolyline
66
1
10
0.0
20
0.0
30
0.0
70
0
0
VERTEX
5
33c
100
AcDbEntity
8
1
100
AcDbVertex
100
AcDb2dVertex
62
5
10
65.312500
20
300.500000
0
VERTEX
5
33d
100
AcDbEntity
8
1
100
AcDbVertex
100
AcDb2dVertex
62
5
10
65.312500
20
294.875000
0
VERTEX
5
33e
100
AcDbEntity
8
1
100
AcDbVertex
100
AcDb2dVertex
62
5
10
65.000000
20
293.625000
0
VERTEX
5
33f
100
AcDbEntity
8
1
100
AcDbVertex
100
AcDb2dVertex
62
5
10
64.375000
20
293.000000
0
VERTEX
5
340
100
AcDbEntity
8
1
100
AcDbVertex
100
AcDb2dVertex
62
5
10
63.437500
20
293.000000
0
VERTEX
5
341
100
AcDbEntity
8
1
100
AcDbVertex
100
AcDb2dVertex
62
5
10
62.812500
20
293.625000
0
VERTEX
5
342
100
AcDbEntity
8
1
100
AcDbVertex
100
AcDb2dVertex
62
5
10
62.500000
20
294.875000
0
SEQEND
5
343
100
AcDbEntity
8
1
0
POLYLINE
5
344
100
AcDbEntity
8
1
6
CONTINUOUS
62
5
100
AcDb2dPolyline
66
1
10
0.0
20
0.0
30
0.0
70
0
0
VERTEX
5
345
100
AcDbEntity
8
1
100
AcDbVertex
100
AcDb2dVertex
62
5
10
70.625000
20
300.500000
0
VERTEX
5
346
100
AcDbEntity
8
1
100
AcDbVertex
100
AcDb2dVertex
62
5
10
67.500000
20
300.500000
0
VERTEX
5
347
100
AcDbEntity
8
1
100
AcDbVertex
100
AcDb2dVertex
62
5
10
67.500000
20
293.000000
0
VERTEX
5
348
100
AcDbEntity
8
1
100
AcDbVertex
100
AcDb2dVertex
62
5
10
70.937500
20
293.000000
0
SEQEND
5
349
100
AcDbEntity
8
1
0
LINE
5
34a
100
AcDbEntity
8
1
100
AcDbLine
6
CONTINUOUS
62
5
10
67.500000
20
296.750000
11
70.312500
21
296.750000
0
POLYLINE
5
34b
100
AcDbEntity
8
1
6
CONTINUOUS
62
5
100
AcDb2dPolyline
66
1
10
0.0
20
0.0
30
0.0
70
0
0
VERTEX
5
34c
100
AcDbEntity
8
1
100
AcDbVertex
100
AcDb2dVertex
62
5
10
75.625000
20
298.937500
0
VERTEX
5
34d
100
AcDbEntity
8
1
100
AcDbVertex
100
AcDb2dVertex
62
5
10
75.312500
20
299.875000
0
VERTEX
5
34e
100
AcDbEntity
8
1
100
AcDbVertex
100
AcDb2dVertex
62
5
10
74.687500
20
300.500000
0
VERTEX
5
34f
100
AcDbEntity
8
1
100
AcDbVertex
100
AcDb2dVertex
62
5
10
73.750000
20
300.500000
0
VERTEX
5
350
100
AcDbEntity
8
1
100
AcDbVertex
100
AcDb2dVertex
62
5
10
72.812500
20
299.562500
0
VERTEX
5
351
100
AcDbEntity
8
1
100
AcDbVertex
100
AcDb2dVertex
62
5
10
72.500000
20
298.000000
0
VERTEX
5
352
100
AcDbEntity
8
1
100
AcDbVertex
100
AcDb2dVertex
62
5
10
72.500000
20
295.500000
0
VERTEX
5
353
100
AcDbEntity
8
1
100
AcDbVertex
100
AcDb2dVertex
62
5
10
72.812500
20
293.937500
0
VERTEX
5
354
100
AcDbEntity
8
1
100
AcDbVertex
100
AcDb2dVertex
62
5
10
73.750000
20
293.000000
0
VERTEX
5
355
100
AcDbEntity
8
1
100
AcDbVertex
100
AcDb2dVertex
62
5
10
74.687500
20
293.000000
0
VERTEX
5
356
100
AcDbEntity
8
1
100
AcDbVertex
100
AcDb2dVertex
62
5
10
75.312500
20
293.625000
0
VERTEX
5
357
100
AcDbEntity
8
1
100
AcDbVertex
100
AcDb2dVertex
62
5
10
75.937500
20
295.187500
0
SEQEND
5
358
100
AcDbEntity
8
1
0
LINE
5
359
100
AcDbEntity
8
1
100
AcDbLine
6
CONTINUOUS
62
5
10
85.000000
20
339.000000
11
86.000000
21
338.062500
0
POLYLINE
5
35a
100
AcDbEntity
8
1
6
CONTINUOUS
62
5
100
AcDb2dPolyline
66
1
10
0.0
20
0.0
30
0.0
70
0
0
VERTEX
5
35b
100
AcDbEntity
8
1
100
AcDbVertex
100
AcDb2dVertex
62
5
10
84.750000
20
335.875000
0
VERTEX
5
35c
100
AcDbEntity
8
1
100
AcDbVertex
100
AcDb2dVertex
62
5
10
86.000000
20
335.875000
0
VERTEX
5
35d
100
AcDbEntity
8
1
100
AcDbVertex
100
AcDb2dVertex
62
5
10
86.000000
20
332.750000
0
VERTEX
5
35e
100
AcDbEntity
8
1
100
AcDbVertex
100
AcDb2dVertex
62
5
10
84.750000
20
331.187500
0
SEQEND
5
35f
100
AcDbEntity
8
1
0
POLYLINE
5
360
100
AcDbEntity
8
1
6
CONTINUOUS
62
5
100
AcDb2dPolyline
66
1
10
0.0
20
0.0
30
0.0
70
0
0
VERTEX
5
361
100
AcDbEntity
8
1
100
AcDbVertex
100
AcDb2dVertex
62
5
10
86.000000
20
332.750000
0
VERTEX
5
362
100
AcDbEntity
8
1
100
AcDbVertex
100
AcDb2dVertex
62
5
10
86.750000
20
331.500000
0
VERTEX
5
363
100
AcDbEntity
8
1
100
AcDbVertex
100
AcDb2dVertex
62
5
10
87.750000
20
331.187500
0
VERTEX
5
364
100
AcDbEntity
8
1
100
AcDbVertex
100
AcDb2dVertex
62
5
10
91.500000
20
331.187500
0
SEQEND
5
365
100
AcDbEntity
8
1
0
POLYLINE
5
366
100
AcDbEntity
8
1
6
CONTINUOUS
62
5
100
AcDb2dPolyline
66
1
10
0.0
20
0.0
30
0.0
70
0
0
VERTEX
5
367
100
AcDbEntity
8
1
100
AcDbVertex
100
AcDb2dVertex
62
5
10
88.750000
20
336.500000
0
VERTEX
5
368
100
AcDbEntity
8
1
100
AcDbVertex
100
AcDb2dVertex
62
5
10
88.000000
20
334.625000
0
VERTEX
5
369
100
AcDbEntity
8
1
100
AcDbVertex
100
AcDb2dVertex
62
5
10
87.250000
20
333.375000
0
VERTEX
5
36a
100
AcDbEntity
8
1
100
AcDbVertex
100
AcDb2dVertex
62
5
10
86.750000
20
332.750000
0
SEQEND
5
36b
100
AcDbEntity
8
1
0
POLYLINE
5
36c
100
AcDbEntity
8
1
6
CONTINUOUS
62
5
100
AcDb2dPolyline
66
1
10
0.0
20
0.0
30
0.0
70
0
0
VERTEX
5
36d
100
AcDbEntity
8
1
100
AcDbVertex
100
AcDb2dVertex
62
5
10
87.500000
20
339.312500
0
VERTEX
5
36e
100
AcDbEntity
8
1
100
AcDbVertex
100
AcDb2dVertex
62
5
10
88.750000
20
339.312500
0
VERTEX
5
36f
100
AcDbEntity
8
1
100
AcDbVertex
100
AcDb2dVertex
62
5
10
88.750000
20
336.500000
0
VERTEX
5
370
100
AcDbEntity
8
1
100
AcDbVertex
100
AcDb2dVertex
62
5
10
89.500000
20
334.625000
0
VERTEX
5
371
100
AcDbEntity
8
1
100
AcDbVertex
100
AcDb2dVertex
62
5
10
90.500000
20
333.375000
0
VERTEX
5
372
100
AcDbEntity
8
1
100
AcDbVertex
100
AcDb2dVertex
62
5
10
91.250000
20
332.750000
0
SEQEND
5
373
100
AcDbEntity
8
1
0
LINE
5
374
100
AcDbEntity
8
1
100
AcDbLine
6
CONTINUOUS
62
5
10
82.500000
20
300.500000
11
82.500000
21
293.000000
0
POLYLINE
5
375
100
AcDbEntity
8
1
6
CONTINUOUS
62
5
100
AcDb2dPolyline
66
1
10
0.0
20
0.0
30
0.0
70
0
0
VERTEX
5
376
100
AcDbEntity
8
1
100
AcDbVertex
100
AcDb2dVertex
62
5
10
82.500000
20
300.500000
0
VERTEX
5
377
100
AcDbEntity
8
1
100
AcDbVertex
100
AcDb2dVertex
62
5
10
84.062500
20
300.500000
0
VERTEX
5
378
100
AcDbEntity
8
1
100
AcDbVertex
100
AcDb2dVertex
62
5
10
84.687500
20
300.187500
0
VERTEX
5
379
100
AcDbEntity
8
1
100
AcDbVertex
100
AcDb2dVertex
62
5
10
85.000000
20
299.875000
0
VERTEX
5
37a
100
AcDbEntity
8
1
100
AcDbVertex
100
AcDb2dVertex
62
5
10
85.312500
20
299.250000
0
VERTEX
5
37b
100
AcDbEntity
8
1
100
AcDbVertex
100
AcDb2dVertex
62
5
10
85.312500
20
298.312500
0
VERTEX
5
37c
100
AcDbEntity
8
1
100
AcDbVertex
100
AcDb2dVertex
62
5
10
85.000000
20
297.687500
0
VERTEX
5
37d
100
AcDbEntity
8
1
100
AcDbVertex
100
AcDb2dVertex
62
5
10
84.687500
20
297.375000
0
VERTEX
5
37e
100
AcDbEntity
8
1
100
AcDbVertex
100
AcDb2dVertex
62
5
10
84.062500
20
297.062500
0
VERTEX
5
37f
100
AcDbEntity
8
1
100
AcDbVertex
100
AcDb2dVertex
62
5
10
82.500000
20
297.062500
0
SEQEND
5
380
100
AcDbEntity
8
1
0
POLYLINE
5
381
100
AcDbEntity
8
1
6
CONTINUOUS
62
5
100
AcDb2dPolyline
66
1
10
0.0
20
0.0
30
0.0
70
0
0
VERTEX
5
382
100
AcDbEntity
8
1
100
AcDbVertex
100
AcDb2dVertex
62
5
10
84.062500
20
297.062500
0
VERTEX
5
383
100
AcDbEntity
8
1
100
AcDbVertex
100
AcDb2dVertex
62
5
10
84.687500
20
296.750000
0
VERTEX
5
384
100
AcDbEntity
8
1
100
AcDbVertex
100
AcDb2dVertex
62
5
10
85.312500
20
296.125000
0
VERTEX
5
385
100
AcDbEntity
8
1
100
AcDbVertex
100
AcDb2dVertex
62
5
10
85.625000
20
295.500000
0
VERTEX
5
386
100
AcDbEntity
8
1
100
AcDbVertex
100
AcDb2dVertex
62
5
10
85.625000
20
294.250000
0
VERTEX
5
387
100
AcDbEntity
8
1
100
AcDbVertex
100
AcDb2dVertex
62
5
10
85.312500
20
293.625000
0
VERTEX
5
388
100
AcDbEntity
8
1
100
AcDbVertex
100
AcDb2dVertex
62
5
10
85.000000
20
293.312500
0
VERTEX
5
389
100
AcDbEntity
8
1
100
AcDbVertex
100
AcDb2dVertex
62
5
10
84.375000
20
293.000000
0
VERTEX
5
38a
100
AcDbEntity
8
1
100
AcDbVertex
100
AcDb2dVertex
62
5
10
82.500000
20
293.000000
0
SEQEND
5
38b
100
AcDbEntity
8
1
0
POLYLINE
5
38c
100
AcDbEntity
8
1
6
DOT2
62
5
100
AcDb2dPolyline
66
1
10
0.0
20
0.0
30
0.0
70
0
0
VERTEX
5
38d
100
AcDbEntity
8
1
100
AcDbVertex
100
AcDb2dVertex
62
5
10
116.937500
20
229.891824
0
VERTEX
5
38e
100
AcDbEntity
8
1
100
AcDbVertex
100
AcDb2dVertex
62
5
10
115.375000
20
230.204324
0
VERTEX
5
38f
100
AcDbEntity
8
1
100
AcDbVertex
100
AcDb2dVertex
62
5
10
114.750000
20
231.141824
0
VERTEX
5
390
100
AcDbEntity
8
1
100
AcDbVertex
100
AcDb2dVertex
62
5
10
114.750000
20
232.079324
0
VERTEX
5
391
100
AcDbEntity
8
1
100
AcDbVertex
100
AcDb2dVertex
62
5
10
115.062500
20
232.704324
0
VERTEX
5
392
100
AcDbEntity
8
1
100
AcDbVertex
100
AcDb2dVertex
62
5
10
116.000000
20
233.016824
0
VERTEX
5
393
100
AcDbEntity
8
1
100
AcDbVertex
100
AcDb2dVertex
62
5
10
116.937500
20
233.016824
0
VERTEX
5
394
100
AcDbEntity
8
1
100
AcDbVertex
100
AcDb2dVertex
62
5
10
117.875000
20
232.704324
0
VERTEX
5
395
100
AcDbEntity
8
1
100
AcDbVertex
100
AcDb2dVertex
62
5
10
122.250000
20
229.891824
0
VERTEX
5
396
100
AcDbEntity
8
1
100
AcDbVertex
100
AcDb2dVertex
62
5
10
122.250000
20
233.016824
0
VERTEX
5
397
100
AcDbEntity
8
1
100
AcDbVertex
100
AcDb2dVertex
62
5
10
121.312500
20
233.016824
0
SEQEND
5
398
100
AcDbEntity
8
1
0
POLYLINE
5
399
100
AcDbEntity
8
1
6
DOT2
62
5
100
AcDb2dPolyline
66
1
10
0.0
20
0.0
30
0.0
70
0
0
VERTEX
5
39a
100
AcDbEntity
8
1
100
AcDbVertex
100
AcDb2dVertex
62
5
10
116.937500
20
234.891824
0
VERTEX
5
39b
100
AcDbEntity
8
1
100
AcDbVertex
100
AcDb2dVertex
62
5
10
115.375000
20
235.204324
0
VERTEX
5
39c
100
AcDbEntity
8
1
100
AcDbVertex
100
AcDb2dVertex
62
5
10
114.750000
20
236.141824
0
VERTEX
5
39d
100
AcDbEntity
8
1
100
AcDbVertex
100
AcDb2dVertex
62
5
10
114.750000
20
237.079324
0
VERTEX
5
39e
100
AcDbEntity
8
1
100
AcDbVertex
100
AcDb2dVertex
62
5
10
115.062500
20
237.704324
0
VERTEX
5
39f
100
AcDbEntity
8
1
100
AcDbVertex
100
AcDb2dVertex
62
5
10
116.000000
20
238.016824
0
VERTEX
5
3a0
100
AcDbEntity
8
1
100
AcDbVertex
100
AcDb2dVertex
62
5
10
116.937500
20
238.016824
0
VERTEX
5
3a1
100
AcDbEntity
8
1
100
AcDbVertex
100
AcDb2dVertex
62
5
10
117.875000
20
237.704324
0
VERTEX
5
3a2
100
AcDbEntity
8
1
100
AcDbVertex
100
AcDb2dVertex
62
5
10
122.250000
20
234.891824
0
VERTEX
5
3a3
100
AcDbEntity
8
1
100
AcDbVertex
100
AcDb2dVertex
62
5
10
122.250000
20
238.016824
0
VERTEX
5
3a4
100
AcDbEntity
8
1
100
AcDbVertex
100
AcDb2dVertex
62
5
10
121.312500
20
238.016824
0
SEQEND
5
3a5
100
AcDbEntity
8
1
0
LINE
5
3a6
100
AcDbEntity
8
1
100
AcDbLine
6
DOT2
62
5
10
121.625000
20
240.516824
11
122.250000
21
239.891824
0
POLYLINE
5
3a7
100
AcDbEntity
8
1
6
DOT2
62
5
100
AcDb2dPolyline
66
1
10
0.0
20
0.0
30
0.0
70
0
0
VERTEX
5
3a8
100
AcDbEntity
8
1
100
AcDbVertex
100
AcDb2dVertex
62
5
10
121.625000
20
239.891824
0
VERTEX
5
3a9
100
AcDbEntity
8
1
100
AcDbVertex
100
AcDb2dVertex
62
5
10
122.250000
20
240.516824
0
VERTEX
5
3aa
100
AcDbEntity
8
1
100
AcDbVertex
100
AcDb2dVertex
62
5
10
122.250000
20
239.891824
0
VERTEX
5
3ab
100
AcDbEntity
8
1
100
AcDbVertex
100
AcDb2dVertex
62
5
10
121.625000
20
239.891824
0
VERTEX
5
3ac
100
AcDbEntity
8
1
100
AcDbVertex
100
AcDb2dVertex
62
5
10
121.625000
20
240.516824
0
VERTEX
5
3ad
100
AcDbEntity
8
1
100
AcDbVertex
100
AcDb2dVertex
62
5
10
122.250000
20
240.516824
0
SEQEND
5
3ae
100
AcDbEntity
8
1
0
POLYLINE
5
3af
100
AcDbEntity
8
1
6
DOT2
62
5
100
AcDb2dPolyline
66
1
10
0.0
20
0.0
30
0.0
70
0
0
VERTEX
5
3b0
100
AcDbEntity
8
1
100
AcDbVertex
100
AcDb2dVertex
62
5
10
115.687500
20
244.891824
0
VERTEX
5
3b1
100
AcDbEntity
8
1
100
AcDbVertex
100
AcDb2dVertex
62
5
10
114.750000
20
244.891824
0
VERTEX
5
3b2
100
AcDbEntity
8
1
100
AcDbVertex
100
AcDb2dVertex
62
5
10
114.750000
20
248.016824
0
VERTEX
5
3b3
100
AcDbEntity
8
1
100
AcDbVertex
100
AcDb2dVertex
62
5
10
115.375000
20
248.016824
0
VERTEX
5
3b4
100
AcDbEntity
8
1
100
AcDbVertex
100
AcDb2dVertex
62
5
10
116.937500
20
247.391824
0
VERTEX
5
3b5
100
AcDbEntity
8
1
100
AcDbVertex
100
AcDb2dVertex
62
5
10
119.125000
20
246.766824
0
VERTEX
5
3b6
100
AcDbEntity
8
1
100
AcDbVertex
100
AcDb2dVertex
62
5
10
122.250000
20
246.141824
0
SEQEND
5
3b7
100
AcDbEntity
8
1
0
ARC
5
3b8
100
AcDbEntity
8
1
100
AcDbCircle
6
CONTINUOUS
62
5
10
166.519108
20
216.719726
40
0.400000
100
AcDbArc
50
179.999998
51
0.000000
0
POLYLINE
5
3b9
100
AcDbEntity
8
1
6
CONTINUOUS
62
5
100
AcDb2dPolyline
66
1
10
0.0
20
0.0
30
0.0
70
0
0
VERTEX
5
3ba
100
AcDbEntity
8
1
100
AcDbVertex
100
AcDb2dVertex
62
5
10
166.119108
20
216.719726
0
VERTEX
5
3bb
100
AcDbEntity
8
1
100
AcDbVertex
100
AcDb2dVertex
62
5
10
166.119108
20
216.919726
0
VERTEX
5
3bc
100
AcDbEntity
8
1
100
AcDbVertex
100
AcDb2dVertex
62
5
10
165.519108
20
216.919726
0
SEQEND
5
3bd
100
AcDbEntity
8
1
0
ARC
5
3be
100
AcDbEntity
8
1
100
AcDbCircle
6
CONTINUOUS
62
5
10
166.519108
20
216.919726
40
1.000000
100
AcDbArc
50
179.999998
51
0.000000
0
POLYLINE
5
3bf
100
AcDbEntity
8
1
6
CONTINUOUS
62
5
100
AcDb2dPolyline
66
1
10
0.0
20
0.0
30
0.0
70
0
0
VERTEX
5
3c0
100
AcDbEntity
8
1
100
AcDbVertex
100
AcDb2dVertex
62
5
10
167.519108
20
216.919726
0
VERTEX
5
3c1
100
AcDbEntity
8
1
100
AcDbVertex
100
AcDb2dVertex
62
5
10
167.519108
20
217.919726
0
VERTEX
5
3c2
100
AcDbEntity
8
1
100
AcDbVertex
100
AcDb2dVertex
62
5
10
166.919108
20
217.919726
0
VERTEX
5
3c3
100
AcDbEntity
8
1
100
AcDbVertex
100
AcDb2dVertex
62
5
10
166.919108
20
216.719726
0
SEQEND
5
3c4
100
AcDbEntity
8
1
0
POLYLINE
5
3c5
100
AcDbEntity
8
1
6
CONTINUOUS
62
5
100
AcDb2dPolyline
66
1
10
0.0
20
0.0
30
0.0
70
1
0
VERTEX
5
3c6
100
AcDbEntity
8
1
100
AcDbVertex
100
AcDb2dVertex
62
5
10
167.869108
20
217.919726
0
VERTEX
5
3c7
100
AcDbEntity
8
1
100
AcDbVertex
100
AcDb2dVertex
62
5
10
167.869108
20
215.919726
0
VERTEX
5
3c8
100
AcDbEntity
8
1
100
AcDbVertex
100
AcDb2dVertex
62
5
10
168.469107
20
215.919726
0
VERTEX
5
3c9
100
AcDbEntity
8
1
100
AcDbVertex
100
AcDb2dVertex
62
5
10
168.469107
20
217.919726
0
SEQEND
5
3ca
100
AcDbEntity
8
1
0
LINE
5
3cb
100
AcDbEntity
8
1
100
AcDbLine
6
CONTINUOUS
62
5
10
156.100000
20
217.341824
11
156.500000
21
217.341824
0
ARC
5
3cc
100
AcDbEntity
8
1
100
AcDbCircle
6
CONTINUOUS
62
5
10
152.300000
20
217.441824
40
0.500000
100
AcDbArc
50
0.000000
51
89.999999
0
LINE
5
3cd
100
AcDbEntity
8
1
100
AcDbLine
6
CONTINUOUS
62
5
10
151.500000
20
217.941824
11
152.300000
21
217.941824
0
LINE
5
3ce
100
AcDbEntity
8
1
100
AcDbLine
6
CONTINUOUS
62
5
10
152.000000
20
217.341824
11
153.000000
21
217.341824
0
ARC
5
3cf
100
AcDbEntity
8
1
100
AcDbCircle
6
CONTINUOUS
62
5
10
154.700000
20
213.241824
40
0.500000
100
AcDbArc
50
118.358659
51
-89.999999
0
POLYLINE
5
3d0
100
AcDbEntity
8
1
6
CONTINUOUS
62
5
100
AcDb2dPolyline
66
1
10
0.0
20
0.0
30
0.0
70
0
0
VERTEX
5
3d1
100
AcDbEntity
8
1
100
AcDbVertex
100
AcDb2dVertex
62
5
10
154.462505
20
213.681820
0
VERTEX
5
3d2
100
AcDbEntity
8
1
100
AcDbVertex
100
AcDb2dVertex
62
5
10
155.500000
20
214.241824
0
VERTEX
5
3d3
100
AcDbEntity
8
1
100
AcDbVertex
100
AcDb2dVertex
62
5
10
156.000000
20
214.241824
0
VERTEX
5
3d4
100
AcDbEntity
8
1
100
AcDbVertex
100
AcDb2dVertex
62
5
10
156.500000
20
214.741824
0
SEQEND
5
3d5
100
AcDbEntity
8
1
0
LINE
5
3d6
100
AcDbEntity
8
1
100
AcDbLine
6
CONTINUOUS
62
5
10
155.500000
20
212.741824
11
154.700000
21
212.741824
0
POLYLINE
5
3d7
100
AcDbEntity
8
1
6
CONTINUOUS
62
5
100
AcDb2dPolyline
66
1
10
0.0
20
0.0
30
0.0
70
0
0
VERTEX
5
3d8
100
AcDbEntity
8
1
100
AcDbVertex
100
AcDb2dVertex
62
5
10
156.500000
20
215.441824
0
VERTEX
5
3d9
100
AcDbEntity
8
1
100
AcDbVertex
100
AcDb2dVertex
62
5
10
156.100000
20
215.441824
0
VERTEX
5
3da
100
AcDbEntity
8
1
100
AcDbVertex
100
AcDb2dVertex
62
5
10
156.100000
20
218.296238
0
SEQEND
5
3db
100
AcDbEntity
8
1
0
ARC
5
3dc
100
AcDbEntity
8
1
100
AcDbCircle
6
CONTINUOUS
62
5
10
151.500000
20
217.441824
40
0.500000
100
AcDbArc
50
0.000000
51
89.999999
0
LINE
5
3dd
100
AcDbEntity
8
1
100
AcDbLine
6
CONTINUOUS
62
5
10
152.000000
20
217.441824
11
152.000000
21
217.141970
0
LINE
5
3de
100
AcDbEntity
8
1
100
AcDbLine
6
CONTINUOUS
62
5
10
149.500000
20
215.441824
11
149.500000
21
216.941824
0
ARC
5
3df
100
AcDbEntity
8
1
100
AcDbCircle
6
CONTINUOUS
62
5
10
150.500000
20
216.941824
40
1.000000
100
AcDbArc
50
89.999999
51
179.999998
0
LINE
5
3e0
100
AcDbEntity
8
1
100
AcDbLine
6
CONTINUOUS
62
5
10
150.500000
20
217.941824
11
151.500000
21
217.941824
0
ARC
5
3e1
100
AcDbEntity
8
1
100
AcDbCircle
6
CONTINUOUS
62
5
10
154.500000
20
210.591824
40
0.300000
100
AcDbArc
50
89.999999
51
-179.999998
0
LINE
5
3e2
100
AcDbEntity
8
1
100
AcDbLine
6
CONTINUOUS
62
5
10
154.200000
20
210.591824
11
154.200000
21
203.891824
0
ARC
5
3e3
100
AcDbEntity
8
1
100
AcDbCircle
6
CONTINUOUS
62
5
10
154.500000
20
203.891824
40
0.300000
100
AcDbArc
50
-179.999998
51
-89.999999
0
LINE
5
3e4
100
AcDbEntity
8
1
100
AcDbLine
6
CONTINUOUS
62
5
10
154.500000
20
203.591824
11
154.700000
21
203.591824
0
LINE
5
3e5
100
AcDbEntity
8
1
100
AcDbLine
6
CONTINUOUS
62
5
10
154.700000
20
210.891824
11
154.500000
21
210.891824
0
LINE
5
3e6
100
AcDbEntity
8
1
100
AcDbLine
6
CONTINUOUS
62
5
10
150.500000
20
211.790156
11
150.500000
21
202.693493
0
LINE
5
3e7
100
AcDbEntity
8
1
100
AcDbLine
6
CONTINUOUS
62
5
10
154.500000
20
210.891824
11
154.500000
21
212.783566
0
ARC
5
3e8
100
AcDbEntity
8
1
100
AcDbCircle
6
CONTINUOUS
62
5
10
152.300000
20
217.741824
40
0.500000
100
AcDbArc
50
0.000000
51
89.999999
0
LINE
5
3e9
100
AcDbEntity
8
1
100
AcDbLine
6
CONTINUOUS
62
5
10
152.300000
20
218.241824
11
150.500000
21
218.241824
0
ARC
5
3ea
100
AcDbEntity
8
1
100
AcDbCircle
6
CONTINUOUS
62
5
10
150.500000
20
216.741824
40
1.500000
100
AcDbArc
50
89.999999
51
179.999998
0
LINE
5
3eb
100
AcDbEntity
8
1
100
AcDbLine
6
CONTINUOUS
62
5
10
149.000000
20
216.741824
11
149.000000
21
215.441824
0
LINE
5
3ec
100
AcDbEntity
8
1
100
AcDbLine
6
CONTINUOUS
62
5
10
152.800000
20
217.341824
11
152.800000
21
217.741824
0
LINE
5
3ed
100
AcDbEntity
8
1
100
AcDbLine
6
CONTINUOUS
62
5
10
156.100000
20
197.141824
11
156.500000
21
197.141824
0
POLYLINE
5
3ee
100
AcDbEntity
8
1
6
CONTINUOUS
62
5
100
AcDb2dPolyline
66
1
10
0.0
20
0.0
30
0.0
70
0
0
VERTEX
5
3ef
100
AcDbEntity
8
1
100
AcDbVertex
100
AcDb2dVertex
62
5
10
156.100000
20
196.187412
0
VERTEX
5
3f0
100
AcDbEntity
8
1
100
AcDbVertex
100
AcDb2dVertex
62
5
10
156.100000
20
199.041824
0
VERTEX
5
3f1
100
AcDbEntity
8
1
100
AcDbVertex
100
AcDb2dVertex
62
5
10
156.500000
20
199.041824
0
SEQEND
5
3f2
100
AcDbEntity
8
1
0
ARC
5
3f3
100
AcDbEntity
8
1
100
AcDbCircle
6
CONTINUOUS
62
5
10
152.300000
20
197.041824
40
0.500000
100
AcDbArc
50
-89.999999
51
-0.000000
0
LINE
5
3f4
100
AcDbEntity
8
1
100
AcDbLine
6
CONTINUOUS
62
5
10
151.500000
20
196.541824
11
152.300000
21
196.541824
0
LINE
5
3f5
100
AcDbEntity
8
1
100
AcDbLine
6
CONTINUOUS
62
5
10
152.000000
20
197.141824
11
153.000000
21
197.141824
0
ARC
5
3f6
100
AcDbEntity
8
1
100
AcDbCircle
6
CONTINUOUS
62
5
10
151.500000
20
197.041824
40
0.500000
100
AcDbArc
50
-89.999999
51
0.000000
0
LINE
5
3f7
100
AcDbEntity
8
1
100
AcDbLine
6
CONTINUOUS
62
5
10
152.000000
20
197.041824
11
152.000000
21
197.341679
0
LINE
5
3f8
100
AcDbEntity
8
1
100
AcDbLine
6
CONTINUOUS
62
5
10
149.500000
20
199.041824
11
149.500000
21
197.541824
0
ARC
5
3f9
100
AcDbEntity
8
1
100
AcDbCircle
6
CONTINUOUS
62
5
10
150.500000
20
197.541824
40
1.000000
100
AcDbArc
50
179.999998
51
-89.999999
0
LINE
5
3fa
100
AcDbEntity
8
1
100
AcDbLine
6
CONTINUOUS
62
5
10
150.500000
20
196.541824
11
151.500000
21
196.541824
0
ARC
5
3fb
100
AcDbEntity
8
1
100
AcDbCircle
6
CONTINUOUS
62
5
10
154.700000
20
201.241824
40
0.500000
100
AcDbArc
50
89.999999
51
-118.358659
0
LINE
5
3fc
100
AcDbEntity
8
1
100
AcDbLine
6
CONTINUOUS
62
5
10
154.700000
20
201.741824
11
155.500000
21
201.741824
0
POLYLINE
5
3fd
100
AcDbEntity
8
1
6
CONTINUOUS
62
5
100
AcDb2dPolyline
66
1
10
0.0
20
0.0
30
0.0
70
0
0
VERTEX
5
3fe
100
AcDbEntity
8
1
100
AcDbVertex
100
AcDb2dVertex
62
5
10
156.500000
20
199.741824
0
VERTEX
5
3ff
100
AcDbEntity
8
1
100
AcDbVertex
100
AcDb2dVertex
62
5
10
156.000000
20
200.241824
0
VERTEX
5
400
100
AcDbEntity
8
1
100
AcDbVertex
100
AcDb2dVertex
62
5
10
155.500000
20
200.241824
0
VERTEX
5
401
100
AcDbEntity
8
1
100
AcDbVertex
100
AcDb2dVertex
62
5
10
154.462505
20
200.801828
0
SEQEND
5
402
100
AcDbEntity
8
1
0
ARC
5
403
100
AcDbEntity
8
1
100
AcDbCircle
6
CONTINUOUS
62
5
10
150.500000
20
197.741824
40
1.500000
100
AcDbArc
50
179.999998
51
-89.999999
0
LINE
5
404
100
AcDbEntity
8
1
100
AcDbLine
6
CONTINUOUS
62
5
10
150.500000
20
196.241824
11
152.300000
21
196.241824
0
ARC
5
405
100
AcDbEntity
8
1
100
AcDbCircle
6
CONTINUOUS
62
5
10
152.300000
20
196.741824
40
0.500000
100
AcDbArc
50
-89.999999
51
0.000000
0
LINE
5
406
100
AcDbEntity
8
1
100
AcDbLine
6
CONTINUOUS
62
5
10
152.800000
20
196.741824
11
152.800000
21
197.141824
0
LINE
5
407
100
AcDbEntity
8
1
100
AcDbLine
6
CONTINUOUS
62
5
10
149.000000
20
199.041824
11
149.000000
21
197.741824
0
POLYLINE
5
408
100
AcDbEntity
8
0
6
CONTINUOUS
62
5
100
AcDb2dPolyline
66
1
10
0.0
20
0.0
30
0.0
70
1
0
VERTEX
5
409
100
AcDbEntity
8
0
100
AcDbVertex
100
AcDb2dVertex
62
5
10
166.848522
20
201.409967
0
VERTEX
5
40a
100
AcDbEntity
8
0
100
AcDbVertex
100
AcDb2dVertex
62
5
10
167.665105
20
201.409967
0
VERTEX
5
40b
100
AcDbEntity
8
0
100
AcDbVertex
100
AcDb2dVertex
62
5
10
167.665105
20
202.315951
0
SEQEND
5
40c
100
AcDbEntity
8
0
0
POLYLINE
5
40d
100
AcDbEntity
8
0
6
CONTINUOUS
62
5
100
AcDb2dPolyline
66
1
10
0.0
20
0.0
30
0.0
70
1
0
VERTEX
5
40e
100
AcDbEntity
8
0
100
AcDbVertex
100
AcDb2dVertex
62
5
10
167.839977
20
202.495439
0
VERTEX
5
40f
100
AcDbEntity
8
0
100
AcDbVertex
100
AcDb2dVertex
62
5
10
167.839977
20
201.409967
0
VERTEX
5
410
100
AcDbEntity
8
0
100
AcDbVertex
100
AcDb2dVertex
62
5
10
168.156216
20
201.409967
0
VERTEX
5
411
100
AcDbEntity
8
0
100
AcDbVertex
100
AcDb2dVertex
62
5
10
168.207499
20
201.401420
0
VERTEX
5
412
100
AcDbEntity
8
0
100
AcDbVertex
100
AcDb2dVertex
62
5
10
168.235989
20
201.375779
0
VERTEX
5
413
100
AcDbEntity
8
0
100
AcDbVertex
100
AcDb2dVertex
62
5
10
168.241687
20
201.333043
0
VERTEX
5
414
100
AcDbEntity
8
0
100
AcDbVertex
100
AcDb2dVertex
62
5
10
168.228391
20
201.284705
0
VERTEX
5
415
100
AcDbEntity
8
0
100
AcDbVertex
100
AcDb2dVertex
62
5
10
168.199901
20
201.255702
0
VERTEX
5
416
100
AcDbEntity
8
0
100
AcDbVertex
100
AcDb2dVertex
62
5
10
168.156216
20
201.246035
0
VERTEX
5
417
100
AcDbEntity
8
0
100
AcDbVertex
100
AcDb2dVertex
62
5
10
167.839977
20
201.246035
0
VERTEX
5
418
100
AcDbEntity
8
0
100
AcDbVertex
100
AcDb2dVertex
62
5
10
167.839977
20
200.922786
0
VERTEX
5
419
100
AcDbEntity
8
0
100
AcDbVertex
100
AcDb2dVertex
62
5
10
167.830480
20
200.870555
0
VERTEX
5
41a
100
AcDbEntity
8
0
100
AcDbVertex
100
AcDb2dVertex
62
5
10
167.801990
20
200.839216
0
VERTEX
5
41b
100
AcDbEntity
8
0
100
AcDbVertex
100
AcDb2dVertex
62
5
10
167.754506
20
200.828769
0
VERTEX
5
41c
100
AcDbEntity
8
0
100
AcDbVertex
100
AcDb2dVertex
62
5
10
167.704839
20
200.839216
0
VERTEX
5
41d
100
AcDbEntity
8
0
100
AcDbVertex
100
AcDb2dVertex
62
5
10
167.675038
20
200.870555
0
VERTEX
5
41e
100
AcDbEntity
8
0
100
AcDbVertex
100
AcDb2dVertex
62
5
10
167.665105
20
200.922786
0
VERTEX
5
41f
100
AcDbEntity
8
0
100
AcDbVertex
100
AcDb2dVertex
62
5
10
167.665105
20
201.246035
0
VERTEX
5
420
100
AcDbEntity
8
0
100
AcDbVertex
100
AcDb2dVertex
62
5
10
166.711770
20
201.246035
0
VERTEX
5
421
100
AcDbEntity
8
0
100
AcDbVertex
100
AcDb2dVertex
62
5
10
166.664286
20
201.256652
0
VERTEX
5
422
100
AcDbEntity
8
0
100
AcDbVertex
100
AcDb2dVertex
62
5
10
166.635796
20
201.288504
0
VERTEX
5
423
100
AcDbEntity
8
0
100
AcDbVertex
100
AcDb2dVertex
62
5
10
166.626299
20
201.341590
0
VERTEX
5
424
100
AcDbEntity
8
0
100
AcDbVertex
100
AcDb2dVertex
62
5
10
166.629149
20
201.364383
0
VERTEX
5
425
100
AcDbEntity
8
0
100
AcDbVertex
100
AcDb2dVertex
62
5
10
166.637696
20
201.387175
0
VERTEX
5
426
100
AcDbEntity
8
0
100
AcDbVertex
100
AcDb2dVertex
62
5
10
166.651941
20
201.409967
0
VERTEX
5
427
100
AcDbEntity
8
0
100
AcDbVertex
100
AcDb2dVertex
62
5
10
167.660489
20
202.521080
0
VERTEX
5
428
100
AcDbEntity
8
0
100
AcDbVertex
100
AcDb2dVertex
62
5
10
167.694677
20
202.554318
0
VERTEX
5
429
100
AcDbEntity
8
0
100
AcDbVertex
100
AcDb2dVertex
62
5
10
167.728865
20
202.574261
0
VERTEX
5
42a
100
AcDbEntity
8
0
100
AcDbVertex
100
AcDb2dVertex
62
5
10
167.763053
20
202.580909
0
VERTEX
5
42b
100
AcDbEntity
8
0
100
AcDbVertex
100
AcDb2dVertex
62
5
10
167.805789
20
202.571412
0
VERTEX
5
42c
100
AcDbEntity
8
0
100
AcDbVertex
100
AcDb2dVertex
62
5
10
167.831430
20
202.542922
0
SEQEND
5
42d
100
AcDbEntity
8
0
0
POLYLINE
5
42e
100
AcDbEntity
8
1
6
CONTINUOUS
62
5
100
AcDb2dPolyline
66
1
10
0.0
20
0.0
30
0.0
70
1
0
VERTEX
5
42f
100
AcDbEntity
8
1
100
AcDbVertex
100
AcDb2dVertex
62
5
10
154.500000
20
201.700082
0
VERTEX
5
430
100
AcDbEntity
8
1
100
AcDbVertex
100
AcDb2dVertex
62
5
10
154.500000
20
203.591824
0
SEQEND
5
431
100
AcDbEntity
8
1
0
LINE
5
432
100
AcDbEntity
8
1
100
AcDbLine
6
CONTINUOUS
62
5
10
154.700000
20
201.741824
11
154.700000
21
212.741824
0
LINE
5
433
100
AcDbEntity
8
1
100
AcDbLine
6
CONTINUOUS
62
5
10
149.000000
20
212.541824
11
149.000000
21
201.941824
0
ARC
5
434
100
AcDbEntity
8
1
100
AcDbCircle
6
CONTINUOUS
62
5
10
156.000000
20
201.241824
40
0.500000
100
AcDbArc
50
179.999998
51
-89.999999
0
LINE
5
435
100
AcDbEntity
8
1
100
AcDbLine
6
CONTINUOUS
62
5
10
156.000000
20
200.741824
11
156.500000
21
200.741824
0
LINE
5
436
100
AcDbEntity
8
1
100
AcDbLine
6
CONTINUOUS
62
5
10
156.500000
20
213.741824
11
156.000000
21
213.741824
0
ARC
5
437
100
AcDbEntity
8
1
100
AcDbCircle
6
CONTINUOUS
62
5
10
156.000000
20
213.241824
40
0.500000
100
AcDbArc
50
89.999999
51
179.999998
0
LINE
5
438
100
AcDbEntity
8
1
100
AcDbLine
6
CONTINUOUS
62
5
10
155.500000
20
213.241824
11
155.500000
21
201.241824
0
ARC
5
439
100
AcDbEntity
8
1
100
AcDbCircle
6
CONTINUOUS
62
5
10
151.687124
20
198.342541
40
1.000908
100
AcDbArc
50
-172.251537
51
-89.999999
0
ARC
5
43a
100
AcDbEntity
8
1
100
AcDbCircle
6
CONTINUOUS
62
5
10
149.709556
20
198.042257
40
0.999567
100
AcDbArc
50
9.521021
51
90.008960
0
LINE
5
43b
100
AcDbEntity
8
1
100
AcDbLine
6
CONTINUOUS
62
5
10
149.709400
20
199.041824
11
149.000000
21
199.041824
0
ARC
5
43c
100
AcDbEntity
8
1
100
AcDbCircle
6
CONTINUOUS
62
5
10
149.000000
20
199.541824
40
0.500000
100
AcDbArc
50
179.999998
51
-89.999999
0
LINE
5
43d
100
AcDbEntity
8
1
100
AcDbLine
6
CONTINUOUS
62
5
10
148.500000
20
199.541824
11
148.500000
21
201.441824
0
ARC
5
43e
100
AcDbEntity
8
1
100
AcDbCircle
6
CONTINUOUS
62
5
10
149.000000
20
201.441824
40
0.500000
100
AcDbArc
50
89.999999
51
-179.999998
0
LINE
5
43f
100
AcDbEntity
8
1
100
AcDbLine
6
CONTINUOUS
62
5
10
149.000000
20
201.941824
11
149.200000
21
201.941824
0
ARC
5
440
100
AcDbEntity
8
1
100
AcDbCircle
6
CONTINUOUS
62
5
10
149.200000
20
203.441824
40
1.500000
100
AcDbArc
50
-89.999999
51
-0.000000
0
LINE
5
441
100
AcDbEntity
8
1
100
AcDbLine
6
CONTINUOUS
62
5
10
150.700000
20
203.441824
11
150.700000
21
211.041824
0
ARC
5
442
100
AcDbEntity
8
1
100
AcDbCircle
6
CONTINUOUS
62
5
10
149.200000
20
211.041824
40
1.500000
100
AcDbArc
50
0.000000
51
89.999999
0
LINE
5
443
100
AcDbEntity
8
1
100
AcDbLine
6
CONTINUOUS
62
5
10
149.200000
20
212.541824
11
149.000000
21
212.541824
0
ARC
5
444
100
AcDbEntity
8
1
100
AcDbCircle
6
CONTINUOUS
62
5
10
149.000000
20
213.041824
40
0.500000
100
AcDbArc
50
179.999998
51
-89.999999
0
LINE
5
445
100
AcDbEntity
8
1
100
AcDbLine
6
CONTINUOUS
62
5
10
148.500000
20
213.041824
11
148.500000
21
214.941824
0
ARC
5
446
100
AcDbEntity
8
1
100
AcDbCircle
6
CONTINUOUS
62
5
10
149.000000
20
214.941824
40
0.500000
100
AcDbArc
50
89.999999
51
-179.999998
0
LINE
5
447
100
AcDbEntity
8
1
100
AcDbLine
6
CONTINUOUS
62
5
10
149.000000
20
215.441824
11
149.709400
21
215.441824
0
ARC
5
448
100
AcDbEntity
8
1
100
AcDbCircle
6
CONTINUOUS
62
5
10
149.709561
20
216.441377
40
0.999553
100
AcDbArc
50
-90.009250
51
-9.506646
0
ARC
5
449
100
AcDbEntity
8
1
100
AcDbCircle
6
CONTINUOUS
62
5
10
151.687124
20
216.141107
40
1.000908
100
AcDbArc
50
89.999999
51
172.237957
0
POLYLINE
5
44a
100
AcDbEntity
8
1
6
CONTINUOUS
62
5
100
AcDb2dPolyline
66
1
10
0.0
20
0.0
30
0.0
70
0
0
VERTEX
5
44b
100
AcDbEntity
8
1
100
AcDbVertex
100
AcDb2dVertex
62
5
10
151.687124
20
217.142015
0
VERTEX
5
44c
100
AcDbEntity
8
1
100
AcDbVertex
100
AcDb2dVertex
62
5
10
153.000000
20
217.141824
0
VERTEX
5
44d
100
AcDbEntity
8
1
100
AcDbVertex
100
AcDb2dVertex
62
5
10
153.000000
20
218.297166
0
VERTEX
5
44e
100
AcDbEntity
8
1
100
AcDbVertex
100
AcDb2dVertex
62
5
10
156.500000
20
218.296118
0
VERTEX
5
44f
100
AcDbEntity
8
1
100
AcDbVertex
100
AcDb2dVertex
62
5
10
156.500000
20
217.496118
0
VERTEX
5
450
100
AcDbEntity
8
1
100
AcDbVertex
100
AcDb2dVertex
62
5
10
156.100000
20
217.496238
0
SEQEND
5
451
100
AcDbEntity
8
1
0
POLYLINE
5
452
100
AcDbEntity
8
1
6
CONTINUOUS
62
5
100
AcDb2dPolyline
66
1
10
0.0
20
0.0
30
0.0
70
0
0
VERTEX
5
453
100
AcDbEntity
8
1
100
AcDbVertex
100
AcDb2dVertex
62
5
10
156.100000
20
196.991807
0
VERTEX
5
454
100
AcDbEntity
8
1
100
AcDbVertex
100
AcDb2dVertex
62
5
10
156.500000
20
196.991807
0
VERTEX
5
455
100
AcDbEntity
8
1
100
AcDbVertex
100
AcDb2dVertex
62
5
10
156.500000
20
196.187532
0
VERTEX
5
456
100
AcDbEntity
8
1
100
AcDbVertex
100
AcDb2dVertex
62
5
10
153.000000
20
196.186484
0
VERTEX
5
457
100
AcDbEntity
8
1
100
AcDbVertex
100
AcDb2dVertex
62
5
10
153.000000
20
197.341824
0
VERTEX
5
458
100
AcDbEntity
8
1
100
AcDbVertex
100
AcDb2dVertex
62
5
10
151.687124
20
197.341633
0
SEQEND
5
459
100
AcDbEntity
8
1
0
ARC
5
45a
100
AcDbEntity
8
1
100
AcDbCircle
6
CONTINUOUS
62
5
10
161.767144
20
199.841824
40
0.500000
100
AcDbArc
50
179.999998
51
-89.999999
0
LINE
5
45b
100
AcDbEntity
8
1
100
AcDbLine
6
CONTINUOUS
62
5
10
161.267144
20
199.841824
11
161.267144
21
214.641824
0
ARC
5
45c
100
AcDbEntity
8
1
100
AcDbCircle
6
CONTINUOUS
62
5
10
161.767144
20
214.641824
40
0.500000
100
AcDbArc
50
89.999999
51
-179.999998
0
LINE
5
45d
100
AcDbEntity
8
1
100
AcDbLine
6
CONTINUOUS
62
5
10
155.700000
20
218.591824
11
121.500000
21
218.591824
0
LINE
5
45e
100
AcDbEntity
8
1
100
AcDbLine
6
CONTINUOUS
62
5
10
155.700000
20
195.891824
11
121.500000
21
195.891824
0
POLYLINE
5
45f
100
AcDbEntity
8
1
6
CONTINUOUS
62
5
100
AcDb2dPolyline
66
1
10
0.0
20
0.0
30
0.0
70
0
0
VERTEX
5
460
100
AcDbEntity
8
1
100
AcDbVertex
100
AcDb2dVertex
62
5
10
123.500000
20
249.891824
0
VERTEX
5
461
100
AcDbEntity
8
1
100
AcDbVertex
100
AcDb2dVertex
62
5
10
123.500000
20
218.591824
0
VERTEX
5
462
100
AcDbEntity
8
1
100
AcDbVertex
100
AcDb2dVertex
62
5
10
122.500000
20
224.591824
0
VERTEX
5
463
100
AcDbEntity
8
1
100
AcDbVertex
100
AcDb2dVertex
62
5
10
124.500000
20
224.591824
0
VERTEX
5
464
100
AcDbEntity
8
1
100
AcDbVertex
100
AcDb2dVertex
62
5
10
123.500000
20
218.591824
0
VERTEX
5
465
100
AcDbEntity
8
1
100
AcDbVertex
100
AcDb2dVertex
62
5
10
123.000000
20
224.591824
0
VERTEX
5
466
100
AcDbEntity
8
1
100
AcDbVertex
100
AcDb2dVertex
62
5
10
124.000000
20
224.591824
0
VERTEX
5
467
100
AcDbEntity
8
1
100
AcDbVertex
100
AcDb2dVertex
62
5
10
123.500000
20
218.591824
0
SEQEND
5
468
100
AcDbEntity
8
1
0
LINE
5
469
100
AcDbEntity
8
1
100
AcDbLine
6
CONTINUOUS
62
5
10
123.500000
20
195.891824
11
123.500000
21
218.591824
0
POLYLINE
5
46a
100
AcDbEntity
8
1
6
CONTINUOUS
62
5
100
AcDb2dPolyline
66
1
10
0.0
20
0.0
30
0.0
70
0
0
VERTEX
5
46b
100
AcDbEntity
8
1
100
AcDbVertex
100
AcDb2dVertex
62
5
10
123.500000
20
186.891824
0
VERTEX
5
46c
100
AcDbEntity
8
1
100
AcDbVertex
100
AcDb2dVertex
62
5
10
123.500000
20
195.891824
0
VERTEX
5
46d
100
AcDbEntity
8
1
100
AcDbVertex
100
AcDb2dVertex
62
5
10
124.500000
20
189.891824
0
VERTEX
5
46e
100
AcDbEntity
8
1
100
AcDbVertex
100
AcDb2dVertex
62
5
10
122.500000
20
189.891824
0
VERTEX
5
46f
100
AcDbEntity
8
1
100
AcDbVertex
100
AcDb2dVertex
62
5
10
123.500000
20
195.891824
0
VERTEX
5
470
100
AcDbEntity
8
1
100
AcDbVertex
100
AcDb2dVertex
62
5
10
124.000000
20
189.891824
0
VERTEX
5
471
100
AcDbEntity
8
1
100
AcDbVertex
100
AcDb2dVertex
62
5
10
123.000000
20
189.891824
0
VERTEX
5
472
100
AcDbEntity
8
1
100
AcDbVertex
100
AcDb2dVertex
62
5
10
123.500000
20
195.891824
0
SEQEND
5
473
100
AcDbEntity
8
1
0
POLYLINE
5
474
100
AcDbEntity
8
1
6
DOT2
62
5
100
AcDb2dPolyline
66
1
10
0.0
20
0.0
30
0.0
70
0
0
VERTEX
5
475
100
AcDbEntity
8
1
100
AcDbVertex
100
AcDb2dVertex
62
5
10
166.750000
20
250.204324
0
VERTEX
5
476
100
AcDbEntity
8
1
100
AcDbVertex
100
AcDb2dVertex
62
5
10
167.062500
20
251.766824
0
VERTEX
5
477
100
AcDbEntity
8
1
100
AcDbVertex
100
AcDb2dVertex
62
5
10
168.000000
20
252.391824
0
VERTEX
5
478
100
AcDbEntity
8
1
100
AcDbVertex
100
AcDb2dVertex
62
5
10
168.937500
20
252.391824
0
VERTEX
5
479
100
AcDbEntity
8
1
100
AcDbVertex
100
AcDb2dVertex
62
5
10
169.562500
20
252.079324
0
VERTEX
5
47a
100
AcDbEntity
8
1
100
AcDbVertex
100
AcDb2dVertex
62
5
10
169.875000
20
251.141824
0
VERTEX
5
47b
100
AcDbEntity
8
1
100
AcDbVertex
100
AcDb2dVertex
62
5
10
169.875000
20
250.204324
0
VERTEX
5
47c
100
AcDbEntity
8
1
100
AcDbVertex
100
AcDb2dVertex
62
5
10
169.562500
20
249.266824
0
VERTEX
5
47d
100
AcDbEntity
8
1
100
AcDbVertex
100
AcDb2dVertex
62
5
10
166.750000
20
244.891824
0
VERTEX
5
47e
100
AcDbEntity
8
1
100
AcDbVertex
100
AcDb2dVertex
62
5
10
169.875000
20
244.891824
0
VERTEX
5
47f
100
AcDbEntity
8
1
100
AcDbVertex
100
AcDb2dVertex
62
5
10
169.875000
20
245.829324
0
SEQEND
5
480
100
AcDbEntity
8
1
0
LINE
5
481
100
AcDbEntity
8
1
100
AcDbLine
6
CONTINUOUS
62
5
10
156.500000
20
219.641824
11
156.500000
21
245.641824
0
LINE
5
482
100
AcDbEntity
8
1
100
AcDbLine
6
CONTINUOUS
62
5
10
184.500000
20
219.645769
11
184.500000
21
245.641824
0
POLYLINE
5
483
100
AcDbEntity
8
1
6
CONTINUOUS
62
5
100
AcDb2dPolyline
66
1
10
0.0
20
0.0
30
0.0
70
0
0
VERTEX
5
484
100
AcDbEntity
8
1
100
AcDbVertex
100
AcDb2dVertex
62
5
10
170.500000
20
243.641824
0
VERTEX
5
485
100
AcDbEntity
8
1
100
AcDbVertex
100
AcDb2dVertex
62
5
10
156.500000
20
243.641824
0
VERTEX
5
486
100
AcDbEntity
8
1
100
AcDbVertex
100
AcDb2dVertex
62
5
10
162.500000
20
244.641824
0
VERTEX
5
487
100
AcDbEntity
8
1
100
AcDbVertex
100
AcDb2dVertex
62
5
10
162.500000
20
242.641824
0
VERTEX
5
488
100
AcDbEntity
8
1
100
AcDbVertex
100
AcDb2dVertex
62
5
10
156.500000
20
243.641824
0
VERTEX
5
489
100
AcDbEntity
8
1
100
AcDbVertex
100
AcDb2dVertex
62
5
10
162.500000
20
244.141824
0
VERTEX
5
48a
100
AcDbEntity
8
1
100
AcDbVertex
100
AcDb2dVertex
62
5
10
162.500000
20
243.141824
0
VERTEX
5
48b
100
AcDbEntity
8
1
100
AcDbVertex
100
AcDb2dVertex
62
5
10
156.500000
20
243.641824
0
SEQEND
5
48c
100
AcDbEntity
8
1
0
POLYLINE
5
48d
100
AcDbEntity
8
1
6
CONTINUOUS
62
5
100
AcDb2dPolyline
66
1
10
0.0
20
0.0
30
0.0
70
0
0
VERTEX
5
48e
100
AcDbEntity
8
1
100
AcDbVertex
100
AcDb2dVertex
62
5
10
170.500000
20
243.641824
0
VERTEX
5
48f
100
AcDbEntity
8
1
100
AcDbVertex
100
AcDb2dVertex
62
5
10
184.500000
20
243.641824
0
VERTEX
5
490
100
AcDbEntity
8
1
100
AcDbVertex
100
AcDb2dVertex
62
5
10
178.500000
20
242.641824
0
VERTEX
5
491
100
AcDbEntity
8
1
100
AcDbVertex
100
AcDb2dVertex
62
5
10
178.500000
20
244.641824
0
VERTEX
5
492
100
AcDbEntity
8
1
100
AcDbVertex
100
AcDb2dVertex
62
5
10
184.500000
20
243.641824
0
VERTEX
5
493
100
AcDbEntity
8
1
100
AcDbVertex
100
AcDb2dVertex
62
5
10
178.500000
20
243.141824
0
VERTEX
5
494
100
AcDbEntity
8
1
100
AcDbVertex
100
AcDb2dVertex
62
5
10
178.500000
20
244.141824
0
VERTEX
5
495
100
AcDbEntity
8
1
100
AcDbVertex
100
AcDb2dVertex
62
5
10
184.500000
20
243.641824
0
SEQEND
5
496
100
AcDbEntity
8
1
0
LINE
5
497
100
AcDbEntity
8
1
100
AcDbLine
6
CONTINUOUS
62
5
10
166.250000
20
335.250000
11
169.250000
21
335.250000
0
LINE
5
498
100
AcDbEntity
8
1
100
AcDbLine
6
CONTINUOUS
62
5
10
165.750000
20
332.437500
11
169.750000
21
332.437500
0
LINE
5
499
100
AcDbEntity
8
1
100
AcDbLine
6
CONTINUOUS
62
5
10
167.750000
20
335.250000
11
167.750000
21
332.437500
0
POLYLINE
5
49a
100
AcDbEntity
8
1
6
CONTINUOUS
62
5
100
AcDb2dPolyline
66
1
10
0.0
20
0.0
30
0.0
70
1
0
VERTEX
5
49b
100
AcDbEntity
8
1
100
AcDbVertex
100
AcDb2dVertex
62
5
10
169.419107
20
215.919726
0
VERTEX
5
49c
100
AcDbEntity
8
1
100
AcDbVertex
100
AcDb2dVertex
62
5
10
168.819107
20
215.919726
0
VERTEX
5
49d
100
AcDbEntity
8
1
100
AcDbVertex
100
AcDb2dVertex
62
5
10
168.819107
20
217.919726
0
VERTEX
5
49e
100
AcDbEntity
8
1
100
AcDbVertex
100
AcDb2dVertex
62
5
10
169.419107
20
217.919726
0
VERTEX
5
49f
100
AcDbEntity
8
1
100
AcDbVertex
100
AcDb2dVertex
62
5
10
169.819107
20
217.226905
0
VERTEX
5
4a0
100
AcDbEntity
8
1
100
AcDbVertex
100
AcDb2dVertex
62
5
10
170.219107
20
217.919726
0
VERTEX
5
4a1
100
AcDbEntity
8
1
100
AcDbVertex
100
AcDb2dVertex
62
5
10
170.819106
20
217.919726
0
VERTEX
5
4a2
100
AcDbEntity
8
1
100
AcDbVertex
100
AcDb2dVertex
62
5
10
170.819106
20
215.919726
0
VERTEX
5
4a3
100
AcDbEntity
8
1
100
AcDbVertex
100
AcDb2dVertex
62
5
10
170.219107
20
215.919726
0
VERTEX
5
4a4
100
AcDbEntity
8
1
100
AcDbVertex
100
AcDb2dVertex
62
5
10
170.219107
20
217.119726
0
VERTEX
5
4a5
100
AcDbEntity
8
1
100
AcDbVertex
100
AcDb2dVertex
62
5
10
169.819107
20
216.426906
0
VERTEX
5
4a6
100
AcDbEntity
8
1
100
AcDbVertex
100
AcDb2dVertex
62
5
10
169.419107
20
217.119726
0
SEQEND
5
4a7
100
AcDbEntity
8
1
0
POLYLINE
5
4a8
100
AcDbEntity
8
0
6
CONTINUOUS
62
5
100
AcDb2dPolyline
66
1
10
0.0
20
0.0
30
0.0
70
1
0
VERTEX
5
4a9
100
AcDbEntity
8
0
100
AcDbVertex
100
AcDb2dVertex
62
5
10
168.820493
20
201.444155
0
VERTEX
5
4aa
100
AcDbEntity
8
0
100
AcDbVertex
100
AcDb2dVertex
62
5
10
169.709384
20
201.444155
0
VERTEX
5
4ab
100
AcDbEntity
8
0
100
AcDbVertex
100
AcDb2dVertex
62
5
10
169.264939
20
202.392874
0
SEQEND
5
4ac
100
AcDbEntity
8
0
0
POLYLINE
5
4ad
100
AcDbEntity
8
0
6
CONTINUOUS
62
5
100
AcDb2dPolyline
66
1
10
0.0
20
0.0
30
0.0
70
1
0
VERTEX
5
4ae
100
AcDbEntity
8
0
100
AcDbVertex
100
AcDb2dVertex
62
5
10
168.760664
20
201.302103
0
VERTEX
5
4af
100
AcDbEntity
8
0
100
AcDbVertex
100
AcDb2dVertex
62
5
10
168.564083
20
200.888598
0
VERTEX
5
4b0
100
AcDbEntity
8
0
100
AcDbVertex
100
AcDb2dVertex
62
5
10
168.531794
20
200.845768
0
VERTEX
5
4b1
100
AcDbEntity
8
0
100
AcDbVertex
100
AcDb2dVertex
62
5
10
168.491908
20
200.826908
0
VERTEX
5
4b2
100
AcDbEntity
8
0
100
AcDbVertex
100
AcDb2dVertex
62
5
10
168.444424
20
200.832017
0
VERTEX
5
4b3
100
AcDbEntity
8
0
100
AcDbVertex
100
AcDb2dVertex
62
5
10
168.410236
20
200.861780
0
VERTEX
5
4b4
100
AcDbEntity
8
0
100
AcDbVertex
100
AcDb2dVertex
62
5
10
168.398840
20
200.903432
0
VERTEX
5
4b5
100
AcDbEntity
8
0
100
AcDbVertex
100
AcDb2dVertex
62
5
10
168.410236
20
200.956974
0
VERTEX
5
4b6
100
AcDbEntity
8
0
100
AcDbVertex
100
AcDb2dVertex
62
5
10
169.145280
20
202.503986
0
VERTEX
5
4b7
100
AcDbEntity
8
0
100
AcDbVertex
100
AcDb2dVertex
62
5
10
169.173770
20
202.546721
0
VERTEX
5
4b8
100
AcDbEntity
8
0
100
AcDbVertex
100
AcDb2dVertex
62
5
10
169.213657
20
202.572362
0
VERTEX
5
4b9
100
AcDbEntity
8
0
100
AcDbVertex
100
AcDb2dVertex
62
5
10
169.264939
20
202.580909
0
VERTEX
5
4ba
100
AcDbEntity
8
0
100
AcDbVertex
100
AcDb2dVertex
62
5
10
169.316221
20
202.572362
0
VERTEX
5
4bb
100
AcDbEntity
8
0
100
AcDbVertex
100
AcDb2dVertex
62
5
10
169.356107
20
202.546721
0
VERTEX
5
4bc
100
AcDbEntity
8
0
100
AcDbVertex
100
AcDb2dVertex
62
5
10
169.384597
20
202.503986
0
VERTEX
5
4bd
100
AcDbEntity
8
0
100
AcDbVertex
100
AcDb2dVertex
62
5
10
170.119641
20
200.956974
0
VERTEX
5
4be
100
AcDbEntity
8
0
100
AcDbVertex
100
AcDb2dVertex
62
5
10
170.131037
20
200.903432
0
VERTEX
5
4bf
100
AcDbEntity
8
0
100
AcDbVertex
100
AcDb2dVertex
62
5
10
170.119641
20
200.861780
0
VERTEX
5
4c0
100
AcDbEntity
8
0
100
AcDbVertex
100
AcDb2dVertex
62
5
10
170.085453
20
200.832017
0
VERTEX
5
4c1
100
AcDbEntity
8
0
100
AcDbVertex
100
AcDb2dVertex
62
5
10
170.037969
20
200.826908
0
VERTEX
5
4c2
100
AcDbEntity
8
0
100
AcDbVertex
100
AcDb2dVertex
62
5
10
169.998083
20
200.845768
0
VERTEX
5
4c3
100
AcDbEntity
8
0
100
AcDbVertex
100
AcDb2dVertex
62
5
10
169.965794
20
200.888598
0
VERTEX
5
4c4
100
AcDbEntity
8
0
100
AcDbVertex
100
AcDb2dVertex
62
5
10
169.769213
20
201.302103
0
SEQEND
5
4c5
100
AcDbEntity
8
0
0
POLYLINE
5
4c6
100
AcDbEntity
8
0
6
CONTINUOUS
62
5
100
AcDb2dPolyline
66
1
10
0.0
20
0.0
30
0.0
70
1
0
VERTEX
5
4c7
100
AcDbEntity
8
0
100
AcDbVertex
100
AcDb2dVertex
62
5
10
170.454150
20
201.814925
0
VERTEX
5
4c8
100
AcDbEntity
8
0
100
AcDbVertex
100
AcDb2dVertex
62
5
10
170.411415
20
201.823111
0
VERTEX
5
4c9
100
AcDbEntity
8
0
100
AcDbVertex
100
AcDb2dVertex
62
5
10
170.385774
20
201.847669
0
VERTEX
5
4ca
100
AcDbEntity
8
0
100
AcDbVertex
100
AcDb2dVertex
62
5
10
170.377227
20
201.888600
0
VERTEX
5
4cb
100
AcDbEntity
8
0
100
AcDbVertex
100
AcDb2dVertex
62
5
10
170.385774
20
201.926587
0
VERTEX
5
4cc
100
AcDbEntity
8
0
100
AcDbVertex
100
AcDb2dVertex
62
5
10
170.411415
20
201.949379
0
VERTEX
5
4cd
100
AcDbEntity
8
0
100
AcDbVertex
100
AcDb2dVertex
62
5
10
170.454150
20
201.956976
0
VERTEX
5
4ce
100
AcDbEntity
8
0
100
AcDbVertex
100
AcDb2dVertex
62
5
10
170.924236
20
201.956976
0
VERTEX
5
4cf
100
AcDbEntity
8
0
100
AcDbVertex
100
AcDb2dVertex
62
5
10
171.384237
20
201.965523
0
VERTEX
5
4d0
100
AcDbEntity
8
0
100
AcDbVertex
100
AcDb2dVertex
62
5
10
171.384237
20
202.281763
0
VERTEX
5
4d1
100
AcDbEntity
8
0
100
AcDbVertex
100
AcDb2dVertex
62
5
10
170.924236
20
202.267917
0
VERTEX
5
4d2
100
AcDbEntity
8
0
100
AcDbVertex
100
AcDb2dVertex
62
5
10
170.454150
20
202.267917
0
VERTEX
5
4d3
100
AcDbEntity
8
0
100
AcDbVertex
100
AcDb2dVertex
62
5
10
170.411415
20
202.276103
0
VERTEX
5
4d4
100
AcDbEntity
8
0
100
AcDbVertex
100
AcDb2dVertex
62
5
10
170.385774
20
202.300661
0
VERTEX
5
4d5
100
AcDbEntity
8
0
100
AcDbVertex
100
AcDb2dVertex
62
5
10
170.377227
20
202.341592
0
VERTEX
5
4d6
100
AcDbEntity
8
0
100
AcDbVertex
100
AcDb2dVertex
62
5
10
170.385774
20
202.379579
0
VERTEX
5
4d7
100
AcDbEntity
8
0
100
AcDbVertex
100
AcDb2dVertex
62
5
10
170.411415
20
202.402371
0
VERTEX
5
4d8
100
AcDbEntity
8
0
100
AcDbVertex
100
AcDb2dVertex
62
5
10
170.454150
20
202.409968
0
VERTEX
5
4d9
100
AcDbEntity
8
0
100
AcDbVertex
100
AcDb2dVertex
62
5
10
170.924236
20
202.409968
0
VERTEX
5
4da
100
AcDbEntity
8
0
100
AcDbVertex
100
AcDb2dVertex
62
5
10
171.384237
20
202.418515
0
VERTEX
5
4db
100
AcDbEntity
8
0
100
AcDbVertex
100
AcDb2dVertex
62
5
10
171.384237
20
202.606550
0
VERTEX
5
4dc
100
AcDbEntity
8
0
100
AcDbVertex
100
AcDb2dVertex
62
5
10
171.393904
20
202.654033
0
VERTEX
5
4dd
100
AcDbEntity
8
0
100
AcDbVertex
100
AcDb2dVertex
62
5
10
171.422907
20
202.682523
0
VERTEX
5
4de
100
AcDbEntity
8
0
100
AcDbVertex
100
AcDb2dVertex
62
5
10
171.471245
20
202.692020
0
VERTEX
5
4df
100
AcDbEntity
8
0
100
AcDbVertex
100
AcDb2dVertex
62
5
10
171.513981
20
202.682523
0
VERTEX
5
4e0
100
AcDbEntity
8
0
100
AcDbVertex
100
AcDb2dVertex
62
5
10
171.539622
20
202.654033
0
VERTEX
5
4e1
100
AcDbEntity
8
0
100
AcDbVertex
100
AcDb2dVertex
62
5
10
171.548169
20
202.606550
0
VERTEX
5
4e2
100
AcDbEntity
8
0
100
AcDbVertex
100
AcDb2dVertex
62
5
10
171.548169
20
202.427062
0
VERTEX
5
4e3
100
AcDbEntity
8
0
100
AcDbVertex
100
AcDb2dVertex
62
5
10
172.120819
20
202.452703
0
VERTEX
5
4e4
100
AcDbEntity
8
0
100
AcDbVertex
100
AcDb2dVertex
62
5
10
172.158806
20
202.444156
0
VERTEX
5
4e5
100
AcDbEntity
8
0
100
AcDbVertex
100
AcDb2dVertex
62
5
10
172.181598
20
202.418515
0
VERTEX
5
4e6
100
AcDbEntity
8
0
100
AcDbVertex
100
AcDb2dVertex
62
5
10
172.189195
20
202.375780
0
VERTEX
5
4e7
100
AcDbEntity
8
0
100
AcDbVertex
100
AcDb2dVertex
62
5
10
172.181598
20
202.334849
0
VERTEX
5
4e8
100
AcDbEntity
8
0
100
AcDbVertex
100
AcDb2dVertex
62
5
10
172.158806
20
202.310291
0
VERTEX
5
4e9
100
AcDbEntity
8
0
100
AcDbVertex
100
AcDb2dVertex
62
5
10
172.120819
20
202.302105
0
VERTEX
5
4ea
100
AcDbEntity
8
0
100
AcDbVertex
100
AcDb2dVertex
62
5
10
171.548169
20
202.285011
0
VERTEX
5
4eb
100
AcDbEntity
8
0
100
AcDbVertex
100
AcDb2dVertex
62
5
10
171.548169
20
201.974070
0
VERTEX
5
4ec
100
AcDbEntity
8
0
100
AcDbVertex
100
AcDb2dVertex
62
5
10
172.120819
20
201.999711
0
VERTEX
5
4ed
100
AcDbEntity
8
0
100
AcDbVertex
100
AcDb2dVertex
62
5
10
172.158806
20
201.991164
0
VERTEX
5
4ee
100
AcDbEntity
8
0
100
AcDbVertex
100
AcDb2dVertex
62
5
10
172.181598
20
201.965523
0
VERTEX
5
4ef
100
AcDbEntity
8
0
100
AcDbVertex
100
AcDb2dVertex
62
5
10
172.189195
20
201.922788
0
VERTEX
5
4f0
100
AcDbEntity
8
0
100
AcDbVertex
100
AcDb2dVertex
62
5
10
172.181598
20
201.881857
0
VERTEX
5
4f1
100
AcDbEntity
8
0
100
AcDbVertex
100
AcDb2dVertex
62
5
10
172.158806
20
201.857299
0
VERTEX
5
4f2
100
AcDbEntity
8
0
100
AcDbVertex
100
AcDb2dVertex
62
5
10
172.120819
20
201.849113
0
VERTEX
5
4f3
100
AcDbEntity
8
0
100
AcDbVertex
100
AcDb2dVertex
62
5
10
171.556716
20
201.832019
0
VERTEX
5
4f4
100
AcDbEntity
8
0
100
AcDbVertex
100
AcDb2dVertex
62
5
10
171.556716
20
201.367232
0
VERTEX
5
4f5
100
AcDbEntity
8
0
100
AcDbVertex
100
AcDb2dVertex
62
5
10
171.819774
20
201.234278
0
VERTEX
5
4f6
100
AcDbEntity
8
0
100
AcDbVertex
100
AcDb2dVertex
62
5
10
172.016355
20
201.120318
0
VERTEX
5
4f7
100
AcDbEntity
8
0
100
AcDbVertex
100
AcDb2dVertex
62
5
10
172.146460
20
201.025351
0
VERTEX
5
4f8
100
AcDbEntity
8
0
100
AcDbVertex
100
AcDb2dVertex
62
5
10
172.174001
20
200.984515
0
VERTEX
5
4f9
100
AcDbEntity
8
0
100
AcDbVertex
100
AcDb2dVertex
62
5
10
172.176850
20
200.941780
0
VERTEX
5
4fa
100
AcDbEntity
8
0
100
AcDbVertex
100
AcDb2dVertex
62
5
10
172.155007
20
200.897145
0
VERTEX
5
4fb
100
AcDbEntity
8
0
100
AcDbVertex
100
AcDb2dVertex
62
5
10
172.115121
20
200.878152
0
VERTEX
5
4fc
100
AcDbEntity
8
0
100
AcDbVertex
100
AcDb2dVertex
62
5
10
172.075235
20
200.878152
0
VERTEX
5
4fd
100
AcDbEntity
8
0
100
AcDbVertex
100
AcDb2dVertex
62
5
10
172.035349
20
200.897145
0
VERTEX
5
4fe
100
AcDbEntity
8
0
100
AcDbVertex
100
AcDb2dVertex
62
5
10
171.872006
20
201.015854
0
VERTEX
5
4ff
100
AcDbEntity
8
0
100
AcDbVertex
100
AcDb2dVertex
62
5
10
171.712461
20
201.121267
0
VERTEX
5
500
100
AcDbEntity
8
0
100
AcDbVertex
100
AcDb2dVertex
62
5
10
171.556716
20
201.213385
0
VERTEX
5
501
100
AcDbEntity
8
0
100
AcDbVertex
100
AcDb2dVertex
62
5
10
171.531075
20
201.080431
0
VERTEX
5
502
100
AcDbEntity
8
0
100
AcDbVertex
100
AcDb2dVertex
62
5
10
171.476943
20
200.966471
0
VERTEX
5
503
100
AcDbEntity
8
0
100
AcDbVertex
100
AcDb2dVertex
62
5
10
171.394322
20
200.871504
0
VERTEX
5
504
100
AcDbEntity
8
0
100
AcDbVertex
100
AcDb2dVertex
62
5
10
171.291758
20
200.809776
0
VERTEX
5
505
100
AcDbEntity
8
0
100
AcDbVertex
100
AcDb2dVertex
62
5
10
171.155006
20
200.772739
0
VERTEX
5
506
100
AcDbEntity
8
0
100
AcDbVertex
100
AcDb2dVertex
62
5
10
170.984065
20
200.760393
0
VERTEX
5
507
100
AcDbEntity
8
0
100
AcDbVertex
100
AcDb2dVertex
62
5
10
170.821672
20
200.774638
0
VERTEX
5
508
100
AcDbEntity
8
0
100
AcDbVertex
100
AcDb2dVertex
62
5
10
170.687768
20
200.817373
0
VERTEX
5
509
100
AcDbEntity
8
0
100
AcDbVertex
100
AcDb2dVertex
62
5
10
170.582355
20
200.888598
0
VERTEX
5
50a
100
AcDbEntity
8
0
100
AcDbVertex
100
AcDb2dVertex
62
5
10
170.519677
20
200.962673
0
VERTEX
5
50b
100
AcDbEntity
8
0
100
AcDbVertex
100
AcDb2dVertex
62
5
10
170.479791
20
201.048143
0
VERTEX
5
50c
100
AcDbEntity
8
0
100
AcDbVertex
100
AcDb2dVertex
62
5
10
170.462697
20
201.145009
0
VERTEX
5
50d
100
AcDbEntity
8
0
100
AcDbVertex
100
AcDb2dVertex
62
5
10
170.475992
20
201.247573
0
VERTEX
5
50e
100
AcDbEntity
8
0
100
AcDbVertex
100
AcDb2dVertex
62
5
10
170.515878
20
201.338741
0
VERTEX
5
50f
100
AcDbEntity
8
0
100
AcDbVertex
100
AcDb2dVertex
62
5
10
170.582355
20
201.418514
0
VERTEX
5
510
100
AcDbEntity
8
0
100
AcDbVertex
100
AcDb2dVertex
62
5
10
170.683970
20
201.480242
0
VERTEX
5
511
100
AcDbEntity
8
0
100
AcDbVertex
100
AcDb2dVertex
62
5
10
170.806477
20
201.517279
0
VERTEX
5
512
100
AcDbEntity
8
0
100
AcDbVertex
100
AcDb2dVertex
62
5
10
170.949877
20
201.529625
0
VERTEX
5
513
100
AcDbEntity
8
0
100
AcDbVertex
100
AcDb2dVertex
62
5
10
171.080760
20
201.518229
0
VERTEX
5
514
100
AcDbEntity
8
0
100
AcDbVertex
100
AcDb2dVertex
62
5
10
171.228396
20
201.484041
0
VERTEX
5
515
100
AcDbEntity
8
0
100
AcDbVertex
100
AcDb2dVertex
62
5
10
171.392784
20
201.427061
0
VERTEX
5
516
100
AcDbEntity
8
0
100
AcDbVertex
100
AcDb2dVertex
62
5
10
171.392784
20
201.828771
0
VERTEX
5
517
100
AcDbEntity
8
0
100
AcDbVertex
100
AcDb2dVertex
62
5
10
170.932783
20
201.814925
0
SEQEND
5
518
100
AcDbEntity
8
0
0
ARC
5
519
100
AcDbEntity
8
1
100
AcDbCircle
6
CONTINUOUS
62
5
10
157.000000
20
218.141824
40
0.500000
100
AcDbArc
50
89.999999
51
179.999998
0
ARC
5
51a
100
AcDbEntity
8
1
100
AcDbCircle
6
CONTINUOUS
62
5
10
184.000004
20
218.143797
40
0.500000
100
AcDbArc
50
-0.226031
51
95.090991
0
LINE
5
51b
100
AcDbEntity
8
1
100
AcDbLine
6
CONTINUOUS
62
5
10
183.955635
20
218.641824
11
157.000000
21
218.641824
0
ARC
5
51c
100
AcDbEntity
8
1
100
AcDbCircle
6
CONTINUOUS
62
5
10
157.000000
20
196.341824
40
0.500000
100
AcDbArc
50
179.999998
51
-89.999999
0
ARC
5
51d
100
AcDbEntity
8
1
100
AcDbCircle
6
CONTINUOUS
62
5
10
184.000004
20
196.339852
40
0.500000
100
AcDbArc
50
-95.090991
51
0.226031
0
LINE
5
51e
100
AcDbEntity
8
1
100
AcDbLine
6
CONTINUOUS
62
5
10
183.955635
20
195.841824
11
157.000000
21
195.841824
0
ARC
5
51f
100
AcDbEntity
8
1
100
AcDbCircle
6
CONTINUOUS
62
5
10
181.060408
20
214.041824
40
0.200000
100
AcDbArc
50
0.000000
51
89.999999
0
LINE
5
520
100
AcDbEntity
8
1
100
AcDbLine
6
CONTINUOUS
62
5
10
181.260408
20
214.041824
11
181.260408
21
200.441824
0
ARC
5
521
100
AcDbEntity
8
1
100
AcDbCircle
6
CONTINUOUS
62
5
10
181.060408
20
200.441824
40
0.200000
100
AcDbArc
50
-89.999999
51
0.000000
0
LINE
5
522
100
AcDbEntity
8
1
100
AcDbLine
6
CONTINUOUS
62
5
10
181.060408
20
200.241824
11
162.002948
21
200.241824
0
ARC
5
523
100
AcDbEntity
8
1
100
AcDbCircle
6
CONTINUOUS
62
5
10
162.002948
20
200.441824
40
0.200000
100
AcDbArc
50
179.999998
51
-89.999999
0
LINE
5
524
100
AcDbEntity
8
1
100
AcDbLine
6
CONTINUOUS
62
5
10
161.802948
20
200.441824
11
161.802948
21
214.041824
0
ARC
5
525
100
AcDbEntity
8
1
100
AcDbCircle
6
CONTINUOUS
62
5
10
162.002948
20
214.041824
40
0.200000
100
AcDbArc
50
89.999999
51
179.999998
0
LINE
5
526
100
AcDbEntity
8
1
100
AcDbLine
6
CONTINUOUS
62
5
10
162.002948
20
214.241824
11
181.060408
21
214.241824
0
ARC
5
527
100
AcDbEntity
8
1
100
AcDbCircle
6
CONTINUOUS
62
5
10
181.304884
20
199.841824
40
0.500000
100
AcDbArc
50
-89.999999
51
0.000000
0
LINE
5
528
100
AcDbEntity
8
1
100
AcDbLine
6
CONTINUOUS
62
5
10
181.304884
20
199.341824
11
158.870000
21
199.341824
0
LINE
5
529
100
AcDbEntity
8
1
100
AcDbLine
6
CONTINUOUS
62
5
10
158.870000
20
215.141824
11
181.304884
21
215.141824
0
ARC
5
52a
100
AcDbEntity
8
1
100
AcDbCircle
6
CONTINUOUS
62
5
10
181.304884
20
214.641824
40
0.500000
100
AcDbArc
50
0.000000
51
89.999999
0
LINE
5
52b
100
AcDbEntity
8
1
100
AcDbLine
6
CONTINUOUS
62
5
10
181.804884
20
214.641824
11
181.804884
21
199.841824
0
POLYLINE
5
52c
100
AcDbEntity
8
1
6
CONTINUOUS
62
5
100
AcDb2dPolyline
66
1
10
0.0
20
0.0
30
0.0
70
1
0
VERTEX
5
52d
100
AcDbEntity
8
1
100
AcDbVertex
100
AcDb2dVertex
62
5
10
158.870000
20
215.241824
0
VERTEX
5
52e
100
AcDbEntity
8
1
100
AcDbVertex
100
AcDb2dVertex
62
5
10
182.130000
20
215.241824
0
VERTEX
5
52f
100
AcDbEntity
8
1
100
AcDbVertex
100
AcDb2dVertex
62
5
10
182.130000
20
199.241824
0
VERTEX
5
530
100
AcDbEntity
8
1
100
AcDbVertex
100
AcDb2dVertex
62
5
10
158.870000
20
199.241824
0
VERTEX
5
531
100
AcDbEntity
8
1
100
AcDbVertex
100
AcDb2dVertex
62
5
10
158.870000
20
215.241824
0
SEQEND
5
532
100
AcDbEntity
8
1
0
POLYLINE
5
533
100
AcDbEntity
8
1
6
CONTINUOUS
62
5
100
AcDb2dPolyline
66
1
10
0.0
20
0.0
30
0.0
70
1
0
VERTEX
5
534
100
AcDbEntity
8
1
100
AcDbVertex
100
AcDb2dVertex
62
5
10
158.870000
20
215.241824
0
VERTEX
5
535
100
AcDbEntity
8
1
100
AcDbVertex
100
AcDb2dVertex
62
5
10
182.130000
20
215.241824
0
VERTEX
5
536
100
AcDbEntity
8
1
100
AcDbVertex
100
AcDb2dVertex
62
5
10
182.130000
20
199.241824
0
VERTEX
5
537
100
AcDbEntity
8
1
100
AcDbVertex
100
AcDb2dVertex
62
5
10
158.870000
20
199.241824
0
VERTEX
5
538
100
AcDbEntity
8
1
100
AcDbVertex
100
AcDb2dVertex
62
5
10
158.870000
20
215.241824
0
SEQEND
5
539
100
AcDbEntity
8
1
0
ARC
5
53a
100
AcDbEntity
8
1
100
AcDbCircle
6
CONTINUOUS
62
5
10
183.800000
20
217.891824
40
0.700000
100
AcDbArc
50
0.000000
51
89.999999
0
LINE
5
53b
100
AcDbEntity
8
1
100
AcDbLine
6
CONTINUOUS
62
5
10
184.500000
20
217.891824
11
184.500000
21
196.591824
0
ARC
5
53c
100
AcDbEntity
8
1
100
AcDbCircle
6
CONTINUOUS
62
5
10
183.800000
20
196.591824
40
0.700000
100
AcDbArc
50
-89.999999
51
0.000000
0
LINE
5
53d
100
AcDbEntity
8
1
100
AcDbLine
6
CONTINUOUS
62
5
10
183.800000
20
195.891824
11
170.500000
21
195.891824
0
LINE
5
53e
100
AcDbEntity
8
1
100
AcDbLine
6
CONTINUOUS
62
5
10
170.500000
20
195.891824
11
157.200000
21
195.891824
0
ARC
5
53f
100
AcDbEntity
8
1
100
AcDbCircle
6
CONTINUOUS
62
5
10
157.200000
20
196.591824
40
0.700000
100
AcDbArc
50
179.999998
51
-89.999999
0
LINE
5
540
100
AcDbEntity
8
1
100
AcDbLine
6
CONTINUOUS
62
5
10
156.500000
20
196.591824
11
156.500000
21
217.891824
0
ARC
5
541
100
AcDbEntity
8
1
100
AcDbCircle
6
CONTINUOUS
62
5
10
157.200000
20
217.891824
40
0.700000
100
AcDbArc
50
89.999999
51
179.999998
0
LINE
5
542
100
AcDbEntity
8
1
100
AcDbLine
6
CONTINUOUS
62
5
10
157.200000
20
218.591824
11
183.800000
21
218.591824
0
LINE
5
543
100
AcDbEntity
8
1
100
AcDbLine
6
CONTINUOUS
62
5
10
10.000000
20
318.000000
11
330.000000
21
318.000000
0
ARC
5
544
100
AcDbEntity
8
1
100
AcDbCircle
6
CONTINUOUS
62
5
10
177.045512
20
138.454362
40
0.100000
100
AcDbArc
50
80.999999
51
153.889118
0
LINE
5
545
100
AcDbEntity
8
1
100
AcDbLine
6
CONTINUOUS
62
5
10
177.061156
20
138.553131
11
179.888571
21
138.105312
0
ARC
5
546
100
AcDbEntity
8
1
100
AcDbCircle
6
CONTINUOUS
62
5
10
179.872928
20
138.006543
40
0.100000
100
AcDbArc
50
16.173799
51
80.999999
0
LINE
5
547
100
AcDbEntity
8
1
100
AcDbLine
6
CONTINUOUS
62
5
10
179.968970
20
138.034398
11
180.016769
21
137.869592
0
LINE
5
548
100
AcDbEntity
8
1
100
AcDbLine
6
CONTINUOUS
62
5
10
176.838634
20
138.259490
11
176.955718
21
138.498373
0
LINE
5
549
100
AcDbEntity
8
1
100
AcDbLine
6
CONTINUOUS
62
5
10
184.500000
20
128.758176
11
184.900000
21
128.758176
0
ARC
5
54a
100
AcDbEntity
8
1
100
AcDbCircle
6
CONTINUOUS
62
5
10
189.384139
20
128.258176
40
0.500000
100
AcDbArc
50
89.999999
51
165.068581
0
LINE
5
54b
100
AcDbEntity
8
1
100
AcDbLine
6
CONTINUOUS
62
5
10
188.901022
20
128.387007
11
188.233765
21
125.884795
0
ARC
5
54c
100
AcDbEntity
8
1
100
AcDbCircle
6
CONTINUOUS
62
5
10
189.200000
20
125.627132
40
1.000000
100
AcDbArc
50
165.068581
51
179.999998
0
LINE
5
54d
100
AcDbEntity
8
1
100
AcDbLine
6
CONTINUOUS
62
5
10
188.200000
20
125.627132
11
188.200000
21
124.758176
0
LINE
5
54e
100
AcDbEntity
8
1
100
AcDbLine
6
CONTINUOUS
62
5
10
184.500000
20
122.258176
11
184.772727
21
122.258176
0
LINE
5
54f
100
AcDbEntity
8
1
100
AcDbLine
6
CONTINUOUS
62
5
10
187.727273
20
122.258176
11
188.200000
21
122.258176
0
LINE
5
550
100
AcDbEntity
8
1
100
AcDbLine
6
CONTINUOUS
62
5
10
190.304645
20
129.558176
11
190.304645
21
128.758176
0
LINE
5
551
100
AcDbEntity
8
1
100
AcDbLine
6
CONTINUOUS
62
5
10
186.300000
20
132.758176
11
186.500000
21
129.558176
0
ARC
5
552
100
AcDbEntity
8
1
100
AcDbCircle
6
CONTINUOUS
62
5
10
185.000000
20
132.258176
40
0.500000
100
AcDbArc
50
0.000000
51
89.999999
0
LINE
5
553
100
AcDbEntity
8
1
100
AcDbLine
6
CONTINUOUS
62
5
10
185.500000
20
132.258176
11
185.500000
21
129.558176
0
LINE
5
554
100
AcDbEntity
8
1
100
AcDbLine
6
CONTINUOUS
62
5
10
184.500000
20
132.758176
11
185.000000
21
132.758176
0
ARC
5
555
100
AcDbEntity
8
1
100
AcDbCircle
6
CONTINUOUS
62
5
10
186.781427
20
129.858176
40
1.100000
100
AcDbArc
50
-176.401066
51
-164.173378
0
POLYLINE
5
556
100
AcDbEntity
8
1
6
CONTINUOUS
62
5
100
AcDb2dPolyline
66
1
10
0.0
20
0.0
30
0.0
70
0
0
VERTEX
5
557
100
AcDbEntity
8
1
100
AcDbVertex
100
AcDb2dVertex
62
5
10
186.500000
20
129.558176
0
VERTEX
5
558
100
AcDbEntity
8
1
100
AcDbVertex
100
AcDb2dVertex
62
5
10
186.300000
20
132.758176
0
VERTEX
5
559
100
AcDbEntity
8
1
100
AcDbVertex
100
AcDb2dVertex
62
5
10
185.500000
20
132.708176
0
VERTEX
5
55a
100
AcDbEntity
8
1
100
AcDbVertex
100
AcDb2dVertex
62
5
10
185.683596
20
129.789127
0
SEQEND
5
55b
100
AcDbEntity
8
1
0
ARC
5
55c
100
AcDbEntity
8
1
100
AcDbCircle
6
CONTINUOUS
62
5
10
186.781427
20
129.858176
40
1.100000
100
AcDbArc
50
-176.401066
51
-164.173378
0
POLYLINE
5
55d
100
AcDbEntity
8
1
6
CONTINUOUS
62
5
100
AcDb2dPolyline
66
1
10
0.0
20
0.0
30
0.0
70
0
0
VERTEX
5
55e
100
AcDbEntity
8
1
100
AcDbVertex
100
AcDb2dVertex
62
5
10
186.500000
20
129.558176
0
VERTEX
5
55f
100
AcDbEntity
8
1
100
AcDbVertex
100
AcDb2dVertex
62
5
10
186.300000
20
132.758176
0
VERTEX
5
560
100
AcDbEntity
8
1
100
AcDbVertex
100
AcDb2dVertex
62
5
10
185.500000
20
132.708176
0
VERTEX
5
561
100
AcDbEntity
8
1
100
AcDbVertex
100
AcDb2dVertex
62
5
10
185.683596
20
129.789127
0
SEQEND
5
562
100
AcDbEntity
8
1
0
ARC
5
563
100
AcDbEntity
8
1
100
AcDbCircle
6
CONTINUOUS
62
5
10
189.193033
20
122.202576
40
1.500000
100
AcDbArc
50
-174.475768
51
-119.803520
0
LINE
5
564
100
AcDbEntity
8
1
100
AcDbLine
6
CONTINUOUS
62
5
10
188.447492
20
120.900974
11
189.399068
21
120.351571
0
ARC
5
565
100
AcDbEntity
8
1
100
AcDbCircle
6
CONTINUOUS
62
5
10
189.184472
20
120.009400
40
0.403897
100
AcDbArc
50
-131.076096
51
57.905751
0
LINE
5
566
100
AcDbEntity
8
1
100
AcDbLine
6
CONTINUOUS
62
5
10
188.919088
20
119.704927
11
188.045412
21
120.209346
0
ARC
5
567
100
AcDbEntity
8
1
100
AcDbCircle
6
CONTINUOUS
62
5
10
189.193033
20
122.202576
40
2.300000
100
AcDbArc
50
-150.303328
51
-119.931595
0
LINE
5
568
100
AcDbEntity
8
1
100
AcDbLine
6
CONTINUOUS
62
5
10
187.195115
20
121.063137
11
186.814870
21
121.729769
0
ARC
5
569
100
AcDbEntity
8
1
100
AcDbCircle
6
CONTINUOUS
62
5
10
186.250000
20
121.408176
40
0.650000
100
AcDbArc
50
29.653891
51
154.251609
0
LINE
5
56a
100
AcDbEntity
8
1
100
AcDbLine
6
CONTINUOUS
62
5
10
185.664538
20
121.690549
11
185.371837
21
121.083673
0
ARC
5
56b
100
AcDbEntity
8
1
100
AcDbCircle
6
CONTINUOUS
62
5
10
183.300203
20
122.082838
40
2.300000
100
AcDbArc
50
-60.081017
51
-25.748378
0
LINE
5
56c
100
AcDbEntity
8
1
100
AcDbLine
6
CONTINUOUS
62
5
10
184.447385
20
120.089355
11
183.658853
21
119.634094
0
ARC
5
56d
100
AcDbEntity
8
1
100
AcDbCircle
6
CONTINUOUS
62
5
10
183.380858
20
119.930170
40
0.406132
100
AcDbArc
50
124.989862
51
-46.803946
0
LINE
5
56e
100
AcDbEntity
8
1
100
AcDbLine
6
CONTINUOUS
62
5
10
183.147969
20
120.262895
11
184.052618
21
120.785197
0
ARC
5
56f
100
AcDbEntity
8
1
100
AcDbCircle
6
CONTINUOUS
62
5
10
183.299684
20
122.083143
40
1.500524
100
AcDbArc
50
-59.882135
51
-0.953364
0
POLYLINE
5
570
100
AcDbEntity
8
1
6
CONTINUOUS
62
5
100
AcDb2dPolyline
66
1
10
0.0
20
0.0
30
0.0
70
0
0
VERTEX
5
571
100
AcDbEntity
8
1
100
AcDbVertex
100
AcDb2dVertex
62
5
10
184.800000
20
122.058176
0
VERTEX
5
572
100
AcDbEntity
8
1
100
AcDbVertex
100
AcDb2dVertex
62
5
10
184.500000
20
124.258176
0
VERTEX
5
573
100
AcDbEntity
8
1
100
AcDbVertex
100
AcDb2dVertex
62
5
10
184.500000
20
127.958176
0
SEQEND
5
574
100
AcDbEntity
8
1
0
ARC
5
575
100
AcDbEntity
8
1
100
AcDbCircle
6
CONTINUOUS
62
5
10
184.100000
20
128.650996
40
0.800000
100
AcDbArc
50
-59.999999
51
-0.000000
0
LINE
5
576
100
AcDbEntity
8
1
100
AcDbLine
6
CONTINUOUS
62
5
10
184.900000
20
128.650996
11
184.900442
21
129.558176
0
POLYLINE
5
577
100
AcDbEntity
8
1
6
CONTINUOUS
62
5
100
AcDb2dPolyline
66
1
10
0.0
20
0.0
30
0.0
70
0
0
VERTEX
5
578
100
AcDbEntity
8
1
100
AcDbVertex
100
AcDb2dVertex
62
5
10
188.000000
20
129.558176
0
VERTEX
5
579
100
AcDbEntity
8
1
100
AcDbVertex
100
AcDb2dVertex
62
5
10
188.000000
20
124.258176
0
VERTEX
5
57a
100
AcDbEntity
8
1
100
AcDbVertex
100
AcDb2dVertex
62
5
10
187.700000
20
122.058176
0
SEQEND
5
57b
100
AcDbEntity
8
1
0
ARC
5
57c
100
AcDbEntity
8
1
100
AcDbCircle
6
CONTINUOUS
62
5
10
191.000000
20
128.258176
40
0.500000
100
AcDbArc
50
0.000000
51
89.999999
0
LINE
5
57d
100
AcDbEntity
8
1
100
AcDbLine
6
CONTINUOUS
62
5
10
191.500000
20
124.758176
11
191.500000
21
128.258176
0
POLYLINE
5
57e
100
AcDbEntity
8
1
6
CONTINUOUS
62
5
100
AcDb2dPolyline
66
1
10
0.0
20
0.0
30
0.0
70
0
0
VERTEX
5
57f
100
AcDbEntity
8
1
100
AcDbVertex
100
AcDb2dVertex
62
5
10
184.500000
20
129.558176
0
VERTEX
5
580
100
AcDbEntity
8
1
100
AcDbVertex
100
AcDb2dVertex
62
5
10
192.500000
20
129.558176
0
VERTEX
5
581
100
AcDbEntity
8
1
100
AcDbVertex
100
AcDb2dVertex
62
5
10
192.500000
20
128.758176
0
VERTEX
5
582
100
AcDbEntity
8
1
100
AcDbVertex
100
AcDb2dVertex
62
5
10
188.000000
20
128.758176
0
SEQEND
5
583
100
AcDbEntity
8
1
0
ARC
5
584
100
AcDbEntity
8
1
100
AcDbCircle
6
CONTINUOUS
62
5
10
188.900000
20
121.458176
40
0.700000
100
AcDbArc
50
179.999998
51
-89.999999
0
LINE
5
585
100
AcDbEntity
8
1
100
AcDbLine
6
CONTINUOUS
62
5
10
188.900000
20
120.758176
11
191.239517
21
120.758176
0
ARC
5
586
100
AcDbEntity
8
1
100
AcDbCircle
6
CONTINUOUS
62
5
10
191.239517
20
121.458176
40
0.700000
100
AcDbArc
50
-89.999999
51
-1.047977
0
LINE
5
587
100
AcDbEntity
8
1
100
AcDbLine
6
CONTINUOUS
62
5
10
188.200000
20
124.758176
11
188.200000
21
121.458176
0
ARC
5
588
100
AcDbEntity
8
1
100
AcDbCircle
6
CONTINUOUS
62
5
10
190.717991
20
109.358477
40
1.000302
100
AcDbArc
50
-89.992313
51
-0.017270
0
POLYLINE
5
589
100
AcDbEntity
8
1
6
CONTINUOUS
62
5
100
AcDb2dPolyline
66
1
10
0.0
20
0.0
30
0.0
70
0
0
VERTEX
5
58a
100
AcDbEntity
8
1
100
AcDbVertex
100
AcDb2dVertex
62
5
10
191.718293
20
109.358176
0
VERTEX
5
58b
100
AcDbEntity
8
1
100
AcDbVertex
100
AcDb2dVertex
62
5
10
192.000000
20
124.758176
0
VERTEX
5
58c
100
AcDbEntity
8
1
100
AcDbVertex
100
AcDb2dVertex
62
5
10
188.000000
20
124.758176
0
SEQEND
5
58d
100
AcDbEntity
8
1
0
LINE
5
58e
100
AcDbEntity
8
1
100
AcDbLine
6
CONTINUOUS
62
5
10
180.472165
20
108.358176
11
190.718125
21
108.358176
0
POLYLINE
5
58f
100
AcDbEntity
8
1
6
DOT2
62
5
100
AcDb2dPolyline
66
1
10
0.0
20
0.0
30
0.0
70
0
0
VERTEX
5
590
100
AcDbEntity
8
1
100
AcDbVertex
100
AcDb2dVertex
62
5
10
115.687500
20
145.708176
0
VERTEX
5
591
100
AcDbEntity
8
1
100
AcDbVertex
100
AcDb2dVertex
62
5
10
114.750000
20
145.708176
0
VERTEX
5
592
100
AcDbEntity
8
1
100
AcDbVertex
100
AcDb2dVertex
62
5
10
114.750000
20
148.833176
0
VERTEX
5
593
100
AcDbEntity
8
1
100
AcDbVertex
100
AcDb2dVertex
62
5
10
115.375000
20
148.833176
0
VERTEX
5
594
100
AcDbEntity
8
1
100
AcDbVertex
100
AcDb2dVertex
62
5
10
116.937500
20
148.208176
0
VERTEX
5
595
100
AcDbEntity
8
1
100
AcDbVertex
100
AcDb2dVertex
62
5
10
119.125000
20
147.583176
0
VERTEX
5
596
100
AcDbEntity
8
1
100
AcDbVertex
100
AcDb2dVertex
62
5
10
122.250000
20
146.958176
0
SEQEND
5
597
100
AcDbEntity
8
1
0
LINE
5
598
100
AcDbEntity
8
1
100
AcDbLine
6
DOT2
62
5
10
121.625000
20
151.333176
11
122.250000
21
150.708176
0
POLYLINE
5
599
100
AcDbEntity
8
1
6
DOT2
62
5
100
AcDb2dPolyline
66
1
10
0.0
20
0.0
30
0.0
70
0
0
VERTEX
5
59a
100
AcDbEntity
8
1
100
AcDbVertex
100
AcDb2dVertex
62
5
10
121.625000
20
150.708176
0
VERTEX
5
59b
100
AcDbEntity
8
1
100
AcDbVertex
100
AcDb2dVertex
62
5
10
122.250000
20
151.333176
0
VERTEX
5
59c
100
AcDbEntity
8
1
100
AcDbVertex
100
AcDb2dVertex
62
5
10
122.250000
20
150.708176
0
VERTEX
5
59d
100
AcDbEntity
8
1
100
AcDbVertex
100
AcDb2dVertex
62
5
10
121.625000
20
150.708176
0
VERTEX
5
59e
100
AcDbEntity
8
1
100
AcDbVertex
100
AcDb2dVertex
62
5
10
121.625000
20
151.333176
0
VERTEX
5
59f
100
AcDbEntity
8
1
100
AcDbVertex
100
AcDb2dVertex
62
5
10
122.250000
20
151.333176
0
SEQEND
5
5a0
100
AcDbEntity
8
1
0
POLYLINE
5
5a1
100
AcDbEntity
8
1
6
DOT2
62
5
100
AcDb2dPolyline
66
1
10
0.0
20
0.0
30
0.0
70
0
0
VERTEX
5
5a2
100
AcDbEntity
8
1
100
AcDbVertex
100
AcDb2dVertex
62
5
10
118.812500
20
158.833176
0
VERTEX
5
5a3
100
AcDbEntity
8
1
100
AcDbVertex
100
AcDb2dVertex
62
5
10
118.812500
20
158.833176
0
VERTEX
5
5a4
100
AcDbEntity
8
1
100
AcDbVertex
100
AcDb2dVertex
62
5
10
119.125000
20
157.583176
0
VERTEX
5
5a5
100
AcDbEntity
8
1
100
AcDbVertex
100
AcDb2dVertex
62
5
10
119.125000
20
156.645676
0
VERTEX
5
5a6
100
AcDbEntity
8
1
100
AcDbVertex
100
AcDb2dVertex
62
5
10
118.812500
20
156.020676
0
VERTEX
5
5a7
100
AcDbEntity
8
1
100
AcDbVertex
100
AcDb2dVertex
62
5
10
117.875000
20
155.708176
0
VERTEX
5
5a8
100
AcDbEntity
8
1
100
AcDbVertex
100
AcDb2dVertex
62
5
10
116.312500
20
155.708176
0
VERTEX
5
5a9
100
AcDbEntity
8
1
100
AcDbVertex
100
AcDb2dVertex
62
5
10
115.375000
20
156.020676
0
VERTEX
5
5aa
100
AcDbEntity
8
1
100
AcDbVertex
100
AcDb2dVertex
62
5
10
115.062500
20
156.333176
0
VERTEX
5
5ab
100
AcDbEntity
8
1
100
AcDbVertex
100
AcDb2dVertex
62
5
10
114.750000
20
156.958176
0
VERTEX
5
5ac
100
AcDbEntity
8
1
100
AcDbVertex
100
AcDb2dVertex
62
5
10
114.750000
20
157.583176
0
VERTEX
5
5ad
100
AcDbEntity
8
1
100
AcDbVertex
100
AcDb2dVertex
62
5
10
115.062500
20
158.208176
0
VERTEX
5
5ae
100
AcDbEntity
8
1
100
AcDbVertex
100
AcDb2dVertex
62
5
10
115.375000
20
158.520676
0
VERTEX
5
5af
100
AcDbEntity
8
1
100
AcDbVertex
100
AcDb2dVertex
62
5
10
116.312500
20
158.833176
0
VERTEX
5
5b0
100
AcDbEntity
8
1
100
AcDbVertex
100
AcDb2dVertex
62
5
10
119.750000
20
158.833176
0
VERTEX
5
5b1
100
AcDbEntity
8
1
100
AcDbVertex
100
AcDb2dVertex
62
5
10
121.312500
20
158.520676
0
VERTEX
5
5b2
100
AcDbEntity
8
1
100
AcDbVertex
100
AcDb2dVertex
62
5
10
121.937500
20
157.895676
0
VERTEX
5
5b3
100
AcDbEntity
8
1
100
AcDbVertex
100
AcDb2dVertex
62
5
10
122.250000
20
156.958176
0
VERTEX
5
5b4
100
AcDbEntity
8
1
100
AcDbVertex
100
AcDb2dVertex
62
5
10
122.250000
20
156.333176
0
SEQEND
5
5b5
100
AcDbEntity
8
1
0
LINE
5
5b6
100
AcDbEntity
8
1
100
AcDbLine
6
CONTINUOUS
62
5
10
156.500000
20
128.758176
11
156.100000
21
128.758176
0
ARC
5
5b7
100
AcDbEntity
8
1
100
AcDbCircle
6
CONTINUOUS
62
5
10
151.800000
20
125.627132
40
1.000000
100
AcDbArc
50
0.000000
51
14.931417
0
LINE
5
5b8
100
AcDbEntity
8
1
100
AcDbLine
6
CONTINUOUS
62
5
10
152.766235
20
125.884795
11
152.098978
21
128.387007
0
ARC
5
5b9
100
AcDbEntity
8
1
100
AcDbCircle
6
CONTINUOUS
62
5
10
151.615861
20
128.258176
40
0.500000
100
AcDbArc
50
14.931417
51
89.999999
0
LINE
5
5ba
100
AcDbEntity
8
1
100
AcDbLine
6
CONTINUOUS
62
5
10
152.800000
20
124.758176
11
152.800000
21
125.627132
0
LINE
5
5bb
100
AcDbEntity
8
1
100
AcDbLine
6
CONTINUOUS
62
5
10
156.500000
20
122.258176
11
156.227273
21
122.258176
0
LINE
5
5bc
100
AcDbEntity
8
1
100
AcDbLine
6
CONTINUOUS
62
5
10
153.272727
20
122.258176
11
152.800000
21
122.258176
0
ARC
5
5bd
100
AcDbEntity
8
1
100
AcDbCircle
6
CONTINUOUS
62
5
10
156.900000
20
128.650996
40
0.800000
100
AcDbArc
50
-179.999998
51
-119.999999
0
LINE
5
5be
100
AcDbEntity
8
1
100
AcDbLine
6
CONTINUOUS
62
5
10
156.100000
20
128.650996
11
156.100000
21
129.558176
0
LINE
5
5bf
100
AcDbEntity
8
1
100
AcDbLine
6
CONTINUOUS
62
5
10
150.695355
20
129.558176
11
150.695355
21
128.758176
0
ARC
5
5c0
100
AcDbEntity
8
1
100
AcDbCircle
6
CONTINUOUS
62
5
10
150.000000
20
128.258176
40
0.500000
100
AcDbArc
50
89.999999
51
-179.999998
0
LINE
5
5c1
100
AcDbEntity
8
1
100
AcDbLine
6
CONTINUOUS
62
5
10
149.500000
20
128.258176
11
149.500000
21
124.758176
0
LINE
5
5c2
100
AcDbEntity
8
1
100
AcDbLine
6
CONTINUOUS
62
5
10
154.700000
20
132.758176
11
154.500000
21
129.558176
0
ARC
5
5c3
100
AcDbEntity
8
1
100
AcDbCircle
6
CONTINUOUS
62
5
10
154.218573
20
129.858176
40
1.100000
100
AcDbArc
50
-15.826620
51
-3.598932
0
POLYLINE
5
5c4
100
AcDbEntity
8
1
6
CONTINUOUS
62
5
100
AcDb2dPolyline
66
1
10
0.0
20
0.0
30
0.0
70
0
0
VERTEX
5
5c5
100
AcDbEntity
8
1
100
AcDbVertex
100
AcDb2dVertex
62
5
10
154.500000
20
129.558176
0
VERTEX
5
5c6
100
AcDbEntity
8
1
100
AcDbVertex
100
AcDb2dVertex
62
5
10
154.700000
20
132.758176
0
VERTEX
5
5c7
100
AcDbEntity
8
1
100
AcDbVertex
100
AcDb2dVertex
62
5
10
155.500000
20
132.708176
0
VERTEX
5
5c8
100
AcDbEntity
8
1
100
AcDbVertex
100
AcDb2dVertex
62
5
10
155.316404
20
129.789127
0
SEQEND
5
5c9
100
AcDbEntity
8
1
0
ARC
5
5ca
100
AcDbEntity
8
1
100
AcDbCircle
6
CONTINUOUS
62
5
10
154.218573
20
129.858176
40
1.100000
100
AcDbArc
50
-15.826620
51
-3.598932
0
POLYLINE
5
5cb
100
AcDbEntity
8
1
6
CONTINUOUS
62
5
100
AcDb2dPolyline
66
1
10
0.0
20
0.0
30
0.0
70
0
0
VERTEX
5
5cc
100
AcDbEntity
8
1
100
AcDbVertex
100
AcDb2dVertex
62
5
10
154.500000
20
129.558176
0
VERTEX
5
5cd
100
AcDbEntity
8
1
100
AcDbVertex
100
AcDb2dVertex
62
5
10
154.700000
20
132.758176
0
VERTEX
5
5ce
100
AcDbEntity
8
1
100
AcDbVertex
100
AcDb2dVertex
62
5
10
155.500000
20
132.708176
0
VERTEX
5
5cf
100
AcDbEntity
8
1
100
AcDbVertex
100
AcDb2dVertex
62
5
10
155.316404
20
129.789127
0
SEQEND
5
5d0
100
AcDbEntity
8
1
0
ARC
5
5d1
100
AcDbEntity
8
1
100
AcDbCircle
6
CONTINUOUS
62
5
10
156.000000
20
132.258176
40
0.500000
100
AcDbArc
50
89.999999
51
179.999998
0
LINE
5
5d2
100
AcDbEntity
8
1
100
AcDbLine
6
CONTINUOUS
62
5
10
155.500000
20
132.258176
11
155.500000
21
129.558176
0
LINE
5
5d3
100
AcDbEntity
8
1
100
AcDbLine
6
CONTINUOUS
62
5
10
156.500000
20
132.758176
11
156.000000
21
132.758176
0
ARC
5
5d4
100
AcDbEntity
8
1
100
AcDbCircle
6
CONTINUOUS
62
5
10
151.806967
20
122.202576
40
1.500000
100
AcDbArc
50
-60.196479
51
-5.524231
0
LINE
5
5d5
100
AcDbEntity
8
1
100
AcDbLine
6
CONTINUOUS
62
5
10
152.552508
20
120.900974
11
151.600932
21
120.351571
0
ARC
5
5d6
100
AcDbEntity
8
1
100
AcDbCircle
6
CONTINUOUS
62
5
10
151.815528
20
120.009400
40
0.403897
100
AcDbArc
50
122.094247
51
-48.923902
0
LINE
5
5d7
100
AcDbEntity
8
1
100
AcDbLine
6
CONTINUOUS
62
5
10
152.080912
20
119.704927
11
152.954588
21
120.209346
0
ARC
5
5d8
100
AcDbEntity
8
1
100
AcDbCircle
6
CONTINUOUS
62
5
10
151.806967
20
122.202576
40
2.300000
100
AcDbArc
50
-60.068404
51
-29.696671
0
LINE
5
5d9
100
AcDbEntity
8
1
100
AcDbLine
6
CONTINUOUS
62
5
10
153.804885
20
121.063137
11
154.185130
21
121.729769
0
ARC
5
5da
100
AcDbEntity
8
1
100
AcDbCircle
6
CONTINUOUS
62
5
10
154.750000
20
121.408176
40
0.650000
100
AcDbArc
50
25.748388
51
150.346110
0
LINE
5
5db
100
AcDbEntity
8
1
100
AcDbLine
6
CONTINUOUS
62
5
10
155.335462
20
121.690549
11
155.628163
21
121.083673
0
ARC
5
5dc
100
AcDbEntity
8
1
100
AcDbCircle
6
CONTINUOUS
62
5
10
157.699797
20
122.082838
40
2.300000
100
AcDbArc
50
-154.251620
51
-119.918981
0
LINE
5
5dd
100
AcDbEntity
8
1
100
AcDbLine
6
CONTINUOUS
62
5
10
156.552615
20
120.089355
11
157.341147
21
119.634094
0
ARC
5
5de
100
AcDbEntity
8
1
100
AcDbCircle
6
CONTINUOUS
62
5
10
157.619142
20
119.930170
40
0.406132
100
AcDbArc
50
-133.196052
51
55.010136
0
LINE
5
5df
100
AcDbEntity
8
1
100
AcDbLine
6
CONTINUOUS
62
5
10
157.852031
20
120.262895
11
156.947382
21
120.785197
0
ARC
5
5e0
100
AcDbEntity
8
1
100
AcDbCircle
6
CONTINUOUS
62
5
10
157.700316
20
122.083143
40
1.500524
100
AcDbArc
50
-179.046634
51
-120.117864
0
POLYLINE
5
5e1
100
AcDbEntity
8
1
6
CONTINUOUS
62
5
100
AcDb2dPolyline
66
1
10
0.0
20
0.0
30
0.0
70
0
0
VERTEX
5
5e2
100
AcDbEntity
8
1
100
AcDbVertex
100
AcDb2dVertex
62
5
10
156.200000
20
122.058176
0
VERTEX
5
5e3
100
AcDbEntity
8
1
100
AcDbVertex
100
AcDb2dVertex
62
5
10
156.500000
20
124.258176
0
VERTEX
5
5e4
100
AcDbEntity
8
1
100
AcDbVertex
100
AcDb2dVertex
62
5
10
156.500000
20
127.958176
0
SEQEND
5
5e5
100
AcDbEntity
8
1
0
ARC
5
5e6
100
AcDbEntity
8
1
100
AcDbCircle
6
CONTINUOUS
62
5
10
156.900000
20
128.650996
40
0.800000
100
AcDbArc
50
-179.999998
51
-119.999999
0
LINE
5
5e7
100
AcDbEntity
8
1
100
AcDbLine
6
CONTINUOUS
62
5
10
156.100000
20
128.650996
11
156.100000
21
129.558176
0
POLYLINE
5
5e8
100
AcDbEntity
8
1
6
CONTINUOUS
62
5
100
AcDb2dPolyline
66
1
10
0.0
20
0.0
30
0.0
70
0
0
VERTEX
5
5e9
100
AcDbEntity
8
1
100
AcDbVertex
100
AcDb2dVertex
62
5
10
153.000000
20
129.558176
0
VERTEX
5
5ea
100
AcDbEntity
8
1
100
AcDbVertex
100
AcDb2dVertex
62
5
10
153.000000
20
124.258176
0
VERTEX
5
5eb
100
AcDbEntity
8
1
100
AcDbVertex
100
AcDb2dVertex
62
5
10
153.300000
20
122.058176
0
SEQEND
5
5ec
100
AcDbEntity
8
1
0
POLYLINE
5
5ed
100
AcDbEntity
8
1
6
CONTINUOUS
62
5
100
AcDb2dPolyline
66
1
10
0.0
20
0.0
30
0.0
70
0
0
VERTEX
5
5ee
100
AcDbEntity
8
1
100
AcDbVertex
100
AcDb2dVertex
62
5
10
153.000000
20
128.758176
0
VERTEX
5
5ef
100
AcDbEntity
8
1
100
AcDbVertex
100
AcDb2dVertex
62
5
10
148.500000
20
128.758176
0
VERTEX
5
5f0
100
AcDbEntity
8
1
100
AcDbVertex
100
AcDb2dVertex
62
5
10
148.500000
20
129.558176
0
VERTEX
5
5f1
100
AcDbEntity
8
1
100
AcDbVertex
100
AcDb2dVertex
62
5
10
156.500000
20
129.558176
0
SEQEND
5
5f2
100
AcDbEntity
8
1
0
ARC
5
5f3
100
AcDbEntity
8
1
100
AcDbCircle
6
CONTINUOUS
62
5
10
149.760483
20
121.458176
40
0.700000
100
AcDbArc
50
-178.952022
51
-89.999999
0
LINE
5
5f4
100
AcDbEntity
8
1
100
AcDbLine
6
CONTINUOUS
62
5
10
149.760483
20
120.758176
11
152.100000
21
120.758176
0
ARC
5
5f5
100
AcDbEntity
8
1
100
AcDbCircle
6
CONTINUOUS
62
5
10
152.100000
20
121.458176
40
0.700000
100
AcDbArc
50
-89.999999
51
-0.000000
0
LINE
5
5f6
100
AcDbEntity
8
1
100
AcDbLine
6
CONTINUOUS
62
5
10
152.800000
20
121.458176
11
152.800000
21
124.758176
0
ARC
5
5f7
100
AcDbEntity
8
1
100
AcDbCircle
6
CONTINUOUS
62
5
10
161.200000
20
101.776713
40
0.300000
100
AcDbArc
50
-123.833193
51
0.000000
0
POLYLINE
5
5f8
100
AcDbEntity
8
1
6
CONTINUOUS
62
5
100
AcDb2dPolyline
66
1
10
0.0
20
0.0
30
0.0
70
0
0
VERTEX
5
5f9
100
AcDbEntity
8
1
100
AcDbVertex
100
AcDb2dVertex
62
5
10
161.500000
20
101.776713
0
VERTEX
5
5fa
100
AcDbEntity
8
1
100
AcDbVertex
100
AcDb2dVertex
62
5
10
161.500000
20
101.858176
0
VERTEX
5
5fb
100
AcDbEntity
8
1
100
AcDbVertex
100
AcDb2dVertex
62
5
10
163.500000
20
101.858176
0
VERTEX
5
5fc
100
AcDbEntity
8
1
100
AcDbVertex
100
AcDb2dVertex
62
5
10
163.500000
20
101.658176
0
SEQEND
5
5fd
100
AcDbEntity
8
1
0
ARC
5
5fe
100
AcDbEntity
8
1
100
AcDbCircle
6
CONTINUOUS
62
5
10
163.800000
20
101.658176
40
0.300000
100
AcDbArc
50
-179.999998
51
-89.999999
0
ARC
5
5ff
100
AcDbEntity
8
1
100
AcDbCircle
6
CONTINUOUS
62
5
10
150.282032
20
109.358500
40
1.000324
100
AcDbArc
50
-179.981425
51
-90.008988
0
LINE
5
600
100
AcDbEntity
8
1
100
AcDbLine
6
CONTINUOUS
62
5
10
150.281875
20
108.358176
11
160.527835
21
108.358176
0
POLYLINE
5
601
100
AcDbEntity
8
1
6
CONTINUOUS
62
5
100
AcDb2dPolyline
66
1
10
0.0
20
0.0
30
0.0
70
0
0
VERTEX
5
602
100
AcDbEntity
8
1
100
AcDbVertex
100
AcDb2dVertex
62
5
10
153.000000
20
124.758176
0
VERTEX
5
603
100
AcDbEntity
8
1
100
AcDbVertex
100
AcDb2dVertex
62
5
10
149.000000
20
124.758176
0
VERTEX
5
604
100
AcDbEntity
8
1
100
AcDbVertex
100
AcDb2dVertex
62
5
10
149.281707
20
109.358176
0
SEQEND
5
605
100
AcDbEntity
8
1
0
LINE
5
606
100
AcDbEntity
8
1
100
AcDbLine
6
CONTINUOUS
62
5
10
155.700000
20
137.458176
11
121.500000
21
137.458176
0
LINE
5
607
100
AcDbEntity
8
1
100
AcDbLine
6
CONTINUOUS
62
5
10
147.000000
20
129.558176
11
121.500000
21
129.558176
0
POLYLINE
5
608
100
AcDbEntity
8
1
6
CONTINUOUS
62
5
100
AcDb2dPolyline
66
1
10
0.0
20
0.0
30
0.0
70
0
0
VERTEX
5
609
100
AcDbEntity
8
1
100
AcDbVertex
100
AcDb2dVertex
62
5
10
123.500000
20
160.708176
0
VERTEX
5
60a
100
AcDbEntity
8
1
100
AcDbVertex
100
AcDb2dVertex
62
5
10
123.500000
20
137.458176
0
VERTEX
5
60b
100
AcDbEntity
8
1
100
AcDbVertex
100
AcDb2dVertex
62
5
10
122.500000
20
143.458176
0
VERTEX
5
60c
100
AcDbEntity
8
1
100
AcDbVertex
100
AcDb2dVertex
62
5
10
124.500000
20
143.458176
0
VERTEX
5
60d
100
AcDbEntity
8
1
100
AcDbVertex
100
AcDb2dVertex
62
5
10
123.500000
20
137.458176
0
VERTEX
5
60e
100
AcDbEntity
8
1
100
AcDbVertex
100
AcDb2dVertex
62
5
10
123.000000
20
143.458176
0
VERTEX
5
60f
100
AcDbEntity
8
1
100
AcDbVertex
100
AcDb2dVertex
62
5
10
124.000000
20
143.458176
0
VERTEX
5
610
100
AcDbEntity
8
1
100
AcDbVertex
100
AcDb2dVertex
62
5
10
123.500000
20
137.458176
0
SEQEND
5
611
100
AcDbEntity
8
1
0
LINE
5
612
100
AcDbEntity
8
1
100
AcDbLine
6
CONTINUOUS
62
5
10
123.500000
20
129.558176
11
123.500000
21
137.458176
0
LINE
5
613
100
AcDbEntity
8
1
100
AcDbLine
6
CONTINUOUS
62
5
10
123.500000
20
124.558176
11
123.500000
21
129.558176
0
POLYLINE
5
614
100
AcDbEntity
8
1
6
CONTINUOUS
62
5
100
AcDb2dPolyline
66
1
10
0.0
20
0.0
30
0.0
70
0
0
VERTEX
5
615
100
AcDbEntity
8
1
100
AcDbVertex
100
AcDb2dVertex
62
5
10
123.000000
20
130.558176
0
VERTEX
5
616
100
AcDbEntity
8
1
100
AcDbVertex
100
AcDb2dVertex
62
5
10
124.000000
20
130.558176
0
VERTEX
5
617
100
AcDbEntity
8
1
100
AcDbVertex
100
AcDb2dVertex
62
5
10
124.500000
20
130.058176
0
VERTEX
5
618
100
AcDbEntity
8
1
100
AcDbVertex
100
AcDb2dVertex
62
5
10
124.500000
20
129.058176
0
VERTEX
5
619
100
AcDbEntity
8
1
100
AcDbVertex
100
AcDb2dVertex
62
5
10
124.000000
20
128.558176
0
VERTEX
5
61a
100
AcDbEntity
8
1
100
AcDbVertex
100
AcDb2dVertex
62
5
10
123.000000
20
128.558176
0
VERTEX
5
61b
100
AcDbEntity
8
1
100
AcDbVertex
100
AcDb2dVertex
62
5
10
122.500000
20
129.058176
0
VERTEX
5
61c
100
AcDbEntity
8
1
100
AcDbVertex
100
AcDb2dVertex
62
5
10
122.500000
20
130.058176
0
VERTEX
5
61d
100
AcDbEntity
8
1
100
AcDbVertex
100
AcDb2dVertex
62
5
10
123.000000
20
130.558176
0
VERTEX
5
61e
100
AcDbEntity
8
1
100
AcDbVertex
100
AcDb2dVertex
62
5
10
124.000000
20
128.558176
0
SEQEND
5
61f
100
AcDbEntity
8
1
0
LINE
5
620
100
AcDbEntity
8
1
100
AcDbLine
6
CONTINUOUS
62
5
10
123.000000
20
128.558176
11
124.000000
21
130.558176
0
LINE
5
621
100
AcDbEntity
8
1
100
AcDbLine
6
CONTINUOUS
62
5
10
124.500000
20
130.058176
11
122.500000
21
129.058176
0
LINE
5
622
100
AcDbEntity
8
1
100
AcDbLine
6
CONTINUOUS
62
5
10
122.500000
20
130.058176
11
124.500000
21
129.058176
0
POLYLINE
5
623
100
AcDbEntity
8
1
6
DOT2
62
5
100
AcDb2dPolyline
66
1
10
0.0
20
0.0
30
0.0
70
0
0
VERTEX
5
624
100
AcDbEntity
8
1
100
AcDbVertex
100
AcDb2dVertex
62
5
10
116.937500
20
72.608176
0
VERTEX
5
625
100
AcDbEntity
8
1
100
AcDbVertex
100
AcDb2dVertex
62
5
10
115.375000
20
72.920676
0
VERTEX
5
626
100
AcDbEntity
8
1
100
AcDbVertex
100
AcDb2dVertex
62
5
10
114.750000
20
73.858176
0
VERTEX
5
627
100
AcDbEntity
8
1
100
AcDbVertex
100
AcDb2dVertex
62
5
10
114.750000
20
74.795676
0
VERTEX
5
628
100
AcDbEntity
8
1
100
AcDbVertex
100
AcDb2dVertex
62
5
10
115.062500
20
75.420676
0
VERTEX
5
629
100
AcDbEntity
8
1
100
AcDbVertex
100
AcDb2dVertex
62
5
10
116.000000
20
75.733176
0
VERTEX
5
62a
100
AcDbEntity
8
1
100
AcDbVertex
100
AcDb2dVertex
62
5
10
116.937500
20
75.733176
0
VERTEX
5
62b
100
AcDbEntity
8
1
100
AcDbVertex
100
AcDb2dVertex
62
5
10
117.875000
20
75.420676
0
VERTEX
5
62c
100
AcDbEntity
8
1
100
AcDbVertex
100
AcDb2dVertex
62
5
10
122.250000
20
72.608176
0
VERTEX
5
62d
100
AcDbEntity
8
1
100
AcDbVertex
100
AcDb2dVertex
62
5
10
122.250000
20
75.733176
0
VERTEX
5
62e
100
AcDbEntity
8
1
100
AcDbVertex
100
AcDb2dVertex
62
5
10
121.312500
20
75.733176
0
SEQEND
5
62f
100
AcDbEntity
8
1
0
POLYLINE
5
630
100
AcDbEntity
8
1
6
DOT2
62
5
100
AcDb2dPolyline
66
1
10
0.0
20
0.0
30
0.0
70
1
0
VERTEX
5
631
100
AcDbEntity
8
1
100
AcDbVertex
100
AcDb2dVertex
62
5
10
114.750000
20
78.858176
0
VERTEX
5
632
100
AcDbEntity
8
1
100
AcDbVertex
100
AcDb2dVertex
62
5
10
114.750000
20
79.483176
0
VERTEX
5
633
100
AcDbEntity
8
1
100
AcDbVertex
100
AcDb2dVertex
62
5
10
115.062500
20
80.108176
0
VERTEX
5
634
100
AcDbEntity
8
1
100
AcDbVertex
100
AcDb2dVertex
62
5
10
115.687500
20
80.420676
0
VERTEX
5
635
100
AcDbEntity
8
1
100
AcDbVertex
100
AcDb2dVertex
62
5
10
116.937500
20
80.420676
0
VERTEX
5
636
100
AcDbEntity
8
1
100
AcDbVertex
100
AcDb2dVertex
62
5
10
117.562500
20
80.108176
0
VERTEX
5
637
100
AcDbEntity
8
1
100
AcDbVertex
100
AcDb2dVertex
62
5
10
118.812500
20
78.233176
0
VERTEX
5
638
100
AcDbEntity
8
1
100
AcDbVertex
100
AcDb2dVertex
62
5
10
119.750000
20
77.608176
0
VERTEX
5
639
100
AcDbEntity
8
1
100
AcDbVertex
100
AcDb2dVertex
62
5
10
121.000000
20
77.608176
0
VERTEX
5
63a
100
AcDbEntity
8
1
100
AcDbVertex
100
AcDb2dVertex
62
5
10
121.625000
20
77.920676
0
VERTEX
5
63b
100
AcDbEntity
8
1
100
AcDbVertex
100
AcDb2dVertex
62
5
10
121.937500
20
78.233176
0
VERTEX
5
63c
100
AcDbEntity
8
1
100
AcDbVertex
100
AcDb2dVertex
62
5
10
122.250000
20
78.858176
0
VERTEX
5
63d
100
AcDbEntity
8
1
100
AcDbVertex
100
AcDb2dVertex
62
5
10
122.250000
20
79.483176
0
VERTEX
5
63e
100
AcDbEntity
8
1
100
AcDbVertex
100
AcDb2dVertex
62
5
10
121.937500
20
80.108176
0
VERTEX
5
63f
100
AcDbEntity
8
1
100
AcDbVertex
100
AcDb2dVertex
62
5
10
121.625000
20
80.420676
0
VERTEX
5
640
100
AcDbEntity
8
1
100
AcDbVertex
100
AcDb2dVertex
62
5
10
121.000000
20
80.733176
0
VERTEX
5
641
100
AcDbEntity
8
1
100
AcDbVertex
100
AcDb2dVertex
62
5
10
119.750000
20
80.733176
0
VERTEX
5
642
100
AcDbEntity
8
1
100
AcDbVertex
100
AcDb2dVertex
62
5
10
118.812500
20
80.108176
0
VERTEX
5
643
100
AcDbEntity
8
1
100
AcDbVertex
100
AcDb2dVertex
62
5
10
117.562500
20
78.233176
0
VERTEX
5
644
100
AcDbEntity
8
1
100
AcDbVertex
100
AcDb2dVertex
62
5
10
116.937500
20
77.920676
0
VERTEX
5
645
100
AcDbEntity
8
1
100
AcDbVertex
100
AcDb2dVertex
62
5
10
115.687500
20
77.920676
0
VERTEX
5
646
100
AcDbEntity
8
1
100
AcDbVertex
100
AcDb2dVertex
62
5
10
115.062500
20
78.233176
0
VERTEX
5
647
100
AcDbEntity
8
1
100
AcDbVertex
100
AcDb2dVertex
62
5
10
114.750000
20
78.858176
0
SEQEND
5
648
100
AcDbEntity
8
1
0
LINE
5
649
100
AcDbEntity
8
1
100
AcDbLine
6
DOT2
62
5
10
121.625000
20
83.233176
11
122.250000
21
82.608176
0
POLYLINE
5
64a
100
AcDbEntity
8
1
6
DOT2
62
5
100
AcDb2dPolyline
66
1
10
0.0
20
0.0
30
0.0
70
0
0
VERTEX
5
64b
100
AcDbEntity
8
1
100
AcDbVertex
100
AcDb2dVertex
62
5
10
121.625000
20
82.608176
0
VERTEX
5
64c
100
AcDbEntity
8
1
100
AcDbVertex
100
AcDb2dVertex
62
5
10
122.250000
20
83.233176
0
VERTEX
5
64d
100
AcDbEntity
8
1
100
AcDbVertex
100
AcDb2dVertex
62
5
10
122.250000
20
82.608176
0
VERTEX
5
64e
100
AcDbEntity
8
1
100
AcDbVertex
100
AcDb2dVertex
62
5
10
121.625000
20
82.608176
0
VERTEX
5
64f
100
AcDbEntity
8
1
100
AcDbVertex
100
AcDb2dVertex
62
5
10
121.625000
20
83.233176
0
VERTEX
5
650
100
AcDbEntity
8
1
100
AcDbVertex
100
AcDb2dVertex
62
5
10
122.250000
20
83.233176
0
SEQEND
5
651
100
AcDbEntity
8
1
0
LINE
5
652
100
AcDbEntity
8
1
100
AcDbLine
6
CONTINUOUS
62
5
10
122.500000
20
42.000000
11
125.625000
21
42.000000
0
POLYLINE
5
653
100
AcDbEntity
8
1
6
CONTINUOUS
62
5
100
AcDb2dPolyline
66
1
10
0.0
20
0.0
30
0.0
70
0
0
VERTEX
5
654
100
AcDbEntity
8
1
100
AcDbVertex
100
AcDb2dVertex
62
5
10
115.000000
20
45.750000
0
VERTEX
5
655
100
AcDbEntity
8
1
100
AcDbVertex
100
AcDb2dVertex
62
5
10
112.187500
20
40.125000
0
VERTEX
5
656
100
AcDbEntity
8
1
100
AcDbVertex
100
AcDb2dVertex
62
5
10
115.937500
20
40.125000
0
SEQEND
5
657
100
AcDbEntity
8
1
0
LINE
5
658
100
AcDbEntity
8
1
100
AcDbLine
6
CONTINUOUS
62
5
10
115.000000
20
45.750000
11
115.000000
21
38.250000
0
LINE
5
659
100
AcDbEntity
8
1
100
AcDbLine
6
CONTINUOUS
62
5
10
114.375000
20
38.250000
11
115.625000
21
38.250000
0
POLYLINE
5
65a
100
AcDbEntity
8
1
6
CONTINUOUS
62
5
100
AcDb2dPolyline
66
1
10
0.0
20
0.0
30
0.0
70
0
0
VERTEX
5
65b
100
AcDbEntity
8
1
100
AcDbVertex
100
AcDb2dVertex
62
5
10
117.500000
20
38.250000
0
VERTEX
5
65c
100
AcDbEntity
8
1
100
AcDbVertex
100
AcDb2dVertex
62
5
10
119.062500
20
45.750000
0
VERTEX
5
65d
100
AcDbEntity
8
1
100
AcDbVertex
100
AcDb2dVertex
62
5
10
120.625000
20
38.250000
0
SEQEND
5
65e
100
AcDbEntity
8
1
0
LINE
5
65f
100
AcDbEntity
8
1
100
AcDbLine
6
CONTINUOUS
62
5
10
118.125000
20
40.750000
11
120.000000
21
40.750000
0
POLYLINE
5
660
100
AcDbEntity
8
1
6
CONTINUOUS
62
5
100
AcDb2dPolyline
66
1
10
0.0
20
0.0
30
0.0
70
0
0
VERTEX
5
661
100
AcDbEntity
8
1
100
AcDbVertex
100
AcDb2dVertex
62
5
10
127.500000
20
43.875000
0
VERTEX
5
662
100
AcDbEntity
8
1
100
AcDbVertex
100
AcDb2dVertex
62
5
10
127.812500
20
45.125000
0
VERTEX
5
663
100
AcDbEntity
8
1
100
AcDbVertex
100
AcDb2dVertex
62
5
10
128.437500
20
45.750000
0
VERTEX
5
664
100
AcDbEntity
8
1
100
AcDbVertex
100
AcDb2dVertex
62
5
10
129.375000
20
45.750000
0
VERTEX
5
665
100
AcDbEntity
8
1
100
AcDbVertex
100
AcDb2dVertex
62
5
10
130.000000
20
45.437500
0
VERTEX
5
666
100
AcDbEntity
8
1
100
AcDbVertex
100
AcDb2dVertex
62
5
10
130.312500
20
44.500000
0
VERTEX
5
667
100
AcDbEntity
8
1
100
AcDbVertex
100
AcDb2dVertex
62
5
10
130.312500
20
43.250000
0
VERTEX
5
668
100
AcDbEntity
8
1
100
AcDbVertex
100
AcDb2dVertex
62
5
10
130.000000
20
42.625000
0
VERTEX
5
669
100
AcDbEntity
8
1
100
AcDbVertex
100
AcDb2dVertex
62
5
10
129.375000
20
42.000000
0
VERTEX
5
66a
100
AcDbEntity
8
1
100
AcDbVertex
100
AcDb2dVertex
62
5
10
128.437500
20
42.000000
0
SEQEND
5
66b
100
AcDbEntity
8
1
0
POLYLINE
5
66c
100
AcDbEntity
8
1
6
CONTINUOUS
62
5
100
AcDb2dPolyline
66
1
10
0.0
20
0.0
30
0.0
70
0
0
VERTEX
5
66d
100
AcDbEntity
8
1
100
AcDbVertex
100
AcDb2dVertex
62
5
10
129.375000
20
42.000000
0
VERTEX
5
66e
100
AcDbEntity
8
1
100
AcDbVertex
100
AcDb2dVertex
62
5
10
130.312500
20
41.375000
0
VERTEX
5
66f
100
AcDbEntity
8
1
100
AcDbVertex
100
AcDb2dVertex
62
5
10
130.625000
20
40.437500
0
VERTEX
5
670
100
AcDbEntity
8
1
100
AcDbVertex
100
AcDb2dVertex
62
5
10
130.625000
20
39.500000
0
VERTEX
5
671
100
AcDbEntity
8
1
100
AcDbVertex
100
AcDb2dVertex
62
5
10
130.312500
20
38.875000
0
VERTEX
5
672
100
AcDbEntity
8
1
100
AcDbVertex
100
AcDb2dVertex
62
5
10
129.375000
20
38.250000
0
VERTEX
5
673
100
AcDbEntity
8
1
100
AcDbVertex
100
AcDb2dVertex
62
5
10
128.437500
20
38.250000
0
VERTEX
5
674
100
AcDbEntity
8
1
100
AcDbVertex
100
AcDb2dVertex
62
5
10
127.812500
20
38.562500
0
VERTEX
5
675
100
AcDbEntity
8
1
100
AcDbVertex
100
AcDb2dVertex
62
5
10
127.187500
20
39.500000
0
SEQEND
5
676
100
AcDbEntity
8
1
0
POLYLINE
5
677
100
AcDbEntity
8
1
6
CONTINUOUS
62
5
100
AcDb2dPolyline
66
1
10
0.0
20
0.0
30
0.0
70
1
0
VERTEX
5
678
100
AcDbEntity
8
1
100
AcDbVertex
100
AcDb2dVertex
62
5
10
133.750000
20
45.750000
0
VERTEX
5
679
100
AcDbEntity
8
1
100
AcDbVertex
100
AcDb2dVertex
62
5
10
134.375000
20
45.750000
0
VERTEX
5
67a
100
AcDbEntity
8
1
100
AcDbVertex
100
AcDb2dVertex
62
5
10
134.687500
20
45.437500
0
VERTEX
5
67b
100
AcDbEntity
8
1
100
AcDbVertex
100
AcDb2dVertex
62
5
10
135.312500
20
44.187500
0
VERTEX
5
67c
100
AcDbEntity
8
1
100
AcDbVertex
100
AcDb2dVertex
62
5
10
135.625000
20
42.937500
0
VERTEX
5
67d
100
AcDbEntity
8
1
100
AcDbVertex
100
AcDb2dVertex
62
5
10
135.625000
20
41.062500
0
VERTEX
5
67e
100
AcDbEntity
8
1
100
AcDbVertex
100
AcDb2dVertex
62
5
10
135.312500
20
39.812500
0
VERTEX
5
67f
100
AcDbEntity
8
1
100
AcDbVertex
100
AcDb2dVertex
62
5
10
134.687500
20
38.562500
0
VERTEX
5
680
100
AcDbEntity
8
1
100
AcDbVertex
100
AcDb2dVertex
62
5
10
134.375000
20
38.250000
0
VERTEX
5
681
100
AcDbEntity
8
1
100
AcDbVertex
100
AcDb2dVertex
62
5
10
133.750000
20
38.250000
0
VERTEX
5
682
100
AcDbEntity
8
1
100
AcDbVertex
100
AcDb2dVertex
62
5
10
133.437500
20
38.562500
0
VERTEX
5
683
100
AcDbEntity
8
1
100
AcDbVertex
100
AcDb2dVertex
62
5
10
132.812500
20
39.812500
0
VERTEX
5
684
100
AcDbEntity
8
1
100
AcDbVertex
100
AcDb2dVertex
62
5
10
132.500000
20
41.062500
0
VERTEX
5
685
100
AcDbEntity
8
1
100
AcDbVertex
100
AcDb2dVertex
62
5
10
132.500000
20
42.937500
0
VERTEX
5
686
100
AcDbEntity
8
1
100
AcDbVertex
100
AcDb2dVertex
62
5
10
132.812500
20
44.187500
0
VERTEX
5
687
100
AcDbEntity
8
1
100
AcDbVertex
100
AcDb2dVertex
62
5
10
133.437500
20
45.437500
0
VERTEX
5
688
100
AcDbEntity
8
1
100
AcDbVertex
100
AcDb2dVertex
62
5
10
133.750000
20
45.750000
0
SEQEND
5
689
100
AcDbEntity
8
1
0
POLYLINE
5
68a
100
AcDbEntity
8
1
6
CONTINUOUS
62
5
100
AcDb2dPolyline
66
1
10
0.0
20
0.0
30
0.0
70
1
0
VERTEX
5
68b
100
AcDbEntity
8
1
100
AcDbVertex
100
AcDb2dVertex
62
5
10
138.750000
20
45.750000
0
VERTEX
5
68c
100
AcDbEntity
8
1
100
AcDbVertex
100
AcDb2dVertex
62
5
10
139.375000
20
45.750000
0
VERTEX
5
68d
100
AcDbEntity
8
1
100
AcDbVertex
100
AcDb2dVertex
62
5
10
139.687500
20
45.437500
0
VERTEX
5
68e
100
AcDbEntity
8
1
100
AcDbVertex
100
AcDb2dVertex
62
5
10
140.312500
20
44.187500
0
VERTEX
5
68f
100
AcDbEntity
8
1
100
AcDbVertex
100
AcDb2dVertex
62
5
10
140.625000
20
42.937500
0
VERTEX
5
690
100
AcDbEntity
8
1
100
AcDbVertex
100
AcDb2dVertex
62
5
10
140.625000
20
41.062500
0
VERTEX
5
691
100
AcDbEntity
8
1
100
AcDbVertex
100
AcDb2dVertex
62
5
10
140.312500
20
39.812500
0
VERTEX
5
692
100
AcDbEntity
8
1
100
AcDbVertex
100
AcDb2dVertex
62
5
10
139.687500
20
38.562500
0
VERTEX
5
693
100
AcDbEntity
8
1
100
AcDbVertex
100
AcDb2dVertex
62
5
10
139.375000
20
38.250000
0
VERTEX
5
694
100
AcDbEntity
8
1
100
AcDbVertex
100
AcDb2dVertex
62
5
10
138.750000
20
38.250000
0
VERTEX
5
695
100
AcDbEntity
8
1
100
AcDbVertex
100
AcDb2dVertex
62
5
10
138.437500
20
38.562500
0
VERTEX
5
696
100
AcDbEntity
8
1
100
AcDbVertex
100
AcDb2dVertex
62
5
10
137.812500
20
39.812500
0
VERTEX
5
697
100
AcDbEntity
8
1
100
AcDbVertex
100
AcDb2dVertex
62
5
10
137.500000
20
41.062500
0
VERTEX
5
698
100
AcDbEntity
8
1
100
AcDbVertex
100
AcDb2dVertex
62
5
10
137.500000
20
42.937500
0
VERTEX
5
699
100
AcDbEntity
8
1
100
AcDbVertex
100
AcDb2dVertex
62
5
10
137.812500
20
44.187500
0
VERTEX
5
69a
100
AcDbEntity
8
1
100
AcDbVertex
100
AcDb2dVertex
62
5
10
138.437500
20
45.437500
0
VERTEX
5
69b
100
AcDbEntity
8
1
100
AcDbVertex
100
AcDb2dVertex
62
5
10
138.750000
20
45.750000
0
SEQEND
5
69c
100
AcDbEntity
8
1
0
POLYLINE
5
69d
100
AcDbEntity
8
1
6
CONTINUOUS
62
5
100
AcDb2dPolyline
66
1
10
0.0
20
0.0
30
0.0
70
0
0
VERTEX
5
69e
100
AcDbEntity
8
1
100
AcDbVertex
100
AcDb2dVertex
62
5
10
142.500000
20
45.750000
0
VERTEX
5
69f
100
AcDbEntity
8
1
100
AcDbVertex
100
AcDb2dVertex
62
5
10
144.062500
20
38.250000
0
VERTEX
5
6a0
100
AcDbEntity
8
1
100
AcDbVertex
100
AcDb2dVertex
62
5
10
145.625000
20
45.750000
0
SEQEND
5
6a1
100
AcDbEntity
8
1
0
POLYLINE
5
6a2
100
AcDbEntity
8
1
6
CONTINUOUS
62
5
100
AcDb2dPolyline
66
1
10
0.0
20
0.0
30
0.0
70
0
0
VERTEX
5
6a3
100
AcDbEntity
8
1
100
AcDbVertex
100
AcDb2dVertex
62
5
10
152.500000
20
38.250000
0
VERTEX
5
6a4
100
AcDbEntity
8
1
100
AcDbVertex
100
AcDb2dVertex
62
5
10
154.062500
20
45.750000
0
VERTEX
5
6a5
100
AcDbEntity
8
1
100
AcDbVertex
100
AcDb2dVertex
62
5
10
155.625000
20
38.250000
0
SEQEND
5
6a6
100
AcDbEntity
8
1
0
LINE
5
6a7
100
AcDbEntity
8
1
100
AcDbLine
6
CONTINUOUS
62
5
10
153.125000
20
40.750000
11
155.000000
21
40.750000
0
POLYLINE
5
6a8
100
AcDbEntity
8
1
6
CONTINUOUS
62
5
100
AcDb2dPolyline
66
1
10
0.0
20
0.0
30
0.0
70
0
0
VERTEX
5
6a9
100
AcDbEntity
8
1
100
AcDbVertex
100
AcDb2dVertex
62
5
10
160.625000
20
44.187500
0
VERTEX
5
6aa
100
AcDbEntity
8
1
100
AcDbVertex
100
AcDb2dVertex
62
5
10
160.312500
20
45.125000
0
VERTEX
5
6ab
100
AcDbEntity
8
1
100
AcDbVertex
100
AcDb2dVertex
62
5
10
159.687500
20
45.750000
0
VERTEX
5
6ac
100
AcDbEntity
8
1
100
AcDbVertex
100
AcDb2dVertex
62
5
10
158.750000
20
45.750000
0
VERTEX
5
6ad
100
AcDbEntity
8
1
100
AcDbVertex
100
AcDb2dVertex
62
5
10
157.812500
20
44.812500
0
VERTEX
5
6ae
100
AcDbEntity
8
1
100
AcDbVertex
100
AcDb2dVertex
62
5
10
157.500000
20
43.250000
0
VERTEX
5
6af
100
AcDbEntity
8
1
100
AcDbVertex
100
AcDb2dVertex
62
5
10
157.500000
20
40.750000
0
VERTEX
5
6b0
100
AcDbEntity
8
1
100
AcDbVertex
100
AcDb2dVertex
62
5
10
157.812500
20
39.187500
0
VERTEX
5
6b1
100
AcDbEntity
8
1
100
AcDbVertex
100
AcDb2dVertex
62
5
10
158.750000
20
38.250000
0
VERTEX
5
6b2
100
AcDbEntity
8
1
100
AcDbVertex
100
AcDb2dVertex
62
5
10
159.687500
20
38.250000
0
VERTEX
5
6b3
100
AcDbEntity
8
1
100
AcDbVertex
100
AcDb2dVertex
62
5
10
160.312500
20
38.875000
0
VERTEX
5
6b4
100
AcDbEntity
8
1
100
AcDbVertex
100
AcDb2dVertex
62
5
10
160.937500
20
40.437500
0
SEQEND
5
6b5
100
AcDbEntity
8
1
0
LINE
5
6b6
100
AcDbEntity
8
1
100
AcDbLine
6
CONTINUOUS
62
5
10
100.000000
20
54.000000
11
100.000000
21
30.000000
0
LINE
5
6b7
100
AcDbEntity
8
1
100
AcDbLine
6
CONTINUOUS
62
5
10
64.687500
20
46.375000
11
64.687500
21
45.437500
0
POLYLINE
5
6b8
100
AcDbEntity
8
1
6
CONTINUOUS
62
5
100
AcDb2dPolyline
66
1
10
0.0
20
0.0
30
0.0
70
0
0
VERTEX
5
6b9
100
AcDbEntity
8
1
100
AcDbVertex
100
AcDb2dVertex
62
5
10
60.937500
20
43.250000
0
VERTEX
5
6ba
100
AcDbEntity
8
1
100
AcDbVertex
100
AcDb2dVertex
62
5
10
60.937500
20
45.437500
0
VERTEX
5
6bb
100
AcDbEntity
8
1
100
AcDbVertex
100
AcDb2dVertex
62
5
10
68.437500
20
45.437500
0
VERTEX
5
6bc
100
AcDbEntity
8
1
100
AcDbVertex
100
AcDb2dVertex
62
5
10
68.437500
20
43.250000
0
SEQEND
5
6bd
100
AcDbEntity
8
1
0
LINE
5
6be
100
AcDbEntity
8
1
100
AcDbLine
6
CONTINUOUS
62
5
10
61.875000
20
43.562500
11
67.500000
21
43.562500
0
LINE
5
6bf
100
AcDbEntity
8
1
100
AcDbLine
6
CONTINUOUS
62
5
10
64.687500
20
43.562500
11
64.687500
21
38.250000
0
LINE
5
6c0
100
AcDbEntity
8
1
100
AcDbLine
6
CONTINUOUS
62
5
10
64.687500
20
41.062500
11
67.500000
21
41.062500
0
POLYLINE
5
6c1
100
AcDbEntity
8
1
6
CONTINUOUS
62
5
100
AcDb2dPolyline
66
1
10
0.0
20
0.0
30
0.0
70
0
0
VERTEX
5
6c2
100
AcDbEntity
8
1
100
AcDbVertex
100
AcDb2dVertex
62
5
10
62.500000
20
41.687500
0
VERTEX
5
6c3
100
AcDbEntity
8
1
100
AcDbVertex
100
AcDb2dVertex
62
5
10
62.187500
20
39.812500
0
VERTEX
5
6c4
100
AcDbEntity
8
1
100
AcDbVertex
100
AcDb2dVertex
62
5
10
61.562500
20
38.562500
0
VERTEX
5
6c5
100
AcDbEntity
8
1
100
AcDbVertex
100
AcDb2dVertex
62
5
10
60.625000
20
37.625000
0
SEQEND
5
6c6
100
AcDbEntity
8
1
0
POLYLINE
5
6c7
100
AcDbEntity
8
1
6
CONTINUOUS
62
5
100
AcDb2dPolyline
66
1
10
0.0
20
0.0
30
0.0
70
0
0
VERTEX
5
6c8
100
AcDbEntity
8
1
100
AcDbVertex
100
AcDb2dVertex
62
5
10
62.187500
20
39.812500
0
VERTEX
5
6c9
100
AcDbEntity
8
1
100
AcDbVertex
100
AcDb2dVertex
62
5
10
64.687500
20
38.250000
0
VERTEX
5
6ca
100
AcDbEntity
8
1
100
AcDbVertex
100
AcDb2dVertex
62
5
10
65.937500
20
37.937500
0
VERTEX
5
6cb
100
AcDbEntity
8
1
100
AcDbVertex
100
AcDb2dVertex
62
5
10
69.062500
20
37.625000
0
SEQEND
5
6cc
100
AcDbEntity
8
1
0
LINE
5
6cd
100
AcDbEntity
8
1
100
AcDbLine
6
CONTINUOUS
62
5
10
80.625000
20
44.187500
11
83.750000
21
44.187500
0
LINE
5
6ce
100
AcDbEntity
8
1
100
AcDbLine
6
CONTINUOUS
62
5
10
82.500000
20
46.375000
11
82.500000
21
37.625000
0
POLYLINE
5
6cf
100
AcDbEntity
8
1
6
CONTINUOUS
62
5
100
AcDb2dPolyline
66
1
10
0.0
20
0.0
30
0.0
70
0
0
VERTEX
5
6d0
100
AcDbEntity
8
1
100
AcDbVertex
100
AcDb2dVertex
62
5
10
82.500000
20
44.187500
0
VERTEX
5
6d1
100
AcDbEntity
8
1
100
AcDbVertex
100
AcDb2dVertex
62
5
10
81.562500
20
42.000000
0
VERTEX
5
6d2
100
AcDbEntity
8
1
100
AcDbVertex
100
AcDb2dVertex
62
5
10
80.625000
20
40.750000
0
SEQEND
5
6d3
100
AcDbEntity
8
1
0
LINE
5
6d4
100
AcDbEntity
8
1
100
AcDbLine
6
CONTINUOUS
62
5
10
82.500000
20
43.250000
11
83.437500
21
42.000000
0
POLYLINE
5
6d5
100
AcDbEntity
8
1
6
CONTINUOUS
62
5
100
AcDb2dPolyline
66
1
10
0.0
20
0.0
30
0.0
70
0
0
VERTEX
5
6d6
100
AcDbEntity
8
1
100
AcDbVertex
100
AcDb2dVertex
62
5
10
85.937500
20
46.375000
0
VERTEX
5
6d7
100
AcDbEntity
8
1
100
AcDbVertex
100
AcDb2dVertex
62
5
10
85.312500
20
45.125000
0
VERTEX
5
6d8
100
AcDbEntity
8
1
100
AcDbVertex
100
AcDb2dVertex
62
5
10
83.750000
20
43.250000
0
SEQEND
5
6d9
100
AcDbEntity
8
1
0
POLYLINE
5
6da
100
AcDbEntity
8
1
6
CONTINUOUS
62
5
100
AcDb2dPolyline
66
1
10
0.0
20
0.0
30
0.0
70
0
0
VERTEX
5
6db
100
AcDbEntity
8
1
100
AcDbVertex
100
AcDb2dVertex
62
5
10
85.312500
20
45.125000
0
VERTEX
5
6dc
100
AcDbEntity
8
1
100
AcDbVertex
100
AcDb2dVertex
62
5
10
88.437500
20
45.125000
0
VERTEX
5
6dd
100
AcDbEntity
8
1
100
AcDbVertex
100
AcDb2dVertex
62
5
10
87.500000
20
43.562500
0
VERTEX
5
6de
100
AcDbEntity
8
1
100
AcDbVertex
100
AcDb2dVertex
62
5
10
85.937500
20
42.000000
0
VERTEX
5
6df
100
AcDbEntity
8
1
100
AcDbVertex
100
AcDb2dVertex
62
5
10
83.750000
20
40.750000
0
SEQEND
5
6e0
100
AcDbEntity
8
1
0
POLYLINE
5
6e1
100
AcDbEntity
8
1
6
CONTINUOUS
62
5
100
AcDb2dPolyline
66
1
10
0.0
20
0.0
30
0.0
70
0
0
VERTEX
5
6e2
100
AcDbEntity
8
1
100
AcDbVertex
100
AcDb2dVertex
62
5
10
85.312500
20
45.125000
0
VERTEX
5
6e3
100
AcDbEntity
8
1
100
AcDbVertex
100
AcDb2dVertex
62
5
10
85.937500
20
43.562500
0
VERTEX
5
6e4
100
AcDbEntity
8
1
100
AcDbVertex
100
AcDb2dVertex
62
5
10
87.187500
20
42.000000
0
VERTEX
5
6e5
100
AcDbEntity
8
1
100
AcDbVertex
100
AcDb2dVertex
62
5
10
88.125000
20
41.375000
0
VERTEX
5
6e6
100
AcDbEntity
8
1
100
AcDbVertex
100
AcDb2dVertex
62
5
10
89.375000
20
40.750000
0
SEQEND
5
6e7
100
AcDbEntity
8
1
0
POLYLINE
5
6e8
100
AcDbEntity
8
1
6
CONTINUOUS
62
5
100
AcDb2dPolyline
66
1
10
0.0
20
0.0
30
0.0
70
1
0
VERTEX
5
6e9
100
AcDbEntity
8
1
100
AcDbVertex
100
AcDb2dVertex
62
5
10
85.000000
20
40.750000
0
VERTEX
5
6ea
100
AcDbEntity
8
1
100
AcDbVertex
100
AcDb2dVertex
62
5
10
85.000000
20
37.937500
0
VERTEX
5
6eb
100
AcDbEntity
8
1
100
AcDbVertex
100
AcDb2dVertex
62
5
10
88.437500
20
37.937500
0
VERTEX
5
6ec
100
AcDbEntity
8
1
100
AcDbVertex
100
AcDb2dVertex
62
5
10
88.437500
20
40.750000
0
VERTEX
5
6ed
100
AcDbEntity
8
1
100
AcDbVertex
100
AcDb2dVertex
62
5
10
85.000000
20
40.750000
0
SEQEND
5
6ee
100
AcDbEntity
8
1
0
POLYLINE
5
6ef
100
AcDbEntity
8
1
6
DOT2
62
5
100
AcDb2dPolyline
66
1
10
0.0
20
0.0
30
0.0
70
0
0
VERTEX
5
6f0
100
AcDbEntity
8
1
100
AcDbVertex
100
AcDb2dVertex
62
5
10
116.937500
20
87.608176
0
VERTEX
5
6f1
100
AcDbEntity
8
1
100
AcDbVertex
100
AcDb2dVertex
62
5
10
115.375000
20
87.920676
0
VERTEX
5
6f2
100
AcDbEntity
8
1
100
AcDbVertex
100
AcDb2dVertex
62
5
10
114.750000
20
88.858176
0
VERTEX
5
6f3
100
AcDbEntity
8
1
100
AcDbVertex
100
AcDb2dVertex
62
5
10
114.750000
20
89.795676
0
VERTEX
5
6f4
100
AcDbEntity
8
1
100
AcDbVertex
100
AcDb2dVertex
62
5
10
115.062500
20
90.420676
0
VERTEX
5
6f5
100
AcDbEntity
8
1
100
AcDbVertex
100
AcDb2dVertex
62
5
10
116.000000
20
90.733176
0
VERTEX
5
6f6
100
AcDbEntity
8
1
100
AcDbVertex
100
AcDb2dVertex
62
5
10
116.937500
20
90.733176
0
VERTEX
5
6f7
100
AcDbEntity
8
1
100
AcDbVertex
100
AcDb2dVertex
62
5
10
117.875000
20
90.420676
0
VERTEX
5
6f8
100
AcDbEntity
8
1
100
AcDbVertex
100
AcDb2dVertex
62
5
10
122.250000
20
87.608176
0
VERTEX
5
6f9
100
AcDbEntity
8
1
100
AcDbVertex
100
AcDb2dVertex
62
5
10
122.250000
20
90.733176
0
VERTEX
5
6fa
100
AcDbEntity
8
1
100
AcDbVertex
100
AcDb2dVertex
62
5
10
121.312500
20
90.733176
0
SEQEND
5
6fb
100
AcDbEntity
8
1
0
LINE
5
6fc
100
AcDbEntity
8
1
100
AcDbLine
6
CONTINUOUS
62
5
10
147.000000
20
129.558176
11
121.500000
21
129.558176
0
LINE
5
6fd
100
AcDbEntity
8
1
100
AcDbLine
6
CONTINUOUS
62
5
10
160.132902
20
101.358176
11
121.500000
21
101.358176
0
POLYLINE
5
6fe
100
AcDbEntity
8
1
6
CONTINUOUS
62
5
100
AcDb2dPolyline
66
1
10
0.0
20
0.0
30
0.0
70
0
0
VERTEX
5
6ff
100
AcDbEntity
8
1
100
AcDbVertex
100
AcDb2dVertex
62
5
10
123.500000
20
70.108176
0
VERTEX
5
700
100
AcDbEntity
8
1
100
AcDbVertex
100
AcDb2dVertex
62
5
10
123.500000
20
101.358176
0
VERTEX
5
701
100
AcDbEntity
8
1
100
AcDbVertex
100
AcDb2dVertex
62
5
10
124.500000
20
95.358176
0
VERTEX
5
702
100
AcDbEntity
8
1
100
AcDbVertex
100
AcDb2dVertex
62
5
10
122.500000
20
95.358176
0
VERTEX
5
703
100
AcDbEntity
8
1
100
AcDbVertex
100
AcDb2dVertex
62
5
10
123.500000
20
101.358176
0
VERTEX
5
704
100
AcDbEntity
8
1
100
AcDbVertex
100
AcDb2dVertex
62
5
10
124.000000
20
95.358176
0
VERTEX
5
705
100
AcDbEntity
8
1
100
AcDbVertex
100
AcDb2dVertex
62
5
10
123.000000
20
95.358176
0
VERTEX
5
706
100
AcDbEntity
8
1
100
AcDbVertex
100
AcDb2dVertex
62
5
10
123.500000
20
101.358176
0
SEQEND
5
707
100
AcDbEntity
8
1
0
LINE
5
708
100
AcDbEntity
8
1
100
AcDbLine
6
CONTINUOUS
62
5
10
123.500000
20
101.358176
11
123.500000
21
129.558176
0
LINE
5
709
100
AcDbEntity
8
1
100
AcDbLine
6
CONTINUOUS
62
5
10
123.500000
20
132.558176
11
123.500000
21
129.558176
0
ARC
5
70a
100
AcDbEntity
8
1
100
AcDbCircle
6
CONTINUOUS
62
5
10
161.926730
20
139.663385
40
0.500000
100
AcDbArc
50
81.608256
51
163.080825
0
ARC
5
70b
100
AcDbEntity
8
1
100
AcDbCircle
6
CONTINUOUS
62
5
10
202.847254
20
337.037383
40
201.072130
100
AcDbArc
50
-101.721150
51
-96.986335
0
LINE
5
70c
100
AcDbEntity
8
1
100
AcDbLine
6
CONTINUOUS
62
5
10
160.840383
20
137.458176
11
161.448372
21
139.808896
0
ARC
5
70d
100
AcDbEntity
8
1
100
AcDbCircle
6
CONTINUOUS
62
5
10
161.612695
20
140.341824
40
0.500000
100
AcDbArc
50
78.151402
51
160.344128
0
ARC
5
70e
100
AcDbEntity
8
1
100
AcDbCircle
6
CONTINUOUS
62
5
10
202.780604
20
336.569888
40
200.000000
100
AcDbArc
50
-101.848596
51
-96.151402
0
ARC
5
70f
100
AcDbEntity
8
1
100
AcDbCircle
6
CONTINUOUS
62
5
10
181.295806
20
137.224326
40
0.500000
100
AcDbArc
50
27.885150
51
83.848596
0
LINE
5
710
100
AcDbEntity
8
1
100
AcDbLine
6
CONTINUOUS
62
5
10
160.216703
20
137.458176
11
161.141830
21
140.510009
0
LINE
5
711
100
AcDbEntity
8
1
100
AcDbLine
6
CONTINUOUS
62
5
10
156.500000
20
124.758176
11
184.500000
21
124.758176
0
ARC
5
712
100
AcDbEntity
8
1
100
AcDbCircle
6
CONTINUOUS
62
5
10
183.800000
20
121.458176
40
0.700000
100
AcDbArc
50
-89.999999
51
0.000000
0
POLYLINE
5
713
100
AcDbEntity
8
1
6
CONTINUOUS
62
5
100
AcDb2dPolyline
66
1
10
0.0
20
0.0
30
0.0
70
0
0
VERTEX
5
714
100
AcDbEntity
8
1
100
AcDbVertex
100
AcDb2dVertex
62
5
10
183.800000
20
120.758176
0
VERTEX
5
715
100
AcDbEntity
8
1
100
AcDbVertex
100
AcDb2dVertex
62
5
10
180.600000
20
120.758176
0
VERTEX
5
716
100
AcDbEntity
8
1
100
AcDbVertex
100
AcDb2dVertex
62
5
10
180.410203
20
102.347867
0
SEQEND
5
717
100
AcDbEntity
8
1
0
ARC
5
718
100
AcDbEntity
8
1
100
AcDbCircle
6
CONTINUOUS
62
5
10
179.410256
20
102.358176
40
1.000000
100
AcDbArc
50
-89.999999
51
-0.590657
0
LINE
5
719
100
AcDbEntity
8
1
100
AcDbLine
6
CONTINUOUS
62
5
10
179.410256
20
101.358176
11
161.589744
21
101.358176
0
ARC
5
71a
100
AcDbEntity
8
1
100
AcDbCircle
6
CONTINUOUS
62
5
10
161.589744
20
102.358176
40
1.000000
100
AcDbArc
50
-179.409341
51
-89.999999
0
POLYLINE
5
71b
100
AcDbEntity
8
1
6
CONTINUOUS
62
5
100
AcDb2dPolyline
66
1
10
0.0
20
0.0
30
0.0
70
0
0
VERTEX
5
71c
100
AcDbEntity
8
1
100
AcDbVertex
100
AcDb2dVertex
62
5
10
160.589797
20
102.347867
0
VERTEX
5
71d
100
AcDbEntity
8
1
100
AcDbVertex
100
AcDb2dVertex
62
5
10
160.400000
20
120.758176
0
VERTEX
5
71e
100
AcDbEntity
8
1
100
AcDbVertex
100
AcDb2dVertex
62
5
10
157.200000
20
120.758176
0
SEQEND
5
71f
100
AcDbEntity
8
1
0
ARC
5
720
100
AcDbEntity
8
1
100
AcDbCircle
6
CONTINUOUS
62
5
10
157.200000
20
121.458176
40
0.700000
100
AcDbArc
50
179.999998
51
-89.999999
0
LINE
5
721
100
AcDbEntity
8
1
100
AcDbLine
6
CONTINUOUS
62
5
10
156.500000
20
121.458176
11
156.500000
21
124.758176
0
LINE
5
722
100
AcDbEntity
8
1
100
AcDbLine
6
CONTINUOUS
62
5
10
184.500000
20
124.758176
11
184.500000
21
121.458176
0
ARC
5
723
100
AcDbEntity
8
1
100
AcDbCircle
6
CONTINUOUS
62
5
10
157.200000
20
136.758176
40
0.700000
100
AcDbArc
50
89.999999
51
179.999998
0
LINE
5
724
100
AcDbEntity
8
1
100
AcDbLine
6
CONTINUOUS
62
5
10
157.200000
20
137.458176
11
183.800000
21
137.458176
0
ARC
5
725
100
AcDbEntity
8
1
100
AcDbCircle
6
CONTINUOUS
62
5
10
183.800000
20
136.758176
40
0.700000
100
AcDbArc
50
0.000000
51
89.999999
0
LINE
5
726
100
AcDbEntity
8
1
100
AcDbLine
6
CONTINUOUS
62
5
10
184.500000
20
136.758176
11
184.500000
21
124.758176
0
LINE
5
727
100
AcDbEntity
8
1
100
AcDbLine
6
CONTINUOUS
62
5
10
156.500000
20
124.758176
11
156.500000
21
136.758176
0
POLYLINE
5
728
100
AcDbEntity
8
1
6
CONTINUOUS
62
5
100
AcDb2dPolyline
66
1
10
0.0
20
0.0
30
0.0
70
1
0
VERTEX
5
729
100
AcDbEntity
8
1
100
AcDbVertex
100
AcDb2dVertex
62
5
10
290.000000
20
30.000000
0
VERTEX
5
72a
100
AcDbEntity
8
1
100
AcDbVertex
100
AcDb2dVertex
62
5
10
290.000000
20
54.000000
0
VERTEX
5
72b
100
AcDbEntity
8
1
100
AcDbVertex
100
AcDb2dVertex
62
5
10
50.000000
20
54.000000
0
VERTEX
5
72c
100
AcDbEntity
8
1
100
AcDbVertex
100
AcDb2dVertex
62
5
10
50.000000
20
30.000000
0
VERTEX
5
72d
100
AcDbEntity
8
1
100
AcDbVertex
100
AcDb2dVertex
62
5
10
290.000000
20
30.000000
0
SEQEND
5
72e
100
AcDbEntity
8
1
0
POLYLINE
5
72f
100
AcDbEntity
8
1
6
DOT2
62
5
100
AcDb2dPolyline
66
1
10
0.0
20
0.0
30
0.0
70
0
0
VERTEX
5
730
100
AcDbEntity
8
1
100
AcDbVertex
100
AcDb2dVertex
62
5
10
0.000000
20
350.000000
0
VERTEX
5
731
100
AcDbEntity
8
1
100
AcDbVertex
100
AcDb2dVertex
62
5
10
0.000000
20
360.000000
0
VERTEX
5
732
100
AcDbEntity
8
1
100
AcDbVertex
100
AcDb2dVertex
62
5
10
10.000000
20
360.000000
0
SEQEND
5
733
100
AcDbEntity
8
1
0
POLYLINE
5
734
100
AcDbEntity
8
1
6
DOT2
62
5
100
AcDb2dPolyline
66
1
10
0.0
20
0.0
30
0.0
70
0
0
VERTEX
5
735
100
AcDbEntity
8
1
100
AcDbVertex
100
AcDb2dVertex
62
5
10
330.000000
20
360.000000
0
VERTEX
5
736
100
AcDbEntity
8
1
100
AcDbVertex
100
AcDb2dVertex
62
5
10
340.000000
20
360.000000
0
VERTEX
5
737
100
AcDbEntity
8
1
100
AcDbVertex
100
AcDb2dVertex
62
5
10
340.000000
20
350.000000
0
SEQEND
5
738
100
AcDbEntity
8
1
0
POLYLINE
5
739
100
AcDbEntity
8
1
6
DOT2
62
5
100
AcDb2dPolyline
66
1
10
0.0
20
0.0
30
0.0
70
0
0
VERTEX
5
73a
100
AcDbEntity
8
1
100
AcDbVertex
100
AcDb2dVertex
62
5
10
340.000000
20
10.000000
0
VERTEX
5
73b
100
AcDbEntity
8
1
100
AcDbVertex
100
AcDb2dVertex
62
5
10
340.000000
20
0.000000
0
VERTEX
5
73c
100
AcDbEntity
8
1
100
AcDbVertex
100
AcDb2dVertex
62
5
10
330.000000
20
0.000000
0
SEQEND
5
73d
100
AcDbEntity
8
1
0
POLYLINE
5
73e
100
AcDbEntity
8
1
6
DOT2
62
5
100
AcDb2dPolyline
66
1
10
0.0
20
0.0
30
0.0
70
0
0
VERTEX
5
73f
100
AcDbEntity
8
1
100
AcDbVertex
100
AcDb2dVertex
62
5
10
10.000000
20
0.000000
0
VERTEX
5
740
100
AcDbEntity
8
1
100
AcDbVertex
100
AcDb2dVertex
62
5
10
0.000000
20
0.000000
0
VERTEX
5
741
100
AcDbEntity
8
1
100
AcDbVertex
100
AcDb2dVertex
62
5
10
0.000000
20
10.000000
0
SEQEND
5
742
100
AcDbEntity
8
1
0
POLYLINE
5
743
100
AcDbEntity
8
1
6
CONTINUOUS
62
5
100
AcDb2dPolyline
66
1
10
0.0
20
0.0
30
0.0
70
1
0
VERTEX
5
744
100
AcDbEntity
8
1
100
AcDbVertex
100
AcDb2dVertex
62
5
10
10.000000
20
10.000000
0
VERTEX
5
745
100
AcDbEntity
8
1
100
AcDbVertex
100
AcDb2dVertex
62
5
10
10.000000
20
350.000000
0
VERTEX
5
746
100
AcDbEntity
8
1
100
AcDbVertex
100
AcDb2dVertex
62
5
10
330.000000
20
350.000000
0
VERTEX
5
747
100
AcDbEntity
8
1
100
AcDbVertex
100
AcDb2dVertex
62
5
10
330.000000
20
10.000000
0
VERTEX
5
748
100
AcDbEntity
8
1
100
AcDbVertex
100
AcDb2dVertex
62
5
10
10.000000
20
10.000000
0
SEQEND
5
749
100
AcDbEntity
8
1
0
ENDSEC
0
SECTION
2
OBJECTS
0
DICTIONARY
5
74a
100
AcDbDictionary
3
ACAD_GROUP
350
74b
3
ACAD_MLINESTYLE
350
74c
0
DICTIONARY
5
74b
102
{ACAD_REACTORS
330
74a
102
}
100
AcDbDictionary
0
DICTIONARY
5
74c
102
{ACAD_REACTORS
330
74a
102
}
100
AcDbDictionary
3
STANDARD
350
74d
0
MLINESTYLE
5
74d
102
{ACAD_REACTORS
330
74c
102
}
100
AcDbMlineStyle
2
STANDARD
70
0
3

62
0
51
90.0
52
90.0
71
2
49
0.5
62
256
6
BYLAYER
49
-0.5
62
256
6
BYLAYER
0
ENDSEC
0
EOF
