0
SECTION
2
HEADER
9
$ACADVER
1
AC1012
9
$EXTMIN
10
-0.010000
20
-0.010000
30
0.0
9
$EXTMAX
10
13.390000
20
14.180000
30
0.0
9
$LIMMIN
10
-0.254000
20
-0.254000
9
$LIMMAX
10
340.106000
20
360.172000
9
$DIMSCALE
40
1.000000
9
$PDMODE
70
2
9
$PDSIZE
40
0.0
  9
$HANDSEED
  5
bca
0
ENDSEC
0
SECTION
2
CLASSES
0
ENDSEC
0
SECTION
2
TABLES
0
TABLE
2
LTYPE
5
1e
100
AcDbSymbolTable
70
12
0
LTYPE
5
1f
100
AcDbSymbolTableRecord
100
AcDbLinetypeTableRecord
2
BYBLOCK
70
0
3

72
65
73
0
40
0.0
0
LTYPE
5
20
100
AcDbSymbolTableRecord
100
AcDbLinetypeTableRecord
2
BYLAYER
70
0
3

72
65
73
0
40
0.0
0
LTYPE
5
21
100
AcDbSymbolTableRecord
100
AcDbLinetypeTableRecord
2
CONTINUOUS
70
64
3
Solid line
72
65
73
0
40
0.0
0
LTYPE
5
22
100
AcDbSymbolTableRecord
100
AcDbLinetypeTableRecord
2
DASHED
70
64
3
__ __ __ __ __ __ __ __ __ __ __ __ __ __ __
72
65
73
2
40
0.75
49
0.5
74
0
49
-0.25
74
0
0
LTYPE
5
23
100
AcDbSymbolTableRecord
100
AcDbLinetypeTableRecord
2
DOT
70
64
3
...............................................
72
65
73
2
40
0.25
49
0.0
74
0
49
-0.25
74
0
0
LTYPE
5
24
100
AcDbSymbolTableRecord
100
AcDbLinetypeTableRecord
2
DASHDOT
70
64
3
__ . __ . __ . __ . __ . __ . __ . __ . __ . --
72
65
73
4
40
1.0
49
0.5
74
0
49
-0.25
74
0
49
0.0
74
0
49
-0.25
74
0
0
LTYPE
5
25
100
AcDbSymbolTableRecord
100
AcDbLinetypeTableRecord
2
CENTER
70
64
3
____ _ ____ _ ____ _ ____ _ ____ _ ____ _ ____
72
65
73
4
40
2.0
49
1.25
74
0
49
-0.25
74
0
49
0.25
74
0
49
-0.25
74
0
0
LTYPE
5
26
100
AcDbSymbolTableRecord
100
AcDbLinetypeTableRecord
2
PHANTOM
70
64
3
_____ _ _ _____ _ _ _____ _ _ _____ _ _ ____
72
65
73
6
40
2.5
49
1.25
74
0
49
-0.25
74
0
49
0.25
74
0
49
-0.25
74
0
49
0.25
74
0
49
-0.25
74
0
0
LTYPE
5
27
100
AcDbSymbolTableRecord
100
AcDbLinetypeTableRecord
2
HIDDEN
70
64
3
_ _ _ _ _ _ _ _ _ _ _ _ _ _ _ _ _ _ _ _ _ _ _
72
65
73
2
40
0.375
49
0.25
74
0
49
-0.125
74
0
0
LTYPE
5
28
100
AcDbSymbolTableRecord
100
AcDbLinetypeTableRecord
2
BORDER
70
64
3
__ __ . __ __ . __ __ . __ __ . __ __ . __ __
72
65
73
6
40
1.75
49
0.5
74
0
49
-0.25
74
0
49
0.5
74
0
49
-0.25
74
0
49
0.0
74
0
49
-0.25
74
0
0
LTYPE
5
29
100
AcDbSymbolTableRecord
100
AcDbLinetypeTableRecord
2
DIVIDE
70
64
3
__ . . __ . . __ . . __ . . __ . . __ . . __
72
65
73
6
40
1.25
49
0.5
74
0
49
-0.25
74
0
49
0.0
74
0
49
-0.25
74
0
49
0.0
74
0
49
-0.25
74
0
0
LTYPE
5
2a
100
AcDbSymbolTableRecord
100
AcDbLinetypeTableRecord
2
DOT2
70
64
3
...............................................
72
65
73
2
40
0.125
49
0.0
74
0
49
-0.125
74
0
0
ENDTAB
0
TABLE
2
STYLE
5
2b
100
AcDbSymbolTable
70
1
0
STYLE
5
2c
100
AcDbSymbolTableRecord
100
AcDbTextStyleTableRecord
2
STANDARD
70
64
40
0.0
41
1.0
50
0.0
71
0
42
5.0
3
txt
4
bigfont
0
ENDTAB
0
TABLE
2
LAYER
5
2d
100
AcDbSymbolTable
70
3
0
LAYER
5
2e
100
AcDbSymbolTableRecord
100
AcDbLayerTableRecord
2
0
70
0
62
7
6
CONTINUOUS
0
LAYER
5
2f
100
AcDbSymbolTableRecord
100
AcDbLayerTableRecord
2
1
70
0
62
7
6
CONTINUOUS
0
LAYER
5
30
100
AcDbSymbolTableRecord
100
AcDbLayerTableRecord
2
0
70
0
62
7
6
CONTINUOUS
0
ENDTAB
0
TABLE
2
APPID
5
31
100
AcDbSymbolTable
70
1
0
APPID
5
32
100
AcDbSymbolTableRecord
100
AcDbRegAppTableRecord
2
ACAD
70
64
0
ENDTAB
0
TABLE
2
DIMSTYLE
5
33
100
AcDbSymbolTable
70
0
0
ENDTAB
0
TABLE
2
UCS
5
34
100
AcDbSymbolTable
70
0
0
ENDTAB
0
TABLE
2
VIEW
5
35
100
AcDbSymbolTable
70
0
0
ENDTAB
0
TABLE
2
VPORT
5
36
100
AcDbSymbolTable
70
0
0
ENDTAB
0
TABLE
2
BLOCK_RECORD
5
37
100
AcDbSymbolTable
70
0
0
BLOCK_RECORD
5
38
100
AcDbSymbolTableRecord
100
AcDbBlockTableRecord
2
*MODEL_SPACE
0
BLOCK_RECORD
5
39
100
AcDbSymbolTableRecord
100
AcDbBlockTableRecord
2
*PAPER_SPACE
0
BLOCK_RECORD
5
3a
100
AcDbSymbolTableRecord
100
AcDbBlockTableRecord
2
OPEN
0
BLOCK_RECORD
5
3b
100
AcDbSymbolTableRecord
100
AcDbBlockTableRecord
2
HALF
0
BLOCK_RECORD
5
3c
100
AcDbSymbolTableRecord
100
AcDbBlockTableRecord
2
CLOSEDBLANK
0
BLOCK_RECORD
5
3d
100
AcDbSymbolTableRecord
100
AcDbBlockTableRecord
2
HALFCLOSE_R
0
BLOCK_RECORD
5
3e
100
AcDbSymbolTableRecord
100
AcDbBlockTableRecord
2
DOT
0
BLOCK_RECORD
5
3f
100
AcDbSymbolTableRecord
100
AcDbBlockTableRecord
2
HALFOPEN_R
0
BLOCK_RECORD
5
40
100
AcDbSymbolTableRecord
100
AcDbBlockTableRecord
2
CLOSEDF
0
BLOCK_RECORD
5
41
100
AcDbSymbolTableRecord
100
AcDbBlockTableRecord
2
HALF_R
0
ENDTAB
0
ENDSEC
0
SECTION
2
BLOCKS
0
BLOCK
5
42
100
AcDbEntity
8
0
100
AcDbBlockBegin
2
*MODEL_SPACE
70
0
10
0.0
20
0.0
30
0.0
3
*MODEL_SPACE
1

0
ENDBLK
5
43
100
AcDbEntity
8
0
100
AcDbBlockEnd
0
BLOCK
5
44
100
AcDbEntity
67
1
8
0
100
AcDbBlockBegin
2
*PAPER_SPACE
70
0
10
0.0
20
0.0
30
0.0
3
*PAPER_SPACE
1

0
ENDBLK
5
45
100
AcDbEntity
67
1
8
0
100
AcDbBlockEnd
0
BLOCK
5
46
100
AcDbEntity
8
0
100
AcDbBlockBegin
2
OPEN
70
0
10
0.0
20
0.0
30
0.0
3
OPEN
1

0
LINE
5
47
100
AcDbEntity
8
0
6
BYBLOCK
62
0
100
AcDbLine
10
0.000000
20
0.000000
11
-1.000000
21
0.000000
0
LINE
5
48
100
AcDbEntity
8
0
6
BYBLOCK
62
0
100
AcDbLine
10
-1.000000
20
-0.166667
11
0.000000
21
0.000000
0
LINE
5
49
100
AcDbEntity
8
0
6
BYBLOCK
62
0
100
AcDbLine
10
-1.000000
20
0.166667
11
0.000000
21
0.000000
0
ENDBLK
5
4a
100
AcDbEntity
8
0
100
AcDbBlockEnd
0
BLOCK
5
4b
100
AcDbEntity
8
0
100
AcDbBlockBegin
2
HALF
70
0
10
0.0
20
0.0
30
0.0
3
HALF
1

0
SOLID
5
4c
100
AcDbEntity
8
0
6
BYBLOCK
62
0
100
AcDbTrace
10
-1.000000
20
0.166667
11
-1.000000
21
-0.166667
12
0.000000
22
0.000000
13
0.000000
23
0.000000
0
ENDBLK
5
4d
100
AcDbEntity
8
0
100
AcDbBlockEnd
0
BLOCK
5
4e
100
AcDbEntity
8
0
100
AcDbBlockBegin
2
CLOSEDBLANK
70
0
10
0.0
20
0.0
30
0.0
3
CLOSEDBLANK
1

0
LINE
5
4f
100
AcDbEntity
8
0
6
BYBLOCK
62
0
100
AcDbLine
10
-1.000000
20
0.166667
11
-1.000000
21
-0.166667
0
LINE
5
50
100
AcDbEntity
8
0
6
BYBLOCK
62
0
100
AcDbLine
10
0.000000
20
0.000000
11
-1.000000
21
-0.166667
0
LINE
5
51
100
AcDbEntity
8
0
6
BYBLOCK
62
0
100
AcDbLine
10
-1.000000
20
0.166667
11
0.000000
21
0.000000
0
ENDBLK
5
52
100
AcDbEntity
8
0
100
AcDbBlockEnd
0
BLOCK
5
53
100
AcDbEntity
8
0
100
AcDbBlockBegin
2
HALFCLOSE_R
70
0
10
0.0
20
0.0
30
0.0
3
HALFCLOSE_R
1

0
LINE
5
54
100
AcDbEntity
8
0
6
BYBLOCK
62
0
100
AcDbLine
10
-1.000000
20
-0.166667
11
-1.000000
21
0.000000
0
LINE
5
55
100
AcDbEntity
8
0
6
BYBLOCK
62
0
100
AcDbLine
10
-1.000000
20
-0.166667
11
0.000000
21
0.000000
0
LINE
5
56
100
AcDbEntity
8
0
6
BYBLOCK
62
0
100
AcDbLine
10
0.000000
20
0.000000
11
-1.000000
21
0.000000
0
ENDBLK
5
57
100
AcDbEntity
8
0
100
AcDbBlockEnd
0
BLOCK
5
58
100
AcDbEntity
8
0
100
AcDbBlockBegin
2
DOT
70
0
10
0.0
20
0.0
30
0.0
3
DOT
1

0
LINE
5
59
100
AcDbEntity
8
0
6
BYBLOCK
62
0
100
AcDbLine
10
0.000000
20
0.000000
11
-1.000000
21
0.000000
0
POLYLINE
5
5a
100
AcDbEntity
8
0
6
BYBLOCK
62
0
100
AcDb2dPolyline
66
1
10
0.0
20
0.0
30
0.0
70
1
40
0.166667
41
0.166667
0
VERTEX
5
5b
100
AcDbEntity
8
0
100
AcDbVertex
100
AcDb2dVertex
62
10
10
-0.083333
20
0.000000
42
1.000000
0
VERTEX
5
5c
100
AcDbEntity
8
0
100
AcDbVertex
100
AcDb2dVertex
62
10
10
0.083333
20
0.000000
42
1.000000
0
SEQEND
5
5d
100
AcDbEntity
8
0
0
ENDBLK
5
5e
100
AcDbEntity
8
0
100
AcDbBlockEnd
0
BLOCK
5
5f
100
AcDbEntity
8
0
100
AcDbBlockBegin
2
HALFOPEN_R
70
0
10
0.0
20
0.0
30
0.0
3
HALFOPEN_R
1

0
LINE
5
60
100
AcDbEntity
8
0
6
BYBLOCK
62
0
100
AcDbLine
10
-1.000000
20
-0.166667
11
0.000000
21
0.000000
0
LINE
5
61
100
AcDbEntity
8
0
6
BYBLOCK
62
0
100
AcDbLine
10
0.000000
20
0.000000
11
-1.000000
21
0.000000
0
ENDBLK
5
62
100
AcDbEntity
8
0
100
AcDbBlockEnd
0
BLOCK
5
63
100
AcDbEntity
8
0
100
AcDbBlockBegin
2
CLOSEDF
70
0
10
0.0
20
0.0
30
0.0
3
CLOSEDF
1

0
SOLID
5
64
100
AcDbEntity
8
0
6
BYBLOCK
62
0
100
AcDbTrace
10
-1.000000
20
0.166667
11
-1.000000
21
-0.166667
12
0.000000
22
0.000000
13
0.000000
23
0.000000
0
ENDBLK
5
65
100
AcDbEntity
8
0
100
AcDbBlockEnd
0
BLOCK
5
66
100
AcDbEntity
8
0
100
AcDbBlockBegin
2
HALF_R
70
0
10
0.0
20
0.0
30
0.0
3
HALF_R
1

0
SOLID
5
67
100
AcDbEntity
8
0
6
BYBLOCK
62
0
100
AcDbTrace
10
-1.000000
20
-0.166667
11
-1.000000
21
0.000000
12
0.000000
22
0.000000
13
0.000000
23
0.000000
0
ENDBLK
5
68
100
AcDbEntity
8
0
100
AcDbBlockEnd
0
ENDSEC
0
SECTION
2
ENTITIES
0
LINE
5
69
100
AcDbEntity
8
1
100
AcDbLine
6
CONTINUOUS
62
5
10
222.250000
20
335.562500
11
222.500000
21
334.312500
0
LINE
5
6a
100
AcDbEntity
8
1
100
AcDbLine
6
CONTINUOUS
62
5
10
223.750000
20
335.875000
11
224.000000
21
334.625000
0
POLYLINE
5
6b
100
AcDbEntity
8
1
6
CONTINUOUS
62
5
100
AcDb2dPolyline
66
1
10
0.0
20
0.0
30
0.0
70
0
0
VERTEX
5
6c
100
AcDbEntity
8
1
100
AcDbVertex
100
AcDb2dVertex
62
5
10
225.750000
20
335.875000
0
VERTEX
5
6d
100
AcDbEntity
8
1
100
AcDbVertex
100
AcDb2dVertex
62
5
10
225.500000
20
334.312500
0
VERTEX
5
6e
100
AcDbEntity
8
1
100
AcDbVertex
100
AcDb2dVertex
62
5
10
224.250000
20
332.437500
0
VERTEX
5
6f
100
AcDbEntity
8
1
100
AcDbVertex
100
AcDb2dVertex
62
5
10
223.250000
20
331.500000
0
SEQEND
5
70
100
AcDbEntity
8
1
0
POLYLINE
5
71
100
AcDbEntity
8
1
6
CONTINUOUS
62
5
100
AcDb2dPolyline
66
1
10
0.0
20
0.0
30
0.0
70
0
0
VERTEX
5
72
100
AcDbEntity
8
1
100
AcDbVertex
100
AcDb2dVertex
62
5
10
217.750000
20
328.687500
0
VERTEX
5
73
100
AcDbEntity
8
1
100
AcDbVertex
100
AcDb2dVertex
62
5
10
215.750000
20
326.187500
0
VERTEX
5
74
100
AcDbEntity
8
1
100
AcDbVertex
100
AcDb2dVertex
62
5
10
213.500000
20
324.625000
0
SEQEND
5
75
100
AcDbEntity
8
1
0
LINE
5
76
100
AcDbEntity
8
1
100
AcDbLine
6
CONTINUOUS
62
5
10
216.250000
20
326.812500
11
216.250000
21
321.500000
0
POLYLINE
5
77
100
AcDbEntity
8
1
6
CONTINUOUS
62
5
100
AcDb2dPolyline
66
1
10
0.0
20
0.0
30
0.0
70
0
0
VERTEX
5
78
100
AcDbEntity
8
1
100
AcDbVertex
100
AcDb2dVertex
62
5
10
223.250000
20
326.187500
0
VERTEX
5
79
100
AcDbEntity
8
1
100
AcDbVertex
100
AcDb2dVertex
62
5
10
223.500000
20
326.187500
0
VERTEX
5
7a
100
AcDbEntity
8
1
100
AcDbVertex
100
AcDb2dVertex
62
5
10
225.250000
20
324.937500
0
SEQEND
5
7b
100
AcDbEntity
8
1
0
LINE
5
7c
100
AcDbEntity
8
1
100
AcDbLine
6
CONTINUOUS
62
5
10
223.250000
20
329.000000
11
223.250000
21
321.500000
0
POLYLINE
5
7d
100
AcDbEntity
8
1
6
CONTINUOUS
62
5
100
AcDb2dPolyline
66
1
10
0.0
20
0.0
30
0.0
70
0
0
VERTEX
5
7e
100
AcDbEntity
8
1
100
AcDbVertex
100
AcDb2dVertex
62
5
10
231.250000
20
329.625000
0
VERTEX
5
7f
100
AcDbEntity
8
1
100
AcDbVertex
100
AcDb2dVertex
62
5
10
230.500000
20
328.375000
0
VERTEX
5
80
100
AcDbEntity
8
1
100
AcDbVertex
100
AcDb2dVertex
62
5
10
229.750000
20
327.437500
0
VERTEX
5
81
100
AcDbEntity
8
1
100
AcDbVertex
100
AcDb2dVertex
62
5
10
228.750000
20
326.500000
0
SEQEND
5
82
100
AcDbEntity
8
1
0
POLYLINE
5
83
100
AcDbEntity
8
1
6
CONTINUOUS
62
5
100
AcDb2dPolyline
66
1
10
0.0
20
0.0
30
0.0
70
0
0
VERTEX
5
84
100
AcDbEntity
8
1
100
AcDbVertex
100
AcDb2dVertex
62
5
10
231.000000
20
329.000000
0
VERTEX
5
85
100
AcDbEntity
8
1
100
AcDbVertex
100
AcDb2dVertex
62
5
10
233.250000
20
329.000000
0
VERTEX
5
86
100
AcDbEntity
8
1
100
AcDbVertex
100
AcDb2dVertex
62
5
10
232.000000
20
327.125000
0
SEQEND
5
87
100
AcDbEntity
8
1
0
POLYLINE
5
88
100
AcDbEntity
8
1
6
CONTINUOUS
62
5
100
AcDb2dPolyline
66
1
10
0.0
20
0.0
30
0.0
70
0
0
VERTEX
5
89
100
AcDbEntity
8
1
100
AcDbVertex
100
AcDb2dVertex
62
5
10
229.750000
20
327.125000
0
VERTEX
5
8a
100
AcDbEntity
8
1
100
AcDbVertex
100
AcDb2dVertex
62
5
10
234.250000
20
327.125000
0
VERTEX
5
8b
100
AcDbEntity
8
1
100
AcDbVertex
100
AcDb2dVertex
62
5
10
234.250000
20
324.312500
0
VERTEX
5
8c
100
AcDbEntity
8
1
100
AcDbVertex
100
AcDb2dVertex
62
5
10
229.750000
20
324.312500
0
SEQEND
5
8d
100
AcDbEntity
8
1
0
LINE
5
8e
100
AcDbEntity
8
1
100
AcDbLine
6
CONTINUOUS
62
5
10
232.000000
20
327.125000
11
232.000000
21
324.312500
0
POLYLINE
5
8f
100
AcDbEntity
8
1
6
CONTINUOUS
62
5
100
AcDb2dPolyline
66
1
10
0.0
20
0.0
30
0.0
70
0
0
VERTEX
5
90
100
AcDbEntity
8
1
100
AcDbVertex
100
AcDb2dVertex
62
5
10
229.750000
20
327.125000
0
VERTEX
5
91
100
AcDbEntity
8
1
100
AcDbVertex
100
AcDb2dVertex
62
5
10
229.750000
20
321.812500
0
VERTEX
5
92
100
AcDbEntity
8
1
100
AcDbVertex
100
AcDb2dVertex
62
5
10
230.250000
20
321.187500
0
VERTEX
5
93
100
AcDbEntity
8
1
100
AcDbVertex
100
AcDb2dVertex
62
5
10
235.250000
20
321.187500
0
VERTEX
5
94
100
AcDbEntity
8
1
100
AcDbVertex
100
AcDb2dVertex
62
5
10
235.250000
20
322.437500
0
SEQEND
5
95
100
AcDbEntity
8
1
0
POLYLINE
5
96
100
AcDbEntity
8
1
6
CONTINUOUS
62
5
100
AcDb2dPolyline
66
1
10
0.0
20
0.0
30
0.0
70
0
0
VERTEX
5
97
100
AcDbEntity
8
1
100
AcDbVertex
100
AcDb2dVertex
62
5
10
213.750000
20
335.562500
0
VERTEX
5
98
100
AcDbEntity
8
1
100
AcDbVertex
100
AcDb2dVertex
62
5
10
213.750000
20
337.750000
0
VERTEX
5
99
100
AcDbEntity
8
1
100
AcDbVertex
100
AcDb2dVertex
62
5
10
217.750000
20
337.750000
0
VERTEX
5
9a
100
AcDbEntity
8
1
100
AcDbVertex
100
AcDb2dVertex
62
5
10
217.750000
20
336.812500
0
VERTEX
5
9b
100
AcDbEntity
8
1
100
AcDbVertex
100
AcDb2dVertex
62
5
10
217.500000
20
335.250000
0
VERTEX
5
9c
100
AcDbEntity
8
1
100
AcDbVertex
100
AcDb2dVertex
62
5
10
217.000000
20
334.000000
0
VERTEX
5
9d
100
AcDbEntity
8
1
100
AcDbVertex
100
AcDb2dVertex
62
5
10
216.500000
20
333.062500
0
VERTEX
5
9e
100
AcDbEntity
8
1
100
AcDbVertex
100
AcDb2dVertex
62
5
10
215.500000
20
331.812500
0
SEQEND
5
9f
100
AcDbEntity
8
1
0
POLYLINE
5
a0
100
AcDbEntity
8
1
6
CONTINUOUS
62
5
100
AcDb2dPolyline
66
1
10
0.0
20
0.0
30
0.0
70
0
0
VERTEX
5
a1
100
AcDbEntity
8
1
100
AcDbVertex
100
AcDb2dVertex
62
5
10
231.250000
20
336.187500
0
VERTEX
5
a2
100
AcDbEntity
8
1
100
AcDbVertex
100
AcDb2dVertex
62
5
10
231.500000
20
336.187500
0
VERTEX
5
a3
100
AcDbEntity
8
1
100
AcDbVertex
100
AcDb2dVertex
62
5
10
233.250000
20
334.937500
0
SEQEND
5
a4
100
AcDbEntity
8
1
0
LINE
5
a5
100
AcDbEntity
8
1
100
AcDbLine
6
CONTINUOUS
62
5
10
231.250000
20
339.000000
11
231.250000
21
331.500000
0
POLYLINE
5
a6
100
AcDbEntity
8
1
6
CONTINUOUS
62
5
100
AcDb2dPolyline
66
1
10
0.0
20
0.0
30
0.0
70
0
0
VERTEX
5
a7
100
AcDbEntity
8
1
100
AcDbVertex
100
AcDb2dVertex
62
5
10
237.500000
20
339.000000
0
VERTEX
5
a8
100
AcDbEntity
8
1
100
AcDbVertex
100
AcDb2dVertex
62
5
10
237.500000
20
333.375000
0
VERTEX
5
a9
100
AcDbEntity
8
1
100
AcDbVertex
100
AcDb2dVertex
62
5
10
237.000000
20
332.125000
0
VERTEX
5
aa
100
AcDbEntity
8
1
100
AcDbVertex
100
AcDb2dVertex
62
5
10
236.500000
20
331.187500
0
SEQEND
5
ab
100
AcDbEntity
8
1
0
POLYLINE
5
ac
100
AcDbEntity
8
1
6
CONTINUOUS
62
5
100
AcDb2dPolyline
66
1
10
0.0
20
0.0
30
0.0
70
0
0
VERTEX
5
ad
100
AcDbEntity
8
1
100
AcDbVertex
100
AcDb2dVertex
62
5
10
241.500000
20
331.500000
0
VERTEX
5
ae
100
AcDbEntity
8
1
100
AcDbVertex
100
AcDb2dVertex
62
5
10
242.500000
20
330.875000
0
VERTEX
5
af
100
AcDbEntity
8
1
100
AcDbVertex
100
AcDb2dVertex
62
5
10
242.500000
20
339.000000
0
VERTEX
5
b0
100
AcDbEntity
8
1
100
AcDbVertex
100
AcDb2dVertex
62
5
10
237.500000
20
339.000000
0
SEQEND
5
b1
100
AcDbEntity
8
1
0
LINE
5
b2
100
AcDbEntity
8
1
100
AcDbLine
6
CONTINUOUS
62
5
10
237.500000
20
336.500000
11
242.500000
21
336.500000
0
LINE
5
b3
100
AcDbEntity
8
1
100
AcDbLine
6
CONTINUOUS
62
5
10
240.000000
20
339.000000
11
240.000000
21
330.875000
0
LINE
5
b4
100
AcDbEntity
8
1
100
AcDbLine
6
CONTINUOUS
62
5
10
237.500000
20
334.000000
11
242.500000
21
334.000000
0
POLYLINE
5
b5
100
AcDbEntity
8
1
6
CONTINUOUS
62
5
100
AcDb2dPolyline
66
1
10
0.0
20
0.0
30
0.0
70
0
0
VERTEX
5
b6
100
AcDbEntity
8
1
100
AcDbVertex
100
AcDb2dVertex
62
5
10
245.250000
20
339.312500
0
VERTEX
5
b7
100
AcDbEntity
8
1
100
AcDbVertex
100
AcDb2dVertex
62
5
10
246.000000
20
338.062500
0
VERTEX
5
b8
100
AcDbEntity
8
1
100
AcDbVertex
100
AcDb2dVertex
62
5
10
246.750000
20
336.500000
0
VERTEX
5
b9
100
AcDbEntity
8
1
100
AcDbVertex
100
AcDb2dVertex
62
5
10
247.000000
20
335.250000
0
VERTEX
5
ba
100
AcDbEntity
8
1
100
AcDbVertex
100
AcDb2dVertex
62
5
10
246.750000
20
334.000000
0
VERTEX
5
bb
100
AcDbEntity
8
1
100
AcDbVertex
100
AcDb2dVertex
62
5
10
246.250000
20
332.437500
0
VERTEX
5
bc
100
AcDbEntity
8
1
100
AcDbVertex
100
AcDb2dVertex
62
5
10
245.250000
20
330.875000
0
SEQEND
5
bd
100
AcDbEntity
8
1
0
LINE
5
be
100
AcDbEntity
8
1
100
AcDbLine
6
CONTINUOUS
62
5
10
197.250000
20
326.187500
11
202.250000
21
326.187500
0
POLYLINE
5
bf
100
AcDbEntity
8
1
6
CONTINUOUS
62
5
100
AcDb2dPolyline
66
1
10
0.0
20
0.0
30
0.0
70
0
0
VERTEX
5
c0
100
AcDbEntity
8
1
100
AcDbVertex
100
AcDb2dVertex
62
5
10
199.750000
20
328.062500
0
VERTEX
5
c1
100
AcDbEntity
8
1
100
AcDbVertex
100
AcDb2dVertex
62
5
10
199.750000
20
321.812500
0
VERTEX
5
c2
100
AcDbEntity
8
1
100
AcDbVertex
100
AcDb2dVertex
62
5
10
199.250000
20
321.812500
0
SEQEND
5
c3
100
AcDbEntity
8
1
0
LINE
5
c4
100
AcDbEntity
8
1
100
AcDbLine
6
CONTINUOUS
62
5
10
198.500000
20
324.625000
11
197.250000
21
322.750000
0
LINE
5
c5
100
AcDbEntity
8
1
100
AcDbLine
6
CONTINUOUS
62
5
10
201.250000
20
324.625000
11
202.500000
21
323.062500
0
POLYLINE
5
c6
100
AcDbEntity
8
1
6
CONTINUOUS
62
5
100
AcDb2dPolyline
66
1
10
0.0
20
0.0
30
0.0
70
0
0
VERTEX
5
c7
100
AcDbEntity
8
1
100
AcDbVertex
100
AcDb2dVertex
62
5
10
205.750000
20
325.562500
0
VERTEX
5
c8
100
AcDbEntity
8
1
100
AcDbVertex
100
AcDb2dVertex
62
5
10
205.750000
20
327.750000
0
VERTEX
5
c9
100
AcDbEntity
8
1
100
AcDbVertex
100
AcDb2dVertex
62
5
10
209.750000
20
327.750000
0
VERTEX
5
ca
100
AcDbEntity
8
1
100
AcDbVertex
100
AcDb2dVertex
62
5
10
209.750000
20
326.812500
0
VERTEX
5
cb
100
AcDbEntity
8
1
100
AcDbVertex
100
AcDb2dVertex
62
5
10
209.500000
20
325.250000
0
VERTEX
5
cc
100
AcDbEntity
8
1
100
AcDbVertex
100
AcDb2dVertex
62
5
10
209.000000
20
324.000000
0
VERTEX
5
cd
100
AcDbEntity
8
1
100
AcDbVertex
100
AcDb2dVertex
62
5
10
208.500000
20
323.062500
0
VERTEX
5
ce
100
AcDbEntity
8
1
100
AcDbVertex
100
AcDb2dVertex
62
5
10
207.500000
20
321.812500
0
SEQEND
5
cf
100
AcDbEntity
8
1
0
LINE
5
d0
100
AcDbEntity
8
1
100
AcDbLine
6
CONTINUOUS
62
5
10
174.250000
20
335.562500
11
174.500000
21
334.312500
0
LINE
5
d1
100
AcDbEntity
8
1
100
AcDbLine
6
CONTINUOUS
62
5
10
175.750000
20
335.875000
11
176.000000
21
334.625000
0
POLYLINE
5
d2
100
AcDbEntity
8
1
6
CONTINUOUS
62
5
100
AcDb2dPolyline
66
1
10
0.0
20
0.0
30
0.0
70
0
0
VERTEX
5
d3
100
AcDbEntity
8
1
100
AcDbVertex
100
AcDb2dVertex
62
5
10
177.750000
20
335.875000
0
VERTEX
5
d4
100
AcDbEntity
8
1
100
AcDbVertex
100
AcDb2dVertex
62
5
10
177.500000
20
334.312500
0
VERTEX
5
d5
100
AcDbEntity
8
1
100
AcDbVertex
100
AcDb2dVertex
62
5
10
176.250000
20
332.437500
0
VERTEX
5
d6
100
AcDbEntity
8
1
100
AcDbVertex
100
AcDb2dVertex
62
5
10
175.250000
20
331.500000
0
SEQEND
5
d7
100
AcDbEntity
8
1
0
POLYLINE
5
d8
100
AcDbEntity
8
1
6
CONTINUOUS
62
5
100
AcDb2dPolyline
66
1
10
0.0
20
0.0
30
0.0
70
0
0
VERTEX
5
d9
100
AcDbEntity
8
1
100
AcDbVertex
100
AcDb2dVertex
62
5
10
181.750000
20
335.250000
0
VERTEX
5
da
100
AcDbEntity
8
1
100
AcDbVertex
100
AcDb2dVertex
62
5
10
182.750000
20
336.500000
0
VERTEX
5
db
100
AcDbEntity
8
1
100
AcDbVertex
100
AcDb2dVertex
62
5
10
183.250000
20
337.437500
0
VERTEX
5
dc
100
AcDbEntity
8
1
100
AcDbVertex
100
AcDb2dVertex
62
5
10
185.750000
20
337.437500
0
VERTEX
5
dd
100
AcDbEntity
8
1
100
AcDbVertex
100
AcDb2dVertex
62
5
10
185.750000
20
337.125000
0
VERTEX
5
de
100
AcDbEntity
8
1
100
AcDbVertex
100
AcDb2dVertex
62
5
10
185.000000
20
335.250000
0
VERTEX
5
df
100
AcDbEntity
8
1
100
AcDbVertex
100
AcDb2dVertex
62
5
10
183.750000
20
333.375000
0
VERTEX
5
e0
100
AcDbEntity
8
1
100
AcDbVertex
100
AcDb2dVertex
62
5
10
182.250000
20
331.812500
0
SEQEND
5
e1
100
AcDbEntity
8
1
0
POLYLINE
5
e2
100
AcDbEntity
8
1
6
CONTINUOUS
62
5
100
AcDb2dPolyline
66
1
10
0.0
20
0.0
30
0.0
70
0
0
VERTEX
5
e3
100
AcDbEntity
8
1
100
AcDbVertex
100
AcDb2dVertex
62
5
10
173.750000
20
327.750000
0
VERTEX
5
e4
100
AcDbEntity
8
1
100
AcDbVertex
100
AcDb2dVertex
62
5
10
173.750000
20
322.437500
0
VERTEX
5
e5
100
AcDbEntity
8
1
100
AcDbVertex
100
AcDb2dVertex
62
5
10
174.250000
20
321.812500
0
VERTEX
5
e6
100
AcDbEntity
8
1
100
AcDbVertex
100
AcDb2dVertex
62
5
10
177.750000
20
321.812500
0
SEQEND
5
e7
100
AcDbEntity
8
1
0
LINE
5
e8
100
AcDbEntity
8
1
100
AcDbLine
6
CONTINUOUS
62
5
10
177.250000
20
325.875000
11
173.750000
21
324.937500
0
POLYLINE
5
e9
100
AcDbEntity
8
1
6
CONTINUOUS
62
5
100
AcDb2dPolyline
66
1
10
0.0
20
0.0
30
0.0
70
1
0
VERTEX
5
ea
100
AcDbEntity
8
1
100
AcDbVertex
100
AcDb2dVertex
62
5
10
177.250000
20
327.750000
0
VERTEX
5
eb
100
AcDbEntity
8
1
100
AcDbVertex
100
AcDb2dVertex
62
5
10
177.750000
20
328.375000
0
VERTEX
5
ec
100
AcDbEntity
8
1
100
AcDbVertex
100
AcDb2dVertex
62
5
10
178.000000
20
328.375000
0
VERTEX
5
ed
100
AcDbEntity
8
1
100
AcDbVertex
100
AcDb2dVertex
62
5
10
178.500000
20
327.750000
0
VERTEX
5
ee
100
AcDbEntity
8
1
100
AcDbVertex
100
AcDb2dVertex
62
5
10
178.500000
20
327.437500
0
VERTEX
5
ef
100
AcDbEntity
8
1
100
AcDbVertex
100
AcDb2dVertex
62
5
10
178.000000
20
326.812500
0
VERTEX
5
f0
100
AcDbEntity
8
1
100
AcDbVertex
100
AcDb2dVertex
62
5
10
177.750000
20
326.812500
0
VERTEX
5
f1
100
AcDbEntity
8
1
100
AcDbVertex
100
AcDb2dVertex
62
5
10
177.250000
20
327.437500
0
VERTEX
5
f2
100
AcDbEntity
8
1
100
AcDbVertex
100
AcDb2dVertex
62
5
10
177.250000
20
327.750000
0
SEQEND
5
f3
100
AcDbEntity
8
1
0
POLYLINE
5
f4
100
AcDbEntity
8
1
6
CONTINUOUS
62
5
100
AcDb2dPolyline
66
1
10
0.0
20
0.0
30
0.0
70
0
0
VERTEX
5
f5
100
AcDbEntity
8
1
100
AcDbVertex
100
AcDb2dVertex
62
5
10
182.500000
20
325.562500
0
VERTEX
5
f6
100
AcDbEntity
8
1
100
AcDbVertex
100
AcDb2dVertex
62
5
10
184.500000
20
325.562500
0
VERTEX
5
f7
100
AcDbEntity
8
1
100
AcDbVertex
100
AcDb2dVertex
62
5
10
184.250000
20
322.437500
0
SEQEND
5
f8
100
AcDbEntity
8
1
0
LINE
5
f9
100
AcDbEntity
8
1
100
AcDbLine
6
CONTINUOUS
62
5
10
181.750000
20
322.437500
11
186.000000
21
322.437500
0
POLYLINE
5
fa
100
AcDbEntity
8
1
6
CONTINUOUS
62
5
100
AcDb2dPolyline
66
1
10
0.0
20
0.0
30
0.0
70
0
0
VERTEX
5
fb
100
AcDbEntity
8
1
100
AcDbVertex
100
AcDb2dVertex
62
5
10
189.000000
20
327.437500
0
VERTEX
5
fc
100
AcDbEntity
8
1
100
AcDbVertex
100
AcDb2dVertex
62
5
10
194.250000
20
327.437500
0
VERTEX
5
fd
100
AcDbEntity
8
1
100
AcDbVertex
100
AcDb2dVertex
62
5
10
194.250000
20
327.125000
0
VERTEX
5
fe
100
AcDbEntity
8
1
100
AcDbVertex
100
AcDb2dVertex
62
5
10
192.500000
20
325.250000
0
VERTEX
5
ff
100
AcDbEntity
8
1
100
AcDbVertex
100
AcDb2dVertex
62
5
10
191.750000
20
325.250000
0
SEQEND
5
100
100
AcDbEntity
8
1
0
POLYLINE
5
101
100
AcDbEntity
8
1
6
CONTINUOUS
62
5
100
AcDb2dPolyline
66
1
10
0.0
20
0.0
30
0.0
70
0
0
VERTEX
5
102
100
AcDbEntity
8
1
100
AcDbVertex
100
AcDb2dVertex
62
5
10
191.750000
20
326.187500
0
VERTEX
5
103
100
AcDbEntity
8
1
100
AcDbVertex
100
AcDb2dVertex
62
5
10
191.750000
20
324.625000
0
VERTEX
5
104
100
AcDbEntity
8
1
100
AcDbVertex
100
AcDb2dVertex
62
5
10
191.000000
20
322.750000
0
VERTEX
5
105
100
AcDbEntity
8
1
100
AcDbVertex
100
AcDb2dVertex
62
5
10
190.000000
20
321.500000
0
SEQEND
5
106
100
AcDbEntity
8
1
0
POLYLINE
5
107
100
AcDbEntity
8
1
6
CONTINUOUS
62
5
100
AcDb2dPolyline
66
1
10
0.0
20
0.0
30
0.0
70
0
0
VERTEX
5
108
100
AcDbEntity
8
1
100
AcDbVertex
100
AcDb2dVertex
62
5
10
189.500000
20
339.000000
0
VERTEX
5
109
100
AcDbEntity
8
1
100
AcDbVertex
100
AcDb2dVertex
62
5
10
189.500000
20
333.375000
0
VERTEX
5
10a
100
AcDbEntity
8
1
100
AcDbVertex
100
AcDb2dVertex
62
5
10
189.000000
20
332.125000
0
VERTEX
5
10b
100
AcDbEntity
8
1
100
AcDbVertex
100
AcDb2dVertex
62
5
10
188.500000
20
331.187500
0
SEQEND
5
10c
100
AcDbEntity
8
1
0
POLYLINE
5
10d
100
AcDbEntity
8
1
6
CONTINUOUS
62
5
100
AcDb2dPolyline
66
1
10
0.0
20
0.0
30
0.0
70
0
0
VERTEX
5
10e
100
AcDbEntity
8
1
100
AcDbVertex
100
AcDb2dVertex
62
5
10
193.500000
20
331.500000
0
VERTEX
5
10f
100
AcDbEntity
8
1
100
AcDbVertex
100
AcDb2dVertex
62
5
10
194.500000
20
330.875000
0
VERTEX
5
110
100
AcDbEntity
8
1
100
AcDbVertex
100
AcDb2dVertex
62
5
10
194.500000
20
339.000000
0
VERTEX
5
111
100
AcDbEntity
8
1
100
AcDbVertex
100
AcDb2dVertex
62
5
10
189.500000
20
339.000000
0
SEQEND
5
112
100
AcDbEntity
8
1
0
LINE
5
113
100
AcDbEntity
8
1
100
AcDbLine
6
CONTINUOUS
62
5
10
189.500000
20
336.500000
11
194.500000
21
336.500000
0
LINE
5
114
100
AcDbEntity
8
1
100
AcDbLine
6
CONTINUOUS
62
5
10
192.000000
20
339.000000
11
192.000000
21
330.875000
0
LINE
5
115
100
AcDbEntity
8
1
100
AcDbLine
6
CONTINUOUS
62
5
10
189.500000
20
334.000000
11
194.500000
21
334.000000
0
POLYLINE
5
116
100
AcDbEntity
8
1
6
CONTINUOUS
62
5
100
AcDb2dPolyline
66
1
10
0.0
20
0.0
30
0.0
70
0
0
VERTEX
5
117
100
AcDbEntity
8
1
100
AcDbVertex
100
AcDb2dVertex
62
5
10
202.500000
20
339.312500
0
VERTEX
5
118
100
AcDbEntity
8
1
100
AcDbVertex
100
AcDb2dVertex
62
5
10
201.750000
20
338.062500
0
VERTEX
5
119
100
AcDbEntity
8
1
100
AcDbVertex
100
AcDb2dVertex
62
5
10
201.000000
20
336.500000
0
VERTEX
5
11a
100
AcDbEntity
8
1
100
AcDbVertex
100
AcDb2dVertex
62
5
10
200.750000
20
335.250000
0
VERTEX
5
11b
100
AcDbEntity
8
1
100
AcDbVertex
100
AcDb2dVertex
62
5
10
201.000000
20
334.000000
0
VERTEX
5
11c
100
AcDbEntity
8
1
100
AcDbVertex
100
AcDb2dVertex
62
5
10
201.500000
20
332.437500
0
VERTEX
5
11d
100
AcDbEntity
8
1
100
AcDbVertex
100
AcDb2dVertex
62
5
10
202.500000
20
330.875000
0
SEQEND
5
11e
100
AcDbEntity
8
1
0
POLYLINE
5
11f
100
AcDbEntity
8
1
6
CONTINUOUS
62
5
100
AcDb2dPolyline
66
1
10
0.0
20
0.0
30
0.0
70
0
0
VERTEX
5
120
100
AcDbEntity
8
1
100
AcDbVertex
100
AcDb2dVertex
62
5
10
205.750000
20
339.312500
0
VERTEX
5
121
100
AcDbEntity
8
1
100
AcDbVertex
100
AcDb2dVertex
62
5
10
205.250000
20
337.125000
0
VERTEX
5
122
100
AcDbEntity
8
1
100
AcDbVertex
100
AcDb2dVertex
62
5
10
204.250000
20
334.625000
0
SEQEND
5
123
100
AcDbEntity
8
1
0
LINE
5
124
100
AcDbEntity
8
1
100
AcDbLine
6
CONTINUOUS
62
5
10
205.250000
20
337.125000
11
205.250000
21
330.875000
0
POLYLINE
5
125
100
AcDbEntity
8
1
6
CONTINUOUS
62
5
100
AcDb2dPolyline
66
1
10
0.0
20
0.0
30
0.0
70
0
0
VERTEX
5
126
100
AcDbEntity
8
1
100
AcDbVertex
100
AcDb2dVertex
62
5
10
210.500000
20
339.312500
0
VERTEX
5
127
100
AcDbEntity
8
1
100
AcDbVertex
100
AcDb2dVertex
62
5
10
206.750000
20
338.687500
0
VERTEX
5
128
100
AcDbEntity
8
1
100
AcDbVertex
100
AcDb2dVertex
62
5
10
206.750000
20
333.062500
0
SEQEND
5
129
100
AcDbEntity
8
1
0
LINE
5
12a
100
AcDbEntity
8
1
100
AcDbLine
6
CONTINUOUS
62
5
10
206.000000
20
332.750000
11
208.750000
21
333.687500
0
LINE
5
12b
100
AcDbEntity
8
1
100
AcDbLine
6
CONTINUOUS
62
5
10
206.750000
20
336.500000
11
211.000000
21
336.500000
0
POLYLINE
5
12c
100
AcDbEntity
8
1
6
CONTINUOUS
62
5
100
AcDb2dPolyline
66
1
10
0.0
20
0.0
30
0.0
70
0
0
VERTEX
5
12d
100
AcDbEntity
8
1
100
AcDbVertex
100
AcDb2dVertex
62
5
10
208.750000
20
339.000000
0
VERTEX
5
12e
100
AcDbEntity
8
1
100
AcDbVertex
100
AcDb2dVertex
62
5
10
208.750000
20
336.812500
0
VERTEX
5
12f
100
AcDbEntity
8
1
100
AcDbVertex
100
AcDb2dVertex
62
5
10
209.000000
20
334.937500
0
VERTEX
5
130
100
AcDbEntity
8
1
100
AcDbVertex
100
AcDb2dVertex
62
5
10
209.250000
20
334.000000
0
VERTEX
5
131
100
AcDbEntity
8
1
100
AcDbVertex
100
AcDb2dVertex
62
5
10
209.750000
20
332.750000
0
VERTEX
5
132
100
AcDbEntity
8
1
100
AcDbVertex
100
AcDb2dVertex
62
5
10
210.250000
20
332.125000
0
VERTEX
5
133
100
AcDbEntity
8
1
100
AcDbVertex
100
AcDb2dVertex
62
5
10
211.000000
20
331.812500
0
VERTEX
5
134
100
AcDbEntity
8
1
100
AcDbVertex
100
AcDb2dVertex
62
5
10
211.250000
20
333.687500
0
SEQEND
5
135
100
AcDbEntity
8
1
0
LINE
5
136
100
AcDbEntity
8
1
100
AcDbLine
6
CONTINUOUS
62
5
10
206.500000
20
331.812500
11
209.250000
21
331.812500
0
POLYLINE
5
137
100
AcDbEntity
8
1
6
DOT2
62
5
100
AcDb2dPolyline
66
1
10
0.0
20
0.0
30
0.0
70
1
0
VERTEX
5
138
100
AcDbEntity
8
1
100
AcDbVertex
100
AcDb2dVertex
62
5
10
172.500000
20
248.841824
0
VERTEX
5
139
100
AcDbEntity
8
1
100
AcDbVertex
100
AcDb2dVertex
62
5
10
173.125000
20
248.841824
0
VERTEX
5
13a
100
AcDbEntity
8
1
100
AcDbVertex
100
AcDb2dVertex
62
5
10
173.750000
20
248.529324
0
VERTEX
5
13b
100
AcDbEntity
8
1
100
AcDbVertex
100
AcDb2dVertex
62
5
10
174.062500
20
247.904324
0
VERTEX
5
13c
100
AcDbEntity
8
1
100
AcDbVertex
100
AcDb2dVertex
62
5
10
174.062500
20
246.654324
0
VERTEX
5
13d
100
AcDbEntity
8
1
100
AcDbVertex
100
AcDb2dVertex
62
5
10
173.750000
20
246.029324
0
VERTEX
5
13e
100
AcDbEntity
8
1
100
AcDbVertex
100
AcDb2dVertex
62
5
10
171.875000
20
244.779324
0
VERTEX
5
13f
100
AcDbEntity
8
1
100
AcDbVertex
100
AcDb2dVertex
62
5
10
171.250000
20
243.841824
0
VERTEX
5
140
100
AcDbEntity
8
1
100
AcDbVertex
100
AcDb2dVertex
62
5
10
171.250000
20
242.591824
0
VERTEX
5
141
100
AcDbEntity
8
1
100
AcDbVertex
100
AcDb2dVertex
62
5
10
171.562500
20
241.966824
0
VERTEX
5
142
100
AcDbEntity
8
1
100
AcDbVertex
100
AcDb2dVertex
62
5
10
171.875000
20
241.654324
0
VERTEX
5
143
100
AcDbEntity
8
1
100
AcDbVertex
100
AcDb2dVertex
62
5
10
172.500000
20
241.341824
0
VERTEX
5
144
100
AcDbEntity
8
1
100
AcDbVertex
100
AcDb2dVertex
62
5
10
173.125000
20
241.341824
0
VERTEX
5
145
100
AcDbEntity
8
1
100
AcDbVertex
100
AcDb2dVertex
62
5
10
173.750000
20
241.654324
0
VERTEX
5
146
100
AcDbEntity
8
1
100
AcDbVertex
100
AcDb2dVertex
62
5
10
174.062500
20
241.966824
0
VERTEX
5
147
100
AcDbEntity
8
1
100
AcDbVertex
100
AcDb2dVertex
62
5
10
174.375000
20
242.591824
0
VERTEX
5
148
100
AcDbEntity
8
1
100
AcDbVertex
100
AcDb2dVertex
62
5
10
174.375000
20
243.841824
0
VERTEX
5
149
100
AcDbEntity
8
1
100
AcDbVertex
100
AcDb2dVertex
62
5
10
173.750000
20
244.779324
0
VERTEX
5
14a
100
AcDbEntity
8
1
100
AcDbVertex
100
AcDb2dVertex
62
5
10
171.875000
20
246.029324
0
VERTEX
5
14b
100
AcDbEntity
8
1
100
AcDbVertex
100
AcDb2dVertex
62
5
10
171.562500
20
246.654324
0
VERTEX
5
14c
100
AcDbEntity
8
1
100
AcDbVertex
100
AcDb2dVertex
62
5
10
171.562500
20
247.904324
0
VERTEX
5
14d
100
AcDbEntity
8
1
100
AcDbVertex
100
AcDb2dVertex
62
5
10
171.875000
20
248.529324
0
VERTEX
5
14e
100
AcDbEntity
8
1
100
AcDbVertex
100
AcDb2dVertex
62
5
10
172.500000
20
248.841824
0
SEQEND
5
14f
100
AcDbEntity
8
1
0
LINE
5
150
100
AcDbEntity
8
1
100
AcDbLine
6
CONTINUOUS
62
5
10
184.000000
20
213.841824
11
184.400000
21
213.841824
0
LINE
5
151
100
AcDbEntity
8
1
100
AcDbLine
6
CONTINUOUS
62
5
10
187.500000
20
213.841824
11
188.500000
21
213.841824
0
ARC
5
152
100
AcDbEntity
8
1
100
AcDbCircle
6
CONTINUOUS
62
5
10
188.200000
20
213.941824
40
0.500000
100
AcDbArc
50
89.999999
51
-179.999998
0
LINE
5
153
100
AcDbEntity
8
1
100
AcDbLine
6
CONTINUOUS
62
5
10
187.700000
20
213.941824
11
187.700000
21
213.841824
0
LINE
5
154
100
AcDbEntity
8
1
100
AcDbLine
6
CONTINUOUS
62
5
10
189.000000
20
214.441824
11
188.200000
21
214.441824
0
POLYLINE
5
155
100
AcDbEntity
8
1
6
CONTINUOUS
62
5
100
AcDb2dPolyline
66
1
10
0.0
20
0.0
30
0.0
70
0
0
VERTEX
5
156
100
AcDbEntity
8
1
100
AcDbVertex
100
AcDb2dVertex
62
5
10
184.000000
20
211.941824
0
VERTEX
5
157
100
AcDbEntity
8
1
100
AcDbVertex
100
AcDb2dVertex
62
5
10
184.400000
20
211.941824
0
VERTEX
5
158
100
AcDbEntity
8
1
100
AcDbVertex
100
AcDb2dVertex
62
5
10
184.400000
20
214.796238
0
SEQEND
5
159
100
AcDbEntity
8
1
0
POLYLINE
5
15a
100
AcDbEntity
8
1
6
CONTINUOUS
62
5
100
AcDb2dPolyline
66
1
10
0.0
20
0.0
30
0.0
70
1
0
VERTEX
5
15b
100
AcDbEntity
8
1
100
AcDbVertex
100
AcDb2dVertex
62
5
10
186.000000
20
209.283566
0
VERTEX
5
15c
100
AcDbEntity
8
1
100
AcDbVertex
100
AcDb2dVertex
62
5
10
186.000000
20
207.391824
0
SEQEND
5
15d
100
AcDbEntity
8
1
0
ARC
5
15e
100
AcDbEntity
8
1
100
AcDbCircle
6
CONTINUOUS
62
5
10
185.800000
20
209.741824
40
0.500000
100
AcDbArc
50
-89.999999
51
61.641340
0
POLYLINE
5
15f
100
AcDbEntity
8
1
6
CONTINUOUS
62
5
100
AcDb2dPolyline
66
1
10
0.0
20
0.0
30
0.0
70
0
0
VERTEX
5
160
100
AcDbEntity
8
1
100
AcDbVertex
100
AcDb2dVertex
62
5
10
186.037495
20
210.181820
0
VERTEX
5
161
100
AcDbEntity
8
1
100
AcDbVertex
100
AcDb2dVertex
62
5
10
185.000000
20
210.741824
0
VERTEX
5
162
100
AcDbEntity
8
1
100
AcDbVertex
100
AcDb2dVertex
62
5
10
184.500000
20
210.741824
0
VERTEX
5
163
100
AcDbEntity
8
1
100
AcDbVertex
100
AcDb2dVertex
62
5
10
184.000000
20
211.241824
0
SEQEND
5
164
100
AcDbEntity
8
1
0
LINE
5
165
100
AcDbEntity
8
1
100
AcDbLine
6
CONTINUOUS
62
5
10
185.000000
20
209.241824
11
185.800000
21
209.241824
0
ARC
5
166
100
AcDbEntity
8
1
100
AcDbCircle
6
CONTINUOUS
62
5
10
190.000000
20
213.441824
40
1.000000
100
AcDbArc
50
0.000000
51
89.999999
0
LINE
5
167
100
AcDbEntity
8
1
100
AcDbLine
6
CONTINUOUS
62
5
10
190.000000
20
214.441824
11
189.000000
21
214.441824
0
ARC
5
168
100
AcDbEntity
8
1
100
AcDbCircle
6
CONTINUOUS
62
5
10
189.000000
20
213.941824
40
0.500000
100
AcDbArc
50
89.999999
51
179.999998
0
LINE
5
169
100
AcDbEntity
8
1
100
AcDbLine
6
CONTINUOUS
62
5
10
188.500000
20
213.941824
11
188.500000
21
213.641970
0
LINE
5
16a
100
AcDbEntity
8
1
100
AcDbLine
6
CONTINUOUS
62
5
10
191.000000
20
211.941824
11
191.000000
21
213.441824
0
ARC
5
16b
100
AcDbEntity
8
1
100
AcDbCircle
6
CONTINUOUS
62
5
10
188.200000
20
214.241824
40
0.500000
100
AcDbArc
50
89.999999
51
179.999998
0
LINE
5
16c
100
AcDbEntity
8
1
100
AcDbLine
6
CONTINUOUS
62
5
10
188.200000
20
214.741824
11
190.000000
21
214.741824
0
ARC
5
16d
100
AcDbEntity
8
1
100
AcDbCircle
6
CONTINUOUS
62
5
10
190.000000
20
213.241824
40
1.500000
100
AcDbArc
50
0.000000
51
89.999999
0
LINE
5
16e
100
AcDbEntity
8
1
100
AcDbLine
6
CONTINUOUS
62
5
10
191.500000
20
213.241824
11
191.500000
21
211.941824
0
LINE
5
16f
100
AcDbEntity
8
1
100
AcDbLine
6
CONTINUOUS
62
5
10
187.700000
20
213.841824
11
187.700000
21
214.241824
0
LINE
5
170
100
AcDbEntity
8
0
100
AcDbLine
6
CONTINUOUS
62
5
10
175.535232
20
198.665677
11
175.493288
21
198.707621
0
LINE
5
171
100
AcDbEntity
8
0
100
AcDbLine
6
CONTINUOUS
62
5
10
175.747738
20
198.736013
11
175.708018
21
198.775733
0
ARC
5
172
100
AcDbEntity
8
1
100
AcDbCircle
6
CONTINUOUS
62
5
10
185.800000
20
197.741824
40
0.500000
100
AcDbArc
50
-61.641340
51
89.999999
0
POLYLINE
5
173
100
AcDbEntity
8
1
6
CONTINUOUS
62
5
100
AcDb2dPolyline
66
1
10
0.0
20
0.0
30
0.0
70
0
0
VERTEX
5
174
100
AcDbEntity
8
1
100
AcDbVertex
100
AcDb2dVertex
62
5
10
186.037495
20
197.301828
0
VERTEX
5
175
100
AcDbEntity
8
1
100
AcDbVertex
100
AcDb2dVertex
62
5
10
185.000000
20
196.741824
0
VERTEX
5
176
100
AcDbEntity
8
1
100
AcDbVertex
100
AcDb2dVertex
62
5
10
184.500000
20
196.741824
0
VERTEX
5
177
100
AcDbEntity
8
1
100
AcDbVertex
100
AcDb2dVertex
62
5
10
184.000000
20
196.241824
0
SEQEND
5
178
100
AcDbEntity
8
1
0
LINE
5
179
100
AcDbEntity
8
1
100
AcDbLine
6
CONTINUOUS
62
5
10
185.000000
20
198.241824
11
185.800000
21
198.241824
0
ARC
5
17a
100
AcDbEntity
8
1
100
AcDbCircle
6
CONTINUOUS
62
5
10
189.000000
20
193.541824
40
0.500000
100
AcDbArc
50
-179.999998
51
-89.999999
0
LINE
5
17b
100
AcDbEntity
8
1
100
AcDbLine
6
CONTINUOUS
62
5
10
188.500000
20
193.541824
11
188.500000
21
193.841679
0
LINE
5
17c
100
AcDbEntity
8
1
100
AcDbLine
6
CONTINUOUS
62
5
10
184.000000
20
193.641824
11
184.400000
21
193.641824
0
POLYLINE
5
17d
100
AcDbEntity
8
1
6
CONTINUOUS
62
5
100
AcDb2dPolyline
66
1
10
0.0
20
0.0
30
0.0
70
0
0
VERTEX
5
17e
100
AcDbEntity
8
1
100
AcDbVertex
100
AcDb2dVertex
62
5
10
184.000000
20
195.541824
0
VERTEX
5
17f
100
AcDbEntity
8
1
100
AcDbVertex
100
AcDb2dVertex
62
5
10
184.400000
20
195.541824
0
VERTEX
5
180
100
AcDbEntity
8
1
100
AcDbVertex
100
AcDb2dVertex
62
5
10
184.400000
20
192.687412
0
SEQEND
5
181
100
AcDbEntity
8
1
0
LINE
5
182
100
AcDbEntity
8
1
100
AcDbLine
6
CONTINUOUS
62
5
10
188.500000
20
193.641824
11
187.500000
21
193.641824
0
POLYLINE
5
183
100
AcDbEntity
8
0
6
CONTINUOUS
62
5
100
AcDb2dPolyline
66
1
10
0.0
20
0.0
30
0.0
70
1
0
VERTEX
5
184
100
AcDbEntity
8
0
100
AcDbVertex
100
AcDb2dVertex
62
5
10
175.733610
20
198.535242
0
VERTEX
5
185
100
AcDbEntity
8
0
100
AcDbVertex
100
AcDb2dVertex
62
5
10
175.693724
20
198.626410
0
VERTEX
5
186
100
AcDbEntity
8
0
100
AcDbVertex
100
AcDb2dVertex
62
5
10
175.650039
20
198.713780
0
VERTEX
5
187
100
AcDbEntity
8
0
100
AcDbVertex
100
AcDb2dVertex
62
5
10
175.644341
20
198.739421
0
VERTEX
5
188
100
AcDbEntity
8
0
100
AcDbVertex
100
AcDb2dVertex
62
5
10
175.650039
20
198.759364
0
VERTEX
5
189
100
AcDbEntity
8
0
100
AcDbVertex
100
AcDb2dVertex
62
5
10
175.667133
20
198.773609
0
VERTEX
5
18a
100
AcDbEntity
8
0
100
AcDbVertex
100
AcDb2dVertex
62
5
10
175.693724
20
198.779307
0
VERTEX
5
18b
100
AcDbEntity
8
0
100
AcDbVertex
100
AcDb2dVertex
62
5
10
175.716516
20
198.773609
0
VERTEX
5
18c
100
AcDbEntity
8
0
100
AcDbVertex
100
AcDb2dVertex
62
5
10
175.735509
20
198.756515
0
VERTEX
5
18d
100
AcDbEntity
8
0
100
AcDbVertex
100
AcDb2dVertex
62
5
10
175.800087
20
198.648252
0
VERTEX
5
18e
100
AcDbEntity
8
0
100
AcDbVertex
100
AcDb2dVertex
62
5
10
175.845671
20
198.551386
0
VERTEX
5
18f
100
AcDbEntity
8
0
100
AcDbVertex
100
AcDb2dVertex
62
5
10
175.872262
20
198.465916
0
VERTEX
5
190
100
AcDbEntity
8
0
100
AcDbVertex
100
AcDb2dVertex
62
5
10
175.872262
20
198.440275
0
VERTEX
5
191
100
AcDbEntity
8
0
100
AcDbVertex
100
AcDb2dVertex
62
5
10
175.860866
20
198.420332
0
VERTEX
5
192
100
AcDbEntity
8
0
100
AcDbVertex
100
AcDb2dVertex
62
5
10
175.838073
20
198.406087
0
VERTEX
5
193
100
AcDbEntity
8
0
100
AcDbVertex
100
AcDb2dVertex
62
5
10
175.807684
20
198.406087
0
VERTEX
5
194
100
AcDbEntity
8
0
100
AcDbVertex
100
AcDb2dVertex
62
5
10
175.784892
20
198.417483
0
VERTEX
5
195
100
AcDbEntity
8
0
100
AcDbVertex
100
AcDb2dVertex
62
5
10
175.769697
20
198.440275
0
SEQEND
5
196
100
AcDbEntity
8
0
0
POLYLINE
5
197
100
AcDbEntity
8
0
6
CONTINUOUS
62
5
100
AcDb2dPolyline
66
1
10
0.0
20
0.0
30
0.0
70
1
0
VERTEX
5
198
100
AcDbEntity
8
0
100
AcDbVertex
100
AcDb2dVertex
62
5
10
175.480048
20
198.558034
0
VERTEX
5
199
100
AcDbEntity
8
0
100
AcDbVertex
100
AcDb2dVertex
62
5
10
175.436363
20
198.645403
0
VERTEX
5
19a
100
AcDbEntity
8
0
100
AcDbVertex
100
AcDb2dVertex
62
5
10
175.430665
20
198.671044
0
VERTEX
5
19b
100
AcDbEntity
8
0
100
AcDbVertex
100
AcDb2dVertex
62
5
10
175.436363
20
198.690987
0
VERTEX
5
19c
100
AcDbEntity
8
0
100
AcDbVertex
100
AcDb2dVertex
62
5
10
175.453457
20
198.705232
0
VERTEX
5
19d
100
AcDbEntity
8
0
100
AcDbVertex
100
AcDb2dVertex
62
5
10
175.480048
20
198.710930
0
VERTEX
5
19e
100
AcDbEntity
8
0
100
AcDbVertex
100
AcDb2dVertex
62
5
10
175.502840
20
198.705232
0
VERTEX
5
19f
100
AcDbEntity
8
0
100
AcDbVertex
100
AcDb2dVertex
62
5
10
175.521834
20
198.688138
0
VERTEX
5
1a0
100
AcDbEntity
8
0
100
AcDbVertex
100
AcDb2dVertex
62
5
10
175.586411
20
198.579876
0
VERTEX
5
1a1
100
AcDbEntity
8
0
100
AcDbVertex
100
AcDb2dVertex
62
5
10
175.631995
20
198.483010
0
VERTEX
5
1a2
100
AcDbEntity
8
0
100
AcDbVertex
100
AcDb2dVertex
62
5
10
175.658586
20
198.397540
0
VERTEX
5
1a3
100
AcDbEntity
8
0
100
AcDbVertex
100
AcDb2dVertex
62
5
10
175.658586
20
198.371899
0
VERTEX
5
1a4
100
AcDbEntity
8
0
100
AcDbVertex
100
AcDb2dVertex
62
5
10
175.647190
20
198.351956
0
VERTEX
5
1a5
100
AcDbEntity
8
0
100
AcDbVertex
100
AcDb2dVertex
62
5
10
175.624398
20
198.337711
0
VERTEX
5
1a6
100
AcDbEntity
8
0
100
AcDbVertex
100
AcDb2dVertex
62
5
10
175.594008
20
198.337711
0
VERTEX
5
1a7
100
AcDbEntity
8
0
100
AcDbVertex
100
AcDb2dVertex
62
5
10
175.571216
20
198.349107
0
VERTEX
5
1a8
100
AcDbEntity
8
0
100
AcDbVertex
100
AcDb2dVertex
62
5
10
175.556022
20
198.371899
0
VERTEX
5
1a9
100
AcDbEntity
8
0
100
AcDbVertex
100
AcDb2dVertex
62
5
10
175.519934
20
198.466866
0
SEQEND
5
1aa
100
AcDbEntity
8
0
0
POLYLINE
5
1ab
100
AcDbEntity
8
0
6
CONTINUOUS
62
5
100
AcDb2dPolyline
66
1
10
0.0
20
0.0
30
0.0
70
1
0
VERTEX
5
1ac
100
AcDbEntity
8
0
100
AcDbVertex
100
AcDb2dVertex
62
5
10
172.188541
20
197.850530
0
VERTEX
5
1ad
100
AcDbEntity
8
0
100
AcDbVertex
100
AcDb2dVertex
62
5
10
172.131560
20
197.796399
0
VERTEX
5
1ae
100
AcDbEntity
8
0
100
AcDbVertex
100
AcDb2dVertex
62
5
10
172.097372
20
197.736570
0
VERTEX
5
1af
100
AcDbEntity
8
0
100
AcDbVertex
100
AcDb2dVertex
62
5
10
172.085976
20
197.671043
0
VERTEX
5
1b0
100
AcDbEntity
8
0
100
AcDbVertex
100
AcDb2dVertex
62
5
10
172.097372
20
197.595069
0
VERTEX
5
1b1
100
AcDbEntity
8
0
100
AcDbVertex
100
AcDb2dVertex
62
5
10
172.131560
20
197.526693
0
VERTEX
5
1b2
100
AcDbEntity
8
0
100
AcDbVertex
100
AcDb2dVertex
62
5
10
172.188541
20
197.465914
0
VERTEX
5
1b3
100
AcDbEntity
8
0
100
AcDbVertex
100
AcDb2dVertex
62
5
10
172.268313
20
197.423179
0
VERTEX
5
1b4
100
AcDbEntity
8
0
100
AcDbVertex
100
AcDb2dVertex
62
5
10
172.370877
20
197.397538
0
VERTEX
5
1b5
100
AcDbEntity
8
0
100
AcDbVertex
100
AcDb2dVertex
62
5
10
172.496233
20
197.388991
0
VERTEX
5
1b6
100
AcDbEntity
8
0
100
AcDbVertex
100
AcDb2dVertex
62
5
10
172.613043
20
197.400387
0
VERTEX
5
1b7
100
AcDbEntity
8
0
100
AcDbVertex
100
AcDb2dVertex
62
5
10
172.712758
20
197.434575
0
VERTEX
5
1b8
100
AcDbEntity
8
0
100
AcDbVertex
100
AcDb2dVertex
62
5
10
172.795379
20
197.491555
0
VERTEX
5
1b9
100
AcDbEntity
8
0
100
AcDbVertex
100
AcDb2dVertex
62
5
10
172.842008
20
197.566579
0
VERTEX
5
1ba
100
AcDbEntity
8
0
100
AcDbVertex
100
AcDb2dVertex
62
5
10
172.869985
20
197.666294
0
VERTEX
5
1bb
100
AcDbEntity
8
0
100
AcDbVertex
100
AcDb2dVertex
62
5
10
172.879311
20
197.790701
0
VERTEX
5
1bc
100
AcDbEntity
8
0
100
AcDbVertex
100
AcDb2dVertex
62
5
10
172.701780
20
197.861926
0
VERTEX
5
1bd
100
AcDbEntity
8
0
100
AcDbVertex
100
AcDb2dVertex
62
5
10
172.548446
20
197.904661
0
VERTEX
5
1be
100
AcDbEntity
8
0
100
AcDbVertex
100
AcDb2dVertex
62
5
10
172.419310
20
197.918906
0
VERTEX
5
1bf
100
AcDbEntity
8
0
100
AcDbVertex
100
AcDb2dVertex
62
5
10
172.336689
20
197.911309
0
VERTEX
5
1c0
100
AcDbEntity
8
0
100
AcDbVertex
100
AcDb2dVertex
62
5
10
172.259766
20
197.888517
0
SEQEND
5
1c1
100
AcDbEntity
8
0
0
LINE
5
1c2
100
AcDbEntity
8
1
100
AcDbLine
6
CONTINUOUS
62
5
10
186.000000
20
200.091824
11
186.000000
21
198.200082
0
POLYLINE
5
1c3
100
AcDbEntity
8
0
6
CONTINUOUS
62
5
100
AcDb2dPolyline
66
1
10
0.0
20
0.0
30
0.0
70
1
0
VERTEX
5
1c4
100
AcDbEntity
8
0
100
AcDbVertex
100
AcDb2dVertex
62
5
10
175.308158
20
199.030019
0
VERTEX
5
1c5
100
AcDbEntity
8
0
100
AcDbVertex
100
AcDb2dVertex
62
5
10
175.399326
20
199.035717
0
VERTEX
5
1c6
100
AcDbEntity
8
0
100
AcDbVertex
100
AcDb2dVertex
62
5
10
175.490495
20
199.041415
0
VERTEX
5
1c7
100
AcDbEntity
8
0
100
AcDbVertex
100
AcDb2dVertex
62
5
10
175.581663
20
199.047113
0
VERTEX
5
1c8
100
AcDbEntity
8
0
100
AcDbVertex
100
AcDb2dVertex
62
5
10
175.820979
20
199.064207
0
VERTEX
5
1c9
100
AcDbEntity
8
0
100
AcDbVertex
100
AcDb2dVertex
62
5
10
175.864664
20
199.050912
0
VERTEX
5
1ca
100
AcDbEntity
8
0
100
AcDbVertex
100
AcDb2dVertex
62
5
10
175.893154
20
199.022422
0
VERTEX
5
1cb
100
AcDbEntity
8
0
100
AcDbVertex
100
AcDb2dVertex
62
5
10
175.906450
20
198.978737
0
VERTEX
5
1cc
100
AcDbEntity
8
0
100
AcDbVertex
100
AcDb2dVertex
62
5
10
175.896953
20
198.935052
0
VERTEX
5
1cd
100
AcDbEntity
8
0
100
AcDbVertex
100
AcDb2dVertex
62
5
10
175.868463
20
198.906562
0
VERTEX
5
1ce
100
AcDbEntity
8
0
100
AcDbVertex
100
AcDb2dVertex
62
5
10
175.820979
20
198.893267
0
VERTEX
5
1cf
100
AcDbEntity
8
0
100
AcDbVertex
100
AcDb2dVertex
62
5
10
175.684227
20
198.893267
0
VERTEX
5
1d0
100
AcDbEntity
8
0
100
AcDbVertex
100
AcDb2dVertex
62
5
10
175.436363
20
198.858129
0
VERTEX
5
1d1
100
AcDbEntity
8
0
100
AcDbVertex
100
AcDb2dVertex
62
5
10
175.205594
20
198.764112
0
VERTEX
5
1d2
100
AcDbEntity
8
0
100
AcDbVertex
100
AcDb2dVertex
62
5
10
174.991918
20
198.611215
0
VERTEX
5
1d3
100
AcDbEntity
8
0
100
AcDbVertex
100
AcDb2dVertex
62
5
10
174.858965
20
198.448822
0
VERTEX
5
1d4
100
AcDbEntity
8
0
100
AcDbVertex
100
AcDb2dVertex
62
5
10
174.779192
20
198.280730
0
VERTEX
5
1d5
100
AcDbEntity
8
0
100
AcDbVertex
100
AcDb2dVertex
62
5
10
174.752602
20
198.106941
0
VERTEX
5
1d6
100
AcDbEntity
8
0
100
AcDbVertex
100
AcDb2dVertex
62
5
10
174.771595
20
197.950246
0
VERTEX
5
1d7
100
AcDbEntity
8
0
100
AcDbVertex
100
AcDb2dVertex
62
5
10
174.828575
20
197.810644
0
VERTEX
5
1d8
100
AcDbEntity
8
0
100
AcDbVertex
100
AcDb2dVertex
62
5
10
174.923542
20
197.688137
0
VERTEX
5
1d9
100
AcDbEntity
8
0
100
AcDbVertex
100
AcDb2dVertex
62
5
10
175.098281
20
197.574177
0
VERTEX
5
1da
100
AcDbEntity
8
0
100
AcDbVertex
100
AcDb2dVertex
62
5
10
175.326202
20
197.505800
0
VERTEX
5
1db
100
AcDbEntity
8
0
100
AcDbVertex
100
AcDb2dVertex
62
5
10
175.607304
20
197.483008
0
VERTEX
5
1dc
100
AcDbEntity
8
0
100
AcDbVertex
100
AcDb2dVertex
62
5
10
175.650989
20
197.469713
0
VERTEX
5
1dd
100
AcDbEntity
8
0
100
AcDbVertex
100
AcDb2dVertex
62
5
10
175.679479
20
197.441223
0
VERTEX
5
1de
100
AcDbEntity
8
0
100
AcDbVertex
100
AcDb2dVertex
62
5
10
175.692774
20
197.397538
0
VERTEX
5
1df
100
AcDbEntity
8
0
100
AcDbVertex
100
AcDb2dVertex
62
5
10
175.679479
20
197.353853
0
VERTEX
5
1e0
100
AcDbEntity
8
0
100
AcDbVertex
100
AcDb2dVertex
62
5
10
175.650989
20
197.325363
0
VERTEX
5
1e1
100
AcDbEntity
8
0
100
AcDbVertex
100
AcDb2dVertex
62
5
10
175.607304
20
197.312068
0
VERTEX
5
1e2
100
AcDbEntity
8
0
100
AcDbVertex
100
AcDb2dVertex
62
5
10
175.313856
20
197.338659
0
VERTEX
5
1e3
100
AcDbEntity
8
0
100
AcDbVertex
100
AcDb2dVertex
62
5
10
175.060294
20
197.418431
0
VERTEX
5
1e4
100
AcDbEntity
8
0
100
AcDbVertex
100
AcDb2dVertex
62
5
10
174.846619
20
197.551384
0
VERTEX
5
1e5
100
AcDbEntity
8
0
100
AcDbVertex
100
AcDb2dVertex
62
5
10
174.713665
20
197.709979
0
VERTEX
5
1e6
100
AcDbEntity
8
0
100
AcDbVertex
100
AcDb2dVertex
62
5
10
174.633893
20
197.889467
0
VERTEX
5
1e7
100
AcDbEntity
8
0
100
AcDbVertex
100
AcDb2dVertex
62
5
10
174.607302
20
198.089847
0
VERTEX
5
1e8
100
AcDbEntity
8
0
100
AcDbVertex
100
AcDb2dVertex
62
5
10
174.631044
20
198.268385
0
VERTEX
5
1e9
100
AcDbEntity
8
0
100
AcDbVertex
100
AcDb2dVertex
62
5
10
174.702269
20
198.439325
0
VERTEX
5
1ea
100
AcDbEntity
8
0
100
AcDbVertex
100
AcDb2dVertex
62
5
10
174.820978
20
198.602668
0
VERTEX
5
1eb
100
AcDbEntity
8
0
100
AcDbVertex
100
AcDb2dVertex
62
5
10
174.932089
20
198.704283
0
VERTEX
5
1ec
100
AcDbEntity
8
0
100
AcDbVertex
100
AcDb2dVertex
62
5
10
175.071690
20
198.803998
0
VERTEX
5
1ed
100
AcDbEntity
8
0
100
AcDbVertex
100
AcDb2dVertex
62
5
10
175.239782
20
198.901814
0
VERTEX
5
1ee
100
AcDbEntity
8
0
100
AcDbVertex
100
AcDb2dVertex
62
5
10
174.882706
20
198.869525
0
VERTEX
5
1ef
100
AcDbEntity
8
0
100
AcDbVertex
100
AcDb2dVertex
62
5
10
174.563617
20
198.841035
0
VERTEX
5
1f0
100
AcDbEntity
8
0
100
AcDbVertex
100
AcDb2dVertex
62
5
10
174.282515
20
198.816344
0
VERTEX
5
1f1
100
AcDbEntity
8
0
100
AcDbVertex
100
AcDb2dVertex
62
5
10
174.213190
20
198.810646
0
VERTEX
5
1f2
100
AcDbEntity
8
0
100
AcDbVertex
100
AcDb2dVertex
62
5
10
174.141964
20
198.804948
0
VERTEX
5
1f3
100
AcDbEntity
8
0
100
AcDbVertex
100
AcDb2dVertex
62
5
10
174.068840
20
198.799250
0
VERTEX
5
1f4
100
AcDbEntity
8
0
100
AcDbVertex
100
AcDb2dVertex
62
5
10
174.020407
20
198.808746
0
VERTEX
5
1f5
100
AcDbEntity
8
0
100
AcDbVertex
100
AcDb2dVertex
62
5
10
173.989068
20
198.837236
0
VERTEX
5
1f6
100
AcDbEntity
8
0
100
AcDbVertex
100
AcDb2dVertex
62
5
10
173.974823
20
198.884720
0
VERTEX
5
1f7
100
AcDbEntity
8
0
100
AcDbVertex
100
AcDb2dVertex
62
5
10
173.989068
20
198.932203
0
VERTEX
5
1f8
100
AcDbEntity
8
0
100
AcDbVertex
100
AcDb2dVertex
62
5
10
174.020407
20
198.960693
0
VERTEX
5
1f9
100
AcDbEntity
8
0
100
AcDbVertex
100
AcDb2dVertex
62
5
10
174.068840
20
198.970190
0
VERTEX
5
1fa
100
AcDbEntity
8
0
100
AcDbVertex
100
AcDb2dVertex
62
5
10
174.540825
20
198.988234
0
VERTEX
5
1fb
100
AcDbEntity
8
0
100
AcDbVertex
100
AcDb2dVertex
62
5
10
174.953931
20
199.008177
0
SEQEND
5
1fc
100
AcDbEntity
8
0
0
POLYLINE
5
1fd
100
AcDbEntity
8
0
6
CONTINUOUS
62
5
100
AcDb2dPolyline
66
1
10
0.0
20
0.0
30
0.0
70
1
0
VERTEX
5
1fe
100
AcDbEntity
8
0
100
AcDbVertex
100
AcDb2dVertex
62
5
10
172.293004
20
198.026219
0
VERTEX
5
1ff
100
AcDbEntity
8
0
100
AcDbVertex
100
AcDb2dVertex
62
5
10
172.436404
20
198.038565
0
VERTEX
5
200
100
AcDbEntity
8
0
100
AcDbVertex
100
AcDb2dVertex
62
5
10
172.567288
20
198.027169
0
VERTEX
5
201
100
AcDbEntity
8
0
100
AcDbVertex
100
AcDb2dVertex
62
5
10
172.714923
20
197.992981
0
VERTEX
5
202
100
AcDbEntity
8
0
100
AcDbVertex
100
AcDb2dVertex
62
5
10
172.879311
20
197.936000
0
VERTEX
5
203
100
AcDbEntity
8
0
100
AcDbVertex
100
AcDb2dVertex
62
5
10
172.879311
20
198.337711
0
VERTEX
5
204
100
AcDbEntity
8
0
100
AcDbVertex
100
AcDb2dVertex
62
5
10
172.419310
20
198.323864
0
VERTEX
5
205
100
AcDbEntity
8
0
100
AcDbVertex
100
AcDb2dVertex
62
5
10
171.940677
20
198.323864
0
VERTEX
5
206
100
AcDbEntity
8
0
100
AcDbVertex
100
AcDb2dVertex
62
5
10
171.897942
20
198.332050
0
VERTEX
5
207
100
AcDbEntity
8
0
100
AcDbVertex
100
AcDb2dVertex
62
5
10
171.872301
20
198.356609
0
VERTEX
5
208
100
AcDbEntity
8
0
100
AcDbVertex
100
AcDb2dVertex
62
5
10
171.863754
20
198.397540
0
VERTEX
5
209
100
AcDbEntity
8
0
100
AcDbVertex
100
AcDb2dVertex
62
5
10
171.872301
20
198.435526
0
VERTEX
5
20a
100
AcDbEntity
8
0
100
AcDbVertex
100
AcDb2dVertex
62
5
10
171.897942
20
198.458319
0
VERTEX
5
20b
100
AcDbEntity
8
0
100
AcDbVertex
100
AcDb2dVertex
62
5
10
171.940677
20
198.465916
0
VERTEX
5
20c
100
AcDbEntity
8
0
100
AcDbVertex
100
AcDb2dVertex
62
5
10
172.410763
20
198.465916
0
VERTEX
5
20d
100
AcDbEntity
8
0
100
AcDbVertex
100
AcDb2dVertex
62
5
10
172.870764
20
198.474463
0
VERTEX
5
20e
100
AcDbEntity
8
0
100
AcDbVertex
100
AcDb2dVertex
62
5
10
172.870764
20
198.790703
0
VERTEX
5
20f
100
AcDbEntity
8
0
100
AcDbVertex
100
AcDb2dVertex
62
5
10
172.410763
20
198.776857
0
VERTEX
5
210
100
AcDbEntity
8
0
100
AcDbVertex
100
AcDb2dVertex
62
5
10
171.940677
20
198.776857
0
VERTEX
5
211
100
AcDbEntity
8
0
100
AcDbVertex
100
AcDb2dVertex
62
5
10
171.897942
20
198.785043
0
VERTEX
5
212
100
AcDbEntity
8
0
100
AcDbVertex
100
AcDb2dVertex
62
5
10
171.872301
20
198.809601
0
VERTEX
5
213
100
AcDbEntity
8
0
100
AcDbVertex
100
AcDb2dVertex
62
5
10
171.863754
20
198.850532
0
VERTEX
5
214
100
AcDbEntity
8
0
100
AcDbVertex
100
AcDb2dVertex
62
5
10
171.872301
20
198.888519
0
VERTEX
5
215
100
AcDbEntity
8
0
100
AcDbVertex
100
AcDb2dVertex
62
5
10
171.897942
20
198.911311
0
VERTEX
5
216
100
AcDbEntity
8
0
100
AcDbVertex
100
AcDb2dVertex
62
5
10
171.940677
20
198.918908
0
VERTEX
5
217
100
AcDbEntity
8
0
100
AcDbVertex
100
AcDb2dVertex
62
5
10
172.410763
20
198.918908
0
VERTEX
5
218
100
AcDbEntity
8
0
100
AcDbVertex
100
AcDb2dVertex
62
5
10
172.870764
20
198.927455
0
VERTEX
5
219
100
AcDbEntity
8
0
100
AcDbVertex
100
AcDb2dVertex
62
5
10
172.870764
20
199.115490
0
VERTEX
5
21a
100
AcDbEntity
8
0
100
AcDbVertex
100
AcDb2dVertex
62
5
10
172.880432
20
199.162973
0
VERTEX
5
21b
100
AcDbEntity
8
0
100
AcDbVertex
100
AcDb2dVertex
62
5
10
172.909434
20
199.191463
0
VERTEX
5
21c
100
AcDbEntity
8
0
100
AcDbVertex
100
AcDb2dVertex
62
5
10
172.957773
20
199.200960
0
VERTEX
5
21d
100
AcDbEntity
8
0
100
AcDbVertex
100
AcDb2dVertex
62
5
10
173.000508
20
199.191463
0
VERTEX
5
21e
100
AcDbEntity
8
0
100
AcDbVertex
100
AcDb2dVertex
62
5
10
173.026149
20
199.162973
0
VERTEX
5
21f
100
AcDbEntity
8
0
100
AcDbVertex
100
AcDb2dVertex
62
5
10
173.034696
20
199.115490
0
VERTEX
5
220
100
AcDbEntity
8
0
100
AcDbVertex
100
AcDb2dVertex
62
5
10
173.034696
20
198.936002
0
VERTEX
5
221
100
AcDbEntity
8
0
100
AcDbVertex
100
AcDb2dVertex
62
5
10
173.607346
20
198.961643
0
VERTEX
5
222
100
AcDbEntity
8
0
100
AcDbVertex
100
AcDb2dVertex
62
5
10
173.645333
20
198.953096
0
VERTEX
5
223
100
AcDbEntity
8
0
100
AcDbVertex
100
AcDb2dVertex
62
5
10
173.668125
20
198.927455
0
VERTEX
5
224
100
AcDbEntity
8
0
100
AcDbVertex
100
AcDb2dVertex
62
5
10
173.675722
20
198.884720
0
VERTEX
5
225
100
AcDbEntity
8
0
100
AcDbVertex
100
AcDb2dVertex
62
5
10
173.668125
20
198.843789
0
VERTEX
5
226
100
AcDbEntity
8
0
100
AcDbVertex
100
AcDb2dVertex
62
5
10
173.645333
20
198.819231
0
VERTEX
5
227
100
AcDbEntity
8
0
100
AcDbVertex
100
AcDb2dVertex
62
5
10
173.607346
20
198.811045
0
VERTEX
5
228
100
AcDbEntity
8
0
100
AcDbVertex
100
AcDb2dVertex
62
5
10
173.034696
20
198.793951
0
VERTEX
5
229
100
AcDbEntity
8
0
100
AcDbVertex
100
AcDb2dVertex
62
5
10
173.034696
20
198.483010
0
VERTEX
5
22a
100
AcDbEntity
8
0
100
AcDbVertex
100
AcDb2dVertex
62
5
10
173.607346
20
198.508651
0
VERTEX
5
22b
100
AcDbEntity
8
0
100
AcDbVertex
100
AcDb2dVertex
62
5
10
173.645333
20
198.500104
0
VERTEX
5
22c
100
AcDbEntity
8
0
100
AcDbVertex
100
AcDb2dVertex
62
5
10
173.668125
20
198.474463
0
VERTEX
5
22d
100
AcDbEntity
8
0
100
AcDbVertex
100
AcDb2dVertex
62
5
10
173.675722
20
198.431728
0
VERTEX
5
22e
100
AcDbEntity
8
0
100
AcDbVertex
100
AcDb2dVertex
62
5
10
173.668125
20
198.390797
0
VERTEX
5
22f
100
AcDbEntity
8
0
100
AcDbVertex
100
AcDb2dVertex
62
5
10
173.645333
20
198.366239
0
VERTEX
5
230
100
AcDbEntity
8
0
100
AcDbVertex
100
AcDb2dVertex
62
5
10
173.607346
20
198.358052
0
VERTEX
5
231
100
AcDbEntity
8
0
100
AcDbVertex
100
AcDb2dVertex
62
5
10
173.043243
20
198.340958
0
VERTEX
5
232
100
AcDbEntity
8
0
100
AcDbVertex
100
AcDb2dVertex
62
5
10
173.043243
20
197.876171
0
VERTEX
5
233
100
AcDbEntity
8
0
100
AcDbVertex
100
AcDb2dVertex
62
5
10
173.306301
20
197.743218
0
VERTEX
5
234
100
AcDbEntity
8
0
100
AcDbVertex
100
AcDb2dVertex
62
5
10
173.502883
20
197.629257
0
VERTEX
5
235
100
AcDbEntity
8
0
100
AcDbVertex
100
AcDb2dVertex
62
5
10
173.632987
20
197.534290
0
VERTEX
5
236
100
AcDbEntity
8
0
100
AcDbVertex
100
AcDb2dVertex
62
5
10
173.660528
20
197.493455
0
VERTEX
5
237
100
AcDbEntity
8
0
100
AcDbVertex
100
AcDb2dVertex
62
5
10
173.663377
20
197.450720
0
VERTEX
5
238
100
AcDbEntity
8
0
100
AcDbVertex
100
AcDb2dVertex
62
5
10
173.641534
20
197.406085
0
VERTEX
5
239
100
AcDbEntity
8
0
100
AcDbVertex
100
AcDb2dVertex
62
5
10
173.601648
20
197.387092
0
VERTEX
5
23a
100
AcDbEntity
8
0
100
AcDbVertex
100
AcDb2dVertex
62
5
10
173.561762
20
197.387092
0
VERTEX
5
23b
100
AcDbEntity
8
0
100
AcDbVertex
100
AcDb2dVertex
62
5
10
173.521876
20
197.406085
0
VERTEX
5
23c
100
AcDbEntity
8
0
100
AcDbVertex
100
AcDb2dVertex
62
5
10
173.358533
20
197.524794
0
VERTEX
5
23d
100
AcDbEntity
8
0
100
AcDbVertex
100
AcDb2dVertex
62
5
10
173.198989
20
197.630207
0
VERTEX
5
23e
100
AcDbEntity
8
0
100
AcDbVertex
100
AcDb2dVertex
62
5
10
173.043243
20
197.722325
0
VERTEX
5
23f
100
AcDbEntity
8
0
100
AcDbVertex
100
AcDb2dVertex
62
5
10
173.017602
20
197.589371
0
VERTEX
5
240
100
AcDbEntity
8
0
100
AcDbVertex
100
AcDb2dVertex
62
5
10
172.963471
20
197.475411
0
VERTEX
5
241
100
AcDbEntity
8
0
100
AcDbVertex
100
AcDb2dVertex
62
5
10
172.880849
20
197.380444
0
VERTEX
5
242
100
AcDbEntity
8
0
100
AcDbVertex
100
AcDb2dVertex
62
5
10
172.778285
20
197.318716
0
VERTEX
5
243
100
AcDbEntity
8
0
100
AcDbVertex
100
AcDb2dVertex
62
5
10
172.641533
20
197.281678
0
VERTEX
5
244
100
AcDbEntity
8
0
100
AcDbVertex
100
AcDb2dVertex
62
5
10
172.470592
20
197.269333
0
VERTEX
5
245
100
AcDbEntity
8
0
100
AcDbVertex
100
AcDb2dVertex
62
5
10
172.308199
20
197.283578
0
VERTEX
5
246
100
AcDbEntity
8
0
100
AcDbVertex
100
AcDb2dVertex
62
5
10
172.174296
20
197.326313
0
VERTEX
5
247
100
AcDbEntity
8
0
100
AcDbVertex
100
AcDb2dVertex
62
5
10
172.068882
20
197.397538
0
VERTEX
5
248
100
AcDbEntity
8
0
100
AcDbVertex
100
AcDb2dVertex
62
5
10
172.006204
20
197.471612
0
VERTEX
5
249
100
AcDbEntity
8
0
100
AcDbVertex
100
AcDb2dVertex
62
5
10
171.966318
20
197.557082
0
VERTEX
5
24a
100
AcDbEntity
8
0
100
AcDbVertex
100
AcDb2dVertex
62
5
10
171.949224
20
197.653949
0
VERTEX
5
24b
100
AcDbEntity
8
0
100
AcDbVertex
100
AcDb2dVertex
62
5
10
171.962519
20
197.756513
0
VERTEX
5
24c
100
AcDbEntity
8
0
100
AcDbVertex
100
AcDb2dVertex
62
5
10
172.002405
20
197.847681
0
VERTEX
5
24d
100
AcDbEntity
8
0
100
AcDbVertex
100
AcDb2dVertex
62
5
10
172.068882
20
197.927453
0
VERTEX
5
24e
100
AcDbEntity
8
0
100
AcDbVertex
100
AcDb2dVertex
62
5
10
172.170497
20
197.989182
0
SEQEND
5
24f
100
AcDbEntity
8
0
0
ARC
5
250
100
AcDbEntity
8
1
100
AcDbCircle
6
CONTINUOUS
62
5
10
188.200000
20
193.541824
40
0.500000
100
AcDbArc
50
179.999998
51
-89.999999
0
LINE
5
251
100
AcDbEntity
8
1
100
AcDbLine
6
CONTINUOUS
62
5
10
188.200000
20
193.041824
11
190.000000
21
193.041824
0
ARC
5
252
100
AcDbEntity
8
1
100
AcDbCircle
6
CONTINUOUS
62
5
10
190.000000
20
194.041824
40
1.000000
100
AcDbArc
50
-89.999999
51
0.000000
0
LINE
5
253
100
AcDbEntity
8
1
100
AcDbLine
6
CONTINUOUS
62
5
10
191.000000
20
194.041824
11
191.000000
21
195.541824
0
LINE
5
254
100
AcDbEntity
8
1
100
AcDbLine
6
CONTINUOUS
62
5
10
187.700000
20
193.641824
11
187.700000
21
193.541824
0
ARC
5
255
100
AcDbEntity
8
1
100
AcDbCircle
6
CONTINUOUS
62
5
10
190.000000
20
194.241824
40
1.500000
100
AcDbArc
50
-89.999999
51
0.000000
0
LINE
5
256
100
AcDbEntity
8
1
100
AcDbLine
6
CONTINUOUS
62
5
10
190.000000
20
192.741824
11
188.200000
21
192.741824
0
ARC
5
257
100
AcDbEntity
8
1
100
AcDbCircle
6
CONTINUOUS
62
5
10
188.200000
20
193.241824
40
0.500000
100
AcDbArc
50
179.999998
51
-89.999999
0
LINE
5
258
100
AcDbEntity
8
1
100
AcDbLine
6
CONTINUOUS
62
5
10
187.700000
20
193.241824
11
187.700000
21
193.641824
0
LINE
5
259
100
AcDbEntity
8
1
100
AcDbLine
6
CONTINUOUS
62
5
10
191.500000
20
195.541824
11
191.500000
21
194.241824
0
ARC
5
25a
100
AcDbEntity
8
1
100
AcDbCircle
6
CONTINUOUS
62
5
10
177.926890
20
205.552758
40
0.695217
100
AcDbArc
50
0.000114
51
179.999884
0
LINE
5
25b
100
AcDbEntity
8
1
100
AcDbLine
6
CONTINUOUS
62
5
10
178.622107
20
205.552759
11
178.622107
21
201.964374
0
ARC
5
25c
100
AcDbEntity
8
1
100
AcDbCircle
6
CONTINUOUS
62
5
10
177.927699
20
201.930889
40
0.695215
100
AcDbArc
50
-179.999998
51
2.760718
0
LINE
5
25d
100
AcDbEntity
8
1
100
AcDbLine
6
CONTINUOUS
62
5
10
177.232484
20
201.930889
11
177.231674
21
205.552759
0
ARC
5
25e
100
AcDbEntity
8
1
100
AcDbCircle
6
CONTINUOUS
62
5
10
186.000000
20
200.391824
40
0.300000
100
AcDbArc
50
-89.999999
51
-0.000000
0
LINE
5
25f
100
AcDbEntity
8
1
100
AcDbLine
6
CONTINUOUS
62
5
10
186.300000
20
200.391824
11
186.300000
21
207.091824
0
ARC
5
260
100
AcDbEntity
8
1
100
AcDbCircle
6
CONTINUOUS
62
5
10
186.000000
20
207.091824
40
0.300000
100
AcDbArc
50
0.000000
51
89.999999
0
LINE
5
261
100
AcDbEntity
8
1
100
AcDbLine
6
CONTINUOUS
62
5
10
186.000000
20
207.391824
11
185.800000
21
207.391824
0
LINE
5
262
100
AcDbEntity
8
1
100
AcDbLine
6
CONTINUOUS
62
5
10
185.800000
20
200.091824
11
186.000000
21
200.091824
0
ARC
5
263
100
AcDbEntity
8
1
100
AcDbCircle
6
CONTINUOUS
62
5
10
177.927702
20
201.930891
40
1.589067
100
AcDbArc
50
-179.999914
51
-0.000084
0
LINE
5
264
100
AcDbEntity
8
1
100
AcDbLine
6
CONTINUOUS
62
5
10
176.338634
20
201.930889
11
176.338634
21
205.552759
0
ARC
5
265
100
AcDbEntity
8
1
100
AcDbCircle
6
CONTINUOUS
62
5
10
177.927699
20
205.552759
40
1.589065
100
AcDbArc
50
0.000000
51
-179.999998
0
LINE
5
266
100
AcDbEntity
8
1
100
AcDbLine
6
CONTINUOUS
62
5
10
179.516764
20
205.552759
11
179.516769
21
201.930889
0
LINE
5
267
100
AcDbEntity
8
1
100
AcDbLine
6
CONTINUOUS
62
5
10
191.500000
20
209.041824
11
191.500000
21
198.441824
0
LINE
5
268
100
AcDbEntity
8
1
100
AcDbLine
6
CONTINUOUS
62
5
10
185.800000
20
209.241824
11
185.800000
21
198.241824
0
ARC
5
269
100
AcDbEntity
8
1
100
AcDbCircle
6
CONTINUOUS
62
5
10
184.500000
20
197.741824
40
0.500000
100
AcDbArc
50
-89.999999
51
0.000000
0
LINE
5
26a
100
AcDbEntity
8
1
100
AcDbLine
6
CONTINUOUS
62
5
10
184.500000
20
197.241824
11
184.000000
21
197.241824
0
LINE
5
26b
100
AcDbEntity
8
1
100
AcDbLine
6
CONTINUOUS
62
5
10
184.000000
20
210.241824
11
184.500000
21
210.241824
0
ARC
5
26c
100
AcDbEntity
8
1
100
AcDbCircle
6
CONTINUOUS
62
5
10
184.500000
20
209.741824
40
0.500000
100
AcDbArc
50
0.000000
51
89.999999
0
LINE
5
26d
100
AcDbEntity
8
1
100
AcDbLine
6
CONTINUOUS
62
5
10
185.000000
20
209.741824
11
185.000000
21
197.741824
0
LINE
5
26e
100
AcDbEntity
8
1
100
AcDbLine
6
CONTINUOUS
62
5
10
190.000000
20
208.290156
11
190.000000
21
199.193493
0
ARC
5
26f
100
AcDbEntity
8
1
100
AcDbCircle
6
CONTINUOUS
62
5
10
188.812876
20
194.842541
40
1.000908
100
AcDbArc
50
-89.999999
51
-7.748461
0
ARC
5
270
100
AcDbEntity
8
1
100
AcDbCircle
6
CONTINUOUS
62
5
10
190.790444
20
194.542257
40
0.999567
100
AcDbArc
50
89.991039
51
170.478977
0
LINE
5
271
100
AcDbEntity
8
1
100
AcDbLine
6
CONTINUOUS
62
5
10
190.790600
20
195.541824
11
191.500000
21
195.541824
0
ARC
5
272
100
AcDbEntity
8
1
100
AcDbCircle
6
CONTINUOUS
62
5
10
191.500000
20
196.041824
40
0.500000
100
AcDbArc
50
-89.999999
51
0.000000
0
LINE
5
273
100
AcDbEntity
8
1
100
AcDbLine
6
CONTINUOUS
62
5
10
192.000000
20
196.041824
11
192.000000
21
197.941824
0
ARC
5
274
100
AcDbEntity
8
1
100
AcDbCircle
6
CONTINUOUS
62
5
10
191.500000
20
197.941824
40
0.500000
100
AcDbArc
50
-0.000000
51
89.999999
0
LINE
5
275
100
AcDbEntity
8
1
100
AcDbLine
6
CONTINUOUS
62
5
10
191.500000
20
198.441824
11
191.300000
21
198.441824
0
ARC
5
276
100
AcDbEntity
8
1
100
AcDbCircle
6
CONTINUOUS
62
5
10
191.300000
20
199.941824
40
1.500000
100
AcDbArc
50
-179.999998
51
-89.999999
0
LINE
5
277
100
AcDbEntity
8
1
100
AcDbLine
6
CONTINUOUS
62
5
10
189.800000
20
199.941824
11
189.800000
21
207.541824
0
ARC
5
278
100
AcDbEntity
8
1
100
AcDbCircle
6
CONTINUOUS
62
5
10
191.300000
20
207.541824
40
1.500000
100
AcDbArc
50
89.999999
51
179.999998
0
LINE
5
279
100
AcDbEntity
8
1
100
AcDbLine
6
CONTINUOUS
62
5
10
191.300000
20
209.041824
11
191.500000
21
209.041824
0
ARC
5
27a
100
AcDbEntity
8
1
100
AcDbCircle
6
CONTINUOUS
62
5
10
191.500000
20
209.541824
40
0.500000
100
AcDbArc
50
-89.999999
51
0.000000
0
LINE
5
27b
100
AcDbEntity
8
1
100
AcDbLine
6
CONTINUOUS
62
5
10
192.000000
20
209.541824
11
192.000000
21
211.441824
0
ARC
5
27c
100
AcDbEntity
8
1
100
AcDbCircle
6
CONTINUOUS
62
5
10
191.500000
20
211.441824
40
0.500000
100
AcDbArc
50
-0.000000
51
89.999999
0
LINE
5
27d
100
AcDbEntity
8
1
100
AcDbLine
6
CONTINUOUS
62
5
10
191.500000
20
211.941824
11
190.790600
21
211.941824
0
ARC
5
27e
100
AcDbEntity
8
1
100
AcDbCircle
6
CONTINUOUS
62
5
10
190.790439
20
212.941377
40
0.999553
100
AcDbArc
50
-170.493353
51
-89.990749
0
ARC
5
27f
100
AcDbEntity
8
1
100
AcDbCircle
6
CONTINUOUS
62
5
10
188.812876
20
212.641107
40
1.000908
100
AcDbArc
50
7.762041
51
89.999999
0
POLYLINE
5
280
100
AcDbEntity
8
1
6
CONTINUOUS
62
5
100
AcDb2dPolyline
66
1
10
0.0
20
0.0
30
0.0
70
0
0
VERTEX
5
281
100
AcDbEntity
8
1
100
AcDbVertex
100
AcDb2dVertex
62
5
10
188.812876
20
213.642015
0
VERTEX
5
282
100
AcDbEntity
8
1
100
AcDbVertex
100
AcDb2dVertex
62
5
10
187.500000
20
213.641824
0
VERTEX
5
283
100
AcDbEntity
8
1
100
AcDbVertex
100
AcDb2dVertex
62
5
10
187.500000
20
214.797166
0
VERTEX
5
284
100
AcDbEntity
8
1
100
AcDbVertex
100
AcDb2dVertex
62
5
10
184.000000
20
214.796118
0
VERTEX
5
285
100
AcDbEntity
8
1
100
AcDbVertex
100
AcDb2dVertex
62
5
10
184.000000
20
213.996118
0
VERTEX
5
286
100
AcDbEntity
8
1
100
AcDbVertex
100
AcDb2dVertex
62
5
10
184.400000
20
213.996238
0
SEQEND
5
287
100
AcDbEntity
8
1
0
POLYLINE
5
288
100
AcDbEntity
8
1
6
CONTINUOUS
62
5
100
AcDb2dPolyline
66
1
10
0.0
20
0.0
30
0.0
70
0
0
VERTEX
5
289
100
AcDbEntity
8
1
100
AcDbVertex
100
AcDb2dVertex
62
5
10
184.400000
20
193.491807
0
VERTEX
5
28a
100
AcDbEntity
8
1
100
AcDbVertex
100
AcDb2dVertex
62
5
10
184.000000
20
193.491807
0
VERTEX
5
28b
100
AcDbEntity
8
1
100
AcDbVertex
100
AcDb2dVertex
62
5
10
184.000000
20
192.687532
0
VERTEX
5
28c
100
AcDbEntity
8
1
100
AcDbVertex
100
AcDb2dVertex
62
5
10
187.500000
20
192.686484
0
VERTEX
5
28d
100
AcDbEntity
8
1
100
AcDbVertex
100
AcDb2dVertex
62
5
10
187.500000
20
193.841824
0
VERTEX
5
28e
100
AcDbEntity
8
1
100
AcDbVertex
100
AcDb2dVertex
62
5
10
188.812876
20
193.841633
0
SEQEND
5
28f
100
AcDbEntity
8
1
0
LINE
5
290
100
AcDbEntity
8
1
100
AcDbLine
6
CONTINUOUS
62
5
10
158.250000
20
327.125000
11
161.000000
21
327.750000
0
LINE
5
291
100
AcDbEntity
8
1
100
AcDbLine
6
CONTINUOUS
62
5
10
158.250000
20
325.250000
11
161.750000
21
326.187500
0
POLYLINE
5
292
100
AcDbEntity
8
1
6
CONTINUOUS
62
5
100
AcDb2dPolyline
66
1
10
0.0
20
0.0
30
0.0
70
0
0
VERTEX
5
293
100
AcDbEntity
8
1
100
AcDbVertex
100
AcDb2dVertex
62
5
10
159.250000
20
328.687500
0
VERTEX
5
294
100
AcDbEntity
8
1
100
AcDbVertex
100
AcDb2dVertex
62
5
10
161.500000
20
323.687500
0
VERTEX
5
295
100
AcDbEntity
8
1
100
AcDbVertex
100
AcDb2dVertex
62
5
10
161.000000
20
323.687500
0
VERTEX
5
296
100
AcDbEntity
8
1
100
AcDbVertex
100
AcDb2dVertex
62
5
10
159.500000
20
324.312500
0
VERTEX
5
297
100
AcDbEntity
8
1
100
AcDbVertex
100
AcDb2dVertex
62
5
10
158.750000
20
324.312500
0
VERTEX
5
298
100
AcDbEntity
8
1
100
AcDbVertex
100
AcDb2dVertex
62
5
10
157.750000
20
323.375000
0
VERTEX
5
299
100
AcDbEntity
8
1
100
AcDbVertex
100
AcDb2dVertex
62
5
10
157.750000
20
322.750000
0
VERTEX
5
29a
100
AcDbEntity
8
1
100
AcDbVertex
100
AcDb2dVertex
62
5
10
158.250000
20
322.125000
0
VERTEX
5
29b
100
AcDbEntity
8
1
100
AcDbVertex
100
AcDb2dVertex
62
5
10
158.750000
20
321.812500
0
VERTEX
5
29c
100
AcDbEntity
8
1
100
AcDbVertex
100
AcDb2dVertex
62
5
10
160.250000
20
321.812500
0
SEQEND
5
29d
100
AcDbEntity
8
1
0
POLYLINE
5
29e
100
AcDbEntity
8
1
6
CONTINUOUS
62
5
100
AcDb2dPolyline
66
1
10
0.0
20
0.0
30
0.0
70
0
0
VERTEX
5
29f
100
AcDbEntity
8
1
100
AcDbVertex
100
AcDb2dVertex
62
5
10
134.500000
20
328.062500
0
VERTEX
5
2a0
100
AcDbEntity
8
1
100
AcDbVertex
100
AcDb2dVertex
62
5
10
134.500000
20
326.187500
0
VERTEX
5
2a1
100
AcDbEntity
8
1
100
AcDbVertex
100
AcDb2dVertex
62
5
10
134.250000
20
324.625000
0
VERTEX
5
2a2
100
AcDbEntity
8
1
100
AcDbVertex
100
AcDb2dVertex
62
5
10
133.750000
20
323.375000
0
VERTEX
5
2a3
100
AcDbEntity
8
1
100
AcDbVertex
100
AcDb2dVertex
62
5
10
133.000000
20
322.125000
0
VERTEX
5
2a4
100
AcDbEntity
8
1
100
AcDbVertex
100
AcDb2dVertex
62
5
10
132.750000
20
321.812500
0
SEQEND
5
2a5
100
AcDbEntity
8
1
0
POLYLINE
5
2a6
100
AcDbEntity
8
1
6
CONTINUOUS
62
5
100
AcDb2dPolyline
66
1
10
0.0
20
0.0
30
0.0
70
0
0
VERTEX
5
2a7
100
AcDbEntity
8
1
100
AcDbVertex
100
AcDb2dVertex
62
5
10
136.000000
20
328.375000
0
VERTEX
5
2a8
100
AcDbEntity
8
1
100
AcDbVertex
100
AcDb2dVertex
62
5
10
136.000000
20
322.125000
0
VERTEX
5
2a9
100
AcDbEntity
8
1
100
AcDbVertex
100
AcDb2dVertex
62
5
10
136.750000
20
322.437500
0
VERTEX
5
2aa
100
AcDbEntity
8
1
100
AcDbVertex
100
AcDb2dVertex
62
5
10
137.750000
20
323.375000
0
VERTEX
5
2ab
100
AcDbEntity
8
1
100
AcDbVertex
100
AcDb2dVertex
62
5
10
138.500000
20
324.312500
0
VERTEX
5
2ac
100
AcDbEntity
8
1
100
AcDbVertex
100
AcDb2dVertex
62
5
10
139.000000
20
325.250000
0
SEQEND
5
2ad
100
AcDbEntity
8
1
0
LINE
5
2ae
100
AcDbEntity
8
1
100
AcDbLine
6
CONTINUOUS
62
5
10
143.250000
20
327.125000
11
145.750000
21
327.125000
0
POLYLINE
5
2af
100
AcDbEntity
8
1
6
CONTINUOUS
62
5
100
AcDb2dPolyline
66
1
10
0.0
20
0.0
30
0.0
70
0
0
VERTEX
5
2b0
100
AcDbEntity
8
1
100
AcDbVertex
100
AcDb2dVertex
62
5
10
143.250000
20
327.125000
0
VERTEX
5
2b1
100
AcDbEntity
8
1
100
AcDbVertex
100
AcDb2dVertex
62
5
10
142.500000
20
325.875000
0
VERTEX
5
2b2
100
AcDbEntity
8
1
100
AcDbVertex
100
AcDb2dVertex
62
5
10
141.750000
20
324.937500
0
SEQEND
5
2b3
100
AcDbEntity
8
1
0
POLYLINE
5
2b4
100
AcDbEntity
8
1
6
CONTINUOUS
62
5
100
AcDb2dPolyline
66
1
10
0.0
20
0.0
30
0.0
70
0
0
VERTEX
5
2b5
100
AcDbEntity
8
1
100
AcDbVertex
100
AcDb2dVertex
62
5
10
145.750000
20
327.125000
0
VERTEX
5
2b6
100
AcDbEntity
8
1
100
AcDbVertex
100
AcDb2dVertex
62
5
10
146.000000
20
326.812500
0
VERTEX
5
2b7
100
AcDbEntity
8
1
100
AcDbVertex
100
AcDb2dVertex
62
5
10
145.500000
20
325.875000
0
VERTEX
5
2b8
100
AcDbEntity
8
1
100
AcDbVertex
100
AcDb2dVertex
62
5
10
144.750000
20
324.312500
0
VERTEX
5
2b9
100
AcDbEntity
8
1
100
AcDbVertex
100
AcDb2dVertex
62
5
10
143.500000
20
322.750000
0
VERTEX
5
2ba
100
AcDbEntity
8
1
100
AcDbVertex
100
AcDb2dVertex
62
5
10
142.000000
20
321.500000
0
SEQEND
5
2bb
100
AcDbEntity
8
1
0
LINE
5
2bc
100
AcDbEntity
8
1
100
AcDbLine
6
CONTINUOUS
62
5
10
143.250000
20
325.250000
11
144.250000
21
323.687500
0
LINE
5
2bd
100
AcDbEntity
8
1
100
AcDbLine
6
CONTINUOUS
62
5
10
145.750000
20
328.687500
11
146.500000
21
327.750000
0
LINE
5
2be
100
AcDbEntity
8
1
100
AcDbLine
6
CONTINUOUS
62
5
10
146.500000
20
329.312500
11
147.250000
21
328.375000
0
POLYLINE
5
2bf
100
AcDbEntity
8
1
6
CONTINUOUS
62
5
100
AcDb2dPolyline
66
1
10
0.0
20
0.0
30
0.0
70
0
0
VERTEX
5
2c0
100
AcDbEntity
8
1
100
AcDbVertex
100
AcDb2dVertex
62
5
10
150.500000
20
329.312500
0
VERTEX
5
2c1
100
AcDbEntity
8
1
100
AcDbVertex
100
AcDb2dVertex
62
5
10
149.500000
20
326.500000
0
VERTEX
5
2c2
100
AcDbEntity
8
1
100
AcDbVertex
100
AcDb2dVertex
62
5
10
148.250000
20
324.312500
0
SEQEND
5
2c3
100
AcDbEntity
8
1
0
LINE
5
2c4
100
AcDbEntity
8
1
100
AcDbLine
6
CONTINUOUS
62
5
10
149.500000
20
326.500000
11
149.500000
21
320.562500
0
LINE
5
2c5
100
AcDbEntity
8
1
100
AcDbLine
6
CONTINUOUS
62
5
10
150.250000
20
326.500000
11
155.500000
21
326.500000
0
POLYLINE
5
2c6
100
AcDbEntity
8
1
6
CONTINUOUS
62
5
100
AcDb2dPolyline
66
1
10
0.0
20
0.0
30
0.0
70
0
0
VERTEX
5
2c7
100
AcDbEntity
8
1
100
AcDbVertex
100
AcDb2dVertex
62
5
10
153.750000
20
329.312500
0
VERTEX
5
2c8
100
AcDbEntity
8
1
100
AcDbVertex
100
AcDb2dVertex
62
5
10
153.750000
20
320.875000
0
VERTEX
5
2c9
100
AcDbEntity
8
1
100
AcDbVertex
100
AcDb2dVertex
62
5
10
152.250000
20
321.187500
0
SEQEND
5
2ca
100
AcDbEntity
8
1
0
LINE
5
2cb
100
AcDbEntity
8
1
100
AcDbLine
6
CONTINUOUS
62
5
10
151.250000
20
325.250000
11
152.250000
21
323.375000
0
POLYLINE
5
2cc
100
AcDbEntity
8
1
6
CONTINUOUS
62
5
100
AcDb2dPolyline
66
1
10
0.0
20
0.0
30
0.0
70
0
0
VERTEX
5
2cd
100
AcDbEntity
8
1
100
AcDbVertex
100
AcDb2dVertex
62
5
10
133.750000
20
339.312500
0
VERTEX
5
2ce
100
AcDbEntity
8
1
100
AcDbVertex
100
AcDb2dVertex
62
5
10
133.750000
20
334.000000
0
VERTEX
5
2cf
100
AcDbEntity
8
1
100
AcDbVertex
100
AcDb2dVertex
62
5
10
133.250000
20
332.125000
0
VERTEX
5
2d0
100
AcDbEntity
8
1
100
AcDbVertex
100
AcDb2dVertex
62
5
10
132.500000
20
330.875000
0
SEQEND
5
2d1
100
AcDbEntity
8
1
0
LINE
5
2d2
100
AcDbEntity
8
1
100
AcDbLine
6
CONTINUOUS
62
5
10
133.750000
20
337.125000
11
139.250000
21
337.125000
0
LINE
5
2d3
100
AcDbEntity
8
1
100
AcDbLine
6
CONTINUOUS
62
5
10
136.500000
20
339.625000
11
136.500000
21
337.125000
0
POLYLINE
5
2d4
100
AcDbEntity
8
1
6
CONTINUOUS
62
5
100
AcDb2dPolyline
66
1
10
0.0
20
0.0
30
0.0
70
0
0
VERTEX
5
2d5
100
AcDbEntity
8
1
100
AcDbVertex
100
AcDb2dVertex
62
5
10
133.750000
20
334.625000
0
VERTEX
5
2d6
100
AcDbEntity
8
1
100
AcDbVertex
100
AcDb2dVertex
62
5
10
137.250000
20
334.625000
0
VERTEX
5
2d7
100
AcDbEntity
8
1
100
AcDbVertex
100
AcDb2dVertex
62
5
10
137.250000
20
330.562500
0
SEQEND
5
2d8
100
AcDbEntity
8
1
0
POLYLINE
5
2d9
100
AcDbEntity
8
1
6
CONTINUOUS
62
5
100
AcDb2dPolyline
66
1
10
0.0
20
0.0
30
0.0
70
0
0
VERTEX
5
2da
100
AcDbEntity
8
1
100
AcDbVertex
100
AcDb2dVertex
62
5
10
140.250000
20
336.500000
0
VERTEX
5
2db
100
AcDbEntity
8
1
100
AcDbVertex
100
AcDb2dVertex
62
5
10
141.750000
20
336.812500
0
VERTEX
5
2dc
100
AcDbEntity
8
1
100
AcDbVertex
100
AcDb2dVertex
62
5
10
143.000000
20
337.437500
0
SEQEND
5
2dd
100
AcDbEntity
8
1
0
POLYLINE
5
2de
100
AcDbEntity
8
1
6
CONTINUOUS
62
5
100
AcDb2dPolyline
66
1
10
0.0
20
0.0
30
0.0
70
0
0
VERTEX
5
2df
100
AcDbEntity
8
1
100
AcDbVertex
100
AcDb2dVertex
62
5
10
141.250000
20
339.312500
0
VERTEX
5
2e0
100
AcDbEntity
8
1
100
AcDbVertex
100
AcDb2dVertex
62
5
10
141.250000
20
333.687500
0
VERTEX
5
2e1
100
AcDbEntity
8
1
100
AcDbVertex
100
AcDb2dVertex
62
5
10
141.750000
20
333.062500
0
VERTEX
5
2e2
100
AcDbEntity
8
1
100
AcDbVertex
100
AcDb2dVertex
62
5
10
143.000000
20
333.062500
0
VERTEX
5
2e3
100
AcDbEntity
8
1
100
AcDbVertex
100
AcDb2dVertex
62
5
10
143.250000
20
334.312500
0
SEQEND
5
2e4
100
AcDbEntity
8
1
0
POLYLINE
5
2e5
100
AcDbEntity
8
1
6
CONTINUOUS
62
5
100
AcDb2dPolyline
66
1
10
0.0
20
0.0
30
0.0
70
0
0
VERTEX
5
2e6
100
AcDbEntity
8
1
100
AcDbVertex
100
AcDb2dVertex
62
5
10
144.500000
20
338.375000
0
VERTEX
5
2e7
100
AcDbEntity
8
1
100
AcDbVertex
100
AcDb2dVertex
62
5
10
144.500000
20
334.625000
0
VERTEX
5
2e8
100
AcDbEntity
8
1
100
AcDbVertex
100
AcDb2dVertex
62
5
10
144.000000
20
333.062500
0
VERTEX
5
2e9
100
AcDbEntity
8
1
100
AcDbVertex
100
AcDb2dVertex
62
5
10
143.250000
20
331.812500
0
VERTEX
5
2ea
100
AcDbEntity
8
1
100
AcDbVertex
100
AcDb2dVertex
62
5
10
142.000000
20
330.875000
0
SEQEND
5
2eb
100
AcDbEntity
8
1
0
POLYLINE
5
2ec
100
AcDbEntity
8
1
6
CONTINUOUS
62
5
100
AcDb2dPolyline
66
1
10
0.0
20
0.0
30
0.0
70
0
0
VERTEX
5
2ed
100
AcDbEntity
8
1
100
AcDbVertex
100
AcDb2dVertex
62
5
10
143.000000
20
338.375000
0
VERTEX
5
2ee
100
AcDbEntity
8
1
100
AcDbVertex
100
AcDb2dVertex
62
5
10
146.750000
20
338.375000
0
VERTEX
5
2ef
100
AcDbEntity
8
1
100
AcDbVertex
100
AcDb2dVertex
62
5
10
146.750000
20
333.062500
0
VERTEX
5
2f0
100
AcDbEntity
8
1
100
AcDbVertex
100
AcDb2dVertex
62
5
10
146.500000
20
332.125000
0
VERTEX
5
2f1
100
AcDbEntity
8
1
100
AcDbVertex
100
AcDb2dVertex
62
5
10
146.000000
20
331.812500
0
VERTEX
5
2f2
100
AcDbEntity
8
1
100
AcDbVertex
100
AcDb2dVertex
62
5
10
145.000000
20
331.812500
0
SEQEND
5
2f3
100
AcDbEntity
8
1
0
LINE
5
2f4
100
AcDbEntity
8
1
100
AcDbLine
6
CONTINUOUS
62
5
10
158.000000
20
337.437500
11
161.750000
21
338.062500
0
LINE
5
2f5
100
AcDbEntity
8
1
100
AcDbLine
6
CONTINUOUS
62
5
10
156.750000
20
335.562500
11
162.750000
21
335.562500
0
POLYLINE
5
2f6
100
AcDbEntity
8
1
6
CONTINUOUS
62
5
100
AcDb2dPolyline
66
1
10
0.0
20
0.0
30
0.0
70
0
0
VERTEX
5
2f7
100
AcDbEntity
8
1
100
AcDbVertex
100
AcDb2dVertex
62
5
10
160.000000
20
337.750000
0
VERTEX
5
2f8
100
AcDbEntity
8
1
100
AcDbVertex
100
AcDb2dVertex
62
5
10
160.000000
20
335.562500
0
VERTEX
5
2f9
100
AcDbEntity
8
1
100
AcDbVertex
100
AcDb2dVertex
62
5
10
159.750000
20
334.000000
0
VERTEX
5
2fa
100
AcDbEntity
8
1
100
AcDbVertex
100
AcDb2dVertex
62
5
10
159.000000
20
332.750000
0
VERTEX
5
2fb
100
AcDbEntity
8
1
100
AcDbVertex
100
AcDb2dVertex
62
5
10
158.250000
20
331.812500
0
SEQEND
5
2fc
100
AcDbEntity
8
1
0
LINE
5
2fd
100
AcDbEntity
8
1
100
AcDbLine
6
CONTINUOUS
62
5
10
110.250000
20
335.562500
11
110.500000
21
334.312500
0
LINE
5
2fe
100
AcDbEntity
8
1
100
AcDbLine
6
CONTINUOUS
62
5
10
111.750000
20
335.875000
11
112.000000
21
334.625000
0
POLYLINE
5
2ff
100
AcDbEntity
8
1
6
CONTINUOUS
62
5
100
AcDb2dPolyline
66
1
10
0.0
20
0.0
30
0.0
70
0
0
VERTEX
5
300
100
AcDbEntity
8
1
100
AcDbVertex
100
AcDb2dVertex
62
5
10
113.750000
20
335.875000
0
VERTEX
5
301
100
AcDbEntity
8
1
100
AcDbVertex
100
AcDb2dVertex
62
5
10
113.500000
20
334.312500
0
VERTEX
5
302
100
AcDbEntity
8
1
100
AcDbVertex
100
AcDb2dVertex
62
5
10
112.250000
20
332.437500
0
VERTEX
5
303
100
AcDbEntity
8
1
100
AcDbVertex
100
AcDb2dVertex
62
5
10
111.250000
20
331.500000
0
SEQEND
5
304
100
AcDbEntity
8
1
0
POLYLINE
5
305
100
AcDbEntity
8
1
6
CONTINUOUS
62
5
100
AcDb2dPolyline
66
1
10
0.0
20
0.0
30
0.0
70
0
0
VERTEX
5
306
100
AcDbEntity
8
1
100
AcDbVertex
100
AcDb2dVertex
62
5
10
108.750000
20
325.562500
0
VERTEX
5
307
100
AcDbEntity
8
1
100
AcDbVertex
100
AcDb2dVertex
62
5
10
109.000000
20
325.250000
0
VERTEX
5
308
100
AcDbEntity
8
1
100
AcDbVertex
100
AcDb2dVertex
62
5
10
115.750000
20
325.250000
0
SEQEND
5
309
100
AcDbEntity
8
1
0
LINE
5
30a
100
AcDbEntity
8
1
100
AcDbLine
6
CONTINUOUS
62
5
10
119.250000
20
328.687500
11
119.250000
21
321.500000
0
POLYLINE
5
30b
100
AcDbEntity
8
1
6
CONTINUOUS
62
5
100
AcDb2dPolyline
66
1
10
0.0
20
0.0
30
0.0
70
0
0
VERTEX
5
30c
100
AcDbEntity
8
1
100
AcDbVertex
100
AcDb2dVertex
62
5
10
119.250000
20
325.875000
0
VERTEX
5
30d
100
AcDbEntity
8
1
100
AcDbVertex
100
AcDb2dVertex
62
5
10
119.500000
20
325.875000
0
VERTEX
5
30e
100
AcDbEntity
8
1
100
AcDbVertex
100
AcDb2dVertex
62
5
10
121.000000
20
324.937500
0
SEQEND
5
30f
100
AcDbEntity
8
1
0
LINE
5
310
100
AcDbEntity
8
1
100
AcDbLine
6
CONTINUOUS
62
5
10
121.250000
20
328.062500
11
121.750000
21
327.437500
0
LINE
5
311
100
AcDbEntity
8
1
100
AcDbLine
6
CONTINUOUS
62
5
10
122.250000
20
328.687500
11
122.750000
21
328.062500
0
POLYLINE
5
312
100
AcDbEntity
8
1
6
CONTINUOUS
62
5
100
AcDb2dPolyline
66
1
10
0.0
20
0.0
30
0.0
70
0
0
VERTEX
5
313
100
AcDbEntity
8
1
100
AcDbVertex
100
AcDb2dVertex
62
5
10
94.000000
20
337.125000
0
VERTEX
5
314
100
AcDbEntity
8
1
100
AcDbVertex
100
AcDb2dVertex
62
5
10
97.250000
20
337.125000
0
VERTEX
5
315
100
AcDbEntity
8
1
100
AcDbVertex
100
AcDb2dVertex
62
5
10
97.250000
20
336.812500
0
VERTEX
5
316
100
AcDbEntity
8
1
100
AcDbVertex
100
AcDb2dVertex
62
5
10
96.750000
20
335.562500
0
VERTEX
5
317
100
AcDbEntity
8
1
100
AcDbVertex
100
AcDb2dVertex
62
5
10
96.250000
20
334.625000
0
VERTEX
5
318
100
AcDbEntity
8
1
100
AcDbVertex
100
AcDb2dVertex
62
5
10
95.250000
20
333.375000
0
VERTEX
5
319
100
AcDbEntity
8
1
100
AcDbVertex
100
AcDb2dVertex
62
5
10
93.500000
20
331.812500
0
SEQEND
5
31a
100
AcDbEntity
8
1
0
LINE
5
31b
100
AcDbEntity
8
1
100
AcDbLine
6
CONTINUOUS
62
5
10
96.250000
20
334.625000
11
98.250000
21
331.812500
0
POLYLINE
5
31c
100
AcDbEntity
8
1
6
CONTINUOUS
62
5
100
AcDb2dPolyline
66
1
10
0.0
20
0.0
30
0.0
70
0
0
VERTEX
5
31d
100
AcDbEntity
8
1
100
AcDbVertex
100
AcDb2dVertex
62
5
10
93.750000
20
325.250000
0
VERTEX
5
31e
100
AcDbEntity
8
1
100
AcDbVertex
100
AcDb2dVertex
62
5
10
94.750000
20
326.500000
0
VERTEX
5
31f
100
AcDbEntity
8
1
100
AcDbVertex
100
AcDb2dVertex
62
5
10
95.250000
20
327.437500
0
VERTEX
5
320
100
AcDbEntity
8
1
100
AcDbVertex
100
AcDb2dVertex
62
5
10
97.750000
20
327.437500
0
VERTEX
5
321
100
AcDbEntity
8
1
100
AcDbVertex
100
AcDb2dVertex
62
5
10
97.750000
20
327.125000
0
VERTEX
5
322
100
AcDbEntity
8
1
100
AcDbVertex
100
AcDb2dVertex
62
5
10
97.000000
20
325.250000
0
VERTEX
5
323
100
AcDbEntity
8
1
100
AcDbVertex
100
AcDb2dVertex
62
5
10
95.750000
20
323.375000
0
VERTEX
5
324
100
AcDbEntity
8
1
100
AcDbVertex
100
AcDb2dVertex
62
5
10
94.250000
20
321.812500
0
SEQEND
5
325
100
AcDbEntity
8
1
0
POLYLINE
5
326
100
AcDbEntity
8
1
6
CONTINUOUS
62
5
100
AcDb2dPolyline
66
1
10
0.0
20
0.0
30
0.0
70
0
0
VERTEX
5
327
100
AcDbEntity
8
1
100
AcDbVertex
100
AcDb2dVertex
62
5
10
101.500000
20
326.500000
0
VERTEX
5
328
100
AcDbEntity
8
1
100
AcDbVertex
100
AcDb2dVertex
62
5
10
106.250000
20
326.500000
0
VERTEX
5
329
100
AcDbEntity
8
1
100
AcDbVertex
100
AcDb2dVertex
62
5
10
106.250000
20
324.937500
0
VERTEX
5
32a
100
AcDbEntity
8
1
100
AcDbVertex
100
AcDb2dVertex
62
5
10
106.000000
20
323.375000
0
VERTEX
5
32b
100
AcDbEntity
8
1
100
AcDbVertex
100
AcDb2dVertex
62
5
10
105.250000
20
322.125000
0
VERTEX
5
32c
100
AcDbEntity
8
1
100
AcDbVertex
100
AcDb2dVertex
62
5
10
104.500000
20
322.125000
0
SEQEND
5
32d
100
AcDbEntity
8
1
0
POLYLINE
5
32e
100
AcDbEntity
8
1
6
CONTINUOUS
62
5
100
AcDb2dPolyline
66
1
10
0.0
20
0.0
30
0.0
70
0
0
VERTEX
5
32f
100
AcDbEntity
8
1
100
AcDbVertex
100
AcDb2dVertex
62
5
10
104.000000
20
328.375000
0
VERTEX
5
330
100
AcDbEntity
8
1
100
AcDbVertex
100
AcDb2dVertex
62
5
10
103.500000
20
324.625000
0
VERTEX
5
331
100
AcDbEntity
8
1
100
AcDbVertex
100
AcDb2dVertex
62
5
10
102.750000
20
323.375000
0
VERTEX
5
332
100
AcDbEntity
8
1
100
AcDbVertex
100
AcDb2dVertex
62
5
10
101.750000
20
322.125000
0
SEQEND
5
333
100
AcDbEntity
8
1
0
POLYLINE
5
334
100
AcDbEntity
8
1
6
CONTINUOUS
62
5
100
AcDb2dPolyline
66
1
10
0.0
20
0.0
30
0.0
70
0
0
VERTEX
5
335
100
AcDbEntity
8
1
100
AcDbVertex
100
AcDb2dVertex
62
5
10
105.750000
20
338.687500
0
VERTEX
5
336
100
AcDbEntity
8
1
100
AcDbVertex
100
AcDb2dVertex
62
5
10
103.750000
20
336.187500
0
VERTEX
5
337
100
AcDbEntity
8
1
100
AcDbVertex
100
AcDb2dVertex
62
5
10
101.500000
20
334.625000
0
SEQEND
5
338
100
AcDbEntity
8
1
0
LINE
5
339
100
AcDbEntity
8
1
100
AcDbLine
6
CONTINUOUS
62
5
10
104.250000
20
336.812500
11
104.250000
21
331.500000
0
LINE
5
33a
100
AcDbEntity
8
1
100
AcDbLine
6
CONTINUOUS
62
5
10
118.000000
20
337.437500
11
121.750000
21
338.062500
0
LINE
5
33b
100
AcDbEntity
8
1
100
AcDbLine
6
CONTINUOUS
62
5
10
116.750000
20
335.562500
11
122.750000
21
335.562500
0
POLYLINE
5
33c
100
AcDbEntity
8
1
6
CONTINUOUS
62
5
100
AcDb2dPolyline
66
1
10
0.0
20
0.0
30
0.0
70
0
0
VERTEX
5
33d
100
AcDbEntity
8
1
100
AcDbVertex
100
AcDb2dVertex
62
5
10
120.000000
20
337.750000
0
VERTEX
5
33e
100
AcDbEntity
8
1
100
AcDbVertex
100
AcDb2dVertex
62
5
10
120.000000
20
335.562500
0
VERTEX
5
33f
100
AcDbEntity
8
1
100
AcDbVertex
100
AcDb2dVertex
62
5
10
119.750000
20
334.000000
0
VERTEX
5
340
100
AcDbEntity
8
1
100
AcDbVertex
100
AcDb2dVertex
62
5
10
119.000000
20
332.750000
0
VERTEX
5
341
100
AcDbEntity
8
1
100
AcDbVertex
100
AcDb2dVertex
62
5
10
118.250000
20
331.812500
0
SEQEND
5
342
100
AcDbEntity
8
1
0
LINE
5
343
100
AcDbEntity
8
1
100
AcDbLine
6
CONTINUOUS
62
5
10
125.250000
20
326.187500
11
130.250000
21
326.187500
0
POLYLINE
5
344
100
AcDbEntity
8
1
6
CONTINUOUS
62
5
100
AcDb2dPolyline
66
1
10
0.0
20
0.0
30
0.0
70
0
0
VERTEX
5
345
100
AcDbEntity
8
1
100
AcDbVertex
100
AcDb2dVertex
62
5
10
127.750000
20
328.062500
0
VERTEX
5
346
100
AcDbEntity
8
1
100
AcDbVertex
100
AcDb2dVertex
62
5
10
127.750000
20
321.812500
0
VERTEX
5
347
100
AcDbEntity
8
1
100
AcDbVertex
100
AcDb2dVertex
62
5
10
127.250000
20
321.812500
0
SEQEND
5
348
100
AcDbEntity
8
1
0
LINE
5
349
100
AcDbEntity
8
1
100
AcDbLine
6
CONTINUOUS
62
5
10
126.500000
20
324.625000
11
125.250000
21
322.750000
0
LINE
5
34a
100
AcDbEntity
8
1
100
AcDbLine
6
CONTINUOUS
62
5
10
129.250000
20
324.625000
11
130.500000
21
323.062500
0
POLYLINE
5
34b
100
AcDbEntity
8
1
6
CONTINUOUS
62
5
100
AcDb2dPolyline
66
1
10
0.0
20
0.0
30
0.0
70
0
0
VERTEX
5
34c
100
AcDbEntity
8
1
100
AcDbVertex
100
AcDb2dVertex
62
5
10
132.187500
20
300.500000
0
VERTEX
5
34d
100
AcDbEntity
8
1
100
AcDbVertex
100
AcDb2dVertex
62
5
10
133.125000
20
293.000000
0
VERTEX
5
34e
100
AcDbEntity
8
1
100
AcDbVertex
100
AcDb2dVertex
62
5
10
134.062500
20
300.500000
0
VERTEX
5
34f
100
AcDbEntity
8
1
100
AcDbVertex
100
AcDb2dVertex
62
5
10
135.000000
20
293.000000
0
VERTEX
5
350
100
AcDbEntity
8
1
100
AcDbVertex
100
AcDb2dVertex
62
5
10
135.937500
20
300.500000
0
SEQEND
5
351
100
AcDbEntity
8
1
0
LINE
5
352
100
AcDbEntity
8
1
100
AcDbLine
6
CONTINUOUS
62
5
10
92.500000
20
296.750000
11
95.625000
21
296.750000
0
POLYLINE
5
353
100
AcDbEntity
8
1
6
CONTINUOUS
62
5
100
AcDb2dPolyline
66
1
10
0.0
20
0.0
30
0.0
70
0
0
VERTEX
5
354
100
AcDbEntity
8
1
100
AcDbVertex
100
AcDb2dVertex
62
5
10
87.500000
20
293.000000
0
VERTEX
5
355
100
AcDbEntity
8
1
100
AcDbVertex
100
AcDb2dVertex
62
5
10
87.500000
20
300.500000
0
VERTEX
5
356
100
AcDbEntity
8
1
100
AcDbVertex
100
AcDb2dVertex
62
5
10
90.625000
20
293.000000
0
VERTEX
5
357
100
AcDbEntity
8
1
100
AcDbVertex
100
AcDb2dVertex
62
5
10
90.625000
20
300.500000
0
SEQEND
5
358
100
AcDbEntity
8
1
0
POLYLINE
5
359
100
AcDbEntity
8
1
6
CONTINUOUS
62
5
100
AcDb2dPolyline
66
1
10
0.0
20
0.0
30
0.0
70
0
0
VERTEX
5
35a
100
AcDbEntity
8
1
100
AcDbVertex
100
AcDb2dVertex
62
5
10
98.125000
20
299.875000
0
VERTEX
5
35b
100
AcDbEntity
8
1
100
AcDbVertex
100
AcDb2dVertex
62
5
10
99.062500
20
300.500000
0
VERTEX
5
35c
100
AcDbEntity
8
1
100
AcDbVertex
100
AcDb2dVertex
62
5
10
99.062500
20
293.000000
0
SEQEND
5
35d
100
AcDbEntity
8
1
0
LINE
5
35e
100
AcDbEntity
8
1
100
AcDbLine
6
CONTINUOUS
62
5
10
98.437500
20
293.000000
11
99.687500
21
293.000000
0
POLYLINE
5
35f
100
AcDbEntity
8
1
6
CONTINUOUS
62
5
100
AcDb2dPolyline
66
1
10
0.0
20
0.0
30
0.0
70
0
0
VERTEX
5
360
100
AcDbEntity
8
1
100
AcDbVertex
100
AcDb2dVertex
62
5
10
102.500000
20
293.000000
0
VERTEX
5
361
100
AcDbEntity
8
1
100
AcDbVertex
100
AcDb2dVertex
62
5
10
102.500000
20
300.500000
0
VERTEX
5
362
100
AcDbEntity
8
1
100
AcDbVertex
100
AcDb2dVertex
62
5
10
104.062500
20
293.000000
0
VERTEX
5
363
100
AcDbEntity
8
1
100
AcDbVertex
100
AcDb2dVertex
62
5
10
105.625000
20
300.500000
0
VERTEX
5
364
100
AcDbEntity
8
1
100
AcDbVertex
100
AcDb2dVertex
62
5
10
105.625000
20
293.000000
0
SEQEND
5
365
100
AcDbEntity
8
1
0
POLYLINE
5
366
100
AcDbEntity
8
1
6
CONTINUOUS
62
5
100
AcDb2dPolyline
66
1
10
0.0
20
0.0
30
0.0
70
0
0
VERTEX
5
367
100
AcDbEntity
8
1
100
AcDbVertex
100
AcDb2dVertex
62
5
10
107.500000
20
300.500000
0
VERTEX
5
368
100
AcDbEntity
8
1
100
AcDbVertex
100
AcDb2dVertex
62
5
10
107.500000
20
293.000000
0
VERTEX
5
369
100
AcDbEntity
8
1
100
AcDbVertex
100
AcDb2dVertex
62
5
10
110.625000
20
293.000000
0
SEQEND
5
36a
100
AcDbEntity
8
1
0
POLYLINE
5
36b
100
AcDbEntity
8
1
6
CONTINUOUS
62
5
100
AcDb2dPolyline
66
1
10
0.0
20
0.0
30
0.0
70
0
0
VERTEX
5
36c
100
AcDbEntity
8
1
100
AcDbVertex
100
AcDb2dVertex
62
5
10
115.625000
20
298.937500
0
VERTEX
5
36d
100
AcDbEntity
8
1
100
AcDbVertex
100
AcDb2dVertex
62
5
10
115.312500
20
299.875000
0
VERTEX
5
36e
100
AcDbEntity
8
1
100
AcDbVertex
100
AcDb2dVertex
62
5
10
114.687500
20
300.500000
0
VERTEX
5
36f
100
AcDbEntity
8
1
100
AcDbVertex
100
AcDb2dVertex
62
5
10
113.750000
20
300.500000
0
VERTEX
5
370
100
AcDbEntity
8
1
100
AcDbVertex
100
AcDb2dVertex
62
5
10
112.812500
20
299.562500
0
VERTEX
5
371
100
AcDbEntity
8
1
100
AcDbVertex
100
AcDb2dVertex
62
5
10
112.500000
20
298.000000
0
VERTEX
5
372
100
AcDbEntity
8
1
100
AcDbVertex
100
AcDb2dVertex
62
5
10
112.500000
20
295.500000
0
VERTEX
5
373
100
AcDbEntity
8
1
100
AcDbVertex
100
AcDb2dVertex
62
5
10
112.812500
20
293.937500
0
VERTEX
5
374
100
AcDbEntity
8
1
100
AcDbVertex
100
AcDb2dVertex
62
5
10
113.750000
20
293.000000
0
VERTEX
5
375
100
AcDbEntity
8
1
100
AcDbVertex
100
AcDb2dVertex
62
5
10
114.687500
20
293.000000
0
VERTEX
5
376
100
AcDbEntity
8
1
100
AcDbVertex
100
AcDb2dVertex
62
5
10
115.312500
20
293.625000
0
VERTEX
5
377
100
AcDbEntity
8
1
100
AcDbVertex
100
AcDb2dVertex
62
5
10
115.937500
20
295.187500
0
SEQEND
5
378
100
AcDbEntity
8
1
0
POLYLINE
5
379
100
AcDbEntity
8
1
6
CONTINUOUS
62
5
100
AcDb2dPolyline
66
1
10
0.0
20
0.0
30
0.0
70
0
0
VERTEX
5
37a
100
AcDbEntity
8
1
100
AcDbVertex
100
AcDb2dVertex
62
5
10
117.500000
20
300.500000
0
VERTEX
5
37b
100
AcDbEntity
8
1
100
AcDbVertex
100
AcDb2dVertex
62
5
10
117.500000
20
293.000000
0
VERTEX
5
37c
100
AcDbEntity
8
1
100
AcDbVertex
100
AcDb2dVertex
62
5
10
120.625000
20
293.000000
0
SEQEND
5
37d
100
AcDbEntity
8
1
0
LINE
5
37e
100
AcDbEntity
8
1
100
AcDbLine
6
CONTINUOUS
62
5
10
127.500000
20
300.500000
11
127.500000
21
293.000000
0
POLYLINE
5
37f
100
AcDbEntity
8
1
6
CONTINUOUS
62
5
100
AcDb2dPolyline
66
1
10
0.0
20
0.0
30
0.0
70
0
0
VERTEX
5
380
100
AcDbEntity
8
1
100
AcDbVertex
100
AcDb2dVertex
62
5
10
127.500000
20
300.500000
0
VERTEX
5
381
100
AcDbEntity
8
1
100
AcDbVertex
100
AcDb2dVertex
62
5
10
128.750000
20
300.500000
0
VERTEX
5
382
100
AcDbEntity
8
1
100
AcDbVertex
100
AcDb2dVertex
62
5
10
129.687500
20
300.187500
0
VERTEX
5
383
100
AcDbEntity
8
1
100
AcDbVertex
100
AcDb2dVertex
62
5
10
130.312500
20
299.562500
0
VERTEX
5
384
100
AcDbEntity
8
1
100
AcDbVertex
100
AcDb2dVertex
62
5
10
130.625000
20
298.937500
0
VERTEX
5
385
100
AcDbEntity
8
1
100
AcDbVertex
100
AcDb2dVertex
62
5
10
130.625000
20
298.000000
0
VERTEX
5
386
100
AcDbEntity
8
1
100
AcDbVertex
100
AcDb2dVertex
62
5
10
130.312500
20
297.375000
0
VERTEX
5
387
100
AcDbEntity
8
1
100
AcDbVertex
100
AcDb2dVertex
62
5
10
129.687500
20
296.750000
0
VERTEX
5
388
100
AcDbEntity
8
1
100
AcDbVertex
100
AcDb2dVertex
62
5
10
128.750000
20
296.437500
0
VERTEX
5
389
100
AcDbEntity
8
1
100
AcDbVertex
100
AcDb2dVertex
62
5
10
127.500000
20
296.437500
0
SEQEND
5
38a
100
AcDbEntity
8
1
0
POLYLINE
5
38b
100
AcDbEntity
8
1
6
CONTINUOUS
62
5
100
AcDb2dPolyline
66
1
10
0.0
20
0.0
30
0.0
70
0
0
VERTEX
5
38c
100
AcDbEntity
8
1
100
AcDbVertex
100
AcDb2dVertex
62
5
10
76.750000
20
326.812500
0
VERTEX
5
38d
100
AcDbEntity
8
1
100
AcDbVertex
100
AcDb2dVertex
62
5
10
81.750000
20
327.125000
0
VERTEX
5
38e
100
AcDbEntity
8
1
100
AcDbVertex
100
AcDb2dVertex
62
5
10
82.250000
20
326.500000
0
VERTEX
5
38f
100
AcDbEntity
8
1
100
AcDbVertex
100
AcDb2dVertex
62
5
10
81.000000
20
324.937500
0
VERTEX
5
390
100
AcDbEntity
8
1
100
AcDbVertex
100
AcDb2dVertex
62
5
10
79.750000
20
323.375000
0
SEQEND
5
391
100
AcDbEntity
8
1
0
POLYLINE
5
392
100
AcDbEntity
8
1
6
CONTINUOUS
62
5
100
AcDb2dPolyline
66
1
10
0.0
20
0.0
30
0.0
70
0
0
VERTEX
5
393
100
AcDbEntity
8
1
100
AcDbVertex
100
AcDb2dVertex
62
5
10
78.500000
20
324.625000
0
VERTEX
5
394
100
AcDbEntity
8
1
100
AcDbVertex
100
AcDb2dVertex
62
5
10
79.750000
20
323.375000
0
VERTEX
5
395
100
AcDbEntity
8
1
100
AcDbVertex
100
AcDb2dVertex
62
5
10
80.250000
20
322.437500
0
SEQEND
5
396
100
AcDbEntity
8
1
0
LINE
5
397
100
AcDbEntity
8
1
100
AcDbLine
6
CONTINUOUS
62
5
10
76.500000
20
336.500000
11
78.500000
21
336.500000
0
LINE
5
398
100
AcDbEntity
8
1
100
AcDbLine
6
CONTINUOUS
62
5
10
76.250000
20
332.125000
11
78.500000
21
333.375000
0
LINE
5
399
100
AcDbEntity
8
1
100
AcDbLine
6
CONTINUOUS
62
5
10
77.500000
20
339.000000
11
77.500000
21
332.750000
0
POLYLINE
5
39a
100
AcDbEntity
8
1
6
CONTINUOUS
62
5
100
AcDb2dPolyline
66
1
10
0.0
20
0.0
30
0.0
70
1
0
VERTEX
5
39b
100
AcDbEntity
8
1
100
AcDbVertex
100
AcDb2dVertex
62
5
10
79.500000
20
338.687500
0
VERTEX
5
39c
100
AcDbEntity
8
1
100
AcDbVertex
100
AcDb2dVertex
62
5
10
79.500000
20
335.250000
0
VERTEX
5
39d
100
AcDbEntity
8
1
100
AcDbVertex
100
AcDb2dVertex
62
5
10
82.500000
20
335.250000
0
VERTEX
5
39e
100
AcDbEntity
8
1
100
AcDbVertex
100
AcDb2dVertex
62
5
10
82.500000
20
338.687500
0
VERTEX
5
39f
100
AcDbEntity
8
1
100
AcDbVertex
100
AcDb2dVertex
62
5
10
79.500000
20
338.687500
0
SEQEND
5
3a0
100
AcDbEntity
8
1
0
LINE
5
3a1
100
AcDbEntity
8
1
100
AcDbLine
6
CONTINUOUS
62
5
10
79.500000
20
337.125000
11
82.500000
21
337.125000
0
LINE
5
3a2
100
AcDbEntity
8
1
100
AcDbLine
6
CONTINUOUS
62
5
10
81.000000
20
338.687500
11
81.000000
21
331.500000
0
LINE
5
3a3
100
AcDbEntity
8
1
100
AcDbLine
6
CONTINUOUS
62
5
10
79.000000
20
333.687500
11
83.000000
21
333.687500
0
LINE
5
3a4
100
AcDbEntity
8
1
100
AcDbLine
6
CONTINUOUS
62
5
10
78.250000
20
331.500000
11
83.500000
21
331.500000
0
LINE
5
3a5
100
AcDbEntity
8
1
100
AcDbLine
6
CONTINUOUS
62
5
10
50.000000
20
350.000000
11
50.000000
21
318.000000
0
LINE
5
3a6
100
AcDbEntity
8
1
100
AcDbLine
6
CONTINUOUS
62
5
10
77.500000
20
296.750000
11
80.625000
21
296.750000
0
POLYLINE
5
3a7
100
AcDbEntity
8
1
6
CONTINUOUS
62
5
100
AcDb2dPolyline
66
1
10
0.0
20
0.0
30
0.0
70
0
0
VERTEX
5
3a8
100
AcDbEntity
8
1
100
AcDbVertex
100
AcDb2dVertex
62
5
10
65.312500
20
300.500000
0
VERTEX
5
3a9
100
AcDbEntity
8
1
100
AcDbVertex
100
AcDb2dVertex
62
5
10
65.312500
20
294.875000
0
VERTEX
5
3aa
100
AcDbEntity
8
1
100
AcDbVertex
100
AcDb2dVertex
62
5
10
65.000000
20
293.625000
0
VERTEX
5
3ab
100
AcDbEntity
8
1
100
AcDbVertex
100
AcDb2dVertex
62
5
10
64.375000
20
293.000000
0
VERTEX
5
3ac
100
AcDbEntity
8
1
100
AcDbVertex
100
AcDb2dVertex
62
5
10
63.437500
20
293.000000
0
VERTEX
5
3ad
100
AcDbEntity
8
1
100
AcDbVertex
100
AcDb2dVertex
62
5
10
62.812500
20
293.625000
0
VERTEX
5
3ae
100
AcDbEntity
8
1
100
AcDbVertex
100
AcDb2dVertex
62
5
10
62.500000
20
294.875000
0
SEQEND
5
3af
100
AcDbEntity
8
1
0
POLYLINE
5
3b0
100
AcDbEntity
8
1
6
CONTINUOUS
62
5
100
AcDb2dPolyline
66
1
10
0.0
20
0.0
30
0.0
70
0
0
VERTEX
5
3b1
100
AcDbEntity
8
1
100
AcDbVertex
100
AcDb2dVertex
62
5
10
70.625000
20
300.500000
0
VERTEX
5
3b2
100
AcDbEntity
8
1
100
AcDbVertex
100
AcDb2dVertex
62
5
10
67.500000
20
300.500000
0
VERTEX
5
3b3
100
AcDbEntity
8
1
100
AcDbVertex
100
AcDb2dVertex
62
5
10
67.500000
20
293.000000
0
VERTEX
5
3b4
100
AcDbEntity
8
1
100
AcDbVertex
100
AcDb2dVertex
62
5
10
70.937500
20
293.000000
0
SEQEND
5
3b5
100
AcDbEntity
8
1
0
LINE
5
3b6
100
AcDbEntity
8
1
100
AcDbLine
6
CONTINUOUS
62
5
10
67.500000
20
296.750000
11
70.312500
21
296.750000
0
POLYLINE
5
3b7
100
AcDbEntity
8
1
6
CONTINUOUS
62
5
100
AcDb2dPolyline
66
1
10
0.0
20
0.0
30
0.0
70
0
0
VERTEX
5
3b8
100
AcDbEntity
8
1
100
AcDbVertex
100
AcDb2dVertex
62
5
10
75.625000
20
298.937500
0
VERTEX
5
3b9
100
AcDbEntity
8
1
100
AcDbVertex
100
AcDb2dVertex
62
5
10
75.312500
20
299.875000
0
VERTEX
5
3ba
100
AcDbEntity
8
1
100
AcDbVertex
100
AcDb2dVertex
62
5
10
74.687500
20
300.500000
0
VERTEX
5
3bb
100
AcDbEntity
8
1
100
AcDbVertex
100
AcDb2dVertex
62
5
10
73.750000
20
300.500000
0
VERTEX
5
3bc
100
AcDbEntity
8
1
100
AcDbVertex
100
AcDb2dVertex
62
5
10
72.812500
20
299.562500
0
VERTEX
5
3bd
100
AcDbEntity
8
1
100
AcDbVertex
100
AcDb2dVertex
62
5
10
72.500000
20
298.000000
0
VERTEX
5
3be
100
AcDbEntity
8
1
100
AcDbVertex
100
AcDb2dVertex
62
5
10
72.500000
20
295.500000
0
VERTEX
5
3bf
100
AcDbEntity
8
1
100
AcDbVertex
100
AcDb2dVertex
62
5
10
72.812500
20
293.937500
0
VERTEX
5
3c0
100
AcDbEntity
8
1
100
AcDbVertex
100
AcDb2dVertex
62
5
10
73.750000
20
293.000000
0
VERTEX
5
3c1
100
AcDbEntity
8
1
100
AcDbVertex
100
AcDb2dVertex
62
5
10
74.687500
20
293.000000
0
VERTEX
5
3c2
100
AcDbEntity
8
1
100
AcDbVertex
100
AcDb2dVertex
62
5
10
75.312500
20
293.625000
0
VERTEX
5
3c3
100
AcDbEntity
8
1
100
AcDbVertex
100
AcDb2dVertex
62
5
10
75.937500
20
295.187500
0
SEQEND
5
3c4
100
AcDbEntity
8
1
0
LINE
5
3c5
100
AcDbEntity
8
1
100
AcDbLine
6
CONTINUOUS
62
5
10
85.000000
20
339.000000
11
86.000000
21
338.062500
0
POLYLINE
5
3c6
100
AcDbEntity
8
1
6
CONTINUOUS
62
5
100
AcDb2dPolyline
66
1
10
0.0
20
0.0
30
0.0
70
0
0
VERTEX
5
3c7
100
AcDbEntity
8
1
100
AcDbVertex
100
AcDb2dVertex
62
5
10
84.750000
20
335.875000
0
VERTEX
5
3c8
100
AcDbEntity
8
1
100
AcDbVertex
100
AcDb2dVertex
62
5
10
86.000000
20
335.875000
0
VERTEX
5
3c9
100
AcDbEntity
8
1
100
AcDbVertex
100
AcDb2dVertex
62
5
10
86.000000
20
332.750000
0
VERTEX
5
3ca
100
AcDbEntity
8
1
100
AcDbVertex
100
AcDb2dVertex
62
5
10
84.750000
20
331.187500
0
SEQEND
5
3cb
100
AcDbEntity
8
1
0
POLYLINE
5
3cc
100
AcDbEntity
8
1
6
CONTINUOUS
62
5
100
AcDb2dPolyline
66
1
10
0.0
20
0.0
30
0.0
70
0
0
VERTEX
5
3cd
100
AcDbEntity
8
1
100
AcDbVertex
100
AcDb2dVertex
62
5
10
86.000000
20
332.750000
0
VERTEX
5
3ce
100
AcDbEntity
8
1
100
AcDbVertex
100
AcDb2dVertex
62
5
10
86.750000
20
331.500000
0
VERTEX
5
3cf
100
AcDbEntity
8
1
100
AcDbVertex
100
AcDb2dVertex
62
5
10
87.750000
20
331.187500
0
VERTEX
5
3d0
100
AcDbEntity
8
1
100
AcDbVertex
100
AcDb2dVertex
62
5
10
91.500000
20
331.187500
0
SEQEND
5
3d1
100
AcDbEntity
8
1
0
POLYLINE
5
3d2
100
AcDbEntity
8
1
6
CONTINUOUS
62
5
100
AcDb2dPolyline
66
1
10
0.0
20
0.0
30
0.0
70
0
0
VERTEX
5
3d3
100
AcDbEntity
8
1
100
AcDbVertex
100
AcDb2dVertex
62
5
10
88.750000
20
336.500000
0
VERTEX
5
3d4
100
AcDbEntity
8
1
100
AcDbVertex
100
AcDb2dVertex
62
5
10
88.000000
20
334.625000
0
VERTEX
5
3d5
100
AcDbEntity
8
1
100
AcDbVertex
100
AcDb2dVertex
62
5
10
87.250000
20
333.375000
0
VERTEX
5
3d6
100
AcDbEntity
8
1
100
AcDbVertex
100
AcDb2dVertex
62
5
10
86.750000
20
332.750000
0
SEQEND
5
3d7
100
AcDbEntity
8
1
0
POLYLINE
5
3d8
100
AcDbEntity
8
1
6
CONTINUOUS
62
5
100
AcDb2dPolyline
66
1
10
0.0
20
0.0
30
0.0
70
0
0
VERTEX
5
3d9
100
AcDbEntity
8
1
100
AcDbVertex
100
AcDb2dVertex
62
5
10
87.500000
20
339.312500
0
VERTEX
5
3da
100
AcDbEntity
8
1
100
AcDbVertex
100
AcDb2dVertex
62
5
10
88.750000
20
339.312500
0
VERTEX
5
3db
100
AcDbEntity
8
1
100
AcDbVertex
100
AcDb2dVertex
62
5
10
88.750000
20
336.500000
0
VERTEX
5
3dc
100
AcDbEntity
8
1
100
AcDbVertex
100
AcDb2dVertex
62
5
10
89.500000
20
334.625000
0
VERTEX
5
3dd
100
AcDbEntity
8
1
100
AcDbVertex
100
AcDb2dVertex
62
5
10
90.500000
20
333.375000
0
VERTEX
5
3de
100
AcDbEntity
8
1
100
AcDbVertex
100
AcDb2dVertex
62
5
10
91.250000
20
332.750000
0
SEQEND
5
3df
100
AcDbEntity
8
1
0
POLYLINE
5
3e0
100
AcDbEntity
8
1
6
CONTINUOUS
62
5
100
AcDb2dPolyline
66
1
10
0.0
20
0.0
30
0.0
70
0
0
VERTEX
5
3e1
100
AcDbEntity
8
1
100
AcDbVertex
100
AcDb2dVertex
62
5
10
84.750000
20
325.562500
0
VERTEX
5
3e2
100
AcDbEntity
8
1
100
AcDbVertex
100
AcDb2dVertex
62
5
10
85.000000
20
325.250000
0
VERTEX
5
3e3
100
AcDbEntity
8
1
100
AcDbVertex
100
AcDb2dVertex
62
5
10
91.750000
20
325.250000
0
SEQEND
5
3e4
100
AcDbEntity
8
1
0
LINE
5
3e5
100
AcDbEntity
8
1
100
AcDbLine
6
CONTINUOUS
62
5
10
82.500000
20
300.500000
11
82.500000
21
293.000000
0
POLYLINE
5
3e6
100
AcDbEntity
8
1
6
CONTINUOUS
62
5
100
AcDb2dPolyline
66
1
10
0.0
20
0.0
30
0.0
70
0
0
VERTEX
5
3e7
100
AcDbEntity
8
1
100
AcDbVertex
100
AcDb2dVertex
62
5
10
82.500000
20
300.500000
0
VERTEX
5
3e8
100
AcDbEntity
8
1
100
AcDbVertex
100
AcDb2dVertex
62
5
10
84.062500
20
300.500000
0
VERTEX
5
3e9
100
AcDbEntity
8
1
100
AcDbVertex
100
AcDb2dVertex
62
5
10
84.687500
20
300.187500
0
VERTEX
5
3ea
100
AcDbEntity
8
1
100
AcDbVertex
100
AcDb2dVertex
62
5
10
85.000000
20
299.875000
0
VERTEX
5
3eb
100
AcDbEntity
8
1
100
AcDbVertex
100
AcDb2dVertex
62
5
10
85.312500
20
299.250000
0
VERTEX
5
3ec
100
AcDbEntity
8
1
100
AcDbVertex
100
AcDb2dVertex
62
5
10
85.312500
20
298.312500
0
VERTEX
5
3ed
100
AcDbEntity
8
1
100
AcDbVertex
100
AcDb2dVertex
62
5
10
85.000000
20
297.687500
0
VERTEX
5
3ee
100
AcDbEntity
8
1
100
AcDbVertex
100
AcDb2dVertex
62
5
10
84.687500
20
297.375000
0
VERTEX
5
3ef
100
AcDbEntity
8
1
100
AcDbVertex
100
AcDb2dVertex
62
5
10
84.062500
20
297.062500
0
VERTEX
5
3f0
100
AcDbEntity
8
1
100
AcDbVertex
100
AcDb2dVertex
62
5
10
82.500000
20
297.062500
0
SEQEND
5
3f1
100
AcDbEntity
8
1
0
POLYLINE
5
3f2
100
AcDbEntity
8
1
6
CONTINUOUS
62
5
100
AcDb2dPolyline
66
1
10
0.0
20
0.0
30
0.0
70
0
0
VERTEX
5
3f3
100
AcDbEntity
8
1
100
AcDbVertex
100
AcDb2dVertex
62
5
10
84.062500
20
297.062500
0
VERTEX
5
3f4
100
AcDbEntity
8
1
100
AcDbVertex
100
AcDb2dVertex
62
5
10
84.687500
20
296.750000
0
VERTEX
5
3f5
100
AcDbEntity
8
1
100
AcDbVertex
100
AcDb2dVertex
62
5
10
85.312500
20
296.125000
0
VERTEX
5
3f6
100
AcDbEntity
8
1
100
AcDbVertex
100
AcDb2dVertex
62
5
10
85.625000
20
295.500000
0
VERTEX
5
3f7
100
AcDbEntity
8
1
100
AcDbVertex
100
AcDb2dVertex
62
5
10
85.625000
20
294.250000
0
VERTEX
5
3f8
100
AcDbEntity
8
1
100
AcDbVertex
100
AcDb2dVertex
62
5
10
85.312500
20
293.625000
0
VERTEX
5
3f9
100
AcDbEntity
8
1
100
AcDbVertex
100
AcDb2dVertex
62
5
10
85.000000
20
293.312500
0
VERTEX
5
3fa
100
AcDbEntity
8
1
100
AcDbVertex
100
AcDb2dVertex
62
5
10
84.375000
20
293.000000
0
VERTEX
5
3fb
100
AcDbEntity
8
1
100
AcDbVertex
100
AcDb2dVertex
62
5
10
82.500000
20
293.000000
0
SEQEND
5
3fc
100
AcDbEntity
8
1
0
POLYLINE
5
3fd
100
AcDbEntity
8
1
6
DOT2
62
5
100
AcDb2dPolyline
66
1
10
0.0
20
0.0
30
0.0
70
0
0
VERTEX
5
3fe
100
AcDbEntity
8
1
100
AcDbVertex
100
AcDb2dVertex
62
5
10
166.250000
20
246.654324
0
VERTEX
5
3ff
100
AcDbEntity
8
1
100
AcDbVertex
100
AcDb2dVertex
62
5
10
166.562500
20
248.216824
0
VERTEX
5
400
100
AcDbEntity
8
1
100
AcDbVertex
100
AcDb2dVertex
62
5
10
167.500000
20
248.841824
0
VERTEX
5
401
100
AcDbEntity
8
1
100
AcDbVertex
100
AcDb2dVertex
62
5
10
168.437500
20
248.841824
0
VERTEX
5
402
100
AcDbEntity
8
1
100
AcDbVertex
100
AcDb2dVertex
62
5
10
169.062500
20
248.529324
0
VERTEX
5
403
100
AcDbEntity
8
1
100
AcDbVertex
100
AcDb2dVertex
62
5
10
169.375000
20
247.591824
0
VERTEX
5
404
100
AcDbEntity
8
1
100
AcDbVertex
100
AcDb2dVertex
62
5
10
169.375000
20
246.654324
0
VERTEX
5
405
100
AcDbEntity
8
1
100
AcDbVertex
100
AcDb2dVertex
62
5
10
169.062500
20
245.716824
0
VERTEX
5
406
100
AcDbEntity
8
1
100
AcDbVertex
100
AcDb2dVertex
62
5
10
166.250000
20
241.341824
0
VERTEX
5
407
100
AcDbEntity
8
1
100
AcDbVertex
100
AcDb2dVertex
62
5
10
169.375000
20
241.341824
0
VERTEX
5
408
100
AcDbEntity
8
1
100
AcDbVertex
100
AcDb2dVertex
62
5
10
169.375000
20
242.279324
0
SEQEND
5
409
100
AcDbEntity
8
1
0
POLYLINE
5
40a
100
AcDbEntity
8
1
6
DOT2
62
5
100
AcDb2dPolyline
66
1
10
0.0
20
0.0
30
0.0
70
0
0
VERTEX
5
40b
100
AcDbEntity
8
1
100
AcDbVertex
100
AcDb2dVertex
62
5
10
116.437500
20
226.341824
0
VERTEX
5
40c
100
AcDbEntity
8
1
100
AcDbVertex
100
AcDb2dVertex
62
5
10
114.875000
20
226.654324
0
VERTEX
5
40d
100
AcDbEntity
8
1
100
AcDbVertex
100
AcDb2dVertex
62
5
10
114.250000
20
227.591824
0
VERTEX
5
40e
100
AcDbEntity
8
1
100
AcDbVertex
100
AcDb2dVertex
62
5
10
114.250000
20
228.529324
0
VERTEX
5
40f
100
AcDbEntity
8
1
100
AcDbVertex
100
AcDb2dVertex
62
5
10
114.562500
20
229.154324
0
VERTEX
5
410
100
AcDbEntity
8
1
100
AcDbVertex
100
AcDb2dVertex
62
5
10
115.500000
20
229.466824
0
VERTEX
5
411
100
AcDbEntity
8
1
100
AcDbVertex
100
AcDb2dVertex
62
5
10
116.437500
20
229.466824
0
VERTEX
5
412
100
AcDbEntity
8
1
100
AcDbVertex
100
AcDb2dVertex
62
5
10
117.375000
20
229.154324
0
VERTEX
5
413
100
AcDbEntity
8
1
100
AcDbVertex
100
AcDb2dVertex
62
5
10
121.750000
20
226.341824
0
VERTEX
5
414
100
AcDbEntity
8
1
100
AcDbVertex
100
AcDb2dVertex
62
5
10
121.750000
20
229.466824
0
VERTEX
5
415
100
AcDbEntity
8
1
100
AcDbVertex
100
AcDb2dVertex
62
5
10
120.812500
20
229.466824
0
SEQEND
5
416
100
AcDbEntity
8
1
0
POLYLINE
5
417
100
AcDbEntity
8
1
6
DOT2
62
5
100
AcDb2dPolyline
66
1
10
0.0
20
0.0
30
0.0
70
0
0
VERTEX
5
418
100
AcDbEntity
8
1
100
AcDbVertex
100
AcDb2dVertex
62
5
10
116.437500
20
231.341824
0
VERTEX
5
419
100
AcDbEntity
8
1
100
AcDbVertex
100
AcDb2dVertex
62
5
10
114.875000
20
231.654324
0
VERTEX
5
41a
100
AcDbEntity
8
1
100
AcDbVertex
100
AcDb2dVertex
62
5
10
114.250000
20
232.591824
0
VERTEX
5
41b
100
AcDbEntity
8
1
100
AcDbVertex
100
AcDb2dVertex
62
5
10
114.250000
20
233.529324
0
VERTEX
5
41c
100
AcDbEntity
8
1
100
AcDbVertex
100
AcDb2dVertex
62
5
10
114.562500
20
234.154324
0
VERTEX
5
41d
100
AcDbEntity
8
1
100
AcDbVertex
100
AcDb2dVertex
62
5
10
115.500000
20
234.466824
0
VERTEX
5
41e
100
AcDbEntity
8
1
100
AcDbVertex
100
AcDb2dVertex
62
5
10
116.437500
20
234.466824
0
VERTEX
5
41f
100
AcDbEntity
8
1
100
AcDbVertex
100
AcDb2dVertex
62
5
10
117.375000
20
234.154324
0
VERTEX
5
420
100
AcDbEntity
8
1
100
AcDbVertex
100
AcDb2dVertex
62
5
10
121.750000
20
231.341824
0
VERTEX
5
421
100
AcDbEntity
8
1
100
AcDbVertex
100
AcDb2dVertex
62
5
10
121.750000
20
234.466824
0
VERTEX
5
422
100
AcDbEntity
8
1
100
AcDbVertex
100
AcDb2dVertex
62
5
10
120.812500
20
234.466824
0
SEQEND
5
423
100
AcDbEntity
8
1
0
LINE
5
424
100
AcDbEntity
8
1
100
AcDbLine
6
DOT2
62
5
10
121.125000
20
236.966824
11
121.750000
21
236.341824
0
POLYLINE
5
425
100
AcDbEntity
8
1
6
DOT2
62
5
100
AcDb2dPolyline
66
1
10
0.0
20
0.0
30
0.0
70
0
0
VERTEX
5
426
100
AcDbEntity
8
1
100
AcDbVertex
100
AcDb2dVertex
62
5
10
121.125000
20
236.341824
0
VERTEX
5
427
100
AcDbEntity
8
1
100
AcDbVertex
100
AcDb2dVertex
62
5
10
121.750000
20
236.966824
0
VERTEX
5
428
100
AcDbEntity
8
1
100
AcDbVertex
100
AcDb2dVertex
62
5
10
121.750000
20
236.341824
0
VERTEX
5
429
100
AcDbEntity
8
1
100
AcDbVertex
100
AcDb2dVertex
62
5
10
121.125000
20
236.341824
0
VERTEX
5
42a
100
AcDbEntity
8
1
100
AcDbVertex
100
AcDb2dVertex
62
5
10
121.125000
20
236.966824
0
VERTEX
5
42b
100
AcDbEntity
8
1
100
AcDbVertex
100
AcDb2dVertex
62
5
10
121.750000
20
236.966824
0
SEQEND
5
42c
100
AcDbEntity
8
1
0
POLYLINE
5
42d
100
AcDbEntity
8
1
6
DOT2
62
5
100
AcDb2dPolyline
66
1
10
0.0
20
0.0
30
0.0
70
0
0
VERTEX
5
42e
100
AcDbEntity
8
1
100
AcDbVertex
100
AcDb2dVertex
62
5
10
115.187500
20
241.341824
0
VERTEX
5
42f
100
AcDbEntity
8
1
100
AcDbVertex
100
AcDb2dVertex
62
5
10
114.250000
20
241.341824
0
VERTEX
5
430
100
AcDbEntity
8
1
100
AcDbVertex
100
AcDb2dVertex
62
5
10
114.250000
20
244.466824
0
VERTEX
5
431
100
AcDbEntity
8
1
100
AcDbVertex
100
AcDb2dVertex
62
5
10
114.875000
20
244.466824
0
VERTEX
5
432
100
AcDbEntity
8
1
100
AcDbVertex
100
AcDb2dVertex
62
5
10
116.437500
20
243.841824
0
VERTEX
5
433
100
AcDbEntity
8
1
100
AcDbVertex
100
AcDb2dVertex
62
5
10
118.625000
20
243.216824
0
VERTEX
5
434
100
AcDbEntity
8
1
100
AcDbVertex
100
AcDb2dVertex
62
5
10
121.750000
20
242.591824
0
SEQEND
5
435
100
AcDbEntity
8
1
0
LINE
5
436
100
AcDbEntity
8
1
100
AcDbLine
6
CONTINUOUS
62
5
10
151.500000
20
213.841824
11
152.500000
21
213.841824
0
ARC
5
437
100
AcDbEntity
8
1
100
AcDbCircle
6
CONTINUOUS
62
5
10
151.800000
20
213.941824
40
0.500000
100
AcDbArc
50
0.000000
51
89.999999
0
LINE
5
438
100
AcDbEntity
8
1
100
AcDbLine
6
CONTINUOUS
62
5
10
152.300000
20
213.941824
11
152.300000
21
213.841824
0
LINE
5
439
100
AcDbEntity
8
1
100
AcDbLine
6
CONTINUOUS
62
5
10
151.000000
20
214.441824
11
151.800000
21
214.441824
0
LINE
5
43a
100
AcDbEntity
8
1
100
AcDbLine
6
CONTINUOUS
62
5
10
155.600000
20
213.841824
11
156.000000
21
213.841824
0
LINE
5
43b
100
AcDbEntity
8
1
100
AcDbLine
6
CONTINUOUS
62
5
10
154.000000
20
207.391824
11
154.000000
21
209.283566
0
ARC
5
43c
100
AcDbEntity
8
1
100
AcDbCircle
6
CONTINUOUS
62
5
10
154.200000
20
209.741824
40
0.500000
100
AcDbArc
50
118.358659
51
-89.999999
0
POLYLINE
5
43d
100
AcDbEntity
8
1
6
CONTINUOUS
62
5
100
AcDb2dPolyline
66
1
10
0.0
20
0.0
30
0.0
70
0
0
VERTEX
5
43e
100
AcDbEntity
8
1
100
AcDbVertex
100
AcDb2dVertex
62
5
10
153.962505
20
210.181820
0
VERTEX
5
43f
100
AcDbEntity
8
1
100
AcDbVertex
100
AcDb2dVertex
62
5
10
155.000000
20
210.741824
0
VERTEX
5
440
100
AcDbEntity
8
1
100
AcDbVertex
100
AcDb2dVertex
62
5
10
155.500000
20
210.741824
0
VERTEX
5
441
100
AcDbEntity
8
1
100
AcDbVertex
100
AcDb2dVertex
62
5
10
156.000000
20
211.241824
0
VERTEX
5
442
100
AcDbEntity
8
1
100
AcDbVertex
100
AcDb2dVertex
62
5
10
156.000000
20
211.241824
0
VERTEX
5
443
100
AcDbEntity
8
1
100
AcDbVertex
100
AcDb2dVertex
62
5
10
156.000000
20
211.941824
0
VERTEX
5
444
100
AcDbEntity
8
1
100
AcDbVertex
100
AcDb2dVertex
62
5
10
155.600000
20
211.941824
0
VERTEX
5
445
100
AcDbEntity
8
1
100
AcDbVertex
100
AcDb2dVertex
62
5
10
155.600000
20
214.796238
0
SEQEND
5
446
100
AcDbEntity
8
1
0
LINE
5
447
100
AcDbEntity
8
1
100
AcDbLine
6
CONTINUOUS
62
5
10
155.000000
20
209.241824
11
154.200000
21
209.241824
0
ARC
5
448
100
AcDbEntity
8
1
100
AcDbCircle
6
CONTINUOUS
62
5
10
151.000000
20
213.941824
40
0.500000
100
AcDbArc
50
0.000000
51
89.999999
0
LINE
5
449
100
AcDbEntity
8
1
100
AcDbLine
6
CONTINUOUS
62
5
10
151.500000
20
213.941824
11
151.500000
21
213.641970
0
LINE
5
44a
100
AcDbEntity
8
1
100
AcDbLine
6
CONTINUOUS
62
5
10
149.000000
20
211.941824
11
149.000000
21
213.441824
0
ARC
5
44b
100
AcDbEntity
8
1
100
AcDbCircle
6
CONTINUOUS
62
5
10
150.000000
20
213.441824
40
1.000000
100
AcDbArc
50
89.999999
51
179.999998
0
LINE
5
44c
100
AcDbEntity
8
1
100
AcDbLine
6
CONTINUOUS
62
5
10
150.000000
20
214.441824
11
151.000000
21
214.441824
0
ARC
5
44d
100
AcDbEntity
8
1
100
AcDbCircle
6
CONTINUOUS
62
5
10
151.800000
20
214.241824
40
0.500000
100
AcDbArc
50
0.000000
51
89.999999
0
LINE
5
44e
100
AcDbEntity
8
1
100
AcDbLine
6
CONTINUOUS
62
5
10
151.800000
20
214.741824
11
150.000000
21
214.741824
0
ARC
5
44f
100
AcDbEntity
8
1
100
AcDbCircle
6
CONTINUOUS
62
5
10
150.000000
20
213.241824
40
1.500000
100
AcDbArc
50
89.999999
51
179.999998
0
LINE
5
450
100
AcDbEntity
8
1
100
AcDbLine
6
CONTINUOUS
62
5
10
148.500000
20
213.241824
11
148.500000
21
211.941824
0
LINE
5
451
100
AcDbEntity
8
1
100
AcDbLine
6
CONTINUOUS
62
5
10
152.300000
20
213.841824
11
152.300000
21
214.241824
0
LINE
5
452
100
AcDbEntity
8
1
100
AcDbLine
6
CONTINUOUS
62
5
10
151.500000
20
193.641824
11
152.500000
21
193.641824
0
ARC
5
453
100
AcDbEntity
8
1
100
AcDbCircle
6
CONTINUOUS
62
5
10
151.800000
20
193.541824
40
0.500000
100
AcDbArc
50
-89.999999
51
-0.000000
0
LINE
5
454
100
AcDbEntity
8
1
100
AcDbLine
6
CONTINUOUS
62
5
10
152.300000
20
193.541824
11
152.300000
21
193.641824
0
LINE
5
455
100
AcDbEntity
8
1
100
AcDbLine
6
CONTINUOUS
62
5
10
151.000000
20
193.041824
11
151.800000
21
193.041824
0
LINE
5
456
100
AcDbEntity
8
1
100
AcDbLine
6
CONTINUOUS
62
5
10
155.600000
20
193.641824
11
156.000000
21
193.641824
0
POLYLINE
5
457
100
AcDbEntity
8
1
6
CONTINUOUS
62
5
100
AcDb2dPolyline
66
1
10
0.0
20
0.0
30
0.0
70
0
0
VERTEX
5
458
100
AcDbEntity
8
1
100
AcDbVertex
100
AcDb2dVertex
62
5
10
156.000000
20
195.541824
0
VERTEX
5
459
100
AcDbEntity
8
1
100
AcDbVertex
100
AcDb2dVertex
62
5
10
155.600000
20
195.541824
0
VERTEX
5
45a
100
AcDbEntity
8
1
100
AcDbVertex
100
AcDb2dVertex
62
5
10
155.600000
20
192.687412
0
SEQEND
5
45b
100
AcDbEntity
8
1
0
ARC
5
45c
100
AcDbEntity
8
1
100
AcDbCircle
6
CONTINUOUS
62
5
10
154.200000
20
197.741824
40
0.500000
100
AcDbArc
50
89.999999
51
-118.358659
0
POLYLINE
5
45d
100
AcDbEntity
8
1
6
CONTINUOUS
62
5
100
AcDb2dPolyline
66
1
10
0.0
20
0.0
30
0.0
70
0
0
VERTEX
5
45e
100
AcDbEntity
8
1
100
AcDbVertex
100
AcDb2dVertex
62
5
10
153.962505
20
197.301828
0
VERTEX
5
45f
100
AcDbEntity
8
1
100
AcDbVertex
100
AcDb2dVertex
62
5
10
155.000000
20
196.741824
0
VERTEX
5
460
100
AcDbEntity
8
1
100
AcDbVertex
100
AcDb2dVertex
62
5
10
155.500000
20
196.741824
0
VERTEX
5
461
100
AcDbEntity
8
1
100
AcDbVertex
100
AcDb2dVertex
62
5
10
156.000000
20
196.241824
0
SEQEND
5
462
100
AcDbEntity
8
1
0
LINE
5
463
100
AcDbEntity
8
1
100
AcDbLine
6
CONTINUOUS
62
5
10
155.000000
20
198.241824
11
154.200000
21
198.241824
0
POLYLINE
5
464
100
AcDbEntity
8
1
6
CONTINUOUS
62
5
100
AcDb2dPolyline
66
1
10
0.0
20
0.0
30
0.0
70
0
0
VERTEX
5
465
100
AcDbEntity
8
1
100
AcDbVertex
100
AcDb2dVertex
62
5
10
167.875032
20
197.367787
0
VERTEX
5
466
100
AcDbEntity
8
1
100
AcDbVertex
100
AcDb2dVertex
62
5
10
167.874229
20
197.366985
0
VERTEX
5
467
100
AcDbEntity
8
1
100
AcDbVertex
100
AcDb2dVertex
62
5
10
167.873427
20
197.366182
0
VERTEX
5
468
100
AcDbEntity
8
1
100
AcDbVertex
100
AcDb2dVertex
62
5
10
167.872589
20
197.365380
0
VERTEX
5
469
100
AcDbEntity
8
1
100
AcDbVertex
100
AcDb2dVertex
62
5
10
167.871787
20
197.364612
0
VERTEX
5
46a
100
AcDbEntity
8
1
100
AcDbVertex
100
AcDb2dVertex
62
5
10
167.870949
20
197.363844
0
VERTEX
5
46b
100
AcDbEntity
8
1
100
AcDbVertex
100
AcDb2dVertex
62
5
10
167.870147
20
197.363042
0
VERTEX
5
46c
100
AcDbEntity
8
1
100
AcDbVertex
100
AcDb2dVertex
62
5
10
167.869309
20
197.362309
0
VERTEX
5
46d
100
AcDbEntity
8
1
100
AcDbVertex
100
AcDb2dVertex
62
5
10
167.868472
20
197.361541
0
VERTEX
5
46e
100
AcDbEntity
8
1
100
AcDbVertex
100
AcDb2dVertex
62
5
10
167.867634
20
197.360774
0
VERTEX
5
46f
100
AcDbEntity
8
1
100
AcDbVertex
100
AcDb2dVertex
62
5
10
167.866797
20
197.360041
0
VERTEX
5
470
100
AcDbEntity
8
1
100
AcDbVertex
100
AcDb2dVertex
62
5
10
167.865960
20
197.359308
0
VERTEX
5
471
100
AcDbEntity
8
1
100
AcDbVertex
100
AcDb2dVertex
62
5
10
167.865122
20
197.358540
0
VERTEX
5
472
100
AcDbEntity
8
1
100
AcDbVertex
100
AcDb2dVertex
62
5
10
167.864285
20
197.357842
0
VERTEX
5
473
100
AcDbEntity
8
1
100
AcDbVertex
100
AcDb2dVertex
62
5
10
167.863412
20
197.357110
0
VERTEX
5
474
100
AcDbEntity
8
1
100
AcDbVertex
100
AcDb2dVertex
62
5
10
167.862575
20
197.356377
0
VERTEX
5
475
100
AcDbEntity
8
1
100
AcDbVertex
100
AcDb2dVertex
62
5
10
167.861702
20
197.355679
0
VERTEX
5
476
100
AcDbEntity
8
1
100
AcDbVertex
100
AcDb2dVertex
62
5
10
167.860865
20
197.354981
0
VERTEX
5
477
100
AcDbEntity
8
1
100
AcDbVertex
100
AcDb2dVertex
62
5
10
167.859993
20
197.354283
0
VERTEX
5
478
100
AcDbEntity
8
1
100
AcDbVertex
100
AcDb2dVertex
62
5
10
167.859120
20
197.353585
0
VERTEX
5
479
100
AcDbEntity
8
1
100
AcDbVertex
100
AcDb2dVertex
62
5
10
167.858248
20
197.352922
0
VERTEX
5
47a
100
AcDbEntity
8
1
100
AcDbVertex
100
AcDb2dVertex
62
5
10
167.857376
20
197.352225
0
VERTEX
5
47b
100
AcDbEntity
8
1
100
AcDbVertex
100
AcDb2dVertex
62
5
10
167.856503
20
197.351562
0
VERTEX
5
47c
100
AcDbEntity
8
1
100
AcDbVertex
100
AcDb2dVertex
62
5
10
167.855631
20
197.350899
0
VERTEX
5
47d
100
AcDbEntity
8
1
100
AcDbVertex
100
AcDb2dVertex
62
5
10
167.854759
20
197.350236
0
VERTEX
5
47e
100
AcDbEntity
8
1
100
AcDbVertex
100
AcDb2dVertex
62
5
10
167.853851
20
197.349573
0
VERTEX
5
47f
100
AcDbEntity
8
1
100
AcDbVertex
100
AcDb2dVertex
62
5
10
167.852979
20
197.348944
0
VERTEX
5
480
100
AcDbEntity
8
1
100
AcDbVertex
100
AcDb2dVertex
62
5
10
167.852072
20
197.348316
0
VERTEX
5
481
100
AcDbEntity
8
1
100
AcDbVertex
100
AcDb2dVertex
62
5
10
167.851199
20
197.347653
0
VERTEX
5
482
100
AcDbEntity
8
1
100
AcDbVertex
100
AcDb2dVertex
62
5
10
167.850292
20
197.347060
0
VERTEX
5
483
100
AcDbEntity
8
1
100
AcDbVertex
100
AcDb2dVertex
62
5
10
167.849385
20
197.346432
0
VERTEX
5
484
100
AcDbEntity
8
1
100
AcDbVertex
100
AcDb2dVertex
62
5
10
167.848478
20
197.345804
0
VERTEX
5
485
100
AcDbEntity
8
1
100
AcDbVertex
100
AcDb2dVertex
62
5
10
167.847570
20
197.345211
0
VERTEX
5
486
100
AcDbEntity
8
1
100
AcDbVertex
100
AcDb2dVertex
62
5
10
167.846663
20
197.344618
0
VERTEX
5
487
100
AcDbEntity
8
1
100
AcDbVertex
100
AcDb2dVertex
62
5
10
167.845756
20
197.344024
0
VERTEX
5
488
100
AcDbEntity
8
1
100
AcDbVertex
100
AcDb2dVertex
62
5
10
167.844814
20
197.343431
0
VERTEX
5
489
100
AcDbEntity
8
1
100
AcDbVertex
100
AcDb2dVertex
62
5
10
167.843906
20
197.342838
0
VERTEX
5
48a
100
AcDbEntity
8
1
100
AcDbVertex
100
AcDb2dVertex
62
5
10
167.842999
20
197.342245
0
VERTEX
5
48b
100
AcDbEntity
8
1
100
AcDbVertex
100
AcDb2dVertex
62
5
10
167.842057
20
197.341686
0
VERTEX
5
48c
100
AcDbEntity
8
1
100
AcDbVertex
100
AcDb2dVertex
62
5
10
167.841115
20
197.341128
0
VERTEX
5
48d
100
AcDbEntity
8
1
100
AcDbVertex
100
AcDb2dVertex
62
5
10
167.840208
20
197.340570
0
VERTEX
5
48e
100
AcDbEntity
8
1
100
AcDbVertex
100
AcDb2dVertex
62
5
10
167.839265
20
197.340012
0
VERTEX
5
48f
100
AcDbEntity
8
1
100
AcDbVertex
100
AcDb2dVertex
62
5
10
167.838323
20
197.339488
0
VERTEX
5
490
100
AcDbEntity
8
1
100
AcDbVertex
100
AcDb2dVertex
62
5
10
167.837381
20
197.338930
0
VERTEX
5
491
100
AcDbEntity
8
1
100
AcDbVertex
100
AcDb2dVertex
62
5
10
167.836439
20
197.338406
0
VERTEX
5
492
100
AcDbEntity
8
1
100
AcDbVertex
100
AcDb2dVertex
62
5
10
167.835497
20
197.337883
0
VERTEX
5
493
100
AcDbEntity
8
1
100
AcDbVertex
100
AcDb2dVertex
62
5
10
167.834520
20
197.337360
0
VERTEX
5
494
100
AcDbEntity
8
1
100
AcDbVertex
100
AcDb2dVertex
62
5
10
167.833578
20
197.336871
0
VERTEX
5
495
100
AcDbEntity
8
1
100
AcDbVertex
100
AcDb2dVertex
62
5
10
167.832601
20
197.336348
0
VERTEX
5
496
100
AcDbEntity
8
1
100
AcDbVertex
100
AcDb2dVertex
62
5
10
167.831659
20
197.335859
0
VERTEX
5
497
100
AcDbEntity
8
1
100
AcDbVertex
100
AcDb2dVertex
62
5
10
167.830682
20
197.335371
0
VERTEX
5
498
100
AcDbEntity
8
1
100
AcDbVertex
100
AcDb2dVertex
62
5
10
167.829704
20
197.334882
0
VERTEX
5
499
100
AcDbEntity
8
1
100
AcDbVertex
100
AcDb2dVertex
62
5
10
167.828762
20
197.334394
0
VERTEX
5
49a
100
AcDbEntity
8
1
100
AcDbVertex
100
AcDb2dVertex
62
5
10
167.827785
20
197.333905
0
VERTEX
5
49b
100
AcDbEntity
8
1
100
AcDbVertex
100
AcDb2dVertex
62
5
10
167.826808
20
197.333451
0
VERTEX
5
49c
100
AcDbEntity
8
1
100
AcDbVertex
100
AcDb2dVertex
62
5
10
167.825831
20
197.332998
0
VERTEX
5
49d
100
AcDbEntity
8
1
100
AcDbVertex
100
AcDb2dVertex
62
5
10
167.824819
20
197.332544
0
VERTEX
5
49e
100
AcDbEntity
8
1
100
AcDbVertex
100
AcDb2dVertex
62
5
10
167.823842
20
197.332091
0
VERTEX
5
49f
100
AcDbEntity
8
1
100
AcDbVertex
100
AcDb2dVertex
62
5
10
167.822865
20
197.331637
0
VERTEX
5
4a0
100
AcDbEntity
8
1
100
AcDbVertex
100
AcDb2dVertex
62
5
10
167.821853
20
197.331218
0
VERTEX
5
4a1
100
AcDbEntity
8
1
100
AcDbVertex
100
AcDb2dVertex
62
5
10
167.820876
20
197.330765
0
VERTEX
5
4a2
100
AcDbEntity
8
1
100
AcDbVertex
100
AcDb2dVertex
62
5
10
167.819864
20
197.330346
0
VERTEX
5
4a3
100
AcDbEntity
8
1
100
AcDbVertex
100
AcDb2dVertex
62
5
10
167.818852
20
197.329927
0
VERTEX
5
4a4
100
AcDbEntity
8
1
100
AcDbVertex
100
AcDb2dVertex
62
5
10
167.817840
20
197.329543
0
VERTEX
5
4a5
100
AcDbEntity
8
1
100
AcDbVertex
100
AcDb2dVertex
62
5
10
167.816828
20
197.329125
0
VERTEX
5
4a6
100
AcDbEntity
8
1
100
AcDbVertex
100
AcDb2dVertex
62
5
10
167.815817
20
197.328741
0
VERTEX
5
4a7
100
AcDbEntity
8
1
100
AcDbVertex
100
AcDb2dVertex
62
5
10
167.814805
20
197.328322
0
VERTEX
5
4a8
100
AcDbEntity
8
1
100
AcDbVertex
100
AcDb2dVertex
62
5
10
167.813793
20
197.327938
0
VERTEX
5
4a9
100
AcDbEntity
8
1
100
AcDbVertex
100
AcDb2dVertex
62
5
10
167.812781
20
197.327589
0
VERTEX
5
4aa
100
AcDbEntity
8
1
100
AcDbVertex
100
AcDb2dVertex
62
5
10
167.811734
20
197.327205
0
VERTEX
5
4ab
100
AcDbEntity
8
1
100
AcDbVertex
100
AcDb2dVertex
62
5
10
167.810722
20
197.326822
0
VERTEX
5
4ac
100
AcDbEntity
8
1
100
AcDbVertex
100
AcDb2dVertex
62
5
10
167.809675
20
197.326473
0
VERTEX
5
4ad
100
AcDbEntity
8
1
100
AcDbVertex
100
AcDb2dVertex
62
5
10
167.808663
20
197.326124
0
VERTEX
5
4ae
100
AcDbEntity
8
1
100
AcDbVertex
100
AcDb2dVertex
62
5
10
167.807616
20
197.325775
0
VERTEX
5
4af
100
AcDbEntity
8
1
100
AcDbVertex
100
AcDb2dVertex
62
5
10
167.806570
20
197.325426
0
VERTEX
5
4b0
100
AcDbEntity
8
1
100
AcDbVertex
100
AcDb2dVertex
62
5
10
167.805523
20
197.325112
0
VERTEX
5
4b1
100
AcDbEntity
8
1
100
AcDbVertex
100
AcDb2dVertex
62
5
10
167.804476
20
197.324763
0
VERTEX
5
4b2
100
AcDbEntity
8
1
100
AcDbVertex
100
AcDb2dVertex
62
5
10
167.803429
20
197.324449
0
VERTEX
5
4b3
100
AcDbEntity
8
1
100
AcDbVertex
100
AcDb2dVertex
62
5
10
167.802382
20
197.324135
0
VERTEX
5
4b4
100
AcDbEntity
8
1
100
AcDbVertex
100
AcDb2dVertex
62
5
10
167.801335
20
197.323821
0
VERTEX
5
4b5
100
AcDbEntity
8
1
100
AcDbVertex
100
AcDb2dVertex
62
5
10
167.800254
20
197.323541
0
VERTEX
5
4b6
100
AcDbEntity
8
1
100
AcDbVertex
100
AcDb2dVertex
62
5
10
167.799207
20
197.323227
0
VERTEX
5
4b7
100
AcDbEntity
8
1
100
AcDbVertex
100
AcDb2dVertex
62
5
10
167.798125
20
197.322948
0
VERTEX
5
4b8
100
AcDbEntity
8
1
100
AcDbVertex
100
AcDb2dVertex
62
5
10
167.797043
20
197.322669
0
VERTEX
5
4b9
100
AcDbEntity
8
1
100
AcDbVertex
100
AcDb2dVertex
62
5
10
167.795997
20
197.322390
0
VERTEX
5
4ba
100
AcDbEntity
8
1
100
AcDbVertex
100
AcDb2dVertex
62
5
10
167.794915
20
197.322111
0
VERTEX
5
4bb
100
AcDbEntity
8
1
100
AcDbVertex
100
AcDb2dVertex
62
5
10
167.793833
20
197.321867
0
VERTEX
5
4bc
100
AcDbEntity
8
1
100
AcDbVertex
100
AcDb2dVertex
62
5
10
167.792751
20
197.321587
0
VERTEX
5
4bd
100
AcDbEntity
8
1
100
AcDbVertex
100
AcDb2dVertex
62
5
10
167.791670
20
197.321343
0
VERTEX
5
4be
100
AcDbEntity
8
1
100
AcDbVertex
100
AcDb2dVertex
62
5
10
167.790588
20
197.321099
0
VERTEX
5
4bf
100
AcDbEntity
8
1
100
AcDbVertex
100
AcDb2dVertex
62
5
10
167.789471
20
197.320855
0
VERTEX
5
4c0
100
AcDbEntity
8
1
100
AcDbVertex
100
AcDb2dVertex
62
5
10
167.788390
20
197.320645
0
VERTEX
5
4c1
100
AcDbEntity
8
1
100
AcDbVertex
100
AcDb2dVertex
62
5
10
167.787273
20
197.320401
0
VERTEX
5
4c2
100
AcDbEntity
8
1
100
AcDbVertex
100
AcDb2dVertex
62
5
10
167.786191
20
197.320192
0
VERTEX
5
4c3
100
AcDbEntity
8
1
100
AcDbVertex
100
AcDb2dVertex
62
5
10
167.785075
20
197.319982
0
VERTEX
5
4c4
100
AcDbEntity
8
1
100
AcDbVertex
100
AcDb2dVertex
62
5
10
167.783958
20
197.319773
0
VERTEX
5
4c5
100
AcDbEntity
8
1
100
AcDbVertex
100
AcDb2dVertex
62
5
10
167.782876
20
197.319564
0
VERTEX
5
4c6
100
AcDbEntity
8
1
100
AcDbVertex
100
AcDb2dVertex
62
5
10
167.781760
20
197.319354
0
VERTEX
5
4c7
100
AcDbEntity
8
1
100
AcDbVertex
100
AcDb2dVertex
62
5
10
167.780643
20
197.319180
0
VERTEX
5
4c8
100
AcDbEntity
8
1
100
AcDbVertex
100
AcDb2dVertex
62
5
10
167.779527
20
197.319005
0
VERTEX
5
4c9
100
AcDbEntity
8
1
100
AcDbVertex
100
AcDb2dVertex
62
5
10
167.778375
20
197.318831
0
VERTEX
5
4ca
100
AcDbEntity
8
1
100
AcDbVertex
100
AcDb2dVertex
62
5
10
167.777258
20
197.318656
0
VERTEX
5
4cb
100
AcDbEntity
8
1
100
AcDbVertex
100
AcDb2dVertex
62
5
10
167.776142
20
197.318482
0
VERTEX
5
4cc
100
AcDbEntity
8
1
100
AcDbVertex
100
AcDb2dVertex
62
5
10
167.774990
20
197.318342
0
VERTEX
5
4cd
100
AcDbEntity
8
1
100
AcDbVertex
100
AcDb2dVertex
62
5
10
167.773874
20
197.318203
0
VERTEX
5
4ce
100
AcDbEntity
8
1
100
AcDbVertex
100
AcDb2dVertex
62
5
10
167.772722
20
197.318063
0
VERTEX
5
4cf
100
AcDbEntity
8
1
100
AcDbVertex
100
AcDb2dVertex
62
5
10
167.771571
20
197.317924
0
VERTEX
5
4d0
100
AcDbEntity
8
1
100
AcDbVertex
100
AcDb2dVertex
62
5
10
167.770419
20
197.317784
0
VERTEX
5
4d1
100
AcDbEntity
8
1
100
AcDbVertex
100
AcDb2dVertex
62
5
10
167.769268
20
197.317644
0
VERTEX
5
4d2
100
AcDbEntity
8
1
100
AcDbVertex
100
AcDb2dVertex
62
5
10
167.768116
20
197.317540
0
VERTEX
5
4d3
100
AcDbEntity
8
1
100
AcDbVertex
100
AcDb2dVertex
62
5
10
167.766965
20
197.317435
0
VERTEX
5
4d4
100
AcDbEntity
8
1
100
AcDbVertex
100
AcDb2dVertex
62
5
10
167.765813
20
197.317330
0
VERTEX
5
4d5
100
AcDbEntity
8
1
100
AcDbVertex
100
AcDb2dVertex
62
5
10
167.764662
20
197.317226
0
VERTEX
5
4d6
100
AcDbEntity
8
1
100
AcDbVertex
100
AcDb2dVertex
62
5
10
167.763475
20
197.317121
0
VERTEX
5
4d7
100
AcDbEntity
8
1
100
AcDbVertex
100
AcDb2dVertex
62
5
10
167.762324
20
197.317051
0
VERTEX
5
4d8
100
AcDbEntity
8
1
100
AcDbVertex
100
AcDb2dVertex
62
5
10
167.761137
20
197.316981
0
VERTEX
5
4d9
100
AcDbEntity
8
1
100
AcDbVertex
100
AcDb2dVertex
62
5
10
167.759986
20
197.316877
0
VERTEX
5
4da
100
AcDbEntity
8
1
100
AcDbVertex
100
AcDb2dVertex
62
5
10
167.758799
20
197.316842
0
VERTEX
5
4db
100
AcDbEntity
8
1
100
AcDbVertex
100
AcDb2dVertex
62
5
10
167.757613
20
197.316772
0
VERTEX
5
4dc
100
AcDbEntity
8
1
100
AcDbVertex
100
AcDb2dVertex
62
5
10
167.756427
20
197.316702
0
VERTEX
5
4dd
100
AcDbEntity
8
1
100
AcDbVertex
100
AcDb2dVertex
62
5
10
167.755240
20
197.316667
0
VERTEX
5
4de
100
AcDbEntity
8
1
100
AcDbVertex
100
AcDb2dVertex
62
5
10
167.754054
20
197.316632
0
VERTEX
5
4df
100
AcDbEntity
8
1
100
AcDbVertex
100
AcDb2dVertex
62
5
10
167.752867
20
197.316598
0
VERTEX
5
4e0
100
AcDbEntity
8
1
100
AcDbVertex
100
AcDb2dVertex
62
5
10
167.751646
20
197.316563
0
VERTEX
5
4e1
100
AcDbEntity
8
1
100
AcDbVertex
100
AcDb2dVertex
62
5
10
167.750460
20
197.316528
0
VERTEX
5
4e2
100
AcDbEntity
8
1
100
AcDbVertex
100
AcDb2dVertex
62
5
10
167.749238
20
197.316528
0
VERTEX
5
4e3
100
AcDbEntity
8
1
100
AcDbVertex
100
AcDb2dVertex
62
5
10
167.748052
20
197.316528
0
VERTEX
5
4e4
100
AcDbEntity
8
1
100
AcDbVertex
100
AcDb2dVertex
62
5
10
167.746831
20
197.316493
0
SEQEND
5
4e5
100
AcDbEntity
8
1
0
POLYLINE
5
4e6
100
AcDbEntity
8
1
6
CONTINUOUS
62
5
100
AcDb2dPolyline
66
1
10
0.0
20
0.0
30
0.0
70
0
0
VERTEX
5
4e7
100
AcDbEntity
8
1
100
AcDbVertex
100
AcDb2dVertex
62
5
10
167.934876
20
197.504538
0
VERTEX
5
4e8
100
AcDbEntity
8
1
100
AcDbVertex
100
AcDb2dVertex
62
5
10
167.934876
20
197.503316
0
VERTEX
5
4e9
100
AcDbEntity
8
1
100
AcDbVertex
100
AcDb2dVertex
62
5
10
167.934841
20
197.502130
0
VERTEX
5
4ea
100
AcDbEntity
8
1
100
AcDbVertex
100
AcDb2dVertex
62
5
10
167.934841
20
197.500909
0
VERTEX
5
4eb
100
AcDbEntity
8
1
100
AcDbVertex
100
AcDb2dVertex
62
5
10
167.934806
20
197.499722
0
VERTEX
5
4ec
100
AcDbEntity
8
1
100
AcDbVertex
100
AcDb2dVertex
62
5
10
167.934771
20
197.498501
0
VERTEX
5
4ed
100
AcDbEntity
8
1
100
AcDbVertex
100
AcDb2dVertex
62
5
10
167.934736
20
197.497315
0
VERTEX
5
4ee
100
AcDbEntity
8
1
100
AcDbVertex
100
AcDb2dVertex
62
5
10
167.934701
20
197.496128
0
VERTEX
5
4ef
100
AcDbEntity
8
1
100
AcDbVertex
100
AcDb2dVertex
62
5
10
167.934631
20
197.494907
0
VERTEX
5
4f0
100
AcDbEntity
8
1
100
AcDbVertex
100
AcDb2dVertex
62
5
10
167.934562
20
197.493721
0
VERTEX
5
4f1
100
AcDbEntity
8
1
100
AcDbVertex
100
AcDb2dVertex
62
5
10
167.934492
20
197.492534
0
VERTEX
5
4f2
100
AcDbEntity
8
1
100
AcDbVertex
100
AcDb2dVertex
62
5
10
167.934422
20
197.491348
0
VERTEX
5
4f3
100
AcDbEntity
8
1
100
AcDbVertex
100
AcDb2dVertex
62
5
10
167.934352
20
197.490161
0
VERTEX
5
4f4
100
AcDbEntity
8
1
100
AcDbVertex
100
AcDb2dVertex
62
5
10
167.934248
20
197.488975
0
VERTEX
5
4f5
100
AcDbEntity
8
1
100
AcDbVertex
100
AcDb2dVertex
62
5
10
167.934143
20
197.487789
0
VERTEX
5
4f6
100
AcDbEntity
8
1
100
AcDbVertex
100
AcDb2dVertex
62
5
10
167.934038
20
197.486602
0
VERTEX
5
4f7
100
AcDbEntity
8
1
100
AcDbVertex
100
AcDb2dVertex
62
5
10
167.933933
20
197.485416
0
VERTEX
5
4f8
100
AcDbEntity
8
1
100
AcDbVertex
100
AcDb2dVertex
62
5
10
167.933794
20
197.484264
0
VERTEX
5
4f9
100
AcDbEntity
8
1
100
AcDbVertex
100
AcDb2dVertex
62
5
10
167.933654
20
197.483078
0
VERTEX
5
4fa
100
AcDbEntity
8
1
100
AcDbVertex
100
AcDb2dVertex
62
5
10
167.933550
20
197.481891
0
VERTEX
5
4fb
100
AcDbEntity
8
1
100
AcDbVertex
100
AcDb2dVertex
62
5
10
167.933375
20
197.480740
0
VERTEX
5
4fc
100
AcDbEntity
8
1
100
AcDbVertex
100
AcDb2dVertex
62
5
10
167.933236
20
197.479553
0
VERTEX
5
4fd
100
AcDbEntity
8
1
100
AcDbVertex
100
AcDb2dVertex
62
5
10
167.933061
20
197.478402
0
VERTEX
5
4fe
100
AcDbEntity
8
1
100
AcDbVertex
100
AcDb2dVertex
62
5
10
167.932922
20
197.477250
0
VERTEX
5
4ff
100
AcDbEntity
8
1
100
AcDbVertex
100
AcDb2dVertex
62
5
10
167.932747
20
197.476064
0
VERTEX
5
500
100
AcDbEntity
8
1
100
AcDbVertex
100
AcDb2dVertex
62
5
10
167.932538
20
197.474913
0
VERTEX
5
501
100
AcDbEntity
8
1
100
AcDbVertex
100
AcDb2dVertex
62
5
10
167.932363
20
197.473761
0
VERTEX
5
502
100
AcDbEntity
8
1
100
AcDbVertex
100
AcDb2dVertex
62
5
10
167.932154
20
197.472610
0
VERTEX
5
503
100
AcDbEntity
8
1
100
AcDbVertex
100
AcDb2dVertex
62
5
10
167.931979
20
197.471458
0
VERTEX
5
504
100
AcDbEntity
8
1
100
AcDbVertex
100
AcDb2dVertex
62
5
10
167.931735
20
197.470307
0
VERTEX
5
505
100
AcDbEntity
8
1
100
AcDbVertex
100
AcDb2dVertex
62
5
10
167.931526
20
197.469155
0
VERTEX
5
506
100
AcDbEntity
8
1
100
AcDbVertex
100
AcDb2dVertex
62
5
10
167.931316
20
197.468004
0
VERTEX
5
507
100
AcDbEntity
8
1
100
AcDbVertex
100
AcDb2dVertex
62
5
10
167.931072
20
197.466852
0
VERTEX
5
508
100
AcDbEntity
8
1
100
AcDbVertex
100
AcDb2dVertex
62
5
10
167.930828
20
197.465735
0
VERTEX
5
509
100
AcDbEntity
8
1
100
AcDbVertex
100
AcDb2dVertex
62
5
10
167.930584
20
197.464584
0
VERTEX
5
50a
100
AcDbEntity
8
1
100
AcDbVertex
100
AcDb2dVertex
62
5
10
167.930339
20
197.463432
0
VERTEX
5
50b
100
AcDbEntity
8
1
100
AcDbVertex
100
AcDb2dVertex
62
5
10
167.930060
20
197.462316
0
VERTEX
5
50c
100
AcDbEntity
8
1
100
AcDbVertex
100
AcDb2dVertex
62
5
10
167.929781
20
197.461164
0
VERTEX
5
50d
100
AcDbEntity
8
1
100
AcDbVertex
100
AcDb2dVertex
62
5
10
167.929502
20
197.460048
0
VERTEX
5
50e
100
AcDbEntity
8
1
100
AcDbVertex
100
AcDb2dVertex
62
5
10
167.929223
20
197.458896
0
VERTEX
5
50f
100
AcDbEntity
8
1
100
AcDbVertex
100
AcDb2dVertex
62
5
10
167.928944
20
197.457780
0
VERTEX
5
510
100
AcDbEntity
8
1
100
AcDbVertex
100
AcDb2dVertex
62
5
10
167.928630
20
197.456663
0
VERTEX
5
511
100
AcDbEntity
8
1
100
AcDbVertex
100
AcDb2dVertex
62
5
10
167.928316
20
197.455546
0
VERTEX
5
512
100
AcDbEntity
8
1
100
AcDbVertex
100
AcDb2dVertex
62
5
10
167.928001
20
197.454430
0
VERTEX
5
513
100
AcDbEntity
8
1
100
AcDbVertex
100
AcDb2dVertex
62
5
10
167.927687
20
197.453278
0
VERTEX
5
514
100
AcDbEntity
8
1
100
AcDbVertex
100
AcDb2dVertex
62
5
10
167.927373
20
197.452162
0
VERTEX
5
515
100
AcDbEntity
8
1
100
AcDbVertex
100
AcDb2dVertex
62
5
10
167.927024
20
197.451045
0
VERTEX
5
516
100
AcDbEntity
8
1
100
AcDbVertex
100
AcDb2dVertex
62
5
10
167.926675
20
197.449963
0
VERTEX
5
517
100
AcDbEntity
8
1
100
AcDbVertex
100
AcDb2dVertex
62
5
10
167.926327
20
197.448847
0
VERTEX
5
518
100
AcDbEntity
8
1
100
AcDbVertex
100
AcDb2dVertex
62
5
10
167.925978
20
197.447730
0
VERTEX
5
519
100
AcDbEntity
8
1
100
AcDbVertex
100
AcDb2dVertex
62
5
10
167.925594
20
197.446613
0
VERTEX
5
51a
100
AcDbEntity
8
1
100
AcDbVertex
100
AcDb2dVertex
62
5
10
167.925210
20
197.445532
0
VERTEX
5
51b
100
AcDbEntity
8
1
100
AcDbVertex
100
AcDb2dVertex
62
5
10
167.924826
20
197.444415
0
VERTEX
5
51c
100
AcDbEntity
8
1
100
AcDbVertex
100
AcDb2dVertex
62
5
10
167.924442
20
197.443298
0
VERTEX
5
51d
100
AcDbEntity
8
1
100
AcDbVertex
100
AcDb2dVertex
62
5
10
167.924058
20
197.442217
0
VERTEX
5
51e
100
AcDbEntity
8
1
100
AcDbVertex
100
AcDb2dVertex
62
5
10
167.923640
20
197.441135
0
VERTEX
5
51f
100
AcDbEntity
8
1
100
AcDbVertex
100
AcDb2dVertex
62
5
10
167.923256
20
197.440018
0
VERTEX
5
520
100
AcDbEntity
8
1
100
AcDbVertex
100
AcDb2dVertex
62
5
10
167.922837
20
197.438937
0
VERTEX
5
521
100
AcDbEntity
8
1
100
AcDbVertex
100
AcDb2dVertex
62
5
10
167.922383
20
197.437855
0
VERTEX
5
522
100
AcDbEntity
8
1
100
AcDbVertex
100
AcDb2dVertex
62
5
10
167.921965
20
197.436773
0
VERTEX
5
523
100
AcDbEntity
8
1
100
AcDbVertex
100
AcDb2dVertex
62
5
10
167.921511
20
197.435691
0
VERTEX
5
524
100
AcDbEntity
8
1
100
AcDbVertex
100
AcDb2dVertex
62
5
10
167.921058
20
197.434575
0
VERTEX
5
525
100
AcDbEntity
8
1
100
AcDbVertex
100
AcDb2dVertex
62
5
10
167.920604
20
197.433493
0
VERTEX
5
526
100
AcDbEntity
8
1
100
AcDbVertex
100
AcDb2dVertex
62
5
10
167.920150
20
197.432446
0
VERTEX
5
527
100
AcDbEntity
8
1
100
AcDbVertex
100
AcDb2dVertex
62
5
10
167.919662
20
197.431365
0
VERTEX
5
528
100
AcDbEntity
8
1
100
AcDbVertex
100
AcDb2dVertex
62
5
10
167.919208
20
197.430283
0
VERTEX
5
529
100
AcDbEntity
8
1
100
AcDbVertex
100
AcDb2dVertex
62
5
10
167.918720
20
197.429201
0
VERTEX
5
52a
100
AcDbEntity
8
1
100
AcDbVertex
100
AcDb2dVertex
62
5
10
167.918231
20
197.428154
0
VERTEX
5
52b
100
AcDbEntity
8
1
100
AcDbVertex
100
AcDb2dVertex
62
5
10
167.917708
20
197.427073
0
VERTEX
5
52c
100
AcDbEntity
8
1
100
AcDbVertex
100
AcDb2dVertex
62
5
10
167.917219
20
197.425991
0
VERTEX
5
52d
100
AcDbEntity
8
1
100
AcDbVertex
100
AcDb2dVertex
62
5
10
167.916696
20
197.424944
0
VERTEX
5
52e
100
AcDbEntity
8
1
100
AcDbVertex
100
AcDb2dVertex
62
5
10
167.916172
20
197.423862
0
VERTEX
5
52f
100
AcDbEntity
8
1
100
AcDbVertex
100
AcDb2dVertex
62
5
10
167.915649
20
197.422816
0
VERTEX
5
530
100
AcDbEntity
8
1
100
AcDbVertex
100
AcDb2dVertex
62
5
10
167.915091
20
197.421769
0
VERTEX
5
531
100
AcDbEntity
8
1
100
AcDbVertex
100
AcDb2dVertex
62
5
10
167.914567
20
197.420687
0
VERTEX
5
532
100
AcDbEntity
8
1
100
AcDbVertex
100
AcDb2dVertex
62
5
10
167.914009
20
197.419640
0
VERTEX
5
533
100
AcDbEntity
8
1
100
AcDbVertex
100
AcDb2dVertex
62
5
10
167.913451
20
197.418593
0
VERTEX
5
534
100
AcDbEntity
8
1
100
AcDbVertex
100
AcDb2dVertex
62
5
10
167.912892
20
197.417546
0
VERTEX
5
535
100
AcDbEntity
8
1
100
AcDbVertex
100
AcDb2dVertex
62
5
10
167.912299
20
197.416500
0
VERTEX
5
536
100
AcDbEntity
8
1
100
AcDbVertex
100
AcDb2dVertex
62
5
10
167.911706
20
197.415453
0
VERTEX
5
537
100
AcDbEntity
8
1
100
AcDbVertex
100
AcDb2dVertex
62
5
10
167.911148
20
197.414406
0
VERTEX
5
538
100
AcDbEntity
8
1
100
AcDbVertex
100
AcDb2dVertex
62
5
10
167.910519
20
197.413359
0
VERTEX
5
539
100
AcDbEntity
8
1
100
AcDbVertex
100
AcDb2dVertex
62
5
10
167.909926
20
197.412347
0
VERTEX
5
53a
100
AcDbEntity
8
1
100
AcDbVertex
100
AcDb2dVertex
62
5
10
167.909333
20
197.411300
0
VERTEX
5
53b
100
AcDbEntity
8
1
100
AcDbVertex
100
AcDb2dVertex
62
5
10
167.908705
20
197.410254
0
VERTEX
5
53c
100
AcDbEntity
8
1
100
AcDbVertex
100
AcDb2dVertex
62
5
10
167.908077
20
197.409242
0
VERTEX
5
53d
100
AcDbEntity
8
1
100
AcDbVertex
100
AcDb2dVertex
62
5
10
167.907449
20
197.408195
0
VERTEX
5
53e
100
AcDbEntity
8
1
100
AcDbVertex
100
AcDb2dVertex
62
5
10
167.906786
20
197.407183
0
VERTEX
5
53f
100
AcDbEntity
8
1
100
AcDbVertex
100
AcDb2dVertex
62
5
10
167.906158
20
197.406136
0
VERTEX
5
540
100
AcDbEntity
8
1
100
AcDbVertex
100
AcDb2dVertex
62
5
10
167.905495
20
197.405124
0
VERTEX
5
541
100
AcDbEntity
8
1
100
AcDbVertex
100
AcDb2dVertex
62
5
10
167.904832
20
197.404112
0
VERTEX
5
542
100
AcDbEntity
8
1
100
AcDbVertex
100
AcDb2dVertex
62
5
10
167.904169
20
197.403065
0
VERTEX
5
543
100
AcDbEntity
8
1
100
AcDbVertex
100
AcDb2dVertex
62
5
10
167.903471
20
197.402053
0
VERTEX
5
544
100
AcDbEntity
8
1
100
AcDbVertex
100
AcDb2dVertex
62
5
10
167.902773
20
197.401042
0
VERTEX
5
545
100
AcDbEntity
8
1
100
AcDbVertex
100
AcDb2dVertex
62
5
10
167.902110
20
197.400030
0
VERTEX
5
546
100
AcDbEntity
8
1
100
AcDbVertex
100
AcDb2dVertex
62
5
10
167.901377
20
197.399018
0
VERTEX
5
547
100
AcDbEntity
8
1
100
AcDbVertex
100
AcDb2dVertex
62
5
10
167.900679
20
197.398006
0
VERTEX
5
548
100
AcDbEntity
8
1
100
AcDbVertex
100
AcDb2dVertex
62
5
10
167.899981
20
197.396994
0
VERTEX
5
549
100
AcDbEntity
8
1
100
AcDbVertex
100
AcDb2dVertex
62
5
10
167.899249
20
197.396017
0
VERTEX
5
54a
100
AcDbEntity
8
1
100
AcDbVertex
100
AcDb2dVertex
62
5
10
167.898516
20
197.395005
0
VERTEX
5
54b
100
AcDbEntity
8
1
100
AcDbVertex
100
AcDb2dVertex
62
5
10
167.897783
20
197.393993
0
VERTEX
5
54c
100
AcDbEntity
8
1
100
AcDbVertex
100
AcDb2dVertex
62
5
10
167.897015
20
197.393016
0
VERTEX
5
54d
100
AcDbEntity
8
1
100
AcDbVertex
100
AcDb2dVertex
62
5
10
167.896283
20
197.392004
0
VERTEX
5
54e
100
AcDbEntity
8
1
100
AcDbVertex
100
AcDb2dVertex
62
5
10
167.895515
20
197.391027
0
VERTEX
5
54f
100
AcDbEntity
8
1
100
AcDbVertex
100
AcDb2dVertex
62
5
10
167.894747
20
197.390015
0
VERTEX
5
550
100
AcDbEntity
8
1
100
AcDbVertex
100
AcDb2dVertex
62
5
10
167.893980
20
197.389038
0
VERTEX
5
551
100
AcDbEntity
8
1
100
AcDbVertex
100
AcDb2dVertex
62
5
10
167.893177
20
197.388026
0
VERTEX
5
552
100
AcDbEntity
8
1
100
AcDbVertex
100
AcDb2dVertex
62
5
10
167.892409
20
197.387049
0
VERTEX
5
553
100
AcDbEntity
8
1
100
AcDbVertex
100
AcDb2dVertex
62
5
10
167.891607
20
197.386072
0
VERTEX
5
554
100
AcDbEntity
8
1
100
AcDbVertex
100
AcDb2dVertex
62
5
10
167.890804
20
197.385095
0
VERTEX
5
555
100
AcDbEntity
8
1
100
AcDbVertex
100
AcDb2dVertex
62
5
10
167.890002
20
197.384118
0
VERTEX
5
556
100
AcDbEntity
8
1
100
AcDbVertex
100
AcDb2dVertex
62
5
10
167.889164
20
197.383141
0
VERTEX
5
557
100
AcDbEntity
8
1
100
AcDbVertex
100
AcDb2dVertex
62
5
10
167.888327
20
197.382164
0
VERTEX
5
558
100
AcDbEntity
8
1
100
AcDbVertex
100
AcDb2dVertex
62
5
10
167.887489
20
197.381187
0
VERTEX
5
559
100
AcDbEntity
8
1
100
AcDbVertex
100
AcDb2dVertex
62
5
10
167.886652
20
197.380210
0
VERTEX
5
55a
100
AcDbEntity
8
1
100
AcDbVertex
100
AcDb2dVertex
62
5
10
167.885814
20
197.379233
0
VERTEX
5
55b
100
AcDbEntity
8
1
100
AcDbVertex
100
AcDb2dVertex
62
5
10
167.884942
20
197.378290
0
VERTEX
5
55c
100
AcDbEntity
8
1
100
AcDbVertex
100
AcDb2dVertex
62
5
10
167.884105
20
197.377313
0
VERTEX
5
55d
100
AcDbEntity
8
1
100
AcDbVertex
100
AcDb2dVertex
62
5
10
167.883232
20
197.376371
0
VERTEX
5
55e
100
AcDbEntity
8
1
100
AcDbVertex
100
AcDb2dVertex
62
5
10
167.882360
20
197.375394
0
VERTEX
5
55f
100
AcDbEntity
8
1
100
AcDbVertex
100
AcDb2dVertex
62
5
10
167.881453
20
197.374452
0
VERTEX
5
560
100
AcDbEntity
8
1
100
AcDbVertex
100
AcDb2dVertex
62
5
10
167.880545
20
197.373475
0
VERTEX
5
561
100
AcDbEntity
8
1
100
AcDbVertex
100
AcDb2dVertex
62
5
10
167.879673
20
197.372533
0
VERTEX
5
562
100
AcDbEntity
8
1
100
AcDbVertex
100
AcDb2dVertex
62
5
10
167.878766
20
197.371591
0
VERTEX
5
563
100
AcDbEntity
8
1
100
AcDbVertex
100
AcDb2dVertex
62
5
10
167.877824
20
197.370614
0
VERTEX
5
564
100
AcDbEntity
8
1
100
AcDbVertex
100
AcDb2dVertex
62
5
10
167.876916
20
197.369672
0
VERTEX
5
565
100
AcDbEntity
8
1
100
AcDbVertex
100
AcDb2dVertex
62
5
10
167.875974
20
197.368729
0
VERTEX
5
566
100
AcDbEntity
8
1
100
AcDbVertex
100
AcDb2dVertex
62
5
10
167.875032
20
197.367787
0
SEQEND
5
567
100
AcDbEntity
8
1
0
POLYLINE
5
568
100
AcDbEntity
8
1
6
CONTINUOUS
62
5
100
AcDb2dPolyline
66
1
10
0.0
20
0.0
30
0.0
70
0
0
VERTEX
5
569
100
AcDbEntity
8
1
100
AcDbVertex
100
AcDb2dVertex
62
5
10
167.875032
20
197.641288
0
VERTEX
5
56a
100
AcDbEntity
8
1
100
AcDbVertex
100
AcDb2dVertex
62
5
10
167.875974
20
197.640346
0
VERTEX
5
56b
100
AcDbEntity
8
1
100
AcDbVertex
100
AcDb2dVertex
62
5
10
167.876916
20
197.639404
0
VERTEX
5
56c
100
AcDbEntity
8
1
100
AcDbVertex
100
AcDb2dVertex
62
5
10
167.877824
20
197.638462
0
VERTEX
5
56d
100
AcDbEntity
8
1
100
AcDbVertex
100
AcDb2dVertex
62
5
10
167.878766
20
197.637520
0
VERTEX
5
56e
100
AcDbEntity
8
1
100
AcDbVertex
100
AcDb2dVertex
62
5
10
167.879673
20
197.636543
0
VERTEX
5
56f
100
AcDbEntity
8
1
100
AcDbVertex
100
AcDb2dVertex
62
5
10
167.880545
20
197.635600
0
VERTEX
5
570
100
AcDbEntity
8
1
100
AcDbVertex
100
AcDb2dVertex
62
5
10
167.881453
20
197.634658
0
VERTEX
5
571
100
AcDbEntity
8
1
100
AcDbVertex
100
AcDb2dVertex
62
5
10
167.882360
20
197.633681
0
VERTEX
5
572
100
AcDbEntity
8
1
100
AcDbVertex
100
AcDb2dVertex
62
5
10
167.883232
20
197.632739
0
VERTEX
5
573
100
AcDbEntity
8
1
100
AcDbVertex
100
AcDb2dVertex
62
5
10
167.884105
20
197.631762
0
VERTEX
5
574
100
AcDbEntity
8
1
100
AcDbVertex
100
AcDb2dVertex
62
5
10
167.884942
20
197.630785
0
VERTEX
5
575
100
AcDbEntity
8
1
100
AcDbVertex
100
AcDb2dVertex
62
5
10
167.885814
20
197.629843
0
VERTEX
5
576
100
AcDbEntity
8
1
100
AcDbVertex
100
AcDb2dVertex
62
5
10
167.886652
20
197.628866
0
VERTEX
5
577
100
AcDbEntity
8
1
100
AcDbVertex
100
AcDb2dVertex
62
5
10
167.887489
20
197.627889
0
VERTEX
5
578
100
AcDbEntity
8
1
100
AcDbVertex
100
AcDb2dVertex
62
5
10
167.888327
20
197.626912
0
VERTEX
5
579
100
AcDbEntity
8
1
100
AcDbVertex
100
AcDb2dVertex
62
5
10
167.889164
20
197.625935
0
VERTEX
5
57a
100
AcDbEntity
8
1
100
AcDbVertex
100
AcDb2dVertex
62
5
10
167.890002
20
197.624958
0
VERTEX
5
57b
100
AcDbEntity
8
1
100
AcDbVertex
100
AcDb2dVertex
62
5
10
167.890804
20
197.623981
0
VERTEX
5
57c
100
AcDbEntity
8
1
100
AcDbVertex
100
AcDb2dVertex
62
5
10
167.891607
20
197.623004
0
VERTEX
5
57d
100
AcDbEntity
8
1
100
AcDbVertex
100
AcDb2dVertex
62
5
10
167.892409
20
197.622027
0
VERTEX
5
57e
100
AcDbEntity
8
1
100
AcDbVertex
100
AcDb2dVertex
62
5
10
167.893177
20
197.621050
0
VERTEX
5
57f
100
AcDbEntity
8
1
100
AcDbVertex
100
AcDb2dVertex
62
5
10
167.893980
20
197.620038
0
VERTEX
5
580
100
AcDbEntity
8
1
100
AcDbVertex
100
AcDb2dVertex
62
5
10
167.894747
20
197.619061
0
VERTEX
5
581
100
AcDbEntity
8
1
100
AcDbVertex
100
AcDb2dVertex
62
5
10
167.895515
20
197.618084
0
VERTEX
5
582
100
AcDbEntity
8
1
100
AcDbVertex
100
AcDb2dVertex
62
5
10
167.896283
20
197.617072
0
VERTEX
5
583
100
AcDbEntity
8
1
100
AcDbVertex
100
AcDb2dVertex
62
5
10
167.897015
20
197.616095
0
VERTEX
5
584
100
AcDbEntity
8
1
100
AcDbVertex
100
AcDb2dVertex
62
5
10
167.897783
20
197.615083
0
VERTEX
5
585
100
AcDbEntity
8
1
100
AcDbVertex
100
AcDb2dVertex
62
5
10
167.898516
20
197.614071
0
VERTEX
5
586
100
AcDbEntity
8
1
100
AcDbVertex
100
AcDb2dVertex
62
5
10
167.899249
20
197.613094
0
VERTEX
5
587
100
AcDbEntity
8
1
100
AcDbVertex
100
AcDb2dVertex
62
5
10
167.899981
20
197.612082
0
VERTEX
5
588
100
AcDbEntity
8
1
100
AcDbVertex
100
AcDb2dVertex
62
5
10
167.900679
20
197.611070
0
VERTEX
5
589
100
AcDbEntity
8
1
100
AcDbVertex
100
AcDb2dVertex
62
5
10
167.901377
20
197.610058
0
VERTEX
5
58a
100
AcDbEntity
8
1
100
AcDbVertex
100
AcDb2dVertex
62
5
10
167.902110
20
197.609046
0
VERTEX
5
58b
100
AcDbEntity
8
1
100
AcDbVertex
100
AcDb2dVertex
62
5
10
167.902773
20
197.608034
0
VERTEX
5
58c
100
AcDbEntity
8
1
100
AcDbVertex
100
AcDb2dVertex
62
5
10
167.903471
20
197.607022
0
VERTEX
5
58d
100
AcDbEntity
8
1
100
AcDbVertex
100
AcDb2dVertex
62
5
10
167.904169
20
197.606010
0
VERTEX
5
58e
100
AcDbEntity
8
1
100
AcDbVertex
100
AcDb2dVertex
62
5
10
167.904832
20
197.604998
0
VERTEX
5
58f
100
AcDbEntity
8
1
100
AcDbVertex
100
AcDb2dVertex
62
5
10
167.905495
20
197.603951
0
VERTEX
5
590
100
AcDbEntity
8
1
100
AcDbVertex
100
AcDb2dVertex
62
5
10
167.906158
20
197.602939
0
VERTEX
5
591
100
AcDbEntity
8
1
100
AcDbVertex
100
AcDb2dVertex
62
5
10
167.906786
20
197.601927
0
VERTEX
5
592
100
AcDbEntity
8
1
100
AcDbVertex
100
AcDb2dVertex
62
5
10
167.907449
20
197.600881
0
VERTEX
5
593
100
AcDbEntity
8
1
100
AcDbVertex
100
AcDb2dVertex
62
5
10
167.908077
20
197.599869
0
VERTEX
5
594
100
AcDbEntity
8
1
100
AcDbVertex
100
AcDb2dVertex
62
5
10
167.908705
20
197.598822
0
VERTEX
5
595
100
AcDbEntity
8
1
100
AcDbVertex
100
AcDb2dVertex
62
5
10
167.909333
20
197.597775
0
VERTEX
5
596
100
AcDbEntity
8
1
100
AcDbVertex
100
AcDb2dVertex
62
5
10
167.909926
20
197.596763
0
VERTEX
5
597
100
AcDbEntity
8
1
100
AcDbVertex
100
AcDb2dVertex
62
5
10
167.910519
20
197.595716
0
VERTEX
5
598
100
AcDbEntity
8
1
100
AcDbVertex
100
AcDb2dVertex
62
5
10
167.911148
20
197.594670
0
VERTEX
5
599
100
AcDbEntity
8
1
100
AcDbVertex
100
AcDb2dVertex
62
5
10
167.911706
20
197.593623
0
VERTEX
5
59a
100
AcDbEntity
8
1
100
AcDbVertex
100
AcDb2dVertex
62
5
10
167.912299
20
197.592576
0
VERTEX
5
59b
100
AcDbEntity
8
1
100
AcDbVertex
100
AcDb2dVertex
62
5
10
167.912892
20
197.591529
0
VERTEX
5
59c
100
AcDbEntity
8
1
100
AcDbVertex
100
AcDb2dVertex
62
5
10
167.913451
20
197.590482
0
VERTEX
5
59d
100
AcDbEntity
8
1
100
AcDbVertex
100
AcDb2dVertex
62
5
10
167.914009
20
197.589435
0
VERTEX
5
59e
100
AcDbEntity
8
1
100
AcDbVertex
100
AcDb2dVertex
62
5
10
167.914567
20
197.588389
0
VERTEX
5
59f
100
AcDbEntity
8
1
100
AcDbVertex
100
AcDb2dVertex
62
5
10
167.915091
20
197.587342
0
VERTEX
5
5a0
100
AcDbEntity
8
1
100
AcDbVertex
100
AcDb2dVertex
62
5
10
167.915649
20
197.586260
0
VERTEX
5
5a1
100
AcDbEntity
8
1
100
AcDbVertex
100
AcDb2dVertex
62
5
10
167.916172
20
197.585213
0
VERTEX
5
5a2
100
AcDbEntity
8
1
100
AcDbVertex
100
AcDb2dVertex
62
5
10
167.916696
20
197.584131
0
VERTEX
5
5a3
100
AcDbEntity
8
1
100
AcDbVertex
100
AcDb2dVertex
62
5
10
167.917219
20
197.583085
0
VERTEX
5
5a4
100
AcDbEntity
8
1
100
AcDbVertex
100
AcDb2dVertex
62
5
10
167.917708
20
197.582003
0
VERTEX
5
5a5
100
AcDbEntity
8
1
100
AcDbVertex
100
AcDb2dVertex
62
5
10
167.918231
20
197.580956
0
VERTEX
5
5a6
100
AcDbEntity
8
1
100
AcDbVertex
100
AcDb2dVertex
62
5
10
167.918720
20
197.579874
0
VERTEX
5
5a7
100
AcDbEntity
8
1
100
AcDbVertex
100
AcDb2dVertex
62
5
10
167.919208
20
197.578793
0
VERTEX
5
5a8
100
AcDbEntity
8
1
100
AcDbVertex
100
AcDb2dVertex
62
5
10
167.919662
20
197.577746
0
VERTEX
5
5a9
100
AcDbEntity
8
1
100
AcDbVertex
100
AcDb2dVertex
62
5
10
167.920150
20
197.576664
0
VERTEX
5
5aa
100
AcDbEntity
8
1
100
AcDbVertex
100
AcDb2dVertex
62
5
10
167.920604
20
197.575582
0
VERTEX
5
5ab
100
AcDbEntity
8
1
100
AcDbVertex
100
AcDb2dVertex
62
5
10
167.921058
20
197.574501
0
VERTEX
5
5ac
100
AcDbEntity
8
1
100
AcDbVertex
100
AcDb2dVertex
62
5
10
167.921511
20
197.573419
0
VERTEX
5
5ad
100
AcDbEntity
8
1
100
AcDbVertex
100
AcDb2dVertex
62
5
10
167.921965
20
197.572337
0
VERTEX
5
5ae
100
AcDbEntity
8
1
100
AcDbVertex
100
AcDb2dVertex
62
5
10
167.922383
20
197.571221
0
VERTEX
5
5af
100
AcDbEntity
8
1
100
AcDbVertex
100
AcDb2dVertex
62
5
10
167.922837
20
197.570139
0
VERTEX
5
5b0
100
AcDbEntity
8
1
100
AcDbVertex
100
AcDb2dVertex
62
5
10
167.923256
20
197.569057
0
VERTEX
5
5b1
100
AcDbEntity
8
1
100
AcDbVertex
100
AcDb2dVertex
62
5
10
167.923640
20
197.567975
0
VERTEX
5
5b2
100
AcDbEntity
8
1
100
AcDbVertex
100
AcDb2dVertex
62
5
10
167.924058
20
197.566859
0
VERTEX
5
5b3
100
AcDbEntity
8
1
100
AcDbVertex
100
AcDb2dVertex
62
5
10
167.924442
20
197.565777
0
VERTEX
5
5b4
100
AcDbEntity
8
1
100
AcDbVertex
100
AcDb2dVertex
62
5
10
167.924826
20
197.564660
0
VERTEX
5
5b5
100
AcDbEntity
8
1
100
AcDbVertex
100
AcDb2dVertex
62
5
10
167.925210
20
197.563579
0
VERTEX
5
5b6
100
AcDbEntity
8
1
100
AcDbVertex
100
AcDb2dVertex
62
5
10
167.925594
20
197.562462
0
VERTEX
5
5b7
100
AcDbEntity
8
1
100
AcDbVertex
100
AcDb2dVertex
62
5
10
167.925978
20
197.561346
0
VERTEX
5
5b8
100
AcDbEntity
8
1
100
AcDbVertex
100
AcDb2dVertex
62
5
10
167.926327
20
197.560264
0
VERTEX
5
5b9
100
AcDbEntity
8
1
100
AcDbVertex
100
AcDb2dVertex
62
5
10
167.926675
20
197.559147
0
VERTEX
5
5ba
100
AcDbEntity
8
1
100
AcDbVertex
100
AcDb2dVertex
62
5
10
167.927024
20
197.558031
0
VERTEX
5
5bb
100
AcDbEntity
8
1
100
AcDbVertex
100
AcDb2dVertex
62
5
10
167.927373
20
197.556914
0
VERTEX
5
5bc
100
AcDbEntity
8
1
100
AcDbVertex
100
AcDb2dVertex
62
5
10
167.927687
20
197.555797
0
VERTEX
5
5bd
100
AcDbEntity
8
1
100
AcDbVertex
100
AcDb2dVertex
62
5
10
167.928001
20
197.554681
0
VERTEX
5
5be
100
AcDbEntity
8
1
100
AcDbVertex
100
AcDb2dVertex
62
5
10
167.928316
20
197.553564
0
VERTEX
5
5bf
100
AcDbEntity
8
1
100
AcDbVertex
100
AcDb2dVertex
62
5
10
167.928630
20
197.552413
0
VERTEX
5
5c0
100
AcDbEntity
8
1
100
AcDbVertex
100
AcDb2dVertex
62
5
10
167.928944
20
197.551296
0
VERTEX
5
5c1
100
AcDbEntity
8
1
100
AcDbVertex
100
AcDb2dVertex
62
5
10
167.929223
20
197.550179
0
VERTEX
5
5c2
100
AcDbEntity
8
1
100
AcDbVertex
100
AcDb2dVertex
62
5
10
167.929502
20
197.549028
0
VERTEX
5
5c3
100
AcDbEntity
8
1
100
AcDbVertex
100
AcDb2dVertex
62
5
10
167.929781
20
197.547911
0
VERTEX
5
5c4
100
AcDbEntity
8
1
100
AcDbVertex
100
AcDb2dVertex
62
5
10
167.930060
20
197.546795
0
VERTEX
5
5c5
100
AcDbEntity
8
1
100
AcDbVertex
100
AcDb2dVertex
62
5
10
167.930339
20
197.545643
0
VERTEX
5
5c6
100
AcDbEntity
8
1
100
AcDbVertex
100
AcDb2dVertex
62
5
10
167.930584
20
197.544492
0
VERTEX
5
5c7
100
AcDbEntity
8
1
100
AcDbVertex
100
AcDb2dVertex
62
5
10
167.930828
20
197.543375
0
VERTEX
5
5c8
100
AcDbEntity
8
1
100
AcDbVertex
100
AcDb2dVertex
62
5
10
167.931072
20
197.542224
0
VERTEX
5
5c9
100
AcDbEntity
8
1
100
AcDbVertex
100
AcDb2dVertex
62
5
10
167.931316
20
197.541072
0
VERTEX
5
5ca
100
AcDbEntity
8
1
100
AcDbVertex
100
AcDb2dVertex
62
5
10
167.931526
20
197.539920
0
VERTEX
5
5cb
100
AcDbEntity
8
1
100
AcDbVertex
100
AcDb2dVertex
62
5
10
167.931735
20
197.538769
0
VERTEX
5
5cc
100
AcDbEntity
8
1
100
AcDbVertex
100
AcDb2dVertex
62
5
10
167.931979
20
197.537617
0
VERTEX
5
5cd
100
AcDbEntity
8
1
100
AcDbVertex
100
AcDb2dVertex
62
5
10
167.932154
20
197.536466
0
VERTEX
5
5ce
100
AcDbEntity
8
1
100
AcDbVertex
100
AcDb2dVertex
62
5
10
167.932363
20
197.535314
0
VERTEX
5
5cf
100
AcDbEntity
8
1
100
AcDbVertex
100
AcDb2dVertex
62
5
10
167.932538
20
197.534163
0
VERTEX
5
5d0
100
AcDbEntity
8
1
100
AcDbVertex
100
AcDb2dVertex
62
5
10
167.932747
20
197.533011
0
VERTEX
5
5d1
100
AcDbEntity
8
1
100
AcDbVertex
100
AcDb2dVertex
62
5
10
167.932922
20
197.531860
0
VERTEX
5
5d2
100
AcDbEntity
8
1
100
AcDbVertex
100
AcDb2dVertex
62
5
10
167.933061
20
197.530674
0
VERTEX
5
5d3
100
AcDbEntity
8
1
100
AcDbVertex
100
AcDb2dVertex
62
5
10
167.933236
20
197.529522
0
VERTEX
5
5d4
100
AcDbEntity
8
1
100
AcDbVertex
100
AcDb2dVertex
62
5
10
167.933375
20
197.528336
0
VERTEX
5
5d5
100
AcDbEntity
8
1
100
AcDbVertex
100
AcDb2dVertex
62
5
10
167.933550
20
197.527184
0
VERTEX
5
5d6
100
AcDbEntity
8
1
100
AcDbVertex
100
AcDb2dVertex
62
5
10
167.933654
20
197.525998
0
VERTEX
5
5d7
100
AcDbEntity
8
1
100
AcDbVertex
100
AcDb2dVertex
62
5
10
167.933794
20
197.524846
0
VERTEX
5
5d8
100
AcDbEntity
8
1
100
AcDbVertex
100
AcDb2dVertex
62
5
10
167.933933
20
197.523660
0
VERTEX
5
5d9
100
AcDbEntity
8
1
100
AcDbVertex
100
AcDb2dVertex
62
5
10
167.934038
20
197.522473
0
VERTEX
5
5da
100
AcDbEntity
8
1
100
AcDbVertex
100
AcDb2dVertex
62
5
10
167.934143
20
197.521287
0
VERTEX
5
5db
100
AcDbEntity
8
1
100
AcDbVertex
100
AcDb2dVertex
62
5
10
167.934248
20
197.520101
0
VERTEX
5
5dc
100
AcDbEntity
8
1
100
AcDbVertex
100
AcDb2dVertex
62
5
10
167.934352
20
197.518914
0
VERTEX
5
5dd
100
AcDbEntity
8
1
100
AcDbVertex
100
AcDb2dVertex
62
5
10
167.934422
20
197.517728
0
VERTEX
5
5de
100
AcDbEntity
8
1
100
AcDbVertex
100
AcDb2dVertex
62
5
10
167.934492
20
197.516541
0
VERTEX
5
5df
100
AcDbEntity
8
1
100
AcDbVertex
100
AcDb2dVertex
62
5
10
167.934562
20
197.515355
0
VERTEX
5
5e0
100
AcDbEntity
8
1
100
AcDbVertex
100
AcDb2dVertex
62
5
10
167.934631
20
197.514169
0
VERTEX
5
5e1
100
AcDbEntity
8
1
100
AcDbVertex
100
AcDb2dVertex
62
5
10
167.934701
20
197.512982
0
VERTEX
5
5e2
100
AcDbEntity
8
1
100
AcDbVertex
100
AcDb2dVertex
62
5
10
167.934736
20
197.511761
0
VERTEX
5
5e3
100
AcDbEntity
8
1
100
AcDbVertex
100
AcDb2dVertex
62
5
10
167.934771
20
197.510574
0
VERTEX
5
5e4
100
AcDbEntity
8
1
100
AcDbVertex
100
AcDb2dVertex
62
5
10
167.934806
20
197.509388
0
VERTEX
5
5e5
100
AcDbEntity
8
1
100
AcDbVertex
100
AcDb2dVertex
62
5
10
167.934841
20
197.508167
0
VERTEX
5
5e6
100
AcDbEntity
8
1
100
AcDbVertex
100
AcDb2dVertex
62
5
10
167.934841
20
197.506945
0
VERTEX
5
5e7
100
AcDbEntity
8
1
100
AcDbVertex
100
AcDb2dVertex
62
5
10
167.934876
20
197.505759
0
VERTEX
5
5e8
100
AcDbEntity
8
1
100
AcDbVertex
100
AcDb2dVertex
62
5
10
167.934876
20
197.504538
0
SEQEND
5
5e9
100
AcDbEntity
8
1
0
POLYLINE
5
5ea
100
AcDbEntity
8
1
6
CONTINUOUS
62
5
100
AcDb2dPolyline
66
1
10
0.0
20
0.0
30
0.0
70
0
0
VERTEX
5
5eb
100
AcDbEntity
8
1
100
AcDbVertex
100
AcDb2dVertex
62
5
10
167.746831
20
197.692583
0
VERTEX
5
5ec
100
AcDbEntity
8
1
100
AcDbVertex
100
AcDb2dVertex
62
5
10
167.748052
20
197.692583
0
VERTEX
5
5ed
100
AcDbEntity
8
1
100
AcDbVertex
100
AcDb2dVertex
62
5
10
167.749238
20
197.692548
0
VERTEX
5
5ee
100
AcDbEntity
8
1
100
AcDbVertex
100
AcDb2dVertex
62
5
10
167.750460
20
197.692548
0
VERTEX
5
5ef
100
AcDbEntity
8
1
100
AcDbVertex
100
AcDb2dVertex
62
5
10
167.751646
20
197.692513
0
VERTEX
5
5f0
100
AcDbEntity
8
1
100
AcDbVertex
100
AcDb2dVertex
62
5
10
167.752867
20
197.692513
0
VERTEX
5
5f1
100
AcDbEntity
8
1
100
AcDbVertex
100
AcDb2dVertex
62
5
10
167.754054
20
197.692478
0
VERTEX
5
5f2
100
AcDbEntity
8
1
100
AcDbVertex
100
AcDb2dVertex
62
5
10
167.755240
20
197.692408
0
VERTEX
5
5f3
100
AcDbEntity
8
1
100
AcDbVertex
100
AcDb2dVertex
62
5
10
167.756427
20
197.692373
0
VERTEX
5
5f4
100
AcDbEntity
8
1
100
AcDbVertex
100
AcDb2dVertex
62
5
10
167.757613
20
197.692304
0
VERTEX
5
5f5
100
AcDbEntity
8
1
100
AcDbVertex
100
AcDb2dVertex
62
5
10
167.758799
20
197.692269
0
VERTEX
5
5f6
100
AcDbEntity
8
1
100
AcDbVertex
100
AcDb2dVertex
62
5
10
167.759986
20
197.692199
0
VERTEX
5
5f7
100
AcDbEntity
8
1
100
AcDbVertex
100
AcDb2dVertex
62
5
10
167.761137
20
197.692129
0
VERTEX
5
5f8
100
AcDbEntity
8
1
100
AcDbVertex
100
AcDb2dVertex
62
5
10
167.762324
20
197.692024
0
VERTEX
5
5f9
100
AcDbEntity
8
1
100
AcDbVertex
100
AcDb2dVertex
62
5
10
167.763475
20
197.691955
0
VERTEX
5
5fa
100
AcDbEntity
8
1
100
AcDbVertex
100
AcDb2dVertex
62
5
10
167.764662
20
197.691850
0
VERTEX
5
5fb
100
AcDbEntity
8
1
100
AcDbVertex
100
AcDb2dVertex
62
5
10
167.765813
20
197.691780
0
VERTEX
5
5fc
100
AcDbEntity
8
1
100
AcDbVertex
100
AcDb2dVertex
62
5
10
167.766965
20
197.691675
0
VERTEX
5
5fd
100
AcDbEntity
8
1
100
AcDbVertex
100
AcDb2dVertex
62
5
10
167.768116
20
197.691536
0
VERTEX
5
5fe
100
AcDbEntity
8
1
100
AcDbVertex
100
AcDb2dVertex
62
5
10
167.769268
20
197.691431
0
VERTEX
5
5ff
100
AcDbEntity
8
1
100
AcDbVertex
100
AcDb2dVertex
62
5
10
167.770419
20
197.691292
0
VERTEX
5
600
100
AcDbEntity
8
1
100
AcDbVertex
100
AcDb2dVertex
62
5
10
167.771571
20
197.691187
0
VERTEX
5
601
100
AcDbEntity
8
1
100
AcDbVertex
100
AcDb2dVertex
62
5
10
167.772722
20
197.691047
0
VERTEX
5
602
100
AcDbEntity
8
1
100
AcDbVertex
100
AcDb2dVertex
62
5
10
167.773874
20
197.690908
0
VERTEX
5
603
100
AcDbEntity
8
1
100
AcDbVertex
100
AcDb2dVertex
62
5
10
167.774990
20
197.690733
0
VERTEX
5
604
100
AcDbEntity
8
1
100
AcDbVertex
100
AcDb2dVertex
62
5
10
167.776142
20
197.690594
0
VERTEX
5
605
100
AcDbEntity
8
1
100
AcDbVertex
100
AcDb2dVertex
62
5
10
167.777258
20
197.690419
0
VERTEX
5
606
100
AcDbEntity
8
1
100
AcDbVertex
100
AcDb2dVertex
62
5
10
167.778375
20
197.690245
0
VERTEX
5
607
100
AcDbEntity
8
1
100
AcDbVertex
100
AcDb2dVertex
62
5
10
167.779527
20
197.690070
0
VERTEX
5
608
100
AcDbEntity
8
1
100
AcDbVertex
100
AcDb2dVertex
62
5
10
167.780643
20
197.689896
0
VERTEX
5
609
100
AcDbEntity
8
1
100
AcDbVertex
100
AcDb2dVertex
62
5
10
167.781760
20
197.689721
0
VERTEX
5
60a
100
AcDbEntity
8
1
100
AcDbVertex
100
AcDb2dVertex
62
5
10
167.782876
20
197.689512
0
VERTEX
5
60b
100
AcDbEntity
8
1
100
AcDbVertex
100
AcDb2dVertex
62
5
10
167.783958
20
197.689337
0
VERTEX
5
60c
100
AcDbEntity
8
1
100
AcDbVertex
100
AcDb2dVertex
62
5
10
167.785075
20
197.689128
0
VERTEX
5
60d
100
AcDbEntity
8
1
100
AcDbVertex
100
AcDb2dVertex
62
5
10
167.786191
20
197.688919
0
VERTEX
5
60e
100
AcDbEntity
8
1
100
AcDbVertex
100
AcDb2dVertex
62
5
10
167.787273
20
197.688675
0
VERTEX
5
60f
100
AcDbEntity
8
1
100
AcDbVertex
100
AcDb2dVertex
62
5
10
167.788390
20
197.688465
0
VERTEX
5
610
100
AcDbEntity
8
1
100
AcDbVertex
100
AcDb2dVertex
62
5
10
167.789471
20
197.688221
0
VERTEX
5
611
100
AcDbEntity
8
1
100
AcDbVertex
100
AcDb2dVertex
62
5
10
167.790588
20
197.687977
0
VERTEX
5
612
100
AcDbEntity
8
1
100
AcDbVertex
100
AcDb2dVertex
62
5
10
167.791670
20
197.687732
0
VERTEX
5
613
100
AcDbEntity
8
1
100
AcDbVertex
100
AcDb2dVertex
62
5
10
167.792751
20
197.687488
0
VERTEX
5
614
100
AcDbEntity
8
1
100
AcDbVertex
100
AcDb2dVertex
62
5
10
167.793833
20
197.687244
0
VERTEX
5
615
100
AcDbEntity
8
1
100
AcDbVertex
100
AcDb2dVertex
62
5
10
167.794915
20
197.686965
0
VERTEX
5
616
100
AcDbEntity
8
1
100
AcDbVertex
100
AcDb2dVertex
62
5
10
167.795997
20
197.686686
0
VERTEX
5
617
100
AcDbEntity
8
1
100
AcDbVertex
100
AcDb2dVertex
62
5
10
167.797043
20
197.686406
0
VERTEX
5
618
100
AcDbEntity
8
1
100
AcDbVertex
100
AcDb2dVertex
62
5
10
167.798125
20
197.686127
0
VERTEX
5
619
100
AcDbEntity
8
1
100
AcDbVertex
100
AcDb2dVertex
62
5
10
167.799207
20
197.685848
0
VERTEX
5
61a
100
AcDbEntity
8
1
100
AcDbVertex
100
AcDb2dVertex
62
5
10
167.800254
20
197.685569
0
VERTEX
5
61b
100
AcDbEntity
8
1
100
AcDbVertex
100
AcDb2dVertex
62
5
10
167.801335
20
197.685255
0
VERTEX
5
61c
100
AcDbEntity
8
1
100
AcDbVertex
100
AcDb2dVertex
62
5
10
167.802382
20
197.684941
0
VERTEX
5
61d
100
AcDbEntity
8
1
100
AcDbVertex
100
AcDb2dVertex
62
5
10
167.803429
20
197.684627
0
VERTEX
5
61e
100
AcDbEntity
8
1
100
AcDbVertex
100
AcDb2dVertex
62
5
10
167.804476
20
197.684313
0
VERTEX
5
61f
100
AcDbEntity
8
1
100
AcDbVertex
100
AcDb2dVertex
62
5
10
167.805523
20
197.683964
0
VERTEX
5
620
100
AcDbEntity
8
1
100
AcDbVertex
100
AcDb2dVertex
62
5
10
167.806570
20
197.683650
0
VERTEX
5
621
100
AcDbEntity
8
1
100
AcDbVertex
100
AcDb2dVertex
62
5
10
167.807616
20
197.683301
0
VERTEX
5
622
100
AcDbEntity
8
1
100
AcDbVertex
100
AcDb2dVertex
62
5
10
167.808663
20
197.682952
0
VERTEX
5
623
100
AcDbEntity
8
1
100
AcDbVertex
100
AcDb2dVertex
62
5
10
167.809675
20
197.682603
0
VERTEX
5
624
100
AcDbEntity
8
1
100
AcDbVertex
100
AcDb2dVertex
62
5
10
167.810722
20
197.682254
0
VERTEX
5
625
100
AcDbEntity
8
1
100
AcDbVertex
100
AcDb2dVertex
62
5
10
167.811734
20
197.681870
0
VERTEX
5
626
100
AcDbEntity
8
1
100
AcDbVertex
100
AcDb2dVertex
62
5
10
167.812781
20
197.681521
0
VERTEX
5
627
100
AcDbEntity
8
1
100
AcDbVertex
100
AcDb2dVertex
62
5
10
167.813793
20
197.681137
0
VERTEX
5
628
100
AcDbEntity
8
1
100
AcDbVertex
100
AcDb2dVertex
62
5
10
167.814805
20
197.680754
0
VERTEX
5
629
100
AcDbEntity
8
1
100
AcDbVertex
100
AcDb2dVertex
62
5
10
167.815817
20
197.680370
0
VERTEX
5
62a
100
AcDbEntity
8
1
100
AcDbVertex
100
AcDb2dVertex
62
5
10
167.816828
20
197.679951
0
VERTEX
5
62b
100
AcDbEntity
8
1
100
AcDbVertex
100
AcDb2dVertex
62
5
10
167.817840
20
197.679567
0
VERTEX
5
62c
100
AcDbEntity
8
1
100
AcDbVertex
100
AcDb2dVertex
62
5
10
167.818852
20
197.679148
0
VERTEX
5
62d
100
AcDbEntity
8
1
100
AcDbVertex
100
AcDb2dVertex
62
5
10
167.819864
20
197.678730
0
VERTEX
5
62e
100
AcDbEntity
8
1
100
AcDbVertex
100
AcDb2dVertex
62
5
10
167.820876
20
197.678311
0
VERTEX
5
62f
100
AcDbEntity
8
1
100
AcDbVertex
100
AcDb2dVertex
62
5
10
167.821853
20
197.677892
0
VERTEX
5
630
100
AcDbEntity
8
1
100
AcDbVertex
100
AcDb2dVertex
62
5
10
167.822865
20
197.677439
0
VERTEX
5
631
100
AcDbEntity
8
1
100
AcDbVertex
100
AcDb2dVertex
62
5
10
167.823842
20
197.676985
0
VERTEX
5
632
100
AcDbEntity
8
1
100
AcDbVertex
100
AcDb2dVertex
62
5
10
167.824819
20
197.676566
0
VERTEX
5
633
100
AcDbEntity
8
1
100
AcDbVertex
100
AcDb2dVertex
62
5
10
167.825831
20
197.676078
0
VERTEX
5
634
100
AcDbEntity
8
1
100
AcDbVertex
100
AcDb2dVertex
62
5
10
167.826808
20
197.675624
0
VERTEX
5
635
100
AcDbEntity
8
1
100
AcDbVertex
100
AcDb2dVertex
62
5
10
167.827785
20
197.675170
0
VERTEX
5
636
100
AcDbEntity
8
1
100
AcDbVertex
100
AcDb2dVertex
62
5
10
167.828762
20
197.674682
0
VERTEX
5
637
100
AcDbEntity
8
1
100
AcDbVertex
100
AcDb2dVertex
62
5
10
167.829704
20
197.674228
0
VERTEX
5
638
100
AcDbEntity
8
1
100
AcDbVertex
100
AcDb2dVertex
62
5
10
167.830682
20
197.673740
0
VERTEX
5
639
100
AcDbEntity
8
1
100
AcDbVertex
100
AcDb2dVertex
62
5
10
167.831659
20
197.673216
0
VERTEX
5
63a
100
AcDbEntity
8
1
100
AcDbVertex
100
AcDb2dVertex
62
5
10
167.832601
20
197.672728
0
VERTEX
5
63b
100
AcDbEntity
8
1
100
AcDbVertex
100
AcDb2dVertex
62
5
10
167.833578
20
197.672239
0
VERTEX
5
63c
100
AcDbEntity
8
1
100
AcDbVertex
100
AcDb2dVertex
62
5
10
167.834520
20
197.671716
0
VERTEX
5
63d
100
AcDbEntity
8
1
100
AcDbVertex
100
AcDb2dVertex
62
5
10
167.835497
20
197.671193
0
VERTEX
5
63e
100
AcDbEntity
8
1
100
AcDbVertex
100
AcDb2dVertex
62
5
10
167.836439
20
197.670669
0
VERTEX
5
63f
100
AcDbEntity
8
1
100
AcDbVertex
100
AcDb2dVertex
62
5
10
167.837381
20
197.670146
0
VERTEX
5
640
100
AcDbEntity
8
1
100
AcDbVertex
100
AcDb2dVertex
62
5
10
167.838323
20
197.669622
0
VERTEX
5
641
100
AcDbEntity
8
1
100
AcDbVertex
100
AcDb2dVertex
62
5
10
167.839265
20
197.669064
0
VERTEX
5
642
100
AcDbEntity
8
1
100
AcDbVertex
100
AcDb2dVertex
62
5
10
167.840208
20
197.668506
0
VERTEX
5
643
100
AcDbEntity
8
1
100
AcDbVertex
100
AcDb2dVertex
62
5
10
167.841115
20
197.667947
0
VERTEX
5
644
100
AcDbEntity
8
1
100
AcDbVertex
100
AcDb2dVertex
62
5
10
167.842057
20
197.667389
0
VERTEX
5
645
100
AcDbEntity
8
1
100
AcDbVertex
100
AcDb2dVertex
62
5
10
167.842999
20
197.666831
0
VERTEX
5
646
100
AcDbEntity
8
1
100
AcDbVertex
100
AcDb2dVertex
62
5
10
167.843906
20
197.666238
0
VERTEX
5
647
100
AcDbEntity
8
1
100
AcDbVertex
100
AcDb2dVertex
62
5
10
167.844814
20
197.665679
0
VERTEX
5
648
100
AcDbEntity
8
1
100
AcDbVertex
100
AcDb2dVertex
62
5
10
167.845756
20
197.665086
0
VERTEX
5
649
100
AcDbEntity
8
1
100
AcDbVertex
100
AcDb2dVertex
62
5
10
167.846663
20
197.664493
0
VERTEX
5
64a
100
AcDbEntity
8
1
100
AcDbVertex
100
AcDb2dVertex
62
5
10
167.847570
20
197.663865
0
VERTEX
5
64b
100
AcDbEntity
8
1
100
AcDbVertex
100
AcDb2dVertex
62
5
10
167.848478
20
197.663272
0
VERTEX
5
64c
100
AcDbEntity
8
1
100
AcDbVertex
100
AcDb2dVertex
62
5
10
167.849385
20
197.662678
0
VERTEX
5
64d
100
AcDbEntity
8
1
100
AcDbVertex
100
AcDb2dVertex
62
5
10
167.850292
20
197.662050
0
VERTEX
5
64e
100
AcDbEntity
8
1
100
AcDbVertex
100
AcDb2dVertex
62
5
10
167.851199
20
197.661422
0
VERTEX
5
64f
100
AcDbEntity
8
1
100
AcDbVertex
100
AcDb2dVertex
62
5
10
167.852072
20
197.660794
0
VERTEX
5
650
100
AcDbEntity
8
1
100
AcDbVertex
100
AcDb2dVertex
62
5
10
167.852979
20
197.660131
0
VERTEX
5
651
100
AcDbEntity
8
1
100
AcDbVertex
100
AcDb2dVertex
62
5
10
167.853851
20
197.659503
0
VERTEX
5
652
100
AcDbEntity
8
1
100
AcDbVertex
100
AcDb2dVertex
62
5
10
167.854759
20
197.658840
0
VERTEX
5
653
100
AcDbEntity
8
1
100
AcDbVertex
100
AcDb2dVertex
62
5
10
167.855631
20
197.658177
0
VERTEX
5
654
100
AcDbEntity
8
1
100
AcDbVertex
100
AcDb2dVertex
62
5
10
167.856503
20
197.657514
0
VERTEX
5
655
100
AcDbEntity
8
1
100
AcDbVertex
100
AcDb2dVertex
62
5
10
167.857376
20
197.656851
0
VERTEX
5
656
100
AcDbEntity
8
1
100
AcDbVertex
100
AcDb2dVertex
62
5
10
167.858248
20
197.656188
0
VERTEX
5
657
100
AcDbEntity
8
1
100
AcDbVertex
100
AcDb2dVertex
62
5
10
167.859120
20
197.655490
0
VERTEX
5
658
100
AcDbEntity
8
1
100
AcDbVertex
100
AcDb2dVertex
62
5
10
167.859993
20
197.654792
0
VERTEX
5
659
100
AcDbEntity
8
1
100
AcDbVertex
100
AcDb2dVertex
62
5
10
167.860865
20
197.654094
0
VERTEX
5
65a
100
AcDbEntity
8
1
100
AcDbVertex
100
AcDb2dVertex
62
5
10
167.861702
20
197.653396
0
VERTEX
5
65b
100
AcDbEntity
8
1
100
AcDbVertex
100
AcDb2dVertex
62
5
10
167.862575
20
197.652699
0
VERTEX
5
65c
100
AcDbEntity
8
1
100
AcDbVertex
100
AcDb2dVertex
62
5
10
167.863412
20
197.651966
0
VERTEX
5
65d
100
AcDbEntity
8
1
100
AcDbVertex
100
AcDb2dVertex
62
5
10
167.864285
20
197.651268
0
VERTEX
5
65e
100
AcDbEntity
8
1
100
AcDbVertex
100
AcDb2dVertex
62
5
10
167.865122
20
197.650535
0
VERTEX
5
65f
100
AcDbEntity
8
1
100
AcDbVertex
100
AcDb2dVertex
62
5
10
167.865960
20
197.649802
0
VERTEX
5
660
100
AcDbEntity
8
1
100
AcDbVertex
100
AcDb2dVertex
62
5
10
167.866797
20
197.649070
0
VERTEX
5
661
100
AcDbEntity
8
1
100
AcDbVertex
100
AcDb2dVertex
62
5
10
167.867634
20
197.648302
0
VERTEX
5
662
100
AcDbEntity
8
1
100
AcDbVertex
100
AcDb2dVertex
62
5
10
167.868472
20
197.647569
0
VERTEX
5
663
100
AcDbEntity
8
1
100
AcDbVertex
100
AcDb2dVertex
62
5
10
167.869309
20
197.646801
0
VERTEX
5
664
100
AcDbEntity
8
1
100
AcDbVertex
100
AcDb2dVertex
62
5
10
167.870147
20
197.646034
0
VERTEX
5
665
100
AcDbEntity
8
1
100
AcDbVertex
100
AcDb2dVertex
62
5
10
167.870949
20
197.645266
0
VERTEX
5
666
100
AcDbEntity
8
1
100
AcDbVertex
100
AcDb2dVertex
62
5
10
167.871787
20
197.644464
0
VERTEX
5
667
100
AcDbEntity
8
1
100
AcDbVertex
100
AcDb2dVertex
62
5
10
167.872589
20
197.643696
0
VERTEX
5
668
100
AcDbEntity
8
1
100
AcDbVertex
100
AcDb2dVertex
62
5
10
167.873427
20
197.642893
0
VERTEX
5
669
100
AcDbEntity
8
1
100
AcDbVertex
100
AcDb2dVertex
62
5
10
167.874229
20
197.642091
0
VERTEX
5
66a
100
AcDbEntity
8
1
100
AcDbVertex
100
AcDb2dVertex
62
5
10
167.875032
20
197.641288
0
SEQEND
5
66b
100
AcDbEntity
8
1
0
POLYLINE
5
66c
100
AcDbEntity
8
1
6
CONTINUOUS
62
5
100
AcDb2dPolyline
66
1
10
0.0
20
0.0
30
0.0
70
0
0
VERTEX
5
66d
100
AcDbEntity
8
1
100
AcDbVertex
100
AcDb2dVertex
62
5
10
167.618629
20
197.641288
0
VERTEX
5
66e
100
AcDbEntity
8
1
100
AcDbVertex
100
AcDb2dVertex
62
5
10
167.619432
20
197.642091
0
VERTEX
5
66f
100
AcDbEntity
8
1
100
AcDbVertex
100
AcDb2dVertex
62
5
10
167.620269
20
197.642893
0
VERTEX
5
670
100
AcDbEntity
8
1
100
AcDbVertex
100
AcDb2dVertex
62
5
10
167.621072
20
197.643696
0
VERTEX
5
671
100
AcDbEntity
8
1
100
AcDbVertex
100
AcDb2dVertex
62
5
10
167.621875
20
197.644464
0
VERTEX
5
672
100
AcDbEntity
8
1
100
AcDbVertex
100
AcDb2dVertex
62
5
10
167.622712
20
197.645266
0
VERTEX
5
673
100
AcDbEntity
8
1
100
AcDbVertex
100
AcDb2dVertex
62
5
10
167.623549
20
197.646034
0
VERTEX
5
674
100
AcDbEntity
8
1
100
AcDbVertex
100
AcDb2dVertex
62
5
10
167.624352
20
197.646801
0
VERTEX
5
675
100
AcDbEntity
8
1
100
AcDbVertex
100
AcDb2dVertex
62
5
10
167.625189
20
197.647569
0
VERTEX
5
676
100
AcDbEntity
8
1
100
AcDbVertex
100
AcDb2dVertex
62
5
10
167.626027
20
197.648302
0
VERTEX
5
677
100
AcDbEntity
8
1
100
AcDbVertex
100
AcDb2dVertex
62
5
10
167.626864
20
197.649070
0
VERTEX
5
678
100
AcDbEntity
8
1
100
AcDbVertex
100
AcDb2dVertex
62
5
10
167.627702
20
197.649802
0
VERTEX
5
679
100
AcDbEntity
8
1
100
AcDbVertex
100
AcDb2dVertex
62
5
10
167.628539
20
197.650535
0
VERTEX
5
67a
100
AcDbEntity
8
1
100
AcDbVertex
100
AcDb2dVertex
62
5
10
167.629412
20
197.651268
0
VERTEX
5
67b
100
AcDbEntity
8
1
100
AcDbVertex
100
AcDb2dVertex
62
5
10
167.630249
20
197.651966
0
VERTEX
5
67c
100
AcDbEntity
8
1
100
AcDbVertex
100
AcDb2dVertex
62
5
10
167.631087
20
197.652699
0
VERTEX
5
67d
100
AcDbEntity
8
1
100
AcDbVertex
100
AcDb2dVertex
62
5
10
167.631959
20
197.653396
0
VERTEX
5
67e
100
AcDbEntity
8
1
100
AcDbVertex
100
AcDb2dVertex
62
5
10
167.632831
20
197.654094
0
VERTEX
5
67f
100
AcDbEntity
8
1
100
AcDbVertex
100
AcDb2dVertex
62
5
10
167.633669
20
197.654792
0
VERTEX
5
680
100
AcDbEntity
8
1
100
AcDbVertex
100
AcDb2dVertex
62
5
10
167.634541
20
197.655490
0
VERTEX
5
681
100
AcDbEntity
8
1
100
AcDbVertex
100
AcDb2dVertex
62
5
10
167.635413
20
197.656188
0
VERTEX
5
682
100
AcDbEntity
8
1
100
AcDbVertex
100
AcDb2dVertex
62
5
10
167.636286
20
197.656851
0
VERTEX
5
683
100
AcDbEntity
8
1
100
AcDbVertex
100
AcDb2dVertex
62
5
10
167.637158
20
197.657514
0
VERTEX
5
684
100
AcDbEntity
8
1
100
AcDbVertex
100
AcDb2dVertex
62
5
10
167.638031
20
197.658177
0
VERTEX
5
685
100
AcDbEntity
8
1
100
AcDbVertex
100
AcDb2dVertex
62
5
10
167.638938
20
197.658840
0
VERTEX
5
686
100
AcDbEntity
8
1
100
AcDbVertex
100
AcDb2dVertex
62
5
10
167.639810
20
197.659503
0
VERTEX
5
687
100
AcDbEntity
8
1
100
AcDbVertex
100
AcDb2dVertex
62
5
10
167.640717
20
197.660131
0
VERTEX
5
688
100
AcDbEntity
8
1
100
AcDbVertex
100
AcDb2dVertex
62
5
10
167.641590
20
197.660794
0
VERTEX
5
689
100
AcDbEntity
8
1
100
AcDbVertex
100
AcDb2dVertex
62
5
10
167.642497
20
197.661422
0
VERTEX
5
68a
100
AcDbEntity
8
1
100
AcDbVertex
100
AcDb2dVertex
62
5
10
167.643404
20
197.662050
0
VERTEX
5
68b
100
AcDbEntity
8
1
100
AcDbVertex
100
AcDb2dVertex
62
5
10
167.644277
20
197.662678
0
VERTEX
5
68c
100
AcDbEntity
8
1
100
AcDbVertex
100
AcDb2dVertex
62
5
10
167.645184
20
197.663272
0
VERTEX
5
68d
100
AcDbEntity
8
1
100
AcDbVertex
100
AcDb2dVertex
62
5
10
167.646091
20
197.663865
0
VERTEX
5
68e
100
AcDbEntity
8
1
100
AcDbVertex
100
AcDb2dVertex
62
5
10
167.646998
20
197.664493
0
VERTEX
5
68f
100
AcDbEntity
8
1
100
AcDbVertex
100
AcDb2dVertex
62
5
10
167.647941
20
197.665086
0
VERTEX
5
690
100
AcDbEntity
8
1
100
AcDbVertex
100
AcDb2dVertex
62
5
10
167.648848
20
197.665679
0
VERTEX
5
691
100
AcDbEntity
8
1
100
AcDbVertex
100
AcDb2dVertex
62
5
10
167.649755
20
197.666238
0
VERTEX
5
692
100
AcDbEntity
8
1
100
AcDbVertex
100
AcDb2dVertex
62
5
10
167.650697
20
197.666831
0
VERTEX
5
693
100
AcDbEntity
8
1
100
AcDbVertex
100
AcDb2dVertex
62
5
10
167.651604
20
197.667389
0
VERTEX
5
694
100
AcDbEntity
8
1
100
AcDbVertex
100
AcDb2dVertex
62
5
10
167.652547
20
197.667947
0
VERTEX
5
695
100
AcDbEntity
8
1
100
AcDbVertex
100
AcDb2dVertex
62
5
10
167.653489
20
197.668506
0
VERTEX
5
696
100
AcDbEntity
8
1
100
AcDbVertex
100
AcDb2dVertex
62
5
10
167.654431
20
197.669064
0
VERTEX
5
697
100
AcDbEntity
8
1
100
AcDbVertex
100
AcDb2dVertex
62
5
10
167.655338
20
197.669622
0
VERTEX
5
698
100
AcDbEntity
8
1
100
AcDbVertex
100
AcDb2dVertex
62
5
10
167.656315
20
197.670146
0
VERTEX
5
699
100
AcDbEntity
8
1
100
AcDbVertex
100
AcDb2dVertex
62
5
10
167.657257
20
197.670669
0
VERTEX
5
69a
100
AcDbEntity
8
1
100
AcDbVertex
100
AcDb2dVertex
62
5
10
167.658199
20
197.671193
0
VERTEX
5
69b
100
AcDbEntity
8
1
100
AcDbVertex
100
AcDb2dVertex
62
5
10
167.659142
20
197.671716
0
VERTEX
5
69c
100
AcDbEntity
8
1
100
AcDbVertex
100
AcDb2dVertex
62
5
10
167.660084
20
197.672239
0
VERTEX
5
69d
100
AcDbEntity
8
1
100
AcDbVertex
100
AcDb2dVertex
62
5
10
167.661061
20
197.672728
0
VERTEX
5
69e
100
AcDbEntity
8
1
100
AcDbVertex
100
AcDb2dVertex
62
5
10
167.662038
20
197.673216
0
VERTEX
5
69f
100
AcDbEntity
8
1
100
AcDbVertex
100
AcDb2dVertex
62
5
10
167.662980
20
197.673740
0
VERTEX
5
6a0
100
AcDbEntity
8
1
100
AcDbVertex
100
AcDb2dVertex
62
5
10
167.663957
20
197.674228
0
VERTEX
5
6a1
100
AcDbEntity
8
1
100
AcDbVertex
100
AcDb2dVertex
62
5
10
167.664934
20
197.674682
0
VERTEX
5
6a2
100
AcDbEntity
8
1
100
AcDbVertex
100
AcDb2dVertex
62
5
10
167.665911
20
197.675170
0
VERTEX
5
6a3
100
AcDbEntity
8
1
100
AcDbVertex
100
AcDb2dVertex
62
5
10
167.666888
20
197.675624
0
VERTEX
5
6a4
100
AcDbEntity
8
1
100
AcDbVertex
100
AcDb2dVertex
62
5
10
167.667865
20
197.676078
0
VERTEX
5
6a5
100
AcDbEntity
8
1
100
AcDbVertex
100
AcDb2dVertex
62
5
10
167.668842
20
197.676566
0
VERTEX
5
6a6
100
AcDbEntity
8
1
100
AcDbVertex
100
AcDb2dVertex
62
5
10
167.669819
20
197.676985
0
VERTEX
5
6a7
100
AcDbEntity
8
1
100
AcDbVertex
100
AcDb2dVertex
62
5
10
167.670831
20
197.677439
0
VERTEX
5
6a8
100
AcDbEntity
8
1
100
AcDbVertex
100
AcDb2dVertex
62
5
10
167.671808
20
197.677892
0
VERTEX
5
6a9
100
AcDbEntity
8
1
100
AcDbVertex
100
AcDb2dVertex
62
5
10
167.672820
20
197.678311
0
VERTEX
5
6aa
100
AcDbEntity
8
1
100
AcDbVertex
100
AcDb2dVertex
62
5
10
167.673797
20
197.678730
0
VERTEX
5
6ab
100
AcDbEntity
8
1
100
AcDbVertex
100
AcDb2dVertex
62
5
10
167.674809
20
197.679148
0
VERTEX
5
6ac
100
AcDbEntity
8
1
100
AcDbVertex
100
AcDb2dVertex
62
5
10
167.675821
20
197.679567
0
VERTEX
5
6ad
100
AcDbEntity
8
1
100
AcDbVertex
100
AcDb2dVertex
62
5
10
167.676833
20
197.679951
0
VERTEX
5
6ae
100
AcDbEntity
8
1
100
AcDbVertex
100
AcDb2dVertex
62
5
10
167.677845
20
197.680370
0
VERTEX
5
6af
100
AcDbEntity
8
1
100
AcDbVertex
100
AcDb2dVertex
62
5
10
167.678857
20
197.680754
0
VERTEX
5
6b0
100
AcDbEntity
8
1
100
AcDbVertex
100
AcDb2dVertex
62
5
10
167.679869
20
197.681137
0
VERTEX
5
6b1
100
AcDbEntity
8
1
100
AcDbVertex
100
AcDb2dVertex
62
5
10
167.680916
20
197.681521
0
VERTEX
5
6b2
100
AcDbEntity
8
1
100
AcDbVertex
100
AcDb2dVertex
62
5
10
167.681927
20
197.681870
0
VERTEX
5
6b3
100
AcDbEntity
8
1
100
AcDbVertex
100
AcDb2dVertex
62
5
10
167.682939
20
197.682254
0
VERTEX
5
6b4
100
AcDbEntity
8
1
100
AcDbVertex
100
AcDb2dVertex
62
5
10
167.683986
20
197.682603
0
VERTEX
5
6b5
100
AcDbEntity
8
1
100
AcDbVertex
100
AcDb2dVertex
62
5
10
167.685033
20
197.682952
0
VERTEX
5
6b6
100
AcDbEntity
8
1
100
AcDbVertex
100
AcDb2dVertex
62
5
10
167.686045
20
197.683301
0
VERTEX
5
6b7
100
AcDbEntity
8
1
100
AcDbVertex
100
AcDb2dVertex
62
5
10
167.687092
20
197.683650
0
VERTEX
5
6b8
100
AcDbEntity
8
1
100
AcDbVertex
100
AcDb2dVertex
62
5
10
167.688139
20
197.683964
0
VERTEX
5
6b9
100
AcDbEntity
8
1
100
AcDbVertex
100
AcDb2dVertex
62
5
10
167.689185
20
197.684313
0
VERTEX
5
6ba
100
AcDbEntity
8
1
100
AcDbVertex
100
AcDb2dVertex
62
5
10
167.690232
20
197.684627
0
VERTEX
5
6bb
100
AcDbEntity
8
1
100
AcDbVertex
100
AcDb2dVertex
62
5
10
167.691279
20
197.684941
0
VERTEX
5
6bc
100
AcDbEntity
8
1
100
AcDbVertex
100
AcDb2dVertex
62
5
10
167.692361
20
197.685255
0
VERTEX
5
6bd
100
AcDbEntity
8
1
100
AcDbVertex
100
AcDb2dVertex
62
5
10
167.693408
20
197.685569
0
VERTEX
5
6be
100
AcDbEntity
8
1
100
AcDbVertex
100
AcDb2dVertex
62
5
10
167.694489
20
197.685848
0
VERTEX
5
6bf
100
AcDbEntity
8
1
100
AcDbVertex
100
AcDb2dVertex
62
5
10
167.695536
20
197.686127
0
VERTEX
5
6c0
100
AcDbEntity
8
1
100
AcDbVertex
100
AcDb2dVertex
62
5
10
167.696618
20
197.686406
0
VERTEX
5
6c1
100
AcDbEntity
8
1
100
AcDbVertex
100
AcDb2dVertex
62
5
10
167.697700
20
197.686686
0
VERTEX
5
6c2
100
AcDbEntity
8
1
100
AcDbVertex
100
AcDb2dVertex
62
5
10
167.698746
20
197.686965
0
VERTEX
5
6c3
100
AcDbEntity
8
1
100
AcDbVertex
100
AcDb2dVertex
62
5
10
167.699828
20
197.687244
0
VERTEX
5
6c4
100
AcDbEntity
8
1
100
AcDbVertex
100
AcDb2dVertex
62
5
10
167.700910
20
197.687488
0
VERTEX
5
6c5
100
AcDbEntity
8
1
100
AcDbVertex
100
AcDb2dVertex
62
5
10
167.702027
20
197.687732
0
VERTEX
5
6c6
100
AcDbEntity
8
1
100
AcDbVertex
100
AcDb2dVertex
62
5
10
167.703108
20
197.687977
0
VERTEX
5
6c7
100
AcDbEntity
8
1
100
AcDbVertex
100
AcDb2dVertex
62
5
10
167.704190
20
197.688221
0
VERTEX
5
6c8
100
AcDbEntity
8
1
100
AcDbVertex
100
AcDb2dVertex
62
5
10
167.705272
20
197.688465
0
VERTEX
5
6c9
100
AcDbEntity
8
1
100
AcDbVertex
100
AcDb2dVertex
62
5
10
167.706388
20
197.688675
0
VERTEX
5
6ca
100
AcDbEntity
8
1
100
AcDbVertex
100
AcDb2dVertex
62
5
10
167.707505
20
197.688919
0
VERTEX
5
6cb
100
AcDbEntity
8
1
100
AcDbVertex
100
AcDb2dVertex
62
5
10
167.708587
20
197.689128
0
VERTEX
5
6cc
100
AcDbEntity
8
1
100
AcDbVertex
100
AcDb2dVertex
62
5
10
167.709703
20
197.689337
0
VERTEX
5
6cd
100
AcDbEntity
8
1
100
AcDbVertex
100
AcDb2dVertex
62
5
10
167.710820
20
197.689512
0
VERTEX
5
6ce
100
AcDbEntity
8
1
100
AcDbVertex
100
AcDb2dVertex
62
5
10
167.711937
20
197.689721
0
VERTEX
5
6cf
100
AcDbEntity
8
1
100
AcDbVertex
100
AcDb2dVertex
62
5
10
167.713053
20
197.689896
0
VERTEX
5
6d0
100
AcDbEntity
8
1
100
AcDbVertex
100
AcDb2dVertex
62
5
10
167.714170
20
197.690070
0
VERTEX
5
6d1
100
AcDbEntity
8
1
100
AcDbVertex
100
AcDb2dVertex
62
5
10
167.715286
20
197.690245
0
VERTEX
5
6d2
100
AcDbEntity
8
1
100
AcDbVertex
100
AcDb2dVertex
62
5
10
167.716403
20
197.690419
0
VERTEX
5
6d3
100
AcDbEntity
8
1
100
AcDbVertex
100
AcDb2dVertex
62
5
10
167.717554
20
197.690594
0
VERTEX
5
6d4
100
AcDbEntity
8
1
100
AcDbVertex
100
AcDb2dVertex
62
5
10
167.718671
20
197.690733
0
VERTEX
5
6d5
100
AcDbEntity
8
1
100
AcDbVertex
100
AcDb2dVertex
62
5
10
167.719823
20
197.690908
0
VERTEX
5
6d6
100
AcDbEntity
8
1
100
AcDbVertex
100
AcDb2dVertex
62
5
10
167.720939
20
197.691047
0
VERTEX
5
6d7
100
AcDbEntity
8
1
100
AcDbVertex
100
AcDb2dVertex
62
5
10
167.722091
20
197.691187
0
VERTEX
5
6d8
100
AcDbEntity
8
1
100
AcDbVertex
100
AcDb2dVertex
62
5
10
167.723242
20
197.691292
0
VERTEX
5
6d9
100
AcDbEntity
8
1
100
AcDbVertex
100
AcDb2dVertex
62
5
10
167.724394
20
197.691431
0
VERTEX
5
6da
100
AcDbEntity
8
1
100
AcDbVertex
100
AcDb2dVertex
62
5
10
167.725545
20
197.691536
0
VERTEX
5
6db
100
AcDbEntity
8
1
100
AcDbVertex
100
AcDb2dVertex
62
5
10
167.726697
20
197.691675
0
VERTEX
5
6dc
100
AcDbEntity
8
1
100
AcDbVertex
100
AcDb2dVertex
62
5
10
167.727848
20
197.691780
0
VERTEX
5
6dd
100
AcDbEntity
8
1
100
AcDbVertex
100
AcDb2dVertex
62
5
10
167.729035
20
197.691850
0
VERTEX
5
6de
100
AcDbEntity
8
1
100
AcDbVertex
100
AcDb2dVertex
62
5
10
167.730186
20
197.691955
0
VERTEX
5
6df
100
AcDbEntity
8
1
100
AcDbVertex
100
AcDb2dVertex
62
5
10
167.731373
20
197.692024
0
VERTEX
5
6e0
100
AcDbEntity
8
1
100
AcDbVertex
100
AcDb2dVertex
62
5
10
167.732524
20
197.692129
0
VERTEX
5
6e1
100
AcDbEntity
8
1
100
AcDbVertex
100
AcDb2dVertex
62
5
10
167.733710
20
197.692199
0
VERTEX
5
6e2
100
AcDbEntity
8
1
100
AcDbVertex
100
AcDb2dVertex
62
5
10
167.734897
20
197.692269
0
VERTEX
5
6e3
100
AcDbEntity
8
1
100
AcDbVertex
100
AcDb2dVertex
62
5
10
167.736048
20
197.692304
0
VERTEX
5
6e4
100
AcDbEntity
8
1
100
AcDbVertex
100
AcDb2dVertex
62
5
10
167.737235
20
197.692373
0
VERTEX
5
6e5
100
AcDbEntity
8
1
100
AcDbVertex
100
AcDb2dVertex
62
5
10
167.738421
20
197.692408
0
VERTEX
5
6e6
100
AcDbEntity
8
1
100
AcDbVertex
100
AcDb2dVertex
62
5
10
167.739643
20
197.692478
0
VERTEX
5
6e7
100
AcDbEntity
8
1
100
AcDbVertex
100
AcDb2dVertex
62
5
10
167.740829
20
197.692513
0
VERTEX
5
6e8
100
AcDbEntity
8
1
100
AcDbVertex
100
AcDb2dVertex
62
5
10
167.742015
20
197.692513
0
VERTEX
5
6e9
100
AcDbEntity
8
1
100
AcDbVertex
100
AcDb2dVertex
62
5
10
167.743202
20
197.692548
0
VERTEX
5
6ea
100
AcDbEntity
8
1
100
AcDbVertex
100
AcDb2dVertex
62
5
10
167.744423
20
197.692548
0
VERTEX
5
6eb
100
AcDbEntity
8
1
100
AcDbVertex
100
AcDb2dVertex
62
5
10
167.745644
20
197.692583
0
VERTEX
5
6ec
100
AcDbEntity
8
1
100
AcDbVertex
100
AcDb2dVertex
62
5
10
167.746831
20
197.692583
0
SEQEND
5
6ed
100
AcDbEntity
8
1
0
POLYLINE
5
6ee
100
AcDbEntity
8
1
6
CONTINUOUS
62
5
100
AcDb2dPolyline
66
1
10
0.0
20
0.0
30
0.0
70
0
0
VERTEX
5
6ef
100
AcDbEntity
8
1
100
AcDbVertex
100
AcDb2dVertex
62
5
10
167.558786
20
197.504538
0
VERTEX
5
6f0
100
AcDbEntity
8
1
100
AcDbVertex
100
AcDb2dVertex
62
5
10
167.558821
20
197.505759
0
VERTEX
5
6f1
100
AcDbEntity
8
1
100
AcDbVertex
100
AcDb2dVertex
62
5
10
167.558821
20
197.506945
0
VERTEX
5
6f2
100
AcDbEntity
8
1
100
AcDbVertex
100
AcDb2dVertex
62
5
10
167.558821
20
197.508167
0
VERTEX
5
6f3
100
AcDbEntity
8
1
100
AcDbVertex
100
AcDb2dVertex
62
5
10
167.558856
20
197.509388
0
VERTEX
5
6f4
100
AcDbEntity
8
1
100
AcDbVertex
100
AcDb2dVertex
62
5
10
167.558890
20
197.510574
0
VERTEX
5
6f5
100
AcDbEntity
8
1
100
AcDbVertex
100
AcDb2dVertex
62
5
10
167.558925
20
197.511761
0
VERTEX
5
6f6
100
AcDbEntity
8
1
100
AcDbVertex
100
AcDb2dVertex
62
5
10
167.558995
20
197.512982
0
VERTEX
5
6f7
100
AcDbEntity
8
1
100
AcDbVertex
100
AcDb2dVertex
62
5
10
167.559030
20
197.514169
0
VERTEX
5
6f8
100
AcDbEntity
8
1
100
AcDbVertex
100
AcDb2dVertex
62
5
10
167.559100
20
197.515355
0
VERTEX
5
6f9
100
AcDbEntity
8
1
100
AcDbVertex
100
AcDb2dVertex
62
5
10
167.559170
20
197.516541
0
VERTEX
5
6fa
100
AcDbEntity
8
1
100
AcDbVertex
100
AcDb2dVertex
62
5
10
167.559239
20
197.517728
0
VERTEX
5
6fb
100
AcDbEntity
8
1
100
AcDbVertex
100
AcDb2dVertex
62
5
10
167.559344
20
197.518914
0
VERTEX
5
6fc
100
AcDbEntity
8
1
100
AcDbVertex
100
AcDb2dVertex
62
5
10
167.559414
20
197.520101
0
VERTEX
5
6fd
100
AcDbEntity
8
1
100
AcDbVertex
100
AcDb2dVertex
62
5
10
167.559519
20
197.521287
0
VERTEX
5
6fe
100
AcDbEntity
8
1
100
AcDbVertex
100
AcDb2dVertex
62
5
10
167.559623
20
197.522473
0
VERTEX
5
6ff
100
AcDbEntity
8
1
100
AcDbVertex
100
AcDb2dVertex
62
5
10
167.559763
20
197.523660
0
VERTEX
5
700
100
AcDbEntity
8
1
100
AcDbVertex
100
AcDb2dVertex
62
5
10
167.559868
20
197.524846
0
VERTEX
5
701
100
AcDbEntity
8
1
100
AcDbVertex
100
AcDb2dVertex
62
5
10
167.560007
20
197.525998
0
VERTEX
5
702
100
AcDbEntity
8
1
100
AcDbVertex
100
AcDb2dVertex
62
5
10
167.560147
20
197.527184
0
VERTEX
5
703
100
AcDbEntity
8
1
100
AcDbVertex
100
AcDb2dVertex
62
5
10
167.560286
20
197.528336
0
VERTEX
5
704
100
AcDbEntity
8
1
100
AcDbVertex
100
AcDb2dVertex
62
5
10
167.560426
20
197.529522
0
VERTEX
5
705
100
AcDbEntity
8
1
100
AcDbVertex
100
AcDb2dVertex
62
5
10
167.560600
20
197.530674
0
VERTEX
5
706
100
AcDbEntity
8
1
100
AcDbVertex
100
AcDb2dVertex
62
5
10
167.560775
20
197.531860
0
VERTEX
5
707
100
AcDbEntity
8
1
100
AcDbVertex
100
AcDb2dVertex
62
5
10
167.560949
20
197.533011
0
VERTEX
5
708
100
AcDbEntity
8
1
100
AcDbVertex
100
AcDb2dVertex
62
5
10
167.561124
20
197.534163
0
VERTEX
5
709
100
AcDbEntity
8
1
100
AcDbVertex
100
AcDb2dVertex
62
5
10
167.561298
20
197.535314
0
VERTEX
5
70a
100
AcDbEntity
8
1
100
AcDbVertex
100
AcDb2dVertex
62
5
10
167.561508
20
197.536466
0
VERTEX
5
70b
100
AcDbEntity
8
1
100
AcDbVertex
100
AcDb2dVertex
62
5
10
167.561717
20
197.537617
0
VERTEX
5
70c
100
AcDbEntity
8
1
100
AcDbVertex
100
AcDb2dVertex
62
5
10
167.561926
20
197.538769
0
VERTEX
5
70d
100
AcDbEntity
8
1
100
AcDbVertex
100
AcDb2dVertex
62
5
10
167.562136
20
197.539920
0
VERTEX
5
70e
100
AcDbEntity
8
1
100
AcDbVertex
100
AcDb2dVertex
62
5
10
167.562380
20
197.541072
0
VERTEX
5
70f
100
AcDbEntity
8
1
100
AcDbVertex
100
AcDb2dVertex
62
5
10
167.562589
20
197.542224
0
VERTEX
5
710
100
AcDbEntity
8
1
100
AcDbVertex
100
AcDb2dVertex
62
5
10
167.562834
20
197.543375
0
VERTEX
5
711
100
AcDbEntity
8
1
100
AcDbVertex
100
AcDb2dVertex
62
5
10
167.563078
20
197.544492
0
VERTEX
5
712
100
AcDbEntity
8
1
100
AcDbVertex
100
AcDb2dVertex
62
5
10
167.563357
20
197.545643
0
VERTEX
5
713
100
AcDbEntity
8
1
100
AcDbVertex
100
AcDb2dVertex
62
5
10
167.563601
20
197.546795
0
VERTEX
5
714
100
AcDbEntity
8
1
100
AcDbVertex
100
AcDb2dVertex
62
5
10
167.563880
20
197.547911
0
VERTEX
5
715
100
AcDbEntity
8
1
100
AcDbVertex
100
AcDb2dVertex
62
5
10
167.564160
20
197.549028
0
VERTEX
5
716
100
AcDbEntity
8
1
100
AcDbVertex
100
AcDb2dVertex
62
5
10
167.564439
20
197.550179
0
VERTEX
5
717
100
AcDbEntity
8
1
100
AcDbVertex
100
AcDb2dVertex
62
5
10
167.564753
20
197.551296
0
VERTEX
5
718
100
AcDbEntity
8
1
100
AcDbVertex
100
AcDb2dVertex
62
5
10
167.565032
20
197.552413
0
VERTEX
5
719
100
AcDbEntity
8
1
100
AcDbVertex
100
AcDb2dVertex
62
5
10
167.565346
20
197.553564
0
VERTEX
5
71a
100
AcDbEntity
8
1
100
AcDbVertex
100
AcDb2dVertex
62
5
10
167.565660
20
197.554681
0
VERTEX
5
71b
100
AcDbEntity
8
1
100
AcDbVertex
100
AcDb2dVertex
62
5
10
167.565974
20
197.555797
0
VERTEX
5
71c
100
AcDbEntity
8
1
100
AcDbVertex
100
AcDb2dVertex
62
5
10
167.566323
20
197.556914
0
VERTEX
5
71d
100
AcDbEntity
8
1
100
AcDbVertex
100
AcDb2dVertex
62
5
10
167.566637
20
197.558031
0
VERTEX
5
71e
100
AcDbEntity
8
1
100
AcDbVertex
100
AcDb2dVertex
62
5
10
167.566986
20
197.559147
0
VERTEX
5
71f
100
AcDbEntity
8
1
100
AcDbVertex
100
AcDb2dVertex
62
5
10
167.567335
20
197.560264
0
VERTEX
5
720
100
AcDbEntity
8
1
100
AcDbVertex
100
AcDb2dVertex
62
5
10
167.567719
20
197.561346
0
VERTEX
5
721
100
AcDbEntity
8
1
100
AcDbVertex
100
AcDb2dVertex
62
5
10
167.568068
20
197.562462
0
VERTEX
5
722
100
AcDbEntity
8
1
100
AcDbVertex
100
AcDb2dVertex
62
5
10
167.568452
20
197.563579
0
VERTEX
5
723
100
AcDbEntity
8
1
100
AcDbVertex
100
AcDb2dVertex
62
5
10
167.568835
20
197.564660
0
VERTEX
5
724
100
AcDbEntity
8
1
100
AcDbVertex
100
AcDb2dVertex
62
5
10
167.569219
20
197.565777
0
VERTEX
5
725
100
AcDbEntity
8
1
100
AcDbVertex
100
AcDb2dVertex
62
5
10
167.569603
20
197.566859
0
VERTEX
5
726
100
AcDbEntity
8
1
100
AcDbVertex
100
AcDb2dVertex
62
5
10
167.570022
20
197.567975
0
VERTEX
5
727
100
AcDbEntity
8
1
100
AcDbVertex
100
AcDb2dVertex
62
5
10
167.570440
20
197.569057
0
VERTEX
5
728
100
AcDbEntity
8
1
100
AcDbVertex
100
AcDb2dVertex
62
5
10
167.570859
20
197.570139
0
VERTEX
5
729
100
AcDbEntity
8
1
100
AcDbVertex
100
AcDb2dVertex
62
5
10
167.571278
20
197.571221
0
VERTEX
5
72a
100
AcDbEntity
8
1
100
AcDbVertex
100
AcDb2dVertex
62
5
10
167.571732
20
197.572337
0
VERTEX
5
72b
100
AcDbEntity
8
1
100
AcDbVertex
100
AcDb2dVertex
62
5
10
167.572150
20
197.573419
0
VERTEX
5
72c
100
AcDbEntity
8
1
100
AcDbVertex
100
AcDb2dVertex
62
5
10
167.572604
20
197.574501
0
VERTEX
5
72d
100
AcDbEntity
8
1
100
AcDbVertex
100
AcDb2dVertex
62
5
10
167.573058
20
197.575582
0
VERTEX
5
72e
100
AcDbEntity
8
1
100
AcDbVertex
100
AcDb2dVertex
62
5
10
167.573511
20
197.576664
0
VERTEX
5
72f
100
AcDbEntity
8
1
100
AcDbVertex
100
AcDb2dVertex
62
5
10
167.574000
20
197.577746
0
VERTEX
5
730
100
AcDbEntity
8
1
100
AcDbVertex
100
AcDb2dVertex
62
5
10
167.574488
20
197.578793
0
VERTEX
5
731
100
AcDbEntity
8
1
100
AcDbVertex
100
AcDb2dVertex
62
5
10
167.574977
20
197.579874
0
VERTEX
5
732
100
AcDbEntity
8
1
100
AcDbVertex
100
AcDb2dVertex
62
5
10
167.575465
20
197.580956
0
VERTEX
5
733
100
AcDbEntity
8
1
100
AcDbVertex
100
AcDb2dVertex
62
5
10
167.575954
20
197.582003
0
VERTEX
5
734
100
AcDbEntity
8
1
100
AcDbVertex
100
AcDb2dVertex
62
5
10
167.576477
20
197.583085
0
VERTEX
5
735
100
AcDbEntity
8
1
100
AcDbVertex
100
AcDb2dVertex
62
5
10
167.576966
20
197.584131
0
VERTEX
5
736
100
AcDbEntity
8
1
100
AcDbVertex
100
AcDb2dVertex
62
5
10
167.577489
20
197.585213
0
VERTEX
5
737
100
AcDbEntity
8
1
100
AcDbVertex
100
AcDb2dVertex
62
5
10
167.578047
20
197.586260
0
VERTEX
5
738
100
AcDbEntity
8
1
100
AcDbVertex
100
AcDb2dVertex
62
5
10
167.578571
20
197.587342
0
VERTEX
5
739
100
AcDbEntity
8
1
100
AcDbVertex
100
AcDb2dVertex
62
5
10
167.579129
20
197.588389
0
VERTEX
5
73a
100
AcDbEntity
8
1
100
AcDbVertex
100
AcDb2dVertex
62
5
10
167.579653
20
197.589435
0
VERTEX
5
73b
100
AcDbEntity
8
1
100
AcDbVertex
100
AcDb2dVertex
62
5
10
167.580246
20
197.590482
0
VERTEX
5
73c
100
AcDbEntity
8
1
100
AcDbVertex
100
AcDb2dVertex
62
5
10
167.580804
20
197.591529
0
VERTEX
5
73d
100
AcDbEntity
8
1
100
AcDbVertex
100
AcDb2dVertex
62
5
10
167.581362
20
197.592576
0
VERTEX
5
73e
100
AcDbEntity
8
1
100
AcDbVertex
100
AcDb2dVertex
62
5
10
167.581956
20
197.593623
0
VERTEX
5
73f
100
AcDbEntity
8
1
100
AcDbVertex
100
AcDb2dVertex
62
5
10
167.582549
20
197.594670
0
VERTEX
5
740
100
AcDbEntity
8
1
100
AcDbVertex
100
AcDb2dVertex
62
5
10
167.583142
20
197.595716
0
VERTEX
5
741
100
AcDbEntity
8
1
100
AcDbVertex
100
AcDb2dVertex
62
5
10
167.583735
20
197.596763
0
VERTEX
5
742
100
AcDbEntity
8
1
100
AcDbVertex
100
AcDb2dVertex
62
5
10
167.584363
20
197.597775
0
VERTEX
5
743
100
AcDbEntity
8
1
100
AcDbVertex
100
AcDb2dVertex
62
5
10
167.584991
20
197.598822
0
VERTEX
5
744
100
AcDbEntity
8
1
100
AcDbVertex
100
AcDb2dVertex
62
5
10
167.585619
20
197.599869
0
VERTEX
5
745
100
AcDbEntity
8
1
100
AcDbVertex
100
AcDb2dVertex
62
5
10
167.586248
20
197.600881
0
VERTEX
5
746
100
AcDbEntity
8
1
100
AcDbVertex
100
AcDb2dVertex
62
5
10
167.586876
20
197.601927
0
VERTEX
5
747
100
AcDbEntity
8
1
100
AcDbVertex
100
AcDb2dVertex
62
5
10
167.587539
20
197.602939
0
VERTEX
5
748
100
AcDbEntity
8
1
100
AcDbVertex
100
AcDb2dVertex
62
5
10
167.588202
20
197.603951
0
VERTEX
5
749
100
AcDbEntity
8
1
100
AcDbVertex
100
AcDb2dVertex
62
5
10
167.588865
20
197.604998
0
VERTEX
5
74a
100
AcDbEntity
8
1
100
AcDbVertex
100
AcDb2dVertex
62
5
10
167.589528
20
197.606010
0
VERTEX
5
74b
100
AcDbEntity
8
1
100
AcDbVertex
100
AcDb2dVertex
62
5
10
167.590191
20
197.607022
0
VERTEX
5
74c
100
AcDbEntity
8
1
100
AcDbVertex
100
AcDb2dVertex
62
5
10
167.590888
20
197.608034
0
VERTEX
5
74d
100
AcDbEntity
8
1
100
AcDbVertex
100
AcDb2dVertex
62
5
10
167.591586
20
197.609046
0
VERTEX
5
74e
100
AcDbEntity
8
1
100
AcDbVertex
100
AcDb2dVertex
62
5
10
167.592284
20
197.610058
0
VERTEX
5
74f
100
AcDbEntity
8
1
100
AcDbVertex
100
AcDb2dVertex
62
5
10
167.592982
20
197.611070
0
VERTEX
5
750
100
AcDbEntity
8
1
100
AcDbVertex
100
AcDb2dVertex
62
5
10
167.593715
20
197.612082
0
VERTEX
5
751
100
AcDbEntity
8
1
100
AcDbVertex
100
AcDb2dVertex
62
5
10
167.594413
20
197.613094
0
VERTEX
5
752
100
AcDbEntity
8
1
100
AcDbVertex
100
AcDb2dVertex
62
5
10
167.595146
20
197.614071
0
VERTEX
5
753
100
AcDbEntity
8
1
100
AcDbVertex
100
AcDb2dVertex
62
5
10
167.595913
20
197.615083
0
VERTEX
5
754
100
AcDbEntity
8
1
100
AcDbVertex
100
AcDb2dVertex
62
5
10
167.596646
20
197.616095
0
VERTEX
5
755
100
AcDbEntity
8
1
100
AcDbVertex
100
AcDb2dVertex
62
5
10
167.597379
20
197.617072
0
VERTEX
5
756
100
AcDbEntity
8
1
100
AcDbVertex
100
AcDb2dVertex
62
5
10
167.598146
20
197.618084
0
VERTEX
5
757
100
AcDbEntity
8
1
100
AcDbVertex
100
AcDb2dVertex
62
5
10
167.598914
20
197.619061
0
VERTEX
5
758
100
AcDbEntity
8
1
100
AcDbVertex
100
AcDb2dVertex
62
5
10
167.599717
20
197.620038
0
VERTEX
5
759
100
AcDbEntity
8
1
100
AcDbVertex
100
AcDb2dVertex
62
5
10
167.600484
20
197.621050
0
VERTEX
5
75a
100
AcDbEntity
8
1
100
AcDbVertex
100
AcDb2dVertex
62
5
10
167.601287
20
197.622027
0
VERTEX
5
75b
100
AcDbEntity
8
1
100
AcDbVertex
100
AcDb2dVertex
62
5
10
167.602055
20
197.623004
0
VERTEX
5
75c
100
AcDbEntity
8
1
100
AcDbVertex
100
AcDb2dVertex
62
5
10
167.602857
20
197.623981
0
VERTEX
5
75d
100
AcDbEntity
8
1
100
AcDbVertex
100
AcDb2dVertex
62
5
10
167.603695
20
197.624958
0
VERTEX
5
75e
100
AcDbEntity
8
1
100
AcDbVertex
100
AcDb2dVertex
62
5
10
167.604497
20
197.625935
0
VERTEX
5
75f
100
AcDbEntity
8
1
100
AcDbVertex
100
AcDb2dVertex
62
5
10
167.605335
20
197.626912
0
VERTEX
5
760
100
AcDbEntity
8
1
100
AcDbVertex
100
AcDb2dVertex
62
5
10
167.606172
20
197.627889
0
VERTEX
5
761
100
AcDbEntity
8
1
100
AcDbVertex
100
AcDb2dVertex
62
5
10
167.607010
20
197.628866
0
VERTEX
5
762
100
AcDbEntity
8
1
100
AcDbVertex
100
AcDb2dVertex
62
5
10
167.607847
20
197.629843
0
VERTEX
5
763
100
AcDbEntity
8
1
100
AcDbVertex
100
AcDb2dVertex
62
5
10
167.608719
20
197.630785
0
VERTEX
5
764
100
AcDbEntity
8
1
100
AcDbVertex
100
AcDb2dVertex
62
5
10
167.609592
20
197.631762
0
VERTEX
5
765
100
AcDbEntity
8
1
100
AcDbVertex
100
AcDb2dVertex
62
5
10
167.610464
20
197.632739
0
VERTEX
5
766
100
AcDbEntity
8
1
100
AcDbVertex
100
AcDb2dVertex
62
5
10
167.611336
20
197.633681
0
VERTEX
5
767
100
AcDbEntity
8
1
100
AcDbVertex
100
AcDb2dVertex
62
5
10
167.612209
20
197.634658
0
VERTEX
5
768
100
AcDbEntity
8
1
100
AcDbVertex
100
AcDb2dVertex
62
5
10
167.613116
20
197.635600
0
VERTEX
5
769
100
AcDbEntity
8
1
100
AcDbVertex
100
AcDb2dVertex
62
5
10
167.614023
20
197.636543
0
VERTEX
5
76a
100
AcDbEntity
8
1
100
AcDbVertex
100
AcDb2dVertex
62
5
10
167.614931
20
197.637520
0
VERTEX
5
76b
100
AcDbEntity
8
1
100
AcDbVertex
100
AcDb2dVertex
62
5
10
167.615838
20
197.638462
0
VERTEX
5
76c
100
AcDbEntity
8
1
100
AcDbVertex
100
AcDb2dVertex
62
5
10
167.616780
20
197.639404
0
VERTEX
5
76d
100
AcDbEntity
8
1
100
AcDbVertex
100
AcDb2dVertex
62
5
10
167.617687
20
197.640346
0
VERTEX
5
76e
100
AcDbEntity
8
1
100
AcDbVertex
100
AcDb2dVertex
62
5
10
167.618629
20
197.641288
0
SEQEND
5
76f
100
AcDbEntity
8
1
0
POLYLINE
5
770
100
AcDbEntity
8
1
6
CONTINUOUS
62
5
100
AcDb2dPolyline
66
1
10
0.0
20
0.0
30
0.0
70
0
0
VERTEX
5
771
100
AcDbEntity
8
1
100
AcDbVertex
100
AcDb2dVertex
62
5
10
167.618629
20
197.367787
0
VERTEX
5
772
100
AcDbEntity
8
1
100
AcDbVertex
100
AcDb2dVertex
62
5
10
167.617687
20
197.368729
0
VERTEX
5
773
100
AcDbEntity
8
1
100
AcDbVertex
100
AcDb2dVertex
62
5
10
167.616780
20
197.369672
0
VERTEX
5
774
100
AcDbEntity
8
1
100
AcDbVertex
100
AcDb2dVertex
62
5
10
167.615838
20
197.370614
0
VERTEX
5
775
100
AcDbEntity
8
1
100
AcDbVertex
100
AcDb2dVertex
62
5
10
167.614931
20
197.371591
0
VERTEX
5
776
100
AcDbEntity
8
1
100
AcDbVertex
100
AcDb2dVertex
62
5
10
167.614023
20
197.372533
0
VERTEX
5
777
100
AcDbEntity
8
1
100
AcDbVertex
100
AcDb2dVertex
62
5
10
167.613116
20
197.373475
0
VERTEX
5
778
100
AcDbEntity
8
1
100
AcDbVertex
100
AcDb2dVertex
62
5
10
167.612209
20
197.374452
0
VERTEX
5
779
100
AcDbEntity
8
1
100
AcDbVertex
100
AcDb2dVertex
62
5
10
167.611336
20
197.375394
0
VERTEX
5
77a
100
AcDbEntity
8
1
100
AcDbVertex
100
AcDb2dVertex
62
5
10
167.610464
20
197.376371
0
VERTEX
5
77b
100
AcDbEntity
8
1
100
AcDbVertex
100
AcDb2dVertex
62
5
10
167.609592
20
197.377313
0
VERTEX
5
77c
100
AcDbEntity
8
1
100
AcDbVertex
100
AcDb2dVertex
62
5
10
167.608719
20
197.378290
0
VERTEX
5
77d
100
AcDbEntity
8
1
100
AcDbVertex
100
AcDb2dVertex
62
5
10
167.607847
20
197.379233
0
VERTEX
5
77e
100
AcDbEntity
8
1
100
AcDbVertex
100
AcDb2dVertex
62
5
10
167.607010
20
197.380210
0
VERTEX
5
77f
100
AcDbEntity
8
1
100
AcDbVertex
100
AcDb2dVertex
62
5
10
167.606172
20
197.381187
0
VERTEX
5
780
100
AcDbEntity
8
1
100
AcDbVertex
100
AcDb2dVertex
62
5
10
167.605335
20
197.382164
0
VERTEX
5
781
100
AcDbEntity
8
1
100
AcDbVertex
100
AcDb2dVertex
62
5
10
167.604497
20
197.383141
0
VERTEX
5
782
100
AcDbEntity
8
1
100
AcDbVertex
100
AcDb2dVertex
62
5
10
167.603695
20
197.384118
0
VERTEX
5
783
100
AcDbEntity
8
1
100
AcDbVertex
100
AcDb2dVertex
62
5
10
167.602857
20
197.385095
0
VERTEX
5
784
100
AcDbEntity
8
1
100
AcDbVertex
100
AcDb2dVertex
62
5
10
167.602055
20
197.386072
0
VERTEX
5
785
100
AcDbEntity
8
1
100
AcDbVertex
100
AcDb2dVertex
62
5
10
167.601287
20
197.387049
0
VERTEX
5
786
100
AcDbEntity
8
1
100
AcDbVertex
100
AcDb2dVertex
62
5
10
167.600484
20
197.388026
0
VERTEX
5
787
100
AcDbEntity
8
1
100
AcDbVertex
100
AcDb2dVertex
62
5
10
167.599717
20
197.389038
0
VERTEX
5
788
100
AcDbEntity
8
1
100
AcDbVertex
100
AcDb2dVertex
62
5
10
167.598914
20
197.390015
0
VERTEX
5
789
100
AcDbEntity
8
1
100
AcDbVertex
100
AcDb2dVertex
62
5
10
167.598146
20
197.391027
0
VERTEX
5
78a
100
AcDbEntity
8
1
100
AcDbVertex
100
AcDb2dVertex
62
5
10
167.597379
20
197.392004
0
VERTEX
5
78b
100
AcDbEntity
8
1
100
AcDbVertex
100
AcDb2dVertex
62
5
10
167.596646
20
197.393016
0
VERTEX
5
78c
100
AcDbEntity
8
1
100
AcDbVertex
100
AcDb2dVertex
62
5
10
167.595913
20
197.393993
0
VERTEX
5
78d
100
AcDbEntity
8
1
100
AcDbVertex
100
AcDb2dVertex
62
5
10
167.595146
20
197.395005
0
VERTEX
5
78e
100
AcDbEntity
8
1
100
AcDbVertex
100
AcDb2dVertex
62
5
10
167.594413
20
197.396017
0
VERTEX
5
78f
100
AcDbEntity
8
1
100
AcDbVertex
100
AcDb2dVertex
62
5
10
167.593715
20
197.396994
0
VERTEX
5
790
100
AcDbEntity
8
1
100
AcDbVertex
100
AcDb2dVertex
62
5
10
167.592982
20
197.398006
0
VERTEX
5
791
100
AcDbEntity
8
1
100
AcDbVertex
100
AcDb2dVertex
62
5
10
167.592284
20
197.399018
0
VERTEX
5
792
100
AcDbEntity
8
1
100
AcDbVertex
100
AcDb2dVertex
62
5
10
167.591586
20
197.400030
0
VERTEX
5
793
100
AcDbEntity
8
1
100
AcDbVertex
100
AcDb2dVertex
62
5
10
167.590888
20
197.401042
0
VERTEX
5
794
100
AcDbEntity
8
1
100
AcDbVertex
100
AcDb2dVertex
62
5
10
167.590191
20
197.402053
0
VERTEX
5
795
100
AcDbEntity
8
1
100
AcDbVertex
100
AcDb2dVertex
62
5
10
167.589528
20
197.403065
0
VERTEX
5
796
100
AcDbEntity
8
1
100
AcDbVertex
100
AcDb2dVertex
62
5
10
167.588865
20
197.404112
0
VERTEX
5
797
100
AcDbEntity
8
1
100
AcDbVertex
100
AcDb2dVertex
62
5
10
167.588202
20
197.405124
0
VERTEX
5
798
100
AcDbEntity
8
1
100
AcDbVertex
100
AcDb2dVertex
62
5
10
167.587539
20
197.406136
0
VERTEX
5
799
100
AcDbEntity
8
1
100
AcDbVertex
100
AcDb2dVertex
62
5
10
167.586876
20
197.407183
0
VERTEX
5
79a
100
AcDbEntity
8
1
100
AcDbVertex
100
AcDb2dVertex
62
5
10
167.586248
20
197.408195
0
VERTEX
5
79b
100
AcDbEntity
8
1
100
AcDbVertex
100
AcDb2dVertex
62
5
10
167.585619
20
197.409242
0
VERTEX
5
79c
100
AcDbEntity
8
1
100
AcDbVertex
100
AcDb2dVertex
62
5
10
167.584991
20
197.410254
0
VERTEX
5
79d
100
AcDbEntity
8
1
100
AcDbVertex
100
AcDb2dVertex
62
5
10
167.584363
20
197.411300
0
VERTEX
5
79e
100
AcDbEntity
8
1
100
AcDbVertex
100
AcDb2dVertex
62
5
10
167.583735
20
197.412347
0
VERTEX
5
79f
100
AcDbEntity
8
1
100
AcDbVertex
100
AcDb2dVertex
62
5
10
167.583142
20
197.413359
0
VERTEX
5
7a0
100
AcDbEntity
8
1
100
AcDbVertex
100
AcDb2dVertex
62
5
10
167.582549
20
197.414406
0
VERTEX
5
7a1
100
AcDbEntity
8
1
100
AcDbVertex
100
AcDb2dVertex
62
5
10
167.581956
20
197.415453
0
VERTEX
5
7a2
100
AcDbEntity
8
1
100
AcDbVertex
100
AcDb2dVertex
62
5
10
167.581362
20
197.416500
0
VERTEX
5
7a3
100
AcDbEntity
8
1
100
AcDbVertex
100
AcDb2dVertex
62
5
10
167.580804
20
197.417546
0
VERTEX
5
7a4
100
AcDbEntity
8
1
100
AcDbVertex
100
AcDb2dVertex
62
5
10
167.580246
20
197.418593
0
VERTEX
5
7a5
100
AcDbEntity
8
1
100
AcDbVertex
100
AcDb2dVertex
62
5
10
167.579653
20
197.419640
0
VERTEX
5
7a6
100
AcDbEntity
8
1
100
AcDbVertex
100
AcDb2dVertex
62
5
10
167.579129
20
197.420687
0
VERTEX
5
7a7
100
AcDbEntity
8
1
100
AcDbVertex
100
AcDb2dVertex
62
5
10
167.578571
20
197.421769
0
VERTEX
5
7a8
100
AcDbEntity
8
1
100
AcDbVertex
100
AcDb2dVertex
62
5
10
167.578047
20
197.422816
0
VERTEX
5
7a9
100
AcDbEntity
8
1
100
AcDbVertex
100
AcDb2dVertex
62
5
10
167.577489
20
197.423862
0
VERTEX
5
7aa
100
AcDbEntity
8
1
100
AcDbVertex
100
AcDb2dVertex
62
5
10
167.576966
20
197.424944
0
VERTEX
5
7ab
100
AcDbEntity
8
1
100
AcDbVertex
100
AcDb2dVertex
62
5
10
167.576477
20
197.425991
0
VERTEX
5
7ac
100
AcDbEntity
8
1
100
AcDbVertex
100
AcDb2dVertex
62
5
10
167.575954
20
197.427073
0
VERTEX
5
7ad
100
AcDbEntity
8
1
100
AcDbVertex
100
AcDb2dVertex
62
5
10
167.575465
20
197.428154
0
VERTEX
5
7ae
100
AcDbEntity
8
1
100
AcDbVertex
100
AcDb2dVertex
62
5
10
167.574977
20
197.429201
0
VERTEX
5
7af
100
AcDbEntity
8
1
100
AcDbVertex
100
AcDb2dVertex
62
5
10
167.574488
20
197.430283
0
VERTEX
5
7b0
100
AcDbEntity
8
1
100
AcDbVertex
100
AcDb2dVertex
62
5
10
167.574000
20
197.431365
0
VERTEX
5
7b1
100
AcDbEntity
8
1
100
AcDbVertex
100
AcDb2dVertex
62
5
10
167.573511
20
197.432446
0
VERTEX
5
7b2
100
AcDbEntity
8
1
100
AcDbVertex
100
AcDb2dVertex
62
5
10
167.573058
20
197.433493
0
VERTEX
5
7b3
100
AcDbEntity
8
1
100
AcDbVertex
100
AcDb2dVertex
62
5
10
167.572604
20
197.434575
0
VERTEX
5
7b4
100
AcDbEntity
8
1
100
AcDbVertex
100
AcDb2dVertex
62
5
10
167.572150
20
197.435691
0
VERTEX
5
7b5
100
AcDbEntity
8
1
100
AcDbVertex
100
AcDb2dVertex
62
5
10
167.571732
20
197.436773
0
VERTEX
5
7b6
100
AcDbEntity
8
1
100
AcDbVertex
100
AcDb2dVertex
62
5
10
167.571278
20
197.437855
0
VERTEX
5
7b7
100
AcDbEntity
8
1
100
AcDbVertex
100
AcDb2dVertex
62
5
10
167.570859
20
197.438937
0
VERTEX
5
7b8
100
AcDbEntity
8
1
100
AcDbVertex
100
AcDb2dVertex
62
5
10
167.570440
20
197.440018
0
VERTEX
5
7b9
100
AcDbEntity
8
1
100
AcDbVertex
100
AcDb2dVertex
62
5
10
167.570022
20
197.441135
0
VERTEX
5
7ba
100
AcDbEntity
8
1
100
AcDbVertex
100
AcDb2dVertex
62
5
10
167.569603
20
197.442217
0
VERTEX
5
7bb
100
AcDbEntity
8
1
100
AcDbVertex
100
AcDb2dVertex
62
5
10
167.569219
20
197.443298
0
VERTEX
5
7bc
100
AcDbEntity
8
1
100
AcDbVertex
100
AcDb2dVertex
62
5
10
167.568835
20
197.444415
0
VERTEX
5
7bd
100
AcDbEntity
8
1
100
AcDbVertex
100
AcDb2dVertex
62
5
10
167.568452
20
197.445532
0
VERTEX
5
7be
100
AcDbEntity
8
1
100
AcDbVertex
100
AcDb2dVertex
62
5
10
167.568068
20
197.446613
0
VERTEX
5
7bf
100
AcDbEntity
8
1
100
AcDbVertex
100
AcDb2dVertex
62
5
10
167.567719
20
197.447730
0
VERTEX
5
7c0
100
AcDbEntity
8
1
100
AcDbVertex
100
AcDb2dVertex
62
5
10
167.567335
20
197.448847
0
VERTEX
5
7c1
100
AcDbEntity
8
1
100
AcDbVertex
100
AcDb2dVertex
62
5
10
167.566986
20
197.449963
0
VERTEX
5
7c2
100
AcDbEntity
8
1
100
AcDbVertex
100
AcDb2dVertex
62
5
10
167.566637
20
197.451045
0
VERTEX
5
7c3
100
AcDbEntity
8
1
100
AcDbVertex
100
AcDb2dVertex
62
5
10
167.566323
20
197.452162
0
VERTEX
5
7c4
100
AcDbEntity
8
1
100
AcDbVertex
100
AcDb2dVertex
62
5
10
167.565974
20
197.453278
0
VERTEX
5
7c5
100
AcDbEntity
8
1
100
AcDbVertex
100
AcDb2dVertex
62
5
10
167.565660
20
197.454430
0
VERTEX
5
7c6
100
AcDbEntity
8
1
100
AcDbVertex
100
AcDb2dVertex
62
5
10
167.565346
20
197.455546
0
VERTEX
5
7c7
100
AcDbEntity
8
1
100
AcDbVertex
100
AcDb2dVertex
62
5
10
167.565032
20
197.456663
0
VERTEX
5
7c8
100
AcDbEntity
8
1
100
AcDbVertex
100
AcDb2dVertex
62
5
10
167.564753
20
197.457780
0
VERTEX
5
7c9
100
AcDbEntity
8
1
100
AcDbVertex
100
AcDb2dVertex
62
5
10
167.564439
20
197.458896
0
VERTEX
5
7ca
100
AcDbEntity
8
1
100
AcDbVertex
100
AcDb2dVertex
62
5
10
167.564160
20
197.460048
0
VERTEX
5
7cb
100
AcDbEntity
8
1
100
AcDbVertex
100
AcDb2dVertex
62
5
10
167.563880
20
197.461164
0
VERTEX
5
7cc
100
AcDbEntity
8
1
100
AcDbVertex
100
AcDb2dVertex
62
5
10
167.563601
20
197.462316
0
VERTEX
5
7cd
100
AcDbEntity
8
1
100
AcDbVertex
100
AcDb2dVertex
62
5
10
167.563357
20
197.463432
0
VERTEX
5
7ce
100
AcDbEntity
8
1
100
AcDbVertex
100
AcDb2dVertex
62
5
10
167.563078
20
197.464584
0
VERTEX
5
7cf
100
AcDbEntity
8
1
100
AcDbVertex
100
AcDb2dVertex
62
5
10
167.562834
20
197.465735
0
VERTEX
5
7d0
100
AcDbEntity
8
1
100
AcDbVertex
100
AcDb2dVertex
62
5
10
167.562589
20
197.466852
0
VERTEX
5
7d1
100
AcDbEntity
8
1
100
AcDbVertex
100
AcDb2dVertex
62
5
10
167.562380
20
197.468004
0
VERTEX
5
7d2
100
AcDbEntity
8
1
100
AcDbVertex
100
AcDb2dVertex
62
5
10
167.562136
20
197.469155
0
VERTEX
5
7d3
100
AcDbEntity
8
1
100
AcDbVertex
100
AcDb2dVertex
62
5
10
167.561926
20
197.470307
0
VERTEX
5
7d4
100
AcDbEntity
8
1
100
AcDbVertex
100
AcDb2dVertex
62
5
10
167.561717
20
197.471458
0
VERTEX
5
7d5
100
AcDbEntity
8
1
100
AcDbVertex
100
AcDb2dVertex
62
5
10
167.561508
20
197.472610
0
VERTEX
5
7d6
100
AcDbEntity
8
1
100
AcDbVertex
100
AcDb2dVertex
62
5
10
167.561298
20
197.473761
0
VERTEX
5
7d7
100
AcDbEntity
8
1
100
AcDbVertex
100
AcDb2dVertex
62
5
10
167.561124
20
197.474913
0
VERTEX
5
7d8
100
AcDbEntity
8
1
100
AcDbVertex
100
AcDb2dVertex
62
5
10
167.560949
20
197.476064
0
VERTEX
5
7d9
100
AcDbEntity
8
1
100
AcDbVertex
100
AcDb2dVertex
62
5
10
167.560775
20
197.477250
0
VERTEX
5
7da
100
AcDbEntity
8
1
100
AcDbVertex
100
AcDb2dVertex
62
5
10
167.560600
20
197.478402
0
VERTEX
5
7db
100
AcDbEntity
8
1
100
AcDbVertex
100
AcDb2dVertex
62
5
10
167.560426
20
197.479553
0
VERTEX
5
7dc
100
AcDbEntity
8
1
100
AcDbVertex
100
AcDb2dVertex
62
5
10
167.560286
20
197.480740
0
VERTEX
5
7dd
100
AcDbEntity
8
1
100
AcDbVertex
100
AcDb2dVertex
62
5
10
167.560147
20
197.481891
0
VERTEX
5
7de
100
AcDbEntity
8
1
100
AcDbVertex
100
AcDb2dVertex
62
5
10
167.560007
20
197.483078
0
VERTEX
5
7df
100
AcDbEntity
8
1
100
AcDbVertex
100
AcDb2dVertex
62
5
10
167.559868
20
197.484264
0
VERTEX
5
7e0
100
AcDbEntity
8
1
100
AcDbVertex
100
AcDb2dVertex
62
5
10
167.559763
20
197.485416
0
VERTEX
5
7e1
100
AcDbEntity
8
1
100
AcDbVertex
100
AcDb2dVertex
62
5
10
167.559623
20
197.486602
0
VERTEX
5
7e2
100
AcDbEntity
8
1
100
AcDbVertex
100
AcDb2dVertex
62
5
10
167.559519
20
197.487789
0
VERTEX
5
7e3
100
AcDbEntity
8
1
100
AcDbVertex
100
AcDb2dVertex
62
5
10
167.559414
20
197.488975
0
VERTEX
5
7e4
100
AcDbEntity
8
1
100
AcDbVertex
100
AcDb2dVertex
62
5
10
167.559344
20
197.490161
0
VERTEX
5
7e5
100
AcDbEntity
8
1
100
AcDbVertex
100
AcDb2dVertex
62
5
10
167.559239
20
197.491348
0
VERTEX
5
7e6
100
AcDbEntity
8
1
100
AcDbVertex
100
AcDb2dVertex
62
5
10
167.559170
20
197.492534
0
VERTEX
5
7e7
100
AcDbEntity
8
1
100
AcDbVertex
100
AcDb2dVertex
62
5
10
167.559100
20
197.493721
0
VERTEX
5
7e8
100
AcDbEntity
8
1
100
AcDbVertex
100
AcDb2dVertex
62
5
10
167.559030
20
197.494907
0
VERTEX
5
7e9
100
AcDbEntity
8
1
100
AcDbVertex
100
AcDb2dVertex
62
5
10
167.558995
20
197.496128
0
VERTEX
5
7ea
100
AcDbEntity
8
1
100
AcDbVertex
100
AcDb2dVertex
62
5
10
167.558925
20
197.497315
0
VERTEX
5
7eb
100
AcDbEntity
8
1
100
AcDbVertex
100
AcDb2dVertex
62
5
10
167.558890
20
197.498501
0
VERTEX
5
7ec
100
AcDbEntity
8
1
100
AcDbVertex
100
AcDb2dVertex
62
5
10
167.558856
20
197.499722
0
VERTEX
5
7ed
100
AcDbEntity
8
1
100
AcDbVertex
100
AcDb2dVertex
62
5
10
167.558821
20
197.500909
0
VERTEX
5
7ee
100
AcDbEntity
8
1
100
AcDbVertex
100
AcDb2dVertex
62
5
10
167.558821
20
197.502130
0
VERTEX
5
7ef
100
AcDbEntity
8
1
100
AcDbVertex
100
AcDb2dVertex
62
5
10
167.558821
20
197.503316
0
VERTEX
5
7f0
100
AcDbEntity
8
1
100
AcDbVertex
100
AcDb2dVertex
62
5
10
167.558786
20
197.504538
0
SEQEND
5
7f1
100
AcDbEntity
8
1
0
POLYLINE
5
7f2
100
AcDbEntity
8
1
6
CONTINUOUS
62
5
100
AcDb2dPolyline
66
1
10
0.0
20
0.0
30
0.0
70
0
0
VERTEX
5
7f3
100
AcDbEntity
8
1
100
AcDbVertex
100
AcDb2dVertex
62
5
10
167.746831
20
197.316493
0
VERTEX
5
7f4
100
AcDbEntity
8
1
100
AcDbVertex
100
AcDb2dVertex
62
5
10
167.745644
20
197.316528
0
VERTEX
5
7f5
100
AcDbEntity
8
1
100
AcDbVertex
100
AcDb2dVertex
62
5
10
167.744423
20
197.316528
0
VERTEX
5
7f6
100
AcDbEntity
8
1
100
AcDbVertex
100
AcDb2dVertex
62
5
10
167.743202
20
197.316528
0
VERTEX
5
7f7
100
AcDbEntity
8
1
100
AcDbVertex
100
AcDb2dVertex
62
5
10
167.742015
20
197.316563
0
VERTEX
5
7f8
100
AcDbEntity
8
1
100
AcDbVertex
100
AcDb2dVertex
62
5
10
167.740829
20
197.316598
0
VERTEX
5
7f9
100
AcDbEntity
8
1
100
AcDbVertex
100
AcDb2dVertex
62
5
10
167.739643
20
197.316632
0
VERTEX
5
7fa
100
AcDbEntity
8
1
100
AcDbVertex
100
AcDb2dVertex
62
5
10
167.738421
20
197.316667
0
VERTEX
5
7fb
100
AcDbEntity
8
1
100
AcDbVertex
100
AcDb2dVertex
62
5
10
167.737235
20
197.316702
0
VERTEX
5
7fc
100
AcDbEntity
8
1
100
AcDbVertex
100
AcDb2dVertex
62
5
10
167.736048
20
197.316772
0
VERTEX
5
7fd
100
AcDbEntity
8
1
100
AcDbVertex
100
AcDb2dVertex
62
5
10
167.734897
20
197.316842
0
VERTEX
5
7fe
100
AcDbEntity
8
1
100
AcDbVertex
100
AcDb2dVertex
62
5
10
167.733710
20
197.316877
0
VERTEX
5
7ff
100
AcDbEntity
8
1
100
AcDbVertex
100
AcDb2dVertex
62
5
10
167.732524
20
197.316981
0
VERTEX
5
800
100
AcDbEntity
8
1
100
AcDbVertex
100
AcDb2dVertex
62
5
10
167.731373
20
197.317051
0
VERTEX
5
801
100
AcDbEntity
8
1
100
AcDbVertex
100
AcDb2dVertex
62
5
10
167.730186
20
197.317121
0
VERTEX
5
802
100
AcDbEntity
8
1
100
AcDbVertex
100
AcDb2dVertex
62
5
10
167.729035
20
197.317226
0
VERTEX
5
803
100
AcDbEntity
8
1
100
AcDbVertex
100
AcDb2dVertex
62
5
10
167.727848
20
197.317330
0
VERTEX
5
804
100
AcDbEntity
8
1
100
AcDbVertex
100
AcDb2dVertex
62
5
10
167.726697
20
197.317435
0
VERTEX
5
805
100
AcDbEntity
8
1
100
AcDbVertex
100
AcDb2dVertex
62
5
10
167.725545
20
197.317540
0
VERTEX
5
806
100
AcDbEntity
8
1
100
AcDbVertex
100
AcDb2dVertex
62
5
10
167.724394
20
197.317644
0
VERTEX
5
807
100
AcDbEntity
8
1
100
AcDbVertex
100
AcDb2dVertex
62
5
10
167.723242
20
197.317784
0
VERTEX
5
808
100
AcDbEntity
8
1
100
AcDbVertex
100
AcDb2dVertex
62
5
10
167.722091
20
197.317924
0
VERTEX
5
809
100
AcDbEntity
8
1
100
AcDbVertex
100
AcDb2dVertex
62
5
10
167.720939
20
197.318063
0
VERTEX
5
80a
100
AcDbEntity
8
1
100
AcDbVertex
100
AcDb2dVertex
62
5
10
167.719823
20
197.318203
0
VERTEX
5
80b
100
AcDbEntity
8
1
100
AcDbVertex
100
AcDb2dVertex
62
5
10
167.718671
20
197.318342
0
VERTEX
5
80c
100
AcDbEntity
8
1
100
AcDbVertex
100
AcDb2dVertex
62
5
10
167.717554
20
197.318482
0
VERTEX
5
80d
100
AcDbEntity
8
1
100
AcDbVertex
100
AcDb2dVertex
62
5
10
167.716403
20
197.318656
0
VERTEX
5
80e
100
AcDbEntity
8
1
100
AcDbVertex
100
AcDb2dVertex
62
5
10
167.715286
20
197.318831
0
VERTEX
5
80f
100
AcDbEntity
8
1
100
AcDbVertex
100
AcDb2dVertex
62
5
10
167.714170
20
197.319005
0
VERTEX
5
810
100
AcDbEntity
8
1
100
AcDbVertex
100
AcDb2dVertex
62
5
10
167.713053
20
197.319180
0
VERTEX
5
811
100
AcDbEntity
8
1
100
AcDbVertex
100
AcDb2dVertex
62
5
10
167.711937
20
197.319354
0
VERTEX
5
812
100
AcDbEntity
8
1
100
AcDbVertex
100
AcDb2dVertex
62
5
10
167.710820
20
197.319564
0
VERTEX
5
813
100
AcDbEntity
8
1
100
AcDbVertex
100
AcDb2dVertex
62
5
10
167.709703
20
197.319773
0
VERTEX
5
814
100
AcDbEntity
8
1
100
AcDbVertex
100
AcDb2dVertex
62
5
10
167.708587
20
197.319982
0
VERTEX
5
815
100
AcDbEntity
8
1
100
AcDbVertex
100
AcDb2dVertex
62
5
10
167.707505
20
197.320192
0
VERTEX
5
816
100
AcDbEntity
8
1
100
AcDbVertex
100
AcDb2dVertex
62
5
10
167.706388
20
197.320401
0
VERTEX
5
817
100
AcDbEntity
8
1
100
AcDbVertex
100
AcDb2dVertex
62
5
10
167.705272
20
197.320645
0
VERTEX
5
818
100
AcDbEntity
8
1
100
AcDbVertex
100
AcDb2dVertex
62
5
10
167.704190
20
197.320855
0
VERTEX
5
819
100
AcDbEntity
8
1
100
AcDbVertex
100
AcDb2dVertex
62
5
10
167.703108
20
197.321099
0
VERTEX
5
81a
100
AcDbEntity
8
1
100
AcDbVertex
100
AcDb2dVertex
62
5
10
167.702027
20
197.321343
0
VERTEX
5
81b
100
AcDbEntity
8
1
100
AcDbVertex
100
AcDb2dVertex
62
5
10
167.700910
20
197.321587
0
VERTEX
5
81c
100
AcDbEntity
8
1
100
AcDbVertex
100
AcDb2dVertex
62
5
10
167.699828
20
197.321867
0
VERTEX
5
81d
100
AcDbEntity
8
1
100
AcDbVertex
100
AcDb2dVertex
62
5
10
167.698746
20
197.322111
0
VERTEX
5
81e
100
AcDbEntity
8
1
100
AcDbVertex
100
AcDb2dVertex
62
5
10
167.697700
20
197.322390
0
VERTEX
5
81f
100
AcDbEntity
8
1
100
AcDbVertex
100
AcDb2dVertex
62
5
10
167.696618
20
197.322669
0
VERTEX
5
820
100
AcDbEntity
8
1
100
AcDbVertex
100
AcDb2dVertex
62
5
10
167.695536
20
197.322948
0
VERTEX
5
821
100
AcDbEntity
8
1
100
AcDbVertex
100
AcDb2dVertex
62
5
10
167.694489
20
197.323227
0
VERTEX
5
822
100
AcDbEntity
8
1
100
AcDbVertex
100
AcDb2dVertex
62
5
10
167.693408
20
197.323541
0
VERTEX
5
823
100
AcDbEntity
8
1
100
AcDbVertex
100
AcDb2dVertex
62
5
10
167.692361
20
197.323821
0
VERTEX
5
824
100
AcDbEntity
8
1
100
AcDbVertex
100
AcDb2dVertex
62
5
10
167.691279
20
197.324135
0
VERTEX
5
825
100
AcDbEntity
8
1
100
AcDbVertex
100
AcDb2dVertex
62
5
10
167.690232
20
197.324449
0
VERTEX
5
826
100
AcDbEntity
8
1
100
AcDbVertex
100
AcDb2dVertex
62
5
10
167.689185
20
197.324763
0
VERTEX
5
827
100
AcDbEntity
8
1
100
AcDbVertex
100
AcDb2dVertex
62
5
10
167.688139
20
197.325112
0
VERTEX
5
828
100
AcDbEntity
8
1
100
AcDbVertex
100
AcDb2dVertex
62
5
10
167.687092
20
197.325426
0
VERTEX
5
829
100
AcDbEntity
8
1
100
AcDbVertex
100
AcDb2dVertex
62
5
10
167.686045
20
197.325775
0
VERTEX
5
82a
100
AcDbEntity
8
1
100
AcDbVertex
100
AcDb2dVertex
62
5
10
167.685033
20
197.326124
0
VERTEX
5
82b
100
AcDbEntity
8
1
100
AcDbVertex
100
AcDb2dVertex
62
5
10
167.683986
20
197.326473
0
VERTEX
5
82c
100
AcDbEntity
8
1
100
AcDbVertex
100
AcDb2dVertex
62
5
10
167.682939
20
197.326822
0
VERTEX
5
82d
100
AcDbEntity
8
1
100
AcDbVertex
100
AcDb2dVertex
62
5
10
167.681927
20
197.327205
0
VERTEX
5
82e
100
AcDbEntity
8
1
100
AcDbVertex
100
AcDb2dVertex
62
5
10
167.680916
20
197.327589
0
VERTEX
5
82f
100
AcDbEntity
8
1
100
AcDbVertex
100
AcDb2dVertex
62
5
10
167.679869
20
197.327938
0
VERTEX
5
830
100
AcDbEntity
8
1
100
AcDbVertex
100
AcDb2dVertex
62
5
10
167.678857
20
197.328322
0
VERTEX
5
831
100
AcDbEntity
8
1
100
AcDbVertex
100
AcDb2dVertex
62
5
10
167.677845
20
197.328741
0
VERTEX
5
832
100
AcDbEntity
8
1
100
AcDbVertex
100
AcDb2dVertex
62
5
10
167.676833
20
197.329125
0
VERTEX
5
833
100
AcDbEntity
8
1
100
AcDbVertex
100
AcDb2dVertex
62
5
10
167.675821
20
197.329543
0
VERTEX
5
834
100
AcDbEntity
8
1
100
AcDbVertex
100
AcDb2dVertex
62
5
10
167.674809
20
197.329927
0
VERTEX
5
835
100
AcDbEntity
8
1
100
AcDbVertex
100
AcDb2dVertex
62
5
10
167.673797
20
197.330346
0
VERTEX
5
836
100
AcDbEntity
8
1
100
AcDbVertex
100
AcDb2dVertex
62
5
10
167.672820
20
197.330765
0
VERTEX
5
837
100
AcDbEntity
8
1
100
AcDbVertex
100
AcDb2dVertex
62
5
10
167.671808
20
197.331218
0
VERTEX
5
838
100
AcDbEntity
8
1
100
AcDbVertex
100
AcDb2dVertex
62
5
10
167.670831
20
197.331637
0
VERTEX
5
839
100
AcDbEntity
8
1
100
AcDbVertex
100
AcDb2dVertex
62
5
10
167.669819
20
197.332091
0
VERTEX
5
83a
100
AcDbEntity
8
1
100
AcDbVertex
100
AcDb2dVertex
62
5
10
167.668842
20
197.332544
0
VERTEX
5
83b
100
AcDbEntity
8
1
100
AcDbVertex
100
AcDb2dVertex
62
5
10
167.667865
20
197.332998
0
VERTEX
5
83c
100
AcDbEntity
8
1
100
AcDbVertex
100
AcDb2dVertex
62
5
10
167.666888
20
197.333451
0
VERTEX
5
83d
100
AcDbEntity
8
1
100
AcDbVertex
100
AcDb2dVertex
62
5
10
167.665911
20
197.333905
0
VERTEX
5
83e
100
AcDbEntity
8
1
100
AcDbVertex
100
AcDb2dVertex
62
5
10
167.664934
20
197.334394
0
VERTEX
5
83f
100
AcDbEntity
8
1
100
AcDbVertex
100
AcDb2dVertex
62
5
10
167.663957
20
197.334882
0
VERTEX
5
840
100
AcDbEntity
8
1
100
AcDbVertex
100
AcDb2dVertex
62
5
10
167.662980
20
197.335371
0
VERTEX
5
841
100
AcDbEntity
8
1
100
AcDbVertex
100
AcDb2dVertex
62
5
10
167.662038
20
197.335859
0
VERTEX
5
842
100
AcDbEntity
8
1
100
AcDbVertex
100
AcDb2dVertex
62
5
10
167.661061
20
197.336348
0
VERTEX
5
843
100
AcDbEntity
8
1
100
AcDbVertex
100
AcDb2dVertex
62
5
10
167.660084
20
197.336871
0
VERTEX
5
844
100
AcDbEntity
8
1
100
AcDbVertex
100
AcDb2dVertex
62
5
10
167.659142
20
197.337360
0
VERTEX
5
845
100
AcDbEntity
8
1
100
AcDbVertex
100
AcDb2dVertex
62
5
10
167.658199
20
197.337883
0
VERTEX
5
846
100
AcDbEntity
8
1
100
AcDbVertex
100
AcDb2dVertex
62
5
10
167.657257
20
197.338406
0
VERTEX
5
847
100
AcDbEntity
8
1
100
AcDbVertex
100
AcDb2dVertex
62
5
10
167.656315
20
197.338930
0
VERTEX
5
848
100
AcDbEntity
8
1
100
AcDbVertex
100
AcDb2dVertex
62
5
10
167.655338
20
197.339488
0
VERTEX
5
849
100
AcDbEntity
8
1
100
AcDbVertex
100
AcDb2dVertex
62
5
10
167.654431
20
197.340012
0
VERTEX
5
84a
100
AcDbEntity
8
1
100
AcDbVertex
100
AcDb2dVertex
62
5
10
167.653489
20
197.340570
0
VERTEX
5
84b
100
AcDbEntity
8
1
100
AcDbVertex
100
AcDb2dVertex
62
5
10
167.652547
20
197.341128
0
VERTEX
5
84c
100
AcDbEntity
8
1
100
AcDbVertex
100
AcDb2dVertex
62
5
10
167.651604
20
197.341686
0
VERTEX
5
84d
100
AcDbEntity
8
1
100
AcDbVertex
100
AcDb2dVertex
62
5
10
167.650697
20
197.342245
0
VERTEX
5
84e
100
AcDbEntity
8
1
100
AcDbVertex
100
AcDb2dVertex
62
5
10
167.649755
20
197.342838
0
VERTEX
5
84f
100
AcDbEntity
8
1
100
AcDbVertex
100
AcDb2dVertex
62
5
10
167.648848
20
197.343431
0
VERTEX
5
850
100
AcDbEntity
8
1
100
AcDbVertex
100
AcDb2dVertex
62
5
10
167.647941
20
197.344024
0
VERTEX
5
851
100
AcDbEntity
8
1
100
AcDbVertex
100
AcDb2dVertex
62
5
10
167.646998
20
197.344618
0
VERTEX
5
852
100
AcDbEntity
8
1
100
AcDbVertex
100
AcDb2dVertex
62
5
10
167.646091
20
197.345211
0
VERTEX
5
853
100
AcDbEntity
8
1
100
AcDbVertex
100
AcDb2dVertex
62
5
10
167.645184
20
197.345804
0
VERTEX
5
854
100
AcDbEntity
8
1
100
AcDbVertex
100
AcDb2dVertex
62
5
10
167.644277
20
197.346432
0
VERTEX
5
855
100
AcDbEntity
8
1
100
AcDbVertex
100
AcDb2dVertex
62
5
10
167.643404
20
197.347060
0
VERTEX
5
856
100
AcDbEntity
8
1
100
AcDbVertex
100
AcDb2dVertex
62
5
10
167.642497
20
197.347653
0
VERTEX
5
857
100
AcDbEntity
8
1
100
AcDbVertex
100
AcDb2dVertex
62
5
10
167.641590
20
197.348316
0
VERTEX
5
858
100
AcDbEntity
8
1
100
AcDbVertex
100
AcDb2dVertex
62
5
10
167.640717
20
197.348944
0
VERTEX
5
859
100
AcDbEntity
8
1
100
AcDbVertex
100
AcDb2dVertex
62
5
10
167.639810
20
197.349573
0
VERTEX
5
85a
100
AcDbEntity
8
1
100
AcDbVertex
100
AcDb2dVertex
62
5
10
167.638938
20
197.350236
0
VERTEX
5
85b
100
AcDbEntity
8
1
100
AcDbVertex
100
AcDb2dVertex
62
5
10
167.638031
20
197.350899
0
VERTEX
5
85c
100
AcDbEntity
8
1
100
AcDbVertex
100
AcDb2dVertex
62
5
10
167.637158
20
197.351562
0
VERTEX
5
85d
100
AcDbEntity
8
1
100
AcDbVertex
100
AcDb2dVertex
62
5
10
167.636286
20
197.352225
0
VERTEX
5
85e
100
AcDbEntity
8
1
100
AcDbVertex
100
AcDb2dVertex
62
5
10
167.635413
20
197.352922
0
VERTEX
5
85f
100
AcDbEntity
8
1
100
AcDbVertex
100
AcDb2dVertex
62
5
10
167.634541
20
197.353585
0
VERTEX
5
860
100
AcDbEntity
8
1
100
AcDbVertex
100
AcDb2dVertex
62
5
10
167.633669
20
197.354283
0
VERTEX
5
861
100
AcDbEntity
8
1
100
AcDbVertex
100
AcDb2dVertex
62
5
10
167.632831
20
197.354981
0
VERTEX
5
862
100
AcDbEntity
8
1
100
AcDbVertex
100
AcDb2dVertex
62
5
10
167.631959
20
197.355679
0
VERTEX
5
863
100
AcDbEntity
8
1
100
AcDbVertex
100
AcDb2dVertex
62
5
10
167.631087
20
197.356377
0
VERTEX
5
864
100
AcDbEntity
8
1
100
AcDbVertex
100
AcDb2dVertex
62
5
10
167.630249
20
197.357110
0
VERTEX
5
865
100
AcDbEntity
8
1
100
AcDbVertex
100
AcDb2dVertex
62
5
10
167.629412
20
197.357842
0
VERTEX
5
866
100
AcDbEntity
8
1
100
AcDbVertex
100
AcDb2dVertex
62
5
10
167.628539
20
197.358540
0
VERTEX
5
867
100
AcDbEntity
8
1
100
AcDbVertex
100
AcDb2dVertex
62
5
10
167.627702
20
197.359308
0
VERTEX
5
868
100
AcDbEntity
8
1
100
AcDbVertex
100
AcDb2dVertex
62
5
10
167.626864
20
197.360041
0
VERTEX
5
869
100
AcDbEntity
8
1
100
AcDbVertex
100
AcDb2dVertex
62
5
10
167.626027
20
197.360774
0
VERTEX
5
86a
100
AcDbEntity
8
1
100
AcDbVertex
100
AcDb2dVertex
62
5
10
167.625189
20
197.361541
0
VERTEX
5
86b
100
AcDbEntity
8
1
100
AcDbVertex
100
AcDb2dVertex
62
5
10
167.624352
20
197.362309
0
VERTEX
5
86c
100
AcDbEntity
8
1
100
AcDbVertex
100
AcDb2dVertex
62
5
10
167.623549
20
197.363042
0
VERTEX
5
86d
100
AcDbEntity
8
1
100
AcDbVertex
100
AcDb2dVertex
62
5
10
167.622712
20
197.363844
0
VERTEX
5
86e
100
AcDbEntity
8
1
100
AcDbVertex
100
AcDb2dVertex
62
5
10
167.621875
20
197.364612
0
VERTEX
5
86f
100
AcDbEntity
8
1
100
AcDbVertex
100
AcDb2dVertex
62
5
10
167.621072
20
197.365380
0
VERTEX
5
870
100
AcDbEntity
8
1
100
AcDbVertex
100
AcDb2dVertex
62
5
10
167.620269
20
197.366182
0
VERTEX
5
871
100
AcDbEntity
8
1
100
AcDbVertex
100
AcDb2dVertex
62
5
10
167.619432
20
197.366985
0
VERTEX
5
872
100
AcDbEntity
8
1
100
AcDbVertex
100
AcDb2dVertex
62
5
10
167.618629
20
197.367787
0
SEQEND
5
873
100
AcDbEntity
8
1
0
POLYLINE
5
874
100
AcDbEntity
8
0
6
CONTINUOUS
62
5
100
AcDb2dPolyline
66
1
10
0.0
20
0.0
30
0.0
70
1
0
VERTEX
5
875
100
AcDbEntity
8
0
100
AcDbVertex
100
AcDb2dVertex
62
5
10
168.591618
20
197.383293
0
VERTEX
5
876
100
AcDbEntity
8
0
100
AcDbVertex
100
AcDb2dVertex
62
5
10
168.471960
20
197.440273
0
VERTEX
5
877
100
AcDbEntity
8
0
100
AcDbVertex
100
AcDb2dVertex
62
5
10
168.378892
20
197.513398
0
VERTEX
5
878
100
AcDbEntity
8
0
100
AcDbVertex
100
AcDb2dVertex
62
5
10
168.293422
20
197.607415
0
VERTEX
5
879
100
AcDbEntity
8
0
100
AcDbVertex
100
AcDb2dVertex
62
5
10
168.215549
20
197.722325
0
VERTEX
5
87a
100
AcDbEntity
8
0
100
AcDbVertex
100
AcDb2dVertex
62
5
10
168.196556
20
197.775506
0
VERTEX
5
87b
100
AcDbEntity
8
0
100
AcDbVertex
100
AcDb2dVertex
62
5
10
168.207952
20
197.821090
0
VERTEX
5
87c
100
AcDbEntity
8
0
100
AcDbVertex
100
AcDb2dVertex
62
5
10
168.249737
20
197.859077
0
VERTEX
5
87d
100
AcDbEntity
8
0
100
AcDbVertex
100
AcDb2dVertex
62
5
10
168.306717
20
197.866675
0
VERTEX
5
87e
100
AcDbEntity
8
0
100
AcDbVertex
100
AcDb2dVertex
62
5
10
168.352302
20
197.843883
0
VERTEX
5
87f
100
AcDbEntity
8
0
100
AcDbVertex
100
AcDb2dVertex
62
5
10
168.386490
20
197.790701
0
VERTEX
5
880
100
AcDbEntity
8
0
100
AcDbVertex
100
AcDb2dVertex
62
5
10
168.435872
20
197.699533
0
VERTEX
5
881
100
AcDbEntity
8
0
100
AcDbVertex
100
AcDb2dVertex
62
5
10
168.504249
20
197.619761
0
VERTEX
5
882
100
AcDbEntity
8
0
100
AcDbVertex
100
AcDb2dVertex
62
5
10
168.591618
20
197.551384
0
VERTEX
5
883
100
AcDbEntity
8
0
100
AcDbVertex
100
AcDb2dVertex
62
5
10
168.681837
20
197.508649
0
VERTEX
5
884
100
AcDbEntity
8
0
100
AcDbVertex
100
AcDb2dVertex
62
5
10
168.792948
20
197.483008
0
VERTEX
5
885
100
AcDbEntity
8
0
100
AcDbVertex
100
AcDb2dVertex
62
5
10
168.924952
20
197.474461
0
VERTEX
5
886
100
AcDbEntity
8
0
100
AcDbVertex
100
AcDb2dVertex
62
5
10
169.095893
20
197.488706
0
VERTEX
5
887
100
AcDbEntity
8
0
100
AcDbVertex
100
AcDb2dVertex
62
5
10
169.232645
20
197.531441
0
VERTEX
5
888
100
AcDbEntity
8
0
100
AcDbVertex
100
AcDb2dVertex
62
5
10
169.335209
20
197.602667
0
VERTEX
5
889
100
AcDbEntity
8
0
100
AcDbVertex
100
AcDb2dVertex
62
5
10
169.420679
20
197.709030
0
VERTEX
5
88a
100
AcDbEntity
8
0
100
AcDbVertex
100
AcDb2dVertex
62
5
10
169.471962
20
197.822990
0
VERTEX
5
88b
100
AcDbEntity
8
0
100
AcDbVertex
100
AcDb2dVertex
62
5
10
169.489056
20
197.944547
0
VERTEX
5
88c
100
AcDbEntity
8
0
100
AcDbVertex
100
AcDb2dVertex
62
5
10
169.473861
20
198.068954
0
VERTEX
5
88d
100
AcDbEntity
8
0
100
AcDbVertex
100
AcDb2dVertex
62
5
10
169.428277
20
198.180065
0
VERTEX
5
88e
100
AcDbEntity
8
0
100
AcDbVertex
100
AcDb2dVertex
62
5
10
169.352303
20
198.277881
0
VERTEX
5
88f
100
AcDbEntity
8
0
100
AcDbVertex
100
AcDb2dVertex
62
5
10
169.253538
20
198.349107
0
VERTEX
5
890
100
AcDbEntity
8
0
100
AcDbVertex
100
AcDb2dVertex
62
5
10
169.128181
20
198.391842
0
VERTEX
5
891
100
AcDbEntity
8
0
100
AcDbVertex
100
AcDb2dVertex
62
5
10
168.976234
20
198.406087
0
VERTEX
5
892
100
AcDbEntity
8
0
100
AcDbVertex
100
AcDb2dVertex
62
5
10
168.883167
20
198.401338
0
VERTEX
5
893
100
AcDbEntity
8
0
100
AcDbVertex
100
AcDb2dVertex
62
5
10
168.797696
20
198.387093
0
VERTEX
5
894
100
AcDbEntity
8
0
100
AcDbVertex
100
AcDb2dVertex
62
5
10
168.719824
20
198.363352
0
VERTEX
5
895
100
AcDbEntity
8
0
100
AcDbVertex
100
AcDb2dVertex
62
5
10
168.640051
20
198.325365
0
VERTEX
5
896
100
AcDbEntity
8
0
100
AcDbVertex
100
AcDb2dVertex
62
5
10
168.548883
20
198.268385
0
VERTEX
5
897
100
AcDbEntity
8
0
100
AcDbVertex
100
AcDb2dVertex
62
5
10
168.446319
20
198.192411
0
VERTEX
5
898
100
AcDbEntity
8
0
100
AcDbVertex
100
AcDb2dVertex
62
5
10
168.402634
20
198.166770
0
VERTEX
5
899
100
AcDbEntity
8
0
100
AcDbVertex
100
AcDb2dVertex
62
5
10
168.362748
20
198.158223
0
VERTEX
5
89a
100
AcDbEntity
8
0
100
AcDbVertex
100
AcDb2dVertex
62
5
10
168.326661
20
198.166770
0
VERTEX
5
89b
100
AcDbEntity
8
0
100
AcDbVertex
100
AcDb2dVertex
62
5
10
168.290573
20
198.189562
0
VERTEX
5
89c
100
AcDbEntity
8
0
100
AcDbVertex
100
AcDb2dVertex
62
5
10
168.273479
20
198.223750
0
VERTEX
5
89d
100
AcDbEntity
8
0
100
AcDbVertex
100
AcDb2dVertex
62
5
10
168.275378
20
198.269334
0
VERTEX
5
89e
100
AcDbEntity
8
0
100
AcDbVertex
100
AcDb2dVertex
62
5
10
168.360849
20
198.910361
0
VERTEX
5
89f
100
AcDbEntity
8
0
100
AcDbVertex
100
AcDb2dVertex
62
5
10
168.393137
20
199.006278
0
VERTEX
5
8a0
100
AcDbEntity
8
0
100
AcDbVertex
100
AcDb2dVertex
62
5
10
168.455816
20
199.066107
0
VERTEX
5
8a1
100
AcDbEntity
8
0
100
AcDbVertex
100
AcDb2dVertex
62
5
10
168.548883
20
199.089848
0
VERTEX
5
8a2
100
AcDbEntity
8
0
100
AcDbVertex
100
AcDb2dVertex
62
5
10
169.471962
20
199.089848
0
VERTEX
5
8a3
100
AcDbEntity
8
0
100
AcDbVertex
100
AcDb2dVertex
62
5
10
169.519445
20
199.081301
0
VERTEX
5
8a4
100
AcDbEntity
8
0
100
AcDbVertex
100
AcDb2dVertex
62
5
10
169.547935
20
199.055660
0
VERTEX
5
8a5
100
AcDbEntity
8
0
100
AcDbVertex
100
AcDb2dVertex
62
5
10
169.557432
20
199.012925
0
VERTEX
5
8a6
100
AcDbEntity
8
0
100
AcDbVertex
100
AcDb2dVertex
62
5
10
169.547935
20
198.964587
0
VERTEX
5
8a7
100
AcDbEntity
8
0
100
AcDbVertex
100
AcDb2dVertex
62
5
10
169.519445
20
198.935584
0
VERTEX
5
8a8
100
AcDbEntity
8
0
100
AcDbVertex
100
AcDb2dVertex
62
5
10
169.471962
20
198.925917
0
VERTEX
5
8a9
100
AcDbEntity
8
0
100
AcDbVertex
100
AcDb2dVertex
62
5
10
168.608712
20
198.925917
0
VERTEX
5
8aa
100
AcDbEntity
8
0
100
AcDbVertex
100
AcDb2dVertex
62
5
10
168.560279
20
198.914198
0
VERTEX
5
8ab
100
AcDbEntity
8
0
100
AcDbVertex
100
AcDb2dVertex
62
5
10
168.528940
20
198.889069
0
VERTEX
5
8ac
100
AcDbEntity
8
0
100
AcDbVertex
100
AcDb2dVertex
62
5
10
168.514695
20
198.850532
0
VERTEX
5
8ad
100
AcDbEntity
8
0
100
AcDbVertex
100
AcDb2dVertex
62
5
10
168.446319
20
198.354805
0
VERTEX
5
8ae
100
AcDbEntity
8
0
100
AcDbVertex
100
AcDb2dVertex
62
5
10
168.454866
20
198.354805
0
VERTEX
5
8af
100
AcDbEntity
8
0
100
AcDbVertex
100
AcDb2dVertex
62
5
10
168.626756
20
198.459268
0
VERTEX
5
8b0
100
AcDbEntity
8
0
100
AcDbVertex
100
AcDb2dVertex
62
5
10
168.800545
20
198.521946
0
VERTEX
5
8b1
100
AcDbEntity
8
0
100
AcDbVertex
100
AcDb2dVertex
62
5
10
168.976234
20
198.542839
0
VERTEX
5
8b2
100
AcDbEntity
8
0
100
AcDbVertex
100
AcDb2dVertex
62
5
10
169.180413
20
198.523846
0
VERTEX
5
8b3
100
AcDbEntity
8
0
100
AcDbVertex
100
AcDb2dVertex
62
5
10
169.348505
20
198.466866
0
VERTEX
5
8b4
100
AcDbEntity
8
0
100
AcDbVertex
100
AcDb2dVertex
62
5
10
169.480509
20
198.371899
0
VERTEX
5
8b5
100
AcDbEntity
8
0
100
AcDbVertex
100
AcDb2dVertex
62
5
10
169.584972
20
198.239895
0
VERTEX
5
8b6
100
AcDbEntity
8
0
100
AcDbVertex
100
AcDb2dVertex
62
5
10
169.647650
20
198.094595
0
VERTEX
5
8b7
100
AcDbEntity
8
0
100
AcDbVertex
100
AcDb2dVertex
62
5
10
169.668543
20
197.936000
0
VERTEX
5
8b8
100
AcDbEntity
8
0
100
AcDbVertex
100
AcDb2dVertex
62
5
10
169.650499
20
197.785003
0
VERTEX
5
8b9
100
AcDbEntity
8
0
100
AcDbVertex
100
AcDb2dVertex
62
5
10
169.596368
20
197.651100
0
VERTEX
5
8ba
100
AcDbEntity
8
0
100
AcDbVertex
100
AcDb2dVertex
62
5
10
169.506150
20
197.534290
0
VERTEX
5
8bb
100
AcDbEntity
8
0
100
AcDbVertex
100
AcDb2dVertex
62
5
10
169.355152
20
197.425078
0
VERTEX
5
8bc
100
AcDbEntity
8
0
100
AcDbVertex
100
AcDb2dVertex
62
5
10
169.164269
20
197.359551
0
VERTEX
5
8bd
100
AcDbEntity
8
0
100
AcDbVertex
100
AcDb2dVertex
62
5
10
168.933499
20
197.337709
0
VERTEX
5
8be
100
AcDbEntity
8
0
100
AcDbVertex
100
AcDb2dVertex
62
5
10
168.745465
20
197.349105
0
SEQEND
5
8bf
100
AcDbEntity
8
0
0
POLYLINE
5
8c0
100
AcDbEntity
8
0
6
CONTINUOUS
62
5
100
AcDb2dPolyline
66
1
10
0.0
20
0.0
30
0.0
70
1
0
VERTEX
5
8c1
100
AcDbEntity
8
0
100
AcDbVertex
100
AcDb2dVertex
62
5
10
166.296683
20
198.803694
0
VERTEX
5
8c2
100
AcDbEntity
8
0
100
AcDbVertex
100
AcDb2dVertex
62
5
10
166.187471
20
198.650797
0
VERTEX
5
8c3
100
AcDbEntity
8
0
100
AcDbVertex
100
AcDb2dVertex
62
5
10
166.121944
20
198.454216
0
VERTEX
5
8c4
100
AcDbEntity
8
0
100
AcDbVertex
100
AcDb2dVertex
62
5
10
166.100101
20
198.213950
0
VERTEX
5
8c5
100
AcDbEntity
8
0
100
AcDbVertex
100
AcDb2dVertex
62
5
10
166.121944
20
197.968935
0
VERTEX
5
8c6
100
AcDbEntity
8
0
100
AcDbVertex
100
AcDb2dVertex
62
5
10
166.187471
20
197.769504
0
VERTEX
5
8c7
100
AcDbEntity
8
0
100
AcDbVertex
100
AcDb2dVertex
62
5
10
166.296683
20
197.615658
0
VERTEX
5
8c8
100
AcDbEntity
8
0
100
AcDbVertex
100
AcDb2dVertex
62
5
10
166.403996
20
197.534936
0
VERTEX
5
8c9
100
AcDbEntity
8
0
100
AcDbVertex
100
AcDb2dVertex
62
5
10
166.532201
20
197.486503
0
VERTEX
5
8ca
100
AcDbEntity
8
0
100
AcDbVertex
100
AcDb2dVertex
62
5
10
166.681299
20
197.470359
0
VERTEX
5
8cb
100
AcDbEntity
8
0
100
AcDbVertex
100
AcDb2dVertex
62
5
10
166.830397
20
197.486503
0
VERTEX
5
8cc
100
AcDbEntity
8
0
100
AcDbVertex
100
AcDb2dVertex
62
5
10
166.958602
20
197.534936
0
VERTEX
5
8cd
100
AcDbEntity
8
0
100
AcDbVertex
100
AcDb2dVertex
62
5
10
167.065915
20
197.615658
0
VERTEX
5
8ce
100
AcDbEntity
8
0
100
AcDbVertex
100
AcDb2dVertex
62
5
10
167.175127
20
197.769504
0
VERTEX
5
8cf
100
AcDbEntity
8
0
100
AcDbVertex
100
AcDb2dVertex
62
5
10
167.240654
20
197.968935
0
VERTEX
5
8d0
100
AcDbEntity
8
0
100
AcDbVertex
100
AcDb2dVertex
62
5
10
167.262496
20
198.213950
0
VERTEX
5
8d1
100
AcDbEntity
8
0
100
AcDbVertex
100
AcDb2dVertex
62
5
10
167.240654
20
198.454216
0
VERTEX
5
8d2
100
AcDbEntity
8
0
100
AcDbVertex
100
AcDb2dVertex
62
5
10
167.175127
20
198.650797
0
VERTEX
5
8d3
100
AcDbEntity
8
0
100
AcDbVertex
100
AcDb2dVertex
62
5
10
167.065915
20
198.803694
0
VERTEX
5
8d4
100
AcDbEntity
8
0
100
AcDbVertex
100
AcDb2dVertex
62
5
10
166.958602
20
198.884416
0
VERTEX
5
8d5
100
AcDbEntity
8
0
100
AcDbVertex
100
AcDb2dVertex
62
5
10
166.830397
20
198.932849
0
VERTEX
5
8d6
100
AcDbEntity
8
0
100
AcDbVertex
100
AcDb2dVertex
62
5
10
166.681299
20
198.948994
0
VERTEX
5
8d7
100
AcDbEntity
8
0
100
AcDbVertex
100
AcDb2dVertex
62
5
10
166.532201
20
198.932849
0
VERTEX
5
8d8
100
AcDbEntity
8
0
100
AcDbVertex
100
AcDb2dVertex
62
5
10
166.403996
20
198.884416
0
SEQEND
5
8d9
100
AcDbEntity
8
0
0
POLYLINE
5
8da
100
AcDbEntity
8
1
6
CONTINUOUS
62
5
100
AcDb2dPolyline
66
1
10
0.0
20
0.0
30
0.0
70
1
0
VERTEX
5
8db
100
AcDbEntity
8
1
100
AcDbVertex
100
AcDb2dVertex
62
5
10
154.000000
20
198.200082
0
VERTEX
5
8dc
100
AcDbEntity
8
1
100
AcDbVertex
100
AcDb2dVertex
62
5
10
154.000000
20
200.091824
0
SEQEND
5
8dd
100
AcDbEntity
8
1
0
POLYLINE
5
8de
100
AcDbEntity
8
0
6
CONTINUOUS
62
5
100
AcDb2dPolyline
66
1
10
0.0
20
0.0
30
0.0
70
1
0
VERTEX
5
8df
100
AcDbEntity
8
0
100
AcDbVertex
100
AcDb2dVertex
62
5
10
167.211214
20
198.872070
0
VERTEX
5
8e0
100
AcDbEntity
8
0
100
AcDbVertex
100
AcDb2dVertex
62
5
10
167.339420
20
198.696382
0
VERTEX
5
8e1
100
AcDbEntity
8
0
100
AcDbVertex
100
AcDb2dVertex
62
5
10
167.416343
20
198.477008
0
VERTEX
5
8e2
100
AcDbEntity
8
0
100
AcDbVertex
100
AcDb2dVertex
62
5
10
167.441984
20
198.213950
0
VERTEX
5
8e3
100
AcDbEntity
8
0
100
AcDbVertex
100
AcDb2dVertex
62
5
10
167.416343
20
197.946143
0
VERTEX
5
8e4
100
AcDbEntity
8
0
100
AcDbVertex
100
AcDb2dVertex
62
5
10
167.339420
20
197.723920
0
VERTEX
5
8e5
100
AcDbEntity
8
0
100
AcDbVertex
100
AcDb2dVertex
62
5
10
167.211214
20
197.547282
0
VERTEX
5
8e6
100
AcDbEntity
8
0
100
AcDbVertex
100
AcDb2dVertex
62
5
10
167.057368
20
197.428573
0
VERTEX
5
8e7
100
AcDbEntity
8
0
100
AcDbVertex
100
AcDb2dVertex
62
5
10
166.880729
20
197.357348
0
VERTEX
5
8e8
100
AcDbEntity
8
0
100
AcDbVertex
100
AcDb2dVertex
62
5
10
166.681299
20
197.333606
0
VERTEX
5
8e9
100
AcDbEntity
8
0
100
AcDbVertex
100
AcDb2dVertex
62
5
10
166.481868
20
197.357348
0
VERTEX
5
8ea
100
AcDbEntity
8
0
100
AcDbVertex
100
AcDb2dVertex
62
5
10
166.305230
20
197.428573
0
VERTEX
5
8eb
100
AcDbEntity
8
0
100
AcDbVertex
100
AcDb2dVertex
62
5
10
166.151384
20
197.547282
0
VERTEX
5
8ec
100
AcDbEntity
8
0
100
AcDbVertex
100
AcDb2dVertex
62
5
10
166.023178
20
197.723920
0
VERTEX
5
8ed
100
AcDbEntity
8
0
100
AcDbVertex
100
AcDb2dVertex
62
5
10
165.946255
20
197.946143
0
VERTEX
5
8ee
100
AcDbEntity
8
0
100
AcDbVertex
100
AcDb2dVertex
62
5
10
165.920614
20
198.213950
0
VERTEX
5
8ef
100
AcDbEntity
8
0
100
AcDbVertex
100
AcDb2dVertex
62
5
10
165.946255
20
198.477008
0
VERTEX
5
8f0
100
AcDbEntity
8
0
100
AcDbVertex
100
AcDb2dVertex
62
5
10
166.023178
20
198.696382
0
VERTEX
5
8f1
100
AcDbEntity
8
0
100
AcDbVertex
100
AcDb2dVertex
62
5
10
166.151384
20
198.872070
0
VERTEX
5
8f2
100
AcDbEntity
8
0
100
AcDbVertex
100
AcDb2dVertex
62
5
10
166.305230
20
198.990779
0
VERTEX
5
8f3
100
AcDbEntity
8
0
100
AcDbVertex
100
AcDb2dVertex
62
5
10
166.481868
20
199.062004
0
VERTEX
5
8f4
100
AcDbEntity
8
0
100
AcDbVertex
100
AcDb2dVertex
62
5
10
166.681299
20
199.085746
0
VERTEX
5
8f5
100
AcDbEntity
8
0
100
AcDbVertex
100
AcDb2dVertex
62
5
10
166.880729
20
199.062004
0
VERTEX
5
8f6
100
AcDbEntity
8
0
100
AcDbVertex
100
AcDb2dVertex
62
5
10
167.057368
20
198.990779
0
SEQEND
5
8f7
100
AcDbEntity
8
0
0
ARC
5
8f8
100
AcDbEntity
8
1
100
AcDbCircle
6
CONTINUOUS
62
5
10
151.000000
20
193.541824
40
0.500000
100
AcDbArc
50
-89.999999
51
0.000000
0
LINE
5
8f9
100
AcDbEntity
8
1
100
AcDbLine
6
CONTINUOUS
62
5
10
151.500000
20
193.541824
11
151.500000
21
193.841679
0
LINE
5
8fa
100
AcDbEntity
8
1
100
AcDbLine
6
CONTINUOUS
62
5
10
149.000000
20
195.541824
11
149.000000
21
194.041824
0
ARC
5
8fb
100
AcDbEntity
8
1
100
AcDbCircle
6
CONTINUOUS
62
5
10
150.000000
20
194.041824
40
1.000000
100
AcDbArc
50
179.999998
51
-89.999999
0
LINE
5
8fc
100
AcDbEntity
8
1
100
AcDbLine
6
CONTINUOUS
62
5
10
150.000000
20
193.041824
11
151.000000
21
193.041824
0
ARC
5
8fd
100
AcDbEntity
8
1
100
AcDbCircle
6
CONTINUOUS
62
5
10
150.000000
20
194.241824
40
1.500000
100
AcDbArc
50
179.999998
51
-89.999999
0
LINE
5
8fe
100
AcDbEntity
8
1
100
AcDbLine
6
CONTINUOUS
62
5
10
150.000000
20
192.741824
11
151.800000
21
192.741824
0
ARC
5
8ff
100
AcDbEntity
8
1
100
AcDbCircle
6
CONTINUOUS
62
5
10
151.800000
20
193.241824
40
0.500000
100
AcDbArc
50
-89.999999
51
0.000000
0
LINE
5
900
100
AcDbEntity
8
1
100
AcDbLine
6
CONTINUOUS
62
5
10
152.300000
20
193.241824
11
152.300000
21
193.641824
0
LINE
5
901
100
AcDbEntity
8
1
100
AcDbLine
6
CONTINUOUS
62
5
10
148.500000
20
195.541824
11
148.500000
21
194.241824
0
ARC
5
902
100
AcDbEntity
8
1
100
AcDbCircle
6
CONTINUOUS
62
5
10
154.000000
20
200.391824
40
0.300000
100
AcDbArc
50
-179.999998
51
-89.999999
0
LINE
5
903
100
AcDbEntity
8
1
100
AcDbLine
6
CONTINUOUS
62
5
10
153.700000
20
200.391824
11
153.700000
21
207.091824
0
ARC
5
904
100
AcDbEntity
8
1
100
AcDbCircle
6
CONTINUOUS
62
5
10
154.000000
20
207.091824
40
0.300000
100
AcDbArc
50
89.999999
51
179.999998
0
LINE
5
905
100
AcDbEntity
8
1
100
AcDbLine
6
CONTINUOUS
62
5
10
154.000000
20
207.391824
11
154.200000
21
207.391824
0
LINE
5
906
100
AcDbEntity
8
1
100
AcDbLine
6
CONTINUOUS
62
5
10
154.200000
20
200.091824
11
154.000000
21
200.091824
0
ARC
5
907
100
AcDbEntity
8
1
100
AcDbCircle
6
CONTINUOUS
62
5
10
161.267144
20
211.141824
40
0.500000
100
AcDbArc
50
89.999999
51
179.999998
0
LINE
5
908
100
AcDbEntity
8
1
100
AcDbLine
6
CONTINUOUS
62
5
10
160.767144
20
211.141824
11
160.767144
21
196.341824
0
ARC
5
909
100
AcDbEntity
8
1
100
AcDbCircle
6
CONTINUOUS
62
5
10
161.267144
20
196.341824
40
0.500000
100
AcDbArc
50
179.999998
51
-89.999999
0
LINE
5
90a
100
AcDbEntity
8
1
100
AcDbLine
6
CONTINUOUS
62
5
10
150.000000
20
208.290156
11
150.000000
21
199.193493
0
LINE
5
90b
100
AcDbEntity
8
1
100
AcDbLine
6
CONTINUOUS
62
5
10
154.200000
20
198.241824
11
154.200000
21
209.241824
0
LINE
5
90c
100
AcDbEntity
8
1
100
AcDbLine
6
CONTINUOUS
62
5
10
148.500000
20
209.041824
11
148.500000
21
198.441824
0
ARC
5
90d
100
AcDbEntity
8
1
100
AcDbCircle
6
CONTINUOUS
62
5
10
155.500000
20
197.741824
40
0.500000
100
AcDbArc
50
179.999998
51
-89.999999
0
LINE
5
90e
100
AcDbEntity
8
1
100
AcDbLine
6
CONTINUOUS
62
5
10
155.500000
20
197.241824
11
156.000000
21
197.241824
0
LINE
5
90f
100
AcDbEntity
8
1
100
AcDbLine
6
CONTINUOUS
62
5
10
156.000000
20
210.241824
11
155.500000
21
210.241824
0
ARC
5
910
100
AcDbEntity
8
1
100
AcDbCircle
6
CONTINUOUS
62
5
10
155.500000
20
209.741824
40
0.500000
100
AcDbArc
50
89.999999
51
179.999998
0
LINE
5
911
100
AcDbEntity
8
1
100
AcDbLine
6
CONTINUOUS
62
5
10
155.000000
20
209.741824
11
155.000000
21
197.741824
0
ARC
5
912
100
AcDbEntity
8
1
100
AcDbCircle
6
CONTINUOUS
62
5
10
151.187124
20
194.842541
40
1.000908
100
AcDbArc
50
-172.251537
51
-89.999999
0
ARC
5
913
100
AcDbEntity
8
1
100
AcDbCircle
6
CONTINUOUS
62
5
10
149.209556
20
194.542257
40
0.999567
100
AcDbArc
50
9.521021
51
90.008960
0
LINE
5
914
100
AcDbEntity
8
1
100
AcDbLine
6
CONTINUOUS
62
5
10
149.209400
20
195.541824
11
148.500000
21
195.541824
0
ARC
5
915
100
AcDbEntity
8
1
100
AcDbCircle
6
CONTINUOUS
62
5
10
148.500000
20
196.041824
40
0.500000
100
AcDbArc
50
179.999998
51
-89.999999
0
LINE
5
916
100
AcDbEntity
8
1
100
AcDbLine
6
CONTINUOUS
62
5
10
148.000000
20
196.041824
11
148.000000
21
197.941824
0
ARC
5
917
100
AcDbEntity
8
1
100
AcDbCircle
6
CONTINUOUS
62
5
10
148.500000
20
197.941824
40
0.500000
100
AcDbArc
50
89.999999
51
-179.999998
0
LINE
5
918
100
AcDbEntity
8
1
100
AcDbLine
6
CONTINUOUS
62
5
10
148.500000
20
198.441824
11
148.700000
21
198.441824
0
ARC
5
919
100
AcDbEntity
8
1
100
AcDbCircle
6
CONTINUOUS
62
5
10
148.700000
20
199.941824
40
1.500000
100
AcDbArc
50
-89.999999
51
-0.000000
0
LINE
5
91a
100
AcDbEntity
8
1
100
AcDbLine
6
CONTINUOUS
62
5
10
150.200000
20
199.941824
11
150.200000
21
207.541824
0
ARC
5
91b
100
AcDbEntity
8
1
100
AcDbCircle
6
CONTINUOUS
62
5
10
148.700000
20
207.541824
40
1.500000
100
AcDbArc
50
0.000000
51
89.999999
0
LINE
5
91c
100
AcDbEntity
8
1
100
AcDbLine
6
CONTINUOUS
62
5
10
148.700000
20
209.041824
11
148.500000
21
209.041824
0
ARC
5
91d
100
AcDbEntity
8
1
100
AcDbCircle
6
CONTINUOUS
62
5
10
148.500000
20
209.541824
40
0.500000
100
AcDbArc
50
179.999998
51
-89.999999
0
LINE
5
91e
100
AcDbEntity
8
1
100
AcDbLine
6
CONTINUOUS
62
5
10
148.000000
20
209.541824
11
148.000000
21
211.441824
0
ARC
5
91f
100
AcDbEntity
8
1
100
AcDbCircle
6
CONTINUOUS
62
5
10
148.500000
20
211.441824
40
0.500000
100
AcDbArc
50
89.999999
51
-179.999998
0
LINE
5
920
100
AcDbEntity
8
1
100
AcDbLine
6
CONTINUOUS
62
5
10
148.500000
20
211.941824
11
149.209400
21
211.941824
0
ARC
5
921
100
AcDbEntity
8
1
100
AcDbCircle
6
CONTINUOUS
62
5
10
149.209561
20
212.941377
40
0.999553
100
AcDbArc
50
-90.009250
51
-9.506646
0
ARC
5
922
100
AcDbEntity
8
1
100
AcDbCircle
6
CONTINUOUS
62
5
10
151.187124
20
212.641107
40
1.000908
100
AcDbArc
50
89.999999
51
172.237957
0
POLYLINE
5
923
100
AcDbEntity
8
1
6
CONTINUOUS
62
5
100
AcDb2dPolyline
66
1
10
0.0
20
0.0
30
0.0
70
0
0
VERTEX
5
924
100
AcDbEntity
8
1
100
AcDbVertex
100
AcDb2dVertex
62
5
10
151.187124
20
213.642015
0
VERTEX
5
925
100
AcDbEntity
8
1
100
AcDbVertex
100
AcDb2dVertex
62
5
10
152.500000
20
213.641824
0
VERTEX
5
926
100
AcDbEntity
8
1
100
AcDbVertex
100
AcDb2dVertex
62
5
10
152.500000
20
214.797166
0
VERTEX
5
927
100
AcDbEntity
8
1
100
AcDbVertex
100
AcDb2dVertex
62
5
10
156.000000
20
214.796118
0
VERTEX
5
928
100
AcDbEntity
8
1
100
AcDbVertex
100
AcDb2dVertex
62
5
10
156.000000
20
213.996118
0
VERTEX
5
929
100
AcDbEntity
8
1
100
AcDbVertex
100
AcDb2dVertex
62
5
10
155.600000
20
213.996238
0
SEQEND
5
92a
100
AcDbEntity
8
1
0
POLYLINE
5
92b
100
AcDbEntity
8
1
6
CONTINUOUS
62
5
100
AcDb2dPolyline
66
1
10
0.0
20
0.0
30
0.0
70
0
0
VERTEX
5
92c
100
AcDbEntity
8
1
100
AcDbVertex
100
AcDb2dVertex
62
5
10
155.600000
20
193.491807
0
VERTEX
5
92d
100
AcDbEntity
8
1
100
AcDbVertex
100
AcDb2dVertex
62
5
10
156.000000
20
193.491807
0
VERTEX
5
92e
100
AcDbEntity
8
1
100
AcDbVertex
100
AcDb2dVertex
62
5
10
156.000000
20
192.687532
0
VERTEX
5
92f
100
AcDbEntity
8
1
100
AcDbVertex
100
AcDb2dVertex
62
5
10
152.500000
20
192.686484
0
VERTEX
5
930
100
AcDbEntity
8
1
100
AcDbVertex
100
AcDb2dVertex
62
5
10
152.500000
20
193.841824
0
VERTEX
5
931
100
AcDbEntity
8
1
100
AcDbVertex
100
AcDb2dVertex
62
5
10
151.187124
20
193.841633
0
SEQEND
5
932
100
AcDbEntity
8
1
0
LINE
5
933
100
AcDbEntity
8
1
100
AcDbLine
6
CONTINUOUS
62
5
10
155.200000
20
215.091824
11
121.000000
21
215.091824
0
LINE
5
934
100
AcDbEntity
8
1
100
AcDbLine
6
CONTINUOUS
62
5
10
155.200000
20
192.391824
11
121.000000
21
192.391824
0
POLYLINE
5
935
100
AcDbEntity
8
1
6
CONTINUOUS
62
5
100
AcDb2dPolyline
66
1
10
0.0
20
0.0
30
0.0
70
0
0
VERTEX
5
936
100
AcDbEntity
8
1
100
AcDbVertex
100
AcDb2dVertex
62
5
10
123.000000
20
246.341824
0
VERTEX
5
937
100
AcDbEntity
8
1
100
AcDbVertex
100
AcDb2dVertex
62
5
10
123.000000
20
215.091824
0
VERTEX
5
938
100
AcDbEntity
8
1
100
AcDbVertex
100
AcDb2dVertex
62
5
10
122.000000
20
221.091824
0
VERTEX
5
939
100
AcDbEntity
8
1
100
AcDbVertex
100
AcDb2dVertex
62
5
10
124.000000
20
221.091824
0
VERTEX
5
93a
100
AcDbEntity
8
1
100
AcDbVertex
100
AcDb2dVertex
62
5
10
123.000000
20
215.091824
0
VERTEX
5
93b
100
AcDbEntity
8
1
100
AcDbVertex
100
AcDb2dVertex
62
5
10
122.500000
20
221.091824
0
VERTEX
5
93c
100
AcDbEntity
8
1
100
AcDbVertex
100
AcDb2dVertex
62
5
10
123.500000
20
221.091824
0
VERTEX
5
93d
100
AcDbEntity
8
1
100
AcDbVertex
100
AcDb2dVertex
62
5
10
123.000000
20
215.091824
0
SEQEND
5
93e
100
AcDbEntity
8
1
0
LINE
5
93f
100
AcDbEntity
8
1
100
AcDbLine
6
CONTINUOUS
62
5
10
123.000000
20
192.391824
11
123.000000
21
215.091824
0
POLYLINE
5
940
100
AcDbEntity
8
1
6
CONTINUOUS
62
5
100
AcDb2dPolyline
66
1
10
0.0
20
0.0
30
0.0
70
0
0
VERTEX
5
941
100
AcDbEntity
8
1
100
AcDbVertex
100
AcDb2dVertex
62
5
10
123.000000
20
183.391824
0
VERTEX
5
942
100
AcDbEntity
8
1
100
AcDbVertex
100
AcDb2dVertex
62
5
10
123.000000
20
192.391824
0
VERTEX
5
943
100
AcDbEntity
8
1
100
AcDbVertex
100
AcDb2dVertex
62
5
10
124.000000
20
186.391824
0
VERTEX
5
944
100
AcDbEntity
8
1
100
AcDbVertex
100
AcDb2dVertex
62
5
10
122.000000
20
186.391824
0
VERTEX
5
945
100
AcDbEntity
8
1
100
AcDbVertex
100
AcDb2dVertex
62
5
10
123.000000
20
192.391824
0
VERTEX
5
946
100
AcDbEntity
8
1
100
AcDbVertex
100
AcDb2dVertex
62
5
10
123.500000
20
186.391824
0
VERTEX
5
947
100
AcDbEntity
8
1
100
AcDbVertex
100
AcDb2dVertex
62
5
10
122.500000
20
186.391824
0
VERTEX
5
948
100
AcDbEntity
8
1
100
AcDbVertex
100
AcDb2dVertex
62
5
10
123.000000
20
192.391824
0
SEQEND
5
949
100
AcDbEntity
8
1
0
LINE
5
94a
100
AcDbEntity
8
1
100
AcDbLine
6
CONTINUOUS
62
5
10
156.000000
20
215.891824
11
156.000000
21
242.091824
0
LINE
5
94b
100
AcDbEntity
8
1
100
AcDbLine
6
CONTINUOUS
62
5
10
184.000000
20
215.891824
11
184.000000
21
242.091824
0
POLYLINE
5
94c
100
AcDbEntity
8
1
6
CONTINUOUS
62
5
100
AcDb2dPolyline
66
1
10
0.0
20
0.0
30
0.0
70
0
0
VERTEX
5
94d
100
AcDbEntity
8
1
100
AcDbVertex
100
AcDb2dVertex
62
5
10
170.000000
20
240.091824
0
VERTEX
5
94e
100
AcDbEntity
8
1
100
AcDbVertex
100
AcDb2dVertex
62
5
10
156.000000
20
240.091824
0
VERTEX
5
94f
100
AcDbEntity
8
1
100
AcDbVertex
100
AcDb2dVertex
62
5
10
162.000000
20
241.091824
0
VERTEX
5
950
100
AcDbEntity
8
1
100
AcDbVertex
100
AcDb2dVertex
62
5
10
162.000000
20
239.091824
0
VERTEX
5
951
100
AcDbEntity
8
1
100
AcDbVertex
100
AcDb2dVertex
62
5
10
156.000000
20
240.091824
0
VERTEX
5
952
100
AcDbEntity
8
1
100
AcDbVertex
100
AcDb2dVertex
62
5
10
162.000000
20
240.591824
0
VERTEX
5
953
100
AcDbEntity
8
1
100
AcDbVertex
100
AcDb2dVertex
62
5
10
162.000000
20
239.591824
0
VERTEX
5
954
100
AcDbEntity
8
1
100
AcDbVertex
100
AcDb2dVertex
62
5
10
156.000000
20
240.091824
0
SEQEND
5
955
100
AcDbEntity
8
1
0
POLYLINE
5
956
100
AcDbEntity
8
1
6
CONTINUOUS
62
5
100
AcDb2dPolyline
66
1
10
0.0
20
0.0
30
0.0
70
0
0
VERTEX
5
957
100
AcDbEntity
8
1
100
AcDbVertex
100
AcDb2dVertex
62
5
10
170.000000
20
240.091824
0
VERTEX
5
958
100
AcDbEntity
8
1
100
AcDbVertex
100
AcDb2dVertex
62
5
10
184.000000
20
240.091824
0
VERTEX
5
959
100
AcDbEntity
8
1
100
AcDbVertex
100
AcDb2dVertex
62
5
10
178.000000
20
239.091824
0
VERTEX
5
95a
100
AcDbEntity
8
1
100
AcDbVertex
100
AcDb2dVertex
62
5
10
178.000000
20
241.091824
0
VERTEX
5
95b
100
AcDbEntity
8
1
100
AcDbVertex
100
AcDb2dVertex
62
5
10
184.000000
20
240.091824
0
VERTEX
5
95c
100
AcDbEntity
8
1
100
AcDbVertex
100
AcDb2dVertex
62
5
10
178.000000
20
239.591824
0
VERTEX
5
95d
100
AcDbEntity
8
1
100
AcDbVertex
100
AcDb2dVertex
62
5
10
178.000000
20
240.591824
0
VERTEX
5
95e
100
AcDbEntity
8
1
100
AcDbVertex
100
AcDb2dVertex
62
5
10
184.000000
20
240.091824
0
SEQEND
5
95f
100
AcDbEntity
8
1
0
LINE
5
960
100
AcDbEntity
8
1
100
AcDbLine
6
CONTINUOUS
62
5
10
166.250000
20
335.250000
11
169.250000
21
335.250000
0
LINE
5
961
100
AcDbEntity
8
1
100
AcDbLine
6
CONTINUOUS
62
5
10
165.750000
20
332.437500
11
169.750000
21
332.437500
0
LINE
5
962
100
AcDbEntity
8
1
100
AcDbLine
6
CONTINUOUS
62
5
10
167.750000
20
335.250000
11
167.750000
21
332.437500
0
POLYLINE
5
963
100
AcDbEntity
8
0
6
CONTINUOUS
62
5
100
AcDb2dPolyline
66
1
10
0.0
20
0.0
30
0.0
70
1
0
VERTEX
5
964
100
AcDbEntity
8
0
100
AcDbVertex
100
AcDb2dVertex
62
5
10
169.927003
20
197.465914
0
VERTEX
5
965
100
AcDbEntity
8
0
100
AcDbVertex
100
AcDb2dVertex
62
5
10
170.662047
20
199.012925
0
VERTEX
5
966
100
AcDbEntity
8
0
100
AcDbVertex
100
AcDb2dVertex
62
5
10
170.690537
20
199.055660
0
VERTEX
5
967
100
AcDbEntity
8
0
100
AcDbVertex
100
AcDb2dVertex
62
5
10
170.730423
20
199.081301
0
VERTEX
5
968
100
AcDbEntity
8
0
100
AcDbVertex
100
AcDb2dVertex
62
5
10
170.781705
20
199.089848
0
VERTEX
5
969
100
AcDbEntity
8
0
100
AcDbVertex
100
AcDb2dVertex
62
5
10
170.832987
20
199.081301
0
VERTEX
5
96a
100
AcDbEntity
8
0
100
AcDbVertex
100
AcDb2dVertex
62
5
10
170.872873
20
199.055660
0
VERTEX
5
96b
100
AcDbEntity
8
0
100
AcDbVertex
100
AcDb2dVertex
62
5
10
170.901363
20
199.012925
0
VERTEX
5
96c
100
AcDbEntity
8
0
100
AcDbVertex
100
AcDb2dVertex
62
5
10
171.636407
20
197.465914
0
VERTEX
5
96d
100
AcDbEntity
8
0
100
AcDbVertex
100
AcDb2dVertex
62
5
10
171.647803
20
197.412372
0
VERTEX
5
96e
100
AcDbEntity
8
0
100
AcDbVertex
100
AcDb2dVertex
62
5
10
171.636407
20
197.370719
0
VERTEX
5
96f
100
AcDbEntity
8
0
100
AcDbVertex
100
AcDb2dVertex
62
5
10
171.602219
20
197.340957
0
VERTEX
5
970
100
AcDbEntity
8
0
100
AcDbVertex
100
AcDb2dVertex
62
5
10
171.554736
20
197.335848
0
VERTEX
5
971
100
AcDbEntity
8
0
100
AcDbVertex
100
AcDb2dVertex
62
5
10
171.514850
20
197.354708
0
VERTEX
5
972
100
AcDbEntity
8
0
100
AcDbVertex
100
AcDb2dVertex
62
5
10
171.482561
20
197.397538
0
VERTEX
5
973
100
AcDbEntity
8
0
100
AcDbVertex
100
AcDb2dVertex
62
5
10
171.285979
20
197.811043
0
VERTEX
5
974
100
AcDbEntity
8
0
100
AcDbVertex
100
AcDb2dVertex
62
5
10
170.277431
20
197.811043
0
VERTEX
5
975
100
AcDbEntity
8
0
100
AcDbVertex
100
AcDb2dVertex
62
5
10
170.080849
20
197.397538
0
VERTEX
5
976
100
AcDbEntity
8
0
100
AcDbVertex
100
AcDb2dVertex
62
5
10
170.048561
20
197.354708
0
VERTEX
5
977
100
AcDbEntity
8
0
100
AcDbVertex
100
AcDb2dVertex
62
5
10
170.008674
20
197.335848
0
VERTEX
5
978
100
AcDbEntity
8
0
100
AcDbVertex
100
AcDb2dVertex
62
5
10
169.961191
20
197.340957
0
VERTEX
5
979
100
AcDbEntity
8
0
100
AcDbVertex
100
AcDb2dVertex
62
5
10
169.927003
20
197.370719
0
VERTEX
5
97a
100
AcDbEntity
8
0
100
AcDbVertex
100
AcDb2dVertex
62
5
10
169.915607
20
197.412372
0
SEQEND
5
97b
100
AcDbEntity
8
0
0
POLYLINE
5
97c
100
AcDbEntity
8
0
6
CONTINUOUS
62
5
100
AcDb2dPolyline
66
1
10
0.0
20
0.0
30
0.0
70
1
0
VERTEX
5
97d
100
AcDbEntity
8
0
100
AcDbVertex
100
AcDb2dVertex
62
5
10
170.337260
20
197.953095
0
VERTEX
5
97e
100
AcDbEntity
8
0
100
AcDbVertex
100
AcDb2dVertex
62
5
10
171.226150
20
197.953095
0
VERTEX
5
97f
100
AcDbEntity
8
0
100
AcDbVertex
100
AcDb2dVertex
62
5
10
170.781705
20
198.901814
0
SEQEND
5
980
100
AcDbEntity
8
0
0
ARC
5
981
100
AcDbEntity
8
1
100
AcDbCircle
6
CONTINUOUS
62
5
10
180.560408
20
210.541824
40
0.200000
100
AcDbArc
50
0.000000
51
89.999999
0
LINE
5
982
100
AcDbEntity
8
1
100
AcDbLine
6
CONTINUOUS
62
5
10
180.760408
20
210.541824
11
180.760408
21
196.941824
0
ARC
5
983
100
AcDbEntity
8
1
100
AcDbCircle
6
CONTINUOUS
62
5
10
180.560408
20
196.941824
40
0.200000
100
AcDbArc
50
-89.999999
51
0.000000
0
LINE
5
984
100
AcDbEntity
8
1
100
AcDbLine
6
CONTINUOUS
62
5
10
180.560408
20
196.741824
11
161.502948
21
196.741824
0
ARC
5
985
100
AcDbEntity
8
1
100
AcDbCircle
6
CONTINUOUS
62
5
10
161.502948
20
196.941824
40
0.200000
100
AcDbArc
50
179.999998
51
-89.999999
0
LINE
5
986
100
AcDbEntity
8
1
100
AcDbLine
6
CONTINUOUS
62
5
10
161.302948
20
196.941824
11
161.302948
21
210.541824
0
ARC
5
987
100
AcDbEntity
8
1
100
AcDbCircle
6
CONTINUOUS
62
5
10
161.502948
20
210.541824
40
0.200000
100
AcDbArc
50
89.999999
51
179.999998
0
LINE
5
988
100
AcDbEntity
8
1
100
AcDbLine
6
CONTINUOUS
62
5
10
161.502948
20
210.741824
11
180.560408
21
210.741824
0
ARC
5
989
100
AcDbEntity
8
1
100
AcDbCircle
6
CONTINUOUS
62
5
10
156.700000
20
214.391824
40
0.700000
100
AcDbArc
50
89.999999
51
179.999998
0
LINE
5
98a
100
AcDbEntity
8
1
100
AcDbLine
6
CONTINUOUS
62
5
10
156.700000
20
215.091824
11
183.300000
21
215.091824
0
ARC
5
98b
100
AcDbEntity
8
1
100
AcDbCircle
6
CONTINUOUS
62
5
10
183.300000
20
214.391824
40
0.700000
100
AcDbArc
50
0.000000
51
89.999999
0
LINE
5
98c
100
AcDbEntity
8
1
100
AcDbLine
6
CONTINUOUS
62
5
10
184.000000
20
214.391824
11
184.000000
21
193.091824
0
ARC
5
98d
100
AcDbEntity
8
1
100
AcDbCircle
6
CONTINUOUS
62
5
10
183.300000
20
193.091824
40
0.700000
100
AcDbArc
50
-89.999999
51
0.000000
0
LINE
5
98e
100
AcDbEntity
8
1
100
AcDbLine
6
CONTINUOUS
62
5
10
183.300000
20
192.391824
11
156.700000
21
192.391824
0
ARC
5
98f
100
AcDbEntity
8
1
100
AcDbCircle
6
CONTINUOUS
62
5
10
156.700000
20
193.091824
40
0.700000
100
AcDbArc
50
179.999998
51
-89.999999
0
LINE
5
990
100
AcDbEntity
8
1
100
AcDbLine
6
CONTINUOUS
62
5
10
156.000000
20
193.091824
11
156.000000
21
214.391824
0
POLYLINE
5
991
100
AcDbEntity
8
1
6
CONTINUOUS
62
5
100
AcDb2dPolyline
66
1
10
0.0
20
0.0
30
0.0
70
1
0
VERTEX
5
992
100
AcDbEntity
8
1
100
AcDbVertex
100
AcDb2dVertex
62
5
10
158.370000
20
211.741824
0
VERTEX
5
993
100
AcDbEntity
8
1
100
AcDbVertex
100
AcDb2dVertex
62
5
10
181.630000
20
211.741824
0
VERTEX
5
994
100
AcDbEntity
8
1
100
AcDbVertex
100
AcDb2dVertex
62
5
10
181.630000
20
195.741824
0
VERTEX
5
995
100
AcDbEntity
8
1
100
AcDbVertex
100
AcDb2dVertex
62
5
10
158.370000
20
195.741824
0
VERTEX
5
996
100
AcDbEntity
8
1
100
AcDbVertex
100
AcDb2dVertex
62
5
10
158.370000
20
211.741824
0
SEQEND
5
997
100
AcDbEntity
8
1
0
ARC
5
998
100
AcDbEntity
8
1
100
AcDbCircle
6
CONTINUOUS
62
5
10
180.804884
20
196.341824
40
0.500000
100
AcDbArc
50
-89.999999
51
0.000000
0
LINE
5
999
100
AcDbEntity
8
1
100
AcDbLine
6
CONTINUOUS
62
5
10
180.804884
20
195.841824
11
158.370000
21
195.841824
0
LINE
5
99a
100
AcDbEntity
8
1
100
AcDbLine
6
CONTINUOUS
62
5
10
158.370000
20
211.641824
11
180.804884
21
211.641824
0
ARC
5
99b
100
AcDbEntity
8
1
100
AcDbCircle
6
CONTINUOUS
62
5
10
180.804884
20
211.141824
40
0.500000
100
AcDbArc
50
0.000000
51
89.999999
0
LINE
5
99c
100
AcDbEntity
8
1
100
AcDbLine
6
CONTINUOUS
62
5
10
181.304884
20
211.141824
11
181.304884
21
196.341824
0
POLYLINE
5
99d
100
AcDbEntity
8
1
6
CONTINUOUS
62
5
100
AcDb2dPolyline
66
1
10
0.0
20
0.0
30
0.0
70
1
0
VERTEX
5
99e
100
AcDbEntity
8
1
100
AcDbVertex
100
AcDb2dVertex
62
5
10
158.370000
20
211.741824
0
VERTEX
5
99f
100
AcDbEntity
8
1
100
AcDbVertex
100
AcDb2dVertex
62
5
10
181.630000
20
211.741824
0
VERTEX
5
9a0
100
AcDbEntity
8
1
100
AcDbVertex
100
AcDb2dVertex
62
5
10
181.630000
20
195.741824
0
VERTEX
5
9a1
100
AcDbEntity
8
1
100
AcDbVertex
100
AcDb2dVertex
62
5
10
158.370000
20
195.741824
0
VERTEX
5
9a2
100
AcDbEntity
8
1
100
AcDbVertex
100
AcDb2dVertex
62
5
10
158.370000
20
211.741824
0
SEQEND
5
9a3
100
AcDbEntity
8
1
0
LINE
5
9a4
100
AcDbEntity
8
1
100
AcDbLine
6
CONTINUOUS
62
5
10
10.000000
20
318.000000
11
330.000000
21
318.000000
0
LINE
5
9a5
100
AcDbEntity
8
1
100
AcDbLine
6
CONTINUOUS
62
5
10
189.804645
20
126.108176
11
189.804645
21
125.308176
0
ARC
5
9a6
100
AcDbEntity
8
1
100
AcDbCircle
6
CONTINUOUS
62
5
10
186.281427
20
126.408176
40
1.100000
100
AcDbArc
50
-176.401066
51
-164.173378
0
POLYLINE
5
9a7
100
AcDbEntity
8
1
6
CONTINUOUS
62
5
100
AcDb2dPolyline
66
1
10
0.0
20
0.0
30
0.0
70
0
0
VERTEX
5
9a8
100
AcDbEntity
8
1
100
AcDbVertex
100
AcDb2dVertex
62
5
10
186.000000
20
126.108176
0
VERTEX
5
9a9
100
AcDbEntity
8
1
100
AcDbVertex
100
AcDb2dVertex
62
5
10
185.800000
20
129.308176
0
VERTEX
5
9aa
100
AcDbEntity
8
1
100
AcDbVertex
100
AcDb2dVertex
62
5
10
185.000000
20
129.258176
0
VERTEX
5
9ab
100
AcDbEntity
8
1
100
AcDbVertex
100
AcDb2dVertex
62
5
10
185.183596
20
126.339127
0
SEQEND
5
9ac
100
AcDbEntity
8
1
0
ARC
5
9ad
100
AcDbEntity
8
1
100
AcDbCircle
6
CONTINUOUS
62
5
10
184.500000
20
128.808176
40
0.500000
100
AcDbArc
50
0.000000
51
89.999999
0
LINE
5
9ae
100
AcDbEntity
8
1
100
AcDbLine
6
CONTINUOUS
62
5
10
185.000000
20
128.808176
11
185.000000
21
126.108176
0
LINE
5
9af
100
AcDbEntity
8
1
100
AcDbLine
6
CONTINUOUS
62
5
10
184.000000
20
129.308176
11
184.500000
21
129.308176
0
ARC
5
9b0
100
AcDbEntity
8
1
100
AcDbCircle
6
CONTINUOUS
62
5
10
186.281427
20
126.408176
40
1.100000
100
AcDbArc
50
-176.401066
51
-164.173378
0
POLYLINE
5
9b1
100
AcDbEntity
8
1
6
CONTINUOUS
62
5
100
AcDb2dPolyline
66
1
10
0.0
20
0.0
30
0.0
70
0
0
VERTEX
5
9b2
100
AcDbEntity
8
1
100
AcDbVertex
100
AcDb2dVertex
62
5
10
186.000000
20
126.108176
0
VERTEX
5
9b3
100
AcDbEntity
8
1
100
AcDbVertex
100
AcDb2dVertex
62
5
10
185.800000
20
129.308176
0
VERTEX
5
9b4
100
AcDbEntity
8
1
100
AcDbVertex
100
AcDb2dVertex
62
5
10
185.000000
20
129.258176
0
VERTEX
5
9b5
100
AcDbEntity
8
1
100
AcDbVertex
100
AcDb2dVertex
62
5
10
185.183596
20
126.339127
0
SEQEND
5
9b6
100
AcDbEntity
8
1
0
LINE
5
9b7
100
AcDbEntity
8
1
100
AcDbLine
6
CONTINUOUS
62
5
10
185.800000
20
129.308176
11
186.000000
21
126.108176
0
ARC
5
9b8
100
AcDbEntity
8
1
100
AcDbCircle
6
CONTINUOUS
62
5
10
188.884139
20
124.808176
40
0.500000
100
AcDbArc
50
89.999999
51
165.068581
0
LINE
5
9b9
100
AcDbEntity
8
1
100
AcDbLine
6
CONTINUOUS
62
5
10
188.401022
20
124.937007
11
187.733765
21
122.434795
0
ARC
5
9ba
100
AcDbEntity
8
1
100
AcDbCircle
6
CONTINUOUS
62
5
10
188.700000
20
122.177132
40
1.000000
100
AcDbArc
50
165.068581
51
-179.999998
0
LINE
5
9bb
100
AcDbEntity
8
1
100
AcDbLine
6
CONTINUOUS
62
5
10
187.700000
20
122.177132
11
187.700000
21
121.308176
0
LINE
5
9bc
100
AcDbEntity
8
1
100
AcDbLine
6
CONTINUOUS
62
5
10
187.227273
20
118.808176
11
187.700000
21
118.808176
0
LINE
5
9bd
100
AcDbEntity
8
1
100
AcDbLine
6
CONTINUOUS
62
5
10
184.000000
20
118.808176
11
184.272727
21
118.808176
0
ARC
5
9be
100
AcDbEntity
8
1
100
AcDbCircle
6
CONTINUOUS
62
5
10
183.300000
20
118.008176
40
0.700000
100
AcDbArc
50
-89.999999
51
-0.000000
0
LINE
5
9bf
100
AcDbEntity
8
1
100
AcDbLine
6
CONTINUOUS
62
5
10
183.300000
20
117.308176
11
180.700000
21
117.308176
0
ARC
5
9c0
100
AcDbEntity
8
1
100
AcDbCircle
6
CONTINUOUS
62
5
10
180.700000
20
118.008176
40
0.700000
100
AcDbArc
50
-179.999998
51
-89.999999
0
LINE
5
9c1
100
AcDbEntity
8
1
100
AcDbLine
6
CONTINUOUS
62
5
10
180.000000
20
118.008176
11
180.000000
21
121.308176
0
LINE
5
9c2
100
AcDbEntity
8
1
100
AcDbLine
6
CONTINUOUS
62
5
10
184.000000
20
120.808176
11
184.000000
21
118.008176
0
ARC
5
9c3
100
AcDbEntity
8
1
100
AcDbCircle
6
CONTINUOUS
62
5
10
188.693033
20
118.752576
40
1.500000
100
AcDbArc
50
-174.475768
51
-119.803520
0
LINE
5
9c4
100
AcDbEntity
8
1
100
AcDbLine
6
CONTINUOUS
62
5
10
187.947492
20
117.450974
11
188.899068
21
116.901571
0
ARC
5
9c5
100
AcDbEntity
8
1
100
AcDbCircle
6
CONTINUOUS
62
5
10
188.684472
20
116.559400
40
0.403897
100
AcDbArc
50
-131.076096
51
57.905751
0
LINE
5
9c6
100
AcDbEntity
8
1
100
AcDbLine
6
CONTINUOUS
62
5
10
188.419088
20
116.254927
11
187.545412
21
116.759346
0
ARC
5
9c7
100
AcDbEntity
8
1
100
AcDbCircle
6
CONTINUOUS
62
5
10
188.693033
20
118.752576
40
2.300000
100
AcDbArc
50
-150.303328
51
-119.931595
0
LINE
5
9c8
100
AcDbEntity
8
1
100
AcDbLine
6
CONTINUOUS
62
5
10
186.695115
20
117.613137
11
186.314870
21
118.279769
0
ARC
5
9c9
100
AcDbEntity
8
1
100
AcDbCircle
6
CONTINUOUS
62
5
10
185.750000
20
117.958176
40
0.650000
100
AcDbArc
50
29.653891
51
154.251609
0
LINE
5
9ca
100
AcDbEntity
8
1
100
AcDbLine
6
CONTINUOUS
62
5
10
185.164538
20
118.240549
11
184.871837
21
117.633673
0
ARC
5
9cb
100
AcDbEntity
8
1
100
AcDbCircle
6
CONTINUOUS
62
5
10
182.800203
20
118.632838
40
2.300000
100
AcDbArc
50
-60.081017
51
-25.748378
0
LINE
5
9cc
100
AcDbEntity
8
1
100
AcDbLine
6
CONTINUOUS
62
5
10
183.947385
20
116.639355
11
183.158853
21
116.184094
0
ARC
5
9cd
100
AcDbEntity
8
1
100
AcDbCircle
6
CONTINUOUS
62
5
10
182.880858
20
116.480170
40
0.406132
100
AcDbArc
50
124.989862
51
-46.803946
0
LINE
5
9ce
100
AcDbEntity
8
1
100
AcDbLine
6
CONTINUOUS
62
5
10
182.647969
20
116.812895
11
183.552618
21
117.335197
0
ARC
5
9cf
100
AcDbEntity
8
1
100
AcDbCircle
6
CONTINUOUS
62
5
10
182.799684
20
118.633143
40
1.500524
100
AcDbArc
50
-59.882135
51
-0.953364
0
POLYLINE
5
9d0
100
AcDbEntity
8
1
6
CONTINUOUS
62
5
100
AcDb2dPolyline
66
1
10
0.0
20
0.0
30
0.0
70
0
0
VERTEX
5
9d1
100
AcDbEntity
8
1
100
AcDbVertex
100
AcDb2dVertex
62
5
10
184.300000
20
118.608176
0
VERTEX
5
9d2
100
AcDbEntity
8
1
100
AcDbVertex
100
AcDb2dVertex
62
5
10
184.000000
20
120.808176
0
VERTEX
5
9d3
100
AcDbEntity
8
1
100
AcDbVertex
100
AcDb2dVertex
62
5
10
184.000000
20
124.508176
0
SEQEND
5
9d4
100
AcDbEntity
8
1
0
ARC
5
9d5
100
AcDbEntity
8
1
100
AcDbCircle
6
CONTINUOUS
62
5
10
183.600000
20
125.200996
40
0.800000
100
AcDbArc
50
-59.999999
51
-0.000000
0
LINE
5
9d6
100
AcDbEntity
8
1
100
AcDbLine
6
CONTINUOUS
62
5
10
184.400000
20
125.200996
11
184.400000
21
126.108176
0
POLYLINE
5
9d7
100
AcDbEntity
8
1
6
CONTINUOUS
62
5
100
AcDb2dPolyline
66
1
10
0.0
20
0.0
30
0.0
70
0
0
VERTEX
5
9d8
100
AcDbEntity
8
1
100
AcDbVertex
100
AcDb2dVertex
62
5
10
187.500000
20
126.108176
0
VERTEX
5
9d9
100
AcDbEntity
8
1
100
AcDbVertex
100
AcDb2dVertex
62
5
10
187.500000
20
120.808176
0
VERTEX
5
9da
100
AcDbEntity
8
1
100
AcDbVertex
100
AcDb2dVertex
62
5
10
187.200000
20
118.608176
0
SEQEND
5
9db
100
AcDbEntity
8
1
0
ARC
5
9dc
100
AcDbEntity
8
1
100
AcDbCircle
6
CONTINUOUS
62
5
10
190.500000
20
124.808176
40
0.500000
100
AcDbArc
50
0.000000
51
89.999999
0
LINE
5
9dd
100
AcDbEntity
8
1
100
AcDbLine
6
CONTINUOUS
62
5
10
191.000000
20
121.308176
11
191.000000
21
124.808176
0
LINE
5
9de
100
AcDbEntity
8
1
100
AcDbLine
6
CONTINUOUS
62
5
10
184.000000
20
125.308176
11
184.400052
21
125.308176
0
POLYLINE
5
9df
100
AcDbEntity
8
1
6
CONTINUOUS
62
5
100
AcDb2dPolyline
66
1
10
0.0
20
0.0
30
0.0
70
0
0
VERTEX
5
9e0
100
AcDbEntity
8
1
100
AcDbVertex
100
AcDb2dVertex
62
5
10
187.500000
20
125.308176
0
VERTEX
5
9e1
100
AcDbEntity
8
1
100
AcDbVertex
100
AcDb2dVertex
62
5
10
192.000000
20
125.308176
0
VERTEX
5
9e2
100
AcDbEntity
8
1
100
AcDbVertex
100
AcDb2dVertex
62
5
10
192.000000
20
126.108176
0
VERTEX
5
9e3
100
AcDbEntity
8
1
100
AcDbVertex
100
AcDb2dVertex
62
5
10
184.000000
20
126.108176
0
SEQEND
5
9e4
100
AcDbEntity
8
1
0
ARC
5
9e5
100
AcDbEntity
8
1
100
AcDbCircle
6
CONTINUOUS
62
5
10
190.739517
20
118.008176
40
0.700000
100
AcDbArc
50
-89.999999
51
-1.047977
0
LINE
5
9e6
100
AcDbEntity
8
1
100
AcDbLine
6
CONTINUOUS
62
5
10
190.739517
20
117.308176
11
188.400000
21
117.308176
0
ARC
5
9e7
100
AcDbEntity
8
1
100
AcDbCircle
6
CONTINUOUS
62
5
10
188.400000
20
118.008176
40
0.700000
100
AcDbArc
50
179.999998
51
-89.999999
0
LINE
5
9e8
100
AcDbEntity
8
1
100
AcDbLine
6
CONTINUOUS
62
5
10
187.700000
20
118.008176
11
187.700000
21
121.308176
0
ARC
5
9e9
100
AcDbEntity
8
1
100
AcDbCircle
6
CONTINUOUS
62
5
10
179.750000
20
105.908176
40
1.000000
100
AcDbArc
50
-174.260828
51
-89.999999
0
LINE
5
9ea
100
AcDbEntity
8
1
100
AcDbLine
6
CONTINUOUS
62
5
10
179.750000
20
104.908176
11
190.218125
21
104.908176
0
ARC
5
9eb
100
AcDbEntity
8
1
100
AcDbCircle
6
CONTINUOUS
62
5
10
190.217991
20
105.908477
40
1.000302
100
AcDbArc
50
-89.992313
51
-0.017270
0
POLYLINE
5
9ec
100
AcDbEntity
8
1
6
CONTINUOUS
62
5
100
AcDb2dPolyline
66
1
10
0.0
20
0.0
30
0.0
70
0
0
VERTEX
5
9ed
100
AcDbEntity
8
1
100
AcDbVertex
100
AcDb2dVertex
62
5
10
191.218293
20
105.908176
0
VERTEX
5
9ee
100
AcDbEntity
8
1
100
AcDbVertex
100
AcDb2dVertex
62
5
10
191.500000
20
121.308176
0
VERTEX
5
9ef
100
AcDbEntity
8
1
100
AcDbVertex
100
AcDb2dVertex
62
5
10
187.500000
20
121.308176
0
SEQEND
5
9f0
100
AcDbEntity
8
1
0
ARC
5
9f1
100
AcDbEntity
8
1
100
AcDbCircle
6
CONTINUOUS
62
5
10
176.545512
20
135.004362
40
0.100000
100
AcDbArc
50
80.999999
51
153.889118
0
LINE
5
9f2
100
AcDbEntity
8
1
100
AcDbLine
6
CONTINUOUS
62
5
10
176.561156
20
135.103131
11
179.388571
21
134.655312
0
ARC
5
9f3
100
AcDbEntity
8
1
100
AcDbCircle
6
CONTINUOUS
62
5
10
179.372928
20
134.556543
40
0.100000
100
AcDbArc
50
16.173799
51
80.999999
0
LINE
5
9f4
100
AcDbEntity
8
1
100
AcDbLine
6
CONTINUOUS
62
5
10
179.468970
20
134.584398
11
179.516769
21
134.419592
0
LINE
5
9f5
100
AcDbEntity
8
1
100
AcDbLine
6
CONTINUOUS
62
5
10
176.338634
20
134.809490
11
176.455718
21
135.048373
0
POLYLINE
5
9f6
100
AcDbEntity
8
1
6
DOT2
62
5
100
AcDb2dPolyline
66
1
10
0.0
20
0.0
30
0.0
70
0
0
VERTEX
5
9f7
100
AcDbEntity
8
1
100
AcDbVertex
100
AcDb2dVertex
62
5
10
115.187500
20
145.258176
0
VERTEX
5
9f8
100
AcDbEntity
8
1
100
AcDbVertex
100
AcDb2dVertex
62
5
10
114.250000
20
145.258176
0
VERTEX
5
9f9
100
AcDbEntity
8
1
100
AcDbVertex
100
AcDb2dVertex
62
5
10
114.250000
20
148.383176
0
VERTEX
5
9fa
100
AcDbEntity
8
1
100
AcDbVertex
100
AcDb2dVertex
62
5
10
114.875000
20
148.383176
0
VERTEX
5
9fb
100
AcDbEntity
8
1
100
AcDbVertex
100
AcDb2dVertex
62
5
10
116.437500
20
147.758176
0
VERTEX
5
9fc
100
AcDbEntity
8
1
100
AcDbVertex
100
AcDb2dVertex
62
5
10
118.625000
20
147.133176
0
VERTEX
5
9fd
100
AcDbEntity
8
1
100
AcDbVertex
100
AcDb2dVertex
62
5
10
121.750000
20
146.508176
0
SEQEND
5
9fe
100
AcDbEntity
8
1
0
LINE
5
9ff
100
AcDbEntity
8
1
100
AcDbLine
6
DOT2
62
5
10
121.125000
20
150.883176
11
121.750000
21
150.258176
0
POLYLINE
5
a00
100
AcDbEntity
8
1
6
DOT2
62
5
100
AcDb2dPolyline
66
1
10
0.0
20
0.0
30
0.0
70
0
0
VERTEX
5
a01
100
AcDbEntity
8
1
100
AcDbVertex
100
AcDb2dVertex
62
5
10
121.125000
20
150.258176
0
VERTEX
5
a02
100
AcDbEntity
8
1
100
AcDbVertex
100
AcDb2dVertex
62
5
10
121.750000
20
150.883176
0
VERTEX
5
a03
100
AcDbEntity
8
1
100
AcDbVertex
100
AcDb2dVertex
62
5
10
121.750000
20
150.258176
0
VERTEX
5
a04
100
AcDbEntity
8
1
100
AcDbVertex
100
AcDb2dVertex
62
5
10
121.125000
20
150.258176
0
VERTEX
5
a05
100
AcDbEntity
8
1
100
AcDbVertex
100
AcDb2dVertex
62
5
10
121.125000
20
150.883176
0
VERTEX
5
a06
100
AcDbEntity
8
1
100
AcDbVertex
100
AcDb2dVertex
62
5
10
121.750000
20
150.883176
0
SEQEND
5
a07
100
AcDbEntity
8
1
0
POLYLINE
5
a08
100
AcDbEntity
8
1
6
DOT2
62
5
100
AcDb2dPolyline
66
1
10
0.0
20
0.0
30
0.0
70
0
0
VERTEX
5
a09
100
AcDbEntity
8
1
100
AcDbVertex
100
AcDb2dVertex
62
5
10
118.312500
20
158.383176
0
VERTEX
5
a0a
100
AcDbEntity
8
1
100
AcDbVertex
100
AcDb2dVertex
62
5
10
118.312500
20
158.383176
0
VERTEX
5
a0b
100
AcDbEntity
8
1
100
AcDbVertex
100
AcDb2dVertex
62
5
10
118.625000
20
157.133176
0
VERTEX
5
a0c
100
AcDbEntity
8
1
100
AcDbVertex
100
AcDb2dVertex
62
5
10
118.625000
20
156.195676
0
VERTEX
5
a0d
100
AcDbEntity
8
1
100
AcDbVertex
100
AcDb2dVertex
62
5
10
118.312500
20
155.570676
0
VERTEX
5
a0e
100
AcDbEntity
8
1
100
AcDbVertex
100
AcDb2dVertex
62
5
10
117.375000
20
155.258176
0
VERTEX
5
a0f
100
AcDbEntity
8
1
100
AcDbVertex
100
AcDb2dVertex
62
5
10
115.812500
20
155.258176
0
VERTEX
5
a10
100
AcDbEntity
8
1
100
AcDbVertex
100
AcDb2dVertex
62
5
10
114.875000
20
155.570676
0
VERTEX
5
a11
100
AcDbEntity
8
1
100
AcDbVertex
100
AcDb2dVertex
62
5
10
114.562500
20
155.883176
0
VERTEX
5
a12
100
AcDbEntity
8
1
100
AcDbVertex
100
AcDb2dVertex
62
5
10
114.250000
20
156.508176
0
VERTEX
5
a13
100
AcDbEntity
8
1
100
AcDbVertex
100
AcDb2dVertex
62
5
10
114.250000
20
157.133176
0
VERTEX
5
a14
100
AcDbEntity
8
1
100
AcDbVertex
100
AcDb2dVertex
62
5
10
114.562500
20
157.758176
0
VERTEX
5
a15
100
AcDbEntity
8
1
100
AcDbVertex
100
AcDb2dVertex
62
5
10
114.875000
20
158.070676
0
VERTEX
5
a16
100
AcDbEntity
8
1
100
AcDbVertex
100
AcDb2dVertex
62
5
10
115.812500
20
158.383176
0
VERTEX
5
a17
100
AcDbEntity
8
1
100
AcDbVertex
100
AcDb2dVertex
62
5
10
119.250000
20
158.383176
0
VERTEX
5
a18
100
AcDbEntity
8
1
100
AcDbVertex
100
AcDb2dVertex
62
5
10
120.812500
20
158.070676
0
VERTEX
5
a19
100
AcDbEntity
8
1
100
AcDbVertex
100
AcDb2dVertex
62
5
10
121.437500
20
157.445676
0
VERTEX
5
a1a
100
AcDbEntity
8
1
100
AcDbVertex
100
AcDb2dVertex
62
5
10
121.750000
20
156.508176
0
VERTEX
5
a1b
100
AcDbEntity
8
1
100
AcDbVertex
100
AcDb2dVertex
62
5
10
121.750000
20
155.883176
0
SEQEND
5
a1c
100
AcDbEntity
8
1
0
LINE
5
a1d
100
AcDbEntity
8
1
100
AcDbLine
6
CONTINUOUS
62
5
10
150.195355
20
126.108176
11
150.195355
21
125.308176
0
ARC
5
a1e
100
AcDbEntity
8
1
100
AcDbCircle
6
CONTINUOUS
62
5
10
155.500000
20
128.808176
40
0.500000
100
AcDbArc
50
89.999999
51
179.999998
0
LINE
5
a1f
100
AcDbEntity
8
1
100
AcDbLine
6
CONTINUOUS
62
5
10
155.000000
20
128.808176
11
155.000000
21
126.108176
0
LINE
5
a20
100
AcDbEntity
8
1
100
AcDbLine
6
CONTINUOUS
62
5
10
156.000000
20
129.308176
11
155.500000
21
129.308176
0
LINE
5
a21
100
AcDbEntity
8
1
100
AcDbLine
6
CONTINUOUS
62
5
10
154.200000
20
129.308176
11
154.000000
21
126.108176
0
ARC
5
a22
100
AcDbEntity
8
1
100
AcDbCircle
6
CONTINUOUS
62
5
10
153.718573
20
126.408176
40
1.100000
100
AcDbArc
50
-15.826620
51
-3.598932
0
POLYLINE
5
a23
100
AcDbEntity
8
1
6
CONTINUOUS
62
5
100
AcDb2dPolyline
66
1
10
0.0
20
0.0
30
0.0
70
0
0
VERTEX
5
a24
100
AcDbEntity
8
1
100
AcDbVertex
100
AcDb2dVertex
62
5
10
154.000000
20
126.108176
0
VERTEX
5
a25
100
AcDbEntity
8
1
100
AcDbVertex
100
AcDb2dVertex
62
5
10
154.200000
20
129.308176
0
VERTEX
5
a26
100
AcDbEntity
8
1
100
AcDbVertex
100
AcDb2dVertex
62
5
10
155.000000
20
129.258176
0
VERTEX
5
a27
100
AcDbEntity
8
1
100
AcDbVertex
100
AcDb2dVertex
62
5
10
154.816404
20
126.339127
0
SEQEND
5
a28
100
AcDbEntity
8
1
0
ARC
5
a29
100
AcDbEntity
8
1
100
AcDbCircle
6
CONTINUOUS
62
5
10
153.718573
20
126.408176
40
1.100000
100
AcDbArc
50
-15.826620
51
-3.598932
0
POLYLINE
5
a2a
100
AcDbEntity
8
1
6
CONTINUOUS
62
5
100
AcDb2dPolyline
66
1
10
0.0
20
0.0
30
0.0
70
0
0
VERTEX
5
a2b
100
AcDbEntity
8
1
100
AcDbVertex
100
AcDb2dVertex
62
5
10
154.000000
20
126.108176
0
VERTEX
5
a2c
100
AcDbEntity
8
1
100
AcDbVertex
100
AcDb2dVertex
62
5
10
154.200000
20
129.308176
0
VERTEX
5
a2d
100
AcDbEntity
8
1
100
AcDbVertex
100
AcDb2dVertex
62
5
10
155.000000
20
129.258176
0
VERTEX
5
a2e
100
AcDbEntity
8
1
100
AcDbVertex
100
AcDb2dVertex
62
5
10
154.816404
20
126.339127
0
SEQEND
5
a2f
100
AcDbEntity
8
1
0
ARC
5
a30
100
AcDbEntity
8
1
100
AcDbCircle
6
CONTINUOUS
62
5
10
151.300000
20
122.177132
40
1.000000
100
AcDbArc
50
-0.000000
51
14.931417
0
LINE
5
a31
100
AcDbEntity
8
1
100
AcDbLine
6
CONTINUOUS
62
5
10
152.266235
20
122.434795
11
151.598978
21
124.937007
0
ARC
5
a32
100
AcDbEntity
8
1
100
AcDbCircle
6
CONTINUOUS
62
5
10
151.115861
20
124.808176
40
0.500000
100
AcDbArc
50
14.931417
51
89.999999
0
LINE
5
a33
100
AcDbEntity
8
1
100
AcDbLine
6
CONTINUOUS
62
5
10
152.300000
20
121.308176
11
152.300000
21
122.177132
0
LINE
5
a34
100
AcDbEntity
8
1
100
AcDbLine
6
CONTINUOUS
62
5
10
156.000000
20
118.808176
11
155.727273
21
118.808176
0
LINE
5
a35
100
AcDbEntity
8
1
100
AcDbLine
6
CONTINUOUS
62
5
10
152.772727
20
118.808176
11
152.300000
21
118.808176
0
ARC
5
a36
100
AcDbEntity
8
1
100
AcDbCircle
6
CONTINUOUS
62
5
10
151.306967
20
118.752576
40
1.500000
100
AcDbArc
50
-60.196479
51
-5.524231
0
LINE
5
a37
100
AcDbEntity
8
1
100
AcDbLine
6
CONTINUOUS
62
5
10
152.052508
20
117.450974
11
151.100932
21
116.901571
0
ARC
5
a38
100
AcDbEntity
8
1
100
AcDbCircle
6
CONTINUOUS
62
5
10
151.315528
20
116.559400
40
0.403897
100
AcDbArc
50
122.094247
51
-48.923902
0
LINE
5
a39
100
AcDbEntity
8
1
100
AcDbLine
6
CONTINUOUS
62
5
10
151.580912
20
116.254927
11
152.454588
21
116.759346
0
ARC
5
a3a
100
AcDbEntity
8
1
100
AcDbCircle
6
CONTINUOUS
62
5
10
151.306967
20
118.752576
40
2.300000
100
AcDbArc
50
-60.068404
51
-29.696671
0
LINE
5
a3b
100
AcDbEntity
8
1
100
AcDbLine
6
CONTINUOUS
62
5
10
153.304885
20
117.613137
11
153.685130
21
118.279769
0
ARC
5
a3c
100
AcDbEntity
8
1
100
AcDbCircle
6
CONTINUOUS
62
5
10
154.250000
20
117.958176
40
0.650000
100
AcDbArc
50
25.748383
51
150.346114
0
LINE
5
a3d
100
AcDbEntity
8
1
100
AcDbLine
6
CONTINUOUS
62
5
10
154.835462
20
118.240549
11
155.128163
21
117.633673
0
ARC
5
a3e
100
AcDbEntity
8
1
100
AcDbCircle
6
CONTINUOUS
62
5
10
157.199797
20
118.632838
40
2.300000
100
AcDbArc
50
-154.251620
51
-119.918981
0
LINE
5
a3f
100
AcDbEntity
8
1
100
AcDbLine
6
CONTINUOUS
62
5
10
156.052615
20
116.639355
11
156.841147
21
116.184094
0
ARC
5
a40
100
AcDbEntity
8
1
100
AcDbCircle
6
CONTINUOUS
62
5
10
157.119142
20
116.480170
40
0.406132
100
AcDbArc
50
-133.196052
51
55.010136
0
LINE
5
a41
100
AcDbEntity
8
1
100
AcDbLine
6
CONTINUOUS
62
5
10
157.352031
20
116.812895
11
156.447382
21
117.335197
0
ARC
5
a42
100
AcDbEntity
8
1
100
AcDbCircle
6
CONTINUOUS
62
5
10
157.200316
20
118.633143
40
1.500524
100
AcDbArc
50
-179.046634
51
-120.117864
0
POLYLINE
5
a43
100
AcDbEntity
8
1
6
CONTINUOUS
62
5
100
AcDb2dPolyline
66
1
10
0.0
20
0.0
30
0.0
70
0
0
VERTEX
5
a44
100
AcDbEntity
8
1
100
AcDbVertex
100
AcDb2dVertex
62
5
10
155.700000
20
118.608176
0
VERTEX
5
a45
100
AcDbEntity
8
1
100
AcDbVertex
100
AcDb2dVertex
62
5
10
156.000000
20
120.808176
0
VERTEX
5
a46
100
AcDbEntity
8
1
100
AcDbVertex
100
AcDb2dVertex
62
5
10
156.000000
20
124.508176
0
SEQEND
5
a47
100
AcDbEntity
8
1
0
ARC
5
a48
100
AcDbEntity
8
1
100
AcDbCircle
6
CONTINUOUS
62
5
10
156.400000
20
125.200996
40
0.800000
100
AcDbArc
50
-179.999998
51
-119.999999
0
LINE
5
a49
100
AcDbEntity
8
1
100
AcDbLine
6
CONTINUOUS
62
5
10
155.600000
20
125.200996
11
155.599558
21
126.108176
0
POLYLINE
5
a4a
100
AcDbEntity
8
1
6
CONTINUOUS
62
5
100
AcDb2dPolyline
66
1
10
0.0
20
0.0
30
0.0
70
0
0
VERTEX
5
a4b
100
AcDbEntity
8
1
100
AcDbVertex
100
AcDb2dVertex
62
5
10
152.500000
20
126.108176
0
VERTEX
5
a4c
100
AcDbEntity
8
1
100
AcDbVertex
100
AcDb2dVertex
62
5
10
152.500000
20
120.808176
0
VERTEX
5
a4d
100
AcDbEntity
8
1
100
AcDbVertex
100
AcDb2dVertex
62
5
10
152.800000
20
118.608176
0
SEQEND
5
a4e
100
AcDbEntity
8
1
0
ARC
5
a4f
100
AcDbEntity
8
1
100
AcDbCircle
6
CONTINUOUS
62
5
10
159.300000
20
118.008176
40
0.700000
100
AcDbArc
50
-89.999999
51
-0.000000
0
LINE
5
a50
100
AcDbEntity
8
1
100
AcDbLine
6
CONTINUOUS
62
5
10
159.300000
20
117.308176
11
156.700000
21
117.308176
0
ARC
5
a51
100
AcDbEntity
8
1
100
AcDbCircle
6
CONTINUOUS
62
5
10
156.700000
20
118.008176
40
0.700000
100
AcDbArc
50
179.999998
51
-89.999999
0
LINE
5
a52
100
AcDbEntity
8
1
100
AcDbLine
6
CONTINUOUS
62
5
10
156.000000
20
118.008176
11
156.000000
21
121.308176
0
LINE
5
a53
100
AcDbEntity
8
1
100
AcDbLine
6
CONTINUOUS
62
5
10
160.000000
20
121.308176
11
160.000000
21
118.008176
0
LINE
5
a54
100
AcDbEntity
8
1
100
AcDbLine
6
CONTINUOUS
62
5
10
156.000000
20
125.308176
11
155.599948
21
125.308176
0
POLYLINE
5
a55
100
AcDbEntity
8
1
6
CONTINUOUS
62
5
100
AcDb2dPolyline
66
1
10
0.0
20
0.0
30
0.0
70
0
0
VERTEX
5
a56
100
AcDbEntity
8
1
100
AcDbVertex
100
AcDb2dVertex
62
5
10
152.500000
20
125.308176
0
VERTEX
5
a57
100
AcDbEntity
8
1
100
AcDbVertex
100
AcDb2dVertex
62
5
10
148.000000
20
125.308176
0
VERTEX
5
a58
100
AcDbEntity
8
1
100
AcDbVertex
100
AcDb2dVertex
62
5
10
148.000000
20
126.108176
0
VERTEX
5
a59
100
AcDbEntity
8
1
100
AcDbVertex
100
AcDb2dVertex
62
5
10
156.000000
20
126.108176
0
SEQEND
5
a5a
100
AcDbEntity
8
1
0
ARC
5
a5b
100
AcDbEntity
8
1
100
AcDbCircle
6
CONTINUOUS
62
5
10
149.500000
20
124.808176
40
0.500000
100
AcDbArc
50
89.999999
51
179.999998
0
LINE
5
a5c
100
AcDbEntity
8
1
100
AcDbLine
6
CONTINUOUS
62
5
10
149.000000
20
121.308176
11
149.000000
21
124.808176
0
ARC
5
a5d
100
AcDbEntity
8
1
100
AcDbCircle
6
CONTINUOUS
62
5
10
149.260483
20
118.008176
40
0.700000
100
AcDbArc
50
-178.952022
51
-89.999999
0
LINE
5
a5e
100
AcDbEntity
8
1
100
AcDbLine
6
CONTINUOUS
62
5
10
149.260483
20
117.308176
11
151.600000
21
117.308176
0
ARC
5
a5f
100
AcDbEntity
8
1
100
AcDbCircle
6
CONTINUOUS
62
5
10
151.600000
20
118.008176
40
0.700000
100
AcDbArc
50
-89.999999
51
-0.000000
0
LINE
5
a60
100
AcDbEntity
8
1
100
AcDbLine
6
CONTINUOUS
62
5
10
152.300000
20
118.008176
11
152.300000
21
121.308176
0
ARC
5
a61
100
AcDbEntity
8
1
100
AcDbCircle
6
CONTINUOUS
62
5
10
160.950000
20
108.208176
40
0.300000
100
AcDbArc
50
-89.999999
51
0.000000
0
POLYLINE
5
a62
100
AcDbEntity
8
1
6
CONTINUOUS
62
5
100
AcDb2dPolyline
66
1
10
0.0
20
0.0
30
0.0
70
0
0
VERTEX
5
a63
100
AcDbEntity
8
1
100
AcDbVertex
100
AcDb2dVertex
62
5
10
161.250000
20
108.208176
0
VERTEX
5
a64
100
AcDbEntity
8
1
100
AcDbVertex
100
AcDb2dVertex
62
5
10
161.250000
20
108.408176
0
VERTEX
5
a65
100
AcDbEntity
8
1
100
AcDbVertex
100
AcDb2dVertex
62
5
10
163.250000
20
108.408176
0
VERTEX
5
a66
100
AcDbEntity
8
1
100
AcDbVertex
100
AcDb2dVertex
62
5
10
163.250000
20
108.208176
0
SEQEND
5
a67
100
AcDbEntity
8
1
0
ARC
5
a68
100
AcDbEntity
8
1
100
AcDbCircle
6
CONTINUOUS
62
5
10
163.550000
20
108.208176
40
0.300000
100
AcDbArc
50
-179.999998
51
-89.999999
0
LINE
5
a69
100
AcDbEntity
8
1
100
AcDbLine
6
CONTINUOUS
62
5
10
157.000000
20
107.908176
11
165.000000
21
107.908176
0
ARC
5
a6a
100
AcDbEntity
8
1
100
AcDbCircle
6
CONTINUOUS
62
5
10
149.782032
20
105.908500
40
1.000324
100
AcDbArc
50
-179.981425
51
-90.008988
0
LINE
5
a6b
100
AcDbEntity
8
1
100
AcDbLine
6
CONTINUOUS
62
5
10
149.781875
20
104.908176
11
160.250000
21
104.908176
0
ARC
5
a6c
100
AcDbEntity
8
1
100
AcDbCircle
6
CONTINUOUS
62
5
10
160.250000
20
105.908176
40
1.000000
100
AcDbArc
50
-89.999999
51
0.000000
0
LINE
5
a6d
100
AcDbEntity
8
1
100
AcDbLine
6
CONTINUOUS
62
5
10
161.250000
20
105.908176
11
161.250000
21
107.908176
0
POLYLINE
5
a6e
100
AcDbEntity
8
1
6
CONTINUOUS
62
5
100
AcDb2dPolyline
66
1
10
0.0
20
0.0
30
0.0
70
0
0
VERTEX
5
a6f
100
AcDbEntity
8
1
100
AcDbVertex
100
AcDb2dVertex
62
5
10
152.500000
20
121.308176
0
VERTEX
5
a70
100
AcDbEntity
8
1
100
AcDbVertex
100
AcDb2dVertex
62
5
10
148.500000
20
121.308176
0
VERTEX
5
a71
100
AcDbEntity
8
1
100
AcDbVertex
100
AcDb2dVertex
62
5
10
148.781707
20
105.908176
0
SEQEND
5
a72
100
AcDbEntity
8
1
0
POLYLINE
5
a73
100
AcDbEntity
8
1
6
DOT2
62
5
100
AcDb2dPolyline
66
1
10
0.0
20
0.0
30
0.0
70
0
0
VERTEX
5
a74
100
AcDbEntity
8
1
100
AcDbVertex
100
AcDb2dVertex
62
5
10
116.437500
20
91.158176
0
VERTEX
5
a75
100
AcDbEntity
8
1
100
AcDbVertex
100
AcDb2dVertex
62
5
10
114.875000
20
91.470676
0
VERTEX
5
a76
100
AcDbEntity
8
1
100
AcDbVertex
100
AcDb2dVertex
62
5
10
114.250000
20
92.408176
0
VERTEX
5
a77
100
AcDbEntity
8
1
100
AcDbVertex
100
AcDb2dVertex
62
5
10
114.250000
20
93.345676
0
VERTEX
5
a78
100
AcDbEntity
8
1
100
AcDbVertex
100
AcDb2dVertex
62
5
10
114.562500
20
93.970676
0
VERTEX
5
a79
100
AcDbEntity
8
1
100
AcDbVertex
100
AcDb2dVertex
62
5
10
115.500000
20
94.283176
0
VERTEX
5
a7a
100
AcDbEntity
8
1
100
AcDbVertex
100
AcDb2dVertex
62
5
10
116.437500
20
94.283176
0
VERTEX
5
a7b
100
AcDbEntity
8
1
100
AcDbVertex
100
AcDb2dVertex
62
5
10
117.375000
20
93.970676
0
VERTEX
5
a7c
100
AcDbEntity
8
1
100
AcDbVertex
100
AcDb2dVertex
62
5
10
121.750000
20
91.158176
0
VERTEX
5
a7d
100
AcDbEntity
8
1
100
AcDbVertex
100
AcDb2dVertex
62
5
10
121.750000
20
94.283176
0
VERTEX
5
a7e
100
AcDbEntity
8
1
100
AcDbVertex
100
AcDb2dVertex
62
5
10
120.812500
20
94.283176
0
SEQEND
5
a7f
100
AcDbEntity
8
1
0
LINE
5
a80
100
AcDbEntity
8
1
100
AcDbLine
6
CONTINUOUS
62
5
10
155.200000
20
134.008176
11
121.000000
21
134.008176
0
LINE
5
a81
100
AcDbEntity
8
1
100
AcDbLine
6
CONTINUOUS
62
5
10
146.500000
20
126.108176
11
121.000000
21
126.108176
0
POLYLINE
5
a82
100
AcDbEntity
8
1
6
CONTINUOUS
62
5
100
AcDb2dPolyline
66
1
10
0.0
20
0.0
30
0.0
70
0
0
VERTEX
5
a83
100
AcDbEntity
8
1
100
AcDbVertex
100
AcDb2dVertex
62
5
10
123.000000
20
160.258176
0
VERTEX
5
a84
100
AcDbEntity
8
1
100
AcDbVertex
100
AcDb2dVertex
62
5
10
123.000000
20
134.008176
0
VERTEX
5
a85
100
AcDbEntity
8
1
100
AcDbVertex
100
AcDb2dVertex
62
5
10
122.000000
20
140.008176
0
VERTEX
5
a86
100
AcDbEntity
8
1
100
AcDbVertex
100
AcDb2dVertex
62
5
10
124.000000
20
140.008176
0
VERTEX
5
a87
100
AcDbEntity
8
1
100
AcDbVertex
100
AcDb2dVertex
62
5
10
123.000000
20
134.008176
0
VERTEX
5
a88
100
AcDbEntity
8
1
100
AcDbVertex
100
AcDb2dVertex
62
5
10
122.500000
20
140.008176
0
VERTEX
5
a89
100
AcDbEntity
8
1
100
AcDbVertex
100
AcDb2dVertex
62
5
10
123.500000
20
140.008176
0
VERTEX
5
a8a
100
AcDbEntity
8
1
100
AcDbVertex
100
AcDb2dVertex
62
5
10
123.000000
20
134.008176
0
SEQEND
5
a8b
100
AcDbEntity
8
1
0
LINE
5
a8c
100
AcDbEntity
8
1
100
AcDbLine
6
CONTINUOUS
62
5
10
123.000000
20
126.108176
11
123.000000
21
134.008176
0
LINE
5
a8d
100
AcDbEntity
8
1
100
AcDbLine
6
CONTINUOUS
62
5
10
123.000000
20
121.108176
11
123.000000
21
126.108176
0
POLYLINE
5
a8e
100
AcDbEntity
8
1
6
CONTINUOUS
62
5
100
AcDb2dPolyline
66
1
10
0.0
20
0.0
30
0.0
70
0
0
VERTEX
5
a8f
100
AcDbEntity
8
1
100
AcDbVertex
100
AcDb2dVertex
62
5
10
122.500000
20
127.108176
0
VERTEX
5
a90
100
AcDbEntity
8
1
100
AcDbVertex
100
AcDb2dVertex
62
5
10
123.500000
20
127.108176
0
VERTEX
5
a91
100
AcDbEntity
8
1
100
AcDbVertex
100
AcDb2dVertex
62
5
10
124.000000
20
126.608176
0
VERTEX
5
a92
100
AcDbEntity
8
1
100
AcDbVertex
100
AcDb2dVertex
62
5
10
124.000000
20
125.608176
0
VERTEX
5
a93
100
AcDbEntity
8
1
100
AcDbVertex
100
AcDb2dVertex
62
5
10
123.500000
20
125.108176
0
VERTEX
5
a94
100
AcDbEntity
8
1
100
AcDbVertex
100
AcDb2dVertex
62
5
10
122.500000
20
125.108176
0
VERTEX
5
a95
100
AcDbEntity
8
1
100
AcDbVertex
100
AcDb2dVertex
62
5
10
122.000000
20
125.608176
0
VERTEX
5
a96
100
AcDbEntity
8
1
100
AcDbVertex
100
AcDb2dVertex
62
5
10
122.000000
20
126.608176
0
VERTEX
5
a97
100
AcDbEntity
8
1
100
AcDbVertex
100
AcDb2dVertex
62
5
10
122.500000
20
127.108176
0
VERTEX
5
a98
100
AcDbEntity
8
1
100
AcDbVertex
100
AcDb2dVertex
62
5
10
123.500000
20
125.108176
0
SEQEND
5
a99
100
AcDbEntity
8
1
0
LINE
5
a9a
100
AcDbEntity
8
1
100
AcDbLine
6
CONTINUOUS
62
5
10
122.500000
20
125.108176
11
123.500000
21
127.108176
0
LINE
5
a9b
100
AcDbEntity
8
1
100
AcDbLine
6
CONTINUOUS
62
5
10
124.000000
20
126.608176
11
122.000000
21
125.608176
0
LINE
5
a9c
100
AcDbEntity
8
1
100
AcDbLine
6
CONTINUOUS
62
5
10
122.000000
20
126.608176
11
124.000000
21
125.608176
0
POLYLINE
5
a9d
100
AcDbEntity
8
1
6
DOT2
62
5
100
AcDb2dPolyline
66
1
10
0.0
20
0.0
30
0.0
70
0
0
VERTEX
5
a9e
100
AcDbEntity
8
1
100
AcDbVertex
100
AcDb2dVertex
62
5
10
116.437500
20
76.158176
0
VERTEX
5
a9f
100
AcDbEntity
8
1
100
AcDbVertex
100
AcDb2dVertex
62
5
10
114.875000
20
76.470676
0
VERTEX
5
aa0
100
AcDbEntity
8
1
100
AcDbVertex
100
AcDb2dVertex
62
5
10
114.250000
20
77.408176
0
VERTEX
5
aa1
100
AcDbEntity
8
1
100
AcDbVertex
100
AcDb2dVertex
62
5
10
114.250000
20
78.345676
0
VERTEX
5
aa2
100
AcDbEntity
8
1
100
AcDbVertex
100
AcDb2dVertex
62
5
10
114.562500
20
78.970676
0
VERTEX
5
aa3
100
AcDbEntity
8
1
100
AcDbVertex
100
AcDb2dVertex
62
5
10
115.500000
20
79.283176
0
VERTEX
5
aa4
100
AcDbEntity
8
1
100
AcDbVertex
100
AcDb2dVertex
62
5
10
116.437500
20
79.283176
0
VERTEX
5
aa5
100
AcDbEntity
8
1
100
AcDbVertex
100
AcDb2dVertex
62
5
10
117.375000
20
78.970676
0
VERTEX
5
aa6
100
AcDbEntity
8
1
100
AcDbVertex
100
AcDb2dVertex
62
5
10
121.750000
20
76.158176
0
VERTEX
5
aa7
100
AcDbEntity
8
1
100
AcDbVertex
100
AcDb2dVertex
62
5
10
121.750000
20
79.283176
0
VERTEX
5
aa8
100
AcDbEntity
8
1
100
AcDbVertex
100
AcDb2dVertex
62
5
10
120.812500
20
79.283176
0
SEQEND
5
aa9
100
AcDbEntity
8
1
0
POLYLINE
5
aaa
100
AcDbEntity
8
1
6
DOT2
62
5
100
AcDb2dPolyline
66
1
10
0.0
20
0.0
30
0.0
70
0
0
VERTEX
5
aab
100
AcDbEntity
8
1
100
AcDbVertex
100
AcDb2dVertex
62
5
10
114.875000
20
81.783176
0
VERTEX
5
aac
100
AcDbEntity
8
1
100
AcDbVertex
100
AcDb2dVertex
62
5
10
114.250000
20
82.720676
0
VERTEX
5
aad
100
AcDbEntity
8
1
100
AcDbVertex
100
AcDb2dVertex
62
5
10
121.750000
20
82.720676
0
SEQEND
5
aae
100
AcDbEntity
8
1
0
LINE
5
aaf
100
AcDbEntity
8
1
100
AcDbLine
6
DOT2
62
5
10
121.750000
20
82.095676
11
121.750000
21
83.345676
0
LINE
5
ab0
100
AcDbEntity
8
1
100
AcDbLine
6
DOT2
62
5
10
121.125000
20
86.783176
11
121.750000
21
86.158176
0
POLYLINE
5
ab1
100
AcDbEntity
8
1
6
DOT2
62
5
100
AcDb2dPolyline
66
1
10
0.0
20
0.0
30
0.0
70
0
0
VERTEX
5
ab2
100
AcDbEntity
8
1
100
AcDbVertex
100
AcDb2dVertex
62
5
10
121.125000
20
86.158176
0
VERTEX
5
ab3
100
AcDbEntity
8
1
100
AcDbVertex
100
AcDb2dVertex
62
5
10
121.750000
20
86.783176
0
VERTEX
5
ab4
100
AcDbEntity
8
1
100
AcDbVertex
100
AcDb2dVertex
62
5
10
121.750000
20
86.158176
0
VERTEX
5
ab5
100
AcDbEntity
8
1
100
AcDbVertex
100
AcDb2dVertex
62
5
10
121.125000
20
86.158176
0
VERTEX
5
ab6
100
AcDbEntity
8
1
100
AcDbVertex
100
AcDb2dVertex
62
5
10
121.125000
20
86.783176
0
VERTEX
5
ab7
100
AcDbEntity
8
1
100
AcDbVertex
100
AcDb2dVertex
62
5
10
121.750000
20
86.783176
0
SEQEND
5
ab8
100
AcDbEntity
8
1
0
LINE
5
ab9
100
AcDbEntity
8
1
100
AcDbLine
6
CONTINUOUS
62
5
10
132.500000
20
42.000000
11
135.625000
21
42.000000
0
LINE
5
aba
100
AcDbEntity
8
1
100
AcDbLine
6
CONTINUOUS
62
5
10
118.125000
20
38.875000
11
117.500000
21
38.250000
0
POLYLINE
5
abb
100
AcDbEntity
8
1
6
CONTINUOUS
62
5
100
AcDb2dPolyline
66
1
10
0.0
20
0.0
30
0.0
70
0
0
VERTEX
5
abc
100
AcDbEntity
8
1
100
AcDbVertex
100
AcDb2dVertex
62
5
10
117.500000
20
38.875000
0
VERTEX
5
abd
100
AcDbEntity
8
1
100
AcDbVertex
100
AcDb2dVertex
62
5
10
118.125000
20
38.250000
0
VERTEX
5
abe
100
AcDbEntity
8
1
100
AcDbVertex
100
AcDb2dVertex
62
5
10
117.500000
20
38.250000
0
VERTEX
5
abf
100
AcDbEntity
8
1
100
AcDbVertex
100
AcDb2dVertex
62
5
10
117.500000
20
38.875000
0
VERTEX
5
ac0
100
AcDbEntity
8
1
100
AcDbVertex
100
AcDb2dVertex
62
5
10
118.125000
20
38.875000
0
VERTEX
5
ac1
100
AcDbEntity
8
1
100
AcDbVertex
100
AcDb2dVertex
62
5
10
118.125000
20
38.250000
0
SEQEND
5
ac2
100
AcDbEntity
8
1
0
POLYLINE
5
ac3
100
AcDbEntity
8
1
6
CONTINUOUS
62
5
100
AcDb2dPolyline
66
1
10
0.0
20
0.0
30
0.0
70
1
0
VERTEX
5
ac4
100
AcDbEntity
8
1
100
AcDbVertex
100
AcDb2dVertex
62
5
10
113.750000
20
45.750000
0
VERTEX
5
ac5
100
AcDbEntity
8
1
100
AcDbVertex
100
AcDb2dVertex
62
5
10
114.375000
20
45.750000
0
VERTEX
5
ac6
100
AcDbEntity
8
1
100
AcDbVertex
100
AcDb2dVertex
62
5
10
114.687500
20
45.437500
0
VERTEX
5
ac7
100
AcDbEntity
8
1
100
AcDbVertex
100
AcDb2dVertex
62
5
10
115.312500
20
44.187500
0
VERTEX
5
ac8
100
AcDbEntity
8
1
100
AcDbVertex
100
AcDb2dVertex
62
5
10
115.625000
20
42.937500
0
VERTEX
5
ac9
100
AcDbEntity
8
1
100
AcDbVertex
100
AcDb2dVertex
62
5
10
115.625000
20
41.062500
0
VERTEX
5
aca
100
AcDbEntity
8
1
100
AcDbVertex
100
AcDb2dVertex
62
5
10
115.312500
20
39.812500
0
VERTEX
5
acb
100
AcDbEntity
8
1
100
AcDbVertex
100
AcDb2dVertex
62
5
10
114.687500
20
38.562500
0
VERTEX
5
acc
100
AcDbEntity
8
1
100
AcDbVertex
100
AcDb2dVertex
62
5
10
114.375000
20
38.250000
0
VERTEX
5
acd
100
AcDbEntity
8
1
100
AcDbVertex
100
AcDb2dVertex
62
5
10
113.750000
20
38.250000
0
VERTEX
5
ace
100
AcDbEntity
8
1
100
AcDbVertex
100
AcDb2dVertex
62
5
10
113.437500
20
38.562500
0
VERTEX
5
acf
100
AcDbEntity
8
1
100
AcDbVertex
100
AcDb2dVertex
62
5
10
112.812500
20
39.812500
0
VERTEX
5
ad0
100
AcDbEntity
8
1
100
AcDbVertex
100
AcDb2dVertex
62
5
10
112.500000
20
41.062500
0
VERTEX
5
ad1
100
AcDbEntity
8
1
100
AcDbVertex
100
AcDb2dVertex
62
5
10
112.500000
20
42.937500
0
VERTEX
5
ad2
100
AcDbEntity
8
1
100
AcDbVertex
100
AcDb2dVertex
62
5
10
112.812500
20
44.187500
0
VERTEX
5
ad3
100
AcDbEntity
8
1
100
AcDbVertex
100
AcDb2dVertex
62
5
10
113.437500
20
45.437500
0
VERTEX
5
ad4
100
AcDbEntity
8
1
100
AcDbVertex
100
AcDb2dVertex
62
5
10
113.750000
20
45.750000
0
SEQEND
5
ad5
100
AcDbEntity
8
1
0
LINE
5
ad6
100
AcDbEntity
8
1
100
AcDbLine
6
CONTINUOUS
62
5
10
122.500000
20
45.750000
11
125.312500
21
45.750000
0
POLYLINE
5
ad7
100
AcDbEntity
8
1
6
CONTINUOUS
62
5
100
AcDb2dPolyline
66
1
10
0.0
20
0.0
30
0.0
70
0
0
VERTEX
5
ad8
100
AcDbEntity
8
1
100
AcDbVertex
100
AcDb2dVertex
62
5
10
122.500000
20
45.750000
0
VERTEX
5
ad9
100
AcDbEntity
8
1
100
AcDbVertex
100
AcDb2dVertex
62
5
10
122.500000
20
42.000000
0
VERTEX
5
ada
100
AcDbEntity
8
1
100
AcDbVertex
100
AcDb2dVertex
62
5
10
123.125000
20
42.625000
0
VERTEX
5
adb
100
AcDbEntity
8
1
100
AcDbVertex
100
AcDb2dVertex
62
5
10
123.750000
20
42.937500
0
VERTEX
5
adc
100
AcDbEntity
8
1
100
AcDbVertex
100
AcDb2dVertex
62
5
10
124.687500
20
42.937500
0
VERTEX
5
add
100
AcDbEntity
8
1
100
AcDbVertex
100
AcDb2dVertex
62
5
10
125.312500
20
42.625000
0
VERTEX
5
ade
100
AcDbEntity
8
1
100
AcDbVertex
100
AcDb2dVertex
62
5
10
125.625000
20
41.687500
0
VERTEX
5
adf
100
AcDbEntity
8
1
100
AcDbVertex
100
AcDb2dVertex
62
5
10
125.625000
20
39.812500
0
VERTEX
5
ae0
100
AcDbEntity
8
1
100
AcDbVertex
100
AcDb2dVertex
62
5
10
125.000000
20
38.875000
0
VERTEX
5
ae1
100
AcDbEntity
8
1
100
AcDbVertex
100
AcDb2dVertex
62
5
10
124.062500
20
38.250000
0
VERTEX
5
ae2
100
AcDbEntity
8
1
100
AcDbVertex
100
AcDb2dVertex
62
5
10
122.500000
20
38.250000
0
SEQEND
5
ae3
100
AcDbEntity
8
1
0
POLYLINE
5
ae4
100
AcDbEntity
8
1
6
CONTINUOUS
62
5
100
AcDb2dPolyline
66
1
10
0.0
20
0.0
30
0.0
70
0
0
VERTEX
5
ae5
100
AcDbEntity
8
1
100
AcDbVertex
100
AcDb2dVertex
62
5
10
127.500000
20
38.250000
0
VERTEX
5
ae6
100
AcDbEntity
8
1
100
AcDbVertex
100
AcDb2dVertex
62
5
10
129.062500
20
45.750000
0
VERTEX
5
ae7
100
AcDbEntity
8
1
100
AcDbVertex
100
AcDb2dVertex
62
5
10
130.625000
20
38.250000
0
SEQEND
5
ae8
100
AcDbEntity
8
1
0
LINE
5
ae9
100
AcDbEntity
8
1
100
AcDbLine
6
CONTINUOUS
62
5
10
128.125000
20
40.750000
11
130.000000
21
40.750000
0
POLYLINE
5
aea
100
AcDbEntity
8
1
6
CONTINUOUS
62
5
100
AcDb2dPolyline
66
1
10
0.0
20
0.0
30
0.0
70
0
0
VERTEX
5
aeb
100
AcDbEntity
8
1
100
AcDbVertex
100
AcDb2dVertex
62
5
10
137.500000
20
43.875000
0
VERTEX
5
aec
100
AcDbEntity
8
1
100
AcDbVertex
100
AcDb2dVertex
62
5
10
137.812500
20
45.125000
0
VERTEX
5
aed
100
AcDbEntity
8
1
100
AcDbVertex
100
AcDb2dVertex
62
5
10
138.437500
20
45.750000
0
VERTEX
5
aee
100
AcDbEntity
8
1
100
AcDbVertex
100
AcDb2dVertex
62
5
10
139.375000
20
45.750000
0
VERTEX
5
aef
100
AcDbEntity
8
1
100
AcDbVertex
100
AcDb2dVertex
62
5
10
140.000000
20
45.437500
0
VERTEX
5
af0
100
AcDbEntity
8
1
100
AcDbVertex
100
AcDb2dVertex
62
5
10
140.312500
20
44.500000
0
VERTEX
5
af1
100
AcDbEntity
8
1
100
AcDbVertex
100
AcDb2dVertex
62
5
10
140.312500
20
43.250000
0
VERTEX
5
af2
100
AcDbEntity
8
1
100
AcDbVertex
100
AcDb2dVertex
62
5
10
140.000000
20
42.625000
0
VERTEX
5
af3
100
AcDbEntity
8
1
100
AcDbVertex
100
AcDb2dVertex
62
5
10
139.375000
20
42.000000
0
VERTEX
5
af4
100
AcDbEntity
8
1
100
AcDbVertex
100
AcDb2dVertex
62
5
10
138.437500
20
42.000000
0
SEQEND
5
af5
100
AcDbEntity
8
1
0
POLYLINE
5
af6
100
AcDbEntity
8
1
6
CONTINUOUS
62
5
100
AcDb2dPolyline
66
1
10
0.0
20
0.0
30
0.0
70
0
0
VERTEX
5
af7
100
AcDbEntity
8
1
100
AcDbVertex
100
AcDb2dVertex
62
5
10
139.375000
20
42.000000
0
VERTEX
5
af8
100
AcDbEntity
8
1
100
AcDbVertex
100
AcDb2dVertex
62
5
10
140.312500
20
41.375000
0
VERTEX
5
af9
100
AcDbEntity
8
1
100
AcDbVertex
100
AcDb2dVertex
62
5
10
140.625000
20
40.437500
0
VERTEX
5
afa
100
AcDbEntity
8
1
100
AcDbVertex
100
AcDb2dVertex
62
5
10
140.625000
20
39.500000
0
VERTEX
5
afb
100
AcDbEntity
8
1
100
AcDbVertex
100
AcDb2dVertex
62
5
10
140.312500
20
38.875000
0
VERTEX
5
afc
100
AcDbEntity
8
1
100
AcDbVertex
100
AcDb2dVertex
62
5
10
139.375000
20
38.250000
0
VERTEX
5
afd
100
AcDbEntity
8
1
100
AcDbVertex
100
AcDb2dVertex
62
5
10
138.437500
20
38.250000
0
VERTEX
5
afe
100
AcDbEntity
8
1
100
AcDbVertex
100
AcDb2dVertex
62
5
10
137.812500
20
38.562500
0
VERTEX
5
aff
100
AcDbEntity
8
1
100
AcDbVertex
100
AcDb2dVertex
62
5
10
137.187500
20
39.500000
0
SEQEND
5
b00
100
AcDbEntity
8
1
0
POLYLINE
5
b01
100
AcDbEntity
8
1
6
CONTINUOUS
62
5
100
AcDb2dPolyline
66
1
10
0.0
20
0.0
30
0.0
70
1
0
VERTEX
5
b02
100
AcDbEntity
8
1
100
AcDbVertex
100
AcDb2dVertex
62
5
10
143.750000
20
45.750000
0
VERTEX
5
b03
100
AcDbEntity
8
1
100
AcDbVertex
100
AcDb2dVertex
62
5
10
144.375000
20
45.750000
0
VERTEX
5
b04
100
AcDbEntity
8
1
100
AcDbVertex
100
AcDb2dVertex
62
5
10
144.687500
20
45.437500
0
VERTEX
5
b05
100
AcDbEntity
8
1
100
AcDbVertex
100
AcDb2dVertex
62
5
10
145.312500
20
44.187500
0
VERTEX
5
b06
100
AcDbEntity
8
1
100
AcDbVertex
100
AcDb2dVertex
62
5
10
145.625000
20
42.937500
0
VERTEX
5
b07
100
AcDbEntity
8
1
100
AcDbVertex
100
AcDb2dVertex
62
5
10
145.625000
20
41.062500
0
VERTEX
5
b08
100
AcDbEntity
8
1
100
AcDbVertex
100
AcDb2dVertex
62
5
10
145.312500
20
39.812500
0
VERTEX
5
b09
100
AcDbEntity
8
1
100
AcDbVertex
100
AcDb2dVertex
62
5
10
144.687500
20
38.562500
0
VERTEX
5
b0a
100
AcDbEntity
8
1
100
AcDbVertex
100
AcDb2dVertex
62
5
10
144.375000
20
38.250000
0
VERTEX
5
b0b
100
AcDbEntity
8
1
100
AcDbVertex
100
AcDb2dVertex
62
5
10
143.750000
20
38.250000
0
VERTEX
5
b0c
100
AcDbEntity
8
1
100
AcDbVertex
100
AcDb2dVertex
62
5
10
143.437500
20
38.562500
0
VERTEX
5
b0d
100
AcDbEntity
8
1
100
AcDbVertex
100
AcDb2dVertex
62
5
10
142.812500
20
39.812500
0
VERTEX
5
b0e
100
AcDbEntity
8
1
100
AcDbVertex
100
AcDb2dVertex
62
5
10
142.500000
20
41.062500
0
VERTEX
5
b0f
100
AcDbEntity
8
1
100
AcDbVertex
100
AcDb2dVertex
62
5
10
142.500000
20
42.937500
0
VERTEX
5
b10
100
AcDbEntity
8
1
100
AcDbVertex
100
AcDb2dVertex
62
5
10
142.812500
20
44.187500
0
VERTEX
5
b11
100
AcDbEntity
8
1
100
AcDbVertex
100
AcDb2dVertex
62
5
10
143.437500
20
45.437500
0
VERTEX
5
b12
100
AcDbEntity
8
1
100
AcDbVertex
100
AcDb2dVertex
62
5
10
143.750000
20
45.750000
0
SEQEND
5
b13
100
AcDbEntity
8
1
0
POLYLINE
5
b14
100
AcDbEntity
8
1
6
CONTINUOUS
62
5
100
AcDb2dPolyline
66
1
10
0.0
20
0.0
30
0.0
70
1
0
VERTEX
5
b15
100
AcDbEntity
8
1
100
AcDbVertex
100
AcDb2dVertex
62
5
10
148.750000
20
45.750000
0
VERTEX
5
b16
100
AcDbEntity
8
1
100
AcDbVertex
100
AcDb2dVertex
62
5
10
149.375000
20
45.750000
0
VERTEX
5
b17
100
AcDbEntity
8
1
100
AcDbVertex
100
AcDb2dVertex
62
5
10
149.687500
20
45.437500
0
VERTEX
5
b18
100
AcDbEntity
8
1
100
AcDbVertex
100
AcDb2dVertex
62
5
10
150.312500
20
44.187500
0
VERTEX
5
b19
100
AcDbEntity
8
1
100
AcDbVertex
100
AcDb2dVertex
62
5
10
150.625000
20
42.937500
0
VERTEX
5
b1a
100
AcDbEntity
8
1
100
AcDbVertex
100
AcDb2dVertex
62
5
10
150.625000
20
41.062500
0
VERTEX
5
b1b
100
AcDbEntity
8
1
100
AcDbVertex
100
AcDb2dVertex
62
5
10
150.312500
20
39.812500
0
VERTEX
5
b1c
100
AcDbEntity
8
1
100
AcDbVertex
100
AcDb2dVertex
62
5
10
149.687500
20
38.562500
0
VERTEX
5
b1d
100
AcDbEntity
8
1
100
AcDbVertex
100
AcDb2dVertex
62
5
10
149.375000
20
38.250000
0
VERTEX
5
b1e
100
AcDbEntity
8
1
100
AcDbVertex
100
AcDb2dVertex
62
5
10
148.750000
20
38.250000
0
VERTEX
5
b1f
100
AcDbEntity
8
1
100
AcDbVertex
100
AcDb2dVertex
62
5
10
148.437500
20
38.562500
0
VERTEX
5
b20
100
AcDbEntity
8
1
100
AcDbVertex
100
AcDb2dVertex
62
5
10
147.812500
20
39.812500
0
VERTEX
5
b21
100
AcDbEntity
8
1
100
AcDbVertex
100
AcDb2dVertex
62
5
10
147.500000
20
41.062500
0
VERTEX
5
b22
100
AcDbEntity
8
1
100
AcDbVertex
100
AcDb2dVertex
62
5
10
147.500000
20
42.937500
0
VERTEX
5
b23
100
AcDbEntity
8
1
100
AcDbVertex
100
AcDb2dVertex
62
5
10
147.812500
20
44.187500
0
VERTEX
5
b24
100
AcDbEntity
8
1
100
AcDbVertex
100
AcDb2dVertex
62
5
10
148.437500
20
45.437500
0
VERTEX
5
b25
100
AcDbEntity
8
1
100
AcDbVertex
100
AcDb2dVertex
62
5
10
148.750000
20
45.750000
0
SEQEND
5
b26
100
AcDbEntity
8
1
0
POLYLINE
5
b27
100
AcDbEntity
8
1
6
CONTINUOUS
62
5
100
AcDb2dPolyline
66
1
10
0.0
20
0.0
30
0.0
70
0
0
VERTEX
5
b28
100
AcDbEntity
8
1
100
AcDbVertex
100
AcDb2dVertex
62
5
10
152.500000
20
45.750000
0
VERTEX
5
b29
100
AcDbEntity
8
1
100
AcDbVertex
100
AcDb2dVertex
62
5
10
154.062500
20
38.250000
0
VERTEX
5
b2a
100
AcDbEntity
8
1
100
AcDbVertex
100
AcDb2dVertex
62
5
10
155.625000
20
45.750000
0
SEQEND
5
b2b
100
AcDbEntity
8
1
0
POLYLINE
5
b2c
100
AcDbEntity
8
1
6
CONTINUOUS
62
5
100
AcDb2dPolyline
66
1
10
0.0
20
0.0
30
0.0
70
0
0
VERTEX
5
b2d
100
AcDbEntity
8
1
100
AcDbVertex
100
AcDb2dVertex
62
5
10
162.500000
20
38.250000
0
VERTEX
5
b2e
100
AcDbEntity
8
1
100
AcDbVertex
100
AcDb2dVertex
62
5
10
164.062500
20
45.750000
0
VERTEX
5
b2f
100
AcDbEntity
8
1
100
AcDbVertex
100
AcDb2dVertex
62
5
10
165.625000
20
38.250000
0
SEQEND
5
b30
100
AcDbEntity
8
1
0
LINE
5
b31
100
AcDbEntity
8
1
100
AcDbLine
6
CONTINUOUS
62
5
10
163.125000
20
40.750000
11
165.000000
21
40.750000
0
LINE
5
b32
100
AcDbEntity
8
1
100
AcDbLine
6
CONTINUOUS
62
5
10
100.000000
20
54.000000
11
100.000000
21
30.000000
0
LINE
5
b33
100
AcDbEntity
8
1
100
AcDbLine
6
CONTINUOUS
62
5
10
64.687500
20
46.375000
11
64.687500
21
45.437500
0
POLYLINE
5
b34
100
AcDbEntity
8
1
6
CONTINUOUS
62
5
100
AcDb2dPolyline
66
1
10
0.0
20
0.0
30
0.0
70
0
0
VERTEX
5
b35
100
AcDbEntity
8
1
100
AcDbVertex
100
AcDb2dVertex
62
5
10
60.937500
20
43.250000
0
VERTEX
5
b36
100
AcDbEntity
8
1
100
AcDbVertex
100
AcDb2dVertex
62
5
10
60.937500
20
45.437500
0
VERTEX
5
b37
100
AcDbEntity
8
1
100
AcDbVertex
100
AcDb2dVertex
62
5
10
68.437500
20
45.437500
0
VERTEX
5
b38
100
AcDbEntity
8
1
100
AcDbVertex
100
AcDb2dVertex
62
5
10
68.437500
20
43.250000
0
SEQEND
5
b39
100
AcDbEntity
8
1
0
LINE
5
b3a
100
AcDbEntity
8
1
100
AcDbLine
6
CONTINUOUS
62
5
10
61.875000
20
43.562500
11
67.500000
21
43.562500
0
LINE
5
b3b
100
AcDbEntity
8
1
100
AcDbLine
6
CONTINUOUS
62
5
10
64.687500
20
43.562500
11
64.687500
21
38.250000
0
LINE
5
b3c
100
AcDbEntity
8
1
100
AcDbLine
6
CONTINUOUS
62
5
10
64.687500
20
41.062500
11
67.500000
21
41.062500
0
POLYLINE
5
b3d
100
AcDbEntity
8
1
6
CONTINUOUS
62
5
100
AcDb2dPolyline
66
1
10
0.0
20
0.0
30
0.0
70
0
0
VERTEX
5
b3e
100
AcDbEntity
8
1
100
AcDbVertex
100
AcDb2dVertex
62
5
10
62.500000
20
41.687500
0
VERTEX
5
b3f
100
AcDbEntity
8
1
100
AcDbVertex
100
AcDb2dVertex
62
5
10
62.187500
20
39.812500
0
VERTEX
5
b40
100
AcDbEntity
8
1
100
AcDbVertex
100
AcDb2dVertex
62
5
10
61.562500
20
38.562500
0
VERTEX
5
b41
100
AcDbEntity
8
1
100
AcDbVertex
100
AcDb2dVertex
62
5
10
60.625000
20
37.625000
0
SEQEND
5
b42
100
AcDbEntity
8
1
0
POLYLINE
5
b43
100
AcDbEntity
8
1
6
CONTINUOUS
62
5
100
AcDb2dPolyline
66
1
10
0.0
20
0.0
30
0.0
70
0
0
VERTEX
5
b44
100
AcDbEntity
8
1
100
AcDbVertex
100
AcDb2dVertex
62
5
10
62.187500
20
39.812500
0
VERTEX
5
b45
100
AcDbEntity
8
1
100
AcDbVertex
100
AcDb2dVertex
62
5
10
64.687500
20
38.250000
0
VERTEX
5
b46
100
AcDbEntity
8
1
100
AcDbVertex
100
AcDb2dVertex
62
5
10
65.937500
20
37.937500
0
VERTEX
5
b47
100
AcDbEntity
8
1
100
AcDbVertex
100
AcDb2dVertex
62
5
10
69.062500
20
37.625000
0
SEQEND
5
b48
100
AcDbEntity
8
1
0
LINE
5
b49
100
AcDbEntity
8
1
100
AcDbLine
6
CONTINUOUS
62
5
10
80.625000
20
44.187500
11
83.750000
21
44.187500
0
LINE
5
b4a
100
AcDbEntity
8
1
100
AcDbLine
6
CONTINUOUS
62
5
10
82.500000
20
46.375000
11
82.500000
21
37.625000
0
POLYLINE
5
b4b
100
AcDbEntity
8
1
6
CONTINUOUS
62
5
100
AcDb2dPolyline
66
1
10
0.0
20
0.0
30
0.0
70
0
0
VERTEX
5
b4c
100
AcDbEntity
8
1
100
AcDbVertex
100
AcDb2dVertex
62
5
10
82.500000
20
44.187500
0
VERTEX
5
b4d
100
AcDbEntity
8
1
100
AcDbVertex
100
AcDb2dVertex
62
5
10
81.562500
20
42.000000
0
VERTEX
5
b4e
100
AcDbEntity
8
1
100
AcDbVertex
100
AcDb2dVertex
62
5
10
80.625000
20
40.750000
0
SEQEND
5
b4f
100
AcDbEntity
8
1
0
LINE
5
b50
100
AcDbEntity
8
1
100
AcDbLine
6
CONTINUOUS
62
5
10
82.500000
20
43.250000
11
83.437500
21
42.000000
0
POLYLINE
5
b51
100
AcDbEntity
8
1
6
CONTINUOUS
62
5
100
AcDb2dPolyline
66
1
10
0.0
20
0.0
30
0.0
70
0
0
VERTEX
5
b52
100
AcDbEntity
8
1
100
AcDbVertex
100
AcDb2dVertex
62
5
10
85.937500
20
46.375000
0
VERTEX
5
b53
100
AcDbEntity
8
1
100
AcDbVertex
100
AcDb2dVertex
62
5
10
85.312500
20
45.125000
0
VERTEX
5
b54
100
AcDbEntity
8
1
100
AcDbVertex
100
AcDb2dVertex
62
5
10
83.750000
20
43.250000
0
SEQEND
5
b55
100
AcDbEntity
8
1
0
POLYLINE
5
b56
100
AcDbEntity
8
1
6
CONTINUOUS
62
5
100
AcDb2dPolyline
66
1
10
0.0
20
0.0
30
0.0
70
0
0
VERTEX
5
b57
100
AcDbEntity
8
1
100
AcDbVertex
100
AcDb2dVertex
62
5
10
85.312500
20
45.125000
0
VERTEX
5
b58
100
AcDbEntity
8
1
100
AcDbVertex
100
AcDb2dVertex
62
5
10
88.437500
20
45.125000
0
VERTEX
5
b59
100
AcDbEntity
8
1
100
AcDbVertex
100
AcDb2dVertex
62
5
10
87.500000
20
43.562500
0
VERTEX
5
b5a
100
AcDbEntity
8
1
100
AcDbVertex
100
AcDb2dVertex
62
5
10
85.937500
20
42.000000
0
VERTEX
5
b5b
100
AcDbEntity
8
1
100
AcDbVertex
100
AcDb2dVertex
62
5
10
83.750000
20
40.750000
0
SEQEND
5
b5c
100
AcDbEntity
8
1
0
POLYLINE
5
b5d
100
AcDbEntity
8
1
6
CONTINUOUS
62
5
100
AcDb2dPolyline
66
1
10
0.0
20
0.0
30
0.0
70
0
0
VERTEX
5
b5e
100
AcDbEntity
8
1
100
AcDbVertex
100
AcDb2dVertex
62
5
10
85.312500
20
45.125000
0
VERTEX
5
b5f
100
AcDbEntity
8
1
100
AcDbVertex
100
AcDb2dVertex
62
5
10
85.937500
20
43.562500
0
VERTEX
5
b60
100
AcDbEntity
8
1
100
AcDbVertex
100
AcDb2dVertex
62
5
10
87.187500
20
42.000000
0
VERTEX
5
b61
100
AcDbEntity
8
1
100
AcDbVertex
100
AcDb2dVertex
62
5
10
88.125000
20
41.375000
0
VERTEX
5
b62
100
AcDbEntity
8
1
100
AcDbVertex
100
AcDb2dVertex
62
5
10
89.375000
20
40.750000
0
SEQEND
5
b63
100
AcDbEntity
8
1
0
POLYLINE
5
b64
100
AcDbEntity
8
1
6
CONTINUOUS
62
5
100
AcDb2dPolyline
66
1
10
0.0
20
0.0
30
0.0
70
1
0
VERTEX
5
b65
100
AcDbEntity
8
1
100
AcDbVertex
100
AcDb2dVertex
62
5
10
85.000000
20
40.750000
0
VERTEX
5
b66
100
AcDbEntity
8
1
100
AcDbVertex
100
AcDb2dVertex
62
5
10
85.000000
20
37.937500
0
VERTEX
5
b67
100
AcDbEntity
8
1
100
AcDbVertex
100
AcDb2dVertex
62
5
10
88.437500
20
37.937500
0
VERTEX
5
b68
100
AcDbEntity
8
1
100
AcDbVertex
100
AcDb2dVertex
62
5
10
88.437500
20
40.750000
0
VERTEX
5
b69
100
AcDbEntity
8
1
100
AcDbVertex
100
AcDb2dVertex
62
5
10
85.000000
20
40.750000
0
SEQEND
5
b6a
100
AcDbEntity
8
1
0
LINE
5
b6b
100
AcDbEntity
8
1
100
AcDbLine
6
CONTINUOUS
62
5
10
146.500000
20
126.108176
11
121.000000
21
126.108176
0
LINE
5
b6c
100
AcDbEntity
8
1
100
AcDbLine
6
CONTINUOUS
62
5
10
148.695355
20
104.908176
11
121.000000
21
104.908176
0
POLYLINE
5
b6d
100
AcDbEntity
8
1
6
CONTINUOUS
62
5
100
AcDb2dPolyline
66
1
10
0.0
20
0.0
30
0.0
70
0
0
VERTEX
5
b6e
100
AcDbEntity
8
1
100
AcDbVertex
100
AcDb2dVertex
62
5
10
123.000000
20
73.658176
0
VERTEX
5
b6f
100
AcDbEntity
8
1
100
AcDbVertex
100
AcDb2dVertex
62
5
10
123.000000
20
104.908176
0
VERTEX
5
b70
100
AcDbEntity
8
1
100
AcDbVertex
100
AcDb2dVertex
62
5
10
124.000000
20
98.908176
0
VERTEX
5
b71
100
AcDbEntity
8
1
100
AcDbVertex
100
AcDb2dVertex
62
5
10
122.000000
20
98.908176
0
VERTEX
5
b72
100
AcDbEntity
8
1
100
AcDbVertex
100
AcDb2dVertex
62
5
10
123.000000
20
104.908176
0
VERTEX
5
b73
100
AcDbEntity
8
1
100
AcDbVertex
100
AcDb2dVertex
62
5
10
123.500000
20
98.908176
0
VERTEX
5
b74
100
AcDbEntity
8
1
100
AcDbVertex
100
AcDb2dVertex
62
5
10
122.500000
20
98.908176
0
VERTEX
5
b75
100
AcDbEntity
8
1
100
AcDbVertex
100
AcDb2dVertex
62
5
10
123.000000
20
104.908176
0
SEQEND
5
b76
100
AcDbEntity
8
1
0
LINE
5
b77
100
AcDbEntity
8
1
100
AcDbLine
6
CONTINUOUS
62
5
10
123.000000
20
104.908176
11
123.000000
21
126.108176
0
LINE
5
b78
100
AcDbEntity
8
1
100
AcDbLine
6
CONTINUOUS
62
5
10
123.000000
20
129.108176
11
123.000000
21
126.108176
0
POLYLINE
5
b79
100
AcDbEntity
8
1
6
CONTINUOUS
62
5
100
AcDb2dPolyline
66
1
10
0.0
20
0.0
30
0.0
70
0
0
VERTEX
5
b7a
100
AcDbEntity
8
1
100
AcDbVertex
100
AcDb2dVertex
62
5
10
170.625000
20
44.187500
0
VERTEX
5
b7b
100
AcDbEntity
8
1
100
AcDbVertex
100
AcDb2dVertex
62
5
10
170.312500
20
45.125000
0
VERTEX
5
b7c
100
AcDbEntity
8
1
100
AcDbVertex
100
AcDb2dVertex
62
5
10
169.687500
20
45.750000
0
VERTEX
5
b7d
100
AcDbEntity
8
1
100
AcDbVertex
100
AcDb2dVertex
62
5
10
168.750000
20
45.750000
0
VERTEX
5
b7e
100
AcDbEntity
8
1
100
AcDbVertex
100
AcDb2dVertex
62
5
10
167.812500
20
44.812500
0
VERTEX
5
b7f
100
AcDbEntity
8
1
100
AcDbVertex
100
AcDb2dVertex
62
5
10
167.500000
20
43.250000
0
VERTEX
5
b80
100
AcDbEntity
8
1
100
AcDbVertex
100
AcDb2dVertex
62
5
10
167.500000
20
40.750000
0
VERTEX
5
b81
100
AcDbEntity
8
1
100
AcDbVertex
100
AcDb2dVertex
62
5
10
167.812500
20
39.187500
0
VERTEX
5
b82
100
AcDbEntity
8
1
100
AcDbVertex
100
AcDb2dVertex
62
5
10
168.750000
20
38.250000
0
VERTEX
5
b83
100
AcDbEntity
8
1
100
AcDbVertex
100
AcDb2dVertex
62
5
10
169.687500
20
38.250000
0
VERTEX
5
b84
100
AcDbEntity
8
1
100
AcDbVertex
100
AcDb2dVertex
62
5
10
170.312500
20
38.875000
0
VERTEX
5
b85
100
AcDbEntity
8
1
100
AcDbVertex
100
AcDb2dVertex
62
5
10
170.937500
20
40.437500
0
SEQEND
5
b86
100
AcDbEntity
8
1
0
LINE
5
b87
100
AcDbEntity
8
1
100
AcDbLine
6
CONTINUOUS
62
5
10
184.000000
20
121.308176
11
156.000000
21
121.308176
0
ARC
5
b88
100
AcDbEntity
8
1
100
AcDbCircle
6
CONTINUOUS
62
5
10
156.700000
20
133.308176
40
0.700000
100
AcDbArc
50
89.999999
51
-179.999998
0
LINE
5
b89
100
AcDbEntity
8
1
100
AcDbLine
6
CONTINUOUS
62
5
10
156.700000
20
134.008176
11
183.300000
21
134.008176
0
ARC
5
b8a
100
AcDbEntity
8
1
100
AcDbCircle
6
CONTINUOUS
62
5
10
183.300000
20
133.308176
40
0.700000
100
AcDbArc
50
-0.000000
51
89.999999
0
LINE
5
b8b
100
AcDbEntity
8
1
100
AcDbLine
6
CONTINUOUS
62
5
10
184.000000
20
133.308176
11
184.000000
21
124.508176
0
LINE
5
b8c
100
AcDbEntity
8
1
100
AcDbLine
6
CONTINUOUS
62
5
10
156.000000
20
124.508176
11
156.000000
21
133.308176
0
ARC
5
b8d
100
AcDbEntity
8
1
100
AcDbCircle
6
CONTINUOUS
62
5
10
161.426730
20
136.213385
40
0.500000
100
AcDbArc
50
81.608256
51
163.080825
0
ARC
5
b8e
100
AcDbEntity
8
1
100
AcDbCircle
6
CONTINUOUS
62
5
10
202.347254
20
333.587383
40
201.072130
100
AcDbArc
50
-101.721150
51
-96.986335
0
LINE
5
b8f
100
AcDbEntity
8
1
100
AcDbLine
6
CONTINUOUS
62
5
10
160.340383
20
134.008176
11
160.948372
21
136.358896
0
ARC
5
b90
100
AcDbEntity
8
1
100
AcDbCircle
6
CONTINUOUS
62
5
10
161.112695
20
136.891824
40
0.500000
100
AcDbArc
50
78.151402
51
160.344128
0
ARC
5
b91
100
AcDbEntity
8
1
100
AcDbCircle
6
CONTINUOUS
62
5
10
202.280604
20
333.119888
40
200.000000
100
AcDbArc
50
-101.848596
51
-96.151402
0
ARC
5
b92
100
AcDbEntity
8
1
100
AcDbCircle
6
CONTINUOUS
62
5
10
180.795806
20
133.774326
40
0.500000
100
AcDbArc
50
27.885150
51
83.848596
0
LINE
5
b93
100
AcDbEntity
8
1
100
AcDbLine
6
CONTINUOUS
62
5
10
159.716703
20
134.008176
11
160.641830
21
137.060009
0
ARC
5
b94
100
AcDbEntity
8
1
100
AcDbCircle
6
CONTINUOUS
62
5
10
171.500000
20
114.308176
40
0.500000
100
AcDbArc
50
179.999998
51
-89.999999
0
LINE
5
b95
100
AcDbEntity
8
1
100
AcDbLine
6
CONTINUOUS
62
5
10
171.500000
20
113.808176
11
179.500000
21
113.808176
0
ARC
5
b96
100
AcDbEntity
8
1
100
AcDbCircle
6
CONTINUOUS
62
5
10
179.500000
20
114.308176
40
0.500000
100
AcDbArc
50
-89.999999
51
0.000000
0
POLYLINE
5
b97
100
AcDbEntity
8
1
6
CONTINUOUS
62
5
100
AcDb2dPolyline
66
1
10
0.0
20
0.0
30
0.0
70
0
0
VERTEX
5
b98
100
AcDbEntity
8
1
100
AcDbVertex
100
AcDb2dVertex
62
5
10
180.000000
20
114.308176
0
VERTEX
5
b99
100
AcDbEntity
8
1
100
AcDbVertex
100
AcDb2dVertex
62
5
10
180.000000
20
117.308176
0
VERTEX
5
b9a
100
AcDbEntity
8
1
100
AcDbVertex
100
AcDb2dVertex
62
5
10
180.700000
20
117.308176
0
SEQEND
5
b9b
100
AcDbEntity
8
1
0
POLYLINE
5
b9c
100
AcDbEntity
8
1
6
CONTINUOUS
62
5
100
AcDb2dPolyline
66
1
10
0.0
20
0.0
30
0.0
70
0
0
VERTEX
5
b9d
100
AcDbEntity
8
1
100
AcDbVertex
100
AcDb2dVertex
62
5
10
159.970820
20
117.808176
0
VERTEX
5
b9e
100
AcDbEntity
8
1
100
AcDbVertex
100
AcDb2dVertex
62
5
10
171.000000
20
117.808176
0
VERTEX
5
b9f
100
AcDbEntity
8
1
100
AcDbVertex
100
AcDb2dVertex
62
5
10
171.000000
20
114.308176
0
SEQEND
5
ba0
100
AcDbEntity
8
1
0
ARC
5
ba1
100
AcDbEntity
8
1
100
AcDbCircle
6
CONTINUOUS
62
5
10
165.000000
20
106.808176
40
1.000000
100
AcDbArc
50
179.999998
51
-89.999999
0
LINE
5
ba2
100
AcDbEntity
8
1
100
AcDbLine
6
CONTINUOUS
62
5
10
165.000000
20
105.808176
11
183.000000
21
105.808176
0
LINE
5
ba3
100
AcDbEntity
8
1
100
AcDbLine
6
CONTINUOUS
62
5
10
164.000000
20
107.908176
11
164.000000
21
106.808176
0
POLYLINE
5
ba4
100
AcDbEntity
8
1
6
CONTINUOUS
62
5
100
AcDb2dPolyline
66
1
10
0.0
20
0.0
30
0.0
70
1
0
VERTEX
5
ba5
100
AcDbEntity
8
1
100
AcDbVertex
100
AcDb2dVertex
62
5
10
290.000000
20
30.000000
0
VERTEX
5
ba6
100
AcDbEntity
8
1
100
AcDbVertex
100
AcDb2dVertex
62
5
10
290.000000
20
54.000000
0
VERTEX
5
ba7
100
AcDbEntity
8
1
100
AcDbVertex
100
AcDb2dVertex
62
5
10
50.000000
20
54.000000
0
VERTEX
5
ba8
100
AcDbEntity
8
1
100
AcDbVertex
100
AcDb2dVertex
62
5
10
50.000000
20
30.000000
0
VERTEX
5
ba9
100
AcDbEntity
8
1
100
AcDbVertex
100
AcDb2dVertex
62
5
10
290.000000
20
30.000000
0
SEQEND
5
baa
100
AcDbEntity
8
1
0
POLYLINE
5
bab
100
AcDbEntity
8
1
6
DOT2
62
5
100
AcDb2dPolyline
66
1
10
0.0
20
0.0
30
0.0
70
0
0
VERTEX
5
bac
100
AcDbEntity
8
1
100
AcDbVertex
100
AcDb2dVertex
62
5
10
0.000000
20
350.000000
0
VERTEX
5
bad
100
AcDbEntity
8
1
100
AcDbVertex
100
AcDb2dVertex
62
5
10
0.000000
20
360.000000
0
VERTEX
5
bae
100
AcDbEntity
8
1
100
AcDbVertex
100
AcDb2dVertex
62
5
10
10.000000
20
360.000000
0
SEQEND
5
baf
100
AcDbEntity
8
1
0
POLYLINE
5
bb0
100
AcDbEntity
8
1
6
DOT2
62
5
100
AcDb2dPolyline
66
1
10
0.0
20
0.0
30
0.0
70
0
0
VERTEX
5
bb1
100
AcDbEntity
8
1
100
AcDbVertex
100
AcDb2dVertex
62
5
10
330.000000
20
360.000000
0
VERTEX
5
bb2
100
AcDbEntity
8
1
100
AcDbVertex
100
AcDb2dVertex
62
5
10
340.000000
20
360.000000
0
VERTEX
5
bb3
100
AcDbEntity
8
1
100
AcDbVertex
100
AcDb2dVertex
62
5
10
340.000000
20
350.000000
0
SEQEND
5
bb4
100
AcDbEntity
8
1
0
POLYLINE
5
bb5
100
AcDbEntity
8
1
6
DOT2
62
5
100
AcDb2dPolyline
66
1
10
0.0
20
0.0
30
0.0
70
0
0
VERTEX
5
bb6
100
AcDbEntity
8
1
100
AcDbVertex
100
AcDb2dVertex
62
5
10
340.000000
20
10.000000
0
VERTEX
5
bb7
100
AcDbEntity
8
1
100
AcDbVertex
100
AcDb2dVertex
62
5
10
340.000000
20
0.000000
0
VERTEX
5
bb8
100
AcDbEntity
8
1
100
AcDbVertex
100
AcDb2dVertex
62
5
10
330.000000
20
0.000000
0
SEQEND
5
bb9
100
AcDbEntity
8
1
0
POLYLINE
5
bba
100
AcDbEntity
8
1
6
DOT2
62
5
100
AcDb2dPolyline
66
1
10
0.0
20
0.0
30
0.0
70
0
0
VERTEX
5
bbb
100
AcDbEntity
8
1
100
AcDbVertex
100
AcDb2dVertex
62
5
10
10.000000
20
0.000000
0
VERTEX
5
bbc
100
AcDbEntity
8
1
100
AcDbVertex
100
AcDb2dVertex
62
5
10
0.000000
20
0.000000
0
VERTEX
5
bbd
100
AcDbEntity
8
1
100
AcDbVertex
100
AcDb2dVertex
62
5
10
0.000000
20
10.000000
0
SEQEND
5
bbe
100
AcDbEntity
8
1
0
POLYLINE
5
bbf
100
AcDbEntity
8
1
6
CONTINUOUS
62
5
100
AcDb2dPolyline
66
1
10
0.0
20
0.0
30
0.0
70
1
0
VERTEX
5
bc0
100
AcDbEntity
8
1
100
AcDbVertex
100
AcDb2dVertex
62
5
10
10.000000
20
10.000000
0
VERTEX
5
bc1
100
AcDbEntity
8
1
100
AcDbVertex
100
AcDb2dVertex
62
5
10
10.000000
20
350.000000
0
VERTEX
5
bc2
100
AcDbEntity
8
1
100
AcDbVertex
100
AcDb2dVertex
62
5
10
330.000000
20
350.000000
0
VERTEX
5
bc3
100
AcDbEntity
8
1
100
AcDbVertex
100
AcDb2dVertex
62
5
10
330.000000
20
10.000000
0
VERTEX
5
bc4
100
AcDbEntity
8
1
100
AcDbVertex
100
AcDb2dVertex
62
5
10
10.000000
20
10.000000
0
SEQEND
5
bc5
100
AcDbEntity
8
1
0
ENDSEC
0
SECTION
2
OBJECTS
0
DICTIONARY
5
bc6
100
AcDbDictionary
3
ACAD_GROUP
350
bc7
3
ACAD_MLINESTYLE
350
bc8
0
DICTIONARY
5
bc7
102
{ACAD_REACTORS
330
bc6
102
}
100
AcDbDictionary
0
DICTIONARY
5
bc8
102
{ACAD_REACTORS
330
bc6
102
}
100
AcDbDictionary
3
STANDARD
350
bc9
0
MLINESTYLE
5
bc9
102
{ACAD_REACTORS
330
bc8
102
}
100
AcDbMlineStyle
2
STANDARD
70
0
3

62
0
51
90.0
52
90.0
71
2
49
0.5
62
256
6
BYLAYER
49
-0.5
62
256
6
BYLAYER
0
ENDSEC
0
EOF
