0
SECTION
2
HEADER
9
$ACADVER
1
AC1012
9
$EXTMIN
10
-0.010000
20
-0.010000
30
0.0
9
$EXTMAX
10
13.390000
20
14.180000
30
0.0
9
$LIMMIN
10
-0.254000
20
-0.254000
9
$LIMMAX
10
340.106000
20
360.172000
9
$DIMSCALE
40
1.000000
9
$PDMODE
70
2
9
$PDSIZE
40
0.0
  9
$HANDSEED
  5
5f6
0
ENDSEC
0
SECTION
2
CLASSES
0
ENDSEC
0
SECTION
2
TABLES
0
TABLE
2
LTYPE
5
1e
100
AcDbSymbolTable
70
12
0
LTYPE
5
1f
100
AcDbSymbolTableRecord
100
AcDbLinetypeTableRecord
2
BYBLOCK
70
0
3

72
65
73
0
40
0.0
0
LTYPE
5
20
100
AcDbSymbolTableRecord
100
AcDbLinetypeTableRecord
2
BYLAYER
70
0
3

72
65
73
0
40
0.0
0
LTYPE
5
21
100
AcDbSymbolTableRecord
100
AcDbLinetypeTableRecord
2
CONTINUOUS
70
64
3
Solid line
72
65
73
0
40
0.0
0
LTYPE
5
22
100
AcDbSymbolTableRecord
100
AcDbLinetypeTableRecord
2
DASHED
70
64
3
__ __ __ __ __ __ __ __ __ __ __ __ __ __ __
72
65
73
2
40
0.75
49
0.5
74
0
49
-0.25
74
0
0
LTYPE
5
23
100
AcDbSymbolTableRecord
100
AcDbLinetypeTableRecord
2
DOT
70
64
3
...............................................
72
65
73
2
40
0.25
49
0.0
74
0
49
-0.25
74
0
0
LTYPE
5
24
100
AcDbSymbolTableRecord
100
AcDbLinetypeTableRecord
2
DASHDOT
70
64
3
__ . __ . __ . __ . __ . __ . __ . __ . __ . --
72
65
73
4
40
1.0
49
0.5
74
0
49
-0.25
74
0
49
0.0
74
0
49
-0.25
74
0
0
LTYPE
5
25
100
AcDbSymbolTableRecord
100
AcDbLinetypeTableRecord
2
CENTER
70
64
3
____ _ ____ _ ____ _ ____ _ ____ _ ____ _ ____
72
65
73
4
40
2.0
49
1.25
74
0
49
-0.25
74
0
49
0.25
74
0
49
-0.25
74
0
0
LTYPE
5
26
100
AcDbSymbolTableRecord
100
AcDbLinetypeTableRecord
2
PHANTOM
70
64
3
_____ _ _ _____ _ _ _____ _ _ _____ _ _ ____
72
65
73
6
40
2.5
49
1.25
74
0
49
-0.25
74
0
49
0.25
74
0
49
-0.25
74
0
49
0.25
74
0
49
-0.25
74
0
0
LTYPE
5
27
100
AcDbSymbolTableRecord
100
AcDbLinetypeTableRecord
2
HIDDEN
70
64
3
_ _ _ _ _ _ _ _ _ _ _ _ _ _ _ _ _ _ _ _ _ _ _
72
65
73
2
40
0.375
49
0.25
74
0
49
-0.125
74
0
0
LTYPE
5
28
100
AcDbSymbolTableRecord
100
AcDbLinetypeTableRecord
2
BORDER
70
64
3
__ __ . __ __ . __ __ . __ __ . __ __ . __ __
72
65
73
6
40
1.75
49
0.5
74
0
49
-0.25
74
0
49
0.5
74
0
49
-0.25
74
0
49
0.0
74
0
49
-0.25
74
0
0
LTYPE
5
29
100
AcDbSymbolTableRecord
100
AcDbLinetypeTableRecord
2
DIVIDE
70
64
3
__ . . __ . . __ . . __ . . __ . . __ . . __
72
65
73
6
40
1.25
49
0.5
74
0
49
-0.25
74
0
49
0.0
74
0
49
-0.25
74
0
49
0.0
74
0
49
-0.25
74
0
0
LTYPE
5
2a
100
AcDbSymbolTableRecord
100
AcDbLinetypeTableRecord
2
DOT2
70
64
3
...............................................
72
65
73
2
40
0.125
49
0.0
74
0
49
-0.125
74
0
0
ENDTAB
0
TABLE
2
STYLE
5
2b
100
AcDbSymbolTable
70
1
0
STYLE
5
2c
100
AcDbSymbolTableRecord
100
AcDbTextStyleTableRecord
2
STANDARD
70
64
40
0.0
41
1.0
50
0.0
71
0
42
5.0
3
txt
4
bigfont
0
ENDTAB
0
TABLE
2
LAYER
5
2d
100
AcDbSymbolTable
70
3
0
LAYER
5
2e
100
AcDbSymbolTableRecord
100
AcDbLayerTableRecord
2
0
70
0
62
7
6
CONTINUOUS
0
LAYER
5
2f
100
AcDbSymbolTableRecord
100
AcDbLayerTableRecord
2
1
70
0
62
7
6
CONTINUOUS
0
LAYER
5
30
100
AcDbSymbolTableRecord
100
AcDbLayerTableRecord
2
0
70
0
62
7
6
CONTINUOUS
0
ENDTAB
0
TABLE
2
APPID
5
31
100
AcDbSymbolTable
70
1
0
APPID
5
32
100
AcDbSymbolTableRecord
100
AcDbRegAppTableRecord
2
ACAD
70
64
0
ENDTAB
0
TABLE
2
DIMSTYLE
5
33
100
AcDbSymbolTable
70
0
0
ENDTAB
0
TABLE
2
UCS
5
34
100
AcDbSymbolTable
70
0
0
ENDTAB
0
TABLE
2
VIEW
5
35
100
AcDbSymbolTable
70
0
0
ENDTAB
0
TABLE
2
VPORT
5
36
100
AcDbSymbolTable
70
0
0
ENDTAB
0
TABLE
2
BLOCK_RECORD
5
37
100
AcDbSymbolTable
70
0
0
BLOCK_RECORD
5
38
100
AcDbSymbolTableRecord
100
AcDbBlockTableRecord
2
*MODEL_SPACE
0
BLOCK_RECORD
5
39
100
AcDbSymbolTableRecord
100
AcDbBlockTableRecord
2
*PAPER_SPACE
0
BLOCK_RECORD
5
3a
100
AcDbSymbolTableRecord
100
AcDbBlockTableRecord
2
OPEN
0
BLOCK_RECORD
5
3b
100
AcDbSymbolTableRecord
100
AcDbBlockTableRecord
2
HALF
0
BLOCK_RECORD
5
3c
100
AcDbSymbolTableRecord
100
AcDbBlockTableRecord
2
CLOSEDBLANK
0
BLOCK_RECORD
5
3d
100
AcDbSymbolTableRecord
100
AcDbBlockTableRecord
2
HALFCLOSE_R
0
BLOCK_RECORD
5
3e
100
AcDbSymbolTableRecord
100
AcDbBlockTableRecord
2
DOT
0
BLOCK_RECORD
5
3f
100
AcDbSymbolTableRecord
100
AcDbBlockTableRecord
2
HALFOPEN_R
0
BLOCK_RECORD
5
40
100
AcDbSymbolTableRecord
100
AcDbBlockTableRecord
2
CLOSEDF
0
BLOCK_RECORD
5
41
100
AcDbSymbolTableRecord
100
AcDbBlockTableRecord
2
HALF_R
0
ENDTAB
0
ENDSEC
0
SECTION
2
BLOCKS
0
BLOCK
5
42
100
AcDbEntity
8
0
100
AcDbBlockBegin
2
*MODEL_SPACE
70
0
10
0.0
20
0.0
30
0.0
3
*MODEL_SPACE
1

0
ENDBLK
5
43
100
AcDbEntity
8
0
100
AcDbBlockEnd
0
BLOCK
5
44
100
AcDbEntity
67
1
8
0
100
AcDbBlockBegin
2
*PAPER_SPACE
70
0
10
0.0
20
0.0
30
0.0
3
*PAPER_SPACE
1

0
ENDBLK
5
45
100
AcDbEntity
67
1
8
0
100
AcDbBlockEnd
0
BLOCK
5
46
100
AcDbEntity
8
0
100
AcDbBlockBegin
2
OPEN
70
0
10
0.0
20
0.0
30
0.0
3
OPEN
1

0
LINE
5
47
100
AcDbEntity
8
0
6
BYBLOCK
62
0
100
AcDbLine
10
0.000000
20
0.000000
11
-1.000000
21
0.000000
0
LINE
5
48
100
AcDbEntity
8
0
6
BYBLOCK
62
0
100
AcDbLine
10
-1.000000
20
-0.166667
11
0.000000
21
0.000000
0
LINE
5
49
100
AcDbEntity
8
0
6
BYBLOCK
62
0
100
AcDbLine
10
-1.000000
20
0.166667
11
0.000000
21
0.000000
0
ENDBLK
5
4a
100
AcDbEntity
8
0
100
AcDbBlockEnd
0
BLOCK
5
4b
100
AcDbEntity
8
0
100
AcDbBlockBegin
2
HALF
70
0
10
0.0
20
0.0
30
0.0
3
HALF
1

0
SOLID
5
4c
100
AcDbEntity
8
0
6
BYBLOCK
62
0
100
AcDbTrace
10
-1.000000
20
0.166667
11
-1.000000
21
-0.166667
12
0.000000
22
0.000000
13
0.000000
23
0.000000
0
ENDBLK
5
4d
100
AcDbEntity
8
0
100
AcDbBlockEnd
0
BLOCK
5
4e
100
AcDbEntity
8
0
100
AcDbBlockBegin
2
CLOSEDBLANK
70
0
10
0.0
20
0.0
30
0.0
3
CLOSEDBLANK
1

0
LINE
5
4f
100
AcDbEntity
8
0
6
BYBLOCK
62
0
100
AcDbLine
10
-1.000000
20
0.166667
11
-1.000000
21
-0.166667
0
LINE
5
50
100
AcDbEntity
8
0
6
BYBLOCK
62
0
100
AcDbLine
10
0.000000
20
0.000000
11
-1.000000
21
-0.166667
0
LINE
5
51
100
AcDbEntity
8
0
6
BYBLOCK
62
0
100
AcDbLine
10
-1.000000
20
0.166667
11
0.000000
21
0.000000
0
ENDBLK
5
52
100
AcDbEntity
8
0
100
AcDbBlockEnd
0
BLOCK
5
53
100
AcDbEntity
8
0
100
AcDbBlockBegin
2
HALFCLOSE_R
70
0
10
0.0
20
0.0
30
0.0
3
HALFCLOSE_R
1

0
LINE
5
54
100
AcDbEntity
8
0
6
BYBLOCK
62
0
100
AcDbLine
10
-1.000000
20
-0.166667
11
-1.000000
21
0.000000
0
LINE
5
55
100
AcDbEntity
8
0
6
BYBLOCK
62
0
100
AcDbLine
10
-1.000000
20
-0.166667
11
0.000000
21
0.000000
0
LINE
5
56
100
AcDbEntity
8
0
6
BYBLOCK
62
0
100
AcDbLine
10
0.000000
20
0.000000
11
-1.000000
21
0.000000
0
ENDBLK
5
57
100
AcDbEntity
8
0
100
AcDbBlockEnd
0
BLOCK
5
58
100
AcDbEntity
8
0
100
AcDbBlockBegin
2
DOT
70
0
10
0.0
20
0.0
30
0.0
3
DOT
1

0
LINE
5
59
100
AcDbEntity
8
0
6
BYBLOCK
62
0
100
AcDbLine
10
0.000000
20
0.000000
11
-1.000000
21
0.000000
0
POLYLINE
5
5a
100
AcDbEntity
8
0
6
BYBLOCK
62
0
100
AcDb2dPolyline
66
1
10
0.0
20
0.0
30
0.0
70
1
40
0.166667
41
0.166667
0
VERTEX
5
5b
100
AcDbEntity
8
0
100
AcDbVertex
100
AcDb2dVertex
62
10
10
-0.083333
20
0.000000
42
1.000000
0
VERTEX
5
5c
100
AcDbEntity
8
0
100
AcDbVertex
100
AcDb2dVertex
62
10
10
0.083333
20
0.000000
42
1.000000
0
SEQEND
5
5d
100
AcDbEntity
8
0
0
ENDBLK
5
5e
100
AcDbEntity
8
0
100
AcDbBlockEnd
0
BLOCK
5
5f
100
AcDbEntity
8
0
100
AcDbBlockBegin
2
HALFOPEN_R
70
0
10
0.0
20
0.0
30
0.0
3
HALFOPEN_R
1

0
LINE
5
60
100
AcDbEntity
8
0
6
BYBLOCK
62
0
100
AcDbLine
10
-1.000000
20
-0.166667
11
0.000000
21
0.000000
0
LINE
5
61
100
AcDbEntity
8
0
6
BYBLOCK
62
0
100
AcDbLine
10
0.000000
20
0.000000
11
-1.000000
21
0.000000
0
ENDBLK
5
62
100
AcDbEntity
8
0
100
AcDbBlockEnd
0
BLOCK
5
63
100
AcDbEntity
8
0
100
AcDbBlockBegin
2
CLOSEDF
70
0
10
0.0
20
0.0
30
0.0
3
CLOSEDF
1

0
SOLID
5
64
100
AcDbEntity
8
0
6
BYBLOCK
62
0
100
AcDbTrace
10
-1.000000
20
0.166667
11
-1.000000
21
-0.166667
12
0.000000
22
0.000000
13
0.000000
23
0.000000
0
ENDBLK
5
65
100
AcDbEntity
8
0
100
AcDbBlockEnd
0
BLOCK
5
66
100
AcDbEntity
8
0
100
AcDbBlockBegin
2
HALF_R
70
0
10
0.0
20
0.0
30
0.0
3
HALF_R
1

0
SOLID
5
67
100
AcDbEntity
8
0
6
BYBLOCK
62
0
100
AcDbTrace
10
-1.000000
20
-0.166667
11
-1.000000
21
0.000000
12
0.000000
22
0.000000
13
0.000000
23
0.000000
0
ENDBLK
5
68
100
AcDbEntity
8
0
100
AcDbBlockEnd
0
ENDSEC
0
SECTION
2
ENTITIES
0
LINE
5
69
100
AcDbEntity
8
1
100
AcDbLine
6
CONTINUOUS
62
5
10
172.187500
20
339.000000
11
173.437500
21
338.062500
0
POLYLINE
5
6a
100
AcDbEntity
8
1
6
CONTINUOUS
62
5
100
AcDb2dPolyline
66
1
10
0.0
20
0.0
30
0.0
70
0
0
VERTEX
5
6b
100
AcDbEntity
8
1
100
AcDbVertex
100
AcDb2dVertex
62
5
10
171.562500
20
335.250000
0
VERTEX
5
6c
100
AcDbEntity
8
1
100
AcDbVertex
100
AcDb2dVertex
62
5
10
173.125000
20
335.250000
0
VERTEX
5
6d
100
AcDbEntity
8
1
100
AcDbVertex
100
AcDb2dVertex
62
5
10
173.125000
20
332.125000
0
VERTEX
5
6e
100
AcDbEntity
8
1
100
AcDbVertex
100
AcDb2dVertex
62
5
10
171.562500
20
331.187500
0
SEQEND
5
6f
100
AcDbEntity
8
1
0
POLYLINE
5
70
100
AcDbEntity
8
1
6
CONTINUOUS
62
5
100
AcDb2dPolyline
66
1
10
0.0
20
0.0
30
0.0
70
0
0
VERTEX
5
71
100
AcDbEntity
8
1
100
AcDbVertex
100
AcDb2dVertex
62
5
10
173.125000
20
332.125000
0
VERTEX
5
72
100
AcDbEntity
8
1
100
AcDbVertex
100
AcDb2dVertex
62
5
10
174.375000
20
331.500000
0
VERTEX
5
73
100
AcDbEntity
8
1
100
AcDbVertex
100
AcDb2dVertex
62
5
10
180.312500
20
330.875000
0
SEQEND
5
74
100
AcDbEntity
8
1
0
LINE
5
75
100
AcDbEntity
8
1
100
AcDbLine
6
CONTINUOUS
62
5
10
174.375000
20
338.375000
11
180.312500
21
338.375000
0
LINE
5
76
100
AcDbEntity
8
1
100
AcDbLine
6
CONTINUOUS
62
5
10
177.500000
20
339.625000
11
177.500000
21
332.125000
0
POLYLINE
5
77
100
AcDbEntity
8
1
6
CONTINUOUS
62
5
100
AcDb2dPolyline
66
1
10
0.0
20
0.0
30
0.0
70
1
0
VERTEX
5
78
100
AcDbEntity
8
1
100
AcDbVertex
100
AcDb2dVertex
62
5
10
175.000000
20
337.125000
0
VERTEX
5
79
100
AcDbEntity
8
1
100
AcDbVertex
100
AcDb2dVertex
62
5
10
175.000000
20
334.625000
0
VERTEX
5
7a
100
AcDbEntity
8
1
100
AcDbVertex
100
AcDb2dVertex
62
5
10
179.687500
20
334.625000
0
VERTEX
5
7b
100
AcDbEntity
8
1
100
AcDbVertex
100
AcDb2dVertex
62
5
10
179.687500
20
337.125000
0
VERTEX
5
7c
100
AcDbEntity
8
1
100
AcDbVertex
100
AcDb2dVertex
62
5
10
175.000000
20
337.125000
0
SEQEND
5
7d
100
AcDbEntity
8
1
0
LINE
5
7e
100
AcDbEntity
8
1
100
AcDbLine
6
CONTINUOUS
62
5
10
175.000000
20
335.875000
11
179.687500
21
335.875000
0
LINE
5
7f
100
AcDbEntity
8
1
100
AcDbLine
6
CONTINUOUS
62
5
10
173.750000
20
333.375000
11
180.625000
21
333.375000
0
POLYLINE
5
80
100
AcDbEntity
8
1
6
CONTINUOUS
62
5
100
AcDb2dPolyline
66
1
10
0.0
20
0.0
30
0.0
70
0
0
VERTEX
5
81
100
AcDbEntity
8
1
100
AcDbVertex
100
AcDb2dVertex
62
5
10
183.125000
20
339.000000
0
VERTEX
5
82
100
AcDbEntity
8
1
100
AcDbVertex
100
AcDb2dVertex
62
5
10
183.125000
20
333.375000
0
VERTEX
5
83
100
AcDbEntity
8
1
100
AcDbVertex
100
AcDb2dVertex
62
5
10
182.500000
20
332.125000
0
VERTEX
5
84
100
AcDbEntity
8
1
100
AcDbVertex
100
AcDb2dVertex
62
5
10
181.875000
20
331.187500
0
SEQEND
5
85
100
AcDbEntity
8
1
0
POLYLINE
5
86
100
AcDbEntity
8
1
6
CONTINUOUS
62
5
100
AcDb2dPolyline
66
1
10
0.0
20
0.0
30
0.0
70
0
0
VERTEX
5
87
100
AcDbEntity
8
1
100
AcDbVertex
100
AcDb2dVertex
62
5
10
188.125000
20
331.500000
0
VERTEX
5
88
100
AcDbEntity
8
1
100
AcDbVertex
100
AcDb2dVertex
62
5
10
189.375000
20
330.875000
0
VERTEX
5
89
100
AcDbEntity
8
1
100
AcDbVertex
100
AcDb2dVertex
62
5
10
189.375000
20
339.000000
0
VERTEX
5
8a
100
AcDbEntity
8
1
100
AcDbVertex
100
AcDb2dVertex
62
5
10
183.125000
20
339.000000
0
SEQEND
5
8b
100
AcDbEntity
8
1
0
LINE
5
8c
100
AcDbEntity
8
1
100
AcDbLine
6
CONTINUOUS
62
5
10
183.125000
20
336.500000
11
189.375000
21
336.500000
0
LINE
5
8d
100
AcDbEntity
8
1
100
AcDbLine
6
CONTINUOUS
62
5
10
186.250000
20
339.000000
11
186.250000
21
330.875000
0
LINE
5
8e
100
AcDbEntity
8
1
100
AcDbLine
6
CONTINUOUS
62
5
10
183.125000
20
334.000000
11
189.375000
21
334.000000
0
POLYLINE
5
8f
100
AcDbEntity
8
1
6
DOT2
62
5
100
AcDb2dPolyline
66
1
10
0.0
20
0.0
30
0.0
70
0
0
VERTEX
5
90
100
AcDbEntity
8
1
100
AcDbVertex
100
AcDb2dVertex
62
5
10
229.250000
20
252.375000
0
VERTEX
5
91
100
AcDbEntity
8
1
100
AcDbVertex
100
AcDb2dVertex
62
5
10
229.562500
20
253.625000
0
VERTEX
5
92
100
AcDbEntity
8
1
100
AcDbVertex
100
AcDb2dVertex
62
5
10
230.187500
20
254.250000
0
VERTEX
5
93
100
AcDbEntity
8
1
100
AcDbVertex
100
AcDb2dVertex
62
5
10
231.125000
20
254.250000
0
VERTEX
5
94
100
AcDbEntity
8
1
100
AcDbVertex
100
AcDb2dVertex
62
5
10
231.750000
20
253.937500
0
VERTEX
5
95
100
AcDbEntity
8
1
100
AcDbVertex
100
AcDb2dVertex
62
5
10
232.062500
20
253.000000
0
VERTEX
5
96
100
AcDbEntity
8
1
100
AcDbVertex
100
AcDb2dVertex
62
5
10
232.062500
20
251.750000
0
VERTEX
5
97
100
AcDbEntity
8
1
100
AcDbVertex
100
AcDb2dVertex
62
5
10
231.750000
20
251.125000
0
VERTEX
5
98
100
AcDbEntity
8
1
100
AcDbVertex
100
AcDb2dVertex
62
5
10
231.125000
20
250.500000
0
VERTEX
5
99
100
AcDbEntity
8
1
100
AcDbVertex
100
AcDb2dVertex
62
5
10
230.187500
20
250.500000
0
SEQEND
5
9a
100
AcDbEntity
8
1
0
POLYLINE
5
9b
100
AcDbEntity
8
1
6
DOT2
62
5
100
AcDb2dPolyline
66
1
10
0.0
20
0.0
30
0.0
70
0
0
VERTEX
5
9c
100
AcDbEntity
8
1
100
AcDbVertex
100
AcDb2dVertex
62
5
10
231.125000
20
250.500000
0
VERTEX
5
9d
100
AcDbEntity
8
1
100
AcDbVertex
100
AcDb2dVertex
62
5
10
232.062500
20
249.875000
0
VERTEX
5
9e
100
AcDbEntity
8
1
100
AcDbVertex
100
AcDb2dVertex
62
5
10
232.375000
20
248.937500
0
VERTEX
5
9f
100
AcDbEntity
8
1
100
AcDbVertex
100
AcDb2dVertex
62
5
10
232.375000
20
248.000000
0
VERTEX
5
a0
100
AcDbEntity
8
1
100
AcDbVertex
100
AcDb2dVertex
62
5
10
232.062500
20
247.375000
0
VERTEX
5
a1
100
AcDbEntity
8
1
100
AcDbVertex
100
AcDb2dVertex
62
5
10
231.125000
20
246.750000
0
VERTEX
5
a2
100
AcDbEntity
8
1
100
AcDbVertex
100
AcDb2dVertex
62
5
10
230.187500
20
246.750000
0
VERTEX
5
a3
100
AcDbEntity
8
1
100
AcDbVertex
100
AcDb2dVertex
62
5
10
229.562500
20
247.062500
0
VERTEX
5
a4
100
AcDbEntity
8
1
100
AcDbVertex
100
AcDb2dVertex
62
5
10
228.937500
20
248.000000
0
SEQEND
5
a5
100
AcDbEntity
8
1
0
POLYLINE
5
a6
100
AcDbEntity
8
1
6
DOT2
62
5
100
AcDb2dPolyline
66
1
10
0.0
20
0.0
30
0.0
70
0
0
VERTEX
5
a7
100
AcDbEntity
8
1
100
AcDbVertex
100
AcDb2dVertex
62
5
10
234.250000
20
252.375000
0
VERTEX
5
a8
100
AcDbEntity
8
1
100
AcDbVertex
100
AcDb2dVertex
62
5
10
234.562500
20
253.625000
0
VERTEX
5
a9
100
AcDbEntity
8
1
100
AcDbVertex
100
AcDb2dVertex
62
5
10
235.187500
20
254.250000
0
VERTEX
5
aa
100
AcDbEntity
8
1
100
AcDbVertex
100
AcDb2dVertex
62
5
10
236.125000
20
254.250000
0
VERTEX
5
ab
100
AcDbEntity
8
1
100
AcDbVertex
100
AcDb2dVertex
62
5
10
236.750000
20
253.937500
0
VERTEX
5
ac
100
AcDbEntity
8
1
100
AcDbVertex
100
AcDb2dVertex
62
5
10
237.062500
20
253.000000
0
VERTEX
5
ad
100
AcDbEntity
8
1
100
AcDbVertex
100
AcDb2dVertex
62
5
10
237.062500
20
251.750000
0
VERTEX
5
ae
100
AcDbEntity
8
1
100
AcDbVertex
100
AcDb2dVertex
62
5
10
236.750000
20
251.125000
0
VERTEX
5
af
100
AcDbEntity
8
1
100
AcDbVertex
100
AcDb2dVertex
62
5
10
236.125000
20
250.500000
0
VERTEX
5
b0
100
AcDbEntity
8
1
100
AcDbVertex
100
AcDb2dVertex
62
5
10
235.187500
20
250.500000
0
SEQEND
5
b1
100
AcDbEntity
8
1
0
POLYLINE
5
b2
100
AcDbEntity
8
1
6
DOT2
62
5
100
AcDb2dPolyline
66
1
10
0.0
20
0.0
30
0.0
70
0
0
VERTEX
5
b3
100
AcDbEntity
8
1
100
AcDbVertex
100
AcDb2dVertex
62
5
10
236.125000
20
250.500000
0
VERTEX
5
b4
100
AcDbEntity
8
1
100
AcDbVertex
100
AcDb2dVertex
62
5
10
237.062500
20
249.875000
0
VERTEX
5
b5
100
AcDbEntity
8
1
100
AcDbVertex
100
AcDb2dVertex
62
5
10
237.375000
20
248.937500
0
VERTEX
5
b6
100
AcDbEntity
8
1
100
AcDbVertex
100
AcDb2dVertex
62
5
10
237.375000
20
248.000000
0
VERTEX
5
b7
100
AcDbEntity
8
1
100
AcDbVertex
100
AcDb2dVertex
62
5
10
237.062500
20
247.375000
0
VERTEX
5
b8
100
AcDbEntity
8
1
100
AcDbVertex
100
AcDb2dVertex
62
5
10
236.125000
20
246.750000
0
VERTEX
5
b9
100
AcDbEntity
8
1
100
AcDbVertex
100
AcDb2dVertex
62
5
10
235.187500
20
246.750000
0
VERTEX
5
ba
100
AcDbEntity
8
1
100
AcDbVertex
100
AcDb2dVertex
62
5
10
234.562500
20
247.062500
0
VERTEX
5
bb
100
AcDbEntity
8
1
100
AcDbVertex
100
AcDb2dVertex
62
5
10
233.937500
20
248.000000
0
SEQEND
5
bc
100
AcDbEntity
8
1
0
ARC
5
bd
100
AcDbEntity
8
1
100
AcDbCircle
6
CONTINUOUS
62
5
10
215.500000
20
209.486304
40
0.500000
100
AcDbArc
50
-179.999998
51
-91.591139
0
LINE
5
be
100
AcDbEntity
8
1
100
AcDbLine
6
CONTINUOUS
62
5
10
215.000000
20
209.486304
11
215.000000
21
212.082223
0
ARC
5
bf
100
AcDbEntity
8
1
100
AcDbCircle
6
CONTINUOUS
62
5
10
215.500000
20
212.082223
40
0.500000
100
AcDbArc
50
93.814074
51
-179.999998
0
LINE
5
c0
100
AcDbEntity
8
1
100
AcDbLine
6
CONTINUOUS
62
5
10
215.466740
20
212.581116
11
216.500000
21
212.650000
0
LINE
5
c1
100
AcDbEntity
8
1
100
AcDbLine
6
CONTINUOUS
62
5
10
216.500000
20
208.958333
11
215.486116
21
208.986497
0
LINE
5
c2
100
AcDbEntity
8
1
100
AcDbLine
6
CONTINUOUS
62
5
10
216.500000
20
221.500000
11
216.500000
21
247.500000
0
LINE
5
c3
100
AcDbEntity
8
1
100
AcDbLine
6
CONTINUOUS
62
5
10
249.500000
20
222.000000
11
249.500000
21
247.500000
0
POLYLINE
5
c4
100
AcDbEntity
8
1
6
CONTINUOUS
62
5
100
AcDb2dPolyline
66
1
10
0.0
20
0.0
30
0.0
70
0
0
VERTEX
5
c5
100
AcDbEntity
8
1
100
AcDbVertex
100
AcDb2dVertex
62
5
10
233.000000
20
245.500000
0
VERTEX
5
c6
100
AcDbEntity
8
1
100
AcDbVertex
100
AcDb2dVertex
62
5
10
216.500000
20
245.500000
0
VERTEX
5
c7
100
AcDbEntity
8
1
100
AcDbVertex
100
AcDb2dVertex
62
5
10
222.500000
20
246.500000
0
VERTEX
5
c8
100
AcDbEntity
8
1
100
AcDbVertex
100
AcDb2dVertex
62
5
10
222.500000
20
244.500000
0
VERTEX
5
c9
100
AcDbEntity
8
1
100
AcDbVertex
100
AcDb2dVertex
62
5
10
216.500000
20
245.500000
0
VERTEX
5
ca
100
AcDbEntity
8
1
100
AcDbVertex
100
AcDb2dVertex
62
5
10
222.500000
20
246.000000
0
VERTEX
5
cb
100
AcDbEntity
8
1
100
AcDbVertex
100
AcDb2dVertex
62
5
10
222.500000
20
245.000000
0
VERTEX
5
cc
100
AcDbEntity
8
1
100
AcDbVertex
100
AcDb2dVertex
62
5
10
216.500000
20
245.500000
0
SEQEND
5
cd
100
AcDbEntity
8
1
0
POLYLINE
5
ce
100
AcDbEntity
8
1
6
CONTINUOUS
62
5
100
AcDb2dPolyline
66
1
10
0.0
20
0.0
30
0.0
70
0
0
VERTEX
5
cf
100
AcDbEntity
8
1
100
AcDbVertex
100
AcDb2dVertex
62
5
10
233.000000
20
245.500000
0
VERTEX
5
d0
100
AcDbEntity
8
1
100
AcDbVertex
100
AcDb2dVertex
62
5
10
249.500000
20
245.500000
0
VERTEX
5
d1
100
AcDbEntity
8
1
100
AcDbVertex
100
AcDb2dVertex
62
5
10
243.500000
20
244.500000
0
VERTEX
5
d2
100
AcDbEntity
8
1
100
AcDbVertex
100
AcDb2dVertex
62
5
10
243.500000
20
246.500000
0
VERTEX
5
d3
100
AcDbEntity
8
1
100
AcDbVertex
100
AcDb2dVertex
62
5
10
249.500000
20
245.500000
0
VERTEX
5
d4
100
AcDbEntity
8
1
100
AcDbVertex
100
AcDb2dVertex
62
5
10
243.500000
20
245.000000
0
VERTEX
5
d5
100
AcDbEntity
8
1
100
AcDbVertex
100
AcDb2dVertex
62
5
10
243.500000
20
246.000000
0
VERTEX
5
d6
100
AcDbEntity
8
1
100
AcDbVertex
100
AcDb2dVertex
62
5
10
249.500000
20
245.500000
0
SEQEND
5
d7
100
AcDbEntity
8
1
0
LINE
5
d8
100
AcDbEntity
8
1
100
AcDbLine
6
CONTINUOUS
62
5
10
129.062500
20
335.562500
11
129.375000
21
334.312500
0
LINE
5
d9
100
AcDbEntity
8
1
100
AcDbLine
6
CONTINUOUS
62
5
10
130.937500
20
335.875000
11
131.250000
21
334.625000
0
POLYLINE
5
da
100
AcDbEntity
8
1
6
CONTINUOUS
62
5
100
AcDb2dPolyline
66
1
10
0.0
20
0.0
30
0.0
70
0
0
VERTEX
5
db
100
AcDbEntity
8
1
100
AcDbVertex
100
AcDb2dVertex
62
5
10
133.437500
20
335.875000
0
VERTEX
5
dc
100
AcDbEntity
8
1
100
AcDbVertex
100
AcDb2dVertex
62
5
10
133.125000
20
334.312500
0
VERTEX
5
dd
100
AcDbEntity
8
1
100
AcDbVertex
100
AcDb2dVertex
62
5
10
131.562500
20
332.437500
0
VERTEX
5
de
100
AcDbEntity
8
1
100
AcDbVertex
100
AcDb2dVertex
62
5
10
130.312500
20
331.500000
0
SEQEND
5
df
100
AcDbEntity
8
1
0
POLYLINE
5
e0
100
AcDbEntity
8
1
6
CONTINUOUS
62
5
100
AcDb2dPolyline
66
1
10
0.0
20
0.0
30
0.0
70
0
0
VERTEX
5
e1
100
AcDbEntity
8
1
100
AcDbVertex
100
AcDb2dVertex
62
5
10
138.437500
20
335.250000
0
VERTEX
5
e2
100
AcDbEntity
8
1
100
AcDbVertex
100
AcDb2dVertex
62
5
10
139.687500
20
336.500000
0
VERTEX
5
e3
100
AcDbEntity
8
1
100
AcDbVertex
100
AcDb2dVertex
62
5
10
140.312500
20
337.437500
0
VERTEX
5
e4
100
AcDbEntity
8
1
100
AcDbVertex
100
AcDb2dVertex
62
5
10
143.437500
20
337.437500
0
VERTEX
5
e5
100
AcDbEntity
8
1
100
AcDbVertex
100
AcDb2dVertex
62
5
10
143.437500
20
337.125000
0
VERTEX
5
e6
100
AcDbEntity
8
1
100
AcDbVertex
100
AcDb2dVertex
62
5
10
142.500000
20
335.250000
0
VERTEX
5
e7
100
AcDbEntity
8
1
100
AcDbVertex
100
AcDb2dVertex
62
5
10
140.937500
20
333.375000
0
VERTEX
5
e8
100
AcDbEntity
8
1
100
AcDbVertex
100
AcDb2dVertex
62
5
10
139.062500
20
331.812500
0
SEQEND
5
e9
100
AcDbEntity
8
1
0
POLYLINE
5
ea
100
AcDbEntity
8
1
6
CONTINUOUS
62
5
100
AcDb2dPolyline
66
1
10
0.0
20
0.0
30
0.0
70
0
0
VERTEX
5
eb
100
AcDbEntity
8
1
100
AcDbVertex
100
AcDb2dVertex
62
5
10
133.437500
20
328.687500
0
VERTEX
5
ec
100
AcDbEntity
8
1
100
AcDbVertex
100
AcDb2dVertex
62
5
10
130.937500
20
326.187500
0
VERTEX
5
ed
100
AcDbEntity
8
1
100
AcDbVertex
100
AcDb2dVertex
62
5
10
128.125000
20
324.625000
0
SEQEND
5
ee
100
AcDbEntity
8
1
0
LINE
5
ef
100
AcDbEntity
8
1
100
AcDbLine
6
CONTINUOUS
62
5
10
131.562500
20
326.812500
11
131.562500
21
321.500000
0
POLYLINE
5
f0
100
AcDbEntity
8
1
6
CONTINUOUS
62
5
100
AcDb2dPolyline
66
1
10
0.0
20
0.0
30
0.0
70
0
0
VERTEX
5
f1
100
AcDbEntity
8
1
100
AcDbVertex
100
AcDb2dVertex
62
5
10
140.312500
20
326.187500
0
VERTEX
5
f2
100
AcDbEntity
8
1
100
AcDbVertex
100
AcDb2dVertex
62
5
10
140.625000
20
326.187500
0
VERTEX
5
f3
100
AcDbEntity
8
1
100
AcDbVertex
100
AcDb2dVertex
62
5
10
142.812500
20
324.937500
0
SEQEND
5
f4
100
AcDbEntity
8
1
0
LINE
5
f5
100
AcDbEntity
8
1
100
AcDbLine
6
CONTINUOUS
62
5
10
140.312500
20
329.000000
11
140.312500
21
321.500000
0
POLYLINE
5
f6
100
AcDbEntity
8
1
6
CONTINUOUS
62
5
100
AcDb2dPolyline
66
1
10
0.0
20
0.0
30
0.0
70
0
0
VERTEX
5
f7
100
AcDbEntity
8
1
100
AcDbVertex
100
AcDb2dVertex
62
5
10
148.750000
20
337.125000
0
VERTEX
5
f8
100
AcDbEntity
8
1
100
AcDbVertex
100
AcDb2dVertex
62
5
10
152.812500
20
337.125000
0
VERTEX
5
f9
100
AcDbEntity
8
1
100
AcDbVertex
100
AcDb2dVertex
62
5
10
152.812500
20
336.812500
0
VERTEX
5
fa
100
AcDbEntity
8
1
100
AcDbVertex
100
AcDb2dVertex
62
5
10
152.187500
20
335.562500
0
VERTEX
5
fb
100
AcDbEntity
8
1
100
AcDbVertex
100
AcDb2dVertex
62
5
10
151.562500
20
334.625000
0
VERTEX
5
fc
100
AcDbEntity
8
1
100
AcDbVertex
100
AcDb2dVertex
62
5
10
150.312500
20
333.375000
0
VERTEX
5
fd
100
AcDbEntity
8
1
100
AcDbVertex
100
AcDb2dVertex
62
5
10
148.125000
20
331.812500
0
SEQEND
5
fe
100
AcDbEntity
8
1
0
LINE
5
ff
100
AcDbEntity
8
1
100
AcDbLine
6
CONTINUOUS
62
5
10
151.562500
20
334.625000
11
154.062500
21
331.812500
0
POLYLINE
5
100
100
AcDbEntity
8
1
6
CONTINUOUS
62
5
100
AcDb2dPolyline
66
1
10
0.0
20
0.0
30
0.0
70
0
0
VERTEX
5
101
100
AcDbEntity
8
1
100
AcDbVertex
100
AcDb2dVertex
62
5
10
150.312500
20
329.625000
0
VERTEX
5
102
100
AcDbEntity
8
1
100
AcDbVertex
100
AcDb2dVertex
62
5
10
149.375000
20
328.375000
0
VERTEX
5
103
100
AcDbEntity
8
1
100
AcDbVertex
100
AcDb2dVertex
62
5
10
148.437500
20
327.437500
0
VERTEX
5
104
100
AcDbEntity
8
1
100
AcDbVertex
100
AcDb2dVertex
62
5
10
147.187500
20
326.500000
0
SEQEND
5
105
100
AcDbEntity
8
1
0
POLYLINE
5
106
100
AcDbEntity
8
1
6
CONTINUOUS
62
5
100
AcDb2dPolyline
66
1
10
0.0
20
0.0
30
0.0
70
0
0
VERTEX
5
107
100
AcDbEntity
8
1
100
AcDbVertex
100
AcDb2dVertex
62
5
10
150.000000
20
329.000000
0
VERTEX
5
108
100
AcDbEntity
8
1
100
AcDbVertex
100
AcDb2dVertex
62
5
10
152.812500
20
329.000000
0
VERTEX
5
109
100
AcDbEntity
8
1
100
AcDbVertex
100
AcDb2dVertex
62
5
10
151.250000
20
327.125000
0
SEQEND
5
10a
100
AcDbEntity
8
1
0
POLYLINE
5
10b
100
AcDbEntity
8
1
6
CONTINUOUS
62
5
100
AcDb2dPolyline
66
1
10
0.0
20
0.0
30
0.0
70
0
0
VERTEX
5
10c
100
AcDbEntity
8
1
100
AcDbVertex
100
AcDb2dVertex
62
5
10
148.437500
20
327.125000
0
VERTEX
5
10d
100
AcDbEntity
8
1
100
AcDbVertex
100
AcDb2dVertex
62
5
10
154.062500
20
327.125000
0
VERTEX
5
10e
100
AcDbEntity
8
1
100
AcDbVertex
100
AcDb2dVertex
62
5
10
154.062500
20
324.312500
0
VERTEX
5
10f
100
AcDbEntity
8
1
100
AcDbVertex
100
AcDb2dVertex
62
5
10
148.437500
20
324.312500
0
SEQEND
5
110
100
AcDbEntity
8
1
0
LINE
5
111
100
AcDbEntity
8
1
100
AcDbLine
6
CONTINUOUS
62
5
10
151.250000
20
327.125000
11
151.250000
21
324.312500
0
POLYLINE
5
112
100
AcDbEntity
8
1
6
CONTINUOUS
62
5
100
AcDb2dPolyline
66
1
10
0.0
20
0.0
30
0.0
70
0
0
VERTEX
5
113
100
AcDbEntity
8
1
100
AcDbVertex
100
AcDb2dVertex
62
5
10
148.437500
20
327.125000
0
VERTEX
5
114
100
AcDbEntity
8
1
100
AcDbVertex
100
AcDb2dVertex
62
5
10
148.437500
20
321.812500
0
VERTEX
5
115
100
AcDbEntity
8
1
100
AcDbVertex
100
AcDb2dVertex
62
5
10
149.062500
20
321.187500
0
VERTEX
5
116
100
AcDbEntity
8
1
100
AcDbVertex
100
AcDb2dVertex
62
5
10
155.312500
20
321.187500
0
VERTEX
5
117
100
AcDbEntity
8
1
100
AcDbVertex
100
AcDb2dVertex
62
5
10
155.312500
20
322.437500
0
SEQEND
5
118
100
AcDbEntity
8
1
0
LINE
5
119
100
AcDbEntity
8
1
100
AcDbLine
6
CONTINUOUS
62
5
10
107.812500
20
326.187500
11
114.062500
21
326.187500
0
POLYLINE
5
11a
100
AcDbEntity
8
1
6
CONTINUOUS
62
5
100
AcDb2dPolyline
66
1
10
0.0
20
0.0
30
0.0
70
0
0
VERTEX
5
11b
100
AcDbEntity
8
1
100
AcDbVertex
100
AcDb2dVertex
62
5
10
110.937500
20
328.062500
0
VERTEX
5
11c
100
AcDbEntity
8
1
100
AcDbVertex
100
AcDb2dVertex
62
5
10
110.937500
20
321.812500
0
VERTEX
5
11d
100
AcDbEntity
8
1
100
AcDbVertex
100
AcDb2dVertex
62
5
10
110.312500
20
321.812500
0
SEQEND
5
11e
100
AcDbEntity
8
1
0
LINE
5
11f
100
AcDbEntity
8
1
100
AcDbLine
6
CONTINUOUS
62
5
10
109.375000
20
324.625000
11
107.812500
21
322.750000
0
LINE
5
120
100
AcDbEntity
8
1
100
AcDbLine
6
CONTINUOUS
62
5
10
112.812500
20
324.625000
11
114.375000
21
323.062500
0
POLYLINE
5
121
100
AcDbEntity
8
1
6
CONTINUOUS
62
5
100
AcDb2dPolyline
66
1
10
0.0
20
0.0
30
0.0
70
0
0
VERTEX
5
122
100
AcDbEntity
8
1
100
AcDbVertex
100
AcDb2dVertex
62
5
10
118.437500
20
325.562500
0
VERTEX
5
123
100
AcDbEntity
8
1
100
AcDbVertex
100
AcDb2dVertex
62
5
10
118.437500
20
327.750000
0
VERTEX
5
124
100
AcDbEntity
8
1
100
AcDbVertex
100
AcDb2dVertex
62
5
10
123.437500
20
327.750000
0
VERTEX
5
125
100
AcDbEntity
8
1
100
AcDbVertex
100
AcDb2dVertex
62
5
10
123.437500
20
326.812500
0
VERTEX
5
126
100
AcDbEntity
8
1
100
AcDbVertex
100
AcDb2dVertex
62
5
10
123.125000
20
325.250000
0
VERTEX
5
127
100
AcDbEntity
8
1
100
AcDbVertex
100
AcDb2dVertex
62
5
10
122.500000
20
324.000000
0
VERTEX
5
128
100
AcDbEntity
8
1
100
AcDbVertex
100
AcDb2dVertex
62
5
10
121.875000
20
323.062500
0
VERTEX
5
129
100
AcDbEntity
8
1
100
AcDbVertex
100
AcDb2dVertex
62
5
10
120.625000
20
321.812500
0
SEQEND
5
12a
100
AcDbEntity
8
1
0
POLYLINE
5
12b
100
AcDbEntity
8
1
6
CONTINUOUS
62
5
100
AcDb2dPolyline
66
1
10
0.0
20
0.0
30
0.0
70
0
0
VERTEX
5
12c
100
AcDbEntity
8
1
100
AcDbVertex
100
AcDb2dVertex
62
5
10
89.375000
20
325.562500
0
VERTEX
5
12d
100
AcDbEntity
8
1
100
AcDbVertex
100
AcDb2dVertex
62
5
10
91.875000
20
325.562500
0
VERTEX
5
12e
100
AcDbEntity
8
1
100
AcDbVertex
100
AcDb2dVertex
62
5
10
91.562500
20
322.437500
0
SEQEND
5
12f
100
AcDbEntity
8
1
0
LINE
5
130
100
AcDbEntity
8
1
100
AcDbLine
6
CONTINUOUS
62
5
10
88.437500
20
322.437500
11
93.750000
21
322.437500
0
POLYLINE
5
131
100
AcDbEntity
8
1
6
CONTINUOUS
62
5
100
AcDb2dPolyline
66
1
10
0.0
20
0.0
30
0.0
70
0
0
VERTEX
5
132
100
AcDbEntity
8
1
100
AcDbVertex
100
AcDb2dVertex
62
5
10
97.500000
20
327.437500
0
VERTEX
5
133
100
AcDbEntity
8
1
100
AcDbVertex
100
AcDb2dVertex
62
5
10
104.062500
20
327.437500
0
VERTEX
5
134
100
AcDbEntity
8
1
100
AcDbVertex
100
AcDb2dVertex
62
5
10
104.062500
20
327.125000
0
VERTEX
5
135
100
AcDbEntity
8
1
100
AcDbVertex
100
AcDb2dVertex
62
5
10
101.875000
20
325.250000
0
VERTEX
5
136
100
AcDbEntity
8
1
100
AcDbVertex
100
AcDb2dVertex
62
5
10
100.937500
20
325.250000
0
SEQEND
5
137
100
AcDbEntity
8
1
0
POLYLINE
5
138
100
AcDbEntity
8
1
6
CONTINUOUS
62
5
100
AcDb2dPolyline
66
1
10
0.0
20
0.0
30
0.0
70
0
0
VERTEX
5
139
100
AcDbEntity
8
1
100
AcDbVertex
100
AcDb2dVertex
62
5
10
100.937500
20
326.187500
0
VERTEX
5
13a
100
AcDbEntity
8
1
100
AcDbVertex
100
AcDb2dVertex
62
5
10
100.937500
20
324.625000
0
VERTEX
5
13b
100
AcDbEntity
8
1
100
AcDbVertex
100
AcDb2dVertex
62
5
10
100.000000
20
322.750000
0
VERTEX
5
13c
100
AcDbEntity
8
1
100
AcDbVertex
100
AcDb2dVertex
62
5
10
98.750000
20
321.500000
0
SEQEND
5
13d
100
AcDbEntity
8
1
0
LINE
5
13e
100
AcDbEntity
8
1
100
AcDbLine
6
CONTINUOUS
62
5
10
87.187500
20
339.000000
11
91.562500
21
339.000000
0
LINE
5
13f
100
AcDbEntity
8
1
100
AcDbLine
6
CONTINUOUS
62
5
10
86.875000
20
336.812500
11
91.875000
21
336.812500
0
POLYLINE
5
140
100
AcDbEntity
8
1
6
CONTINUOUS
62
5
100
AcDb2dPolyline
66
1
10
0.0
20
0.0
30
0.0
70
0
0
VERTEX
5
141
100
AcDbEntity
8
1
100
AcDbVertex
100
AcDb2dVertex
62
5
10
88.750000
20
339.000000
0
VERTEX
5
142
100
AcDbEntity
8
1
100
AcDbVertex
100
AcDb2dVertex
62
5
10
88.750000
20
336.187500
0
VERTEX
5
143
100
AcDbEntity
8
1
100
AcDbVertex
100
AcDb2dVertex
62
5
10
88.125000
20
335.250000
0
VERTEX
5
144
100
AcDbEntity
8
1
100
AcDbVertex
100
AcDb2dVertex
62
5
10
87.187500
20
334.312500
0
SEQEND
5
145
100
AcDbEntity
8
1
0
POLYLINE
5
146
100
AcDbEntity
8
1
6
CONTINUOUS
62
5
100
AcDb2dPolyline
66
1
10
0.0
20
0.0
30
0.0
70
0
0
VERTEX
5
147
100
AcDbEntity
8
1
100
AcDbVertex
100
AcDb2dVertex
62
5
10
90.000000
20
339.000000
0
VERTEX
5
148
100
AcDbEntity
8
1
100
AcDbVertex
100
AcDb2dVertex
62
5
10
90.000000
20
334.625000
0
VERTEX
5
149
100
AcDbEntity
8
1
100
AcDbVertex
100
AcDb2dVertex
62
5
10
90.000000
20
334.312500
0
SEQEND
5
14a
100
AcDbEntity
8
1
0
LINE
5
14b
100
AcDbEntity
8
1
100
AcDbLine
6
CONTINUOUS
62
5
10
94.375000
20
334.312500
11
93.750000
21
334.312500
0
LINE
5
14c
100
AcDbEntity
8
1
100
AcDbLine
6
CONTINUOUS
62
5
10
92.812500
20
338.687500
11
92.812500
21
335.562500
0
POLYLINE
5
14d
100
AcDbEntity
8
1
6
CONTINUOUS
62
5
100
AcDb2dPolyline
66
1
10
0.0
20
0.0
30
0.0
70
0
0
VERTEX
5
14e
100
AcDbEntity
8
1
100
AcDbVertex
100
AcDb2dVertex
62
5
10
95.000000
20
339.312500
0
VERTEX
5
14f
100
AcDbEntity
8
1
100
AcDbVertex
100
AcDb2dVertex
62
5
10
95.000000
20
334.937500
0
VERTEX
5
150
100
AcDbEntity
8
1
100
AcDbVertex
100
AcDb2dVertex
62
5
10
94.375000
20
334.312500
0
SEQEND
5
151
100
AcDbEntity
8
1
0
LINE
5
152
100
AcDbEntity
8
1
100
AcDbLine
6
CONTINUOUS
62
5
10
88.125000
20
333.375000
11
93.750000
21
333.375000
0
LINE
5
153
100
AcDbEntity
8
1
100
AcDbLine
6
CONTINUOUS
62
5
10
86.875000
20
331.187500
11
95.000000
21
331.187500
0
LINE
5
154
100
AcDbEntity
8
1
100
AcDbLine
6
CONTINUOUS
62
5
10
90.937500
20
334.312500
11
90.937500
21
331.187500
0
LINE
5
155
100
AcDbEntity
8
1
100
AcDbLine
6
CONTINUOUS
62
5
10
97.500000
20
339.312500
11
104.687500
21
339.312500
0
POLYLINE
5
156
100
AcDbEntity
8
1
6
CONTINUOUS
62
5
100
AcDb2dPolyline
66
1
10
0.0
20
0.0
30
0.0
70
0
0
VERTEX
5
157
100
AcDbEntity
8
1
100
AcDbVertex
100
AcDb2dVertex
62
5
10
97.187500
20
336.500000
0
VERTEX
5
158
100
AcDbEntity
8
1
100
AcDbVertex
100
AcDb2dVertex
62
5
10
97.187500
20
338.375000
0
VERTEX
5
159
100
AcDbEntity
8
1
100
AcDbVertex
100
AcDb2dVertex
62
5
10
105.312500
20
338.375000
0
VERTEX
5
15a
100
AcDbEntity
8
1
100
AcDbVertex
100
AcDb2dVertex
62
5
10
105.312500
20
336.500000
0
SEQEND
5
15b
100
AcDbEntity
8
1
0
LINE
5
15c
100
AcDbEntity
8
1
100
AcDbLine
6
CONTINUOUS
62
5
10
101.250000
20
339.312500
11
101.250000
21
335.875000
0
LINE
5
15d
100
AcDbEntity
8
1
100
AcDbLine
6
CONTINUOUS
62
5
10
98.125000
20
337.437500
11
100.312500
21
337.437500
0
LINE
5
15e
100
AcDbEntity
8
1
100
AcDbLine
6
CONTINUOUS
62
5
10
98.125000
20
336.500000
11
100.312500
21
336.500000
0
LINE
5
15f
100
AcDbEntity
8
1
100
AcDbLine
6
CONTINUOUS
62
5
10
102.187500
20
337.437500
11
104.375000
21
337.437500
0
LINE
5
160
100
AcDbEntity
8
1
100
AcDbLine
6
CONTINUOUS
62
5
10
102.187500
20
336.500000
11
104.375000
21
336.500000
0
POLYLINE
5
161
100
AcDbEntity
8
1
6
CONTINUOUS
62
5
100
AcDb2dPolyline
66
1
10
0.0
20
0.0
30
0.0
70
1
0
VERTEX
5
162
100
AcDbEntity
8
1
100
AcDbVertex
100
AcDb2dVertex
62
5
10
97.500000
20
335.250000
0
VERTEX
5
163
100
AcDbEntity
8
1
100
AcDbVertex
100
AcDb2dVertex
62
5
10
97.500000
20
334.000000
0
VERTEX
5
164
100
AcDbEntity
8
1
100
AcDbVertex
100
AcDb2dVertex
62
5
10
100.000000
20
334.000000
0
VERTEX
5
165
100
AcDbEntity
8
1
100
AcDbVertex
100
AcDb2dVertex
62
5
10
100.000000
20
335.250000
0
VERTEX
5
166
100
AcDbEntity
8
1
100
AcDbVertex
100
AcDb2dVertex
62
5
10
97.500000
20
335.250000
0
SEQEND
5
167
100
AcDbEntity
8
1
0
LINE
5
168
100
AcDbEntity
8
1
100
AcDbLine
6
CONTINUOUS
62
5
10
98.750000
20
334.000000
11
98.750000
21
331.500000
0
LINE
5
169
100
AcDbEntity
8
1
100
AcDbLine
6
CONTINUOUS
62
5
10
98.750000
20
333.062500
11
100.000000
21
333.062500
0
LINE
5
16a
100
AcDbEntity
8
1
100
AcDbLine
6
CONTINUOUS
62
5
10
97.500000
20
333.375000
11
97.500000
21
331.187500
0
LINE
5
16b
100
AcDbEntity
8
1
100
AcDbLine
6
CONTINUOUS
62
5
10
96.875000
20
330.875000
11
100.000000
21
331.812500
0
POLYLINE
5
16c
100
AcDbEntity
8
1
6
CONTINUOUS
62
5
100
AcDb2dPolyline
66
1
10
0.0
20
0.0
30
0.0
70
0
0
VERTEX
5
16d
100
AcDbEntity
8
1
100
AcDbVertex
100
AcDb2dVertex
62
5
10
102.500000
20
335.562500
0
VERTEX
5
16e
100
AcDbEntity
8
1
100
AcDbVertex
100
AcDb2dVertex
62
5
10
102.187500
20
334.937500
0
VERTEX
5
16f
100
AcDbEntity
8
1
100
AcDbVertex
100
AcDb2dVertex
62
5
10
101.562500
20
334.312500
0
VERTEX
5
170
100
AcDbEntity
8
1
100
AcDbVertex
100
AcDb2dVertex
62
5
10
100.937500
20
334.000000
0
SEQEND
5
171
100
AcDbEntity
8
1
0
POLYLINE
5
172
100
AcDbEntity
8
1
6
CONTINUOUS
62
5
100
AcDb2dPolyline
66
1
10
0.0
20
0.0
30
0.0
70
0
0
VERTEX
5
173
100
AcDbEntity
8
1
100
AcDbVertex
100
AcDb2dVertex
62
5
10
102.187500
20
334.937500
0
VERTEX
5
174
100
AcDbEntity
8
1
100
AcDbVertex
100
AcDb2dVertex
62
5
10
104.687500
20
334.937500
0
VERTEX
5
175
100
AcDbEntity
8
1
100
AcDbVertex
100
AcDb2dVertex
62
5
10
103.750000
20
334.000000
0
VERTEX
5
176
100
AcDbEntity
8
1
100
AcDbVertex
100
AcDb2dVertex
62
5
10
102.812500
20
333.375000
0
VERTEX
5
177
100
AcDbEntity
8
1
100
AcDbVertex
100
AcDb2dVertex
62
5
10
100.625000
20
332.750000
0
SEQEND
5
178
100
AcDbEntity
8
1
0
POLYLINE
5
179
100
AcDbEntity
8
1
6
CONTINUOUS
62
5
100
AcDb2dPolyline
66
1
10
0.0
20
0.0
30
0.0
70
0
0
VERTEX
5
17a
100
AcDbEntity
8
1
100
AcDbVertex
100
AcDb2dVertex
62
5
10
101.875000
20
334.625000
0
VERTEX
5
17b
100
AcDbEntity
8
1
100
AcDbVertex
100
AcDb2dVertex
62
5
10
102.500000
20
334.000000
0
VERTEX
5
17c
100
AcDbEntity
8
1
100
AcDbVertex
100
AcDb2dVertex
62
5
10
103.437500
20
333.375000
0
VERTEX
5
17d
100
AcDbEntity
8
1
100
AcDbVertex
100
AcDb2dVertex
62
5
10
105.625000
20
332.750000
0
SEQEND
5
17e
100
AcDbEntity
8
1
0
POLYLINE
5
17f
100
AcDbEntity
8
1
6
CONTINUOUS
62
5
100
AcDb2dPolyline
66
1
10
0.0
20
0.0
30
0.0
70
1
0
VERTEX
5
180
100
AcDbEntity
8
1
100
AcDbVertex
100
AcDb2dVertex
62
5
10
101.562500
20
332.750000
0
VERTEX
5
181
100
AcDbEntity
8
1
100
AcDbVertex
100
AcDb2dVertex
62
5
10
101.562500
20
331.187500
0
VERTEX
5
182
100
AcDbEntity
8
1
100
AcDbVertex
100
AcDb2dVertex
62
5
10
104.687500
20
331.187500
0
VERTEX
5
183
100
AcDbEntity
8
1
100
AcDbVertex
100
AcDb2dVertex
62
5
10
104.687500
20
332.750000
0
VERTEX
5
184
100
AcDbEntity
8
1
100
AcDbVertex
100
AcDb2dVertex
62
5
10
101.562500
20
332.750000
0
SEQEND
5
185
100
AcDbEntity
8
1
0
POLYLINE
5
186
100
AcDbEntity
8
1
6
CONTINUOUS
62
5
100
AcDb2dPolyline
66
1
10
0.0
20
0.0
30
0.0
70
0
0
VERTEX
5
187
100
AcDbEntity
8
1
100
AcDbVertex
100
AcDb2dVertex
62
5
10
108.125000
20
338.375000
0
VERTEX
5
188
100
AcDbEntity
8
1
100
AcDbVertex
100
AcDb2dVertex
62
5
10
108.125000
20
335.562500
0
VERTEX
5
189
100
AcDbEntity
8
1
100
AcDbVertex
100
AcDb2dVertex
62
5
10
113.750000
20
335.562500
0
VERTEX
5
18a
100
AcDbEntity
8
1
100
AcDbVertex
100
AcDb2dVertex
62
5
10
113.750000
20
338.375000
0
SEQEND
5
18b
100
AcDbEntity
8
1
0
LINE
5
18c
100
AcDbEntity
8
1
100
AcDbLine
6
CONTINUOUS
62
5
10
110.937500
20
339.625000
11
110.937500
21
330.875000
0
POLYLINE
5
18d
100
AcDbEntity
8
1
6
CONTINUOUS
62
5
100
AcDb2dPolyline
66
1
10
0.0
20
0.0
30
0.0
70
0
0
VERTEX
5
18e
100
AcDbEntity
8
1
100
AcDbVertex
100
AcDb2dVertex
62
5
10
107.500000
20
334.000000
0
VERTEX
5
18f
100
AcDbEntity
8
1
100
AcDbVertex
100
AcDb2dVertex
62
5
10
107.500000
20
330.875000
0
VERTEX
5
190
100
AcDbEntity
8
1
100
AcDbVertex
100
AcDb2dVertex
62
5
10
114.375000
20
330.875000
0
VERTEX
5
191
100
AcDbEntity
8
1
100
AcDbVertex
100
AcDb2dVertex
62
5
10
114.375000
20
334.000000
0
SEQEND
5
192
100
AcDbEntity
8
1
0
LINE
5
193
100
AcDbEntity
8
1
100
AcDbLine
6
CONTINUOUS
62
5
10
117.812500
20
336.187500
11
124.062500
21
336.187500
0
POLYLINE
5
194
100
AcDbEntity
8
1
6
CONTINUOUS
62
5
100
AcDb2dPolyline
66
1
10
0.0
20
0.0
30
0.0
70
0
0
VERTEX
5
195
100
AcDbEntity
8
1
100
AcDbVertex
100
AcDb2dVertex
62
5
10
120.937500
20
338.062500
0
VERTEX
5
196
100
AcDbEntity
8
1
100
AcDbVertex
100
AcDb2dVertex
62
5
10
120.937500
20
331.812500
0
VERTEX
5
197
100
AcDbEntity
8
1
100
AcDbVertex
100
AcDb2dVertex
62
5
10
120.312500
20
331.812500
0
SEQEND
5
198
100
AcDbEntity
8
1
0
LINE
5
199
100
AcDbEntity
8
1
100
AcDbLine
6
CONTINUOUS
62
5
10
119.062500
20
334.625000
11
117.812500
21
332.750000
0
LINE
5
19a
100
AcDbEntity
8
1
100
AcDbLine
6
CONTINUOUS
62
5
10
122.812500
20
334.625000
11
124.375000
21
333.062500
0
LINE
5
19b
100
AcDbEntity
8
1
100
AcDbLine
6
CONTINUOUS
62
5
10
122.812500
20
338.062500
11
123.750000
21
337.125000
0
LINE
5
19c
100
AcDbEntity
8
1
100
AcDbLine
6
CONTINUOUS
62
5
10
123.750000
20
339.000000
11
124.687500
21
338.062500
0
POLYLINE
5
19d
100
AcDbEntity
8
0
6
CONTINUOUS
62
5
100
AcDb2dPolyline
66
1
10
0.0
20
0.0
30
0.0
70
0
0
VERTEX
5
19e
100
AcDbEntity
8
0
100
AcDbVertex
100
AcDb2dVertex
62
5
10
88.125000
20
299.875000
0
VERTEX
5
19f
100
AcDbEntity
8
0
100
AcDbVertex
100
AcDb2dVertex
62
5
10
89.062500
20
300.500000
0
VERTEX
5
1a0
100
AcDbEntity
8
0
100
AcDbVertex
100
AcDb2dVertex
62
5
10
89.062500
20
293.000000
0
SEQEND
5
1a1
100
AcDbEntity
8
0
0
LINE
5
1a2
100
AcDbEntity
8
0
100
AcDbLine
6
CONTINUOUS
62
5
10
88.437500
20
293.000000
11
89.687500
21
293.000000
0
POLYLINE
5
1a3
100
AcDbEntity
8
0
6
CONTINUOUS
62
5
100
AcDb2dPolyline
66
1
10
0.0
20
0.0
30
0.0
70
0
0
VERTEX
5
1a4
100
AcDbEntity
8
0
100
AcDbVertex
100
AcDb2dVertex
62
5
10
95.625000
20
298.937500
0
VERTEX
5
1a5
100
AcDbEntity
8
0
100
AcDbVertex
100
AcDb2dVertex
62
5
10
95.000000
20
300.187500
0
VERTEX
5
1a6
100
AcDbEntity
8
0
100
AcDbVertex
100
AcDb2dVertex
62
5
10
94.062500
20
300.500000
0
VERTEX
5
1a7
100
AcDbEntity
8
0
100
AcDbVertex
100
AcDb2dVertex
62
5
10
93.437500
20
300.500000
0
VERTEX
5
1a8
100
AcDbEntity
8
0
100
AcDbVertex
100
AcDb2dVertex
62
5
10
92.812500
20
300.187500
0
VERTEX
5
1a9
100
AcDbEntity
8
0
100
AcDbVertex
100
AcDb2dVertex
62
5
10
92.187500
20
299.250000
0
VERTEX
5
1aa
100
AcDbEntity
8
0
100
AcDbVertex
100
AcDb2dVertex
62
5
10
92.187500
20
298.312500
0
VERTEX
5
1ab
100
AcDbEntity
8
0
100
AcDbVertex
100
AcDb2dVertex
62
5
10
92.812500
20
297.375000
0
VERTEX
5
1ac
100
AcDbEntity
8
0
100
AcDbVertex
100
AcDb2dVertex
62
5
10
95.000000
20
296.125000
0
VERTEX
5
1ad
100
AcDbEntity
8
0
100
AcDbVertex
100
AcDb2dVertex
62
5
10
95.625000
20
295.187500
0
VERTEX
5
1ae
100
AcDbEntity
8
0
100
AcDbVertex
100
AcDb2dVertex
62
5
10
95.625000
20
294.250000
0
VERTEX
5
1af
100
AcDbEntity
8
0
100
AcDbVertex
100
AcDb2dVertex
62
5
10
95.000000
20
293.312500
0
VERTEX
5
1b0
100
AcDbEntity
8
0
100
AcDbVertex
100
AcDb2dVertex
62
5
10
94.062500
20
293.000000
0
VERTEX
5
1b1
100
AcDbEntity
8
0
100
AcDbVertex
100
AcDb2dVertex
62
5
10
93.437500
20
293.000000
0
VERTEX
5
1b2
100
AcDbEntity
8
0
100
AcDbVertex
100
AcDb2dVertex
62
5
10
92.500000
20
293.625000
0
VERTEX
5
1b3
100
AcDbEntity
8
0
100
AcDbVertex
100
AcDb2dVertex
62
5
10
92.187500
20
294.875000
0
SEQEND
5
1b4
100
AcDbEntity
8
0
0
LINE
5
1b5
100
AcDbEntity
8
0
100
AcDbLine
6
CONTINUOUS
62
5
10
102.500000
20
300.500000
11
102.500000
21
293.000000
0
POLYLINE
5
1b6
100
AcDbEntity
8
0
6
CONTINUOUS
62
5
100
AcDb2dPolyline
66
1
10
0.0
20
0.0
30
0.0
70
0
0
VERTEX
5
1b7
100
AcDbEntity
8
0
100
AcDbVertex
100
AcDb2dVertex
62
5
10
102.500000
20
300.500000
0
VERTEX
5
1b8
100
AcDbEntity
8
0
100
AcDbVertex
100
AcDb2dVertex
62
5
10
103.750000
20
300.500000
0
VERTEX
5
1b9
100
AcDbEntity
8
0
100
AcDbVertex
100
AcDb2dVertex
62
5
10
104.687500
20
300.187500
0
VERTEX
5
1ba
100
AcDbEntity
8
0
100
AcDbVertex
100
AcDb2dVertex
62
5
10
105.312500
20
299.562500
0
VERTEX
5
1bb
100
AcDbEntity
8
0
100
AcDbVertex
100
AcDb2dVertex
62
5
10
105.625000
20
298.937500
0
VERTEX
5
1bc
100
AcDbEntity
8
0
100
AcDbVertex
100
AcDb2dVertex
62
5
10
105.625000
20
298.000000
0
VERTEX
5
1bd
100
AcDbEntity
8
0
100
AcDbVertex
100
AcDb2dVertex
62
5
10
105.312500
20
297.375000
0
VERTEX
5
1be
100
AcDbEntity
8
0
100
AcDbVertex
100
AcDb2dVertex
62
5
10
104.687500
20
296.750000
0
VERTEX
5
1bf
100
AcDbEntity
8
0
100
AcDbVertex
100
AcDb2dVertex
62
5
10
103.750000
20
296.437500
0
VERTEX
5
1c0
100
AcDbEntity
8
0
100
AcDbVertex
100
AcDb2dVertex
62
5
10
102.500000
20
296.437500
0
SEQEND
5
1c1
100
AcDbEntity
8
0
0
POLYLINE
5
1c2
100
AcDbEntity
8
0
6
CONTINUOUS
62
5
100
AcDb2dPolyline
66
1
10
0.0
20
0.0
30
0.0
70
0
0
VERTEX
5
1c3
100
AcDbEntity
8
0
100
AcDbVertex
100
AcDb2dVertex
62
5
10
107.187500
20
300.500000
0
VERTEX
5
1c4
100
AcDbEntity
8
0
100
AcDbVertex
100
AcDb2dVertex
62
5
10
108.125000
20
293.000000
0
VERTEX
5
1c5
100
AcDbEntity
8
0
100
AcDbVertex
100
AcDb2dVertex
62
5
10
109.062500
20
300.500000
0
VERTEX
5
1c6
100
AcDbEntity
8
0
100
AcDbVertex
100
AcDb2dVertex
62
5
10
110.000000
20
293.000000
0
VERTEX
5
1c7
100
AcDbEntity
8
0
100
AcDbVertex
100
AcDb2dVertex
62
5
10
110.937500
20
300.500000
0
SEQEND
5
1c8
100
AcDbEntity
8
0
0
LINE
5
1c9
100
AcDbEntity
8
1
100
AcDbLine
6
CONTINUOUS
62
5
10
50.000000
20
350.000000
11
50.000000
21
318.000000
0
LINE
5
1ca
100
AcDbEntity
8
0
100
AcDbLine
6
CONTINUOUS
62
5
10
77.500000
20
296.750000
11
80.625000
21
296.750000
0
POLYLINE
5
1cb
100
AcDbEntity
8
0
6
CONTINUOUS
62
5
100
AcDb2dPolyline
66
1
10
0.0
20
0.0
30
0.0
70
0
0
VERTEX
5
1cc
100
AcDbEntity
8
0
100
AcDbVertex
100
AcDb2dVertex
62
5
10
65.312500
20
300.500000
0
VERTEX
5
1cd
100
AcDbEntity
8
0
100
AcDbVertex
100
AcDb2dVertex
62
5
10
65.312500
20
294.875000
0
VERTEX
5
1ce
100
AcDbEntity
8
0
100
AcDbVertex
100
AcDb2dVertex
62
5
10
65.000000
20
293.625000
0
VERTEX
5
1cf
100
AcDbEntity
8
0
100
AcDbVertex
100
AcDb2dVertex
62
5
10
64.375000
20
293.000000
0
VERTEX
5
1d0
100
AcDbEntity
8
0
100
AcDbVertex
100
AcDb2dVertex
62
5
10
63.437500
20
293.000000
0
VERTEX
5
1d1
100
AcDbEntity
8
0
100
AcDbVertex
100
AcDb2dVertex
62
5
10
62.812500
20
293.625000
0
VERTEX
5
1d2
100
AcDbEntity
8
0
100
AcDbVertex
100
AcDb2dVertex
62
5
10
62.500000
20
294.875000
0
SEQEND
5
1d3
100
AcDbEntity
8
0
0
POLYLINE
5
1d4
100
AcDbEntity
8
0
6
CONTINUOUS
62
5
100
AcDb2dPolyline
66
1
10
0.0
20
0.0
30
0.0
70
0
0
VERTEX
5
1d5
100
AcDbEntity
8
0
100
AcDbVertex
100
AcDb2dVertex
62
5
10
70.625000
20
300.500000
0
VERTEX
5
1d6
100
AcDbEntity
8
0
100
AcDbVertex
100
AcDb2dVertex
62
5
10
67.500000
20
300.500000
0
VERTEX
5
1d7
100
AcDbEntity
8
0
100
AcDbVertex
100
AcDb2dVertex
62
5
10
67.500000
20
293.000000
0
VERTEX
5
1d8
100
AcDbEntity
8
0
100
AcDbVertex
100
AcDb2dVertex
62
5
10
70.937500
20
293.000000
0
SEQEND
5
1d9
100
AcDbEntity
8
0
0
LINE
5
1da
100
AcDbEntity
8
0
100
AcDbLine
6
CONTINUOUS
62
5
10
67.500000
20
296.750000
11
70.312500
21
296.750000
0
LINE
5
1db
100
AcDbEntity
8
0
100
AcDbLine
6
CONTINUOUS
62
5
10
72.500000
20
300.500000
11
72.500000
21
293.000000
0
POLYLINE
5
1dc
100
AcDbEntity
8
0
6
CONTINUOUS
62
5
100
AcDb2dPolyline
66
1
10
0.0
20
0.0
30
0.0
70
0
0
VERTEX
5
1dd
100
AcDbEntity
8
0
100
AcDbVertex
100
AcDb2dVertex
62
5
10
72.500000
20
300.500000
0
VERTEX
5
1de
100
AcDbEntity
8
0
100
AcDbVertex
100
AcDb2dVertex
62
5
10
74.062500
20
300.500000
0
VERTEX
5
1df
100
AcDbEntity
8
0
100
AcDbVertex
100
AcDb2dVertex
62
5
10
74.687500
20
300.187500
0
VERTEX
5
1e0
100
AcDbEntity
8
0
100
AcDbVertex
100
AcDb2dVertex
62
5
10
75.000000
20
299.875000
0
VERTEX
5
1e1
100
AcDbEntity
8
0
100
AcDbVertex
100
AcDb2dVertex
62
5
10
75.312500
20
299.250000
0
VERTEX
5
1e2
100
AcDbEntity
8
0
100
AcDbVertex
100
AcDb2dVertex
62
5
10
75.312500
20
298.312500
0
VERTEX
5
1e3
100
AcDbEntity
8
0
100
AcDbVertex
100
AcDb2dVertex
62
5
10
75.000000
20
297.687500
0
VERTEX
5
1e4
100
AcDbEntity
8
0
100
AcDbVertex
100
AcDb2dVertex
62
5
10
74.687500
20
297.375000
0
VERTEX
5
1e5
100
AcDbEntity
8
0
100
AcDbVertex
100
AcDb2dVertex
62
5
10
74.062500
20
297.062500
0
VERTEX
5
1e6
100
AcDbEntity
8
0
100
AcDbVertex
100
AcDb2dVertex
62
5
10
72.500000
20
297.062500
0
SEQEND
5
1e7
100
AcDbEntity
8
0
0
POLYLINE
5
1e8
100
AcDbEntity
8
0
6
CONTINUOUS
62
5
100
AcDb2dPolyline
66
1
10
0.0
20
0.0
30
0.0
70
0
0
VERTEX
5
1e9
100
AcDbEntity
8
0
100
AcDbVertex
100
AcDb2dVertex
62
5
10
74.062500
20
297.062500
0
VERTEX
5
1ea
100
AcDbEntity
8
0
100
AcDbVertex
100
AcDb2dVertex
62
5
10
74.687500
20
296.750000
0
VERTEX
5
1eb
100
AcDbEntity
8
0
100
AcDbVertex
100
AcDb2dVertex
62
5
10
75.312500
20
296.125000
0
VERTEX
5
1ec
100
AcDbEntity
8
0
100
AcDbVertex
100
AcDb2dVertex
62
5
10
75.625000
20
295.500000
0
VERTEX
5
1ed
100
AcDbEntity
8
0
100
AcDbVertex
100
AcDb2dVertex
62
5
10
75.625000
20
294.250000
0
VERTEX
5
1ee
100
AcDbEntity
8
0
100
AcDbVertex
100
AcDb2dVertex
62
5
10
75.312500
20
293.625000
0
VERTEX
5
1ef
100
AcDbEntity
8
0
100
AcDbVertex
100
AcDb2dVertex
62
5
10
75.000000
20
293.312500
0
VERTEX
5
1f0
100
AcDbEntity
8
0
100
AcDbVertex
100
AcDb2dVertex
62
5
10
74.375000
20
293.000000
0
VERTEX
5
1f1
100
AcDbEntity
8
0
100
AcDbVertex
100
AcDb2dVertex
62
5
10
72.500000
20
293.000000
0
SEQEND
5
1f2
100
AcDbEntity
8
0
0
POLYLINE
5
1f3
100
AcDbEntity
8
1
6
CONTINUOUS
62
5
100
AcDb2dPolyline
66
1
10
0.0
20
0.0
30
0.0
70
0
0
VERTEX
5
1f4
100
AcDbEntity
8
1
100
AcDbVertex
100
AcDb2dVertex
62
5
10
76.562500
20
331.500000
0
VERTEX
5
1f5
100
AcDbEntity
8
1
100
AcDbVertex
100
AcDb2dVertex
62
5
10
77.500000
20
332.437500
0
VERTEX
5
1f6
100
AcDbEntity
8
1
100
AcDbVertex
100
AcDb2dVertex
62
5
10
78.437500
20
334.312500
0
SEQEND
5
1f7
100
AcDbEntity
8
1
0
LINE
5
1f8
100
AcDbEntity
8
1
100
AcDbLine
6
CONTINUOUS
62
5
10
76.562500
20
336.500000
11
78.125000
21
335.875000
0
LINE
5
1f9
100
AcDbEntity
8
1
100
AcDbLine
6
CONTINUOUS
62
5
10
78.437500
20
338.375000
11
77.187500
21
339.000000
0
LINE
5
1fa
100
AcDbEntity
8
1
100
AcDbLine
6
CONTINUOUS
62
5
10
78.750000
20
337.437500
11
84.687500
21
338.375000
0
LINE
5
1fb
100
AcDbEntity
8
1
100
AcDbLine
6
CONTINUOUS
62
5
10
79.375000
20
336.187500
11
84.062500
21
337.125000
0
LINE
5
1fc
100
AcDbEntity
8
1
100
AcDbLine
6
CONTINUOUS
62
5
10
79.062500
20
334.625000
11
85.000000
21
335.562500
0
POLYLINE
5
1fd
100
AcDbEntity
8
1
6
CONTINUOUS
62
5
100
AcDb2dPolyline
66
1
10
0.0
20
0.0
30
0.0
70
0
0
VERTEX
5
1fe
100
AcDbEntity
8
1
100
AcDbVertex
100
AcDb2dVertex
62
5
10
81.250000
20
339.625000
0
VERTEX
5
1ff
100
AcDbEntity
8
1
100
AcDbVertex
100
AcDb2dVertex
62
5
10
81.875000
20
334.312500
0
VERTEX
5
200
100
AcDbEntity
8
1
100
AcDbVertex
100
AcDb2dVertex
62
5
10
82.500000
20
332.750000
0
VERTEX
5
201
100
AcDbEntity
8
1
100
AcDbVertex
100
AcDb2dVertex
62
5
10
83.437500
20
331.812500
0
VERTEX
5
202
100
AcDbEntity
8
1
100
AcDbVertex
100
AcDb2dVertex
62
5
10
84.375000
20
330.875000
0
VERTEX
5
203
100
AcDbEntity
8
1
100
AcDbVertex
100
AcDb2dVertex
62
5
10
85.312500
20
330.875000
0
VERTEX
5
204
100
AcDbEntity
8
1
100
AcDbVertex
100
AcDb2dVertex
62
5
10
85.625000
20
332.125000
0
SEQEND
5
205
100
AcDbEntity
8
1
0
POLYLINE
5
206
100
AcDbEntity
8
1
6
CONTINUOUS
62
5
100
AcDb2dPolyline
66
1
10
0.0
20
0.0
30
0.0
70
0
0
VERTEX
5
207
100
AcDbEntity
8
1
100
AcDbVertex
100
AcDb2dVertex
62
5
10
84.375000
20
334.000000
0
VERTEX
5
208
100
AcDbEntity
8
1
100
AcDbVertex
100
AcDb2dVertex
62
5
10
82.500000
20
332.750000
0
VERTEX
5
209
100
AcDbEntity
8
1
100
AcDbVertex
100
AcDb2dVertex
62
5
10
79.062500
20
331.187500
0
SEQEND
5
20a
100
AcDbEntity
8
1
0
LINE
5
20b
100
AcDbEntity
8
1
100
AcDbLine
6
CONTINUOUS
62
5
10
82.812500
20
339.625000
11
83.750000
21
339.000000
0
POLYLINE
5
20c
100
AcDbEntity
8
1
6
CONTINUOUS
62
5
100
AcDb2dPolyline
66
1
10
0.0
20
0.0
30
0.0
70
0
0
VERTEX
5
20d
100
AcDbEntity
8
1
100
AcDbVertex
100
AcDb2dVertex
62
5
10
78.437500
20
327.750000
0
VERTEX
5
20e
100
AcDbEntity
8
1
100
AcDbVertex
100
AcDb2dVertex
62
5
10
78.437500
20
322.437500
0
VERTEX
5
20f
100
AcDbEntity
8
1
100
AcDbVertex
100
AcDb2dVertex
62
5
10
79.062500
20
321.812500
0
VERTEX
5
210
100
AcDbEntity
8
1
100
AcDbVertex
100
AcDb2dVertex
62
5
10
83.437500
20
321.812500
0
SEQEND
5
211
100
AcDbEntity
8
1
0
LINE
5
212
100
AcDbEntity
8
1
100
AcDbLine
6
CONTINUOUS
62
5
10
82.812500
20
325.875000
11
78.437500
21
324.937500
0
POLYLINE
5
213
100
AcDbEntity
8
1
6
CONTINUOUS
62
5
100
AcDb2dPolyline
66
1
10
0.0
20
0.0
30
0.0
70
1
0
VERTEX
5
214
100
AcDbEntity
8
1
100
AcDbVertex
100
AcDb2dVertex
62
5
10
82.812500
20
327.750000
0
VERTEX
5
215
100
AcDbEntity
8
1
100
AcDbVertex
100
AcDb2dVertex
62
5
10
83.437500
20
328.375000
0
VERTEX
5
216
100
AcDbEntity
8
1
100
AcDbVertex
100
AcDb2dVertex
62
5
10
83.750000
20
328.375000
0
VERTEX
5
217
100
AcDbEntity
8
1
100
AcDbVertex
100
AcDb2dVertex
62
5
10
84.375000
20
327.750000
0
VERTEX
5
218
100
AcDbEntity
8
1
100
AcDbVertex
100
AcDb2dVertex
62
5
10
84.375000
20
327.437500
0
VERTEX
5
219
100
AcDbEntity
8
1
100
AcDbVertex
100
AcDb2dVertex
62
5
10
83.750000
20
326.812500
0
VERTEX
5
21a
100
AcDbEntity
8
1
100
AcDbVertex
100
AcDb2dVertex
62
5
10
83.437500
20
326.812500
0
VERTEX
5
21b
100
AcDbEntity
8
1
100
AcDbVertex
100
AcDb2dVertex
62
5
10
82.812500
20
327.437500
0
VERTEX
5
21c
100
AcDbEntity
8
1
100
AcDbVertex
100
AcDb2dVertex
62
5
10
82.812500
20
327.750000
0
SEQEND
5
21d
100
AcDbEntity
8
1
0
POLYLINE
5
21e
100
AcDbEntity
8
0
6
CONTINUOUS
62
5
100
AcDb2dPolyline
66
1
10
0.0
20
0.0
30
0.0
70
0
0
VERTEX
5
21f
100
AcDbEntity
8
0
100
AcDbVertex
100
AcDb2dVertex
62
5
10
85.625000
20
300.500000
0
VERTEX
5
220
100
AcDbEntity
8
0
100
AcDbVertex
100
AcDb2dVertex
62
5
10
82.500000
20
300.500000
0
VERTEX
5
221
100
AcDbEntity
8
0
100
AcDbVertex
100
AcDb2dVertex
62
5
10
82.500000
20
293.000000
0
SEQEND
5
222
100
AcDbEntity
8
0
0
LINE
5
223
100
AcDbEntity
8
0
100
AcDbLine
6
CONTINUOUS
62
5
10
82.500000
20
296.750000
11
85.000000
21
296.750000
0
POLYLINE
5
224
100
AcDbEntity
8
1
6
DOT2
62
5
100
AcDb2dPolyline
66
1
10
0.0
20
0.0
30
0.0
70
0
0
VERTEX
5
225
100
AcDbEntity
8
1
100
AcDbVertex
100
AcDb2dVertex
62
5
10
127.875000
20
253.625000
0
VERTEX
5
226
100
AcDbEntity
8
1
100
AcDbVertex
100
AcDb2dVertex
62
5
10
128.812500
20
254.250000
0
VERTEX
5
227
100
AcDbEntity
8
1
100
AcDbVertex
100
AcDb2dVertex
62
5
10
128.812500
20
246.750000
0
SEQEND
5
228
100
AcDbEntity
8
1
0
LINE
5
229
100
AcDbEntity
8
1
100
AcDbLine
6
DOT2
62
5
10
128.187500
20
246.750000
11
129.437500
21
246.750000
0
POLYLINE
5
22a
100
AcDbEntity
8
1
6
DOT2
62
5
100
AcDb2dPolyline
66
1
10
0.0
20
0.0
30
0.0
70
0
0
VERTEX
5
22b
100
AcDbEntity
8
1
100
AcDbVertex
100
AcDb2dVertex
62
5
10
122.250000
20
253.312500
0
VERTEX
5
22c
100
AcDbEntity
8
1
100
AcDbVertex
100
AcDb2dVertex
62
5
10
122.250000
20
254.250000
0
VERTEX
5
22d
100
AcDbEntity
8
1
100
AcDbVertex
100
AcDb2dVertex
62
5
10
125.375000
20
254.250000
0
VERTEX
5
22e
100
AcDbEntity
8
1
100
AcDbVertex
100
AcDb2dVertex
62
5
10
125.375000
20
253.625000
0
VERTEX
5
22f
100
AcDbEntity
8
1
100
AcDbVertex
100
AcDb2dVertex
62
5
10
124.750000
20
252.062500
0
VERTEX
5
230
100
AcDbEntity
8
1
100
AcDbVertex
100
AcDb2dVertex
62
5
10
124.125000
20
249.875000
0
VERTEX
5
231
100
AcDbEntity
8
1
100
AcDbVertex
100
AcDb2dVertex
62
5
10
123.500000
20
246.750000
0
SEQEND
5
232
100
AcDbEntity
8
1
0
ARC
5
233
100
AcDbEntity
8
1
100
AcDbCircle
6
CONTINUOUS
62
5
10
136.000000
20
211.150000
40
2.250000
100
AcDbArc
50
-57.769047
51
-2.230953
0
LINE
5
234
100
AcDbEntity
8
0
100
AcDbLine
6
CONTINUOUS
62
5
10
138.254510
20
213.490873
11
137.025498
21
213.127712
0
LINE
5
235
100
AcDbEntity
8
0
100
AcDbLine
6
CONTINUOUS
62
5
10
136.900000
20
208.027101
11
137.200000
21
209.273036
0
LINE
5
236
100
AcDbEntity
8
0
100
AcDbLine
6
CONTINUOUS
62
5
10
139.154510
20
211.932027
11
138.225498
21
211.049252
0
ARC
5
237
100
AcDbEntity
8
0
100
AcDbCircle
6
CONTINUOUS
62
5
10
136.000000
20
211.150000
40
2.227778
100
AcDbArc
50
-2.592015
51
62.592014
0
POLYLINE
5
238
100
AcDbEntity
8
0
6
CONTINUOUS
62
5
100
AcDb2dPolyline
66
1
10
0.0
20
0.0
30
0.0
70
0
0
VERTEX
5
239
100
AcDbEntity
8
0
100
AcDbVertex
100
AcDb2dVertex
62
5
10
137.025498
20
213.127712
0
VERTEX
5
23a
100
AcDbEntity
8
0
100
AcDbVertex
100
AcDb2dVertex
62
5
10
137.048295
20
213.140874
0
VERTEX
5
23b
100
AcDbEntity
8
0
100
AcDbVertex
100
AcDb2dVertex
62
5
10
138.254510
20
213.490873
0
SEQEND
5
23c
100
AcDbEntity
8
0
0
POLYLINE
5
23d
100
AcDbEntity
8
0
6
CONTINUOUS
62
5
100
AcDb2dPolyline
66
1
10
0.0
20
0.0
30
0.0
70
0
0
VERTEX
5
23e
100
AcDbEntity
8
0
100
AcDbVertex
100
AcDb2dVertex
62
5
10
139.154510
20
211.932027
0
VERTEX
5
23f
100
AcDbEntity
8
0
100
AcDbVertex
100
AcDb2dVertex
62
5
10
138.248295
20
211.062413
0
VERTEX
5
240
100
AcDbEntity
8
0
100
AcDbVertex
100
AcDb2dVertex
62
5
10
138.225498
20
211.049252
0
SEQEND
5
241
100
AcDbEntity
8
0
0
LINE
5
242
100
AcDbEntity
8
0
100
AcDbLine
6
CONTINUOUS
62
5
10
132.845490
20
211.932027
11
133.774501
21
211.049252
0
LINE
5
243
100
AcDbEntity
8
0
100
AcDbLine
6
CONTINUOUS
62
5
10
133.745490
20
213.490873
11
134.974501
21
213.127712
0
ARC
5
244
100
AcDbEntity
8
0
100
AcDbCircle
6
CONTINUOUS
62
5
10
136.000000
20
211.150000
40
2.227778
100
AcDbArc
50
117.407984
51
-177.407984
0
POLYLINE
5
245
100
AcDbEntity
8
0
6
CONTINUOUS
62
5
100
AcDb2dPolyline
66
1
10
0.0
20
0.0
30
0.0
70
0
0
VERTEX
5
246
100
AcDbEntity
8
0
100
AcDbVertex
100
AcDb2dVertex
62
5
10
134.974502
20
213.127712
0
VERTEX
5
247
100
AcDbEntity
8
0
100
AcDbVertex
100
AcDb2dVertex
62
5
10
134.951705
20
213.140874
0
VERTEX
5
248
100
AcDbEntity
8
0
100
AcDbVertex
100
AcDb2dVertex
62
5
10
133.745490
20
213.490873
0
SEQEND
5
249
100
AcDbEntity
8
0
0
POLYLINE
5
24a
100
AcDbEntity
8
0
6
CONTINUOUS
62
5
100
AcDb2dPolyline
66
1
10
0.0
20
0.0
30
0.0
70
0
0
VERTEX
5
24b
100
AcDbEntity
8
0
100
AcDbVertex
100
AcDb2dVertex
62
5
10
132.845490
20
211.932027
0
VERTEX
5
24c
100
AcDbEntity
8
0
100
AcDbVertex
100
AcDb2dVertex
62
5
10
133.751705
20
211.062413
0
VERTEX
5
24d
100
AcDbEntity
8
0
100
AcDbVertex
100
AcDb2dVertex
62
5
10
133.774502
20
211.049252
0
SEQEND
5
24e
100
AcDbEntity
8
0
0
LINE
5
24f
100
AcDbEntity
8
0
100
AcDbLine
6
CONTINUOUS
62
5
10
128.550000
20
206.250000
11
129.550000
21
206.250000
0
POLYLINE
5
250
100
AcDbEntity
8
0
6
CONTINUOUS
62
5
100
AcDb2dPolyline
66
1
10
0.0
20
0.0
30
0.0
70
0
0
VERTEX
5
251
100
AcDbEntity
8
0
100
AcDbVertex
100
AcDb2dVertex
62
5
10
130.150000
20
208.350000
0
VERTEX
5
252
100
AcDbEntity
8
0
100
AcDbVertex
100
AcDb2dVertex
62
5
10
129.886364
20
207.822727
0
VERTEX
5
253
100
AcDbEntity
8
0
100
AcDbVertex
100
AcDb2dVertex
62
5
10
129.550000
20
207.150000
0
VERTEX
5
254
100
AcDbEntity
8
0
100
AcDbVertex
100
AcDb2dVertex
62
5
10
129.550000
20
207.150000
0
SEQEND
5
255
100
AcDbEntity
8
0
0
POLYLINE
5
256
100
AcDbEntity
8
0
6
CONTINUOUS
62
5
100
AcDb2dPolyline
66
1
10
0.0
20
0.0
30
0.0
70
1
0
VERTEX
5
257
100
AcDbEntity
8
0
100
AcDbVertex
100
AcDb2dVertex
62
5
10
129.539898
20
205.647224
0
VERTEX
5
258
100
AcDbEntity
8
0
100
AcDbVertex
100
AcDb2dVertex
62
5
10
129.539898
20
205.550000
0
VERTEX
5
259
100
AcDbEntity
8
0
100
AcDbVertex
100
AcDb2dVertex
62
5
10
128.560102
20
205.550000
0
VERTEX
5
25a
100
AcDbEntity
8
0
100
AcDbVertex
100
AcDb2dVertex
62
5
10
128.560102
20
205.647224
0
VERTEX
5
25b
100
AcDbEntity
8
0
100
AcDbVertex
100
AcDb2dVertex
62
5
10
128.590721
20
205.910939
0
VERTEX
5
25c
100
AcDbEntity
8
0
100
AcDbVertex
100
AcDb2dVertex
62
5
10
128.682577
20
206.099306
0
VERTEX
5
25d
100
AcDbEntity
8
0
100
AcDbVertex
100
AcDb2dVertex
62
5
10
128.835670
20
206.212327
0
VERTEX
5
25e
100
AcDbEntity
8
0
100
AcDbVertex
100
AcDb2dVertex
62
5
10
129.050000
20
206.250000
0
VERTEX
5
25f
100
AcDbEntity
8
0
100
AcDbVertex
100
AcDb2dVertex
62
5
10
129.264330
20
206.212327
0
VERTEX
5
260
100
AcDbEntity
8
0
100
AcDbVertex
100
AcDb2dVertex
62
5
10
129.417423
20
206.099306
0
VERTEX
5
261
100
AcDbEntity
8
0
100
AcDbVertex
100
AcDb2dVertex
62
5
10
129.509279
20
205.910939
0
SEQEND
5
262
100
AcDbEntity
8
0
0
ARC
5
263
100
AcDbEntity
8
1
100
AcDbCircle
6
CONTINUOUS
62
5
10
136.000000
20
211.150000
40
2.250000
100
AcDbArc
50
-177.769046
51
-122.230952
0
LINE
5
264
100
AcDbEntity
8
0
100
AcDbLine
6
CONTINUOUS
62
5
10
135.100000
20
208.027101
11
134.800000
21
209.273036
0
ARC
5
265
100
AcDbEntity
8
1
100
AcDbCircle
6
CONTINUOUS
62
5
10
136.000000
20
211.150000
40
2.250000
100
AcDbArc
50
62.230952
51
117.769046
0
ARC
5
266
100
AcDbEntity
8
1
100
AcDbCircle
6
CONTINUOUS
62
5
10
136.000000
20
211.150000
40
2.191873
100
AcDbArc
50
-12.242677
51
-167.757322
0
ARC
5
267
100
AcDbEntity
8
1
100
AcDbCircle
6
CONTINUOUS
62
5
10
136.000000
20
210.500206
40
2.150000
100
AcDbArc
50
4.936233
51
175.063765
0
ARC
5
268
100
AcDbEntity
8
0
100
AcDbCircle
6
CONTINUOUS
62
5
10
136.000000
20
211.150000
40
2.227778
100
AcDbArc
50
-122.592014
51
-57.407985
0
POLYLINE
5
269
100
AcDbEntity
8
0
6
CONTINUOUS
62
5
100
AcDb2dPolyline
66
1
10
0.0
20
0.0
30
0.0
70
0
0
VERTEX
5
26a
100
AcDbEntity
8
0
100
AcDbVertex
100
AcDb2dVertex
62
5
10
134.800000
20
209.273036
0
VERTEX
5
26b
100
AcDbEntity
8
0
100
AcDbVertex
100
AcDb2dVertex
62
5
10
134.800000
20
209.246713
0
VERTEX
5
26c
100
AcDbEntity
8
0
100
AcDbVertex
100
AcDb2dVertex
62
5
10
135.100000
20
208.027101
0
SEQEND
5
26d
100
AcDbEntity
8
0
0
POLYLINE
5
26e
100
AcDbEntity
8
0
6
CONTINUOUS
62
5
100
AcDb2dPolyline
66
1
10
0.0
20
0.0
30
0.0
70
0
0
VERTEX
5
26f
100
AcDbEntity
8
0
100
AcDbVertex
100
AcDb2dVertex
62
5
10
136.900000
20
208.027101
0
VERTEX
5
270
100
AcDbEntity
8
0
100
AcDbVertex
100
AcDb2dVertex
62
5
10
137.200000
20
209.246713
0
VERTEX
5
271
100
AcDbEntity
8
0
100
AcDbVertex
100
AcDb2dVertex
62
5
10
137.200000
20
209.273036
0
SEQEND
5
272
100
AcDbEntity
8
0
0
ARC
5
273
100
AcDbEntity
8
0
100
AcDbCircle
6
CONTINUOUS
62
5
10
136.000000
20
210.500206
40
2.050000
100
AcDbArc
50
0.067072
51
179.932926
0
ARC
5
274
100
AcDbEntity
8
0
100
AcDbCircle
6
CONTINUOUS
62
5
10
136.000000
20
211.150000
40
2.149794
100
AcDbArc
50
-162.473771
51
-17.526228
0
ARC
5
275
100
AcDbEntity
8
0
100
AcDbCircle
6
CONTINUOUS
62
5
10
136.000000
20
210.500206
40
2.050000
100
AcDbArc
50
0.067072
51
179.932926
0
ARC
5
276
100
AcDbEntity
8
0
100
AcDbCircle
6
CONTINUOUS
62
5
10
136.000000
20
211.150000
40
2.149794
100
AcDbArc
50
-162.473771
51
-17.526228
0
CIRCLE
5
277
100
AcDbEntity
8
0
100
AcDbCircle
6
CONTINUOUS
62
5
10
136.000000
20
211.150000
40
3.250000
0
ARC
5
278
100
AcDbEntity
8
0
100
AcDbCircle
6
CONTINUOUS
62
5
10
137.910521
20
209.606667
40
3.000000
100
AcDbArc
50
-89.999999
51
-21.223656
0
LINE
5
279
100
AcDbEntity
8
0
100
AcDbLine
6
CONTINUOUS
62
5
10
137.910521
20
206.606667
11
131.743333
21
206.606667
0
LINE
5
27a
100
AcDbEntity
8
0
100
AcDbLine
6
CONTINUOUS
62
5
10
140.743290
20
208.613972
11
140.707044
21
208.520638
0
ARC
5
27b
100
AcDbEntity
8
0
100
AcDbCircle
6
CONTINUOUS
62
5
10
149.500000
20
197.000000
40
2.250000
100
AcDbArc
50
-89.999999
51
89.999999
0
ARC
5
27c
100
AcDbEntity
8
0
100
AcDbCircle
6
CONTINUOUS
62
5
10
149.500000
20
197.000000
40
4.000000
100
AcDbArc
50
-89.999999
51
89.999999
0
ARC
5
27d
100
AcDbEntity
8
0
100
AcDbCircle
6
CONTINUOUS
62
5
10
147.500000
20
197.000000
40
2.250000
100
AcDbArc
50
89.999999
51
-89.999999
0
ARC
5
27e
100
AcDbEntity
8
0
100
AcDbCircle
6
CONTINUOUS
62
5
10
147.500000
20
197.000000
40
4.000000
100
AcDbArc
50
89.999999
51
-89.999999
0
LINE
5
27f
100
AcDbEntity
8
0
100
AcDbLine
6
CONTINUOUS
62
5
10
139.000000
20
191.500000
11
138.800000
21
193.000000
0
LINE
5
280
100
AcDbEntity
8
0
100
AcDbLine
6
CONTINUOUS
62
5
10
128.550000
20
198.150000
11
128.550000
21
198.250000
0
LINE
5
281
100
AcDbEntity
8
0
100
AcDbLine
6
CONTINUOUS
62
5
10
149.500000
20
199.250000
11
147.500000
21
199.250000
0
LINE
5
282
100
AcDbEntity
8
0
100
AcDbLine
6
CONTINUOUS
62
5
10
149.500000
20
201.000000
11
147.500000
21
201.000000
0
LINE
5
283
100
AcDbEntity
8
0
100
AcDbLine
6
CONTINUOUS
62
5
10
147.500000
20
194.750000
11
149.500000
21
194.750000
0
LINE
5
284
100
AcDbEntity
8
0
100
AcDbLine
6
CONTINUOUS
62
5
10
149.500000
20
193.000000
11
147.500000
21
193.000000
0
ARC
5
285
100
AcDbEntity
8
0
100
AcDbCircle
6
CONTINUOUS
62
5
10
129.350000
20
198.350000
40
0.200000
100
AcDbArc
50
-89.999999
51
-0.000000
0
POLYLINE
5
286
100
AcDbEntity
8
0
6
CONTINUOUS
62
5
100
AcDb2dPolyline
66
1
10
0.0
20
0.0
30
0.0
70
0
0
VERTEX
5
287
100
AcDbEntity
8
0
100
AcDbVertex
100
AcDb2dVertex
62
5
10
129.550000
20
198.350000
0
VERTEX
5
288
100
AcDbEntity
8
0
100
AcDbVertex
100
AcDb2dVertex
62
5
10
129.550000
20
199.127778
0
VERTEX
5
289
100
AcDbEntity
8
0
100
AcDbVertex
100
AcDb2dVertex
62
5
10
130.100000
20
201.127778
0
VERTEX
5
28a
100
AcDbEntity
8
0
100
AcDbVertex
100
AcDb2dVertex
62
5
10
130.100000
20
202.372222
0
VERTEX
5
28b
100
AcDbEntity
8
0
100
AcDbVertex
100
AcDb2dVertex
62
5
10
129.550000
20
204.372222
0
VERTEX
5
28c
100
AcDbEntity
8
0
100
AcDbVertex
100
AcDb2dVertex
62
5
10
129.550000
20
207.150000
0
VERTEX
5
28d
100
AcDbEntity
8
0
100
AcDbVertex
100
AcDb2dVertex
62
5
10
128.550000
20
207.150000
0
VERTEX
5
28e
100
AcDbEntity
8
0
100
AcDbVertex
100
AcDb2dVertex
62
5
10
128.550000
20
205.250000
0
SEQEND
5
28f
100
AcDbEntity
8
0
0
POLYLINE
5
290
100
AcDbEntity
8
0
6
CONTINUOUS
62
5
100
AcDb2dPolyline
66
1
10
0.0
20
0.0
30
0.0
70
0
0
VERTEX
5
291
100
AcDbEntity
8
0
100
AcDbVertex
100
AcDb2dVertex
62
5
10
129.881343
20
207.812686
0
VERTEX
5
292
100
AcDbEntity
8
0
100
AcDbVertex
100
AcDb2dVertex
62
5
10
128.498338
20
207.812687
0
VERTEX
5
293
100
AcDbEntity
8
0
100
AcDbVertex
100
AcDb2dVertex
62
5
10
128.498338
20
204.256526
0
VERTEX
5
294
100
AcDbEntity
8
0
100
AcDbVertex
100
AcDb2dVertex
62
5
10
129.048333
20
202.256523
0
VERTEX
5
295
100
AcDbEntity
8
0
100
AcDbVertex
100
AcDb2dVertex
62
5
10
129.048333
20
201.243477
0
VERTEX
5
296
100
AcDbEntity
8
0
100
AcDbVertex
100
AcDb2dVertex
62
5
10
128.498338
20
199.243474
0
VERTEX
5
297
100
AcDbEntity
8
0
100
AcDbVertex
100
AcDb2dVertex
62
5
10
128.498338
20
198.150000
0
SEQEND
5
298
100
AcDbEntity
8
0
0
POLYLINE
5
299
100
AcDbEntity
8
1
6
CONTINUOUS
62
5
100
AcDb2dPolyline
66
1
10
0.0
20
0.0
30
0.0
70
0
0
VERTEX
5
29a
100
AcDbEntity
8
1
100
AcDbVertex
100
AcDb2dVertex
62
5
10
128.498338
20
198.250000
0
VERTEX
5
29b
100
AcDbEntity
8
1
100
AcDbVertex
100
AcDb2dVertex
62
5
10
129.500000
20
198.250000
0
VERTEX
5
29c
100
AcDbEntity
8
1
100
AcDbVertex
100
AcDb2dVertex
62
5
10
129.500000
20
205.250000
0
VERTEX
5
29d
100
AcDbEntity
8
1
100
AcDbVertex
100
AcDb2dVertex
62
5
10
128.498338
20
205.250000
0
SEQEND
5
29e
100
AcDbEntity
8
1
0
ARC
5
29f
100
AcDbEntity
8
0
100
AcDbCircle
6
CONTINUOUS
62
5
10
129.950000
20
198.350000
40
0.200000
100
AcDbArc
50
-89.999999
51
0.000000
0
POLYLINE
5
2a0
100
AcDbEntity
8
0
6
CONTINUOUS
62
5
100
AcDb2dPolyline
66
1
10
0.0
20
0.0
30
0.0
70
0
0
VERTEX
5
2a1
100
AcDbEntity
8
0
100
AcDbVertex
100
AcDb2dVertex
62
5
10
130.150000
20
198.350000
0
VERTEX
5
2a2
100
AcDbEntity
8
0
100
AcDbVertex
100
AcDb2dVertex
62
5
10
130.150000
20
208.350000
0
VERTEX
5
2a3
100
AcDbEntity
8
0
100
AcDbVertex
100
AcDb2dVertex
62
5
10
128.450000
20
208.350000
0
SEQEND
5
2a4
100
AcDbEntity
8
0
0
POLYLINE
5
2a5
100
AcDbEntity
8
0
6
CONTINUOUS
62
5
100
AcDb2dPolyline
66
1
10
0.0
20
0.0
30
0.0
70
0
0
VERTEX
5
2a6
100
AcDbEntity
8
0
100
AcDbVertex
100
AcDb2dVertex
62
5
10
128.450000
20
208.350000
0
VERTEX
5
2a7
100
AcDbEntity
8
0
100
AcDbVertex
100
AcDb2dVertex
62
5
10
128.450000
20
204.250000
0
VERTEX
5
2a8
100
AcDbEntity
8
0
100
AcDbVertex
100
AcDb2dVertex
62
5
10
129.000000
20
202.250000
0
VERTEX
5
2a9
100
AcDbEntity
8
0
100
AcDbVertex
100
AcDb2dVertex
62
5
10
129.000000
20
201.250000
0
VERTEX
5
2aa
100
AcDbEntity
8
0
100
AcDbVertex
100
AcDb2dVertex
62
5
10
128.450000
20
199.250000
0
VERTEX
5
2ab
100
AcDbEntity
8
0
100
AcDbVertex
100
AcDb2dVertex
62
5
10
128.450000
20
198.150000
0
VERTEX
5
2ac
100
AcDbEntity
8
0
100
AcDbVertex
100
AcDb2dVertex
62
5
10
129.950000
20
198.150000
0
SEQEND
5
2ad
100
AcDbEntity
8
0
0
LINE
5
2ae
100
AcDbEntity
8
0
100
AcDbLine
6
CONTINUOUS
62
5
10
120.116667
20
206.466667
11
120.350000
21
206.700000
0
LINE
5
2af
100
AcDbEntity
8
0
100
AcDbLine
6
CONTINUOUS
62
5
10
123.450000
20
206.250000
11
122.450000
21
206.250000
0
POLYLINE
5
2b0
100
AcDbEntity
8
0
6
CONTINUOUS
62
5
100
AcDb2dPolyline
66
1
10
0.0
20
0.0
30
0.0
70
1
0
VERTEX
5
2b1
100
AcDbEntity
8
0
100
AcDbVertex
100
AcDb2dVertex
62
5
10
122.460102
20
205.647224
0
VERTEX
5
2b2
100
AcDbEntity
8
0
100
AcDbVertex
100
AcDb2dVertex
62
5
10
122.460102
20
205.550000
0
VERTEX
5
2b3
100
AcDbEntity
8
0
100
AcDbVertex
100
AcDb2dVertex
62
5
10
123.439898
20
205.550000
0
VERTEX
5
2b4
100
AcDbEntity
8
0
100
AcDbVertex
100
AcDb2dVertex
62
5
10
123.439898
20
205.647224
0
VERTEX
5
2b5
100
AcDbEntity
8
0
100
AcDbVertex
100
AcDb2dVertex
62
5
10
123.409279
20
205.910939
0
VERTEX
5
2b6
100
AcDbEntity
8
0
100
AcDbVertex
100
AcDb2dVertex
62
5
10
123.317423
20
206.099306
0
VERTEX
5
2b7
100
AcDbEntity
8
0
100
AcDbVertex
100
AcDb2dVertex
62
5
10
123.164330
20
206.212327
0
VERTEX
5
2b8
100
AcDbEntity
8
0
100
AcDbVertex
100
AcDb2dVertex
62
5
10
122.950000
20
206.250000
0
VERTEX
5
2b9
100
AcDbEntity
8
0
100
AcDbVertex
100
AcDb2dVertex
62
5
10
122.735670
20
206.212327
0
VERTEX
5
2ba
100
AcDbEntity
8
0
100
AcDbVertex
100
AcDb2dVertex
62
5
10
122.582577
20
206.099306
0
VERTEX
5
2bb
100
AcDbEntity
8
0
100
AcDbVertex
100
AcDb2dVertex
62
5
10
122.490721
20
205.910939
0
SEQEND
5
2bc
100
AcDbEntity
8
0
0
POLYLINE
5
2bd
100
AcDbEntity
8
0
6
CONTINUOUS
62
5
100
AcDb2dPolyline
66
1
10
0.0
20
0.0
30
0.0
70
0
0
VERTEX
5
2be
100
AcDbEntity
8
0
100
AcDbVertex
100
AcDb2dVertex
62
5
10
121.850000
20
208.350000
0
VERTEX
5
2bf
100
AcDbEntity
8
0
100
AcDbVertex
100
AcDb2dVertex
62
5
10
122.113636
20
207.822727
0
VERTEX
5
2c0
100
AcDbEntity
8
0
100
AcDbVertex
100
AcDb2dVertex
62
5
10
122.450000
20
207.150000
0
VERTEX
5
2c1
100
AcDbEntity
8
0
100
AcDbVertex
100
AcDb2dVertex
62
5
10
122.450000
20
207.150000
0
SEQEND
5
2c2
100
AcDbEntity
8
0
0
LINE
5
2c3
100
AcDbEntity
8
0
100
AcDbLine
6
CONTINUOUS
62
5
10
113.000000
20
191.500000
11
113.200000
21
193.000000
0
ARC
5
2c4
100
AcDbEntity
8
0
100
AcDbCircle
6
CONTINUOUS
62
5
10
102.500000
20
197.000000
40
2.250000
100
AcDbArc
50
89.999999
51
-89.999999
0
ARC
5
2c5
100
AcDbEntity
8
0
100
AcDbCircle
6
CONTINUOUS
62
5
10
102.500000
20
197.000000
40
4.000000
100
AcDbArc
50
89.999999
51
-89.999999
0
LINE
5
2c6
100
AcDbEntity
8
0
100
AcDbLine
6
CONTINUOUS
62
5
10
102.500000
20
199.250000
11
104.500000
21
199.250000
0
LINE
5
2c7
100
AcDbEntity
8
0
100
AcDbLine
6
CONTINUOUS
62
5
10
102.500000
20
201.000000
11
104.500000
21
201.000000
0
LINE
5
2c8
100
AcDbEntity
8
0
100
AcDbLine
6
CONTINUOUS
62
5
10
104.500000
20
194.750000
11
102.500000
21
194.750000
0
LINE
5
2c9
100
AcDbEntity
8
0
100
AcDbLine
6
CONTINUOUS
62
5
10
102.500000
20
193.000000
11
104.500000
21
193.000000
0
ARC
5
2ca
100
AcDbEntity
8
0
100
AcDbCircle
6
CONTINUOUS
62
5
10
104.500000
20
197.000000
40
2.250000
100
AcDbArc
50
-89.999999
51
89.999999
0
ARC
5
2cb
100
AcDbEntity
8
0
100
AcDbCircle
6
CONTINUOUS
62
5
10
104.500000
20
197.000000
40
4.000000
100
AcDbArc
50
-89.999999
51
89.999999
0
POLYLINE
5
2cc
100
AcDbEntity
8
1
6
CONTINUOUS
62
5
100
AcDb2dPolyline
66
1
10
0.0
20
0.0
30
0.0
70
0
0
VERTEX
5
2cd
100
AcDbEntity
8
1
100
AcDbVertex
100
AcDb2dVertex
62
5
10
123.501662
20
198.250000
0
VERTEX
5
2ce
100
AcDbEntity
8
1
100
AcDbVertex
100
AcDb2dVertex
62
5
10
122.500000
20
198.250000
0
VERTEX
5
2cf
100
AcDbEntity
8
1
100
AcDbVertex
100
AcDb2dVertex
62
5
10
122.500000
20
205.250000
0
VERTEX
5
2d0
100
AcDbEntity
8
1
100
AcDbVertex
100
AcDb2dVertex
62
5
10
123.501662
20
205.250000
0
SEQEND
5
2d1
100
AcDbEntity
8
1
0
POLYLINE
5
2d2
100
AcDbEntity
8
0
6
CONTINUOUS
62
5
100
AcDb2dPolyline
66
1
10
0.0
20
0.0
30
0.0
70
0
0
VERTEX
5
2d3
100
AcDbEntity
8
0
100
AcDbVertex
100
AcDb2dVertex
62
5
10
122.118657
20
207.812686
0
VERTEX
5
2d4
100
AcDbEntity
8
0
100
AcDbVertex
100
AcDb2dVertex
62
5
10
123.501662
20
207.812687
0
VERTEX
5
2d5
100
AcDbEntity
8
0
100
AcDbVertex
100
AcDb2dVertex
62
5
10
123.501662
20
204.256526
0
VERTEX
5
2d6
100
AcDbEntity
8
0
100
AcDbVertex
100
AcDb2dVertex
62
5
10
122.951667
20
202.256523
0
VERTEX
5
2d7
100
AcDbEntity
8
0
100
AcDbVertex
100
AcDb2dVertex
62
5
10
122.951667
20
201.243477
0
VERTEX
5
2d8
100
AcDbEntity
8
0
100
AcDbVertex
100
AcDb2dVertex
62
5
10
123.501662
20
199.243474
0
VERTEX
5
2d9
100
AcDbEntity
8
0
100
AcDbVertex
100
AcDb2dVertex
62
5
10
123.501662
20
198.150000
0
SEQEND
5
2da
100
AcDbEntity
8
0
0
ARC
5
2db
100
AcDbEntity
8
0
100
AcDbCircle
6
CONTINUOUS
62
5
10
122.650000
20
198.350000
40
0.200000
100
AcDbArc
50
-179.999998
51
-89.999999
0
POLYLINE
5
2dc
100
AcDbEntity
8
0
6
CONTINUOUS
62
5
100
AcDb2dPolyline
66
1
10
0.0
20
0.0
30
0.0
70
0
0
VERTEX
5
2dd
100
AcDbEntity
8
0
100
AcDbVertex
100
AcDb2dVertex
62
5
10
122.450000
20
198.350000
0
VERTEX
5
2de
100
AcDbEntity
8
0
100
AcDbVertex
100
AcDb2dVertex
62
5
10
122.450000
20
199.127778
0
VERTEX
5
2df
100
AcDbEntity
8
0
100
AcDbVertex
100
AcDb2dVertex
62
5
10
121.900000
20
201.127778
0
VERTEX
5
2e0
100
AcDbEntity
8
0
100
AcDbVertex
100
AcDb2dVertex
62
5
10
121.900000
20
202.372222
0
VERTEX
5
2e1
100
AcDbEntity
8
0
100
AcDbVertex
100
AcDb2dVertex
62
5
10
122.450000
20
204.372222
0
VERTEX
5
2e2
100
AcDbEntity
8
0
100
AcDbVertex
100
AcDb2dVertex
62
5
10
122.450000
20
207.150000
0
VERTEX
5
2e3
100
AcDbEntity
8
0
100
AcDbVertex
100
AcDb2dVertex
62
5
10
123.450000
20
207.150000
0
VERTEX
5
2e4
100
AcDbEntity
8
0
100
AcDbVertex
100
AcDb2dVertex
62
5
10
123.450000
20
205.250000
0
SEQEND
5
2e5
100
AcDbEntity
8
0
0
ARC
5
2e6
100
AcDbEntity
8
0
100
AcDbCircle
6
CONTINUOUS
62
5
10
122.050000
20
198.350000
40
0.200000
100
AcDbArc
50
179.999998
51
-89.999999
0
POLYLINE
5
2e7
100
AcDbEntity
8
0
6
CONTINUOUS
62
5
100
AcDb2dPolyline
66
1
10
0.0
20
0.0
30
0.0
70
0
0
VERTEX
5
2e8
100
AcDbEntity
8
0
100
AcDbVertex
100
AcDb2dVertex
62
5
10
121.850000
20
198.350000
0
VERTEX
5
2e9
100
AcDbEntity
8
0
100
AcDbVertex
100
AcDb2dVertex
62
5
10
121.850000
20
208.350000
0
VERTEX
5
2ea
100
AcDbEntity
8
0
100
AcDbVertex
100
AcDb2dVertex
62
5
10
123.550000
20
208.350000
0
SEQEND
5
2eb
100
AcDbEntity
8
0
0
POLYLINE
5
2ec
100
AcDbEntity
8
0
6
CONTINUOUS
62
5
100
AcDb2dPolyline
66
1
10
0.0
20
0.0
30
0.0
70
0
0
VERTEX
5
2ed
100
AcDbEntity
8
0
100
AcDbVertex
100
AcDb2dVertex
62
5
10
123.550000
20
208.350000
0
VERTEX
5
2ee
100
AcDbEntity
8
0
100
AcDbVertex
100
AcDb2dVertex
62
5
10
123.550000
20
204.250000
0
VERTEX
5
2ef
100
AcDbEntity
8
0
100
AcDbVertex
100
AcDb2dVertex
62
5
10
123.000000
20
202.250000
0
VERTEX
5
2f0
100
AcDbEntity
8
0
100
AcDbVertex
100
AcDb2dVertex
62
5
10
123.000000
20
201.250000
0
VERTEX
5
2f1
100
AcDbEntity
8
0
100
AcDbVertex
100
AcDb2dVertex
62
5
10
123.550000
20
199.250000
0
VERTEX
5
2f2
100
AcDbEntity
8
0
100
AcDbVertex
100
AcDb2dVertex
62
5
10
123.550000
20
198.150000
0
VERTEX
5
2f3
100
AcDbEntity
8
0
100
AcDbVertex
100
AcDb2dVertex
62
5
10
122.050000
20
198.150000
0
SEQEND
5
2f4
100
AcDbEntity
8
0
0
CIRCLE
5
2f5
100
AcDbEntity
8
1
100
AcDbCircle
6
CONTINUOUS
62
5
10
126.000000
20
201.750000
40
1.700000
0
CIRCLE
5
2f6
100
AcDbEntity
8
0
100
AcDbCircle
6
CONTINUOUS
62
5
10
126.000000
20
201.750000
40
2.050000
0
CIRCLE
5
2f7
100
AcDbEntity
8
0
100
AcDbCircle
6
CONTINUOUS
62
5
10
126.000000
20
201.750000
40
2.650000
0
ARC
5
2f8
100
AcDbEntity
8
0
100
AcDbCircle
6
CONTINUOUS
62
5
10
114.089479
20
209.606667
40
3.000000
100
AcDbArc
50
-158.776342
51
-89.999999
0
POLYLINE
5
2f9
100
AcDbEntity
8
0
6
CONTINUOUS
62
5
100
AcDb2dPolyline
66
1
10
0.0
20
0.0
30
0.0
70
0
0
VERTEX
5
2fa
100
AcDbEntity
8
0
100
AcDbVertex
100
AcDb2dVertex
62
5
10
114.089479
20
206.606667
0
VERTEX
5
2fb
100
AcDbEntity
8
0
100
AcDbVertex
100
AcDb2dVertex
62
5
10
116.624088
20
206.606667
0
VERTEX
5
2fc
100
AcDbEntity
8
0
100
AcDbVertex
100
AcDb2dVertex
62
5
10
116.700000
20
206.466667
0
VERTEX
5
2fd
100
AcDbEntity
8
0
100
AcDbVertex
100
AcDb2dVertex
62
5
10
120.116667
20
206.466667
0
VERTEX
5
2fe
100
AcDbEntity
8
0
100
AcDbVertex
100
AcDb2dVertex
62
5
10
120.116666
20
198.350003
0
SEQEND
5
2ff
100
AcDbEntity
8
0
0
ARC
5
300
100
AcDbEntity
8
0
100
AcDbCircle
6
CONTINUOUS
62
5
10
122.200003
20
198.350003
40
2.083337
100
AcDbArc
50
179.999998
51
-89.968377
0
LINE
5
301
100
AcDbEntity
8
0
100
AcDbLine
6
CONTINUOUS
62
5
10
122.201153
20
196.266667
11
129.801147
21
196.266667
0
ARC
5
302
100
AcDbEntity
8
0
100
AcDbCircle
6
CONTINUOUS
62
5
10
129.799997
20
198.350003
40
2.083337
100
AcDbArc
50
-89.968371
51
-0.000000
0
POLYLINE
5
303
100
AcDbEntity
8
0
6
CONTINUOUS
62
5
100
AcDb2dPolyline
66
1
10
0.0
20
0.0
30
0.0
70
0
0
VERTEX
5
304
100
AcDbEntity
8
0
100
AcDbVertex
100
AcDb2dVertex
62
5
10
131.883334
20
198.350003
0
VERTEX
5
305
100
AcDbEntity
8
0
100
AcDbVertex
100
AcDb2dVertex
62
5
10
131.883333
20
206.466667
0
VERTEX
5
306
100
AcDbEntity
8
0
100
AcDbVertex
100
AcDb2dVertex
62
5
10
131.650000
20
206.700000
0
SEQEND
5
307
100
AcDbEntity
8
0
0
LINE
5
308
100
AcDbEntity
8
0
100
AcDbLine
6
CONTINUOUS
62
5
10
111.256710
20
208.613972
11
111.292956
21
208.520638
0
POLYLINE
5
309
100
AcDbEntity
8
0
6
CONTINUOUS
62
5
100
AcDb2dPolyline
66
1
10
0.0
20
0.0
30
0.0
70
0
0
VERTEX
5
30a
100
AcDbEntity
8
0
100
AcDbVertex
100
AcDb2dVertex
62
5
10
136.700000
20
220.500000
0
VERTEX
5
30b
100
AcDbEntity
8
0
100
AcDbVertex
100
AcDb2dVertex
62
5
10
136.700000
20
220.419697
0
VERTEX
5
30c
100
AcDbEntity
8
0
100
AcDbVertex
100
AcDb2dVertex
62
5
10
134.800000
20
220.340909
0
VERTEX
5
30d
100
AcDbEntity
8
0
100
AcDbVertex
100
AcDb2dVertex
62
5
10
117.200000
20
220.340909
0
VERTEX
5
30e
100
AcDbEntity
8
0
100
AcDbVertex
100
AcDb2dVertex
62
5
10
115.300000
20
220.419697
0
VERTEX
5
30f
100
AcDbEntity
8
0
100
AcDbVertex
100
AcDb2dVertex
62
5
10
115.300000
20
220.500000
0
SEQEND
5
310
100
AcDbEntity
8
0
0
POLYLINE
5
311
100
AcDbEntity
8
0
6
CONTINUOUS
62
5
100
AcDb2dPolyline
66
1
10
0.0
20
0.0
30
0.0
70
0
0
VERTEX
5
312
100
AcDbEntity
8
0
100
AcDbVertex
100
AcDb2dVertex
62
5
10
136.550000
20
220.413477
0
VERTEX
5
313
100
AcDbEntity
8
0
100
AcDbVertex
100
AcDb2dVertex
62
5
10
136.550000
20
220.500000
0
VERTEX
5
314
100
AcDbEntity
8
0
100
AcDbVertex
100
AcDb2dVertex
62
5
10
115.450000
20
220.500000
0
VERTEX
5
315
100
AcDbEntity
8
0
100
AcDbVertex
100
AcDb2dVertex
62
5
10
115.450000
20
220.413477
0
SEQEND
5
316
100
AcDbEntity
8
0
0
POLYLINE
5
317
100
AcDbEntity
8
0
6
CONTINUOUS
62
5
100
AcDb2dPolyline
66
1
10
0.0
20
0.0
30
0.0
70
0
0
VERTEX
5
318
100
AcDbEntity
8
0
100
AcDbVertex
100
AcDb2dVertex
62
5
10
117.000000
20
191.500000
0
VERTEX
5
319
100
AcDbEntity
8
0
100
AcDbVertex
100
AcDb2dVertex
62
5
10
135.000000
20
191.500000
0
VERTEX
5
31a
100
AcDbEntity
8
0
100
AcDbVertex
100
AcDb2dVertex
62
5
10
135.200000
20
193.000000
0
VERTEX
5
31b
100
AcDbEntity
8
0
100
AcDbVertex
100
AcDb2dVertex
62
5
10
116.800000
20
193.000000
0
VERTEX
5
31c
100
AcDbEntity
8
0
100
AcDbVertex
100
AcDb2dVertex
62
5
10
117.000000
20
191.500000
0
SEQEND
5
31d
100
AcDbEntity
8
0
0
ARC
5
31e
100
AcDbEntity
8
0
100
AcDbCircle
6
CONTINUOUS
62
5
10
132.850000
20
205.500000
40
0.500000
100
AcDbArc
50
89.999999
51
-179.999998
0
POLYLINE
5
31f
100
AcDbEntity
8
0
6
CONTINUOUS
62
5
100
AcDb2dPolyline
66
1
10
0.0
20
0.0
30
0.0
70
0
0
VERTEX
5
320
100
AcDbEntity
8
0
100
AcDbVertex
100
AcDb2dVertex
62
5
10
132.350000
20
205.500000
0
VERTEX
5
321
100
AcDbEntity
8
0
100
AcDbVertex
100
AcDb2dVertex
62
5
10
132.350000
20
203.500000
0
VERTEX
5
322
100
AcDbEntity
8
0
100
AcDbVertex
100
AcDb2dVertex
62
5
10
132.585786
20
203.500000
0
SEQEND
5
323
100
AcDbEntity
8
0
0
ARC
5
324
100
AcDbEntity
8
0
100
AcDbCircle
6
CONTINUOUS
62
5
10
134.000000
20
201.750000
40
2.250000
100
AcDbArc
50
-128.942440
51
128.942440
0
POLYLINE
5
325
100
AcDbEntity
8
0
6
CONTINUOUS
62
5
100
AcDb2dPolyline
66
1
10
0.0
20
0.0
30
0.0
70
0
0
VERTEX
5
326
100
AcDbEntity
8
0
100
AcDbVertex
100
AcDb2dVertex
62
5
10
132.585786
20
200.000000
0
VERTEX
5
327
100
AcDbEntity
8
0
100
AcDbVertex
100
AcDb2dVertex
62
5
10
132.350000
20
200.000000
0
VERTEX
5
328
100
AcDbEntity
8
0
100
AcDbVertex
100
AcDb2dVertex
62
5
10
132.350000
20
198.350000
0
SEQEND
5
329
100
AcDbEntity
8
0
0
ARC
5
32a
100
AcDbEntity
8
0
100
AcDbCircle
6
CONTINUOUS
62
5
10
129.800000
20
198.350000
40
2.550000
100
AcDbArc
50
-89.999999
51
0.000000
0
LINE
5
32b
100
AcDbEntity
8
0
100
AcDbLine
6
CONTINUOUS
62
5
10
129.800000
20
195.800000
11
122.200000
21
195.800000
0
ARC
5
32c
100
AcDbEntity
8
0
100
AcDbCircle
6
CONTINUOUS
62
5
10
122.200000
20
198.350000
40
2.550000
100
AcDbArc
50
-179.999989
51
-89.999999
0
POLYLINE
5
32d
100
AcDbEntity
8
0
6
CONTINUOUS
62
5
100
AcDb2dPolyline
66
1
10
0.0
20
0.0
30
0.0
70
0
0
VERTEX
5
32e
100
AcDbEntity
8
0
100
AcDbVertex
100
AcDb2dVertex
62
5
10
119.650000
20
198.350000
0
VERTEX
5
32f
100
AcDbEntity
8
0
100
AcDbVertex
100
AcDb2dVertex
62
5
10
119.650000
20
200.000000
0
VERTEX
5
330
100
AcDbEntity
8
0
100
AcDbVertex
100
AcDb2dVertex
62
5
10
119.414214
20
200.000000
0
SEQEND
5
331
100
AcDbEntity
8
0
0
ARC
5
332
100
AcDbEntity
8
0
100
AcDbCircle
6
CONTINUOUS
62
5
10
118.000000
20
201.750000
40
2.250000
100
AcDbArc
50
51.057558
51
-51.057558
0
POLYLINE
5
333
100
AcDbEntity
8
0
6
CONTINUOUS
62
5
100
AcDb2dPolyline
66
1
10
0.0
20
0.0
30
0.0
70
0
0
VERTEX
5
334
100
AcDbEntity
8
0
100
AcDbVertex
100
AcDb2dVertex
62
5
10
119.414214
20
203.500000
0
VERTEX
5
335
100
AcDbEntity
8
0
100
AcDbVertex
100
AcDb2dVertex
62
5
10
119.650000
20
203.500000
0
VERTEX
5
336
100
AcDbEntity
8
0
100
AcDbVertex
100
AcDb2dVertex
62
5
10
119.650000
20
205.500000
0
SEQEND
5
337
100
AcDbEntity
8
0
0
ARC
5
338
100
AcDbEntity
8
0
100
AcDbCircle
6
CONTINUOUS
62
5
10
119.150000
20
205.500000
40
0.500000
100
AcDbArc
50
0.000000
51
89.999999
0
POLYLINE
5
339
100
AcDbEntity
8
0
6
CONTINUOUS
62
5
100
AcDb2dPolyline
66
1
10
0.0
20
0.0
30
0.0
70
0
0
VERTEX
5
33a
100
AcDbEntity
8
0
100
AcDbVertex
100
AcDb2dVertex
62
5
10
119.150000
20
206.000000
0
VERTEX
5
33b
100
AcDbEntity
8
0
100
AcDbVertex
100
AcDb2dVertex
62
5
10
112.000000
20
206.000000
0
VERTEX
5
33c
100
AcDbEntity
8
0
100
AcDbVertex
100
AcDb2dVertex
62
5
10
108.000000
20
202.400000
0
VERTEX
5
33d
100
AcDbEntity
8
0
100
AcDbVertex
100
AcDb2dVertex
62
5
10
94.500000
20
202.400000
0
SEQEND
5
33e
100
AcDbEntity
8
0
0
POLYLINE
5
33f
100
AcDbEntity
8
0
6
CONTINUOUS
62
5
100
AcDb2dPolyline
66
1
10
0.0
20
0.0
30
0.0
70
0
0
VERTEX
5
340
100
AcDbEntity
8
0
100
AcDbVertex
100
AcDb2dVertex
62
5
10
157.500000
20
202.400000
0
VERTEX
5
341
100
AcDbEntity
8
0
100
AcDbVertex
100
AcDb2dVertex
62
5
10
144.000000
20
202.400000
0
VERTEX
5
342
100
AcDbEntity
8
0
100
AcDbVertex
100
AcDb2dVertex
62
5
10
140.000000
20
206.000000
0
VERTEX
5
343
100
AcDbEntity
8
0
100
AcDbVertex
100
AcDb2dVertex
62
5
10
132.850000
20
206.000000
0
SEQEND
5
344
100
AcDbEntity
8
0
0
LINE
5
345
100
AcDbEntity
8
1
100
AcDbLine
6
CONTINUOUS
62
5
10
90.500000
20
214.500000
11
90.500000
21
247.500000
0
LINE
5
346
100
AcDbEntity
8
1
100
AcDbLine
6
CONTINUOUS
62
5
10
161.500000
20
214.500000
11
161.500000
21
247.500000
0
POLYLINE
5
347
100
AcDbEntity
8
1
6
CONTINUOUS
62
5
100
AcDb2dPolyline
66
1
10
0.0
20
0.0
30
0.0
70
0
0
VERTEX
5
348
100
AcDbEntity
8
1
100
AcDbVertex
100
AcDb2dVertex
62
5
10
126.000000
20
245.500000
0
VERTEX
5
349
100
AcDbEntity
8
1
100
AcDbVertex
100
AcDb2dVertex
62
5
10
90.500000
20
245.500000
0
VERTEX
5
34a
100
AcDbEntity
8
1
100
AcDbVertex
100
AcDb2dVertex
62
5
10
96.500000
20
246.500000
0
VERTEX
5
34b
100
AcDbEntity
8
1
100
AcDbVertex
100
AcDb2dVertex
62
5
10
96.500000
20
244.500000
0
VERTEX
5
34c
100
AcDbEntity
8
1
100
AcDbVertex
100
AcDb2dVertex
62
5
10
90.500000
20
245.500000
0
VERTEX
5
34d
100
AcDbEntity
8
1
100
AcDbVertex
100
AcDb2dVertex
62
5
10
96.500000
20
246.000000
0
VERTEX
5
34e
100
AcDbEntity
8
1
100
AcDbVertex
100
AcDb2dVertex
62
5
10
96.500000
20
245.000000
0
VERTEX
5
34f
100
AcDbEntity
8
1
100
AcDbVertex
100
AcDb2dVertex
62
5
10
90.500000
20
245.500000
0
SEQEND
5
350
100
AcDbEntity
8
1
0
POLYLINE
5
351
100
AcDbEntity
8
1
6
CONTINUOUS
62
5
100
AcDb2dPolyline
66
1
10
0.0
20
0.0
30
0.0
70
0
0
VERTEX
5
352
100
AcDbEntity
8
1
100
AcDbVertex
100
AcDb2dVertex
62
5
10
126.000000
20
245.500000
0
VERTEX
5
353
100
AcDbEntity
8
1
100
AcDbVertex
100
AcDb2dVertex
62
5
10
161.500000
20
245.500000
0
VERTEX
5
354
100
AcDbEntity
8
1
100
AcDbVertex
100
AcDb2dVertex
62
5
10
155.500000
20
244.500000
0
VERTEX
5
355
100
AcDbEntity
8
1
100
AcDbVertex
100
AcDb2dVertex
62
5
10
155.500000
20
246.500000
0
VERTEX
5
356
100
AcDbEntity
8
1
100
AcDbVertex
100
AcDb2dVertex
62
5
10
161.500000
20
245.500000
0
VERTEX
5
357
100
AcDbEntity
8
1
100
AcDbVertex
100
AcDb2dVertex
62
5
10
155.500000
20
245.000000
0
VERTEX
5
358
100
AcDbEntity
8
1
100
AcDbVertex
100
AcDb2dVertex
62
5
10
155.500000
20
246.000000
0
VERTEX
5
359
100
AcDbEntity
8
1
100
AcDbVertex
100
AcDb2dVertex
62
5
10
161.500000
20
245.500000
0
SEQEND
5
35a
100
AcDbEntity
8
1
0
POLYLINE
5
35b
100
AcDbEntity
8
1
6
CONTINUOUS
62
5
100
AcDb2dPolyline
66
1
10
0.0
20
0.0
30
0.0
70
0
0
VERTEX
5
35c
100
AcDbEntity
8
1
100
AcDbVertex
100
AcDb2dVertex
62
5
10
168.125000
20
338.375000
0
VERTEX
5
35d
100
AcDbEntity
8
1
100
AcDbVertex
100
AcDb2dVertex
62
5
10
169.062500
20
339.000000
0
VERTEX
5
35e
100
AcDbEntity
8
1
100
AcDbVertex
100
AcDb2dVertex
62
5
10
169.062500
20
331.500000
0
SEQEND
5
35f
100
AcDbEntity
8
1
0
LINE
5
360
100
AcDbEntity
8
1
100
AcDbLine
6
CONTINUOUS
62
5
10
168.437500
20
331.500000
11
169.687500
21
331.500000
0
LINE
5
361
100
AcDbEntity
8
1
100
AcDbLine
6
CONTINUOUS
62
5
10
10.000000
20
318.000000
11
330.000000
21
318.000000
0
ARC
5
362
100
AcDbEntity
8
1
100
AcDbCircle
6
CONTINUOUS
62
5
10
215.500000
20
110.513696
40
0.500000
100
AcDbArc
50
91.591139
51
179.999998
0
LINE
5
363
100
AcDbEntity
8
1
100
AcDbLine
6
CONTINUOUS
62
5
10
215.000000
20
110.513696
11
215.000000
21
107.917777
0
ARC
5
364
100
AcDbEntity
8
1
100
AcDbCircle
6
CONTINUOUS
62
5
10
215.500000
20
107.917777
40
0.500000
100
AcDbArc
50
179.999998
51
-93.814074
0
LINE
5
365
100
AcDbEntity
8
1
100
AcDbLine
6
CONTINUOUS
62
5
10
215.466740
20
107.418884
11
216.500000
21
107.350000
0
LINE
5
366
100
AcDbEntity
8
1
100
AcDbLine
6
CONTINUOUS
62
5
10
216.500000
20
111.041667
11
215.486116
21
111.013503
0
LINE
5
367
100
AcDbEntity
8
0
100
AcDbLine
6
CONTINUOUS
62
5
10
153.000000
20
169.400000
11
153.000000
21
172.000000
0
ARC
5
368
100
AcDbEntity
8
0
100
AcDbCircle
6
CONTINUOUS
62
5
10
153.483374
20
170.700000
40
0.483374
100
AcDbArc
50
108.551386
51
-108.551386
0
LINE
5
369
100
AcDbEntity
8
0
100
AcDbLine
6
CONTINUOUS
62
5
10
153.329586
20
171.158258
11
153.500000
21
171.158258
0
LINE
5
36a
100
AcDbEntity
8
0
100
AcDbLine
6
CONTINUOUS
62
5
10
153.500000
20
170.241742
11
153.329586
21
170.241742
0
LINE
5
36b
100
AcDbEntity
8
1
100
AcDbLine
6
CONTINUOUS
62
5
10
153.500000
20
172.000000
11
155.800000
21
172.000000
0
POLYLINE
5
36c
100
AcDbEntity
8
0
6
CONTINUOUS
62
5
100
AcDb2dPolyline
66
1
10
0.0
20
0.0
30
0.0
70
0
0
VERTEX
5
36d
100
AcDbEntity
8
0
100
AcDbVertex
100
AcDb2dVertex
62
5
10
153.500000
20
169.400000
0
VERTEX
5
36e
100
AcDbEntity
8
0
100
AcDbVertex
100
AcDb2dVertex
62
5
10
152.000000
20
169.400000
0
VERTEX
5
36f
100
AcDbEntity
8
0
100
AcDbVertex
100
AcDb2dVertex
62
5
10
152.000000
20
172.000000
0
VERTEX
5
370
100
AcDbEntity
8
0
100
AcDbVertex
100
AcDb2dVertex
62
5
10
153.500000
20
172.000000
0
SEQEND
5
371
100
AcDbEntity
8
0
0
LINE
5
372
100
AcDbEntity
8
1
100
AcDbLine
6
CONTINUOUS
62
5
10
153.879000
20
159.300000
11
153.879000
21
172.000000
0
ARC
5
373
100
AcDbEntity
8
0
100
AcDbCircle
6
CONTINUOUS
62
5
10
153.000000
20
160.000000
40
2.250000
100
AcDbArc
50
77.160411
51
-62.181860
0
POLYLINE
5
374
100
AcDbEntity
8
0
6
CONTINUOUS
62
5
100
AcDb2dPolyline
66
1
10
0.0
20
0.0
30
0.0
70
0
0
VERTEX
5
375
100
AcDbEntity
8
0
100
AcDbVertex
100
AcDb2dVertex
62
5
10
157.500000
20
169.400000
0
VERTEX
5
376
100
AcDbEntity
8
0
100
AcDbVertex
100
AcDb2dVertex
62
5
10
155.800000
20
169.400000
0
VERTEX
5
377
100
AcDbEntity
8
0
100
AcDbVertex
100
AcDb2dVertex
62
5
10
155.800000
20
172.000000
0
VERTEX
5
378
100
AcDbEntity
8
0
100
AcDbVertex
100
AcDb2dVertex
62
5
10
157.500000
20
172.000000
0
SEQEND
5
379
100
AcDbEntity
8
0
0
LINE
5
37a
100
AcDbEntity
8
1
100
AcDbLine
6
CONTINUOUS
62
5
10
157.500000
20
174.000000
11
151.500000
21
174.000000
0
LINE
5
37b
100
AcDbEntity
8
1
100
AcDbLine
6
CONTINUOUS
62
5
10
157.250000
20
159.300000
11
153.750000
21
159.300000
0
LINE
5
37c
100
AcDbEntity
8
1
100
AcDbLine
6
CONTINUOUS
62
5
10
157.121000
20
169.400000
11
157.121000
21
159.300000
0
ARC
5
37d
100
AcDbEntity
8
1
100
AcDbCircle
6
CONTINUOUS
62
5
10
153.750000
20
159.000000
40
0.300000
100
AcDbArc
50
-0.000000
51
89.999999
0
POLYLINE
5
37e
100
AcDbEntity
8
1
6
CONTINUOUS
62
5
100
AcDb2dPolyline
66
1
10
0.0
20
0.0
30
0.0
70
0
0
VERTEX
5
37f
100
AcDbEntity
8
1
100
AcDbVertex
100
AcDb2dVertex
62
5
10
154.050000
20
159.000000
0
VERTEX
5
380
100
AcDbEntity
8
1
100
AcDbVertex
100
AcDb2dVertex
62
5
10
154.050000
20
157.800000
0
VERTEX
5
381
100
AcDbEntity
8
1
100
AcDbVertex
100
AcDb2dVertex
62
5
10
156.950000
20
157.800000
0
VERTEX
5
382
100
AcDbEntity
8
1
100
AcDbVertex
100
AcDb2dVertex
62
5
10
156.950000
20
159.000000
0
SEQEND
5
383
100
AcDbEntity
8
1
0
ARC
5
384
100
AcDbEntity
8
1
100
AcDbCircle
6
CONTINUOUS
62
5
10
157.250000
20
159.000000
40
0.300000
100
AcDbArc
50
89.999999
51
179.999998
0
POLYLINE
5
385
100
AcDbEntity
8
1
6
CONTINUOUS
62
5
100
AcDb2dPolyline
66
1
10
0.0
20
0.0
30
0.0
70
0
0
VERTEX
5
386
100
AcDbEntity
8
1
100
AcDbVertex
100
AcDb2dVertex
62
5
10
157.250000
20
159.300000
0
VERTEX
5
387
100
AcDbEntity
8
1
100
AcDbVertex
100
AcDb2dVertex
62
5
10
157.500000
20
159.300000
0
VERTEX
5
388
100
AcDbEntity
8
1
100
AcDbVertex
100
AcDb2dVertex
62
5
10
157.500000
20
169.400000
0
SEQEND
5
389
100
AcDbEntity
8
1
0
POLYLINE
5
38a
100
AcDbEntity
8
1
6
CONTINUOUS
62
5
100
AcDb2dPolyline
66
1
10
0.0
20
0.0
30
0.0
70
0
0
VERTEX
5
38b
100
AcDbEntity
8
1
100
AcDbVertex
100
AcDb2dVertex
62
5
10
157.500000
20
174.300000
0
VERTEX
5
38c
100
AcDbEntity
8
1
100
AcDbVertex
100
AcDb2dVertex
62
5
10
151.500000
20
174.300000
0
VERTEX
5
38d
100
AcDbEntity
8
1
100
AcDbVertex
100
AcDb2dVertex
62
5
10
151.500000
20
174.000000
0
VERTEX
5
38e
100
AcDbEntity
8
1
100
AcDbVertex
100
AcDb2dVertex
62
5
10
153.500000
20
172.000000
0
VERTEX
5
38f
100
AcDbEntity
8
1
100
AcDbVertex
100
AcDb2dVertex
62
5
10
153.500000
20
159.300000
0
VERTEX
5
390
100
AcDbEntity
8
1
100
AcDbVertex
100
AcDb2dVertex
62
5
10
153.750000
20
159.300000
0
SEQEND
5
391
100
AcDbEntity
8
1
0
LINE
5
392
100
AcDbEntity
8
0
100
AcDbLine
6
CONTINUOUS
62
5
10
144.500000
20
162.000000
11
146.000000
21
161.800000
0
LINE
5
393
100
AcDbEntity
8
0
100
AcDbLine
6
CONTINUOUS
62
5
10
144.500000
20
158.000000
11
146.000000
21
158.200000
0
LINE
5
394
100
AcDbEntity
8
0
100
AcDbLine
6
CONTINUOUS
62
5
10
135.287088
20
175.000000
11
133.691272
21
174.800000
0
ARC
5
395
100
AcDbEntity
8
0
100
AcDbCircle
6
CONTINUOUS
62
5
10
153.000000
20
160.000000
40
4.000000
100
AcDbArc
50
82.819243
51
-33.367013
0
LINE
5
396
100
AcDbEntity
8
0
100
AcDbLine
6
CONTINUOUS
62
5
10
99.000000
20
169.400000
11
99.000000
21
172.000000
0
ARC
5
397
100
AcDbEntity
8
0
100
AcDbCircle
6
CONTINUOUS
62
5
10
98.516626
20
170.700000
40
0.483374
100
AcDbArc
50
-71.448613
51
71.448613
0
LINE
5
398
100
AcDbEntity
8
0
100
AcDbLine
6
CONTINUOUS
62
5
10
98.670414
20
171.158258
11
98.500000
21
171.158258
0
LINE
5
399
100
AcDbEntity
8
0
100
AcDbLine
6
CONTINUOUS
62
5
10
98.500000
20
170.241742
11
98.670414
21
170.241742
0
POLYLINE
5
39a
100
AcDbEntity
8
0
6
CONTINUOUS
62
5
100
AcDb2dPolyline
66
1
10
0.0
20
0.0
30
0.0
70
0
0
VERTEX
5
39b
100
AcDbEntity
8
0
100
AcDbVertex
100
AcDb2dVertex
62
5
10
98.500000
20
169.400000
0
VERTEX
5
39c
100
AcDbEntity
8
0
100
AcDbVertex
100
AcDb2dVertex
62
5
10
100.000000
20
169.400000
0
VERTEX
5
39d
100
AcDbEntity
8
0
100
AcDbVertex
100
AcDb2dVertex
62
5
10
100.000000
20
172.000000
0
VERTEX
5
39e
100
AcDbEntity
8
0
100
AcDbVertex
100
AcDb2dVertex
62
5
10
98.500000
20
172.000000
0
SEQEND
5
39f
100
AcDbEntity
8
0
0
POLYLINE
5
3a0
100
AcDbEntity
8
0
6
CONTINUOUS
62
5
100
AcDb2dPolyline
66
1
10
0.0
20
0.0
30
0.0
70
0
0
VERTEX
5
3a1
100
AcDbEntity
8
0
100
AcDbVertex
100
AcDb2dVertex
62
5
10
94.500000
20
169.400000
0
VERTEX
5
3a2
100
AcDbEntity
8
0
100
AcDbVertex
100
AcDb2dVertex
62
5
10
96.200000
20
169.400000
0
VERTEX
5
3a3
100
AcDbEntity
8
0
100
AcDbVertex
100
AcDb2dVertex
62
5
10
96.200000
20
172.000000
0
VERTEX
5
3a4
100
AcDbEntity
8
0
100
AcDbVertex
100
AcDb2dVertex
62
5
10
94.500000
20
172.000000
0
SEQEND
5
3a5
100
AcDbEntity
8
0
0
LINE
5
3a6
100
AcDbEntity
8
1
100
AcDbLine
6
CONTINUOUS
62
5
10
98.500000
20
172.000000
11
96.200000
21
172.000000
0
LINE
5
3a7
100
AcDbEntity
8
1
100
AcDbLine
6
CONTINUOUS
62
5
10
94.500000
20
174.000000
11
100.500000
21
174.000000
0
LINE
5
3a8
100
AcDbEntity
8
1
100
AcDbLine
6
CONTINUOUS
62
5
10
98.250000
20
159.300000
11
94.750000
21
159.300000
0
LINE
5
3a9
100
AcDbEntity
8
1
100
AcDbLine
6
CONTINUOUS
62
5
10
98.121000
20
172.000000
11
98.121000
21
159.300000
0
ARC
5
3aa
100
AcDbEntity
8
0
100
AcDbCircle
6
CONTINUOUS
62
5
10
99.000000
20
160.000000
40
2.250000
100
AcDbArc
50
-117.818138
51
102.839588
0
LINE
5
3ab
100
AcDbEntity
8
1
100
AcDbLine
6
CONTINUOUS
62
5
10
94.879000
20
159.300000
11
94.879000
21
169.400000
0
ARC
5
3ac
100
AcDbEntity
8
1
100
AcDbCircle
6
CONTINUOUS
62
5
10
98.250000
20
159.000000
40
0.300000
100
AcDbArc
50
89.999999
51
-179.999998
0
POLYLINE
5
3ad
100
AcDbEntity
8
1
6
CONTINUOUS
62
5
100
AcDb2dPolyline
66
1
10
0.0
20
0.0
30
0.0
70
0
0
VERTEX
5
3ae
100
AcDbEntity
8
1
100
AcDbVertex
100
AcDb2dVertex
62
5
10
97.950000
20
159.000000
0
VERTEX
5
3af
100
AcDbEntity
8
1
100
AcDbVertex
100
AcDb2dVertex
62
5
10
97.950000
20
157.800000
0
VERTEX
5
3b0
100
AcDbEntity
8
1
100
AcDbVertex
100
AcDb2dVertex
62
5
10
95.050000
20
157.800000
0
VERTEX
5
3b1
100
AcDbEntity
8
1
100
AcDbVertex
100
AcDb2dVertex
62
5
10
95.050000
20
159.000000
0
SEQEND
5
3b2
100
AcDbEntity
8
1
0
ARC
5
3b3
100
AcDbEntity
8
1
100
AcDbCircle
6
CONTINUOUS
62
5
10
94.750000
20
159.000000
40
0.300000
100
AcDbArc
50
0.000000
51
89.999999
0
POLYLINE
5
3b4
100
AcDbEntity
8
1
6
CONTINUOUS
62
5
100
AcDb2dPolyline
66
1
10
0.0
20
0.0
30
0.0
70
0
0
VERTEX
5
3b5
100
AcDbEntity
8
1
100
AcDbVertex
100
AcDb2dVertex
62
5
10
94.750000
20
159.300000
0
VERTEX
5
3b6
100
AcDbEntity
8
1
100
AcDbVertex
100
AcDb2dVertex
62
5
10
94.500000
20
159.300000
0
VERTEX
5
3b7
100
AcDbEntity
8
1
100
AcDbVertex
100
AcDb2dVertex
62
5
10
94.500000
20
169.400000
0
SEQEND
5
3b8
100
AcDbEntity
8
1
0
POLYLINE
5
3b9
100
AcDbEntity
8
1
6
CONTINUOUS
62
5
100
AcDb2dPolyline
66
1
10
0.0
20
0.0
30
0.0
70
0
0
VERTEX
5
3ba
100
AcDbEntity
8
1
100
AcDbVertex
100
AcDb2dVertex
62
5
10
94.500000
20
174.300000
0
VERTEX
5
3bb
100
AcDbEntity
8
1
100
AcDbVertex
100
AcDb2dVertex
62
5
10
100.500000
20
174.300000
0
VERTEX
5
3bc
100
AcDbEntity
8
1
100
AcDbVertex
100
AcDb2dVertex
62
5
10
100.500000
20
174.000000
0
VERTEX
5
3bd
100
AcDbEntity
8
1
100
AcDbVertex
100
AcDb2dVertex
62
5
10
98.500000
20
172.000000
0
VERTEX
5
3be
100
AcDbEntity
8
1
100
AcDbVertex
100
AcDb2dVertex
62
5
10
98.500000
20
159.300000
0
VERTEX
5
3bf
100
AcDbEntity
8
1
100
AcDbVertex
100
AcDb2dVertex
62
5
10
98.250000
20
159.300000
0
SEQEND
5
3c0
100
AcDbEntity
8
1
0
ARC
5
3c1
100
AcDbEntity
8
0
100
AcDbCircle
6
CONTINUOUS
62
5
10
99.000000
20
160.000000
40
4.000000
100
AcDbArc
50
-146.632986
51
97.180755
0
ARC
5
3c2
100
AcDbEntity
8
0
100
AcDbCircle
6
CONTINUOUS
62
5
10
129.500000
20
177.591316
40
0.500000
100
AcDbArc
50
0.000000
51
89.999999
0
LINE
5
3c3
100
AcDbEntity
8
0
100
AcDbLine
6
CONTINUOUS
62
5
10
130.000000
20
177.591316
11
130.000000
21
176.391316
0
ARC
5
3c4
100
AcDbEntity
8
0
100
AcDbCircle
6
CONTINUOUS
62
5
10
129.500000
20
176.391316
40
0.500000
100
AcDbArc
50
-89.999999
51
0.000000
0
LINE
5
3c5
100
AcDbEntity
8
0
100
AcDbLine
6
CONTINUOUS
62
5
10
129.500000
20
175.891316
11
122.500000
21
175.891316
0
ARC
5
3c6
100
AcDbEntity
8
0
100
AcDbCircle
6
CONTINUOUS
62
5
10
122.500000
20
176.391316
40
0.500000
100
AcDbArc
50
179.999998
51
-89.999999
0
LINE
5
3c7
100
AcDbEntity
8
0
100
AcDbLine
6
CONTINUOUS
62
5
10
122.000000
20
176.391316
11
122.000000
21
177.591316
0
ARC
5
3c8
100
AcDbEntity
8
0
100
AcDbCircle
6
CONTINUOUS
62
5
10
122.500000
20
177.591316
40
0.500000
100
AcDbArc
50
89.999999
51
179.999998
0
LINE
5
3c9
100
AcDbEntity
8
0
100
AcDbLine
6
CONTINUOUS
62
5
10
122.500000
20
178.091316
11
129.500000
21
178.091316
0
ARC
5
3ca
100
AcDbEntity
8
0
100
AcDbCircle
6
CONTINUOUS
62
5
10
129.500000
20
143.591316
40
0.500000
100
AcDbArc
50
0.000000
51
89.999999
0
LINE
5
3cb
100
AcDbEntity
8
0
100
AcDbLine
6
CONTINUOUS
62
5
10
130.000000
20
143.591316
11
130.000000
21
142.391316
0
ARC
5
3cc
100
AcDbEntity
8
0
100
AcDbCircle
6
CONTINUOUS
62
5
10
129.500000
20
142.391316
40
0.500000
100
AcDbArc
50
-89.999999
51
0.000000
0
LINE
5
3cd
100
AcDbEntity
8
0
100
AcDbLine
6
CONTINUOUS
62
5
10
129.500000
20
141.891316
11
122.500000
21
141.891316
0
ARC
5
3ce
100
AcDbEntity
8
0
100
AcDbCircle
6
CONTINUOUS
62
5
10
122.500000
20
142.391316
40
0.500000
100
AcDbArc
50
179.999998
51
-89.999999
0
LINE
5
3cf
100
AcDbEntity
8
0
100
AcDbLine
6
CONTINUOUS
62
5
10
122.000000
20
142.391316
11
122.000000
21
143.591316
0
ARC
5
3d0
100
AcDbEntity
8
0
100
AcDbCircle
6
CONTINUOUS
62
5
10
122.500000
20
143.591316
40
0.500000
100
AcDbArc
50
89.999999
51
179.999998
0
LINE
5
3d1
100
AcDbEntity
8
0
100
AcDbLine
6
CONTINUOUS
62
5
10
122.500000
20
144.091316
11
129.500000
21
144.091316
0
ARC
5
3d2
100
AcDbEntity
8
0
100
AcDbCircle
6
CONTINUOUS
62
5
10
126.000000
20
176.999626
40
7.999626
100
AcDbArc
50
-164.040003
51
-15.959996
0
LINE
5
3d3
100
AcDbEntity
8
0
100
AcDbLine
6
CONTINUOUS
62
5
10
118.308728
20
174.800000
11
116.712912
21
175.000000
0
ARC
5
3d4
100
AcDbEntity
8
0
100
AcDbCircle
6
CONTINUOUS
62
5
10
126.000000
20
177.000000
40
9.500000
100
AcDbArc
50
-167.846801
51
-12.153197
0
LINE
5
3d5
100
AcDbEntity
8
0
100
AcDbLine
6
CONTINUOUS
62
5
10
135.287088
20
175.000000
11
133.691272
21
174.800000
0
ARC
5
3d6
100
AcDbEntity
8
0
100
AcDbCircle
6
CONTINUOUS
62
5
10
126.000000
20
143.000374
40
7.999626
100
AcDbArc
50
15.959996
51
164.040003
0
LINE
5
3d7
100
AcDbEntity
8
0
100
AcDbLine
6
CONTINUOUS
62
5
10
118.308728
20
145.200000
11
116.712912
21
145.000000
0
ARC
5
3d8
100
AcDbEntity
8
0
100
AcDbCircle
6
CONTINUOUS
62
5
10
126.000000
20
143.000000
40
9.500000
100
AcDbArc
50
12.153197
51
167.846801
0
LINE
5
3d9
100
AcDbEntity
8
0
100
AcDbLine
6
CONTINUOUS
62
5
10
135.287088
20
145.000000
11
133.691272
21
145.200000
0
ARC
5
3da
100
AcDbEntity
8
0
100
AcDbCircle
6
CONTINUOUS
62
5
10
149.500000
20
123.000000
40
2.250000
100
AcDbArc
50
-89.999999
51
89.999999
0
ARC
5
3db
100
AcDbEntity
8
0
100
AcDbCircle
6
CONTINUOUS
62
5
10
149.500000
20
123.000000
40
4.000000
100
AcDbArc
50
-89.999999
51
89.999999
0
ARC
5
3dc
100
AcDbEntity
8
0
100
AcDbCircle
6
CONTINUOUS
62
5
10
147.500000
20
123.000000
40
2.250000
100
AcDbArc
50
89.999999
51
-89.999999
0
ARC
5
3dd
100
AcDbEntity
8
0
100
AcDbCircle
6
CONTINUOUS
62
5
10
147.500000
20
123.000000
40
4.000000
100
AcDbArc
50
89.999999
51
-89.999999
0
LINE
5
3de
100
AcDbEntity
8
0
100
AcDbLine
6
CONTINUOUS
62
5
10
139.000000
20
128.500000
11
138.800000
21
127.000000
0
LINE
5
3df
100
AcDbEntity
8
0
100
AcDbLine
6
CONTINUOUS
62
5
10
131.883333
20
113.533333
11
131.650000
21
113.300000
0
LINE
5
3e0
100
AcDbEntity
8
0
100
AcDbLine
6
CONTINUOUS
62
5
10
128.550000
20
121.850000
11
128.550000
21
121.750000
0
LINE
5
3e1
100
AcDbEntity
8
0
100
AcDbLine
6
CONTINUOUS
62
5
10
128.550000
20
113.750000
11
129.550000
21
113.750000
0
POLYLINE
5
3e2
100
AcDbEntity
8
0
6
CONTINUOUS
62
5
100
AcDb2dPolyline
66
1
10
0.0
20
0.0
30
0.0
70
1
0
VERTEX
5
3e3
100
AcDbEntity
8
0
100
AcDbVertex
100
AcDb2dVertex
62
5
10
129.539898
20
114.352776
0
VERTEX
5
3e4
100
AcDbEntity
8
0
100
AcDbVertex
100
AcDb2dVertex
62
5
10
129.539898
20
114.450000
0
VERTEX
5
3e5
100
AcDbEntity
8
0
100
AcDbVertex
100
AcDb2dVertex
62
5
10
128.560102
20
114.450000
0
VERTEX
5
3e6
100
AcDbEntity
8
0
100
AcDbVertex
100
AcDb2dVertex
62
5
10
128.560102
20
114.352776
0
VERTEX
5
3e7
100
AcDbEntity
8
0
100
AcDbVertex
100
AcDb2dVertex
62
5
10
128.590721
20
114.089061
0
VERTEX
5
3e8
100
AcDbEntity
8
0
100
AcDbVertex
100
AcDb2dVertex
62
5
10
128.682577
20
113.900694
0
VERTEX
5
3e9
100
AcDbEntity
8
0
100
AcDbVertex
100
AcDb2dVertex
62
5
10
128.835670
20
113.787673
0
VERTEX
5
3ea
100
AcDbEntity
8
0
100
AcDbVertex
100
AcDb2dVertex
62
5
10
129.050000
20
113.750000
0
VERTEX
5
3eb
100
AcDbEntity
8
0
100
AcDbVertex
100
AcDb2dVertex
62
5
10
129.264330
20
113.787673
0
VERTEX
5
3ec
100
AcDbEntity
8
0
100
AcDbVertex
100
AcDb2dVertex
62
5
10
129.417423
20
113.900694
0
VERTEX
5
3ed
100
AcDbEntity
8
0
100
AcDbVertex
100
AcDb2dVertex
62
5
10
129.509279
20
114.089061
0
SEQEND
5
3ee
100
AcDbEntity
8
0
0
ARC
5
3ef
100
AcDbEntity
8
0
100
AcDbCircle
6
CONTINUOUS
62
5
10
129.350000
20
121.650000
40
0.200000
100
AcDbArc
50
0.000000
51
89.999999
0
POLYLINE
5
3f0
100
AcDbEntity
8
0
6
CONTINUOUS
62
5
100
AcDb2dPolyline
66
1
10
0.0
20
0.0
30
0.0
70
0
0
VERTEX
5
3f1
100
AcDbEntity
8
0
100
AcDbVertex
100
AcDb2dVertex
62
5
10
129.550000
20
121.650000
0
VERTEX
5
3f2
100
AcDbEntity
8
0
100
AcDbVertex
100
AcDb2dVertex
62
5
10
129.550000
20
120.872222
0
VERTEX
5
3f3
100
AcDbEntity
8
0
100
AcDbVertex
100
AcDb2dVertex
62
5
10
130.100000
20
118.872222
0
VERTEX
5
3f4
100
AcDbEntity
8
0
100
AcDbVertex
100
AcDb2dVertex
62
5
10
130.100000
20
117.627778
0
VERTEX
5
3f5
100
AcDbEntity
8
0
100
AcDbVertex
100
AcDb2dVertex
62
5
10
129.550000
20
115.627778
0
VERTEX
5
3f6
100
AcDbEntity
8
0
100
AcDbVertex
100
AcDb2dVertex
62
5
10
129.550000
20
112.850000
0
VERTEX
5
3f7
100
AcDbEntity
8
0
100
AcDbVertex
100
AcDb2dVertex
62
5
10
128.550000
20
112.850000
0
VERTEX
5
3f8
100
AcDbEntity
8
0
100
AcDbVertex
100
AcDb2dVertex
62
5
10
128.550000
20
114.750000
0
SEQEND
5
3f9
100
AcDbEntity
8
0
0
POLYLINE
5
3fa
100
AcDbEntity
8
1
6
CONTINUOUS
62
5
100
AcDb2dPolyline
66
1
10
0.0
20
0.0
30
0.0
70
0
0
VERTEX
5
3fb
100
AcDbEntity
8
1
100
AcDbVertex
100
AcDb2dVertex
62
5
10
128.498338
20
121.750000
0
VERTEX
5
3fc
100
AcDbEntity
8
1
100
AcDbVertex
100
AcDb2dVertex
62
5
10
129.500000
20
121.750000
0
VERTEX
5
3fd
100
AcDbEntity
8
1
100
AcDbVertex
100
AcDb2dVertex
62
5
10
129.500000
20
114.750000
0
VERTEX
5
3fe
100
AcDbEntity
8
1
100
AcDbVertex
100
AcDb2dVertex
62
5
10
128.498338
20
114.750000
0
SEQEND
5
3ff
100
AcDbEntity
8
1
0
LINE
5
400
100
AcDbEntity
8
0
100
AcDbLine
6
CONTINUOUS
62
5
10
147.500000
20
125.250000
11
149.500000
21
125.250000
0
LINE
5
401
100
AcDbEntity
8
0
100
AcDbLine
6
CONTINUOUS
62
5
10
149.500000
20
127.000000
11
147.500000
21
127.000000
0
LINE
5
402
100
AcDbEntity
8
0
100
AcDbLine
6
CONTINUOUS
62
5
10
149.500000
20
119.000000
11
147.500000
21
119.000000
0
LINE
5
403
100
AcDbEntity
8
0
100
AcDbLine
6
CONTINUOUS
62
5
10
149.500000
20
120.750000
11
147.500000
21
120.750000
0
POLYLINE
5
404
100
AcDbEntity
8
0
6
CONTINUOUS
62
5
100
AcDb2dPolyline
66
1
10
0.0
20
0.0
30
0.0
70
0
0
VERTEX
5
405
100
AcDbEntity
8
0
100
AcDbVertex
100
AcDb2dVertex
62
5
10
130.150000
20
111.650000
0
VERTEX
5
406
100
AcDbEntity
8
0
100
AcDbVertex
100
AcDb2dVertex
62
5
10
129.886364
20
112.177273
0
VERTEX
5
407
100
AcDbEntity
8
0
100
AcDbVertex
100
AcDb2dVertex
62
5
10
129.550000
20
112.850000
0
VERTEX
5
408
100
AcDbEntity
8
0
100
AcDbVertex
100
AcDb2dVertex
62
5
10
129.550000
20
112.850000
0
SEQEND
5
409
100
AcDbEntity
8
0
0
POLYLINE
5
40a
100
AcDbEntity
8
0
6
CONTINUOUS
62
5
100
AcDb2dPolyline
66
1
10
0.0
20
0.0
30
0.0
70
0
0
VERTEX
5
40b
100
AcDbEntity
8
0
100
AcDbVertex
100
AcDb2dVertex
62
5
10
129.881343
20
112.187314
0
VERTEX
5
40c
100
AcDbEntity
8
0
100
AcDbVertex
100
AcDb2dVertex
62
5
10
128.498338
20
112.187313
0
VERTEX
5
40d
100
AcDbEntity
8
0
100
AcDbVertex
100
AcDb2dVertex
62
5
10
128.498338
20
115.743474
0
VERTEX
5
40e
100
AcDbEntity
8
0
100
AcDbVertex
100
AcDb2dVertex
62
5
10
129.048333
20
117.743477
0
VERTEX
5
40f
100
AcDbEntity
8
0
100
AcDbVertex
100
AcDb2dVertex
62
5
10
129.048333
20
118.756523
0
VERTEX
5
410
100
AcDbEntity
8
0
100
AcDbVertex
100
AcDb2dVertex
62
5
10
128.498338
20
120.756526
0
VERTEX
5
411
100
AcDbEntity
8
0
100
AcDbVertex
100
AcDb2dVertex
62
5
10
128.498338
20
121.850000
0
SEQEND
5
412
100
AcDbEntity
8
0
0
ARC
5
413
100
AcDbEntity
8
0
100
AcDbCircle
6
CONTINUOUS
62
5
10
129.950000
20
121.650000
40
0.200000
100
AcDbArc
50
0.000000
51
89.999999
0
POLYLINE
5
414
100
AcDbEntity
8
0
6
CONTINUOUS
62
5
100
AcDb2dPolyline
66
1
10
0.0
20
0.0
30
0.0
70
0
0
VERTEX
5
415
100
AcDbEntity
8
0
100
AcDbVertex
100
AcDb2dVertex
62
5
10
130.150000
20
121.650000
0
VERTEX
5
416
100
AcDbEntity
8
0
100
AcDbVertex
100
AcDb2dVertex
62
5
10
130.150000
20
111.650000
0
VERTEX
5
417
100
AcDbEntity
8
0
100
AcDbVertex
100
AcDb2dVertex
62
5
10
128.450000
20
111.650000
0
SEQEND
5
418
100
AcDbEntity
8
0
0
POLYLINE
5
419
100
AcDbEntity
8
0
6
CONTINUOUS
62
5
100
AcDb2dPolyline
66
1
10
0.0
20
0.0
30
0.0
70
0
0
VERTEX
5
41a
100
AcDbEntity
8
0
100
AcDbVertex
100
AcDb2dVertex
62
5
10
128.450000
20
111.650000
0
VERTEX
5
41b
100
AcDbEntity
8
0
100
AcDbVertex
100
AcDb2dVertex
62
5
10
128.450000
20
115.750000
0
VERTEX
5
41c
100
AcDbEntity
8
0
100
AcDbVertex
100
AcDb2dVertex
62
5
10
129.000000
20
117.750000
0
VERTEX
5
41d
100
AcDbEntity
8
0
100
AcDbVertex
100
AcDb2dVertex
62
5
10
129.000000
20
118.750000
0
VERTEX
5
41e
100
AcDbEntity
8
0
100
AcDbVertex
100
AcDb2dVertex
62
5
10
128.450000
20
120.750000
0
VERTEX
5
41f
100
AcDbEntity
8
0
100
AcDbVertex
100
AcDb2dVertex
62
5
10
128.450000
20
121.850000
0
VERTEX
5
420
100
AcDbEntity
8
0
100
AcDbVertex
100
AcDb2dVertex
62
5
10
129.950000
20
121.850000
0
SEQEND
5
421
100
AcDbEntity
8
0
0
LINE
5
422
100
AcDbEntity
8
0
100
AcDbLine
6
CONTINUOUS
62
5
10
117.000000
20
128.500000
11
116.800000
21
127.000000
0
LINE
5
423
100
AcDbEntity
8
0
100
AcDbLine
6
CONTINUOUS
62
5
10
123.450000
20
113.750000
11
122.450000
21
113.750000
0
POLYLINE
5
424
100
AcDbEntity
8
0
6
CONTINUOUS
62
5
100
AcDb2dPolyline
66
1
10
0.0
20
0.0
30
0.0
70
1
0
VERTEX
5
425
100
AcDbEntity
8
0
100
AcDbVertex
100
AcDb2dVertex
62
5
10
122.460102
20
114.352776
0
VERTEX
5
426
100
AcDbEntity
8
0
100
AcDbVertex
100
AcDb2dVertex
62
5
10
122.460102
20
114.450000
0
VERTEX
5
427
100
AcDbEntity
8
0
100
AcDbVertex
100
AcDb2dVertex
62
5
10
123.439898
20
114.450000
0
VERTEX
5
428
100
AcDbEntity
8
0
100
AcDbVertex
100
AcDb2dVertex
62
5
10
123.439898
20
114.352776
0
VERTEX
5
429
100
AcDbEntity
8
0
100
AcDbVertex
100
AcDb2dVertex
62
5
10
123.409279
20
114.089061
0
VERTEX
5
42a
100
AcDbEntity
8
0
100
AcDbVertex
100
AcDb2dVertex
62
5
10
123.317423
20
113.900694
0
VERTEX
5
42b
100
AcDbEntity
8
0
100
AcDbVertex
100
AcDb2dVertex
62
5
10
123.164330
20
113.787673
0
VERTEX
5
42c
100
AcDbEntity
8
0
100
AcDbVertex
100
AcDb2dVertex
62
5
10
122.950000
20
113.750000
0
VERTEX
5
42d
100
AcDbEntity
8
0
100
AcDbVertex
100
AcDb2dVertex
62
5
10
122.735670
20
113.787673
0
VERTEX
5
42e
100
AcDbEntity
8
0
100
AcDbVertex
100
AcDb2dVertex
62
5
10
122.582577
20
113.900694
0
VERTEX
5
42f
100
AcDbEntity
8
0
100
AcDbVertex
100
AcDb2dVertex
62
5
10
122.490721
20
114.089061
0
SEQEND
5
430
100
AcDbEntity
8
0
0
POLYLINE
5
431
100
AcDbEntity
8
1
6
CONTINUOUS
62
5
100
AcDb2dPolyline
66
1
10
0.0
20
0.0
30
0.0
70
0
0
VERTEX
5
432
100
AcDbEntity
8
1
100
AcDbVertex
100
AcDb2dVertex
62
5
10
123.501662
20
121.750000
0
VERTEX
5
433
100
AcDbEntity
8
1
100
AcDbVertex
100
AcDb2dVertex
62
5
10
122.500000
20
121.750000
0
VERTEX
5
434
100
AcDbEntity
8
1
100
AcDbVertex
100
AcDb2dVertex
62
5
10
122.500000
20
114.750000
0
VERTEX
5
435
100
AcDbEntity
8
1
100
AcDbVertex
100
AcDb2dVertex
62
5
10
123.501662
20
114.750000
0
SEQEND
5
436
100
AcDbEntity
8
1
0
ARC
5
437
100
AcDbEntity
8
0
100
AcDbCircle
6
CONTINUOUS
62
5
10
122.650000
20
121.650000
40
0.200000
100
AcDbArc
50
89.999999
51
179.999998
0
POLYLINE
5
438
100
AcDbEntity
8
0
6
CONTINUOUS
62
5
100
AcDb2dPolyline
66
1
10
0.0
20
0.0
30
0.0
70
0
0
VERTEX
5
439
100
AcDbEntity
8
0
100
AcDbVertex
100
AcDb2dVertex
62
5
10
122.450000
20
121.650000
0
VERTEX
5
43a
100
AcDbEntity
8
0
100
AcDbVertex
100
AcDb2dVertex
62
5
10
122.450000
20
120.872222
0
VERTEX
5
43b
100
AcDbEntity
8
0
100
AcDbVertex
100
AcDb2dVertex
62
5
10
121.900000
20
118.872222
0
VERTEX
5
43c
100
AcDbEntity
8
0
100
AcDbVertex
100
AcDb2dVertex
62
5
10
121.900000
20
117.627778
0
VERTEX
5
43d
100
AcDbEntity
8
0
100
AcDbVertex
100
AcDb2dVertex
62
5
10
122.450000
20
115.627778
0
VERTEX
5
43e
100
AcDbEntity
8
0
100
AcDbVertex
100
AcDb2dVertex
62
5
10
122.450000
20
112.850000
0
VERTEX
5
43f
100
AcDbEntity
8
0
100
AcDbVertex
100
AcDb2dVertex
62
5
10
123.450000
20
112.850000
0
VERTEX
5
440
100
AcDbEntity
8
0
100
AcDbVertex
100
AcDb2dVertex
62
5
10
123.450000
20
114.750000
0
SEQEND
5
441
100
AcDbEntity
8
0
0
LINE
5
442
100
AcDbEntity
8
0
100
AcDbLine
6
CONTINUOUS
62
5
10
113.000000
20
128.500000
11
113.200000
21
127.000000
0
ARC
5
443
100
AcDbEntity
8
0
100
AcDbCircle
6
CONTINUOUS
62
5
10
102.500000
20
123.000000
40
2.250000
100
AcDbArc
50
89.999999
51
-89.999999
0
ARC
5
444
100
AcDbEntity
8
0
100
AcDbCircle
6
CONTINUOUS
62
5
10
102.500000
20
123.000000
40
4.000000
100
AcDbArc
50
89.999999
51
-89.999999
0
LINE
5
445
100
AcDbEntity
8
0
100
AcDbLine
6
CONTINUOUS
62
5
10
102.500000
20
127.000000
11
104.500000
21
127.000000
0
LINE
5
446
100
AcDbEntity
8
0
100
AcDbLine
6
CONTINUOUS
62
5
10
104.500000
20
125.250000
11
102.500000
21
125.250000
0
LINE
5
447
100
AcDbEntity
8
0
100
AcDbLine
6
CONTINUOUS
62
5
10
102.500000
20
119.000000
11
104.500000
21
119.000000
0
LINE
5
448
100
AcDbEntity
8
0
100
AcDbLine
6
CONTINUOUS
62
5
10
102.500000
20
120.750000
11
104.500000
21
120.750000
0
ARC
5
449
100
AcDbEntity
8
0
100
AcDbCircle
6
CONTINUOUS
62
5
10
104.500000
20
123.000000
40
2.250000
100
AcDbArc
50
-89.999999
51
89.999999
0
ARC
5
44a
100
AcDbEntity
8
0
100
AcDbCircle
6
CONTINUOUS
62
5
10
104.500000
20
123.000000
40
4.000000
100
AcDbArc
50
-89.999999
51
89.999999
0
ARC
5
44b
100
AcDbEntity
8
1
100
AcDbCircle
6
CONTINUOUS
62
5
10
116.000000
20
108.850000
40
2.250000
100
AcDbArc
50
2.230953
51
57.769047
0
LINE
5
44c
100
AcDbEntity
8
0
100
AcDbLine
6
CONTINUOUS
62
5
10
118.254510
20
106.509127
11
117.025498
21
106.872288
0
ARC
5
44d
100
AcDbEntity
8
1
100
AcDbCircle
6
CONTINUOUS
62
5
10
116.000000
20
108.850000
40
2.250000
100
AcDbArc
50
-117.769046
51
-62.230952
0
LINE
5
44e
100
AcDbEntity
8
0
100
AcDbLine
6
CONTINUOUS
62
5
10
119.154510
20
108.067973
11
118.225498
21
108.950748
0
ARC
5
44f
100
AcDbEntity
8
0
100
AcDbCircle
6
CONTINUOUS
62
5
10
116.000000
20
108.850000
40
2.227778
100
AcDbArc
50
-62.592014
51
2.592015
0
POLYLINE
5
450
100
AcDbEntity
8
0
6
CONTINUOUS
62
5
100
AcDb2dPolyline
66
1
10
0.0
20
0.0
30
0.0
70
0
0
VERTEX
5
451
100
AcDbEntity
8
0
100
AcDbVertex
100
AcDb2dVertex
62
5
10
117.025498
20
106.872288
0
VERTEX
5
452
100
AcDbEntity
8
0
100
AcDbVertex
100
AcDb2dVertex
62
5
10
117.048295
20
106.859126
0
VERTEX
5
453
100
AcDbEntity
8
0
100
AcDbVertex
100
AcDb2dVertex
62
5
10
118.254510
20
106.509127
0
SEQEND
5
454
100
AcDbEntity
8
0
0
POLYLINE
5
455
100
AcDbEntity
8
0
6
CONTINUOUS
62
5
100
AcDb2dPolyline
66
1
10
0.0
20
0.0
30
0.0
70
0
0
VERTEX
5
456
100
AcDbEntity
8
0
100
AcDbVertex
100
AcDb2dVertex
62
5
10
119.154510
20
108.067973
0
VERTEX
5
457
100
AcDbEntity
8
0
100
AcDbVertex
100
AcDb2dVertex
62
5
10
118.248295
20
108.937587
0
VERTEX
5
458
100
AcDbEntity
8
0
100
AcDbVertex
100
AcDb2dVertex
62
5
10
118.225498
20
108.950748
0
SEQEND
5
459
100
AcDbEntity
8
0
0
ARC
5
45a
100
AcDbEntity
8
1
100
AcDbCircle
6
CONTINUOUS
62
5
10
116.000000
20
108.850000
40
2.250000
100
AcDbArc
50
122.230952
51
177.769046
0
LINE
5
45b
100
AcDbEntity
8
0
100
AcDbLine
6
CONTINUOUS
62
5
10
113.745490
20
106.509127
11
114.974501
21
106.872288
0
ARC
5
45c
100
AcDbEntity
8
1
100
AcDbCircle
6
CONTINUOUS
62
5
10
116.000000
20
109.499794
40
2.150000
100
AcDbArc
50
-175.063765
51
-4.936233
0
ARC
5
45d
100
AcDbEntity
8
1
100
AcDbCircle
6
CONTINUOUS
62
5
10
116.000000
20
108.850000
40
2.191873
100
AcDbArc
50
167.757322
51
12.242677
0
ARC
5
45e
100
AcDbEntity
8
0
100
AcDbCircle
6
CONTINUOUS
62
5
10
116.000000
20
109.499794
40
2.050000
100
AcDbArc
50
-179.932926
51
-0.067072
0
ARC
5
45f
100
AcDbEntity
8
0
100
AcDbCircle
6
CONTINUOUS
62
5
10
116.000000
20
108.850000
40
2.149794
100
AcDbArc
50
17.526228
51
162.473771
0
ARC
5
460
100
AcDbEntity
8
0
100
AcDbCircle
6
CONTINUOUS
62
5
10
116.000000
20
109.499794
40
2.050000
100
AcDbArc
50
-179.932926
51
-0.067072
0
ARC
5
461
100
AcDbEntity
8
0
100
AcDbCircle
6
CONTINUOUS
62
5
10
116.000000
20
108.850000
40
2.149794
100
AcDbArc
50
17.526228
51
162.473771
0
LINE
5
462
100
AcDbEntity
8
0
100
AcDbLine
6
CONTINUOUS
62
5
10
112.845490
20
108.067973
11
113.774501
21
108.950748
0
ARC
5
463
100
AcDbEntity
8
0
100
AcDbCircle
6
CONTINUOUS
62
5
10
116.000000
20
108.850000
40
2.227778
100
AcDbArc
50
177.407984
51
-117.407984
0
POLYLINE
5
464
100
AcDbEntity
8
0
6
CONTINUOUS
62
5
100
AcDb2dPolyline
66
1
10
0.0
20
0.0
30
0.0
70
0
0
VERTEX
5
465
100
AcDbEntity
8
0
100
AcDbVertex
100
AcDb2dVertex
62
5
10
114.974502
20
106.872288
0
VERTEX
5
466
100
AcDbEntity
8
0
100
AcDbVertex
100
AcDb2dVertex
62
5
10
114.951705
20
106.859126
0
VERTEX
5
467
100
AcDbEntity
8
0
100
AcDbVertex
100
AcDb2dVertex
62
5
10
113.745490
20
106.509127
0
SEQEND
5
468
100
AcDbEntity
8
0
0
POLYLINE
5
469
100
AcDbEntity
8
0
6
CONTINUOUS
62
5
100
AcDb2dPolyline
66
1
10
0.0
20
0.0
30
0.0
70
0
0
VERTEX
5
46a
100
AcDbEntity
8
0
100
AcDbVertex
100
AcDb2dVertex
62
5
10
112.845490
20
108.067973
0
VERTEX
5
46b
100
AcDbEntity
8
0
100
AcDbVertex
100
AcDb2dVertex
62
5
10
113.751705
20
108.937587
0
VERTEX
5
46c
100
AcDbEntity
8
0
100
AcDbVertex
100
AcDb2dVertex
62
5
10
113.774502
20
108.950748
0
SEQEND
5
46d
100
AcDbEntity
8
0
0
LINE
5
46e
100
AcDbEntity
8
0
100
AcDbLine
6
CONTINUOUS
62
5
10
116.900000
20
111.972899
11
117.200000
21
110.726964
0
LINE
5
46f
100
AcDbEntity
8
0
100
AcDbLine
6
CONTINUOUS
62
5
10
115.100000
20
111.972899
11
114.800000
21
110.726964
0
ARC
5
470
100
AcDbEntity
8
0
100
AcDbCircle
6
CONTINUOUS
62
5
10
116.000000
20
108.850000
40
2.227778
100
AcDbArc
50
57.407985
51
122.592014
0
POLYLINE
5
471
100
AcDbEntity
8
0
6
CONTINUOUS
62
5
100
AcDb2dPolyline
66
1
10
0.0
20
0.0
30
0.0
70
0
0
VERTEX
5
472
100
AcDbEntity
8
0
100
AcDbVertex
100
AcDb2dVertex
62
5
10
114.800000
20
110.726964
0
VERTEX
5
473
100
AcDbEntity
8
0
100
AcDbVertex
100
AcDb2dVertex
62
5
10
114.800000
20
110.753287
0
VERTEX
5
474
100
AcDbEntity
8
0
100
AcDbVertex
100
AcDb2dVertex
62
5
10
115.100000
20
111.972899
0
SEQEND
5
475
100
AcDbEntity
8
0
0
POLYLINE
5
476
100
AcDbEntity
8
0
6
CONTINUOUS
62
5
100
AcDb2dPolyline
66
1
10
0.0
20
0.0
30
0.0
70
0
0
VERTEX
5
477
100
AcDbEntity
8
0
100
AcDbVertex
100
AcDb2dVertex
62
5
10
116.900000
20
111.972899
0
VERTEX
5
478
100
AcDbEntity
8
0
100
AcDbVertex
100
AcDb2dVertex
62
5
10
117.200000
20
110.753287
0
VERTEX
5
479
100
AcDbEntity
8
0
100
AcDbVertex
100
AcDb2dVertex
62
5
10
117.200000
20
110.726964
0
SEQEND
5
47a
100
AcDbEntity
8
0
0
POLYLINE
5
47b
100
AcDbEntity
8
0
6
CONTINUOUS
62
5
100
AcDb2dPolyline
66
1
10
0.0
20
0.0
30
0.0
70
0
0
VERTEX
5
47c
100
AcDbEntity
8
0
100
AcDbVertex
100
AcDb2dVertex
62
5
10
122.118657
20
112.187314
0
VERTEX
5
47d
100
AcDbEntity
8
0
100
AcDbVertex
100
AcDb2dVertex
62
5
10
123.501662
20
112.187313
0
VERTEX
5
47e
100
AcDbEntity
8
0
100
AcDbVertex
100
AcDb2dVertex
62
5
10
123.501662
20
115.743474
0
VERTEX
5
47f
100
AcDbEntity
8
0
100
AcDbVertex
100
AcDb2dVertex
62
5
10
122.951667
20
117.743477
0
VERTEX
5
480
100
AcDbEntity
8
0
100
AcDbVertex
100
AcDb2dVertex
62
5
10
122.951667
20
118.756523
0
VERTEX
5
481
100
AcDbEntity
8
0
100
AcDbVertex
100
AcDb2dVertex
62
5
10
123.501662
20
120.756526
0
VERTEX
5
482
100
AcDbEntity
8
0
100
AcDbVertex
100
AcDb2dVertex
62
5
10
123.501662
20
121.850000
0
SEQEND
5
483
100
AcDbEntity
8
0
0
POLYLINE
5
484
100
AcDbEntity
8
0
6
CONTINUOUS
62
5
100
AcDb2dPolyline
66
1
10
0.0
20
0.0
30
0.0
70
0
0
VERTEX
5
485
100
AcDbEntity
8
0
100
AcDbVertex
100
AcDb2dVertex
62
5
10
121.850000
20
111.650000
0
VERTEX
5
486
100
AcDbEntity
8
0
100
AcDbVertex
100
AcDb2dVertex
62
5
10
122.113636
20
112.177273
0
VERTEX
5
487
100
AcDbEntity
8
0
100
AcDbVertex
100
AcDb2dVertex
62
5
10
122.450000
20
112.850000
0
VERTEX
5
488
100
AcDbEntity
8
0
100
AcDbVertex
100
AcDb2dVertex
62
5
10
122.450000
20
112.850000
0
SEQEND
5
489
100
AcDbEntity
8
0
0
ARC
5
48a
100
AcDbEntity
8
0
100
AcDbCircle
6
CONTINUOUS
62
5
10
122.050000
20
121.650000
40
0.200000
100
AcDbArc
50
89.999999
51
179.999998
0
POLYLINE
5
48b
100
AcDbEntity
8
0
6
CONTINUOUS
62
5
100
AcDb2dPolyline
66
1
10
0.0
20
0.0
30
0.0
70
0
0
VERTEX
5
48c
100
AcDbEntity
8
0
100
AcDbVertex
100
AcDb2dVertex
62
5
10
121.850000
20
121.650000
0
VERTEX
5
48d
100
AcDbEntity
8
0
100
AcDbVertex
100
AcDb2dVertex
62
5
10
121.850000
20
111.650000
0
VERTEX
5
48e
100
AcDbEntity
8
0
100
AcDbVertex
100
AcDb2dVertex
62
5
10
123.550000
20
111.650000
0
SEQEND
5
48f
100
AcDbEntity
8
0
0
POLYLINE
5
490
100
AcDbEntity
8
0
6
CONTINUOUS
62
5
100
AcDb2dPolyline
66
1
10
0.0
20
0.0
30
0.0
70
0
0
VERTEX
5
491
100
AcDbEntity
8
0
100
AcDbVertex
100
AcDb2dVertex
62
5
10
123.550000
20
111.650000
0
VERTEX
5
492
100
AcDbEntity
8
0
100
AcDbVertex
100
AcDb2dVertex
62
5
10
123.550000
20
115.750000
0
VERTEX
5
493
100
AcDbEntity
8
0
100
AcDbVertex
100
AcDb2dVertex
62
5
10
123.000000
20
117.750000
0
VERTEX
5
494
100
AcDbEntity
8
0
100
AcDbVertex
100
AcDb2dVertex
62
5
10
123.000000
20
118.750000
0
VERTEX
5
495
100
AcDbEntity
8
0
100
AcDbVertex
100
AcDb2dVertex
62
5
10
123.550000
20
120.750000
0
VERTEX
5
496
100
AcDbEntity
8
0
100
AcDbVertex
100
AcDb2dVertex
62
5
10
123.550000
20
121.850000
0
VERTEX
5
497
100
AcDbEntity
8
0
100
AcDbVertex
100
AcDb2dVertex
62
5
10
122.050000
20
121.850000
0
SEQEND
5
498
100
AcDbEntity
8
0
0
ARC
5
499
100
AcDbEntity
8
0
100
AcDbCircle
6
CONTINUOUS
62
5
10
114.089479
20
110.393333
40
3.000000
100
AcDbArc
50
89.999999
51
158.776342
0
LINE
5
49a
100
AcDbEntity
8
0
100
AcDbLine
6
CONTINUOUS
62
5
10
114.089479
20
113.393333
11
120.256667
21
113.393333
0
LINE
5
49b
100
AcDbEntity
8
0
100
AcDbLine
6
CONTINUOUS
62
5
10
111.256710
20
111.386028
11
111.292956
21
111.479362
0
CIRCLE
5
49c
100
AcDbEntity
8
0
100
AcDbCircle
6
CONTINUOUS
62
5
10
116.000000
20
108.850000
40
3.250000
0
CIRCLE
5
49d
100
AcDbEntity
8
1
100
AcDbCircle
6
CONTINUOUS
62
5
10
126.000000
20
118.250000
40
1.700000
0
CIRCLE
5
49e
100
AcDbEntity
8
0
100
AcDbCircle
6
CONTINUOUS
62
5
10
126.000000
20
118.250000
40
2.050000
0
CIRCLE
5
49f
100
AcDbEntity
8
0
100
AcDbCircle
6
CONTINUOUS
62
5
10
126.000000
20
118.250000
40
2.650000
0
POLYLINE
5
4a0
100
AcDbEntity
8
0
6
CONTINUOUS
62
5
100
AcDb2dPolyline
66
1
10
0.0
20
0.0
30
0.0
70
0
0
VERTEX
5
4a1
100
AcDbEntity
8
0
100
AcDbVertex
100
AcDb2dVertex
62
5
10
117.000000
20
128.500000
0
VERTEX
5
4a2
100
AcDbEntity
8
0
100
AcDbVertex
100
AcDb2dVertex
62
5
10
135.000000
20
128.500000
0
VERTEX
5
4a3
100
AcDbEntity
8
0
100
AcDbVertex
100
AcDb2dVertex
62
5
10
135.200000
20
127.000000
0
VERTEX
5
4a4
100
AcDbEntity
8
0
100
AcDbVertex
100
AcDb2dVertex
62
5
10
116.800000
20
127.000000
0
VERTEX
5
4a5
100
AcDbEntity
8
0
100
AcDbVertex
100
AcDb2dVertex
62
5
10
117.000000
20
128.500000
0
SEQEND
5
4a6
100
AcDbEntity
8
0
0
POLYLINE
5
4a7
100
AcDbEntity
8
0
6
CONTINUOUS
62
5
100
AcDb2dPolyline
66
1
10
0.0
20
0.0
30
0.0
70
0
0
VERTEX
5
4a8
100
AcDbEntity
8
0
100
AcDbVertex
100
AcDb2dVertex
62
5
10
136.700000
20
99.500000
0
VERTEX
5
4a9
100
AcDbEntity
8
0
100
AcDbVertex
100
AcDb2dVertex
62
5
10
136.700000
20
99.580303
0
VERTEX
5
4aa
100
AcDbEntity
8
0
100
AcDbVertex
100
AcDb2dVertex
62
5
10
134.800000
20
99.659091
0
VERTEX
5
4ab
100
AcDbEntity
8
0
100
AcDbVertex
100
AcDb2dVertex
62
5
10
117.200000
20
99.659091
0
VERTEX
5
4ac
100
AcDbEntity
8
0
100
AcDbVertex
100
AcDb2dVertex
62
5
10
115.300000
20
99.580303
0
VERTEX
5
4ad
100
AcDbEntity
8
0
100
AcDbVertex
100
AcDb2dVertex
62
5
10
115.300000
20
99.500000
0
SEQEND
5
4ae
100
AcDbEntity
8
0
0
POLYLINE
5
4af
100
AcDbEntity
8
0
6
CONTINUOUS
62
5
100
AcDb2dPolyline
66
1
10
0.0
20
0.0
30
0.0
70
0
0
VERTEX
5
4b0
100
AcDbEntity
8
0
100
AcDbVertex
100
AcDb2dVertex
62
5
10
136.550000
20
99.586523
0
VERTEX
5
4b1
100
AcDbEntity
8
0
100
AcDbVertex
100
AcDb2dVertex
62
5
10
136.550000
20
99.500000
0
VERTEX
5
4b2
100
AcDbEntity
8
0
100
AcDbVertex
100
AcDb2dVertex
62
5
10
115.450000
20
99.500000
0
VERTEX
5
4b3
100
AcDbEntity
8
0
100
AcDbVertex
100
AcDb2dVertex
62
5
10
115.450000
20
99.586523
0
SEQEND
5
4b4
100
AcDbEntity
8
0
0
ARC
5
4b5
100
AcDbEntity
8
0
100
AcDbCircle
6
CONTINUOUS
62
5
10
122.200003
20
121.649997
40
2.083337
100
AcDbArc
50
90.031628
51
179.999996
0
LINE
5
4b6
100
AcDbEntity
8
0
100
AcDbLine
6
CONTINUOUS
62
5
10
122.198853
20
123.733333
11
129.798847
21
123.733333
0
ARC
5
4b7
100
AcDbEntity
8
0
100
AcDbCircle
6
CONTINUOUS
62
5
10
129.799997
20
121.649997
40
2.083337
100
AcDbArc
50
-0.000002
51
90.031622
0
POLYLINE
5
4b8
100
AcDbEntity
8
0
6
CONTINUOUS
62
5
100
AcDb2dPolyline
66
1
10
0.0
20
0.0
30
0.0
70
0
0
VERTEX
5
4b9
100
AcDbEntity
8
0
100
AcDbVertex
100
AcDb2dVertex
62
5
10
131.883334
20
121.649997
0
VERTEX
5
4ba
100
AcDbEntity
8
0
100
AcDbVertex
100
AcDb2dVertex
62
5
10
131.883333
20
113.533333
0
VERTEX
5
4bb
100
AcDbEntity
8
0
100
AcDbVertex
100
AcDb2dVertex
62
5
10
135.300000
20
113.533333
0
VERTEX
5
4bc
100
AcDbEntity
8
0
100
AcDbVertex
100
AcDb2dVertex
62
5
10
135.375912
20
113.393333
0
VERTEX
5
4bd
100
AcDbEntity
8
0
100
AcDbVertex
100
AcDb2dVertex
62
5
10
137.910521
20
113.393333
0
SEQEND
5
4be
100
AcDbEntity
8
0
0
ARC
5
4bf
100
AcDbEntity
8
0
100
AcDbCircle
6
CONTINUOUS
62
5
10
137.910521
20
110.393333
40
3.000000
100
AcDbArc
50
21.223656
51
89.999999
0
LINE
5
4c0
100
AcDbEntity
8
0
100
AcDbLine
6
CONTINUOUS
62
5
10
140.707044
20
111.479362
11
140.743290
21
111.386028
0
POLYLINE
5
4c1
100
AcDbEntity
8
0
6
CONTINUOUS
62
5
100
AcDb2dPolyline
66
1
10
0.0
20
0.0
30
0.0
70
0
0
VERTEX
5
4c2
100
AcDbEntity
8
0
100
AcDbVertex
100
AcDb2dVertex
62
5
10
120.350000
20
113.300000
0
VERTEX
5
4c3
100
AcDbEntity
8
0
100
AcDbVertex
100
AcDb2dVertex
62
5
10
120.116667
20
113.533333
0
VERTEX
5
4c4
100
AcDbEntity
8
0
100
AcDbVertex
100
AcDb2dVertex
62
5
10
120.116666
20
121.649997
0
SEQEND
5
4c5
100
AcDbEntity
8
0
0
ARC
5
4c6
100
AcDbEntity
8
0
100
AcDbCircle
6
CONTINUOUS
62
5
10
132.850000
20
114.500000
40
0.500000
100
AcDbArc
50
179.999998
51
-89.999999
0
POLYLINE
5
4c7
100
AcDbEntity
8
0
6
CONTINUOUS
62
5
100
AcDb2dPolyline
66
1
10
0.0
20
0.0
30
0.0
70
0
0
VERTEX
5
4c8
100
AcDbEntity
8
0
100
AcDbVertex
100
AcDb2dVertex
62
5
10
132.350000
20
114.500000
0
VERTEX
5
4c9
100
AcDbEntity
8
0
100
AcDbVertex
100
AcDb2dVertex
62
5
10
132.350000
20
116.500000
0
VERTEX
5
4ca
100
AcDbEntity
8
0
100
AcDbVertex
100
AcDb2dVertex
62
5
10
132.585786
20
116.500000
0
SEQEND
5
4cb
100
AcDbEntity
8
0
0
ARC
5
4cc
100
AcDbEntity
8
0
100
AcDbCircle
6
CONTINUOUS
62
5
10
134.000000
20
118.250000
40
2.250000
100
AcDbArc
50
-128.942440
51
128.942440
0
POLYLINE
5
4cd
100
AcDbEntity
8
0
6
CONTINUOUS
62
5
100
AcDb2dPolyline
66
1
10
0.0
20
0.0
30
0.0
70
0
0
VERTEX
5
4ce
100
AcDbEntity
8
0
100
AcDbVertex
100
AcDb2dVertex
62
5
10
132.585786
20
120.000000
0
VERTEX
5
4cf
100
AcDbEntity
8
0
100
AcDbVertex
100
AcDb2dVertex
62
5
10
132.350000
20
120.000000
0
VERTEX
5
4d0
100
AcDbEntity
8
0
100
AcDbVertex
100
AcDb2dVertex
62
5
10
132.350000
20
121.650000
0
SEQEND
5
4d1
100
AcDbEntity
8
0
0
ARC
5
4d2
100
AcDbEntity
8
0
100
AcDbCircle
6
CONTINUOUS
62
5
10
129.800000
20
121.650000
40
2.550000
100
AcDbArc
50
-0.000000
51
89.999999
0
LINE
5
4d3
100
AcDbEntity
8
0
100
AcDbLine
6
CONTINUOUS
62
5
10
129.800000
20
124.200000
11
122.200000
21
124.200000
0
ARC
5
4d4
100
AcDbEntity
8
0
100
AcDbCircle
6
CONTINUOUS
62
5
10
122.200000
20
121.650000
40
2.550000
100
AcDbArc
50
89.999999
51
179.999989
0
POLYLINE
5
4d5
100
AcDbEntity
8
0
6
CONTINUOUS
62
5
100
AcDb2dPolyline
66
1
10
0.0
20
0.0
30
0.0
70
0
0
VERTEX
5
4d6
100
AcDbEntity
8
0
100
AcDbVertex
100
AcDb2dVertex
62
5
10
119.650000
20
121.650000
0
VERTEX
5
4d7
100
AcDbEntity
8
0
100
AcDbVertex
100
AcDb2dVertex
62
5
10
119.650000
20
120.000000
0
VERTEX
5
4d8
100
AcDbEntity
8
0
100
AcDbVertex
100
AcDb2dVertex
62
5
10
119.414214
20
120.000000
0
SEQEND
5
4d9
100
AcDbEntity
8
0
0
ARC
5
4da
100
AcDbEntity
8
0
100
AcDbCircle
6
CONTINUOUS
62
5
10
118.000000
20
118.250000
40
2.250000
100
AcDbArc
50
51.057558
51
-51.057558
0
POLYLINE
5
4db
100
AcDbEntity
8
0
6
CONTINUOUS
62
5
100
AcDb2dPolyline
66
1
10
0.0
20
0.0
30
0.0
70
0
0
VERTEX
5
4dc
100
AcDbEntity
8
0
100
AcDbVertex
100
AcDb2dVertex
62
5
10
119.414214
20
116.500000
0
VERTEX
5
4dd
100
AcDbEntity
8
0
100
AcDbVertex
100
AcDb2dVertex
62
5
10
119.650000
20
116.500000
0
VERTEX
5
4de
100
AcDbEntity
8
0
100
AcDbVertex
100
AcDb2dVertex
62
5
10
119.650000
20
114.500000
0
SEQEND
5
4df
100
AcDbEntity
8
0
0
ARC
5
4e0
100
AcDbEntity
8
0
100
AcDbCircle
6
CONTINUOUS
62
5
10
119.150000
20
114.500000
40
0.500000
100
AcDbArc
50
-89.999999
51
-0.000000
0
POLYLINE
5
4e1
100
AcDbEntity
8
0
6
CONTINUOUS
62
5
100
AcDb2dPolyline
66
1
10
0.0
20
0.0
30
0.0
70
0
0
VERTEX
5
4e2
100
AcDbEntity
8
0
100
AcDbVertex
100
AcDb2dVertex
62
5
10
119.150000
20
114.000000
0
VERTEX
5
4e3
100
AcDbEntity
8
0
100
AcDbVertex
100
AcDb2dVertex
62
5
10
112.000000
20
114.000000
0
VERTEX
5
4e4
100
AcDbEntity
8
0
100
AcDbVertex
100
AcDb2dVertex
62
5
10
108.000000
20
117.600000
0
VERTEX
5
4e5
100
AcDbEntity
8
0
100
AcDbVertex
100
AcDb2dVertex
62
5
10
94.500000
20
117.600000
0
SEQEND
5
4e6
100
AcDbEntity
8
0
0
POLYLINE
5
4e7
100
AcDbEntity
8
0
6
CONTINUOUS
62
5
100
AcDb2dPolyline
66
1
10
0.0
20
0.0
30
0.0
70
0
0
VERTEX
5
4e8
100
AcDbEntity
8
0
100
AcDbVertex
100
AcDb2dVertex
62
5
10
157.500000
20
117.600000
0
VERTEX
5
4e9
100
AcDbEntity
8
0
100
AcDbVertex
100
AcDb2dVertex
62
5
10
144.000000
20
117.600000
0
VERTEX
5
4ea
100
AcDbEntity
8
0
100
AcDbVertex
100
AcDb2dVertex
62
5
10
140.000000
20
114.000000
0
VERTEX
5
4eb
100
AcDbEntity
8
0
100
AcDbVertex
100
AcDb2dVertex
62
5
10
132.850000
20
114.000000
0
SEQEND
5
4ec
100
AcDbEntity
8
0
0
ARC
5
4ed
100
AcDbEntity
8
0
100
AcDbCircle
6
CONTINUOUS
62
5
10
152.000000
20
129.000000
40
1.000000
100
AcDbArc
50
179.999998
51
-89.999999
0
LINE
5
4ee
100
AcDbEntity
8
0
100
AcDbLine
6
CONTINUOUS
62
5
10
152.000000
20
128.000000
11
157.500000
21
128.000000
0
LINE
5
4ef
100
AcDbEntity
8
0
100
AcDbLine
6
CONTINUOUS
62
5
10
157.500000
20
152.000000
11
152.000000
21
152.000000
0
ARC
5
4f0
100
AcDbEntity
8
0
100
AcDbCircle
6
CONTINUOUS
62
5
10
152.000000
20
151.000000
40
1.000000
100
AcDbArc
50
89.999999
51
179.999998
0
LINE
5
4f1
100
AcDbEntity
8
0
100
AcDbLine
6
CONTINUOUS
62
5
10
151.000000
20
151.000000
11
151.000000
21
129.000000
0
ARC
5
4f2
100
AcDbEntity
8
0
100
AcDbCircle
6
CONTINUOUS
62
5
10
139.000000
20
134.000000
40
5.500000
100
AcDbArc
50
-89.999999
51
-0.000000
0
POLYLINE
5
4f3
100
AcDbEntity
8
0
6
CONTINUOUS
62
5
100
AcDb2dPolyline
66
1
10
0.0
20
0.0
30
0.0
70
0
0
VERTEX
5
4f4
100
AcDbEntity
8
0
100
AcDbVertex
100
AcDb2dVertex
62
5
10
139.000000
20
128.500000
0
VERTEX
5
4f5
100
AcDbEntity
8
0
100
AcDbVertex
100
AcDb2dVertex
62
5
10
138.800000
20
127.000000
0
VERTEX
5
4f6
100
AcDbEntity
8
0
100
AcDbVertex
100
AcDb2dVertex
62
5
10
139.000000
20
127.000000
0
SEQEND
5
4f7
100
AcDbEntity
8
0
0
ARC
5
4f8
100
AcDbEntity
8
0
100
AcDbCircle
6
CONTINUOUS
62
5
10
139.000000
20
134.000000
40
7.000000
100
AcDbArc
50
-89.999999
51
0.000000
0
LINE
5
4f9
100
AcDbEntity
8
0
100
AcDbLine
6
CONTINUOUS
62
5
10
146.000000
20
134.000000
11
146.000000
21
158.200000
0
POLYLINE
5
4fa
100
AcDbEntity
8
0
6
CONTINUOUS
62
5
100
AcDb2dPolyline
66
1
10
0.0
20
0.0
30
0.0
70
0
0
VERTEX
5
4fb
100
AcDbEntity
8
0
100
AcDbVertex
100
AcDb2dVertex
62
5
10
146.000000
20
158.200000
0
VERTEX
5
4fc
100
AcDbEntity
8
0
100
AcDbVertex
100
AcDb2dVertex
62
5
10
144.500000
20
158.000000
0
VERTEX
5
4fd
100
AcDbEntity
8
0
100
AcDbVertex
100
AcDb2dVertex
62
5
10
144.500000
20
134.000000
0
SEQEND
5
4fe
100
AcDbEntity
8
0
0
ARC
5
4ff
100
AcDbEntity
8
0
100
AcDbCircle
6
CONTINUOUS
62
5
10
113.000000
20
134.000000
40
5.500000
100
AcDbArc
50
-179.999998
51
-89.999999
0
POLYLINE
5
500
100
AcDbEntity
8
0
6
CONTINUOUS
62
5
100
AcDb2dPolyline
66
1
10
0.0
20
0.0
30
0.0
70
0
0
VERTEX
5
501
100
AcDbEntity
8
0
100
AcDbVertex
100
AcDb2dVertex
62
5
10
113.000000
20
128.500000
0
VERTEX
5
502
100
AcDbEntity
8
0
100
AcDbVertex
100
AcDb2dVertex
62
5
10
113.200000
20
127.000000
0
VERTEX
5
503
100
AcDbEntity
8
0
100
AcDbVertex
100
AcDb2dVertex
62
5
10
113.000000
20
127.000000
0
SEQEND
5
504
100
AcDbEntity
8
0
0
ARC
5
505
100
AcDbEntity
8
0
100
AcDbCircle
6
CONTINUOUS
62
5
10
113.000000
20
134.000000
40
7.000000
100
AcDbArc
50
179.999998
51
-89.999999
0
LINE
5
506
100
AcDbEntity
8
0
100
AcDbLine
6
CONTINUOUS
62
5
10
106.000000
20
134.000000
11
106.000000
21
158.200000
0
POLYLINE
5
507
100
AcDbEntity
8
0
6
CONTINUOUS
62
5
100
AcDb2dPolyline
66
1
10
0.0
20
0.0
30
0.0
70
0
0
VERTEX
5
508
100
AcDbEntity
8
0
100
AcDbVertex
100
AcDb2dVertex
62
5
10
106.000000
20
158.200000
0
VERTEX
5
509
100
AcDbEntity
8
0
100
AcDbVertex
100
AcDb2dVertex
62
5
10
107.500000
20
158.000000
0
VERTEX
5
50a
100
AcDbEntity
8
0
100
AcDbVertex
100
AcDb2dVertex
62
5
10
107.500000
20
134.000000
0
SEQEND
5
50b
100
AcDbEntity
8
0
0
ARC
5
50c
100
AcDbEntity
8
0
100
AcDbCircle
6
CONTINUOUS
62
5
10
100.000000
20
129.000000
40
1.000000
100
AcDbArc
50
-89.999999
51
0.000000
0
LINE
5
50d
100
AcDbEntity
8
0
100
AcDbLine
6
CONTINUOUS
62
5
10
100.000000
20
128.000000
11
94.500000
21
128.000000
0
LINE
5
50e
100
AcDbEntity
8
0
100
AcDbLine
6
CONTINUOUS
62
5
10
94.500000
20
152.000000
11
100.000000
21
152.000000
0
ARC
5
50f
100
AcDbEntity
8
0
100
AcDbCircle
6
CONTINUOUS
62
5
10
100.000000
20
151.000000
40
1.000000
100
AcDbArc
50
0.000000
51
89.999999
0
LINE
5
510
100
AcDbEntity
8
0
100
AcDbLine
6
CONTINUOUS
62
5
10
101.000000
20
151.000000
11
101.000000
21
129.000000
0
ARC
5
511
100
AcDbEntity
8
0
100
AcDbCircle
6
CONTINUOUS
62
5
10
126.000000
20
142.999626
40
7.999626
100
AcDbArc
50
-164.040003
51
-15.959996
0
LINE
5
512
100
AcDbEntity
8
0
100
AcDbLine
6
CONTINUOUS
62
5
10
118.308728
20
140.800000
11
116.712912
21
141.000000
0
ARC
5
513
100
AcDbEntity
8
0
100
AcDbCircle
6
CONTINUOUS
62
5
10
126.000000
20
143.000000
40
9.500000
100
AcDbArc
50
-167.846801
51
-12.153197
0
LINE
5
514
100
AcDbEntity
8
0
100
AcDbLine
6
CONTINUOUS
62
5
10
135.287088
20
141.000000
11
133.691272
21
140.800000
0
POLYLINE
5
515
100
AcDbEntity
8
1
6
DOT2
62
5
100
AcDb2dPolyline
66
1
10
0.0
20
0.0
30
0.0
70
0
0
VERTEX
5
516
100
AcDbEntity
8
1
100
AcDbVertex
100
AcDb2dVertex
62
5
10
58.937500
20
158.750000
0
VERTEX
5
517
100
AcDbEntity
8
1
100
AcDbVertex
100
AcDb2dVertex
62
5
10
57.375000
20
159.062500
0
VERTEX
5
518
100
AcDbEntity
8
1
100
AcDbVertex
100
AcDb2dVertex
62
5
10
56.750000
20
160.000000
0
VERTEX
5
519
100
AcDbEntity
8
1
100
AcDbVertex
100
AcDb2dVertex
62
5
10
56.750000
20
160.937500
0
VERTEX
5
51a
100
AcDbEntity
8
1
100
AcDbVertex
100
AcDb2dVertex
62
5
10
57.062500
20
161.562500
0
VERTEX
5
51b
100
AcDbEntity
8
1
100
AcDbVertex
100
AcDb2dVertex
62
5
10
58.000000
20
161.875000
0
VERTEX
5
51c
100
AcDbEntity
8
1
100
AcDbVertex
100
AcDb2dVertex
62
5
10
58.937500
20
161.875000
0
VERTEX
5
51d
100
AcDbEntity
8
1
100
AcDbVertex
100
AcDb2dVertex
62
5
10
59.875000
20
161.562500
0
VERTEX
5
51e
100
AcDbEntity
8
1
100
AcDbVertex
100
AcDb2dVertex
62
5
10
64.250000
20
158.750000
0
VERTEX
5
51f
100
AcDbEntity
8
1
100
AcDbVertex
100
AcDb2dVertex
62
5
10
64.250000
20
161.875000
0
VERTEX
5
520
100
AcDbEntity
8
1
100
AcDbVertex
100
AcDb2dVertex
62
5
10
63.312500
20
161.875000
0
SEQEND
5
521
100
AcDbEntity
8
1
0
POLYLINE
5
522
100
AcDbEntity
8
1
6
DOT2
62
5
100
AcDb2dPolyline
66
1
10
0.0
20
0.0
30
0.0
70
0
0
VERTEX
5
523
100
AcDbEntity
8
1
100
AcDbVertex
100
AcDb2dVertex
62
5
10
57.375000
20
164.375000
0
VERTEX
5
524
100
AcDbEntity
8
1
100
AcDbVertex
100
AcDb2dVertex
62
5
10
56.750000
20
165.312500
0
VERTEX
5
525
100
AcDbEntity
8
1
100
AcDbVertex
100
AcDb2dVertex
62
5
10
64.250000
20
165.312500
0
SEQEND
5
526
100
AcDbEntity
8
1
0
LINE
5
527
100
AcDbEntity
8
1
100
AcDbLine
6
DOT2
62
5
10
64.250000
20
164.687500
11
64.250000
21
165.937500
0
POLYLINE
5
528
100
AcDbEntity
8
1
6
DOT2
62
5
100
AcDb2dPolyline
66
1
10
0.0
20
0.0
30
0.0
70
0
0
VERTEX
5
529
100
AcDbEntity
8
1
100
AcDbVertex
100
AcDb2dVertex
62
5
10
57.375000
20
154.375000
0
VERTEX
5
52a
100
AcDbEntity
8
1
100
AcDbVertex
100
AcDb2dVertex
62
5
10
56.750000
20
155.312500
0
VERTEX
5
52b
100
AcDbEntity
8
1
100
AcDbVertex
100
AcDb2dVertex
62
5
10
64.250000
20
155.312500
0
SEQEND
5
52c
100
AcDbEntity
8
1
0
LINE
5
52d
100
AcDbEntity
8
1
100
AcDbLine
6
DOT2
62
5
10
64.250000
20
154.687500
11
64.250000
21
155.937500
0
LINE
5
52e
100
AcDbEntity
8
1
100
AcDbLine
6
CONTINUOUS
62
5
10
96.500000
20
220.500000
11
63.500000
21
220.500000
0
LINE
5
52f
100
AcDbEntity
8
1
100
AcDbLine
6
CONTINUOUS
62
5
10
96.500000
20
99.500000
11
63.500000
21
99.500000
0
POLYLINE
5
530
100
AcDbEntity
8
1
6
CONTINUOUS
62
5
100
AcDb2dPolyline
66
1
10
0.0
20
0.0
30
0.0
70
0
0
VERTEX
5
531
100
AcDbEntity
8
1
100
AcDbVertex
100
AcDb2dVertex
62
5
10
65.500000
20
160.000000
0
VERTEX
5
532
100
AcDbEntity
8
1
100
AcDbVertex
100
AcDb2dVertex
62
5
10
65.500000
20
99.500000
0
VERTEX
5
533
100
AcDbEntity
8
1
100
AcDbVertex
100
AcDb2dVertex
62
5
10
64.500000
20
105.500000
0
VERTEX
5
534
100
AcDbEntity
8
1
100
AcDbVertex
100
AcDb2dVertex
62
5
10
66.500000
20
105.500000
0
VERTEX
5
535
100
AcDbEntity
8
1
100
AcDbVertex
100
AcDb2dVertex
62
5
10
65.500000
20
99.500000
0
VERTEX
5
536
100
AcDbEntity
8
1
100
AcDbVertex
100
AcDb2dVertex
62
5
10
65.000000
20
105.500000
0
VERTEX
5
537
100
AcDbEntity
8
1
100
AcDbVertex
100
AcDb2dVertex
62
5
10
66.000000
20
105.500000
0
VERTEX
5
538
100
AcDbEntity
8
1
100
AcDbVertex
100
AcDb2dVertex
62
5
10
65.500000
20
99.500000
0
SEQEND
5
539
100
AcDbEntity
8
1
0
POLYLINE
5
53a
100
AcDbEntity
8
1
6
CONTINUOUS
62
5
100
AcDb2dPolyline
66
1
10
0.0
20
0.0
30
0.0
70
0
0
VERTEX
5
53b
100
AcDbEntity
8
1
100
AcDbVertex
100
AcDb2dVertex
62
5
10
65.500000
20
160.000000
0
VERTEX
5
53c
100
AcDbEntity
8
1
100
AcDbVertex
100
AcDb2dVertex
62
5
10
65.500000
20
220.500000
0
VERTEX
5
53d
100
AcDbEntity
8
1
100
AcDbVertex
100
AcDb2dVertex
62
5
10
66.500000
20
214.500000
0
VERTEX
5
53e
100
AcDbEntity
8
1
100
AcDbVertex
100
AcDb2dVertex
62
5
10
64.500000
20
214.500000
0
VERTEX
5
53f
100
AcDbEntity
8
1
100
AcDbVertex
100
AcDb2dVertex
62
5
10
65.500000
20
220.500000
0
VERTEX
5
540
100
AcDbEntity
8
1
100
AcDbVertex
100
AcDb2dVertex
62
5
10
66.000000
20
214.500000
0
VERTEX
5
541
100
AcDbEntity
8
1
100
AcDbVertex
100
AcDb2dVertex
62
5
10
65.000000
20
214.500000
0
VERTEX
5
542
100
AcDbEntity
8
1
100
AcDbVertex
100
AcDb2dVertex
62
5
10
65.500000
20
220.500000
0
SEQEND
5
543
100
AcDbEntity
8
1
0
POLYLINE
5
544
100
AcDbEntity
8
0
6
CONTINUOUS
62
5
100
AcDb2dPolyline
66
1
10
0.0
20
0.0
30
0.0
70
1
0
VERTEX
5
545
100
AcDbEntity
8
0
100
AcDbVertex
100
AcDb2dVertex
62
5
10
216.500000
20
100.000000
0
VERTEX
5
546
100
AcDbEntity
8
0
100
AcDbVertex
100
AcDb2dVertex
62
5
10
216.500000
20
220.000000
0
VERTEX
5
547
100
AcDbEntity
8
0
100
AcDbVertex
100
AcDb2dVertex
62
5
10
249.500000
20
220.500000
0
VERTEX
5
548
100
AcDbEntity
8
0
100
AcDbVertex
100
AcDb2dVertex
62
5
10
249.500000
20
99.500000
0
SEQEND
5
549
100
AcDbEntity
8
0
0
POLYLINE
5
54a
100
AcDbEntity
8
0
6
CONTINUOUS
62
5
100
AcDb2dPolyline
66
1
10
0.0
20
0.0
30
0.0
70
1
0
VERTEX
5
54b
100
AcDbEntity
8
0
100
AcDbVertex
100
AcDb2dVertex
62
5
10
216.500000
20
220.000000
0
VERTEX
5
54c
100
AcDbEntity
8
0
100
AcDbVertex
100
AcDb2dVertex
62
5
10
216.500000
20
100.000000
0
VERTEX
5
54d
100
AcDbEntity
8
0
100
AcDbVertex
100
AcDb2dVertex
62
5
10
249.500000
20
99.500000
0
VERTEX
5
54e
100
AcDbEntity
8
0
100
AcDbVertex
100
AcDb2dVertex
62
5
10
249.500000
20
220.500000
0
SEQEND
5
54f
100
AcDbEntity
8
0
0
ARC
5
550
100
AcDbEntity
8
0
100
AcDbCircle
6
CONTINUOUS
62
5
10
152.000000
20
173.000000
40
1.000000
100
AcDbArc
50
179.999998
51
-89.999999
0
LINE
5
551
100
AcDbEntity
8
0
100
AcDbLine
6
CONTINUOUS
62
5
10
152.000000
20
172.000000
11
153.500000
21
172.000000
0
LINE
5
552
100
AcDbEntity
8
0
100
AcDbLine
6
CONTINUOUS
62
5
10
157.500000
20
192.000000
11
152.000000
21
192.000000
0
ARC
5
553
100
AcDbEntity
8
0
100
AcDbCircle
6
CONTINUOUS
62
5
10
152.000000
20
191.000000
40
1.000000
100
AcDbArc
50
89.999999
51
179.999998
0
LINE
5
554
100
AcDbEntity
8
0
100
AcDbLine
6
CONTINUOUS
62
5
10
151.000000
20
191.000000
11
151.000000
21
173.000000
0
ARC
5
555
100
AcDbEntity
8
0
100
AcDbCircle
6
CONTINUOUS
62
5
10
126.000000
20
177.000374
40
7.999626
100
AcDbArc
50
15.959996
51
164.040003
0
LINE
5
556
100
AcDbEntity
8
0
100
AcDbLine
6
CONTINUOUS
62
5
10
118.308728
20
179.200000
11
116.712912
21
179.000000
0
ARC
5
557
100
AcDbEntity
8
0
100
AcDbCircle
6
CONTINUOUS
62
5
10
126.000000
20
177.000000
40
9.500000
100
AcDbArc
50
12.153197
51
167.846801
0
LINE
5
558
100
AcDbEntity
8
0
100
AcDbLine
6
CONTINUOUS
62
5
10
135.287088
20
179.000000
11
133.691272
21
179.200000
0
ARC
5
559
100
AcDbEntity
8
0
100
AcDbCircle
6
CONTINUOUS
62
5
10
113.000000
20
186.000000
40
5.500000
100
AcDbArc
50
89.999999
51
179.999998
0
POLYLINE
5
55a
100
AcDbEntity
8
0
6
CONTINUOUS
62
5
100
AcDb2dPolyline
66
1
10
0.0
20
0.0
30
0.0
70
0
0
VERTEX
5
55b
100
AcDbEntity
8
0
100
AcDbVertex
100
AcDb2dVertex
62
5
10
113.000000
20
191.500000
0
VERTEX
5
55c
100
AcDbEntity
8
0
100
AcDbVertex
100
AcDb2dVertex
62
5
10
113.200000
20
193.000000
0
VERTEX
5
55d
100
AcDbEntity
8
0
100
AcDbVertex
100
AcDb2dVertex
62
5
10
113.000000
20
193.000000
0
SEQEND
5
55e
100
AcDbEntity
8
0
0
ARC
5
55f
100
AcDbEntity
8
0
100
AcDbCircle
6
CONTINUOUS
62
5
10
113.000000
20
186.000000
40
7.000000
100
AcDbArc
50
89.999999
51
-179.999998
0
LINE
5
560
100
AcDbEntity
8
0
100
AcDbLine
6
CONTINUOUS
62
5
10
106.000000
20
186.000000
11
106.000000
21
161.800000
0
POLYLINE
5
561
100
AcDbEntity
8
0
6
CONTINUOUS
62
5
100
AcDb2dPolyline
66
1
10
0.0
20
0.0
30
0.0
70
0
0
VERTEX
5
562
100
AcDbEntity
8
0
100
AcDbVertex
100
AcDb2dVertex
62
5
10
106.000000
20
161.800000
0
VERTEX
5
563
100
AcDbEntity
8
0
100
AcDbVertex
100
AcDb2dVertex
62
5
10
107.500000
20
162.000000
0
VERTEX
5
564
100
AcDbEntity
8
0
100
AcDbVertex
100
AcDb2dVertex
62
5
10
107.500000
20
186.000000
0
SEQEND
5
565
100
AcDbEntity
8
0
0
ARC
5
566
100
AcDbEntity
8
0
100
AcDbCircle
6
CONTINUOUS
62
5
10
100.000000
20
173.000000
40
1.000000
100
AcDbArc
50
-89.999999
51
0.000000
0
LINE
5
567
100
AcDbEntity
8
0
100
AcDbLine
6
CONTINUOUS
62
5
10
100.000000
20
172.000000
11
98.500000
21
172.000000
0
LINE
5
568
100
AcDbEntity
8
0
100
AcDbLine
6
CONTINUOUS
62
5
10
94.500000
20
192.000000
11
100.000000
21
192.000000
0
ARC
5
569
100
AcDbEntity
8
0
100
AcDbCircle
6
CONTINUOUS
62
5
10
100.000000
20
191.000000
40
1.000000
100
AcDbArc
50
0.000000
51
89.999999
0
LINE
5
56a
100
AcDbEntity
8
0
100
AcDbLine
6
CONTINUOUS
62
5
10
101.000000
20
191.000000
11
101.000000
21
173.000000
0
ARC
5
56b
100
AcDbEntity
8
0
100
AcDbCircle
6
CONTINUOUS
62
5
10
139.000000
20
186.000000
40
5.500000
100
AcDbArc
50
0.000000
51
89.999999
0
POLYLINE
5
56c
100
AcDbEntity
8
0
6
CONTINUOUS
62
5
100
AcDb2dPolyline
66
1
10
0.0
20
0.0
30
0.0
70
0
0
VERTEX
5
56d
100
AcDbEntity
8
0
100
AcDbVertex
100
AcDb2dVertex
62
5
10
139.000000
20
191.500000
0
VERTEX
5
56e
100
AcDbEntity
8
0
100
AcDbVertex
100
AcDb2dVertex
62
5
10
138.800000
20
193.000000
0
VERTEX
5
56f
100
AcDbEntity
8
0
100
AcDbVertex
100
AcDb2dVertex
62
5
10
139.000000
20
193.000000
0
SEQEND
5
570
100
AcDbEntity
8
0
0
ARC
5
571
100
AcDbEntity
8
0
100
AcDbCircle
6
CONTINUOUS
62
5
10
139.000000
20
186.000000
40
7.000000
100
AcDbArc
50
-0.000000
51
89.999999
0
LINE
5
572
100
AcDbEntity
8
0
100
AcDbLine
6
CONTINUOUS
62
5
10
146.000000
20
186.000000
11
146.000000
21
161.800000
0
POLYLINE
5
573
100
AcDbEntity
8
0
6
CONTINUOUS
62
5
100
AcDb2dPolyline
66
1
10
0.0
20
0.0
30
0.0
70
0
0
VERTEX
5
574
100
AcDbEntity
8
0
100
AcDbVertex
100
AcDb2dVertex
62
5
10
146.000000
20
161.800000
0
VERTEX
5
575
100
AcDbEntity
8
0
100
AcDbVertex
100
AcDb2dVertex
62
5
10
144.500000
20
162.000000
0
VERTEX
5
576
100
AcDbEntity
8
0
100
AcDbVertex
100
AcDb2dVertex
62
5
10
144.500000
20
186.000000
0
SEQEND
5
577
100
AcDbEntity
8
0
0
ARC
5
578
100
AcDbEntity
8
0
100
AcDbCircle
6
CONTINUOUS
62
5
10
139.000000
20
134.000000
40
3.500000
100
AcDbArc
50
-89.999999
51
-0.000000
0
POLYLINE
5
579
100
AcDbEntity
8
0
6
CONTINUOUS
62
5
100
AcDb2dPolyline
66
1
10
0.0
20
0.0
30
0.0
70
0
0
VERTEX
5
57a
100
AcDbEntity
8
0
100
AcDbVertex
100
AcDb2dVertex
62
5
10
142.500000
20
134.000000
0
VERTEX
5
57b
100
AcDbEntity
8
0
100
AcDbVertex
100
AcDb2dVertex
62
5
10
142.500000
20
134.000000
0
VERTEX
5
57c
100
AcDbEntity
8
0
100
AcDbVertex
100
AcDb2dVertex
62
5
10
142.500000
20
186.000000
0
SEQEND
5
57d
100
AcDbEntity
8
0
0
ARC
5
57e
100
AcDbEntity
8
0
100
AcDbCircle
6
CONTINUOUS
62
5
10
139.000000
20
186.000000
40
3.500000
100
AcDbArc
50
0.000000
51
89.999999
0
POLYLINE
5
57f
100
AcDbEntity
8
0
6
CONTINUOUS
62
5
100
AcDb2dPolyline
66
1
10
0.0
20
0.0
30
0.0
70
0
0
VERTEX
5
580
100
AcDbEntity
8
0
100
AcDbVertex
100
AcDb2dVertex
62
5
10
139.000000
20
189.500000
0
VERTEX
5
581
100
AcDbEntity
8
0
100
AcDbVertex
100
AcDb2dVertex
62
5
10
139.000000
20
189.500000
0
VERTEX
5
582
100
AcDbEntity
8
0
100
AcDbVertex
100
AcDb2dVertex
62
5
10
113.000000
20
189.500000
0
SEQEND
5
583
100
AcDbEntity
8
0
0
ARC
5
584
100
AcDbEntity
8
0
100
AcDbCircle
6
CONTINUOUS
62
5
10
113.000000
20
186.000000
40
3.500000
100
AcDbArc
50
89.999999
51
179.999998
0
POLYLINE
5
585
100
AcDbEntity
8
0
6
CONTINUOUS
62
5
100
AcDb2dPolyline
66
1
10
0.0
20
0.0
30
0.0
70
0
0
VERTEX
5
586
100
AcDbEntity
8
0
100
AcDbVertex
100
AcDb2dVertex
62
5
10
109.500000
20
186.000000
0
VERTEX
5
587
100
AcDbEntity
8
0
100
AcDbVertex
100
AcDb2dVertex
62
5
10
109.500000
20
186.000000
0
VERTEX
5
588
100
AcDbEntity
8
0
100
AcDbVertex
100
AcDb2dVertex
62
5
10
109.500000
20
134.000000
0
SEQEND
5
589
100
AcDbEntity
8
0
0
ARC
5
58a
100
AcDbEntity
8
0
100
AcDbCircle
6
CONTINUOUS
62
5
10
113.000000
20
134.000000
40
3.500000
100
AcDbArc
50
179.999998
51
-89.999999
0
LINE
5
58b
100
AcDbEntity
8
0
100
AcDbLine
6
CONTINUOUS
62
5
10
113.000000
20
130.500000
11
113.000000
21
130.500000
0
LINE
5
58c
100
AcDbEntity
8
0
100
AcDbLine
6
CONTINUOUS
62
5
10
113.000000
20
130.500000
11
139.000000
21
130.500000
0
ARC
5
58d
100
AcDbEntity
8
0
100
AcDbCircle
6
CONTINUOUS
62
5
10
129.799997
20
121.649997
40
1.850003
100
AcDbArc
50
0.000006
51
89.999999
0
LINE
5
58e
100
AcDbEntity
8
0
100
AcDbLine
6
CONTINUOUS
62
5
10
129.799997
20
123.500000
11
122.200003
21
123.500000
0
ARC
5
58f
100
AcDbEntity
8
0
100
AcDbCircle
6
CONTINUOUS
62
5
10
122.200003
20
121.649997
40
1.850003
100
AcDbArc
50
89.999999
51
179.999993
0
POLYLINE
5
590
100
AcDbEntity
8
0
6
CONTINUOUS
62
5
100
AcDb2dPolyline
66
1
10
0.0
20
0.0
30
0.0
70
0
0
VERTEX
5
591
100
AcDbEntity
8
0
100
AcDbVertex
100
AcDb2dVertex
62
5
10
120.350000
20
121.649997
0
VERTEX
5
592
100
AcDbEntity
8
0
100
AcDbVertex
100
AcDb2dVertex
62
5
10
120.350000
20
113.300000
0
VERTEX
5
593
100
AcDbEntity
8
0
100
AcDbVertex
100
AcDb2dVertex
62
5
10
114.053233
20
113.300000
0
SEQEND
5
594
100
AcDbEntity
8
0
0
ARC
5
595
100
AcDbEntity
8
0
100
AcDbCircle
6
CONTINUOUS
62
5
10
114.053233
20
110.300000
40
3.000000
100
AcDbArc
50
89.999999
51
158.776342
0
POLYLINE
5
596
100
AcDbEntity
8
0
6
CONTINUOUS
62
5
100
AcDb2dPolyline
66
1
10
0.0
20
0.0
30
0.0
70
0
0
VERTEX
5
597
100
AcDbEntity
8
0
100
AcDbVertex
100
AcDb2dVertex
62
5
10
111.256710
20
111.386028
0
VERTEX
5
598
100
AcDbEntity
8
0
100
AcDbVertex
100
AcDb2dVertex
62
5
10
108.155340
20
103.400000
0
VERTEX
5
599
100
AcDbEntity
8
0
100
AcDbVertex
100
AcDb2dVertex
62
5
10
97.800000
20
103.400000
0
SEQEND
5
59a
100
AcDbEntity
8
0
0
ARC
5
59b
100
AcDbEntity
8
0
100
AcDbCircle
6
CONTINUOUS
62
5
10
97.800000
20
106.700000
40
3.300000
100
AcDbArc
50
-179.999998
51
-89.999999
0
LINE
5
59c
100
AcDbEntity
8
0
100
AcDbLine
6
CONTINUOUS
62
5
10
94.500000
20
106.700000
11
94.500000
21
213.300000
0
ARC
5
59d
100
AcDbEntity
8
0
100
AcDbCircle
6
CONTINUOUS
62
5
10
97.800000
20
213.300000
40
3.300000
100
AcDbArc
50
89.999999
51
-179.999998
0
POLYLINE
5
59e
100
AcDbEntity
8
0
6
CONTINUOUS
62
5
100
AcDb2dPolyline
66
1
10
0.0
20
0.0
30
0.0
70
0
0
VERTEX
5
59f
100
AcDbEntity
8
0
100
AcDbVertex
100
AcDb2dVertex
62
5
10
97.800000
20
216.600000
0
VERTEX
5
5a0
100
AcDbEntity
8
0
100
AcDbVertex
100
AcDb2dVertex
62
5
10
108.155340
20
216.600000
0
VERTEX
5
5a1
100
AcDbEntity
8
0
100
AcDbVertex
100
AcDb2dVertex
62
5
10
111.256710
20
208.613972
0
SEQEND
5
5a2
100
AcDbEntity
8
0
0
ARC
5
5a3
100
AcDbEntity
8
0
100
AcDbCircle
6
CONTINUOUS
62
5
10
114.053233
20
209.700000
40
3.000000
100
AcDbArc
50
-158.776342
51
-89.999999
0
POLYLINE
5
5a4
100
AcDbEntity
8
0
6
CONTINUOUS
62
5
100
AcDb2dPolyline
66
1
10
0.0
20
0.0
30
0.0
70
0
0
VERTEX
5
5a5
100
AcDbEntity
8
0
100
AcDbVertex
100
AcDb2dVertex
62
5
10
114.053233
20
206.700000
0
VERTEX
5
5a6
100
AcDbEntity
8
0
100
AcDbVertex
100
AcDb2dVertex
62
5
10
120.350000
20
206.700000
0
VERTEX
5
5a7
100
AcDbEntity
8
0
100
AcDbVertex
100
AcDb2dVertex
62
5
10
120.350000
20
198.350003
0
SEQEND
5
5a8
100
AcDbEntity
8
0
0
ARC
5
5a9
100
AcDbEntity
8
0
100
AcDbCircle
6
CONTINUOUS
62
5
10
122.200003
20
198.350003
40
1.850003
100
AcDbArc
50
179.999998
51
-89.999999
0
LINE
5
5aa
100
AcDbEntity
8
0
100
AcDbLine
6
CONTINUOUS
62
5
10
122.200003
20
196.500000
11
129.799997
21
196.500000
0
ARC
5
5ab
100
AcDbEntity
8
0
100
AcDbCircle
6
CONTINUOUS
62
5
10
129.799997
20
198.350003
40
1.850003
100
AcDbArc
50
-89.999999
51
0.000000
0
POLYLINE
5
5ac
100
AcDbEntity
8
0
6
CONTINUOUS
62
5
100
AcDb2dPolyline
66
1
10
0.0
20
0.0
30
0.0
70
0
0
VERTEX
5
5ad
100
AcDbEntity
8
0
100
AcDbVertex
100
AcDb2dVertex
62
5
10
131.650000
20
198.350003
0
VERTEX
5
5ae
100
AcDbEntity
8
0
100
AcDbVertex
100
AcDb2dVertex
62
5
10
131.650000
20
206.700000
0
VERTEX
5
5af
100
AcDbEntity
8
0
100
AcDbVertex
100
AcDb2dVertex
62
5
10
137.946767
20
206.700000
0
SEQEND
5
5b0
100
AcDbEntity
8
0
0
ARC
5
5b1
100
AcDbEntity
8
0
100
AcDbCircle
6
CONTINUOUS
62
5
10
137.946767
20
209.700000
40
3.000000
100
AcDbArc
50
-89.999999
51
-21.223656
0
POLYLINE
5
5b2
100
AcDbEntity
8
0
6
CONTINUOUS
62
5
100
AcDb2dPolyline
66
1
10
0.0
20
0.0
30
0.0
70
0
0
VERTEX
5
5b3
100
AcDbEntity
8
0
100
AcDbVertex
100
AcDb2dVertex
62
5
10
140.743290
20
208.613972
0
VERTEX
5
5b4
100
AcDbEntity
8
0
100
AcDbVertex
100
AcDb2dVertex
62
5
10
143.844660
20
216.600000
0
VERTEX
5
5b5
100
AcDbEntity
8
0
100
AcDbVertex
100
AcDb2dVertex
62
5
10
154.200000
20
216.600000
0
SEQEND
5
5b6
100
AcDbEntity
8
0
0
ARC
5
5b7
100
AcDbEntity
8
0
100
AcDbCircle
6
CONTINUOUS
62
5
10
154.200000
20
213.300000
40
3.300000
100
AcDbArc
50
-0.000000
51
89.999999
0
LINE
5
5b8
100
AcDbEntity
8
0
100
AcDbLine
6
CONTINUOUS
62
5
10
157.500000
20
213.300000
11
157.500000
21
106.700000
0
ARC
5
5b9
100
AcDbEntity
8
0
100
AcDbCircle
6
CONTINUOUS
62
5
10
154.200000
20
106.700000
40
3.300000
100
AcDbArc
50
-89.999999
51
-0.000000
0
POLYLINE
5
5ba
100
AcDbEntity
8
0
6
CONTINUOUS
62
5
100
AcDb2dPolyline
66
1
10
0.0
20
0.0
30
0.0
70
0
0
VERTEX
5
5bb
100
AcDbEntity
8
0
100
AcDbVertex
100
AcDb2dVertex
62
5
10
154.200000
20
103.400000
0
VERTEX
5
5bc
100
AcDbEntity
8
0
100
AcDbVertex
100
AcDb2dVertex
62
5
10
143.844660
20
103.400000
0
VERTEX
5
5bd
100
AcDbEntity
8
0
100
AcDbVertex
100
AcDb2dVertex
62
5
10
140.743290
20
111.386028
0
SEQEND
5
5be
100
AcDbEntity
8
0
0
ARC
5
5bf
100
AcDbEntity
8
0
100
AcDbCircle
6
CONTINUOUS
62
5
10
137.946767
20
110.300000
40
3.000000
100
AcDbArc
50
21.223656
51
89.999999
0
POLYLINE
5
5c0
100
AcDbEntity
8
0
6
CONTINUOUS
62
5
100
AcDb2dPolyline
66
1
10
0.0
20
0.0
30
0.0
70
0
0
VERTEX
5
5c1
100
AcDbEntity
8
0
100
AcDbVertex
100
AcDb2dVertex
62
5
10
137.946767
20
113.300000
0
VERTEX
5
5c2
100
AcDbEntity
8
0
100
AcDbVertex
100
AcDb2dVertex
62
5
10
131.650000
20
113.300000
0
VERTEX
5
5c3
100
AcDbEntity
8
0
100
AcDbVertex
100
AcDb2dVertex
62
5
10
131.650000
20
121.649997
0
SEQEND
5
5c4
100
AcDbEntity
8
0
0
ARC
5
5c5
100
AcDbEntity
8
0
100
AcDbCircle
6
CONTINUOUS
62
5
10
98.000000
20
213.000000
40
7.000000
100
AcDbArc
50
89.999999
51
179.999998
0
LINE
5
5c6
100
AcDbEntity
8
0
100
AcDbLine
6
CONTINUOUS
62
5
10
98.000000
20
220.000000
11
154.000000
21
220.000000
0
ARC
5
5c7
100
AcDbEntity
8
0
100
AcDbCircle
6
CONTINUOUS
62
5
10
154.000000
20
213.000000
40
7.000000
100
AcDbArc
50
0.000000
51
89.999999
0
LINE
5
5c8
100
AcDbEntity
8
0
100
AcDbLine
6
CONTINUOUS
62
5
10
161.000000
20
213.000000
11
161.000000
21
107.000000
0
ARC
5
5c9
100
AcDbEntity
8
0
100
AcDbCircle
6
CONTINUOUS
62
5
10
154.000000
20
107.000000
40
7.000000
100
AcDbArc
50
-89.999999
51
0.000000
0
LINE
5
5ca
100
AcDbEntity
8
0
100
AcDbLine
6
CONTINUOUS
62
5
10
154.000000
20
100.000000
11
98.000000
21
100.000000
0
ARC
5
5cb
100
AcDbEntity
8
0
100
AcDbCircle
6
CONTINUOUS
62
5
10
98.000000
20
107.000000
40
7.000000
100
AcDbArc
50
179.999998
51
-89.999999
0
LINE
5
5cc
100
AcDbEntity
8
0
100
AcDbLine
6
CONTINUOUS
62
5
10
91.000000
20
107.000000
11
91.000000
21
213.000000
0
ARC
5
5cd
100
AcDbEntity
8
0
100
AcDbCircle
6
CONTINUOUS
62
5
10
98.000000
20
107.000000
40
7.500000
100
AcDbArc
50
179.999998
51
-89.999999
0
LINE
5
5ce
100
AcDbEntity
8
0
100
AcDbLine
6
CONTINUOUS
62
5
10
90.500000
20
107.000000
11
90.500000
21
213.000000
0
ARC
5
5cf
100
AcDbEntity
8
0
100
AcDbCircle
6
CONTINUOUS
62
5
10
98.000000
20
213.000000
40
7.500000
100
AcDbArc
50
89.999999
51
179.999998
0
LINE
5
5d0
100
AcDbEntity
8
0
100
AcDbLine
6
CONTINUOUS
62
5
10
98.000000
20
220.500000
11
115.300000
21
220.500000
0
LINE
5
5d1
100
AcDbEntity
8
0
100
AcDbLine
6
CONTINUOUS
62
5
10
136.700000
20
220.500000
11
154.000000
21
220.500000
0
ARC
5
5d2
100
AcDbEntity
8
0
100
AcDbCircle
6
CONTINUOUS
62
5
10
154.000000
20
213.000000
40
7.500000
100
AcDbArc
50
0.000000
51
89.999999
0
LINE
5
5d3
100
AcDbEntity
8
0
100
AcDbLine
6
CONTINUOUS
62
5
10
161.500000
20
213.000000
11
161.500000
21
107.000000
0
ARC
5
5d4
100
AcDbEntity
8
0
100
AcDbCircle
6
CONTINUOUS
62
5
10
154.000000
20
107.000000
40
7.500000
100
AcDbArc
50
-89.999999
51
0.000000
0
LINE
5
5d5
100
AcDbEntity
8
0
100
AcDbLine
6
CONTINUOUS
62
5
10
154.000000
20
99.500000
11
136.700000
21
99.500000
0
LINE
5
5d6
100
AcDbEntity
8
0
100
AcDbLine
6
CONTINUOUS
62
5
10
115.300000
20
99.500000
11
98.000000
21
99.500000
0
POLYLINE
5
5d7
100
AcDbEntity
8
1
6
CONTINUOUS
62
5
100
AcDb2dPolyline
66
1
10
0.0
20
0.0
30
0.0
70
1
0
VERTEX
5
5d8
100
AcDbEntity
8
1
100
AcDbVertex
100
AcDb2dVertex
62
5
10
10.000000
20
10.000000
0
VERTEX
5
5d9
100
AcDbEntity
8
1
100
AcDbVertex
100
AcDb2dVertex
62
5
10
10.000000
20
350.000000
0
VERTEX
5
5da
100
AcDbEntity
8
1
100
AcDbVertex
100
AcDb2dVertex
62
5
10
330.000000
20
350.000000
0
VERTEX
5
5db
100
AcDbEntity
8
1
100
AcDbVertex
100
AcDb2dVertex
62
5
10
330.000000
20
10.000000
0
VERTEX
5
5dc
100
AcDbEntity
8
1
100
AcDbVertex
100
AcDb2dVertex
62
5
10
10.000000
20
10.000000
0
SEQEND
5
5dd
100
AcDbEntity
8
1
0
POLYLINE
5
5de
100
AcDbEntity
8
1
6
DOT2
62
5
100
AcDb2dPolyline
66
1
10
0.0
20
0.0
30
0.0
70
0
0
VERTEX
5
5df
100
AcDbEntity
8
1
100
AcDbVertex
100
AcDb2dVertex
62
5
10
0.000000
20
350.000000
0
VERTEX
5
5e0
100
AcDbEntity
8
1
100
AcDbVertex
100
AcDb2dVertex
62
5
10
0.000000
20
360.000000
0
VERTEX
5
5e1
100
AcDbEntity
8
1
100
AcDbVertex
100
AcDb2dVertex
62
5
10
10.000000
20
360.000000
0
SEQEND
5
5e2
100
AcDbEntity
8
1
0
POLYLINE
5
5e3
100
AcDbEntity
8
1
6
DOT2
62
5
100
AcDb2dPolyline
66
1
10
0.0
20
0.0
30
0.0
70
0
0
VERTEX
5
5e4
100
AcDbEntity
8
1
100
AcDbVertex
100
AcDb2dVertex
62
5
10
330.000000
20
360.000000
0
VERTEX
5
5e5
100
AcDbEntity
8
1
100
AcDbVertex
100
AcDb2dVertex
62
5
10
340.000000
20
360.000000
0
VERTEX
5
5e6
100
AcDbEntity
8
1
100
AcDbVertex
100
AcDb2dVertex
62
5
10
340.000000
20
350.000000
0
SEQEND
5
5e7
100
AcDbEntity
8
1
0
POLYLINE
5
5e8
100
AcDbEntity
8
1
6
DOT2
62
5
100
AcDb2dPolyline
66
1
10
0.0
20
0.0
30
0.0
70
0
0
VERTEX
5
5e9
100
AcDbEntity
8
1
100
AcDbVertex
100
AcDb2dVertex
62
5
10
340.000000
20
10.000000
0
VERTEX
5
5ea
100
AcDbEntity
8
1
100
AcDbVertex
100
AcDb2dVertex
62
5
10
340.000000
20
0.000000
0
VERTEX
5
5eb
100
AcDbEntity
8
1
100
AcDbVertex
100
AcDb2dVertex
62
5
10
330.000000
20
0.000000
0
SEQEND
5
5ec
100
AcDbEntity
8
1
0
POLYLINE
5
5ed
100
AcDbEntity
8
1
6
DOT2
62
5
100
AcDb2dPolyline
66
1
10
0.0
20
0.0
30
0.0
70
0
0
VERTEX
5
5ee
100
AcDbEntity
8
1
100
AcDbVertex
100
AcDb2dVertex
62
5
10
10.000000
20
0.000000
0
VERTEX
5
5ef
100
AcDbEntity
8
1
100
AcDbVertex
100
AcDb2dVertex
62
5
10
0.000000
20
0.000000
0
VERTEX
5
5f0
100
AcDbEntity
8
1
100
AcDbVertex
100
AcDb2dVertex
62
5
10
0.000000
20
10.000000
0
SEQEND
5
5f1
100
AcDbEntity
8
1
0
ENDSEC
0
SECTION
2
OBJECTS
0
DICTIONARY
5
5f2
100
AcDbDictionary
3
ACAD_GROUP
350
5f3
3
ACAD_MLINESTYLE
350
5f4
0
DICTIONARY
5
5f3
102
{ACAD_REACTORS
330
5f2
102
}
100
AcDbDictionary
0
DICTIONARY
5
5f4
102
{ACAD_REACTORS
330
5f2
102
}
100
AcDbDictionary
3
STANDARD
350
5f5
0
MLINESTYLE
5
5f5
102
{ACAD_REACTORS
330
5f4
102
}
100
AcDbMlineStyle
2
STANDARD
70
0
3

62
0
51
90.0
52
90.0
71
2
49
0.5
62
256
6
BYLAYER
49
-0.5
62
256
6
BYLAYER
0
ENDSEC
0
EOF
